999
DXF file: VSAK-2-10_190_7994076_M32394-P-2.dxf
999
Pro/ENGINEER 2010140 by Parametric Technology Corporation
  0
SECTION
  2
HEADER
  9
$ACADVER
  1
AC1015
  9
$DWGCODEPAGE
  3
ANSI_1252
  9
$EXTMAX
 10
841.0
 20
594.0
 30
0.0
  9
$EXTMIN
 10
0.0
 20
0.0
 30
0.0
  9
$LIMMIN
 10
0.0
 20
0.0
  9
$LIMMAX
 10
841.0
 20
594.0
  9
$VIEWCTR
 10
420.5
 20
297.0
  9
$VIEWSIZE
 40
594.0
  9
$CLAYER
  8
0
  9
$LTSCALE
 40
46.255
  9
$CELTYPE
  6
BYLAYER
  9
$DIMSCALE
 40
1.0
  9
$DIMASZ
 40
3.5
  9
$DIMEXO
 40
5.25625
  9
$DIMDLI
 40
31.958
  9
$DIMEXE
 40
15.138
  9
$DIMCEN
 40
7.569
  9
$DIMLFAC
 40
1.0
  9
$DIMBLK
  1
_FILLED
  9
$DIMTXT
 40
3.5
  9
$DIMTOL
 70
1
  9
$DIMLIM
 70
0
  9
$DIMTFAC
 40
1.0
  9
$DIMTP
 40
0.005
  9
$DIMTM
 40
0.005
  9
$PDMODE
 70
3
  9
$PDSIZE
 40
0.3125
  9
$HANDSEED
  5
5F0
  9
$TILEMODE
 70
1
  9
$MEASUREMENT
 70
1
  9
$INSUNITS
 70
4
  0
ENDSEC
  0
SECTION
  2
CLASSES
  0
CLASS
  1
ACDBDICTIONARYWDFLT
  2
AcDbDictionaryWithDefault
  3
AutoCAD 2000
 90
0
280
0
281
0
  0
CLASS
  1
ACDBPLACEHOLDER
  2
AcDbPlaceHolder
  3
AutoCAD 2000
 90
0
280
0
281
0
  0
CLASS
  1
LAYOUT
  2
AcDbLayout
  3
AutoCAD 2000
 90
0
280
0
281
0
  0
ENDSEC
  0
SECTION
  2
TABLES
  0
TABLE
  2
VPORT
  5
8
100
AcDbSymbolTable
 70
2
  0
VPORT
  5
1F4
100
AcDbSymbolTableRecord
100
AcDbViewportTableRecord
  2
*ACTIVE
 70
0
 10
0.0
 20
0.0
 11
1.0
 21
1.0
 12
420.5
 22
297.0
 13
0.0
 23
0.0
 14
1.0
 24
1.0
 15
0.0
 25
0.0
 16
0.0
 26
0.0
 36
1.0
 17
0.0
 27
0.0
 37
0.0
 40
594.0
 41
1.4158249158
 42
50.0
 43
0.0
 44
0.0
 50
0.0
 51
0.0
 71
0
 72
100
 73
1
 74
1
 75
0
 76
0
 77
0
 78
0
  0
ENDTAB
  0
TABLE
  2
LTYPE
  5
5
100
AcDbSymbolTable
 70
6
  0
LTYPE
  5
14
100
AcDbSymbolTableRecord
100
AcDbLinetypeTableRecord
  2
BYBLOCK
 70
0
  3

 72
65
 73
0
 40
0.0
  0
LTYPE
  5
15
100
AcDbSymbolTableRecord
100
AcDbLinetypeTableRecord
  2
BYLAYER
 70
0
  3

 72
65
 73
0
 40
0.0
  0
LTYPE
  5
16
100
AcDbSymbolTableRecord
100
AcDbLinetypeTableRecord
  2
CONTINUOUS
 70
64
  3
Solid line
 72
65
 73
0
 40
0.0
  0
LTYPE
  5
1F5
100
AcDbSymbolTableRecord
100
AcDbLinetypeTableRecord
  2
CENTER
 70
64
  3
____ _ ____ _ ____ _ ____ _ ____ _ ____ _ ____
 72
65
 73
4
 40
0.6
 49
0.375
 74
0
 49
-0.075
 74
0
 49
0.075
 74
0
 49
-0.075
 74
0
  0
LTYPE
  5
1F6
100
AcDbSymbolTableRecord
100
AcDbLinetypeTableRecord
  2
HIDDEN
 70
64
  3
- - - - - - - - - - - - - - - - - - - -
 72
65
 73
2
 40
0.2
 49
0.1
 74
0
 49
-0.1
 74
0
  0
LTYPE
  5
1F7
100
AcDbSymbolTableRecord
100
AcDbLinetypeTableRecord
  2
PHANTOM
 70
64
  3
_____ _ _ _____ _ _ _____ _ _ _____
 72
65
 73
6
 40
0.8
 49
0.45
 74
0
 49
-0.05
 74
0
 49
0.1
 74
0
 49
-0.05
 74
0
 49
0.1
 74
0
 49
-0.05
 74
0
  0
LTYPE
  5
1F8
100
AcDbSymbolTableRecord
100
AcDbLinetypeTableRecord
  2
DOT
 70
64
  3
. . . . . . . . . . . . . . . . . . . .
 72
65
 73
2
 40
0.2
 49
0.1
 74
0
 49
-0.1
 74
0
  0
LTYPE
  5
1F9
100
AcDbSymbolTableRecord
100
AcDbLinetypeTableRecord
  2
DASHED
 70
64
  3
- - - - - - - - - - - - - - - - - - - -
 72
65
 73
2
 40
0.2
 49
0.1
 74
0
 49
-0.1
 74
0
  0
ENDTAB
  0
TABLE
  2
LAYER
  5
2
100
AcDbSymbolTable
 70
36
  0
LAYER
  5
10
100
AcDbSymbolTableRecord
100
AcDbLayerTableRecord
  2
0
 70
0
 62
7
  6
CONTINUOUS
370
-3
390
F
  0
LAYER
  5
1FA
100
AcDbSymbolTableRecord
100
AcDbLayerTableRecord
  2
DEFAULT_1
 70
0
 62
7
  6
CENTER
370
-3
390
F
  0
LAYER
  5
1FB
100
AcDbSymbolTableRecord
100
AcDbLayerTableRecord
  2
DEFAULT_2
 70
0
 62
8
  6
HIDDEN
370
-3
390
F
  0
LAYER
  5
1FC
100
AcDbSymbolTableRecord
100
AcDbLayerTableRecord
  2
DEFAULT_3
 70
0
 62
7
  6
PHANTOM
370
-3
390
F
  0
LAYER
  5
1FD
100
AcDbSymbolTableRecord
100
AcDbLayerTableRecord
  2
AUSFORMSCHRAEGEN
 70
0
 62
7
  6
CONTINUOUS
370
-3
390
F
  0
LAYER
  5
1FE
100
AcDbSymbolTableRecord
100
AcDbLayerTableRecord
  2
BEZUGSACHSEN
 70
0
 62
7
  6
CONTINUOUS
370
-3
390
F
  0
LAYER
  5
1FF
100
AcDbSymbolTableRecord
100
AcDbLayerTableRecord
  2
BEZUGSEBENEN
 70
0
 62
7
  6
CONTINUOUS
370
-3
390
F
  0
LAYER
  5
200
100
AcDbSymbolTableRecord
100
AcDbLayerTableRecord
  2
BG_STARTBEZUEGE
 70
0
 62
7
  6
CONTINUOUS
370
-3
390
F
  0
LAYER
  5
201
100
AcDbSymbolTableRecord
100
AcDbLayerTableRecord
  2
FASEN
 70
0
 62
7
  6
CONTINUOUS
370
-3
390
F
  0
LAYER
  5
202
100
AcDbSymbolTableRecord
100
AcDbLayerTableRecord
  2
FLAECHEN
 70
0
 62
7
  6
CONTINUOUS
370
-3
390
F
  0
LAYER
  5
203
100
AcDbSymbolTableRecord
100
AcDbLayerTableRecord
  2
HILFEN
 70
0
 62
7
  6
CONTINUOUS
370
-3
390
F
  0
LAYER
  5
204
100
AcDbSymbolTableRecord
100
AcDbLayerTableRecord
  2
KONSTRUKTIONSELEMENTE
 70
0
 62
7
  6
CONTINUOUS
370
-3
390
F
  0
LAYER
  5
205
100
AcDbSymbolTableRecord
100
AcDbLayerTableRecord
  2
NORM
 70
0
 62
7
  6
CONTINUOUS
370
-3
390
F
  0
LAYER
  5
206
100
AcDbSymbolTableRecord
100
AcDbLayerTableRecord
  2
PLATZIERUNG
 70
0
 62
7
  6
CONTINUOUS
370
-3
390
F
  0
LAYER
  5
207
100
AcDbSymbolTableRecord
100
AcDbLayerTableRecord
  2
PLAZIERUNG
 70
0
 62
7
  6
CONTINUOUS
370
-3
390
F
  0
LAYER
  5
208
100
AcDbSymbolTableRecord
100
AcDbLayerTableRecord
  2
RUNDUNGEN
 70
0
 62
7
  6
CONTINUOUS
370
-3
390
F
  0
LAYER
  5
209
100
AcDbSymbolTableRecord
100
AcDbLayerTableRecord
  2
TEIL_STARTBEZUEGE
 70
0
 62
7
  6
CONTINUOUS
370
-3
390
F
  0
LAYER
  5
20A
100
AcDbSymbolTableRecord
100
AcDbLayerTableRecord
  2
T_STARTBEZUEGE
 70
0
 62
7
  6
CONTINUOUS
370
-3
390
F
  0
ENDTAB
  0
TABLE
  2
STYLE
  5
3
100
AcDbSymbolTable
 70
1
  0
STYLE
  5
11
100
AcDbSymbolTableRecord
100
AcDbTextStyleTableRecord
  2
STANDARD
 70
0
 40
0.0
 41
0.7
 50
0.0
 71
0
 42
0.2
  3
txt
  4

  0
STYLE
  5
20B
100
AcDbSymbolTableRecord
100
AcDbTextStyleTableRecord
  2
TEXTSTYLE_1
 70
0
 40
0.0
 41
0.8
 50
0.0
 71
0
 42
0.2
  3
gdt
  4

  0
ENDTAB
  0
TABLE
  2
VIEW
  5
6
100
AcDbSymbolTable
 70
0
  0
ENDTAB
  0
TABLE
  2
UCS
  5
7
100
AcDbSymbolTable
 70
0
  0
ENDTAB
  0
TABLE
  2
APPID
  5
9
100
AcDbSymbolTable
 70
1
  0
APPID
  5
20C
100
AcDbSymbolTableRecord
100
AcDbRegAppTableRecord
  2
ACAD
 70
0
  0
ENDTAB
  0
TABLE
  2
BLOCK_RECORD
  5
1
100
AcDbSymbolTable
 70
0
  0
BLOCK_RECORD
  5
20D
100
AcDbSymbolTableRecord
100
AcDbBlockTableRecord
  2
*Model_Space
  0
BLOCK_RECORD
  5
20E
100
AcDbSymbolTableRecord
100
AcDbBlockTableRecord
  2
*Paper_Space
  0
ENDTAB
  0
TABLE
  2
DIMSTYLE
  5
A
100
AcDbSymbolTable
 70
1
100
AcDbDimStyleTable
 71
0
  0
DIMSTYLE
105
20F
100
AcDbSymbolTableRecord
100
AcDbDimStyleTableRecord
  2
STANDARD
 70
0
  3

  4

 40
1.0
 41
3.5
 42
0.0625
 43
0.38
 44
0.18
 45
0.0
 46
0.0
 47
0.005
 48
0.005
140
3.5
141
0.09
142
0.0
143
25.4
144
1.0
145
0.0
146
1.0
147
0.09
 71
1.0
 72
0.0
 73
0
 74
0
 75
0
 76
0
 77
1
 78
8
170
0
171
2
172
0
173
0
174
0
175
0
176
0
177
0
178
5
270
2
271
3
272
3
273
2
274
2
275
0
280
0
281
0
282
0
283
1
284
8
285
0
286
0
287
3
288
0
340
11
  0
ENDTAB
  0
ENDSEC
  0
SECTION
  2
BLOCKS
  0
BLOCK
  5
20
100
AcDbEntity
  8
0
100
AcDbBlockBegin
  2
*Model_Space
 70
0
 10
0.0
 20
0.0
 30
0.0
  3
*Model_Space
  1

  0
ENDBLK
  5
21
100
AcDbEntity
  8
0
100
AcDbBlockEnd
  0
BLOCK
  5
1C
100
AcDbEntity
  8
0
100
AcDbBlockBegin
  2
*Paper_Space
 70
0
 10
0.0
 20
0.0
 30
0.0
  3
*Paper_Space
  1

  0
ENDBLK
  5
1D
100
AcDbEntity
  8
0
100
AcDbBlockEnd
  0
ENDSEC
  0
SECTION
  2
ENTITIES
  0
MTEXT
  5
210
100
AcDbEntity
  8
0
100
AcDbMText
 62
5
  6
CONTINUOUS
  7
STANDARD
 71
1
 72
1
 10
107.7317624546
 20
368.3019233101
 30
0.0
 11
0.0
 21
1.0
 31
0.0
 44
0.9
  1
RUD
 40
8.0
 41
21.3333333333
  0
MTEXT
  5
211
100
AcDbEntity
  8
0
100
AcDbMText
 62
5
  6
CONTINUOUS
  7
STANDARD
 71
1
 72
1
 10
323.7836394982
 20
345.200171977
 30
0.0
 11
0.0
 21
1.0
 31
0.0
 44
0.9
  1
VSAK 2-10/190
 40
8.0
 41
80.0
  0
MTEXT
  5
212
100
AcDbEntity
  8
0
100
AcDbMText
 62
5
  6
CONTINUOUS
  7
STANDARD
 71
1
 72
1
 10
600.6675247698
 20
336.1429660203
 30
0.0
 11
0.0
 21
1.0
 31
0.0
 44
0.9
  1
RUD VSAK 2-10/190
 40
8.0
 41
106.0952380952
  0
LINE
  5
213
100
AcDbEntity
  8
0
100
AcDbLine
 62
7
  6
CONTINUOUS
 10
0.0
 20
0.0
 11
0.0
 21
594.0
  0
LINE
  5
214
100
AcDbEntity
  8
0
100
AcDbLine
 62
7
  6
CONTINUOUS
 10
0.0
 20
0.0
 11
841.0
 21
0.0
  0
LINE
  5
215
100
AcDbEntity
  8
0
100
AcDbLine
 62
7
  6
CONTINUOUS
 10
0.0
 20
594.0
 11
841.0
 21
594.0
  0
LINE
  5
216
100
AcDbEntity
  8
0
100
AcDbLine
 62
7
  6
CONTINUOUS
 10
841.0
 20
0.0
 11
841.0
 21
594.0
  0
LINE
  5
217
100
AcDbEntity
  8
KONSTRUKTIONSELEMENTE
100
AcDbLine
 62
7
  6
CONTINUOUS
 10
49.236742608
 20
16.1796780465
 11
57.1175737824
 21
11.6296780465
  0
LINE
  5
218
100
AcDbEntity
  8
KONSTRUKTIONSELEMENTE
100
AcDbLine
 62
7
  6
CONTINUOUS
 10
48.9805066014
 20
16.7358642644
 11
49.4135193033
 21
16.4858642644
  0
LINE
  5
219
100
AcDbEntity
  8
KONSTRUKTIONSELEMENTE
100
AcDbLine
 62
7
  6
CONTINUOUS
 10
57.2943504777
 20
11.9358642644
 11
57.7273631796
 21
11.6858642644
  0
LINE
  5
21A
100
AcDbEntity
  8
KONSTRUKTIONSELEMENTE
100
AcDbLine
 62
7
  6
CONTINUOUS
 10
52.8437088047
 20
30.4271267605
 11
51.9338467423
 21
30.9524358671
  0
LINE
  5
21B
100
AcDbEntity
  8
KONSTRUKTIONSELEMENTE
100
AcDbLine
 62
7
  6
CONTINUOUS
 10
67.6527432094
 20
21.8771267605
 11
79.6131950666
 21
14.9717566611
  0
LINE
  5
21C
100
AcDbEntity
  8
KONSTRUKTIONSELEMENTE
100
AcDbLine
 62
7
  6
CONTINUOUS
 10
46.8162350495
 20
78.9705803109
 11
47.0157967247
 21
78.8936130098
  0
LINE
  5
21D
100
AcDbEntity
  8
KONSTRUKTIONSELEMENTE
100
AcDbLine
 62
7
  6
CONTINUOUS
 10
85.0064762677
 20
15.2133133785
 11
80.8759378566
 21
19.8410122194
  0
LINE
  5
21E
100
AcDbEntity
  8
KONSTRUKTIONSELEMENTE
100
AcDbLine
 62
7
  6
CONTINUOUS
 10
86.7742432207
 20
18.2751755569
 11
82.6437048096
 21
22.9028743978
  0
LINE
  5
21F
100
AcDbEntity
  8
KONSTRUKTIONSELEMENTE
100
AcDbLine
 62
7
  6
CONTINUOUS
 10
47.4291510081
 20
68.663750651
 11
53.5021249709
 21
67.4004488762
  0
LINE
  5
220
100
AcDbEntity
  8
KONSTRUKTIONSELEMENTE
100
AcDbLine
 62
7
  6
CONTINUOUS
 10
47.6059277034
 20
68.9699368688
 11
53.6789016662
 21
67.706635094
  0
LINE
  5
221
100
AcDbEntity
  8
KONSTRUKTIONSELEMENTE
100
AcDbLine
 62
7
  6
CONTINUOUS
 10
48.9162433138
 20
70.2110197658
 11
53.5877617467
 21
69.2392491698
  0
LINE
  5
222
100
AcDbEntity
  8
KONSTRUKTIONSELEMENTE
100
AcDbLine
 62
7
  6
CONTINUOUS
 10
50.3304568761
 20
72.6605095086
 11
54.6265887391
 21
71.7668269339
  0
LINE
  5
223
100
AcDbEntity
  8
KONSTRUKTIONSELEMENTE
100
AcDbLine
 62
7
  6
CONTINUOUS
 10
49.0159372801
 20
78.3711799276
 11
53.4705620358
 21
77.4445276161
  0
LINE
  5
224
100
AcDbEntity
  8
KONSTRUKTIONSELEMENTE
100
AcDbLine
 62
7
  6
CONTINUOUS
 10
52.8892090124
 20
77.707278536
 11
46.8162350495
 21
78.9705803109
  0
LINE
  5
225
100
AcDbEntity
  8
KONSTRUKTIONSELEMENTE
100
AcDbLine
 62
7
  6
CONTINUOUS
 10
81.7929702586
 20
76.9925028158
 11
51.1687637643
 21
83.3629589802
  0
LINE
  5
226
100
AcDbEntity
  8
KONSTRUKTIONSELEMENTE
100
AcDbLine
 62
7
  6
CONTINUOUS
 10
83.5607372115
 20
80.0543649943
 11
52.9365307172
 21
86.4248211587
  0
LINE
  5
227
100
AcDbEntity
  8
KONSTRUKTIONSELEMENTE
100
AcDbLine
 62
7
  6
CONTINUOUS
 10
116.2268944593
 20
37.540984192
 11
120.3574328703
 21
32.9132853511
  0
LINE
  5
228
100
AcDbEntity
  8
KONSTRUKTIONSELEMENTE
100
AcDbLine
 62
7
  6
CONTINUOUS
 10
112.2405934525
 20
80.657273882
 11
109.1916365643
 21
82.4175899621
  0
LINE
  5
229
100
AcDbEntity
  8
KONSTRUKTIONSELEMENTE
100
AcDbLine
 62
7
  6
CONTINUOUS
 10
84.5038412167
 20
96.6710952517
 11
81.4548843286
 21
98.4314113319
  0
LINE
  5
22A
100
AcDbEntity
  8
0
100
AcDbLine
 62
7
  6
CONTINUOUS
 10
95.9729966294
 20
99.229244567
 11
105.6724811517
 21
93.629244567
  0
LINE
  5
22B
100
AcDbEntity
  8
KONSTRUKTIONSELEMENTE
100
AcDbLine
 62
7
  6
CONTINUOUS
 10
93.5049110832
 20
70.230610628
 11
121.9596005767
 21
38.3510539014
  0
LINE
  5
22C
100
AcDbEntity
  8
KONSTRUKTIONSELEMENTE
100
AcDbLine
 62
7
  6
CONTINUOUS
 10
123.7273675296
 20
41.4129160799
 11
95.2726780362
 21
73.2924728064
  0
LINE
  5
22D
100
AcDbEntity
  8
0
100
AcDbLine
 62
7
  6
CONTINUOUS
 10
102.0229966294
 20
109.7081519528
 11
111.7224811517
 21
104.1081519528
  0
LINE
  5
22E
100
AcDbEntity
  8
KONSTRUKTIONSELEMENTE
100
AcDbLine
 62
7
  6
CONTINUOUS
 10
146.0997922896
 20
132.7470258196
 11
146.7313893166
 21
132.6227129286
  0
LINE
  5
22F
100
AcDbEntity
  8
KONSTRUKTIONSELEMENTE
100
AcDbLine
 62
7
  6
CONTINUOUS
 10
146.0729278989
 20
132.3312286378
 11
146.5983630622
 21
132.2137709744
  0
LINE
  5
230
100
AcDbEntity
  8
KONSTRUKTIONSELEMENTE
100
AcDbLine
 62
7
  6
CONTINUOUS
 10
145.7598158742
 20
132.4349644161
 11
146.0729278989
 21
132.3312286378
  0
LINE
  5
231
100
AcDbEntity
  8
KONSTRUKTIONSELEMENTE
100
AcDbLine
 62
7
  6
CONTINUOUS
 10
148.2726776768
 20
135.0283437989
 11
148.5857899989
 21
134.9246080014
  0
LINE
  5
232
100
AcDbEntity
  8
KONSTRUKTIONSELEMENTE
100
AcDbLine
 62
7
  6
CONTINUOUS
 10
145.3459152322
 20
132.6287217152
 11
145.7598158742
 21
132.4349644161
  0
LINE
  5
233
100
AcDbEntity
  8
KONSTRUKTIONSELEMENTE
100
AcDbLine
 62
7
  6
CONTINUOUS
 10
46.7250951301
 20
80.5031943867
 11
46.8162350495
 21
78.9705803109
  0
LINE
  5
234
100
AcDbEntity
  8
KONSTRUKTIONSELEMENTE
100
AcDbLine
 62
7
  6
CONTINUOUS
 10
47.4291510081
 20
68.663750651
 11
49.4461451611
 21
34.7458621206
  0
LINE
  5
235
100
AcDbEntity
  8
KONSTRUKTIONSELEMENTE
100
AcDbLine
 62
7
  6
CONTINUOUS
 10
47.6059277034
 20
68.9699368688
 11
47.5831427235
 21
69.3530903878
  0
LINE
  5
236
100
AcDbEntity
  8
KONSTRUKTIONSELEMENTE
100
AcDbLine
 62
7
  6
CONTINUOUS
 10
54.3873330249
 20
75.7901646483
 11
54.8352255612
 21
68.2583782542
  0
LINE
  5
237
100
AcDbEntity
  8
BEZUGSACHSEN
100
AcDbLine
 62
7
  6
CONTINUOUS
 10
309.9886055721
 20
164.2848259264
 11
319.6424938724
 21
166.3368232302
  0
LINE
  5
238
100
AcDbEntity
  8
KONSTRUKTIONSELEMENTE
100
AcDbLine
 62
7
  6
CONTINUOUS
 10
148.4138567673
 20
132.2634885271
 11
148.0899987874
 21
132.2009069745
  0
LINE
  5
239
100
AcDbEntity
  8
KONSTRUKTIONSELEMENTE
100
AcDbLine
 62
7
  6
CONTINUOUS
 10
148.0899987874
 20
132.2009069745
 11
147.5538176231
 21
132.1520396648
  0
LINE
  5
23A
100
AcDbEntity
  8
KONSTRUKTIONSELEMENTE
100
AcDbLine
 62
7
  6
CONTINUOUS
 10
146.7917878555
 20
135.2075289555
 11
146.2556067884
 21
135.1586654622
  0
LINE
  5
23B
100
AcDbEntity
  8
KONSTRUKTIONSELEMENTE
100
AcDbLine
 62
7
  6
CONTINUOUS
 10
148.116863178
 20
132.6167041563
 11
147.4745206418
 21
132.5746996877
  0
LINE
  5
23C
100
AcDbEntity
  8
KONSTRUKTIONSELEMENTE
100
AcDbLine
 62
7
  6
CONTINUOUS
 10
146.8710850827
 20
134.7848727394
 11
146.2287421518
 21
134.7428644737
  0
LINE
  5
23D
100
AcDbEntity
  8
KONSTRUKTIONSELEMENTE
100
AcDbLine
 62
7
  6
CONTINUOUS
 10
149.7055646085
 20
136.3041886878
 11
144.714416007
 21
136.0068073876
  0
LINE
  5
23E
100
AcDbEntity
  8
KONSTRUKTIONSELEMENTE
100
AcDbLine
 62
7
  6
CONTINUOUS
 10
144.684677877
 20
136.5059222477
 11
148.826269371
 21
136.7526854603
  0
LINE
  5
23F
100
AcDbEntity
  8
KONSTRUKTIONSELEMENTE
100
AcDbLine
 62
7
  6
CONTINUOUS
 10
148.0531684744
 20
137.2075094761
 11
148.9027258794
 21
137.2581275814
  0
LINE
  5
240
100
AcDbEntity
  8
KONSTRUKTIONSELEMENTE
100
AcDbLine
 62
7
  6
CONTINUOUS
 10
146.2233119546
 20
145.9485862672
 11
146.6803167369
 21
145.9495487956
  0
LINE
  5
241
100
AcDbEntity
  8
KONSTRUKTIONSELEMENTE
100
AcDbLine
 62
7
  6
CONTINUOUS
 10
147.5538176231
 20
132.1520396648
 11
146.5983630622
 21
132.2137709744
  0
LINE
  5
242
100
AcDbEntity
  8
KONSTRUKTIONSELEMENTE
100
AcDbLine
 62
7
  6
CONTINUOUS
 10
147.4745206418
 20
132.5746996877
 11
146.7313893166
 21
132.6227129286
  0
LINE
  5
243
100
AcDbEntity
  8
KONSTRUKTIONSELEMENTE
100
AcDbLine
 62
7
  6
CONTINUOUS
 10
146.8710850827
 20
134.7848727394
 11
147.6142164078
 21
134.7368594985
  0
LINE
  5
244
100
AcDbEntity
  8
KONSTRUKTIONSELEMENTE
100
AcDbLine
 62
7
  6
CONTINUOUS
 10
146.7917878555
 20
135.2075289555
 11
147.7472424164
 21
135.1457976459
  0
LINE
  5
245
100
AcDbEntity
  8
KONSTRUKTIONSELEMENTE
100
AcDbLine
 62
7
  6
CONTINUOUS
 10
146.3076609309
 20
145.4444011335
 11
146.6656915374
 21
145.4063587318
  0
LINE
  5
246
100
AcDbEntity
  8
KONSTRUKTIONSELEMENTE
100
AcDbLine
 62
7
  6
CONTINUOUS
 10
144.4146281
 20
147.5021256536
 11
144.6833012249
 21
147.4727607863
  0
LINE
  5
247
100
AcDbEntity
  8
KONSTRUKTIONSELEMENTE
100
AcDbLine
 62
7
  6
CONTINUOUS
 10
147.6142164078
 20
134.7368594985
 11
148.2458130402
 21
134.6125428103
  0
LINE
  5
248
100
AcDbEntity
  8
KONSTRUKTIONSELEMENTE
100
AcDbLine
 62
7
  6
CONTINUOUS
 10
121.0436105039
 20
160.9990695019
 11
121.3856973721
 21
160.9255520937
  0
LINE
  5
249
100
AcDbEntity
  8
KONSTRUKTIONSELEMENTE
100
AcDbLine
 62
7
  6
CONTINUOUS
 10
147.7472424164
 20
135.1457976459
 11
148.2726776768
 21
135.0283437989
  0
LINE
  5
24A
100
AcDbEntity
  8
KONSTRUKTIONSELEMENTE
100
AcDbLine
 62
7
  6
CONTINUOUS
 10
143.9654348686
 20
142.1029298463
 11
144.483548054
 21
141.9488312102
  0
LINE
  5
24B
100
AcDbEntity
  8
KONSTRUKTIONSELEMENTE
100
AcDbLine
 62
7
  6
CONTINUOUS
 10
146.6803167369
 20
145.9495487956
 11
147.1984312863
 21
145.7954465968
  0
LINE
  5
24C
100
AcDbEntity
  8
KONSTRUKTIONSELEMENTE
100
AcDbLine
 62
7
  6
CONTINUOUS
 10
116.4044555843
 20
155.9739065223
 11
116.7831013544
 21
155.8598541148
  0
LINE
  5
24D
100
AcDbEntity
  8
KONSTRUKTIONSELEMENTE
100
AcDbLine
 62
7
  6
CONTINUOUS
 10
112.4938748196
 20
159.3561888605
 11
112.9328361968
 21
159.2137810427
  0
LINE
  5
24E
100
AcDbEntity
  8
BEZUGSACHSEN
100
AcDbLine
 62
7
  6
CONTINUOUS
 10
318.0311440826
 20
83.2905628319
 11
325.670844042
 21
80.509939448
  0
LINE
  5
24F
100
AcDbEntity
  8
KONSTRUKTIONSELEMENTE
100
AcDbLine
 62
7
  6
CONTINUOUS
 10
116.3911782193
 20
156.63347139
 11
116.6896339071
 21
156.4967469372
  0
LINE
  5
250
100
AcDbEntity
  8
KONSTRUKTIONSELEMENTE
100
AcDbLine
 62
7
  6
CONTINUOUS
 10
148.5857899989
 20
134.9246080014
 11
148.9996905666
 21
134.730850707
  0
LINE
  5
251
100
AcDbEntity
  8
KONSTRUKTIONSELEMENTE
100
AcDbLine
 62
7
  6
CONTINUOUS
 10
144.006689909
 20
147.1507502316
 11
144.3632755601
 21
146.9797932819
  0
LINE
  5
252
100
AcDbEntity
  8
KONSTRUKTIONSELEMENTE
100
AcDbLine
 62
7
  6
CONTINUOUS
 10
112.6501790386
 20
158.8409735185
 11
112.8927941584
 21
158.721872512
  0
LINE
  5
253
100
AcDbEntity
  8
KONSTRUKTIONSELEMENTE
100
AcDbLine
 62
7
  6
CONTINUOUS
 10
121.4066659444
 20
161.5689251939
 11
121.7590814296
 21
161.3895274045
  0
LINE
  5
254
100
AcDbEntity
  8
KONSTRUKTIONSELEMENTE
100
AcDbLine
 62
7
  6
CONTINUOUS
 10
144.2085624939
 20
142.6466011879
 11
144.4981733228
 21
142.4920213013
  0
LINE
  5
255
100
AcDbEntity
  8
KONSTRUKTIONSELEMENTE
100
AcDbLine
 62
7
  6
CONTINUOUS
 10
146.6656915374
 20
145.4063587318
 11
146.9553022969
 21
145.2517788179
  0
LINE
  5
256
100
AcDbEntity
  8
KONSTRUKTIONSELEMENTE
100
AcDbLine
 62
7
  6
CONTINUOUS
 10
148.0531684744
 20
137.2075094761
 11
148.826269371
 21
136.7526854603
  0
LINE
  5
257
100
AcDbEntity
  8
KONSTRUKTIONSELEMENTE
100
AcDbLine
 62
7
  6
CONTINUOUS
 10
148.9027258794
 20
137.2581275814
 11
149.6758264785
 21
136.803303548
  0
LINE
  5
258
100
AcDbEntity
  8
KONSTRUKTIONSELEMENTE
100
AcDbLine
 62
7
  6
CONTINUOUS
 10
145.4843143156
 20
133.1208223444
 11
146.0997922896
 21
132.7470258196
  0
LINE
  5
259
100
AcDbEntity
  8
KONSTRUKTIONSELEMENTE
100
AcDbLine
 62
7
  6
CONTINUOUS
 10
148.2458130402
 20
134.6125428103
 11
148.8612914832
 21
134.2387500779
  0
LINE
  5
25A
100
AcDbEntity
  8
KONSTRUKTIONSELEMENTE
100
AcDbLine
 62
7
  6
CONTINUOUS
 10
112.9328361968
 20
159.2137810427
 11
113.3430274169
 21
158.9393351822
  0
LINE
  5
25B
100
AcDbEntity
  8
KONSTRUKTIONSELEMENTE
100
AcDbLine
 62
7
  6
CONTINUOUS
 10
121.3856973721
 20
160.9255520937
 11
121.6551735318
 21
160.7380635842
  0
LINE
  5
25C
100
AcDbEntity
  8
KONSTRUKTIONSELEMENTE
100
AcDbLine
 62
7
  6
CONTINUOUS
 10
144.1923780052
 20
147.6584017901
 11
144.4146281
 21
147.5021256536
  0
LINE
  5
25D
100
AcDbEntity
  8
KONSTRUKTIONSELEMENTE
100
AcDbLine
 62
7
  6
CONTINUOUS
 10
143.6452691994
 20
142.3350421135
 11
143.9654348686
 21
142.1029298463
  0
LINE
  5
25E
100
AcDbEntity
  8
KONSTRUKTIONSELEMENTE
100
AcDbLine
 62
7
  6
CONTINUOUS
 10
147.1984312863
 20
145.7954465968
 11
147.5185955308
 21
145.5633378683
  0
LINE
  5
25F
100
AcDbEntity
  8
KONSTRUKTIONSELEMENTE
100
AcDbLine
 62
7
  6
CONTINUOUS
 10
115.9679244291
 20
156.2926993216
 11
116.4044555843
 21
155.9739065223
  0
LINE
  5
260
100
AcDbEntity
  8
KONSTRUKTIONSELEMENTE
100
AcDbLine
 62
7
  6
CONTINUOUS
 10
145.0435490742
 20
132.8987786526
 11
145.3459152322
 21
132.6287217152
  0
LINE
  5
261
100
AcDbEntity
  8
KONSTRUKTIONSELEMENTE
100
AcDbLine
 62
7
  6
CONTINUOUS
 10
148.9996905666
 20
134.730850707
 11
149.3020566875
 21
134.4607937721
  0
LINE
  5
262
100
AcDbEntity
  8
KONSTRUKTIONSELEMENTE
100
AcDbLine
 62
7
  6
CONTINUOUS
 10
121.7590814296
 20
161.3895274045
 11
122.1321541488
 21
160.9983688526
  0
LINE
  5
263
100
AcDbEntity
  8
KONSTRUKTIONSELEMENTE
100
AcDbLine
 62
7
  6
CONTINUOUS
 10
116.1439692672
 20
156.8952377685
 11
116.3911782193
 21
156.63347139
  0
LINE
  5
264
100
AcDbEntity
  8
KONSTRUKTIONSELEMENTE
100
AcDbLine
 62
7
  6
CONTINUOUS
 10
113.5580538465
 20
157.1529197174
 11
115.2975827613
 21
155.2758445794
  0
LINE
  5
265
100
AcDbEntity
  8
KONSTRUKTIONSELEMENTE
100
AcDbLine
 62
7
  6
CONTINUOUS
 10
113.2003577761
 20
156.7438683975
 11
114.7723104832
 21
155.0221380618
  0
LINE
  5
266
100
AcDbEntity
  8
KONSTRUKTIONSELEMENTE
100
AcDbLine
 62
7
  6
CONTINUOUS
 10
112.8927941584
 20
158.721872512
 11
113.1066389064
 21
158.4707333591
  0
LINE
  5
267
100
AcDbEntity
  8
KONSTRUKTIONSELEMENTE
100
AcDbLine
 62
7
  6
CONTINUOUS
 10
113.3430274169
 20
158.9393351822
 11
113.5568721649
 21
158.6881960292
  0
LINE
  5
268
100
AcDbEntity
  8
KONSTRUKTIONSELEMENTE
100
AcDbLine
 62
7
  6
CONTINUOUS
 10
115.6917727654
 20
156.6568359631
 11
115.9679244291
 21
156.2926993216
  0
LINE
  5
269
100
AcDbEntity
  8
BEZUGSACHSEN
100
AcDbLine
 62
7
  6
CONTINUOUS
 10
80.4852688226
 20
99.8161657841
 11
79.2021654439
 21
107.0930066485
  0
LINE
  5
26A
100
AcDbEntity
  8
RUNDUNGEN
100
AcDbLine
 62
7
  6
CONTINUOUS
 10
79.2021654439
 20
107.0930066485
 11
79.0735093317
 21
107.8226517182
  0
LINE
  5
26B
100
AcDbEntity
  8
KONSTRUKTIONSELEMENTE
100
AcDbLine
 62
7
  6
CONTINUOUS
 10
145.6978845282
 20
145.8310933249
 11
146.2233119546
 21
145.9485862672
  0
LINE
  5
26C
100
AcDbEntity
  8
KONSTRUKTIONSELEMENTE
100
AcDbLine
 62
7
  6
CONTINUOUS
 10
146.2556067884
 20
135.1586654622
 11
145.9317491058
 21
135.0960838904
  0
LINE
  5
26D
100
AcDbEntity
  8
KONSTRUKTIONSELEMENTE
100
AcDbLine
 62
7
  6
CONTINUOUS
 10
144.483548054
 20
141.9488312102
 11
144.9099994207
 21
142.0273225803
  0
LINE
  5
26E
100
AcDbEntity
  8
KONSTRUKTIONSELEMENTE
100
AcDbLine
 62
7
  6
CONTINUOUS
 10
145.8812082349
 20
145.3659133398
 11
146.3076609309
 21
145.4444011335
  0
LINE
  5
26F
100
AcDbEntity
  8
KONSTRUKTIONSELEMENTE
100
AcDbLine
 62
7
  6
CONTINUOUS
 10
144.4981733228
 20
142.4920213013
 11
144.8256501671
 21
142.5315076048
  0
LINE
  5
270
100
AcDbEntity
  8
KONSTRUKTIONSELEMENTE
100
AcDbLine
 62
7
  6
CONTINUOUS
 10
119.4765324562
 20
156.4637952537
 11
121.467083861
 21
156.6579732774
  0
LINE
  5
271
100
AcDbEntity
  8
KONSTRUKTIONSELEMENTE
100
AcDbLine
 62
7
  6
CONTINUOUS
 10
119.9121985978
 20
157.1476221212
 11
121.4051121514
 21
157.293255639
  0
LINE
  5
272
100
AcDbEntity
  8
KONSTRUKTIONSELEMENTE
100
AcDbLine
 62
7
  6
CONTINUOUS
 10
119.5506969503
 20
160.8534359841
 11
121.0436105039
 21
160.9990695019
  0
LINE
  5
273
100
AcDbEntity
  8
KONSTRUKTIONSELEMENTE
100
AcDbLine
 62
7
  6
CONTINUOUS
 10
112.3787937616
 20
158.8280364824
 11
112.6501790386
 21
158.8409735185
  0
LINE
  5
274
100
AcDbEntity
  8
KONSTRUKTIONSELEMENTE
100
AcDbLine
 62
7
  6
CONTINUOUS
 10
116.7831013544
 20
155.8598541148
 11
117.2129938347
 21
155.8708437225
  0
LINE
  5
275
100
AcDbEntity
  8
KONSTRUKTIONSELEMENTE
100
AcDbLine
 62
7
  6
CONTINUOUS
 10
144.3632755601
 20
146.9797932819
 11
144.8566635347
 21
146.9918628293
  0
LINE
  5
276
100
AcDbEntity
  8
KONSTRUKTIONSELEMENTE
100
AcDbLine
 62
7
  6
CONTINUOUS
 10
116.6896339071
 20
156.4967469372
 11
117.0393362899
 21
156.4850645533
  0
LINE
  5
277
100
AcDbEntity
  8
KONSTRUKTIONSELEMENTE
100
AcDbLine
 62
7
  6
CONTINUOUS
 10
120.9816388016
 20
161.6343517894
 11
121.4066659444
 21
161.5689251939
  0
LINE
  5
278
100
AcDbEntity
  8
0
100
AcDbLine
 62
7
  6
CONTINUOUS
 10
129.606872209
 20
164.2848259264
 11
119.9529839087
 21
166.3368232302
  0
LINE
  5
279
100
AcDbEntity
  8
0
100
AcDbLine
 62
7
  6
CONTINUOUS
 10
151.7993554209
 20
147.9503120649
 11
145.1953294771
 21
155.2848259264
  0
LINE
  5
27A
100
AcDbEntity
  8
KONSTRUKTIONSELEMENTE
100
AcDbLine
 62
7
  6
CONTINUOUS
 10
143.9873727025
 20
142.9177149556
 11
144.2085624939
 21
142.6466011879
  0
LINE
  5
27B
100
AcDbEntity
  8
KONSTRUKTIONSELEMENTE
100
AcDbLine
 62
7
  6
CONTINUOUS
 10
146.9553022969
 20
145.2517788179
 11
147.176493487
 21
144.9806615011
  0
LINE
  5
27C
100
AcDbEntity
  8
KONSTRUKTIONSELEMENTE
100
AcDbLine
 62
7
  6
CONTINUOUS
 10
145.2881098127
 20
133.3840202449
 11
145.4843143156
 21
133.1208223444
  0
LINE
  5
27D
100
AcDbEntity
  8
KONSTRUKTIONSELEMENTE
100
AcDbLine
 62
7
  6
CONTINUOUS
 10
148.8612914832
 20
134.2387500779
 11
149.0574959862
 21
133.9755521774
  0
LINE
  5
27E
100
AcDbEntity
  8
KONSTRUKTIONSELEMENTE
100
AcDbLine
 62
7
  6
CONTINUOUS
 10
143.3935259145
 20
142.6836846924
 11
143.6452691994
 21
142.3350421135
  0
LINE
  5
27F
100
AcDbEntity
  8
KONSTRUKTIONSELEMENTE
100
AcDbLine
 62
7
  6
CONTINUOUS
 10
147.5185955308
 20
145.5633378683
 11
147.7703402057
 21
145.2146917371
  0
LINE
  5
280
100
AcDbEntity
  8
KONSTRUKTIONSELEMENTE
100
AcDbLine
 62
7
  6
CONTINUOUS
 10
144.7519285833
 20
133.3351529394
 11
145.0435490742
 21
132.8987786526
  0
LINE
  5
281
100
AcDbEntity
  8
KONSTRUKTIONSELEMENTE
100
AcDbLine
 62
7
  6
CONTINUOUS
 10
149.3020566875
 20
134.4607937721
 11
149.5936769045
 21
134.0244156803
  0
LINE
  5
282
100
AcDbEntity
  8
KONSTRUKTIONSELEMENTE
100
AcDbLine
 62
7
  6
CONTINUOUS
 10
121.6551735318
 20
160.7380635842
 11
121.852039012
 21
160.4366036767
  0
LINE
  5
283
100
AcDbEntity
  8
KONSTRUKTIONSELEMENTE
100
AcDbLine
 62
7
  6
CONTINUOUS
 10
140.8014694683
 20
147.6744371498
 11
140.9169557618
 21
147.4884347053
  0
LINE
  5
284
100
AcDbEntity
  8
KONSTRUKTIONSELEMENTE
100
AcDbLine
 62
7
  6
CONTINUOUS
 10
142.0158784369
 20
145.7185077481
 11
142.3235783152
 21
145.2229257371
  0
LINE
  5
285
100
AcDbEntity
  8
KONSTRUKTIONSELEMENTE
100
AcDbLine
 62
7
  6
CONTINUOUS
 10
142.8149211735
 20
148.6668546503
 11
143.5621897194
 21
147.4633025046
  0
LINE
  5
286
100
AcDbEntity
  8
KONSTRUKTIONSELEMENTE
100
AcDbLine
 62
7
  6
CONTINUOUS
 10
143.3571969331
 20
149.0035460183
 11
144.1923780052
 21
147.6584017901
  0
LINE
  5
287
100
AcDbEntity
  8
KONSTRUKTIONSELEMENTE
100
AcDbLine
 62
7
  6
CONTINUOUS
 10
144.7128865853
 20
149.8452745954
 11
145.5480676574
 21
148.5001303672
  0
LINE
  5
288
100
AcDbEntity
  8
KONSTRUKTIONSELEMENTE
100
AcDbLine
 62
7
  6
CONTINUOUS
 10
122.1321541488
 20
160.9983688526
 11
122.3393482172
 21
160.5910288605
  0
LINE
  5
289
100
AcDbEntity
  8
KONSTRUKTIONSELEMENTE
100
AcDbLine
 62
7
  6
CONTINUOUS
 10
115.9480079481
 20
157.2820464037
 11
116.1439692672
 21
156.8952377685
  0
LINE
  5
28A
100
AcDbEntity
  8
KONSTRUKTIONSELEMENTE
100
AcDbLine
 62
7
  6
CONTINUOUS
 10
112.4461053857
 20
153.8985809671
 11
110.2714786841
 21
158.4009135524
  0
LINE
  5
28B
100
AcDbEntity
  8
KONSTRUKTIONSELEMENTE
100
AcDbLine
 62
7
  6
CONTINUOUS
 10
112.8963386442
 20
154.1160436373
 11
111.9246969127
 21
156.1277241827
  0
LINE
  5
28C
100
AcDbEntity
  8
KONSTRUKTIONSELEMENTE
100
AcDbLine
 62
7
  6
CONTINUOUS
 10
111.6470850264
 20
156.7024899761
 11
110.9530551811
 21
158.1394047281
  0
LINE
  5
28D
100
AcDbEntity
  8
KONSTRUKTIONSELEMENTE
100
AcDbLine
 62
7
  6
CONTINUOUS
 10
113.1066389064
 20
158.4707333591
 11
113.2454449791
 21
158.183350194
  0
LINE
  5
28E
100
AcDbEntity
  8
KONSTRUKTIONSELEMENTE
100
AcDbLine
 62
7
  6
CONTINUOUS
 10
113.5568721649
 20
158.6881960292
 11
113.7419468854
 21
158.3050185653
  0
LINE
  5
28F
100
AcDbEntity
  8
KONSTRUKTIONSELEMENTE
100
AcDbLine
 62
7
  6
CONTINUOUS
 10
115.4668680667
 20
157.1460145951
 11
115.6917727654
 21
156.6568359631
  0
LINE
  5
290
100
AcDbEntity
  8
KONSTRUKTIONSELEMENTE
100
AcDbLine
 62
7
  6
CONTINUOUS
 10
117.2129938347
 20
155.8708437225
 11
117.5337537556
 21
155.9615315949
  0
LINE
  5
291
100
AcDbEntity
  8
KONSTRUKTIONSELEMENTE
100
AcDbLine
 62
7
  6
CONTINUOUS
 10
117.0393362899
 20
156.4850645533
 11
117.3600962108
 21
156.5757524257
  0
LINE
  5
292
100
AcDbEntity
  8
KONSTRUKTIONSELEMENTE
100
AcDbLine
 62
7
  6
CONTINUOUS
 10
114.5696374018
 20
160.3194889472
 11
115.0507772832
 21
160.4555207558
  0
LINE
  5
293
100
AcDbEntity
  8
KONSTRUKTIONSELEMENTE
100
AcDbLine
 62
7
  6
CONTINUOUS
 10
116.9753358911
 20
160.9996477308
 11
117.4564755431
 21
161.1356794745
  0
LINE
  5
294
100
AcDbEntity
  8
KONSTRUKTIONSELEMENTE
100
AcDbLine
 62
7
  6
CONTINUOUS
 10
112.0724117182
 20
159.2707642331
 11
112.4938748196
 21
159.3561888605
  0
LINE
  5
295
100
AcDbEntity
  8
KONSTRUKTIONSELEMENTE
100
AcDbLine
 62
7
  6
CONTINUOUS
 10
118.9910873968
 20
161.4401737656
 11
120.9816388016
 21
161.6343517894
  0
LINE
  5
296
100
AcDbEntity
  8
KONSTRUKTIONSELEMENTE
100
AcDbLine
 62
7
  6
CONTINUOUS
 10
144.9010414486
 20
150.5506334643
 11
145.9560078606
 21
148.8515025484
  0
LINE
  5
297
100
AcDbEntity
  8
KONSTRUKTIONSELEMENTE
100
AcDbLine
 62
7
  6
CONTINUOUS
 10
143.1185403544
 20
143.38145467
 11
143.3935259145
 21
142.6836846924
  0
LINE
  5
298
100
AcDbEntity
  8
KONSTRUKTIONSELEMENTE
100
AcDbLine
 62
7
  6
CONTINUOUS
 10
143.7123871425
 20
143.6154849333
 11
143.9873727025
 21
142.9177149556
  0
LINE
  5
299
100
AcDbEntity
  8
KONSTRUKTIONSELEMENTE
100
AcDbLine
 62
7
  6
CONTINUOUS
 10
145.3424603707
 20
143.5413179518
 11
145.6174459307
 21
142.8435479741
  0
LINE
  5
29A
100
AcDbEntity
  8
KONSTRUKTIONSELEMENTE
100
AcDbLine
 62
7
  6
CONTINUOUS
 10
145.9363070894
 20
143.7753481877
 11
146.3946163561
 21
142.6123982249
  0
LINE
  5
29B
100
AcDbEntity
  8
KONSTRUKTIONSELEMENTE
100
AcDbLine
 62
7
  6
CONTINUOUS
 10
147.1020627275
 20
143.428623564
 11
147.2853864342
 21
142.9634435789
  0
LINE
  5
29C
100
AcDbEntity
  8
KONSTRUKTIONSELEMENTE
100
AcDbLine
 62
7
  6
CONTINUOUS
 10
147.176493487
 20
144.9806615011
 11
147.451479047
 21
144.2828915234
  0
LINE
  5
29D
100
AcDbEntity
  8
KONSTRUKTIONSELEMENTE
100
AcDbLine
 62
7
  6
CONTINUOUS
 10
147.7703402057
 20
145.2146917371
 11
148.0453257658
 21
144.5169217594
  0
LINE
  5
29E
100
AcDbEntity
  8
KONSTRUKTIONSELEMENTE
100
AcDbLine
 62
7
  6
CONTINUOUS
 10
121.852039012
 20
160.4366036767
 11
121.9762928057
 21
160.0211728718
  0
LINE
  5
29F
100
AcDbEntity
  8
KONSTRUKTIONSELEMENTE
100
AcDbLine
 62
7
  6
CONTINUOUS
 10
115.4668680667
 20
157.1460145951
 11
114.5696374018
 21
160.3194889472
  0
LINE
  5
2A0
100
AcDbEntity
  8
KONSTRUKTIONSELEMENTE
100
AcDbLine
 62
7
  6
CONTINUOUS
 10
115.9480079481
 20
157.2820464037
 11
115.0507772832
 21
160.4555207558
  0
LINE
  5
2A1
100
AcDbEntity
  8
KONSTRUKTIONSELEMENTE
100
AcDbLine
 62
7
  6
CONTINUOUS
 10
116.9753358911
 20
160.9996477308
 11
117.872566556
 21
157.8261733787
  0
LINE
  5
2A2
100
AcDbEntity
  8
KONSTRUKTIONSELEMENTE
100
AcDbLine
 62
7
  6
CONTINUOUS
 10
117.4564755431
 20
161.1356794745
 11
118.3537062079
 21
157.9622051224
  0
LINE
  5
2A3
100
AcDbEntity
  8
KONSTRUKTIONSELEMENTE
100
AcDbLine
 62
7
  6
CONTINUOUS
 10
122.3393482172
 20
160.5910288605
 11
122.4739306569
 21
160.0697173777
  0
LINE
  5
2A4
100
AcDbEntity
  8
KONSTRUKTIONSELEMENTE
100
AcDbLine
 62
7
  6
CONTINUOUS
 10
113.3092121174
 20
157.8597235535
 11
113.2454449791
 21
158.183350194
  0
LINE
  5
2A5
100
AcDbEntity
  8
KONSTRUKTIONSELEMENTE
100
AcDbLine
 62
7
  6
CONTINUOUS
 10
113.8057140236
 20
157.9813919248
 11
113.7419468854
 21
158.3050185653
  0
LINE
  5
2A6
100
AcDbEntity
  8
KONSTRUKTIONSELEMENTE
100
AcDbLine
 62
7
  6
CONTINUOUS
 10
119.4765324562
 20
156.4637952537
 11
118.9910873968
 21
161.4401737656
  0
LINE
  5
2A7
100
AcDbEntity
  8
KONSTRUKTIONSELEMENTE
100
AcDbLine
 62
7
  6
CONTINUOUS
 10
119.9121985978
 20
157.1476221212
 11
119.5506969503
 21
160.8534359841
  0
LINE
  5
2A8
100
AcDbEntity
  8
KONSTRUKTIONSELEMENTE
100
AcDbLine
 62
7
  6
CONTINUOUS
 10
121.9762928057
 20
160.0211728718
 11
122.1312220759
 21
158.4329670047
  0
LINE
  5
2A9
100
AcDbEntity
  8
KONSTRUKTIONSELEMENTE
100
AcDbLine
 62
7
  6
CONTINUOUS
 10
122.4739306569
 20
160.0697173777
 11
122.6288599271
 21
158.4815115107
  0
LINE
  5
2AA
100
AcDbEntity
  8
KONSTRUKTIONSELEMENTE
100
AcDbLine
 62
7
  6
CONTINUOUS
 10
117.908148144
 20
157.3940208721
 11
117.872566556
 21
157.8261733787
  0
LINE
  5
2AB
100
AcDbEntity
  8
0
100
AcDbLine
 62
7
  6
CONTINUOUS
 10
98.7977388905
 20
462.4999893975
 11
98.7977388905
 21
302.4999893975
  0
LINE
  5
2AC
100
AcDbEntity
  8
KONSTRUKTIONSELEMENTE
100
AcDbLine
 62
7
  6
CONTINUOUS
 10
145.9560078606
 20
148.8515025484
 11
146.0854139073
 21
148.4414006326
  0
LINE
  5
2AD
100
AcDbEntity
  8
KONSTRUKTIONSELEMENTE
100
AcDbLine
 62
7
  6
CONTINUOUS
 10
145.2088125854
 20
133.8066764611
 11
145.2881098127
 21
133.3840202449
  0
LINE
  5
2AE
100
AcDbEntity
  8
KONSTRUKTIONSELEMENTE
100
AcDbLine
 62
7
  6
CONTINUOUS
 10
118.4182307167
 20
157.4276824893
 11
118.3537062079
 21
157.9622051224
  0
LINE
  5
2AF
100
AcDbEntity
  8
0
100
AcDbLine
 62
7
  6
CONTINUOUS
 10
153.8201751346
 20
128.7234968126
 11
151.7993554209
 21
147.9503120649
  0
LINE
  5
2B0
100
AcDbEntity
  8
KONSTRUKTIONSELEMENTE
100
AcDbLine
 62
7
  6
CONTINUOUS
 10
143.6891448587
 20
143.9646123288
 11
143.7123871425
 21
143.6154849333
  0
LINE
  5
2B1
100
AcDbEntity
  8
KONSTRUKTIONSELEMENTE
100
AcDbLine
 62
7
  6
CONTINUOUS
 10
147.451479047
 20
144.2828915234
 11
147.4747199322
 21
143.933767677
  0
LINE
  5
2B2
100
AcDbEntity
  8
KONSTRUKTIONSELEMENTE
100
AcDbLine
 62
7
  6
CONTINUOUS
 10
144.684677877
 20
136.5059222477
 11
144.714416007
 21
136.0068073876
  0
LINE
  5
2B3
100
AcDbEntity
  8
KONSTRUKTIONSELEMENTE
100
AcDbLine
 62
7
  6
CONTINUOUS
 10
149.6758264785
 20
136.803303548
 11
149.7055646085
 21
136.3041886878
  0
LINE
  5
2B4
100
AcDbEntity
  8
0
100
AcDbLine
 62
7
  6
CONTINUOUS
 10
124.7977388905
 20
462.4999893975
 11
124.7977388905
 21
302.4999893975
  0
LINE
  5
2B5
100
AcDbEntity
  8
KONSTRUKTIONSELEMENTE
100
AcDbLine
 62
7
  6
CONTINUOUS
 10
122.5975636869
 20
157.9440188843
 11
122.6288599271
 21
158.4815115107
  0
LINE
  5
2B6
100
AcDbEntity
  8
KONSTRUKTIONSELEMENTE
100
AcDbLine
 62
7
  6
CONTINUOUS
 10
113.7656719852
 20
157.489483394
 11
113.8057140236
 21
157.9813919248
  0
LINE
  5
2B7
100
AcDbEntity
  8
KONSTRUKTIONSELEMENTE
100
AcDbLine
 62
7
  6
CONTINUOUS
 10
122.0895972187
 20
158.0013547596
 11
122.1312220759
 21
158.4329670047
  0
LINE
  5
2B8
100
AcDbEntity
  8
KONSTRUKTIONSELEMENTE
100
AcDbLine
 62
7
  6
CONTINUOUS
 10
118.373622689
 20
156.9728580402
 11
118.4182307167
 21
157.4276824893
  0
LINE
  5
2B9
100
AcDbEntity
  8
RUNDUNGEN
100
AcDbLine
 62
7
  6
CONTINUOUS
 10
87.3148506324
 20
123.2111214433
 11
92.6253026465
 21
141.7308685005
  0
LINE
  5
2BA
100
AcDbEntity
  8
BEZUGSACHSEN
100
AcDbLine
 62
7
  6
CONTINUOUS
 10
319.6424938724
 20
166.3368232302
 11
337.3038141717
 21
158.4734968126
  0
LINE
  5
2BB
100
AcDbEntity
  8
BEZUGSACHSEN
100
AcDbLine
 62
7
  6
CONTINUOUS
 10
295.4416636094
 20
111.9808685005
 11
308.8250090256
 21
98.1220086222
  0
LINE
  5
2BC
100
AcDbEntity
  8
KONSTRUKTIONSELEMENTE
100
AcDbLine
 62
7
  6
CONTINUOUS
 10
149.0574959862
 20
133.9755521774
 11
149.1367929674
 21
133.5528921544
  0
LINE
  5
2BD
100
AcDbEntity
  8
KONSTRUKTIONSELEMENTE
100
AcDbLine
 62
7
  6
CONTINUOUS
 10
145.5480676574
 20
148.5001303672
 11
145.5895591657
 21
148.2316237747
  0
LINE
  5
2BE
100
AcDbEntity
  8
KONSTRUKTIONSELEMENTE
100
AcDbLine
 62
7
  6
CONTINUOUS
 10
144.6780044217
 20
133.8409716379
 11
144.7519285833
 21
133.3351529394
  0
LINE
  5
2BF
100
AcDbEntity
  8
KONSTRUKTIONSELEMENTE
100
AcDbLine
 62
7
  6
CONTINUOUS
 10
149.5936769045
 20
134.0244156803
 11
149.6676010568
 21
133.5185969824
  0
LINE
  5
2C0
100
AcDbEntity
  8
KONSTRUKTIONSELEMENTE
100
AcDbLine
 62
7
  6
CONTINUOUS
 10
143.0647445944
 20
143.8081108834
 11
143.1185403544
 21
143.38145467
  0
LINE
  5
2C1
100
AcDbEntity
  8
KONSTRUKTIONSELEMENTE
100
AcDbLine
 62
7
  6
CONTINUOUS
 10
148.0453257658
 20
144.5169217594
 11
148.0991201358
 21
144.0902690985
  0
LINE
  5
2C2
100
AcDbEntity
  8
KONSTRUKTIONSELEMENTE
100
AcDbLine
 62
7
  6
CONTINUOUS
 10
117.8345971752
 20
157.0415666212
 11
117.908148144
 21
157.3940208721
  0
LINE
  5
2C3
100
AcDbEntity
  8
KONSTRUKTIONSELEMENTE
100
AcDbLine
 62
7
  6
CONTINUOUS
 10
113.2516715884
 20
157.5956473644
 11
113.3092121174
 21
157.8597235535
  0
LINE
  5
2C4
100
AcDbEntity
  8
KONSTRUKTIONSELEMENTE
100
AcDbLine
 62
7
  6
CONTINUOUS
 10
143.1404781884
 20
144.1962397794
 11
143.0647445944
 21
143.8081108834
  0
LINE
  5
2C5
100
AcDbEntity
  8
KONSTRUKTIONSELEMENTE
100
AcDbLine
 62
7
  6
CONTINUOUS
 10
148.0991201358
 20
144.0902690985
 11
148.0233879664
 21
143.7021366637
  0
LINE
  5
2C6
100
AcDbEntity
  8
KONSTRUKTIONSELEMENTE
100
AcDbLine
 62
7
  6
CONTINUOUS
 10
146.0854139073
 20
148.4414006326
 11
145.9901030921
 21
147.9898675429
  0
LINE
  5
2C7
100
AcDbEntity
  8
KONSTRUKTIONSELEMENTE
100
AcDbLine
 62
7
  6
CONTINUOUS
 10
122.4729985622
 20
157.5043157523
 11
122.5975636869
 21
157.9440188843
  0
LINE
  5
2C8
100
AcDbEntity
  8
KONSTRUKTIONSELEMENTE
100
AcDbLine
 62
7
  6
CONTINUOUS
 10
121.9547034697
 20
157.667532083
 11
122.0895972187
 21
158.0013547596
  0
LINE
  5
2C9
100
AcDbEntity
  8
KONSTRUKTIONSELEMENTE
100
AcDbLine
 62
7
  6
CONTINUOUS
 10
118.1686344612
 20
156.4726896259
 11
118.373622689
 21
156.9728580402
  0
LINE
  5
2CA
100
AcDbEntity
  8
KONSTRUKTIONSELEMENTE
100
AcDbLine
 62
7
  6
CONTINUOUS
 10
47.0664865441
 20
82.0314237906
 11
48.834253497
 21
85.0932859691
  0
LINE
  5
2CB
100
AcDbEntity
  8
KONSTRUKTIONSELEMENTE
100
AcDbLine
 62
7
  6
CONTINUOUS
 10
47.6855601477
 20
69.811559209
 11
49.0997737101
 21
72.2610489518
  0
LINE
  5
2CC
100
AcDbEntity
  8
KONSTRUKTIONSELEMENTE
100
AcDbLine
 62
7
  6
CONTINUOUS
 10
47.4291510081
 20
68.663750651
 11
47.6059277034
 21
68.9699368688
  0
LINE
  5
2CD
100
AcDbEntity
  8
KONSTRUKTIONSELEMENTE
100
AcDbLine
 62
7
  6
CONTINUOUS
 10
144.8164035144
 20
134.3330722664
 11
144.6780044217
 21
133.8409716379
  0
LINE
  5
2CE
100
AcDbEntity
  8
KONSTRUKTIONSELEMENTE
100
AcDbLine
 62
7
  6
CONTINUOUS
 10
149.6676010568
 20
133.5185969824
 11
149.5292019734
 21
133.0264963533
  0
LINE
  5
2CF
100
AcDbEntity
  8
KONSTRUKTIONSELEMENTE
100
AcDbLine
 62
7
  6
CONTINUOUS
 10
145.3418388399
 20
134.2156184152
 11
145.2088125854
 21
133.8066764611
  0
LINE
  5
2D0
100
AcDbEntity
  8
KONSTRUKTIONSELEMENTE
100
AcDbLine
 62
7
  6
CONTINUOUS
 10
149.1367929674
 20
133.5528921544
 11
149.0037669589
 21
133.1439540071
  0
LINE
  5
2D1
100
AcDbEntity
  8
KONSTRUKTIONSELEMENTE
100
AcDbLine
 62
7
  6
CONTINUOUS
 10
143.7954319809
 20
144.2752124273
 11
143.6891448587
 21
143.9646123288
  0
LINE
  5
2D2
100
AcDbEntity
  8
KONSTRUKTIONSELEMENTE
100
AcDbLine
 62
7
  6
CONTINUOUS
 10
147.4747199322
 20
143.933767677
 11
147.3684328793
 21
143.6231676058
  0
LINE
  5
2D3
100
AcDbEntity
  8
KONSTRUKTIONSELEMENTE
100
AcDbLine
 62
7
  6
CONTINUOUS
 10
145.5895591657
 20
148.2316237747
 11
145.4967151175
 21
147.9777979955
  0
LINE
  5
2D4
100
AcDbEntity
  8
0
100
AcDbLine
 62
7
  6
CONTINUOUS
 10
102.2916636094
 20
158.4734968126
 11
92.6253026465
 21
141.7308685005
  0
LINE
  5
2D5
100
AcDbEntity
  8
RUNDUNGEN
100
AcDbLine
 62
7
  6
CONTINUOUS
 10
79.3110740302
 20
109.1699480735
 11
93.0702588621
 21
133.0015552731
  0
LINE
  5
2D6
100
AcDbEntity
  8
KONSTRUKTIONSELEMENTE
100
AcDbLine
 62
7
  6
CONTINUOUS
 10
94.8339682357
 20
114.5634000972
 11
91.5038412167
 21
108.7954509047
  0
LINE
  5
2D7
100
AcDbEntity
  8
BEZUGSACHSEN
100
AcDbLine
 62
7
  6
CONTINUOUS
 10
84.5038412167
 20
96.6710952517
 11
87.8057280092
 21
102.3901309371
  0
LINE
  5
2D8
100
AcDbEntity
  8
0
100
AcDbLine
 62
7
  6
CONTINUOUS
 10
168.9748978187
 20
232.4722464761
 11
117.5321226943
 21
143.3707462782
  0
LINE
  5
2D9
100
AcDbEntity
  8
KONSTRUKTIONSELEMENTE
100
AcDbLine
 62
7
  6
CONTINUOUS
 10
113.5580538465
 20
157.1529197174
 11
113.7656719852
 21
157.489483394
  0
LINE
  5
2DA
100
AcDbEntity
  8
BEZUGSACHSEN
100
AcDbLine
 62
7
  6
CONTINUOUS
 10
295.4416636094
 20
111.9808685005
 11
285.7753026465
 21
128.7234968126
  0
LINE
  5
2DB
100
AcDbEntity
  8
BEZUGSACHSEN
100
AcDbLine
 62
7
  6
CONTINUOUS
 10
303.2239487297
 20
108.0015552731
 11
316.9831335617
 21
84.1699480735
  0
LINE
  5
2DC
100
AcDbEntity
  8
BEZUGSACHSEN
100
AcDbLine
 62
7
  6
CONTINUOUS
 10
330.4038412167
 20
82.4175899621
 11
327.1019544243
 21
88.1366256475
  0
LINE
  5
2DD
100
AcDbEntity
  8
BEZUGSACHSEN
100
AcDbLine
 62
7
  6
CONTINUOUS
 10
320.0737141978
 20
100.3098948075
 11
323.4038412167
 21
94.5419456151
  0
LINE
  5
2DE
100
AcDbEntity
  8
KONSTRUKTIONSELEMENTE
100
AcDbLine
 62
7
  6
CONTINUOUS
 10
145.9901030921
 20
147.9898675429
 11
145.7604567205
 21
147.5530152665
  0
LINE
  5
2DF
100
AcDbEntity
  8
KONSTRUKTIONSELEMENTE
100
AcDbLine
 62
7
  6
CONTINUOUS
 10
90.9322769529
 20
95.2984619807
 11
86.200488102
 21
87.1027632802
  0
LINE
  5
2E0
100
AcDbEntity
  8
KONSTRUKTIONSELEMENTE
100
AcDbLine
 62
7
  6
CONTINUOUS
 10
53.3787334549
 20
27.353816638
 11
48.2117985816
 21
18.4044229179
  0
LINE
  5
2E1
100
AcDbEntity
  8
BEZUGSACHSEN
100
AcDbLine
 62
7
  6
CONTINUOUS
 10
98.9979966294
 20
104.4686982599
 11
93.2498381852
 21
94.5125957847
  0
LINE
  5
2E2
100
AcDbEntity
  8
KONSTRUKTIONSELEMENTE
100
AcDbLine
 62
7
  6
CONTINUOUS
 10
98.9979966294
 20
104.4686982599
 11
105.6979966294
 21
116.0734386706
  0
LINE
  5
2E3
100
AcDbEntity
  8
KONSTRUKTIONSELEMENTE
100
AcDbLine
 62
7
  6
CONTINUOUS
 10
49.236742608
 20
16.1796780465
 11
54.8935968575
 21
25.9776370177
  0
LINE
  5
2E4
100
AcDbEntity
  8
KONSTRUKTIONSELEMENTE
100
AcDbLine
 62
7
  6
CONTINUOUS
 10
109.6975687001
 20
118.8009007056
 11
105.6539516051
 21
111.7971504508
  0
LINE
  5
2E5
100
AcDbEntity
  8
KONSTRUKTIONSELEMENTE
100
AcDbLine
 62
7
  6
CONTINUOUS
 10
95.4009032779
 20
94.0383498156
 11
90.097602419
 21
84.8527632802
  0
LINE
  5
2E6
100
AcDbEntity
  8
KONSTRUKTIONSELEMENTE
100
AcDbLine
 62
7
  6
CONTINUOUS
 10
118.8129086573
 20
132.5891326398
 11
114.5536725671
 21
125.2119193302
  0
LINE
  5
2E7
100
AcDbEntity
  8
KONSTRUKTIONSELEMENTE
100
AcDbLine
 62
7
  6
CONTINUOUS
 10
91.4521424363
 20
85.198895411
 11
82.6969386162
 21
70.034437564
  0
LINE
  5
2E8
100
AcDbEntity
  8
KONSTRUKTIONSELEMENTE
100
AcDbLine
 62
7
  6
CONTINUOUS
 10
107.1366096257
 20
111.8651894727
 11
104.924181732
 21
108.0331519528
  0
LINE
  5
2E9
100
AcDbEntity
  8
KONSTRUKTIONSELEMENTE
100
AcDbLine
 62
7
  6
CONTINUOUS
 10
98.874181732
 20
97.554244567
 11
96.0833087668
 21
92.7203107937
  0
LINE
  5
2EA
100
AcDbEntity
  8
KONSTRUKTIONSELEMENTE
100
AcDbLine
 62
7
  6
CONTINUOUS
 10
111.0337239427
 20
109.6151894727
 11
108.8212960491
 21
105.7831519528
  0
LINE
  5
2EB
100
AcDbEntity
  8
KONSTRUKTIONSELEMENTE
100
AcDbLine
 62
7
  6
CONTINUOUS
 10
102.7712960491
 20
95.304244567
 11
99.9804230838
 21
90.4703107937
  0
LINE
  5
2EC
100
AcDbEntity
  8
KONSTRUKTIONSELEMENTE
100
AcDbLine
 62
7
  6
CONTINUOUS
 10
123.1430356762
 20
130.0891326398
 11
118.8837995861
 21
122.7119193302
  0
LINE
  5
2ED
100
AcDbEntity
  8
KONSTRUKTIONSELEMENTE
100
AcDbLine
 62
7
  6
CONTINUOUS
 10
95.7822694552
 20
82.698895411
 11
87.0270656351
 21
67.534437564
  0
LINE
  5
2EE
100
AcDbEntity
  8
KONSTRUKTIONSELEMENTE
100
AcDbLine
 62
7
  6
CONTINUOUS
 10
96.1597802455
 20
81.3527632802
 11
101.4630811044
 21
90.5383498156
  0
LINE
  5
2EF
100
AcDbEntity
  8
KONSTRUKTIONSELEMENTE
100
AcDbLine
 62
7
  6
CONTINUOUS
 10
111.7161294316
 20
108.2971504508
 11
115.7597465266
 21
115.3009007056
  0
LINE
  5
2F0
100
AcDbEntity
  8
KONSTRUKTIONSELEMENTE
100
AcDbLine
 62
7
  6
CONTINUOUS
 10
57.1175737824
 20
11.6296780465
 11
62.7744280319
 21
21.4276370177
  0
LINE
  5
2F1
100
AcDbEntity
  8
BEZUGSACHSEN
100
AcDbLine
 62
7
  6
CONTINUOUS
 10
102.9493227076
 20
88.9125957847
 11
108.6974811517
 21
98.8686982599
  0
LINE
  5
2F2
100
AcDbEntity
  8
KONSTRUKTIONSELEMENTE
100
AcDbLine
 62
7
  6
CONTINUOUS
 10
108.6974811517
 20
98.8686982599
 11
115.3974811517
 21
110.4734386706
  0
LINE
  5
2F3
100
AcDbEntity
  8
KONSTRUKTIONSELEMENTE
100
AcDbLine
 62
7
  6
CONTINUOUS
 10
59.5567313712
 20
11.8544229179
 11
64.6832555348
 21
20.7338232355
  0
LINE
  5
2F4
100
AcDbEntity
  8
KONSTRUKTIONSELEMENTE
100
AcDbLine
 62
7
  6
CONTINUOUS
 10
100.0568945625
 20
79.1027632802
 11
104.7886834135
 21
87.2984619807
  0
LINE
  5
2F5
100
AcDbEntity
  8
0
100
AcDbLine
 62
7
  6
CONTINUOUS
 10
184.5633550868
 20
223.4722464761
 11
133.1205799624
 21
134.3707462782
  0
LINE
  5
2F6
100
AcDbEntity
  8
KONSTRUKTIONSELEMENTE
100
AcDbLine
 62
7
  6
CONTINUOUS
 10
122.182554783
 20
157.0484312171
 11
122.4729985622
 21
157.5043157523
  0
LINE
  5
2F7
100
AcDbEntity
  8
KONSTRUKTIONSELEMENTE
100
AcDbLine
 62
7
  6
CONTINUOUS
 10
117.651913211
 20
156.7688104246
 11
117.8345971752
 21
157.0415666212
  0
LINE
  5
2F8
100
AcDbEntity
  8
KONSTRUKTIONSELEMENTE
100
AcDbLine
 62
7
  6
CONTINUOUS
 10
113.0728236069
 20
157.3911217304
 11
113.2516715884
 21
157.5956473644
  0
LINE
  5
2F9
100
AcDbEntity
  8
0
100
AcDbLine
 62
7
  6
CONTINUOUS
 10
306.5035102565
 20
134.3211880823
 11
255.0035102565
 21
223.5218046721
  0
LINE
  5
2FA
100
AcDbEntity
  8
BEZUGSACHSEN
100
AcDbLine
 62
7
  6
CONTINUOUS
 10
324.1979966294
 20
110.4734386706
 11
336.6461550735
 21
88.9125957847
  0
LINE
  5
2FB
100
AcDbEntity
  8
BEZUGSACHSEN
100
AcDbLine
 62
7
  6
CONTINUOUS
 10
333.8974811517
 20
116.0734386706
 11
346.3456395959
 21
94.5125957847
  0
LINE
  5
2FC
100
AcDbEntity
  8
KONSTRUKTIONSELEMENTE
100
AcDbLine
 62
7
  6
CONTINUOUS
 10
119.5217635833
 20
100.3098948075
 11
116.1916365643
 21
94.5419456151
  0
LINE
  5
2FD
100
AcDbEntity
  8
BEZUGSACHSEN
100
AcDbLine
 62
7
  6
CONTINUOUS
 10
112.4935233568
 20
88.1366256475
 11
109.1916365643
 21
82.4175899621
  0
LINE
  5
2FE
100
AcDbEntity
  8
RUNDUNGEN
100
AcDbLine
 62
7
  6
CONTINUOUS
 10
122.6123442194
 20
84.1699480735
 11
136.3715290513
 21
108.0015552731
  0
LINE
  5
2FF
100
AcDbEntity
  8
KONSTRUKTIONSELEMENTE
100
AcDbLine
 62
7
  6
CONTINUOUS
 10
86.8640427517
 20
17.8533311689
 11
85.0962757987
 21
14.7914689904
  0
LINE
  5
300
100
AcDbEntity
  8
0
100
AcDbLine
 62
7
  6
CONTINUOUS
 10
144.1538141717
 20
111.9808685005
 11
153.8201751346
 21
128.7234968126
  0
LINE
  5
301
100
AcDbEntity
  8
KONSTRUKTIONSELEMENTE
100
AcDbLine
 62
7
  6
CONTINUOUS
 10
143.4141592987
 20
144.6623823065
 11
143.1404781884
 21
144.1962397794
  0
LINE
  5
302
100
AcDbEntity
  8
KONSTRUKTIONSELEMENTE
100
AcDbLine
 62
7
  6
CONTINUOUS
 10
148.0233879664
 20
143.7021366637
 11
147.7497054922
 21
143.2359976993
  0
LINE
  5
303
100
AcDbEntity
  8
KONSTRUKTIONSELEMENTE
100
AcDbLine
 62
7
  6
CONTINUOUS
 10
117.9057603893
 20
156.1772614736
 11
118.1686344612
 21
156.4726896259
  0
LINE
  5
304
100
AcDbEntity
  8
KONSTRUKTIONSELEMENTE
100
AcDbLine
 62
7
  6
CONTINUOUS
 10
121.7265417854
 20
157.4314989934
 11
121.9547034697
 21
157.667532083
  0
LINE
  5
305
100
AcDbEntity
  8
0
100
AcDbLine
 62
7
  6
CONTINUOUS
 10
322.0919675246
 20
143.3211880823
 11
270.5919675246
 21
232.5218046721
  0
LINE
  5
306
100
AcDbEntity
  8
BEZUGSACHSEN
100
AcDbLine
 62
7
  6
CONTINUOUS
 10
344.7615095454
 20
114.5634000972
 11
348.0916365643
 21
108.7954509047
  0
LINE
  5
307
100
AcDbEntity
  8
BEZUGSACHSEN
100
AcDbLine
 62
7
  6
CONTINUOUS
 10
351.7897497719
 20
102.3901309371
 11
355.0916365643
 21
96.6710952517
  0
LINE
  5
308
100
AcDbEntity
  8
BEZUGSACHSEN
100
AcDbLine
 62
7
  6
CONTINUOUS
 10
360.2844037509
 20
109.1699480735
 11
346.525218919
 21
133.0015552731
  0
LINE
  5
309
100
AcDbEntity
  8
BEZUGSACHSEN
100
AcDbLine
 62
7
  6
CONTINUOUS
 10
337.3038141717
 20
158.4734968126
 11
346.9701751346
 21
141.7308685005
  0
LINE
  5
30A
100
AcDbEntity
  8
KONSTRUKTIONSELEMENTE
100
AcDbLine
 62
7
  6
CONTINUOUS
 10
124.6253628396
 20
37.194472199
 11
122.8575958866
 21
34.1326100206
  0
LINE
  5
30B
100
AcDbEntity
  8
KONSTRUKTIONSELEMENTE
100
AcDbLine
 62
7
  6
CONTINUOUS
 10
144.0312483705
 20
144.5472851743
 11
143.7954319809
 21
144.2752124273
  0
LINE
  5
30C
100
AcDbEntity
  8
KONSTRUKTIONSELEMENTE
100
AcDbLine
 62
7
  6
CONTINUOUS
 10
144.006689909
 20
147.1507502316
 11
142.3235783152
 21
145.2229257371
  0
LINE
  5
30D
100
AcDbEntity
  8
KONSTRUKTIONSELEMENTE
100
AcDbLine
 62
7
  6
CONTINUOUS
 10
145.1617530325
 20
134.7282961499
 11
144.8164035144
 21
134.3330722664
  0
LINE
  5
30E
100
AcDbEntity
  8
KONSTRUKTIONSELEMENTE
100
AcDbLine
 62
7
  6
CONTINUOUS
 10
149.5292019734
 20
133.0264963533
 11
149.1838527291
 21
132.6312762748
  0
LINE
  5
30F
100
AcDbEntity
  8
KONSTRUKTIONSELEMENTE
100
AcDbLine
 62
7
  6
CONTINUOUS
 10
143.5621897194
 20
147.4633025046
 11
142.0158784369
 21
145.7185077481
  0
LINE
  5
310
100
AcDbEntity
  8
KONSTRUKTIONSELEMENTE
100
AcDbLine
 62
7
  6
CONTINUOUS
 10
145.4967151175
 20
147.9777979955
 11
145.2695335008
 21
147.7386562703
  0
LINE
  5
311
100
AcDbEntity
  8
KONSTRUKTIONSELEMENTE
100
AcDbLine
 62
7
  6
CONTINUOUS
 10
145.7604567205
 20
147.5530152665
 11
145.5332751038
 21
147.3138735413
  0
LINE
  5
312
100
AcDbEntity
  8
KONSTRUKTIONSELEMENTE
100
AcDbLine
 62
7
  6
CONTINUOUS
 10
121.8714537687
 20
156.8043074537
 11
122.182554783
 21
157.0484312171
  0
LINE
  5
313
100
AcDbEntity
  8
RUNDUNGEN
100
AcDbLine
 62
7
  6
CONTINUOUS
 10
130.7704687555
 20
98.1220086222
 11
144.1538141717
 21
111.9808685005
  0
LINE
  5
314
100
AcDbEntity
  8
KONSTRUKTIONSELEMENTE
100
AcDbLine
 62
7
  6
CONTINUOUS
 10
145.5702808085
 20
134.4513801781
 11
145.3418388399
 21
134.2156184152
  0
LINE
  5
315
100
AcDbEntity
  8
KONSTRUKTIONSELEMENTE
100
AcDbLine
 62
7
  6
CONTINUOUS
 10
149.0037669589
 20
133.1439540071
 11
148.7753249904
 21
132.9081922442
  0
LINE
  5
316
100
AcDbEntity
  8
KONSTRUKTIONSELEMENTE
100
AcDbLine
 62
7
  6
CONTINUOUS
 10
143.7489502107
 20
144.9734601201
 11
143.4141592987
 21
144.6623823065
  0
LINE
  5
317
100
AcDbEntity
  8
KONSTRUKTIONSELEMENTE
100
AcDbLine
 62
7
  6
CONTINUOUS
 10
117.3600962108
 20
156.5757524257
 11
117.651913211
 21
156.7688104246
  0
LINE
  5
318
100
AcDbEntity
  8
KONSTRUKTIONSELEMENTE
100
AcDbLine
 62
7
  6
CONTINUOUS
 10
117.5337537556
 20
155.9615315949
 11
117.9057603893
 21
156.1772614736
  0
LINE
  5
319
100
AcDbEntity
  8
KONSTRUKTIONSELEMENTE
100
AcDbLine
 62
7
  6
CONTINUOUS
 10
110.2714786841
 20
158.4009135524
 11
112.0724117182
 21
159.2707642331
  0
LINE
  5
31A
100
AcDbEntity
  8
KONSTRUKTIONSELEMENTE
100
AcDbLine
 62
7
  6
CONTINUOUS
 10
110.9530551811
 20
158.1394047281
 11
112.3787937616
 21
158.8280364824
  0
LINE
  5
31B
100
AcDbEntity
  8
KONSTRUKTIONSELEMENTE
100
AcDbLine
 62
7
  6
CONTINUOUS
 10
111.6470850264
 20
156.7024899761
 11
113.0728236069
 21
157.3911217304
  0
LINE
  5
31C
100
AcDbEntity
  8
KONSTRUKTIONSELEMENTE
100
AcDbLine
 62
7
  6
CONTINUOUS
 10
111.9246969127
 20
156.1277241827
 11
113.2003577761
 21
156.7438683975
  0
LINE
  5
31D
100
AcDbEntity
  8
KONSTRUKTIONSELEMENTE
100
AcDbLine
 62
7
  6
CONTINUOUS
 10
112.4461053857
 20
153.8985809671
 11
112.8963386442
 21
154.1160436373
  0
LINE
  5
31E
100
AcDbEntity
  8
KONSTRUKTIONSELEMENTE
100
AcDbLine
 62
7
  6
CONTINUOUS
 10
114.7723104832
 20
155.0221380618
 11
115.2975827613
 21
155.2758445794
  0
LINE
  5
31F
100
AcDbEntity
  8
0
100
AcDbLine
 62
7
  6
CONTINUOUS
 10
119.9529839087
 20
166.3368232302
 11
102.2916636094
 21
158.4734968126
  0
LINE
  5
320
100
AcDbEntity
  8
0
100
AcDbLine
 62
7
  6
CONTINUOUS
 10
314.7977388905
 20
302.4999893975
 11
314.7977388905
 21
462.4999893975
  0
LINE
  5
321
100
AcDbEntity
  8
BEZUGSACHSEN
100
AcDbLine
 62
7
  6
CONTINUOUS
 10
285.7753026465
 20
128.7234968126
 11
287.7961223602
 21
147.9503120649
  0
LINE
  5
322
100
AcDbEntity
  8
KONSTRUKTIONSELEMENTE
100
AcDbLine
 62
7
  6
CONTINUOUS
 10
147.3684328793
 20
143.6231676058
 11
147.1020627275
 21
143.428623564
  0
LINE
  5
323
100
AcDbEntity
  8
KONSTRUKTIONSELEMENTE
100
AcDbLine
 62
7
  6
CONTINUOUS
 10
145.4963566561
 20
134.9571988761
 11
145.1617530325
 21
134.7282961499
  0
LINE
  5
324
100
AcDbEntity
  8
KONSTRUKTIONSELEMENTE
100
AcDbLine
 62
7
  6
CONTINUOUS
 10
149.1838527291
 20
132.6312762748
 11
148.8492491427
 21
132.4023735462
  0
LINE
  5
325
100
AcDbEntity
  8
KONSTRUKTIONSELEMENTE
100
AcDbLine
 62
7
  6
CONTINUOUS
 10
144.3965912994
 20
144.7808376952
 11
144.0312483705
 21
144.5472851743
  0
LINE
  5
326
100
AcDbEntity
  8
KONSTRUKTIONSELEMENTE
100
AcDbLine
 62
7
  6
CONTINUOUS
 10
141.0992019735
 20
148.1901249758
 11
144.9010414486
 21
150.5506334643
  0
LINE
  5
327
100
AcDbEntity
  8
KONSTRUKTIONSELEMENTE
100
AcDbLine
 62
7
  6
CONTINUOUS
 10
140.9169557618
 20
147.4884347053
 11
142.8149211735
 21
148.6668546503
  0
LINE
  5
328
100
AcDbEntity
  8
KONSTRUKTIONSELEMENTE
100
AcDbLine
 62
7
  6
CONTINUOUS
 10
143.3571969331
 20
149.0035460183
 11
144.7128865853
 21
149.8452745954
  0
LINE
  5
329
100
AcDbEntity
  8
KONSTRUKTIONSELEMENTE
100
AcDbLine
 62
7
  6
CONTINUOUS
 10
145.2695335008
 20
147.7386562703
 11
144.9983953678
 21
147.5703104291
  0
LINE
  5
32A
100
AcDbEntity
  8
KONSTRUKTIONSELEMENTE
100
AcDbLine
 62
7
  6
CONTINUOUS
 10
145.5332751038
 20
147.3138735413
 11
145.1717576776
 21
147.0894124721
  0
LINE
  5
32B
100
AcDbEntity
  8
KONSTRUKTIONSELEMENTE
100
AcDbLine
 62
7
  6
CONTINUOUS
 10
144.2132675927
 20
145.2460176803
 11
143.7489502107
 21
144.9734601201
  0
LINE
  5
32C
100
AcDbEntity
  8
KONSTRUKTIONSELEMENTE
100
AcDbLine
 62
7
  6
CONTINUOUS
 10
147.7497054922
 20
143.2359976993
 11
147.2853864342
 21
142.9634435789
  0
LINE
  5
32D
100
AcDbEntity
  8
KONSTRUKTIONSELEMENTE
100
AcDbLine
 62
7
  6
CONTINUOUS
 10
121.4051121514
 20
157.293255639
 11
121.7265417854
 21
157.4314989934
  0
LINE
  5
32E
100
AcDbEntity
  8
KONSTRUKTIONSELEMENTE
100
AcDbLine
 62
7
  6
CONTINUOUS
 10
121.467083861
 20
156.6579732774
 11
121.8714537687
 21
156.8043074537
  0
LINE
  5
32F
100
AcDbEntity
  8
BEZUGSACHSEN
100
AcDbLine
 62
7
  6
CONTINUOUS
 10
352.2806271487
 20
123.2111214433
 11
346.9701751346
 21
141.7308685005
  0
LINE
  5
330
100
AcDbEntity
  8
KONSTRUKTIONSELEMENTE
100
AcDbLine
 62
7
  6
CONTINUOUS
 10
146.2287421518
 20
134.7428644737
 11
145.5702808085
 21
134.4513801781
  0
LINE
  5
331
100
AcDbEntity
  8
KONSTRUKTIONSELEMENTE
100
AcDbLine
 62
7
  6
CONTINUOUS
 10
148.7753249904
 20
132.9081922442
 11
148.116863178
 21
132.6167041563
  0
LINE
  5
332
100
AcDbEntity
  8
KONSTRUKTIONSELEMENTE
100
AcDbLine
 62
7
  6
CONTINUOUS
 10
144.2132675927
 20
145.2460176803
 11
145.6978845282
 21
145.8310933249
  0
LINE
  5
333
100
AcDbEntity
  8
KONSTRUKTIONSELEMENTE
100
AcDbLine
 62
7
  6
CONTINUOUS
 10
144.3965912994
 20
144.7808376952
 11
145.8812082349
 21
145.3659133398
  0
LINE
  5
334
100
AcDbEntity
  8
KONSTRUKTIONSELEMENTE
100
AcDbLine
 62
7
  6
CONTINUOUS
 10
145.9363070894
 20
143.7753481877
 11
145.3424603707
 21
143.5413179518
  0
LINE
  5
335
100
AcDbEntity
  8
KONSTRUKTIONSELEMENTE
100
AcDbLine
 62
7
  6
CONTINUOUS
 10
145.6174459307
 20
142.8435479741
 11
144.8256501671
 21
142.5315076048
  0
LINE
  5
336
100
AcDbEntity
  8
KONSTRUKTIONSELEMENTE
100
AcDbLine
 62
7
  6
CONTINUOUS
 10
146.3946163561
 20
142.6123982249
 11
144.9099994207
 21
142.0273225803
  0
LINE
  5
337
100
AcDbEntity
  8
KONSTRUKTIONSELEMENTE
100
AcDbLine
 62
7
  6
CONTINUOUS
 10
144.6833012249
 20
147.4727607863
 11
144.9983953678
 21
147.5703104291
  0
LINE
  5
338
100
AcDbEntity
  8
KONSTRUKTIONSELEMENTE
100
AcDbLine
 62
7
  6
CONTINUOUS
 10
144.8566635347
 20
146.9918628293
 11
145.1717576776
 21
147.0894124721
  0
LINE
  5
339
100
AcDbEntity
  8
0
100
AcDbLine
 62
7
  6
CONTINUOUS
 10
340.7977388905
 20
302.4999893975
 11
340.7977388905
 21
462.4999893975
  0
LINE
  5
33A
100
AcDbEntity
  8
KONSTRUKTIONSELEMENTE
100
AcDbLine
 62
7
  6
CONTINUOUS
 10
145.9317491058
 20
135.0960838904
 11
145.4963566561
 21
134.9571988761
  0
LINE
  5
33B
100
AcDbEntity
  8
KONSTRUKTIONSELEMENTE
100
AcDbLine
 62
7
  6
CONTINUOUS
 10
148.8492491427
 20
132.4023735462
 11
148.4138567673
 21
132.2634885271
  0
LINE
  5
33C
100
AcDbEntity
  8
BEZUGSACHSEN
100
AcDbLine
 62
7
  6
CONTINUOUS
 10
287.7961223602
 20
147.9503120649
 11
294.400148304
 21
155.2848259264
  0
LINE
  5
33D
100
AcDbEntity
  8
RUNDUNGEN
100
AcDbLine
 62
7
  6
CONTINUOUS
 10
121.5643336985
 20
83.2905628319
 11
120.8681144763
 21
83.0371597585
  0
LINE
  5
33E
100
AcDbEntity
  8
BEZUGSACHSEN
100
AcDbLine
 62
7
  6
CONTINUOUS
 10
120.8681144763
 20
83.0371597585
 11
113.9246337391
 21
80.509939448
  0
LINE
  5
33F
100
AcDbEntity
  8
BEZUGSACHSEN
100
AcDbLine
 62
7
  6
CONTINUOUS
 10
359.1102089585
 20
99.8161657841
 11
360.5219684493
 21
107.8226517182
  0
LINE
  5
340
100
AcDbEntity
  8
KONSTRUKTIONSELEMENTE
100
AcDbLine
 62
7
  6
CONTINUOUS
 10
81.1307323263
 20
25.1192244393
 11
109.617425511
 21
39.3823086503
  0
LINE
  5
341
100
AcDbEntity
  8
KONSTRUKTIONSELEMENTE
100
AcDbLine
 62
7
  6
CONTINUOUS
 10
84.5582992588
 20
14.4738505004
 11
84.9809968207
 21
14.6854921565
  0
LINE
  5
342
100
AcDbEntity
  8
KONSTRUKTIONSELEMENTE
100
AcDbLine
 62
7
  6
CONTINUOUS
 10
121.0183797651
 20
32.7291529053
 11
121.7048061069
 21
33.0728416814
  0
LINE
  5
343
100
AcDbEntity
  8
0
100
AcDbLine
 62
7
  6
CONTINUOUS
 10
337.5724811517
 20
109.7081519528
 11
327.8729966294
 21
104.1081519528
  0
LINE
  5
344
100
AcDbEntity
  8
0
100
AcDbLine
 62
7
  6
CONTINUOUS
 10
343.6224811517
 20
99.229244567
 11
333.9229966294
 21
93.629244567
  0
LINE
  5
345
100
AcDbEntity
  8
KONSTRUKTIONSELEMENTE
100
AcDbLine
 62
7
  6
CONTINUOUS
 10
327.3548843286
 20
80.657273882
 11
330.4038412167
 21
82.4175899621
  0
LINE
  5
346
100
AcDbEntity
  8
KONSTRUKTIONSELEMENTE
100
AcDbLine
 62
7
  6
CONTINUOUS
 10
355.0916365643
 20
96.6710952517
 11
358.1405934525
 21
98.4314113319
  0
LINE
  5
347
100
AcDbEntity
  8
KONSTRUKTIONSELEMENTE
100
AcDbLine
 62
7
  6
CONTINUOUS
 10
431.7447759048
 20
13.9200192417
 11
434.5732030295
 21
11.4705294989
  0
LINE
  5
348
100
AcDbEntity
  8
KONSTRUKTIONSELEMENTE
100
AcDbLine
 62
7
  6
CONTINUOUS
 10
434.8480767544
 20
11.6296780465
 11
434.4945233638
 21
11.9358642644
  0
LINE
  5
349
100
AcDbEntity
  8
KONSTRUKTIONSELEMENTE
100
AcDbLine
 62
7
  6
CONTINUOUS
 10
431.3125428485
 20
14.691540225
 11
431.6660962391
 21
14.3853540072
  0
LINE
  5
34A
100
AcDbEntity
  8
KONSTRUKTIONSELEMENTE
100
AcDbLine
 62
7
  6
CONTINUOUS
 10
434.8480767544
 20
16.1796780465
 11
434.4945233638
 21
16.4858642644
  0
LINE
  5
34B
100
AcDbEntity
  8
KONSTRUKTIONSELEMENTE
100
AcDbLine
 62
7
  6
CONTINUOUS
 10
431.3125428485
 20
19.241540225
 11
431.6660962391
 21
18.9353540072
  0
LINE
  5
34C
100
AcDbEntity
  8
KONSTRUKTIONSELEMENTE
100
AcDbLine
 62
7
  6
CONTINUOUS
 10
445.7169440246
 20
17.315836288
 11
449.2524779305
 21
14.2539741095
  0
LINE
  5
34D
100
AcDbEntity
  8
KONSTRUKTIONSELEMENTE
100
AcDbLine
 62
7
  6
CONTINUOUS
 10
448.9902123781
 20
30.9524358671
 11
448.6366589875
 21
31.258622085
  0
LINE
  5
34E
100
AcDbEntity
  8
KONSTRUKTIONSELEMENTE
100
AcDbLine
 62
7
  6
CONTINUOUS
 10
445.8082318628
 20
33.7081118278
 11
445.4546784722
 21
34.0142980456
  0
LINE
  5
34F
100
AcDbEntity
  8
KONSTRUKTIONSELEMENTE
100
AcDbLine
 62
7
  6
CONTINUOUS
 10
479.396821124
 20
68.663750651
 11
481.3392566757
 21
67.4004488762
  0
LINE
  5
350
100
AcDbEntity
  8
KONSTRUKTIONSELEMENTE
100
AcDbLine
 62
7
  6
CONTINUOUS
 10
479.0432677334
 20
68.9699368688
 11
480.9857032851
 21
67.706635094
  0
LINE
  5
351
100
AcDbEntity
  8
KONSTRUKTIONSELEMENTE
100
AcDbLine
 62
7
  6
CONTINUOUS
 10
475.861287218
 20
71.7256128295
 11
476.2496885189
 21
71.4730082824
  0
LINE
  5
352
100
AcDbEntity
  8
KONSTRUKTIONSELEMENTE
100
AcDbLine
 62
7
  6
CONTINUOUS
 10
480.7732348556
 20
70.2110197658
 11
482.2674160492
 21
69.2392491698
  0
LINE
  5
353
100
AcDbEntity
  8
KONSTRUKTIONSELEMENTE
100
AcDbLine
 62
7
  6
CONTINUOUS
 10
481.357718358
 20
35.7690274446
 11
484.8932522639
 21
32.7071652662
  0
LINE
  5
354
100
AcDbEntity
  8
KONSTRUKTIONSELEMENTE
100
AcDbLine
 62
7
  6
CONTINUOUS
 10
488.0163394626
 20
78.9705803109
 11
487.342357881
 21
78.8936130098
  0
LWPOLYLINE
  5
355
100
AcDbEntity
  8
BEZUGSACHSEN
100
AcDbPolyline
 62
7
  6
CONTINUOUS
 90
14
 70
0
 10
605.2637947233
 20
80.3980763805
 10
606.1302810861
 20
80.432516342
 10
607.004885792
 20
80.4942598944
 10
607.8834953614
 20
80.5844201994
 10
608.7614829555
 20
80.7039925629
 10
609.6341576215
 20
80.8538750642
 10
610.4967642706
 20
81.0348921522
 10
611.3447636603
 20
81.247897352
 10
612.172387516
 20
81.4934075625
 10
612.9791131887
 20
81.7737734536
 10
613.7574055224
 20
82.0894521822
 10
614.5185756452
 20
82.4502291236
 10
615.2699477657
 20
82.8699721461
 10
615.9089544581
 20
83.2920107246
  0
LINE
  5
356
100
AcDbEntity
  8
BEZUGSACHSEN
100
AcDbLine
 62
7
  6
CONTINUOUS
 10
604.5537042391
 20
80.3893262457
 11
605.2637947233
 21
80.3980763805
  0
LWPOLYLINE
  5
357
100
AcDbEntity
  8
RUNDUNGEN
100
AcDbPolyline
 62
7
  6
CONTINUOUS
 90
15
 70
0
 10
604.5537042392
 20
80.3893262456
 10
605.2648029904
 20
80.3980888049
 10
606.1325651877
 20
80.4326420371
 10
607.0060766186
 20
80.4943627752
 10
607.8827310501
 20
80.5843291685
 10
608.7583799314
 20
80.7035160802
 10
609.6287906453
 20
80.8528540214
 10
610.489604908
 20
81.0332469615
 10
611.3366126453
 20
81.245671999
 10
612.1643836824
 20
81.4908391337
 10
612.9722164226
 20
81.7711862199
 10
613.7528339673
 20
82.0874516895
 10
614.5163009744
 20
82.4490624759
 10
615.2690657261
 20
82.869435272
 10
615.9089532412
 20
83.2920098505
  0
LINE
  5
358
100
AcDbEntity
  8
KONSTRUKTIONSELEMENTE
100
AcDbLine
 62
7
  6
CONTINUOUS
 10
477.9448077308
 20
72.6605095086
 11
479.4389889245
 21
71.6887389126
  0
LINE
  5
359
100
AcDbEntity
  8
KONSTRUKTIONSELEMENTE
100
AcDbLine
 62
7
  6
CONTINUOUS
 10
485.7686674942
 20
78.3711799276
 11
487.2628486879
 21
77.3994093316
  0
LINE
  5
35A
100
AcDbEntity
  8
KONSTRUKTIONSELEMENTE
100
AcDbLine
 62
7
  6
CONTINUOUS
 10
489.9587750144
 20
77.707278536
 11
488.0163394626
 21
78.9705803109
  0
LINE
  5
35B
100
AcDbEntity
  8
KONSTRUKTIONSELEMENTE
100
AcDbLine
 62
7
  6
CONTINUOUS
 10
503.7916417058
 20
76.9925028158
 11
493.9965153307
 21
83.3629589802
  0
LINE
  5
35C
100
AcDbEntity
  8
KONSTRUKTIONSELEMENTE
100
AcDbLine
 62
7
  6
CONTINUOUS
 10
500.2561077998
 20
80.0543649943
 11
490.4609814247
 21
86.4248211587
  0
LINE
  5
35D
100
AcDbEntity
  8
KONSTRUKTIONSELEMENTE
100
AcDbLine
 62
7
  6
CONTINUOUS
 10
485.748925414
 20
78.385528539
 11
485.7686674942
 21
78.3711799276
  0
LINE
  5
35E
100
AcDbEntity
  8
KONSTRUKTIONSELEMENTE
100
AcDbLine
 62
7
  6
CONTINUOUS
 10
487.2840058324
 20
77.3832207908
 11
487.2628486879
 21
77.3994093316
  0
LINE
  5
35F
100
AcDbEntity
  8
KONSTRUKTIONSELEMENTE
100
AcDbLine
 62
7
  6
CONTINUOUS
 10
479.396821124
 20
68.663750651
 11
479.0432677334
 21
68.9699368688
  0
LINE
  5
360
100
AcDbEntity
  8
KONSTRUKTIONSELEMENTE
100
AcDbLine
 62
7
  6
CONTINUOUS
 10
475.861287218
 20
71.7256128295
 11
476.2148406086
 21
71.4194266116
  0
LINE
  5
361
100
AcDbEntity
  8
BEZUGSACHSEN
100
AcDbLine
 62
7
  6
CONTINUOUS
 10
504.0134001539
 20
76.8249750207
 11
503.7916417058
 21
76.9925028158
  0
LINE
  5
362
100
AcDbEntity
  8
BEZUGSACHSEN
100
AcDbLine
 62
7
  6
CONTINUOUS
 10
500.4778662479
 20
79.8868371992
 11
500.2561077998
 21
80.0543649943
  0
LINE
  5
363
100
AcDbEntity
  8
KONSTRUKTIONSELEMENTE
100
AcDbLine
 62
7
  6
CONTINUOUS
 10
485.0358777136
 20
79.0034384274
 11
485.7529586277
 21
78.3824281392
  0
LINE
  5
364
100
AcDbEntity
  8
BEZUGSACHSEN
100
AcDbLine
 62
7
  6
CONTINUOUS
 10
500.4768644183
 20
79.8883155241
 11
503.8040785082
 21
77.0068635983
  0
LINE
  5
365
100
AcDbEntity
  8
BEZUGSACHSEN
100
AcDbLine
 62
7
  6
CONTINUOUS
 10
602.2256637831
 20
141.7308685005
 11
606.8817446952
 21
141.7308685005
  0
LINE
  5
366
100
AcDbEntity
  8
KONSTRUKTIONSELEMENTE
100
AcDbLine
 62
7
  6
CONTINUOUS
 10
609.9965690892
 20
153.8985809671
 11
610.5232033909
 21
153.8985809671
  0
LINE
  5
367
100
AcDbEntity
  8
KONSTRUKTIONSELEMENTE
100
AcDbLine
 62
7
  6
CONTINUOUS
 10
610.2010543273
 20
155.0221380618
 11
610.534771581
 21
155.0221380618
  0
LINE
  5
368
100
AcDbEntity
  8
KONSTRUKTIONSELEMENTE
100
AcDbLine
 62
7
  6
CONTINUOUS
 10
598.6115998215
 20
155.2758445794
 11
598.5842050875
 21
155.2758445794
  0
LINE
  5
369
100
AcDbEntity
  8
KONSTRUKTIONSELEMENTE
100
AcDbLine
 62
7
  6
CONTINUOUS
 10
598.8047426007
 20
155.8598541148
 11
598.6027365078
 21
155.8598541148
  0
LINE
  5
36A
100
AcDbEntity
  8
KONSTRUKTIONSELEMENTE
100
AcDbLine
 62
7
  6
CONTINUOUS
 10
610.2770901638
 20
155.8598541148
 11
610.5046719705
 21
155.8598541148
  0
LINE
  5
36B
100
AcDbEntity
  8
KONSTRUKTIONSELEMENTE
100
AcDbLine
 62
7
  6
CONTINUOUS
 10
598.8083770677
 20
155.8708437225
 11
598.5651635653
 21
155.8708437225
  0
LINE
  5
36C
100
AcDbEntity
  8
KONSTRUKTIONSELEMENTE
100
AcDbLine
 62
7
  6
CONTINUOUS
 10
598.8383692282
 20
155.9615315949
 11
598.5651635647
 21
155.9615315949
  0
LINE
  5
36D
100
AcDbEntity
  8
KONSTRUKTIONSELEMENTE
100
AcDbLine
 62
7
  6
CONTINUOUS
 10
610.2288873731
 20
155.9739065223
 11
610.4305447337
 21
155.9739065223
  0
LINE
  5
36E
100
AcDbEntity
  8
KONSTRUKTIONSELEMENTE
100
AcDbLine
 62
7
  6
CONTINUOUS
 10
598.9097150981
 20
156.1772614736
 11
598.6027365057
 21
156.1772614736
  0
LINE
  5
36F
100
AcDbEntity
  8
KONSTRUKTIONSELEMENTE
100
AcDbLine
 62
7
  6
CONTINUOUS
 10
610.094008611
 20
156.2926993216
 11
610.2845728678
 21
156.2926993216
  0
LINE
  5
370
100
AcDbEntity
  8
KONSTRUKTIONSELEMENTE
100
AcDbLine
 62
7
  6
CONTINUOUS
 10
599.0044771306
 20
156.4637952537
 11
598.5862821683
 21
156.4637952537
  0
LINE
  5
371
100
AcDbEntity
  8
KONSTRUKTIONSELEMENTE
100
AcDbLine
 62
7
  6
CONTINUOUS
 10
610.430544737
 20
156.4637952537
 11
610.52112631
 21
156.4637952537
  0
LINE
  5
372
100
AcDbEntity
  8
KONSTRUKTIONSELEMENTE
100
AcDbLine
 62
7
  6
CONTINUOUS
 10
610.2524426071
 20
156.5757524257
 11
610.3311541351
 21
156.5757524257
  0
LINE
  5
373
100
AcDbEntity
  8
KONSTRUKTIONSELEMENTE
100
AcDbLine
 62
7
  6
CONTINUOUS
 10
609.9395646085
 20
156.6568359631
 11
610.1408228648
 21
156.6568359631
  0
LINE
  5
374
100
AcDbEntity
  8
KONSTRUKTIONSELEMENTE
100
AcDbLine
 62
7
  6
CONTINUOUS
 10
599.0686954026
 20
156.6579732774
 11
598.5658044449
 21
156.6579732774
  0
LINE
  5
375
100
AcDbEntity
  8
KONSTRUKTIONSELEMENTE
100
AcDbLine
 62
7
  6
CONTINUOUS
 10
610.1661325524
 20
156.7688104246
 11
610.294320616
 21
156.7688104246
  0
LINE
  5
376
100
AcDbEntity
  8
KONSTRUKTIONSELEMENTE
100
AcDbLine
 62
7
  6
CONTINUOUS
 10
599.1170908273
 20
156.8043074537
 11
598.6044364158
 21
156.8043074537
  0
LINE
  5
377
100
AcDbEntity
  8
KONSTRUKTIONSELEMENTE
100
AcDbLine
 62
7
  6
CONTINUOUS
 10
610.0605471551
 20
157.0415666212
 11
610.2216724714
 21
157.0415666212
  0
LINE
  5
378
100
AcDbEntity
  8
KONSTRUKTIONSELEMENTE
100
AcDbLine
 62
7
  6
CONTINUOUS
 10
599.2060215891
 20
157.0484312171
 11
598.6793872874
 21
157.0484312171
  0
LINE
  5
379
100
AcDbEntity
  8
KONSTRUKTIONSELEMENTE
100
AcDbLine
 62
7
  6
CONTINUOUS
 10
609.7284597409
 20
157.1460145951
 11
609.9635145914
 21
157.1460145951
  0
LINE
  5
37A
100
AcDbEntity
  8
KONSTRUKTIONSELEMENTE
100
AcDbLine
 62
7
  6
CONTINUOUS
 10
610.2728738942
 20
157.293255639
 11
610.3305317303
 21
157.293255639
  0
LINE
  5
37B
100
AcDbEntity
  8
KONSTRUKTIONSELEMENTE
100
AcDbLine
 62
7
  6
CONTINUOUS
 10
609.3318884244
 20
157.3911217304
 11
609.5908263455
 21
157.3911217304
  0
LINE
  5
37C
100
AcDbEntity
  8
KONSTRUKTIONSELEMENTE
100
AcDbLine
 62
7
  6
CONTINUOUS
 10
609.93396055
 20
157.3940208721
 11
610.1141666852
 21
157.3940208721
  0
LINE
  5
37D
100
AcDbEntity
  8
KONSTRUKTIONSELEMENTE
100
AcDbLine
 62
7
  6
CONTINUOUS
 10
610.22699818
 20
157.4314989934
 11
610.2928756926
 21
157.4314989934
  0
LINE
  5
37E
100
AcDbEntity
  8
KONSTRUKTIONSELEMENTE
100
AcDbLine
 62
7
  6
CONTINUOUS
 10
599.3527678155
 20
157.5043157523
 11
598.8261335138
 21
157.5043157523
  0
LINE
  5
37F
100
AcDbEntity
  8
KONSTRUKTIONSELEMENTE
100
AcDbLine
 62
7
  6
CONTINUOUS
 10
609.256840081
 20
157.5956473644
 11
609.5535406038
 21
157.5956473644
  0
LINE
  5
380
100
AcDbEntity
  8
KONSTRUKTIONSELEMENTE
100
AcDbLine
 62
7
  6
CONTINUOUS
 10
610.1486711848
 20
157.667532083
 11
610.2196285549
 21
157.667532083
  0
LINE
  5
381
100
AcDbEntity
  8
KONSTRUKTIONSELEMENTE
100
AcDbLine
 62
7
  6
CONTINUOUS
 10
609.7855700856
 20
157.8261733787
 11
609.9724098049
 21
157.8261733787
  0
LINE
  5
382
100
AcDbEntity
  8
KONSTRUKTIONSELEMENTE
100
AcDbLine
 62
7
  6
CONTINUOUS
 10
609.1599390953
 20
157.8597235535
 11
609.4813484726
 21
157.8597235535
  0
LWPOLYLINE
  5
383
100
AcDbEntity
  8
RUNDUNGEN
100
AcDbPolyline
 62
7
  6
CONTINUOUS
 90
15
 70
0
 10
593.1984552371
 20
83.2920098505
 10
593.8383427522
 20
82.869435272
 10
594.5911075039
 20
82.4490624759
 10
595.354574511
 20
82.0874516895
 10
596.1351920557
 20
81.7711862199
 10
596.9430247959
 20
81.4908391337
 10
597.770795833
 20
81.245671999
 10
598.6178035703
 20
81.0332469615
 10
599.478617833
 20
80.8528540214
 10
600.3490285469
 20
80.7035160802
 10
601.2246774282
 20
80.5843291685
 10
602.1013318598
 20
80.4943627752
 10
602.9748432906
 20
80.4326420371
 10
603.842605488
 20
80.3980888049
 10
604.5537042391
 20
80.3893262456
  0
LWPOLYLINE
  5
384
100
AcDbEntity
  8
BEZUGSACHSEN
100
AcDbPolyline
 62
7
  6
CONTINUOUS
 90
15
 70
0
 10
593.1984540202
 20
83.2920107246
 10
593.8374607127
 20
82.8699721461
 10
594.5888328331
 20
82.4502291236
 10
595.350002956
 20
82.0894521822
 10
596.1282952896
 20
81.7737734536
 10
596.9350209623
 20
81.4934075625
 10
597.762644818
 20
81.247897352
 10
598.6106442078
 20
81.0348921522
 10
599.4732508568
 20
80.8538750642
 10
600.3459255229
 20
80.7039925629
 10
601.2239131169
 20
80.5844201994
 10
602.1025226864
 20
80.4942598944
 10
602.9771273923
 20
80.432516342
 10
603.8444346001
 20
80.3980437546
 10
604.5537042392
 20
80.3893262457
  0
LINE
  5
385
100
AcDbEntity
  8
BEZUGSACHSEN
100
AcDbLine
 62
7
  6
CONTINUOUS
 10
593.1990389424
 20
83.2915906845
 11
592.4055029704
 21
83.8609924629
  0
LINE
  5
386
100
AcDbEntity
  8
KONSTRUKTIONSELEMENTE
100
AcDbLine
 62
7
  6
CONTINUOUS
 10
599.4968589984
 20
157.9440188843
 11
598.9702246967
 21
157.9440188843
  0
LINE
  5
387
100
AcDbEntity
  8
KONSTRUKTIONSELEMENTE
100
AcDbLine
 62
7
  6
CONTINUOUS
 10
610.0378929576
 20
158.0013547596
 11
610.11174901
 21
158.0013547596
  0
LINE
  5
388
100
AcDbEntity
  8
KONSTRUKTIONSELEMENTE
100
AcDbLine
 62
7
  6
CONTINUOUS
 10
609.0573099029
 20
158.183350194
 11
609.3748165149
 21
158.183350194
  0
LINE
  5
389
100
AcDbEntity
  8
KONSTRUKTIONSELEMENTE
100
AcDbLine
 62
7
  6
CONTINUOUS
 10
608.3466022369
 20
158.4009135524
 11
608.8732365386
 21
158.4009135524
  0
LINE
  5
38A
100
AcDbEntity
  8
KONSTRUKTIONSELEMENTE
100
AcDbLine
 62
7
  6
CONTINUOUS
 10
609.8946518385
 20
158.4329670047
 11
609.9698390233
 21
158.4329670047
  0
LINE
  5
38B
100
AcDbEntity
  8
KONSTRUKTIONSELEMENTE
100
AcDbLine
 62
7
  6
CONTINUOUS
 10
609.0640522907
 20
158.4707333591
 11
609.2693511652
 21
158.4707333591
  0
LINE
  5
38C
100
AcDbEntity
  8
BEZUGSACHSEN
100
AcDbLine
 62
7
  6
CONTINUOUS
 10
602.3263426259
 20
158.4734968126
 11
606.7810658524
 21
158.4734968126
  0
LINE
  5
38D
100
AcDbEntity
  8
KONSTRUKTIONSELEMENTE
100
AcDbLine
 62
7
  6
CONTINUOUS
 10
599.6742808507
 20
158.4815115107
 11
599.147646549
 21
158.4815115107
  0
LINE
  5
38E
100
AcDbEntity
  8
KONSTRUKTIONSELEMENTE
100
AcDbLine
 62
7
  6
CONTINUOUS
 10
609.0641267954
 20
158.721872512
 11
609.164912858
 21
158.721872512
  0
LINE
  5
38F
100
AcDbEntity
  8
KONSTRUKTIONSELEMENTE
100
AcDbLine
 62
7
  6
CONTINUOUS
 10
608.3611483042
 20
159.2707642331
 11
608.8877826059
 21
159.2707642331
  0
LINE
  5
390
100
AcDbEntity
  8
KONSTRUKTIONSELEMENTE
100
AcDbLine
 62
7
  6
CONTINUOUS
 10
608.3930646877
 20
159.3561888605
 11
608.9196989893
 21
159.3561888605
  0
LINE
  5
391
100
AcDbEntity
  8
KONSTRUKTIONSELEMENTE
100
AcDbLine
 62
7
  6
CONTINUOUS
 10
609.3675250356
 20
160.0211728718
 11
609.4427198114
 21
160.0211728718
  0
LINE
  5
392
100
AcDbEntity
  8
KONSTRUKTIONSELEMENTE
100
AcDbLine
 62
7
  6
CONTINUOUS
 10
600.20075385
 20
160.0697173777
 11
599.6741195483
 21
160.0697173777
  0
LINE
  5
393
100
AcDbEntity
  8
KONSTRUKTIONSELEMENTE
100
AcDbLine
 62
7
  6
CONTINUOUS
 10
608.3482028534
 20
160.3194889472
 11
608.8748371551
 21
160.3194889472
  0
LINE
  5
394
100
AcDbEntity
  8
KONSTRUKTIONSELEMENTE
100
AcDbLine
 62
7
  6
CONTINUOUS
 10
609.2296272675
 20
160.4366036767
 11
609.3033693907
 21
160.4366036767
  0
LINE
  5
395
100
AcDbEntity
  8
KONSTRUKTIONSELEMENTE
100
AcDbLine
 62
7
  6
CONTINUOUS
 10
608.3559938145
 20
160.4555207558
 11
608.8826281162
 21
160.4555207558
  0
LINE
  5
396
100
AcDbEntity
  8
KONSTRUKTIONSELEMENTE
100
AcDbLine
 62
7
  6
CONTINUOUS
 10
600.3745159208
 20
160.5910288605
 11
599.8478816191
 21
160.5910288605
  0
LINE
  5
397
100
AcDbEntity
  8
KONSTRUKTIONSELEMENTE
100
AcDbLine
 62
7
  6
CONTINUOUS
 10
609.1295609077
 20
160.7380635842
 11
609.2000731373
 21
160.7380635842
  0
LINE
  5
398
100
AcDbEntity
  8
KONSTRUKTIONSELEMENTE
100
AcDbLine
 62
7
  6
CONTINUOUS
 10
609.0912642858
 20
160.9255520937
 11
609.1322925708
 21
160.9255520937
  0
LINE
  5
399
100
AcDbEntity
  8
KONSTRUKTIONSELEMENTE
100
AcDbLine
 62
7
  6
CONTINUOUS
 10
600.5117728178
 20
160.9983688526
 11
599.9851385162
 21
160.9983688526
  0
LINE
  5
39A
100
AcDbEntity
  8
KONSTRUKTIONSELEMENTE
100
AcDbLine
 62
7
  6
CONTINUOUS
 10
608.3559938115
 20
160.9996477308
 11
608.8826281132
 21
160.9996477308
  0
LINE
  5
39B
100
AcDbEntity
  8
KONSTRUKTIONSELEMENTE
100
AcDbLine
 62
7
  6
CONTINUOUS
 10
608.3482028534
 20
161.1356794745
 11
608.8748371551
 21
161.1356794745
  0
LINE
  5
39C
100
AcDbEntity
  8
KONSTRUKTIONSELEMENTE
100
AcDbLine
 62
7
  6
CONTINUOUS
 10
600.6335080617
 20
161.3895274045
 11
600.1204035595
 21
161.3895274045
  0
LINE
  5
39D
100
AcDbEntity
  8
KONSTRUKTIONSELEMENTE
100
AcDbLine
 62
7
  6
CONTINUOUS
 10
608.344915419
 20
161.4401737656
 11
608.8715497207
 21
161.4401737656
  0
LINE
  5
39E
100
AcDbEntity
  8
KONSTRUKTIONSELEMENTE
100
AcDbLine
 62
7
  6
CONTINUOUS
 10
600.6928382362
 20
161.5689251939
 11
600.1868832175
 21
161.5689251939
  0
LINE
  5
39F
100
AcDbEntity
  8
KONSTRUKTIONSELEMENTE
100
AcDbLine
 62
7
  6
CONTINUOUS
 10
600.7144760241
 20
161.6343517894
 11
600.2192359146
 21
161.6343517894
  0
LINE
  5
3A0
100
AcDbEntity
  8
KONSTRUKTIONSELEMENTE
100
AcDbLine
 62
7
  6
CONTINUOUS
 10
608.3615382621
 20
161.6343517894
 11
608.8881725638
 21
161.6343517894
  0
LINE
  5
3A1
100
AcDbEntity
  8
BEZUGSACHSEN
100
AcDbLine
 62
7
  6
CONTINUOUS
 10
602.3263426259
 20
166.3368232302
 11
606.7810658524
 21
166.3368232302
  0
LINE
  5
3A2
100
AcDbEntity
  8
KONSTRUKTIONSELEMENTE
100
AcDbLine
 62
7
  6
CONTINUOUS
 10
431.3125428485
 20
19.241540225
 11
431.3125428485
 21
14.691540225
  0
LINE
  5
3A3
100
AcDbEntity
  8
KONSTRUKTIONSELEMENTE
100
AcDbLine
 62
7
  6
CONTINUOUS
 10
431.6660962391
 20
19.1853540072
 11
431.6660962391
 21
18.9353540072
  0
LINE
  5
3A4
100
AcDbEntity
  8
KONSTRUKTIONSELEMENTE
100
AcDbLine
 62
7
  6
CONTINUOUS
 10
431.6660962391
 20
14.3853540072
 11
431.6660962391
 21
14.1353540072
  0
LINE
  5
3A5
100
AcDbEntity
  8
KONSTRUKTIONSELEMENTE
100
AcDbLine
 62
7
  6
CONTINUOUS
 10
434.4945233638
 20
16.7358642644
 11
434.4945233638
 21
16.4858642644
  0
LINE
  5
3A6
100
AcDbEntity
  8
KONSTRUKTIONSELEMENTE
100
AcDbLine
 62
7
  6
CONTINUOUS
 10
434.4945233638
 20
11.9358642644
 11
434.4945233638
 21
11.6858642644
  0
LINE
  5
3A7
100
AcDbEntity
  8
KONSTRUKTIONSELEMENTE
100
AcDbLine
 62
7
  6
CONTINUOUS
 10
434.8480767544
 20
16.1796780465
 11
434.8480767544
 21
11.6296780465
  0
LINE
  5
3A8
100
AcDbEntity
  8
KONSTRUKTIONSELEMENTE
100
AcDbLine
 62
7
  6
CONTINUOUS
 10
445.4546784722
 20
18.0336188396
 11
445.4546784722
 21
20.4276370177
  0
LINE
  5
3A9
100
AcDbEntity
  8
KONSTRUKTIONSELEMENTE
100
AcDbLine
 62
7
  6
CONTINUOUS
 10
445.4546784722
 20
33.4889889389
 11
445.4546784722
 21
34.0142980456
  0
LINE
  5
3AA
100
AcDbEntity
  8
KONSTRUKTIONSELEMENTE
100
AcDbLine
 62
7
  6
CONTINUOUS
 10
448.6366589875
 20
21.1833129783
 11
448.6366589875
 21
22.1833129783
  0
LINE
  5
3AB
100
AcDbEntity
  8
KONSTRUKTIONSELEMENTE
100
AcDbLine
 62
7
  6
CONTINUOUS
 10
448.6366589875
 20
30.7333129783
 11
448.6366589875
 21
31.258622085
  0
LINE
  5
3AC
100
AcDbEntity
  8
KONSTRUKTIONSELEMENTE
100
AcDbLine
 62
7
  6
CONTINUOUS
 10
448.9902123781
 20
21.8771267605
 11
448.9902123781
 21
14.9717566611
  0
LINE
  5
3AD
100
AcDbEntity
  8
KONSTRUKTIONSELEMENTE
100
AcDbLine
 62
7
  6
CONTINUOUS
 10
448.9902123781
 20
30.4271267605
 11
448.9902123781
 21
30.9524358671
  0
LWPOLYLINE
  5
3AE
100
AcDbEntity
  8
RUNDUNGEN
100
AcDbPolyline
 62
7
  6
CONTINUOUS
 90
7
 70
0
 10
591.6090760144
 20
84.6611147006
 10
591.6765945833
 20
84.5702106532
 10
591.8387860108
 20
84.3738888413
 10
592.0097160615
 20
84.1942463411
 10
592.187583705
 20
84.0316813881
 10
592.370424469
 20
83.8864700509
 10
592.4082031272
 20
83.8589938776
  0
LWPOLYLINE
  5
3AF
100
AcDbEntity
  8
BEZUGSACHSEN
100
AcDbPolyline
 62
7
  6
CONTINUOUS
 90
7
 70
0
 10
591.6090760144
 20
84.6611147006
 10
591.6765945833
 20
84.5702106532
 10
591.8387860108
 20
84.3738888413
 10
592.0097160615
 20
84.1942463411
 10
592.187583705
 20
84.0316813881
 10
592.370424469
 20
83.8864700509
 10
592.4082031272
 20
83.8589938776
  0
LINE
  5
3B0
100
AcDbEntity
  8
BEZUGSACHSEN
100
AcDbLine
 62
7
  6
CONTINUOUS
 10
591.609163193
 20
84.6610226091
 11
591.3453586767
 21
85.0281927367
  0
LINE
  5
3B1
100
AcDbEntity
  8
KONSTRUKTIONSELEMENTE
100
AcDbLine
 62
7
  6
CONTINUOUS
 10
484.5139307563
 20
81.3431027525
 11
484.4808055567
 21
82.0324424893
  0
LINE
  5
3B2
100
AcDbEntity
  8
RUNDUNGEN
100
AcDbLine
 62
7
  6
CONTINUOUS
 10
608.9174815308
 20
135.0559984801
 11
608.9175785341
 21
135.0559031145
  0
LINE
  5
3B3
100
AcDbEntity
  8
KONSTRUKTIONSELEMENTE
100
AcDbLine
 62
7
  6
CONTINUOUS
 10
612.110458705
 20
130.3324946216
 11
613.8361938241
 21
128.6012537989
  0
LINE
  5
3B4
100
AcDbEntity
  8
RUNDUNGEN
100
AcDbLine
 62
7
  6
CONTINUOUS
 10
608.9863911427
 20
134.9846303034
 11
608.9175654009
 21
135.055916029
  0
LWPOLYLINE
  5
3B5
100
AcDbEntity
  8
RUNDUNGEN
100
AcDbPolyline
 62
7
  6
CONTINUOUS
 90
5
 70
0
 10
608.9174494226
 20
135.0560297874
 10
608.8591622733
 20
135.1169674781
 10
608.8067655386
 20
135.1793561946
 10
608.7701995248
 20
135.2291290081
 10
608.7483582339
 20
135.2628655179
  0
LINE
  5
3B6
100
AcDbEntity
  8
RUNDUNGEN
100
AcDbLine
 62
7
  6
CONTINUOUS
 10
609.0687568164
 20
134.888450788
 11
608.9863911427
 21
134.9846303034
  0
LWPOLYLINE
  5
3B7
100
AcDbEntity
  8
RUNDUNGEN
100
AcDbPolyline
 62
7
  6
CONTINUOUS
 90
5
 70
0
 10
617.8498561486
 20
121.7233984561
 10
609.3055143008
 20
134.5399998403
 10
609.2579058923
 20
134.6125107301
 10
609.2109504703
 20
134.6852950929
 10
609.1872984308
 20
134.7224510729
  0
LWPOLYLINE
  5
3B8
100
AcDbEntity
  8
RUNDUNGEN
100
AcDbPolyline
 62
7
  6
CONTINUOUS
 90
3
 70
0
 10
609.1872304535
 20
134.7224489566
 10
609.1438791326
 20
134.787742531
 10
609.0687568164
 20
134.888450788
  0
LINE
  5
3B9
100
AcDbEntity
  8
0
100
AcDbLine
 62
7
  6
CONTINUOUS
 10
566.5537042392
 20
163.935924792
 11
566.5537042392
 21
202.9070679623
  0
LINE
  5
3BA
100
AcDbEntity
  8
KONSTRUKTIONSELEMENTE
100
AcDbLine
 62
7
  6
CONTINUOUS
 10
451.8960472324
 20
15.2133133785
 11
453.8384827841
 21
19.8410122194
  0
LINE
  5
3BB
100
AcDbEntity
  8
KONSTRUKTIONSELEMENTE
100
AcDbLine
 62
7
  6
CONTINUOUS
 10
607.065429395
 20
165.648348316
 11
608.3898372585
 21
161.6437107921
  0
LINE
  5
3BC
100
AcDbEntity
  8
KONSTRUKTIONSELEMENTE
100
AcDbLine
 62
7
  6
CONTINUOUS
 10
610.3026658776
 20
155.8598541148
 11
610.3955412696
 21
155.5790250061
  0
LINE
  5
3BD
100
AcDbEntity
  8
KONSTRUKTIONSELEMENTE
100
AcDbLine
 62
7
  6
CONTINUOUS
 10
610.5282536678
 20
155.177739976
 11
610.5508314051
 21
155.1094712373
  0
LINE
  5
3BE
100
AcDbEntity
  8
BEZUGSACHSEN
100
AcDbLine
 62
7
  6
CONTINUOUS
 10
601.9717926872
 20
145.5592492277
 11
602.2256637831
 21
141.7308685005
  0
LINE
  5
3BF
100
AcDbEntity
  8
0
100
AcDbLine
 62
7
  6
CONTINUOUS
 10
584.5537042392
 20
163.935924792
 11
584.5537042392
 21
202.9070679623
  0
LINE
  5
3C0
100
AcDbEntity
  8
BEZUGSACHSEN
100
AcDbLine
 62
7
  6
CONTINUOUS
 10
590.5537042392
 20
100.3098948075
 11
590.5537042392
 21
87.441775793
  0
LINE
  5
3C1
100
AcDbEntity
  8
BEZUGSACHSEN
100
AcDbLine
 62
7
  6
CONTINUOUS
 10
590.5537042392
 20
106.8341959406
 11
590.5537042392
 21
119.4366474523
  0
LINE
  5
3C2
100
AcDbEntity
  8
0
100
AcDbLine
 62
7
  6
CONTINUOUS
 10
591.5537042392
 20
570.4999893975
 11
591.5537042392
 21
194.4999893975
  0
LINE
  5
3C3
100
AcDbEntity
  8
BEZUGSACHSEN
100
AcDbLine
 62
7
  6
CONTINUOUS
 10
593.0573873509
 20
101.8946274587
 11
593.0573873509
 21
98.8686982599
  0
LINE
  5
3C4
100
AcDbEntity
  8
BEZUGSACHSEN
100
AcDbLine
 62
7
  6
CONTINUOUS
 10
594.5537042392
 20
126.6676263203
 11
594.5537042392
 21
126.920917824
  0
LINE
  5
3C5
100
AcDbEntity
  8
BEZUGSACHSEN
100
AcDbLine
 62
7
  6
CONTINUOUS
 10
598.3037042392
 20
153.4556953341
 11
598.3037042392
 21
132.2926263203
  0
LINE
  5
3C6
100
AcDbEntity
  8
KONSTRUKTIONSELEMENTE
100
AcDbLine
 62
7
  6
CONTINUOUS
 10
482.1156322657
 20
37.7643819062
 11
481.3646170023
 21
35.9751475296
  0
LINE
  5
3C7
100
AcDbEntity
  8
KONSTRUKTIONSELEMENTE
100
AcDbLine
 62
7
  6
CONTINUOUS
 10
486.84258646
 20
37.540984192
 11
484.9001509082
 21
32.9132853511
  0
LINE
  5
3C8
100
AcDbEntity
  8
KONSTRUKTIONSELEMENTE
100
AcDbLine
 62
7
  6
CONTINUOUS
 10
502.2118786916
 20
66.4669503805
 11
490.4104804659
 21
38.3510539014
  0
LWPOLYLINE
  5
3C9
100
AcDbEntity
  8
KONSTRUKTIONSELEMENTE
100
AcDbPolyline
 62
7
  6
CONTINUOUS
 90
9
 70
0
 10
614.5536924923
 20
126.920434237
 10
614.5436149458
 20
127.133840703
 10
614.5062849854
 20
127.3813818921
 10
614.4419848484
 20
127.6237195788
 10
614.3506097642
 20
127.8606182597
 10
614.231660993
 20
128.0910334529
 10
614.0847964086
 20
128.3130249791
 10
613.9085652495
 20
128.5257608871
 10
613.8377553523
 20
128.5996770168
  0
LWPOLYLINE
  5
3CA
100
AcDbEntity
  8
BEZUGSACHSEN
100
AcDbPolyline
 62
7
  6
CONTINUOUS
 90
9
 70
0
 10
614.5536924913
 20
126.920432418
 10
614.5436195946
 20
127.1337915759
 10
614.5062810157
 20
127.3814010117
 10
614.4419236272
 20
127.6239082519
 10
614.3504020099
 20
127.8610806256
 10
614.231069564
 20
128.0920414022
 10
614.0838630778
 20
128.3142832368
 10
613.9078183384
 20
128.5265708766
 10
613.837703007
 20
128.5997297586
  0
LINE
  5
3CB
100
AcDbEntity
  8
RUNDUNGEN
100
AcDbLine
 62
7
  6
CONTINUOUS
 10
606.8817446952
 20
141.7308685005
 11
607.2029607906
 21
128.3465618312
  0
LINE
  5
3CC
100
AcDbEntity
  8
BEZUGSACHSEN
100
AcDbLine
 62
7
  6
CONTINUOUS
 10
610.8037042392
 20
153.4556953341
 11
610.8037042392
 21
141.4903668928
  0
LINE
  5
3CD
100
AcDbEntity
  8
KONSTRUKTIONSELEMENTE
100
AcDbLine
 62
7
  6
CONTINUOUS
 10
610.8037042392
 20
141.4903668928
 11
610.8037042392
 21
132.2926263203
  0
LINE
  5
3CE
100
AcDbEntity
  8
RUNDUNGEN
100
AcDbLine
 62
7
  6
CONTINUOUS
 10
610.8037042392
 20
141.4903668787
 11
610.8037042392
 21
132.2926263203
  0
LINE
  5
3CF
100
AcDbEntity
  8
KONSTRUKTIONSELEMENTE
100
AcDbLine
 62
7
  6
CONTINUOUS
 10
614.5537042392
 20
126.6676263203
 11
614.5537042392
 21
126.920917824
  0
LINE
  5
3D0
100
AcDbEntity
  8
KONSTRUKTIONSELEMENTE
100
AcDbLine
 62
7
  6
CONTINUOUS
 10
616.0500211274
 20
101.8946274587
 11
616.0500211274
 21
98.8686982599
  0
LINE
  5
3D1
100
AcDbEntity
  8
0
100
AcDbLine
 62
7
  6
CONTINUOUS
 10
617.5537042392
 20
570.4999893975
 11
617.5537042392
 21
194.4999893975
  0
LINE
  5
3D2
100
AcDbEntity
  8
KONSTRUKTIONSELEMENTE
100
AcDbLine
 62
7
  6
CONTINUOUS
 10
618.5537042392
 20
100.3098948075
 11
618.5537042392
 21
92.0493556454
  0
LINE
  5
3D3
100
AcDbEntity
  8
RUNDUNGEN
100
AcDbLine
 62
7
  6
CONTINUOUS
 10
618.5537042392
 20
92.0493556454
 11
618.5537042392
 21
87.441775793
  0
LINE
  5
3D4
100
AcDbEntity
  8
RUNDUNGEN
100
AcDbLine
 62
7
  6
CONTINUOUS
 10
618.5537042392
 20
106.8341959406
 11
618.5537042392
 21
119.4366474523
  0
LINE
  5
3D5
100
AcDbEntity
  8
BEZUGSACHSEN
100
AcDbLine
 62
7
  6
CONTINUOUS
 10
602.2256637831
 20
141.7308685005
 11
601.9044476877
 21
128.3465618312
  0
LINE
  5
3D6
100
AcDbEntity
  8
0
100
AcDbLine
 62
7
  6
CONTINUOUS
 10
607.1356157912
 20
145.5592492277
 11
606.8817446952
 21
141.7308685005
  0
LINE
  5
3D7
100
AcDbEntity
  8
0
100
AcDbLine
 62
7
  6
CONTINUOUS
 10
624.5537042392
 20
202.9070679623
 11
624.5537042392
 21
163.935924792
  0
LINE
  5
3D8
100
AcDbEntity
  8
BEZUGSACHSEN
100
AcDbLine
 62
7
  6
CONTINUOUS
 10
598.5565770732
 20
155.1094712373
 11
602.0419790834
 21
165.648348316
  0
LINE
  5
3D9
100
AcDbEntity
  8
KONSTRUKTIONSELEMENTE
100
AcDbLine
 62
7
  6
CONTINUOUS
 10
485.7625183208
 20
83.5650565652
 11
484.4808055567
 21
82.0324424893
  0
LINE
  5
3DA
100
AcDbEntity
  8
KONSTRUKTIONSELEMENTE
100
AcDbLine
 62
7
  6
CONTINUOUS
 10
475.861287218
 20
71.7256128295
 11
447.4960311845
 21
37.807724299
  0
LINE
  5
3DB
100
AcDbEntity
  8
KONSTRUKTIONSELEMENTE
100
AcDbLine
 62
7
  6
CONTINUOUS
 10
476.2148406086
 20
71.4194266116
 11
476.5352687997
 21
71.8025801306
  0
LINE
  5
3DC
100
AcDbEntity
  8
KONSTRUKTIONSELEMENTE
100
AcDbLine
 62
7
  6
CONTINUOUS
 10
479.5000540431
 20
71.6631737269
 11
485.3854675958
 21
78.7006847086
  0
LINE
  5
3DD
100
AcDbEntity
  8
KONSTRUKTIONSELEMENTE
100
AcDbLine
 62
7
  6
CONTINUOUS
 10
479.0432677334
 20
68.9699368688
 11
479.3636959244
 21
69.3530903878
  0
LINE
  5
3DE
100
AcDbEntity
  8
KONSTRUKTIONSELEMENTE
100
AcDbLine
 62
7
  6
CONTINUOUS
 10
489.2980522267
 20
80.5031943867
 11
488.0163394626
 21
78.9705803109
  0
LINE
  5
3DF
100
AcDbEntity
  8
KONSTRUKTIONSELEMENTE
100
AcDbLine
 62
7
  6
CONTINUOUS
 10
479.396821124
 20
68.663750651
 11
451.0315650904
 21
34.7458621206
  0
LINE
  5
3E0
100
AcDbEntity
  8
0
100
AcDbLine
 62
7
  6
CONTINUOUS
 10
642.5537042392
 20
202.9070679623
 11
642.5537042392
 21
163.935924792
  0
LWPOLYLINE
  5
3E1
100
AcDbEntity
  8
BEZUGSACHSEN
100
AcDbPolyline
 62
7
  6
CONTINUOUS
 90
5
 70
0
 10
594.7570064684
 20
127.8610806256
 10
594.6654848511
 20
127.6239082519
 10
594.6011274626
 20
127.3814010117
 10
594.5637888837
 20
127.1337915759
 10
594.5537159871
 20
126.920432418
  0
LINE
  5
3E2
100
AcDbEntity
  8
KONSTRUKTIONSELEMENTE
100
AcDbLine
 62
7
  6
CONTINUOUS
 10
482.3952422163
 20
68.5645644721
 11
483.6769549804
 21
70.0971785479
  0
LINE
  5
3E3
100
AcDbEntity
  8
KONSTRUKTIONSELEMENTE
100
AcDbLine
 62
7
  6
CONTINUOUS
 10
489.0475676919
 20
75.7901646483
 11
482.7487956069
 21
68.2583782542
  0
LWPOLYLINE
  5
3E4
100
AcDbEntity
  8
BEZUGSACHSEN
100
AcDbPolyline
 62
7
  6
CONTINUOUS
 90
6
 70
0
 10
600.3689200898
 20
135.2800700105
 10
600.3678799401
 20
135.2781304129
 10
600.3572375201
 20
135.2598903362
 10
600.3344551937
 20
135.2251356593
 10
600.2979182749
 20
135.1758866416
 10
600.2470470421
 20
135.1156337297
  0
LWPOLYLINE
  5
3E5
100
AcDbEntity
  8
BEZUGSACHSEN
100
AcDbPolyline
 62
7
  6
CONTINUOUS
 90
4
 70
0
 10
599.9201100475
 20
134.7224510729
 10
599.896458008
 20
134.6852950929
 10
599.8495025861
 20
134.6125107301
 10
599.8018941775
 20
134.5399998403
  0
LINE
  5
3E6
100
AcDbEntity
  8
BEZUGSACHSEN
100
AcDbLine
 62
7
  6
CONTINUOUS
 10
599.8018941775
 20
134.5399998403
 11
591.2575523297
 21
121.7233984561
  0
LINE
  5
3E7
100
AcDbEntity
  8
KONSTRUKTIONSELEMENTE
100
AcDbLine
 62
7
  6
CONTINUOUS
 10
497.9117130562
 20
81.9307234667
 11
500.7401401809
 21
84.3802132095
  0
LINE
  5
3E8
100
AcDbEntity
  8
KONSTRUKTIONSELEMENTE
100
AcDbLine
 62
7
  6
CONTINUOUS
 10
552.005381817
 20
128.7772147975
 11
554.8338089417
 21
131.2267045402
  0
LINE
  5
3E9
100
AcDbEntity
  8
KONSTRUKTIONSELEMENTE
100
AcDbLine
 62
7
  6
CONTINUOUS
 10
555.1873623323
 20
131.5328907581
 11
558.015789457
 21
133.9823805009
  0
LINE
  5
3EA
100
AcDbEntity
  8
KONSTRUKTIONSELEMENTE
100
AcDbLine
 62
7
  6
CONTINUOUS
 10
521.2331235577
 20
101.7969384993
 11
531.8397252755
 21
110.9825250347
  0
LINE
  5
3EB
100
AcDbEntity
  8
KONSTRUKTIONSELEMENTE
100
AcDbLine
 62
7
  6
CONTINUOUS
 10
551.4619384535
 20
123.8085771148
 11
540.8553367357
 21
114.6229905793
  0
LINE
  5
3EC
100
AcDbEntity
  8
KONSTRUKTIONSELEMENTE
100
AcDbLine
 62
7
  6
CONTINUOUS
 10
520.3492400812
 20
96.8641899441
 11
509.7426383634
 21
87.6786034087
  0
LINE
  5
3ED
100
AcDbEntity
  8
KONSTRUKTIONSELEMENTE
100
AcDbLine
 62
7
  6
CONTINUOUS
 10
443.0606261575
 20
29.8033063807
 11
432.7267564108
 21
20.8539126607
  0
LINE
  5
3EE
100
AcDbEntity
  8
KONSTRUKTIONSELEMENTE
100
AcDbLine
 62
7
  6
CONTINUOUS
 10
431.3125428485
 20
19.241540225
 11
431.7994096642
 21
19.6631792557
  0
LINE
  5
3EF
100
AcDbEntity
  8
KONSTRUKTIONSELEMENTE
100
AcDbLine
 62
7
  6
CONTINUOUS
 10
524.9672741095
 20
99.0778672888
 11
534.7856667937
 21
107.5808447776
  0
LINE
  5
3F0
100
AcDbEntity
  8
KONSTRUKTIONSELEMENTE
100
AcDbLine
 62
7
  6
CONTINUOUS
 10
501.8339170409
 20
78.7130734786
 11
504.0134085345
 21
80.6005684794
  0
LINE
  5
3F1
100
AcDbEntity
  8
KONSTRUKTIONSELEMENTE
100
AcDbLine
 62
7
  6
CONTINUOUS
 10
556.435178442
 20
125.9991529307
 11
558.1070772952
 21
127.4470598102
  0
LINE
  5
3F2
100
AcDbEntity
  8
KONSTRUKTIONSELEMENTE
100
AcDbLine
 62
7
  6
CONTINUOUS
 10
558.4606306858
 20
127.753246028
 11
560.6188595812
 21
129.6223270786
  0
LINE
  5
3F3
100
AcDbEntity
  8
KONSTRUKTIONSELEMENTE
100
AcDbLine
 62
7
  6
CONTINUOUS
 10
445.8890532823
 20
27.353816638
 11
435.5551835356
 21
18.4044229179
  0
LWPOLYLINE
  5
3F4
100
AcDbEntity
  8
BEZUGSACHSEN
100
AcDbPolyline
 62
7
  6
CONTINUOUS
 90
4
 70
0
 10
600.1210173357
 20
134.9846303034
 10
600.0386516619
 20
134.888450788
 10
599.9635293457
 20
134.787742531
 10
599.9201780248
 20
134.7224489566
  0
LWPOLYLINE
  5
3F5
100
AcDbEntity
  8
KONSTRUKTIONSELEMENTE
100
AcDbPolyline
 62
7
  6
CONTINUOUS
 90
9
 70
0
 10
595.2696531261
 20
128.5996770168
 10
595.1988432289
 20
128.5257608871
 10
595.0226120697
 20
128.3130249791
 10
594.8757474854
 20
128.0910334529
 10
594.7567987141
 20
127.8606182597
 10
594.66542363
 20
127.6237195788
 10
594.6011234929
 20
127.3813818921
 10
594.5637935325
 20
127.133840703
 10
594.5537159861
 20
126.920434237
  0
LWPOLYLINE
  5
3F6
100
AcDbEntity
  8
BEZUGSACHSEN
100
AcDbPolyline
 62
7
  6
CONTINUOUS
 90
5
 70
0
 10
595.2697054714
 20
128.5997297586
 10
595.1995901399
 20
128.5265708766
 10
595.0235454005
 20
128.3142832368
 10
594.8763389143
 20
128.0920414022
 10
594.7570064684
 20
127.8610806256
  0
LINE
  5
3F7
100
AcDbEntity
  8
BEZUGSACHSEN
100
AcDbLine
 62
7
  6
CONTINUOUS
 10
600.2470470421
 20
135.1156337297
 11
600.1210173357
 21
134.9846303034
  0
LINE
  5
3F8
100
AcDbEntity
  8
BEZUGSACHSEN
100
AcDbLine
 62
7
  6
CONTINUOUS
 10
595.269702068
 20
128.5997331388
 11
596.9969497733
 21
130.3324946216
  0
LINE
  5
3F9
100
AcDbEntity
  8
BEZUGSACHSEN
100
AcDbLine
 62
7
  6
CONTINUOUS
 10
600.1899450252
 20
135.0560162398
 11
600.1898299442
 21
135.0559031145
  0
LINE
  5
3FA
100
AcDbEntity
  8
KONSTRUKTIONSELEMENTE
100
AcDbLine
 62
7
  6
CONTINUOUS
 10
554.4078799716
 20
120.4068968577
 11
543.8012782538
 21
111.2213103222
  0
LINE
  5
3FB
100
AcDbEntity
  8
KONSTRUKTIONSELEMENTE
100
AcDbLine
 62
7
  6
CONTINUOUS
 10
523.2951815994
 20
93.4625096871
 11
512.6885798816
 21
84.2769231516
  0
LINE
  5
3FC
100
AcDbEntity
  8
KONSTRUKTIONSELEMENTE
100
AcDbLine
 62
7
  6
CONTINUOUS
 10
434.4945233638
 20
16.4858642644
 11
445.8082318628
 21
26.2838232355
  0
LINE
  5
3FD
100
AcDbEntity
  8
KONSTRUKTIONSELEMENTE
100
AcDbLine
 62
7
  6
CONTINUOUS
 10
434.8480767544
 20
16.1796780465
 11
446.1617852534
 21
25.9776370177
  0
LINE
  5
3FE
100
AcDbEntity
  8
KONSTRUKTIONSELEMENTE
100
AcDbLine
 62
7
  6
CONTINUOUS
 10
566.1475174407
 20
126.9400974904
 11
560.1371098006
 21
121.734931787
  0
LINE
  5
3FF
100
AcDbEntity
  8
KONSTRUKTIONSELEMENTE
100
AcDbLine
 62
7
  6
CONTINUOUS
 10
508.8718681646
 20
77.337930199
 11
502.8614605245
 21
72.1327644956
  0
LINE
  5
400
100
AcDbEntity
  8
KONSTRUKTIONSELEMENTE
100
AcDbLine
 62
7
  6
CONTINUOUS
 10
539.9714532592
 20
103.9402420242
 11
529.3648515414
 21
94.7546554888
  0
LINE
  5
401
100
AcDbEntity
  8
KONSTRUKTIONSELEMENTE
100
AcDbLine
 62
7
  6
CONTINUOUS
 10
434.8480767544
 20
11.6296780465
 11
446.1617852534
 21
21.4276370177
  0
LINE
  5
402
100
AcDbEntity
  8
KONSTRUKTIONSELEMENTE
100
AcDbLine
 62
7
  6
CONTINUOUS
 10
435.5551835356
 20
11.8544229179
 11
445.8082318628
 21
20.7338232355
  0
LINE
  5
403
100
AcDbEntity
  8
KONSTRUKTIONSELEMENTE
100
AcDbLine
 62
7
  6
CONTINUOUS
 10
514.5714506882
 20
80.1575371022
 11
523.2951815994
 21
87.7125096871
  0
LINE
  5
404
100
AcDbEntity
  8
KONSTRUKTIONSELEMENTE
100
AcDbLine
 62
7
  6
CONTINUOUS
 10
545.2944769363
 20
106.7644583141
 11
554.4078799716
 21
114.6568968577
  0
LINE
  5
405
100
AcDbEntity
  8
KONSTRUKTIONSELEMENTE
100
AcDbLine
 62
7
  6
CONTINUOUS
 10
542.9173947774
 20
100.5385617671
 11
532.3107930596
 21
91.3529752317
  0
LINE
  5
406
100
AcDbEntity
  8
KONSTRUKTIONSELEMENTE
100
AcDbLine
 62
7
  6
CONTINUOUS
 10
569.4207857942
 20
123.1604527603
 11
563.4103781541
 21
117.9552870569
  0
LINE
  5
407
100
AcDbEntity
  8
KONSTRUKTIONSELEMENTE
100
AcDbLine
 62
7
  6
CONTINUOUS
 10
512.1451365181
 20
73.5582854689
 11
506.134728878
 21
68.3531197655
  0
LINE
  5
408
100
AcDbEntity
  8
RUNDUNGEN
100
AcDbLine
 62
7
  6
CONTINUOUS
 10
617.7620498016
 20
85.0281927367
 11
617.4982452854
 21
84.6610226091
  0
LINE
  5
409
100
AcDbEntity
  8
KONSTRUKTIONSELEMENTE
100
AcDbLine
 62
7
  6
CONTINUOUS
 10
458.5369458881
 20
25.1192244393
 11
485.1324857434
 21
39.3823086503
  0
LWPOLYLINE
  5
40A
100
AcDbEntity
  8
BEZUGSACHSEN
100
AcDbPolyline
 62
7
  6
CONTINUOUS
 90
7
 70
0
 10
616.6992053511
 20
83.8589938776
 10
616.7369840093
 20
83.8864700509
 10
616.9198247734
 20
84.0316813881
 10
617.0976924168
 20
84.1942463411
 10
617.2686224675
 20
84.3738888413
 10
617.4308138951
 20
84.5702106532
 10
617.498332464
 20
84.6611147006
  0
LWPOLYLINE
  5
40B
100
AcDbEntity
  8
RUNDUNGEN
100
AcDbPolyline
 62
7
  6
CONTINUOUS
 90
7
 70
0
 10
616.6992053511
 20
83.8589938776
 10
616.7369840093
 20
83.8864700509
 10
616.9198247734
 20
84.0316813881
 10
617.0976924168
 20
84.1942463411
 10
617.2686224675
 20
84.3738888413
 10
617.4308138951
 20
84.5702106532
 10
617.498332464
 20
84.6611147006
  0
LINE
  5
40C
100
AcDbEntity
  8
RUNDUNGEN
100
AcDbLine
 62
7
  6
CONTINUOUS
 10
616.701905508
 20
83.8609924629
 11
615.9083695359
 21
83.2915906845
  0
LINE
  5
40D
100
AcDbEntity
  8
KONSTRUKTIONSELEMENTE
100
AcDbLine
 62
7
  6
CONTINUOUS
 10
451.0315650904
 20
14.4738505004
 11
451.426200922
 21
14.6854921565
  0
LINE
  5
40E
100
AcDbEntity
  8
KONSTRUKTIONSELEMENTE
100
AcDbLine
 62
7
  6
CONTINUOUS
 10
485.0711609799
 20
32.7291529053
 11
485.712017362
 21
33.0728416814
  0
ARC
  5
40F
100
AcDbEntity
  8
KONSTRUKTIONSELEMENTE
100
AcDbCircle
 62
7
  6
CONTINUOUS
 10
80.3186918297
 20
60.9151932968
 40
36.0
100
AcDbArc
 50
68.9490180653
 51
83.3240322405
  0
ARC
  5
410
100
AcDbEntity
  8
KONSTRUKTIONSELEMENTE
100
AcDbCircle
 62
7
  6
CONTINUOUS
 10
80.3186918297
 20
60.9151932968
 40
36.0
100
AcDbArc
 50
36.6759677595
 51
51.0509819347
  0
ARC
  5
411
100
AcDbEntity
  8
KONSTRUKTIONSELEMENTE
100
AcDbCircle
 62
7
  6
CONTINUOUS
 10
112.262264349
 20
116.5951094554
 40
9.4443260734
100
AcDbArc
 50
74.2723032266
 51
80.4100277385
  0
ARC
  5
412
100
AcDbEntity
  8
KONSTRUKTIONSELEMENTE
100
AcDbCircle
 62
7
  6
CONTINUOUS
 10
98.5945542702
 20
90.5359221904
 40
7.5304602268
100
AcDbArc
 50
23.6440041601
 51
25.6848988335
  0
ARC
  5
413
100
AcDbEntity
  8
KONSTRUKTIONSELEMENTE
100
AcDbCircle
 62
7
  6
CONTINUOUS
 10
96.8283046513
 20
91.6074434896
 40
7.4757411255
100
AcDbArc
 50
94.2340700793
 51
97.5664239914
  0
ARC
  5
414
100
AcDbEntity
  8
KONSTRUKTIONSELEMENTE
100
AcDbCircle
 62
7
  6
CONTINUOUS
 10
98.7418561144
 20
90.6008229808
 40
7.3694950109
100
AcDbArc
 50
22.3884586971
 51
23.6410739396
  0
ARC
  5
415
100
AcDbEntity
  8
KONSTRUKTIONSELEMENTE
100
AcDbCircle
 62
7
  6
CONTINUOUS
 10
110.5477388905
 20
113.2734386706
 40
5.6
100
AcDbArc
 50
330.0
 51
150.0
  0
ARC
  5
416
100
AcDbEntity
  8
KONSTRUKTIONSELEMENTE
100
AcDbCircle
 62
7
  6
CONTINUOUS
 10
48.4201049405
 20
26.734370772
 40
5.4898501433
100
AcDbArc
 50
50.2049516589
 51
53.5150100898
  0
ARC
  5
417
100
AcDbEntity
  8
KONSTRUKTIONSELEMENTE
100
AcDbCircle
 62
7
  6
CONTINUOUS
 10
67.0058347297
 20
17.2233898135
 40
4.674960277
100
AcDbArc
 50
81.3149175254
 51
82.0930351415
  0
ARC
  5
418
100
AcDbEntity
  8
KONSTRUKTIONSELEMENTE
100
AcDbCircle
 62
7
  6
CONTINUOUS
 10
93.6172059457
 20
83.948895411
 40
2.5
100
AcDbArc
 50
330.0
 51
150.0
  0
ARC
  5
419
100
AcDbEntity
  8
KONSTRUKTIONSELEMENTE
100
AcDbCircle
 62
7
  6
CONTINUOUS
 10
84.8620021257
 20
68.784437564
 40
2.5
100
AcDbArc
 50
150.0
 51
330.0
  0
ARC
  5
41A
100
AcDbEntity
  8
KONSTRUKTIONSELEMENTE
100
AcDbCircle
 62
7
  6
CONTINUOUS
 10
98.0318659253
 20
91.5953107937
 40
2.25
100
AcDbArc
 50
150.0
 51
330.0
  0
ARC
  5
41B
100
AcDbEntity
  8
KONSTRUKTIONSELEMENTE
100
AcDbCircle
 62
7
  6
CONTINUOUS
 10
109.0851667842
 20
110.7401894727
 40
2.25
100
AcDbArc
 50
330.0
 51
150.0
  0
ARC
  5
41C
100
AcDbEntity
  8
KONSTRUKTIONSELEMENTE
100
AcDbCircle
 62
7
  6
CONTINUOUS
 10
53.1216384297
 20
26.9951344981
 40
2.0435689331
100
AcDbArc
 50
337.9702150979
 51
339.9065806721
  0
ARC
  5
41D
100
AcDbEntity
  8
KONSTRUKTIONSELEMENTE
100
AcDbCircle
 62
7
  6
CONTINUOUS
 10
53.151013691
 20
26.9828718566
 40
2.0117388432
100
AcDbArc
 50
330.0208671421
 51
337.9801551546
  0
ARC
  5
41E
100
AcDbEntity
  8
BEZUGSACHSEN
100
AcDbCircle
 62
7
  6
CONTINUOUS
 10
82.4548841767
 20
100.163463001
 40
2.0
100
AcDbArc
 50
190.0000250634
 51
240.0000161105
  0
ARC
  5
41F
100
AcDbEntity
  8
RUNDUNGEN
100
AcDbCircle
 62
7
  6
CONTINUOUS
 10
81.0431248378
 20
108.1699480735
 40
2.0
100
AcDbArc
 50
150.0
 51
190.0
  0
ARC
  5
420
100
AcDbEntity
  8
RUNDUNGEN
100
AcDbCircle
 62
7
  6
CONTINUOUS
 10
84.4310655446
 20
124.0380335108
 40
3.0
100
AcDbArc
 50
330.0
 51
344.0
  0
ARC
  5
421
100
AcDbEntity
  8
KONSTRUKTIONSELEMENTE
100
AcDbCircle
 62
7
  6
CONTINUOUS
 10
112.6401876233
 20
116.4867903917
 40
9.3448730039
100
AcDbArc
 50
39.523423598
 51
45.7644531001
  0
ARC
  5
422
100
AcDbEntity
  8
RUNDUNGEN
100
AcDbCircle
 62
7
  6
CONTINUOUS
 10
132.9284881565
 20
96.0380335108
 40
3.0
100
AcDbArc
 50
136.0
 51
150.0
  0
ARC
  5
423
100
AcDbEntity
  8
KONSTRUKTIONSELEMENTE
100
AcDbCircle
 62
7
  6
CONTINUOUS
 10
113.4998267637
 20
118.3866048554
 40
2.5
100
AcDbArc
 50
169.3908042464
 51
310.6091957536
  0
CIRCLE
  5
424
100
AcDbEntity
  8
BEZUGSACHSEN
100
AcDbCircle
 62
7
  6
CONTINUOUS
 10
119.1763885375
 20
92.8186982599
 40
2.5
  0
ARC
  5
425
100
AcDbEntity
  8
BEZUGSACHSEN
100
AcDbCircle
 62
7
  6
CONTINUOUS
 10
113.240596972
 20
82.3893259706
 40
2.0
100
AcDbArc
 50
239.9999310313
 51
289.9998927033
  0
ARC
  5
426
100
AcDbEntity
  8
RUNDUNGEN
100
AcDbCircle
 62
7
  6
CONTINUOUS
 10
120.8802934119
 20
85.1699480735
 40
2.0
100
AcDbArc
 50
290.0
 51
329.9755144818
  0
ARC
  5
427
100
AcDbEntity
  8
BEZUGSACHSEN
100
AcDbCircle
 62
7
  6
CONTINUOUS
 10
123.2227388905
 20
135.2271826566
 40
13.25
100
AcDbArc
 50
102.844678999
 51
17.1553210011
  0
ARC
  5
428
100
AcDbEntity
  8
0
100
AcDbCircle
 62
7
  6
CONTINUOUS
 10
176.7977388905
 20
228.0218046721
 40
9.0
100
AcDbArc
 50
330.0
 51
150.0
  0
ARC
  5
429
100
AcDbEntity
  8
0
100
AcDbCircle
 62
7
  6
CONTINUOUS
 10
125.2977388905
 20
138.8211880823
 40
9.0
100
AcDbArc
 50
150.0
 51
330.0
  0
ARC
  5
42A
100
AcDbEntity
  8
KONSTRUKTIONSELEMENTE
100
AcDbCircle
 62
7
  6
CONTINUOUS
 10
359.2767859514
 20
60.9151932968
 40
36.0
100
AcDbArc
 50
96.6759677595
 51
111.0509819347
  0
ARC
  5
42B
100
AcDbEntity
  8
KONSTRUKTIONSELEMENTE
100
AcDbCircle
 62
7
  6
CONTINUOUS
 10
359.2767859514
 20
60.9151932968
 40
36.0
100
AcDbArc
 50
128.9490180653
 51
143.3240322405
  0
ARC
  5
42C
100
AcDbEntity
  8
BEZUGSACHSEN
100
AcDbCircle
 62
7
  6
CONTINUOUS
 10
316.3727388905
 20
135.2271826566
 40
13.25
100
AcDbArc
 50
162.844678999
 51
77.1553210011
  0
ARC
  5
42D
100
AcDbEntity
  8
0
100
AcDbCircle
 62
7
  6
CONTINUOUS
 10
262.7977388905
 20
228.0218046721
 40
9.0
100
AcDbArc
 50
30.0
 51
210.0
  0
ARC
  5
42E
100
AcDbEntity
  8
0
100
AcDbCircle
 62
7
  6
CONTINUOUS
 10
314.2977388905
 20
138.8211880823
 40
9.0
100
AcDbArc
 50
210.0
 51
30.0
  0
ARC
  5
42F
100
AcDbEntity
  8
BEZUGSACHSEN
100
AcDbCircle
 62
7
  6
CONTINUOUS
 10
329.0477388905
 20
113.2734386706
 40
5.6
100
AcDbArc
 50
30.0
 51
210.0
  0
ARC
  5
430
100
AcDbEntity
  8
BEZUGSACHSEN
100
AcDbCircle
 62
7
  6
CONTINUOUS
 10
306.6669896245
 20
96.0380335108
 40
3.0
100
AcDbArc
 50
30.0
 51
44.0
  0
ARC
  5
431
100
AcDbEntity
  8
BEZUGSACHSEN
100
AcDbCircle
 62
7
  6
CONTINUOUS
 10
355.1644122365
 20
124.0380335108
 40
3.0
100
AcDbArc
 50
196.0
 51
210.0
  0
CIRCLE
  5
432
100
AcDbEntity
  8
BEZUGSACHSEN
100
AcDbCircle
 62
7
  6
CONTINUOUS
 10
320.4190892436
 20
92.8186982599
 40
2.5
  0
ARC
  5
433
100
AcDbEntity
  8
BEZUGSACHSEN
100
AcDbCircle
 62
7
  6
CONTINUOUS
 10
318.7151843692
 20
85.1699480735
 40
2.0
100
AcDbArc
 50
210.0244855182
 51
250.0
  0
ARC
  5
434
100
AcDbEntity
  8
BEZUGSACHSEN
100
AcDbCircle
 62
7
  6
CONTINUOUS
 10
358.5523529433
 20
108.1699480735
 40
2.0
100
AcDbArc
 50
350.0
 51
30.0
  0
ARC
  5
435
100
AcDbEntity
  8
BEZUGSACHSEN
100
AcDbCircle
 62
7
  6
CONTINUOUS
 10
326.3548808091
 20
82.3893259706
 40
2.0
100
AcDbArc
 50
250.0001072967
 51
300.0000689687
  0
ARC
  5
436
100
AcDbEntity
  8
BEZUGSACHSEN
100
AcDbCircle
 62
7
  6
CONTINUOUS
 10
357.1405936044
 20
100.163463001
 40
2.0
100
AcDbArc
 50
299.9999838895
 51
349.9999749366
  0
ARC
  5
437
100
AcDbEntity
  8
0
100
AcDbCircle
 62
7
  6
CONTINUOUS
 10
219.7977388905
 20
302.4999893975
 40
121.0
100
AcDbArc
 50
180.0
 51
235.733697203
  0
ARC
  5
438
100
AcDbEntity
  8
0
100
AcDbCircle
 62
7
  6
CONTINUOUS
 10
219.7977388905
 20
302.4999893975
 40
121.0
100
AcDbArc
 50
244.2661623662
 51
295.7338376338
  0
ARC
  5
439
100
AcDbEntity
  8
0
100
AcDbCircle
 62
7
  6
CONTINUOUS
 10
219.7977388905
 20
302.4999893975
 40
121.0
100
AcDbArc
 50
304.266302797
 51
360.0
  0
ARC
  5
43A
100
AcDbEntity
  8
0
100
AcDbCircle
 62
7
  6
CONTINUOUS
 10
219.7977388905
 20
462.4999893975
 40
121.0
100
AcDbArc
 50
0.0
 51
180.0
  0
ARC
  5
43B
100
AcDbEntity
  8
0
100
AcDbCircle
 62
7
  6
CONTINUOUS
 10
219.7977388905
 20
462.4999893975
 40
95.0
100
AcDbArc
 50
0.0
 51
180.0
  0
ARC
  5
43C
100
AcDbEntity
  8
0
100
AcDbCircle
 62
7
  6
CONTINUOUS
 10
219.7977388905
 20
302.4999893975
 40
95.0
100
AcDbArc
 50
180.0
 51
234.563617608
  0
ARC
  5
43D
100
AcDbEntity
  8
0
100
AcDbCircle
 62
7
  6
CONTINUOUS
 10
219.7977388905
 20
302.4999893975
 40
95.0
100
AcDbArc
 50
245.4369238173
 51
294.5630761827
  0
ARC
  5
43E
100
AcDbEntity
  8
0
100
AcDbCircle
 62
7
  6
CONTINUOUS
 10
219.7977388905
 20
302.4999893975
 40
95.0
100
AcDbArc
 50
305.436382392
 51
360.0
  0
ARC
  5
43F
100
AcDbEntity
  8
KONSTRUKTIONSELEMENTE
100
AcDbCircle
 62
7
  6
CONTINUOUS
 10
258.738500855
 20
7.4161426949
 40
381.5952939695
100
AcDbArc
 50
22.7976510038
 51
23.0109611436
  0
ARC
  5
440
100
AcDbEntity
  8
KONSTRUKTIONSELEMENTE
100
AcDbCircle
 62
7
  6
CONTINUOUS
 10
501.1931339869
 20
123.8947366228
 40
114.1287779057
100
AcDbArc
 50
18.9759220281
 51
19.1796104302
  0
ARC
  5
441
100
AcDbEntity
  8
KONSTRUKTIONSELEMENTE
100
AcDbCircle
 62
7
  6
CONTINUOUS
 10
508.8958159025
 20
109.269388695
 40
111.890521139
100
AcDbArc
 50
26.3539792552
 51
26.5109215749
  0
ARC
  5
442
100
AcDbEntity
  8
KONSTRUKTIONSELEMENTE
100
AcDbCircle
 62
7
  6
CONTINUOUS
 10
440.9942444759
 20
35.1219610821
 40
5.0213396432
100
AcDbArc
 50
337.4729368822
 51
338.039189813
  0
ARC
  5
443
100
AcDbEntity
  8
KONSTRUKTIONSELEMENTE
100
AcDbCircle
 62
7
  6
CONTINUOUS
 10
507.5606683147
 20
78.8696453179
 40
2.1487055737
100
AcDbArc
 50
21.3241761366
 51
27.3321484597
  0
ARC
  5
444
100
AcDbEntity
  8
KONSTRUKTIONSELEMENTE
100
AcDbCircle
 62
7
  6
CONTINUOUS
 10
507.6429713172
 20
78.9031688179
 40
2.0598469893
100
AcDbArc
 50
18.6815072044
 51
21.288032893
  0
ARC
  5
445
100
AcDbEntity
  8
KONSTRUKTIONSELEMENTE
100
AcDbCircle
 62
7
  6
CONTINUOUS
 10
519.7496677456
 20
132.7984505435
 40
93.6638260817
100
AcDbArc
 50
14.8280515728
 51
15.0007181913
  0
ARC
  5
446
100
AcDbEntity
  8
KONSTRUKTIONSELEMENTE
100
AcDbCircle
 62
7
  6
CONTINUOUS
 10
526.1565778427
 20
117.578560393
 40
92.6083370973
100
AcDbArc
 50
24.4940812218
 51
24.7110081496
  0
ARC
  5
447
100
AcDbEntity
  8
KONSTRUKTIONSELEMENTE
100
AcDbCircle
 62
7
  6
CONTINUOUS
 10
527.3625669886
 20
139.0038578943
 40
84.341737793
100
AcDbArc
 50
12.4263706198
 51
12.6605988968
  0
ARC
  5
448
100
AcDbEntity
  8
BEZUGSACHSEN
100
AcDbCircle
 62
7
  6
CONTINUOUS
 10
591.2588536177
 20
130.513560383
 40
12.0852294805
100
AcDbArc
 50
318.7046996513
 51
322.8254710605
  0
ARC
  5
449
100
AcDbEntity
  8
RUNDUNGEN
100
AcDbCircle
 62
7
  6
CONTINUOUS
 10
617.8485548607
 20
130.5135603831
 40
12.0852294807
100
AcDbArc
 50
217.1745289395
 51
221.2953003487
  0
ARC
  5
44A
100
AcDbEntity
  8
KONSTRUKTIONSELEMENTE
100
AcDbCircle
 62
7
  6
CONTINUOUS
 10
556.3123390959
 20
123.3696750782
 40
6.8544496741
100
AcDbArc
 50
180.0468621101
 51
190.0347873196
  0
ARC
  5
44B
100
AcDbEntity
  8
KONSTRUKTIONSELEMENTE
100
AcDbCircle
 62
7
  6
CONTINUOUS
 10
525.3668156249
 20
96.5765164274
 40
6.5947824563
100
AcDbArc
 50
180.0290752758
 51
188.778086953
  0
ARC
  5
44C
100
AcDbEntity
  8
BEZUGSACHSEN
100
AcDbCircle
 62
7
  6
CONTINUOUS
 10
594.9139887892
 20
87.592238848
 40
4.3942523074
100
AcDbArc
 50
214.0513847631
 51
215.6970906591
  0
ARC
  5
44D
100
AcDbEntity
  8
RUNDUNGEN
100
AcDbCircle
 62
7
  6
CONTINUOUS
 10
614.1934196895
 20
87.5922388478
 40
4.394252307
100
AcDbArc
 50
324.3029093408
 51
325.948615237
  0
ARC
  5
44E
100
AcDbEntity
  8
0
100
AcDbCircle
 62
7
  6
CONTINUOUS
 10
605.9350527864
 20
113.162322216
 40
4.3689961288
100
AcDbArc
 50
6.4018497206
 51
13.0211258669
  0
ARC
  5
44F
100
AcDbEntity
  8
0
100
AcDbCircle
 62
7
  6
CONTINUOUS
 10
603.172355692
 20
113.162322216
 40
4.3689961288
100
AcDbArc
 50
166.9788741331
 51
173.5981502794
  0
ARC
  5
450
100
AcDbEntity
  8
KONSTRUKTIONSELEMENTE
100
AcDbCircle
 62
7
  6
CONTINUOUS
 10
526.5260976898
 20
97.5278183459
 40
3.635198805
100
AcDbArc
 50
238.8071952044
 51
240.6860889462
  0
ARC
  5
451
100
AcDbEntity
  8
KONSTRUKTIONSELEMENTE
100
AcDbCircle
 62
7
  6
CONTINUOUS
 10
557.49058257
 20
124.3752293836
 40
3.4480880971
100
AcDbArc
 50
240.3855846735
 51
242.1133696712
  0
ARC
  5
452
100
AcDbEntity
  8
KONSTRUKTIONSELEMENTE
100
AcDbCircle
 62
7
  6
CONTINUOUS
 10
536.9148888153
 20
105.1205546197
 40
3.2537077432
100
AcDbArc
 50
125.8262786327
 51
130.8740696877
  0
ARC
  5
453
100
AcDbEntity
  8
KONSTRUKTIONSELEMENTE
100
AcDbCircle
 62
7
  6
CONTINUOUS
 10
538.4988302048
 20
105.6617289161
 40
2.396665442
100
AcDbArc
 50
23.4830152975
 51
29.1758184915
  0
ARC
  5
454
100
AcDbEntity
  8
KONSTRUKTIONSELEMENTE
100
AcDbCircle
 62
7
  6
CONTINUOUS
 10
564.7652458684
 20
128.7138027826
 40
2.2319350362
100
AcDbArc
 50
329.648099119
 51
331.3181221812
  0
ARC
  5
455
100
AcDbEntity
  8
KONSTRUKTIONSELEMENTE
100
AcDbCircle
 62
7
  6
CONTINUOUS
 10
553.0497369954
 20
141.9179935207
 40
59.1979414827
100
AcDbArc
 50
13.9381532118
 51
14.2329525231
  0
ARC
  5
456
100
AcDbEntity
  8
KONSTRUKTIONSELEMENTE
100
AcDbCircle
 62
7
  6
CONTINUOUS
 10
557.3161596759
 20
147.966927794
 40
53.1173813998
100
AcDbArc
 50
10.2196365388
 51
10.4438870619
  0
ARC
  5
457
100
AcDbEntity
  8
KONSTRUKTIONSELEMENTE
100
AcDbCircle
 62
7
  6
CONTINUOUS
 10
569.6604754
 20
144.3984127633
 40
42.6850765104
100
AcDbArc
 50
16.8961411699
 51
17.2389229938
  0
ARC
  5
458
100
AcDbEntity
  8
KONSTRUKTIONSELEMENTE
100
AcDbCircle
 62
7
  6
CONTINUOUS
 10
583.0271314005
 20
142.0960674844
 40
30.836328843
100
AcDbArc
 50
27.8399748911
 51
28.1276527745
  0
ARC
  5
459
100
AcDbEntity
  8
KONSTRUKTIONSELEMENTE
100
AcDbCircle
 62
7
  6
CONTINUOUS
 10
583.8516223226
 20
152.1770945866
 40
26.7704384851
100
AcDbArc
 50
20.1285185795
 51
20.5379932818
  0
ARC
  5
45A
100
AcDbEntity
  8
KONSTRUKTIONSELEMENTE
100
AcDbCircle
 62
7
  6
CONTINUOUS
 10
588.635826891
 20
144.8244933918
 40
24.9520668583
100
AcDbArc
 50
35.2171712226
 51
35.6184267549
  0
ARC
  5
45B
100
AcDbEntity
  8
KONSTRUKTIONSELEMENTE
100
AcDbCircle
 62
7
  6
CONTINUOUS
 10
592.3535049272
 20
152.9047973804
 40
18.4438034676
100
AcDbArc
 50
9.5397786685
 51
10.2200372259
  0
ARC
  5
45C
100
AcDbEntity
  8
0
100
AcDbCircle
 62
7
  6
CONTINUOUS
 10
593.1676265226
 20
159.0897907501
 40
15.1945995514
100
AcDbArc
 50
357.4014919109
 51
0.6824307488
  0
ARC
  5
45D
100
AcDbEntity
  8
KONSTRUKTIONSELEMENTE
100
AcDbCircle
 62
7
  6
CONTINUOUS
 10
593.6942608243
 20
159.0897907501
 40
15.1945995514
100
AcDbArc
 50
357.4014919109
 51
0.6824307488
  0
ARC
  5
45E
100
AcDbEntity
  8
KONSTRUKTIONSELEMENTE
100
AcDbCircle
 62
7
  6
CONTINUOUS
 10
594.1945825135
 20
158.6106160806
 40
14.8701952103
100
AcDbArc
 50
358.1840895948
 51
0.8377640722
  0
ARC
  5
45F
100
AcDbEntity
  8
KONSTRUKTIONSELEMENTE
100
AcDbCircle
 62
7
  6
CONTINUOUS
 10
595.6339062192
 20
157.1737070253
 40
13.9586134185
100
AcDbArc
 50
358.0654325759
 51
0.8924560318
  0
ARC
  5
460
100
AcDbEntity
  8
KONSTRUKTIONSELEMENTE
100
AcDbCircle
 62
7
  6
CONTINUOUS
 10
596.2092377312
 20
156.5989783971
 40
13.5943795805
100
AcDbArc
 50
358.0134225248
 51
0.610674628
  0
ARC
  5
461
100
AcDbEntity
  8
KONSTRUKTIONSELEMENTE
100
AcDbCircle
 62
7
  6
CONTINUOUS
 10
639.4469330784
 20
144.3984127633
 40
42.6850765104
100
AcDbArc
 50
162.7610770062
 51
163.1038588301
  0
ARC
  5
462
100
AcDbEntity
  8
KONSTRUKTIONSELEMENTE
100
AcDbCircle
 62
7
  6
CONTINUOUS
 10
625.2557861557
 20
152.1770945866
 40
26.7704384851
100
AcDbArc
 50
159.4620067182
 51
159.8714814205
  0
ARC
  5
463
100
AcDbEntity
  8
KONSTRUKTIONSELEMENTE
100
AcDbCircle
 62
7
  6
CONTINUOUS
 10
616.7539035511
 20
152.9047973804
 40
18.4438034676
100
AcDbArc
 50
169.7799627741
 51
170.4602213315
  0
ARC
  5
464
100
AcDbEntity
  8
KONSTRUKTIONSELEMENTE
100
AcDbCircle
 62
7
  6
CONTINUOUS
 10
599.0164187838
 20
148.4742926542
 40
13.6574697279
100
AcDbArc
 50
32.7361291105
 51
33.3067831491
  0
ARC
  5
465
100
AcDbEntity
  8
KONSTRUKTIONSELEMENTE
100
AcDbCircle
 62
7
  6
CONTINUOUS
 10
597.7239662087
 20
153.9336098288
 40
13.0465594783
100
AcDbArc
 50
14.9224849348
 51
15.5517228052
  0
ARC
  5
466
100
AcDbEntity
  8
KONSTRUKTIONSELEMENTE
100
AcDbCircle
 62
7
  6
CONTINUOUS
 10
598.1143682507
 20
154.5827981557
 40
12.4281737549
100
AcDbArc
 50
2.6112193228
 51
3.196708112
  0
ARC
  5
467
100
AcDbEntity
  8
KONSTRUKTIONSELEMENTE
100
AcDbCircle
 62
7
  6
CONTINUOUS
 10
598.1315799627
 20
154.5907425871
 40
12.4109394847
100
AcDbArc
 50
356.8029393249
 51
357.8079917042
  0
ARC
  5
468
100
AcDbEntity
  8
KONSTRUKTIONSELEMENTE
100
AcDbCircle
 62
7
  6
CONTINUOUS
 10
598.1619012724
 20
154.5849756727
 40
12.3805908836
100
AcDbArc
 50
2.0235518618
 51
2.6111743486
  0
ARC
  5
469
100
AcDbEntity
  8
KONSTRUKTIONSELEMENTE
100
AcDbCircle
 62
7
  6
CONTINUOUS
 10
607.3036449069
 20
154.4294648958
 40
9.017544319
100
AcDbArc
 50
164.7305915077
 51
165.6922374723
  0
ARC
  5
46A
100
AcDbEntity
  8
KONSTRUKTIONSELEMENTE
100
AcDbCircle
 62
7
  6
CONTINUOUS
 10
601.8037635715
 20
154.4294648958
 40
9.017544319
100
AcDbArc
 50
14.3077625277
 51
15.2694084923
  0
ARC
  5
46B
100
AcDbEntity
  8
KONSTRUKTIONSELEMENTE
100
AcDbCircle
 62
7
  6
CONTINUOUS
 10
602.9079581858
 20
160.7256989085
 40
5.9809471407
100
AcDbArc
 50
2.6252706238
 51
3.9305799697
  0
ARC
  5
46C
100
AcDbEntity
  8
0
100
AcDbCircle
 62
7
  6
CONTINUOUS
 10
602.3813238855
 20
160.7256989086
 40
5.9809471392
100
AcDbArc
 50
2.6252706237
 51
3.9305799698
  0
ARC
  5
46D
100
AcDbEntity
  8
0
100
AcDbCircle
 62
7
  6
CONTINUOUS
 10
602.381323893
 20
160.7294695127
 40
5.9809471317
100
AcDbArc
 50
356.0694200297
 51
357.3747299996
  0
ARC
  5
46E
100
AcDbEntity
  8
KONSTRUKTIONSELEMENTE
100
AcDbCircle
 62
7
  6
CONTINUOUS
 10
602.9079581962
 20
160.7294695126
 40
5.9809471302
100
AcDbArc
 50
356.0694200295
 51
357.3747299997
  0
ARC
  5
46F
100
AcDbEntity
  8
BEZUGSACHSEN
100
AcDbCircle
 62
7
  6
CONTINUOUS
 10
603.3037042392
 20
153.5395082855
 40
5.0
100
AcDbArc
 50
161.6999918899
 51
180.0
  0
ARC
  5
470
100
AcDbEntity
  8
BEZUGSACHSEN
100
AcDbCircle
 62
7
  6
CONTINUOUS
 10
605.8037042392
 20
153.5395082855
 40
5.0
100
AcDbArc
 50
0.0
 51
18.3000081101
  0
ARC
  5
471
100
AcDbEntity
  8
KONSTRUKTIONSELEMENTE
100
AcDbCircle
 62
7
  6
CONTINUOUS
 10
605.3762414239
 20
156.5304087393
 40
4.9551201867
100
AcDbArc
 50
359.4756803774
 51
0.2621527332
  0
ARC
  5
472
100
AcDbEntity
  8
KONSTRUKTIONSELEMENTE
100
AcDbCircle
 62
7
  6
CONTINUOUS
 10
604.6063966364
 20
158.9357064848
 40
4.9440084502
100
AcDbArc
 50
23.7330676572
 51
24.6671534528
  0
ARC
  5
473
100
AcDbEntity
  8
KONSTRUKTIONSELEMENTE
100
AcDbCircle
 62
7
  6
CONTINUOUS
 10
603.3773576191
 20
155.9161876912
 40
4.8124076809
100
AcDbArc
 50
179.4601345256
 51
180.5398662468
  0
ARC
  5
474
100
AcDbEntity
  8
KONSTRUKTIONSELEMENTE
100
AcDbCircle
 62
7
  6
CONTINUOUS
 10
605.7301871498
 20
155.9161879217
 40
4.8122713985
100
AcDbArc
 50
359.4601157193
 51
0.2699344476
  0
ARC
  5
475
100
AcDbEntity
  8
KONSTRUKTIONSELEMENTE
100
AcDbCircle
 62
7
  6
CONTINUOUS
 10
607.5207834841
 20
162.8327537831
 40
4.2914767682
100
AcDbArc
 50
291.0640382612
 51
291.5394944149
  0
ARC
  5
476
100
AcDbEntity
  8
0
100
AcDbCircle
 62
7
  6
CONTINUOUS
 10
604.5891807916
 20
160.728722863
 40
4.0439315378
100
AcDbArc
 50
338.8672514136
 51
340.1593208944
  0
ARC
  5
477
100
AcDbEntity
  8
KONSTRUKTIONSELEMENTE
100
AcDbCircle
 62
7
  6
CONTINUOUS
 10
605.1158150946
 20
160.7287228625
 40
4.0439315364
100
AcDbArc
 50
338.8672514134
 51
340.1593208946
  0
ARC
  5
478
100
AcDbEntity
  8
KONSTRUKTIONSELEMENTE
100
AcDbCircle
 62
7
  6
CONTINUOUS
 10
609.4024144254
 20
153.620738485
 40
3.0111328886
100
AcDbArc
 50
72.0350396529
 51
72.7703194808
  0
ARC
  5
479
100
AcDbEntity
  8
KONSTRUKTIONSELEMENTE
100
AcDbCircle
 62
7
  6
CONTINUOUS
 10
602.6329685743
 20
160.4000765025
 40
2.7110036585
100
AcDbArc
 50
152.9168221485
 51
154.4594483626
  0
ARC
  5
47A
100
AcDbEntity
  8
KONSTRUKTIONSELEMENTE
100
AcDbCircle
 62
7
  6
CONTINUOUS
 10
606.474439904
 20
160.4000765025
 40
2.7110036585
100
AcDbArc
 50
25.5405516374
 51
27.0831778515
  0
ARC
  5
47B
100
AcDbEntity
  8
KONSTRUKTIONSELEMENTE
100
AcDbCircle
 62
7
  6
CONTINUOUS
 10
599.1639592333
 20
157.8483725851
 40
2.0661985999
100
AcDbArc
 50
253.1536895064
 51
254.239257302
  0
ARC
  5
47C
100
AcDbEntity
  8
KONSTRUKTIONSELEMENTE
100
AcDbCircle
 62
7
  6
CONTINUOUS
 10
609.943449245
 20
157.8483725851
 40
2.0661985999
100
AcDbArc
 50
285.760742698
 51
286.8463104936
  0
ARC
  5
47D
100
AcDbEntity
  8
KONSTRUKTIONSELEMENTE
100
AcDbCircle
 62
7
  6
CONTINUOUS
 10
608.3535547832
 20
160.9669356037
 40
0.746389626
100
AcDbArc
 50
351.2533938923
 51
2.4674860406
  0
ARC
  5
47E
100
AcDbEntity
  8
KONSTRUKTIONSELEMENTE
100
AcDbCircle
 62
7
  6
CONTINUOUS
 10
609.8926651352
 20
156.6299559064
 40
0.6500560059
100
AcDbArc
 50
345.1902813397
 51
353.8986003333
  0
ARC
  5
47F
100
AcDbEntity
  8
KONSTRUKTIONSELEMENTE
100
AcDbCircle
 62
7
  6
CONTINUOUS
 10
609.6895322451
 20
157.261204361
 40
0.6418002995
100
AcDbArc
 50
349.8064219645
 51
2.8625214757
  0
ARC
  5
480
100
AcDbEntity
  8
KONSTRUKTIONSELEMENTE
100
AcDbCircle
 62
7
  6
CONTINUOUS
 10
609.925912076
 20
156.6256478548
 40
0.6165399577
100
AcDbArc
 50
353.9682880516
 51
3.005417366
  0
ARC
  5
481
100
AcDbEntity
  8
0
100
AcDbCircle
 62
7
  6
CONTINUOUS
 10
604.5537042392
 20
194.4999893975
 40
13.0
100
AcDbArc
 50
180.0
 51
360.0
  0
ARC
  5
482
100
AcDbEntity
  8
KONSTRUKTIONSELEMENTE
100
AcDbCircle
 62
7
  6
CONTINUOUS
 10
759.3294851385
 20
105.58778441
 40
168.6909959346
100
AcDbArc
 50
162.0756425951
 51
162.2383077778
  0
ARC
  5
483
100
AcDbEntity
  8
KONSTRUKTIONSELEMENTE
100
AcDbCircle
 62
7
  6
CONTINUOUS
 10
707.8597390854
 20
123.9136326884
 40
114.0710616429
100
AcDbArc
 50
160.8203547421
 51
161.0282421353
  0
ARC
  5
484
100
AcDbEntity
  8
KONSTRUKTIONSELEMENTE
100
AcDbCircle
 62
7
  6
CONTINUOUS
 10
655.9569067212
 20
141.9431754594
 40
59.0940779246
100
AcDbArc
 50
165.7965924339
 51
166.0620104892
  0
ARC
  5
485
100
AcDbEntity
  8
0
100
AcDbCircle
 62
7
  6
CONTINUOUS
 10
604.5537042392
 20
570.4999893975
 40
13.0
100
AcDbArc
 50
0.0
 51
180.0
  0
SPLINE
  5
486
100
AcDbEntity
  8
KONSTRUKTIONSELEMENTE
100
AcDbSpline
 62
7
  6
CONTINUOUS
 70
0
 71
3
 72
10
 73
6
 74
0
 42
0.0000001
 43
0.0000001
 44
0.0000000001
 40
0.0
 40
0.0
 40
0.0
 40
0.0
 40
0.3116645009
 40
0.6060899939
 40
1.0
 40
1.0
 40
1.0
 40
1.0
 10
101.4630811044
 20
90.5383498156
 30
0.0
 10
101.5616585276
 20
90.7090909211
 30
0.0
 10
101.584917131
 20
91.124433117
 30
0.0
 10
101.4058035708
 20
91.7288378696
 30
0.0
 10
101.1918034383
 20
92.1149813918
 30
0.0
 10
101.0509505232
 20
92.320534933
 30
0.0
  0
SPLINE
  5
487
100
AcDbEntity
  8
KONSTRUKTIONSELEMENTE
100
AcDbSpline
 62
7
  6
CONTINUOUS
 70
0
 71
3
 72
10
 73
6
 74
0
 42
0.0000001
 43
0.0000001
 44
0.0000000001
 40
0.0
 40
0.0
 40
0.0
 40
0.0
 40
0.3939255147
 40
0.6883533687
 40
1.0
 40
1.0
 40
1.0
 40
1.0
 10
97.1506522619
 20
94.5725024275
 30
0.0
 10
96.9021679541
 20
94.5917307933
 30
0.0
 10
96.4606870118
 20
94.583988414
 30
0.0
 10
95.8475921651
 20
94.4369600249
 30
0.0
 10
95.4994889298
 20
94.2091051736
 30
0.0
 10
95.4009032779
 20
94.0383498156
 30
0.0
  0
SPLINE
  5
488
100
AcDbEntity
  8
KONSTRUKTIONSELEMENTE
100
AcDbSpline
 62
7
  6
CONTINUOUS
 70
0
 71
3
 72
13
 73
9
 74
0
 42
0.0000001
 43
0.0000001
 44
0.0000000001
 40
0.0
 40
0.0
 40
0.0
 40
0.0
 40
0.1197290731
 40
0.2397365246
 40
0.3609040964
 40
0.4836831257
 40
0.7359942557
 40
1.0
 40
1.0
 40
1.0
 40
1.0
 10
86.200488102
 20
87.1027632802
 30
0.0
 10
86.0258812509
 20
86.8003353428
 30
0.0
 10
85.7376543011
 20
86.156904378
 30
0.0
 10
85.5081883625
 20
85.1228870443
 30
0.0
 10
85.4800383406
 20
84.0553626927
 30
0.0
 10
85.7032935081
 20
82.6184509289
 30
0.0
 10
86.4475221455
 20
80.87571021
 30
0.0
 10
87.4065054424
 20
79.6909443037
 30
0.0
 10
87.9577705898
 20
79.1533145041
 30
0.0
  0
SPLINE
  5
489
100
AcDbEntity
  8
KONSTRUKTIONSELEMENTE
100
AcDbSpline
 62
7
  6
CONTINUOUS
 70
0
 71
3
 72
13
 73
9
 74
0
 42
0.0000001
 43
0.0000001
 44
0.0000000001
 40
0.0
 40
0.0
 40
0.0
 40
0.0
 40
0.2640112835
 40
0.5163080567
 40
0.6390830379
 40
0.7602378991
 40
0.8802701562
 40
1.0
 40
1.0
 40
1.0
 40
1.0
 10
92.2947347522
 20
76.6496525074
 30
0.0
 10
93.0359280938
 20
76.4411573885
 30
0.0
 10
94.541285349
 20
76.2031597553
 30
0.0
 10
96.4223975193
 20
76.4301614748
 30
0.0
 10
97.7781656117
 20
76.9552401393
 30
0.0
 10
98.6885497286
 20
77.5132898524
 30
0.0
 10
99.4691582607
 20
78.2290700528
 30
0.0
 10
99.8823051638
 20
78.8003655711
 30
0.0
 10
100.0568945625
 20
79.1027632802
 30
0.0
  0
SPLINE
  5
48A
100
AcDbEntity
  8
KONSTRUKTIONSELEMENTE
100
AcDbSpline
 62
7
  6
CONTINUOUS
 70
0
 71
3
 72
10
 73
6
 74
0
 42
0.0000001
 43
0.0000001
 44
0.0000000001
 40
0.0
 40
0.0
 40
0.0
 40
0.0
 40
0.3192646009
 40
0.6086079864
 40
1.0
 40
1.0
 40
1.0
 40
1.0
 10
90.097602419
 20
84.8527632802
 30
0.0
 10
90.0117325314
 20
84.704032272
 30
0.0
 10
89.9742962028
 20
84.3551590758
 30
0.0
 10
90.0944173347
 20
83.8316029499
 30
0.0
 10
90.2505523458
 20
83.4954610566
 30
0.0
 10
90.3561761214
 20
83.3133342003
 30
0.0
  0
SPLINE
  5
48B
100
AcDbEntity
  8
KONSTRUKTIONSELEMENTE
100
AcDbSpline
 62
7
  6
CONTINUOUS
 70
0
 71
3
 72
10
 73
6
 74
0
 42
0.0000001
 43
0.0000001
 44
0.0000000001
 40
0.0
 40
0.0
 40
0.0
 40
0.0
 40
0.3914026107
 40
0.6807340322
 40
1.0
 40
1.0
 40
1.0
 40
1.0
 10
94.6974142119
 20
80.8069798086
 30
0.0
 10
94.9079451464
 20
80.8065755968
 30
0.0
 10
95.2770878625
 20
80.8394703748
 30
0.0
 10
95.7905470662
 20
80.997166394
 30
0.0
 10
96.0739153527
 20
81.2040409232
 30
0.0
 10
96.1597802455
 20
81.3527632802
 30
0.0
  0
SPLINE
  5
48C
100
AcDbEntity
  8
KONSTRUKTIONSELEMENTE
100
AcDbSpline
 62
7
  6
CONTINUOUS
 70
0
 71
3
 72
10
 73
6
 74
0
 42
0.0000001
 43
0.0000001
 44
0.0000000001
 40
0.0
 40
0.0
 40
0.0
 40
0.0
 40
0.3116645009
 40
0.6060899939
 40
1.0
 40
1.0
 40
1.0
 40
1.0
 10
105.6539516051
 20
111.7971504508
 30
0.0
 10
105.5553741819
 20
111.6264093453
 30
0.0
 10
105.5321155784
 20
111.2110671493
 30
0.0
 10
105.7112291387
 20
110.6066623968
 30
0.0
 10
105.9252292712
 20
110.2205188746
 30
0.0
 10
106.0660821863
 20
110.0149653334
 30
0.0
  0
SPLINE
  5
48D
100
AcDbEntity
  8
KONSTRUKTIONSELEMENTE
100
AcDbSpline
 62
7
  6
CONTINUOUS
 70
0
 71
3
 72
10
 73
6
 74
0
 42
0.0000001
 43
0.0000001
 44
0.0000000001
 40
0.0
 40
0.0
 40
0.0
 40
0.0
 40
0.3939255147
 40
0.6883533687
 40
1.0
 40
1.0
 40
1.0
 40
1.0
 10
109.9663804476
 20
107.7629978389
 30
0.0
 10
110.2148647554
 20
107.7437694731
 30
0.0
 10
110.6563456977
 20
107.7515118524
 30
0.0
 10
111.2694405444
 20
107.8985402414
 30
0.0
 10
111.6175437797
 20
108.1263950927
 30
0.0
 10
111.7161294316
 20
108.2971504508
 30
0.0
  0
SPLINE
  5
48E
100
AcDbEntity
  8
KONSTRUKTIONSELEMENTE
100
AcDbSpline
 62
7
  6
CONTINUOUS
 70
0
 71
3
 72
9
 73
5
 74
0
 42
0.0000001
 43
0.0000001
 44
0.0000000001
 40
0.0
 40
0.0
 40
0.0
 40
0.0
 40
0.4741296724
 40
1.0
 40
1.0
 40
1.0
 40
1.0
 10
111.3598087523
 20
141.1126300326
 30
0.0
 10
112.060612444
 20
139.4339336959
 30
0.0
 10
114.1694352562
 20
136.1496829667
 30
0.0
 10
117.0435464029
 20
133.5455549992
 30
0.0
 10
118.6850647297
 20
132.3724344625
 30
0.0
  0
SPLINE
  5
48F
100
AcDbEntity
  8
KONSTRUKTIONSELEMENTE
100
AcDbSpline
 62
7
  6
CONTINUOUS
 70
0
 71
3
 72
9
 73
5
 74
0
 42
0.0000001
 43
0.0000001
 44
0.0000000001
 40
0.0
 40
0.0
 40
0.0
 40
0.0
 40
0.5258549163
 40
1.0
 40
1.0
 40
1.0
 40
1.0
 10
123.0189770274
 20
129.8702031032
 30
0.0
 10
124.8552328073
 20
129.0353505505
 30
0.0
 10
128.5466672364
 20
127.8484782597
 30
0.0
 10
132.4444272199
 20
127.6638659204
 30
0.0
 10
134.248336194
 20
127.8959410612
 30
0.0
  0
SPLINE
  5
490
100
AcDbEntity
  8
KONSTRUKTIONSELEMENTE
100
AcDbSpline
 62
7
  6
CONTINUOUS
 70
0
 71
3
 72
9
 73
5
 74
0
 42
0.0000001
 43
0.0000001
 44
0.0000000001
 40
0.0
 40
0.0
 40
0.0
 40
0.0
 40
0.2468599944
 40
1.0
 40
1.0
 40
1.0
 40
1.0
 10
110.46243249
 20
131.6710107232
 30
0.0
 10
110.8458798208
 20
131.2518771549
 30
0.0
 10
112.4497648088
 20
129.6007935053
 30
0.0
 10
114.2456026976
 20
128.1378653661
 30
0.0
 10
115.6739197019
 20
127.1562326488
 30
0.0
  0
SPLINE
  5
491
100
AcDbEntity
  8
KONSTRUKTIONSELEMENTE
100
AcDbSpline
 62
7
  6
CONTINUOUS
 70
0
 71
3
 72
9
 73
5
 74
0
 42
0.0000001
 43
0.0000001
 44
0.0000000001
 40
0.0
 40
0.0
 40
0.0
 40
0.0
 40
0.253011464
 40
1.0
 40
1.0
 40
1.0
 40
1.0
 10
120.0068872835
 20
124.6545229832
 30
0.0
 10
120.533748265
 20
124.4031984198
 30
0.0
 10
122.6429358957
 20
123.467500377
 30
0.0
 10
124.8570944825
 20
122.7652501848
 30
0.0
 10
126.5401780516
 20
122.3945975876
 30
0.0
  0
SPLINE
  5
492
100
AcDbEntity
  8
BEZUGSACHSEN
100
AcDbSpline
 62
7
  6
CONTINUOUS
 70
0
 71
3
 72
9
 73
5
 74
0
 42
0.0000001
 43
0.0000001
 44
0.0000000001
 40
0.0
 40
0.0
 40
0.0
 40
0.0
 40
0.4740637035
 40
1.0
 40
1.0
 40
1.0
 40
1.0
 10
89.7678184592
 20
67.4863294044
 30
0.0
 10
89.3351053836
 20
67.2924209224
 30
0.0
 10
88.3398354453
 20
67.0610351134
 30
0.0
 10
87.3294460486
 20
67.1282146056
 30
0.0
 10
86.8120928339
 20
67.2235220979
 30
0.0
  0
SPLINE
  5
493
100
AcDbEntity
  8
BEZUGSACHSEN
100
AcDbSpline
 62
7
  6
CONTINUOUS
 70
0
 71
3
 72
9
 73
5
 74
0
 42
0.0000001
 43
0.0000001
 44
0.0000000001
 40
0.0
 40
0.0
 40
0.0
 40
0.0
 40
0.5259362965
 40
1.0
 40
1.0
 40
1.0
 40
1.0
 10
82.5351643247
 20
69.692807924
 30
0.0
 10
82.1939490079
 20
70.0931952045
 30
0.0
 10
81.6305751627
 20
70.9346283436
 30
0.0
 10
81.3333261822
 20
71.9122502983
 30
0.0
 10
81.2848993158
 20
72.3839450553
 30
0.0
  0
SPLINE
  5
494
100
AcDbEntity
  8
KONSTRUKTIONSELEMENTE
100
AcDbSpline
 62
7
  6
CONTINUOUS
 70
0
 71
3
 72
13
 73
9
 74
0
 42
0.0000001
 43
0.0000001
 44
0.0000000001
 40
0.0
 40
0.0
 40
0.0
 40
0.0
 40
0.1036865026
 40
0.2123166057
 40
0.3277694079
 40
0.450761267
 40
0.7166663069
 40
1.0
 40
1.0
 40
1.0
 40
1.0
 10
55.0408229172
 20
26.2930626448
 30
0.0
 10
55.1006813713
 20
26.4566814723
 30
0.0
 10
55.1801789375
 20
26.8088673612
 30
0.0
 10
55.1717692357
 20
27.3638841796
 30
0.0
 10
55.0408343373
 20
27.9361592623
 30
0.0
 10
54.701693476
 20
28.7171286067
 30
0.0
 10
54.0010316099
 20
29.6256704063
 30
0.0
 10
53.2560110536
 20
30.1890839461
 30
0.0
 10
52.8437088047
 20
30.4271267605
 30
0.0
  0
SPLINE
  5
495
100
AcDbEntity
  8
KONSTRUKTIONSELEMENTE
100
AcDbSpline
 62
7
  6
CONTINUOUS
 70
0
 71
3
 72
9
 73
5
 74
0
 42
0.0000001
 43
0.0000001
 44
0.0000000001
 40
0.0
 40
0.0
 40
0.0
 40
0.0
 40
0.4892987036
 40
1.0
 40
1.0
 40
1.0
 40
1.0
 10
54.7326888354
 20
67.7997054467
 30
0.0
 10
54.7714526871
 20
67.8668037497
 30
0.0
 10
54.8292753015
 20
68.0173089669
 30
0.0
 10
54.8400267868
 20
68.1776405699
 30
0.0
 10
54.8352255612
 20
68.2583782542
 30
0.0
  0
SPLINE
  5
496
100
AcDbEntity
  8
KONSTRUKTIONSELEMENTE
100
AcDbSpline
 62
7
  6
CONTINUOUS
 70
0
 71
3
 72
11
 73
7
 74
0
 42
0.0000001
 43
0.0000001
 44
0.0000000001
 40
0.0
 40
0.0
 40
0.0
 40
0.0
 40
0.2200436456
 40
0.4557793627
 40
0.7157728079
 40
1.0
 40
1.0
 40
1.0
 40
1.0
 10
49.0998930117
 20
72.2612529381
 30
0.0
 10
49.1503703548
 20
72.3486267132
 30
0.0
 10
49.2941990385
 20
72.5091161811
 30
0.0
 10
49.5939357667
 20
72.6575680066
 30
0.0
 10
49.9519369125
 20
72.7123868449
 30
0.0
 10
50.2028490145
 20
72.6870545324
 30
0.0
 10
50.3304568761
 20
72.6605095086
 30
0.0
  0
SPLINE
  5
497
100
AcDbEntity
  8
KONSTRUKTIONSELEMENTE
100
AcDbSpline
 62
7
  6
CONTINUOUS
 70
0
 71
3
 72
11
 73
7
 74
0
 42
0.0000001
 43
0.0000001
 44
0.0000000001
 40
0.0
 40
0.0
 40
0.0
 40
0.0
 40
0.2200599668
 40
0.4557760239
 40
0.7157731965
 40
1.0
 40
1.0
 40
1.0
 40
1.0
 10
48.8342661928
 20
85.0932789131
 30
0.0
 10
49.0025166726
 20
85.3846245016
 30
0.0
 10
49.4817915827
 20
85.9198810268
 30
0.0
 10
50.4810617901
 20
86.414944951
 30
0.0
 10
51.6745696867
 20
86.5977314167
 30
0.0
 10
52.5110988054
 20
86.5133196262
 30
0.0
 10
52.9365307172
 20
86.4248211587
 30
0.0
  0
SPLINE
  5
498
100
AcDbEntity
  8
KONSTRUKTIONSELEMENTE
100
AcDbSpline
 62
7
  6
CONTINUOUS
 70
0
 71
3
 72
9
 73
5
 74
0
 42
0.0000001
 43
0.0000001
 44
0.0000000001
 40
0.0
 40
0.0
 40
0.0
 40
0.0
 40
0.4891681133
 40
1.0
 40
1.0
 40
1.0
 40
1.0
 10
47.0664402634
 20
82.0313141841
 30
0.0
 10
46.9373819828
 20
81.807808825
 30
0.0
 10
46.7447801762
 20
81.3063907859
 30
0.0
 10
46.709095826
 20
80.7722395953
 30
0.0
 10
46.7250951301
 20
80.5031943867
 30
0.0
  0
SPLINE
  5
499
100
AcDbEntity
  8
KONSTRUKTIONSELEMENTE
100
AcDbSpline
 62
7
  6
CONTINUOUS
 70
0
 71
3
 72
9
 73
5
 74
0
 42
0.0000001
 43
0.0000001
 44
0.0000000001
 40
0.0
 40
0.0
 40
0.0
 40
0.0
 40
0.4891683995
 40
1.0
 40
1.0
 40
1.0
 40
1.0
 10
79.9779550052
 20
24.0594486333
 30
0.0
 10
80.1069856677
 20
24.2829921405
 30
0.0
 10
80.4449378152
 20
24.7005426112
 30
0.0
 10
80.889715009
 20
24.9985487866
 30
0.0
 10
81.1307323263
 20
25.1192244393
 30
0.0
  0
SPLINE
  5
49A
100
AcDbEntity
  8
KONSTRUKTIONSELEMENTE
100
AcDbSpline
 62
7
  6
CONTINUOUS
 70
0
 71
3
 72
9
 73
5
 74
0
 42
0.0000001
 43
0.0000001
 44
0.0000000001
 40
0.0
 40
0.0
 40
0.0
 40
0.0
 40
0.4753722117
 40
1.0
 40
1.0
 40
1.0
 40
1.0
 10
81.4386201876
 20
25.2763786218
 30
0.0
 10
81.5043886723
 20
24.8554135088
 30
0.0
 10
81.8064238419
 20
23.9932035004
 30
0.0
 10
82.3305878446
 20
23.2536787899
 30
0.0
 10
82.6437048096
 20
22.9028743978
 30
0.0
  0
SPLINE
  5
49B
100
AcDbEntity
  8
KONSTRUKTIONSELEMENTE
100
AcDbSpline
 62
7
  6
CONTINUOUS
 70
0
 71
3
 72
11
 73
7
 74
0
 42
0.0000001
 43
0.0000001
 44
0.0000000001
 40
0.0
 40
0.0
 40
0.0
 40
0.0
 40
0.2094829334
 40
0.4446557434
 40
0.7120095299
 40
1.0
 40
1.0
 40
1.0
 40
1.0
 10
48.2117985816
 20
18.4044229179
 30
0.0
 10
48.1415180379
 20
18.2826934455
 30
0.0
 10
48.0696284485
 20
17.9756021655
 30
0.0
 10
48.1994729411
 20
17.5014549813
 30
0.0
 10
48.513678877
 20
17.0637265057
 30
0.0
 10
48.8131567966
 20
16.8324837192
 30
0.0
 10
48.9805066014
 20
16.7358642644
 30
0.0
  0
SPLINE
  5
49C
100
AcDbEntity
  8
KONSTRUKTIONSELEMENTE
100
AcDbSpline
 62
7
  6
CONTINUOUS
 70
0
 71
3
 72
10
 73
6
 74
0
 42
0.0000001
 43
0.0000001
 44
0.0000000001
 40
0.0
 40
0.0
 40
0.0
 40
0.0
 40
0.2210513433
 40
0.4578290806
 40
1.0
 40
1.0
 40
1.0
 40
1.0
 10
86.8640199008
 20
17.8532948022
 30
0.0
 10
86.8808451079
 20
17.8824329662
 30
0.0
 10
86.9032375998
 20
17.9507446284
 30
0.0
 10
86.893467207
 20
18.1052824545
 30
0.0
 10
86.829196765
 20
18.2136076866
 30
0.0
 10
86.7742432207
 20
18.2751755569
 30
0.0
  0
SPLINE
  5
49D
100
AcDbEntity
  8
BEZUGSACHSEN
100
AcDbSpline
 62
7
  6
CONTINUOUS
 70
0
 71
3
 72
9
 73
5
 74
0
 42
0.0000001
 43
0.0000001
 44
0.0000000001
 40
0.0
 40
0.0
 40
0.0
 40
0.0
 40
0.2459387646
 40
1.0
 40
1.0
 40
1.0
 40
1.0
 10
95.2726780362
 20
73.2924728064
 30
0.0
 10
95.0344966275
 20
73.5593222384
 30
0.0
 10
94.0364714114
 20
74.6176990688
 30
0.0
 10
92.9264356638
 20
75.5695444828
 30
0.0
 10
92.0435713946
 20
76.2201321171
 30
0.0
  0
SPLINE
  5
49E
100
AcDbEntity
  8
BEZUGSACHSEN
100
AcDbSpline
 62
7
  6
CONTINUOUS
 70
0
 71
3
 72
9
 73
5
 74
0
 42
0.0000001
 43
0.0000001
 44
0.0000000001
 40
0.0
 40
0.0
 40
0.0
 40
0.0
 40
0.2536983179
 40
1.0
 40
1.0
 40
1.0
 40
1.0
 10
87.710717869
 20
78.7217062665
 30
0.0
 10
87.3726472497
 20
78.8694990823
 30
0.0
 10
86.0258792527
 20
79.4187811145
 30
0.0
 10
84.623367039
 20
79.8333164347
 30
0.0
 10
83.5607372115
 20
80.0543649943
 30
0.0
  0
SPLINE
  5
49F
100
AcDbEntity
  8
BEZUGSACHSEN
100
AcDbSpline
 62
7
  6
CONTINUOUS
 70
0
 71
3
 72
11
 73
7
 74
0
 42
0.0000001
 43
0.0000001
 44
0.0000000001
 40
0.0
 40
0.0
 40
0.0
 40
0.0
 40
0.221185816
 40
0.4572071684
 40
0.716647289
 40
1.0
 40
1.0
 40
1.0
 40
1.0
 10
79.8802702372
 20
71.1558248235
 30
0.0
 10
80.059366491
 20
71.4660286346
 30
0.0
 10
80.5637759787
 20
72.0372609815
 30
0.0
 10
81.6132400396
 20
72.5803428665
 30
0.0
 10
82.8703725262
 20
72.8027721491
 30
0.0
 10
83.7559127885
 20
72.7370274419
 30
0.0
 10
84.2076255961
 20
72.6563165991
 30
0.0
  0
SPLINE
  5
4A0
100
AcDbEntity
  8
BEZUGSACHSEN
100
AcDbSpline
 62
7
  6
CONTINUOUS
 70
0
 71
3
 72
11
 73
7
 74
0
 42
0.0000001
 43
0.0000001
 44
0.0000000001
 40
0.0
 40
0.0
 40
0.0
 40
0.0
 40
0.283352711
 40
0.5427928316
 40
0.778814184
 40
1.0
 40
1.0
 40
1.0
 40
1.0
 10
88.5423359952
 20
70.1536703833
 30
0.0
 10
88.8380900392
 20
69.8028310381
 30
0.0
 10
89.3377967569
 20
69.0688030285
 30
0.0
 10
89.773733591
 20
67.8688797179
 30
0.0
 10
89.8281429127
 20
66.6884762383
 30
0.0
 10
89.5856459326
 20
65.9660286346
 30
0.0
 10
89.4065496788
 20
65.6558248235
 30
0.0
  0
SPLINE
  5
4A1
100
AcDbEntity
  8
KONSTRUKTIONSELEMENTE
100
AcDbSpline
 62
7
  6
CONTINUOUS
 70
0
 71
3
 72
9
 73
5
 74
0
 42
0.0000001
 43
0.0000001
 44
0.0000000001
 40
0.0
 40
0.0
 40
0.0
 40
0.0
 40
0.5108269807
 40
1.0
 40
1.0
 40
1.0
 40
1.0
 10
121.7048061069
 20
33.0728416814
 30
0.0
 10
121.9458119666
 20
33.1935115973
 30
0.0
 10
122.390573496
 20
33.491507968
 30
0.0
 10
122.7285096764
 20
33.9090352823
 30
0.0
 10
122.8575647538
 20
34.1325560366
 30
0.0
  0
SPLINE
  5
4A2
100
AcDbEntity
  8
KONSTRUKTIONSELEMENTE
100
AcDbSpline
 62
7
  6
CONTINUOUS
 70
0
 71
3
 72
9
 73
5
 74
0
 42
0.0000001
 43
0.0000001
 44
0.0000000001
 40
0.0
 40
0.0
 40
0.0
 40
0.0
 40
0.5322168521
 40
1.0
 40
1.0
 40
1.0
 40
1.0
 10
120.3574328703
 20
32.9132853511
 30
0.0
 10
120.442334907
 20
32.8181643238
 30
0.0
 10
120.6542360949
 20
32.683934827
 30
0.0
 10
120.9181741036
 20
32.6789806448
 30
0.0
 10
121.0183797651
 20
32.7291529053
 30
0.0
  0
SPLINE
  5
4A3
100
AcDbEntity
  8
KONSTRUKTIONSELEMENTE
100
AcDbSpline
 62
7
  6
CONTINUOUS
 70
0
 71
3
 72
9
 73
5
 74
0
 42
0.0000001
 43
0.0000001
 44
0.0000000001
 40
0.0
 40
0.0
 40
0.0
 40
0.0
 40
0.2605100871
 40
1.0
 40
1.0
 40
1.0
 40
1.0
 10
84.9809968207
 20
14.6854921565
 30
0.0
 10
84.9932492135
 20
14.6916268422
 30
0.0
 10
85.0387399196
 20
14.718072114
 30
0.0
 10
85.0768030113
 20
14.757748911
 30
0.0
 10
85.0962529479
 20
14.7914326238
 30
0.0
  0
SPLINE
  5
4A4
100
AcDbEntity
  8
KONSTRUKTIONSELEMENTE
100
AcDbSpline
 62
7
  6
CONTINUOUS
 70
0
 71
3
 72
11
 73
7
 74
0
 42
0.0000001
 43
0.0000001
 44
0.0000000001
 40
0.0
 40
0.0
 40
0.0
 40
0.0
 40
0.2729767978
 40
0.5353848362
 40
0.7789285996
 40
1.0
 40
1.0
 40
1.0
 40
1.0
 10
79.6131950666
 20
14.9717566611
 30
0.0
 10
80.0191463264
 20
14.737380592
 30
0.0
 10
80.8632459079
 20
14.3551373557
 30
0.0
 10
82.1786485713
 20
14.061566857
 30
0.0
 10
83.4390510847
 20
14.0736992693
 30
0.0
 10
84.2188501533
 20
14.303890753
 30
0.0
 10
84.5582992588
 20
14.4738505004
 30
0.0
  0
SPLINE
  5
4A5
100
AcDbEntity
  8
KONSTRUKTIONSELEMENTE
100
AcDbSpline
 62
7
  6
CONTINUOUS
 70
0
 71
3
 72
13
 73
9
 74
0
 42
0.0000001
 43
0.0000001
 44
0.0000000001
 40
0.0
 40
0.0
 40
0.0
 40
0.0
 40
0.2870489256
 40
0.5535682914
 40
0.6755020148
 40
0.789331082
 40
0.8965440086
 40
1.0
 40
1.0
 40
1.0
 40
1.0
 10
67.6527432094
 20
21.8771267605
 30
0.0
 10
67.2065089328
 20
22.1347602402
 30
0.0
 10
66.2744806762
 20
22.5179424389
 30
0.0
 10
65.0442253212
 20
22.6400972143
 30
0.0
 10
64.1518066576
 20
22.4772815173
 30
0.0
 10
63.577905692
 20
22.2398495379
 30
0.0
 10
63.1040006397
 20
21.8906859973
 30
0.0
 10
62.8672823319
 20
21.588465383
 30
0.0
 10
62.7744280319
 20
21.4276370177
 30
0.0
  0
SPLINE
  5
4A6
100
AcDbEntity
  8
KONSTRUKTIONSELEMENTE
100
AcDbSpline
 62
7
  6
CONTINUOUS
 70
0
 71
3
 72
11
 73
7
 74
0
 42
0.0000001
 43
0.0000001
 44
0.0000000001
 40
0.0
 40
0.0
 40
0.0
 40
0.0
 40
0.220058334
 40
0.4557781708
 40
0.71578719
 40
1.0
 40
1.0
 40
1.0
 40
1.0
 10
124.6253317068
 20
37.1944182151
 30
0.0
 10
124.7935572275
 20
37.4857813761
 30
0.0
 10
125.0174459456
 20
38.168508216
 30
0.0
 10
124.9465639148
 20
39.28146396
 30
0.0
 10
124.5080904126
 20
40.4064878954
 30
0.0
 10
124.0167156612
 20
41.0887413889
 30
0.0
 10
123.7273675296
 20
41.4129160799
 30
0.0
  0
SPLINE
  5
4A7
100
AcDbEntity
  8
KONSTRUKTIONSELEMENTE
100
AcDbSpline
 62
7
  6
CONTINUOUS
 70
0
 71
3
 72
11
 73
7
 74
0
 42
0.0000001
 43
0.0000001
 44
0.0000000001
 40
0.0
 40
0.0
 40
0.0
 40
0.0
 40
0.2879904701
 40
0.5553442566
 40
0.7905170666
 40
1.0
 40
1.0
 40
1.0
 40
1.0
 10
57.7273631796
 20
11.6858642644
 30
0.0
 10
57.8947129844
 20
11.5892448096
 30
0.0
 10
58.2447140718
 20
11.4455107165
 30
0.0
 10
58.7809010195
 20
11.3922646319
 30
0.0
 10
59.2564467724
 20
11.5168895948
 30
0.0
 10
59.4864508275
 20
11.7326934455
 30
0.0
 10
59.5567313712
 20
11.8544229179
 30
0.0
  0
SPLINE
  5
4A8
100
AcDbEntity
  8
KONSTRUKTIONSELEMENTE
100
AcDbSpline
 62
7
  6
CONTINUOUS
 70
0
 71
3
 72
11
 73
7
 74
0
 42
0.0000001
 43
0.0000001
 44
0.0000000001
 40
0.0
 40
0.0
 40
0.0
 40
0.0
 40
0.2820767698
 40
0.5407553301
 40
0.7772666753
 40
1.0
 40
1.0
 40
1.0
 40
1.0
 10
67.6489454115
 20
21.853904066
 30
0.0
 10
67.3368552491
 20
21.8972441966
 30
0.0
 10
66.7273257617
 20
21.9200435631
 30
0.0
 10
65.8676697793
 20
21.7395279906
 30
0.0
 10
65.1525905221
 20
21.3473465398
 30
0.0
 10
64.8076542182
 20
20.9492880756
 30
0.0
 10
64.6832555348
 20
20.7338232355
 30
0.0
  0
SPLINE
  5
4A9
100
AcDbEntity
  8
KONSTRUKTIONSELEMENTE
100
AcDbSpline
 62
7
  6
CONTINUOUS
 70
0
 71
3
 72
11
 73
7
 74
0
 42
0.0000001
 43
0.0000001
 44
0.0000000001
 40
0.0
 40
0.0
 40
0.0
 40
0.0
 40
0.2808713938
 40
0.5389210953
 40
0.7759033082
 40
1.0
 40
1.0
 40
1.0
 40
1.0
 10
52.9591715219
 20
30.3581826873
 30
0.0
 10
53.1349252244
 20
30.115890706
 30
0.0
 10
53.427437347
 20
29.6153353537
 30
0.0
 10
53.6656083387
 20
28.813774844
 30
0.0
 10
53.666591643
 20
28.0351554436
 30
0.0
 10
53.4981430609
 20
27.5606401425
 30
0.0
 10
53.3787334549
 20
27.353816638
 30
0.0
  0
SPLINE
  5
4AA
100
AcDbEntity
  8
KONSTRUKTIONSELEMENTE
100
AcDbSpline
 62
7
  6
CONTINUOUS
 70
0
 71
3
 72
9
 73
5
 74
0
 42
0.0000001
 43
0.0000001
 44
0.0000000001
 40
0.0
 40
0.0
 40
0.0
 40
0.0
 40
0.5107012964
 40
1.0
 40
1.0
 40
1.0
 40
1.0
 10
47.5831427235
 20
69.3530903878
 30
0.0
 10
47.5783414978
 20
69.4338280721
 30
0.0
 10
47.5890929832
 20
69.5941596751
 30
0.0
 10
47.6469155976
 20
69.7446648923
 30
0.0
 10
47.6856794493
 20
69.8117631953
 30
0.0
  0
SPLINE
  5
4AB
100
AcDbEntity
  8
KONSTRUKTIONSELEMENTE
100
AcDbSpline
 62
7
  6
CONTINUOUS
 70
0
 71
3
 72
11
 73
7
 74
0
 42
0.0000001
 43
0.0000001
 44
0.0000000001
 40
0.0
 40
0.0
 40
0.0
 40
0.0
 40
0.2231088723
 40
0.4658949299
 40
0.7265978581
 40
1.0
 40
1.0
 40
1.0
 40
1.0
 10
49.4461451611
 20
34.7458621206
 30
0.0
 10
49.4653931242
 20
34.422187278
 30
0.0
 10
49.6092487678
 20
33.7505132487
 30
0.0
 10
50.0786716297
 20
32.7954233948
 30
0.0
 10
50.7789014442
 20
31.9007796312
 30
0.0
 10
51.3649972231
 20
31.3845767698
 30
0.0
 10
51.6844366776
 20
31.1482797999
 30
0.0
  0
SPLINE
  5
4AC
100
AcDbEntity
  8
KONSTRUKTIONSELEMENTE
100
AcDbSpline
 62
7
  6
CONTINUOUS
 70
0
 71
3
 72
13
 73
9
 74
0
 42
0.0000001
 43
0.0000001
 44
0.0000000001
 40
0.0
 40
0.0
 40
0.0
 40
0.0
 40
0.2198121251
 40
0.3415455497
 40
0.4695397045
 40
0.6018885822
 40
0.736224413
 40
1.0
 40
1.0
 40
1.0
 40
1.0
 10
109.617425511
 20
39.3823086503
 30
0.0
 10
110.0951070406
 20
39.6214803871
 30
0.0
 10
110.9355008186
 20
39.8069211602
 30
0.0
 10
112.0771986623
 20
39.7591087126
 30
0.0
 10
112.9915807654
 20
39.5743577387
 30
0.0
 10
113.8969943767
 20
39.2476543898
 30
0.0
 10
115.0395580772
 20
38.6452608909
 30
0.0
 10
115.8000170211
 20
38.0192415108
 30
0.0
 10
116.2268944593
 20
37.540984192
 30
0.0
  0
SPLINE
  5
4AD
100
AcDbEntity
  8
KONSTRUKTIONSELEMENTE
100
AcDbSpline
 62
7
  6
CONTINUOUS
 70
0
 71
3
 72
11
 73
7
 74
0
 42
0.0000001
 43
0.0000001
 44
0.0000000001
 40
0.0
 40
0.0
 40
0.0
 40
0.0
 40
0.220058334
 40
0.4557781708
 40
0.71578719
 40
1.0
 40
1.0
 40
1.0
 40
1.0
 10
122.8575647538
 20
34.1325560366
 30
0.0
 10
123.0257902745
 20
34.4239191976
 30
0.0
 10
123.2496789926
 20
35.1066460375
 30
0.0
 10
123.1787969618
 20
36.2196017816
 30
0.0
 10
122.7403234597
 20
37.3446257169
 30
0.0
 10
122.2489487082
 20
38.0268792104
 30
0.0
 10
121.9596005767
 20
38.3510539014
 30
0.0
  0
SPLINE
  5
4AE
100
AcDbEntity
  8
KONSTRUKTIONSELEMENTE
100
AcDbSpline
 62
7
  6
CONTINUOUS
 70
0
 71
3
 72
9
 73
5
 74
0
 42
0.0000001
 43
0.0000001
 44
0.0000000001
 40
0.0
 40
0.0
 40
0.0
 40
0.0
 40
0.5328609796
 40
1.0
 40
1.0
 40
1.0
 40
1.0
 10
53.6789016662
 20
67.706635094
 30
0.0
 10
53.8524260137
 20
67.6705385098
 30
0.0
 10
54.1905604902
 20
67.6476005926
 30
0.0
 10
54.5191519171
 20
67.753120831
 30
0.0
 10
54.6498113922
 20
67.8372079606
 30
0.0
  0
SPLINE
  5
4AF
100
AcDbEntity
  8
KONSTRUKTIONSELEMENTE
100
AcDbSpline
 62
7
  6
CONTINUOUS
 70
0
 71
3
 72
8
 73
4
 74
0
 42
0.0000001
 43
0.0000001
 44
0.0000000001
 40
0.0
 40
0.0
 40
0.0
 40
0.0
 40
1.0
 40
1.0
 40
1.0
 40
1.0
 10
54.6498113922
 20
67.8372079606
 30
0.0
 10
54.6981036582
 20
67.868286901
 30
0.0
 10
54.7436432166
 20
67.9042744592
 30
0.0
 10
54.7845260925
 20
67.9446060094
 30
0.0
  0
SPLINE
  5
4B0
100
AcDbEntity
  8
KONSTRUKTIONSELEMENTE
100
AcDbSpline
 62
7
  6
CONTINUOUS
 70
0
 71
3
 72
11
 73
7
 74
0
 42
0.0000001
 43
0.0000001
 44
0.0000000001
 40
0.0
 40
0.0
 40
0.0
 40
0.0
 40
0.2816064552
 40
0.5417085427
 40
0.7793419382
 40
1.0
 40
1.0
 40
1.0
 40
1.0
 10
53.5877617467
 20
69.2392491698
 30
0.0
 10
53.7046265817
 20
69.2149389135
 30
0.0
 10
53.9348562849
 20
69.1897108319
 30
0.0
 10
54.2661778726
 20
69.229065154
 30
0.0
 10
54.5519510167
 20
69.3462521831
 30
0.0
 10
54.7015791144
 20
69.4774039924
 30
0.0
 10
54.7592388915
 20
69.5510489015
 30
0.0
  0
SPLINE
  5
4B1
100
AcDbEntity
  8
BEZUGSACHSEN
100
AcDbSpline
 62
7
  6
CONTINUOUS
 70
0
 71
3
 72
9
 73
5
 74
0
 42
0.0000001
 43
0.0000001
 44
0.0000000001
 40
0.0
 40
0.0
 40
0.0
 40
0.0
 40
0.2459387646
 40
1.0
 40
1.0
 40
1.0
 40
1.0
 10
93.5049110832
 20
70.230610628
 30
0.0
 10
93.2667296745
 20
70.49746006
 30
0.0
 10
92.2687044585
 20
71.5558368903
 30
0.0
 10
91.1586687109
 20
72.5076823043
 30
0.0
 10
90.2758044417
 20
73.1582699387
 30
0.0
  0
SPLINE
  5
4B2
100
AcDbEntity
  8
BEZUGSACHSEN
100
AcDbSpline
 62
7
  6
CONTINUOUS
 70
0
 71
3
 72
9
 73
5
 74
0
 42
0.0000001
 43
0.0000001
 44
0.0000000001
 40
0.0
 40
0.0
 40
0.0
 40
0.0
 40
0.2536983179
 40
1.0
 40
1.0
 40
1.0
 40
1.0
 10
85.942950916
 20
75.6598440881
 30
0.0
 10
85.6048802967
 20
75.8076369038
 30
0.0
 10
84.2581122997
 20
76.3569189361
 30
0.0
 10
82.8556000861
 20
76.7714542562
 30
0.0
 10
81.7929702586
 20
76.9925028158
 30
0.0
  0
SPLINE
  5
4B3
100
AcDbEntity
  8
KONSTRUKTIONSELEMENTE
100
AcDbSpline
 62
7
  6
CONTINUOUS
 70
0
 71
3
 72
10
 73
6
 74
0
 42
0.0000001
 43
0.0000001
 44
0.0000000001
 40
0.0
 40
0.0
 40
0.0
 40
0.0
 40
0.2210513433
 40
0.4578290806
 40
1.0
 40
1.0
 40
1.0
 40
1.0
 10
85.0962529479
 20
14.7914326238
 30
0.0
 10
85.1130781549
 20
14.8205707877
 30
0.0
 10
85.1354706468
 20
14.8888824499
 30
0.0
 10
85.1257002541
 20
15.0434202761
 30
0.0
 10
85.061429812
 20
15.1517455081
 30
0.0
 10
85.0064762677
 20
15.2133133785
 30
0.0
  0
SPLINE
  5
4B4
100
AcDbEntity
  8
BEZUGSACHSEN
100
AcDbSpline
 62
7
  6
CONTINUOUS
 70
0
 71
3
 72
19
 73
15
 74
0
 42
0.0000001
 43
0.0000001
 44
0.0000000001
 40
0.0
 40
0.0
 40
0.0
 40
0.0
 40
0.0517234907
 40
0.1053372095
 40
0.1622487312
 40
0.2232163938
 40
0.3564752704
 40
0.5
 40
0.6435247296
 40
0.7767836062
 40
0.8377512688
 40
0.8946627905
 40
0.9482765093
 40
1.0
 40
1.0
 40
1.0
 40
1.0
 10
89.4065496788
 20
65.6558248235
 30
0.0
 10
89.2788865867
 20
65.4347058618
 30
0.0
 10
88.9533588336
 20
65.0191764165
 30
0.0
 10
88.3017950017
 20
64.5390063529
 30
0.0
 10
87.512601956
 20
64.2126280858
 30
0.0
 10
86.285665419
 20
63.988645405
 30
0.0
 10
84.5931821108
 20
64.1571393082
 30
0.0
 10
82.6510295609
 20
64.9549207477
 30
0.0
 10
80.9890542927
 20
66.2379834742
 30
0.0
 10
79.996892638
 20
67.619470063
 30
0.0
 10
79.5773990611
 20
68.7940196132
 30
0.0
 10
79.4654544088
 20
69.6406699728
 30
0.0
 10
79.5555119661
 20
70.4450258352
 30
0.0
 10
79.7526071451
 20
70.9347058618
 30
0.0
 10
79.8802702372
 20
71.1558248235
 30
0.0
  0
SPLINE
  5
4B5
100
AcDbEntity
  8
KONSTRUKTIONSELEMENTE
100
AcDbSpline
 62
7
  6
CONTINUOUS
 70
0
 71
3
 72
11
 73
7
 74
0
 42
0.0000001
 43
0.0000001
 44
0.0000000001
 40
0.0
 40
0.0
 40
0.0
 40
0.0
 40
0.2200436456
 40
0.4557793627
 40
0.7157728079
 40
1.0
 40
1.0
 40
1.0
 40
1.0
 10
47.6856794493
 20
69.8117631953
 30
0.0
 10
47.7361567924
 20
69.8991369705
 30
0.0
 10
47.8799854761
 20
70.0596264383
 30
0.0
 10
48.1797222044
 20
70.2080782638
 30
0.0
 10
48.5377233501
 20
70.2628971021
 30
0.0
 10
48.7886354521
 20
70.2375647896
 30
0.0
 10
48.9162433138
 20
70.2110197658
 30
0.0
  0
SPLINE
  5
4B6
100
AcDbEntity
  8
KONSTRUKTIONSELEMENTE
100
AcDbSpline
 62
7
  6
CONTINUOUS
 70
0
 71
3
 72
11
 73
7
 74
0
 42
0.0000001
 43
0.0000001
 44
0.0000000001
 40
0.0
 40
0.0
 40
0.0
 40
0.0
 40
0.2842240174
 40
0.5442187073
 40
0.779940343
 40
1.0
 40
1.0
 40
1.0
 40
1.0
 10
51.1687637643
 20
83.3629589802
 30
0.0
 10
50.7433252159
 20
83.4514588283
 30
0.0
 10
49.9067825618
 20
83.5358696587
 30
0.0
 10
48.7132440959
 20
83.3530730896
 30
0.0
 10
47.7139523322
 20
82.8579720911
 30
0.0
 10
47.2346802739
 20
82.32267514
 30
0.0
 10
47.0664402634
 20
82.0313141841
 30
0.0
  0
SPLINE
  5
4B7
100
AcDbEntity
  8
KONSTRUKTIONSELEMENTE
100
AcDbSpline
 62
7
  6
CONTINUOUS
 70
0
 71
3
 72
11
 73
7
 74
0
 42
0.0000001
 43
0.0000001
 44
0.0000000001
 40
0.0
 40
0.0
 40
0.0
 40
0.0
 40
0.2842271921
 40
0.5442206373
 40
0.7799563544
 40
1.0
 40
1.0
 40
1.0
 40
1.0
 10
53.5021249709
 20
67.4004488762
 30
0.0
 10
53.6297328326
 20
67.3739038524
 30
0.0
 10
53.8806449345
 20
67.3485715399
 30
0.0
 10
54.2386460803
 20
67.4033903782
 30
0.0
 10
54.5383828085
 20
67.5518422037
 30
0.0
 10
54.6822114923
 20
67.7123316715
 30
0.0
 10
54.7326888354
 20
67.7997054467
 30
0.0
  0
SPLINE
  5
4B8
100
AcDbEntity
  8
KONSTRUKTIONSELEMENTE
100
AcDbSpline
 62
7
  6
CONTINUOUS
 70
0
 71
3
 72
11
 73
7
 74
0
 42
0.0000001
 43
0.0000001
 44
0.0000000001
 40
0.0
 40
0.0
 40
0.0
 40
0.0
 40
0.2842268035
 40
0.5442239761
 40
0.7799400332
 40
1.0
 40
1.0
 40
1.0
 40
1.0
 10
80.8759378566
 20
19.8410122194
 30
0.0
 10
80.5865799796
 20
20.1651978288
 30
0.0
 10
80.0952126654
 20
20.8474474013
 30
0.0
 10
79.6567564398
 20
21.9724487923
 30
0.0
 10
79.585859271
 20
23.0853741393
 30
0.0
 10
79.8097675642
 20
23.7680666494
 30
0.0
 10
79.9779550052
 20
24.0594486333
 30
0.0
  0
SPLINE
  5
4B9
100
AcDbEntity
  8
KONSTRUKTIONSELEMENTE
100
AcDbSpline
 62
7
  6
CONTINUOUS
 70
0
 71
3
 72
9
 73
5
 74
0
 42
0.0000001
 43
0.0000001
 44
0.0000000001
 40
0.0
 40
0.0
 40
0.0
 40
0.0
 40
0.5037350338
 40
1.0
 40
1.0
 40
1.0
 40
1.0
 10
114.0453171744
 20
89.7617413713
 30
0.0
 10
113.7332373956
 20
89.5455217799
 30
0.0
 10
113.1458636943
 20
89.0651375082
 30
0.0
 10
112.6805402357
 20
88.4605483836
 30
0.0
 10
112.4935233568
 20
88.1366256475
 30
0.0
  0
SPLINE
  5
4BA
100
AcDbEntity
  8
KONSTRUKTIONSELEMENTE
100
AcDbSpline
 62
7
  6
CONTINUOUS
 70
0
 71
3
 72
9
 73
5
 74
0
 42
0.0000001
 43
0.0000001
 44
0.0000000001
 40
0.0
 40
0.0
 40
0.0
 40
0.0
 40
0.500127309
 40
1.0
 40
1.0
 40
1.0
 40
1.0
 10
89.7579773183
 20
106.8341959406
 30
0.0
 10
90.1038365415
 20
107.1058327623
 30
0.0
 10
90.7576840084
 20
107.7006708738
 30
0.0
 10
91.2840638932
 20
108.414785414
 30
0.0
 10
91.5038412167
 20
108.7954509047
 30
0.0
  0
SPLINE
  5
4BB
100
AcDbEntity
  8
KONSTRUKTIONSELEMENTE
100
AcDbSpline
 62
7
  6
CONTINUOUS
 70
0
 71
3
 72
9
 73
5
 74
0
 42
0.0000001
 43
0.0000001
 44
0.0000000001
 40
0.0
 40
0.0
 40
0.0
 40
0.0
 40
0.499872691
 40
1.0
 40
1.0
 40
1.0
 40
1.0
 10
116.1916365643
 20
94.5419456151
 30
0.0
 10
115.9718592408
 20
94.1612801244
 30
0.0
 10
115.6166078502
 20
93.348364502
 30
0.0
 10
115.4283866679
 20
92.4846969297
 30
0.0
 10
115.3660718914
 20
92.0493556454
 30
0.0
  0
SPLINE
  5
4BC
100
AcDbEntity
  8
KONSTRUKTIONSELEMENTE
100
AcDbSpline
 62
7
  6
CONTINUOUS
 70
0
 71
3
 72
9
 73
5
 74
0
 42
0.0000001
 43
0.0000001
 44
0.0000000001
 40
0.0
 40
0.0
 40
0.0
 40
0.0
 40
0.4962649662
 40
1.0
 40
1.0
 40
1.0
 40
1.0
 10
87.8057280092
 20
102.3901309371
 30
0.0
 10
87.9927448881
 20
102.7140536732
 30
0.0
 10
88.2836726995
 20
103.4193301716
 30
0.0
 10
88.4060108317
 20
104.1682028544
 30
0.0
 10
88.4372226013
 20
104.5465816665
 30
0.0
  0
SPLINE
  5
4BD
100
AcDbEntity
  8
KONSTRUKTIONSELEMENTE
100
AcDbSpline
 62
7
  6
CONTINUOUS
 70
0
 71
3
 72
11
 73
7
 74
0
 42
0.0000001
 43
0.0000001
 44
0.0000000001
 40
0.0
 40
0.0
 40
0.0
 40
0.0
 40
0.2551631889
 40
0.5065184691
 40
0.7542163689
 40
1.0
 40
1.0
 40
1.0
 40
1.0
 10
94.8339682357
 20
114.5634000972
 30
0.0
 10
94.9668986329
 20
114.7936422991
 30
0.0
 10
95.3212584753
 20
115.2031702286
 30
0.0
 10
96.009360712
 20
115.6030522394
 30
0.0
 10
96.7588043162
 20
115.8237264348
 30
0.0
 10
97.2717257228
 20
115.8821899848
 30
0.0
 10
97.5274908546
 20
115.895045434
 30
0.0
  0
SPLINE
  5
4BE
100
AcDbEntity
  8
KONSTRUKTIONSELEMENTE
100
AcDbSpline
 62
7
  6
CONTINUOUS
 70
0
 71
3
 72
11
 73
7
 74
0
 42
0.0000001
 43
0.0000001
 44
0.0000000001
 40
0.0
 40
0.0
 40
0.0
 40
0.0
 40
0.2457861969
 40
0.4934867763
 40
0.7448413997
 40
1.0
 40
1.0
 40
1.0
 40
1.0
 10
119.3282409643
 20
103.3083764896
 30
0.0
 10
119.4449916024
 20
103.080447286
 30
0.0
 10
119.6508233357
 20
102.6070073684
 30
0.0
 10
119.8344343796
 20
101.8476275738
 30
0.0
 10
119.8321725714
 20
101.0517752388
 30
0.0
 10
119.6546915889
 20
100.5401328671
 30
0.0
 10
119.5217635833
 20
100.3098948075
 30
0.0
  0
SPLINE
  5
4BF
100
AcDbEntity
  8
KONSTRUKTIONSELEMENTE
100
AcDbSpline
 62
7
  6
CONTINUOUS
 70
0
 71
3
 72
10
 73
6
 74
0
 42
0.0000001
 43
0.0000001
 44
0.0000000001
 40
0.0
 40
0.0
 40
0.0
 40
0.0
 40
0.2350471841
 40
0.4823710211
 40
1.0
 40
1.0
 40
1.0
 40
1.0
 10
88.4372226013
 20
104.5465816665
 30
0.0
 10
88.4546574452
 20
104.7579434578
 30
0.0
 10
88.5408672566
 20
105.1891670088
 30
0.0
 10
88.91146029
 20
106.0180149957
 30
0.0
 10
89.3906714494
 20
106.5457149863
 30
0.0
 10
89.7579773183
 20
106.8341959406
 30
0.0
  0
SPLINE
  5
4C0
100
AcDbEntity
  8
KONSTRUKTIONSELEMENTE
100
AcDbSpline
 62
7
  6
CONTINUOUS
 70
0
 71
3
 72
10
 73
6
 74
0
 42
0.0000001
 43
0.0000001
 44
0.0000000001
 40
0.0
 40
0.0
 40
0.0
 40
0.0
 40
0.5176289789
 40
0.7649528159
 40
1.0
 40
1.0
 40
1.0
 40
1.0
 10
115.3660718914
 20
92.0493556454
 30
0.0
 10
115.2998929909
 20
91.5870189549
 30
0.0
 10
115.0824969732
 20
90.9081599217
 30
0.0
 10
114.5499900773
 20
90.1727929469
 30
0.0
 10
114.2196444331
 20
89.8825212847
 30
0.0
 10
114.0453171744
 20
89.7617413713
 30
0.0
  0
SPLINE
  5
4C1
100
AcDbEntity
  8
BEZUGSACHSEN
100
AcDbSpline
 62
7
  6
CONTINUOUS
 70
0
 71
3
 72
10
 73
6
 74
0
 42
0.0000001
 43
0.0000001
 44
0.0000000001
 40
0.0
 40
0.0
 40
0.0
 40
0.0
 40
0.5176289789
 40
0.7649528159
 40
1.0
 40
1.0
 40
1.0
 40
1.0
 10
324.2294058897
 20
92.0493556454
 30
0.0
 10
324.2955847902
 20
91.5870189549
 30
0.0
 10
324.5129808079
 20
90.9081599217
 30
0.0
 10
325.0454877038
 20
90.1727929469
 30
0.0
 10
325.375833348
 20
89.8825212847
 30
0.0
 10
325.5501606067
 20
89.7617413713
 30
0.0
  0
SPLINE
  5
4C2
100
AcDbEntity
  8
BEZUGSACHSEN
100
AcDbSpline
 62
7
  6
CONTINUOUS
 70
0
 71
3
 72
10
 73
6
 74
0
 42
0.0000001
 43
0.0000001
 44
0.0000000001
 40
0.0
 40
0.0
 40
0.0
 40
0.0
 40
0.2350471841
 40
0.4823710211
 40
1.0
 40
1.0
 40
1.0
 40
1.0
 10
351.1582551798
 20
104.5465816665
 30
0.0
 10
351.1408203359
 20
104.7579434578
 30
0.0
 10
351.0546105245
 20
105.1891670088
 30
0.0
 10
350.6840174911
 20
106.0180149957
 30
0.0
 10
350.2048063317
 20
106.5457149863
 30
0.0
 10
349.8375004628
 20
106.8341959406
 30
0.0
  0
SPLINE
  5
4C3
100
AcDbEntity
  8
BEZUGSACHSEN
100
AcDbSpline
 62
7
  6
CONTINUOUS
 70
0
 71
3
 72
11
 73
7
 74
0
 42
0.0000001
 43
0.0000001
 44
0.0000000001
 40
0.0
 40
0.0
 40
0.0
 40
0.0
 40
0.2457861969
 40
0.4934867763
 40
0.7448413997
 40
1.0
 40
1.0
 40
1.0
 40
1.0
 10
320.2672368168
 20
103.3083764896
 30
0.0
 10
320.1504861787
 20
103.080447286
 30
0.0
 10
319.9446544454
 20
102.6070073684
 30
0.0
 10
319.7610434014
 20
101.8476275738
 30
0.0
 10
319.7633052097
 20
101.0517752388
 30
0.0
 10
319.9407861922
 20
100.5401328671
 30
0.0
 10
320.0737141978
 20
100.3098948075
 30
0.0
  0
SPLINE
  5
4C4
100
AcDbEntity
  8
BEZUGSACHSEN
100
AcDbSpline
 62
7
  6
CONTINUOUS
 70
0
 71
3
 72
11
 73
7
 74
0
 42
0.0000001
 43
0.0000001
 44
0.0000000001
 40
0.0
 40
0.0
 40
0.0
 40
0.0
 40
0.2551631889
 40
0.5065184691
 40
0.7542163689
 40
1.0
 40
1.0
 40
1.0
 40
1.0
 10
344.7615095454
 20
114.5634000972
 30
0.0
 10
344.6285791481
 20
114.7936422991
 30
0.0
 10
344.2742193058
 20
115.2031702286
 30
0.0
 10
343.5861170691
 20
115.6030522394
 30
0.0
 10
342.8366734649
 20
115.8237264348
 30
0.0
 10
342.3237520583
 20
115.8821899848
 30
0.0
 10
342.0679869265
 20
115.895045434
 30
0.0
  0
SPLINE
  5
4C5
100
AcDbEntity
  8
BEZUGSACHSEN
100
AcDbSpline
 62
7
  6
CONTINUOUS
 70
0
 71
3
 72
9
 73
5
 74
0
 42
0.0000001
 43
0.0000001
 44
0.0000000001
 40
0.0
 40
0.0
 40
0.0
 40
0.0
 40
0.499872691
 40
1.0
 40
1.0
 40
1.0
 40
1.0
 10
323.4038412167
 20
94.5419456151
 30
0.0
 10
323.6236185403
 20
94.1612801244
 30
0.0
 10
323.9788699309
 20
93.348364502
 30
0.0
 10
324.1670911132
 20
92.4846969297
 30
0.0
 10
324.2294058897
 20
92.0493556454
 30
0.0
  0
SPLINE
  5
4C6
100
AcDbEntity
  8
BEZUGSACHSEN
100
AcDbSpline
 62
7
  6
CONTINUOUS
 70
0
 71
3
 72
9
 73
5
 74
0
 42
0.0000001
 43
0.0000001
 44
0.0000000001
 40
0.0
 40
0.0
 40
0.0
 40
0.0
 40
0.500127309
 40
1.0
 40
1.0
 40
1.0
 40
1.0
 10
349.8375004628
 20
106.8341959406
 30
0.0
 10
349.4916412395
 20
107.1058327623
 30
0.0
 10
348.8377937726
 20
107.7006708738
 30
0.0
 10
348.3114138879
 20
108.414785414
 30
0.0
 10
348.0916365643
 20
108.7954509047
 30
0.0
  0
SPLINE
  5
4C7
100
AcDbEntity
  8
BEZUGSACHSEN
100
AcDbSpline
 62
7
  6
CONTINUOUS
 70
0
 71
3
 72
9
 73
5
 74
0
 42
0.0000001
 43
0.0000001
 44
0.0000000001
 40
0.0
 40
0.0
 40
0.0
 40
0.0
 40
0.5037350338
 40
1.0
 40
1.0
 40
1.0
 40
1.0
 10
325.5501606067
 20
89.7617413713
 30
0.0
 10
325.8622403855
 20
89.5455217799
 30
0.0
 10
326.4496140868
 20
89.0651375082
 30
0.0
 10
326.9149375454
 20
88.4605483836
 30
0.0
 10
327.1019544243
 20
88.1366256475
 30
0.0
  0
SPLINE
  5
4C8
100
AcDbEntity
  8
BEZUGSACHSEN
100
AcDbSpline
 62
7
  6
CONTINUOUS
 70
0
 71
3
 72
9
 73
5
 74
0
 42
0.0000001
 43
0.0000001
 44
0.0000000001
 40
0.0
 40
0.0
 40
0.0
 40
0.0
 40
0.4962649662
 40
1.0
 40
1.0
 40
1.0
 40
1.0
 10
351.7897497719
 20
102.3901309371
 30
0.0
 10
351.602732893
 20
102.7140536732
 30
0.0
 10
351.3118050816
 20
103.4193301716
 30
0.0
 10
351.1894669493
 20
104.1682028544
 30
0.0
 10
351.1582551798
 20
104.5465816665
 30
0.0
  0
SPLINE
  5
4C9
100
AcDbEntity
  8
KONSTRUKTIONSELEMENTE
100
AcDbSpline
 62
7
  6
CONTINUOUS
 70
0
 71
3
 72
9
 73
5
 74
0
 42
0.0000001
 43
0.0000001
 44
0.0000000001
 40
0.0
 40
0.0
 40
0.0
 40
0.0
 40
0.272606519
 40
1.0
 40
1.0
 40
1.0
 40
1.0
 10
555.0710526618
 20
131.3212390439
 30
0.0
 10
555.0758424942
 20
131.3430159324
 30
0.0
 10
555.0979091002
 20
131.4216523713
 30
0.0
 10
555.1438128581
 20
131.4949878204
 30
0.0
 10
555.1888301599
 20
131.5338879467
 30
0.0
  0
SPLINE
  5
4CA
100
AcDbEntity
  8
KONSTRUKTIONSELEMENTE
100
AcDbSpline
 62
7
  6
CONTINUOUS
 70
0
 71
3
 72
9
 73
5
 74
0
 42
0.0000001
 43
0.0000001
 44
0.0000000001
 40
0.0
 40
0.0
 40
0.0
 40
0.0
 40
0.546991612
 40
1.0
 40
1.0
 40
1.0
 40
1.0
 10
558.2382100714
 20
127.805951086
 30
0.0
 10
558.2382100714
 20
127.7343656474
 30
0.0
 10
558.2233048525
 20
127.601476951
 30
0.0
 10
558.150467659
 20
127.4848252581
 30
0.0
 10
558.1056094677
 20
127.4460626216
 30
0.0
  0
SPLINE
  5
4CB
100
AcDbEntity
  8
KONSTRUKTIONSELEMENTE
100
AcDbSpline
 62
7
  6
CONTINUOUS
 70
0
 71
3
 72
9
 73
5
 74
0
 42
0.0000001
 43
0.0000001
 44
0.0000000001
 40
0.0
 40
0.0
 40
0.0
 40
0.0
 40
0.4714729988
 40
1.0
 40
1.0
 40
1.0
 40
1.0
 10
558.4591628583
 20
127.7522488394
 30
0.0
 10
558.4277916404
 20
127.7251404991
 30
0.0
 10
558.34854488
 20
127.6814855303
 30
0.0
 10
558.2600812662
 20
127.6685378915
 30
0.0
 10
558.2136282527
 20
127.6670049329
 30
0.0
  0
SPLINE
  5
4CC
100
AcDbEntity
  8
KONSTRUKTIONSELEMENTE
100
AcDbSpline
 62
7
  6
CONTINUOUS
 70
0
 71
3
 72
9
 73
5
 74
0
 42
0.0000001
 43
0.0000001
 44
0.0000000001
 40
0.0
 40
0.0
 40
0.0
 40
0.0
 40
0.4820003923
 40
1.0
 40
1.0
 40
1.0
 40
1.0
 10
566.968842394
 20
128.574511757
 30
0.0
 10
566.9686562278
 20
128.4184460282
 30
0.0
 10
566.926569014
 20
128.0934803401
 30
0.0
 10
566.8038051039
 20
127.7897422289
 30
0.0
 10
566.7233180354
 20
127.6425944019
 30
0.0
  0
SPLINE
  5
4CD
100
AcDbEntity
  8
KONSTRUKTIONSELEMENTE
100
AcDbSpline
 62
7
  6
CONTINUOUS
 70
0
 71
3
 72
9
 73
5
 74
0
 42
0.0000001
 43
0.0000001
 44
0.0000000001
 40
0.0
 40
0.0
 40
0.0
 40
0.0
 40
0.2343643836
 40
1.0
 40
1.0
 40
1.0
 40
1.0
 10
566.6912678142
 20
127.5859847696
 30
0.0
 10
566.6578598786
 20
127.5289235826
 30
0.0
 10
566.5047220782
 20
127.2917360446
 30
0.0
 10
566.3108057174
 20
127.0815092862
 30
0.0
 10
566.1475174407
 20
126.9400974904
 30
0.0
  0
SPLINE
  5
4CE
100
AcDbEntity
  8
KONSTRUKTIONSELEMENTE
100
AcDbSpline
 62
7
  6
CONTINUOUS
 70
0
 71
3
 72
9
 73
5
 74
0
 42
0.0000001
 43
0.0000001
 44
0.0000000001
 40
0.0
 40
0.0
 40
0.0
 40
0.0
 40
0.4959270657
 40
1.0
 40
1.0
 40
1.0
 40
1.0
 10
558.015789457
 20
133.9823805009
 30
0.0
 10
558.6379098911
 20
134.521152601
 30
0.0
 10
560.0691443524
 20
135.4156918916
 30
0.0
 10
561.6928626609
 20
135.862648259
 30
0.0
 10
562.5221547872
 20
135.972269661
 30
0.0
  0
SPLINE
  5
4CF
100
AcDbEntity
  8
KONSTRUKTIONSELEMENTE
100
AcDbSpline
 62
7
  6
CONTINUOUS
 70
0
 71
3
 72
11
 73
7
 74
0
 42
0.0000001
 43
0.0000001
 44
0.0000000001
 40
0.0
 40
0.0
 40
0.0
 40
0.0
 40
0.2544415708
 40
0.5052707429
 40
0.7533584052
 40
1.0
 40
1.0
 40
1.0
 40
1.0
 10
568.5459555312
 20
134.6412904164
 30
0.0
 10
569.0604225129
 20
134.305365109
 30
0.0
 10
570.0114969496
 20
133.5208456235
 30
0.0
 10
571.1125565531
 20
132.050499749
 30
0.0
 10
571.8088586377
 20
130.3695930505
 30
0.0
 10
571.9680045093
 20
129.1691914524
 30
0.0
 10
571.9682758967
 20
128.5735987204
 30
0.0
  0
SPLINE
  5
4D0
100
AcDbEntity
  8
KONSTRUKTIONSELEMENTE
100
AcDbSpline
 62
7
  6
CONTINUOUS
 70
0
 71
3
 72
11
 73
7
 74
0
 42
0.0000001
 43
0.0000001
 44
0.0000000001
 40
0.0
 40
0.0
 40
0.0
 40
0.0
 40
0.2474803687
 40
0.4959793074
 40
0.7466457809
 40
1.0
 40
1.0
 40
1.0
 40
1.0
 10
571.9682758967
 20
128.5735987204
 30
0.0
 10
571.9685074259
 20
128.0654797408
 30
0.0
 10
571.8534155549
 20
127.0435476845
 30
0.0
 10
571.3462609417
 20
125.5842637594
 30
0.0
 10
570.531569491
 20
124.2581397781
 30
0.0
 10
569.8140041878
 20
123.5009898784
 30
0.0
 10
569.4207857942
 20
123.1604527603
 30
0.0
  0
SPLINE
  5
4D1
100
AcDbEntity
  8
KONSTRUKTIONSELEMENTE
100
AcDbSpline
 62
7
  6
CONTINUOUS
 70
0
 71
3
 72
9
 73
5
 74
0
 42
0.0000001
 43
0.0000001
 44
0.0000000001
 40
0.0
 40
0.0
 40
0.0
 40
0.0
 40
0.5226045408
 40
1.0
 40
1.0
 40
1.0
 40
1.0
 10
566.6729014754
 20
129.587525574
 30
0.0
 10
566.7687627488
 20
129.4286313358
 30
0.0
 10
566.916534616
 20
129.1006376212
 30
0.0
 10
566.9690446072
 20
128.7440298097
 30
0.0
 10
566.968842394
 20
128.574511757
 30
0.0
  0
SPLINE
  5
4D2
100
AcDbEntity
  8
KONSTRUKTIONSELEMENTE
100
AcDbSpline
 62
7
  6
CONTINUOUS
 70
0
 71
3
 72
9
 73
5
 74
0
 42
0.0000001
 43
0.0000001
 44
0.0000000001
 40
0.0
 40
0.0
 40
0.0
 40
0.0
 40
0.4872963705
 40
1.0
 40
1.0
 40
1.0
 40
1.0
 10
560.1371098006
 20
121.734931787
 30
0.0
 10
559.5892915997
 20
121.2605073083
 30
0.0
 10
558.1052387311
 20
120.6925526872
 30
0.0
 10
556.5517446217
 20
120.9708775625
 30
0.0
 10
555.877830463
 20
121.3275512236
 30
0.0
  0
SPLINE
  5
4D3
100
AcDbEntity
  8
KONSTRUKTIONSELEMENTE
100
AcDbSpline
 62
7
  6
CONTINUOUS
 70
0
 71
3
 72
11
 73
7
 74
0
 42
0.0000001
 43
0.0000001
 44
0.0000000001
 40
0.0
 40
0.0
 40
0.0
 40
0.0
 40
0.2474803687
 40
0.4959793074
 40
0.7466457809
 40
1.0
 40
1.0
 40
1.0
 40
1.0
 10
549.4578917145
 20
123.3640688374
 30
0.0
 10
549.4576601853
 20
123.8721878169
 30
0.0
 10
549.5727520563
 20
124.8941198732
 30
0.0
 10
550.0799066695
 20
126.3534037983
 30
0.0
 10
550.8945981202
 20
127.6795277796
 30
0.0
 10
551.6121634234
 20
128.4366776794
 30
0.0
 10
552.005381817
 20
128.7772147975
 30
0.0
  0
SPLINE
  5
4D4
100
AcDbEntity
  8
KONSTRUKTIONSELEMENTE
100
AcDbSpline
 62
7
  6
CONTINUOUS
 70
0
 71
3
 72
15
 73
11
 74
0
 42
0.0000001
 43
0.0000001
 44
0.0000000001
 40
0.0
 40
0.0
 40
0.0
 40
0.0
 40
0.12323614
 40
0.2480335987
 40
0.373900227
 40
0.5003927364
 40
0.6268181839
 40
0.7525256837
 40
0.877011671
 40
1.0
 40
1.0
 40
1.0
 40
1.0
 10
563.4103781541
 20
117.9552870569
 30
0.0
 10
563.0173800506
 20
117.6149407156
 30
0.0
 10
562.1566623165
 20
117.0066962115
 30
0.0
 10
560.7141983089
 20
116.3479951607
 30
0.0
 10
559.1633756913
 20
115.95585204
 30
0.0
 10
557.5613790742
 20
115.8408800447
 30
0.0
 10
555.9644750299
 20
116.0067700832
 30
0.0
 10
554.4294223728
 20
116.448713266
 30
0.0
 10
553.0122170029
 20
117.1535765615
 30
0.0
 10
552.1752168296
 20
117.7903840052
 30
0.0
 10
551.7953788644
 20
118.1438247355
 30
0.0
  0
SPLINE
  5
4D5
100
AcDbEntity
  8
KONSTRUKTIONSELEMENTE
100
AcDbSpline
 62
7
  6
CONTINUOUS
 70
0
 71
3
 72
9
 73
5
 74
0
 42
0.0000001
 43
0.0000001
 44
0.0000000001
 40
0.0
 40
0.0
 40
0.0
 40
0.0
 40
0.4702695548
 40
1.0
 40
1.0
 40
1.0
 40
1.0
 10
554.8352767693
 20
131.2277017288
 30
0.0
 10
554.8674541321
 20
131.2555066711
 30
0.0
 10
554.9493083011
 20
131.2999850594
 30
0.0
 10
555.0404729941
 20
131.3121688603
 30
0.0
 10
555.0883664772
 20
131.313147259
 30
0.0
  0
SPLINE
  5
4D6
100
AcDbEntity
  8
KONSTRUKTIONSELEMENTE
100
AcDbSpline
 62
7
  6
CONTINUOUS
 70
0
 71
3
 72
15
 73
11
 74
0
 42
0.0000001
 43
0.0000001
 44
0.0000000001
 40
0.0
 40
0.0
 40
0.0
 40
0.0
 40
0.082699247
 40
0.1957940838
 40
0.333737466
 40
0.4862052534
 40
0.6408263759
 40
0.7848058501
 40
0.9071588123
 40
1.0
 40
1.0
 40
1.0
 40
1.0
 10
555.0883664772
 20
131.313147259
 30
0.0
 10
555.224690588
 20
131.3159321752
 30
0.0
 10
555.5449649283
 20
131.2248343783
 30
0.0
 10
556.0234491972
 20
130.9523276244
 30
0.0
 10
556.547421706
 20
130.5378609406
 30
0.0
 10
557.0664391491
 20
130.0174497891
 30
0.0
 10
557.5341511145
 20
129.4375567379
 30
0.0
 10
557.9085136552
 20
128.8503911416
 30
0.0
 10
558.1552873195
 20
128.31122166
 30
0.0
 10
558.2382100714
 20
127.9590254308
 30
0.0
 10
558.2382100714
 20
127.805951086
 30
0.0
  0
SPLINE
  5
4D7
100
AcDbEntity
  8
KONSTRUKTIONSELEMENTE
100
AcDbSpline
 62
7
  6
CONTINUOUS
 70
0
 71
3
 72
19
 73
15
 74
0
 42
0.0000001
 43
0.0000001
 44
0.0000000001
 40
0.0
 40
0.0
 40
0.0
 40
0.0
 40
0.0298938292
 40
0.0650835855
 40
0.108466288
 40
0.1609985436
 40
0.2222349321
 40
0.2911550146
 40
0.4456854225
 40
0.6095823449
 40
0.7660354067
 40
0.8997960834
 40
0.9545408033
 40
1.0
 40
1.0
 40
1.0
 40
1.0
 10
555.1888301599
 20
131.5338879467
 30
0.0
 10
555.2281898112
 20
131.5678992123
 30
0.0
 10
555.3348263478
 20
131.6187706839
 30
0.0
 10
555.526660212
 20
131.6244679543
 30
0.0
 10
555.7505923094
 20
131.5735152257
 30
0.0
 10
556.0035861507
 20
131.4672345449
 30
0.0
 10
556.280328209
 20
131.3096471686
 30
0.0
 10
556.6859693574
 20
131.0242762251
 30
0.0
 10
557.1896905677
 20
130.5729517627
 30
0.0
 10
557.7362367575
 20
129.9506325587
 30
0.0
 10
558.1844833617
 20
129.2979865139
 30
0.0
 10
558.453932001
 20
128.7569774606
 30
0.0
 10
558.5687720174
 20
128.3654977864
 30
0.0
 10
558.591763462
 20
128.1912415797
 30
0.0
 10
558.591763462
 20
128.1121373038
 30
0.0
  0
SPLINE
  5
4D8
100
AcDbEntity
  8
KONSTRUKTIONSELEMENTE
100
AcDbSpline
 62
7
  6
CONTINUOUS
 70
0
 71
3
 72
9
 73
5
 74
0
 42
0.0000001
 43
0.0000001
 44
0.0000000001
 40
0.0
 40
0.0
 40
0.0
 40
0.0
 40
0.546991612
 40
1.0
 40
1.0
 40
1.0
 40
1.0
 10
558.591763462
 20
128.1121373038
 30
0.0
 10
558.591763462
 20
128.0405518652
 30
0.0
 10
558.5768582431
 20
127.9076631689
 30
0.0
 10
558.5040210496
 20
127.791011476
 30
0.0
 10
558.4591628583
 20
127.7522488394
 30
0.0
  0
SPLINE
  5
4D9
100
AcDbEntity
  8
KONSTRUKTIONSELEMENTE
100
AcDbSpline
 62
7
  6
CONTINUOUS
 70
0
 71
3
 72
9
 73
5
 74
0
 42
0.0000001
 43
0.0000001
 44
0.0000000001
 40
0.0
 40
0.0
 40
0.0
 40
0.0
 40
0.272606519
 40
1.0
 40
1.0
 40
1.0
 40
1.0
 10
497.7954033857
 20
81.7190717526
 30
0.0
 10
497.8001932181
 20
81.7408486411
 30
0.0
 10
497.822259824
 20
81.8194850799
 30
0.0
 10
497.868163582
 20
81.892820529
 30
0.0
 10
497.9131808838
 20
81.9317206553
 30
0.0
  0
SPLINE
  5
4DA
100
AcDbEntity
  8
KONSTRUKTIONSELEMENTE
100
AcDbSpline
 62
7
  6
CONTINUOUS
 70
0
 71
3
 72
10
 73
6
 74
0
 42
0.0000001
 43
0.0000001
 44
0.0000000001
 40
0.0
 40
0.0
 40
0.0
 40
0.0
 40
0.2209805831
 40
0.4552103493
 40
1.0
 40
1.0
 40
1.0
 40
1.0
 10
509.6931931179
 20
78.9723444657
 30
0.0
 10
509.6930280965
 20
78.8340047686
 30
0.0
 10
509.6600662064
 20
78.5479966464
 30
0.0
 10
509.4500538683
 20
77.9538698044
 30
0.0
 10
509.1296799927
 20
77.5612017916
 30
0.0
 10
508.8718681646
 20
77.337930199
 30
0.0
  0
SPLINE
  5
4DB
100
AcDbEntity
  8
KONSTRUKTIONSELEMENTE
100
AcDbSpline
 62
7
  6
CONTINUOUS
 70
0
 71
3
 72
11
 73
7
 74
0
 42
0.0000001
 43
0.0000001
 44
0.0000000001
 40
0.0
 40
0.0
 40
0.0
 40
0.0
 40
0.2461844042
 40
0.4959427175
 40
0.7478763938
 40
1.0
 40
1.0
 40
1.0
 40
1.0
 10
500.7401401809
 20
84.3802132095
 30
0.0
 10
501.2386077284
 20
84.8118987686
 30
0.0
 10
502.3558185762
 20
85.5584411885
 30
0.0
 10
504.2503591174
 20
86.2593288429
 30
0.0
 10
506.2685390886
 20
86.5225780951
 30
0.0
 10
507.6260512051
 20
86.3971934972
 30
0.0
 10
508.2873438529
 20
86.2602715723
 30
0.0
  0
SPLINE
  5
4DC
100
AcDbEntity
  8
KONSTRUKTIONSELEMENTE
100
AcDbSpline
 62
7
  6
CONTINUOUS
 70
0
 71
3
 72
11
 73
7
 74
0
 42
0.0000001
 43
0.0000001
 44
0.0000000001
 40
0.0
 40
0.0
 40
0.0
 40
0.0
 40
0.2529889227
 40
0.5034781976
 40
0.7521869369
 40
1.0
 40
1.0
 40
1.0
 40
1.0
 10
512.4725490966
 20
84.0801310872
 30
0.0
 10
512.8183732302
 20
83.7446713431
 30
0.0
 10
513.4463262948
 20
83.0110758982
 30
0.0
 10
514.1538914971
 20
81.7550413197
 30
0.0
 10
514.5930550319
 20
80.3918187202
 30
0.0
 10
514.6924115771
 20
79.443370582
 30
0.0
 10
514.6926266206
 20
78.971431429
 30
0.0
  0
SPLINE
  5
4DD
100
AcDbEntity
  8
KONSTRUKTIONSELEMENTE
100
AcDbSpline
 62
7
  6
CONTINUOUS
 70
0
 71
3
 72
11
 73
7
 74
0
 42
0.0000001
 43
0.0000001
 44
0.0000000001
 40
0.0
 40
0.0
 40
0.0
 40
0.0
 40
0.2474803687
 40
0.4959793074
 40
0.7466457809
 40
1.0
 40
1.0
 40
1.0
 40
1.0
 10
514.6926266206
 20
78.971431429
 30
0.0
 10
514.6928581498
 20
78.4633124495
 30
0.0
 10
514.5777662788
 20
77.4413803932
 30
0.0
 10
514.0706116656
 20
75.9820964681
 30
0.0
 10
513.2559202149
 20
74.6559724868
 30
0.0
 10
512.5383549117
 20
73.898822587
 30
0.0
 10
512.1451365181
 20
73.5582854689
 30
0.0
  0
SPLINE
  5
4DE
100
AcDbEntity
  8
KONSTRUKTIONSELEMENTE
100
AcDbSpline
 62
7
  6
CONTINUOUS
 70
0
 71
3
 72
9
 73
5
 74
0
 42
0.0000001
 43
0.0000001
 44
0.0000000001
 40
0.0
 40
0.0
 40
0.0
 40
0.0
 40
0.2350561603
 40
1.0
 40
1.0
 40
1.0
 40
1.0
 10
504.0134085345
 20
80.6005684794
 30
0.0
 10
504.09263142
 20
80.6691775109
 30
0.0
 10
504.4453839405
 20
80.9426738404
 30
0.0
 10
504.8543404087
 20
81.1413067094
 30
0.0
 10
505.1782153425
 20
81.2481956268
 30
0.0
  0
SPLINE
  5
4DF
100
AcDbEntity
  8
KONSTRUKTIONSELEMENTE
100
AcDbSpline
 62
7
  6
CONTINUOUS
 70
0
 71
3
 72
9
 73
5
 74
0
 42
0.0000001
 43
0.0000001
 44
0.0000000001
 40
0.0
 40
0.0
 40
0.0
 40
0.0
 40
0.2578415756
 40
1.0
 40
1.0
 40
1.0
 40
1.0
 10
509.5942926096
 20
79.5629527469
 30
0.0
 10
509.610815871
 20
79.5140709839
 30
0.0
 10
509.667766845
 20
79.3221666017
 30
0.0
 10
509.6933702826
 20
79.1208640353
 30
0.0
 10
509.6931931179
 20
78.9723444657
 30
0.0
  0
SPLINE
  5
4E0
100
AcDbEntity
  8
KONSTRUKTIONSELEMENTE
100
AcDbSpline
 62
7
  6
CONTINUOUS
 70
0
 71
3
 72
9
 73
5
 74
0
 42
0.0000001
 43
0.0000001
 44
0.0000000001
 40
0.0
 40
0.0
 40
0.0
 40
0.0
 40
0.488259543
 40
1.0
 40
1.0
 40
1.0
 40
1.0
 10
502.8614605245
 20
72.1327644956
 30
0.0
 10
502.3045047113
 20
71.6504266126
 30
0.0
 10
500.7930122819
 20
71.0807980263
 30
0.0
 10
499.2170220921
 20
71.3834187788
 30
0.0
 10
498.5418002408
 20
71.7581092551
 30
0.0
  0
SPLINE
  5
4E1
100
AcDbEntity
  8
KONSTRUKTIONSELEMENTE
100
AcDbSpline
 62
7
  6
CONTINUOUS
 70
0
 71
3
 72
11
 73
7
 74
0
 42
0.0000001
 43
0.0000001
 44
0.0000000001
 40
0.0
 40
0.0
 40
0.0
 40
0.0
 40
0.2475050377
 40
0.4993831846
 40
0.7516489195
 40
1.0
 40
1.0
 40
1.0
 40
1.0
 10
506.134728878
 20
68.3531197655
 30
0.0
 10
505.3945684366
 20
67.7121220203
 30
0.0
 10
503.6467450873
 20
66.6905603258
 30
0.0
 10
500.6745733818
 20
66.1235921818
 30
0.0
 10
497.6739560777
 20
66.5351954077
 30
0.0
 10
495.8689054133
 20
67.4601474368
 30
0.0
 10
495.0900828752
 20
68.059076958
 30
0.0
  0
SPLINE
  5
4E2
100
AcDbEntity
  8
KONSTRUKTIONSELEMENTE
100
AcDbSpline
 62
7
  6
CONTINUOUS
 70
0
 71
3
 72
8
 73
4
 74
0
 42
0.0000001
 43
0.0000001
 44
0.0000000001
 40
0.0
 40
0.0
 40
0.0
 40
0.0
 40
1.0
 40
1.0
 40
1.0
 40
1.0
 10
497.7307763567
 20
81.7031959531
 30
0.0
 10
497.7577882245
 20
81.7080047861
 30
0.0
 10
497.7852863452
 20
81.7104195926
 30
0.0
 10
497.8127172011
 20
81.7109799676
 30
0.0
  0
SPLINE
  5
4E3
100
AcDbEntity
  8
KONSTRUKTIONSELEMENTE
100
AcDbSpline
 62
7
  6
CONTINUOUS
 70
0
 71
3
 72
11
 73
7
 74
0
 42
0.0000001
 43
0.0000001
 44
0.0000000001
 40
0.0
 40
0.0
 40
0.0
 40
0.0
 40
0.1694946017
 40
0.4030001049
 40
0.6876088378
 40
1.0
 40
1.0
 40
1.0
 40
1.0
 10
497.8127172011
 20
81.7109799676
 30
0.0
 10
497.9552997058
 20
81.7138927343
 30
0.0
 10
498.2912068008
 20
81.6143640114
 30
0.0
 10
498.7906040069
 20
81.3219469377
 30
0.0
 10
499.335299472
 20
80.879399908
 30
0.0
 10
499.6854186498
 20
80.5178145861
 30
0.0
 10
499.8576657798
 20
80.3192738667
 30
0.0
  0
SPLINE
  5
4E4
100
AcDbEntity
  8
KONSTRUKTIONSELEMENTE
100
AcDbSpline
 62
7
  6
CONTINUOUS
 70
0
 71
3
 72
16
 73
12
 74
0
 42
0.0000001
 43
0.0000001
 44
0.0000000001
 40
0.0
 40
0.0
 40
0.0
 40
0.0
 40
0.0609081192
 40
0.0976087898
 40
0.139975978
 40
0.2431954886
 40
0.3698819862
 40
0.5157852635
 40
0.6744445213
 40
0.8384866928
 40
1.0
 40
1.0
 40
1.0
 40
1.0
 10
497.9131808838
 20
81.9317206553
 30
0.0
 10
497.9679698627
 20
81.9790646345
 30
0.0
 10
498.0858078597
 20
82.0204222208
 30
0.0
 10
498.2522106667
 20
82.0173692599
 30
0.0
 10
498.4662466908
 20
81.9767330042
 30
0.0
 10
498.7671369142
 20
81.8503490998
 30
0.0
 10
499.1487250953
 20
81.6162240459
 30
0.0
 10
499.5522736699
 20
81.2983486563
 30
0.0
 10
499.9571059918
 20
80.9146697073
 30
0.0
 10
500.3404876935
 20
80.4844286465
 30
0.0
 10
500.5742713268
 20
80.1752884533
 30
0.0
 10
500.6828984657
 20
80.0169538378
 30
0.0
  0
SPLINE
  5
4E5
100
AcDbEntity
  8
KONSTRUKTIONSELEMENTE
100
AcDbSpline
 62
7
  6
CONTINUOUS
 70
0
 71
3
 72
9
 73
5
 74
0
 42
0.0000001
 43
0.0000001
 44
0.0000000001
 40
0.0
 40
0.0
 40
0.0
 40
0.0
 40
0.2622844894
 40
1.0
 40
1.0
 40
1.0
 40
1.0
 10
500.6828984657
 20
80.0169538378
 30
0.0
 10
500.7187764829
 20
79.9646581397
 30
0.0
 10
500.8524412269
 20
79.7631781533
 30
0.0
 10
500.9738408674
 20
79.5533191737
 30
0.0
 10
501.0532179873
 20
79.3935757055
 30
0.0
  0
SPLINE
  5
4E6
100
AcDbEntity
  8
KONSTRUKTIONSELEMENTE
100
AcDbSpline
 62
7
  6
CONTINUOUS
 70
0
 71
3
 72
9
 73
5
 74
0
 42
0.0000001
 43
0.0000001
 44
0.0000000001
 40
0.0
 40
0.0
 40
0.0
 40
0.0
 40
0.244567645
 40
1.0
 40
1.0
 40
1.0
 40
1.0
 10
554.4078799716
 20
114.6568968577
 30
0.0
 10
554.5339801979
 20
114.7661028571
 30
0.0
 10
555.0423035079
 20
115.2209914812
 30
0.0
 10
555.5228338627
 20
115.7067529162
 30
0.0
 10
555.8696768568
 20
116.0878027405
 30
0.0
  0
SPLINE
  5
4E7
100
AcDbEntity
  8
KONSTRUKTIONSELEMENTE
100
AcDbSpline
 62
7
  6
CONTINUOUS
 70
0
 71
3
 72
13
 73
9
 74
0
 42
0.0000001
 43
0.0000001
 44
0.0000000001
 40
0.0
 40
0.0
 40
0.0
 40
0.0
 40
0.2450798975
 40
0.4867641821
 40
0.6110076878
 40
0.7383847014
 40
0.8684495212
 40
1.0
 40
1.0
 40
1.0
 40
1.0
 10
558.9711466636
 20
121.0890513221
 30
0.0
 10
559.0816823841
 20
121.4414766686
 30
0.0
 10
559.2523116792
 20
122.1590420651
 30
0.0
 10
559.2683162586
 20
123.0906564607
 30
0.0
 10
559.1186785909
 20
123.8219804869
 30
0.0
 10
558.9073517856
 20
124.3603348829
 30
0.0
 10
558.5956004885
 20
124.8608963863
 30
0.0
 10
558.3223697928
 20
125.1495383823
 30
0.0
 10
558.1725503914
 20
125.2793830306
 30
0.0
  0
SPLINE
  5
4E8
100
AcDbEntity
  8
KONSTRUKTIONSELEMENTE
100
AcDbSpline
 62
7
  6
CONTINUOUS
 70
0
 71
3
 72
24
 73
20
 74
0
 42
0.0000001
 43
0.0000001
 44
0.0000000001
 40
0.0
 40
0.0
 40
0.0
 40
0.0
 40
0.0399684528
 40
0.0656722898
 40
0.0749868115
 40
0.0817678249
 40
0.0908545801
 40
0.1035924024
 40
0.1198773536
 40
0.1395387897
 40
0.1623831141
 40
0.1882178473
 40
0.2480971592
 40
0.3177404014
 40
0.3960771619
 40
0.4821888571
 40
0.5751564087
 40
0.7783595522
 40
1.0
 40
1.0
 40
1.0
 40
1.0
 10
555.994495164
 20
121.5331104785
 30
0.0
 10
556.0246063203
 20
121.530284334
 30
0.0
 10
556.0810467588
 20
121.5289907191
 30
0.0
 10
556.1202743634
 20
121.5279537012
 30
0.0
 10
556.174450582
 20
121.5348341707
 30
0.0
 10
556.1451683398
 20
121.5289688604
 30
0.0
 10
556.1279316071
 20
121.5240387888
 30
0.0
 10
556.0987614825
 20
121.5154486948
 30
0.0
 10
556.0645286307
 20
121.5035409005
 30
0.0
 10
556.0226936252
 20
121.487784917
 30
0.0
 10
555.9748674229
 20
121.4682895939
 30
0.0
 10
555.8995048394
 20
121.4355186954
 30
0.0
 10
555.7933829978
 20
121.3848806921
 30
0.0
 10
555.6545447264
 20
121.3108640779
 30
0.0
 10
555.5015367461
 20
121.221547482
 30
0.0
 10
555.3366962369
 20
121.1177128939
 30
0.0
 10
555.0969296229
 20
120.955808906
 30
0.0
 10
554.782555512
 20
120.7215802593
 30
0.0
 10
554.5346581765
 20
120.5166900037
 30
0.0
 10
554.4078799716
 20
120.4068968577
 30
0.0
  0
SPLINE
  5
4E9
100
AcDbEntity
  8
KONSTRUKTIONSELEMENTE
100
AcDbSpline
 62
7
  6
CONTINUOUS
 70
0
 71
3
 72
14
 73
10
 74
0
 42
0.0000001
 43
0.0000001
 44
0.0000000001
 40
0.0
 40
0.0
 40
0.0
 40
0.0
 40
0.1261639273
 40
0.2490859875
 40
0.3675996524
 40
0.4838289665
 40
0.6024561707
 40
0.7271761049
 40
1.0
 40
1.0
 40
1.0
 40
1.0
 10
558.1725503914
 20
125.2793830306
 30
0.0
 10
557.9346761896
 20
125.4855425254
 30
0.0
 10
557.395211042
 20
125.8184362168
 30
0.0
 10
556.4940946617
 20
126.0462509602
 30
0.0
 10
555.5933144935
 20
126.0279079846
 30
0.0
 10
554.7299680101
 20
125.8272517329
 30
0.0
 10
553.8971555498
 20
125.4860105713
 30
0.0
 10
552.7698284237
 20
124.8592800154
 30
0.0
 10
551.976496118
 20
124.2541971239
 30
0.0
 10
551.4619384535
 20
123.8085771148
 30
0.0
  0
SPLINE
  5
4EA
100
AcDbEntity
  8
KONSTRUKTIONSELEMENTE
100
AcDbSpline
 62
7
  6
CONTINUOUS
 70
0
 71
3
 72
11
 73
7
 74
0
 42
0.0000001
 43
0.0000001
 44
0.0000000001
 40
0.0
 40
0.0
 40
0.0
 40
0.0
 40
0.2560606671
 40
0.5094317095
 40
0.7578652676
 40
1.0
 40
1.0
 40
1.0
 40
1.0
 10
537.0906663159
 20
104.0005044064
 30
0.0
 10
537.2371073545
 20
103.8735876987
 30
0.0
 10
537.5538768135
 20
103.6486188561
 30
0.0
 10
538.0805412744
 20
103.4133828567
 30
0.0
 10
538.6298264036
 20
103.2776592444
 30
0.0
 10
539.0019720446
 20
103.2509891248
 30
0.0
 10
539.1852179903
 20
103.2514144546
 30
0.0
  0
SPLINE
  5
4EB
100
AcDbEntity
  8
KONSTRUKTIONSELEMENTE
100
AcDbSpline
 62
7
  6
CONTINUOUS
 70
0
 71
3
 72
14
 73
10
 74
0
 42
0.0000001
 43
0.0000001
 44
0.0000000001
 40
0.0
 40
0.0
 40
0.0
 40
0.0
 40
0.3076593044
 40
0.4655740208
 40
0.6174499256
 40
0.7563299601
 40
0.8741882754
 40
0.9604979356
 40
1.0
 40
1.0
 40
1.0
 40
1.0
 10
543.8012782538
 20
111.2213103222
 30
0.0
 10
543.3510168552
 20
110.8313725127
 30
0.0
 10
542.7143263494
 20
110.1880200376
 30
0.0
 10
541.9564636279
 20
109.2630408704
 30
0.0
 10
541.4513973936
 20
108.5552854863
 30
0.0
 10
541.0398442429
 20
107.8789934505
 30
0.0
 10
540.7420053459
 20
107.2837236836
 30
0.0
 10
540.578317176
 20
106.8410530907
 30
0.0
 10
540.519371532
 20
106.6029223696
 30
0.0
 10
540.5130897291
 20
106.5267033333
 30
0.0
  0
SPLINE
  5
4EC
100
AcDbEntity
  8
KONSTRUKTIONSELEMENTE
100
AcDbSpline
 62
7
  6
CONTINUOUS
 70
0
 71
3
 72
17
 73
13
 74
0
 42
0.0000001
 43
0.0000001
 44
0.0000000001
 40
0.0
 40
0.0
 40
0.0
 40
0.0
 40
0.1381799396
 40
0.2793498645
 40
0.4167408576
 40
0.5447967012
 40
0.6614058717
 40
0.770730898
 40
0.825836819
 40
0.8824126798
 40
0.9407184285
 40
1.0
 40
1.0
 40
1.0
 40
1.0
 10
540.8553367357
 20
114.6229905793
 30
0.0
 10
540.4205105301
 20
114.2464200391
 30
0.0
 10
539.582580786
 20
113.4367327662
 30
0.0
 10
538.4526533842
 20
112.1172327175
 30
0.0
 10
537.4770995133
 20
110.7305575497
 30
0.0
 10
536.7052748249
 20
109.3354074973
 30
0.0
 10
536.1729361372
 20
107.9556118967
 30
0.0
 10
535.9774390454
 20
106.787313375
 30
0.0
 10
536.0443970637
 20
105.8651379332
 30
0.0
 10
536.2304053646
 20
105.1770032978
 30
0.0
 10
536.5729630958
 20
104.5306915341
 30
0.0
 10
536.9041783047
 20
104.1621288021
 30
0.0
 10
537.0906663159
 20
104.0005044064
 30
0.0
  0
SPLINE
  5
4ED
100
AcDbEntity
  8
KONSTRUKTIONSELEMENTE
100
AcDbSpline
 62
7
  6
CONTINUOUS
 70
0
 71
3
 72
9
 73
5
 74
0
 42
0.0000001
 43
0.0000001
 44
0.0000000001
 40
0.0
 40
0.0
 40
0.0
 40
0.0
 40
0.2442277043
 40
1.0
 40
1.0
 40
1.0
 40
1.0
 10
523.2951815994
 20
87.7125096871
 30
0.0
 10
523.4509306641
 20
87.8473923336
 30
0.0
 10
524.0775274174
 20
88.4124297553
 30
0.0
 10
524.6620904511
 20
89.0237574812
 30
0.0
 10
525.0787319597
 20
89.5063846851
 30
0.0
  0
SPLINE
  5
4EE
100
AcDbEntity
  8
KONSTRUKTIONSELEMENTE
100
AcDbSpline
 62
7
  6
CONTINUOUS
 70
0
 71
3
 72
13
 73
9
 74
0
 42
0.0000001
 43
0.0000001
 44
0.0000000001
 40
0.0
 40
0.0
 40
0.0
 40
0.0
 40
0.2465994456
 40
0.4878359344
 40
0.611665412
 40
0.738649883
 40
0.8685336703
 40
1.0
 40
1.0
 40
1.0
 40
1.0
 10
527.8016089008
 20
93.9707892793
 30
0.0
 10
527.9260638209
 20
94.3368440232
 30
0.0
 10
528.1220068459
 20
95.0803262025
 30
0.0
 10
528.1641450839
 20
96.0499129078
 30
0.0
 10
528.0256561385
 20
96.8122035145
 30
0.0
 10
527.8164732133
 20
97.3748859105
 30
0.0
 10
527.4985005216
 20
97.8986505811
 30
0.0
 10
527.2156145064
 20
98.2000004911
 30
0.0
 10
527.0598520192
 20
98.33499586
 30
0.0
  0
SPLINE
  5
4EF
100
AcDbEntity
  8
KONSTRUKTIONSELEMENTE
100
AcDbSpline
 62
7
  6
CONTINUOUS
 70
0
 71
3
 72
24
 73
20
 74
0
 42
0.0000001
 43
0.0000001
 44
0.0000000001
 40
0.0
 40
0.0
 40
0.0
 40
0.0
 40
0.0399684528
 40
0.0656722898
 40
0.0749868115
 40
0.0817678249
 40
0.0908545801
 40
0.1035924024
 40
0.1198773536
 40
0.1395387897
 40
0.1623831141
 40
0.1882178473
 40
0.2480971592
 40
0.3177404014
 40
0.3960771619
 40
0.4821888571
 40
0.5751564087
 40
0.7783595522
 40
1.0
 40
1.0
 40
1.0
 40
1.0
 10
524.8817967918
 20
94.5887233079
 30
0.0
 10
524.9119079481
 20
94.5858971634
 30
0.0
 10
524.9683483866
 20
94.5846035485
 30
0.0
 10
525.0075759912
 20
94.5835665306
 30
0.0
 10
525.0617522098
 20
94.5904470001
 30
0.0
 10
525.0324699676
 20
94.5845816898
 30
0.0
 10
525.0152332349
 20
94.5796516182
 30
0.0
 10
524.9860631103
 20
94.5710615242
 30
0.0
 10
524.9518302584
 20
94.5591537299
 30
0.0
 10
524.909995253
 20
94.5433977463
 30
0.0
 10
524.8621690507
 20
94.5239024233
 30
0.0
 10
524.7868064672
 20
94.4911315248
 30
0.0
 10
524.6806846256
 20
94.4404935215
 30
0.0
 10
524.5418463542
 20
94.3664769073
 30
0.0
 10
524.3888383739
 20
94.2771603114
 30
0.0
 10
524.2239978647
 20
94.1733257233
 30
0.0
 10
523.9842312507
 20
94.0114217353
 30
0.0
 10
523.6698571398
 20
93.7771930887
 30
0.0
 10
523.4219598042
 20
93.5723028331
 30
0.0
 10
523.2951815994
 20
93.4625096871
 30
0.0
  0
SPLINE
  5
4F0
100
AcDbEntity
  8
KONSTRUKTIONSELEMENTE
100
AcDbSpline
 62
7
  6
CONTINUOUS
 70
0
 71
3
 72
14
 73
10
 74
0
 42
0.0000001
 43
0.0000001
 44
0.0000000001
 40
0.0
 40
0.0
 40
0.0
 40
0.0
 40
0.1261639273
 40
0.2490859875
 40
0.3675996524
 40
0.4838289665
 40
0.6024561707
 40
0.7271761049
 40
1.0
 40
1.0
 40
1.0
 40
1.0
 10
527.0598520192
 20
98.33499586
 30
0.0
 10
526.8219778174
 20
98.5411553547
 30
0.0
 10
526.2825126698
 20
98.8740490462
 30
0.0
 10
525.3813962895
 20
99.1018637896
 30
0.0
 10
524.4806161213
 20
99.083520814
 30
0.0
 10
523.6172696379
 20
98.8828645623
 30
0.0
 10
522.7844571776
 20
98.5416234007
 30
0.0
 10
521.6571300515
 20
97.9148928448
 30
0.0
 10
520.8637977458
 20
97.3098099533
 30
0.0
 10
520.3492400812
 20
96.8641899441
 30
0.0
  0
SPLINE
  5
4F1
100
AcDbEntity
  8
KONSTRUKTIONSELEMENTE
100
AcDbSpline
 62
7
  6
CONTINUOUS
 70
0
 71
3
 72
9
 73
5
 74
0
 42
0.0000001
 43
0.0000001
 44
0.0000000001
 40
0.0
 40
0.0
 40
0.0
 40
0.0
 40
0.5068172679
 40
1.0
 40
1.0
 40
1.0
 40
1.0
 10
505.9779679436
 20
77.0561172358
 30
0.0
 10
506.2217235274
 20
76.8448604976
 30
0.0
 10
506.7757288921
 20
76.5059657582
 30
0.0
 10
507.4042418745
 20
76.3544198871
 30
0.0
 10
507.7166264971
 20
76.3237737577
 30
0.0
  0
SPLINE
  5
4F2
100
AcDbEntity
  8
KONSTRUKTIONSELEMENTE
100
AcDbSpline
 62
7
  6
CONTINUOUS
 70
0
 71
3
 72
14
 73
10
 74
0
 42
0.0000001
 43
0.0000001
 44
0.0000000001
 40
0.0
 40
0.0
 40
0.0
 40
0.0
 40
0.3076593044
 40
0.4655740208
 40
0.6174499256
 40
0.7563299601
 40
0.8741882754
 40
0.9604979356
 40
1.0
 40
1.0
 40
1.0
 40
1.0
 10
512.6885798816
 20
84.2769231516
 30
0.0
 10
512.238318483
 20
83.886985342
 30
0.0
 10
511.6016279772
 20
83.243632867
 30
0.0
 10
510.8437652557
 20
82.3186536998
 30
0.0
 10
510.3386990214
 20
81.6108983157
 30
0.0
 10
509.9271458707
 20
80.9346062799
 30
0.0
 10
509.6293069737
 20
80.3393365129
 30
0.0
 10
509.4656188038
 20
79.89666592
 30
0.0
 10
509.4066731598
 20
79.658535199
 30
0.0
 10
509.4003913569
 20
79.5823161627
 30
0.0
  0
SPLINE
  5
4F3
100
AcDbEntity
  8
KONSTRUKTIONSELEMENTE
100
AcDbSpline
 62
7
  6
CONTINUOUS
 70
0
 71
3
 72
17
 73
13
 74
0
 42
0.0000001
 43
0.0000001
 44
0.0000000001
 40
0.0
 40
0.0
 40
0.0
 40
0.0
 40
0.1381799396
 40
0.2793498645
 40
0.4167408576
 40
0.5447967012
 40
0.6614058717
 40
0.770730898
 40
0.825836819
 40
0.8824126798
 40
0.9407184285
 40
1.0
 40
1.0
 40
1.0
 40
1.0
 10
509.7426383634
 20
87.6786034087
 30
0.0
 10
509.3078121579
 20
87.3020328685
 30
0.0
 10
508.4698824138
 20
86.4923455955
 30
0.0
 10
507.339955012
 20
85.1728455469
 30
0.0
 10
506.3644011411
 20
83.7861703791
 30
0.0
 10
505.5925764527
 20
82.3910203267
 30
0.0
 10
505.060237765
 20
81.0112247261
 30
0.0
 10
504.8647406732
 20
79.8429262044
 30
0.0
 10
504.9316986915
 20
78.9207507625
 30
0.0
 10
505.1177069924
 20
78.2326161272
 30
0.0
 10
505.4602647236
 20
77.5863043635
 30
0.0
 10
505.7914799325
 20
77.2177416315
 30
0.0
 10
505.9779679436
 20
77.0561172358
 30
0.0
  0
SPLINE
  5
4F4
100
AcDbEntity
  8
KONSTRUKTIONSELEMENTE
100
AcDbSpline
 62
7
  6
CONTINUOUS
 70
0
 71
3
 72
11
 73
7
 74
0
 42
0.0000001
 43
0.0000001
 44
0.0000000001
 40
0.0
 40
0.0
 40
0.0
 40
0.0
 40
0.247258039
 40
0.4956520534
 40
0.7463451021
 40
1.0
 40
1.0
 40
1.0
 40
1.0
 10
518.7720340177
 20
96.5731698439
 30
0.0
 10
518.7718385509
 20
97.0631751232
 30
0.0
 10
518.8829143504
 20
98.0489254247
 30
0.0
 10
519.37282586
 20
99.4566998919
 30
0.0
 10
520.159865575
 20
100.7367887686
 30
0.0
 10
520.8531314282
 20
101.4678556619
 30
0.0
 10
521.2331235577
 20
101.7969384993
 30
0.0
  0
SPLINE
  5
4F5
100
AcDbEntity
  8
KONSTRUKTIONSELEMENTE
100
AcDbSpline
 62
7
  6
CONTINUOUS
 70
0
 71
3
 72
11
 73
7
 74
0
 42
0.0000001
 43
0.0000001
 44
0.0000000001
 40
0.0
 40
0.0
 40
0.0
 40
0.0
 40
0.247258039
 40
0.4956520534
 40
0.7463451021
 40
1.0
 40
1.0
 40
1.0
 40
1.0
 10
545.3784843174
 20
105.7623304225
 30
0.0
 10
545.3786797842
 20
105.2723251432
 30
0.0
 10
545.2676039847
 20
104.2865748417
 30
0.0
 10
544.7776924751
 20
102.8788003745
 30
0.0
 10
543.9906527601
 20
101.5987114978
 30
0.0
 10
543.2973869069
 20
100.8676446045
 30
0.0
 10
542.9173947774
 20
100.5385617671
 30
0.0
  0
SPLINE
  5
4F6
100
AcDbEntity
  8
KONSTRUKTIONSELEMENTE
100
AcDbSpline
 62
7
  6
CONTINUOUS
 70
0
 71
3
 72
9
 73
5
 74
0
 42
0.0000001
 43
0.0000001
 44
0.0000000001
 40
0.0
 40
0.0
 40
0.0
 40
0.0
 40
0.2390508737
 40
1.0
 40
1.0
 40
1.0
 40
1.0
 10
535.0103973414
 20
107.7586460329
 30
0.0
 10
535.1060418092
 20
107.8278276237
 30
0.0
 10
535.5208858862
 20
108.0965800172
 30
0.0
 10
535.9897356441
 20
108.279348155
 30
0.0
 10
536.3548190496
 20
108.3682552006
 30
0.0
  0
SPLINE
  5
4F7
100
AcDbEntity
  8
KONSTRUKTIONSELEMENTE
100
AcDbSpline
 62
7
  6
CONTINUOUS
 70
0
 71
3
 72
9
 73
5
 74
0
 42
0.0000001
 43
0.0000001
 44
0.0000000001
 40
0.0
 40
0.0
 40
0.0
 40
0.0
 40
0.2598514407
 40
1.0
 40
1.0
 40
1.0
 40
1.0
 10
540.696999594
 20
106.6167454485
 30
0.0
 10
540.7272809561
 20
106.5469096982
 30
0.0
 10
540.8305846785
 20
106.2726659475
 30
0.0
 10
540.8790350061
 20
105.9773513021
 30
0.0
 10
540.8790472321
 20
105.7605395857
 30
0.0
  0
SPLINE
  5
4F8
100
AcDbEntity
  8
KONSTRUKTIONSELEMENTE
100
AcDbSpline
 62
7
  6
CONTINUOUS
 70
0
 71
3
 72
9
 73
5
 74
0
 42
0.0000001
 43
0.0000001
 44
0.0000000001
 40
0.0
 40
0.0
 40
0.0
 40
0.0
 40
0.4614411915
 40
1.0
 40
1.0
 40
1.0
 40
1.0
 10
540.8790472321
 20
105.7605395857
 30
0.0
 10
540.8790652928
 20
105.4402574036
 30
0.0
 10
540.7075714714
 20
104.7397971721
 30
0.0
 10
540.2540261721
 20
104.1849573452
 30
0.0
 10
539.9714532592
 20
103.9402420242
 30
0.0
  0
SPLINE
  5
4F9
100
AcDbEntity
  8
KONSTRUKTIONSELEMENTE
100
AcDbSpline
 62
7
  6
CONTINUOUS
 70
0
 71
3
 72
9
 73
5
 74
0
 42
0.0000001
 43
0.0000001
 44
0.0000000001
 40
0.0
 40
0.0
 40
0.0
 40
0.0
 40
0.4898470903
 40
1.0
 40
1.0
 40
1.0
 40
1.0
 10
529.3648515414
 20
94.7546554888
 30
0.0
 10
528.7671426122
 20
94.237024372
 30
0.0
 10
527.1505229211
 20
93.6244807496
 30
0.0
 10
525.4643340599
 20
93.9549065044
 30
0.0
 10
524.7463255472
 20
94.3581051928
 30
0.0
  0
SPLINE
  5
4FA
100
AcDbEntity
  8
KONSTRUKTIONSELEMENTE
100
AcDbSpline
 62
7
  6
CONTINUOUS
 70
0
 71
3
 72
11
 73
7
 74
0
 42
0.0000001
 43
0.0000001
 44
0.0000000001
 40
0.0
 40
0.0
 40
0.0
 40
0.0
 40
0.245958326
 40
0.4956468363
 40
0.7476883331
 40
1.0
 40
1.0
 40
1.0
 40
1.0
 10
531.8397252755
 20
110.9825250347
 30
0.0
 10
532.317419229
 20
111.3962201337
 30
0.0
 10
533.3871689444
 20
112.11316106
 30
0.0
 10
535.2008913898
 20
112.7924341946
 30
0.0
 10
537.1351406773
 20
113.0582639751
 30
0.0
 10
538.4388265465
 20
112.9507076369
 30
0.0
 10
539.0750543662
 20
112.8264249517
 30
0.0
  0
SPLINE
  5
4FB
100
AcDbEntity
  8
KONSTRUKTIONSELEMENTE
100
AcDbSpline
 62
7
  6
CONTINUOUS
 70
0
 71
3
 72
11
 73
7
 74
0
 42
0.0000001
 43
0.0000001
 44
0.0000000001
 40
0.0
 40
0.0
 40
0.0
 40
0.0
 40
0.2532343944
 40
0.50377714
 40
0.752387739
 40
1.0
 40
1.0
 40
1.0
 40
1.0
 10
543.2341044012
 20
110.692192885
 30
0.0
 10
543.568228054
 20
110.3681311
 30
0.0
 10
544.1748200236
 20
109.6598384428
 30
0.0
 10
544.8585097364
 20
108.4475686313
 30
0.0
 10
545.2824823303
 20
107.1323203417
 30
0.0
 10
545.3783027634
 20
106.2174582952
 30
0.0
 10
545.3784843174
 20
105.7623304225
 30
0.0
  0
SPLINE
  5
4FC
100
AcDbEntity
  8
KONSTRUKTIONSELEMENTE
100
AcDbSpline
 62
7
  6
CONTINUOUS
 70
0
 71
3
 72
13
 73
9
 74
0
 42
0.0000001
 43
0.0000001
 44
0.0000000001
 40
0.0
 40
0.0
 40
0.0
 40
0.0
 40
0.1233769833
 40
0.2483733747
 40
0.5003778919
 40
0.7521575176
 40
0.8768774439
 40
1.0
 40
1.0
 40
1.0
 40
1.0
 10
532.3107930596
 20
91.3529752317
 30
0.0
 10
531.9302851353
 20
91.0234457029
 30
0.0
 10
531.0965728178
 20
90.4342402297
 30
0.0
 10
529.2314901678
 20
89.5814948316
 30
0.0
 10
526.6426218341
 20
89.1642603349
 30
0.0
 10
524.0675311961
 20
89.65527833
 30
0.0
 10
522.2315536714
 20
90.5623702749
 30
0.0
 10
521.41848516
 20
91.1763294646
 30
0.0
 10
521.0495637632
 20
91.517253284
 30
0.0
  0
SPLINE
  5
4FD
100
AcDbEntity
  8
KONSTRUKTIONSELEMENTE
100
AcDbSpline
 62
7
  6
CONTINUOUS
 70
0
 71
3
 72
9
 73
5
 74
0
 42
0.0000001
 43
0.0000001
 44
0.0000000001
 40
0.0
 40
0.0
 40
0.0
 40
0.0
 40
0.492588009
 40
1.0
 40
1.0
 40
1.0
 40
1.0
 10
580.0011609568
 20
128.4541716154
 30
0.0
 10
581.0204848335
 20
129.3369319873
 30
0.0
 10
583.0192036751
 20
131.2115869392
 30
0.0
 10
584.8816578482
 20
133.2210430315
 30
0.0
 10
585.7907864699
 20
134.271213623
 30
0.0
  0
SPLINE
  5
4FE
100
AcDbEntity
  8
KONSTRUKTIONSELEMENTE
100
AcDbSpline
 62
7
  6
CONTINUOUS
 70
0
 71
3
 72
13
 73
9
 74
0
 42
0.0000001
 43
0.0000001
 44
0.0000000001
 40
0.0
 40
0.0
 40
0.0
 40
0.0
 40
0.2667628821
 40
0.3920436224
 40
0.5139394646
 40
0.7545240682
 40
0.8767544759
 40
1.0
 40
1.0
 40
1.0
 40
1.0
 10
594.9814349408
 20
149.8278182494
 30
0.0
 10
595.2052511941
 20
150.6458232003
 30
0.0
 10
595.4596320707
 20
151.8733421216
 30
0.0
 10
595.5552057098
 20
153.5075986149
 30
0.0
 10
595.4702859846
 20
155.0576522586
 30
0.0
 10
595.0600375265
 20
156.5772794699
 30
0.0
 10
594.2531661815
 20
157.9055111807
 30
0.0
 10
593.7160327017
 20
158.4812531763
 30
0.0
 10
593.41959134
 20
158.7374554906
 30
0.0
  0
SPLINE
  5
4FF
100
AcDbEntity
  8
KONSTRUKTIONSELEMENTE
100
AcDbSpline
 62
7
  6
CONTINUOUS
 70
0
 71
3
 72
19
 73
15
 74
0
 42
0.0000001
 43
0.0000001
 44
0.0000000001
 40
0.0
 40
0.0
 40
0.0
 40
0.0
 40
0.1463712
 40
0.2968003233
 40
0.4441138256
 40
0.5815946947
 40
0.6450087779
 40
0.7043267543
 40
0.7594923199
 40
0.8108474075
 40
0.8592559102
 40
0.9060360039
 40
0.9526828682
 40
1.0
 40
1.0
 40
1.0
 40
1.0
 10
576.0732389325
 20
153.4897452915
 30
0.0
 10
574.7672595533
 20
152.3587339722
 30
0.0
 10
572.233976433
 20
149.9304427058
 30
0.0
 10
568.7756643693
 20
145.9829635367
 30
0.0
 10
565.7337849945
 20
141.8353775705
 30
0.0
 10
563.6235284152
 20
138.2983106985
 30
0.0
 10
562.2946658343
 20
135.5271739945
 30
0.0
 10
561.5194592207
 20
133.5735795041
 30
0.0
 10
560.9503317316
 20
131.6978936047
 30
0.0
 10
560.6005059991
 20
129.8989069562
 30
0.0
 10
560.4958867802
 20
128.166051081
 30
0.0
 10
560.6839877565
 20
126.4916679213
 30
0.0
 10
561.234265917
 20
124.9071254409
 30
0.0
 10
561.8798019546
 20
123.9819447785
 30
0.0
 10
562.2650547467
 20
123.5775992897
 30
0.0
  0
SPLINE
  5
500
100
AcDbEntity
  8
KONSTRUKTIONSELEMENTE
100
AcDbSpline
 62
7
  6
CONTINUOUS
 70
0
 71
3
 72
29
 73
25
 74
0
 42
0.0000001
 43
0.0000001
 44
0.0000000001
 40
0.0
 40
0.0
 40
0.0
 40
0.0
 40
0.0038425111
 40
0.006877826
 40
0.0083401759
 40
0.0090978557
 40
0.0122169244
 40
0.0179337516
 40
0.0265411311
 40
0.0382974786
 40
0.0531437932
 40
0.0709517797
 40
0.0916105212
 40
0.1150179064
 40
0.1410570151
 40
0.1696072658
 40
0.2337651466
 40
0.3066512757
 40
0.3874470915
 40
0.475421617
 40
0.5698903892
 40
0.6702089349
 40
0.7757710248
 40
1.0
 40
1.0
 40
1.0
 40
1.0
 10
589.5025358025
 20
154.1999885019
 30
0.0
 10
589.5139334314
 20
154.1912944051
 30
0.0
 10
589.5374468039
 20
154.1747113366
 30
0.0
 10
589.5539395639
 20
154.1610207126
 30
0.0
 10
589.5839425958
 20
154.1425084614
 30
0.0
 10
589.5570235257
 20
154.1486827785
 30
0.0
 10
589.5289754512
 20
154.1573641734
 30
0.0
 10
589.4605340044
 20
154.1688571351
 30
0.0
 10
589.3656122674
 20
154.1775988951
 30
0.0
 10
589.2332886024
 20
154.1795627229
 30
0.0
 10
589.0680281734
 20
154.1719632578
 30
0.0
 10
588.8699448634
 20
154.151771075
 30
0.0
 10
588.6418389744
 20
154.1159513853
 30
0.0
 10
588.3857817803
 20
154.0621406033
 30
0.0
 10
588.1038600497
 20
153.9897855702
 30
0.0
 10
587.6794494619
 20
153.8624102862
 30
0.0
 10
587.098754572
 20
153.6499398588
 30
0.0
 10
586.3542970825
 20
153.3229166812
 30
0.0
 10
585.5498533361
 20
152.9150167894
 30
0.0
 10
584.6962628634
 20
152.428734305
 30
0.0
 10
583.802808682
 20
151.8673634165
 30
0.0
 10
582.8778379432
 20
151.2344733956
 30
0.0
 10
581.5864707259
 20
150.2816650703
 30
0.0
 10
580.6335092833
 20
149.5018013302
 30
0.0
 10
580.0011609568
 20
148.9541716154
 30
0.0
  0
SPLINE
  5
501
100
AcDbEntity
  8
KONSTRUKTIONSELEMENTE
100
AcDbSpline
 62
7
  6
CONTINUOUS
 70
0
 71
3
 72
9
 73
5
 74
0
 42
0.0000001
 43
0.0000001
 44
0.0000000001
 40
0.0
 40
0.0
 40
0.0
 40
0.0
 40
0.2422151737
 40
1.0
 40
1.0
 40
1.0
 40
1.0
 10
576.0732389325
 20
132.9897452915
 30
0.0
 10
576.460737017
 20
133.3253284765
 30
0.0
 10
578.0363989838
 20
134.7385374713
 30
0.0
 10
579.5200945021
 20
136.2535127125
 30
0.0
 10
580.5917136032
 20
137.4466618212
 30
0.0
  0
SPLINE
  5
502
100
AcDbEntity
  8
KONSTRUKTIONSELEMENTE
100
AcDbSpline
 62
7
  6
CONTINUOUS
 70
0
 71
3
 72
9
 73
5
 74
0
 42
0.0000001
 43
0.0000001
 44
0.0000000001
 40
0.0
 40
0.0
 40
0.0
 40
0.0
 40
0.3088814152
 40
1.0
 40
1.0
 40
1.0
 40
1.0
 10
589.5296521129
 20
153.358942348
 30
0.0
 10
589.532209769
 20
153.4287133493
 30
0.0
 10
589.5358966621
 20
153.65462867
 30
0.0
 10
589.5206473143
 20
153.8815775279
 30
0.0
 10
589.4931366039
 20
154.0353527097
 30
0.0
  0
SPLINE
  5
503
100
AcDbEntity
  8
KONSTRUKTIONSELEMENTE
100
AcDbSpline
 62
7
  6
CONTINUOUS
 70
0
 71
3
 72
9
 73
5
 74
0
 42
0.0000001
 43
0.0000001
 44
0.0000000001
 40
0.0
 40
0.0
 40
0.0
 40
0.0
 40
0.2922909709
 40
1.0
 40
1.0
 40
1.0
 40
1.0
 10
589.4931366039
 20
154.0353527097
 30
0.0
 10
589.4906325762
 20
154.0493493426
 30
0.0
 10
589.4815567456
 20
154.0971407117
 30
0.0
 10
589.4706388868
 20
154.1445969346
 30
0.0
 10
589.461572327
 20
154.1778090141
 30
0.0
  0
SPLINE
  5
504
100
AcDbEntity
  8
KONSTRUKTIONSELEMENTE
100
AcDbSpline
 62
7
  6
CONTINUOUS
 70
0
 71
3
 72
9
 73
5
 74
0
 42
0.0000001
 43
0.0000001
 44
0.0000000001
 40
0.0
 40
0.0
 40
0.0
 40
0.0
 40
0.2129668983
 40
1.0
 40
1.0
 40
1.0
 40
1.0
 10
566.5924355812
 20
127.7790940263
 30
0.0
 10
566.5997370946
 20
127.7779785763
 30
0.0
 10
566.6340871123
 20
127.773170868
 30
0.0
 10
566.6686744256
 20
127.7701246128
 30
0.0
 10
566.6959222205
 20
127.7684984092
 30
0.0
  0
SPLINE
  5
505
100
AcDbEntity
  8
KONSTRUKTIONSELEMENTE
100
AcDbSpline
 62
7
  6
CONTINUOUS
 70
0
 71
3
 72
9
 73
5
 74
0
 42
0.0000001
 43
0.0000001
 44
0.0000000001
 40
0.0
 40
0.0
 40
0.0
 40
0.0
 40
0.23512902
 40
1.0
 40
1.0
 40
1.0
 40
1.0
 10
566.6959222205
 20
127.7684984092
 30
0.0
 10
566.7011673478
 20
127.7681853694
 30
0.0
 10
566.7234821463
 20
127.766978406
 30
0.0
 10
566.745822079
 20
127.7662527314
 30
0.0
 10
566.7629115693
 20
127.7659227041
 30
0.0
  0
SPLINE
  5
506
100
AcDbEntity
  8
KONSTRUKTIONSELEMENTE
100
AcDbSpline
 62
7
  6
CONTINUOUS
 70
0
 71
3
 72
9
 73
5
 74
0
 42
0.0000001
 43
0.0000001
 44
0.0000000001
 40
0.0
 40
0.0
 40
0.0
 40
0.0
 40
0.4751668021
 40
1.0
 40
1.0
 40
1.0
 40
1.0
 10
571.8371941403
 20
129.8057422351
 30
0.0
 10
572.5480924796
 20
130.2530781485
 30
0.0
 10
573.9994342527
 20
131.2662185859
 30
0.0
 10
575.3719445787
 20
132.3824065655
 30
0.0
 10
576.0732389325
 20
132.9897452915
 30
0.0
  0
SPLINE
  5
507
100
AcDbEntity
  8
KONSTRUKTIONSELEMENTE
100
AcDbSpline
 62
7
  6
CONTINUOUS
 70
0
 71
3
 72
17
 73
13
 74
0
 42
0.0000001
 43
0.0000001
 44
0.0000000001
 40
0.0
 40
0.0
 40
0.0
 40
0.0
 40
0.054272456
 40
0.1081063965
 40
0.1614219537
 40
0.2144031746
 40
0.3216905582
 40
0.4354499083
 40
0.5594736346
 40
0.6952881283
 40
0.8426555219
 40
1.0
 40
1.0
 40
1.0
 40
1.0
 10
593.41959134
 20
158.7374554906
 30
0.0
 10
593.1520654992
 20
158.9686672864
 30
0.0
 10
592.5743187252
 20
159.3803371425
 30
0.0
 10
591.6131576772
 20
159.8205635374
 30
0.0
 10
590.6000491781
 20
160.088799724
 30
0.0
 10
589.2113400974
 20
160.232623861
 30
0.0
 10
587.4170204511
 20
160.0593385678
 30
0.0
 10
585.2532196519
 20
159.4180174441
 30
0.0
 10
583.0307513627
 20
158.4112888285
 30
0.0
 10
580.7380940315
 20
157.0689272188
 30
0.0
 10
578.3887649538
 20
155.4155875822
 30
0.0
 10
576.8481615441
 20
154.160847959
 30
0.0
 10
576.0732389325
 20
153.4897452915
 30
0.0
  0
SPLINE
  5
508
100
AcDbEntity
  8
KONSTRUKTIONSELEMENTE
100
AcDbSpline
 62
7
  6
CONTINUOUS
 70
0
 71
3
 72
22
 73
18
 74
0
 42
0.0000001
 43
0.0000001
 44
0.0000000001
 40
0.0
 40
0.0
 40
0.0
 40
0.0
 40
0.162321669
 40
0.3306247035
 40
0.4967012546
 40
0.6523451692
 40
0.7237421349
 40
0.7894880903
 40
0.848533679
 40
0.8997486967
 40
0.941866517
 40
0.9590746233
 40
0.9734537589
 40
0.9848015971
 40
0.9930216311
 40
0.9980486857
 40
1.0
 40
1.0
 40
1.0
 40
1.0
 10
580.0011609568
 20
148.9541716154
 30
0.0
 10
578.9469694847
 20
148.04121502
 30
0.0
 10
576.8851365896
 20
146.0815563509
 30
0.0
 10
574.0320836728
 20
142.902694513
 30
0.0
 10
571.4699264289
 20
139.5567896639
 30
0.0
 10
569.6430713663
 20
136.7098837023
 30
0.0
 10
568.4485345564
 20
134.4949436142
 30
0.0
 10
567.732935807
 20
132.9677501295
 30
0.0
 10
567.1812691042
 20
131.5583849953
 30
0.0
 10
566.800473589
 20
130.3044224229
 30
0.0
 10
566.6110871594
 20
129.3714186272
 30
0.0
 10
566.5480170579
 20
128.7409102489
 30
0.0
 10
566.5369483699
 20
128.3717959934
 30
0.0
 10
566.5533221412
 20
128.0802796146
 30
0.0
 10
566.5853058112
 20
127.8708438084
 30
0.0
 10
566.6180105634
 20
127.744565771
 30
0.0
 10
566.6370872762
 20
127.6873298172
 30
0.0
 10
566.6449081223
 20
127.6725014301
 30
0.0
  0
SPLINE
  5
509
100
AcDbEntity
  8
KONSTRUKTIONSELEMENTE
100
AcDbSpline
 62
7
  6
CONTINUOUS
 70
0
 71
3
 72
11
 73
7
 74
0
 42
0.0000001
 43
0.0000001
 44
0.0000000001
 40
0.0
 40
0.0
 40
0.0
 40
0.0
 40
0.2097914905
 40
0.4448755675
 40
0.7092742741
 40
1.0
 40
1.0
 40
1.0
 40
1.0
 10
567.9041825996
 20
121.834212475
 30
0.0
 10
568.872864292
 20
121.9532050648
 30
0.0
 10
570.8900462969
 20
122.5074521146
 30
0.0
 10
573.8694318801
 20
123.9468277847
 30
0.0
 10
576.9584089715
 20
125.9542382801
 30
0.0
 10
578.9787868283
 20
127.5687696479
 30
0.0
 10
580.0011609568
 20
128.4541716154
 30
0.0
  0
LINE
  5
50A
100
AcDbEntity
  8
KONSTRUKTIONSELEMENTE
100
AcDbLine
 62
7
  6
CONTINUOUS
 10
598.5791146678
 20
155.1777403399
 11
598.5808258499
 21
155.2124307195
  0
LINE
  5
50B
100
AcDbEntity
  8
KONSTRUKTIONSELEMENTE
100
AcDbLine
 62
7
  6
CONTINUOUS
 10
598.5808258499
 20
155.2124307195
 11
598.5842050875
 21
155.2758445794
  0
LINE
  5
50C
100
AcDbEntity
  8
KONSTRUKTIONSELEMENTE
100
AcDbLine
 62
7
  6
CONTINUOUS
 10
598.7117870818
 20
155.5790431683
 11
598.5842050875
 21
155.2758445794
  0
LINE
  5
50D
100
AcDbEntity
  8
KONSTRUKTIONSELEMENTE
100
AcDbLine
 62
7
  6
CONTINUOUS
 10
599.9851385162
 20
160.9983688526
 11
599.8478816191
 21
160.5910288605
  0
LINE
  5
50E
100
AcDbEntity
  8
KONSTRUKTIONSELEMENTE
100
AcDbLine
 62
7
  6
CONTINUOUS
 10
599.8478816191
 20
160.5910288605
 11
599.6741195483
 21
160.0697173777
  0
LINE
  5
50F
100
AcDbEntity
  8
KONSTRUKTIONSELEMENTE
100
AcDbLine
 62
7
  6
CONTINUOUS
 10
599.6741195483
 20
160.0697173777
 11
599.147646549
 21
158.4815115107
  0
LINE
  5
510
100
AcDbEntity
  8
KONSTRUKTIONSELEMENTE
100
AcDbLine
 62
7
  6
CONTINUOUS
 10
598.9702246967
 20
157.9440188843
 11
599.147646549
 21
158.4815115107
  0
LINE
  5
511
100
AcDbEntity
  8
KONSTRUKTIONSELEMENTE
100
AcDbLine
 62
7
  6
CONTINUOUS
 10
598.8261335138
 20
157.5043157523
 11
598.9702246967
 21
157.9440188843
  0
SPLINE
  5
512
100
AcDbEntity
  8
KONSTRUKTIONSELEMENTE
100
AcDbSpline
 62
7
  6
CONTINUOUS
 70
0
 71
3
 72
8
 73
4
 74
0
 42
0.0000001
 43
0.0000001
 44
0.0000000001
 40
0.0
 40
0.0
 40
0.0
 40
0.0
 40
1.0
 40
1.0
 40
1.0
 40
1.0
 10
598.5862821683
 20
156.4637952537
 30
0.0
 10
598.5697120194
 20
156.5267355371
 30
0.0
 10
598.5623724028
 20
156.5929788914
 30
0.0
 10
598.5658044449
 20
156.6579732774
 30
0.0
  0
LINE
  5
513
100
AcDbEntity
  8
KONSTRUKTIONSELEMENTE
100
AcDbLine
 62
7
  6
CONTINUOUS
 10
598.669289909
 20
156.4427963424
 11
598.6746087209
 21
156.4637959755
  0
SPLINE
  5
514
100
AcDbEntity
  8
0
100
AcDbSpline
 62
7
  6
CONTINUOUS
 70
0
 71
3
 72
13
 73
9
 74
0
 42
0.0000001
 43
0.0000001
 44
0.0000000001
 40
0.0
 40
0.0
 40
0.0
 40
0.0
 40
0.1163020077
 40
0.2340377015
 40
0.3543777481
 40
0.4780373202
 40
0.7344007909
 40
1.0
 40
1.0
 40
1.0
 40
1.0
 10
598.8037332994
 20
114.1686982599
 30
0.0
 10
598.8037332994
 20
113.842785695
 30
0.0
 10
598.878978876
 20
113.1845747134
 30
0.0
 10
599.2118067272
 20
112.2407481902
 30
0.0
 10
599.7507216447
 20
111.3729742844
 30
0.0
 10
600.7237541423
 20
110.3516161727
 30
0.0
 10
602.3347494491
 20
109.4360251855
 30
0.0
 10
603.8094168342
 20
109.1890521882
 30
0.0
 10
604.5537042392
 20
109.1890521882
 30
0.0
  0
SPLINE
  5
515
100
AcDbEntity
  8
0
100
AcDbSpline
 62
7
  6
CONTINUOUS
 70
0
 71
3
 72
13
 73
9
 74
0
 42
0.0000001
 43
0.0000001
 44
0.0000000001
 40
0.0
 40
0.0
 40
0.0
 40
0.0
 40
0.2655992091
 40
0.5219626798
 40
0.6456222519
 40
0.7659622985
 40
0.8836979923
 40
1.0
 40
1.0
 40
1.0
 40
1.0
 10
604.5537042392
 20
109.1890521882
 30
0.0
 10
605.2979916441
 20
109.1890521882
 30
0.0
 10
606.7726590292
 20
109.4360251855
 30
0.0
 10
608.383654336
 20
110.3516161727
 30
0.0
 10
609.3566868336
 20
111.3729742844
 30
0.0
 10
609.8956017511
 20
112.2407481902
 30
0.0
 10
610.2284296023
 20
113.1845747134
 30
0.0
 10
610.303675179
 20
113.842785695
 30
0.0
 10
610.303675179
 20
114.1686982599
 30
0.0
  0
SPLINE
  5
516
100
AcDbEntity
  8
KONSTRUKTIONSELEMENTE
100
AcDbSpline
 62
7
  6
CONTINUOUS
 70
0
 71
3
 72
9
 73
5
 74
0
 42
0.0000001
 43
0.0000001
 44
0.0000000001
 40
0.0
 40
0.0
 40
0.0
 40
0.0
 40
0.2398803349
 40
1.0
 40
1.0
 40
1.0
 40
1.0
 10
616.440496692
 20
102.3901309371
 30
0.0
 10
616.5594439623
 20
102.555684905
 30
0.0
 10
617.0428112637
 20
103.2548299311
 30
0.0
 10
617.4814328038
 20
103.9840637114
 30
0.0
 10
617.798987258
 20
104.5465816665
 30
0.0
  0
SPLINE
  5
517
100
AcDbEntity
  8
KONSTRUKTIONSELEMENTE
100
AcDbSpline
 62
7
  6
CONTINUOUS
 70
0
 71
3
 72
10
 73
6
 74
0
 42
0.0000001
 43
0.0000001
 44
0.0000000001
 40
0.0
 40
0.0
 40
0.0
 40
0.0
 40
0.4956209785
 40
0.7555164176
 40
1.0
 40
1.0
 40
1.0
 40
1.0
 10
617.8838312581
 20
103.3083764896
 30
0.0
 10
618.0530745812
 20
102.8277543996
 30
0.0
 10
618.29140259
 20
102.0866224174
 30
0.0
 10
618.5036615688
 20
101.0797651048
 30
0.0
 10
618.5537042392
 20
100.5612492522
 30
0.0
 10
618.5537042392
 20
100.3098948075
 30
0.0
  0
SPLINE
  5
518
100
AcDbEntity
  8
KONSTRUKTIONSELEMENTE
100
AcDbSpline
 62
7
  6
CONTINUOUS
 70
0
 71
3
 72
10
 73
6
 74
0
 42
0.0000001
 43
0.0000001
 44
0.0000000001
 40
0.0
 40
0.0
 40
0.0
 40
0.0
 40
0.5588530378
 40
0.7988507358
 40
1.0
 40
1.0
 40
1.0
 40
1.0
 10
617.798987258
 20
104.5465816665
 30
0.0
 10
618.0215425223
 20
104.9408174596
 30
0.0
 10
618.3045374538
 20
105.5293242345
 30
0.0
 10
618.5150582555
 20
106.3136825499
 30
0.0
 10
618.5537042392
 20
106.671248456
 30
0.0
 10
618.5537042392
 20
106.8341959406
 30
0.0
  0
SPLINE
  5
519
100
AcDbEntity
  8
BEZUGSACHSEN
100
AcDbSpline
 62
7
  6
CONTINUOUS
 70
0
 71
3
 72
9
 73
5
 74
0
 42
0.0000001
 43
0.0000001
 44
0.0000000001
 40
0.0
 40
0.0
 40
0.0
 40
0.0
 40
0.4971032038
 40
1.0
 40
1.0
 40
1.0
 40
1.0
 10
590.5537042392
 20
87.441775793
 30
0.0
 10
590.5537042392
 20
87.0363651164
 30
0.0
 10
590.6798331961
 20
86.2160925904
 30
0.0
 10
591.043547935
 20
85.4715526818
 30
0.0
 10
591.2731937178
 20
85.1317379664
 30
0.0
  0
SPLINE
  5
51A
100
AcDbEntity
  8
BEZUGSACHSEN
100
AcDbSpline
 62
7
  6
CONTINUOUS
 70
0
 71
3
 72
9
 73
5
 74
0
 42
0.0000001
 43
0.0000001
 44
0.0000000001
 40
0.0
 40
0.0
 40
0.0
 40
0.0
 40
0.5028158989
 40
1.0
 40
1.0
 40
1.0
 40
1.0
 10
591.2575523297
 20
121.7233984561
 30
0.0
 10
591.032667178
 20
121.3860707286
 30
0.0
 10
590.6769778931
 20
120.6483764602
 30
0.0
 10
590.5537042392
 20
119.83752404
 30
0.0
 10
590.5537042392
 20
119.4366474523
 30
0.0
  0
SPLINE
  5
51B
100
AcDbEntity
  8
BEZUGSACHSEN
100
AcDbSpline
 62
7
  6
CONTINUOUS
 70
0
 71
3
 72
9
 73
5
 74
0
 42
0.0000001
 43
0.0000001
 44
0.0000000001
 40
0.0
 40
0.0
 40
0.0
 40
0.0
 40
0.245143411
 40
1.0
 40
1.0
 40
1.0
 40
1.0
 10
602.0399746192
 20
165.6422857542
 30
0.0
 10
602.0592635607
 20
165.7005947379
 30
0.0
 10
602.1424693457
 20
165.9369473582
 30
0.0
 10
602.2429171633
 20
166.16710182
 30
0.0
 10
602.3263426259
 20
166.3368232302
 30
0.0
  0
SPLINE
  5
51C
100
AcDbEntity
  8
RUNDUNGEN
100
AcDbSpline
 62
7
  6
CONTINUOUS
 70
0
 71
3
 72
9
 73
5
 74
0
 42
0.0000001
 43
0.0000001
 44
0.0000000001
 40
0.0
 40
0.0
 40
0.0
 40
0.0
 40
0.4971032038
 40
1.0
 40
1.0
 40
1.0
 40
1.0
 10
618.5537042392
 20
87.441775793
 30
0.0
 10
618.5537042392
 20
87.0363651164
 30
0.0
 10
618.4275752822
 20
86.2160925904
 30
0.0
 10
618.0638605433
 20
85.4715526818
 30
0.0
 10
617.8342147606
 20
85.1317379664
 30
0.0
  0
SPLINE
  5
51D
100
AcDbEntity
  8
RUNDUNGEN
100
AcDbSpline
 62
7
  6
CONTINUOUS
 70
0
 71
3
 72
9
 73
5
 74
0
 42
0.0000001
 43
0.0000001
 44
0.0000000001
 40
0.0
 40
0.0
 40
0.0
 40
0.0
 40
0.5028158989
 40
1.0
 40
1.0
 40
1.0
 40
1.0
 10
617.8498561486
 20
121.7233984561
 30
0.0
 10
618.0747413003
 20
121.3860707286
 30
0.0
 10
618.4304305852
 20
120.6483764602
 30
0.0
 10
618.5537042392
 20
119.83752404
 30
0.0
 10
618.5537042392
 20
119.4366474523
 30
0.0
  0
SPLINE
  5
51E
100
AcDbEntity
  8
BEZUGSACHSEN
100
AcDbSpline
 62
7
  6
CONTINUOUS
 70
0
 71
3
 72
9
 73
5
 74
0
 42
0.0000001
 43
0.0000001
 44
0.0000000001
 40
0.0
 40
0.0
 40
0.0
 40
0.0
 40
0.2541958975
 40
1.0
 40
1.0
 40
1.0
 40
1.0
 10
613.8614809539
 20
99.7387416506
 30
0.0
 10
614.1101951301
 20
99.9304514006
 30
0.0
 10
615.0621970984
 20
100.7181080837
 30
0.0
 10
615.9029027549
 20
101.6418934267
 30
0.0
 10
616.440496692
 20
102.3901309371
 30
0.0
  0
SPLINE
  5
51F
100
AcDbEntity
  8
BEZUGSACHSEN
100
AcDbSpline
 62
7
  6
CONTINUOUS
 70
0
 71
3
 72
17
 73
13
 74
0
 42
0.0000001
 43
0.0000001
 44
0.0000000001
 40
0.0
 40
0.0
 40
0.0
 40
0.0
 40
0.0585309297
 40
0.1182345091
 40
0.2412696431
 40
0.3691863516
 40
0.5000000021
 40
0.6308136521
 40
0.7587303595
 40
0.8817654921
 40
0.9414690709
 40
1.0
 40
1.0
 40
1.0
 40
1.0
 10
615.3819009977
 20
101.1240571237
 30
0.0
 10
615.1827744614
 20
100.6405851704
 30
0.0
 10
614.6950960891
 20
99.6968526377
 30
0.0
 10
613.4002581118
 20
97.9640376919
 30
0.0
 10
611.223597669
 20
96.1675223834
 30
0.0
 10
608.0443341635
 20
94.8199067569
 30
0.0
 10
604.5537037688
 20
94.3572197931
 30
0.0
 10
601.0630734158
 20
94.8199070006
 30
0.0
 10
597.8838100323
 20
96.1675228512
 30
0.0
 10
595.7071497538
 20
97.9640383167
 30
0.0
 10
594.4123119394
 20
99.6968533549
 30
0.0
 10
593.9246336562
 20
100.6405859215
 30
0.0
 10
593.7255071658
 20
101.1240578881
 30
0.0
  0
SPLINE
  5
520
100
AcDbEntity
  8
0
100
AcDbSpline
 62
7
  6
CONTINUOUS
 70
0
 71
3
 72
9
 73
5
 74
0
 42
0.0000001
 43
0.0000001
 44
0.0000000001
 40
0.0
 40
0.0
 40
0.0
 40
0.0
 40
0.245143411
 40
1.0
 40
1.0
 40
1.0
 40
1.0
 10
607.0674338591
 20
165.6422857542
 30
0.0
 10
607.0481449177
 20
165.7005947379
 30
0.0
 10
606.9649391326
 20
165.9369473582
 30
0.0
 10
606.864491315
 20
166.16710182
 30
0.0
 10
606.7810658524
 20
166.3368232302
 30
0.0
  0
SPLINE
  5
521
100
AcDbEntity
  8
BEZUGSACHSEN
100
AcDbSpline
 62
7
  6
CONTINUOUS
 70
0
 71
3
 72
9
 73
5
 74
0
 42
0.0000001
 43
0.0000001
 44
0.0000000001
 40
0.0
 40
0.0
 40
0.0
 40
0.0
 40
0.2463738429
 40
1.0
 40
1.0
 40
1.0
 40
1.0
 10
592.6669117863
 20
102.3901309371
 30
0.0
 10
592.8443408311
 20
102.1431804833
 30
0.0
 10
593.6024330345
 20
101.168439677
 30
0.0
 10
594.5065584355
 20
100.3089590302
 30
0.0
 10
595.2431055295
 20
99.740917445
 30
0.0
  0
LINE
  5
522
100
AcDbEntity
  8
KONSTRUKTIONSELEMENTE
100
AcDbLine
 62
7
  6
CONTINUOUS
 10
610.3212020159
 20
157.1476221212
 11
610.2195942422
 21
157.4538225639
  0
LINE
  5
523
100
AcDbEntity
  8
KONSTRUKTIONSELEMENTE
100
AcDbLine
 62
7
  6
CONTINUOUS
 10
610.2195942422
 20
157.4538225639
 11
610.0422197511
 21
157.9883232279
  0
LINE
  5
524
100
AcDbEntity
  8
KONSTRUKTIONSELEMENTE
100
AcDbLine
 62
7
  6
CONTINUOUS
 10
610.0422197511
 20
157.9883232279
 11
610.0186865283
 21
158.0592358232
  0
LINE
  5
525
100
AcDbEntity
  8
KONSTRUKTIONSELEMENTE
100
AcDbLine
 62
7
  6
CONTINUOUS
 10
610.0186865283
 20
158.0592358232
 11
609.0912642858
 21
160.8534359841
  0
LINE
  5
526
100
AcDbEntity
  8
KONSTRUKTIONSELEMENTE
100
AcDbLine
 62
7
  6
CONTINUOUS
 10
609.1196187037
 20
161.0060804806
 11
609.1222699622
 21
160.9983688526
  0
LINE
  5
527
100
AcDbEntity
  8
KONSTRUKTIONSELEMENTE
100
AcDbLine
 62
7
  6
CONTINUOUS
 10
609.1222699622
 20
160.9983688526
 11
609.156813383
 21
160.8959852547
  0
LINE
  5
528
100
AcDbEntity
  8
KONSTRUKTIONSELEMENTE
100
AcDbLine
 62
7
  6
CONTINUOUS
 10
609.156813383
 20
160.8959852547
 11
609.1912040311
 21
160.7939673967
  0
LINE
  5
529
100
AcDbEntity
  8
KONSTRUKTIONSELEMENTE
100
AcDbLine
 62
7
  6
CONTINUOUS
 10
609.1912040311
 20
160.7939673967
 11
609.2254418692
 21
160.6923152687
  0
LINE
  5
52A
100
AcDbEntity
  8
KONSTRUKTIONSELEMENTE
100
AcDbLine
 62
7
  6
CONTINUOUS
 10
610.4280211909
 20
157.0484312171
 11
610.3917777246
 21
157.16144157
  0
LINE
  5
52B
100
AcDbEntity
  8
KONSTRUKTIONSELEMENTE
100
AcDbLine
 62
7
  6
CONTINUOUS
 10
610.3917777246
 20
157.16144157
 11
610.3552389641
 21
157.2750924662
  0
LINE
  5
52C
100
AcDbEntity
  8
KONSTRUKTIONSELEMENTE
100
AcDbLine
 62
7
  6
CONTINUOUS
 10
610.3552389641
 20
157.2750924662
 11
610.2812749645
 21
157.5043157523
  0
LINE
  5
52D
100
AcDbEntity
  8
KONSTRUKTIONSELEMENTE
100
AcDbLine
 62
7
  6
CONTINUOUS
 10
610.1408228648
 20
157.4276824893
 11
609.9635145914
 21
157.9622051224
  0
SPLINE
  5
52E
100
AcDbEntity
  8
BEZUGSACHSEN
100
AcDbSpline
 62
7
  6
CONTINUOUS
 70
0
 71
3
 72
9
 73
5
 74
0
 42
0.0000001
 43
0.0000001
 44
0.0000000001
 40
0.0
 40
0.0
 40
0.0
 40
0.0
 40
0.2398803349
 40
1.0
 40
1.0
 40
1.0
 40
1.0
 10
592.6669117863
 20
102.3901309371
 30
0.0
 10
592.547964516
 20
102.555684905
 30
0.0
 10
592.0645972147
 20
103.2548299311
 30
0.0
 10
591.6259756746
 20
103.9840637114
 30
0.0
 10
591.3084212203
 20
104.5465816665
 30
0.0
  0
LINE
  5
52F
100
AcDbEntity
  8
KONSTRUKTIONSELEMENTE
100
AcDbLine
 62
7
  6
CONTINUOUS
 10
610.2845728634
 20
156.9728580402
 11
610.2488444489
 21
157.0859896262
  0
LINE
  5
530
100
AcDbEntity
  8
KONSTRUKTIONSELEMENTE
100
AcDbLine
 62
7
  6
CONTINUOUS
 10
610.2488444489
 20
157.0859896262
 11
610.1408228648
 21
157.4276824893
  0
LINE
  5
531
100
AcDbEntity
  8
KONSTRUKTIONSELEMENTE
100
AcDbLine
 62
7
  6
CONTINUOUS
 10
610.430544737
 20
156.4726896259
 11
610.394497559
 21
156.5966729123
  0
LINE
  5
532
100
AcDbEntity
  8
KONSTRUKTIONSELEMENTE
100
AcDbLine
 62
7
  6
CONTINUOUS
 10
610.394497559
 20
156.5966729123
 11
610.3581532975
 21
156.7213621043
  0
LINE
  5
533
100
AcDbEntity
  8
KONSTRUKTIONSELEMENTE
100
AcDbLine
 62
7
  6
CONTINUOUS
 10
610.3581532975
 20
156.7213621043
 11
610.2845728634
 21
156.9728580402
  0
LINE
  5
534
100
AcDbEntity
  8
KONSTRUKTIONSELEMENTE
100
AcDbLine
 62
7
  6
CONTINUOUS
 10
610.5424051422
 20
155.9388596268
 11
610.5422449136
 21
155.9615315949
  0
SPLINE
  5
535
100
AcDbEntity
  8
BEZUGSACHSEN
100
AcDbSpline
 62
7
  6
CONTINUOUS
 70
0
 71
3
 72
10
 73
6
 74
0
 42
0.0000001
 43
0.0000001
 44
0.0000000001
 40
0.0
 40
0.0
 40
0.0
 40
0.0
 40
0.4956209785
 40
0.7555164176
 40
1.0
 40
1.0
 40
1.0
 40
1.0
 10
591.2235772202
 20
103.3083764896
 30
0.0
 10
591.0543338972
 20
102.8277543996
 30
0.0
 10
590.8160058883
 20
102.0866224174
 30
0.0
 10
590.6037469095
 20
101.0797651048
 30
0.0
 10
590.5537042392
 20
100.5612492522
 30
0.0
 10
590.5537042392
 20
100.3098948075
 30
0.0
  0
SPLINE
  5
536
100
AcDbEntity
  8
BEZUGSACHSEN
100
AcDbSpline
 62
7
  6
CONTINUOUS
 70
0
 71
3
 72
10
 73
6
 74
0
 42
0.0000001
 43
0.0000001
 44
0.0000000001
 40
0.0
 40
0.0
 40
0.0
 40
0.0
 40
0.5588530378
 40
0.7988507358
 40
1.0
 40
1.0
 40
1.0
 40
1.0
 10
591.3084212203
 20
104.5465816665
 30
0.0
 10
591.0858659561
 20
104.9408174596
 30
0.0
 10
590.8028710246
 20
105.5293242345
 30
0.0
 10
590.5923502228
 20
106.3136825499
 30
0.0
 10
590.5537042392
 20
106.671248456
 30
0.0
 10
590.5537042392
 20
106.8341959406
 30
0.0
  0
LINE
  5
537
100
AcDbEntity
  8
KONSTRUKTIONSELEMENTE
100
AcDbLine
 62
7
  6
CONTINUOUS
 10
609.9724098083
 20
157.2820464037
 11
609.8750680332
 21
157.5655377636
  0
LINE
  5
538
100
AcDbEntity
  8
KONSTRUKTIONSELEMENTE
100
AcDbLine
 62
7
  6
CONTINUOUS
 10
609.8750680332
 20
157.5655377636
 11
609.7086889663
 21
158.0500737413
  0
LINE
  5
539
100
AcDbEntity
  8
KONSTRUKTIONSELEMENTE
100
AcDbLine
 62
7
  6
CONTINUOUS
 10
609.7086889663
 20
158.0500737413
 11
609.703402944
 21
158.0654676182
  0
LINE
  5
53A
100
AcDbEntity
  8
KONSTRUKTIONSELEMENTE
100
AcDbLine
 62
7
  6
CONTINUOUS
 10
609.703402944
 20
158.0654676182
 11
609.5979950826
 21
158.3724311816
  0
LINE
  5
53B
100
AcDbEntity
  8
KONSTRUKTIONSELEMENTE
100
AcDbLine
 62
7
  6
CONTINUOUS
 10
609.5979950826
 20
158.3724311816
 11
609.4654742572
 21
158.7583421737
  0
LINE
  5
53C
100
AcDbEntity
  8
KONSTRUKTIONSELEMENTE
100
AcDbLine
 62
7
  6
CONTINUOUS
 10
609.4654742572
 20
158.7583421737
 11
608.9235955658
 21
160.3362340684
  0
LINE
  5
53D
100
AcDbEntity
  8
KONSTRUKTIONSELEMENTE
100
AcDbLine
 62
7
  6
CONTINUOUS
 10
608.9235955658
 20
160.3362340684
 11
608.8826281162
 21
160.4555207558
  0
LINE
  5
53E
100
AcDbEntity
  8
KONSTRUKTIONSELEMENTE
100
AcDbLine
 62
7
  6
CONTINUOUS
 10
609.9724098083
 20
157.2820464037
 11
610.114166682
 21
156.8952377685
  0
LINE
  5
53F
100
AcDbEntity
  8
KONSTRUKTIONSELEMENTE
100
AcDbLine
 62
7
  6
CONTINUOUS
 10
610.114166682
 20
156.8952377685
 11
610.201826619
 21
156.6818586931
  0
LINE
  5
540
100
AcDbEntity
  8
KONSTRUKTIONSELEMENTE
100
AcDbLine
 62
7
  6
CONTINUOUS
 10
610.201826619
 20
156.6818586931
 11
610.221672474
 21
156.63347139
  0
LINE
  5
541
100
AcDbEntity
  8
KONSTRUKTIONSELEMENTE
100
AcDbLine
 62
7
  6
CONTINUOUS
 10
608.8748371551
 20
161.1356794745
 11
608.9174178827
 21
161.0115846442
  0
LINE
  5
542
100
AcDbEntity
  8
KONSTRUKTIONSELEMENTE
100
AcDbLine
 62
7
  6
CONTINUOUS
 10
608.9174178827
 20
161.0115846442
 11
609.0844522984
 21
160.5247699706
  0
LINE
  5
543
100
AcDbEntity
  8
KONSTRUKTIONSELEMENTE
100
AcDbLine
 62
7
  6
CONTINUOUS
 10
609.0844522984
 20
160.5247699706
 11
609.9635145914
 21
157.9622051224
  0
LINE
  5
544
100
AcDbEntity
  8
KONSTRUKTIONSELEMENTE
100
AcDbLine
 62
7
  6
CONTINUOUS
 10
609.584563661
 20
156.7024899761
 11
609.0573099029
 21
158.1394047281
  0
LINE
  5
545
100
AcDbEntity
  8
KONSTRUKTIONSELEMENTE
100
AcDbLine
 62
7
  6
CONTINUOUS
 10
610.53343788
 20
154.1160436373
 11
609.7954467552
 21
156.1277241827
  0
LINE
  5
546
100
AcDbEntity
  8
KONSTRUKTIONSELEMENTE
100
AcDbLine
 62
7
  6
CONTINUOUS
 10
609.1573994563
 20
158.9393351822
 11
609.1834459978
 21
158.8763480516
  0
LINE
  5
547
100
AcDbEntity
  8
KONSTRUKTIONSELEMENTE
100
AcDbLine
 62
7
  6
CONTINUOUS
 10
609.1834459978
 20
158.8763480516
 11
609.2612011627
 21
158.6881960292
  0
LINE
  5
548
100
AcDbEntity
  8
KONSTRUKTIONSELEMENTE
100
AcDbLine
 62
7
  6
CONTINUOUS
 10
609.2612011627
 20
158.6881960292
 11
609.4016822268
 21
158.3050185653
  0
LINE
  5
549
100
AcDbEntity
  8
KONSTRUKTIONSELEMENTE
100
AcDbLine
 62
7
  6
CONTINUOUS
 10
609.508669198
 20
157.9813919248
 11
609.4016822268
 21
158.3050185653
  0
LINE
  5
54A
100
AcDbEntity
  8
KONSTRUKTIONSELEMENTE
100
AcDbLine
 62
7
  6
CONTINUOUS
 10
609.653577335
 20
157.489483394
 11
609.508669198
 21
157.9813919248
  0
LINE
  5
54B
100
AcDbEntity
  8
KONSTRUKTIONSELEMENTE
100
AcDbLine
 62
7
  6
CONTINUOUS
 10
609.7284597409
 20
157.1529197174
 11
609.7670366976
 21
157.0623886788
  0
LINE
  5
54C
100
AcDbEntity
  8
KONSTRUKTIONSELEMENTE
100
AcDbLine
 62
7
  6
CONTINUOUS
 10
609.7670366976
 20
157.0623886788
 11
609.887304265
 21
156.7798030103
  0
LINE
  5
54D
100
AcDbEntity
  8
KONSTRUKTIONSELEMENTE
100
AcDbLine
 62
7
  6
CONTINUOUS
 10
609.887304265
 20
156.7798030103
 11
609.9340297837
 21
156.6698690382
  0
LINE
  5
54E
100
AcDbEntity
  8
KONSTRUKTIONSELEMENTE
100
AcDbLine
 62
7
  6
CONTINUOUS
 10
609.9340297837
 20
156.6698690382
 11
609.9702903294
 21
156.5844987299
  0
SPLINE
  5
54F
100
AcDbEntity
  8
KONSTRUKTIONSELEMENTE
100
AcDbSpline
 62
7
  6
CONTINUOUS
 70
0
 71
3
 72
9
 73
5
 74
0
 42
0.0000001
 43
0.0000001
 44
0.0000000001
 40
0.0
 40
0.0
 40
0.0
 40
0.0
 40
0.2251885309
 40
1.0
 40
1.0
 40
1.0
 40
1.0
 10
617.798987258
 20
89.7617413713
 30
0.0
 10
617.6871841493
 20
89.648569032
 30
0.0
 10
617.2009687938
 20
89.1358690787
 30
0.0
 10
616.7598802683
 20
88.581152186
 30
0.0
 10
616.440496692
 20
88.1366256475
 30
0.0
  0
SPLINE
  5
550
100
AcDbEntity
  8
0
100
AcDbSpline
 62
7
  6
CONTINUOUS
 70
0
 71
3
 72
11
 73
7
 74
0
 42
0.0000001
 43
0.0000001
 44
0.0000000001
 40
0.0
 40
0.0
 40
0.0
 40
0.0
 40
0.2342863999
 40
0.4794400193
 40
0.7361131198
 40
1.0
 40
1.0
 40
1.0
 40
1.0
 10
610.1917091602
 20
114.1467020655
 30
0.0
 10
610.0612441567
 20
114.7110055079
 30
0.0
 10
609.556417632
 20
115.8210116879
 30
0.0
 10
608.2334445705
 20
117.1212121931
 30
0.0
 10
606.501465265
 20
117.9574769052
 30
0.0
 10
605.2060694039
 20
118.1483443317
 30
0.0
 10
604.5537042392
 20
118.1483443317
 30
0.0
  0
SPLINE
  5
551
100
AcDbEntity
  8
0
100
AcDbSpline
 62
7
  6
CONTINUOUS
 70
0
 71
3
 72
9
 73
5
 74
0
 42
0.0000001
 43
0.0000001
 44
0.0000000001
 40
0.0
 40
0.0
 40
0.0
 40
0.0
 40
0.5001658481
 40
1.0
 40
1.0
 40
1.0
 40
1.0
 10
606.7810658524
 20
158.4734968126
 30
0.0
 10
607.033766427
 20
156.3321058827
 30
0.0
 10
607.3641476853
 20
152.0271530427
 30
0.0
 10
607.2781950284
 20
147.7093467087
 30
0.0
 10
607.1356157912
 20
145.5592492277
 30
0.0
  0
SPLINE
  5
552
100
AcDbEntity
  8
0
100
AcDbSpline
 62
7
  6
CONTINUOUS
 70
0
 71
3
 72
11
 73
7
 74
0
 42
0.0000001
 43
0.0000001
 44
0.0000000001
 40
0.0
 40
0.0
 40
0.0
 40
0.0
 40
0.2516599876
 40
0.5000000005
 40
0.7483400135
 40
1.0
 40
1.0
 40
1.0
 40
1.0
 10
606.7810658524
 20
166.3368232302
 30
0.0
 10
606.9434491912
 20
165.6905534267
 30
0.0
 10
607.1983963504
 20
164.3878419761
 30
0.0
 10
607.3316008262
 20
162.4051600171
 30
0.0
 10
607.1983963546
 20
160.4224780602
 30
0.0
 10
606.9434491905
 20
159.1197666133
 30
0.0
 10
606.7810658524
 20
158.4734968126
 30
0.0
  0
SPLINE
  5
553
100
AcDbEntity
  8
0
100
AcDbSpline
 62
7
  6
CONTINUOUS
 70
0
 71
3
 72
11
 73
7
 74
0
 42
0.0000001
 43
0.0000001
 44
0.0000000001
 40
0.0
 40
0.0
 40
0.0
 40
0.0
 40
0.2342863999
 40
0.4794400193
 40
0.7361131198
 40
1.0
 40
1.0
 40
1.0
 40
1.0
 10
598.9156993181
 20
114.1467020655
 30
0.0
 10
599.0461643216
 20
114.7110055079
 30
0.0
 10
599.5509908464
 20
115.8210116879
 30
0.0
 10
600.8739639078
 20
117.1212121931
 30
0.0
 10
602.6059432133
 20
117.9574769052
 30
0.0
 10
603.9013390744
 20
118.1483443317
 30
0.0
 10
604.5537042392
 20
118.1483443317
 30
0.0
  0
SPLINE
  5
554
100
AcDbEntity
  8
0
100
AcDbSpline
 62
7
  6
CONTINUOUS
 70
0
 71
3
 72
8
 73
4
 74
0
 42
0.0000001
 43
0.0000001
 44
0.0000000001
 40
0.0
 40
0.0
 40
0.0
 40
0.0
 40
1.0
 40
1.0
 40
1.0
 40
1.0
 10
608.3466022369
 20
158.4009135524
 30
0.0
 10
608.8967916352
 20
156.9002094971
 30
0.0
 10
609.4468270143
 20
155.399448945
 30
0.0
 10
609.9965690892
 20
153.8985809671
 30
0.0
  0
LINE
  5
555
100
AcDbEntity
  8
0
100
AcDbLine
 62
7
  6
CONTINUOUS
 10
608.5428647159
 20
160.4555210629
 11
608.5231498329
 21
160.5129272453
  0
LINE
  5
556
100
AcDbEntity
  8
0
100
AcDbLine
 62
7
  6
CONTINUOUS
 10
608.5231498329
 20
160.5129272453
 11
608.3559938115
 21
160.9996477308
  0
LINE
  5
557
100
AcDbEntity
  8
0
100
AcDbLine
 62
7
  6
CONTINUOUS
 10
608.3482028534
 20
160.3194889472
 11
608.6787222509
 21
159.3561893198
  0
SPLINE
  5
558
100
AcDbEntity
  8
0
100
AcDbSpline
 62
7
  6
CONTINUOUS
 70
0
 71
3
 72
9
 73
5
 74
0
 42
0.0000001
 43
0.0000001
 44
0.0000000001
 40
0.0
 40
0.0
 40
0.0
 40
0.0
 40
0.5094747824
 40
1.0
 40
1.0
 40
1.0
 40
1.0
 10
604.5537042392
 20
93.629244567
 30
0.0
 10
603.740866926
 20
93.629244567
 30
0.0
 10
602.1320756296
 20
93.9082344019
 30
0.0
 10
600.7229067461
 20
94.7486495199
 30
0.0
 10
600.1471079866
 20
95.2786734961
 30
0.0
  0
SPLINE
  5
559
100
AcDbEntity
  8
BEZUGSACHSEN
100
AcDbSpline
 62
7
  6
CONTINUOUS
 70
0
 71
3
 72
13
 73
9
 74
0
 42
0.0000001
 43
0.0000001
 44
0.0000000001
 40
0.0
 40
0.0
 40
0.0
 40
0.0
 40
0.1219695998
 40
0.2465987344
 40
0.4999945557
 40
0.7533934455
 40
0.8780260612
 40
1.0
 40
1.0
 40
1.0
 40
1.0
 10
595.2431055295
 20
99.740917445
 30
0.0
 10
595.8838454204
 20
99.2467645167
 30
0.0
 10
597.2718505145
 20
98.3621433425
 30
0.0
 10
600.3395598583
 20
97.0685421344
 30
0.0
 10
604.5518054789
 20
96.4050078794
 30
0.0
 10
608.7642232149
 20
97.0675683088
 30
0.0
 10
611.8323143787
 20
98.3604458689
 30
0.0
 10
613.2205884658
 20
99.244739497
 30
0.0
 10
613.8614809539
 20
99.7387416506
 30
0.0
  0
SPLINE
  5
55A
100
AcDbEntity
  8
BEZUGSACHSEN
100
AcDbSpline
 62
7
  6
CONTINUOUS
 70
0
 71
3
 72
15
 73
11
 74
0
 42
0.0000001
 43
0.0000001
 44
0.0000000001
 40
0.0
 40
0.0
 40
0.0
 40
0.0
 40
0.1194809811
 40
0.2432794302
 40
0.3706432098
 40
0.5
 40
0.6293567902
 40
0.7567205698
 40
0.8805190189
 40
1.0
 40
1.0
 40
1.0
 40
1.0
 10
616.440496692
 20
88.1366256475
 30
0.0
 10
615.8057807712
 20
87.2532111824
 30
0.0
 10
614.261106458
 20
85.6250323021
 30
0.0
 10
611.3807953535
 20
83.8088815043
 30
0.0
 10
608.0757948134
 20
82.6739432887
 30
0.0
 10
604.5537042392
 20
82.288418219
 30
0.0
 10
601.0316136649
 20
82.6739432887
 30
0.0
 10
597.7266131248
 20
83.8088815043
 30
0.0
 10
594.8463020203
 20
85.6250323021
 30
0.0
 10
593.3016277072
 20
87.2532111824
 30
0.0
 10
592.6669117863
 20
88.1366256475
 30
0.0
  0
SPLINE
  5
55B
100
AcDbEntity
  8
BEZUGSACHSEN
100
AcDbSpline
 62
7
  6
CONTINUOUS
 70
0
 71
3
 72
21
 73
17
 74
0
 42
0.0000001
 43
0.0000001
 44
0.0000000001
 40
0.0
 40
0.0
 40
0.0
 40
0.0
 40
0.0580894532
 40
0.116890925
 40
0.1769961556
 40
0.2387585136
 40
0.3022670717
 40
0.367347063
 40
0.5
 40
0.632652937
 40
0.6977329283
 40
0.7612414864
 40
0.8230038444
 40
0.883109075
 40
0.9419105468
 40
1.0
 40
1.0
 40
1.0
 40
1.0
 10
593.0573873509
 20
98.8686982599
 30
0.0
 10
593.0573873509
 20
98.2170593052
 30
0.0
 10
593.2077943338
 20
96.9010598955
 30
0.0
 10
593.8733907853
 20
95.0139939667
 30
0.0
 10
594.9505565218
 20
93.2791299544
 30
0.0
 10
596.394780421
 20
91.7638803581
 30
0.0
 10
598.1492114243
 20
90.5238735901
 30
0.0
 10
600.8233779499
 20
89.291871257
 30
0.0
 10
604.5537042392
 20
88.6581515413
 30
0.0
 10
608.2840305284
 20
89.291871257
 30
0.0
 10
610.958197054
 20
90.5238735901
 30
0.0
 10
612.7126280574
 20
91.7638803581
 30
0.0
 10
614.1568519565
 20
93.2791299544
 30
0.0
 10
615.234017693
 20
95.0139939667
 30
0.0
 10
615.8996141445
 20
96.9010598955
 30
0.0
 10
616.0500211274
 20
98.2170593052
 30
0.0
 10
616.0500211274
 20
98.8686982599
 30
0.0
  0
SPLINE
  5
55C
100
AcDbEntity
  8
0
100
AcDbSpline
 62
7
  6
CONTINUOUS
 70
0
 71
3
 72
8
 73
4
 74
0
 42
0.0000001
 43
0.0000001
 44
0.0000000001
 40
0.0
 40
0.0
 40
0.0
 40
0.0
 40
1.0
 40
1.0
 40
1.0
 40
1.0
 10
608.3615382621
 20
161.6343517894
 30
0.0
 10
608.3643189569
 20
161.569448585
 30
0.0
 10
608.358498289
 20
161.5037006406
 30
0.0
 10
608.344915419
 20
161.4401737656
 30
0.0
  0
LINE
  5
55D
100
AcDbEntity
  8
KONSTRUKTIONSELEMENTE
100
AcDbLine
 62
7
  6
CONTINUOUS
 10
610.2928756926
 20
157.4314989934
 11
610.2747200506
 21
157.4902663456
  0
LINE
  5
55E
100
AcDbEntity
  8
KONSTRUKTIONSELEMENTE
100
AcDbLine
 62
7
  6
CONTINUOUS
 10
610.2747200506
 20
157.4902663456
 11
610.23809652
 21
157.6082828965
  0
LINE
  5
55F
100
AcDbEntity
  8
KONSTRUKTIONSELEMENTE
100
AcDbLine
 62
7
  6
CONTINUOUS
 10
610.23809652
 20
157.6082828965
 11
610.2196285549
 21
157.667532083
  0
LINE
  5
560
100
AcDbEntity
  8
KONSTRUKTIONSELEMENTE
100
AcDbLine
 62
7
  6
CONTINUOUS
 10
610.2196285549
 20
157.667532083
 11
610.11174901
 21
158.0013547596
  0
LINE
  5
561
100
AcDbEntity
  8
KONSTRUKTIONSELEMENTE
100
AcDbLine
 62
7
  6
CONTINUOUS
 10
610.11174901
 20
158.0013547596
 11
610.0763866059
 21
158.1089237863
  0
LINE
  5
562
100
AcDbEntity
  8
KONSTRUKTIONSELEMENTE
100
AcDbLine
 62
7
  6
CONTINUOUS
 10
610.0763866059
 20
158.1089237863
 11
609.9698390233
 21
158.4329670047
  0
LINE
  5
563
100
AcDbEntity
  8
KONSTRUKTIONSELEMENTE
100
AcDbLine
 62
7
  6
CONTINUOUS
 10
609.4427198114
 20
160.0211728718
 11
609.9698390233
 21
158.4329670047
  0
LINE
  5
564
100
AcDbEntity
  8
KONSTRUKTIONSELEMENTE
100
AcDbLine
 62
7
  6
CONTINUOUS
 10
609.3033693907
 20
160.4366036767
 11
609.4427198114
 21
160.0211728718
  0
LINE
  5
565
100
AcDbEntity
  8
KONSTRUKTIONSELEMENTE
100
AcDbLine
 62
7
  6
CONTINUOUS
 10
609.2000731373
 20
160.7380635842
 11
609.3033693907
 21
160.4366036767
  0
LINE
  5
566
100
AcDbEntity
  8
KONSTRUKTIONSELEMENTE
100
AcDbLine
 62
7
  6
CONTINUOUS
 10
609.1322925708
 20
160.9255520937
 11
609.1663546792
 21
160.8316256116
  0
LINE
  5
567
100
AcDbEntity
  8
KONSTRUKTIONSELEMENTE
100
AcDbLine
 62
7
  6
CONTINUOUS
 10
609.1663546792
 20
160.8316256116
 11
609.1832568684
 21
160.7847990415
  0
LINE
  5
568
100
AcDbEntity
  8
KONSTRUKTIONSELEMENTE
100
AcDbLine
 62
7
  6
CONTINUOUS
 10
609.1832568684
 20
160.7847990415
 11
609.2000731373
 21
160.7380635842
  0
LINE
  5
569
100
AcDbEntity
  8
0
100
AcDbLine
 62
7
  6
CONTINUOUS
 10
608.344915419
 20
161.4401737656
 11
608.4362149003
 21
161.1648653987
  0
LINE
  5
56A
100
AcDbEntity
  8
0
100
AcDbLine
 62
7
  6
CONTINUOUS
 10
608.4362149003
 20
161.1648653987
 11
608.4458931185
 21
161.1356806076
  0
LINE
  5
56B
100
AcDbEntity
  8
KONSTRUKTIONSELEMENTE
100
AcDbLine
 62
7
  6
CONTINUOUS
 10
610.52112631
 20
156.4637952537
 11
610.5095115202
 21
156.498853896
  0
LINE
  5
56C
100
AcDbEntity
  8
KONSTRUKTIONSELEMENTE
100
AcDbLine
 62
7
  6
CONTINUOUS
 10
610.5095115202
 20
156.498853896
 11
610.3457488266
 21
156.993127613
  0
LINE
  5
56D
100
AcDbEntity
  8
KONSTRUKTIONSELEMENTE
100
AcDbLine
 62
7
  6
CONTINUOUS
 10
610.3457488266
 20
156.993127613
 11
610.2971932431
 21
157.1396672158
  0
LINE
  5
56E
100
AcDbEntity
  8
KONSTRUKTIONSELEMENTE
100
AcDbLine
 62
7
  6
CONTINUOUS
 10
610.2971932431
 20
157.1396672158
 11
610.2541379829
 21
157.2696023892
  0
LINE
  5
56F
100
AcDbEntity
  8
KONSTRUKTIONSELEMENTE
100
AcDbLine
 62
7
  6
CONTINUOUS
 10
610.2541379829
 20
157.2696023892
 11
610.1957254896
 21
157.4458769434
  0
LINE
  5
570
100
AcDbEntity
  8
KONSTRUKTIONSELEMENTE
100
AcDbLine
 62
7
  6
CONTINUOUS
 10
610.1957254896
 20
157.4458769434
 11
610.0185678307
 21
157.9804494975
  0
LINE
  5
571
100
AcDbEntity
  8
KONSTRUKTIONSELEMENTE
100
AcDbLine
 62
7
  6
CONTINUOUS
 10
610.0185678307
 20
157.9804494975
 11
609.9839547375
 21
158.0848866454
  0
LINE
  5
572
100
AcDbEntity
  8
KONSTRUKTIONSELEMENTE
100
AcDbLine
 62
7
  6
CONTINUOUS
 10
609.9839547375
 20
158.0848866454
 11
609.0686134701
 21
160.8459246715
  0
LINE
  5
573
100
AcDbEntity
  8
KONSTRUKTIONSELEMENTE
100
AcDbLine
 62
7
  6
CONTINUOUS
 10
609.0686134701
 20
160.8459246715
 11
609.0258963058
 21
160.9747436707
  0
LINE
  5
574
100
AcDbEntity
  8
KONSTRUKTIONSELEMENTE
100
AcDbLine
 62
7
  6
CONTINUOUS
 10
609.0258963058
 20
160.9747436707
 11
608.9628492019
 21
161.1648653989
  0
LINE
  5
575
100
AcDbEntity
  8
KONSTRUKTIONSELEMENTE
100
AcDbLine
 62
7
  6
CONTINUOUS
 10
608.9628492019
 20
161.1648653989
 11
608.8715497207
 21
161.4401737656
  0
SPLINE
  5
576
100
AcDbEntity
  8
KONSTRUKTIONSELEMENTE
100
AcDbSpline
 62
7
  6
CONTINUOUS
 70
0
 71
3
 72
8
 73
4
 74
0
 42
0.0000001
 43
0.0000001
 44
0.0000000001
 40
0.0
 40
0.0
 40
0.0
 40
0.0
 40
1.0
 40
1.0
 40
1.0
 40
1.0
 10
608.8715497207
 20
161.4401737656
 30
0.0
 10
608.8851325907
 20
161.5037006406
 30
0.0
 10
608.8909532585
 20
161.569448585
 30
0.0
 10
608.8881725638
 20
161.6343517894
 30
0.0
  0
SPLINE
  5
577
100
AcDbEntity
  8
BEZUGSACHSEN
100
AcDbSpline
 62
7
  6
CONTINUOUS
 70
0
 71
3
 72
9
 73
5
 74
0
 42
0.0000001
 43
0.0000001
 44
0.0000000001
 40
0.0
 40
0.0
 40
0.0
 40
0.0
 40
0.2251885309
 40
1.0
 40
1.0
 40
1.0
 40
1.0
 10
591.3084212203
 20
89.7617413713
 30
0.0
 10
591.4202243291
 20
89.648569032
 30
0.0
 10
591.9064396845
 20
89.1358690787
 30
0.0
 10
592.34752821
 20
88.581152186
 30
0.0
 10
592.6669117863
 20
88.1366256475
 30
0.0
  0
SPLINE
  5
578
100
AcDbEntity
  8
0
100
AcDbSpline
 62
7
  6
CONTINUOUS
 70
0
 71
3
 72
13
 73
9
 74
0
 42
0.0000001
 43
0.0000001
 44
0.0000000001
 40
0.0
 40
0.0
 40
0.0
 40
0.0
 40
0.2655992091
 40
0.5219626798
 40
0.6456222519
 40
0.7659622985
 40
0.8836979923
 40
1.0
 40
1.0
 40
1.0
 40
1.0
 10
604.5537042392
 20
119.1483443317
 30
0.0
 10
603.8094168342
 20
119.1483443317
 30
0.0
 10
602.3347494491
 20
118.9013713343
 30
0.0
 10
600.7237541423
 20
117.9857803471
 30
0.0
 10
599.7507216447
 20
116.9644222354
 30
0.0
 10
599.2118067272
 20
116.0966483296
 30
0.0
 10
598.878978876
 20
115.1528218064
 30
0.0
 10
598.8037332994
 20
114.4946108248
 30
0.0
 10
598.8037332994
 20
114.1686982599
 30
0.0
  0
SPLINE
  5
579
100
AcDbEntity
  8
0
100
AcDbSpline
 62
7
  6
CONTINUOUS
 70
0
 71
3
 72
13
 73
9
 74
0
 42
0.0000001
 43
0.0000001
 44
0.0000000001
 40
0.0
 40
0.0
 40
0.0
 40
0.0
 40
0.1163020077
 40
0.2340377015
 40
0.3543777481
 40
0.4780373202
 40
0.7344007909
 40
1.0
 40
1.0
 40
1.0
 40
1.0
 10
610.303675179
 20
114.1686982599
 30
0.0
 10
610.303675179
 20
114.4946108248
 30
0.0
 10
610.2284296023
 20
115.1528218064
 30
0.0
 10
609.8956017511
 20
116.0966483296
 30
0.0
 10
609.3566868336
 20
116.9644222354
 30
0.0
 10
608.383654336
 20
117.9857803471
 30
0.0
 10
606.7726590292
 20
118.9013713343
 30
0.0
 10
605.2979916441
 20
119.1483443317
 30
0.0
 10
604.5537042392
 20
119.1483443317
 30
0.0
  0
LINE
  5
57A
100
AcDbEntity
  8
KONSTRUKTIONSELEMENTE
100
AcDbLine
 62
7
  6
CONTINUOUS
 10
610.1408228648
 20
156.6568359631
 11
610.1769648794
 21
156.5653532025
  0
LINE
  5
57B
100
AcDbEntity
  8
KONSTRUKTIONSELEMENTE
100
AcDbLine
 62
7
  6
CONTINUOUS
 10
610.1769648794
 20
156.5653532025
 11
610.2845728678
 21
156.2926993216
  0
SPLINE
  5
57C
100
AcDbEntity
  8
BEZUGSACHSEN
100
AcDbSpline
 62
7
  6
CONTINUOUS
 70
0
 71
3
 72
10
 73
6
 74
0
 42
0.0000001
 43
0.0000001
 44
0.0000000001
 40
0.0
 40
0.0
 40
0.0
 40
0.0
 40
0.2820557468
 40
0.5474908827
 40
1.0
 40
1.0
 40
1.0
 40
1.0
 10
590.5537042392
 20
92.0493556454
 30
0.0
 10
590.5537042392
 20
91.8182313469
 30
0.0
 10
590.5813187532
 20
91.3681506683
 30
0.0
 10
590.7560686219
 20
90.5671139981
 30
0.0
 10
591.04782765
 20
90.0255263794
 30
0.0
 10
591.3084212203
 20
89.7617413713
 30
0.0
  0
LINE
  5
57D
100
AcDbEntity
  8
KONSTRUKTIONSELEMENTE
100
AcDbLine
 62
7
  6
CONTINUOUS
 10
609.9635145914
 20
157.1460145951
 11
610.1408228648
 21
156.6568359631
  0
LINE
  5
57E
100
AcDbEntity
  8
KONSTRUKTIONSELEMENTE
100
AcDbLine
 62
7
  6
CONTINUOUS
 10
609.9635145914
 20
157.1460145951
 11
609.9366551565
 21
157.2243290651
  0
LINE
  5
57F
100
AcDbEntity
  8
KONSTRUKTIONSELEMENTE
100
AcDbLine
 62
7
  6
CONTINUOUS
 10
609.9366551565
 20
157.2243290651
 11
609.9227066327
 21
157.2649985461
  0
LINE
  5
580
100
AcDbEntity
  8
KONSTRUKTIONSELEMENTE
100
AcDbLine
 62
7
  6
CONTINUOUS
 10
609.9227066327
 20
157.2649985461
 11
609.8254885241
 21
157.5484474592
  0
LINE
  5
581
100
AcDbEntity
  8
KONSTRUKTIONSELEMENTE
100
AcDbLine
 62
7
  6
CONTINUOUS
 10
609.8254885241
 20
157.5484474592
 11
609.6955469881
 21
157.9272826318
  0
LINE
  5
582
100
AcDbEntity
  8
KONSTRUKTIONSELEMENTE
100
AcDbLine
 62
7
  6
CONTINUOUS
 10
609.6955469881
 20
157.9272826318
 11
609.65926634
 21
158.0330518719
  0
LINE
  5
583
100
AcDbEntity
  8
KONSTRUKTIONSELEMENTE
100
AcDbLine
 62
7
  6
CONTINUOUS
 10
609.65926634
 20
158.0330518719
 11
609.5486769028
 21
158.3554427024
  0
LINE
  5
584
100
AcDbEntity
  8
KONSTRUKTIONSELEMENTE
100
AcDbLine
 62
7
  6
CONTINUOUS
 10
609.5486769028
 20
158.3554427024
 11
609.4247767888
 21
158.7166172499
  0
LINE
  5
585
100
AcDbEntity
  8
KONSTRUKTIONSELEMENTE
100
AcDbLine
 62
7
  6
CONTINUOUS
 10
609.4247767888
 20
158.7166172499
 11
609.4162754558
 21
158.7413982919
  0
LINE
  5
586
100
AcDbEntity
  8
KONSTRUKTIONSELEMENTE
100
AcDbLine
 62
7
  6
CONTINUOUS
 10
609.4162754558
 20
158.7413982919
 11
609.3282603432
 21
158.9979533829
  0
LINE
  5
587
100
AcDbEntity
  8
KONSTRUKTIONSELEMENTE
100
AcDbLine
 62
7
  6
CONTINUOUS
 10
609.3282603432
 20
158.9979533829
 11
609.2296520834
 21
159.2853749608
  0
LINE
  5
588
100
AcDbEntity
  8
KONSTRUKTIONSELEMENTE
100
AcDbLine
 62
7
  6
CONTINUOUS
 10
609.2296520834
 20
159.2853749608
 11
608.8748371551
 21
160.3194889472
  0
LINE
  5
589
100
AcDbEntity
  8
KONSTRUKTIONSELEMENTE
100
AcDbLine
 62
7
  6
CONTINUOUS
 10
610.3313097441
 20
156.5530804576
 11
610.3311541351
 21
156.5757524257
  0
LINE
  5
58A
100
AcDbEntity
  8
KONSTRUKTIONSELEMENTE
100
AcDbLine
 62
7
  6
CONTINUOUS
 10
610.3311541351
 20
156.5757524257
 11
610.3129429664
 21
156.672277987
  0
LINE
  5
58B
100
AcDbEntity
  8
KONSTRUKTIONSELEMENTE
100
AcDbLine
 62
7
  6
CONTINUOUS
 10
610.3129429664
 20
156.672277987
 11
610.3036830033
 21
156.7205433354
  0
LINE
  5
58C
100
AcDbEntity
  8
KONSTRUKTIONSELEMENTE
100
AcDbLine
 62
7
  6
CONTINUOUS
 10
610.3036830033
 20
156.7205433354
 11
610.294320616
 21
156.7688104246
  0
LINE
  5
58D
100
AcDbEntity
  8
KONSTRUKTIONSELEMENTE
100
AcDbLine
 62
7
  6
CONTINUOUS
 10
610.2216724714
 20
157.0415666212
 11
610.1141666852
 21
157.3940208721
  0
LINE
  5
58E
100
AcDbEntity
  8
KONSTRUKTIONSELEMENTE
100
AcDbLine
 62
7
  6
CONTINUOUS
 10
610.1141666852
 20
157.3940208721
 11
609.9724098049
 21
157.8261733787
  0
LINE
  5
58F
100
AcDbEntity
  8
KONSTRUKTIONSELEMENTE
100
AcDbLine
 62
7
  6
CONTINUOUS
 10
608.8826281132
 20
160.9996477308
 11
609.0497841338
 21
160.5129272473
  0
LINE
  5
590
100
AcDbEntity
  8
KONSTRUKTIONSELEMENTE
100
AcDbLine
 62
7
  6
CONTINUOUS
 10
609.0497841338
 20
160.5129272473
 11
609.9296893182
 21
157.9505903334
  0
LINE
  5
591
100
AcDbEntity
  8
KONSTRUKTIONSELEMENTE
100
AcDbLine
 62
7
  6
CONTINUOUS
 10
609.9296893182
 20
157.9505903334
 11
609.9724098049
 21
157.8261733787
  0
LINE
  5
592
100
AcDbEntity
  8
KONSTRUKTIONSELEMENTE
100
AcDbLine
 62
7
  6
CONTINUOUS
 10
609.5535406038
 20
157.5956473644
 11
609.4813484726
 21
157.8597235535
  0
LINE
  5
593
100
AcDbEntity
  8
KONSTRUKTIONSELEMENTE
100
AcDbLine
 62
7
  6
CONTINUOUS
 10
609.4813484726
 20
157.8597235535
 11
609.3748165149
 21
158.183350194
  0
LINE
  5
594
100
AcDbEntity
  8
KONSTRUKTIONSELEMENTE
100
AcDbLine
 62
7
  6
CONTINUOUS
 10
609.2693511652
 20
158.4707333591
 11
609.3748165149
 21
158.183350194
  0
LINE
  5
595
100
AcDbEntity
  8
KONSTRUKTIONSELEMENTE
100
AcDbLine
 62
7
  6
CONTINUOUS
 10
609.164912858
 20
158.721872512
 11
609.2693511652
 21
158.4707333591
  0
LINE
  5
596
100
AcDbEntity
  8
KONSTRUKTIONSELEMENTE
100
AcDbLine
 62
7
  6
CONTINUOUS
 10
609.0963669226
 20
158.8409735185
 11
609.1478792887
 21
158.7515318128
  0
LINE
  5
597
100
AcDbEntity
  8
KONSTRUKTIONSELEMENTE
100
AcDbLine
 62
7
  6
CONTINUOUS
 10
609.1478792887
 20
158.7515318128
 11
609.164912858
 21
158.721872512
  0
SPLINE
  5
598
100
AcDbEntity
  8
KONSTRUKTIONSELEMENTE
100
AcDbSpline
 62
7
  6
CONTINUOUS
 70
0
 71
3
 72
10
 73
6
 74
0
 42
0.0000001
 43
0.0000001
 44
0.0000000001
 40
0.0
 40
0.0
 40
0.0
 40
0.0
 40
0.2820557468
 40
0.5474908827
 40
1.0
 40
1.0
 40
1.0
 40
1.0
 10
618.5537042392
 20
92.0493556454
 30
0.0
 10
618.5537042392
 20
91.8182313469
 30
0.0
 10
618.5260897251
 20
91.3681506683
 30
0.0
 10
618.3513398564
 20
90.5671139981
 30
0.0
 10
618.0595808284
 20
90.0255263794
 30
0.0
 10
617.798987258
 20
89.7617413713
 30
0.0
  0
LINE
  5
599
100
AcDbEntity
  8
KONSTRUKTIONSELEMENTE
100
AcDbLine
 62
7
  6
CONTINUOUS
 10
610.5232033909
 20
153.8985809671
 11
610.4541830755
 21
154.0870106024
  0
LINE
  5
59A
100
AcDbEntity
  8
KONSTRUKTIONSELEMENTE
100
AcDbLine
 62
7
  6
CONTINUOUS
 10
610.4541830755
 20
154.0870106024
 11
609.7170124099
 21
156.0989821692
  0
LINE
  5
59B
100
AcDbEntity
  8
KONSTRUKTIONSELEMENTE
100
AcDbLine
 62
7
  6
CONTINUOUS
 10
609.7170124099
 20
156.0989821692
 11
609.7120967089
 21
156.1123956469
  0
LINE
  5
59C
100
AcDbEntity
  8
KONSTRUKTIONSELEMENTE
100
AcDbLine
 62
7
  6
CONTINUOUS
 10
609.7120967089
 20
156.1123956469
 11
609.5063373492
 21
156.6738196147
  0
LINE
  5
59D
100
AcDbEntity
  8
KONSTRUKTIONSELEMENTE
100
AcDbLine
 62
7
  6
CONTINUOUS
 10
609.5063373492
 20
156.6738196147
 11
609.4355198664
 21
156.8670345654
  0
LINE
  5
59E
100
AcDbEntity
  8
KONSTRUKTIONSELEMENTE
100
AcDbLine
 62
7
  6
CONTINUOUS
 10
609.4355198664
 20
156.8670345654
 11
608.9795588934
 21
158.1109009298
  0
LINE
  5
59F
100
AcDbEntity
  8
KONSTRUKTIONSELEMENTE
100
AcDbLine
 62
7
  6
CONTINUOUS
 10
608.9795588934
 20
158.1109009298
 11
608.8732365386
 21
158.4009135524
  0
SPLINE
  5
5A0
100
AcDbEntity
  8
BEZUGSACHSEN
100
AcDbSpline
 62
7
  6
CONTINUOUS
 70
0
 71
3
 72
11
 73
7
 74
0
 42
0.0000001
 43
0.0000001
 44
0.0000000001
 40
0.0
 40
0.0
 40
0.0
 40
0.0
 40
0.2516599876
 40
0.5000000005
 40
0.7483400135
 40
1.0
 40
1.0
 40
1.0
 40
1.0
 10
602.3263426259
 20
166.3368232302
 30
0.0
 10
602.1639592872
 20
165.6905534267
 30
0.0
 10
601.909012128
 20
164.3878419761
 30
0.0
 10
601.7758076522
 20
162.4051600171
 30
0.0
 10
601.9090121237
 20
160.4224780602
 30
0.0
 10
602.1639592879
 20
159.1197666133
 30
0.0
 10
602.3263426259
 20
158.4734968126
 30
0.0
  0
SPLINE
  5
5A1
100
AcDbEntity
  8
BEZUGSACHSEN
100
AcDbSpline
 62
7
  6
CONTINUOUS
 70
0
 71
3
 72
9
 73
5
 74
0
 42
0.0000001
 43
0.0000001
 44
0.0000000001
 40
0.0
 40
0.0
 40
0.0
 40
0.0
 40
0.5001658481
 40
1.0
 40
1.0
 40
1.0
 40
1.0
 10
602.3263426259
 20
158.4734968126
 30
0.0
 10
602.0736420513
 20
156.3321058827
 30
0.0
 10
601.743260793
 20
152.0271530427
 30
0.0
 10
601.82921345
 20
147.7093467087
 30
0.0
 10
601.9717926872
 20
145.5592492277
 30
0.0
  0
SPLINE
  5
5A2
100
AcDbEntity
  8
0
100
AcDbSpline
 62
7
  6
CONTINUOUS
 70
0
 71
3
 72
9
 73
5
 74
0
 42
0.0000001
 43
0.0000001
 44
0.0000000001
 40
0.0
 40
0.0
 40
0.0
 40
0.0
 40
0.4905252176
 40
1.0
 40
1.0
 40
1.0
 40
1.0
 10
608.9603004918
 20
95.2786734961
 30
0.0
 10
608.3845017323
 20
94.7486495199
 30
0.0
 10
606.9753328487
 20
93.9082344019
 30
0.0
 10
605.3665415524
 20
93.629244567
 30
0.0
 10
604.5537042392
 20
93.629244567
 30
0.0
  0
LINE
  5
5A3
100
AcDbEntity
  8
KONSTRUKTIONSELEMENTE
100
AcDbLine
 62
7
  6
CONTINUOUS
 10
609.8028451651
 20
156.7438683975
 11
610.0241941238
 21
156.2250912246
  0
SPLINE
  5
5A4
100
AcDbEntity
  8
KONSTRUKTIONSELEMENTE
100
AcDbSpline
 62
7
  6
CONTINUOUS
 70
0
 71
3
 72
8
 73
4
 74
0
 42
0.0000001
 43
0.0000001
 44
0.0000000001
 40
0.0
 40
0.0
 40
0.0
 40
0.0
 40
1.0
 40
1.0
 40
1.0
 40
1.0
 10
610.0241941238
 20
156.2250912246
 30
0.0
 10
610.1354183539
 20
155.9640290921
 30
0.0
 10
610.2464273617
 20
155.7028751279
 30
0.0
 10
610.3571891665
 20
155.4416164649
 30
0.0
  0
LINE
  5
5A5
100
AcDbEntity
  8
KONSTRUKTIONSELEMENTE
100
AcDbLine
 62
7
  6
CONTINUOUS
 10
610.3571891665
 20
155.4416164649
 11
610.4419921375
 21
155.2414515118
  0
LINE
  5
5A6
100
AcDbEntity
  8
KONSTRUKTIONSELEMENTE
100
AcDbLine
 62
7
  6
CONTINUOUS
 10
610.4419921375
 20
155.2414515118
 11
610.534771581
 21
155.0221380618
  0
SPLINE
  5
5A7
100
AcDbEntity
  8
KONSTRUKTIONSELEMENTE
100
AcDbSpline
 62
7
  6
CONTINUOUS
 70
0
 71
3
 72
15
 73
11
 74
0
 42
0.0000001
 43
0.0000001
 44
0.0000000001
 40
0.0
 40
0.0
 40
0.0
 40
0.0
 40
0.0715051056
 40
0.1527101127
 40
0.249801528
 40
0.3654136809
 40
0.4998429995
 40
0.6519018592
 40
0.8195872462
 40
1.0
 40
1.0
 40
1.0
 40
1.0
 10
448.7803681045
 20
22.451381357
 30
0.0
 10
448.726708479
 20
22.4978357542
 30
0.0
 10
448.588728393
 20
22.5717100186
 30
0.0
 10
448.3386973927
 20
22.6011953961
 30
0.0
 10
448.0476357892
 20
22.5610348359
 30
0.0
 10
447.7187209312
 20
22.454270893
 30
0.0
 10
447.3571654599
 20
22.2833582505
 30
0.0
 10
446.9698455946
 20
22.0515804282
 30
0.0
 10
446.5649488793
 20
21.763609215
 30
0.0
 10
446.2971522928
 20
21.5448683126
 30
0.0
 10
446.1617852534
 20
21.4276370177
 30
0.0
  0
SPLINE
  5
5A8
100
AcDbEntity
  8
KONSTRUKTIONSELEMENTE
100
AcDbSpline
 62
7
  6
CONTINUOUS
 70
0
 71
3
 72
9
 73
5
 74
0
 42
0.0000001
 43
0.0000001
 44
0.0000000001
 40
0.0
 40
0.0
 40
0.0
 40
0.0
 40
0.5635000033
 40
1.0
 40
1.0
 40
1.0
 40
1.0
 10
445.0396172374
 20
32.0865525524
 30
0.0
 10
445.1620527847
 20
32.3342629337
 30
0.0
 10
445.3530475042
 20
32.7869085296
 30
0.0
 10
445.4546784722
 20
33.2749477318
 30
0.0
 10
445.4546784722
 20
33.4889889389
 30
0.0
  0
SPLINE
  5
5A9
100
AcDbEntity
  8
KONSTRUKTIONSELEMENTE
100
AcDbSpline
 62
7
  6
CONTINUOUS
 70
0
 71
3
 72
9
 73
5
 74
0
 42
0.0000001
 43
0.0000001
 44
0.0000000001
 40
0.0
 40
0.0
 40
0.0
 40
0.0
 40
0.5487156268
 40
1.0
 40
1.0
 40
1.0
 40
1.0
 10
445.4546784722
 20
18.0336188396
 30
0.0
 10
445.4546784722
 20
17.8905066676
 30
0.0
 10
445.4829676711
 20
17.6254966789
 30
0.0
 10
445.6280284682
 20
17.392839178
 30
0.0
 10
445.7170050694
 20
17.315789514
 30
0.0
  0
SPLINE
  5
5AA
100
AcDbEntity
  8
KONSTRUKTIONSELEMENTE
100
AcDbSpline
 62
7
  6
CONTINUOUS
 70
0
 71
3
 72
15
 73
11
 74
0
 42
0.0000001
 43
0.0000001
 44
0.0000000001
 40
0.0
 40
0.0
 40
0.0
 40
0.0
 40
0.0715051056
 40
0.1527101127
 40
0.249801528
 40
0.3654136809
 40
0.4998429995
 40
0.6519018592
 40
0.8195872462
 40
1.0
 40
1.0
 40
1.0
 40
1.0
 10
448.4268147139
 20
21.7575675749
 30
0.0
 10
448.3731550884
 20
21.804021972
 30
0.0
 10
448.2351750024
 20
21.8778962365
 30
0.0
 10
447.9851440021
 20
21.907381614
 30
0.0
 10
447.6940823986
 20
21.8672210538
 30
0.0
 10
447.3651675406
 20
21.7604571108
 30
0.0
 10
447.0036120693
 20
21.5895444683
 30
0.0
 10
446.616292204
 20
21.3577666461
 30
0.0
 10
446.2113954887
 20
21.0697954329
 30
0.0
 10
445.9435989022
 20
20.8510545305
 30
0.0
 10
445.8082318628
 20
20.7338232355
 30
0.0
  0
SPLINE
  5
5AB
100
AcDbEntity
  8
KONSTRUKTIONSELEMENTE
100
AcDbSpline
 62
7
  6
CONTINUOUS
 70
0
 71
3
 72
10
 73
6
 74
0
 42
0.0000001
 43
0.0000001
 44
0.0000000001
 40
0.0
 40
0.0
 40
0.0
 40
0.0
 40
0.3401098209
 40
0.6176924174
 40
1.0
 40
1.0
 40
1.0
 40
1.0
 10
481.3646170023
 20
35.9751475296
 30
0.0
 10
481.3551809759
 20
35.952666944
 30
0.0
 10
481.3403992775
 20
35.9103674898
 30
0.0
 10
481.3267711941
 20
35.841328282
 30
0.0
 10
481.3369892811
 20
35.7869869591
 30
0.0
 10
481.357702649
 20
35.7690420071
 30
0.0
  0
SPLINE
  5
5AC
100
AcDbEntity
  8
KONSTRUKTIONSELEMENTE
100
AcDbSpline
 62
7
  6
CONTINUOUS
 70
0
 71
3
 72
10
 73
6
 74
0
 42
0.0000001
 43
0.0000001
 44
0.0000000001
 40
0.0
 40
0.0
 40
0.0
 40
0.0
 40
0.1889346049
 40
0.5351285558
 40
1.0
 40
1.0
 40
1.0
 40
1.0
 10
434.5731920816
 20
11.4705405891
 30
0.0
 10
434.595716466
 20
11.451034303
 30
0.0
 10
434.6743028966
 20
11.4120450902
 30
0.0
 10
434.8376398143
 20
11.4205753565
 30
0.0
 10
434.9581897265
 20
11.4651130022
 30
0.0
 10
435.0248534497
 20
11.4956245383
 30
0.0
  0
SPLINE
  5
5AD
100
AcDbEntity
  8
KONSTRUKTIONSELEMENTE
100
AcDbSpline
 62
7
  6
CONTINUOUS
 70
0
 71
3
 72
9
 73
5
 74
0
 42
0.0000001
 43
0.0000001
 44
0.0000000001
 40
0.0
 40
0.0
 40
0.0
 40
0.0
 40
0.4593994969
 40
1.0
 40
1.0
 40
1.0
 40
1.0
 10
435.0248534497
 20
11.4956245383
 30
0.0
 10
435.1142201463
 20
11.5365270721
 30
0.0
 10
435.299101369
 20
11.6464497005
 30
0.0
 10
435.4677571518
 20
11.7787094486
 30
0.0
 10
435.5551835356
 20
11.8544229179
 30
0.0
  0
SPLINE
  5
5AE
100
AcDbEntity
  8
KONSTRUKTIONSELEMENTE
100
AcDbSpline
 62
7
  6
CONTINUOUS
 70
0
 71
3
 72
11
 73
7
 74
0
 42
0.0000001
 43
0.0000001
 44
0.0000000001
 40
0.0
 40
0.0
 40
0.0
 40
0.0
 40
0.1801343243
 40
0.3968155518
 40
0.6687400903
 40
1.0
 40
1.0
 40
1.0
 40
1.0
 10
449.2525389754
 20
14.2539273355
 30
0.0
 10
449.3380772767
 20
14.1798550819
 30
0.0
 10
449.5762165664
 20
14.071988335
 30
0.0
 10
450.0038285643
 20
14.0774959482
 30
0.0
 10
450.503587738
 20
14.2143352453
 30
0.0
 10
450.8481884585
 20
14.3755063285
 30
0.0
 10
451.0315650904
 20
14.4738505004
 30
0.0
  0
SPLINE
  5
5AF
100
AcDbEntity
  8
BEZUGSACHSEN
100
AcDbSpline
 62
7
  6
CONTINUOUS
 70
0
 71
3
 72
15
 73
11
 74
0
 42
0.0000001
 43
0.0000001
 44
0.0000000001
 40
0.0
 40
0.0
 40
0.0
 40
0.0
 40
0.1803671637
 40
0.3480918951
 40
0.5001474142
 40
0.6345604171
 40
0.7501843696
 40
0.8472874255
 40
0.9284935803
 40
1.0
 40
1.0
 40
1.0
 40
1.0
 10
497.78058028
 20
71.1558248235
 30
0.0
 10
497.9666502113
 20
71.3169661108
 30
0.0
 10
498.3348540306
 20
71.6176895645
 30
0.0
 10
498.891511196
 20
72.0136504791
 30
0.0
 10
499.4240449973
 20
72.3323714656
 30
0.0
 10
499.9211590026
 20
72.5673160842
 30
0.0
 10
500.3733660577
 20
72.7141703708
 30
0.0
 10
500.773578828
 20
72.7694932628
 30
0.0
 10
501.1173519978
 20
72.7289623588
 30
0.0
 10
501.3071276212
 20
72.6275004596
 30
0.0
 10
501.3809102214
 20
72.5636338209
 30
0.0
  0
SPLINE
  5
5B0
100
AcDbEntity
  8
BEZUGSACHSEN
100
AcDbSpline
 62
7
  6
CONTINUOUS
 70
0
 71
3
 72
11
 73
7
 74
0
 42
0.0000001
 43
0.0000001
 44
0.0000000001
 40
0.0
 40
0.0
 40
0.0
 40
0.0
 40
0.3015812786
 40
0.5624690806
 40
0.7906401043
 40
1.0
 40
1.0
 40
1.0
 40
1.0
 10
504.8115038937
 20
73.8214660233
 30
0.0
 10
504.8463547742
 20
74.1435801252
 30
0.0
 10
504.8741941222
 20
74.7499052884
 30
0.0
 10
504.7617879808
 20
75.5977494857
 30
0.0
 10
504.4865670192
 20
76.3055150704
 30
0.0
 10
504.1835253237
 20
76.6778494279
 30
0.0
 10
504.0136666287
 20
76.8252826329
 30
0.0
  0
SPLINE
  5
5B1
100
AcDbEntity
  8
KONSTRUKTIONSELEMENTE
100
AcDbSpline
 62
7
  6
CONTINUOUS
 70
0
 71
3
 72
13
 73
9
 74
0
 42
0.0000001
 43
0.0000001
 44
0.0000000001
 40
0.0
 40
0.0
 40
0.0
 40
0.0
 40
0.1071822666
 40
0.2276802358
 40
0.4932739715
 40
0.7624373183
 40
0.8872035516
 40
1.0
 40
1.0
 40
1.0
 40
1.0
 10
485.712017362
 20
33.0728416814
 30
0.0
 10
485.9377447504
 20
33.1938983987
 30
0.0
 10
486.3997371243
 20
33.4839876162
 30
0.0
 10
487.3337100639
 20
34.2051862319
 30
0.0
 10
488.4523352309
 20
35.3093415592
 30
0.0
 10
489.4241527425
 20
36.55704253
 30
0.0
 10
490.0546763758
 20
37.5921819894
 30
0.0
 10
490.3061542012
 20
38.1025048394
 30
0.0
 10
490.4104804659
 20
38.3510539014
 30
0.0
  0
SPLINE
  5
5B2
100
AcDbEntity
  8
KONSTRUKTIONSELEMENTE
100
AcDbSpline
 62
7
  6
CONTINUOUS
 70
0
 71
3
 72
11
 73
7
 74
0
 42
0.0000001
 43
0.0000001
 44
0.0000000001
 40
0.0
 40
0.0
 40
0.0
 40
0.0
 40
0.2275180559
 40
0.493253217
 40
0.7625598897
 40
1.0
 40
1.0
 40
1.0
 40
1.0
 10
451.426200922
 20
14.6854921565
 30
0.0
 10
451.4740910266
 20
14.7111754326
 30
0.0
 10
451.5701854781
 20
14.7809818712
 30
0.0
 10
451.7002685652
 20
14.9090869201
 30
0.0
 10
451.8137952532
 20
15.0551345766
 30
0.0
 10
451.8740979202
 20
15.1610208808
 30
0.0
 10
451.8960472324
 20
15.2133133785
 30
0.0
  0
SPLINE
  5
5B3
100
AcDbEntity
  8
KONSTRUKTIONSELEMENTE
100
AcDbSpline
 62
7
  6
CONTINUOUS
 70
0
 71
3
 72
10
 73
6
 74
0
 42
0.0000001
 43
0.0000001
 44
0.0000000001
 40
0.0
 40
0.0
 40
0.0
 40
0.0
 40
0.1805529782
 40
0.5248657058
 40
1.0
 40
1.0
 40
1.0
 40
1.0
 10
484.8932365549
 20
32.7071798286
 30
0.0
 10
484.901789905
 20
32.6997696644
 30
0.0
 10
484.9332582974
 20
32.6856509925
 30
0.0
 10
484.9978997639
 20
32.6941750576
 30
0.0
 10
485.0449161824
 20
32.7150779228
 30
0.0
 10
485.0711609799
 20
32.7291529053
 30
0.0
  0
SPLINE
  5
5B4
100
AcDbEntity
  8
BEZUGSACHSEN
100
AcDbSpline
 62
7
  6
CONTINUOUS
 70
0
 71
3
 72
17
 73
13
 74
0
 42
0.0000001
 43
0.0000001
 44
0.0000000001
 40
0.0
 40
0.0
 40
0.0
 40
0.0
 40
0.0291579765
 40
0.0611213738
 40
0.0979231462
 40
0.1406918411
 40
0.2452305574
 40
0.373688919
 40
0.5209585942
 40
0.6799306931
 40
0.8424232186
 40
1.0
 40
1.0
 40
1.0
 40
1.0
 10
494.1802503386
 20
64.248015826
 30
0.0
 10
494.1195213274
 20
64.3005832038
 30
0.0
 10
494.011573709
 20
64.4347913721
 30
0.0
 10
493.9167337053
 20
64.6909449699
 30
0.0
 10
493.881995509
 20
64.9984365504
 30
0.0
 10
493.9161821174
 20
65.5063754145
 30
0.0
 10
494.1221759478
 20
66.2443086155
 30
0.0
 10
494.5570716823
 20
67.1995366477
 30
0.0
 10
495.1756936663
 20
68.2275684018
 30
0.0
 10
495.9428899338
 20
69.2681460953
 30
0.0
 10
496.8147190507
 20
70.2607111253
 30
0.0
 10
497.452454122
 20
70.871659235
 30
0.0
 10
497.78058028
 20
71.1558248235
 30
0.0
  0
SPLINE
  5
5B5
100
AcDbEntity
  8
KONSTRUKTIONSELEMENTE
100
AcDbSpline
 62
7
  6
CONTINUOUS
 70
0
 71
3
 72
13
 73
9
 74
0
 42
0.0000001
 43
0.0000001
 44
0.0000000001
 40
0.0
 40
0.0
 40
0.0
 40
0.0
 40
0.1127926537
 40
0.2375654572
 40
0.5067249414
 40
0.7723173039
 40
0.8928214444
 40
1.0
 40
1.0
 40
1.0
 40
1.0
 10
453.8384827841
 20
19.8410122194
 30
0.0
 10
453.9428055495
 20
20.0895529445
 30
0.0
 10
454.1942861689
 20
20.5998817369
 30
0.0
 10
454.8248046271
 20
21.6350216677
 30
0.0
 10
455.7966269487
 20
22.882722986
 30
0.0
 10
456.9152506839
 20
23.9868832312
 30
0.0
 10
457.8492288855
 20
24.7080798006
 30
0.0
 10
458.3112262923
 20
24.9981719012
 30
0.0
 10
458.5369458881
 20
25.1192244393
 30
0.0
  0
SPLINE
  5
5B6
100
AcDbEntity
  8
KONSTRUKTIONSELEMENTE
100
AcDbSpline
 62
7
  6
CONTINUOUS
 70
0
 71
3
 72
11
 73
7
 74
0
 42
0.0000001
 43
0.0000001
 44
0.0000000001
 40
0.0
 40
0.0
 40
0.0
 40
0.0
 40
0.3312528237
 40
0.6032079657
 40
0.8198699068
 40
1.0
 40
1.0
 40
1.0
 40
1.0
 10
485.1324857434
 20
39.3823086503
 30
0.0
 10
485.3158765959
 20
39.4806604487
 30
0.0
 10
485.6605295851
 20
39.6418431341
 30
0.0
 10
486.1603386461
 20
39.7787011742
 30
0.0
 10
486.5880155976
 20
39.7841458488
 30
0.0
 10
486.8261170898
 20
39.6761880405
 30
0.0
 10
486.9116564244
 20
39.6021039387
 30
0.0
  0
SPLINE
  5
5B7
100
AcDbEntity
  8
KONSTRUKTIONSELEMENTE
100
AcDbSpline
 62
7
  6
CONTINUOUS
 70
0
 71
3
 72
11
 73
7
 74
0
 42
0.0000001
 43
0.0000001
 44
0.0000000001
 40
0.0
 40
0.0
 40
0.0
 40
0.0
 40
0.1990521612
 40
0.43933879
 40
0.7107378682
 40
1.0
 40
1.0
 40
1.0
 40
1.0
 10
445.4995792608
 20
34.2101419783
 30
0.0
 10
445.5509942346
 20
34.4806083823
 30
0.0
 10
445.7397072415
 20
35.0627939673
 30
0.0
 10
446.1735424198
 20
35.9468234957
 30
0.0
 10
446.7666462599
 20
36.8847294799
 30
0.0
 10
447.2393708671
 20
37.5008215154
 30
0.0
 10
447.4960311845
 20
37.807724299
 30
0.0
  0
SPLINE
  5
5B8
100
AcDbEntity
  8
KONSTRUKTIONSELEMENTE
100
AcDbSpline
 62
7
  6
CONTINUOUS
 70
0
 71
3
 72
15
 73
11
 74
0
 42
0.0000001
 43
0.0000001
 44
0.0000000001
 40
0.0
 40
0.0
 40
0.0
 40
0.0
 40
0.1696224697
 40
0.33497449
 40
0.4905840196
 40
0.6315529168
 40
0.7539177085
 40
0.8552312826
 40
0.9356200061
 40
1.0
 40
1.0
 40
1.0
 40
1.0
 10
485.7625183208
 20
83.5650565652
 30
0.0
 10
485.9718938903
 20
83.8154183887
 30
0.0
 10
486.4025586124
 20
84.2957613728
 30
0.0
 10
487.0806929397
 20
84.9534984432
 30
0.0
 10
487.7644150041
 20
85.5229373818
 30
0.0
 10
488.427911988
 20
85.9828904306
 30
0.0
 10
489.0467449329
 20
86.3176305799
 30
0.0
 10
489.6007604997
 20
86.5150881263
 30
0.0
 10
490.0768992525
 20
86.5719321825
 30
0.0
 10
490.357137314
 20
86.4923582511
 30
0.0
 10
490.4609814247
 20
86.4248211587
 30
0.0
  0
SPLINE
  5
5B9
100
AcDbEntity
  8
KONSTRUKTIONSELEMENTE
100
AcDbSpline
 62
7
  6
CONTINUOUS
 70
0
 71
3
 72
9
 73
5
 74
0
 42
0.0000001
 43
0.0000001
 44
0.0000000001
 40
0.0
 40
0.0
 40
0.0
 40
0.0
 40
0.257700987
 40
1.0
 40
1.0
 40
1.0
 40
1.0
 10
445.4546784722
 20
34.0142980456
 30
0.0
 10
445.4591149551
 20
34.030979777
 30
0.0
 10
445.4757973747
 20
34.0958522106
 30
0.0
 10
445.4902936318
 20
34.1612952998
 30
0.0
 10
445.4995792608
 20
34.2101419783
 30
0.0
  0
SPLINE
  5
5BA
100
AcDbEntity
  8
KONSTRUKTIONSELEMENTE
100
AcDbSpline
 62
7
  6
CONTINUOUS
 70
0
 71
3
 72
9
 73
5
 74
0
 42
0.0000001
 43
0.0000001
 44
0.0000000001
 40
0.0
 40
0.0
 40
0.0
 40
0.0
 40
0.5484587228
 40
1.0
 40
1.0
 40
1.0
 40
1.0
 10
431.6660962391
 20
14.1353540072
 30
0.0
 10
431.6660962391
 20
14.0924494806
 30
0.0
 10
431.6746272805
 20
14.0129849854
 30
0.0
 10
431.7180631011
 20
13.9431543395
 30
0.0
 10
431.7447649568
 20
13.9200303319
 30
0.0
  0
SPLINE
  5
5BB
100
AcDbEntity
  8
KONSTRUKTIONSELEMENTE
100
AcDbSpline
 62
7
  6
CONTINUOUS
 70
0
 71
3
 72
12
 73
8
 74
0
 42
0.0000001
 43
0.0000001
 44
0.0000000001
 40
0.0
 40
0.0
 40
0.0
 40
0.0
 40
0.285581653
 40
0.5706156379
 40
0.817816411
 40
0.9180971044
 40
1.0
 40
1.0
 40
1.0
 40
1.0
 10
432.7267564108
 20
20.8539126607
 30
0.0
 10
432.5816209092
 20
20.7282216294
 30
0.0
 10
432.3113287096
 20
20.4536522883
 30
0.0
 10
431.9797968014
 20
20.0136890363
 30
0.0
 10
431.7743363911
 20
19.637727392
 30
0.0
 10
431.684264811
 20
19.3627753734
 30
0.0
 10
431.6660962391
 20
19.2404172311
 30
0.0
 10
431.6660962391
 20
19.1853540072
 30
0.0
  0
SPLINE
  5
5BC
100
AcDbEntity
  8
KONSTRUKTIONSELEMENTE
100
AcDbSpline
 62
7
  6
CONTINUOUS
 70
0
 71
3
 72
9
 73
5
 74
0
 42
0.0000001
 43
0.0000001
 44
0.0000000001
 40
0.0
 40
0.0
 40
0.0
 40
0.0
 40
0.2356745602
 40
1.0
 40
1.0
 40
1.0
 40
1.0
 10
445.8082318628
 20
33.7081118278
 30
0.0
 10
445.7983382018
 20
33.670910423
 30
0.0
 10
445.7534420749
 20
33.5138376448
 30
0.0
 10
445.6979196277
 20
33.3599048698
 30
0.0
 10
445.6512350382
 20
33.2441190454
 30
0.0
  0
SPLINE
  5
5BD
100
AcDbEntity
  8
KONSTRUKTIONSELEMENTE
100
AcDbSpline
 62
7
  6
CONTINUOUS
 70
0
 71
3
 72
11
 73
7
 74
0
 42
0.0000001
 43
0.0000001
 44
0.0000000001
 40
0.0
 40
0.0
 40
0.0
 40
0.0
 40
0.2237292561
 40
0.476740435
 40
0.7417195398
 40
1.0
 40
1.0
 40
1.0
 40
1.0
 10
445.6324492388
 20
33.1981865659
 30
0.0
 10
445.5098795039
 20
32.9026482721
 30
0.0
 10
445.1924004823
 20
32.2961762591
 30
0.0
 10
444.5933123085
 20
31.4188054546
 30
0.0
 10
443.8770869635
 20
30.5683403865
 30
0.0
 10
443.3398343058
 20
30.0451077301
 30
0.0
 10
443.0606261575
 20
29.8033063807
 30
0.0
  0
SPLINE
  5
5BE
100
AcDbEntity
  8
KONSTRUKTIONSELEMENTE
100
AcDbSpline
 62
7
  6
CONTINUOUS
 70
0
 71
3
 72
12
 73
8
 74
0
 42
0.0000001
 43
0.0000001
 44
0.0000000001
 40
0.0
 40
0.0
 40
0.0
 40
0.0
 40
0.3358890466
 40
0.6331184293
 40
0.7558878341
 40
0.8575228726
 40
1.0
 40
1.0
 40
1.0
 40
1.0
 10
476.5352687997
 20
71.8025801306
 30
0.0
 10
476.6592423522
 20
71.9508220901
 30
0.0
 10
476.9121886404
 20
72.2147266271
 30
0.0
 10
477.2551378482
 20
72.485071578
 30
0.0
 10
477.521561896
 20
72.628277887
 30
0.0
 10
477.7166531803
 20
72.6998749987
 30
0.0
 10
477.8760903383
 20
72.705201238
 30
0.0
 10
477.9448077308
 20
72.6605095086
 30
0.0
  0
SPLINE
  5
5BF
100
AcDbEntity
  8
KONSTRUKTIONSELEMENTE
100
AcDbSpline
 62
7
  6
CONTINUOUS
 70
0
 71
3
 72
12
 73
8
 74
0
 42
0.0000001
 43
0.0000001
 44
0.0000000001
 40
0.0
 40
0.0
 40
0.0
 40
0.0
 40
0.1424771274
 40
0.2441121659
 40
0.3668815707
 40
0.6641109534
 40
1.0
 40
1.0
 40
1.0
 40
1.0
 10
479.4389889245
 20
71.6887389126
 30
0.0
 10
479.507706317
 20
71.6440471833
 30
0.0
 10
479.667143475
 20
71.6493734225
 30
0.0
 10
479.8622347593
 20
71.7209705342
 30
0.0
 10
480.1286588071
 20
71.8641768432
 30
0.0
 10
480.4716080149
 20
72.1345217941
 30
0.0
 10
480.7245543031
 20
72.3984263312
 30
0.0
 10
480.8485278557
 20
72.5466682907
 30
0.0
  0
SPLINE
  5
5C0
100
AcDbEntity
  8
BEZUGSACHSEN
100
AcDbSpline
 62
7
  6
CONTINUOUS
 70
0
 71
3
 72
15
 73
11
 74
0
 42
0.0000001
 43
0.0000001
 44
0.0000000001
 40
0.0
 40
0.0
 40
0.0
 40
0.0
 40
0.1803671637
 40
0.3480918951
 40
0.5001474142
 40
0.6345604171
 40
0.7501843696
 40
0.8472874255
 40
0.9284935803
 40
1.0
 40
1.0
 40
1.0
 40
1.0
 10
497.78058028
 20
65.6558248235
 30
0.0
 10
497.5945103487
 20
65.4946835361
 30
0.0
 10
497.2263065294
 20
65.1939600824
 30
0.0
 10
496.669649364
 20
64.7979991678
 30
0.0
 10
496.1371155626
 20
64.4792781813
 30
0.0
 10
495.6400015574
 20
64.2443335627
 30
0.0
 10
495.1877945022
 20
64.0974792761
 30
0.0
 10
494.787581732
 20
64.0421563841
 30
0.0
 10
494.4438085622
 20
64.0826872882
 30
0.0
 10
494.2540329388
 20
64.1841491874
 30
0.0
 10
494.1802503386
 20
64.248015826
 30
0.0
  0
SPLINE
  5
5C1
100
AcDbEntity
  8
KONSTRUKTIONSELEMENTE
100
AcDbSpline
 62
7
  6
CONTINUOUS
 70
0
 71
3
 72
9
 73
5
 74
0
 42
0.0000001
 43
0.0000001
 44
0.0000000001
 40
0.0
 40
0.0
 40
0.0
 40
0.0
 40
0.5487156268
 40
1.0
 40
1.0
 40
1.0
 40
1.0
 10
448.9902123781
 20
14.9717566611
 30
0.0
 10
448.9902123781
 20
14.8286444891
 30
0.0
 10
449.0185015771
 20
14.5636345004
 30
0.0
 10
449.1635623741
 20
14.3309769996
 30
0.0
 10
449.2525389754
 20
14.2539273355
 30
0.0
  0
SPLINE
  5
5C2
100
AcDbEntity
  8
BEZUGSACHSEN
100
AcDbSpline
 62
7
  6
CONTINUOUS
 70
0
 71
3
 72
11
 73
7
 74
0
 42
0.0000001
 43
0.0000001
 44
0.0000000001
 40
0.0
 40
0.0
 40
0.0
 40
0.0
 40
0.2070155551
 40
0.4340974801
 40
0.695752447
 40
1.0
 40
1.0
 40
1.0
 40
1.0
 10
501.3809102214
 20
72.5636338209
 30
0.0
 10
501.4418903629
 20
72.5108490633
 30
0.0
 10
501.5502319052
 20
72.3759338274
 30
0.0
 10
501.6450688148
 20
72.1183230269
 30
0.0
 10
501.6792646759
 20
71.8091005069
 30
0.0
 10
501.6640542912
 20
71.5881638431
 30
0.0
 10
501.6486888861
 20
71.4706303944
 30
0.0
  0
SPLINE
  5
5C3
100
AcDbEntity
  8
BEZUGSACHSEN
100
AcDbSpline
 62
7
  6
CONTINUOUS
 70
0
 71
3
 72
9
 73
5
 74
0
 42
0.0000001
 43
0.0000001
 44
0.0000000001
 40
0.0
 40
0.0
 40
0.0
 40
0.0
 40
0.2550126305
 40
1.0
 40
1.0
 40
1.0
 40
1.0
 10
498.6483235065
 20
66.4766387075
 30
0.0
 10
498.5775072024
 20
66.4038546266
 30
0.0
 10
498.2969045537
 20
66.1212915982
 30
0.0
 10
498.0048391204
 20
65.8500386763
 30
0.0
 10
497.78058028
 20
65.6558248235
 30
0.0
  0
SPLINE
  5
5C4
100
AcDbEntity
  8
KONSTRUKTIONSELEMENTE
100
AcDbSpline
 62
7
  6
CONTINUOUS
 70
0
 71
3
 72
9
 73
5
 74
0
 42
0.0000001
 43
0.0000001
 44
0.0000000001
 40
0.0
 40
0.0
 40
0.0
 40
0.0
 40
0.5486959742
 40
1.0
 40
1.0
 40
1.0
 40
1.0
 10
448.9902123781
 20
21.8771267605
 30
0.0
 10
448.9902123781
 20
21.991609188
 30
0.0
 10
448.9675722016
 20
22.2036006679
 30
0.0
 10
448.8515586186
 20
22.3897500581
 30
0.0
 10
448.7803681045
 20
22.451381357
 30
0.0
  0
SPLINE
  5
5C5
100
AcDbEntity
  8
KONSTRUKTIONSELEMENTE
100
AcDbSpline
 62
7
  6
CONTINUOUS
 70
0
 71
3
 72
13
 73
9
 74
0
 42
0.0000001
 43
0.0000001
 44
0.0000000001
 40
0.0
 40
0.0
 40
0.0
 40
0.0
 40
0.0843625955
 40
0.1746175943
 40
0.2754204456
 40
0.3897531286
 40
0.6639913559
 40
1.0
 40
1.0
 40
1.0
 40
1.0
 10
486.9116564244
 20
39.6021039387
 30
0.0
 10
486.9579304608
 20
39.5620268159
 30
0.0
 10
487.0415578122
 20
39.4640701256
 30
0.0
 10
487.125629462
 20
39.2805556991
 30
0.0
 10
487.1709231946
 20
39.0621215997
 30
0.0
 10
487.181287287
 20
38.7058116076
 30
0.0
 10
487.0863939639
 20
38.1838322966
 30
0.0
 10
486.9369519717
 20
37.765802549
 30
0.0
 10
486.84258646
 20
37.540984192
 30
0.0
  0
SPLINE
  5
5C6
100
AcDbEntity
  8
KONSTRUKTIONSELEMENTE
100
AcDbSpline
 62
7
  6
CONTINUOUS
 70
0
 71
3
 72
13
 73
9
 74
0
 42
0.0000001
 43
0.0000001
 44
0.0000000001
 40
0.0
 40
0.0
 40
0.0
 40
0.0
 40
0.2854781235
 40
0.5704521399
 40
0.700966491
 40
0.8178838308
 40
0.9181009276
 40
1.0
 40
1.0
 40
1.0
 40
1.0
 10
446.1617852534
 20
25.9776370177
 30
0.0
 10
446.548783862
 20
26.3127876439
 30
0.0
 10
447.2689418032
 20
27.0447687661
 30
0.0
 10
448.0292369457
 20
28.0513855975
 30
0.0
 10
448.5114101524
 20
28.8766257731
 30
0.0
 10
448.7748111431
 20
29.4431186487
 30
0.0
 10
448.9417510968
 20
29.954009583
 30
0.0
 10
448.9902123781
 20
30.2802562591
 30
0.0
 10
448.9902123781
 20
30.4271267605
 30
0.0
  0
SPLINE
  5
5C7
100
AcDbEntity
  8
KONSTRUKTIONSELEMENTE
100
AcDbSpline
 62
7
  6
CONTINUOUS
 70
0
 71
3
 72
12
 73
8
 74
0
 42
0.0000001
 43
0.0000001
 44
0.0000000001
 40
0.0
 40
0.0
 40
0.0
 40
0.0
 40
0.1424771274
 40
0.2441121659
 40
0.3668815707
 40
0.6641109534
 40
1.0
 40
1.0
 40
1.0
 40
1.0
 10
481.3392566757
 20
67.4004488762
 30
0.0
 10
481.4079740682
 20
67.3557571468
 30
0.0
 10
481.5674112262
 20
67.3610833861
 30
0.0
 10
481.7625025106
 20
67.4326804978
 30
0.0
 10
482.0289265584
 20
67.5758868068
 30
0.0
 10
482.3718757662
 20
67.8462317576
 30
0.0
 10
482.6248220543
 20
68.1101362947
 30
0.0
 10
482.7487956069
 20
68.2583782542
 30
0.0
  0
SPLINE
  5
5C8
100
AcDbEntity
  8
KONSTRUKTIONSELEMENTE
100
AcDbSpline
 62
7
  6
CONTINUOUS
 70
0
 71
3
 72
11
 73
7
 74
0
 42
0.0000001
 43
0.0000001
 44
0.0000000001
 40
0.0
 40
0.0
 40
0.0
 40
0.0
 40
0.2892621318
 40
0.56066121
 40
0.8009478388
 40
1.0
 40
1.0
 40
1.0
 40
1.0
 10
451.0315650904
 20
34.7458621206
 30
0.0
 10
450.774904773
 20
34.4389593369
 30
0.0
 10
450.3021801658
 20
33.8228673014
 30
0.0
 10
449.7090763258
 20
32.8849613172
 30
0.0
 10
449.2752411475
 20
32.0009317888
 30
0.0
 10
449.0865281405
 20
31.4187462038
 30
0.0
 10
449.0351131667
 20
31.1482797999
 30
0.0
  0
SPLINE
  5
5C9
100
AcDbEntity
  8
KONSTRUKTIONSELEMENTE
100
AcDbSpline
 62
7
  6
CONTINUOUS
 70
0
 71
3
 72
15
 73
11
 74
0
 42
0.0000001
 43
0.0000001
 44
0.0000000001
 40
0.0
 40
0.0
 40
0.0
 40
0.0
 40
0.0643794215
 40
0.1447670279
 40
0.2460796662
 40
0.3684482679
 40
0.5094197477
 40
0.6650286244
 40
0.8303788796
 40
1.0
 40
1.0
 40
1.0
 40
1.0
 10
493.9965153307
 20
83.3629589802
 30
0.0
 10
493.8926721411
 20
83.4304954735
 30
0.0
 10
493.6124377946
 20
83.5100695618
 30
0.0
 10
493.136303889
 20
83.4532276758
 30
0.0
 10
492.5822841721
 20
83.255771726
 30
0.0
 10
491.9634418181
 20
82.9210263469
 30
0.0
 10
491.2999364702
 20
82.4610659538
 30
0.0
 10
490.6162153453
 20
81.8916253784
 30
0.0
 10
489.9380865944
 20
81.2338929902
 30
0.0
 10
489.507426135
 20
80.7535542238
 30
0.0
 10
489.2980522267
 20
80.5031943867
 30
0.0
  0
SPLINE
  5
5CA
100
AcDbEntity
  8
KONSTRUKTIONSELEMENTE
100
AcDbSpline
 62
7
  6
CONTINUOUS
 70
0
 71
3
 72
10
 73
6
 74
0
 42
0.0000001
 43
0.0000001
 44
0.0000000001
 40
0.0
 40
0.0
 40
0.0
 40
0.0
 40
0.3401098209
 40
0.6176924174
 40
1.0
 40
1.0
 40
1.0
 40
1.0
 10
484.9001509082
 20
32.9132853511
 30
0.0
 10
484.8907148818
 20
32.8908047655
 30
0.0
 10
484.8759331834
 20
32.8485053113
 30
0.0
 10
484.8623051
 20
32.7794661035
 30
0.0
 10
484.872523187
 20
32.7251247806
 30
0.0
 10
484.8932365549
 20
32.7071798286
 30
0.0
  0
SPLINE
  5
5CB
100
AcDbEntity
  8
KONSTRUKTIONSELEMENTE
100
AcDbSpline
 62
7
  6
CONTINUOUS
 70
0
 71
3
 72
9
 73
5
 74
0
 42
0.0000001
 43
0.0000001
 44
0.0000000001
 40
0.0
 40
0.0
 40
0.0
 40
0.0
 40
0.2423077675
 40
1.0
 40
1.0
 40
1.0
 40
1.0
 10
449.0351131667
 20
31.1482797999
 30
0.0
 10
449.032082055
 20
31.1323347582
 30
0.0
 10
449.0189217181
 20
31.0666543009
 30
0.0
 10
449.0032565865
 20
31.0014837249
 30
0.0
 10
448.9902123781
 20
30.9524358671
 30
0.0
  0
SPLINE
  5
5CC
100
AcDbEntity
  8
KONSTRUKTIONSELEMENTE
100
AcDbSpline
 62
7
  6
CONTINUOUS
 70
0
 71
3
 72
11
 73
7
 74
0
 42
0.0000001
 43
0.0000001
 44
0.0000000001
 40
0.0
 40
0.0
 40
0.0
 40
0.0
 40
0.3179594006
 40
0.6021603801
 40
0.8341697945
 40
1.0
 40
1.0
 40
1.0
 40
1.0
 10
485.6033718635
 20
76.9512694837
 30
0.0
 10
485.7292776726
 20
77.0203952166
 30
0.0
 10
485.9626408735
 20
77.1605622924
 30
0.0
 10
486.2672684853
 20
77.3847096201
 30
0.0
 10
486.4896537587
 20
77.5969986166
 30
0.0
 10
486.5943678503
 20
77.7500269306
 30
0.0
 10
486.6155802122
 20
77.8218723478
 30
0.0
  0
SPLINE
  5
5CD
100
AcDbEntity
  8
KONSTRUKTIONSELEMENTE
100
AcDbSpline
 62
7
  6
CONTINUOUS
 70
0
 71
3
 72
13
 73
9
 74
0
 42
0.0000001
 43
0.0000001
 44
0.0000000001
 40
0.0
 40
0.0
 40
0.0
 40
0.0
 40
0.3168637478
 40
0.6100579332
 40
0.7371323552
 40
0.8456364708
 40
0.9329740508
 40
1.0
 40
1.0
 40
1.0
 40
1.0
 10
487.1891583011
 20
75.5779381438
 30
0.0
 10
487.2527224126
 20
75.7642591639
 30
0.0
 10
487.35456559
 20
76.1301950018
 30
0.0
 10
487.4249734638
 20
76.5845548776
 30
0.0
 10
487.4319721717
 20
76.9134797145
 30
0.0
 10
487.4123046681
 20
77.1139135224
 30
0.0
 10
487.3689750988
 20
77.2721988563
 30
0.0
 10
487.3156381506
 20
77.3558846387
 30
0.0
 10
487.2842250477
 20
77.3832220833
 30
0.0
  0
SPLINE
  5
5CE
100
AcDbEntity
  8
KONSTRUKTIONSELEMENTE
100
AcDbSpline
 62
7
  6
CONTINUOUS
 70
0
 71
3
 72
12
 73
8
 74
0
 42
0.0000001
 43
0.0000001
 44
0.0000000001
 40
0.0
 40
0.0
 40
0.0
 40
0.0
 40
0.3358890466
 40
0.6331184293
 40
0.7558878341
 40
0.8575228726
 40
1.0
 40
1.0
 40
1.0
 40
1.0
 10
479.3636959244
 20
69.3530903878
 30
0.0
 10
479.4876694769
 20
69.5013323473
 30
0.0
 10
479.7406157651
 20
69.7652368844
 30
0.0
 10
480.0835649729
 20
70.0355818352
 30
0.0
 10
480.3499890207
 20
70.1787881442
 30
0.0
 10
480.5450803051
 20
70.2503852559
 30
0.0
 10
480.7045174631
 20
70.2557114952
 30
0.0
 10
480.7732348556
 20
70.2110197658
 30
0.0
  0
SPLINE
  5
5CF
100
AcDbEntity
  8
KONSTRUKTIONSELEMENTE
100
AcDbSpline
 62
7
  6
CONTINUOUS
 70
0
 71
3
 72
12
 73
8
 74
0
 42
0.0000001
 43
0.0000001
 44
0.0000000001
 40
0.0
 40
0.0
 40
0.0
 40
0.0
 40
0.1424771274
 40
0.2441121659
 40
0.3668815707
 40
0.6641109534
 40
1.0
 40
1.0
 40
1.0
 40
1.0
 10
482.2674160492
 20
69.2392491698
 30
0.0
 10
482.3361334418
 20
69.1945574405
 30
0.0
 10
482.4955705998
 20
69.1998836797
 30
0.0
 10
482.6906618841
 20
69.2714807915
 30
0.0
 10
482.9570859319
 20
69.4146871005
 30
0.0
 10
483.3000351397
 20
69.6850320513
 30
0.0
 10
483.5529814279
 20
69.9489365884
 30
0.0
 10
483.6769549804
 20
70.0971785479
 30
0.0
  0
SPLINE
  5
5D0
100
AcDbEntity
  8
KONSTRUKTIONSELEMENTE
100
AcDbSpline
 62
7
  6
CONTINUOUS
 70
0
 71
3
 72
13
 73
9
 74
0
 42
0.0000001
 43
0.0000001
 44
0.0000000001
 40
0.0
 40
0.0
 40
0.0
 40
0.0
 40
0.1424374923
 40
0.2440429614
 40
0.3667933689
 40
0.5081503164
 40
0.6641988276
 40
1.0
 40
1.0
 40
1.0
 40
1.0
 10
480.9857032851
 20
67.706635094
 30
0.0
 10
481.0544226508
 20
67.6619420814
 30
0.0
 10
481.2138733387
 20
67.6672574557
 30
0.0
 10
481.4089393769
 20
67.7388714283
 30
0.0
 10
481.5959570924
 20
67.8392412066
 30
0.0
 10
481.794580427
 20
67.977186372
 30
0.0
 10
482.0749632554
 20
68.2106599788
 30
0.0
 10
482.2712630493
 20
68.4163157991
 30
0.0
 10
482.3952422163
 20
68.5645644721
 30
0.0
  0
SPLINE
  5
5D1
100
AcDbEntity
  8
KONSTRUKTIONSELEMENTE
100
AcDbSpline
 62
7
  6
CONTINUOUS
 70
0
 71
3
 72
12
 73
8
 74
0
 42
0.0000001
 43
0.0000001
 44
0.0000000001
 40
0.0
 40
0.0
 40
0.0
 40
0.0
 40
0.285581653
 40
0.5706156379
 40
0.817816411
 40
0.9180971044
 40
1.0
 40
1.0
 40
1.0
 40
1.0
 10
435.5551835356
 20
18.4044229179
 30
0.0
 10
435.410048034
 20
18.2787318866
 30
0.0
 10
435.1397558343
 20
18.0041625455
 30
0.0
 10
434.8082239262
 20
17.5641992935
 30
0.0
 10
434.6027635159
 20
17.1882376493
 30
0.0
 10
434.5126919357
 20
16.9132856306
 30
0.0
 10
434.4945233638
 20
16.7909274883
 30
0.0
 10
434.4945233638
 20
16.7358642644
 30
0.0
  0
SPLINE
  5
5D2
100
AcDbEntity
  8
KONSTRUKTIONSELEMENTE
100
AcDbSpline
 62
7
  6
CONTINUOUS
 70
0
 71
3
 72
11
 73
7
 74
0
 42
0.0000001
 43
0.0000001
 44
0.0000000001
 40
0.0
 40
0.0
 40
0.0
 40
0.0
 40
0.2071541493
 40
0.4584326515
 40
0.7313852971
 40
1.0
 40
1.0
 40
1.0
 40
1.0
 10
448.6366589875
 20
31.258622085
 30
0.0
 10
448.5509766849
 20
30.9364458934
 30
0.0
 10
448.2582338161
 20
30.2521149425
 30
0.0
 10
447.6363789206
 20
29.2501695858
 30
0.0
 10
446.8361867323
 20
28.252534939
 30
0.0
 10
446.2158293744
 20
27.6368130351
 30
0.0
 10
445.8890532823
 20
27.353816638
 30
0.0
  0
SPLINE
  5
5D3
100
AcDbEntity
  8
KONSTRUKTIONSELEMENTE
100
AcDbSpline
 62
7
  6
CONTINUOUS
 70
0
 71
3
 72
13
 73
9
 74
0
 42
0.0000001
 43
0.0000001
 44
0.0000000001
 40
0.0
 40
0.0
 40
0.0
 40
0.0
 40
0.2854859153
 40
0.5704513138
 40
0.7009656111
 40
0.8178785543
 40
0.9181069222
 40
1.0
 40
1.0
 40
1.0
 40
1.0
 10
445.8082318628
 20
26.2838232355
 30
0.0
 10
446.195240749
 20
26.6189827625
 30
0.0
 10
446.915395212
 20
27.3509632583
 30
0.0
 10
447.67569136
 20
28.3575794447
 30
0.0
 10
448.1578278605
 20
29.18281054
 30
0.0
 10
448.4212698148
 20
29.749298961
 30
0.0
 10
448.588177882
 20
30.2602010573
 30
0.0
 10
448.6366589875
 20
30.5864533353
 30
0.0
 10
448.6366589875
 20
30.7333129783
 30
0.0
  0
SPLINE
  5
5D4
100
AcDbEntity
  8
KONSTRUKTIONSELEMENTE
100
AcDbSpline
 62
7
  6
CONTINUOUS
 70
0
 71
3
 72
9
 73
5
 74
0
 42
0.0000001
 43
0.0000001
 44
0.0000000001
 40
0.0
 40
0.0
 40
0.0
 40
0.0
 40
0.2756955256
 40
1.0
 40
1.0
 40
1.0
 40
1.0
 10
448.6366589875
 20
22.1833129783
 30
0.0
 10
448.6366589875
 20
22.2185193477
 30
0.0
 10
448.6318973054
 20
22.3459684402
 30
0.0
 10
448.6058829443
 20
22.4741184122
 30
0.0
 10
448.5692200976
 20
22.5590356746
 30
0.0
  0
SPLINE
  5
5D5
100
AcDbEntity
  8
KONSTRUKTIONSELEMENTE
100
AcDbSpline
 62
7
  6
CONTINUOUS
 70
0
 71
3
 72
9
 73
5
 74
0
 42
0.0000001
 43
0.0000001
 44
0.0000000001
 40
0.0
 40
0.0
 40
0.0
 40
0.0
 40
0.5486959742
 40
1.0
 40
1.0
 40
1.0
 40
1.0
 10
448.6366589875
 20
21.1833129783
 30
0.0
 10
448.6366589875
 20
21.2977954058
 30
0.0
 10
448.614018811
 20
21.5097868857
 30
0.0
 10
448.498005228
 20
21.695936276
 30
0.0
 10
448.4268147139
 20
21.7575675749
 30
0.0
  0
SPLINE
  5
5D6
100
AcDbEntity
  8
KONSTRUKTIONSELEMENTE
100
AcDbSpline
 62
7
  6
CONTINUOUS
 70
0
 71
3
 72
9
 73
5
 74
0
 42
0.0000001
 43
0.0000001
 44
0.0000000001
 40
0.0
 40
0.0
 40
0.0
 40
0.0
 40
0.5484587228
 40
1.0
 40
1.0
 40
1.0
 40
1.0
 10
434.4945233638
 20
11.6858642644
 30
0.0
 10
434.4945233638
 20
11.6429597379
 30
0.0
 10
434.5030544052
 20
11.5634952426
 30
0.0
 10
434.5464902259
 20
11.4936645967
 30
0.0
 10
434.5731920816
 20
11.4705405891
 30
0.0
  0
SPLINE
  5
5D7
100
AcDbEntity
  8
0
100
AcDbSpline
 62
7
  6
CONTINUOUS
 70
0
 71
3
 72
11
 73
7
 74
0
 42
0.0000001
 43
0.0000001
 44
0.0000000001
 40
0.0
 40
0.0
 40
0.0
 40
0.0
 40
0.2281221682
 40
0.4667569186
 40
0.7232431199
 40
1.0
 40
1.0
 40
1.0
 40
1.0
 10
584.5537042392
 20
202.9070679623
 30
0.0
 10
584.5537042392
 20
204.0172320532
 30
0.0
 10
584.8557395541
 20
206.2990764598
 30
0.0
 10
586.2095132712
 20
209.586810886
 30
0.0
 10
588.4561547535
 20
212.6396727739
 30
0.0
 10
590.4449059248
 20
214.34460062
 30
0.0
 10
591.5514533353
 20
215.1124211714
 30
0.0
  0
SPLINE
  5
5D8
100
AcDbEntity
  8
0
100
AcDbSpline
 62
7
  6
CONTINUOUS
 70
0
 71
3
 72
11
 73
7
 74
0
 42
0.0000001
 43
0.0000001
 44
0.0000000001
 40
0.0
 40
0.0
 40
0.0
 40
0.0
 40
0.2767547023
 40
0.5332397733
 40
0.7718751558
 40
1.0
 40
1.0
 40
1.0
 40
1.0
 10
617.5577548624
 20
215.1111709877
 30
0.0
 10
618.6640368512
 20
214.3433389874
 30
0.0
 10
620.6523115162
 20
212.6384895679
 30
0.0
 10
622.8983535291
 20
209.585911862
 30
0.0
 10
624.2517577165
 20
206.2985978558
 30
0.0
 10
624.5537042392
 20
204.0170794517
 30
0.0
 10
624.5537042392
 20
202.9070679623
 30
0.0
  0
SPLINE
  5
5D9
100
AcDbEntity
  8
0
100
AcDbSpline
 62
7
  6
CONTINUOUS
 70
0
 71
3
 72
15
 73
11
 74
0
 42
0.0000001
 43
0.0000001
 44
0.0000000001
 40
0.0
 40
0.0
 40
0.0
 40
0.0
 40
0.1216176518
 40
0.2436326724
 40
0.3664251684
 40
0.4903205718
 40
0.6155637269
 40
0.7422876904
 40
0.8704847592
 40
1.0
 40
1.0
 40
1.0
 40
1.0
 10
566.5537042392
 20
202.9070679623
 30
0.0
 10
566.5537042392
 20
204.6676846174
 30
0.0
 10
566.8585259964
 20
208.2021034313
 30
0.0
 10
568.214618894
 20
213.3556140972
 30
0.0
 10
570.4270792843
 20
218.2403650901
 30
0.0
 10
573.430289807
 20
222.7372249366
 30
0.0
 10
577.1410516407
 20
226.7465712837
 30
0.0
 10
581.4643548285
 20
230.185401928
 30
0.0
 10
586.2948183751
 20
232.9862902573
 30
0.0
 10
589.767618397
 20
234.3883285039
 30
0.0
 10
591.5502780027
 20
234.9693209083
 30
0.0
  0
SPLINE
  5
5DA
100
AcDbEntity
  8
0
100
AcDbSpline
 62
7
  6
CONTINUOUS
 70
0
 71
3
 72
15
 73
11
 74
0
 42
0.0000001
 43
0.0000001
 44
0.0000000001
 40
0.0
 40
0.0
 40
0.0
 40
0.0
 40
0.1295151593
 40
0.257711768
 40
0.384435142
 40
0.5096776833
 40
0.6335726797
 40
0.7563651997
 40
0.8783808533
 40
1.0
 40
1.0
 40
1.0
 40
1.0
 10
617.559205384
 20
234.9686395645
 30
0.0
 10
619.3417453945
 20
234.38758732
 30
0.0
 10
622.8142935311
 20
232.9854491682
 30
0.0
 10
627.6443732383
 20
230.1844922817
 30
0.0
 10
631.967300793
 20
226.745675462
 30
0.0
 10
635.6777260458
 20
222.7364260803
 30
0.0
 10
638.6806679623
 20
218.2397327239
 30
0.0
 10
640.892928338
 20
213.3551844302
 30
0.0
 10
642.248907444
 20
208.2018900745
 30
0.0
 10
642.5537042392
 20
204.6676180045
 30
0.0
 10
642.5537042392
 20
202.9070679623
 30
0.0
  0
SPLINE
  5
5DB
100
AcDbEntity
  8
0
100
AcDbSpline
 62
7
  6
CONTINUOUS
 70
0
 71
3
 72
15
 73
11
 74
0
 42
0.0000001
 43
0.0000001
 44
0.0000000001
 40
0.0
 40
0.0
 40
0.0
 40
0.0
 40
0.1210263734
 40
0.2425544432
 40
0.3650528432
 40
0.4889043809
 40
0.6143588799
 40
0.7414857592
 40
0.8701451865
 40
1.0
 40
1.0
 40
1.0
 40
1.0
 10
642.5537042392
 20
163.935924792
 30
0.0
 10
642.5537042392
 20
161.9534739434
 30
0.0
 10
642.1663850463
 20
157.9697761528
 30
0.0
 10
640.448848435
 20
152.2059465756
 30
0.0
 10
637.6624374536
 20
146.8234851846
 30
0.0
 10
633.9104918805
 20
141.9852985368
 30
0.0
 10
629.3209252029
 20
137.8226686324
 30
0.0
 10
624.0374844449
 20
134.4407533514
 30
0.0
 10
618.2177696822
 20
131.9202618374
 30
0.0
 10
614.0988371822
 20
130.8556229192
 30
0.0
 10
612.0050089231
 20
130.4810798829
 30
0.0
  0
SPLINE
  5
5DC
100
AcDbEntity
  8
0
100
AcDbSpline
 62
7
  6
CONTINUOUS
 70
0
 71
3
 72
11
 73
7
 74
0
 42
0.0000001
 43
0.0000001
 44
0.0000000001
 40
0.0
 40
0.0
 40
0.0
 40
0.0
 40
0.2543834442
 40
0.5062361032
 40
0.7548547962
 40
1.0
 40
1.0
 40
1.0
 40
1.0
 10
597.0993794715
 20
130.4816232393
 30
0.0
 10
594.8837454586
 20
130.8781340215
 30
0.0
 10
590.5294655875
 20
132.0243444756
 30
0.0
 10
584.4101548991
 20
134.7760855011
 30
0.0
 10
578.9135415653
 20
138.4823858605
 30
0.0
 10
575.7620253684
 20
141.5496202502
 30
0.0
 10
574.356143404
 20
143.2014247879
 30
0.0
  0
SPLINE
  5
5DD
100
AcDbEntity
  8
0
100
AcDbSpline
 62
7
  6
CONTINUOUS
 70
0
 71
3
 72
11
 73
7
 74
0
 42
0.0000001
 43
0.0000001
 44
0.0000000001
 40
0.0
 40
0.0
 40
0.0
 40
0.0
 40
0.2516553033
 40
0.50190757
 40
0.751198086
 40
1.0
 40
1.0
 40
1.0
 40
1.0
 10
570.7942105993
 20
148.2509124069
 30
0.0
 10
570.1073297627
 20
149.4451238571
 30
0.0
 10
568.8855744708
 20
151.9159495248
 30
0.0
 10
567.5483772152
 20
155.8167196318
 30
0.0
 10
566.7355341825
 20
159.8437063657
 30
0.0
 10
566.5537042392
 20
162.5738856543
 30
0.0
 10
566.5537042392
 20
163.935924792
 30
0.0
  0
SPLINE
  5
5DE
100
AcDbEntity
  8
0
100
AcDbSpline
 62
7
  6
CONTINUOUS
 70
0
 71
3
 72
14
 73
10
 74
0
 42
0.0000001
 43
0.0000001
 44
0.0000000001
 40
0.0
 40
0.0
 40
0.0
 40
0.0
 40
0.1072740202
 40
0.2171905397
 40
0.3319323781
 40
0.4529349831
 40
0.5807829267
 40
0.7152893391
 40
1.0
 40
1.0
 40
1.0
 40
1.0
 10
624.5537042392
 20
163.935924792
 30
0.0
 10
624.5537042392
 20
163.1473440874
 30
0.0
 10
624.4041582454
 20
161.5469316728
 30
0.0
 10
623.7310364369
 20
159.1881558544
 30
0.0
 10
622.6028847018
 20
156.8964638792
 30
0.0
 10
621.0215803381
 20
154.7262376177
 30
0.0
 10
619.0032976317
 20
152.7413404206
 30
0.0
 10
615.7245937404
 20
150.3924417259
 30
0.0
 10
612.8291441302
 20
149.1826389247
 30
0.0
 10
610.8078230199
 20
148.6398411895
 30
0.0
  0
SPLINE
  5
5DF
100
AcDbEntity
  8
0
100
AcDbSpline
 62
7
  6
CONTINUOUS
 70
0
 71
3
 72
9
 73
5
 74
0
 42
0.0000001
 43
0.0000001
 44
0.0000000001
 40
0.0
 40
0.0
 40
0.0
 40
0.0
 40
0.5187603996
 40
1.0
 40
1.0
 40
1.0
 40
1.0
 10
598.2996701579
 20
148.6398224763
 30
0.0
 10
596.4405697886
 20
149.1390463566
 30
0.0
 10
592.9578839821
 20
150.5478281249
 30
0.0
 10
589.9668295755
 20
152.8385023536
 30
0.0
 10
588.7317376788
 20
154.1282282678
 30
0.0
  0
SPLINE
  5
5E0
100
AcDbEntity
  8
0
100
AcDbSpline
 62
7
  6
CONTINUOUS
 70
0
 71
3
 72
9
 73
5
 74
0
 42
0.0000001
 43
0.0000001
 44
0.0000000001
 40
0.0
 40
0.0
 40
0.0
 40
0.0
 40
0.5057276151
 40
1.0
 40
1.0
 40
1.0
 40
1.0
 10
585.374185198
 20
159.4045117791
 30
0.0
 10
585.1041634957
 20
160.1356098708
 30
0.0
 10
584.6929763357
 20
161.6301025523
 30
0.0
 10
584.5537042392
 20
163.1742092063
 30
0.0
 10
584.5537042392
 20
163.935924792
 30
0.0
  0
ELLIPSE
  5
5E1
100
AcDbEntity
  8
KONSTRUKTIONSELEMENTE
100
AcDbEllipse
 62
7
  6
CONTINUOUS
 10
48.4172522546
 20
78.6020818309
 30
0.0
 11
1.5238181784
 21
-0.3601704405
 31
0.0
 40
0.0607989098
 41
-2.7235007144
 42
-1.1527043876
  0
ELLIPSE
  5
5E2
100
AcDbEntity
  8
KONSTRUKTIONSELEMENTE
100
AcDbEllipse
 62
7
  6
CONTINUOUS
 10
52.985877495
 20
76.0816958271
 30
0.0
 11
-0.8214913299
 21
1.5347520336
 31
0.0
 40
0.7424978488
 41
4.1566475332
 42
5.72744386
  0
ELLIPSE
  5
5E3
100
AcDbEntity
  8
KONSTRUKTIONSELEMENTE
100
AcDbEllipse
 62
7
  6
CONTINUOUS
 10
79.2185895805
 20
59.0097603077
 30
0.0
 11
31.1769145362
 21
54.0
 31
0.0
 40
0.5773502692
 41
-0.3571758222
 42
-0.1561898301
  0
ELLIPSE
  5
5E4
100
AcDbEntity
  8
KONSTRUKTIONSELEMENTE
100
AcDbEllipse
 62
7
  6
CONTINUOUS
 10
79.2185895805
 20
59.0097603077
 30
0.0
 11
31.1769145362
 21
54.0
 31
0.0
 40
0.5773502692
 41
0.1561898301
 42
0.3571758222
  0
ELLIPSE
  5
5E5
100
AcDbEntity
  8
BEZUGSACHSEN
100
AcDbEllipse
 62
7
  6
CONTINUOUS
 10
360.3768882006
 20
59.0097603077
 30
0.0
 11
-31.1769145362
 21
54.0
 31
0.0
 40
0.5773502692
 41
-0.3571758222
 42
-0.1561898301
  0
ELLIPSE
  5
5E6
100
AcDbEntity
  8
BEZUGSACHSEN
100
AcDbEllipse
 62
7
  6
CONTINUOUS
 10
360.3768882006
 20
59.0097603077
 30
0.0
 11
-31.1769145362
 21
54.0
 31
0.0
 40
0.5773502692
 41
0.1561898301
 42
0.3571758222
  0
ELLIPSE
  5
5E7
100
AcDbEntity
  8
KONSTRUKTIONSELEMENTE
100
AcDbEllipse
 62
7
  6
CONTINUOUS
 10
651.6117983609
 20
59.0097603077
 30
0.0
 11
-35.0369636208
 21
56.6909980011
 31
0.0
 40
0.1458980338
 41
0.5642218358
 42
0.5889996267
  0
ELLIPSE
  5
5E8
100
AcDbEntity
  8
BEZUGSACHSEN
100
AcDbEllipse
 62
7
  6
CONTINUOUS
 10
557.4956101175
 20
59.0097603077
 30
0.0
 11
35.0369636208
 21
56.6909980011
 31
0.0
 40
0.1458980338
 41
-0.5889996267
 42
-0.5642218358
  0
ELLIPSE
  5
5E9
100
AcDbEntity
  8
RUNDUNGEN
100
AcDbEllipse
 62
7
  6
CONTINUOUS
 10
609.2505228907
 20
130.8039135125
 30
0.0
 11
0.4917496415
 21
7.9459163478
 31
0.0
 40
0.2511847582
 41
-4.3824699552
 42
-3.4256861865
  0
ELLIPSE
  5
5EA
100
AcDbEntity
  8
BEZUGSACHSEN
100
AcDbEllipse
 62
7
  6
CONTINUOUS
 10
599.8568855876
 20
130.8039135125
 30
0.0
 11
-0.4917496415
 21
7.9459163478
 31
0.0
 40
0.2511847582
 41
-2.8574991207
 42
-1.9007153519
  0
ELLIPSE
  5
5EB
100
AcDbEntity
  8
KONSTRUKTIONSELEMENTE
100
AcDbEllipse
 62
7
  6
CONTINUOUS
 10
484.9621851143
 20
81.0515715737
 30
0.0
 11
-0.1680321616
 21
2.0881838291
 31
0.0
 40
0.2046205075
 41
1.414284035
 42
2.9366355233
  0
ELLIPSE
  5
5EC
100
AcDbEntity
  8
KONSTRUKTIONSELEMENTE
100
AcDbEllipse
 62
7
  6
CONTINUOUS
 10
487.7906122391
 20
78.6020818309
 30
0.0
 11
2.0708637754
 21
0.1666384499
 31
0.0
 40
0.1605475814
 41
1.7760442449
 42
3.2983957332
  0
ELLIPSE
  5
5ED
100
AcDbEntity
  8
KONSTRUKTIONSELEMENTE
100
AcDbEllipse
 62
7
  6
CONTINUOUS
 10
488.5993133338
 20
76.0816958271
 30
0.0
 11
1.3731783745
 21
1.6153627742
 31
0.0
 40
0.2502772103
 41
-1.538620793
 42
0.0321755338
  0
ENDSEC
  0
SECTION
  2
OBJECTS
  0
DICTIONARY
  5
C
100
AcDbDictionary
280
0
281
1
  3
ACAD_GROUP
350
D
  3
ACAD_MLINESTYLE
350
17
  3
ACAD_LAYOUT
350
1A
  3
ACAD_PLOTSETTINGS
350
19
  3
ACAD_PLOTSTYLENAME
350
E
  0
DICTIONARY
  5
D
102
{ACAD_REACTORS
330
C
102
}
100
AcDbDictionary
280
0
281
1
  0
ACDBDICTIONARYWDFLT
  5
E
102
{ACAD_REACTORS
330
C
102
}
100
AcDbDictionary
281
1
  3
Normal
350
F
100
AcDbDictionaryWithDefault
340
F
  0
DICTIONARY
  5
17
102
{ACAD_REACTORS
330
C
102
}
100
AcDbDictionary
280
0
281
1
  3
Standard
350
18
  0
DICTIONARY
  5
19
102
{ACAD_REACTORS
330
C
102
}
100
AcDbDictionary
281
1
  0
DICTIONARY
  5
1A
102
{ACAD_REACTORS
330
C
102
}
100
AcDbDictionary
281
1
  3
Model
350
5EE
  3
Layout1
350
5EF
  0
ACDBPLACEHOLDER
  5
F
102
{ACAD_REACTORS
330
E
102
}
  0
MLINESTYLE
  5
18
102
{ACAD_REACTORS
330
17
102
}
100
AcDbMlineStyle
  2
STANDARD
 70
0
  3

 62
256
 51
90.0
 52
90.0
 71
2
 49
0.5
 62
256
  6
BYLAYER
 49
-0.5
 62
256
  6
BYLAYER
  0
LAYOUT
  5
5EE
102
{ACAD_REACTORS
330
1A
102
}
100
AcDbPlotSettings
  1

  2
none_device
  4
ISO_A1_(594.00_x_841.00_MM)
  6

 40
0.0
 41
0.0
 42
0.0
 43
0.0
 44
841.0
 45
594.0
 46
0.0
 47
0.0
 48
0.0
 49
0.0
140
0.0
141
0.0
142
1.0
143
1.0
 70
1024
 72
1
 73
0
 74
0
  7

 75
0
147
1.0
148
0.0
149
0.0
100
AcDbLayout
  1
Model
 70
0
 71
0
 10
0.0
 20
0.0
 11
841.0
 21
594.0
 12
0.0
 22
0.0
 32
0.0
 14
0.0
 24
0.0
 34
0.0
 15
0.0
 25
0.0
 35
0.0
146
0.0
 13
0.0
 23
0.0
 33
0.0
 16
1.0
 26
0.0
 36
0.0
 17
0.0
 27
1.0
 37
0.0
 76
0
330
20D
345
0
346
0
  0
LAYOUT
  5
5EF
102
{ACAD_REACTORS
330
1A
102
}
100
AcDbPlotSettings
  1

  2
none_device
  4
ISO_A1_(594.00_x_841.00_MM)
  6

 40
0.0
 41
0.0
 42
0.0
 43
0.0
 44
841.0
 45
594.0
 46
0.0
 47
0.0
 48
0.0
 49
0.0
140
0.0
141
0.0
142
1.0
143
1.0
 70
0
 72
1
 73
0
 74
0
  7

 75
0
147
1.0
148
0.0
149
0.0
100
AcDbLayout
  1
Layout1
 70
0
 71
1
 10
0.0
 20
0.0
 11
841.0
 21
594.0
 12
0.0
 22
0.0
 32
0.0
 14
0.0
 24
0.0
 34
0.0
 15
0.0
 25
0.0
 35
0.0
146
0.0
 13
0.0
 23
0.0
 33
0.0
 16
1.0
 26
0.0
 36
0.0
 17
0.0
 27
1.0
 37
0.0
 76
0
330
20E
345
0
346
0
  0
ENDSEC
  0
EOF
