999
DXF file: VSAK-2-10_140_7994072_M32393-P-3.dxf
999
Pro/ENGINEER 2010140 by Parametric Technology Corporation
  0
SECTION
  2
HEADER
  9
$ACADVER
  1
AC1015
  9
$DWGCODEPAGE
  3
ANSI_1252
  9
$EXTMAX
 10
841.0
 20
594.0
 30
0.0
  9
$EXTMIN
 10
0.0
 20
0.0
 30
0.0
  9
$LIMMIN
 10
0.0
 20
0.0
  9
$LIMMAX
 10
841.0
 20
594.0
  9
$VIEWCTR
 10
420.5
 20
297.0
  9
$VIEWSIZE
 40
594.0
  9
$CLAYER
  8
0
  9
$LTSCALE
 40
46.255
  9
$CELTYPE
  6
BYLAYER
  9
$DIMSCALE
 40
1.0
  9
$DIMASZ
 40
3.5
  9
$DIMEXO
 40
5.25625
  9
$DIMDLI
 40
31.958
  9
$DIMEXE
 40
15.138
  9
$DIMCEN
 40
7.569
  9
$DIMLFAC
 40
1.0
  9
$DIMBLK
  1
_FILLED
  9
$DIMTXT
 40
3.5
  9
$DIMTOL
 70
1
  9
$DIMLIM
 70
0
  9
$DIMTFAC
 40
1.0
  9
$DIMTP
 40
0.005
  9
$DIMTM
 40
0.005
  9
$PDMODE
 70
3
  9
$PDSIZE
 40
0.3125
  9
$HANDSEED
  5
5F0
  9
$TILEMODE
 70
1
  9
$MEASUREMENT
 70
1
  9
$INSUNITS
 70
4
  0
ENDSEC
  0
SECTION
  2
CLASSES
  0
CLASS
  1
ACDBDICTIONARYWDFLT
  2
AcDbDictionaryWithDefault
  3
AutoCAD 2000
 90
0
280
0
281
0
  0
CLASS
  1
ACDBPLACEHOLDER
  2
AcDbPlaceHolder
  3
AutoCAD 2000
 90
0
280
0
281
0
  0
CLASS
  1
LAYOUT
  2
AcDbLayout
  3
AutoCAD 2000
 90
0
280
0
281
0
  0
ENDSEC
  0
SECTION
  2
TABLES
  0
TABLE
  2
VPORT
  5
8
100
AcDbSymbolTable
 70
2
  0
VPORT
  5
1F4
100
AcDbSymbolTableRecord
100
AcDbViewportTableRecord
  2
*ACTIVE
 70
0
 10
0.0
 20
0.0
 11
1.0
 21
1.0
 12
420.5
 22
297.0
 13
0.0
 23
0.0
 14
1.0
 24
1.0
 15
0.0
 25
0.0
 16
0.0
 26
0.0
 36
1.0
 17
0.0
 27
0.0
 37
0.0
 40
594.0
 41
1.4158249158
 42
50.0
 43
0.0
 44
0.0
 50
0.0
 51
0.0
 71
0
 72
100
 73
1
 74
1
 75
0
 76
0
 77
0
 78
0
  0
ENDTAB
  0
TABLE
  2
LTYPE
  5
5
100
AcDbSymbolTable
 70
6
  0
LTYPE
  5
14
100
AcDbSymbolTableRecord
100
AcDbLinetypeTableRecord
  2
BYBLOCK
 70
0
  3

 72
65
 73
0
 40
0.0
  0
LTYPE
  5
15
100
AcDbSymbolTableRecord
100
AcDbLinetypeTableRecord
  2
BYLAYER
 70
0
  3

 72
65
 73
0
 40
0.0
  0
LTYPE
  5
16
100
AcDbSymbolTableRecord
100
AcDbLinetypeTableRecord
  2
CONTINUOUS
 70
64
  3
Solid line
 72
65
 73
0
 40
0.0
  0
LTYPE
  5
1F5
100
AcDbSymbolTableRecord
100
AcDbLinetypeTableRecord
  2
CENTER
 70
64
  3
____ _ ____ _ ____ _ ____ _ ____ _ ____ _ ____
 72
65
 73
4
 40
0.6
 49
0.375
 74
0
 49
-0.075
 74
0
 49
0.075
 74
0
 49
-0.075
 74
0
  0
LTYPE
  5
1F6
100
AcDbSymbolTableRecord
100
AcDbLinetypeTableRecord
  2
HIDDEN
 70
64
  3
- - - - - - - - - - - - - - - - - - - -
 72
65
 73
2
 40
0.2
 49
0.1
 74
0
 49
-0.1
 74
0
  0
LTYPE
  5
1F7
100
AcDbSymbolTableRecord
100
AcDbLinetypeTableRecord
  2
PHANTOM
 70
64
  3
_____ _ _ _____ _ _ _____ _ _ _____
 72
65
 73
6
 40
0.8
 49
0.45
 74
0
 49
-0.05
 74
0
 49
0.1
 74
0
 49
-0.05
 74
0
 49
0.1
 74
0
 49
-0.05
 74
0
  0
LTYPE
  5
1F8
100
AcDbSymbolTableRecord
100
AcDbLinetypeTableRecord
  2
DOT
 70
64
  3
. . . . . . . . . . . . . . . . . . . .
 72
65
 73
2
 40
0.2
 49
0.1
 74
0
 49
-0.1
 74
0
  0
LTYPE
  5
1F9
100
AcDbSymbolTableRecord
100
AcDbLinetypeTableRecord
  2
DASHED
 70
64
  3
- - - - - - - - - - - - - - - - - - - -
 72
65
 73
2
 40
0.2
 49
0.1
 74
0
 49
-0.1
 74
0
  0
ENDTAB
  0
TABLE
  2
LAYER
  5
2
100
AcDbSymbolTable
 70
36
  0
LAYER
  5
10
100
AcDbSymbolTableRecord
100
AcDbLayerTableRecord
  2
0
 70
0
 62
7
  6
CONTINUOUS
370
-3
390
F
  0
LAYER
  5
1FA
100
AcDbSymbolTableRecord
100
AcDbLayerTableRecord
  2
DEFAULT_1
 70
0
 62
7
  6
CENTER
370
-3
390
F
  0
LAYER
  5
1FB
100
AcDbSymbolTableRecord
100
AcDbLayerTableRecord
  2
DEFAULT_2
 70
0
 62
8
  6
HIDDEN
370
-3
390
F
  0
LAYER
  5
1FC
100
AcDbSymbolTableRecord
100
AcDbLayerTableRecord
  2
DEFAULT_3
 70
0
 62
7
  6
PHANTOM
370
-3
390
F
  0
LAYER
  5
1FD
100
AcDbSymbolTableRecord
100
AcDbLayerTableRecord
  2
AUSFORMSCHRAEGEN
 70
0
 62
7
  6
CONTINUOUS
370
-3
390
F
  0
LAYER
  5
1FE
100
AcDbSymbolTableRecord
100
AcDbLayerTableRecord
  2
BEZUGSACHSEN
 70
0
 62
7
  6
CONTINUOUS
370
-3
390
F
  0
LAYER
  5
1FF
100
AcDbSymbolTableRecord
100
AcDbLayerTableRecord
  2
BEZUGSEBENEN
 70
0
 62
7
  6
CONTINUOUS
370
-3
390
F
  0
LAYER
  5
200
100
AcDbSymbolTableRecord
100
AcDbLayerTableRecord
  2
BG_STARTBEZUEGE
 70
0
 62
7
  6
CONTINUOUS
370
-3
390
F
  0
LAYER
  5
201
100
AcDbSymbolTableRecord
100
AcDbLayerTableRecord
  2
FASEN
 70
0
 62
7
  6
CONTINUOUS
370
-3
390
F
  0
LAYER
  5
202
100
AcDbSymbolTableRecord
100
AcDbLayerTableRecord
  2
FLAECHEN
 70
0
 62
7
  6
CONTINUOUS
370
-3
390
F
  0
LAYER
  5
203
100
AcDbSymbolTableRecord
100
AcDbLayerTableRecord
  2
HILFEN
 70
0
 62
7
  6
CONTINUOUS
370
-3
390
F
  0
LAYER
  5
204
100
AcDbSymbolTableRecord
100
AcDbLayerTableRecord
  2
KONSTRUKTIONSELEMENTE
 70
0
 62
7
  6
CONTINUOUS
370
-3
390
F
  0
LAYER
  5
205
100
AcDbSymbolTableRecord
100
AcDbLayerTableRecord
  2
NORM
 70
0
 62
7
  6
CONTINUOUS
370
-3
390
F
  0
LAYER
  5
206
100
AcDbSymbolTableRecord
100
AcDbLayerTableRecord
  2
PLATZIERUNG
 70
0
 62
7
  6
CONTINUOUS
370
-3
390
F
  0
LAYER
  5
207
100
AcDbSymbolTableRecord
100
AcDbLayerTableRecord
  2
PLAZIERUNG
 70
0
 62
7
  6
CONTINUOUS
370
-3
390
F
  0
LAYER
  5
208
100
AcDbSymbolTableRecord
100
AcDbLayerTableRecord
  2
RUNDUNGEN
 70
0
 62
7
  6
CONTINUOUS
370
-3
390
F
  0
LAYER
  5
209
100
AcDbSymbolTableRecord
100
AcDbLayerTableRecord
  2
TEIL_STARTBEZUEGE
 70
0
 62
7
  6
CONTINUOUS
370
-3
390
F
  0
LAYER
  5
20A
100
AcDbSymbolTableRecord
100
AcDbLayerTableRecord
  2
T_STARTBEZUEGE
 70
0
 62
7
  6
CONTINUOUS
370
-3
390
F
  0
ENDTAB
  0
TABLE
  2
STYLE
  5
3
100
AcDbSymbolTable
 70
1
  0
STYLE
  5
11
100
AcDbSymbolTableRecord
100
AcDbTextStyleTableRecord
  2
STANDARD
 70
0
 40
0.0
 41
0.7
 50
0.0
 71
0
 42
0.2
  3
txt
  4

  0
STYLE
  5
20B
100
AcDbSymbolTableRecord
100
AcDbTextStyleTableRecord
  2
TEXTSTYLE_1
 70
0
 40
0.0
 41
0.8
 50
0.0
 71
0
 42
0.2
  3
gdt
  4

  0
ENDTAB
  0
TABLE
  2
VIEW
  5
6
100
AcDbSymbolTable
 70
0
  0
ENDTAB
  0
TABLE
  2
UCS
  5
7
100
AcDbSymbolTable
 70
0
  0
ENDTAB
  0
TABLE
  2
APPID
  5
9
100
AcDbSymbolTable
 70
1
  0
APPID
  5
20C
100
AcDbSymbolTableRecord
100
AcDbRegAppTableRecord
  2
ACAD
 70
0
  0
ENDTAB
  0
TABLE
  2
BLOCK_RECORD
  5
1
100
AcDbSymbolTable
 70
0
  0
BLOCK_RECORD
  5
20D
100
AcDbSymbolTableRecord
100
AcDbBlockTableRecord
  2
*Model_Space
  0
BLOCK_RECORD
  5
20E
100
AcDbSymbolTableRecord
100
AcDbBlockTableRecord
  2
*Paper_Space
  0
ENDTAB
  0
TABLE
  2
DIMSTYLE
  5
A
100
AcDbSymbolTable
 70
1
100
AcDbDimStyleTable
 71
0
  0
DIMSTYLE
105
20F
100
AcDbSymbolTableRecord
100
AcDbDimStyleTableRecord
  2
STANDARD
 70
0
  3

  4

 40
1.0
 41
3.5
 42
0.0625
 43
0.38
 44
0.18
 45
0.0
 46
0.0
 47
0.005
 48
0.005
140
3.5
141
0.09
142
0.0
143
25.4
144
1.0
145
0.0
146
1.0
147
0.09
 71
1.0
 72
0.0
 73
0
 74
0
 75
0
 76
0
 77
1
 78
8
170
0
171
2
172
0
173
0
174
0
175
0
176
0
177
0
178
5
270
2
271
3
272
3
273
2
274
2
275
0
280
0
281
0
282
0
283
1
284
8
285
0
286
0
287
3
288
0
340
11
  0
ENDTAB
  0
ENDSEC
  0
SECTION
  2
BLOCKS
  0
BLOCK
  5
20
100
AcDbEntity
  8
0
100
AcDbBlockBegin
  2
*Model_Space
 70
0
 10
0.0
 20
0.0
 30
0.0
  3
*Model_Space
  1

  0
ENDBLK
  5
21
100
AcDbEntity
  8
0
100
AcDbBlockEnd
  0
BLOCK
  5
1C
100
AcDbEntity
  8
0
100
AcDbBlockBegin
  2
*Paper_Space
 70
0
 10
0.0
 20
0.0
 30
0.0
  3
*Paper_Space
  1

  0
ENDBLK
  5
1D
100
AcDbEntity
  8
0
100
AcDbBlockEnd
  0
ENDSEC
  0
SECTION
  2
ENTITIES
  0
MTEXT
  5
210
100
AcDbEntity
  8
0
100
AcDbMText
 62
5
  6
CONTINUOUS
  7
STANDARD
 71
1
 72
1
 10
127.9790098231
 20
380.8455967715
 30
0.0
 11
0.0
 21
1.0
 31
0.0
 44
0.9
  1
RUD
 40
8.0
 41
21.3333333333
  0
MTEXT
  5
211
100
AcDbEntity
  8
0
100
AcDbMText
 62
5
  6
CONTINUOUS
  7
STANDARD
 71
1
 72
1
 10
294.1322814923
 20
351.1931267194
 30
0.0
 11
0.0
 21
1.0
 31
0.0
 44
0.9
  1
VSAK 2-10/140
 40
8.0
 41
80.0
  0
MTEXT
  5
212
100
AcDbEntity
  8
0
100
AcDbMText
 62
5
  6
CONTINUOUS
  7
STANDARD
 71
1
 72
1
 10
572.920115359
 20
337.07655575
 30
0.0
 11
0.0
 21
1.0
 31
0.0
 44
0.9
  1
RUD VSAK 2-10/140
 40
8.0
 41
106.0952380952
  0
LINE
  5
213
100
AcDbEntity
  8
0
100
AcDbLine
 62
7
  6
CONTINUOUS
 10
0.0
 20
0.0
 11
0.0
 21
594.0
  0
LINE
  5
214
100
AcDbEntity
  8
0
100
AcDbLine
 62
7
  6
CONTINUOUS
 10
0.0
 20
0.0
 11
841.0
 21
0.0
  0
LINE
  5
215
100
AcDbEntity
  8
0
100
AcDbLine
 62
7
  6
CONTINUOUS
 10
0.0
 20
594.0
 11
841.0
 21
594.0
  0
LINE
  5
216
100
AcDbEntity
  8
0
100
AcDbLine
 62
7
  6
CONTINUOUS
 10
841.0
 20
0.0
 11
841.0
 21
594.0
  0
LINE
  5
217
100
AcDbEntity
  8
KONSTRUKTIONSELEMENTE
100
AcDbLine
 62
7
  6
CONTINUOUS
 10
57.1121743728
 20
66.8639420965
 11
64.9930055473
 21
62.3139420965
  0
LINE
  5
218
100
AcDbEntity
  8
KONSTRUKTIONSELEMENTE
100
AcDbLine
 62
7
  6
CONTINUOUS
 10
56.8559383662
 20
67.4201283143
 11
57.2889510681
 21
67.1701283143
  0
LINE
  5
219
100
AcDbEntity
  8
KONSTRUKTIONSELEMENTE
100
AcDbLine
 62
7
  6
CONTINUOUS
 10
65.1697822426
 20
62.6201283143
 11
65.6027949445
 21
62.3701283143
  0
LINE
  5
21A
100
AcDbEntity
  8
KONSTRUKTIONSELEMENTE
100
AcDbLine
 62
7
  6
CONTINUOUS
 10
75.5281749743
 20
72.5613908104
 11
87.4886268315
 21
65.656020711
  0
LINE
  5
21B
100
AcDbEntity
  8
KONSTRUKTIONSELEMENTE
100
AcDbLine
 62
7
  6
CONTINUOUS
 10
60.7191405696
 20
81.1113908104
 11
59.8092785071
 21
81.6366999171
  0
LINE
  5
21C
100
AcDbEntity
  8
KONSTRUKTIONSELEMENTE
100
AcDbLine
 62
7
  6
CONTINUOUS
 10
92.8819080326
 20
65.8975774284
 11
88.7513696215
 21
70.5252762693
  0
LINE
  5
21D
100
AcDbEntity
  8
KONSTRUKTIONSELEMENTE
100
AcDbLine
 62
7
  6
CONTINUOUS
 10
94.6496749855
 20
68.9594396069
 11
90.5191365745
 21
73.5871384478
  0
LINE
  5
21E
100
AcDbEntity
  8
KONSTRUKTIONSELEMENTE
100
AcDbLine
 62
7
  6
CONTINUOUS
 10
55.3045827729
 20
119.3480147009
 11
61.3775567358
 21
118.0847129261
  0
LINE
  5
21F
100
AcDbEntity
  8
KONSTRUKTIONSELEMENTE
100
AcDbLine
 62
7
  6
CONTINUOUS
 10
55.4813594682
 20
119.6542009188
 11
61.554333431
 21
118.3908991439
  0
LINE
  5
220
100
AcDbEntity
  8
KONSTRUKTIONSELEMENTE
100
AcDbLine
 62
7
  6
CONTINUOUS
 10
56.7916750786
 20
120.8952838158
 11
61.4631935116
 21
119.9235132197
  0
LINE
  5
221
100
AcDbEntity
  8
KONSTRUKTIONSELEMENTE
100
AcDbLine
 62
7
  6
CONTINUOUS
 10
58.205888641
 20
123.3447735586
 11
62.502020504
 21
122.4510909838
  0
LINE
  5
222
100
AcDbEntity
  8
KONSTRUKTIONSELEMENTE
100
AcDbLine
 62
7
  6
CONTINUOUS
 10
54.6916668144
 20
129.6548443608
 11
54.8912284896
 21
129.5778770597
  0
LINE
  5
223
100
AcDbEntity
  8
KONSTRUKTIONSELEMENTE
100
AcDbLine
 62
7
  6
CONTINUOUS
 10
56.8913690449
 20
129.0554439776
 11
61.3459938007
 21
128.1287916661
  0
LINE
  5
224
100
AcDbEntity
  8
KONSTRUKTIONSELEMENTE
100
AcDbLine
 62
7
  6
CONTINUOUS
 10
60.7646407772
 20
128.3915425859
 11
54.6916668144
 21
129.6548443608
  0
LINE
  5
225
100
AcDbEntity
  8
KONSTRUKTIONSELEMENTE
100
AcDbLine
 62
7
  6
CONTINUOUS
 10
89.6684020234
 20
127.6767668658
 11
59.0441955291
 21
134.0472230301
  0
LINE
  5
226
100
AcDbEntity
  8
KONSTRUKTIONSELEMENTE
100
AcDbLine
 62
7
  6
CONTINUOUS
 10
91.4361689764
 20
130.7386290442
 11
60.8119624821
 21
137.1090852086
  0
LINE
  5
227
100
AcDbEntity
  8
KONSTRUKTIONSELEMENTE
100
AcDbLine
 62
7
  6
CONTINUOUS
 10
120.1160252173
 20
131.3415379319
 11
117.0670683292
 21
133.101854012
  0
LINE
  5
228
100
AcDbEntity
  8
KONSTRUKTIONSELEMENTE
100
AcDbLine
 62
7
  6
CONTINUOUS
 10
92.3792729816
 20
147.3553593017
 11
89.3303160935
 21
149.1156753818
  0
LINE
  5
229
100
AcDbEntity
  8
KONSTRUKTIONSELEMENTE
100
AcDbLine
 62
7
  6
CONTINUOUS
 10
124.1023262241
 20
88.2252482419
 11
128.2328646352
 21
83.597549401
  0
LINE
  5
22A
100
AcDbEntity
  8
KONSTRUKTIONSELEMENTE
100
AcDbLine
 62
7
  6
CONTINUOUS
 10
101.3803428481
 20
120.9148746779
 11
129.8350323415
 21
89.0353179513
  0
LINE
  5
22B
100
AcDbEntity
  8
KONSTRUKTIONSELEMENTE
100
AcDbLine
 62
7
  6
CONTINUOUS
 10
131.6027992945
 20
92.0971801298
 11
103.148109801
 21
123.9767368564
  0
LINE
  5
22C
100
AcDbEntity
  8
0
100
AcDbLine
 62
7
  6
CONTINUOUS
 10
103.8484283942
 20
149.9135086169
 11
113.5479129166
 21
144.3135086169
  0
LINE
  5
22D
100
AcDbEntity
  8
0
100
AcDbLine
 62
7
  6
CONTINUOUS
 10
109.8984283942
 20
160.3924160027
 11
119.5979129166
 21
154.7924160027
  0
LINE
  5
22E
100
AcDbEntity
  8
KONSTRUKTIONSELEMENTE
100
AcDbLine
 62
7
  6
CONTINUOUS
 10
54.6005268949
 20
131.1874584366
 11
54.6916668144
 21
129.6548443608
  0
LINE
  5
22F
100
AcDbEntity
  8
KONSTRUKTIONSELEMENTE
100
AcDbLine
 62
7
  6
CONTINUOUS
 10
55.3045827729
 20
119.3480147009
 11
57.321576926
 21
85.4301261705
  0
LINE
  5
230
100
AcDbEntity
  8
KONSTRUKTIONSELEMENTE
100
AcDbLine
 62
7
  6
CONTINUOUS
 10
55.4813594682
 20
119.6542009188
 11
55.4585744884
 21
120.0373544377
  0
LINE
  5
231
100
AcDbEntity
  8
KONSTRUKTIONSELEMENTE
100
AcDbLine
 62
7
  6
CONTINUOUS
 10
62.2627647897
 20
126.4744286982
 11
62.710657326
 21
118.9426423041
  0
LINE
  5
232
100
AcDbEntity
  8
KONSTRUKTIONSELEMENTE
100
AcDbLine
 62
7
  6
CONTINUOUS
 10
153.6352476391
 20
183.119228466
 11
153.9483596638
 21
183.0154926878
  0
LINE
  5
233
100
AcDbEntity
  8
KONSTRUKTIONSELEMENTE
100
AcDbLine
 62
7
  6
CONTINUOUS
 10
153.2213469971
 20
183.3129857652
 11
153.6352476391
 21
183.119228466
  0
LINE
  5
234
100
AcDbEntity
  8
BEZUGSACHSEN
100
AcDbLine
 62
7
  6
CONTINUOUS
 10
88.3607005874
 20
150.500429834
 11
87.0775972087
 21
157.7772706984
  0
LINE
  5
235
100
AcDbEntity
  8
RUNDUNGEN
100
AcDbLine
 62
7
  6
CONTINUOUS
 10
87.0775972087
 20
157.7772706984
 11
86.9489410966
 21
158.5069157681
  0
LINE
  5
236
100
AcDbEntity
  8
KONSTRUKTIONSELEMENTE
100
AcDbLine
 62
7
  6
CONTINUOUS
 10
156.2892885322
 20
182.947752577
 11
155.9654305522
 21
182.8851710245
  0
LINE
  5
237
100
AcDbEntity
  8
KONSTRUKTIONSELEMENTE
100
AcDbLine
 62
7
  6
CONTINUOUS
 10
155.9654305522
 20
182.8851710245
 11
155.4292493879
 21
182.8363037147
  0
LINE
  5
238
100
AcDbEntity
  8
KONSTRUKTIONSELEMENTE
100
AcDbLine
 62
7
  6
CONTINUOUS
 10
154.6672196203
 20
185.8917930055
 11
154.1310385533
 21
185.8429295121
  0
LINE
  5
239
100
AcDbEntity
  8
KONSTRUKTIONSELEMENTE
100
AcDbLine
 62
7
  6
CONTINUOUS
 10
155.9922949429
 20
183.3009682062
 11
155.3499524067
 21
183.2589637376
  0
LINE
  5
23A
100
AcDbEntity
  8
KONSTRUKTIONSELEMENTE
100
AcDbLine
 62
7
  6
CONTINUOUS
 10
154.7465168475
 20
185.4691367893
 11
154.1041739167
 21
185.4271285236
  0
LINE
  5
23B
100
AcDbEntity
  8
KONSTRUKTIONSELEMENTE
100
AcDbLine
 62
7
  6
CONTINUOUS
 10
157.5809963734
 20
186.9884527377
 11
152.5898477719
 21
186.6910714375
  0
LINE
  5
23C
100
AcDbEntity
  8
KONSTRUKTIONSELEMENTE
100
AcDbLine
 62
7
  6
CONTINUOUS
 10
152.5601096419
 20
187.1901862976
 11
156.7017011359
 21
187.4369495103
  0
LINE
  5
23D
100
AcDbEntity
  8
KONSTRUKTIONSELEMENTE
100
AcDbLine
 62
7
  6
CONTINUOUS
 10
155.9286002393
 20
187.891773526
 11
156.7781576443
 21
187.9423916314
  0
LINE
  5
23E
100
AcDbEntity
  8
KONSTRUKTIONSELEMENTE
100
AcDbLine
 62
7
  6
CONTINUOUS
 10
155.4292493879
 20
182.8363037147
 11
154.473794827
 21
182.8980350244
  0
LINE
  5
23F
100
AcDbEntity
  8
KONSTRUKTIONSELEMENTE
100
AcDbLine
 62
7
  6
CONTINUOUS
 10
155.3499524067
 20
183.2589637376
 11
154.6068210815
 21
183.3069769785
  0
LINE
  5
240
100
AcDbEntity
  8
KONSTRUKTIONSELEMENTE
100
AcDbLine
 62
7
  6
CONTINUOUS
 10
154.7465168475
 20
185.4691367893
 11
155.4896481727
 21
185.4211235485
  0
LINE
  5
241
100
AcDbEntity
  8
KONSTRUKTIONSELEMENTE
100
AcDbLine
 62
7
  6
CONTINUOUS
 10
154.6672196203
 20
185.8917930055
 11
155.6226741812
 21
185.8300616958
  0
LINE
  5
242
100
AcDbEntity
  8
KONSTRUKTIONSELEMENTE
100
AcDbLine
 62
7
  6
CONTINUOUS
 10
154.1830926958
 20
196.1286651835
 11
154.5411233022
 21
196.0906227817
  0
LINE
  5
243
100
AcDbEntity
  8
KONSTRUKTIONSELEMENTE
100
AcDbLine
 62
7
  6
CONTINUOUS
 10
152.2900598649
 20
198.1863897035
 11
152.5587329898
 21
198.1570248363
  0
LINE
  5
244
100
AcDbEntity
  8
KONSTRUKTIONSELEMENTE
100
AcDbLine
 62
7
  6
CONTINUOUS
 10
153.9752240545
 20
183.4312898695
 11
154.6068210815
 21
183.3069769785
  0
LINE
  5
245
100
AcDbEntity
  8
KONSTRUKTIONSELEMENTE
100
AcDbLine
 62
7
  6
CONTINUOUS
 10
155.4896481727
 20
185.4211235485
 11
156.1212448051
 21
185.2968068603
  0
LINE
  5
246
100
AcDbEntity
  8
KONSTRUKTIONSELEMENTE
100
AcDbLine
 62
7
  6
CONTINUOUS
 10
153.9483596638
 20
183.0154926878
 11
154.473794827
 21
182.8980350244
  0
LINE
  5
247
100
AcDbEntity
  8
KONSTRUKTIONSELEMENTE
100
AcDbLine
 62
7
  6
CONTINUOUS
 10
155.6226741812
 20
185.8300616958
 11
156.1481094417
 21
185.7126078488
  0
LINE
  5
248
100
AcDbEntity
  8
KONSTRUKTIONSELEMENTE
100
AcDbLine
 62
7
  6
CONTINUOUS
 10
151.8408666334
 20
192.7871938962
 11
152.3589798188
 21
192.6330952601
  0
LINE
  5
249
100
AcDbEntity
  8
KONSTRUKTIONSELEMENTE
100
AcDbLine
 62
7
  6
CONTINUOUS
 10
154.5557485018
 20
196.6338128455
 11
155.0738630511
 21
196.4797106467
  0
LINE
  5
24A
100
AcDbEntity
  8
KONSTRUKTIONSELEMENTE
100
AcDbLine
 62
7
  6
CONTINUOUS
 10
124.2798873492
 20
206.6581705723
 11
124.6585331192
 21
206.5441181647
  0
LINE
  5
24B
100
AcDbEntity
  8
KONSTRUKTIONSELEMENTE
100
AcDbLine
 62
7
  6
CONTINUOUS
 10
120.3693065844
 20
210.0404529105
 11
120.8082679617
 21
209.8980450926
  0
LINE
  5
24C
100
AcDbEntity
  8
KONSTRUKTIONSELEMENTE
100
AcDbLine
 62
7
  6
CONTINUOUS
 10
156.1481094417
 20
185.7126078488
 11
156.4612217638
 21
185.6088720514
  0
LINE
  5
24D
100
AcDbEntity
  8
BEZUGSACHSEN
100
AcDbLine
 62
7
  6
CONTINUOUS
 10
300.9065758474
 20
133.9748268819
 11
308.5462758068
 21
131.1942034979
  0
LINE
  5
24E
100
AcDbEntity
  8
KONSTRUKTIONSELEMENTE
100
AcDbLine
 62
7
  6
CONTINUOUS
 10
124.2666099842
 20
207.3177354399
 11
124.5650656719
 21
207.1810109871
  0
LINE
  5
24F
100
AcDbEntity
  8
KONSTRUKTIONSELEMENTE
100
AcDbLine
 62
7
  6
CONTINUOUS
 10
156.4612217638
 20
185.6088720514
 11
156.8751223315
 21
185.415114757
  0
LINE
  5
250
100
AcDbEntity
  8
KONSTRUKTIONSELEMENTE
100
AcDbLine
 62
7
  6
CONTINUOUS
 10
151.8821216738
 20
197.8350142815
 11
152.238707325
 21
197.6640573318
  0
LINE
  5
251
100
AcDbEntity
  8
KONSTRUKTIONSELEMENTE
100
AcDbLine
 62
7
  6
CONTINUOUS
 10
120.5256108034
 20
209.5252375685
 11
120.7682259232
 21
209.4061365619
  0
LINE
  5
252
100
AcDbEntity
  8
KONSTRUKTIONSELEMENTE
100
AcDbLine
 62
7
  6
CONTINUOUS
 10
129.2820977092
 20
212.2531892439
 11
129.6345131944
 21
212.0737914544
  0
LINE
  5
253
100
AcDbEntity
  8
KONSTRUKTIONSELEMENTE
100
AcDbLine
 62
7
  6
CONTINUOUS
 10
152.0839942588
 20
193.3308652378
 11
152.3736050877
 21
193.1762853512
  0
LINE
  5
254
100
AcDbEntity
  8
KONSTRUKTIONSELEMENTE
100
AcDbLine
 62
7
  6
CONTINUOUS
 10
154.5411233022
 20
196.0906227817
 11
154.8307340618
 21
195.9360428678
  0
LINE
  5
255
100
AcDbEntity
  8
KONSTRUKTIONSELEMENTE
100
AcDbLine
 62
7
  6
CONTINUOUS
 10
155.9286002393
 20
187.891773526
 11
156.7017011359
 21
187.4369495103
  0
LINE
  5
256
100
AcDbEntity
  8
KONSTRUKTIONSELEMENTE
100
AcDbLine
 62
7
  6
CONTINUOUS
 10
156.7781576443
 20
187.9423916314
 11
157.5512582434
 21
187.4875675979
  0
LINE
  5
257
100
AcDbEntity
  8
KONSTRUKTIONSELEMENTE
100
AcDbLine
 62
7
  6
CONTINUOUS
 10
153.3597460805
 20
183.8050863943
 11
153.9752240545
 21
183.4312898695
  0
LINE
  5
258
100
AcDbEntity
  8
KONSTRUKTIONSELEMENTE
100
AcDbLine
 62
7
  6
CONTINUOUS
 10
156.1212448051
 20
185.2968068603
 11
156.736723248
 21
184.9230141279
  0
LINE
  5
259
100
AcDbEntity
  8
KONSTRUKTIONSELEMENTE
100
AcDbLine
 62
7
  6
CONTINUOUS
 10
120.8082679617
 20
209.8980450926
 11
121.2184591818
 21
209.6235992321
  0
LINE
  5
25A
100
AcDbEntity
  8
KONSTRUKTIONSELEMENTE
100
AcDbLine
 62
7
  6
CONTINUOUS
 10
129.2611291369
 20
211.6098161436
 11
129.5306052966
 21
211.4223276341
  0
LINE
  5
25B
100
AcDbEntity
  8
KONSTRUKTIONSELEMENTE
100
AcDbLine
 62
7
  6
CONTINUOUS
 10
152.0678097701
 20
198.34266584
 11
152.2900598649
 21
198.1863897035
  0
LINE
  5
25C
100
AcDbEntity
  8
KONSTRUKTIONSELEMENTE
100
AcDbLine
 62
7
  6
CONTINUOUS
 10
151.5207009643
 20
193.0193061634
 11
151.8408666334
 21
192.7871938962
  0
LINE
  5
25D
100
AcDbEntity
  8
KONSTRUKTIONSELEMENTE
100
AcDbLine
 62
7
  6
CONTINUOUS
 10
155.0738630511
 20
196.4797106467
 11
155.3940272956
 21
196.2476019183
  0
LINE
  5
25E
100
AcDbEntity
  8
KONSTRUKTIONSELEMENTE
100
AcDbLine
 62
7
  6
CONTINUOUS
 10
123.843356194
 20
206.9769633715
 11
124.2798873492
 21
206.6581705723
  0
LINE
  5
25F
100
AcDbEntity
  8
KONSTRUKTIONSELEMENTE
100
AcDbLine
 62
7
  6
CONTINUOUS
 10
152.918980839
 20
183.5830427026
 11
153.2213469971
 21
183.3129857652
  0
LINE
  5
260
100
AcDbEntity
  8
KONSTRUKTIONSELEMENTE
100
AcDbLine
 62
7
  6
CONTINUOUS
 10
156.8751223315
 20
185.415114757
 11
157.1774884523
 21
185.145057822
  0
LINE
  5
261
100
AcDbEntity
  8
KONSTRUKTIONSELEMENTE
100
AcDbLine
 62
7
  6
CONTINUOUS
 10
129.6345131944
 20
212.0737914544
 11
130.0075859137
 21
211.6826329025
  0
LINE
  5
262
100
AcDbEntity
  8
KONSTRUKTIONSELEMENTE
100
AcDbLine
 62
7
  6
CONTINUOUS
 10
124.019401032
 20
207.5795018184
 11
124.2666099842
 21
207.3177354399
  0
LINE
  5
263
100
AcDbEntity
  8
KONSTRUKTIONSELEMENTE
100
AcDbLine
 62
7
  6
CONTINUOUS
 10
121.4334856114
 20
207.8371837673
 11
123.1730145261
 21
205.9601086293
  0
LINE
  5
264
100
AcDbEntity
  8
KONSTRUKTIONSELEMENTE
100
AcDbLine
 62
7
  6
CONTINUOUS
 10
121.0757895409
 20
207.4281324475
 11
122.6477422481
 21
205.7064021117
  0
LINE
  5
265
100
AcDbEntity
  8
KONSTRUKTIONSELEMENTE
100
AcDbLine
 62
7
  6
CONTINUOUS
 10
120.7682259232
 20
209.4061365619
 11
120.9820706712
 21
209.154997409
  0
LINE
  5
266
100
AcDbEntity
  8
KONSTRUKTIONSELEMENTE
100
AcDbLine
 62
7
  6
CONTINUOUS
 10
121.2184591818
 20
209.6235992321
 11
121.4323039298
 21
209.3724600792
  0
LINE
  5
267
100
AcDbEntity
  8
KONSTRUKTIONSELEMENTE
100
AcDbLine
 62
7
  6
CONTINUOUS
 10
123.5672045302
 20
207.341100013
 11
123.843356194
 21
206.9769633715
  0
LINE
  5
268
100
AcDbEntity
  8
KONSTRUKTIONSELEMENTE
100
AcDbLine
 62
7
  6
CONTINUOUS
 10
123.8234397129
 20
207.9663104537
 11
124.019401032
 21
207.5795018184
  0
LINE
  5
269
100
AcDbEntity
  8
KONSTRUKTIONSELEMENTE
100
AcDbLine
 62
7
  6
CONTINUOUS
 10
120.3215371506
 20
204.5828450171
 11
118.1469104489
 21
209.0851776024
  0
LINE
  5
26A
100
AcDbEntity
  8
KONSTRUKTIONSELEMENTE
100
AcDbLine
 62
7
  6
CONTINUOUS
 10
120.7717704091
 20
204.8003076872
 11
119.8001286775
 21
206.8119882326
  0
LINE
  5
26B
100
AcDbEntity
  8
KONSTRUKTIONSELEMENTE
100
AcDbLine
 62
7
  6
CONTINUOUS
 10
119.5225167913
 20
207.386754026
 11
118.828486946
 21
208.823668778
  0
LINE
  5
26C
100
AcDbEntity
  8
KONSTRUKTIONSELEMENTE
100
AcDbLine
 62
7
  6
CONTINUOUS
 10
120.9820706712
 20
209.154997409
 11
121.120876744
 21
208.8676142439
  0
LINE
  5
26D
100
AcDbEntity
  8
KONSTRUKTIONSELEMENTE
100
AcDbLine
 62
7
  6
CONTINUOUS
 10
121.4323039298
 20
209.3724600792
 11
121.6173786502
 21
208.9892826152
  0
LINE
  5
26E
100
AcDbEntity
  8
KONSTRUKTIONSELEMENTE
100
AcDbLine
 62
7
  6
CONTINUOUS
 10
153.573316293
 20
196.5153573748
 11
154.0987437195
 21
196.6328503172
  0
LINE
  5
26F
100
AcDbEntity
  8
BEZUGSACHSEN
100
AcDbLine
 62
7
  6
CONTINUOUS
 10
292.864037337
 20
214.9690899763
 11
302.5179256373
 21
217.0210872802
  0
LINE
  5
270
100
AcDbEntity
  8
KONSTRUKTIONSELEMENTE
100
AcDbLine
 62
7
  6
CONTINUOUS
 10
154.1310385533
 20
185.8429295121
 11
153.8071808707
 21
185.7803479403
  0
LINE
  5
271
100
AcDbEntity
  8
KONSTRUKTIONSELEMENTE
100
AcDbLine
 62
7
  6
CONTINUOUS
 10
152.3589798188
 20
192.6330952601
 11
152.7854311855
 21
192.7115866303
  0
LINE
  5
272
100
AcDbEntity
  8
KONSTRUKTIONSELEMENTE
100
AcDbLine
 62
7
  6
CONTINUOUS
 10
153.7566399997
 20
196.0501773897
 11
154.1830926958
 21
196.1286651835
  0
LINE
  5
273
100
AcDbEntity
  8
KONSTRUKTIONSELEMENTE
100
AcDbLine
 62
7
  6
CONTINUOUS
 10
152.3736050877
 20
193.1762853512
 11
152.701081932
 21
193.2157716547
  0
LINE
  5
274
100
AcDbEntity
  8
KONSTRUKTIONSELEMENTE
100
AcDbLine
 62
7
  6
CONTINUOUS
 10
124.6585331192
 20
206.5441181647
 11
125.0884255995
 21
206.5551077725
  0
LINE
  5
275
100
AcDbEntity
  8
KONSTRUKTIONSELEMENTE
100
AcDbLine
 62
7
  6
CONTINUOUS
 10
152.238707325
 20
197.6640573318
 11
152.7320952995
 21
197.6761268793
  0
LINE
  5
276
100
AcDbEntity
  8
KONSTRUKTIONSELEMENTE
100
AcDbLine
 62
7
  6
CONTINUOUS
 10
154.0987437195
 20
196.6328503172
 11
154.5557485018
 21
196.6338128455
  0
LINE
  5
277
100
AcDbEntity
  8
KONSTRUKTIONSELEMENTE
100
AcDbLine
 62
7
  6
CONTINUOUS
 10
124.5650656719
 20
207.1810109871
 11
124.9147680548
 21
207.1693286032
  0
LINE
  5
278
100
AcDbEntity
  8
KONSTRUKTIONSELEMENTE
100
AcDbLine
 62
7
  6
CONTINUOUS
 10
128.8570705665
 20
212.3186158393
 11
129.2820977092
 21
212.2531892439
  0
LINE
  5
279
100
AcDbEntity
  8
0
100
AcDbLine
 62
7
  6
CONTINUOUS
 10
137.4823039738
 20
214.9690899763
 11
127.8284156735
 21
217.0210872802
  0
LINE
  5
27A
100
AcDbEntity
  8
KONSTRUKTIONSELEMENTE
100
AcDbLine
 62
7
  6
CONTINUOUS
 10
128.9190422688
 20
211.6833335518
 11
129.2611291369
 21
211.6098161436
  0
LINE
  5
27B
100
AcDbEntity
  8
0
100
AcDbLine
 62
7
  6
CONTINUOUS
 10
159.6747871858
 20
198.6345761149
 11
153.070761242
 21
205.9690899763
  0
LINE
  5
27C
100
AcDbEntity
  8
KONSTRUKTIONSELEMENTE
100
AcDbLine
 62
7
  6
CONTINUOUS
 10
151.8628044674
 20
193.6019790056
 11
152.0839942588
 21
193.3308652378
  0
LINE
  5
27D
100
AcDbEntity
  8
KONSTRUKTIONSELEMENTE
100
AcDbLine
 62
7
  6
CONTINUOUS
 10
154.8307340618
 20
195.9360428678
 11
155.0519252518
 21
195.664925551
  0
LINE
  5
27E
100
AcDbEntity
  8
KONSTRUKTIONSELEMENTE
100
AcDbLine
 62
7
  6
CONTINUOUS
 10
153.1635415775
 20
184.0682842949
 11
153.3597460805
 21
183.8050863943
  0
LINE
  5
27F
100
AcDbEntity
  8
KONSTRUKTIONSELEMENTE
100
AcDbLine
 62
7
  6
CONTINUOUS
 10
156.736723248
 20
184.9230141279
 11
156.932927751
 21
184.6598162273
  0
LINE
  5
280
100
AcDbEntity
  8
KONSTRUKTIONSELEMENTE
100
AcDbLine
 62
7
  6
CONTINUOUS
 10
151.2689576794
 20
193.3679487423
 11
151.5207009643
 21
193.0193061634
  0
LINE
  5
281
100
AcDbEntity
  8
KONSTRUKTIONSELEMENTE
100
AcDbLine
 62
7
  6
CONTINUOUS
 10
155.3940272956
 20
196.2476019183
 11
155.6457719706
 21
195.898955787
  0
LINE
  5
282
100
AcDbEntity
  8
KONSTRUKTIONSELEMENTE
100
AcDbLine
 62
7
  6
CONTINUOUS
 10
152.6273603482
 20
184.0194169893
 11
152.918980839
 21
183.5830427026
  0
LINE
  5
283
100
AcDbEntity
  8
KONSTRUKTIONSELEMENTE
100
AcDbLine
 62
7
  6
CONTINUOUS
 10
157.1774884523
 20
185.145057822
 11
157.4691086694
 21
184.7086797303
  0
LINE
  5
284
100
AcDbEntity
  8
KONSTRUKTIONSELEMENTE
100
AcDbLine
 62
7
  6
CONTINUOUS
 10
129.5306052966
 20
211.4223276341
 11
129.7274707768
 21
211.1208677266
  0
LINE
  5
285
100
AcDbEntity
  8
KONSTRUKTIONSELEMENTE
100
AcDbLine
 62
7
  6
CONTINUOUS
 10
148.6769012332
 20
198.3587011998
 11
148.7923875266
 21
198.1726987552
  0
LINE
  5
286
100
AcDbEntity
  8
KONSTRUKTIONSELEMENTE
100
AcDbLine
 62
7
  6
CONTINUOUS
 10
149.8913102017
 20
196.4027717981
 11
150.19901008
 21
195.907189787
  0
LINE
  5
287
100
AcDbEntity
  8
KONSTRUKTIONSELEMENTE
100
AcDbLine
 62
7
  6
CONTINUOUS
 10
150.6903529384
 20
199.3511187003
 11
151.4376214843
 21
198.1475665545
  0
LINE
  5
288
100
AcDbEntity
  8
KONSTRUKTIONSELEMENTE
100
AcDbLine
 62
7
  6
CONTINUOUS
 10
151.232628698
 20
199.6878100682
 11
152.0678097701
 21
198.34266584
  0
LINE
  5
289
100
AcDbEntity
  8
KONSTRUKTIONSELEMENTE
100
AcDbLine
 62
7
  6
CONTINUOUS
 10
152.5883183502
 20
200.5295386453
 11
153.4234994223
 21
199.1843944171
  0
LINE
  5
28A
100
AcDbEntity
  8
KONSTRUKTIONSELEMENTE
100
AcDbLine
 62
7
  6
CONTINUOUS
 10
152.7764732135
 20
201.2348975143
 11
153.8314396255
 21
199.5357665983
  0
LINE
  5
28B
100
AcDbEntity
  8
KONSTRUKTIONSELEMENTE
100
AcDbLine
 62
7
  6
CONTINUOUS
 10
130.0075859137
 20
211.6826329025
 11
130.214779982
 21
211.2752929104
  0
LINE
  5
28C
100
AcDbEntity
  8
KONSTRUKTIONSELEMENTE
100
AcDbLine
 62
7
  6
CONTINUOUS
 10
123.3422998316
 20
207.8302786451
 11
123.5672045302
 21
207.341100013
  0
LINE
  5
28D
100
AcDbEntity
  8
KONSTRUKTIONSELEMENTE
100
AcDbLine
 62
7
  6
CONTINUOUS
 10
129.7274707768
 20
211.1208677266
 11
129.8517245705
 21
210.7054369217
  0
LINE
  5
28E
100
AcDbEntity
  8
KONSTRUKTIONSELEMENTE
100
AcDbLine
 62
7
  6
CONTINUOUS
 10
123.3422998316
 20
207.8302786451
 11
122.4450691667
 21
211.0037529971
  0
LINE
  5
28F
100
AcDbEntity
  8
KONSTRUKTIONSELEMENTE
100
AcDbLine
 62
7
  6
CONTINUOUS
 10
123.8234397129
 20
207.9663104537
 11
122.9262090481
 21
211.1397848057
  0
LINE
  5
290
100
AcDbEntity
  8
KONSTRUKTIONSELEMENTE
100
AcDbLine
 62
7
  6
CONTINUOUS
 10
124.850767656
 20
211.6839117807
 11
125.7479983208
 21
208.5104374286
  0
LINE
  5
291
100
AcDbEntity
  8
KONSTRUKTIONSELEMENTE
100
AcDbLine
 62
7
  6
CONTINUOUS
 10
125.3319073079
 20
211.8199435244
 11
126.2291379728
 21
208.6464691724
  0
LINE
  5
292
100
AcDbEntity
  8
KONSTRUKTIONSELEMENTE
100
AcDbLine
 62
7
  6
CONTINUOUS
 10
121.1846438823
 20
208.5439876034
 11
121.120876744
 21
208.8676142439
  0
LINE
  5
293
100
AcDbEntity
  8
KONSTRUKTIONSELEMENTE
100
AcDbLine
 62
7
  6
CONTINUOUS
 10
121.6811457885
 20
208.6656559747
 11
121.6173786502
 21
208.9892826152
  0
LINE
  5
294
100
AcDbEntity
  8
KONSTRUKTIONSELEMENTE
100
AcDbLine
 62
7
  6
CONTINUOUS
 10
127.351964221
 20
207.1480593036
 11
126.8665191617
 21
212.1244378155
  0
LINE
  5
295
100
AcDbEntity
  8
KONSTRUKTIONSELEMENTE
100
AcDbLine
 62
7
  6
CONTINUOUS
 10
127.7876303627
 20
207.8318861712
 11
127.4261287152
 21
211.537700034
  0
LINE
  5
296
100
AcDbEntity
  8
KONSTRUKTIONSELEMENTE
100
AcDbLine
 62
7
  6
CONTINUOUS
 10
129.8517245705
 20
210.7054369217
 11
130.0066538408
 21
209.1172310547
  0
LINE
  5
297
100
AcDbEntity
  8
KONSTRUKTIONSELEMENTE
100
AcDbLine
 62
7
  6
CONTINUOUS
 10
130.3493624217
 20
210.7539814276
 11
130.504291692
 21
209.1657755606
  0
LINE
  5
298
100
AcDbEntity
  8
KONSTRUKTIONSELEMENTE
100
AcDbLine
 62
7
  6
CONTINUOUS
 10
125.7835799089
 20
208.078284922
 11
125.7479983208
 21
208.5104374286
  0
LINE
  5
299
100
AcDbEntity
  8
0
100
AcDbLine
 62
7
  6
CONTINUOUS
 10
119.1731706554
 20
451.5336183528
 11
119.1731706554
 21
331.5336183528
  0
LINE
  5
29A
100
AcDbEntity
  8
KONSTRUKTIONSELEMENTE
100
AcDbLine
 62
7
  6
CONTINUOUS
 10
125.0884255995
 20
206.5551077725
 11
125.4091855204
 21
206.6457956449
  0
LINE
  5
29B
100
AcDbEntity
  8
KONSTRUKTIONSELEMENTE
100
AcDbLine
 62
7
  6
CONTINUOUS
 10
124.9147680548
 20
207.1693286032
 11
125.2355279757
 21
207.2600164756
  0
LINE
  5
29C
100
AcDbEntity
  8
KONSTRUKTIONSELEMENTE
100
AcDbLine
 62
7
  6
CONTINUOUS
 10
119.947843483
 20
209.955028283
 11
120.3693065844
 21
210.0404529105
  0
LINE
  5
29D
100
AcDbEntity
  8
KONSTRUKTIONSELEMENTE
100
AcDbLine
 62
7
  6
CONTINUOUS
 10
127.351964221
 20
207.1480593036
 11
129.3425156258
 21
207.3422373273
  0
LINE
  5
29E
100
AcDbEntity
  8
KONSTRUKTIONSELEMENTE
100
AcDbLine
 62
7
  6
CONTINUOUS
 10
127.7876303627
 20
207.8318861712
 11
129.2805439163
 21
207.977519689
  0
LINE
  5
29F
100
AcDbEntity
  8
KONSTRUKTIONSELEMENTE
100
AcDbLine
 62
7
  6
CONTINUOUS
 10
127.4261287152
 20
211.537700034
 11
128.9190422688
 21
211.6833335518
  0
LINE
  5
2A0
100
AcDbEntity
  8
KONSTRUKTIONSELEMENTE
100
AcDbLine
 62
7
  6
CONTINUOUS
 10
126.8665191617
 20
212.1244378155
 11
128.8570705665
 21
212.3186158393
  0
LINE
  5
2A1
100
AcDbEntity
  8
KONSTRUKTIONSELEMENTE
100
AcDbLine
 62
7
  6
CONTINUOUS
 10
120.2542255264
 20
209.5123005323
 11
120.5256108034
 21
209.5252375685
  0
LINE
  5
2A2
100
AcDbEntity
  8
KONSTRUKTIONSELEMENTE
100
AcDbLine
 62
7
  6
CONTINUOUS
 10
150.9939721193
 20
194.06571872
 11
151.2689576794
 21
193.3679487423
  0
LINE
  5
2A3
100
AcDbEntity
  8
KONSTRUKTIONSELEMENTE
100
AcDbLine
 62
7
  6
CONTINUOUS
 10
151.5878189074
 20
194.2997489833
 11
151.8628044674
 21
193.6019790056
  0
LINE
  5
2A4
100
AcDbEntity
  8
KONSTRUKTIONSELEMENTE
100
AcDbLine
 62
7
  6
CONTINUOUS
 10
153.2178921355
 20
194.2255820017
 11
153.4928776956
 21
193.527812024
  0
LINE
  5
2A5
100
AcDbEntity
  8
KONSTRUKTIONSELEMENTE
100
AcDbLine
 62
7
  6
CONTINUOUS
 10
153.8117388542
 20
194.4596122377
 11
154.270048121
 21
193.2966622749
  0
LINE
  5
2A6
100
AcDbEntity
  8
KONSTRUKTIONSELEMENTE
100
AcDbLine
 62
7
  6
CONTINUOUS
 10
154.9774944924
 20
194.1128876139
 11
155.1608181991
 21
193.6477076288
  0
LINE
  5
2A7
100
AcDbEntity
  8
KONSTRUKTIONSELEMENTE
100
AcDbLine
 62
7
  6
CONTINUOUS
 10
155.0519252518
 20
195.664925551
 11
155.3269108119
 21
194.9671555733
  0
LINE
  5
2A8
100
AcDbEntity
  8
KONSTRUKTIONSELEMENTE
100
AcDbLine
 62
7
  6
CONTINUOUS
 10
155.6457719706
 20
195.898955787
 11
155.9207575306
 21
195.2011858093
  0
LINE
  5
2A9
100
AcDbEntity
  8
KONSTRUKTIONSELEMENTE
100
AcDbLine
 62
7
  6
CONTINUOUS
 10
153.8314396255
 20
199.5357665983
 11
153.9608456721
 21
199.1256646825
  0
LINE
  5
2AA
100
AcDbEntity
  8
KONSTRUKTIONSELEMENTE
100
AcDbLine
 62
7
  6
CONTINUOUS
 10
130.214779982
 20
211.2752929104
 11
130.3493624217
 21
210.7539814276
  0
LINE
  5
2AB
100
AcDbEntity
  8
KONSTRUKTIONSELEMENTE
100
AcDbLine
 62
7
  6
CONTINUOUS
 10
126.2936624816
 20
208.1119465393
 11
126.2291379728
 21
208.6464691724
  0
LINE
  5
2AC
100
AcDbEntity
  8
KONSTRUKTIONSELEMENTE
100
AcDbLine
 62
7
  6
CONTINUOUS
 10
151.5645766236
 20
194.6488763787
 11
151.5878189074
 21
194.2997489833
  0
LINE
  5
2AD
100
AcDbEntity
  8
KONSTRUKTIONSELEMENTE
100
AcDbLine
 62
7
  6
CONTINUOUS
 10
130.4729954518
 20
208.6282829342
 11
130.504291692
 21
209.1657755606
  0
LINE
  5
2AE
100
AcDbEntity
  8
KONSTRUKTIONSELEMENTE
100
AcDbLine
 62
7
  6
CONTINUOUS
 10
121.6411037501
 20
208.173747444
 11
121.6811457885
 21
208.6656559747
  0
LINE
  5
2AF
100
AcDbEntity
  8
KONSTRUKTIONSELEMENTE
100
AcDbLine
 62
7
  6
CONTINUOUS
 10
129.9650289835
 20
208.6856188095
 11
130.0066538408
 21
209.1172310547
  0
LINE
  5
2B0
100
AcDbEntity
  8
KONSTRUKTIONSELEMENTE
100
AcDbLine
 62
7
  6
CONTINUOUS
 10
126.2490544538
 20
207.6571220902
 11
126.2936624816
 21
208.1119465393
  0
LINE
  5
2B1
100
AcDbEntity
  8
KONSTRUKTIONSELEMENTE
100
AcDbLine
 62
7
  6
CONTINUOUS
 10
121.1271033533
 20
208.2799114143
 11
121.1846438823
 21
208.5439876034
  0
LINE
  5
2B2
100
AcDbEntity
  8
RUNDUNGEN
100
AcDbLine
 62
7
  6
CONTINUOUS
 10
95.1902823973
 20
173.8953854933
 11
100.5007344114
 21
192.4151325504
  0
LINE
  5
2B3
100
AcDbEntity
  8
KONSTRUKTIONSELEMENTE
100
AcDbLine
 62
7
  6
CONTINUOUS
 10
122.4450691667
 20
211.0037529971
 11
122.9262090481
 21
211.1397848057
  0
LINE
  5
2B4
100
AcDbEntity
  8
KONSTRUKTIONSELEMENTE
100
AcDbLine
 62
7
  6
CONTINUOUS
 10
124.850767656
 20
211.6839117807
 11
125.3319073079
 21
211.8199435244
  0
LINE
  5
2B5
100
AcDbEntity
  8
KONSTRUKTIONSELEMENTE
100
AcDbLine
 62
7
  6
CONTINUOUS
 10
153.0842443503
 20
184.490940511
 11
153.1635415775
 21
184.0682842949
  0
LINE
  5
2B6
100
AcDbEntity
  8
KONSTRUKTIONSELEMENTE
100
AcDbLine
 62
7
  6
CONTINUOUS
 10
156.932927751
 20
184.6598162273
 11
157.0122247323
 21
184.2371562044
  0
LINE
  5
2B7
100
AcDbEntity
  8
KONSTRUKTIONSELEMENTE
100
AcDbLine
 62
7
  6
CONTINUOUS
 10
153.4234994223
 20
199.1843944171
 11
153.4649909305
 21
198.9158878246
  0
LINE
  5
2B8
100
AcDbEntity
  8
KONSTRUKTIONSELEMENTE
100
AcDbLine
 62
7
  6
CONTINUOUS
 10
152.5534361865
 20
184.5252356878
 11
152.6273603482
 21
184.0194169893
  0
LINE
  5
2B9
100
AcDbEntity
  8
KONSTRUKTIONSELEMENTE
100
AcDbLine
 62
7
  6
CONTINUOUS
 10
157.4691086694
 20
184.7086797303
 11
157.5430328217
 21
184.2028610323
  0
LINE
  5
2BA
100
AcDbEntity
  8
KONSTRUKTIONSELEMENTE
100
AcDbLine
 62
7
  6
CONTINUOUS
 10
150.9401763593
 20
194.4923749333
 11
150.9939721193
 21
194.06571872
  0
LINE
  5
2BB
100
AcDbEntity
  8
KONSTRUKTIONSELEMENTE
100
AcDbLine
 62
7
  6
CONTINUOUS
 10
155.9207575306
 20
195.2011858093
 11
155.9745519006
 21
194.7745331484
  0
LINE
  5
2BC
100
AcDbEntity
  8
0
100
AcDbLine
 62
7
  6
CONTINUOUS
 10
161.6956068995
 20
179.4077608625
 11
159.6747871858
 21
198.6345761149
  0
LINE
  5
2BD
100
AcDbEntity
  8
KONSTRUKTIONSELEMENTE
100
AcDbLine
 62
7
  6
CONTINUOUS
 10
155.3269108119
 20
194.9671555733
 11
155.350151697
 21
194.6180317269
  0
LINE
  5
2BE
100
AcDbEntity
  8
KONSTRUKTIONSELEMENTE
100
AcDbLine
 62
7
  6
CONTINUOUS
 10
152.5601096419
 20
187.1901862976
 11
152.5898477719
 21
186.6910714375
  0
LINE
  5
2BF
100
AcDbEntity
  8
KONSTRUKTIONSELEMENTE
100
AcDbLine
 62
7
  6
CONTINUOUS
 10
157.5512582434
 20
187.4875675979
 11
157.5809963734
 21
186.9884527377
  0
LINE
  5
2C0
100
AcDbEntity
  8
0
100
AcDbLine
 62
7
  6
CONTINUOUS
 10
145.1731706554
 20
451.5336183528
 11
145.1731706554
 21
331.5336183528
  0
LINE
  5
2C1
100
AcDbEntity
  8
KONSTRUKTIONSELEMENTE
100
AcDbLine
 62
7
  6
CONTINUOUS
 10
125.7100289401
 20
207.7258306712
 11
125.7835799089
 21
208.078284922
  0
LINE
  5
2C2
100
AcDbEntity
  8
KONSTRUKTIONSELEMENTE
100
AcDbLine
 62
7
  6
CONTINUOUS
 10
130.3484303271
 20
208.1885798022
 11
130.4729954518
 21
208.6282829342
  0
LINE
  5
2C3
100
AcDbEntity
  8
KONSTRUKTIONSELEMENTE
100
AcDbLine
 62
7
  6
CONTINUOUS
 10
54.9419183089
 20
132.7156878406
 11
56.7096852619
 21
135.777550019
  0
LINE
  5
2C4
100
AcDbEntity
  8
BEZUGSACHSEN
100
AcDbLine
 62
7
  6
CONTINUOUS
 10
302.5179256373
 20
217.0210872802
 11
320.1792459365
 21
209.1577608625
  0
LINE
  5
2C5
100
AcDbEntity
  8
BEZUGSACHSEN
100
AcDbLine
 62
7
  6
CONTINUOUS
 10
278.3170953743
 20
162.6651325504
 11
291.7004407904
 21
148.8062726721
  0
LINE
  5
2C6
100
AcDbEntity
  8
KONSTRUKTIONSELEMENTE
100
AcDbLine
 62
7
  6
CONTINUOUS
 10
151.0159099533
 20
194.8805038293
 11
150.9401763593
 21
194.4923749333
  0
LINE
  5
2C7
100
AcDbEntity
  8
KONSTRUKTIONSELEMENTE
100
AcDbLine
 62
7
  6
CONTINUOUS
 10
155.9745519006
 20
194.7745331484
 11
155.8988197313
 21
194.3864007136
  0
LINE
  5
2C8
100
AcDbEntity
  8
KONSTRUKTIONSELEMENTE
100
AcDbLine
 62
7
  6
CONTINUOUS
 10
153.9608456721
 20
199.1256646825
 11
153.8655348569
 21
198.6741315929
  0
LINE
  5
2C9
100
AcDbEntity
  8
KONSTRUKTIONSELEMENTE
100
AcDbLine
 62
7
  6
CONTINUOUS
 10
129.8301352346
 20
208.3517961329
 11
129.9650289835
 21
208.6856188095
  0
LINE
  5
2CA
100
AcDbEntity
  8
KONSTRUKTIONSELEMENTE
100
AcDbLine
 62
7
  6
CONTINUOUS
 10
126.044066226
 20
207.1569536759
 11
126.2490544538
 21
207.6571220902
  0
LINE
  5
2CB
100
AcDbEntity
  8
KONSTRUKTIONSELEMENTE
100
AcDbLine
 62
7
  6
CONTINUOUS
 10
55.5609919126
 20
120.4958232589
 11
56.9752054749
 21
122.9453130017
  0
LINE
  5
2CC
100
AcDbEntity
  8
KONSTRUKTIONSELEMENTE
100
AcDbLine
 62
7
  6
CONTINUOUS
 10
55.3045827729
 20
119.3480147009
 11
55.4813594682
 21
119.6542009188
  0
LINE
  5
2CD
100
AcDbEntity
  8
0
100
AcDbLine
 62
7
  6
CONTINUOUS
 10
110.1670953743
 20
209.1577608625
 11
100.5007344114
 21
192.4151325504
  0
LINE
  5
2CE
100
AcDbEntity
  8
RUNDUNGEN
100
AcDbLine
 62
7
  6
CONTINUOUS
 10
87.1865057951
 20
159.8542121234
 11
100.945690627
 21
183.6858193231
  0
LINE
  5
2CF
100
AcDbEntity
  8
KONSTRUKTIONSELEMENTE
100
AcDbLine
 62
7
  6
CONTINUOUS
 10
152.6918352793
 20
185.0173363164
 11
152.5534361865
 21
184.5252356878
  0
LINE
  5
2D0
100
AcDbEntity
  8
KONSTRUKTIONSELEMENTE
100
AcDbLine
 62
7
  6
CONTINUOUS
 10
157.5430328217
 20
184.2028610323
 11
157.4046337383
 21
183.7107604032
  0
LINE
  5
2D1
100
AcDbEntity
  8
KONSTRUKTIONSELEMENTE
100
AcDbLine
 62
7
  6
CONTINUOUS
 10
153.2172706048
 20
184.8998824651
 11
153.0842443503
 21
184.490940511
  0
LINE
  5
2D2
100
AcDbEntity
  8
KONSTRUKTIONSELEMENTE
100
AcDbLine
 62
7
  6
CONTINUOUS
 10
157.0122247323
 20
184.2371562044
 11
156.8791987238
 21
183.828218057
  0
LINE
  5
2D3
100
AcDbEntity
  8
KONSTRUKTIONSELEMENTE
100
AcDbLine
 62
7
  6
CONTINUOUS
 10
151.6708637458
 20
194.9594764772
 11
151.5645766236
 21
194.6488763787
  0
LINE
  5
2D4
100
AcDbEntity
  8
KONSTRUKTIONSELEMENTE
100
AcDbLine
 62
7
  6
CONTINUOUS
 10
155.350151697
 20
194.6180317269
 11
155.2438646441
 21
194.3074316557
  0
LINE
  5
2D5
100
AcDbEntity
  8
KONSTRUKTIONSELEMENTE
100
AcDbLine
 62
7
  6
CONTINUOUS
 10
153.4649909305
 20
198.9158878246
 11
153.3721468824
 21
198.6620620454
  0
LINE
  5
2D6
100
AcDbEntity
  8
KONSTRUKTIONSELEMENTE
100
AcDbLine
 62
7
  6
CONTINUOUS
 10
102.7094000005
 20
165.2476641471
 11
99.3792729816
 21
159.4797149547
  0
LINE
  5
2D7
100
AcDbEntity
  8
BEZUGSACHSEN
100
AcDbLine
 62
7
  6
CONTINUOUS
 10
92.3792729816
 20
147.3553593017
 11
95.6811597741
 21
153.074394987
  0
LINE
  5
2D8
100
AcDbEntity
  8
0
100
AcDbLine
 62
7
  6
CONTINUOUS
 10
176.8503295836
 20
283.156510526
 11
125.4075544591
 21
194.0550103282
  0
LINE
  5
2D9
100
AcDbEntity
  8
KONSTRUKTIONSELEMENTE
100
AcDbLine
 62
7
  6
CONTINUOUS
 10
98.8077087178
 20
145.9827260306
 11
94.0759198668
 21
137.7870273301
  0
LINE
  5
2DA
100
AcDbEntity
  8
KONSTRUKTIONSELEMENTE
100
AcDbLine
 62
7
  6
CONTINUOUS
 10
61.2541652198
 20
78.0380806879
 11
56.0872303465
 21
69.0886869679
  0
LINE
  5
2DB
100
AcDbEntity
  8
BEZUGSACHSEN
100
AcDbLine
 62
7
  6
CONTINUOUS
 10
106.8734283942
 20
155.1529623098
 11
101.1252699501
 21
145.1968598347
  0
LINE
  5
2DC
100
AcDbEntity
  8
KONSTRUKTIONSELEMENTE
100
AcDbLine
 62
7
  6
CONTINUOUS
 10
106.8734283942
 20
155.1529623098
 11
113.5734283942
 21
166.7577027206
  0
LINE
  5
2DD
100
AcDbEntity
  8
KONSTRUKTIONSELEMENTE
100
AcDbLine
 62
7
  6
CONTINUOUS
 10
57.1121743728
 20
66.8639420965
 11
62.7690286223
 21
76.6619010676
  0
LINE
  5
2DE
100
AcDbEntity
  8
KONSTRUKTIONSELEMENTE
100
AcDbLine
 62
7
  6
CONTINUOUS
 10
117.5730004649
 20
169.4851647556
 11
113.52938337
 21
162.4814145007
  0
LINE
  5
2DF
100
AcDbEntity
  8
KONSTRUKTIONSELEMENTE
100
AcDbLine
 62
7
  6
CONTINUOUS
 10
103.2763350427
 20
144.7226138655
 11
97.9730341838
 21
135.5370273301
  0
LINE
  5
2E0
100
AcDbEntity
  8
KONSTRUKTIONSELEMENTE
100
AcDbLine
 62
7
  6
CONTINUOUS
 10
126.6883404222
 20
183.2733966898
 11
122.429104332
 21
175.8961833802
  0
LINE
  5
2E1
100
AcDbEntity
  8
KONSTRUKTIONSELEMENTE
100
AcDbLine
 62
7
  6
CONTINUOUS
 10
99.3275742011
 20
135.8831594609
 11
90.5723703811
 21
120.718701614
  0
LINE
  5
2E2
100
AcDbEntity
  8
KONSTRUKTIONSELEMENTE
100
AcDbLine
 62
7
  6
CONTINUOUS
 10
115.0120413905
 20
162.5494535226
 11
112.7996134969
 21
158.7174160027
  0
LINE
  5
2E3
100
AcDbEntity
  8
KONSTRUKTIONSELEMENTE
100
AcDbLine
 62
7
  6
CONTINUOUS
 10
106.7496134969
 20
148.2385086169
 11
103.9587405316
 21
143.4045748436
  0
LINE
  5
2E4
100
AcDbEntity
  8
KONSTRUKTIONSELEMENTE
100
AcDbLine
 62
7
  6
CONTINUOUS
 10
121.4334856114
 20
207.8371837673
 11
121.6411037501
 21
208.173747444
  0
LINE
  5
2E5
100
AcDbEntity
  8
KONSTRUKTIONSELEMENTE
100
AcDbLine
 62
7
  6
CONTINUOUS
 10
130.0579865478
 20
207.7326952671
 11
130.3484303271
 21
208.1885798022
  0
LINE
  5
2E6
100
AcDbEntity
  8
KONSTRUKTIONSELEMENTE
100
AcDbLine
 62
7
  6
CONTINUOUS
 10
125.5273449759
 20
207.4530744746
 11
125.7100289401
 21
207.7258306712
  0
LINE
  5
2E7
100
AcDbEntity
  8
BEZUGSACHSEN
100
AcDbLine
 62
7
  6
CONTINUOUS
 10
278.3170953743
 20
162.6651325504
 11
268.6507344114
 21
179.4077608625
  0
LINE
  5
2E8
100
AcDbEntity
  8
BEZUGSACHSEN
100
AcDbLine
 62
7
  6
CONTINUOUS
 10
299.8585653265
 20
134.8542121234
 11
286.0993804946
 21
158.6858193231
  0
LINE
  5
2E9
100
AcDbEntity
  8
KONSTRUKTIONSELEMENTE
100
AcDbLine
 62
7
  6
CONTINUOUS
 10
153.8655348569
 20
198.6741315929
 11
153.6358884854
 21
198.2372793164
  0
LINE
  5
2EA
100
AcDbEntity
  8
KONSTRUKTIONSELEMENTE
100
AcDbLine
 62
7
  6
CONTINUOUS
 10
118.9091557076
 20
160.2994535226
 11
116.6967278139
 21
156.4674160027
  0
LINE
  5
2EB
100
AcDbEntity
  8
KONSTRUKTIONSELEMENTE
100
AcDbLine
 62
7
  6
CONTINUOUS
 10
110.6467278139
 20
145.9885086169
 11
107.8558548487
 21
141.1545748436
  0
LINE
  5
2EC
100
AcDbEntity
  8
KONSTRUKTIONSELEMENTE
100
AcDbLine
 62
7
  6
CONTINUOUS
 10
131.0184674411
 20
180.7733966898
 11
126.7592313509
 21
173.3961833802
  0
LINE
  5
2ED
100
AcDbEntity
  8
KONSTRUKTIONSELEMENTE
100
AcDbLine
 62
7
  6
CONTINUOUS
 10
103.65770122
 20
133.3831594609
 11
94.9024974
 21
118.218701614
  0
LINE
  5
2EE
100
AcDbEntity
  8
KONSTRUKTIONSELEMENTE
100
AcDbLine
 62
7
  6
CONTINUOUS
 10
104.0352120103
 20
132.0370273301
 11
109.3385128692
 21
141.2226138655
  0
LINE
  5
2EF
100
AcDbEntity
  8
KONSTRUKTIONSELEMENTE
100
AcDbLine
 62
7
  6
CONTINUOUS
 10
119.5915611964
 20
158.9814145007
 11
123.6351782914
 21
165.9851647556
  0
LINE
  5
2F0
100
AcDbEntity
  8
KONSTRUKTIONSELEMENTE
100
AcDbLine
 62
7
  6
CONTINUOUS
 10
64.9930055473
 20
62.3139420965
 11
70.6498597968
 21
72.1119010676
  0
LINE
  5
2F1
100
AcDbEntity
  8
BEZUGSACHSEN
100
AcDbLine
 62
7
  6
CONTINUOUS
 10
110.8247544725
 20
139.5968598347
 11
116.5729129166
 21
149.5529623098
  0
LINE
  5
2F2
100
AcDbEntity
  8
KONSTRUKTIONSELEMENTE
100
AcDbLine
 62
7
  6
CONTINUOUS
 10
116.5729129166
 20
149.5529623098
 11
123.2729129166
 21
161.1577027206
  0
LINE
  5
2F3
100
AcDbEntity
  8
KONSTRUKTIONSELEMENTE
100
AcDbLine
 62
7
  6
CONTINUOUS
 10
67.432163136
 20
62.5386869679
 11
72.5586872996
 21
71.4180872855
  0
LINE
  5
2F4
100
AcDbEntity
  8
KONSTRUKTIONSELEMENTE
100
AcDbLine
 62
7
  6
CONTINUOUS
 10
107.9323263274
 20
129.7870273301
 11
112.6641151783
 21
137.9827260306
  0
LINE
  5
2F5
100
AcDbEntity
  8
0
100
AcDbLine
 62
7
  6
CONTINUOUS
 10
192.4387868517
 20
274.156510526
 11
140.9960117273
 21
185.0550103282
  0
LINE
  5
2F6
100
AcDbEntity
  8
KONSTRUKTIONSELEMENTE
100
AcDbLine
 62
7
  6
CONTINUOUS
 10
127.3971953481
 20
150.9941588575
 11
124.0670683292
 21
145.226209665
  0
LINE
  5
2F7
100
AcDbEntity
  8
BEZUGSACHSEN
100
AcDbLine
 62
7
  6
CONTINUOUS
 10
120.3689551217
 20
138.8208896974
 11
117.0670683292
 21
133.101854012
  0
LINE
  5
2F8
100
AcDbEntity
  8
KONSTRUKTIONSELEMENTE
100
AcDbLine
 62
7
  6
CONTINUOUS
 10
151.2895910635
 20
195.3466463564
 11
151.0159099533
 21
194.8805038293
  0
LINE
  5
2F9
100
AcDbEntity
  8
KONSTRUKTIONSELEMENTE
100
AcDbLine
 62
7
  6
CONTINUOUS
 10
155.8988197313
 20
194.3864007136
 11
155.6251372571
 21
193.9202617492
  0
LINE
  5
2FA
100
AcDbEntity
  8
KONSTRUKTIONSELEMENTE
100
AcDbLine
 62
7
  6
CONTINUOUS
 10
120.9482553717
 20
208.0753857803
 11
121.1271033533
 21
208.2799114143
  0
LINE
  5
2FB
100
AcDbEntity
  8
KONSTRUKTIONSELEMENTE
100
AcDbLine
 62
7
  6
CONTINUOUS
 10
125.7811921542
 20
206.8615255236
 11
126.044066226
 21
207.1569536759
  0
LINE
  5
2FC
100
AcDbEntity
  8
KONSTRUKTIONSELEMENTE
100
AcDbLine
 62
7
  6
CONTINUOUS
 10
129.6019735503
 20
208.1157630433
 11
129.8301352346
 21
208.3517961329
  0
LINE
  5
2FD
100
AcDbEntity
  8
BEZUGSACHSEN
100
AcDbLine
 62
7
  6
CONTINUOUS
 10
302.9491459627
 20
150.9941588575
 11
306.2792729816
 21
145.226209665
  0
LINE
  5
2FE
100
AcDbEntity
  8
BEZUGSACHSEN
100
AcDbLine
 62
7
  6
CONTINUOUS
 10
313.2792729816
 20
133.101854012
 11
309.9773861892
 21
138.8208896974
  0
LINE
  5
2FF
100
AcDbEntity
  8
0
100
AcDbLine
 62
7
  6
CONTINUOUS
 10
289.3789420213
 20
185.0054521322
 11
237.8789420213
 21
274.206068722
  0
LINE
  5
300
100
AcDbEntity
  8
RUNDUNGEN
100
AcDbLine
 62
7
  6
CONTINUOUS
 10
130.4877759843
 20
134.8542121234
 11
144.2469608162
 21
158.6858193231
  0
LINE
  5
301
100
AcDbEntity
  8
KONSTRUKTIONSELEMENTE
100
AcDbLine
 62
7
  6
CONTINUOUS
 10
94.7394745165
 20
68.5375952188
 11
92.9717075635
 21
65.4757330403
  0
LINE
  5
302
100
AcDbEntity
  8
0
100
AcDbLine
 62
7
  6
CONTINUOUS
 10
152.0292459365
 20
162.6651325504
 11
161.6956068995
 21
179.4077608625
  0
LINE
  5
303
100
AcDbEntity
  8
KONSTRUKTIONSELEMENTE
100
AcDbLine
 62
7
  6
CONTINUOUS
 10
151.9066801353
 20
195.2315492242
 11
151.6708637458
 21
194.9594764772
  0
LINE
  5
304
100
AcDbEntity
  8
KONSTRUKTIONSELEMENTE
100
AcDbLine
 62
7
  6
CONTINUOUS
 10
151.8821216738
 20
197.8350142815
 11
150.19901008
 21
195.907189787
  0
LINE
  5
305
100
AcDbEntity
  8
KONSTRUKTIONSELEMENTE
100
AcDbLine
 62
7
  6
CONTINUOUS
 10
151.4376214843
 20
198.1475665545
 11
149.8913102017
 21
196.4027717981
  0
LINE
  5
306
100
AcDbEntity
  8
KONSTRUKTIONSELEMENTE
100
AcDbLine
 62
7
  6
CONTINUOUS
 10
153.3721468824
 20
198.6620620454
 11
153.1449652657
 21
198.4229203202
  0
LINE
  5
307
100
AcDbEntity
  8
KONSTRUKTIONSELEMENTE
100
AcDbLine
 62
7
  6
CONTINUOUS
 10
129.7468855336
 20
207.4885715037
 11
130.0579865478
 21
207.7326952671
  0
LINE
  5
308
100
AcDbEntity
  8
BEZUGSACHSEN
100
AcDbLine
 62
7
  6
CONTINUOUS
 10
319.5215868383
 20
139.5968598347
 11
307.0734283942
 21
161.1577027206
  0
LINE
  5
309
100
AcDbEntity
  8
BEZUGSACHSEN
100
AcDbLine
 62
7
  6
CONTINUOUS
 10
329.2210713607
 20
145.1968598347
 11
316.7729129166
 21
166.7577027206
  0
LINE
  5
30A
100
AcDbEntity
  8
0
100
AcDbLine
 62
7
  6
CONTINUOUS
 10
304.9673992895
 20
194.0054521322
 11
253.4673992895
 21
283.206068722
  0
LINE
  5
30B
100
AcDbEntity
  8
KONSTRUKTIONSELEMENTE
100
AcDbLine
 62
7
  6
CONTINUOUS
 10
132.5007946044
 20
87.878736249
 11
130.7330276514
 21
84.8168740705
  0
LINE
  5
30C
100
AcDbEntity
  8
KONSTRUKTIONSELEMENTE
100
AcDbLine
 62
7
  6
CONTINUOUS
 10
153.0371847974
 20
185.4125601999
 11
152.6918352793
 21
185.0173363164
  0
LINE
  5
30D
100
AcDbEntity
  8
KONSTRUKTIONSELEMENTE
100
AcDbLine
 62
7
  6
CONTINUOUS
 10
157.4046337383
 20
183.7107604032
 11
157.059284494
 21
183.3155403247
  0
LINE
  5
30E
100
AcDbEntity
  8
KONSTRUKTIONSELEMENTE
100
AcDbLine
 62
7
  6
CONTINUOUS
 10
153.6358884854
 20
198.2372793164
 11
153.4087068687
 21
197.9981375912
  0
LINE
  5
30F
100
AcDbEntity
  8
KONSTRUKTIONSELEMENTE
100
AcDbLine
 62
7
  6
CONTINUOUS
 10
153.4457125733
 20
185.1356442281
 11
153.2172706048
 21
184.8998824651
  0
LINE
  5
310
100
AcDbEntity
  8
KONSTRUKTIONSELEMENTE
100
AcDbLine
 62
7
  6
CONTINUOUS
 10
156.8791987238
 20
183.828218057
 11
156.6507567552
 21
183.5924562941
  0
LINE
  5
311
100
AcDbEntity
  8
KONSTRUKTIONSELEMENTE
100
AcDbLine
 62
7
  6
CONTINUOUS
 10
151.6243819755
 20
195.65772417
 11
151.2895910635
 21
195.3466463564
  0
LINE
  5
312
100
AcDbEntity
  8
KONSTRUKTIONSELEMENTE
100
AcDbLine
 62
7
  6
CONTINUOUS
 10
125.2355279757
 20
207.2600164756
 11
125.5273449759
 21
207.4530744746
  0
LINE
  5
313
100
AcDbEntity
  8
KONSTRUKTIONSELEMENTE
100
AcDbLine
 62
7
  6
CONTINUOUS
 10
125.4091855204
 20
206.6457956449
 11
125.7811921542
 21
206.8615255236
  0
LINE
  5
314
100
AcDbEntity
  8
KONSTRUKTIONSELEMENTE
100
AcDbLine
 62
7
  6
CONTINUOUS
 10
118.1469104489
 20
209.0851776024
 11
119.947843483
 21
209.955028283
  0
LINE
  5
315
100
AcDbEntity
  8
KONSTRUKTIONSELEMENTE
100
AcDbLine
 62
7
  6
CONTINUOUS
 10
118.828486946
 20
208.823668778
 11
120.2542255264
 21
209.5123005323
  0
LINE
  5
316
100
AcDbEntity
  8
KONSTRUKTIONSELEMENTE
100
AcDbLine
 62
7
  6
CONTINUOUS
 10
119.5225167913
 20
207.386754026
 11
120.9482553717
 21
208.0753857803
  0
LINE
  5
317
100
AcDbEntity
  8
KONSTRUKTIONSELEMENTE
100
AcDbLine
 62
7
  6
CONTINUOUS
 10
119.8001286775
 20
206.8119882326
 11
121.0757895409
 21
207.4281324475
  0
LINE
  5
318
100
AcDbEntity
  8
KONSTRUKTIONSELEMENTE
100
AcDbLine
 62
7
  6
CONTINUOUS
 10
120.3215371506
 20
204.5828450171
 11
120.7717704091
 21
204.8003076872
  0
LINE
  5
319
100
AcDbEntity
  8
KONSTRUKTIONSELEMENTE
100
AcDbLine
 62
7
  6
CONTINUOUS
 10
122.6477422481
 20
205.7064021117
 11
123.1730145261
 21
205.9601086293
  0
LINE
  5
31A
100
AcDbEntity
  8
0
100
AcDbLine
 62
7
  6
CONTINUOUS
 10
127.8284156735
 20
217.0210872802
 11
110.1670953743
 21
209.1577608625
  0
LINE
  5
31B
100
AcDbEntity
  8
BEZUGSACHSEN
100
AcDbLine
 62
7
  6
CONTINUOUS
 10
327.6369413103
 20
165.2476641471
 11
330.9670683292
 21
159.4797149547
  0
LINE
  5
31C
100
AcDbEntity
  8
BEZUGSACHSEN
100
AcDbLine
 62
7
  6
CONTINUOUS
 10
334.6651815367
 20
153.074394987
 11
337.9670683292
 21
147.3553593017
  0
LINE
  5
31D
100
AcDbEntity
  8
BEZUGSACHSEN
100
AcDbLine
 62
7
  6
CONTINUOUS
 10
343.1598355157
 20
159.8542121234
 11
329.4006506838
 21
183.6858193231
  0
LINE
  5
31E
100
AcDbEntity
  8
BEZUGSACHSEN
100
AcDbLine
 62
7
  6
CONTINUOUS
 10
320.1792459365
 20
209.1577608625
 11
329.8456068995
 21
192.4151325504
  0
LINE
  5
31F
100
AcDbEntity
  8
RUNDUNGEN
100
AcDbLine
 62
7
  6
CONTINUOUS
 10
138.6459005204
 20
148.8062726721
 11
152.0292459365
 21
162.6651325504
  0
LINE
  5
320
100
AcDbEntity
  8
KONSTRUKTIONSELEMENTE
100
AcDbLine
 62
7
  6
CONTINUOUS
 10
155.2438646441
 20
194.3074316557
 11
154.9774944924
 21
194.1128876139
  0
LINE
  5
321
100
AcDbEntity
  8
KONSTRUKTIONSELEMENTE
100
AcDbLine
 62
7
  6
CONTINUOUS
 10
153.371788421
 20
185.641462926
 11
153.0371847974
 21
185.4125601999
  0
LINE
  5
322
100
AcDbEntity
  8
KONSTRUKTIONSELEMENTE
100
AcDbLine
 62
7
  6
CONTINUOUS
 10
157.059284494
 20
183.3155403247
 11
156.7246809076
 21
183.0866375962
  0
LINE
  5
323
100
AcDbEntity
  8
KONSTRUKTIONSELEMENTE
100
AcDbLine
 62
7
  6
CONTINUOUS
 10
152.2720230643
 20
195.4651017451
 11
151.9066801353
 21
195.2315492242
  0
LINE
  5
324
100
AcDbEntity
  8
KONSTRUKTIONSELEMENTE
100
AcDbLine
 62
7
  6
CONTINUOUS
 10
148.9746337383
 20
198.8743890258
 11
152.7764732135
 21
201.2348975143
  0
LINE
  5
325
100
AcDbEntity
  8
KONSTRUKTIONSELEMENTE
100
AcDbLine
 62
7
  6
CONTINUOUS
 10
148.7923875266
 20
198.1726987552
 11
150.6903529384
 21
199.3511187003
  0
LINE
  5
326
100
AcDbEntity
  8
KONSTRUKTIONSELEMENTE
100
AcDbLine
 62
7
  6
CONTINUOUS
 10
151.232628698
 20
199.6878100682
 11
152.5883183502
 21
200.5295386453
  0
LINE
  5
327
100
AcDbEntity
  8
KONSTRUKTIONSELEMENTE
100
AcDbLine
 62
7
  6
CONTINUOUS
 10
153.1449652657
 20
198.4229203202
 11
152.8738271327
 21
198.254574479
  0
LINE
  5
328
100
AcDbEntity
  8
KONSTRUKTIONSELEMENTE
100
AcDbLine
 62
7
  6
CONTINUOUS
 10
153.4087068687
 20
197.9981375912
 11
153.0471894424
 21
197.773676522
  0
LINE
  5
329
100
AcDbEntity
  8
KONSTRUKTIONSELEMENTE
100
AcDbLine
 62
7
  6
CONTINUOUS
 10
152.0886993576
 20
195.9302817302
 11
151.6243819755
 21
195.65772417
  0
LINE
  5
32A
100
AcDbEntity
  8
KONSTRUKTIONSELEMENTE
100
AcDbLine
 62
7
  6
CONTINUOUS
 10
155.6251372571
 20
193.9202617492
 11
155.1608181991
 21
193.6477076288
  0
LINE
  5
32B
100
AcDbEntity
  8
KONSTRUKTIONSELEMENTE
100
AcDbLine
 62
7
  6
CONTINUOUS
 10
129.2805439163
 20
207.977519689
 11
129.6019735503
 21
208.1157630433
  0
LINE
  5
32C
100
AcDbEntity
  8
KONSTRUKTIONSELEMENTE
100
AcDbLine
 62
7
  6
CONTINUOUS
 10
129.3425156258
 20
207.3422373273
 11
129.7468855336
 21
207.4885715037
  0
LINE
  5
32D
100
AcDbEntity
  8
0
100
AcDbLine
 62
7
  6
CONTINUOUS
 10
285.1731706554
 20
331.5336183528
 11
285.1731706554
 21
451.5336183528
  0
LINE
  5
32E
100
AcDbEntity
  8
BEZUGSACHSEN
100
AcDbLine
 62
7
  6
CONTINUOUS
 10
268.6507344114
 20
179.4077608625
 11
270.671554125
 21
198.6345761149
  0
LINE
  5
32F
100
AcDbEntity
  8
KONSTRUKTIONSELEMENTE
100
AcDbLine
 62
7
  6
CONTINUOUS
 10
154.1041739167
 20
185.4271285236
 11
153.4457125733
 21
185.1356442281
  0
LINE
  5
330
100
AcDbEntity
  8
KONSTRUKTIONSELEMENTE
100
AcDbLine
 62
7
  6
CONTINUOUS
 10
156.6507567552
 20
183.5924562941
 11
155.9922949429
 21
183.3009682062
  0
LINE
  5
331
100
AcDbEntity
  8
KONSTRUKTIONSELEMENTE
100
AcDbLine
 62
7
  6
CONTINUOUS
 10
152.0886993576
 20
195.9302817302
 11
153.573316293
 21
196.5153573748
  0
LINE
  5
332
100
AcDbEntity
  8
KONSTRUKTIONSELEMENTE
100
AcDbLine
 62
7
  6
CONTINUOUS
 10
152.2720230643
 20
195.4651017451
 11
153.7566399997
 21
196.0501773897
  0
LINE
  5
333
100
AcDbEntity
  8
KONSTRUKTIONSELEMENTE
100
AcDbLine
 62
7
  6
CONTINUOUS
 10
153.8117388542
 20
194.4596122377
 11
153.2178921355
 21
194.2255820017
  0
LINE
  5
334
100
AcDbEntity
  8
KONSTRUKTIONSELEMENTE
100
AcDbLine
 62
7
  6
CONTINUOUS
 10
153.4928776956
 20
193.527812024
 11
152.701081932
 21
193.2157716547
  0
LINE
  5
335
100
AcDbEntity
  8
KONSTRUKTIONSELEMENTE
100
AcDbLine
 62
7
  6
CONTINUOUS
 10
154.270048121
 20
193.2966622749
 11
152.7854311855
 21
192.7115866303
  0
LINE
  5
336
100
AcDbEntity
  8
KONSTRUKTIONSELEMENTE
100
AcDbLine
 62
7
  6
CONTINUOUS
 10
152.5587329898
 20
198.1570248363
 11
152.8738271327
 21
198.254574479
  0
LINE
  5
337
100
AcDbEntity
  8
KONSTRUKTIONSELEMENTE
100
AcDbLine
 62
7
  6
CONTINUOUS
 10
152.7320952995
 20
197.6761268793
 11
153.0471894424
 21
197.773676522
  0
LINE
  5
338
100
AcDbEntity
  8
BEZUGSACHSEN
100
AcDbLine
 62
7
  6
CONTINUOUS
 10
335.1560589135
 20
173.8953854933
 11
329.8456068995
 21
192.4151325504
  0
LINE
  5
339
100
AcDbEntity
  8
0
100
AcDbLine
 62
7
  6
CONTINUOUS
 10
311.1731706554
 20
331.5336183528
 11
311.1731706554
 21
451.5336183528
  0
LINE
  5
33A
100
AcDbEntity
  8
KONSTRUKTIONSELEMENTE
100
AcDbLine
 62
7
  6
CONTINUOUS
 10
153.8071808707
 20
185.7803479403
 11
153.371788421
 21
185.641462926
  0
LINE
  5
33B
100
AcDbEntity
  8
KONSTRUKTIONSELEMENTE
100
AcDbLine
 62
7
  6
CONTINUOUS
 10
156.7246809076
 20
183.0866375962
 11
156.2892885322
 21
182.947752577
  0
LINE
  5
33C
100
AcDbEntity
  8
BEZUGSACHSEN
100
AcDbLine
 62
7
  6
CONTINUOUS
 10
270.671554125
 20
198.6345761149
 11
277.2755800688
 21
205.9690899763
  0
LINE
  5
33D
100
AcDbEntity
  8
RUNDUNGEN
100
AcDbLine
 62
7
  6
CONTINUOUS
 10
129.4397654634
 20
133.9748268819
 11
128.7435462412
 21
133.7214238085
  0
LINE
  5
33E
100
AcDbEntity
  8
BEZUGSACHSEN
100
AcDbLine
 62
7
  6
CONTINUOUS
 10
128.7435462412
 20
133.7214238085
 11
121.800065504
 21
131.1942034979
  0
LINE
  5
33F
100
AcDbEntity
  8
BEZUGSACHSEN
100
AcDbLine
 62
7
  6
CONTINUOUS
 10
341.9856407234
 20
150.500429834
 11
343.3974002142
 21
158.5069157681
  0
LINE
  5
340
100
AcDbEntity
  8
KONSTRUKTIONSELEMENTE
100
AcDbLine
 62
7
  6
CONTINUOUS
 10
89.0061640912
 20
75.8034884893
 11
117.4928572758
 21
90.0665727002
  0
LINE
  5
341
100
AcDbEntity
  8
KONSTRUKTIONSELEMENTE
100
AcDbLine
 62
7
  6
CONTINUOUS
 10
92.4337310237
 20
65.1581145503
 11
92.8564285856
 21
65.3697562064
  0
LINE
  5
342
100
AcDbEntity
  8
KONSTRUKTIONSELEMENTE
100
AcDbLine
 62
7
  6
CONTINUOUS
 10
128.89381153
 20
83.4134169552
 11
129.5802378718
 21
83.7571057313
  0
LINE
  5
343
100
AcDbEntity
  8
0
100
AcDbLine
 62
7
  6
CONTINUOUS
 10
320.4479129166
 20
160.3924160027
 11
310.7484283942
 21
154.7924160027
  0
LINE
  5
344
100
AcDbEntity
  8
0
100
AcDbLine
 62
7
  6
CONTINUOUS
 10
326.4979129166
 20
149.9135086169
 11
316.7984283942
 21
144.3135086169
  0
LINE
  5
345
100
AcDbEntity
  8
KONSTRUKTIONSELEMENTE
100
AcDbLine
 62
7
  6
CONTINUOUS
 10
310.2303160935
 20
131.3415379319
 11
313.2792729816
 21
133.101854012
  0
LINE
  5
346
100
AcDbEntity
  8
KONSTRUKTIONSELEMENTE
100
AcDbLine
 62
7
  6
CONTINUOUS
 10
337.9670683292
 20
147.3553593017
 11
341.0160252173
 21
149.1156753818
  0
LINE
  5
347
100
AcDbEntity
  8
KONSTRUKTIONSELEMENTE
100
AcDbLine
 62
7
  6
CONTINUOUS
 10
403.9973664939
 20
64.6042832916
 11
406.8257936187
 21
62.1547935488
  0
LINE
  5
348
100
AcDbEntity
  8
KONSTRUKTIONSELEMENTE
100
AcDbLine
 62
7
  6
CONTINUOUS
 10
407.1006673435
 20
62.3139420965
 11
406.747113953
 21
62.6201283143
  0
LINE
  5
349
100
AcDbEntity
  8
KONSTRUKTIONSELEMENTE
100
AcDbLine
 62
7
  6
CONTINUOUS
 10
403.5651334376
 20
65.375804275
 11
403.9186868282
 21
65.0696180571
  0
LINE
  5
34A
100
AcDbEntity
  8
KONSTRUKTIONSELEMENTE
100
AcDbLine
 62
7
  6
CONTINUOUS
 10
407.1006673435
 20
66.8639420965
 11
406.747113953
 21
67.1701283143
  0
LINE
  5
34B
100
AcDbEntity
  8
KONSTRUKTIONSELEMENTE
100
AcDbLine
 62
7
  6
CONTINUOUS
 10
403.5651334376
 20
69.925804275
 11
403.9186868282
 21
69.6196180571
  0
LINE
  5
34C
100
AcDbEntity
  8
KONSTRUKTIONSELEMENTE
100
AcDbLine
 62
7
  6
CONTINUOUS
 10
417.9695346137
 20
68.0001003379
 11
421.5050685197
 21
64.9382381594
  0
LINE
  5
34D
100
AcDbEntity
  8
KONSTRUKTIONSELEMENTE
100
AcDbLine
 62
7
  6
CONTINUOUS
 10
421.2428029673
 20
81.6366999171
 11
420.8892495767
 21
81.9428861349
  0
LINE
  5
34E
100
AcDbEntity
  8
KONSTRUKTIONSELEMENTE
100
AcDbLine
 62
7
  6
CONTINUOUS
 10
418.0608224519
 20
84.3923758777
 11
417.7072690613
 21
84.6985620955
  0
LINE
  5
34F
100
AcDbEntity
  8
KONSTRUKTIONSELEMENTE
100
AcDbLine
 62
7
  6
CONTINUOUS
 10
453.6103089471
 20
86.4532914946
 11
457.1458428531
 21
83.3914293161
  0
LWPOLYLINE
  5
350
100
AcDbEntity
  8
BEZUGSACHSEN
100
AcDbPolyline
 62
7
  6
CONTINUOUS
 90
14
 70
0
 10
577.5163853125
 20
131.0823404304
 10
578.3828716752
 20
131.116780392
 10
579.2574763811
 20
131.1785239443
 10
580.1360859505
 20
131.2686842493
 10
581.0140735446
 20
131.3882566128
 10
581.8867482107
 20
131.5381391141
 10
582.7493548597
 20
131.7191562021
 10
583.5973542494
 20
131.932161402
 10
584.4249781052
 20
132.1776716125
 10
585.2317037778
 20
132.4580375035
 10
586.0099961115
 20
132.7737162321
 10
586.7711662344
 20
133.1344931735
 10
587.5225383548
 20
133.554236196
 10
588.1615450473
 20
133.9762747745
  0
LINE
  5
351
100
AcDbEntity
  8
BEZUGSACHSEN
100
AcDbLine
 62
7
  6
CONTINUOUS
 10
576.8062948282
 20
131.0735902957
 11
577.5163853125
 21
131.0823404304
  0
LWPOLYLINE
  5
352
100
AcDbEntity
  8
RUNDUNGEN
100
AcDbPolyline
 62
7
  6
CONTINUOUS
 90
15
 70
0
 10
576.8062948284
 20
131.0735902955
 10
577.5173935795
 20
131.0823528549
 10
578.3851557769
 20
131.116906087
 10
579.2586672077
 20
131.1786268251
 10
580.1353216393
 20
131.2685932184
 10
581.0109705206
 20
131.3877801302
 10
581.8813812345
 20
131.5371180714
 10
582.7421954971
 20
131.7175110114
 10
583.5892032345
 20
131.9299360489
 10
584.4169742716
 20
132.1751031837
 10
585.2248070118
 20
132.4554502698
 10
586.0054245565
 20
132.7717157394
 10
586.7688915636
 20
133.1333265258
 10
587.5216563152
 20
133.5536993219
 10
588.1615438304
 20
133.9762739004
  0
LINE
  5
353
100
AcDbEntity
  8
KONSTRUKTIONSELEMENTE
100
AcDbLine
 62
7
  6
CONTINUOUS
 10
451.6494117131
 20
119.3480147009
 11
453.5918472649
 21
118.0847129261
  0
LINE
  5
354
100
AcDbEntity
  8
KONSTRUKTIONSELEMENTE
100
AcDbLine
 62
7
  6
CONTINUOUS
 10
451.2958583225
 20
119.6542009188
 11
453.2382938743
 21
118.3908991439
  0
LINE
  5
355
100
AcDbEntity
  8
KONSTRUKTIONSELEMENTE
100
AcDbLine
 62
7
  6
CONTINUOUS
 10
448.1138778072
 20
122.4098768794
 11
448.5022791081
 21
122.1572723323
  0
LINE
  5
356
100
AcDbEntity
  8
KONSTRUKTIONSELEMENTE
100
AcDbLine
 62
7
  6
CONTINUOUS
 10
453.0258254447
 20
120.8952838158
 11
454.5200066384
 21
119.9235132197
  0
LINE
  5
357
100
AcDbEntity
  8
KONSTRUKTIONSELEMENTE
100
AcDbLine
 62
7
  6
CONTINUOUS
 10
450.19739832
 20
123.3447735586
 11
451.6915795136
 21
122.3730029625
  0
LINE
  5
358
100
AcDbEntity
  8
KONSTRUKTIONSELEMENTE
100
AcDbLine
 62
7
  6
CONTINUOUS
 10
458.0212580834
 20
129.0554439776
 11
459.515439277
 21
128.0836733815
  0
LINE
  5
359
100
AcDbEntity
  8
KONSTRUKTIONSELEMENTE
100
AcDbLine
 62
7
  6
CONTINUOUS
 10
451.6494117131
 20
119.3480147009
 11
451.2958583225
 21
119.6542009188
  0
LINE
  5
35A
100
AcDbEntity
  8
KONSTRUKTIONSELEMENTE
100
AcDbLine
 62
7
  6
CONTINUOUS
 10
448.1138778072
 20
122.4098768794
 11
448.4674311978
 21
122.1036906616
  0
LINE
  5
35B
100
AcDbEntity
  8
KONSTRUKTIONSELEMENTE
100
AcDbLine
 62
7
  6
CONTINUOUS
 10
460.2689300518
 20
129.6548443608
 11
459.5949484702
 21
129.5778770597
  0
LINE
  5
35C
100
AcDbEntity
  8
KONSTRUKTIONSELEMENTE
100
AcDbLine
 62
7
  6
CONTINUOUS
 10
462.2113656035
 20
128.3915425859
 11
460.2689300518
 21
129.6548443608
  0
LINE
  5
35D
100
AcDbEntity
  8
KONSTRUKTIONSELEMENTE
100
AcDbLine
 62
7
  6
CONTINUOUS
 10
476.0442322949
 20
127.6767668658
 11
466.2491059198
 21
134.0472230301
  0
LINE
  5
35E
100
AcDbEntity
  8
KONSTRUKTIONSELEMENTE
100
AcDbLine
 62
7
  6
CONTINUOUS
 10
472.508698389
 20
130.7386290442
 11
462.7135720139
 21
137.1090852086
  0
LINE
  5
35F
100
AcDbEntity
  8
KONSTRUKTIONSELEMENTE
100
AcDbLine
 62
7
  6
CONTINUOUS
 10
458.0015160032
 20
129.0697925889
 11
458.0212580834
 21
129.0554439776
  0
LINE
  5
360
100
AcDbEntity
  8
BEZUGSACHSEN
100
AcDbLine
 62
7
  6
CONTINUOUS
 10
476.265990743
 20
127.5092390707
 11
476.0442322949
 21
127.6767668658
  0
LINE
  5
361
100
AcDbEntity
  8
BEZUGSACHSEN
100
AcDbLine
 62
7
  6
CONTINUOUS
 10
472.7304568371
 20
130.5711012491
 11
472.508698389
 21
130.7386290442
  0
LINE
  5
362
100
AcDbEntity
  8
KONSTRUKTIONSELEMENTE
100
AcDbLine
 62
7
  6
CONTINUOUS
 10
459.5365964215
 20
128.0674848408
 11
459.515439277
 21
128.0836733815
  0
LINE
  5
363
100
AcDbEntity
  8
KONSTRUKTIONSELEMENTE
100
AcDbLine
 62
7
  6
CONTINUOUS
 10
457.2884683028
 20
129.6877024773
 11
458.0055492168
 21
129.0666921892
  0
LINE
  5
364
100
AcDbEntity
  8
BEZUGSACHSEN
100
AcDbLine
 62
7
  6
CONTINUOUS
 10
472.7294550074
 20
130.572579574
 11
476.0566690974
 21
127.6911276483
  0
LINE
  5
365
100
AcDbEntity
  8
KONSTRUKTIONSELEMENTE
100
AcDbLine
 62
7
  6
CONTINUOUS
 10
403.5651334376
 20
69.925804275
 11
403.5651334376
 21
65.375804275
  0
LINE
  5
366
100
AcDbEntity
  8
KONSTRUKTIONSELEMENTE
100
AcDbLine
 62
7
  6
CONTINUOUS
 10
403.9186868282
 20
69.8696180571
 11
403.9186868282
 21
69.6196180571
  0
LINE
  5
367
100
AcDbEntity
  8
KONSTRUKTIONSELEMENTE
100
AcDbLine
 62
7
  6
CONTINUOUS
 10
403.9186868282
 20
65.0696180571
 11
403.9186868282
 21
64.8196180571
  0
LINE
  5
368
100
AcDbEntity
  8
BEZUGSACHSEN
100
AcDbLine
 62
7
  6
CONTINUOUS
 10
574.4782543722
 20
192.4151325504
 11
579.1343352844
 21
192.4151325504
  0
LWPOLYLINE
  5
369
100
AcDbEntity
  8
RUNDUNGEN
100
AcDbPolyline
 62
7
  6
CONTINUOUS
 90
15
 70
0
 10
565.4510458263
 20
133.9762739004
 10
566.0909333414
 20
133.5536993219
 10
566.843698093
 20
133.1333265258
 10
567.6071651001
 20
132.7717157394
 10
568.3877826449
 20
132.4554502698
 10
569.1956153851
 20
132.1751031837
 10
570.0233864222
 20
131.9299360489
 10
570.8703941595
 20
131.7175110114
 10
571.7312084222
 20
131.5371180714
 10
572.6016191361
 20
131.3877801302
 10
573.4772680174
 20
131.2685932184
 10
574.3539224489
 20
131.1786268251
 10
575.2274338798
 20
131.116906087
 10
576.0951960771
 20
131.0823528549
 10
576.8062948282
 20
131.0735902955
  0
LWPOLYLINE
  5
36A
100
AcDbEntity
  8
BEZUGSACHSEN
100
AcDbPolyline
 62
7
  6
CONTINUOUS
 90
15
 70
0
 10
565.4510446094
 20
133.9762747745
 10
566.0900513018
 20
133.554236196
 10
566.8414234223
 20
133.1344931735
 10
567.6025935451
 20
132.7737162321
 10
568.3808858788
 20
132.4580375035
 10
569.1876115515
 20
132.1776716125
 10
570.0152354072
 20
131.932161402
 10
570.8632347969
 20
131.7191562021
 10
571.725841446
 20
131.5381391141
 10
572.598516112
 20
131.3882566128
 10
573.4765037061
 20
131.2686842493
 10
574.3551132755
 20
131.1785239443
 10
575.2297179814
 20
131.116780392
 10
576.0970251893
 20
131.0823078045
 10
576.8062948284
 20
131.0735902957
  0
LINE
  5
36B
100
AcDbEntity
  8
BEZUGSACHSEN
100
AcDbLine
 62
7
  6
CONTINUOUS
 10
565.4516295316
 20
133.9758547345
 11
564.6580935595
 21
134.5452565128
  0
LINE
  5
36C
100
AcDbEntity
  8
KONSTRUKTIONSELEMENTE
100
AcDbLine
 62
7
  6
CONTINUOUS
 10
406.747113953
 20
67.4201283143
 11
406.747113953
 21
67.1701283143
  0
LINE
  5
36D
100
AcDbEntity
  8
KONSTRUKTIONSELEMENTE
100
AcDbLine
 62
7
  6
CONTINUOUS
 10
406.747113953
 20
62.6201283143
 11
406.747113953
 21
62.3701283143
  0
LINE
  5
36E
100
AcDbEntity
  8
KONSTRUKTIONSELEMENTE
100
AcDbLine
 62
7
  6
CONTINUOUS
 10
407.1006673435
 20
66.8639420965
 11
407.1006673435
 21
62.3139420965
  0
LINE
  5
36F
100
AcDbEntity
  8
KONSTRUKTIONSELEMENTE
100
AcDbLine
 62
7
  6
CONTINUOUS
 10
417.7072690613
 20
68.7178828895
 11
417.7072690613
 21
71.1119010676
  0
LINE
  5
370
100
AcDbEntity
  8
KONSTRUKTIONSELEMENTE
100
AcDbLine
 62
7
  6
CONTINUOUS
 10
417.7072690613
 20
84.1732529889
 11
417.7072690613
 21
84.6985620955
  0
LINE
  5
371
100
AcDbEntity
  8
KONSTRUKTIONSELEMENTE
100
AcDbLine
 62
7
  6
CONTINUOUS
 10
420.8892495767
 20
71.8675770282
 11
420.8892495767
 21
72.8675770282
  0
LINE
  5
372
100
AcDbEntity
  8
KONSTRUKTIONSELEMENTE
100
AcDbLine
 62
7
  6
CONTINUOUS
 10
420.8892495767
 20
81.4175770282
 11
420.8892495767
 21
81.9428861349
  0
LINE
  5
373
100
AcDbEntity
  8
KONSTRUKTIONSELEMENTE
100
AcDbLine
 62
7
  6
CONTINUOUS
 10
421.2428029673
 20
72.5613908104
 11
421.2428029673
 21
65.656020711
  0
LINE
  5
374
100
AcDbEntity
  8
KONSTRUKTIONSELEMENTE
100
AcDbLine
 62
7
  6
CONTINUOUS
 10
421.2428029673
 20
81.1113908104
 11
421.2428029673
 21
81.6366999171
  0
LINE
  5
375
100
AcDbEntity
  8
KONSTRUKTIONSELEMENTE
100
AcDbLine
 62
7
  6
CONTINUOUS
 10
582.2491596783
 20
204.5828450171
 11
582.77579398
 21
204.5828450171
  0
LINE
  5
376
100
AcDbEntity
  8
KONSTRUKTIONSELEMENTE
100
AcDbLine
 62
7
  6
CONTINUOUS
 10
582.4536449164
 20
205.7064021117
 11
582.7873621701
 21
205.7064021117
  0
LINE
  5
377
100
AcDbEntity
  8
KONSTRUKTIONSELEMENTE
100
AcDbLine
 62
7
  6
CONTINUOUS
 10
570.8641904107
 20
205.9601086293
 11
570.8367956766
 21
205.9601086293
  0
LINE
  5
378
100
AcDbEntity
  8
KONSTRUKTIONSELEMENTE
100
AcDbLine
 62
7
  6
CONTINUOUS
 10
571.0573331899
 20
206.5441181647
 11
570.855327097
 21
206.5441181647
  0
LINE
  5
379
100
AcDbEntity
  8
KONSTRUKTIONSELEMENTE
100
AcDbLine
 62
7
  6
CONTINUOUS
 10
582.5296807529
 20
206.5441181647
 11
582.7572625596
 21
206.5441181647
  0
LINE
  5
37A
100
AcDbEntity
  8
KONSTRUKTIONSELEMENTE
100
AcDbLine
 62
7
  6
CONTINUOUS
 10
571.0609676569
 20
206.5551077725
 11
570.8177541545
 21
206.5551077725
  0
LINE
  5
37B
100
AcDbEntity
  8
KONSTRUKTIONSELEMENTE
100
AcDbLine
 62
7
  6
CONTINUOUS
 10
571.0909598173
 20
206.6457956449
 11
570.8177541539
 21
206.6457956449
  0
LINE
  5
37C
100
AcDbEntity
  8
KONSTRUKTIONSELEMENTE
100
AcDbLine
 62
7
  6
CONTINUOUS
 10
582.4814779622
 20
206.6581705723
 11
582.6831353228
 21
206.6581705723
  0
LINE
  5
37D
100
AcDbEntity
  8
KONSTRUKTIONSELEMENTE
100
AcDbLine
 62
7
  6
CONTINUOUS
 10
571.1623056872
 20
206.8615255236
 11
570.8553270949
 21
206.8615255236
  0
LINE
  5
37E
100
AcDbEntity
  8
KONSTRUKTIONSELEMENTE
100
AcDbLine
 62
7
  6
CONTINUOUS
 10
582.3465992001
 20
206.9769633715
 11
582.537163457
 21
206.9769633715
  0
LINE
  5
37F
100
AcDbEntity
  8
KONSTRUKTIONSELEMENTE
100
AcDbLine
 62
7
  6
CONTINUOUS
 10
571.2570677198
 20
207.1480593036
 11
570.8388727575
 21
207.1480593036
  0
LINE
  5
380
100
AcDbEntity
  8
KONSTRUKTIONSELEMENTE
100
AcDbLine
 62
7
  6
CONTINUOUS
 10
582.6831353261
 20
207.1480593036
 11
582.7737168991
 21
207.1480593036
  0
LINE
  5
381
100
AcDbEntity
  8
KONSTRUKTIONSELEMENTE
100
AcDbLine
 62
7
  6
CONTINUOUS
 10
582.5050331963
 20
207.2600164756
 11
582.5837447243
 21
207.2600164756
  0
LINE
  5
382
100
AcDbEntity
  8
KONSTRUKTIONSELEMENTE
100
AcDbLine
 62
7
  6
CONTINUOUS
 10
582.1921551976
 20
207.341100013
 11
582.393413454
 21
207.341100013
  0
LINE
  5
383
100
AcDbEntity
  8
KONSTRUKTIONSELEMENTE
100
AcDbLine
 62
7
  6
CONTINUOUS
 10
571.3212859917
 20
207.3422373273
 11
570.818395034
 21
207.3422373273
  0
LINE
  5
384
100
AcDbEntity
  8
KONSTRUKTIONSELEMENTE
100
AcDbLine
 62
7
  6
CONTINUOUS
 10
582.4187231416
 20
207.4530744746
 11
582.5469112052
 21
207.4530744746
  0
LINE
  5
385
100
AcDbEntity
  8
KONSTRUKTIONSELEMENTE
100
AcDbLine
 62
7
  6
CONTINUOUS
 10
571.3696814165
 20
207.4885715037
 11
570.857027005
 21
207.4885715037
  0
LINE
  5
386
100
AcDbEntity
  8
KONSTRUKTIONSELEMENTE
100
AcDbLine
 62
7
  6
CONTINUOUS
 10
582.3131377442
 20
207.7258306712
 11
582.4742630605
 21
207.7258306712
  0
LINE
  5
387
100
AcDbEntity
  8
KONSTRUKTIONSELEMENTE
100
AcDbLine
 62
7
  6
CONTINUOUS
 10
571.4586121782
 20
207.7326952671
 11
570.9319778765
 21
207.7326952671
  0
LINE
  5
388
100
AcDbEntity
  8
KONSTRUKTIONSELEMENTE
100
AcDbLine
 62
7
  6
CONTINUOUS
 10
581.9810503301
 20
207.8302786451
 11
582.2161051805
 21
207.8302786451
  0
LINE
  5
389
100
AcDbEntity
  8
KONSTRUKTIONSELEMENTE
100
AcDbLine
 62
7
  6
CONTINUOUS
 10
582.5254644834
 20
207.977519689
 11
582.5831223195
 21
207.977519689
  0
LINE
  5
38A
100
AcDbEntity
  8
KONSTRUKTIONSELEMENTE
100
AcDbLine
 62
7
  6
CONTINUOUS
 10
581.5844790136
 20
208.0753857803
 11
581.8434169347
 21
208.0753857803
  0
LINE
  5
38B
100
AcDbEntity
  8
KONSTRUKTIONSELEMENTE
100
AcDbLine
 62
7
  6
CONTINUOUS
 10
582.1865511391
 20
208.078284922
 11
582.3667572743
 21
208.078284922
  0
LINE
  5
38C
100
AcDbEntity
  8
KONSTRUKTIONSELEMENTE
100
AcDbLine
 62
7
  6
CONTINUOUS
 10
582.4795887692
 20
208.1157630433
 11
582.5454662817
 21
208.1157630433
  0
LINE
  5
38D
100
AcDbEntity
  8
KONSTRUKTIONSELEMENTE
100
AcDbLine
 62
7
  6
CONTINUOUS
 10
571.6053584046
 20
208.1885798022
 11
571.078724103
 21
208.1885798022
  0
LINE
  5
38E
100
AcDbEntity
  8
KONSTRUKTIONSELEMENTE
100
AcDbLine
 62
7
  6
CONTINUOUS
 10
581.5094306701
 20
208.2799114143
 11
581.806131193
 21
208.2799114143
  0
LINE
  5
38F
100
AcDbEntity
  8
KONSTRUKTIONSELEMENTE
100
AcDbLine
 62
7
  6
CONTINUOUS
 10
582.4012617739
 20
208.3517961329
 11
582.472219144
 21
208.3517961329
  0
LINE
  5
390
100
AcDbEntity
  8
KONSTRUKTIONSELEMENTE
100
AcDbLine
 62
7
  6
CONTINUOUS
 10
582.0381606748
 20
208.5104374286
 11
582.225000394
 21
208.5104374286
  0
LINE
  5
391
100
AcDbEntity
  8
KONSTRUKTIONSELEMENTE
100
AcDbLine
 62
7
  6
CONTINUOUS
 10
581.4125296845
 20
208.5439876034
 11
581.7339390617
 21
208.5439876034
  0
LINE
  5
392
100
AcDbEntity
  8
KONSTRUKTIONSELEMENTE
100
AcDbLine
 62
7
  6
CONTINUOUS
 10
571.7494495876
 20
208.6282829342
 11
571.2228152859
 21
208.6282829342
  0
LINE
  5
393
100
AcDbEntity
  8
KONSTRUKTIONSELEMENTE
100
AcDbLine
 62
7
  6
CONTINUOUS
 10
582.2904835468
 20
208.6856188095
 11
582.3643395992
 21
208.6856188095
  0
LINE
  5
394
100
AcDbEntity
  8
KONSTRUKTIONSELEMENTE
100
AcDbLine
 62
7
  6
CONTINUOUS
 10
581.3099004921
 20
208.8676142439
 11
581.6274071041
 21
208.8676142439
  0
LINE
  5
395
100
AcDbEntity
  8
KONSTRUKTIONSELEMENTE
100
AcDbLine
 62
7
  6
CONTINUOUS
 10
580.5991928261
 20
209.0851776024
 11
581.1258271277
 21
209.0851776024
  0
LINE
  5
396
100
AcDbEntity
  8
KONSTRUKTIONSELEMENTE
100
AcDbLine
 62
7
  6
CONTINUOUS
 10
582.1472424277
 20
209.1172310547
 11
582.2224296124
 21
209.1172310547
  0
LINE
  5
397
100
AcDbEntity
  8
KONSTRUKTIONSELEMENTE
100
AcDbLine
 62
7
  6
CONTINUOUS
 10
581.3166428798
 20
209.154997409
 11
581.5219417543
 21
209.154997409
  0
LINE
  5
398
100
AcDbEntity
  8
BEZUGSACHSEN
100
AcDbLine
 62
7
  6
CONTINUOUS
 10
574.5789332151
 20
209.1577608625
 11
579.0336564415
 21
209.1577608625
  0
LINE
  5
399
100
AcDbEntity
  8
KONSTRUKTIONSELEMENTE
100
AcDbLine
 62
7
  6
CONTINUOUS
 10
571.9268714399
 20
209.1657755606
 11
571.4002371382
 21
209.1657755606
  0
LINE
  5
39A
100
AcDbEntity
  8
KONSTRUKTIONSELEMENTE
100
AcDbLine
 62
7
  6
CONTINUOUS
 10
581.3167173846
 20
209.4061365619
 11
581.4175034471
 21
209.4061365619
  0
LINE
  5
39B
100
AcDbEntity
  8
KONSTRUKTIONSELEMENTE
100
AcDbLine
 62
7
  6
CONTINUOUS
 10
580.6137388934
 20
209.955028283
 11
581.140373195
 21
209.955028283
  0
LINE
  5
39C
100
AcDbEntity
  8
KONSTRUKTIONSELEMENTE
100
AcDbLine
 62
7
  6
CONTINUOUS
 10
580.6456552768
 20
210.0404529105
 11
581.1722895785
 21
210.0404529105
  0
LINE
  5
39D
100
AcDbEntity
  8
KONSTRUKTIONSELEMENTE
100
AcDbLine
 62
7
  6
CONTINUOUS
 10
581.6201156248
 20
210.7054369217
 11
581.6953104005
 21
210.7054369217
  0
LINE
  5
39E
100
AcDbEntity
  8
KONSTRUKTIONSELEMENTE
100
AcDbLine
 62
7
  6
CONTINUOUS
 10
572.4533444391
 20
210.7539814276
 11
571.9267101375
 21
210.7539814276
  0
LINE
  5
39F
100
AcDbEntity
  8
KONSTRUKTIONSELEMENTE
100
AcDbLine
 62
7
  6
CONTINUOUS
 10
580.6007934426
 20
211.0037529971
 11
581.1274277443
 21
211.0037529971
  0
LINE
  5
3A0
100
AcDbEntity
  8
KONSTRUKTIONSELEMENTE
100
AcDbLine
 62
7
  6
CONTINUOUS
 10
581.4822178567
 20
211.1208677266
 11
581.5559599798
 21
211.1208677266
  0
LINE
  5
3A1
100
AcDbEntity
  8
KONSTRUKTIONSELEMENTE
100
AcDbLine
 62
7
  6
CONTINUOUS
 10
580.6085844037
 20
211.1397848057
 11
581.1352187053
 21
211.1397848057
  0
LINE
  5
3A2
100
AcDbEntity
  8
KONSTRUKTIONSELEMENTE
100
AcDbLine
 62
7
  6
CONTINUOUS
 10
572.6271065099
 20
211.2752929104
 11
572.1004722083
 21
211.2752929104
  0
LINE
  5
3A3
100
AcDbEntity
  8
KONSTRUKTIONSELEMENTE
100
AcDbLine
 62
7
  6
CONTINUOUS
 10
581.3821514968
 20
211.4223276341
 11
581.4526637265
 21
211.4223276341
  0
LINE
  5
3A4
100
AcDbEntity
  8
KONSTRUKTIONSELEMENTE
100
AcDbLine
 62
7
  6
CONTINUOUS
 10
581.343854875
 20
211.6098161436
 11
581.3848831599
 21
211.6098161436
  0
LINE
  5
3A5
100
AcDbEntity
  8
KONSTRUKTIONSELEMENTE
100
AcDbLine
 62
7
  6
CONTINUOUS
 10
572.764363407
 20
211.6826329025
 11
572.2377291053
 21
211.6826329025
  0
LINE
  5
3A6
100
AcDbEntity
  8
KONSTRUKTIONSELEMENTE
100
AcDbLine
 62
7
  6
CONTINUOUS
 10
580.6085844007
 20
211.6839117807
 11
581.1352187024
 21
211.6839117807
  0
LINE
  5
3A7
100
AcDbEntity
  8
KONSTRUKTIONSELEMENTE
100
AcDbLine
 62
7
  6
CONTINUOUS
 10
580.6007934426
 20
211.8199435244
 11
581.1274277443
 21
211.8199435244
  0
LINE
  5
3A8
100
AcDbEntity
  8
KONSTRUKTIONSELEMENTE
100
AcDbLine
 62
7
  6
CONTINUOUS
 10
572.8860986509
 20
212.0737914544
 11
572.3729941486
 21
212.0737914544
  0
LINE
  5
3A9
100
AcDbEntity
  8
KONSTRUKTIONSELEMENTE
100
AcDbLine
 62
7
  6
CONTINUOUS
 10
580.5975060082
 20
212.1244378155
 11
581.1241403098
 21
212.1244378155
  0
LINE
  5
3AA
100
AcDbEntity
  8
KONSTRUKTIONSELEMENTE
100
AcDbLine
 62
7
  6
CONTINUOUS
 10
572.9454288254
 20
212.2531892439
 11
572.4394738066
 21
212.2531892439
  0
LINE
  5
3AB
100
AcDbEntity
  8
KONSTRUKTIONSELEMENTE
100
AcDbLine
 62
7
  6
CONTINUOUS
 10
572.9670666133
 20
212.3186158393
 11
572.4718265037
 21
212.3186158393
  0
LINE
  5
3AC
100
AcDbEntity
  8
KONSTRUKTIONSELEMENTE
100
AcDbLine
 62
7
  6
CONTINUOUS
 10
580.6141288512
 20
212.3186158393
 11
581.1407631529
 21
212.3186158393
  0
LINE
  5
3AD
100
AcDbEntity
  8
BEZUGSACHSEN
100
AcDbLine
 62
7
  6
CONTINUOUS
 10
574.5789332151
 20
217.0210872802
 11
579.0336564415
 21
217.0210872802
  0
LINE
  5
3AE
100
AcDbEntity
  8
KONSTRUKTIONSELEMENTE
100
AcDbLine
 62
7
  6
CONTINUOUS
 10
456.7665213454
 20
132.0273668025
 11
456.7333961458
 21
132.7167065393
  0
LWPOLYLINE
  5
3AF
100
AcDbEntity
  8
RUNDUNGEN
100
AcDbPolyline
 62
7
  6
CONTINUOUS
 90
7
 70
0
 10
563.8616666035
 20
135.3453787505
 10
563.9291851724
 20
135.2544747031
 10
564.0913765999
 20
135.0581528912
 10
564.2623066507
 20
134.8785103911
 10
564.4401742941
 20
134.715945438
 10
564.6230150582
 20
134.5707341008
 10
564.6607937163
 20
134.5432579275
  0
LWPOLYLINE
  5
3B0
100
AcDbEntity
  8
BEZUGSACHSEN
100
AcDbPolyline
 62
7
  6
CONTINUOUS
 90
7
 70
0
 10
563.8616666035
 20
135.3453787505
 10
563.9291851724
 20
135.2544747031
 10
564.0913765999
 20
135.0581528912
 10
564.2623066507
 20
134.8785103911
 10
564.4401742941
 20
134.715945438
 10
564.6230150582
 20
134.5707341008
 10
564.6607937163
 20
134.5432579275
  0
LINE
  5
3B1
100
AcDbEntity
  8
BEZUGSACHSEN
100
AcDbLine
 62
7
  6
CONTINUOUS
 10
563.8617537821
 20
135.345286659
 11
563.5979492659
 21
135.7124567866
  0
LINE
  5
3B2
100
AcDbEntity
  8
RUNDUNGEN
100
AcDbLine
 62
7
  6
CONTINUOUS
 10
581.17007212
 20
185.7402625301
 11
581.1701691233
 21
185.7401671644
  0
LINE
  5
3B3
100
AcDbEntity
  8
KONSTRUKTIONSELEMENTE
100
AcDbLine
 62
7
  6
CONTINUOUS
 10
584.3630492941
 20
181.0167586716
 11
586.0887844133
 21
179.2855178488
  0
LINE
  5
3B4
100
AcDbEntity
  8
RUNDUNGEN
100
AcDbLine
 62
7
  6
CONTINUOUS
 10
581.2389817318
 20
185.6688943533
 11
581.17015599
 21
185.7401800789
  0
LWPOLYLINE
  5
3B5
100
AcDbEntity
  8
RUNDUNGEN
100
AcDbPolyline
 62
7
  6
CONTINUOUS
 90
5
 70
0
 10
581.1700400117
 20
185.7402938373
 10
581.1117528624
 20
185.8012315281
 10
581.0593561278
 20
185.8636202445
 10
581.0227901139
 20
185.9133930581
 10
581.000948823
 20
185.9471295679
  0
LINE
  5
3B6
100
AcDbEntity
  8
RUNDUNGEN
100
AcDbLine
 62
7
  6
CONTINUOUS
 10
581.3213474055
 20
185.5727148379
 11
581.2389817318
 21
185.6688943533
  0
LWPOLYLINE
  5
3B7
100
AcDbEntity
  8
RUNDUNGEN
100
AcDbPolyline
 62
7
  6
CONTINUOUS
 90
5
 70
0
 10
590.1024467378
 20
172.4076625061
 10
581.55810489
 20
185.2242638903
 10
581.5104964814
 20
185.2967747801
 10
581.4635410595
 20
185.3695591429
 10
581.4398890199
 20
185.4067151228
  0
LWPOLYLINE
  5
3B8
100
AcDbEntity
  8
RUNDUNGEN
100
AcDbPolyline
 62
7
  6
CONTINUOUS
 90
3
 70
0
 10
581.4398210427
 20
185.4067130065
 10
581.3964697218
 20
185.4720065809
 10
581.3213474055
 20
185.5727148379
  0
LINE
  5
3B9
100
AcDbEntity
  8
KONSTRUKTIONSELEMENTE
100
AcDbLine
 62
7
  6
CONTINUOUS
 10
424.1486378215
 20
65.8975774284
 11
426.0910733733
 21
70.5252762693
  0
LINE
  5
3BA
100
AcDbEntity
  8
0
100
AcDbLine
 62
7
  6
CONTINUOUS
 10
538.8062948283
 20
214.6201888419
 11
538.8062948283
 21
253.5913320122
  0
LINE
  5
3BB
100
AcDbEntity
  8
KONSTRUKTIONSELEMENTE
100
AcDbLine
 62
7
  6
CONTINUOUS
 10
454.3682228548
 20
88.4486459562
 11
453.6172075915
 21
86.6594115795
  0
LINE
  5
3BC
100
AcDbEntity
  8
KONSTRUKTIONSELEMENTE
100
AcDbLine
 62
7
  6
CONTINUOUS
 10
459.0951770492
 20
88.2252482419
 11
457.1527414974
 21
83.597549401
  0
LINE
  5
3BD
100
AcDbEntity
  8
0
100
AcDbLine
 62
7
  6
CONTINUOUS
 10
556.8062948283
 20
214.6201888419
 11
556.8062948283
 21
253.5913320122
  0
LINE
  5
3BE
100
AcDbEntity
  8
BEZUGSACHSEN
100
AcDbLine
 62
7
  6
CONTINUOUS
 10
562.8062948283
 20
150.9941588575
 11
562.8062948283
 21
138.126039843
  0
LINE
  5
3BF
100
AcDbEntity
  8
BEZUGSACHSEN
100
AcDbLine
 62
7
  6
CONTINUOUS
 10
562.8062948283
 20
157.5184599906
 11
562.8062948283
 21
170.1209115023
  0
LINE
  5
3C0
100
AcDbEntity
  8
0
100
AcDbLine
 62
7
  6
CONTINUOUS
 10
563.8062948283
 20
534.4727113801
 11
563.8062948283
 21
248.5945253256
  0
LINE
  5
3C1
100
AcDbEntity
  8
KONSTRUKTIONSELEMENTE
100
AcDbLine
 62
7
  6
CONTINUOUS
 10
474.4644692808
 20
117.1512144304
 11
462.6630710551
 21
89.0353179513
  0
LINE
  5
3C2
100
AcDbEntity
  8
KONSTRUKTIONSELEMENTE
100
AcDbLine
 62
7
  6
CONTINUOUS
 10
579.3180199841
 20
216.3326123659
 11
580.6424278477
 21
212.327974842
  0
LINE
  5
3C3
100
AcDbEntity
  8
KONSTRUKTIONSELEMENTE
100
AcDbLine
 62
7
  6
CONTINUOUS
 10
582.5552564668
 20
206.5441181647
 11
582.6481318588
 21
206.263289056
  0
LINE
  5
3C4
100
AcDbEntity
  8
KONSTRUKTIONSELEMENTE
100
AcDbLine
 62
7
  6
CONTINUOUS
 10
582.7808442569
 20
205.8620040259
 11
582.8034219943
 21
205.7937352872
  0
LINE
  5
3C5
100
AcDbEntity
  8
BEZUGSACHSEN
100
AcDbLine
 62
7
  6
CONTINUOUS
 10
574.2243832763
 20
196.2435132777
 11
574.4782543722
 21
192.4151325504
  0
LWPOLYLINE
  5
3C6
100
AcDbEntity
  8
KONSTRUKTIONSELEMENTE
100
AcDbPolyline
 62
7
  6
CONTINUOUS
 90
9
 70
0
 10
586.8062830814
 20
177.604698287
 10
586.7962055349
 20
177.8181047529
 10
586.7588755746
 20
178.065645942
 10
586.6945754375
 20
178.3079836287
 10
586.6032003533
 20
178.5448823097
 10
586.4842515821
 20
178.7752975028
 10
586.3373869977
 20
178.997289029
 10
586.1611558386
 20
179.2100249371
 10
586.0903459414
 20
179.2839410667
  0
LWPOLYLINE
  5
3C7
100
AcDbEntity
  8
BEZUGSACHSEN
100
AcDbPolyline
 62
7
  6
CONTINUOUS
 90
9
 70
0
 10
586.8062830804
 20
177.604696468
 10
586.7962101838
 20
177.8180556259
 10
586.7588716049
 20
178.0656650616
 10
586.6945142164
 20
178.3081723019
 10
586.6029925991
 20
178.5453446755
 10
586.4836601532
 20
178.7763054521
 10
586.336453667
 20
178.9985472867
 10
586.1604089276
 20
179.2108349265
 10
586.0902935961
 20
179.2839938085
  0
LINE
  5
3C8
100
AcDbEntity
  8
RUNDUNGEN
100
AcDbLine
 62
7
  6
CONTINUOUS
 10
579.1343352844
 20
192.4151325504
 11
579.4555513797
 21
179.0308258812
  0
LINE
  5
3C9
100
AcDbEntity
  8
BEZUGSACHSEN
100
AcDbLine
 62
7
  6
CONTINUOUS
 10
565.3099779401
 20
152.5788915086
 11
565.3099779401
 21
149.5529623098
  0
LINE
  5
3CA
100
AcDbEntity
  8
BEZUGSACHSEN
100
AcDbLine
 62
7
  6
CONTINUOUS
 10
566.8062948283
 20
177.3518903703
 11
566.8062948283
 21
177.605181874
  0
LINE
  5
3CB
100
AcDbEntity
  8
BEZUGSACHSEN
100
AcDbLine
 62
7
  6
CONTINUOUS
 10
570.5562948283
 20
204.139959384
 11
570.5562948283
 21
182.9768903703
  0
LINE
  5
3CC
100
AcDbEntity
  8
BEZUGSACHSEN
100
AcDbLine
 62
7
  6
CONTINUOUS
 10
574.4782543722
 20
192.4151325504
 11
574.1570382769
 21
179.0308258812
  0
LINE
  5
3CD
100
AcDbEntity
  8
KONSTRUKTIONSELEMENTE
100
AcDbLine
 62
7
  6
CONTINUOUS
 10
458.01510891
 20
134.2493206151
 11
456.7333961458
 21
132.7167065393
  0
LINE
  5
3CE
100
AcDbEntity
  8
KONSTRUKTIONSELEMENTE
100
AcDbLine
 62
7
  6
CONTINUOUS
 10
448.1138778072
 20
122.4098768794
 11
419.7486217736
 21
88.491988349
  0
LINE
  5
3CF
100
AcDbEntity
  8
KONSTRUKTIONSELEMENTE
100
AcDbLine
 62
7
  6
CONTINUOUS
 10
448.4674311978
 20
122.1036906616
 11
448.7878593888
 21
122.4868441805
  0
LINE
  5
3D0
100
AcDbEntity
  8
BEZUGSACHSEN
100
AcDbLine
 62
7
  6
CONTINUOUS
 10
583.0562948283
 20
204.139959384
 11
583.0562948283
 21
192.1746309427
  0
LINE
  5
3D1
100
AcDbEntity
  8
KONSTRUKTIONSELEMENTE
100
AcDbLine
 62
7
  6
CONTINUOUS
 10
583.0562948283
 20
192.1746309427
 11
583.0562948283
 21
182.9768903703
  0
LINE
  5
3D2
100
AcDbEntity
  8
RUNDUNGEN
100
AcDbLine
 62
7
  6
CONTINUOUS
 10
583.0562948283
 20
192.1746309286
 11
583.0562948283
 21
182.9768903703
  0
LINE
  5
3D3
100
AcDbEntity
  8
KONSTRUKTIONSELEMENTE
100
AcDbLine
 62
7
  6
CONTINUOUS
 10
586.8062948283
 20
177.3518903703
 11
586.8062948283
 21
177.605181874
  0
LINE
  5
3D4
100
AcDbEntity
  8
KONSTRUKTIONSELEMENTE
100
AcDbLine
 62
7
  6
CONTINUOUS
 10
588.3026117166
 20
152.5788915086
 11
588.3026117166
 21
149.5529623098
  0
LINE
  5
3D5
100
AcDbEntity
  8
0
100
AcDbLine
 62
7
  6
CONTINUOUS
 10
589.8062948283
 20
534.4727113801
 11
589.8062948283
 21
248.5945253256
  0
LINE
  5
3D6
100
AcDbEntity
  8
KONSTRUKTIONSELEMENTE
100
AcDbLine
 62
7
  6
CONTINUOUS
 10
590.8062948283
 20
150.9941588575
 11
590.8062948283
 21
142.7336196954
  0
LINE
  5
3D7
100
AcDbEntity
  8
RUNDUNGEN
100
AcDbLine
 62
7
  6
CONTINUOUS
 10
590.8062948283
 20
142.7336196954
 11
590.8062948283
 21
138.126039843
  0
LINE
  5
3D8
100
AcDbEntity
  8
RUNDUNGEN
100
AcDbLine
 62
7
  6
CONTINUOUS
 10
590.8062948283
 20
157.5184599906
 11
590.8062948283
 21
170.1209115023
  0
LINE
  5
3D9
100
AcDbEntity
  8
0
100
AcDbLine
 62
7
  6
CONTINUOUS
 10
596.8062948283
 20
253.5913320122
 11
596.8062948283
 21
214.6201888419
  0
LINE
  5
3DA
100
AcDbEntity
  8
0
100
AcDbLine
 62
7
  6
CONTINUOUS
 10
579.3882063803
 20
196.2435132777
 11
579.1343352844
 21
192.4151325504
  0
LINE
  5
3DB
100
AcDbEntity
  8
BEZUGSACHSEN
100
AcDbLine
 62
7
  6
CONTINUOUS
 10
570.8091676623
 20
205.7937352872
 11
574.2945696725
 21
216.3326123659
  0
LINE
  5
3DC
100
AcDbEntity
  8
KONSTRUKTIONSELEMENTE
100
AcDbLine
 62
7
  6
CONTINUOUS
 10
451.7526446323
 20
122.3474377768
 11
457.6380581849
 21
129.3849487585
  0
LINE
  5
3DD
100
AcDbEntity
  8
KONSTRUKTIONSELEMENTE
100
AcDbLine
 62
7
  6
CONTINUOUS
 10
451.2958583225
 20
119.6542009188
 11
451.6162865136
 21
120.0373544377
  0
LINE
  5
3DE
100
AcDbEntity
  8
KONSTRUKTIONSELEMENTE
100
AcDbLine
 62
7
  6
CONTINUOUS
 10
461.5506428159
 20
131.1874584366
 11
460.2689300518
 21
129.6548443608
  0
LINE
  5
3DF
100
AcDbEntity
  8
KONSTRUKTIONSELEMENTE
100
AcDbLine
 62
7
  6
CONTINUOUS
 10
451.6494117131
 20
119.3480147009
 11
423.2841556796
 21
85.4301261705
  0
LINE
  5
3E0
100
AcDbEntity
  8
KONSTRUKTIONSELEMENTE
100
AcDbLine
 62
7
  6
CONTINUOUS
 10
454.6478328055
 20
119.248828522
 11
455.9295455696
 21
120.7814425978
  0
LINE
  5
3E1
100
AcDbEntity
  8
KONSTRUKTIONSELEMENTE
100
AcDbLine
 62
7
  6
CONTINUOUS
 10
461.3001582811
 20
126.4744286982
 11
455.001386196
 21
118.9426423041
  0
LINE
  5
3E2
100
AcDbEntity
  8
0
100
AcDbLine
 62
7
  6
CONTINUOUS
 10
614.8062948283
 20
253.5913320122
 11
614.8062948283
 21
214.6201888419
  0
LWPOLYLINE
  5
3E3
100
AcDbEntity
  8
BEZUGSACHSEN
100
AcDbPolyline
 62
7
  6
CONTINUOUS
 90
5
 70
0
 10
567.0095970576
 20
178.5453446755
 10
566.9180754403
 20
178.3081723019
 10
566.8537180518
 20
178.0656650616
 10
566.8163794728
 20
177.8180556259
 10
566.8063065762
 20
177.604696468
  0
LINE
  5
3E4
100
AcDbEntity
  8
KONSTRUKTIONSELEMENTE
100
AcDbLine
 62
7
  6
CONTINUOUS
 10
470.1643036453
 20
132.6149875167
 11
472.9927307701
 21
135.0644772594
  0
LINE
  5
3E5
100
AcDbEntity
  8
KONSTRUKTIONSELEMENTE
100
AcDbLine
 62
7
  6
CONTINUOUS
 10
524.2579724061
 20
179.4614788474
 11
527.0863995309
 21
181.9109685902
  0
LINE
  5
3E6
100
AcDbEntity
  8
KONSTRUKTIONSELEMENTE
100
AcDbLine
 62
7
  6
CONTINUOUS
 10
527.4399529215
 20
182.217154808
 11
530.2683800462
 21
184.6666445508
  0
LINE
  5
3E7
100
AcDbEntity
  8
KONSTRUKTIONSELEMENTE
100
AcDbLine
 62
7
  6
CONTINUOUS
 10
493.4857141469
 20
152.4812025492
 11
504.0923158647
 21
161.6667890846
  0
LINE
  5
3E8
100
AcDbEntity
  8
KONSTRUKTIONSELEMENTE
100
AcDbLine
 62
7
  6
CONTINUOUS
 10
523.7145290426
 20
174.4928411647
 11
513.1079273248
 21
165.3072546293
  0
LINE
  5
3E9
100
AcDbEntity
  8
KONSTRUKTIONSELEMENTE
100
AcDbLine
 62
7
  6
CONTINUOUS
 10
492.6018306704
 20
147.5484539941
 11
481.9952289526
 21
138.3628674586
  0
LINE
  5
3EA
100
AcDbEntity
  8
KONSTRUKTIONSELEMENTE
100
AcDbLine
 62
7
  6
CONTINUOUS
 10
415.3132167467
 20
80.4875704307
 11
404.979347
 21
71.5381767106
  0
LWPOLYLINE
  5
3EB
100
AcDbEntity
  8
BEZUGSACHSEN
100
AcDbPolyline
 62
7
  6
CONTINUOUS
 90
6
 70
0
 10
572.621510679
 20
185.9643340605
 10
572.6204705293
 20
185.9623944628
 10
572.6098281093
 20
185.9441543861
 10
572.5870457829
 20
185.9093997092
 10
572.5505088641
 20
185.8601506915
 10
572.4996376313
 20
185.7998977797
  0
LWPOLYLINE
  5
3EC
100
AcDbEntity
  8
BEZUGSACHSEN
100
AcDbPolyline
 62
7
  6
CONTINUOUS
 90
4
 70
0
 10
572.1727006367
 20
185.4067151228
 10
572.1490485971
 20
185.3695591429
 10
572.1020931752
 20
185.2967747801
 10
572.0544847666
 20
185.2242638903
  0
LINE
  5
3ED
100
AcDbEntity
  8
BEZUGSACHSEN
100
AcDbLine
 62
7
  6
CONTINUOUS
 10
572.0544847666
 20
185.2242638903
 11
563.5101429188
 21
172.4076625061
  0
LWPOLYLINE
  5
3EE
100
AcDbEntity
  8
BEZUGSACHSEN
100
AcDbPolyline
 62
7
  6
CONTINUOUS
 90
4
 70
0
 10
572.3736079248
 20
185.6688943533
 10
572.2912422511
 20
185.5727148379
 10
572.2161199349
 20
185.4720065809
 10
572.1727686139
 20
185.4067130065
  0
LINE
  5
3EF
100
AcDbEntity
  8
KONSTRUKTIONSELEMENTE
100
AcDbLine
 62
7
  6
CONTINUOUS
 10
403.5651334376
 20
69.925804275
 11
404.0520002533
 21
70.3474433056
  0
LINE
  5
3F0
100
AcDbEntity
  8
KONSTRUKTIONSELEMENTE
100
AcDbLine
 62
7
  6
CONTINUOUS
 10
497.2198646986
 20
149.7621313387
 11
507.0382573829
 21
158.2651088276
  0
LINE
  5
3F1
100
AcDbEntity
  8
KONSTRUKTIONSELEMENTE
100
AcDbLine
 62
7
  6
CONTINUOUS
 10
474.08650763
 20
129.3973375286
 11
476.2659991236
 21
131.2848325294
  0
LINE
  5
3F2
100
AcDbEntity
  8
KONSTRUKTIONSELEMENTE
100
AcDbLine
 62
7
  6
CONTINUOUS
 10
528.6877690312
 20
176.6834169806
 11
530.3596678844
 21
178.1313238601
  0
LINE
  5
3F3
100
AcDbEntity
  8
KONSTRUKTIONSELEMENTE
100
AcDbLine
 62
7
  6
CONTINUOUS
 10
530.713221275
 20
178.4375100779
 11
532.8714501704
 21
180.3065911285
  0
LINE
  5
3F4
100
AcDbEntity
  8
KONSTRUKTIONSELEMENTE
100
AcDbLine
 62
7
  6
CONTINUOUS
 10
418.1416438714
 20
78.0380806879
 11
407.8077741247
 21
69.0886869679
  0
LINE
  5
3F5
100
AcDbEntity
  8
KONSTRUKTIONSELEMENTE
100
AcDbLine
 62
7
  6
CONTINUOUS
 10
526.6604705608
 20
171.0911609076
 11
516.053868843
 21
161.9055743722
  0
LINE
  5
3F6
100
AcDbEntity
  8
KONSTRUKTIONSELEMENTE
100
AcDbLine
 62
7
  6
CONTINUOUS
 10
495.5477721886
 20
144.146773737
 11
484.9411704708
 21
134.9611872016
  0
LINE
  5
3F7
100
AcDbEntity
  8
KONSTRUKTIONSELEMENTE
100
AcDbLine
 62
7
  6
CONTINUOUS
 10
406.747113953
 20
67.1701283143
 11
418.0608224519
 21
76.9680872855
  0
LINE
  5
3F8
100
AcDbEntity
  8
KONSTRUKTIONSELEMENTE
100
AcDbLine
 62
7
  6
CONTINUOUS
 10
407.1006673435
 20
66.8639420965
 11
418.4143758425
 21
76.6619010676
  0
LINE
  5
3F9
100
AcDbEntity
  8
KONSTRUKTIONSELEMENTE
100
AcDbLine
 62
7
  6
CONTINUOUS
 10
538.4001080298
 20
177.6243615403
 11
532.3897003898
 21
172.4191958369
  0
LINE
  5
3FA
100
AcDbEntity
  8
KONSTRUKTIONSELEMENTE
100
AcDbLine
 62
7
  6
CONTINUOUS
 10
481.1244587537
 20
128.0221942489
 11
475.1140511137
 21
122.8170285455
  0
LINE
  5
3FB
100
AcDbEntity
  8
KONSTRUKTIONSELEMENTE
100
AcDbLine
 62
7
  6
CONTINUOUS
 10
512.2240438483
 20
154.6245060741
 11
501.6174421305
 21
145.4389195387
  0
LINE
  5
3FC
100
AcDbEntity
  8
KONSTRUKTIONSELEMENTE
100
AcDbLine
 62
7
  6
CONTINUOUS
 10
407.1006673435
 20
62.3139420965
 11
418.4143758425
 21
72.1119010676
  0
LINE
  5
3FD
100
AcDbEntity
  8
KONSTRUKTIONSELEMENTE
100
AcDbLine
 62
7
  6
CONTINUOUS
 10
407.8077741247
 20
62.5386869679
 11
418.0608224519
 21
71.4180872855
  0
LINE
  5
3FE
100
AcDbEntity
  8
KONSTRUKTIONSELEMENTE
100
AcDbLine
 62
7
  6
CONTINUOUS
 10
486.8240412774
 20
130.8418011521
 11
495.5477721886
 21
138.396773737
  0
LINE
  5
3FF
100
AcDbEntity
  8
KONSTRUKTIONSELEMENTE
100
AcDbLine
 62
7
  6
CONTINUOUS
 10
517.5470675254
 20
157.448722364
 11
526.6604705608
 21
165.3411609076
  0
LINE
  5
400
100
AcDbEntity
  8
KONSTRUKTIONSELEMENTE
100
AcDbLine
 62
7
  6
CONTINUOUS
 10
515.1699853665
 20
151.222825817
 11
504.5633836487
 21
142.0372392816
  0
LINE
  5
401
100
AcDbEntity
  8
KONSTRUKTIONSELEMENTE
100
AcDbLine
 62
7
  6
CONTINUOUS
 10
541.6733763834
 20
173.8447168102
 11
535.6629687433
 21
168.6395511068
  0
LINE
  5
402
100
AcDbEntity
  8
KONSTRUKTIONSELEMENTE
100
AcDbLine
 62
7
  6
CONTINUOUS
 10
484.3977271073
 20
124.2425495189
 11
478.3873194672
 21
119.0373838154
  0
LWPOLYLINE
  5
403
100
AcDbEntity
  8
KONSTRUKTIONSELEMENTE
100
AcDbPolyline
 62
7
  6
CONTINUOUS
 90
9
 70
0
 10
567.5222437152
 20
179.2839410667
 10
567.451433818
 20
179.2100249371
 10
567.2752026589
 20
178.997289029
 10
567.1283380745
 20
178.7752975028
 10
567.0093893033
 20
178.5448823097
 10
566.9180142191
 20
178.3079836287
 10
566.8537140821
 20
178.065645942
 10
566.8163841217
 20
177.8181047529
 10
566.8063065752
 20
177.604698287
  0
LWPOLYLINE
  5
404
100
AcDbEntity
  8
BEZUGSACHSEN
100
AcDbPolyline
 62
7
  6
CONTINUOUS
 90
5
 70
0
 10
567.5222960605
 20
179.2839938085
 10
567.4521807291
 20
179.2108349265
 10
567.2761359897
 20
178.9985472867
 10
567.1289295034
 20
178.7763054521
 10
567.0095970576
 20
178.5453446755
  0
LINE
  5
405
100
AcDbEntity
  8
BEZUGSACHSEN
100
AcDbLine
 62
7
  6
CONTINUOUS
 10
572.4996376313
 20
185.7998977797
 11
572.3736079248
 21
185.6688943533
  0
LINE
  5
406
100
AcDbEntity
  8
BEZUGSACHSEN
100
AcDbLine
 62
7
  6
CONTINUOUS
 10
567.5222926572
 20
179.2839971887
 11
569.2495403625
 21
181.0167586716
  0
LINE
  5
407
100
AcDbEntity
  8
BEZUGSACHSEN
100
AcDbLine
 62
7
  6
CONTINUOUS
 10
572.4425356143
 20
185.7402802897
 11
572.4424205334
 21
185.7401671644
  0
LINE
  5
408
100
AcDbEntity
  8
RUNDUNGEN
100
AcDbLine
 62
7
  6
CONTINUOUS
 10
590.0146403908
 20
135.7124567866
 11
589.7508358745
 21
135.345286659
  0
LINE
  5
409
100
AcDbEntity
  8
KONSTRUKTIONSELEMENTE
100
AcDbLine
 62
7
  6
CONTINUOUS
 10
430.7895364772
 20
75.8034884893
 11
457.3850763325
 21
90.0665727002
  0
LINE
  5
40A
100
AcDbEntity
  8
KONSTRUKTIONSELEMENTE
100
AcDbLine
 62
7
  6
CONTINUOUS
 10
423.2841556796
 20
65.1581145503
 11
423.6787915111
 21
65.3697562064
  0
LINE
  5
40B
100
AcDbEntity
  8
KONSTRUKTIONSELEMENTE
100
AcDbLine
 62
7
  6
CONTINUOUS
 10
457.3237515691
 20
83.4134169552
 11
457.9646079511
 21
83.7571057313
  0
LWPOLYLINE
  5
40C
100
AcDbEntity
  8
BEZUGSACHSEN
100
AcDbPolyline
 62
7
  6
CONTINUOUS
 90
7
 70
0
 10
588.9517959403
 20
134.5432579275
 10
588.9895745985
 20
134.5707341008
 10
589.1724153625
 20
134.715945438
 10
589.3502830059
 20
134.8785103911
 10
589.5212130567
 20
135.0581528912
 10
589.6834044842
 20
135.2544747031
 10
589.7509230531
 20
135.3453787505
  0
LWPOLYLINE
  5
40D
100
AcDbEntity
  8
RUNDUNGEN
100
AcDbPolyline
 62
7
  6
CONTINUOUS
 90
7
 70
0
 10
588.9517959403
 20
134.5432579275
 10
588.9895745985
 20
134.5707341008
 10
589.1724153625
 20
134.715945438
 10
589.3502830059
 20
134.8785103911
 10
589.5212130567
 20
135.0581528912
 10
589.6834044842
 20
135.2544747031
 10
589.7509230531
 20
135.3453787505
  0
LINE
  5
40E
100
AcDbEntity
  8
RUNDUNGEN
100
AcDbLine
 62
7
  6
CONTINUOUS
 10
588.9544960971
 20
134.5452565128
 11
588.1609601251
 21
133.9758547345
  0
ARC
  5
40F
100
AcDbEntity
  8
KONSTRUKTIONSELEMENTE
100
AcDbCircle
 62
7
  6
CONTINUOUS
 10
88.1941235946
 20
111.5994573468
 40
36.0
100
AcDbArc
 50
68.9490180653
 51
83.3240322405
  0
ARC
  5
410
100
AcDbEntity
  8
KONSTRUKTIONSELEMENTE
100
AcDbCircle
 62
7
  6
CONTINUOUS
 10
88.1941235946
 20
111.5994573468
 40
36.0
100
AcDbArc
 50
36.6759677595
 51
51.0509819347
  0
ARC
  5
411
100
AcDbEntity
  8
BEZUGSACHSEN
100
AcDbCircle
 62
7
  6
CONTINUOUS
 10
131.0981706554
 20
185.9114467065
 40
13.25
100
AcDbArc
 50
102.844678999
 51
17.1553210011
  0
ARC
  5
412
100
AcDbEntity
  8
KONSTRUKTIONSELEMENTE
100
AcDbCircle
 62
7
  6
CONTINUOUS
 10
120.1376961139
 20
167.2793735053
 40
9.4443260734
100
AcDbArc
 50
74.2723032266
 51
80.4100277385
  0
ARC
  5
413
100
AcDbEntity
  8
KONSTRUKTIONSELEMENTE
100
AcDbCircle
 62
7
  6
CONTINUOUS
 10
120.5156193881
 20
167.1710544416
 40
9.3448730039
100
AcDbArc
 50
39.5234235979
 51
45.7644531001
  0
ARC
  5
414
100
AcDbEntity
  8
0
100
AcDbCircle
 62
7
  6
CONTINUOUS
 10
133.1731706554
 20
189.5054521322
 40
9.0
100
AcDbArc
 50
150.0
 51
330.0
  0
ARC
  5
415
100
AcDbEntity
  8
KONSTRUKTIONSELEMENTE
100
AcDbCircle
 62
7
  6
CONTINUOUS
 10
106.4699860352
 20
141.2201862404
 40
7.5304602268
100
AcDbArc
 50
23.6440041601
 51
25.6848988335
  0
ARC
  5
416
100
AcDbEntity
  8
KONSTRUKTIONSELEMENTE
100
AcDbCircle
 62
7
  6
CONTINUOUS
 10
104.7037364162
 20
142.2917075395
 40
7.4757411255
100
AcDbArc
 50
94.2340700793
 51
97.5664239914
  0
ARC
  5
417
100
AcDbEntity
  8
KONSTRUKTIONSELEMENTE
100
AcDbCircle
 62
7
  6
CONTINUOUS
 10
106.6172878792
 20
141.2850870307
 40
7.369495011
100
AcDbArc
 50
22.3884586972
 51
23.6410739396
  0
ARC
  5
418
100
AcDbEntity
  8
KONSTRUKTIONSELEMENTE
100
AcDbCircle
 62
7
  6
CONTINUOUS
 10
118.4231706554
 20
163.9577027206
 40
5.6
100
AcDbArc
 50
330.0
 51
150.0
  0
ARC
  5
419
100
AcDbEntity
  8
KONSTRUKTIONSELEMENTE
100
AcDbCircle
 62
7
  6
CONTINUOUS
 10
56.2955367053
 20
77.418634822
 40
5.4898501433
100
AcDbArc
 50
50.2049516589
 51
53.5150100898
  0
ARC
  5
41A
100
AcDbEntity
  8
KONSTRUKTIONSELEMENTE
100
AcDbCircle
 62
7
  6
CONTINUOUS
 10
74.8812664945
 20
67.9076538631
 40
4.6749602773
100
AcDbArc
 50
81.3149175255
 51
82.0930351415
  0
ARC
  5
41B
100
AcDbEntity
  8
RUNDUNGEN
100
AcDbCircle
 62
7
  6
CONTINUOUS
 10
140.8039199214
 20
146.7222975607
 40
3.0
100
AcDbArc
 50
136.0
 51
150.0
  0
ARC
  5
41C
100
AcDbEntity
  8
RUNDUNGEN
100
AcDbCircle
 62
7
  6
CONTINUOUS
 10
92.3064973095
 20
174.7222975607
 40
3.0
100
AcDbArc
 50
330.0
 51
344.0
  0
ARC
  5
41D
100
AcDbEntity
  8
KONSTRUKTIONSELEMENTE
100
AcDbCircle
 62
7
  6
CONTINUOUS
 10
101.4926377106
 20
134.6331594609
 40
2.5
100
AcDbArc
 50
330.0
 51
150.0
  0
ARC
  5
41E
100
AcDbEntity
  8
KONSTRUKTIONSELEMENTE
100
AcDbCircle
 62
7
  6
CONTINUOUS
 10
92.7374338905
 20
119.468701614
 40
2.5
100
AcDbArc
 50
150.0
 51
330.0
  0
ARC
  5
41F
100
AcDbEntity
  8
KONSTRUKTIONSELEMENTE
100
AcDbCircle
 62
7
  6
CONTINUOUS
 10
121.3752585286
 20
169.0708689053
 40
2.5
100
AcDbArc
 50
169.3908042464
 51
310.6091957536
  0
CIRCLE
  5
420
100
AcDbEntity
  8
BEZUGSACHSEN
100
AcDbCircle
 62
7
  6
CONTINUOUS
 10
127.0518203024
 20
143.5029623098
 40
2.5
  0
ARC
  5
421
100
AcDbEntity
  8
KONSTRUKTIONSELEMENTE
100
AcDbCircle
 62
7
  6
CONTINUOUS
 10
105.9072976901
 20
142.2795748436
 40
2.25
100
AcDbArc
 50
150.0
 51
330.0
  0
ARC
  5
422
100
AcDbEntity
  8
KONSTRUKTIONSELEMENTE
100
AcDbCircle
 62
7
  6
CONTINUOUS
 10
116.960598549
 20
161.4244535226
 40
2.25
100
AcDbArc
 50
330.0
 51
150.0
  0
ARC
  5
423
100
AcDbEntity
  8
KONSTRUKTIONSELEMENTE
100
AcDbCircle
 62
7
  6
CONTINUOUS
 10
60.9970701946
 20
77.679398548
 40
2.043568933
100
AcDbArc
 50
337.9702150978
 51
339.9065806722
  0
ARC
  5
424
100
AcDbEntity
  8
KONSTRUKTIONSELEMENTE
100
AcDbCircle
 62
7
  6
CONTINUOUS
 10
61.0264454559
 20
77.6671359065
 40
2.0117388432
100
AcDbArc
 50
330.0208671421
 51
337.9801551546
  0
ARC
  5
425
100
AcDbEntity
  8
BEZUGSACHSEN
100
AcDbCircle
 62
7
  6
CONTINUOUS
 10
90.3303159415
 20
150.8477270509
 40
2.0
100
AcDbArc
 50
190.0000250634
 51
240.0000161105
  0
ARC
  5
426
100
AcDbEntity
  8
RUNDUNGEN
100
AcDbCircle
 62
7
  6
CONTINUOUS
 10
88.9185566026
 20
158.8542121234
 40
2.0
100
AcDbArc
 50
150.0
 51
190.0
  0
ARC
  5
427
100
AcDbEntity
  8
BEZUGSACHSEN
100
AcDbCircle
 62
7
  6
CONTINUOUS
 10
121.1160287368
 20
133.0735900205
 40
2.0
100
AcDbArc
 50
239.9999310313
 51
289.9998927033
  0
ARC
  5
428
100
AcDbEntity
  8
RUNDUNGEN
100
AcDbCircle
 62
7
  6
CONTINUOUS
 10
128.7557251767
 20
135.8542121234
 40
2.0
100
AcDbArc
 50
290.0
 51
329.9755144818
  0
ARC
  5
429
100
AcDbEntity
  8
0
100
AcDbCircle
 62
7
  6
CONTINUOUS
 10
184.6731706554
 20
278.706068722
 40
9.0
100
AcDbArc
 50
330.0
 51
150.0
  0
ARC
  5
42A
100
AcDbEntity
  8
KONSTRUKTIONSELEMENTE
100
AcDbCircle
 62
7
  6
CONTINUOUS
 10
342.1522177162
 20
111.5994573468
 40
36.0
100
AcDbArc
 50
96.6759677595
 51
111.0509819347
  0
ARC
  5
42B
100
AcDbEntity
  8
KONSTRUKTIONSELEMENTE
100
AcDbCircle
 62
7
  6
CONTINUOUS
 10
342.1522177162
 20
111.5994573468
 40
36.0
100
AcDbArc
 50
128.9490180653
 51
143.3240322405
  0
ARC
  5
42C
100
AcDbEntity
  8
BEZUGSACHSEN
100
AcDbCircle
 62
7
  6
CONTINUOUS
 10
299.2481706554
 20
185.9114467065
 40
13.25
100
AcDbArc
 50
162.844678999
 51
77.1553210011
  0
ARC
  5
42D
100
AcDbEntity
  8
0
100
AcDbCircle
 62
7
  6
CONTINUOUS
 10
297.1731706554
 20
189.5054521322
 40
9.0
100
AcDbArc
 50
210.0
 51
30.0
  0
ARC
  5
42E
100
AcDbEntity
  8
BEZUGSACHSEN
100
AcDbCircle
 62
7
  6
CONTINUOUS
 10
311.9231706554
 20
163.9577027206
 40
5.6
100
AcDbArc
 50
30.0
 51
210.0
  0
ARC
  5
42F
100
AcDbEntity
  8
BEZUGSACHSEN
100
AcDbCircle
 62
7
  6
CONTINUOUS
 10
289.5424213894
 20
146.7222975607
 40
3.0
100
AcDbArc
 50
30.0
 51
44.0
  0
ARC
  5
430
100
AcDbEntity
  8
BEZUGSACHSEN
100
AcDbCircle
 62
7
  6
CONTINUOUS
 10
338.0398440013
 20
174.7222975607
 40
3.0
100
AcDbArc
 50
196.0
 51
210.0
  0
CIRCLE
  5
431
100
AcDbEntity
  8
BEZUGSACHSEN
100
AcDbCircle
 62
7
  6
CONTINUOUS
 10
303.2945210084
 20
143.5029623098
 40
2.5
  0
ARC
  5
432
100
AcDbEntity
  8
BEZUGSACHSEN
100
AcDbCircle
 62
7
  6
CONTINUOUS
 10
301.5906161341
 20
135.8542121234
 40
2.0
100
AcDbArc
 50
210.0244855182
 51
250.0
  0
ARC
  5
433
100
AcDbEntity
  8
BEZUGSACHSEN
100
AcDbCircle
 62
7
  6
CONTINUOUS
 10
341.4277847082
 20
158.8542121234
 40
2.0
100
AcDbArc
 50
350.0
 51
30.0
  0
ARC
  5
434
100
AcDbEntity
  8
BEZUGSACHSEN
100
AcDbCircle
 62
7
  6
CONTINUOUS
 10
309.230312574
 20
133.0735900205
 40
2.0
100
AcDbArc
 50
250.0001072967
 51
300.0000689687
  0
ARC
  5
435
100
AcDbEntity
  8
BEZUGSACHSEN
100
AcDbCircle
 62
7
  6
CONTINUOUS
 10
340.0160253693
 20
150.8477270509
 40
2.0
100
AcDbArc
 50
299.9999838895
 51
349.9999749366
  0
ARC
  5
436
100
AcDbEntity
  8
0
100
AcDbCircle
 62
7
  6
CONTINUOUS
 10
215.1731706554
 20
331.5336183528
 40
96.0
100
AcDbArc
 50
180.0
 51
234.6203875292
  0
ARC
  5
437
100
AcDbEntity
  8
0
100
AcDbCircle
 62
7
  6
CONTINUOUS
 10
215.1731706554
 20
331.5336183528
 40
96.0
100
AcDbArc
 50
245.3804467742
 51
294.6195532258
  0
ARC
  5
438
100
AcDbEntity
  8
0
100
AcDbCircle
 62
7
  6
CONTINUOUS
 10
215.1731706554
 20
331.5336183528
 40
96.0
100
AcDbArc
 50
305.3796124708
 51
360.0
  0
ARC
  5
439
100
AcDbEntity
  8
0
100
AcDbCircle
 62
7
  6
CONTINUOUS
 10
215.1731706554
 20
451.5336183528
 40
96.0
100
AcDbArc
 50
0.0
 51
180.0
  0
ARC
  5
43A
100
AcDbEntity
  8
0
100
AcDbCircle
 62
7
  6
CONTINUOUS
 10
215.1731706554
 20
451.5336183528
 40
70.0
100
AcDbArc
 50
0.0
 51
180.0
  0
ARC
  5
43B
100
AcDbEntity
  8
0
100
AcDbCircle
 62
7
  6
CONTINUOUS
 10
215.1731706554
 20
331.5336183528
 40
70.0
100
AcDbArc
 50
180.0
 51
232.6119491307
  0
ARC
  5
43C
100
AcDbEntity
  8
0
100
AcDbCircle
 62
7
  6
CONTINUOUS
 10
215.1731706554
 20
331.5336183528
 40
70.0
100
AcDbArc
 50
247.3886370099
 51
292.6113629901
  0
ARC
  5
43D
100
AcDbEntity
  8
0
100
AcDbCircle
 62
7
  6
CONTINUOUS
 10
215.1731706554
 20
331.5336183528
 40
70.0
100
AcDbArc
 50
307.3880508693
 51
360.0
  0
ARC
  5
43E
100
AcDbEntity
  8
0
100
AcDbCircle
 62
7
  6
CONTINUOUS
 10
245.6731706554
 20
278.706068722
 40
9.0
100
AcDbArc
 50
30.0
 51
210.0
  0
ARC
  5
43F
100
AcDbEntity
  8
KONSTRUKTIONSELEMENTE
100
AcDbCircle
 62
7
  6
CONTINUOUS
 10
230.9910914441
 20
58.1004067447
 40
381.5952939695
100
AcDbArc
 50
22.7976510039
 51
23.0109611436
  0
ARC
  5
440
100
AcDbEntity
  8
KONSTRUKTIONSELEMENTE
100
AcDbCircle
 62
7
  6
CONTINUOUS
 10
473.4457245714
 20
174.5790006711
 40
114.1287779107
100
AcDbArc
 50
18.9759220281
 51
19.1796104302
  0
ARC
  5
441
100
AcDbEntity
  8
KONSTRUKTIONSELEMENTE
100
AcDbCircle
 62
7
  6
CONTINUOUS
 10
481.1484064917
 20
159.9536527449
 40
111.890521139
100
AcDbArc
 50
26.3539792552
 51
26.5109215749
  0
ARC
  5
442
100
AcDbEntity
  8
KONSTRUKTIONSELEMENTE
100
AcDbCircle
 62
7
  6
CONTINUOUS
 10
413.2468350652
 20
85.806225132
 40
5.021339643
100
AcDbArc
 50
337.4729368823
 51
338.0391898131
  0
ARC
  5
443
100
AcDbEntity
  8
KONSTRUKTIONSELEMENTE
100
AcDbCircle
 62
7
  6
CONTINUOUS
 10
479.8132589039
 20
129.5539093678
 40
2.1487055736
100
AcDbArc
 50
21.3241761365
 51
27.3321484597
  0
ARC
  5
444
100
AcDbEntity
  8
KONSTRUKTIONSELEMENTE
100
AcDbCircle
 62
7
  6
CONTINUOUS
 10
479.8955619062
 20
129.5874328678
 40
2.0598469894
100
AcDbArc
 50
18.6815072046
 51
21.2880328929
  0
ARC
  5
445
100
AcDbEntity
  8
KONSTRUKTIONSELEMENTE
100
AcDbCircle
 62
7
  6
CONTINUOUS
 10
492.0022583374
 20
183.4827145942
 40
93.6638260789
100
AcDbArc
 50
14.8280515728
 51
15.0007181913
  0
ARC
  5
446
100
AcDbEntity
  8
KONSTRUKTIONSELEMENTE
100
AcDbCircle
 62
7
  6
CONTINUOUS
 10
498.4091684268
 20
168.2628244407
 40
92.6083371029
100
AcDbArc
 50
24.4940812218
 51
24.7110081495
  0
ARC
  5
447
100
AcDbEntity
  8
KONSTRUKTIONSELEMENTE
100
AcDbCircle
 62
7
  6
CONTINUOUS
 10
499.6151575802
 20
189.6881219448
 40
84.3417377905
100
AcDbArc
 50
12.4263706198
 51
12.6605988968
  0
ARC
  5
448
100
AcDbEntity
  8
KONSTRUKTIONSELEMENTE
100
AcDbCircle
 62
7
  6
CONTINUOUS
 10
525.302327582
 20
192.60225757
 40
59.1979414854
100
AcDbArc
 50
13.9381532118
 51
14.2329525231
  0
ARC
  5
449
100
AcDbEntity
  8
KONSTRUKTIONSELEMENTE
100
AcDbCircle
 62
7
  6
CONTINUOUS
 10
555.279721988
 20
192.7803315335
 40
30.8363288448
100
AcDbArc
 50
27.8399748911
 51
28.1276527745
  0
ARC
  5
44A
100
AcDbEntity
  8
BEZUGSACHSEN
100
AcDbCircle
 62
7
  6
CONTINUOUS
 10
563.5114442068
 20
181.197824433
 40
12.0852294807
100
AcDbArc
 50
318.7046996513
 51
322.8254710605
  0
ARC
  5
44B
100
AcDbEntity
  8
RUNDUNGEN
100
AcDbCircle
 62
7
  6
CONTINUOUS
 10
590.1011454498
 20
181.197824433
 40
12.0852294806
100
AcDbArc
 50
217.1745289395
 51
221.2953003487
  0
ARC
  5
44C
100
AcDbEntity
  8
KONSTRUKTIONSELEMENTE
100
AcDbCircle
 62
7
  6
CONTINUOUS
 10
528.564929685
 20
174.0539391282
 40
6.8544496741
100
AcDbArc
 50
180.0468621101
 51
190.0347873196
  0
ARC
  5
44D
100
AcDbEntity
  8
KONSTRUKTIONSELEMENTE
100
AcDbCircle
 62
7
  6
CONTINUOUS
 10
497.619406214
 20
147.2607804773
 40
6.5947824563
100
AcDbArc
 50
180.0290752758
 51
188.778086953
  0
ARC
  5
44E
100
AcDbEntity
  8
BEZUGSACHSEN
100
AcDbCircle
 62
7
  6
CONTINUOUS
 10
567.166579378
 20
138.2765028977
 40
4.394252307
100
AcDbArc
 50
214.051384763
 51
215.6970906592
  0
ARC
  5
44F
100
AcDbEntity
  8
RUNDUNGEN
100
AcDbCircle
 62
7
  6
CONTINUOUS
 10
586.4460102783
 20
138.276502898
 40
4.3942523074
100
AcDbArc
 50
324.3029093409
 51
325.9486152369
  0
ARC
  5
450
100
AcDbEntity
  8
0
100
AcDbCircle
 62
7
  6
CONTINUOUS
 10
578.1876433755
 20
163.8465862659
 40
4.3689961288
100
AcDbArc
 50
6.4018497206
 51
13.0211258669
  0
ARC
  5
451
100
AcDbEntity
  8
0
100
AcDbCircle
 62
7
  6
CONTINUOUS
 10
575.4249462811
 20
163.8465862659
 40
4.3689961288
100
AcDbArc
 50
166.9788741332
 51
173.5981502793
  0
ARC
  5
452
100
AcDbEntity
  8
KONSTRUKTIONSELEMENTE
100
AcDbCircle
 62
7
  6
CONTINUOUS
 10
498.7786882789
 20
148.2120823957
 40
3.635198805
100
AcDbArc
 50
238.8071952044
 51
240.6860889462
  0
ARC
  5
453
100
AcDbEntity
  8
KONSTRUKTIONSELEMENTE
100
AcDbCircle
 62
7
  6
CONTINUOUS
 10
529.7431731591
 20
175.0594934334
 40
3.448088097
100
AcDbArc
 50
240.3855846734
 51
242.1133696712
  0
ARC
  5
454
100
AcDbEntity
  8
KONSTRUKTIONSELEMENTE
100
AcDbCircle
 62
7
  6
CONTINUOUS
 10
509.1674794045
 20
155.8048186696
 40
3.2537077433
100
AcDbArc
 50
125.8262786327
 51
130.8740696877
  0
ARC
  5
455
100
AcDbEntity
  8
KONSTRUKTIONSELEMENTE
100
AcDbCircle
 62
7
  6
CONTINUOUS
 10
510.7514207939
 20
156.345992966
 40
2.3966654421
100
AcDbArc
 50
23.4830152976
 51
29.1758184914
  0
ARC
  5
456
100
AcDbEntity
  8
KONSTRUKTIONSELEMENTE
100
AcDbCircle
 62
7
  6
CONTINUOUS
 10
537.0178364575
 20
179.3980668326
 40
2.2319350363
100
AcDbArc
 50
329.648099119
 51
331.3181221811
  0
ARC
  5
457
100
AcDbEntity
  8
KONSTRUKTIONSELEMENTE
100
AcDbCircle
 62
7
  6
CONTINUOUS
 10
529.5687502672
 20
198.6511918443
 40
53.1173813976
100
AcDbArc
 50
10.2196365388
 51
10.4438870619
  0
ARC
  5
458
100
AcDbEntity
  8
KONSTRUKTIONSELEMENTE
100
AcDbCircle
 62
7
  6
CONTINUOUS
 10
541.9130659906
 20
195.0826768137
 40
42.6850765089
100
AcDbArc
 50
16.8961411699
 51
17.2389229938
  0
ARC
  5
459
100
AcDbEntity
  8
KONSTRUKTIONSELEMENTE
100
AcDbCircle
 62
7
  6
CONTINUOUS
 10
556.1042129118
 20
202.8613586366
 40
26.7704384851
100
AcDbArc
 50
20.1285185795
 51
20.5379932818
  0
ARC
  5
45A
100
AcDbEntity
  8
KONSTRUKTIONSELEMENTE
100
AcDbCircle
 62
7
  6
CONTINUOUS
 10
560.8884174802
 20
195.5087574417
 40
24.9520668583
100
AcDbArc
 50
35.2171712226
 51
35.6184267549
  0
ARC
  5
45B
100
AcDbEntity
  8
KONSTRUKTIONSELEMENTE
100
AcDbCircle
 62
7
  6
CONTINUOUS
 10
564.6060955164
 20
203.5890614304
 40
18.4438034676
100
AcDbArc
 50
9.5397786685
 51
10.2200372259
  0
ARC
  5
45C
100
AcDbEntity
  8
0
100
AcDbCircle
 62
7
  6
CONTINUOUS
 10
565.4202171118
 20
209.7740548
 40
15.1945995514
100
AcDbArc
 50
357.4014919109
 51
0.6824307488
  0
ARC
  5
45D
100
AcDbEntity
  8
KONSTRUKTIONSELEMENTE
100
AcDbCircle
 62
7
  6
CONTINUOUS
 10
565.9468514134
 20
209.7740548
 40
15.1945995514
100
AcDbArc
 50
357.4014919109
 51
0.6824307488
  0
ARC
  5
45E
100
AcDbEntity
  8
KONSTRUKTIONSELEMENTE
100
AcDbCircle
 62
7
  6
CONTINUOUS
 10
566.4471731026
 20
209.2948801306
 40
14.8701952103
100
AcDbArc
 50
358.1840895948
 51
0.8377640722
  0
ARC
  5
45F
100
AcDbEntity
  8
KONSTRUKTIONSELEMENTE
100
AcDbCircle
 62
7
  6
CONTINUOUS
 10
567.8864968083
 20
207.8579710752
 40
13.9586134185
100
AcDbArc
 50
358.0654325759
 51
0.8924560318
  0
ARC
  5
460
100
AcDbEntity
  8
KONSTRUKTIONSELEMENTE
100
AcDbCircle
 62
7
  6
CONTINUOUS
 10
568.4618283204
 20
207.2832424471
 40
13.5943795805
100
AcDbArc
 50
358.0134225248
 51
0.610674628
  0
ARC
  5
461
100
AcDbEntity
  8
KONSTRUKTIONSELEMENTE
100
AcDbCircle
 62
7
  6
CONTINUOUS
 10
569.9765567981
 20
204.6178738788
 40
13.0465594781
100
AcDbArc
 50
14.9224849348
 51
15.5517228052
  0
ARC
  5
462
100
AcDbEntity
  8
KONSTRUKTIONSELEMENTE
100
AcDbCircle
 62
7
  6
CONTINUOUS
 10
570.36695884
 20
205.2670622056
 40
12.4281737548
100
AcDbArc
 50
2.6112193228
 51
3.1967081121
  0
ARC
  5
463
100
AcDbEntity
  8
KONSTRUKTIONSELEMENTE
100
AcDbCircle
 62
7
  6
CONTINUOUS
 10
570.3841705518
 20
205.275006637
 40
12.4109394847
100
AcDbArc
 50
356.8029393249
 51
357.8079917042
  0
ARC
  5
464
100
AcDbEntity
  8
KONSTRUKTIONSELEMENTE
100
AcDbCircle
 62
7
  6
CONTINUOUS
 10
570.4144918616
 20
205.2692397226
 40
12.3805908835
100
AcDbArc
 50
2.0235518618
 51
2.6111743486
  0
ARC
  5
465
100
AcDbEntity
  8
KONSTRUKTIONSELEMENTE
100
AcDbCircle
 62
7
  6
CONTINUOUS
 10
611.699523666
 20
195.0826768137
 40
42.6850765089
100
AcDbArc
 50
162.7610770062
 51
163.1038588301
  0
ARC
  5
466
100
AcDbEntity
  8
KONSTRUKTIONSELEMENTE
100
AcDbCircle
 62
7
  6
CONTINUOUS
 10
597.5083767449
 20
202.8613586366
 40
26.7704384851
100
AcDbArc
 50
159.4620067182
 51
159.8714814205
  0
ARC
  5
467
100
AcDbEntity
  8
KONSTRUKTIONSELEMENTE
100
AcDbCircle
 62
7
  6
CONTINUOUS
 10
589.0064941402
 20
203.5890614304
 40
18.4438034676
100
AcDbArc
 50
169.7799627741
 51
170.4602213315
  0
ARC
  5
468
100
AcDbEntity
  8
KONSTRUKTIONSELEMENTE
100
AcDbCircle
 62
7
  6
CONTINUOUS
 10
571.269009373
 20
199.1585567042
 40
13.6574697279
100
AcDbArc
 50
32.7361291105
 51
33.3067831491
  0
ARC
  5
469
100
AcDbEntity
  8
KONSTRUKTIONSELEMENTE
100
AcDbCircle
 62
7
  6
CONTINUOUS
 10
579.5562354961
 20
205.1137289457
 40
9.0175443191
100
AcDbArc
 50
164.7305915077
 51
165.6922374723
  0
ARC
  5
46A
100
AcDbEntity
  8
KONSTRUKTIONSELEMENTE
100
AcDbCircle
 62
7
  6
CONTINUOUS
 10
574.0563541605
 20
205.1137289457
 40
9.0175443191
100
AcDbArc
 50
14.3077625277
 51
15.2694084923
  0
ARC
  5
46B
100
AcDbEntity
  8
KONSTRUKTIONSELEMENTE
100
AcDbCircle
 62
7
  6
CONTINUOUS
 10
575.1605487749
 20
211.4099629584
 40
5.9809471407
100
AcDbArc
 50
2.6252706238
 51
3.9305799697
  0
ARC
  5
46C
100
AcDbEntity
  8
0
100
AcDbCircle
 62
7
  6
CONTINUOUS
 10
574.6339144747
 20
211.4099629585
 40
5.9809471392
100
AcDbArc
 50
2.6252706237
 51
3.9305799698
  0
ARC
  5
46D
100
AcDbEntity
  8
0
100
AcDbCircle
 62
7
  6
CONTINUOUS
 10
574.6339144822
 20
211.4137335626
 40
5.9809471317
100
AcDbArc
 50
356.0694200297
 51
357.3747299996
  0
ARC
  5
46E
100
AcDbEntity
  8
KONSTRUKTIONSELEMENTE
100
AcDbCircle
 62
7
  6
CONTINUOUS
 10
575.1605487853
 20
211.4137335625
 40
5.9809471302
100
AcDbArc
 50
356.0694200295
 51
357.3747299997
  0
ARC
  5
46F
100
AcDbEntity
  8
BEZUGSACHSEN
100
AcDbCircle
 62
7
  6
CONTINUOUS
 10
575.5562948283
 20
204.2237723354
 40
5.0
100
AcDbArc
 50
161.6999918899
 51
180.0
  0
ARC
  5
470
100
AcDbEntity
  8
BEZUGSACHSEN
100
AcDbCircle
 62
7
  6
CONTINUOUS
 10
578.0562948283
 20
204.2237723354
 40
5.0
100
AcDbArc
 50
0.0
 51
18.3000081101
  0
ARC
  5
471
100
AcDbEntity
  8
KONSTRUKTIONSELEMENTE
100
AcDbCircle
 62
7
  6
CONTINUOUS
 10
577.6288320131
 20
207.2146727893
 40
4.9551201867
100
AcDbArc
 50
359.4756803774
 51
0.2621527332
  0
ARC
  5
472
100
AcDbEntity
  8
KONSTRUKTIONSELEMENTE
100
AcDbCircle
 62
7
  6
CONTINUOUS
 10
576.8589872256
 20
209.6199705348
 40
4.9440084502
100
AcDbArc
 50
23.7330676572
 51
24.6671534528
  0
ARC
  5
473
100
AcDbEntity
  8
KONSTRUKTIONSELEMENTE
100
AcDbCircle
 62
7
  6
CONTINUOUS
 10
575.6299482083
 20
206.6004517411
 40
4.8124076809
100
AcDbArc
 50
179.4601345256
 51
180.5398662468
  0
ARC
  5
474
100
AcDbEntity
  8
KONSTRUKTIONSELEMENTE
100
AcDbCircle
 62
7
  6
CONTINUOUS
 10
577.982777739
 20
206.6004519716
 40
4.8122713985
100
AcDbArc
 50
359.4601157193
 51
0.2699344476
  0
ARC
  5
475
100
AcDbEntity
  8
KONSTRUKTIONSELEMENTE
100
AcDbCircle
 62
7
  6
CONTINUOUS
 10
579.7733740733
 20
213.517017833
 40
4.2914767682
100
AcDbArc
 50
291.0640382612
 51
291.5394944149
  0
ARC
  5
476
100
AcDbEntity
  8
0
100
AcDbCircle
 62
7
  6
CONTINUOUS
 10
576.8417713807
 20
211.4129869129
 40
4.0439315378
100
AcDbArc
 50
338.8672514136
 51
340.1593208944
  0
ARC
  5
477
100
AcDbEntity
  8
KONSTRUKTIONSELEMENTE
100
AcDbCircle
 62
7
  6
CONTINUOUS
 10
577.3684056837
 20
211.4129869124
 40
4.0439315364
100
AcDbArc
 50
338.8672514134
 51
340.1593208946
  0
ARC
  5
478
100
AcDbEntity
  8
KONSTRUKTIONSELEMENTE
100
AcDbCircle
 62
7
  6
CONTINUOUS
 10
581.6550050145
 20
204.3050025349
 40
3.0111328886
100
AcDbArc
 50
72.0350396529
 51
72.7703194808
  0
ARC
  5
479
100
AcDbEntity
  8
KONSTRUKTIONSELEMENTE
100
AcDbCircle
 62
7
  6
CONTINUOUS
 10
574.8855591635
 20
211.0843405524
 40
2.7110036585
100
AcDbArc
 50
152.9168221485
 51
154.4594483626
  0
ARC
  5
47A
100
AcDbEntity
  8
KONSTRUKTIONSELEMENTE
100
AcDbCircle
 62
7
  6
CONTINUOUS
 10
578.7270304932
 20
211.0843405524
 40
2.7110036585
100
AcDbArc
 50
25.5405516374
 51
27.0831778515
  0
ARC
  5
47B
100
AcDbEntity
  8
KONSTRUKTIONSELEMENTE
100
AcDbCircle
 62
7
  6
CONTINUOUS
 10
571.4165498225
 20
208.532636635
 40
2.0661985999
100
AcDbArc
 50
253.1536895064
 51
254.239257302
  0
ARC
  5
47C
100
AcDbEntity
  8
KONSTRUKTIONSELEMENTE
100
AcDbCircle
 62
7
  6
CONTINUOUS
 10
582.1960398342
 20
208.532636635
 40
2.0661985999
100
AcDbArc
 50
285.760742698
 51
286.8463104936
  0
ARC
  5
47D
100
AcDbEntity
  8
KONSTRUKTIONSELEMENTE
100
AcDbCircle
 62
7
  6
CONTINUOUS
 10
580.6061453724
 20
211.6511996536
 40
0.746389626
100
AcDbArc
 50
351.2533938923
 51
2.4674860406
  0
ARC
  5
47E
100
AcDbEntity
  8
KONSTRUKTIONSELEMENTE
100
AcDbCircle
 62
7
  6
CONTINUOUS
 10
582.1452557243
 20
207.3142199563
 40
0.6500560059
100
AcDbArc
 50
345.1902813397
 51
353.8986003333
  0
ARC
  5
47F
100
AcDbEntity
  8
KONSTRUKTIONSELEMENTE
100
AcDbCircle
 62
7
  6
CONTINUOUS
 10
581.9421228343
 20
207.9454684109
 40
0.6418002995
100
AcDbArc
 50
349.8064219645
 51
2.8625214757
  0
ARC
  5
480
100
AcDbEntity
  8
KONSTRUKTIONSELEMENTE
100
AcDbCircle
 62
7
  6
CONTINUOUS
 10
582.1785026651
 20
207.3099119047
 40
0.6165399577
100
AcDbArc
 50
353.9682880516
 51
3.005417366
  0
ARC
  5
481
100
AcDbEntity
  8
0
100
AcDbCircle
 62
7
  6
CONTINUOUS
 10
576.8062948283
 20
248.5336183528
 40
13.0
100
AcDbArc
 50
180.0
 51
360.0
  0
ARC
  5
482
100
AcDbEntity
  8
KONSTRUKTIONSELEMENTE
100
AcDbCircle
 62
7
  6
CONTINUOUS
 10
731.5820757346
 20
156.2720484577
 40
168.6909959418
100
AcDbArc
 50
162.0756425951
 51
162.2383077778
  0
ARC
  5
483
100
AcDbEntity
  8
KONSTRUKTIONSELEMENTE
100
AcDbCircle
 62
7
  6
CONTINUOUS
 10
680.1123296746
 20
174.5978967383
 40
114.0710616429
100
AcDbArc
 50
160.8203547421
 51
161.0282421353
  0
ARC
  5
484
100
AcDbEntity
  8
KONSTRUKTIONSELEMENTE
100
AcDbCircle
 62
7
  6
CONTINUOUS
 10
628.2094972925
 20
192.6274395139
 40
59.0940779063
100
AcDbArc
 50
165.7965924338
 51
166.0620104892
  0
ARC
  5
485
100
AcDbEntity
  8
0
100
AcDbCircle
 62
7
  6
CONTINUOUS
 10
576.8062948283
 20
534.5336183528
 40
13.0
100
AcDbArc
 50
0.0
 51
180.0
  0
SPLINE
  5
486
100
AcDbEntity
  8
KONSTRUKTIONSELEMENTE
100
AcDbSpline
 62
7
  6
CONTINUOUS
 70
0
 71
3
 72
10
 73
6
 74
0
 42
0.0000001
 43
0.0000001
 44
0.0000000001
 40
0.0
 40
0.0
 40
0.0
 40
0.0
 40
0.3116645009
 40
0.6060899939
 40
1.0
 40
1.0
 40
1.0
 40
1.0
 10
109.3385128692
 20
141.2226138655
 30
0.0
 10
109.4370902925
 20
141.393354971
 30
0.0
 10
109.4603488959
 20
141.808697167
 30
0.0
 10
109.2812353356
 20
142.4131019196
 30
0.0
 10
109.0672352031
 20
142.7992454417
 30
0.0
 10
108.926382288
 20
143.0047989829
 30
0.0
  0
SPLINE
  5
487
100
AcDbEntity
  8
KONSTRUKTIONSELEMENTE
100
AcDbSpline
 62
7
  6
CONTINUOUS
 70
0
 71
3
 72
10
 73
6
 74
0
 42
0.0000001
 43
0.0000001
 44
0.0000000001
 40
0.0
 40
0.0
 40
0.0
 40
0.0
 40
0.3939255147
 40
0.6883533687
 40
1.0
 40
1.0
 40
1.0
 40
1.0
 10
105.0260840268
 20
145.2567664774
 30
0.0
 10
104.7775997189
 20
145.2759948432
 30
0.0
 10
104.3361187767
 20
145.2682524639
 30
0.0
 10
103.7230239299
 20
145.1212240749
 30
0.0
 10
103.3749206947
 20
144.8933692236
 30
0.0
 10
103.2763350427
 20
144.7226138655
 30
0.0
  0
SPLINE
  5
488
100
AcDbEntity
  8
KONSTRUKTIONSELEMENTE
100
AcDbSpline
 62
7
  6
CONTINUOUS
 70
0
 71
3
 72
13
 73
9
 74
0
 42
0.0000001
 43
0.0000001
 44
0.0000000001
 40
0.0
 40
0.0
 40
0.0
 40
0.0
 40
0.1197290731
 40
0.2397365246
 40
0.3609040964
 40
0.4836831257
 40
0.7359942557
 40
1.0
 40
1.0
 40
1.0
 40
1.0
 10
94.0759198668
 20
137.7870273301
 30
0.0
 10
93.9013130158
 20
137.4845993927
 30
0.0
 10
93.6130860659
 20
136.8411684279
 30
0.0
 10
93.3836201274
 20
135.8071510943
 30
0.0
 10
93.3554701054
 20
134.7396267427
 30
0.0
 10
93.578725273
 20
133.3027149788
 30
0.0
 10
94.3229539103
 20
131.5599742599
 30
0.0
 10
95.2819372072
 20
130.3752083537
 30
0.0
 10
95.8332023546
 20
129.8375785541
 30
0.0
  0
SPLINE
  5
489
100
AcDbEntity
  8
KONSTRUKTIONSELEMENTE
100
AcDbSpline
 62
7
  6
CONTINUOUS
 70
0
 71
3
 72
13
 73
9
 74
0
 42
0.0000001
 43
0.0000001
 44
0.0000000001
 40
0.0
 40
0.0
 40
0.0
 40
0.0
 40
0.2640112835
 40
0.5163080567
 40
0.6390830379
 40
0.7602378991
 40
0.8802701562
 40
1.0
 40
1.0
 40
1.0
 40
1.0
 10
100.1701665171
 20
127.3339165573
 30
0.0
 10
100.9113598587
 20
127.1254214384
 30
0.0
 10
102.4167171139
 20
126.8874238052
 30
0.0
 10
104.2978292842
 20
127.1144255247
 30
0.0
 10
105.6535973766
 20
127.6395041892
 30
0.0
 10
106.5639814934
 20
128.1975539023
 30
0.0
 10
107.3445900256
 20
128.9133341027
 30
0.0
 10
107.7577369286
 20
129.4846296211
 30
0.0
 10
107.9323263274
 20
129.7870273301
 30
0.0
  0
SPLINE
  5
48A
100
AcDbEntity
  8
KONSTRUKTIONSELEMENTE
100
AcDbSpline
 62
7
  6
CONTINUOUS
 70
0
 71
3
 72
10
 73
6
 74
0
 42
0.0000001
 43
0.0000001
 44
0.0000000001
 40
0.0
 40
0.0
 40
0.0
 40
0.0
 40
0.3192646009
 40
0.6086079864
 40
1.0
 40
1.0
 40
1.0
 40
1.0
 10
97.9730341838
 20
135.5370273301
 30
0.0
 10
97.8871642962
 20
135.3882963219
 30
0.0
 10
97.8497279677
 20
135.0394231257
 30
0.0
 10
97.9698490995
 20
134.5158669998
 30
0.0
 10
98.1259841107
 20
134.1797251065
 30
0.0
 10
98.2316078863
 20
133.9975982502
 30
0.0
  0
SPLINE
  5
48B
100
AcDbEntity
  8
KONSTRUKTIONSELEMENTE
100
AcDbSpline
 62
7
  6
CONTINUOUS
 70
0
 71
3
 72
10
 73
6
 74
0
 42
0.0000001
 43
0.0000001
 44
0.0000000001
 40
0.0
 40
0.0
 40
0.0
 40
0.0
 40
0.3914026107
 40
0.6807340322
 40
1.0
 40
1.0
 40
1.0
 40
1.0
 10
102.5728459768
 20
131.4912438585
 30
0.0
 10
102.7833769112
 20
131.4908396467
 30
0.0
 10
103.1525196273
 20
131.5237344247
 30
0.0
 10
103.6659788311
 20
131.681430444
 30
0.0
 10
103.9493471175
 20
131.8883049731
 30
0.0
 10
104.0352120103
 20
132.0370273301
 30
0.0
  0
SPLINE
  5
48C
100
AcDbEntity
  8
KONSTRUKTIONSELEMENTE
100
AcDbSpline
 62
7
  6
CONTINUOUS
 70
0
 71
3
 72
10
 73
6
 74
0
 42
0.0000001
 43
0.0000001
 44
0.0000000001
 40
0.0
 40
0.0
 40
0.0
 40
0.0
 40
0.3116645009
 40
0.6060899939
 40
1.0
 40
1.0
 40
1.0
 40
1.0
 10
113.52938337
 20
162.4814145007
 30
0.0
 10
113.4308059467
 20
162.3106733952
 30
0.0
 10
113.4075473433
 20
161.8953311993
 30
0.0
 10
113.5866609036
 20
161.2909264467
 30
0.0
 10
113.8006610361
 20
160.9047829245
 30
0.0
 10
113.9415139512
 20
160.6992293833
 30
0.0
  0
SPLINE
  5
48D
100
AcDbEntity
  8
KONSTRUKTIONSELEMENTE
100
AcDbSpline
 62
7
  6
CONTINUOUS
 70
0
 71
3
 72
10
 73
6
 74
0
 42
0.0000001
 43
0.0000001
 44
0.0000000001
 40
0.0
 40
0.0
 40
0.0
 40
0.0
 40
0.3939255147
 40
0.6883533687
 40
1.0
 40
1.0
 40
1.0
 40
1.0
 10
117.8418122124
 20
158.4472618889
 30
0.0
 10
118.0902965203
 20
158.428033523
 30
0.0
 10
118.5317774625
 20
158.4357759023
 30
0.0
 10
119.1448723093
 20
158.5828042914
 30
0.0
 10
119.4929755445
 20
158.8106591427
 30
0.0
 10
119.5915611964
 20
158.9814145007
 30
0.0
  0
SPLINE
  5
48E
100
AcDbEntity
  8
KONSTRUKTIONSELEMENTE
100
AcDbSpline
 62
7
  6
CONTINUOUS
 70
0
 71
3
 72
9
 73
5
 74
0
 42
0.0000001
 43
0.0000001
 44
0.0000000001
 40
0.0
 40
0.0
 40
0.0
 40
0.0
 40
0.4741296724
 40
1.0
 40
1.0
 40
1.0
 40
1.0
 10
119.2352405172
 20
191.7968940826
 30
0.0
 10
119.9360442089
 20
190.1181977458
 30
0.0
 10
122.044867021
 20
186.8339470166
 30
0.0
 10
124.9189781677
 20
184.2298190492
 30
0.0
 10
126.5604964946
 20
183.0566985125
 30
0.0
  0
SPLINE
  5
48F
100
AcDbEntity
  8
KONSTRUKTIONSELEMENTE
100
AcDbSpline
 62
7
  6
CONTINUOUS
 70
0
 71
3
 72
9
 73
5
 74
0
 42
0.0000001
 43
0.0000001
 44
0.0000000001
 40
0.0
 40
0.0
 40
0.0
 40
0.0
 40
0.5258549163
 40
1.0
 40
1.0
 40
1.0
 40
1.0
 10
130.8944087923
 20
180.5544671531
 30
0.0
 10
132.7306645721
 20
179.7196146004
 30
0.0
 10
136.4220990012
 20
178.5327423097
 30
0.0
 10
140.3198589847
 20
178.3481299703
 30
0.0
 10
142.1237679589
 20
178.5802051112
 30
0.0
  0
SPLINE
  5
490
100
AcDbEntity
  8
KONSTRUKTIONSELEMENTE
100
AcDbSpline
 62
7
  6
CONTINUOUS
 70
0
 71
3
 72
9
 73
5
 74
0
 42
0.0000001
 43
0.0000001
 44
0.0000000001
 40
0.0
 40
0.0
 40
0.0
 40
0.0
 40
0.2468599944
 40
1.0
 40
1.0
 40
1.0
 40
1.0
 10
118.3378642548
 20
182.3552747731
 30
0.0
 10
118.7213115857
 20
181.9361412048
 30
0.0
 10
120.3251965736
 20
180.2850575553
 30
0.0
 10
122.1210344625
 20
178.8221294161
 30
0.0
 10
123.5493514668
 20
177.8404966988
 30
0.0
  0
SPLINE
  5
491
100
AcDbEntity
  8
KONSTRUKTIONSELEMENTE
100
AcDbSpline
 62
7
  6
CONTINUOUS
 70
0
 71
3
 72
9
 73
5
 74
0
 42
0.0000001
 43
0.0000001
 44
0.0000000001
 40
0.0
 40
0.0
 40
0.0
 40
0.0
 40
0.253011464
 40
1.0
 40
1.0
 40
1.0
 40
1.0
 10
127.8823190484
 20
175.3387870331
 30
0.0
 10
128.4091800298
 20
175.0874624697
 30
0.0
 10
130.5183676605
 20
174.1517644269
 30
0.0
 10
132.7325262474
 20
173.4495142348
 30
0.0
 10
134.4156098164
 20
173.0788616375
 30
0.0
  0
SPLINE
  5
492
100
AcDbEntity
  8
BEZUGSACHSEN
100
AcDbSpline
 62
7
  6
CONTINUOUS
 70
0
 71
3
 72
9
 73
5
 74
0
 42
0.0000001
 43
0.0000001
 44
0.0000000001
 40
0.0
 40
0.0
 40
0.0
 40
0.0
 40
0.4740637035
 40
1.0
 40
1.0
 40
1.0
 40
1.0
 10
97.643250224
 20
118.1705934543
 30
0.0
 10
97.2105371485
 20
117.9766849724
 30
0.0
 10
96.2152672101
 20
117.7452991633
 30
0.0
 10
95.2048778135
 20
117.8124786555
 30
0.0
 10
94.6875245988
 20
117.9077861478
 30
0.0
  0
SPLINE
  5
493
100
AcDbEntity
  8
BEZUGSACHSEN
100
AcDbSpline
 62
7
  6
CONTINUOUS
 70
0
 71
3
 72
9
 73
5
 74
0
 42
0.0000001
 43
0.0000001
 44
0.0000000001
 40
0.0
 40
0.0
 40
0.0
 40
0.0
 40
0.5259362965
 40
1.0
 40
1.0
 40
1.0
 40
1.0
 10
90.4105960896
 20
120.3770719739
 30
0.0
 10
90.0693807728
 20
120.7774592544
 30
0.0
 10
89.5060069275
 20
121.6188923935
 30
0.0
 10
89.2087579471
 20
122.5965143483
 30
0.0
 10
89.1603310807
 20
123.0682091052
 30
0.0
  0
SPLINE
  5
494
100
AcDbEntity
  8
KONSTRUKTIONSELEMENTE
100
AcDbSpline
 62
7
  6
CONTINUOUS
 70
0
 71
3
 72
13
 73
9
 74
0
 42
0.0000001
 43
0.0000001
 44
0.0000000001
 40
0.0
 40
0.0
 40
0.0
 40
0.0
 40
0.1036865026
 40
0.2123166057
 40
0.3277694079
 40
0.450761267
 40
0.7166663069
 40
1.0
 40
1.0
 40
1.0
 40
1.0
 10
62.9162546821
 20
76.9773266948
 30
0.0
 10
62.9761131361
 20
77.1409455222
 30
0.0
 10
63.0556107024
 20
77.4931314111
 30
0.0
 10
63.0472010005
 20
78.0481482295
 30
0.0
 10
62.9162661021
 20
78.6204233123
 30
0.0
 10
62.5771252409
 20
79.4013926566
 30
0.0
 10
61.8764633748
 20
80.3099344562
 30
0.0
 10
61.1314428184
 20
80.873347996
 30
0.0
 10
60.7191405696
 20
81.1113908104
 30
0.0
  0
SPLINE
  5
495
100
AcDbEntity
  8
KONSTRUKTIONSELEMENTE
100
AcDbSpline
 62
7
  6
CONTINUOUS
 70
0
 71
3
 72
9
 73
5
 74
0
 42
0.0000001
 43
0.0000001
 44
0.0000000001
 40
0.0
 40
0.0
 40
0.0
 40
0.0
 40
0.4892987036
 40
1.0
 40
1.0
 40
1.0
 40
1.0
 10
62.6081206002
 20
118.4839694966
 30
0.0
 10
62.6468844519
 20
118.5510677997
 30
0.0
 10
62.7047070663
 20
118.7015730169
 30
0.0
 10
62.7154585517
 20
118.8619046198
 30
0.0
 10
62.710657326
 20
118.9426423041
 30
0.0
  0
SPLINE
  5
496
100
AcDbEntity
  8
KONSTRUKTIONSELEMENTE
100
AcDbSpline
 62
7
  6
CONTINUOUS
 70
0
 71
3
 72
11
 73
7
 74
0
 42
0.0000001
 43
0.0000001
 44
0.0000000001
 40
0.0
 40
0.0
 40
0.0
 40
0.0
 40
0.2200436456
 40
0.4557793627
 40
0.7157728079
 40
1.0
 40
1.0
 40
1.0
 40
1.0
 10
56.9753247765
 20
122.945516988
 30
0.0
 10
57.0258021196
 20
123.0328907632
 30
0.0
 10
57.1696308034
 20
123.193380231
 30
0.0
 10
57.4693675316
 20
123.3418320566
 30
0.0
 10
57.8273686774
 20
123.3966508948
 30
0.0
 10
58.0782807793
 20
123.3713185823
 30
0.0
 10
58.205888641
 20
123.3447735586
 30
0.0
  0
SPLINE
  5
497
100
AcDbEntity
  8
KONSTRUKTIONSELEMENTE
100
AcDbSpline
 62
7
  6
CONTINUOUS
 70
0
 71
3
 72
11
 73
7
 74
0
 42
0.0000001
 43
0.0000001
 44
0.0000000001
 40
0.0
 40
0.0
 40
0.0
 40
0.0
 40
0.2200599668
 40
0.4557760239
 40
0.7157731965
 40
1.0
 40
1.0
 40
1.0
 40
1.0
 10
56.7096979576
 20
135.7775429631
 30
0.0
 10
56.8779484374
 20
136.0688885515
 30
0.0
 10
57.3572233475
 20
136.6041450767
 30
0.0
 10
58.356493555
 20
137.0992090009
 30
0.0
 10
59.5500014516
 20
137.2819954666
 30
0.0
 10
60.3865305702
 20
137.1975836762
 30
0.0
 10
60.8119624821
 20
137.1090852086
 30
0.0
  0
SPLINE
  5
498
100
AcDbEntity
  8
KONSTRUKTIONSELEMENTE
100
AcDbSpline
 62
7
  6
CONTINUOUS
 70
0
 71
3
 72
9
 73
5
 74
0
 42
0.0000001
 43
0.0000001
 44
0.0000000001
 40
0.0
 40
0.0
 40
0.0
 40
0.0
 40
0.4891681133
 40
1.0
 40
1.0
 40
1.0
 40
1.0
 10
54.9418720282
 20
132.715578234
 30
0.0
 10
54.8128137477
 20
132.492072875
 30
0.0
 10
54.6202119411
 20
131.9906548358
 30
0.0
 10
54.5845275908
 20
131.4565036452
 30
0.0
 10
54.6005268949
 20
131.1874584366
 30
0.0
  0
SPLINE
  5
499
100
AcDbEntity
  8
KONSTRUKTIONSELEMENTE
100
AcDbSpline
 62
7
  6
CONTINUOUS
 70
0
 71
3
 72
9
 73
5
 74
0
 42
0.0000001
 43
0.0000001
 44
0.0000000001
 40
0.0
 40
0.0
 40
0.0
 40
0.0
 40
0.4891683995
 40
1.0
 40
1.0
 40
1.0
 40
1.0
 10
87.8533867701
 20
74.7437126833
 30
0.0
 10
87.9824174326
 20
74.9672561904
 30
0.0
 10
88.3203695801
 20
75.3848066611
 30
0.0
 10
88.7651467738
 20
75.6828128365
 30
0.0
 10
89.0061640912
 20
75.8034884893
 30
0.0
  0
SPLINE
  5
49A
100
AcDbEntity
  8
KONSTRUKTIONSELEMENTE
100
AcDbSpline
 62
7
  6
CONTINUOUS
 70
0
 71
3
 72
9
 73
5
 74
0
 42
0.0000001
 43
0.0000001
 44
0.0000000001
 40
0.0
 40
0.0
 40
0.0
 40
0.0
 40
0.4753722117
 40
1.0
 40
1.0
 40
1.0
 40
1.0
 10
89.3140519525
 20
75.9606426717
 30
0.0
 10
89.3798204371
 20
75.5396775587
 30
0.0
 10
89.6818556067
 20
74.6774675504
 30
0.0
 10
90.2060196094
 20
73.9379428398
 30
0.0
 10
90.5191365745
 20
73.5871384478
 30
0.0
  0
SPLINE
  5
49B
100
AcDbEntity
  8
KONSTRUKTIONSELEMENTE
100
AcDbSpline
 62
7
  6
CONTINUOUS
 70
0
 71
3
 72
11
 73
7
 74
0
 42
0.0000001
 43
0.0000001
 44
0.0000000001
 40
0.0
 40
0.0
 40
0.0
 40
0.0
 40
0.2094829334
 40
0.4446557434
 40
0.7120095299
 40
1.0
 40
1.0
 40
1.0
 40
1.0
 10
56.0872303465
 20
69.0886869679
 30
0.0
 10
56.0169498028
 20
68.9669574954
 30
0.0
 10
55.9450602134
 20
68.6598662154
 30
0.0
 10
56.074904706
 20
68.1857190312
 30
0.0
 10
56.3891106418
 20
67.7479905557
 30
0.0
 10
56.6885885615
 20
67.5167477692
 30
0.0
 10
56.8559383662
 20
67.4201283143
 30
0.0
  0
SPLINE
  5
49C
100
AcDbEntity
  8
KONSTRUKTIONSELEMENTE
100
AcDbSpline
 62
7
  6
CONTINUOUS
 70
0
 71
3
 72
10
 73
6
 74
0
 42
0.0000001
 43
0.0000001
 44
0.0000000001
 40
0.0
 40
0.0
 40
0.0
 40
0.0
 40
0.2210513433
 40
0.4578290806
 40
1.0
 40
1.0
 40
1.0
 40
1.0
 10
94.7394516657
 20
68.5375588522
 30
0.0
 10
94.7562768727
 20
68.5666970162
 30
0.0
 10
94.7786693646
 20
68.6350086783
 30
0.0
 10
94.7688989719
 20
68.7895465045
 30
0.0
 10
94.7046285298
 20
68.8978717365
 30
0.0
 10
94.6496749855
 20
68.9594396069
 30
0.0
  0
SPLINE
  5
49D
100
AcDbEntity
  8
BEZUGSACHSEN
100
AcDbSpline
 62
7
  6
CONTINUOUS
 70
0
 71
3
 72
9
 73
5
 74
0
 42
0.0000001
 43
0.0000001
 44
0.0000000001
 40
0.0
 40
0.0
 40
0.0
 40
0.0
 40
0.2459387646
 40
1.0
 40
1.0
 40
1.0
 40
1.0
 10
103.148109801
 20
123.9767368564
 30
0.0
 10
102.9099283924
 20
124.2435862884
 30
0.0
 10
101.9119031763
 20
125.3019631187
 30
0.0
 10
100.8018674287
 20
126.2538085327
 30
0.0
 10
99.9190031595
 20
126.9043961671
 30
0.0
  0
SPLINE
  5
49E
100
AcDbEntity
  8
BEZUGSACHSEN
100
AcDbSpline
 62
7
  6
CONTINUOUS
 70
0
 71
3
 72
9
 73
5
 74
0
 42
0.0000001
 43
0.0000001
 44
0.0000000001
 40
0.0
 40
0.0
 40
0.0
 40
0.0
 40
0.2536983179
 40
1.0
 40
1.0
 40
1.0
 40
1.0
 10
95.5861496338
 20
129.4059703165
 30
0.0
 10
95.2480790146
 20
129.5537631322
 30
0.0
 10
93.9013110175
 20
130.1030451645
 30
0.0
 10
92.4987988039
 20
130.5175804846
 30
0.0
 10
91.4361689764
 20
130.7386290442
 30
0.0
  0
SPLINE
  5
49F
100
AcDbEntity
  8
BEZUGSACHSEN
100
AcDbSpline
 62
7
  6
CONTINUOUS
 70
0
 71
3
 72
11
 73
7
 74
0
 42
0.0000001
 43
0.0000001
 44
0.0000000001
 40
0.0
 40
0.0
 40
0.0
 40
0.0
 40
0.221185816
 40
0.4572071684
 40
0.716647289
 40
1.0
 40
1.0
 40
1.0
 40
1.0
 10
87.755702002
 20
121.8400888734
 30
0.0
 10
87.9347982559
 20
122.1502926845
 30
0.0
 10
88.4392077436
 20
122.7215250314
 30
0.0
 10
89.4886718045
 20
123.2646069165
 30
0.0
 10
90.7458042911
 20
123.487036199
 30
0.0
 10
91.6313445534
 20
123.4212914918
 30
0.0
 10
92.083057361
 20
123.340580649
 30
0.0
  0
SPLINE
  5
4A0
100
AcDbEntity
  8
BEZUGSACHSEN
100
AcDbSpline
 62
7
  6
CONTINUOUS
 70
0
 71
3
 72
11
 73
7
 74
0
 42
0.0000001
 43
0.0000001
 44
0.0000000001
 40
0.0
 40
0.0
 40
0.0
 40
0.0
 40
0.283352711
 40
0.5427928316
 40
0.778814184
 40
1.0
 40
1.0
 40
1.0
 40
1.0
 10
96.4177677601
 20
120.8379344333
 30
0.0
 10
96.7135218041
 20
120.4870950881
 30
0.0
 10
97.2132285218
 20
119.7530670784
 30
0.0
 10
97.6491653559
 20
118.5531437678
 30
0.0
 10
97.7035746776
 20
117.3727402882
 30
0.0
 10
97.4610776975
 20
116.6502926845
 30
0.0
 10
97.2819814437
 20
116.3400888734
 30
0.0
  0
SPLINE
  5
4A1
100
AcDbEntity
  8
KONSTRUKTIONSELEMENTE
100
AcDbSpline
 62
7
  6
CONTINUOUS
 70
0
 71
3
 72
9
 73
5
 74
0
 42
0.0000001
 43
0.0000001
 44
0.0000000001
 40
0.0
 40
0.0
 40
0.0
 40
0.0
 40
0.5108269807
 40
1.0
 40
1.0
 40
1.0
 40
1.0
 10
129.5802378718
 20
83.7571057313
 30
0.0
 10
129.8212437314
 20
83.8777756473
 30
0.0
 10
130.2660052608
 20
84.1757720179
 30
0.0
 10
130.6039414413
 20
84.5932993322
 30
0.0
 10
130.7329965187
 20
84.8168200866
 30
0.0
  0
SPLINE
  5
4A2
100
AcDbEntity
  8
KONSTRUKTIONSELEMENTE
100
AcDbSpline
 62
7
  6
CONTINUOUS
 70
0
 71
3
 72
9
 73
5
 74
0
 42
0.0000001
 43
0.0000001
 44
0.0000000001
 40
0.0
 40
0.0
 40
0.0
 40
0.0
 40
0.5322168521
 40
1.0
 40
1.0
 40
1.0
 40
1.0
 10
128.2328646352
 20
83.597549401
 30
0.0
 10
128.3177666719
 20
83.5024283737
 30
0.0
 10
128.5296678597
 20
83.368198877
 30
0.0
 10
128.7936058685
 20
83.3632446948
 30
0.0
 10
128.89381153
 20
83.4134169552
 30
0.0
  0
SPLINE
  5
4A3
100
AcDbEntity
  8
KONSTRUKTIONSELEMENTE
100
AcDbSpline
 62
7
  6
CONTINUOUS
 70
0
 71
3
 72
9
 73
5
 74
0
 42
0.0000001
 43
0.0000001
 44
0.0000000001
 40
0.0
 40
0.0
 40
0.0
 40
0.0
 40
0.2605100871
 40
1.0
 40
1.0
 40
1.0
 40
1.0
 10
92.8564285856
 20
65.3697562064
 30
0.0
 10
92.8686809783
 20
65.3758908921
 30
0.0
 10
92.9141716845
 20
65.4023361639
 30
0.0
 10
92.9522347762
 20
65.4420129609
 30
0.0
 10
92.9716847127
 20
65.4756966737
 30
0.0
  0
SPLINE
  5
4A4
100
AcDbEntity
  8
KONSTRUKTIONSELEMENTE
100
AcDbSpline
 62
7
  6
CONTINUOUS
 70
0
 71
3
 72
11
 73
7
 74
0
 42
0.0000001
 43
0.0000001
 44
0.0000000001
 40
0.0
 40
0.0
 40
0.0
 40
0.0
 40
0.2729767978
 40
0.5353848362
 40
0.7789285996
 40
1.0
 40
1.0
 40
1.0
 40
1.0
 10
87.4886268315
 20
65.656020711
 30
0.0
 10
87.8945780913
 20
65.4216446419
 30
0.0
 10
88.7386776727
 20
65.0394014056
 30
0.0
 10
90.0540803361
 20
64.745830907
 30
0.0
 10
91.3144828496
 20
64.7579633193
 30
0.0
 10
92.0942819181
 20
64.9881548029
 30
0.0
 10
92.4337310237
 20
65.1581145503
 30
0.0
  0
SPLINE
  5
4A5
100
AcDbEntity
  8
KONSTRUKTIONSELEMENTE
100
AcDbSpline
 62
7
  6
CONTINUOUS
 70
0
 71
3
 72
13
 73
9
 74
0
 42
0.0000001
 43
0.0000001
 44
0.0000000001
 40
0.0
 40
0.0
 40
0.0
 40
0.0
 40
0.2870489256
 40
0.5535682914
 40
0.6755020148
 40
0.789331082
 40
0.8965440086
 40
1.0
 40
1.0
 40
1.0
 40
1.0
 10
75.5281749743
 20
72.5613908104
 30
0.0
 10
75.0819406977
 20
72.8190242901
 30
0.0
 10
74.149912441
 20
73.2022064889
 30
0.0
 10
72.9196570861
 20
73.3243612642
 30
0.0
 10
72.0272384225
 20
73.1615455672
 30
0.0
 10
71.4533374569
 20
72.9241135878
 30
0.0
 10
70.9794324046
 20
72.5749500472
 30
0.0
 10
70.7427140968
 20
72.2727294329
 30
0.0
 10
70.6498597968
 20
72.1119010676
 30
0.0
  0
SPLINE
  5
4A6
100
AcDbEntity
  8
KONSTRUKTIONSELEMENTE
100
AcDbSpline
 62
7
  6
CONTINUOUS
 70
0
 71
3
 72
11
 73
7
 74
0
 42
0.0000001
 43
0.0000001
 44
0.0000000001
 40
0.0
 40
0.0
 40
0.0
 40
0.0
 40
0.220058334
 40
0.4557781708
 40
0.71578719
 40
1.0
 40
1.0
 40
1.0
 40
1.0
 10
132.5007634716
 20
87.878682265
 30
0.0
 10
132.6689889923
 20
88.170045426
 30
0.0
 10
132.8928777105
 20
88.8527722659
 30
0.0
 10
132.8219956796
 20
89.96572801
 30
0.0
 10
132.3835221775
 20
91.0907519453
 30
0.0
 10
131.892147426
 20
91.7730054388
 30
0.0
 10
131.6027992945
 20
92.0971801298
 30
0.0
  0
SPLINE
  5
4A7
100
AcDbEntity
  8
KONSTRUKTIONSELEMENTE
100
AcDbSpline
 62
7
  6
CONTINUOUS
 70
0
 71
3
 72
11
 73
7
 74
0
 42
0.0000001
 43
0.0000001
 44
0.0000000001
 40
0.0
 40
0.0
 40
0.0
 40
0.0
 40
0.2879904701
 40
0.5553442566
 40
0.7905170666
 40
1.0
 40
1.0
 40
1.0
 40
1.0
 10
65.6027949445
 20
62.3701283143
 30
0.0
 10
65.7701447492
 20
62.2735088595
 30
0.0
 10
66.1201458366
 20
62.1297747665
 30
0.0
 10
66.6563327843
 20
62.0765286818
 30
0.0
 10
67.1318785373
 20
62.2011536447
 30
0.0
 10
67.3618825923
 20
62.4169574954
 30
0.0
 10
67.432163136
 20
62.5386869679
 30
0.0
  0
SPLINE
  5
4A8
100
AcDbEntity
  8
KONSTRUKTIONSELEMENTE
100
AcDbSpline
 62
7
  6
CONTINUOUS
 70
0
 71
3
 72
11
 73
7
 74
0
 42
0.0000001
 43
0.0000001
 44
0.0000000001
 40
0.0
 40
0.0
 40
0.0
 40
0.0
 40
0.2820767698
 40
0.5407553301
 40
0.7772666753
 40
1.0
 40
1.0
 40
1.0
 40
1.0
 10
75.5243771763
 20
72.5381681159
 30
0.0
 10
75.212287014
 20
72.5815082465
 30
0.0
 10
74.6027575266
 20
72.604307613
 30
0.0
 10
73.7431015442
 20
72.4237920406
 30
0.0
 10
73.028022287
 20
72.0316105897
 30
0.0
 10
72.683085983
 20
71.6335521255
 30
0.0
 10
72.5586872996
 20
71.4180872855
 30
0.0
  0
SPLINE
  5
4A9
100
AcDbEntity
  8
KONSTRUKTIONSELEMENTE
100
AcDbSpline
 62
7
  6
CONTINUOUS
 70
0
 71
3
 72
11
 73
7
 74
0
 42
0.0000001
 43
0.0000001
 44
0.0000000001
 40
0.0
 40
0.0
 40
0.0
 40
0.0
 40
0.2808713938
 40
0.5389210953
 40
0.7759033082
 40
1.0
 40
1.0
 40
1.0
 40
1.0
 10
60.8346032868
 20
81.0424467373
 30
0.0
 10
61.0103569892
 20
80.800154756
 30
0.0
 10
61.3028691118
 20
80.2995994036
 30
0.0
 10
61.5410401035
 20
79.4980388939
 30
0.0
 10
61.5420234079
 20
78.7194194935
 30
0.0
 10
61.3735748258
 20
78.2449041924
 30
0.0
 10
61.2541652198
 20
78.0380806879
 30
0.0
  0
SPLINE
  5
4AA
100
AcDbEntity
  8
KONSTRUKTIONSELEMENTE
100
AcDbSpline
 62
7
  6
CONTINUOUS
 70
0
 71
3
 72
9
 73
5
 74
0
 42
0.0000001
 43
0.0000001
 44
0.0000000001
 40
0.0
 40
0.0
 40
0.0
 40
0.0
 40
0.5107012964
 40
1.0
 40
1.0
 40
1.0
 40
1.0
 10
55.4585744884
 20
120.0373544377
 30
0.0
 10
55.4537732627
 20
120.118092122
 30
0.0
 10
55.464524748
 20
120.278423725
 30
0.0
 10
55.5223473624
 20
120.4289289422
 30
0.0
 10
55.5611112142
 20
120.4960272453
 30
0.0
  0
SPLINE
  5
4AB
100
AcDbEntity
  8
KONSTRUKTIONSELEMENTE
100
AcDbSpline
 62
7
  6
CONTINUOUS
 70
0
 71
3
 72
11
 73
7
 74
0
 42
0.0000001
 43
0.0000001
 44
0.0000000001
 40
0.0
 40
0.0
 40
0.0
 40
0.0
 40
0.2231088723
 40
0.4658949299
 40
0.7265978581
 40
1.0
 40
1.0
 40
1.0
 40
1.0
 10
57.321576926
 20
85.4301261705
 30
0.0
 10
57.340824889
 20
85.1064513279
 30
0.0
 10
57.4846805327
 20
84.4347772986
 30
0.0
 10
57.9541033945
 20
83.4796874447
 30
0.0
 10
58.6543332091
 20
82.5850436811
 30
0.0
 10
59.2404289879
 20
82.0688408197
 30
0.0
 10
59.5598684425
 20
81.8325438498
 30
0.0
  0
SPLINE
  5
4AC
100
AcDbEntity
  8
KONSTRUKTIONSELEMENTE
100
AcDbSpline
 62
7
  6
CONTINUOUS
 70
0
 71
3
 72
13
 73
9
 74
0
 42
0.0000001
 43
0.0000001
 44
0.0000000001
 40
0.0
 40
0.0
 40
0.0
 40
0.0
 40
0.2198121251
 40
0.3415455497
 40
0.4695397045
 40
0.6018885822
 40
0.736224413
 40
1.0
 40
1.0
 40
1.0
 40
1.0
 10
117.4928572758
 20
90.0665727002
 30
0.0
 10
117.9705388055
 20
90.305744437
 30
0.0
 10
118.8109325835
 20
90.4911852102
 30
0.0
 10
119.9526304271
 20
90.4433727626
 30
0.0
 10
120.8670125303
 20
90.2586217886
 30
0.0
 10
121.7724261415
 20
89.9319184398
 30
0.0
 10
122.9149898421
 20
89.3295249408
 30
0.0
 10
123.6754487859
 20
88.7035055607
 30
0.0
 10
124.1023262241
 20
88.2252482419
 30
0.0
  0
SPLINE
  5
4AD
100
AcDbEntity
  8
KONSTRUKTIONSELEMENTE
100
AcDbSpline
 62
7
  6
CONTINUOUS
 70
0
 71
3
 72
11
 73
7
 74
0
 42
0.0000001
 43
0.0000001
 44
0.0000000001
 40
0.0
 40
0.0
 40
0.0
 40
0.0
 40
0.220058334
 40
0.4557781708
 40
0.71578719
 40
1.0
 40
1.0
 40
1.0
 40
1.0
 10
130.7329965187
 20
84.8168200866
 30
0.0
 10
130.9012220394
 20
85.1081832475
 30
0.0
 10
131.1251107575
 20
85.7909100874
 30
0.0
 10
131.0542287266
 20
86.9038658315
 30
0.0
 10
130.6157552245
 20
88.0288897668
 30
0.0
 10
130.1243804731
 20
88.7111432604
 30
0.0
 10
129.8350323415
 20
89.0353179513
 30
0.0
  0
SPLINE
  5
4AE
100
AcDbEntity
  8
KONSTRUKTIONSELEMENTE
100
AcDbSpline
 62
7
  6
CONTINUOUS
 70
0
 71
3
 72
9
 73
5
 74
0
 42
0.0000001
 43
0.0000001
 44
0.0000000001
 40
0.0
 40
0.0
 40
0.0
 40
0.0
 40
0.5328609796
 40
1.0
 40
1.0
 40
1.0
 40
1.0
 10
61.554333431
 20
118.3908991439
 30
0.0
 10
61.7278577785
 20
118.3548025597
 30
0.0
 10
62.065992255
 20
118.3318646425
 30
0.0
 10
62.394583682
 20
118.4373848809
 30
0.0
 10
62.525243157
 20
118.5214720106
 30
0.0
  0
SPLINE
  5
4AF
100
AcDbEntity
  8
KONSTRUKTIONSELEMENTE
100
AcDbSpline
 62
7
  6
CONTINUOUS
 70
0
 71
3
 72
8
 73
4
 74
0
 42
0.0000001
 43
0.0000001
 44
0.0000000001
 40
0.0
 40
0.0
 40
0.0
 40
0.0
 40
1.0
 40
1.0
 40
1.0
 40
1.0
 10
62.525243157
 20
118.5214720106
 30
0.0
 10
62.573535423
 20
118.5525509509
 30
0.0
 10
62.6190749815
 20
118.5885385091
 30
0.0
 10
62.6599578574
 20
118.6288700593
 30
0.0
  0
SPLINE
  5
4B0
100
AcDbEntity
  8
KONSTRUKTIONSELEMENTE
100
AcDbSpline
 62
7
  6
CONTINUOUS
 70
0
 71
3
 72
11
 73
7
 74
0
 42
0.0000001
 43
0.0000001
 44
0.0000000001
 40
0.0
 40
0.0
 40
0.0
 40
0.0
 40
0.2816064552
 40
0.5417085427
 40
0.7793419382
 40
1.0
 40
1.0
 40
1.0
 40
1.0
 10
61.4631935116
 20
119.9235132197
 30
0.0
 10
61.5800583465
 20
119.8992029635
 30
0.0
 10
61.8102880497
 20
119.8739748818
 30
0.0
 10
62.1416096375
 20
119.913329204
 30
0.0
 10
62.4273827815
 20
120.030516233
 30
0.0
 10
62.5770108793
 20
120.1616680424
 30
0.0
 10
62.6346706564
 20
120.2353129514
 30
0.0
  0
SPLINE
  5
4B1
100
AcDbEntity
  8
BEZUGSACHSEN
100
AcDbSpline
 62
7
  6
CONTINUOUS
 70
0
 71
3
 72
9
 73
5
 74
0
 42
0.0000001
 43
0.0000001
 44
0.0000000001
 40
0.0
 40
0.0
 40
0.0
 40
0.0
 40
0.2459387646
 40
1.0
 40
1.0
 40
1.0
 40
1.0
 10
101.3803428481
 20
120.9148746779
 30
0.0
 10
101.1421614394
 20
121.1817241099
 30
0.0
 10
100.1441362233
 20
122.2401009402
 30
0.0
 10
99.0341004757
 20
123.1919463542
 30
0.0
 10
98.1512362065
 20
123.8425339886
 30
0.0
  0
SPLINE
  5
4B2
100
AcDbEntity
  8
BEZUGSACHSEN
100
AcDbSpline
 62
7
  6
CONTINUOUS
 70
0
 71
3
 72
9
 73
5
 74
0
 42
0.0000001
 43
0.0000001
 44
0.0000000001
 40
0.0
 40
0.0
 40
0.0
 40
0.0
 40
0.2536983179
 40
1.0
 40
1.0
 40
1.0
 40
1.0
 10
93.8183826809
 20
126.344108138
 30
0.0
 10
93.4803120616
 20
126.4919009538
 30
0.0
 10
92.1335440646
 20
127.041182986
 30
0.0
 10
90.7310318509
 20
127.4557183061
 30
0.0
 10
89.6684020234
 20
127.6767668658
 30
0.0
  0
SPLINE
  5
4B3
100
AcDbEntity
  8
KONSTRUKTIONSELEMENTE
100
AcDbSpline
 62
7
  6
CONTINUOUS
 70
0
 71
3
 72
10
 73
6
 74
0
 42
0.0000001
 43
0.0000001
 44
0.0000000001
 40
0.0
 40
0.0
 40
0.0
 40
0.0
 40
0.2210513433
 40
0.4578290806
 40
1.0
 40
1.0
 40
1.0
 40
1.0
 10
92.9716847127
 20
65.4756966737
 30
0.0
 10
92.9885099197
 20
65.5048348377
 30
0.0
 10
93.0109024117
 20
65.5731464999
 30
0.0
 10
93.0011320189
 20
65.727684326
 30
0.0
 10
92.9368615769
 20
65.8360095581
 30
0.0
 10
92.8819080326
 20
65.8975774284
 30
0.0
  0
SPLINE
  5
4B4
100
AcDbEntity
  8
BEZUGSACHSEN
100
AcDbSpline
 62
7
  6
CONTINUOUS
 70
0
 71
3
 72
19
 73
15
 74
0
 42
0.0000001
 43
0.0000001
 44
0.0000000001
 40
0.0
 40
0.0
 40
0.0
 40
0.0
 40
0.0517234907
 40
0.1053372095
 40
0.1622487312
 40
0.2232163938
 40
0.3564752704
 40
0.5
 40
0.6435247296
 40
0.7767836062
 40
0.8377512688
 40
0.8946627905
 40
0.9482765093
 40
1.0
 40
1.0
 40
1.0
 40
1.0
 10
97.2819814437
 20
116.3400888734
 30
0.0
 10
97.1543183516
 20
116.1189699117
 30
0.0
 10
96.8287905984
 20
115.7034404664
 30
0.0
 10
96.1772267665
 20
115.2232704028
 30
0.0
 10
95.3880337209
 20
114.8968921357
 30
0.0
 10
94.1610971838
 20
114.6729094549
 30
0.0
 10
92.4686138757
 20
114.8414033581
 30
0.0
 10
90.5264613257
 20
115.6391847976
 30
0.0
 10
88.8644860575
 20
116.9222475241
 30
0.0
 10
87.8723244029
 20
118.3037341129
 30
0.0
 10
87.452830826
 20
119.4782836632
 30
0.0
 10
87.3408861737
 20
120.3249340228
 30
0.0
 10
87.4309437309
 20
121.1292898851
 30
0.0
 10
87.62803891
 20
121.6189699117
 30
0.0
 10
87.755702002
 20
121.8400888734
 30
0.0
  0
SPLINE
  5
4B5
100
AcDbEntity
  8
KONSTRUKTIONSELEMENTE
100
AcDbSpline
 62
7
  6
CONTINUOUS
 70
0
 71
3
 72
11
 73
7
 74
0
 42
0.0000001
 43
0.0000001
 44
0.0000000001
 40
0.0
 40
0.0
 40
0.0
 40
0.0
 40
0.2200436456
 40
0.4557793627
 40
0.7157728079
 40
1.0
 40
1.0
 40
1.0
 40
1.0
 10
55.5611112142
 20
120.4960272453
 30
0.0
 10
55.6115885573
 20
120.5834010204
 30
0.0
 10
55.755417241
 20
120.7438904883
 30
0.0
 10
56.0551539692
 20
120.8923423138
 30
0.0
 10
56.413155115
 20
120.947161152
 30
0.0
 10
56.664067217
 20
120.9218288395
 30
0.0
 10
56.7916750786
 20
120.8952838158
 30
0.0
  0
SPLINE
  5
4B6
100
AcDbEntity
  8
KONSTRUKTIONSELEMENTE
100
AcDbSpline
 62
7
  6
CONTINUOUS
 70
0
 71
3
 72
11
 73
7
 74
0
 42
0.0000001
 43
0.0000001
 44
0.0000000001
 40
0.0
 40
0.0
 40
0.0
 40
0.0
 40
0.2842240174
 40
0.5442187073
 40
0.779940343
 40
1.0
 40
1.0
 40
1.0
 40
1.0
 10
59.0441955291
 20
134.0472230301
 30
0.0
 10
58.6187569808
 20
134.1357228782
 30
0.0
 10
57.7822143267
 20
134.2201337086
 30
0.0
 10
56.5886758607
 20
134.0373371395
 30
0.0
 10
55.589384097
 20
133.5422361411
 30
0.0
 10
55.1101120388
 20
133.0069391899
 30
0.0
 10
54.9418720282
 20
132.715578234
 30
0.0
  0
SPLINE
  5
4B7
100
AcDbEntity
  8
KONSTRUKTIONSELEMENTE
100
AcDbSpline
 62
7
  6
CONTINUOUS
 70
0
 71
3
 72
11
 73
7
 74
0
 42
0.0000001
 43
0.0000001
 44
0.0000000001
 40
0.0
 40
0.0
 40
0.0
 40
0.0
 40
0.2842271921
 40
0.5442206373
 40
0.7799563544
 40
1.0
 40
1.0
 40
1.0
 40
1.0
 10
61.3775567358
 20
118.0847129261
 30
0.0
 10
61.5051645974
 20
118.0581679023
 30
0.0
 10
61.7560766994
 20
118.0328355898
 30
0.0
 10
62.1140778451
 20
118.0876544281
 30
0.0
 10
62.4138145734
 20
118.2361062536
 30
0.0
 10
62.5576432571
 20
118.3965957215
 30
0.0
 10
62.6081206002
 20
118.4839694966
 30
0.0
  0
SPLINE
  5
4B8
100
AcDbEntity
  8
KONSTRUKTIONSELEMENTE
100
AcDbSpline
 62
7
  6
CONTINUOUS
 70
0
 71
3
 72
11
 73
7
 74
0
 42
0.0000001
 43
0.0000001
 44
0.0000000001
 40
0.0
 40
0.0
 40
0.0
 40
0.0
 40
0.2842268035
 40
0.5442239761
 40
0.7799400332
 40
1.0
 40
1.0
 40
1.0
 40
1.0
 10
88.7513696215
 20
70.5252762693
 30
0.0
 10
88.4620117444
 20
70.8494618788
 30
0.0
 10
87.9706444302
 20
71.5317114513
 30
0.0
 10
87.5321882047
 20
72.6567128422
 30
0.0
 10
87.4612910358
 20
73.7696381892
 30
0.0
 10
87.6851993291
 20
74.4523306994
 30
0.0
 10
87.8533867701
 20
74.7437126833
 30
0.0
  0
SPLINE
  5
4B9
100
AcDbEntity
  8
KONSTRUKTIONSELEMENTE
100
AcDbSpline
 62
7
  6
CONTINUOUS
 70
0
 71
3
 72
9
 73
5
 74
0
 42
0.0000001
 43
0.0000001
 44
0.0000000001
 40
0.0
 40
0.0
 40
0.0
 40
0.0
 40
0.5037350338
 40
1.0
 40
1.0
 40
1.0
 40
1.0
 10
121.9207489393
 20
140.4460054212
 30
0.0
 10
121.6086691605
 20
140.2297858298
 30
0.0
 10
121.0212954591
 20
139.7494015581
 30
0.0
 10
120.5559720005
 20
139.1448124335
 30
0.0
 10
120.3689551217
 20
138.8208896974
 30
0.0
  0
SPLINE
  5
4BA
100
AcDbEntity
  8
KONSTRUKTIONSELEMENTE
100
AcDbSpline
 62
7
  6
CONTINUOUS
 70
0
 71
3
 72
9
 73
5
 74
0
 42
0.0000001
 43
0.0000001
 44
0.0000000001
 40
0.0
 40
0.0
 40
0.0
 40
0.0
 40
0.500127309
 40
1.0
 40
1.0
 40
1.0
 40
1.0
 10
97.6334090831
 20
157.5184599906
 30
0.0
 10
97.9792683064
 20
157.7900968122
 30
0.0
 10
98.6331157733
 20
158.3849349237
 30
0.0
 10
99.1594956581
 20
159.099049464
 30
0.0
 10
99.3792729816
 20
159.4797149547
 30
0.0
  0
SPLINE
  5
4BB
100
AcDbEntity
  8
KONSTRUKTIONSELEMENTE
100
AcDbSpline
 62
7
  6
CONTINUOUS
 70
0
 71
3
 72
9
 73
5
 74
0
 42
0.0000001
 43
0.0000001
 44
0.0000000001
 40
0.0
 40
0.0
 40
0.0
 40
0.0
 40
0.499872691
 40
1.0
 40
1.0
 40
1.0
 40
1.0
 10
124.0670683292
 20
145.226209665
 30
0.0
 10
123.8472910057
 20
144.8455441743
 30
0.0
 10
123.492039615
 20
144.0326285519
 30
0.0
 10
123.3038184328
 20
143.1689609797
 30
0.0
 10
123.2415036563
 20
142.7336196954
 30
0.0
  0
SPLINE
  5
4BC
100
AcDbEntity
  8
KONSTRUKTIONSELEMENTE
100
AcDbSpline
 62
7
  6
CONTINUOUS
 70
0
 71
3
 72
9
 73
5
 74
0
 42
0.0000001
 43
0.0000001
 44
0.0000000001
 40
0.0
 40
0.0
 40
0.0
 40
0.0
 40
0.4962649662
 40
1.0
 40
1.0
 40
1.0
 40
1.0
 10
95.6811597741
 20
153.074394987
 30
0.0
 10
95.8681766529
 20
153.3983177231
 30
0.0
 10
96.1591044644
 20
154.1035942216
 30
0.0
 10
96.2814425966
 20
154.8524669043
 30
0.0
 10
96.3126543661
 20
155.2308457164
 30
0.0
  0
SPLINE
  5
4BD
100
AcDbEntity
  8
KONSTRUKTIONSELEMENTE
100
AcDbSpline
 62
7
  6
CONTINUOUS
 70
0
 71
3
 72
11
 73
7
 74
0
 42
0.0000001
 43
0.0000001
 44
0.0000000001
 40
0.0
 40
0.0
 40
0.0
 40
0.0
 40
0.2551631889
 40
0.5065184691
 40
0.7542163689
 40
1.0
 40
1.0
 40
1.0
 40
1.0
 10
102.7094000005
 20
165.2476641471
 30
0.0
 10
102.8423303978
 20
165.477906349
 30
0.0
 10
103.1966902401
 20
165.8874342786
 30
0.0
 10
103.8847924768
 20
166.2873162893
 30
0.0
 10
104.6342360811
 20
166.5079904848
 30
0.0
 10
105.1471574876
 20
166.5664540347
 30
0.0
 10
105.4029226195
 20
166.5793094839
 30
0.0
  0
SPLINE
  5
4BE
100
AcDbEntity
  8
KONSTRUKTIONSELEMENTE
100
AcDbSpline
 62
7
  6
CONTINUOUS
 70
0
 71
3
 72
11
 73
7
 74
0
 42
0.0000001
 43
0.0000001
 44
0.0000000001
 40
0.0
 40
0.0
 40
0.0
 40
0.0
 40
0.2457861969
 40
0.4934867763
 40
0.7448413997
 40
1.0
 40
1.0
 40
1.0
 40
1.0
 10
127.2036727292
 20
153.9926405396
 30
0.0
 10
127.3204233672
 20
153.764711336
 30
0.0
 10
127.5262551005
 20
153.2912714183
 30
0.0
 10
127.7098661445
 20
152.5318916237
 30
0.0
 10
127.7076043362
 20
151.7360392887
 30
0.0
 10
127.5301233538
 20
151.224396917
 30
0.0
 10
127.3971953481
 20
150.9941588575
 30
0.0
  0
SPLINE
  5
4BF
100
AcDbEntity
  8
KONSTRUKTIONSELEMENTE
100
AcDbSpline
 62
7
  6
CONTINUOUS
 70
0
 71
3
 72
10
 73
6
 74
0
 42
0.0000001
 43
0.0000001
 44
0.0000000001
 40
0.0
 40
0.0
 40
0.0
 40
0.0
 40
0.2350471841
 40
0.4823710211
 40
1.0
 40
1.0
 40
1.0
 40
1.0
 10
96.3126543661
 20
155.2308457164
 30
0.0
 10
96.33008921
 20
155.4422075078
 30
0.0
 10
96.4162990215
 20
155.8734310587
 30
0.0
 10
96.7868920548
 20
156.7022790457
 30
0.0
 10
97.2661032143
 20
157.2299790363
 30
0.0
 10
97.6334090831
 20
157.5184599906
 30
0.0
  0
SPLINE
  5
4C0
100
AcDbEntity
  8
KONSTRUKTIONSELEMENTE
100
AcDbSpline
 62
7
  6
CONTINUOUS
 70
0
 71
3
 72
10
 73
6
 74
0
 42
0.0000001
 43
0.0000001
 44
0.0000000001
 40
0.0
 40
0.0
 40
0.0
 40
0.0
 40
0.5176289789
 40
0.7649528159
 40
1.0
 40
1.0
 40
1.0
 40
1.0
 10
123.2415036563
 20
142.7336196954
 30
0.0
 10
123.1753247557
 20
142.2712830048
 30
0.0
 10
122.957928738
 20
141.5924239716
 30
0.0
 10
122.4254218421
 20
140.8570569968
 30
0.0
 10
122.095076198
 20
140.5667853346
 30
0.0
 10
121.9207489393
 20
140.4460054212
 30
0.0
  0
SPLINE
  5
4C1
100
AcDbEntity
  8
BEZUGSACHSEN
100
AcDbSpline
 62
7
  6
CONTINUOUS
 70
0
 71
3
 72
10
 73
6
 74
0
 42
0.0000001
 43
0.0000001
 44
0.0000000001
 40
0.0
 40
0.0
 40
0.0
 40
0.0
 40
0.5176289789
 40
0.7649528159
 40
1.0
 40
1.0
 40
1.0
 40
1.0
 10
307.1048376546
 20
142.7336196954
 30
0.0
 10
307.1710165551
 20
142.2712830048
 30
0.0
 10
307.3884125728
 20
141.5924239716
 30
0.0
 10
307.9209194687
 20
140.8570569968
 30
0.0
 10
308.2512651128
 20
140.5667853346
 30
0.0
 10
308.4255923715
 20
140.4460054212
 30
0.0
  0
SPLINE
  5
4C2
100
AcDbEntity
  8
BEZUGSACHSEN
100
AcDbSpline
 62
7
  6
CONTINUOUS
 70
0
 71
3
 72
10
 73
6
 74
0
 42
0.0000001
 43
0.0000001
 44
0.0000000001
 40
0.0
 40
0.0
 40
0.0
 40
0.0
 40
0.2350471841
 40
0.4823710211
 40
1.0
 40
1.0
 40
1.0
 40
1.0
 10
334.0336869447
 20
155.2308457164
 30
0.0
 10
334.0162521008
 20
155.4422075078
 30
0.0
 10
333.9300422893
 20
155.8734310587
 30
0.0
 10
333.559449256
 20
156.7022790457
 30
0.0
 10
333.0802380965
 20
157.2299790363
 30
0.0
 10
332.7129322277
 20
157.5184599906
 30
0.0
  0
SPLINE
  5
4C3
100
AcDbEntity
  8
BEZUGSACHSEN
100
AcDbSpline
 62
7
  6
CONTINUOUS
 70
0
 71
3
 72
11
 73
7
 74
0
 42
0.0000001
 43
0.0000001
 44
0.0000000001
 40
0.0
 40
0.0
 40
0.0
 40
0.0
 40
0.2457861969
 40
0.4934867763
 40
0.7448413997
 40
1.0
 40
1.0
 40
1.0
 40
1.0
 10
303.1426685817
 20
153.9926405396
 30
0.0
 10
303.0259179436
 20
153.764711336
 30
0.0
 10
302.8200862103
 20
153.2912714183
 30
0.0
 10
302.6364751663
 20
152.5318916237
 30
0.0
 10
302.6387369746
 20
151.7360392887
 30
0.0
 10
302.816217957
 20
151.224396917
 30
0.0
 10
302.9491459627
 20
150.9941588575
 30
0.0
  0
SPLINE
  5
4C4
100
AcDbEntity
  8
BEZUGSACHSEN
100
AcDbSpline
 62
7
  6
CONTINUOUS
 70
0
 71
3
 72
11
 73
7
 74
0
 42
0.0000001
 43
0.0000001
 44
0.0000000001
 40
0.0
 40
0.0
 40
0.0
 40
0.0
 40
0.2551631889
 40
0.5065184691
 40
0.7542163689
 40
1.0
 40
1.0
 40
1.0
 40
1.0
 10
327.6369413103
 20
165.2476641471
 30
0.0
 10
327.504010913
 20
165.477906349
 30
0.0
 10
327.1496510707
 20
165.8874342786
 30
0.0
 10
326.461548834
 20
166.2873162893
 30
0.0
 10
325.7121052297
 20
166.5079904848
 30
0.0
 10
325.1991838232
 20
166.5664540347
 30
0.0
 10
324.9434186913
 20
166.5793094839
 30
0.0
  0
SPLINE
  5
4C5
100
AcDbEntity
  8
BEZUGSACHSEN
100
AcDbSpline
 62
7
  6
CONTINUOUS
 70
0
 71
3
 72
9
 73
5
 74
0
 42
0.0000001
 43
0.0000001
 44
0.0000000001
 40
0.0
 40
0.0
 40
0.0
 40
0.0
 40
0.499872691
 40
1.0
 40
1.0
 40
1.0
 40
1.0
 10
306.2792729816
 20
145.226209665
 30
0.0
 10
306.4990503051
 20
144.8455441743
 30
0.0
 10
306.8543016958
 20
144.0326285519
 30
0.0
 10
307.042522878
 20
143.1689609797
 30
0.0
 10
307.1048376546
 20
142.7336196954
 30
0.0
  0
SPLINE
  5
4C6
100
AcDbEntity
  8
BEZUGSACHSEN
100
AcDbSpline
 62
7
  6
CONTINUOUS
 70
0
 71
3
 72
9
 73
5
 74
0
 42
0.0000001
 43
0.0000001
 44
0.0000000001
 40
0.0
 40
0.0
 40
0.0
 40
0.0
 40
0.500127309
 40
1.0
 40
1.0
 40
1.0
 40
1.0
 10
332.7129322277
 20
157.5184599906
 30
0.0
 10
332.3670730044
 20
157.7900968122
 30
0.0
 10
331.7132255375
 20
158.3849349237
 30
0.0
 10
331.1868456527
 20
159.099049464
 30
0.0
 10
330.9670683292
 20
159.4797149547
 30
0.0
  0
SPLINE
  5
4C7
100
AcDbEntity
  8
BEZUGSACHSEN
100
AcDbSpline
 62
7
  6
CONTINUOUS
 70
0
 71
3
 72
9
 73
5
 74
0
 42
0.0000001
 43
0.0000001
 44
0.0000000001
 40
0.0
 40
0.0
 40
0.0
 40
0.0
 40
0.5037350338
 40
1.0
 40
1.0
 40
1.0
 40
1.0
 10
308.4255923715
 20
140.4460054212
 30
0.0
 10
308.7376721503
 20
140.2297858298
 30
0.0
 10
309.3250458517
 20
139.7494015581
 30
0.0
 10
309.7903693103
 20
139.1448124335
 30
0.0
 10
309.9773861892
 20
138.8208896974
 30
0.0
  0
SPLINE
  5
4C8
100
AcDbEntity
  8
BEZUGSACHSEN
100
AcDbSpline
 62
7
  6
CONTINUOUS
 70
0
 71
3
 72
9
 73
5
 74
0
 42
0.0000001
 43
0.0000001
 44
0.0000000001
 40
0.0
 40
0.0
 40
0.0
 40
0.0
 40
0.4962649662
 40
1.0
 40
1.0
 40
1.0
 40
1.0
 10
334.6651815367
 20
153.074394987
 30
0.0
 10
334.4781646579
 20
153.3983177231
 30
0.0
 10
334.1872368464
 20
154.1035942216
 30
0.0
 10
334.0648987142
 20
154.8524669043
 30
0.0
 10
334.0336869447
 20
155.2308457164
 30
0.0
  0
SPLINE
  5
4C9
100
AcDbEntity
  8
KONSTRUKTIONSELEMENTE
100
AcDbSpline
 62
7
  6
CONTINUOUS
 70
0
 71
3
 72
9
 73
5
 74
0
 42
0.0000001
 43
0.0000001
 44
0.0000000001
 40
0.0
 40
0.0
 40
0.0
 40
0.0
 40
0.272606519
 40
1.0
 40
1.0
 40
1.0
 40
1.0
 10
527.323643251
 20
182.0055030939
 30
0.0
 10
527.3284330833
 20
182.0272799824
 30
0.0
 10
527.3504996893
 20
182.1059164212
 30
0.0
 10
527.3964034472
 20
182.1792518703
 30
0.0
 10
527.441420749
 20
182.2181519966
 30
0.0
  0
SPLINE
  5
4CA
100
AcDbEntity
  8
KONSTRUKTIONSELEMENTE
100
AcDbSpline
 62
7
  6
CONTINUOUS
 70
0
 71
3
 72
9
 73
5
 74
0
 42
0.0000001
 43
0.0000001
 44
0.0000000001
 40
0.0
 40
0.0
 40
0.0
 40
0.0
 40
0.546991612
 40
1.0
 40
1.0
 40
1.0
 40
1.0
 10
530.4908006606
 20
178.4902151359
 30
0.0
 10
530.4908006606
 20
178.4186296973
 30
0.0
 10
530.4758954417
 20
178.285741001
 30
0.0
 10
530.4030582482
 20
178.1690893081
 30
0.0
 10
530.3582000568
 20
178.1303266715
 30
0.0
  0
SPLINE
  5
4CB
100
AcDbEntity
  8
KONSTRUKTIONSELEMENTE
100
AcDbSpline
 62
7
  6
CONTINUOUS
 70
0
 71
3
 72
9
 73
5
 74
0
 42
0.0000001
 43
0.0000001
 44
0.0000000001
 40
0.0
 40
0.0
 40
0.0
 40
0.0
 40
0.4714729988
 40
1.0
 40
1.0
 40
1.0
 40
1.0
 10
530.7117534474
 20
178.4365128894
 30
0.0
 10
530.6803822296
 20
178.409404549
 30
0.0
 10
530.6011354691
 20
178.3657495802
 30
0.0
 10
530.5126718553
 20
178.3528019414
 30
0.0
 10
530.4662188418
 20
178.3512689828
 30
0.0
  0
SPLINE
  5
4CC
100
AcDbEntity
  8
KONSTRUKTIONSELEMENTE
100
AcDbSpline
 62
7
  6
CONTINUOUS
 70
0
 71
3
 72
9
 73
5
 74
0
 42
0.0000001
 43
0.0000001
 44
0.0000000001
 40
0.0
 40
0.0
 40
0.0
 40
0.0
 40
0.4820003923
 40
1.0
 40
1.0
 40
1.0
 40
1.0
 10
539.2214329832
 20
179.258775807
 30
0.0
 10
539.2212468169
 20
179.1027100781
 30
0.0
 10
539.1791596031
 20
178.7777443901
 30
0.0
 10
539.0563956931
 20
178.4740062788
 30
0.0
 10
538.9759086245
 20
178.3268584518
 30
0.0
  0
SPLINE
  5
4CD
100
AcDbEntity
  8
KONSTRUKTIONSELEMENTE
100
AcDbSpline
 62
7
  6
CONTINUOUS
 70
0
 71
3
 72
9
 73
5
 74
0
 42
0.0000001
 43
0.0000001
 44
0.0000000001
 40
0.0
 40
0.0
 40
0.0
 40
0.0
 40
0.2343643836
 40
1.0
 40
1.0
 40
1.0
 40
1.0
 10
538.9438584033
 20
178.2702488196
 30
0.0
 10
538.9104504678
 20
178.2131876326
 30
0.0
 10
538.7573126673
 20
177.9760000945
 30
0.0
 10
538.5633963066
 20
177.7657733361
 30
0.0
 10
538.4001080298
 20
177.6243615403
 30
0.0
  0
SPLINE
  5
4CE
100
AcDbEntity
  8
KONSTRUKTIONSELEMENTE
100
AcDbSpline
 62
7
  6
CONTINUOUS
 70
0
 71
3
 72
9
 73
5
 74
0
 42
0.0000001
 43
0.0000001
 44
0.0000000001
 40
0.0
 40
0.0
 40
0.0
 40
0.0
 40
0.4959270657
 40
1.0
 40
1.0
 40
1.0
 40
1.0
 10
530.2683800462
 20
184.6666445508
 30
0.0
 10
530.8905004803
 20
185.2054166509
 30
0.0
 10
532.3217349415
 20
186.0999559415
 30
0.0
 10
533.94545325
 20
186.5469123089
 30
0.0
 10
534.7747453764
 20
186.656533711
 30
0.0
  0
SPLINE
  5
4CF
100
AcDbEntity
  8
KONSTRUKTIONSELEMENTE
100
AcDbSpline
 62
7
  6
CONTINUOUS
 70
0
 71
3
 72
11
 73
7
 74
0
 42
0.0000001
 43
0.0000001
 44
0.0000000001
 40
0.0
 40
0.0
 40
0.0
 40
0.0
 40
0.2544415708
 40
0.5052707429
 40
0.7533584052
 40
1.0
 40
1.0
 40
1.0
 40
1.0
 10
540.7985461204
 20
185.3255544663
 30
0.0
 10
541.313013102
 20
184.9896291589
 30
0.0
 10
542.2640875387
 20
184.2051096734
 30
0.0
 10
543.3651471423
 20
182.7347637989
 30
0.0
 10
544.0614492268
 20
181.0538571004
 30
0.0
 10
544.2205950984
 20
179.8534555023
 30
0.0
 10
544.2208664859
 20
179.2578627703
 30
0.0
  0
SPLINE
  5
4D0
100
AcDbEntity
  8
KONSTRUKTIONSELEMENTE
100
AcDbSpline
 62
7
  6
CONTINUOUS
 70
0
 71
3
 72
11
 73
7
 74
0
 42
0.0000001
 43
0.0000001
 44
0.0000000001
 40
0.0
 40
0.0
 40
0.0
 40
0.0
 40
0.2474803687
 40
0.4959793074
 40
0.7466457809
 40
1.0
 40
1.0
 40
1.0
 40
1.0
 10
544.2208664859
 20
179.2578627703
 30
0.0
 10
544.2210980151
 20
178.7497437907
 30
0.0
 10
544.1060061441
 20
177.7278117345
 30
0.0
 10
543.5988515309
 20
176.2685278094
 30
0.0
 10
542.7841600801
 20
174.9424038281
 30
0.0
 10
542.066594777
 20
174.1852539283
 30
0.0
 10
541.6733763834
 20
173.8447168102
 30
0.0
  0
SPLINE
  5
4D1
100
AcDbEntity
  8
KONSTRUKTIONSELEMENTE
100
AcDbSpline
 62
7
  6
CONTINUOUS
 70
0
 71
3
 72
9
 73
5
 74
0
 42
0.0000001
 43
0.0000001
 44
0.0000000001
 40
0.0
 40
0.0
 40
0.0
 40
0.0
 40
0.5226045408
 40
1.0
 40
1.0
 40
1.0
 40
1.0
 10
538.9254920646
 20
180.2717896239
 30
0.0
 10
539.021353338
 20
180.1128953857
 30
0.0
 10
539.1691252051
 20
179.7849016711
 30
0.0
 10
539.2216351964
 20
179.4282938596
 30
0.0
 10
539.2214329832
 20
179.258775807
 30
0.0
  0
SPLINE
  5
4D2
100
AcDbEntity
  8
KONSTRUKTIONSELEMENTE
100
AcDbSpline
 62
7
  6
CONTINUOUS
 70
0
 71
3
 72
9
 73
5
 74
0
 42
0.0000001
 43
0.0000001
 44
0.0000000001
 40
0.0
 40
0.0
 40
0.0
 40
0.0
 40
0.4872963705
 40
1.0
 40
1.0
 40
1.0
 40
1.0
 10
532.3897003898
 20
172.4191958369
 30
0.0
 10
531.8418821889
 20
171.9447713582
 30
0.0
 10
530.3578293203
 20
171.3768167371
 30
0.0
 10
528.8043352108
 20
171.6551416124
 30
0.0
 10
528.1304210522
 20
172.0118152736
 30
0.0
  0
SPLINE
  5
4D3
100
AcDbEntity
  8
KONSTRUKTIONSELEMENTE
100
AcDbSpline
 62
7
  6
CONTINUOUS
 70
0
 71
3
 72
11
 73
7
 74
0
 42
0.0000001
 43
0.0000001
 44
0.0000000001
 40
0.0
 40
0.0
 40
0.0
 40
0.0
 40
0.2474803687
 40
0.4959793074
 40
0.7466457809
 40
1.0
 40
1.0
 40
1.0
 40
1.0
 10
521.7104823036
 20
174.0483328873
 30
0.0
 10
521.7102507744
 20
174.5564518669
 30
0.0
 10
521.8253426454
 20
175.5783839231
 30
0.0
 10
522.3324972586
 20
177.0376678482
 30
0.0
 10
523.1471887094
 20
178.3637918295
 30
0.0
 10
523.8647540125
 20
179.1209417293
 30
0.0
 10
524.2579724061
 20
179.4614788474
 30
0.0
  0
SPLINE
  5
4D4
100
AcDbEntity
  8
KONSTRUKTIONSELEMENTE
100
AcDbSpline
 62
7
  6
CONTINUOUS
 70
0
 71
3
 72
15
 73
11
 74
0
 42
0.0000001
 43
0.0000001
 44
0.0000000001
 40
0.0
 40
0.0
 40
0.0
 40
0.0
 40
0.12323614
 40
0.2480335987
 40
0.373900227
 40
0.5003927364
 40
0.6268181839
 40
0.7525256837
 40
0.877011671
 40
1.0
 40
1.0
 40
1.0
 40
1.0
 10
535.6629687433
 20
168.6395511068
 30
0.0
 10
535.2699706398
 20
168.2992047655
 30
0.0
 10
534.4092529057
 20
167.6909602615
 30
0.0
 10
532.966788898
 20
167.0322592107
 30
0.0
 10
531.4159662805
 20
166.6401160899
 30
0.0
 10
529.8139696634
 20
166.5251440946
 30
0.0
 10
528.2170656191
 20
166.6910341331
 30
0.0
 10
526.682012962
 20
167.132977316
 30
0.0
 10
525.264807592
 20
167.8378406114
 30
0.0
 10
524.4278074187
 20
168.4746480551
 30
0.0
 10
524.0479694535
 20
168.8280887854
 30
0.0
  0
SPLINE
  5
4D5
100
AcDbEntity
  8
KONSTRUKTIONSELEMENTE
100
AcDbSpline
 62
7
  6
CONTINUOUS
 70
0
 71
3
 72
9
 73
5
 74
0
 42
0.0000001
 43
0.0000001
 44
0.0000000001
 40
0.0
 40
0.0
 40
0.0
 40
0.0
 40
0.4702695548
 40
1.0
 40
1.0
 40
1.0
 40
1.0
 10
527.0878673584
 20
181.9119657788
 30
0.0
 10
527.1200447212
 20
181.939770721
 30
0.0
 10
527.2018988903
 20
181.9842491093
 30
0.0
 10
527.2930635833
 20
181.9964329102
 30
0.0
 10
527.3409570663
 20
181.9974113089
 30
0.0
  0
SPLINE
  5
4D6
100
AcDbEntity
  8
KONSTRUKTIONSELEMENTE
100
AcDbSpline
 62
7
  6
CONTINUOUS
 70
0
 71
3
 72
15
 73
11
 74
0
 42
0.0000001
 43
0.0000001
 44
0.0000000001
 40
0.0
 40
0.0
 40
0.0
 40
0.0
 40
0.082699247
 40
0.1957940838
 40
0.333737466
 40
0.4862052534
 40
0.6408263759
 40
0.7848058501
 40
0.9071588123
 40
1.0
 40
1.0
 40
1.0
 40
1.0
 10
527.3409570663
 20
181.9974113089
 30
0.0
 10
527.4772811771
 20
182.0001962251
 30
0.0
 10
527.7975555175
 20
181.9090984282
 30
0.0
 10
528.2760397864
 20
181.6365916743
 30
0.0
 10
528.8000122952
 20
181.2221249905
 30
0.0
 10
529.3190297383
 20
180.701713839
 30
0.0
 10
529.7867417036
 20
180.1218207878
 30
0.0
 10
530.1611042443
 20
179.5346551915
 30
0.0
 10
530.4078779086
 20
178.9954857099
 30
0.0
 10
530.4908006606
 20
178.6432894807
 30
0.0
 10
530.4908006606
 20
178.4902151359
 30
0.0
  0
SPLINE
  5
4D7
100
AcDbEntity
  8
KONSTRUKTIONSELEMENTE
100
AcDbSpline
 62
7
  6
CONTINUOUS
 70
0
 71
3
 72
19
 73
15
 74
0
 42
0.0000001
 43
0.0000001
 44
0.0000000001
 40
0.0
 40
0.0
 40
0.0
 40
0.0
 40
0.0298938292
 40
0.0650835855
 40
0.108466288
 40
0.1609985436
 40
0.2222349321
 40
0.2911550146
 40
0.4456854225
 40
0.6095823449
 40
0.7660354067
 40
0.8997960834
 40
0.9545408033
 40
1.0
 40
1.0
 40
1.0
 40
1.0
 10
527.441420749
 20
182.2181519966
 30
0.0
 10
527.4807804004
 20
182.2521632622
 30
0.0
 10
527.587416937
 20
182.3030347338
 30
0.0
 10
527.7792508012
 20
182.3087320042
 30
0.0
 10
528.0031828986
 20
182.2577792756
 30
0.0
 10
528.2561767398
 20
182.1514985949
 30
0.0
 10
528.5329187981
 20
181.9939112186
 30
0.0
 10
528.9385599465
 20
181.708540275
 30
0.0
 10
529.4422811569
 20
181.2572158127
 30
0.0
 10
529.9888273466
 20
180.6348966087
 30
0.0
 10
530.4370739509
 20
179.9822505638
 30
0.0
 10
530.7065225901
 20
179.4412415105
 30
0.0
 10
530.8213626065
 20
179.0497618363
 30
0.0
 10
530.8443540512
 20
178.8755056296
 30
0.0
 10
530.8443540512
 20
178.7964013537
 30
0.0
  0
SPLINE
  5
4D8
100
AcDbEntity
  8
KONSTRUKTIONSELEMENTE
100
AcDbSpline
 62
7
  6
CONTINUOUS
 70
0
 71
3
 72
9
 73
5
 74
0
 42
0.0000001
 43
0.0000001
 44
0.0000000001
 40
0.0
 40
0.0
 40
0.0
 40
0.0
 40
0.546991612
 40
1.0
 40
1.0
 40
1.0
 40
1.0
 10
530.8443540512
 20
178.7964013537
 30
0.0
 10
530.8443540512
 20
178.7248159152
 30
0.0
 10
530.8294488323
 20
178.5919272188
 30
0.0
 10
530.7566116388
 20
178.4752755259
 30
0.0
 10
530.7117534474
 20
178.4365128894
 30
0.0
  0
SPLINE
  5
4D9
100
AcDbEntity
  8
KONSTRUKTIONSELEMENTE
100
AcDbSpline
 62
7
  6
CONTINUOUS
 70
0
 71
3
 72
9
 73
5
 74
0
 42
0.0000001
 43
0.0000001
 44
0.0000000001
 40
0.0
 40
0.0
 40
0.0
 40
0.0
 40
0.272606519
 40
1.0
 40
1.0
 40
1.0
 40
1.0
 10
470.0479939748
 20
132.4033358025
 30
0.0
 10
470.0527838072
 20
132.425112691
 30
0.0
 10
470.0748504132
 20
132.5037491298
 30
0.0
 10
470.1207541711
 20
132.577084579
 30
0.0
 10
470.1657714729
 20
132.6159847052
 30
0.0
  0
SPLINE
  5
4DA
100
AcDbEntity
  8
KONSTRUKTIONSELEMENTE
100
AcDbSpline
 62
7
  6
CONTINUOUS
 70
0
 71
3
 72
10
 73
6
 74
0
 42
0.0000001
 43
0.0000001
 44
0.0000000001
 40
0.0
 40
0.0
 40
0.0
 40
0.0
 40
0.2209805831
 40
0.4552103493
 40
1.0
 40
1.0
 40
1.0
 40
1.0
 10
481.9457837071
 20
129.6566085156
 30
0.0
 10
481.9456186857
 20
129.5182688186
 30
0.0
 10
481.9126567955
 20
129.2322606963
 30
0.0
 10
481.7026444575
 20
128.6381338543
 30
0.0
 10
481.3822705819
 20
128.2454658415
 30
0.0
 10
481.1244587537
 20
128.0221942489
 30
0.0
  0
SPLINE
  5
4DB
100
AcDbEntity
  8
KONSTRUKTIONSELEMENTE
100
AcDbSpline
 62
7
  6
CONTINUOUS
 70
0
 71
3
 72
11
 73
7
 74
0
 42
0.0000001
 43
0.0000001
 44
0.0000000001
 40
0.0
 40
0.0
 40
0.0
 40
0.0
 40
0.2461844042
 40
0.4959427175
 40
0.7478763938
 40
1.0
 40
1.0
 40
1.0
 40
1.0
 10
472.9927307701
 20
135.0644772594
 30
0.0
 10
473.4911983175
 20
135.4961628185
 30
0.0
 10
474.6084091654
 20
136.2427052384
 30
0.0
 10
476.5029497065
 20
136.9435928929
 30
0.0
 10
478.5211296778
 20
137.2068421451
 30
0.0
 10
479.8786417943
 20
137.0814575471
 30
0.0
 10
480.539934442
 20
136.9445356222
 30
0.0
  0
SPLINE
  5
4DC
100
AcDbEntity
  8
KONSTRUKTIONSELEMENTE
100
AcDbSpline
 62
7
  6
CONTINUOUS
 70
0
 71
3
 72
11
 73
7
 74
0
 42
0.0000001
 43
0.0000001
 44
0.0000000001
 40
0.0
 40
0.0
 40
0.0
 40
0.0
 40
0.2529889227
 40
0.5034781976
 40
0.7521869369
 40
1.0
 40
1.0
 40
1.0
 40
1.0
 10
484.7251396857
 20
134.7643951371
 30
0.0
 10
485.0709638193
 20
134.4289353931
 30
0.0
 10
485.6989168839
 20
133.6953399481
 30
0.0
 10
486.4064820862
 20
132.4393053697
 30
0.0
 10
486.845645621
 20
131.0760827701
 30
0.0
 10
486.9450021662
 20
130.1276346319
 30
0.0
 10
486.9452172098
 20
129.6556954789
 30
0.0
  0
SPLINE
  5
4DD
100
AcDbEntity
  8
KONSTRUKTIONSELEMENTE
100
AcDbSpline
 62
7
  6
CONTINUOUS
 70
0
 71
3
 72
11
 73
7
 74
0
 42
0.0000001
 43
0.0000001
 44
0.0000000001
 40
0.0
 40
0.0
 40
0.0
 40
0.0
 40
0.2474803687
 40
0.4959793074
 40
0.7466457809
 40
1.0
 40
1.0
 40
1.0
 40
1.0
 10
486.9452172098
 20
129.6556954789
 30
0.0
 10
486.945448739
 20
129.1475764994
 30
0.0
 10
486.830356868
 20
128.1256444431
 30
0.0
 10
486.3232022548
 20
126.666360518
 30
0.0
 10
485.508510804
 20
125.3402365367
 30
0.0
 10
484.7909455009
 20
124.5830866369
 30
0.0
 10
484.3977271073
 20
124.2425495189
 30
0.0
  0
SPLINE
  5
4DE
100
AcDbEntity
  8
KONSTRUKTIONSELEMENTE
100
AcDbSpline
 62
7
  6
CONTINUOUS
 70
0
 71
3
 72
9
 73
5
 74
0
 42
0.0000001
 43
0.0000001
 44
0.0000000001
 40
0.0
 40
0.0
 40
0.0
 40
0.0
 40
0.2350561603
 40
1.0
 40
1.0
 40
1.0
 40
1.0
 10
476.2659991236
 20
131.2848325294
 30
0.0
 10
476.3452220092
 20
131.3534415608
 30
0.0
 10
476.6979745297
 20
131.6269378903
 30
0.0
 10
477.1069309979
 20
131.8255707593
 30
0.0
 10
477.4308059316
 20
131.9324596767
 30
0.0
  0
SPLINE
  5
4DF
100
AcDbEntity
  8
KONSTRUKTIONSELEMENTE
100
AcDbSpline
 62
7
  6
CONTINUOUS
 70
0
 71
3
 72
9
 73
5
 74
0
 42
0.0000001
 43
0.0000001
 44
0.0000000001
 40
0.0
 40
0.0
 40
0.0
 40
0.0
 40
0.2578415756
 40
1.0
 40
1.0
 40
1.0
 40
1.0
 10
481.8468831988
 20
130.2472167968
 30
0.0
 10
481.8634064602
 20
130.1983350338
 30
0.0
 10
481.9203574342
 20
130.0064306516
 30
0.0
 10
481.9459608718
 20
129.8051280852
 30
0.0
 10
481.9457837071
 20
129.6566085156
 30
0.0
  0
SPLINE
  5
4E0
100
AcDbEntity
  8
KONSTRUKTIONSELEMENTE
100
AcDbSpline
 62
7
  6
CONTINUOUS
 70
0
 71
3
 72
9
 73
5
 74
0
 42
0.0000001
 43
0.0000001
 44
0.0000000001
 40
0.0
 40
0.0
 40
0.0
 40
0.0
 40
0.488259543
 40
1.0
 40
1.0
 40
1.0
 40
1.0
 10
475.1140511137
 20
122.8170285455
 30
0.0
 10
474.5570953005
 20
122.3346906626
 30
0.0
 10
473.0456028711
 20
121.7650620762
 30
0.0
 10
471.4696126812
 20
122.0676828287
 30
0.0
 10
470.79439083
 20
122.442373305
 30
0.0
  0
SPLINE
  5
4E1
100
AcDbEntity
  8
KONSTRUKTIONSELEMENTE
100
AcDbSpline
 62
7
  6
CONTINUOUS
 70
0
 71
3
 72
11
 73
7
 74
0
 42
0.0000001
 43
0.0000001
 44
0.0000000001
 40
0.0
 40
0.0
 40
0.0
 40
0.0
 40
0.2475050377
 40
0.4993831846
 40
0.7516489195
 40
1.0
 40
1.0
 40
1.0
 40
1.0
 10
478.3873194672
 20
119.0373838154
 30
0.0
 10
477.6471590258
 20
118.3963860703
 30
0.0
 10
475.8993356765
 20
117.3748243758
 30
0.0
 10
472.927163971
 20
116.8078562317
 30
0.0
 10
469.9265466668
 20
117.2194594576
 30
0.0
 10
468.1214960024
 20
118.1444114867
 30
0.0
 10
467.3426734643
 20
118.7433410079
 30
0.0
  0
SPLINE
  5
4E2
100
AcDbEntity
  8
KONSTRUKTIONSELEMENTE
100
AcDbSpline
 62
7
  6
CONTINUOUS
 70
0
 71
3
 72
8
 73
4
 74
0
 42
0.0000001
 43
0.0000001
 44
0.0000000001
 40
0.0
 40
0.0
 40
0.0
 40
0.0
 40
1.0
 40
1.0
 40
1.0
 40
1.0
 10
469.9833669459
 20
132.387460003
 30
0.0
 10
470.0103788136
 20
132.392268836
 30
0.0
 10
470.0378769344
 20
132.3946836425
 30
0.0
 10
470.0653077902
 20
132.3952440176
 30
0.0
  0
SPLINE
  5
4E3
100
AcDbEntity
  8
KONSTRUKTIONSELEMENTE
100
AcDbSpline
 62
7
  6
CONTINUOUS
 70
0
 71
3
 72
11
 73
7
 74
0
 42
0.0000001
 43
0.0000001
 44
0.0000000001
 40
0.0
 40
0.0
 40
0.0
 40
0.0
 40
0.1694946017
 40
0.4030001049
 40
0.6876088378
 40
1.0
 40
1.0
 40
1.0
 40
1.0
 10
470.0653077902
 20
132.3952440176
 30
0.0
 10
470.2078902949
 20
132.3981567842
 30
0.0
 10
470.5437973899
 20
132.2986280613
 30
0.0
 10
471.0431945961
 20
132.0062109877
 30
0.0
 10
471.5878900612
 20
131.5636639579
 30
0.0
 10
471.9380092389
 20
131.202078636
 30
0.0
 10
472.110256369
 20
131.0035379166
 30
0.0
  0
SPLINE
  5
4E4
100
AcDbEntity
  8
KONSTRUKTIONSELEMENTE
100
AcDbSpline
 62
7
  6
CONTINUOUS
 70
0
 71
3
 72
16
 73
12
 74
0
 42
0.0000001
 43
0.0000001
 44
0.0000000001
 40
0.0
 40
0.0
 40
0.0
 40
0.0
 40
0.0609081192
 40
0.0976087898
 40
0.139975978
 40
0.2431954886
 40
0.3698819862
 40
0.5157852635
 40
0.6744445213
 40
0.8384866928
 40
1.0
 40
1.0
 40
1.0
 40
1.0
 10
470.1657714729
 20
132.6159847052
 30
0.0
 10
470.2205604519
 20
132.6633286845
 30
0.0
 10
470.3383984488
 20
132.7046862707
 30
0.0
 10
470.5048012559
 20
132.7016333098
 30
0.0
 10
470.71883728
 20
132.6609970541
 30
0.0
 10
471.0197275034
 20
132.5346131498
 30
0.0
 10
471.4013156844
 20
132.3004880958
 30
0.0
 10
471.804864259
 20
131.9826127062
 30
0.0
 10
472.209696581
 20
131.5989337572
 30
0.0
 10
472.5930782826
 20
131.1686926964
 30
0.0
 10
472.826861916
 20
130.8595525032
 30
0.0
 10
472.9354890548
 20
130.7012178878
 30
0.0
  0
SPLINE
  5
4E5
100
AcDbEntity
  8
KONSTRUKTIONSELEMENTE
100
AcDbSpline
 62
7
  6
CONTINUOUS
 70
0
 71
3
 72
9
 73
5
 74
0
 42
0.0000001
 43
0.0000001
 44
0.0000000001
 40
0.0
 40
0.0
 40
0.0
 40
0.0
 40
0.2622844894
 40
1.0
 40
1.0
 40
1.0
 40
1.0
 10
472.9354890548
 20
130.7012178878
 30
0.0
 10
472.971367072
 20
130.6489221897
 30
0.0
 10
473.1050318161
 20
130.4474422033
 30
0.0
 10
473.2264314566
 20
130.2375832236
 30
0.0
 10
473.3058085764
 20
130.0778397555
 30
0.0
  0
SPLINE
  5
4E6
100
AcDbEntity
  8
KONSTRUKTIONSELEMENTE
100
AcDbSpline
 62
7
  6
CONTINUOUS
 70
0
 71
3
 72
9
 73
5
 74
0
 42
0.0000001
 43
0.0000001
 44
0.0000000001
 40
0.0
 40
0.0
 40
0.0
 40
0.0
 40
0.244567645
 40
1.0
 40
1.0
 40
1.0
 40
1.0
 10
526.6604705608
 20
165.3411609076
 30
0.0
 10
526.7865707871
 20
165.450366907
 30
0.0
 10
527.2948940971
 20
165.9052555312
 30
0.0
 10
527.7754244519
 20
166.3910169661
 30
0.0
 10
528.1222674459
 20
166.7720667905
 30
0.0
  0
SPLINE
  5
4E7
100
AcDbEntity
  8
KONSTRUKTIONSELEMENTE
100
AcDbSpline
 62
7
  6
CONTINUOUS
 70
0
 71
3
 72
13
 73
9
 74
0
 42
0.0000001
 43
0.0000001
 44
0.0000000001
 40
0.0
 40
0.0
 40
0.0
 40
0.0
 40
0.2450798975
 40
0.4867641821
 40
0.6110076878
 40
0.7383847014
 40
0.8684495212
 40
1.0
 40
1.0
 40
1.0
 40
1.0
 10
531.2237372528
 20
171.773315372
 30
0.0
 10
531.3342729732
 20
172.1257407185
 30
0.0
 10
531.5049022684
 20
172.843306115
 30
0.0
 10
531.5209068477
 20
173.7749205106
 30
0.0
 10
531.37126918
 20
174.5062445369
 30
0.0
 10
531.1599423747
 20
175.0445989328
 30
0.0
 10
530.8481910776
 20
175.5451604362
 30
0.0
 10
530.5749603819
 20
175.8338024323
 30
0.0
 10
530.4251409806
 20
175.9636470805
 30
0.0
  0
SPLINE
  5
4E8
100
AcDbEntity
  8
KONSTRUKTIONSELEMENTE
100
AcDbSpline
 62
7
  6
CONTINUOUS
 70
0
 71
3
 72
24
 73
20
 74
0
 42
0.0000001
 43
0.0000001
 44
0.0000000001
 40
0.0
 40
0.0
 40
0.0
 40
0.0
 40
0.0399684528
 40
0.0656722898
 40
0.0749868115
 40
0.0817678249
 40
0.0908545801
 40
0.1035924024
 40
0.1198773536
 40
0.1395387897
 40
0.1623831141
 40
0.1882178473
 40
0.2480971592
 40
0.3177404014
 40
0.3960771619
 40
0.4821888571
 40
0.5751564087
 40
0.7783595522
 40
1.0
 40
1.0
 40
1.0
 40
1.0
 10
528.2470857531
 20
172.2173745284
 30
0.0
 10
528.2771969095
 20
172.2145483839
 30
0.0
 10
528.333637348
 20
172.213254769
 30
0.0
 10
528.3728649526
 20
172.2122177511
 30
0.0
 10
528.4270411712
 20
172.2190982206
 30
0.0
 10
528.3977589289
 20
172.2132329103
 30
0.0
 10
528.3805221963
 20
172.2083028388
 30
0.0
 10
528.3513520716
 20
172.1997127447
 30
0.0
 10
528.3171192198
 20
172.1878049505
 30
0.0
 10
528.2752842143
 20
172.1720489669
 30
0.0
 10
528.227458012
 20
172.1525536438
 30
0.0
 10
528.1520954285
 20
172.1197827453
 30
0.0
 10
528.0459735869
 20
172.0691447421
 30
0.0
 10
527.9071353156
 20
171.9951281278
 30
0.0
 10
527.7541273352
 20
171.9058115319
 30
0.0
 10
527.5892868261
 20
171.8019769438
 30
0.0
 10
527.349520212
 20
171.6400729559
 30
0.0
 10
527.0351461011
 20
171.4058443092
 30
0.0
 10
526.7872487656
 20
171.2009540536
 30
0.0
 10
526.6604705608
 20
171.0911609076
 30
0.0
  0
SPLINE
  5
4E9
100
AcDbEntity
  8
KONSTRUKTIONSELEMENTE
100
AcDbSpline
 62
7
  6
CONTINUOUS
 70
0
 71
3
 72
14
 73
10
 74
0
 42
0.0000001
 43
0.0000001
 44
0.0000000001
 40
0.0
 40
0.0
 40
0.0
 40
0.0
 40
0.1261639273
 40
0.2490859875
 40
0.3675996524
 40
0.4838289665
 40
0.6024561707
 40
0.7271761049
 40
1.0
 40
1.0
 40
1.0
 40
1.0
 10
530.4251409806
 20
175.9636470805
 30
0.0
 10
530.1872667787
 20
176.1698065753
 30
0.0
 10
529.6478016312
 20
176.5027002667
 30
0.0
 10
528.7466852509
 20
176.7305150102
 30
0.0
 10
527.8459050827
 20
176.7121720345
 30
0.0
 10
526.9825585993
 20
176.5115157829
 30
0.0
 10
526.1497461389
 20
176.1702746213
 30
0.0
 10
525.0224190128
 20
175.5435440653
 30
0.0
 10
524.2290867071
 20
174.9384611739
 30
0.0
 10
523.7145290426
 20
174.4928411647
 30
0.0
  0
SPLINE
  5
4EA
100
AcDbEntity
  8
KONSTRUKTIONSELEMENTE
100
AcDbSpline
 62
7
  6
CONTINUOUS
 70
0
 71
3
 72
11
 73
7
 74
0
 42
0.0000001
 43
0.0000001
 44
0.0000000001
 40
0.0
 40
0.0
 40
0.0
 40
0.0
 40
0.2560606671
 40
0.5094317095
 40
0.7578652676
 40
1.0
 40
1.0
 40
1.0
 40
1.0
 10
509.343256905
 20
154.6847684563
 30
0.0
 10
509.4896979437
 20
154.5578517487
 30
0.0
 10
509.8064674027
 20
154.332882906
 30
0.0
 10
510.3331318635
 20
154.0976469067
 30
0.0
 10
510.8824169927
 20
153.9619232943
 30
0.0
 10
511.2545626338
 20
153.9352531747
 30
0.0
 10
511.4378085795
 20
153.9356785046
 30
0.0
  0
SPLINE
  5
4EB
100
AcDbEntity
  8
KONSTRUKTIONSELEMENTE
100
AcDbSpline
 62
7
  6
CONTINUOUS
 70
0
 71
3
 72
14
 73
10
 74
0
 42
0.0000001
 43
0.0000001
 44
0.0000000001
 40
0.0
 40
0.0
 40
0.0
 40
0.0
 40
0.3076593044
 40
0.4655740208
 40
0.6174499256
 40
0.7563299601
 40
0.8741882754
 40
0.9604979356
 40
1.0
 40
1.0
 40
1.0
 40
1.0
 10
516.053868843
 20
161.9055743722
 30
0.0
 10
515.6036074443
 20
161.5156365626
 30
0.0
 10
514.9669169385
 20
160.8722840875
 30
0.0
 10
514.209054217
 20
159.9473049203
 30
0.0
 10
513.7039879827
 20
159.2395495362
 30
0.0
 10
513.2924348321
 20
158.5632575004
 30
0.0
 10
512.9945959351
 20
157.9679877335
 30
0.0
 10
512.8309077652
 20
157.5253171406
 30
0.0
 10
512.7719621212
 20
157.2871864195
 30
0.0
 10
512.7656803183
 20
157.2109673833
 30
0.0
  0
SPLINE
  5
4EC
100
AcDbEntity
  8
KONSTRUKTIONSELEMENTE
100
AcDbSpline
 62
7
  6
CONTINUOUS
 70
0
 71
3
 72
17
 73
13
 74
0
 42
0.0000001
 43
0.0000001
 44
0.0000000001
 40
0.0
 40
0.0
 40
0.0
 40
0.0
 40
0.1381799396
 40
0.2793498645
 40
0.4167408576
 40
0.5447967012
 40
0.6614058717
 40
0.770730898
 40
0.825836819
 40
0.8824126798
 40
0.9407184285
 40
1.0
 40
1.0
 40
1.0
 40
1.0
 10
513.1079273248
 20
165.3072546293
 30
0.0
 10
512.6731011193
 20
164.930684089
 30
0.0
 10
511.8351713751
 20
164.1209968161
 30
0.0
 10
510.7052439733
 20
162.8014967675
 30
0.0
 10
509.7296901025
 20
161.4148215997
 30
0.0
 10
508.957865414
 20
160.0196715472
 30
0.0
 10
508.4255267264
 20
158.6398759467
 30
0.0
 10
508.2300296345
 20
157.4715774249
 30
0.0
 10
508.2969876528
 20
156.5494019831
 30
0.0
 10
508.4829959537
 20
155.8612673478
 30
0.0
 10
508.825553685
 20
155.214955584
 30
0.0
 10
509.1567688939
 20
154.8463928521
 30
0.0
 10
509.343256905
 20
154.6847684563
 30
0.0
  0
SPLINE
  5
4ED
100
AcDbEntity
  8
KONSTRUKTIONSELEMENTE
100
AcDbSpline
 62
7
  6
CONTINUOUS
 70
0
 71
3
 72
9
 73
5
 74
0
 42
0.0000001
 43
0.0000001
 44
0.0000000001
 40
0.0
 40
0.0
 40
0.0
 40
0.0
 40
0.2442277043
 40
1.0
 40
1.0
 40
1.0
 40
1.0
 10
495.5477721886
 20
138.396773737
 30
0.0
 10
495.7035212532
 20
138.5316563836
 30
0.0
 10
496.3301180066
 20
139.0966938053
 30
0.0
 10
496.9146810403
 20
139.7080215311
 30
0.0
 10
497.3313225488
 20
140.190648735
 30
0.0
  0
SPLINE
  5
4EE
100
AcDbEntity
  8
KONSTRUKTIONSELEMENTE
100
AcDbSpline
 62
7
  6
CONTINUOUS
 70
0
 71
3
 72
13
 73
9
 74
0
 42
0.0000001
 43
0.0000001
 44
0.0000000001
 40
0.0
 40
0.0
 40
0.0
 40
0.0
 40
0.2465994456
 40
0.4878359344
 40
0.611665412
 40
0.738649883
 40
0.8685336703
 40
1.0
 40
1.0
 40
1.0
 40
1.0
 10
500.05419949
 20
144.6550533292
 30
0.0
 10
500.1786544101
 20
145.0211080731
 30
0.0
 10
500.3745974351
 20
145.7645902524
 30
0.0
 10
500.4167356731
 20
146.7341769577
 30
0.0
 10
500.2782467276
 20
147.4964675645
 30
0.0
 10
500.0690638025
 20
148.0591499604
 30
0.0
 10
499.7510911107
 20
148.5829146311
 30
0.0
 10
499.4682050955
 20
148.884264541
 30
0.0
 10
499.3124426084
 20
149.0192599099
 30
0.0
  0
SPLINE
  5
4EF
100
AcDbEntity
  8
KONSTRUKTIONSELEMENTE
100
AcDbSpline
 62
7
  6
CONTINUOUS
 70
0
 71
3
 72
24
 73
20
 74
0
 42
0.0000001
 43
0.0000001
 44
0.0000000001
 40
0.0
 40
0.0
 40
0.0
 40
0.0
 40
0.0399684528
 40
0.0656722898
 40
0.0749868115
 40
0.0817678249
 40
0.0908545801
 40
0.1035924024
 40
0.1198773536
 40
0.1395387897
 40
0.1623831141
 40
0.1882178473
 40
0.2480971592
 40
0.3177404014
 40
0.3960771619
 40
0.4821888571
 40
0.5751564087
 40
0.7783595522
 40
1.0
 40
1.0
 40
1.0
 40
1.0
 10
497.1343873809
 20
145.2729873578
 30
0.0
 10
497.1644985373
 20
145.2701612133
 30
0.0
 10
497.2209389758
 20
145.2688675984
 30
0.0
 10
497.2601665804
 20
145.2678305805
 30
0.0
 10
497.314342799
 20
145.27471105
 30
0.0
 10
497.2850605567
 20
145.2688457397
 30
0.0
 10
497.2678238241
 20
145.2639156682
 30
0.0
 10
497.2386536994
 20
145.2553255741
 30
0.0
 10
497.2044208476
 20
145.2434177798
 30
0.0
 10
497.1625858421
 20
145.2276617963
 30
0.0
 10
497.1147596398
 20
145.2081664732
 30
0.0
 10
497.0393970563
 20
145.1753955747
 30
0.0
 10
496.9332752147
 20
145.1247575714
 30
0.0
 10
496.7944369433
 20
145.0507409572
 30
0.0
 10
496.641428963
 20
144.9614243613
 30
0.0
 10
496.4765884539
 20
144.8575897732
 30
0.0
 10
496.2368218398
 20
144.6956857853
 30
0.0
 10
495.9224477289
 20
144.4614571386
 30
0.0
 10
495.6745503934
 20
144.256566883
 30
0.0
 10
495.5477721886
 20
144.146773737
 30
0.0
  0
SPLINE
  5
4F0
100
AcDbEntity
  8
KONSTRUKTIONSELEMENTE
100
AcDbSpline
 62
7
  6
CONTINUOUS
 70
0
 71
3
 72
14
 73
10
 74
0
 42
0.0000001
 43
0.0000001
 44
0.0000000001
 40
0.0
 40
0.0
 40
0.0
 40
0.0
 40
0.1261639273
 40
0.2490859875
 40
0.3675996524
 40
0.4838289665
 40
0.6024561707
 40
0.7271761049
 40
1.0
 40
1.0
 40
1.0
 40
1.0
 10
499.3124426084
 20
149.0192599099
 30
0.0
 10
499.0745684065
 20
149.2254194047
 30
0.0
 10
498.5351032589
 20
149.5583130961
 30
0.0
 10
497.6339868787
 20
149.7861278396
 30
0.0
 10
496.7332067105
 20
149.7677848639
 30
0.0
 10
495.8698602271
 20
149.5671286123
 30
0.0
 10
495.0370477667
 20
149.2258874507
 30
0.0
 10
493.9097206406
 20
148.5991568947
 30
0.0
 10
493.1163883349
 20
147.9940740033
 30
0.0
 10
492.6018306704
 20
147.5484539941
 30
0.0
  0
SPLINE
  5
4F1
100
AcDbEntity
  8
KONSTRUKTIONSELEMENTE
100
AcDbSpline
 62
7
  6
CONTINUOUS
 70
0
 71
3
 72
9
 73
5
 74
0
 42
0.0000001
 43
0.0000001
 44
0.0000000001
 40
0.0
 40
0.0
 40
0.0
 40
0.0
 40
0.5068172679
 40
1.0
 40
1.0
 40
1.0
 40
1.0
 10
478.2305585328
 20
127.7403812857
 30
0.0
 10
478.4743141165
 20
127.5291245475
 30
0.0
 10
479.0283194812
 20
127.1902298081
 30
0.0
 10
479.6568324636
 20
127.0386839371
 30
0.0
 10
479.9692170862
 20
127.0080378076
 30
0.0
  0
SPLINE
  5
4F2
100
AcDbEntity
  8
KONSTRUKTIONSELEMENTE
100
AcDbSpline
 62
7
  6
CONTINUOUS
 70
0
 71
3
 72
14
 73
10
 74
0
 42
0.0000001
 43
0.0000001
 44
0.0000000001
 40
0.0
 40
0.0
 40
0.0
 40
0.0
 40
0.3076593044
 40
0.4655740208
 40
0.6174499256
 40
0.7563299601
 40
0.8741882754
 40
0.9604979356
 40
1.0
 40
1.0
 40
1.0
 40
1.0
 10
484.9411704708
 20
134.9611872016
 30
0.0
 10
484.4909090721
 20
134.571249392
 30
0.0
 10
483.8542185663
 20
133.9278969169
 30
0.0
 10
483.0963558448
 20
133.0029177497
 30
0.0
 10
482.5912896105
 20
132.2951623656
 30
0.0
 10
482.1797364599
 20
131.6188703298
 30
0.0
 10
481.8818975629
 20
131.0236005629
 30
0.0
 10
481.718209393
 20
130.58092997
 30
0.0
 10
481.659263749
 20
130.3427992489
 30
0.0
 10
481.6529819461
 20
130.2665802127
 30
0.0
  0
SPLINE
  5
4F3
100
AcDbEntity
  8
KONSTRUKTIONSELEMENTE
100
AcDbSpline
 62
7
  6
CONTINUOUS
 70
0
 71
3
 72
17
 73
13
 74
0
 42
0.0000001
 43
0.0000001
 44
0.0000000001
 40
0.0
 40
0.0
 40
0.0
 40
0.0
 40
0.1381799396
 40
0.2793498645
 40
0.4167408576
 40
0.5447967012
 40
0.6614058717
 40
0.770730898
 40
0.825836819
 40
0.8824126798
 40
0.9407184285
 40
1.0
 40
1.0
 40
1.0
 40
1.0
 10
481.9952289526
 20
138.3628674586
 30
0.0
 10
481.560402747
 20
137.9862969184
 30
0.0
 10
480.7224730029
 20
137.1766096455
 30
0.0
 10
479.5925456011
 20
135.8571095969
 30
0.0
 10
478.6169917303
 20
134.4704344291
 30
0.0
 10
477.8451670418
 20
133.0752843766
 30
0.0
 10
477.3128283542
 20
131.695488776
 30
0.0
 10
477.1173312623
 20
130.5271902543
 30
0.0
 10
477.1842892806
 20
129.6050148125
 30
0.0
 10
477.3702975815
 20
128.9168801772
 30
0.0
 10
477.7128553127
 20
128.2705684134
 30
0.0
 10
478.0440705217
 20
127.9020056815
 30
0.0
 10
478.2305585328
 20
127.7403812857
 30
0.0
  0
SPLINE
  5
4F4
100
AcDbEntity
  8
KONSTRUKTIONSELEMENTE
100
AcDbSpline
 62
7
  6
CONTINUOUS
 70
0
 71
3
 72
11
 73
7
 74
0
 42
0.0000001
 43
0.0000001
 44
0.0000000001
 40
0.0
 40
0.0
 40
0.0
 40
0.0
 40
0.247258039
 40
0.4956520534
 40
0.7463451021
 40
1.0
 40
1.0
 40
1.0
 40
1.0
 10
491.0246246069
 20
147.2574338938
 30
0.0
 10
491.02442914
 20
147.7474391732
 30
0.0
 10
491.1355049395
 20
148.7331894747
 30
0.0
 10
491.6254164492
 20
150.1409639418
 30
0.0
 10
492.4124561641
 20
151.4210528186
 30
0.0
 10
493.1057220174
 20
152.1521197118
 30
0.0
 10
493.4857141469
 20
152.4812025492
 30
0.0
  0
SPLINE
  5
4F5
100
AcDbEntity
  8
KONSTRUKTIONSELEMENTE
100
AcDbSpline
 62
7
  6
CONTINUOUS
 70
0
 71
3
 72
11
 73
7
 74
0
 42
0.0000001
 43
0.0000001
 44
0.0000000001
 40
0.0
 40
0.0
 40
0.0
 40
0.0
 40
0.247258039
 40
0.4956520534
 40
0.7463451021
 40
1.0
 40
1.0
 40
1.0
 40
1.0
 10
517.6310749065
 20
156.4465944724
 30
0.0
 10
517.6312703734
 20
155.9565891931
 30
0.0
 10
517.5201945738
 20
154.9708388916
 30
0.0
 10
517.0302830642
 20
153.5630644244
 30
0.0
 10
516.2432433493
 20
152.2829755477
 30
0.0
 10
515.549977496
 20
151.5519086545
 30
0.0
 10
515.1699853665
 20
151.222825817
 30
0.0
  0
SPLINE
  5
4F6
100
AcDbEntity
  8
KONSTRUKTIONSELEMENTE
100
AcDbSpline
 62
7
  6
CONTINUOUS
 70
0
 71
3
 72
9
 73
5
 74
0
 42
0.0000001
 43
0.0000001
 44
0.0000000001
 40
0.0
 40
0.0
 40
0.0
 40
0.0
 40
0.2390508737
 40
1.0
 40
1.0
 40
1.0
 40
1.0
 10
507.2629879306
 20
158.4429100828
 30
0.0
 10
507.3586323984
 20
158.5120916736
 30
0.0
 10
507.7734764754
 20
158.7808440671
 30
0.0
 10
508.2423262333
 20
158.9636122049
 30
0.0
 10
508.6074096388
 20
159.0525192505
 30
0.0
  0
SPLINE
  5
4F7
100
AcDbEntity
  8
KONSTRUKTIONSELEMENTE
100
AcDbSpline
 62
7
  6
CONTINUOUS
 70
0
 71
3
 72
9
 73
5
 74
0
 42
0.0000001
 43
0.0000001
 44
0.0000000001
 40
0.0
 40
0.0
 40
0.0
 40
0.0
 40
0.2598514407
 40
1.0
 40
1.0
 40
1.0
 40
1.0
 10
512.9495901832
 20
157.3010094984
 30
0.0
 10
512.9798715453
 20
157.2311737482
 30
0.0
 10
513.0831752676
 20
156.9569299975
 30
0.0
 10
513.1316255952
 20
156.6616153521
 30
0.0
 10
513.1316378212
 20
156.4448036356
 30
0.0
  0
SPLINE
  5
4F8
100
AcDbEntity
  8
KONSTRUKTIONSELEMENTE
100
AcDbSpline
 62
7
  6
CONTINUOUS
 70
0
 71
3
 72
9
 73
5
 74
0
 42
0.0000001
 43
0.0000001
 44
0.0000000001
 40
0.0
 40
0.0
 40
0.0
 40
0.0
 40
0.4614411915
 40
1.0
 40
1.0
 40
1.0
 40
1.0
 10
513.1316378212
 20
156.4448036356
 30
0.0
 10
513.131655882
 20
156.1245214535
 30
0.0
 10
512.9601620605
 20
155.424061222
 30
0.0
 10
512.5066167612
 20
154.8692213951
 30
0.0
 10
512.2240438483
 20
154.6245060741
 30
0.0
  0
SPLINE
  5
4F9
100
AcDbEntity
  8
KONSTRUKTIONSELEMENTE
100
AcDbSpline
 62
7
  6
CONTINUOUS
 70
0
 71
3
 72
9
 73
5
 74
0
 42
0.0000001
 43
0.0000001
 44
0.0000000001
 40
0.0
 40
0.0
 40
0.0
 40
0.0
 40
0.4898470903
 40
1.0
 40
1.0
 40
1.0
 40
1.0
 10
501.6174421305
 20
145.4389195387
 30
0.0
 10
501.0197332013
 20
144.9212884219
 30
0.0
 10
499.4031135103
 20
144.3087447995
 30
0.0
 10
497.7169246491
 20
144.6391705543
 30
0.0
 10
496.9989161363
 20
145.0423692428
 30
0.0
  0
SPLINE
  5
4FA
100
AcDbEntity
  8
KONSTRUKTIONSELEMENTE
100
AcDbSpline
 62
7
  6
CONTINUOUS
 70
0
 71
3
 72
11
 73
7
 74
0
 42
0.0000001
 43
0.0000001
 44
0.0000000001
 40
0.0
 40
0.0
 40
0.0
 40
0.0
 40
0.245958326
 40
0.4956468363
 40
0.7476883331
 40
1.0
 40
1.0
 40
1.0
 40
1.0
 10
504.0923158647
 20
161.6667890846
 30
0.0
 10
504.5700098182
 20
162.0804841836
 30
0.0
 10
505.6397595336
 20
162.7974251099
 30
0.0
 10
507.453481979
 20
163.4766982445
 30
0.0
 10
509.3877312664
 20
163.742528025
 30
0.0
 10
510.6914171356
 20
163.6349716868
 30
0.0
 10
511.3276449554
 20
163.5106890017
 30
0.0
  0
SPLINE
  5
4FB
100
AcDbEntity
  8
KONSTRUKTIONSELEMENTE
100
AcDbSpline
 62
7
  6
CONTINUOUS
 70
0
 71
3
 72
11
 73
7
 74
0
 42
0.0000001
 43
0.0000001
 44
0.0000000001
 40
0.0
 40
0.0
 40
0.0
 40
0.0
 40
0.2532343944
 40
0.50377714
 40
0.752387739
 40
1.0
 40
1.0
 40
1.0
 40
1.0
 10
515.4866949903
 20
161.376456935
 30
0.0
 10
515.8208186432
 20
161.0523951499
 30
0.0
 10
516.4274106127
 20
160.3441024927
 30
0.0
 10
517.1111003256
 20
159.1318326812
 30
0.0
 10
517.5350729194
 20
157.8165843916
 30
0.0
 10
517.6308933526
 20
156.9017223451
 30
0.0
 10
517.6310749065
 20
156.4465944724
 30
0.0
  0
SPLINE
  5
4FC
100
AcDbEntity
  8
KONSTRUKTIONSELEMENTE
100
AcDbSpline
 62
7
  6
CONTINUOUS
 70
0
 71
3
 72
13
 73
9
 74
0
 42
0.0000001
 43
0.0000001
 44
0.0000000001
 40
0.0
 40
0.0
 40
0.0
 40
0.0
 40
0.1233769833
 40
0.2483733747
 40
0.5003778919
 40
0.7521575176
 40
0.8768774439
 40
1.0
 40
1.0
 40
1.0
 40
1.0
 10
504.5633836487
 20
142.0372392816
 30
0.0
 10
504.1828757245
 20
141.7077097529
 30
0.0
 10
503.349163407
 20
141.1185042796
 30
0.0
 10
501.4840807569
 20
140.2657588816
 30
0.0
 10
498.8952124233
 20
139.8485243848
 30
0.0
 10
496.3201217852
 20
140.33954238
 30
0.0
 10
494.4841442606
 20
141.2466343248
 30
0.0
 10
493.6710757492
 20
141.8605935145
 30
0.0
 10
493.3021543524
 20
142.201517334
 30
0.0
  0
SPLINE
  5
4FD
100
AcDbEntity
  8
KONSTRUKTIONSELEMENTE
100
AcDbSpline
 62
7
  6
CONTINUOUS
 70
0
 71
3
 72
9
 73
5
 74
0
 42
0.0000001
 43
0.0000001
 44
0.0000000001
 40
0.0
 40
0.0
 40
0.0
 40
0.0
 40
0.492588009
 40
1.0
 40
1.0
 40
1.0
 40
1.0
 10
552.2537515459
 20
179.1384356653
 30
0.0
 10
553.2730754227
 20
180.0211960372
 30
0.0
 10
555.2717942643
 20
181.8958509892
 30
0.0
 10
557.1342484374
 20
183.9053070814
 30
0.0
 10
558.043377059
 20
184.9554776729
 30
0.0
  0
SPLINE
  5
4FE
100
AcDbEntity
  8
KONSTRUKTIONSELEMENTE
100
AcDbSpline
 62
7
  6
CONTINUOUS
 70
0
 71
3
 72
13
 73
9
 74
0
 42
0.0000001
 43
0.0000001
 44
0.0000000001
 40
0.0
 40
0.0
 40
0.0
 40
0.0
 40
0.2667628821
 40
0.3920436224
 40
0.5139394646
 40
0.7545240682
 40
0.8767544759
 40
1.0
 40
1.0
 40
1.0
 40
1.0
 10
567.23402553
 20
200.5120822994
 30
0.0
 10
567.4578417833
 20
201.3300872502
 30
0.0
 10
567.7122226599
 20
202.5576061715
 30
0.0
 10
567.807796299
 20
204.1918626649
 30
0.0
 10
567.7228765737
 20
205.7419163086
 30
0.0
 10
567.3126281157
 20
207.2615435199
 30
0.0
 10
566.5057567706
 20
208.5897752306
 30
0.0
 10
565.9686232909
 20
209.1655172262
 30
0.0
 10
565.6721819292
 20
209.4217195405
 30
0.0
  0
SPLINE
  5
4FF
100
AcDbEntity
  8
KONSTRUKTIONSELEMENTE
100
AcDbSpline
 62
7
  6
CONTINUOUS
 70
0
 71
3
 72
19
 73
15
 74
0
 42
0.0000001
 43
0.0000001
 44
0.0000000001
 40
0.0
 40
0.0
 40
0.0
 40
0.0
 40
0.1463712
 40
0.2968003233
 40
0.4441138256
 40
0.5815946947
 40
0.6450087779
 40
0.7043267543
 40
0.7594923199
 40
0.8108474075
 40
0.8592559102
 40
0.9060360039
 40
0.9526828682
 40
1.0
 40
1.0
 40
1.0
 40
1.0
 10
548.3258295217
 20
204.1740093414
 30
0.0
 10
547.0198501425
 20
203.0429980222
 30
0.0
 10
544.4865670221
 20
200.6147067557
 30
0.0
 10
541.0282549585
 20
196.6672275866
 30
0.0
 10
537.9863755837
 20
192.5196416204
 30
0.0
 10
535.8761190043
 20
188.9825747484
 30
0.0
 10
534.5472564235
 20
186.2114380444
 30
0.0
 10
533.7720498098
 20
184.257843554
 30
0.0
 10
533.2029223208
 20
182.3821576546
 30
0.0
 10
532.8530965882
 20
180.5831710061
 30
0.0
 10
532.7484773694
 20
178.8503151309
 30
0.0
 10
532.9365783457
 20
177.1759319712
 30
0.0
 10
533.4868565062
 20
175.5913894908
 30
0.0
 10
534.1323925438
 20
174.6662088285
 30
0.0
 10
534.5176453358
 20
174.2618633396
 30
0.0
  0
SPLINE
  5
500
100
AcDbEntity
  8
KONSTRUKTIONSELEMENTE
100
AcDbSpline
 62
7
  6
CONTINUOUS
 70
0
 71
3
 72
29
 73
25
 74
0
 42
0.0000001
 43
0.0000001
 44
0.0000000001
 40
0.0
 40
0.0
 40
0.0
 40
0.0
 40
0.0038425111
 40
0.006877826
 40
0.0083401759
 40
0.0090978557
 40
0.0122169244
 40
0.0179337516
 40
0.0265411311
 40
0.0382974786
 40
0.0531437932
 40
0.0709517797
 40
0.0916105212
 40
0.1150179064
 40
0.1410570151
 40
0.1696072658
 40
0.2337651466
 40
0.3066512757
 40
0.3874470915
 40
0.475421617
 40
0.5698903892
 40
0.6702089349
 40
0.7757710248
 40
1.0
 40
1.0
 40
1.0
 40
1.0
 10
561.7551263916
 20
204.8842525518
 30
0.0
 10
561.7665240206
 20
204.875558455
 30
0.0
 10
561.7900373931
 20
204.8589753865
 30
0.0
 10
561.806530153
 20
204.8452847625
 30
0.0
 10
561.836533185
 20
204.8267725113
 30
0.0
 10
561.8096141148
 20
204.8329468284
 30
0.0
 10
561.7815660403
 20
204.8416282234
 30
0.0
 10
561.7131245935
 20
204.853121185
 30
0.0
 10
561.6182028565
 20
204.861862945
 30
0.0
 10
561.4858791916
 20
204.8638267729
 30
0.0
 10
561.3206187625
 20
204.8562273078
 30
0.0
 10
561.1225354525
 20
204.8360351249
 30
0.0
 10
560.8944295636
 20
204.8002154352
 30
0.0
 10
560.6383723695
 20
204.7464046532
 30
0.0
 10
560.3564506389
 20
204.6740496201
 30
0.0
 10
559.932040051
 20
204.5466743361
 30
0.0
 10
559.3513451611
 20
204.3342039088
 30
0.0
 10
558.6068876716
 20
204.0071807312
 30
0.0
 10
557.8024439253
 20
203.5992808393
 30
0.0
 10
556.9488534526
 20
203.112998355
 30
0.0
 10
556.0553992711
 20
202.5516274664
 30
0.0
 10
555.1304285323
 20
201.9187374456
 30
0.0
 10
553.8390613151
 20
200.9659291203
 30
0.0
 10
552.8860998725
 20
200.1860653801
 30
0.0
 10
552.2537515459
 20
199.6384356653
 30
0.0
  0
SPLINE
  5
501
100
AcDbEntity
  8
KONSTRUKTIONSELEMENTE
100
AcDbSpline
 62
7
  6
CONTINUOUS
 70
0
 71
3
 72
9
 73
5
 74
0
 42
0.0000001
 43
0.0000001
 44
0.0000000001
 40
0.0
 40
0.0
 40
0.0
 40
0.0
 40
0.2422151737
 40
1.0
 40
1.0
 40
1.0
 40
1.0
 10
548.3258295217
 20
183.6740093414
 30
0.0
 10
548.7133276061
 20
184.0095925264
 30
0.0
 10
550.288989573
 20
185.4228015213
 30
0.0
 10
551.7726850913
 20
186.9377767624
 30
0.0
 10
552.8443041923
 20
188.1309258711
 30
0.0
  0
SPLINE
  5
502
100
AcDbEntity
  8
KONSTRUKTIONSELEMENTE
100
AcDbSpline
 62
7
  6
CONTINUOUS
 70
0
 71
3
 72
9
 73
5
 74
0
 42
0.0000001
 43
0.0000001
 44
0.0000000001
 40
0.0
 40
0.0
 40
0.0
 40
0.0
 40
0.3088814152
 40
1.0
 40
1.0
 40
1.0
 40
1.0
 10
561.7822427021
 20
204.0432063979
 30
0.0
 10
561.7848003581
 20
204.1129773993
 30
0.0
 10
561.7884872513
 20
204.33889272
 30
0.0
 10
561.7732379034
 20
204.5658415778
 30
0.0
 10
561.745727193
 20
204.7196167596
 30
0.0
  0
SPLINE
  5
503
100
AcDbEntity
  8
KONSTRUKTIONSELEMENTE
100
AcDbSpline
 62
7
  6
CONTINUOUS
 70
0
 71
3
 72
9
 73
5
 74
0
 42
0.0000001
 43
0.0000001
 44
0.0000000001
 40
0.0
 40
0.0
 40
0.0
 40
0.0
 40
0.2922909709
 40
1.0
 40
1.0
 40
1.0
 40
1.0
 10
561.745727193
 20
204.7196167596
 30
0.0
 10
561.7432231653
 20
204.7336133925
 30
0.0
 10
561.7341473348
 20
204.7814047616
 30
0.0
 10
561.723229476
 20
204.8288609846
 30
0.0
 10
561.7141629162
 20
204.862073064
 30
0.0
  0
SPLINE
  5
504
100
AcDbEntity
  8
KONSTRUKTIONSELEMENTE
100
AcDbSpline
 62
7
  6
CONTINUOUS
 70
0
 71
3
 72
9
 73
5
 74
0
 42
0.0000001
 43
0.0000001
 44
0.0000000001
 40
0.0
 40
0.0
 40
0.0
 40
0.0
 40
0.2129668983
 40
1.0
 40
1.0
 40
1.0
 40
1.0
 10
538.8450261703
 20
178.4633580763
 30
0.0
 10
538.8523276837
 20
178.4622426263
 30
0.0
 10
538.8866777015
 20
178.457434918
 30
0.0
 10
538.9212650147
 20
178.4543886627
 30
0.0
 10
538.9485128097
 20
178.4527624591
 30
0.0
  0
SPLINE
  5
505
100
AcDbEntity
  8
KONSTRUKTIONSELEMENTE
100
AcDbSpline
 62
7
  6
CONTINUOUS
 70
0
 71
3
 72
9
 73
5
 74
0
 42
0.0000001
 43
0.0000001
 44
0.0000000001
 40
0.0
 40
0.0
 40
0.0
 40
0.0
 40
0.23512902
 40
1.0
 40
1.0
 40
1.0
 40
1.0
 10
538.9485128097
 20
178.4527624591
 30
0.0
 10
538.953757937
 20
178.4524494193
 30
0.0
 10
538.9760727354
 20
178.4512424559
 30
0.0
 10
538.9984126682
 20
178.4505167813
 30
0.0
 10
539.0155021584
 20
178.450186754
 30
0.0
  0
SPLINE
  5
506
100
AcDbEntity
  8
KONSTRUKTIONSELEMENTE
100
AcDbSpline
 62
7
  6
CONTINUOUS
 70
0
 71
3
 72
9
 73
5
 74
0
 42
0.0000001
 43
0.0000001
 44
0.0000000001
 40
0.0
 40
0.0
 40
0.0
 40
0.0
 40
0.4751668021
 40
1.0
 40
1.0
 40
1.0
 40
1.0
 10
544.0897847294
 20
180.490006285
 30
0.0
 10
544.8006830687
 20
180.9373421985
 30
0.0
 10
546.2520248418
 20
181.9504826358
 30
0.0
 10
547.6245351678
 20
183.0666706154
 30
0.0
 10
548.3258295217
 20
183.6740093414
 30
0.0
  0
SPLINE
  5
507
100
AcDbEntity
  8
KONSTRUKTIONSELEMENTE
100
AcDbSpline
 62
7
  6
CONTINUOUS
 70
0
 71
3
 72
17
 73
13
 74
0
 42
0.0000001
 43
0.0000001
 44
0.0000000001
 40
0.0
 40
0.0
 40
0.0
 40
0.0
 40
0.054272456
 40
0.1081063965
 40
0.1614219537
 40
0.2144031746
 40
0.3216905582
 40
0.4354499083
 40
0.5594736346
 40
0.6952881283
 40
0.8426555219
 40
1.0
 40
1.0
 40
1.0
 40
1.0
 10
565.6721819292
 20
209.4217195405
 30
0.0
 10
565.4046560883
 20
209.6529313363
 30
0.0
 10
564.8269093144
 20
210.0646011924
 30
0.0
 10
563.8657482663
 20
210.5048275873
 30
0.0
 10
562.8526397673
 20
210.773063774
 30
0.0
 10
561.4639306865
 20
210.916887911
 30
0.0
 10
559.6696110403
 20
210.7436026177
 30
0.0
 10
557.5058102411
 20
210.1022814941
 30
0.0
 10
555.2833419519
 20
209.0955528785
 30
0.0
 10
552.9906846206
 20
207.7531912688
 30
0.0
 10
550.641355543
 20
206.0998516322
 30
0.0
 10
549.1007521332
 20
204.845112009
 30
0.0
 10
548.3258295217
 20
204.1740093414
 30
0.0
  0
SPLINE
  5
508
100
AcDbEntity
  8
KONSTRUKTIONSELEMENTE
100
AcDbSpline
 62
7
  6
CONTINUOUS
 70
0
 71
3
 72
22
 73
18
 74
0
 42
0.0000001
 43
0.0000001
 44
0.0000000001
 40
0.0
 40
0.0
 40
0.0
 40
0.0
 40
0.162321669
 40
0.3306247035
 40
0.4967012546
 40
0.6523451692
 40
0.7237421349
 40
0.7894880903
 40
0.848533679
 40
0.8997486967
 40
0.941866517
 40
0.9590746233
 40
0.9734537589
 40
0.9848015971
 40
0.9930216311
 40
0.9980486857
 40
1.0
 40
1.0
 40
1.0
 40
1.0
 10
552.2537515459
 20
199.6384356653
 30
0.0
 10
551.1995600738
 20
198.72547907
 30
0.0
 10
549.1377271787
 20
196.7658204009
 30
0.0
 10
546.2846742619
 20
193.586958563
 30
0.0
 10
543.7225170181
 20
190.2410537138
 30
0.0
 10
541.8956619555
 20
187.3941477522
 30
0.0
 10
540.7011251455
 20
185.1792076641
 30
0.0
 10
539.9855263962
 20
183.6520141794
 30
0.0
 10
539.4338596934
 20
182.2426490453
 30
0.0
 10
539.0530641782
 20
180.9886864728
 30
0.0
 10
538.8636777486
 20
180.0556826771
 30
0.0
 10
538.800607647
 20
179.4251742989
 30
0.0
 10
538.789538959
 20
179.0560600433
 30
0.0
 10
538.8059127304
 20
178.7645436645
 30
0.0
 10
538.8378964003
 20
178.5551078584
 30
0.0
 10
538.8706011526
 20
178.428829821
 30
0.0
 10
538.8896778653
 20
178.3715938671
 30
0.0
 10
538.8974987114
 20
178.3567654801
 30
0.0
  0
SPLINE
  5
509
100
AcDbEntity
  8
KONSTRUKTIONSELEMENTE
100
AcDbSpline
 62
7
  6
CONTINUOUS
 70
0
 71
3
 72
11
 73
7
 74
0
 42
0.0000001
 43
0.0000001
 44
0.0000000001
 40
0.0
 40
0.0
 40
0.0
 40
0.0
 40
0.2097914905
 40
0.4448755675
 40
0.7092742741
 40
1.0
 40
1.0
 40
1.0
 40
1.0
 10
540.1567731888
 20
172.5184765249
 30
0.0
 10
541.1254548812
 20
172.6374691147
 30
0.0
 10
543.1426368861
 20
173.1917161645
 30
0.0
 10
546.1220224693
 20
174.6310918347
 30
0.0
 10
549.2109995607
 20
176.63850233
 30
0.0
 10
551.2313774175
 20
178.2530336979
 30
0.0
 10
552.2537515459
 20
179.1384356653
 30
0.0
  0
LINE
  5
50A
100
AcDbEntity
  8
KONSTRUKTIONSELEMENTE
100
AcDbLine
 62
7
  6
CONTINUOUS
 10
570.831705257
 20
205.8620043898
 11
570.833416439
 21
205.8966947694
  0
LINE
  5
50B
100
AcDbEntity
  8
KONSTRUKTIONSELEMENTE
100
AcDbLine
 62
7
  6
CONTINUOUS
 10
570.833416439
 20
205.8966947694
 11
570.8367956766
 21
205.9601086293
  0
LINE
  5
50C
100
AcDbEntity
  8
KONSTRUKTIONSELEMENTE
100
AcDbLine
 62
7
  6
CONTINUOUS
 10
570.964377671
 20
206.2633072183
 11
570.8367956766
 21
205.9601086293
  0
LINE
  5
50D
100
AcDbEntity
  8
KONSTRUKTIONSELEMENTE
100
AcDbLine
 62
7
  6
CONTINUOUS
 10
572.2377291053
 20
211.6826329025
 11
572.1004722083
 21
211.2752929104
  0
LINE
  5
50E
100
AcDbEntity
  8
KONSTRUKTIONSELEMENTE
100
AcDbLine
 62
7
  6
CONTINUOUS
 10
572.1004722083
 20
211.2752929104
 11
571.9267101375
 21
210.7539814276
  0
LINE
  5
50F
100
AcDbEntity
  8
KONSTRUKTIONSELEMENTE
100
AcDbLine
 62
7
  6
CONTINUOUS
 10
571.9267101375
 20
210.7539814276
 11
571.4002371382
 21
209.1657755606
  0
LINE
  5
510
100
AcDbEntity
  8
KONSTRUKTIONSELEMENTE
100
AcDbLine
 62
7
  6
CONTINUOUS
 10
571.2228152859
 20
208.6282829342
 11
571.4002371382
 21
209.1657755606
  0
LINE
  5
511
100
AcDbEntity
  8
KONSTRUKTIONSELEMENTE
100
AcDbLine
 62
7
  6
CONTINUOUS
 10
571.078724103
 20
208.1885798022
 11
571.2228152859
 21
208.6282829342
  0
SPLINE
  5
512
100
AcDbEntity
  8
KONSTRUKTIONSELEMENTE
100
AcDbSpline
 62
7
  6
CONTINUOUS
 70
0
 71
3
 72
8
 73
4
 74
0
 42
0.0000001
 43
0.0000001
 44
0.0000000001
 40
0.0
 40
0.0
 40
0.0
 40
0.0
 40
1.0
 40
1.0
 40
1.0
 40
1.0
 10
570.8388727575
 20
207.1480593036
 30
0.0
 10
570.8223026086
 20
207.210999587
 30
0.0
 10
570.8149629919
 20
207.2772429414
 30
0.0
 10
570.818395034
 20
207.3422373273
 30
0.0
  0
LINE
  5
513
100
AcDbEntity
  8
KONSTRUKTIONSELEMENTE
100
AcDbLine
 62
7
  6
CONTINUOUS
 10
570.9218804982
 20
207.1270603923
 11
570.92719931
 21
207.1480600254
  0
SPLINE
  5
514
100
AcDbEntity
  8
0
100
AcDbSpline
 62
7
  6
CONTINUOUS
 70
0
 71
3
 72
13
 73
9
 74
0
 42
0.0000001
 43
0.0000001
 44
0.0000000001
 40
0.0
 40
0.0
 40
0.0
 40
0.0
 40
0.1163020077
 40
0.2340377015
 40
0.3543777481
 40
0.4780373202
 40
0.7344007909
 40
1.0
 40
1.0
 40
1.0
 40
1.0
 10
571.0563238885
 20
164.8529623098
 30
0.0
 10
571.0563238885
 20
164.5270497449
 30
0.0
 10
571.1315694652
 20
163.8688387633
 30
0.0
 10
571.4643973163
 20
162.9250122402
 30
0.0
 10
572.0033122339
 20
162.0572383344
 30
0.0
 10
572.9763447315
 20
161.0358802226
 30
0.0
 10
574.5873400383
 20
160.1202892354
 30
0.0
 10
576.0620074234
 20
159.8733162381
 30
0.0
 10
576.8062948283
 20
159.8733162381
 30
0.0
  0
SPLINE
  5
515
100
AcDbEntity
  8
0
100
AcDbSpline
 62
7
  6
CONTINUOUS
 70
0
 71
3
 72
13
 73
9
 74
0
 42
0.0000001
 43
0.0000001
 44
0.0000000001
 40
0.0
 40
0.0
 40
0.0
 40
0.0
 40
0.2655992091
 40
0.5219626798
 40
0.6456222519
 40
0.7659622985
 40
0.8836979923
 40
1.0
 40
1.0
 40
1.0
 40
1.0
 10
576.8062948283
 20
159.8733162381
 30
0.0
 10
577.5505822333
 20
159.8733162381
 30
0.0
 10
579.0252496183
 20
160.1202892354
 30
0.0
 10
580.6362449251
 20
161.0358802226
 30
0.0
 10
581.6092774228
 20
162.0572383344
 30
0.0
 10
582.1481923403
 20
162.9250122402
 30
0.0
 10
582.4810201915
 20
163.8688387633
 30
0.0
 10
582.5562657681
 20
164.5270497449
 30
0.0
 10
582.5562657681
 20
164.8529623098
 30
0.0
  0
SPLINE
  5
516
100
AcDbEntity
  8
KONSTRUKTIONSELEMENTE
100
AcDbSpline
 62
7
  6
CONTINUOUS
 70
0
 71
3
 72
9
 73
5
 74
0
 42
0.0000001
 43
0.0000001
 44
0.0000000001
 40
0.0
 40
0.0
 40
0.0
 40
0.0
 40
0.2398803349
 40
1.0
 40
1.0
 40
1.0
 40
1.0
 10
588.6930872811
 20
153.074394987
 30
0.0
 10
588.8120345515
 20
153.239948955
 30
0.0
 10
589.2954018528
 20
153.939093981
 30
0.0
 10
589.7340233929
 20
154.6683277613
 30
0.0
 10
590.0515778472
 20
155.2308457164
 30
0.0
  0
SPLINE
  5
517
100
AcDbEntity
  8
KONSTRUKTIONSELEMENTE
100
AcDbSpline
 62
7
  6
CONTINUOUS
 70
0
 71
3
 72
10
 73
6
 74
0
 42
0.0000001
 43
0.0000001
 44
0.0000000001
 40
0.0
 40
0.0
 40
0.0
 40
0.0
 40
0.4956209785
 40
0.7555164176
 40
1.0
 40
1.0
 40
1.0
 40
1.0
 10
590.1364218472
 20
153.9926405396
 30
0.0
 10
590.3056651703
 20
153.5120184496
 30
0.0
 10
590.5439931792
 20
152.7708864674
 30
0.0
 10
590.756252158
 20
151.7640291547
 30
0.0
 10
590.8062948283
 20
151.2455133021
 30
0.0
 10
590.8062948283
 20
150.9941588575
 30
0.0
  0
SPLINE
  5
518
100
AcDbEntity
  8
KONSTRUKTIONSELEMENTE
100
AcDbSpline
 62
7
  6
CONTINUOUS
 70
0
 71
3
 72
10
 73
6
 74
0
 42
0.0000001
 43
0.0000001
 44
0.0000000001
 40
0.0
 40
0.0
 40
0.0
 40
0.0
 40
0.5588530378
 40
0.7988507358
 40
1.0
 40
1.0
 40
1.0
 40
1.0
 10
590.0515778472
 20
155.2308457164
 30
0.0
 10
590.2741331114
 20
155.6250815095
 30
0.0
 10
590.5571280429
 20
156.2135882844
 30
0.0
 10
590.7676488447
 20
156.9979465998
 30
0.0
 10
590.8062948283
 20
157.355512506
 30
0.0
 10
590.8062948283
 20
157.5184599906
 30
0.0
  0
SPLINE
  5
519
100
AcDbEntity
  8
BEZUGSACHSEN
100
AcDbSpline
 62
7
  6
CONTINUOUS
 70
0
 71
3
 72
9
 73
5
 74
0
 42
0.0000001
 43
0.0000001
 44
0.0000000001
 40
0.0
 40
0.0
 40
0.0
 40
0.0
 40
0.4971032038
 40
1.0
 40
1.0
 40
1.0
 40
1.0
 10
562.8062948283
 20
138.126039843
 30
0.0
 10
562.8062948283
 20
137.7206291663
 30
0.0
 10
562.9324237853
 20
136.9003566404
 30
0.0
 10
563.2961385241
 20
136.1558167318
 30
0.0
 10
563.5257843069
 20
135.8160020163
 30
0.0
  0
SPLINE
  5
51A
100
AcDbEntity
  8
BEZUGSACHSEN
100
AcDbSpline
 62
7
  6
CONTINUOUS
 70
0
 71
3
 72
9
 73
5
 74
0
 42
0.0000001
 43
0.0000001
 44
0.0000000001
 40
0.0
 40
0.0
 40
0.0
 40
0.0
 40
0.5028158989
 40
1.0
 40
1.0
 40
1.0
 40
1.0
 10
563.5101429188
 20
172.4076625061
 30
0.0
 10
563.2852577672
 20
172.0703347785
 30
0.0
 10
562.9295684822
 20
171.3326405101
 30
0.0
 10
562.8062948283
 20
170.5217880899
 30
0.0
 10
562.8062948283
 20
170.1209115023
 30
0.0
  0
SPLINE
  5
51B
100
AcDbEntity
  8
BEZUGSACHSEN
100
AcDbSpline
 62
7
  6
CONTINUOUS
 70
0
 71
3
 72
9
 73
5
 74
0
 42
0.0000001
 43
0.0000001
 44
0.0000000001
 40
0.0
 40
0.0
 40
0.0
 40
0.0
 40
0.245143411
 40
1.0
 40
1.0
 40
1.0
 40
1.0
 10
574.2925652084
 20
216.3265498042
 30
0.0
 10
574.3118541498
 20
216.3848587878
 30
0.0
 10
574.3950599349
 20
216.6212114081
 30
0.0
 10
574.4955077525
 20
216.85136587
 30
0.0
 10
574.5789332151
 20
217.0210872802
 30
0.0
  0
SPLINE
  5
51C
100
AcDbEntity
  8
RUNDUNGEN
100
AcDbSpline
 62
7
  6
CONTINUOUS
 70
0
 71
3
 72
9
 73
5
 74
0
 42
0.0000001
 43
0.0000001
 44
0.0000000001
 40
0.0
 40
0.0
 40
0.0
 40
0.0
 40
0.4971032038
 40
1.0
 40
1.0
 40
1.0
 40
1.0
 10
590.8062948283
 20
138.126039843
 30
0.0
 10
590.8062948283
 20
137.7206291663
 30
0.0
 10
590.6801658713
 20
136.9003566404
 30
0.0
 10
590.3164511325
 20
136.1558167318
 30
0.0
 10
590.0868053497
 20
135.8160020163
 30
0.0
  0
SPLINE
  5
51D
100
AcDbEntity
  8
RUNDUNGEN
100
AcDbSpline
 62
7
  6
CONTINUOUS
 70
0
 71
3
 72
9
 73
5
 74
0
 42
0.0000001
 43
0.0000001
 44
0.0000000001
 40
0.0
 40
0.0
 40
0.0
 40
0.0
 40
0.5028158989
 40
1.0
 40
1.0
 40
1.0
 40
1.0
 10
590.1024467378
 20
172.4076625061
 30
0.0
 10
590.3273318895
 20
172.0703347785
 30
0.0
 10
590.6830211744
 20
171.3326405101
 30
0.0
 10
590.8062948283
 20
170.5217880899
 30
0.0
 10
590.8062948283
 20
170.1209115023
 30
0.0
  0
SPLINE
  5
51E
100
AcDbEntity
  8
BEZUGSACHSEN
100
AcDbSpline
 62
7
  6
CONTINUOUS
 70
0
 71
3
 72
9
 73
5
 74
0
 42
0.0000001
 43
0.0000001
 44
0.0000000001
 40
0.0
 40
0.0
 40
0.0
 40
0.0
 40
0.2541958975
 40
1.0
 40
1.0
 40
1.0
 40
1.0
 10
586.1140715431
 20
150.4230057005
 30
0.0
 10
586.3627857192
 20
150.6147154505
 30
0.0
 10
587.3147876875
 20
151.4023721336
 30
0.0
 10
588.155493344
 20
152.3261574766
 30
0.0
 10
588.6930872811
 20
153.074394987
 30
0.0
  0
SPLINE
  5
51F
100
AcDbEntity
  8
BEZUGSACHSEN
100
AcDbSpline
 62
7
  6
CONTINUOUS
 70
0
 71
3
 72
17
 73
13
 74
0
 42
0.0000001
 43
0.0000001
 44
0.0000000001
 40
0.0
 40
0.0
 40
0.0
 40
0.0
 40
0.0585309297
 40
0.1182345091
 40
0.2412696431
 40
0.3691863516
 40
0.5000000021
 40
0.6308136521
 40
0.7587303595
 40
0.8817654921
 40
0.9414690709
 40
1.0
 40
1.0
 40
1.0
 40
1.0
 10
587.6344915868
 20
151.8083211736
 30
0.0
 10
587.4353650506
 20
151.3248492203
 30
0.0
 10
586.9476866783
 20
150.3811166876
 30
0.0
 10
585.652848701
 20
148.6483017418
 30
0.0
 10
583.4761882581
 20
146.8517864333
 30
0.0
 10
580.2969247526
 20
145.5041708068
 30
0.0
 10
576.8062943579
 20
145.041483843
 30
0.0
 10
573.315664005
 20
145.5041710505
 30
0.0
 10
570.1364006215
 20
146.8517869011
 30
0.0
 10
567.9597403429
 20
148.6483023667
 30
0.0
 10
566.6649025285
 20
150.3811174049
 30
0.0
 10
566.1772242454
 20
151.3248499714
 30
0.0
 10
565.978097755
 20
151.8083219381
 30
0.0
  0
SPLINE
  5
520
100
AcDbEntity
  8
0
100
AcDbSpline
 62
7
  6
CONTINUOUS
 70
0
 71
3
 72
9
 73
5
 74
0
 42
0.0000001
 43
0.0000001
 44
0.0000000001
 40
0.0
 40
0.0
 40
0.0
 40
0.0
 40
0.245143411
 40
1.0
 40
1.0
 40
1.0
 40
1.0
 10
579.3200244483
 20
216.3265498042
 30
0.0
 10
579.3007355068
 20
216.3848587878
 30
0.0
 10
579.2175297218
 20
216.6212114081
 30
0.0
 10
579.1170819042
 20
216.85136587
 30
0.0
 10
579.0336564415
 20
217.0210872802
 30
0.0
  0
SPLINE
  5
521
100
AcDbEntity
  8
BEZUGSACHSEN
100
AcDbSpline
 62
7
  6
CONTINUOUS
 70
0
 71
3
 72
9
 73
5
 74
0
 42
0.0000001
 43
0.0000001
 44
0.0000000001
 40
0.0
 40
0.0
 40
0.0
 40
0.0
 40
0.2463738429
 40
1.0
 40
1.0
 40
1.0
 40
1.0
 10
564.9195023755
 20
153.074394987
 30
0.0
 10
565.0969314203
 20
152.8274445332
 30
0.0
 10
565.8550236237
 20
151.8527037269
 30
0.0
 10
566.7591490247
 20
150.9932230802
 30
0.0
 10
567.4956961187
 20
150.425181495
 30
0.0
  0
LINE
  5
522
100
AcDbEntity
  8
KONSTRUKTIONSELEMENTE
100
AcDbLine
 62
7
  6
CONTINUOUS
 10
582.573792605
 20
207.8318861712
 11
582.4721848314
 21
208.1380866139
  0
LINE
  5
523
100
AcDbEntity
  8
KONSTRUKTIONSELEMENTE
100
AcDbLine
 62
7
  6
CONTINUOUS
 10
582.4721848314
 20
208.1380866139
 11
582.2948103403
 21
208.6725872779
  0
LINE
  5
524
100
AcDbEntity
  8
KONSTRUKTIONSELEMENTE
100
AcDbLine
 62
7
  6
CONTINUOUS
 10
582.2948103403
 20
208.6725872779
 11
582.2712771174
 21
208.7434998731
  0
LINE
  5
525
100
AcDbEntity
  8
KONSTRUKTIONSELEMENTE
100
AcDbLine
 62
7
  6
CONTINUOUS
 10
582.2712771174
 20
208.7434998731
 11
581.343854875
 21
211.537700034
  0
LINE
  5
526
100
AcDbEntity
  8
KONSTRUKTIONSELEMENTE
100
AcDbLine
 62
7
  6
CONTINUOUS
 10
581.3722092929
 20
211.6903445305
 11
581.3748605513
 21
211.6826329025
  0
LINE
  5
527
100
AcDbEntity
  8
KONSTRUKTIONSELEMENTE
100
AcDbLine
 62
7
  6
CONTINUOUS
 10
581.3748605513
 20
211.6826329025
 11
581.4094039721
 21
211.5802493046
  0
LINE
  5
528
100
AcDbEntity
  8
KONSTRUKTIONSELEMENTE
100
AcDbLine
 62
7
  6
CONTINUOUS
 10
581.4094039721
 20
211.5802493046
 11
581.4437946202
 21
211.4782314467
  0
LINE
  5
529
100
AcDbEntity
  8
KONSTRUKTIONSELEMENTE
100
AcDbLine
 62
7
  6
CONTINUOUS
 10
581.4437946202
 20
211.4782314467
 11
581.4780324584
 21
211.3765793187
  0
LINE
  5
52A
100
AcDbEntity
  8
KONSTRUKTIONSELEMENTE
100
AcDbLine
 62
7
  6
CONTINUOUS
 10
582.6806117801
 20
207.7326952671
 11
582.6443683137
 21
207.84570562
  0
LINE
  5
52B
100
AcDbEntity
  8
KONSTRUKTIONSELEMENTE
100
AcDbLine
 62
7
  6
CONTINUOUS
 10
582.6443683137
 20
207.84570562
 11
582.6078295532
 21
207.9593565162
  0
LINE
  5
52C
100
AcDbEntity
  8
KONSTRUKTIONSELEMENTE
100
AcDbLine
 62
7
  6
CONTINUOUS
 10
582.6078295532
 20
207.9593565162
 11
582.5338655537
 21
208.1885798022
  0
LINE
  5
52D
100
AcDbEntity
  8
KONSTRUKTIONSELEMENTE
100
AcDbLine
 62
7
  6
CONTINUOUS
 10
582.393413454
 20
208.1119465393
 11
582.2161051805
 21
208.6464691724
  0
SPLINE
  5
52E
100
AcDbEntity
  8
BEZUGSACHSEN
100
AcDbSpline
 62
7
  6
CONTINUOUS
 70
0
 71
3
 72
9
 73
5
 74
0
 42
0.0000001
 43
0.0000001
 44
0.0000000001
 40
0.0
 40
0.0
 40
0.0
 40
0.0
 40
0.2398803349
 40
1.0
 40
1.0
 40
1.0
 40
1.0
 10
564.9195023755
 20
153.074394987
 30
0.0
 10
564.8005551052
 20
153.239948955
 30
0.0
 10
564.3171878038
 20
153.939093981
 30
0.0
 10
563.8785662637
 20
154.6683277613
 30
0.0
 10
563.5610118095
 20
155.2308457164
 30
0.0
  0
LINE
  5
52F
100
AcDbEntity
  8
KONSTRUKTIONSELEMENTE
100
AcDbLine
 62
7
  6
CONTINUOUS
 10
582.5371634526
 20
207.6571220902
 11
582.5014350381
 21
207.7702536762
  0
LINE
  5
530
100
AcDbEntity
  8
KONSTRUKTIONSELEMENTE
100
AcDbLine
 62
7
  6
CONTINUOUS
 10
582.5014350381
 20
207.7702536762
 11
582.393413454
 21
208.1119465393
  0
LINE
  5
531
100
AcDbEntity
  8
KONSTRUKTIONSELEMENTE
100
AcDbLine
 62
7
  6
CONTINUOUS
 10
582.6831353261
 20
207.1569536759
 11
582.6470881481
 21
207.2809369623
  0
LINE
  5
532
100
AcDbEntity
  8
KONSTRUKTIONSELEMENTE
100
AcDbLine
 62
7
  6
CONTINUOUS
 10
582.6470881481
 20
207.2809369623
 11
582.6107438866
 21
207.4056261542
  0
LINE
  5
533
100
AcDbEntity
  8
KONSTRUKTIONSELEMENTE
100
AcDbLine
 62
7
  6
CONTINUOUS
 10
582.6107438866
 20
207.4056261542
 11
582.5371634526
 21
207.6571220902
  0
LINE
  5
534
100
AcDbEntity
  8
KONSTRUKTIONSELEMENTE
100
AcDbLine
 62
7
  6
CONTINUOUS
 10
582.7949957314
 20
206.6231236767
 11
582.7948355028
 21
206.6457956449
  0
SPLINE
  5
535
100
AcDbEntity
  8
BEZUGSACHSEN
100
AcDbSpline
 62
7
  6
CONTINUOUS
 70
0
 71
3
 72
10
 73
6
 74
0
 42
0.0000001
 43
0.0000001
 44
0.0000000001
 40
0.0
 40
0.0
 40
0.0
 40
0.0
 40
0.4956209785
 40
0.7555164176
 40
1.0
 40
1.0
 40
1.0
 40
1.0
 10
563.4761678094
 20
153.9926405396
 30
0.0
 10
563.3069244863
 20
153.5120184496
 30
0.0
 10
563.0685964775
 20
152.7708864674
 30
0.0
 10
562.8563374987
 20
151.7640291547
 30
0.0
 10
562.8062948283
 20
151.2455133021
 30
0.0
 10
562.8062948283
 20
150.9941588575
 30
0.0
  0
SPLINE
  5
536
100
AcDbEntity
  8
BEZUGSACHSEN
100
AcDbSpline
 62
7
  6
CONTINUOUS
 70
0
 71
3
 72
10
 73
6
 74
0
 42
0.0000001
 43
0.0000001
 44
0.0000000001
 40
0.0
 40
0.0
 40
0.0
 40
0.0
 40
0.5588530378
 40
0.7988507358
 40
1.0
 40
1.0
 40
1.0
 40
1.0
 10
563.5610118095
 20
155.2308457164
 30
0.0
 10
563.3384565452
 20
155.6250815095
 30
0.0
 10
563.0554616137
 20
156.2135882844
 30
0.0
 10
562.844940812
 20
156.9979465998
 30
0.0
 10
562.8062948283
 20
157.355512506
 30
0.0
 10
562.8062948283
 20
157.5184599906
 30
0.0
  0
LINE
  5
537
100
AcDbEntity
  8
KONSTRUKTIONSELEMENTE
100
AcDbLine
 62
7
  6
CONTINUOUS
 10
582.2250003974
 20
207.9663104537
 11
582.1276586224
 21
208.2498018135
  0
LINE
  5
538
100
AcDbEntity
  8
KONSTRUKTIONSELEMENTE
100
AcDbLine
 62
7
  6
CONTINUOUS
 10
582.1276586224
 20
208.2498018135
 11
581.9612795555
 21
208.7343377913
  0
LINE
  5
539
100
AcDbEntity
  8
KONSTRUKTIONSELEMENTE
100
AcDbLine
 62
7
  6
CONTINUOUS
 10
581.9612795555
 20
208.7343377913
 11
581.9559935331
 21
208.7497316681
  0
LINE
  5
53A
100
AcDbEntity
  8
KONSTRUKTIONSELEMENTE
100
AcDbLine
 62
7
  6
CONTINUOUS
 10
581.9559935331
 20
208.7497316681
 11
581.8505856718
 21
209.0566952315
  0
LINE
  5
53B
100
AcDbEntity
  8
KONSTRUKTIONSELEMENTE
100
AcDbLine
 62
7
  6
CONTINUOUS
 10
581.8505856718
 20
209.0566952315
 11
581.7180648464
 21
209.4426062236
  0
LINE
  5
53C
100
AcDbEntity
  8
KONSTRUKTIONSELEMENTE
100
AcDbLine
 62
7
  6
CONTINUOUS
 10
581.7180648464
 20
209.4426062236
 11
581.176186155
 21
211.0204981183
  0
LINE
  5
53D
100
AcDbEntity
  8
KONSTRUKTIONSELEMENTE
100
AcDbLine
 62
7
  6
CONTINUOUS
 10
581.176186155
 20
211.0204981183
 11
581.1352187053
 21
211.1397848057
  0
LINE
  5
53E
100
AcDbEntity
  8
KONSTRUKTIONSELEMENTE
100
AcDbLine
 62
7
  6
CONTINUOUS
 10
582.2250003974
 20
207.9663104537
 11
582.3667572711
 21
207.5795018184
  0
LINE
  5
53F
100
AcDbEntity
  8
KONSTRUKTIONSELEMENTE
100
AcDbLine
 62
7
  6
CONTINUOUS
 10
582.3667572711
 20
207.5795018184
 11
582.4544172081
 21
207.366122743
  0
LINE
  5
540
100
AcDbEntity
  8
KONSTRUKTIONSELEMENTE
100
AcDbLine
 62
7
  6
CONTINUOUS
 10
582.4544172081
 20
207.366122743
 11
582.4742630631
 21
207.3177354399
  0
LINE
  5
541
100
AcDbEntity
  8
KONSTRUKTIONSELEMENTE
100
AcDbLine
 62
7
  6
CONTINUOUS
 10
581.1274277443
 20
211.8199435244
 11
581.1700084718
 21
211.6958486941
  0
LINE
  5
542
100
AcDbEntity
  8
KONSTRUKTIONSELEMENTE
100
AcDbLine
 62
7
  6
CONTINUOUS
 10
581.1700084718
 20
211.6958486941
 11
581.3370428875
 21
211.2090340206
  0
LINE
  5
543
100
AcDbEntity
  8
KONSTRUKTIONSELEMENTE
100
AcDbLine
 62
7
  6
CONTINUOUS
 10
581.3370428875
 20
211.2090340206
 11
582.2161051805
 21
208.6464691724
  0
LINE
  5
544
100
AcDbEntity
  8
KONSTRUKTIONSELEMENTE
100
AcDbLine
 62
7
  6
CONTINUOUS
 10
581.8371542502
 20
207.386754026
 11
581.3099004921
 21
208.823668778
  0
LINE
  5
545
100
AcDbEntity
  8
KONSTRUKTIONSELEMENTE
100
AcDbLine
 62
7
  6
CONTINUOUS
 10
582.7860284691
 20
204.8003076872
 11
582.0480373444
 21
206.8119882326
  0
LINE
  5
546
100
AcDbEntity
  8
KONSTRUKTIONSELEMENTE
100
AcDbLine
 62
7
  6
CONTINUOUS
 10
581.4099900454
 20
209.6235992321
 11
581.436036587
 21
209.5606121015
  0
LINE
  5
547
100
AcDbEntity
  8
KONSTRUKTIONSELEMENTE
100
AcDbLine
 62
7
  6
CONTINUOUS
 10
581.436036587
 20
209.5606121015
 11
581.5137917519
 21
209.3724600792
  0
LINE
  5
548
100
AcDbEntity
  8
KONSTRUKTIONSELEMENTE
100
AcDbLine
 62
7
  6
CONTINUOUS
 10
581.5137917519
 20
209.3724600792
 11
581.654272816
 21
208.9892826152
  0
LINE
  5
549
100
AcDbEntity
  8
KONSTRUKTIONSELEMENTE
100
AcDbLine
 62
7
  6
CONTINUOUS
 10
581.7612597871
 20
208.6656559747
 11
581.654272816
 21
208.9892826152
  0
LINE
  5
54A
100
AcDbEntity
  8
KONSTRUKTIONSELEMENTE
100
AcDbLine
 62
7
  6
CONTINUOUS
 10
581.9061679241
 20
208.173747444
 11
581.7612597871
 21
208.6656559747
  0
LINE
  5
54B
100
AcDbEntity
  8
KONSTRUKTIONSELEMENTE
100
AcDbLine
 62
7
  6
CONTINUOUS
 10
581.9810503301
 20
207.8371837673
 11
582.0196272867
 21
207.7466527287
  0
LINE
  5
54C
100
AcDbEntity
  8
KONSTRUKTIONSELEMENTE
100
AcDbLine
 62
7
  6
CONTINUOUS
 10
582.0196272867
 20
207.7466527287
 11
582.1398948542
 21
207.4640670602
  0
LINE
  5
54D
100
AcDbEntity
  8
KONSTRUKTIONSELEMENTE
100
AcDbLine
 62
7
  6
CONTINUOUS
 10
582.1398948542
 20
207.4640670602
 11
582.1866203728
 21
207.3541330881
  0
LINE
  5
54E
100
AcDbEntity
  8
KONSTRUKTIONSELEMENTE
100
AcDbLine
 62
7
  6
CONTINUOUS
 10
582.1866203728
 20
207.3541330881
 11
582.2228809186
 21
207.2687627799
  0
SPLINE
  5
54F
100
AcDbEntity
  8
KONSTRUKTIONSELEMENTE
100
AcDbSpline
 62
7
  6
CONTINUOUS
 70
0
 71
3
 72
9
 73
5
 74
0
 42
0.0000001
 43
0.0000001
 44
0.0000000001
 40
0.0
 40
0.0
 40
0.0
 40
0.0
 40
0.2251885309
 40
1.0
 40
1.0
 40
1.0
 40
1.0
 10
590.0515778472
 20
140.4460054212
 30
0.0
 10
589.9397747384
 20
140.3328330819
 30
0.0
 10
589.453559383
 20
139.8201331286
 30
0.0
 10
589.0124708575
 20
139.265416236
 30
0.0
 10
588.6930872811
 20
138.8208896974
 30
0.0
  0
SPLINE
  5
550
100
AcDbEntity
  8
0
100
AcDbSpline
 62
7
  6
CONTINUOUS
 70
0
 71
3
 72
11
 73
7
 74
0
 42
0.0000001
 43
0.0000001
 44
0.0000000001
 40
0.0
 40
0.0
 40
0.0
 40
0.0
 40
0.2342863999
 40
0.4794400193
 40
0.7361131198
 40
1.0
 40
1.0
 40
1.0
 40
1.0
 10
582.4442997494
 20
164.8309661154
 30
0.0
 10
582.3138347459
 20
165.3952695578
 30
0.0
 10
581.8090082211
 20
166.5052757378
 30
0.0
 10
580.4860351597
 20
167.805476243
 30
0.0
 10
578.7540558542
 20
168.6417409551
 30
0.0
 10
577.458659993
 20
168.8326083816
 30
0.0
 10
576.8062948283
 20
168.8326083816
 30
0.0
  0
SPLINE
  5
551
100
AcDbEntity
  8
0
100
AcDbSpline
 62
7
  6
CONTINUOUS
 70
0
 71
3
 72
9
 73
5
 74
0
 42
0.0000001
 43
0.0000001
 44
0.0000000001
 40
0.0
 40
0.0
 40
0.0
 40
0.0
 40
0.5001658481
 40
1.0
 40
1.0
 40
1.0
 40
1.0
 10
579.0336564415
 20
209.1577608625
 30
0.0
 10
579.2863570162
 20
207.0163699327
 30
0.0
 10
579.6167382745
 20
202.7114170926
 30
0.0
 10
579.5307856175
 20
198.3936107586
 30
0.0
 10
579.3882063803
 20
196.2435132777
 30
0.0
  0
SPLINE
  5
552
100
AcDbEntity
  8
0
100
AcDbSpline
 62
7
  6
CONTINUOUS
 70
0
 71
3
 72
11
 73
7
 74
0
 42
0.0000001
 43
0.0000001
 44
0.0000000001
 40
0.0
 40
0.0
 40
0.0
 40
0.0
 40
0.2516599876
 40
0.5000000005
 40
0.7483400135
 40
1.0
 40
1.0
 40
1.0
 40
1.0
 10
579.0336564415
 20
217.0210872802
 30
0.0
 10
579.1960397803
 20
216.3748174766
 30
0.0
 10
579.4509869395
 20
215.0721060261
 30
0.0
 10
579.5841914153
 20
213.0894240671
 30
0.0
 10
579.4509869437
 20
211.1067421102
 30
0.0
 10
579.1960397796
 20
209.8040306633
 30
0.0
 10
579.0336564415
 20
209.1577608625
 30
0.0
  0
SPLINE
  5
553
100
AcDbEntity
  8
0
100
AcDbSpline
 62
7
  6
CONTINUOUS
 70
0
 71
3
 72
11
 73
7
 74
0
 42
0.0000001
 43
0.0000001
 44
0.0000000001
 40
0.0
 40
0.0
 40
0.0
 40
0.0
 40
0.2342863999
 40
0.4794400193
 40
0.7361131198
 40
1.0
 40
1.0
 40
1.0
 40
1.0
 10
571.1682899073
 20
164.8309661154
 30
0.0
 10
571.2987549108
 20
165.3952695578
 30
0.0
 10
571.8035814355
 20
166.5052757378
 30
0.0
 10
573.1265544969
 20
167.805476243
 30
0.0
 10
574.8585338025
 20
168.6417409551
 30
0.0
 10
576.1539296636
 20
168.8326083816
 30
0.0
 10
576.8062948283
 20
168.8326083816
 30
0.0
  0
SPLINE
  5
554
100
AcDbEntity
  8
0
100
AcDbSpline
 62
7
  6
CONTINUOUS
 70
0
 71
3
 72
8
 73
4
 74
0
 42
0.0000001
 43
0.0000001
 44
0.0000000001
 40
0.0
 40
0.0
 40
0.0
 40
0.0
 40
1.0
 40
1.0
 40
1.0
 40
1.0
 10
580.5991928261
 20
209.0851776024
 30
0.0
 10
581.1493822244
 20
207.584473547
 30
0.0
 10
581.6994176035
 20
206.0837129949
 30
0.0
 10
582.2491596783
 20
204.5828450171
 30
0.0
  0
LINE
  5
555
100
AcDbEntity
  8
0
100
AcDbLine
 62
7
  6
CONTINUOUS
 10
580.795455305
 20
211.1397851128
 11
580.775740422
 21
211.1971912952
  0
LINE
  5
556
100
AcDbEntity
  8
0
100
AcDbLine
 62
7
  6
CONTINUOUS
 10
580.775740422
 20
211.1971912952
 11
580.6085844007
 21
211.6839117807
  0
LINE
  5
557
100
AcDbEntity
  8
0
100
AcDbLine
 62
7
  6
CONTINUOUS
 10
580.6007934426
 20
211.0037529971
 11
580.9313128401
 21
210.0404533698
  0
SPLINE
  5
558
100
AcDbEntity
  8
0
100
AcDbSpline
 62
7
  6
CONTINUOUS
 70
0
 71
3
 72
9
 73
5
 74
0
 42
0.0000001
 43
0.0000001
 44
0.0000000001
 40
0.0
 40
0.0
 40
0.0
 40
0.0
 40
0.5094747824
 40
1.0
 40
1.0
 40
1.0
 40
1.0
 10
576.8062948283
 20
144.3135086169
 30
0.0
 10
575.9934575151
 20
144.3135086169
 30
0.0
 10
574.3846662187
 20
144.5924984518
 30
0.0
 10
572.9754973352
 20
145.4329135698
 30
0.0
 10
572.3996985757
 20
145.962937546
 30
0.0
  0
SPLINE
  5
559
100
AcDbEntity
  8
BEZUGSACHSEN
100
AcDbSpline
 62
7
  6
CONTINUOUS
 70
0
 71
3
 72
13
 73
9
 74
0
 42
0.0000001
 43
0.0000001
 44
0.0000000001
 40
0.0
 40
0.0
 40
0.0
 40
0.0
 40
0.1219695998
 40
0.2465987344
 40
0.4999945557
 40
0.7533934455
 40
0.8780260612
 40
1.0
 40
1.0
 40
1.0
 40
1.0
 10
567.4956961187
 20
150.425181495
 30
0.0
 10
568.1364360095
 20
149.9310285667
 30
0.0
 10
569.5244411037
 20
149.0464073924
 30
0.0
 10
572.5921504475
 20
147.7528061843
 30
0.0
 10
576.804396068
 20
147.0892719293
 30
0.0
 10
581.0168138041
 20
147.7518323588
 30
0.0
 10
584.0849049678
 20
149.0447099188
 30
0.0
 10
585.473179055
 20
149.9290035469
 30
0.0
 10
586.1140715431
 20
150.4230057005
 30
0.0
  0
SPLINE
  5
55A
100
AcDbEntity
  8
BEZUGSACHSEN
100
AcDbSpline
 62
7
  6
CONTINUOUS
 70
0
 71
3
 72
15
 73
11
 74
0
 42
0.0000001
 43
0.0000001
 44
0.0000000001
 40
0.0
 40
0.0
 40
0.0
 40
0.0
 40
0.1194809811
 40
0.2432794302
 40
0.3706432098
 40
0.5
 40
0.6293567902
 40
0.7567205698
 40
0.8805190189
 40
1.0
 40
1.0
 40
1.0
 40
1.0
 10
588.6930872811
 20
138.8208896974
 30
0.0
 10
588.0583713603
 20
137.9374752323
 30
0.0
 10
586.5136970472
 20
136.3092963521
 30
0.0
 10
583.6333859426
 20
134.4931455542
 30
0.0
 10
580.3283854026
 20
133.3582073386
 30
0.0
 10
576.8062948283
 20
132.9726822689
 30
0.0
 10
573.2842042541
 20
133.3582073386
 30
0.0
 10
569.979203714
 20
134.4931455542
 30
0.0
 10
567.0988926095
 20
136.3092963521
 30
0.0
 10
565.5542182963
 20
137.9374752323
 30
0.0
 10
564.9195023755
 20
138.8208896974
 30
0.0
  0
SPLINE
  5
55B
100
AcDbEntity
  8
BEZUGSACHSEN
100
AcDbSpline
 62
7
  6
CONTINUOUS
 70
0
 71
3
 72
21
 73
17
 74
0
 42
0.0000001
 43
0.0000001
 44
0.0000000001
 40
0.0
 40
0.0
 40
0.0
 40
0.0
 40
0.0580894532
 40
0.116890925
 40
0.1769961556
 40
0.2387585136
 40
0.3022670717
 40
0.367347063
 40
0.5
 40
0.632652937
 40
0.6977329283
 40
0.7612414864
 40
0.8230038444
 40
0.883109075
 40
0.9419105468
 40
1.0
 40
1.0
 40
1.0
 40
1.0
 10
565.3099779401
 20
149.5529623098
 30
0.0
 10
565.3099779401
 20
148.9013233552
 30
0.0
 10
565.460384923
 20
147.5853239455
 30
0.0
 10
566.1259813745
 20
145.6982580166
 30
0.0
 10
567.203147111
 20
143.9633940043
 30
0.0
 10
568.6473710101
 20
142.448144408
 30
0.0
 10
570.4018020135
 20
141.20813764
 30
0.0
 10
573.075968539
 20
139.976135307
 30
0.0
 10
576.8062948283
 20
139.3424155913
 30
0.0
 10
580.5366211176
 20
139.976135307
 30
0.0
 10
583.2107876432
 20
141.20813764
 30
0.0
 10
584.9652186465
 20
142.448144408
 30
0.0
 10
586.4094425457
 20
143.9633940043
 30
0.0
 10
587.4866082822
 20
145.6982580166
 30
0.0
 10
588.1522047337
 20
147.5853239455
 30
0.0
 10
588.3026117166
 20
148.9013233552
 30
0.0
 10
588.3026117166
 20
149.5529623098
 30
0.0
  0
SPLINE
  5
55C
100
AcDbEntity
  8
0
100
AcDbSpline
 62
7
  6
CONTINUOUS
 70
0
 71
3
 72
8
 73
4
 74
0
 42
0.0000001
 43
0.0000001
 44
0.0000000001
 40
0.0
 40
0.0
 40
0.0
 40
0.0
 40
1.0
 40
1.0
 40
1.0
 40
1.0
 10
580.6141288512
 20
212.3186158393
 30
0.0
 10
580.616909546
 20
212.2537126349
 30
0.0
 10
580.6110888781
 20
212.1879646905
 30
0.0
 10
580.5975060082
 20
212.1244378155
 30
0.0
  0
LINE
  5
55D
100
AcDbEntity
  8
KONSTRUKTIONSELEMENTE
100
AcDbLine
 62
7
  6
CONTINUOUS
 10
582.5454662817
 20
208.1157630433
 11
582.5273106398
 21
208.1745303955
  0
LINE
  5
55E
100
AcDbEntity
  8
KONSTRUKTIONSELEMENTE
100
AcDbLine
 62
7
  6
CONTINUOUS
 10
582.5273106398
 20
208.1745303955
 11
582.4906871091
 21
208.2925469465
  0
LINE
  5
55F
100
AcDbEntity
  8
KONSTRUKTIONSELEMENTE
100
AcDbLine
 62
7
  6
CONTINUOUS
 10
582.4906871091
 20
208.2925469465
 11
582.472219144
 21
208.3517961329
  0
LINE
  5
560
100
AcDbEntity
  8
KONSTRUKTIONSELEMENTE
100
AcDbLine
 62
7
  6
CONTINUOUS
 10
582.472219144
 20
208.3517961329
 11
582.3643395992
 21
208.6856188095
  0
LINE
  5
561
100
AcDbEntity
  8
KONSTRUKTIONSELEMENTE
100
AcDbLine
 62
7
  6
CONTINUOUS
 10
582.3643395992
 20
208.6856188095
 11
582.328977195
 21
208.7931878363
  0
LINE
  5
562
100
AcDbEntity
  8
KONSTRUKTIONSELEMENTE
100
AcDbLine
 62
7
  6
CONTINUOUS
 10
582.328977195
 20
208.7931878363
 11
582.2224296124
 21
209.1172310547
  0
LINE
  5
563
100
AcDbEntity
  8
KONSTRUKTIONSELEMENTE
100
AcDbLine
 62
7
  6
CONTINUOUS
 10
581.6953104005
 20
210.7054369217
 11
582.2224296124
 21
209.1172310547
  0
LINE
  5
564
100
AcDbEntity
  8
KONSTRUKTIONSELEMENTE
100
AcDbLine
 62
7
  6
CONTINUOUS
 10
581.5559599798
 20
211.1208677266
 11
581.6953104005
 21
210.7054369217
  0
LINE
  5
565
100
AcDbEntity
  8
KONSTRUKTIONSELEMENTE
100
AcDbLine
 62
7
  6
CONTINUOUS
 10
581.4526637265
 20
211.4223276341
 11
581.5559599798
 21
211.1208677266
  0
LINE
  5
566
100
AcDbEntity
  8
KONSTRUKTIONSELEMENTE
100
AcDbLine
 62
7
  6
CONTINUOUS
 10
581.3848831599
 20
211.6098161436
 11
581.4189452683
 21
211.5158896615
  0
LINE
  5
567
100
AcDbEntity
  8
KONSTRUKTIONSELEMENTE
100
AcDbLine
 62
7
  6
CONTINUOUS
 10
581.4189452683
 20
211.5158896615
 11
581.4358474576
 21
211.4690630914
  0
LINE
  5
568
100
AcDbEntity
  8
KONSTRUKTIONSELEMENTE
100
AcDbLine
 62
7
  6
CONTINUOUS
 10
581.4358474576
 20
211.4690630914
 11
581.4526637265
 21
211.4223276341
  0
LINE
  5
569
100
AcDbEntity
  8
0
100
AcDbLine
 62
7
  6
CONTINUOUS
 10
580.5975060082
 20
212.1244378155
 11
580.6888054895
 21
211.8491294486
  0
LINE
  5
56A
100
AcDbEntity
  8
0
100
AcDbLine
 62
7
  6
CONTINUOUS
 10
580.6888054895
 20
211.8491294486
 11
580.6984837077
 21
211.8199446575
  0
LINE
  5
56B
100
AcDbEntity
  8
KONSTRUKTIONSELEMENTE
100
AcDbLine
 62
7
  6
CONTINUOUS
 10
582.7737168991
 20
207.1480593036
 11
582.7621021093
 21
207.1831179459
  0
LINE
  5
56C
100
AcDbEntity
  8
KONSTRUKTIONSELEMENTE
100
AcDbLine
 62
7
  6
CONTINUOUS
 10
582.7621021093
 20
207.1831179459
 11
582.5983394157
 21
207.6773916629
  0
LINE
  5
56D
100
AcDbEntity
  8
KONSTRUKTIONSELEMENTE
100
AcDbLine
 62
7
  6
CONTINUOUS
 10
582.5983394157
 20
207.6773916629
 11
582.5497838323
 21
207.8239312658
  0
LINE
  5
56E
100
AcDbEntity
  8
KONSTRUKTIONSELEMENTE
100
AcDbLine
 62
7
  6
CONTINUOUS
 10
582.5497838323
 20
207.8239312658
 11
582.5067285721
 21
207.9538664391
  0
LINE
  5
56F
100
AcDbEntity
  8
KONSTRUKTIONSELEMENTE
100
AcDbLine
 62
7
  6
CONTINUOUS
 10
582.5067285721
 20
207.9538664391
 11
582.4483160788
 21
208.1301409933
  0
LINE
  5
570
100
AcDbEntity
  8
KONSTRUKTIONSELEMENTE
100
AcDbLine
 62
7
  6
CONTINUOUS
 10
582.4483160788
 20
208.1301409933
 11
582.2711584198
 21
208.6647135475
  0
LINE
  5
571
100
AcDbEntity
  8
KONSTRUKTIONSELEMENTE
100
AcDbLine
 62
7
  6
CONTINUOUS
 10
582.2711584198
 20
208.6647135475
 11
582.2365453267
 21
208.7691506953
  0
LINE
  5
572
100
AcDbEntity
  8
KONSTRUKTIONSELEMENTE
100
AcDbLine
 62
7
  6
CONTINUOUS
 10
582.2365453267
 20
208.7691506953
 11
581.3212040593
 21
211.5301887215
  0
LINE
  5
573
100
AcDbEntity
  8
KONSTRUKTIONSELEMENTE
100
AcDbLine
 62
7
  6
CONTINUOUS
 10
581.3212040593
 20
211.5301887215
 11
581.278486895
 21
211.6590077206
  0
LINE
  5
574
100
AcDbEntity
  8
KONSTRUKTIONSELEMENTE
100
AcDbLine
 62
7
  6
CONTINUOUS
 10
581.278486895
 20
211.6590077206
 11
581.2154397911
 21
211.8491294488
  0
LINE
  5
575
100
AcDbEntity
  8
KONSTRUKTIONSELEMENTE
100
AcDbLine
 62
7
  6
CONTINUOUS
 10
581.2154397911
 20
211.8491294488
 11
581.1241403098
 21
212.1244378155
  0
SPLINE
  5
576
100
AcDbEntity
  8
KONSTRUKTIONSELEMENTE
100
AcDbSpline
 62
7
  6
CONTINUOUS
 70
0
 71
3
 72
8
 73
4
 74
0
 42
0.0000001
 43
0.0000001
 44
0.0000000001
 40
0.0
 40
0.0
 40
0.0
 40
0.0
 40
1.0
 40
1.0
 40
1.0
 40
1.0
 10
581.1241403098
 20
212.1244378155
 30
0.0
 10
581.1377231798
 20
212.1879646905
 30
0.0
 10
581.1435438477
 20
212.2537126349
 30
0.0
 10
581.1407631529
 20
212.3186158393
 30
0.0
  0
SPLINE
  5
577
100
AcDbEntity
  8
BEZUGSACHSEN
100
AcDbSpline
 62
7
  6
CONTINUOUS
 70
0
 71
3
 72
9
 73
5
 74
0
 42
0.0000001
 43
0.0000001
 44
0.0000000001
 40
0.0
 40
0.0
 40
0.0
 40
0.0
 40
0.2251885309
 40
1.0
 40
1.0
 40
1.0
 40
1.0
 10
563.5610118095
 20
140.4460054212
 30
0.0
 10
563.6728149182
 20
140.3328330819
 30
0.0
 10
564.1590302737
 20
139.8201331286
 30
0.0
 10
564.6001187992
 20
139.265416236
 30
0.0
 10
564.9195023755
 20
138.8208896974
 30
0.0
  0
SPLINE
  5
578
100
AcDbEntity
  8
0
100
AcDbSpline
 62
7
  6
CONTINUOUS
 70
0
 71
3
 72
13
 73
9
 74
0
 42
0.0000001
 43
0.0000001
 44
0.0000000001
 40
0.0
 40
0.0
 40
0.0
 40
0.0
 40
0.2655992091
 40
0.5219626798
 40
0.6456222519
 40
0.7659622985
 40
0.8836979923
 40
1.0
 40
1.0
 40
1.0
 40
1.0
 10
576.8062948283
 20
169.8326083816
 30
0.0
 10
576.0620074234
 20
169.8326083816
 30
0.0
 10
574.5873400383
 20
169.5856353842
 30
0.0
 10
572.9763447315
 20
168.670044397
 30
0.0
 10
572.0033122339
 20
167.6486862853
 30
0.0
 10
571.4643973163
 20
166.7809123795
 30
0.0
 10
571.1315694652
 20
165.8370858564
 30
0.0
 10
571.0563238885
 20
165.1788748748
 30
0.0
 10
571.0563238885
 20
164.8529623098
 30
0.0
  0
SPLINE
  5
579
100
AcDbEntity
  8
0
100
AcDbSpline
 62
7
  6
CONTINUOUS
 70
0
 71
3
 72
13
 73
9
 74
0
 42
0.0000001
 43
0.0000001
 44
0.0000000001
 40
0.0
 40
0.0
 40
0.0
 40
0.0
 40
0.1163020077
 40
0.2340377015
 40
0.3543777481
 40
0.4780373202
 40
0.7344007909
 40
1.0
 40
1.0
 40
1.0
 40
1.0
 10
582.5562657681
 20
164.8529623098
 30
0.0
 10
582.5562657681
 20
165.1788748748
 30
0.0
 10
582.4810201915
 20
165.8370858564
 30
0.0
 10
582.1481923403
 20
166.7809123795
 30
0.0
 10
581.6092774228
 20
167.6486862853
 30
0.0
 10
580.6362449251
 20
168.670044397
 30
0.0
 10
579.0252496183
 20
169.5856353842
 30
0.0
 10
577.5505822333
 20
169.8326083816
 30
0.0
 10
576.8062948283
 20
169.8326083816
 30
0.0
  0
LINE
  5
57A
100
AcDbEntity
  8
KONSTRUKTIONSELEMENTE
100
AcDbLine
 62
7
  6
CONTINUOUS
 10
582.393413454
 20
207.341100013
 11
582.4295554686
 21
207.2496172524
  0
LINE
  5
57B
100
AcDbEntity
  8
KONSTRUKTIONSELEMENTE
100
AcDbLine
 62
7
  6
CONTINUOUS
 10
582.4295554686
 20
207.2496172524
 11
582.537163457
 21
206.9769633715
  0
SPLINE
  5
57C
100
AcDbEntity
  8
BEZUGSACHSEN
100
AcDbSpline
 62
7
  6
CONTINUOUS
 70
0
 71
3
 72
10
 73
6
 74
0
 42
0.0000001
 43
0.0000001
 44
0.0000000001
 40
0.0
 40
0.0
 40
0.0
 40
0.0
 40
0.2820557468
 40
0.5474908827
 40
1.0
 40
1.0
 40
1.0
 40
1.0
 10
562.8062948283
 20
142.7336196954
 30
0.0
 10
562.8062948283
 20
142.5024953969
 30
0.0
 10
562.8339093424
 20
142.0524147182
 30
0.0
 10
563.0086592111
 20
141.251378048
 30
0.0
 10
563.3004182391
 20
140.7097904293
 30
0.0
 10
563.5610118095
 20
140.4460054212
 30
0.0
  0
LINE
  5
57D
100
AcDbEntity
  8
KONSTRUKTIONSELEMENTE
100
AcDbLine
 62
7
  6
CONTINUOUS
 10
582.2161051805
 20
207.8302786451
 11
582.393413454
 21
207.341100013
  0
LINE
  5
57E
100
AcDbEntity
  8
KONSTRUKTIONSELEMENTE
100
AcDbLine
 62
7
  6
CONTINUOUS
 10
582.2161051805
 20
207.8302786451
 11
582.1892457456
 21
207.908593115
  0
LINE
  5
57F
100
AcDbEntity
  8
KONSTRUKTIONSELEMENTE
100
AcDbLine
 62
7
  6
CONTINUOUS
 10
582.1892457456
 20
207.908593115
 11
582.1752972219
 21
207.949262596
  0
LINE
  5
580
100
AcDbEntity
  8
KONSTRUKTIONSELEMENTE
100
AcDbLine
 62
7
  6
CONTINUOUS
 10
582.1752972219
 20
207.949262596
 11
582.0780791133
 21
208.2327115092
  0
LINE
  5
581
100
AcDbEntity
  8
KONSTRUKTIONSELEMENTE
100
AcDbLine
 62
7
  6
CONTINUOUS
 10
582.0780791133
 20
208.2327115092
 11
581.9481375772
 21
208.6115466817
  0
LINE
  5
582
100
AcDbEntity
  8
KONSTRUKTIONSELEMENTE
100
AcDbLine
 62
7
  6
CONTINUOUS
 10
581.9481375772
 20
208.6115466817
 11
581.9118569291
 21
208.7173159219
  0
LINE
  5
583
100
AcDbEntity
  8
KONSTRUKTIONSELEMENTE
100
AcDbLine
 62
7
  6
CONTINUOUS
 10
581.9118569291
 20
208.7173159219
 11
581.801267492
 21
209.0397067523
  0
LINE
  5
584
100
AcDbEntity
  8
KONSTRUKTIONSELEMENTE
100
AcDbLine
 62
7
  6
CONTINUOUS
 10
581.801267492
 20
209.0397067523
 11
581.677367378
 21
209.4008812998
  0
LINE
  5
585
100
AcDbEntity
  8
KONSTRUKTIONSELEMENTE
100
AcDbLine
 62
7
  6
CONTINUOUS
 10
581.677367378
 20
209.4008812998
 11
581.668866045
 21
209.4256623418
  0
LINE
  5
586
100
AcDbEntity
  8
KONSTRUKTIONSELEMENTE
100
AcDbLine
 62
7
  6
CONTINUOUS
 10
581.668866045
 20
209.4256623418
 11
581.5808509324
 21
209.6822174328
  0
LINE
  5
587
100
AcDbEntity
  8
KONSTRUKTIONSELEMENTE
100
AcDbLine
 62
7
  6
CONTINUOUS
 10
581.5808509324
 20
209.6822174328
 11
581.4822426725
 21
209.9696390108
  0
LINE
  5
588
100
AcDbEntity
  8
KONSTRUKTIONSELEMENTE
100
AcDbLine
 62
7
  6
CONTINUOUS
 10
581.4822426725
 20
209.9696390108
 11
581.1274277443
 21
211.0037529971
  0
LINE
  5
589
100
AcDbEntity
  8
KONSTRUKTIONSELEMENTE
100
AcDbLine
 62
7
  6
CONTINUOUS
 10
582.5839003333
 20
207.2373445075
 11
582.5837447243
 21
207.2600164756
  0
LINE
  5
58A
100
AcDbEntity
  8
KONSTRUKTIONSELEMENTE
100
AcDbLine
 62
7
  6
CONTINUOUS
 10
582.5837447243
 20
207.2600164756
 11
582.5655335555
 21
207.3565420369
  0
LINE
  5
58B
100
AcDbEntity
  8
KONSTRUKTIONSELEMENTE
100
AcDbLine
 62
7
  6
CONTINUOUS
 10
582.5655335555
 20
207.3565420369
 11
582.5562735924
 21
207.4048073853
  0
LINE
  5
58C
100
AcDbEntity
  8
KONSTRUKTIONSELEMENTE
100
AcDbLine
 62
7
  6
CONTINUOUS
 10
582.5562735924
 20
207.4048073853
 11
582.5469112052
 21
207.4530744746
  0
LINE
  5
58D
100
AcDbEntity
  8
KONSTRUKTIONSELEMENTE
100
AcDbLine
 62
7
  6
CONTINUOUS
 10
582.4742630605
 20
207.7258306712
 11
582.3667572743
 21
208.078284922
  0
LINE
  5
58E
100
AcDbEntity
  8
KONSTRUKTIONSELEMENTE
100
AcDbLine
 62
7
  6
CONTINUOUS
 10
582.3667572743
 20
208.078284922
 11
582.225000394
 21
208.5104374286
  0
LINE
  5
58F
100
AcDbEntity
  8
KONSTRUKTIONSELEMENTE
100
AcDbLine
 62
7
  6
CONTINUOUS
 10
581.1352187024
 20
211.6839117807
 11
581.302374723
 21
211.1971912973
  0
LINE
  5
590
100
AcDbEntity
  8
KONSTRUKTIONSELEMENTE
100
AcDbLine
 62
7
  6
CONTINUOUS
 10
581.302374723
 20
211.1971912973
 11
582.1822799074
 21
208.6348543833
  0
LINE
  5
591
100
AcDbEntity
  8
KONSTRUKTIONSELEMENTE
100
AcDbLine
 62
7
  6
CONTINUOUS
 10
582.1822799074
 20
208.6348543833
 11
582.225000394
 21
208.5104374286
  0
LINE
  5
592
100
AcDbEntity
  8
KONSTRUKTIONSELEMENTE
100
AcDbLine
 62
7
  6
CONTINUOUS
 10
581.806131193
 20
208.2799114143
 11
581.7339390617
 21
208.5439876034
  0
LINE
  5
593
100
AcDbEntity
  8
KONSTRUKTIONSELEMENTE
100
AcDbLine
 62
7
  6
CONTINUOUS
 10
581.7339390617
 20
208.5439876034
 11
581.6274071041
 21
208.8676142439
  0
LINE
  5
594
100
AcDbEntity
  8
KONSTRUKTIONSELEMENTE
100
AcDbLine
 62
7
  6
CONTINUOUS
 10
581.5219417543
 20
209.154997409
 11
581.6274071041
 21
208.8676142439
  0
LINE
  5
595
100
AcDbEntity
  8
KONSTRUKTIONSELEMENTE
100
AcDbLine
 62
7
  6
CONTINUOUS
 10
581.4175034471
 20
209.4061365619
 11
581.5219417543
 21
209.154997409
  0
LINE
  5
596
100
AcDbEntity
  8
KONSTRUKTIONSELEMENTE
100
AcDbLine
 62
7
  6
CONTINUOUS
 10
581.3489575118
 20
209.5252375685
 11
581.4004698778
 21
209.4357958627
  0
LINE
  5
597
100
AcDbEntity
  8
KONSTRUKTIONSELEMENTE
100
AcDbLine
 62
7
  6
CONTINUOUS
 10
581.4004698778
 20
209.4357958627
 11
581.4175034471
 21
209.4061365619
  0
SPLINE
  5
598
100
AcDbEntity
  8
KONSTRUKTIONSELEMENTE
100
AcDbSpline
 62
7
  6
CONTINUOUS
 70
0
 71
3
 72
10
 73
6
 74
0
 42
0.0000001
 43
0.0000001
 44
0.0000000001
 40
0.0
 40
0.0
 40
0.0
 40
0.0
 40
0.2820557468
 40
0.5474908827
 40
1.0
 40
1.0
 40
1.0
 40
1.0
 10
590.8062948283
 20
142.7336196954
 30
0.0
 10
590.8062948283
 20
142.5024953969
 30
0.0
 10
590.7786803143
 20
142.0524147182
 30
0.0
 10
590.6039304456
 20
141.251378048
 30
0.0
 10
590.3121714175
 20
140.7097904293
 30
0.0
 10
590.0515778472
 20
140.4460054212
 30
0.0
  0
LINE
  5
599
100
AcDbEntity
  8
KONSTRUKTIONSELEMENTE
100
AcDbLine
 62
7
  6
CONTINUOUS
 10
582.77579398
 20
204.5828450171
 11
582.7067736646
 21
204.7712746523
  0
LINE
  5
59A
100
AcDbEntity
  8
KONSTRUKTIONSELEMENTE
100
AcDbLine
 62
7
  6
CONTINUOUS
 10
582.7067736646
 20
204.7712746523
 11
581.969602999
 21
206.7832462192
  0
LINE
  5
59B
100
AcDbEntity
  8
KONSTRUKTIONSELEMENTE
100
AcDbLine
 62
7
  6
CONTINUOUS
 10
581.969602999
 20
206.7832462192
 11
581.9646872981
 21
206.7966596969
  0
LINE
  5
59C
100
AcDbEntity
  8
KONSTRUKTIONSELEMENTE
100
AcDbLine
 62
7
  6
CONTINUOUS
 10
581.9646872981
 20
206.7966596969
 11
581.7589279384
 21
207.3580836647
  0
LINE
  5
59D
100
AcDbEntity
  8
KONSTRUKTIONSELEMENTE
100
AcDbLine
 62
7
  6
CONTINUOUS
 10
581.7589279384
 20
207.3580836647
 11
581.6881104555
 21
207.5512986153
  0
LINE
  5
59E
100
AcDbEntity
  8
KONSTRUKTIONSELEMENTE
100
AcDbLine
 62
7
  6
CONTINUOUS
 10
581.6881104555
 20
207.5512986153
 11
581.2321494826
 21
208.7951649797
  0
LINE
  5
59F
100
AcDbEntity
  8
KONSTRUKTIONSELEMENTE
100
AcDbLine
 62
7
  6
CONTINUOUS
 10
581.2321494826
 20
208.7951649797
 11
581.1258271277
 21
209.0851776024
  0
SPLINE
  5
5A0
100
AcDbEntity
  8
BEZUGSACHSEN
100
AcDbSpline
 62
7
  6
CONTINUOUS
 70
0
 71
3
 72
11
 73
7
 74
0
 42
0.0000001
 43
0.0000001
 44
0.0000000001
 40
0.0
 40
0.0
 40
0.0
 40
0.0
 40
0.2516599876
 40
0.5000000005
 40
0.7483400135
 40
1.0
 40
1.0
 40
1.0
 40
1.0
 10
574.5789332151
 20
217.0210872802
 30
0.0
 10
574.4165498763
 20
216.3748174766
 30
0.0
 10
574.1616027171
 20
215.0721060261
 30
0.0
 10
574.0283982413
 20
213.0894240671
 30
0.0
 10
574.1616027129
 20
211.1067421102
 30
0.0
 10
574.416549877
 20
209.8040306633
 30
0.0
 10
574.5789332151
 20
209.1577608625
 30
0.0
  0
SPLINE
  5
5A1
100
AcDbEntity
  8
BEZUGSACHSEN
100
AcDbSpline
 62
7
  6
CONTINUOUS
 70
0
 71
3
 72
9
 73
5
 74
0
 42
0.0000001
 43
0.0000001
 44
0.0000000001
 40
0.0
 40
0.0
 40
0.0
 40
0.0
 40
0.5001658481
 40
1.0
 40
1.0
 40
1.0
 40
1.0
 10
574.5789332151
 20
209.1577608625
 30
0.0
 10
574.3262326405
 20
207.0163699327
 30
0.0
 10
573.9958513822
 20
202.7114170926
 30
0.0
 10
574.0818040391
 20
198.3936107586
 30
0.0
 10
574.2243832763
 20
196.2435132777
 30
0.0
  0
SPLINE
  5
5A2
100
AcDbEntity
  8
0
100
AcDbSpline
 62
7
  6
CONTINUOUS
 70
0
 71
3
 72
9
 73
5
 74
0
 42
0.0000001
 43
0.0000001
 44
0.0000000001
 40
0.0
 40
0.0
 40
0.0
 40
0.0
 40
0.4905252176
 40
1.0
 40
1.0
 40
1.0
 40
1.0
 10
581.2128910809
 20
145.962937546
 30
0.0
 10
580.6370923214
 20
145.4329135698
 30
0.0
 10
579.2279234379
 20
144.5924984518
 30
0.0
 10
577.6191321415
 20
144.3135086169
 30
0.0
 10
576.8062948283
 20
144.3135086169
 30
0.0
  0
LINE
  5
5A3
100
AcDbEntity
  8
KONSTRUKTIONSELEMENTE
100
AcDbLine
 62
7
  6
CONTINUOUS
 10
582.0554357542
 20
207.4281324475
 11
582.276784713
 21
206.9093552746
  0
SPLINE
  5
5A4
100
AcDbEntity
  8
KONSTRUKTIONSELEMENTE
100
AcDbSpline
 62
7
  6
CONTINUOUS
 70
0
 71
3
 72
8
 73
4
 74
0
 42
0.0000001
 43
0.0000001
 44
0.0000000001
 40
0.0
 40
0.0
 40
0.0
 40
0.0
 40
1.0
 40
1.0
 40
1.0
 40
1.0
 10
582.276784713
 20
206.9093552746
 30
0.0
 10
582.3880089431
 20
206.648293142
 30
0.0
 10
582.4990179509
 20
206.3871391778
 30
0.0
 10
582.6097797557
 20
206.1258805148
 30
0.0
  0
LINE
  5
5A5
100
AcDbEntity
  8
KONSTRUKTIONSELEMENTE
100
AcDbLine
 62
7
  6
CONTINUOUS
 10
582.6097797557
 20
206.1258805148
 11
582.6945827267
 21
205.9257155617
  0
LINE
  5
5A6
100
AcDbEntity
  8
KONSTRUKTIONSELEMENTE
100
AcDbLine
 62
7
  6
CONTINUOUS
 10
582.6945827267
 20
205.9257155617
 11
582.7873621701
 21
205.7064021117
  0
SPLINE
  5
5A7
100
AcDbEntity
  8
KONSTRUKTIONSELEMENTE
100
AcDbSpline
 62
7
  6
CONTINUOUS
 70
0
 71
3
 72
15
 73
11
 74
0
 42
0.0000001
 43
0.0000001
 44
0.0000000001
 40
0.0
 40
0.0
 40
0.0
 40
0.0
 40
0.0715051056
 40
0.1527101127
 40
0.249801528
 40
0.3654136809
 40
0.4998429995
 40
0.6519018592
 40
0.8195872462
 40
1.0
 40
1.0
 40
1.0
 40
1.0
 10
421.0329586936
 20
73.1356454069
 30
0.0
 10
420.9792990681
 20
73.1820998041
 30
0.0
 10
420.8413189821
 20
73.2559740685
 30
0.0
 10
420.5912879819
 20
73.2854594461
 30
0.0
 10
420.3002263784
 20
73.2452988858
 30
0.0
 10
419.9713115203
 20
73.1385349429
 30
0.0
 10
419.6097560491
 20
72.9676223004
 30
0.0
 10
419.2224361837
 20
72.7358444781
 30
0.0
 10
418.8175394684
 20
72.447873265
 30
0.0
 10
418.5497428819
 20
72.2291323626
 30
0.0
 10
418.4143758425
 20
72.1119010676
 30
0.0
  0
SPLINE
  5
5A8
100
AcDbEntity
  8
KONSTRUKTIONSELEMENTE
100
AcDbSpline
 62
7
  6
CONTINUOUS
 70
0
 71
3
 72
9
 73
5
 74
0
 42
0.0000001
 43
0.0000001
 44
0.0000000001
 40
0.0
 40
0.0
 40
0.0
 40
0.0
 40
0.5635000033
 40
1.0
 40
1.0
 40
1.0
 40
1.0
 10
417.2922078266
 20
82.7708166024
 30
0.0
 10
417.4146433739
 20
83.0185269837
 30
0.0
 10
417.6056380933
 20
83.4711725796
 30
0.0
 10
417.7072690613
 20
83.9592117817
 30
0.0
 10
417.7072690613
 20
84.1732529889
 30
0.0
  0
SPLINE
  5
5A9
100
AcDbEntity
  8
KONSTRUKTIONSELEMENTE
100
AcDbSpline
 62
7
  6
CONTINUOUS
 70
0
 71
3
 72
9
 73
5
 74
0
 42
0.0000001
 43
0.0000001
 44
0.0000000001
 40
0.0
 40
0.0
 40
0.0
 40
0.0
 40
0.5487156268
 40
1.0
 40
1.0
 40
1.0
 40
1.0
 10
417.7072690613
 20
68.7178828895
 30
0.0
 10
417.7072690613
 20
68.5747707175
 30
0.0
 10
417.7355582603
 20
68.3097607288
 30
0.0
 10
417.8806190573
 20
68.077103228
 30
0.0
 10
417.9695956586
 20
68.000053564
 30
0.0
  0
SPLINE
  5
5AA
100
AcDbEntity
  8
KONSTRUKTIONSELEMENTE
100
AcDbSpline
 62
7
  6
CONTINUOUS
 70
0
 71
3
 72
15
 73
11
 74
0
 42
0.0000001
 43
0.0000001
 44
0.0000000001
 40
0.0
 40
0.0
 40
0.0
 40
0.0
 40
0.0715051056
 40
0.1527101127
 40
0.249801528
 40
0.3654136809
 40
0.4998429995
 40
0.6519018592
 40
0.8195872462
 40
1.0
 40
1.0
 40
1.0
 40
1.0
 10
420.679405303
 20
72.4418316248
 30
0.0
 10
420.6257456775
 20
72.488286022
 30
0.0
 10
420.4877655915
 20
72.5621602864
 30
0.0
 10
420.2377345913
 20
72.5916456639
 30
0.0
 10
419.9466729878
 20
72.5514851037
 30
0.0
 10
419.6177581297
 20
72.4447211607
 30
0.0
 10
419.2562026585
 20
72.2738085183
 30
0.0
 10
418.8688827931
 20
72.042030696
 30
0.0
 10
418.4639860778
 20
71.7540594828
 30
0.0
 10
418.1961894913
 20
71.5353185804
 30
0.0
 10
418.0608224519
 20
71.4180872855
 30
0.0
  0
SPLINE
  5
5AB
100
AcDbEntity
  8
KONSTRUKTIONSELEMENTE
100
AcDbSpline
 62
7
  6
CONTINUOUS
 70
0
 71
3
 72
10
 73
6
 74
0
 42
0.0000001
 43
0.0000001
 44
0.0000000001
 40
0.0
 40
0.0
 40
0.0
 40
0.0
 40
0.3401098209
 40
0.6176924174
 40
1.0
 40
1.0
 40
1.0
 40
1.0
 10
453.6172075915
 20
86.6594115795
 30
0.0
 10
453.607771565
 20
86.6369309939
 30
0.0
 10
453.5929898666
 20
86.5946315397
 30
0.0
 10
453.5793617832
 20
86.5255923319
 30
0.0
 10
453.5895798703
 20
86.471251009
 30
0.0
 10
453.6102932382
 20
86.453306057
 30
0.0
  0
SPLINE
  5
5AC
100
AcDbEntity
  8
KONSTRUKTIONSELEMENTE
100
AcDbSpline
 62
7
  6
CONTINUOUS
 70
0
 71
3
 72
10
 73
6
 74
0
 42
0.0000001
 43
0.0000001
 44
0.0000000001
 40
0.0
 40
0.0
 40
0.0
 40
0.0
 40
0.1889346049
 40
0.5351285558
 40
1.0
 40
1.0
 40
1.0
 40
1.0
 10
406.8257826707
 20
62.1548046391
 30
0.0
 10
406.8483070552
 20
62.135298353
 30
0.0
 10
406.9268934858
 20
62.0963091401
 30
0.0
 10
407.0902304035
 20
62.1048394064
 30
0.0
 10
407.2107803156
 20
62.1493770522
 30
0.0
 10
407.2774440388
 20
62.1798885883
 30
0.0
  0
SPLINE
  5
5AD
100
AcDbEntity
  8
KONSTRUKTIONSELEMENTE
100
AcDbSpline
 62
7
  6
CONTINUOUS
 70
0
 71
3
 72
9
 73
5
 74
0
 42
0.0000001
 43
0.0000001
 44
0.0000000001
 40
0.0
 40
0.0
 40
0.0
 40
0.0
 40
0.4593994969
 40
1.0
 40
1.0
 40
1.0
 40
1.0
 10
407.2774440388
 20
62.1798885883
 30
0.0
 10
407.3668107355
 20
62.220791122
 30
0.0
 10
407.5516919582
 20
62.3307137504
 30
0.0
 10
407.720347741
 20
62.4629734986
 30
0.0
 10
407.8077741247
 20
62.5386869679
 30
0.0
  0
SPLINE
  5
5AE
100
AcDbEntity
  8
KONSTRUKTIONSELEMENTE
100
AcDbSpline
 62
7
  6
CONTINUOUS
 70
0
 71
3
 72
11
 73
7
 74
0
 42
0.0000001
 43
0.0000001
 44
0.0000000001
 40
0.0
 40
0.0
 40
0.0
 40
0.0
 40
0.1801343243
 40
0.3968155518
 40
0.6687400903
 40
1.0
 40
1.0
 40
1.0
 40
1.0
 10
421.5051295645
 20
64.9381913855
 30
0.0
 10
421.5906678659
 20
64.8641191318
 30
0.0
 10
421.8288071556
 20
64.756252385
 30
0.0
 10
422.2564191535
 20
64.7617599981
 30
0.0
 10
422.7561783272
 20
64.8985992953
 30
0.0
 10
423.1007790476
 20
65.0597703784
 30
0.0
 10
423.2841556796
 20
65.1581145503
 30
0.0
  0
SPLINE
  5
5AF
100
AcDbEntity
  8
BEZUGSACHSEN
100
AcDbSpline
 62
7
  6
CONTINUOUS
 70
0
 71
3
 72
15
 73
11
 74
0
 42
0.0000001
 43
0.0000001
 44
0.0000000001
 40
0.0
 40
0.0
 40
0.0
 40
0.0
 40
0.1803671637
 40
0.3480918951
 40
0.5001474142
 40
0.6345604171
 40
0.7501843696
 40
0.8472874255
 40
0.9284935803
 40
1.0
 40
1.0
 40
1.0
 40
1.0
 10
470.0331708692
 20
121.8400888734
 30
0.0
 10
470.2192408004
 20
122.0012301608
 30
0.0
 10
470.5874446198
 20
122.3019536144
 30
0.0
 10
471.1441017852
 20
122.697914529
 30
0.0
 10
471.6766355865
 20
123.0166355156
 30
0.0
 10
472.1737495917
 20
123.2515801342
 30
0.0
 10
472.6259566469
 20
123.3984344208
 30
0.0
 10
473.0261694172
 20
123.4537573128
 30
0.0
 10
473.369942587
 20
123.4132264087
 30
0.0
 10
473.5597182104
 20
123.3117645095
 30
0.0
 10
473.6335008105
 20
123.2478978708
 30
0.0
  0
SPLINE
  5
5B0
100
AcDbEntity
  8
BEZUGSACHSEN
100
AcDbSpline
 62
7
  6
CONTINUOUS
 70
0
 71
3
 72
11
 73
7
 74
0
 42
0.0000001
 43
0.0000001
 44
0.0000000001
 40
0.0
 40
0.0
 40
0.0
 40
0.0
 40
0.3015812786
 40
0.5624690806
 40
0.7906401043
 40
1.0
 40
1.0
 40
1.0
 40
1.0
 10
477.0640944829
 20
124.5057300732
 30
0.0
 10
477.0989453633
 20
124.8278441751
 30
0.0
 10
477.1267847114
 20
125.4341693384
 30
0.0
 10
477.01437857
 20
126.2820135357
 30
0.0
 10
476.7391576083
 20
126.9897791203
 30
0.0
 10
476.4361159128
 20
127.3621134778
 30
0.0
 10
476.2662572179
 20
127.5095466828
 30
0.0
  0
SPLINE
  5
5B1
100
AcDbEntity
  8
KONSTRUKTIONSELEMENTE
100
AcDbSpline
 62
7
  6
CONTINUOUS
 70
0
 71
3
 72
13
 73
9
 74
0
 42
0.0000001
 43
0.0000001
 44
0.0000000001
 40
0.0
 40
0.0
 40
0.0
 40
0.0
 40
0.1071822666
 40
0.2276802358
 40
0.4932739715
 40
0.7624373183
 40
0.8872035516
 40
1.0
 40
1.0
 40
1.0
 40
1.0
 10
457.9646079511
 20
83.7571057313
 30
0.0
 10
458.1903353396
 20
83.8781624487
 30
0.0
 10
458.6523277135
 20
84.1682516661
 30
0.0
 10
459.5863006531
 20
84.8894502818
 30
0.0
 10
460.7049258201
 20
85.9936056092
 30
0.0
 10
461.6767433316
 20
87.2413065799
 30
0.0
 10
462.3072669649
 20
88.2764460393
 30
0.0
 10
462.5587447903
 20
88.7867688894
 30
0.0
 10
462.6630710551
 20
89.0353179513
 30
0.0
  0
SPLINE
  5
5B2
100
AcDbEntity
  8
KONSTRUKTIONSELEMENTE
100
AcDbSpline
 62
7
  6
CONTINUOUS
 70
0
 71
3
 72
11
 73
7
 74
0
 42
0.0000001
 43
0.0000001
 44
0.0000000001
 40
0.0
 40
0.0
 40
0.0
 40
0.0
 40
0.2275180559
 40
0.493253217
 40
0.7625598897
 40
1.0
 40
1.0
 40
1.0
 40
1.0
 10
423.6787915111
 20
65.3697562064
 30
0.0
 10
423.7266816157
 20
65.3954394825
 30
0.0
 10
423.8227760673
 20
65.4652459211
 30
0.0
 10
423.9528591543
 20
65.5933509701
 30
0.0
 10
424.0663858423
 20
65.7393986265
 30
0.0
 10
424.1266885094
 20
65.8452849307
 30
0.0
 10
424.1486378215
 20
65.8975774284
 30
0.0
  0
SPLINE
  5
5B3
100
AcDbEntity
  8
KONSTRUKTIONSELEMENTE
100
AcDbSpline
 62
7
  6
CONTINUOUS
 70
0
 71
3
 72
10
 73
6
 74
0
 42
0.0000001
 43
0.0000001
 44
0.0000000001
 40
0.0
 40
0.0
 40
0.0
 40
0.0
 40
0.1805529782
 40
0.5248657058
 40
1.0
 40
1.0
 40
1.0
 40
1.0
 10
457.1458271441
 20
83.3914438785
 30
0.0
 10
457.1543804942
 20
83.3840337144
 30
0.0
 10
457.1858488865
 20
83.3699150424
 30
0.0
 10
457.250490353
 20
83.3784391075
 30
0.0
 10
457.2975067716
 20
83.3993419727
 30
0.0
 10
457.3237515691
 20
83.4134169552
 30
0.0
  0
SPLINE
  5
5B4
100
AcDbEntity
  8
BEZUGSACHSEN
100
AcDbSpline
 62
7
  6
CONTINUOUS
 70
0
 71
3
 72
17
 73
13
 74
0
 42
0.0000001
 43
0.0000001
 44
0.0000000001
 40
0.0
 40
0.0
 40
0.0
 40
0.0
 40
0.0291579765
 40
0.0611213738
 40
0.0979231462
 40
0.1406918411
 40
0.2452305574
 40
0.373688919
 40
0.5209585942
 40
0.6799306931
 40
0.8424232186
 40
1.0
 40
1.0
 40
1.0
 40
1.0
 10
466.4328409278
 20
114.9322798759
 30
0.0
 10
466.3721119165
 20
114.9848472537
 30
0.0
 10
466.2641642982
 20
115.119055422
 30
0.0
 10
466.1693242945
 20
115.3752090198
 30
0.0
 10
466.1345860982
 20
115.6827006003
 30
0.0
 10
466.1687727065
 20
116.1906394644
 30
0.0
 10
466.374766537
 20
116.9285726654
 30
0.0
 10
466.8096622715
 20
117.8838006976
 30
0.0
 10
467.4282842554
 20
118.9118324517
 30
0.0
 10
468.1954805229
 20
119.9524101452
 30
0.0
 10
469.0673096399
 20
120.9449751752
 30
0.0
 10
469.7050447111
 20
121.5559232849
 30
0.0
 10
470.0331708692
 20
121.8400888734
 30
0.0
  0
SPLINE
  5
5B5
100
AcDbEntity
  8
KONSTRUKTIONSELEMENTE
100
AcDbSpline
 62
7
  6
CONTINUOUS
 70
0
 71
3
 72
13
 73
9
 74
0
 42
0.0000001
 43
0.0000001
 44
0.0000000001
 40
0.0
 40
0.0
 40
0.0
 40
0.0
 40
0.1127926537
 40
0.2375654572
 40
0.5067249414
 40
0.7723173039
 40
0.8928214444
 40
1.0
 40
1.0
 40
1.0
 40
1.0
 10
426.0910733733
 20
70.5252762693
 30
0.0
 10
426.1953961387
 20
70.7738169944
 30
0.0
 10
426.446876758
 20
71.2841457869
 30
0.0
 10
427.0773952162
 20
72.3192857177
 30
0.0
 10
428.0492175379
 20
73.5669870359
 30
0.0
 10
429.167841273
 20
74.6711472811
 30
0.0
 10
430.1018194746
 20
75.3923438505
 30
0.0
 10
430.5638168814
 20
75.6824359511
 30
0.0
 10
430.7895364772
 20
75.8034884893
 30
0.0
  0
SPLINE
  5
5B6
100
AcDbEntity
  8
KONSTRUKTIONSELEMENTE
100
AcDbSpline
 62
7
  6
CONTINUOUS
 70
0
 71
3
 72
11
 73
7
 74
0
 42
0.0000001
 43
0.0000001
 44
0.0000000001
 40
0.0
 40
0.0
 40
0.0
 40
0.0
 40
0.3312528237
 40
0.6032079657
 40
0.8198699068
 40
1.0
 40
1.0
 40
1.0
 40
1.0
 10
457.3850763325
 20
90.0665727002
 30
0.0
 10
457.5684671851
 20
90.1649244986
 30
0.0
 10
457.9131201742
 20
90.326107184
 30
0.0
 10
458.4129292353
 20
90.4629652241
 30
0.0
 10
458.8406061868
 20
90.4684098987
 30
0.0
 10
459.078707679
 20
90.3604520904
 30
0.0
 10
459.1642470136
 20
90.2863679886
 30
0.0
  0
SPLINE
  5
5B7
100
AcDbEntity
  8
KONSTRUKTIONSELEMENTE
100
AcDbSpline
 62
7
  6
CONTINUOUS
 70
0
 71
3
 72
11
 73
7
 74
0
 42
0.0000001
 43
0.0000001
 44
0.0000000001
 40
0.0
 40
0.0
 40
0.0
 40
0.0
 40
0.1990521612
 40
0.43933879
 40
0.7107378682
 40
1.0
 40
1.0
 40
1.0
 40
1.0
 10
417.7521698499
 20
84.8944060283
 30
0.0
 10
417.8035848237
 20
85.1648724322
 30
0.0
 10
417.9922978307
 20
85.7470580172
 30
0.0
 10
418.426133009
 20
86.6310875456
 30
0.0
 10
419.019236849
 20
87.5689935298
 30
0.0
 10
419.4919614563
 20
88.1850855654
 30
0.0
 10
419.7486217736
 20
88.491988349
 30
0.0
  0
SPLINE
  5
5B8
100
AcDbEntity
  8
KONSTRUKTIONSELEMENTE
100
AcDbSpline
 62
7
  6
CONTINUOUS
 70
0
 71
3
 72
15
 73
11
 74
0
 42
0.0000001
 43
0.0000001
 44
0.0000000001
 40
0.0
 40
0.0
 40
0.0
 40
0.0
 40
0.1696224697
 40
0.33497449
 40
0.4905840196
 40
0.6315529168
 40
0.7539177085
 40
0.8552312826
 40
0.9356200061
 40
1.0
 40
1.0
 40
1.0
 40
1.0
 10
458.01510891
 20
134.2493206151
 30
0.0
 10
458.2244844794
 20
134.4996824386
 30
0.0
 10
458.6551492016
 20
134.9800254228
 30
0.0
 10
459.3332835288
 20
135.6377624931
 30
0.0
 10
460.0170055933
 20
136.2072014317
 30
0.0
 10
460.6805025771
 20
136.6671544805
 30
0.0
 10
461.299335522
 20
137.0018946298
 30
0.0
 10
461.8533510888
 20
137.1993521763
 30
0.0
 10
462.3294898417
 20
137.2561962324
 30
0.0
 10
462.6097279032
 20
137.176622301
 30
0.0
 10
462.7135720139
 20
137.1090852086
 30
0.0
  0
SPLINE
  5
5B9
100
AcDbEntity
  8
KONSTRUKTIONSELEMENTE
100
AcDbSpline
 62
7
  6
CONTINUOUS
 70
0
 71
3
 72
9
 73
5
 74
0
 42
0.0000001
 43
0.0000001
 44
0.0000000001
 40
0.0
 40
0.0
 40
0.0
 40
0.0
 40
0.257700987
 40
1.0
 40
1.0
 40
1.0
 40
1.0
 10
417.7072690613
 20
84.6985620955
 30
0.0
 10
417.7117055442
 20
84.715243827
 30
0.0
 10
417.7283879638
 20
84.7801162605
 30
0.0
 10
417.7428842209
 20
84.8455593497
 30
0.0
 10
417.7521698499
 20
84.8944060283
 30
0.0
  0
SPLINE
  5
5BA
100
AcDbEntity
  8
KONSTRUKTIONSELEMENTE
100
AcDbSpline
 62
7
  6
CONTINUOUS
 70
0
 71
3
 72
9
 73
5
 74
0
 42
0.0000001
 43
0.0000001
 44
0.0000000001
 40
0.0
 40
0.0
 40
0.0
 40
0.0
 40
0.5484587228
 40
1.0
 40
1.0
 40
1.0
 40
1.0
 10
403.9186868282
 20
64.8196180571
 30
0.0
 10
403.9186868282
 20
64.7767135306
 30
0.0
 10
403.9272178696
 20
64.6972490354
 30
0.0
 10
403.9706536903
 20
64.6274183894
 30
0.0
 10
403.997355546
 20
64.6042943819
 30
0.0
  0
SPLINE
  5
5BB
100
AcDbEntity
  8
KONSTRUKTIONSELEMENTE
100
AcDbSpline
 62
7
  6
CONTINUOUS
 70
0
 71
3
 72
12
 73
8
 74
0
 42
0.0000001
 43
0.0000001
 44
0.0000000001
 40
0.0
 40
0.0
 40
0.0
 40
0.0
 40
0.285581653
 40
0.5706156379
 40
0.817816411
 40
0.9180971044
 40
1.0
 40
1.0
 40
1.0
 40
1.0
 10
404.979347
 20
71.5381767106
 30
0.0
 10
404.8342114984
 20
71.4124856793
 30
0.0
 10
404.5639192987
 20
71.1379163382
 30
0.0
 10
404.2323873906
 20
70.6979530862
 30
0.0
 10
404.0269269803
 20
70.321991442
 30
0.0
 10
403.9368554001
 20
70.0470394233
 30
0.0
 10
403.9186868282
 20
69.924681281
 30
0.0
 10
403.9186868282
 20
69.8696180571
 30
0.0
  0
SPLINE
  5
5BC
100
AcDbEntity
  8
KONSTRUKTIONSELEMENTE
100
AcDbSpline
 62
7
  6
CONTINUOUS
 70
0
 71
3
 72
9
 73
5
 74
0
 42
0.0000001
 43
0.0000001
 44
0.0000000001
 40
0.0
 40
0.0
 40
0.0
 40
0.0
 40
0.2356745602
 40
1.0
 40
1.0
 40
1.0
 40
1.0
 10
418.0608224519
 20
84.3923758777
 30
0.0
 10
418.0509287909
 20
84.3551744729
 30
0.0
 10
418.006032664
 20
84.1981016948
 30
0.0
 10
417.9505102169
 20
84.0441689197
 30
0.0
 10
417.9038256274
 20
83.9283830953
 30
0.0
  0
SPLINE
  5
5BD
100
AcDbEntity
  8
KONSTRUKTIONSELEMENTE
100
AcDbSpline
 62
7
  6
CONTINUOUS
 70
0
 71
3
 72
11
 73
7
 74
0
 42
0.0000001
 43
0.0000001
 44
0.0000000001
 40
0.0
 40
0.0
 40
0.0
 40
0.0
 40
0.2237292561
 40
0.476740435
 40
0.7417195398
 40
1.0
 40
1.0
 40
1.0
 40
1.0
 10
417.885039828
 20
83.8824506158
 30
0.0
 10
417.762470093
 20
83.586912322
 30
0.0
 10
417.4449910715
 20
82.9804403091
 30
0.0
 10
416.8459028977
 20
82.1030695046
 30
0.0
 10
416.1296775526
 20
81.2526044365
 30
0.0
 10
415.5924248949
 20
80.72937178
 30
0.0
 10
415.3132167467
 20
80.4875704307
 30
0.0
  0
SPLINE
  5
5BE
100
AcDbEntity
  8
KONSTRUKTIONSELEMENTE
100
AcDbSpline
 62
7
  6
CONTINUOUS
 70
0
 71
3
 72
12
 73
8
 74
0
 42
0.0000001
 43
0.0000001
 44
0.0000000001
 40
0.0
 40
0.0
 40
0.0
 40
0.0
 40
0.3358890466
 40
0.6331184293
 40
0.7558878341
 40
0.8575228726
 40
1.0
 40
1.0
 40
1.0
 40
1.0
 10
448.7878593888
 20
122.4868441805
 30
0.0
 10
448.9118329414
 20
122.63508614
 30
0.0
 10
449.1647792295
 20
122.8989906771
 30
0.0
 10
449.5077284373
 20
123.1693356279
 30
0.0
 10
449.7741524851
 20
123.3125419369
 30
0.0
 10
449.9692437695
 20
123.3841390486
 30
0.0
 10
450.1286809275
 20
123.3894652879
 30
0.0
 10
450.19739832
 20
123.3447735586
 30
0.0
  0
SPLINE
  5
5BF
100
AcDbEntity
  8
KONSTRUKTIONSELEMENTE
100
AcDbSpline
 62
7
  6
CONTINUOUS
 70
0
 71
3
 72
12
 73
8
 74
0
 42
0.0000001
 43
0.0000001
 44
0.0000000001
 40
0.0
 40
0.0
 40
0.0
 40
0.0
 40
0.1424771274
 40
0.2441121659
 40
0.3668815707
 40
0.6641109534
 40
1.0
 40
1.0
 40
1.0
 40
1.0
 10
451.6915795136
 20
122.3730029625
 30
0.0
 10
451.7602969062
 20
122.3283112332
 30
0.0
 10
451.9197340642
 20
122.3336374724
 30
0.0
 10
452.1148253485
 20
122.4052345842
 30
0.0
 10
452.3812493963
 20
122.5484408932
 30
0.0
 10
452.7241986041
 20
122.818785844
 30
0.0
 10
452.9771448923
 20
123.0826903811
 30
0.0
 10
453.1011184448
 20
123.2309323406
 30
0.0
  0
SPLINE
  5
5C0
100
AcDbEntity
  8
BEZUGSACHSEN
100
AcDbSpline
 62
7
  6
CONTINUOUS
 70
0
 71
3
 72
15
 73
11
 74
0
 42
0.0000001
 43
0.0000001
 44
0.0000000001
 40
0.0
 40
0.0
 40
0.0
 40
0.0
 40
0.1803671637
 40
0.3480918951
 40
0.5001474142
 40
0.6345604171
 40
0.7501843696
 40
0.8472874255
 40
0.9284935803
 40
1.0
 40
1.0
 40
1.0
 40
1.0
 10
470.0331708692
 20
116.3400888734
 30
0.0
 10
469.8471009379
 20
116.178947586
 30
0.0
 10
469.4788971185
 20
115.8782241324
 30
0.0
 10
468.9222399531
 20
115.4822632178
 30
0.0
 10
468.3897061518
 20
115.1635422312
 30
0.0
 10
467.8925921466
 20
114.9285976126
 30
0.0
 10
467.4403850914
 20
114.781743326
 30
0.0
 10
467.0401723211
 20
114.726420434
 30
0.0
 10
466.6963991513
 20
114.7669513381
 30
0.0
 10
466.5066235279
 20
114.8684132373
 30
0.0
 10
466.4328409278
 20
114.9322798759
 30
0.0
  0
SPLINE
  5
5C1
100
AcDbEntity
  8
KONSTRUKTIONSELEMENTE
100
AcDbSpline
 62
7
  6
CONTINUOUS
 70
0
 71
3
 72
9
 73
5
 74
0
 42
0.0000001
 43
0.0000001
 44
0.0000000001
 40
0.0
 40
0.0
 40
0.0
 40
0.0
 40
0.5487156268
 40
1.0
 40
1.0
 40
1.0
 40
1.0
 10
421.2428029673
 20
65.656020711
 30
0.0
 10
421.2428029673
 20
65.512908539
 30
0.0
 10
421.2710921662
 20
65.2478985503
 30
0.0
 10
421.4161529632
 20
65.0152410495
 30
0.0
 10
421.5051295645
 20
64.9381913855
 30
0.0
  0
SPLINE
  5
5C2
100
AcDbEntity
  8
BEZUGSACHSEN
100
AcDbSpline
 62
7
  6
CONTINUOUS
 70
0
 71
3
 72
11
 73
7
 74
0
 42
0.0000001
 43
0.0000001
 44
0.0000000001
 40
0.0
 40
0.0
 40
0.0
 40
0.0
 40
0.2070155551
 40
0.4340974801
 40
0.695752447
 40
1.0
 40
1.0
 40
1.0
 40
1.0
 10
473.6335008105
 20
123.2478978708
 30
0.0
 10
473.694480952
 20
123.1951131133
 30
0.0
 10
473.8028224943
 20
123.0601978773
 30
0.0
 10
473.8976594039
 20
122.8025870769
 30
0.0
 10
473.931855265
 20
122.4933645568
 30
0.0
 10
473.9166448804
 20
122.2724278931
 30
0.0
 10
473.9012794752
 20
122.1548944443
 30
0.0
  0
SPLINE
  5
5C3
100
AcDbEntity
  8
BEZUGSACHSEN
100
AcDbSpline
 62
7
  6
CONTINUOUS
 70
0
 71
3
 72
9
 73
5
 74
0
 42
0.0000001
 43
0.0000001
 44
0.0000000001
 40
0.0
 40
0.0
 40
0.0
 40
0.0
 40
0.2550126305
 40
1.0
 40
1.0
 40
1.0
 40
1.0
 10
470.9009140957
 20
117.1609027574
 30
0.0
 10
470.8300977915
 20
117.0881186766
 30
0.0
 10
470.5494951428
 20
116.8055556481
 30
0.0
 10
470.2574297096
 20
116.5343027262
 30
0.0
 10
470.0331708692
 20
116.3400888734
 30
0.0
  0
SPLINE
  5
5C4
100
AcDbEntity
  8
KONSTRUKTIONSELEMENTE
100
AcDbSpline
 62
7
  6
CONTINUOUS
 70
0
 71
3
 72
9
 73
5
 74
0
 42
0.0000001
 43
0.0000001
 44
0.0000000001
 40
0.0
 40
0.0
 40
0.0
 40
0.0
 40
0.5486959742
 40
1.0
 40
1.0
 40
1.0
 40
1.0
 10
421.2428029673
 20
72.5613908104
 30
0.0
 10
421.2428029673
 20
72.6758732379
 30
0.0
 10
421.2201627907
 20
72.8878647178
 30
0.0
 10
421.1041492077
 20
73.074014108
 30
0.0
 10
421.0329586936
 20
73.1356454069
 30
0.0
  0
SPLINE
  5
5C5
100
AcDbEntity
  8
KONSTRUKTIONSELEMENTE
100
AcDbSpline
 62
7
  6
CONTINUOUS
 70
0
 71
3
 72
13
 73
9
 74
0
 42
0.0000001
 43
0.0000001
 44
0.0000000001
 40
0.0
 40
0.0
 40
0.0
 40
0.0
 40
0.0843625955
 40
0.1746175943
 40
0.2754204456
 40
0.3897531286
 40
0.6639913559
 40
1.0
 40
1.0
 40
1.0
 40
1.0
 10
459.1642470136
 20
90.2863679886
 30
0.0
 10
459.2105210499
 20
90.2462908658
 30
0.0
 10
459.2941484014
 20
90.1483341755
 30
0.0
 10
459.3782200511
 20
89.964819749
 30
0.0
 10
459.4235137838
 20
89.7463856496
 30
0.0
 10
459.4338778762
 20
89.3900756575
 30
0.0
 10
459.338984553
 20
88.8680963466
 30
0.0
 10
459.1895425609
 20
88.4500665989
 30
0.0
 10
459.0951770492
 20
88.2252482419
 30
0.0
  0
SPLINE
  5
5C6
100
AcDbEntity
  8
KONSTRUKTIONSELEMENTE
100
AcDbSpline
 62
7
  6
CONTINUOUS
 70
0
 71
3
 72
13
 73
9
 74
0
 42
0.0000001
 43
0.0000001
 44
0.0000000001
 40
0.0
 40
0.0
 40
0.0
 40
0.0
 40
0.2854781235
 40
0.5704521399
 40
0.700966491
 40
0.8178838308
 40
0.9181009276
 40
1.0
 40
1.0
 40
1.0
 40
1.0
 10
418.4143758425
 20
76.6619010676
 30
0.0
 10
418.8013744511
 20
76.9970516939
 30
0.0
 10
419.5215323924
 20
77.729032816
 30
0.0
 10
420.2818275349
 20
78.7356496474
 30
0.0
 10
420.7640007415
 20
79.5608898231
 30
0.0
 10
421.0274017322
 20
80.1273826986
 30
0.0
 10
421.194341686
 20
80.6382736329
 30
0.0
 10
421.2428029673
 20
80.9645203091
 30
0.0
 10
421.2428029673
 20
81.1113908104
 30
0.0
  0
SPLINE
  5
5C7
100
AcDbEntity
  8
KONSTRUKTIONSELEMENTE
100
AcDbSpline
 62
7
  6
CONTINUOUS
 70
0
 71
3
 72
12
 73
8
 74
0
 42
0.0000001
 43
0.0000001
 44
0.0000000001
 40
0.0
 40
0.0
 40
0.0
 40
0.0
 40
0.1424771274
 40
0.2441121659
 40
0.3668815707
 40
0.6641109534
 40
1.0
 40
1.0
 40
1.0
 40
1.0
 10
453.5918472649
 20
118.0847129261
 30
0.0
 10
453.6605646574
 20
118.0400211967
 30
0.0
 10
453.8200018154
 20
118.045347436
 30
0.0
 10
454.0150930997
 20
118.1169445477
 30
0.0
 10
454.2815171475
 20
118.2601508567
 30
0.0
 10
454.6244663553
 20
118.5304958076
 30
0.0
 10
454.8774126435
 20
118.7944003446
 30
0.0
 10
455.001386196
 20
118.9426423041
 30
0.0
  0
SPLINE
  5
5C8
100
AcDbEntity
  8
KONSTRUKTIONSELEMENTE
100
AcDbSpline
 62
7
  6
CONTINUOUS
 70
0
 71
3
 72
11
 73
7
 74
0
 42
0.0000001
 43
0.0000001
 44
0.0000000001
 40
0.0
 40
0.0
 40
0.0
 40
0.0
 40
0.2892621318
 40
0.56066121
 40
0.8009478388
 40
1.0
 40
1.0
 40
1.0
 40
1.0
 10
423.2841556796
 20
85.4301261705
 30
0.0
 10
423.0274953622
 20
85.1232233869
 30
0.0
 10
422.554770755
 20
84.5071313513
 30
0.0
 10
421.9616669149
 20
83.5692253672
 30
0.0
 10
421.5278317366
 20
82.6851958387
 30
0.0
 10
421.3391187297
 20
82.1030102537
 30
0.0
 10
421.2877037559
 20
81.8325438498
 30
0.0
  0
SPLINE
  5
5C9
100
AcDbEntity
  8
KONSTRUKTIONSELEMENTE
100
AcDbSpline
 62
7
  6
CONTINUOUS
 70
0
 71
3
 72
15
 73
11
 74
0
 42
0.0000001
 43
0.0000001
 44
0.0000000001
 40
0.0
 40
0.0
 40
0.0
 40
0.0
 40
0.0643794215
 40
0.1447670279
 40
0.2460796662
 40
0.3684482679
 40
0.5094197477
 40
0.6650286244
 40
0.8303788796
 40
1.0
 40
1.0
 40
1.0
 40
1.0
 10
466.2491059198
 20
134.0472230301
 30
0.0
 10
466.1452627303
 20
134.1147595234
 30
0.0
 10
465.8650283838
 20
134.1943336118
 30
0.0
 10
465.3888944782
 20
134.1374917257
 30
0.0
 10
464.8348747612
 20
133.9400357759
 30
0.0
 10
464.2160324072
 20
133.6052903968
 30
0.0
 10
463.5525270593
 20
133.1453300038
 30
0.0
 10
462.8688059345
 20
132.5758894283
 30
0.0
 10
462.1906771835
 20
131.9181570401
 30
0.0
 10
461.7600167242
 20
131.4378182738
 30
0.0
 10
461.5506428159
 20
131.1874584366
 30
0.0
  0
SPLINE
  5
5CA
100
AcDbEntity
  8
KONSTRUKTIONSELEMENTE
100
AcDbSpline
 62
7
  6
CONTINUOUS
 70
0
 71
3
 72
10
 73
6
 74
0
 42
0.0000001
 43
0.0000001
 44
0.0000000001
 40
0.0
 40
0.0
 40
0.0
 40
0.0
 40
0.3401098209
 40
0.6176924174
 40
1.0
 40
1.0
 40
1.0
 40
1.0
 10
457.1527414974
 20
83.597549401
 30
0.0
 10
457.143305471
 20
83.5750688154
 30
0.0
 10
457.1285237726
 20
83.5327693612
 30
0.0
 10
457.1148956892
 20
83.4637301534
 30
0.0
 10
457.1251137762
 20
83.4093888306
 30
0.0
 10
457.1458271441
 20
83.3914438785
 30
0.0
  0
SPLINE
  5
5CB
100
AcDbEntity
  8
KONSTRUKTIONSELEMENTE
100
AcDbSpline
 62
7
  6
CONTINUOUS
 70
0
 71
3
 72
9
 73
5
 74
0
 42
0.0000001
 43
0.0000001
 44
0.0000000001
 40
0.0
 40
0.0
 40
0.0
 40
0.0
 40
0.2423077675
 40
1.0
 40
1.0
 40
1.0
 40
1.0
 10
421.2877037559
 20
81.8325438498
 30
0.0
 10
421.2846726441
 20
81.8165988082
 30
0.0
 10
421.2715123073
 20
81.7509183508
 30
0.0
 10
421.2558471757
 20
81.6857477748
 30
0.0
 10
421.2428029673
 20
81.6366999171
 30
0.0
  0
SPLINE
  5
5CC
100
AcDbEntity
  8
KONSTRUKTIONSELEMENTE
100
AcDbSpline
 62
7
  6
CONTINUOUS
 70
0
 71
3
 72
11
 73
7
 74
0
 42
0.0000001
 43
0.0000001
 44
0.0000000001
 40
0.0
 40
0.0
 40
0.0
 40
0.0
 40
0.3179594006
 40
0.6021603801
 40
0.8341697945
 40
1.0
 40
1.0
 40
1.0
 40
1.0
 10
457.8559624526
 20
127.6355335337
 30
0.0
 10
457.9818682618
 20
127.7046592665
 30
0.0
 10
458.2152314627
 20
127.8448263423
 30
0.0
 10
458.5198590744
 20
128.06897367
 30
0.0
 10
458.7422443478
 20
128.2812626665
 30
0.0
 10
458.8469584394
 20
128.4342909805
 30
0.0
 10
458.8681708013
 20
128.5061363977
 30
0.0
  0
SPLINE
  5
5CD
100
AcDbEntity
  8
KONSTRUKTIONSELEMENTE
100
AcDbSpline
 62
7
  6
CONTINUOUS
 70
0
 71
3
 72
13
 73
9
 74
0
 42
0.0000001
 43
0.0000001
 44
0.0000000001
 40
0.0
 40
0.0
 40
0.0
 40
0.0
 40
0.3168637478
 40
0.6100579332
 40
0.7371323552
 40
0.8456364708
 40
0.9329740508
 40
1.0
 40
1.0
 40
1.0
 40
1.0
 10
459.4417488903
 20
126.2622021937
 30
0.0
 10
459.5053130018
 20
126.4485232138
 30
0.0
 10
459.6071561791
 20
126.8144590517
 30
0.0
 10
459.677564053
 20
127.2688189276
 30
0.0
 10
459.6845627609
 20
127.5977437645
 30
0.0
 10
459.6648952573
 20
127.7981775723
 30
0.0
 10
459.621565688
 20
127.9564629062
 30
0.0
 10
459.5682287398
 20
128.0401486886
 30
0.0
 10
459.5368156369
 20
128.0674861332
 30
0.0
  0
SPLINE
  5
5CE
100
AcDbEntity
  8
KONSTRUKTIONSELEMENTE
100
AcDbSpline
 62
7
  6
CONTINUOUS
 70
0
 71
3
 72
12
 73
8
 74
0
 42
0.0000001
 43
0.0000001
 44
0.0000000001
 40
0.0
 40
0.0
 40
0.0
 40
0.0
 40
0.3358890466
 40
0.6331184293
 40
0.7558878341
 40
0.8575228726
 40
1.0
 40
1.0
 40
1.0
 40
1.0
 10
451.6162865136
 20
120.0373544377
 30
0.0
 10
451.7402600661
 20
120.1855963972
 30
0.0
 10
451.9932063543
 20
120.4495009343
 30
0.0
 10
452.3361555621
 20
120.7198458851
 30
0.0
 10
452.6025796099
 20
120.8630521941
 30
0.0
 10
452.7976708942
 20
120.9346493059
 30
0.0
 10
452.9571080522
 20
120.9399755451
 30
0.0
 10
453.0258254447
 20
120.8952838158
 30
0.0
  0
SPLINE
  5
5CF
100
AcDbEntity
  8
KONSTRUKTIONSELEMENTE
100
AcDbSpline
 62
7
  6
CONTINUOUS
 70
0
 71
3
 72
12
 73
8
 74
0
 42
0.0000001
 43
0.0000001
 44
0.0000000001
 40
0.0
 40
0.0
 40
0.0
 40
0.0
 40
0.1424771274
 40
0.2441121659
 40
0.3668815707
 40
0.6641109534
 40
1.0
 40
1.0
 40
1.0
 40
1.0
 10
454.5200066384
 20
119.9235132197
 30
0.0
 10
454.5887240309
 20
119.8788214904
 30
0.0
 10
454.7481611889
 20
119.8841477297
 30
0.0
 10
454.9432524732
 20
119.9557448414
 30
0.0
 10
455.209676521
 20
120.0989511504
 30
0.0
 10
455.5526257288
 20
120.3692961012
 30
0.0
 10
455.805572017
 20
120.6332006383
 30
0.0
 10
455.9295455696
 20
120.7814425978
 30
0.0
  0
SPLINE
  5
5D0
100
AcDbEntity
  8
KONSTRUKTIONSELEMENTE
100
AcDbSpline
 62
7
  6
CONTINUOUS
 70
0
 71
3
 72
13
 73
9
 74
0
 42
0.0000001
 43
0.0000001
 44
0.0000000001
 40
0.0
 40
0.0
 40
0.0
 40
0.0
 40
0.1424374923
 40
0.2440429614
 40
0.3667933689
 40
0.5081503164
 40
0.6641988276
 40
1.0
 40
1.0
 40
1.0
 40
1.0
 10
453.2382938743
 20
118.3908991439
 30
0.0
 10
453.3070132399
 20
118.3462061313
 30
0.0
 10
453.4664639279
 20
118.3515215056
 30
0.0
 10
453.6615299661
 20
118.4231354783
 30
0.0
 10
453.8485476816
 20
118.5235052565
 30
0.0
 10
454.0471710161
 20
118.6614504219
 30
0.0
 10
454.3275538445
 20
118.8949240288
 30
0.0
 10
454.5238536385
 20
119.100579849
 30
0.0
 10
454.6478328055
 20
119.248828522
 30
0.0
  0
SPLINE
  5
5D1
100
AcDbEntity
  8
KONSTRUKTIONSELEMENTE
100
AcDbSpline
 62
7
  6
CONTINUOUS
 70
0
 71
3
 72
12
 73
8
 74
0
 42
0.0000001
 43
0.0000001
 44
0.0000000001
 40
0.0
 40
0.0
 40
0.0
 40
0.0
 40
0.285581653
 40
0.5706156379
 40
0.817816411
 40
0.9180971044
 40
1.0
 40
1.0
 40
1.0
 40
1.0
 10
407.8077741247
 20
69.0886869679
 30
0.0
 10
407.6626386231
 20
68.9629959365
 30
0.0
 10
407.3923464235
 20
68.6884265954
 30
0.0
 10
407.0608145153
 20
68.2484633434
 30
0.0
 10
406.855354105
 20
67.8725016992
 30
0.0
 10
406.7652825249
 20
67.5975496806
 30
0.0
 10
406.747113953
 20
67.4751915382
 30
0.0
 10
406.747113953
 20
67.4201283143
 30
0.0
  0
SPLINE
  5
5D2
100
AcDbEntity
  8
KONSTRUKTIONSELEMENTE
100
AcDbSpline
 62
7
  6
CONTINUOUS
 70
0
 71
3
 72
11
 73
7
 74
0
 42
0.0000001
 43
0.0000001
 44
0.0000000001
 40
0.0
 40
0.0
 40
0.0
 40
0.0
 40
0.2071541493
 40
0.4584326515
 40
0.7313852971
 40
1.0
 40
1.0
 40
1.0
 40
1.0
 10
420.8892495767
 20
81.9428861349
 30
0.0
 10
420.8035672741
 20
81.6207099433
 30
0.0
 10
420.5108244052
 20
80.9363789924
 30
0.0
 10
419.8889695097
 20
79.9344336357
 30
0.0
 10
419.0887773214
 20
78.9367989889
 30
0.0
 10
418.4684199635
 20
78.321077085
 30
0.0
 10
418.1416438714
 20
78.0380806879
 30
0.0
  0
SPLINE
  5
5D3
100
AcDbEntity
  8
KONSTRUKTIONSELEMENTE
100
AcDbSpline
 62
7
  6
CONTINUOUS
 70
0
 71
3
 72
13
 73
9
 74
0
 42
0.0000001
 43
0.0000001
 44
0.0000000001
 40
0.0
 40
0.0
 40
0.0
 40
0.0
 40
0.2854859153
 40
0.5704513138
 40
0.7009656111
 40
0.8178785543
 40
0.9181069222
 40
1.0
 40
1.0
 40
1.0
 40
1.0
 10
418.0608224519
 20
76.9680872855
 30
0.0
 10
418.4478313381
 20
77.3032468124
 30
0.0
 10
419.1679858011
 20
78.0352273083
 30
0.0
 10
419.9282819492
 20
79.0418434947
 30
0.0
 10
420.4104184497
 20
79.8670745899
 30
0.0
 10
420.6738604039
 20
80.4335630109
 30
0.0
 10
420.8407684712
 20
80.9444651072
 30
0.0
 10
420.8892495767
 20
81.2707173853
 30
0.0
 10
420.8892495767
 20
81.4175770282
 30
0.0
  0
SPLINE
  5
5D4
100
AcDbEntity
  8
KONSTRUKTIONSELEMENTE
100
AcDbSpline
 62
7
  6
CONTINUOUS
 70
0
 71
3
 72
9
 73
5
 74
0
 42
0.0000001
 43
0.0000001
 44
0.0000000001
 40
0.0
 40
0.0
 40
0.0
 40
0.0
 40
0.2756955256
 40
1.0
 40
1.0
 40
1.0
 40
1.0
 10
420.8892495767
 20
72.8675770282
 30
0.0
 10
420.8892495767
 20
72.9027833976
 30
0.0
 10
420.8844878946
 20
73.0302324901
 30
0.0
 10
420.8584735334
 20
73.1583824621
 30
0.0
 10
420.8218106868
 20
73.2432997245
 30
0.0
  0
SPLINE
  5
5D5
100
AcDbEntity
  8
KONSTRUKTIONSELEMENTE
100
AcDbSpline
 62
7
  6
CONTINUOUS
 70
0
 71
3
 72
9
 73
5
 74
0
 42
0.0000001
 43
0.0000001
 44
0.0000000001
 40
0.0
 40
0.0
 40
0.0
 40
0.0
 40
0.5486959742
 40
1.0
 40
1.0
 40
1.0
 40
1.0
 10
420.8892495767
 20
71.8675770282
 30
0.0
 10
420.8892495767
 20
71.9820594558
 30
0.0
 10
420.8666094001
 20
72.1940509357
 30
0.0
 10
420.7505958172
 20
72.3802003259
 30
0.0
 10
420.679405303
 20
72.4418316248
 30
0.0
  0
SPLINE
  5
5D6
100
AcDbEntity
  8
KONSTRUKTIONSELEMENTE
100
AcDbSpline
 62
7
  6
CONTINUOUS
 70
0
 71
3
 72
9
 73
5
 74
0
 42
0.0000001
 43
0.0000001
 44
0.0000000001
 40
0.0
 40
0.0
 40
0.0
 40
0.0
 40
0.5484587228
 40
1.0
 40
1.0
 40
1.0
 40
1.0
 10
406.747113953
 20
62.3701283143
 30
0.0
 10
406.747113953
 20
62.3272237878
 30
0.0
 10
406.7556449944
 20
62.2477592926
 30
0.0
 10
406.799080815
 20
62.1779286466
 30
0.0
 10
406.8257826707
 20
62.1548046391
 30
0.0
  0
SPLINE
  5
5D7
100
AcDbEntity
  8
0
100
AcDbSpline
 62
7
  6
CONTINUOUS
 70
0
 71
3
 72
11
 73
7
 74
0
 42
0.0000001
 43
0.0000001
 44
0.0000000001
 40
0.0
 40
0.0
 40
0.0
 40
0.0
 40
0.2281221682
 40
0.4667569186
 40
0.7232431199
 40
1.0
 40
1.0
 40
1.0
 40
1.0
 10
556.8062948283
 20
253.5913320122
 30
0.0
 10
556.8062948283
 20
254.7014961031
 30
0.0
 10
557.1083301432
 20
256.9833405097
 30
0.0
 10
558.4621038604
 20
260.2710749359
 30
0.0
 10
560.7087453426
 20
263.3239368238
 30
0.0
 10
562.697496514
 20
265.02886467
 30
0.0
 10
563.8040439244
 20
265.7966852213
 30
0.0
  0
SPLINE
  5
5D8
100
AcDbEntity
  8
0
100
AcDbSpline
 62
7
  6
CONTINUOUS
 70
0
 71
3
 72
11
 73
7
 74
0
 42
0.0000001
 43
0.0000001
 44
0.0000000001
 40
0.0
 40
0.0
 40
0.0
 40
0.0
 40
0.2767547023
 40
0.5332397733
 40
0.7718751558
 40
1.0
 40
1.0
 40
1.0
 40
1.0
 10
589.8103454516
 20
265.7954350377
 30
0.0
 10
590.9166274403
 20
265.0276030373
 30
0.0
 10
592.9049021054
 20
263.3227536178
 30
0.0
 10
595.1509441183
 20
260.2701759119
 30
0.0
 10
596.5043483056
 20
256.9828619057
 30
0.0
 10
596.8062948283
 20
254.7013435017
 30
0.0
 10
596.8062948283
 20
253.5913320122
 30
0.0
  0
SPLINE
  5
5D9
100
AcDbEntity
  8
0
100
AcDbSpline
 62
7
  6
CONTINUOUS
 70
0
 71
3
 72
15
 73
11
 74
0
 42
0.0000001
 43
0.0000001
 44
0.0000000001
 40
0.0
 40
0.0
 40
0.0
 40
0.0
 40
0.1216176518
 40
0.2436326724
 40
0.3664251684
 40
0.4903205718
 40
0.6155637269
 40
0.7422876904
 40
0.8704847592
 40
1.0
 40
1.0
 40
1.0
 40
1.0
 10
538.8062948283
 20
253.5913320122
 30
0.0
 10
538.8062948283
 20
255.3519486674
 30
0.0
 10
539.1111165855
 20
258.8863674812
 30
0.0
 10
540.4672094832
 20
264.0398781472
 30
0.0
 10
542.6796698735
 20
268.9246291401
 30
0.0
 10
545.6828803961
 20
273.4214889866
 30
0.0
 10
549.3936422299
 20
277.4308353336
 30
0.0
 10
553.7169454177
 20
280.8696659779
 30
0.0
 10
558.5474089643
 20
283.6705543073
 30
0.0
 10
562.0202089861
 20
285.0725925538
 30
0.0
 10
563.8028685919
 20
285.6535849582
 30
0.0
  0
SPLINE
  5
5DA
100
AcDbEntity
  8
0
100
AcDbSpline
 62
7
  6
CONTINUOUS
 70
0
 71
3
 72
15
 73
11
 74
0
 42
0.0000001
 43
0.0000001
 44
0.0000000001
 40
0.0
 40
0.0
 40
0.0
 40
0.0
 40
0.1295151593
 40
0.257711768
 40
0.384435142
 40
0.5096776833
 40
0.6335726797
 40
0.7563651997
 40
0.8783808533
 40
1.0
 40
1.0
 40
1.0
 40
1.0
 10
589.8117959731
 20
285.6529036144
 30
0.0
 10
591.5943359837
 20
285.0718513699
 30
0.0
 10
595.0668841202
 20
283.6697132182
 30
0.0
 10
599.8969638275
 20
280.8687563317
 30
0.0
 10
604.2198913821
 20
277.4299395119
 30
0.0
 10
607.930316635
 20
273.4206901302
 30
0.0
 10
610.9332585515
 20
268.9239967738
 30
0.0
 10
613.1455189272
 20
264.0394484801
 30
0.0
 10
614.5014980332
 20
258.8861541245
 30
0.0
 10
614.8062948283
 20
255.3518820545
 30
0.0
 10
614.8062948283
 20
253.5913320122
 30
0.0
  0
SPLINE
  5
5DB
100
AcDbEntity
  8
0
100
AcDbSpline
 62
7
  6
CONTINUOUS
 70
0
 71
3
 72
15
 73
11
 74
0
 42
0.0000001
 43
0.0000001
 44
0.0000000001
 40
0.0
 40
0.0
 40
0.0
 40
0.0
 40
0.1210263734
 40
0.2425544432
 40
0.3650528432
 40
0.4889043809
 40
0.6143588799
 40
0.7414857592
 40
0.8701451865
 40
1.0
 40
1.0
 40
1.0
 40
1.0
 10
614.8062948283
 20
214.6201888419
 30
0.0
 10
614.8062948283
 20
212.6377379933
 30
0.0
 10
614.4189756355
 20
208.6540402027
 30
0.0
 10
612.7014390242
 20
202.8902106256
 30
0.0
 10
609.9150280428
 20
197.5077492345
 30
0.0
 10
606.1630824696
 20
192.6695625867
 30
0.0
 10
601.5735157921
 20
188.5069326823
 30
0.0
 10
596.2900750341
 20
185.1250174013
 30
0.0
 10
590.4703602714
 20
182.6045258873
 30
0.0
 10
586.3514277714
 20
181.5398869691
 30
0.0
 10
584.2575995122
 20
181.1653439328
 30
0.0
  0
SPLINE
  5
5DC
100
AcDbEntity
  8
0
100
AcDbSpline
 62
7
  6
CONTINUOUS
 70
0
 71
3
 72
11
 73
7
 74
0
 42
0.0000001
 43
0.0000001
 44
0.0000000001
 40
0.0
 40
0.0
 40
0.0
 40
0.0
 40
0.2543834442
 40
0.5062361032
 40
0.7548547962
 40
1.0
 40
1.0
 40
1.0
 40
1.0
 10
569.3519700607
 20
181.1658872892
 30
0.0
 10
567.1363360477
 20
181.5623980714
 30
0.0
 10
562.7820561766
 20
182.7086085255
 30
0.0
 10
556.6627454882
 20
185.4603495511
 30
0.0
 10
551.1661321544
 20
189.1666499105
 30
0.0
 10
548.0146159575
 20
192.2338843001
 30
0.0
 10
546.6087339931
 20
193.8856888378
 30
0.0
  0
SPLINE
  5
5DD
100
AcDbEntity
  8
0
100
AcDbSpline
 62
7
  6
CONTINUOUS
 70
0
 71
3
 72
11
 73
7
 74
0
 42
0.0000001
 43
0.0000001
 44
0.0000000001
 40
0.0
 40
0.0
 40
0.0
 40
0.0
 40
0.2516553033
 40
0.50190757
 40
0.751198086
 40
1.0
 40
1.0
 40
1.0
 40
1.0
 10
543.0468011884
 20
198.9351764568
 30
0.0
 10
542.3599203519
 20
200.129387907
 30
0.0
 10
541.13816506
 20
202.6002135747
 30
0.0
 10
539.8009678043
 20
206.5009836817
 30
0.0
 10
538.9881247717
 20
210.5279704156
 30
0.0
 10
538.8062948283
 20
213.2581497043
 30
0.0
 10
538.8062948283
 20
214.6201888419
 30
0.0
  0
SPLINE
  5
5DE
100
AcDbEntity
  8
0
100
AcDbSpline
 62
7
  6
CONTINUOUS
 70
0
 71
3
 72
14
 73
10
 74
0
 42
0.0000001
 43
0.0000001
 44
0.0000000001
 40
0.0
 40
0.0
 40
0.0
 40
0.0
 40
0.1072740202
 40
0.2171905397
 40
0.3319323781
 40
0.4529349831
 40
0.5807829267
 40
0.7152893391
 40
1.0
 40
1.0
 40
1.0
 40
1.0
 10
596.8062948283
 20
214.6201888419
 30
0.0
 10
596.8062948283
 20
213.8316081373
 30
0.0
 10
596.6567488346
 20
212.2311957227
 30
0.0
 10
595.983627026
 20
209.8724199043
 30
0.0
 10
594.8554752909
 20
207.5807279291
 30
0.0
 10
593.2741709272
 20
205.4105016676
 30
0.0
 10
591.2558882209
 20
203.4256044705
 30
0.0
 10
587.9771843295
 20
201.0767057758
 30
0.0
 10
585.0817347194
 20
199.8669029747
 30
0.0
 10
583.0604136091
 20
199.3241052395
 30
0.0
  0
SPLINE
  5
5DF
100
AcDbEntity
  8
0
100
AcDbSpline
 62
7
  6
CONTINUOUS
 70
0
 71
3
 72
9
 73
5
 74
0
 42
0.0000001
 43
0.0000001
 44
0.0000000001
 40
0.0
 40
0.0
 40
0.0
 40
0.0
 40
0.5187603996
 40
1.0
 40
1.0
 40
1.0
 40
1.0
 10
570.552260747
 20
199.3240865262
 30
0.0
 10
568.6931603778
 20
199.8233104065
 30
0.0
 10
565.2104745712
 20
201.2320921749
 30
0.0
 10
562.2194201646
 20
203.5227664035
 30
0.0
 10
560.984328268
 20
204.8124923177
 30
0.0
  0
SPLINE
  5
5E0
100
AcDbEntity
  8
0
100
AcDbSpline
 62
7
  6
CONTINUOUS
 70
0
 71
3
 72
9
 73
5
 74
0
 42
0.0000001
 43
0.0000001
 44
0.0000000001
 40
0.0
 40
0.0
 40
0.0
 40
0.0
 40
0.5057276151
 40
1.0
 40
1.0
 40
1.0
 40
1.0
 10
557.6267757871
 20
210.088775829
 30
0.0
 10
557.3567540848
 20
210.8198739208
 30
0.0
 10
556.9455669249
 20
212.3143666022
 30
0.0
 10
556.8062948283
 20
213.8584732563
 30
0.0
 10
556.8062948283
 20
214.6201888419
 30
0.0
  0
ELLIPSE
  5
5E1
100
AcDbEntity
  8
KONSTRUKTIONSELEMENTE
100
AcDbEllipse
 62
7
  6
CONTINUOUS
 10
56.2926840194
 20
129.2863458809
 30
0.0
 11
1.5238181784
 21
-0.3601704405
 31
0.0
 40
0.0607989098
 41
-2.7235007144
 42
-1.1527043876
  0
ELLIPSE
  5
5E2
100
AcDbEntity
  8
KONSTRUKTIONSELEMENTE
100
AcDbEllipse
 62
7
  6
CONTINUOUS
 10
60.8613092599
 20
126.765959877
 30
0.0
 11
-0.8214913299
 21
1.5347520336
 31
0.0
 40
0.7424978488
 41
4.1566475332
 42
5.72744386
  0
ELLIPSE
  5
5E3
100
AcDbEntity
  8
KONSTRUKTIONSELEMENTE
100
AcDbEllipse
 62
7
  6
CONTINUOUS
 10
87.0940213453
 20
109.6940243576
 30
0.0
 11
31.1769145362
 21
54.0
 31
0.0
 40
0.5773502692
 41
-0.3571758222
 42
-0.1561898301
  0
ELLIPSE
  5
5E4
100
AcDbEntity
  8
KONSTRUKTIONSELEMENTE
100
AcDbEllipse
 62
7
  6
CONTINUOUS
 10
87.0940213453
 20
109.6940243576
 30
0.0
 11
31.1769145362
 21
54.0
 31
0.0
 40
0.5773502692
 41
0.1561898301
 42
0.3571758222
  0
ELLIPSE
  5
5E5
100
AcDbEntity
  8
BEZUGSACHSEN
100
AcDbEllipse
 62
7
  6
CONTINUOUS
 10
343.2523199655
 20
109.6940243576
 30
0.0
 11
-31.1769145362
 21
54.0
 31
0.0
 40
0.5773502692
 41
-0.3571758222
 42
-0.1561898301
  0
ELLIPSE
  5
5E6
100
AcDbEntity
  8
BEZUGSACHSEN
100
AcDbEllipse
 62
7
  6
CONTINUOUS
 10
343.2523199655
 20
109.6940243576
 30
0.0
 11
-31.1769145362
 21
54.0
 31
0.0
 40
0.5773502692
 41
0.1561898301
 42
0.3571758222
  0
ELLIPSE
  5
5E7
100
AcDbEntity
  8
KONSTRUKTIONSELEMENTE
100
AcDbEllipse
 62
7
  6
CONTINUOUS
 10
623.86438895
 20
109.6940243576
 30
0.0
 11
-35.0369636208
 21
56.6909980011
 31
0.0
 40
0.1458980338
 41
0.5642218358
 42
0.5889996267
  0
ELLIPSE
  5
5E8
100
AcDbEntity
  8
BEZUGSACHSEN
100
AcDbEllipse
 62
7
  6
CONTINUOUS
 10
529.7482007066
 20
109.6940243576
 30
0.0
 11
35.0369636208
 21
56.6909980011
 31
0.0
 40
0.1458980338
 41
-0.5889996267
 42
-0.5642218358
  0
ELLIPSE
  5
5E9
100
AcDbEntity
  8
RUNDUNGEN
100
AcDbEllipse
 62
7
  6
CONTINUOUS
 10
581.5031134799
 20
181.4881775624
 30
0.0
 11
0.4917496415
 21
7.9459163478
 31
0.0
 40
0.2511847582
 41
-4.3824699552
 42
-3.4256861865
  0
ELLIPSE
  5
5EA
100
AcDbEntity
  8
BEZUGSACHSEN
100
AcDbEllipse
 62
7
  6
CONTINUOUS
 10
572.1094761768
 20
181.4881775624
 30
0.0
 11
-0.4917496415
 21
7.9459163478
 31
0.0
 40
0.2511847582
 41
-2.8574991207
 42
-1.9007153519
  0
ELLIPSE
  5
5EB
100
AcDbEntity
  8
KONSTRUKTIONSELEMENTE
100
AcDbEllipse
 62
7
  6
CONTINUOUS
 10
457.2147757035
 20
131.7358356237
 30
0.0
 11
-0.1680321616
 21
2.0881838291
 31
0.0
 40
0.2046205075
 41
1.414284035
 42
2.9366355233
  0
ELLIPSE
  5
5EC
100
AcDbEntity
  8
KONSTRUKTIONSELEMENTE
100
AcDbEllipse
 62
7
  6
CONTINUOUS
 10
460.0432028282
 20
129.2863458809
 30
0.0
 11
2.0708637754
 21
0.1666384499
 31
0.0
 40
0.1605475814
 41
1.7760442449
 42
3.2983957332
  0
ELLIPSE
  5
5ED
100
AcDbEntity
  8
KONSTRUKTIONSELEMENTE
100
AcDbEllipse
 62
7
  6
CONTINUOUS
 10
460.851903923
 20
126.765959877
 30
0.0
 11
1.3731783745
 21
1.6153627742
 31
0.0
 40
0.2502772103
 41
-1.538620793
 42
0.0321755338
  0
ENDSEC
  0
SECTION
  2
OBJECTS
  0
DICTIONARY
  5
C
100
AcDbDictionary
280
0
281
1
  3
ACAD_GROUP
350
D
  3
ACAD_MLINESTYLE
350
17
  3
ACAD_LAYOUT
350
1A
  3
ACAD_PLOTSETTINGS
350
19
  3
ACAD_PLOTSTYLENAME
350
E
  0
DICTIONARY
  5
D
102
{ACAD_REACTORS
330
C
102
}
100
AcDbDictionary
280
0
281
1
  0
ACDBDICTIONARYWDFLT
  5
E
102
{ACAD_REACTORS
330
C
102
}
100
AcDbDictionary
281
1
  3
Normal
350
F
100
AcDbDictionaryWithDefault
340
F
  0
DICTIONARY
  5
17
102
{ACAD_REACTORS
330
C
102
}
100
AcDbDictionary
280
0
281
1
  3
Standard
350
18
  0
DICTIONARY
  5
19
102
{ACAD_REACTORS
330
C
102
}
100
AcDbDictionary
281
1
  0
DICTIONARY
  5
1A
102
{ACAD_REACTORS
330
C
102
}
100
AcDbDictionary
281
1
  3
Model
350
5EE
  3
Layout1
350
5EF
  0
ACDBPLACEHOLDER
  5
F
102
{ACAD_REACTORS
330
E
102
}
  0
MLINESTYLE
  5
18
102
{ACAD_REACTORS
330
17
102
}
100
AcDbMlineStyle
  2
STANDARD
 70
0
  3

 62
256
 51
90.0
 52
90.0
 71
2
 49
0.5
 62
256
  6
BYLAYER
 49
-0.5
 62
256
  6
BYLAYER
  0
LAYOUT
  5
5EE
102
{ACAD_REACTORS
330
1A
102
}
100
AcDbPlotSettings
  1

  2
none_device
  4
ISO_A1_(594.00_x_841.00_MM)
  6

 40
0.0
 41
0.0
 42
0.0
 43
0.0
 44
841.0
 45
594.0
 46
0.0
 47
0.0
 48
0.0
 49
0.0
140
0.0
141
0.0
142
1.0
143
1.0
 70
1024
 72
1
 73
0
 74
0
  7

 75
0
147
1.0
148
0.0
149
0.0
100
AcDbLayout
  1
Model
 70
0
 71
0
 10
0.0
 20
0.0
 11
841.0
 21
594.0
 12
0.0
 22
0.0
 32
0.0
 14
0.0
 24
0.0
 34
0.0
 15
0.0
 25
0.0
 35
0.0
146
0.0
 13
0.0
 23
0.0
 33
0.0
 16
1.0
 26
0.0
 36
0.0
 17
0.0
 27
1.0
 37
0.0
 76
0
330
20D
345
0
346
0
  0
LAYOUT
  5
5EF
102
{ACAD_REACTORS
330
1A
102
}
100
AcDbPlotSettings
  1

  2
none_device
  4
ISO_A1_(594.00_x_841.00_MM)
  6

 40
0.0
 41
0.0
 42
0.0
 43
0.0
 44
841.0
 45
594.0
 46
0.0
 47
0.0
 48
0.0
 49
0.0
140
0.0
141
0.0
142
1.0
143
1.0
 70
0
 72
1
 73
0
 74
0
  7

 75
0
147
1.0
148
0.0
149
0.0
100
AcDbLayout
  1
Layout1
 70
0
 71
1
 10
0.0
 20
0.0
 11
841.0
 21
594.0
 12
0.0
 22
0.0
 32
0.0
 14
0.0
 24
0.0
 34
0.0
 15
0.0
 25
0.0
 35
0.0
146
0.0
 13
0.0
 23
0.0
 33
0.0
 16
1.0
 26
0.0
 36
0.0
 17
0.0
 27
1.0
 37
0.0
 76
0
330
20E
345
0
346
0
  0
ENDSEC
  0
EOF
