999
DXF file: VAK-2-8_7100707_M34479-P-2.dxf
999
Pro/ENGINEER 2010140 by Parametric Technology Corporation
  0
SECTION
  2
HEADER
  9
$ACADVER
  1
AC1015
  9
$DWGCODEPAGE
  3
ANSI_1252
  9
$EXTMAX
 10
420.0
 20
297.0
 30
0.0
  9
$EXTMIN
 10
0.0
 20
0.0
 30
0.0
  9
$LIMMIN
 10
0.0
 20
0.0
  9
$LIMMAX
 10
420.0
 20
297.0
  9
$VIEWCTR
 10
210.0
 20
148.5
  9
$VIEWSIZE
 40
297.0
  9
$CLAYER
  8
0
  9
$LTSCALE
 40
23.1
  9
$CELTYPE
  6
BYLAYER
  9
$DIMSCALE
 40
1.0
  9
$DIMASZ
 40
3.5
  9
$DIMEXO
 40
2.625
  9
$DIMDLI
 40
15.96
  9
$DIMEXE
 40
7.56
  9
$DIMCEN
 40
3.78
  9
$DIMLFAC
 40
1.0
  9
$DIMBLK
  1
_FILLED
  9
$DIMTXT
 40
3.5
  9
$DIMTOL
 70
1
  9
$DIMLIM
 70
0
  9
$DIMTFAC
 40
1.0
  9
$DIMTP
 40
0.005
  9
$DIMTM
 40
0.005
  9
$PDMODE
 70
3
  9
$PDSIZE
 40
0.3125
  9
$HANDSEED
  5
785
  9
$TILEMODE
 70
1
  9
$MEASUREMENT
 70
1
  9
$INSUNITS
 70
4
  0
ENDSEC
  0
SECTION
  2
CLASSES
  0
CLASS
  1
ACDBDICTIONARYWDFLT
  2
AcDbDictionaryWithDefault
  3
AutoCAD 2000
 90
0
280
0
281
0
  0
CLASS
  1
ACDBPLACEHOLDER
  2
AcDbPlaceHolder
  3
AutoCAD 2000
 90
0
280
0
281
0
  0
CLASS
  1
LAYOUT
  2
AcDbLayout
  3
AutoCAD 2000
 90
0
280
0
281
0
  0
ENDSEC
  0
SECTION
  2
TABLES
  0
TABLE
  2
VPORT
  5
8
100
AcDbSymbolTable
 70
2
  0
VPORT
  5
1F4
100
AcDbSymbolTableRecord
100
AcDbViewportTableRecord
  2
*ACTIVE
 70
0
 10
0.0
 20
0.0
 11
1.0
 21
1.0
 12
210.0
 22
148.5
 13
0.0
 23
0.0
 14
1.0
 24
1.0
 15
0.0
 25
0.0
 16
0.0
 26
0.0
 36
1.0
 17
0.0
 27
0.0
 37
0.0
 40
297.0
 41
1.4141414141
 42
50.0
 43
0.0
 44
0.0
 50
0.0
 51
0.0
 71
0
 72
100
 73
1
 74
1
 75
0
 76
0
 77
0
 78
0
  0
ENDTAB
  0
TABLE
  2
LTYPE
  5
5
100
AcDbSymbolTable
 70
6
  0
LTYPE
  5
14
100
AcDbSymbolTableRecord
100
AcDbLinetypeTableRecord
  2
BYBLOCK
 70
0
  3

 72
65
 73
0
 40
0.0
  0
LTYPE
  5
15
100
AcDbSymbolTableRecord
100
AcDbLinetypeTableRecord
  2
BYLAYER
 70
0
  3

 72
65
 73
0
 40
0.0
  0
LTYPE
  5
16
100
AcDbSymbolTableRecord
100
AcDbLinetypeTableRecord
  2
CONTINUOUS
 70
64
  3
Solid line
 72
65
 73
0
 40
0.0
  0
LTYPE
  5
1F5
100
AcDbSymbolTableRecord
100
AcDbLinetypeTableRecord
  2
CENTER
 70
64
  3
____ _ ____ _ ____ _ ____ _ ____ _ ____ _ ____
 72
65
 73
4
 40
0.6
 49
0.375
 74
0
 49
-0.075
 74
0
 49
0.075
 74
0
 49
-0.075
 74
0
  0
LTYPE
  5
1F6
100
AcDbSymbolTableRecord
100
AcDbLinetypeTableRecord
  2
HIDDEN
 70
64
  3
- - - - - - - - - - - - - - - - - - - -
 72
65
 73
2
 40
0.2
 49
0.1
 74
0
 49
-0.1
 74
0
  0
LTYPE
  5
1F7
100
AcDbSymbolTableRecord
100
AcDbLinetypeTableRecord
  2
PHANTOM
 70
64
  3
_____ _ _ _____ _ _ _____ _ _ _____
 72
65
 73
6
 40
0.8
 49
0.45
 74
0
 49
-0.05
 74
0
 49
0.1
 74
0
 49
-0.05
 74
0
 49
0.1
 74
0
 49
-0.05
 74
0
  0
LTYPE
  5
1F8
100
AcDbSymbolTableRecord
100
AcDbLinetypeTableRecord
  2
DOT
 70
64
  3
. . . . . . . . . . . . . . . . . . . .
 72
65
 73
2
 40
0.2
 49
0.1
 74
0
 49
-0.1
 74
0
  0
LTYPE
  5
1F9
100
AcDbSymbolTableRecord
100
AcDbLinetypeTableRecord
  2
DASHED
 70
64
  3
- - - - - - - - - - - - - - - - - - - -
 72
65
 73
2
 40
0.2
 49
0.1
 74
0
 49
-0.1
 74
0
  0
ENDTAB
  0
TABLE
  2
LAYER
  5
2
100
AcDbSymbolTable
 70
36
  0
LAYER
  5
10
100
AcDbSymbolTableRecord
100
AcDbLayerTableRecord
  2
0
 70
0
 62
7
  6
CONTINUOUS
370
-3
390
F
  0
LAYER
  5
1FA
100
AcDbSymbolTableRecord
100
AcDbLayerTableRecord
  2
DEFAULT_1
 70
0
 62
7
  6
CENTER
370
-3
390
F
  0
LAYER
  5
1FB
100
AcDbSymbolTableRecord
100
AcDbLayerTableRecord
  2
DEFAULT_2
 70
0
 62
8
  6
HIDDEN
370
-3
390
F
  0
LAYER
  5
1FC
100
AcDbSymbolTableRecord
100
AcDbLayerTableRecord
  2
DEFAULT_3
 70
0
 62
7
  6
PHANTOM
370
-3
390
F
  0
LAYER
  5
1FD
100
AcDbSymbolTableRecord
100
AcDbLayerTableRecord
  2
AUSFORMSCHRAEGEN
 70
0
 62
7
  6
CONTINUOUS
370
-3
390
F
  0
LAYER
  5
1FE
100
AcDbSymbolTableRecord
100
AcDbLayerTableRecord
  2
BEZUGSACHSEN
 70
0
 62
7
  6
CONTINUOUS
370
-3
390
F
  0
LAYER
  5
1FF
100
AcDbSymbolTableRecord
100
AcDbLayerTableRecord
  2
BEZUGSEBENEN
 70
0
 62
7
  6
CONTINUOUS
370
-3
390
F
  0
LAYER
  5
200
100
AcDbSymbolTableRecord
100
AcDbLayerTableRecord
  2
BG_STARTBEZUEGE
 70
0
 62
7
  6
CONTINUOUS
370
-3
390
F
  0
LAYER
  5
201
100
AcDbSymbolTableRecord
100
AcDbLayerTableRecord
  2
FASEN
 70
0
 62
7
  6
CONTINUOUS
370
-3
390
F
  0
LAYER
  5
202
100
AcDbSymbolTableRecord
100
AcDbLayerTableRecord
  2
HILFEN
 70
0
 62
7
  6
CONTINUOUS
370
-3
390
F
  0
LAYER
  5
203
100
AcDbSymbolTableRecord
100
AcDbLayerTableRecord
  2
KONSTRUKTIONSELEMENTE
 70
0
 62
7
  6
CONTINUOUS
370
-3
390
F
  0
LAYER
  5
204
100
AcDbSymbolTableRecord
100
AcDbLayerTableRecord
  2
PLATZIERUNG
 70
0
 62
7
  6
CONTINUOUS
370
-3
390
F
  0
LAYER
  5
205
100
AcDbSymbolTableRecord
100
AcDbLayerTableRecord
  2
PLAZIERUNG
 70
0
 62
7
  6
CONTINUOUS
370
-3
390
F
  0
LAYER
  5
206
100
AcDbSymbolTableRecord
100
AcDbLayerTableRecord
  2
RUNDUNGEN
 70
0
 62
7
  6
CONTINUOUS
370
-3
390
F
  0
LAYER
  5
207
100
AcDbSymbolTableRecord
100
AcDbLayerTableRecord
  2
TEIL_STARTBEZUEGE
 70
0
 62
7
  6
CONTINUOUS
370
-3
390
F
  0
LAYER
  5
208
100
AcDbSymbolTableRecord
100
AcDbLayerTableRecord
  2
T_STARTBEZUEGE
 70
0
 62
7
  6
CONTINUOUS
370
-3
390
F
  0
LAYER
  5
209
100
AcDbSymbolTableRecord
100
AcDbLayerTableRecord
  2
ZEICHNUNGSBEMASSUNGEN
 70
0
 62
7
  6
CONTINUOUS
370
-3
390
F
  0
ENDTAB
  0
TABLE
  2
STYLE
  5
3
100
AcDbSymbolTable
 70
1
  0
STYLE
  5
11
100
AcDbSymbolTableRecord
100
AcDbTextStyleTableRecord
  2
STANDARD
 70
0
 40
0.0
 41
0.7
 50
0.0
 71
0
 42
0.2
  3
txt
  4

  0
STYLE
  5
20A
100
AcDbSymbolTableRecord
100
AcDbTextStyleTableRecord
  2
TEXTSTYLE_1
 70
0
 40
0.0
 41
0.8
 50
0.0
 71
0
 42
0.2
  3
gdt
  4

  0
ENDTAB
  0
TABLE
  2
VIEW
  5
6
100
AcDbSymbolTable
 70
0
  0
ENDTAB
  0
TABLE
  2
UCS
  5
7
100
AcDbSymbolTable
 70
0
  0
ENDTAB
  0
TABLE
  2
APPID
  5
9
100
AcDbSymbolTable
 70
1
  0
APPID
  5
20B
100
AcDbSymbolTableRecord
100
AcDbRegAppTableRecord
  2
ACAD
 70
0
  0
ENDTAB
  0
TABLE
  2
BLOCK_RECORD
  5
1
100
AcDbSymbolTable
 70
0
  0
BLOCK_RECORD
  5
20C
100
AcDbSymbolTableRecord
100
AcDbBlockTableRecord
  2
*Model_Space
  0
BLOCK_RECORD
  5
20D
100
AcDbSymbolTableRecord
100
AcDbBlockTableRecord
  2
*Paper_Space
  0
ENDTAB
  0
TABLE
  2
DIMSTYLE
  5
A
100
AcDbSymbolTable
 70
1
100
AcDbDimStyleTable
 71
0
  0
DIMSTYLE
105
20E
100
AcDbSymbolTableRecord
100
AcDbDimStyleTableRecord
  2
STANDARD
 70
0
  3

  4

 40
1.0
 41
3.5
 42
0.0625
 43
0.38
 44
0.18
 45
0.0
 46
0.0
 47
0.005
 48
0.005
140
3.5
141
0.09
142
0.0
143
25.4
144
1.0
145
0.0
146
1.0
147
0.09
 71
1.0
 72
0.0
 73
0
 74
0
 75
0
 76
0
 77
1
 78
8
170
0
171
2
172
0
173
0
174
0
175
0
176
0
177
0
178
5
270
2
271
3
272
3
273
2
274
2
275
0
280
0
281
0
282
0
283
1
284
8
285
0
286
0
287
3
288
0
340
11
  0
ENDTAB
  0
ENDSEC
  0
SECTION
  2
BLOCKS
  0
BLOCK
  5
20
100
AcDbEntity
  8
0
100
AcDbBlockBegin
  2
*Model_Space
 70
0
 10
0.0
 20
0.0
 30
0.0
  3
*Model_Space
  1

  0
ENDBLK
  5
21
100
AcDbEntity
  8
0
100
AcDbBlockEnd
  0
BLOCK
  5
1C
100
AcDbEntity
  8
0
100
AcDbBlockBegin
  2
*Paper_Space
 70
0
 10
0.0
 20
0.0
 30
0.0
  3
*Paper_Space
  1

  0
ENDBLK
  5
1D
100
AcDbEntity
  8
0
100
AcDbBlockEnd
  0
ENDSEC
  0
SECTION
  2
ENTITIES
  0
MTEXT
  5
20F
100
AcDbEntity
  8
0
100
AcDbMText
 62
5
  6
CONTINUOUS
  7
STANDARD
 71
1
 72
1
 10
395.708439781
 20
159.752817062
 30
0.0
 11
0.0
 21
1.0
 31
0.0
 44
0.9
  1
RUD VAK-2-8
 40
5.0
 41
44.6428571429
  0
MTEXT
  5
210
100
AcDbEntity
  8
0
100
AcDbMText
 62
5
  6
CONTINUOUS
  7
STANDARD
 71
1
 72
1
 10
70.9564400795
 20
168.0469700995
 30
0.0
 11
0.0
 21
1.0
 31
0.0
 44
0.9
  1
RUD VAK-2-8
 40
5.0
 41
44.6428571429
  0
LINE
  5
211
100
AcDbEntity
  8
0
100
AcDbLine
 62
7
  6
CONTINUOUS
 10
0.0
 20
0.0
 11
0.0
 21
297.0
  0
LINE
  5
212
100
AcDbEntity
  8
0
100
AcDbLine
 62
7
  6
CONTINUOUS
 10
0.0
 20
0.0
 11
420.0
 21
0.0
  0
LINE
  5
213
100
AcDbEntity
  8
0
100
AcDbLine
 62
7
  6
CONTINUOUS
 10
0.0
 20
297.0
 11
420.0
 21
297.0
  0
LINE
  5
214
100
AcDbEntity
  8
0
100
AcDbLine
 62
7
  6
CONTINUOUS
 10
420.0
 20
0.0
 11
420.0
 21
297.0
  0
LINE
  5
215
100
AcDbEntity
  8
KONSTRUKTIONSELEMENTE
100
AcDbLine
 62
7
  6
CONTINUOUS
 10
140.207061408
 20
36.0881702787
 11
142.207061408
 21
32.6240686636
  0
LINE
  5
216
100
AcDbEntity
  8
KONSTRUKTIONSELEMENTE
100
AcDbLine
 62
7
  6
CONTINUOUS
 10
156.0634678686
 20
40.6240686636
 11
154.0634678686
 21
44.0881702787
  0
LINE
  5
217
100
AcDbEntity
  8
BEZUGSACHSEN
100
AcDbLine
 62
7
  6
CONTINUOUS
 10
210.3551191146
 20
76.5881702787
 11
212.3551191146
 21
73.1240686636
  0
LINE
  5
218
100
AcDbEntity
  8
KONSTRUKTIONSELEMENTE
100
AcDbLine
 62
7
  6
CONTINUOUS
 10
208.3126508693
 20
82.6258290524
 11
210.8126508693
 21
78.2957020334
  0
LINE
  5
219
100
AcDbEntity
  8
KONSTRUKTIONSELEMENTE
100
AcDbLine
 62
7
  6
CONTINUOUS
 10
208.7456635712
 20
82.8758290524
 11
211.2456635712
 21
78.5457020334
  0
LINE
  5
21A
100
AcDbEntity
  8
0
100
AcDbLine
 62
7
  6
CONTINUOUS
 10
330.9955744633
 20
90.1735118075
 11
325.2544217608
 21
92.2631205016
  0
LINE
  5
21B
100
AcDbEntity
  8
0
100
AcDbLine
 62
7
  6
CONTINUOUS
 10
335.096816227
 20
101.6777139374
 11
329.5074468863
 21
103.7120780058
  0
LINE
  5
21C
100
AcDbEntity
  8
BEZUGSACHSEN
100
AcDbLine
 62
7
  6
CONTINUOUS
 10
332.9515432057
 20
118.2250151233
 11
332.765804105
 21
118.2926186273
  0
LINE
  5
21D
100
AcDbEntity
  8
BEZUGSACHSEN
100
AcDbLine
 62
7
  6
CONTINUOUS
 10
333.0527387562
 20
118.267995385
 11
332.8678517202
 21
118.3352887628
  0
LINE
  5
21E
100
AcDbEntity
  8
BEZUGSACHSEN
100
AcDbLine
 62
7
  6
CONTINUOUS
 10
333.137183348
 20
118.3619939789
 11
332.95208134
 21
118.4293656001
  0
LINE
  5
21F
100
AcDbEntity
  8
BEZUGSACHSEN
100
AcDbLine
 62
7
  6
CONTINUOUS
 10
332.9816084831
 20
118.6398796525
 11
332.9100218195
 21
118.6659350672
  0
LINE
  5
220
100
AcDbEntity
  8
BEZUGSACHSEN
100
AcDbLine
 62
7
  6
CONTINUOUS
 10
333.3175700541
 20
118.6323059503
 11
333.1309770886
 21
118.7002202357
  0
LINE
  5
221
100
AcDbEntity
  8
BEZUGSACHSEN
100
AcDbLine
 62
7
  6
CONTINUOUS
 10
333.0837672084
 20
118.7756929488
 11
332.9321236293
 21
118.8308866978
  0
LINE
  5
222
100
AcDbEntity
  8
BEZUGSACHSEN
100
AcDbLine
 62
7
  6
CONTINUOUS
 10
333.1772828326
 20
118.9562300472
 11
332.9830948852
 21
119.0269086799
  0
LINE
  5
223
100
AcDbEntity
  8
BEZUGSACHSEN
100
AcDbLine
 62
7
  6
CONTINUOUS
 10
333.4818926784
 20
118.9533832906
 11
333.292864496
 21
119.0221839224
  0
LINE
  5
224
100
AcDbEntity
  8
BEZUGSACHSEN
100
AcDbLine
 62
7
  6
CONTINUOUS
 10
333.5627513442
 20
118.9397282836
 11
333.3751341599
 21
119.0080153541
  0
LINE
  5
225
100
AcDbEntity
  8
BEZUGSACHSEN
100
AcDbLine
 62
7
  6
CONTINUOUS
 10
333.6355984309
 20
118.9514485426
 11
333.4488494565
 21
119.0194196106
  0
LINE
  5
226
100
AcDbEntity
  8
BEZUGSACHSEN
100
AcDbLine
 62
7
  6
CONTINUOUS
 10
333.2596094319
 20
119.1824205196
 11
333.0629999631
 21
119.253980514
  0
LINE
  5
227
100
AcDbEntity
  8
BEZUGSACHSEN
100
AcDbLine
 62
7
  6
CONTINUOUS
 10
333.7200719207
 20
119.0454366185
 11
333.5331531475
 21
119.1134694882
  0
LINE
  5
228
100
AcDbEntity
  8
BEZUGSACHSEN
100
AcDbLine
 62
7
  6
CONTINUOUS
 10
333.3708902701
 20
119.4396475501
 11
333.1718772002
 21
119.5120823837
  0
LINE
  5
229
100
AcDbEntity
  8
BEZUGSACHSEN
100
AcDbLine
 62
7
  6
CONTINUOUS
 10
333.9007188663
 20
119.3156539287
 11
333.7124846717
 21
119.3841655726
  0
LINE
  5
22A
100
AcDbEntity
  8
BEZUGSACHSEN
100
AcDbLine
 62
7
  6
CONTINUOUS
 10
333.6555743815
 20
119.4407096274
 11
333.5232006111
 21
119.4888897396
  0
LINE
  5
22B
100
AcDbEntity
  8
0
100
AcDbLine
 62
7
  6
CONTINUOUS
 10
340.6087164088
 20
116.9601622656
 11
335.1084548121
 21
118.9620937675
  0
LINE
  5
22C
100
AcDbEntity
  8
BEZUGSACHSEN
100
AcDbLine
 62
7
  6
CONTINUOUS
 10
333.7582533571
 20
119.6179115386
 11
333.5744837755
 21
119.6847981963
  0
LINE
  5
22D
100
AcDbEntity
  8
BEZUGSACHSEN
100
AcDbLine
 62
7
  6
CONTINUOUS
 10
333.5111022364
 20
119.7279224816
 11
333.3097420824
 21
119.801211584
  0
LINE
  5
22E
100
AcDbEntity
  8
BEZUGSACHSEN
100
AcDbLine
 62
7
  6
CONTINUOUS
 10
334.0453216073
 20
119.5798714593
 11
333.8554042029
 21
119.6489957414
  0
LINE
  5
22F
100
AcDbEntity
  8
BEZUGSACHSEN
100
AcDbLine
 62
7
  6
CONTINUOUS
 10
333.8514887175
 20
119.8401315467
 11
333.6546305337
 21
119.911782066
  0
LINE
  5
230
100
AcDbEntity
  8
BEZUGSACHSEN
100
AcDbLine
 62
7
  6
CONTINUOUS
 10
333.605285235
 20
120.0520692973
 11
333.4841245937
 21
120.0961681643
  0
LINE
  5
231
100
AcDbEntity
  8
BEZUGSACHSEN
100
AcDbLine
 62
7
  6
CONTINUOUS
 10
334.2308504872
 20
119.9572705455
 11
334.038292677
 21
120.0273558567
  0
LINE
  5
232
100
AcDbEntity
  8
BEZUGSACHSEN
100
AcDbLine
 62
7
  6
CONTINUOUS
 10
333.9626947385
 20
120.0973858084
 11
333.7636714638
 21
120.1698243563
  0
LINE
  5
233
100
AcDbEntity
  8
BEZUGSACHSEN
100
AcDbLine
 62
7
  6
CONTINUOUS
 10
333.7959758869
 20
120.3759840503
 11
333.7735658393
 21
120.3841406405
  0
LINE
  5
234
100
AcDbEntity
  8
BEZUGSACHSEN
100
AcDbLine
 62
7
  6
CONTINUOUS
 10
334.3610431074
 20
120.2716515105
 11
334.1659634181
 21
120.3426547107
  0
LINE
  5
235
100
AcDbEntity
  8
BEZUGSACHSEN
100
AcDbLine
 62
7
  6
CONTINUOUS
 10
333.8454473282
 20
120.4893959791
 11
333.7716679309
 21
120.5162494836
  0
LINE
  5
236
100
AcDbEntity
  8
BEZUGSACHSEN
100
AcDbLine
 62
7
  6
CONTINUOUS
 10
334.1097253482
 20
120.4247569273
 11
333.9298038562
 21
120.4902429949
  0
LINE
  5
237
100
AcDbEntity
  8
BEZUGSACHSEN
100
AcDbLine
 62
7
  6
CONTINUOUS
 10
334.4433697067
 20
120.4978419829
 11
334.2463080324
 21
120.5695665667
  0
LINE
  5
238
100
AcDbEntity
  8
BEZUGSACHSEN
100
AcDbLine
 62
7
  6
CONTINUOUS
 10
334.1569877595
 20
120.6603661801
 11
334.0554175538
 21
120.6973347117
  0
LINE
  5
239
100
AcDbEntity
  8
BEZUGSACHSEN
100
AcDbLine
 62
7
  6
CONTINUOUS
 10
334.5189907581
 20
120.7489294335
 11
334.3194678241
 21
120.8215498425
  0
LINE
  5
23A
100
AcDbEntity
  8
BEZUGSACHSEN
100
AcDbLine
 62
7
  6
CONTINUOUS
 10
334.5392774342
 20
120.9370039399
 11
334.3372693509
 21
121.0105288693
  0
LINE
  5
23B
100
AcDbEntity
  8
BEZUGSACHSEN
100
AcDbLine
 62
7
  6
CONTINUOUS
 10
334.5181636499
 20
121.0120695295
 11
334.3146221529
 21
121.0861525758
  0
LINE
  5
23C
100
AcDbEntity
  8
BEZUGSACHSEN
100
AcDbLine
 62
7
  6
CONTINUOUS
 10
334.6591045756
 20
123.1040545468
 11
334.4192449187
 21
123.1913563223
  0
LINE
  5
23D
100
AcDbEntity
  8
BEZUGSACHSEN
100
AcDbLine
 62
7
  6
CONTINUOUS
 10
334.7508020388
 20
123.1620241126
 11
334.5126417976
 21
123.2487073514
  0
LINE
  5
23E
100
AcDbEntity
  8
BEZUGSACHSEN
100
AcDbLine
 62
7
  6
CONTINUOUS
 10
334.8849476688
 20
123.3438513804
 11
334.6470297943
 21
123.4304464049
  0
LINE
  5
23F
100
AcDbEntity
  8
BEZUGSACHSEN
100
AcDbLine
 62
7
  6
CONTINUOUS
 10
334.7395900237
 20
123.7004984369
 11
334.6560919574
 21
123.7308892476
  0
LINE
  5
240
100
AcDbEntity
  8
BEZUGSACHSEN
100
AcDbLine
 62
7
  6
CONTINUOUS
 10
334.9659646534
 20
124.0360274509
 11
334.7859557769
 21
124.1015453239
  0
LINE
  5
241
100
AcDbEntity
  8
BEZUGSACHSEN
100
AcDbLine
 62
7
  6
CONTINUOUS
 10
335.0863726005
 20
124.2472191994
 11
334.8820654136
 21
124.3215809341
  0
LINE
  5
242
100
AcDbEntity
  8
BEZUGSACHSEN
100
AcDbLine
 62
7
  6
CONTINUOUS
 10
335.4406144795
 20
124.1806829588
 11
335.201901228
 21
124.2675674768
  0
LINE
  5
243
100
AcDbEntity
  8
BEZUGSACHSEN
100
AcDbLine
 62
7
  6
CONTINUOUS
 10
335.1681744816
 20
124.4952970332
 11
335.0010322451
 21
124.5561318321
  0
LINE
  5
244
100
AcDbEntity
  8
BEZUGSACHSEN
100
AcDbLine
 62
7
  6
CONTINUOUS
 10
334.9780353566
 20
124.6659032393
 11
334.9005789991
 21
124.6940950479
  0
LINE
  5
245
100
AcDbEntity
  8
BEZUGSACHSEN
100
AcDbLine
 62
7
  6
CONTINUOUS
 10
335.0122042335
 20
124.6747130103
 11
334.9061830229
 21
124.7133015751
  0
LINE
  5
246
100
AcDbEntity
  8
BEZUGSACHSEN
100
AcDbLine
 62
7
  6
CONTINUOUS
 10
335.3150778467
 20
124.7425154568
 11
335.1423958006
 21
124.8053665816
  0
LINE
  5
247
100
AcDbEntity
  8
BEZUGSACHSEN
100
AcDbLine
 62
7
  6
CONTINUOUS
 10
335.7740542817
 20
124.6827673922
 11
335.5349178179
 21
124.7698059469
  0
LINE
  5
248
100
AcDbEntity
  8
BEZUGSACHSEN
100
AcDbLine
 62
7
  6
CONTINUOUS
 10
335.5584088571
 20
124.8343470467
 11
335.4116046374
 21
124.8877794129
  0
LINE
  5
249
100
AcDbEntity
  8
BEZUGSACHSEN
100
AcDbLine
 62
7
  6
CONTINUOUS
 10
335.5581319115
 20
124.9775735285
 11
335.3058548335
 21
125.0693948757
  0
LINE
  5
24A
100
AcDbEntity
  8
BEZUGSACHSEN
100
AcDbLine
 62
7
  6
CONTINUOUS
 10
335.9734564314
 20
125.0029854998
 11
335.7336982704
 21
125.0902503338
  0
LINE
  5
24B
100
AcDbEntity
  8
BEZUGSACHSEN
100
AcDbLine
 62
7
  6
CONTINUOUS
 10
335.2459032288
 20
125.4018641696
 11
335.1501503233
 21
125.436715377
  0
LINE
  5
24C
100
AcDbEntity
  8
BEZUGSACHSEN
100
AcDbLine
 62
7
  6
CONTINUOUS
 10
335.3272164504
 20
125.6252704099
 11
335.2462550037
 21
125.6547379666
  0
LINE
  5
24D
100
AcDbEntity
  8
BEZUGSACHSEN
100
AcDbLine
 62
7
  6
CONTINUOUS
 10
335.3921531908
 20
125.6505795577
 11
335.2481875995
 21
125.7029787476
  0
LINE
  5
24E
100
AcDbEntity
  8
BEZUGSACHSEN
100
AcDbLine
 62
7
  6
CONTINUOUS
 10
336.1787200963
 20
125.3911056992
 11
335.9372353796
 21
125.4789989481
  0
LINE
  5
24F
100
AcDbEntity
  8
BEZUGSACHSEN
100
AcDbLine
 62
7
  6
CONTINUOUS
 10
336.3105565613
 20
125.6674096513
 11
336.0674761922
 21
125.7558836702
  0
LINE
  5
250
100
AcDbEntity
  8
BEZUGSACHSEN
100
AcDbLine
 62
7
  6
CONTINUOUS
 10
336.0120941333
 20
125.8514225499
 11
335.8621054274
 21
125.9060139743
  0
LINE
  5
251
100
AcDbEntity
  8
BEZUGSACHSEN
100
AcDbLine
 62
7
  6
CONTINUOUS
 10
336.4206624153
 20
125.9287840698
 11
336.1756799807
 21
126.0179503839
  0
LINE
  5
252
100
AcDbEntity
  8
BEZUGSACHSEN
100
AcDbLine
 62
7
  6
CONTINUOUS
 10
336.0845827638
 20
126.0556910817
 11
335.9953348519
 21
126.0881746652
  0
LINE
  5
253
100
AcDbEntity
  8
BEZUGSACHSEN
100
AcDbLine
 62
7
  6
CONTINUOUS
 10
336.1295240045
 20
126.4053573565
 11
335.9232856594
 21
126.4804219753
  0
LINE
  5
254
100
AcDbEntity
  8
BEZUGSACHSEN
100
AcDbLine
 62
7
  6
CONTINUOUS
 10
336.1476257767
 20
126.4181040672
 11
335.9624966511
 21
126.4854855584
  0
LINE
  5
255
100
AcDbEntity
  8
BEZUGSACHSEN
100
AcDbLine
 62
7
  6
CONTINUOUS
 10
336.5546220462
 20
126.2979493927
 11
336.3063449234
 21
126.3883148752
  0
LINE
  5
256
100
AcDbEntity
  8
BEZUGSACHSEN
100
AcDbLine
 62
7
  6
CONTINUOUS
 10
336.5933571042
 20
126.4467590941
 11
336.34329355
 21
126.5377747845
  0
LINE
  5
257
100
AcDbEntity
  8
BEZUGSACHSEN
100
AcDbLine
 62
7
  6
CONTINUOUS
 10
336.3047133771
 20
126.573686841
 11
336.0929591021
 21
126.6507590941
  0
LINE
  5
258
100
AcDbEntity
  8
BEZUGSACHSEN
100
AcDbLine
 62
7
  6
CONTINUOUS
 10
336.5805865361
 20
126.4986072629
 11
336.3290956315
 21
126.5901424664
  0
LINE
  5
259
100
AcDbEntity
  8
BEZUGSACHSEN
100
AcDbLine
 62
7
  6
CONTINUOUS
 10
336.4635798094
 20
126.718954166
 11
336.2035878216
 21
126.8135835107
  0
LINE
  5
25A
100
AcDbEntity
  8
BEZUGSACHSEN
100
AcDbLine
 62
7
  6
CONTINUOUS
 10
336.1519942112
 20
126.8536581505
 11
336.1432234128
 21
126.85685046
  0
LINE
  5
25B
100
AcDbEntity
  8
BEZUGSACHSEN
100
AcDbLine
 62
7
  6
CONTINUOUS
 10
336.6246963627
 20
126.9775229547
 11
336.3645777211
 21
127.0721983976
  0
LINE
  5
25C
100
AcDbEntity
  8
BEZUGSACHSEN
100
AcDbLine
 62
7
  6
CONTINUOUS
 10
336.7560071649
 20
127.2024550479
 11
336.4954825937
 21
127.2972782371
  0
LINE
  5
25D
100
AcDbEntity
  8
BEZUGSACHSEN
100
AcDbLine
 62
7
  6
CONTINUOUS
 10
336.5014817493
 20
127.3879860287
 11
336.3364086947
 21
127.448067707
  0
LINE
  5
25E
100
AcDbEntity
  8
BEZUGSACHSEN
100
AcDbLine
 62
7
  6
CONTINUOUS
 10
336.9488338691
 20
127.553934275
 11
336.6872819773
 21
127.6491313783
  0
LINE
  5
25F
100
AcDbEntity
  8
BEZUGSACHSEN
100
AcDbLine
 62
7
  6
CONTINUOUS
 10
337.1125559807
 20
127.871521828
 11
336.8497540862
 21
127.967173895
  0
LINE
  5
260
100
AcDbEntity
  8
BEZUGSACHSEN
100
AcDbLine
 62
7
  6
CONTINUOUS
 10
337.2073157712
 20
128.0904213876
 11
336.9430617498
 21
128.1866019857
  0
LINE
  5
261
100
AcDbEntity
  8
BEZUGSACHSEN
100
AcDbLine
 62
7
  6
CONTINUOUS
 10
337.4825563207
 20
128.8258597133
 11
337.2119903497
 21
128.9243376732
  0
LINE
  5
262
100
AcDbEntity
  8
0
100
AcDbLine
 62
7
  6
CONTINUOUS
 10
372.0191999391
 20
72.0701450723
 11
370.1353131677
 21
73.5300246599
  0
LINE
  5
263
100
AcDbEntity
  8
KONSTRUKTIONSELEMENTE
100
AcDbLine
 62
7
  6
CONTINUOUS
 10
278.4607085759
 20
123.1258290524
 11
280.9607085759
 21
118.7957020334
  0
LINE
  5
264
100
AcDbEntity
  8
KONSTRUKTIONSELEMENTE
100
AcDbLine
 62
7
  6
CONTINUOUS
 10
278.8937212777
 20
123.3758290524
 11
281.3937212777
 21
119.0457020334
  0
LINE
  5
265
100
AcDbEntity
  8
0
100
AcDbLine
 62
7
  6
CONTINUOUS
 10
345.1039821667
 20
129.31080343
 11
339.60372057
 21
131.3127349319
  0
LINE
  5
266
100
AcDbEntity
  8
0
100
AcDbLine
 62
7
  6
CONTINUOUS
 10
341.3207593011
 20
136.0302600738
 11
346.8210208978
 21
134.0283285719
  0
LINE
  5
267
100
AcDbEntity
  8
0
100
AcDbLine
 62
7
  6
CONTINUOUS
 10
296.1512345277
 20
155.8561194711
 11
296.1512345277
 21
215.8561194711
  0
LINE
  5
268
100
AcDbEntity
  8
RUNDUNGEN
100
AcDbLine
 62
7
  6
CONTINUOUS
 10
312.8926665575
 20
80.909335291
 11
313.3974150396
 21
78.5800635706
  0
LINE
  5
269
100
AcDbEntity
  8
KONSTRUKTIONSELEMENTE
100
AcDbLine
 62
7
  6
CONTINUOUS
 10
204.8485492542
 20
80.6258290524
 11
208.3126508693
 21
82.6258290524
  0
LINE
  5
26A
100
AcDbEntity
  8
KONSTRUKTIONSELEMENTE
100
AcDbLine
 62
7
  6
CONTINUOUS
 10
208.7456635712
 20
82.8758290524
 11
212.2097651863
 21
84.8758290524
  0
LINE
  5
26B
100
AcDbEntity
  8
KONSTRUKTIONSELEMENTE
100
AcDbLine
 62
7
  6
CONTINUOUS
 10
274.9966069607
 20
121.1258290524
 11
278.4607085759
 21
123.1258290524
  0
LINE
  5
26C
100
AcDbEntity
  8
KONSTRUKTIONSELEMENTE
100
AcDbLine
 62
7
  6
CONTINUOUS
 10
278.8937212777
 20
123.3758290524
 11
282.3578228929
 21
125.3758290524
  0
LINE
  5
26D
100
AcDbEntity
  8
KONSTRUKTIONSELEMENTE
100
AcDbLine
 62
7
  6
CONTINUOUS
 10
237.2329955451
 20
99.0343227014
 11
250.2233766019
 21
106.5343227014
  0
LINE
  5
26E
100
AcDbEntity
  8
KONSTRUKTIONSELEMENTE
100
AcDbLine
 62
7
  6
CONTINUOUS
 10
239.4829955451
 20
95.1372083844
 11
252.4733766019
 21
102.6372083844
  0
LINE
  5
26F
100
AcDbEntity
  8
KONSTRUKTIONSELEMENTE
100
AcDbLine
 62
7
  6
CONTINUOUS
 10
207.3485492542
 20
76.2957020334
 11
210.8126508693
 21
78.2957020334
  0
LINE
  5
270
100
AcDbEntity
  8
KONSTRUKTIONSELEMENTE
100
AcDbLine
 62
7
  6
CONTINUOUS
 10
211.2456635712
 20
78.5457020334
 11
214.7097651863
 21
80.5457020334
  0
LINE
  5
271
100
AcDbEntity
  8
KONSTRUKTIONSELEMENTE
100
AcDbLine
 62
7
  6
CONTINUOUS
 10
277.4966069607
 20
116.7957020334
 11
280.9607085759
 21
118.7957020334
  0
LINE
  5
272
100
AcDbEntity
  8
KONSTRUKTIONSELEMENTE
100
AcDbLine
 62
7
  6
CONTINUOUS
 10
281.3937212777
 20
119.0457020334
 11
284.8578228929
 21
121.0457020334
  0
LINE
  5
273
100
AcDbEntity
  8
KONSTRUKTIONSELEMENTE
100
AcDbLine
 62
7
  6
CONTINUOUS
 10
320.2733580971
 20
141.2041956825
 11
284.7663165419
 21
120.7041956825
  0
LINE
  5
274
100
AcDbEntity
  8
KONSTRUKTIONSELEMENTE
100
AcDbLine
 62
7
  6
CONTINUOUS
 10
277.1305815569
 20
115.4296766297
 11
254.2172155831
 21
102.2006386166
  0
LINE
  5
275
100
AcDbEntity
  8
KONSTRUKTIONSELEMENTE
100
AcDbLine
 62
7
  6
CONTINUOUS
 10
239.0254637904
 20
93.4296766297
 11
216.1120978166
 21
80.2006386166
  0
LINE
  5
276
100
AcDbEntity
  8
BEZUGSACHSEN
100
AcDbLine
 62
7
  6
CONTINUOUS
 10
210.3548185285
 20
76.5879967352
 11
209.0568817296
 21
75.838632575
  0
LINE
  5
277
100
AcDbEntity
  8
KONSTRUKTIONSELEMENTE
100
AcDbLine
 62
7
  6
CONTINUOUS
 10
140.207061408
 20
36.0881702787
 11
209.0568817296
 21
75.838632575
  0
LINE
  5
278
100
AcDbEntity
  8
RUNDUNGEN
100
AcDbLine
 62
7
  6
CONTINUOUS
 10
386.8993831407
 20
90.7302800392
 11
379.4130976497
 21
97.0120194336
  0
LINE
  5
279
100
AcDbEntity
  8
0
100
AcDbLine
 62
7
  6
CONTINUOUS
 10
314.1512345277
 20
155.8561194711
 11
314.1512345277
 21
215.8561194711
  0
LINE
  5
27A
100
AcDbEntity
  8
BEZUGSACHSEN
100
AcDbLine
 62
7
  6
CONTINUOUS
 10
212.3548185285
 20
73.1238951201
 11
211.0568817296
 21
72.3745309599
  0
LINE
  5
27B
100
AcDbEntity
  8
KONSTRUKTIONSELEMENTE
100
AcDbLine
 62
7
  6
CONTINUOUS
 10
142.207061408
 20
32.6240686636
 11
211.0568817296
 21
72.3745309599
  0
LINE
  5
27C
100
AcDbEntity
  8
KONSTRUKTIONSELEMENTE
100
AcDbLine
 62
7
  6
CONTINUOUS
 10
279.3805815569
 20
111.5325623126
 11
256.4672155831
 21
98.3035242996
  0
LINE
  5
27D
100
AcDbEntity
  8
KONSTRUKTIONSELEMENTE
100
AcDbLine
 62
7
  6
CONTINUOUS
 10
241.2754637904
 20
89.5325623126
 11
218.3620978166
 21
76.3035242996
  0
LINE
  5
27E
100
AcDbEntity
  8
KONSTRUKTIONSELEMENTE
100
AcDbLine
 62
7
  6
CONTINUOUS
 10
323.2733580971
 20
136.0080432598
 11
287.8269538163
 21
115.5430522065
  0
LINE
  5
27F
100
AcDbEntity
  8
KONSTRUKTIONSELEMENTE
100
AcDbLine
 62
7
  6
CONTINUOUS
 10
288.1078228929
 20
115.4165369088
 11
280.7466069607
 21
111.1665369088
  0
LINE
  5
280
100
AcDbEntity
  8
KONSTRUKTIONSELEMENTE
100
AcDbLine
 62
7
  6
CONTINUOUS
 10
217.9597651863
 20
74.9165369088
 11
210.5985492542
 21
70.6665369088
  0
LINE
  5
281
100
AcDbEntity
  8
KONSTRUKTIONSELEMENTE
100
AcDbLine
 62
7
  6
CONTINUOUS
 10
255.9733766019
 20
96.5750305579
 11
242.9829955451
 21
89.0750305579
  0
LINE
  5
282
100
AcDbEntity
  8
KONSTRUKTIONSELEMENTE
100
AcDbLine
 62
7
  6
CONTINUOUS
 10
258.2233766019
 20
92.6779162409
 11
245.2329955451
 21
85.1779162409
  0
LINE
  5
283
100
AcDbEntity
  8
KONSTRUKTIONSELEMENTE
100
AcDbLine
 62
7
  6
CONTINUOUS
 10
290.6078228929
 20
111.0864098899
 11
283.2466069607
 21
106.8364098899
  0
LINE
  5
284
100
AcDbEntity
  8
KONSTRUKTIONSELEMENTE
100
AcDbLine
 62
7
  6
CONTINUOUS
 10
220.4597651863
 20
70.5864098899
 11
213.0985492542
 21
66.3364098899
  0
LINE
  5
285
100
AcDbEntity
  8
0
100
AcDbLine
 62
7
  6
CONTINUOUS
 10
361.9817097543
 20
136.0302600738
 11
356.4814481575
 21
134.0283285719
  0
LINE
  5
286
100
AcDbEntity
  8
RUNDUNGEN
100
AcDbLine
 62
7
  6
CONTINUOUS
 10
315.5123708813
 20
89.4582071398
 11
313.0055391125
 21
82.5707434607
  0
LINE
  5
287
100
AcDbEntity
  8
0
100
AcDbLine
 62
7
  6
CONTINUOUS
 10
358.1984868886
 20
129.31080343
 11
363.6987484853
 21
131.3127349319
  0
LINE
  5
288
100
AcDbEntity
  8
BEZUGSACHSEN
100
AcDbLine
 62
7
  6
CONTINUOUS
 10
365.9732370804
 20
128.4680148974
 11
366.2414094442
 21
128.5656216555
  0
LINE
  5
289
100
AcDbEntity
  8
BEZUGSACHSEN
100
AcDbLine
 62
7
  6
CONTINUOUS
 10
365.9900131181
 20
128.3798487438
 11
366.2568624097
 21
128.476973943
  0
LINE
  5
28A
100
AcDbEntity
  8
BEZUGSACHSEN
100
AcDbLine
 62
7
  6
CONTINUOUS
 10
366.4972304341
 20
128.0932685797
 11
366.5414275479
 21
128.1093550136
  0
LINE
  5
28B
100
AcDbEntity
  8
BEZUGSACHSEN
100
AcDbLine
 62
7
  6
CONTINUOUS
 10
366.5504121497
 20
127.9439852493
 11
366.6396167474
 21
127.9764530676
  0
LINE
  5
28C
100
AcDbEntity
  8
BEZUGSACHSEN
100
AcDbLine
 62
7
  6
CONTINUOUS
 10
366.2502494085
 20
127.6411101449
 11
366.5102137993
 21
127.7357294451
  0
LINE
  5
28D
100
AcDbEntity
  8
BEZUGSACHSEN
100
AcDbLine
 62
7
  6
CONTINUOUS
 10
366.6372990689
 20
127.6928773509
 11
366.7894500204
 21
127.7482557684
  0
LINE
  5
28E
100
AcDbEntity
  8
BEZUGSACHSEN
100
AcDbLine
 62
7
  6
CONTINUOUS
 10
366.5107828883
 20
126.929995764
 11
366.7644712749
 21
127.0223307855
  0
LINE
  5
28F
100
AcDbEntity
  8
BEZUGSACHSEN
100
AcDbLine
 62
7
  6
CONTINUOUS
 10
366.6035287448
 20
126.6863075679
 11
366.8551729361
 21
126.7778985632
  0
LINE
  5
290
100
AcDbEntity
  8
BEZUGSACHSEN
100
AcDbLine
 62
7
  6
CONTINUOUS
 10
367.2044138422
 20
126.7088174336
 11
367.3943013291
 21
126.7779308266
  0
LINE
  5
291
100
AcDbEntity
  8
BEZUGSACHSEN
100
AcDbLine
 62
7
  6
CONTINUOUS
 10
367.3831727763
 20
126.4216937404
 11
367.5670913324
 21
126.4886346204
  0
LINE
  5
292
100
AcDbEntity
  8
BEZUGSACHSEN
100
AcDbLine
 62
7
  6
CONTINUOUS
 10
367.5392614554
 20
126.1709559619
 11
367.7109234443
 21
126.2334358162
  0
LINE
  5
293
100
AcDbEntity
  8
BEZUGSACHSEN
100
AcDbLine
 62
7
  6
CONTINUOUS
 10
366.9602050694
 20
125.7063474243
 11
367.2031392612
 21
125.794768239
  0
LINE
  5
294
100
AcDbEntity
  8
BEZUGSACHSEN
100
AcDbLine
 62
7
  6
CONTINUOUS
 10
367.6726934702
 20
125.9566093864
 11
367.8254971664
 21
126.0122253835
  0
LINE
  5
295
100
AcDbEntity
  8
BEZUGSACHSEN
100
AcDbLine
 62
7
  6
CONTINUOUS
 10
367.942797232
 20
125.8713062318
 11
367.9842013871
 21
125.8863761119
  0
LINE
  5
296
100
AcDbEntity
  8
BEZUGSACHSEN
100
AcDbLine
 62
7
  6
CONTINUOUS
 10
367.7834682177
 20
125.7786539057
 11
367.9103466339
 21
125.8248338726
  0
LINE
  5
297
100
AcDbEntity
  8
BEZUGSACHSEN
100
AcDbLine
 62
7
  6
CONTINUOUS
 10
367.0457974157
 20
125.4600554311
 11
367.2864351102
 21
125.5476403891
  0
LINE
  5
298
100
AcDbEntity
  8
BEZUGSACHSEN
100
AcDbLine
 62
7
  6
CONTINUOUS
 10
368.0404836927
 20
125.6979567726
 11
368.0542814558
 21
125.7029787476
  0
LINE
  5
299
100
AcDbEntity
  8
BEZUGSACHSEN
100
AcDbLine
 62
7
  6
CONTINUOUS
 10
367.754805279
 20
124.9515354392
 11
368.0068491024
 21
125.0432718886
  0
LINE
  5
29A
100
AcDbEntity
  8
BEZUGSACHSEN
100
AcDbLine
 62
7
  6
CONTINUOUS
 10
367.9339005869
 20
124.6925699262
 11
368.1704444983
 21
124.7786648691
  0
LINE
  5
29B
100
AcDbEntity
  8
BEZUGSACHSEN
100
AcDbLine
 62
7
  6
CONTINUOUS
 10
368.2979676219
 20
124.6562703751
 11
368.4018900563
 21
124.6940950479
  0
LINE
  5
29C
100
AcDbEntity
  8
BEZUGSACHSEN
100
AcDbLine
 62
7
  6
CONTINUOUS
 10
368.0946040465
 20
124.4501471743
 11
368.3117394916
 21
124.5291780131
  0
LINE
  5
29D
100
AcDbEntity
  8
BEZUGSACHSEN
100
AcDbLine
 62
7
  6
CONTINUOUS
 10
367.5869915771
 20
124.1653154487
 11
367.8179067888
 21
124.2493617124
  0
LINE
  5
29E
100
AcDbEntity
  8
BEZUGSACHSEN
100
AcDbLine
 62
7
  6
CONTINUOUS
 10
367.5610343835
 20
124.1043969872
 11
367.7902103849
 21
124.1878102302
  0
LINE
  5
29F
100
AcDbEntity
  8
BEZUGSACHSEN
100
AcDbLine
 62
7
  6
CONTINUOUS
 10
368.2428864671
 20
124.226440067
 11
368.4304314982
 21
124.2947008759
  0
LINE
  5
2A0
100
AcDbEntity
  8
BEZUGSACHSEN
100
AcDbLine
 62
7
  6
CONTINUOUS
 10
367.6190212797
 20
123.9036284823
 11
367.8460546524
 21
123.9862618721
  0
LINE
  5
2A1
100
AcDbEntity
  8
BEZUGSACHSEN
100
AcDbLine
 62
7
  6
CONTINUOUS
 10
367.9752084303
 20
123.9099767447
 11
368.0049063675
 21
123.9207859098
  0
LINE
  5
2A2
100
AcDbEntity
  8
BEZUGSACHSEN
100
AcDbLine
 62
7
  6
CONTINUOUS
 10
368.380972568
 20
124.0222584333
 11
368.5260608312
 21
124.0750662424
  0
LINE
  5
2A3
100
AcDbEntity
  8
BEZUGSACHSEN
100
AcDbLine
 62
7
  6
CONTINUOUS
 10
367.997282028
 20
123.8019859659
 11
368.0866255611
 21
123.8345043526
  0
LINE
  5
2A4
100
AcDbEntity
  8
BEZUGSACHSEN
100
AcDbLine
 62
7
  6
CONTINUOUS
 10
368.4881898269
 20
123.8763189511
 11
368.5837351285
 21
123.9110945969
  0
LINE
  5
2A5
100
AcDbEntity
  8
BEZUGSACHSEN
100
AcDbLine
 62
7
  6
CONTINUOUS
 10
368.2375433414
 20
123.7400129563
 11
368.4358239812
 21
123.8121812072
  0
LINE
  5
2A6
100
AcDbEntity
  8
BEZUGSACHSEN
100
AcDbLine
 62
7
  6
CONTINUOUS
 10
368.0515647089
 20
123.6498863185
 11
368.1863256143
 21
123.6989352768
  0
LINE
  5
2A7
100
AcDbEntity
  8
BEZUGSACHSEN
100
AcDbLine
 62
7
  6
CONTINUOUS
 10
368.123036027
 20
123.448211128
 11
368.3040079012
 21
123.5140795035
  0
LINE
  5
2A8
100
AcDbEntity
  8
BEZUGSACHSEN
100
AcDbLine
 62
7
  6
CONTINUOUS
 10
368.3840265744
 20
123.4921819464
 11
368.60755982
 21
123.5735413941
  0
LINE
  5
2A9
100
AcDbEntity
  8
BEZUGSACHSEN
100
AcDbLine
 62
7
  6
CONTINUOUS
 10
368.1933831759
 20
123.247580347
 11
368.4063062409
 21
123.3250780049
  0
LINE
  5
2AA
100
AcDbEntity
  8
BEZUGSACHSEN
100
AcDbLine
 62
7
  6
CONTINUOUS
 10
368.4883443314
 20
123.344722178
 11
368.7285694484
 21
123.4321569701
  0
LINE
  5
2AB
100
AcDbEntity
  8
BEZUGSACHSEN
100
AcDbLine
 62
7
  6
CONTINUOUS
 10
368.81994963
 20
123.37843337
 11
368.8687204862
 21
123.39618451
  0
LINE
  5
2AC
100
AcDbEntity
  8
BEZUGSACHSEN
100
AcDbLine
 62
7
  6
CONTINUOUS
 10
368.5799338791
 20
123.2851111665
 11
368.8218662987
 21
123.3731673659
  0
LINE
  5
2AD
100
AcDbEntity
  8
BEZUGSACHSEN
100
AcDbLine
 62
7
  6
CONTINUOUS
 10
368.265462342
 20
123.049033702
 11
368.4929492097
 21
123.1318321505
  0
LINE
  5
2AE
100
AcDbEntity
  8
BEZUGSACHSEN
100
AcDbLine
 62
7
  6
CONTINUOUS
 10
368.8485398635
 20
123.2259333862
 11
368.9019416495
 21
123.2453700467
  0
LINE
  5
2AF
100
AcDbEntity
  8
BEZUGSACHSEN
100
AcDbLine
 62
7
  6
CONTINUOUS
 10
368.8637100069
 20
123.18425376
 11
368.8832241366
 21
123.1913563223
  0
LINE
  5
2B0
100
AcDbEntity
  8
BEZUGSACHSEN
100
AcDbLine
 62
7
  6
CONTINUOUS
 10
368.0429997877
 20
122.7179782234
 11
368.2594082978
 21
122.7967444795
  0
LINE
  5
2B1
100
AcDbEntity
  8
BEZUGSACHSEN
100
AcDbLine
 62
7
  6
CONTINUOUS
 10
369.0523098077
 20
122.1237031484
 11
369.2830240507
 21
122.2076762654
  0
LINE
  5
2B2
100
AcDbEntity
  8
BEZUGSACHSEN
100
AcDbLine
 62
7
  6
CONTINUOUS
 10
368.5714050153
 20
123.7913537528
 11
368.6034841257
 21
123.8027970268
  0
LINE
  5
2B3
100
AcDbEntity
  8
0
100
AcDbLine
 62
7
  6
CONTINUOUS
 10
335.0937970884
 20
92.9339420318
 11
336.7908002457
 21
83.309758878
  0
LINE
  5
2B4
100
AcDbEntity
  8
0
100
AcDbLine
 62
7
  6
CONTINUOUS
 10
330.6344964356
 20
88.8986474223
 11
330.9955744633
 21
90.1735118075
  0
LINE
  5
2B5
100
AcDbEntity
  8
0
100
AcDbLine
 62
7
  6
CONTINUOUS
 10
330.6656426875
 20
107.243755834
 11
329.5074468863
 21
103.7120780058
  0
LINE
  5
2B6
100
AcDbEntity
  8
KONSTRUKTIONSELEMENTE
100
AcDbLine
 62
7
  6
CONTINUOUS
 10
321.0415238888
 20
95.147065876
 11
322.8560332915
 21
100.1323894875
  0
LINE
  5
2B7
100
AcDbEntity
  8
KONSTRUKTIONSELEMENTE
100
AcDbLine
 62
7
  6
CONTINUOUS
 10
326.9317734032
 20
102.5589802115
 11
329.5042105089
 21
109.6266930723
  0
LINE
  5
2B8
100
AcDbEntity
  8
RUNDUNGEN
100
AcDbLine
 62
7
  6
CONTINUOUS
 10
326.9317734032
 20
102.5589802115
 11
329.5042105089
 21
109.6266930723
  0
LINE
  5
2B9
100
AcDbEntity
  8
BEZUGSACHSEN
100
AcDbLine
 62
7
  6
CONTINUOUS
 10
329.4663293722
 20
109.5226155046
 11
332.7513413567
 21
118.5481117547
  0
LINE
  5
2BA
100
AcDbEntity
  8
BEZUGSACHSEN
100
AcDbLine
 62
7
  6
CONTINUOUS
 10
333.1276024069
 20
119.5818804939
 11
334.4387590485
 21
123.18425376
  0
LINE
  5
2BB
100
AcDbEntity
  8
BEZUGSACHSEN
100
AcDbLine
 62
7
  6
CONTINUOUS
 10
334.9233674428
 20
124.5157043806
 11
334.9848637617
 21
124.6846641282
  0
LINE
  5
2BC
100
AcDbEntity
  8
BEZUGSACHSEN
100
AcDbLine
 62
7
  6
CONTINUOUS
 10
335.2419111179
 20
125.3908959352
 11
335.3429468093
 21
125.6684892158
  0
LINE
  5
2BD
100
AcDbEntity
  8
0
100
AcDbLine
 62
7
  6
CONTINUOUS
 10
325.2544217608
 20
92.2631205016
 11
329.5074468863
 21
103.7120780058
  0
LINE
  5
2BE
100
AcDbEntity
  8
RUNDUNGEN
100
AcDbLine
 62
7
  6
CONTINUOUS
 10
324.7115565467
 20
91.0544212412
 11
325.2544217608
 21
92.2631205016
  0
LINE
  5
2BF
100
AcDbEntity
  8
KONSTRUKTIONSELEMENTE
100
AcDbLine
 62
7
  6
CONTINUOUS
 10
341.3207593011
 20
136.0302600738
 11
335.8148518661
 21
126.6830840831
  0
LINE
  5
2C0
100
AcDbEntity
  8
BEZUGSACHSEN
100
AcDbLine
 62
7
  6
CONTINUOUS
 10
334.1117878971
 20
120.7599735258
 11
334.0554175538
 21
120.6973347117
  0
LINE
  5
2C1
100
AcDbEntity
  8
BEZUGSACHSEN
100
AcDbLine
 62
7
  6
CONTINUOUS
 10
369.6031949429
 20
120.5934198146
 11
369.816782156
 21
120.6711592026
  0
LINE
  5
2C2
100
AcDbEntity
  8
0
100
AcDbLine
 62
7
  6
CONTINUOUS
 10
362.6937526466
 20
116.9601622656
 11
368.1940142433
 21
118.9620937675
  0
LINE
  5
2C3
100
AcDbEntity
  8
KONSTRUKTIONSELEMENTE
100
AcDbLine
 62
7
  6
CONTINUOUS
 10
361.9817097543
 20
136.0302600738
 11
367.3182712141
 21
126.9705764994
  0
LINE
  5
2C4
100
AcDbEntity
  8
RUNDUNGEN
100
AcDbLine
 62
7
  6
CONTINUOUS
 10
378.5909125086
 20
91.0544212412
 11
378.0480472946
 21
92.2631205016
  0
LINE
  5
2C5
100
AcDbEntity
  8
0
100
AcDbLine
 62
7
  6
CONTINUOUS
 10
366.8227635365
 20
105.1276100233
 11
368.2056528283
 21
101.6777139374
  0
LINE
  5
2C6
100
AcDbEntity
  8
0
100
AcDbLine
 62
7
  6
CONTINUOUS
 10
369.1538459751
 20
74.8752902359
 11
366.6470142064
 21
81.762753915
  0
LINE
  5
2C7
100
AcDbEntity
  8
0
100
AcDbLine
 62
7
  6
CONTINUOUS
 10
367.225863234
 20
89.6747435828
 11
365.4113538312
 21
94.6600671943
  0
LINE
  5
2C8
100
AcDbEntity
  8
0
100
AcDbLine
 62
7
  6
CONTINUOUS
 10
358.4692610652
 20
122.5047235133
 11
366.9737694442
 21
99.1387787783
  0
LINE
  5
2C9
100
AcDbEntity
  8
0
100
AcDbLine
 62
7
  6
CONTINUOUS
 10
368.2056528283
 20
101.6777139374
 11
372.306894592
 21
90.1735118075
  0
LINE
  5
2CA
100
AcDbEntity
  8
0
100
AcDbLine
 62
7
  6
CONTINUOUS
 10
344.9962834228
 20
123.1241273944
 11
346.8210208978
 21
134.0283285719
  0
LINE
  5
2CB
100
AcDbEntity
  8
0
100
AcDbLine
 62
7
  6
CONTINUOUS
 10
330.9955744633
 20
90.1735118075
 11
335.096816227
 21
101.6777139374
  0
LINE
  5
2CC
100
AcDbEntity
  8
0
100
AcDbLine
 62
7
  6
CONTINUOUS
 10
336.3286996111
 20
99.1387787783
 11
344.8332079902
 21
122.5047235133
  0
LINE
  5
2CD
100
AcDbEntity
  8
0
100
AcDbLine
 62
7
  6
CONTINUOUS
 10
337.8911152241
 20
94.6600671943
 11
336.0766058213
 21
89.6747435828
  0
LINE
  5
2CE
100
AcDbEntity
  8
0
100
AcDbLine
 62
7
  6
CONTINUOUS
 10
336.655454849
 20
81.762753915
 11
334.1486230802
 21
74.8752902359
  0
LINE
  5
2CF
100
AcDbEntity
  8
0
100
AcDbLine
 62
7
  6
CONTINUOUS
 10
336.4797055188
 20
105.1276100233
 11
335.096816227
 21
101.6777139374
  0
LINE
  5
2D0
100
AcDbEntity
  8
RUNDUNGEN
100
AcDbLine
 62
7
  6
CONTINUOUS
 10
323.8893714378
 20
97.0120194606
 11
316.4030859146
 21
90.7302800392
  0
LINE
  5
2D1
100
AcDbEntity
  8
0
100
AcDbLine
 62
7
  6
CONTINUOUS
 10
368.2056528283
 20
101.6777139374
 11
373.795022169
 21
103.7120780058
  0
LINE
  5
2D2
100
AcDbEntity
  8
0
100
AcDbLine
 62
7
  6
CONTINUOUS
 10
373.795022169
 20
103.7120780058
 11
378.0480472946
 21
92.2631205016
  0
LINE
  5
2D3
100
AcDbEntity
  8
BEZUGSACHSEN
100
AcDbLine
 62
7
  6
CONTINUOUS
 10
368.3244336988
 20
124.6659032393
 11
368.3876408537
 21
124.4922430083
  0
LINE
  5
2D4
100
AcDbEntity
  8
BEZUGSACHSEN
100
AcDbLine
 62
7
  6
CONTINUOUS
 10
368.7980995602
 20
123.3645169806
 11
369.0585974599
 21
122.6488048833
  0
LINE
  5
2D5
100
AcDbEntity
  8
BEZUGSACHSEN
100
AcDbLine
 62
7
  6
CONTINUOUS
 10
369.2266263889
 20
122.1871491953
 11
369.6226905737
 21
121.0989717908
  0
LINE
  5
2D6
100
AcDbEntity
  8
BEZUGSACHSEN
100
AcDbLine
 62
7
  6
CONTINUOUS
 10
369.7828912913
 20
120.6588239367
 11
373.7982585464
 21
109.6266930723
  0
LINE
  5
2D7
100
AcDbEntity
  8
KONSTRUKTIONSELEMENTE
100
AcDbLine
 62
7
  6
CONTINUOUS
 10
373.7982585464
 20
109.6266930723
 11
376.3706956521
 21
102.5589802115
  0
LINE
  5
2D8
100
AcDbEntity
  8
RUNDUNGEN
100
AcDbLine
 62
7
  6
CONTINUOUS
 10
373.7982585498
 20
109.626693063
 11
376.3706956521
 21
102.5589802115
  0
LINE
  5
2D9
100
AcDbEntity
  8
KONSTRUKTIONSELEMENTE
100
AcDbLine
 62
7
  6
CONTINUOUS
 10
382.2609451666
 20
95.147065876
 11
380.4464357638
 21
100.1323894875
  0
LINE
  5
2DA
100
AcDbEntity
  8
0
100
AcDbLine
 62
7
  6
CONTINUOUS
 10
372.6368263678
 20
107.243755834
 11
373.795022169
 21
103.7120780058
  0
LINE
  5
2DB
100
AcDbEntity
  8
0
100
AcDbLine
 62
7
  6
CONTINUOUS
 10
372.6679726198
 20
88.8986474223
 11
372.306894592
 21
90.1735118075
  0
LINE
  5
2DC
100
AcDbEntity
  8
0
100
AcDbLine
 62
7
  6
CONTINUOUS
 10
358.3061856325
 20
123.1241273944
 11
356.4814481575
 21
134.0283285719
  0
LINE
  5
2DD
100
AcDbEntity
  8
0
100
AcDbLine
 62
7
  6
CONTINUOUS
 10
372.306894592
 20
90.1735118075
 11
378.0480472946
 21
92.2631205016
  0
LINE
  5
2DE
100
AcDbEntity
  8
RUNDUNGEN
100
AcDbLine
 62
7
  6
CONTINUOUS
 10
390.2969299428
 20
82.5707434607
 11
387.790098174
 21
89.4582071398
  0
LINE
  5
2DF
100
AcDbEntity
  8
0
100
AcDbLine
 62
7
  6
CONTINUOUS
 10
366.5116688097
 20
83.309758878
 11
368.2086719597
 21
92.9339419904
  0
LINE
  5
2E0
100
AcDbEntity
  8
0
100
AcDbLine
 62
7
  6
CONTINUOUS
 10
333.1671558876
 20
73.5300246599
 11
331.2832691162
 21
72.0701450723
  0
LINE
  5
2E1
100
AcDbEntity
  8
0
100
AcDbLine
 62
7
  6
CONTINUOUS
 10
389.1512345277
 20
215.8561194711
 11
389.1512345277
 21
155.8561194711
  0
LINE
  5
2E2
100
AcDbEntity
  8
RUNDUNGEN
100
AcDbLine
 62
7
  6
CONTINUOUS
 10
389.9050540157
 20
78.5800635706
 11
390.4098024978
 21
80.909335291
  0
LINE
  5
2E3
100
AcDbEntity
  8
0
100
AcDbLine
 62
7
  6
CONTINUOUS
 10
407.1512345277
 20
215.8561194711
 11
407.1512345277
 21
155.8561194711
  0
LINE
  5
2E4
100
AcDbEntity
  8
KONSTRUKTIONSELEMENTE
100
AcDbLine
 62
7
  6
CONTINUOUS
 10
69.6126900954
 20
32.6240686636
 11
76.8926900954
 21
32.6240686636
  0
LINE
  5
2E5
100
AcDbEntity
  8
KONSTRUKTIONSELEMENTE
100
AcDbLine
 62
7
  6
CONTINUOUS
 10
69.2126900954
 20
32.9704788251
 11
69.6126900954
 21
32.9704788251
  0
LINE
  5
2E6
100
AcDbEntity
  8
KONSTRUKTIONSELEMENTE
100
AcDbLine
 62
7
  6
CONTINUOUS
 10
76.8926900954
 20
32.9704788251
 11
77.2926900954
 21
32.9704788251
  0
LINE
  5
2E7
100
AcDbEntity
  8
KONSTRUKTIONSELEMENTE
100
AcDbLine
 62
7
  6
CONTINUOUS
 10
62.4456001935
 20
40.6240686636
 11
66.4126900954
 21
40.6240686636
  0
LINE
  5
2E8
100
AcDbEntity
  8
KONSTRUKTIONSELEMENTE
100
AcDbLine
 62
7
  6
CONTINUOUS
 10
80.0926900954
 20
40.6240686636
 11
95.093559187
 21
40.6240686636
  0
LINE
  5
2E9
100
AcDbEntity
  8
KONSTRUKTIONSELEMENTE
100
AcDbLine
 62
7
  6
CONTINUOUS
 10
98.7169720277
 20
42.2501227703
 11
93.6416484203
 21
43.4334539032
  0
LINE
  5
2EA
100
AcDbEntity
  8
KONSTRUKTIONSELEMENTE
100
AcDbLine
 62
7
  6
CONTINUOUS
 10
98.7169720277
 20
45.7142243854
 11
93.6416484203
 21
46.8975555183
  0
LINE
  5
2EB
100
AcDbEntity
  8
KONSTRUKTIONSELEMENTE
100
AcDbLine
 62
7
  6
CONTINUOUS
 10
43.6667248575
 20
58.027379556
 11
48.3795253501
 21
59.1261870365
  0
LINE
  5
2EC
100
AcDbEntity
  8
KONSTRUKTIONSELEMENTE
100
AcDbLine
 62
7
  6
CONTINUOUS
 10
43.6667248575
 20
58.3737897175
 11
48.3795253501
 21
59.472597198
  0
LINE
  5
2ED
100
AcDbEntity
  8
KONSTRUKTIONSELEMENTE
100
AcDbLine
 62
7
  6
CONTINUOUS
 10
38.4431631424
 20
63.6283616799
 11
39.1193523612
 21
62.9033154502
  0
LINE
  5
2EE
100
AcDbEntity
  8
KONSTRUKTIONSELEMENTE
100
AcDbLine
 62
7
  6
CONTINUOUS
 10
43.6667248575
 20
58.027379556
 11
58.8203690454
 21
41.7788321401
  0
LINE
  5
2EF
100
AcDbEntity
  8
KONSTRUKTIONSELEMENTE
100
AcDbLine
 62
7
  6
CONTINUOUS
 10
43.6667248575
 20
58.3737897175
 11
43.4976775528
 21
58.5550512749
  0
LINE
  5
2F0
100
AcDbEntity
  8
KONSTRUKTIONSELEMENTE
100
AcDbLine
 62
7
  6
CONTINUOUS
 10
45.6369291712
 20
63.4866662293
 11
48.9599527805
 21
59.9235426658
  0
LINE
  5
2F1
100
AcDbEntity
  8
KONSTRUKTIONSELEMENTE
100
AcDbLine
 62
7
  6
CONTINUOUS
 10
44.0781049832
 20
59.3524069042
 11
47.7033361313
 21
60.1976434277
  0
LINE
  5
2F2
100
AcDbEntity
  8
KONSTRUKTIONSELEMENTE
100
AcDbLine
 62
7
  6
CONTINUOUS
 10
44.0781049832
 20
62.1236881963
 11
46.4026152624
 21
62.6656566686
  0
LINE
  5
2F3
100
AcDbEntity
  8
KONSTRUKTIONSELEMENTE
100
AcDbLine
 62
7
  6
CONTINUOUS
 10
43.8321528538
 20
64.0021229308
 11
39.1193523612
 21
62.9033154502
  0
LINE
  5
2F4
100
AcDbEntity
  8
KONSTRUKTIONSELEMENTE
100
AcDbLine
 62
7
  6
CONTINUOUS
 10
57.0505392955
 20
70.173498517
 11
40.3779212436
 21
66.2862137774
  0
LINE
  5
2F5
100
AcDbEntity
  8
0
100
AcDbLine
 62
7
  6
CONTINUOUS
 10
62.3051079299
 20
69.7126175946
 11
62.3071734487
 21
69.7130500335
  0
LWPOLYLINE
  5
2F6
100
AcDbEntity
  8
0
100
AcDbPolyline
 62
7
  6
CONTINUOUS
 90
9
 70
0
 10
87.7537637121
 20
69.7126181514
 10
87.9910027171
 20
69.7226414261
 10
88.2817848586
 20
69.7611862158
 10
88.5669979172
 20
69.8254334344
 10
88.8456383038
 20
69.911739978
 10
89.1219034951
 20
70.0184238863
 10
89.398389095
 20
70.1442644352
 10
89.6787514138
 20
70.289300151
 10
89.9660128556
 20
70.4540439814
  0
LINE
  5
2F7
100
AcDbEntity
  8
0
100
AcDbLine
 62
7
  6
CONTINUOUS
 10
87.7538746559
 20
69.7126176563
 11
87.7537760016
 21
69.7126176202
  0
LINE
  5
2F8
100
AcDbEntity
  8
KONSTRUKTIONSELEMENTE
100
AcDbLine
 62
7
  6
CONTINUOUS
 10
87.7559035356
 20
69.7126175945
 11
84.2017177714
 21
69.7126175945
  0
LINE
  5
2F9
100
AcDbEntity
  8
KONSTRUKTIONSELEMENTE
100
AcDbLine
 62
7
  6
CONTINUOUS
 10
62.3036624195
 20
69.7126175945
 11
58.7517722453
 21
69.7126175945
  0
LINE
  5
2FA
100
AcDbEntity
  8
0
100
AcDbLine
 62
7
  6
CONTINUOUS
 10
77.8026900954
 20
76.1626175945
 11
68.7026900954
 21
76.1626175945
  0
LINE
  5
2FB
100
AcDbEntity
  8
0
100
AcDbLine
 62
7
  6
CONTINUOUS
 10
58.7518153304
 20
69.7126175945
 11
58.7516373964
 21
69.7126176207
  0
LINE
  5
2FC
100
AcDbEntity
  8
0
100
AcDbLine
 62
7
  6
CONTINUOUS
 10
84.1982067422
 20
69.7130500335
 11
84.200272261
 21
69.7126175946
  0
LINE
  5
2FD
100
AcDbEntity
  8
KONSTRUKTIONSELEMENTE
100
AcDbLine
 62
7
  6
CONTINUOUS
 10
111.053520804
 20
62.1033943161
 11
116.1288444114
 21
60.9200631832
  0
LINE
  5
2FE
100
AcDbEntity
  8
KONSTRUKTIONSELEMENTE
100
AcDbLine
 62
7
  6
CONTINUOUS
 10
89.4548818058
 20
70.1734889786
 11
115.1905368177
 21
64.1731224687
  0
LWPOLYLINE
  5
2FF
100
AcDbEntity
  8
0
100
AcDbPolyline
 62
7
  6
CONTINUOUS
 90
8
 70
0
 10
56.8287650454
 20
70.2881336773
 10
57.1087992809
 20
70.1433839172
 10
57.3849994564
 20
70.0177817127
 10
57.661022806
 20
69.9112927433
 10
57.9394530803
 20
69.8251457365
 10
58.2244796316
 20
69.7610262981
 10
58.5150868956
 20
69.7225828141
 10
58.7516416365
 20
69.7126176289
  0
LINE
  5
300
100
AcDbEntity
  8
0
100
AcDbLine
 62
7
  6
CONTINUOUS
 10
56.5393673353
 20
70.4540439814
 11
56.8266287771
 21
70.289300151
  0
LINE
  5
301
100
AcDbEntity
  8
0
100
AcDbLine
 62
7
  6
CONTINUOUS
 10
56.2433581927
 20
70.6388777811
 11
56.5418756059
 21
70.4525404342
  0
LINE
  5
302
100
AcDbEntity
  8
0
100
AcDbLine
 62
7
  6
CONTINUOUS
 10
55.9370321247
 20
70.8443444885
 11
56.246277
 21
70.6369866254
  0
LINE
  5
303
100
AcDbEntity
  8
0
100
AcDbLine
 62
7
  6
CONTINUOUS
 10
55.6192274381
 20
71.0709749108
 11
55.9403915744
 21
70.8420190813
  0
LINE
  5
304
100
AcDbEntity
  8
0
100
AcDbLine
 62
7
  6
CONTINUOUS
 10
55.288915472
 20
71.3194041415
 11
55.6230486405
 21
71.068174853
  0
LINE
  5
305
100
AcDbEntity
  8
0
100
AcDbLine
 62
7
  6
CONTINUOUS
 10
54.945969417
 20
71.5897182685
 11
55.2932125975
 21
71.3160942807
  0
LINE
  5
306
100
AcDbEntity
  8
0
100
AcDbLine
 62
7
  6
CONTINUOUS
 10
54.5903083184
 20
71.8820166139
 11
54.9507457485
 21
71.5858728481
  0
LINE
  5
307
100
AcDbEntity
  8
0
100
AcDbLine
 62
7
  6
CONTINUOUS
 10
54.2906207994
 20
72.1369148627
 11
54.5955424424
 21
71.8776325209
  0
LINE
  5
308
100
AcDbEntity
  8
0
100
AcDbLine
 62
7
  6
CONTINUOUS
 10
53.6811633536
 20
72.6628360565
 11
54.2906879805
 21
72.136856784
  0
LINE
  5
309
100
AcDbEntity
  8
0
100
AcDbLine
 62
7
  6
CONTINUOUS
 10
53.6349416298
 20
72.7047179494
 11
53.6807988412
 21
72.6631534646
  0
LINE
  5
30A
100
AcDbEntity
  8
KONSTRUKTIONSELEMENTE
100
AcDbLine
 62
7
  6
CONTINUOUS
 10
53.5325603409
 20
72.8173698682
 11
40.3779212436
 21
69.7503153926
  0
LINE
  5
30B
100
AcDbEntity
  8
0
100
AcDbLine
 62
7
  6
CONTINUOUS
 10
77.8026900954
 20
85.7626175945
 11
68.7026900954
 21
85.7626175945
  0
LINE
  5
30C
100
AcDbEntity
  8
KONSTRUKTIONSELEMENTE
100
AcDbLine
 62
7
  6
CONTINUOUS
 10
115.1905368177
 20
67.6372240839
 11
92.9746231314
 21
72.8169494263
  0
LWPOLYLINE
  5
30D
100
AcDbEntity
  8
KONSTRUKTIONSELEMENTE
100
AcDbPolyline
 62
7
  6
CONTINUOUS
 90
7
 70
0
 10
59.3446007982
 20
101.283854053
 10
59.2262414907
 20
101.2830010656
 10
59.0269461067
 20
101.2776673757
 10
58.820441481
 20
101.2667690933
 10
58.6100967478
 20
101.249550089
 10
58.3979794691
 20
101.2250519776
 10
58.2599967748
 20
101.2046299075
  0
LINE
  5
30E
100
AcDbEntity
  8
KONSTRUKTIONSELEMENTE
100
AcDbLine
 62
7
  6
CONTINUOUS
 10
59.3446007982
 20
101.2838542367
 11
87.1607793929
 21
101.2838542367
  0
LINE
  5
30F
100
AcDbEntity
  8
RUNDUNGEN
100
AcDbLine
 62
7
  6
CONTINUOUS
 10
51.6116240122
 20
91.0544212412
 11
50.8486691334
 21
92.2631205016
  0
LINE
  5
310
100
AcDbEntity
  8
0
100
AcDbLine
 62
7
  6
CONTINUOUS
 10
51.6116240122
 20
88.8986474223
 11
50.8486691334
 21
90.1735118075
  0
LINE
  5
311
100
AcDbEntity
  8
RUNDUNGEN
100
AcDbLine
 62
7
  6
CONTINUOUS
 10
58.2610904215
 20
101.2048082214
 11
58.2599966924
 21
101.204630044
  0
LINE
  5
312
100
AcDbEntity
  8
KONSTRUKTIONSELEMENTE
100
AcDbLine
 62
7
  6
CONTINUOUS
 10
57.481862211
 20
101.0784925848
 11
58.261090472
 21
101.2048082296
  0
LINE
  5
313
100
AcDbEntity
  8
RUNDUNGEN
100
AcDbLine
 62
7
  6
CONTINUOUS
 10
57.4815676106
 20
101.078444829
 11
57.4826235204
 21
101.0786159641
  0
LWPOLYLINE
  5
314
100
AcDbEntity
  8
KONSTRUKTIONSELEMENTE
100
AcDbPolyline
 62
7
  6
CONTINUOUS
 90
7
 70
0
 10
88.2453065093
 20
101.2046424986
 10
88.1009710199
 20
101.2259118436
 10
87.8887220831
 20
101.2501879318
 10
87.6782812089
 20
101.2672098791
 10
87.4717401745
 20
101.2779273306
 10
87.2724694934
 20
101.2830946006
 10
87.1607793929
 20
101.2838540446
  0
LINE
  5
315
100
AcDbEntity
  8
RUNDUNGEN
100
AcDbLine
 62
7
  6
CONTINUOUS
 10
89.0228234656
 20
101.0786051401
 11
89.0238109591
 21
101.0784450918
  0
LINE
  5
316
100
AcDbEntity
  8
KONSTRUKTIONSELEMENTE
100
AcDbLine
 62
7
  6
CONTINUOUS
 10
88.2442897275
 20
101.2048082282
 11
89.0235343106
 21
101.0784899376
  0
LINE
  5
317
100
AcDbEntity
  8
RUNDUNGEN
100
AcDbLine
 62
7
  6
CONTINUOUS
 10
88.244289779
 20
101.2048082198
 11
88.2453065493
 21
101.2046426373
  0
LWPOLYLINE
  5
318
100
AcDbEntity
  8
0
100
AcDbPolyline
 62
7
  6
CONTINUOUS
 90
7
 70
0
 10
53.2536122259
 20
73.5486114616
 10
53.2704332574
 20
73.3872083829
 10
53.307390104
 20
73.2322547475
 10
53.3635338205
 20
73.0847323997
 10
53.4380605189
 20
72.945991567
 10
53.5299454886
 20
72.8178205095
 10
53.6381577524
 20
72.7016730427
  0
LINE
  5
319
100
AcDbEntity
  8
KONSTRUKTIONSELEMENTE
100
AcDbLine
 62
7
  6
CONTINUOUS
 10
38.0683942906
 20
64.4735982034
 11
38.0683942906
 21
67.9376998185
  0
LINE
  5
31A
100
AcDbEntity
  8
KONSTRUKTIONSELEMENTE
100
AcDbLine
 62
7
  6
CONTINUOUS
 10
43.3852468973
 20
58.8086222319
 11
43.3852468973
 21
61.5799035241
  0
LINE
  5
31B
100
AcDbEntity
  8
KONSTRUKTIONSELEMENTE
100
AcDbLine
 62
7
  6
CONTINUOUS
 10
43.6667248575
 20
58.027379556
 11
43.6667248575
 21
58.3737897175
  0
LINE
  5
31C
100
AcDbEntity
  8
0
100
AcDbLine
 62
7
  6
CONTINUOUS
 10
48.2526900954
 20
103.7120780058
 11
50.8486691334
 21
92.2631205016
  0
LINE
  5
31D
100
AcDbEntity
  8
0
100
AcDbLine
 62
7
  6
CONTINUOUS
 10
48.2526900954
 20
101.6777139374
 11
50.8486691334
 21
90.1735118075
  0
LWPOLYLINE
  5
31E
100
AcDbEntity
  8
0
100
AcDbPolyline
 62
7
  6
CONTINUOUS
 90
7
 70
0
 10
53.2526994901
 20
73.5952548051
 10
53.2553234854
 20
73.5165469756
 10
53.2822219577
 20
73.3274273899
 10
53.3355658915
 20
73.151110308
 10
53.4131639132
 20
72.9877492476
 10
53.5134939662
 20
72.838348933
 10
53.6349416298
 20
72.7047179494
  0
LINE
  5
31F
100
AcDbEntity
  8
0
100
AcDbLine
 62
7
  6
CONTINUOUS
 10
53.2526626087
 20
73.5961491536
 11
53.2536122259
 21
73.5486114616
  0
LINE
  5
320
100
AcDbEntity
  8
0
100
AcDbLine
 62
7
  6
CONTINUOUS
 10
48.2526900954
 20
101.6777139374
 11
48.2526900954
 21
118.9620937675
  0
LINE
  5
321
100
AcDbEntity
  8
0
100
AcDbLine
 62
7
  6
CONTINUOUS
 10
50.8486691334
 20
90.1735118075
 11
50.8486691334
 21
92.2631205016
  0
LINE
  5
322
100
AcDbEntity
  8
0
100
AcDbLine
 62
7
  6
CONTINUOUS
 10
53.2526946582
 20
73.5952547921
 11
53.2526900954
 21
79.8284260658
  0
LINE
  5
323
100
AcDbEntity
  8
RUNDUNGEN
100
AcDbLine
 62
7
  6
CONTINUOUS
 10
53.2526900954
 20
79.8284260658
 11
53.2526900954
 21
96.0275386155
  0
LINE
  5
324
100
AcDbEntity
  8
BEZUGSACHSEN
100
AcDbLine
 62
7
  6
CONTINUOUS
 10
56.8856911618
 20
122.7179782234
 11
56.8856911618
 21
122.7967444795
  0
LINE
  5
325
100
AcDbEntity
  8
BEZUGSACHSEN
100
AcDbLine
 62
7
  6
CONTINUOUS
 10
58.286381613
 20
123.7268960511
 11
58.286381613
 21
123.8096877565
  0
LINE
  5
326
100
AcDbEntity
  8
BEZUGSACHSEN
100
AcDbLine
 62
7
  6
CONTINUOUS
 10
58.4808321335
 20
123.8292734807
 11
58.4808321335
 21
123.9125439612
  0
LINE
  5
327
100
AcDbEntity
  8
BEZUGSACHSEN
100
AcDbLine
 62
7
  6
CONTINUOUS
 10
58.6983580593
 20
123.8371910541
 11
58.6983580593
 21
123.9207859098
  0
LINE
  5
328
100
AcDbEntity
  8
BEZUGSACHSEN
100
AcDbLine
 62
7
  6
CONTINUOUS
 10
58.9389592678
 20
123.7507364264
 11
58.9389592678
 21
123.8345043526
  0
LINE
  5
329
100
AcDbEntity
  8
BEZUGSACHSEN
100
AcDbLine
 62
7
  6
CONTINUOUS
 10
59.1367169128
 20
123.6151527889
 11
59.1367169128
 21
123.6989352768
  0
LINE
  5
32A
100
AcDbEntity
  8
BEZUGSACHSEN
100
AcDbLine
 62
7
  6
CONTINUOUS
 10
59.2916306251
 20
123.4304474485
 11
59.2916306251
 21
123.5140795035
  0
LINE
  5
32B
100
AcDbEntity
  8
BEZUGSACHSEN
100
AcDbLine
 62
7
  6
CONTINUOUS
 10
59.4361728069
 20
125.4600554311
 11
59.4361728069
 21
125.5476403891
  0
LINE
  5
32C
100
AcDbEntity
  8
BEZUGSACHSEN
100
AcDbLine
 62
7
  6
CONTINUOUS
 10
59.5849964629
 20
122.6794492128
 11
59.5849964629
 21
122.7618982334
  0
LINE
  5
32D
100
AcDbEntity
  8
BEZUGSACHSEN
100
AcDbLine
 62
7
  6
CONTINUOUS
 10
59.7497577594
 20
123.3517815927
 11
59.7497577594
 21
123.4359416368
  0
LINE
  5
32E
100
AcDbEntity
  8
BEZUGSACHSEN
100
AcDbLine
 62
7
  6
CONTINUOUS
 10
59.983891744
 20
120.5934198146
 11
59.983891744
 21
120.6711592026
  0
LINE
  5
32F
100
AcDbEntity
  8
BEZUGSACHSEN
100
AcDbLine
 62
7
  6
CONTINUOUS
 10
60.2409544779
 20
120.8909570112
 11
60.2409544779
 21
120.9699439081
  0
LINE
  5
330
100
AcDbEntity
  8
BEZUGSACHSEN
100
AcDbLine
 62
7
  6
CONTINUOUS
 10
60.9950356762
 20
126.6863075679
 11
60.9950356762
 21
126.7778985632
  0
LINE
  5
331
100
AcDbEntity
  8
BEZUGSACHSEN
100
AcDbLine
 62
7
  6
CONTINUOUS
 10
61.128625098
 20
123.7250870281
 11
61.128625098
 21
123.8121812072
  0
LINE
  5
332
100
AcDbEntity
  8
BEZUGSACHSEN
100
AcDbLine
 62
7
  6
CONTINUOUS
 10
61.3120491618
 20
122.1237031484
 11
61.3120491618
 21
122.2076762654
  0
LINE
  5
333
100
AcDbEntity
  8
BEZUGSACHSEN
100
AcDbLine
 62
7
  6
CONTINUOUS
 10
61.4535634268
 20
123.4863733535
 11
61.4535634268
 21
123.5735413941
  0
LINE
  5
334
100
AcDbEntity
  8
BEZUGSACHSEN
100
AcDbLine
 62
7
  6
CONTINUOUS
 10
61.6119557665
 20
122.4668508815
 11
61.6119557665
 21
122.5521428702
  0
LINE
  5
335
100
AcDbEntity
  8
KONSTRUKTIONSELEMENTE
100
AcDbLine
 62
7
  6
CONTINUOUS
 10
61.6876565892
 20
89.4582071398
 11
61.6876565892
 21
84.5387730395
  0
LINE
  5
336
100
AcDbEntity
  8
BEZUGSACHSEN
100
AcDbLine
 62
7
  6
CONTINUOUS
 10
61.7758686071
 20
123.344722178
 11
61.7758686071
 21
123.4321569701
  0
LINE
  5
337
100
AcDbEntity
  8
BEZUGSACHSEN
100
AcDbLine
 62
7
  6
CONTINUOUS
 10
62.202097702
 20
123.2851111665
 11
62.202097702
 21
123.3731673659
  0
LINE
  5
338
100
AcDbEntity
  8
BEZUGSACHSEN
100
AcDbLine
 62
7
  6
CONTINUOUS
 10
62.3916300202
 20
127.6411101449
 11
62.3916300202
 21
127.7357294451
  0
LINE
  5
339
100
AcDbEntity
  8
BEZUGSACHSEN
100
AcDbLine
 62
7
  6
CONTINUOUS
 10
62.5191366338
 20
123.3371632182
 11
62.5191366337
 21
123.425880133
  0
LINE
  5
33A
100
AcDbEntity
  8
BEZUGSACHSEN
100
AcDbLine
 62
7
  6
CONTINUOUS
 10
62.6874879673
 20
124.9515354392
 11
62.6874879673
 21
125.0432718886
  0
LINE
  5
33B
100
AcDbEntity
  8
BEZUGSACHSEN
100
AcDbLine
 62
7
  6
CONTINUOUS
 10
62.8335422207
 20
123.4857707301
 11
62.8335422207
 21
123.5753272519
  0
LINE
  5
33C
100
AcDbEntity
  8
BEZUGSACHSEN
100
AcDbLine
 62
7
  6
CONTINUOUS
 10
62.8539066887
 20
124.6870539972
 11
62.8539066887
 21
124.7786648691
  0
LINE
  5
33D
100
AcDbEntity
  8
BEZUGSACHSEN
100
AcDbLine
 62
7
  6
CONTINUOUS
 10
63.0413906825
 20
123.6490974988
 11
63.0413906825
 21
123.7393202936
  0
LINE
  5
33E
100
AcDbEntity
  8
BEZUGSACHSEN
100
AcDbLine
 62
7
  6
CONTINUOUS
 10
63.2466058043
 20
123.9088065581
 11
63.2466058043
 21
123.9998416041
  0
LINE
  5
33F
100
AcDbEntity
  8
BEZUGSACHSEN
100
AcDbLine
 62
7
  6
CONTINUOUS
 10
63.3452637962
 20
124.1834080437
 11
63.3452637962
 21
124.2750649984
  0
LINE
  5
340
100
AcDbEntity
  8
BEZUGSACHSEN
100
AcDbLine
 62
7
  6
CONTINUOUS
 10
64.062203577
 20
127.9917293782
 11
64.062203577
 21
128.0888561956
  0
LINE
  5
341
100
AcDbEntity
  8
0
100
AcDbLine
 62
7
  6
CONTINUOUS
 10
64.2526900954
 20
262.2964370546
 11
64.2526900954
 21
109.4158018877
  0
LINE
  5
342
100
AcDbEntity
  8
KONSTRUKTIONSELEMENTE
100
AcDbLine
 62
7
  6
CONTINUOUS
 10
65.2526900954
 20
105.2361731843
 11
65.2526900954
 21
103.5315211759
  0
LINE
  5
343
100
AcDbEntity
  8
KONSTRUKTIONSELEMENTE
100
AcDbLine
 62
7
  6
CONTINUOUS
 10
68.0126900954
 20
39.3704788251
 11
68.0126900954
 21
33.5704788251
  0
LINE
  5
344
100
AcDbEntity
  8
0
100
AcDbLine
 62
7
  6
CONTINUOUS
 10
68.7026900954
 20
71.5688856477
 11
68.7026900954
 21
83.8110091643
  0
LINE
  5
345
100
AcDbEntity
  8
KONSTRUKTIONSELEMENTE
100
AcDbLine
 62
7
  6
CONTINUOUS
 10
68.7026900954
 20
83.8110091643
 11
68.7026900954
 21
93.5164878118
  0
LINE
  5
346
100
AcDbEntity
  8
KONSTRUKTIONSELEMENTE
100
AcDbLine
 62
7
  6
CONTINUOUS
 10
69.6126900954
 20
32.6240686636
 11
69.6126900954
 21
39.0240686636
  0
LINE
  5
347
100
AcDbEntity
  8
KONSTRUKTIONSELEMENTE
100
AcDbLine
 62
7
  6
CONTINUOUS
 10
69.7526900954
 20
88.3917313173
 11
69.7526900954
 21
85.7626175945
  0
LINE
  5
348
100
AcDbEntity
  8
KONSTRUKTIONSELEMENTE
100
AcDbLine
 62
7
  6
CONTINUOUS
 10
70.7526900954
 20
76.1626175945
 11
70.7526900954
 21
67.7311194711
  0
LINE
  5
349
100
AcDbEntity
  8
KONSTRUKTIONSELEMENTE
100
AcDbLine
 62
7
  6
CONTINUOUS
 10
71.0026900954
 20
91.5256022329
 11
71.0026900954
 21
86.3561194711
  0
LINE
  5
34A
100
AcDbEntity
  8
KONSTRUKTIONSELEMENTE
100
AcDbLine
 62
7
  6
CONTINUOUS
 10
75.5026900954
 20
91.5256022329
 11
75.5026900954
 21
86.3561194711
  0
LINE
  5
34B
100
AcDbEntity
  8
KONSTRUKTIONSELEMENTE
100
AcDbLine
 62
7
  6
CONTINUOUS
 10
75.7526900954
 20
76.1626175945
 11
75.7526900954
 21
67.7311194711
  0
LINE
  5
34C
100
AcDbEntity
  8
KONSTRUKTIONSELEMENTE
100
AcDbLine
 62
7
  6
CONTINUOUS
 10
76.7526900954
 20
85.7626175945
 11
76.7526900954
 21
88.3477175489
  0
LINE
  5
34D
100
AcDbEntity
  8
KONSTRUKTIONSELEMENTE
100
AcDbLine
 62
7
  6
CONTINUOUS
 10
76.8926900954
 20
32.6240686636
 11
76.8926900954
 21
39.0240686636
  0
LINE
  5
34E
100
AcDbEntity
  8
0
100
AcDbLine
 62
7
  6
CONTINUOUS
 10
77.8026900954
 20
83.8110091643
 11
77.8026900954
 21
71.5688856477
  0
LINE
  5
34F
100
AcDbEntity
  8
KONSTRUKTIONSELEMENTE
100
AcDbLine
 62
7
  6
CONTINUOUS
 10
77.8026900954
 20
83.8110091643
 11
77.8026900954
 21
93.5164878118
  0
LINE
  5
350
100
AcDbEntity
  8
KONSTRUKTIONSELEMENTE
100
AcDbLine
 62
7
  6
CONTINUOUS
 10
78.4926900954
 20
33.5704788251
 11
78.4926900954
 21
39.3704788251
  0
LINE
  5
351
100
AcDbEntity
  8
KONSTRUKTIONSELEMENTE
100
AcDbLine
 62
7
  6
CONTINUOUS
 10
81.2526900954
 20
103.5299228216
 11
81.2526900954
 21
105.2361731843
  0
LINE
  5
352
100
AcDbEntity
  8
0
100
AcDbLine
 62
7
  6
CONTINUOUS
 10
82.2526900954
 20
262.2964370546
 11
82.2526900954
 21
109.4158018877
  0
LINE
  5
353
100
AcDbEntity
  8
BEZUGSACHSEN
100
AcDbLine
 62
7
  6
CONTINUOUS
 10
82.5582063484
 20
126.3849287216
 11
82.5582063484
 21
126.4804219753
  0
LINE
  5
354
100
AcDbEntity
  8
BEZUGSACHSEN
100
AcDbLine
 62
7
  6
CONTINUOUS
 10
82.8776635812
 20
126.3904539953
 11
82.8776635812
 21
126.4854855584
  0
LINE
  5
355
100
AcDbEntity
  8
BEZUGSACHSEN
100
AcDbLine
 62
7
  6
CONTINUOUS
 10
83.1020169614
 20
127.7364360856
 11
83.1020169614
 21
127.8324918345
  0
LINE
  5
356
100
AcDbEntity
  8
BEZUGSACHSEN
100
AcDbLine
 62
7
  6
CONTINUOUS
 10
83.1282924136
 20
124.2116403908
 11
83.1282924136
 21
124.3033973106
  0
LINE
  5
357
100
AcDbEntity
  8
BEZUGSACHSEN
100
AcDbLine
 62
7
  6
CONTINUOUS
 10
83.2200259726
 20
126.5560452695
 11
83.2200259726
 21
126.6507590941
  0
LINE
  5
358
100
AcDbEntity
  8
BEZUGSACHSEN
100
AcDbLine
 62
7
  6
CONTINUOUS
 10
83.2258749616
 20
123.9368173832
 11
83.2258749616
 21
124.0279572461
  0
LINE
  5
359
100
AcDbEntity
  8
BEZUGSACHSEN
100
AcDbLine
 62
7
  6
CONTINUOUS
 10
83.2388397403
 20
127.5792359769
 11
83.2388397403
 21
127.6749650092
  0
LINE
  5
35A
100
AcDbEntity
  8
BEZUGSACHSEN
100
AcDbLine
 62
7
  6
CONTINUOUS
 10
83.4026604265
 20
126.718954166
 11
83.4026604265
 21
126.8135835107
  0
LINE
  5
35B
100
AcDbEntity
  8
BEZUGSACHSEN
100
AcDbLine
 62
7
  6
CONTINUOUS
 10
83.4300916935
 20
123.6765625836
 11
83.4300916935
 21
123.7668943284
  0
LINE
  5
35C
100
AcDbEntity
  8
BEZUGSACHSEN
100
AcDbLine
 62
7
  6
CONTINUOUS
 10
83.5670922318
 20
126.9775229547
 11
83.5670922318
 21
127.0721983976
  0
LINE
  5
35D
100
AcDbEntity
  8
BEZUGSACHSEN
100
AcDbLine
 62
7
  6
CONTINUOUS
 10
83.6217218956
 20
124.7136660324
 11
83.6217218956
 21
124.8053665816
  0
LINE
  5
35E
100
AcDbEntity
  8
BEZUGSACHSEN
100
AcDbLine
 62
7
  6
CONTINUOUS
 10
83.6311053131
 20
127.2024550479
 11
83.6311053131
 21
127.2972782371
  0
LINE
  5
35F
100
AcDbEntity
  8
BEZUGSACHSEN
100
AcDbLine
 62
7
  6
CONTINUOUS
 10
83.7892163649
 20
124.9775735285
 11
83.7892163649
 21
125.0693948757
  0
LINE
  5
360
100
AcDbEntity
  8
BEZUGSACHSEN
100
AcDbLine
 62
7
  6
CONTINUOUS
 10
83.8963662815
 20
123.3073648479
 11
83.8963662815
 21
123.39618451
  0
LINE
  5
361
100
AcDbEntity
  8
BEZUGSACHSEN
100
AcDbLine
 62
7
  6
CONTINUOUS
 10
84.2102316347
 20
123.157402593
 11
84.2102316347
 21
123.2453700467
  0
LINE
  5
362
100
AcDbEntity
  8
BEZUGSACHSEN
100
AcDbLine
 62
7
  6
CONTINUOUS
 10
84.5271173636
 20
123.1040545468
 11
84.5271173636
 21
123.1913563223
  0
LINE
  5
363
100
AcDbEntity
  8
BEZUGSACHSEN
100
AcDbLine
 62
7
  6
CONTINUOUS
 10
84.6115988156
 20
125.8142827085
 11
84.6115988156
 21
125.9060139743
  0
LINE
  5
364
100
AcDbEntity
  8
KONSTRUKTIONSELEMENTE
100
AcDbLine
 62
7
  6
CONTINUOUS
 10
84.8177236017
 20
89.4582071398
 11
84.8177236017
 21
84.5387730395
  0
LINE
  5
365
100
AcDbEntity
  8
BEZUGSACHSEN
100
AcDbLine
 62
7
  6
CONTINUOUS
 10
84.882708279
 20
125.9965977076
 11
84.882708279
 21
126.0881746652
  0
LINE
  5
366
100
AcDbEntity
  8
BEZUGSACHSEN
100
AcDbLine
 62
7
  6
CONTINUOUS
 10
84.9410663984
 20
124.4639523117
 11
84.9410663984
 21
124.5530931743
  0
LINE
  5
367
100
AcDbEntity
  8
BEZUGSACHSEN
100
AcDbLine
 62
7
  6
CONTINUOUS
 10
84.9536517088
 20
123.1620241126
 11
84.9536517088
 21
123.2487073514
  0
LINE
  5
368
100
AcDbEntity
  8
BEZUGSACHSEN
100
AcDbLine
 62
7
  6
CONTINUOUS
 10
85.1508010872
 20
126.0822733366
 11
85.1508010872
 21
126.1735729705
  0
LINE
  5
369
100
AcDbEntity
  8
BEZUGSACHSEN
100
AcDbLine
 62
7
  6
CONTINUOUS
 10
85.2247612106
 20
123.3438513804
 11
85.2247612106
 21
123.4304464049
  0
LINE
  5
36A
100
AcDbEntity
  8
BEZUGSACHSEN
100
AcDbLine
 62
7
  6
CONTINUOUS
 10
85.4158769331
 20
126.0712191707
 11
85.4158769331
 21
126.1621161447
  0
LINE
  5
36B
100
AcDbEntity
  8
BEZUGSACHSEN
100
AcDbLine
 62
7
  6
CONTINUOUS
 10
85.677937156
 20
125.9633048102
 11
85.677937156
 21
126.0536668013
  0
LINE
  5
36C
100
AcDbEntity
  8
BEZUGSACHSEN
100
AcDbLine
 62
7
  6
CONTINUOUS
 10
86.0471436613
 20
124.1806829588
 11
86.0471436613
 21
124.2675674768
  0
LINE
  5
36D
100
AcDbEntity
  8
BEZUGSACHSEN
100
AcDbLine
 62
7
  6
CONTINUOUS
 10
86.144211744
 20
125.594136087
 11
86.144211744
 21
125.6832663631
  0
LINE
  5
36E
100
AcDbEntity
  8
BEZUGSACHSEN
100
AcDbLine
 62
7
  6
CONTINUOUS
 10
86.2297233603
 20
124.9302988013
 11
86.2297233603
 21
125.0182292104
  0
LINE
  5
36F
100
AcDbEntity
  8
BEZUGSACHSEN
100
AcDbLine
 62
7
  6
CONTINUOUS
 10
86.5405730856
 20
124.6827673922
 11
86.5405730856
 21
124.7698059469
  0
LINE
  5
370
100
AcDbEntity
  8
BEZUGSACHSEN
100
AcDbLine
 62
7
  6
CONTINUOUS
 10
86.7628932002
 20
125.0029854998
 11
86.7628932002
 21
125.0902503338
  0
LINE
  5
371
100
AcDbEntity
  8
BEZUGSACHSEN
100
AcDbLine
 62
7
  6
CONTINUOUS
 10
87.3649314007
 20
119.3958856577
 11
87.3649314007
 21
119.4687632851
  0
LINE
  5
372
100
AcDbEntity
  8
BEZUGSACHSEN
100
AcDbLine
 62
7
  6
CONTINUOUS
 10
87.4448041826
 20
119.0823236461
 11
87.4448041826
 21
119.1540842784
  0
LINE
  5
373
100
AcDbEntity
  8
BEZUGSACHSEN
100
AcDbLine
 62
7
  6
CONTINUOUS
 10
87.631380719
 20
118.7430405259
 11
87.631380719
 21
118.8134433505
  0
LINE
  5
374
100
AcDbEntity
  8
BEZUGSACHSEN
100
AcDbLine
 62
7
  6
CONTINUOUS
 10
87.8319971483
 20
119.7279224816
 11
87.8319971483
 21
119.801211584
  0
LINE
  5
375
100
AcDbEntity
  8
BEZUGSACHSEN
100
AcDbLine
 62
7
  6
CONTINUOUS
 10
87.8624697802
 20
118.4911289449
 11
87.8624697802
 21
118.5604070903
  0
LINE
  5
376
100
AcDbEntity
  8
BEZUGSACHSEN
100
AcDbLine
 62
7
  6
CONTINUOUS
 10
88.0411414651
 20
120.0222728141
 11
88.0411414651
 21
120.0961681643
  0
LINE
  5
377
100
AcDbEntity
  8
BEZUGSACHSEN
100
AcDbLine
 62
7
  6
CONTINUOUS
 10
88.2447736972
 20
118.3014329441
 11
88.2447736972
 21
118.3696367747
  0
LINE
  5
378
100
AcDbEntity
  8
BEZUGSACHSEN
100
AcDbLine
 62
7
  6
CONTINUOUS
 10
88.2679658642
 20
120.1162521295
 11
88.2679658642
 21
120.1901264659
  0
LINE
  5
379
100
AcDbEntity
  8
BEZUGSACHSEN
100
AcDbLine
 62
7
  6
CONTINUOUS
 10
88.5648863909
 20
118.2250151233
 11
88.5648863909
 21
118.2926186273
  0
LINE
  5
37A
100
AcDbEntity
  8
BEZUGSACHSEN
100
AcDbLine
 62
7
  6
CONTINUOUS
 10
88.6636867704
 20
120.072481853
 11
88.6636867704
 21
120.1457274422
  0
LINE
  5
37B
100
AcDbEntity
  8
BEZUGSACHSEN
100
AcDbLine
 62
7
  6
CONTINUOUS
 10
88.9392869196
 20
119.9094612365
 11
88.9392869196
 21
119.9818988161
  0
LINE
  5
37C
100
AcDbEntity
  8
BEZUGSACHSEN
100
AcDbLine
 62
7
  6
CONTINUOUS
 10
89.0051197623
 20
118.267995385
 11
89.0051197623
 21
118.3352887628
  0
LINE
  5
37D
100
AcDbEntity
  8
BEZUGSACHSEN
100
AcDbLine
 62
7
  6
CONTINUOUS
 10
89.1392789357
 20
119.7148533212
 11
89.1392789357
 21
119.7864880207
  0
LINE
  5
37E
100
AcDbEntity
  8
BEZUGSACHSEN
100
AcDbLine
 62
7
  6
CONTINUOUS
 10
89.2319441613
 20
118.3619939789
 11
89.2319441613
 21
118.4293656001
  0
LINE
  5
37F
100
AcDbEntity
  8
BEZUGSACHSEN
100
AcDbLine
 62
7
  6
CONTINUOUS
 10
89.4953762336
 20
120.4170365569
 11
89.4953762336
 21
120.4902429949
  0
LINE
  5
380
100
AcDbEntity
  8
BEZUGSACHSEN
100
AcDbLine
 62
7
  6
CONTINUOUS
 10
89.547792279
 20
118.6323059503
 11
89.547792279
 21
118.7002202357
  0
LINE
  5
381
100
AcDbEntity
  8
BEZUGSACHSEN
100
AcDbLine
 62
7
  6
CONTINUOUS
 10
89.6502327949
 20
118.9533832906
 11
89.6502327949
 21
119.0221839224
  0
LINE
  5
382
100
AcDbEntity
  8
BEZUGSACHSEN
100
AcDbLine
 62
7
  6
CONTINUOUS
 10
89.6600079793
 20
120.6237620607
 11
89.6600079793
 21
120.6973347117
  0
LINE
  5
383
100
AcDbEntity
  8
BEZUGSACHSEN
100
AcDbLine
 62
7
  6
CONTINUOUS
 10
89.6636482746
 20
119.098156147
 11
89.6636482746
 21
119.1673812185
  0
LINE
  5
384
100
AcDbEntity
  8
BEZUGSACHSEN
100
AcDbLine
 62
7
  6
CONTINUOUS
 10
89.801449061
 20
119.0160329385
 11
89.801449061
 21
119.0848687227
  0
LINE
  5
385
100
AcDbEntity
  8
BEZUGSACHSEN
100
AcDbLine
 62
7
  6
CONTINUOUS
 10
89.8112242454
 20
120.6864107596
 11
89.8112242454
 21
120.7599735258
  0
LINE
  5
386
100
AcDbEntity
  8
BEZUGSACHSEN
100
AcDbLine
 62
7
  6
CONTINUOUS
 10
90.1002415095
 20
120.667619375
 11
90.1002415095
 21
120.7407997181
  0
LINE
  5
387
100
AcDbEntity
  8
BEZUGSACHSEN
100
AcDbLine
 62
7
  6
CONTINUOUS
 10
90.1215617282
 20
118.9397282836
 11
90.1215617282
 21
119.0080153541
  0
LINE
  5
388
100
AcDbEntity
  8
BEZUGSACHSEN
100
AcDbLine
 62
7
  6
CONTINUOUS
 10
90.4514497917
 20
120.5358749129
 11
90.4514497917
 21
120.6083154826
  0
LINE
  5
389
100
AcDbEntity
  8
BEZUGSACHSEN
100
AcDbLine
 62
7
  6
CONTINUOUS
 10
90.4861869136
 20
118.9514485426
 11
90.4861869136
 21
119.0194196106
  0
LINE
  5
38A
100
AcDbEntity
  8
BEZUGSACHSEN
100
AcDbLine
 62
7
  6
CONTINUOUS
 10
90.6514418079
 20
120.3412443276
 11
90.6514418079
 21
120.4129525256
  0
LINE
  5
38B
100
AcDbEntity
  8
BEZUGSACHSEN
100
AcDbLine
 62
7
  6
CONTINUOUS
 10
90.7130113127
 20
119.0454366185
 11
90.7130113127
 21
119.1134694882
  0
LINE
  5
38C
100
AcDbEntity
  8
BEZUGSACHSEN
100
AcDbLine
 62
7
  6
CONTINUOUS
 10
90.7758271145
 20
120.1150538551
 11
90.7758271145
 21
120.1860247343
  0
LINE
  5
38D
100
AcDbEntity
  8
BEZUGSACHSEN
100
AcDbLine
 62
7
  6
CONTINUOUS
 10
91.0288595363
 20
119.3156539287
 11
91.0288595363
 21
119.3841655726
  0
LINE
  5
38E
100
AcDbEntity
  8
BEZUGSACHSEN
100
AcDbLine
 62
7
  6
CONTINUOUS
 10
91.1623956671
 20
119.5798714593
 11
91.1623956671
 21
119.6489957414
  0
LINE
  5
38F
100
AcDbEntity
  8
BEZUGSACHSEN
100
AcDbLine
 62
7
  6
CONTINUOUS
 10
91.2337391446
 20
119.9572705455
 11
91.2337391446
 21
120.0273558567
  0
LINE
  5
390
100
AcDbEntity
  8
0
100
AcDbLine
 62
7
  6
CONTINUOUS
 10
93.2526900954
 20
79.8284260658
 11
93.2526900954
 21
77.2638048208
  0
LINE
  5
391
100
AcDbEntity
  8
0
100
AcDbLine
 62
7
  6
CONTINUOUS
 10
93.2526900954
 20
73.5981171783
 11
93.2526900954
 21
77.1302307056
  0
LINE
  5
392
100
AcDbEntity
  8
RUNDUNGEN
100
AcDbLine
 62
7
  6
CONTINUOUS
 10
93.2526900954
 20
79.8284260658
 11
93.2526900954
 21
96.0275386155
  0
LINE
  5
393
100
AcDbEntity
  8
0
100
AcDbLine
 62
7
  6
CONTINUOUS
 10
95.6567110575
 20
90.1735118075
 11
95.6567110575
 21
92.2631205016
  0
LINE
  5
394
100
AcDbEntity
  8
0
100
AcDbLine
 62
7
  6
CONTINUOUS
 10
98.2526900954
 20
101.6777139374
 11
98.2526900954
 21
118.9620937675
  0
LINE
  5
395
100
AcDbEntity
  8
KONSTRUKTIONSELEMENTE
100
AcDbLine
 62
7
  6
CONTINUOUS
 10
98.947924723
 20
45.532962828
 11
98.947924723
 21
42.0688612129
  0
LINE
  5
396
100
AcDbEntity
  8
0
100
AcDbLine
 62
7
  6
CONTINUOUS
 10
95.6567110575
 20
90.1735118075
 11
98.2526900954
 21
101.6777139374
  0
LINE
  5
397
100
AcDbEntity
  8
0
100
AcDbLine
 62
7
  6
CONTINUOUS
 10
95.6567110575
 20
92.2631205016
 11
98.2526900954
 21
103.7120780058
  0
LINE
  5
398
100
AcDbEntity
  8
BEZUGSACHSEN
100
AcDbLine
 62
7
  6
CONTINUOUS
 10
89.8112242454
 20
120.7599735258
 11
89.6600079793
 21
120.6973347117
  0
LINE
  5
399
100
AcDbEntity
  8
KONSTRUKTIONSELEMENTE
100
AcDbLine
 62
7
  6
CONTINUOUS
 10
117.5000637707
 20
65.8246085098
 11
117.5000637707
 21
62.3605068946
  0
LINE
  5
39A
100
AcDbEntity
  8
0
100
AcDbLine
 62
7
  6
CONTINUOUS
 10
94.8937561787
 20
88.8986474223
 11
95.6567110575
 21
90.1735118075
  0
LINE
  5
39B
100
AcDbEntity
  8
RUNDUNGEN
100
AcDbLine
 62
7
  6
CONTINUOUS
 10
94.8937561787
 20
91.0544212412
 11
95.6567110575
 21
92.2631205016
  0
LWPOLYLINE
  5
39C
100
AcDbEntity
  8
0
100
AcDbPolyline
 62
7
  6
CONTINUOUS
 90
8
 70
0
 10
92.8672224385
 20
72.7016730427
 10
92.9754347023
 20
72.8178205095
 10
93.067319672
 20
72.945991567
 10
93.1418463703
 20
73.0847323997
 10
93.1979900869
 20
73.2322547475
 10
93.2349469335
 20
73.3872083829
 10
93.251767965
 20
73.5486114616
 10
93.2527175822
 20
73.5961491536
  0
LINE
  5
39D
100
AcDbEntity
  8
0
100
AcDbLine
 62
7
  6
CONTINUOUS
 10
92.8245993471
 20
72.6631721161
 11
92.8672224385
 21
72.7016730427
  0
LINE
  5
39E
100
AcDbEntity
  8
0
100
AcDbLine
 62
7
  6
CONTINUOUS
 10
92.2146922083
 20
72.1368567822
 11
92.8230467139
 21
72.6618263148
  0
LINE
  5
39F
100
AcDbEntity
  8
0
100
AcDbLine
 62
7
  6
CONTINUOUS
 10
91.9098377485
 20
71.8776325209
 11
92.2147593915
 21
72.1369148627
  0
LINE
  5
3A0
100
AcDbEntity
  8
0
100
AcDbLine
 62
7
  6
CONTINUOUS
 10
91.5546344424
 20
71.5858728481
 11
91.9150718725
 21
71.8820166139
  0
LINE
  5
3A1
100
AcDbEntity
  8
0
100
AcDbLine
 62
7
  6
CONTINUOUS
 10
91.2121675934
 20
71.3160942807
 11
91.5594107739
 21
71.5897182685
  0
LINE
  5
3A2
100
AcDbEntity
  8
0
100
AcDbLine
 62
7
  6
CONTINUOUS
 10
90.8823315504
 20
71.068174853
 11
91.2164647189
 21
71.3194041415
  0
LINE
  5
3A3
100
AcDbEntity
  8
0
100
AcDbLine
 62
7
  6
CONTINUOUS
 10
90.5649886165
 20
70.8420190813
 11
90.8861527527
 21
71.0709749108
  0
LINE
  5
3A4
100
AcDbEntity
  8
0
100
AcDbLine
 62
7
  6
CONTINUOUS
 10
90.2591031909
 20
70.6369866254
 11
90.5683480662
 21
70.8443444885
  0
LINE
  5
3A5
100
AcDbEntity
  8
0
100
AcDbLine
 62
7
  6
CONTINUOUS
 10
89.963504585
 20
70.4525404342
 11
90.2620219982
 21
70.6388777811
  0
LINE
  5
3A6
100
AcDbEntity
  8
KONSTRUKTIONSELEMENTE
100
AcDbLine
 62
7
  6
CONTINUOUS
 10
91.7068903191
 20
46.0913060007
 11
105.7378166089
 21
61.1360152655
  0
LINE
  5
3A7
100
AcDbEntity
  8
KONSTRUKTIONSELEMENTE
100
AcDbLine
 62
7
  6
CONTINUOUS
 10
98.7187903351
 20
41.7788321401
 11
98.9104478378
 21
41.9843375605
  0
LINE
  5
3A8
100
AcDbEntity
  8
KONSTRUKTIONSELEMENTE
100
AcDbLine
 62
7
  6
CONTINUOUS
 10
116.6604148309
 20
61.0168010883
 11
117.1252949188
 21
61.5152703712
  0
ARC
  5
3A9
100
AcDbEntity
  8
BEZUGSACHSEN
100
AcDbCircle
 62
7
  6
CONTINUOUS
 10
248.8681414155
 20
65.6702109925
 40
132.7727062264
100
AcDbArc
 50
25.6521897656
 51
25.7898964305
  0
ARC
  5
3AA
100
AcDbEntity
  8
BEZUGSACHSEN
100
AcDbCircle
 62
7
  6
CONTINUOUS
 10
271.7788182957
 20
77.085637111
 40
107.6232260982
100
AcDbArc
 50
25.8433097494
 51
26.0062259473
  0
ARC
  5
3AB
100
AcDbEntity
  8
BEZUGSACHSEN
100
AcDbCircle
 62
7
  6
CONTINUOUS
 10
273.767505834
 20
80.7771426723
 40
103.7633333289
100
AcDbArc
 50
24.0909024439
 51
24.2078428736
  0
ARC
  5
3AC
100
AcDbEntity
  8
KONSTRUKTIONSELEMENTE
100
AcDbCircle
 62
7
  6
CONTINUOUS
 10
216.3347651863
 20
77.7311194711
 40
8.25
100
AcDbArc
 50
45.8421444573
 51
120.0
  0
ARC
  5
3AD
100
AcDbEntity
  8
KONSTRUKTIONSELEMENTE
100
AcDbCircle
 62
7
  6
CONTINUOUS
 10
216.3347651863
 20
77.7311194711
 40
8.25
100
AcDbArc
 50
300.0
 51
14.1578555427
  0
ARC
  5
3AE
100
AcDbEntity
  8
KONSTRUKTIONSELEMENTE
100
AcDbCircle
 62
7
  6
CONTINUOUS
 10
208.9735492542
 20
73.4811194711
 40
8.25
100
AcDbArc
 50
224.0415598584
 51
300.0
  0
ARC
  5
3AF
100
AcDbEntity
  8
KONSTRUKTIONSELEMENTE
100
AcDbCircle
 62
7
  6
CONTINUOUS
 10
208.9735492542
 20
73.4811194711
 40
8.25
100
AcDbArc
 50
120.0
 51
195.9584401416
  0
ARC
  5
3B0
100
AcDbEntity
  8
KONSTRUKTIONSELEMENTE
100
AcDbCircle
 62
7
  6
CONTINUOUS
 10
241.2329955451
 20
92.1061194711
 40
8.0
100
AcDbArc
 50
226.3642958278
 51
300.0
  0
ARC
  5
3B1
100
AcDbEntity
  8
KONSTRUKTIONSELEMENTE
100
AcDbCircle
 62
7
  6
CONTINUOUS
 10
241.2329955451
 20
92.1061194711
 40
8.0
100
AcDbArc
 50
120.0
 51
193.6357041722
  0
ARC
  5
3B2
100
AcDbEntity
  8
KONSTRUKTIONSELEMENTE
100
AcDbCircle
 62
7
  6
CONTINUOUS
 10
241.2329955451
 20
92.1061194711
 40
3.5
100
AcDbArc
 50
250.1538775079
 51
300.0
  0
ARC
  5
3B3
100
AcDbEntity
  8
KONSTRUKTIONSELEMENTE
100
AcDbCircle
 62
7
  6
CONTINUOUS
 10
241.2329955451
 20
92.1061194711
 40
3.5
100
AcDbArc
 50
120.0
 51
169.8461224921
  0
ARC
  5
3B4
100
AcDbEntity
  8
KONSTRUKTIONSELEMENTE
100
AcDbCircle
 62
7
  6
CONTINUOUS
 10
216.3347651863
 20
77.7311194711
 40
3.25
100
AcDbArc
 50
73.8837571799
 51
120.0
  0
ARC
  5
3B5
100
AcDbEntity
  8
KONSTRUKTIONSELEMENTE
100
AcDbCircle
 62
7
  6
CONTINUOUS
 10
216.3347651863
 20
77.7311194711
 40
3.25
100
AcDbArc
 50
300.0
 51
346.1162428201
  0
ARC
  5
3B6
100
AcDbEntity
  8
KONSTRUKTIONSELEMENTE
100
AcDbCircle
 62
7
  6
CONTINUOUS
 10
208.9735492542
 20
73.4811194711
 40
3.25
100
AcDbArc
 50
248.0817221346
 51
300.0
  0
ARC
  5
3B7
100
AcDbEntity
  8
KONSTRUKTIONSELEMENTE
100
AcDbCircle
 62
7
  6
CONTINUOUS
 10
208.9735492542
 20
73.4811194711
 40
3.25
100
AcDbArc
 50
120.0
 51
171.9182778654
  0
ARC
  5
3B8
100
AcDbEntity
  8
KONSTRUKTIONSELEMENTE
100
AcDbCircle
 62
7
  6
CONTINUOUS
 10
240.1504637904
 20
91.4811194711
 40
2.25
100
AcDbArc
 50
300.0
 51
120.0
  0
ARC
  5
3B9
100
AcDbEntity
  8
KONSTRUKTIONSELEMENTE
100
AcDbCircle
 62
7
  6
CONTINUOUS
 10
217.2007905901
 20
78.2311194711
 40
2.25
100
AcDbArc
 50
120.0
 51
300.0
  0
ARC
  5
3BA
100
AcDbEntity
  8
KONSTRUKTIONSELEMENTE
100
AcDbCircle
 62
7
  6
CONTINUOUS
 10
286.4828228929
 20
118.2311194711
 40
8.25
100
AcDbArc
 50
51.346698243
 51
120.0
  0
ARC
  5
3BB
100
AcDbEntity
  8
KONSTRUKTIONSELEMENTE
100
AcDbCircle
 62
7
  6
CONTINUOUS
 10
286.4828228929
 20
118.2311194711
 40
8.25
100
AcDbArc
 50
300.0
 51
8.653301757
  0
ARC
  5
3BC
100
AcDbEntity
  8
KONSTRUKTIONSELEMENTE
100
AcDbCircle
 62
7
  6
CONTINUOUS
 10
279.1216069607
 20
113.9811194711
 40
8.25
100
AcDbArc
 50
225.8421444573
 51
300.0
  0
ARC
  5
3BD
100
AcDbEntity
  8
KONSTRUKTIONSELEMENTE
100
AcDbCircle
 62
7
  6
CONTINUOUS
 10
279.1216069607
 20
113.9811194711
 40
8.25
100
AcDbArc
 50
120.0
 51
194.1578555427
  0
ARC
  5
3BE
100
AcDbEntity
  8
KONSTRUKTIONSELEMENTE
100
AcDbCircle
 62
7
  6
CONTINUOUS
 10
254.2233766019
 20
99.6061194711
 40
8.0
100
AcDbArc
 50
46.3642958278
 51
120.0
  0
ARC
  5
3BF
100
AcDbEntity
  8
KONSTRUKTIONSELEMENTE
100
AcDbCircle
 62
7
  6
CONTINUOUS
 10
254.2233766019
 20
99.6061194711
 40
8.0
100
AcDbArc
 50
300.0
 51
13.6357041722
  0
ARC
  5
3C0
100
AcDbEntity
  8
KONSTRUKTIONSELEMENTE
100
AcDbCircle
 62
7
  6
CONTINUOUS
 10
254.2233766019
 20
99.6061194711
 40
3.5
100
AcDbArc
 50
70.1538775079
 51
120.0
  0
ARC
  5
3C1
100
AcDbEntity
  8
KONSTRUKTIONSELEMENTE
100
AcDbCircle
 62
7
  6
CONTINUOUS
 10
254.2233766019
 20
99.6061194711
 40
3.5
100
AcDbArc
 50
300.0
 51
349.8461224921
  0
ARC
  5
3C2
100
AcDbEntity
  8
KONSTRUKTIONSELEMENTE
100
AcDbCircle
 62
7
  6
CONTINUOUS
 10
286.4828228929
 20
118.2311194711
 40
3.25
100
AcDbArc
 50
97.8065550031
 51
120.0
  0
ARC
  5
3C3
100
AcDbEntity
  8
KONSTRUKTIONSELEMENTE
100
AcDbCircle
 62
7
  6
CONTINUOUS
 10
286.4828228929
 20
118.2311194711
 40
3.25
100
AcDbArc
 50
300.0
 51
322.1934449969
  0
ARC
  5
3C4
100
AcDbEntity
  8
KONSTRUKTIONSELEMENTE
100
AcDbCircle
 62
7
  6
CONTINUOUS
 10
279.1216069607
 20
113.9811194711
 40
3.25
100
AcDbArc
 50
253.8837571799
 51
300.0
  0
ARC
  5
3C5
100
AcDbEntity
  8
KONSTRUKTIONSELEMENTE
100
AcDbCircle
 62
7
  6
CONTINUOUS
 10
279.1216069607
 20
113.9811194711
 40
3.25
100
AcDbArc
 50
120.0
 51
166.1162428201
  0
ARC
  5
3C6
100
AcDbEntity
  8
KONSTRUKTIONSELEMENTE
100
AcDbCircle
 62
7
  6
CONTINUOUS
 10
286.2663165419
 20
118.1061194711
 40
3.0
100
AcDbArc
 50
120.0
 51
300.0
  0
ARC
  5
3C7
100
AcDbEntity
  8
KONSTRUKTIONSELEMENTE
100
AcDbCircle
 62
7
  6
CONTINUOUS
 10
278.2555815569
 20
113.4811194711
 40
2.25
100
AcDbArc
 50
300.0
 51
120.0
  0
ARC
  5
3C8
100
AcDbEntity
  8
KONSTRUKTIONSELEMENTE
100
AcDbCircle
 62
7
  6
CONTINUOUS
 10
255.3059083566
 20
100.2311194711
 40
2.25
100
AcDbArc
 50
120.0
 51
300.0
  0
ARC
  5
3C9
100
AcDbEntity
  8
0
100
AcDbCircle
 62
7
  6
CONTINUOUS
 10
324.3922291046
 20
80.9626175945
 40
11.25
100
AcDbArc
 50
192.2268364662
 51
307.7731635338
  0
CIRCLE
  5
3CA
100
AcDbEntity
  8
0
100
AcDbCircle
 62
7
  6
CONTINUOUS
 10
324.3922291046
 20
80.9626175945
 40
4.8
  0
ARC
  5
3CB
100
AcDbEntity
  8
0
100
AcDbCircle
 62
7
  6
CONTINUOUS
 10
369.4660920687
 20
82.788814345
 40
3.0
100
AcDbArc
 50
170.0
 51
200.0
  0
ARC
  5
3CC
100
AcDbEntity
  8
0
100
AcDbCircle
 62
7
  6
CONTINUOUS
 10
364.4067853716
 20
88.6486831528
 40
3.0
100
AcDbArc
 50
350.0
 51
20.0
  0
ARC
  5
3CD
100
AcDbEntity
  8
RUNDUNGEN
100
AcDbCircle
 62
7
  6
CONTINUOUS
 10
318.3314487436
 20
88.4321467098
 40
3.0
100
AcDbArc
 50
129.9999999709
 51
160.0000000483
  0
ARC
  5
3CE
100
AcDbEntity
  8
RUNDUNGEN
100
AcDbCircle
 62
7
  6
CONTINUOUS
 10
315.8246169749
 20
81.5446830307
 40
3.0
100
AcDbArc
 50
160.0
 51
192.2268364662
  0
ARC
  5
3CF
100
AcDbEntity
  8
0
100
AcDbCircle
 62
7
  6
CONTINUOUS
 10
333.8363769866
 20
82.788814345
 40
3.0
100
AcDbArc
 50
340.0
 51
10.0
  0
ARC
  5
3D0
100
AcDbEntity
  8
0
100
AcDbCircle
 62
7
  6
CONTINUOUS
 10
331.3295452178
 20
75.9013506659
 40
3.0
100
AcDbArc
 50
307.7731635338
 51
340.0
  0
ARC
  5
3D1
100
AcDbEntity
  8
0
100
AcDbCircle
 62
7
  6
CONTINUOUS
 10
338.8956716569
 20
88.64875136
 40
2.9999826852
100
AcDbArc
 50
160.001145554
 51
190.0013227566
  0
ARC
  5
3D2
100
AcDbEntity
  8
BEZUGSACHSEN
100
AcDbCircle
 62
7
  6
CONTINUOUS
 10
307.5451350965
 20
97.654492243
 40
66.4584083011
100
AcDbArc
 50
23.4251379638
 51
23.6316615383
  0
ARC
  5
3D3
100
AcDbEntity
  8
KONSTRUKTIONSELEMENTE
100
AcDbCircle
 62
7
  6
CONTINUOUS
 10
306.5234068317
 20
101.3877226201
 40
65.1125189312
100
AcDbArc
 50
19.1226058136
 51
20.2306353977
  0
ARC
  5
3D4
100
AcDbEntity
  8
BEZUGSACHSEN
100
AcDbCircle
 62
7
  6
CONTINUOUS
 10
307.9634077997
 20
102.5112206821
 40
63.6169006009
100
AcDbArc
 50
18.637394232
 51
19.4450504262
  0
ARC
  5
3D5
100
AcDbEntity
  8
BEZUGSACHSEN
100
AcDbCircle
 62
7
  6
CONTINUOUS
 10
309.6496171287
 20
102.834754959
 40
62.0005700776
100
AcDbArc
 50
18.8522067633
 51
19.7734721103
  0
ARC
  5
3D6
100
AcDbEntity
  8
BEZUGSACHSEN
100
AcDbCircle
 62
7
  6
CONTINUOUS
 10
313.843828584
 20
103.5056923597
 40
58.0664572073
100
AcDbArc
 50
18.7710419382
 51
19.2627224982
  0
ARC
  5
3D7
100
AcDbEntity
  8
BEZUGSACHSEN
100
AcDbCircle
 62
7
  6
CONTINUOUS
 10
314.1798435229
 20
103.6229370952
 40
57.7105747297
100
AcDbArc
 50
19.2628918104
 51
19.7579402085
  0
ARC
  5
3D8
100
AcDbEntity
  8
BEZUGSACHSEN
100
AcDbCircle
 62
7
  6
CONTINUOUS
 10
315.6717424533
 20
101.413028903
 40
57.5816941853
100
AcDbArc
 50
22.8134792343
 51
23.0949988956
  0
ARC
  5
3D9
100
AcDbEntity
  8
BEZUGSACHSEN
100
AcDbCircle
 62
7
  6
CONTINUOUS
 10
315.6665034053
 20
103.8242858325
 40
56.3393719691
100
AcDbArc
 50
18.9610774824
 51
19.1878227303
  0
ARC
  5
3DA
100
AcDbEntity
  8
BEZUGSACHSEN
100
AcDbCircle
 62
7
  6
CONTINUOUS
 10
315.8918014759
 20
103.9027876236
 40
56.1007891885
100
AcDbArc
 50
19.1877278286
 51
19.6433844347
  0
ARC
  5
3DB
100
AcDbEntity
  8
BEZUGSACHSEN
100
AcDbCircle
 62
7
  6
CONTINUOUS
 10
321.1582174994
 20
104.6367543562
 40
51.2323926166
100
AcDbArc
 50
18.2385469105
 51
18.590726753
  0
ARC
  5
3DC
100
AcDbEntity
  8
BEZUGSACHSEN
100
AcDbCircle
 62
7
  6
CONTINUOUS
 10
322.1463436416
 20
104.9749538597
 40
50.1879802492
100
AcDbArc
 50
20.0819319418
 51
20.5012040367
  0
ARC
  5
3DD
100
AcDbEntity
  8
BEZUGSACHSEN
100
AcDbCircle
 62
7
  6
CONTINUOUS
 10
323.0899320683
 20
105.643292997
 40
49.1544927137
100
AcDbArc
 50
24.2408774657
 51
24.4207158792
  0
ARC
  5
3DE
100
AcDbEntity
  8
BEZUGSACHSEN
100
AcDbCircle
 62
7
  6
CONTINUOUS
 10
333.1039226358
 20
100.4623367429
 40
43.4722259058
100
AcDbArc
 50
40.0280221327
 51
40.2041340129
  0
ARC
  5
3DF
100
AcDbEntity
  8
KONSTRUKTIONSELEMENTE
100
AcDbCircle
 62
7
  6
CONTINUOUS
 10
318.2224990822
 20
96.1731708251
 40
2.9999826852
100
AcDbArc
 50
309.9986772434
 51
339.998854446
  0
ARC
  5
3E0
100
AcDbEntity
  8
RUNDUNGEN
100
AcDbCircle
 62
7
  6
CONTINUOUS
 10
325.052388568
 20
103.2430212135
 40
1.9999999501
100
AcDbArc
 50
261.536950534
 51
339.999976761
  0
ARC
  5
3E1
100
AcDbEntity
  8
RUNDUNGEN
100
AcDbCircle
 62
7
  6
CONTINUOUS
 10
324.5004953779
 20
99.5338542367
 40
1.75
100
AcDbArc
 50
80.9007810051
 51
160.0
  0
ARC
  5
3E2
100
AcDbEntity
  8
0
100
AcDbCircle
 62
7
  6
CONTINUOUS
 10
336.2466531377
 20
95.2586024451
 40
1.75
100
AcDbArc
 50
340.0
 51
59.0992189949
  0
ARC
  5
3E3
100
AcDbEntity
  8
KONSTRUKTIONSELEMENTE
100
AcDbCircle
 62
7
  6
CONTINUOUS
 10
324.7129819692
 20
110.882580358
 40
44.7724882365
100
AcDbArc
 50
20.6696040897
 51
21.0032769625
  0
ARC
  5
3E4
100
AcDbEntity
  8
KONSTRUKTIONSELEMENTE
100
AcDbCircle
 62
7
  6
CONTINUOUS
 10
324.7117445283
 20
110.8859802973
 40
44.7724882028
100
AcDbArc
 50
18.9967230375
 51
19.3303960695
  0
ARC
  5
3E5
100
AcDbEntity
  8
BEZUGSACHSEN
100
AcDbCircle
 62
7
  6
CONTINUOUS
 10
326.0346032223
 20
111.7810771603
 40
43.4882960949
100
AcDbArc
 50
18.4548878043
 51
18.7984761847
  0
ARC
  5
3E6
100
AcDbEntity
  8
BEZUGSACHSEN
100
AcDbCircle
 62
7
  6
CONTINUOUS
 10
326.4625479474
 20
111.928419226
 40
43.0356966955
100
AcDbArc
 50
20.1848652762
 51
20.5319740259
  0
ARC
  5
3E7
100
AcDbEntity
  8
BEZUGSACHSEN
100
AcDbCircle
 62
7
  6
CONTINUOUS
 10
330.625756507
 20
109.0251440137
 40
40.958302541
100
AcDbArc
 50
23.6213041829
 51
23.9546082293
  0
ARC
  5
3E8
100
AcDbEntity
  8
KONSTRUKTIONSELEMENTE
100
AcDbCircle
 62
7
  6
CONTINUOUS
 10
328.4154532455
 20
112.6894293545
 40
40.7759489
100
AcDbArc
 50
15.9632026174
 51
16.2568411046
  0
ARC
  5
3E9
100
AcDbEntity
  8
BEZUGSACHSEN
100
AcDbCircle
 62
7
  6
CONTINUOUS
 10
328.9134327535
 20
113.3074669096
 40
40.3706045258
100
AcDbArc
 50
15.3383781164
 51
15.6352020098
  0
ARC
  5
3EA
100
AcDbEntity
  8
BEZUGSACHSEN
100
AcDbCircle
 62
7
  6
CONTINUOUS
 10
336.5074968391
 20
112.3198509756
 40
34.2040132541
100
AcDbArc
 50
19.2122699486
 51
19.5034387663
  0
ARC
  5
3EB
100
AcDbEntity
  8
BEZUGSACHSEN
100
AcDbCircle
 62
7
  6
CONTINUOUS
 10
358.1535623685
 20
101.2145616038
 40
24.9800234011
100
AcDbArc
 50
67.0439736732
 51
67.2393158521
  0
ARC
  5
3EC
100
AcDbEntity
  8
BEZUGSACHSEN
100
AcDbCircle
 62
7
  6
CONTINUOUS
 10
347.1816807328
 20
102.5122921099
 40
24.300277048
100
AcDbArc
 50
121.4230977487
 51
121.681515035
  0
ARC
  5
3ED
100
AcDbEntity
  8
BEZUGSACHSEN
100
AcDbCircle
 62
7
  6
CONTINUOUS
 10
356.3526198398
 20
103.7553143691
 40
23.2452632478
100
AcDbArc
 50
57.559671078
 51
57.8317437147
  0
ARC
  5
3EE
100
AcDbEntity
  8
KONSTRUKTIONSELEMENTE
100
AcDbCircle
 62
7
  6
CONTINUOUS
 10
346.3001599931
 20
104.7915005576
 40
21.6993964166
100
AcDbArc
 50
122.1571499908
 51
122.4435963329
  0
ARC
  5
3EF
100
AcDbEntity
  8
KONSTRUKTIONSELEMENTE
100
AcDbCircle
 62
7
  6
CONTINUOUS
 10
357.1289118707
 20
105.7913152956
 40
20.9083428088
100
AcDbArc
 50
56.7921974252
 51
57.0916611295
  0
ARC
  5
3F0
100
AcDbEntity
  8
0
100
AcDbCircle
 62
7
  6
CONTINUOUS
 10
365.0943842027
 20
98.4547384916
 40
2.0
100
AcDbArc
 50
301.5369590328
 51
20.0
  0
ARC
  5
3F1
100
AcDbEntity
  8
0
100
AcDbCircle
 62
7
  6
CONTINUOUS
 10
338.2080850012
 20
98.4547393008
 40
1.9999999501
100
AcDbArc
 50
160.000023239
 51
238.463049466
  0
ARC
  5
3F2
100
AcDbEntity
  8
0
100
AcDbCircle
 62
7
  6
CONTINUOUS
 10
367.0558159176
 20
95.2586024451
 40
1.75
100
AcDbArc
 50
120.9007810051
 51
200.0
  0
ARC
  5
3F3
100
AcDbEntity
  8
BEZUGSACHSEN
100
AcDbCircle
 62
7
  6
CONTINUOUS
 10
369.6776083176
 20
114.5182954845
 40
36.4943215042
100
AcDbArc
 50
171.1295861179
 51
171.3898179169
  0
ARC
  5
3F4
100
AcDbEntity
  8
BEZUGSACHSEN
100
AcDbCircle
 62
7
  6
CONTINUOUS
 10
369.8075294377
 20
114.6738807425
 40
36.4836072876
100
AcDbArc
 50
170.9952834528
 51
171.1253503609
  0
ARC
  5
3F5
100
AcDbEntity
  8
BEZUGSACHSEN
100
AcDbCircle
 62
7
  6
CONTINUOUS
 10
368.3553470385
 20
112.1320826475
 40
35.639473431
100
AcDbArc
 50
160.3758586898
 51
160.8494432399
  0
ARC
  5
3F6
100
AcDbEntity
  8
BEZUGSACHSEN
100
AcDbCircle
 62
7
  6
CONTINUOUS
 10
368.7159378859
 20
117.6767844774
 40
34.5399290954
100
AcDbArc
 50
174.4612711263
 51
174.7761428553
  0
ARC
  5
3F7
100
AcDbEntity
  8
BEZUGSACHSEN
100
AcDbCircle
 62
7
  6
CONTINUOUS
 10
367.0855563668
 20
112.1789438866
 40
34.5248756646
100
AcDbArc
 50
160.3885019922
 51
161.0402929436
  0
ARC
  5
3F8
100
AcDbEntity
  8
BEZUGSACHSEN
100
AcDbCircle
 62
7
  6
CONTINUOUS
 10
366.1897187508
 20
116.2084452204
 40
33.5201364265
100
AcDbArc
 50
175.9764988396
 51
176.3033233317
  0
ARC
  5
3F9
100
AcDbEntity
  8
KONSTRUKTIONSELEMENTE
100
AcDbCircle
 62
7
  6
CONTINUOUS
 10
367.2085255941
 20
117.318000745
 40
32.8690882054
100
AcDbArc
 50
173.6787153732
 51
174.0084597538
  0
ARC
  5
3FA
100
AcDbEntity
  8
BEZUGSACHSEN
100
AcDbCircle
 62
7
  6
CONTINUOUS
 10
340.598498893
 20
118.4815158758
 40
27.9093018715
100
AcDbArc
 50
11.0059102799
 51
11.2211021974
  0
ARC
  5
3FB
100
AcDbEntity
  8
BEZUGSACHSEN
100
AcDbCircle
 62
7
  6
CONTINUOUS
 10
349.2545594871
 20
119.1261076747
 40
19.8219909883
100
AcDbArc
 50
18.4669473387
 51
19.7516709084
  0
ARC
  5
3FC
100
AcDbEntity
  8
BEZUGSACHSEN
100
AcDbCircle
 62
7
  6
CONTINUOUS
 10
353.4910147986
 20
118.8480664314
 40
19.4883783114
100
AcDbArc
 50
161.8108857009
 51
162.1478521841
  0
ARC
  5
3FD
100
AcDbEntity
  8
BEZUGSACHSEN
100
AcDbCircle
 62
7
  6
CONTINUOUS
 10
349.965910864
 20
118.9119449323
 40
19.3214541052
100
AcDbArc
 50
17.4131989879
 51
19.3186284691
  0
ARC
  5
3FE
100
AcDbEntity
  8
BEZUGSACHSEN
100
AcDbCircle
 62
7
  6
CONTINUOUS
 10
353.3139688116
 20
118.9200669706
 40
19.2974579196
100
AcDbArc
 50
161.4270784593
 51
161.8435658327
  0
ARC
  5
3FF
100
AcDbEntity
  8
BEZUGSACHSEN
100
AcDbCircle
 62
7
  6
CONTINUOUS
 10
353.2889940997
 20
118.9142876481
 40
19.2758145359
100
AcDbArc
 50
158.7952803972
 51
159.3788603365
  0
ARC
  5
400
100
AcDbEntity
  8
BEZUGSACHSEN
100
AcDbCircle
 62
7
  6
CONTINUOUS
 10
353.2185896824
 20
118.9521435444
 40
19.1968294735
100
AcDbArc
 50
160.6781143224
 51
161.4271580298
  0
ARC
  5
401
100
AcDbEntity
  8
BEZUGSACHSEN
100
AcDbCircle
 62
7
  6
CONTINUOUS
 10
350.1471908451
 20
118.9742690964
 40
19.129763254
100
AcDbArc
 50
19.3220919013
 51
19.7442066043
  0
ARC
  5
402
100
AcDbEntity
  8
BEZUGSACHSEN
100
AcDbCircle
 62
7
  6
CONTINUOUS
 10
353.1552782102
 20
118.9742690964
 40
19.129763254
100
AcDbArc
 50
160.2557933957
 51
160.6779080987
  0
ARC
  5
403
100
AcDbEntity
  8
BEZUGSACHSEN
100
AcDbCircle
 62
7
  6
CONTINUOUS
 10
346.5765039083
 20
111.3779636862
 40
18.3417490887
100
AcDbArc
 50
123.9654635668
 51
124.2963468162
  0
ARC
  5
404
100
AcDbEntity
  8
KONSTRUKTIONSELEMENTE
100
AcDbCircle
 62
7
  6
CONTINUOUS
 10
342.3518644435
 20
119.6376049346
 40
25.2029541837
100
AcDbArc
 50
18.5155600861
 51
20.2962198765
  0
ARC
  5
405
100
AcDbEntity
  8
BEZUGSACHSEN
100
AcDbCircle
 62
7
  6
CONTINUOUS
 10
343.3279361541
 20
120.2272154703
 40
24.3679252077
100
AcDbArc
 50
17.9466339233
 51
18.741960237
  0
ARC
  5
406
100
AcDbEntity
  8
BEZUGSACHSEN
100
AcDbCircle
 62
7
  6
CONTINUOUS
 10
343.5067604463
 20
120.2878223434
 40
24.1791096458
100
AcDbArc
 50
18.7421124058
 51
19.7969029511
  0
ARC
  5
407
100
AcDbEntity
  8
BEZUGSACHSEN
100
AcDbCircle
 62
7
  6
CONTINUOUS
 10
339.6026404422
 20
125.0178214911
 40
5.4957769392
100
AcDbArc
 50
198.8148799306
 51
199.4108508498
  0
ARC
  5
408
100
AcDbEntity
  8
BEZUGSACHSEN
100
AcDbCircle
 62
7
  6
CONTINUOUS
 10
341.2050241933
 20
127.8839950182
 40
5.0446738017
100
AcDbArc
 50
194.8612365371
 51
195.4774869462
  0
ARC
  5
409
100
AcDbEntity
  8
KONSTRUKTIONSELEMENTE
100
AcDbCircle
 62
7
  6
CONTINUOUS
 10
341.2613735449
 20
127.6240211478
 40
4.8141794144
100
AcDbArc
 50
193.5191682976
 51
194.1546829519
  0
ARC
  5
40A
100
AcDbEntity
  8
BEZUGSACHSEN
100
AcDbCircle
 62
7
  6
CONTINUOUS
 10
336.556303559
 20
121.7328572028
 40
4.7895806633
100
AcDbArc
 50
97.1217919658
 51
97.5947532097
  0
ARC
  5
40B
100
AcDbEntity
  8
0
100
AcDbCircle
 62
7
  6
CONTINUOUS
 10
341.5442838174
 20
123.7017940149
 40
3.5
100
AcDbArc
 50
340.0
 51
350.5
  0
ARC
  5
40C
100
AcDbEntity
  8
KONSTRUKTIONSELEMENTE
100
AcDbCircle
 62
7
  6
CONTINUOUS
 10
321.7733580971
 20
138.6061194711
 40
3.0
100
AcDbArc
 50
300.0
 51
120.0
  0
ARC
  5
40D
100
AcDbEntity
  8
BEZUGSACHSEN
100
AcDbCircle
 62
7
  6
CONTINUOUS
 10
338.652818949
 20
127.6188276095
 40
2.6369772355
100
AcDbArc
 50
196.6575363481
 51
197.1390363463
  0
ARC
  5
40E
100
AcDbEntity
  8
BEZUGSACHSEN
100
AcDbCircle
 62
7
  6
CONTINUOUS
 10
344.2306076832
 20
120.0778990773
 40
23.6653823984
100
AcDbArc
 50
18.3637560688
 51
18.7192530504
  0
ARC
  5
40F
100
AcDbEntity
  8
BEZUGSACHSEN
100
AcDbCircle
 62
7
  6
CONTINUOUS
 10
344.3032331307
 20
120.1025073444
 40
23.5887010941
100
AcDbArc
 50
18.7192560271
 51
19.0759602775
  0
ARC
  5
410
100
AcDbEntity
  8
BEZUGSACHSEN
100
AcDbCircle
 62
7
  6
CONTINUOUS
 10
344.3711806373
 20
120.1260358619
 40
23.5167952257
100
AcDbArc
 50
19.0758877311
 51
19.7916881098
  0
ARC
  5
411
100
AcDbEntity
  8
BEZUGSACHSEN
100
AcDbCircle
 62
7
  6
CONTINUOUS
 10
352.7690770261
 20
126.571545855
 40
19.2524399516
100
AcDbArc
 50
196.5540296799
 51
196.788963384
  0
ARC
  5
412
100
AcDbEntity
  8
BEZUGSACHSEN
100
AcDbCircle
 62
7
  6
CONTINUOUS
 10
352.2478784911
 20
119.3930509235
 40
18.2583762527
100
AcDbArc
 50
167.335063837
 51
167.8196752707
  0
ARC
  5
413
100
AcDbEntity
  8
BEZUGSACHSEN
100
AcDbCircle
 62
7
  6
CONTINUOUS
 10
351.5005256627
 20
119.5899965184
 40
17.7589782368
100
AcDbArc
 50
12.4740177119
 51
12.9683136993
  0
ARC
  5
414
100
AcDbEntity
  8
BEZUGSACHSEN
100
AcDbCircle
 62
7
  6
CONTINUOUS
 10
353.0082573904
 20
122.6698706036
 40
17.2593678359
100
AcDbArc
 50
168.3262213451
 51
168.6936029716
  0
ARC
  5
415
100
AcDbEntity
  8
KONSTRUKTIONSELEMENTE
100
AcDbCircle
 62
7
  6
CONTINUOUS
 10
351.0661640919
 20
125.6260423985
 40
17.179204413
100
AcDbArc
 50
195.5797242296
 51
195.8397967175
  0
ARC
  5
416
100
AcDbEntity
  8
BEZUGSACHSEN
100
AcDbCircle
 62
7
  6
CONTINUOUS
 10
349.8549602622
 20
120.9833570219
 40
15.4452106194
100
AcDbArc
 50
169.7531790848
 51
170.1653971421
  0
ARC
  5
417
100
AcDbEntity
  8
BEZUGSACHSEN
100
AcDbCircle
 62
7
  6
CONTINUOUS
 10
353.8392821338
 20
121.1664325799
 40
14.997735761
100
AcDbArc
 50
10.1242948435
 51
10.439772138
  0
ARC
  5
418
100
AcDbEntity
  8
0
100
AcDbCircle
 62
7
  6
CONTINUOUS
 10
351.6512345277
 20
155.8561194711
 40
55.5
100
AcDbArc
 50
295.1701686694
 51
360.0
  0
ARC
  5
419
100
AcDbEntity
  8
0
100
AcDbCircle
 62
7
  6
CONTINUOUS
 10
351.6512345277
 20
155.8561194711
 40
55.5
100
AcDbArc
 50
255.169338645
 51
284.830661355
  0
ARC
  5
41A
100
AcDbEntity
  8
0
100
AcDbCircle
 62
7
  6
CONTINUOUS
 10
351.6512345277
 20
155.8561194711
 40
55.5
100
AcDbArc
 50
213.0995950807
 51
244.8298313306
  0
ARC
  5
41B
100
AcDbEntity
  8
0
100
AcDbCircle
 62
7
  6
CONTINUOUS
 10
351.6512345277
 20
155.8561194711
 40
55.5
100
AcDbArc
 50
180.0
 51
206.900757044
  0
ARC
  5
41C
100
AcDbEntity
  8
0
100
AcDbCircle
 62
7
  6
CONTINUOUS
 10
351.6512345277
 20
155.8561194711
 40
37.5
100
AcDbArc
 50
297.6650643018
 51
360.0
  0
ARC
  5
41D
100
AcDbEntity
  8
0
100
AcDbCircle
 62
7
  6
CONTINUOUS
 10
351.6512345277
 20
155.8561194711
 40
37.5
100
AcDbArc
 50
257.6640584708
 51
282.3359415292
  0
ARC
  5
41E
100
AcDbEntity
  8
0
100
AcDbCircle
 62
7
  6
CONTINUOUS
 10
351.6512345277
 20
155.8561194711
 40
37.5
100
AcDbArc
 50
214.5897209695
 51
242.3349356982
  0
ARC
  5
41F
100
AcDbEntity
  8
0
100
AcDbCircle
 62
7
  6
CONTINUOUS
 10
351.6512345277
 20
155.8561194711
 40
37.5
100
AcDbArc
 50
180.0
 51
205.4106984507
  0
ARC
  5
420
100
AcDbEntity
  8
BEZUGSACHSEN
100
AcDbCircle
 62
7
  6
CONTINUOUS
 10
352.5099763217
 20
141.935484338
 40
28.8380529786
100
AcDbArc
 50
228.9425026347
 51
229.0769871515
  0
ARC
  5
421
100
AcDbEntity
  8
BEZUGSACHSEN
100
AcDbCircle
 62
7
  6
CONTINUOUS
 10
363.6927195755
 20
120.7021129737
 40
30.1939038946
100
AcDbArc
 50
182.3657058707
 51
182.5563427205
  0
ARC
  5
422
100
AcDbEntity
  8
BEZUGSACHSEN
100
AcDbCircle
 62
7
  6
CONTINUOUS
 10
361.2505620494
 20
121.2736149901
 40
27.1005187979
100
AcDbArc
 50
181.1265479327
 51
181.4067141689
  0
ARC
  5
423
100
AcDbEntity
  8
BEZUGSACHSEN
100
AcDbCircle
 62
7
  6
CONTINUOUS
 10
357.8047450545
 20
127.3238244816
 40
25.8061727425
100
AcDbArc
 50
198.6183592465
 51
198.7531375089
  0
ARC
  5
424
100
AcDbEntity
  8
KONSTRUKTIONSELEMENTE
100
AcDbCircle
 62
7
  6
CONTINUOUS
 10
361.0617047353
 20
119.5820509866
 40
25.3263546476
100
AcDbArc
 50
158.5931723264
 51
160.3697269944
  0
ARC
  5
425
100
AcDbEntity
  8
BEZUGSACHSEN
100
AcDbCircle
 62
7
  6
CONTINUOUS
 10
356.2140927309
 20
126.397077225
 40
24.809362923
100
AcDbArc
 50
198.8786560008
 51
199.0667431051
  0
ARC
  5
426
100
AcDbEntity
  8
BEZUGSACHSEN
100
AcDbCircle
 62
7
  6
CONTINUOUS
 10
359.8974403022
 20
120.2371851174
 40
24.2919065384
100
AcDbArc
 50
160.4352719971
 51
160.8983270197
  0
ARC
  5
427
100
AcDbEntity
  8
BEZUGSACHSEN
100
AcDbCircle
 62
7
  6
CONTINUOUS
 10
359.8790864352
 20
120.2435398255
 40
24.2724843438
100
AcDbArc
 50
159.0447031091
 51
160.434898145
  0
ARC
  5
428
100
AcDbEntity
  8
BEZUGSACHSEN
100
AcDbCircle
 62
7
  6
CONTINUOUS
 10
359.2067313518
 20
120.092291695
 40
23.77127797
100
AcDbArc
 50
160.5955547989
 51
160.9973767696
  0
ARC
  5
429
100
AcDbEntity
  8
BEZUGSACHSEN
100
AcDbCircle
 62
7
  6
CONTINUOUS
 10
359.1694801979
 20
120.105404929
 40
23.7317861313
100
AcDbArc
 50
160.2476292335
 51
160.5955360881
  0
ARC
  5
42A
100
AcDbEntity
  8
BEZUGSACHSEN
100
AcDbCircle
 62
7
  6
CONTINUOUS
 10
359.1636527771
 20
120.1074158543
 40
23.7256221643
100
AcDbArc
 50
159.4967708411
 51
159.872125406
  0
ARC
  5
42B
100
AcDbEntity
  8
BEZUGSACHSEN
100
AcDbCircle
 62
7
  6
CONTINUOUS
 10
357.3083431507
 20
120.7884870935
 40
23.5382495891
100
AcDbArc
 50
180.6626836794
 51
180.9033662639
  0
ARC
  5
42C
100
AcDbEntity
  8
KONSTRUKTIONSELEMENTE
100
AcDbCircle
 62
7
  6
CONTINUOUS
 10
358.032403181
 20
120.7867446441
 40
22.1735982704
100
AcDbArc
 50
165.2110568452
 51
165.6083897435
  0
ARC
  5
42D
100
AcDbEntity
  8
BEZUGSACHSEN
100
AcDbCircle
 62
7
  6
CONTINUOUS
 10
357.0572621907
 20
119.6846746744
 40
22.1274518098
100
AcDbArc
 50
160.265650354
 51
160.6680543484
  0
ARC
  5
42E
100
AcDbEntity
  8
BEZUGSACHSEN
100
AcDbCircle
 62
7
  6
CONTINUOUS
 10
357.045698288
 20
119.6887734309
 40
22.1151830905
100
AcDbArc
 50
159.4601819478
 51
160.2655295361
  0
ARC
  5
42F
100
AcDbEntity
  8
BEZUGSACHSEN
100
AcDbCircle
 62
7
  6
CONTINUOUS
 10
357.4724695041
 20
121.2350433039
 40
21.7844219032
100
AcDbArc
 50
165.9116082765
 51
166.3165415081
  0
ARC
  5
430
100
AcDbEntity
  8
BEZUGSACHSEN
100
AcDbCircle
 62
7
  6
CONTINUOUS
 10
356.2119834376
 20
119.5164589453
 40
21.4853234124
100
AcDbArc
 50
159.8153422614
 51
160.9277801798
  0
ARC
  5
431
100
AcDbEntity
  8
BEZUGSACHSEN
100
AcDbCircle
 62
7
  6
CONTINUOUS
 10
356.2048797057
 20
119.5189513399
 40
21.4777959603
100
AcDbArc
 50
159.4440619015
 51
159.815044028
  0
ARC
  5
432
100
AcDbEntity
  8
BEZUGSACHSEN
100
AcDbCircle
 62
7
  6
CONTINUOUS
 10
360.2050504466
 20
120.2519391989
 40
10.0939915378
100
AcDbArc
 50
51.2013318063
 51
51.4570635526
  0
ARC
  5
433
100
AcDbEntity
  8
BEZUGSACHSEN
100
AcDbCircle
 62
7
  6
CONTINUOUS
 10
359.6635939339
 20
127.8815618848
 40
8.9266845037
100
AcDbArc
 50
335.5570088404
 51
335.9902302234
  0
ARC
  5
434
100
AcDbEntity
  8
KONSTRUKTIONSELEMENTE
100
AcDbCircle
 62
7
  6
CONTINUOUS
 10
360.0793269759
 20
127.3283218845
 40
8.1467562549
100
AcDbArc
 50
336.6884206665
 51
337.1541308401
  0
ARC
  5
435
100
AcDbEntity
  8
KONSTRUKTIONSELEMENTE
100
AcDbCircle
 62
7
  6
CONTINUOUS
 10
358.5029345863
 20
127.0009050802
 40
7.6130040437
100
AcDbArc
 50
10.435587868
 51
11.1110390025
  0
ARC
  5
436
100
AcDbEntity
  8
BEZUGSACHSEN
100
AcDbCircle
 62
7
  6
CONTINUOUS
 10
358.9208805916
 20
127.243844906
 40
7.4389002183
100
AcDbArc
 50
9.5418319393
 51
10.2349133922
  0
ARC
  5
437
100
AcDbEntity
  8
BEZUGSACHSEN
100
AcDbCircle
 62
7
  6
CONTINUOUS
 10
363.6998286131
 20
125.0178214911
 40
5.4957769392
100
AcDbArc
 50
340.5891491502
 51
341.1851200694
  0
ARC
  5
438
100
AcDbEntity
  8
BEZUGSACHSEN
100
AcDbCircle
 62
7
  6
CONTINUOUS
 10
363.9905101571
 20
125.0910317399
 40
5.1276759038
100
AcDbArc
 50
340.4263597968
 51
341.0502928432
  0
ARC
  5
439
100
AcDbEntity
  8
BEZUGSACHSEN
100
AcDbCircle
 62
7
  6
CONTINUOUS
 10
361.66594037
 20
127.7672525854
 40
4.8435847284
100
AcDbArc
 50
3.8071174409
 51
4.4951631466
  0
ARC
  5
43A
100
AcDbEntity
  8
0
100
AcDbCircle
 62
7
  6
CONTINUOUS
 10
361.7581852379
 20
123.7017940149
 40
3.5
100
AcDbArc
 50
189.5
 51
200.0
  0
ARC
  5
43B
100
AcDbEntity
  8
BEZUGSACHSEN
100
AcDbCircle
 62
7
  6
CONTINUOUS
 10
365.5917902804
 20
125.190253636
 40
3.4373120785
100
AcDbArc
 50
78.5067067539
 51
79.106125993
  0
ARC
  5
43C
100
AcDbEntity
  8
0
100
AcDbCircle
 62
7
  6
CONTINUOUS
 10
351.6512345277
 20
215.8561194711
 40
55.5
100
AcDbArc
 50
0.0
 51
180.0
  0
ARC
  5
43D
100
AcDbEntity
  8
0
100
AcDbCircle
 62
7
  6
CONTINUOUS
 10
351.6512345277
 20
215.8561194711
 40
37.5
100
AcDbArc
 50
0.0
 51
180.0
  0
ARC
  5
43E
100
AcDbEntity
  8
BEZUGSACHSEN
100
AcDbCircle
 62
7
  6
CONTINUOUS
 10
450.9405688341
 20
61.2049643557
 40
131.4829308612
100
AcDbArc
 50
153.5130234931
 51
153.6963542404
  0
ARC
  5
43F
100
AcDbEntity
  8
BEZUGSACHSEN
100
AcDbCircle
 62
7
  6
CONTINUOUS
 10
441.9999930731
 20
67.7972291289
 40
120.4906006775
100
AcDbArc
 50
154.4307308175
 51
154.5830478231
  0
ARC
  5
440
100
AcDbEntity
  8
0
100
AcDbCircle
 62
7
  6
CONTINUOUS
 10
378.9102399507
 20
80.9626175945
 40
11.25
100
AcDbArc
 50
232.2268364662
 51
347.7731635338
  0
CIRCLE
  5
441
100
AcDbEntity
  8
0
100
AcDbCircle
 62
7
  6
CONTINUOUS
 10
378.9102399507
 20
80.9626175945
 40
4.5
  0
ARC
  5
442
100
AcDbEntity
  8
RUNDUNGEN
100
AcDbCircle
 62
7
  6
CONTINUOUS
 10
384.9710203117
 20
88.4321467098
 40
3.0
100
AcDbArc
 50
20.0
 51
50.0
  0
ARC
  5
443
100
AcDbEntity
  8
RUNDUNGEN
100
AcDbCircle
 62
7
  6
CONTINUOUS
 10
387.4778520805
 20
81.5446830307
 40
3.0
100
AcDbArc
 50
347.7731635338
 51
20.0
  0
ARC
  5
444
100
AcDbEntity
  8
0
100
AcDbCircle
 62
7
  6
CONTINUOUS
 10
371.9729238375
 20
75.9013506659
 40
3.0
100
AcDbArc
 50
200.0
 51
232.2268364662
  0
ARC
  5
445
100
AcDbEntity
  8
BEZUGSACHSEN
100
AcDbCircle
 62
7
  6
CONTINUOUS
 10
388.0570426362
 20
101.1829991395
 40
58.0654389353
100
AcDbArc
 50
156.8316144626
 51
157.1115229037
  0
ARC
  5
446
100
AcDbEntity
  8
KONSTRUKTIONSELEMENTE
100
AcDbCircle
 62
7
  6
CONTINUOUS
 10
385.0800230289
 20
96.173126306
 40
3.0
100
AcDbArc
 50
200.0
 51
230.0
  0
ARC
  5
447
100
AcDbEntity
  8
RUNDUNGEN
100
AcDbCircle
 62
7
  6
CONTINUOUS
 10
378.2500808937
 20
103.2430204982
 40
2.0
100
AcDbArc
 50
200.0
 51
278.4630409672
  0
ARC
  5
448
100
AcDbEntity
  8
RUNDUNGEN
100
AcDbCircle
 62
7
  6
CONTINUOUS
 10
378.8019736774
 20
99.5338542367
 40
1.75
100
AcDbArc
 50
20.0
 51
99.0992189949
  0
ARC
  5
449
100
AcDbEntity
  8
BEZUGSACHSEN
100
AcDbCircle
 62
7
  6
CONTINUOUS
 10
388.3815229446
 20
105.2332349879
 40
56.6803248195
100
AcDbArc
 50
165.2284216473
 51
165.4331301468
  0
ARC
  5
44A
100
AcDbEntity
  8
BEZUGSACHSEN
100
AcDbCircle
 62
7
  6
CONTINUOUS
 10
385.6855409042
 20
105.8419819493
 40
53.9759658662
100
AcDbArc
 50
164.8131964478
 51
165.0280234798
  0
ARC
  5
44B
100
AcDbEntity
  8
BEZUGSACHSEN
100
AcDbCircle
 62
7
  6
CONTINUOUS
 10
384.3925579552
 20
104.3548055975
 40
53.558621458
100
AcDbArc
 50
164.3381663584
 51
164.6191046024
  0
ARC
  5
44C
100
AcDbEntity
  8
KONSTRUKTIONSELEMENTE
100
AcDbCircle
 62
7
  6
CONTINUOUS
 10
385.8870059369
 20
106.8874300813
 40
53.0968838536
100
AcDbArc
 50
156.4639202543
 51
156.7213131121
  0
ARC
  5
44D
100
AcDbEntity
  8
BEZUGSACHSEN
100
AcDbCircle
 62
7
  6
CONTINUOUS
 10
382.6427034738
 20
106.0093688375
 40
51.3374431455
100
AcDbArc
 50
165.3112428695
 51
165.5372909001
  0
ARC
  5
44E
100
AcDbEntity
  8
BEZUGSACHSEN
100
AcDbCircle
 62
7
  6
CONTINUOUS
 10
383.2832406171
 20
108.3517608359
 40
50.4066771459
100
AcDbArc
 50
156.8277746619
 51
157.0988058862
  0
ARC
  5
44F
100
AcDbEntity
  8
KONSTRUKTIONSELEMENTE
100
AcDbCircle
 62
7
  6
CONTINUOUS
 10
378.7580849353
 20
110.7746213255
 40
44.9678328821
100
AcDbArc
 50
159.8054083172
 51
160.3057929631
  0
ARC
  5
450
100
AcDbEntity
  8
BEZUGSACHSEN
100
AcDbCircle
 62
7
  6
CONTINUOUS
 10
377.2228622196
 20
111.7446972846
 40
43.4579903331
100
AcDbArc
 50
160.3082128725
 51
160.8260074065
  0
ARC
  5
451
100
AcDbEntity
  8
BEZUGSACHSEN
100
AcDbCircle
 62
7
  6
CONTINUOUS
 10
375.9282175219
 20
111.8003106536
 40
42.31704272
100
AcDbArc
 50
160.3165640541
 51
160.8483208359
  0
ARC
  5
452
100
AcDbEntity
  8
BEZUGSACHSEN
100
AcDbCircle
 62
7
  6
CONTINUOUS
 10
374.9654188428
 20
113.6019744892
 40
41.9759385397
100
AcDbArc
 50
172.3809676995
 51
172.494582733
  0
ARC
  5
453
100
AcDbEntity
  8
BEZUGSACHSEN
100
AcDbCircle
 62
7
  6
CONTINUOUS
 10
375.1009680696
 20
111.696309467
 40
41.6699969131
100
AcDbArc
 50
161.3551853342
 51
161.7153045215
  0
ARC
  5
454
100
AcDbEntity
  8
KONSTRUKTIONSELEMENTE
100
AcDbCircle
 62
7
  6
CONTINUOUS
 10
374.3875691134
 20
110.912493698
 40
41.1449890207
100
AcDbArc
 50
160.503808641
 51
161.1873918134
  0
ARC
  5
455
100
AcDbEntity
  8
BEZUGSACHSEN
100
AcDbCircle
 62
7
  6
CONTINUOUS
 10
372.5930180457
 20
109.0619164611
 40
40.8668861405
100
AcDbArc
 50
156.1283519345
 51
156.3789143847
  0
ARC
  5
456
100
AcDbEntity
  8
BEZUGSACHSEN
100
AcDbCircle
 62
7
  6
CONTINUOUS
 10
372.9318435636
 20
111.856303128
 40
39.7188582822
100
AcDbArc
 50
160.8469355523
 51
161.5553992336
  0
ARC
  5
457
100
AcDbEntity
  8
BEZUGSACHSEN
100
AcDbCircle
 62
7
  6
CONTINUOUS
 10
371.5285083223
 20
111.9493473026
 40
38.4629558419
100
AcDbArc
 50
160.8716562815
 51
161.1642834699
  0
ARC
  5
458
100
AcDbEntity
  8
BEZUGSACHSEN
100
AcDbCircle
 62
7
  6
CONTINUOUS
 10
407.019046074
 20
95.3042983709
 40
77.2866407047
100
AcDbArc
 50
156.8544149186
 51
157.0323196197
  0
ARC
  5
459
100
AcDbEntity
  8
BEZUGSACHSEN
100
AcDbCircle
 62
7
  6
CONTINUOUS
 10
405.5959245943
 20
94.3820644762
 40
76.3368605022
100
AcDbArc
 50
160.4618160237
 51
160.6424906544
  0
ARC
  5
45A
100
AcDbEntity
  8
KONSTRUKTIONSELEMENTE
100
AcDbCircle
 62
7
  6
CONTINUOUS
 10
405.4600972311
 20
96.6915468631
 40
74.9750598477
100
AcDbArc
 50
157.0480203075
 51
157.2647616668
  0
ARC
  5
45B
100
AcDbEntity
  8
BEZUGSACHSEN
100
AcDbCircle
 62
7
  6
CONTINUOUS
 10
404.1256628296
 20
94.7509524951
 40
74.892193719
100
AcDbArc
 50
160.470773793
 51
160.6549339661
  0
ARC
  5
45C
100
AcDbEntity
  8
BEZUGSACHSEN
100
AcDbCircle
 62
7
  6
CONTINUOUS
 10
402.1138205523
 20
98.6396159791
 40
71.3961593983
100
AcDbArc
 50
157.4511684973
 51
157.6786997397
  0
ARC
  5
45D
100
AcDbEntity
  8
BEZUGSACHSEN
100
AcDbCircle
 62
7
  6
CONTINUOUS
 10
401.4053869184
 20
98.151897011
 40
71.1598683336
100
AcDbArc
 50
155.3485317342
 51
155.4880085657
  0
ARC
  5
45E
100
AcDbEntity
  8
BEZUGSACHSEN
100
AcDbCircle
 62
7
  6
CONTINUOUS
 10
397.879288283
 20
96.3179620102
 40
68.7547247567
100
AcDbArc
 50
160.5130658311
 51
160.7136671037
  0
ARC
  5
45F
100
AcDbEntity
  8
BEZUGSACHSEN
100
AcDbCircle
 62
7
  6
CONTINUOUS
 10
396.2512449243
 20
97.3850504796
 40
67.020540633
100
AcDbArc
 50
156.3020790523
 51
156.5073487695
  0
ARC
  5
460
100
AcDbEntity
  8
BEZUGSACHSEN
100
AcDbCircle
 62
7
  6
CONTINUOUS
 10
396.0459913641
 20
96.777456603
 40
66.9537009086
100
AcDbArc
 50
160.4754659652
 51
160.7844608278
  0
ARC
  5
461
100
AcDbEntity
  8
BEZUGSACHSEN
100
AcDbCircle
 62
7
  6
CONTINUOUS
 10
396.301475788
 20
102.6893355418
 40
64.5797685555
100
AcDbArc
 50
163.6936927807
 51
163.9264868325
  0
ARC
  5
462
100
AcDbEntity
  8
KONSTRUKTIONSELEMENTE
100
AcDbCircle
 62
7
  6
CONTINUOUS
 10
396.1904761222
 20
102.038140494
 40
64.4473872996
100
AcDbArc
 50
163.1224916634
 51
163.3556207431
  0
ARC
  5
463
100
AcDbEntity
  8
BEZUGSACHSEN
100
AcDbCircle
 62
7
  6
CONTINUOUS
 10
391.1856331235
 20
105.0962001165
 40
59.0995145399
100
AcDbArc
 50
164.7830591408
 51
164.9792504439
  0
ARC
  5
464
100
AcDbEntity
  8
BEZUGSACHSEN
100
AcDbCircle
 62
7
  6
CONTINUOUS
 10
446.3731475942
 20
73.7013171262
 40
121.9713861589
100
AcDbArc
 50
154.7368145099
 51
154.8805510674
  0
ARC
  5
465
100
AcDbEntity
  8
BEZUGSACHSEN
100
AcDbCircle
 62
7
  6
CONTINUOUS
 10
432.5422359493
 20
76.5126642133
 40
108.7925092365
100
AcDbArc
 50
153.9418378343
 51
154.1032021472
  0
ARC
  5
466
100
AcDbEntity
  8
KONSTRUKTIONSELEMENTE
100
AcDbCircle
 62
7
  6
CONTINUOUS
 10
434.4913390341
 20
78.62117071
 40
108.4474006755
100
AcDbArc
 50
157.4145052187
 51
157.5942808279
  0
ARC
  5
467
100
AcDbEntity
  8
BEZUGSACHSEN
100
AcDbCircle
 62
7
  6
CONTINUOUS
 10
433.0759092894
 20
78.7305103845
 40
107.376053807
100
AcDbArc
 50
157.2893301315
 51
157.4387758275
  0
ARC
  5
468
100
AcDbEntity
  8
BEZUGSACHSEN
100
AcDbCircle
 62
7
  6
CONTINUOUS
 10
430.7782922999
 20
81.0389145879
 40
104.3011317274
100
AcDbArc
 50
157.8625695704
 51
158.049433393
  0
ARC
  5
469
100
AcDbEntity
  8
BEZUGSACHSEN
100
AcDbCircle
 62
7
  6
CONTINUOUS
 10
427.2861927449
 20
80.4979528847
 40
101.5889726931
100
AcDbArc
 50
157.0135415702
 51
157.1715367849
  0
ARC
  5
46A
100
AcDbEntity
  8
BEZUGSACHSEN
100
AcDbCircle
 62
7
  6
CONTINUOUS
 10
423.5262212414
 20
81.9581604344
 40
97.5984343266
100
AcDbArc
 50
157.3397642644
 51
157.5041741919
  0
ARC
  5
46B
100
AcDbEntity
  8
BEZUGSACHSEN
100
AcDbCircle
 62
7
  6
CONTINUOUS
 10
417.2186487798
 20
83.9059254201
 40
91.2779175194
100
AcDbArc
 50
157.0402043844
 51
157.2160417615
  0
ARC
  5
46C
100
AcDbEntity
  8
KONSTRUKTIONSELEMENTE
100
AcDbCircle
 62
7
  6
CONTINUOUS
 10
414.7558488515
 20
91.138412682
 40
85.5106449236
100
AcDbArc
 50
159.9193580373
 51
160.0806419627
  0
ARC
  5
46D
100
AcDbEntity
  8
BEZUGSACHSEN
100
AcDbCircle
 62
7
  6
CONTINUOUS
 10
411.0846852977
 20
87.2093671654
 40
84.419832674
100
AcDbArc
 50
157.5342842985
 51
157.7652047776
  0
ARC
  5
46E
100
AcDbEntity
  8
BEZUGSACHSEN
100
AcDbCircle
 62
7
  6
CONTINUOUS
 10
413.3174911467
 20
92.4444789361
 40
83.9242071951
100
AcDbArc
 50
160.4198696101
 51
160.5842086318
  0
ARC
  5
46F
100
AcDbEntity
  8
BEZUGSACHSEN
100
AcDbCircle
 62
7
  6
CONTINUOUS
 10
411.4786494451
 20
92.9059372012
 40
82.1173011611
100
AcDbArc
 50
160.4291508493
 51
160.5971062713
  0
ARC
  5
470
100
AcDbEntity
  8
BEZUGSACHSEN
100
AcDbCircle
 62
7
  6
CONTINUOUS
 10
531.3402393571
 20
22.9241922814
 40
220.6803623657
100
AcDbArc
 50
152.3078305133
 51
152.4217594331
  0
ARC
  5
471
100
AcDbEntity
  8
KONSTRUKTIONSELEMENTE
100
AcDbCircle
 62
7
  6
CONTINUOUS
 10
492.2802103525
 20
47.6788027495
 40
174.6650312926
100
AcDbArc
 50
152.6694744376
 51
152.786682018
  0
ARC
  5
472
100
AcDbEntity
  8
BEZUGSACHSEN
100
AcDbCircle
 62
7
  6
CONTINUOUS
 10
484.3588528848
 20
42.2916963961
 40
169.5402945668
100
AcDbArc
 50
152.5329319417
 51
152.6549063668
  0
ARC
  5
473
100
AcDbEntity
  8
BEZUGSACHSEN
100
AcDbCircle
 62
7
  6
CONTINUOUS
 10
478.0412426474
 20
46.4667517564
 40
161.7658373452
100
AcDbArc
 50
152.9918017874
 51
153.119508671
  0
ARC
  5
474
100
AcDbEntity
  8
BEZUGSACHSEN
100
AcDbCircle
 62
7
  6
CONTINUOUS
 10
479.6915524371
 20
54.7958803694
 40
160.4924221025
100
AcDbArc
 50
152.8760207984
 51
153.0035193956
  0
ARC
  5
475
100
AcDbEntity
  8
KONSTRUKTIONSELEMENTE
100
AcDbCircle
 62
7
  6
CONTINUOUS
 10
476.514318584
 20
49.7766078188
 40
158.6502780156
100
AcDbArc
 50
153.7453937243
 51
153.8972685266
  0
ARC
  5
476
100
AcDbEntity
  8
BEZUGSACHSEN
100
AcDbCircle
 62
7
  6
CONTINUOUS
 10
465.8775143434
 20
56.0666597386
 40
146.5351528389
100
AcDbArc
 50
154.1200452171
 51
154.2843620023
  0
ARC
  5
477
100
AcDbEntity
  8
BEZUGSACHSEN
100
AcDbCircle
 62
7
  6
CONTINUOUS
 10
460.1914904979
 20
55.0142709573
 40
142.1276686762
100
AcDbArc
 50
153.2335342956
 51
153.3788108197
  0
ARC
  5
478
100
AcDbEntity
  8
KONSTRUKTIONSELEMENTE
100
AcDbCircle
 62
7
  6
CONTINUOUS
 10
454.5303936163
 20
69.090051046
 40
131.0607774281
100
AcDbArc
 50
154.4252703974
 51
154.5591076721
  0
ARC
  5
479
100
AcDbEntity
  8
0
100
AcDbCircle
 62
7
  6
CONTINUOUS
 10
-389.6247284755
 20
-248.3834087242
 40
610.7103190157
100
AcDbArc
 50
36.9777840975
 51
38.442484802
  0
ARC
  5
47A
100
AcDbEntity
  8
0
100
AcDbCircle
 62
7
  6
CONTINUOUS
 10
-48.4218209778
 20
-289.2434709505
 40
442.3470208766
100
AcDbArc
 50
71.9410713695
 51
72.8177699883
  0
ARC
  5
47B
100
AcDbEntity
  8
BEZUGSACHSEN
100
AcDbCircle
 62
7
  6
CONTINUOUS
 10
-128.4525497747
 20
-143.7031451174
 40
343.2468809652
100
AcDbArc
 50
51.3241432411
 51
51.4901107987
  0
ARC
  5
47C
100
AcDbEntity
  8
KONSTRUKTIONSELEMENTE
100
AcDbCircle
 62
7
  6
CONTINUOUS
 10
-73.5875578333
 20
-173.6673308008
 40
339.6996519614
100
AcDbArc
 50
62.5316115669
 51
62.6929477024
  0
ARC
  5
47D
100
AcDbEntity
  8
BEZUGSACHSEN
100
AcDbCircle
 62
7
  6
CONTINUOUS
 10
-70.9358373562
 20
-167.5653751344
 40
333.529554157
100
AcDbArc
 50
62.4656621936
 51
62.658361873
  0
ARC
  5
47E
100
AcDbEntity
  8
BEZUGSACHSEN
100
AcDbCircle
 62
7
  6
CONTINUOUS
 10
-67.9066460412
 20
-161.6474574031
 40
326.5000111982
100
AcDbArc
 50
62.4509774693
 51
62.6189536351
  0
ARC
  5
47F
100
AcDbEntity
  8
BEZUGSACHSEN
100
AcDbCircle
 62
7
  6
CONTINUOUS
 10
-100.9346270171
 20
-108.6035417121
 40
296.624963634
100
AcDbArc
 50
51.4561494803
 51
51.5712109514
  0
ARC
  5
480
100
AcDbEntity
  8
BEZUGSACHSEN
100
AcDbCircle
 62
7
  6
CONTINUOUS
 10
73.1428447929
 20
42.7404968531
 40
30.3794852245
100
AcDbArc
 50
94.5154789771
 51
98.4112814543
  0
ARC
  5
481
100
AcDbEntity
  8
0
100
AcDbCircle
 62
7
  6
CONTINUOUS
 10
72.274045333
 20
109.4916058792
 40
10.3746049707
100
AcDbArc
 50
140.6814635438
 51
149.1721255221
  0
ARC
  5
482
100
AcDbEntity
  8
0
100
AcDbCircle
 62
7
  6
CONTINUOUS
 10
72.4461906503
 20
110.1341740258
 40
10.2328787711
100
AcDbArc
 50
143.2685543315
 51
152.7520379799
  0
ARC
  5
483
100
AcDbEntity
  8
BEZUGSACHSEN
100
AcDbCircle
 62
7
  6
CONTINUOUS
 10
72.4456194546
 20
110.1482533758
 40
10.2321826323
100
AcDbArc
 50
143.2684300222
 51
152.823937664
  0
ARC
  5
484
100
AcDbEntity
  8
0
100
AcDbCircle
 62
7
  6
CONTINUOUS
 10
72.0845135883
 20
109.6125084613
 40
10.1498964222
100
AcDbArc
 50
149.2099059605
 51
150.8654189927
  0
ARC
  5
485
100
AcDbEntity
  8
BEZUGSACHSEN
100
AcDbCircle
 62
7
  6
CONTINUOUS
 10
72.2919393522
 20
110.2322816566
 40
10.0570908057
100
AcDbArc
 50
152.8499300429
 51
154.6172474429
  0
ARC
  5
486
100
AcDbEntity
  8
BEZUGSACHSEN
100
AcDbCircle
 62
7
  6
CONTINUOUS
 10
72.2368665148
 20
110.258447987
 40
9.9961179168
100
AcDbArc
 50
154.6174345814
 51
156.2114584989
  0
ARC
  5
487
100
AcDbEntity
  8
BEZUGSACHSEN
100
AcDbCircle
 62
7
  6
CONTINUOUS
 10
72.2329489847
 20
110.409488202
 40
9.9918198301
100
AcDbArc
 50
203.7883226763
 51
205.159549829
  0
ARC
  5
488
100
AcDbEntity
  8
BEZUGSACHSEN
100
AcDbCircle
 62
7
  6
CONTINUOUS
 10
72.2078443218
 20
110.2714002626
 40
9.9643369802
100
AcDbArc
 50
156.2122945392
 51
156.4495629102
  0
ARC
  5
489
100
AcDbEntity
  8
BEZUGSACHSEN
100
AcDbCircle
 62
7
  6
CONTINUOUS
 10
72.0500347496
 20
110.342403563
 40
9.7973579675
100
AcDbArc
 50
180.123953512
 51
203.6909610319
  0
ARC
  5
48A
100
AcDbEntity
  8
BEZUGSACHSEN
100
AcDbCircle
 62
7
  6
CONTINUOUS
 10
72.0491501392
 20
110.3274754123
 40
9.7964628213
100
AcDbArc
 50
156.37936387
 51
179.9568548229
  0
ARC
  5
48B
100
AcDbEntity
  8
KONSTRUKTIONSELEMENTE
100
AcDbCircle
 62
7
  6
CONTINUOUS
 10
48.6403499353
 20
60.0734702769
 40
0.4451039467
100
AcDbArc
 50
323.8940517812
 51
329.159156329
  0
ARC
  5
48C
100
AcDbEntity
  8
0
100
AcDbCircle
 62
7
  6
CONTINUOUS
 10
536.1301086693
 20
-248.3834087265
 40
610.7103190194
100
AcDbArc
 50
141.557515198
 51
143.0222159025
  0
ARC
  5
48D
100
AcDbEntity
  8
BEZUGSACHSEN
100
AcDbCircle
 62
7
  6
CONTINUOUS
 10
393.0001053077
 20
-166.7104432271
 40
443.6071585653
100
AcDbArc
 50
139.0574388232
 51
139.2605204569
  0
ARC
  5
48E
100
AcDbEntity
  8
KONSTRUKTIONSELEMENTE
100
AcDbCircle
 62
7
  6
CONTINUOUS
 10
390.1474849758
 20
-165.1892803669
 40
440.004941928
100
AcDbArc
 50
138.9573759318
 51
139.1112257665
  0
ARC
  5
48F
100
AcDbEntity
  8
BEZUGSACHSEN
100
AcDbCircle
 62
7
  6
CONTINUOUS
 10
384.6137030281
 20
-159.3678721183
 40
432.0637118743
100
AcDbArc
 50
139.0494856881
 51
139.214464047
  0
ARC
  5
490
100
AcDbEntity
  8
0
100
AcDbCircle
 62
7
  6
CONTINUOUS
 10
191.3439809263
 20
-277.9617905137
 40
430.5103256384
100
AcDbArc
 50
107.1701775408
 51
108.0709810976
  0
ARC
  5
491
100
AcDbEntity
  8
BEZUGSACHSEN
100
AcDbCircle
 62
7
  6
CONTINUOUS
 10
364.1727594517
 20
-141.4217462424
 40
403.6720654727
100
AcDbArc
 50
139.0524734828
 51
139.2290867177
  0
ARC
  5
492
100
AcDbEntity
  8
KONSTRUKTIONSELEMENTE
100
AcDbCircle
 62
7
  6
CONTINUOUS
 10
361.9325083755
 20
-140.4150441473
 40
400.7901326083
100
AcDbArc
 50
138.9711055805
 51
139.1213946257
  0
ARC
  5
493
100
AcDbEntity
  8
BEZUGSACHSEN
100
AcDbCircle
 62
7
  6
CONTINUOUS
 10
356.3048423219
 20
-134.5095256968
 40
392.7228698429
100
AcDbArc
 50
139.0730235347
 51
139.2354957877
  0
ARC
  5
494
100
AcDbEntity
  8
KONSTRUKTIONSELEMENTE
100
AcDbCircle
 62
7
  6
CONTINUOUS
 10
219.3379602735
 20
-173.1500185904
 40
338.8169313763
100
AcDbArc
 50
117.2766946804
 51
117.4727357435
  0
ARC
  5
495
100
AcDbEntity
  8
BEZUGSACHSEN
100
AcDbCircle
 62
7
  6
CONTINUOUS
 10
218.3794115086
 20
-170.3105146895
 40
336.3982039435
100
AcDbArc
 50
117.3525935557
 51
117.6261080559
  0
ARC
  5
496
100
AcDbEntity
  8
BEZUGSACHSEN
100
AcDbCircle
 62
7
  6
CONTINUOUS
 10
213.9423107752
 20
-161.6406672566
 40
326.2012312877
100
AcDbArc
 50
117.3529973912
 51
117.5644869261
  0
ARC
  5
497
100
AcDbEntity
  8
BEZUGSACHSEN
100
AcDbCircle
 62
7
  6
CONTINUOUS
 10
73.4026105035
 20
43.094241528
 40
30.0236859263
100
AcDbArc
 50
81.5656256514
 51
85.5076139172
  0
ARC
  5
498
100
AcDbEntity
  8
KONSTRUKTIONSELEMENTE
100
AcDbCircle
 62
7
  6
CONTINUOUS
 10
73.2526900954
 20
43.9410464271
 40
28.0
100
AcDbArc
 50
99.3520350576
 51
113.0148810251
  0
ARC
  5
499
100
AcDbEntity
  8
KONSTRUKTIONSELEMENTE
100
AcDbCircle
 62
7
  6
CONTINUOUS
 10
73.2526900954
 20
43.9410464271
 40
28.0
100
AcDbArc
 50
66.9851189749
 51
80.6479649424
  0
ARC
  5
49A
100
AcDbEntity
  8
0
100
AcDbCircle
 62
7
  6
CONTINUOUS
 10
74.2722802825
 20
109.5207819483
 40
10.3244655089
100
AcDbArc
 50
30.8101387341
 51
39.3133096849
  0
ARC
  5
49B
100
AcDbEntity
  8
0
100
AcDbCircle
 62
7
  6
CONTINUOUS
 10
74.0591895406
 20
110.1341740258
 40
10.2328787711
100
AcDbArc
 50
27.2479620201
 51
36.7314456685
  0
ARC
  5
49C
100
AcDbEntity
  8
BEZUGSACHSEN
100
AcDbCircle
 62
7
  6
CONTINUOUS
 10
74.0597607363
 20
110.1482533758
 40
10.2321826323
100
AcDbArc
 50
27.176062336
 51
36.7315699778
  0
ARC
  5
49D
100
AcDbEntity
  8
0
100
AcDbCircle
 62
7
  6
CONTINUOUS
 10
74.4307421336
 20
109.6170964673
 40
10.1390358125
100
AcDbArc
 50
28.7022554973
 51
30.8013331262
  0
ARC
  5
49E
100
AcDbEntity
  8
BEZUGSACHSEN
100
AcDbCircle
 62
7
  6
CONTINUOUS
 10
74.2134408388
 20
110.2322816567
 40
10.0570908056
100
AcDbArc
 50
25.3827525571
 51
27.1500699571
  0
ARC
  5
49F
100
AcDbEntity
  8
BEZUGSACHSEN
100
AcDbCircle
 62
7
  6
CONTINUOUS
 10
74.2685136761
 20
110.258447987
 40
9.9961179167
100
AcDbArc
 50
23.7885415011
 51
25.3825654186
  0
ARC
  5
4A0
100
AcDbEntity
  8
BEZUGSACHSEN
100
AcDbCircle
 62
7
  6
CONTINUOUS
 10
74.2734762843
 20
110.4090174854
 40
9.9906736721
100
AcDbArc
 50
334.8998209523
 51
336.2117299927
  0
ARC
  5
4A1
100
AcDbEntity
  8
BEZUGSACHSEN
100
AcDbCircle
 62
7
  6
CONTINUOUS
 10
74.2973205368
 20
110.3983991528
 40
9.9645721848
100
AcDbArc
 50
336.2122960971
 51
336.3806031459
  0
ARC
  5
4A2
100
AcDbEntity
  8
BEZUGSACHSEN
100
AcDbCircle
 62
7
  6
CONTINUOUS
 10
74.2975503921
 20
110.2714066408
 40
9.9643211184
100
AcDbArc
 50
23.5457959485
 51
23.7877055844
  0
ARC
  5
4A3
100
AcDbEntity
  8
BEZUGSACHSEN
100
AcDbCircle
 62
7
  6
CONTINUOUS
 10
74.4553546632
 20
110.3424023172
 40
9.7973487429
100
AcDbArc
 50
336.3103558023
 51
359.876053657
  0
ARC
  5
4A4
100
AcDbEntity
  8
BEZUGSACHSEN
100
AcDbCircle
 62
7
  6
CONTINUOUS
 10
74.4562625672
 20
110.3274797509
 40
9.7964303025
100
AcDbArc
 50
0.0431199457
 51
23.6159686604
  0
ARC
  5
4A5
100
AcDbEntity
  8
0
100
AcDbCircle
 62
7
  6
CONTINUOUS
 10
73.2526900954
 20
262.3561194711
 40
9.0
100
AcDbArc
 50
0.0
 51
180.0
  0
ARC
  5
4A6
100
AcDbEntity
  8
0
100
AcDbCircle
 62
7
  6
CONTINUOUS
 10
73.2526900954
 20
109.3561194711
 40
9.0
100
AcDbArc
 50
180.0
 51
243.8092736179
  0
ARC
  5
4A7
100
AcDbEntity
  8
0
100
AcDbCircle
 62
7
  6
CONTINUOUS
 10
73.2526900954
 20
109.3561194711
 40
9.0
100
AcDbArc
 50
296.1907263821
 51
360.0
  0
ARC
  5
4A8
100
AcDbEntity
  8
0
100
AcDbCircle
 62
7
  6
CONTINUOUS
 10
96.4717930492
 20
85.0882175771
 40
3.2191029625
100
AcDbArc
 50
173.175646888
 51
180.0042245251
  0
ARC
  5
4A9
100
AcDbEntity
  8
0
100
AcDbCircle
 62
7
  6
CONTINUOUS
 10
96.4388014461
 20
85.0916130393
 40
3.18594168
100
AcDbArc
 50
171.825283476
 51
173.1657763152
  0
ARC
  5
4AA
100
AcDbEntity
  8
0
100
AcDbCircle
 62
7
  6
CONTINUOUS
 10
96.3928445095
 20
85.0986103837
 40
3.1394567654
100
AcDbArc
 50
168.0217954259
 51
171.8324289701
  0
ARC
  5
4AB
100
AcDbEntity
  8
0
100
AcDbCircle
 62
7
  6
CONTINUOUS
 10
96.3509135309
 20
85.1070286898
 40
3.0966916693
100
AcDbArc
 50
167.7946611924
 51
168.0131488259
  0
ARC
  5
4AC
100
AcDbEntity
  8
KONSTRUKTIONSELEMENTE
100
AcDbCircle
 62
7
  6
CONTINUOUS
 10
73.2526900954
 20
67.7311194711
 40
2.5
100
AcDbArc
 50
180.0
 51
360.0
  0
ARC
  5
4AD
100
AcDbEntity
  8
KONSTRUKTIONSELEMENTE
100
AcDbCircle
 62
7
  6
CONTINUOUS
 10
73.2526900954
 20
86.3561194711
 40
2.25
100
AcDbArc
 50
180.0
 51
195.3530546976
  0
ARC
  5
4AE
100
AcDbEntity
  8
KONSTRUKTIONSELEMENTE
100
AcDbCircle
 62
7
  6
CONTINUOUS
 10
73.2526900954
 20
86.3561194711
 40
2.25
100
AcDbArc
 50
344.6469453024
 51
360.0
  0
ARC
  5
4AF
100
AcDbEntity
  8
BEZUGSACHSEN
100
AcDbCircle
 62
7
  6
CONTINUOUS
 10
88.1407057175
 20
84.4660721814
 40
1.5620953855
100
AcDbArc
 50
8.0482454837
 51
15.8969321236
  0
ARC
  5
4B0
100
AcDbEntity
  8
BEZUGSACHSEN
100
AcDbCircle
 62
7
  6
CONTINUOUS
 10
87.7646744734
 20
84.4660721814
 40
1.5620953855
100
AcDbArc
 50
164.1030678764
 51
171.9517545163
  0
LINE
  5
4B1
100
AcDbEntity
  8
BEZUGSACHSEN
100
AcDbLine
 62
7
  6
CONTINUOUS
 10
368.8687204862
 20
123.39618451
 11
368.8771436405
 21
123.3585161549
  0
LINE
  5
4B2
100
AcDbEntity
  8
BEZUGSACHSEN
100
AcDbLine
 62
7
  6
CONTINUOUS
 10
368.8771436405
 20
123.3585161549
 11
368.8854879238
 21
123.3208241934
  0
LINE
  5
4B3
100
AcDbEntity
  8
BEZUGSACHSEN
100
AcDbLine
 62
7
  6
CONTINUOUS
 10
368.8854879238
 20
123.3208241934
 11
368.8937537779
 21
123.2831087743
  0
LINE
  5
4B4
100
AcDbEntity
  8
BEZUGSACHSEN
100
AcDbLine
 62
7
  6
CONTINUOUS
 10
368.8937537779
 20
123.2831087743
 11
368.9019416495
 21
123.2453700467
  0
LINE
  5
4B5
100
AcDbEntity
  8
BEZUGSACHSEN
100
AcDbLine
 62
7
  6
CONTINUOUS
 10
368.8366937053
 20
123.4889799123
 11
368.8687204862
 21
123.39618451
  0
LINE
  5
4B6
100
AcDbEntity
  8
BEZUGSACHSEN
100
AcDbLine
 62
7
  6
CONTINUOUS
 10
368.6280367699
 20
124.0279572461
 11
368.6558893863
 21
123.9627626125
  0
LINE
  5
4B7
100
AcDbEntity
  8
BEZUGSACHSEN
100
AcDbLine
 62
7
  6
CONTINUOUS
 10
368.6558893863
 20
123.9627626125
 11
368.6836684393
 21
123.8975206852
  0
LINE
  5
4B8
100
AcDbEntity
  8
BEZUGSACHSEN
100
AcDbLine
 62
7
  6
CONTINUOUS
 10
368.6836684393
 20
123.8975206852
 11
368.7113735441
 21
123.8322313078
  0
LINE
  5
4B9
100
AcDbEntity
  8
BEZUGSACHSEN
100
AcDbLine
 62
7
  6
CONTINUOUS
 10
368.7113735441
 20
123.8322313078
 11
368.739004322
 21
123.7668943284
  0
LINE
  5
4BA
100
AcDbEntity
  8
BEZUGSACHSEN
100
AcDbLine
 62
7
  6
CONTINUOUS
 10
368.4938296632
 20
124.3033973106
 11
368.527543637
 21
124.2343889031
  0
LINE
  5
4BB
100
AcDbEntity
  8
BEZUGSACHSEN
100
AcDbLine
 62
7
  6
CONTINUOUS
 10
368.527543637
 20
124.2343889031
 11
368.5611495832
 21
124.1654794726
  0
LINE
  5
4BC
100
AcDbEntity
  8
BEZUGSACHSEN
100
AcDbLine
 62
7
  6
CONTINUOUS
 10
368.5611495832
 20
124.1654794726
 11
368.5946473458
 21
124.0966689447
  0
LINE
  5
4BD
100
AcDbEntity
  8
BEZUGSACHSEN
100
AcDbLine
 62
7
  6
CONTINUOUS
 10
368.5946473458
 20
124.0966689447
 11
368.6280367699
 21
124.0279572461
  0
LINE
  5
4BE
100
AcDbEntity
  8
BEZUGSACHSEN
100
AcDbLine
 62
7
  6
CONTINUOUS
 10
368.3791052537
 20
124.51570635
 11
368.4421240659
 21
124.399147497
  0
LINE
  5
4BF
100
AcDbEntity
  8
BEZUGSACHSEN
100
AcDbLine
 62
7
  6
CONTINUOUS
 10
368.4421240659
 20
124.399147497
 11
368.4938296632
 21
124.3033973106
  0
LINE
  5
4C0
100
AcDbEntity
  8
BEZUGSACHSEN
100
AcDbLine
 62
7
  6
CONTINUOUS
 10
367.9842013871
 20
125.8863761119
 11
368.001894467
 21
125.8405988962
  0
LINE
  5
4C1
100
AcDbEntity
  8
BEZUGSACHSEN
100
AcDbLine
 62
7
  6
CONTINUOUS
 10
368.001894467
 20
125.8405988962
 11
368.0194722673
 21
125.7947736322
  0
LINE
  5
4C2
100
AcDbEntity
  8
BEZUGSACHSEN
100
AcDbLine
 62
7
  6
CONTINUOUS
 10
368.0194722673
 20
125.7947736322
 11
368.0542814558
 21
125.7029787476
  0
LINE
  5
4C3
100
AcDbEntity
  8
BEZUGSACHSEN
100
AcDbLine
 62
7
  6
CONTINUOUS
 10
367.9842013871
 20
125.8863761119
 11
367.9600318448
 21
125.9251549143
  0
LINE
  5
4C4
100
AcDbEntity
  8
BEZUGSACHSEN
100
AcDbLine
 62
7
  6
CONTINUOUS
 10
367.9600318448
 20
125.9251549143
 11
367.9338788094
 21
125.9671159359
  0
LINE
  5
4C5
100
AcDbEntity
  8
BEZUGSACHSEN
100
AcDbLine
 62
7
  6
CONTINUOUS
 10
367.9338788094
 20
125.9671159359
 11
367.7310016162
 21
126.2926139047
  0
LINE
  5
4C6
100
AcDbEntity
  8
BEZUGSACHSEN
100
AcDbLine
 62
7
  6
CONTINUOUS
 10
367.7310016162
 20
126.2926139047
 11
367.6769406574
 21
126.3793478622
  0
LINE
  5
4C7
100
AcDbEntity
  8
BEZUGSACHSEN
100
AcDbLine
 62
7
  6
CONTINUOUS
 10
367.6769406574
 20
126.3793478622
 11
367.5973804464
 21
126.5069907283
  0
LINE
  5
4C8
100
AcDbEntity
  8
BEZUGSACHSEN
100
AcDbLine
 62
7
  6
CONTINUOUS
 10
367.5973804464
 20
126.5069907283
 11
367.5706598196
 21
126.5498597455
  0
LINE
  5
4C9
100
AcDbEntity
  8
BEZUGSACHSEN
100
AcDbLine
 62
7
  6
CONTINUOUS
 10
368.1006789546
 20
125.2690165251
 11
368.0398681324
 21
125.3667231829
  0
LINE
  5
4CA
100
AcDbEntity
  8
BEZUGSACHSEN
100
AcDbLine
 62
7
  6
CONTINUOUS
 10
368.0398681324
 20
125.3667231829
 11
367.7672367407
 21
125.8047361615
  0
LINE
  5
4CB
100
AcDbEntity
  8
BEZUGSACHSEN
100
AcDbLine
 62
7
  6
CONTINUOUS
 10
367.7672367407
 20
125.8047361615
 11
367.7560280899
 21
125.8227430296
  0
LINE
  5
4CC
100
AcDbEntity
  8
BEZUGSACHSEN
100
AcDbLine
 62
7
  6
CONTINUOUS
 10
367.7560280899
 20
125.8227430296
 11
366.9408423998
 21
127.1321502475
  0
LINE
  5
4CD
100
AcDbEntity
  8
BEZUGSACHSEN
100
AcDbLine
 62
7
  6
CONTINUOUS
 10
366.9408423998
 20
127.1321502475
 11
366.6908421681
 21
127.5336479292
  0
LINE
  5
4CE
100
AcDbEntity
  8
BEZUGSACHSEN
100
AcDbLine
 62
7
  6
CONTINUOUS
 10
366.2766858078
 20
128.5586408527
 11
366.3058115005
 21
128.5242148165
  0
LINE
  5
4CF
100
AcDbEntity
  8
BEZUGSACHSEN
100
AcDbLine
 62
7
  6
CONTINUOUS
 10
366.3919092191
 20
128.4220287018
 11
366.5298707511
 21
128.2242380765
  0
LINE
  5
4D0
100
AcDbEntity
  8
BEZUGSACHSEN
100
AcDbLine
 62
7
  6
CONTINUOUS
 10
366.5298707511
 20
128.2242380765
 11
366.5547576308
 21
128.1858337893
  0
LINE
  5
4D1
100
AcDbEntity
  8
BEZUGSACHSEN
100
AcDbLine
 62
7
  6
CONTINUOUS
 10
366.5547576308
 20
128.1858337893
 11
366.5775583539
 21
128.1506466725
  0
LINE
  5
4D2
100
AcDbEntity
  8
BEZUGSACHSEN
100
AcDbLine
 62
7
  6
CONTINUOUS
 10
366.5775583539
 20
128.1506466725
 11
366.6250931498
 21
128.0772822999
  0
LINE
  5
4D3
100
AcDbEntity
  8
BEZUGSACHSEN
100
AcDbLine
 62
7
  6
CONTINUOUS
 10
366.6250931498
 20
128.0772822999
 11
366.6753988679
 21
127.9996316139
  0
LINE
  5
4D4
100
AcDbEntity
  8
BEZUGSACHSEN
100
AcDbLine
 62
7
  6
CONTINUOUS
 10
366.6753988679
 20
127.9996316139
 11
366.7197041839
 21
127.9312345756
  0
LINE
  5
4D5
100
AcDbEntity
  8
BEZUGSACHSEN
100
AcDbLine
 62
7
  6
CONTINUOUS
 10
366.7197041839
 20
127.9312345756
 11
366.8213381157
 21
127.7681252661
  0
LINE
  5
4D6
100
AcDbEntity
  8
BEZUGSACHSEN
100
AcDbLine
 62
7
  6
CONTINUOUS
 10
366.8213381157
 20
127.7681252661
 11
366.871972942
 21
127.6868620553
  0
LINE
  5
4D7
100
AcDbEntity
  8
BEZUGSACHSEN
100
AcDbLine
 62
7
  6
CONTINUOUS
 10
366.871972942
 20
127.6868620553
 11
367.3243425303
 21
126.9608321219
  0
LINE
  5
4D8
100
AcDbEntity
  8
BEZUGSACHSEN
100
AcDbLine
 62
7
  6
CONTINUOUS
 10
367.5376736538
 20
126.6069268297
 11
367.3243425303
 21
126.9608321219
  0
LINE
  5
4D9
100
AcDbEntity
  8
BEZUGSACHSEN
100
AcDbLine
 62
7
  6
CONTINUOUS
 10
367.7223794434
 20
126.2872399252
 11
367.6764958234
 21
126.3666850311
  0
LINE
  5
4DA
100
AcDbEntity
  8
BEZUGSACHSEN
100
AcDbLine
 62
7
  6
CONTINUOUS
 10
367.6764958234
 20
126.3666850311
 11
367.5376736538
 21
126.6069268297
  0
LINE
  5
4DB
100
AcDbEntity
  8
BEZUGSACHSEN
100
AcDbLine
 62
7
  6
CONTINUOUS
 10
367.9300088286
 20
125.9064420813
 11
367.8786861946
 21
126.0007217047
  0
LINE
  5
4DC
100
AcDbEntity
  8
BEZUGSACHSEN
100
AcDbLine
 62
7
  6
CONTINUOUS
 10
367.8786861946
 20
126.0007217047
 11
367.7223794434
 21
126.2872399252
  0
LINE
  5
4DD
100
AcDbEntity
  8
BEZUGSACHSEN
100
AcDbLine
 62
7
  6
CONTINUOUS
 10
368.0562140516
 20
125.6547379666
 11
367.9933182836
 21
125.780415683
  0
LINE
  5
4DE
100
AcDbEntity
  8
BEZUGSACHSEN
100
AcDbLine
 62
7
  6
CONTINUOUS
 10
367.9933182836
 20
125.780415683
 11
367.9300088286
 21
125.9064420813
  0
LINE
  5
4DF
100
AcDbEntity
  8
BEZUGSACHSEN
100
AcDbLine
 62
7
  6
CONTINUOUS
 10
368.1169001485
 20
124.9671437556
 11
368.0515679378
 21
125.0713180572
  0
LINE
  5
4E0
100
AcDbEntity
  8
BEZUGSACHSEN
100
AcDbLine
 62
7
  6
CONTINUOUS
 10
368.0515679378
 20
125.0713180572
 11
367.9663516122
 21
125.2071890712
  0
LINE
  5
4E1
100
AcDbEntity
  8
BEZUGSACHSEN
100
AcDbLine
 62
7
  6
CONTINUOUS
 10
367.9663516122
 20
125.2071890712
 11
367.9159059052
 21
125.2876161991
  0
LINE
  5
4E2
100
AcDbEntity
  8
BEZUGSACHSEN
100
AcDbLine
 62
7
  6
CONTINUOUS
 10
368.2959155277
 20
124.6619084575
 11
368.2514546687
 21
124.7377505377
  0
LINE
  5
4E3
100
AcDbEntity
  8
BEZUGSACHSEN
100
AcDbLine
 62
7
  6
CONTINUOUS
 10
368.2514546687
 20
124.7377505377
 11
368.1169001485
 21
124.9671437556
  0
LINE
  5
4E4
100
AcDbEntity
  8
BEZUGSACHSEN
100
AcDbLine
 62
7
  6
CONTINUOUS
 10
368.5048059694
 20
124.2750649984
 11
368.3064359234
 21
124.6424662761
  0
LINE
  5
4E5
100
AcDbEntity
  8
BEZUGSACHSEN
100
AcDbLine
 62
7
  6
CONTINUOUS
 10
368.3064359234
 20
124.6424662761
 11
368.2959155277
 21
124.6619084575
  0
LINE
  5
4E6
100
AcDbEntity
  8
BEZUGSACHSEN
100
AcDbLine
 62
7
  6
CONTINUOUS
 10
369.0208806283
 20
121.919463721
 11
368.9617774655
 21
122.0927998965
  0
LINE
  5
4E7
100
AcDbEntity
  8
BEZUGSACHSEN
100
AcDbLine
 62
7
  6
CONTINUOUS
 10
368.9617774655
 20
122.0927998965
 11
368.9488742536
 21
122.1303993101
  0
LINE
  5
4E8
100
AcDbEntity
  8
BEZUGSACHSEN
100
AcDbLine
 62
7
  6
CONTINUOUS
 10
368.5545802046
 20
123.1484493846
 11
368.8620097928
 21
122.8441996273
  0
LINE
  5
4E9
100
AcDbEntity
  8
BEZUGSACHSEN
100
AcDbLine
 62
7
  6
CONTINUOUS
 10
368.8620097928
 20
122.8441996273
 11
369.1556596118
 21
122.5521428702
  0
LINE
  5
4EA
100
AcDbEntity
  8
BEZUGSACHSEN
100
AcDbLine
 62
7
  6
CONTINUOUS
 10
368.4160894606
 20
123.4359416368
 11
368.2376907273
 21
123.7485933179
  0
LINE
  5
4EB
100
AcDbEntity
  8
BEZUGSACHSEN
100
AcDbLine
 62
7
  6
CONTINUOUS
 10
368.2376907273
 20
123.7485933179
 11
368.2286788855
 21
123.7643678489
  0
LINE
  5
4EC
100
AcDbEntity
  8
BEZUGSACHSEN
100
AcDbLine
 62
7
  6
CONTINUOUS
 10
368.3534463592
 20
124.0596432644
 11
367.7855513335
 21
124.9163525712
  0
LINE
  5
4ED
100
AcDbEntity
  8
BEZUGSACHSEN
100
AcDbLine
 62
7
  6
CONTINUOUS
 10
367.7855513335
 20
124.9163525712
 11
367.7599606123
 21
124.9549532628
  0
LINE
  5
4EE
100
AcDbEntity
  8
BEZUGSACHSEN
100
AcDbLine
 62
7
  6
CONTINUOUS
 10
367.7599606123
 20
124.9549532628
 11
367.3423988156
 21
125.5847474556
  0
LINE
  5
4EF
100
AcDbEntity
  8
BEZUGSACHSEN
100
AcDbLine
 62
7
  6
CONTINUOUS
 10
367.3423988156
 20
125.5847474556
 11
367.2031392612
 21
125.794768239
  0
LINE
  5
4F0
100
AcDbEntity
  8
BEZUGSACHSEN
100
AcDbLine
 62
7
  6
CONTINUOUS
 10
368.2286788855
 20
123.7643678489
 11
368.1698415703
 21
123.8565564139
  0
LINE
  5
4F1
100
AcDbEntity
  8
BEZUGSACHSEN
100
AcDbLine
 62
7
  6
CONTINUOUS
 10
368.1698415703
 20
123.8565564139
 11
368.1107458956
 21
123.9491323738
  0
LINE
  5
4F2
100
AcDbEntity
  8
BEZUGSACHSEN
100
AcDbLine
 62
7
  6
CONTINUOUS
 10
368.3534463592
 20
124.0596432644
 11
368.4879656211
 21
123.8769349517
  0
LINE
  5
4F3
100
AcDbEntity
  8
BEZUGSACHSEN
100
AcDbLine
 62
7
  6
CONTINUOUS
 10
368.4879656211
 20
123.8769349517
 11
368.5714050153
 21
123.7913537528
  0
LINE
  5
4F4
100
AcDbEntity
  8
BEZUGSACHSEN
100
AcDbLine
 62
7
  6
CONTINUOUS
 10
367.9778335951
 20
124.1298987692
 11
368.1107458956
 21
123.9491323738
  0
LINE
  5
4F5
100
AcDbEntity
  8
BEZUGSACHSEN
100
AcDbLine
 62
7
  6
CONTINUOUS
 10
367.8963844913
 20
124.2162786311
 11
367.9778335951
 21
124.1298987692
  0
LINE
  5
4F6
100
AcDbEntity
  8
BEZUGSACHSEN
100
AcDbLine
 62
7
  6
CONTINUOUS
 10
369.717304932
 20
120.9699439081
 11
369.0208806283
 21
121.919463721
  0
LINE
  5
4F7
100
AcDbEntity
  8
BEZUGSACHSEN
100
AcDbLine
 62
7
  6
CONTINUOUS
 10
368.8218480317
 20
122.1907353143
 11
368.3359147623
 21
122.8528957779
  0
LINE
  5
4F8
100
AcDbEntity
  8
BEZUGSACHSEN
100
AcDbLine
 62
7
  6
CONTINUOUS
 10
368.3359147623
 20
122.8528957779
 11
368.324180584
 21
122.8688831725
  0
LINE
  5
4F9
100
AcDbEntity
  8
BEZUGSACHSEN
100
AcDbLine
 62
7
  6
CONTINUOUS
 10
366.7644712749
 20
127.0223307855
 11
366.9048385154
 21
126.8108656059
  0
LINE
  5
4FA
100
AcDbEntity
  8
BEZUGSACHSEN
100
AcDbLine
 62
7
  6
CONTINUOUS
 10
366.9048385154
 20
126.8108656059
 11
367.9159059052
 21
125.2876161991
  0
SPLINE
  5
4FB
100
AcDbEntity
  8
0
100
AcDbSpline
 62
7
  6
CONTINUOUS
 70
0
 71
3
 72
9
 73
5
 74
0
 42
0.0000001
 43
0.0000001
 44
0.0000000001
 40
0.0
 40
0.0
 40
0.0
 40
0.0
 40
0.5000019527
 40
1.0
 40
1.0
 40
1.0
 40
1.0
 10
368.1940142433
 20
118.9620937675
 30
0.0
 10
369.0196715355
 20
117.0429030508
 30
0.0
 10
370.5940021369
 20
113.1707027073
 30
0.0
 10
371.9857850767
 20
109.2289711928
 30
0.0
 10
372.6368263678
 20
107.243755834
 30
0.0
  0
SPLINE
  5
4FC
100
AcDbEntity
  8
0
100
AcDbSpline
 62
7
  6
CONTINUOUS
 70
0
 71
3
 72
11
 73
7
 74
0
 42
0.0000001
 43
0.0000001
 44
0.0000000001
 40
0.0
 40
0.0
 40
0.0
 40
0.0
 40
0.2500561064
 40
0.5000000001
 40
0.7499438939
 40
1.0
 40
1.0
 40
1.0
 40
1.0
 10
363.6987484853
 20
131.3127349319
 30
0.0
 10
364.1455631912
 20
130.3114966731
 30
0.0
 10
365.0070958547
 20
128.2950014203
 30
0.0
 10
366.1897706854
 20
125.2260008163
 30
0.0
 10
367.2565047668
 20
122.1148012317
 30
0.0
 10
367.892710619
 20
120.0162937276
 30
0.0
 10
368.1940142433
 20
118.9620937675
 30
0.0
  0
SPLINE
  5
4FD
100
AcDbEntity
  8
0
100
AcDbSpline
 62
7
  6
CONTINUOUS
 70
0
 71
3
 72
11
 73
7
 74
0
 42
0.0000001
 43
0.0000001
 44
0.0000000001
 40
0.0
 40
0.0
 40
0.0
 40
0.0
 40
0.2500561064
 40
0.5000000001
 40
0.7499438939
 40
1.0
 40
1.0
 40
1.0
 40
1.0
 10
358.1984868886
 20
129.31080343
 30
0.0
 10
358.4997905132
 20
128.2566034688
 30
0.0
 10
359.1359963672
 20
126.1580959644
 30
0.0
 10
360.2027304475
 20
123.0468963784
 30
0.0
 10
361.3854052764
 20
119.9778957748
 30
0.0
 10
362.2469379411
 20
117.9614005234
 30
0.0
 10
362.6937526466
 20
116.9601622656
 30
0.0
  0
SPLINE
  5
4FE
100
AcDbEntity
  8
0
100
AcDbSpline
 62
7
  6
CONTINUOUS
 70
0
 71
3
 72
9
 73
5
 74
0
 42
0.0000001
 43
0.0000001
 44
0.0000000001
 40
0.0
 40
0.0
 40
0.0
 40
0.0
 40
0.5000019527
 40
1.0
 40
1.0
 40
1.0
 40
1.0
 10
362.6937526466
 20
116.9601622656
 30
0.0
 10
363.2948944792
 20
114.9592546045
 30
0.0
 10
364.5778896735
 20
110.9810168446
 30
0.0
 10
366.0454182646
 20
107.0668544925
 30
0.0
 10
366.8227635365
 20
105.1276100233
 30
0.0
  0
LINE
  5
4FF
100
AcDbEntity
  8
BEZUGSACHSEN
100
AcDbLine
 62
7
  6
CONTINUOUS
 10
368.1006789546
 20
125.2690165251
 11
368.0771152809
 21
125.3408310749
  0
LINE
  5
500
100
AcDbEntity
  8
BEZUGSACHSEN
100
AcDbLine
 62
7
  6
CONTINUOUS
 10
368.0771152809
 20
125.3408310749
 11
368.0558476428
 21
125.4048727148
  0
LINE
  5
501
100
AcDbEntity
  8
BEZUGSACHSEN
100
AcDbLine
 62
7
  6
CONTINUOUS
 10
367.8467806909
 20
125.9654153104
 11
367.8254971664
 21
126.0122253835
  0
LINE
  5
502
100
AcDbEntity
  8
BEZUGSACHSEN
100
AcDbLine
 62
7
  6
CONTINUOUS
 10
367.8254971664
 20
126.0122253835
 11
367.7109234443
 21
126.2334358162
  0
LINE
  5
503
100
AcDbEntity
  8
BEZUGSACHSEN
100
AcDbLine
 62
7
  6
CONTINUOUS
 10
367.7109234443
 20
126.2334358162
 11
367.5670913324
 21
126.4886346204
  0
LINE
  5
504
100
AcDbEntity
  8
BEZUGSACHSEN
100
AcDbLine
 62
7
  6
CONTINUOUS
 10
367.5670913324
 20
126.4886346204
 11
367.3943013291
 21
126.7779308266
  0
LINE
  5
505
100
AcDbEntity
  8
BEZUGSACHSEN
100
AcDbLine
 62
7
  6
CONTINUOUS
 10
366.7894500204
 20
127.7482557684
 11
367.2439159505
 21
127.0191872244
  0
LINE
  5
506
100
AcDbEntity
  8
BEZUGSACHSEN
100
AcDbLine
 62
7
  6
CONTINUOUS
 10
367.2439159505
 20
127.0191872244
 11
367.2926180388
 21
126.9410568866
  0
LINE
  5
507
100
AcDbEntity
  8
BEZUGSACHSEN
100
AcDbLine
 62
7
  6
CONTINUOUS
 10
367.2926180388
 20
126.9410568866
 11
367.3943013291
 21
126.7779308266
  0
LINE
  5
508
100
AcDbEntity
  8
BEZUGSACHSEN
100
AcDbLine
 62
7
  6
CONTINUOUS
 10
366.6396167474
 20
127.9764530676
 11
366.7147378215
 21
127.8620563547
  0
LINE
  5
509
100
AcDbEntity
  8
BEZUGSACHSEN
100
AcDbLine
 62
7
  6
CONTINUOUS
 10
366.7147378215
 20
127.8620563547
 11
366.7894500204
 21
127.7482557684
  0
LINE
  5
50A
100
AcDbEntity
  8
BEZUGSACHSEN
100
AcDbLine
 62
7
  6
CONTINUOUS
 10
366.5414275479
 20
128.1093550136
 11
366.5661225284
 21
128.0759597738
  0
LINE
  5
50B
100
AcDbEntity
  8
BEZUGSACHSEN
100
AcDbLine
 62
7
  6
CONTINUOUS
 10
366.5661225284
 20
128.0759597738
 11
366.6152171249
 21
128.0095087993
  0
LINE
  5
50C
100
AcDbEntity
  8
BEZUGSACHSEN
100
AcDbLine
 62
7
  6
CONTINUOUS
 10
366.6152171249
 20
128.0095087993
 11
366.6396167474
 21
127.9764530676
  0
LINE
  5
50D
100
AcDbEntity
  8
BEZUGSACHSEN
100
AcDbLine
 62
7
  6
CONTINUOUS
 10
366.5298011592
 20
128.1187170392
 11
366.5414275479
 21
128.1093550136
  0
LINE
  5
50E
100
AcDbEntity
  8
KONSTRUKTIONSELEMENTE
100
AcDbLine
 62
7
  6
CONTINUOUS
 10
366.2502494085
 20
127.6411101449
 11
366.6421729806
 21
127.0118198606
  0
LINE
  5
50F
100
AcDbEntity
  8
KONSTRUKTIONSELEMENTE
100
AcDbLine
 62
7
  6
CONTINUOUS
 10
366.6421729806
 20
127.0118198606
 11
366.6594354481
 21
126.984101131
  0
LINE
  5
510
100
AcDbEntity
  8
BEZUGSACHSEN
100
AcDbLine
 62
7
  6
CONTINUOUS
 10
368.4018900563
 20
124.6940950479
 11
368.3867868812
 21
124.7183949564
  0
LINE
  5
511
100
AcDbEntity
  8
BEZUGSACHSEN
100
AcDbLine
 62
7
  6
CONTINUOUS
 10
368.3867868812
 20
124.7183949564
 11
368.2000436165
 21
125.0188261462
  0
LINE
  5
512
100
AcDbEntity
  8
BEZUGSACHSEN
100
AcDbLine
 62
7
  6
CONTINUOUS
 10
368.2000436165
 20
125.0188261462
 11
368.0601675704
 21
125.2438285051
  0
LINE
  5
513
100
AcDbEntity
  8
BEZUGSACHSEN
100
AcDbLine
 62
7
  6
CONTINUOUS
 10
368.0601675704
 20
125.2438285051
 11
368.0003160924
 21
125.3400973619
  0
LINE
  5
514
100
AcDbEntity
  8
BEZUGSACHSEN
100
AcDbLine
 62
7
  6
CONTINUOUS
 10
368.0003160924
 20
125.3400973619
 11
367.7006757136
 21
125.8219964664
  0
LINE
  5
515
100
AcDbEntity
  8
BEZUGSACHSEN
100
AcDbLine
 62
7
  6
CONTINUOUS
 10
367.7006757136
 20
125.8219964664
 11
366.9011718383
 21
127.1073720287
  0
LINE
  5
516
100
AcDbEntity
  8
BEZUGSACHSEN
100
AcDbLine
 62
7
  6
CONTINUOUS
 10
366.9011718383
 20
127.1073720287
 11
366.6512733862
 21
127.5090278651
  0
LINE
  5
517
100
AcDbEntity
  8
BEZUGSACHSEN
100
AcDbLine
 62
7
  6
CONTINUOUS
 10
366.6512733862
 20
127.5090278651
 11
366.5102137993
 21
127.7357294451
  0
LINE
  5
518
100
AcDbEntity
  8
KONSTRUKTIONSELEMENTE
100
AcDbLine
 62
7
  6
CONTINUOUS
 10
368.4883443314
 20
123.344722178
 11
368.4229174881
 21
123.4218013794
  0
LINE
  5
519
100
AcDbEntity
  8
BEZUGSACHSEN
100
AcDbLine
 62
7
  6
CONTINUOUS
 10
368.60755982
 20
123.5735413941
 11
368.7285694484
 21
123.4321569701
  0
LINE
  5
51A
100
AcDbEntity
  8
RUNDUNGEN
100
AcDbLine
 62
7
  6
CONTINUOUS
 10
380.2420646315
 20
89.1244487228
 11
381.4940210672
 21
88.5159458275
  0
LINE
  5
51B
100
AcDbEntity
  8
0
100
AcDbLine
 62
7
  6
CONTINUOUS
 10
372.6436791332
 20
86.3588625729
 11
372.0757629842
 21
85.0879802266
  0
SPLINE
  5
51C
100
AcDbEntity
  8
0
100
AcDbSpline
 62
7
  6
CONTINUOUS
 70
0
 71
3
 72
11
 73
7
 74
0
 42
0.0000001
 43
0.0000001
 44
0.0000000001
 40
0.0
 40
0.0
 40
0.0
 40
0.0
 40
0.2509893126
 40
0.5000000001
 40
0.7490106877
 40
1.0
 40
1.0
 40
1.0
 40
1.0
 10
361.9817097543
 20
136.0302600738
 30
0.0
 10
362.1960700825
 20
135.6663484503
 30
0.0
 10
362.5940720961
 20
134.9236370452
 30
0.0
 10
363.0837211971
 20
133.7601213707
 30
0.0
 10
363.4565216847
 20
132.5540762792
 30
0.0
 10
363.6290401411
 20
131.7292955714
 30
0.0
 10
363.6987484853
 20
131.3127349319
 30
0.0
  0
LINE
  5
51D
100
AcDbEntity
  8
BEZUGSACHSEN
100
AcDbLine
 62
7
  6
CONTINUOUS
 10
368.7277030447
 20
122.7618982334
 11
369.0107267756
 21
122.4799302106
  0
LINE
  5
51E
100
AcDbEntity
  8
BEZUGSACHSEN
100
AcDbLine
 62
7
  6
CONTINUOUS
 10
369.0107267756
 20
122.4799302106
 11
369.0471827309
 21
122.4435390479
  0
LINE
  5
51F
100
AcDbEntity
  8
BEZUGSACHSEN
100
AcDbLine
 62
7
  6
CONTINUOUS
 10
369.0471827309
 20
122.4435390479
 11
369.2830240507
 21
122.2076762654
  0
LINE
  5
520
100
AcDbEntity
  8
KONSTRUKTIONSELEMENTE
100
AcDbLine
 62
7
  6
CONTINUOUS
 10
369.0523098077
 20
122.1237031484
 11
368.9048293758
 21
122.272926584
  0
LINE
  5
521
100
AcDbEntity
  8
KONSTRUKTIONSELEMENTE
100
AcDbLine
 62
7
  6
CONTINUOUS
 10
368.9048293758
 20
122.272926584
 11
368.8968091639
 21
122.2810300498
  0
LINE
  5
522
100
AcDbEntity
  8
BEZUGSACHSEN
100
AcDbLine
 62
7
  6
CONTINUOUS
 10
368.4358239812
 20
123.8121812072
 11
368.60755982
 21
123.5735413941
  0
LINE
  5
523
100
AcDbEntity
  8
KONSTRUKTIONSELEMENTE
100
AcDbLine
 62
7
  6
CONTINUOUS
 10
367.0457974157
 20
125.4600554311
 11
367.8393903863
 21
124.2636101609
  0
LINE
  5
524
100
AcDbEntity
  8
KONSTRUKTIONSELEMENTE
100
AcDbLine
 62
7
  6
CONTINUOUS
 10
367.8393903863
 20
124.2636101609
 11
367.8608093084
 21
124.2313150248
  0
LINE
  5
525
100
AcDbEntity
  8
BEZUGSACHSEN
100
AcDbLine
 62
7
  6
CONTINUOUS
 10
368.4358239812
 20
123.8121812072
 11
368.3947025251
 21
123.8742937246
  0
LINE
  5
526
100
AcDbEntity
  8
BEZUGSACHSEN
100
AcDbLine
 62
7
  6
CONTINUOUS
 10
368.3947025251
 20
123.8742937246
 11
368.2968128559
 21
124.0221447468
  0
LINE
  5
527
100
AcDbEntity
  8
BEZUGSACHSEN
100
AcDbLine
 62
7
  6
CONTINUOUS
 10
368.2968128559
 20
124.0221447468
 11
368.2737124212
 21
124.0570336923
  0
LINE
  5
528
100
AcDbEntity
  8
BEZUGSACHSEN
100
AcDbLine
 62
7
  6
CONTINUOUS
 10
368.2737124212
 20
124.0570336923
 11
367.2864351102
 21
125.5476403891
  0
SPLINE
  5
529
100
AcDbEntity
  8
0
100
AcDbSpline
 62
7
  6
CONTINUOUS
 70
0
 71
3
 72
11
 73
7
 74
0
 42
0.0000001
 43
0.0000001
 44
0.0000000001
 40
0.0
 40
0.0
 40
0.0
 40
0.0
 40
0.2509893126
 40
0.5000000001
 40
0.7490106877
 40
1.0
 40
1.0
 40
1.0
 40
1.0
 10
356.4814481575
 20
134.0283285719
 30
0.0
 10
356.5511565019
 20
133.611767932
 30
0.0
 10
356.7236749598
 20
132.7869872243
 30
0.0
 10
357.0964754462
 20
131.5809421321
 30
0.0
 10
357.5861245457
 20
130.4174264573
 30
0.0
 10
357.9841265606
 20
129.6747150531
 30
0.0
 10
358.1984868886
 20
129.31080343
 30
0.0
  0
LINE
  5
52A
100
AcDbEntity
  8
BEZUGSACHSEN
100
AcDbLine
 62
7
  6
CONTINUOUS
 10
368.5887442616
 20
123.8840500834
 11
368.5837351285
 21
123.9110945969
  0
LINE
  5
52B
100
AcDbEntity
  8
BEZUGSACHSEN
100
AcDbLine
 62
7
  6
CONTINUOUS
 10
368.2594082978
 20
122.7967444795
 11
368.244240588
 21
122.8417701191
  0
LINE
  5
52C
100
AcDbEntity
  8
BEZUGSACHSEN
100
AcDbLine
 62
7
  6
CONTINUOUS
 10
367.9516764335
 20
123.6894564062
 11
367.9186699442
 21
123.7827117302
  0
LINE
  5
52D
100
AcDbEntity
  8
BEZUGSACHSEN
100
AcDbLine
 62
7
  6
CONTINUOUS
 10
367.9186699442
 20
123.7827117302
 11
367.8460546524
 21
123.9862618721
  0
LINE
  5
52E
100
AcDbEntity
  8
BEZUGSACHSEN
100
AcDbLine
 62
7
  6
CONTINUOUS
 10
369.816782156
 20
120.6711592026
 11
369.6396635888
 21
120.9130989535
  0
LINE
  5
52F
100
AcDbEntity
  8
BEZUGSACHSEN
100
AcDbLine
 62
7
  6
CONTINUOUS
 10
369.6396635888
 20
120.9130989535
 11
369.5674722417
 21
121.0116929244
  0
LINE
  5
530
100
AcDbEntity
  8
BEZUGSACHSEN
100
AcDbLine
 62
7
  6
CONTINUOUS
 10
369.5674722417
 20
121.0116929244
 11
368.9438529665
 21
121.8630163142
  0
LINE
  5
531
100
AcDbEntity
  8
BEZUGSACHSEN
100
AcDbLine
 62
7
  6
CONTINUOUS
 10
368.9438529665
 20
121.8630163142
 11
368.7449751401
 21
122.1343880955
  0
LINE
  5
532
100
AcDbEntity
  8
BEZUGSACHSEN
100
AcDbLine
 62
7
  6
CONTINUOUS
 10
368.7449751401
 20
122.1343880955
 11
368.2594082978
 21
122.7967444795
  0
LINE
  5
533
100
AcDbEntity
  8
KONSTRUKTIONSELEMENTE
100
AcDbLine
 62
7
  6
CONTINUOUS
 10
368.0429997877
 20
122.7179782234
 11
369.6031949429
 21
120.5934198146
  0
LINE
  5
534
100
AcDbEntity
  8
BEZUGSACHSEN
100
AcDbLine
 62
7
  6
CONTINUOUS
 10
368.5837351285
 20
123.9110945969
 11
368.5693933522
 21
123.9521107028
  0
LINE
  5
535
100
AcDbEntity
  8
BEZUGSACHSEN
100
AcDbLine
 62
7
  6
CONTINUOUS
 10
368.5693933522
 20
123.9521107028
 11
368.5550004009
 21
123.9931113542
  0
LINE
  5
536
100
AcDbEntity
  8
BEZUGSACHSEN
100
AcDbLine
 62
7
  6
CONTINUOUS
 10
368.5550004009
 20
123.9931113542
 11
368.5260608312
 21
124.0750662424
  0
LINE
  5
537
100
AcDbEntity
  8
KONSTRUKTIONSELEMENTE
100
AcDbLine
 62
7
  6
CONTINUOUS
 10
368.265462342
 20
123.049033702
 11
368.3308808347
 21
122.8713459378
  0
LINE
  5
538
100
AcDbEntity
  8
KONSTRUKTIONSELEMENTE
100
AcDbLine
 62
7
  6
CONTINUOUS
 10
368.3308808347
 20
122.8713459378
 11
368.3392736495
 21
122.8484227177
  0
LINE
  5
539
100
AcDbEntity
  8
BEZUGSACHSEN
100
AcDbLine
 62
7
  6
CONTINUOUS
 10
368.4304314982
 20
124.2947008759
 11
368.3117394916
 21
124.5291780131
  0
LINE
  5
53A
100
AcDbEntity
  8
BEZUGSACHSEN
100
AcDbLine
 62
7
  6
CONTINUOUS
 10
367.9742740399
 20
123.9125439612
 11
368.0049063675
 21
123.9207859098
  0
LINE
  5
53B
100
AcDbEntity
  8
BEZUGSACHSEN
100
AcDbLine
 62
7
  6
CONTINUOUS
 10
368.3117394916
 20
124.5291780131
 11
368.1704444983
 21
124.7786648691
  0
LINE
  5
53C
100
AcDbEntity
  8
BEZUGSACHSEN
100
AcDbLine
 62
7
  6
CONTINUOUS
 10
368.0049063675
 20
123.9207859098
 11
368.0662664082
 21
123.8560059881
  0
LINE
  5
53D
100
AcDbEntity
  8
BEZUGSACHSEN
100
AcDbLine
 62
7
  6
CONTINUOUS
 10
368.0662664082
 20
123.8560059881
 11
368.0866255611
 21
123.8345043526
  0
LINE
  5
53E
100
AcDbEntity
  8
BEZUGSACHSEN
100
AcDbLine
 62
7
  6
CONTINUOUS
 10
368.0866255611
 20
123.8345043526
 11
368.1863256143
 21
123.6989352768
  0
LINE
  5
53F
100
AcDbEntity
  8
BEZUGSACHSEN
100
AcDbLine
 62
7
  6
CONTINUOUS
 10
368.3040079012
 20
123.5140795035
 11
368.1863256143
 21
123.6989352768
  0
LINE
  5
540
100
AcDbEntity
  8
BEZUGSACHSEN
100
AcDbLine
 62
7
  6
CONTINUOUS
 10
368.4063062409
 20
123.3250780049
 11
368.3040079012
 21
123.5140795035
  0
LINE
  5
541
100
AcDbEntity
  8
KONSTRUKTIONSELEMENTE
100
AcDbLine
 62
7
  6
CONTINUOUS
 10
368.2524765508
 20
123.0775253231
 11
368.265462342
 21
123.049033702
  0
LINE
  5
542
100
AcDbEntity
  8
BEZUGSACHSEN
100
AcDbLine
 62
7
  6
CONTINUOUS
 10
366.8551729361
 20
126.7778985632
 11
367.8664305234
 21
125.2547679701
  0
LINE
  5
543
100
AcDbEntity
  8
BEZUGSACHSEN
100
AcDbLine
 62
7
  6
CONTINUOUS
 10
367.8664305234
 20
125.2547679701
 11
368.0068491024
 21
125.0432718886
  0
LINE
  5
544
100
AcDbEntity
  8
KONSTRUKTIONSELEMENTE
100
AcDbLine
 62
7
  6
CONTINUOUS
 10
367.1976380177
 20
125.7911173926
 11
367.1844967602
 21
125.8109189472
  0
LINE
  5
545
100
AcDbEntity
  8
KONSTRUKTIONSELEMENTE
100
AcDbLine
 62
7
  6
CONTINUOUS
 10
367.1844967602
 20
125.8109189472
 11
366.6035287448
 21
126.6863075679
  0
LINE
  5
546
100
AcDbEntity
  8
BEZUGSACHSEN
100
AcDbLine
 62
7
  6
CONTINUOUS
 10
368.1704444983
 20
124.7786648691
 11
368.0479100977
 21
124.9768658493
  0
LINE
  5
547
100
AcDbEntity
  8
BEZUGSACHSEN
100
AcDbLine
 62
7
  6
CONTINUOUS
 10
368.0479100977
 20
124.9768658493
 11
368.0068491024
 21
125.0432718886
  0
LINE
  5
548
100
AcDbEntity
  8
BEZUGSACHSEN
100
AcDbLine
 62
7
  6
CONTINUOUS
 10
334.1117878971
 20
120.7599735258
 11
334.1225892995
 21
120.7552106079
  0
LINE
  5
549
100
AcDbEntity
  8
BEZUGSACHSEN
100
AcDbLine
 62
7
  6
CONTINUOUS
 10
334.1225892995
 20
120.7552106079
 11
334.1443361094
 21
120.7456237045
  0
LINE
  5
54A
100
AcDbEntity
  8
BEZUGSACHSEN
100
AcDbLine
 62
7
  6
CONTINUOUS
 10
334.1443361094
 20
120.7456237045
 11
334.1552815194
 21
120.7407997181
  0
LINE
  5
54B
100
AcDbEntity
  8
BEZUGSACHSEN
100
AcDbLine
 62
7
  6
CONTINUOUS
 10
333.6303629024
 20
119.3982801953
 11
333.5741076407
 21
119.3355994949
  0
LINE
  5
54C
100
AcDbEntity
  8
BEZUGSACHSEN
100
AcDbLine
 62
7
  6
CONTINUOUS
 10
333.7539569063
 20
119.6061071369
 11
333.6455917549
 21
119.423913074
  0
LINE
  5
54D
100
AcDbEntity
  8
BEZUGSACHSEN
100
AcDbLine
 62
7
  6
CONTINUOUS
 10
333.6455917549
 20
119.423913074
 11
333.6303629024
 21
119.3982801953
  0
LINE
  5
54E
100
AcDbEntity
  8
BEZUGSACHSEN
100
AcDbLine
 62
7
  6
CONTINUOUS
 10
333.0484925765
 20
118.7144669441
 11
332.964164725
 21
118.6204258603
  0
LINE
  5
54F
100
AcDbEntity
  8
BEZUGSACHSEN
100
AcDbLine
 62
7
  6
CONTINUOUS
 10
333.2194093764
 20
119.0106849693
 11
333.0628826031
 21
118.7394518353
  0
LINE
  5
550
100
AcDbEntity
  8
BEZUGSACHSEN
100
AcDbLine
 62
7
  6
CONTINUOUS
 10
333.0628826031
 20
118.7394518353
 11
333.0484925765
 21
118.7144669441
  0
LINE
  5
551
100
AcDbEntity
  8
BEZUGSACHSEN
100
AcDbLine
 62
7
  6
CONTINUOUS
 10
333.3543045777
 20
119.300895045
 11
333.3204654199
 21
119.2282836766
  0
LINE
  5
552
100
AcDbEntity
  8
BEZUGSACHSEN
100
AcDbLine
 62
7
  6
CONTINUOUS
 10
333.3204654199
 20
119.2282836766
 11
333.2867030377
 21
119.1557116014
  0
LINE
  5
553
100
AcDbEntity
  8
BEZUGSACHSEN
100
AcDbLine
 62
7
  6
CONTINUOUS
 10
333.2867030377
 20
119.1557116014
 11
333.2707052537
 21
119.1212802947
  0
LINE
  5
554
100
AcDbEntity
  8
BEZUGSACHSEN
100
AcDbLine
 62
7
  6
CONTINUOUS
 10
333.2707052537
 20
119.1212802947
 11
333.2194093764
 21
119.0106849693
  0
LINE
  5
555
100
AcDbEntity
  8
BEZUGSACHSEN
100
AcDbLine
 62
7
  6
CONTINUOUS
 10
333.8299361819
 20
120.4467794549
 11
333.7952697397
 21
120.3745114021
  0
LINE
  5
556
100
AcDbEntity
  8
BEZUGSACHSEN
100
AcDbLine
 62
7
  6
CONTINUOUS
 10
333.7952697397
 20
120.3745114021
 11
333.7779712216
 21
120.3384081667
  0
LINE
  5
557
100
AcDbEntity
  8
BEZUGSACHSEN
100
AcDbLine
 62
7
  6
CONTINUOUS
 10
333.7779712216
 20
120.3384081667
 11
333.7606958609
 21
120.3023254481
  0
LINE
  5
558
100
AcDbEntity
  8
BEZUGSACHSEN
100
AcDbLine
 62
7
  6
CONTINUOUS
 10
333.9764092907
 20
120.7103162272
 11
333.8456871269
 21
120.475160256
  0
LINE
  5
559
100
AcDbEntity
  8
BEZUGSACHSEN
100
AcDbLine
 62
7
  6
CONTINUOUS
 10
333.8456871269
 20
120.475160256
 11
333.8299361819
 21
120.4467794549
  0
LINE
  5
55A
100
AcDbEntity
  8
BEZUGSACHSEN
100
AcDbLine
 62
7
  6
CONTINUOUS
 10
334.1306407335
 20
120.9485699071
 11
334.0431138788
 21
120.8133984506
  0
LINE
  5
55B
100
AcDbEntity
  8
BEZUGSACHSEN
100
AcDbLine
 62
7
  6
CONTINUOUS
 10
334.0431138788
 20
120.8133984506
 11
334.0390189387
 21
120.8070720188
  0
LINE
  5
55C
100
AcDbEntity
  8
BEZUGSACHSEN
100
AcDbLine
 62
7
  6
CONTINUOUS
 10
334.0390189387
 20
120.8070720188
 11
333.9938026047
 21
120.7372007859
  0
LINE
  5
55D
100
AcDbEntity
  8
BEZUGSACHSEN
100
AcDbLine
 62
7
  6
CONTINUOUS
 10
333.9938026047
 20
120.7372007859
 11
333.9764092907
 21
120.7103162272
  0
LINE
  5
55E
100
AcDbEntity
  8
BEZUGSACHSEN
100
AcDbLine
 62
7
  6
CONTINUOUS
 10
334.1306407335
 20
120.9485699071
 11
334.21518939
 21
121.0425306245
  0
LINE
  5
55F
100
AcDbEntity
  8
BEZUGSACHSEN
100
AcDbLine
 62
7
  6
CONTINUOUS
 10
334.21518939
 20
121.0425306245
 11
334.3146221529
 21
121.0861525758
  0
LINE
  5
560
100
AcDbEntity
  8
BEZUGSACHSEN
100
AcDbLine
 62
7
  6
CONTINUOUS
 10
333.3685568341
 20
119.0273639791
 11
333.3751341599
 21
119.0080153541
  0
LINE
  5
561
100
AcDbEntity
  8
BEZUGSACHSEN
100
AcDbLine
 62
7
  6
CONTINUOUS
 10
333.4052832506
 20
120.1090888968
 11
333.2586438167
 21
119.8456126472
  0
LINE
  5
562
100
AcDbEntity
  8
BEZUGSACHSEN
100
AcDbLine
 62
7
  6
CONTINUOUS
 10
333.5878235861
 20
120.3786169821
 11
333.4942668387
 21
120.2405159837
  0
LINE
  5
563
100
AcDbEntity
  8
BEZUGSACHSEN
100
AcDbLine
 62
7
  6
CONTINUOUS
 10
333.4942668387
 20
120.2405159837
 11
333.4897161
 21
120.2337964669
  0
LINE
  5
564
100
AcDbEntity
  8
BEZUGSACHSEN
100
AcDbLine
 62
7
  6
CONTINUOUS
 10
333.4897161
 20
120.2337964669
 11
333.4240605469
 21
120.136828981
  0
LINE
  5
565
100
AcDbEntity
  8
BEZUGSACHSEN
100
AcDbLine
 62
7
  6
CONTINUOUS
 10
333.4240605469
 20
120.136828981
 11
333.4052832506
 21
120.1090888968
  0
LINE
  5
566
100
AcDbEntity
  8
BEZUGSACHSEN
100
AcDbLine
 62
7
  6
CONTINUOUS
 10
333.5878235861
 20
120.3786169821
 11
333.6723669508
 21
120.4725796255
  0
LINE
  5
567
100
AcDbEntity
  8
BEZUGSACHSEN
100
AcDbLine
 62
7
  6
CONTINUOUS
 10
333.6723669508
 20
120.4725796255
 11
333.6970002424
 21
120.4834284678
  0
LINE
  5
568
100
AcDbEntity
  8
BEZUGSACHSEN
100
AcDbLine
 62
7
  6
CONTINUOUS
 10
333.6970002424
 20
120.4834284678
 11
333.7716679309
 21
120.5162494836
  0
LINE
  5
569
100
AcDbEntity
  8
BEZUGSACHSEN
100
AcDbLine
 62
7
  6
CONTINUOUS
 10
335.017803828
 20
124.6900977698
 11
334.8086393921
 21
124.3033973106
  0
LINE
  5
56A
100
AcDbEntity
  8
BEZUGSACHSEN
100
AcDbLine
 62
7
  6
CONTINUOUS
 10
335.1968129497
 20
124.9949036091
 11
335.017803828
 21
124.6900977698
  0
LINE
  5
56B
100
AcDbEntity
  8
BEZUGSACHSEN
100
AcDbLine
 62
7
  6
CONTINUOUS
 10
335.3975925759
 20
125.3146201622
 11
335.246819923
 21
125.0745383322
  0
LINE
  5
56C
100
AcDbEntity
  8
BEZUGSACHSEN
100
AcDbLine
 62
7
  6
CONTINUOUS
 10
335.246819923
 20
125.0745383322
 11
335.1968129497
 21
124.9949036091
  0
LINE
  5
56D
100
AcDbEntity
  8
BEZUGSACHSEN
100
AcDbLine
 62
7
  6
CONTINUOUS
 10
335.3975925759
 20
125.3146201622
 11
335.8125500555
 21
125.9389511465
  0
LINE
  5
56E
100
AcDbEntity
  8
BEZUGSACHSEN
100
AcDbLine
 62
7
  6
CONTINUOUS
 10
335.8125500555
 20
125.9389511465
 11
335.9536878823
 21
126.1512957808
  0
LINE
  5
56F
100
AcDbEntity
  8
BEZUGSACHSEN
100
AcDbLine
 62
7
  6
CONTINUOUS
 10
335.9536878823
 20
126.1512957808
 11
336.0057025646
 21
126.2241401558
  0
LINE
  5
570
100
AcDbEntity
  8
BEZUGSACHSEN
100
AcDbLine
 62
7
  6
CONTINUOUS
 10
336.0057025646
 20
126.2241401558
 11
336.0102064779
 21
126.2304471658
  0
LINE
  5
571
100
AcDbEntity
  8
BEZUGSACHSEN
100
AcDbLine
 62
7
  6
CONTINUOUS
 10
336.0102064779
 20
126.2304471658
 11
336.1236950726
 21
126.3893424977
  0
LINE
  5
572
100
AcDbEntity
  8
BEZUGSACHSEN
100
AcDbLine
 62
7
  6
CONTINUOUS
 10
336.1236950726
 20
126.3893424977
 11
336.2414166332
 21
126.5307103233
  0
LINE
  5
573
100
AcDbEntity
  8
BEZUGSACHSEN
100
AcDbLine
 62
7
  6
CONTINUOUS
 10
335.7429668574
 20
125.22694825
 11
335.6178691907
 21
125.0182292104
  0
LINE
  5
574
100
AcDbEntity
  8
BEZUGSACHSEN
100
AcDbLine
 62
7
  6
CONTINUOUS
 10
335.8592951485
 20
125.4624594497
 11
335.7429668574
 21
125.22694825
  0
LINE
  5
575
100
AcDbEntity
  8
BEZUGSACHSEN
100
AcDbLine
 62
7
  6
CONTINUOUS
 10
336.0765120314
 20
126.1735729705
 11
336.1058907167
 21
126.1621161447
  0
LINE
  5
576
100
AcDbEntity
  8
BEZUGSACHSEN
100
AcDbLine
 62
7
  6
CONTINUOUS
 10
334.6689670524
 20
123.6089684424
 11
334.7661865096
 21
123.7349638454
  0
LINE
  5
577
100
AcDbEntity
  8
BEZUGSACHSEN
100
AcDbLine
 62
7
  6
CONTINUOUS
 10
335.062390609
 20
124.1813292193
 11
334.7661865096
 21
123.7349638454
  0
LINE
  5
578
100
AcDbEntity
  8
BEZUGSACHSEN
100
AcDbLine
 62
7
  6
CONTINUOUS
 10
335.1253135723
 20
124.3673336165
 11
335.0937306626
 21
124.2743619082
  0
LINE
  5
579
100
AcDbEntity
  8
BEZUGSACHSEN
100
AcDbLine
 62
7
  6
CONTINUOUS
 10
335.0937306626
 20
124.2743619082
 11
335.062390609
 21
124.1813292193
  0
LINE
  5
57A
100
AcDbEntity
  8
BEZUGSACHSEN
100
AcDbLine
 62
7
  6
CONTINUOUS
 10
335.4116046374
 20
124.8877794129
 11
335.1892105567
 21
124.5530931743
  0
LINE
  5
57B
100
AcDbEntity
  8
BEZUGSACHSEN
100
AcDbLine
 62
7
  6
CONTINUOUS
 10
336.135140467
 20
126.8346427491
 11
336.1948155977
 21
126.9018933338
  0
LINE
  5
57C
100
AcDbEntity
  8
BEZUGSACHSEN
100
AcDbLine
 62
7
  6
CONTINUOUS
 10
336.1948155977
 20
126.9018933338
 11
336.3052559213
 21
127.064786321
  0
LINE
  5
57D
100
AcDbEntity
  8
BEZUGSACHSEN
100
AcDbLine
 62
7
  6
CONTINUOUS
 10
336.426078391
 20
127.2587184076
 11
336.3052559213
 21
127.064786321
  0
LINE
  5
57E
100
AcDbEntity
  8
BEZUGSACHSEN
100
AcDbLine
 62
7
  6
CONTINUOUS
 10
336.5573159404
 20
127.4836771627
 11
336.426078391
 21
127.2587184076
  0
LINE
  5
57F
100
AcDbEntity
  8
BEZUGSACHSEN
100
AcDbLine
 62
7
  6
CONTINUOUS
 10
336.6588401593
 20
127.6749650092
 11
336.5573159404
 21
127.4836771627
  0
LINE
  5
580
100
AcDbEntity
  8
BEZUGSACHSEN
100
AcDbLine
 62
7
  6
CONTINUOUS
 10
336.8870267372
 20
128.2717945421
 11
336.8661178515
 21
128.2145165588
  0
LINE
  5
581
100
AcDbEntity
  8
BEZUGSACHSEN
100
AcDbLine
 62
7
  6
CONTINUOUS
 10
336.8661178515
 20
128.2145165588
 11
336.8340241338
 21
128.1256964071
  0
LINE
  5
582
100
AcDbEntity
  8
BEZUGSACHSEN
100
AcDbLine
 62
7
  6
CONTINUOUS
 10
335.3182676682
 20
125.8863761119
 11
335.3685902459
 21
125.9671159359
  0
LINE
  5
583
100
AcDbEntity
  8
BEZUGSACHSEN
100
AcDbLine
 62
7
  6
CONTINUOUS
 10
335.3685902459
 20
125.9671159359
 11
335.6255283979
 21
126.3793478622
  0
LINE
  5
584
100
AcDbEntity
  8
BEZUGSACHSEN
100
AcDbLine
 62
7
  6
CONTINUOUS
 10
335.6255283979
 20
126.3793478622
 11
335.7050886089
 21
126.5069907282
  0
LINE
  5
585
100
AcDbEntity
  8
BEZUGSACHSEN
100
AcDbLine
 62
7
  6
CONTINUOUS
 10
335.7050886089
 20
126.5069907282
 11
335.7747872318
 21
126.6188107579
  0
LINE
  5
586
100
AcDbEntity
  8
BEZUGSACHSEN
100
AcDbLine
 62
7
  6
CONTINUOUS
 10
335.7747872318
 20
126.6188107579
 11
335.9827937314
 21
126.952516038
  0
LINE
  5
587
100
AcDbEntity
  8
BEZUGSACHSEN
100
AcDbLine
 62
7
  6
CONTINUOUS
 10
335.9827937314
 20
126.952516038
 11
336.0624465613
 21
127.080300567
  0
LINE
  5
588
100
AcDbEntity
  8
BEZUGSACHSEN
100
AcDbLine
 62
7
  6
CONTINUOUS
 10
336.0624465613
 20
127.080300567
 11
336.2501920903
 21
127.381489262
  0
LINE
  5
589
100
AcDbEntity
  8
BEZUGSACHSEN
100
AcDbLine
 62
7
  6
CONTINUOUS
 10
336.2501920903
 20
127.381489262
 11
336.3042072266
 21
127.4681410584
  0
LINE
  5
58A
100
AcDbEntity
  8
BEZUGSACHSEN
100
AcDbLine
 62
7
  6
CONTINUOUS
 10
336.3042072266
 20
127.4681410584
 11
336.3820122928
 21
127.5929559247
  0
LINE
  5
58B
100
AcDbEntity
  8
BEZUGSACHSEN
100
AcDbLine
 62
7
  6
CONTINUOUS
 10
336.3820122928
 20
127.5929559247
 11
336.5871826356
 21
127.9220844364
  0
LINE
  5
58C
100
AcDbEntity
  8
BEZUGSACHSEN
100
AcDbLine
 62
7
  6
CONTINUOUS
 10
336.5871826356
 20
127.9220844364
 11
336.8881328656
 21
128.4048464329
  0
LINE
  5
58D
100
AcDbEntity
  8
BEZUGSACHSEN
100
AcDbLine
 62
7
  6
CONTINUOUS
 10
336.8881328656
 20
128.4048464329
 11
336.9086320473
 21
128.4377291288
  0
LINE
  5
58E
100
AcDbEntity
  8
BEZUGSACHSEN
100
AcDbLine
 62
7
  6
CONTINUOUS
 10
336.9086320473
 20
128.4377291288
 11
337.2119903497
 21
128.9243376732
  0
LINE
  5
58F
100
AcDbEntity
  8
BEZUGSACHSEN
100
AcDbLine
 62
7
  6
CONTINUOUS
 10
334.9409869065
 20
124.8224579828
 11
334.9096882287
 21
124.7243956019
  0
LINE
  5
590
100
AcDbEntity
  8
BEZUGSACHSEN
100
AcDbLine
 62
7
  6
CONTINUOUS
 10
334.9096882287
 20
124.7243956019
 11
334.9061830229
 21
124.7133015751
  0
LINE
  5
591
100
AcDbEntity
  8
BEZUGSACHSEN
100
AcDbLine
 62
7
  6
CONTINUOUS
 10
335.906044118
 20
126.5369967083
 11
335.8858191179
 21
126.5021616711
  0
LINE
  5
592
100
AcDbEntity
  8
BEZUGSACHSEN
100
AcDbLine
 62
7
  6
CONTINUOUS
 10
335.8858191179
 20
126.5021616711
 11
335.8422964351
 21
126.4271862422
  0
LINE
  5
593
100
AcDbEntity
  8
BEZUGSACHSEN
100
AcDbLine
 62
7
  6
CONTINUOUS
 10
335.8422964351
 20
126.4271862422
 11
335.5221790343
 21
125.8751541646
  0
LINE
  5
594
100
AcDbEntity
  8
BEZUGSACHSEN
100
AcDbLine
 62
7
  6
CONTINUOUS
 10
335.5221790343
 20
125.8751541646
 11
335.4728686969
 21
125.7900257638
  0
LINE
  5
595
100
AcDbEntity
  8
BEZUGSACHSEN
100
AcDbLine
 62
7
  6
CONTINUOUS
 10
335.4728686969
 20
125.7900257638
 11
335.4310138834
 21
125.7177477299
  0
LINE
  5
596
100
AcDbEntity
  8
BEZUGSACHSEN
100
AcDbLine
 62
7
  6
CONTINUOUS
 10
335.4310138834
 20
125.7177477299
 11
335.2478670951
 21
125.401244817
  0
LINE
  5
597
100
AcDbEntity
  8
BEZUGSACHSEN
100
AcDbLine
 62
7
  6
CONTINUOUS
 10
335.2478670951
 20
125.401244817
 11
335.0590311935
 21
125.0744944217
  0
LINE
  5
598
100
AcDbEntity
  8
BEZUGSACHSEN
100
AcDbLine
 62
7
  6
CONTINUOUS
 10
335.0590311935
 20
125.0744944217
 11
334.976443949
 21
124.9314499853
  0
LINE
  5
599
100
AcDbEntity
  8
BEZUGSACHSEN
100
AcDbLine
 62
7
  6
CONTINUOUS
 10
335.9841977852
 20
126.9705765308
 11
335.9781265251
 21
126.9608321219
  0
LINE
  5
59A
100
AcDbEntity
  8
BEZUGSACHSEN
100
AcDbLine
 62
7
  6
CONTINUOUS
 10
335.7647954016
 20
126.6069268297
 11
335.7715198654
 21
126.6180830394
  0
LINE
  5
59B
100
AcDbEntity
  8
BEZUGSACHSEN
100
AcDbLine
 62
7
  6
CONTINUOUS
 10
335.7715198654
 20
126.6180830394
 11
335.9781265251
 21
126.9608321219
  0
LINE
  5
59C
100
AcDbEntity
  8
BEZUGSACHSEN
100
AcDbLine
 62
7
  6
CONTINUOUS
 10
335.7318099445
 20
126.5498593628
 11
335.7647954016
 21
126.6069268297
  0
LINE
  5
59D
100
AcDbEntity
  8
BEZUGSACHSEN
100
AcDbLine
 62
7
  6
CONTINUOUS
 10
335.2462550037
 20
125.6547379666
 11
335.2669528905
 21
125.6961493096
  0
LINE
  5
59E
100
AcDbEntity
  8
BEZUGSACHSEN
100
AcDbLine
 62
7
  6
CONTINUOUS
 10
335.2221174136
 20
125.6003011694
 11
335.2462550037
 21
125.6547379666
  0
LINE
  5
59F
100
AcDbEntity
  8
BEZUGSACHSEN
100
AcDbLine
 62
7
  6
CONTINUOUS
 10
334.9005789991
 20
124.6940950479
 11
334.9065763009
 21
124.7131788532
  0
LINE
  5
5A0
100
AcDbEntity
  8
KONSTRUKTIONSELEMENTE
100
AcDbLine
 62
7
  6
CONTINUOUS
 10
333.9007188663
 20
119.3156539287
 11
334.0453216073
 21
119.5798714593
  0
LINE
  5
5A1
100
AcDbEntity
  8
BEZUGSACHSEN
100
AcDbLine
 62
7
  6
CONTINUOUS
 10
333.8554042029
 20
119.6489957414
 11
333.7124846717
 21
119.3841655726
  0
LINE
  5
5A2
100
AcDbEntity
  8
KONSTRUKTIONSELEMENTE
100
AcDbLine
 62
7
  6
CONTINUOUS
 10
333.7200719207
 20
119.0454366185
 11
333.9007188663
 21
119.3156539287
  0
LINE
  5
5A3
100
AcDbEntity
  8
BEZUGSACHSEN
100
AcDbLine
 62
7
  6
CONTINUOUS
 10
333.7124846717
 20
119.3841655726
 11
333.6939085631
 21
119.3561504638
  0
LINE
  5
5A4
100
AcDbEntity
  8
BEZUGSACHSEN
100
AcDbLine
 62
7
  6
CONTINUOUS
 10
333.6939085631
 20
119.3561504638
 11
333.5331531475
 21
119.1134694882
  0
LINE
  5
5A5
100
AcDbEntity
  8
KONSTRUKTIONSELEMENTE
100
AcDbLine
 62
7
  6
CONTINUOUS
 10
333.6355984309
 20
118.9514485426
 11
333.7200719207
 21
119.0454366185
  0
LINE
  5
5A6
100
AcDbEntity
  8
BEZUGSACHSEN
100
AcDbLine
 62
7
  6
CONTINUOUS
 10
333.5331531475
 20
119.1134694882
 11
333.4488494565
 21
119.0194196106
  0
LINE
  5
5A7
100
AcDbEntity
  8
KONSTRUKTIONSELEMENTE
100
AcDbLine
 62
7
  6
CONTINUOUS
 10
333.6355984309
 20
118.9514485426
 11
333.5627513442
 21
118.9397282836
  0
LINE
  5
5A8
100
AcDbEntity
  8
BEZUGSACHSEN
100
AcDbLine
 62
7
  6
CONTINUOUS
 10
333.3751341599
 20
119.0080153541
 11
333.4488494565
 21
119.0194196106
  0
LINE
  5
5A9
100
AcDbEntity
  8
KONSTRUKTIONSELEMENTE
100
AcDbLine
 62
7
  6
CONTINUOUS
 10
333.4818926784
 20
118.9533832906
 11
333.4882416396
 21
118.966847738
  0
LINE
  5
5AA
100
AcDbEntity
  8
BEZUGSACHSEN
100
AcDbLine
 62
7
  6
CONTINUOUS
 10
333.3600626464
 20
119.1673812185
 11
333.3432355995
 21
119.1310696436
  0
LINE
  5
5AB
100
AcDbEntity
  8
BEZUGSACHSEN
100
AcDbLine
 62
7
  6
CONTINUOUS
 10
333.3432355995
 20
119.1310696436
 11
333.3096365
 21
119.0584710068
  0
LINE
  5
5AC
100
AcDbEntity
  8
BEZUGSACHSEN
100
AcDbLine
 62
7
  6
CONTINUOUS
 10
333.3096365
 20
119.0584710068
 11
333.3019486792
 21
119.0418419411
  0
LINE
  5
5AD
100
AcDbEntity
  8
BEZUGSACHSEN
100
AcDbLine
 62
7
  6
CONTINUOUS
 10
333.3019486792
 20
119.0418419411
 11
333.292864496
 21
119.0221839224
  0
LINE
  5
5AE
100
AcDbEntity
  8
KONSTRUKTIONSELEMENTE
100
AcDbLine
 62
7
  6
CONTINUOUS
 10
333.3175700541
 20
118.6323059503
 11
333.4405471446
 21
118.8727666393
  0
LINE
  5
5AF
100
AcDbEntity
  8
KONSTRUKTIONSELEMENTE
100
AcDbLine
 62
7
  6
CONTINUOUS
 10
333.4405471446
 20
118.8727666393
 11
333.4818926784
 21
118.9533832906
  0
LINE
  5
5B0
100
AcDbEntity
  8
KONSTRUKTIONSELEMENTE
100
AcDbLine
 62
7
  6
CONTINUOUS
 10
333.137183348
 20
118.3619939789
 11
333.3175700541
 21
118.6323059503
  0
LINE
  5
5B1
100
AcDbEntity
  8
BEZUGSACHSEN
100
AcDbLine
 62
7
  6
CONTINUOUS
 10
333.1309770886
 20
118.7002202357
 11
333.1124443665
 21
118.6721903177
  0
LINE
  5
5B2
100
AcDbEntity
  8
BEZUGSACHSEN
100
AcDbLine
 62
7
  6
CONTINUOUS
 10
333.1124443665
 20
118.6721903177
 11
332.95208134
 21
118.4293656001
  0
LINE
  5
5B3
100
AcDbEntity
  8
KONSTRUKTIONSELEMENTE
100
AcDbLine
 62
7
  6
CONTINUOUS
 10
333.0527387562
 20
118.267995385
 11
333.137183348
 21
118.3619939789
  0
LINE
  5
5B4
100
AcDbEntity
  8
BEZUGSACHSEN
100
AcDbLine
 62
7
  6
CONTINUOUS
 10
332.95208134
 20
118.4293656001
 11
332.8678517202
 21
118.3352887628
  0
LINE
  5
5B5
100
AcDbEntity
  8
KONSTRUKTIONSELEMENTE
100
AcDbLine
 62
7
  6
CONTINUOUS
 10
333.0527387562
 20
118.267995385
 11
332.9515432057
 21
118.2250151233
  0
LINE
  5
5B6
100
AcDbEntity
  8
BEZUGSACHSEN
100
AcDbLine
 62
7
  6
CONTINUOUS
 10
332.765804105
 20
118.2926186273
 11
332.8678517202
 21
118.3352887628
  0
LINE
  5
5B7
100
AcDbEntity
  8
BEZUGSACHSEN
100
AcDbLine
 62
7
  6
CONTINUOUS
 10
334.0554175538
 20
120.6973347117
 11
334.0238331989
 21
120.6452969408
  0
LINE
  5
5B8
100
AcDbEntity
  8
BEZUGSACHSEN
100
AcDbLine
 62
7
  6
CONTINUOUS
 10
334.0238331989
 20
120.6452969408
 11
333.9298038562
 21
120.4902429949
  0
LINE
  5
5B9
100
AcDbEntity
  8
KONSTRUKTIONSELEMENTE
100
AcDbLine
 62
7
  6
CONTINUOUS
 10
333.9626947385
 20
120.0973858084
 11
334.0463918513
 21
120.2565903186
  0
SPLINE
  5
5BA
100
AcDbEntity
  8
0
100
AcDbSpline
 62
7
  6
CONTINUOUS
 70
0
 71
3
 72
11
 73
7
 74
0
 42
0.0000001
 43
0.0000001
 44
0.0000000001
 40
0.0
 40
0.0
 40
0.0
 40
0.0
 40
0.2509893126
 40
0.5000000001
 40
0.7490106877
 40
1.0
 40
1.0
 40
1.0
 40
1.0
 10
339.60372057
 20
131.3127349319
 30
0.0
 10
339.6734289143
 20
131.7292955718
 30
0.0
 10
339.8459473723
 20
132.5540762795
 30
0.0
 10
340.2187478586
 20
133.7601213717
 30
0.0
 10
340.7083969582
 20
134.9236370465
 30
0.0
 10
341.106398973
 20
135.6663484506
 30
0.0
 10
341.3207593011
 20
136.0302600738
 30
0.0
  0
SPLINE
  5
5BB
100
AcDbEntity
  8
0
100
AcDbSpline
 62
7
  6
CONTINUOUS
 70
0
 71
3
 72
11
 73
7
 74
0
 42
0.0000001
 43
0.0000001
 44
0.0000000001
 40
0.0
 40
0.0
 40
0.0
 40
0.0
 40
0.2500561064
 40
0.5000000001
 40
0.7499438939
 40
1.0
 40
1.0
 40
1.0
 40
1.0
 10
335.1084548121
 20
118.9620937675
 30
0.0
 10
335.4097584366
 20
120.0162937286
 30
0.0
 10
336.0459642906
 20
122.114801233
 30
0.0
 10
337.1126983709
 20
125.2260008191
 30
0.0
 10
338.2953731998
 20
128.2950014226
 30
0.0
 10
339.1569058646
 20
130.3114966741
 30
0.0
 10
339.60372057
 20
131.3127349319
 30
0.0
  0
SPLINE
  5
5BC
100
AcDbEntity
  8
0
100
AcDbSpline
 62
7
  6
CONTINUOUS
 70
0
 71
3
 72
9
 73
5
 74
0
 42
0.0000001
 43
0.0000001
 44
0.0000000001
 40
0.0
 40
0.0
 40
0.0
 40
0.0
 40
0.4999980503
 40
1.0
 40
1.0
 40
1.0
 40
1.0
 10
330.6656426875
 20
107.243755834
 30
0.0
 10
331.3166839825
 20
109.2289712046
 30
0.0
 10
332.7084669304
 20
113.1707027161
 30
0.0
 10
334.2827975247
 20
117.0429030623
 30
0.0
 10
335.1084548121
 20
118.9620937675
 30
0.0
  0
LINE
  5
5BD
100
AcDbEntity
  8
KONSTRUKTIONSELEMENTE
100
AcDbLine
 62
7
  6
CONTINUOUS
 10
333.8514887175
 20
119.8401315467
 11
333.9070103283
 21
119.9688014939
  0
LINE
  5
5BE
100
AcDbEntity
  8
KONSTRUKTIONSELEMENTE
100
AcDbLine
 62
7
  6
CONTINUOUS
 10
333.9070103283
 20
119.9688014939
 11
333.934832266
 21
120.0331043197
  0
LINE
  5
5BF
100
AcDbEntity
  8
KONSTRUKTIONSELEMENTE
100
AcDbLine
 62
7
  6
CONTINUOUS
 10
333.934832266
 20
120.0331043197
 11
333.9626947385
 21
120.0973858084
  0
LINE
  5
5C0
100
AcDbEntity
  8
KONSTRUKTIONSELEMENTE
100
AcDbLine
 62
7
  6
CONTINUOUS
 10
333.7973832028
 20
119.691723155
 11
333.8102380519
 21
119.7270681087
  0
LINE
  5
5C1
100
AcDbEntity
  8
KONSTRUKTIONSELEMENTE
100
AcDbLine
 62
7
  6
CONTINUOUS
 10
333.8102380519
 20
119.7270681087
 11
333.8514887175
 21
119.8401315467
  0
LINE
  5
5C2
100
AcDbEntity
  8
BEZUGSACHSEN
100
AcDbLine
 62
7
  6
CONTINUOUS
 10
333.7730191797
 20
120.4173815811
 11
333.7735658393
 21
120.3841406405
  0
LINE
  5
5C3
100
AcDbEntity
  8
KONSTRUKTIONSELEMENTE
100
AcDbLine
 62
7
  6
CONTINUOUS
 10
334.8849476688
 20
123.3438513804
 11
334.7508020388
 21
123.1620241126
  0
LINE
  5
5C4
100
AcDbEntity
  8
BEZUGSACHSEN
100
AcDbLine
 62
7
  6
CONTINUOUS
 10
334.5126417976
 20
123.2487073514
 11
334.6470297943
 21
123.4304464049
  0
SPLINE
  5
5C5
100
AcDbEntity
  8
0
100
AcDbSpline
 62
7
  6
CONTINUOUS
 70
0
 71
3
 72
9
 73
5
 74
0
 42
0.0000001
 43
0.0000001
 44
0.0000000001
 40
0.0
 40
0.0
 40
0.0
 40
0.0
 40
0.4999980503
 40
1.0
 40
1.0
 40
1.0
 40
1.0
 10
336.4797055188
 20
105.1276100233
 30
0.0
 10
337.2570507953
 20
107.0668545041
 30
0.0
 10
338.7245793784
 20
110.981016859
 30
0.0
 10
340.0075745797
 20
114.9592546165
 30
0.0
 10
340.6087164088
 20
116.9601622656
 30
0.0
  0
SPLINE
  5
5C6
100
AcDbEntity
  8
0
100
AcDbSpline
 62
7
  6
CONTINUOUS
 70
0
 71
3
 72
11
 73
7
 74
0
 42
0.0000001
 43
0.0000001
 44
0.0000000001
 40
0.0
 40
0.0
 40
0.0
 40
0.0
 40
0.2500561064
 40
0.5000000001
 40
0.7499438939
 40
1.0
 40
1.0
 40
1.0
 40
1.0
 10
340.6087164088
 20
116.9601622656
 30
0.0
 10
341.0555311146
 20
117.9614005244
 30
0.0
 10
341.9170637782
 20
119.9778957771
 30
0.0
 10
343.0997386088
 20
123.0468963811
 30
0.0
 10
344.1664726902
 20
126.1580959657
 30
0.0
 10
344.8026785424
 20
128.2566034699
 30
0.0
 10
345.1039821667
 20
129.31080343
 30
0.0
  0
SPLINE
  5
5C7
100
AcDbEntity
  8
0
100
AcDbSpline
 62
7
  6
CONTINUOUS
 70
0
 71
3
 72
11
 73
7
 74
0
 42
0.0000001
 43
0.0000001
 44
0.0000000001
 40
0.0
 40
0.0
 40
0.0
 40
0.0
 40
0.2509893126
 40
0.5000000001
 40
0.7490106877
 40
1.0
 40
1.0
 40
1.0
 40
1.0
 10
345.1039821667
 20
129.31080343
 30
0.0
 10
345.3183424949
 20
129.6747150535
 30
0.0
 10
345.7163445085
 20
130.4174264586
 30
0.0
 10
346.2059936095
 20
131.5809421331
 30
0.0
 10
346.5787940972
 20
132.7869872246
 30
0.0
 10
346.7513125535
 20
133.6117679323
 30
0.0
 10
346.8210208978
 20
134.0283285719
 30
0.0
  0
LINE
  5
5C8
100
AcDbEntity
  8
BEZUGSACHSEN
100
AcDbLine
 62
7
  6
CONTINUOUS
 10
333.5232006111
 20
119.4888897396
 11
333.5245494739
 21
119.4557803067
  0
LINE
  5
5C9
100
AcDbEntity
  8
BEZUGSACHSEN
100
AcDbLine
 62
7
  6
CONTINUOUS
 10
333.5288633037
 20
119.3554106271
 11
333.5741076407
 21
119.3355994949
  0
LINE
  5
5CA
100
AcDbEntity
  8
KONSTRUKTIONSELEMENTE
100
AcDbLine
 62
7
  6
CONTINUOUS
 10
333.1772828326
 20
118.9562300472
 11
333.2183493065
 21
119.0693605245
  0
LINE
  5
5CB
100
AcDbEntity
  8
KONSTRUKTIONSELEMENTE
100
AcDbLine
 62
7
  6
CONTINUOUS
 10
333.2183493065
 20
119.0693605245
 11
333.2389551631
 21
119.1258993322
  0
LINE
  5
5CC
100
AcDbEntity
  8
KONSTRUKTIONSELEMENTE
100
AcDbLine
 62
7
  6
CONTINUOUS
 10
333.2389551631
 20
119.1258993322
 11
333.2596094319
 21
119.1824205196
  0
LINE
  5
5CD
100
AcDbEntity
  8
KONSTRUKTIONSELEMENTE
100
AcDbLine
 62
7
  6
CONTINUOUS
 10
335.9734564314
 20
125.0029854998
 11
336.1787200963
 21
125.3911056992
  0
LINE
  5
5CE
100
AcDbEntity
  8
KONSTRUKTIONSELEMENTE
100
AcDbLine
 62
7
  6
CONTINUOUS
 10
335.7740542817
 20
124.6827673922
 11
335.9734564314
 21
125.0029854998
  0
LINE
  5
5CF
100
AcDbEntity
  8
BEZUGSACHSEN
100
AcDbLine
 62
7
  6
CONTINUOUS
 10
335.7336982704
 20
125.0902503338
 11
335.5349178179
 21
124.7698059469
  0
LINE
  5
5D0
100
AcDbEntity
  8
BEZUGSACHSEN
100
AcDbLine
 62
7
  6
CONTINUOUS
 10
335.9953348519
 20
126.0881746652
 11
336.0200921466
 21
126.1142463182
  0
LINE
  5
5D1
100
AcDbEntity
  8
BEZUGSACHSEN
100
AcDbLine
 62
7
  6
CONTINUOUS
 10
336.0200921466
 20
126.1142463182
 11
336.0560932013
 21
126.1521162002
  0
LINE
  5
5D2
100
AcDbEntity
  8
BEZUGSACHSEN
100
AcDbLine
 62
7
  6
CONTINUOUS
 10
336.0560932013
 20
126.1521162002
 11
336.0765120314
 21
126.1735729705
  0
LINE
  5
5D3
100
AcDbEntity
  8
BEZUGSACHSEN
100
AcDbLine
 62
7
  6
CONTINUOUS
 10
335.8621054274
 20
125.9060139743
 11
335.9953348519
 21
126.0881746652
  0
LINE
  5
5D4
100
AcDbEntity
  8
KONSTRUKTIONSELEMENTE
100
AcDbLine
 62
7
  6
CONTINUOUS
 10
335.7981174551
 20
125.3387284182
 11
335.729698062
 21
125.2357653888
  0
LINE
  5
5D5
100
AcDbEntity
  8
KONSTRUKTIONSELEMENTE
100
AcDbLine
 62
7
  6
CONTINUOUS
 10
335.729698062
 20
125.2357653888
 11
335.6961554444
 21
125.1852873193
  0
LINE
  5
5D6
100
AcDbEntity
  8
KONSTRUKTIONSELEMENTE
100
AcDbLine
 62
7
  6
CONTINUOUS
 10
335.6961554444
 20
125.1852873193
 11
335.5951696878
 21
125.0333127542
  0
LINE
  5
5D7
100
AcDbEntity
  8
KONSTRUKTIONSELEMENTE
100
AcDbLine
 62
7
  6
CONTINUOUS
 10
335.5951696878
 20
125.0333127542
 11
335.5581319115
 21
124.9775735285
  0
LINE
  5
5D8
100
AcDbEntity
  8
BEZUGSACHSEN
100
AcDbLine
 62
7
  6
CONTINUOUS
 10
335.3058548335
 20
125.0693948757
 11
335.4442975436
 21
125.2776182019
  0
LINE
  5
5D9
100
AcDbEntity
  8
BEZUGSACHSEN
100
AcDbLine
 62
7
  6
CONTINUOUS
 10
335.4442975436
 20
125.2776182019
 11
335.8621054274
 21
125.9060139743
  0
LINE
  5
5DA
100
AcDbEntity
  8
KONSTRUKTIONSELEMENTE
100
AcDbLine
 62
7
  6
CONTINUOUS
 10
335.4856680229
 20
124.8608225699
 11
335.5170466497
 21
124.9113797662
  0
LINE
  5
5DB
100
AcDbEntity
  8
KONSTRUKTIONSELEMENTE
100
AcDbLine
 62
7
  6
CONTINUOUS
 10
335.5170466497
 20
124.9113797662
 11
335.5581319115
 21
124.9775735285
  0
LINE
  5
5DC
100
AcDbEntity
  8
BEZUGSACHSEN
100
AcDbLine
 62
7
  6
CONTINUOUS
 10
335.3058548335
 20
125.0693948757
 11
335.2239190009
 21
124.9370574572
  0
LINE
  5
5DD
100
AcDbEntity
  8
BEZUGSACHSEN
100
AcDbLine
 62
7
  6
CONTINUOUS
 10
335.2239190009
 20
124.9370574572
 11
335.1423958006
 21
124.8053665816
  0
LINE
  5
5DE
100
AcDbEntity
  8
BEZUGSACHSEN
100
AcDbLine
 62
7
  6
CONTINUOUS
 10
335.1423958006
 20
124.8053665816
 11
335.0455054802
 21
124.6345848894
  0
LINE
  5
5DF
100
AcDbEntity
  8
BEZUGSACHSEN
100
AcDbLine
 62
7
  6
CONTINUOUS
 10
335.0455054802
 20
124.6345848894
 11
335.0010322451
 21
124.5561318321
  0
LINE
  5
5E0
100
AcDbEntity
  8
BEZUGSACHSEN
100
AcDbLine
 62
7
  6
CONTINUOUS
 10
335.0010322451
 20
124.5561318321
 11
334.8820654136
 21
124.3215809341
  0
LINE
  5
5E1
100
AcDbEntity
  8
KONSTRUKTIONSELEMENTE
100
AcDbLine
 62
7
  6
CONTINUOUS
 10
333.1675831643
 20
118.9209911397
 11
333.1772828326
 21
118.9562300472
  0
LINE
  5
5E2
100
AcDbEntity
  8
RUNDUNGEN
100
AcDbLine
 62
7
  6
CONTINUOUS
 10
321.8084479882
 20
88.5159458275
 11
323.0604044238
 21
89.1244487228
  0
LINE
  5
5E3
100
AcDbEntity
  8
0
100
AcDbLine
 62
7
  6
CONTINUOUS
 10
331.2267060711
 20
85.0879802266
 11
330.6587899222
 21
86.3588625729
  0
LINE
  5
5E4
100
AcDbEntity
  8
BEZUGSACHSEN
100
AcDbLine
 62
7
  6
CONTINUOUS
 10
334.6881687257
 20
123.8236681215
 11
334.6690742942
 21
123.7685388454
  0
LINE
  5
5E5
100
AcDbEntity
  8
BEZUGSACHSEN
100
AcDbLine
 62
7
  6
CONTINUOUS
 10
334.6690742942
 20
123.7685388454
 11
334.6560919574
 21
123.7308892476
  0
LINE
  5
5E6
100
AcDbEntity
  8
BEZUGSACHSEN
100
AcDbLine
 62
7
  6
CONTINUOUS
 10
334.6367181942
 20
123.6214698773
 11
334.6689670524
 21
123.6089684424
  0
LINE
  5
5E7
100
AcDbEntity
  8
BEZUGSACHSEN
100
AcDbLine
 62
7
  6
CONTINUOUS
 10
332.9321236293
 20
118.8308866978
 11
332.9210105172
 21
118.7486299128
  0
LINE
  5
5E8
100
AcDbEntity
  8
BEZUGSACHSEN
100
AcDbLine
 62
7
  6
CONTINUOUS
 10
332.9210105172
 20
118.7486299128
 11
332.9100218195
 21
118.6659350672
  0
LINE
  5
5E9
100
AcDbEntity
  8
BEZUGSACHSEN
100
AcDbLine
 62
7
  6
CONTINUOUS
 10
332.9100218195
 20
118.6659350672
 11
332.964164725
 21
118.6204258603
  0
LINE
  5
5EA
100
AcDbEntity
  8
KONSTRUKTIONSELEMENTE
100
AcDbLine
 62
7
  6
CONTINUOUS
 10
335.6016824212
 20
124.6443950598
 11
335.6334976022
 21
124.7339256114
  0
LINE
  5
5EB
100
AcDbEntity
  8
BEZUGSACHSEN
100
AcDbLine
 62
7
  6
CONTINUOUS
 10
335.2533424979
 20
124.4228563817
 11
335.201901228
 21
124.2675674768
  0
LINE
  5
5EC
100
AcDbEntity
  8
KONSTRUKTIONSELEMENTE
100
AcDbLine
 62
7
  6
CONTINUOUS
 10
334.8849476688
 20
123.3438513804
 11
335.4406144795
 21
124.1806829588
  0
LINE
  5
5ED
100
AcDbEntity
  8
BEZUGSACHSEN
100
AcDbLine
 62
7
  6
CONTINUOUS
 10
335.201901228
 20
124.2675674768
 11
335.1195890224
 21
124.1434094091
  0
LINE
  5
5EE
100
AcDbEntity
  8
BEZUGSACHSEN
100
AcDbLine
 62
7
  6
CONTINUOUS
 10
335.1195890224
 20
124.1434094091
 11
335.0616838484
 21
124.0560616087
  0
LINE
  5
5EF
100
AcDbEntity
  8
BEZUGSACHSEN
100
AcDbLine
 62
7
  6
CONTINUOUS
 10
335.0616838484
 20
124.0560616087
 11
334.8236153109
 21
123.6969002158
  0
LINE
  5
5F0
100
AcDbEntity
  8
BEZUGSACHSEN
100
AcDbLine
 62
7
  6
CONTINUOUS
 10
334.8236153109
 20
123.6969002158
 11
334.6470297943
 21
123.4304464049
  0
LINE
  5
5F1
100
AcDbEntity
  8
BEZUGSACHSEN
100
AcDbLine
 62
7
  6
CONTINUOUS
 10
336.1329433868
 20
126.8417329619
 11
336.135140467
 21
126.8346427491
  0
LINE
  5
5F2
100
AcDbEntity
  8
BEZUGSACHSEN
100
AcDbLine
 62
7
  6
CONTINUOUS
 10
333.4841245937
 20
120.0961681643
 11
333.5686798875
 21
120.1901264659
  0
LINE
  5
5F3
100
AcDbEntity
  8
KONSTRUKTIONSELEMENTE
100
AcDbLine
 62
7
  6
CONTINUOUS
 10
333.5111022364
 20
119.7279224816
 11
333.5358725907
 21
119.769382964
  0
LINE
  5
5F4
100
AcDbEntity
  8
BEZUGSACHSEN
100
AcDbLine
 62
7
  6
CONTINUOUS
 10
336.3364086947
 20
127.448067707
 11
336.4142505447
 21
127.5728934457
  0
LINE
  5
5F5
100
AcDbEntity
  8
BEZUGSACHSEN
100
AcDbLine
 62
7
  6
CONTINUOUS
 10
336.4142505447
 20
127.5728934457
 11
336.5285650833
 21
127.75620555
  0
LINE
  5
5F6
100
AcDbEntity
  8
BEZUGSACHSEN
100
AcDbLine
 62
7
  6
CONTINUOUS
 10
336.5285650833
 20
127.75620555
 11
336.6194712914
 21
127.9019801479
  0
LINE
  5
5F7
100
AcDbEntity
  8
BEZUGSACHSEN
100
AcDbLine
 62
7
  6
CONTINUOUS
 10
336.6194712914
 20
127.9019801479
 11
336.9409906429
 21
128.4175563315
  0
LINE
  5
5F8
100
AcDbEntity
  8
BEZUGSACHSEN
100
AcDbLine
 62
7
  6
CONTINUOUS
 10
333.4841245937
 20
120.0961681643
 11
333.4693305759
 21
120.0711798258
  0
LINE
  5
5F9
100
AcDbEntity
  8
BEZUGSACHSEN
100
AcDbLine
 62
7
  6
CONTINUOUS
 10
333.4693305759
 20
120.0711798258
 11
333.3097420824
 21
119.801211584
  0
LINE
  5
5FA
100
AcDbEntity
  8
BEZUGSACHSEN
100
AcDbLine
 62
7
  6
CONTINUOUS
 10
336.1774330213
 20
127.0097588004
 11
336.1457806215
 21
126.9189043595
  0
LINE
  5
5FB
100
AcDbEntity
  8
BEZUGSACHSEN
100
AcDbLine
 62
7
  6
CONTINUOUS
 10
336.1457806215
 20
126.9189043595
 11
336.1265019268
 21
126.8629365832
  0
LINE
  5
5FC
100
AcDbEntity
  8
KONSTRUKTIONSELEMENTE
100
AcDbLine
 62
7
  6
CONTINUOUS
 10
333.3708902701
 20
119.4396475501
 11
333.4407864806
 21
119.5835759256
  0
LINE
  5
5FD
100
AcDbEntity
  8
KONSTRUKTIONSELEMENTE
100
AcDbLine
 62
7
  6
CONTINUOUS
 10
333.4407864806
 20
119.5835759256
 11
333.4758919809
 21
119.6556968992
  0
LINE
  5
5FE
100
AcDbEntity
  8
KONSTRUKTIONSELEMENTE
100
AcDbLine
 62
7
  6
CONTINUOUS
 10
333.4758919809
 20
119.6556968992
 11
333.5111022364
 21
119.7279224816
  0
LINE
  5
5FF
100
AcDbEntity
  8
BEZUGSACHSEN
100
AcDbLine
 62
7
  6
CONTINUOUS
 10
335.2481875995
 20
125.7029787476
 11
335.3487738985
 21
125.8642839643
  0
LINE
  5
600
100
AcDbEntity
  8
BEZUGSACHSEN
100
AcDbLine
 62
7
  6
CONTINUOUS
 10
335.3487738985
 20
125.8642839643
 11
335.4005015671
 21
125.9472367356
  0
LINE
  5
601
100
AcDbEntity
  8
BEZUGSACHSEN
100
AcDbLine
 62
7
  6
CONTINUOUS
 10
335.4005015671
 20
125.9472367356
 11
335.806843204
 21
126.5988574443
  0
LINE
  5
602
100
AcDbEntity
  8
BEZUGSACHSEN
100
AcDbLine
 62
7
  6
CONTINUOUS
 10
335.806843204
 20
126.5988574443
 11
336.0945785788
 21
127.0602713767
  0
LINE
  5
603
100
AcDbEntity
  8
KONSTRUKTIONSELEMENTE
100
AcDbLine
 62
7
  6
CONTINUOUS
 10
336.7560071649
 20
127.2024550479
 11
336.9488338691
 21
127.553934275
  0
LINE
  5
604
100
AcDbEntity
  8
BEZUGSACHSEN
100
AcDbLine
 62
7
  6
CONTINUOUS
 10
336.6872819773
 20
127.6491313783
 11
336.4954825937
 21
127.2972782371
  0
LINE
  5
605
100
AcDbEntity
  8
KONSTRUKTIONSELEMENTE
100
AcDbLine
 62
7
  6
CONTINUOUS
 10
336.6246963627
 20
126.9775229547
 11
336.7560071649
 21
127.2024550479
  0
LINE
  5
606
100
AcDbEntity
  8
BEZUGSACHSEN
100
AcDbLine
 62
7
  6
CONTINUOUS
 10
336.4954825937
 20
127.2972782371
 11
336.3645777211
 21
127.0721983976
  0
LINE
  5
607
100
AcDbEntity
  8
KONSTRUKTIONSELEMENTE
100
AcDbLine
 62
7
  6
CONTINUOUS
 10
336.4635798094
 20
126.718954166
 11
336.6246963627
 21
126.9775229547
  0
LINE
  5
608
100
AcDbEntity
  8
BEZUGSACHSEN
100
AcDbLine
 62
7
  6
CONTINUOUS
 10
336.3645777211
 20
127.0721983976
 11
336.2035878216
 21
126.8135835107
  0
LINE
  5
609
100
AcDbEntity
  8
KONSTRUKTIONSELEMENTE
100
AcDbLine
 62
7
  6
CONTINUOUS
 10
336.4635798094
 20
126.718954166
 11
336.3669508844
 21
126.5763643094
  0
LINE
  5
60A
100
AcDbEntity
  8
BEZUGSACHSEN
100
AcDbLine
 62
7
  6
CONTINUOUS
 10
336.0929591021
 20
126.6507590941
 11
336.2035878216
 21
126.8135835107
  0
LINE
  5
60B
100
AcDbEntity
  8
BEZUGSACHSEN
100
AcDbLine
 62
7
  6
CONTINUOUS
 10
335.9624966511
 20
126.4854855584
 11
336.0929591021
 21
126.6507590941
  0
LINE
  5
60C
100
AcDbEntity
  8
BEZUGSACHSEN
100
AcDbLine
 62
7
  6
CONTINUOUS
 10
335.9232856594
 20
126.4804219753
 11
335.7883454216
 21
126.2467284656
  0
LINE
  5
60D
100
AcDbEntity
  8
BEZUGSACHSEN
100
AcDbLine
 62
7
  6
CONTINUOUS
 10
335.7883454216
 20
126.2467284656
 11
335.5612367641
 21
125.8529353847
  0
LINE
  5
60E
100
AcDbEntity
  8
BEZUGSACHSEN
100
AcDbLine
 62
7
  6
CONTINUOUS
 10
335.5612367641
 20
125.8529353847
 11
335.5121021277
 21
125.7676557107
  0
LINE
  5
60F
100
AcDbEntity
  8
BEZUGSACHSEN
100
AcDbLine
 62
7
  6
CONTINUOUS
 10
335.5121021277
 20
125.7676557107
 11
335.2877132124
 21
125.3778011485
  0
LINE
  5
610
100
AcDbEntity
  8
BEZUGSACHSEN
100
AcDbLine
 62
7
  6
CONTINUOUS
 10
335.2877132124
 20
125.3778011485
 11
335.150744784
 21
125.1394939197
  0
LINE
  5
611
100
AcDbEntity
  8
BEZUGSACHSEN
100
AcDbLine
 62
7
  6
CONTINUOUS
 10
335.150744784
 20
125.1394939197
 11
335.0997072625
 21
125.0506263345
  0
LINE
  5
612
100
AcDbEntity
  8
BEZUGSACHSEN
100
AcDbLine
 62
7
  6
CONTINUOUS
 10
335.0997072625
 20
125.0506263345
 11
335.0177097778
 21
124.9077695895
  0
LINE
  5
613
100
AcDbEntity
  8
BEZUGSACHSEN
100
AcDbLine
 62
7
  6
CONTINUOUS
 10
335.0177097778
 20
124.9077695895
 11
334.9238033077
 21
124.744038801
  0
LINE
  5
614
100
AcDbEntity
  8
BEZUGSACHSEN
100
AcDbLine
 62
7
  6
CONTINUOUS
 10
334.9238033077
 20
124.744038801
 11
334.9061830229
 21
124.7133015751
  0
LINE
  5
615
100
AcDbEntity
  8
KONSTRUKTIONSELEMENTE
100
AcDbLine
 62
7
  6
CONTINUOUS
 10
333.2596094319
 20
119.1824205196
 11
333.2698917655
 21
119.206274442
  0
LINE
  5
616
100
AcDbEntity
  8
KONSTRUKTIONSELEMENTE
100
AcDbLine
 62
7
  6
CONTINUOUS
 10
333.2698917655
 20
119.206274442
 11
333.3430024148
 21
119.3753758741
  0
LINE
  5
617
100
AcDbEntity
  8
KONSTRUKTIONSELEMENTE
100
AcDbLine
 62
7
  6
CONTINUOUS
 10
333.3430024148
 20
119.3753758741
 11
333.3708902701
 21
119.4396475501
  0
SPLINE
  5
618
100
AcDbEntity
  8
KONSTRUKTIONSELEMENTE
100
AcDbSpline
 62
7
  6
CONTINUOUS
 70
0
 71
3
 72
13
 73
9
 74
0
 42
0.0000001
 43
0.0000001
 44
0.0000000001
 40
0.0
 40
0.0
 40
0.0
 40
0.0
 40
0.036585764
 40
0.1036118589
 40
0.1985113869
 40
0.3190324104
 40
0.625241943
 40
1.0
 40
1.0
 40
1.0
 40
1.0
 10
76.828774736
 20
88.2756104965
 30
0.0
 10
76.8165802138
 20
88.2890521607
 30
0.0
 10
76.7797321306
 20
88.3249840881
 30
0.0
 10
76.704647569
 20
88.3888095204
 30
0.0
 10
76.5908280556
 20
88.4708330283
 30
0.0
 10
76.3688194379
 20
88.6042130107
 30
0.0
 10
76.0075160257
 20
88.7727890252
 30
0.0
 10
75.6868431075
 20
88.8810240458
 30
0.0
 10
75.5082946583
 20
88.9328028083
 30
0.0
  0
SPLINE
  5
619
100
AcDbEntity
  8
KONSTRUKTIONSELEMENTE
100
AcDbSpline
 62
7
  6
CONTINUOUS
 70
0
 71
3
 72
10
 73
6
 74
0
 42
0.0000001
 43
0.0000001
 44
0.0000000001
 40
0.0
 40
0.0
 40
0.0
 40
0.0
 40
0.5949557797
 40
0.8263573095
 40
1.0
 40
1.0
 40
1.0
 40
1.0
 10
70.9992902544
 20
88.9334826312
 30
0.0
 10
70.7486085087
 20
88.8608926523
 30
0.0
 10
70.404803482
 20
88.7391765478
 30
0.0
 10
70.015695284
 20
88.5356981016
 30
0.0
 10
69.8666474935
 20
88.4380608549
 30
0.0
 10
69.8063919607
 20
88.3914666977
 30
0.0
  0
SPLINE
  5
61A
100
AcDbEntity
  8
KONSTRUKTIONSELEMENTE
100
AcDbSpline
 62
7
  6
CONTINUOUS
 70
0
 71
3
 72
11
 73
7
 74
0
 42
0.0000001
 43
0.0000001
 44
0.0000000001
 40
0.0
 40
0.0
 40
0.0
 40
0.0
 40
0.2480435044
 40
0.4958179981
 40
0.7461862315
 40
1.0
 40
1.0
 40
1.0
 40
1.0
 10
49.7526900954
 20
128.3561194711
 30
0.0
 10
49.7526900954
 20
127.9005856304
 30
0.0
 10
49.8294703071
 20
126.9881413146
 30
0.0
 10
50.1708545517
 20
125.6550368807
 30
0.0
 10
50.7189592255
 20
124.3819798593
 30
0.0
 10
51.2049747437
 20
123.5898826661
 30
0.0
 10
51.4740151649
 20
123.2092314628
 30
0.0
  0
SPLINE
  5
61B
100
AcDbEntity
  8
KONSTRUKTIONSELEMENTE
100
AcDbSpline
 62
7
  6
CONTINUOUS
 70
0
 71
3
 72
11
 73
7
 74
0
 42
0.0000001
 43
0.0000001
 44
0.0000000001
 40
0.0
 40
0.0
 40
0.0
 40
0.0
 40
0.253793101
 40
0.5041646134
 40
0.7519861526
 40
1.0
 40
1.0
 40
1.0
 40
1.0
 10
95.03033514
 20
123.2078336169
 30
0.0
 10
95.2995132547
 20
123.5885207746
 30
0.0
 10
95.7858811298
 20
124.3807104929
 30
0.0
 10
96.3342856791
 20
125.6541862075
 30
0.0
 10
96.6758183849
 20
126.9877374556
 30
0.0
 10
96.7526900954
 20
127.9004966387
 30
0.0
 10
96.7526900954
 20
128.3561194711
 30
0.0
  0
SPLINE
  5
61C
100
AcDbEntity
  8
KONSTRUKTIONSELEMENTE
100
AcDbSpline
 62
7
  6
CONTINUOUS
 70
0
 71
3
 72
11
 73
7
 74
0
 42
0.0000001
 43
0.0000001
 44
0.0000000001
 40
0.0
 40
0.0
 40
0.0
 40
0.0
 40
0.17439919
 40
0.3930179792
 40
0.667066151
 40
1.0
 40
1.0
 40
1.0
 40
1.0
 10
90.7132299135
 20
128.7698287261
 30
0.0
 10
90.6768591973
 20
128.9599139813
 30
0.0
 10
90.539672362
 20
129.3781899247
 30
0.0
 10
90.1713286811
 20
130.0248943583
 30
0.0
 10
89.5842377997
 20
130.7332666492
 30
0.0
 10
89.0834819497
 20
131.1871128803
 30
0.0
 10
88.7959922063
 20
131.4191727738
 30
0.0
  0
SPLINE
  5
61D
100
AcDbEntity
  8
KONSTRUKTIONSELEMENTE
100
AcDbSpline
 62
7
  6
CONTINUOUS
 70
0
 71
3
 72
11
 73
7
 74
0
 42
0.0000001
 43
0.0000001
 44
0.0000000001
 40
0.0
 40
0.0
 40
0.0
 40
0.0
 40
0.2079583087
 40
0.4466624586
 40
0.7120992155
 40
1.0
 40
1.0
 40
1.0
 40
1.0
 10
88.7959922063
 20
131.4191727738
 30
0.0
 10
88.4043540717
 20
131.7353005866
 30
0.0
 10
87.51088256
 20
132.3502902721
 30
0.0
 10
85.9849866213
 20
133.157781631
 30
0.0
 10
84.2082774546
 20
133.8845593311
 30
0.0
 10
82.9282661321
 20
134.284012234
 30
0.0
 10
82.2558678836
 20
134.4667421967
 30
0.0
  0
SPLINE
  5
61E
100
AcDbEntity
  8
KONSTRUKTIONSELEMENTE
100
AcDbSpline
 62
7
  6
CONTINUOUS
 70
0
 71
3
 72
11
 73
7
 74
0
 42
0.0000001
 43
0.0000001
 44
0.0000000001
 40
0.0
 40
0.0
 40
0.0
 40
0.0
 40
0.287881098
 40
0.5533089977
 40
0.7920173979
 40
1.0
 40
1.0
 40
1.0
 40
1.0
 10
64.2470593109
 20
134.4660777933
 30
0.0
 10
63.5750775953
 20
134.2834021761
 30
0.0
 10
62.2958444137
 20
133.884071975
 30
0.0
 10
60.5201631845
 20
133.1576255293
 30
0.0
 10
58.9950266353
 20
132.3505611884
 30
0.0
 10
58.1019100986
 20
131.7359497389
 30
0.0
 10
57.7104015508
 20
131.4199917078
 30
0.0
  0
SPLINE
  5
61F
100
AcDbEntity
  8
KONSTRUKTIONSELEMENTE
100
AcDbSpline
 62
7
  6
CONTINUOUS
 70
0
 71
3
 72
11
 73
7
 74
0
 42
0.0000001
 43
0.0000001
 44
0.0000000001
 40
0.0
 40
0.0
 40
0.0
 40
0.0
 40
0.33293687
 40
0.606964196
 40
0.825604635
 40
1.0
 40
1.0
 40
1.0
 40
1.0
 10
57.7104015508
 20
131.4199917078
 30
0.0
 10
57.4227898092
 20
131.1878812211
 30
0.0
 10
56.9218121516
 20
130.7339744192
 30
0.0
 10
56.3344296832
 20
130.0254390498
 30
0.0
 10
55.9658691198
 20
129.3785771567
 30
0.0
 10
55.8285724046
 20
128.9601585892
 30
0.0
 10
55.7921796068
 20
128.7700160931
 30
0.0
  0
SPLINE
  5
620
100
AcDbEntity
  8
KONSTRUKTIONSELEMENTE
100
AcDbSpline
 62
7
  6
CONTINUOUS
 70
0
 71
3
 72
16
 73
12
 74
0
 42
0.0000001
 43
0.0000001
 44
0.0000000001
 40
0.0
 40
0.0
 40
0.0
 40
0.0
 40
0.0546475686
 40
0.1091125285
 40
0.2190880858
 40
0.3319855668
 40
0.4501090655
 40
0.5754119215
 40
0.7089273814
 40
0.8507225731
 40
1.0
 40
1.0
 40
1.0
 40
1.0
 10
96.7526900954
 20
128.3561194711
 30
0.0
 10
96.7526900954
 20
128.7285721752
 30
0.0
 10
96.7014817963
 20
129.4733302874
 30
0.0
 10
96.396844049
 20
130.9389481993
 30
0.0
 10
95.64881047
 20
132.6983038466
 30
0.0
 10
94.2639327666
 20
134.5851809018
 30
0.0
 10
92.473438316
 20
136.2436211651
 30
0.0
 10
90.3339539054
 20
137.6809013188
 30
0.0
 10
87.885740485
 20
138.903862069
 30
0.0
 10
85.1680832938
 20
139.9115754736
 30
0.0
 10
83.2484163672
 20
140.4240228348
 30
0.0
 10
82.2553963061
 20
140.6454427184
 30
0.0
  0
SPLINE
  5
621
100
AcDbEntity
  8
KONSTRUKTIONSELEMENTE
100
AcDbSpline
 62
7
  6
CONTINUOUS
 70
0
 71
3
 72
16
 73
12
 74
0
 42
0.0000001
 43
0.0000001
 44
0.0000000001
 40
0.0
 40
0.0
 40
0.0
 40
0.0
 40
0.1492768479
 40
0.2910705019
 40
0.424584502
 40
0.5498835122
 40
0.668005848
 40
0.7809024173
 40
0.8908828228
 40
0.9453597968
 40
1.0
 40
1.0
 40
1.0
 40
1.0
 10
64.2461348204
 20
140.6445785138
 30
0.0
 10
63.2533328213
 20
140.4230998157
 30
0.0
 10
61.3341065741
 20
139.9105441015
 30
0.0
 10
58.6170955553
 20
138.9027627772
 30
0.0
 10
56.1695363662
 20
137.67977892
 30
0.0
 10
54.0306469173
 20
136.2425783582
 30
0.0
 10
52.2407326328
 20
134.584273929
 30
0.0
 10
50.856186087
 20
132.6976952559
 30
0.0
 10
50.1083933026
 20
130.9385107738
 30
0.0
 10
49.8039151549
 20
129.473092434
 30
0.0
 10
49.7526900954
 20
128.7284502034
 30
0.0
 10
49.7526900954
 20
128.3561194711
 30
0.0
  0
SPLINE
  5
622
100
AcDbEntity
  8
BEZUGSACHSEN
100
AcDbSpline
 62
7
  6
CONTINUOUS
 70
0
 71
3
 72
9
 73
5
 74
0
 42
0.0000001
 43
0.0000001
 44
0.0000000001
 40
0.0
 40
0.0
 40
0.0
 40
0.0
 40
0.4728531017
 40
1.0
 40
1.0
 40
1.0
 40
1.0
 10
77.5238519943
 20
69.8556159007
 30
0.0
 10
77.2670155429
 20
69.6973286594
 30
0.0
 10
76.6902428025
 20
69.4164673685
 30
0.0
 10
76.0804789269
 20
69.2224153951
 30
0.0
 10
75.7546049378
 20
69.1391804064
 30
0.0
  0
SPLINE
  5
623
100
AcDbEntity
  8
BEZUGSACHSEN
100
AcDbSpline
 62
7
  6
CONTINUOUS
 70
0
 71
3
 72
9
 73
5
 74
0
 42
0.0000001
 43
0.0000001
 44
0.0000000001
 40
0.0
 40
0.0
 40
0.0
 40
0.0
 40
0.5271468983
 40
1.0
 40
1.0
 40
1.0
 40
1.0
 10
70.7507752531
 20
69.1391804064
 30
0.0
 10
70.424901264
 20
69.2224153951
 30
0.0
 10
69.8151373884
 20
69.4164673685
 30
0.0
 10
69.2383646479
 20
69.6973286594
 30
0.0
 10
68.9815281966
 20
69.8556159007
 30
0.0
  0
SPLINE
  5
624
100
AcDbEntity
  8
KONSTRUKTIONSELEMENTE
100
AcDbSpline
 62
7
  6
CONTINUOUS
 70
0
 71
3
 72
9
 73
5
 74
0
 42
0.0000001
 43
0.0000001
 44
0.0000000001
 40
0.0
 40
0.0
 40
0.0
 40
0.0
 40
0.2459783277
 40
1.0
 40
1.0
 40
1.0
 40
1.0
 10
69.6126900954
 20
39.0240686636
 30
0.0
 10
69.6126900954
 20
39.0502439496
 30
0.0
 10
69.6074733935
 20
39.1566317451
 30
0.0
 10
69.5808515121
 20
39.2616541265
 30
0.0
 10
69.5512029927
 20
39.3362131788
 30
0.0
  0
SPLINE
  5
625
100
AcDbEntity
  8
KONSTRUKTIONSELEMENTE
100
AcDbSpline
 62
7
  6
CONTINUOUS
 70
0
 71
3
 72
13
 73
9
 74
0
 42
0.0000001
 43
0.0000001
 44
0.0000000001
 40
0.0
 40
0.0
 40
0.0
 40
0.0
 40
0.1818002305
 40
0.2921015987
 40
0.4154185783
 40
0.550413638
 40
0.6948345221
 40
1.0
 40
1.0
 40
1.0
 40
1.0
 10
69.5512029927
 20
39.3362131788
 30
0.0
 10
69.4717999457
 20
39.5358931652
 30
0.0
 10
69.2342505752
 20
39.8112407117
 30
0.0
 10
68.8277990624
 20
40.0853105034
 30
0.0
 10
68.4332747148
 20
40.2748454778
 30
0.0
 10
67.9815047639
 20
40.4274657547
 30
0.0
 10
67.3066698727
 20
40.5800670009
 30
0.0
 10
66.7733962494
 20
40.6240686636
 30
0.0
 10
66.4126900954
 20
40.6240686636
 30
0.0
  0
SPLINE
  5
626
100
AcDbEntity
  8
KONSTRUKTIONSELEMENTE
100
AcDbSpline
 62
7
  6
CONTINUOUS
 70
0
 71
3
 72
9
 73
5
 74
0
 42
0.0000001
 43
0.0000001
 44
0.0000000001
 40
0.0
 40
0.0
 40
0.0
 40
0.0
 40
0.4707698622
 40
1.0
 40
1.0
 40
1.0
 40
1.0
 10
49.072382376
 20
59.6698380327
 30
0.0
 10
49.0723996374
 20
59.7141830788
 30
0.0
 10
49.0501762669
 20
59.8090972447
 30
0.0
 10
48.9939535976
 20
59.8870851719
 30
0.0
 10
48.9599527805
 20
59.9235426658
 30
0.0
  0
SPLINE
  5
627
100
AcDbEntity
  8
KONSTRUKTIONSELEMENTE
100
AcDbSpline
 62
7
  6
CONTINUOUS
 70
0
 71
3
 72
13
 73
9
 74
0
 42
0.0000001
 43
0.0000001
 44
0.0000000001
 40
0.0
 40
0.0
 40
0.0
 40
0.0
 40
0.0911005566
 40
0.1874035572
 40
0.2929456088
 40
0.4101844558
 40
0.6821093905
 40
1.0
 40
1.0
 40
1.0
 40
1.0
 10
43.3852479573
 20
61.5800372001
 30
0.0
 10
43.3852590669
 20
61.6085780005
 30
0.0
 10
43.3939270071
 20
61.6675779676
 30
0.0
 10
43.4315870974
 20
61.7522818722
 30
0.0
 10
43.4923763842
 20
61.8325563348
 30
0.0
 10
43.6077773792
 20
61.9370549148
 30
0.0
 10
43.8039367983
 20
62.0454800122
 30
0.0
 10
43.9811146966
 20
62.1010745396
 30
0.0
 10
44.0781049832
 20
62.1236881963
 30
0.0
  0
SPLINE
  5
628
100
AcDbEntity
  8
KONSTRUKTIONSELEMENTE
100
AcDbSpline
 62
7
  6
CONTINUOUS
 70
0
 71
3
 72
14
 73
10
 74
0
 42
0.0000001
 43
0.0000001
 44
0.0000000001
 40
0.0
 40
0.0
 40
0.0
 40
0.0
 40
0.0910697198
 40
0.1873160156
 40
0.2927860408
 40
0.4099542777
 40
0.5398349918
 40
0.6822728715
 40
1.0
 40
1.0
 40
1.0
 40
1.0
 10
38.0684059088
 20
67.9376999527
 30
0.0
 10
38.0684204684
 20
68.0328682799
 30
0.0
 10
38.0971503276
 20
68.2295992868
 30
0.0
 10
38.2226765259
 20
68.5120151741
 30
0.0
 10
38.4252691021
 20
68.7796252245
 30
0.0
 10
38.699409277
 20
69.0282056578
 30
0.0
 10
39.0394749144
 20
69.2541632059
 30
0.0
 10
39.5921441583
 20
69.5300568463
 30
0.0
 10
40.0545673226
 20
69.6749241877
 30
0.0
 10
40.3779212436
 20
69.7503153926
 30
0.0
  0
SPLINE
  5
629
100
AcDbEntity
  8
KONSTRUKTIONSELEMENTE
100
AcDbSpline
 62
7
  6
CONTINUOUS
 70
0
 71
3
 72
10
 73
6
 74
0
 42
0.0000001
 43
0.0000001
 44
0.0000000001
 40
0.0
 40
0.0
 40
0.0
 40
0.0
 40
0.2319937865
 40
0.4720122614
 40
1.0
 40
1.0
 40
1.0
 40
1.0
 10
38.068406069
 20
64.4735314172
 30
0.0
 10
38.0684000412
 20
64.4005352108
 30
0.0
 10
38.0849803601
 20
64.251514433
 30
0.0
 10
38.1856909866
 20
63.9514884292
 30
0.0
 10
38.3298563172
 20
63.7498553153
 30
0.0
 10
38.4431631424
 20
63.6283616799
 30
0.0
  0
SPLINE
  5
62A
100
AcDbEntity
  8
KONSTRUKTIONSELEMENTE
100
AcDbSpline
 62
7
  6
CONTINUOUS
 70
0
 71
3
 72
10
 73
6
 74
0
 42
0.0000001
 43
0.0000001
 44
0.0000000001
 40
0.0
 40
0.0
 40
0.0
 40
0.0
 40
0.2319937865
 40
0.4720122614
 40
1.0
 40
1.0
 40
1.0
 40
1.0
 10
91.3321332457
 20
45.2461362634
 30
0.0
 10
91.3321272179
 20
45.3191324698
 30
0.0
 10
91.3487075368
 20
45.4681532476
 30
0.0
 10
91.4494181633
 20
45.7681792514
 30
0.0
 10
91.5935834939
 20
45.9698123653
 30
0.0
 10
91.7068903191
 20
46.0913060007
 30
0.0
  0
SPLINE
  5
62B
100
AcDbEntity
  8
KONSTRUKTIONSELEMENTE
100
AcDbSpline
 62
7
  6
CONTINUOUS
 70
0
 71
3
 72
9
 73
5
 74
0
 42
0.0000001
 43
0.0000001
 44
0.0000000001
 40
0.0
 40
0.0
 40
0.0
 40
0.0
 40
0.2386817686
 40
1.0
 40
1.0
 40
1.0
 40
1.0
 10
92.7311213973
 20
47.1907307506
 30
0.0
 10
92.8011391144
 20
47.1607649142
 30
0.0
 10
93.0976600451
 20
47.04266021
 30
0.0
 10
93.4050659573
 20
46.9527156254
 30
0.0
 10
93.6416484203
 20
46.8975555183
 30
0.0
  0
SPLINE
  5
62C
100
AcDbEntity
  8
KONSTRUKTIONSELEMENTE
100
AcDbSpline
 62
7
  6
CONTINUOUS
 70
0
 71
3
 72
13
 73
9
 74
0
 42
0.0000001
 43
0.0000001
 44
0.0000000001
 40
0.0
 40
0.0
 40
0.0
 40
0.0
 40
0.0822829264
 40
0.1731425714
 40
0.2778852515
 40
0.3984458421
 40
0.6815990786
 40
1.0
 40
1.0
 40
1.0
 40
1.0
 10
68.0126900954
 20
33.5704788251
 30
0.0
 10
68.0126900954
 20
33.5307227892
 30
0.0
 10
68.0302900563
 20
33.4464331818
 30
0.0
 10
68.1035763028
 20
33.3314334147
 30
0.0
 10
68.2179270657
 20
33.228115041
 30
0.0
 10
68.4302854075
 20
33.1022651985
 30
0.0
 10
68.7676575301
 20
32.997857526
 30
0.0
 10
69.0588506658
 20
32.9704788251
 30
0.0
 10
69.2126900954
 20
32.9704788251
 30
0.0
  0
SPLINE
  5
62D
100
AcDbEntity
  8
KONSTRUKTIONSELEMENTE
100
AcDbSpline
 62
7
  6
CONTINUOUS
 70
0
 71
3
 72
11
 73
7
 74
0
 42
0.0000001
 43
0.0000001
 44
0.0000000001
 40
0.0
 40
0.0
 40
0.0
 40
0.0
 40
0.1862435736
 40
0.408604906
 40
0.6812556469
 40
1.0
 40
1.0
 40
1.0
 40
1.0
 10
98.9479234381
 20
45.5329385489
 30
0.0
 10
98.9479250485
 20
45.5523408033
 30
0.0
 10
98.9342730799
 20
45.5951831399
 30
0.0
 10
98.8832115935
 20
45.6466741077
 30
0.0
 10
98.8084724363
 20
45.6881356147
 30
0.0
 10
98.7493104474
 20
45.706684559
 30
0.0
 10
98.7169720277
 20
45.7142243854
 30
0.0
  0
SPLINE
  5
62E
100
AcDbEntity
  8
KONSTRUKTIONSELEMENTE
100
AcDbSpline
 62
7
  6
CONTINUOUS
 70
0
 71
3
 72
14
 73
10
 74
0
 42
0.0000001
 43
0.0000001
 44
0.0000000001
 40
0.0
 40
0.0
 40
0.0
 40
0.0
 40
0.091069024
 40
0.1873133516
 40
0.2927849079
 40
0.4099554909
 40
0.5398349187
 40
0.6822875678
 40
1.0
 40
1.0
 40
1.0
 40
1.0
 10
117.5000637949
 20
65.8245732568
 30
0.0
 10
117.5000661927
 20
65.9197421561
 30
0.0
 10
117.4713044279
 20
66.1164706178
 30
0.0
 10
117.3458165183
 20
66.3989006516
 30
0.0
 10
117.1432169376
 20
66.6665196017
 30
0.0
 10
116.8690681286
 20
66.9150994846
 30
0.0
 10
116.5289902069
 20
67.1410790956
 30
0.0
 10
115.9763073657
 20
67.4169631853
 30
0.0
 10
115.5138801928
 20
67.5618353378
 30
0.0
 10
115.1905368177
 20
67.6372240839
 30
0.0
  0
SPLINE
  5
62F
100
AcDbEntity
  8
BEZUGSACHSEN
100
AcDbSpline
 62
7
  6
CONTINUOUS
 70
0
 71
3
 72
14
 73
10
 74
0
 42
0.0000001
 43
0.0000001
 44
0.0000000001
 40
0.0
 40
0.0
 40
0.0
 40
0.0
 40
0.0920213105
 40
0.1890141136
 40
0.294800881
 40
0.4118936649
 40
0.5413773781
 40
0.6832527832
 40
1.0
 40
1.0
 40
1.0
 40
1.0
 10
67.7526900954
 20
68.1240686636
 30
0.0
 10
67.7526900954
 20
68.2507005295
 30
0.0
 10
67.7896870915
 20
68.5120289208
 30
0.0
 10
67.9511244637
 20
68.888441588
 30
0.0
 10
68.2125962982
 20
69.2464018581
 30
0.0
 10
68.5670482278
 20
69.580456858
 30
0.0
 10
69.0076453693
 20
69.8860811682
 30
0.0
 10
69.7255709274
 20
70.262782296
 30
0.0
 10
70.3284532464
 20
70.4651887191
 30
0.0
 10
70.7507752531
 20
70.5730585359
 30
0.0
  0
SPLINE
  5
630
100
AcDbEntity
  8
BEZUGSACHSEN
100
AcDbSpline
 62
7
  6
CONTINUOUS
 70
0
 71
3
 72
14
 73
10
 74
0
 42
0.0000001
 43
0.0000001
 44
0.0000000001
 40
0.0
 40
0.0
 40
0.0
 40
0.0
 40
0.3167472168
 40
0.4586226219
 40
0.5881063351
 40
0.705199119
 40
0.8109858864
 40
0.9079786895
 40
1.0
 40
1.0
 40
1.0
 40
1.0
 10
75.7546049378
 20
70.5730585359
 30
0.0
 10
76.1769269445
 20
70.4651887191
 30
0.0
 10
76.7798092635
 20
70.262782296
 30
0.0
 10
77.4977348215
 20
69.8860811682
 30
0.0
 10
77.9383319631
 20
69.580456858
 30
0.0
 10
78.2927838927
 20
69.2464018581
 30
0.0
 10
78.5542557272
 20
68.888441588
 30
0.0
 10
78.7156930993
 20
68.5120289208
 30
0.0
 10
78.7526900954
 20
68.2507005295
 30
0.0
 10
78.7526900954
 20
68.1240686636
 30
0.0
  0
SPLINE
  5
631
100
AcDbEntity
  8
KONSTRUKTIONSELEMENTE
100
AcDbSpline
 62
7
  6
CONTINUOUS
 70
0
 71
3
 72
10
 73
6
 74
0
 42
0.0000001
 43
0.0000001
 44
0.0000000001
 40
0.0
 40
0.0
 40
0.0
 40
0.0
 40
0.5279824831
 40
0.7679773886
 40
1.0
 40
1.0
 40
1.0
 40
1.0
 10
117.1252949188
 20
61.5152703712
 30
0.0
 10
117.2386043239
 20
61.6367667728
 30
0.0
 10
117.3827665062
 20
61.8384016123
 30
0.0
 10
117.4834763762
 20
62.1384382222
 30
0.0
 10
117.5000619553
 20
62.2874639765
 30
0.0
 10
117.5000637949
 20
62.3604716416
 30
0.0
  0
SPLINE
  5
632
100
AcDbEntity
  8
KONSTRUKTIONSELEMENTE
100
AcDbSpline
 62
7
  6
CONTINUOUS
 70
0
 71
3
 72
11
 73
7
 74
0
 42
0.0000001
 43
0.0000001
 44
0.0000000001
 40
0.0
 40
0.0
 40
0.0
 40
0.0
 40
0.2734264244
 40
0.550400994
 40
0.800024594
 40
1.0
 40
1.0
 40
1.0
 40
1.0
 10
116.1288444114
 20
60.9200631832
 30
0.0
 10
116.1784246383
 20
60.9085033635
 30
0.0
 10
116.2810447673
 20
60.8966528982
 30
0.0
 10
116.4305639465
 20
60.9076153841
 30
0.0
 10
116.5614884484
 20
60.9444839633
 30
0.0
 10
116.6350198719
 20
60.9895712556
 30
0.0
 10
116.6604148309
 20
61.0168010883
 30
0.0
  0
SPLINE
  5
633
100
AcDbEntity
  8
KONSTRUKTIONSELEMENTE
100
AcDbSpline
 62
7
  6
CONTINUOUS
 70
0
 71
3
 72
9
 73
5
 74
0
 42
0.0000001
 43
0.0000001
 44
0.0000000001
 40
0.0
 40
0.0
 40
0.0
 40
0.0
 40
0.5293700881
 40
1.0
 40
1.0
 40
1.0
 40
1.0
 10
98.9104478378
 20
41.9843375605
 30
0.0
 10
98.9217765407
 20
41.9964848014
 30
0.0
 10
98.9405124478
 20
42.0224565836
 30
0.0
 10
98.9479222125
 20
42.0540699425
 30
0.0
 10
98.9479234381
 20
42.0688369337
 30
0.0
  0
SPLINE
  5
634
100
AcDbEntity
  8
KONSTRUKTIONSELEMENTE
100
AcDbSpline
 62
7
  6
CONTINUOUS
 70
0
 71
3
 72
11
 73
7
 74
0
 42
0.0000001
 43
0.0000001
 44
0.0000000001
 40
0.0
 40
0.0
 40
0.0
 40
0.0
 40
0.2884496779
 40
0.5598869462
 40
0.7999109858
 40
1.0
 40
1.0
 40
1.0
 40
1.0
 10
95.093559187
 20
40.6240686636
 30
0.0
 10
95.4676139201
 20
40.6240686636
 30
0.0
 10
96.1947196935
 20
40.6743193699
 30
0.0
 10
97.2123398738
 20
40.8974892276
 30
0.0
 10
98.0704028208
 20
41.249290644
 30
0.0
 10
98.5418215635
 20
41.5890767624
 30
0.0
 10
98.7187903351
 20
41.7788321401
 30
0.0
  0
SPLINE
  5
635
100
AcDbEntity
  8
KONSTRUKTIONSELEMENTE
100
AcDbSpline
 62
7
  6
CONTINUOUS
 70
0
 71
3
 72
15
 73
11
 74
0
 42
0.0000001
 43
0.0000001
 44
0.0000000001
 40
0.0
 40
0.0
 40
0.0
 40
0.0
 40
0.1615456735
 40
0.3184696669
 40
0.4664746936
 40
0.6019445856
 40
0.7223851238
 40
0.8270394449
 40
0.9177746375
 40
1.0
 40
1.0
 40
1.0
 40
1.0
 10
80.0926900954
 20
40.6240686636
 30
0.0
 10
79.8843415735
 20
40.6240686636
 30
0.0
 10
79.4733075187
 20
40.6041236455
 30
0.0
 10
78.8772759722
 20
40.5150860919
 30
0.0
 10
78.3266864992
 20
40.3704506673
 30
0.0
 10
77.8418346573
 20
40.1755234793
 30
0.0
 10
77.4399650969
 20
39.9370047948
 30
0.0
 10
77.1350858899
 20
39.661520192
 30
0.0
 10
76.9395339785
 20
39.3549015603
 30
0.0
 10
76.8926900954
 20
39.1301162746
 30
0.0
 10
76.8926900954
 20
39.0240686636
 30
0.0
  0
SPLINE
  5
636
100
AcDbEntity
  8
KONSTRUKTIONSELEMENTE
100
AcDbSpline
 62
7
  6
CONTINUOUS
 70
0
 71
3
 72
13
 73
9
 74
0
 42
0.0000001
 43
0.0000001
 44
0.0000000001
 40
0.0
 40
0.0
 40
0.0
 40
0.0
 40
0.3184009214
 40
0.6015541579
 40
0.7221147485
 40
0.8268574286
 40
0.9177170736
 40
1.0
 40
1.0
 40
1.0
 40
1.0
 10
77.2926900954
 20
32.9704788251
 30
0.0
 10
77.4465295251
 20
32.9704788251
 30
0.0
 10
77.7377226607
 20
32.997857526
 30
0.0
 10
78.0750947834
 20
33.1022651985
 30
0.0
 10
78.2874531252
 20
33.228115041
 30
0.0
 10
78.4018038881
 20
33.3314334147
 30
0.0
 10
78.4750901346
 20
33.4464331818
 30
0.0
 10
78.4926900954
 20
33.5307227892
 30
0.0
 10
78.4926900954
 20
33.5704788251
 30
0.0
  0
SPLINE
  5
637
100
AcDbEntity
  8
KONSTRUKTIONSELEMENTE
100
AcDbSpline
 62
7
  6
CONTINUOUS
 70
0
 71
3
 72
12
 73
8
 74
0
 42
0.0000001
 43
0.0000001
 44
0.0000000001
 40
0.0
 40
0.0
 40
0.0
 40
0.0
 40
0.308236638
 40
0.5735907463
 40
0.7989749866
 40
0.9012734709
 40
1.0
 40
1.0
 40
1.0
 40
1.0
 10
79.6641661487
 20
40.6079176096
 30
0.0
 10
79.4932534264
 20
40.537872947
 30
0.0
 10
79.1836185949
 20
40.3838822388
 30
0.0
 10
78.8026456554
 20
40.0876842943
 30
0.0
 10
78.5891676943
 20
39.7940147344
 30
0.0
 10
78.506346007
 20
39.5504885726
 30
0.0
 10
78.4926900954
 20
39.4296401183
 30
0.0
 10
78.4926900954
 20
39.3704788251
 30
0.0
  0
SPLINE
  5
638
100
AcDbEntity
  8
KONSTRUKTIONSELEMENTE
100
AcDbSpline
 62
7
  6
CONTINUOUS
 70
0
 71
3
 72
12
 73
8
 74
0
 42
0.0000001
 43
0.0000001
 44
0.0000000001
 40
0.0
 40
0.0
 40
0.0
 40
0.0
 40
0.308236638
 40
0.5735907463
 40
0.7989749866
 40
0.9012734709
 40
1.0
 40
1.0
 40
1.0
 40
1.0
 10
66.8412140422
 20
40.6079176096
 30
0.0
 10
67.0121267645
 20
40.537872947
 30
0.0
 10
67.321761596
 20
40.3838822388
 30
0.0
 10
67.7027345355
 20
40.0876842943
 30
0.0
 10
67.9162124966
 20
39.7940147344
 30
0.0
 10
67.9990341839
 20
39.5504885726
 30
0.0
 10
68.0126900954
 20
39.4296401183
 30
0.0
 10
68.0126900954
 20
39.3704788251
 30
0.0
  0
SPLINE
  5
639
100
AcDbEntity
  8
KONSTRUKTIONSELEMENTE
100
AcDbSpline
 62
7
  6
CONTINUOUS
 70
0
 71
3
 72
9
 73
5
 74
0
 42
0.0000001
 43
0.0000001
 44
0.0000000001
 40
0.0
 40
0.0
 40
0.0
 40
0.0
 40
0.5292301378
 40
1.0
 40
1.0
 40
1.0
 40
1.0
 10
43.4976775528
 20
58.5550512749
 30
0.0
 10
43.4636767357
 20
58.5915087688
 30
0.0
 10
43.4074540664
 20
58.669496696
 30
0.0
 10
43.3852306959
 20
58.7644108619
 30
0.0
 10
43.3852479573
 20
58.808755908
 30
0.0
  0
SPLINE
  5
63A
100
AcDbEntity
  8
KONSTRUKTIONSELEMENTE
100
AcDbSpline
 62
7
  6
CONTINUOUS
 70
0
 71
3
 72
11
 73
7
 74
0
 42
0.0000001
 43
0.0000001
 44
0.0000000001
 40
0.0
 40
0.0
 40
0.0
 40
0.0
 40
0.2000973744
 40
0.4401131622
 40
0.7115402142
 40
1.0
 40
1.0
 40
1.0
 40
1.0
 10
58.8203690454
 20
41.7788321401
 30
0.0
 10
58.9973451828
 20
41.5890688644
 30
0.0
 10
59.4687686807
 20
41.2492881542
 30
0.0
 10
60.3268175902
 20
40.8974904848
 30
0.0
 10
61.3444271304
 20
40.6743234398
 30
0.0
 10
62.0715324127
 20
40.6240686636
 30
0.0
 10
62.4456001935
 20
40.6240686636
 30
0.0
  0
SPLINE
  5
63B
100
AcDbEntity
  8
KONSTRUKTIONSELEMENTE
100
AcDbSpline
 62
7
  6
CONTINUOUS
 70
0
 71
3
 72
14
 73
10
 74
0
 42
0.0000001
 43
0.0000001
 44
0.0000000001
 40
0.0
 40
0.0
 40
0.0
 40
0.0
 40
0.0934427136
 40
0.2005530181
 40
0.320278692
 40
0.4502118816
 40
0.5870699674
 40
0.7270482518
 40
1.0
 40
1.0
 40
1.0
 40
1.0
 10
105.7378166089
 20
61.1360152655
 30
0.0
 10
105.8566874941
 20
61.2634749835
 30
0.0
 10
106.1490517201
 20
61.5026761448
 30
0.0
 10
106.675828369
 20
61.789200953
 30
0.0
 10
107.3022544016
 20
62.0196544532
 30
0.0
 10
108.0053379662
 20
62.185464319
 30
0.0
 10
108.759521807
 20
62.280697859
 30
0.0
 10
109.7854429444
 20
62.3081137432
 30
0.0
 10
110.5577133711
 20
62.2189937176
 30
0.0
 10
111.053520804
 20
62.1033943161
 30
0.0
  0
SPLINE
  5
63C
100
AcDbEntity
  8
KONSTRUKTIONSELEMENTE
100
AcDbSpline
 62
7
  6
CONTINUOUS
 70
0
 71
3
 72
13
 73
9
 74
0
 42
0.0000001
 43
0.0000001
 44
0.0000000001
 40
0.0
 40
0.0
 40
0.0
 40
0.0
 40
0.0911005566
 40
0.1874035572
 40
0.2929456088
 40
0.4101844558
 40
0.6821093905
 40
1.0
 40
1.0
 40
1.0
 40
1.0
 10
43.3852479573
 20
58.808755908
 30
0.0
 10
43.3852590669
 20
58.8372967084
 30
0.0
 10
43.3939270071
 20
58.8962966755
 30
0.0
 10
43.4315870974
 20
58.9810005801
 30
0.0
 10
43.4923763842
 20
59.0612750426
 30
0.0
 10
43.6077773792
 20
59.1657736227
 30
0.0
 10
43.8039367983
 20
59.2741987201
 30
0.0
 10
43.9811146966
 20
59.3297932475
 30
0.0
 10
44.0781049832
 20
59.3524069042
 30
0.0
  0
SPLINE
  5
63D
100
AcDbEntity
  8
KONSTRUKTIONSELEMENTE
100
AcDbSpline
 62
7
  6
CONTINUOUS
 70
0
 71
3
 72
9
 73
5
 74
0
 42
0.0000001
 43
0.0000001
 44
0.0000000001
 40
0.0
 40
0.0
 40
0.0
 40
0.0
 40
0.5448269476
 40
1.0
 40
1.0
 40
1.0
 40
1.0
 10
48.3795253501
 20
59.472597198
 30
0.0
 10
48.4861589397
 20
59.4974592277
 30
0.0
 10
48.6785621022
 20
59.5591823217
 30
0.0
 10
48.8540188018
 20
59.6642074219
 30
0.0
 10
48.9219270846
 20
59.7254960981
 30
0.0
  0
SPLINE
  5
63E
100
AcDbEntity
  8
KONSTRUKTIONSELEMENTE
100
AcDbSpline
 62
7
  6
CONTINUOUS
 70
0
 71
3
 72
9
 73
5
 74
0
 42
0.0000001
 43
0.0000001
 44
0.0000000001
 40
0.0
 40
0.0
 40
0.0
 40
0.0
 40
0.2612271511
 40
1.0
 40
1.0
 40
1.0
 40
1.0
 10
48.9219270846
 20
59.7254960981
 30
0.0
 10
48.9294259128
 20
59.7322639508
 30
0.0
 10
48.9575317739
 20
59.7588194185
 30
0.0
 10
48.9831496048
 20
59.7880832142
 30
0.0
 10
48.9999621935
 20
59.811179318
 30
0.0
  0
SPLINE
  5
63F
100
AcDbEntity
  8
KONSTRUKTIONSELEMENTE
100
AcDbSpline
 62
7
  6
CONTINUOUS
 70
0
 71
3
 72
10
 73
6
 74
0
 42
0.0000001
 43
0.0000001
 44
0.0000000001
 40
0.0
 40
0.0
 40
0.0
 40
0.0
 40
0.2999842026
 40
0.5696213514
 40
1.0
 40
1.0
 40
1.0
 40
1.0
 10
47.7033361313
 20
60.1976434277
 30
0.0
 10
47.7780244144
 20
60.2150572868
 30
0.0
 10
47.9185120342
 20
60.2567407106
 30
0.0
 10
48.1497593788
 20
60.3632345545
 30
0.0
 10
48.2971562864
 20
60.482774593
 30
0.0
 10
48.3511670938
 20
60.5786327246
 30
0.0
  0
SPLINE
  5
640
100
AcDbEntity
  8
BEZUGSACHSEN
100
AcDbSpline
 62
7
  6
CONTINUOUS
 70
0
 71
3
 72
15
 73
11
 74
0
 42
0.0000001
 43
0.0000001
 44
0.0000000001
 40
0.0
 40
0.0
 40
0.0
 40
0.0
 40
0.0850114357
 40
0.1771868695
 40
0.2814696608
 40
0.4001307839
 40
0.5332472716
 40
0.6793743696
 40
0.8360214848
 40
1.0
 40
1.0
 40
1.0
 40
1.0
 10
78.7526900954
 20
68.1240686636
 30
0.0
 10
78.7526900954
 20
67.9619272392
 30
0.0
 10
78.6901964416
 20
67.6216895648
 30
0.0
 10
78.4242243924
 20
67.146956396
 30
0.0
 10
78.0033919055
 20
66.7108097117
 30
0.0
 10
77.4429649931
 20
66.3214545782
 30
0.0
 10
76.7589071776
 20
65.9873696858
 30
0.0
 10
75.9706769398
 20
65.7174070395
 30
0.0
 10
75.1013098087
 20
65.5193424063
 30
0.0
 10
74.4938971402
 20
65.4403446778
 30
0.0
 10
74.1822852339
 20
65.4136350488
 30
0.0
  0
SPLINE
  5
641
100
AcDbEntity
  8
BEZUGSACHSEN
100
AcDbSpline
 62
7
  6
CONTINUOUS
 70
0
 71
3
 72
15
 73
11
 74
0
 42
0.0000001
 43
0.0000001
 44
0.0000000001
 40
0.0
 40
0.0
 40
0.0
 40
0.0
 40
0.1639785152
 40
0.3206256304
 40
0.4667527284
 40
0.5998692161
 40
0.7185303392
 40
0.8228131305
 40
0.9149885643
 40
1.0
 40
1.0
 40
1.0
 40
1.0
 10
72.323094957
 20
65.4136350488
 30
0.0
 10
72.0114830507
 20
65.4403446778
 30
0.0
 10
71.4040703822
 20
65.5193424063
 30
0.0
 10
70.5347032511
 20
65.7174070395
 30
0.0
 10
69.7464730133
 20
65.9873696858
 30
0.0
 10
69.0624151978
 20
66.3214545782
 30
0.0
 10
68.5019882853
 20
66.7108097117
 30
0.0
 10
68.0811557985
 20
67.146956396
 30
0.0
 10
67.8151837493
 20
67.6216895648
 30
0.0
 10
67.7526900954
 20
67.9619272392
 30
0.0
 10
67.7526900954
 20
68.1240686636
 30
0.0
  0
SPLINE
  5
642
100
AcDbEntity
  8
KONSTRUKTIONSELEMENTE
100
AcDbSpline
 62
7
  6
CONTINUOUS
 70
0
 71
3
 72
14
 73
10
 74
0
 42
0.0000001
 43
0.0000001
 44
0.0000000001
 40
0.0
 40
0.0
 40
0.0
 40
0.0
 40
0.3177252196
 40
0.4601618551
 40
0.5900418608
 40
0.7072123146
 40
0.8126846974
 40
0.9089310185
 40
1.0
 40
1.0
 40
1.0
 40
1.0
 10
40.3779212436
 20
66.2862137774
 30
0.0
 10
40.0545624231
 20
66.2108214303
 30
0.0
 10
39.5921325782
 20
66.06595143
 30
0.0
 10
39.0394567594
 20
65.7900510255
 30
0.0
 10
38.6993841573
 20
65.5640873402
 30
0.0
 10
38.4252411736
 20
65.3154921311
 30
0.0
 10
38.2226470917
 20
65.0478678346
 30
0.0
 10
38.097131464
 20
64.7654375002
 30
0.0
 10
38.0684139277
 20
64.5687009874
 30
0.0
 10
38.068406069
 20
64.4735314172
 30
0.0
  0
SPLINE
  5
643
100
AcDbEntity
  8
KONSTRUKTIONSELEMENTE
100
AcDbSpline
 62
7
  6
CONTINUOUS
 70
0
 71
3
 72
14
 73
10
 74
0
 42
0.0000001
 43
0.0000001
 44
0.0000000001
 40
0.0
 40
0.0
 40
0.0
 40
0.0
 40
0.091069024
 40
0.1873133516
 40
0.2927849079
 40
0.4099554909
 40
0.5398349187
 40
0.6822875678
 40
1.0
 40
1.0
 40
1.0
 40
1.0
 10
117.5000637949
 20
62.3604716416
 30
0.0
 10
117.5000661927
 20
62.455640541
 30
0.0
 10
117.4713044279
 20
62.6523690027
 30
0.0
 10
117.3458165183
 20
62.9347990364
 30
0.0
 10
117.1432169376
 20
63.2024179866
 30
0.0
 10
116.8690681286
 20
63.4509978694
 30
0.0
 10
116.5289902069
 20
63.6769774805
 30
0.0
 10
115.9763073657
 20
63.9528615701
 30
0.0
 10
115.5138801928
 20
64.0977337227
 30
0.0
 10
115.1905368177
 20
64.1731224687
 30
0.0
  0
SPLINE
  5
644
100
AcDbEntity
  8
KONSTRUKTIONSELEMENTE
100
AcDbSpline
 62
7
  6
CONTINUOUS
 70
0
 71
3
 72
13
 73
9
 74
0
 42
0.0000001
 43
0.0000001
 44
0.0000000001
 40
0.0
 40
0.0
 40
0.0
 40
0.0
 40
0.3178906095
 40
0.5898155442
 40
0.7070543912
 40
0.8125964428
 40
0.9088994434
 40
1.0
 40
1.0
 40
1.0
 40
1.0
 10
48.3795253501
 20
59.1261870365
 30
0.0
 10
48.4765156367
 20
59.1488006932
 30
0.0
 10
48.653693535
 20
59.2043952206
 30
0.0
 10
48.8498529541
 20
59.312820318
 30
0.0
 10
48.965253949
 20
59.417318898
 30
0.0
 10
49.0260432359
 20
59.4975933606
 30
0.0
 10
49.0637033262
 20
59.5822972652
 30
0.0
 10
49.0723712664
 20
59.6412972323
 30
0.0
 10
49.072382376
 20
59.6698380327
 30
0.0
  0
SPLINE
  5
645
100
AcDbEntity
  8
KONSTRUKTIONSELEMENTE
100
AcDbSpline
 62
7
  6
CONTINUOUS
 70
0
 71
3
 72
14
 73
10
 74
0
 42
0.0000001
 43
0.0000001
 44
0.0000000001
 40
0.0
 40
0.0
 40
0.0
 40
0.0
 40
0.3177252196
 40
0.4601618551
 40
0.5900418608
 40
0.7072123146
 40
0.8126846974
 40
0.9089310185
 40
1.0
 40
1.0
 40
1.0
 40
1.0
 10
93.6416484203
 20
43.4334539032
 30
0.0
 10
93.3182895998
 20
43.5088462503
 30
0.0
 10
92.8558597549
 20
43.6537162506
 30
0.0
 10
92.3031839362
 20
43.9296166551
 30
0.0
 10
91.963111334
 20
44.1555803404
 30
0.0
 10
91.6889683504
 20
44.4041755495
 30
0.0
 10
91.4863742684
 20
44.671799846
 30
0.0
 10
91.3608586408
 20
44.9542301803
 30
0.0
 10
91.3321411044
 20
45.1509666932
 30
0.0
 10
91.3321332457
 20
45.2461362634
 30
0.0
  0
SPLINE
  5
646
100
AcDbEntity
  8
KONSTRUKTIONSELEMENTE
100
AcDbSpline
 62
7
  6
CONTINUOUS
 70
0
 71
3
 72
11
 73
7
 74
0
 42
0.0000001
 43
0.0000001
 44
0.0000000001
 40
0.0
 40
0.0
 40
0.0
 40
0.0
 40
0.1862435736
 40
0.408604906
 40
0.6812556469
 40
1.0
 40
1.0
 40
1.0
 40
1.0
 10
98.9479234381
 20
42.0688369337
 30
0.0
 10
98.9479250485
 20
42.0882391882
 30
0.0
 10
98.9342730799
 20
42.1310815247
 30
0.0
 10
98.8832115935
 20
42.1825724925
 30
0.0
 10
98.8084724363
 20
42.2240339996
 30
0.0
 10
98.7493104474
 20
42.2425829439
 30
0.0
 10
98.7169720277
 20
42.2501227703
 30
0.0
  0
SPLINE
  5
647
100
AcDbEntity
  8
BEZUGSACHSEN
100
AcDbSpline
 62
7
  6
CONTINUOUS
 70
0
 71
3
 72
17
 73
13
 74
0
 42
0.0000001
 43
0.0000001
 44
0.0000000001
 40
0.0
 40
0.0
 40
0.0
 40
0.0
 40
0.0607830061
 40
0.1218926354
 40
0.245259931
 40
0.3716012773
 40
0.5
 40
0.6283987227
 40
0.754740069
 40
0.8781073646
 40
0.9392169939
 40
1.0
 40
1.0
 40
1.0
 40
1.0
 10
86.2026900954
 20
84.8103442069
 30
0.0
 10
86.2026900954
 20
84.7028382926
 30
0.0
 10
86.2254866655
 20
84.486534677
 30
0.0
 10
86.3595245827
 20
84.0713012059
 30
0.0
 10
86.6892921369
 20
83.6111272208
 30
0.0
 10
87.2711136636
 20
83.2498933349
 30
0.0
 10
87.9526900954
 20
83.1235597191
 30
0.0
 10
88.6342665273
 20
83.2498933349
 30
0.0
 10
89.2160880539
 20
83.6111272208
 30
0.0
 10
89.5458556082
 20
84.0713012059
 30
0.0
 10
89.6798935254
 20
84.486534677
 30
0.0
 10
89.7026900954
 20
84.7028382926
 30
0.0
 10
89.7026900954
 20
84.8103442069
 30
0.0
  0
SPLINE
  5
648
100
AcDbEntity
  8
0
100
AcDbSpline
 62
7
  6
CONTINUOUS
 70
0
 71
3
 72
9
 73
5
 74
0
 42
0.0000001
 43
0.0000001
 44
0.0000000001
 40
0.0
 40
0.0
 40
0.0
 40
0.0
 40
0.2492254531
 40
1.0
 40
1.0
 40
1.0
 40
1.0
 10
93.3242188643
 20
85.7617184561
 30
0.0
 10
93.3352710952
 20
85.8128138858
 30
0.0
 10
93.3847981234
 20
86.0166607545
 30
0.0
 10
93.4555033722
 20
86.2154832593
 30
0.0
 10
93.5206392879
 20
86.3588625729
 30
0.0
  0
SPLINE
  5
649
100
AcDbEntity
  8
0
100
AcDbSpline
 62
7
  6
CONTINUOUS
 70
0
 71
3
 72
9
 73
5
 74
0
 42
0.0000001
 43
0.0000001
 44
0.0000000001
 40
0.0
 40
0.0
 40
0.0
 40
0.0
 40
0.501595102
 40
1.0
 40
1.0
 40
1.0
 40
1.0
 10
83.1565608251
 20
114.819218706
 30
0.0
 10
83.5121317027
 20
114.1279945201
 30
0.0
 10
84.0628404675
 20
112.6621632102
 30
0.0
 10
84.251592077
 20
111.1071882635
 30
0.0
 10
84.2526804816
 20
110.3348159825
 30
0.0
  0
SPLINE
  5
64A
100
AcDbEntity
  8
0
100
AcDbSpline
 62
7
  6
CONTINUOUS
 70
0
 71
3
 72
9
 73
5
 74
0
 42
0.0000001
 43
0.0000001
 44
0.0000000001
 40
0.0
 40
0.0
 40
0.0
 40
0.0
 40
0.501595102
 40
1.0
 40
1.0
 40
1.0
 40
1.0
 10
63.3488193658
 20
114.819218706
 30
0.0
 10
62.9932484882
 20
114.1279945201
 30
0.0
 10
62.4425397234
 20
112.6621632102
 30
0.0
 10
62.2537881139
 20
111.1071882635
 30
0.0
 10
62.2526997093
 20
110.3348159825
 30
0.0
  0
SPLINE
  5
64B
100
AcDbEntity
  8
BEZUGSACHSEN
100
AcDbSpline
 62
7
  6
CONTINUOUS
 70
0
 71
3
 72
11
 73
7
 74
0
 42
0.0000001
 43
0.0000001
 44
0.0000000001
 40
0.0
 40
0.0
 40
0.0
 40
0.0
 40
0.2569335423
 40
0.5095047808
 40
0.7571578674
 40
1.0
 40
1.0
 40
1.0
 40
1.0
 10
77.6653871481
 20
101.2834882876
 30
0.0
 10
78.2935478032
 20
101.5297577889
 30
0.0
 10
79.5000729721
 20
102.1262780675
 30
0.0
 10
81.1086641969
 20
103.3122235974
 30
0.0
 10
82.4537788808
 20
104.7401878402
 30
0.0
 10
83.15403912
 20
105.8318396934
 30
0.0
 10
83.4457157024
 20
106.398932526
 30
0.0
  0
LINE
  5
64C
100
AcDbEntity
  8
BEZUGSACHSEN
100
AcDbLine
 62
7
  6
CONTINUOUS
 10
84.2526900954
 20
110.3348523969
 11
84.2526804816
 21
110.3212080056
  0
SPLINE
  5
64D
100
AcDbEntity
  8
0
100
AcDbSpline
 62
7
  6
CONTINUOUS
 70
0
 71
3
 72
15
 73
11
 74
0
 42
0.0000001
 43
0.0000001
 44
0.0000000001
 40
0.0
 40
0.0
 40
0.0
 40
0.0
 40
0.1222009692
 40
0.2465049901
 40
0.3727027048
 40
0.5
 40
0.6272972952
 40
0.7534950099
 40
0.8777990308
 40
1.0
 40
1.0
 40
1.0
 40
1.0
 10
77.3478287529
 20
89.6747435828
 30
0.0
 10
77.1619377366
 20
90.0354777954
 30
0.0
 10
76.6771584726
 20
90.7115575647
 30
0.0
 10
75.6926398338
 20
91.4862426997
 30
0.0
 10
74.5209106992
 20
91.9757196241
 30
0.0
 10
73.2526900954
 20
92.1427371164
 30
0.0
 10
71.9844694917
 20
91.9757196241
 30
0.0
 10
70.8127403571
 20
91.4862426997
 30
0.0
 10
69.8282217183
 20
90.7115575647
 30
0.0
 10
69.3434424543
 20
90.0354777954
 30
0.0
 10
69.1575514379
 20
89.6747435828
 30
0.0
  0
SPLINE
  5
64E
100
AcDbEntity
  8
BEZUGSACHSEN
100
AcDbSpline
 62
7
  6
CONTINUOUS
 70
0
 71
3
 72
11
 73
7
 74
0
 42
0.0000001
 43
0.0000001
 44
0.0000000001
 40
0.0
 40
0.0
 40
0.0
 40
0.0
 40
0.2428336631
 40
0.4904965622
 40
0.7430653786
 40
1.0
 40
1.0
 40
1.0
 40
1.0
 10
63.0597653583
 20
106.3987375676
 30
0.0
 10
63.3514341471
 20
105.831709994
 30
0.0
 10
64.0516731638
 20
104.7401411633
 30
0.0
 10
65.3966774914
 20
103.3122416697
 30
0.0
 10
67.0051964919
 20
102.1263688499
 30
0.0
 10
68.2116260298
 20
101.5298561079
 30
0.0
 10
68.8397444884
 20
101.283585299
 30
0.0
  0
LINE
  5
64F
100
AcDbEntity
  8
BEZUGSACHSEN
100
AcDbLine
 62
7
  6
CONTINUOUS
 10
62.2526900954
 20
110.3348523969
 11
62.2526997093
 21
110.3212080056
  0
LINE
  5
650
100
AcDbEntity
  8
BEZUGSACHSEN
100
AcDbLine
 62
7
  6
CONTINUOUS
 10
63.0783393948
 20
106.4057926343
 11
63.0900152378
 21
106.3791996245
  0
SPLINE
  5
651
100
AcDbEntity
  8
0
100
AcDbSpline
 62
7
  6
CONTINUOUS
 70
0
 71
3
 72
9
 73
5
 74
0
 42
0.0000001
 43
0.0000001
 44
0.0000000001
 40
0.0
 40
0.0
 40
0.0
 40
0.0
 40
0.5051299921
 40
1.0
 40
1.0
 40
1.0
 40
1.0
 10
68.7284002363
 20
88.1277386198
 30
0.0
 10
68.7537835463
 20
88.3981101452
 30
0.0
 10
68.8441826936
 20
88.9308667395
 30
0.0
 10
69.0356843767
 20
89.4382522276
 30
0.0
 10
69.1575514379
 20
89.6747435828
 30
0.0
  0
SPLINE
  5
652
100
AcDbEntity
  8
0
100
AcDbSpline
 62
7
  6
CONTINUOUS
 70
0
 71
3
 72
9
 73
5
 74
0
 42
0.0000001
 43
0.0000001
 44
0.0000000001
 40
0.0
 40
0.0
 40
0.0
 40
0.0
 40
0.4948700079
 40
1.0
 40
1.0
 40
1.0
 40
1.0
 10
77.3478287529
 20
89.6747435828
 30
0.0
 10
77.4696958141
 20
89.4382522276
 30
0.0
 10
77.6611974973
 20
88.9308667395
 30
0.0
 10
77.7515966446
 20
88.3981101452
 30
0.0
 10
77.7769799546
 20
88.1277386198
 30
0.0
  0
LINE
  5
653
100
AcDbEntity
  8
BEZUGSACHSEN
100
AcDbLine
 62
7
  6
CONTINUOUS
 10
89.3929357177
 20
120.1698243563
 11
89.4417114678
 21
119.911782066
  0
LINE
  5
654
100
AcDbEntity
  8
BEZUGSACHSEN
100
AcDbLine
 62
7
  6
CONTINUOUS
 10
89.4417114678
 20
119.911782066
 11
89.5660967744
 21
119.6847981963
  0
LINE
  5
655
100
AcDbEntity
  8
BEZUGSACHSEN
100
AcDbLine
 62
7
  6
CONTINUOUS
 10
89.5660967744
 20
119.6847981963
 11
89.7660887906
 21
119.4888897396
  0
LINE
  5
656
100
AcDbEntity
  8
BEZUGSACHSEN
100
AcDbLine
 62
7
  6
CONTINUOUS
 10
89.7660887906
 20
119.4888897396
 11
90.1172970727
 21
119.3554106271
  0
LINE
  5
657
100
AcDbEntity
  8
BEZUGSACHSEN
100
AcDbLine
 62
7
  6
CONTINUOUS
 10
90.1172970727
 20
119.3554106271
 11
90.4063141251
 21
119.3355994949
  0
LINE
  5
658
100
AcDbEntity
  8
BEZUGSACHSEN
100
AcDbLine
 62
7
  6
CONTINUOUS
 10
90.5575303911
 20
119.3982801953
 11
90.4063141251
 21
119.3355994949
  0
LINE
  5
659
100
AcDbEntity
  8
BEZUGSACHSEN
100
AcDbLine
 62
7
  6
CONTINUOUS
 10
90.7221623487
 20
119.6061071369
 11
90.5575303911
 21
119.3982801953
  0
LINE
  5
65A
100
AcDbEntity
  8
BEZUGSACHSEN
100
AcDbLine
 62
7
  6
CONTINUOUS
 10
90.8246028646
 20
119.9275279304
 11
90.7221623487
 21
119.6061071369
  0
LINE
  5
65B
100
AcDbEntity
  8
BEZUGSACHSEN
100
AcDbLine
 62
7
  6
CONTINUOUS
 10
87.8539405156
 20
119.253980514
 11
87.9783258222
 21
119.0269086799
  0
LINE
  5
65C
100
AcDbEntity
  8
BEZUGSACHSEN
100
AcDbLine
 62
7
  6
CONTINUOUS
 10
87.9783258222
 20
119.0269086799
 11
88.1783178383
 21
118.8308866978
  0
LINE
  5
65D
100
AcDbEntity
  8
BEZUGSACHSEN
100
AcDbLine
 62
7
  6
CONTINUOUS
 10
88.1783178383
 20
118.8308866978
 11
88.4539179875
 21
118.6659350672
  0
LINE
  5
65E
100
AcDbEntity
  8
BEZUGSACHSEN
100
AcDbLine
 62
7
  6
CONTINUOUS
 10
88.4539179875
 20
118.6659350672
 11
88.8496388407
 21
118.6204258603
  0
LINE
  5
65F
100
AcDbEntity
  8
BEZUGSACHSEN
100
AcDbLine
 62
7
  6
CONTINUOUS
 10
89.0764632398
 20
118.7144669441
 11
88.8496388407
 21
118.6204258603
  0
LINE
  5
660
100
AcDbEntity
  8
BEZUGSACHSEN
100
AcDbLine
 62
7
  6
CONTINUOUS
 10
89.2856076095
 20
119.0106849693
 11
89.0764632398
 21
118.7144669441
  0
LINE
  5
661
100
AcDbEntity
  8
BEZUGSACHSEN
100
AcDbLine
 62
7
  6
CONTINUOUS
 10
89.3124399924
 20
119.300895045
 11
89.2856076095
 21
119.0106849693
  0
LINE
  5
662
100
AcDbEntity
  8
BEZUGSACHSEN
100
AcDbLine
 62
7
  6
CONTINUOUS
 10
87.8051647654
 20
119.5120823837
 11
87.8539405156
 21
119.253980514
  0
LINE
  5
663
100
AcDbEntity
  8
BEZUGSACHSEN
100
AcDbLine
 62
7
  6
CONTINUOUS
 10
89.0551429152
 20
120.4467794549
 11
89.0417274355
 21
120.3023254481
  0
LINE
  5
664
100
AcDbEntity
  8
BEZUGSACHSEN
100
AcDbLine
 62
7
  6
CONTINUOUS
 10
89.188679046
 20
120.7103162272
 11
89.0551429152
 21
120.4467794549
  0
LINE
  5
665
100
AcDbEntity
  8
BEZUGSACHSEN
100
AcDbLine
 62
7
  6
CONTINUOUS
 10
89.4289189248
 20
120.9485699071
 11
89.188679046
 21
120.7103162272
  0
LINE
  5
666
100
AcDbEntity
  8
BEZUGSACHSEN
100
AcDbLine
 62
7
  6
CONTINUOUS
 10
89.4289189248
 20
120.9485699071
 11
89.6557433239
 21
121.0425306245
  0
LINE
  5
667
100
AcDbEntity
  8
BEZUGSACHSEN
100
AcDbLine
 62
7
  6
CONTINUOUS
 10
89.6557433239
 20
121.0425306245
 11
90.0959768541
 21
121.0861525758
  0
LINE
  5
668
100
AcDbEntity
  8
BEZUGSACHSEN
100
AcDbLine
 62
7
  6
CONTINUOUS
 10
90.0959768541
 20
121.0861525758
 11
90.4160895213
 21
121.0105288693
  0
LINE
  5
669
100
AcDbEntity
  8
BEZUGSACHSEN
100
AcDbLine
 62
7
  6
CONTINUOUS
 10
90.4160895213
 20
121.0105288693
 11
90.7983948419
 21
120.8215498425
  0
LINE
  5
66A
100
AcDbEntity
  8
BEZUGSACHSEN
100
AcDbLine
 62
7
  6
CONTINUOUS
 10
90.7983948419
 20
120.8215498425
 11
91.029482473
 21
120.5695665667
  0
LINE
  5
66B
100
AcDbEntity
  8
BEZUGSACHSEN
100
AcDbLine
 62
7
  6
CONTINUOUS
 10
91.029482473
 20
120.5695665667
 11
91.1538677796
 21
120.3426547107
  0
LINE
  5
66C
100
AcDbEntity
  8
BEZUGSACHSEN
100
AcDbLine
 62
7
  6
CONTINUOUS
 10
91.1538677796
 20
120.3426547107
 11
91.2337391446
 21
120.0273558567
  0
LINE
  5
66D
100
AcDbEntity
  8
BEZUGSACHSEN
100
AcDbLine
 62
7
  6
CONTINUOUS
 10
87.4362763216
 20
119.8456126472
 11
87.3649314007
 21
119.4687632851
  0
LINE
  5
66E
100
AcDbEntity
  8
BEZUGSACHSEN
100
AcDbLine
 62
7
  6
CONTINUOUS
 10
87.5698124789
 20
120.1090888968
 11
87.4362763216
 21
119.8456126472
  0
LINE
  5
66F
100
AcDbEntity
  8
BEZUGSACHSEN
100
AcDbLine
 62
7
  6
CONTINUOUS
 10
87.8856605436
 20
120.3786169821
 11
87.5698124789
 21
120.1090888968
  0
LINE
  5
670
100
AcDbEntity
  8
BEZUGSACHSEN
100
AcDbLine
 62
7
  6
CONTINUOUS
 10
87.8856605436
 20
120.3786169821
 11
88.1124849427
 21
120.4725796255
  0
LINE
  5
671
100
AcDbEntity
  8
BEZUGSACHSEN
100
AcDbLine
 62
7
  6
CONTINUOUS
 10
88.1124849427
 20
120.4725796255
 11
88.552718367
 21
120.5162494836
  0
LINE
  5
672
100
AcDbEntity
  8
BEZUGSACHSEN
100
AcDbLine
 62
7
  6
CONTINUOUS
 10
88.552718367
 20
120.5162494836
 11
88.9039266492
 21
120.3841406405
  0
LINE
  5
673
100
AcDbEntity
  8
BEZUGSACHSEN
100
AcDbLine
 62
7
  6
CONTINUOUS
 10
88.9039266492
 20
120.3841406405
 11
89.0417274355
 21
120.3023254481
  0
SPLINE
  5
674
100
AcDbEntity
  8
0
100
AcDbSpline
 62
7
  6
CONTINUOUS
 70
0
 71
3
 72
9
 73
5
 74
0
 42
0.0000001
 43
0.0000001
 44
0.0000000001
 40
0.0
 40
0.0
 40
0.0
 40
0.0
 40
0.4251890726
 40
1.0
 40
1.0
 40
1.0
 40
1.0
 10
93.2332832127
 20
76.4520930147
 30
0.0
 10
93.2332832127
 20
76.5671695929
 30
0.0
 10
93.2436615524
 20
76.8376852689
 30
0.0
 10
93.2526900954
 20
77.1082333847
 30
0.0
 10
93.2526900954
 20
77.2638048208
 30
0.0
  0
SPLINE
  5
675
100
AcDbEntity
  8
0
100
AcDbSpline
 62
7
  6
CONTINUOUS
 70
0
 71
3
 72
14
 73
10
 74
0
 42
0.0000001
 43
0.0000001
 44
0.0000000001
 40
0.0
 40
0.0
 40
0.0
 40
0.0
 40
0.0204331172
 40
0.0715073203
 40
0.1527185645
 40
0.2636968006
 40
0.4041718418
 40
0.5739261643
 40
1.0
 40
1.0
 40
1.0
 40
1.0
 10
93.2526900954
 20
76.1627384233
 30
0.0
 10
93.2526900954
 20
76.164716308
 30
0.0
 10
93.2507385216
 20
76.1714674744
 30
0.0
 10
93.2486569236
 20
76.1860542824
 30
0.0
 10
93.2449503698
 20
76.2093377196
 30
0.0
 10
93.2414370467
 20
76.2413463179
 30
0.0
 10
93.23798688
 20
76.2819791666
 30
0.0
 10
93.2341662987
 20
76.3531577572
 30
0.0
 10
93.2332832127
 20
76.4108499227
 30
0.0
 10
93.2332832127
 20
76.4520930147
 30
0.0
  0
SPLINE
  5
676
100
AcDbEntity
  8
0
100
AcDbSpline
 62
7
  6
CONTINUOUS
 70
0
 71
3
 72
9
 73
5
 74
0
 42
0.0000001
 43
0.0000001
 44
0.0000000001
 40
0.0
 40
0.0
 40
0.0
 40
0.0
 40
0.2518871977
 40
1.0
 40
1.0
 40
1.0
 40
1.0
 10
52.984740903
 20
86.3588625729
 30
0.0
 10
53.0220476631
 20
86.2767417091
 30
0.0
 10
53.1542975258
 20
85.9436400461
 30
0.0
 10
53.225101139
 20
85.5869686482
 30
0.0
 10
53.2443570685
 20
85.3197715401
 30
0.0
  0
SPLINE
  5
677
100
AcDbEntity
  8
BEZUGSACHSEN
100
AcDbSpline
 62
7
  6
CONTINUOUS
 70
0
 71
3
 72
8
 73
4
 74
0
 42
0.0000001
 43
0.0000001
 44
0.0000000001
 40
0.0
 40
0.0
 40
0.0
 40
0.0
 40
1.0
 40
1.0
 40
1.0
 40
1.0
 10
59.7102209512
 20
123.1484493846
 30
0.0
 10
60.3442037198
 20
122.9499076428
 30
0.0
 10
60.9781243415
 20
122.7511672375
 30
0.0
 10
61.6119557665
 20
122.5521428702
 30
0.0
  0
LINE
  5
678
100
AcDbEntity
  8
BEZUGSACHSEN
100
AcDbLine
 62
7
  6
CONTINUOUS
 10
59.7497577594
 20
123.4359416368
 11
59.6146125125
 21
123.7643678489
  0
LINE
  5
679
100
AcDbEntity
  8
BEZUGSACHSEN
100
AcDbLine
 62
7
  6
CONTINUOUS
 10
59.6146125125
 20
123.7643678489
 11
59.4596988002
 21
123.9491323738
  0
LINE
  5
67A
100
AcDbEntity
  8
BEZUGSACHSEN
100
AcDbLine
 62
7
  6
CONTINUOUS
 10
59.1960220017
 20
124.1298987692
 11
59.4596988002
 21
123.9491323738
  0
LINE
  5
67B
100
AcDbEntity
  8
BEZUGSACHSEN
100
AcDbLine
 62
7
  6
CONTINUOUS
 10
58.9554207932
 20
124.2162786311
 11
59.1960220017
 21
124.1298987692
  0
LINE
  5
67C
100
AcDbEntity
  8
BEZUGSACHSEN
100
AcDbLine
 62
7
  6
CONTINUOUS
 10
58.5632128124
 20
124.2493617124
 11
58.9554207932
 21
124.2162786311
  0
LINE
  5
67D
100
AcDbEntity
  8
BEZUGSACHSEN
100
AcDbLine
 62
7
  6
CONTINUOUS
 10
58.1940802369
 20
124.1878102302
 11
58.5632128124
 21
124.2493617124
  0
LINE
  5
67E
100
AcDbEntity
  8
BEZUGSACHSEN
100
AcDbLine
 62
7
  6
CONTINUOUS
 10
57.9139420976
 20
123.9862618721
 11
58.1940802369
 21
124.1878102302
  0
LINE
  5
67F
100
AcDbEntity
  8
BEZUGSACHSEN
100
AcDbLine
 62
7
  6
CONTINUOUS
 10
83.1403620395
 20
124.6900977698
 11
83.1282924136
 21
124.3033973106
  0
LINE
  5
680
100
AcDbEntity
  8
BEZUGSACHSEN
100
AcDbLine
 62
7
  6
CONTINUOUS
 10
83.2560466786
 20
124.9949036091
 11
83.1403620395
 21
124.6900977698
  0
LINE
  5
681
100
AcDbEntity
  8
BEZUGSACHSEN
100
AcDbLine
 62
7
  6
CONTINUOUS
 10
83.4783666395
 20
125.3146201622
 11
83.2560466786
 21
124.9949036091
  0
LINE
  5
682
100
AcDbEntity
  8
BEZUGSACHSEN
100
AcDbLine
 62
7
  6
CONTINUOUS
 10
83.4783666395
 20
125.3146201622
 11
84.3007490902
 21
126.1512957808
  0
LINE
  5
683
100
AcDbEntity
  8
BEZUGSACHSEN
100
AcDbLine
 62
7
  6
CONTINUOUS
 10
60.2409544779
 20
120.9699439081
 11
58.8566520705
 21
121.919463721
  0
LINE
  5
684
100
AcDbEntity
  8
BEZUGSACHSEN
100
AcDbLine
 62
7
  6
CONTINUOUS
 10
84.3007490902
 20
126.1512957808
 11
84.6266841988
 21
126.3893424977
  0
LINE
  5
685
100
AcDbEntity
  8
BEZUGSACHSEN
100
AcDbLine
 62
7
  6
CONTINUOUS
 10
84.6266841988
 20
126.3893424977
 11
84.9496035308
 21
126.5307103233
  0
LINE
  5
686
100
AcDbEntity
  8
BEZUGSACHSEN
100
AcDbLine
 62
7
  6
CONTINUOUS
 10
84.9496035308
 20
126.5307103233
 11
85.3761378569
 21
126.5901424664
  0
LINE
  5
687
100
AcDbEntity
  8
BEZUGSACHSEN
100
AcDbLine
 62
7
  6
CONTINUOUS
 10
58.4611371497
 20
122.1907353143
 11
57.4723496631
 21
122.8688831725
  0
LINE
  5
688
100
AcDbEntity
  8
BEZUGSACHSEN
100
AcDbLine
 62
7
  6
CONTINUOUS
 10
85.3761378569
 20
126.5901424664
 11
85.6930223856
 21
126.5377747845
  0
LINE
  5
689
100
AcDbEntity
  8
BEZUGSACHSEN
100
AcDbLine
 62
7
  6
CONTINUOUS
 10
85.6930223856
 20
126.5377747845
 11
86.0068901055
 21
126.3883148752
  0
SPLINE
  5
68A
100
AcDbEntity
  8
BEZUGSACHSEN
100
AcDbSpline
 62
7
  6
CONTINUOUS
 70
0
 71
3
 72
8
 73
4
 74
0
 42
0.0000001
 43
0.0000001
 44
0.0000000001
 40
0.0
 40
0.0
 40
0.0
 40
0.0
 40
1.0
 40
1.0
 40
1.0
 40
1.0
 10
86.0068901055
 20
126.3883148752
 30
0.0
 10
86.162413576
 20
126.26498429
 30
0.0
 10
86.3178383061
 20
126.1415290894
 30
0.0
 10
86.4731646936
 20
126.0179503839
 30
0.0
  0
LINE
  5
68B
100
AcDbEntity
  8
BEZUGSACHSEN
100
AcDbLine
 62
7
  6
CONTINUOUS
 10
59.2751690997
 20
123.1318321505
 11
59.3377813132
 21
123.3250780049
  0
LINE
  5
68C
100
AcDbEntity
  8
BEZUGSACHSEN
100
AcDbLine
 62
7
  6
CONTINUOUS
 10
86.4731646936
 20
126.0179503839
 11
86.6773790587
 21
125.7558836702
  0
LINE
  5
68D
100
AcDbEntity
  8
BEZUGSACHSEN
100
AcDbLine
 62
7
  6
CONTINUOUS
 10
61.3068082204
 20
127.0223307855
 11
62.9992605115
 21
125.2876161991
  0
LINE
  5
68E
100
AcDbEntity
  8
BEZUGSACHSEN
100
AcDbLine
 62
7
  6
CONTINUOUS
 10
86.6773790587
 20
125.7558836702
 11
86.7749628068
 21
125.4789989481
  0
LINE
  5
68F
100
AcDbEntity
  8
BEZUGSACHSEN
100
AcDbLine
 62
7
  6
CONTINUOUS
 10
60.9950356762
 20
126.7778985632
 11
61.3068082204
 21
127.0223307855
  0
LINE
  5
690
100
AcDbEntity
  8
BEZUGSACHSEN
100
AcDbLine
 62
7
  6
CONTINUOUS
 10
62.8670725116
 20
124.2947008759
 11
62.9137682898
 21
124.5291780131
  0
LINE
  5
691
100
AcDbEntity
  8
BEZUGSACHSEN
100
AcDbLine
 62
7
  6
CONTINUOUS
 10
62.7138192775
 20
124.0750662424
 11
62.8670725116
 21
124.2947008759
  0
LINE
  5
692
100
AcDbEntity
  8
BEZUGSACHSEN
100
AcDbLine
 62
7
  6
CONTINUOUS
 10
62.5059708156
 20
123.9110945969
 11
62.7138192775
 21
124.0750662424
  0
LINE
  5
693
100
AcDbEntity
  8
BEZUGSACHSEN
100
AcDbLine
 62
7
  6
CONTINUOUS
 10
62.2435274233
 20
123.8027970268
 11
62.5059708156
 21
123.9110945969
  0
LINE
  5
694
100
AcDbEntity
  8
BEZUGSACHSEN
100
AcDbLine
 62
7
  6
CONTINUOUS
 10
86.3423924916
 20
125.22694825
 11
86.2297233603
 21
125.0182292104
  0
LINE
  5
695
100
AcDbEntity
  8
BEZUGSACHSEN
100
AcDbLine
 62
7
  6
CONTINUOUS
 10
61.9784506574
 20
123.7913537528
 11
62.2435274233
 21
123.8027970268
  0
LINE
  5
696
100
AcDbEntity
  8
BEZUGSACHSEN
100
AcDbLine
 62
7
  6
CONTINUOUS
 10
61.7107405944
 20
123.8769349517
 11
61.9784506574
 21
123.7913537528
  0
LINE
  5
697
100
AcDbEntity
  8
BEZUGSACHSEN
100
AcDbLine
 62
7
  6
CONTINUOUS
 10
61.4403977908
 20
124.0596432644
 11
61.7107405944
 21
123.8769349517
  0
LINE
  5
698
100
AcDbEntity
  8
BEZUGSACHSEN
100
AcDbLine
 62
7
  6
CONTINUOUS
 10
61.4403977908
 20
124.0596432644
 11
59.7479454997
 21
125.794768239
  0
LINE
  5
699
100
AcDbEntity
  8
BEZUGSACHSEN
100
AcDbLine
 62
7
  6
CONTINUOUS
 10
59.4361728069
 20
125.5476403891
 11
59.7479454997
 21
125.794768239
  0
LINE
  5
69A
100
AcDbEntity
  8
BEZUGSACHSEN
100
AcDbLine
 62
7
  6
CONTINUOUS
 10
63.3452637962
 20
124.2750649984
 11
63.3347313278
 21
124.6619084575
  0
LINE
  5
69B
100
AcDbEntity
  8
BEZUGSACHSEN
100
AcDbLine
 62
7
  6
CONTINUOUS
 10
63.3347313278
 20
124.6619084575
 11
63.2202744606
 21
124.9671437556
  0
LINE
  5
69C
100
AcDbEntity
  8
BEZUGSACHSEN
100
AcDbLine
 62
7
  6
CONTINUOUS
 10
63.2202744606
 20
124.9671437556
 11
62.9992605115
 21
125.2876161991
  0
LINE
  5
69D
100
AcDbEntity
  8
BEZUGSACHSEN
100
AcDbLine
 62
7
  6
CONTINUOUS
 10
64.1539798284
 20
128.5656216555
 11
64.2526897127
 21
128.5634909341
  0
LINE
  5
69E
100
AcDbEntity
  8
BEZUGSACHSEN
100
AcDbLine
 62
7
  6
CONTINUOUS
 10
83.5608616006
 20
124.5561318321
 11
83.6066354417
 21
124.3215809341
  0
LINE
  5
69F
100
AcDbEntity
  8
BEZUGSACHSEN
100
AcDbLine
 62
7
  6
CONTINUOUS
 10
83.6066354417
 20
124.3215809341
 11
83.7590446814
 21
124.1015453239
  0
LINE
  5
6A0
100
AcDbEntity
  8
BEZUGSACHSEN
100
AcDbLine
 62
7
  6
CONTINUOUS
 10
63.8161938496
 20
128.476973943
 11
64.1539798284
 21
128.5656216555
  0
SPLINE
  5
6A1
100
AcDbEntity
  8
BEZUGSACHSEN
100
AcDbSpline
 62
7
  6
CONTINUOUS
 70
0
 71
3
 72
8
 73
4
 74
0
 42
0.0000001
 43
0.0000001
 44
0.0000000001
 40
0.0
 40
0.0
 40
0.0
 40
0.0
 40
1.0
 40
1.0
 40
1.0
 40
1.0
 10
83.7590446814
 20
124.1015453239
 30
0.0
 10
83.9145897655
 20
123.9781446847
 30
0.0
 10
84.0700143962
 20
123.854592066
 30
0.0
 10
84.2253192695
 20
123.7308892476
 30
0.0
  0
LINE
  5
6A2
100
AcDbEntity
  8
BEZUGSACHSEN
100
AcDbLine
 62
7
  6
CONTINUOUS
 10
84.2253192695
 20
123.7308892476
 11
84.4873771208
 21
123.6214698773
  0
LINE
  5
6A3
100
AcDbEntity
  8
BEZUGSACHSEN
100
AcDbLine
 62
7
  6
CONTINUOUS
 10
84.4873771208
 20
123.6214698773
 11
84.7524530051
 21
123.6089684424
  0
LINE
  5
6A4
100
AcDbEntity
  8
BEZUGSACHSEN
100
AcDbLine
 62
7
  6
CONTINUOUS
 10
84.7524530051
 20
123.6089684424
 11
84.9687369769
 21
123.7349638454
  0
LINE
  5
6A5
100
AcDbEntity
  8
BEZUGSACHSEN
100
AcDbLine
 62
7
  6
CONTINUOUS
 10
85.4073409864
 20
124.1813292193
 11
84.9687369769
 21
123.7349638454
  0
LINE
  5
6A6
100
AcDbEntity
  8
BEZUGSACHSEN
100
AcDbLine
 62
7
  6
CONTINUOUS
 10
85.2700193479
 20
124.8877794129
 11
84.9410663984
 21
124.5530931743
  0
LINE
  5
6A7
100
AcDbEntity
  8
BEZUGSACHSEN
100
AcDbLine
 62
7
  6
CONTINUOUS
 10
64.2526895346
 20
125.5470041859
 11
62.9937807049
 21
127.5336479292
  0
LINE
  5
6A8
100
AcDbEntity
  8
BEZUGSACHSEN
100
AcDbLine
 62
7
  6
CONTINUOUS
 10
83.6176063018
 20
127.6491313783
 11
83.6311053131
 21
127.2972782371
  0
LINE
  5
6A9
100
AcDbEntity
  8
BEZUGSACHSEN
100
AcDbLine
 62
7
  6
CONTINUOUS
 10
83.5036886817
 20
127.967173895
 11
83.6176063018
 21
127.6491313783
  0
LINE
  5
6AA
100
AcDbEntity
  8
BEZUGSACHSEN
100
AcDbLine
 62
7
  6
CONTINUOUS
 10
82.4853980084
 20
126.8629365832
 11
82.7044366323
 21
126.8346427491
  0
LINE
  5
6AB
100
AcDbEntity
  8
BEZUGSACHSEN
100
AcDbLine
 62
7
  6
CONTINUOUS
 10
82.7044366323
 20
126.8346427491
 11
82.9052724924
 21
126.9018933338
  0
LINE
  5
6AC
100
AcDbEntity
  8
BEZUGSACHSEN
100
AcDbLine
 62
7
  6
CONTINUOUS
 10
83.2482458878
 20
128.1866019857
 11
83.5036886817
 21
127.967173895
  0
LINE
  5
6AD
100
AcDbEntity
  8
BEZUGSACHSEN
100
AcDbLine
 62
7
  6
CONTINUOUS
 10
82.9052724924
 20
126.9018933338
 11
83.0879069463
 21
127.064786321
  0
LINE
  5
6AE
100
AcDbEntity
  8
BEZUGSACHSEN
100
AcDbLine
 62
7
  6
CONTINUOUS
 10
83.211230829
 20
127.2587184076
 11
83.0879069463
 21
127.064786321
  0
LINE
  5
6AF
100
AcDbEntity
  8
BEZUGSACHSEN
100
AcDbLine
 62
7
  6
CONTINUOUS
 10
83.2752439103
 20
127.4836771627
 11
83.211230829
 21
127.2587184076
  0
LINE
  5
6B0
100
AcDbEntity
  8
BEZUGSACHSEN
100
AcDbLine
 62
7
  6
CONTINUOUS
 10
82.2526905186
 20
126.9842573796
 11
82.4853980084
 21
126.8629365832
  0
SPLINE
  5
6B1
100
AcDbEntity
  8
RUNDUNGEN
100
AcDbSpline
 62
7
  6
CONTINUOUS
 70
0
 71
3
 72
9
 73
5
 74
0
 42
0.0000001
 43
0.0000001
 44
0.0000000001
 40
0.0
 40
0.0
 40
0.0
 40
0.0
 40
0.4679385963
 40
1.0
 40
1.0
 40
1.0
 40
1.0
 10
93.2526900954
 20
88.5159458275
 30
0.0
 10
93.2526900954
 20
88.6216002162
 30
0.0
 10
93.3037083481
 20
88.8492220011
 30
0.0
 10
93.4379528894
 20
89.0373007373
 30
0.0
 10
93.5206392879
 20
89.1244487228
 30
0.0
  0
SPLINE
  5
6B2
100
AcDbEntity
  8
0
100
AcDbSpline
 62
7
  6
CONTINUOUS
 70
0
 71
3
 72
26
 73
22
 74
0
 42
0.0000001
 43
0.0000001
 44
0.0000000001
 40
0.0
 40
0.0
 40
0.0
 40
0.0
 40
0.0007441719
 40
0.0019340511
 40
0.0058806405
 40
0.0120134992
 40
0.0203547264
 40
0.0308985697
 40
0.043632581
 40
0.0585406889
 40
0.0755966907
 40
0.1160266809
 40
0.1646478678
 40
0.2211098816
 40
0.2850164445
 40
0.3559068399
 40
0.4332785975
 40
0.5165801873
 40
0.6052140834
 40
0.7959198598
 40
1.0
 40
1.0
 40
1.0
 40
1.0
 10
62.3071955137
 20
69.7130633717
 30
0.0
 10
62.3092223446
 20
69.7139250429
 30
0.0
 10
62.313110068
 20
69.7186569183
 30
0.0
 10
62.3196296928
 20
69.7346604022
 30
0.0
 10
62.3260857989
 20
69.767742156
 30
0.0
 10
62.3324590059
 20
69.8217488617
 30
0.0
 10
62.3377501806
 20
69.895684605
 30
0.0
 10
62.3419799815
 20
69.9891460559
 30
0.0
 10
62.3450271503
 20
70.1021309973
 30
0.0
 10
62.3468777604
 20
70.2344023739
 30
0.0
 10
62.3477603623
 20
70.4486561449
 30
0.0
 10
62.3453310011
 20
70.7626815449
 30
0.0
 10
62.3377811354
 20
71.1932683233
 30
0.0
 10
62.325426377
 20
71.6932472964
 30
0.0
 10
62.3083571256
 20
72.2590262398
 30
0.0
 10
62.2867150897
 20
72.8865717964
 30
0.0
 10
62.2606833156
 20
73.5713953256
 30
0.0
 10
62.2304935405
 20
74.308607498
 30
0.0
 10
62.1838933898
 20
75.3808394221
 30
0.0
 10
62.1170661657
 20
76.8099711279
 30
0.0
 10
62.0585842304
 20
77.9768843511
 30
0.0
 10
62.0275170884
 20
78.5800635706
 30
0.0
  0
SPLINE
  5
6B3
100
AcDbEntity
  8
KONSTRUKTIONSELEMENTE
100
AcDbSpline
 62
7
  6
CONTINUOUS
 70
0
 71
3
 72
9
 73
5
 74
0
 42
0.0000001
 43
0.0000001
 44
0.0000000001
 40
0.0
 40
0.0
 40
0.0
 40
0.0
 40
0.4532446721
 40
1.0
 40
1.0
 40
1.0
 40
1.0
 10
68.7284002363
 20
93.8749929766
 30
0.0
 10
68.757374102
 20
94.0764280905
 30
0.0
 10
68.8671858754
 20
94.514484289
 30
0.0
 10
69.0450976487
 20
94.9288416179
 30
0.0
 10
69.1575514379
 20
95.147065876
 30
0.0
  0
SPLINE
  5
6B4
100
AcDbEntity
  8
KONSTRUKTIONSELEMENTE
100
AcDbSpline
 62
7
  6
CONTINUOUS
 70
0
 71
3
 72
9
 73
5
 74
0
 42
0.0000001
 43
0.0000001
 44
0.0000000001
 40
0.0
 40
0.0
 40
0.0
 40
0.0
 40
0.5467553279
 40
1.0
 40
1.0
 40
1.0
 40
1.0
 10
77.3478287529
 20
95.147065876
 30
0.0
 10
77.4602825422
 20
94.9288416179
 30
0.0
 10
77.6381943155
 20
94.514484289
 30
0.0
 10
77.7480060888
 20
94.0764280905
 30
0.0
 10
77.7769799546
 20
93.8749929766
 30
0.0
  0
SPLINE
  5
6B5
100
AcDbEntity
  8
BEZUGSACHSEN
100
AcDbSpline
 62
7
  6
CONTINUOUS
 70
0
 71
3
 72
15
 73
11
 74
0
 42
0.0000001
 43
0.0000001
 44
0.0000000001
 40
0.0
 40
0.0
 40
0.0
 40
0.0
 40
0.1216995243
 40
0.245723491
 40
0.3721231683
 40
0.5
 40
0.6278768317
 40
0.754276509
 40
0.8783004757
 40
1.0
 40
1.0
 40
1.0
 40
1.0
 10
89.6430602915
 20
84.8939421705
 30
0.0
 10
89.5935777676
 20
85.0676125148
 30
0.0
 10
89.4307475433
 20
85.4032317805
 30
0.0
 10
89.0326817676
 20
85.7995002432
 30
0.0
 10
88.5219907228
 20
86.0544147294
 30
0.0
 10
87.9526900954
 20
86.1421414072
 30
0.0
 10
87.3833894681
 20
86.0544147294
 30
0.0
 10
86.8726984233
 20
85.7995002432
 30
0.0
 10
86.4746326476
 20
85.4032317805
 30
0.0
 10
86.3118024233
 20
85.0676125148
 30
0.0
 10
86.2623198994
 20
84.8939421705
 30
0.0
  0
LINE
  5
6B6
100
AcDbEntity
  8
KONSTRUKTIONSELEMENTE
100
AcDbLine
 62
7
  6
CONTINUOUS
 10
90.7758271145
 20
120.1150538551
 11
90.6514418079
 21
120.3412443276
  0
LINE
  5
6B7
100
AcDbEntity
  8
BEZUGSACHSEN
100
AcDbLine
 62
7
  6
CONTINUOUS
 10
90.6514418079
 20
120.4129525256
 11
90.7758271145
 21
120.1860247343
  0
LINE
  5
6B8
100
AcDbEntity
  8
KONSTRUKTIONSELEMENTE
100
AcDbLine
 62
7
  6
CONTINUOUS
 10
90.6514418079
 20
120.3412443276
 11
90.4514497917
 21
120.5358749129
  0
LINE
  5
6B9
100
AcDbEntity
  8
BEZUGSACHSEN
100
AcDbLine
 62
7
  6
CONTINUOUS
 10
90.4514497917
 20
120.6083154826
 11
90.6514418079
 21
120.4129525256
  0
LINE
  5
6BA
100
AcDbEntity
  8
KONSTRUKTIONSELEMENTE
100
AcDbLine
 62
7
  6
CONTINUOUS
 10
90.4514497917
 20
120.5358749129
 11
90.1002415095
 21
120.667619375
  0
LINE
  5
6BB
100
AcDbEntity
  8
BEZUGSACHSEN
100
AcDbLine
 62
7
  6
CONTINUOUS
 10
90.1002415095
 20
120.7407997181
 11
90.4514497917
 21
120.6083154826
  0
LINE
  5
6BC
100
AcDbEntity
  8
KONSTRUKTIONSELEMENTE
100
AcDbLine
 62
7
  6
CONTINUOUS
 10
90.1002415095
 20
120.667619375
 11
89.8112242454
 21
120.6864107596
  0
LINE
  5
6BD
100
AcDbEntity
  8
BEZUGSACHSEN
100
AcDbLine
 62
7
  6
CONTINUOUS
 10
89.8112242454
 20
120.7599735258
 11
90.1002415095
 21
120.7407997181
  0
LINE
  5
6BE
100
AcDbEntity
  8
KONSTRUKTIONSELEMENTE
100
AcDbLine
 62
7
  6
CONTINUOUS
 10
89.8112242454
 20
120.6864107596
 11
89.6600079793
 21
120.6237620607
  0
LINE
  5
6BF
100
AcDbEntity
  8
KONSTRUKTIONSELEMENTE
100
AcDbLine
 62
7
  6
CONTINUOUS
 10
89.4953762336
 20
120.4170365569
 11
89.6600079793
 21
120.6237620607
  0
LINE
  5
6C0
100
AcDbEntity
  8
BEZUGSACHSEN
100
AcDbLine
 62
7
  6
CONTINUOUS
 10
89.6600079793
 20
120.6973347117
 11
89.4953762336
 21
120.4902429949
  0
LINE
  5
6C1
100
AcDbEntity
  8
KONSTRUKTIONSELEMENTE
100
AcDbLine
 62
7
  6
CONTINUOUS
 10
89.4015497063
 20
120.1242737078
 11
89.4183894812
 21
120.1768328322
  0
LINE
  5
6C2
100
AcDbEntity
  8
KONSTRUKTIONSELEMENTE
100
AcDbLine
 62
7
  6
CONTINUOUS
 10
89.4183894812
 20
120.1768328322
 11
89.4953762336
 21
120.4170365569
  0
LINE
  5
6C3
100
AcDbEntity
  8
BEZUGSACHSEN
100
AcDbLine
 62
7
  6
CONTINUOUS
 10
89.4953762336
 20
120.4902429949
 11
89.3929357177
 21
120.1698243563
  0
LINE
  5
6C4
100
AcDbEntity
  8
KONSTRUKTIONSELEMENTE
100
AcDbLine
 62
7
  6
CONTINUOUS
 10
90.816265968
 20
119.9013802241
 11
90.8002116323
 21
119.9862289132
  0
LINE
  5
6C5
100
AcDbEntity
  8
KONSTRUKTIONSELEMENTE
100
AcDbLine
 62
7
  6
CONTINUOUS
 10
90.8002116323
 20
119.9862289132
 11
90.7758271145
 21
120.1150538551
  0
LINE
  5
6C6
100
AcDbEntity
  8
BEZUGSACHSEN
100
AcDbLine
 62
7
  6
CONTINUOUS
 10
90.7758271145
 20
120.1860247343
 11
90.8246028646
 21
119.9275279304
  0
SPLINE
  5
6C7
100
AcDbEntity
  8
KONSTRUKTIONSELEMENTE
100
AcDbSpline
 62
7
  6
CONTINUOUS
 70
0
 71
3
 72
10
 73
6
 74
0
 42
0.0000001
 43
0.0000001
 44
0.0000000001
 40
0.0
 40
0.0
 40
0.0
 40
0.0
 40
0.2496775761
 40
0.4996238489
 40
1.0
 40
1.0
 40
1.0
 40
1.0
 10
62.0275170884
 20
78.5800635706
 30
0.0
 10
62.0170738845
 20
78.7828219557
 30
0.0
 10
61.9693629325
 20
79.1876392183
 30
0.0
 10
61.7764673361
 20
79.9790894008
 30
0.0
 10
61.5391457388
 20
80.5457595193
 30
0.0
 10
61.3564775162
 20
80.909335291
 30
0.0
  0
LINE
  5
6C8
100
AcDbEntity
  8
KONSTRUKTIONSELEMENTE
100
AcDbLine
 62
7
  6
CONTINUOUS
 10
89.3080916686
 20
119.2538854849
 11
89.2880483925
 21
119.3598313837
  0
LINE
  5
6C9
100
AcDbEntity
  8
KONSTRUKTIONSELEMENTE
100
AcDbLine
 62
7
  6
CONTINUOUS
 10
89.2880483925
 20
119.3598313837
 11
89.2636642423
 21
119.4886628488
  0
LINE
  5
6CA
100
AcDbEntity
  8
BEZUGSACHSEN
100
AcDbLine
 62
7
  6
CONTINUOUS
 10
89.2636642423
 20
119.5594887742
 11
89.3124399924
 21
119.300895045
  0
LINE
  5
6CB
100
AcDbEntity
  8
KONSTRUKTIONSELEMENTE
100
AcDbLine
 62
7
  6
CONTINUOUS
 10
89.2636642423
 20
119.4886628488
 11
89.1392789357
 21
119.7148533212
  0
LINE
  5
6CC
100
AcDbEntity
  8
BEZUGSACHSEN
100
AcDbLine
 62
7
  6
CONTINUOUS
 10
89.1392789357
 20
119.7864880207
 11
89.2636642423
 21
119.5594887742
  0
LINE
  5
6CD
100
AcDbEntity
  8
KONSTRUKTIONSELEMENTE
100
AcDbLine
 62
7
  6
CONTINUOUS
 10
89.1392789357
 20
119.7148533212
 11
88.9392869196
 21
119.9094612365
  0
LINE
  5
6CE
100
AcDbEntity
  8
BEZUGSACHSEN
100
AcDbLine
 62
7
  6
CONTINUOUS
 10
88.9392869196
 20
119.9818988161
 11
89.1392789357
 21
119.7864880207
  0
LINE
  5
6CF
100
AcDbEntity
  8
KONSTRUKTIONSELEMENTE
100
AcDbLine
 62
7
  6
CONTINUOUS
 10
88.9392869196
 20
119.9094612365
 11
88.6636867704
 21
120.072481853
  0
LINE
  5
6D0
100
AcDbEntity
  8
BEZUGSACHSEN
100
AcDbLine
 62
7
  6
CONTINUOUS
 10
88.6636867704
 20
120.1457274422
 11
88.9392869196
 21
119.9818988161
  0
LINE
  5
6D1
100
AcDbEntity
  8
KONSTRUKTIONSELEMENTE
100
AcDbLine
 62
7
  6
CONTINUOUS
 10
88.6636867704
 20
120.072481853
 11
88.2679658642
 21
120.1162521295
  0
LINE
  5
6D2
100
AcDbEntity
  8
BEZUGSACHSEN
100
AcDbLine
 62
7
  6
CONTINUOUS
 10
88.2679658642
 20
120.1901264659
 11
88.6636867704
 21
120.1457274422
  0
LINE
  5
6D3
100
AcDbEntity
  8
KONSTRUKTIONSELEMENTE
100
AcDbLine
 62
7
  6
CONTINUOUS
 10
88.2679658642
 20
120.1162521295
 11
88.0411414651
 21
120.0222728141
  0
LINE
  5
6D4
100
AcDbEntity
  8
BEZUGSACHSEN
100
AcDbLine
 62
7
  6
CONTINUOUS
 10
88.0411414651
 20
120.0961681643
 11
88.2679658642
 21
120.1901264659
  0
LINE
  5
6D5
100
AcDbEntity
  8
KONSTRUKTIONSELEMENTE
100
AcDbLine
 62
7
  6
CONTINUOUS
 10
87.8319971483
 20
119.7279224816
 11
88.0411414651
 21
120.0222728141
  0
LINE
  5
6D6
100
AcDbEntity
  8
BEZUGSACHSEN
100
AcDbLine
 62
7
  6
CONTINUOUS
 10
88.0411414651
 20
120.0961681643
 11
87.8319971483
 21
119.801211584
  0
LINE
  5
6D7
100
AcDbEntity
  8
BEZUGSACHSEN
100
AcDbLine
 62
7
  6
CONTINUOUS
 10
87.8319971483
 20
119.801211584
 11
87.8051647654
 21
119.5120823837
  0
SPLINE
  5
6D8
100
AcDbEntity
  8
KONSTRUKTIONSELEMENTE
100
AcDbSpline
 62
7
  6
CONTINUOUS
 70
0
 71
3
 72
10
 73
6
 74
0
 42
0.0000001
 43
0.0000001
 44
0.0000000001
 40
0.0
 40
0.0
 40
0.0
 40
0.0
 40
0.5003761511
 40
0.7503224239
 40
1.0
 40
1.0
 40
1.0
 40
1.0
 10
85.1489026747
 20
80.909335291
 30
0.0
 10
84.9662344521
 20
80.5457595193
 30
0.0
 10
84.7289128548
 20
79.9790894008
 30
0.0
 10
84.5360172584
 20
79.1876392183
 30
0.0
 10
84.4883063064
 20
78.7828219557
 30
0.0
 10
84.4778631025
 20
78.5800635706
 30
0.0
  0
SPLINE
  5
6D9
100
AcDbEntity
  8
KONSTRUKTIONSELEMENTE
100
AcDbSpline
 62
7
  6
CONTINUOUS
 70
0
 71
3
 72
9
 73
5
 74
0
 42
0.0000001
 43
0.0000001
 44
0.0000000001
 40
0.0
 40
0.0
 40
0.0
 40
0.0
 40
0.5012836704
 40
1.0
 40
1.0
 40
1.0
 40
1.0
 10
61.2706164603
 20
82.5707434607
 30
0.0
 10
61.3991204128
 20
82.8831379231
 30
0.0
 10
61.6100333672
 20
83.5270250591
 30
0.0
 10
61.6876565892
 20
84.2027108599
 30
0.0
 10
61.6876565892
 20
84.5387730395
 30
0.0
  0
SPLINE
  5
6DA
100
AcDbEntity
  8
KONSTRUKTIONSELEMENTE
100
AcDbSpline
 62
7
  6
CONTINUOUS
 70
0
 71
3
 72
9
 73
5
 74
0
 42
0.0000001
 43
0.0000001
 44
0.0000000001
 40
0.0
 40
0.0
 40
0.0
 40
0.0
 40
0.4987163296
 40
1.0
 40
1.0
 40
1.0
 40
1.0
 10
84.8177236017
 20
84.5387730395
 30
0.0
 10
84.8177236017
 20
84.2027108599
 30
0.0
 10
84.8953468237
 20
83.5270250591
 30
0.0
 10
85.106259778
 20
82.8831379231
 30
0.0
 10
85.2347637306
 20
82.5707434607
 30
0.0
  0
LINE
  5
6DB
100
AcDbEntity
  8
KONSTRUKTIONSELEMENTE
100
AcDbLine
 62
7
  6
CONTINUOUS
 10
91.1623956671
 20
119.5798714593
 11
91.2337391446
 21
119.9572705455
  0
LINE
  5
6DC
100
AcDbEntity
  8
BEZUGSACHSEN
100
AcDbLine
 62
7
  6
CONTINUOUS
 10
91.2337391446
 20
120.0273558567
 11
91.1623956671
 21
119.6489957414
  0
LINE
  5
6DD
100
AcDbEntity
  8
KONSTRUKTIONSELEMENTE
100
AcDbLine
 62
7
  6
CONTINUOUS
 10
91.0288595363
 20
119.3156539287
 11
91.1623956671
 21
119.5798714593
  0
LINE
  5
6DE
100
AcDbEntity
  8
BEZUGSACHSEN
100
AcDbLine
 62
7
  6
CONTINUOUS
 10
91.1623956671
 20
119.6489957414
 11
91.0288595363
 21
119.3841655726
  0
LINE
  5
6DF
100
AcDbEntity
  8
KONSTRUKTIONSELEMENTE
100
AcDbLine
 62
7
  6
CONTINUOUS
 10
90.7130113127
 20
119.0454366185
 11
91.0288595363
 21
119.3156539287
  0
LINE
  5
6E0
100
AcDbEntity
  8
BEZUGSACHSEN
100
AcDbLine
 62
7
  6
CONTINUOUS
 10
91.0288595363
 20
119.3841655726
 11
90.7130113127
 21
119.1134694882
  0
LINE
  5
6E1
100
AcDbEntity
  8
KONSTRUKTIONSELEMENTE
100
AcDbLine
 62
7
  6
CONTINUOUS
 10
90.4861869136
 20
118.9514485426
 11
90.7130113127
 21
119.0454366185
  0
LINE
  5
6E2
100
AcDbEntity
  8
BEZUGSACHSEN
100
AcDbLine
 62
7
  6
CONTINUOUS
 10
90.7130113127
 20
119.1134694882
 11
90.4861869136
 21
119.0194196106
  0
LINE
  5
6E3
100
AcDbEntity
  8
KONSTRUKTIONSELEMENTE
100
AcDbLine
 62
7
  6
CONTINUOUS
 10
90.4861869136
 20
118.9514485426
 11
90.1215617282
 21
118.9397282836
  0
LINE
  5
6E4
100
AcDbEntity
  8
BEZUGSACHSEN
100
AcDbLine
 62
7
  6
CONTINUOUS
 10
90.1215617282
 20
119.0080153541
 11
90.4861869136
 21
119.0194196106
  0
LINE
  5
6E5
100
AcDbEntity
  8
KONSTRUKTIONSELEMENTE
100
AcDbLine
 62
7
  6
CONTINUOUS
 10
90.1215617282
 20
118.9397282836
 11
89.801449061
 21
119.0160329385
  0
LINE
  5
6E6
100
AcDbEntity
  8
BEZUGSACHSEN
100
AcDbLine
 62
7
  6
CONTINUOUS
 10
89.801449061
 20
119.0848687227
 11
90.1215617282
 21
119.0080153541
  0
LINE
  5
6E7
100
AcDbEntity
  8
KONSTRUKTIONSELEMENTE
100
AcDbLine
 62
7
  6
CONTINUOUS
 10
89.801449061
 20
119.0160329385
 11
89.6636482746
 21
119.098156147
  0
LINE
  5
6E8
100
AcDbEntity
  8
BEZUGSACHSEN
100
AcDbLine
 62
7
  6
CONTINUOUS
 10
89.6636482746
 20
119.1673812185
 11
89.801449061
 21
119.0848687227
  0
LINE
  5
6E9
100
AcDbEntity
  8
KONSTRUKTIONSELEMENTE
100
AcDbLine
 62
7
  6
CONTINUOUS
 10
89.6502327949
 20
118.9533832906
 11
89.6636482746
 21
119.098156147
  0
LINE
  5
6EA
100
AcDbEntity
  8
BEZUGSACHSEN
100
AcDbLine
 62
7
  6
CONTINUOUS
 10
89.6636482746
 20
119.1673812185
 11
89.6502327949
 21
119.0221839224
  0
LINE
  5
6EB
100
AcDbEntity
  8
KONSTRUKTIONSELEMENTE
100
AcDbLine
 62
7
  6
CONTINUOUS
 10
89.547792279
 20
118.6323059503
 11
89.6502327949
 21
118.9533832906
  0
LINE
  5
6EC
100
AcDbEntity
  8
BEZUGSACHSEN
100
AcDbLine
 62
7
  6
CONTINUOUS
 10
89.6502327949
 20
119.0221839224
 11
89.547792279
 21
118.7002202357
  0
LINE
  5
6ED
100
AcDbEntity
  8
KONSTRUKTIONSELEMENTE
100
AcDbLine
 62
7
  6
CONTINUOUS
 10
89.2319441613
 20
118.3619939789
 11
89.547792279
 21
118.6323059503
  0
LINE
  5
6EE
100
AcDbEntity
  8
BEZUGSACHSEN
100
AcDbLine
 62
7
  6
CONTINUOUS
 10
89.547792279
 20
118.7002202357
 11
89.2319441613
 21
118.4293656001
  0
LINE
  5
6EF
100
AcDbEntity
  8
KONSTRUKTIONSELEMENTE
100
AcDbLine
 62
7
  6
CONTINUOUS
 10
89.0051197623
 20
118.267995385
 11
89.2319441613
 21
118.3619939789
  0
LINE
  5
6F0
100
AcDbEntity
  8
BEZUGSACHSEN
100
AcDbLine
 62
7
  6
CONTINUOUS
 10
89.2319441613
 20
118.4293656001
 11
89.0051197623
 21
118.3352887628
  0
LINE
  5
6F1
100
AcDbEntity
  8
KONSTRUKTIONSELEMENTE
100
AcDbLine
 62
7
  6
CONTINUOUS
 10
89.0051197623
 20
118.267995385
 11
88.5648863909
 21
118.2250151233
  0
LINE
  5
6F2
100
AcDbEntity
  8
BEZUGSACHSEN
100
AcDbLine
 62
7
  6
CONTINUOUS
 10
88.5648863909
 20
118.2926186273
 11
89.0051197623
 21
118.3352887628
  0
LINE
  5
6F3
100
AcDbEntity
  8
KONSTRUKTIONSELEMENTE
100
AcDbLine
 62
7
  6
CONTINUOUS
 10
88.5648863909
 20
118.2250151233
 11
88.2447736972
 21
118.3014329441
  0
LINE
  5
6F4
100
AcDbEntity
  8
BEZUGSACHSEN
100
AcDbLine
 62
7
  6
CONTINUOUS
 10
88.2447736972
 20
118.3696367747
 11
88.5648863909
 21
118.2926186273
  0
LINE
  5
6F5
100
AcDbEntity
  8
KONSTRUKTIONSELEMENTE
100
AcDbLine
 62
7
  6
CONTINUOUS
 10
88.2447736972
 20
118.3014329441
 11
87.8624697802
 21
118.4911289449
  0
LINE
  5
6F6
100
AcDbEntity
  8
BEZUGSACHSEN
100
AcDbLine
 62
7
  6
CONTINUOUS
 10
87.8624697802
 20
118.5604070903
 11
88.2447736972
 21
118.3696367747
  0
LINE
  5
6F7
100
AcDbEntity
  8
KONSTRUKTIONSELEMENTE
100
AcDbLine
 62
7
  6
CONTINUOUS
 10
87.8624697802
 20
118.4911289449
 11
87.631380719
 21
118.7430405259
  0
LINE
  5
6F8
100
AcDbEntity
  8
BEZUGSACHSEN
100
AcDbLine
 62
7
  6
CONTINUOUS
 10
87.631380719
 20
118.8134433505
 11
87.8624697802
 21
118.5604070903
  0
LINE
  5
6F9
100
AcDbEntity
  8
KONSTRUKTIONSELEMENTE
100
AcDbLine
 62
7
  6
CONTINUOUS
 10
87.631380719
 20
118.7430405259
 11
87.4448041826
 21
119.0823236461
  0
LINE
  5
6FA
100
AcDbEntity
  8
BEZUGSACHSEN
100
AcDbLine
 62
7
  6
CONTINUOUS
 10
87.4448041826
 20
119.1540842784
 11
87.631380719
 21
118.8134433505
  0
LINE
  5
6FB
100
AcDbEntity
  8
KONSTRUKTIONSELEMENTE
100
AcDbLine
 62
7
  6
CONTINUOUS
 10
87.4448041826
 20
119.0823236461
 11
87.3649314007
 21
119.3958856577
  0
LINE
  5
6FC
100
AcDbEntity
  8
BEZUGSACHSEN
100
AcDbLine
 62
7
  6
CONTINUOUS
 10
87.3649314007
 20
119.4687632851
 11
87.4448041826
 21
119.1540842784
  0
LINE
  5
6FD
100
AcDbEntity
  8
KONSTRUKTIONSELEMENTE
100
AcDbLine
 62
7
  6
CONTINUOUS
 10
85.2247612106
 20
123.3438513804
 11
84.9536517088
 21
123.1620241126
  0
LINE
  5
6FE
100
AcDbEntity
  8
BEZUGSACHSEN
100
AcDbLine
 62
7
  6
CONTINUOUS
 10
84.9536517088
 20
123.2487073514
 11
85.2247612106
 21
123.4304464049
  0
LINE
  5
6FF
100
AcDbEntity
  8
KONSTRUKTIONSELEMENTE
100
AcDbLine
 62
7
  6
CONTINUOUS
 10
84.9536517088
 20
123.1620241126
 11
84.5271173636
 21
123.1040545468
  0
LINE
  5
700
100
AcDbEntity
  8
BEZUGSACHSEN
100
AcDbLine
 62
7
  6
CONTINUOUS
 10
84.5271173636
 20
123.1913563223
 11
84.9536517088
 21
123.2487073514
  0
SPLINE
  5
701
100
AcDbEntity
  8
RUNDUNGEN
100
AcDbSpline
 62
7
  6
CONTINUOUS
 70
0
 71
3
 72
9
 73
5
 74
0
 42
0.0000001
 43
0.0000001
 44
0.0000000001
 40
0.0
 40
0.0
 40
0.0
 40
0.0
 40
0.5320614037
 40
1.0
 40
1.0
 40
1.0
 40
1.0
 10
52.984740903
 20
89.1244487228
 30
0.0
 10
53.0674273015
 20
89.0373007373
 30
0.0
 10
53.2016718428
 20
88.8492220011
 30
0.0
 10
53.2526900954
 20
88.6216002162
 30
0.0
 10
53.2526900954
 20
88.5159458275
 30
0.0
  0
LINE
  5
702
100
AcDbEntity
  8
KONSTRUKTIONSELEMENTE
100
AcDbLine
 62
7
  6
CONTINUOUS
 10
84.5271173636
 20
123.1040545468
 11
84.2102316347
 21
123.157402593
  0
SPLINE
  5
703
100
AcDbEntity
  8
BEZUGSACHSEN
100
AcDbSpline
 62
7
  6
CONTINUOUS
 70
0
 71
3
 72
8
 73
4
 74
0
 42
0.0000001
 43
0.0000001
 44
0.0000000001
 40
0.0
 40
0.0
 40
0.0
 40
0.0
 40
1.0
 40
1.0
 40
1.0
 40
1.0
 10
59.5849964629
 20
122.7618982334
 30
0.0
 10
60.1607293551
 20
122.5773092769
 30
0.0
 10
60.7364192566
 20
122.3925861307
 30
0.0
 10
61.3120491618
 20
122.2076762654
 30
0.0
  0
SPLINE
  5
704
100
AcDbEntity
  8
KONSTRUKTIONSELEMENTE
100
AcDbSpline
 62
7
  6
CONTINUOUS
 70
0
 71
3
 72
8
 73
4
 74
0
 42
0.0000001
 43
0.0000001
 44
0.0000000001
 40
0.0
 40
0.0
 40
0.0
 40
0.0
 40
1.0
 40
1.0
 40
1.0
 40
1.0
 10
61.3120491618
 20
122.1237031484
 30
0.0
 10
60.7364337174
 20
122.3091654698
 30
0.0
 10
60.1607426216
 20
122.4943930774
 30
0.0
 10
59.5849964629
 20
122.6794492128
 30
0.0
  0
LINE
  5
705
100
AcDbEntity
  8
BEZUGSACHSEN
100
AcDbLine
 62
7
  6
CONTINUOUS
 10
61.3120491618
 20
122.2076762654
 11
61.6119557665
 21
122.5521428702
  0
LINE
  5
706
100
AcDbEntity
  8
KONSTRUKTIONSELEMENTE
100
AcDbLine
 62
7
  6
CONTINUOUS
 10
61.6119557665
 20
122.4668508815
 11
61.3120491618
 21
122.1237031484
  0
LINE
  5
707
100
AcDbEntity
  8
BEZUGSACHSEN
100
AcDbLine
 62
7
  6
CONTINUOUS
 10
84.2102316347
 20
123.2453700467
 11
84.5271173636
 21
123.1913563223
  0
LINE
  5
708
100
AcDbEntity
  8
BEZUGSACHSEN
100
AcDbLine
 62
7
  6
CONTINUOUS
 10
59.7102209512
 20
123.1484493846
 11
59.7497577594
 21
123.4359416368
  0
LINE
  5
709
100
AcDbEntity
  8
KONSTRUKTIONSELEMENTE
100
AcDbLine
 62
7
  6
CONTINUOUS
 10
59.7497577594
 20
123.3517815927
 11
59.7212502777
 21
123.1449954171
  0
LINE
  5
70A
100
AcDbEntity
  8
KONSTRUKTIONSELEMENTE
100
AcDbLine
 62
7
  6
CONTINUOUS
 10
84.2102316347
 20
123.157402593
 11
83.8963662815
 21
123.3073648479
  0
LINE
  5
70B
100
AcDbEntity
  8
BEZUGSACHSEN
100
AcDbLine
 62
7
  6
CONTINUOUS
 10
83.8963662815
 20
123.39618451
 11
84.2102316347
 21
123.2453700467
  0
SPLINE
  5
70C
100
AcDbEntity
  8
KONSTRUKTIONSELEMENTE
100
AcDbSpline
 62
7
  6
CONTINUOUS
 70
0
 71
3
 72
8
 73
4
 74
0
 42
0.0000001
 43
0.0000001
 44
0.0000000001
 40
0.0
 40
0.0
 40
0.0
 40
0.0
 40
1.0
 40
1.0
 40
1.0
 40
1.0
 10
83.8963662815
 20
123.3073648479
 30
0.0
 10
83.7410602019
 20
123.4305806271
 30
0.0
 10
83.585635395
 20
123.5536469071
 30
0.0
 10
83.4300916935
 20
123.6765625836
 30
0.0
  0
LINE
  5
70D
100
AcDbEntity
  8
KONSTRUKTIONSELEMENTE
100
AcDbLine
 62
7
  6
CONTINUOUS
 10
83.4300916935
 20
123.6765625836
 11
83.2258749616
 21
123.9368173832
  0
LINE
  5
70E
100
AcDbEntity
  8
BEZUGSACHSEN
100
AcDbLine
 62
7
  6
CONTINUOUS
 10
83.2258749616
 20
124.0279572461
 11
83.4300916935
 21
123.7668943284
  0
LINE
  5
70F
100
AcDbEntity
  8
KONSTRUKTIONSELEMENTE
100
AcDbLine
 62
7
  6
CONTINUOUS
 10
83.2258749616
 20
123.9368173832
 11
83.1282924136
 21
124.2116403908
  0
LINE
  5
710
100
AcDbEntity
  8
BEZUGSACHSEN
100
AcDbLine
 62
7
  6
CONTINUOUS
 10
83.1282924136
 20
124.3033973106
 11
83.2258749616
 21
124.0279572461
  0
LINE
  5
711
100
AcDbEntity
  8
BEZUGSACHSEN
100
AcDbLine
 62
7
  6
CONTINUOUS
 10
59.983891744
 20
120.6711592026
 11
56.8856911618
 21
122.7967444795
  0
LINE
  5
712
100
AcDbEntity
  8
KONSTRUKTIONSELEMENTE
100
AcDbLine
 62
7
  6
CONTINUOUS
 10
56.8856911618
 20
122.7179782234
 11
59.983891744
 21
120.5934198146
  0
LINE
  5
713
100
AcDbEntity
  8
BEZUGSACHSEN
100
AcDbLine
 62
7
  6
CONTINUOUS
 10
59.983891744
 20
120.6711592026
 11
60.2409544779
 21
120.9699439081
  0
LINE
  5
714
100
AcDbEntity
  8
KONSTRUKTIONSELEMENTE
100
AcDbLine
 62
7
  6
CONTINUOUS
 10
60.2409544779
 20
120.8909570112
 11
59.983891744
 21
120.5934198146
  0
SPLINE
  5
715
100
AcDbEntity
  8
BEZUGSACHSEN
100
AcDbSpline
 62
7
  6
CONTINUOUS
 70
0
 71
3
 72
17
 73
13
 74
0
 42
0.0000001
 43
0.0000001
 44
0.0000000001
 40
0.0
 40
0.0
 40
0.0
 40
0.0
 40
0.0607830061
 40
0.1218926354
 40
0.245259931
 40
0.3716012773
 40
0.5
 40
0.6283987227
 40
0.754740069
 40
0.8781073646
 40
0.9392169939
 40
1.0
 40
1.0
 40
1.0
 40
1.0
 10
89.7026900954
 20
84.8103442069
 30
0.0
 10
89.7026900954
 20
84.9178501212
 30
0.0
 10
89.6798935254
 20
85.1341537368
 30
0.0
 10
89.5458556082
 20
85.549387208
 30
0.0
 10
89.2160880539
 20
86.009561193
 30
0.0
 10
88.6342665273
 20
86.3707950789
 30
0.0
 10
87.9526900954
 20
86.4971286947
 30
0.0
 10
87.2711136636
 20
86.3707950789
 30
0.0
 10
86.6892921369
 20
86.009561193
 30
0.0
 10
86.3595245827
 20
85.549387208
 30
0.0
 10
86.2254866655
 20
85.1341537368
 30
0.0
 10
86.2026900954
 20
84.9178501212
 30
0.0
 10
86.2026900954
 20
84.8103442069
 30
0.0
  0
SPLINE
  5
716
100
AcDbEntity
  8
KONSTRUKTIONSELEMENTE
100
AcDbSpline
 62
7
  6
CONTINUOUS
 70
0
 71
3
 72
11
 73
7
 74
0
 42
0.0000001
 43
0.0000001
 44
0.0000000001
 40
0.0
 40
0.0
 40
0.0
 40
0.0
 40
0.2589527581
 40
0.5073161023
 40
0.7528189353
 40
1.0
 40
1.0
 40
1.0
 40
1.0
 10
61.6876565892
 20
89.4582071398
 30
0.0
 10
61.6876565892
 20
89.6010879864
 30
0.0
 10
61.7404275622
 20
89.8842036394
 30
0.0
 10
61.9618564921
 20
90.2439162029
 30
0.0
 10
62.2652035662
 20
90.5232481621
 30
0.0
 10
62.4976799592
 20
90.6666177515
 30
0.0
 10
62.6182957052
 20
90.7302800392
 30
0.0
  0
LINE
  5
717
100
AcDbEntity
  8
BEZUGSACHSEN
100
AcDbLine
 62
7
  6
CONTINUOUS
 10
58.286381613
 20
123.8096877565
 11
58.4808321335
 21
123.9125439612
  0
LINE
  5
718
100
AcDbEntity
  8
KONSTRUKTIONSELEMENTE
100
AcDbLine
 62
7
  6
CONTINUOUS
 10
58.4808321335
 20
123.8292734807
 11
58.286381613
 21
123.7268960511
  0
LINE
  5
719
100
AcDbEntity
  8
BEZUGSACHSEN
100
AcDbLine
 62
7
  6
CONTINUOUS
 10
58.4808321335
 20
123.9125439612
 11
58.6983580593
 21
123.9207859098
  0
LINE
  5
71A
100
AcDbEntity
  8
KONSTRUKTIONSELEMENTE
100
AcDbLine
 62
7
  6
CONTINUOUS
 10
58.6983580593
 20
123.8371910541
 11
58.4808321335
 21
123.8292734807
  0
LINE
  5
71B
100
AcDbEntity
  8
BEZUGSACHSEN
100
AcDbLine
 62
7
  6
CONTINUOUS
 10
58.6983580593
 20
123.9207859098
 11
58.9389592678
 21
123.8345043526
  0
LINE
  5
71C
100
AcDbEntity
  8
KONSTRUKTIONSELEMENTE
100
AcDbLine
 62
7
  6
CONTINUOUS
 10
58.9389592678
 20
123.7507364264
 11
58.6983580593
 21
123.8371910541
  0
LINE
  5
71D
100
AcDbEntity
  8
BEZUGSACHSEN
100
AcDbLine
 62
7
  6
CONTINUOUS
 10
58.9389592678
 20
123.8345043526
 11
59.1367169128
 21
123.6989352768
  0
LINE
  5
71E
100
AcDbEntity
  8
KONSTRUKTIONSELEMENTE
100
AcDbLine
 62
7
  6
CONTINUOUS
 10
59.1367169128
 20
123.6151527889
 11
58.9389592678
 21
123.7507364264
  0
LINE
  5
71F
100
AcDbEntity
  8
BEZUGSACHSEN
100
AcDbLine
 62
7
  6
CONTINUOUS
 10
59.2916306251
 20
123.5140795035
 11
59.1367169128
 21
123.6989352768
  0
LINE
  5
720
100
AcDbEntity
  8
KONSTRUKTIONSELEMENTE
100
AcDbLine
 62
7
  6
CONTINUOUS
 10
59.1367169128
 20
123.6151527889
 11
59.2916306251
 21
123.4304474485
  0
LINE
  5
721
100
AcDbEntity
  8
BEZUGSACHSEN
100
AcDbLine
 62
7
  6
CONTINUOUS
 10
59.3377813132
 20
123.3250780049
 11
59.2916306251
 21
123.5140795035
  0
LINE
  5
722
100
AcDbEntity
  8
KONSTRUKTIONSELEMENTE
100
AcDbLine
 62
7
  6
CONTINUOUS
 10
59.2916306251
 20
123.4304474485
 11
59.326293796
 21
123.288741719
  0
SPLINE
  5
723
100
AcDbEntity
  8
KONSTRUKTIONSELEMENTE
100
AcDbSpline
 62
7
  6
CONTINUOUS
 70
0
 71
3
 72
11
 73
7
 74
0
 42
0.0000001
 43
0.0000001
 44
0.0000000001
 40
0.0
 40
0.0
 40
0.0
 40
0.0
 40
0.2471844924
 40
0.4926908524
 40
0.7410533289
 40
1.0
 40
1.0
 40
1.0
 40
1.0
 10
83.8870844857
 20
90.7302800392
 30
0.0
 10
84.0077019148
 20
90.6666168631
 30
0.0
 10
84.2401816218
 20
90.5232452205
 30
0.0
 10
84.543530151
 20
90.24390942
 30
0.0
 10
84.7649545053
 20
89.8841962139
 30
0.0
 10
84.8177236017
 20
89.6010846403
 30
0.0
 10
84.8177236017
 20
89.4582071398
 30
0.0
  0
LINE
  5
724
100
AcDbEntity
  8
KONSTRUKTIONSELEMENTE
100
AcDbLine
 62
7
  6
CONTINUOUS
 10
86.7628932002
 20
125.0029854998
 11
86.7749628068
 21
125.3911056992
  0
LINE
  5
725
100
AcDbEntity
  8
BEZUGSACHSEN
100
AcDbLine
 62
7
  6
CONTINUOUS
 10
86.7749628068
 20
125.4789989481
 11
86.7628932002
 21
125.0902503338
  0
LINE
  5
726
100
AcDbEntity
  8
BEZUGSACHSEN
100
AcDbLine
 62
7
  6
CONTINUOUS
 10
60.9950356762
 20
126.7778985632
 11
62.6874879673
 21
125.0432718886
  0
LINE
  5
727
100
AcDbEntity
  8
KONSTRUKTIONSELEMENTE
100
AcDbLine
 62
7
  6
CONTINUOUS
 10
62.6874879673
 20
124.9515354392
 11
60.9950356762
 21
126.6863075679
  0
LINE
  5
728
100
AcDbEntity
  8
BEZUGSACHSEN
100
AcDbLine
 62
7
  6
CONTINUOUS
 10
62.8539066887
 20
124.7786648691
 11
62.6874879673
 21
125.0432718886
  0
LINE
  5
729
100
AcDbEntity
  8
KONSTRUKTIONSELEMENTE
100
AcDbLine
 62
7
  6
CONTINUOUS
 10
62.6874879673
 20
124.9515354392
 11
62.8539066887
 21
124.6870539972
  0
LINE
  5
72A
100
AcDbEntity
  8
BEZUGSACHSEN
100
AcDbLine
 62
7
  6
CONTINUOUS
 10
62.9137682898
 20
124.5291780131
 11
62.8539066887
 21
124.7786648691
  0
LINE
  5
72B
100
AcDbEntity
  8
KONSTRUKTIONSELEMENTE
100
AcDbLine
 62
7
  6
CONTINUOUS
 10
62.8539066887
 20
124.6870539972
 11
62.8988819372
 21
124.4998306119
  0
LINE
  5
72C
100
AcDbEntity
  8
KONSTRUKTIONSELEMENTE
100
AcDbLine
 62
7
  6
CONTINUOUS
 10
86.5405730856
 20
124.6827673922
 11
86.7628932002
 21
125.0029854998
  0
LINE
  5
72D
100
AcDbEntity
  8
BEZUGSACHSEN
100
AcDbLine
 62
7
  6
CONTINUOUS
 10
86.7628932002
 20
125.0902503338
 11
86.5405730856
 21
124.7698059469
  0
LINE
  5
72E
100
AcDbEntity
  8
KONSTRUKTIONSELEMENTE
100
AcDbLine
 62
7
  6
CONTINUOUS
 10
86.5405730856
 20
124.6827673922
 11
86.2297233603
 21
124.9302988013
  0
LINE
  5
72F
100
AcDbEntity
  8
BEZUGSACHSEN
100
AcDbLine
 62
7
  6
CONTINUOUS
 10
86.2297233603
 20
125.0182292104
 11
86.5405730856
 21
124.7698059469
  0
SPLINE
  5
730
100
AcDbEntity
  8
0
100
AcDbSpline
 62
7
  6
CONTINUOUS
 70
0
 71
3
 72
26
 73
22
 74
0
 42
0.0000001
 43
0.0000001
 44
0.0000000001
 40
0.0
 40
0.0
 40
0.0
 40
0.0
 40
0.2040801402
 40
0.3947859166
 40
0.4834198127
 40
0.5667214025
 40
0.6440931601
 40
0.7149835555
 40
0.7788901184
 40
0.8353521322
 40
0.8839733191
 40
0.9244033093
 40
0.9414593111
 40
0.956367419
 40
0.9691014303
 40
0.9796452736
 40
0.9879865008
 40
0.9941193595
 40
0.9980659489
 40
0.9992558281
 40
1.0
 40
1.0
 40
1.0
 40
1.0
 10
84.4778631025
 20
78.5800635706
 30
0.0
 10
84.4467959605
 20
77.9768843511
 30
0.0
 10
84.3883140252
 20
76.8099711279
 30
0.0
 10
84.3214868011
 20
75.3808394221
 30
0.0
 10
84.2748866504
 20
74.308607498
 30
0.0
 10
84.2446968753
 20
73.5713953256
 30
0.0
 10
84.2186651012
 20
72.8865717964
 30
0.0
 10
84.1970230653
 20
72.2590262398
 30
0.0
 10
84.1799538139
 20
71.6932472964
 30
0.0
 10
84.1675990555
 20
71.1932683233
 30
0.0
 10
84.1600491897
 20
70.7626815449
 30
0.0
 10
84.1576198286
 20
70.4486561449
 30
0.0
 10
84.1585024305
 20
70.2344023739
 30
0.0
 10
84.1603530406
 20
70.1021309973
 30
0.0
 10
84.1634002094
 20
69.9891460559
 30
0.0
 10
84.1676300103
 20
69.895684605
 30
0.0
 10
84.172921185
 20
69.8217488617
 30
0.0
 10
84.179294392
 20
69.767742156
 30
0.0
 10
84.1857504981
 20
69.7346604022
 30
0.0
 10
84.1922701229
 20
69.7186569183
 30
0.0
 10
84.1961578463
 20
69.7139250429
 30
0.0
 10
84.1981846772
 20
69.7130633717
 30
0.0
  0
LINE
  5
731
100
AcDbEntity
  8
KONSTRUKTIONSELEMENTE
100
AcDbLine
 62
7
  6
CONTINUOUS
 10
86.3297849911
 20
125.2035946108
 11
86.3195441895
 21
125.2561875579
  0
LINE
  5
732
100
AcDbEntity
  8
KONSTRUKTIONSELEMENTE
100
AcDbLine
 62
7
  6
CONTINUOUS
 10
86.3195441895
 20
125.2561875579
 11
86.2966186121
 21
125.3738988278
  0
LINE
  5
733
100
AcDbEntity
  8
BEZUGSACHSEN
100
AcDbLine
 62
7
  6
CONTINUOUS
 10
86.2966186121
 20
125.4624594497
 11
86.3423924916
 21
125.22694825
  0
SPLINE
  5
734
100
AcDbEntity
  8
KONSTRUKTIONSELEMENTE
100
AcDbSpline
 62
7
  6
CONTINUOUS
 70
0
 71
3
 72
11
 73
7
 74
0
 42
0.0000001
 43
0.0000001
 44
0.0000000001
 40
0.0
 40
0.0
 40
0.0
 40
0.0
 40
0.2511831919
 40
0.5046105739
 40
0.7556414137
 40
1.0
 40
1.0
 40
1.0
 40
1.0
 10
61.3564775162
 20
80.909335291
 30
0.0
 10
61.2920738128
 20
81.0375219337
 30
0.0
 10
61.1862336441
 20
81.3078675567
 30
0.0
 10
61.1141756299
 20
81.7367258865
 30
0.0
 10
61.1381411855
 20
82.1672945824
 30
0.0
 10
61.2175252135
 20
82.4416780806
 30
0.0
 10
61.2706164603
 20
82.5707434607
 30
0.0
  0
LINE
  5
735
100
AcDbEntity
  8
KONSTRUKTIONSELEMENTE
100
AcDbLine
 62
7
  6
CONTINUOUS
 10
86.2966186121
 20
125.3738988278
 11
86.144211744
 21
125.594136087
  0
LINE
  5
736
100
AcDbEntity
  8
BEZUGSACHSEN
100
AcDbLine
 62
7
  6
CONTINUOUS
 10
86.144211744
 20
125.6832663631
 11
86.2966186121
 21
125.4624594497
  0
SPLINE
  5
737
100
AcDbEntity
  8
KONSTRUKTIONSELEMENTE
100
AcDbSpline
 62
7
  6
CONTINUOUS
 70
0
 71
3
 72
8
 73
4
 74
0
 42
0.0000001
 43
0.0000001
 44
0.0000000001
 40
0.0
 40
0.0
 40
0.0
 40
0.0
 40
1.0
 40
1.0
 40
1.0
 40
1.0
 10
86.144211744
 20
125.594136087
 30
0.0
 10
85.9888844945
 20
125.717315517
 30
0.0
 10
85.8334596672
 20
125.8403720037
 30
0.0
 10
85.677937156
 20
125.9633048102
 30
0.0
  0
SPLINE
  5
738
100
AcDbEntity
  8
BEZUGSACHSEN
100
AcDbSpline
 62
7
  6
CONTINUOUS
 70
0
 71
3
 72
8
 73
4
 74
0
 42
0.0000001
 43
0.0000001
 44
0.0000000001
 40
0.0
 40
0.0
 40
0.0
 40
0.0
 40
1.0
 40
1.0
 40
1.0
 40
1.0
 10
85.677937156
 20
126.0536668013
 30
0.0
 10
85.8334632916
 20
125.9303275824
 30
0.0
 10
85.9888880114
 20
125.8068603754
 30
0.0
 10
86.144211744
 20
125.6832663631
 30
0.0
  0
LINE
  5
739
100
AcDbEntity
  8
KONSTRUKTIONSELEMENTE
100
AcDbLine
 62
7
  6
CONTINUOUS
 10
85.677937156
 20
125.9633048102
 11
85.4158769331
 21
126.0712191707
  0
LINE
  5
73A
100
AcDbEntity
  8
BEZUGSACHSEN
100
AcDbLine
 62
7
  6
CONTINUOUS
 10
61.128625098
 20
123.8121812072
 11
59.4361728069
 21
125.5476403891
  0
LINE
  5
73B
100
AcDbEntity
  8
KONSTRUKTIONSELEMENTE
100
AcDbLine
 62
7
  6
CONTINUOUS
 10
59.4361728069
 20
125.4600554311
 11
61.128625098
 21
123.7250870281
  0
LINE
  5
73C
100
AcDbEntity
  8
BEZUGSACHSEN
100
AcDbLine
 62
7
  6
CONTINUOUS
 10
61.128625098
 20
123.8121812072
 11
61.4535634268
 21
123.5735413941
  0
LINE
  5
73D
100
AcDbEntity
  8
KONSTRUKTIONSELEMENTE
100
AcDbLine
 62
7
  6
CONTINUOUS
 10
61.4535634268
 20
123.4863733535
 11
61.128625098
 21
123.7250870281
  0
LINE
  5
73E
100
AcDbEntity
  8
BEZUGSACHSEN
100
AcDbLine
 62
7
  6
CONTINUOUS
 10
61.4535634268
 20
123.5735413941
 11
61.7758686071
 21
123.4321569701
  0
LINE
  5
73F
100
AcDbEntity
  8
KONSTRUKTIONSELEMENTE
100
AcDbLine
 62
7
  6
CONTINUOUS
 10
61.7758686071
 20
123.344722178
 11
61.4535634268
 21
123.4863733535
  0
LINE
  5
740
100
AcDbEntity
  8
BEZUGSACHSEN
100
AcDbLine
 62
7
  6
CONTINUOUS
 10
61.7758686071
 20
123.4321569701
 11
62.202097702
 21
123.3731673659
  0
LINE
  5
741
100
AcDbEntity
  8
KONSTRUKTIONSELEMENTE
100
AcDbLine
 62
7
  6
CONTINUOUS
 10
62.202097702
 20
123.2851111665
 11
61.7758686071
 21
123.344722178
  0
LINE
  5
742
100
AcDbEntity
  8
BEZUGSACHSEN
100
AcDbLine
 62
7
  6
CONTINUOUS
 10
62.202097702
 20
123.3731673659
 11
62.5191366337
 21
123.425880133
  0
LINE
  5
743
100
AcDbEntity
  8
KONSTRUKTIONSELEMENTE
100
AcDbLine
 62
7
  6
CONTINUOUS
 10
62.5191366338
 20
123.3371632182
 11
62.202097702
 21
123.2851111665
  0
LINE
  5
744
100
AcDbEntity
  8
BEZUGSACHSEN
100
AcDbLine
 62
7
  6
CONTINUOUS
 10
62.5191366337
 20
123.425880133
 11
62.8335422207
 21
123.5753272519
  0
LINE
  5
745
100
AcDbEntity
  8
KONSTRUKTIONSELEMENTE
100
AcDbLine
 62
7
  6
CONTINUOUS
 10
62.8335422207
 20
123.4857707301
 11
62.5191366338
 21
123.3371632182
  0
LINE
  5
746
100
AcDbEntity
  8
BEZUGSACHSEN
100
AcDbLine
 62
7
  6
CONTINUOUS
 10
62.8335422207
 20
123.5753272519
 11
63.0413906825
 21
123.7393202936
  0
LINE
  5
747
100
AcDbEntity
  8
KONSTRUKTIONSELEMENTE
100
AcDbLine
 62
7
  6
CONTINUOUS
 10
63.0413906825
 20
123.6490974988
 11
62.8335422207
 21
123.4857707301
  0
LINE
  5
748
100
AcDbEntity
  8
BEZUGSACHSEN
100
AcDbLine
 62
7
  6
CONTINUOUS
 10
63.0413906825
 20
123.7393202936
 11
63.2466058043
 21
123.9998416041
  0
LINE
  5
749
100
AcDbEntity
  8
KONSTRUKTIONSELEMENTE
100
AcDbLine
 62
7
  6
CONTINUOUS
 10
63.2466058043
 20
123.9088065581
 11
63.0413906825
 21
123.6490974988
  0
LINE
  5
74A
100
AcDbEntity
  8
BEZUGSACHSEN
100
AcDbLine
 62
7
  6
CONTINUOUS
 10
63.2466058043
 20
123.9998416041
 11
63.3452637962
 21
124.2750649984
  0
LINE
  5
74B
100
AcDbEntity
  8
KONSTRUKTIONSELEMENTE
100
AcDbLine
 62
7
  6
CONTINUOUS
 10
63.3452637962
 20
124.1834080437
 11
63.2466058043
 21
123.9088065581
  0
LINE
  5
74C
100
AcDbEntity
  8
BEZUGSACHSEN
100
AcDbLine
 62
7
  6
CONTINUOUS
 10
85.4158769331
 20
126.1621161447
 11
85.677937156
 21
126.0536668013
  0
LINE
  5
74D
100
AcDbEntity
  8
KONSTRUKTIONSELEMENTE
100
AcDbLine
 62
7
  6
CONTINUOUS
 10
85.4158769331
 20
126.0712191707
 11
85.1508010872
 21
126.0822733366
  0
LINE
  5
74E
100
AcDbEntity
  8
BEZUGSACHSEN
100
AcDbLine
 62
7
  6
CONTINUOUS
 10
85.1508010872
 20
126.1735729705
 11
85.4158769331
 21
126.1621161447
  0
LINE
  5
74F
100
AcDbEntity
  8
KONSTRUKTIONSELEMENTE
100
AcDbLine
 62
7
  6
CONTINUOUS
 10
85.1508010872
 20
126.0822733366
 11
84.882708279
 21
125.9965977076
  0
LINE
  5
750
100
AcDbEntity
  8
BEZUGSACHSEN
100
AcDbLine
 62
7
  6
CONTINUOUS
 10
84.882708279
 20
126.0881746652
 11
85.1508010872
 21
126.1735729705
  0
LINE
  5
751
100
AcDbEntity
  8
BEZUGSACHSEN
100
AcDbLine
 62
7
  6
CONTINUOUS
 10
64.2526895886
 20
124.7983057248
 11
62.3916300202
 21
127.7357294451
  0
LINE
  5
752
100
AcDbEntity
  8
KONSTRUKTIONSELEMENTE
100
AcDbLine
 62
7
  6
CONTINUOUS
 10
62.3916300202
 20
127.6411101449
 11
64.252689844
 21
124.7043288622
  0
LINE
  5
753
100
AcDbEntity
  8
KONSTRUKTIONSELEMENTE
100
AcDbLine
 62
7
  6
CONTINUOUS
 10
84.882708279
 20
125.9965977076
 11
84.6115988156
 21
125.8142827085
  0
LINE
  5
754
100
AcDbEntity
  8
BEZUGSACHSEN
100
AcDbLine
 62
7
  6
CONTINUOUS
 10
84.6115988156
 20
125.9060139743
 11
84.882708279
 21
126.0881746652
  0
LINE
  5
755
100
AcDbEntity
  8
KONSTRUKTIONSELEMENTE
100
AcDbLine
 62
7
  6
CONTINUOUS
 10
84.6115988156
 20
125.8142827085
 11
83.7892163649
 21
124.9775735285
  0
LINE
  5
756
100
AcDbEntity
  8
BEZUGSACHSEN
100
AcDbLine
 62
7
  6
CONTINUOUS
 10
83.7892163649
 20
125.0693948757
 11
84.6115988156
 21
125.9060139743
  0
LINE
  5
757
100
AcDbEntity
  8
KONSTRUKTIONSELEMENTE
100
AcDbLine
 62
7
  6
CONTINUOUS
 10
83.6217218956
 20
124.7136660324
 11
83.7892163649
 21
124.9775735285
  0
LINE
  5
758
100
AcDbEntity
  8
BEZUGSACHSEN
100
AcDbLine
 62
7
  6
CONTINUOUS
 10
83.7892163649
 20
125.0693948757
 11
83.6217218956
 21
124.8053665816
  0
LINE
  5
759
100
AcDbEntity
  8
KONSTRUKTIONSELEMENTE
100
AcDbLine
 62
7
  6
CONTINUOUS
 10
83.5707835891
 20
124.505304292
 11
83.5911833648
 21
124.5887537962
  0
LINE
  5
75A
100
AcDbEntity
  8
KONSTRUKTIONSELEMENTE
100
AcDbLine
 62
7
  6
CONTINUOUS
 10
83.5911833648
 20
124.5887537962
 11
83.6217218956
 21
124.7136660324
  0
LINE
  5
75B
100
AcDbEntity
  8
BEZUGSACHSEN
100
AcDbLine
 62
7
  6
CONTINUOUS
 10
83.6217218956
 20
124.8053665816
 11
83.5608616006
 21
124.5561318321
  0
LINE
  5
75C
100
AcDbEntity
  8
BEZUGSACHSEN
100
AcDbLine
 62
7
  6
CONTINUOUS
 10
64.062203577
 20
128.0888561956
 11
64.252689853
 21
128.1285718347
  0
LINE
  5
75D
100
AcDbEntity
  8
KONSTRUKTIONSELEMENTE
100
AcDbLine
 62
7
  6
CONTINUOUS
 10
64.2526898774
 20
128.0311728309
 11
64.062203577
 21
127.9917293782
  0
LINE
  5
75E
100
AcDbEntity
  8
KONSTRUKTIONSELEMENTE
100
AcDbLine
 62
7
  6
CONTINUOUS
 10
85.3589496966
 20
124.1320918341
 11
85.2907943099
 21
124.1862896598
  0
LINE
  5
75F
100
AcDbEntity
  8
KONSTRUKTIONSELEMENTE
100
AcDbLine
 62
7
  6
CONTINUOUS
 10
85.2907943099
 20
124.1862896598
 11
84.9410663984
 21
124.4639523117
  0
SPLINE
  5
760
100
AcDbEntity
  8
KONSTRUKTIONSELEMENTE
100
AcDbSpline
 62
7
  6
CONTINUOUS
 70
0
 71
3
 72
11
 73
7
 74
0
 42
0.0000001
 43
0.0000001
 44
0.0000000001
 40
0.0
 40
0.0
 40
0.0
 40
0.0
 40
0.2443585863
 40
0.4953894261
 40
0.7488168081
 40
1.0
 40
1.0
 40
1.0
 40
1.0
 10
85.2347637306
 20
82.5707434607
 30
0.0
 10
85.2878549774
 20
82.4416780806
 30
0.0
 10
85.3672390054
 20
82.1672945824
 30
0.0
 10
85.3912045609
 20
81.7367258865
 30
0.0
 10
85.3191465468
 20
81.3078675567
 30
0.0
 10
85.2133063781
 20
81.0375219337
 30
0.0
 10
85.1489026747
 20
80.909335291
 30
0.0
  0
SPLINE
  5
761
100
AcDbEntity
  8
BEZUGSACHSEN
100
AcDbSpline
 62
7
  6
CONTINUOUS
 70
0
 71
3
 72
8
 73
4
 74
0
 42
0.0000001
 43
0.0000001
 44
0.0000000001
 40
0.0
 40
0.0
 40
0.0
 40
0.0
 40
1.0
 40
1.0
 40
1.0
 40
1.0
 10
84.9410663984
 20
124.5530931743
 30
0.0
 10
85.0966026764
 20
124.4293117246
 30
0.0
 10
85.2520272252
 20
124.3053897556
 30
0.0
 10
85.4073409864
 20
124.1813292193
 30
0.0
  0
SPLINE
  5
762
100
AcDbEntity
  8
KONSTRUKTIONSELEMENTE
100
AcDbSpline
 62
7
  6
CONTINUOUS
 70
0
 71
3
 72
15
 73
11
 74
0
 42
0.0000001
 43
0.0000001
 44
0.0000000001
 40
0.0
 40
0.0
 40
0.0
 40
0.0
 40
0.1222009692
 40
0.2465049901
 40
0.3727027048
 40
0.5
 40
0.6272972952
 40
0.7534950099
 40
0.8777990308
 40
1.0
 40
1.0
 40
1.0
 40
1.0
 10
77.3478287529
 20
95.147065876
 30
0.0
 10
77.1619377366
 20
95.5078000886
 30
0.0
 10
76.6771584726
 20
96.1838798579
 30
0.0
 10
75.6926398338
 20
96.9585649929
 30
0.0
 10
74.5209106992
 20
97.4480419174
 30
0.0
 10
73.2526900954
 20
97.6150594096
 30
0.0
 10
71.9844694917
 20
97.4480419174
 30
0.0
 10
70.8127403571
 20
96.9585649929
 30
0.0
 10
69.8282217183
 20
96.1838798579
 30
0.0
 10
69.3434424543
 20
95.5078000886
 30
0.0
 10
69.1575514379
 20
95.147065876
 30
0.0
  0
LINE
  5
763
100
AcDbEntity
  8
KONSTRUKTIONSELEMENTE
100
AcDbLine
 62
7
  6
CONTINUOUS
 10
85.2247612106
 20
123.3438513804
 11
86.0471436613
 21
124.1806829588
  0
LINE
  5
764
100
AcDbEntity
  8
BEZUGSACHSEN
100
AcDbLine
 62
7
  6
CONTINUOUS
 10
82.5582063484
 20
126.4804219753
 11
82.2526906782
 21
125.169273551
  0
LINE
  5
765
100
AcDbEntity
  8
KONSTRUKTIONSELEMENTE
100
AcDbLine
 62
7
  6
CONTINUOUS
 10
82.2526905695
 20
125.074814394
 11
82.5582063484
 21
126.3849287216
  0
LINE
  5
766
100
AcDbEntity
  8
BEZUGSACHSEN
100
AcDbLine
 62
7
  6
CONTINUOUS
 10
82.5582063484
 20
126.4804219753
 11
82.8776635812
 21
126.4854855584
  0
LINE
  5
767
100
AcDbEntity
  8
KONSTRUKTIONSELEMENTE
100
AcDbLine
 62
7
  6
CONTINUOUS
 10
82.8776635812
 20
126.3904539953
 11
82.5582063484
 21
126.3849287216
  0
LINE
  5
768
100
AcDbEntity
  8
BEZUGSACHSEN
100
AcDbLine
 62
7
  6
CONTINUOUS
 10
82.8776635812
 20
126.4854855584
 11
83.2200259726
 21
126.6507590941
  0
LINE
  5
769
100
AcDbEntity
  8
KONSTRUKTIONSELEMENTE
100
AcDbLine
 62
7
  6
CONTINUOUS
 10
83.2200259726
 20
126.5560452695
 11
82.8776635812
 21
126.3904539953
  0
LINE
  5
76A
100
AcDbEntity
  8
BEZUGSACHSEN
100
AcDbLine
 62
7
  6
CONTINUOUS
 10
83.2200259726
 20
126.6507590941
 11
83.4026604265
 21
126.8135835107
  0
LINE
  5
76B
100
AcDbEntity
  8
KONSTRUKTIONSELEMENTE
100
AcDbLine
 62
7
  6
CONTINUOUS
 10
83.4026604265
 20
126.718954166
 11
83.2200259726
 21
126.5560452695
  0
LINE
  5
76C
100
AcDbEntity
  8
BEZUGSACHSEN
100
AcDbLine
 62
7
  6
CONTINUOUS
 10
83.5670922318
 20
127.0721983976
 11
83.4026604265
 21
126.8135835107
  0
LINE
  5
76D
100
AcDbEntity
  8
KONSTRUKTIONSELEMENTE
100
AcDbLine
 62
7
  6
CONTINUOUS
 10
83.4026604265
 20
126.718954166
 11
83.5670922318
 21
126.9775229547
  0
LINE
  5
76E
100
AcDbEntity
  8
BEZUGSACHSEN
100
AcDbLine
 62
7
  6
CONTINUOUS
 10
83.6311053131
 20
127.2972782371
 11
83.5670922318
 21
127.0721983976
  0
LINE
  5
76F
100
AcDbEntity
  8
KONSTRUKTIONSELEMENTE
100
AcDbLine
 62
7
  6
CONTINUOUS
 10
83.5670922318
 20
126.9775229547
 11
83.6311053131
 21
127.2024550479
  0
LINE
  5
770
100
AcDbEntity
  8
BEZUGSACHSEN
100
AcDbLine
 62
7
  6
CONTINUOUS
 10
86.0471436613
 20
124.2675674768
 11
85.2247612106
 21
123.4304464049
  0
LINE
  5
771
100
AcDbEntity
  8
KONSTRUKTIONSELEMENTE
100
AcDbLine
 62
7
  6
CONTINUOUS
 10
83.2643460069
 20
127.4453811457
 11
83.2479789029
 21
127.531278035
  0
LINE
  5
772
100
AcDbEntity
  8
KONSTRUKTIONSELEMENTE
100
AcDbLine
 62
7
  6
CONTINUOUS
 10
83.2479789029
 20
127.531278035
 11
83.2388397403
 21
127.5792359769
  0
LINE
  5
773
100
AcDbEntity
  8
BEZUGSACHSEN
100
AcDbLine
 62
7
  6
CONTINUOUS
 10
83.2388397403
 20
127.6749650092
 11
83.2752439103
 21
127.4836771627
  0
LINE
  5
774
100
AcDbEntity
  8
KONSTRUKTIONSELEMENTE
100
AcDbLine
 62
7
  6
CONTINUOUS
 10
83.2388397403
 20
127.5792359769
 11
83.1020169614
 21
127.7364360856
  0
LINE
  5
775
100
AcDbEntity
  8
BEZUGSACHSEN
100
AcDbLine
 62
7
  6
CONTINUOUS
 10
83.1020169614
 20
127.8324918345
 11
83.2388397403
 21
127.6749650092
  0
ELLIPSE
  5
776
100
AcDbEntity
  8
0
100
AcDbEllipse
 62
7
  6
CONTINUOUS
 10
370.5867109408
 20
88.8027206955
 30
0.0
 11
-1.3413789153
 21
3.1967705769
 31
0.0
 40
0.5767533335
 41
-2.6458226605
 42
-1.7790696948
  0
ELLIPSE
  5
777
100
AcDbEntity
  8
RUNDUNGEN
100
AcDbEllipse
 62
7
  6
CONTINUOUS
 10
380.246911964
 20
92.3187463249
 30
0.0
 11
-1.0272886537
 21
3.311090083
 31
0.0
 40
0.5767533335
 41
-4.5041156123
 42
-3.6373626467
  0
ELLIPSE
  5
778
100
AcDbEntity
  8
0
100
AcDbEllipse
 62
7
  6
CONTINUOUS
 10
332.7157581146
 20
88.8027206955
 30
0.0
 11
1.3413789153
 21
3.1967705769
 31
0.0
 40
0.5767533335
 41
-4.5041156123
 42
-3.6373626467
  0
ELLIPSE
  5
779
100
AcDbEntity
  8
RUNDUNGEN
100
AcDbEllipse
 62
7
  6
CONTINUOUS
 10
323.0555570914
 20
92.3187463249
 30
0.0
 11
1.0272886537
 21
3.311090083
 31
0.0
 40
0.5767533335
 41
-2.6458226605
 42
-1.7790696948
  0
ELLIPSE
  5
77A
100
AcDbEntity
  8
KONSTRUKTIONSELEMENTE
100
AcDbEllipse
 62
7
  6
CONTINUOUS
 10
44.5493598267
 20
63.2330952723
 30
0.0
 11
1.2895952379
 21
-0.3203940135
 31
0.0
 40
0.576671595
 41
0.7252988105
 42
2.2960951373
  0
ELLIPSE
  5
77B
100
AcDbEntity
  8
0
100
AcDbEllipse
 62
7
  6
CONTINUOUS
 10
95.2526900954
 20
88.8027206955
 30
0.0
 11
1.9764553749
 21
3.2838931098
 31
0.0
 40
0.0931761869
 41
-4.6855379053
 42
-3.8187849396
  0
ELLIPSE
  5
77C
100
AcDbEntity
  8
0
100
AcDbEllipse
 62
7
  6
CONTINUOUS
 10
51.2526900954
 20
88.8027206955
 30
0.0
 11
-1.9764553749
 21
3.2838931098
 31
0.0
 40
0.0931761869
 41
-2.4644003675
 42
-1.5976474019
  0
ELLIPSE
  5
77D
100
AcDbEntity
  8
KONSTRUKTIONSELEMENTE
100
AcDbEllipse
 62
7
  6
CONTINUOUS
 10
73.2526900954
 20
93.5164878118
 30
0.0
 11
4.55
 21
0.0
 31
0.0
 40
0.742227199
 41
0.0
 42
0.1063570397
  0
ELLIPSE
  5
77E
100
AcDbEntity
  8
KONSTRUKTIONSELEMENTE
100
AcDbEllipse
 62
7
  6
CONTINUOUS
 10
73.2526900954
 20
93.5164878118
 30
0.0
 11
4.55
 21
0.0
 31
0.0
 40
0.742227199
 41
3.0352356139
 42
3.1415926536
  0
ELLIPSE
  5
77F
100
AcDbEntity
  8
KONSTRUKTIONSELEMENTE
100
AcDbEllipse
 62
7
  6
CONTINUOUS
 10
73.2526900954
 20
57.4314086824
 30
0.0
 11
-0.0
 21
35.9961061424
 31
0.0
 40
0.7778619134
 41
-0.3895798701
 42
-0.1632238035
  0
ELLIPSE
  5
780
100
AcDbEntity
  8
KONSTRUKTIONSELEMENTE
100
AcDbEllipse
 62
7
  6
CONTINUOUS
 10
73.2526900954
 20
57.4314086824
 30
0.0
 11
-0.0
 21
35.9961061424
 31
0.0
 40
0.7778619134
 41
0.1632238035
 42
0.3895798701
  0
ELLIPSE
  5
781
100
AcDbEntity
  8
RUNDUNGEN
100
AcDbEllipse
 62
7
  6
CONTINUOUS
 10
95.2526900954
 20
92.3187463249
 30
0.0
 11
1.9769666541
 21
3.3589630108
 31
0.0
 40
0.0901050783
 41
-2.7699073186
 42
-1.9031543529
  0
ELLIPSE
  5
782
100
AcDbEntity
  8
RUNDUNGEN
100
AcDbEllipse
 62
7
  6
CONTINUOUS
 10
51.2526900954
 20
92.3187463249
 30
0.0
 11
-1.9769666541
 21
3.3589630108
 31
0.0
 40
0.0901050783
 41
-4.3800309543
 42
-3.5132779886
  0
ENDSEC
  0
SECTION
  2
OBJECTS
  0
DICTIONARY
  5
C
100
AcDbDictionary
280
0
281
1
  3
ACAD_GROUP
350
D
  3
ACAD_MLINESTYLE
350
17
  3
ACAD_LAYOUT
350
1A
  3
ACAD_PLOTSETTINGS
350
19
  3
ACAD_PLOTSTYLENAME
350
E
  0
DICTIONARY
  5
D
102
{ACAD_REACTORS
330
C
102
}
100
AcDbDictionary
280
0
281
1
  0
ACDBDICTIONARYWDFLT
  5
E
102
{ACAD_REACTORS
330
C
102
}
100
AcDbDictionary
281
1
  3
Normal
350
F
100
AcDbDictionaryWithDefault
340
F
  0
DICTIONARY
  5
17
102
{ACAD_REACTORS
330
C
102
}
100
AcDbDictionary
280
0
281
1
  3
Standard
350
18
  0
DICTIONARY
  5
19
102
{ACAD_REACTORS
330
C
102
}
100
AcDbDictionary
281
1
  0
DICTIONARY
  5
1A
102
{ACAD_REACTORS
330
C
102
}
100
AcDbDictionary
281
1
  3
Model
350
783
  3
Layout1
350
784
  0
ACDBPLACEHOLDER
  5
F
102
{ACAD_REACTORS
330
E
102
}
  0
MLINESTYLE
  5
18
102
{ACAD_REACTORS
330
17
102
}
100
AcDbMlineStyle
  2
STANDARD
 70
0
  3

 62
256
 51
90.0
 52
90.0
 71
2
 49
0.5
 62
256
  6
BYLAYER
 49
-0.5
 62
256
  6
BYLAYER
  0
LAYOUT
  5
783
102
{ACAD_REACTORS
330
1A
102
}
100
AcDbPlotSettings
  1

  2
none_device
  4
ISO_A3_(420.00_x_297.00_MM)
  6

 40
0.0
 41
0.0
 42
0.0
 43
0.0
 44
420.0
 45
297.0
 46
0.0
 47
0.0
 48
0.0
 49
0.0
140
0.0
141
0.0
142
1.0
143
1.0
 70
1024
 72
1
 73
0
 74
0
  7

 75
0
147
1.0
148
0.0
149
0.0
100
AcDbLayout
  1
Model
 70
0
 71
0
 10
0.0
 20
0.0
 11
420.0
 21
297.0
 12
0.0
 22
0.0
 32
0.0
 14
0.0
 24
0.0
 34
0.0
 15
0.0
 25
0.0
 35
0.0
146
0.0
 13
0.0
 23
0.0
 33
0.0
 16
1.0
 26
0.0
 36
0.0
 17
0.0
 27
1.0
 37
0.0
 76
0
330
20C
345
0
346
0
  0
LAYOUT
  5
784
102
{ACAD_REACTORS
330
1A
102
}
100
AcDbPlotSettings
  1

  2
none_device
  4
ISO_A3_(420.00_x_297.00_MM)
  6

 40
0.0
 41
0.0
 42
0.0
 43
0.0
 44
420.0
 45
297.0
 46
0.0
 47
0.0
 48
0.0
 49
0.0
140
0.0
141
0.0
142
1.0
143
1.0
 70
0
 72
1
 73
0
 74
0
  7

 75
0
147
1.0
148
0.0
149
0.0
100
AcDbLayout
  1
Layout1
 70
0
 71
1
 10
0.0
 20
0.0
 11
420.0
 21
297.0
 12
0.0
 22
0.0
 32
0.0
 14
0.0
 24
0.0
 34
0.0
 15
0.0
 25
0.0
 35
0.0
146
0.0
 13
0.0
 23
0.0
 33
0.0
 16
1.0
 26
0.0
 36
0.0
 17
0.0
 27
1.0
 37
0.0
 76
0
330
20D
345
0
346
0
  0
ENDSEC
  0
EOF
