999
DXF file: VAK-2-6_7100706_M34479-P-1.dxf
999
Pro/ENGINEER 2010140 by Parametric Technology Corporation
  0
SECTION
  2
HEADER
  9
$ACADVER
  1
AC1015
  9
$DWGCODEPAGE
  3
ANSI_1252
  9
$EXTMAX
 10
420.0
 20
297.0
 30
0.0
  9
$EXTMIN
 10
0.0
 20
0.0
 30
0.0
  9
$LIMMIN
 10
0.0
 20
0.0
  9
$LIMMAX
 10
420.0
 20
297.0
  9
$VIEWCTR
 10
210.0
 20
148.5
  9
$VIEWSIZE
 40
297.0
  9
$CLAYER
  8
0
  9
$LTSCALE
 40
23.1
  9
$CELTYPE
  6
BYLAYER
  9
$DIMSCALE
 40
1.0
  9
$DIMASZ
 40
3.5
  9
$DIMEXO
 40
2.625
  9
$DIMDLI
 40
15.96
  9
$DIMEXE
 40
7.56
  9
$DIMCEN
 40
3.78
  9
$DIMLFAC
 40
1.0
  9
$DIMBLK
  1
_FILLED
  9
$DIMTXT
 40
3.5
  9
$DIMTOL
 70
1
  9
$DIMLIM
 70
0
  9
$DIMTFAC
 40
1.0
  9
$DIMTP
 40
0.005
  9
$DIMTM
 40
0.005
  9
$PDMODE
 70
3
  9
$PDSIZE
 40
0.3125
  9
$HANDSEED
  5
76C
  9
$TILEMODE
 70
1
  9
$MEASUREMENT
 70
1
  9
$INSUNITS
 70
4
  0
ENDSEC
  0
SECTION
  2
CLASSES
  0
CLASS
  1
ACDBDICTIONARYWDFLT
  2
AcDbDictionaryWithDefault
  3
AutoCAD 2000
 90
0
280
0
281
0
  0
CLASS
  1
ACDBPLACEHOLDER
  2
AcDbPlaceHolder
  3
AutoCAD 2000
 90
0
280
0
281
0
  0
CLASS
  1
LAYOUT
  2
AcDbLayout
  3
AutoCAD 2000
 90
0
280
0
281
0
  0
ENDSEC
  0
SECTION
  2
TABLES
  0
TABLE
  2
VPORT
  5
8
100
AcDbSymbolTable
 70
2
  0
VPORT
  5
1F4
100
AcDbSymbolTableRecord
100
AcDbViewportTableRecord
  2
*ACTIVE
 70
0
 10
0.0
 20
0.0
 11
1.0
 21
1.0
 12
210.0
 22
148.5
 13
0.0
 23
0.0
 14
1.0
 24
1.0
 15
0.0
 25
0.0
 16
0.0
 26
0.0
 36
1.0
 17
0.0
 27
0.0
 37
0.0
 40
297.0
 41
1.4141414141
 42
50.0
 43
0.0
 44
0.0
 50
0.0
 51
0.0
 71
0
 72
100
 73
1
 74
1
 75
0
 76
0
 77
0
 78
0
  0
ENDTAB
  0
TABLE
  2
LTYPE
  5
5
100
AcDbSymbolTable
 70
6
  0
LTYPE
  5
14
100
AcDbSymbolTableRecord
100
AcDbLinetypeTableRecord
  2
BYBLOCK
 70
0
  3

 72
65
 73
0
 40
0.0
  0
LTYPE
  5
15
100
AcDbSymbolTableRecord
100
AcDbLinetypeTableRecord
  2
BYLAYER
 70
0
  3

 72
65
 73
0
 40
0.0
  0
LTYPE
  5
16
100
AcDbSymbolTableRecord
100
AcDbLinetypeTableRecord
  2
CONTINUOUS
 70
64
  3
Solid line
 72
65
 73
0
 40
0.0
  0
LTYPE
  5
1F5
100
AcDbSymbolTableRecord
100
AcDbLinetypeTableRecord
  2
CENTER
 70
64
  3
____ _ ____ _ ____ _ ____ _ ____ _ ____ _ ____
 72
65
 73
4
 40
0.6
 49
0.375
 74
0
 49
-0.075
 74
0
 49
0.075
 74
0
 49
-0.075
 74
0
  0
LTYPE
  5
1F6
100
AcDbSymbolTableRecord
100
AcDbLinetypeTableRecord
  2
HIDDEN
 70
64
  3
- - - - - - - - - - - - - - - - - - - -
 72
65
 73
2
 40
0.2
 49
0.1
 74
0
 49
-0.1
 74
0
  0
LTYPE
  5
1F7
100
AcDbSymbolTableRecord
100
AcDbLinetypeTableRecord
  2
PHANTOM
 70
64
  3
_____ _ _ _____ _ _ _____ _ _ _____
 72
65
 73
6
 40
0.8
 49
0.45
 74
0
 49
-0.05
 74
0
 49
0.1
 74
0
 49
-0.05
 74
0
 49
0.1
 74
0
 49
-0.05
 74
0
  0
LTYPE
  5
1F8
100
AcDbSymbolTableRecord
100
AcDbLinetypeTableRecord
  2
DOT
 70
64
  3
. . . . . . . . . . . . . . . . . . . .
 72
65
 73
2
 40
0.2
 49
0.1
 74
0
 49
-0.1
 74
0
  0
LTYPE
  5
1F9
100
AcDbSymbolTableRecord
100
AcDbLinetypeTableRecord
  2
DASHED
 70
64
  3
- - - - - - - - - - - - - - - - - - - -
 72
65
 73
2
 40
0.2
 49
0.1
 74
0
 49
-0.1
 74
0
  0
ENDTAB
  0
TABLE
  2
LAYER
  5
2
100
AcDbSymbolTable
 70
36
  0
LAYER
  5
10
100
AcDbSymbolTableRecord
100
AcDbLayerTableRecord
  2
0
 70
0
 62
7
  6
CONTINUOUS
370
-3
390
F
  0
LAYER
  5
1FA
100
AcDbSymbolTableRecord
100
AcDbLayerTableRecord
  2
DEFAULT_1
 70
0
 62
7
  6
CENTER
370
-3
390
F
  0
LAYER
  5
1FB
100
AcDbSymbolTableRecord
100
AcDbLayerTableRecord
  2
DEFAULT_2
 70
0
 62
8
  6
HIDDEN
370
-3
390
F
  0
LAYER
  5
1FC
100
AcDbSymbolTableRecord
100
AcDbLayerTableRecord
  2
DEFAULT_3
 70
0
 62
7
  6
PHANTOM
370
-3
390
F
  0
LAYER
  5
1FD
100
AcDbSymbolTableRecord
100
AcDbLayerTableRecord
  2
AUSFORMSCHRAEGEN
 70
0
 62
7
  6
CONTINUOUS
370
-3
390
F
  0
LAYER
  5
1FE
100
AcDbSymbolTableRecord
100
AcDbLayerTableRecord
  2
BEZUGSACHSEN
 70
0
 62
7
  6
CONTINUOUS
370
-3
390
F
  0
LAYER
  5
1FF
100
AcDbSymbolTableRecord
100
AcDbLayerTableRecord
  2
BEZUGSEBENEN
 70
0
 62
7
  6
CONTINUOUS
370
-3
390
F
  0
LAYER
  5
200
100
AcDbSymbolTableRecord
100
AcDbLayerTableRecord
  2
BG_STARTBEZUEGE
 70
0
 62
7
  6
CONTINUOUS
370
-3
390
F
  0
LAYER
  5
201
100
AcDbSymbolTableRecord
100
AcDbLayerTableRecord
  2
FASEN
 70
0
 62
7
  6
CONTINUOUS
370
-3
390
F
  0
LAYER
  5
202
100
AcDbSymbolTableRecord
100
AcDbLayerTableRecord
  2
FLAECHEN
 70
0
 62
7
  6
CONTINUOUS
370
-3
390
F
  0
LAYER
  5
203
100
AcDbSymbolTableRecord
100
AcDbLayerTableRecord
  2
HILFEN
 70
0
 62
7
  6
CONTINUOUS
370
-3
390
F
  0
LAYER
  5
204
100
AcDbSymbolTableRecord
100
AcDbLayerTableRecord
  2
KONSTRUKTIONSELEMENTE
 70
0
 62
7
  6
CONTINUOUS
370
-3
390
F
  0
LAYER
  5
205
100
AcDbSymbolTableRecord
100
AcDbLayerTableRecord
  2
PLATZIERUNG
 70
0
 62
7
  6
CONTINUOUS
370
-3
390
F
  0
LAYER
  5
206
100
AcDbSymbolTableRecord
100
AcDbLayerTableRecord
  2
PLAZIERUNG
 70
0
 62
7
  6
CONTINUOUS
370
-3
390
F
  0
LAYER
  5
207
100
AcDbSymbolTableRecord
100
AcDbLayerTableRecord
  2
RUNDUNGEN
 70
0
 62
7
  6
CONTINUOUS
370
-3
390
F
  0
LAYER
  5
208
100
AcDbSymbolTableRecord
100
AcDbLayerTableRecord
  2
TEIL_STARTBEZUEGE
 70
0
 62
7
  6
CONTINUOUS
370
-3
390
F
  0
LAYER
  5
209
100
AcDbSymbolTableRecord
100
AcDbLayerTableRecord
  2
T_STARTBEZUEGE
 70
0
 62
7
  6
CONTINUOUS
370
-3
390
F
  0
LAYER
  5
20A
100
AcDbSymbolTableRecord
100
AcDbLayerTableRecord
  2
ZEICHNUNGSBEMASSUNGEN
 70
0
 62
7
  6
CONTINUOUS
370
-3
390
F
  0
ENDTAB
  0
TABLE
  2
STYLE
  5
3
100
AcDbSymbolTable
 70
1
  0
STYLE
  5
11
100
AcDbSymbolTableRecord
100
AcDbTextStyleTableRecord
  2
STANDARD
 70
0
 40
0.0
 41
0.7
 50
0.0
 71
0
 42
0.2
  3
txt
  4

  0
STYLE
  5
20B
100
AcDbSymbolTableRecord
100
AcDbTextStyleTableRecord
  2
TEXTSTYLE_1
 70
0
 40
0.0
 41
0.8
 50
0.0
 71
0
 42
0.2
  3
gdt
  4

  0
ENDTAB
  0
TABLE
  2
VIEW
  5
6
100
AcDbSymbolTable
 70
0
  0
ENDTAB
  0
TABLE
  2
UCS
  5
7
100
AcDbSymbolTable
 70
0
  0
ENDTAB
  0
TABLE
  2
APPID
  5
9
100
AcDbSymbolTable
 70
1
  0
APPID
  5
20C
100
AcDbSymbolTableRecord
100
AcDbRegAppTableRecord
  2
ACAD
 70
0
  0
ENDTAB
  0
TABLE
  2
BLOCK_RECORD
  5
1
100
AcDbSymbolTable
 70
0
  0
BLOCK_RECORD
  5
20D
100
AcDbSymbolTableRecord
100
AcDbBlockTableRecord
  2
*Model_Space
  0
BLOCK_RECORD
  5
20E
100
AcDbSymbolTableRecord
100
AcDbBlockTableRecord
  2
*Paper_Space
  0
ENDTAB
  0
TABLE
  2
DIMSTYLE
  5
A
100
AcDbSymbolTable
 70
1
100
AcDbDimStyleTable
 71
0
  0
DIMSTYLE
105
20F
100
AcDbSymbolTableRecord
100
AcDbDimStyleTableRecord
  2
STANDARD
 70
0
  3

  4

 40
1.0
 41
3.5
 42
0.0625
 43
0.38
 44
0.18
 45
0.0
 46
0.0
 47
0.005
 48
0.005
140
3.5
141
0.09
142
0.0
143
25.4
144
1.0
145
0.0
146
1.0
147
0.09
 71
1.0
 72
0.0
 73
0
 74
0
 75
0
 76
0
 77
1
 78
8
170
0
171
2
172
0
173
0
174
0
175
0
176
0
177
0
178
5
270
2
271
3
272
3
273
2
274
2
275
0
280
0
281
0
282
0
283
1
284
8
285
0
286
0
287
3
288
0
340
11
  0
ENDTAB
  0
ENDSEC
  0
SECTION
  2
BLOCKS
  0
BLOCK
  5
20
100
AcDbEntity
  8
0
100
AcDbBlockBegin
  2
*Model_Space
 70
0
 10
0.0
 20
0.0
 30
0.0
  3
*Model_Space
  1

  0
ENDBLK
  5
21
100
AcDbEntity
  8
0
100
AcDbBlockEnd
  0
BLOCK
  5
1C
100
AcDbEntity
  8
0
100
AcDbBlockBegin
  2
*Paper_Space
 70
0
 10
0.0
 20
0.0
 30
0.0
  3
*Paper_Space
  1

  0
ENDBLK
  5
1D
100
AcDbEntity
  8
0
100
AcDbBlockEnd
  0
ENDSEC
  0
SECTION
  2
ENTITIES
  0
MTEXT
  5
210
100
AcDbEntity
  8
0
100
AcDbMText
 62
5
  6
CONTINUOUS
  7
STANDARD
 71
1
 72
1
 10
385.2934952555
 20
159.7354641423
 30
0.0
 11
0.0
 21
1.0
 31
0.0
 44
0.9
  1
RUD VAK-2-6
 40
5.0
 41
44.6428571429
  0
MTEXT
  5
211
100
AcDbEntity
  8
0
100
AcDbMText
 62
5
  6
CONTINUOUS
  7
STANDARD
 71
1
 72
1
 10
82.5480070425
 20
161.9946548746
 30
0.0
 11
0.0
 21
1.0
 31
0.0
 44
0.9
  1
RUD VAK-2-6
 40
5.0
 41
44.6428571429
  0
LINE
  5
212
100
AcDbEntity
  8
0
100
AcDbLine
 62
7
  6
CONTINUOUS
 10
0.0
 20
0.0
 11
0.0
 21
297.0
  0
LINE
  5
213
100
AcDbEntity
  8
0
100
AcDbLine
 62
7
  6
CONTINUOUS
 10
0.0
 20
0.0
 11
420.0
 21
0.0
  0
LINE
  5
214
100
AcDbEntity
  8
0
100
AcDbLine
 62
7
  6
CONTINUOUS
 10
0.0
 20
297.0
 11
420.0
 21
297.0
  0
LINE
  5
215
100
AcDbEntity
  8
0
100
AcDbLine
 62
7
  6
CONTINUOUS
 10
420.0
 20
0.0
 11
420.0
 21
297.0
  0
LINE
  5
216
100
AcDbEntity
  8
KONSTRUKTIONSELEMENTE
100
AcDbLine
 62
7
  6
CONTINUOUS
 10
164.1927619041
 20
52.5071507192
 11
165.6927619041
 21
49.9090745078
  0
LINE
  5
217
100
AcDbEntity
  8
KONSTRUKTIONSELEMENTE
100
AcDbLine
 62
7
  6
CONTINUOUS
 10
176.0850667495
 20
55.9090745078
 11
174.5850667495
 21
58.5071507192
  0
LINE
  5
218
100
AcDbEntity
  8
BEZUGSACHSEN
100
AcDbLine
 62
7
  6
CONTINUOUS
 10
216.1542861311
 20
82.5071507192
 11
217.6542861311
 21
79.9090745078
  0
LINE
  5
219
100
AcDbEntity
  8
KONSTRUKTIONSELEMENTE
100
AcDbLine
 62
7
  6
CONTINUOUS
 10
214.7278432897
 20
89.4778221947
 11
217.2278432897
 21
85.1476951758
  0
LINE
  5
21A
100
AcDbEntity
  8
KONSTRUKTIONSELEMENTE
100
AcDbLine
 62
7
  6
CONTINUOUS
 10
215.1608559916
 20
89.7278221947
 11
217.6608559916
 21
85.3976951758
  0
LINE
  5
21B
100
AcDbEntity
  8
RUNDUNGEN
100
AcDbLine
 62
7
  6
CONTINUOUS
 10
327.9331264799
 20
116.3717185334
 11
332.3446907017
 21
117.5537936039
  0
LINE
  5
21C
100
AcDbEntity
  8
0
100
AcDbLine
 62
7
  6
CONTINUOUS
 10
331.0501155307
 20
107.3801235796
 11
334.1376347597
 21
106.2563584825
  0
LINE
  5
21D
100
AcDbEntity
  8
0
100
AcDbLine
 62
7
  6
CONTINUOUS
 10
335.0760969483
 20
118.1263091435
 11
337.9610689984
 21
117.0762651906
  0
LINE
  5
21E
100
AcDbEntity
  8
RUNDUNGEN
100
AcDbLine
 62
7
  6
CONTINUOUS
 10
370.7977821376
 20
117.5537936039
 11
375.2093463594
 21
116.3717185334
  0
LINE
  5
21F
100
AcDbEntity
  8
KONSTRUKTIONSELEMENTE
100
AcDbLine
 62
7
  6
CONTINUOUS
 10
337.2053691681
 20
128.8326596284
 11
336.4274586706
 21
129.1157958945
  0
LINE
  5
220
100
AcDbEntity
  8
KONSTRUKTIONSELEMENTE
100
AcDbLine
 62
7
  6
CONTINUOUS
 10
337.3010405913
 20
128.8426201449
 11
336.5231300938
 21
129.1257564109
  0
LINE
  5
221
100
AcDbEntity
  8
KONSTRUKTIONSELEMENTE
100
AcDbLine
 62
7
  6
CONTINUOUS
 10
337.426577266
 20
128.9398031336
 11
336.6486667685
 21
129.2229393996
  0
LINE
  5
222
100
AcDbEntity
  8
KONSTRUKTIONSELEMENTE
100
AcDbLine
 62
7
  6
CONTINUOUS
 10
336.5834374285
 20
129.353299569
 11
336.5671125106
 21
129.3592413531
  0
LINE
  5
223
100
AcDbEntity
  8
KONSTRUKTIONSELEMENTE
100
AcDbLine
 62
7
  6
CONTINUOUS
 10
336.6810979868
 20
129.4077418578
 11
336.513962877
 21
129.4685740629
  0
LINE
  5
224
100
AcDbEntity
  8
KONSTRUKTIONSELEMENTE
100
AcDbLine
 62
7
  6
CONTINUOUS
 10
337.582091749
 20
129.1241675673
 11
336.8041812515
 21
129.4073038333
  0
LINE
  5
225
100
AcDbEntity
  8
KONSTRUKTIONSELEMENTE
100
AcDbLine
 62
7
  6
CONTINUOUS
 10
336.7649154283
 20
129.4957975414
 11
336.5352907336
 21
129.5793740954
  0
LINE
  5
226
100
AcDbEntity
  8
KONSTRUKTIONSELEMENTE
100
AcDbLine
 62
7
  6
CONTINUOUS
 10
337.7027663886
 20
129.3131079772
 11
336.9248558911
 21
129.5962442432
  0
LINE
  5
227
100
AcDbEntity
  8
KONSTRUKTIONSELEMENTE
100
AcDbLine
 62
7
  6
CONTINUOUS
 10
337.9086290312
 20
129.3767916565
 11
337.1307185337
 21
129.6599279225
  0
LINE
  5
228
100
AcDbEntity
  8
KONSTRUKTIONSELEMENTE
100
AcDbLine
 62
7
  6
CONTINUOUS
 10
336.941649061
 20
129.7747921942
 11
336.6454569942
 21
129.8825972901
  0
LINE
  5
229
100
AcDbEntity
  8
KONSTRUKTIONSELEMENTE
100
AcDbLine
 62
7
  6
CONTINUOUS
 10
337.999089717
 20
129.4786365313
 11
337.2211792196
 21
129.7617727973
  0
LINE
  5
22A
100
AcDbEntity
  8
KONSTRUKTIONSELEMENTE
100
AcDbLine
 62
7
  6
CONTINUOUS
 10
337.1896152632
 20
129.8308323691
 11
337.076707446
 21
129.8719274538
  0
LINE
  5
22B
100
AcDbEntity
  8
KONSTRUKTIONSELEMENTE
100
AcDbLine
 62
7
  6
CONTINUOUS
 10
337.0212596935
 20
129.9215288557
 11
336.7185592366
 21
130.0317028119
  0
LINE
  5
22C
100
AcDbEntity
  8
KONSTRUKTIONSELEMENTE
100
AcDbLine
 62
7
  6
CONTINUOUS
 10
338.1451708819
 20
129.6869046346
 11
337.3672603844
 21
129.9700409006
  0
LINE
  5
22D
100
AcDbEntity
  8
KONSTRUKTIONSELEMENTE
100
AcDbLine
 62
7
  6
CONTINUOUS
 10
337.0869164222
 20
130.1019192352
 11
336.8172332868
 21
130.2000758692
  0
LINE
  5
22E
100
AcDbEntity
  8
KONSTRUKTIONSELEMENTE
100
AcDbLine
 62
7
  6
CONTINUOUS
 10
337.3301968598
 20
130.0534699294
 11
337.1794376561
 21
130.1083417921
  0
LINE
  5
22F
100
AcDbEntity
  8
0
100
AcDbLine
 62
7
  6
CONTINUOUS
 10
339.2063806133
 20
129.4165846175
 11
342.054337333
 21
128.380013143
  0
LINE
  5
230
100
AcDbEntity
  8
KONSTRUKTIONSELEMENTE
100
AcDbLine
 62
7
  6
CONTINUOUS
 10
337.1458350713
 20
130.2642918726
 11
336.9251304954
 21
130.3446217688
  0
LINE
  5
231
100
AcDbEntity
  8
KONSTRUKTIONSELEMENTE
100
AcDbLine
 62
7
  6
CONTINUOUS
 10
337.4411588307
 20
130.2583132396
 11
337.2581419743
 21
130.3249259277
  0
LINE
  5
232
100
AcDbEntity
  8
KONSTRUKTIONSELEMENTE
100
AcDbLine
 62
7
  6
CONTINUOUS
 10
338.2974071958
 20
129.9624500494
 11
337.5194966983
 21
130.2455863154
  0
LINE
  5
233
100
AcDbEntity
  8
KONSTRUKTIONSELEMENTE
100
AcDbLine
 62
7
  6
CONTINUOUS
 10
337.1738070029
 20
130.388880794
 11
337.0168311625
 21
130.4460153274
  0
LINE
  5
234
100
AcDbEntity
  8
KONSTRUKTIONSELEMENTE
100
AcDbLine
 62
7
  6
CONTINUOUS
 10
337.1704831701
 20
130.4758153071
 11
337.0922130852
 21
130.5043032883
  0
LINE
  5
235
100
AcDbEntity
  8
KONSTRUKTIONSELEMENTE
100
AcDbLine
 62
7
  6
CONTINUOUS
 10
337.5193885824
 20
130.4464929457
 11
337.3128182954
 21
130.5216783814
  0
LINE
  5
236
100
AcDbEntity
  8
KONSTRUKTIONSELEMENTE
100
AcDbLine
 62
7
  6
CONTINUOUS
 10
338.4004305359
 20
130.1987554521
 11
337.6225200384
 21
130.4818917181
  0
LINE
  5
237
100
AcDbEntity
  8
KONSTRUKTIONSELEMENTE
100
AcDbLine
 62
7
  6
CONTINUOUS
 10
337.5772316415
 20
130.6054154442
 11
337.3095683519
 21
130.7028369144
  0
LINE
  5
238
100
AcDbEntity
  8
KONSTRUKTIONSELEMENTE
100
AcDbLine
 62
7
  6
CONTINUOUS
 10
337.5875272628
 20
130.6588179691
 11
337.3598208586
 21
130.7416963224
  0
LINE
  5
239
100
AcDbEntity
  8
KONSTRUKTIONSELEMENTE
100
AcDbLine
 62
7
  6
CONTINUOUS
 10
338.4634831891
 20
130.3719911929
 11
337.6855726916
 21
130.6551274589
  0
LINE
  5
23A
100
AcDbEntity
  8
KONSTRUKTIONSELEMENTE
100
AcDbLine
 62
7
  6
CONTINUOUS
 10
337.5969259565
 20
130.7778014635
 11
337.4942711706
 21
130.8151647499
  0
LINE
  5
23B
100
AcDbEntity
  8
KONSTRUKTIONSELEMENTE
100
AcDbLine
 62
7
  6
CONTINUOUS
 10
338.5180893172
 20
130.5687691949
 11
337.7401788198
 21
130.8519054609
  0
LINE
  5
23C
100
AcDbEntity
  8
KONSTRUKTIONSELEMENTE
100
AcDbLine
 62
7
  6
CONTINUOUS
 10
338.5234839147
 20
130.7263111497
 11
337.7455734172
 21
131.0094474157
  0
LINE
  5
23D
100
AcDbEntity
  8
KONSTRUKTIONSELEMENTE
100
AcDbLine
 62
7
  6
CONTINUOUS
 10
338.471981008
 20
130.7778946751
 11
337.6940705105
 21
131.0610309412
  0
LINE
  5
23E
100
AcDbEntity
  8
KONSTRUKTIONSELEMENTE
100
AcDbLine
 62
7
  6
CONTINUOUS
 10
284.8759009962
 20
129.9778221947
 11
287.3759009962
 21
125.6476951758
  0
LINE
  5
23F
100
AcDbEntity
  8
KONSTRUKTIONSELEMENTE
100
AcDbLine
 62
7
  6
CONTINUOUS
 10
285.3089136981
 20
130.2278221947
 11
287.8089136981
 21
125.8976951758
  0
LINE
  5
240
100
AcDbEntity
  8
KONSTRUKTIONSELEMENTE
100
AcDbLine
 62
7
  6
CONTINUOUS
 10
337.9834524503
 20
132.590249478
 11
337.9615351382
 21
132.5982267273
  0
LINE
  5
241
100
AcDbEntity
  8
KONSTRUKTIONSELEMENTE
100
AcDbLine
 62
7
  6
CONTINUOUS
 10
338.4891849826
 20
132.6112972353
 11
337.7112744851
 21
132.8944335013
  0
LINE
  5
242
100
AcDbEntity
  8
KONSTRUKTIONSELEMENTE
100
AcDbLine
 62
7
  6
CONTINUOUS
 10
338.5716339024
 20
132.629381129
 11
337.7937234049
 21
132.912517395
  0
LINE
  5
243
100
AcDbEntity
  8
KONSTRUKTIONSELEMENTE
100
AcDbLine
 62
7
  6
CONTINUOUS
 10
338.6875826543
 20
132.7469618292
 11
337.9096721568
 21
133.0300980952
  0
LINE
  5
244
100
AcDbEntity
  8
KONSTRUKTIONSELEMENTE
100
AcDbLine
 62
7
  6
CONTINUOUS
 10
337.934480694
 20
133.1963551247
 11
337.9287031832
 21
133.1984579666
  0
LINE
  5
245
100
AcDbEntity
  8
KONSTRUKTIONSELEMENTE
100
AcDbLine
 62
7
  6
CONTINUOUS
 10
338.0091860009
 20
133.2688307143
 11
337.90978389
 21
133.3050101239
  0
LINE
  5
246
100
AcDbEntity
  8
KONSTRUKTIONSELEMENTE
100
AcDbLine
 62
7
  6
CONTINUOUS
 10
338.2260610874
 20
133.5249638315
 11
338.0170257847
 21
133.6010464595
  0
LINE
  5
247
100
AcDbEntity
  8
KONSTRUKTIONSELEMENTE
100
AcDbLine
 62
7
  6
CONTINUOUS
 10
339.1638029875
 20
133.3124265059
 11
338.38589249
 21
133.5955627719
  0
LINE
  5
248
100
AcDbEntity
  8
KONSTRUKTIONSELEMENTE
100
AcDbLine
 62
7
  6
CONTINUOUS
 10
338.308081764
 20
133.6932844997
 11
338.0977634951
 21
133.7698340893
  0
LINE
  5
249
100
AcDbEntity
  8
KONSTRUKTIONSELEMENTE
100
AcDbLine
 62
7
  6
CONTINUOUS
 10
338.3772727754
 20
133.8782967479
 11
338.1985463815
 21
133.9433478353
  0
LINE
  5
24A
100
AcDbEntity
  8
KONSTRUKTIONSELEMENTE
100
AcDbLine
 62
7
  6
CONTINUOUS
 10
338.1594051601
 20
133.9826321124
 11
338.0704847423
 21
134.0149964977
  0
LINE
  5
24B
100
AcDbEntity
  8
KONSTRUKTIONSELEMENTE
100
AcDbLine
 62
7
  6
CONTINUOUS
 10
338.2307296835
 20
134.0919846554
 11
338.112977772
 21
134.1348428462
  0
LINE
  5
24C
100
AcDbEntity
  8
KONSTRUKTIONSELEMENTE
100
AcDbLine
 62
7
  6
CONTINUOUS
 10
339.4495732499
 20
133.6516914169
 11
338.6716627524
 21
133.9348276829
  0
LINE
  5
24D
100
AcDbEntity
  8
KONSTRUKTIONSELEMENTE
100
AcDbLine
 62
7
  6
CONTINUOUS
 10
338.5206882273
 20
134.0483154036
 11
338.3189150673
 21
134.1217548279
  0
LINE
  5
24E
100
AcDbEntity
  8
KONSTRUKTIONSELEMENTE
100
AcDbLine
 62
7
  6
CONTINUOUS
 10
338.7086782795
 20
134.0365270078
 11
338.5572391547
 21
134.0916463415
  0
LINE
  5
24F
100
AcDbEntity
  8
KONSTRUKTIONSELEMENTE
100
AcDbLine
 62
7
  6
CONTINUOUS
 10
339.6195032597
 20
133.8733363097
 11
338.8415927622
 21
134.1564725757
  0
LINE
  5
250
100
AcDbEntity
  8
KONSTRUKTIONSELEMENTE
100
AcDbLine
 62
7
  6
CONTINUOUS
 10
338.7791885194
 20
134.1884719406
 11
338.4585820469
 21
134.3051631535
  0
LINE
  5
251
100
AcDbEntity
  8
KONSTRUKTIONSELEMENTE
100
AcDbLine
 62
7
  6
CONTINUOUS
 10
338.3809647849
 20
134.6184814798
 11
338.2909438746
 21
134.6512464116
  0
LINE
  5
252
100
AcDbEntity
  8
KONSTRUKTIONSELEMENTE
100
AcDbLine
 62
7
  6
CONTINUOUS
 10
339.7916412281
 20
134.1566141887
 11
339.0137307306
 21
134.4397504547
  0
LINE
  5
253
100
AcDbEntity
  8
KONSTRUKTIONSELEMENTE
100
AcDbLine
 62
7
  6
CONTINUOUS
 10
338.4947190074
 20
134.7829776995
 11
338.3747315507
 21
134.8266495622
  0
LINE
  5
254
100
AcDbEntity
  8
KONSTRUKTIONSELEMENTE
100
AcDbLine
 62
7
  6
CONTINUOUS
 10
339.9009706317
 20
134.3642482688
 11
339.1230601342
 21
134.6473845348
  0
LINE
  5
255
100
AcDbEntity
  8
KONSTRUKTIONSELEMENTE
100
AcDbLine
 62
7
  6
CONTINUOUS
 10
338.5774106649
 20
134.902478706
 11
338.4091135415
 21
134.9637338494
  0
LINE
  5
256
100
AcDbEntity
  8
KONSTRUKTIONSELEMENTE
100
AcDbLine
 62
7
  6
CONTINUOUS
 10
339.0909602427
 20
134.8137910164
 11
338.9351362494
 21
134.8705063117
  0
LINE
  5
257
100
AcDbEntity
  8
KONSTRUKTIONSELEMENTE
100
AcDbLine
 62
7
  6
CONTINUOUS
 10
339.9909233884
 20
134.5669095341
 11
339.2130128909
 21
134.8500458001
  0
LINE
  5
258
100
AcDbEntity
  8
KONSTRUKTIONSELEMENTE
100
AcDbLine
 62
7
  6
CONTINUOUS
 10
339.1362717391
 20
134.9570798363
 11
339.0496927232
 21
134.988592021
  0
LINE
  5
259
100
AcDbEntity
  8
KONSTRUKTIONSELEMENTE
100
AcDbLine
 62
7
  6
CONTINUOUS
 10
340.0982402973
 20
134.8629185668
 11
339.3203297998
 21
135.1460548328
  0
LINE
  5
25A
100
AcDbEntity
  8
KONSTRUKTIONSELEMENTE
100
AcDbLine
 62
7
  6
CONTINUOUS
 10
339.2457827872
 20
135.296605646
 11
339.0130841816
 21
135.381301012
  0
LINE
  5
25B
100
AcDbEntity
  8
KONSTRUKTIONSELEMENTE
100
AcDbLine
 62
7
  6
CONTINUOUS
 10
340.1275254536
 20
134.9891567858
 11
339.3496149561
 21
135.2722930518
  0
LINE
  5
25C
100
AcDbEntity
  8
KONSTRUKTIONSELEMENTE
100
AcDbLine
 62
7
  6
CONTINUOUS
 10
340.1135790732
 20
135.0446459753
 11
339.3356685757
 21
135.3277822413
  0
LINE
  5
25D
100
AcDbEntity
  8
KONSTRUKTIONSELEMENTE
100
AcDbLine
 62
7
  6
CONTINUOUS
 10
339.9020222828
 20
135.1983749476
 11
339.1241117853
 21
135.4815112136
  0
LINE
  5
25E
100
AcDbEntity
  8
KONSTRUKTIONSELEMENTE
100
AcDbLine
 62
7
  6
CONTINUOUS
 10
339.9962421475
 20
135.3061367499
 11
339.21833165
 21
135.5892730159
  0
LINE
  5
25F
100
AcDbEntity
  8
KONSTRUKTIONSELEMENTE
100
AcDbLine
 62
7
  6
CONTINUOUS
 10
339.188361233
 20
135.6658917402
 11
339.1533313466
 21
135.6786415761
  0
LINE
  5
260
100
AcDbEntity
  8
KONSTRUKTIONSELEMENTE
100
AcDbLine
 62
7
  6
CONTINUOUS
 10
340.1333757644
 20
135.4846585962
 11
339.3554652669
 21
135.7677948622
  0
LINE
  5
261
100
AcDbEntity
  8
KONSTRUKTIONSELEMENTE
100
AcDbLine
 62
7
  6
CONTINUOUS
 10
340.2448889381
 20
135.6446674531
 11
339.4669784406
 21
135.9278037191
  0
LINE
  5
262
100
AcDbEntity
  8
KONSTRUKTIONSELEMENTE
100
AcDbLine
 62
7
  6
CONTINUOUS
 10
339.5253647603
 20
136.0993829182
 11
339.3350686669
 21
136.1686450319
  0
LINE
  5
263
100
AcDbEntity
  8
KONSTRUKTIONSELEMENTE
100
AcDbLine
 62
7
  6
CONTINUOUS
 10
340.4083116575
 20
135.901433985
 11
339.63040116
 21
136.184570251
  0
LINE
  5
264
100
AcDbEntity
  8
KONSTRUKTIONSELEMENTE
100
AcDbLine
 62
7
  6
CONTINUOUS
 10
340.5468405483
 20
136.1394232215
 11
339.7689300508
 21
136.4225594875
  0
LINE
  5
265
100
AcDbEntity
  8
KONSTRUKTIONSELEMENTE
100
AcDbLine
 62
7
  6
CONTINUOUS
 10
340.6266331544
 20
136.3138455889
 11
339.8487226569
 21
136.5969818549
  0
LINE
  5
266
100
AcDbEntity
  8
KONSTRUKTIONSELEMENTE
100
AcDbLine
 62
7
  6
CONTINUOUS
 10
340.8593565718
 20
136.9316475637
 11
340.0814460743
 21
137.2147838297
  0
LINE
  5
267
100
AcDbEntity
  8
0
100
AcDbLine
 62
7
  6
CONTINUOUS
 10
342.5328772742
 20
138.5560590791
 11
345.3808339939
 21
137.5194876047
  0
LINE
  5
268
100
AcDbEntity
  8
0
100
AcDbLine
 62
7
  6
CONTINUOUS
 10
367.532315142
 20
94.2104503993
 11
365.5415423445
 21
95.7226751408
  0
LINE
  5
269
100
AcDbEntity
  8
KONSTRUKTIONSELEMENTE
100
AcDbLine
 62
7
  6
CONTINUOUS
 10
211.2637416745
 20
87.4778221947
 11
214.7278432897
 21
89.4778221947
  0
LINE
  5
26A
100
AcDbEntity
  8
KONSTRUKTIONSELEMENTE
100
AcDbLine
 62
7
  6
CONTINUOUS
 10
215.1608559916
 20
89.7278221947
 11
218.6249576067
 21
91.7278221947
  0
LINE
  5
26B
100
AcDbEntity
  8
KONSTRUKTIONSELEMENTE
100
AcDbLine
 62
7
  6
CONTINUOUS
 10
281.4117993811
 20
127.9778221947
 11
284.8759009962
 21
129.9778221947
  0
LINE
  5
26C
100
AcDbEntity
  8
KONSTRUKTIONSELEMENTE
100
AcDbLine
 62
7
  6
CONTINUOUS
 10
285.3089136981
 20
130.2278221947
 11
288.7730153132
 21
132.2278221947
  0
LINE
  5
26D
100
AcDbEntity
  8
KONSTRUKTIONSELEMENTE
100
AcDbLine
 62
7
  6
CONTINUOUS
 10
256.6385690223
 20
113.3863158438
 11
243.6481879655
 21
105.8863158438
  0
LINE
  5
26E
100
AcDbEntity
  8
0
100
AcDbLine
 62
7
  6
CONTINUOUS
 10
346.6514426548
 20
141.0104562097
 11
343.8034859352
 21
142.0470276842
  0
LINE
  5
26F
100
AcDbEntity
  8
0
100
AcDbLine
 62
7
  6
CONTINUOUS
 10
308.5712364196
 20
158.9581126135
 11
308.5712364196
 21
208.9581126135
  0
LINE
  5
270
100
AcDbEntity
  8
KONSTRUKTIONSELEMENTE
100
AcDbLine
 62
7
  6
CONTINUOUS
 10
258.8885690223
 20
109.4892015267
 11
245.8981879655
 21
101.9892015267
  0
LINE
  5
271
100
AcDbEntity
  8
KONSTRUKTIONSELEMENTE
100
AcDbLine
 62
7
  6
CONTINUOUS
 10
213.7637416745
 20
83.1476951758
 11
217.2278432897
 21
85.1476951758
  0
LINE
  5
272
100
AcDbEntity
  8
KONSTRUKTIONSELEMENTE
100
AcDbLine
 62
7
  6
CONTINUOUS
 10
217.6608559916
 20
85.3976951758
 11
221.1249576067
 21
87.3976951758
  0
LINE
  5
273
100
AcDbEntity
  8
KONSTRUKTIONSELEMENTE
100
AcDbLine
 62
7
  6
CONTINUOUS
 10
283.9117993811
 20
123.6476951758
 11
287.3759009962
 21
125.6476951758
  0
LINE
  5
274
100
AcDbEntity
  8
KONSTRUKTIONSELEMENTE
100
AcDbLine
 62
7
  6
CONTINUOUS
 10
287.8089136981
 20
125.8976951758
 11
291.2730153132
 21
127.8976951758
  0
LINE
  5
275
100
AcDbEntity
  8
KONSTRUKTIONSELEMENTE
100
AcDbLine
 62
7
  6
CONTINUOUS
 10
326.6885505174
 20
148.0561888248
 11
291.1815089623
 21
127.5561888248
  0
LINE
  5
276
100
AcDbEntity
  8
KONSTRUKTIONSELEMENTE
100
AcDbLine
 62
7
  6
CONTINUOUS
 10
222.4909830105
 20
87.031669772
 11
245.4043489843
 21
100.260707785
  0
LINE
  5
277
100
AcDbEntity
  8
KONSTRUKTIONSELEMENTE
100
AcDbLine
 62
7
  6
CONTINUOUS
 10
260.596100777
 20
109.031669772
 11
283.5094667508
 21
122.260707785
  0
LINE
  5
278
100
AcDbEntity
  8
BEZUGSACHSEN
100
AcDbLine
 62
7
  6
CONTINUOUS
 10
216.1540606916
 20
82.5070205616
 11
215.1806080924
 21
81.9449974414
  0
LINE
  5
279
100
AcDbEntity
  8
KONSTRUKTIONSELEMENTE
100
AcDbLine
 62
7
  6
CONTINUOUS
 10
164.1927619041
 20
52.5071507192
 11
215.1806080924
 21
81.9449974414
  0
LINE
  5
27A
100
AcDbEntity
  8
BEZUGSACHSEN
100
AcDbLine
 62
7
  6
CONTINUOUS
 10
217.6540606916
 20
79.9089443502
 11
216.6806080924
 21
79.34692123
  0
LINE
  5
27B
100
AcDbEntity
  8
KONSTRUKTIONSELEMENTE
100
AcDbLine
 62
7
  6
CONTINUOUS
 10
165.6927619041
 20
49.9090745078
 11
216.6806080924
 21
79.34692123
  0
LINE
  5
27C
100
AcDbEntity
  8
KONSTRUKTIONSELEMENTE
100
AcDbLine
 62
7
  6
CONTINUOUS
 10
224.7409830105
 20
83.134555455
 11
247.6543489843
 21
96.363593468
  0
LINE
  5
27D
100
AcDbEntity
  8
KONSTRUKTIONSELEMENTE
100
AcDbLine
 62
7
  6
CONTINUOUS
 10
262.846100777
 20
105.134555455
 11
285.7594667508
 21
118.363593468
  0
LINE
  5
27E
100
AcDbEntity
  8
0
100
AcDbLine
 62
7
  6
CONTINUOUS
 10
342.3050727289
 20
111.1407578902
 11
339.6854416804
 21
114.8819787505
  0
LINE
  5
27F
100
AcDbEntity
  8
RUNDUNGEN
100
AcDbLine
 62
7
  6
CONTINUOUS
 10
322.1791370537
 20
99.0989421294
 11
321.6261559414
 21
101.5370175773
  0
LINE
  5
280
100
AcDbEntity
  8
0
100
AcDbLine
 62
7
  6
CONTINUOUS
 10
321.5712364196
 20
158.9581126135
 11
321.5712364196
 21
208.9581126135
  0
LINE
  5
281
100
AcDbEntity
  8
KONSTRUKTIONSELEMENTE
100
AcDbLine
 62
7
  6
CONTINUOUS
 10
329.6885505174
 20
142.8600364021
 11
294.2421462367
 21
122.3950453488
  0
LINE
  5
282
100
AcDbEntity
  8
KONSTRUKTIONSELEMENTE
100
AcDbLine
 62
7
  6
CONTINUOUS
 10
294.5230153132
 20
122.2685300512
 11
287.1617993811
 21
118.0185300512
  0
LINE
  5
283
100
AcDbEntity
  8
KONSTRUKTIONSELEMENTE
100
AcDbLine
 62
7
  6
CONTINUOUS
 10
224.3749576067
 20
81.7685300512
 11
217.0137416745
 21
77.5185300512
  0
LINE
  5
284
100
AcDbEntity
  8
KONSTRUKTIONSELEMENTE
100
AcDbLine
 62
7
  6
CONTINUOUS
 10
249.3981879655
 20
95.9270237002
 11
262.3885690223
 21
103.4270237002
  0
LINE
  5
285
100
AcDbEntity
  8
KONSTRUKTIONSELEMENTE
100
AcDbLine
 62
7
  6
CONTINUOUS
 10
251.6481879655
 20
92.0299093832
 11
264.6385690223
 21
99.5299093832
  0
LINE
  5
286
100
AcDbEntity
  8
KONSTRUKTIONSELEMENTE
100
AcDbLine
 62
7
  6
CONTINUOUS
 10
297.0230153132
 20
117.9384030323
 11
289.6617993811
 21
113.6884030323
  0
LINE
  5
287
100
AcDbEntity
  8
KONSTRUKTIONSELEMENTE
100
AcDbLine
 62
7
  6
CONTINUOUS
 10
226.8749576067
 20
77.4384030323
 11
219.5137416745
 21
73.1884030323
  0
LINE
  5
288
100
AcDbEntity
  8
0
100
AcDbLine
 62
7
  6
CONTINUOUS
 10
356.4910301844
 20
141.0104562097
 11
359.3389869041
 21
142.0470276842
  0
LINE
  5
289
100
AcDbEntity
  8
0
100
AcDbLine
 62
7
  6
CONTINUOUS
 10
360.6095955651
 20
138.5560590791
 11
357.7616388454
 21
137.5194876047
  0
LINE
  5
28A
100
AcDbEntity
  8
KONSTRUKTIONSELEMENTE
100
AcDbLine
 62
7
  6
CONTINUOUS
 10
362.7810863442
 20
137.1128938491
 11
363.061026765
 21
137.2147838297
  0
LINE
  5
28B
100
AcDbEntity
  8
KONSTRUKTIONSELEMENTE
100
AcDbLine
 62
7
  6
CONTINUOUS
 10
362.4810884867
 20
136.5488986005
 11
363.2589989842
 21
136.8320348665
  0
LINE
  5
28C
100
AcDbEntity
  8
KONSTRUKTIONSELEMENTE
100
AcDbLine
 62
7
  6
CONTINUOUS
 10
362.4530026618
 20
136.5325220362
 11
363.2309131593
 21
136.8156583022
  0
LINE
  5
28D
100
AcDbEntity
  8
KONSTRUKTIONSELEMENTE
100
AcDbLine
 62
7
  6
CONTINUOUS
 10
362.4681674736
 20
136.445403016
 11
363.2460779711
 21
136.728539282
  0
LINE
  5
28E
100
AcDbEntity
  8
KONSTRUKTIONSELEMENTE
100
AcDbLine
 62
7
  6
CONTINUOUS
 10
363.447846447
 20
136.501279652
 11
363.4840896698
 21
136.5144711063
  0
LINE
  5
28F
100
AcDbEntity
  8
KONSTRUKTIONSELEMENTE
100
AcDbLine
 62
7
  6
CONTINUOUS
 10
363.4738815311
 20
136.4005719345
 11
363.5663040663
 21
136.4342109862
  0
LINE
  5
290
100
AcDbEntity
  8
KONSTRUKTIONSELEMENTE
100
AcDbLine
 62
7
  6
CONTINUOUS
 10
363.5369030264
 20
136.226841928
 11
363.6926889408
 21
136.2835433637
  0
LINE
  5
291
100
AcDbEntity
  8
KONSTRUKTIONSELEMENTE
100
AcDbLine
 62
7
  6
CONTINUOUS
 10
362.6905097454
 20
135.8098385087
 11
363.4684202429
 21
136.0929747748
  0
LINE
  5
292
100
AcDbEntity
  8
KONSTRUKTIONSELEMENTE
100
AcDbLine
 62
7
  6
CONTINUOUS
 10
362.9019612445
 20
135.2337617063
 11
363.679871742
 21
135.5168979723
  0
LINE
  5
293
100
AcDbEntity
  8
KONSTRUKTIONSELEMENTE
100
AcDbLine
 62
7
  6
CONTINUOUS
 10
363.9695126569
 20
135.5348428366
 11
364.2047877262
 21
135.6204759587
  0
LINE
  5
294
100
AcDbEntity
  8
KONSTRUKTIONSELEMENTE
100
AcDbLine
 62
7
  6
CONTINUOUS
 10
362.9782887285
 20
135.0356227643
 11
363.756199226
 21
135.3187590304
  0
LINE
  5
295
100
AcDbEntity
  8
KONSTRUKTIONSELEMENTE
100
AcDbLine
 62
7
  6
CONTINUOUS
 10
364.1240736163
 20
135.3347231584
 11
364.351585726
 21
135.4175307943
  0
LINE
  5
296
100
AcDbEntity
  8
KONSTRUKTIONSELEMENTE
100
AcDbLine
 62
7
  6
CONTINUOUS
 10
364.2624892838
 20
135.1555034796
 11
364.4743710927
 21
135.2326221513
  0
LINE
  5
297
100
AcDbEntity
  8
KONSTRUKTIONSELEMENTE
100
AcDbLine
 62
7
  6
CONTINUOUS
 10
364.6113158603
 20
135.0949402638
 11
364.6720080306
 21
135.1170304072
  0
LINE
  5
298
100
AcDbEntity
  8
KONSTRUKTIONSELEMENTE
100
AcDbLine
 62
7
  6
CONTINUOUS
 10
364.3847596016
 20
134.9971840813
 11
364.5728556367
 21
135.0656454392
  0
LINE
  5
299
100
AcDbEntity
  8
KONSTRUKTIONSELEMENTE
100
AcDbLine
 62
7
  6
CONTINUOUS
 10
364.6978129279
 20
134.9507960288
 11
364.7333592977
 21
134.9637338494
  0
LINE
  5
29A
100
AcDbEntity
  8
KONSTRUKTIONSELEMENTE
100
AcDbLine
 62
7
  6
CONTINUOUS
 10
364.4908852904
 20
134.859765305
 11
364.6465798013
 21
134.9164334726
  0
LINE
  5
29B
100
AcDbEntity
  8
KONSTRUKTIONSELEMENTE
100
AcDbLine
 62
7
  6
CONTINUOUS
 10
363.2687257217
 20
134.237653688
 11
364.0466362192
 21
134.520789954
  0
LINE
  5
29C
100
AcDbEntity
  8
KONSTRUKTIONSELEMENTE
100
AcDbLine
 62
7
  6
CONTINUOUS
 10
363.3376167669
 20
134.036807996
 11
364.1155272644
 21
134.319944262
  0
LINE
  5
29D
100
AcDbEntity
  8
KONSTRUKTIONSELEMENTE
100
AcDbLine
 62
7
  6
CONTINUOUS
 10
364.4405242651
 20
134.056824177
 11
364.7361419245
 21
134.1644202057
  0
LINE
  5
29E
100
AcDbEntity
  8
KONSTRUKTIONSELEMENTE
100
AcDbLine
 62
7
  6
CONTINUOUS
 10
364.5913887122
 20
133.8791121101
 11
364.8752330636
 21
133.9824230052
  0
LINE
  5
29F
100
AcDbEntity
  8
KONSTRUKTIONSELEMENTE
100
AcDbLine
 62
7
  6
CONTINUOUS
 10
364.9518918165
 20
133.9712850264
 11
365.0719880969
 21
134.0149964977
  0
LINE
  5
2A0
100
AcDbEntity
  8
KONSTRUKTIONSELEMENTE
100
AcDbLine
 62
7
  6
CONTINUOUS
 10
364.7350589104
 20
133.7098705948
 11
364.9952475665
 21
133.804571521
  0
LINE
  5
2A1
100
AcDbEntity
  8
KONSTRUKTIONSELEMENTE
100
AcDbLine
 62
7
  6
CONTINUOUS
 10
365.0809850068
 20
133.7721738467
 11
365.109491014
 21
133.7825491848
  0
LINE
  5
2A2
100
AcDbEntity
  8
KONSTRUKTIONSELEMENTE
100
AcDbLine
 62
7
  6
CONTINUOUS
 10
364.8715352939
 20
133.5490995395
 11
365.0958951509
 21
133.6307598492
  0
LINE
  5
2A3
100
AcDbEntity
  8
KONSTRUKTIONSELEMENTE
100
AcDbLine
 62
7
  6
CONTINUOUS
 10
363.7721051589
 20
133.0497063322
 11
364.5500156564
 21
133.3328425983
  0
LINE
  5
2A4
100
AcDbEntity
  8
KONSTRUKTIONSELEMENTE
100
AcDbLine
 62
7
  6
CONTINUOUS
 10
365.202749235
 20
133.5690673639
 11
365.2230294821
 21
133.5764487702
  0
LINE
  5
2A5
100
AcDbEntity
  8
KONSTRUKTIONSELEMENTE
100
AcDbLine
 62
7
  6
CONTINUOUS
 10
363.7448858521
 20
132.9818750222
 11
364.5227963496
 21
133.2650112883
  0
LINE
  5
2A6
100
AcDbEntity
  8
KONSTRUKTIONSELEMENTE
100
AcDbLine
 62
7
  6
CONTINUOUS
 10
365.0008177374
 20
133.3967989668
 11
365.1767170796
 21
133.4608210916
  0
LINE
  5
2A7
100
AcDbEntity
  8
KONSTRUKTIONSELEMENTE
100
AcDbLine
 62
7
  6
CONTINUOUS
 10
365.3052794323
 20
133.3709822041
 11
365.3161726918
 21
133.3749470263
  0
LINE
  5
2A8
100
AcDbEntity
  8
KONSTRUKTIONSELEMENTE
100
AcDbLine
 62
7
  6
CONTINUOUS
 10
363.7885840875
 20
132.8170090774
 11
364.566494585
 21
133.1001453434
  0
LINE
  5
2A9
100
AcDbEntity
  8
KONSTRUKTIONSELEMENTE
100
AcDbLine
 62
7
  6
CONTINUOUS
 10
365.1075645695
 20
133.285038315
 11
365.2251232677
 21
133.3278261819
  0
LINE
  5
2AA
100
AcDbEntity
  8
KONSTRUKTIONSELEMENTE
100
AcDbLine
 62
7
  6
CONTINUOUS
 10
365.1974634147
 20
133.2158879256
 11
365.2081015891
 21
133.2197599044
  0
LINE
  5
2AB
100
AcDbEntity
  8
KONSTRUKTIONSELEMENTE
100
AcDbLine
 62
7
  6
CONTINUOUS
 10
364.6862924605
 20
133.0185336695
 11
364.7796924279
 21
133.0525284775
  0
LINE
  5
2AC
100
AcDbEntity
  8
KONSTRUKTIONSELEMENTE
100
AcDbLine
 62
7
  6
CONTINUOUS
 10
364.8725746055
 20
133.0844781619
 11
365.0949314668
 21
133.1654094407
  0
LINE
  5
2AD
100
AcDbEntity
  8
KONSTRUKTIONSELEMENTE
100
AcDbLine
 62
7
  6
CONTINUOUS
 10
364.7242866227
 20
132.9141455668
 11
364.8655247088
 21
132.9655520261
  0
LINE
  5
2AE
100
AcDbEntity
  8
KONSTRUKTIONSELEMENTE
100
AcDbLine
 62
7
  6
CONTINUOUS
 10
364.9895382979
 20
132.9209917851
 11
365.2416183934
 21
133.0127414365
  0
LINE
  5
2AF
100
AcDbEntity
  8
KONSTRUKTIONSELEMENTE
100
AcDbLine
 62
7
  6
CONTINUOUS
 10
364.7771596711
 20
132.7711378205
 11
364.9660193338
 21
132.8398771162
  0
LINE
  5
2B0
100
AcDbEntity
  8
KONSTRUKTIONSELEMENTE
100
AcDbLine
 62
7
  6
CONTINUOUS
 10
365.0591938882
 20
132.8266821224
 11
365.3453581797
 21
132.9308374066
  0
LINE
  5
2B1
100
AcDbEntity
  8
KONSTRUKTIONSELEMENTE
100
AcDbLine
 62
7
  6
CONTINUOUS
 10
365.4345552446
 20
132.9460701229
 11
365.4494056345
 21
132.9514752228
  0
LINE
  5
2B2
100
AcDbEntity
  8
KONSTRUKTIONSELEMENTE
100
AcDbLine
 62
7
  6
CONTINUOUS
 10
365.0734495553
 20
132.7875149989
 11
365.425960926
 21
132.915818645
  0
LINE
  5
2B3
100
AcDbEntity
  8
KONSTRUKTIONSELEMENTE
100
AcDbLine
 62
7
  6
CONTINUOUS
 10
365.093096302
 20
132.7713744182
 11
365.4311983542
 21
132.8944335013
  0
LINE
  5
2B4
100
AcDbEntity
  8
KONSTRUKTIONSELEMENTE
100
AcDbLine
 62
7
  6
CONTINUOUS
 10
364.8305634896
 20
132.6236934858
 11
365.0524458091
 21
132.7044520455
  0
LINE
  5
2B5
100
AcDbEntity
  8
KONSTRUKTIONSELEMENTE
100
AcDbLine
 62
7
  6
CONTINUOUS
 10
364.8847492931
 20
132.4719041233
 11
365.1245332488
 21
132.5591783459
  0
LINE
  5
2B6
100
AcDbEntity
  8
KONSTRUKTIONSELEMENTE
100
AcDbLine
 62
7
  6
CONTINUOUS
 10
364.1213057667
 20
131.8812634393
 11
364.8992162642
 21
132.1643997054
  0
LINE
  5
2B7
100
AcDbEntity
  8
KONSTRUKTIONSELEMENTE
100
AcDbLine
 62
7
  6
CONTINUOUS
 10
365.4770362317
 20
131.8877398074
 11
365.8095977673
 21
132.0087823075
  0
LINE
  5
2B8
100
AcDbEntity
  8
KONSTRUKTIONSELEMENTE
100
AcDbLine
 62
7
  6
CONTINUOUS
 10
365.4648744594
 20
130.5182200267
 11
366.2427849569
 21
130.8013562927
  0
LINE
  5
2B9
100
AcDbEntity
  8
0
100
AcDbLine
 62
7
  6
CONTINUOUS
 10
363.936092226
 20
129.4165846175
 11
361.0881355063
 21
128.380013143
  0
LINE
  5
2BA
100
AcDbEntity
  8
RUNDUNGEN
100
AcDbLine
 62
7
  6
CONTINUOUS
 10
321.6261559414
 20
101.5370175773
 11
326.5713793285
 21
115.1239071674
  0
LINE
  5
2BB
100
AcDbEntity
  8
KONSTRUKTIONSELEMENTE
100
AcDbLine
 62
7
  6
CONTINUOUS
 10
332.8846510884
 20
118.5814078699
 11
334.2253298326
 21
122.2648924464
  0
LINE
  5
2BC
100
AcDbEntity
  8
RUNDUNGEN
100
AcDbLine
 62
7
  6
CONTINUOUS
 10
332.8846510884
 20
118.5814078699
 11
334.2253298307
 21
122.264892441
  0
LINE
  5
2BD
100
AcDbEntity
  8
BEZUGSACHSEN
100
AcDbLine
 62
7
  6
CONTINUOUS
 10
334.1758717593
 20
122.1290075068
 11
336.6847678977
 21
129.0221429948
  0
LINE
  5
2BE
100
AcDbEntity
  8
BEZUGSACHSEN
100
AcDbLine
 62
7
  6
CONTINUOUS
 10
337.3681483698
 20
130.8997154106
 11
338.0493765372
 21
132.7713744182
  0
LINE
  5
2BF
100
AcDbEntity
  8
KONSTRUKTIONSELEMENTE
100
AcDbLine
 62
7
  6
CONTINUOUS
 10
343.8034859352
 20
142.0470276842
 11
340.3613864951
 21
137.1128938491
  0
LINE
  5
2C0
100
AcDbEntity
  8
0
100
AcDbLine
 62
7
  6
CONTINUOUS
 10
368.0663758909
 20
118.1263091435
 11
365.1814038409
 21
117.0762651906
  0
LINE
  5
2C1
100
AcDbEntity
  8
KONSTRUKTIONSELEMENTE
100
AcDbLine
 62
7
  6
CONTINUOUS
 10
359.3389869041
 20
142.0470276842
 11
363.0341161054
 21
136.7501841925
  0
LINE
  5
2C2
100
AcDbEntity
  8
0
100
AcDbLine
 62
7
  6
CONTINUOUS
 10
360.5963189574
 20
109.3095647309
 11
365.5415423445
 21
95.7226751408
  0
LINE
  5
2C3
100
AcDbEntity
  8
0
100
AcDbLine
 62
7
  6
CONTINUOUS
 10
345.9079600041
 20
132.6798964593
 11
346.6514426548
 21
141.0104562097
  0
LINE
  5
2C4
100
AcDbEntity
  8
0
100
AcDbLine
 62
7
  6
CONTINUOUS
 10
335.5733319459
 20
119.7969495472
 11
335.0760969483
 21
118.1263091435
  0
LINE
  5
2C5
100
AcDbEntity
  8
RUNDUNGEN
100
AcDbLine
 62
7
  6
CONTINUOUS
 10
332.0223632754
 20
109.736244832
 11
335.0760969483
 21
118.1263091435
  0
LINE
  5
2C6
100
AcDbEntity
  8
0
100
AcDbLine
 62
7
  6
CONTINUOUS
 10
334.9073353254
 20
108.6862008791
 11
337.9610689984
 21
117.0762651906
  0
LINE
  5
2C7
100
AcDbEntity
  8
0
100
AcDbLine
 62
7
  6
CONTINUOUS
 10
339.9323457443
 20
116.016256795
 11
345.7670888926
 21
132.0470818431
  0
LINE
  5
2C8
100
AcDbEntity
  8
0
100
AcDbLine
 62
7
  6
CONTINUOUS
 10
338.6540318433
 20
118.6756664838
 11
337.9610689984
 21
117.0762651906
  0
LINE
  5
2C9
100
AcDbEntity
  8
0
100
AcDbLine
 62
7
  6
CONTINUOUS
 10
369.0048380796
 20
106.2563584825
 11
372.0923573086
 21
107.3801235796
  0
LINE
  5
2CA
100
AcDbEntity
  8
0
100
AcDbLine
 62
7
  6
CONTINUOUS
 10
364.488440996
 20
118.6756664838
 11
365.1814038409
 21
117.0762651906
  0
LINE
  5
2CB
100
AcDbEntity
  8
0
100
AcDbLine
 62
7
  6
CONTINUOUS
 10
357.3753839467
 20
132.0470818431
 11
363.2101270949
 21
116.016256795
  0
LINE
  5
2CC
100
AcDbEntity
  8
0
100
AcDbLine
 62
7
  6
CONTINUOUS
 10
368.2351375138
 20
108.6862008791
 11
365.1814038409
 21
117.0762651906
  0
LINE
  5
2CD
100
AcDbEntity
  8
0
100
AcDbLine
 62
7
  6
CONTINUOUS
 10
373.7928653727
 20
97.9046888414
 11
373.5289296211
 21
98.629846359
  0
LINE
  5
2CE
100
AcDbEntity
  8
0
100
AcDbLine
 62
7
  6
CONTINUOUS
 10
371.8188289045
 20
103.328309463
 11
371.5032080272
 21
104.1954706965
  0
LINE
  5
2CF
100
AcDbEntity
  8
RUNDUNGEN
100
AcDbLine
 62
7
  6
CONTINUOUS
 10
371.1201095639
 20
109.736244832
 11
368.0663758909
 21
118.1263091435
  0
LINE
  5
2D0
100
AcDbEntity
  8
0
100
AcDbLine
 62
7
  6
CONTINUOUS
 10
357.2345128351
 20
132.6798964593
 11
356.4910301844
 21
141.0104562097
  0
LINE
  5
2D1
100
AcDbEntity
  8
0
100
AcDbLine
 62
7
  6
CONTINUOUS
 10
342.5461538819
 20
109.3095647309
 11
337.6009304948
 21
95.7226751408
  0
LINE
  5
2D2
100
AcDbEntity
  8
0
100
AcDbLine
 62
7
  6
CONTINUOUS
 10
337.6009304948
 20
95.7226751408
 11
335.6101576973
 21
94.2104503993
  0
LINE
  5
2D3
100
AcDbEntity
  8
BEZUGSACHSEN
100
AcDbLine
 62
7
  6
CONTINUOUS
 10
365.0856105866
 20
132.7919412523
 11
365.10613407
 21
132.7355534452
  0
LINE
  5
2D4
100
AcDbEntity
  8
BEZUGSACHSEN
100
AcDbLine
 62
7
  6
CONTINUOUS
 10
365.8607359477
 20
130.6623018253
 11
368.9666010799
 21
122.1290075068
  0
LINE
  5
2D5
100
AcDbEntity
  8
RUNDUNGEN
100
AcDbLine
 62
7
  6
CONTINUOUS
 10
368.9171430085
 20
122.2648924411
 11
370.2578217508
 21
118.5814078699
  0
LINE
  5
2D6
100
AcDbEntity
  8
KONSTRUKTIONSELEMENTE
100
AcDbLine
 62
7
  6
CONTINUOUS
 10
368.9171430066
 20
122.2648924464
 11
370.2578217508
 21
118.5814078699
  0
LINE
  5
2D7
100
AcDbEntity
  8
RUNDUNGEN
100
AcDbLine
 62
7
  6
CONTINUOUS
 10
376.5710935107
 20
115.1239071674
 11
381.5163168978
 21
101.5370175773
  0
LINE
  5
2D8
100
AcDbEntity
  8
0
100
AcDbLine
 62
7
  6
CONTINUOUS
 10
367.5691408933
 20
119.7969495472
 11
368.0663758909
 21
118.1263091435
  0
LINE
  5
2D9
100
AcDbEntity
  8
0
100
AcDbLine
 62
7
  6
CONTINUOUS
 10
363.4570311589
 20
114.8819787505
 11
360.8374001104
 21
111.1407578902
  0
LINE
  5
2DA
100
AcDbEntity
  8
0
100
AcDbLine
 62
7
  6
CONTINUOUS
 10
381.5712364196
 20
208.9581126135
 11
381.5712364196
 21
158.9581126135
  0
LINE
  5
2DB
100
AcDbEntity
  8
RUNDUNGEN
100
AcDbLine
 62
7
  6
CONTINUOUS
 10
380.9633357856
 20
99.0989421294
 11
381.5163168978
 21
101.5370175773
  0
LINE
  5
2DC
100
AcDbEntity
  8
0
100
AcDbLine
 62
7
  6
CONTINUOUS
 10
394.5712364196
 20
208.9581126135
 11
394.5712364196
 21
158.9581126135
  0
LINE
  5
2DD
100
AcDbEntity
  8
KONSTRUKTIONSELEMENTE
100
AcDbLine
 62
7
  6
CONTINUOUS
 10
82.2404265954
 20
49.9090745078
 11
87.7004265954
 21
49.9090745078
  0
LINE
  5
2DE
100
AcDbEntity
  8
KONSTRUKTIONSELEMENTE
100
AcDbLine
 62
7
  6
CONTINUOUS
 10
81.9404265954
 20
50.168882129
 11
82.2404265954
 21
50.168882129
  0
LINE
  5
2DF
100
AcDbEntity
  8
KONSTRUKTIONSELEMENTE
100
AcDbLine
 62
7
  6
CONTINUOUS
 10
87.7004265954
 20
50.168882129
 11
88.0004265954
 21
50.168882129
  0
LINE
  5
2E0
100
AcDbEntity
  8
KONSTRUKTIONSELEMENTE
100
AcDbLine
 62
7
  6
CONTINUOUS
 10
76.3631980713
 20
55.9090745078
 11
79.8404265954
 21
55.9090745078
  0
LINE
  5
2E1
100
AcDbEntity
  8
KONSTRUKTIONSELEMENTE
100
AcDbLine
 62
7
  6
CONTINUOUS
 10
90.1004265954
 20
55.9090745078
 11
102.1590463968
 21
55.9090745078
  0
LINE
  5
2E2
100
AcDbEntity
  8
KONSTRUKTIONSELEMENTE
100
AcDbLine
 62
7
  6
CONTINUOUS
 10
103.8355732599
 20
56.9320850507
 11
100.4822344479
 21
57.7139288349
  0
LINE
  5
2E3
100
AcDbEntity
  8
KONSTRUKTIONSELEMENTE
100
AcDbLine
 62
7
  6
CONTINUOUS
 10
103.8355732599
 20
59.530161262
 11
100.4822344479
 21
60.3120050463
  0
LINE
  5
2E4
100
AcDbEntity
  8
KONSTRUKTIONSELEMENTE
100
AcDbLine
 62
7
  6
CONTINUOUS
 10
62.6559526669
 20
68.5574134485
 11
66.1905530364
 21
69.3815190589
  0
LINE
  5
2E5
100
AcDbEntity
  8
KONSTRUKTIONSELEMENTE
100
AcDbLine
 62
7
  6
CONTINUOUS
 10
62.6559526669
 20
68.8172210696
 11
66.1905530364
 21
69.64132668
  0
LINE
  5
2E6
100
AcDbEntity
  8
KONSTRUKTIONSELEMENTE
100
AcDbLine
 62
7
  6
CONTINUOUS
 10
62.9644877612
 20
69.5511839596
 11
65.6834111223
 21
70.1851113522
  0
LINE
  5
2E7
100
AcDbEntity
  8
KONSTRUKTIONSELEMENTE
100
AcDbLine
 62
7
  6
CONTINUOUS
 10
62.9644877612
 20
71.6296449287
 11
64.7078704706
 21
72.036121283
  0
LINE
  5
2E8
100
AcDbEntity
  8
KONSTRUKTIONSELEMENTE
100
AcDbLine
 62
7
  6
CONTINUOUS
 10
62.7800236641
 20
73.0384709796
 11
59.2454232947
 21
72.2143653692
  0
LINE
  5
2E9
100
AcDbEntity
  8
KONSTRUKTIONSELEMENTE
100
AcDbLine
 62
7
  6
CONTINUOUS
 10
113.5411387357
 20
71.7163841446
 11
117.0757391051
 21
70.8922785342
  0
LINE
  5
2EA
100
AcDbEntity
  8
KONSTRUKTIONSELEMENTE
100
AcDbLine
 62
7
  6
CONTINUOUS
 10
90.0418457363
 20
79.34692123
 11
116.2769193009
 21
73.2301133723
  0
LINE
  5
2EB
100
AcDbEntity
  8
KONSTRUKTIONSELEMENTE
100
AcDbLine
 62
7
  6
CONTINUOUS
 10
58.7382813806
 20
72.7581500414
 11
59.2454232947
 21
72.2143653692
  0
LINE
  5
2EC
100
AcDbEntity
  8
KONSTRUKTIONSELEMENTE
100
AcDbLine
 62
7
  6
CONTINUOUS
 10
62.6559526669
 20
68.5574134485
 11
73.6442747102
 21
56.7751471152
  0
LINE
  5
2ED
100
AcDbEntity
  8
KONSTRUKTIONSELEMENTE
100
AcDbLine
 62
7
  6
CONTINUOUS
 10
62.6559526669
 20
68.8172210696
 11
62.5291671884
 21
68.9531672377
  0
LINE
  5
2EE
100
AcDbEntity
  8
KONSTRUKTIONSELEMENTE
100
AcDbLine
 62
7
  6
CONTINUOUS
 10
64.1336059022
 20
72.6518784535
 11
66.6258736091
 21
69.9795357808
  0
LINE
  5
2EF
100
AcDbEntity
  8
KONSTRUKTIONSELEMENTE
100
AcDbLine
 62
7
  6
CONTINUOUS
 10
79.8990074545
 20
79.34692123
 11
60.1893499565
 21
74.7515391146
  0
LINE
  5
2F0
100
AcDbEntity
  8
KONSTRUKTIONSELEMENTE
100
AcDbLine
 62
7
  6
CONTINUOUS
 10
79.8990074545
 20
81.9449974414
 11
60.1893499565
 21
77.3496153259
  0
LINE
  5
2F1
100
AcDbEntity
  8
KONSTRUKTIONSELEMENTE
100
AcDbLine
 62
7
  6
CONTINUOUS
 10
116.2769193009
 20
75.8281895837
 11
90.0418457363
 21
81.9449974414
  0
LWPOLYLINE
  5
2F2
100
AcDbEntity
  8
0
100
AcDbPolyline
 62
7
  6
CONTINUOUS
 90
6
 70
0
 10
95.5909251753
 20
92.4790783263
 10
95.8272519368
 20
92.4899454574
 10
96.0927827663
 20
92.5273231073
 10
96.3512171764
 20
92.5882179346
 10
96.6009807759
 20
92.6689335243
 10
96.8467337926
 20
92.7680302403
  0
LINE
  5
2F3
100
AcDbEntity
  8
KONSTRUKTIONSELEMENTE
100
AcDbLine
 62
7
  6
CONTINUOUS
 10
95.5920153652
 20
92.479077911
 11
93.1039608289
 21
92.479077911
  0
LINE
  5
2F4
100
AcDbEntity
  8
KONSTRUKTIONSELEMENTE
100
AcDbLine
 62
7
  6
CONTINUOUS
 10
76.8368923618
 20
92.479077911
 11
74.3489880604
 21
92.479077911
  0
LINE
  5
2F5
100
AcDbEntity
  8
0
100
AcDbLine
 62
7
  6
CONTINUOUS
 10
74.3500137559
 20
92.4790779163
 11
74.3499313047
 21
92.479077938
  0
LINE
  5
2F6
100
AcDbEntity
  8
0
100
AcDbLine
 62
7
  6
CONTINUOUS
 10
93.1001102359
 20
92.4795888946
 11
93.1026542859
 21
92.4790779112
  0
LWPOLYLINE
  5
2F7
100
AcDbEntity
  8
0
100
AcDbPolyline
 62
7
  6
CONTINUOUS
 90
6
 70
0
 10
73.0940351518
 20
92.7680675026
 10
73.3401209044
 20
92.6688429093
 10
73.5902225486
 20
92.588052988
 10
73.8490543095
 20
92.5271371233
 10
74.1149467897
 20
92.4898224034
 10
74.3499181268
 20
92.4790788109
  0
LWPOLYLINE
  5
2F8
100
AcDbEntity
  8
0
100
AcDbPolyline
 62
7
  6
CONTINUOUS
 90
4
 70
0
 10
72.3467514258
 20
93.1726503528
 10
72.6009324781
 20
93.019400602
 10
72.8491513486
 20
92.884702459
 10
73.0941193981
 20
92.7680302403
  0
LINE
  5
2F9
100
AcDbEntity
  8
0
100
AcDbLine
 62
7
  6
CONTINUOUS
 10
72.0799851816
 20
93.3481887119
 11
72.3455398379
 21
93.1734151149
  0
LINE
  5
2FA
100
AcDbEntity
  8
0
100
AcDbLine
 62
7
  6
CONTINUOUS
 10
71.7997568194
 20
93.5468098294
 11
72.0816354435
 21
93.3470603758
  0
LINE
  5
2FB
100
AcDbEntity
  8
0
100
AcDbLine
 62
7
  6
CONTINUOUS
 10
71.5000872096
 20
93.7733340836
 11
71.8018914376
 21
93.5452464754
  0
LINE
  5
2FC
100
AcDbEntity
  8
0
100
AcDbLine
 62
7
  6
CONTINUOUS
 10
76.8381989048
 20
92.4790779112
 11
76.8407429548
 21
92.4795888946
  0
LINE
  5
2FD
100
AcDbEntity
  8
0
100
AcDbLine
 62
7
  6
CONTINUOUS
 10
81.4704265954
 20
97.379077911
 11
88.4704265954
 21
97.379077911
  0
LINE
  5
2FE
100
AcDbEntity
  8
RUNDUNGEN
100
AcDbLine
 62
7
  6
CONTINUOUS
 10
97.8566640172
 20
101.5370175773
 11
94.3218153725
 21
101.5370175773
  0
LINE
  5
2FF
100
AcDbEntity
  8
RUNDUNGEN
100
AcDbLine
 62
7
  6
CONTINUOUS
 10
75.6190378183
 20
101.5370175773
 11
72.0841891735
 21
101.5370175773
  0
LINE
  5
300
100
AcDbEntity
  8
0
100
AcDbLine
 62
7
  6
CONTINUOUS
 10
71.1750525512
 20
94.0335097149
 11
71.5027926315
 21
93.7712288288
  0
LINE
  5
301
100
AcDbEntity
  8
0
100
AcDbLine
 62
7
  6
CONTINUOUS
 10
70.8758499023
 20
94.2848063354
 11
71.1784422189
 21
94.0307251319
  0
LINE
  5
302
100
AcDbEntity
  8
0
100
AcDbLine
 62
7
  6
CONTINUOUS
 10
70.765781303
 20
94.3791800725
 11
70.8759085971
 21
94.2847558342
  0
LINE
  5
303
100
AcDbEntity
  8
0
100
AcDbLine
 62
7
  6
CONTINUOUS
 10
88.4704265954
 20
104.579077911
 11
81.4704265954
 21
104.579077911
  0
LINE
  5
304
100
AcDbEntity
  8
0
100
AcDbLine
 62
7
  6
CONTINUOUS
 10
99.948930737
 20
104.5790457748
 11
99.9493626091
 21
104.5789836274
  0
LINE
  5
305
100
AcDbEntity
  8
KONSTRUKTIONSELEMENTE
100
AcDbLine
 62
7
  6
CONTINUOUS
 10
58.4572047417
 20
73.392077434
 11
58.4572047417
 21
75.9901536454
  0
LINE
  5
306
100
AcDbEntity
  8
KONSTRUKTIONSELEMENTE
100
AcDbLine
 62
7
  6
CONTINUOUS
 10
80.2258592484
 20
117.5810841813
 11
79.9613837341
 21
117.6736733291
  0
LINE
  5
307
100
AcDbEntity
  8
RUNDUNGEN
100
AcDbLine
 62
7
  6
CONTINUOUS
 10
79.9609012744
 20
117.6738491324
 11
79.9611566809
 21
117.6737561195
  0
LWPOLYLINE
  5
308
100
AcDbEntity
  8
RUNDUNGEN
100
AcDbPolyline
 62
7
  6
CONTINUOUS
 90
3
 70
0
 10
79.9612481324
 20
117.6737257091
 10
79.9487039064
 20
117.6787574534
 10
79.9408199596
 20
117.6824456239
  0
LINE
  5
309
100
AcDbEntity
  8
RUNDUNGEN
100
AcDbLine
 62
7
  6
CONTINUOUS
 10
79.9408199596
 20
117.6824456239
 11
79.9350405583
 21
117.6854905206
  0
LINE
  5
30A
100
AcDbEntity
  8
RUNDUNGEN
100
AcDbLine
 62
7
  6
CONTINUOUS
 10
79.9349852845
 20
117.685523578
 11
79.9304516827
 21
117.6882341454
  0
LINE
  5
30B
100
AcDbEntity
  8
RUNDUNGEN
100
AcDbLine
 62
7
  6
CONTINUOUS
 10
79.9304583962
 20
117.6882139003
 11
79.9306646837
 21
117.68806643
  0
LINE
  5
30C
100
AcDbEntity
  8
0
100
AcDbLine
 62
7
  6
CONTINUOUS
 10
68.5317378456
 20
108.6862008791
 11
66.4704265954
 21
117.0762651906
  0
LINE
  5
30D
100
AcDbEntity
  8
RUNDUNGEN
100
AcDbLine
 62
7
  6
CONTINUOUS
 10
68.5317378456
 20
109.736244832
 11
66.4704265954
 21
118.1263091435
  0
LINE
  5
30E
100
AcDbEntity
  8
0
100
AcDbLine
 62
7
  6
CONTINUOUS
 10
70.0699243269
 20
95.8010530806
 11
69.9724843082
 21
97.8194454033
  0
LINE
  5
30F
100
AcDbEntity
  8
KONSTRUKTIONSELEMENTE
100
AcDbLine
 62
7
  6
CONTINUOUS
 10
62.4448441967
 20
69.1433454555
 11
62.4448441967
 21
71.2218064245
  0
LINE
  5
310
100
AcDbEntity
  8
KONSTRUKTIONSELEMENTE
100
AcDbLine
 62
7
  6
CONTINUOUS
 10
62.6559526669
 20
68.5574134485
 11
62.6559526669
 21
68.8172210696
  0
LINE
  5
311
100
AcDbEntity
  8
0
100
AcDbLine
 62
7
  6
CONTINUOUS
 10
66.4704265954
 20
129.4165846175
 11
66.4704265954
 21
117.0762651906
  0
LINE
  5
312
100
AcDbEntity
  8
0
100
AcDbLine
 62
7
  6
CONTINUOUS
 10
69.9704265954
 20
97.9046888414
 11
69.9724823739
 21
97.8195046549
  0
LINE
  5
313
100
AcDbEntity
  8
0
100
AcDbLine
 62
7
  6
CONTINUOUS
 10
69.9654201829
 20
104.4057184024
 11
69.9704268322
 21
104.1954706964
  0
LINE
  5
314
100
AcDbEntity
  8
0
100
AcDbLine
 62
7
  6
CONTINUOUS
 10
69.1196571003
 20
106.2563584825
 11
69.1196571003
 21
107.3801235796
  0
LINE
  5
315
100
AcDbEntity
  8
0
100
AcDbLine
 62
7
  6
CONTINUOUS
 10
69.9704265954
 20
97.9046888414
 11
69.9704265954
 21
98.629846359
  0
LINE
  5
316
100
AcDbEntity
  8
0
100
AcDbLine
 62
7
  6
CONTINUOUS
 10
69.9704265954
 20
103.328309463
 11
69.9704265954
 21
104.1954706965
  0
LINE
  5
317
100
AcDbEntity
  8
KONSTRUKTIONSELEMENTE
100
AcDbLine
 62
7
  6
CONTINUOUS
 10
71.7038215606
 20
131.8812634393
 11
71.7038215606
 21
132.1643997054
  0
LINE
  5
318
100
AcDbEntity
  8
KONSTRUKTIONSELEMENTE
100
AcDbLine
 62
7
  6
CONTINUOUS
 10
72.7005615367
 20
132.7108686943
 11
72.7005615367
 21
132.9940049603
  0
LINE
  5
319
100
AcDbEntity
  8
KONSTRUKTIONSELEMENTE
100
AcDbLine
 62
7
  6
CONTINUOUS
 10
72.8409668145
 20
132.7981855272
 11
72.8409668145
 21
133.0813217932
  0
LINE
  5
31A
100
AcDbEntity
  8
KONSTRUKTIONSELEMENTE
100
AcDbLine
 62
7
  6
CONTINUOUS
 10
73.0038919522
 20
132.817662989
 11
73.0038919522
 21
133.100799255
  0
LINE
  5
31B
100
AcDbEntity
  8
KONSTRUKTIONSELEMENTE
100
AcDbLine
 62
7
  6
CONTINUOUS
 10
73.1893368654
 20
132.7693922115
 11
73.1893368654
 21
133.0525284775
  0
LINE
  5
31C
100
AcDbEntity
  8
KONSTRUKTIONSELEMENTE
100
AcDbLine
 62
7
  6
CONTINUOUS
 10
73.3453105909
 20
132.6824157601
 11
73.3453105909
 21
132.9655520261
  0
LINE
  5
31D
100
AcDbEntity
  8
KONSTRUKTIONSELEMENTE
100
AcDbLine
 62
7
  6
CONTINUOUS
 10
73.4491542887
 20
134.036807996
 11
73.4491542887
 21
134.319944262
  0
LINE
  5
31E
100
AcDbEntity
  8
KONSTRUKTIONSELEMENTE
100
AcDbLine
 62
7
  6
CONTINUOUS
 10
73.4718128373
 20
132.5567408502
 11
73.4718128373
 21
132.8398771162
  0
LINE
  5
31F
100
AcDbEntity
  8
KONSTRUKTIONSELEMENTE
100
AcDbLine
 62
7
  6
CONTINUOUS
 10
73.7334340322
 20
132.0245109848
 11
73.7334340322
 21
132.3076472508
  0
LINE
  5
320
100
AcDbEntity
  8
KONSTRUKTIONSELEMENTE
100
AcDbLine
 62
7
  6
CONTINUOUS
 10
73.8201828882
 20
132.5982267273
 11
73.8201828882
 21
132.8109516708
  0
LINE
  5
321
100
AcDbEntity
  8
KONSTRUKTIONSELEMENTE
100
AcDbLine
 62
7
  6
CONTINUOUS
 10
74.147407936
 20
130.5182200267
 11
74.147407936
 21
130.8013562927
  0
LINE
  5
322
100
AcDbEntity
  8
KONSTRUKTIONSELEMENTE
100
AcDbLine
 62
7
  6
CONTINUOUS
 10
74.3242361051
 20
130.7533103719
 11
74.3242361051
 21
131.0364466379
  0
LINE
  5
323
100
AcDbEntity
  8
KONSTRUKTIONSELEMENTE
100
AcDbLine
 62
7
  6
CONTINUOUS
 10
74.542780789
 20
135.0356227643
 11
74.542780789
 21
135.3187590304
  0
LINE
  5
324
100
AcDbEntity
  8
KONSTRUKTIONSELEMENTE
100
AcDbLine
 62
7
  6
CONTINUOUS
 10
74.8272966554
 20
132.8822731747
 11
74.8272966554
 21
133.1654094407
  0
LINE
  5
325
100
AcDbEntity
  8
KONSTRUKTIONSELEMENTE
100
AcDbLine
 62
7
  6
CONTINUOUS
 10
75.0610201147
 20
131.7256460414
 11
75.0610201147
 21
132.0087823075
  0
LINE
  5
326
100
AcDbEntity
  8
KONSTRUKTIONSELEMENTE
100
AcDbLine
 62
7
  6
CONTINUOUS
 10
75.0860319349
 20
132.7296051705
 11
75.0860319349
 21
133.0127414365
  0
LINE
  5
327
100
AcDbEntity
  8
KONSTRUKTIONSELEMENTE
100
AcDbLine
 62
7
  6
CONTINUOUS
 10
75.2673197015
 20
131.9958166214
 11
75.2673197015
 21
132.2789528874
  0
LINE
  5
328
100
AcDbEntity
  8
KONSTRUKTIONSELEMENTE
100
AcDbLine
 62
7
  6
CONTINUOUS
 10
75.3367652246
 20
132.6477011406
 11
75.3367652246
 21
132.9308374066
  0
LINE
  5
329
100
AcDbEntity
  8
KONSTRUKTIONSELEMENTE
100
AcDbLine
 62
7
  6
CONTINUOUS
 10
75.5088610221
 20
135.8098385087
 11
75.5088610221
 21
136.0929747748
  0
LINE
  5
32A
100
AcDbEntity
  8
KONSTRUKTIONSELEMENTE
100
AcDbLine
 62
7
  6
CONTINUOUS
 10
75.6604067513
 20
132.632682379
 11
75.6604067513
 21
132.915818645
  0
LINE
  5
32B
100
AcDbEntity
  8
KONSTRUKTIONSELEMENTE
100
AcDbLine
 62
7
  6
CONTINUOUS
 10
75.8951360841
 20
132.6918699924
 11
75.8951360841
 21
132.9750062584
  0
LINE
  5
32C
100
AcDbEntity
  8
KONSTRUKTIONSELEMENTE
100
AcDbLine
 62
7
  6
CONTINUOUS
 10
75.9209231557
 20
133.8812839397
 11
75.9209231557
 21
134.1644202057
  0
LINE
  5
32D
100
AcDbEntity
  8
KONSTRUKTIONSELEMENTE
100
AcDbLine
 62
7
  6
CONTINUOUS
 10
76.0622936704
 20
133.6992867392
 11
76.0622936704
 21
133.9824230052
  0
LINE
  5
32E
100
AcDbEntity
  8
KONSTRUKTIONSELEMENTE
100
AcDbLine
 62
7
  6
CONTINUOUS
 10
76.1218632838
 20
132.8212988407
 11
76.1218632838
 21
133.1044351067
  0
LINE
  5
32F
100
AcDbEntity
  8
KONSTRUKTIONSELEMENTE
100
AcDbLine
 62
7
  6
CONTINUOUS
 10
76.2378612918
 20
103.6297130438
 11
76.2378612918
 21
107.0792134825
  0
LINE
  5
330
100
AcDbEntity
  8
KONSTRUKTIONSELEMENTE
100
AcDbLine
 62
7
  6
CONTINUOUS
 10
76.2676802061
 20
132.9542937504
 11
76.2676802061
 21
133.2374300164
  0
LINE
  5
331
100
AcDbEntity
  8
KONSTRUKTIONSELEMENTE
100
AcDbLine
 62
7
  6
CONTINUOUS
 10
76.4054949993
 20
133.1573518909
 11
76.4054949993
 21
133.4404881569
  0
LINE
  5
332
100
AcDbEntity
  8
KONSTRUKTIONSELEMENTE
100
AcDbLine
 62
7
  6
CONTINUOUS
 10
76.4623995113
 20
133.3641540968
 11
76.4623995113
 21
133.6472903628
  0
LINE
  5
333
100
AcDbEntity
  8
KONSTRUKTIONSELEMENTE
100
AcDbLine
 62
7
  6
CONTINUOUS
 10
76.7368366565
 20
136.1802173531
 11
76.7368366565
 21
136.4633536192
  0
LINE
  5
334
100
AcDbEntity
  8
KONSTRUKTIONSELEMENTE
100
AcDbLine
 62
7
  6
CONTINUOUS
 10
76.9414991006
 20
136.2410938908
 11
76.9414991006
 21
136.5242301568
  0
LINE
  5
335
100
AcDbEntity
  8
KONSTRUKTIONSELEMENTE
100
AcDbLine
 62
7
  6
CONTINUOUS
 10
76.9704265954
 20
87.9581126135
 11
76.9704265954
 21
92.5300233874
  0
LINE
  5
336
100
AcDbEntity
  8
KONSTRUKTIONSELEMENTE
100
AcDbLine
 62
7
  6
CONTINUOUS
 10
77.1390554304
 20
136.2313348403
 11
77.1390554304
 21
136.5144711063
  0
LINE
  5
337
100
AcDbEntity
  8
KONSTRUKTIONSELEMENTE
100
AcDbLine
 62
7
  6
CONTINUOUS
 10
77.165493739
 20
133.7318602317
 11
77.165493739
 21
134.0149964977
  0
LINE
  5
338
100
AcDbEntity
  8
KONSTRUKTIONSELEMENTE
100
AcDbLine
 62
7
  6
CONTINUOUS
 10
77.3295057446
 20
136.1510747202
 11
77.3295057446
 21
136.4342109862
  0
LINE
  5
339
100
AcDbEntity
  8
KONSTRUKTIONSELEMENTE
100
AcDbLine
 62
7
  6
CONTINUOUS
 10
77.512849361
 20
136.0004070977
 11
77.512849361
 21
136.2835433637
  0
LINE
  5
33A
100
AcDbEntity
  8
KONSTRUKTIONSELEMENTE
100
AcDbLine
 62
7
  6
CONTINUOUS
 10
78.0415619166
 20
135.3373396926
 11
78.0415619166
 21
135.6204759587
  0
LINE
  5
33B
100
AcDbEntity
  8
KONSTRUKTIONSELEMENTE
100
AcDbLine
 62
7
  6
CONTINUOUS
 10
78.1401983034
 20
135.1705473329
 11
78.1401983034
 21
135.4175307943
  0
LINE
  5
33C
100
AcDbEntity
  8
KONSTRUKTIONSELEMENTE
100
AcDbLine
 62
7
  6
CONTINUOUS
 10
78.1819843708
 20
134.3681101456
 11
78.1819843708
 21
134.6512464116
  0
LINE
  5
33D
100
AcDbEntity
  8
KONSTRUKTIONSELEMENTE
100
AcDbLine
 62
7
  6
CONTINUOUS
 10
78.3585059105
 20
134.5435132962
 11
78.3585059105
 21
134.8266495622
  0
LINE
  5
33E
100
AcDbEntity
  8
KONSTRUKTIONSELEMENTE
100
AcDbLine
 62
7
  6
CONTINUOUS
 10
78.4574258442
 20
134.7365539769
 11
78.4574258442
 21
135.0196902429
  0
LINE
  5
33F
100
AcDbEntity
  8
0
100
AcDbLine
 62
7
  6
CONTINUOUS
 10
78.4704265954
 20
245.3963603904
 11
78.4704265954
 21
122.5198648366
  0
LINE
  5
340
100
AcDbEntity
  8
KONSTRUKTIONSELEMENTE
100
AcDbLine
 62
7
  6
CONTINUOUS
 10
81.0404265954
 20
54.968882129
 11
81.0404265954
 21
50.618882129
  0
LINE
  5
341
100
AcDbEntity
  8
0
100
AcDbLine
 62
7
  6
CONTINUOUS
 10
81.4704265954
 20
103.0939328083
 11
81.4704265954
 21
93.7891680085
  0
LINE
  5
342
100
AcDbEntity
  8
KONSTRUKTIONSELEMENTE
100
AcDbLine
 62
7
  6
CONTINUOUS
 10
81.4704265954
 20
87.9581126135
 11
81.4704265954
 21
93.7890584356
  0
LINE
  5
343
100
AcDbEntity
  8
KONSTRUKTIONSELEMENTE
100
AcDbLine
 62
7
  6
CONTINUOUS
 10
81.4704265954
 20
103.0939328083
 11
81.4704265954
 21
111.1218823093
  0
LINE
  5
344
100
AcDbEntity
  8
KONSTRUKTIONSELEMENTE
100
AcDbLine
 62
7
  6
CONTINUOUS
 10
82.2404265954
 20
49.9090745078
 11
82.2404265954
 21
54.7090745078
  0
LINE
  5
345
100
AcDbEntity
  8
KONSTRUKTIONSELEMENTE
100
AcDbLine
 62
7
  6
CONTINUOUS
 10
82.4704265954
 20
90.3331126135
 11
82.4704265954
 21
74.5831126135
  0
LINE
  5
346
100
AcDbEntity
  8
KONSTRUKTIONSELEMENTE
100
AcDbLine
 62
7
  6
CONTINUOUS
 10
82.7204265954
 20
93.2573046606
 11
82.7204265954
 21
97.379077911
  0
LINE
  5
347
100
AcDbEntity
  8
KONSTRUKTIONSELEMENTE
100
AcDbLine
 62
7
  6
CONTINUOUS
 10
82.7204265954
 20
104.579077911
 11
82.7204265954
 21
107.8245466741
  0
LINE
  5
348
100
AcDbEntity
  8
KONSTRUKTIONSELEMENTE
100
AcDbLine
 62
7
  6
CONTINUOUS
 10
87.2204265954
 20
93.2573046606
 11
87.2204265954
 21
97.379077911
  0
LINE
  5
349
100
AcDbEntity
  8
KONSTRUKTIONSELEMENTE
100
AcDbLine
 62
7
  6
CONTINUOUS
 10
87.2204265954
 20
104.579077911
 11
87.2204265954
 21
107.8245466741
  0
LINE
  5
34A
100
AcDbEntity
  8
KONSTRUKTIONSELEMENTE
100
AcDbLine
 62
7
  6
CONTINUOUS
 10
87.4704265954
 20
90.3331126135
 11
87.4704265954
 21
74.5831126135
  0
LINE
  5
34B
100
AcDbEntity
  8
KONSTRUKTIONSELEMENTE
100
AcDbLine
 62
7
  6
CONTINUOUS
 10
87.7004265954
 20
49.9090745078
 11
87.7004265954
 21
54.7090745078
  0
LINE
  5
34C
100
AcDbEntity
  8
KONSTRUKTIONSELEMENTE
100
AcDbLine
 62
7
  6
CONTINUOUS
 10
88.4704265954
 20
93.7891680085
 11
88.4704265954
 21
87.9581126135
  0
LINE
  5
34D
100
AcDbEntity
  8
0
100
AcDbLine
 62
7
  6
CONTINUOUS
 10
88.4704265954
 20
93.7891680085
 11
88.4704265954
 21
103.0939328083
  0
LINE
  5
34E
100
AcDbEntity
  8
KONSTRUKTIONSELEMENTE
100
AcDbLine
 62
7
  6
CONTINUOUS
 10
88.4704265954
 20
103.0939328083
 11
88.4704265954
 21
111.1218823093
  0
LINE
  5
34F
100
AcDbEntity
  8
KONSTRUKTIONSELEMENTE
100
AcDbLine
 62
7
  6
CONTINUOUS
 10
88.9004265954
 20
50.618882129
 11
88.9004265954
 21
54.968882129
  0
LINE
  5
350
100
AcDbEntity
  8
0
100
AcDbLine
 62
7
  6
CONTINUOUS
 10
91.4704265954
 20
245.3963603904
 11
91.4704265954
 21
122.5198648366
  0
LINE
  5
351
100
AcDbEntity
  8
KONSTRUKTIONSELEMENTE
100
AcDbLine
 62
7
  6
CONTINUOUS
 10
91.962986418
 20
135.6177547883
 11
91.962986418
 21
135.9008910543
  0
LINE
  5
352
100
AcDbEntity
  8
KONSTRUKTIONSELEMENTE
100
AcDbLine
 62
7
  6
CONTINUOUS
 10
92.3050197045
 20
134.0346549249
 11
92.3050197045
 21
134.3177911909
  0
LINE
  5
353
100
AcDbEntity
  8
KONSTRUKTIONSELEMENTE
100
AcDbLine
 62
7
  6
CONTINUOUS
 10
92.6040007343
 20
133.8517065801
 11
92.6040007343
 21
134.1348428462
  0
LINE
  5
354
100
AcDbEntity
  8
KONSTRUKTIONSELEMENTE
100
AcDbLine
 62
7
  6
CONTINUOUS
 10
92.688737217
 20
136.554885513
 11
92.688737217
 21
136.838021779
  0
LINE
  5
355
100
AcDbEntity
  8
KONSTRUKTIONSELEMENTE
100
AcDbLine
 62
7
  6
CONTINUOUS
 10
92.9704265954
 20
92.5300233874
 11
92.9704265954
 21
87.9581126135
  0
LINE
  5
356
100
AcDbEntity
  8
KONSTRUKTIONSELEMENTE
100
AcDbLine
 62
7
  6
CONTINUOUS
 10
93.0144681424
 20
135.1130997187
 11
93.0144681424
 21
135.3962359847
  0
LINE
  5
357
100
AcDbEntity
  8
KONSTRUKTIONSELEMENTE
100
AcDbLine
 62
7
  6
CONTINUOUS
 10
93.2544321631
 20
135.098164746
 11
93.2544321631
 21
135.381301012
  0
LINE
  5
358
100
AcDbEntity
  8
KONSTRUKTIONSELEMENTE
100
AcDbLine
 62
7
  6
CONTINUOUS
 10
93.3188187587
 20
133.4994129188
 11
93.3188187587
 21
133.7825491848
  0
LINE
  5
359
100
AcDbEntity
  8
KONSTRUKTIONSELEMENTE
100
AcDbLine
 62
7
  6
CONTINUOUS
 10
93.3782504313
 20
133.2933125042
 11
93.3782504313
 21
133.5764487702
  0
LINE
  5
35A
100
AcDbEntity
  8
KONSTRUKTIONSELEMENTE
100
AcDbLine
 62
7
  6
CONTINUOUS
 10
93.5002529654
 20
136.0648138581
 11
93.5002529654
 21
136.3479501241
  0
LINE
  5
35B
100
AcDbEntity
  8
KONSTRUKTIONSELEMENTE
100
AcDbLine
 62
7
  6
CONTINUOUS
 10
93.5184757483
 20
133.0918107603
 11
93.5184757483
 21
133.3749470263
  0
LINE
  5
35C
100
AcDbEntity
  8
KONSTRUKTIONSELEMENTE
100
AcDbLine
 62
7
  6
CONTINUOUS
 10
93.5208045605
 20
135.1983749476
 11
93.5208045605
 21
135.4815112136
  0
LINE
  5
35D
100
AcDbEntity
  8
KONSTRUKTIONSELEMENTE
100
AcDbLine
 62
7
  6
CONTINUOUS
 10
93.5938275766
 20
136.0414331948
 11
93.5938275766
 21
136.2254413802
  0
LINE
  5
35E
100
AcDbEntity
  8
KONSTRUKTIONSELEMENTE
100
AcDbLine
 62
7
  6
CONTINUOUS
 10
93.66719397
 20
135.3061367499
 11
93.66719397
 21
135.5892730159
  0
LINE
  5
35F
100
AcDbEntity
  8
KONSTRUKTIONSELEMENTE
100
AcDbLine
 62
7
  6
CONTINUOUS
 10
93.7029918989
 20
103.6297130438
 11
93.7029918989
 21
107.0792134825
  0
LINE
  5
360
100
AcDbEntity
  8
KONSTRUKTIONSELEMENTE
100
AcDbLine
 62
7
  6
CONTINUOUS
 10
93.7144255101
 20
133.8386185619
 11
93.7144255101
 21
134.1217548279
  0
LINE
  5
361
100
AcDbEntity
  8
KONSTRUKTIONSELEMENTE
100
AcDbLine
 62
7
  6
CONTINUOUS
 10
93.8054322958
 20
135.4846585962
 11
93.8054322958
 21
135.7677948622
  0
LINE
  5
362
100
AcDbEntity
  8
KONSTRUKTIONSELEMENTE
100
AcDbLine
 62
7
  6
CONTINUOUS
 10
93.850001655
 20
132.7957694783
 11
93.850001655
 21
133.0789057443
  0
LINE
  5
363
100
AcDbEntity
  8
KONSTRUKTIONSELEMENTE
100
AcDbLine
 62
7
  6
CONTINUOUS
 10
93.8534133765
 20
134.0220268875
 11
93.8534133765
 21
134.3051631535
  0
LINE
  5
364
100
AcDbEntity
  8
KONSTRUKTIONSELEMENTE
100
AcDbLine
 62
7
  6
CONTINUOUS
 10
93.8664002297
 20
135.6446674531
 11
93.8664002297
 21
135.9278037191
  0
LINE
  5
365
100
AcDbEntity
  8
KONSTRUKTIONSELEMENTE
100
AcDbLine
 62
7
  6
CONTINUOUS
 10
93.8765042903
 20
135.901433985
 11
93.8765042903
 21
136.184570251
  0
LINE
  5
366
100
AcDbEntity
  8
KONSTRUKTIONSELEMENTE
100
AcDbLine
 62
7
  6
CONTINUOUS
 10
94.0781378946
 20
132.6683389568
 11
94.0781378946
 21
132.9514752228
  0
LINE
  5
367
100
AcDbEntity
  8
KONSTRUKTIONSELEMENTE
100
AcDbLine
 62
7
  6
CONTINUOUS
 10
94.3133964789
 20
132.6112972353
 11
94.3133964789
 21
132.8944335013
  0
LINE
  5
368
100
AcDbEntity
  8
KONSTRUKTIONSELEMENTE
100
AcDbLine
 62
7
  6
CONTINUOUS
 10
94.5127579469
 20
134.5873700457
 11
94.5127579469
 21
134.8705063117
  0
LINE
  5
369
100
AcDbEntity
  8
KONSTRUKTIONSELEMENTE
100
AcDbLine
 62
7
  6
CONTINUOUS
 10
94.636565982
 20
132.629381129
 11
94.636565982
 21
132.912517395
  0
LINE
  5
36A
100
AcDbEntity
  8
KONSTRUKTIONSELEMENTE
100
AcDbLine
 62
7
  6
CONTINUOUS
 10
94.6922904539
 20
133.5824094343
 11
94.6922904539
 21
133.8655457004
  0
LINE
  5
36B
100
AcDbEntity
  8
KONSTRUKTIONSELEMENTE
100
AcDbLine
 62
7
  6
CONTINUOUS
 10
94.7254204852
 20
134.705455755
 11
94.7254204852
 21
134.988592021
  0
LINE
  5
36C
100
AcDbEntity
  8
KONSTRUKTIONSELEMENTE
100
AcDbLine
 62
7
  6
CONTINUOUS
 10
94.8492268649
 20
132.7469618292
 11
94.8492268649
 21
133.0300980952
  0
LINE
  5
36D
100
AcDbEntity
  8
KONSTRUKTIONSELEMENTE
100
AcDbLine
 62
7
  6
CONTINUOUS
 10
94.9309608097
 20
134.7531301887
 11
94.9309608097
 21
135.0362664547
  0
LINE
  5
36E
100
AcDbEntity
  8
KONSTRUKTIONSELEMENTE
100
AcDbLine
 62
7
  6
CONTINUOUS
 10
95.1293820464
 20
134.7302965652
 11
95.1293820464
 21
135.0134328312
  0
LINE
  5
36F
100
AcDbEntity
  8
KONSTRUKTIONSELEMENTE
100
AcDbLine
 62
7
  6
CONTINUOUS
 10
95.3206843186
 20
134.6368202068
 11
95.3206843186
 21
134.9199564728
  0
LINE
  5
370
100
AcDbEntity
  8
KONSTRUKTIONSELEMENTE
100
AcDbLine
 62
7
  6
CONTINUOUS
 10
95.5085714353
 20
133.3124265059
 11
95.5085714353
 21
133.5955627719
  0
LINE
  5
371
100
AcDbEntity
  8
KONSTRUKTIONSELEMENTE
100
AcDbLine
 62
7
  6
CONTINUOUS
 10
95.6522102254
 20
134.3408077649
 11
95.6522102254
 21
134.6239440309
  0
LINE
  5
372
100
AcDbEntity
  8
KONSTRUKTIONSELEMENTE
100
AcDbLine
 62
7
  6
CONTINUOUS
 10
95.6831608694
 20
133.8505053352
 11
95.6831608694
 21
134.1336416012
  0
LINE
  5
373
100
AcDbEntity
  8
KONSTRUKTIONSELEMENTE
100
AcDbLine
 62
7
  6
CONTINUOUS
 10
95.7555982101
 20
134.2450387458
 11
95.7555982101
 21
134.454296695
  0
LINE
  5
374
100
AcDbEntity
  8
KONSTRUKTIONSELEMENTE
100
AcDbLine
 62
7
  6
CONTINUOUS
 10
95.9041781406
 20
133.6516914169
 11
95.9041781406
 21
133.9348276829
  0
LINE
  5
375
100
AcDbEntity
  8
KONSTRUKTIONSELEMENTE
100
AcDbLine
 62
7
  6
CONTINUOUS
 10
96.0871241169
 20
133.8733363097
 11
96.0871241169
 21
134.1564725757
  0
LINE
  5
376
100
AcDbEntity
  8
KONSTRUKTIONSELEMENTE
100
AcDbLine
 62
7
  6
CONTINUOUS
 10
96.1156050339
 20
134.1566141887
 11
96.1156050339
 21
134.4397504547
  0
LINE
  5
377
100
AcDbEntity
  8
KONSTRUKTIONSELEMENTE
100
AcDbLine
 62
7
  6
CONTINUOUS
 10
96.3095960948
 20
129.6946283478
 11
96.3095960948
 21
129.9777646138
  0
LINE
  5
378
100
AcDbEntity
  8
KONSTRUKTIONSELEMENTE
100
AcDbLine
 62
7
  6
CONTINUOUS
 10
96.35854398
 20
129.4590801729
 11
96.35854398
 21
129.742216439
  0
LINE
  5
379
100
AcDbEntity
  8
KONSTRUKTIONSELEMENTE
100
AcDbLine
 62
7
  6
CONTINUOUS
 10
96.4653999338
 20
129.2424898905
 11
96.4653999338
 21
129.5256261565
  0
LINE
  5
37A
100
AcDbEntity
  8
KONSTRUKTIONSELEMENTE
100
AcDbLine
 62
7
  6
CONTINUOUS
 10
96.6301629777
 20
129.0448602374
 11
96.6301629777
 21
129.3279965034
  0
LINE
  5
37B
100
AcDbEntity
  8
KONSTRUKTIONSELEMENTE
100
AcDbLine
 62
7
  6
CONTINUOUS
 10
96.6722031488
 20
129.9169396032
 11
96.6722031488
 21
130.2000758692
  0
LINE
  5
37C
100
AcDbEntity
  8
KONSTRUKTIONSELEMENTE
100
AcDbLine
 62
7
  6
CONTINUOUS
 10
96.8031818675
 20
130.0614855028
 11
96.8031818675
 21
130.3446217688
  0
LINE
  5
37D
100
AcDbEntity
  8
KONSTRUKTIONSELEMENTE
100
AcDbLine
 62
7
  6
CONTINUOUS
 10
96.9107392237
 20
128.8856395241
 11
96.9107392237
 21
129.1687757901
  0
LINE
  5
37E
100
AcDbEntity
  8
KONSTRUKTIONSELEMENTE
100
AcDbLine
 62
7
  6
CONTINUOUS
 10
96.9555323234
 20
130.1628790613
 11
96.9555323234
 21
130.4460153274
  0
LINE
  5
37F
100
AcDbEntity
  8
KONSTRUKTIONSELEMENTE
100
AcDbLine
 62
7
  6
CONTINUOUS
 10
97.1292535787
 20
130.2211670223
 11
97.1292535787
 21
130.5043032883
  0
LINE
  5
380
100
AcDbEntity
  8
KONSTRUKTIONSELEMENTE
100
AcDbLine
 62
7
  6
CONTINUOUS
 10
97.206480961
 20
128.8326596284
 11
97.206480961
 21
129.1157958945
  0
LINE
  5
381
100
AcDbEntity
  8
KONSTRUKTIONSELEMENTE
100
AcDbLine
 62
7
  6
CONTINUOUS
 10
97.3243457145
 20
130.2363410511
 11
97.3243457145
 21
130.5194773171
  0
LINE
  5
382
100
AcDbEntity
  8
KONSTRUKTIONSELEMENTE
100
AcDbLine
 62
7
  6
CONTINUOUS
 10
97.4829024619
 20
130.1889146749
 11
97.4829024619
 21
130.4720509409
  0
LINE
  5
383
100
AcDbEntity
  8
KONSTRUKTIONSELEMENTE
100
AcDbLine
 62
7
  6
CONTINUOUS
 10
97.5387590042
 20
128.8426201449
 11
97.5387590042
 21
129.1257564109
  0
LINE
  5
384
100
AcDbEntity
  8
KONSTRUKTIONSELEMENTE
100
AcDbLine
 62
7
  6
CONTINUOUS
 10
97.6628300087
 20
130.0982157601
 11
97.6628300087
 21
130.3813520261
  0
LINE
  5
385
100
AcDbEntity
  8
KONSTRUKTIONSELEMENTE
100
AcDbLine
 62
7
  6
CONTINUOUS
 10
97.6869537114
 20
130.644601553
 11
97.6869537114
 21
130.7416963224
  0
LINE
  5
386
100
AcDbEntity
  8
KONSTRUKTIONSELEMENTE
100
AcDbLine
 62
7
  6
CONTINUOUS
 10
97.7848504704
 20
129.9879380986
 11
97.7848504704
 21
130.2710743646
  0
LINE
  5
387
100
AcDbEntity
  8
KONSTRUKTIONSELEMENTE
100
AcDbLine
 62
7
  6
CONTINUOUS
 10
97.8282945108
 20
128.9398031336
 11
97.8282945108
 21
129.2229393996
  0
LINE
  5
388
100
AcDbEntity
  8
KONSTRUKTIONSELEMENTE
100
AcDbLine
 62
7
  6
CONTINUOUS
 10
98.0557670214
 20
130.5320284839
 11
98.0557670214
 21
130.8151647499
  0
LINE
  5
389
100
AcDbEntity
  8
KONSTRUKTIONSELEMENTE
100
AcDbLine
 62
7
  6
CONTINUOUS
 10
98.0750873592
 20
129.1241675673
 11
98.0750873592
 21
129.4073038333
  0
LINE
  5
38A
100
AcDbEntity
  8
KONSTRUKTIONSELEMENTE
100
AcDbLine
 62
7
  6
CONTINUOUS
 10
98.1846952379
 20
129.3131079772
 11
98.1846952379
 21
129.5962442432
  0
LINE
  5
38B
100
AcDbEntity
  8
KONSTRUKTIONSELEMENTE
100
AcDbLine
 62
7
  6
CONTINUOUS
 10
98.2508592384
 20
130.5471869644
 11
98.2508592384
 21
130.8303232304
  0
LINE
  5
38C
100
AcDbEntity
  8
KONSTRUKTIONSELEMENTE
100
AcDbLine
 62
7
  6
CONTINUOUS
 10
98.2515615177
 20
129.5887911877
 11
98.2515615177
 21
129.8719274538
  0
LINE
  5
38D
100
AcDbEntity
  8
KONSTRUKTIONSELEMENTE
100
AcDbLine
 62
7
  6
CONTINUOUS
 10
98.4673230709
 20
130.5191627638
 11
98.4673230709
 21
130.8022990298
  0
LINE
  5
38E
100
AcDbEntity
  8
KONSTRUKTIONSELEMENTE
100
AcDbLine
 62
7
  6
CONTINUOUS
 10
98.6472506177
 20
130.4284363657
 11
98.6472506177
 21
130.7115726317
  0
LINE
  5
38F
100
AcDbEntity
  8
KONSTRUKTIONSELEMENTE
100
AcDbLine
 62
7
  6
CONTINUOUS
 10
98.7210246523
 20
129.5943963373
 11
98.7210246523
 21
129.8775326033
  0
LINE
  5
390
100
AcDbEntity
  8
KONSTRUKTIONSELEMENTE
100
AcDbLine
 62
7
  6
CONTINUOUS
 10
98.7692710794
 20
130.3181426653
 11
98.7692710794
 21
130.6012789313
  0
LINE
  5
391
100
AcDbEntity
  8
KONSTRUKTIONSELEMENTE
100
AcDbLine
 62
7
  6
CONTINUOUS
 10
98.8278796277
 20
129.3767916565
 11
98.8278796277
 21
129.6599279225
  0
LINE
  5
392
100
AcDbEntity
  8
KONSTRUKTIONSELEMENTE
100
AcDbLine
 62
7
  6
CONTINUOUS
 10
98.9802300836
 20
129.4786365313
 11
98.9802300836
 21
129.7617727973
  0
LINE
  5
393
100
AcDbEntity
  8
KONSTRUKTIONSELEMENTE
100
AcDbLine
 62
7
  6
CONTINUOUS
 10
99.1477450474
 20
129.6869046346
 11
99.1477450474
 21
129.9700409006
  0
LINE
  5
394
100
AcDbEntity
  8
KONSTRUKTIONSELEMENTE
100
AcDbLine
 62
7
  6
CONTINUOUS
 10
99.214610349
 20
129.9624500494
 11
99.214610349
 21
130.2455863154
  0
LINE
  5
395
100
AcDbEntity
  8
0
100
AcDbLine
 62
7
  6
CONTINUOUS
 10
99.9704265954
 20
97.9046888414
 11
99.9704265954
 21
98.629846359
  0
LINE
  5
396
100
AcDbEntity
  8
0
100
AcDbLine
 62
7
  6
CONTINUOUS
 10
99.9704265954
 20
103.328309463
 11
99.9704265954
 21
103.8390703424
  0
LINE
  5
397
100
AcDbEntity
  8
0
100
AcDbLine
 62
7
  6
CONTINUOUS
 10
100.8211960905
 20
106.2563584825
 11
100.8211960905
 21
107.3801235796
  0
LINE
  5
398
100
AcDbEntity
  8
0
100
AcDbLine
 62
7
  6
CONTINUOUS
 10
99.9704265954
 20
97.9046888414
 11
99.9683708168
 21
97.8195046549
  0
LINE
  5
399
100
AcDbEntity
  8
0
100
AcDbLine
 62
7
  6
CONTINUOUS
 10
99.9473107516
 20
97.3832430053
 11
99.8709288639
 21
95.8010530806
  0
LINE
  5
39A
100
AcDbEntity
  8
0
100
AcDbLine
 62
7
  6
CONTINUOUS
 10
99.9474280553
 20
97.3856728581
 11
99.9683688826
 21
97.8194454033
  0
LINE
  5
39B
100
AcDbEntity
  8
0
100
AcDbLine
 62
7
  6
CONTINUOUS
 10
103.4704265954
 20
117.0762651906
 11
103.4704265954
 21
129.4165846175
  0
LINE
  5
39C
100
AcDbEntity
  8
KONSTRUKTIONSELEMENTE
100
AcDbLine
 62
7
  6
CONTINUOUS
 10
104.1242641291
 20
59.3035843153
 11
104.1242641291
 21
56.7055081039
  0
LINE
  5
39D
100
AcDbEntity
  8
RUNDUNGEN
100
AcDbLine
 62
7
  6
CONTINUOUS
 10
101.4091153451
 20
109.736244832
 11
103.4704265954
 21
118.1263091435
  0
LINE
  5
39E
100
AcDbEntity
  8
0
100
AcDbLine
 62
7
  6
CONTINUOUS
 10
101.4091153451
 20
108.6862008791
 11
103.4704265954
 21
117.0762651906
  0
LINE
  5
39F
100
AcDbEntity
  8
RUNDUNGEN
100
AcDbLine
 62
7
  6
CONTINUOUS
 10
90.0100825983
 20
117.6879907786
 11
90.0102764102
 21
117.6881293086
  0
LINE
  5
3A0
100
AcDbEntity
  8
KONSTRUKTIONSELEMENTE
100
AcDbLine
 62
7
  6
CONTINUOUS
 10
118.0090645157
 20
74.4687279031
 11
118.0090645157
 21
71.8706516917
  0
LWPOLYLINE
  5
3A1
100
AcDbEntity
  8
RUNDUNGEN
100
AcDbPolyline
 62
7
  6
CONTINUOUS
 90
4
 70
0
 10
90.010633603
 20
117.6883731496
 10
90.0059337763
 20
117.6855583711
 10
89.9922684719
 20
117.6788098497
 10
89.9796085582
 20
117.6737270099
  0
LINE
  5
3A2
100
AcDbEntity
  8
RUNDUNGEN
100
AcDbLine
 62
7
  6
CONTINUOUS
 10
89.9797291868
 20
117.6737680339
 11
89.9799022181
 21
117.6738310605
  0
LWPOLYLINE
  5
3A3
100
AcDbEntity
  8
KONSTRUKTIONSELEMENTE
100
AcDbPolyline
 62
7
  6
CONTINUOUS
 90
28
 70
0
 10
89.979468965
 20
117.6736731498
 10
89.7123096028
 20
117.5801444319
 10
89.3995604762
 20
117.4799508586
 10
89.0762222078
 20
117.3860349146
 10
88.7421257634
 20
117.2985355352
 10
88.3980660277
 20
117.2178803361
 10
88.0438377034
 20
117.1442675377
 10
87.6805358014
 20
117.0781842957
 10
87.308969438
 20
117.0200113868
 10
86.9300407703
 20
116.9701075072
 10
86.5449784717
 20
116.928822957
 10
86.1546921345
 20
116.8964166155
 10
85.7605734016
 20
116.873135039
 10
85.3637000365
 20
116.8591383369
 10
84.9654289648
 20
116.8545389158
 10
84.5672252606
 20
116.8593736473
 10
84.1705503352
 20
116.8735967707
 10
83.7767471616
 20
116.8970880768
 10
83.3868804921
 20
116.929680911
 10
83.0023028308
 20
116.9711261394
 10
82.6238955068
 20
117.0211646056
 10
82.2528512273
 20
117.0794494111
 10
81.8900456658
 20
117.1456270262
 10
81.5362715755
 20
117.2193222657
 10
81.1926043634
 20
117.300055959
 10
80.8588633619
 20
117.3876285614
 10
80.53584929
 20
117.4816138043
 10
80.2234297948
 20
117.5818637505
  0
LINE
  5
3A4
100
AcDbEntity
  8
KONSTRUKTIONSELEMENTE
100
AcDbLine
 62
7
  6
CONTINUOUS
 10
89.7174233959
 20
117.5818637505
 11
89.7149939423
 21
117.5810841813
  0
LINE
  5
3A5
100
AcDbEntity
  8
0
100
AcDbLine
 62
7
  6
CONTINUOUS
 10
99.0649445858
 20
94.2847558275
 11
99.1750718878
 21
94.3791800725
  0
LINE
  5
3A6
100
AcDbEntity
  8
0
100
AcDbLine
 62
7
  6
CONTINUOUS
 10
98.7624109719
 20
94.0307251319
 11
99.0650032885
 21
94.2848063354
  0
LINE
  5
3A7
100
AcDbEntity
  8
0
100
AcDbLine
 62
7
  6
CONTINUOUS
 10
98.4380605592
 20
93.7712288288
 11
98.7658006395
 21
94.0335097149
  0
LINE
  5
3A8
100
AcDbEntity
  8
0
100
AcDbLine
 62
7
  6
CONTINUOUS
 10
98.1389617531
 20
93.5452464754
 11
98.4407659812
 21
93.7733340836
  0
LINE
  5
3A9
100
AcDbEntity
  8
0
100
AcDbLine
 62
7
  6
CONTINUOUS
 10
97.8592177473
 20
93.3470603758
 11
98.1410963713
 21
93.5468098294
  0
LWPOLYLINE
  5
3AA
100
AcDbEntity
  8
0
100
AcDbPolyline
 62
7
  6
CONTINUOUS
 90
5
 70
0
 10
96.846818039
 20
92.7680675026
 10
97.0921387533
 20
92.8849254891
 10
97.3407331406
 20
93.0198666344
 10
97.5953133529
 20
93.1734151149
 10
97.8608680092
 20
93.3481887119
  0
LINE
  5
3AB
100
AcDbEntity
  8
KONSTRUKTIONSELEMENTE
100
AcDbLine
 62
7
  6
CONTINUOUS
 10
99.031165872
 20
59.7073179081
 11
109.5543605894
 21
70.9908498567
  0
LINE
  5
3AC
100
AcDbEntity
  8
KONSTRUKTIONSELEMENTE
100
AcDbLine
 62
7
  6
CONTINUOUS
 10
103.9716619708
 20
56.4864562461
 11
104.0774180226
 21
56.5998535385
  0
LINE
  5
3AD
100
AcDbEntity
  8
KONSTRUKTIONSELEMENTE
100
AcDbLine
 62
7
  6
CONTINUOUS
 10
117.4744169198
 20
70.964831963
 11
117.7279878768
 21
71.2367242991
  0
ARC
  5
3AE
100
AcDbEntity
  8
KONSTRUKTIONSELEMENTE
100
AcDbCircle
 62
7
  6
CONTINUOUS
 10
232.555925102
 20
51.6385604469
 40
156.2164977873
100
AcDbArc
 50
32.259428145
 51
32.3814667239
  0
ARC
  5
3AF
100
AcDbEntity
  8
KONSTRUKTIONSELEMENTE
100
AcDbCircle
 62
7
  6
CONTINUOUS
 10
236.2646466855
 20
52.4657026463
 40
152.3298785933
100
AcDbArc
 50
32.2038268713
 51
32.3288252543
  0
ARC
  5
3B0
100
AcDbEntity
  8
KONSTRUKTIONSELEMENTE
100
AcDbCircle
 62
7
  6
CONTINUOUS
 10
222.7499576067
 20
84.5831126135
 40
8.25
100
AcDbArc
 50
45.8421444573
 51
120.0
  0
ARC
  5
3B1
100
AcDbEntity
  8
KONSTRUKTIONSELEMENTE
100
AcDbCircle
 62
7
  6
CONTINUOUS
 10
222.7499576067
 20
84.5831126135
 40
8.25
100
AcDbArc
 50
300.0
 51
14.1578555427
  0
ARC
  5
3B2
100
AcDbEntity
  8
KONSTRUKTIONSELEMENTE
100
AcDbCircle
 62
7
  6
CONTINUOUS
 10
215.3887416745
 20
80.3331126135
 40
8.25
100
AcDbArc
 50
220.4985296401
 51
300.0
  0
ARC
  5
3B3
100
AcDbEntity
  8
KONSTRUKTIONSELEMENTE
100
AcDbCircle
 62
7
  6
CONTINUOUS
 10
215.3887416745
 20
80.3331126135
 40
8.25
100
AcDbArc
 50
120.0
 51
199.5014703599
  0
ARC
  5
3B4
100
AcDbEntity
  8
KONSTRUKTIONSELEMENTE
100
AcDbCircle
 62
7
  6
CONTINUOUS
 10
222.7499576067
 20
84.5831126135
 40
3.25
100
AcDbArc
 50
73.8837571799
 51
120.0
  0
ARC
  5
3B5
100
AcDbEntity
  8
KONSTRUKTIONSELEMENTE
100
AcDbCircle
 62
7
  6
CONTINUOUS
 10
222.7499576067
 20
84.5831126135
 40
3.25
100
AcDbArc
 50
300.0
 51
346.1162428201
  0
ARC
  5
3B6
100
AcDbEntity
  8
KONSTRUKTIONSELEMENTE
100
AcDbCircle
 62
7
  6
CONTINUOUS
 10
215.3887416745
 20
80.3331126135
 40
3.25
100
AcDbArc
 50
237.5077303474
 51
300.0
  0
ARC
  5
3B7
100
AcDbEntity
  8
KONSTRUKTIONSELEMENTE
100
AcDbCircle
 62
7
  6
CONTINUOUS
 10
215.3887416745
 20
80.3331126135
 40
3.25
100
AcDbArc
 50
120.0
 51
182.4922696526
  0
ARC
  5
3B8
100
AcDbEntity
  8
KONSTRUKTIONSELEMENTE
100
AcDbCircle
 62
7
  6
CONTINUOUS
 10
223.6159830105
 20
85.0831126135
 40
2.25
100
AcDbArc
 50
120.0
 51
300.0
  0
ARC
  5
3B9
100
AcDbEntity
  8
KONSTRUKTIONSELEMENTE
100
AcDbCircle
 62
7
  6
CONTINUOUS
 10
247.6481879655
 20
98.9581126135
 40
8.0
100
AcDbArc
 50
120.0
 51
193.6357041722
  0
ARC
  5
3BA
100
AcDbEntity
  8
KONSTRUKTIONSELEMENTE
100
AcDbCircle
 62
7
  6
CONTINUOUS
 10
247.6481879655
 20
98.9581126135
 40
8.0
100
AcDbArc
 50
226.3642958278
 51
300.0
  0
ARC
  5
3BB
100
AcDbEntity
  8
KONSTRUKTIONSELEMENTE
100
AcDbCircle
 62
7
  6
CONTINUOUS
 10
260.6385690223
 20
106.4581126135
 40
8.0
100
AcDbArc
 50
300.0
 51
13.6357041722
  0
ARC
  5
3BC
100
AcDbEntity
  8
KONSTRUKTIONSELEMENTE
100
AcDbCircle
 62
7
  6
CONTINUOUS
 10
260.6385690223
 20
106.4581126135
 40
8.0
100
AcDbArc
 50
46.3642958278
 51
120.0
  0
ARC
  5
3BD
100
AcDbEntity
  8
KONSTRUKTIONSELEMENTE
100
AcDbCircle
 62
7
  6
CONTINUOUS
 10
247.6481879655
 20
98.9581126135
 40
3.5
100
AcDbArc
 50
120.0
 51
169.8461224921
  0
ARC
  5
3BE
100
AcDbEntity
  8
KONSTRUKTIONSELEMENTE
100
AcDbCircle
 62
7
  6
CONTINUOUS
 10
247.6481879655
 20
98.9581126135
 40
3.5
100
AcDbArc
 50
250.1538775079
 51
300.0
  0
ARC
  5
3BF
100
AcDbEntity
  8
KONSTRUKTIONSELEMENTE
100
AcDbCircle
 62
7
  6
CONTINUOUS
 10
260.6385690223
 20
106.4581126135
 40
3.5
100
AcDbArc
 50
300.0
 51
349.8461224921
  0
ARC
  5
3C0
100
AcDbEntity
  8
KONSTRUKTIONSELEMENTE
100
AcDbCircle
 62
7
  6
CONTINUOUS
 10
260.6385690223
 20
106.4581126135
 40
3.5
100
AcDbArc
 50
70.1538775079
 51
120.0
  0
ARC
  5
3C1
100
AcDbEntity
  8
KONSTRUKTIONSELEMENTE
100
AcDbCircle
 62
7
  6
CONTINUOUS
 10
246.5656562108
 20
98.3331126135
 40
2.25
100
AcDbArc
 50
300.0
 51
120.0
  0
ARC
  5
3C2
100
AcDbEntity
  8
KONSTRUKTIONSELEMENTE
100
AcDbCircle
 62
7
  6
CONTINUOUS
 10
261.721100777
 20
107.0831126135
 40
2.25
100
AcDbArc
 50
120.0
 51
300.0
  0
ARC
  5
3C3
100
AcDbEntity
  8
KONSTRUKTIONSELEMENTE
100
AcDbCircle
 62
7
  6
CONTINUOUS
 10
311.7342103758
 20
44.874391267
 40
102.5502297585
100
AcDbArc
 50
58.1763642059
 51
58.4944520674
  0
ARC
  5
3C4
100
AcDbEntity
  8
KONSTRUKTIONSELEMENTE
100
AcDbCircle
 62
7
  6
CONTINUOUS
 10
323.2206833314
 20
63.1362665918
 40
81.1518752256
100
AcDbArc
 50
58.4316091382
 51
58.8648628016
  0
ARC
  5
3C5
100
AcDbEntity
  8
KONSTRUKTIONSELEMENTE
100
AcDbCircle
 62
7
  6
CONTINUOUS
 10
285.9329184228
 20
87.9066028863
 40
91.4192289095
100
AcDbArc
 50
30.0105248713
 51
30.136404498
  0
ARC
  5
3C6
100
AcDbEntity
  8
KONSTRUKTIONSELEMENTE
100
AcDbCircle
 62
7
  6
CONTINUOUS
 10
290.0167905377
 20
91.2042604142
 40
86.5010285451
100
AcDbArc
 50
30.4683288087
 51
30.5967339199
  0
ARC
  5
3C7
100
AcDbEntity
  8
KONSTRUKTIONSELEMENTE
100
AcDbCircle
 62
7
  6
CONTINUOUS
 10
294.0872442772
 20
93.962323938
 40
80.9138197651
100
AcDbArc
 50
28.5218904147
 51
28.6934694244
  0
ARC
  5
3C8
100
AcDbEntity
  8
KONSTRUKTIONSELEMENTE
100
AcDbCircle
 62
7
  6
CONTINUOUS
 10
305.0382799033
 20
100.555441921
 40
68.6483140227
100
AcDbArc
 50
28.784467693
 51
28.9153937282
  0
ARC
  5
3C9
100
AcDbEntity
  8
KONSTRUKTIONSELEMENTE
100
AcDbCircle
 62
7
  6
CONTINUOUS
 10
305.2587304807
 20
100.6490772431
 40
68.3886792718
100
AcDbArc
 50
28.6518340426
 51
28.8494546441
  0
ARC
  5
3CA
100
AcDbEntity
  8
KONSTRUKTIONSELEMENTE
100
AcDbCircle
 62
7
  6
CONTINUOUS
 10
308.7183153235
 20
104.6599142554
 40
62.9287720954
100
AcDbArc
 50
26.3176101955
 51
26.4652692258
  0
ARC
  5
3CB
100
AcDbEntity
  8
KONSTRUKTIONSELEMENTE
100
AcDbCircle
 62
7
  6
CONTINUOUS
 10
311.429810232
 20
104.8653201685
 40
61.1769249671
100
AcDbArc
 50
29.3240763522
 51
29.531652952
  0
ARC
  5
3CC
100
AcDbEntity
  8
KONSTRUKTIONSELEMENTE
100
AcDbCircle
 62
7
  6
CONTINUOUS
 10
292.8980153132
 20
125.0831126135
 40
8.25
100
AcDbArc
 50
51.346698243
 51
120.0
  0
ARC
  5
3CD
100
AcDbEntity
  8
KONSTRUKTIONSELEMENTE
100
AcDbCircle
 62
7
  6
CONTINUOUS
 10
292.8980153132
 20
125.0831126135
 40
8.25
100
AcDbArc
 50
300.0
 51
8.653301757
  0
ARC
  5
3CE
100
AcDbEntity
  8
KONSTRUKTIONSELEMENTE
100
AcDbCircle
 62
7
  6
CONTINUOUS
 10
285.5367993811
 20
120.8331126135
 40
8.25
100
AcDbArc
 50
225.8421444573
 51
300.0
  0
ARC
  5
3CF
100
AcDbEntity
  8
KONSTRUKTIONSELEMENTE
100
AcDbCircle
 62
7
  6
CONTINUOUS
 10
285.5367993811
 20
120.8331126135
 40
8.25
100
AcDbArc
 50
120.0
 51
194.1578555427
  0
ARC
  5
3D0
100
AcDbEntity
  8
KONSTRUKTIONSELEMENTE
100
AcDbCircle
 62
7
  6
CONTINUOUS
 10
292.8980153132
 20
125.0831126135
 40
3.25
100
AcDbArc
 50
97.8065550031
 51
120.0
  0
ARC
  5
3D1
100
AcDbEntity
  8
KONSTRUKTIONSELEMENTE
100
AcDbCircle
 62
7
  6
CONTINUOUS
 10
292.8980153132
 20
125.0831126135
 40
3.25
100
AcDbArc
 50
300.0
 51
322.1934449969
  0
ARC
  5
3D2
100
AcDbEntity
  8
KONSTRUKTIONSELEMENTE
100
AcDbCircle
 62
7
  6
CONTINUOUS
 10
285.5367993811
 20
120.8331126135
 40
3.25
100
AcDbArc
 50
253.8837571799
 51
300.0
  0
ARC
  5
3D3
100
AcDbEntity
  8
KONSTRUKTIONSELEMENTE
100
AcDbCircle
 62
7
  6
CONTINUOUS
 10
285.5367993811
 20
120.8331126135
 40
3.25
100
AcDbArc
 50
120.0
 51
166.1162428201
  0
ARC
  5
3D4
100
AcDbEntity
  8
KONSTRUKTIONSELEMENTE
100
AcDbCircle
 62
7
  6
CONTINUOUS
 10
292.6815089623
 20
124.9581126135
 40
3.0
100
AcDbArc
 50
120.0
 51
300.0
  0
ARC
  5
3D5
100
AcDbEntity
  8
KONSTRUKTIONSELEMENTE
100
AcDbCircle
 62
7
  6
CONTINUOUS
 10
284.6707739773
 20
120.3331126135
 40
2.25
100
AcDbArc
 50
300.0
 51
120.0
  0
ARC
  5
3D6
100
AcDbEntity
  8
0
100
AcDbCircle
 62
7
  6
CONTINUOUS
 10
330.4685935764
 20
100.979077911
 40
8.5
100
AcDbArc
 50
192.7790806681
 51
307.2209193319
  0
CIRCLE
  5
3D7
100
AcDbEntity
  8
0
100
AcDbCircle
 62
7
  6
CONTINUOUS
 10
330.4685935764
 20
100.979077911
 40
3.6
  0
ARC
  5
3D8
100
AcDbEntity
  8
KONSTRUKTIONSELEMENTE
100
AcDbCircle
 62
7
  6
CONTINUOUS
 10
326.6942660167
 20
115.2629698305
 40
42.5683078162
100
AcDbArc
 50
25.3088587916
 51
25.5621428969
  0
ARC
  5
3D9
100
AcDbEntity
  8
KONSTRUKTIONSELEMENTE
100
AcDbCircle
 62
7
  6
CONTINUOUS
 10
328.011048303
 20
119.5752610261
 40
38.9772157577
100
AcDbArc
 50
18.8436698016
 51
20.0602397231
  0
ARC
  5
3DA
100
AcDbEntity
  8
KONSTRUKTIONSELEMENTE
100
AcDbCircle
 62
7
  6
CONTINUOUS
 10
327.2439086346
 20
119.2958479025
 40
38.9658196818
100
AcDbArc
 50
18.8436039928
 51
20.3039651981
  0
ARC
  5
3DB
100
AcDbEntity
  8
KONSTRUKTIONSELEMENTE
100
AcDbCircle
 62
7
  6
CONTINUOUS
 10
328.0790315985
 20
119.5996087635
 40
38.9050053738
100
AcDbArc
 50
20.0608997742
 51
20.3047157994
  0
ARC
  5
3DC
100
AcDbEntity
  8
KONSTRUKTIONSELEMENTE
100
AcDbCircle
 62
7
  6
CONTINUOUS
 10
328.9478621494
 20
119.7188462818
 40
38.1327083243
100
AcDbArc
 50
19.1916679396
 51
20.3730104824
  0
ARC
  5
3DD
100
AcDbEntity
  8
KONSTRUKTIONSELEMENTE
100
AcDbCircle
 62
7
  6
CONTINUOUS
 10
331.4971120128
 20
117.801886678
 40
37.2208141089
100
AcDbArc
 50
24.5005468164
 51
24.8445268979
  0
ARC
  5
3DE
100
AcDbEntity
  8
KONSTRUKTIONSELEMENTE
100
AcDbCircle
 62
7
  6
CONTINUOUS
 10
331.8067955326
 20
118.007574742
 40
36.8650852317
100
AcDbArc
 50
24.6936571371
 51
24.9236656563
  0
ARC
  5
3DF
100
AcDbEntity
  8
KONSTRUKTIONSELEMENTE
100
AcDbCircle
 62
7
  6
CONTINUOUS
 10
331.6186820567
 20
120.0998651782
 40
35.7473991882
100
AcDbArc
 50
19.1377209566
 51
20.3978950262
  0
ARC
  5
3E0
100
AcDbEntity
  8
KONSTRUKTIONSELEMENTE
100
AcDbCircle
 62
7
  6
CONTINUOUS
 10
332.6417501784
 20
120.2364486609
 40
34.8412217004
100
AcDbArc
 50
19.1142868599
 51
19.4998572663
  0
ARC
  5
3E1
100
AcDbEntity
  8
KONSTRUKTIONSELEMENTE
100
AcDbCircle
 62
7
  6
CONTINUOUS
 10
332.7083770821
 20
120.2600211925
 40
34.7705477438
100
AcDbArc
 50
19.4998900499
 51
20.2727405267
  0
ARC
  5
3E2
100
AcDbEntity
  8
KONSTRUKTIONSELEMENTE
100
AcDbCircle
 62
7
  6
CONTINUOUS
 10
334.5494805052
 20
120.1385720124
 40
33.5293986731
100
AcDbArc
 50
26.151323152
 51
26.4357253785
  0
ARC
  5
3E3
100
AcDbEntity
  8
KONSTRUKTIONSELEMENTE
100
AcDbCircle
 62
7
  6
CONTINUOUS
 10
336.2526155709
 20
120.7257441472
 40
31.6374496429
100
AcDbArc
 50
18.5704862912
 51
19.020220565
  0
ARC
  5
3E4
100
AcDbEntity
  8
KONSTRUKTIONSELEMENTE
100
AcDbCircle
 62
7
  6
CONTINUOUS
 10
336.266290076
 20
120.72452199
 40
31.6250147866
100
AcDbArc
 50
20.9046851147
 51
21.4295749237
  0
ARC
  5
3E5
100
AcDbEntity
  8
KONSTRUKTIONSELEMENTE
100
AcDbCircle
 62
7
  6
CONTINUOUS
 10
337.068712831
 20
125.1519225334
 40
28.5584750019
100
AcDbArc
 50
20.8547861589
 51
21.2807809575
  0
ARC
  5
3E6
100
AcDbEntity
  8
KONSTRUKTIONSELEMENTE
100
AcDbCircle
 62
7
  6
CONTINUOUS
 10
336.2908023377
 20
124.868786269
 40
28.5584749975
100
AcDbArc
 50
20.8547861589
 51
21.2807809576
  0
ARC
  5
3E7
100
AcDbEntity
  8
KONSTRUKTIONSELEMENTE
100
AcDbCircle
 62
7
  6
CONTINUOUS
 10
337.0677190938
 20
125.1546528811
 40
28.5584749756
100
AcDbArc
 50
18.7192190423
 51
19.1452140444
  0
ARC
  5
3E8
100
AcDbEntity
  8
KONSTRUKTIONSELEMENTE
100
AcDbCircle
 62
7
  6
CONTINUOUS
 10
336.2898085994
 20
124.8715166162
 40
28.5584749723
100
AcDbArc
 50
18.7192190423
 51
19.1452140445
  0
ARC
  5
3E9
100
AcDbEntity
  8
KONSTRUKTIONSELEMENTE
100
AcDbCircle
 62
7
  6
CONTINUOUS
 10
339.2428038617
 20
122.5260238137
 40
28.3342164961
100
AcDbArc
 50
25.336625257
 51
25.7297056791
  0
ARC
  5
3EA
100
AcDbEntity
  8
KONSTRUKTIONSELEMENTE
100
AcDbCircle
 62
7
  6
CONTINUOUS
 10
339.2303507054
 20
126.4729451489
 40
26.1885465253
100
AcDbArc
 50
14.6584954321
 51
15.031647816
  0
ARC
  5
3EB
100
AcDbEntity
  8
KONSTRUKTIONSELEMENTE
100
AcDbCircle
 62
7
  6
CONTINUOUS
 10
338.4524402157
 20
126.189808885
 40
26.1885465171
100
AcDbArc
 50
14.6584954321
 51
15.0316478161
  0
ARC
  5
3EC
100
AcDbEntity
  8
KONSTRUKTIONSELEMENTE
100
AcDbCircle
 62
7
  6
CONTINUOUS
 10
341.7503617048
 20
114.6762356767
 40
18.6605722727
100
AcDbArc
 50
102.2414587691
 51
102.5006295011
  0
ARC
  5
3ED
100
AcDbEntity
  8
RUNDUNGEN
100
AcDbCircle
 62
7
  6
CONTINUOUS
 10
328.4507645701
 20
114.4398668808
 40
2.0
100
AcDbArc
 50
105.0
 51
160.0
  0
ARC
  5
3EE
100
AcDbEntity
  8
0
100
AcDbCircle
 62
7
  6
CONTINUOUS
 10
340.6667686403
 20
109.9936050175
 40
2.0
100
AcDbArc
 50
340.0
 51
35.0
  0
ARC
  5
3EF
100
AcDbEntity
  8
RUNDUNGEN
100
AcDbCircle
 62
7
  6
CONTINUOUS
 10
331.0052764088
 20
119.2654509867
 40
1.9999960191
100
AcDbArc
 50
284.9996867483
 51
339.9998203254
  0
ARC
  5
3F0
100
AcDbEntity
  8
0
100
AcDbCircle
 62
7
  6
CONTINUOUS
 10
341.8117247141
 20
115.3322254654
 40
1.9999960191
100
AcDbArc
 50
160.0001796746
 51
215.0003132517
  0
ARC
  5
3F1
100
AcDbEntity
  8
KONSTRUKTIONSELEMENTE
100
AcDbCircle
 62
7
  6
CONTINUOUS
 10
342.3436090014
 20
136.3413804079
 40
3.2583884888
100
AcDbArc
 50
191.8349722588
 51
192.334029487
  0
ARC
  5
3F2
100
AcDbEntity
  8
KONSTRUKTIONSELEMENTE
100
AcDbCircle
 62
7
  6
CONTINUOUS
 10
328.1885505174
 20
145.4581126135
 40
3.0
100
AcDbArc
 50
300.0
 51
120.0
  0
ARC
  5
3F3
100
AcDbEntity
  8
KONSTRUKTIONSELEMENTE
100
AcDbCircle
 62
7
  6
CONTINUOUS
 10
384.1280499139
 20
56.2134290904
 40
89.2523635348
100
AcDbArc
 50
121.1485144214
 51
121.3898084795
  0
ARC
  5
3F4
100
AcDbEntity
  8
KONSTRUKTIONSELEMENTE
100
AcDbCircle
 62
7
  6
CONTINUOUS
 10
386.9728421508
 20
82.3560370094
 40
71.4969720129
100
AcDbArc
 50
132.0085391232
 51
132.1283952992
  0
ARC
  5
3F5
100
AcDbEntity
  8
KONSTRUKTIONSELEMENTE
100
AcDbCircle
 62
7
  6
CONTINUOUS
 10
362.7288077863
 20
100.0945521004
 40
42.1698294062
100
AcDbArc
 50
124.0453090474
 51
124.1608374317
  0
ARC
  5
3F6
100
AcDbEntity
  8
KONSTRUKTIONSELEMENTE
100
AcDbCircle
 62
7
  6
CONTINUOUS
 10
364.5659502012
 20
103.4135518836
 40
29.9192949579
100
AcDbArc
 50
89.8964954689
 51
90.0305148303
  0
ARC
  5
3F7
100
AcDbEntity
  8
0
100
AcDbCircle
 62
7
  6
CONTINUOUS
 10
372.6738792628
 20
100.979077911
 40
8.5
100
AcDbArc
 50
232.7790806681
 51
347.2209193319
  0
CIRCLE
  5
3F8
100
AcDbEntity
  8
0
100
AcDbCircle
 62
7
  6
CONTINUOUS
 10
372.6738792628
 20
100.979077911
 40
2.5
  0
ARC
  5
3F9
100
AcDbEntity
  8
KONSTRUKTIONSELEMENTE
100
AcDbCircle
 62
7
  6
CONTINUOUS
 10
374.153509222
 20
116.0836452869
 40
39.9657986073
100
AcDbArc
 50
159.8017815682
 51
160.2642912816
  0
ARC
  5
3FA
100
AcDbEntity
  8
KONSTRUKTIONSELEMENTE
100
AcDbCircle
 62
7
  6
CONTINUOUS
 10
373.0982327756
 20
116.3248598797
 40
38.976581849
100
AcDbArc
 50
159.8644997
 51
160.2032496948
  0
ARC
  5
3FB
100
AcDbEntity
  8
KONSTRUKTIONSELEMENTE
100
AcDbCircle
 62
7
  6
CONTINUOUS
 10
374.010625251
 20
120.680848064
 40
37.6695592341
100
AcDbArc
 50
164.3352965192
 51
164.6459086524
  0
ARC
  5
3FC
100
AcDbEntity
  8
KONSTRUKTIONSELEMENTE
100
AcDbCircle
 62
7
  6
CONTINUOUS
 10
371.3364098532
 20
118.0073387233
 40
36.8658492029
100
AcDbArc
 50
155.0189835912
 51
155.3639908815
  0
ARC
  5
3FD
100
AcDbEntity
  8
KONSTRUKTIONSELEMENTE
100
AcDbCircle
 62
7
  6
CONTINUOUS
 10
371.0301876472
 20
121.0458512993
 40
35.0235962587
100
AcDbArc
 50
164.3026741738
 51
164.6367429539
  0
ARC
  5
3FE
100
AcDbEntity
  8
KONSTRUKTIONSELEMENTE
100
AcDbCircle
 62
7
  6
CONTINUOUS
 10
369.9011491874
 20
122.7435037827
 40
33.0917995139
100
AcDbArc
 50
155.251384198
 51
155.5834834375
  0
ARC
  5
3FF
100
AcDbEntity
  8
KONSTRUKTIONSELEMENTE
100
AcDbCircle
 62
7
  6
CONTINUOUS
 10
370.6790596792
 20
122.4603675193
 40
33.0917995076
100
AcDbArc
 50
155.251384198
 51
155.5834834376
  0
ARC
  5
400
100
AcDbEntity
  8
KONSTRUKTIONSELEMENTE
100
AcDbCircle
 62
7
  6
CONTINUOUS
 10
366.6054352969
 20
121.4373162189
 40
31.2453086097
100
AcDbArc
 50
164.9972871312
 51
165.3721515047
  0
ARC
  5
401
100
AcDbEntity
  8
KONSTRUKTIONSELEMENTE
100
AcDbCircle
 62
7
  6
CONTINUOUS
 10
368.185747106
 20
124.3535203353
 40
31.2411247406
100
AcDbArc
 50
168.2573899273
 51
168.4639138855
  0
ARC
  5
402
100
AcDbEntity
  8
KONSTRUKTIONSELEMENTE
100
AcDbCircle
 62
7
  6
CONTINUOUS
 10
365.5477901554
 20
124.4664579286
 40
28.9866245551
100
AcDbArc
 50
168.2257573626
 51
168.4483307486
  0
ARC
  5
403
100
AcDbEntity
  8
KONSTRUKTIONSELEMENTE
100
AcDbCircle
 62
7
  6
CONTINUOUS
 10
363.8996689793
 20
122.5260238129
 40
28.334216498
100
AcDbArc
 50
154.2702943209
 51
154.663374743
  0
ARC
  5
404
100
AcDbEntity
  8
KONSTRUKTIONSELEMENTE
100
AcDbCircle
 62
7
  6
CONTINUOUS
 10
366.1873294135
 20
125.2369638912
 40
27.808264497
100
AcDbArc
 50
159.7477159998
 51
160.3964575688
  0
ARC
  5
405
100
AcDbEntity
  8
KONSTRUKTIONSELEMENTE
100
AcDbCircle
 62
7
  6
CONTINUOUS
 10
365.4094189136
 20
125.5201001581
 40
27.8082644944
100
AcDbArc
 50
159.7477159998
 51
160.3964575688
  0
ARC
  5
406
100
AcDbEntity
  8
KONSTRUKTIONSELEMENTE
100
AcDbCircle
 62
7
  6
CONTINUOUS
 10
363.5621029665
 20
124.3195404573
 40
27.5338778484
100
AcDbArc
 50
168.9870217447
 51
169.2218204851
  0
ARC
  5
407
100
AcDbEntity
  8
KONSTRUKTIONSELEMENTE
100
AcDbCircle
 62
7
  6
CONTINUOUS
 10
355.4196415868
 20
113.5610470808
 40
27.4240522841
100
AcDbArc
 50
126.2303700196
 51
126.361757377
  0
ARC
  5
408
100
AcDbEntity
  8
KONSTRUKTIONSELEMENTE
100
AcDbCircle
 62
7
  6
CONTINUOUS
 10
364.5773592302
 20
125.5274273007
 40
27.1257808639
100
AcDbArc
 50
159.7413685772
 51
160.4064326677
  0
ARC
  5
409
100
AcDbEntity
  8
KONSTRUKTIONSELEMENTE
100
AcDbCircle
 62
7
  6
CONTINUOUS
 10
363.8803665239
 20
125.4878493231
 40
26.5862782136
100
AcDbArc
 50
161.0224566719
 51
161.4749356638
  0
ARC
  5
40A
100
AcDbEntity
  8
KONSTRUKTIONSELEMENTE
100
AcDbCircle
 62
7
  6
CONTINUOUS
 10
362.6461325188
 20
125.4942109003
 40
25.5771606791
100
AcDbArc
 50
161.1421836959
 51
161.5340128041
  0
ARC
  5
40B
100
AcDbEntity
  8
KONSTRUKTIONSELEMENTE
100
AcDbCircle
 62
7
  6
CONTINUOUS
 10
363.3738875449
 20
125.2280185346
 40
25.524220782
100
AcDbArc
 50
160.5992149022
 51
161.5344284528
  0
ARC
  5
40C
100
AcDbEntity
  8
KONSTRUKTIONSELEMENTE
100
AcDbCircle
 62
7
  6
CONTINUOUS
 10
362.5448995041
 20
125.5288561455
 40
25.4701634266
100
AcDbArc
 50
160.3551399556
 51
161.142329912
  0
ARC
  5
40D
100
AcDbEntity
  8
KONSTRUKTIONSELEMENTE
100
AcDbCircle
 62
7
  6
CONTINUOUS
 10
361.7001283472
 20
125.5406643933
 40
24.7742017127
100
AcDbArc
 50
160.364800635
 51
160.9716917073
  0
ARC
  5
40E
100
AcDbEntity
  8
KONSTRUKTIONSELEMENTE
100
AcDbCircle
 62
7
  6
CONTINUOUS
 10
342.9585477817
 20
125.2987622005
 40
23.6699440703
100
AcDbArc
 50
19.8287046536
 51
20.1712951014
  0
ARC
  5
40F
100
AcDbEntity
  8
KONSTRUKTIONSELEMENTE
100
AcDbCircle
 62
7
  6
CONTINUOUS
 10
359.7237927392
 20
125.5701269413
 40
23.1447488629
100
AcDbArc
 50
159.6968827639
 51
160.4763436399
  0
ARC
  5
410
100
AcDbEntity
  8
KONSTRUKTIONSELEMENTE
100
AcDbCircle
 62
7
  6
CONTINUOUS
 10
343.8043681184
 20
125.3141623163
 40
22.9717685504
100
AcDbArc
 50
19.8234984985
 51
20.176501249
  0
ARC
  5
411
100
AcDbEntity
  8
KONSTRUKTIONSELEMENTE
100
AcDbCircle
 62
7
  6
CONTINUOUS
 10
358.8917773436
 20
125.5774379586
 40
22.4623123735
100
AcDbArc
 50
159.6876737086
 51
160.4908161357
  0
ARC
  5
412
100
AcDbEntity
  8
KONSTRUKTIONSELEMENTE
100
AcDbCircle
 62
7
  6
CONTINUOUS
 10
344.2548598392
 20
125.5789524094
 40
22.4578812595
100
AcDbArc
 50
19.8849633929
 51
20.1785064089
  0
ARC
  5
413
100
AcDbEntity
  8
KONSTRUKTIONSELEMENTE
100
AcDbCircle
 62
7
  6
CONTINUOUS
 10
350.5442509364
 20
119.9097910723
 40
21.166651907
100
AcDbArc
 50
52.7556068803
 51
53.0801543923
  0
ARC
  5
414
100
AcDbEntity
  8
KONSTRUKTIONSELEMENTE
100
AcDbCircle
 62
7
  6
CONTINUOUS
 10
342.5282722009
 20
114.3930994171
 40
18.6605722661
100
AcDbArc
 50
102.241458769
 51
102.5006295011
  0
ARC
  5
415
100
AcDbEntity
  8
KONSTRUKTIONSELEMENTE
100
AcDbCircle
 62
7
  6
CONTINUOUS
 10
362.1212495205
 20
115.4038798909
 40
17.8210301723
100
AcDbArc
 50
79.3132804113
 51
79.5768839792
  0
ARC
  5
416
100
AcDbEntity
  8
KONSTRUKTIONSELEMENTE
100
AcDbCircle
 62
7
  6
CONTINUOUS
 10
342.7816840952
 20
122.0408539384
 40
13.7265249312
100
AcDbArc
 50
104.5395312915
 51
104.8708386409
  0
ARC
  5
417
100
AcDbEntity
  8
RUNDUNGEN
100
AcDbCircle
 62
7
  6
CONTINUOUS
 10
372.1372069924
 20
119.2654481566
 40
2.0
100
AcDbArc
 50
200.0
 51
255.0
  0
ARC
  5
418
100
AcDbEntity
  8
0
100
AcDbCircle
 62
7
  6
CONTINUOUS
 10
361.3307418534
 20
115.3322165084
 40
2.0
100
AcDbArc
 50
325.0
 51
20.0
  0
ARC
  5
419
100
AcDbEntity
  8
0
100
AcDbCircle
 62
7
  6
CONTINUOUS
 10
362.475704199
 20
109.9936050175
 40
2.0
100
AcDbArc
 50
145.0
 51
200.0
  0
ARC
  5
41A
100
AcDbEntity
  8
KONSTRUKTIONSELEMENTE
100
AcDbCircle
 62
7
  6
CONTINUOUS
 10
405.9065978782
 20
90.5445473058
 40
79.7316837265
100
AcDbArc
 50
150.1315741963
 51
150.358337024
  0
ARC
  5
41B
100
AcDbEntity
  8
KONSTRUKTIONSELEMENTE
100
AcDbCircle
 62
7
  6
CONTINUOUS
 10
405.043476813
 20
99.8044904657
 40
74.5622464939
100
AcDbArc
 50
152.1408620526
 51
152.3211808397
  0
ARC
  5
41C
100
AcDbEntity
  8
KONSTRUKTIONSELEMENTE
100
AcDbCircle
 62
7
  6
CONTINUOUS
 10
405.8213872874
 20
99.5213542118
 40
74.5622464679
100
AcDbArc
 50
152.1408620525
 51
152.3211808397
  0
ARC
  5
41D
100
AcDbEntity
  8
KONSTRUKTIONSELEMENTE
100
AcDbCircle
 62
7
  6
CONTINUOUS
 10
398.1043560243
 20
100.5555612842
 40
68.6483992757
100
AcDbArc
 50
151.0519151885
 51
151.2483069558
  0
ARC
  5
41E
100
AcDbEntity
  8
KONSTRUKTIONSELEMENTE
100
AcDbCircle
 62
7
  6
CONTINUOUS
 10
398.228668447
 20
101.0615493899
 40
67.435691688
100
AcDbArc
 50
154.2662601214
 51
154.4072365505
  0
ARC
  5
41F
100
AcDbEntity
  8
KONSTRUKTIONSELEMENTE
100
AcDbCircle
 62
7
  6
CONTINUOUS
 10
393.264462152
 20
102.9405884388
 40
62.3848907864
100
AcDbArc
 50
154.3270133952
 51
154.4793861318
  0
ARC
  5
420
100
AcDbEntity
  8
KONSTRUKTIONSELEMENTE
100
AcDbCircle
 62
7
  6
CONTINUOUS
 10
393.3097540371
 20
106.119031207
 40
59.9572091335
100
AcDbArc
 50
156.3208110618
 51
156.567155233
  0
ARC
  5
421
100
AcDbEntity
  8
KONSTRUKTIONSELEMENTE
100
AcDbCircle
 62
7
  6
CONTINUOUS
 10
392.5318435396
 20
106.402167473
 40
59.9572091335
100
AcDbArc
 50
156.3208110618
 51
156.567155233
  0
ARC
  5
422
100
AcDbEntity
  8
KONSTRUKTIONSELEMENTE
100
AcDbCircle
 62
7
  6
CONTINUOUS
 10
389.6707782527
 20
103.9782468227
 40
59.0145750448
100
AcDbArc
 50
153.8019739527
 51
153.9631988961
  0
ARC
  5
423
100
AcDbEntity
  8
KONSTRUKTIONSELEMENTE
100
AcDbCircle
 62
7
  6
CONTINUOUS
 10
388.2231066853
 20
107.7875148083
 40
55.7106405025
100
AcDbArc
 50
156.3807777726
 51
156.6016876229
  0
ARC
  5
424
100
AcDbEntity
  8
KONSTRUKTIONSELEMENTE
100
AcDbCircle
 62
7
  6
CONTINUOUS
 10
381.8068887273
 20
109.66879959
 40
49.5510536469
100
AcDbArc
 50
155.8039972819
 51
156.1022457273
  0
ARC
  5
425
100
AcDbEntity
  8
KONSTRUKTIONSELEMENTE
100
AcDbCircle
 62
7
  6
CONTINUOUS
 10
383.7765432197
 20
113.7812936033
 40
48.2547889422
100
AcDbArc
 50
159.8905529244
 51
160.1094470756
  0
ARC
  5
426
100
AcDbEntity
  8
KONSTRUKTIONSELEMENTE
100
AcDbCircle
 62
7
  6
CONTINUOUS
 10
382.9986327223
 20
114.0644298693
 40
48.2547889422
100
AcDbArc
 50
159.8905529244
 51
160.1094470756
  0
ARC
  5
427
100
AcDbEntity
  8
KONSTRUKTIONSELEMENTE
100
AcDbCircle
 62
7
  6
CONTINUOUS
 10
382.309095195
 20
114.5240631445
 40
47.7258042316
100
AcDbArc
 50
155.0925771871
 51
155.3169243889
  0
ARC
  5
428
100
AcDbEntity
  8
KONSTRUKTIONSELEMENTE
100
AcDbCircle
 62
7
  6
CONTINUOUS
 10
381.9466733118
 20
114.3044372208
 40
47.2691020491
100
AcDbArc
 50
159.8324071329
 51
160.1675928671
  0
ARC
  5
429
100
AcDbEntity
  8
KONSTRUKTIONSELEMENTE
100
AcDbCircle
 62
7
  6
CONTINUOUS
 10
380.8319607745
 20
114.5402346202
 40
46.242877278
100
AcDbArc
 50
160.6299322179
 51
160.9154764941
  0
ARC
  5
42A
100
AcDbEntity
  8
KONSTRUKTIONSELEMENTE
100
AcDbCircle
 62
7
  6
CONTINUOUS
 10
380.5451134241
 20
115.7241653391
 40
45.7851483728
100
AcDbArc
 50
153.2276304958
 51
153.3992165776
  0
ARC
  5
42B
100
AcDbEntity
  8
KONSTRUKTIONSELEMENTE
100
AcDbCircle
 62
7
  6
CONTINUOUS
 10
379.4181301875
 20
114.881852748
 40
44.8993665364
100
AcDbArc
 50
159.8823738535
 51
160.176438394
  0
ARC
  5
42C
100
AcDbEntity
  8
KONSTRUKTIONSELEMENTE
100
AcDbCircle
 62
7
  6
CONTINUOUS
 10
380.3031144671
 20
116.5527406483
 40
44.1540828261
100
AcDbArc
 50
155.9217308171
 51
156.2094519705
  0
ARC
  5
42D
100
AcDbEntity
  8
KONSTRUKTIONSELEMENTE
100
AcDbCircle
 62
7
  6
CONTINUOUS
 10
379.5252039682
 20
116.8358769149
 40
44.1540828246
100
AcDbArc
 50
155.921730817
 51
156.2094519705
  0
ARC
  5
42E
100
AcDbEntity
  8
KONSTRUKTIONSELEMENTE
100
AcDbCircle
 62
7
  6
CONTINUOUS
 10
378.3665979749
 20
115.1217046582
 40
43.9141342363
100
AcDbArc
 50
159.8196034779
 51
160.2405285681
  0
ARC
  5
42F
100
AcDbEntity
  8
KONSTRUKTIONSELEMENTE
100
AcDbCircle
 62
7
  6
CONTINUOUS
 10
376.181624485
 20
115.4491333191
 40
42.2614309342
100
AcDbArc
 50
154.309557762
 51
154.5632232935
  0
ARC
  5
430
100
AcDbEntity
  8
KONSTRUKTIONSELEMENTE
100
AcDbCircle
 62
7
  6
CONTINUOUS
 10
374.7885357493
 20
120.3977117978
 40
37.6695592349
100
AcDbArc
 50
164.3352965192
 51
164.6459086524
  0
ARC
  5
431
100
AcDbEntity
  8
RUNDUNGEN
100
AcDbCircle
 62
7
  6
CONTINUOUS
 10
374.6917082692
 20
114.4398668808
 40
2.0
100
AcDbArc
 50
20.0
 51
75.0
  0
ARC
  5
432
100
AcDbEntity
  8
KONSTRUKTIONSELEMENTE
100
AcDbCircle
 62
7
  6
CONTINUOUS
 10
469.3832915662
 20
50.9300388323
 40
155.2979147985
100
AcDbArc
 50
147.6345384499
 51
147.7572898494
  0
ARC
  5
433
100
AcDbEntity
  8
KONSTRUKTIONSELEMENTE
100
AcDbCircle
 62
7
  6
CONTINUOUS
 10
456.7702922738
 20
62.8788768903
 40
136.9836509765
100
AcDbArc
 50
148.6451036127
 51
148.7837501577
  0
ARC
  5
434
100
AcDbEntity
  8
KONSTRUKTIONSELEMENTE
100
AcDbCircle
 62
7
  6
CONTINUOUS
 10
455.9923817763
 20
63.1620131563
 40
136.9836509765
100
AcDbArc
 50
148.6451036127
 51
148.7837501577
  0
ARC
  5
435
100
AcDbEntity
  8
KONSTRUKTIONSELEMENTE
100
AcDbCircle
 62
7
  6
CONTINUOUS
 10
424.8447885599
 20
73.3095207394
 40
104.3940122961
100
AcDbArc
 50
147.3724514457
 51
147.4954958954
  0
ARC
  5
436
100
AcDbEntity
  8
KONSTRUKTIONSELEMENTE
100
AcDbCircle
 62
7
  6
CONTINUOUS
 10
425.6226990574
 20
73.0263844734
 40
104.3940122961
100
AcDbArc
 50
147.3724514457
 51
147.4954958954
  0
ARC
  5
437
100
AcDbEntity
  8
KONSTRUKTIONSELEMENTE
100
AcDbCircle
 62
7
  6
CONTINUOUS
 10
426.8828090954
 20
85.5559581677
 40
100.8773465751
100
AcDbArc
 50
149.7189482844
 51
149.8753520318
  0
ARC
  5
438
100
AcDbEntity
  8
KONSTRUKTIONSELEMENTE
100
AcDbCircle
 62
7
  6
CONTINUOUS
 10
427.6607195546
 20
85.272821924
 40
100.8773465308
100
AcDbArc
 50
149.7189482844
 51
149.8753520318
  0
ARC
  5
439
100
AcDbEntity
  8
KONSTRUKTIONSELEMENTE
100
AcDbCircle
 62
7
  6
CONTINUOUS
 10
417.907140567
 20
87.5297668591
 40
92.2370884517
100
AcDbArc
 50
149.7881505599
 51
149.9127960946
  0
ARC
  5
43A
100
AcDbEntity
  8
KONSTRUKTIONSELEMENTE
100
AcDbCircle
 62
7
  6
CONTINUOUS
 10
416.0339016996
 20
85.1678765521
 40
90.6034752234
100
AcDbArc
 50
150.2026053323
 51
150.3257755233
  0
ARC
  5
43B
100
AcDbEntity
  8
KONSTRUKTIONSELEMENTE
100
AcDbCircle
 62
7
  6
CONTINUOUS
 10
413.7049363869
 20
88.1206546473
 40
86.2382241305
100
AcDbArc
 50
150.9751762444
 51
151.1843284563
  0
ARC
  5
43C
100
AcDbEntity
  8
KONSTRUKTIONSELEMENTE
100
AcDbCircle
 62
7
  6
CONTINUOUS
 10
410.9590824717
 20
86.6365764854
 40
85.9929780802
100
AcDbArc
 50
149.5627982246
 51
149.692827975
  0
ARC
  5
43D
100
AcDbEntity
  8
KONSTRUKTIONSELEMENTE
100
AcDbCircle
 62
7
  6
CONTINUOUS
 10
420.3654760188
 20
88.5960810625
 40
93.4475536107
100
AcDbArc
 50
150.6109354153
 51
150.7336638402
  0
ARC
  5
43E
100
AcDbEntity
  8
KONSTRUKTIONSELEMENTE
100
AcDbCircle
 62
7
  6
CONTINUOUS
 10
412.9270258864
 20
88.403790915
 40
86.238224127
100
AcDbArc
 50
150.9751762444
 51
151.1843284563
  0
ARC
  5
43F
100
AcDbEntity
  8
KONSTRUKTIONSELEMENTE
100
AcDbCircle
 62
7
  6
CONTINUOUS
 10
409.3351168073
 20
88.4795757853
 40
83.3433221542
100
AcDbArc
 50
150.2639945464
 51
150.3978676043
  0
ARC
  5
440
100
AcDbEntity
  8
KONSTRUKTIONSELEMENTE
100
AcDbCircle
 62
7
  6
CONTINUOUS
 10
406.6230336605
 20
91.3848254867
 40
79.485523888
100
AcDbArc
 50
151.0397540453
 51
151.26662783
  0
ARC
  5
441
100
AcDbEntity
  8
KONSTRUKTIONSELEMENTE
100
AcDbCircle
 62
7
  6
CONTINUOUS
 10
345.6724302291
 20
129.8166134451
 40
19.2863255799
100
AcDbArc
 50
9.4826195344
 51
9.7457156904
  0
ARC
  5
442
100
AcDbEntity
  8
KONSTRUKTIONSELEMENTE
100
AcDbCircle
 62
7
  6
CONTINUOUS
 10
346.415582768
 20
130.4844030299
 40
17.9514718885
100
AcDbArc
 50
18.2057125224
 51
19.2802225085
  0
ARC
  5
443
100
AcDbEntity
  8
KONSTRUKTIONSELEMENTE
100
AcDbCircle
 62
7
  6
CONTINUOUS
 10
345.6685032765
 20
130.2116303271
 40
17.9189463717
100
AcDbArc
 50
18.2050338446
 51
20.3581432381
  0
ARC
  5
444
100
AcDbEntity
  8
KONSTRUKTIONSELEMENTE
100
AcDbCircle
 62
7
  6
CONTINUOUS
 10
346.4791520914
 20
130.5064675357
 40
17.8841824043
100
AcDbArc
 50
19.2807442253
 51
20.3594861807
  0
ARC
  5
445
100
AcDbEntity
  8
KONSTRUKTIONSELEMENTE
100
AcDbCircle
 62
7
  6
CONTINUOUS
 10
347.0575545717
 20
130.377803461
 40
17.4865741768
100
AcDbArc
 50
18.7111778709
 51
19.2004721573
  0
ARC
  5
446
100
AcDbEntity
  8
KONSTRUKTIONSELEMENTE
100
AcDbCircle
 62
7
  6
CONTINUOUS
 10
347.0964142716
 20
130.3913495082
 40
17.4454211154
100
AcDbArc
 50
19.2627927367
 51
20.3685296385
  0
ARC
  5
447
100
AcDbEntity
  8
KONSTRUKTIONSELEMENTE
100
AcDbCircle
 62
7
  6
CONTINUOUS
 10
344.1831837045
 20
140.9026403139
 40
9.9350634347
100
AcDbArc
 50
230.734915476
 51
230.9526418907
  0
ARC
  5
448
100
AcDbEntity
  8
KONSTRUKTIONSELEMENTE
100
AcDbCircle
 62
7
  6
CONTINUOUS
 10
344.3799613363
 20
141.1168228666
 40
8.0398578049
100
AcDbArc
 50
229.1392211238
 51
229.3885762892
  0
ARC
  5
449
100
AcDbEntity
  8
KONSTRUKTIONSELEMENTE
100
AcDbCircle
 62
7
  6
CONTINUOUS
 10
343.0510723831
 20
134.6302827361
 40
5.6148565571
100
AcDbArc
 50
197.3971807464
 51
198.0081882408
  0
ARC
  5
44A
100
AcDbEntity
  8
KONSTRUKTIONSELEMENTE
100
AcDbCircle
 62
7
  6
CONTINUOUS
 10
344.5247951497
 20
136.6024946287
 40
5.3434002537
100
AcDbArc
 50
193.8014646481
 51
194.4149675209
  0
ARC
  5
44B
100
AcDbEntity
  8
KONSTRUKTIONSELEMENTE
100
AcDbCircle
 62
7
  6
CONTINUOUS
 10
345.3027056456
 20
136.3193583623
 40
5.343400252
100
AcDbArc
 50
193.8014646481
 51
194.414967521
  0
ARC
  5
44C
100
AcDbEntity
  8
0
100
AcDbCircle
 62
7
  6
CONTINUOUS
 10
343.4178573406
 20
132.9021322015
 40
2.5
100
AcDbArc
 50
340.0
 51
354.9
  0
ARC
  5
44D
100
AcDbEntity
  8
KONSTRUKTIONSELEMENTE
100
AcDbCircle
 62
7
  6
CONTINUOUS
 10
351.8701394999
 20
136.0209496462
 40
15.7133845952
100
AcDbArc
 50
200.4942739871
 51
200.6790014619
  0
ARC
  5
44E
100
AcDbEntity
  8
KONSTRUKTIONSELEMENTE
100
AcDbCircle
 62
7
  6
CONTINUOUS
 10
350.6821104516
 20
129.7144480872
 40
14.9019145135
100
AcDbArc
 50
18.489474937
 51
20.4311569819
  0
ARC
  5
44F
100
AcDbEntity
  8
KONSTRUKTIONSELEMENTE
100
AcDbCircle
 62
7
  6
CONTINUOUS
 10
351.9607102355
 20
129.5601463181
 40
14.587119468
100
AcDbArc
 50
161.8655029346
 51
162.2180009555
  0
ARC
  5
450
100
AcDbEntity
  8
KONSTRUKTIONSELEMENTE
100
AcDbCircle
 62
7
  6
CONTINUOUS
 10
351.9025207753
 20
129.5792705293
 40
14.5258678886
100
AcDbArc
 50
161.334496124
 51
161.7771305926
  0
ARC
  5
451
100
AcDbEntity
  8
KONSTRUKTIONSELEMENTE
100
AcDbCircle
 62
7
  6
CONTINUOUS
 10
351.2653504005
 20
129.5874898212
 40
14.4991744541
100
AcDbArc
 50
17.7799845437
 51
19.9975098344
  0
ARC
  5
452
100
AcDbEntity
  8
KONSTRUKTIONSELEMENTE
100
AcDbCircle
 62
7
  6
CONTINUOUS
 10
351.8629698596
 20
129.5926132312
 40
14.4841269934
100
AcDbArc
 50
160.8904402651
 51
161.3344286305
  0
ARC
  5
453
100
AcDbEntity
  8
KONSTRUKTIONSELEMENTE
100
AcDbCircle
 62
7
  6
CONTINUOUS
 10
351.8303037851
 20
129.6039472579
 40
14.4495505224
100
AcDbArc
 50
160.0003258086
 51
160.8905012622
  0
ARC
  5
454
100
AcDbEntity
  8
KONSTRUKTIONSELEMENTE
100
AcDbCircle
 62
7
  6
CONTINUOUS
 10
351.823595107
 20
129.606348474
 40
14.4424251626
100
AcDbArc
 50
159.554821568
 51
160.0001748274
  0
ARC
  5
455
100
AcDbEntity
  8
KONSTRUKTIONSELEMENTE
100
AcDbCircle
 62
7
  6
CONTINUOUS
 10
351.3188777351
 20
129.606348475
 40
14.4424251597
100
AcDbArc
 50
19.9998251726
 51
20.4451784321
  0
ARC
  5
456
100
AcDbEntity
  8
KONSTRUKTIONSELEMENTE
100
AcDbCircle
 62
7
  6
CONTINUOUS
 10
351.7013676511
 20
129.8370483108
 40
14.004132347
100
AcDbArc
 50
21.6994988656
 51
22.1498529333
  0
ARC
  5
457
100
AcDbEntity
  8
KONSTRUKTIONSELEMENTE
100
AcDbCircle
 62
7
  6
CONTINUOUS
 10
351.4289065196
 20
129.8419691947
 40
13.9909786066
100
AcDbArc
 50
157.8499769512
 51
158.5261694588
  0
ARC
  5
458
100
AcDbEntity
  8
KONSTRUKTIONSELEMENTE
100
AcDbCircle
 62
7
  6
CONTINUOUS
 10
351.4246235933
 20
129.8481554245
 40
13.9848347693
100
AcDbArc
 50
161.3609066565
 51
162.1501253937
  0
ARC
  5
459
100
AcDbEntity
  8
KONSTRUKTIONSELEMENTE
100
AcDbCircle
 62
7
  6
CONTINUOUS
 10
352.5786712577
 20
130.2859165432
 40
13.1419956688
100
AcDbArc
 50
11.8071418172
 51
12.384233269
  0
ARC
  5
45A
100
AcDbEntity
  8
KONSTRUKTIONSELEMENTE
100
AcDbCircle
 62
7
  6
CONTINUOUS
 10
350.2567822086
 20
130.4539772323
 40
12.8095445239
100
AcDbArc
 50
168.1751993511
 51
168.7569327175
  0
ARC
  5
45B
100
AcDbEntity
  8
KONSTRUKTIONSELEMENTE
100
AcDbCircle
 62
7
  6
CONTINUOUS
 10
351.4537044243
 20
132.7254990764
 40
12.5179535415
100
AcDbArc
 50
169.4687262797
 51
169.9036036804
  0
ARC
  5
45C
100
AcDbEntity
  8
KONSTRUKTIONSELEMENTE
100
AcDbCircle
 62
7
  6
CONTINUOUS
 10
349.0179449122
 20
131.5387266163
 40
11.2477110995
100
AcDbArc
 50
171.0461663662
 51
171.4515233608
  0
ARC
  5
45D
100
AcDbEntity
  8
0
100
AcDbCircle
 62
7
  6
CONTINUOUS
 10
351.5712364196
 20
158.9581126135
 40
43.0
100
AcDbArc
 50
295.0052018289
 51
360.0
  0
ARC
  5
45E
100
AcDbEntity
  8
0
100
AcDbCircle
 62
7
  6
CONTINUOUS
 10
351.5712364196
 20
158.9581126135
 40
43.0
100
AcDbArc
 50
255.0052018289
 51
284.9947981711
  0
ARC
  5
45F
100
AcDbEntity
  8
0
100
AcDbCircle
 62
7
  6
CONTINUOUS
 10
351.5712364196
 20
158.9581126135
 40
43.0
100
AcDbArc
 50
214.0018980154
 51
244.9947981711
  0
ARC
  5
460
100
AcDbEntity
  8
0
100
AcDbCircle
 62
7
  6
CONTINUOUS
 10
351.5712364196
 20
158.9581126135
 40
43.0
100
AcDbArc
 50
180.0
 51
205.9981019846
  0
ARC
  5
461
100
AcDbEntity
  8
0
100
AcDbCircle
 62
7
  6
CONTINUOUS
 10
351.5712364196
 20
158.9581126135
 40
30.0
100
AcDbArc
 50
297.6816651657
 51
360.0
  0
ARC
  5
462
100
AcDbEntity
  8
0
100
AcDbCircle
 62
7
  6
CONTINUOUS
 10
351.5712364196
 20
158.9581126135
 40
30.0
100
AcDbArc
 50
257.1843382562
 51
282.8156617438
  0
ARC
  5
463
100
AcDbEntity
  8
0
100
AcDbCircle
 62
7
  6
CONTINUOUS
 10
351.5712364196
 20
158.9581126135
 40
30.0
100
AcDbArc
 50
215.7397967005
 51
242.815777859
  0
ARC
  5
464
100
AcDbEntity
  8
0
100
AcDbCircle
 62
7
  6
CONTINUOUS
 10
351.5712364196
 20
158.9581126135
 40
30.0
100
AcDbArc
 50
180.0
 51
204.2584153578
  0
ARC
  5
465
100
AcDbEntity
  8
0
100
AcDbCircle
 62
7
  6
CONTINUOUS
 10
351.5712364196
 20
208.9581126135
 40
43.0
100
AcDbArc
 50
0.0
 51
180.0
  0
ARC
  5
466
100
AcDbEntity
  8
0
100
AcDbCircle
 62
7
  6
CONTINUOUS
 10
351.5712364196
 20
208.9581126135
 40
30.0
100
AcDbArc
 50
0.0
 51
180.0
  0
ARC
  5
467
100
AcDbEntity
  8
KONSTRUKTIONSELEMENTE
100
AcDbCircle
 62
7
  6
CONTINUOUS
 10
362.3676787305
 20
156.2666920029
 40
37.5508478765
100
AcDbArc
 50
226.189436432
 51
226.3063316974
  0
ARC
  5
468
100
AcDbEntity
  8
KONSTRUKTIONSELEMENTE
100
AcDbCircle
 62
7
  6
CONTINUOUS
 10
356.6807907131
 20
149.9665742304
 40
26.7939379546
100
AcDbArc
 50
224.8772549597
 51
225.0331286663
  0
ARC
  5
469
100
AcDbEntity
  8
KONSTRUKTIONSELEMENTE
100
AcDbCircle
 62
7
  6
CONTINUOUS
 10
357.4587012041
 20
149.6834379579
 40
26.7939379454
100
AcDbArc
 50
224.8772549596
 51
225.0331286663
  0
ARC
  5
46A
100
AcDbEntity
  8
KONSTRUKTIONSELEMENTE
100
AcDbCircle
 62
7
  6
CONTINUOUS
 10
360.9734517752
 20
129.8787094775
 40
22.4659628223
100
AcDbArc
 50
177.8378168136
 51
178.2398382221
  0
ARC
  5
46B
100
AcDbEntity
  8
KONSTRUKTIONSELEMENTE
100
AcDbCircle
 62
7
  6
CONTINUOUS
 10
360.1955412776
 20
130.1618457435
 40
22.4659628222
100
AcDbArc
 50
177.8378168136
 51
178.2398382221
  0
ARC
  5
46C
100
AcDbEntity
  8
KONSTRUKTIONSELEMENTE
100
AcDbCircle
 62
7
  6
CONTINUOUS
 10
357.7666060136
 20
129.1441092321
 40
21.3945009921
100
AcDbArc
 50
179.5075326
 51
179.9339414376
  0
ARC
  5
46D
100
AcDbEntity
  8
KONSTRUKTIONSELEMENTE
100
AcDbCircle
 62
7
  6
CONTINUOUS
 10
358.3960862122
 20
131.2221244699
 40
20.8039068543
100
AcDbArc
 50
181.1563144822
 51
181.4062456084
  0
ARC
  5
46E
100
AcDbEntity
  8
KONSTRUKTIONSELEMENTE
100
AcDbCircle
 62
7
  6
CONTINUOUS
 10
356.721125016
 20
130.3589102758
 40
20.2267669261
100
AcDbArc
 50
182.5228448627
 51
182.6955181936
  0
ARC
  5
46F
100
AcDbEntity
  8
KONSTRUKTIONSELEMENTE
100
AcDbCircle
 62
7
  6
CONTINUOUS
 10
356.5611425333
 20
130.9575974261
 40
19.2532597598
100
AcDbArc
 50
180.7581639822
 51
181.2973624312
  0
ARC
  5
470
100
AcDbEntity
  8
KONSTRUKTIONSELEMENTE
100
AcDbCircle
 62
7
  6
CONTINUOUS
 10
356.4027352809
 20
130.8409828457
 40
19.2371602572
100
AcDbArc
 50
181.098890729
 51
181.3690904487
  0
ARC
  5
471
100
AcDbEntity
  8
KONSTRUKTIONSELEMENTE
100
AcDbCircle
 62
7
  6
CONTINUOUS
 10
356.0917030328
 20
130.8308504526
 40
17.2360939091
100
AcDbArc
 50
158.2608417507
 51
159.7239131877
  0
ARC
  5
472
100
AcDbEntity
  8
KONSTRUKTIONSELEMENTE
100
AcDbCircle
 62
7
  6
CONTINUOUS
 10
356.8560921794
 20
130.5530102768
 40
17.2215726267
100
AcDbArc
 50
158.2605468802
 51
160.4570898273
  0
ARC
  5
473
100
AcDbEntity
  8
KONSTRUKTIONSELEMENTE
100
AcDbCircle
 62
7
  6
CONTINUOUS
 10
356.0480461137
 20
130.8472662797
 40
17.1894534425
100
AcDbArc
 50
159.72481164
 51
160.4584178092
  0
ARC
  5
474
100
AcDbEntity
  8
KONSTRUKTIONSELEMENTE
100
AcDbCircle
 62
7
  6
CONTINUOUS
 10
355.5764330245
 20
130.7329919965
 40
16.8702872075
100
AcDbArc
 50
158.7842644342
 51
159.3759062313
  0
ARC
  5
475
100
AcDbEntity
  8
KONSTRUKTIONSELEMENTE
100
AcDbCircle
 62
7
  6
CONTINUOUS
 10
355.5486746736
 20
130.7434788367
 40
16.840614013
100
AcDbArc
 50
159.3760330832
 51
160.5614943876
  0
ARC
  5
476
100
AcDbEntity
  8
KONSTRUKTIONSELEMENTE
100
AcDbCircle
 62
7
  6
CONTINUOUS
 10
354.0583916553
 20
130.4291280136
 40
15.802477509
100
AcDbArc
 50
158.7029279198
 51
159.9662243907
  0
ARC
  5
477
100
AcDbEntity
  8
KONSTRUKTIONSELEMENTE
100
AcDbCircle
 62
7
  6
CONTINUOUS
 10
353.4733291869
 20
130.2990540485
 40
15.3990923072
100
AcDbArc
 50
158.6676578316
 51
159.247596639
  0
ARC
  5
478
100
AcDbEntity
  8
KONSTRUKTIONSELEMENTE
100
AcDbCircle
 62
7
  6
CONTINUOUS
 10
353.4407167105
 20
130.3114296591
 40
15.3642106636
100
AcDbArc
 50
159.2476604
 51
160.4102880256
  0
ARC
  5
479
100
AcDbEntity
  8
KONSTRUKTIONSELEMENTE
100
AcDbCircle
 62
7
  6
CONTINUOUS
 10
354.9202430313
 20
131.4909776699
 40
15.2007154588
100
AcDbArc
 50
166.6951254979
 51
167.1835902397
  0
ARC
  5
47A
100
AcDbEntity
  8
KONSTRUKTIONSELEMENTE
100
AcDbCircle
 62
7
  6
CONTINUOUS
 10
354.1423325338
 20
131.7741139359
 40
15.2007154588
100
AcDbArc
 50
166.6951254979
 51
167.1835902397
  0
ARC
  5
47B
100
AcDbEntity
  8
KONSTRUKTIONSELEMENTE
100
AcDbCircle
 62
7
  6
CONTINUOUS
 10
352.9310475258
 20
130.4633786254
 40
12.7632237576
100
AcDbArc
 50
11.5333589321
 51
11.7279438233
  0
ARC
  5
47C
100
AcDbEntity
  8
KONSTRUKTIONSELEMENTE
100
AcDbCircle
 62
7
  6
CONTINUOUS
 10
353.848270642
 20
131.3844713201
 40
11.5416378295
100
AcDbArc
 50
9.2101245804
 51
9.6935106531
  0
ARC
  5
47D
100
AcDbEntity
  8
KONSTRUKTIONSELEMENTE
100
AcDbCircle
 62
7
  6
CONTINUOUS
 10
355.8208141154
 20
136.7963143542
 40
9.3911978015
100
AcDbArc
 50
337.9124671614
 51
338.3583838834
  0
ARC
  5
47E
100
AcDbEntity
  8
KONSTRUKTIONSELEMENTE
100
AcDbCircle
 62
7
  6
CONTINUOUS
 10
355.042903626
 20
136.5131780849
 40
9.3911977927
100
AcDbArc
 50
337.9124671613
 51
338.3583838837
  0
ARC
  5
47F
100
AcDbEntity
  8
KONSTRUKTIONSELEMENTE
100
AcDbCircle
 62
7
  6
CONTINUOUS
 10
359.5313560096
 20
139.437599908
 40
8.4328874778
100
AcDbArc
 50
312.3577198068
 51
312.616051076
  0
ARC
  5
480
100
AcDbEntity
  8
KONSTRUKTIONSELEMENTE
100
AcDbCircle
 62
7
  6
CONTINUOUS
 10
359.2077870128
 20
143.7475957373
 40
8.0148175646
100
AcDbArc
 50
300.1298262811
 51
300.3622432832
  0
ARC
  5
481
100
AcDbEntity
  8
KONSTRUKTIONSELEMENTE
100
AcDbCircle
 62
7
  6
CONTINUOUS
 10
358.4298765208
 20
143.4644594619
 40
8.0148175538
100
AcDbArc
 50
300.1298262808
 51
300.3622432833
  0
ARC
  5
482
100
AcDbEntity
  8
KONSTRUKTIONSELEMENTE
100
AcDbCircle
 62
7
  6
CONTINUOUS
 10
356.2120214541
 20
135.5490001263
 40
7.1322691834
100
AcDbArc
 50
9.5193466225
 51
10.2297296899
  0
ARC
  5
483
100
AcDbEntity
  8
KONSTRUKTIONSELEMENTE
100
AcDbCircle
 62
7
  6
CONTINUOUS
 10
355.4341109577
 20
135.2658638605
 40
7.1322691823
100
AcDbArc
 50
9.5193466225
 51
10.22972969
  0
ARC
  5
484
100
AcDbEntity
  8
KONSTRUKTIONSELEMENTE
100
AcDbCircle
 62
7
  6
CONTINUOUS
 10
361.8705003301
 20
130.2615705728
 40
6.4577425027
100
AcDbArc
 50
75.5882961093
 51
75.8809231427
  0
ARC
  5
485
100
AcDbEntity
  8
KONSTRUKTIONSELEMENTE
100
AcDbCircle
 62
7
  6
CONTINUOUS
 10
360.0400509494
 20
134.6468562901
 40
5.6688141668
100
AcDbArc
 50
342.0945005505
 51
342.2967688379
  0
ARC
  5
486
100
AcDbEntity
  8
KONSTRUKTIONSELEMENTE
100
AcDbCircle
 62
7
  6
CONTINUOUS
 10
359.9901575402
 20
134.4765462145
 40
5.6554247405
100
AcDbArc
 50
343.9801717963
 51
344.6030755896
  0
ARC
  5
487
100
AcDbEntity
  8
KONSTRUKTIONSELEMENTE
100
AcDbCircle
 62
7
  6
CONTINUOUS
 10
360.1671060169
 20
134.6063417991
 40
5.5354559555
100
AcDbArc
 50
342.2963561896
 51
342.6049956272
  0
ARC
  5
488
100
AcDbEntity
  8
KONSTRUKTIONSELEMENTE
100
AcDbCircle
 62
7
  6
CONTINUOUS
 10
358.1875525969
 20
136.0407641579
 40
5.280415263
100
AcDbArc
 50
4.5902664926
 51
5.2532629708
  0
ARC
  5
489
100
AcDbEntity
  8
0
100
AcDbCircle
 62
7
  6
CONTINUOUS
 10
359.7246154986
 20
132.9021322015
 40
2.5
100
AcDbArc
 50
185.1
 51
200.0
  0
ARC
  5
48A
100
AcDbEntity
  8
KONSTRUKTIONSELEMENTE
100
AcDbCircle
 62
7
  6
CONTINUOUS
 10
745.7563758251
 20
-146.9573901268
 40
495.2168243248
100
AcDbArc
 50
145.2345268209
 51
145.3902439763
  0
ARC
  5
48B
100
AcDbEntity
  8
KONSTRUKTIONSELEMENTE
100
AcDbCircle
 62
7
  6
CONTINUOUS
 10
704.5103112699
 20
-116.784771958
 40
444.0807611524
100
AcDbArc
 50
145.398036701
 51
145.5257736343
  0
ARC
  5
48C
100
AcDbEntity
  8
0
100
AcDbCircle
 62
7
  6
CONTINUOUS
 10
-149.0497339041
 20
-58.5230393827
 40
314.7820416224
100
AcDbArc
 50
36.6586848123
 51
38.7615840872
  0
ARC
  5
48D
100
AcDbEntity
  8
0
100
AcDbCircle
 62
7
  6
CONTINUOUS
 10
23.7414651501
 20
-78.2774388495
 40
228.6845378331
100
AcDbArc
 50
71.4735989111
 51
72.7724288952
  0
ARC
  5
48E
100
AcDbEntity
  8
KONSTRUKTIONSELEMENTE
100
AcDbCircle
 62
7
  6
CONTINUOUS
 10
-48.8910325704
 20
-26.9980563385
 40
217.172442534
100
AcDbArc
 50
48.1807107959
 51
48.297966877
  0
ARC
  5
48F
100
AcDbEntity
  8
KONSTRUKTIONSELEMENTE
100
AcDbCircle
 62
7
  6
CONTINUOUS
 10
-45.607788571
 20
-23.5329035415
 40
211.8454530585
100
AcDbArc
 50
48.1789084164
 51
48.2991135919
  0
ARC
  5
490
100
AcDbEntity
  8
KONSTRUKTIONSELEMENTE
100
AcDbCircle
 62
7
  6
CONTINUOUS
 10
-45.607788571
 20
-23.2497672754
 40
211.8454530585
100
AcDbArc
 50
48.1789084164
 51
48.2991135919
  0
ARC
  5
491
100
AcDbEntity
  8
KONSTRUKTIONSELEMENTE
100
AcDbCircle
 62
7
  6
CONTINUOUS
 10
-38.7659281015
 20
-15.4050528179
 40
200.5762315729
100
AcDbArc
 50
47.9758542886
 51
48.1879724845
  0
ARC
  5
492
100
AcDbEntity
  8
KONSTRUKTIONSELEMENTE
100
AcDbCircle
 62
7
  6
CONTINUOUS
 10
-35.032191631
 20
-11.1541005601
 40
194.5742507469
100
AcDbArc
 50
48.0552832359
 51
48.1864000485
  0
ARC
  5
493
100
AcDbEntity
  8
KONSTRUKTIONSELEMENTE
100
AcDbCircle
 62
7
  6
CONTINUOUS
 10
-6.6091157246
 20
-28.5636542383
 40
193.1993379943
100
AcDbArc
 50
58.7455576892
 51
59.100500295
  0
ARC
  5
494
100
AcDbEntity
  8
KONSTRUKTIONSELEMENTE
100
AcDbCircle
 62
7
  6
CONTINUOUS
 10
-4.8297429531
 20
-25.8441139837
 40
189.4288494718
100
AcDbArc
 50
58.7289910972
 51
59.0157329646
  0
ARC
  5
495
100
AcDbEntity
  8
KONSTRUKTIONSELEMENTE
100
AcDbCircle
 62
7
  6
CONTINUOUS
 10
-4.715705224
 20
-25.3721412239
 40
189.2082513758
100
AcDbArc
 50
58.7288239405
 51
59.0159001212
  0
ARC
  5
496
100
AcDbEntity
  8
KONSTRUKTIONSELEMENTE
100
AcDbCircle
 62
7
  6
CONTINUOUS
 10
-26.456053691
 20
-1.3853361128
 40
180.7721339059
100
AcDbArc
 50
48.1662771511
 51
48.3071497119
  0
ARC
  5
497
100
AcDbEntity
  8
KONSTRUKTIONSELEMENTE
100
AcDbCircle
 62
7
  6
CONTINUOUS
 10
0.8001062827
 20
-16.0705205924
 40
177.5536083748
100
AcDbArc
 50
58.7229362197
 51
59.0288447872
  0
ARC
  5
498
100
AcDbEntity
  8
KONSTRUKTIONSELEMENTE
100
AcDbCircle
 62
7
  6
CONTINUOUS
 10
-23.1730105298
 20
2.3627264737
 40
175.445447088
100
AcDbArc
 50
48.1636624848
 51
48.3088131457
  0
ARC
  5
499
100
AcDbEntity
  8
KONSTRUKTIONSELEMENTE
100
AcDbCircle
 62
7
  6
CONTINUOUS
 10
-23.1730105224
 20
2.079590216
 40
175.4454470769
100
AcDbArc
 50
48.1636624848
 51
48.3088131457
  0
ARC
  5
49A
100
AcDbEntity
  8
KONSTRUKTIONSELEMENTE
100
AcDbCircle
 62
7
  6
CONTINUOUS
 10
3.1629902926
 20
-12.3734621198
 40
172.5886427139
100
AcDbArc
 50
58.783871696
 51
59.0347444038
  0
ARC
  5
49B
100
AcDbEntity
  8
KONSTRUKTIONSELEMENTE
100
AcDbCircle
 62
7
  6
CONTINUOUS
 10
3.1880713719
 20
-12.0488542296
 40
172.5401769764
100
AcDbArc
 50
58.7531930045
 51
59.0348003929
  0
ARC
  5
49C
100
AcDbEntity
  8
KONSTRUKTIONSELEMENTE
100
AcDbCircle
 62
7
  6
CONTINUOUS
 10
9.6558929621
 20
-1.3694173864
 40
158.6352449797
100
AcDbArc
 50
58.4739788119
 51
58.6005771067
  0
ARC
  5
49D
100
AcDbEntity
  8
KONSTRUKTIONSELEMENTE
100
AcDbCircle
 62
7
  6
CONTINUOUS
 10
9.6558929648
 20
-1.0862811161
 40
158.6352449746
100
AcDbArc
 50
58.4739788119
 51
58.6005771067
  0
ARC
  5
49E
100
AcDbEntity
  8
KONSTRUKTIONSELEMENTE
100
AcDbCircle
 62
7
  6
CONTINUOUS
 10
66.3861714753
 20
70.0919814892
 40
0.33382796
100
AcDbArc
 50
323.8940517812
 51
329.159156329
  0
ARC
  5
49F
100
AcDbEntity
  8
KONSTRUKTIONSELEMENTE
100
AcDbCircle
 62
7
  6
CONTINUOUS
 10
84.4042192487
 20
160.9771801344
 40
38.9828362118
100
AcDbArc
 50
259.0411164341
 51
261.2230127952
  0
ARC
  5
4A0
100
AcDbEntity
  8
0
100
AcDbCircle
 62
7
  6
CONTINUOUS
 10
84.2842254244
 20
122.5697939706
 40
7.6009565906
100
AcDbArc
 50
139.94829123
 51
148.1929360912
  0
ARC
  5
4A1
100
AcDbEntity
  8
0
100
AcDbCircle
 62
7
  6
CONTINUOUS
 10
84.3967462829
 20
123.10058923
 40
7.4572471306
100
AcDbArc
 50
142.6404404794
 51
152.7421402713
  0
ARC
  5
4A2
100
AcDbEntity
  8
BEZUGSACHSEN
100
AcDbCircle
 62
7
  6
CONTINUOUS
 10
84.3962285828
 20
123.1112181325
 40
7.4566121514
100
AcDbArc
 50
142.6402759757
 51
152.8143170846
  0
ARC
  5
4A3
100
AcDbEntity
  8
0
100
AcDbCircle
 62
7
  6
CONTINUOUS
 10
84.1420887167
 20
122.6635668571
 40
7.4307424201
100
AcDbArc
 50
148.2297632177
 51
148.8510271322
  0
ARC
  5
4A4
100
AcDbEntity
  8
0
100
AcDbCircle
 62
7
  6
CONTINUOUS
 10
84.1199156034
 20
122.6768562
 40
7.4048919978
100
AcDbArc
 50
148.850284168
 51
150.7996932146
  0
ARC
  5
4A5
100
AcDbEntity
  8
BEZUGSACHSEN
100
AcDbCircle
 62
7
  6
CONTINUOUS
 10
84.2642246965
 20
123.1844646861
 40
7.3057276989
100
AcDbArc
 50
152.8523197752
 51
153.5940605479
  0
ARC
  5
4A6
100
AcDbEntity
  8
BEZUGSACHSEN
100
AcDbCircle
 62
7
  6
CONTINUOUS
 10
84.2490117761
 20
123.3183662059
 40
7.2889373422
100
AcDbArc
 50
203.2450331904
 51
205.0218458433
  0
ARC
  5
4A7
100
AcDbEntity
  8
BEZUGSACHSEN
100
AcDbCircle
 62
7
  6
CONTINUOUS
 10
84.2436411702
 20
123.1946028949
 40
7.2827829959
100
AcDbArc
 50
153.5934813146
 51
156.8356243847
  0
ARC
  5
4A8
100
AcDbEntity
  8
BEZUGSACHSEN
100
AcDbCircle
 62
7
  6
CONTINUOUS
 10
84.0934652163
 20
123.2601022393
 40
7.1230268363
100
AcDbArc
 50
180.1241630239
 51
203.3082107186
  0
ARC
  5
4A9
100
AcDbEntity
  8
BEZUGSACHSEN
100
AcDbCircle
 62
7
  6
CONTINUOUS
 10
84.0931482136
 20
123.2498303738
 40
7.1227028958
100
AcDbArc
 50
156.7678574238
 51
179.9590317418
  0
ARC
  5
4AA
100
AcDbEntity
  8
0
100
AcDbCircle
 62
7
  6
CONTINUOUS
 10
63.5492213492
 20
103.0124547511
 40
6.4750191431
100
AcDbArc
 50
7.3544538789
 51
10.440112632
  0
ARC
  5
4AB
100
AcDbEntity
  8
0
100
AcDbCircle
 62
7
  6
CONTINUOUS
 10
65.5196593144
 20
104.1918292634
 40
4.4508970295
100
AcDbArc
 50
2.7544231131
 51
17.3594176191
  0
ARC
  5
4AC
100
AcDbEntity
  8
0
100
AcDbCircle
 62
7
  6
CONTINUOUS
 10
84.5645078002
 20
105.307114441
 40
3.094081234
100
AcDbArc
 50
173.9829607022
 51
179.9921219122
  0
ARC
  5
4AD
100
AcDbEntity
  8
0
100
AcDbCircle
 62
7
  6
CONTINUOUS
 10
72.0719528418
 20
95.901654868
 40
2.0059944147
100
AcDbArc
 50
218.325275128
 51
229.3728307415
  0
ARC
  5
4AE
100
AcDbEntity
  8
0
100
AcDbCircle
 62
7
  6
CONTINUOUS
 10
72.0676668923
 20
95.8975125304
 40
2.0000667641
100
AcDbArc
 50
182.7344188629
 51
217.5071542771
  0
ARC
  5
4AF
100
AcDbEntity
  8
0
100
AcDbCircle
 62
7
  6
CONTINUOUS
 10
72.0618002842
 20
95.8932485222
 40
1.9928167399
100
AcDbArc
 50
217.5125998862
 51
218.3166800813
  0
ARC
  5
4B0
100
AcDbEntity
  8
KONSTRUKTIONSELEMENTE
100
AcDbCircle
 62
7
  6
CONTINUOUS
 10
82.4871475348
 20
89.4198537412
 40
1.5756379979
100
AcDbArc
 50
232.3241779731
 51
234.895079451
  0
ARC
  5
4B1
100
AcDbEntity
  8
0
100
AcDbCircle
 62
7
  6
CONTINUOUS
 10
318.9905871007
 20
-58.5230393872
 40
314.7820416298
100
AcDbArc
 50
141.2384159128
 51
143.3413151876
  0
ARC
  5
4B2
100
AcDbEntity
  8
KONSTRUKTIONSELEMENTE
100
AcDbCircle
 62
7
  6
CONTINUOUS
 10
281.820076363
 20
-25.923363608
 40
262.9459667719
100
AcDbArc
 50
142.7872481987
 51
143.0428427958
  0
ARC
  5
4B3
100
AcDbEntity
  8
KONSTRUKTIONSELEMENTE
100
AcDbCircle
 62
7
  6
CONTINUOUS
 10
277.7989587811
 20
-22.8229813639
 40
257.5738452936
100
AcDbArc
 50
142.775401707
 51
142.9817939559
  0
ARC
  5
4B4
100
AcDbEntity
  8
KONSTRUKTIONSELEMENTE
100
AcDbCircle
 62
7
  6
CONTINUOUS
 10
277.0744336593
 20
-22.5571999503
 40
256.6648646524
100
AcDbArc
 50
142.7751320121
 51
142.9265219437
  0
ARC
  5
4B5
100
AcDbEntity
  8
KONSTRUKTIONSELEMENTE
100
AcDbCircle
 62
7
  6
CONTINUOUS
 10
265.2155072635
 20
-13.129997782
 40
240.8063040175
100
AcDbArc
 50
142.7707510635
 51
142.9915275307
  0
ARC
  5
4B6
100
AcDbEntity
  8
KONSTRUKTIONSELEMENTE
100
AcDbCircle
 62
7
  6
CONTINUOUS
 10
261.1303677906
 20
-9.9701565175
 40
235.2883002344
100
AcDbArc
 50
142.7930581496
 51
142.9952884185
  0
ARC
  5
4B7
100
AcDbEntity
  8
KONSTRUKTIONSELEMENTE
100
AcDbCircle
 62
7
  6
CONTINUOUS
 10
260.3945919083
 20
-9.6961436593
 40
234.3653810024
100
AcDbArc
 50
142.7927708167
 51
142.9347609688
  0
ARC
  5
4B8
100
AcDbEntity
  8
0
100
AcDbCircle
 62
7
  6
CONTINUOUS
 10
144.2192012774
 20
-72.1382326241
 40
222.2343058962
100
AcDbArc
 50
107.2087213402
 51
108.5452508529
  0
ARC
  5
4B9
100
AcDbEntity
  8
KONSTRUKTIONSELEMENTE
100
AcDbCircle
 62
7
  6
CONTINUOUS
 10
179.6418310952
 20
-29.3215340991
 40
195.4626184267
100
AcDbArc
 50
121.8401275855
 51
122.1915403377
  0
ARC
  5
4BA
100
AcDbEntity
  8
KONSTRUKTIONSELEMENTE
100
AcDbCircle
 62
7
  6
CONTINUOUS
 10
177.3464905998
 20
-25.558204715
 40
190.7178225327
100
AcDbArc
 50
121.8388176671
 51
122.1088103223
  0
ARC
  5
4BB
100
AcDbEntity
  8
KONSTRUKTIONSELEMENTE
100
AcDbCircle
 62
7
  6
CONTINUOUS
 10
177.1359527585
 20
-25.5036746594
 40
190.3198976734
100
AcDbArc
 50
121.8385979743
 51
122.0556664064
  0
ARC
  5
4BC
100
AcDbEntity
  8
KONSTRUKTIONSELEMENTE
100
AcDbCircle
 62
7
  6
CONTINUOUS
 10
163.6544463926
 20
-3.1257395346
 40
162.4727063553
100
AcDbArc
 50
121.8282250867
 51
122.1451993576
  0
ARC
  5
4BD
100
AcDbEntity
  8
KONSTRUKTIONSELEMENTE
100
AcDbCircle
 62
7
  6
CONTINUOUS
 10
161.8664547251
 20
-0.1755124463
 40
158.6863115792
100
AcDbArc
 50
121.8271078649
 51
122.260093795
  0
ARC
  5
4BE
100
AcDbEntity
  8
KONSTRUKTIONSELEMENTE
100
AcDbCircle
 62
7
  6
CONTINUOUS
 10
161.5406027555
 20
0.0619414947
 40
158.0721550328
100
AcDbArc
 50
121.8262667224
 51
122.2609349375
  0
ARC
  5
4BF
100
AcDbEntity
  8
0
100
AcDbCircle
 62
7
  6
CONTINUOUS
 10
84.9704265954
 20
72.575855
 40
21.5
100
AcDbArc
 50
67.7779004749
 51
80.6310844215
  0
ARC
  5
4C0
100
AcDbEntity
  8
0
100
AcDbCircle
 62
7
  6
CONTINUOUS
 10
84.9704265954
 20
72.575855
 40
21.5
100
AcDbArc
 50
99.3689155785
 51
112.2220995251
  0
ARC
  5
4C1
100
AcDbEntity
  8
KONSTRUKTIONSELEMENTE
100
AcDbCircle
 62
7
  6
CONTINUOUS
 10
84.9704265954
 20
74.5831126135
 40
2.5
100
AcDbArc
 50
180.0
 51
360.0
  0
ARC
  5
4C2
100
AcDbEntity
  8
0
100
AcDbCircle
 62
7
  6
CONTINUOUS
 10
304.2786425982
 20
99.7837346973
 40
204.3707597167
100
AcDbArc
 50
179.3196622004
 51
179.6633383159
  0
ARC
  5
4C3
100
AcDbEntity
  8
0
100
AcDbCircle
 62
7
  6
CONTINUOUS
 10
232.1819754507
 20
100.7102328166
 40
132.2681844643
100
AcDbArc
 50
178.8722895323
 51
179.3439811377
  0
ARC
  5
4C4
100
AcDbEntity
  8
0
100
AcDbCircle
 62
7
  6
CONTINUOUS
 10
172.3121575832
 20
101.8969404327
 40
72.3866076299
100
AcDbArc
 50
178.5303147301
 51
178.8787645851
  0
ARC
  5
4C5
100
AcDbEntity
  8
KONSTRUKTIONSELEMENTE
100
AcDbCircle
 62
7
  6
CONTINUOUS
 10
85.4841018748
 20
161.2779766851
 40
39.2881331384
100
AcDbArc
 50
278.7859617854
 51
280.9451101815
  0
ARC
  5
4C6
100
AcDbEntity
  8
0
100
AcDbCircle
 62
7
  6
CONTINUOUS
 10
85.6918312076
 20
122.5953015603
 40
7.5575968608
100
AcDbArc
 50
31.8006257141
 51
40.0762993072
  0
ARC
  5
4C7
100
AcDbEntity
  8
0
100
AcDbCircle
 62
7
  6
CONTINUOUS
 10
85.7983998921
 20
122.6633489302
 40
7.431167129
100
AcDbArc
 50
31.1488912762
 51
31.787714246
  0
ARC
  5
4C8
100
AcDbEntity
  8
0
100
AcDbCircle
 62
7
  6
CONTINUOUS
 10
85.5735440423
 20
123.1192048777
 40
7.4225536063
100
AcDbArc
 50
27.2341899331
 51
37.3832293162
  0
ARC
  5
4C9
100
AcDbEntity
  8
BEZUGSACHSEN
100
AcDbCircle
 62
7
  6
CONTINUOUS
 10
85.5743735789
 20
123.1300048203
 40
7.4215670076
100
AcDbArc
 50
27.1615978892
 51
37.3838090505
  0
ARC
  5
4CA
100
AcDbEntity
  8
0
100
AcDbCircle
 62
7
  6
CONTINUOUS
 10
85.8208144643
 20
122.6767842114
 40
7.4050345711
100
AcDbArc
 50
29.1973964136
 51
31.1496339424
  0
ARC
  5
4CB
100
AcDbEntity
  8
BEZUGSACHSEN
100
AcDbCircle
 62
7
  6
CONTINUOUS
 10
85.6766284958
 20
123.1844646869
 40
7.3057276971
100
AcDbArc
 50
26.405939452
 51
27.1476802249
  0
ARC
  5
4CC
100
AcDbEntity
  8
BEZUGSACHSEN
100
AcDbCircle
 62
7
  6
CONTINUOUS
 10
85.6919291047
 20
123.318327414
 40
7.2888414607
100
AcDbArc
 50
334.9877461126
 51
336.7549560029
  0
ARC
  5
4CD
100
AcDbEntity
  8
BEZUGSACHSEN
100
AcDbCircle
 62
7
  6
CONTINUOUS
 10
85.6972117612
 20
123.1946027708
 40
7.2827832834
100
AcDbArc
 50
23.1644468594
 51
26.4065186525
  0
ARC
  5
4CE
100
AcDbEntity
  8
BEZUGSACHSEN
100
AcDbCircle
 62
7
  6
CONTINUOUS
 10
85.8473878792
 20
123.2601022522
 40
7.1230269316
100
AcDbArc
 50
336.6917701071
 51
359.8758368739
  0
ARC
  5
4CF
100
AcDbEntity
  8
BEZUGSACHSEN
100
AcDbCircle
 62
7
  6
CONTINUOUS
 10
85.8477046187
 20
123.2498303277
 40
7.1227032543
100
AcDbArc
 50
0.0409686268
 51
23.2322145276
  0
ARC
  5
4D0
100
AcDbEntity
  8
0
100
AcDbCircle
 62
7
  6
CONTINUOUS
 10
84.9704265954
 20
245.4581126135
 40
6.5
100
AcDbArc
 50
0.0
 51
180.0
  0
ARC
  5
4D1
100
AcDbEntity
  8
0
100
AcDbCircle
 62
7
  6
CONTINUOUS
 10
84.9704265954
 20
122.4581126135
 40
6.5
100
AcDbArc
 50
180.0
 51
231.6172530894
  0
ARC
  5
4D2
100
AcDbEntity
  8
0
100
AcDbCircle
 62
7
  6
CONTINUOUS
 10
84.9704265954
 20
122.4581126135
 40
6.5
100
AcDbArc
 50
308.3818641912
 51
360.0
  0
ARC
  5
4D3
100
AcDbEntity
  8
0
100
AcDbCircle
 62
7
  6
CONTINUOUS
 10
106.3782898556
 20
103.0141290639
 40
6.4615833233
100
AcDbArc
 50
168.1113947856
 51
173.4394194742
  0
ARC
  5
4D4
100
AcDbEntity
  8
0
100
AcDbCircle
 62
7
  6
CONTINUOUS
 10
104.4262353698
 20
104.1905697356
 40
4.4560879066
100
AcDbArc
 50
162.354099475
 51
175.0362467315
  0
ARC
  5
4D5
100
AcDbEntity
  8
0
100
AcDbCircle
 62
7
  6
CONTINUOUS
 10
104.3922377227
 20
104.1951567842
 40
4.4218211661
100
AcDbArc
 50
175.0573439096
 51
177.2705311787
  0
ARC
  5
4D6
100
AcDbEntity
  8
KONSTRUKTIONSELEMENTE
100
AcDbCircle
 62
7
  6
CONTINUOUS
 10
84.9704265954
 20
90.3331126135
 40
2.5
100
AcDbArc
 50
138.7267681372
 51
180.0
  0
ARC
  5
4D7
100
AcDbEntity
  8
KONSTRUKTIONSELEMENTE
100
AcDbCircle
 62
7
  6
CONTINUOUS
 10
84.9704265954
 20
90.3331126135
 40
2.5
100
AcDbArc
 50
0.0
 51
41.2732318628
  0
ARC
  5
4D8
100
AcDbEntity
  8
KONSTRUKTIONSELEMENTE
100
AcDbCircle
 62
7
  6
CONTINUOUS
 10
84.9704265954
 20
93.2081126135
 40
2.25
100
AcDbArc
 50
180.0
 51
360.0
  0
ARC
  5
4D9
100
AcDbEntity
  8
0
100
AcDbCircle
 62
7
  6
CONTINUOUS
 10
97.8696418234
 20
95.9011853271
 40
2.0051242366
100
AcDbArc
 50
310.5847465504
 51
321.7183219852
  0
ARC
  5
4DA
100
AcDbEntity
  8
0
100
AcDbCircle
 62
7
  6
CONTINUOUS
 10
97.87317793
 20
95.8975214634
 40
2.0000787341
100
AcDbArc
 50
321.7379542554
 51
357.2354205901
  0
ARC
  5
4DB
100
AcDbEntity
  8
BEZUGSACHSEN
100
AcDbCircle
 62
7
  6
CONTINUOUS
 10
96.0669115737
 20
103.5391279149
 40
0.9042113057
100
AcDbArc
 50
17.3632829133
 51
25.9353725268
  0
ARC
  5
4DC
100
AcDbEntity
  8
BEZUGSACHSEN
100
AcDbCircle
 62
7
  6
CONTINUOUS
 10
95.873941617
 20
103.5391279149
 40
0.9042113057
100
AcDbArc
 50
154.0646274732
 51
162.6367170868
  0
ARC
  5
4DD
100
AcDbEntity
  8
BEZUGSACHSEN
100
AcDbCircle
 62
7
  6
CONTINUOUS
 10
96.0768639181
 20
103.5427466989
 40
0.8936326521
100
AcDbArc
 50
11.14759731
 51
17.3322630228
  0
ARC
  5
4DE
100
AcDbEntity
  8
BEZUGSACHSEN
100
AcDbCircle
 62
7
  6
CONTINUOUS
 10
95.8639892726
 20
103.5427466989
 40
0.8936326521
100
AcDbArc
 50
162.6677369772
 51
168.85240269
  0
LINE
  5
4DF
100
AcDbEntity
  8
KONSTRUKTIONSELEMENTE
100
AcDbLine
 62
7
  6
CONTINUOUS
 10
366.1627749495
 20
131.0364466379
 11
365.5620809102
 21
131.645329153
  0
LINE
  5
4E0
100
AcDbEntity
  8
KONSTRUKTIONSELEMENTE
100
AcDbLine
 62
7
  6
CONTINUOUS
 10
364.6908834458
 20
133.2844162579
 11
364.6199992243
 21
133.3327980218
  0
LINE
  5
4E1
100
AcDbEntity
  8
KONSTRUKTIONSELEMENTE
100
AcDbLine
 62
7
  6
CONTINUOUS
 10
364.8052585322
 20
133.1684229593
 11
364.6908834458
 21
133.2844162579
  0
LINE
  5
4E2
100
AcDbEntity
  8
KONSTRUKTIONSELEMENTE
100
AcDbLine
 62
7
  6
CONTINUOUS
 10
364.9059695779
 20
133.04282682
 11
364.8052585322
 21
133.1684229593
  0
LINE
  5
4E3
100
AcDbEntity
  8
KONSTRUKTIONSELEMENTE
100
AcDbLine
 62
7
  6
CONTINUOUS
 10
365.0649193044
 20
132.8109516708
 11
364.9059695779
 21
133.04282682
  0
LINE
  5
4E4
100
AcDbEntity
  8
KONSTRUKTIONSELEMENTE
100
AcDbLine
 62
7
  6
CONTINUOUS
 10
364.6804294341
 20
133.0813217932
 11
364.7085032735
 21
133.100799255
  0
LINE
  5
4E5
100
AcDbEntity
  8
KONSTRUKTIONSELEMENTE
100
AcDbLine
 62
7
  6
CONTINUOUS
 10
365.3904398106
 20
131.8192903746
 11
364.9613141174
 21
132.2541851879
  0
LINE
  5
4E6
100
AcDbEntity
  8
KONSTRUKTIONSELEMENTE
100
AcDbLine
 62
7
  6
CONTINUOUS
 10
364.6592759444
 20
134.3623631511
 11
364.4989260416
 21
134.5514147748
  0
LINE
  5
4E7
100
AcDbEntity
  8
KONSTRUKTIONSELEMENTE
100
AcDbLine
 62
7
  6
CONTINUOUS
 10
364.4989260416
 20
134.5514147748
 11
364.4371877245
 21
134.624200541
  0
LINE
  5
4E8
100
AcDbEntity
  8
KONSTRUKTIONSELEMENTE
100
AcDbLine
 62
7
  6
CONTINUOUS
 10
364.4371877245
 20
134.624200541
 11
364.0283210593
 21
135.1061866965
  0
LINE
  5
4E9
100
AcDbEntity
  8
KONSTRUKTIONSELEMENTE
100
AcDbLine
 62
7
  6
CONTINUOUS
 10
364.0283210593
 20
135.1061866965
 11
363.8459760436
 21
135.3211192527
  0
LINE
  5
4EA
100
AcDbEntity
  8
KONSTRUKTIONSELEMENTE
100
AcDbLine
 62
7
  6
CONTINUOUS
 10
363.8459760436
 20
135.3211192527
 11
363.8095649511
 21
135.3640360083
  0
LINE
  5
4EB
100
AcDbEntity
  8
KONSTRUKTIONSELEMENTE
100
AcDbLine
 62
7
  6
CONTINUOUS
 10
363.8095649511
 20
135.3640360083
 11
363.679871742
 21
135.5168979723
  0
LINE
  5
4EC
100
AcDbEntity
  8
KONSTRUKTIONSELEMENTE
100
AcDbLine
 62
7
  6
CONTINUOUS
 10
364.8301659998
 20
134.143197597
 11
364.7733637727
 21
134.216049131
  0
LINE
  5
4ED
100
AcDbEntity
  8
KONSTRUKTIONSELEMENTE
100
AcDbLine
 62
7
  6
CONTINUOUS
 10
364.7733637727
 20
134.216049131
 11
364.6592759444
 21
134.3623631511
  0
LINE
  5
4EE
100
AcDbEntity
  8
KONSTRUKTIONSELEMENTE
100
AcDbLine
 62
7
  6
CONTINUOUS
 10
364.9823119377
 20
133.9282987518
 11
364.8301659998
 21
134.143197597
  0
LINE
  5
4EF
100
AcDbEntity
  8
KONSTRUKTIONSELEMENTE
100
AcDbLine
 62
7
  6
CONTINUOUS
 10
365.026578918
 20
133.3664511295
 11
364.2123069811
 21
134.3256476067
  0
LINE
  5
4F0
100
AcDbEntity
  8
KONSTRUKTIONSELEMENTE
100
AcDbLine
 62
7
  6
CONTINUOUS
 10
364.2123069811
 20
134.3256476067
 11
364.1745838675
 21
134.3700817642
  0
LINE
  5
4F1
100
AcDbEntity
  8
KONSTRUKTIONSELEMENTE
100
AcDbLine
 62
7
  6
CONTINUOUS
 10
364.1745838675
 20
134.3700817642
 11
364.0466362192
 21
134.520789954
  0
LINE
  5
4F2
100
AcDbEntity
  8
KONSTRUKTIONSELEMENTE
100
AcDbLine
 62
7
  6
CONTINUOUS
 10
365.1414669943
 20
133.2509512875
 11
365.026578918
 21
133.3664511295
  0
LINE
  5
4F3
100
AcDbEntity
  8
KONSTRUKTIONSELEMENTE
100
AcDbLine
 62
7
  6
CONTINUOUS
 10
365.2130753117
 20
133.2060947138
 11
365.1414669943
 21
133.2509512875
  0
LINE
  5
4F4
100
AcDbEntity
  8
KONSTRUKTIONSELEMENTE
100
AcDbLine
 62
7
  6
CONTINUOUS
 10
363.4704387952
 20
136.6350720614
 11
363.3546492327
 21
136.7597420645
  0
LINE
  5
4F5
100
AcDbEntity
  8
KONSTRUKTIONSELEMENTE
100
AcDbLine
 62
7
  6
CONTINUOUS
 10
363.6306133941
 20
136.4400723314
 11
363.6040604757
 21
136.4724080715
  0
LINE
  5
4F6
100
AcDbEntity
  8
KONSTRUKTIONSELEMENTE
100
AcDbLine
 62
7
  6
CONTINUOUS
 10
363.6040604757
 20
136.4724080715
 11
363.5507832544
 21
136.5372765166
  0
LINE
  5
4F7
100
AcDbEntity
  8
KONSTRUKTIONSELEMENTE
100
AcDbLine
 62
7
  6
CONTINUOUS
 10
363.5507832544
 20
136.5372765166
 11
363.4704387952
 21
136.6350720614
  0
LINE
  5
4F8
100
AcDbEntity
  8
KONSTRUKTIONSELEMENTE
100
AcDbLine
 62
7
  6
CONTINUOUS
 10
364.1423966694
 20
135.7768900901
 11
363.8024530679
 21
136.2174133076
  0
LINE
  5
4F9
100
AcDbEntity
  8
KONSTRUKTIONSELEMENTE
100
AcDbLine
 62
7
  6
CONTINUOUS
 10
363.8024530679
 20
136.2174133076
 11
363.7166885814
 21
136.3285433593
  0
LINE
  5
4FA
100
AcDbEntity
  8
KONSTRUKTIONSELEMENTE
100
AcDbLine
 62
7
  6
CONTINUOUS
 10
363.7166885814
 20
136.3285433593
 11
363.6306133941
 21
136.4400723314
  0
LINE
  5
4FB
100
AcDbEntity
  8
KONSTRUKTIONSELEMENTE
100
AcDbLine
 62
7
  6
CONTINUOUS
 10
364.3235094513
 20
135.5298040823
 11
364.1423966694
 21
135.7768900901
  0
LINE
  5
4FC
100
AcDbEntity
  8
KONSTRUKTIONSELEMENTE
100
AcDbLine
 62
7
  6
CONTINUOUS
 10
364.4809454817
 20
135.3008768071
 11
364.3235094513
 21
135.5298040823
  0
LINE
  5
4FD
100
AcDbEntity
  8
KONSTRUKTIONSELEMENTE
100
AcDbLine
 62
7
  6
CONTINUOUS
 10
363.5714146299
 20
136.1286905594
 11
363.5651602034
 21
136.1466188615
  0
LINE
  5
4FE
100
AcDbEntity
  8
KONSTRUKTIONSELEMENTE
100
AcDbLine
 62
7
  6
CONTINUOUS
 10
364.8148168557
 20
134.4402988957
 11
364.7264861217
 21
134.5546840503
  0
LINE
  5
4FF
100
AcDbEntity
  8
KONSTRUKTIONSELEMENTE
100
AcDbLine
 62
7
  6
CONTINUOUS
 10
364.7264861217
 20
134.5546840503
 11
364.223942775
 21
135.2054146788
  0
LINE
  5
500
100
AcDbEntity
  8
KONSTRUKTIONSELEMENTE
100
AcDbLine
 62
7
  6
CONTINUOUS
 10
364.223942775
 20
135.2054146788
 11
364.1953299713
 21
135.242462553
  0
LINE
  5
501
100
AcDbEntity
  8
KONSTRUKTIONSELEMENTE
100
AcDbLine
 62
7
  6
CONTINUOUS
 10
364.1953299713
 20
135.242462553
 11
363.6199232786
 21
135.9874575729
  0
LINE
  5
502
100
AcDbEntity
  8
KONSTRUKTIONSELEMENTE
100
AcDbLine
 62
7
  6
CONTINUOUS
 10
364.7131084392
 20
135.0149170282
 11
364.7232588766
 21
134.9893359486
  0
LINE
  5
503
100
AcDbEntity
  8
KONSTRUKTIONSELEMENTE
100
AcDbLine
 62
7
  6
CONTINUOUS
 10
364.7232588766
 20
134.9893359486
 11
364.7333592977
 21
134.9637338494
  0
LINE
  5
504
100
AcDbEntity
  8
KONSTRUKTIONSELEMENTE
100
AcDbLine
 62
7
  6
CONTINUOUS
 10
363.061026765
 20
137.2147838297
 11
363.3193944089
 21
136.878426736
  0
LINE
  5
505
100
AcDbEntity
  8
KONSTRUKTIONSELEMENTE
100
AcDbLine
 62
7
  6
CONTINUOUS
 10
363.3193944089
 20
136.878426736
 11
363.3290945903
 21
136.8657980221
  0
LINE
  5
506
100
AcDbEntity
  8
KONSTRUKTIONSELEMENTE
100
AcDbLine
 62
7
  6
CONTINUOUS
 10
363.3290945903
 20
136.8657980221
 11
363.3370294647
 21
136.8554675428
  0
LINE
  5
507
100
AcDbEntity
  8
KONSTRUKTIONSELEMENTE
100
AcDbLine
 62
7
  6
CONTINUOUS
 10
363.3370294647
 20
136.8554675428
 11
363.3898117807
 21
136.7867491755
  0
LINE
  5
508
100
AcDbEntity
  8
KONSTRUKTIONSELEMENTE
100
AcDbLine
 62
7
  6
CONTINUOUS
 10
363.3898117807
 20
136.7867491755
 11
363.4930013278
 21
136.6524013907
  0
LINE
  5
509
100
AcDbEntity
  8
KONSTRUKTIONSELEMENTE
100
AcDbLine
 62
7
  6
CONTINUOUS
 10
363.4930013278
 20
136.6524013907
 11
363.5687537533
 21
136.5537726191
  0
LINE
  5
50A
100
AcDbEntity
  8
KONSTRUKTIONSELEMENTE
100
AcDbLine
 62
7
  6
CONTINUOUS
 10
363.5687537533
 20
136.5537726191
 11
363.6100431273
 21
136.5000133177
  0
LINE
  5
50B
100
AcDbEntity
  8
KONSTRUKTIONSELEMENTE
100
AcDbLine
 62
7
  6
CONTINUOUS
 10
363.6100431273
 20
136.5000133177
 11
363.6466315215
 21
136.4523741413
  0
LINE
  5
50C
100
AcDbEntity
  8
KONSTRUKTIONSELEMENTE
100
AcDbLine
 62
7
  6
CONTINUOUS
 10
363.6466315215
 20
136.4523741413
 11
364.0490204606
 21
135.9284112069
  0
LINE
  5
50D
100
AcDbEntity
  8
KONSTRUKTIONSELEMENTE
100
AcDbLine
 62
7
  6
CONTINUOUS
 10
364.0490204606
 20
135.9284112069
 11
364.1470988764
 21
135.8006881992
  0
LINE
  5
50E
100
AcDbEntity
  8
KONSTRUKTIONSELEMENTE
100
AcDbLine
 62
7
  6
CONTINUOUS
 10
364.1470988764
 20
135.8006881992
 11
364.1568507868
 21
135.7879884589
  0
LINE
  5
50F
100
AcDbEntity
  8
KONSTRUKTIONSELEMENTE
100
AcDbLine
 62
7
  6
CONTINUOUS
 10
364.1568507868
 20
135.7879884589
 11
364.3433817439
 21
135.5450624557
  0
LINE
  5
510
100
AcDbEntity
  8
KONSTRUKTIONSELEMENTE
100
AcDbLine
 62
7
  6
CONTINUOUS
 10
364.3433817439
 20
135.5450624557
 11
364.4110725415
 21
135.4569013753
  0
LINE
  5
511
100
AcDbEntity
  8
KONSTRUKTIONSELEMENTE
100
AcDbLine
 62
7
  6
CONTINUOUS
 10
364.4110725415
 20
135.4569013753
 11
364.5123520797
 21
135.3249888893
  0
LINE
  5
512
100
AcDbEntity
  8
KONSTRUKTIONSELEMENTE
100
AcDbLine
 62
7
  6
CONTINUOUS
 10
364.5123520797
 20
135.3249888893
 11
364.6720080306
 21
135.1170304072
  0
LINE
  5
513
100
AcDbEntity
  8
KONSTRUKTIONSELEMENTE
100
AcDbLine
 62
7
  6
CONTINUOUS
 10
365.4342955257
 20
132.9039909743
 11
365.4311983542
 21
132.8944335013
  0
LINE
  5
514
100
AcDbEntity
  8
KONSTRUKTIONSELEMENTE
100
AcDbLine
 62
7
  6
CONTINUOUS
 10
365.4234009964
 20
133.0789057443
 11
365.4278235749
 21
133.0576933838
  0
LINE
  5
515
100
AcDbEntity
  8
KONSTRUKTIONSELEMENTE
100
AcDbLine
 62
7
  6
CONTINUOUS
 10
365.4365621646
 20
133.0152376153
 11
365.4408784302
 21
132.9939941213
  0
LINE
  5
516
100
AcDbEntity
  8
KONSTRUKTIONSELEMENTE
100
AcDbLine
 62
7
  6
CONTINUOUS
 10
365.4408784302
 20
132.9939941213
 11
365.4451595551
 21
132.9727399522
  0
LINE
  5
517
100
AcDbEntity
  8
KONSTRUKTIONSELEMENTE
100
AcDbLine
 62
7
  6
CONTINUOUS
 10
365.4451595551
 20
132.9727399522
 11
365.4494056345
 21
132.9514752228
  0
LINE
  5
518
100
AcDbEntity
  8
KONSTRUKTIONSELEMENTE
100
AcDbLine
 62
7
  6
CONTINUOUS
 10
365.3161726918
 20
133.3749470263
 11
365.3343322624
 21
133.3257112815
  0
LINE
  5
519
100
AcDbEntity
  8
KONSTRUKTIONSELEMENTE
100
AcDbLine
 62
7
  6
CONTINUOUS
 10
365.2230294821
 20
133.5764487702
 11
365.2386365108
 21
133.5429060209
  0
LINE
  5
51A
100
AcDbEntity
  8
KONSTRUKTIONSELEMENTE
100
AcDbLine
 62
7
  6
CONTINUOUS
 10
365.3007320856
 20
133.4085722201
 11
365.3161726918
 21
133.3749470263
  0
LINE
  5
51B
100
AcDbEntity
  8
KONSTRUKTIONSELEMENTE
100
AcDbLine
 62
7
  6
CONTINUOUS
 10
365.109491014
 20
133.7825491848
 11
365.1285279225
 21
133.7481084477
  0
LINE
  5
51C
100
AcDbEntity
  8
KONSTRUKTIONSELEMENTE
100
AcDbLine
 62
7
  6
CONTINUOUS
 10
365.2042192151
 20
133.6107102588
 11
365.2230294821
 21
133.5764487702
  0
LINE
  5
51D
100
AcDbEntity
  8
KONSTRUKTIONSELEMENTE
100
AcDbLine
 62
7
  6
CONTINUOUS
 10
364.9830693777
 20
133.9826331836
 11
365.0212137194
 21
133.9223347274
  0
LINE
  5
51E
100
AcDbEntity
  8
KONSTRUKTIONSELEMENTE
100
AcDbLine
 62
7
  6
CONTINUOUS
 10
365.0212137194
 20
133.9223347274
 11
365.0802037424
 21
133.8289622582
  0
LINE
  5
51F
100
AcDbEntity
  8
KONSTRUKTIONSELEMENTE
100
AcDbLine
 62
7
  6
CONTINUOUS
 10
365.0802037424
 20
133.8289622582
 11
365.109491014
 21
133.7825491848
  0
SPLINE
  5
520
100
AcDbEntity
  8
0
100
AcDbSpline
 62
7
  6
CONTINUOUS
 70
0
 71
3
 72
11
 73
7
 74
0
 42
0.0000001
 43
0.0000001
 44
0.0000000001
 40
0.0
 40
0.0
 40
0.0
 40
0.0
 40
0.2501153763
 40
0.5000000002
 40
0.7498846243
 40
1.0
 40
1.0
 40
1.0
 40
1.0
 10
357.7616388454
 20
137.5194876047
 30
0.0
 10
357.9608426676
 20
136.7320549551
 30
0.0
 10
358.3950121766
 20
135.166673138
 30
0.0
 10
359.1662791788
 20
132.8556247576
 30
0.0
 10
360.0609676395
 20
130.5894981164
 30
0.0
 10
360.7345825376
 20
129.1112672955
 30
0.0
 10
361.0881355063
 20
128.380013143
 30
0.0
  0
SPLINE
  5
521
100
AcDbEntity
  8
0
100
AcDbSpline
 62
7
  6
CONTINUOUS
 70
0
 71
3
 72
11
 73
7
 74
0
 42
0.0000001
 43
0.0000001
 44
0.0000000001
 40
0.0
 40
0.0
 40
0.0
 40
0.0
 40
0.2500007761
 40
0.5000003897
 40
0.7499997461
 40
1.0
 40
1.0
 40
1.0
 40
1.0
 10
361.0881355063
 20
128.380013143
 30
0.0
 10
361.3144265589
 20
127.5528062244
 30
0.0
 10
361.7931974429
 20
125.9053966703
 30
0.0
 10
362.5978160171
 20
123.4610739765
 30
0.0
 10
363.4924602672
 20
121.0482257987
 30
0.0
 10
364.1474992988
 20
119.4625811003
 30
0.0
 10
364.488440996
 20
118.6756664838
 30
0.0
  0
LINE
  5
522
100
AcDbEntity
  8
KONSTRUKTIONSELEMENTE
100
AcDbLine
 62
7
  6
CONTINUOUS
 10
362.6905097454
 20
135.8098385087
 11
363.0840227692
 21
135.3000271743
  0
LINE
  5
523
100
AcDbEntity
  8
KONSTRUKTIONSELEMENTE
100
AcDbLine
 62
7
  6
CONTINUOUS
 10
363.3376167669
 20
134.036807996
 11
364.0799637594
 21
133.1617578482
  0
SPLINE
  5
524
100
AcDbEntity
  8
0
100
AcDbSpline
 62
7
  6
CONTINUOUS
 70
0
 71
3
 72
10
 73
6
 74
0
 42
0.0000001
 43
0.0000001
 44
0.0000000001
 40
0.0
 40
0.0
 40
0.0
 40
0.0
 40
0.5197649714
 40
0.7678605243
 40
1.0
 40
1.0
 40
1.0
 40
1.0
 10
368.6039189814
 20
103.0559818201
 30
0.0
 10
368.6955885374
 20
103.6076111189
 30
0.0
 10
368.8305519683
 20
104.4228637601
 30
0.0
 10
368.9621930073
 20
105.4907572194
 30
0.0
 10
368.9994000458
 20
106.0066681655
 30
0.0
 10
369.0048380796
 20
106.2563584825
 30
0.0
  0
SPLINE
  5
525
100
AcDbEntity
  8
0
100
AcDbSpline
 62
7
  6
CONTINUOUS
 70
0
 71
3
 72
13
 73
9
 74
0
 42
0.0000001
 43
0.0000001
 44
0.0000000001
 40
0.0
 40
0.0
 40
0.0
 40
0.0
 40
0.3768862323
 40
0.7001627069
 40
0.8261459541
 40
0.9208373056
 40
0.9798022726
 40
1.0
 40
1.0
 40
1.0
 40
1.0
 10
367.1869394713
 20
96.9475376435
 30
0.0
 10
366.9795004249
 20
96.7946345341
 30
0.0
 10
366.5943654878
 20
96.5102543619
 30
0.0
 10
366.1406045997
 20
96.1738068086
 30
0.0
 10
365.8423480843
 20
95.9515791066
 30
0.0
 10
365.6895171646
 20
95.8366966431
 30
0.0
 10
365.5943029533
 20
95.7654801414
 30
0.0
 10
365.5521807309
 20
95.7314863382
 30
0.0
 10
365.5415423445
 20
95.7226751408
 30
0.0
  0
LINE
  5
526
100
AcDbEntity
  8
KONSTRUKTIONSELEMENTE
100
AcDbLine
 62
7
  6
CONTINUOUS
 10
363.5643709829
 20
134.345259964
 11
362.9782887285
 21
135.0356227643
  0
LINE
  5
527
100
AcDbEntity
  8
KONSTRUKTIONSELEMENTE
100
AcDbLine
 62
7
  6
CONTINUOUS
 10
364.8992162642
 20
132.1643997054
 11
365.3138908733
 21
131.7438206317
  0
LINE
  5
528
100
AcDbEntity
  8
KONSTRUKTIONSELEMENTE
100
AcDbLine
 62
7
  6
CONTINUOUS
 10
365.3138908733
 20
131.7438206317
 11
365.4854538881
 21
131.5697903347
  0
LINE
  5
529
100
AcDbEntity
  8
KONSTRUKTIONSELEMENTE
100
AcDbLine
 62
7
  6
CONTINUOUS
 10
365.4854538881
 20
131.5697903347
 11
366.0858395164
 21
130.9606347795
  0
LINE
  5
52A
100
AcDbEntity
  8
KONSTRUKTIONSELEMENTE
100
AcDbLine
 62
7
  6
CONTINUOUS
 10
366.0858395164
 20
130.9606347795
 11
366.2427849569
 21
130.8013562927
  0
LINE
  5
52B
100
AcDbEntity
  8
0
100
AcDbLine
 62
7
  6
CONTINUOUS
 10
371.021179255
 20
105.5198204102
 11
371.5032080272
 21
104.1954706964
  0
LINE
  5
52C
100
AcDbEntity
  8
KONSTRUKTIONSELEMENTE
100
AcDbLine
 62
7
  6
CONTINUOUS
 10
364.9660193338
 20
132.8398771162
 11
365.0524458091
 21
132.7044520455
  0
LINE
  5
52D
100
AcDbEntity
  8
KONSTRUKTIONSELEMENTE
100
AcDbLine
 62
7
  6
CONTINUOUS
 10
364.8655247088
 20
132.9655520261
 11
364.9660193338
 21
132.8398771162
  0
LINE
  5
52E
100
AcDbEntity
  8
KONSTRUKTIONSELEMENTE
100
AcDbLine
 62
7
  6
CONTINUOUS
 10
364.7796924279
 20
133.0525284775
 11
364.8655247088
 21
132.9655520261
  0
LINE
  5
52F
100
AcDbEntity
  8
KONSTRUKTIONSELEMENTE
100
AcDbLine
 62
7
  6
CONTINUOUS
 10
364.7085032735
 20
133.100799255
 11
364.7441837864
 21
133.0766129535
  0
LINE
  5
530
100
AcDbEntity
  8
KONSTRUKTIONSELEMENTE
100
AcDbLine
 62
7
  6
CONTINUOUS
 10
364.7441837864
 20
133.0766129535
 11
364.7796924279
 21
133.0525284775
  0
LINE
  5
531
100
AcDbEntity
  8
KONSTRUKTIONSELEMENTE
100
AcDbLine
 62
7
  6
CONTINUOUS
 10
365.2416183934
 20
133.0127414365
 11
365.3453581797
 21
132.9308374066
  0
LINE
  5
532
100
AcDbEntity
  8
KONSTRUKTIONSELEMENTE
100
AcDbLine
 62
7
  6
CONTINUOUS
 10
365.0949314668
 20
133.1654094407
 11
365.2416183934
 21
133.0127414365
  0
LINE
  5
533
100
AcDbEntity
  8
KONSTRUKTIONSELEMENTE
100
AcDbLine
 62
7
  6
CONTINUOUS
 10
364.1155272644
 20
134.319944262
 11
364.9345189703
 21
133.3545348595
  0
LINE
  5
534
100
AcDbEntity
  8
KONSTRUKTIONSELEMENTE
100
AcDbLine
 62
7
  6
CONTINUOUS
 10
364.9345189703
 20
133.3545348595
 11
364.9671597062
 21
133.3160526533
  0
LINE
  5
535
100
AcDbEntity
  8
KONSTRUKTIONSELEMENTE
100
AcDbLine
 62
7
  6
CONTINUOUS
 10
364.9671597062
 20
133.3160526533
 11
365.0949314668
 21
133.1654094407
  0
LINE
  5
536
100
AcDbEntity
  8
KONSTRUKTIONSELEMENTE
100
AcDbLine
 62
7
  6
CONTINUOUS
 10
364.8752330636
 20
133.9824230052
 11
364.9952475665
 21
133.804571521
  0
LINE
  5
537
100
AcDbEntity
  8
KONSTRUKTIONSELEMENTE
100
AcDbLine
 62
7
  6
CONTINUOUS
 10
364.7361419245
 20
134.1644202057
 11
364.7826420461
 21
134.103581401
  0
LINE
  5
538
100
AcDbEntity
  8
KONSTRUKTIONSELEMENTE
100
AcDbLine
 62
7
  6
CONTINUOUS
 10
364.7826420461
 20
134.103581401
 11
364.8752330636
 21
133.9824230052
  0
LINE
  5
539
100
AcDbEntity
  8
KONSTRUKTIONSELEMENTE
100
AcDbLine
 62
7
  6
CONTINUOUS
 10
363.756199226
 20
135.3187590304
 11
364.384095641
 21
134.5791397753
  0
LINE
  5
53A
100
AcDbEntity
  8
KONSTRUKTIONSELEMENTE
100
AcDbLine
 62
7
  6
CONTINUOUS
 10
364.384095641
 20
134.5791397753
 11
364.4131882661
 21
134.5448688975
  0
LINE
  5
53B
100
AcDbEntity
  8
KONSTRUKTIONSELEMENTE
100
AcDbLine
 62
7
  6
CONTINUOUS
 10
364.4131882661
 20
134.5448688975
 11
364.5751290792
 21
134.3541007681
  0
LINE
  5
53C
100
AcDbEntity
  8
KONSTRUKTIONSELEMENTE
100
AcDbLine
 62
7
  6
CONTINUOUS
 10
364.5751290792
 20
134.3541007681
 11
364.6062934496
 21
134.3173881486
  0
LINE
  5
53D
100
AcDbEntity
  8
KONSTRUKTIONSELEMENTE
100
AcDbLine
 62
7
  6
CONTINUOUS
 10
364.6062934496
 20
134.3173881486
 11
364.7361419245
 21
134.1644202057
  0
SPLINE
  5
53E
100
AcDbEntity
  8
RUNDUNGEN
100
AcDbSpline
 62
7
  6
CONTINUOUS
 70
0
 71
3
 72
10
 73
6
 74
0
 42
0.0000001
 43
0.0000001
 44
0.0000000001
 40
0.0
 40
0.0
 40
0.0
 40
0.0
 40
0.5197649714
 40
0.7678605243
 40
1.0
 40
1.0
 40
1.0
 40
1.0
 10
374.4566416209
 20
105.1861986503
 30
0.0
 10
374.0318381885
 20
105.5498471545
 30
0.0
 10
373.4044159057
 20
106.0876140888
 30
0.0
 10
372.6171443351
 20
106.8210507105
 30
0.0
 10
372.2570209262
 20
107.1923452005
 30
0.0
 10
372.0923573086
 20
107.3801235796
 30
0.0
  0
SPLINE
  5
53F
100
AcDbEntity
  8
RUNDUNGEN
100
AcDbSpline
 62
7
  6
CONTINUOUS
 70
0
 71
3
 72
13
 73
9
 74
0
 42
0.0000001
 43
0.0000001
 44
0.0000000001
 40
0.0
 40
0.0
 40
0.0
 40
0.0
 40
0.3768862323
 40
0.7001627069
 40
0.8261459541
 40
0.9208373056
 40
0.9798022726
 40
1.0
 40
1.0
 40
1.0
 40
1.0
 10
379.4685431317
 20
101.4176758049
 30
0.0
 10
379.7257348847
 20
101.4338844764
 30
0.0
 10
380.2035614143
 20
101.4635965914
 30
0.0
 10
380.7674267396
 20
101.4975346895
 30
0.0
 10
381.1387496993
 20
101.5190139858
 30
0.0
 10
381.3296700002
 20
101.5292467346
 30
0.0
 10
381.4483854026
 20
101.5358942445
 30
0.0
 10
381.5025036924
 20
101.5369291232
 30
0.0
 10
381.5163168978
 20
101.5370175773
 30
0.0
  0
LINE
  5
540
100
AcDbEntity
  8
KONSTRUKTIONSELEMENTE
100
AcDbLine
 62
7
  6
CONTINUOUS
 10
363.4684202429
 20
136.0929747748
 11
363.5760262997
 21
135.9535733861
  0
LINE
  5
541
100
AcDbEntity
  8
KONSTRUKTIONSELEMENTE
100
AcDbLine
 62
7
  6
CONTINUOUS
 10
363.5760262997
 20
135.9535733861
 11
364.7499998985
 21
134.4323621649
  0
LINE
  5
542
100
AcDbEntity
  8
KONSTRUKTIONSELEMENTE
100
AcDbLine
 62
7
  6
CONTINUOUS
 10
364.7499998985
 20
134.4323621649
 11
364.7703483619
 21
134.4059882854
  0
LINE
  5
543
100
AcDbEntity
  8
KONSTRUKTIONSELEMENTE
100
AcDbLine
 62
7
  6
CONTINUOUS
 10
364.7703483619
 20
134.4059882854
 11
364.9197646485
 21
134.2123196594
  0
LINE
  5
544
100
AcDbEntity
  8
KONSTRUKTIONSELEMENTE
100
AcDbLine
 62
7
  6
CONTINUOUS
 10
364.9197646485
 20
134.2123196594
 11
365.0719880969
 21
134.0149964977
  0
LINE
  5
545
100
AcDbEntity
  8
KONSTRUKTIONSELEMENTE
100
AcDbLine
 62
7
  6
CONTINUOUS
 10
364.351585726
 20
135.4175307943
 11
364.4743710927
 21
135.2326221513
  0
LINE
  5
546
100
AcDbEntity
  8
KONSTRUKTIONSELEMENTE
100
AcDbLine
 62
7
  6
CONTINUOUS
 10
364.2047877262
 20
135.6204759587
 11
364.351585726
 21
135.4175307943
  0
LINE
  5
547
100
AcDbEntity
  8
KONSTRUKTIONSELEMENTE
100
AcDbLine
 62
7
  6
CONTINUOUS
 10
363.6926889408
 20
136.2835433637
 11
364.0351218321
 21
135.8401676543
  0
LINE
  5
548
100
AcDbEntity
  8
KONSTRUKTIONSELEMENTE
100
AcDbLine
 62
7
  6
CONTINUOUS
 10
364.0351218321
 20
135.8401676543
 11
364.1200843173
 21
135.730155079
  0
LINE
  5
549
100
AcDbEntity
  8
KONSTRUKTIONSELEMENTE
100
AcDbLine
 62
7
  6
CONTINUOUS
 10
364.1200843173
 20
135.730155079
 11
364.2047877262
 21
135.6204759587
  0
LINE
  5
54A
100
AcDbEntity
  8
KONSTRUKTIONSELEMENTE
100
AcDbLine
 62
7
  6
CONTINUOUS
 10
363.5663040663
 20
136.4342109862
 11
363.6085843857
 21
136.3838187177
  0
LINE
  5
54B
100
AcDbEntity
  8
KONSTRUKTIONSELEMENTE
100
AcDbLine
 62
7
  6
CONTINUOUS
 10
363.6085843857
 20
136.3838187177
 11
363.6926889408
 21
136.2835433637
  0
LINE
  5
54C
100
AcDbEntity
  8
KONSTRUKTIONSELEMENTE
100
AcDbLine
 62
7
  6
CONTINUOUS
 10
363.4840896698
 20
136.5144711063
 11
363.4978835796
 21
136.5010237077
  0
LINE
  5
54D
100
AcDbEntity
  8
KONSTRUKTIONSELEMENTE
100
AcDbLine
 62
7
  6
CONTINUOUS
 10
363.4978835796
 20
136.5010237077
 11
363.5526930506
 21
136.4475170716
  0
LINE
  5
54E
100
AcDbEntity
  8
KONSTRUKTIONSELEMENTE
100
AcDbLine
 62
7
  6
CONTINUOUS
 10
363.5526930506
 20
136.4475170716
 11
363.5663040663
 21
136.4342109862
  0
LINE
  5
54F
100
AcDbEntity
  8
KONSTRUKTIONSELEMENTE
100
AcDbLine
 62
7
  6
CONTINUOUS
 10
363.4777532403
 20
136.5161030345
 11
363.4840896698
 21
136.5144711063
  0
LINE
  5
550
100
AcDbEntity
  8
0
100
AcDbLine
 62
7
  6
CONTINUOUS
 10
373.7928653727
 20
97.9046888414
 11
374.2328063325
 21
96.6959609885
  0
LINE
  5
551
100
AcDbEntity
  8
KONSTRUKTIONSELEMENTE
100
AcDbLine
 62
7
  6
CONTINUOUS
 10
364.1213057667
 20
131.8812634393
 11
365.4648744594
 21
130.5182200267
  0
SPLINE
  5
552
100
AcDbEntity
  8
0
100
AcDbSpline
 62
7
  6
CONTINUOUS
 70
0
 71
3
 72
11
 73
7
 74
0
 42
0.0000001
 43
0.0000001
 44
0.0000000001
 40
0.0
 40
0.0
 40
0.0
 40
0.0
 40
0.2500007761
 40
0.5000003897
 40
0.7499997461
 40
1.0
 40
1.0
 40
1.0
 40
1.0
 10
363.936092226
 20
129.4165846175
 30
0.0
 10
364.2944615805
 20
128.6374502693
 30
0.0
 10
364.9866362548
 20
127.0677133428
 30
0.0
 10
365.9414430088
 20
124.6780546759
 30
0.0
 10
366.8070546652
 20
122.2546394983
 30
0.0
 10
367.3244984205
 20
120.6189142148
 30
0.0
 10
367.5691408933
 20
119.7969495472
 30
0.0
  0
SPLINE
  5
553
100
AcDbEntity
  8
0
100
AcDbSpline
 62
7
  6
CONTINUOUS
 70
0
 71
3
 72
11
 73
7
 74
0
 42
0.0000001
 43
0.0000001
 44
0.0000000001
 40
0.0
 40
0.0
 40
0.0
 40
0.0
 40
0.2501153763
 40
0.5000000002
 40
0.7498846243
 40
1.0
 40
1.0
 40
1.0
 40
1.0
 10
360.6095955651
 20
138.5560590791
 30
0.0
 10
360.9631485347
 20
137.8248049249
 30
0.0
 10
361.6367634314
 20
136.3465741016
 30
0.0
 10
362.5314518945
 20
134.0804474593
 30
0.0
 10
363.3027188978
 20
131.7693990813
 30
0.0
 10
363.7368884043
 20
130.2040172651
 30
0.0
 10
363.936092226
 20
129.4165846175
 30
0.0
  0
SPLINE
  5
554
100
AcDbEntity
  8
0
100
AcDbSpline
 62
7
  6
CONTINUOUS
 70
0
 71
3
 72
11
 73
7
 74
0
 42
0.0000001
 43
0.0000001
 44
0.0000000001
 40
0.0
 40
0.0
 40
0.0
 40
0.0
 40
0.2520136566
 40
0.5000000002
 40
0.747986344
 40
1.0
 40
1.0
 40
1.0
 40
1.0
 10
356.4910301844
 20
141.0104562097
 30
0.0
 10
356.5190892156
 20
140.6960609296
 30
0.0
 10
356.6095754652
 20
140.074525246
 30
0.0
 10
356.867499361
 20
139.1707636145
 30
0.0
 10
357.2508449709
 20
138.312651754
 30
0.0
 10
357.5810439201
 20
137.778364359
 30
0.0
 10
357.7616388454
 20
137.5194876047
 30
0.0
  0
SPLINE
  5
555
100
AcDbEntity
  8
0
100
AcDbSpline
 62
7
  6
CONTINUOUS
 70
0
 71
3
 72
11
 73
7
 74
0
 42
0.0000001
 43
0.0000001
 44
0.0000000001
 40
0.0
 40
0.0
 40
0.0
 40
0.0
 40
0.2520136566
 40
0.5000000002
 40
0.747986344
 40
1.0
 40
1.0
 40
1.0
 40
1.0
 10
359.3389869041
 20
142.0470276842
 30
0.0
 10
359.5195818298
 20
141.7881509292
 30
0.0
 10
359.8497807775
 20
141.2538635326
 30
0.0
 10
360.2331263892
 20
140.3957516724
 30
0.0
 10
360.4910502866
 20
139.4919900419
 30
0.0
 10
360.5815365339
 20
138.8704543586
 30
0.0
 10
360.6095955651
 20
138.5560590791
 30
0.0
  0
LINE
  5
556
100
AcDbEntity
  8
KONSTRUKTIONSELEMENTE
100
AcDbLine
 62
7
  6
CONTINUOUS
 10
337.9615351382
 20
132.5982267273
 11
338.0363378182
 21
132.7355539638
  0
LINE
  5
557
100
AcDbEntity
  8
KONSTRUKTIONSELEMENTE
100
AcDbLine
 62
7
  6
CONTINUOUS
 10
338.3747315507
 20
134.8266495622
 11
338.3927708091
 21
134.8587413255
  0
LINE
  5
558
100
AcDbEntity
  8
KONSTRUKTIONSELEMENTE
100
AcDbLine
 62
7
  6
CONTINUOUS
 10
338.3927708091
 20
134.8587413255
 11
338.4446587471
 21
134.9507966446
  0
LINE
  5
559
100
AcDbEntity
  8
KONSTRUKTIONSELEMENTE
100
AcDbLine
 62
7
  6
CONTINUOUS
 10
338.0981547993
 20
134.100367805
 11
338.105164258
 21
134.1217138203
  0
LINE
  5
55A
100
AcDbEntity
  8
KONSTRUKTIONSELEMENTE
100
AcDbLine
 62
7
  6
CONTINUOUS
 10
340.0814460743
 20
137.2147838297
 11
339.813378249
 21
136.8657980221
  0
LINE
  5
55B
100
AcDbEntity
  8
KONSTRUKTIONSELEMENTE
100
AcDbLine
 62
7
  6
CONTINUOUS
 10
339.813378249
 20
136.8657980221
 11
339.8054433746
 21
136.8554675428
  0
LINE
  5
55C
100
AcDbEntity
  8
KONSTRUKTIONSELEMENTE
100
AcDbLine
 62
7
  6
CONTINUOUS
 10
339.8054433746
 20
136.8554675428
 11
339.2991328597
 21
136.196243638
  0
LINE
  5
55D
100
AcDbEntity
  8
KONSTRUKTIONSELEMENTE
100
AcDbLine
 62
7
  6
CONTINUOUS
 10
339.2991328597
 20
136.196243638
 11
339.2623951798
 21
136.1484061861
  0
LINE
  5
55E
100
AcDbEntity
  8
KONSTRUKTIONSELEMENTE
100
AcDbLine
 62
7
  6
CONTINUOUS
 10
339.2623951798
 20
136.1484061861
 11
339.0934523786
 21
135.9284112069
  0
LINE
  5
55F
100
AcDbEntity
  8
KONSTRUKTIONSELEMENTE
100
AcDbLine
 62
7
  6
CONTINUOUS
 10
339.0934523786
 20
135.9284112069
 11
338.4704648087
 21
135.1170304072
  0
LINE
  5
560
100
AcDbEntity
  8
KONSTRUKTIONSELEMENTE
100
AcDbLine
 62
7
  6
CONTINUOUS
 10
338.9799272268
 20
135.3962359847
 11
339.0130841816
 21
135.381301012
  0
LINE
  5
561
100
AcDbEntity
  8
KONSTRUKTIONSELEMENTE
100
AcDbLine
 62
7
  6
CONTINUOUS
 10
338.9658223394
 20
135.4627792163
 11
338.9430138485
 21
135.4299184625
  0
LINE
  5
562
100
AcDbEntity
  8
KONSTRUKTIONSELEMENTE
100
AcDbLine
 62
7
  6
CONTINUOUS
 10
338.9430138485
 20
135.4299184625
 11
338.939233124
 21
135.4244710095
  0
LINE
  5
563
100
AcDbEntity
  8
KONSTRUKTIONSELEMENTE
100
AcDbLine
 62
7
  6
CONTINUOUS
 10
339.3051163801
 20
135.7904211105
 11
339.2111129322
 21
135.6825805389
  0
LINE
  5
564
100
AcDbEntity
  8
KONSTRUKTIONSELEMENTE
100
AcDbLine
 62
7
  6
CONTINUOUS
 10
339.4080175627
 20
135.9242939836
 11
339.3051163801
 21
135.7904211105
  0
LINE
  5
565
100
AcDbEntity
  8
KONSTRUKTIONSELEMENTE
100
AcDbLine
 62
7
  6
CONTINUOUS
 10
339.5198356656
 20
136.0841918554
 11
339.4080175627
 21
135.9242939836
  0
LINE
  5
566
100
AcDbEntity
  8
KONSTRUKTIONSELEMENTE
100
AcDbLine
 62
7
  6
CONTINUOUS
 10
339.6064093385
 20
136.2254413802
 11
339.5198356656
 21
136.0841918554
  0
LINE
  5
567
100
AcDbEntity
  8
KONSTRUKTIONSELEMENTE
100
AcDbLine
 62
7
  6
CONTINUOUS
 10
338.3634400594
 20
134.2796755426
 11
338.2107876855
 21
134.0637658414
  0
LINE
  5
568
100
AcDbEntity
  8
KONSTRUKTIONSELEMENTE
100
AcDbLine
 62
7
  6
CONTINUOUS
 10
338.5350556942
 20
134.5007084843
 11
338.3919451192
 21
134.3163903886
  0
LINE
  5
569
100
AcDbEntity
  8
KONSTRUKTIONSELEMENTE
100
AcDbLine
 62
7
  6
CONTINUOUS
 10
338.3919451192
 20
134.3163903886
 11
338.3634400594
 21
134.2796755426
  0
LINE
  5
56A
100
AcDbEntity
  8
KONSTRUKTIONSELEMENTE
100
AcDbLine
 62
7
  6
CONTINUOUS
 10
339.0113035666
 20
135.0661631375
 11
338.8514225488
 21
134.8763481819
  0
LINE
  5
56B
100
AcDbEntity
  8
KONSTRUKTIONSELEMENTE
100
AcDbLine
 62
7
  6
CONTINUOUS
 10
338.8514225488
 20
134.8763481819
 11
338.6137212857
 21
134.5941177855
  0
LINE
  5
56C
100
AcDbEntity
  8
KONSTRUKTIONSELEMENTE
100
AcDbLine
 62
7
  6
CONTINUOUS
 10
338.6137212857
 20
134.5941177855
 11
338.5350556942
 21
134.5007084843
  0
LINE
  5
56D
100
AcDbEntity
  8
KONSTRUKTIONSELEMENTE
100
AcDbLine
 62
7
  6
CONTINUOUS
 10
339.1572826035
 20
135.2220650827
 11
339.0355036167
 21
135.0920168292
  0
LINE
  5
56E
100
AcDbEntity
  8
KONSTRUKTIONSELEMENTE
100
AcDbLine
 62
7
  6
CONTINUOUS
 10
339.0355036167
 20
135.0920168292
 11
339.0113035666
 21
135.0661631375
  0
LINE
  5
56F
100
AcDbEntity
  8
KONSTRUKTIONSELEMENTE
100
AcDbLine
 62
7
  6
CONTINUOUS
 10
339.2588962261
 20
135.3076339666
 11
339.1572826035
 21
135.2220650827
  0
LINE
  5
570
100
AcDbEntity
  8
KONSTRUKTIONSELEMENTE
100
AcDbLine
 62
7
  6
CONTINUOUS
 10
338.8458806367
 20
134.2797854279
 11
338.7391560293
 21
134.1336416012
  0
LINE
  5
571
100
AcDbEntity
  8
KONSTRUKTIONSELEMENTE
100
AcDbLine
 62
7
  6
CONTINUOUS
 10
338.0084402841
 20
133.2667818745
 11
337.9244660091
 21
133.1868164265
  0
LINE
  5
572
100
AcDbEntity
  8
KONSTRUKTIONSELEMENTE
100
AcDbLine
 62
7
  6
CONTINUOUS
 10
338.2625918999
 20
133.5683021251
 11
338.0084402841
 21
133.2667818745
  0
LINE
  5
573
100
AcDbEntity
  8
KONSTRUKTIONSELEMENTE
100
AcDbLine
 62
7
  6
CONTINUOUS
 10
338.2796483306
 20
133.6179279332
 11
338.2625918999
 21
133.5683021251
  0
LINE
  5
574
100
AcDbEntity
  8
KONSTRUKTIONSELEMENTE
100
AcDbLine
 62
7
  6
CONTINUOUS
 10
338.5572391547
 20
134.0916463415
 11
338.366516931
 21
133.8655457004
  0
LINE
  5
575
100
AcDbEntity
  8
KONSTRUKTIONSELEMENTE
100
AcDbLine
 62
7
  6
CONTINUOUS
 10
336.9153512544
 20
130.4586391491
 11
336.7655683942
 21
130.2517183427
  0
LINE
  5
576
100
AcDbEntity
  8
KONSTRUKTIONSELEMENTE
100
AcDbLine
 62
7
  6
CONTINUOUS
 10
337.0739978262
 20
130.6418636157
 11
336.9416241343
 21
130.4889956378
  0
LINE
  5
577
100
AcDbEntity
  8
KONSTRUKTIONSELEMENTE
100
AcDbLine
 62
7
  6
CONTINUOUS
 10
336.9416241343
 20
130.4889956378
 11
336.9153512544
 21
130.4586391491
  0
LINE
  5
578
100
AcDbEntity
  8
KONSTRUKTIONSELEMENTE
100
AcDbLine
 62
7
  6
CONTINUOUS
 10
337.2663532851
 20
130.8209215155
 11
337.0739978262
 21
130.6418636157
  0
LINE
  5
579
100
AcDbEntity
  8
KONSTRUKTIONSELEMENTE
100
AcDbLine
 62
7
  6
CONTINUOUS
 10
337.4421224273
 20
130.9569711659
 11
337.2663532851
 21
130.8209215155
  0
LINE
  5
57A
100
AcDbEntity
  8
KONSTRUKTIONSELEMENTE
100
AcDbLine
 62
7
  6
CONTINUOUS
 10
337.6013797373
 20
131.0499854968
 11
337.4421224273
 21
130.9569711659
  0
LINE
  5
57B
100
AcDbEntity
  8
KONSTRUKTIONSELEMENTE
100
AcDbLine
 62
7
  6
CONTINUOUS
 10
337.6940705105
 20
131.0610309412
 11
337.6013797373
 21
131.0499854968
  0
LINE
  5
57C
100
AcDbEntity
  8
KONSTRUKTIONSELEMENTE
100
AcDbLine
 62
7
  6
CONTINUOUS
 10
337.3126810795
 20
130.0227441435
 11
337.2066127584
 21
129.8775326033
  0
LINE
  5
57D
100
AcDbEntity
  8
KONSTRUKTIONSELEMENTE
100
AcDbLine
 62
7
  6
CONTINUOUS
 10
337.5534001862
 20
130.8303232304
 11
337.5964158541
 21
130.8022990298
  0
LINE
  5
57E
100
AcDbEntity
  8
KONSTRUKTIONSELEMENTE
100
AcDbLine
 62
7
  6
CONTINUOUS
 10
336.789283336
 20
129.5231842788
 11
336.7137541535
 21
129.4382766838
  0
LINE
  5
57F
100
AcDbEntity
  8
KONSTRUKTIONSELEMENTE
100
AcDbLine
 62
7
  6
CONTINUOUS
 10
336.7137541535
 20
129.4382766838
 11
336.698726018
 21
129.4213745352
  0
LINE
  5
580
100
AcDbEntity
  8
KONSTRUKTIONSELEMENTE
100
AcDbLine
 62
7
  6
CONTINUOUS
 10
336.8700529529
 20
129.649028882
 11
336.789283336
 21
129.5231842788
  0
LINE
  5
581
100
AcDbEntity
  8
KONSTRUKTIONSELEMENTE
100
AcDbLine
 62
7
  6
CONTINUOUS
 10
336.6233524322
 20
129.3630835399
 11
336.5631375899
 21
129.3483203481
  0
LINE
  5
582
100
AcDbEntity
  8
KONSTRUKTIONSELEMENTE
100
AcDbLine
 62
7
  6
CONTINUOUS
 10
336.698726018
 20
129.4213745352
 11
336.6233524322
 21
129.3630835399
  0
SPLINE
  5
583
100
AcDbEntity
  8
0
100
AcDbSpline
 62
7
  6
CONTINUOUS
 70
0
 71
3
 72
11
 73
7
 74
0
 42
0.0000001
 43
0.0000001
 44
0.0000000001
 40
0.0
 40
0.0
 40
0.0
 40
0.0
 40
0.2520136566
 40
0.5000000002
 40
0.747986344
 40
1.0
 40
1.0
 40
1.0
 40
1.0
 10
345.3808339939
 20
137.5194876047
 30
0.0
 10
345.5614289195
 20
137.7783643596
 30
0.0
 10
345.8916278673
 20
138.3126517562
 30
0.0
 10
346.274973479
 20
139.1707636164
 30
0.0
 10
346.5328973764
 20
140.0745252469
 30
0.0
 10
346.6233836237
 20
140.6960609303
 30
0.0
 10
346.6514426548
 20
141.0104562097
 30
0.0
  0
SPLINE
  5
584
100
AcDbEntity
  8
0
100
AcDbSpline
 62
7
  6
CONTINUOUS
 70
0
 71
3
 72
11
 73
7
 74
0
 42
0.0000001
 43
0.0000001
 44
0.0000000001
 40
0.0
 40
0.0
 40
0.0
 40
0.0
 40
0.2500002539
 40
0.4999996148
 40
0.7499992305
 40
1.0
 40
1.0
 40
1.0
 40
1.0
 10
338.6540318433
 20
118.6756664838
 30
0.0
 10
338.9949735404
 20
119.4625811001
 30
0.0
 10
339.6500125721
 20
121.0482258151
 30
0.0
 10
340.544656828
 20
123.4610740149
 30
0.0
 10
341.3492753958
 20
125.9053967106
 30
0.0
 10
341.8280462864
 20
127.5528062464
 30
0.0
 10
342.054337333
 20
128.380013143
 30
0.0
  0
SPLINE
  5
585
100
AcDbEntity
  8
0
100
AcDbSpline
 62
7
  6
CONTINUOUS
 70
0
 71
3
 72
11
 73
7
 74
0
 42
0.0000001
 43
0.0000001
 44
0.0000000001
 40
0.0
 40
0.0
 40
0.0
 40
0.0
 40
0.2501153763
 40
0.5000000002
 40
0.7498846243
 40
1.0
 40
1.0
 40
1.0
 40
1.0
 10
342.054337333
 20
128.380013143
 30
0.0
 10
342.4078903026
 20
129.1112672973
 30
0.0
 10
343.0815051993
 20
130.5894981205
 30
0.0
 10
343.9761936624
 20
132.8556247628
 30
0.0
 10
344.7474606657
 20
135.1666731408
 30
0.0
 10
345.1816301722
 20
136.732054957
 30
0.0
 10
345.3808339939
 20
137.5194876047
 30
0.0
  0
LINE
  5
586
100
AcDbEntity
  8
KONSTRUKTIONSELEMENTE
100
AcDbLine
 62
7
  6
CONTINUOUS
 10
339.4495732499
 20
133.6516914169
 11
339.6195032597
 21
133.8733363097
  0
SPLINE
  5
587
100
AcDbEntity
  8
0
100
AcDbSpline
 62
7
  6
CONTINUOUS
 70
0
 71
3
 72
10
 73
6
 74
0
 42
0.0000001
 43
0.0000001
 44
0.0000000001
 40
0.0
 40
0.0
 40
0.0
 40
0.0
 40
0.23216173
 40
0.480253206
 40
1.0
 40
1.0
 40
1.0
 40
1.0
 10
334.1376347597
 20
106.2563584825
 30
0.0
 10
334.1430733149
 20
106.0066442207
 30
0.0
 10
334.180279294
 20
105.4907134516
 30
0.0
 10
334.3119318777
 20
104.4228213163
 30
0.0
 10
334.4468875049
 20
103.6075918446
 30
0.0
 10
334.5385538579
 20
103.0559818201
 30
0.0
  0
SPLINE
  5
588
100
AcDbEntity
  8
0
100
AcDbSpline
 62
7
  6
CONTINUOUS
 70
0
 71
3
 72
13
 73
9
 74
0
 42
0.0000001
 43
0.0000001
 44
0.0000000001
 40
0.0
 40
0.0
 40
0.0
 40
0.0
 40
0.3775090999
 40
0.7011391425
 40
0.8271086592
 40
0.9216609808
 40
0.980260513
 40
1.0
 40
1.0
 40
1.0
 40
1.0
 10
335.9555333679
 20
96.9475376435
 30
0.0
 10
336.163315252
 20
96.7943818288
 30
0.0
 10
336.5489875139
 20
96.5096052367
 30
0.0
 10
337.0032735837
 20
96.1727610085
 30
0.0
 10
337.3016397266
 20
95.9504502058
 30
0.0
 10
337.4541801395
 20
95.8357715326
 30
0.0
 10
337.5488665776
 20
95.7649475776
 30
0.0
 10
337.5905364325
 20
95.731290008
 30
0.0
 10
337.6009304948
 20
95.7226751408
 30
0.0
  0
LINE
  5
589
100
AcDbEntity
  8
KONSTRUKTIONSELEMENTE
100
AcDbLine
 62
7
  6
CONTINUOUS
 10
338.6875826543
 20
132.7469618292
 11
339.1638029875
 21
133.3124265059
  0
LINE
  5
58A
100
AcDbEntity
  8
KONSTRUKTIONSELEMENTE
100
AcDbLine
 62
7
  6
CONTINUOUS
 10
340.2448889381
 20
135.6446674531
 11
340.4083116575
 21
135.901433985
  0
LINE
  5
58B
100
AcDbEntity
  8
KONSTRUKTIONSELEMENTE
100
AcDbLine
 62
7
  6
CONTINUOUS
 10
340.1333757644
 20
135.4846585962
 11
340.2448889381
 21
135.6446674531
  0
LINE
  5
58C
100
AcDbEntity
  8
KONSTRUKTIONSELEMENTE
100
AcDbLine
 62
7
  6
CONTINUOUS
 10
339.9962421475
 20
135.3061367499
 11
340.1333757644
 21
135.4846585962
  0
LINE
  5
58D
100
AcDbEntity
  8
KONSTRUKTIONSELEMENTE
100
AcDbLine
 62
7
  6
CONTINUOUS
 10
339.9962421475
 20
135.3061367499
 11
339.9020222828
 21
135.1983749476
  0
LINE
  5
58E
100
AcDbEntity
  8
KONSTRUKTIONSELEMENTE
100
AcDbLine
 62
7
  6
CONTINUOUS
 10
339.9020222828
 20
135.1983749476
 11
339.8413998871
 21
135.1437112653
  0
LINE
  5
58F
100
AcDbEntity
  8
0
100
AcDbLine
 62
7
  6
CONTINUOUS
 10
331.6998660344
 20
104.3619703695
 11
332.1291317815
 21
105.5413588547
  0
SPLINE
  5
590
100
AcDbEntity
  8
0
100
AcDbSpline
 62
7
  6
CONTINUOUS
 70
0
 71
3
 72
11
 73
7
 74
0
 42
0.0000001
 43
0.0000001
 44
0.0000000001
 40
0.0
 40
0.0
 40
0.0
 40
0.0
 40
0.2520136566
 40
0.5000000002
 40
0.747986344
 40
1.0
 40
1.0
 40
1.0
 40
1.0
 10
342.5328772742
 20
138.5560590791
 30
0.0
 10
342.5609363054
 20
138.8704543593
 30
0.0
 10
342.6514225549
 20
139.4919900428
 30
0.0
 10
342.9093464507
 20
140.3957516743
 30
0.0
 10
343.2926920606
 20
141.2538635348
 30
0.0
 10
343.6228910099
 20
141.7881509298
 30
0.0
 10
343.8034859352
 20
142.0470276842
 30
0.0
  0
SPLINE
  5
591
100
AcDbEntity
  8
0
100
AcDbSpline
 62
7
  6
CONTINUOUS
 70
0
 71
3
 72
11
 73
7
 74
0
 42
0.0000001
 43
0.0000001
 44
0.0000000001
 40
0.0
 40
0.0
 40
0.0
 40
0.0
 40
0.2501153763
 40
0.5000000002
 40
0.7498846243
 40
1.0
 40
1.0
 40
1.0
 40
1.0
 10
339.2063806133
 20
129.4165846175
 30
0.0
 10
339.4055844355
 20
130.2040172671
 30
0.0
 10
339.8397539445
 20
131.7693990842
 30
0.0
 10
340.6110209467
 20
134.0804474646
 30
0.0
 10
341.5057094074
 20
136.3465741057
 30
0.0
 10
342.1793243055
 20
137.8248049267
 30
0.0
 10
342.5328772742
 20
138.5560590791
 30
0.0
  0
SPLINE
  5
592
100
AcDbEntity
  8
RUNDUNGEN
100
AcDbSpline
 62
7
  6
CONTINUOUS
 70
0
 71
3
 72
10
 73
6
 74
0
 42
0.0000001
 43
0.0000001
 44
0.0000000001
 40
0.0
 40
0.0
 40
0.0
 40
0.0
 40
0.23216173
 40
0.480253206
 40
1.0
 40
1.0
 40
1.0
 40
1.0
 10
331.0501155307
 20
107.3801235796
 30
0.0
 10
330.8854361222
 20
107.1923271929
 30
0.0
 10
330.5253007828
 20
106.8210168366
 30
0.0
 10
329.7380212196
 20
106.08758865
 30
0.0
 10
329.1106198079
 20
105.5498344484
 30
0.0
 10
328.6858312184
 20
105.1861986503
 30
0.0
  0
SPLINE
  5
593
100
AcDbEntity
  8
0
100
AcDbSpline
 62
7
  6
CONTINUOUS
 70
0
 71
3
 72
11
 73
7
 74
0
 42
0.0000001
 43
0.0000001
 44
0.0000000001
 40
0.0
 40
0.0
 40
0.0
 40
0.0
 40
0.2500002539
 40
0.4999996148
 40
0.7499992305
 40
1.0
 40
1.0
 40
1.0
 40
1.0
 10
335.5733319459
 20
119.7969495472
 30
0.0
 10
335.8179744187
 20
120.6189142147
 30
0.0
 10
336.3354181846
 20
122.2546395108
 30
0.0
 10
337.2010298507
 20
124.6780547091
 30
0.0
 10
338.1558366108
 20
127.0677133732
 30
0.0
 10
338.8480112683
 20
128.6374502901
 30
0.0
 10
339.2063806133
 20
129.4165846175
 30
0.0
  0
LINE
  5
594
100
AcDbEntity
  8
0
100
AcDbLine
 62
7
  6
CONTINUOUS
 10
329.2373206026
 20
97.5961832374
 11
328.9096665068
 21
96.6959609885
  0
SPLINE
  5
595
100
AcDbEntity
  8
RUNDUNGEN
100
AcDbSpline
 62
7
  6
CONTINUOUS
 70
0
 71
3
 72
13
 73
9
 74
0
 42
0.0000001
 43
0.0000001
 44
0.0000000001
 40
0.0
 40
0.0
 40
0.0
 40
0.0
 40
0.3775090999
 40
0.7011391425
 40
0.8271086592
 40
0.9216609808
 40
0.980260513
 40
1.0
 40
1.0
 40
1.0
 40
1.0
 10
323.6739297075
 20
101.4176758049
 30
0.0
 10
323.4163128899
 20
101.4339112647
 30
0.0
 10
322.9378199318
 20
101.4636650902
 30
0.0
 10
322.3732973162
 20
101.4976368979
 30
0.0
 10
322.0018369609
 20
101.5191230027
 30
0.0
 10
321.811270195
 20
101.5293251298
 30
0.0
 10
321.6932114145
 20
101.5359341018
 30
0.0
 10
321.639655785
 20
101.536935774
 30
0.0
 10
321.6261559414
 20
101.5370175773
 30
0.0
  0
LINE
  5
596
100
AcDbEntity
  8
KONSTRUKTIONSELEMENTE
100
AcDbLine
 62
7
  6
CONTINUOUS
 10
337.426577266
 20
128.9398031336
 11
337.582091749
 21
129.1241675673
  0
LINE
  5
597
100
AcDbEntity
  8
KONSTRUKTIONSELEMENTE
100
AcDbLine
 62
7
  6
CONTINUOUS
 10
337.3010405913
 20
128.8426201449
 11
337.426577266
 21
128.9398031336
  0
LINE
  5
598
100
AcDbEntity
  8
KONSTRUKTIONSELEMENTE
100
AcDbLine
 62
7
  6
CONTINUOUS
 10
337.3010405913
 20
128.8426201449
 11
337.2053691681
 21
128.8326596284
  0
LINE
  5
599
100
AcDbEntity
  8
KONSTRUKTIONSELEMENTE
100
AcDbLine
 62
7
  6
CONTINUOUS
 10
338.4091135415
 20
134.9637338494
 11
338.5059540532
 21
135.089759738
  0
LINE
  5
59A
100
AcDbEntity
  8
KONSTRUKTIONSELEMENTE
100
AcDbLine
 62
7
  6
CONTINUOUS
 10
338.5059540532
 20
135.089759738
 11
338.5278119724
 21
135.118204709
  0
LINE
  5
59B
100
AcDbEntity
  8
KONSTRUKTIONSELEMENTE
100
AcDbLine
 62
7
  6
CONTINUOUS
 10
338.5278119724
 20
135.118204709
 11
338.8569165599
 21
135.5464710464
  0
LINE
  5
59C
100
AcDbEntity
  8
KONSTRUKTIONSELEMENTE
100
AcDbLine
 62
7
  6
CONTINUOUS
 10
338.8569165599
 20
135.5464710464
 11
339.129289796
 21
135.9008910543
  0
LINE
  5
59D
100
AcDbEntity
  8
KONSTRUKTIONSELEMENTE
100
AcDbLine
 62
7
  6
CONTINUOUS
 10
339.4669784406
 20
135.9278037191
 11
339.63040116
 21
136.184570251
  0
LINE
  5
59E
100
AcDbEntity
  8
KONSTRUKTIONSELEMENTE
100
AcDbLine
 62
7
  6
CONTINUOUS
 10
339.3554652669
 20
135.7677948622
 11
339.4669784406
 21
135.9278037191
  0
LINE
  5
59F
100
AcDbEntity
  8
KONSTRUKTIONSELEMENTE
100
AcDbLine
 62
7
  6
CONTINUOUS
 10
339.21833165
 20
135.5892730159
 11
339.3554652669
 21
135.7677948622
  0
LINE
  5
5A0
100
AcDbEntity
  8
KONSTRUKTIONSELEMENTE
100
AcDbLine
 62
7
  6
CONTINUOUS
 10
339.1241117853
 20
135.4815112136
 11
339.21833165
 21
135.5892730159
  0
LINE
  5
5A1
100
AcDbEntity
  8
KONSTRUKTIONSELEMENTE
100
AcDbLine
 62
7
  6
CONTINUOUS
 10
338.112977772
 20
134.1348428462
 11
338.2175179629
 21
134.2874934261
  0
LINE
  5
5A2
100
AcDbEntity
  8
KONSTRUKTIONSELEMENTE
100
AcDbLine
 62
7
  6
CONTINUOUS
 10
338.2175179629
 20
134.2874934261
 11
338.2519227347
 21
134.3376955318
  0
LINE
  5
5A3
100
AcDbEntity
  8
KONSTRUKTIONSELEMENTE
100
AcDbLine
 62
7
  6
CONTINUOUS
 10
338.2519227347
 20
134.3376955318
 11
338.2605352553
 21
134.3502598469
  0
LINE
  5
5A4
100
AcDbEntity
  8
KONSTRUKTIONSELEMENTE
100
AcDbLine
 62
7
  6
CONTINUOUS
 10
338.2605352553
 20
134.3502598469
 11
338.4186161803
 21
134.580685518
  0
LINE
  5
5A5
100
AcDbEntity
  8
KONSTRUKTIONSELEMENTE
100
AcDbLine
 62
7
  6
CONTINUOUS
 10
339.1533313466
 20
135.6786415761
 11
339.1610058649
 21
135.7003827206
  0
LINE
  5
5A6
100
AcDbEntity
  8
KONSTRUKTIONSELEMENTE
100
AcDbLine
 62
7
  6
CONTINUOUS
 10
339.1610058649
 20
135.7003827206
 11
339.1824942881
 21
135.76072641
  0
LINE
  5
5A7
100
AcDbEntity
  8
KONSTRUKTIONSELEMENTE
100
AcDbLine
 62
7
  6
CONTINUOUS
 10
339.1824942881
 20
135.76072641
 11
339.2061249172
 21
135.8262071777
  0
LINE
  5
5A8
100
AcDbEntity
  8
KONSTRUKTIONSELEMENTE
100
AcDbLine
 62
7
  6
CONTINUOUS
 10
339.2061249172
 20
135.8262071777
 11
339.2121088154
 21
135.8426463945
  0
LINE
  5
5A9
100
AcDbEntity
  8
KONSTRUKTIONSELEMENTE
100
AcDbLine
 62
7
  6
CONTINUOUS
 10
339.1544860777
 20
135.673106122
 11
339.1533313466
 21
135.6786415761
  0
LINE
  5
5AA
100
AcDbEntity
  8
KONSTRUKTIONSELEMENTE
100
AcDbLine
 62
7
  6
CONTINUOUS
 10
339.3350686669
 20
136.1686450319
 11
339.8495388042
 21
136.838021779
  0
LINE
  5
5AB
100
AcDbEntity
  8
KONSTRUKTIONSELEMENTE
100
AcDbLine
 62
7
  6
CONTINUOUS
 10
337.9096721568
 20
133.0300980952
 11
338.0672385957
 21
133.2172075383
  0
LINE
  5
5AC
100
AcDbEntity
  8
KONSTRUKTIONSELEMENTE
100
AcDbLine
 62
7
  6
CONTINUOUS
 10
338.0672385957
 20
133.2172075383
 11
338.3057906817
 21
133.5004588336
  0
LINE
  5
5AD
100
AcDbEntity
  8
KONSTRUKTIONSELEMENTE
100
AcDbLine
 62
7
  6
CONTINUOUS
 10
338.3057906817
 20
133.5004588336
 11
338.3212909935
 21
133.5188624413
  0
LINE
  5
5AE
100
AcDbEntity
  8
KONSTRUKTIONSELEMENTE
100
AcDbLine
 62
7
  6
CONTINUOUS
 10
338.3212909935
 20
133.5188624413
 11
338.38589249
 21
133.5955627719
  0
LINE
  5
5AF
100
AcDbEntity
  8
KONSTRUKTIONSELEMENTE
100
AcDbLine
 62
7
  6
CONTINUOUS
 10
337.7937234049
 20
132.912517395
 11
337.9096721568
 21
133.0300980952
  0
LINE
  5
5B0
100
AcDbEntity
  8
KONSTRUKTIONSELEMENTE
100
AcDbLine
 62
7
  6
CONTINUOUS
 10
337.999089717
 20
129.4786365313
 11
338.1451708819
 21
129.6869046346
  0
LINE
  5
5B1
100
AcDbEntity
  8
KONSTRUKTIONSELEMENTE
100
AcDbLine
 62
7
  6
CONTINUOUS
 10
338.6716627524
 20
133.9348276829
 11
338.8415927622
 21
134.1564725757
  0
LINE
  5
5B2
100
AcDbEntity
  8
KONSTRUKTIONSELEMENTE
100
AcDbLine
 62
7
  6
CONTINUOUS
 10
337.9086290312
 20
129.3767916565
 11
337.999089717
 21
129.4786365313
  0
LINE
  5
5B3
100
AcDbEntity
  8
KONSTRUKTIONSELEMENTE
100
AcDbLine
 62
7
  6
CONTINUOUS
 10
338.9351362494
 20
134.8705063117
 11
339.0496927232
 21
134.988592021
  0
LINE
  5
5B4
100
AcDbEntity
  8
KONSTRUKTIONSELEMENTE
100
AcDbLine
 62
7
  6
CONTINUOUS
 10
338.4585820469
 20
134.3051631535
 11
338.6164782356
 21
134.4924843561
  0
LINE
  5
5B5
100
AcDbEntity
  8
KONSTRUKTIONSELEMENTE
100
AcDbLine
 62
7
  6
CONTINUOUS
 10
338.6164782356
 20
134.4924843561
 11
338.6957858934
 21
134.586568951
  0
LINE
  5
5B6
100
AcDbEntity
  8
KONSTRUKTIONSELEMENTE
100
AcDbLine
 62
7
  6
CONTINUOUS
 10
338.6957858934
 20
134.586568951
 11
338.9351362494
 21
134.8705063117
  0
LINE
  5
5B7
100
AcDbEntity
  8
KONSTRUKTIONSELEMENTE
100
AcDbLine
 62
7
  6
CONTINUOUS
 10
338.3189150673
 20
134.1217548279
 11
338.4352200132
 21
134.2744876691
  0
LINE
  5
5B8
100
AcDbEntity
  8
KONSTRUKTIONSELEMENTE
100
AcDbLine
 62
7
  6
CONTINUOUS
 10
338.4352200132
 20
134.2744876691
 11
338.4585820469
 21
134.3051631535
  0
LINE
  5
5B9
100
AcDbEntity
  8
KONSTRUKTIONSELEMENTE
100
AcDbLine
 62
7
  6
CONTINUOUS
 10
338.1985463815
 20
133.9433478353
 11
338.3189150673
 21
134.1217548279
  0
LINE
  5
5BA
100
AcDbEntity
  8
KONSTRUKTIONSELEMENTE
100
AcDbLine
 62
7
  6
CONTINUOUS
 10
337.9072976573
 20
133.2893043937
 11
337.90978389
 21
133.3050101239
  0
LINE
  5
5BB
100
AcDbEntity
  8
KONSTRUKTIONSELEMENTE
100
AcDbLine
 62
7
  6
CONTINUOUS
 10
336.6486667685
 20
129.2229393996
 11
336.7780468003
 21
129.3763494227
  0
LINE
  5
5BC
100
AcDbEntity
  8
KONSTRUKTIONSELEMENTE
100
AcDbLine
 62
7
  6
CONTINUOUS
 10
336.7780468003
 20
129.3763494227
 11
336.8041812515
 21
129.4073038333
  0
LINE
  5
5BD
100
AcDbEntity
  8
KONSTRUKTIONSELEMENTE
100
AcDbLine
 62
7
  6
CONTINUOUS
 10
336.5231300938
 20
129.1257564109
 11
336.6486667685
 21
129.2229393996
  0
LINE
  5
5BE
100
AcDbEntity
  8
KONSTRUKTIONSELEMENTE
100
AcDbLine
 62
7
  6
CONTINUOUS
 10
336.4274586706
 20
129.1157958945
 11
336.5231300938
 21
129.1257564109
  0
LINE
  5
5BF
100
AcDbEntity
  8
KONSTRUKTIONSELEMENTE
100
AcDbLine
 62
7
  6
CONTINUOUS
 10
337.2211792196
 20
129.7617727973
 11
337.3672603844
 21
129.9700409006
  0
LINE
  5
5C0
100
AcDbEntity
  8
KONSTRUKTIONSELEMENTE
100
AcDbLine
 62
7
  6
CONTINUOUS
 10
337.1307185337
 20
129.6599279225
 11
337.2211792196
 21
129.7617727973
  0
LINE
  5
5C1
100
AcDbEntity
  8
KONSTRUKTIONSELEMENTE
100
AcDbLine
 62
7
  6
CONTINUOUS
 10
337.4942711706
 20
130.8151647499
 11
337.5534001862
 21
130.8303232304
  0
LINE
  5
5C2
100
AcDbEntity
  8
KONSTRUKTIONSELEMENTE
100
AcDbLine
 62
7
  6
CONTINUOUS
 10
337.3598208586
 20
130.7416963224
 11
337.4942711706
 21
130.8151647499
  0
LINE
  5
5C3
100
AcDbEntity
  8
KONSTRUKTIONSELEMENTE
100
AcDbLine
 62
7
  6
CONTINUOUS
 10
337.3095683519
 20
130.7028369144
 11
337.3598208586
 21
130.7416963224
  0
LINE
  5
5C4
100
AcDbEntity
  8
KONSTRUKTIONSELEMENTE
100
AcDbLine
 62
7
  6
CONTINUOUS
 10
337.076707446
 20
129.8719274538
 11
337.0937569933
 21
129.9113721861
  0
LINE
  5
5C5
100
AcDbEntity
  8
KONSTRUKTIONSELEMENTE
100
AcDbLine
 62
7
  6
CONTINUOUS
 10
337.7027663886
 20
129.3131079772
 11
337.7662219769
 21
129.428624919
  0
LINE
  5
5C6
100
AcDbEntity
  8
KONSTRUKTIONSELEMENTE
100
AcDbLine
 62
7
  6
CONTINUOUS
 10
337.0922130852
 20
130.5043032883
 11
337.1512992721
 21
130.5194773171
  0
LINE
  5
5C7
100
AcDbEntity
  8
KONSTRUKTIONSELEMENTE
100
AcDbLine
 62
7
  6
CONTINUOUS
 10
337.0168311625
 20
130.4460153274
 11
337.0922130852
 21
130.5043032883
  0
LINE
  5
5C8
100
AcDbEntity
  8
KONSTRUKTIONSELEMENTE
100
AcDbLine
 62
7
  6
CONTINUOUS
 10
336.9251304954
 20
130.3446217688
 11
337.0014959016
 21
130.4290625228
  0
LINE
  5
5C9
100
AcDbEntity
  8
KONSTRUKTIONSELEMENTE
100
AcDbLine
 62
7
  6
CONTINUOUS
 10
337.0014959016
 20
130.4290625228
 11
337.0168311625
 21
130.4460153274
  0
LINE
  5
5CA
100
AcDbEntity
  8
KONSTRUKTIONSELEMENTE
100
AcDbLine
 62
7
  6
CONTINUOUS
 10
336.8172332868
 20
130.2000758692
 11
336.9251304954
 21
130.3446217688
  0
LINE
  5
5CB
100
AcDbEntity
  8
KONSTRUKTIONSELEMENTE
100
AcDbLine
 62
7
  6
CONTINUOUS
 10
336.5182029659
 20
129.3770429716
 11
336.516737861
 21
129.4076795069
  0
LINE
  5
5CC
100
AcDbEntity
  8
KONSTRUKTIONSELEMENTE
100
AcDbLine
 62
7
  6
CONTINUOUS
 10
336.5631375899
 20
129.3483203481
 11
336.5182029659
 21
129.3770429716
  0
LINE
  5
5CD
100
AcDbEntity
  8
KONSTRUKTIONSELEMENTE
100
AcDbLine
 62
7
  6
CONTINUOUS
 10
338.6875826543
 20
132.7469618292
 11
338.5716339024
 21
132.629381129
  0
SPLINE
  5
5CE
100
AcDbEntity
  8
KONSTRUKTIONSELEMENTE
100
AcDbSpline
 62
7
  6
CONTINUOUS
 70
0
 71
3
 72
10
 73
6
 74
0
 42
0.0000001
 43
0.0000001
 44
0.0000000001
 40
0.0
 40
0.0
 40
0.0
 40
0.0
 40
0.1568318131
 40
0.3844706653
 40
1.0
 40
1.0
 40
1.0
 40
1.0
 10
81.4677709753
 20
95.1972840354
 30
0.0
 10
81.5227553136
 20
95.2444814442
 30
0.0
 10
81.6670426977
 20
95.3491824126
 30
0.0
 10
82.0726068215
 20
95.57220132
 30
0.0
 10
82.441675395
 20
95.705583866
 30
0.0
 10
82.7148220325
 20
95.7847959506
 30
0.0
  0
SPLINE
  5
5CF
100
AcDbEntity
  8
KONSTRUKTIONSELEMENTE
100
AcDbSpline
 62
7
  6
CONTINUOUS
 70
0
 71
3
 72
10
 73
6
 74
0
 42
0.0000001
 43
0.0000001
 44
0.0000000001
 40
0.0
 40
0.0
 40
0.0
 40
0.0
 40
0.5949557797
 40
0.8263573095
 40
1.0
 40
1.0
 40
1.0
 40
1.0
 10
87.2238264364
 20
95.7854757736
 30
0.0
 10
87.4745081821
 20
95.7128857946
 30
0.0
 10
87.8183132088
 20
95.5911696902
 30
0.0
 10
88.2074214068
 20
95.387691244
 30
0.0
 10
88.3564691973
 20
95.2900539973
 30
0.0
 10
88.4167247301
 20
95.2434598401
 30
0.0
  0
SPLINE
  5
5D0
100
AcDbEntity
  8
KONSTRUKTIONSELEMENTE
100
AcDbSpline
 62
7
  6
CONTINUOUS
 70
0
 71
3
 72
9
 73
5
 74
0
 42
0.0000001
 43
0.0000001
 44
0.0000000001
 40
0.0
 40
0.0
 40
0.0
 40
0.0
 40
0.2129771727
 40
1.0
 40
1.0
 40
1.0
 40
1.0
 10
88.4730822155
 20
88.2189411916
 30
0.0
 10
88.4648994381
 20
88.2119172662
 30
0.0
 10
88.4260613802
 20
88.1794255509
 30
0.0
 10
88.3855146824
 20
88.1489868039
 30
0.0
 10
88.3528688458
 20
88.126132987
 30
0.0
  0
SPLINE
  5
5D1
100
AcDbEntity
  8
KONSTRUKTIONSELEMENTE
100
AcDbSpline
 62
7
  6
CONTINUOUS
 70
0
 71
3
 72
9
 73
5
 74
0
 42
0.0000001
 43
0.0000001
 44
0.0000000001
 40
0.0
 40
0.0
 40
0.0
 40
0.0
 40
0.4264036406
 40
1.0
 40
1.0
 40
1.0
 40
1.0
 10
88.3528688458
 20
88.126132987
 30
0.0
 10
88.2389193198
 20
88.0463622761
 30
0.0
 10
87.9516656359
 20
87.8883837812
 30
0.0
 10
87.6477757962
 20
87.7679638763
 30
0.0
 10
87.4705155325
 20
87.7080493474
 30
0.0
  0
SPLINE
  5
5D2
100
AcDbEntity
  8
KONSTRUKTIONSELEMENTE
100
AcDbSpline
 62
7
  6
CONTINUOUS
 70
0
 71
3
 72
9
 73
5
 74
0
 42
0.0000001
 43
0.0000001
 44
0.0000000001
 40
0.0
 40
0.0
 40
0.0
 40
0.0
 40
0.574980176
 40
1.0
 40
1.0
 40
1.0
 40
1.0
 10
82.465769927
 20
87.7096002338
 30
0.0
 10
82.2875061995
 20
87.7700800787
 30
0.0
 10
81.9825404669
 20
87.8911323266
 30
0.0
 10
81.6948567971
 20
88.0507789262
 30
0.0
 10
81.5810367057
 20
88.1308237702
 30
0.0
  0
SPLINE
  5
5D3
100
AcDbEntity
  8
KONSTRUKTIONSELEMENTE
100
AcDbSpline
 62
7
  6
CONTINUOUS
 70
0
 71
3
 72
14
 73
10
 74
0
 42
0.0000001
 43
0.0000001
 44
0.0000000001
 40
0.0
 40
0.0
 40
0.0
 40
0.0
 40
0.1204758942
 40
0.2396801016
 40
0.3589548115
 40
0.4788624009
 40
0.6017194651
 40
0.7291546137
 40
1.0
 40
1.0
 40
1.0
 40
1.0
 10
92.9704265954
 20
87.9581126135
 30
0.0
 10
92.9704265954
 20
87.6381731069
 30
0.0
 10
92.8869626922
 20
86.9984030357
 30
0.0
 10
92.5238561714
 20
86.107469351
 30
0.0
 10
91.9731613146
 20
85.3222542248
 30
0.0
 10
91.2706840253
 20
84.6580244069
 30
0.0
 10
90.4522233649
 20
84.1066670541
 30
0.0
 10
89.2061074365
 20
83.4974938208
 30
0.0
 10
88.1792502686
 20
83.2044586928
 30
0.0
 10
87.4730740018
 20
83.0678652796
 30
0.0
  0
SPLINE
  5
5D4
100
AcDbEntity
  8
KONSTRUKTIONSELEMENTE
100
AcDbSpline
 62
7
  6
CONTINUOUS
 70
0
 71
3
 72
14
 73
10
 74
0
 42
0.0000001
 43
0.0000001
 44
0.0000000001
 40
0.0
 40
0.0
 40
0.0
 40
0.0
 40
0.2708558329
 40
0.398311705
 40
0.5211338197
 40
0.6410619446
 40
0.7602602266
 40
0.8795699514
 40
1.0
 40
1.0
 40
1.0
 40
1.0
 10
82.4657801834
 20
83.0682748807
 30
0.0
 10
81.7597865693
 20
83.2049858207
 30
0.0
 10
80.7332312684
 20
83.4982494734
 30
0.0
 10
79.4873754858
 20
84.1071788976
 30
0.0
 10
78.6694817514
 20
84.6589631957
 30
0.0
 10
77.9673669557
 20
85.3227841545
 30
0.0
 10
77.41643405
 20
86.1077477818
 30
0.0
 10
77.0540677988
 20
86.9986827642
 30
0.0
 10
76.9704265954
 20
87.6383769946
 30
0.0
 10
76.9704265954
 20
87.9581126135
 30
0.0
  0
SPLINE
  5
5D5
100
AcDbEntity
  8
KONSTRUKTIONSELEMENTE
100
AcDbSpline
 62
7
  6
CONTINUOUS
 70
0
 71
3
 72
9
 73
5
 74
0
 42
0.0000001
 43
0.0000001
 44
0.0000000001
 40
0.0
 40
0.0
 40
0.0
 40
0.0
 40
0.2489597293
 40
1.0
 40
1.0
 40
1.0
 40
1.0
 10
77.8469479509
 20
119.896453378
 30
0.0
 10
77.9083888072
 20
119.9750384462
 30
0.0
 10
78.1654302573
 20
120.2826417288
 30
0.0
 10
78.4607308357
 20
120.557458842
 30
0.0
 10
78.6961670377
 20
120.7448775668
 30
0.0
  0
SPLINE
  5
5D6
100
AcDbEntity
  8
KONSTRUKTIONSELEMENTE
100
AcDbSpline
 62
7
  6
CONTINUOUS
 70
0
 71
3
 72
9
 73
5
 74
0
 42
0.0000001
 43
0.0000001
 44
0.0000000001
 40
0.0
 40
0.0
 40
0.0
 40
0.0
 40
0.2521259579
 40
1.0
 40
1.0
 40
1.0
 40
1.0
 10
91.2407108143
 20
120.7478278312
 30
0.0
 10
91.3202260265
 20
120.684574597
 30
0.0
 10
91.6290827655
 20
120.4257177862
 30
0.0
 10
91.9096524394
 20
120.1322216386
 30
0.0
 10
92.0953225588
 20
119.8948150029
 30
0.0
  0
SPLINE
  5
5D7
100
AcDbEntity
  8
KONSTRUKTIONSELEMENTE
100
AcDbSpline
 62
7
  6
CONTINUOUS
 70
0
 71
3
 72
9
 73
5
 74
0
 42
0.0000001
 43
0.0000001
 44
0.0000000001
 40
0.0
 40
0.0
 40
0.0
 40
0.0
 40
0.2462715401
 40
1.0
 40
1.0
 40
1.0
 40
1.0
 10
88.4727594547
 20
105.3075011717
 30
0.0
 10
88.3717749712
 20
105.2783092844
 30
0.0
 10
87.9599807287
 20
105.1658463321
 30
0.0
 10
87.541796442
 20
105.0770717363
 30
0.0
 10
87.2247374602
 20
105.0224873311
 30
0.0
  0
SPLINE
  5
5D8
100
AcDbEntity
  8
KONSTRUKTIONSELEMENTE
100
AcDbSpline
 62
7
  6
CONTINUOUS
 70
0
 71
3
 72
9
 73
5
 74
0
 42
0.0000001
 43
0.0000001
 44
0.0000000001
 40
0.0
 40
0.0
 40
0.0
 40
0.0
 40
0.2536838316
 40
1.0
 40
1.0
 40
1.0
 40
1.0
 10
82.718245395
 20
105.0221301555
 30
0.0
 10
82.6112141899
 20
105.0405437959
 30
0.0
 10
82.1902868261
 20
105.1186571354
 30
0.0
 10
81.7734347187
 20
105.2191874402
 30
0.0
 10
81.4665057415
 20
105.3079368239
 30
0.0
  0
SPLINE
  5
5D9
100
AcDbEntity
  8
BEZUGSACHSEN
100
AcDbSpline
 62
7
  6
CONTINUOUS
 70
0
 71
3
 72
9
 73
5
 74
0
 42
0.0000001
 43
0.0000001
 44
0.0000000001
 40
0.0
 40
0.0
 40
0.0
 40
0.0
 40
0.2396933683
 40
1.0
 40
1.0
 40
1.0
 40
1.0
 10
88.0094925588
 20
77.2067699948
 30
0.0
 10
87.9684133832
 20
77.1827709716
 30
0.0
 10
87.7949478228
 20
77.0862260965
 30
0.0
 10
87.6139447825
 20
77.0034842764
 30
0.0
 10
87.4738849972
 20
76.9472959955
 30
0.0
  0
SPLINE
  5
5DA
100
AcDbEntity
  8
BEZUGSACHSEN
100
AcDbSpline
 62
7
  6
CONTINUOUS
 70
0
 71
3
 72
9
 73
5
 74
0
 42
0.0000001
 43
0.0000001
 44
0.0000000001
 40
0.0
 40
0.0
 40
0.0
 40
0.0
 40
0.2602804276
 40
1.0
 40
1.0
 40
1.0
 40
1.0
 10
82.4669681935
 20
76.9472959955
 30
0.0
 10
82.4190219485
 20
76.9665307607
 30
0.0
 10
82.2360464208
 20
77.0434257414
 30
0.0
 10
82.0581320132
 20
77.1327083987
 30
0.0
 10
81.9313606319
 20
77.2067699948
 30
0.0
  0
SPLINE
  5
5DB
100
AcDbEntity
  8
KONSTRUKTIONSELEMENTE
100
AcDbSpline
 62
7
  6
CONTINUOUS
 70
0
 71
3
 72
9
 73
5
 74
0
 42
0.0000001
 43
0.0000001
 44
0.0000000001
 40
0.0
 40
0.0
 40
0.0
 40
0.0
 40
0.2459783277
 40
1.0
 40
1.0
 40
1.0
 40
1.0
 10
82.2404265954
 20
54.7090745078
 30
0.0
 10
82.2404265954
 20
54.7287059723
 30
0.0
 10
82.2365140689
 20
54.8084968189
 30
0.0
 10
82.2165476578
 20
54.887263605
 30
0.0
 10
82.1943112683
 20
54.9431828942
 30
0.0
  0
SPLINE
  5
5DC
100
AcDbEntity
  8
KONSTRUKTIONSELEMENTE
100
AcDbSpline
 62
7
  6
CONTINUOUS
 70
0
 71
3
 72
13
 73
9
 74
0
 42
0.0000001
 43
0.0000001
 44
0.0000000001
 40
0.0
 40
0.0
 40
0.0
 40
0.0
 40
0.1818002305
 40
0.2921015987
 40
0.4154185783
 40
0.550413638
 40
0.6948345221
 40
1.0
 40
1.0
 40
1.0
 40
1.0
 10
82.1943112683
 20
54.9431828942
 30
0.0
 10
82.1347589831
 20
55.092942884
 30
0.0
 10
81.9565969552
 20
55.2994535439
 30
0.0
 10
81.6517583206
 20
55.5050058877
 30
0.0
 10
81.3558650599
 20
55.6471571185
 30
0.0
 10
81.0170375967
 20
55.7616223262
 30
0.0
 10
80.5109114283
 20
55.8760732608
 30
0.0
 10
80.1109562108
 20
55.9090745078
 30
0.0
 10
79.8404265954
 20
55.9090745078
 30
0.0
  0
SPLINE
  5
5DD
100
AcDbEntity
  8
KONSTRUKTIONSELEMENTE
100
AcDbSpline
 62
7
  6
CONTINUOUS
 70
0
 71
3
 72
9
 73
5
 74
0
 42
0.0000001
 43
0.0000001
 44
0.0000000001
 40
0.0
 40
0.0
 40
0.0
 40
0.0
 40
0.4707698622
 40
1.0
 40
1.0
 40
1.0
 40
1.0
 10
66.7101958058
 20
69.789257306
 30
0.0
 10
66.7102087519
 20
69.8225160906
 30
0.0
 10
66.6935412239
 20
69.893701715
 30
0.0
 10
66.651374222
 20
69.9521926604
 30
0.0
 10
66.6258736091
 20
69.9795357808
 30
0.0
  0
SPLINE
  5
5DE
100
AcDbEntity
  8
KONSTRUKTIONSELEMENTE
100
AcDbSpline
 62
7
  6
CONTINUOUS
 70
0
 71
3
 72
13
 73
9
 74
0
 42
0.0000001
 43
0.0000001
 44
0.0000000001
 40
0.0
 40
0.0
 40
0.0
 40
0.0
 40
0.0911005566
 40
0.1874035572
 40
0.2929456088
 40
0.4101844558
 40
0.6821093905
 40
1.0
 40
1.0
 40
1.0
 40
1.0
 10
62.4448449918
 20
71.2219066816
 30
0.0
 10
62.444853324
 20
71.2433122819
 30
0.0
 10
62.4513542791
 20
71.2875622572
 30
0.0
 10
62.4795993469
 20
71.3510901857
 30
0.0
 10
62.525191312
 20
71.4112960326
 30
0.0
 10
62.6117420582
 20
71.4896699676
 30
0.0
 10
62.7588616225
 20
71.5709887906
 30
0.0
 10
62.8917450462
 20
71.6126846862
 30
0.0
 10
62.9644877612
 20
71.6296449287
 30
0.0
  0
SPLINE
  5
5DF
100
AcDbEntity
  8
KONSTRUKTIONSELEMENTE
100
AcDbSpline
 62
7
  6
CONTINUOUS
 70
0
 71
3
 72
14
 73
10
 74
0
 42
0.0000001
 43
0.0000001
 44
0.0000000001
 40
0.0
 40
0.0
 40
0.0
 40
0.0
 40
0.0910697198
 40
0.1873160156
 40
0.2927860408
 40
0.4099542777
 40
0.5398349918
 40
0.6822728715
 40
1.0
 40
1.0
 40
1.0
 40
1.0
 10
58.4572134554
 20
75.990153746
 30
0.0
 10
58.4572243751
 20
76.0615299914
 30
0.0
 10
58.4787717695
 20
76.2090782466
 30
0.0
 10
58.5729164182
 20
76.420890162
 30
0.0
 10
58.7248608504
 20
76.6215976999
 30
0.0
 10
58.9304659815
 20
76.8080330249
 30
0.0
 10
59.1855152096
 20
76.9775011859
 30
0.0
 10
59.6000171425
 20
77.1844214162
 30
0.0
 10
59.9468345158
 20
77.2930719223
 30
0.0
 10
60.1893499565
 20
77.3496153259
 30
0.0
  0
SPLINE
  5
5E0
100
AcDbEntity
  8
KONSTRUKTIONSELEMENTE
100
AcDbSpline
 62
7
  6
CONTINUOUS
 70
0
 71
3
 72
10
 73
6
 74
0
 42
0.0000001
 43
0.0000001
 44
0.0000000001
 40
0.0
 40
0.0
 40
0.0
 40
0.0
 40
0.2319937865
 40
0.4720122614
 40
1.0
 40
1.0
 40
1.0
 40
1.0
 10
58.4572135755
 20
73.3920273444
 30
0.0
 10
58.4572090547
 20
73.3372801896
 30
0.0
 10
58.4696442938
 20
73.2255146063
 30
0.0
 10
58.5451772638
 20
73.0004951034
 30
0.0
 10
58.6533012617
 20
72.849270268
 30
0.0
 10
58.7382813806
 20
72.7581500414
 30
0.0
  0
SPLINE
  5
5E1
100
AcDbEntity
  8
KONSTRUKTIONSELEMENTE
100
AcDbSpline
 62
7
  6
CONTINUOUS
 70
0
 71
3
 72
10
 73
6
 74
0
 42
0.0000001
 43
0.0000001
 44
0.0000000001
 40
0.0
 40
0.0
 40
0.0
 40
0.0
 40
0.2319937865
 40
0.4720122614
 40
1.0
 40
1.0
 40
1.0
 40
1.0
 10
98.7500980669
 20
59.0734406051
 30
0.0
 10
98.7500935461
 20
59.1281877599
 30
0.0
 10
98.7625287853
 20
59.2399533432
 30
0.0
 10
98.8380617552
 20
59.4649728461
 30
0.0
 10
98.9461857531
 20
59.6161976815
 30
0.0
 10
99.031165872
 20
59.7073179081
 30
0.0
  0
SPLINE
  5
5E2
100
AcDbEntity
  8
KONSTRUKTIONSELEMENTE
100
AcDbSpline
 62
7
  6
CONTINUOUS
 70
0
 71
3
 72
9
 73
5
 74
0
 42
0.0000001
 43
0.0000001
 44
0.0000000001
 40
0.0
 40
0.0
 40
0.0
 40
0.0
 40
0.2386817686
 40
1.0
 40
1.0
 40
1.0
 40
1.0
 10
99.7993391806
 20
60.5318864705
 30
0.0
 10
99.8518524685
 20
60.5094120932
 30
0.0
 10
100.0742431665
 20
60.420833565
 30
0.0
 10
100.3047976007
 20
60.3533751266
 30
0.0
 10
100.4822344479
 20
60.3120050463
 30
0.0
  0
SPLINE
  5
5E3
100
AcDbEntity
  8
KONSTRUKTIONSELEMENTE
100
AcDbSpline
 62
7
  6
CONTINUOUS
 70
0
 71
3
 72
13
 73
9
 74
0
 42
0.0000001
 43
0.0000001
 44
0.0000000001
 40
0.0
 40
0.0
 40
0.0
 40
0.0
 40
0.0822829264
 40
0.1731425714
 40
0.2778852515
 40
0.3984458421
 40
0.6815990786
 40
1.0
 40
1.0
 40
1.0
 40
1.0
 10
81.0404265954
 20
50.618882129
 30
0.0
 10
81.0404265954
 20
50.589065102
 30
0.0
 10
81.053626566
 20
50.5258478965
 30
0.0
 10
81.1085912509
 20
50.4395980711
 30
0.0
 10
81.194354323
 20
50.3621092909
 30
0.0
 10
81.3536230794
 20
50.267721909
 30
0.0
 10
81.6066521714
 20
50.1894161546
 30
0.0
 10
81.8250470231
 20
50.168882129
 30
0.0
 10
81.9404265954
 20
50.168882129
 30
0.0
  0
SPLINE
  5
5E4
100
AcDbEntity
  8
KONSTRUKTIONSELEMENTE
100
AcDbSpline
 62
7
  6
CONTINUOUS
 70
0
 71
3
 72
11
 73
7
 74
0
 42
0.0000001
 43
0.0000001
 44
0.0000000001
 40
0.0
 40
0.0
 40
0.0
 40
0.0
 40
0.1862435736
 40
0.408604906
 40
0.6812556469
 40
1.0
 40
1.0
 40
1.0
 40
1.0
 10
104.124262523
 20
59.3035539664
 30
0.0
 10
104.1242645359
 20
59.3278067844
 30
0.0
 10
104.1071995752
 20
59.3813597051
 30
0.0
 10
104.0433727172
 20
59.4457234149
 30
0.0
 10
103.9499487706
 20
59.4975502986
 30
0.0
 10
103.8759962846
 20
59.5207364791
 30
0.0
 10
103.8355732599
 20
59.530161262
 30
0.0
  0
SPLINE
  5
5E5
100
AcDbEntity
  8
BEZUGSACHSEN
100
AcDbSpline
 62
7
  6
CONTINUOUS
 70
0
 71
3
 72
9
 73
5
 74
0
 42
0.0000001
 43
0.0000001
 44
0.0000000001
 40
0.0
 40
0.0
 40
0.0
 40
0.0
 40
0.2444290761
 40
1.0
 40
1.0
 40
1.0
 40
1.0
 10
90.0418457363
 20
81.9449974414
 30
0.0
 10
89.8350808284
 20
81.9932054714
 30
0.0
 10
88.9859428207
 20
82.1764211118
 30
0.0
 10
88.1253496456
 20
82.3056867083
 30
0.0
 10
87.4727601398
 20
82.3752537908
 30
0.0
  0
SPLINE
  5
5E6
100
AcDbEntity
  8
BEZUGSACHSEN
100
AcDbSpline
 62
7
  6
CONTINUOUS
 70
0
 71
3
 72
9
 73
5
 74
0
 42
0.0000001
 43
0.0000001
 44
0.0000000001
 40
0.0
 40
0.0
 40
0.0
 40
0.0
 40
0.2549938886
 40
1.0
 40
1.0
 40
1.0
 40
1.0
 10
82.4680930509
 20
82.3752537908
 30
0.0
 10
82.2478558448
 20
82.3517761533
 30
0.0
 10
81.3855768757
 20
82.2471104606
 30
0.0
 10
80.5292095891
 20
82.0919314822
 30
0.0
 10
79.8990074545
 20
81.9449974414
 30
0.0
  0
SPLINE
  5
5E7
100
AcDbEntity
  8
KONSTRUKTIONSELEMENTE
100
AcDbSpline
 62
7
  6
CONTINUOUS
 70
0
 71
3
 72
14
 73
10
 74
0
 42
0.0000001
 43
0.0000001
 44
0.0000000001
 40
0.0
 40
0.0
 40
0.0
 40
0.0
 40
0.091069024
 40
0.1873133516
 40
0.2927849079
 40
0.4099554909
 40
0.5398349186
 40
0.6822875678
 40
1.0
 40
1.0
 40
1.0
 40
1.0
 10
118.0090645338
 20
74.4687014634
 30
0.0
 10
118.0090663322
 20
74.5400781379
 30
0.0
 10
117.9874950086
 20
74.6876244842
 30
0.0
 10
117.8933790764
 20
74.8994470095
 30
0.0
 10
117.7414293909
 20
75.1001612221
 30
0.0
 10
117.5358177841
 20
75.2865961342
 30
0.0
 10
117.2807593428
 20
75.4560808425
 30
0.0
 10
116.866247212
 20
75.6629939097
 30
0.0
 10
116.5194268323
 20
75.7716480241
 30
0.0
 10
116.2769193009
 20
75.8281895837
 30
0.0
  0
SPLINE
  5
5E8
100
AcDbEntity
  8
BEZUGSACHSEN
100
AcDbSpline
 62
7
  6
CONTINUOUS
 70
0
 71
3
 72
13
 73
9
 74
0
 42
0.0000001
 43
0.0000001
 44
0.0000000001
 40
0.0
 40
0.0
 40
0.0
 40
0.0
 40
0.0982892689
 40
0.2002310911
 40
0.3087247185
 40
0.426025746
 40
0.6914498797
 40
1.0
 40
1.0
 40
1.0
 40
1.0
 10
80.9704265954
 20
75.9090745078
 30
0.0
 10
80.9704265954
 20
75.9838922779
 30
0.0
 10
80.9879258731
 20
76.1368029356
 30
0.0
 10
81.0649510614
 20
76.3605214714
 30
0.0
 10
81.1913405136
 20
76.577250273
 30
0.0
 10
81.4322414748
 20
76.8651164187
 30
0.0
 10
81.8542833161
 20
77.1890611876
 30
0.0
 10
82.2489867885
 20
77.3814808579
 30
0.0
 10
82.4669681935
 20
77.4689292315
 30
0.0
  0
SPLINE
  5
5E9
100
AcDbEntity
  8
BEZUGSACHSEN
100
AcDbSpline
 62
7
  6
CONTINUOUS
 70
0
 71
3
 72
13
 73
9
 74
0
 42
0.0000001
 43
0.0000001
 44
0.0000000001
 40
0.0
 40
0.0
 40
0.0
 40
0.0
 40
0.3085501203
 40
0.573974254
 40
0.6912752815
 40
0.7997689089
 40
0.9017107311
 40
1.0
 40
1.0
 40
1.0
 40
1.0
 10
87.4738849972
 20
77.4689292315
 30
0.0
 10
87.6918664023
 20
77.3814808579
 30
0.0
 10
88.0865698746
 20
77.1890611876
 30
0.0
 10
88.5086117159
 20
76.8651164187
 30
0.0
 10
88.7495126772
 20
76.577250273
 30
0.0
 10
88.8759021293
 20
76.3605214714
 30
0.0
 10
88.9529273176
 20
76.1368029356
 30
0.0
 10
88.9704265954
 20
75.9838922779
 30
0.0
 10
88.9704265954
 20
75.9090745078
 30
0.0
  0
SPLINE
  5
5EA
100
AcDbEntity
  8
KONSTRUKTIONSELEMENTE
100
AcDbSpline
 62
7
  6
CONTINUOUS
 70
0
 71
3
 72
10
 73
6
 74
0
 42
0.0000001
 43
0.0000001
 44
0.0000000001
 40
0.0
 40
0.0
 40
0.0
 40
0.0
 40
0.5279824831
 40
0.7679773886
 40
1.0
 40
1.0
 40
1.0
 40
1.0
 10
117.7279878768
 20
71.2367242991
 30
0.0
 10
117.8129699306
 20
71.3278466004
 30
0.0
 10
117.9210915673
 20
71.47907273
 30
0.0
 10
117.9966239698
 20
71.7041001875
 30
0.0
 10
118.0090631542
 20
71.8158695031
 30
0.0
 10
118.0090645338
 20
71.870625252
 30
0.0
  0
SPLINE
  5
5EB
100
AcDbEntity
  8
KONSTRUKTIONSELEMENTE
100
AcDbSpline
 62
7
  6
CONTINUOUS
 70
0
 71
3
 72
11
 73
7
 74
0
 42
0.0000001
 43
0.0000001
 44
0.0000000001
 40
0.0
 40
0.0
 40
0.0
 40
0.0
 40
0.2734264244
 40
0.550400994
 40
0.800024594
 40
1.0
 40
1.0
 40
1.0
 40
1.0
 10
117.0757391051
 20
70.8922785342
 30
0.0
 10
117.1129242753
 20
70.8836086694
 30
0.0
 10
117.189889372
 20
70.8747208205
 30
0.0
 10
117.3020287564
 20
70.8829426849
 30
0.0
 10
117.4002221329
 20
70.9105941193
 30
0.0
 10
117.4553707005
 20
70.9444095885
 30
0.0
 10
117.4744169198
 20
70.964831963
 30
0.0
  0
SPLINE
  5
5EC
100
AcDbEntity
  8
KONSTRUKTIONSELEMENTE
100
AcDbSpline
 62
7
  6
CONTINUOUS
 70
0
 71
3
 72
9
 73
5
 74
0
 42
0.0000001
 43
0.0000001
 44
0.0000000001
 40
0.0
 40
0.0
 40
0.0
 40
0.0
 40
0.5293700881
 40
1.0
 40
1.0
 40
1.0
 40
1.0
 10
104.0774180226
 20
56.5998535385
 30
0.0
 10
104.0915789012
 20
56.6150375896
 30
0.0
 10
104.1149987851
 20
56.6475023173
 30
0.0
 10
104.1242609909
 20
56.687019016
 30
0.0
 10
104.124262523
 20
56.705477755
 30
0.0
  0
SPLINE
  5
5ED
100
AcDbEntity
  8
KONSTRUKTIONSELEMENTE
100
AcDbSpline
 62
7
  6
CONTINUOUS
 70
0
 71
3
 72
11
 73
7
 74
0
 42
0.0000001
 43
0.0000001
 44
0.0000000001
 40
0.0
 40
0.0
 40
0.0
 40
0.0
 40
0.2884496779
 40
0.5598869462
 40
0.7999109858
 40
1.0
 40
1.0
 40
1.0
 40
1.0
 10
102.1590463968
 20
55.9090745078
 30
0.0
 10
102.3460737633
 20
55.9090745078
 30
0.0
 10
102.70962665
 20
55.934199861
 30
0.0
 10
103.2184367402
 20
56.0457847898
 30
0.0
 10
103.6474682137
 20
56.221685498
 30
0.0
 10
103.883177585
 20
56.3915785572
 30
0.0
 10
103.9716619708
 20
56.4864562461
 30
0.0
  0
SPLINE
  5
5EE
100
AcDbEntity
  8
KONSTRUKTIONSELEMENTE
100
AcDbSpline
 62
7
  6
CONTINUOUS
 70
0
 71
3
 72
15
 73
11
 74
0
 42
0.0000001
 43
0.0000001
 44
0.0000000001
 40
0.0
 40
0.0
 40
0.0
 40
0.0
 40
0.1615456735
 40
0.3184696669
 40
0.4664746936
 40
0.6019445856
 40
0.7223851238
 40
0.8270394449
 40
0.9177746375
 40
1.0
 40
1.0
 40
1.0
 40
1.0
 10
90.1004265954
 20
55.9090745078
 30
0.0
 10
89.9441652039
 20
55.9090745078
 30
0.0
 10
89.6358896628
 20
55.8941157443
 30
0.0
 10
89.188866003
 20
55.8273375791
 30
0.0
 10
88.7759238982
 20
55.7188610106
 30
0.0
 10
88.4122850168
 20
55.5726656196
 30
0.0
 10
88.1108828465
 20
55.3937766062
 30
0.0
 10
87.8822234412
 20
55.1871631541
 30
0.0
 10
87.7355595077
 20
54.9571991804
 30
0.0
 10
87.7004265954
 20
54.7886102161
 30
0.0
 10
87.7004265954
 20
54.7090745078
 30
0.0
  0
SPLINE
  5
5EF
100
AcDbEntity
  8
KONSTRUKTIONSELEMENTE
100
AcDbSpline
 62
7
  6
CONTINUOUS
 70
0
 71
3
 72
13
 73
9
 74
0
 42
0.0000001
 43
0.0000001
 44
0.0000000001
 40
0.0
 40
0.0
 40
0.0
 40
0.0
 40
0.3184009214
 40
0.6015541579
 40
0.7221147485
 40
0.8268574286
 40
0.9177170736
 40
1.0
 40
1.0
 40
1.0
 40
1.0
 10
88.0004265954
 20
50.168882129
 30
0.0
 10
88.1158061676
 20
50.168882129
 30
0.0
 10
88.3342010193
 20
50.1894161546
 30
0.0
 10
88.5872301113
 20
50.267721909
 30
0.0
 10
88.7464988677
 20
50.3621092909
 30
0.0
 10
88.8322619399
 20
50.4395980711
 30
0.0
 10
88.8872266247
 20
50.5258478965
 30
0.0
 10
88.9004265954
 20
50.589065102
 30
0.0
 10
88.9004265954
 20
50.618882129
 30
0.0
  0
SPLINE
  5
5F0
100
AcDbEntity
  8
KONSTRUKTIONSELEMENTE
100
AcDbSpline
 62
7
  6
CONTINUOUS
 70
0
 71
3
 72
12
 73
8
 74
0
 42
0.0000001
 43
0.0000001
 44
0.0000000001
 40
0.0
 40
0.0
 40
0.0
 40
0.0
 40
0.308236638
 40
0.5735907463
 40
0.7989749866
 40
0.9012734709
 40
1.0
 40
1.0
 40
1.0
 40
1.0
 10
89.7790336353
 20
55.8969612174
 30
0.0
 10
89.6508490936
 20
55.8444277204
 30
0.0
 10
89.41862297
 20
55.7289346893
 30
0.0
 10
89.1328932653
 20
55.5067862308
 30
0.0
 10
88.9727847945
 20
55.2865340609
 30
0.0
 10
88.910668529
 20
55.1038894396
 30
0.0
 10
88.9004265954
 20
55.0132530989
 30
0.0
 10
88.9004265954
 20
54.968882129
 30
0.0
  0
SPLINE
  5
5F1
100
AcDbEntity
  8
KONSTRUKTIONSELEMENTE
100
AcDbSpline
 62
7
  6
CONTINUOUS
 70
0
 71
3
 72
12
 73
8
 74
0
 42
0.0000001
 43
0.0000001
 44
0.0000000001
 40
0.0
 40
0.0
 40
0.0
 40
0.0
 40
0.308236638
 40
0.5735907463
 40
0.7989749866
 40
0.9012734709
 40
1.0
 40
1.0
 40
1.0
 40
1.0
 10
80.1618195554
 20
55.8969612174
 30
0.0
 10
80.2900040972
 20
55.8444277204
 30
0.0
 10
80.5222302207
 20
55.7289346893
 30
0.0
 10
80.8079599254
 20
55.5067862308
 30
0.0
 10
80.9680683962
 20
55.2865340609
 30
0.0
 10
81.0301846617
 20
55.1038894396
 30
0.0
 10
81.0404265954
 20
55.0132530989
 30
0.0
 10
81.0404265954
 20
54.968882129
 30
0.0
  0
SPLINE
  5
5F2
100
AcDbEntity
  8
KONSTRUKTIONSELEMENTE
100
AcDbSpline
 62
7
  6
CONTINUOUS
 70
0
 71
3
 72
9
 73
5
 74
0
 42
0.0000001
 43
0.0000001
 44
0.0000000001
 40
0.0
 40
0.0
 40
0.0
 40
0.0
 40
0.5292301378
 40
1.0
 40
1.0
 40
1.0
 40
1.0
 10
62.5291671884
 20
68.9531672377
 30
0.0
 10
62.5036665755
 20
68.9805103581
 30
0.0
 10
62.4614995736
 20
69.0390013035
 30
0.0
 10
62.4448320457
 20
69.1101869279
 30
0.0
 10
62.4448449918
 20
69.1434457125
 30
0.0
  0
SPLINE
  5
5F3
100
AcDbEntity
  8
KONSTRUKTIONSELEMENTE
100
AcDbSpline
 62
7
  6
CONTINUOUS
 70
0
 71
3
 72
11
 73
7
 74
0
 42
0.0000001
 43
0.0000001
 44
0.0000000001
 40
0.0
 40
0.0
 40
0.0
 40
0.0
 40
0.2000973744
 40
0.4401131622
 40
0.7115402142
 40
1.0
 40
1.0
 40
1.0
 40
1.0
 10
73.6442747102
 20
56.7751471152
 30
0.0
 10
73.7770068133
 20
56.6328246584
 30
0.0
 10
74.1305744367
 20
56.3779891258
 30
0.0
 10
74.7741111188
 20
56.1141408738
 30
0.0
 10
75.5373182739
 20
55.94676559
 30
0.0
 10
76.0826472357
 20
55.9090745078
 30
0.0
 10
76.3631980713
 20
55.9090745078
 30
0.0
  0
SPLINE
  5
5F4
100
AcDbEntity
  8
KONSTRUKTIONSELEMENTE
100
AcDbSpline
 62
7
  6
CONTINUOUS
 70
0
 71
3
 72
14
 73
10
 74
0
 42
0.0000001
 43
0.0000001
 44
0.0000000001
 40
0.0
 40
0.0
 40
0.0
 40
0.0
 40
0.0934427136
 40
0.2005530181
 40
0.320278692
 40
0.4502118816
 40
0.5870699674
 40
0.7270482518
 40
1.0
 40
1.0
 40
1.0
 40
1.0
 10
109.5543605894
 20
70.9908498567
 30
0.0
 10
109.6435137533
 20
71.0864446452
 30
0.0
 10
109.8627869227
 20
71.2658455161
 30
0.0
 10
110.2578694094
 20
71.4807391223
 30
0.0
 10
110.7276889339
 20
71.6535792475
 30
0.0
 10
111.2550016073
 20
71.7779366468
 30
0.0
 10
111.8206394879
 20
71.8493618018
 30
0.0
 10
112.590080341
 20
71.869923715
 30
0.0
 10
113.169283161
 20
71.8030836957
 30
0.0
 10
113.5411387357
 20
71.7163841446
 30
0.0
  0
SPLINE
  5
5F5
100
AcDbEntity
  8
KONSTRUKTIONSELEMENTE
100
AcDbSpline
 62
7
  6
CONTINUOUS
 70
0
 71
3
 72
13
 73
9
 74
0
 42
0.0000001
 43
0.0000001
 44
0.0000000001
 40
0.0
 40
0.0
 40
0.0
 40
0.0
 40
0.0911005566
 40
0.1874035572
 40
0.2929456088
 40
0.4101844558
 40
0.6821093905
 40
1.0
 40
1.0
 40
1.0
 40
1.0
 10
62.4448449918
 20
69.1434457125
 30
0.0
 10
62.444853324
 20
69.1648513128
 30
0.0
 10
62.4513542791
 20
69.2091012881
 30
0.0
 10
62.4795993469
 20
69.2726292166
 30
0.0
 10
62.525191312
 20
69.3328350635
 30
0.0
 10
62.6117420582
 20
69.4112089985
 30
0.0
 10
62.7588616225
 20
69.4925278215
 30
0.0
 10
62.8917450462
 20
69.5342237171
 30
0.0
 10
62.9644877612
 20
69.5511839596
 30
0.0
  0
SPLINE
  5
5F6
100
AcDbEntity
  8
KONSTRUKTIONSELEMENTE
100
AcDbSpline
 62
7
  6
CONTINUOUS
 70
0
 71
3
 72
9
 73
5
 74
0
 42
0.0000001
 43
0.0000001
 44
0.0000000001
 40
0.0
 40
0.0
 40
0.0
 40
0.0
 40
0.5448269476
 40
1.0
 40
1.0
 40
1.0
 40
1.0
 10
66.1905530364
 20
69.64132668
 30
0.0
 10
66.2705282285
 20
69.6599732023
 30
0.0
 10
66.4148306005
 20
69.7062655228
 30
0.0
 10
66.5464231252
 20
69.7850343479
 30
0.0
 10
66.5973543372
 20
69.8310008551
 30
0.0
  0
SPLINE
  5
5F7
100
AcDbEntity
  8
KONSTRUKTIONSELEMENTE
100
AcDbSpline
 62
7
  6
CONTINUOUS
 70
0
 71
3
 72
9
 73
5
 74
0
 42
0.0000001
 43
0.0000001
 44
0.0000000001
 40
0.0
 40
0.0
 40
0.0
 40
0.0
 40
0.2612271511
 40
1.0
 40
1.0
 40
1.0
 40
1.0
 10
66.5973543372
 20
69.8310008551
 30
0.0
 10
66.6029784584
 20
69.8360767446
 30
0.0
 10
66.6240578542
 20
69.8559933454
 30
0.0
 10
66.6432712274
 20
69.8779411921
 30
0.0
 10
66.6558806689
 20
69.89526327
 30
0.0
  0
SPLINE
  5
5F8
100
AcDbEntity
  8
KONSTRUKTIONSELEMENTE
100
AcDbSpline
 62
7
  6
CONTINUOUS
 70
0
 71
3
 72
10
 73
6
 74
0
 42
0.0000001
 43
0.0000001
 44
0.0000000001
 40
0.0
 40
0.0
 40
0.0
 40
0.0
 40
0.2999842026
 40
0.5696213514
 40
1.0
 40
1.0
 40
1.0
 40
1.0
 10
65.6834111223
 20
70.1851113522
 30
0.0
 10
65.7394273346
 20
70.1981717466
 30
0.0
 10
65.8447930495
 20
70.2294343145
 30
0.0
 10
66.0182285579
 20
70.3093046974
 30
0.0
 10
66.1287762386
 20
70.3989597263
 30
0.0
 10
66.1692843442
 20
70.470853325
 30
0.0
  0
SPLINE
  5
5F9
100
AcDbEntity
  8
BEZUGSACHSEN
100
AcDbSpline
 62
7
  6
CONTINUOUS
 70
0
 71
3
 72
9
 73
5
 74
0
 42
0.0000001
 43
0.0000001
 44
0.0000000001
 40
0.0
 40
0.0
 40
0.0
 40
0.0
 40
0.2444547128
 40
1.0
 40
1.0
 40
1.0
 40
1.0
 10
90.0418457363
 20
79.34692123
 30
0.0
 10
89.8365302292
 20
79.3947913267
 30
0.0
 10
88.9934552265
 20
79.5768007666
 30
0.0
 10
88.1390752561
 20
79.7056070467
 30
0.0
 10
87.4912066426
 20
79.7752035706
 30
0.0
  0
LINE
  5
5FA
100
AcDbEntity
  8
BEZUGSACHSEN
100
AcDbLine
 62
7
  6
CONTINUOUS
 10
87.4912066426
 20
79.7752035706
 11
87.4727601398
 21
79.7771775795
  0
LINE
  5
5FB
100
AcDbEntity
  8
BEZUGSACHSEN
100
AcDbLine
 62
7
  6
CONTINUOUS
 10
82.4680930509
 20
79.7771775795
 11
82.4496465481
 21
79.7752035706
  0
SPLINE
  5
5FC
100
AcDbEntity
  8
BEZUGSACHSEN
100
AcDbSpline
 62
7
  6
CONTINUOUS
 70
0
 71
3
 72
9
 73
5
 74
0
 42
0.0000001
 43
0.0000001
 44
0.0000000001
 40
0.0
 40
0.0
 40
0.0
 40
0.0
 40
0.2549756438
 40
1.0
 40
1.0
 40
1.0
 40
1.0
 10
82.4496465481
 20
79.7752035706
 30
0.0
 10
82.2310107503
 20
79.7517168771
 30
0.0
 10
81.3749411492
 20
79.647178749
 30
0.0
 10
80.5247417278
 20
79.4928135719
 30
0.0
 10
79.8990074545
 20
79.34692123
 30
0.0
  0
SPLINE
  5
5FD
100
AcDbEntity
  8
BEZUGSACHSEN
100
AcDbSpline
 62
7
  6
CONTINUOUS
 70
0
 71
3
 72
13
 73
9
 74
0
 42
0.0000001
 43
0.0000001
 44
0.0000000001
 40
0.0
 40
0.0
 40
0.0
 40
0.0
 40
0.0980637381
 40
0.1998225614
 40
0.3082066417
 40
0.4254855479
 40
0.6910938001
 40
1.0
 40
1.0
 40
1.0
 40
1.0
 10
88.9704265954
 20
75.9090745078
 30
0.0
 10
88.9704265954
 20
75.8336854404
 30
0.0
 10
88.9526508922
 20
75.6795609017
 30
0.0
 10
88.8744282604
 20
75.454166671
 30
0.0
 10
88.7461219221
 20
75.235933005
 30
0.0
 10
88.5015703968
 20
74.9461898754
 30
0.0
 10
88.0734595404
 20
74.6207743495
 30
0.0
 10
87.6735366863
 20
74.4281528241
 30
0.0
 10
87.4527123079
 20
74.3407845381
 30
0.0
  0
SPLINE
  5
5FE
100
AcDbEntity
  8
BEZUGSACHSEN
100
AcDbSpline
 62
7
  6
CONTINUOUS
 70
0
 71
3
 72
13
 73
9
 74
0
 42
0.0000001
 43
0.0000001
 44
0.0000000001
 40
0.0
 40
0.0
 40
0.0
 40
0.0
 40
0.3089061999
 40
0.5745144521
 40
0.6917933583
 40
0.8001774386
 40
0.9019362619
 40
1.0
 40
1.0
 40
1.0
 40
1.0
 10
82.4881408829
 20
74.3407845381
 30
0.0
 10
82.2673165044
 20
74.4281528241
 30
0.0
 10
81.8673936503
 20
74.6207743495
 30
0.0
 10
81.439282794
 20
74.9461898754
 30
0.0
 10
81.1947312687
 20
75.235933005
 30
0.0
 10
81.0664249303
 20
75.454166671
 30
0.0
 10
80.9882022985
 20
75.6795609017
 30
0.0
 10
80.9704265954
 20
75.8336854404
 30
0.0
 10
80.9704265954
 20
75.9090745078
 30
0.0
  0
SPLINE
  5
5FF
100
AcDbEntity
  8
KONSTRUKTIONSELEMENTE
100
AcDbSpline
 62
7
  6
CONTINUOUS
 70
0
 71
3
 72
14
 73
10
 74
0
 42
0.0000001
 43
0.0000001
 44
0.0000000001
 40
0.0
 40
0.0
 40
0.0
 40
0.0
 40
0.3177252196
 40
0.4601618551
 40
0.5900418608
 40
0.7072123146
 40
0.8126846974
 40
0.9089310185
 40
1.0
 40
1.0
 40
1.0
 40
1.0
 10
60.1893499565
 20
74.7515391146
 30
0.0
 10
59.9468308411
 20
74.6949948542
 30
0.0
 10
59.6000084574
 20
74.586342354
 30
0.0
 10
59.1855015934
 20
74.3794170506
 30
0.0
 10
58.9304471417
 20
74.2099442866
 30
0.0
 10
58.724839904
 20
74.0234978798
 30
0.0
 10
58.5728943425
 20
73.8227796574
 30
0.0
 10
58.4787576218
 20
73.6109569067
 30
0.0
 10
58.4572194696
 20
73.463404522
 30
0.0
 10
58.4572135755
 20
73.3920273444
 30
0.0
  0
SPLINE
  5
600
100
AcDbEntity
  8
KONSTRUKTIONSELEMENTE
100
AcDbSpline
 62
7
  6
CONTINUOUS
 70
0
 71
3
 72
14
 73
10
 74
0
 42
0.0000001
 43
0.0000001
 44
0.0000000001
 40
0.0
 40
0.0
 40
0.0
 40
0.0
 40
0.091069024
 40
0.1873133516
 40
0.2927849079
 40
0.4099554909
 40
0.5398349186
 40
0.6822875678
 40
1.0
 40
1.0
 40
1.0
 40
1.0
 10
118.0090645338
 20
71.870625252
 30
0.0
 10
118.0090663322
 20
71.9420019265
 30
0.0
 10
117.9874950086
 20
72.0895482728
 30
0.0
 10
117.8933790764
 20
72.3013707981
 30
0.0
 10
117.7414293909
 20
72.5020850107
 30
0.0
 10
117.5358177841
 20
72.6885199229
 30
0.0
 10
117.2807593428
 20
72.8580046311
 30
0.0
 10
116.866247212
 20
73.0649176984
 30
0.0
 10
116.5194268323
 20
73.1735718128
 30
0.0
 10
116.2769193009
 20
73.2301133723
 30
0.0
  0
SPLINE
  5
601
100
AcDbEntity
  8
KONSTRUKTIONSELEMENTE
100
AcDbSpline
 62
7
  6
CONTINUOUS
 70
0
 71
3
 72
13
 73
9
 74
0
 42
0.0000001
 43
0.0000001
 44
0.0000000001
 40
0.0
 40
0.0
 40
0.0
 40
0.0
 40
0.3178906095
 40
0.5898155442
 40
0.7070543912
 40
0.8125964428
 40
0.9088994434
 40
1.0
 40
1.0
 40
1.0
 40
1.0
 10
66.1905530364
 20
69.3815190589
 30
0.0
 10
66.2632957513
 20
69.3984793014
 30
0.0
 10
66.396179175
 20
69.440175197
 30
0.0
 10
66.5432987393
 20
69.52149402
 30
0.0
 10
66.6298494856
 20
69.599867955
 30
0.0
 10
66.6754414507
 20
69.6600738019
 30
0.0
 10
66.7036865185
 20
69.7236017304
 30
0.0
 10
66.7101874736
 20
69.7678517057
 30
0.0
 10
66.7101958058
 20
69.789257306
 30
0.0
  0
SPLINE
  5
602
100
AcDbEntity
  8
KONSTRUKTIONSELEMENTE
100
AcDbSpline
 62
7
  6
CONTINUOUS
 70
0
 71
3
 72
14
 73
10
 74
0
 42
0.0000001
 43
0.0000001
 44
0.0000000001
 40
0.0
 40
0.0
 40
0.0
 40
0.0
 40
0.3177252196
 40
0.4601618551
 40
0.5900418608
 40
0.7072123146
 40
0.8126846974
 40
0.9089310185
 40
1.0
 40
1.0
 40
1.0
 40
1.0
 10
100.4822344479
 20
57.7139288349
 30
0.0
 10
100.2397153325
 20
57.7704730953
 30
0.0
 10
99.8928929488
 20
57.8791255955
 30
0.0
 10
99.4783860848
 20
58.0860508988
 30
0.0
 10
99.2233316332
 20
58.2555236629
 30
0.0
 10
99.0177243954
 20
58.4419700697
 30
0.0
 10
98.865778834
 20
58.642688292
 30
0.0
 10
98.7716421132
 20
58.8545110428
 30
0.0
 10
98.750103961
 20
59.0020634274
 30
0.0
 10
98.7500980669
 20
59.0734406051
 30
0.0
  0
SPLINE
  5
603
100
AcDbEntity
  8
KONSTRUKTIONSELEMENTE
100
AcDbSpline
 62
7
  6
CONTINUOUS
 70
0
 71
3
 72
11
 73
7
 74
0
 42
0.0000001
 43
0.0000001
 44
0.0000000001
 40
0.0
 40
0.0
 40
0.0
 40
0.0
 40
0.1862435736
 40
0.408604906
 40
0.6812556469
 40
1.0
 40
1.0
 40
1.0
 40
1.0
 10
104.124262523
 20
56.705477755
 30
0.0
 10
104.1242645359
 20
56.729730573
 30
0.0
 10
104.1071995752
 20
56.7832834938
 30
0.0
 10
104.0433727172
 20
56.8476472035
 30
0.0
 10
103.9499487706
 20
56.8994740873
 30
0.0
 10
103.8759962846
 20
56.9226602677
 30
0.0
 10
103.8355732599
 20
56.9320850507
 30
0.0
  0
SPLINE
  5
604
100
AcDbEntity
  8
KONSTRUKTIONSELEMENTE
100
AcDbSpline
 62
7
  6
CONTINUOUS
 70
0
 71
3
 72
13
 73
9
 74
0
 42
0.0000001
 43
0.0000001
 44
0.0000000001
 40
0.0
 40
0.0
 40
0.0
 40
0.0
 40
0.0841272701
 40
0.1749492466
 40
0.329863843
 40
0.5152713991
 40
0.7372984246
 40
1.0
 40
1.0
 40
1.0
 40
1.0
 10
67.4704265954
 20
135.2081126135
 30
0.0
 10
67.4704265954
 20
135.1234968871
 30
0.0
 10
67.4806306565
 20
134.9473503229
 30
0.0
 10
67.5400325343
 20
134.6201445618
 30
0.0
 10
67.6829066663
 20
134.2083196436
 30
0.0
 10
67.9508679117
 20
133.7079007937
 30
0.0
 10
68.351541942
 20
133.1634196769
 30
0.0
 10
68.6877515278
 20
132.8086283463
 30
0.0
 10
68.8786689003
 20
132.6259636486
 30
0.0
  0
SPLINE
  5
605
100
AcDbEntity
  8
KONSTRUKTIONSELEMENTE
100
AcDbSpline
 62
7
  6
CONTINUOUS
 70
0
 71
3
 72
13
 73
9
 74
0
 42
0.0000001
 43
0.0000001
 44
0.0000000001
 40
0.0
 40
0.0
 40
0.0
 40
0.0
 40
0.179712785
 40
0.3412615703
 40
0.5504359512
 40
0.7249342372
 40
0.8715860827
 40
1.0
 40
1.0
 40
1.0
 40
1.0
 10
101.0618213277
 20
132.6256429249
 30
0.0
 10
101.192456467
 20
132.7506095441
 30
0.0
 10
101.4325664257
 20
132.9965150929
 30
0.0
 10
101.7875432336
 20
133.4221353598
 30
0.0
 10
102.0928769622
 20
133.8799685737
 30
0.0
 10
102.3217059635
 20
134.3642327269
 30
0.0
 10
102.4455306973
 20
134.8015877383
 30
0.0
 10
102.4704265954
 20
135.0789345612
 30
0.0
 10
102.4704265954
 20
135.2081126135
 30
0.0
  0
SPLINE
  5
606
100
AcDbEntity
  8
KONSTRUKTIONSELEMENTE
100
AcDbSpline
 62
7
  6
CONTINUOUS
 70
0
 71
3
 72
12
 73
8
 74
0
 42
0.0000001
 43
0.0000001
 44
0.0000000001
 40
0.0
 40
0.0
 40
0.0
 40
0.0
 40
0.1204836852
 40
0.2406610109
 40
0.4838082526
 40
0.7349113876
 40
1.0
 40
1.0
 40
1.0
 40
1.0
 10
61.4704265954
 20
135.2081126135
 30
0.0
 10
61.4704265954
 20
134.8026245852
 30
0.0
 10
61.5312060985
 20
133.9912692793
 30
0.0
 10
61.8924492953
 20
132.3986385634
 30
0.0
 10
62.7767226029
 20
130.4993603976
 30
0.0
 10
64.3970109532
 20
128.4984369099
 30
0.0
 10
65.7403826897
 20
127.3806177216
 30
0.0
 10
66.4676395551
 20
126.8638585717
 30
0.0
  0
LINE
  5
607
100
AcDbEntity
  8
KONSTRUKTIONSELEMENTE
100
AcDbLine
 62
7
  6
CONTINUOUS
 10
91.475279632
 20
122.4493371037
 11
91.4851168076
 21
122.4508569712
  0
SPLINE
  5
608
100
AcDbEntity
  8
KONSTRUKTIONSELEMENTE
100
AcDbSpline
 62
7
  6
CONTINUOUS
 70
0
 71
3
 72
12
 73
8
 74
0
 42
0.0000001
 43
0.0000001
 44
0.0000000001
 40
0.0
 40
0.0
 40
0.0
 40
0.0
 40
0.2650664714
 40
0.516164072
 40
0.7593168876
 40
0.8795253222
 40
1.0
 40
1.0
 40
1.0
 40
1.0
 10
103.4794762665
 20
126.8683034546
 30
0.0
 10
104.2058807451
 20
127.3849662174
 30
0.0
 10
105.5476969084
 20
128.5024340928
 30
0.0
 10
107.1658833128
 20
130.5024313012
 30
0.0
 10
108.0490380675
 20
132.4005703028
 30
0.0
 10
108.4096912753
 20
133.9921550124
 30
0.0
 10
108.4704265954
 20
134.8029621718
 30
0.0
 10
108.4704265954
 20
135.2081126135
 30
0.0
  0
SPLINE
  5
609
100
AcDbEntity
  8
KONSTRUKTIONSELEMENTE
100
AcDbSpline
 62
7
  6
CONTINUOUS
 70
0
 71
3
 72
18
 73
14
 74
0
 42
0.0000001
 43
0.0000001
 44
0.0000000001
 40
0.0
 40
0.0
 40
0.0
 40
0.0
 40
0.0242446165
 40
0.0512268251
 40
0.0823121963
 40
0.1186297386
 40
0.1609911614
 40
0.2099910135
 40
0.3271962022
 40
0.4681669462
 40
0.6297138858
 40
0.8082391522
 40
1.0
 40
1.0
 40
1.0
 40
1.0
 10
102.4704265954
 20
135.2081126135
 30
0.0
 10
102.4704265954
 20
135.3177556704
 30
0.0
 10
102.4528786905
 20
135.5498171368
 30
0.0
 10
102.3662418493
 20
135.913323151
 30
0.0
 10
102.206616223
 20
136.3106900504
 30
0.0
 10
101.9623285525
 20
136.744304028
 30
0.0
 10
101.6193186115
 20
137.2103893946
 30
0.0
 10
100.9809989487
 20
137.906856733
 30
0.0
 10
99.8956058048
 20
138.7860733169
 30
0.0
 10
98.2560465687
 20
139.7525379693
 30
0.0
 10
96.2584368699
 20
140.6256054712
 30
0.0
 10
93.9645402663
 20
141.3600018703
 30
0.0
 10
92.3282033523
 20
141.7268028033
 30
0.0
 10
91.4751479762
 20
141.8828631739
 30
0.0
  0
SPLINE
  5
60A
100
AcDbEntity
  8
KONSTRUKTIONSELEMENTE
100
AcDbSpline
 62
7
  6
CONTINUOUS
 70
0
 71
3
 72
18
 73
14
 74
0
 42
0.0000001
 43
0.0000001
 44
0.0000000001
 40
0.0
 40
0.0
 40
0.0
 40
0.0
 40
0.191761194
 40
0.3702867906
 40
0.5318345044
 40
0.6728051938
 40
0.7900111086
 40
0.8390078264
 40
0.8813664484
 40
0.9176886818
 40
0.94877651
 40
0.9757594557
 40
1.0
 40
1.0
 40
1.0
 40
1.0
 10
78.4647100051
 20
141.8826847044
 30
0.0
 10
77.6117206049
 20
141.7266136657
 30
0.0
 10
75.9755156636
 20
141.3597819461
 30
0.0
 10
73.6818017503
 20
140.6253774096
 30
0.0
 10
71.6843710672
 20
139.7523016731
 30
0.0
 10
70.044935874
 20
138.7858794712
 30
0.0
 10
68.9597062826
 20
137.9066552679
 30
0.0
 10
68.3214169742
 20
137.2102859114
 30
0.0
 10
67.9784801259
 20
136.7442059322
 30
0.0
 10
67.7342051999
 20
136.3106074876
 30
0.0
 10
67.5745654673
 20
135.9132404899
 30
0.0
 10
67.48796466
 20
135.5497575425
 30
0.0
 10
67.4704265954
 20
135.3177290954
 30
0.0
 10
67.4704265954
 20
135.2081126135
 30
0.0
  0
SPLINE
  5
60B
100
AcDbEntity
  8
KONSTRUKTIONSELEMENTE
100
AcDbSpline
 62
7
  6
CONTINUOUS
 70
0
 71
3
 72
16
 73
12
 74
0
 42
0.0000001
 43
0.0000001
 44
0.0000000001
 40
0.0
 40
0.0
 40
0.0
 40
0.0
 40
0.053466446
 40
0.1068028023
 40
0.2147417936
 40
0.3263028662
 40
0.4442103123
 40
0.5704109244
 40
0.7056136464
 40
0.8493035521
 40
1.0
 40
1.0
 40
1.0
 40
1.0
 10
108.4704265954
 20
135.2081126135
 30
0.0
 10
108.4704265954
 20
135.6177241922
 30
0.0
 10
108.408394668
 20
136.4374012585
 30
0.0
 10
108.0397371584
 20
138.0458449557
 30
0.0
 10
107.1377839405
 20
139.9622238857
 30
0.0
 10
105.4866281596
 20
141.9770954068
 30
0.0
 10
103.3701508711
 20
143.7154361003
 30
0.0
 10
100.8540155097
 20
145.1884157736
 30
0.0
 10
97.9898433115
 20
146.4019553854
 30
0.0
 10
94.8326690194
 20
147.3503937442
 30
0.0
 10
92.6169914386
 20
147.7906061068
 30
0.0
 10
91.4760107569
 20
147.9667686687
 30
0.0
  0
SPLINE
  5
60C
100
AcDbEntity
  8
KONSTRUKTIONSELEMENTE
100
AcDbSpline
 62
7
  6
CONTINUOUS
 70
0
 71
3
 72
16
 73
12
 74
0
 42
0.0000001
 43
0.0000001
 44
0.0000000001
 40
0.0
 40
0.0
 40
0.0
 40
0.0
 40
0.1507001695
 40
0.2943922905
 40
0.4295954637
 40
0.5557948763
 40
0.673701745
 40
0.7852604327
 40
0.8931954672
 40
0.9465417271
 40
1.0
 40
1.0
 40
1.0
 40
1.0
 10
78.4655735588
 20
147.9668881233
 30
0.0
 10
77.3245244698
 20
147.790738522
 30
0.0
 10
75.1087247705
 20
147.3505335546
 30
0.0
 10
71.9513869225
 20
146.4020979065
 30
0.0
 10
69.0871059563
 20
145.1885313707
 30
0.0
 10
66.5708659964
 20
143.7155688079
 30
0.0
 10
64.4543204795
 20
141.9772134562
 30
0.0
 10
62.8031561488
 20
139.9623212297
 30
0.0
 10
61.9010798247
 20
138.0458850825
 30
0.0
 10
61.5325021795
 20
136.4373854014
 30
0.0
 10
61.4704265954
 20
135.6176747436
 30
0.0
 10
61.4704265954
 20
135.2081126135
 30
0.0
  0
SPLINE
  5
60D
100
AcDbEntity
  8
0
100
AcDbSpline
 62
7
  6
CONTINUOUS
 70
0
 71
3
 72
11
 73
7
 74
0
 42
0.0000001
 43
0.0000001
 44
0.0000000001
 40
0.0
 40
0.0
 40
0.0
 40
0.0
 40
0.3433608845
 40
0.6350627887
 40
0.8582516075
 40
1.0
 40
1.0
 40
1.0
 40
1.0
 10
99.9075883616
 20
102.210350427
 30
0.0
 10
99.9075883616
 20
102.4680571035
 30
0.0
 10
99.9086156676
 20
102.9446948615
 30
0.0
 10
99.913293963
 20
103.5888508946
 30
0.0
 10
99.9212627834
 20
104.0815955098
 30
0.0
 10
99.9286591393
 20
104.3554598452
 30
0.0
 10
99.9346787336
 20
104.4616774954
 30
0.0
  0
SPLINE
  5
60E
100
AcDbEntity
  8
0
100
AcDbSpline
 62
7
  6
CONTINUOUS
 70
0
 71
3
 72
13
 73
9
 74
0
 42
0.0000001
 43
0.0000001
 44
0.0000000001
 40
0.0
 40
0.0
 40
0.0
 40
0.0
 40
0.4308915112
 40
0.7406465363
 40
0.8498663342
 40
0.9287630528
 40
0.9778284174
 40
1.0
 40
1.0
 40
1.0
 40
1.0
 10
99.9346787336
 20
104.4616774954
 30
0.0
 10
99.9356463886
 20
104.4787520745
 30
0.0
 10
99.9374925667
 20
104.5080498761
 30
0.0
 10
99.9405018595
 20
104.5417710988
 30
0.0
 10
99.9430424533
 20
104.5612186943
 30
0.0
 10
99.9449035367
 20
104.5707186827
 30
0.0
 10
99.9462740976
 20
104.5760128947
 30
0.0
 10
99.9480505805
 20
104.5790719382
 30
0.0
 10
99.9489305478
 20
104.5790774615
 30
0.0
  0
SPLINE
  5
60F
100
AcDbEntity
  8
0
100
AcDbSpline
 62
7
  6
CONTINUOUS
 70
0
 71
3
 72
9
 73
5
 74
0
 42
0.0000001
 43
0.0000001
 44
0.0000000001
 40
0.0
 40
0.0
 40
0.0
 40
0.0
 40
0.2723999373
 40
1.0
 40
1.0
 40
1.0
 40
1.0
 10
99.9471128583
 20
97.3791562831
 30
0.0
 10
99.9469518472
 20
97.3826465858
 30
0.0
 10
99.944672793
 20
97.3953141157
 30
0.0
 10
99.9440105763
 20
97.4081392906
 30
0.0
 10
99.9433942229
 20
97.4174516831
 30
0.0
  0
SPLINE
  5
610
100
AcDbEntity
  8
0
100
AcDbSpline
 62
7
  6
CONTINUOUS
 70
0
 71
3
 72
9
 73
5
 74
0
 42
0.0000001
 43
0.0000001
 44
0.0000000001
 40
0.0
 40
0.0
 40
0.0
 40
0.0
 40
0.1745399475
 40
1.0
 40
1.0
 40
1.0
 40
1.0
 10
99.9433942229
 20
97.4174516831
 30
0.0
 10
99.9427073098
 20
97.4278301514
 30
0.0
 10
99.9399472897
 20
97.4873693924
 30
0.0
 10
99.9412948001
 20
97.5470335877
 30
0.0
 10
99.9433058927
 20
97.5961832332
 30
0.0
  0
SPLINE
  5
611
100
AcDbEntity
  8
0
100
AcDbSpline
 62
7
  6
CONTINUOUS
 70
0
 71
3
 72
9
 73
5
 74
0
 42
0.0000001
 43
0.0000001
 44
0.0000000001
 40
0.0
 40
0.0
 40
0.0
 40
0.0
 40
0.2495092581
 40
1.0
 40
1.0
 40
1.0
 40
1.0
 10
69.9170455713
 20
104.1857780573
 30
0.0
 10
69.8834816248
 20
104.3678634744
 30
0.0
 10
69.7177121115
 20
105.0911312158
 30
0.0
 10
69.4199918542
 20
105.7873658147
 30
0.0
 10
69.1196571003
 20
106.2563584825
 30
0.0
  0
SPLINE
  5
612
100
AcDbEntity
  8
0
100
AcDbSpline
 62
7
  6
CONTINUOUS
 70
0
 71
3
 72
10
 73
6
 74
0
 42
0.0000001
 43
0.0000001
 44
0.0000000001
 40
0.0
 40
0.0
 40
0.0
 40
0.0
 40
0.1863954
 40
0.4168880888
 40
1.0
 40
1.0
 40
1.0
 40
1.0
 10
99.9433058927
 20
97.5961832374
 30
0.0
 10
99.9413465345
 20
97.6440685311
 30
0.0
 10
99.9404465457
 20
97.7512991862
 30
0.0
 10
99.9451204825
 20
98.0083475576
 30
0.0
 10
99.9488613775
 20
98.2176095586
 30
0.0
 10
99.9453753353
 20
98.3674968141
 30
0.0
  0
SPLINE
  5
613
100
AcDbEntity
  8
0
100
AcDbSpline
 62
7
  6
CONTINUOUS
 70
0
 71
3
 72
9
 73
5
 74
0
 42
0.0000001
 43
0.0000001
 44
0.0000000001
 40
0.0
 40
0.0
 40
0.0
 40
0.0
 40
0.501595186
 40
1.0
 40
1.0
 40
1.0
 40
1.0
 10
77.7675942098
 20
126.5159775766
 30
0.0
 10
77.5090333504
 20
126.013311625
 30
0.0
 10
77.1085539937
 20
124.947364036
 30
0.0
 10
76.9712395789
 20
123.816584848
 30
0.0
 10
76.9704540437
 20
123.2549137546
 30
0.0
  0
SPLINE
  5
614
100
AcDbEntity
  8
BEZUGSACHSEN
100
AcDbSpline
 62
7
  6
CONTINUOUS
 70
0
 71
3
 72
15
 73
11
 74
0
 42
0.0000001
 43
0.0000001
 44
0.0000000001
 40
0.0
 40
0.0
 40
0.0
 40
0.0
 40
0.1213984729
 40
0.2449249801
 40
0.3714323559
 40
0.5
 40
0.6285676441
 40
0.7550750199
 40
0.8786015271
 40
1.0
 40
1.0
 40
1.0
 40
1.0
 10
94.9704265954
 20
103.8862491293
 30
0.0
 10
94.9704265954
 20
103.7637158182
 30
0.0
 10
95.0236993098
 20
103.5135820939
 30
0.0
 10
95.2484522736
 20
103.2013118426
 30
0.0
 10
95.5809691815
 20
102.9944861849
 30
0.0
 10
95.9704265954
 20
102.9223981037
 30
0.0
 10
96.3598840093
 20
102.9944861849
 30
0.0
 10
96.6924009171
 20
103.2013118426
 30
0.0
 10
96.917153881
 20
103.5135820939
 30
0.0
 10
96.9704265954
 20
103.7637158182
 30
0.0
 10
96.9704265954
 20
103.8862491293
 30
0.0
  0
SPLINE
  5
615
100
AcDbEntity
  8
0
100
AcDbSpline
 62
7
  6
CONTINUOUS
 70
0
 71
3
 72
21
 73
17
 74
0
 42
0.0000001
 43
0.0000001
 44
0.0000000001
 40
0.0
 40
0.0
 40
0.0
 40
0.0
 40
0.0606476034
 40
0.1215939993
 40
0.1830886726
 40
0.2452924231
 40
0.3082546743
 40
0.3719096569
 40
0.5
 40
0.6280903431
 40
0.6917453257
 40
0.7547075769
 40
0.8169113274
 40
0.8784060007
 40
0.9393523966
 40
1.0
 40
1.0
 40
1.0
 40
1.0
 10
88.4704265954
 20
105.3075398728
 30
0.0
 10
88.4704265954
 20
105.5225905543
 30
0.0
 10
88.4250356835
 20
105.9550919121
 30
0.0
 10
88.2236989311
 20
106.5769581428
 30
0.0
 10
87.897113724
 20
107.1497011301
 30
0.0
 10
87.4582943107
 20
107.650949365
 30
0.0
 10
86.9241365665
 20
108.0617841352
 30
0.0
 10
86.1126889242
 20
108.4687534718
 30
0.0
 10
84.9704265954
 20
108.6817776831
 30
0.0
 10
83.8281642665
 20
108.4687534718
 30
0.0
 10
83.0167166243
 20
108.0617841352
 30
0.0
 10
82.48255888
 20
107.650949365
 30
0.0
 10
82.0437394667
 20
107.1497011301
 30
0.0
 10
81.7171542596
 20
106.5769581428
 30
0.0
 10
81.5158175073
 20
105.9550919121
 30
0.0
 10
81.4704265954
 20
105.5225905543
 30
0.0
 10
81.4704265954
 20
105.3075398728
 30
0.0
  0
SPLINE
  5
616
100
AcDbEntity
  8
BEZUGSACHSEN
100
AcDbSpline
 62
7
  6
CONTINUOUS
 70
0
 71
3
 72
9
 73
5
 74
0
 42
0.0000001
 43
0.0000001
 44
0.0000000001
 40
0.0
 40
0.0
 40
0.0
 40
0.0
 40
0.4936052548
 40
1.0
 40
1.0
 40
1.0
 40
1.0
 10
77.535521265
 20
120.4348143111
 30
0.0
 10
77.811714456
 20
119.8977258411
 30
0.0
 10
78.5087741329
 20
118.875698364
 30
0.0
 10
79.4268872509
 20
118.0481333341
 30
0.0
 10
79.9309723762
 20
117.6878678778
 30
0.0
  0
SPLINE
  5
617
100
AcDbEntity
  8
BEZUGSACHSEN
100
AcDbSpline
 62
7
  6
CONTINUOUS
 70
0
 71
3
 72
9
 73
5
 74
0
 42
0.0000001
 43
0.0000001
 44
0.0000000001
 40
0.0
 40
0.0
 40
0.0
 40
0.0
 40
0.5063945432
 40
1.0
 40
1.0
 40
1.0
 40
1.0
 10
90.0098838682
 20
117.6878700824
 30
0.0
 10
90.5139677567
 20
118.0481350915
 30
0.0
 10
91.4320792235
 20
118.875698878
 30
0.0
 10
92.1291376486
 20
119.8977246431
 30
0.0
 10
92.4053309534
 20
120.4348122154
 30
0.0
  0
LINE
  5
618
100
AcDbEntity
  8
BEZUGSACHSEN
100
AcDbLine
 62
7
  6
CONTINUOUS
 10
92.9703980854
 20
123.2446662706
 11
92.9704060521
 21
123.2549233267
  0
SPLINE
  5
619
100
AcDbEntity
  8
0
100
AcDbSpline
 62
7
  6
CONTINUOUS
 70
0
 71
3
 72
9
 73
5
 74
0
 42
0.0000001
 43
0.0000001
 44
0.0000000001
 40
0.0
 40
0.0
 40
0.0
 40
0.0
 40
0.498404814
 40
1.0
 40
1.0
 40
1.0
 40
1.0
 10
92.970399147
 20
123.2549137546
 30
0.0
 10
92.9696136118
 20
123.816584848
 30
0.0
 10
92.832299197
 20
124.947364036
 30
0.0
 10
92.4318198403
 20
126.013311625
 30
0.0
 10
92.1732589809
 20
126.5159775766
 30
0.0
  0
LINE
  5
61A
100
AcDbEntity
  8
BEZUGSACHSEN
100
AcDbLine
 62
7
  6
CONTINUOUS
 10
76.9704471386
 20
123.2549233267
 11
76.9704551053
 21
123.2446662706
  0
LINE
  5
61B
100
AcDbEntity
  8
0
100
AcDbLine
 62
7
  6
CONTINUOUS
 10
99.9224607657
 20
102.2246293178
 11
99.9222903474
 21
102.2104035867
  0
SPLINE
  5
61C
100
AcDbEntity
  8
0
100
AcDbSpline
 62
7
  6
CONTINUOUS
 70
0
 71
3
 72
9
 73
5
 74
0
 42
0.0000001
 43
0.0000001
 44
0.0000000001
 40
0.0
 40
0.0
 40
0.0
 40
0.0
 40
0.1930729611
 40
1.0
 40
1.0
 40
1.0
 40
1.0
 10
99.9735651472
 20
104.3619713385
 30
0.0
 10
99.9716724638
 20
104.322826994
 30
0.0
 10
99.9621147139
 20
104.1200734086
 30
0.0
 10
99.9535868046
 20
103.9172506815
 30
0.0
 10
99.9493611958
 20
103.7535146253
 30
0.0
  0
SPLINE
  5
61D
100
AcDbEntity
  8
0
100
AcDbSpline
 62
7
  6
CONTINUOUS
 70
0
 71
3
 72
9
 73
5
 74
0
 42
0.0000001
 43
0.0000001
 44
0.0000000001
 40
0.0
 40
0.0
 40
0.0
 40
0.0
 40
0.2515118724
 40
1.0
 40
1.0
 40
1.0
 40
1.0
 10
100.8211960905
 20
106.2563584825
 30
0.0
 10
100.727815568
 20
106.110538594
 30
0.0
 10
100.3868697429
 20
105.5115351781
 30
0.0
 10
100.1615816858
 20
104.8495070346
 30
0.0
 10
100.0553076567
 20
104.345277123
 30
0.0
  0
LINE
  5
61E
100
AcDbEntity
  8
0
100
AcDbLine
 62
7
  6
CONTINUOUS
 10
99.9453753353
 20
97.3857719553
 11
99.9471066241
 21
97.3790804263
  0
LINE
  5
61F
100
AcDbEntity
  8
KONSTRUKTIONSELEMENTE
100
AcDbLine
 62
7
  6
CONTINUOUS
 10
74.3242361051
 20
131.0364466379
 11
73.2324209006
 21
131.645329153
  0
LINE
  5
620
100
AcDbEntity
  8
KONSTRUKTIONSELEMENTE
100
AcDbLine
 62
7
  6
CONTINUOUS
 10
72.6104822658
 20
133.2650112883
 11
72.4111342369
 21
133.1001453434
  0
LINE
  5
621
100
AcDbEntity
  8
KONSTRUKTIONSELEMENTE
100
AcDbLine
 62
7
  6
CONTINUOUS
 10
72.8843412636
 20
133.3328425983
 11
72.6104822658
 21
133.2650112883
  0
LINE
  5
622
100
AcDbEntity
  8
KONSTRUKTIONSELEMENTE
100
AcDbLine
 62
7
  6
CONTINUOUS
 10
73.1807201212
 20
133.3327980218
 11
72.8843412636
 21
133.3328425983
  0
LINE
  5
623
100
AcDbEntity
  8
KONSTRUKTIONSELEMENTE
100
AcDbLine
 62
7
  6
CONTINUOUS
 10
73.3661650345
 20
133.2844162579
 11
73.1807201212
 21
133.3327980218
  0
LINE
  5
624
100
AcDbEntity
  8
KONSTRUKTIONSELEMENTE
100
AcDbLine
 62
7
  6
CONTINUOUS
 10
73.5741299532
 20
133.1684229593
 11
73.3661650345
 21
133.2844162579
  0
LINE
  5
625
100
AcDbEntity
  8
KONSTRUKTIONSELEMENTE
100
AcDbLine
 62
7
  6
CONTINUOUS
 10
73.7006321997
 20
133.04282682
 11
73.5741299532
 21
133.1684229593
  0
LINE
  5
626
100
AcDbEntity
  8
KONSTRUKTIONSELEMENTE
100
AcDbLine
 62
7
  6
CONTINUOUS
 10
73.8201828882
 20
132.8109516708
 11
73.7006321997
 21
133.04282682
  0
SPLINE
  5
627
100
AcDbEntity
  8
KONSTRUKTIONSELEMENTE
100
AcDbSpline
 62
7
  6
CONTINUOUS
 70
0
 71
3
 72
8
 73
4
 74
0
 42
0.0000001
 43
0.0000001
 44
0.0000000001
 40
0.0
 40
0.0
 40
0.0
 40
0.0
 40
1.0
 40
1.0
 40
1.0
 40
1.0
 10
75.2673197015
 20
132.2789528874
 30
0.0
 10
74.7803790552
 20
132.3857093473
 30
0.0
 10
74.2933581676
 20
132.4921001335
 30
0.0
 10
73.8062798569
 20
132.5982267273
 30
0.0
  0
LINE
  5
628
100
AcDbEntity
  8
KONSTRUKTIONSELEMENTE
100
AcDbLine
 62
7
  6
CONTINUOUS
 10
73.5168524727
 20
132.7044520455
 11
73.5047070519
 21
132.6560256747
  0
LINE
  5
629
100
AcDbEntity
  8
KONSTRUKTIONSELEMENTE
100
AcDbLine
 62
7
  6
CONTINUOUS
 10
73.5047070519
 20
132.6560256747
 11
73.4804295815
 21
132.5591783459
  0
LINE
  5
62A
100
AcDbEntity
  8
KONSTRUKTIONSELEMENTE
100
AcDbLine
 62
7
  6
CONTINUOUS
 10
72.9204737409
 20
131.8192903746
 11
72.1406056961
 21
132.2541851879
  0
LINE
  5
62B
100
AcDbEntity
  8
KONSTRUKTIONSELEMENTE
100
AcDbLine
 62
7
  6
CONTINUOUS
 10
76.1396484349
 20
134.3623631511
 11
74.7615060682
 21
135.5168979723
  0
LINE
  5
62C
100
AcDbEntity
  8
KONSTRUKTIONSELEMENTE
100
AcDbLine
 62
7
  6
CONTINUOUS
 10
76.325475149
 20
134.143197597
 11
76.1396484349
 21
134.3623631511
  0
LINE
  5
62D
100
AcDbEntity
  8
KONSTRUKTIONSELEMENTE
100
AcDbLine
 62
7
  6
CONTINUOUS
 10
76.4303916206
 20
133.9282987518
 11
76.325475149
 21
134.143197597
  0
LINE
  5
62E
100
AcDbEntity
  8
KONSTRUKTIONSELEMENTE
100
AcDbLine
 62
7
  6
CONTINUOUS
 10
76.4623995113
 20
133.6472903628
 11
76.4303916206
 21
133.9282987518
  0
LINE
  5
62F
100
AcDbEntity
  8
KONSTRUKTIONSELEMENTE
100
AcDbLine
 62
7
  6
CONTINUOUS
 10
73.6678796722
 20
134.520789954
 11
73.4491542887
 21
134.319944262
  0
LINE
  5
630
100
AcDbEntity
  8
KONSTRUKTIONSELEMENTE
100
AcDbLine
 62
7
  6
CONTINUOUS
 10
75.0460220389
 20
133.3664511295
 11
73.6678796722
 21
134.520789954
  0
LINE
  5
631
100
AcDbEntity
  8
KONSTRUKTIONSELEMENTE
100
AcDbLine
 62
7
  6
CONTINUOUS
 10
75.2603009105
 20
133.2509512875
 11
75.0460220389
 21
133.3664511295
  0
LINE
  5
632
100
AcDbEntity
  8
KONSTRUKTIONSELEMENTE
100
AcDbLine
 62
7
  6
CONTINUOUS
 10
75.466578074
 20
133.2060947138
 11
75.2603009105
 21
133.2509512875
  0
LINE
  5
633
100
AcDbEntity
  8
KONSTRUKTIONSELEMENTE
100
AcDbLine
 62
7
  6
CONTINUOUS
 10
75.6648531434
 20
133.2317753111
 11
75.466578074
 21
133.2060947138
  0
LINE
  5
634
100
AcDbEntity
  8
KONSTRUKTIONSELEMENTE
100
AcDbLine
 62
7
  6
CONTINUOUS
 10
75.8551260565
 20
133.3278261819
 11
75.6648531434
 21
133.2317753111
  0
LINE
  5
635
100
AcDbEntity
  8
KONSTRUKTIONSELEMENTE
100
AcDbLine
 62
7
  6
CONTINUOUS
 10
76.0009429789
 20
133.4608210916
 11
75.8551260565
 21
133.3278261819
  0
LINE
  5
636
100
AcDbEntity
  8
KONSTRUKTIONSELEMENTE
100
AcDbLine
 62
7
  6
CONTINUOUS
 10
76.1023037018
 20
133.6307598492
 11
76.0009429789
 21
133.4608210916
  0
LINE
  5
637
100
AcDbEntity
  8
KONSTRUKTIONSELEMENTE
100
AcDbLine
 62
7
  6
CONTINUOUS
 10
76.1227539116
 20
133.804571521
 11
76.1023037018
 21
133.6307598492
  0
LINE
  5
638
100
AcDbEntity
  8
KONSTRUKTIONSELEMENTE
100
AcDbLine
 62
7
  6
CONTINUOUS
 10
74.7615060682
 20
135.5168979723
 11
74.542780789
 21
135.3187590304
  0
LINE
  5
639
100
AcDbEntity
  8
KONSTRUKTIONSELEMENTE
100
AcDbLine
 62
7
  6
CONTINUOUS
 10
76.7723681976
 20
136.8156583022
 11
76.525351654
 21
136.728539282
  0
LINE
  5
63A
100
AcDbEntity
  8
KONSTRUKTIONSELEMENTE
100
AcDbLine
 62
7
  6
CONTINUOUS
 10
77.0122781422
 20
136.8320348665
 11
76.7723681976
 21
136.8156583022
  0
LINE
  5
63B
100
AcDbEntity
  8
KONSTRUKTIONSELEMENTE
100
AcDbLine
 62
7
  6
CONTINUOUS
 10
77.3226830876
 20
136.7597420645
 11
77.0122781422
 21
136.8320348665
  0
LINE
  5
63C
100
AcDbEntity
  8
KONSTRUKTIONSELEMENTE
100
AcDbLine
 62
7
  6
CONTINUOUS
 10
77.5483808034
 20
136.6350720614
 11
77.3226830876
 21
136.7597420645
  0
LINE
  5
63D
100
AcDbEntity
  8
KONSTRUKTIONSELEMENTE
100
AcDbLine
 62
7
  6
CONTINUOUS
 10
77.766972019
 20
136.4400723314
 11
77.5483808034
 21
136.6350720614
  0
LINE
  5
63E
100
AcDbEntity
  8
KONSTRUKTIONSELEMENTE
100
AcDbLine
 62
7
  6
CONTINUOUS
 10
78.2956845745
 20
135.7768900901
 11
77.766972019
 21
136.4400723314
  0
LINE
  5
63F
100
AcDbEntity
  8
KONSTRUKTIONSELEMENTE
100
AcDbLine
 62
7
  6
CONTINUOUS
 10
78.4295684618
 20
135.5298040823
 11
78.2956845745
 21
135.7768900901
  0
LINE
  5
640
100
AcDbEntity
  8
KONSTRUKTIONSELEMENTE
100
AcDbLine
 62
7
  6
CONTINUOUS
 10
78.4704265734
 20
135.3636192827
 11
78.4295684618
 21
135.5298040823
  0
LINE
  5
641
100
AcDbEntity
  8
KONSTRUKTIONSELEMENTE
100
AcDbLine
 62
7
  6
CONTINUOUS
 10
77.2081313698
 20
134.4402988957
 11
75.9744686826
 21
135.9874575729
  0
LINE
  5
642
100
AcDbEntity
  8
KONSTRUKTIONSELEMENTE
100
AcDbLine
 62
7
  6
CONTINUOUS
 10
78.104666787
 20
135.0656454392
 11
77.9704993437
 21
134.9164334726
  0
LINE
  5
643
100
AcDbEntity
  8
KONSTRUKTIONSELEMENTE
100
AcDbLine
 62
7
  6
CONTINUOUS
 10
78.1612330905
 20
135.2326221513
 11
78.104666787
 21
135.0656454392
  0
LINE
  5
644
100
AcDbEntity
  8
KONSTRUKTIONSELEMENTE
100
AcDbLine
 62
7
  6
CONTINUOUS
 10
92.6052666663
 20
137.2147838297
 11
91.4704268261
 21
135.7491886413
  0
LINE
  5
645
100
AcDbEntity
  8
KONSTRUKTIONSELEMENTE
100
AcDbLine
 62
7
  6
CONTINUOUS
 10
93.8093380558
 20
136.4225594875
 11
93.6303400139
 21
136.5969818549
  0
LINE
  5
646
100
AcDbEntity
  8
KONSTRUKTIONSELEMENTE
100
AcDbLine
 62
7
  6
CONTINUOUS
 10
93.8765042903
 20
136.184570251
 11
93.8093380558
 21
136.4225594875
  0
LINE
  5
647
100
AcDbEntity
  8
KONSTRUKTIONSELEMENTE
100
AcDbLine
 62
7
  6
CONTINUOUS
 10
92.689080691
 20
135.4627792163
 11
92.3050197045
 21
134.3177911909
  0
LINE
  5
648
100
AcDbEntity
  8
KONSTRUKTIONSELEMENTE
100
AcDbLine
 62
7
  6
CONTINUOUS
 10
93.1445532357
 20
135.6453539509
 11
92.98185951
 21
135.6786415761
  0
LINE
  5
649
100
AcDbEntity
  8
KONSTRUKTIONSELEMENTE
100
AcDbLine
 62
7
  6
CONTINUOUS
 10
93.2990957808
 20
135.6825805389
 11
93.1445532357
 21
135.6453539509
  0
LINE
  5
64A
100
AcDbEntity
  8
KONSTRUKTIONSELEMENTE
100
AcDbLine
 62
7
  6
CONTINUOUS
 10
93.4454851903
 20
135.7904211105
 11
93.2990957808
 21
135.6825805389
  0
LINE
  5
64B
100
AcDbEntity
  8
KONSTRUKTIONSELEMENTE
100
AcDbLine
 62
7
  6
CONTINUOUS
 10
93.5491639589
 20
135.9242939836
 11
93.4454851903
 21
135.7904211105
  0
LINE
  5
64C
100
AcDbEntity
  8
KONSTRUKTIONSELEMENTE
100
AcDbLine
 62
7
  6
CONTINUOUS
 10
93.6101318928
 20
136.0841918554
 11
93.5897492039
 21
136.0307373721
  0
LINE
  5
64D
100
AcDbEntity
  8
KONSTRUKTIONSELEMENTE
100
AcDbLine
 62
7
  6
CONTINUOUS
 10
93.5897492039
 20
136.0307373721
 11
93.5491639589
 21
135.9242939836
  0
LINE
  5
64E
100
AcDbEntity
  8
KONSTRUKTIONSELEMENTE
100
AcDbLine
 62
7
  6
CONTINUOUS
 10
93.3472980048
 20
134.0637658414
 11
93.3188187587
 21
133.7825491848
  0
LINE
  5
64F
100
AcDbEntity
  8
KONSTRUKTIONSELEMENTE
100
AcDbLine
 62
7
  6
CONTINUOUS
 10
93.4494519384
 20
134.2796755426
 11
93.3472980048
 21
134.0637658414
  0
LINE
  5
650
100
AcDbEntity
  8
KONSTRUKTIONSELEMENTE
100
AcDbLine
 62
7
  6
CONTINUOUS
 10
93.6323961053
 20
134.5007084843
 11
93.4494519384
 21
134.2796755426
  0
LINE
  5
651
100
AcDbEntity
  8
KONSTRUKTIONSELEMENTE
100
AcDbLine
 62
7
  6
CONTINUOUS
 10
94.2917406757
 20
135.0661631375
 11
93.6323961053
 21
134.5007084843
  0
LINE
  5
652
100
AcDbEntity
  8
KONSTRUKTIONSELEMENTE
100
AcDbLine
 62
7
  6
CONTINUOUS
 10
94.5483596378
 20
135.2220650827
 11
94.2917406757
 21
135.0661631375
  0
LINE
  5
653
100
AcDbEntity
  8
KONSTRUKTIONSELEMENTE
100
AcDbLine
 62
7
  6
CONTINUOUS
 10
94.7978561397
 20
135.3076339666
 11
94.5483596378
 21
135.2220650827
  0
LINE
  5
654
100
AcDbEntity
  8
KONSTRUKTIONSELEMENTE
100
AcDbLine
 62
7
  6
CONTINUOUS
 10
95.1210273136
 20
135.3277822413
 11
94.7978561397
 21
135.3076339666
  0
LINE
  5
655
100
AcDbEntity
  8
KONSTRUKTIONSELEMENTE
100
AcDbLine
 62
7
  6
CONTINUOUS
 10
95.3562842002
 20
135.2722930518
 11
95.1210273136
 21
135.3277822413
  0
LINE
  5
656
100
AcDbEntity
  8
KONSTRUKTIONSELEMENTE
100
AcDbLine
 62
7
  6
CONTINUOUS
 10
95.5844221221
 20
135.1460548328
 11
95.3562842002
 21
135.2722930518
  0
LINE
  5
657
100
AcDbEntity
  8
KONSTRUKTIONSELEMENTE
100
AcDbLine
 62
7
  6
CONTINUOUS
 10
96.0561716634
 20
134.6473845348
 11
95.9159480289
 21
134.8500458001
  0
LINE
  5
658
100
AcDbEntity
  8
KONSTRUKTIONSELEMENTE
100
AcDbLine
 62
7
  6
CONTINUOUS
 10
96.1156050339
 20
134.4397504547
 11
96.0561716634
 21
134.6473845348
  0
LINE
  5
659
100
AcDbEntity
  8
KONSTRUKTIONSELEMENTE
100
AcDbLine
 62
7
  6
CONTINUOUS
 10
95.7781942445
 20
134.2797854279
 11
95.6989404198
 21
134.1579091278
  0
LINE
  5
65A
100
AcDbEntity
  8
KONSTRUKTIONSELEMENTE
100
AcDbLine
 62
7
  6
CONTINUOUS
 10
95.6989404198
 20
134.1579091278
 11
95.6831608694
 21
134.1336416012
  0
LINE
  5
65B
100
AcDbEntity
  8
KONSTRUKTIONSELEMENTE
100
AcDbLine
 62
7
  6
CONTINUOUS
 10
93.6788239116
 20
133.7698340893
 11
93.6562279079
 21
133.9433478353
  0
LINE
  5
65C
100
AcDbEntity
  8
KONSTRUKTIONSELEMENTE
100
AcDbLine
 62
7
  6
CONTINUOUS
 10
93.7822135826
 20
133.6010464595
 11
93.6788239116
 21
133.7698340893
  0
LINE
  5
65D
100
AcDbEntity
  8
KONSTRUKTIONSELEMENTE
100
AcDbLine
 62
7
  6
CONTINUOUS
 10
94.3050400753
 20
133.2106554738
 11
94.1137394893
 21
133.3050101239
  0
LINE
  5
65E
100
AcDbEntity
  8
KONSTRUKTIONSELEMENTE
100
AcDbLine
 62
7
  6
CONTINUOUS
 10
94.5034613428
 20
133.1868164265
 11
94.3050400753
 21
133.2106554738
  0
LINE
  5
65F
100
AcDbEntity
  8
KONSTRUKTIONSELEMENTE
100
AcDbLine
 62
7
  6
CONTINUOUS
 10
94.6721658944
 20
133.2667818745
 11
94.5034613428
 21
133.1868164265
  0
LINE
  5
660
100
AcDbEntity
  8
KONSTRUKTIONSELEMENTE
100
AcDbLine
 62
7
  6
CONTINUOUS
 10
95.0238163606
 20
133.5683021251
 11
94.6721658944
 21
133.2667818745
  0
LINE
  5
661
100
AcDbEntity
  8
KONSTRUKTIONSELEMENTE
100
AcDbLine
 62
7
  6
CONTINUOUS
 10
94.9560282574
 20
134.0916463415
 11
94.6922904539
 21
133.8655457004
  0
LINE
  5
662
100
AcDbEntity
  8
KONSTRUKTIONSELEMENTE
100
AcDbLine
 62
7
  6
CONTINUOUS
 10
96.3764614115
 20
130.2517183427
 11
96.3095960948
 21
129.9777646138
  0
LINE
  5
663
100
AcDbEntity
  8
KONSTRUKTIONSELEMENTE
100
AcDbLine
 62
7
  6
CONTINUOUS
 10
96.5439763956
 20
130.4586391491
 11
96.3764614115
 21
130.2517183427
  0
LINE
  5
664
100
AcDbEntity
  8
KONSTRUKTIONSELEMENTE
100
AcDbLine
 62
7
  6
CONTINUOUS
 10
96.7907692845
 20
130.6418636157
 11
96.5439763956
 21
130.4586391491
  0
LINE
  5
665
100
AcDbEntity
  8
KONSTRUKTIONSELEMENTE
100
AcDbLine
 62
7
  6
CONTINUOUS
 10
97.1747481619
 20
130.8209215155
 11
96.7907692845
 21
130.6418636157
  0
LINE
  5
666
100
AcDbEntity
  8
KONSTRUKTIONSELEMENTE
100
AcDbLine
 62
7
  6
CONTINUOUS
 10
97.5800977576
 20
130.9569711659
 11
97.1747481619
 21
130.8209215155
  0
LINE
  5
667
100
AcDbEntity
  8
KONSTRUKTIONSELEMENTE
100
AcDbLine
 62
7
  6
CONTINUOUS
 10
98.0068181528
 20
131.0499854968
 11
97.5800977576
 21
130.9569711659
  0
LINE
  5
668
100
AcDbEntity
  8
KONSTRUKTIONSELEMENTE
100
AcDbLine
 62
7
  6
CONTINUOUS
 10
98.3390963177
 20
131.0610309412
 11
98.0068181528
 21
131.0499854968
  0
LINE
  5
669
100
AcDbEntity
  8
KONSTRUKTIONSELEMENTE
100
AcDbLine
 62
7
  6
CONTINUOUS
 10
98.6348380347
 20
131.0094474157
 11
98.3390963177
 21
131.0610309412
  0
LINE
  5
66A
100
AcDbEntity
  8
KONSTRUKTIONSELEMENTE
100
AcDbLine
 62
7
  6
CONTINUOUS
 10
98.9154152437
 20
130.8519054609
 11
98.6348380347
 21
131.0094474157
  0
LINE
  5
66B
100
AcDbEntity
  8
KONSTRUKTIONSELEMENTE
100
AcDbLine
 62
7
  6
CONTINUOUS
 10
99.0801773043
 20
130.6551274589
 11
98.9154152437
 21
130.8519054609
  0
LINE
  5
66C
100
AcDbEntity
  8
KONSTRUKTIONSELEMENTE
100
AcDbLine
 62
7
  6
CONTINUOUS
 10
99.1656624586
 20
130.4818917181
 11
99.0801773043
 21
130.6551274589
  0
LINE
  5
66D
100
AcDbEntity
  8
KONSTRUKTIONSELEMENTE
100
AcDbLine
 62
7
  6
CONTINUOUS
 10
99.214610349
 20
130.2455863154
 11
99.1656624586
 21
130.4818917181
  0
LINE
  5
66E
100
AcDbEntity
  8
KONSTRUKTIONSELEMENTE
100
AcDbLine
 62
7
  6
CONTINUOUS
 10
98.8520033304
 20
130.0227441435
 11
98.7210246523
 21
129.8775326033
  0
LINE
  5
66F
100
AcDbEntity
  8
KONSTRUKTIONSELEMENTE
100
AcDbLine
 62
7
  6
CONTINUOUS
 10
98.903704124
 20
130.1918693742
 11
98.8950608275
 21
130.1636052435
  0
LINE
  5
670
100
AcDbEntity
  8
KONSTRUKTIONSELEMENTE
100
AcDbLine
 62
7
  6
CONTINUOUS
 10
98.8950608275
 20
130.1636052435
 11
98.8520033304
 21
130.0227441435
  0
LINE
  5
671
100
AcDbEntity
  8
KONSTRUKTIONSELEMENTE
100
AcDbLine
 62
7
  6
CONTINUOUS
 10
97.9309946348
 20
130.5216783814
 11
97.6905001213
 21
130.6428177618
  0
LINE
  5
672
100
AcDbEntity
  8
KONSTRUKTIONSELEMENTE
100
AcDbLine
 62
7
  6
CONTINUOUS
 10
97.6905001213
 20
130.6428177618
 11
97.630747189
 21
130.6728726048
  0
LINE
  5
673
100
AcDbEntity
  8
KONSTRUKTIONSELEMENTE
100
AcDbLine
 62
7
  6
CONTINUOUS
 10
97.630747189
 20
130.6728726048
 11
97.5711395412
 21
130.7028369144
  0
LINE
  5
674
100
AcDbEntity
  8
KONSTRUKTIONSELEMENTE
100
AcDbLine
 62
7
  6
CONTINUOUS
 10
98.0957566953
 20
130.3249259277
 11
97.9309946348
 21
130.5216783814
  0
LINE
  5
675
100
AcDbEntity
  8
KONSTRUKTIONSELEMENTE
100
AcDbLine
 62
7
  6
CONTINUOUS
 10
98.2026126491
 20
130.1083417921
 11
98.0957566953
 21
130.3249259277
  0
LINE
  5
676
100
AcDbEntity
  8
KONSTRUKTIONSELEMENTE
100
AcDbLine
 62
7
  6
CONTINUOUS
 10
98.2515615177
 20
129.8719274538
 11
98.2026126491
 21
130.1083417921
  0
LINE
  5
677
100
AcDbEntity
  8
KONSTRUKTIONSELEMENTE
100
AcDbLine
 62
7
  6
CONTINUOUS
 10
97.8158819278
 20
129.5231842788
 11
97.6635313909
 21
129.4213745352
  0
LINE
  5
678
100
AcDbEntity
  8
KONSTRUKTIONSELEMENTE
100
AcDbLine
 62
7
  6
CONTINUOUS
 10
97.8889535209
 20
129.649028882
 11
97.8158819278
 21
129.5231842788
  0
LINE
  5
679
100
AcDbEntity
  8
KONSTRUKTIONSELEMENTE
100
AcDbLine
 62
7
  6
CONTINUOUS
 10
97.9406543145
 20
129.8182328283
 11
97.9320096241
 21
129.7899518476
  0
LINE
  5
67A
100
AcDbEntity
  8
KONSTRUKTIONSELEMENTE
100
AcDbLine
 62
7
  6
CONTINUOUS
 10
97.9320096241
 20
129.7899518476
 11
97.8889535209
 21
129.649028882
  0
LINE
  5
67B
100
AcDbEntity
  8
KONSTRUKTIONSELEMENTE
100
AcDbLine
 62
7
  6
CONTINUOUS
 10
96.6267086467
 20
129.8825972901
 11
96.6215371966
 21
130.0068520003
  0
LINE
  5
67C
100
AcDbEntity
  8
KONSTRUKTIONSELEMENTE
100
AcDbLine
 62
7
  6
CONTINUOUS
 10
96.6215371966
 20
130.0068520003
 11
96.6205023552
 21
130.0317028119
  0
LINE
  5
67D
100
AcDbEntity
  8
KONSTRUKTIONSELEMENTE
100
AcDbLine
 62
7
  6
CONTINUOUS
 10
96.7763061993
 20
129.5793740954
 11
96.6267086467
 21
129.8825972901
  0
LINE
  5
67E
100
AcDbEntity
  8
KONSTRUKTIONSELEMENTE
100
AcDbLine
 62
7
  6
CONTINUOUS
 10
96.898326661
 20
129.4685740629
 11
96.7763061993
 21
129.5793740954
  0
LINE
  5
67F
100
AcDbEntity
  8
KONSTRUKTIONSELEMENTE
100
AcDbLine
 62
7
  6
CONTINUOUS
 10
97.0782542078
 20
129.3770429716
 11
96.898326661
 21
129.4685740629
  0
LINE
  5
680
100
AcDbEntity
  8
KONSTRUKTIONSELEMENTE
100
AcDbLine
 62
7
  6
CONTINUOUS
 10
97.2947180808
 20
129.3483203481
 11
97.0782542078
 21
129.3770429716
  0
LINE
  5
681
100
AcDbEntity
  8
KONSTRUKTIONSELEMENTE
100
AcDbLine
 62
7
  6
CONTINUOUS
 10
97.4898101356
 20
129.3630835399
 11
97.2947180808
 21
129.3483203481
  0
LINE
  5
682
100
AcDbEntity
  8
KONSTRUKTIONSELEMENTE
100
AcDbLine
 62
7
  6
CONTINUOUS
 10
97.6635313909
 20
129.4213745352
 11
97.4898101356
 21
129.3630835399
  0
SPLINE
  5
683
100
AcDbEntity
  8
KONSTRUKTIONSELEMENTE
100
AcDbSpline
 62
7
  6
CONTINUOUS
 70
0
 71
3
 72
11
 73
7
 74
0
 42
0.0000001
 43
0.0000001
 44
0.0000000001
 40
0.0
 40
0.0
 40
0.0
 40
0.0
 40
0.2491815523
 40
0.4988888333
 40
0.7491956464
 40
1.0
 40
1.0
 40
1.0
 40
1.0
 10
76.5708423652
 20
99.0989421294
 30
0.0
 10
76.5562924474
 20
99.3181610872
 30
0.0
 10
76.4837838321
 20
99.7550457087
 30
0.0
 10
76.2670200215
 20
100.38138464
 30
0.0
 10
75.9724201027
 20
100.9756317173
 30
0.0
 10
75.740773582
 20
101.3524104152
 30
0.0
 10
75.6190378183
 20
101.5370175773
 30
0.0
  0
LINE
  5
684
100
AcDbEntity
  8
KONSTRUKTIONSELEMENTE
100
AcDbLine
 62
7
  6
CONTINUOUS
 10
97.9130925512
 20
129.7280553726
 11
97.8970488829
 21
129.7606004875
  0
LINE
  5
685
100
AcDbEntity
  8
KONSTRUKTIONSELEMENTE
100
AcDbLine
 62
7
  6
CONTINUOUS
 10
97.8970488829
 20
129.7606004875
 11
97.8596495774
 21
129.8364300239
  0
LINE
  5
686
100
AcDbEntity
  8
KONSTRUKTIONSELEMENTE
100
AcDbLine
 62
7
  6
CONTINUOUS
 10
97.8596495774
 20
129.8364300239
 11
97.7848504704
 21
129.9879380986
  0
LINE
  5
687
100
AcDbEntity
  8
KONSTRUKTIONSELEMENTE
100
AcDbLine
 62
7
  6
CONTINUOUS
 10
97.7848504704
 20
129.9879380986
 11
97.6628300087
 21
130.0982157601
  0
LINE
  5
688
100
AcDbEntity
  8
KONSTRUKTIONSELEMENTE
100
AcDbLine
 62
7
  6
CONTINUOUS
 10
97.6628300087
 20
130.0982157601
 11
97.4829024619
 21
130.1889146749
  0
LINE
  5
689
100
AcDbEntity
  8
KONSTRUKTIONSELEMENTE
100
AcDbLine
 62
7
  6
CONTINUOUS
 10
97.4829024619
 20
130.1889146749
 11
97.3243457145
 21
130.2363410511
  0
LINE
  5
68A
100
AcDbEntity
  8
KONSTRUKTIONSELEMENTE
100
AcDbLine
 62
7
  6
CONTINUOUS
 10
97.3243457145
 20
130.2363410511
 11
97.1292535787
 21
130.2211670223
  0
LINE
  5
68B
100
AcDbEntity
  8
KONSTRUKTIONSELEMENTE
100
AcDbLine
 62
7
  6
CONTINUOUS
 10
97.1292535787
 20
130.2211670223
 11
96.9555323234
 21
130.1628790613
  0
LINE
  5
68C
100
AcDbEntity
  8
KONSTRUKTIONSELEMENTE
100
AcDbLine
 62
7
  6
CONTINUOUS
 10
96.8031818675
 20
130.0614855028
 11
96.9555323234
 21
130.1628790613
  0
LINE
  5
68D
100
AcDbEntity
  8
KONSTRUKTIONSELEMENTE
100
AcDbLine
 62
7
  6
CONTINUOUS
 10
96.6722031488
 20
129.9169396032
 11
96.7047777181
 21
129.9528940734
  0
LINE
  5
68E
100
AcDbEntity
  8
KONSTRUKTIONSELEMENTE
100
AcDbLine
 62
7
  6
CONTINUOUS
 10
96.7047777181
 20
129.9528940734
 11
96.8031818675
 21
130.0614855028
  0
LINE
  5
68F
100
AcDbEntity
  8
KONSTRUKTIONSELEMENTE
100
AcDbLine
 62
7
  6
CONTINUOUS
 10
96.6482572153
 20
129.8389744439
 11
96.6592276403
 21
129.8746969329
  0
LINE
  5
690
100
AcDbEntity
  8
KONSTRUKTIONSELEMENTE
100
AcDbLine
 62
7
  6
CONTINUOUS
 10
96.6592276403
 20
129.8746969329
 11
96.6722031488
 21
129.9169396032
  0
LINE
  5
691
100
AcDbEntity
  8
KONSTRUKTIONSELEMENTE
100
AcDbLine
 62
7
  6
CONTINUOUS
 10
97.8282945108
 20
128.9398031336
 11
98.0750873592
 21
129.1241675673
  0
LINE
  5
692
100
AcDbEntity
  8
KONSTRUKTIONSELEMENTE
100
AcDbLine
 62
7
  6
CONTINUOUS
 10
97.5387590042
 20
128.8426201449
 11
97.8282945108
 21
128.9398031336
  0
LINE
  5
693
100
AcDbEntity
  8
KONSTRUKTIONSELEMENTE
100
AcDbLine
 62
7
  6
CONTINUOUS
 10
97.5387590042
 20
128.8426201449
 11
97.206480961
 21
128.8326596284
  0
LINE
  5
694
100
AcDbEntity
  8
KONSTRUKTIONSELEMENTE
100
AcDbLine
 62
7
  6
CONTINUOUS
 10
97.206480961
 20
128.8326596284
 11
96.9107392237
 21
128.8856395241
  0
LINE
  5
695
100
AcDbEntity
  8
KONSTRUKTIONSELEMENTE
100
AcDbLine
 62
7
  6
CONTINUOUS
 10
96.9107392237
 20
128.8856395241
 11
96.6301629777
 21
129.0448602374
  0
SPLINE
  5
696
100
AcDbEntity
  8
KONSTRUKTIONSELEMENTE
100
AcDbSpline
 62
7
  6
CONTINUOUS
 70
0
 71
3
 72
11
 73
7
 74
0
 42
0.0000001
 43
0.0000001
 44
0.0000000001
 40
0.0
 40
0.0
 40
0.0
 40
0.0
 40
0.2486217062
 40
0.4979646324
 40
0.7484184735
 40
1.0
 40
1.0
 40
1.0
 40
1.0
 10
93.7029918989
 20
103.6297130438
 30
0.0
 10
93.7029918989
 20
103.4469621537
 30
0.0
 10
93.7335474418
 20
103.0802793114
 30
0.0
 10
93.8641949647
 20
102.5440281818
 30
0.0
 10
94.0639586777
 20
102.0278022584
 30
0.0
 10
94.2316598443
 20
101.6984790278
 30
0.0
 10
94.3218153725
 20
101.5370175773
 30
0.0
  0
LINE
  5
697
100
AcDbEntity
  8
KONSTRUKTIONSELEMENTE
100
AcDbLine
 62
7
  6
CONTINUOUS
 10
96.6301629777
 20
129.0448602374
 11
96.4653999338
 21
129.2424898905
  0
LINE
  5
698
100
AcDbEntity
  8
KONSTRUKTIONSELEMENTE
100
AcDbLine
 62
7
  6
CONTINUOUS
 10
96.4653999338
 20
129.2424898905
 11
96.35854398
 21
129.4590801729
  0
LINE
  5
699
100
AcDbEntity
  8
KONSTRUKTIONSELEMENTE
100
AcDbLine
 62
7
  6
CONTINUOUS
 10
96.35854398
 20
129.4590801729
 11
96.3095960948
 21
129.6946283478
  0
LINE
  5
69A
100
AcDbEntity
  8
KONSTRUKTIONSELEMENTE
100
AcDbLine
 62
7
  6
CONTINUOUS
 10
99.1477450474
 20
129.6869046346
 11
99.214610349
 21
129.9624500494
  0
LINE
  5
69B
100
AcDbEntity
  8
KONSTRUKTIONSELEMENTE
100
AcDbLine
 62
7
  6
CONTINUOUS
 10
98.9802300836
 20
129.4786365313
 11
99.1477450474
 21
129.6869046346
  0
LINE
  5
69C
100
AcDbEntity
  8
KONSTRUKTIONSELEMENTE
100
AcDbLine
 62
7
  6
CONTINUOUS
 10
98.8278796277
 20
129.3767916565
 11
98.9802300836
 21
129.4786365313
  0
SPLINE
  5
69D
100
AcDbEntity
  8
0
100
AcDbSpline
 62
7
  6
CONTINUOUS
 70
0
 71
3
 72
9
 73
5
 74
0
 42
0.0000001
 43
0.0000001
 44
0.0000000001
 40
0.0
 40
0.0
 40
0.0
 40
0.0
 40
0.4965233007
 40
1.0
 40
1.0
 40
1.0
 40
1.0
 10
69.9724961094
 20
97.8195045302
 30
0.0
 10
69.9823995041
 20
97.6154550152
 30
0.0
 10
70.0749495565
 20
97.2049358817
 30
0.0
 10
70.3006511704
 20
96.8504595485
 30
0.0
 10
70.4386423652
 20
96.6959609885
 30
0.0
  0
LINE
  5
69E
100
AcDbEntity
  8
KONSTRUKTIONSELEMENTE
100
AcDbLine
 62
7
  6
CONTINUOUS
 10
98.8278796277
 20
129.3767916565
 11
98.7210246523
 21
129.5943963373
  0
LINE
  5
69F
100
AcDbEntity
  8
KONSTRUKTIONSELEMENTE
100
AcDbLine
 62
7
  6
CONTINUOUS
 10
98.8761190123
 20
130.1016536694
 11
98.8654411444
 21
130.1233058157
  0
LINE
  5
6A0
100
AcDbEntity
  8
KONSTRUKTIONSELEMENTE
100
AcDbLine
 62
7
  6
CONTINUOUS
 10
98.8654411444
 20
130.1233058157
 11
98.7692710794
 21
130.3181426653
  0
LINE
  5
6A1
100
AcDbEntity
  8
KONSTRUKTIONSELEMENTE
100
AcDbLine
 62
7
  6
CONTINUOUS
 10
98.7692710794
 20
130.3181426653
 11
98.6472506177
 21
130.4284363657
  0
LINE
  5
6A2
100
AcDbEntity
  8
KONSTRUKTIONSELEMENTE
100
AcDbLine
 62
7
  6
CONTINUOUS
 10
98.6472506177
 20
130.4284363657
 11
98.4673230709
 21
130.5191627638
  0
LINE
  5
6A3
100
AcDbEntity
  8
KONSTRUKTIONSELEMENTE
100
AcDbLine
 62
7
  6
CONTINUOUS
 10
98.4673230709
 20
130.5191627638
 11
98.2508592384
 21
130.5471869644
  0
LINE
  5
6A4
100
AcDbEntity
  8
KONSTRUKTIONSELEMENTE
100
AcDbLine
 62
7
  6
CONTINUOUS
 10
98.2508592384
 20
130.5471869644
 11
98.0557670214
 21
130.5320284839
  0
SPLINE
  5
6A5
100
AcDbEntity
  8
0
100
AcDbSpline
 62
7
  6
CONTINUOUS
 70
0
 71
3
 72
24
 73
20
 74
0
 42
0.0000001
 43
0.0000001
 44
0.0000000001
 40
0.0
 40
0.0
 40
0.0
 40
0.0
 40
0.204090534
 40
0.39463896
 40
0.4831611707
 40
0.5663432087
 40
0.6435970496
 40
0.7143796374
 40
0.7781962113
 40
0.8345932766
 40
0.8831814341
 40
0.9236175972
 40
0.9556350813
 40
0.9684178289
 40
0.9790280186
 40
0.987457257
 40
0.9937077795
 40
0.9978209702
 40
1.0
 40
1.0
 40
1.0
 40
1.0
 10
93.3700108255
 20
99.0989421294
 30
0.0
 10
93.340126129
 20
98.6486789687
 30
0.0
 10
93.2837844571
 20
97.77793238
 30
0.0
 10
93.2191988378
 20
96.7115897617
 30
0.0
 10
93.1740968125
 20
95.9119017263
 30
0.0
 10
93.1448553628
 20
95.3622197648
 30
0.0
 10
93.1196220734
 20
94.8516064104
 30
0.0
 10
93.0986342157
 20
94.3836580487
 30
0.0
 10
93.0820756623
 20
93.9616778093
 30
0.0
 10
93.0701031806
 20
93.5886388025
 30
0.0
 10
93.0627796443
 20
93.2671775035
 30
0.0
 10
93.0601737842
 20
92.9995643858
 30
0.0
 10
93.0618638673
 20
92.8110623238
 30
0.0
 10
93.0661590011
 20
92.6886501241
 30
0.0
 10
93.0703190203
 20
92.6183271923
 30
0.0
 10
93.0754505937
 20
92.5628363453
 30
0.0
 10
93.0818150392
 20
92.521232956
 30
0.0
 10
93.0884093079
 20
92.4952729673
 30
0.0
 10
93.0956280833
 20
92.4814211855
 30
0.0
 10
93.1000878986
 20
92.4795983928
 30
0.0
  0
LINE
  5
6A6
100
AcDbEntity
  8
KONSTRUKTIONSELEMENTE
100
AcDbLine
 62
7
  6
CONTINUOUS
 10
98.0557670214
 20
130.5320284839
 11
97.9631079873
 21
130.5135732661
  0
LINE
  5
6A7
100
AcDbEntity
  8
KONSTRUKTIONSELEMENTE
100
AcDbLine
 62
7
  6
CONTINUOUS
 10
97.9631079873
 20
130.5135732661
 11
97.9414103395
 21
130.5092514171
  0
LINE
  5
6A8
100
AcDbEntity
  8
KONSTRUKTIONSELEMENTE
100
AcDbLine
 62
7
  6
CONTINUOUS
 10
98.1846952379
 20
129.3131079772
 11
98.2515615177
 21
129.5887911877
  0
LINE
  5
6A9
100
AcDbEntity
  8
KONSTRUKTIONSELEMENTE
100
AcDbLine
 62
7
  6
CONTINUOUS
 10
98.0750873592
 20
129.1241675673
 11
98.1846952379
 21
129.3131079772
  0
LINE
  5
6AA
100
AcDbEntity
  8
KONSTRUKTIONSELEMENTE
100
AcDbLine
 62
7
  6
CONTINUOUS
 10
94.8492268649
 20
132.7469618292
 11
94.636565982
 21
132.629381129
  0
LINE
  5
6AB
100
AcDbEntity
  8
KONSTRUKTIONSELEMENTE
100
AcDbLine
 62
7
  6
CONTINUOUS
 10
94.636565982
 20
132.629381129
 11
94.3133964789
 21
132.6112972353
  0
LINE
  5
6AC
100
AcDbEntity
  8
KONSTRUKTIONSELEMENTE
100
AcDbLine
 62
7
  6
CONTINUOUS
 10
94.3133964789
 20
132.6112972353
 11
94.0781378946
 21
132.6683389568
  0
LINE
  5
6AD
100
AcDbEntity
  8
KONSTRUKTIONSELEMENTE
100
AcDbLine
 62
7
  6
CONTINUOUS
 10
94.0781378946
 20
132.6683389568
 11
93.850001655
 21
132.7957694783
  0
LINE
  5
6AE
100
AcDbEntity
  8
KONSTRUKTIONSELEMENTE
100
AcDbLine
 62
7
  6
CONTINUOUS
 10
93.5184757483
 20
133.0918107603
 11
93.3782504313
 21
133.2933125042
  0
LINE
  5
6AF
100
AcDbEntity
  8
KONSTRUKTIONSELEMENTE
100
AcDbLine
 62
7
  6
CONTINUOUS
 10
93.3782504313
 20
133.2933125042
 11
93.3188187587
 21
133.4994129188
  0
LINE
  5
6B0
100
AcDbEntity
  8
KONSTRUKTIONSELEMENTE
100
AcDbLine
 62
7
  6
CONTINUOUS
 10
96.0871241169
 20
133.8733363097
 11
96.1156050339
 21
134.1566141887
  0
LINE
  5
6B1
100
AcDbEntity
  8
KONSTRUKTIONSELEMENTE
100
AcDbLine
 62
7
  6
CONTINUOUS
 10
95.9041781406
 20
133.6516914169
 11
96.0871241169
 21
133.8733363097
  0
LINE
  5
6B2
100
AcDbEntity
  8
KONSTRUKTIONSELEMENTE
100
AcDbLine
 62
7
  6
CONTINUOUS
 10
95.9041781406
 20
133.6516914169
 11
95.6831608694
 21
133.8505053352
  0
LINE
  5
6B3
100
AcDbEntity
  8
KONSTRUKTIONSELEMENTE
100
AcDbLine
 62
7
  6
CONTINUOUS
 10
95.7297470637
 20
134.2136026433
 11
95.6780530765
 21
134.2984262521
  0
LINE
  5
6B4
100
AcDbEntity
  8
KONSTRUKTIONSELEMENTE
100
AcDbLine
 62
7
  6
CONTINUOUS
 10
95.6780530765
 20
134.2984262521
 11
95.6522102254
 21
134.3408077649
  0
LINE
  5
6B5
100
AcDbEntity
  8
KONSTRUKTIONSELEMENTE
100
AcDbLine
 62
7
  6
CONTINUOUS
 10
95.3206843186
 20
134.6368202068
 11
95.1293820464
 21
134.7302965652
  0
LINE
  5
6B6
100
AcDbEntity
  8
KONSTRUKTIONSELEMENTE
100
AcDbLine
 62
7
  6
CONTINUOUS
 10
74.147407936
 20
130.8013562927
 11
74.3242361051
 21
131.0364466379
  0
LINE
  5
6B7
100
AcDbEntity
  8
KONSTRUKTIONSELEMENTE
100
AcDbLine
 62
7
  6
CONTINUOUS
 10
71.7038215606
 20
132.1643997054
 11
74.147407936
 21
130.8013562927
  0
SPLINE
  5
6B8
100
AcDbEntity
  8
KONSTRUKTIONSELEMENTE
100
AcDbSpline
 62
7
  6
CONTINUOUS
 70
0
 71
3
 72
11
 73
7
 74
0
 42
0.0000001
 43
0.0000001
 44
0.0000000001
 40
0.0
 40
0.0
 40
0.0
 40
0.0
 40
0.2515815265
 40
0.5020353676
 40
0.7513782938
 40
1.0
 40
1.0
 40
1.0
 40
1.0
 10
75.6190378183
 20
101.5370175773
 30
0.0
 10
75.7091933465
 20
101.6984790278
 30
0.0
 10
75.8768945131
 20
102.0278022584
 30
0.0
 10
76.076658226
 20
102.5440281818
 30
0.0
 10
76.2073057489
 20
103.0802793114
 30
0.0
 10
76.2378612918
 20
103.4469621537
 30
0.0
 10
76.2378612918
 20
103.6297130438
 30
0.0
  0
LINE
  5
6B9
100
AcDbEntity
  8
KONSTRUKTIONSELEMENTE
100
AcDbLine
 62
7
  6
CONTINUOUS
 10
73.8062798569
 20
132.5982267273
 11
73.8201828882
 21
132.8109516708
  0
LINE
  5
6BA
100
AcDbEntity
  8
KONSTRUKTIONSELEMENTE
100
AcDbLine
 62
7
  6
CONTINUOUS
 10
75.0610201147
 20
132.0087823075
 11
75.2673197015
 21
132.2789528874
  0
SPLINE
  5
6BB
100
AcDbEntity
  8
KONSTRUKTIONSELEMENTE
100
AcDbSpline
 62
7
  6
CONTINUOUS
 70
0
 71
3
 72
8
 73
4
 74
0
 42
0.0000001
 43
0.0000001
 44
0.0000000001
 40
0.0
 40
0.0
 40
0.0
 40
0.0
 40
1.0
 40
1.0
 40
1.0
 40
1.0
 10
73.7334340322
 20
132.3076472508
 30
0.0
 10
74.1760094274
 20
132.2082332808
 30
0.0
 10
74.6185431368
 20
132.1086334058
 30
0.0
 10
75.0610201147
 20
132.0087823075
 30
0.0
  0
LINE
  5
6BC
100
AcDbEntity
  8
KONSTRUKTIONSELEMENTE
100
AcDbLine
 62
7
  6
CONTINUOUS
 10
73.4718128373
 20
132.8398771162
 11
73.5168524727
 21
132.7044520455
  0
LINE
  5
6BD
100
AcDbEntity
  8
KONSTRUKTIONSELEMENTE
100
AcDbLine
 62
7
  6
CONTINUOUS
 10
73.3453105909
 20
132.9655520261
 11
73.4718128373
 21
132.8398771162
  0
LINE
  5
6BE
100
AcDbEntity
  8
KONSTRUKTIONSELEMENTE
100
AcDbLine
 62
7
  6
CONTINUOUS
 10
73.1893368654
 20
133.0525284775
 11
73.3453105909
 21
132.9655520261
  0
LINE
  5
6BF
100
AcDbEntity
  8
KONSTRUKTIONSELEMENTE
100
AcDbLine
 62
7
  6
CONTINUOUS
 10
73.0038919522
 20
133.100799255
 11
73.1893368654
 21
133.0525284775
  0
LINE
  5
6C0
100
AcDbEntity
  8
KONSTRUKTIONSELEMENTE
100
AcDbLine
 62
7
  6
CONTINUOUS
 10
72.8409668145
 20
133.0813217932
 11
73.0038919522
 21
133.100799255
  0
LINE
  5
6C1
100
AcDbEntity
  8
KONSTRUKTIONSELEMENTE
100
AcDbLine
 62
7
  6
CONTINUOUS
 10
72.7005615367
 20
132.9940049603
 11
72.8409668145
 21
133.0813217932
  0
LINE
  5
6C2
100
AcDbEntity
  8
KONSTRUKTIONSELEMENTE
100
AcDbLine
 62
7
  6
CONTINUOUS
 10
76.4054949993
 20
133.4404881569
 11
76.4623995113
 21
133.6472903628
  0
LINE
  5
6C3
100
AcDbEntity
  8
KONSTRUKTIONSELEMENTE
100
AcDbLine
 62
7
  6
CONTINUOUS
 10
76.2676802061
 20
133.2374300164
 11
76.3879821535
 21
133.4147099804
  0
LINE
  5
6C4
100
AcDbEntity
  8
KONSTRUKTIONSELEMENTE
100
AcDbLine
 62
7
  6
CONTINUOUS
 10
76.3879821535
 20
133.4147099804
 11
76.4054949993
 21
133.4404881569
  0
LINE
  5
6C5
100
AcDbEntity
  8
KONSTRUKTIONSELEMENTE
100
AcDbLine
 62
7
  6
CONTINUOUS
 10
76.1218632838
 20
133.1044351067
 11
76.2676802061
 21
133.2374300164
  0
LINE
  5
6C6
100
AcDbEntity
  8
KONSTRUKTIONSELEMENTE
100
AcDbLine
 62
7
  6
CONTINUOUS
 10
75.8951360841
 20
132.9750062584
 11
76.1218632838
 21
133.1044351067
  0
LINE
  5
6C7
100
AcDbEntity
  8
KONSTRUKTIONSELEMENTE
100
AcDbLine
 62
7
  6
CONTINUOUS
 10
75.6604067513
 20
132.915818645
 11
75.8951360841
 21
132.9750062584
  0
LINE
  5
6C8
100
AcDbEntity
  8
KONSTRUKTIONSELEMENTE
100
AcDbLine
 62
7
  6
CONTINUOUS
 10
75.3367652246
 20
132.9308374066
 11
75.6604067513
 21
132.915818645
  0
LINE
  5
6C9
100
AcDbEntity
  8
KONSTRUKTIONSELEMENTE
100
AcDbLine
 62
7
  6
CONTINUOUS
 10
75.0860319349
 20
133.0127414365
 11
75.3367652246
 21
132.9308374066
  0
LINE
  5
6CA
100
AcDbEntity
  8
KONSTRUKTIONSELEMENTE
100
AcDbLine
 62
7
  6
CONTINUOUS
 10
74.8272966554
 20
133.1654094407
 11
75.0860319349
 21
133.0127414365
  0
LINE
  5
6CB
100
AcDbEntity
  8
KONSTRUKTIONSELEMENTE
100
AcDbLine
 62
7
  6
CONTINUOUS
 10
73.4491542887
 20
134.319944262
 11
74.8272966554
 21
133.1654094407
  0
SPLINE
  5
6CC
100
AcDbEntity
  8
0
100
AcDbSpline
 62
7
  6
CONTINUOUS
 70
0
 71
3
 72
24
 73
20
 74
0
 42
0.0000001
 43
0.0000001
 44
0.0000000001
 40
0.0
 40
0.0
 40
0.0
 40
0.0
 40
0.0021790298
 40
0.0062922205
 40
0.012542743
 40
0.0209719814
 40
0.0315821711
 40
0.0443649187
 40
0.0763824028
 40
0.1168185659
 40
0.1654067234
 40
0.2218037887
 40
0.2856203626
 40
0.3564029504
 40
0.4336567913
 40
0.5168388293
 40
0.60536104
 40
0.795909466
 40
1.0
 40
1.0
 40
1.0
 40
1.0
 10
76.8407652921
 20
92.4795983928
 30
0.0
 10
76.8452251074
 20
92.4814211855
 30
0.0
 10
76.8524438829
 20
92.4952729673
 30
0.0
 10
76.8590381516
 20
92.521232956
 30
0.0
 10
76.865402597
 20
92.5628363453
 30
0.0
 10
76.8705341704
 20
92.6183271923
 30
0.0
 10
76.8746941897
 20
92.6886501241
 30
0.0
 10
76.8789893234
 20
92.8110623238
 30
0.0
 10
76.8806794065
 20
92.9995643858
 30
0.0
 10
76.8780735464
 20
93.2671775035
 30
0.0
 10
76.8707500101
 20
93.5886388025
 30
0.0
 10
76.8587775285
 20
93.9616778093
 30
0.0
 10
76.842218975
 20
94.3836580487
 30
0.0
 10
76.8212311174
 20
94.8516064104
 30
0.0
 10
76.795997828
 20
95.3622197648
 30
0.0
 10
76.7667563783
 20
95.9119017263
 30
0.0
 10
76.7216543529
 20
96.7115897617
 30
0.0
 10
76.6570687336
 20
97.77793238
 30
0.0
 10
76.6007270617
 20
98.6486789687
 30
0.0
 10
76.5708423652
 20
99.0989421294
 30
0.0
  0
LINE
  5
6CD
100
AcDbEntity
  8
KONSTRUKTIONSELEMENTE
100
AcDbLine
 62
7
  6
CONTINUOUS
 10
76.0622936704
 20
133.9824230052
 11
76.1227539116
 21
133.804571521
  0
LINE
  5
6CE
100
AcDbEntity
  8
KONSTRUKTIONSELEMENTE
100
AcDbLine
 62
7
  6
CONTINUOUS
 10
75.9209231557
 20
134.1644202057
 11
76.0622936704
 21
133.9824230052
  0
LINE
  5
6CF
100
AcDbEntity
  8
KONSTRUKTIONSELEMENTE
100
AcDbLine
 62
7
  6
CONTINUOUS
 10
74.542780789
 20
135.3187590304
 11
75.9209231557
 21
134.1644202057
  0
SPLINE
  5
6D0
100
AcDbEntity
  8
KONSTRUKTIONSELEMENTE
100
AcDbSpline
 62
7
  6
CONTINUOUS
 70
0
 71
3
 72
21
 73
17
 74
0
 42
0.0000001
 43
0.0000001
 44
0.0000000001
 40
0.0
 40
0.0
 40
0.0
 40
0.0
 40
0.0298905
 40
0.0599605139
 40
0.0902633198
 40
0.1207752254
 40
0.1822748523
 40
0.2442722625
 40
0.3065908873
 40
0.3691321699
 40
0.4318382547
 40
0.4946718441
 40
0.6206188671
 40
0.7468688635
 40
0.8733471931
 40
1.0
 40
1.0
 40
1.0
 40
1.0
 10
76.2378612918
 20
107.0792134825
 30
0.0
 10
76.2378612918
 20
107.14095154
 30
0.0
 10
76.2529727589
 20
107.2652086637
 30
0.0
 10
76.3153417643
 20
107.4421244643
 30
0.0
 10
76.4083641363
 20
107.6060532989
 30
0.0
 10
76.5615212705
 20
107.8076391255
 30
0.0
 10
76.7908930766
 20
108.0302763442
 30
0.0
 10
77.0969601809
 20
108.2626242307
 30
0.0
 10
77.4229830646
 20
108.4698369649
 30
0.0
 10
77.7623093844
 20
108.657147071
 30
0.0
 10
78.1113217495
 20
108.8280467283
 30
0.0
 10
78.586884299
 20
109.0372662034
 30
0.0
 10
79.1959797735
 20
109.2675641219
 30
0.0
 10
79.9425741251
 20
109.5018591107
 30
0.0
 10
80.7014253371
 20
109.6984371589
 30
0.0
 10
81.2132976696
 20
109.8059504329
 30
0.0
 10
81.4704265954
 20
109.8540990185
 30
0.0
  0
SPLINE
  5
6D1
100
AcDbEntity
  8
KONSTRUKTIONSELEMENTE
100
AcDbSpline
 62
7
  6
CONTINUOUS
 70
0
 71
3
 72
21
 73
17
 74
0
 42
0.0000001
 43
0.0000001
 44
0.0000000001
 40
0.0
 40
0.0
 40
0.0
 40
0.0
 40
0.1266527843
 40
0.2531310912
 40
0.3793810666
 40
0.5053280697
 40
0.5681616488
 40
0.6308677219
 40
0.6934089915
 40
0.7557275969
 40
0.8177249869
 40
0.8792245734
 40
0.9097364341
 40
0.9400393423
 40
0.9701094553
 40
1.0
 40
1.0
 40
1.0
 40
1.0
 10
88.4704265954
 20
109.8540990185
 30
0.0
 10
88.7275554746
 20
109.8059504416
 30
0.0
 10
89.2394277146
 20
109.698437189
 30
0.0
 10
89.9982787945
 20
109.5018591845
 30
0.0
 10
90.7448730241
 20
109.2675642536
 30
0.0
 10
91.3539684083
 20
109.0372664001
 30
0.0
 10
91.8295308863
 20
108.8280469825
 30
0.0
 10
92.1785432013
 20
108.6571473859
 30
0.0
 10
92.517869443
 20
108.4698373388
 30
0.0
 10
92.8438923069
 20
108.2626247531
 30
0.0
 10
93.1499592362
 20
108.0302769861
 30
0.0
 10
93.3793313622
 20
107.807640302
 30
0.0
 10
93.5324880568
 20
107.606054168
 30
0.0
 10
93.6255115048
 20
107.4421255227
 30
0.0
 10
93.6878798518
 20
107.265208945
 30
0.0
 10
93.7029918989
 20
107.1409516323
 30
0.0
 10
93.7029918989
 20
107.0792134825
 30
0.0
  0
LINE
  5
6D2
100
AcDbEntity
  8
KONSTRUKTIONSELEMENTE
100
AcDbLine
 62
7
  6
CONTINUOUS
 10
78.4574258442
 20
135.0196902429
 11
78.4704266284
 21
135.1483280877
  0
LINE
  5
6D3
100
AcDbEntity
  8
KONSTRUKTIONSELEMENTE
100
AcDbLine
 62
7
  6
CONTINUOUS
 10
78.3585059105
 20
134.8266495622
 11
78.4574258442
 21
135.0196902429
  0
LINE
  5
6D4
100
AcDbEntity
  8
KONSTRUKTIONSELEMENTE
100
AcDbLine
 62
7
  6
CONTINUOUS
 10
78.1819843708
 20
134.6512464116
 11
78.3585059105
 21
134.8266495622
  0
LINE
  5
6D5
100
AcDbEntity
  8
KONSTRUKTIONSELEMENTE
100
AcDbLine
 62
7
  6
CONTINUOUS
 10
75.5088610221
 20
136.0929747748
 11
77.165493739
 21
134.0149964977
  0
LINE
  5
6D6
100
AcDbEntity
  8
KONSTRUKTIONSELEMENTE
100
AcDbLine
 62
7
  6
CONTINUOUS
 10
78.1401983034
 20
135.4175307943
 11
78.1612330905
 21
135.2326221513
  0
LINE
  5
6D7
100
AcDbEntity
  8
KONSTRUKTIONSELEMENTE
100
AcDbLine
 62
7
  6
CONTINUOUS
 10
78.0415619166
 20
135.6204759587
 11
78.1401983034
 21
135.4175307943
  0
LINE
  5
6D8
100
AcDbEntity
  8
KONSTRUKTIONSELEMENTE
100
AcDbLine
 62
7
  6
CONTINUOUS
 10
77.512849361
 20
136.2835433637
 11
78.0415619166
 21
135.6204759587
  0
LINE
  5
6D9
100
AcDbEntity
  8
KONSTRUKTIONSELEMENTE
100
AcDbLine
 62
7
  6
CONTINUOUS
 10
77.3295057446
 20
136.4342109862
 11
77.512849361
 21
136.2835433637
  0
LINE
  5
6DA
100
AcDbEntity
  8
KONSTRUKTIONSELEMENTE
100
AcDbLine
 62
7
  6
CONTINUOUS
 10
77.1390554304
 20
136.5144711063
 11
77.3295057446
 21
136.4342109862
  0
LINE
  5
6DB
100
AcDbEntity
  8
KONSTRUKTIONSELEMENTE
100
AcDbLine
 62
7
  6
CONTINUOUS
 10
76.9414991006
 20
136.5242301568
 11
77.1390554304
 21
136.5144711063
  0
LINE
  5
6DC
100
AcDbEntity
  8
KONSTRUKTIONSELEMENTE
100
AcDbLine
 62
7
  6
CONTINUOUS
 10
76.7368366565
 20
136.4633536192
 11
76.9414991006
 21
136.5242301568
  0
LINE
  5
6DD
100
AcDbEntity
  8
KONSTRUKTIONSELEMENTE
100
AcDbLine
 62
7
  6
CONTINUOUS
 10
91.4704266048
 20
135.264855211
 11
91.962986418
 21
135.9008910543
  0
LINE
  5
6DE
100
AcDbEntity
  8
KONSTRUKTIONSELEMENTE
100
AcDbLine
 62
7
  6
CONTINUOUS
 10
93.8664002297
 20
135.9278037191
 11
93.8765042903
 21
136.184570251
  0
LINE
  5
6DF
100
AcDbEntity
  8
KONSTRUKTIONSELEMENTE
100
AcDbLine
 62
7
  6
CONTINUOUS
 10
93.8054322958
 20
135.7677948622
 11
93.8664002297
 21
135.9278037191
  0
LINE
  5
6E0
100
AcDbEntity
  8
KONSTRUKTIONSELEMENTE
100
AcDbLine
 62
7
  6
CONTINUOUS
 10
93.66719397
 20
135.5892730159
 11
93.8054322958
 21
135.7677948622
  0
LINE
  5
6E1
100
AcDbEntity
  8
KONSTRUKTIONSELEMENTE
100
AcDbLine
 62
7
  6
CONTINUOUS
 10
93.5208045605
 20
135.4815112136
 11
93.66719397
 21
135.5892730159
  0
LINE
  5
6E2
100
AcDbEntity
  8
KONSTRUKTIONSELEMENTE
100
AcDbLine
 62
7
  6
CONTINUOUS
 10
93.2544321631
 20
135.381301012
 11
93.5208045605
 21
135.4815112136
  0
LINE
  5
6E3
100
AcDbEntity
  8
KONSTRUKTIONSELEMENTE
100
AcDbLine
 62
7
  6
CONTINUOUS
 10
93.0144681424
 20
135.3962359847
 11
93.2544321631
 21
135.381301012
  0
LINE
  5
6E4
100
AcDbEntity
  8
KONSTRUKTIONSELEMENTE
100
AcDbLine
 62
7
  6
CONTINUOUS
 10
92.6040007343
 20
134.1348428462
 11
93.0144681424
 21
135.3962359847
  0
SPLINE
  5
6E5
100
AcDbEntity
  8
0
100
AcDbSpline
 62
7
  6
CONTINUOUS
 70
0
 71
3
 72
14
 73
10
 74
0
 42
0.0000001
 43
0.0000001
 44
0.0000000001
 40
0.0
 40
0.0
 40
0.0
 40
0.0
 40
0.0236590926
 40
0.0755943662
 40
0.1568151826
 40
0.2673943635
 40
0.4072308855
 40
0.5761352925
 40
1.0
 40
1.0
 40
1.0
 40
1.0
 10
99.9493611958
 20
104.5789836106
 30
0.0
 10
99.9509434755
 20
104.5782872046
 30
0.0
 10
99.9528800896
 20
104.5722004708
 30
0.0
 10
99.9558793419
 20
104.5618403847
 30
0.0
 10
99.9588699136
 20
104.5438965224
 30
0.0
 10
99.962109722
 20
104.5200394569
 30
0.0
 10
99.9652485239
 20
104.4894960899
 30
0.0
 10
99.9696394685
 20
104.4361723737
 30
0.0
 10
99.9720693792
 20
104.3929067064
 30
0.0
 10
99.9735651472
 20
104.3619713385
 30
0.0
  0
LINE
  5
6E6
100
AcDbEntity
  8
KONSTRUKTIONSELEMENTE
100
AcDbLine
 62
7
  6
CONTINUOUS
 10
93.5938275766
 20
136.2254413802
 11
93.6101318928
 21
136.0841918554
  0
LINE
  5
6E7
100
AcDbEntity
  8
KONSTRUKTIONSELEMENTE
100
AcDbLine
 62
7
  6
CONTINUOUS
 10
93.5002529654
 20
136.3479501241
 11
93.5938275766
 21
136.2254413802
  0
LINE
  5
6E8
100
AcDbEntity
  8
KONSTRUKTIONSELEMENTE
100
AcDbLine
 62
7
  6
CONTINUOUS
 10
92.1703437615
 20
136.1686450319
 11
92.688737217
 21
136.838021779
  0
LINE
  5
6E9
100
AcDbEntity
  8
KONSTRUKTIONSELEMENTE
100
AcDbLine
 62
7
  6
CONTINUOUS
 10
94.8492268649
 20
133.0300980952
 11
95.5085714353
 21
133.5955627719
  0
LINE
  5
6EA
100
AcDbEntity
  8
KONSTRUKTIONSELEMENTE
100
AcDbLine
 62
7
  6
CONTINUOUS
 10
94.636565982
 20
132.912517395
 11
94.8492268649
 21
133.0300980952
  0
LINE
  5
6EB
100
AcDbEntity
  8
KONSTRUKTIONSELEMENTE
100
AcDbLine
 62
7
  6
CONTINUOUS
 10
94.3133964789
 20
132.8944335013
 11
94.636565982
 21
132.912517395
  0
LINE
  5
6EC
100
AcDbEntity
  8
KONSTRUKTIONSELEMENTE
100
AcDbLine
 62
7
  6
CONTINUOUS
 10
94.0781378946
 20
132.9514752228
 11
94.3133964789
 21
132.8944335013
  0
LINE
  5
6ED
100
AcDbEntity
  8
KONSTRUKTIONSELEMENTE
100
AcDbLine
 62
7
  6
CONTINUOUS
 10
93.850001655
 20
133.0789057443
 11
94.0781378946
 21
132.9514752228
  0
LINE
  5
6EE
100
AcDbEntity
  8
KONSTRUKTIONSELEMENTE
100
AcDbLine
 62
7
  6
CONTINUOUS
 10
93.3782504313
 20
133.5764487702
 11
93.5184757483
 21
133.3749470263
  0
LINE
  5
6EF
100
AcDbEntity
  8
KONSTRUKTIONSELEMENTE
100
AcDbLine
 62
7
  6
CONTINUOUS
 10
93.3188187587
 20
133.7825491848
 11
93.3782504313
 21
133.5764487702
  0
SPLINE
  5
6F0
100
AcDbEntity
  8
RUNDUNGEN
100
AcDbSpline
 62
7
  6
CONTINUOUS
 70
0
 71
3
 72
11
 73
7
 74
0
 42
0.0000001
 43
0.0000001
 44
0.0000000001
 40
0.0
 40
0.0
 40
0.0
 40
0.0
 40
0.2778419793
 40
0.532244655
 40
0.7704273441
 40
1.0
 40
1.0
 40
1.0
 40
1.0
 10
100.8211960905
 20
107.3801235796
 30
0.0
 10
100.675934961
 20
107.2095335029
 30
0.0
 10
100.419335607
 20
106.8630709749
 30
0.0
 10
100.133195336
 20
106.3083307332
 30
0.0
 10
99.9604021949
 20
105.7489287596
 30
0.0
 10
99.9185105152
 20
105.3713146796
 30
0.0
 10
99.916068579
 20
105.1861986503
 30
0.0
  0
SPLINE
  5
6F1
100
AcDbEntity
  8
KONSTRUKTIONSELEMENTE
100
AcDbSpline
 62
7
  6
CONTINUOUS
 70
0
 71
3
 72
11
 73
7
 74
0
 42
0.0000001
 43
0.0000001
 44
0.0000000001
 40
0.0
 40
0.0
 40
0.0
 40
0.0
 40
0.2508043742
 40
0.5011112735
 40
0.7508186596
 40
1.0
 40
1.0
 40
1.0
 40
1.0
 10
94.3218153725
 20
101.5370175773
 30
0.0
 10
94.2000795991
 20
101.3524104006
 30
0.0
 10
93.9684330281
 20
100.9756316272
 30
0.0
 10
93.6738330045
 20
100.3813843854
 30
0.0
 10
93.4570694101
 20
99.7550454045
 30
0.0
 10
93.384560731
 20
99.3181609002
 30
0.0
 10
93.3700108255
 20
99.0989421294
 30
0.0
  0
SPLINE
  5
6F2
100
AcDbEntity
  8
0
100
AcDbSpline
 62
7
  6
CONTINUOUS
 70
0
 71
3
 72
9
 73
5
 74
0
 42
0.0000001
 43
0.0000001
 44
0.0000000001
 40
0.0
 40
0.0
 40
0.0
 40
0.0
 40
0.4967682505
 40
1.0
 40
1.0
 40
1.0
 40
1.0
 10
99.9433058927
 20
97.5961832374
 30
0.0
 10
99.914085958
 20
97.431142299
 30
0.0
 10
99.8073822363
 20
97.1057371884
 30
0.0
 10
99.615311802
 20
96.8225953611
 30
0.0
 10
99.5022108255
 20
96.6959609885
 30
0.0
  0
SPLINE
  5
6F3
100
AcDbEntity
  8
RUNDUNGEN
100
AcDbSpline
 62
7
  6
CONTINUOUS
 70
0
 71
3
 72
18
 73
14
 74
0
 42
0.0000001
 43
0.0000001
 44
0.0000000001
 40
0.0
 40
0.0
 40
0.0
 40
0.0
 40
0.0086952591
 40
0.0249567785
 40
0.0496243297
 40
0.0827617074
 40
0.1242455153
 40
0.1738356473
 40
0.2959081081
 40
0.44530994
 40
0.6169267732
 40
0.8043844927
 40
1.0
 40
1.0
 40
1.0
 40
1.0
 10
99.8563594076
 20
101.4176758049
 30
0.0
 10
99.8548548321
 20
101.423327097
 30
0.0
 10
99.8391579169
 20
101.433966539
 30
0.0
 10
99.8086519066
 20
101.4444254987
 30
0.0
 10
99.7595450722
 20
101.4560144527
 30
0.0
 10
99.6938855705
 20
101.466940709
 30
0.0
 10
99.6109353006
 20
101.4776735771
 30
0.0
 10
99.4683439478
 20
101.4921809713
 30
0.0
 10
99.2528902708
 20
101.5075855873
 30
0.0
 10
98.9552097541
 20
101.5216710551
 30
0.0
 10
98.6133596127
 20
101.5318933047
 30
0.0
 10
98.2403172322
 20
101.5373787925
 30
0.0
 10
97.9826697264
 20
101.5370175773
 30
0.0
 10
97.8511050794
 20
101.5370175773
 30
0.0
  0
LINE
  5
6F4
100
AcDbEntity
  8
KONSTRUKTIONSELEMENTE
100
AcDbLine
 62
7
  6
CONTINUOUS
 10
96.0871241169
 20
134.1564725757
 11
96.1156050339
 21
134.4397504547
  0
LINE
  5
6F5
100
AcDbEntity
  8
KONSTRUKTIONSELEMENTE
100
AcDbLine
 62
7
  6
CONTINUOUS
 10
95.9041781406
 20
133.9348276829
 11
96.0871241169
 21
134.1564725757
  0
LINE
  5
6F6
100
AcDbEntity
  8
KONSTRUKTIONSELEMENTE
100
AcDbLine
 62
7
  6
CONTINUOUS
 10
95.6831608694
 20
134.1336416012
 11
95.9041781406
 21
133.9348276829
  0
SPLINE
  5
6F7
100
AcDbEntity
  8
RUNDUNGEN
100
AcDbSpline
 62
7
  6
CONTINUOUS
 70
0
 71
3
 72
11
 73
7
 74
0
 42
0.0000001
 43
0.0000001
 44
0.0000000001
 40
0.0
 40
0.0
 40
0.0
 40
0.0
 40
0.2295841255
 40
0.4677725296
 40
0.7221839853
 40
1.0
 40
1.0
 40
1.0
 40
1.0
 10
70.0247846117
 20
105.1861986503
 30
0.0
 10
70.0223425541
 20
105.3713238819
 30
0.0
 10
69.9804434761
 20
105.748951016
 30
0.0
 10
69.8076456181
 20
106.3083736677
 30
0.0
 10
69.5214924464
 20
106.8630970587
 30
0.0
 10
69.2649046187
 20
107.2095494873
 30
0.0
 10
69.1196571003
 20
107.3801235796
 30
0.0
  0
LINE
  5
6F8
100
AcDbEntity
  8
KONSTRUKTIONSELEMENTE
100
AcDbLine
 62
7
  6
CONTINUOUS
 10
95.7555982101
 20
134.454296695
 11
95.7781942445
 21
134.2797854279
  0
LINE
  5
6F9
100
AcDbEntity
  8
KONSTRUKTIONSELEMENTE
100
AcDbLine
 62
7
  6
CONTINUOUS
 10
95.6522102254
 20
134.6239440309
 11
95.7555982101
 21
134.454296695
  0
LINE
  5
6FA
100
AcDbEntity
  8
KONSTRUKTIONSELEMENTE
100
AcDbLine
 62
7
  6
CONTINUOUS
 10
95.1293820464
 20
135.0134328312
 11
95.3206843186
 21
134.9199564728
  0
LINE
  5
6FB
100
AcDbEntity
  8
KONSTRUKTIONSELEMENTE
100
AcDbLine
 62
7
  6
CONTINUOUS
 10
94.9309608097
 20
135.0362664547
 11
95.1293820464
 21
135.0134328312
  0
LINE
  5
6FC
100
AcDbEntity
  8
KONSTRUKTIONSELEMENTE
100
AcDbLine
 62
7
  6
CONTINUOUS
 10
94.7254204852
 20
134.988592021
 11
94.9309608097
 21
135.0362664547
  0
LINE
  5
6FD
100
AcDbEntity
  8
KONSTRUKTIONSELEMENTE
100
AcDbLine
 62
7
  6
CONTINUOUS
 10
94.5127579469
 20
134.8705063117
 11
94.7254204852
 21
134.988592021
  0
LINE
  5
6FE
100
AcDbEntity
  8
KONSTRUKTIONSELEMENTE
100
AcDbLine
 62
7
  6
CONTINUOUS
 10
93.8534133765
 20
134.3051631535
 11
94.5127579469
 21
134.8705063117
  0
LINE
  5
6FF
100
AcDbEntity
  8
KONSTRUKTIONSELEMENTE
100
AcDbLine
 62
7
  6
CONTINUOUS
 10
93.7144255101
 20
134.1217548279
 11
93.8534133765
 21
134.3051631535
  0
LINE
  5
700
100
AcDbEntity
  8
KONSTRUKTIONSELEMENTE
100
AcDbLine
 62
7
  6
CONTINUOUS
 10
93.6562279079
 20
133.9433478353
 11
93.7144255101
 21
134.1217548279
  0
SPLINE
  5
701
100
AcDbEntity
  8
RUNDUNGEN
100
AcDbSpline
 62
7
  6
CONTINUOUS
 70
0
 71
3
 72
18
 73
14
 74
0
 42
0.0000001
 43
0.0000001
 44
0.0000000001
 40
0.0
 40
0.0
 40
0.0
 40
0.0
 40
0.0086987505
 40
0.0249555917
 40
0.0496114767
 40
0.0827314924
 40
0.1241927686
 40
0.1737572054
 40
0.2957743857
 40
0.4451309314
 40
0.6167392071
 40
0.8042469519
 40
1.0
 40
1.0
 40
1.0
 40
1.0
 10
70.0844937832
 20
101.4176758049
 30
0.0
 10
70.0859948171
 20
101.4233137945
 30
0.0
 10
70.1016342687
 20
101.4339357733
 30
0.0
 10
70.1320477619
 20
101.4443794601
 30
0.0
 10
70.1809903308
 20
101.455950308
 30
0.0
 10
70.2464327342
 20
101.4668606686
 30
0.0
 10
70.3291077656
 20
101.4775795209
 30
0.0
 10
70.4712343509
 20
101.4920711291
 30
0.0
 10
70.6860072306
 20
101.5074668291
 30
0.0
 10
70.9827924192
 20
101.52156089
 30
0.0
 10
71.3236969647
 20
101.5318015819
 30
0.0
 10
71.6958307916
 20
101.5373512204
 30
0.0
 10
71.9528946464
 20
101.5370175773
 30
0.0
 10
72.0841891735
 20
101.5370175773
 30
0.0
  0
LINE
  5
702
100
AcDbEntity
  8
KONSTRUKTIONSELEMENTE
100
AcDbLine
 62
7
  6
CONTINUOUS
 10
98.0750873592
 20
129.4073038333
 11
98.1846952379
 21
129.5962442432
  0
LINE
  5
703
100
AcDbEntity
  8
KONSTRUKTIONSELEMENTE
100
AcDbLine
 62
7
  6
CONTINUOUS
 10
97.8282945108
 20
129.2229393996
 11
98.0750873592
 21
129.4073038333
  0
LINE
  5
704
100
AcDbEntity
  8
KONSTRUKTIONSELEMENTE
100
AcDbLine
 62
7
  6
CONTINUOUS
 10
97.5387590042
 20
129.1257564109
 11
97.8282945108
 21
129.2229393996
  0
LINE
  5
705
100
AcDbEntity
  8
KONSTRUKTIONSELEMENTE
100
AcDbLine
 62
7
  6
CONTINUOUS
 10
97.206480961
 20
129.1157958945
 11
97.5387590042
 21
129.1257564109
  0
LINE
  5
706
100
AcDbEntity
  8
KONSTRUKTIONSELEMENTE
100
AcDbLine
 62
7
  6
CONTINUOUS
 10
96.9107392237
 20
129.1687757901
 11
97.206480961
 21
129.1157958945
  0
LINE
  5
707
100
AcDbEntity
  8
KONSTRUKTIONSELEMENTE
100
AcDbLine
 62
7
  6
CONTINUOUS
 10
96.6301629777
 20
129.3279965034
 11
96.9107392237
 21
129.1687757901
  0
LINE
  5
708
100
AcDbEntity
  8
KONSTRUKTIONSELEMENTE
100
AcDbLine
 62
7
  6
CONTINUOUS
 10
96.4653999338
 20
129.5256261565
 11
96.6301629777
 21
129.3279965034
  0
LINE
  5
709
100
AcDbEntity
  8
KONSTRUKTIONSELEMENTE
100
AcDbLine
 62
7
  6
CONTINUOUS
 10
96.35854398
 20
129.742216439
 11
96.3678407179
 21
129.7233910451
  0
LINE
  5
70A
100
AcDbEntity
  8
KONSTRUKTIONSELEMENTE
100
AcDbLine
 62
7
  6
CONTINUOUS
 10
96.3678407179
 20
129.7233910451
 11
96.4653999338
 21
129.5256261565
  0
LINE
  5
70B
100
AcDbEntity
  8
KONSTRUKTIONSELEMENTE
100
AcDbLine
 62
7
  6
CONTINUOUS
 10
96.3095960948
 20
129.9777646138
 11
96.35854398
 21
129.742216439
  0
LINE
  5
70C
100
AcDbEntity
  8
KONSTRUKTIONSELEMENTE
100
AcDbLine
 62
7
  6
CONTINUOUS
 10
99.1477450474
 20
129.9700409006
 11
99.214610349
 21
130.2455863154
  0
LINE
  5
70D
100
AcDbEntity
  8
KONSTRUKTIONSELEMENTE
100
AcDbLine
 62
7
  6
CONTINUOUS
 10
98.9802300836
 20
129.7617727973
 11
99.1477450474
 21
129.9700409006
  0
LINE
  5
70E
100
AcDbEntity
  8
KONSTRUKTIONSELEMENTE
100
AcDbLine
 62
7
  6
CONTINUOUS
 10
98.8278796277
 20
129.6599279225
 11
98.9802300836
 21
129.7617727973
  0
LINE
  5
70F
100
AcDbEntity
  8
KONSTRUKTIONSELEMENTE
100
AcDbLine
 62
7
  6
CONTINUOUS
 10
98.7210246523
 20
129.8775326033
 11
98.8278796277
 21
129.6599279225
  0
LINE
  5
710
100
AcDbEntity
  8
KONSTRUKTIONSELEMENTE
100
AcDbLine
 62
7
  6
CONTINUOUS
 10
98.8974978325
 20
130.3414273026
 11
98.903704124
 21
130.1918693742
  0
LINE
  5
711
100
AcDbEntity
  8
KONSTRUKTIONSELEMENTE
100
AcDbLine
 62
7
  6
CONTINUOUS
 10
98.7692710794
 20
130.6012789313
 11
98.8974978325
 21
130.3414273026
  0
LINE
  5
712
100
AcDbEntity
  8
KONSTRUKTIONSELEMENTE
100
AcDbLine
 62
7
  6
CONTINUOUS
 10
98.6472506177
 20
130.7115726317
 11
98.7692710794
 21
130.6012789313
  0
LINE
  5
713
100
AcDbEntity
  8
KONSTRUKTIONSELEMENTE
100
AcDbLine
 62
7
  6
CONTINUOUS
 10
98.4673230709
 20
130.8022990298
 11
98.6472506177
 21
130.7115726317
  0
LINE
  5
714
100
AcDbEntity
  8
KONSTRUKTIONSELEMENTE
100
AcDbLine
 62
7
  6
CONTINUOUS
 10
98.2508592384
 20
130.8303232304
 11
98.4673230709
 21
130.8022990298
  0
LINE
  5
715
100
AcDbEntity
  8
KONSTRUKTIONSELEMENTE
100
AcDbLine
 62
7
  6
CONTINUOUS
 10
98.0557670214
 20
130.8151647499
 11
98.2508592384
 21
130.8303232304
  0
LINE
  5
716
100
AcDbEntity
  8
KONSTRUKTIONSELEMENTE
100
AcDbLine
 62
7
  6
CONTINUOUS
 10
97.6869537114
 20
130.7416963224
 11
98.0557670214
 21
130.8151647499
  0
LINE
  5
717
100
AcDbEntity
  8
KONSTRUKTIONSELEMENTE
100
AcDbLine
 62
7
  6
CONTINUOUS
 10
97.5711395412
 20
130.7028369144
 11
97.6869537114
 21
130.7416963224
  0
LINE
  5
718
100
AcDbEntity
  8
KONSTRUKTIONSELEMENTE
100
AcDbLine
 62
7
  6
CONTINUOUS
 10
98.1846952379
 20
129.5962442432
 11
98.2515615177
 21
129.8719274538
  0
LINE
  5
719
100
AcDbEntity
  8
KONSTRUKTIONSELEMENTE
100
AcDbLine
 62
7
  6
CONTINUOUS
 10
97.934448023
 20
129.9678568903
 11
97.9406543145
 21
129.8182328283
  0
LINE
  5
71A
100
AcDbEntity
  8
KONSTRUKTIONSELEMENTE
100
AcDbLine
 62
7
  6
CONTINUOUS
 10
97.7848504704
 20
130.2710743646
 11
97.934448023
 21
129.9678568903
  0
LINE
  5
71B
100
AcDbEntity
  8
KONSTRUKTIONSELEMENTE
100
AcDbLine
 62
7
  6
CONTINUOUS
 10
97.6628300087
 20
130.3813520261
 11
97.7848504704
 21
130.2710743646
  0
LINE
  5
71C
100
AcDbEntity
  8
KONSTRUKTIONSELEMENTE
100
AcDbLine
 62
7
  6
CONTINUOUS
 10
97.4829024619
 20
130.4720509409
 11
97.6628300087
 21
130.3813520261
  0
LINE
  5
71D
100
AcDbEntity
  8
KONSTRUKTIONSELEMENTE
100
AcDbLine
 62
7
  6
CONTINUOUS
 10
97.3243457145
 20
130.5194773171
 11
97.4829024619
 21
130.4720509409
  0
LINE
  5
71E
100
AcDbEntity
  8
KONSTRUKTIONSELEMENTE
100
AcDbLine
 62
7
  6
CONTINUOUS
 10
97.1292535787
 20
130.5043032883
 11
97.3243457145
 21
130.5194773171
  0
LINE
  5
71F
100
AcDbEntity
  8
KONSTRUKTIONSELEMENTE
100
AcDbLine
 62
7
  6
CONTINUOUS
 10
96.9555323234
 20
130.4460153274
 11
97.1292535787
 21
130.5043032883
  0
LINE
  5
720
100
AcDbEntity
  8
KONSTRUKTIONSELEMENTE
100
AcDbLine
 62
7
  6
CONTINUOUS
 10
96.8031818675
 20
130.3446217688
 11
96.9555323234
 21
130.4460153274
  0
LINE
  5
721
100
AcDbEntity
  8
KONSTRUKTIONSELEMENTE
100
AcDbLine
 62
7
  6
CONTINUOUS
 10
96.6722031488
 20
130.2000758692
 11
96.8031818675
 21
130.3446217688
  0
LINE
  5
722
100
AcDbEntity
  8
KONSTRUKTIONSELEMENTE
100
AcDbLine
 62
7
  6
CONTINUOUS
 10
96.6205023552
 20
130.0317028119
 11
96.6722031488
 21
130.2000758692
  0
SPLINE
  5
723
100
AcDbEntity
  8
KONSTRUKTIONSELEMENTE
100
AcDbSpline
 62
7
  6
CONTINUOUS
 70
0
 71
3
 72
8
 73
4
 74
0
 42
0.0000001
 43
0.0000001
 44
0.0000000001
 40
0.0
 40
0.0
 40
0.0
 40
0.0
 40
1.0
 40
1.0
 40
1.0
 40
1.0
 10
75.0610201147
 20
131.7256460414
 30
0.0
 10
74.6185431368
 20
131.8254971398
 30
0.0
 10
74.1760094274
 20
131.9250970148
 30
0.0
 10
73.7334340322
 20
132.0245109848
 30
0.0
  0
LINE
  5
724
100
AcDbEntity
  8
KONSTRUKTIONSELEMENTE
100
AcDbLine
 62
7
  6
CONTINUOUS
 10
75.2673197015
 20
131.9958166214
 11
75.0610201147
 21
131.7256460414
  0
LINE
  5
725
100
AcDbEntity
  8
KONSTRUKTIONSELEMENTE
100
AcDbLine
 62
7
  6
CONTINUOUS
 10
95.1293820464
 20
134.7302965652
 11
94.9309608097
 21
134.7531301887
  0
LINE
  5
726
100
AcDbEntity
  8
KONSTRUKTIONSELEMENTE
100
AcDbLine
 62
7
  6
CONTINUOUS
 10
94.9309608097
 20
134.7531301887
 11
94.7254204852
 21
134.705455755
  0
LINE
  5
727
100
AcDbEntity
  8
KONSTRUKTIONSELEMENTE
100
AcDbLine
 62
7
  6
CONTINUOUS
 10
94.7254204852
 20
134.705455755
 11
94.5127579469
 21
134.5873700457
  0
LINE
  5
728
100
AcDbEntity
  8
KONSTRUKTIONSELEMENTE
100
AcDbLine
 62
7
  6
CONTINUOUS
 10
94.5127579469
 20
134.5873700457
 11
93.8534133765
 21
134.0220268875
  0
LINE
  5
729
100
AcDbEntity
  8
KONSTRUKTIONSELEMENTE
100
AcDbLine
 62
7
  6
CONTINUOUS
 10
93.7144255101
 20
133.8386185619
 11
93.8534133765
 21
134.0220268875
  0
LINE
  5
72A
100
AcDbEntity
  8
KONSTRUKTIONSELEMENTE
100
AcDbLine
 62
7
  6
CONTINUOUS
 10
93.6874139149
 20
133.7558208538
 11
93.6998012885
 21
133.7937930109
  0
LINE
  5
72B
100
AcDbEntity
  8
KONSTRUKTIONSELEMENTE
100
AcDbLine
 62
7
  6
CONTINUOUS
 10
93.6998012885
 20
133.7937930109
 11
93.7144255101
 21
133.8386185619
  0
LINE
  5
72C
100
AcDbEntity
  8
KONSTRUKTIONSELEMENTE
100
AcDbLine
 62
7
  6
CONTINUOUS
 10
94.8624924
 20
133.4299786347
 11
94.6922904539
 21
133.5824094343
  0
LINE
  5
72D
100
AcDbEntity
  8
KONSTRUKTIONSELEMENTE
100
AcDbLine
 62
7
  6
CONTINUOUS
 10
94.8492268649
 20
132.7469618292
 11
95.5085714353
 21
133.3124265059
  0
LINE
  5
72E
100
AcDbEntity
  8
KONSTRUKTIONSELEMENTE
100
AcDbLine
 62
7
  6
CONTINUOUS
 10
71.7038215606
 20
131.8812634393
 11
74.147407936
 21
130.5182200267
  0
LINE
  5
72F
100
AcDbEntity
  8
KONSTRUKTIONSELEMENTE
100
AcDbLine
 62
7
  6
CONTINUOUS
 10
74.3242361051
 20
130.7533103719
 11
74.147407936
 21
130.5182200267
  0
LINE
  5
730
100
AcDbEntity
  8
KONSTRUKTIONSELEMENTE
100
AcDbLine
 62
7
  6
CONTINUOUS
 10
93.5704370419
 20
135.9729414864
 11
93.5236497401
 21
136.0341958297
  0
LINE
  5
731
100
AcDbEntity
  8
KONSTRUKTIONSELEMENTE
100
AcDbLine
 62
7
  6
CONTINUOUS
 10
93.5236497401
 20
136.0341958297
 11
93.5002529654
 21
136.0648138581
  0
LINE
  5
732
100
AcDbEntity
  8
KONSTRUKTIONSELEMENTE
100
AcDbLine
 62
7
  6
CONTINUOUS
 10
92.688737217
 20
136.554885513
 11
92.3199809564
 21
136.0787293052
  0
LINE
  5
733
100
AcDbEntity
  8
KONSTRUKTIONSELEMENTE
100
AcDbLine
 62
7
  6
CONTINUOUS
 10
72.8409668145
 20
132.7981855272
 11
72.7005615367
 21
132.7108686943
  0
LINE
  5
734
100
AcDbEntity
  8
KONSTRUKTIONSELEMENTE
100
AcDbLine
 62
7
  6
CONTINUOUS
 10
73.0038919522
 20
132.817662989
 11
72.8409668145
 21
132.7981855272
  0
LINE
  5
735
100
AcDbEntity
  8
KONSTRUKTIONSELEMENTE
100
AcDbLine
 62
7
  6
CONTINUOUS
 10
73.1893368654
 20
132.7693922115
 11
73.0038919522
 21
132.817662989
  0
LINE
  5
736
100
AcDbEntity
  8
KONSTRUKTIONSELEMENTE
100
AcDbLine
 62
7
  6
CONTINUOUS
 10
73.3453105909
 20
132.6824157601
 11
73.1893368654
 21
132.7693922115
  0
LINE
  5
737
100
AcDbEntity
  8
KONSTRUKTIONSELEMENTE
100
AcDbLine
 62
7
  6
CONTINUOUS
 10
73.3453105909
 20
132.6824157601
 11
73.4206264685
 21
132.6075938504
  0
LINE
  5
738
100
AcDbEntity
  8
KONSTRUKTIONSELEMENTE
100
AcDbLine
 62
7
  6
CONTINUOUS
 10
73.4206264685
 20
132.6075938504
 11
73.4718128373
 21
132.5567408502
  0
LINE
  5
739
100
AcDbEntity
  8
KONSTRUKTIONSELEMENTE
100
AcDbLine
 62
7
  6
CONTINUOUS
 10
91.962986418
 20
135.6177547883
 11
91.4704266914
 21
134.9817190575
  0
LINE
  5
73A
100
AcDbEntity
  8
KONSTRUKTIONSELEMENTE
100
AcDbLine
 62
7
  6
CONTINUOUS
 10
93.8664002297
 20
135.6446674531
 11
93.8765042903
 21
135.901433985
  0
LINE
  5
73B
100
AcDbEntity
  8
KONSTRUKTIONSELEMENTE
100
AcDbLine
 62
7
  6
CONTINUOUS
 10
75.9209231557
 20
133.8812839397
 11
74.542780789
 21
135.0356227643
  0
SPLINE
  5
73C
100
AcDbEntity
  8
BEZUGSACHSEN
100
AcDbSpline
 62
7
  6
CONTINUOUS
 70
0
 71
3
 72
15
 73
11
 74
0
 42
0.0000001
 43
0.0000001
 44
0.0000000001
 40
0.0
 40
0.0
 40
0.0
 40
0.0
 40
0.1213984729
 40
0.2449249801
 40
0.3714323559
 40
0.5
 40
0.6285676441
 40
0.7550750199
 40
0.8786015271
 40
1.0
 40
1.0
 40
1.0
 40
1.0
 10
96.9704265954
 20
103.8862491293
 30
0.0
 10
96.9704265954
 20
104.0087824403
 30
0.0
 10
96.917153881
 20
104.2589161647
 30
0.0
 10
96.6924009171
 20
104.5711864159
 30
0.0
 10
96.3598840093
 20
104.7780120736
 30
0.0
 10
95.9704265954
 20
104.8501001548
 30
0.0
 10
95.5809691815
 20
104.7780120736
 30
0.0
 10
95.2484522736
 20
104.5711864159
 30
0.0
 10
95.0236993098
 20
104.2589161647
 30
0.0
 10
94.9704265954
 20
104.0087824403
 30
0.0
 10
94.9704265954
 20
103.8862491293
 30
0.0
  0
LINE
  5
73D
100
AcDbEntity
  8
KONSTRUKTIONSELEMENTE
100
AcDbLine
 62
7
  6
CONTINUOUS
 10
75.9209231557
 20
133.8812839397
 11
76.0622936704
 21
133.6992867392
  0
LINE
  5
73E
100
AcDbEntity
  8
KONSTRUKTIONSELEMENTE
100
AcDbLine
 62
7
  6
CONTINUOUS
 10
76.0622936704
 20
133.6992867392
 11
76.0916560898
 21
133.6129210448
  0
LINE
  5
73F
100
AcDbEntity
  8
KONSTRUKTIONSELEMENTE
100
AcDbLine
 62
7
  6
CONTINUOUS
 10
93.8054322958
 20
135.4846585962
 11
93.8664002297
 21
135.6446674531
  0
LINE
  5
740
100
AcDbEntity
  8
KONSTRUKTIONSELEMENTE
100
AcDbLine
 62
7
  6
CONTINUOUS
 10
93.66719397
 20
135.3061367499
 11
93.8054322958
 21
135.4846585962
  0
LINE
  5
741
100
AcDbEntity
  8
KONSTRUKTIONSELEMENTE
100
AcDbLine
 62
7
  6
CONTINUOUS
 10
93.66719397
 20
135.3061367499
 11
93.5208045605
 21
135.1983749476
  0
LINE
  5
742
100
AcDbEntity
  8
KONSTRUKTIONSELEMENTE
100
AcDbLine
 62
7
  6
CONTINUOUS
 10
93.5208045605
 20
135.1983749476
 11
93.2544321631
 21
135.098164746
  0
LINE
  5
743
100
AcDbEntity
  8
KONSTRUKTIONSELEMENTE
100
AcDbLine
 62
7
  6
CONTINUOUS
 10
93.2544321631
 20
135.098164746
 11
93.0144681424
 21
135.1130997187
  0
LINE
  5
744
100
AcDbEntity
  8
KONSTRUKTIONSELEMENTE
100
AcDbLine
 62
7
  6
CONTINUOUS
 10
92.6040007343
 20
133.8517065801
 11
93.0144681424
 21
135.1130997187
  0
SPLINE
  5
745
100
AcDbEntity
  8
BEZUGSACHSEN
100
AcDbSpline
 62
7
  6
CONTINUOUS
 70
0
 71
3
 72
15
 73
11
 74
0
 42
0.0000001
 43
0.0000001
 44
0.0000000001
 40
0.0
 40
0.0
 40
0.0
 40
0.0
 40
0.1221123637
 40
0.2463992458
 40
0.3726279636
 40
0.5
 40
0.6273720364
 40
0.7536007542
 40
0.8778876363
 40
1.0
 40
1.0
 40
1.0
 40
1.0
 10
96.8800578966
 20
103.9345911154
 30
0.0
 10
96.8403430239
 20
104.0163032239
 30
0.0
 10
96.7347524467
 20
104.1699555113
 30
0.0
 10
96.5165531335
 20
104.3466380916
 30
0.0
 10
96.2547236968
 20
104.458467963
 30
0.0
 10
95.9704265954
 20
104.4966814377
 30
0.0
 10
95.686129494
 20
104.458467963
 30
0.0
 10
95.4243000572
 20
104.3466380916
 30
0.0
 10
95.206100744
 20
104.1699555113
 30
0.0
 10
95.1005101668
 20
104.0163032239
 30
0.0
 10
95.0607952941
 20
103.9345911154
 30
0.0
  0
LINE
  5
746
100
AcDbEntity
  8
KONSTRUKTIONSELEMENTE
100
AcDbLine
 62
7
  6
CONTINUOUS
 10
73.4491542887
 20
134.036807996
 11
74.8272966554
 21
132.8822731747
  0
LINE
  5
747
100
AcDbEntity
  8
KONSTRUKTIONSELEMENTE
100
AcDbLine
 62
7
  6
CONTINUOUS
 10
75.0860319349
 20
132.7296051705
 11
74.8272966554
 21
132.8822731747
  0
LINE
  5
748
100
AcDbEntity
  8
KONSTRUKTIONSELEMENTE
100
AcDbLine
 62
7
  6
CONTINUOUS
 10
75.3367652246
 20
132.6477011406
 11
75.0860319349
 21
132.7296051705
  0
LINE
  5
749
100
AcDbEntity
  8
KONSTRUKTIONSELEMENTE
100
AcDbLine
 62
7
  6
CONTINUOUS
 10
75.6604067513
 20
132.632682379
 11
75.3367652246
 21
132.6477011406
  0
LINE
  5
74A
100
AcDbEntity
  8
KONSTRUKTIONSELEMENTE
100
AcDbLine
 62
7
  6
CONTINUOUS
 10
75.8951360841
 20
132.6918699924
 11
75.6604067513
 21
132.632682379
  0
LINE
  5
74B
100
AcDbEntity
  8
KONSTRUKTIONSELEMENTE
100
AcDbLine
 62
7
  6
CONTINUOUS
 10
76.1218632838
 20
132.8212988407
 11
75.8951360841
 21
132.6918699924
  0
LINE
  5
74C
100
AcDbEntity
  8
KONSTRUKTIONSELEMENTE
100
AcDbLine
 62
7
  6
CONTINUOUS
 10
76.2676802061
 20
132.9542937504
 11
76.1218632838
 21
132.8212988407
  0
LINE
  5
74D
100
AcDbEntity
  8
KONSTRUKTIONSELEMENTE
100
AcDbLine
 62
7
  6
CONTINUOUS
 10
76.4054949993
 20
133.1573518909
 11
76.2676802061
 21
132.9542937504
  0
LINE
  5
74E
100
AcDbEntity
  8
KONSTRUKTIONSELEMENTE
100
AcDbLine
 62
7
  6
CONTINUOUS
 10
76.4623995113
 20
133.3641540968
 11
76.4054949993
 21
133.1573518909
  0
LINE
  5
74F
100
AcDbEntity
  8
KONSTRUKTIONSELEMENTE
100
AcDbLine
 62
7
  6
CONTINUOUS
 10
78.0415619166
 20
135.3373396926
 11
78.066299068
 21
135.2864437021
  0
LINE
  5
750
100
AcDbEntity
  8
KONSTRUKTIONSELEMENTE
100
AcDbLine
 62
7
  6
CONTINUOUS
 10
78.066299068
 20
135.2864437021
 11
78.1329810026
 21
135.1492445117
  0
LINE
  5
751
100
AcDbEntity
  8
KONSTRUKTIONSELEMENTE
100
AcDbLine
 62
7
  6
CONTINUOUS
 10
78.0415619166
 20
135.3373396926
 11
77.512849361
 21
136.0004070977
  0
LINE
  5
752
100
AcDbEntity
  8
KONSTRUKTIONSELEMENTE
100
AcDbLine
 62
7
  6
CONTINUOUS
 10
77.512849361
 20
136.0004070977
 11
77.3295057446
 21
136.1510747202
  0
LINE
  5
753
100
AcDbEntity
  8
KONSTRUKTIONSELEMENTE
100
AcDbLine
 62
7
  6
CONTINUOUS
 10
75.5088610221
 20
135.8098385087
 11
77.165493739
 21
133.7318602317
  0
LINE
  5
754
100
AcDbEntity
  8
KONSTRUKTIONSELEMENTE
100
AcDbLine
 62
7
  6
CONTINUOUS
 10
78.3585059105
 20
134.5435132962
 11
78.1819843708
 21
134.3681101456
  0
LINE
  5
755
100
AcDbEntity
  8
KONSTRUKTIONSELEMENTE
100
AcDbLine
 62
7
  6
CONTINUOUS
 10
78.4574258442
 20
134.7365539769
 11
78.3585059105
 21
134.5435132962
  0
LINE
  5
756
100
AcDbEntity
  8
KONSTRUKTIONSELEMENTE
100
AcDbLine
 62
7
  6
CONTINUOUS
 10
78.47042665
 20
134.8651920355
 11
78.4574258442
 21
134.7365539769
  0
LINE
  5
757
100
AcDbEntity
  8
KONSTRUKTIONSELEMENTE
100
AcDbLine
 62
7
  6
CONTINUOUS
 10
77.3295057446
 20
136.1510747202
 11
77.1390554304
 21
136.2313348403
  0
SPLINE
  5
758
100
AcDbEntity
  8
KONSTRUKTIONSELEMENTE
100
AcDbSpline
 62
7
  6
CONTINUOUS
 70
0
 71
3
 72
21
 73
17
 74
0
 42
0.0000001
 43
0.0000001
 44
0.0000000001
 40
0.0
 40
0.0
 40
0.0
 40
0.0
 40
0.0606476034
 40
0.1215939993
 40
0.1830886726
 40
0.2452924231
 40
0.3082546743
 40
0.3719096569
 40
0.5
 40
0.6280903431
 40
0.6917453257
 40
0.7547075769
 40
0.8169113274
 40
0.8784060007
 40
0.9393523966
 40
1.0
 40
1.0
 40
1.0
 40
1.0
 10
88.4704265954
 20
111.1218823093
 30
0.0
 10
88.4704265954
 20
111.3369329909
 30
0.0
 10
88.4250356835
 20
111.7694343487
 30
0.0
 10
88.2236989311
 20
112.3913005794
 30
0.0
 10
87.897113724
 20
112.9640435666
 30
0.0
 10
87.4582943107
 20
113.4652918015
 30
0.0
 10
86.9241365665
 20
113.8761265717
 30
0.0
 10
86.1126889242
 20
114.2830959083
 30
0.0
 10
84.9704265954
 20
114.4961201196
 30
0.0
 10
83.8281642665
 20
114.2830959083
 30
0.0
 10
83.0167166243
 20
113.8761265717
 30
0.0
 10
82.48255888
 20
113.4652918015
 30
0.0
 10
82.0437394667
 20
112.9640435666
 30
0.0
 10
81.7171542596
 20
112.3913005794
 30
0.0
 10
81.5158175073
 20
111.7694343487
 30
0.0
 10
81.4704265954
 20
111.3369329909
 30
0.0
 10
81.4704265954
 20
111.1218823093
 30
0.0
  0
LINE
  5
759
100
AcDbEntity
  8
KONSTRUKTIONSELEMENTE
100
AcDbLine
 62
7
  6
CONTINUOUS
 10
77.1390554304
 20
136.2313348403
 11
76.9414991006
 21
136.2410938908
  0
LINE
  5
75A
100
AcDbEntity
  8
KONSTRUKTIONSELEMENTE
100
AcDbLine
 62
7
  6
CONTINUOUS
 10
76.9414991006
 20
136.2410938908
 11
76.7368366565
 21
136.1802173531
  0
ELLIPSE
  5
75B
100
AcDbEntity
  8
0
100
AcDbEllipse
 62
7
  6
CONTINUOUS
 10
365.5515663131
 20
110.008182676
 30
0.0
 11
-3.46393773
 21
7.9154443357
 31
0.0
 40
0.2314525424
 41
-2.1628157657
 42
-1.8386768464
  0
ELLIPSE
  5
75C
100
AcDbEntity
  8
RUNDUNGEN
100
AcDbEllipse
 62
7
  6
CONTINUOUS
 10
372.3260908506
 20
112.4739079589
 30
0.0
 11
-2.4344192947
 21
8.2901584017
 31
0.0
 40
0.2314525424
 41
-4.4445084607
 42
-4.1203695415
  0
ELLIPSE
  5
75D
100
AcDbEntity
  8
0
100
AcDbEllipse
 62
7
  6
CONTINUOUS
 10
337.5909065261
 20
110.008182676
 30
0.0
 11
3.46393773
 21
7.9154443357
 31
0.0
 40
0.2314525424
 41
-4.4445084607
 42
-4.1203695415
  0
ELLIPSE
  5
75E
100
AcDbEntity
  8
RUNDUNGEN
100
AcDbEllipse
 62
7
  6
CONTINUOUS
 10
330.8163819886
 20
112.4739079589
 30
0.0
 11
2.4344192947
 21
8.2901584017
 31
0.0
 40
0.2314525424
 41
-2.1628157657
 42
-1.8386768464
  0
ELLIPSE
  5
75F
100
AcDbEntity
  8
KONSTRUKTIONSELEMENTE
100
AcDbEllipse
 62
7
  6
CONTINUOUS
 10
63.3179288938
 20
72.4617002357
 30
0.0
 11
0.9671964284
 21
-0.2402955102
 31
0.0
 40
0.576671595
 41
0.7252988105
 42
2.2960951373
  0
ELLIPSE
  5
760
100
AcDbEntity
  8
0
100
AcDbEllipse
 62
7
  6
CONTINUOUS
 10
99.9704265954
 20
100.979077911
 30
0.0
 11
0.0149289758
 21
2.499999988
 31
0.0
 40
0.016401811
 41
0.3491637953
 42
2.0867423837
  0
ELLIPSE
  5
761
100
AcDbEntity
  8
0
100
AcDbEllipse
 62
7
  6
CONTINUOUS
 10
99.9704265954
 20
100.979077911
 30
0.0
 11
-0.0149289758
 21
2.499999988
 31
0.0
 40
0.016401811
 41
1.5706984413
 42
2.7924288583
  0
ELLIPSE
  5
762
100
AcDbEntity
  8
0
100
AcDbEllipse
 62
7
  6
CONTINUOUS
 10
99.9704265954
 20
100.979077911
 30
0.0
 11
0.0149289758
 21
2.499999988
 31
0.0
 40
0.016401811
 41
-3.1415462359
 42
-2.7924288583
  0
ELLIPSE
  5
763
100
AcDbEntity
  8
0
100
AcDbEllipse
 62
7
  6
CONTINUOUS
 10
99.9704265954
 20
100.979077911
 30
0.0
 11
-0.0214977251
 21
3.5999999827
 31
0.0
 40
0.016401811
 41
1.2216325315
 42
2.3823706591
  0
ELLIPSE
  5
764
100
AcDbEntity
  8
0
100
AcDbEllipse
 62
7
  6
CONTINUOUS
 10
69.9704265954
 20
100.979077911
 30
0.0
 11
-0.0149289758
 21
2.499999988
 31
0.0
 40
0.016401811
 41
-1.5708941989
 42
-0.3491637953
  0
ELLIPSE
  5
765
100
AcDbEntity
  8
0
100
AcDbEllipse
 62
7
  6
CONTINUOUS
 10
101.9078118653
 20
110.008182676
 30
0.0
 11
1.9843936679
 21
7.9558418773
 31
0.0
 40
0.0202927869
 41
-4.5403904008
 42
-4.2162514816
  0
ELLIPSE
  5
766
100
AcDbEntity
  8
0
100
AcDbEllipse
 62
7
  6
CONTINUOUS
 10
68.0330413254
 20
110.008182676
 30
0.0
 11
-1.9843936679
 21
7.9558418773
 31
0.0
 40
0.0202927869
 41
-2.0669338256
 42
-1.7427949064
  0
ELLIPSE
  5
767
100
AcDbEntity
  8
RUNDUNGEN
100
AcDbEllipse
 62
7
  6
CONTINUOUS
 10
101.9078118653
 20
112.4739079589
 30
0.0
 11
1.9848814919
 21
8.3092014207
 31
0.0
 40
0.0186941833
 41
-2.2262122464
 42
-1.9020733272
  0
ELLIPSE
  5
768
100
AcDbEntity
  8
RUNDUNGEN
100
AcDbEllipse
 62
7
  6
CONTINUOUS
 10
68.0330413254
 20
112.4739079589
 30
0.0
 11
-1.9848814919
 21
8.3092014207
 31
0.0
 40
0.0186941833
 41
-4.38111198
 42
-4.0569730608
  0
ELLIPSE
  5
769
100
AcDbEntity
  8
0
100
AcDbEllipse
 62
7
  6
CONTINUOUS
 10
69.9704265954
 20
100.979077911
 30
0.0
 11
0.0149289758
 21
2.499999988
 31
0.0
 40
0.016401811
 41
3.4907564489
 42
6.6323491025
  0
ENDSEC
  0
SECTION
  2
OBJECTS
  0
DICTIONARY
  5
C
100
AcDbDictionary
280
0
281
1
  3
ACAD_GROUP
350
D
  3
ACAD_MLINESTYLE
350
17
  3
ACAD_LAYOUT
350
1A
  3
ACAD_PLOTSETTINGS
350
19
  3
ACAD_PLOTSTYLENAME
350
E
  0
DICTIONARY
  5
D
102
{ACAD_REACTORS
330
C
102
}
100
AcDbDictionary
280
0
281
1
  0
ACDBDICTIONARYWDFLT
  5
E
102
{ACAD_REACTORS
330
C
102
}
100
AcDbDictionary
281
1
  3
Normal
350
F
100
AcDbDictionaryWithDefault
340
F
  0
DICTIONARY
  5
17
102
{ACAD_REACTORS
330
C
102
}
100
AcDbDictionary
280
0
281
1
  3
Standard
350
18
  0
DICTIONARY
  5
19
102
{ACAD_REACTORS
330
C
102
}
100
AcDbDictionary
281
1
  0
DICTIONARY
  5
1A
102
{ACAD_REACTORS
330
C
102
}
100
AcDbDictionary
281
1
  3
Model
350
76A
  3
Layout1
350
76B
  0
ACDBPLACEHOLDER
  5
F
102
{ACAD_REACTORS
330
E
102
}
  0
MLINESTYLE
  5
18
102
{ACAD_REACTORS
330
17
102
}
100
AcDbMlineStyle
  2
STANDARD
 70
0
  3

 62
256
 51
90.0
 52
90.0
 71
2
 49
0.5
 62
256
  6
BYLAYER
 49
-0.5
 62
256
  6
BYLAYER
  0
LAYOUT
  5
76A
102
{ACAD_REACTORS
330
1A
102
}
100
AcDbPlotSettings
  1

  2
none_device
  4
ISO_A3_(420.00_x_297.00_MM)
  6

 40
0.0
 41
0.0
 42
0.0
 43
0.0
 44
420.0
 45
297.0
 46
0.0
 47
0.0
 48
0.0
 49
0.0
140
0.0
141
0.0
142
1.0
143
1.0
 70
1024
 72
1
 73
0
 74
0
  7

 75
0
147
1.0
148
0.0
149
0.0
100
AcDbLayout
  1
Model
 70
0
 71
0
 10
0.0
 20
0.0
 11
420.0
 21
297.0
 12
0.0
 22
0.0
 32
0.0
 14
0.0
 24
0.0
 34
0.0
 15
0.0
 25
0.0
 35
0.0
146
0.0
 13
0.0
 23
0.0
 33
0.0
 16
1.0
 26
0.0
 36
0.0
 17
0.0
 27
1.0
 37
0.0
 76
0
330
20D
345
0
346
0
  0
LAYOUT
  5
76B
102
{ACAD_REACTORS
330
1A
102
}
100
AcDbPlotSettings
  1

  2
none_device
  4
ISO_A3_(420.00_x_297.00_MM)
  6

 40
0.0
 41
0.0
 42
0.0
 43
0.0
 44
420.0
 45
297.0
 46
0.0
 47
0.0
 48
0.0
 49
0.0
140
0.0
141
0.0
142
1.0
143
1.0
 70
0
 72
1
 73
0
 74
0
  7

 75
0
147
1.0
148
0.0
149
0.0
100
AcDbLayout
  1
Layout1
 70
0
 71
1
 10
0.0
 20
0.0
 11
420.0
 21
297.0
 12
0.0
 22
0.0
 32
0.0
 14
0.0
 24
0.0
 34
0.0
 15
0.0
 25
0.0
 35
0.0
146
0.0
 13
0.0
 23
0.0
 33
0.0
 16
1.0
 26
0.0
 36
0.0
 17
0.0
 27
1.0
 37
0.0
 76
0
330
20E
345
0
346
0
  0
ENDSEC
  0
EOF
