999
DXF file: VAK-2-22_7100711_M31180-P-7.dxf
999
Pro/ENGINEER 2010140 by Parametric Technology Corporation
  0
SECTION
  2
HEADER
  9
$ACADVER
  1
AC1015
  9
$DWGCODEPAGE
  3
ANSI_1252
  9
$EXTMAX
 10
841.0
 20
594.0
 30
0.0
  9
$EXTMIN
 10
0.0
 20
0.0
 30
0.0
  9
$LIMMIN
 10
0.0
 20
0.0
  9
$LIMMAX
 10
841.0
 20
594.0
  9
$VIEWCTR
 10
420.5
 20
297.0
  9
$VIEWSIZE
 40
594.0
  9
$CLAYER
  8
0
  9
$LTSCALE
 40
46.255
  9
$CELTYPE
  6
BYLAYER
  9
$DIMSCALE
 40
1.0
  9
$DIMASZ
 40
3.5
  9
$DIMEXO
 40
5.25625
  9
$DIMDLI
 40
31.958
  9
$DIMEXE
 40
15.138
  9
$DIMCEN
 40
7.569
  9
$DIMLFAC
 40
1.0
  9
$DIMBLK
  1
_FILLED
  9
$DIMTXT
 40
3.5
  9
$DIMTOL
 70
1
  9
$DIMLIM
 70
0
  9
$DIMTFAC
 40
1.0
  9
$DIMTP
 40
0.005
  9
$DIMTM
 40
0.005
  9
$PDMODE
 70
3
  9
$PDSIZE
 40
0.3125
  9
$HANDSEED
  5
7A7
  9
$TILEMODE
 70
1
  9
$MEASUREMENT
 70
1
  9
$INSUNITS
 70
4
  0
ENDSEC
  0
SECTION
  2
CLASSES
  0
CLASS
  1
ACDBDICTIONARYWDFLT
  2
AcDbDictionaryWithDefault
  3
AutoCAD 2000
 90
0
280
0
281
0
  0
CLASS
  1
ACDBPLACEHOLDER
  2
AcDbPlaceHolder
  3
AutoCAD 2000
 90
0
280
0
281
0
  0
CLASS
  1
LAYOUT
  2
AcDbLayout
  3
AutoCAD 2000
 90
0
280
0
281
0
  0
ENDSEC
  0
SECTION
  2
TABLES
  0
TABLE
  2
VPORT
  5
8
100
AcDbSymbolTable
 70
2
  0
VPORT
  5
1F4
100
AcDbSymbolTableRecord
100
AcDbViewportTableRecord
  2
*ACTIVE
 70
0
 10
0.0
 20
0.0
 11
1.0
 21
1.0
 12
420.5
 22
297.0
 13
0.0
 23
0.0
 14
1.0
 24
1.0
 15
0.0
 25
0.0
 16
0.0
 26
0.0
 36
1.0
 17
0.0
 27
0.0
 37
0.0
 40
594.0
 41
1.4158249158
 42
50.0
 43
0.0
 44
0.0
 50
0.0
 51
0.0
 71
0
 72
100
 73
1
 74
1
 75
0
 76
0
 77
0
 78
0
  0
ENDTAB
  0
TABLE
  2
LTYPE
  5
5
100
AcDbSymbolTable
 70
6
  0
LTYPE
  5
14
100
AcDbSymbolTableRecord
100
AcDbLinetypeTableRecord
  2
BYBLOCK
 70
0
  3

 72
65
 73
0
 40
0.0
  0
LTYPE
  5
15
100
AcDbSymbolTableRecord
100
AcDbLinetypeTableRecord
  2
BYLAYER
 70
0
  3

 72
65
 73
0
 40
0.0
  0
LTYPE
  5
16
100
AcDbSymbolTableRecord
100
AcDbLinetypeTableRecord
  2
CONTINUOUS
 70
64
  3
Solid line
 72
65
 73
0
 40
0.0
  0
LTYPE
  5
1F5
100
AcDbSymbolTableRecord
100
AcDbLinetypeTableRecord
  2
CENTER
 70
64
  3
____ _ ____ _ ____ _ ____ _ ____ _ ____ _ ____
 72
65
 73
4
 40
0.6
 49
0.375
 74
0
 49
-0.075
 74
0
 49
0.075
 74
0
 49
-0.075
 74
0
  0
LTYPE
  5
1F6
100
AcDbSymbolTableRecord
100
AcDbLinetypeTableRecord
  2
HIDDEN
 70
64
  3
- - - - - - - - - - - - - - - - - - - -
 72
65
 73
2
 40
0.2
 49
0.1
 74
0
 49
-0.1
 74
0
  0
LTYPE
  5
1F7
100
AcDbSymbolTableRecord
100
AcDbLinetypeTableRecord
  2
PHANTOM
 70
64
  3
_____ _ _ _____ _ _ _____ _ _ _____
 72
65
 73
6
 40
0.8
 49
0.45
 74
0
 49
-0.05
 74
0
 49
0.1
 74
0
 49
-0.05
 74
0
 49
0.1
 74
0
 49
-0.05
 74
0
  0
LTYPE
  5
1F8
100
AcDbSymbolTableRecord
100
AcDbLinetypeTableRecord
  2
DOT
 70
64
  3
. . . . . . . . . . . . . . . . . . . .
 72
65
 73
2
 40
0.2
 49
0.1
 74
0
 49
-0.1
 74
0
  0
LTYPE
  5
1F9
100
AcDbSymbolTableRecord
100
AcDbLinetypeTableRecord
  2
DASHED
 70
64
  3
- - - - - - - - - - - - - - - - - - - -
 72
65
 73
2
 40
0.2
 49
0.1
 74
0
 49
-0.1
 74
0
  0
ENDTAB
  0
TABLE
  2
LAYER
  5
2
100
AcDbSymbolTable
 70
36
  0
LAYER
  5
10
100
AcDbSymbolTableRecord
100
AcDbLayerTableRecord
  2
0
 70
0
 62
7
  6
CONTINUOUS
370
-3
390
F
  0
LAYER
  5
1FA
100
AcDbSymbolTableRecord
100
AcDbLayerTableRecord
  2
DEFAULT_1
 70
0
 62
7
  6
CENTER
370
-3
390
F
  0
LAYER
  5
1FB
100
AcDbSymbolTableRecord
100
AcDbLayerTableRecord
  2
DEFAULT_2
 70
0
 62
8
  6
HIDDEN
370
-3
390
F
  0
LAYER
  5
1FC
100
AcDbSymbolTableRecord
100
AcDbLayerTableRecord
  2
DEFAULT_3
 70
0
 62
7
  6
PHANTOM
370
-3
390
F
  0
LAYER
  5
1FD
100
AcDbSymbolTableRecord
100
AcDbLayerTableRecord
  2
BEZUGSACHSEN
 70
0
 62
7
  6
CONTINUOUS
370
-3
390
F
  0
LAYER
  5
1FE
100
AcDbSymbolTableRecord
100
AcDbLayerTableRecord
  2
BEZUGSEBENEN
 70
0
 62
7
  6
CONTINUOUS
370
-3
390
F
  0
LAYER
  5
1FF
100
AcDbSymbolTableRecord
100
AcDbLayerTableRecord
  2
BG_STARTBEZUEGE
 70
0
 62
7
  6
CONTINUOUS
370
-3
390
F
  0
LAYER
  5
200
100
AcDbSymbolTableRecord
100
AcDbLayerTableRecord
  2
FASEN
 70
0
 62
7
  6
CONTINUOUS
370
-3
390
F
  0
LAYER
  5
201
100
AcDbSymbolTableRecord
100
AcDbLayerTableRecord
  2
HILFEN
 70
0
 62
7
  6
CONTINUOUS
370
-3
390
F
  0
LAYER
  5
202
100
AcDbSymbolTableRecord
100
AcDbLayerTableRecord
  2
KONSTRUKTIONSELEMENTE
 70
0
 62
7
  6
CONTINUOUS
370
-3
390
F
  0
LAYER
  5
203
100
AcDbSymbolTableRecord
100
AcDbLayerTableRecord
  2
PLATZIERUNG
 70
0
 62
7
  6
CONTINUOUS
370
-3
390
F
  0
LAYER
  5
204
100
AcDbSymbolTableRecord
100
AcDbLayerTableRecord
  2
RUNDUNGEN
 70
0
 62
7
  6
CONTINUOUS
370
-3
390
F
  0
LAYER
  5
205
100
AcDbSymbolTableRecord
100
AcDbLayerTableRecord
  2
TEIL_STARTBEZUEGE
 70
0
 62
7
  6
CONTINUOUS
370
-3
390
F
  0
LAYER
  5
206
100
AcDbSymbolTableRecord
100
AcDbLayerTableRecord
  2
T_STARTBEZUEGE
 70
0
 62
7
  6
CONTINUOUS
370
-3
390
F
  0
ENDTAB
  0
TABLE
  2
STYLE
  5
3
100
AcDbSymbolTable
 70
1
  0
STYLE
  5
11
100
AcDbSymbolTableRecord
100
AcDbTextStyleTableRecord
  2
STANDARD
 70
0
 40
0.0
 41
0.7
 50
0.0
 71
0
 42
0.2
  3
txt
  4

  0
STYLE
  5
207
100
AcDbSymbolTableRecord
100
AcDbTextStyleTableRecord
  2
TEXTSTYLE_1
 70
0
 40
0.0
 41
0.8
 50
0.0
 71
0
 42
0.2
  3
gdt
  4

  0
ENDTAB
  0
TABLE
  2
VIEW
  5
6
100
AcDbSymbolTable
 70
0
  0
ENDTAB
  0
TABLE
  2
UCS
  5
7
100
AcDbSymbolTable
 70
0
  0
ENDTAB
  0
TABLE
  2
APPID
  5
9
100
AcDbSymbolTable
 70
1
  0
APPID
  5
208
100
AcDbSymbolTableRecord
100
AcDbRegAppTableRecord
  2
ACAD
 70
0
  0
ENDTAB
  0
TABLE
  2
BLOCK_RECORD
  5
1
100
AcDbSymbolTable
 70
0
  0
BLOCK_RECORD
  5
209
100
AcDbSymbolTableRecord
100
AcDbBlockTableRecord
  2
*Model_Space
  0
BLOCK_RECORD
  5
20A
100
AcDbSymbolTableRecord
100
AcDbBlockTableRecord
  2
*Paper_Space
  0
ENDTAB
  0
TABLE
  2
DIMSTYLE
  5
A
100
AcDbSymbolTable
 70
1
100
AcDbDimStyleTable
 71
0
  0
DIMSTYLE
105
20B
100
AcDbSymbolTableRecord
100
AcDbDimStyleTableRecord
  2
STANDARD
 70
0
  3

  4

 40
1.0
 41
3.5
 42
0.0625
 43
0.38
 44
0.18
 45
0.0
 46
0.0
 47
0.005
 48
0.005
140
3.5
141
0.09
142
0.0
143
25.4
144
1.0
145
0.0
146
1.0
147
0.09
 71
1.0
 72
0.0
 73
0
 74
0
 75
0
 76
0
 77
1
 78
8
170
0
171
2
172
0
173
0
174
0
175
0
176
0
177
0
178
5
270
2
271
3
272
3
273
2
274
2
275
0
280
0
281
0
282
0
283
1
284
8
285
0
286
0
287
3
288
0
340
11
  0
ENDTAB
  0
ENDSEC
  0
SECTION
  2
BLOCKS
  0
BLOCK
  5
20
100
AcDbEntity
  8
0
100
AcDbBlockBegin
  2
*Model_Space
 70
0
 10
0.0
 20
0.0
 30
0.0
  3
*Model_Space
  1

  0
ENDBLK
  5
21
100
AcDbEntity
  8
0
100
AcDbBlockEnd
  0
BLOCK
  5
1C
100
AcDbEntity
  8
0
100
AcDbBlockBegin
  2
*Paper_Space
 70
0
 10
0.0
 20
0.0
 30
0.0
  3
*Paper_Space
  1

  0
ENDBLK
  5
1D
100
AcDbEntity
  8
0
100
AcDbBlockEnd
  0
ENDSEC
  0
SECTION
  2
ENTITIES
  0
MTEXT
  5
20C
100
AcDbEntity
  8
0
100
AcDbMText
 62
5
  6
CONTINUOUS
  7
STANDARD
 71
1
 72
1
 10
783.3345409443
 20
288.3269829249
 30
0.0
 11
0.0
 21
1.0
 31
0.0
 44
0.9
  1
RUD VAK-2-22
 40
10.0
 41
97.1428571429
  0
MTEXT
  5
20D
100
AcDbEntity
  8
0
100
AcDbMText
 62
5
  6
CONTINUOUS
  7
STANDARD
 71
1
 72
1
 10
117.1055589141
 20
303.9948428766
 30
0.0
 11
0.0
 21
1.0
 31
0.0
 44
0.9
  1
RUD VAK-2-22
 40
10.0
 41
97.1428571429
  0
LINE
  5
20E
100
AcDbEntity
  8
0
100
AcDbLine
 62
7
  6
CONTINUOUS
 10
0.0
 20
0.0
 11
0.0
 21
594.0
  0
LINE
  5
20F
100
AcDbEntity
  8
0
100
AcDbLine
 62
7
  6
CONTINUOUS
 10
0.0
 20
0.0
 11
841.0
 21
0.0
  0
LINE
  5
210
100
AcDbEntity
  8
0
100
AcDbLine
 62
7
  6
CONTINUOUS
 10
0.0
 20
594.0
 11
841.0
 21
594.0
  0
LINE
  5
211
100
AcDbEntity
  8
0
100
AcDbLine
 62
7
  6
CONTINUOUS
 10
841.0
 20
0.0
 11
841.0
 21
594.0
  0
LINE
  5
212
100
AcDbEntity
  8
KONSTRUKTIONSELEMENTE
100
AcDbLine
 62
7
  6
CONTINUOUS
 10
276.8846975142
 20
38.1464399809
 11
279.3846975142
 21
33.8163129619
  0
LINE
  5
213
100
AcDbEntity
  8
KONSTRUKTIONSELEMENTE
100
AcDbLine
 62
7
  6
CONTINUOUS
 10
317.4898152807
 20
55.8163129619
 11
316.9398152807
 21
56.7689409061
  0
LINE
  5
214
100
AcDbEntity
  8
KONSTRUKTIONSELEMENTE
100
AcDbLine
 62
7
  6
CONTINUOUS
 10
315.5398152807
 20
59.1938120367
 11
314.9898152807
 21
60.1464399809
  0
LINE
  5
215
100
AcDbEntity
  8
KONSTRUKTIONSELEMENTE
100
AcDbLine
 62
7
  6
CONTINUOUS
 10
405.0705709478
 20
106.3810858221
 11
404.5205709478
 21
107.3337137663
  0
LINE
  5
216
100
AcDbEntity
  8
KONSTRUKTIONSELEMENTE
100
AcDbLine
 62
7
  6
CONTINUOUS
 10
402.5705709478
 20
110.711212841
 11
403.1205709478
 21
109.7585848969
  0
LINE
  5
217
100
AcDbEntity
  8
KONSTRUKTIONSELEMENTE
100
AcDbLine
 62
7
  6
CONTINUOUS
 10
424.9710411012
 20
121.5431728832
 11
425.6515585938
 21
120.3644820107
  0
LWPOLYLINE
  5
218
100
AcDbEntity
  8
BEZUGSACHSEN
100
AcDbPolyline
 62
7
  6
CONTINUOUS
 90
4
 70
0
 10
659.5568800244
 20
176.4956256925
 10
660.1297544101
 20
176.6570983786
 10
660.7021033531
 20
176.9001730591
 10
661.2324897038
 20
177.2110870991
  0
LINE
  5
219
100
AcDbEntity
  8
BEZUGSACHSEN
100
AcDbLine
 62
7
  6
CONTINUOUS
 10
622.8437839258
 20
101.9414627648
 11
611.5674724764
 21
106.0457044847
  0
LINE
  5
21A
100
AcDbEntity
  8
BEZUGSACHSEN
100
AcDbLine
 62
7
  6
CONTINUOUS
 10
459.6160577127
 20
143.6464399809
 11
462.1160577127
 21
139.3163129619
  0
LINE
  5
21B
100
AcDbEntity
  8
BEZUGSACHSEN
100
AcDbLine
 62
7
  6
CONTINUOUS
 10
627.9996291063
 20
111.3422755893
 11
613.6605919308
 21
116.5612583092
  0
LINE
  5
21C
100
AcDbEntity
  8
KONSTRUKTIONSELEMENTE
100
AcDbLine
 62
7
  6
CONTINUOUS
 10
457.905640275
 20
153.1089698851
 11
461.405640275
 21
147.0467920586
  0
LINE
  5
21D
100
AcDbEntity
  8
KONSTRUKTIONSELEMENTE
100
AcDbLine
 62
7
  6
CONTINUOUS
 10
458.3386529769
 20
153.3589698851
 11
461.8386529769
 21
147.2967920586
  0
LINE
  5
21E
100
AcDbEntity
  8
BEZUGSACHSEN
100
AcDbLine
 62
7
  6
CONTINUOUS
 10
636.6206193752
 20
135.7405870878
 11
622.7394625697
 21
140.7929149821
  0
LINE
  5
21F
100
AcDbEntity
  8
BEZUGSACHSEN
100
AcDbLine
 62
7
  6
CONTINUOUS
 10
632.0956596515
 20
178.271891818
 11
631.2197251251
 21
178.5907059127
  0
LINE
  5
220
100
AcDbEntity
  8
BEZUGSACHSEN
100
AcDbLine
 62
7
  6
CONTINUOUS
 10
632.4575840546
 20
178.3086404064
 11
631.5638640063
 21
178.6339279018
  0
LINE
  5
221
100
AcDbEntity
  8
BEZUGSACHSEN
100
AcDbLine
 62
7
  6
CONTINUOUS
 10
633.0546997901
 20
178.7168954673
 11
632.1416515173
 21
179.0492178611
  0
LINE
  5
222
100
AcDbEntity
  8
BEZUGSACHSEN
100
AcDbLine
 62
7
  6
CONTINUOUS
 10
633.5890802079
 20
179.2922990686
 11
632.6646277833
 21
179.6287722341
  0
LINE
  5
223
100
AcDbEntity
  8
BEZUGSACHSEN
100
AcDbLine
 62
7
  6
CONTINUOUS
 10
649.9624032343
 20
173.7603423938
 11
636.9576908171
 21
178.4936706188
  0
LINE
  5
224
100
AcDbEntity
  8
BEZUGSACHSEN
100
AcDbLine
 62
7
  6
CONTINUOUS
 10
632.3637062706
 20
180.4236398823
 11
631.8085067189
 21
180.6257159932
  0
LINE
  5
225
100
AcDbEntity
  8
BEZUGSACHSEN
100
AcDbLine
 62
7
  6
CONTINUOUS
 10
632.779628739
 20
181.0179989844
 11
631.9480788449
 21
181.3206583942
  0
LINE
  5
226
100
AcDbEntity
  8
BEZUGSACHSEN
100
AcDbLine
 62
7
  6
CONTINUOUS
 10
634.4500208692
 20
180.5066702366
 11
633.5150479605
 21
180.8469725452
  0
LINE
  5
227
100
AcDbEntity
  8
BEZUGSACHSEN
100
AcDbLine
 62
7
  6
CONTINUOUS
 10
630.6197403934
 20
183.2949706419
 11
629.9766356983
 21
183.5290416084
  0
LINE
  5
228
100
AcDbEntity
  8
BEZUGSACHSEN
100
AcDbLine
 62
7
  6
CONTINUOUS
 10
635.2580558009
 20
181.8846109848
 11
634.3195889238
 21
182.2261849939
  0
LINE
  5
229
100
AcDbEntity
  8
BEZUGSACHSEN
100
AcDbLine
 62
7
  6
CONTINUOUS
 10
635.8693248183
 20
183.3220905563
 11
634.939176998
 21
183.6606366764
  0
LINE
  5
22A
100
AcDbEntity
  8
BEZUGSACHSEN
100
AcDbLine
 62
7
  6
CONTINUOUS
 10
631.7799565084
 20
186.6295416561
 11
631.1739253539
 21
186.8501189574
  0
LINE
  5
22B
100
AcDbEntity
  8
BEZUGSACHSEN
100
AcDbLine
 62
7
  6
CONTINUOUS
 10
634.6507625275
 20
186.0505111036
 11
633.8679327696
 21
186.335437834
  0
LINE
  5
22C
100
AcDbEntity
  8
BEZUGSACHSEN
100
AcDbLine
 62
7
  6
CONTINUOUS
 10
725.0406163586
 20
54.6485405119
 11
719.0618431311
 21
59.2564053599
  0
LINE
  5
22D
100
AcDbEntity
  8
BEZUGSACHSEN
100
AcDbLine
 62
7
  6
CONTINUOUS
 10
638.2732849112
 20
189.6642345947
 11
637.3948096959
 21
189.9839734247
  0
LINE
  5
22E
100
AcDbEntity
  8
BEZUGSACHSEN
100
AcDbLine
 62
7
  6
CONTINUOUS
 10
634.079301556
 20
192.9401363967
 11
633.5498507068
 21
193.1328407463
  0
LINE
  5
22F
100
AcDbEntity
  8
BEZUGSACHSEN
100
AcDbLine
 62
7
  6
CONTINUOUS
 10
639.7818526788
 20
194.0896095007
 11
638.9487801608
 21
194.3928231003
  0
LINE
  5
230
100
AcDbEntity
  8
BEZUGSACHSEN
100
AcDbLine
 62
7
  6
CONTINUOUS
 10
640.2816784801
 20
195.4628696035
 11
639.4609027054
 21
195.7616075545
  0
LINE
  5
231
100
AcDbEntity
  8
BEZUGSACHSEN
100
AcDbLine
 62
7
  6
CONTINUOUS
 10
638.5421502373
 20
200.9552095968
 11
638.0111126523
 21
201.148491471
  0
LINE
  5
232
100
AcDbEntity
  8
BEZUGSACHSEN
100
AcDbLine
 62
7
  6
CONTINUOUS
 10
641.9881666149
 20
199.8223046896
 11
641.199139363
 21
200.1094871233
  0
LINE
  5
233
100
AcDbEntity
  8
BEZUGSACHSEN
100
AcDbLine
 62
7
  6
CONTINUOUS
 10
639.2167182236
 20
201.7775118779
 11
638.6688929003
 21
201.9769039891
  0
LINE
  5
234
100
AcDbEntity
  8
BEZUGSACHSEN
100
AcDbLine
 62
7
  6
CONTINUOUS
 10
642.3219521104
 20
200.9108315123
 11
641.5463799041
 21
201.19311671
  0
LINE
  5
235
100
AcDbEntity
  8
BEZUGSACHSEN
100
AcDbLine
 62
7
  6
CONTINUOUS
 10
639.8154019851
 20
201.9902021627
 11
639.5203605449
 21
202.0975884649
  0
LINE
  5
236
100
AcDbEntity
  8
BEZUGSACHSEN
100
AcDbLine
 62
7
  6
CONTINUOUS
 10
640.4231311114
 20
202.7768274217
 11
640.1592483249
 21
202.8728729013
  0
LINE
  5
237
100
AcDbEntity
  8
BEZUGSACHSEN
100
AcDbLine
 62
7
  6
CONTINUOUS
 10
639.0637434574
 20
203.5800617662
 11
638.9427648253
 21
203.6240943873
  0
LINE
  5
238
100
AcDbEntity
  8
BEZUGSACHSEN
100
AcDbLine
 62
7
  6
CONTINUOUS
 10
639.7932020401
 20
203.4261934192
 11
639.2645448726
 21
203.6186088924
  0
LINE
  5
239
100
AcDbEntity
  8
BEZUGSACHSEN
100
AcDbLine
 62
7
  6
CONTINUOUS
 10
641.171579063
 20
203.7138266378
 11
640.5597878423
 21
203.9365004317
  0
LINE
  5
23A
100
AcDbEntity
  8
BEZUGSACHSEN
100
AcDbLine
 62
7
  6
CONTINUOUS
 10
639.817883347
 20
204.42755183
 11
639.6178612666
 21
204.5003539134
  0
LINE
  5
23B
100
AcDbEntity
  8
BEZUGSACHSEN
100
AcDbLine
 62
7
  6
CONTINUOUS
 10
639.3980675006
 20
204.8334994908
 11
639.370735281
 21
204.8434476051
  0
LINE
  5
23C
100
AcDbEntity
  8
BEZUGSACHSEN
100
AcDbLine
 62
7
  6
CONTINUOUS
 10
639.5157005339
 20
204.9941642476
 11
639.4396560321
 21
205.0218421827
  0
LINE
  5
23D
100
AcDbEntity
  8
BEZUGSACHSEN
100
AcDbLine
 62
7
  6
CONTINUOUS
 10
639.7207813195
 20
205.2605060151
 11
639.6202496768
 21
205.2970965406
  0
LINE
  5
23E
100
AcDbEntity
  8
BEZUGSACHSEN
100
AcDbLine
 62
7
  6
CONTINUOUS
 10
640.4658993351
 20
205.2744139809
 11
639.9569037234
 21
205.4596732329
  0
LINE
  5
23F
100
AcDbEntity
  8
BEZUGSACHSEN
100
AcDbLine
 62
7
  6
CONTINUOUS
 10
640.0628448888
 20
205.6823210612
 11
639.9311729177
 21
205.7302457393
  0
LINE
  5
240
100
AcDbEntity
  8
BEZUGSACHSEN
100
AcDbLine
 62
7
  6
CONTINUOUS
 10
642.2407971508
 20
205.5743921555
 11
641.6213125882
 21
205.7998660969
  0
LINE
  5
241
100
AcDbEntity
  8
BEZUGSACHSEN
100
AcDbLine
 62
7
  6
CONTINUOUS
 10
640.6995497589
 20
206.4527768569
 11
640.516870924
 21
206.5192665153
  0
LINE
  5
242
100
AcDbEntity
  8
BEZUGSACHSEN
100
AcDbLine
 62
7
  6
CONTINUOUS
 10
642.6084023364
 20
205.9485414306
 11
641.9772340612
 21
206.1782678956
  0
LINE
  5
243
100
AcDbEntity
  8
BEZUGSACHSEN
100
AcDbLine
 62
7
  6
CONTINUOUS
 10
644.1367779425
 20
205.8970245062
 11
643.4055294532
 21
206.1631771901
  0
LINE
  5
244
100
AcDbEntity
  8
BEZUGSACHSEN
100
AcDbLine
 62
7
  6
CONTINUOUS
 10
641.3142928256
 20
207.1633996154
 11
641.0719523466
 21
207.2516043364
  0
LINE
  5
245
100
AcDbEntity
  8
BEZUGSACHSEN
100
AcDbLine
 62
7
  6
CONTINUOUS
 10
643.129770205
 20
206.546661717
 11
642.484324762
 21
206.7815846461
  0
LINE
  5
246
100
AcDbEntity
  8
BEZUGSACHSEN
100
AcDbLine
 62
7
  6
CONTINUOUS
 10
643.3996662624
 20
206.8755581039
 11
642.7474749325
 21
207.112936335
  0
LINE
  5
247
100
AcDbEntity
  8
BEZUGSACHSEN
100
AcDbLine
 62
7
  6
CONTINUOUS
 10
644.580774973
 20
206.9454376107
 11
643.8548785427
 21
207.2096423044
  0
LINE
  5
248
100
AcDbEntity
  8
BEZUGSACHSEN
100
AcDbLine
 62
7
  6
CONTINUOUS
 10
643.9579953943
 20
207.5929799264
 11
643.2930646678
 21
207.8349949187
  0
LINE
  5
249
100
AcDbEntity
  8
BEZUGSACHSEN
100
AcDbLine
 62
7
  6
CONTINUOUS
 10
643.2126870587
 20
208.2446378221
 11
642.6190983034
 21
208.4606864605
  0
LINE
  5
24A
100
AcDbEntity
  8
BEZUGSACHSEN
100
AcDbLine
 62
7
  6
CONTINUOUS
 10
643.6085431849
 20
208.696405727
 11
643.0036990119
 21
208.9165510023
  0
LINE
  5
24B
100
AcDbEntity
  8
BEZUGSACHSEN
100
AcDbLine
 62
7
  6
CONTINUOUS
 10
643.7095052675
 20
208.7540417171
 11
643.3903946203
 21
208.8701884942
  0
LINE
  5
24C
100
AcDbEntity
  8
BEZUGSACHSEN
100
AcDbLine
 62
7
  6
CONTINUOUS
 10
644.5737099435
 20
208.4886375537
 11
643.8981223459
 21
208.7345313299
  0
LINE
  5
24D
100
AcDbEntity
  8
BEZUGSACHSEN
100
AcDbLine
 62
7
  6
CONTINUOUS
 10
643.9134159596
 20
209.187767877
 11
643.7380716895
 21
209.2515879721
  0
LINE
  5
24E
100
AcDbEntity
  8
BEZUGSACHSEN
100
AcDbLine
 62
7
  6
CONTINUOUS
 10
644.9221487992
 20
209.054445658
 11
644.2424228436
 21
209.3018456733
  0
LINE
  5
24F
100
AcDbEntity
  8
BEZUGSACHSEN
100
AcDbLine
 62
7
  6
CONTINUOUS
 10
643.786176172
 20
209.4906632299
 11
643.5337936478
 21
209.5825229564
  0
LINE
  5
250
100
AcDbEntity
  8
BEZUGSACHSEN
100
AcDbLine
 62
7
  6
CONTINUOUS
 10
643.5838715093
 20
209.7564474161
 11
643.113627972
 21
209.9276020665
  0
LINE
  5
251
100
AcDbEntity
  8
BEZUGSACHSEN
100
AcDbLine
 62
7
  6
CONTINUOUS
 10
644.080674729
 20
209.8322649014
 11
643.8038785068
 21
209.9330104872
  0
LINE
  5
252
100
AcDbEntity
  8
BEZUGSACHSEN
100
AcDbLine
 62
7
  6
CONTINUOUS
 10
643.8096425225
 20
210.0678835182
 11
643.5330456197
 21
210.1685565577
  0
LINE
  5
253
100
AcDbEntity
  8
BEZUGSACHSEN
100
AcDbLine
 62
7
  6
CONTINUOUS
 10
645.1795507496
 20
209.5725748236
 11
644.5000153373
 21
209.8199054867
  0
LINE
  5
254
100
AcDbEntity
  8
BEZUGSACHSEN
100
AcDbLine
 62
7
  6
CONTINUOUS
 10
645.2642567175
 20
209.8072469674
 11
644.5868764183
 21
210.0537932336
  0
LINE
  5
255
100
AcDbEntity
  8
BEZUGSACHSEN
100
AcDbLine
 62
7
  6
CONTINUOUS
 10
645.2834699712
 20
210.0513139384
 11
644.6128321783
 21
210.2954061331
  0
LINE
  5
256
100
AcDbEntity
  8
BEZUGSACHSEN
100
AcDbLine
 62
7
  6
CONTINUOUS
 10
661.110662314
 20
204.3899324815
 11
648.1059498968
 21
209.1232607065
  0
LINE
  5
257
100
AcDbEntity
  8
BEZUGSACHSEN
100
AcDbLine
 62
7
  6
CONTINUOUS
 10
644.99294293
 20
210.4364748139
 11
644.3542116283
 21
210.6689539954
  0
LINE
  5
258
100
AcDbEntity
  8
BEZUGSACHSEN
100
AcDbLine
 62
7
  6
CONTINUOUS
 10
644.32288724
 20
210.8154479775
 11
644.0833853913
 21
210.9026195215
  0
LINE
  5
259
100
AcDbEntity
  8
BEZUGSACHSEN
100
AcDbLine
 62
7
  6
CONTINUOUS
 10
644.3899663046
 20
210.8797495315
 11
644.1727901729
 21
210.958795179
  0
LWPOLYLINE
  5
25A
100
AcDbEntity
  8
BEZUGSACHSEN
100
AcDbPolyline
 62
7
  6
CONTINUOUS
 90
3
 70
0
 10
691.4615678672
 20
176.891705456
 10
692.0372175008
 20
176.6500355921
 10
692.5893107711
 20
176.4971376592
  0
LINE
  5
25B
100
AcDbEntity
  8
KONSTRUKTIONSELEMENTE
100
AcDbLine
 62
7
  6
CONTINUOUS
 10
522.8575455589
 20
190.6089698851
 11
526.3575455589
 21
184.5467920586
  0
LINE
  5
25C
100
AcDbEntity
  8
KONSTRUKTIONSELEMENTE
100
AcDbLine
 62
7
  6
CONTINUOUS
 10
523.2905582608
 20
190.8589698851
 11
526.7905582608
 21
184.7967920586
  0
LINE
  5
25D
100
AcDbEntity
  8
BEZUGSACHSEN
100
AcDbLine
 62
7
  6
CONTINUOUS
 10
644.4342234298
 20
211.3627554486
 11
644.2791383028
 21
211.4192018186
  0
LINE
  5
25E
100
AcDbEntity
  8
BEZUGSACHSEN
100
AcDbLine
 62
7
  6
CONTINUOUS
 10
644.6961672441
 20
211.3641492557
 11
644.5492164745
 21
211.4176349617
  0
LINE
  5
25F
100
AcDbEntity
  8
BEZUGSACHSEN
100
AcDbLine
 62
7
  6
CONTINUOUS
 10
644.517115036
 20
211.4682384909
 11
644.3387540805
 21
211.5331565697
  0
LINE
  5
260
100
AcDbEntity
  8
BEZUGSACHSEN
100
AcDbLine
 62
7
  6
CONTINUOUS
 10
645.5869614157
 20
211.2725230206
 11
644.9366485363
 21
211.5092175516
  0
LINE
  5
261
100
AcDbEntity
  8
BEZUGSACHSEN
100
AcDbLine
 62
7
  6
CONTINUOUS
 10
645.9067431246
 20
211.7595963846
 11
645.2514002145
 21
211.9981216971
  0
LINE
  5
262
100
AcDbEntity
  8
BEZUGSACHSEN
100
AcDbLine
 62
7
  6
CONTINUOUS
 10
645.2393526862
 20
212.3224592858
 11
645.0091619586
 21
212.4062418589
  0
LINE
  5
263
100
AcDbEntity
  8
BEZUGSACHSEN
100
AcDbLine
 62
7
  6
CONTINUOUS
 10
646.1141974589
 20
212.1404955692
 11
645.457725569
 21
212.3794317968
  0
LINE
  5
264
100
AcDbEntity
  8
BEZUGSACHSEN
100
AcDbLine
 62
7
  6
CONTINUOUS
 10
646.163284011
 20
212.2773041614
 11
645.5080868513
 21
212.515776425
  0
LINE
  5
265
100
AcDbEntity
  8
BEZUGSACHSEN
100
AcDbLine
 62
7
  6
CONTINUOUS
 10
646.1166837096
 20
212.3405499149
 11
645.4666728887
 21
212.5771345057
  0
LINE
  5
266
100
AcDbEntity
  8
BEZUGSACHSEN
100
AcDbLine
 62
7
  6
CONTINUOUS
 10
646.0934667763
 20
212.8329133458
 11
645.5143685946
 21
213.0436878467
  0
LINE
  5
267
100
AcDbEntity
  8
BEZUGSACHSEN
100
AcDbLine
 62
7
  6
CONTINUOUS
 10
646.316556432
 20
213.117161159
 11
645.7497434516
 21
213.3234642123
  0
LINE
  5
268
100
AcDbEntity
  8
BEZUGSACHSEN
100
AcDbLine
 62
7
  6
CONTINUOUS
 10
646.3866956149
 20
213.2065284106
 11
645.8429795393
 21
213.404424878
  0
LINE
  5
269
100
AcDbEntity
  8
BEZUGSACHSEN
100
AcDbLine
 62
7
  6
CONTINUOUS
 10
652.3642059499
 20
220.8227230586
 11
665.3689183671
 21
216.0893948335
  0
LINE
  5
26A
100
AcDbEntity
  8
BEZUGSACHSEN
100
AcDbLine
 62
7
  6
CONTINUOUS
 10
690.9142514026
 20
177.2110870991
 11
691.4615678672
 21
176.891705456
  0
LINE
  5
26B
100
AcDbEntity
  8
0
100
AcDbLine
 62
7
  6
CONTINUOUS
 10
541.0733705532
 20
265.7313764714
 11
541.0733705532
 21
425.7313764714
  0
LINE
  5
26C
100
AcDbEntity
  8
BEZUGSACHSEN
100
AcDbLine
 62
7
  6
CONTINUOUS
 10
690.4323116491
 20
177.5849417654
 11
690.9279397413
 21
177.2018584958
  0
LINE
  5
26D
100
AcDbEntity
  8
RUNDUNGEN
100
AcDbLine
 62
7
  6
CONTINUOUS
 10
764.8858677688
 20
108.4418270718
 11
755.7228086034
 21
116.130546638
  0
LINE
  5
26E
100
AcDbEntity
  8
RUNDUNGEN
100
AcDbLine
 62
7
  6
CONTINUOUS
 10
576.2848979488
 20
79.9299146758
 11
577.903025525
 21
72.5570040626
  0
LINE
  5
26F
100
AcDbEntity
  8
BEZUGSACHSEN
100
AcDbLine
 62
7
  6
CONTINUOUS
 10
690.0064244625
 20
178.0153474574
 11
690.4429012347
 21
177.5755884648
  0
LINE
  5
270
100
AcDbEntity
  8
RUNDUNGEN
100
AcDbLine
 62
7
  6
CONTINUOUS
 10
631.0470540042
 20
187.2213226652
 11
631.2190031318
 21
186.971914634
  0
LINE
  5
271
100
AcDbEntity
  8
RUNDUNGEN
100
AcDbLine
 62
7
  6
CONTINUOUS
 10
631.3462023503
 20
186.7874152586
 11
631.3666545697
 21
186.7577498113
  0
LINE
  5
272
100
AcDbEntity
  8
0
100
AcDbLine
 62
7
  6
CONTINUOUS
 10
586.0733705532
 20
265.7313764714
 11
586.0733705532
 21
425.7313764714
  0
LINE
  5
273
100
AcDbEntity
  8
BEZUGSACHSEN
100
AcDbLine
 62
7
  6
CONTINUOUS
 10
689.6427149655
 20
178.4953252051
 11
690.0141658237
 21
178.0064407657
  0
LWPOLYLINE
  5
274
100
AcDbEntity
  8
RUNDUNGEN
100
AcDbPolyline
 62
7
  6
CONTINUOUS
 90
3
 70
0
 10
630.5546619991
 20
188.3391004493
 10
630.7638428235
 20
187.7678437237
 10
631.0470540042
 20
187.2213226652
  0
LINE
  5
275
100
AcDbEntity
  8
RUNDUNGEN
100
AcDbLine
 62
7
  6
CONTINUOUS
 10
630.3652112855
 20
189.5237532318
 11
630.4234791051
 21
188.9136513661
  0
LINE
  5
276
100
AcDbEntity
  8
0
100
AcDbLine
 62
7
  6
CONTINUOUS
 10
699.7825351565
 20
220.8227230586
 11
705.7600454914
 21
213.2065284106
  0
LINE
  5
277
100
AcDbEntity
  8
0
100
AcDbLine
 62
7
  6
CONTINUOUS
 10
713.0703196848
 20
203.892203873
 11
719.7074547308
 21
195.435553933
  0
LINE
  5
278
100
AcDbEntity
  8
BEZUGSACHSEN
100
AcDbLine
 62
7
  6
CONTINUOUS
 10
689.3484256865
 20
179.0137337082
 11
689.647939872
 21
178.4874113045
  0
LINE
  5
279
100
AcDbEntity
  8
BEZUGSACHSEN
100
AcDbLine
 62
7
  6
CONTINUOUS
 10
729.3029571805
 20
101.9414627648
 11
724.147112
 21
111.3422755893
  0
LINE
  5
27A
100
AcDbEntity
  8
RUNDUNGEN
100
AcDbLine
 62
7
  6
CONTINUOUS
 10
630.4212386178
 20
188.9275300534
 11
630.5593395044
 21
188.3233540139
  0
LINE
  5
27B
100
AcDbEntity
  8
BEZUGSACHSEN
100
AcDbLine
 62
7
  6
CONTINUOUS
 10
640.9268201534
 20
99.9328201943
 11
643.0039170375
 21
88.1530183976
  0
LINE
  5
27C
100
AcDbEntity
  8
RUNDUNGEN
100
AcDbLine
 62
7
  6
CONTINUOUS
 10
630.3868965314
 20
190.1188159331
 11
630.3655616994
 21
189.5120160972
  0
LINE
  5
27D
100
AcDbEntity
  8
KONSTRUKTIONSELEMENTE
100
AcDbLine
 62
7
  6
CONTINUOUS
 10
452.9692954735
 20
150.2589698851
 11
457.905640275
 21
153.1089698851
  0
LINE
  5
27E
100
AcDbEntity
  8
KONSTRUKTIONSELEMENTE
100
AcDbLine
 62
7
  6
CONTINUOUS
 10
458.3386529769
 20
153.3589698851
 11
463.2749977785
 21
156.2089698851
  0
LINE
  5
27F
100
AcDbEntity
  8
KONSTRUKTIONSELEMENTE
100
AcDbLine
 62
7
  6
CONTINUOUS
 10
517.9212007573
 20
187.7589698851
 11
522.8575455589
 21
190.6089698851
  0
LINE
  5
280
100
AcDbEntity
  8
KONSTRUKTIONSELEMENTE
100
AcDbLine
 62
7
  6
CONTINUOUS
 10
523.2905582608
 20
190.8589698851
 11
528.2269030623
 21
193.7089698851
  0
LINE
  5
281
100
AcDbEntity
  8
KONSTRUKTIONSELEMENTE
100
AcDbLine
 62
7
  6
CONTINUOUS
 10
495.6032262868
 20
173.31483559
 11
486.5965620875
 21
168.11483559
  0
LINE
  5
282
100
AcDbEntity
  8
KONSTRUKTIONSELEMENTE
100
AcDbLine
 62
7
  6
CONTINUOUS
 10
456.4692954735
 20
144.1967920586
 11
461.405640275
 21
147.0467920586
  0
LINE
  5
283
100
AcDbEntity
  8
KONSTRUKTIONSELEMENTE
100
AcDbLine
 62
7
  6
CONTINUOUS
 10
461.8386529769
 20
147.2967920586
 11
466.7749977785
 21
150.1467920586
  0
LINE
  5
284
100
AcDbEntity
  8
KONSTRUKTIONSELEMENTE
100
AcDbLine
 62
7
  6
CONTINUOUS
 10
521.4212007573
 20
181.6967920586
 11
526.3575455589
 21
184.5467920586
  0
LINE
  5
285
100
AcDbEntity
  8
KONSTRUKTIONSELEMENTE
100
AcDbLine
 62
7
  6
CONTINUOUS
 10
526.7905582608
 20
184.7967920586
 11
531.7269030623
 21
187.6467920586
  0
LINE
  5
286
100
AcDbEntity
  8
KONSTRUKTIONSELEMENTE
100
AcDbLine
 62
7
  6
CONTINUOUS
 10
599.5951858277
 20
226.1954780865
 11
532.0452043325
 21
187.1954780865
  0
LINE
  5
287
100
AcDbEntity
  8
KONSTRUKTIONSELEMENTE
100
AcDbLine
 62
7
  6
CONTINUOUS
 10
498.8032262868
 20
167.7722730058
 11
489.7965620875
 21
162.5722730058
  0
LINE
  5
288
100
AcDbEntity
  8
KONSTRUKTIONSELEMENTE
100
AcDbLine
 62
7
  6
CONTINUOUS
 10
468.4459269929
 20
149.5526577635
 11
489.5327467434
 21
161.7271388229
  0
LINE
  5
289
100
AcDbEntity
  8
KONSTRUKTIONSELEMENTE
100
AcDbLine
 62
7
  6
CONTINUOUS
 10
499.6228415291
 20
167.5526577635
 11
520.7096612797
 21
179.7271388229
  0
LINE
  5
28A
100
AcDbEntity
  8
BEZUGSACHSEN
100
AcDbLine
 62
7
  6
CONTINUOUS
 10
459.615084901
 20
143.6458783278
 11
458.5564002068
 21
143.0346464346
  0
LINE
  5
28B
100
AcDbEntity
  8
KONSTRUKTIONSELEMENTE
100
AcDbLine
 62
7
  6
CONTINUOUS
 10
276.8846975142
 20
38.1464399809
 11
458.5564002068
 21
143.0346464346
  0
LINE
  5
28C
100
AcDbEntity
  8
KONSTRUKTIONSELEMENTE
100
AcDbLine
 62
7
  6
CONTINUOUS
 10
315.5398152807
 20
59.1938120367
 11
277.4346975142
 21
37.1938120367
  0
LINE
  5
28D
100
AcDbEntity
  8
KONSTRUKTIONSELEMENTE
100
AcDbLine
 62
7
  6
CONTINUOUS
 10
403.1205709478
 20
109.7585848969
 11
414.1726436301
 21
116.1395020351
  0
LINE
  5
28E
100
AcDbEntity
  8
KONSTRUKTIONSELEMENTE
100
AcDbLine
 62
7
  6
CONTINUOUS
 10
316.9398152807
 20
56.7689409061
 11
278.8346975142
 21
34.7689409061
  0
LINE
  5
28F
100
AcDbEntity
  8
KONSTRUKTIONSELEMENTE
100
AcDbLine
 62
7
  6
CONTINUOUS
 10
404.5205709478
 20
107.3337137663
 11
415.5726436301
 21
113.7146309045
  0
LINE
  5
290
100
AcDbEntity
  8
BEZUGSACHSEN
100
AcDbLine
 62
7
  6
CONTINUOUS
 10
462.115084901
 20
139.3157513088
 11
461.0564002068
 21
138.7045194156
  0
LINE
  5
291
100
AcDbEntity
  8
KONSTRUKTIONSELEMENTE
100
AcDbLine
 62
7
  6
CONTINUOUS
 10
279.3846975142
 20
33.8163129619
 11
461.0564002068
 21
138.7045194156
  0
LINE
  5
292
100
AcDbEntity
  8
KONSTRUKTIONSELEMENTE
100
AcDbLine
 62
7
  6
CONTINUOUS
 10
471.6459269929
 20
144.0100951793
 11
492.7327467434
 21
156.1845762386
  0
LINE
  5
293
100
AcDbEntity
  8
KONSTRUKTIONSELEMENTE
100
AcDbLine
 62
7
  6
CONTINUOUS
 10
502.8228415291
 20
162.0100951793
 11
523.9096612797
 21
174.1845762386
  0
LINE
  5
294
100
AcDbEntity
  8
KONSTRUKTIONSELEMENTE
100
AcDbLine
 62
7
  6
CONTINUOUS
 10
493.5965620875
 20
155.990479937
 11
502.6032262868
 21
161.190479937
  0
LINE
  5
295
100
AcDbEntity
  8
KONSTRUKTIONSELEMENTE
100
AcDbLine
 62
7
  6
CONTINUOUS
 10
603.5951858277
 20
219.2672748563
 11
536.0452043325
 21
180.2672748563
  0
LINE
  5
296
100
AcDbEntity
  8
KONSTRUKTIONSELEMENTE
100
AcDbLine
 62
7
  6
CONTINUOUS
 10
536.2769030623
 20
179.7659608842
 11
525.9712007573
 21
173.8159608842
  0
LINE
  5
297
100
AcDbEntity
  8
KONSTRUKTIONSELEMENTE
100
AcDbLine
 62
7
  6
CONTINUOUS
 10
471.3249977785
 20
142.2659608842
 11
461.0192954735
 21
136.3159608842
  0
LINE
  5
298
100
AcDbEntity
  8
BEZUGSACHSEN
100
AcDbLine
 62
7
  6
CONTINUOUS
 10
722.6065562552
 20
114.5142902486
 11
724.147112
 21
111.3422755893
  0
LINE
  5
299
100
AcDbEntity
  8
BEZUGSACHSEN
100
AcDbLine
 62
7
  6
CONTINUOUS
 10
689.1702219346
 20
179.4347782451
 11
689.3500058956
 21
179.0100001256
  0
LINE
  5
29A
100
AcDbEntity
  8
BEZUGSACHSEN
100
AcDbLine
 62
7
  6
CONTINUOUS
 10
710.4266579782
 20
148.3877431826
 11
715.5261217312
 21
135.7405870878
  0
LINE
  5
29B
100
AcDbEntity
  8
BEZUGSACHSEN
100
AcDbLine
 62
7
  6
CONTINUOUS
 10
717.4155981957
 20
61.5066031486
 11
709.5939753911
 21
82.9963351877
  0
LINE
  5
29C
100
AcDbEntity
  8
BEZUGSACHSEN
100
AcDbLine
 62
7
  6
CONTINUOUS
 10
710.3176183084
 20
110.2461866142
 11
707.3338238381
 21
118.4440945457
  0
LINE
  5
29D
100
AcDbEntity
  8
BEZUGSACHSEN
100
AcDbLine
 62
7
  6
CONTINUOUS
 10
689.1702171743
 20
179.43474893
 11
688.1318701691
 21
182.2875834661
  0
LINE
  5
29E
100
AcDbEntity
  8
BEZUGSACHSEN
100
AcDbLine
 62
7
  6
CONTINUOUS
 10
689.9033186108
 20
183.8768404684
 11
709.8373131708
 21
129.1086405351
  0
LINE
  5
29F
100
AcDbEntity
  8
BEZUGSACHSEN
100
AcDbLine
 62
7
  6
CONTINUOUS
 10
664.3137345276
 20
183.8342035719
 11
665.3689183671
 21
216.0893948335
  0
LINE
  5
2A0
100
AcDbEntity
  8
0
100
AcDbLine
 62
7
  6
CONTINUOUS
 10
611.5674724764
 20
106.0457044847
 11
613.6605919308
 21
116.5612583092
  0
LINE
  5
2A1
100
AcDbEntity
  8
RUNDUNGEN
100
AcDbLine
 62
7
  6
CONTINUOUS
 10
614.519389484
 20
119.9814126573
 11
613.6605919308
 21
116.5612583092
  0
LINE
  5
2A2
100
AcDbEntity
  8
RUNDUNGEN
100
AcDbLine
 62
7
  6
CONTINUOUS
 10
630.4847427512
 20
190.6996066188
 11
630.4836687982
 21
190.696007106
  0
LWPOLYLINE
  5
2A3
100
AcDbEntity
  8
RUNDUNGEN
100
AcDbPolyline
 62
7
  6
CONTINUOUS
 90
3
 70
0
 10
630.6359141283
 20
191.2062860142
 10
630.4853036294
 20
190.7029358514
 10
630.3859491656
 20
190.1094261029
  0
LINE
  5
2A4
100
AcDbEntity
  8
0
100
AcDbLine
 62
7
  6
CONTINUOUS
 10
626.9624819343
 20
153.7590707464
 11
622.7394625697
 21
140.7929149821
  0
LINE
  5
2A5
100
AcDbEntity
  8
RUNDUNGEN
100
AcDbLine
 62
7
  6
CONTINUOUS
 10
584.2918232265
 20
104.2015840739
 11
576.4702004219
 21
82.7118520348
  0
LINE
  5
2A6
100
AcDbEntity
  8
RUNDUNGEN
100
AcDbLine
 62
7
  6
CONTINUOUS
 10
605.3458271952
 20
132.8089405654
 11
602.3620327249
 21
124.6110326338
  0
LINE
  5
2A7
100
AcDbEntity
  8
RUNDUNGEN
100
AcDbLine
 62
7
  6
CONTINUOUS
 10
630.6360960336
 20
191.2068283252
 11
630.6358913668
 21
191.2062658745
  0
LINE
  5
2A8
100
AcDbEntity
  8
0
100
AcDbLine
 62
7
  6
CONTINUOUS
 10
631.6524026527
 20
193.9991078126
 11
630.6361163457
 21
191.2068841324
  0
LINE
  5
2A9
100
AcDbEntity
  8
0
100
AcDbLine
 62
7
  6
CONTINUOUS
 10
614.1186493119
 20
139.3692448349
 11
621.0949204481
 21
158.5363922536
  0
LINE
  5
2AA
100
AcDbEntity
  8
RUNDUNGEN
100
AcDbLine
 62
7
  6
CONTINUOUS
 10
614.1186493119
 20
139.3692448349
 11
621.0949204481
 21
158.5363922536
  0
LINE
  5
2AB
100
AcDbEntity
  8
BEZUGSACHSEN
100
AcDbLine
 62
7
  6
CONTINUOUS
 10
621.0949204481
 20
158.5363922536
 11
630.1663664361
 21
183.4599852674
  0
LINE
  5
2AC
100
AcDbEntity
  8
BEZUGSACHSEN
100
AcDbLine
 62
7
  6
CONTINUOUS
 10
630.8039896667
 20
185.2118406957
 11
631.3737964055
 21
186.7773718439
  0
LINE
  5
2AD
100
AcDbEntity
  8
BEZUGSACHSEN
100
AcDbLine
 62
7
  6
CONTINUOUS
 10
632.0113181324
 20
188.5289483928
 11
633.6709547356
 21
193.0887624846
  0
LINE
  5
2AE
100
AcDbEntity
  8
KONSTRUKTIONSELEMENTE
100
AcDbLine
 62
7
  6
CONTINUOUS
 10
496.7965620875
 20
150.4479173528
 11
505.8032262868
 21
155.6479173528
  0
LINE
  5
2AF
100
AcDbEntity
  8
KONSTRUKTIONSELEMENTE
100
AcDbLine
 62
7
  6
CONTINUOUS
 10
539.7769030623
 20
173.7037830577
 11
529.4712007573
 21
167.7537830577
  0
LINE
  5
2B0
100
AcDbEntity
  8
KONSTRUKTIONSELEMENTE
100
AcDbLine
 62
7
  6
CONTINUOUS
 10
474.8249977785
 20
136.2037830577
 11
464.5192954735
 21
130.2537830577
  0
LINE
  5
2B1
100
AcDbEntity
  8
BEZUGSACHSEN
100
AcDbLine
 62
7
  6
CONTINUOUS
 10
699.7825351565
 20
220.8227230586
 11
686.7778227393
 21
216.0893948335
  0
LINE
  5
2B2
100
AcDbEntity
  8
RUNDUNGEN
100
AcDbLine
 62
7
  6
CONTINUOUS
 10
736.8388179995
 20
122.4024884082
 11
729.4072785367
 21
140.7929149821
  0
LINE
  5
2B3
100
AcDbEntity
  8
BEZUGSACHSEN
100
AcDbLine
 62
7
  6
CONTINUOUS
 10
729.3029571805
 20
101.9414627648
 11
730.1779819212
 21
99.5373520484
  0
LINE
  5
2B4
100
AcDbEntity
  8
RUNDUNGEN
100
AcDbLine
 62
7
  6
CONTINUOUS
 10
740.57926863
 20
106.0457044847
 11
741.4542933706
 21
103.6415937684
  0
LINE
  5
2B5
100
AcDbEntity
  8
BEZUGSACHSEN
100
AcDbLine
 62
7
  6
CONTINUOUS
 10
718.0940972344
 20
194.1374447682
 11
731.0518206582
 21
158.5363922536
  0
LINE
  5
2B6
100
AcDbEntity
  8
0
100
AcDbLine
 62
7
  6
CONTINUOUS
 10
731.0518206582
 20
158.5363922536
 11
738.0280917944
 21
139.3692448349
  0
LINE
  5
2B7
100
AcDbEntity
  8
RUNDUNGEN
100
AcDbLine
 62
7
  6
CONTINUOUS
 10
731.0518206724
 20
158.5363922147
 11
738.0280917944
 21
139.3692448349
  0
LINE
  5
2B8
100
AcDbEntity
  8
0
100
AcDbLine
 62
7
  6
CONTINUOUS
 10
725.184259172
 20
153.7590707464
 11
729.4072785367
 21
140.7929149821
  0
LINE
  5
2B9
100
AcDbEntity
  8
BEZUGSACHSEN
100
AcDbLine
 62
7
  6
CONTINUOUS
 10
721.6543705604
 20
116.8758015166
 11
715.5261217312
 21
135.7405870878
  0
LINE
  5
2BA
100
AcDbEntity
  8
BEZUGSACHSEN
100
AcDbLine
 62
7
  6
CONTINUOUS
 10
687.8330065787
 20
183.8342035719
 11
686.7778227393
 21
216.0893948335
  0
LINE
  5
2BB
100
AcDbEntity
  8
BEZUGSACHSEN
100
AcDbLine
 62
7
  6
CONTINUOUS
 10
630.4923705459
 20
116.8758015166
 11
636.6206193752
 21
135.7405870878
  0
LINE
  5
2BC
100
AcDbEntity
  8
RUNDUNGEN
100
AcDbLine
 62
7
  6
CONTINUOUS
 10
611.5674724764
 20
106.0457044847
 11
610.6924477357
 21
103.6415937684
  0
LINE
  5
2BD
100
AcDbEntity
  8
BEZUGSACHSEN
100
AcDbLine
 62
7
  6
CONTINUOUS
 10
622.8437839258
 20
101.9414627648
 11
621.9687591852
 21
99.5373520484
  0
LINE
  5
2BE
100
AcDbEntity
  8
BEZUGSACHSEN
100
AcDbLine
 62
7
  6
CONTINUOUS
 10
642.3094279355
 20
129.1086405351
 11
662.2434550603
 21
183.8769299393
  0
LINE
  5
2BF
100
AcDbEntity
  8
BEZUGSACHSEN
100
AcDbLine
 62
7
  6
CONTINUOUS
 10
663.9931926627
 20
182.2280228963
 11
662.9769063557
 21
179.4357992161
  0
LINE
  5
2C0
100
AcDbEntity
  8
BEZUGSACHSEN
100
AcDbLine
 62
7
  6
CONTINUOUS
 10
641.7200831282
 20
148.3877431826
 11
636.6206193752
 21
135.7405870878
  0
LINE
  5
2C1
100
AcDbEntity
  8
RUNDUNGEN
100
AcDbLine
 62
7
  6
CONTINUOUS
 10
615.3079231069
 20
122.4024884082
 11
622.7394625697
 21
140.7929149821
  0
LINE
  5
2C2
100
AcDbEntity
  8
0
100
AcDbLine
 62
7
  6
CONTINUOUS
 10
652.3642059499
 20
220.8227230586
 11
645.7980576688
 21
212.4565203096
  0
LINE
  5
2C3
100
AcDbEntity
  8
0
100
AcDbLine
 62
7
  6
CONTINUOUS
 10
638.9982835635
 20
203.7926451766
 11
632.4392863755
 21
195.435553933
  0
LINE
  5
2C4
100
AcDbEntity
  8
BEZUGSACHSEN
100
AcDbLine
 62
7
  6
CONTINUOUS
 10
705.6563912493
 20
213.1688013518
 11
706.3037615671
 21
213.404424878
  0
LINE
  5
2C5
100
AcDbEntity
  8
BEZUGSACHSEN
100
AcDbLine
 62
7
  6
CONTINUOUS
 10
705.7231943008
 20
212.9896359946
 11
706.3720657725
 21
213.2258058962
  0
LINE
  5
2C6
100
AcDbEntity
  8
BEZUGSACHSEN
100
AcDbLine
 62
7
  6
CONTINUOUS
 10
705.8944925428
 20
212.7109989242
 11
706.5412165979
 21
212.9463872301
  0
LINE
  5
2C7
100
AcDbEntity
  8
BEZUGSACHSEN
100
AcDbLine
 62
7
  6
CONTINUOUS
 10
706.1962281655
 20
212.2745052483
 11
706.8373774261
 21
212.5078644949
  0
LINE
  5
2C8
100
AcDbEntity
  8
BEZUGSACHSEN
100
AcDbLine
 62
7
  6
CONTINUOUS
 10
707.168387585
 20
212.2139755335
 11
707.2232306936
 21
212.2339367926
  0
LINE
  5
2C9
100
AcDbEntity
  8
BEZUGSACHSEN
100
AcDbLine
 62
7
  6
CONTINUOUS
 10
707.3535857739
 20
211.893327846
 11
707.4684103287
 21
211.9351205661
  0
LINE
  5
2CA
100
AcDbEntity
  8
BEZUGSACHSEN
100
AcDbLine
 62
7
  6
CONTINUOUS
 10
706.3457263808
 20
211.4644760875
 11
707.0038390211
 21
211.7040094994
  0
LINE
  5
2CB
100
AcDbEntity
  8
BEZUGSACHSEN
100
AcDbLine
 62
7
  6
CONTINUOUS
 10
706.2990141573
 20
211.4044852568
 11
706.9621864496
 21
211.6458602313
  0
LINE
  5
2CC
100
AcDbEntity
  8
BEZUGSACHSEN
100
AcDbLine
 62
7
  6
CONTINUOUS
 10
707.1036299838
 20
211.6025756815
 11
707.4034942644
 21
211.711717354
  0
LINE
  5
2CD
100
AcDbEntity
  8
BEZUGSACHSEN
100
AcDbLine
 62
7
  6
CONTINUOUS
 10
707.7246449696
 20
211.3671694223
 11
707.8676028035
 21
211.4192018186
  0
LINE
  5
2CE
100
AcDbEntity
  8
BEZUGSACHSEN
100
AcDbLine
 62
7
  6
CONTINUOUS
 10
707.7538345222
 20
210.8822509771
 11
707.9579093365
 21
210.956528135
  0
LINE
  5
2CF
100
AcDbEntity
  8
BEZUGSACHSEN
100
AcDbLine
 62
7
  6
CONTINUOUS
 10
707.632057188
 20
210.7813676617
 11
707.6904394021
 21
210.8026170499
  0
LINE
  5
2D0
100
AcDbEntity
  8
BEZUGSACHSEN
100
AcDbLine
 62
7
  6
CONTINUOUS
 10
706.6781145144
 20
210.2813198412
 11
707.3533143918
 21
210.5270724987
  0
LINE
  5
2D1
100
AcDbEntity
  8
BEZUGSACHSEN
100
AcDbLine
 62
7
  6
CONTINUOUS
 10
707.7448020172
 20
210.4879995477
 11
707.9200022626
 21
210.5517672221
  0
LINE
  5
2D2
100
AcDbEntity
  8
BEZUGSACHSEN
100
AcDbLine
 62
7
  6
CONTINUOUS
 10
691.0360787923
 20
204.3899324815
 11
704.0407912096
 21
209.1232607065
  0
LINE
  5
2D3
100
AcDbEntity
  8
BEZUGSACHSEN
100
AcDbLine
 62
7
  6
CONTINUOUS
 10
707.9328266293
 20
209.9497345432
 11
708.3016558441
 21
210.0839773989
  0
LINE
  5
2D4
100
AcDbEntity
  8
BEZUGSACHSEN
100
AcDbLine
 62
7
  6
CONTINUOUS
 10
708.4757728486
 20
209.9827037032
 11
708.6432992881
 21
210.0436783406
  0
LINE
  5
2D5
100
AcDbEntity
  8
BEZUGSACHSEN
100
AcDbLine
 62
7
  6
CONTINUOUS
 10
708.84890362
 20
209.8605552864
 11
709.0331131343
 21
209.9276020665
  0
LINE
  5
2D6
100
AcDbEntity
  8
BEZUGSACHSEN
100
AcDbLine
 62
7
  6
CONTINUOUS
 10
708.3349859603
 20
209.4368594083
 11
708.7023294587
 21
209.5705615075
  0
LINE
  5
2D7
100
AcDbEntity
  8
BEZUGSACHSEN
100
AcDbLine
 62
7
  6
CONTINUOUS
 10
709.0515579896
 20
209.5951826456
 11
709.1730947131
 21
209.6394183953
  0
LINE
  5
2D8
100
AcDbEntity
  8
BEZUGSACHSEN
100
AcDbLine
 62
7
  6
CONTINUOUS
 10
708.7677127503
 20
208.8825623558
 11
709.1220985351
 21
209.0115482329
  0
LINE
  5
2D9
100
AcDbEntity
  8
BEZUGSACHSEN
100
AcDbLine
 62
7
  6
CONTINUOUS
 10
709.0987895352
 20
208.4584702665
 11
709.426997994
 21
208.5779283761
  0
LINE
  5
2DA
100
AcDbEntity
  8
BEZUGSACHSEN
100
AcDbLine
 62
7
  6
CONTINUOUS
 10
709.8688048058
 20
208.5249935341
 11
709.9905648172
 21
208.569310554
  0
LINE
  5
2DB
100
AcDbEntity
  8
BEZUGSACHSEN
100
AcDbLine
 62
7
  6
CONTINUOUS
 10
709.3282183329
 20
208.164582672
 11
709.6160940404
 21
208.2693608607
  0
LINE
  5
2DC
100
AcDbEntity
  8
BEZUGSACHSEN
100
AcDbLine
 62
7
  6
CONTINUOUS
 10
710.4696672185
 20
207.2893150182
 11
710.6855282254
 21
207.3678819995
  0
LINE
  5
2DD
100
AcDbEntity
  8
BEZUGSACHSEN
100
AcDbLine
 62
7
  6
CONTINUOUS
 10
710.8396436863
 20
207.258305847
 11
710.999873413
 21
207.3166246981
  0
LINE
  5
2DE
100
AcDbEntity
  8
BEZUGSACHSEN
100
AcDbLine
 62
7
  6
CONTINUOUS
 10
711.2701669223
 20
206.708573151
 11
711.4180587264
 21
206.7624013656
  0
LINE
  5
2DF
100
AcDbEntity
  8
BEZUGSACHSEN
100
AcDbLine
 62
7
  6
CONTINUOUS
 10
711.1761412455
 20
206.4293568548
 11
711.3619051488
 21
206.4969693862
  0
LINE
  5
2E0
100
AcDbEntity
  8
BEZUGSACHSEN
100
AcDbLine
 62
7
  6
CONTINUOUS
 10
711.5950229992
 20
206.3031034984
 11
711.7184381627
 21
206.3480229443
  0
LINE
  5
2E1
100
AcDbEntity
  8
BEZUGSACHSEN
100
AcDbLine
 62
7
  6
CONTINUOUS
 10
711.8052260843
 20
206.0612351411
 11
711.8896554847
 21
206.0919649298
  0
LINE
  5
2E2
100
AcDbEntity
  8
BEZUGSACHSEN
100
AcDbLine
 62
7
  6
CONTINUOUS
 10
711.723446974
 20
205.7620159898
 11
711.897453511
 21
205.8253491899
  0
LINE
  5
2E3
100
AcDbEntity
  8
BEZUGSACHSEN
100
AcDbLine
 62
7
  6
CONTINUOUS
 10
712.2416099021
 20
205.1292851094
 11
712.422178994
 21
205.1950068841
  0
LINE
  5
2E4
100
AcDbEntity
  8
BEZUGSACHSEN
100
AcDbLine
 62
7
  6
CONTINUOUS
 10
712.4718134887
 20
204.8476270129
 11
712.6719542661
 21
204.9204722986
  0
LINE
  5
2E5
100
AcDbEntity
  8
BEZUGSACHSEN
100
AcDbLine
 62
7
  6
CONTINUOUS
 10
709.3187878516
 20
203.6922104348
 11
710.0380118471
 21
203.9539865609
  0
LINE
  5
2E6
100
AcDbEntity
  8
BEZUGSACHSEN
100
AcDbLine
 62
7
  6
CONTINUOUS
 10
709.2138416005
 20
203.5890281679
 11
709.9429385613
 21
203.8543977595
  0
LINE
  5
2E7
100
AcDbEntity
  8
BEZUGSACHSEN
100
AcDbLine
 62
7
  6
CONTINUOUS
 10
712.5441761258
 20
204.7590684951
 11
712.7760058253
 21
204.8434476051
  0
LINE
  5
2E8
100
AcDbEntity
  8
BEZUGSACHSEN
100
AcDbLine
 62
7
  6
CONTINUOUS
 10
709.2671955515
 20
203.2516612049
 11
710.0036748365
 21
203.5197177428
  0
LINE
  5
2E9
100
AcDbEntity
  8
BEZUGSACHSEN
100
AcDbLine
 62
7
  6
CONTINUOUS
 10
712.7434493165
 20
203.7896742365
 11
713.1093848936
 21
203.9228638942
  0
LINE
  5
2EA
100
AcDbEntity
  8
BEZUGSACHSEN
100
AcDbLine
 62
7
  6
CONTINUOUS
 10
710.7773062958
 20
202.569742673
 11
711.1354286214
 21
202.7000885397
  0
LINE
  5
2EB
100
AcDbEntity
  8
BEZUGSACHSEN
100
AcDbLine
 62
7
  6
CONTINUOUS
 10
710.9850385315
 20
202.018637407
 11
711.5854170818
 21
202.2371573286
  0
LINE
  5
2EC
100
AcDbEntity
  8
BEZUGSACHSEN
100
AcDbLine
 62
7
  6
CONTINUOUS
 10
713.1129042089
 20
202.295163315
 11
713.6296414071
 21
202.4832402742
  0
LINE
  5
2ED
100
AcDbEntity
  8
BEZUGSACHSEN
100
AcDbLine
 62
7
  6
CONTINUOUS
 10
710.0710332478
 20
200.9498892645
 11
710.8303610059
 21
201.2262619665
  0
LINE
  5
2EE
100
AcDbEntity
  8
BEZUGSACHSEN
100
AcDbLine
 62
7
  6
CONTINUOUS
 10
712.7928172182
 20
199.9210738702
 11
713.4140456696
 21
200.1471825352
  0
LINE
  5
2EF
100
AcDbEntity
  8
BEZUGSACHSEN
100
AcDbLine
 62
7
  6
CONTINUOUS
 10
710.7842806219
 20
199.0087003404
 11
711.5607097226
 21
199.2912974221
  0
LINE
  5
2F0
100
AcDbEntity
  8
BEZUGSACHSEN
100
AcDbLine
 62
7
  6
CONTINUOUS
 10
713.3315117779
 20
199.2742344523
 11
713.9396123468
 21
199.4955649588
  0
LINE
  5
2F1
100
AcDbEntity
  8
BEZUGSACHSEN
100
AcDbLine
 62
7
  6
CONTINUOUS
 10
711.050362269
 20
198.3213509837
 11
711.8320407114
 21
198.6058586695
  0
LINE
  5
2F2
100
AcDbEntity
  8
BEZUGSACHSEN
100
AcDbLine
 62
7
  6
CONTINUOUS
 10
713.7815458667
 20
198.6707294591
 11
714.3808665887
 21
198.8888643626
  0
LINE
  5
2F3
100
AcDbEntity
  8
BEZUGSACHSEN
100
AcDbLine
 62
7
  6
CONTINUOUS
 10
714.1418410395
 20
198.1101674771
 11
714.7368347011
 21
198.3267274595
  0
LINE
  5
2F4
100
AcDbEntity
  8
BEZUGSACHSEN
100
AcDbLine
 62
7
  6
CONTINUOUS
 10
714.4106861863
 20
197.5919259706
 11
715.0059332045
 21
197.8085781672
  0
LINE
  5
2F5
100
AcDbEntity
  8
BEZUGSACHSEN
100
AcDbLine
 62
7
  6
CONTINUOUS
 10
712.0585041342
 20
195.55150399
 11
712.8652311142
 21
195.8451285978
  0
LINE
  5
2F6
100
AcDbEntity
  8
0
100
AcDbLine
 62
7
  6
CONTINUOUS
 10
721.5106247606
 20
191.2068841324
 11
720.4726601791
 21
194.0586683824
  0
LINE
  5
2F7
100
AcDbEntity
  8
RUNDUNGEN
100
AcDbLine
 62
7
  6
CONTINUOUS
 10
749.7847083815
 20
124.6110326338
 11
746.8009139111
 21
132.8089405654
  0
LINE
  5
2F8
100
AcDbEntity
  8
RUNDUNGEN
100
AcDbLine
 62
7
  6
CONTINUOUS
 10
775.6765406844
 20
82.7118520348
 11
767.8549178798
 21
104.2015840739
  0
LINE
  5
2F9
100
AcDbEntity
  8
RUNDUNGEN
100
AcDbLine
 62
7
  6
CONTINUOUS
 10
721.5108396336
 20
191.2062936532
 11
721.5106450728
 21
191.2068283252
  0
LINE
  5
2FA
100
AcDbEntity
  8
RUNDUNGEN
100
AcDbLine
 62
7
  6
CONTINUOUS
 10
718.1066567536
 20
194.1028074051
 11
718.0955989408
 21
194.1333171677
  0
LINE
  5
2FB
100
AcDbEntity
  8
RUNDUNGEN
100
AcDbLine
 62
7
  6
CONTINUOUS
 10
721.6630723081
 20
190.696007106
 11
721.5108168551
 21
191.2063138431
  0
LINE
  5
2FC
100
AcDbEntity
  8
RUNDUNGEN
100
AcDbLine
 62
7
  6
CONTINUOUS
 10
737.6273516224
 20
119.9814126573
 11
738.4861491756
 21
116.5612583092
  0
LINE
  5
2FD
100
AcDbEntity
  8
RUNDUNGEN
100
AcDbLine
 62
7
  6
CONTINUOUS
 10
721.781179407
 20
189.5120160972
 11
721.7598445749
 21
190.1188159331
  0
LINE
  5
2FE
100
AcDbEntity
  8
BEZUGSACHSEN
100
AcDbLine
 62
7
  6
CONTINUOUS
 10
644.8129172682
 20
118.4440945457
 11
641.8291227979
 21
110.2461866142
  0
LINE
  5
2FF
100
AcDbEntity
  8
BEZUGSACHSEN
100
AcDbLine
 62
7
  6
CONTINUOUS
 10
642.5527657153
 20
82.9963351877
 11
634.7311429107
 21
61.5066031486
  0
LINE
  5
300
100
AcDbEntity
  8
BEZUGSACHSEN
100
AcDbLine
 62
7
  6
CONTINUOUS
 10
662.7967352107
 20
179.0100001256
 11
662.9765188715
 21
179.4347774243
  0
LINE
  5
301
100
AcDbEntity
  8
BEZUGSACHSEN
100
AcDbLine
 62
7
  6
CONTINUOUS
 10
629.5401848511
 20
114.5142902486
 11
627.9996291063
 21
111.3422755893
  0
LINE
  5
302
100
AcDbEntity
  8
BEZUGSACHSEN
100
AcDbLine
 62
7
  6
CONTINUOUS
 10
622.8437839258
 20
101.9414627648
 11
627.9996291063
 21
111.3422755893
  0
LINE
  5
303
100
AcDbEntity
  8
BEZUGSACHSEN
100
AcDbLine
 62
7
  6
CONTINUOUS
 10
662.4988012344
 20
178.4874113045
 11
662.7998506039
 21
179.0164380284
  0
LINE
  5
304
100
AcDbEntity
  8
BEZUGSACHSEN
100
AcDbLine
 62
7
  6
CONTINUOUS
 10
662.1325752827
 20
178.0064407657
 11
662.5040261409
 21
178.4953252051
  0
LINE
  5
305
100
AcDbEntity
  8
BEZUGSACHSEN
100
AcDbLine
 62
7
  6
CONTINUOUS
 10
661.7038398717
 20
177.5755884648
 11
662.1403166439
 21
178.0153474574
  0
LINE
  5
306
100
AcDbEntity
  8
RUNDUNGEN
100
AcDbLine
 62
7
  6
CONTINUOUS
 10
596.4239325029
 20
116.130546638
 11
587.2608733375
 21
108.4418270718
  0
LINE
  5
307
100
AcDbEntity
  8
BEZUGSACHSEN
100
AcDbLine
 62
7
  6
CONTINUOUS
 10
661.218801365
 20
177.2018584958
 11
661.7144294572
 21
177.5849417654
  0
LINE
  5
308
100
AcDbEntity
  8
BEZUGSACHSEN
100
AcDbLine
 62
7
  6
CONTINUOUS
 10
712.2964935319
 20
194.8539295167
 11
713.1104662542
 21
195.1501913591
  0
LINE
  5
309
100
AcDbEntity
  8
BEZUGSACHSEN
100
AcDbLine
 62
7
  6
CONTINUOUS
 10
714.681510729
 20
194.7462604498
 11
715.3552086375
 21
194.9914664354
  0
LINE
  5
30A
100
AcDbEntity
  8
BEZUGSACHSEN
100
AcDbLine
 62
7
  6
CONTINUOUS
 10
716.0718481636
 20
194.4999780563
 11
716.563098468
 21
194.6787785446
  0
LINE
  5
30B
100
AcDbEntity
  8
BEZUGSACHSEN
100
AcDbLine
 62
7
  6
CONTINUOUS
 10
715.1940951424
 20
194.1702916606
 11
715.8548677505
 21
194.4107932216
  0
LINE
  5
30C
100
AcDbEntity
  8
BEZUGSACHSEN
100
AcDbLine
 62
7
  6
CONTINUOUS
 10
715.6331633499
 20
193.5948251707
 11
716.285623698
 21
193.8323013164
  0
LINE
  5
30D
100
AcDbEntity
  8
BEZUGSACHSEN
100
AcDbLine
 62
7
  6
CONTINUOUS
 10
715.9976299231
 20
193.0194650579
 11
716.6464969513
 21
193.2556333421
  0
LINE
  5
30E
100
AcDbEntity
  8
BEZUGSACHSEN
100
AcDbLine
 62
7
  6
CONTINUOUS
 10
713.7842293257
 20
191.6233392853
 11
714.6095839052
 21
191.9237437849
  0
LINE
  5
30F
100
AcDbEntity
  8
BEZUGSACHSEN
100
AcDbLine
 62
7
  6
CONTINUOUS
 10
716.2857867686
 20
192.4435898483
 11
716.9358983601
 21
192.6802111166
  0
LINE
  5
310
100
AcDbEntity
  8
BEZUGSACHSEN
100
AcDbLine
 62
7
  6
CONTINUOUS
 10
713.6606934466
 20
191.366769229
 11
714.5008238506
 21
191.6725516889
  0
LINE
  5
311
100
AcDbEntity
  8
BEZUGSACHSEN
100
AcDbLine
 62
7
  6
CONTINUOUS
 10
716.6167657256
 20
192.0412593168
 11
717.108859467
 21
192.2203667911
  0
LINE
  5
312
100
AcDbEntity
  8
BEZUGSACHSEN
100
AcDbLine
 62
7
  6
CONTINUOUS
 10
713.7986951461
 20
190.7992810974
 11
714.6478879217
 21
191.1083619909
  0
LINE
  5
313
100
AcDbEntity
  8
BEZUGSACHSEN
100
AcDbLine
 62
7
  6
CONTINUOUS
 10
716.9711376209
 20
191.8054025704
 11
717.1653117616
 21
191.8760761779
  0
LINE
  5
314
100
AcDbEntity
  8
BEZUGSACHSEN
100
AcDbLine
 62
7
  6
CONTINUOUS
 10
715.9257524048
 20
191.2781512293
 11
716.636033412
 21
191.5366723739
  0
LINE
  5
315
100
AcDbEntity
  8
BEZUGSACHSEN
100
AcDbLine
 62
7
  6
CONTINUOUS
 10
715.1009397173
 20
190.9050453672
 11
715.4408802948
 21
191.0287736189
  0
LINE
  5
316
100
AcDbEntity
  8
BEZUGSACHSEN
100
AcDbLine
 62
7
  6
CONTINUOUS
 10
715.2027738706
 20
190.5567918113
 11
715.7533405065
 21
190.7571816788
  0
LINE
  5
317
100
AcDbEntity
  8
BEZUGSACHSEN
100
AcDbLine
 62
7
  6
CONTINUOUS
 10
716.4721889328
 20
190.8179437821
 11
717.1643688985
 21
191.0698766864
  0
LINE
  5
318
100
AcDbEntity
  8
BEZUGSACHSEN
100
AcDbLine
 62
7
  6
CONTINUOUS
 10
715.3835329129
 20
190.0880339147
 11
716.1168178176
 21
190.3549277933
  0
LINE
  5
319
100
AcDbEntity
  8
BEZUGSACHSEN
100
AcDbLine
 62
7
  6
CONTINUOUS
 10
716.8623302686
 20
190.5895071987
 11
717.5382792511
 21
190.8355325082
  0
LINE
  5
31A
100
AcDbEntity
  8
BEZUGSACHSEN
100
AcDbLine
 62
7
  6
CONTINUOUS
 10
717.1724170221
 20
190.5933309476
 11
717.8292583254
 21
190.8324016307
  0
LINE
  5
31B
100
AcDbEntity
  8
BEZUGSACHSEN
100
AcDbLine
 62
7
  6
CONTINUOUS
 10
715.6481885373
 20
189.6290197045
 11
716.4267720154
 21
189.9124009154
  0
LINE
  5
31C
100
AcDbEntity
  8
BEZUGSACHSEN
100
AcDbLine
 62
7
  6
CONTINUOUS
 10
715.9035474241
 20
189.1458300134
 11
716.6822622135
 21
189.4292590177
  0
LINE
  5
31D
100
AcDbEntity
  8
BEZUGSACHSEN
100
AcDbLine
 62
7
  6
CONTINUOUS
 10
714.9235579978
 20
187.6271500177
 11
715.8032155508
 21
187.9473191833
  0
LINE
  5
31E
100
AcDbEntity
  8
BEZUGSACHSEN
100
AcDbLine
 62
7
  6
CONTINUOUS
 10
718.5128807223
 20
187.5230760534
 11
719.1897308937
 21
187.7694293688
  0
LINE
  5
31F
100
AcDbEntity
  8
BEZUGSACHSEN
100
AcDbLine
 62
7
  6
CONTINUOUS
 10
719.9790597457
 20
183.4305559709
 11
720.7023921021
 21
183.6938274181
  0
LINE
  5
320
100
AcDbEntity
  8
BEZUGSACHSEN
100
AcDbLine
 62
7
  6
CONTINUOUS
 10
702.184337872
 20
173.7603423938
 11
715.1890502893
 21
178.4936706188
  0
LINE
  5
321
100
AcDbEntity
  8
0
100
AcDbLine
 62
7
  6
CONTINUOUS
 10
740.57926863
 20
106.0457044847
 11
738.4861491756
 21
116.5612583092
  0
LINE
  5
322
100
AcDbEntity
  8
RUNDUNGEN
100
AcDbLine
 62
7
  6
CONTINUOUS
 10
721.7607919408
 20
190.1094261029
 11
721.661437477
 21
190.7029358514
  0
LINE
  5
323
100
AcDbEntity
  8
RUNDUNGEN
100
AcDbLine
 62
7
  6
CONTINUOUS
 10
721.7232620012
 20
188.9136513661
 11
721.7815298209
 21
189.5237532318
  0
LINE
  5
324
100
AcDbEntity
  8
BEZUGSACHSEN
100
AcDbLine
 62
7
  6
CONTINUOUS
 10
709.1428240688
 20
88.1530183976
 11
711.219920953
 21
99.9328201943
  0
LINE
  5
325
100
AcDbEntity
  8
RUNDUNGEN
100
AcDbLine
 62
7
  6
CONTINUOUS
 10
721.587401602
 20
188.3233540139
 11
721.7255024885
 21
188.9275300534
  0
LINE
  5
326
100
AcDbEntity
  8
0
100
AcDbLine
 62
7
  6
CONTINUOUS
 10
766.0733705532
 20
425.7313764714
 11
766.0733705532
 21
265.7313764714
  0
LWPOLYLINE
  5
327
100
AcDbEntity
  8
RUNDUNGEN
100
AcDbPolyline
 62
7
  6
CONTINUOUS
 90
4
 70
0
 10
720.779596598
 20
186.7590959067
 10
721.0886661113
 20
187.203065582
 10
721.3752741327
 20
187.750618314
 10
721.5920791073
 20
188.3391004493
  0
LINE
  5
328
100
AcDbEntity
  8
BEZUGSACHSEN
100
AcDbLine
 62
7
  6
CONTINUOUS
 10
715.5261217312
 20
135.7405870878
 11
729.4072785367
 21
140.7929149821
  0
LINE
  5
329
100
AcDbEntity
  8
BEZUGSACHSEN
100
AcDbLine
 62
7
  6
CONTINUOUS
 10
633.0848979752
 20
59.2564053599
 11
627.1061247477
 21
54.6485405119
  0
LINE
  5
32A
100
AcDbEntity
  8
BEZUGSACHSEN
100
AcDbLine
 62
7
  6
CONTINUOUS
 10
724.147112
 20
111.3422755893
 11
738.4861491756
 21
116.5612583092
  0
LINE
  5
32B
100
AcDbEntity
  8
BEZUGSACHSEN
100
AcDbLine
 62
7
  6
CONTINUOUS
 10
740.57926863
 20
106.0457044847
 11
729.3029571805
 21
101.9414627648
  0
LINE
  5
32C
100
AcDbEntity
  8
0
100
AcDbLine
 62
7
  6
CONTINUOUS
 10
811.0733705532
 20
425.7313764714
 11
811.0733705532
 21
265.7313764714
  0
LINE
  5
32D
100
AcDbEntity
  8
RUNDUNGEN
100
AcDbLine
 62
7
  6
CONTINUOUS
 10
774.2437155813
 20
72.5570040626
 11
775.8618431576
 21
79.9299146758
  0
LINE
  5
32E
100
AcDbEntity
  8
RUNDUNGEN
100
AcDbLine
 62
7
  6
CONTINUOUS
 10
773.8046014102
 20
70.8023597037
 11
774.2437155813
 21
72.5570040627
  0
LINE
  5
32F
100
AcDbEntity
  8
KONSTRUKTIONSELEMENTE
100
AcDbLine
 62
7
  6
CONTINUOUS
 10
112.2373024695
 20
33.8163129619
 11
132.2573024695
 21
33.8163129619
  0
LINE
  5
330
100
AcDbEntity
  8
KONSTRUKTIONSELEMENTE
100
AcDbLine
 62
7
  6
CONTINUOUS
 10
111.1373024695
 20
34.7689409061
 11
112.2373024695
 21
34.7689409061
  0
LINE
  5
331
100
AcDbEntity
  8
KONSTRUKTIONSELEMENTE
100
AcDbLine
 62
7
  6
CONTINUOUS
 10
132.2573024695
 20
34.7689409061
 11
133.3573024695
 21
34.7689409061
  0
LWPOLYLINE
  5
332
100
AcDbEntity
  8
BEZUGSACHSEN
100
AcDbPolyline
 62
7
  6
CONTINUOUS
 90
4
 70
0
 10
160.6807405824
 20
48.205085875
 10
161.4827419084
 20
48.270037218
 10
162.2644305903
 20
48.4122565418
 10
163.0332163203
 20
48.6223382059
  0
LINE
  5
333
100
AcDbEntity
  8
BEZUGSACHSEN
100
AcDbLine
 62
7
  6
CONTINUOUS
 10
160.4857344902
 20
48.202392001
 11
160.6791725565
 21
48.2050399422
  0
LINE
  5
334
100
AcDbEntity
  8
BEZUGSACHSEN
100
AcDbLine
 62
7
  6
CONTINUOUS
 10
160.4843468918
 20
48.2023912591
 11
160.4857677693
 21
48.2023919977
  0
LINE
  5
335
100
AcDbEntity
  8
0
100
AcDbLine
 62
7
  6
CONTINUOUS
 10
160.487501359
 20
48.2023912454
 11
152.62231342
 21
48.2023912454
  0
LINE
  5
336
100
AcDbEntity
  8
0
100
AcDbLine
 62
7
  6
CONTINUOUS
 10
91.872291519
 20
48.2023912454
 11
84.0098721965
 21
48.2023912454
  0
LINE
  5
337
100
AcDbEntity
  8
BEZUGSACHSEN
100
AcDbLine
 62
7
  6
CONTINUOUS
 10
84.0089046813
 20
48.2023919711
 11
84.0104519263
 21
48.2023912466
  0
LINE
  5
338
100
AcDbEntity
  8
BEZUGSACHSEN
100
AcDbLine
 62
7
  6
CONTINUOUS
 10
83.8150693826
 20
48.2050692535
 11
84.0088704488
 21
48.202392001
  0
LWPOLYLINE
  5
339
100
AcDbEntity
  8
BEZUGSACHSEN
100
AcDbPolyline
 62
7
  6
CONTINUOUS
 90
3
 70
0
 10
82.2329835239
 20
48.4116112721
 10
83.0140363417
 20
48.269750545
 10
83.8150693826
 20
48.2050692535
  0
LINE
  5
33A
100
AcDbEntity
  8
BEZUGSACHSEN
100
AcDbLine
 62
7
  6
CONTINUOUS
 10
152.6151735394
 20
48.2034628913
 11
152.6204405457
 21
48.2023912454
  0
LINE
  5
33B
100
AcDbEntity
  8
BEZUGSACHSEN
100
AcDbLine
 62
7
  6
CONTINUOUS
 10
81.4613886186
 20
48.6223382059
 11
82.2301743487
 21
48.4122565418
  0
LINE
  5
33C
100
AcDbEntity
  8
BEZUGSACHSEN
100
AcDbLine
 62
7
  6
CONTINUOUS
 10
80.7034529509
 20
48.8917655441
 11
81.4648913586
 21
48.6212329661
  0
LINE
  5
33D
100
AcDbEntity
  8
BEZUGSACHSEN
100
AcDbLine
 62
7
  6
CONTINUOUS
 10
79.9431128368
 20
49.2180581686
 11
80.7077416416
 21
48.8900783873
  0
LINE
  5
33E
100
AcDbEntity
  8
BEZUGSACHSEN
100
AcDbLine
 62
7
  6
CONTINUOUS
 10
79.1707725582
 20
49.6005739866
 11
79.9483081426
 21
49.2156518816
  0
LINE
  5
33F
100
AcDbEntity
  8
BEZUGSACHSEN
100
AcDbLine
 62
7
  6
CONTINUOUS
 10
78.3775886529
 20
50.0405889771
 11
79.177038962
 21
49.5972804432
  0
LINE
  5
340
100
AcDbEntity
  8
BEZUGSACHSEN
100
AcDbLine
 62
7
  6
CONTINUOUS
 10
77.5559029901
 20
50.540557807
 11
78.3850685646
 21
50.0362347546
  0
LINE
  5
341
100
AcDbEntity
  8
BEZUGSACHSEN
100
AcDbLine
 62
7
  6
CONTINUOUS
 10
76.7002995604
 20
51.1029061555
 11
77.5647185629
 21
50.5349759121
  0
LINE
  5
342
100
AcDbEntity
  8
BEZUGSACHSEN
100
AcDbLine
 62
7
  6
CONTINUOUS
 10
91.8741643932
 20
48.2023912454
 11
91.8794313996
 21
48.2034628913
  0
LINE
  5
343
100
AcDbEntity
  8
0
100
AcDbLine
 62
7
  6
CONTINUOUS
 10
134.5973024695
 20
65.4523912454
 11
109.8973024695
 21
65.4523912454
  0
LINE
  5
344
100
AcDbEntity
  8
KONSTRUKTIONSELEMENTE
100
AcDbLine
 62
7
  6
CONTINUOUS
 10
181.8784638495
 20
63.1886314377
 11
173.2473024695
 21
64.5908486046
  0
LINE
  5
345
100
AcDbEntity
  8
KONSTRUKTIONSELEMENTE
100
AcDbLine
 62
7
  6
CONTINUOUS
 10
181.8784638495
 20
67.5187584566
 11
173.2473024695
 21
68.9209756235
  0
LINE
  5
346
100
AcDbEntity
  8
BEZUGSACHSEN
100
AcDbLine
 62
7
  6
CONTINUOUS
 10
75.8056865278
 20
51.7307786681
 11
76.7105569021
 21
51.0959342446
  0
LINE
  5
347
100
AcDbEntity
  8
BEZUGSACHSEN
100
AcDbLine
 62
7
  6
CONTINUOUS
 10
74.8696315845
 20
52.4261237714
 11
75.8174650607
 21
51.7222672632
  0
LINE
  5
348
100
AcDbEntity
  8
BEZUGSACHSEN
100
AcDbLine
 62
7
  6
CONTINUOUS
 10
73.8893516269
 20
53.1915537102
 11
74.8829334823
 21
52.4159893503
  0
LINE
  5
349
100
AcDbEntity
  8
BEZUGSACHSEN
100
AcDbLine
 62
7
  6
CONTINUOUS
 10
73.061125818
 20
53.8648858157
 11
73.9041269075
 21
53.1797556717
  0
LINE
  5
34A
100
AcDbEntity
  8
BEZUGSACHSEN
100
AcDbLine
 62
7
  6
CONTINUOUS
 10
73.0612880204
 20
53.8647508532
 11
73.0609160876
 21
53.8650583611
  0
LINE
  5
34B
100
AcDbEntity
  8
0
100
AcDbLine
 62
7
  6
CONTINUOUS
 10
134.5973024695
 20
92.9523912454
 11
109.8973024695
 21
92.9523912454
  0
LINE
  5
34C
100
AcDbEntity
  8
KONSTRUKTIONSELEMENTE
100
AcDbLine
 62
7
  6
CONTINUOUS
 10
61.1499770464
 20
106.3810858221
 11
65.9121454609
 21
107.1547469794
  0
LINE
  5
34D
100
AcDbEntity
  8
KONSTRUKTIONSELEMENTE
100
AcDbLine
 62
7
  6
CONTINUOUS
 10
61.1499770464
 20
107.3337137663
 11
65.874883352
 21
108.1013213271
  0
LINE
  5
34E
100
AcDbEntity
  8
KONSTRUKTIONSELEMENTE
100
AcDbLine
 62
7
  6
CONTINUOUS
 10
62.9287887749
 20
109.9359161429
 11
65.7844017109
 21
110.3998385867
  0
LINE
  5
34F
100
AcDbEntity
  8
KONSTRUKTIONSELEMENTE
100
AcDbLine
 62
7
  6
CONTINUOUS
 10
62.9287887749
 20
112.3607872735
 11
65.4130435483
 21
112.7643789266
  0
LINE
  5
350
100
AcDbEntity
  8
KONSTRUKTIONSELEMENTE
100
AcDbLine
 62
7
  6
CONTINUOUS
 10
203.2899811292
 20
119.2754545956
 11
216.8900893122
 21
117.0659830858
  0
LINE
  5
351
100
AcDbEntity
  8
KONSTRUKTIONSELEMENTE
100
AcDbLine
 62
7
  6
CONTINUOUS
 10
50.6464894076
 20
122.5442913166
 11
52.3460828767
 21
119.9288858967
  0
LINE
  5
352
100
AcDbEntity
  8
KONSTRUKTIONSELEMENTE
100
AcDbLine
 62
7
  6
CONTINUOUS
 10
61.1499770464
 20
106.3810858221
 11
71.2473024695
 21
90.8428997101
  0
LINE
  5
353
100
AcDbEntity
  8
KONSTRUKTIONSELEMENTE
100
AcDbLine
 62
7
  6
CONTINUOUS
 10
61.1499770464
 20
107.3337137663
 11
60.8100583526
 21
107.8567948502
  0
LINE
  5
354
100
AcDbEntity
  8
KONSTRUKTIONSELEMENTE
100
AcDbLine
 62
7
  6
CONTINUOUS
 10
63.5258904699
 20
121.0617052946
 11
53.0015942318
 21
119.3519297262
  0
LINE
  5
355
100
AcDbEntity
  8
KONSTRUKTIONSELEMENTE
100
AcDbLine
 62
7
  6
CONTINUOUS
 10
61.5089276468
 20
130.0920436164
 11
57.7089241487
 21
129.4746956252
  0
LINE
  5
356
100
AcDbEntity
  8
KONSTRUKTIONSELEMENTE
100
AcDbLine
 62
7
  6
CONTINUOUS
 10
60.5756414381
 20
134.2705490996
 11
57.7089241487
 21
133.8048226442
  0
LWPOLYLINE
  5
357
100
AcDbEntity
  8
RUNDUNGEN
100
AcDbPolyline
 62
7
  6
CONTINUOUS
 90
17
 70
0
 10
81.2473024731
 20
136.0988120278
 10
80.5850745152
 20
136.0773402006
 10
79.5587413582
 20
135.9588221445
 10
78.5504978137
 20
135.7375347447
 10
77.5710821571
 20
135.4159828897
 10
76.6305778
 20
134.9972931034
 10
75.7391635597
 20
134.4860664384
 10
74.9068447675
 20
133.8877658627
 10
74.1423337136
 20
133.2089058015
 10
73.4540495629
 20
132.4568489099
 10
72.8493121006
 20
131.6400238571
 10
72.33486018
 20
130.7678284996
 10
71.9156601361
 20
129.8499333958
 10
71.5960253453
 20
128.8967262878
 10
71.3786127983
 20
127.9182071853
 10
71.265260221
 20
126.9250958102
 10
71.2473312421
 20
126.342082328
  0
LINE
  5
358
100
AcDbEntity
  8
RUNDUNGEN
100
AcDbLine
 62
7
  6
CONTINUOUS
 10
98.0802155995
 20
136.0988398487
 11
146.5886137394
 21
136.0988398487
  0
LINE
  5
359
100
AcDbEntity
  8
RUNDUNGEN
100
AcDbLine
 62
7
  6
CONTINUOUS
 10
162.8909494329
 20
136.0988365902
 11
163.2473024696
 21
136.0988398487
  0
LINE
  5
35A
100
AcDbEntity
  8
RUNDUNGEN
100
AcDbLine
 62
7
  6
CONTINUOUS
 10
81.2473024713
 20
136.0988398487
 11
81.6040671482
 21
136.0988365458
  0
LINE
  5
35B
100
AcDbEntity
  8
RUNDUNGEN
100
AcDbLine
 62
7
  6
CONTINUOUS
 10
163.8756990814
 20
136.0794743382
 11
163.2473024677
 21
136.0988120272
  0
LINE
  5
35C
100
AcDbEntity
  8
KONSTRUKTIONSELEMENTE
100
AcDbLine
 62
7
  6
CONTINUOUS
 10
182.9856772922
 20
130.0920436164
 11
211.8935728204
 21
125.3956712995
  0
LINE
  5
35D
100
AcDbEntity
  8
KONSTRUKTIONSELEMENTE
100
AcDbLine
 62
7
  6
CONTINUOUS
 10
211.8935728204
 20
129.7257983184
 11
183.9189635009
 21
134.2705490996
  0
LINE
  5
35E
100
AcDbEntity
  8
BEZUGSACHSEN
100
AcDbLine
 62
7
  6
CONTINUOUS
 10
66.117367549
 20
101.9414627648
 11
67.594461163
 21
99.5373520484
  0
LINE
  5
35F
100
AcDbEntity
  8
RUNDUNGEN
100
AcDbLine
 62
7
  6
CONTINUOUS
 10
66.117367549
 20
106.0457044847
 11
67.594461163
 21
103.6415937684
  0
LINE
  5
360
100
AcDbEntity
  8
BEZUGSACHSEN
100
AcDbLine
 62
7
  6
CONTINUOUS
 10
65.0017348513
 20
114.5142902486
 11
65.7473024695
 21
111.3422755893
  0
LINE
  5
361
100
AcDbEntity
  8
RUNDUNGEN
100
AcDbLine
 62
7
  6
CONTINUOUS
 10
64.4608291178
 20
122.4024884082
 11
60.2473024695
 21
140.7929149821
  0
LINE
  5
362
100
AcDbEntity
  8
BEZUGSACHSEN
100
AcDbLine
 62
7
  6
CONTINUOUS
 10
64.4608291178
 20
116.8758015166
 11
60.2473024695
 21
135.7405870878
  0
LINE
  5
363
100
AcDbEntity
  8
RUNDUNGEN
100
AcDbLine
 62
7
  6
CONTINUOUS
 10
65.0017348513
 20
119.9814126573
 11
65.7473024695
 21
116.5612583092
  0
LINE
  5
364
100
AcDbEntity
  8
BEZUGSACHSEN
100
AcDbLine
 62
7
  6
CONTINUOUS
 10
66.117367549
 20
101.9414627648
 11
65.7473024695
 21
111.3422755893
  0
LINE
  5
365
100
AcDbEntity
  8
0
100
AcDbLine
 62
7
  6
CONTINUOUS
 10
66.117367549
 20
106.0457044847
 11
65.7473024695
 21
116.5612583092
  0
LINE
  5
366
100
AcDbEntity
  8
KONSTRUKTIONSELEMENTE
100
AcDbLine
 62
7
  6
CONTINUOUS
 10
50.1081110868
 20
124.2438847856
 11
50.1081110868
 21
128.5740118045
  0
LINE
  5
367
100
AcDbEntity
  8
0
100
AcDbLine
 62
7
  6
CONTINUOUS
 10
60.2473024695
 20
178.4936706188
 11
60.2473024695
 21
140.7929149821
  0
LINE
  5
368
100
AcDbEntity
  8
BEZUGSACHSEN
100
AcDbLine
 62
7
  6
CONTINUOUS
 10
60.2473024695
 20
135.7405870878
 11
60.2473024695
 21
140.7929149821
  0
LINE
  5
369
100
AcDbEntity
  8
KONSTRUKTIONSELEMENTE
100
AcDbLine
 62
7
  6
CONTINUOUS
 10
60.6485448564
 20
108.366672891
 11
60.6485448564
 21
110.7915440216
  0
LINE
  5
36A
100
AcDbEntity
  8
KONSTRUKTIONSELEMENTE
100
AcDbLine
 62
7
  6
CONTINUOUS
 10
61.1499770464
 20
106.3810858221
 11
61.1499770464
 21
107.3337137663
  0
LINE
  5
36B
100
AcDbEntity
  8
BEZUGSACHSEN
100
AcDbLine
 62
7
  6
CONTINUOUS
 10
65.7473024695
 20
111.3422755893
 11
65.7473024695
 21
116.5612583092
  0
LINE
  5
36C
100
AcDbEntity
  8
BEZUGSACHSEN
100
AcDbLine
 62
7
  6
CONTINUOUS
 10
66.117367549
 20
106.0457044847
 11
66.117367549
 21
101.9414627648
  0
LINE
  5
36D
100
AcDbEntity
  8
BEZUGSACHSEN
100
AcDbLine
 62
7
  6
CONTINUOUS
 10
71.2473024695
 20
57.7182313166
 11
71.2473024695
 21
72.1572035007
  0
LINE
  5
36E
100
AcDbEntity
  8
RUNDUNGEN
100
AcDbLine
 62
7
  6
CONTINUOUS
 10
71.2473024695
 20
57.7182313166
 11
71.2473024695
 21
126.3412513397
  0
LINE
  5
36F
100
AcDbEntity
  8
BEZUGSACHSEN
100
AcDbLine
 62
7
  6
CONTINUOUS
 10
73.7539209975
 20
187.6271500177
 11
73.7539209975
 21
187.9473191833
  0
LINE
  5
370
100
AcDbEntity
  8
BEZUGSACHSEN
100
AcDbLine
 62
7
  6
CONTINUOUS
 10
77.0125948831
 20
190.4845158255
 11
77.0125948831
 21
190.7868781135
  0
LINE
  5
371
100
AcDbEntity
  8
BEZUGSACHSEN
100
AcDbLine
 62
7
  6
CONTINUOUS
 10
77.4752432819
 20
190.7892844264
 11
77.4752432819
 21
191.0891387378
  0
LINE
  5
372
100
AcDbEntity
  8
BEZUGSACHSEN
100
AcDbLine
 62
7
  6
CONTINUOUS
 10
78.0223673769
 20
190.8731593213
 11
78.0223673769
 21
191.169664332
  0
LINE
  5
373
100
AcDbEntity
  8
BEZUGSACHSEN
100
AcDbLine
 62
7
  6
CONTINUOUS
 10
78.6539668978
 20
190.7364846403
 11
78.6539668978
 21
191.0287736189
  0
LINE
  5
374
100
AcDbEntity
  8
BEZUGSACHSEN
100
AcDbLine
 62
7
  6
CONTINUOUS
 10
79.1910238121
 20
190.4687083802
 11
79.1910238121
 21
190.7571816788
  0
LINE
  5
375
100
AcDbEntity
  8
BEZUGSACHSEN
100
AcDbLine
 62
7
  6
CONTINUOUS
 10
79.256318708
 20
194.8539295167
 11
79.256318708
 21
195.1501913591
  0
LINE
  5
376
100
AcDbEntity
  8
BEZUGSACHSEN
100
AcDbLine
 62
7
  6
CONTINUOUS
 10
79.6335371169
 20
190.0698558458
 11
79.6335371169
 21
190.3549277933
  0
LINE
  5
377
100
AcDbEntity
  8
BEZUGSACHSEN
100
AcDbLine
 62
7
  6
CONTINUOUS
 10
80.5829039231
 20
188.347436184
 11
80.5829039231
 21
188.6242039518
  0
LINE
  5
378
100
AcDbEntity
  8
BEZUGSACHSEN
100
AcDbLine
 62
7
  6
CONTINUOUS
 10
80.8122607328
 20
190.0165684528
 11
80.8122607328
 21
190.2940211614
  0
LINE
  5
379
100
AcDbEntity
  8
BEZUGSACHSEN
100
AcDbLine
 62
7
  6
CONTINUOUS
 10
82.1678058014
 20
183.4305559709
 11
82.1678058014
 21
183.6938274181
  0
LINE
  5
37A
100
AcDbEntity
  8
BEZUGSACHSEN
100
AcDbLine
 62
7
  6
CONTINUOUS
 10
82.7350649904
 20
184.2278494534
 11
82.7350649904
 21
184.4874854736
  0
LINE
  5
37B
100
AcDbEntity
  8
BEZUGSACHSEN
100
AcDbLine
 62
7
  6
CONTINUOUS
 10
82.7444862283
 20
198.3213509837
 11
82.7444862283
 21
198.6058586695
  0
LINE
  5
37C
100
AcDbEntity
  8
BEZUGSACHSEN
100
AcDbLine
 62
7
  6
CONTINUOUS
 10
84.1167388823
 20
191.2781512293
 11
84.1167388823
 21
191.5366723739
  0
LINE
  5
37D
100
AcDbEntity
  8
BEZUGSACHSEN
100
AcDbLine
 62
7
  6
CONTINUOUS
 10
85.0169499752
 20
190.8179437821
 11
85.0169499752
 21
191.0698766864
  0
LINE
  5
37E
100
AcDbEntity
  8
BEZUGSACHSEN
100
AcDbLine
 62
7
  6
CONTINUOUS
 10
85.0986448547
 20
187.5230760534
 11
85.0986448547
 21
187.7694293688
  0
LINE
  5
37F
100
AcDbEntity
  8
BEZUGSACHSEN
100
AcDbLine
 62
7
  6
CONTINUOUS
 10
85.717178984
 20
200.9498892645
 11
85.717178984
 21
201.2262619665
  0
LINE
  5
380
100
AcDbEntity
  8
BEZUGSACHSEN
100
AcDbLine
 62
7
  6
CONTINUOUS
 10
85.7604474222
 20
188.4379842227
 11
85.7604474222
 21
188.6811863542
  0
LINE
  5
381
100
AcDbEntity
  8
BEZUGSACHSEN
100
AcDbLine
 62
7
  6
CONTINUOUS
 10
85.8766455803
 20
190.5895071987
 11
85.8766455803
 21
190.8355325082
  0
LINE
  5
382
100
AcDbEntity
  8
BEZUGSACHSEN
100
AcDbLine
 62
7
  6
CONTINUOUS
 10
86.9688850553
 20
190.5933309476
 11
86.9688850553
 21
190.8324016307
  0
LINE
  5
383
100
AcDbEntity
  8
BEZUGSACHSEN
100
AcDbLine
 62
7
  6
CONTINUOUS
 10
87.6049064027
 20
194.7462604498
 11
87.6049064027
 21
194.9914664354
  0
LINE
  5
384
100
AcDbEntity
  8
BEZUGSACHSEN
100
AcDbLine
 62
7
  6
CONTINUOUS
 10
87.7475497292
 20
190.8268024456
 11
87.7475497292
 21
191.0613966688
  0
LINE
  5
385
100
AcDbEntity
  8
BEZUGSACHSEN
100
AcDbLine
 62
7
  6
CONTINUOUS
 10
88.1157848466
 20
194.1702916606
 11
88.1157848466
 21
194.4107932216
  0
LINE
  5
386
100
AcDbEntity
  8
BEZUGSACHSEN
100
AcDbLine
 62
7
  6
CONTINUOUS
 10
88.4856984454
 20
191.2900984395
 11
88.4856984454
 21
191.5210316547
  0
LINE
  5
387
100
AcDbEntity
  8
BEZUGSACHSEN
100
AcDbLine
 62
7
  6
CONTINUOUS
 10
88.9507876255
 20
191.751739826
 11
88.9507876255
 21
191.9808268215
  0
LINE
  5
388
100
AcDbEntity
  8
BEZUGSACHSEN
100
AcDbLine
 62
7
  6
CONTINUOUS
 10
89.3753608617
 20
192.4425463076
 11
89.3753608617
 21
192.6707099209
  0
LINE
  5
389
100
AcDbEntity
  8
BEZUGSACHSEN
100
AcDbLine
 62
7
  6
CONTINUOUS
 10
89.526874548
 20
193.1323575826
 11
89.526874548
 21
193.3614183376
  0
LINE
  5
38A
100
AcDbEntity
  8
BEZUGSACHSEN
100
AcDbLine
 62
7
  6
CONTINUOUS
 10
89.7405612851
 20
202.4234090718
 11
89.7405612851
 21
202.6839505848
  0
LINE
  5
38B
100
AcDbEntity
  8
0
100
AcDbLine
 62
7
  6
CONTINUOUS
 10
90.2044696388
 20
89.0964874524
 11
90.2044696388
 21
104.2015840739
  0
LINE
  5
38C
100
AcDbEntity
  8
BEZUGSACHSEN
100
AcDbLine
 62
7
  6
CONTINUOUS
 10
90.4111244861
 20
202.6657752341
 11
90.4111244861
 21
202.923881954
  0
LINE
  5
38D
100
AcDbEntity
  8
BEZUGSACHSEN
100
AcDbLine
 62
7
  6
CONTINUOUS
 10
91.076140791
 20
202.6743601515
 11
91.076140791
 21
202.9291060206
  0
LINE
  5
38E
100
AcDbEntity
  8
BEZUGSACHSEN
100
AcDbLine
 62
7
  6
CONTINUOUS
 10
91.7356105632
 20
202.4496723224
 11
91.7356105632
 21
202.7000885397
  0
LINE
  5
38F
100
AcDbEntity
  8
BEZUGSACHSEN
100
AcDbLine
 62
7
  6
CONTINUOUS
 10
91.8118959621
 20
194.4595061347
 11
91.8118959621
 21
194.6787785446
  0
LINE
  5
390
100
AcDbEntity
  8
BEZUGSACHSEN
100
AcDbLine
 62
7
  6
CONTINUOUS
 10
92.3895315286
 20
201.9920644415
 11
92.3895315286
 21
202.2371573286
  0
LINE
  5
391
100
AcDbEntity
  8
BEZUGSACHSEN
100
AcDbLine
 62
7
  6
CONTINUOUS
 10
94.3346539182
 20
199.9210738702
 11
94.3346539182
 21
200.1471825352
  0
LINE
  5
392
100
AcDbEntity
  8
BEZUGSACHSEN
100
AcDbLine
 62
7
  6
CONTINUOUS
 10
94.7181314637
 20
199.2742344523
 11
94.7181314637
 21
199.4955649588
  0
LINE
  5
393
100
AcDbEntity
  8
BEZUGSACHSEN
100
AcDbLine
 62
7
  6
CONTINUOUS
 10
95.05722938
 20
196.7636693083
 11
95.05722938
 21
196.9727868887
  0
LINE
  5
394
100
AcDbEntity
  8
BEZUGSACHSEN
100
AcDbLine
 62
7
  6
CONTINUOUS
 10
95.6036661993
 20
197.3767328358
 11
95.6036661993
 21
197.5853917185
  0
LINE
  5
395
100
AcDbEntity
  8
BEZUGSACHSEN
100
AcDbLine
 62
7
  6
CONTINUOUS
 10
95.8852049247
 20
198.0316422067
 11
95.8852049247
 21
198.2415660997
  0
LINE
  5
396
100
AcDbEntity
  8
BEZUGSACHSEN
100
AcDbLine
 62
7
  6
CONTINUOUS
 10
95.907394011
 20
198.9616940527
 11
95.907394011
 21
199.1755346605
  0
LINE
  5
397
100
AcDbEntity
  8
0
100
AcDbLine
 62
7
  6
CONTINUOUS
 10
99.7473024695
 20
538.1685523911
 11
99.7473024695
 21
153.2942005517
  0
LINE
  5
398
100
AcDbEntity
  8
KONSTRUKTIONSELEMENTE
100
AcDbLine
 62
7
  6
CONTINUOUS
 10
107.8373024695
 20
52.4804663723
 11
107.8373024695
 21
36.4189409061
  0
LINE
  5
399
100
AcDbEntity
  8
BEZUGSACHSEN
100
AcDbLine
 62
7
  6
CONTINUOUS
 10
109.8973024695
 20
87.1338104137
 11
109.8973024695
 21
53.2323467712
  0
LINE
  5
39A
100
AcDbEntity
  8
0
100
AcDbLine
 62
7
  6
CONTINUOUS
 10
109.8973024695
 20
87.1338104137
 11
109.8973024695
 21
113.8248396145
  0
LINE
  5
39B
100
AcDbEntity
  8
KONSTRUKTIONSELEMENTE
100
AcDbLine
 62
7
  6
CONTINUOUS
 10
112.2373024695
 20
33.8163129619
 11
112.2373024695
 21
51.4163129619
  0
LINE
  5
39C
100
AcDbEntity
  8
KONSTRUKTIONSELEMENTE
100
AcDbLine
 62
7
  6
CONTINUOUS
 10
132.2573024695
 20
33.8163129619
 11
132.2573024695
 21
51.4163129619
  0
LINE
  5
39D
100
AcDbEntity
  8
BEZUGSACHSEN
100
AcDbLine
 62
7
  6
CONTINUOUS
 10
134.5973024695
 20
53.2323467712
 11
134.5973024695
 21
87.1338104137
  0
LINE
  5
39E
100
AcDbEntity
  8
0
100
AcDbLine
 62
7
  6
CONTINUOUS
 10
134.5973024695
 20
87.1338104137
 11
134.5973024695
 21
113.8248396145
  0
LINE
  5
39F
100
AcDbEntity
  8
KONSTRUKTIONSELEMENTE
100
AcDbLine
 62
7
  6
CONTINUOUS
 10
136.6573024695
 20
36.4189409061
 11
136.6573024695
 21
52.3689409061
  0
LINE
  5
3A0
100
AcDbEntity
  8
0
100
AcDbLine
 62
7
  6
CONTINUOUS
 10
144.7473024695
 20
538.1685523911
 11
144.7473024695
 21
153.2942005517
  0
LINE
  5
3A1
100
AcDbEntity
  8
BEZUGSACHSEN
100
AcDbLine
 62
7
  6
CONTINUOUS
 10
144.8118083235
 20
206.546661717
 11
144.8118083235
 21
206.7815846461
  0
LINE
  5
3A2
100
AcDbEntity
  8
BEZUGSACHSEN
100
AcDbLine
 62
7
  6
CONTINUOUS
 10
144.9710567781
 20
206.8755581039
 11
144.9710567781
 21
207.112936335
  0
LINE
  5
3A3
100
AcDbEntity
  8
BEZUGSACHSEN
100
AcDbLine
 62
7
  6
CONTINUOUS
 10
145.0489279547
 20
202.9447265934
 11
145.0489279547
 21
203.1611253906
  0
LINE
  5
3A4
100
AcDbEntity
  8
BEZUGSACHSEN
100
AcDbLine
 62
7
  6
CONTINUOUS
 10
145.1323448483
 20
207.5929799264
 11
145.1323448483
 21
207.8349949187
  0
LINE
  5
3A5
100
AcDbEntity
  8
BEZUGSACHSEN
100
AcDbLine
 62
7
  6
CONTINUOUS
 10
146.1946723931
 20
194.3647629313
 11
146.1946723931
 21
194.5512162563
  0
LINE
  5
3A6
100
AcDbEntity
  8
BEZUGSACHSEN
100
AcDbLine
 62
7
  6
CONTINUOUS
 10
147.126107693
 20
201.8772904405
 11
147.126107693
 21
202.0975884649
  0
LINE
  5
3A7
100
AcDbEntity
  8
BEZUGSACHSEN
100
AcDbLine
 62
7
  6
CONTINUOUS
 10
147.6442571469
 20
202.6463798588
 11
147.6442571469
 21
202.8728729013
  0
LINE
  5
3A8
100
AcDbEntity
  8
BEZUGSACHSEN
100
AcDbLine
 62
7
  6
CONTINUOUS
 10
148.2287098889
 20
192.9401363967
 11
148.2287098889
 21
193.1328407463
  0
LINE
  5
3A9
100
AcDbEntity
  8
BEZUGSACHSEN
100
AcDbLine
 62
7
  6
CONTINUOUS
 10
152.7484611374
 20
205.8970245062
 11
152.7484611374
 21
206.1631771901
  0
LINE
  5
3AA
100
AcDbEntity
  8
BEZUGSACHSEN
100
AcDbLine
 62
7
  6
CONTINUOUS
 10
153.7238086985
 20
188.0028017588
 11
153.7238086985
 21
188.2173153612
  0
LINE
  5
3AB
100
AcDbEntity
  8
0
100
AcDbLine
 62
7
  6
CONTINUOUS
 10
154.2901353001
 20
89.0964874524
 11
154.2901353001
 21
104.2015840739
  0
LINE
  5
3AC
100
AcDbEntity
  8
BEZUGSACHSEN
100
AcDbLine
 62
7
  6
CONTINUOUS
 10
154.9421812459
 20
186.6295416561
 11
154.9421812459
 21
186.8501189574
  0
LWPOLYLINE
  5
3AD
100
AcDbEntity
  8
RUNDUNGEN
100
AcDbPolyline
 62
7
  6
CONTINUOUS
 90
16
 70
0
 10
173.2472736979
 20
126.3420774858
 10
173.227185178
 20
126.9592766923
 10
173.1102550062
 20
127.9520663749
 10
172.889294352
 20
128.9299021731
 10
172.5661909547
 20
129.8820747659
 10
172.1436432295
 20
130.7985699749
 10
171.6260182522
 20
131.6690065314
 10
171.0183210188
 20
132.4837296531
 10
170.3273416023
 20
133.2333758891
 10
169.5604279062
 20
133.9095472305
 10
168.726043989
 20
134.5049180256
 10
167.832929838
 20
135.0130097809
 10
166.891125064
 20
135.4284108286
 10
165.910823101
 20
135.7465644574
 10
164.9020952541
 20
135.96440276
 10
163.8756990814
 20
136.0794743382
  0
LINE
  5
3AE
100
AcDbEntity
  8
BEZUGSACHSEN
100
AcDbLine
 62
7
  6
CONTINUOUS
 10
156.8100186034
 20
184.8651533136
 11
156.8100186034
 21
185.0921648222
  0
LINE
  5
3AF
100
AcDbEntity
  8
BEZUGSACHSEN
100
AcDbLine
 62
7
  6
CONTINUOUS
 10
157.6734372968
 20
183.2949706419
 11
157.6734372968
 21
183.5290416084
  0
LINE
  5
3B0
100
AcDbEntity
  8
BEZUGSACHSEN
100
AcDbLine
 62
7
  6
CONTINUOUS
 10
161.3931207675
 20
199.8223046896
 11
161.3931207675
 21
200.1094871233
  0
LINE
  5
3B1
100
AcDbEntity
  8
BEZUGSACHSEN
100
AcDbLine
 62
7
  6
CONTINUOUS
 10
163.7338307146
 20
185.4387672932
 11
163.7338307146
 21
185.7119846673
  0
LINE
  5
3B2
100
AcDbEntity
  8
BEZUGSACHSEN
100
AcDbLine
 62
7
  6
CONTINUOUS
 10
166.3240867947
 20
180.6736867363
 11
166.3240867947
 21
180.9642124498
  0
LINE
  5
3B3
100
AcDbEntity
  8
BEZUGSACHSEN
100
AcDbLine
 62
7
  6
CONTINUOUS
 10
166.6333242631
 20
194.0896095007
 11
166.6333242631
 21
194.3928231003
  0
LINE
  5
3B4
100
AcDbEntity
  8
BEZUGSACHSEN
100
AcDbLine
 62
7
  6
CONTINUOUS
 10
167.3321930458
 20
179.4386726548
 11
167.3321930458
 21
179.7366992955
  0
LINE
  5
3B5
100
AcDbEntity
  8
BEZUGSACHSEN
100
AcDbLine
 62
7
  6
CONTINUOUS
 10
168.7735753318
 20
178.6710483458
 11
168.7735753318
 21
178.9791825413
  0
LINE
  5
3B6
100
AcDbEntity
  8
BEZUGSACHSEN
100
AcDbLine
 62
7
  6
CONTINUOUS
 10
169.7942241323
 20
187.5796589589
 11
169.7942241323
 21
187.8937092003
  0
LINE
  5
3B7
100
AcDbEntity
  8
BEZUGSACHSEN
100
AcDbLine
 62
7
  6
CONTINUOUS
 10
170.359645999
 20
178.271891818
 11
170.359645999
 21
178.5907059127
  0
LINE
  5
3B8
100
AcDbEntity
  8
BEZUGSACHSEN
100
AcDbLine
 62
7
  6
CONTINUOUS
 10
171.3693189383
 20
178.3086404064
 11
171.3693189383
 21
178.6339279018
  0
LINE
  5
3B9
100
AcDbEntity
  8
BEZUGSACHSEN
100
AcDbLine
 62
7
  6
CONTINUOUS
 10
172.5236802438
 20
178.7168954673
 11
172.5236802438
 21
179.0492178611
  0
LINE
  5
3BA
100
AcDbEntity
  8
BEZUGSACHSEN
100
AcDbLine
 62
7
  6
CONTINUOUS
 10
172.5283836025
 20
182.5460383779
 11
172.5283836025
 21
182.8763111133
  0
LINE
  5
3BB
100
AcDbEntity
  8
BEZUGSACHSEN
100
AcDbLine
 62
7
  6
CONTINUOUS
 10
173.2455480499
 20
179.2922990686
 11
173.2455480499
 21
179.6287722341
  0
LINE
  5
3BC
100
AcDbEntity
  8
BEZUGSACHSEN
100
AcDbLine
 62
7
  6
CONTINUOUS
 10
173.2473024695
 20
72.1572035007
 11
173.2473024695
 21
57.7182313166
  0
LINE
  5
3BD
100
AcDbEntity
  8
RUNDUNGEN
100
AcDbLine
 62
7
  6
CONTINUOUS
 10
173.2473024082
 20
126.3420774906
 11
173.2473024695
 21
57.7182313166
  0
LINE
  5
3BE
100
AcDbEntity
  8
BEZUGSACHSEN
100
AcDbLine
 62
7
  6
CONTINUOUS
 10
173.9681983768
 20
180.5066702366
 11
173.9681983768
 21
180.8469725452
  0
LINE
  5
3BF
100
AcDbEntity
  8
BEZUGSACHSEN
100
AcDbLine
 62
7
  6
CONTINUOUS
 10
174.2583568363
 20
181.8846109848
 11
174.2583568363
 21
182.2261849939
  0
LINE
  5
3C0
100
AcDbEntity
  8
BEZUGSACHSEN
100
AcDbLine
 62
7
  6
CONTINUOUS
 10
178.37723739
 20
101.9414627648
 11
178.37723739
 21
106.0457044847
  0
LINE
  5
3C1
100
AcDbEntity
  8
BEZUGSACHSEN
100
AcDbLine
 62
7
  6
CONTINUOUS
 10
178.7473024695
 20
111.3422755893
 11
178.7473024695
 21
116.5612583092
  0
LINE
  5
3C2
100
AcDbEntity
  8
KONSTRUKTIONSELEMENTE
100
AcDbLine
 62
7
  6
CONTINUOUS
 10
182.6385451557
 20
66.9956773727
 11
182.6385451557
 21
62.6655503537
  0
LINE
  5
3C3
100
AcDbEntity
  8
BEZUGSACHSEN
100
AcDbLine
 62
7
  6
CONTINUOUS
 10
184.2473024695
 20
135.7405870878
 11
184.2473024695
 21
140.7929149821
  0
LINE
  5
3C4
100
AcDbEntity
  8
0
100
AcDbLine
 62
7
  6
CONTINUOUS
 10
184.2473024695
 20
140.7929149821
 11
184.2473024695
 21
178.4936706188
  0
LINE
  5
3C5
100
AcDbEntity
  8
0
100
AcDbLine
 62
7
  6
CONTINUOUS
 10
178.37723739
 20
106.0457044847
 11
178.7473024695
 21
116.5612583092
  0
LINE
  5
3C6
100
AcDbEntity
  8
BEZUGSACHSEN
100
AcDbLine
 62
7
  6
CONTINUOUS
 10
178.37723739
 20
101.9414627648
 11
178.7473024695
 21
111.3422755893
  0
LINE
  5
3C7
100
AcDbEntity
  8
KONSTRUKTIONSELEMENTE
100
AcDbLine
 62
7
  6
CONTINUOUS
 10
219.4943858823
 20
124.4949874788
 11
219.4943858823
 21
120.1648604599
  0
LINE
  5
3C8
100
AcDbEntity
  8
RUNDUNGEN
100
AcDbLine
 62
7
  6
CONTINUOUS
 10
179.4928700876
 20
119.9814126573
 11
178.7473024695
 21
116.5612583092
  0
LINE
  5
3C9
100
AcDbEntity
  8
BEZUGSACHSEN
100
AcDbLine
 62
7
  6
CONTINUOUS
 10
180.0337758212
 20
116.8758015166
 11
184.2473024695
 21
135.7405870878
  0
LINE
  5
3CA
100
AcDbEntity
  8
RUNDUNGEN
100
AcDbLine
 62
7
  6
CONTINUOUS
 10
180.0337758212
 20
122.4024884082
 11
184.2473024695
 21
140.7929149821
  0
LINE
  5
3CB
100
AcDbEntity
  8
BEZUGSACHSEN
100
AcDbLine
 62
7
  6
CONTINUOUS
 10
179.4928700876
 20
114.5142902486
 11
178.7473024695
 21
111.3422755893
  0
LINE
  5
3CC
100
AcDbEntity
  8
RUNDUNGEN
100
AcDbLine
 62
7
  6
CONTINUOUS
 10
178.37723739
 20
106.0457044847
 11
176.900143776
 21
103.6415937684
  0
LINE
  5
3CD
100
AcDbEntity
  8
BEZUGSACHSEN
100
AcDbLine
 62
7
  6
CONTINUOUS
 10
178.37723739
 20
101.9414627648
 11
176.900143776
 21
99.5373520484
  0
LINE
  5
3CE
100
AcDbEntity
  8
KONSTRUKTIONSELEMENTE
100
AcDbLine
 62
7
  6
CONTINUOUS
 10
173.2473024695
 20
90.8428997101
 11
189.4291725118
 21
115.744237225
  0
LINE
  5
3CF
100
AcDbEntity
  8
KONSTRUKTIONSELEMENTE
100
AcDbLine
 62
7
  6
CONTINUOUS
 10
180.713903208
 20
59.6167194929
 11
182.5847073236
 21
62.4955910068
  0
LINE
  5
3D0
100
AcDbEntity
  8
KONSTRUKTIONSELEMENTE
100
AcDbLine
 62
7
  6
CONTINUOUS
 10
218.2761701739
 20
117.4191048229
 11
218.9560075615
 21
118.4652669908
  0
LINE
  5
3D1
100
AcDbEntity
  8
BEZUGSACHSEN
100
AcDbLine
 62
7
  6
CONTINUOUS
 10
171.4333169299
 20
53.8647508626
 11
171.4336693916
 21
53.8650422688
  0
LINE
  5
3D2
100
AcDbEntity
  8
BEZUGSACHSEN
100
AcDbLine
 62
7
  6
CONTINUOUS
 10
170.5904780314
 20
53.1797556717
 11
171.4334791209
 21
53.8648858157
  0
LINE
  5
3D3
100
AcDbEntity
  8
BEZUGSACHSEN
100
AcDbLine
 62
7
  6
CONTINUOUS
 10
169.6116714567
 20
52.4159893503
 11
170.605253312
 21
53.1915537102
  0
LINE
  5
3D4
100
AcDbEntity
  8
BEZUGSACHSEN
100
AcDbLine
 62
7
  6
CONTINUOUS
 10
168.6771398783
 20
51.7222672632
 11
169.6249733545
 21
52.4261237714
  0
LINE
  5
3D5
100
AcDbEntity
  8
BEZUGSACHSEN
100
AcDbLine
 62
7
  6
CONTINUOUS
 10
166.9387019489
 20
50.540557807
 11
167.7943053785
 21
51.1029061555
  0
LWPOLYLINE
  5
3D6
100
AcDbEntity
  8
BEZUGSACHSEN
100
AcDbPolyline
 62
7
  6
CONTINUOUS
 90
3
 70
0
 10
166.9298863761
 20
50.5349759121
 10
167.7840480368
 20
51.0959342446
 10
168.6889184111
 20
51.7307786681
  0
LINE
  5
3D7
100
AcDbEntity
  8
BEZUGSACHSEN
100
AcDbLine
 62
7
  6
CONTINUOUS
 10
166.1095363744
 20
50.0362347546
 11
166.9387019489
 21
50.540557807
  0
LINE
  5
3D8
100
AcDbEntity
  8
BEZUGSACHSEN
100
AcDbLine
 62
7
  6
CONTINUOUS
 10
165.3175659769
 20
49.5972804432
 11
166.1170162861
 21
50.0405889771
  0
LINE
  5
3D9
100
AcDbEntity
  8
BEZUGSACHSEN
100
AcDbLine
 62
7
  6
CONTINUOUS
 10
164.5462967964
 20
49.2156518816
 11
165.3238323808
 21
49.6005739866
  0
LINE
  5
3DA
100
AcDbEntity
  8
BEZUGSACHSEN
100
AcDbLine
 62
7
  6
CONTINUOUS
 10
163.7868632973
 20
48.8900783873
 11
164.5514921022
 21
49.2180581686
  0
LINE
  5
3DB
100
AcDbEntity
  8
BEZUGSACHSEN
100
AcDbLine
 62
7
  6
CONTINUOUS
 10
163.0297135804
 20
48.6212329661
 11
163.791151988
 21
48.8917655441
  0
ARC
  5
3DC
100
AcDbEntity
  8
BEZUGSACHSEN
100
AcDbCircle
 62
7
  6
CONTINUOUS
 10
-262.7746817966
 20
-596.2224062886
 40
1261.9755166306
100
AcDbArc
 50
39.3641196945
 51
39.490143244
  0
ARC
  5
3DD
100
AcDbEntity
  8
BEZUGSACHSEN
100
AcDbCircle
 62
7
  6
CONTINUOUS
 10
-91.1853314335
 20
-452.1289468641
 40
1038.0189223696
100
AcDbArc
 50
39.2220890897
 51
39.3907378297
  0
ARC
  5
3DE
100
AcDbEntity
  8
BEZUGSACHSEN
100
AcDbCircle
 62
7
  6
CONTINUOUS
 10
257.0037295975
 20
-115.3310613418
 40
555.0874179328
100
AcDbArc
 50
34.3958158904
 51
34.5127286338
  0
ARC
  5
3DF
100
AcDbEntity
  8
BEZUGSACHSEN
100
AcDbCircle
 62
7
  6
CONTINUOUS
 10
273.4678931022
 20
-111.6495628278
 40
538.1857393163
100
AcDbArc
 50
34.5231551649
 51
34.6425103139
  0
ARC
  5
3E0
100
AcDbEntity
  8
BEZUGSACHSEN
100
AcDbCircle
 62
7
  6
CONTINUOUS
 10
411.9119180106
 20
2.1942485609
 40
362.233134402
100
AcDbArc
 50
35.3767838945
 51
35.4929600742
  0
ARC
  5
3E1
100
AcDbEntity
  8
BEZUGSACHSEN
100
AcDbCircle
 62
7
  6
CONTINUOUS
 10
446.621917993
 20
24.6781071488
 40
318.3263350385
100
AcDbArc
 50
31.9767135113
 51
32.0991568901
  0
ARC
  5
3E2
100
AcDbEntity
  8
BEZUGSACHSEN
100
AcDbCircle
 62
7
  6
CONTINUOUS
 10
454.7912675137
 20
34.112322101
 40
307.4704356969
100
AcDbArc
 50
32.2816719309
 51
32.405659917
  0
ARC
  5
3E3
100
AcDbEntity
  8
KONSTRUKTIONSELEMENTE
100
AcDbCircle
 62
7
  6
CONTINUOUS
 10
458.7442954735
 20
140.2563764714
 40
11.55
100
AcDbArc
 50
222.5041463713
 51
300.0
  0
ARC
  5
3E4
100
AcDbEntity
  8
KONSTRUKTIONSELEMENTE
100
AcDbCircle
 62
7
  6
CONTINUOUS
 10
458.7442954735
 20
140.2563764714
 40
11.55
100
AcDbArc
 50
120.0
 51
197.4958536287
  0
ARC
  5
3E5
100
AcDbEntity
  8
KONSTRUKTIONSELEMENTE
100
AcDbCircle
 62
7
  6
CONTINUOUS
 10
458.7442954735
 20
140.2563764714
 40
4.55
100
AcDbArc
 50
243.4100243465
 51
300.0
  0
ARC
  5
3E6
100
AcDbEntity
  8
KONSTRUKTIONSELEMENTE
100
AcDbCircle
 62
7
  6
CONTINUOUS
 10
458.7442954735
 20
140.2563764714
 40
4.55
100
AcDbArc
 50
120.0
 51
176.5899756535
  0
ARC
  5
3E7
100
AcDbEntity
  8
BEZUGSACHSEN
100
AcDbCircle
 62
7
  6
CONTINUOUS
 10
1183.7529762352
 20
-396.1466492637
 40
806.7225487347
100
AcDbArc
 50
132.3001601876
 51
132.8511975674
  0
ARC
  5
3E8
100
AcDbEntity
  8
BEZUGSACHSEN
100
AcDbCircle
 62
7
  6
CONTINUOUS
 10
572.3047688234
 20
-116.1684912732
 40
337.5699211816
100
AcDbArc
 50
64.2067801668
 51
64.5422381428
  0
ARC
  5
3E9
100
AcDbEntity
  8
0
100
AcDbCircle
 62
7
  6
CONTINUOUS
 10
476.9276847164
 20
41.9817685144
 40
282.7840598024
100
AcDbArc
 50
32.2835505192
 51
32.4215471117
  0
ARC
  5
3EA
100
AcDbEntity
  8
BEZUGSACHSEN
100
AcDbCircle
 62
7
  6
CONTINUOUS
 10
597.4918559055
 20
-66.0447754002
 40
282.147078643
100
AcDbArc
 50
64.5302810889
 51
64.9631328825
  0
ARC
  5
3EB
100
AcDbEntity
  8
BEZUGSACHSEN
100
AcDbCircle
 62
7
  6
CONTINUOUS
 10
498.1857771511
 20
27.3884971854
 40
278.4104717245
100
AcDbArc
 50
39.6911364888
 51
39.8599229818
  0
ARC
  5
3EC
100
AcDbEntity
  8
0
100
AcDbCircle
 62
7
  6
CONTINUOUS
 10
482.9366054713
 20
49.9015628975
 40
274.6300264457
100
AcDbArc
 50
32.6609338409
 51
32.7999569238
  0
ARC
  5
3ED
100
AcDbEntity
  8
BEZUGSACHSEN
100
AcDbCircle
 62
7
  6
CONTINUOUS
 10
481.3877513884
 20
51.7981838244
 40
272.8576225118
100
AcDbArc
 50
30.331171682
 51
30.5024678676
  0
ARC
  5
3EE
100
AcDbEntity
  8
BEZUGSACHSEN
100
AcDbCircle
 62
7
  6
CONTINUOUS
 10
514.0431398803
 20
59.8885252337
 40
246.0632365076
100
AcDbArc
 50
38.3038223417
 51
38.4932155371
  0
ARC
  5
3EF
100
AcDbEntity
  8
BEZUGSACHSEN
100
AcDbCircle
 62
7
  6
CONTINUOUS
 10
512.2244375412
 20
72.4101427628
 40
237.7228190051
100
AcDbArc
 50
30.3901626611
 51
30.5833449017
  0
ARC
  5
3F0
100
AcDbEntity
  8
BEZUGSACHSEN
100
AcDbCircle
 62
7
  6
CONTINUOUS
 10
527.5725735034
 20
85.0614048753
 40
218.9807452939
100
AcDbArc
 50
30.920841235
 51
31.1211806181
  0
ARC
  5
3F1
100
AcDbEntity
  8
BEZUGSACHSEN
100
AcDbCircle
 62
7
  6
CONTINUOUS
 10
531.1730739519
 20
91.6392954029
 40
209.7058318533
100
AcDbArc
 50
27.7956651812
 51
27.9449895985
  0
ARC
  5
3F2
100
AcDbEntity
  8
KONSTRUKTIONSELEMENTE
100
AcDbCircle
 62
7
  6
CONTINUOUS
 10
469.0499977785
 20
146.2063764714
 40
11.55
100
AcDbArc
 50
46.1105804865
 51
120.0
  0
ARC
  5
3F3
100
AcDbEntity
  8
KONSTRUKTIONSELEMENTE
100
AcDbCircle
 62
7
  6
CONTINUOUS
 10
469.0499977785
 20
146.2063764714
 40
11.55
100
AcDbArc
 50
300.0
 51
13.8894195135
  0
ARC
  5
3F4
100
AcDbEntity
  8
KONSTRUKTIONSELEMENTE
100
AcDbCircle
 62
7
  6
CONTINUOUS
 10
491.6965620875
 20
159.2813764714
 40
10.2
100
AcDbArc
 50
120.0
 51
191.7018290247
  0
ARC
  5
3F5
100
AcDbEntity
  8
KONSTRUKTIONSELEMENTE
100
AcDbCircle
 62
7
  6
CONTINUOUS
 10
491.6965620875
 20
159.2813764714
 40
10.2
100
AcDbArc
 50
228.2981709753
 51
300.0
  0
ARC
  5
3F6
100
AcDbEntity
  8
KONSTRUKTIONSELEMENTE
100
AcDbCircle
 62
7
  6
CONTINUOUS
 10
469.0499977785
 20
146.2063764714
 40
4.55
100
AcDbArc
 50
74.7094363532
 51
120.0
  0
ARC
  5
3F7
100
AcDbEntity
  8
KONSTRUKTIONSELEMENTE
100
AcDbCircle
 62
7
  6
CONTINUOUS
 10
469.0499977785
 20
146.2063764714
 40
4.55
100
AcDbArc
 50
300.0
 51
345.2905636468
  0
ARC
  5
3F8
100
AcDbEntity
  8
KONSTRUKTIONSELEMENTE
100
AcDbCircle
 62
7
  6
CONTINUOUS
 10
491.6965620875
 20
159.2813764714
 40
3.8
100
AcDbArc
 50
120.0
 51
152.6253590191
  0
ARC
  5
3F9
100
AcDbEntity
  8
KONSTRUKTIONSELEMENTE
100
AcDbCircle
 62
7
  6
CONTINUOUS
 10
491.6965620875
 20
159.2813764714
 40
3.8
100
AcDbArc
 50
267.3746409809
 51
300.0
  0
ARC
  5
3FA
100
AcDbEntity
  8
KONSTRUKTIONSELEMENTE
100
AcDbCircle
 62
7
  6
CONTINUOUS
 10
491.1769468452
 20
158.9813764714
 40
3.2
100
AcDbArc
 50
300.0
 51
120.0
  0
ARC
  5
3FB
100
AcDbEntity
  8
KONSTRUKTIONSELEMENTE
100
AcDbCircle
 62
7
  6
CONTINUOUS
 10
470.0459269929
 20
146.7813764714
 40
3.2
100
AcDbArc
 50
120.0
 51
300.0
  0
ARC
  5
3FC
100
AcDbEntity
  8
KONSTRUKTIONSELEMENTE
100
AcDbCircle
 62
7
  6
CONTINUOUS
 10
523.6962007573
 20
177.7563764714
 40
11.55
100
AcDbArc
 50
226.1105804865
 51
300.0
  0
ARC
  5
3FD
100
AcDbEntity
  8
KONSTRUKTIONSELEMENTE
100
AcDbCircle
 62
7
  6
CONTINUOUS
 10
523.6962007573
 20
177.7563764714
 40
11.55
100
AcDbArc
 50
120.0
 51
193.8894195135
  0
ARC
  5
3FE
100
AcDbEntity
  8
KONSTRUKTIONSELEMENTE
100
AcDbCircle
 62
7
  6
CONTINUOUS
 10
500.7032262868
 20
164.4813764714
 40
10.2
100
AcDbArc
 50
300.0
 51
11.7018290247
  0
ARC
  5
3FF
100
AcDbEntity
  8
KONSTRUKTIONSELEMENTE
100
AcDbCircle
 62
7
  6
CONTINUOUS
 10
500.7032262868
 20
164.4813764714
 40
10.2
100
AcDbArc
 50
48.2981709753
 51
120.0
  0
ARC
  5
400
100
AcDbEntity
  8
KONSTRUKTIONSELEMENTE
100
AcDbCircle
 62
7
  6
CONTINUOUS
 10
523.6962007573
 20
177.7563764714
 40
4.55
100
AcDbArc
 50
254.7094363532
 51
300.0
  0
ARC
  5
401
100
AcDbEntity
  8
KONSTRUKTIONSELEMENTE
100
AcDbCircle
 62
7
  6
CONTINUOUS
 10
523.6962007573
 20
177.7563764714
 40
4.55
100
AcDbArc
 50
120.0
 51
165.2905636468
  0
ARC
  5
402
100
AcDbEntity
  8
KONSTRUKTIONSELEMENTE
100
AcDbCircle
 62
7
  6
CONTINUOUS
 10
500.7032262868
 20
164.4813764714
 40
3.8
100
AcDbArc
 50
300.0
 51
332.6253590191
  0
ARC
  5
403
100
AcDbEntity
  8
KONSTRUKTIONSELEMENTE
100
AcDbCircle
 62
7
  6
CONTINUOUS
 10
500.7032262868
 20
164.4813764714
 40
3.8
100
AcDbArc
 50
87.3746409809
 51
120.0
  0
ARC
  5
404
100
AcDbEntity
  8
KONSTRUKTIONSELEMENTE
100
AcDbCircle
 62
7
  6
CONTINUOUS
 10
522.3538613814
 20
176.9813764714
 40
3.2
100
AcDbArc
 50
300.0
 51
120.0
  0
ARC
  5
405
100
AcDbEntity
  8
KONSTRUKTIONSELEMENTE
100
AcDbCircle
 62
7
  6
CONTINUOUS
 10
501.2228415291
 20
164.7813764714
 40
3.2
100
AcDbArc
 50
120.0
 51
300.0
  0
ARC
  5
406
100
AcDbEntity
  8
0
100
AcDbCircle
 62
7
  6
CONTINUOUS
 10
547.3250581565
 20
100.3635651316
 40
190.528206839
100
AcDbArc
 50
27.7736409883
 51
27.9379899223
  0
ARC
  5
407
100
AcDbEntity
  8
RUNDUNGEN
100
AcDbCircle
 62
7
  6
CONTINUOUS
 10
593.6887494344
 20
100.7813826407
 40
10.0
100
AcDbArc
 50
129.9999999997
 51
160.0000000001
  0
ARC
  5
408
100
AcDbEntity
  8
0
100
AcDbCircle
 62
7
  6
CONTINUOUS
 10
593.6887494344
 20
100.7813826407
 40
10.0
100
AcDbArc
 50
154.7546061092
 51
160.0
  0
ARC
  5
409
100
AcDbEntity
  8
0
100
AcDbCircle
 62
7
  6
CONTINUOUS
 10
593.6887494344
 20
100.7813826407
 40
10.0
100
AcDbArc
 50
149.4974530694
 51
150.4047935636
  0
ARC
  5
40A
100
AcDbEntity
  8
0
100
AcDbCircle
 62
7
  6
CONTINUOUS
 10
593.6887494344
 20
100.7813826407
 40
10.0
100
AcDbArc
 50
140.5397074673
 51
144.751833761
  0
ARC
  5
40B
100
AcDbEntity
  8
0
100
AcDbCircle
 62
7
  6
CONTINUOUS
 10
581.1686635259
 20
81.0017513182
 40
5.0
100
AcDbArc
 50
182.5378765998
 51
186.1949260784
  0
ARC
  5
40C
100
AcDbEntity
  8
0
100
AcDbCircle
 62
7
  6
CONTINUOUS
 10
581.1686635259
 20
81.0017513182
 40
5.0
100
AcDbArc
 50
175.6953272218
 51
181.1693512333
  0
ARC
  5
40D
100
AcDbEntity
  8
0
100
AcDbCircle
 62
7
  6
CONTINUOUS
 10
581.1686635259
 20
81.0017513182
 40
5.0
100
AcDbArc
 50
164.8210478969
 51
171.3571879622
  0
ARC
  5
40E
100
AcDbEntity
  8
RUNDUNGEN
100
AcDbCircle
 62
7
  6
CONTINUOUS
 10
581.1686635259
 20
81.0017513182
 40
5.0
100
AcDbArc
 50
159.9999998778
 51
192.3784126478
  0
ARC
  5
40F
100
AcDbEntity
  8
BEZUGSACHSEN
100
AcDbCircle
 62
7
  6
CONTINUOUS
 10
575.4930446261
 20
119.8619213523
 40
160.7484210482
100
AcDbArc
 50
33.1515027398
 51
33.3750710231
  0
ARC
  5
410
100
AcDbEntity
  8
BEZUGSACHSEN
100
AcDbCircle
 62
7
  6
CONTINUOUS
 10
585.301247935
 20
126.8366971925
 40
147.1837270843
100
AcDbArc
 50
26.5741696469
 51
26.8249052538
  0
ARC
  5
411
100
AcDbEntity
  8
0
100
AcDbCircle
 62
7
  6
CONTINUOUS
 10
596.2431942019
 20
132.7363254948
 40
134.0715547403
100
AcDbArc
 50
26.5137933653
 51
26.7202090376
  0
ARC
  5
412
100
AcDbEntity
  8
BEZUGSACHSEN
100
AcDbCircle
 62
7
  6
CONTINUOUS
 10
601.1440618334
 20
136.0143509142
 40
129.2226405905
100
AcDbArc
 50
25.6645293352
 51
26.0043816316
  0
ARC
  5
413
100
AcDbEntity
  8
BEZUGSACHSEN
100
AcDbCircle
 62
7
  6
CONTINUOUS
 10
595.9451860108
 20
145.9302993152
 40
127.0094043293
100
AcDbArc
 50
20.6260906132
 51
20.8367464758
  0
ARC
  5
414
100
AcDbEntity
  8
BEZUGSACHSEN
100
AcDbCircle
 62
7
  6
CONTINUOUS
 10
596.0999091975
 20
145.9886525023
 40
126.8440430669
100
AcDbArc
 50
19.3166967047
 51
20.6260415149
  0
ARC
  5
415
100
AcDbEntity
  8
BEZUGSACHSEN
100
AcDbCircle
 62
7
  6
CONTINUOUS
 10
598.8391005545
 20
146.3432628719
 40
124.4839618828
100
AcDbArc
 50
19.6910965682
 51
20.9174694421
  0
ARC
  5
416
100
AcDbEntity
  8
0
100
AcDbCircle
 62
7
  6
CONTINUOUS
 10
602.7215692454
 20
149.6249426715
 40
118.4628804443
100
AcDbArc
 50
18.7109627444
 51
20.338857916
  0
ARC
  5
417
100
AcDbEntity
  8
RUNDUNGEN
100
AcDbCircle
 62
7
  6
CONTINUOUS
 10
583.5681803092
 20
131.4514355003
 40
20.0
100
AcDbArc
 50
310.0
 51
340.0
  0
ARC
  5
418
100
AcDbEntity
  8
RUNDUNGEN
100
AcDbCircle
 62
7
  6
CONTINUOUS
 10
608.182372103
 20
79.2023912454
 40
31.0
100
AcDbArc
 50
192.3784125141
 51
195.7219145994
  0
ARC
  5
419
100
AcDbEntity
  8
BEZUGSACHSEN
100
AcDbCircle
 62
7
  6
CONTINUOUS
 10
608.182372103
 20
79.2023912454
 40
31.0
100
AcDbArc
 50
192.3784121012
 51
307.6215874859
  0
CIRCLE
  5
41A
100
AcDbEntity
  8
0
100
AcDbCircle
 62
7
  6
CONTINUOUS
 10
608.182372103
 20
79.2023912454
 40
13.75
  0
ARC
  5
41B
100
AcDbEntity
  8
BEZUGSACHSEN
100
AcDbCircle
 62
7
  6
CONTINUOUS
 10
633.1558395074
 20
86.416536621
 40
10.0
100
AcDbArc
 50
340.0
 51
10.0
  0
ARC
  5
41C
100
AcDbEntity
  8
BEZUGSACHSEN
100
AcDbCircle
 62
7
  6
CONTINUOUS
 10
630.0326798067
 20
63.2167038653
 40
5.0
100
AcDbArc
 50
307.6215874859
 51
340.0
  0
ARC
  5
41D
100
AcDbEntity
  8
BEZUGSACHSEN
100
AcDbCircle
 62
7
  6
CONTINUOUS
 10
660.6229752136
 20
103.4057837476
 40
20.0
100
AcDbArc
 50
160.0
 51
190.0
  0
ARC
  5
41E
100
AcDbEntity
  8
BEZUGSACHSEN
100
AcDbCircle
 62
7
  6
CONTINUOUS
 10
640.1144541643
 20
120.1541952623
 40
5.0
100
AcDbArc
 50
340.0
 51
50.5195911604
  0
ARC
  5
41F
100
AcDbEntity
  8
BEZUGSACHSEN
100
AcDbCircle
 62
7
  6
CONTINUOUS
 10
606.7505303728
 20
141.9155740267
 40
121.8329190083
100
AcDbArc
 50
27.3076159212
 51
27.5821948743
  0
ARC
  5
420
100
AcDbEntity
  8
RUNDUNGEN
100
AcDbCircle
 62
7
  6
CONTINUOUS
 10
610.0442902992
 20
131.0988398487
 40
5.0
100
AcDbArc
 50
89.4878751644
 51
160.0
  0
ARC
  5
421
100
AcDbEntity
  8
RUNDUNGEN
100
AcDbCircle
 62
7
  6
CONTINUOUS
 10
609.4201906236
 20
141.07935239
 40
4.9999994675
100
AcDbArc
 50
273.5781230867
 51
339.9999090572
  0
ARC
  5
422
100
AcDbEntity
  8
BEZUGSACHSEN
100
AcDbCircle
 62
7
  6
CONTINUOUS
 10
607.1354100776
 20
147.4362604296
 40
117.3197542757
100
AcDbArc
 50
19.6722434505
 51
20.9735110248
  0
ARC
  5
423
100
AcDbEntity
  8
BEZUGSACHSEN
100
AcDbCircle
 62
7
  6
CONTINUOUS
 10
610.4587887521
 20
147.8749855362
 40
114.4489902007
100
AcDbArc
 50
20.0270667
 51
20.8576255954
  0
ARC
  5
424
100
AcDbEntity
  8
BEZUGSACHSEN
100
AcDbCircle
 62
7
  6
CONTINUOUS
 10
610.5440520035
 20
147.906486478
 40
114.3580947992
100
AcDbArc
 50
19.6636527019
 51
20.0268680383
  0
ARC
  5
425
100
AcDbEntity
  8
BEZUGSACHSEN
100
AcDbCircle
 62
7
  6
CONTINUOUS
 10
612.9995561432
 20
149.4527981732
 40
113.0551993141
100
AcDbArc
 50
33.8994393972
 51
34.1676166367
  0
ARC
  5
426
100
AcDbEntity
  8
0
100
AcDbCircle
 62
7
  6
CONTINUOUS
 10
615.9846928123
 20
146.8608974395
 40
110.7308151667
100
AcDbArc
 50
27.2676232689
 51
27.5697140999
  0
ARC
  5
427
100
AcDbEntity
  8
0
100
AcDbCircle
 62
7
  6
CONTINUOUS
 10
613.5429111945
 20
150.994155075
 40
109.2394166496
100
AcDbArc
 50
20.091938979
 51
20.4413415383
  0
ARC
  5
428
100
AcDbEntity
  8
0
100
AcDbCircle
 62
7
  6
CONTINUOUS
 10
613.5622157163
 20
151.0012235149
 40
109.218858747
100
AcDbArc
 50
19.8383166538
 51
20.091935497
  0
ARC
  5
429
100
AcDbEntity
  8
BEZUGSACHSEN
100
AcDbCircle
 62
7
  6
CONTINUOUS
 10
631.7010182522
 20
137.1937603318
 40
105.6381331952
100
AcDbArc
 50
40.6504849757
 51
40.8619917016
  0
ARC
  5
42A
100
AcDbEntity
  8
BEZUGSACHSEN
100
AcDbCircle
 62
7
  6
CONTINUOUS
 10
625.3519180514
 20
143.0495956424
 40
107.1174944243
100
AcDbArc
 50
35.5289502571
 51
35.8141470287
  0
ARC
  5
42B
100
AcDbEntity
  8
BEZUGSACHSEN
100
AcDbCircle
 62
7
  6
CONTINUOUS
 10
620.9666724583
 20
148.9735180429
 40
105.6072532736
100
AcDbArc
 50
21.5529114424
 51
22.0857466333
  0
ARC
  5
42C
100
AcDbEntity
  8
BEZUGSACHSEN
100
AcDbCircle
 62
7
  6
CONTINUOUS
 10
625.9149816678
 20
145.2699376048
 40
105.3337958437
100
AcDbArc
 50
39.3164008335
 51
39.4742505409
  0
ARC
  5
42D
100
AcDbEntity
  8
0
100
AcDbCircle
 62
7
  6
CONTINUOUS
 10
620.1250299157
 20
153.0984794153
 40
104.4512000963
100
AcDbArc
 50
34.5094618515
 51
34.8005360535
  0
ARC
  5
42E
100
AcDbEntity
  8
BEZUGSACHSEN
100
AcDbCircle
 62
7
  6
CONTINUOUS
 10
622.0452584728
 20
149.396385179
 40
104.4487652397
100
AcDbArc
 50
19.1696393476
 51
19.6312128165
  0
ARC
  5
42F
100
AcDbEntity
  8
BEZUGSACHSEN
100
AcDbCircle
 62
7
  6
CONTINUOUS
 10
622.6321633785
 20
150.7603740553
 40
103.9435951122
100
AcDbArc
 50
26.3971899976
 51
26.7747974133
  0
ARC
  5
430
100
AcDbEntity
  8
BEZUGSACHSEN
100
AcDbCircle
 62
7
  6
CONTINUOUS
 10
620.2516470453
 20
162.7501745934
 40
98.3493700264
100
AcDbArc
 50
21.3814063611
 51
21.8108741342
  0
ARC
  5
431
100
AcDbEntity
  8
BEZUGSACHSEN
100
AcDbCircle
 62
7
  6
CONTINUOUS
 10
620.8556022521
 20
162.9852788638
 40
97.7012872376
100
AcDbArc
 50
19.221249911
 51
19.6534197925
  0
ARC
  5
432
100
AcDbEntity
  8
BEZUGSACHSEN
100
AcDbCircle
 62
7
  6
CONTINUOUS
 10
630.6440590112
 20
160.0860193076
 40
92.5106303074
100
AcDbArc
 50
31.388689999
 51
31.6128299209
  0
ARC
  5
433
100
AcDbEntity
  8
0
100
AcDbCircle
 62
7
  6
CONTINUOUS
 10
625.9962138626
 20
165.7909886698
 40
91.0627950011
100
AcDbArc
 50
20.9301780121
 51
21.3939261109
  0
ARC
  5
434
100
AcDbEntity
  8
0
100
AcDbCircle
 62
7
  6
CONTINUOUS
 10
625.993132721
 20
165.7994542122
 40
91.062794941
100
AcDbArc
 50
18.606073889
 51
19.0698222092
  0
ARC
  5
435
100
AcDbEntity
  8
BEZUGSACHSEN
100
AcDbCircle
 62
7
  6
CONTINUOUS
 10
631.2482266651
 20
169.670315841
 40
86.1109361257
100
AcDbArc
 50
14.4158878525
 51
14.8038281703
  0
ARC
  5
436
100
AcDbEntity
  8
0
100
AcDbCircle
 62
7
  6
CONTINUOUS
 10
634.5090808356
 20
171.8181653708
 40
81.529906732
100
AcDbArc
 50
13.4626646708
 51
13.8730949162
  0
ARC
  5
437
100
AcDbEntity
  8
BEZUGSACHSEN
100
AcDbCircle
 62
7
  6
CONTINUOUS
 10
644.3331091062
 20
149.9364821624
 40
87.9934532871
100
AcDbArc
 50
44.2823493973
 51
44.5841408569
  0
ARC
  5
438
100
AcDbEntity
  8
BEZUGSACHSEN
100
AcDbCircle
 62
7
  6
CONTINUOUS
 10
647.0078920525
 20
127.3985478954
 40
4.9999994675
100
AcDbArc
 50
160.0000909428
 51
226.4218769133
  0
ARC
  5
439
100
AcDbEntity
  8
BEZUGSACHSEN
100
AcDbCircle
 62
7
  6
CONTINUOUS
 10
639.6495296622
 20
163.3480625951
 40
82.6653356818
100
AcDbArc
 50
20.4425106061
 51
20.7830313674
  0
ARC
  5
43A
100
AcDbEntity
  8
BEZUGSACHSEN
100
AcDbCircle
 62
7
  6
CONTINUOUS
 10
642.3971122287
 20
163.4003097862
 40
80.467823556
100
AcDbArc
 50
20.4546213927
 51
20.8044426425
  0
ARC
  5
43B
100
AcDbEntity
  8
BEZUGSACHSEN
100
AcDbCircle
 62
7
  6
CONTINUOUS
 10
647.3309292542
 20
179.6338612415
 40
67.0701841496
100
AcDbArc
 50
18.7801311816
 51
19.8214864069
  0
ARC
  5
43C
100
AcDbEntity
  8
BEZUGSACHSEN
100
AcDbCircle
 62
7
  6
CONTINUOUS
 10
647.3817995252
 20
179.6516625481
 40
67.016291499
100
AcDbArc
 50
19.8219164423
 51
20.8641274043
  0
ARC
  5
43D
100
AcDbEntity
  8
BEZUGSACHSEN
100
AcDbCircle
 62
7
  6
CONTINUOUS
 10
649.5191393523
 20
179.3277008507
 40
65.5208917296
100
AcDbArc
 50
19.2846426592
 51
19.654145945
  0
ARC
  5
43E
100
AcDbEntity
  8
BEZUGSACHSEN
100
AcDbCircle
 62
7
  6
CONTINUOUS
 10
649.5294856672
 20
179.3311758315
 40
65.5099795083
100
AcDbArc
 50
19.6845758528
 51
20.8839689434
  0
ARC
  5
43F
100
AcDbEntity
  8
BEZUGSACHSEN
100
AcDbCircle
 62
7
  6
CONTINUOUS
 10
662.0414308796
 20
177.4555926307
 40
56.7404840195
100
AcDbArc
 50
19.1741765724
 51
21.0205681625
  0
ARC
  5
440
100
AcDbEntity
  8
BEZUGSACHSEN
100
AcDbCircle
 62
7
  6
CONTINUOUS
 10
664.156068642
 20
177.1232958766
 40
55.2692658436
100
AcDbArc
 50
18.5199920048
 51
20.4155666674
  0
ARC
  5
441
100
AcDbEntity
  8
BEZUGSACHSEN
100
AcDbCircle
 62
7
  6
CONTINUOUS
 10
664.1609672544
 20
177.1242868728
 40
55.2643292461
100
AcDbArc
 50
20.4163753576
 51
21.0483550169
  0
ARC
  5
442
100
AcDbEntity
  8
BEZUGSACHSEN
100
AcDbCircle
 62
7
  6
CONTINUOUS
 10
691.5237658927
 20
103.4057837476
 40
20.0
100
AcDbArc
 50
350.0
 51
20.0
  0
ARC
  5
443
100
AcDbEntity
  8
0
100
AcDbCircle
 62
7
  6
CONTINUOUS
 10
718.3005746164
 20
86.5302929515
 40
104.06915305
100
AcDbArc
 50
90.6211248287
 51
90.7918576448
  0
ARC
  5
444
100
AcDbEntity
  8
BEZUGSACHSEN
100
AcDbCircle
 62
7
  6
CONTINUOUS
 10
718.9909015989
 20
86.416536621
 40
10.0
100
AcDbArc
 50
170.0
 51
200.0
  0
ARC
  5
445
100
AcDbEntity
  8
BEZUGSACHSEN
100
AcDbCircle
 62
7
  6
CONTINUOUS
 10
722.1140612996
 20
63.2167038653
 40
5.0
100
AcDbArc
 50
200.0
 51
232.3784125141
  0
ARC
  5
446
100
AcDbEntity
  8
BEZUGSACHSEN
100
AcDbCircle
 62
7
  6
CONTINUOUS
 10
722.9896714366
 20
118.232079474
 40
119.7835750901
100
AcDbArc
 50
132.4669904076
 51
132.8980130823
  0
ARC
  5
447
100
AcDbEntity
  8
0
100
AcDbCircle
 62
7
  6
CONTINUOUS
 10
714.726635667
 20
120.4495713463
 40
111.8053303882
100
AcDbArc
 50
130.4151956452
 51
131.6167105073
  0
ARC
  5
448
100
AcDbEntity
  8
BEZUGSACHSEN
100
AcDbCircle
 62
7
  6
CONTINUOUS
 10
716.7546077289
 20
104.4791274153
 40
86.3599608709
100
AcDbArc
 50
89.2870013811
 51
89.4800636018
  0
ARC
  5
449
100
AcDbEntity
  8
BEZUGSACHSEN
100
AcDbCircle
 62
7
  6
CONTINUOUS
 10
712.032286942
 20
120.1541952623
 40
5.0
100
AcDbArc
 50
129.4804088396
 51
200.0
  0
ARC
  5
44A
100
AcDbEntity
  8
BEZUGSACHSEN
100
AcDbCircle
 62
7
  6
CONTINUOUS
 10
734.3271604689
 20
140.2194595599
 40
112.9812016095
100
AcDbArc
 50
156.5986410155
 51
157.459622862
  0
ARC
  5
44B
100
AcDbEntity
  8
BEZUGSACHSEN
100
AcDbCircle
 62
7
  6
CONTINUOUS
 10
713.707592196
 20
125.5219367216
 40
107.8933624116
100
AcDbArc
 50
131.9225349908
 51
133.2221075961
  0
ARC
  5
44C
100
AcDbEntity
  8
BEZUGSACHSEN
100
AcDbCircle
 62
7
  6
CONTINUOUS
 10
727.1544440401
 20
142.7908887294
 40
107.5605024445
100
AcDbArc
 50
144.1861963515
 51
144.3994436658
  0
ARC
  5
44D
100
AcDbEntity
  8
BEZUGSACHSEN
100
AcDbCircle
 62
7
  6
CONTINUOUS
 10
731.2388402399
 20
153.5073367779
 40
103.7620639597
100
AcDbArc
 50
164.6559930653
 51
165.3576991141
  0
ARC
  5
44E
100
AcDbEntity
  8
0
100
AcDbCircle
 62
7
  6
CONTINUOUS
 10
736.5654219566
 20
159.6408620259
 40
102.731570049
100
AcDbArc
 50
159.5924702112
 51
160.4075297888
  0
ARC
  5
44F
100
AcDbEntity
  8
BEZUGSACHSEN
100
AcDbCircle
 62
7
  6
CONTINUOUS
 10
707.7795335922
 20
134.4689124146
 40
97.5355276381
100
AcDbArc
 50
132.8810977597
 51
134.4643255897
  0
ARC
  5
450
100
AcDbEntity
  8
BEZUGSACHSEN
100
AcDbCircle
 62
7
  6
CONTINUOUS
 10
724.4147921272
 20
162.3881707539
 40
94.3850208109
100
AcDbArc
 50
168.4286634713
 51
168.858948599
  0
ARC
  5
451
100
AcDbEntity
  8
0
100
AcDbCircle
 62
7
  6
CONTINUOUS
 10
701.4487565577
 20
135.4692171745
 40
91.7581496282
100
AcDbArc
 50
131.7337587429
 51
132.2166208829
  0
ARC
  5
452
100
AcDbEntity
  8
BEZUGSACHSEN
100
AcDbCircle
 62
7
  6
CONTINUOUS
 10
705.7180567625
 20
155.759534073
 40
82.7009747023
100
AcDbArc
 50
137.524593795
 51
137.7006462818
  0
ARC
  5
453
100
AcDbEntity
  8
BEZUGSACHSEN
100
AcDbCircle
 62
7
  6
CONTINUOUS
 10
707.725495961
 20
158.7123927747
 40
81.5590252341
100
AcDbArc
 50
158.7915792733
 51
159.8183071637
  0
ARC
  5
454
100
AcDbEntity
  8
BEZUGSACHSEN
100
AcDbCircle
 62
7
  6
CONTINUOUS
 10
704.7296417593
 20
177.237805685
 40
68.6784845893
100
AcDbArc
 50
152.4057300442
 51
152.8368999664
  0
ARC
  5
455
100
AcDbEntity
  8
BEZUGSACHSEN
100
AcDbCircle
 62
7
  6
CONTINUOUS
 10
706.7090287649
 20
179.6005450694
 40
68.6506114342
100
AcDbArc
 50
156.2862026993
 51
157.2367064475
  0
ARC
  5
456
100
AcDbEntity
  8
BEZUGSACHSEN
100
AcDbCircle
 62
7
  6
CONTINUOUS
 10
678.5567117277
 20
144.7231450221
 40
67.077305004
100
AcDbArc
 50
61.6834185629
 51
62.0092742787
  0
ARC
  5
457
100
AcDbEntity
  8
BEZUGSACHSEN
100
AcDbCircle
 62
7
  6
CONTINUOUS
 10
687.6497527248
 20
177.8342378816
 40
54.9098894794
100
AcDbArc
 50
139.735465641
 51
140.1169702685
  0
ARC
  5
458
100
AcDbEntity
  8
BEZUGSACHSEN
100
AcDbCircle
 62
7
  6
CONTINUOUS
 10
673.4842490575
 20
169.5178608088
 40
52.8111838517
100
AcDbArc
 50
42.0950112509
 51
42.4976859505
  0
ARC
  5
459
100
AcDbEntity
  8
BEZUGSACHSEN
100
AcDbCircle
 62
7
  6
CONTINUOUS
 10
680.3392552606
 20
176.2709874943
 40
49.7350208626
100
AcDbArc
 50
158.4352505015
 51
159.308591305
  0
ARC
  5
45A
100
AcDbEntity
  8
BEZUGSACHSEN
100
AcDbCircle
 62
7
  6
CONTINUOUS
 10
680.2186128497
 20
176.3167868835
 40
49.6059777392
100
AcDbArc
 50
159.3088431653
 51
160.1844970521
  0
ARC
  5
45B
100
AcDbEntity
  8
BEZUGSACHSEN
100
AcDbCircle
 62
7
  6
CONTINUOUS
 10
674.1742214933
 20
171.9922957223
 40
48.1104362258
100
AcDbArc
 50
129.0217302892
 51
129.2444952931
  0
ARC
  5
45C
100
AcDbEntity
  8
BEZUGSACHSEN
100
AcDbCircle
 62
7
  6
CONTINUOUS
 10
712.257013252
 20
165.3299602224
 40
37.6256694994
100
AcDbArc
 50
92.1514838528
 51
92.3538709628
  0
ARC
  5
45D
100
AcDbEntity
  8
BEZUGSACHSEN
100
AcDbCircle
 62
7
  6
CONTINUOUS
 10
705.1388500669
 20
127.3985398185
 40
5.0
100
AcDbArc
 50
313.5781784782
 51
20.0
  0
ARC
  5
45E
100
AcDbEntity
  8
KONSTRUKTIONSELEMENTE
100
AcDbCircle
 62
7
  6
CONTINUOUS
 10
534.0019030623
 20
183.7063764714
 40
11.55
100
AcDbArc
 50
50.2810606849
 51
120.0
  0
ARC
  5
45F
100
AcDbEntity
  8
KONSTRUKTIONSELEMENTE
100
AcDbCircle
 62
7
  6
CONTINUOUS
 10
534.0019030623
 20
183.7063764714
 40
11.55
100
AcDbArc
 50
300.0
 51
9.7189393151
  0
ARC
  5
460
100
AcDbEntity
  8
KONSTRUKTIONSELEMENTE
100
AcDbCircle
 62
7
  6
CONTINUOUS
 10
534.0019030623
 20
183.7063764714
 40
4.55
100
AcDbArc
 50
91.6976500586
 51
120.0
  0
ARC
  5
461
100
AcDbEntity
  8
KONSTRUKTIONSELEMENTE
100
AcDbCircle
 62
7
  6
CONTINUOUS
 10
534.0019030623
 20
183.7063764714
 40
4.55
100
AcDbArc
 50
300.0
 51
328.3023499414
  0
ARC
  5
462
100
AcDbEntity
  8
KONSTRUKTIONSELEMENTE
100
AcDbCircle
 62
7
  6
CONTINUOUS
 10
601.5951858277
 20
222.7313764714
 40
4.0
100
AcDbArc
 50
300.0
 51
120.0
  0
ARC
  5
463
100
AcDbEntity
  8
KONSTRUKTIONSELEMENTE
100
AcDbCircle
 62
7
  6
CONTINUOUS
 10
534.0452043325
 20
183.7313764714
 40
4.0
100
AcDbArc
 50
120.0
 51
300.0
  0
ARC
  5
464
100
AcDbEntity
  8
BEZUGSACHSEN
100
AcDbCircle
 62
7
  6
CONTINUOUS
 10
651.3628526188
 20
181.0933560072
 40
64.4888706406
100
AcDbArc
 50
8.6450716318
 51
8.916803251
  0
ARC
  5
465
100
AcDbEntity
  8
0
100
AcDbCircle
 62
7
  6
CONTINUOUS
 10
650.9690948748
 20
181.6012254576
 40
62.1885030416
100
AcDbArc
 50
18.127298966
 51
20.3737193916
  0
ARC
  5
466
100
AcDbEntity
  8
0
100
AcDbCircle
 62
7
  6
CONTINUOUS
 10
636.0257067114
 20
182.6256698963
 40
5.8358704453
100
AcDbArc
 50
132.9137990195
 51
136.6794278368
  0
ARC
  5
467
100
AcDbEntity
  8
0
100
AcDbCircle
 62
7
  6
CONTINUOUS
 10
637.7922824252
 20
189.2410757489
 40
5.241114062
100
AcDbArc
 50
131.2095220262
 51
135.1076044966
  0
ARC
  5
468
100
AcDbEntity
  8
0
100
AcDbCircle
 62
7
  6
CONTINUOUS
 10
636.3725440312
 20
192.3485676657
 40
5.0
100
AcDbArc
 50
141.8736837465
 51
160.0
  0
ARC
  5
469
100
AcDbEntity
  8
0
100
AcDbCircle
 62
7
  6
CONTINUOUS
 10
632.9462437132
 20
180.2405829731
 40
3.839518424
100
AcDbArc
 50
124.2947878053
 51
127.2962424309
  0
ARC
  5
46A
100
AcDbEntity
  8
BEZUGSACHSEN
100
AcDbCircle
 62
7
  6
CONTINUOUS
 10
652.7402345582
 20
208.640544152
 40
8.4573533283
100
AcDbArc
 50
158.9836651429
 51
159.9683881787
  0
ARC
  5
46B
100
AcDbEntity
  8
BEZUGSACHSEN
100
AcDbCircle
 62
7
  6
CONTINUOUS
 10
651.8379452647
 20
207.6174905699
 40
8.3617533492
100
AcDbArc
 50
155.1989616937
 51
156.44721398
  0
ARC
  5
46C
100
AcDbEntity
  8
BEZUGSACHSEN
100
AcDbCircle
 62
7
  6
CONTINUOUS
 10
652.5654005827
 20
209.31888458
 40
8.0122992062
100
AcDbArc
 50
172.9995107325
 51
174.7372871119
  0
ARC
  5
46D
100
AcDbEntity
  8
0
100
AcDbCircle
 62
7
  6
CONTINUOUS
 10
652.8359743
 20
209.3339817269
 40
7.5864937315
100
AcDbArc
 50
174.5743581281
 51
176.4234177003
  0
ARC
  5
46E
100
AcDbEntity
  8
BEZUGSACHSEN
100
AcDbCircle
 62
7
  6
CONTINUOUS
 10
646.6838330874
 20
202.5450134083
 40
7.3315287807
100
AcDbArc
 50
162.5403068409
 51
164.5318318197
  0
ARC
  5
46F
100
AcDbEntity
  8
BEZUGSACHSEN
100
AcDbCircle
 62
7
  6
CONTINUOUS
 10
646.6425275684
 20
202.557286245
 40
7.2884440332
100
AcDbArc
 50
156.5331982134
 51
162.5349165288
  0
ARC
  5
470
100
AcDbEntity
  8
BEZUGSACHSEN
100
AcDbCircle
 62
7
  6
CONTINUOUS
 10
645.9064236667
 20
201.6960952588
 40
7.2267047555
100
AcDbArc
 50
154.1376143925
 51
155.9424193268
  0
ARC
  5
471
100
AcDbEntity
  8
BEZUGSACHSEN
100
AcDbCircle
 62
7
  6
CONTINUOUS
 10
645.8507929283
 20
201.7257238645
 40
7.1641233178
100
AcDbArc
 50
162.0136769971
 51
164.6340603807
  0
ARC
  5
472
100
AcDbEntity
  8
BEZUGSACHSEN
100
AcDbCircle
 62
7
  6
CONTINUOUS
 10
645.8278246274
 20
201.7309768271
 40
7.1407134978
100
AcDbArc
 50
155.9408977701
 51
159.3723021311
  0
ARC
  5
473
100
AcDbEntity
  8
BEZUGSACHSEN
100
AcDbCircle
 62
7
  6
CONTINUOUS
 10
645.8022582514
 20
201.7412693517
 40
7.1131602308
100
AcDbArc
 50
159.3773427268
 51
162.0120560472
  0
ARC
  5
474
100
AcDbEntity
  8
0
100
AcDbCircle
 62
7
  6
CONTINUOUS
 10
646.607742419
 20
202.6520591965
 40
6.678246857
100
AcDbArc
 50
156.879192241
 51
160.157526153
  0
ARC
  5
475
100
AcDbEntity
  8
BEZUGSACHSEN
100
AcDbCircle
 62
7
  6
CONTINUOUS
 10
648.4996126674
 20
210.0364397282
 40
4.6106318684
100
AcDbArc
 50
187.8206682476
 51
189.3943939623
  0
ARC
  5
476
100
AcDbEntity
  8
BEZUGSACHSEN
100
AcDbCircle
 62
7
  6
CONTINUOUS
 10
648.7389208443
 20
209.9752283223
 40
4.4884145374
100
AcDbArc
 50
130.1809438697
 51
131.7572627507
  0
ARC
  5
477
100
AcDbEntity
  8
BEZUGSACHSEN
100
AcDbCircle
 62
7
  6
CONTINUOUS
 10
646.8820564854
 20
210.1300486507
 40
2.904668476
100
AcDbArc
 50
151.1150314911
 51
153.652062058
  0
ARC
  5
478
100
AcDbEntity
  8
BEZUGSACHSEN
100
AcDbCircle
 62
7
  6
CONTINUOUS
 10
645.0601316286
 20
208.9655809073
 40
2.7165447546
100
AcDbArc
 50
94.8995742418
 51
95.9742842084
  0
ARC
  5
479
100
AcDbEntity
  8
BEZUGSACHSEN
100
AcDbCircle
 62
7
  6
CONTINUOUS
 10
641.6730175531
 20
204.0564768116
 40
2.4330693969
100
AcDbArc
 50
157.7507127371
 51
161.1284418225
  0
ARC
  5
47A
100
AcDbEntity
  8
0
100
AcDbCircle
 62
7
  6
CONTINUOUS
 10
647.2324171509
 20
213.1138462259
 40
1.3575154867
100
AcDbArc
 50
214.7251867429
 51
218.0413646147
  0
ARC
  5
47B
100
AcDbEntity
  8
BEZUGSACHSEN
100
AcDbCircle
 62
7
  6
CONTINUOUS
 10
646.5067125735
 20
213.2344594924
 40
1.2303490091
100
AcDbArc
 50
212.2936701115
 51
215.7415121266
  0
ARC
  5
47C
100
AcDbEntity
  8
BEZUGSACHSEN
100
AcDbCircle
 62
7
  6
CONTINUOUS
 10
671.4627953914
 20
181.3382842713
 40
47.4344400869
100
AcDbArc
 50
11.8283293423
 51
12.3961628706
  0
ARC
  5
47D
100
AcDbEntity
  8
BEZUGSACHSEN
100
AcDbCircle
 62
7
  6
CONTINUOUS
 10
673.4117057016
 20
184.8108746402
 40
39.3940356632
100
AcDbArc
 50
135.1838568041
 51
135.6259386975
  0
ARC
  5
47E
100
AcDbEntity
  8
BEZUGSACHSEN
100
AcDbCircle
 62
7
  6
CONTINUOUS
 10
659.9403463935
 20
191.7680122854
 40
24.4119297114
100
AcDbArc
 50
146.5377667911
 51
147.1170684925
  0
ARC
  5
47F
100
AcDbEntity
  8
BEZUGSACHSEN
100
AcDbCircle
 62
7
  6
CONTINUOUS
 10
659.1082957606
 20
195.4886409851
 40
21.4445990282
100
AcDbArc
 50
157.721129125
 51
159.0767208269
  0
ARC
  5
480
100
AcDbEntity
  8
BEZUGSACHSEN
100
AcDbCircle
 62
7
  6
CONTINUOUS
 10
659.0830741048
 20
195.4991994035
 40
21.4172699228
100
AcDbArc
 50
159.0790083888
 51
162.395040637
  0
ARC
  5
481
100
AcDbEntity
  8
BEZUGSACHSEN
100
AcDbCircle
 62
7
  6
CONTINUOUS
 10
658.0649976196
 20
194.7987375029
 40
21.0353944482
100
AcDbArc
 50
156.3111265081
 51
159.371252488
  0
ARC
  5
482
100
AcDbEntity
  8
BEZUGSACHSEN
100
AcDbCircle
 62
7
  6
CONTINUOUS
 10
657.9830906265
 20
194.8318575768
 40
20.9470706295
100
AcDbArc
 50
159.3771052821
 51
162.4491481098
  0
ARC
  5
483
100
AcDbEntity
  8
0
100
AcDbCircle
 62
7
  6
CONTINUOUS
 10
658.15598881
 20
196.083556006
 40
19.7766808089
100
AcDbArc
 50
162.0009152532
 51
163.2669715281
  0
ARC
  5
484
100
AcDbEntity
  8
0
100
AcDbCircle
 62
7
  6
CONTINUOUS
 10
658.0574683959
 20
196.1141075977
 40
19.6735869779
100
AcDbArc
 50
158.1813408073
 51
158.7665833122
  0
ARC
  5
485
100
AcDbEntity
  8
0
100
AcDbCircle
 62
7
  6
CONTINUOUS
 10
658.0387859114
 20
196.1213677936
 40
19.6535433836
100
AcDbArc
 50
158.7665865715
 51
162.0009343915
  0
ARC
  5
486
100
AcDbEntity
  8
BEZUGSACHSEN
100
AcDbCircle
 62
7
  6
CONTINUOUS
 10
654.3534483488
 20
193.5153979271
 40
19.4022750927
100
AcDbArc
 50
120.1347089999
 51
120.716591969
  0
ARC
  5
487
100
AcDbEntity
  8
BEZUGSACHSEN
100
AcDbCircle
 62
7
  6
CONTINUOUS
 10
659.3164078333
 20
183.9976841827
 40
5.0
100
AcDbArc
 50
340.0
 51
358.1263162535
  0
ARC
  5
488
100
AcDbEntity
  8
0
100
AcDbCircle
 62
7
  6
CONTINUOUS
 10
673.6727633457
 20
196.8839528457
 40
31.4997880884
100
AcDbArc
 50
151.0308943361
 51
151.8198228187
  0
ARC
  5
489
100
AcDbEntity
  8
BEZUGSACHSEN
100
AcDbCircle
 62
7
  6
CONTINUOUS
 10
668.3124448022
 20
201.1095338303
 40
25.3555195453
100
AcDbArc
 50
159.3441488459
 51
159.9079366895
  0
ARC
  5
48A
100
AcDbEntity
  8
BEZUGSACHSEN
100
AcDbCircle
 62
7
  6
CONTINUOUS
 10
667.2133582382
 20
200.4417124298
 40
24.8863247125
100
AcDbArc
 50
159.1881058599
 51
159.7625284542
  0
ARC
  5
48B
100
AcDbEntity
  8
BEZUGSACHSEN
100
AcDbCircle
 62
7
  6
CONTINUOUS
 10
666.0610502849
 20
199.5734671745
 40
24.5028091361
100
AcDbArc
 50
156.9725514736
 51
157.7025792268
  0
ARC
  5
48C
100
AcDbEntity
  8
0
100
AcDbCircle
 62
7
  6
CONTINUOUS
 10
667.2319906929
 20
201.7452708195
 40
23.4003588739
100
AcDbArc
 50
159.8472820427
 51
160.4581654102
  0
ARC
  5
48D
100
AcDbEntity
  8
BEZUGSACHSEN
100
AcDbCircle
 62
7
  6
CONTINUOUS
 10
653.5655453308
 20
209.4621394362
 40
8.6166893879
100
AcDbArc
 50
159.2441609158
 51
160.2106504996
  0
ARC
  5
48E
100
AcDbEntity
  8
0
100
AcDbCircle
 62
7
  6
CONTINUOUS
 10
653.6142520681
 20
209.5267066594
 40
7.9424625656
100
AcDbArc
 50
159.7378835454
 51
160.7864186645
  0
ARC
  5
48F
100
AcDbEntity
  8
0
100
AcDbCircle
 62
7
  6
CONTINUOUS
 10
694.9945733268
 20
184.5019136275
 40
55.7680421673
100
AcDbArc
 50
153.2850253772
 51
153.8794213507
  0
ARC
  5
490
100
AcDbEntity
  8
BEZUGSACHSEN
100
AcDbCircle
 62
7
  6
CONTINUOUS
 10
680.3129799932
 20
191.2727558656
 40
40.8928045976
100
AcDbArc
 50
150.2934455918
 51
150.8509826232
  0
ARC
  5
491
100
AcDbEntity
  8
BEZUGSACHSEN
100
AcDbCircle
 62
7
  6
CONTINUOUS
 10
676.7708163928
 20
189.6929657521
 40
38.911654666
100
AcDbArc
 50
158.5279052732
 51
160.2014801898
  0
ARC
  5
492
100
AcDbEntity
  8
BEZUGSACHSEN
100
AcDbCircle
 62
7
  6
CONTINUOUS
 10
675.3800723739
 20
189.1913254494
 40
38.1115541206
100
AcDbArc
 50
158.4969806757
 51
160.2056970749
  0
ARC
  5
493
100
AcDbEntity
  8
BEZUGSACHSEN
100
AcDbCircle
 62
7
  6
CONTINUOUS
 10
675.2124741959
 20
191.8838892642
 40
37.8613666212
100
AcDbArc
 50
31.9414768481
 51
32.3725714768
  0
ARC
  5
494
100
AcDbEntity
  8
BEZUGSACHSEN
100
AcDbCircle
 62
7
  6
CONTINUOUS
 10
675.4514694856
 20
195.9034621811
 40
34.2210790145
100
AcDbArc
 50
151.2194118036
 51
151.9453059117
  0
ARC
  5
495
100
AcDbEntity
  8
BEZUGSACHSEN
100
AcDbCircle
 62
7
  6
CONTINUOUS
 10
680.5296861851
 20
198.3437574323
 40
29.9250158255
100
AcDbArc
 50
9.9602164041
 51
10.6114795861
  0
ARC
  5
496
100
AcDbEntity
  8
BEZUGSACHSEN
100
AcDbCircle
 62
7
  6
CONTINUOUS
 10
692.1429088002
 20
191.7266120662
 40
24.4877212022
100
AcDbArc
 50
32.8836313327
 51
33.6539140484
  0
ARC
  5
497
100
AcDbEntity
  8
BEZUGSACHSEN
100
AcDbCircle
 62
7
  6
CONTINUOUS
 10
695.457607466
 20
196.8910742497
 40
23.1775381799
100
AcDbArc
 50
344.8466863209
 51
345.4323624382
  0
ARC
  5
498
100
AcDbEntity
  8
BEZUGSACHSEN
100
AcDbCircle
 62
7
  6
CONTINUOUS
 10
692.8303332731
 20
183.9976841827
 40
5.0
100
AcDbArc
 50
181.8736837465
 51
200.0
  0
ARC
  5
499
100
AcDbEntity
  8
BEZUGSACHSEN
100
AcDbCircle
 62
7
  6
CONTINUOUS
 10
694.7984377089
 20
200.2805645253
 40
65.9851837683
100
AcDbArc
 50
197.3295713507
 51
197.6263360945
  0
ARC
  5
49A
100
AcDbEntity
  8
0
100
AcDbCircle
 62
7
  6
CONTINUOUS
 10
677.2770629714
 20
209.0431438337
 40
40.4502507498
100
AcDbArc
 50
334.0879808215
 51
334.4913327206
  0
ARC
  5
49B
100
AcDbEntity
  8
BEZUGSACHSEN
100
AcDbCircle
 62
7
  6
CONTINUOUS
 10
680.607559836
 20
206.4966501052
 40
36.9933404739
100
AcDbArc
 50
336.3765884006
 51
336.8005406863
  0
ARC
  5
49C
100
AcDbEntity
  8
BEZUGSACHSEN
100
AcDbCircle
 62
7
  6
CONTINUOUS
 10
694.6192985488
 20
212.0254787554
 40
30.237743567
100
AcDbArc
 50
317.9245176996
 51
318.2127974891
  0
ARC
  5
49D
100
AcDbEntity
  8
0
100
AcDbCircle
 62
7
  6
CONTINUOUS
 10
681.3141360914
 20
199.0038397955
 40
28.2739724818
100
AcDbArc
 50
8.6407117349
 51
9.3328696992
  0
ARC
  5
49E
100
AcDbEntity
  8
BEZUGSACHSEN
100
AcDbCircle
 62
7
  6
CONTINUOUS
 10
682.371426909
 20
198.5057038777
 40
28.1551428569
100
AcDbArc
 50
30.8569791129
 51
31.521674496
  0
ARC
  5
49F
100
AcDbEntity
  8
0
100
AcDbCircle
 62
7
  6
CONTINUOUS
 10
683.6627305117
 20
199.2355094759
 40
25.9969240273
100
AcDbArc
 50
31.2215961541
 51
31.9424683728
  0
ARC
  5
4A0
100
AcDbEntity
  8
BEZUGSACHSEN
100
AcDbCircle
 62
7
  6
CONTINUOUS
 10
687.5785594733
 20
200.483166068
 40
23.2615212425
100
AcDbArc
 50
5.4289030272
 51
6.0228474141
  0
ARC
  5
4A1
100
AcDbEntity
  8
BEZUGSACHSEN
100
AcDbCircle
 62
7
  6
CONTINUOUS
 10
692.1262167275
 20
205.8314455331
 40
15.9346608335
100
AcDbArc
 50
17.1383539498
 51
21.40087625
  0
ARC
  5
4A2
100
AcDbEntity
  8
BEZUGSACHSEN
100
AcDbCircle
 62
7
  6
CONTINUOUS
 10
693.0884961739
 20
205.0828057145
 40
15.6216714132
100
AcDbArc
 50
18.1690226321
 51
21.6105812605
  0
ARC
  5
4A3
100
AcDbEntity
  8
0
100
AcDbCircle
 62
7
  6
CONTINUOUS
 10
692.557952963
 20
206.140923951
 40
14.7146811166
100
AcDbArc
 50
16.3424991463
 51
20.959511986
  0
ARC
  5
4A4
100
AcDbEntity
  8
BEZUGSACHSEN
100
AcDbCircle
 62
7
  6
CONTINUOUS
 10
699.9777755136
 20
185.3365967071
 40
69.357534889
100
AcDbArc
 50
184.6310773879
 51
185.259197925
  0
ARC
  5
4A5
100
AcDbEntity
  8
BEZUGSACHSEN
100
AcDbCircle
 62
7
  6
CONTINUOUS
 10
705.9705544163
 20
179.9514488592
 40
67.835703834
100
AcDbArc
 50
161.751795947
 51
162.7129115111
  0
ARC
  5
4A6
100
AcDbEntity
  8
0
100
AcDbCircle
 62
7
  6
CONTINUOUS
 10
702.6514798221
 20
181.8159662655
 40
63.2792682694
100
AcDbArc
 50
162.4369288155
 51
163.4678379134
  0
ARC
  5
4A7
100
AcDbEntity
  8
0
100
AcDbCircle
 62
7
  6
CONTINUOUS
 10
702.6258201888
 20
181.7454670103
 40
63.2792682667
100
AcDbArc
 50
156.5321620866
 51
157.5630711845
  0
ARC
  5
4A8
100
AcDbEntity
  8
BEZUGSACHSEN
100
AcDbCircle
 62
7
  6
CONTINUOUS
 10
698.7153315582
 20
182.5396029673
 40
60.6919716147
100
AcDbArc
 50
153.2891717026
 51
153.8353654798
  0
ARC
  5
4A9
100
AcDbEntity
  8
RUNDUNGEN
100
AcDbCircle
 62
7
  6
CONTINUOUS
 10
703.5454907077
 20
188.8294941959
 40
15.4866456449
100
AcDbArc
 50
20.0278733342
 51
35.9408327858
  0
ARC
  5
4AA
100
AcDbEntity
  8
RUNDUNGEN
100
AcDbCircle
 62
7
  6
CONTINUOUS
 10
703.9827485812
 20
189.0010630956
 40
15.0170762648
100
AcDbArc
 50
19.5355034407
 51
19.8603995365
  0
ARC
  5
4AB
100
AcDbEntity
  8
0
100
AcDbCircle
 62
7
  6
CONTINUOUS
 10
715.7741970752
 20
192.3485676657
 40
5.0
100
AcDbArc
 50
20.0
 51
38.1263162535
  0
ARC
  5
4AC
100
AcDbEntity
  8
0
100
AcDbCircle
 62
7
  6
CONTINUOUS
 10
696.1558194486
 20
216.975249092
 40
18.7003436639
100
AcDbArc
 50
314.2889401665
 51
314.739867288
  0
ARC
  5
4AD
100
AcDbEntity
  8
BEZUGSACHSEN
100
AcDbCircle
 62
7
  6
CONTINUOUS
 10
698.2576437599
 20
215.1050382592
 40
16.2210673585
100
AcDbArc
 50
316.0856708518
 51
316.5719970873
  0
ARC
  5
4AE
100
AcDbEntity
  8
BEZUGSACHSEN
100
AcDbCircle
 62
7
  6
CONTINUOUS
 10
695.9273490266
 20
202.8198212357
 40
14.7336085932
100
AcDbArc
 50
18.0586167143
 51
21.7076830085
  0
ARC
  5
4AF
100
AcDbEntity
  8
BEZUGSACHSEN
100
AcDbCircle
 62
7
  6
CONTINUOUS
 10
697.065276391
 20
201.9155103634
 40
14.3758410495
100
AcDbArc
 50
18.0102284096
 51
21.356387776
  0
ARC
  5
4B0
100
AcDbEntity
  8
BEZUGSACHSEN
100
AcDbCircle
 62
7
  6
CONTINUOUS
 10
700.8890704342
 20
198.6837257946
 40
13.2960390159
100
AcDbArc
 50
23.2059595049
 51
24.6990429724
  0
ARC
  5
4B1
100
AcDbEntity
  8
BEZUGSACHSEN
100
AcDbCircle
 62
7
  6
CONTINUOUS
 10
700.9681762278
 20
198.7244679943
 40
13.2076140744
100
AcDbArc
 50
16.5344211758
 51
17.8212650337
  0
ARC
  5
4B2
100
AcDbEntity
  8
BEZUGSACHSEN
100
AcDbCircle
 62
7
  6
CONTINUOUS
 10
700.9356368147
 20
205.9460416528
 40
8.8922135644
100
AcDbArc
 50
45.0013725893
 51
45.9235136433
  0
ARC
  5
4B3
100
AcDbEntity
  8
BEZUGSACHSEN
100
AcDbCircle
 62
7
  6
CONTINUOUS
 10
706.2019957948
 20
199.5222216059
 40
8.6015147301
100
AcDbArc
 50
47.991477086
 51
48.9707013189
  0
ARC
  5
4B4
100
AcDbEntity
  8
BEZUGSACHSEN
100
AcDbCircle
 62
7
  6
CONTINUOUS
 10
704.7556380943
 20
204.0662183663
 40
7.347933447
100
AcDbArc
 50
66.4590130051
 51
67.123684949
  0
ARC
  5
4B5
100
AcDbEntity
  8
BEZUGSACHSEN
100
AcDbCircle
 62
7
  6
CONTINUOUS
 10
706.2564938151
 20
201.7036463628
 40
7.2088537894
100
AcDbArc
 50
23.2570608369
 51
25.7372521591
  0
ARC
  5
4B6
100
AcDbEntity
  8
BEZUGSACHSEN
100
AcDbCircle
 62
7
  6
CONTINUOUS
 10
706.3127478724
 20
201.7309514836
 40
7.146530517
100
AcDbArc
 50
16.6860958397
 51
17.8737586729
  0
ARC
  5
4B7
100
AcDbEntity
  8
BEZUGSACHSEN
100
AcDbCircle
 62
7
  6
CONTINUOUS
 10
706.3298762574
 20
201.7353522089
 40
7.1289149406
100
AcDbArc
 50
20.6258187332
 51
23.255823661
  0
ARC
  5
4B8
100
AcDbEntity
  8
BEZUGSACHSEN
100
AcDbCircle
 62
7
  6
CONTINUOUS
 10
706.3444828548
 20
201.7412693516
 40
7.113160231
100
AcDbArc
 50
17.9879439528
 51
20.6226572732
  0
ARC
  5
4B9
100
AcDbEntity
  8
BEZUGSACHSEN
100
AcDbCircle
 62
7
  6
CONTINUOUS
 10
703.4078202621
 20
209.9752283223
 40
4.4884145374
100
AcDbArc
 50
48.2427372493
 51
49.8190561303
  0
ARC
  5
4BA
100
AcDbEntity
  8
BEZUGSACHSEN
100
AcDbCircle
 62
7
  6
CONTINUOUS
 10
710.1192370271
 20
201.3632497795
 40
4.3783783931
100
AcDbArc
 50
52.642033779
 51
54.3362002571
  0
ARC
  5
4BB
100
AcDbEntity
  8
BEZUGSACHSEN
100
AcDbCircle
 62
7
  6
CONTINUOUS
 10
703.58345656
 20
212.2618062579
 40
2.9505315864
100
AcDbArc
 50
19.0698535157
 51
22.7840263301
  0
ARC
  5
4BC
100
AcDbEntity
  8
BEZUGSACHSEN
100
AcDbCircle
 62
7
  6
CONTINUOUS
 10
704.4627708708
 20
211.2142065377
 40
2.8847868302
100
AcDbArc
 50
19.0486782139
 51
22.8475512844
  0
ARC
  5
4BD
100
AcDbEntity
  8
BEZUGSACHSEN
100
AcDbCircle
 62
7
  6
CONTINUOUS
 10
706.6113467621
 20
208.5731706584
 40
2.7747859018
100
AcDbArc
 50
22.5979980924
 51
29.2171582901
  0
ARC
  5
4BE
100
AcDbEntity
  8
0
100
AcDbCircle
 62
7
  6
CONTINUOUS
 10
703.1447511114
 20
212.1302821609
 40
2.7178775344
100
AcDbArc
 50
18.4324043282
 51
22.4642371299
  0
ARC
  5
4BF
100
AcDbEntity
  8
BEZUGSACHSEN
100
AcDbCircle
 62
7
  6
CONTINUOUS
 10
707.5130573131
 20
207.5358112526
 40
2.6844299653
100
AcDbArc
 50
22.6435960639
 51
26.7392889424
  0
ARC
  5
4C0
100
AcDbEntity
  8
0
100
AcDbCircle
 62
7
  6
CONTINUOUS
 10
704.2840112039
 20
213.0216612953
 40
2.5836979781
100
AcDbArc
 50
321.2506019895
 51
322.9367491444
  0
ARC
  5
4C1
100
AcDbEntity
  8
BEZUGSACHSEN
100
AcDbCircle
 62
7
  6
CONTINUOUS
 10
709.5943788281
 20
205.1040647329
 40
2.4988466972
100
AcDbArc
 50
18.9012564193
 51
22.1900385782
  0
ARC
  5
4C2
100
AcDbEntity
  8
BEZUGSACHSEN
100
AcDbCircle
 62
7
  6
CONTINUOUS
 10
710.4712985822
 20
204.055560391
 40
2.4356604317
100
AcDbArc
 50
18.8735061293
 51
23.3734580712
  0
ARC
  5
4C3
100
AcDbEntity
  8
BEZUGSACHSEN
100
AcDbCircle
 62
7
  6
CONTINUOUS
 10
705.0931856134
 20
213.0286261838
 40
2.3249098488
100
AcDbArc
 50
323.5043962563
 51
325.2672267158
  0
ARC
  5
4C4
100
AcDbEntity
  8
0
100
AcDbCircle
 62
7
  6
CONTINUOUS
 10
676.0733705532
 20
265.7313764714
 40
135.0
100
AcDbArc
 50
296.3796094722
 51
360.0
  0
ARC
  5
4C5
100
AcDbEntity
  8
0
100
AcDbCircle
 62
7
  6
CONTINUOUS
 10
676.0733705532
 20
265.7313764714
 40
135.0
100
AcDbArc
 50
256.3800060327
 51
283.6199939673
  0
ARC
  5
4C6
100
AcDbEntity
  8
0
100
AcDbCircle
 62
7
  6
CONTINUOUS
 10
676.0733705532
 20
265.7313764714
 40
135.0
100
AcDbArc
 50
211.6979557727
 51
243.6203905278
  0
ARC
  5
4C7
100
AcDbEntity
  8
0
100
AcDbCircle
 62
7
  6
CONTINUOUS
 10
676.0733705532
 20
265.7313764714
 40
135.0
100
AcDbArc
 50
180.0
 51
208.3020442273
  0
ARC
  5
4C8
100
AcDbEntity
  8
BEZUGSACHSEN
100
AcDbCircle
 62
7
  6
CONTINUOUS
 10
713.3994085013
 20
243.9573002807
 40
105.0061522916
100
AcDbArc
 50
218.2287727879
 51
218.4991128962
  0
ARC
  5
4C9
100
AcDbEntity
  8
0
100
AcDbCircle
 62
7
  6
CONTINUOUS
 10
676.0733705532
 20
265.7313764714
 40
90.0
100
AcDbArc
 50
300.3032149566
 51
360.0
  0
ARC
  5
4CA
100
AcDbEntity
  8
0
100
AcDbCircle
 62
7
  6
CONTINUOUS
 10
676.0733705532
 20
265.7313764714
 40
90.0
100
AcDbArc
 50
260.3053403057
 51
279.6949102691
  0
ARC
  5
4CB
100
AcDbEntity
  8
0
100
AcDbCircle
 62
7
  6
CONTINUOUS
 10
676.0733705532
 20
265.7313764714
 40
90.0
100
AcDbArc
 50
212.5474197281
 51
239.6966749445
  0
ARC
  5
4CC
100
AcDbEntity
  8
0
100
AcDbCircle
 62
7
  6
CONTINUOUS
 10
676.0733705532
 20
265.7313764714
 40
90.0
100
AcDbArc
 50
180.0
 51
207.4523025007
  0
ARC
  5
4CD
100
AcDbEntity
  8
0
100
AcDbCircle
 62
7
  6
CONTINUOUS
 10
676.0733705532
 20
425.7313764714
 40
135.0
100
AcDbArc
 50
0.0
 51
180.0
  0
ARC
  5
4CE
100
AcDbEntity
  8
0
100
AcDbCircle
 62
7
  6
CONTINUOUS
 10
676.0733705532
 20
425.7313764714
 40
90.0
100
AcDbArc
 50
0.0
 51
180.0
  0
ARC
  5
4CF
100
AcDbEntity
  8
BEZUGSACHSEN
100
AcDbCircle
 62
7
  6
CONTINUOUS
 10
873.5248893163
 20
41.7654317963
 40
277.395744244
100
AcDbArc
 50
149.5786508876
 51
149.9084519615
  0
ARC
  5
4D0
100
AcDbEntity
  8
0
100
AcDbCircle
 62
7
  6
CONTINUOUS
 10
851.3133280979
 20
54.2622672872
 40
250.9329458206
100
AcDbArc
 50
149.4299494721
 51
149.7946828258
  0
ARC
  5
4D1
100
AcDbEntity
  8
BEZUGSACHSEN
100
AcDbCircle
 62
7
  6
CONTINUOUS
 10
778.2523741675
 20
87.8003593998
 40
181.6594422147
100
AcDbArc
 50
138.0823824802
 51
138.3435045656
  0
ARC
  5
4D2
100
AcDbEntity
  8
BEZUGSACHSEN
100
AcDbCircle
 62
7
  6
CONTINUOUS
 10
799.1601838087
 20
111.8770073561
 40
179.2245198524
100
AcDbArc
 50
156.3890918582
 51
156.888618429
  0
ARC
  5
4D3
100
AcDbEntity
  8
0
100
AcDbCircle
 62
7
  6
CONTINUOUS
 10
769.5557032476
 20
88.4269666948
 40
174.1230355682
100
AcDbArc
 50
136.5372779769
 51
136.7828360677
  0
ARC
  5
4D4
100
AcDbEntity
  8
0
100
AcDbCircle
 62
7
  6
CONTINUOUS
 10
758.4456308733
 20
98.8410606449
 40
158.895178762
100
AcDbArc
 50
136.9289406133
 51
137.1920871664
  0
ARC
  5
4D5
100
AcDbEntity
  8
BEZUGSACHSEN
100
AcDbCircle
 62
7
  6
CONTINUOUS
 10
759.4068298628
 20
102.1710959776
 40
157.914062983
100
AcDbArc
 50
137.6943828905
 51
139.0485193757
  0
ARC
  5
4D6
100
AcDbEntity
  8
BEZUGSACHSEN
100
AcDbCircle
 62
7
  6
CONTINUOUS
 10
755.062751151
 20
108.2749436971
 40
150.724585084
100
AcDbArc
 50
138.4401158918
 51
139.7185559886
  0
ARC
  5
4D7
100
AcDbEntity
  8
BEZUGSACHSEN
100
AcDbCircle
 62
7
  6
CONTINUOUS
 10
746.6146893678
 20
107.9654879533
 40
144.5339733195
100
AcDbArc
 50
134.9836397001
 51
135.2254267436
  0
ARC
  5
4D8
100
AcDbEntity
  8
0
100
AcDbCircle
 62
7
  6
CONTINUOUS
 10
745.3456010811
 20
110.9292717233
 40
141.0700453887
100
AcDbArc
 50
137.2315631698
 51
138.0268523462
  0
ARC
  5
4D9
100
AcDbEntity
  8
RUNDUNGEN
100
AcDbCircle
 62
7
  6
CONTINUOUS
 10
743.9643690033
 20
79.2023912454
 40
31.0
100
AcDbArc
 50
344.2780864737
 51
347.6215874859
  0
ARC
  5
4DA
100
AcDbEntity
  8
BEZUGSACHSEN
100
AcDbCircle
 62
7
  6
CONTINUOUS
 10
743.9643690033
 20
79.2023912454
 40
31.0
100
AcDbArc
 50
232.3784125141
 51
344.2777671557
  0
CIRCLE
  5
4DB
100
AcDbEntity
  8
0
100
AcDbCircle
 62
7
  6
CONTINUOUS
 10
743.9643690033
 20
79.2023912454
 40
13.25
  0
ARC
  5
4DC
100
AcDbEntity
  8
RUNDUNGEN
100
AcDbCircle
 62
7
  6
CONTINUOUS
 10
758.457991672
 20
100.7813826407
 40
10.0
100
AcDbArc
 50
20.0
 51
50.0
  0
ARC
  5
4DD
100
AcDbEntity
  8
0
100
AcDbCircle
 62
7
  6
CONTINUOUS
 10
758.457991672
 20
100.7813826407
 40
10.0
100
AcDbArc
 50
29.5952458584
 51
30.5025315061
  0
ARC
  5
4DE
100
AcDbEntity
  8
0
100
AcDbCircle
 62
7
  6
CONTINUOUS
 10
758.457991672
 20
100.7813826407
 40
10.0
100
AcDbArc
 50
20.0
 51
25.2454243806
  0
ARC
  5
4DF
100
AcDbEntity
  8
0
100
AcDbCircle
 62
7
  6
CONTINUOUS
 10
770.9780775805
 20
81.0017513182
 40
5.0
100
AcDbArc
 50
15.1789521031
 51
20.0
  0
ARC
  5
4E0
100
AcDbEntity
  8
0
100
AcDbCircle
 62
7
  6
CONTINUOUS
 10
770.9780775805
 20
81.0017513182
 40
5.0
100
AcDbArc
 50
8.6428120378
 51
10.1839129356
  0
ARC
  5
4E1
100
AcDbEntity
  8
RUNDUNGEN
100
AcDbCircle
 62
7
  6
CONTINUOUS
 10
770.9780775805
 20
81.0017513182
 40
5.0
100
AcDbArc
 50
347.6215874859
 51
20.0
  0
ARC
  5
4E2
100
AcDbEntity
  8
BEZUGSACHSEN
100
AcDbCircle
 62
7
  6
CONTINUOUS
 10
756.0645000438
 20
136.6789198922
 40
131.9006096562
100
AcDbArc
 50
157.8848520468
 51
160.2175427383
  0
ARC
  5
4E3
100
AcDbEntity
  8
RUNDUNGEN
100
AcDbCircle
 62
7
  6
CONTINUOUS
 10
768.5785607972
 20
131.4514355003
 40
20.0
100
AcDbArc
 50
200.0
 51
230.0
  0
ARC
  5
4E4
100
AcDbEntity
  8
RUNDUNGEN
100
AcDbCircle
 62
7
  6
CONTINUOUS
 10
742.1024508072
 20
131.0988398487
 40
5.0
100
AcDbArc
 50
20.0
 51
90.5121248894
  0
ARC
  5
4E5
100
AcDbEntity
  8
0
100
AcDbCircle
 62
7
  6
CONTINUOUS
 10
766.9411917306
 20
137.2665881871
 40
138.9278359234
100
AcDbArc
 50
157.8422904283
 51
160.639751065
  0
ARC
  5
4E6
100
AcDbEntity
  8
BEZUGSACHSEN
100
AcDbCircle
 62
7
  6
CONTINUOUS
 10
759.3692870099
 20
138.1843799676
 40
135.9093836155
100
AcDbArc
 50
147.1043997751
 51
147.3495280798
  0
ARC
  5
4E7
100
AcDbEntity
  8
BEZUGSACHSEN
100
AcDbCircle
 62
7
  6
CONTINUOUS
 10
750.5928189193
 20
137.7302741852
 40
127.0027007088
100
AcDbArc
 50
157.8024800661
 51
160.0976892693
  0
ARC
  5
4E8
100
AcDbEntity
  8
0
100
AcDbCircle
 62
7
  6
CONTINUOUS
 10
750.2189587404
 20
142.9262512468
 40
124.9762686654
100
AcDbArc
 50
146.5800547802
 51
146.8471806041
  0
ARC
  5
4E9
100
AcDbEntity
  8
0
100
AcDbCircle
 62
7
  6
CONTINUOUS
 10
748.9057489818
 20
140.7040558179
 40
122.9247856888
100
AcDbArc
 50
158.3524563877
 51
160.2293982607
  0
ARC
  5
4EA
100
AcDbEntity
  8
0
100
AcDbCircle
 62
7
  6
CONTINUOUS
 10
748.6759783182
 20
140.7904433413
 40
122.6793380139
100
AcDbArc
 50
160.2310675728
 51
160.6958437526
  0
ARC
  5
4EB
100
AcDbEntity
  8
BEZUGSACHSEN
100
AcDbCircle
 62
7
  6
CONTINUOUS
 10
742.6383699934
 20
156.3781771506
 40
110.4384187968
100
AcDbArc
 50
159.1078579754
 51
159.8660688659
  0
ARC
  5
4EC
100
AcDbEntity
  8
RUNDUNGEN
100
AcDbCircle
 62
7
  6
CONTINUOUS
 10
742.7265548984
 20
141.0793455515
 40
5.0
100
AcDbArc
 50
200.0
 51
266.4218215218
  0
ARC
  5
4ED
100
AcDbEntity
  8
BEZUGSACHSEN
100
AcDbCircle
 62
7
  6
CONTINUOUS
 10
795.14819876
 20
117.3296814497
 40
176.7241698153
100
AcDbArc
 50
148.6390506855
 51
148.8542024298
  0
ARC
  5
4EE
100
AcDbEntity
  8
0
100
AcDbCircle
 62
7
  6
CONTINUOUS
 10
788.5243309654
 20
117.5588782282
 40
166.217781833
100
AcDbArc
 50
156.693801114
 51
157.2322462074
  0
ARC
  5
4EF
100
AcDbEntity
  8
0
100
AcDbCircle
 62
7
  6
CONTINUOUS
 10
782.2687832252
 20
124.0827423703
 40
161.5063105509
100
AcDbArc
 50
148.2563269273
 51
148.4920611432
  0
ARC
  5
4F0
100
AcDbEntity
  8
BEZUGSACHSEN
100
AcDbCircle
 62
7
  6
CONTINUOUS
 10
776.365667131
 20
132.3547502741
 40
150.4460919306
100
AcDbArc
 50
157.476915419
 51
158.4080052691
  0
ARC
  5
4F1
100
AcDbEntity
  8
BEZUGSACHSEN
100
AcDbCircle
 62
7
  6
CONTINUOUS
 10
774.2733783799
 20
133.1821547004
 40
148.1961430582
100
AcDbArc
 50
158.4077704656
 51
160.0853839858
  0
ARC
  5
4F2
100
AcDbEntity
  8
BEZUGSACHSEN
100
AcDbCircle
 62
7
  6
CONTINUOUS
 10
769.8481941163
 20
134.0090214947
 40
144.2578094878
100
AcDbArc
 50
158.0664838632
 51
160.1992826883
  0
ARC
  5
4F3
100
AcDbEntity
  8
BEZUGSACHSEN
100
AcDbCircle
 62
7
  6
CONTINUOUS
 10
859.4882572498
 20
70.0696749081
 40
256.485642743
100
AcDbArc
 50
147.3112304368
 51
147.4459468365
  0
ARC
  5
4F4
100
AcDbEntity
  8
BEZUGSACHSEN
100
AcDbCircle
 62
7
  6
CONTINUOUS
 10
819.292679513
 20
93.6059212546
 40
210.5804202488
100
AcDbArc
 50
146.055795384
 51
146.204537135
  0
ARC
  5
4F5
100
AcDbEntity
  8
BEZUGSACHSEN
100
AcDbCircle
 62
7
  6
CONTINUOUS
 10
805.6360101865
 20
76.0153371334
 40
210.5057712925
100
AcDbArc
 50
139.6313106091
 51
139.8338619728
  0
ARC
  5
4F6
100
AcDbEntity
  8
BEZUGSACHSEN
100
AcDbCircle
 62
7
  6
CONTINUOUS
 10
812.1161347504
 20
97.585766326
 40
197.3760675876
100
AcDbArc
 50
154.3976956504
 51
154.6877591002
  0
ARC
  5
4F7
100
AcDbEntity
  8
BEZUGSACHSEN
100
AcDbCircle
 62
7
  6
CONTINUOUS
 10
1013.2346901257
 20
-40.3466104729
 40
445.4782996973
100
AcDbArc
 50
146.0042137954
 51
146.1436460549
  0
ARC
  5
4F8
100
AcDbEntity
  8
0
100
AcDbCircle
 62
7
  6
CONTINUOUS
 10
976.1052391888
 20
-20.0802188395
 40
402.6870708088
100
AcDbArc
 50
145.4163294316
 51
145.570974639
  0
ARC
  5
4F9
100
AcDbEntity
  8
BEZUGSACHSEN
100
AcDbCircle
 62
7
  6
CONTINUOUS
 10
968.4872345425
 20
-13.3850305647
 40
394.0335068757
100
AcDbArc
 50
145.1975244638
 51
145.3461881871
  0
ARC
  5
4FA
100
AcDbEntity
  8
BEZUGSACHSEN
100
AcDbCircle
 62
7
  6
CONTINUOUS
 10
949.5789444641
 20
-40.7017544182
 40
385.9795656406
100
AcDbArc
 50
144.9710107798
 51
145.191548071
  0
ARC
  5
4FB
100
AcDbEntity
  8
0
100
AcDbCircle
 62
7
  6
CONTINUOUS
 10
938.7885415708
 20
2.3215623535
 40
360.0384292949
100
AcDbArc
 50
144.5243170061
 51
144.687527335
  0
ARC
  5
4FC
100
AcDbEntity
  8
0
100
AcDbCircle
 62
7
  6
CONTINUOUS
 10
912.4342076225
 20
-17.4853885341
 40
341.2858968975
100
AcDbArc
 50
144.5399276173
 51
144.7898362719
  0
ARC
  5
4FD
100
AcDbEntity
  8
BEZUGSACHSEN
100
AcDbCircle
 62
7
  6
CONTINUOUS
 10
911.9881424727
 20
2.3993982594
 40
331.2053523514
100
AcDbArc
 50
147.1674676875
 51
147.3198432515
  0
ARC
  5
4FE
100
AcDbEntity
  8
BEZUGSACHSEN
100
AcDbCircle
 62
7
  6
CONTINUOUS
 10
2254.7023288821
 20
-2050.696500289
 40
2763.3915026463
100
AcDbArc
 50
125.8214880096
 51
125.9850741409
  0
ARC
  5
4FF
100
AcDbEntity
  8
BEZUGSACHSEN
100
AcDbCircle
 62
7
  6
CONTINUOUS
 10
2646.0239190144
 20
-1340.3472092749
 40
2530.2519221715
100
AcDbArc
 50
142.3230945727
 51
142.6388969273
  0
ARC
  5
500
100
AcDbEntity
  8
0
100
AcDbCircle
 62
7
  6
CONTINUOUS
 10
2450.6253794635
 20
-1231.0512389762
 40
2308.2940409208
100
AcDbArc
 50
141.4999544122
 51
141.7676897607
  0
ARC
  5
501
100
AcDbEntity
  8
0
100
AcDbCircle
 62
7
  6
CONTINUOUS
 10
1521.1223552573
 20
-820.86101255
 40
1347.0973816808
100
AcDbArc
 50
130.7389537463
 51
131.1697161618
  0
ARC
  5
502
100
AcDbEntity
  8
BEZUGSACHSEN
100
AcDbCircle
 62
7
  6
CONTINUOUS
 10
1444.7150059374
 20
-688.9196024559
 40
1198.3365428605
100
AcDbArc
 50
132.1076784501
 51
132.491073494
  0
ARC
  5
503
100
AcDbEntity
  8
BEZUGSACHSEN
100
AcDbCircle
 62
7
  6
CONTINUOUS
 10
-725.5635916197
 20
-303.4631683509
 40
1022.8361612175
100
AcDbArc
 50
28.4406465385
 51
28.8442484823
  0
ARC
  5
504
100
AcDbEntity
  8
BEZUGSACHSEN
100
AcDbCircle
 62
7
  6
CONTINUOUS
 10
-703.2933532616
 20
-291.1365734661
 40
995.8674256702
100
AcDbArc
 50
28.423170861
 51
28.7519185479
  0
ARC
  5
505
100
AcDbEntity
  8
0
100
AcDbCircle
 62
7
  6
CONTINUOUS
 10
-654.9889700324
 20
-263.6850374374
 40
940.1633600552
100
AcDbArc
 50
28.335354896
 51
28.6844491611
  0
ARC
  5
506
100
AcDbEntity
  8
BEZUGSACHSEN
100
AcDbCircle
 62
7
  6
CONTINUOUS
 10
-631.4731102606
 20
-251.4243367972
 40
909.2549499081
100
AcDbArc
 50
28.4201550212
 51
28.7800732858
  0
ARC
  5
507
100
AcDbEntity
  8
BEZUGSACHSEN
100
AcDbCircle
 62
7
  6
CONTINUOUS
 10
-602.4526982251
 20
-235.3791307754
 40
874.2765721632
100
AcDbArc
 50
28.4384676076
 51
28.7929079258
  0
ARC
  5
508
100
AcDbEntity
  8
0
100
AcDbCircle
 62
7
  6
CONTINUOUS
 10
-505.7559118305
 20
-330.5265324594
 40
857.44154488
100
AcDbArc
 50
36.4164558688
 51
39.0038130308
  0
ARC
  5
509
100
AcDbEntity
  8
0
100
AcDbCircle
 62
7
  6
CONTINUOUS
 10
-558.6415751845
 20
-210.3247406702
 40
823.6837871922
100
AcDbArc
 50
28.339481675
 51
28.7167500668
  0
ARC
  5
50A
100
AcDbEntity
  8
BEZUGSACHSEN
100
AcDbCircle
 62
7
  6
CONTINUOUS
 10
-404.2764552057
 20
-312.5546359865
 40
763.5009512552
100
AcDbArc
 50
41.6039303459
 51
41.7414464832
  0
ARC
  5
50B
100
AcDbEntity
  8
BEZUGSACHSEN
100
AcDbCircle
 62
7
  6
CONTINUOUS
 10
-503.4758940139
 20
-180.6484357326
 40
754.8136679307
100
AcDbArc
 50
28.8470652392
 51
28.9826153112
  0
ARC
  5
50C
100
AcDbEntity
  8
BEZUGSACHSEN
100
AcDbCircle
 62
7
  6
CONTINUOUS
 10
-408.1126837908
 20
-291.8248820041
 40
743.9805986954
100
AcDbArc
 50
39.33369563
 51
39.4560235174
  0
ARC
  5
50D
100
AcDbEntity
  8
0
100
AcDbCircle
 62
7
  6
CONTINUOUS
 10
-386.2249091839
 20
-271.385017844
 40
713.9099840622
100
AcDbArc
 50
39.1597935946
 51
39.2877398472
  0
ARC
  5
50E
100
AcDbEntity
  8
BEZUGSACHSEN
100
AcDbCircle
 62
7
  6
CONTINUOUS
 10
-220.0444178989
 20
-335.2607068057
 40
657.3551859166
100
AcDbArc
 50
54.5311020775
 51
54.6942002498
  0
ARC
  5
50F
100
AcDbEntity
  8
BEZUGSACHSEN
100
AcDbCircle
 62
7
  6
CONTINUOUS
 10
-210.7271081013
 20
-322.0733260398
 40
641.2084628091
100
AcDbArc
 50
55.4684318405
 51
55.6337361584
  0
ARC
  5
510
100
AcDbEntity
  8
0
100
AcDbCircle
 62
7
  6
CONTINUOUS
 10
-404.0445701334
 20
-124.5624232894
 40
640.5492134641
100
AcDbArc
 50
28.7255593749
 51
28.8858426061
  0
ARC
  5
511
100
AcDbEntity
  8
0
100
AcDbCircle
 62
7
  6
CONTINUOUS
 10
-42.4345746288
 20
-384.5247607854
 40
627.3969772704
100
AcDbArc
 50
71.1217002977
 51
72.6416627404
  0
ARC
  5
512
100
AcDbEntity
  8
0
100
AcDbCircle
 62
7
  6
CONTINUOUS
 10
-310.3072706963
 20
-224.9181479146
 40
621.1509907611
100
AcDbArc
 50
41.4951464656
 51
41.6644859667
  0
ARC
  5
513
100
AcDbEntity
  8
BEZUGSACHSEN
100
AcDbCircle
 62
7
  6
CONTINUOUS
 10
-265.7487847914
 20
-186.8207696578
 40
562.6818123094
100
AcDbArc
 50
41.6124856502
 51
41.79896009
  0
ARC
  5
514
100
AcDbEntity
  8
BEZUGSACHSEN
100
AcDbCircle
 62
7
  6
CONTINUOUS
 10
-98.9501042289
 20
-276.146151021
 40
538.7652590338
100
AcDbArc
 50
62.7610283029
 51
63.0092052152
  0
ARC
  5
515
100
AcDbEntity
  8
BEZUGSACHSEN
100
AcDbCircle
 62
7
  6
CONTINUOUS
 10
-94.3866424131
 20
-267.0375075858
 40
527.6515391906
100
AcDbArc
 50
62.7603969755
 51
63.0137966665
  0
ARC
  5
516
100
AcDbEntity
  8
0
100
AcDbCircle
 62
7
  6
CONTINUOUS
 10
-149.1787606209
 20
-229.5246270342
 40
516.6504426165
100
AcDbArc
 50
54.8551548239
 51
55.1305514508
  0
ARC
  5
517
100
AcDbEntity
  8
0
100
AcDbCircle
 62
7
  6
CONTINUOUS
 10
-76.529363814
 20
-230.7908037799
 40
487.0558999656
100
AcDbArc
 50
62.6645821528
 51
62.9393118536
  0
ARC
  5
518
100
AcDbEntity
  8
BEZUGSACHSEN
100
AcDbCircle
 62
7
  6
CONTINUOUS
 10
-123.6254622657
 20
-194.5550648158
 40
473.5045966377
100
AcDbArc
 50
54.9611271446
 51
55.2611847391
  0
ARC
  5
519
100
AcDbEntity
  8
0
100
AcDbCircle
 62
7
  6
CONTINUOUS
 10
750.250516813
 20
-330.5265324931
 40
857.4415449349
100
AcDbArc
 50
140.9961869693
 51
143.5835441311
  0
ARC
  5
51A
100
AcDbEntity
  8
BEZUGSACHSEN
100
AcDbCircle
 62
7
  6
CONTINUOUS
 10
766.4667360786
 20
-306.8958621398
 40
851.3053613595
100
AcDbArc
 50
144.1977910595
 51
144.4596762246
  0
ARC
  5
51B
100
AcDbEntity
  8
BEZUGSACHSEN
100
AcDbCircle
 62
7
  6
CONTINUOUS
 10
751.5276025117
 20
-295.9846283795
 40
831.8154813718
100
AcDbArc
 50
144.1834668846
 51
144.3954479303
  0
ARC
  5
51C
100
AcDbEntity
  8
BEZUGSACHSEN
100
AcDbCircle
 62
7
  6
CONTINUOUS
 10
715.1568885795
 20
-269.3207665908
 40
783.7472429445
100
AcDbArc
 50
144.1737610327
 51
144.398725613
  0
ARC
  5
51D
100
AcDbEntity
  8
0
100
AcDbCircle
 62
7
  6
CONTINUOUS
 10
710.540278206
 20
-265.2458992603
 40
780.414977285
100
AcDbArc
 50
144.2705119569
 51
144.476345388
  0
ARC
  5
51E
100
AcDbEntity
  8
BEZUGSACHSEN
100
AcDbCircle
 62
7
  6
CONTINUOUS
 10
701.0147071568
 20
-258.9466887766
 40
765.019820973
100
AcDbArc
 50
144.1938427418
 51
144.400107932
  0
ARC
  5
51F
100
AcDbEntity
  8
0
100
AcDbCircle
 62
7
  6
CONTINUOUS
 10
663.0306313649
 20
-230.3352924193
 40
717.314841916
100
AcDbArc
 50
144.2901677852
 51
144.4901213613
  0
ARC
  5
520
100
AcDbEntity
  8
BEZUGSACHSEN
100
AcDbCircle
 62
7
  6
CONTINUOUS
 10
455.3496148883
 20
-318.3758357406
 40
637.6632948619
100
AcDbArc
 50
125.0700628791
 51
125.4271319631
  0
ARC
  5
521
100
AcDbEntity
  8
BEZUGSACHSEN
100
AcDbCircle
 62
7
  6
CONTINUOUS
 10
447.1625052114
 20
-306.5097982485
 40
622.1163234083
100
AcDbArc
 50
125.066437814
 51
125.3407797883
  0
ARC
  5
522
100
AcDbEntity
  8
0
100
AcDbCircle
 62
7
  6
CONTINUOUS
 10
281.3535558746
 20
-367.4845698297
 40
609.4694155055
100
AcDbArc
 50
107.3359810078
 51
108.9006559367
  0
ARC
  5
523
100
AcDbEntity
  8
0
100
AcDbCircle
 62
7
  6
CONTINUOUS
 10
422.5746882027
 20
-270.2309284647
 40
578.083626159
100
AcDbArc
 50
125.1524726139
 51
125.4298890972
  0
ARC
  5
524
100
AcDbEntity
  8
BEZUGSACHSEN
100
AcDbCircle
 62
7
  6
CONTINUOUS
 10
403.6136940147
 20
-243.2624339884
 40
538.7313607667
100
AcDbArc
 50
125.0429730448
 51
125.3597691044
  0
ARC
  5
525
100
AcDbEntity
  8
BEZUGSACHSEN
100
AcDbCircle
 62
7
  6
CONTINUOUS
 10
397.2567176644
 20
-233.9913952503
 40
526.3598170511
100
AcDbArc
 50
125.0387983054
 51
125.4714078755
  0
ARC
  5
526
100
AcDbEntity
  8
0
100
AcDbCircle
 62
7
  6
CONTINUOUS
 10
374.9042650482
 20
-200.8286651637
 40
486.2036896232
100
AcDbArc
 50
125.1399597541
 51
125.6089910097
  0
ARC
  5
527
100
AcDbEntity
  8
0
100
AcDbCircle
 62
7
  6
CONTINUOUS
 10
122.2473024695
 20
-25.8086394322
 40
80.0
100
AcDbArc
 50
67.6905651611
 51
81.1194498884
  0
ARC
  5
528
100
AcDbEntity
  8
0
100
AcDbCircle
 62
7
  6
CONTINUOUS
 10
122.2473024695
 20
-25.8086394322
 40
80.0
100
AcDbArc
 50
98.8805501116
 51
112.3094348389
  0
ARC
  5
529
100
AcDbEntity
  8
BEZUGSACHSEN
100
AcDbCircle
 62
7
  6
CONTINUOUS
 10
76.2549242745
 20
57.7232643001
 40
5.0090501061
100
AcDbArc
 50
214.4083390216
 51
221.1849001456
  0
ARC
  5
52A
100
AcDbEntity
  8
BEZUGSACHSEN
100
AcDbCircle
 62
7
  6
CONTINUOUS
 10
168.2396806645
 20
57.7232643001
 40
5.0090501061
100
AcDbArc
 50
318.8150998581
 51
325.5916609818
  0
ARC
  5
52B
100
AcDbEntity
  8
BEZUGSACHSEN
100
AcDbCircle
 62
7
  6
CONTINUOUS
 10
76.251045627
 20
57.7219747386
 40
5.0052821664
100
AcDbArc
 50
221.2030270957
 51
230.4107211102
  0
ARC
  5
52C
100
AcDbEntity
  8
BEZUGSACHSEN
100
AcDbCircle
 62
7
  6
CONTINUOUS
 10
168.2435593122
 20
57.7219747384
 40
5.005282166
100
AcDbArc
 50
309.5892790578
 51
318.7969729083
  0
ARC
  5
52D
100
AcDbEntity
  8
BEZUGSACHSEN
100
AcDbCircle
 62
7
  6
CONTINUOUS
 10
76.2459204704
 20
57.717948789
 40
4.9986180089
100
AcDbArc
 50
179.9967615859
 51
214.4163909671
  0
ARC
  5
52E
100
AcDbEntity
  8
BEZUGSACHSEN
100
AcDbCircle
 62
7
  6
CONTINUOUS
 10
168.2486844685
 20
57.717948789
 40
4.9986180089
100
AcDbArc
 50
325.5836090363
 51
0.0032384162
  0
ARC
  5
52F
100
AcDbEntity
  8
KONSTRUKTIONSELEMENTE
100
AcDbCircle
 62
7
  6
CONTINUOUS
 10
105.6109448955
 20
52.4788391216
 40
2.2263581687
100
AcDbArc
 50
0.0418776305
 51
9.7022347254
  0
ARC
  5
530
100
AcDbEntity
  8
0
100
AcDbCircle
 62
7
  6
CONTINUOUS
 10
163.8374115649
 20
164.2666809163
 40
32.6465712931
100
AcDbArc
 50
117.6537242535
 51
118.5621345882
  0
ARC
  5
531
100
AcDbEntity
  8
0
100
AcDbCircle
 62
7
  6
CONTINUOUS
 10
171.9171080945
 20
160.9388495375
 40
30.7922036081
100
AcDbArc
 50
122.5311275942
 51
123.4544265413
  0
ARC
  5
532
100
AcDbEntity
  8
0
100
AcDbCircle
 62
7
  6
CONTINUOUS
 10
167.795753464
 20
155.7014645995
 40
29.3915440272
100
AcDbArc
 50
109.4681714144
 51
110.1449005985
  0
ARC
  5
533
100
AcDbEntity
  8
BEZUGSACHSEN
100
AcDbCircle
 62
7
  6
CONTINUOUS
 10
120.1429310124
 20
156.8023115279
 40
23.9576197163
100
AcDbArc
 50
148.3619028058
 51
152.7813994974
  0
ARC
  5
534
100
AcDbEntity
  8
BEZUGSACHSEN
100
AcDbCircle
 62
7
  6
CONTINUOUS
 10
124.3516739266
 20
156.8023115279
 40
23.9576197163
100
AcDbArc
 50
27.2186005026
 51
31.6380971942
  0
ARC
  5
535
100
AcDbEntity
  8
BEZUGSACHSEN
100
AcDbCircle
 62
7
  6
CONTINUOUS
 10
124.3558044391
 20
156.9415532584
 40
23.9528264991
100
AcDbArc
 50
26.9253928829
 51
31.6383237012
  0
ARC
  5
536
100
AcDbEntity
  8
BEZUGSACHSEN
100
AcDbCircle
 62
7
  6
CONTINUOUS
 10
120.1388004998
 20
156.9415532584
 40
23.9528264991
100
AcDbArc
 50
148.3616762988
 51
153.0746071171
  0
ARC
  5
537
100
AcDbEntity
  8
BEZUGSACHSEN
100
AcDbCircle
 62
7
  6
CONTINUOUS
 10
125.0601993654
 20
155.496470687
 40
23.9257083625
100
AcDbArc
 50
30.7660523659
 51
34.5432747069
  0
ARC
  5
538
100
AcDbEntity
  8
BEZUGSACHSEN
100
AcDbCircle
 62
7
  6
CONTINUOUS
 10
119.4343541142
 20
155.4965304513
 40
23.925632455
100
AcDbArc
 50
145.4582780131
 51
149.2337379884
  0
ARC
  5
539
100
AcDbEntity
  8
BEZUGSACHSEN
100
AcDbCircle
 62
7
  6
CONTINUOUS
 10
124.4878072026
 20
157.5202634706
 40
23.8040028373
100
AcDbArc
 50
332.7838902666
 51
335.0054383991
  0
ARC
  5
53A
100
AcDbEntity
  8
BEZUGSACHSEN
100
AcDbCircle
 62
7
  6
CONTINUOUS
 10
120.0066894132
 20
157.5202093851
 40
23.803881771
100
AcDbArc
 50
204.9898675132
 51
207.2161132085
  0
ARC
  5
53B
100
AcDbEntity
  8
BEZUGSACHSEN
100
AcDbCircle
 62
7
  6
CONTINUOUS
 10
119.960873056
 20
157.0327402369
 40
23.7528947578
100
AcDbArc
 50
153.0763707997
 51
156.5994835119
  0
ARC
  5
53C
100
AcDbEntity
  8
BEZUGSACHSEN
100
AcDbCircle
 62
7
  6
CONTINUOUS
 10
124.5337398523
 20
157.0327441042
 40
23.7528859011
100
AcDbArc
 50
23.4001942671
 51
26.9236295872
  0
ARC
  5
53D
100
AcDbEntity
  8
BEZUGSACHSEN
100
AcDbCircle
 62
7
  6
CONTINUOUS
 10
124.5807657749
 20
157.4766125875
 40
23.7013061274
100
AcDbArc
 50
335.0061271018
 51
336.2947980994
  0
ARC
  5
53E
100
AcDbEntity
  8
BEZUGSACHSEN
100
AcDbCircle
 62
7
  6
CONTINUOUS
 10
119.9136937447
 20
157.476547306
 40
23.7011467315
100
AcDbArc
 50
203.7048755721
 51
204.9891718197
  0
ARC
  5
53F
100
AcDbEntity
  8
BEZUGSACHSEN
100
AcDbCircle
 62
7
  6
CONTINUOUS
 10
119.1573199623
 20
155.6632097305
 40
23.6023251727
100
AcDbArc
 50
149.2373983228
 51
151.4704978043
  0
ARC
  5
540
100
AcDbEntity
  8
BEZUGSACHSEN
100
AcDbCircle
 62
7
  6
CONTINUOUS
 10
125.3384974835
 20
155.6639047405
 40
23.6009289138
100
AcDbArc
 50
28.5243539347
 51
30.7623841162
  0
ARC
  5
541
100
AcDbEntity
  8
BEZUGSACHSEN
100
AcDbCircle
 62
7
  6
CONTINUOUS
 10
125.0851574112
 20
157.2841963021
 40
23.162129962
100
AcDbArc
 50
336.2289989555
 51
359.6157490256
  0
ARC
  5
542
100
AcDbEntity
  8
BEZUGSACHSEN
100
AcDbCircle
 62
7
  6
CONTINUOUS
 10
119.4094421844
 20
157.2841955484
 40
23.1621246137
100
AcDbArc
 50
180.3842491985
 51
203.770673985
  0
ARC
  5
543
100
AcDbEntity
  8
BEZUGSACHSEN
100
AcDbCircle
 62
7
  6
CONTINUOUS
 10
119.4003610346
 20
157.2481823515
 40
23.1529334775
100
AcDbArc
 50
156.5378925796
 51
179.9576820978
  0
ARC
  5
544
100
AcDbEntity
  8
BEZUGSACHSEN
100
AcDbCircle
 62
7
  6
CONTINUOUS
 10
125.0942491252
 20
157.24818306
 40
23.1529282561
100
AcDbArc
 50
0.0423161584
 51
23.4617813362
  0
ARC
  5
545
100
AcDbEntity
  8
0
100
AcDbCircle
 62
7
  6
CONTINUOUS
 10
122.2473024695
 20
538.2313764714
 40
22.5
100
AcDbArc
 50
0.0
 51
180.0
  0
ARC
  5
546
100
AcDbEntity
  8
0
100
AcDbCircle
 62
7
  6
CONTINUOUS
 10
122.2473024695
 20
153.2313764714
 40
22.5
100
AcDbArc
 50
180.0
 51
211.6416190394
  0
ARC
  5
547
100
AcDbEntity
  8
0
100
AcDbCircle
 62
7
  6
CONTINUOUS
 10
122.2473024695
 20
153.2313764714
 40
22.5
100
AcDbArc
 50
328.3602520669
 51
360.0
  0
ARC
  5
548
100
AcDbEntity
  8
0
100
AcDbCircle
 62
7
  6
CONTINUOUS
 10
123.7129998977
 20
113.8249228698
 40
10.8843025721
100
AcDbArc
 50
359.999561738
 51
1.4345981272
  0
ARC
  5
549
100
AcDbEntity
  8
0
100
AcDbCircle
 62
7
  6
CONTINUOUS
 10
120.7816050413
 20
113.8249228698
 40
10.8843025721
100
AcDbArc
 50
178.5654018728
 51
180.000438262
  0
ARC
  5
54A
100
AcDbEntity
  8
BEZUGSACHSEN
100
AcDbCircle
 62
7
  6
CONTINUOUS
 10
63.74317479
 20
91.0977115361
 40
7.5039707562
100
AcDbArc
 50
4.2318487505
 51
8.4015558552
  0
ARC
  5
54B
100
AcDbEntity
  8
BEZUGSACHSEN
100
AcDbCircle
 62
7
  6
CONTINUOUS
 10
180.7139841214
 20
91.1026895442
 40
7.4661992696
100
AcDbArc
 50
171.5942491473
 51
172.2033005664
  0
ARC
  5
54C
100
AcDbEntity
  8
BEZUGSACHSEN
100
AcDbCircle
 62
7
  6
CONTINUOUS
 10
180.6235712232
 20
91.117005414
 40
7.3746649505
100
AcDbArc
 50
167.4526318214
 51
171.6015935682
  0
ARC
  5
54D
100
AcDbEntity
  8
BEZUGSACHSEN
100
AcDbCircle
 62
7
  6
CONTINUOUS
 10
161.8919334604
 20
89.459316315
 40
3.5554678356
100
AcDbArc
 50
2.6842077269
 51
9.6950016222
  0
ARC
  5
54E
100
AcDbEntity
  8
BEZUGSACHSEN
100
AcDbCircle
 62
7
  6
CONTINUOUS
 10
3001.0638010596
 20
-5174.0455471781
 40
6078.2622438669
100
AcDbArc
 50
117.8516992381
 51
117.9921407971
  0
ARC
  5
54F
100
AcDbEntity
  8
BEZUGSACHSEN
100
AcDbCircle
 62
7
  6
CONTINUOUS
 10
2515.9875577972
 20
-4258.7802145608
 40
5044.0721055771
100
AcDbArc
 50
117.8466506275
 51
117.9944195858
  0
LINE
  5
550
100
AcDbEntity
  8
BEZUGSACHSEN
100
AcDbLine
 62
7
  6
CONTINUOUS
 10
711.6298701824
 20
206.5192665153
 11
711.4914790404
 21
206.7018617492
  0
LINE
  5
551
100
AcDbEntity
  8
BEZUGSACHSEN
100
AcDbLine
 62
7
  6
CONTINUOUS
 10
712.2155681886
 20
205.7302457393
 11
711.9245046655
 21
206.1228441298
  0
LINE
  5
552
100
AcDbEntity
  8
BEZUGSACHSEN
100
AcDbLine
 62
7
  6
CONTINUOUS
 10
711.9245046655
 20
206.1228441298
 11
711.7776338873
 21
206.3205773824
  0
LINE
  5
553
100
AcDbEntity
  8
BEZUGSACHSEN
100
AcDbLine
 62
7
  6
CONTINUOUS
 10
711.7776338873
 20
206.3205773824
 11
711.7189949383
 21
206.3994550489
  0
LINE
  5
554
100
AcDbEntity
  8
BEZUGSACHSEN
100
AcDbLine
 62
7
  6
CONTINUOUS
 10
711.7189949383
 20
206.3994550489
 11
711.6298701824
 21
206.5192665153
  0
LINE
  5
555
100
AcDbEntity
  8
BEZUGSACHSEN
100
AcDbLine
 62
7
  6
CONTINUOUS
 10
706.3969976547
 20
213.3234642123
 11
706.5151057494
 21
213.1835487012
  0
LINE
  5
556
100
AcDbEntity
  8
BEZUGSACHSEN
100
AcDbLine
 62
7
  6
CONTINUOUS
 10
706.5151057494
 20
213.1835487012
 11
706.6323725117
 21
213.0436878467
  0
LINE
  5
557
100
AcDbEntity
  8
BEZUGSACHSEN
100
AcDbLine
 62
7
  6
CONTINUOUS
 10
707.1375791478
 20
212.4062418589
 11
707.3058752536
 21
212.1871112954
  0
LINE
  5
558
100
AcDbEntity
  8
BEZUGSACHSEN
100
AcDbLine
 62
7
  6
CONTINUOUS
 10
707.3058752536
 20
212.1871112954
 11
707.4737086634
 21
211.9685536045
  0
LINE
  5
559
100
AcDbEntity
  8
BEZUGSACHSEN
100
AcDbLine
 62
7
  6
CONTINUOUS
 10
707.4737086634
 20
211.9685536045
 11
707.6410792855
 21
211.7505687189
  0
LINE
  5
55A
100
AcDbEntity
  8
BEZUGSACHSEN
100
AcDbLine
 62
7
  6
CONTINUOUS
 10
707.6410792855
 20
211.7505687189
 11
707.7074515204
 21
211.6641166181
  0
LINE
  5
55B
100
AcDbEntity
  8
BEZUGSACHSEN
100
AcDbLine
 62
7
  6
CONTINUOUS
 10
707.7074515204
 20
211.6641166181
 11
707.7731726518
 21
211.5785078874
  0
LINE
  5
55C
100
AcDbEntity
  8
BEZUGSACHSEN
100
AcDbLine
 62
7
  6
CONTINUOUS
 10
707.7731726518
 20
211.5785078874
 11
707.8079870259
 21
211.5331565697
  0
LINE
  5
55D
100
AcDbEntity
  8
BEZUGSACHSEN
100
AcDbLine
 62
7
  6
CONTINUOUS
 10
707.3523953368
 20
211.8965985448
 11
707.3412105849
 21
211.9145502735
  0
LINE
  5
55E
100
AcDbEntity
  8
BEZUGSACHSEN
100
AcDbLine
 62
7
  6
CONTINUOUS
 10
707.6432191409
 20
211.4787423176
 11
707.570832996
 21
211.5829811764
  0
LINE
  5
55F
100
AcDbEntity
  8
BEZUGSACHSEN
100
AcDbLine
 62
7
  6
CONTINUOUS
 10
707.570832996
 20
211.5829811764
 11
707.4254210641
 21
211.791909274
  0
LINE
  5
560
100
AcDbEntity
  8
BEZUGSACHSEN
100
AcDbLine
 62
7
  6
CONTINUOUS
 10
707.4254210641
 20
211.791909274
 11
707.3523953368
 21
211.8965985448
  0
LINE
  5
561
100
AcDbEntity
  8
BEZUGSACHSEN
100
AcDbLine
 62
7
  6
CONTINUOUS
 10
708.063355715
 20
210.9026195215
 11
708.010368827
 21
210.9753436748
  0
LINE
  5
562
100
AcDbEntity
  8
BEZUGSACHSEN
100
AcDbLine
 62
7
  6
CONTINUOUS
 10
708.010368827
 20
210.9753436748
 11
707.9588407448
 21
211.0460475803
  0
LINE
  5
563
100
AcDbEntity
  8
BEZUGSACHSEN
100
AcDbLine
 62
7
  6
CONTINUOUS
 10
707.9588407448
 20
211.0460475803
 11
707.8539796618
 21
211.1898774012
  0
LINE
  5
564
100
AcDbEntity
  8
BEZUGSACHSEN
100
AcDbLine
 62
7
  6
CONTINUOUS
 10
707.8539796618
 20
211.1898774012
 11
707.6432191409
 21
211.4787423176
  0
LINE
  5
565
100
AcDbEntity
  8
BEZUGSACHSEN
100
AcDbLine
 62
7
  6
CONTINUOUS
 10
708.6136954867
 20
210.1685565577
 11
708.3391735559
 21
210.5347689232
  0
LINE
  5
566
100
AcDbEntity
  8
BEZUGSACHSEN
100
AcDbLine
 62
7
  6
CONTINUOUS
 10
708.3391735559
 20
210.5347689232
 11
708.2014265977
 21
210.7184894234
  0
LINE
  5
567
100
AcDbEntity
  8
BEZUGSACHSEN
100
AcDbLine
 62
7
  6
CONTINUOUS
 10
708.2014265977
 20
210.7184894234
 11
708.063355715
 21
210.9026195215
  0
LINE
  5
568
100
AcDbEntity
  8
BEZUGSACHSEN
100
AcDbLine
 62
7
  6
CONTINUOUS
 10
710.6568058482
 20
207.4930810288
 11
710.3102992676
 21
207.9468458781
  0
LINE
  5
569
100
AcDbEntity
  8
BEZUGSACHSEN
100
AcDbLine
 62
7
  6
CONTINUOUS
 10
710.3102992676
 20
207.9468458781
 11
710.1488567372
 21
208.158260062
  0
LINE
  5
56A
100
AcDbEntity
  8
BEZUGSACHSEN
100
AcDbLine
 62
7
  6
CONTINUOUS
 10
710.1488567372
 20
208.158260062
 11
709.9305940257
 21
208.4440805603
  0
LINE
  5
56B
100
AcDbEntity
  8
BEZUGSACHSEN
100
AcDbLine
 62
7
  6
CONTINUOUS
 10
709.9305940257
 20
208.4440805603
 11
709.3161807069
 21
209.2486610015
  0
LINE
  5
56C
100
AcDbEntity
  8
BEZUGSACHSEN
100
AcDbLine
 62
7
  6
CONTINUOUS
 10
709.3161807069
 20
209.2486610015
 11
709.1273014001
 21
209.4959977082
  0
LINE
  5
56D
100
AcDbEntity
  8
BEZUGSACHSEN
100
AcDbLine
 62
7
  6
CONTINUOUS
 10
709.1273014001
 20
209.4959977082
 11
708.8917692403
 21
209.804424447
  0
LINE
  5
56E
100
AcDbEntity
  8
BEZUGSACHSEN
100
AcDbLine
 62
7
  6
CONTINUOUS
 10
708.8917692403
 20
209.804424447
 11
708.6136954867
 21
210.1685565577
  0
LINE
  5
56F
100
AcDbEntity
  8
BEZUGSACHSEN
100
AcDbLine
 62
7
  6
CONTINUOUS
 10
710.6568058482
 20
207.4930810288
 11
710.7920772222
 21
207.3193869224
  0
LINE
  5
570
100
AcDbEntity
  8
BEZUGSACHSEN
100
AcDbLine
 62
7
  6
CONTINUOUS
 10
710.7920772222
 20
207.3193869224
 11
711.1962974946
 21
206.8002866869
  0
LINE
  5
571
100
AcDbEntity
  8
BEZUGSACHSEN
100
AcDbLine
 62
7
  6
CONTINUOUS
 10
711.1962974946
 20
206.8002866869
 11
711.5938325109
 21
206.3063743382
  0
SPLINE
  5
572
100
AcDbEntity
  8
BEZUGSACHSEN
100
AcDbSpline
 62
7
  6
CONTINUOUS
 70
0
 71
3
 72
8
 73
4
 74
0
 42
0.0000001
 43
0.0000001
 44
0.0000000001
 40
0.0
 40
0.0
 40
0.0
 40
0.0
 40
1.0
 40
1.0
 40
1.0
 40
1.0
 10
716.4838704613
 20
190.2940211614
 30
0.0
 10
716.2935313358
 20
190.5452841846
 30
0.0
 10
716.1030442488
 20
190.7964351843
 30
0.0
 10
715.9124168676
 20
191.0474795848
 30
0.0
  0
LINE
  5
573
100
AcDbEntity
  8
BEZUGSACHSEN
100
AcDbLine
 62
7
  6
CONTINUOUS
 10
715.9124168676
 20
191.0474795848
 11
715.6395137104
 21
191.3487559029
  0
LINE
  5
574
100
AcDbEntity
  8
BEZUGSACHSEN
100
AcDbLine
 62
7
  6
CONTINUOUS
 10
715.6395137104
 20
191.3487559029
 11
715.5482583008
 21
191.4494855136
  0
LINE
  5
575
100
AcDbEntity
  8
BEZUGSACHSEN
100
AcDbLine
 62
7
  6
CONTINUOUS
 10
715.1319827176
 20
191.8117310142
 11
715.5482583008
 21
191.4494855136
  0
LINE
  5
576
100
AcDbEntity
  8
BEZUGSACHSEN
100
AcDbLine
 62
7
  6
CONTINUOUS
 10
714.8715741652
 20
191.9530368383
 11
715.1319827176
 21
191.8117310142
  0
LINE
  5
577
100
AcDbEntity
  8
BEZUGSACHSEN
100
AcDbLine
 62
7
  6
CONTINUOUS
 10
714.6095839052
 20
191.9237437849
 11
714.8715741652
 21
191.9530368383
  0
LINE
  5
578
100
AcDbEntity
  8
BEZUGSACHSEN
100
AcDbLine
 62
7
  6
CONTINUOUS
 10
720.4228943471
 20
184.4874854736
 11
718.2332632301
 21
186.3877498602
  0
LINE
  5
579
100
AcDbEntity
  8
BEZUGSACHSEN
100
AcDbLine
 62
7
  6
CONTINUOUS
 10
717.6076488175
 20
186.9306804294
 11
716.0436033532
 21
188.288003779
  0
LINE
  5
57A
100
AcDbEntity
  8
BEZUGSACHSEN
100
AcDbLine
 62
7
  6
CONTINUOUS
 10
709.0331131343
 20
209.9276020665
 11
709.4647460656
 21
209.3619032783
  0
LINE
  5
57B
100
AcDbEntity
  8
BEZUGSACHSEN
100
AcDbLine
 62
7
  6
CONTINUOUS
 10
709.4647460656
 20
209.3619032783
 11
709.5471774787
 21
209.2538663943
  0
LINE
  5
57C
100
AcDbEntity
  8
BEZUGSACHSEN
100
AcDbLine
 62
7
  6
CONTINUOUS
 10
709.5471774787
 20
209.2538663943
 11
709.9268950624
 21
208.7561889225
  0
LINE
  5
57D
100
AcDbEntity
  8
BEZUGSACHSEN
100
AcDbLine
 62
7
  6
CONTINUOUS
 10
715.0723398567
 20
191.0891387378
 11
715.1793312342
 21
191.169664332
  0
LINE
  5
57E
100
AcDbEntity
  8
BEZUGSACHSEN
100
AcDbLine
 62
7
  6
CONTINUOUS
 10
711.5607097226
 20
199.2912974221
 11
712.035412885
 21
198.803944344
  0
SPLINE
  5
57F
100
AcDbEntity
  8
BEZUGSACHSEN
100
AcDbSpline
 62
7
  6
CONTINUOUS
 70
0
 71
3
 72
8
 73
4
 74
0
 42
0.0000001
 43
0.0000001
 44
0.0000000001
 40
0.0
 40
0.0
 40
0.0
 40
0.0
 40
1.0
 40
1.0
 40
1.0
 40
1.0
 10
712.035412885
 20
198.803944344
 30
0.0
 10
713.0508499753
 20
197.7614132605
 30
0.0
 10
714.0661757229
 20
196.7187737064
 30
0.0
 10
715.0813475304
 20
195.6759843002
 30
0.0
  0
LINE
  5
580
100
AcDbEntity
  8
BEZUGSACHSEN
100
AcDbLine
 62
7
  6
CONTINUOUS
 10
716.8054314199
 20
191.8813876145
 11
717.0636464717
 21
191.7628929792
  0
LINE
  5
581
100
AcDbEntity
  8
BEZUGSACHSEN
100
AcDbLine
 62
7
  6
CONTINUOUS
 10
716.3916939947
 20
192.2319356291
 11
716.8054314199
 21
191.8813876145
  0
LINE
  5
582
100
AcDbEntity
  8
BEZUGSACHSEN
100
AcDbLine
 62
7
  6
CONTINUOUS
 10
716.3916939947
 20
192.2319356291
 11
714.3005876435
 21
194.3744798632
  0
LINE
  5
583
100
AcDbEntity
  8
BEZUGSACHSEN
100
AcDbLine
 62
7
  6
CONTINUOUS
 10
714.3005876435
 20
194.3744798632
 11
713.3322374618
 21
195.3666408348
  0
LINE
  5
584
100
AcDbEntity
  8
BEZUGSACHSEN
100
AcDbLine
 62
7
  6
CONTINUOUS
 10
713.3322374618
 20
195.3666408348
 11
712.8652311142
 21
195.8451285978
  0
LINE
  5
585
100
AcDbEntity
  8
BEZUGSACHSEN
100
AcDbLine
 62
7
  6
CONTINUOUS
 10
709.9351782537
 20
207.3870898421
 11
709.8131657079
 21
207.543384122
  0
LINE
  5
586
100
AcDbEntity
  8
BEZUGSACHSEN
100
AcDbLine
 62
7
  6
CONTINUOUS
 10
709.8131657079
 20
207.543384122
 11
709.4366156167
 21
208.0257309001
  0
LINE
  5
587
100
AcDbEntity
  8
BEZUGSACHSEN
100
AcDbLine
 62
7
  6
CONTINUOUS
 10
709.4366156167
 20
208.0257309001
 11
709.2662992111
 21
208.2438988691
  0
LINE
  5
588
100
AcDbEntity
  8
BEZUGSACHSEN
100
AcDbLine
 62
7
  6
CONTINUOUS
 10
709.2662992111
 20
208.2438988691
 11
707.9312832158
 21
209.9539750371
  0
LINE
  5
589
100
AcDbEntity
  8
BEZUGSACHSEN
100
AcDbLine
 62
7
  6
CONTINUOUS
 10
716.2412838633
 20
194.2844405738
 11
715.8323534886
 21
194.8045314731
  0
LINE
  5
58A
100
AcDbEntity
  8
BEZUGSACHSEN
100
AcDbLine
 62
7
  6
CONTINUOUS
 10
715.8323534886
 20
194.8045314731
 11
715.6951787455
 21
194.9789076291
  0
LINE
  5
58B
100
AcDbEntity
  8
BEZUGSACHSEN
100
AcDbLine
 62
7
  6
CONTINUOUS
 10
715.6951787455
 20
194.9789076291
 11
715.5404701951
 21
195.1546023138
  0
LINE
  5
58C
100
AcDbEntity
  8
BEZUGSACHSEN
100
AcDbLine
 62
7
  6
CONTINUOUS
 10
715.5404701951
 20
195.1546023138
 11
715.0813475304
 21
195.6759843002
  0
LINE
  5
58D
100
AcDbEntity
  8
BEZUGSACHSEN
100
AcDbLine
 62
7
  6
CONTINUOUS
 10
713.5420344305
 20
202.7666406077
 11
710.7367204295
 21
206.3603302453
  0
LINE
  5
58E
100
AcDbEntity
  8
BEZUGSACHSEN
100
AcDbLine
 62
7
  6
CONTINUOUS
 10
714.3959492715
 20
199.1755346605
 11
713.8310987893
 21
199.9209527602
  0
LINE
  5
58F
100
AcDbEntity
  8
BEZUGSACHSEN
100
AcDbLine
 62
7
  6
CONTINUOUS
 10
713.8310987893
 20
199.9209527602
 11
713.5076518965
 21
200.3156738175
  0
LINE
  5
590
100
AcDbEntity
  8
BEZUGSACHSEN
100
AcDbLine
 62
7
  6
CONTINUOUS
 10
713.5076518965
 20
200.3156738175
 11
713.1831116745
 21
200.7117156687
  0
LINE
  5
591
100
AcDbEntity
  8
BEZUGSACHSEN
100
AcDbLine
 62
7
  6
CONTINUOUS
 10
711.3558191818
 20
202.8021767609
 11
711.7352535808
 21
202.3681447581
  0
LINE
  5
592
100
AcDbEntity
  8
BEZUGSACHSEN
100
AcDbLine
 62
7
  6
CONTINUOUS
 10
711.7352535808
 20
202.3681447581
 11
711.8162350939
 21
202.2755074752
  0
LINE
  5
593
100
AcDbEntity
  8
BEZUGSACHSEN
100
AcDbLine
 62
7
  6
CONTINUOUS
 10
711.8162350939
 20
202.2755074752
 11
713.1831116745
 21
200.7117156687
  0
SPLINE
  5
594
100
AcDbEntity
  8
BEZUGSACHSEN
100
AcDbSpline
 62
7
  6
CONTINUOUS
 70
0
 71
3
 72
8
 73
4
 74
0
 42
0.0000001
 43
0.0000001
 44
0.0000000001
 40
0.0
 40
0.0
 40
0.0
 40
0.0
 40
1.0
 40
1.0
 40
1.0
 40
1.0
 10
707.3283134453
 20
211.3730514975
 30
0.0
 10
707.4576491999
 20
211.2241685495
 30
0.0
 10
707.5868567764
 20
211.0751741477
 30
0.0
 10
707.7159309061
 20
210.9260643268
 30
0.0
  0
LINE
  5
595
100
AcDbEntity
  8
BEZUGSACHSEN
100
AcDbLine
 62
7
  6
CONTINUOUS
 10
707.7159309061
 20
210.9260643268
 11
707.7661016122
 21
210.8680922063
  0
LINE
  5
596
100
AcDbEntity
  8
BEZUGSACHSEN
100
AcDbLine
 62
7
  6
CONTINUOUS
 10
707.7661016122
 20
210.8680922063
 11
707.8036382598
 21
210.8247008541
  0
LINE
  5
597
100
AcDbEntity
  8
BEZUGSACHSEN
100
AcDbLine
 62
7
  6
CONTINUOUS
 10
710.7852086627
 20
203.4049083751
 11
711.3026549315
 21
202.8583543713
  0
LINE
  5
598
100
AcDbEntity
  8
BEZUGSACHSEN
100
AcDbLine
 62
7
  6
CONTINUOUS
 10
711.3026549315
 20
202.8583543713
 11
711.3558191818
 21
202.8021767609
  0
LINE
  5
599
100
AcDbEntity
  8
BEZUGSACHSEN
100
AcDbLine
 62
7
  6
CONTINUOUS
 10
707.8036382598
 20
210.8247008541
 11
707.994337054
 21
210.5901537671
  0
LINE
  5
59A
100
AcDbEntity
  8
BEZUGSACHSEN
100
AcDbLine
 62
7
  6
CONTINUOUS
 10
707.994337054
 20
210.5901537671
 11
708.1842193126
 21
210.3565206623
  0
LINE
  5
59B
100
AcDbEntity
  8
BEZUGSACHSEN
100
AcDbLine
 62
7
  6
CONTINUOUS
 10
708.1842193126
 20
210.3565206623
 11
708.7181960765
 21
209.6718736344
  0
LINE
  5
59C
100
AcDbEntity
  8
BEZUGSACHSEN
100
AcDbLine
 62
7
  6
CONTINUOUS
 10
710.3743618104
 20
203.7739874362
 11
710.7852086627
 21
203.4049083751
  0
LINE
  5
59D
100
AcDbEntity
  8
BEZUGSACHSEN
100
AcDbLine
 62
7
  6
CONTINUOUS
 10
709.1386995021
 20
209.1131276411
 11
708.7181960765
 21
209.6718736344
  0
SPLINE
  5
59E
100
AcDbEntity
  8
BEZUGSACHSEN
100
AcDbSpline
 62
7
  6
CONTINUOUS
 70
0
 71
3
 72
8
 73
4
 74
0
 42
0.0000001
 43
0.0000001
 44
0.0000000001
 40
0.0
 40
0.0
 40
0.0
 40
0.0
 40
1.0
 40
1.0
 40
1.0
 40
1.0
 10
709.7320086385
 20
208.2924331135
 30
0.0
 10
709.5343968751
 20
208.5661120734
 30
0.0
 10
709.3366244471
 20
208.839675089
 30
0.0
 10
709.1386995021
 20
209.1131276411
 30
0.0
  0
LINE
  5
59F
100
AcDbEntity
  8
BEZUGSACHSEN
100
AcDbLine
 62
7
  6
CONTINUOUS
 10
710.0760419189
 20
207.767960446
 11
710.2061277861
 21
207.6099011831
  0
LINE
  5
5A0
100
AcDbEntity
  8
BEZUGSACHSEN
100
AcDbLine
 62
7
  6
CONTINUOUS
 10
710.2061277861
 20
207.6099011831
 11
710.5314312755
 21
207.2144119694
  0
LINE
  5
5A1
100
AcDbEntity
  8
BEZUGSACHSEN
100
AcDbLine
 62
7
  6
CONTINUOUS
 10
710.5314312755
 20
207.2144119694
 11
710.8205696178
 21
206.8626034931
  0
LINE
  5
5A2
100
AcDbEntity
  8
BEZUGSACHSEN
100
AcDbLine
 62
7
  6
CONTINUOUS
 10
710.8205696178
 20
206.8626034931
 11
711.0332379506
 21
206.6036621152
  0
LINE
  5
5A3
100
AcDbEntity
  8
BEZUGSACHSEN
100
AcDbLine
 62
7
  6
CONTINUOUS
 10
711.2227853743
 20
201.3651081538
 11
711.2111443497
 21
201.3976752676
  0
LINE
  5
5A4
100
AcDbEntity
  8
BEZUGSACHSEN
100
AcDbLine
 62
7
  6
CONTINUOUS
 10
715.6342079381
 20
196.0914927679
 11
714.5781775231
 21
197.2970704817
  0
LINE
  5
5A5
100
AcDbEntity
  8
BEZUGSACHSEN
100
AcDbLine
 62
7
  6
CONTINUOUS
 10
714.5781775231
 20
197.2970704817
 11
714.3593138961
 21
197.546925155
  0
LINE
  5
5A6
100
AcDbEntity
  8
BEZUGSACHSEN
100
AcDbLine
 62
7
  6
CONTINUOUS
 10
714.3593138961
 20
197.546925155
 11
711.3636215772
 21
200.9667228106
  0
LINE
  5
5A7
100
AcDbEntity
  8
BEZUGSACHSEN
100
AcDbLine
 62
7
  6
CONTINUOUS
 10
730.535326519
 20
94.1691778871
 11
729.3944050938
 21
91.0934720176
  0
LINE
  5
5A8
100
AcDbEntity
  8
RUNDUNGEN
100
AcDbLine
 62
7
  6
CONTINUOUS
 10
744.6311473647
 20
99.2996371025
 11
747.4821695065
 21
97.6768798682
  0
SPLINE
  5
5A9
100
AcDbEntity
  8
BEZUGSACHSEN
100
AcDbSpline
 62
7
  6
CONTINUOUS
 70
0
 71
3
 72
11
 73
7
 74
0
 42
0.0000001
 43
0.0000001
 44
0.0000000001
 40
0.0
 40
0.0
 40
0.0
 40
0.0
 40
0.2530106614
 40
0.5000000005
 40
0.7469893397
 40
1.0
 40
1.0
 40
1.0
 40
1.0
 10
686.7778227393
 20
216.0893948335
 30
0.0
 10
686.8127455484
 20
215.0218634287
 30
0.0
 10
687.0206894264
 20
212.9122938215
 30
0.0
 10
687.8390762052
 20
209.8509890961
 30
0.0
 10
689.1799242983
 20
206.9798447402
 30
0.0
 10
690.3766352591
 20
205.2301569273
 30
0.0
 10
691.0360787923
 20
204.3899324815
 30
0.0
  0
SPLINE
  5
5AA
100
AcDbEntity
  8
BEZUGSACHSEN
100
AcDbSpline
 62
7
  6
CONTINUOUS
 70
0
 71
3
 72
9
 73
5
 74
0
 42
0.0000001
 43
0.0000001
 44
0.0000000001
 40
0.0
 40
0.0
 40
0.0
 40
0.0
 40
0.5000000005
 40
1.0
 40
1.0
 40
1.0
 40
1.0
 10
691.0360787923
 20
204.3899324815
 30
0.0
 10
692.2488597749
 20
199.0830471427
 30
0.0
 10
695.2818966763
 20
188.5916715266
 30
0.0
 10
699.7021818681
 20
178.605212996
 30
0.0
 10
702.184337872
 20
173.7603423938
 30
0.0
  0
SPLINE
  5
5AB
100
AcDbEntity
  8
BEZUGSACHSEN
100
AcDbSpline
 62
7
  6
CONTINUOUS
 70
0
 71
3
 72
9
 73
5
 74
0
 42
0.0000001
 43
0.0000001
 44
0.0000000001
 40
0.0
 40
0.0
 40
0.0
 40
0.0
 40
0.5000053871
 40
1.0
 40
1.0
 40
1.0
 40
1.0
 10
702.184337872
 20
173.7603423938
 30
0.0
 10
703.2774752082
 20
169.4477889446
 30
0.0
 10
705.7241108953
 20
160.8856525549
 30
0.0
 10
708.7629861604
 20
152.5138078414
 30
0.0
 10
710.4266579782
 20
148.3877431826
 30
0.0
  0
LINE
  5
5AC
100
AcDbEntity
  8
BEZUGSACHSEN
100
AcDbLine
 62
7
  6
CONTINUOUS
 10
711.3619051488
 20
206.4969693862
 11
711.897453511
 21
205.8253491899
  0
LINE
  5
5AD
100
AcDbEntity
  8
BEZUGSACHSEN
100
AcDbLine
 62
7
  6
CONTINUOUS
 10
710.6855282254
 20
207.3678819995
 11
711.3619051488
 21
206.4969693862
  0
LINE
  5
5AE
100
AcDbEntity
  8
BEZUGSACHSEN
100
AcDbLine
 62
7
  6
CONTINUOUS
 10
710.6855282254
 20
207.3678819995
 11
710.2682450664
 21
207.9146474773
  0
LINE
  5
5AF
100
AcDbEntity
  8
BEZUGSACHSEN
100
AcDbLine
 62
7
  6
CONTINUOUS
 10
710.2682450664
 20
207.9146474773
 11
710.1784126527
 21
208.0323528378
  0
LINE
  5
5B0
100
AcDbEntity
  8
BEZUGSACHSEN
100
AcDbLine
 62
7
  6
CONTINUOUS
 10
710.1784126527
 20
208.0323528378
 11
709.8886664866
 21
208.4119961165
  0
LINE
  5
5B1
100
AcDbEntity
  8
BEZUGSACHSEN
100
AcDbLine
 62
7
  6
CONTINUOUS
 10
709.8886664866
 20
208.4119961165
 11
709.6690024203
 21
208.6998090087
  0
LINE
  5
5B2
100
AcDbEntity
  8
BEZUGSACHSEN
100
AcDbLine
 62
7
  6
CONTINUOUS
 10
709.6690024203
 20
208.6998090087
 11
709.2744602363
 21
209.2167449181
  0
LINE
  5
5B3
100
AcDbEntity
  8
BEZUGSACHSEN
100
AcDbLine
 62
7
  6
CONTINUOUS
 10
709.2744602363
 20
209.2167449181
 11
709.1572978624
 21
209.3702507651
  0
LINE
  5
5B4
100
AcDbEntity
  8
BEZUGSACHSEN
100
AcDbLine
 62
7
  6
CONTINUOUS
 10
709.1572978624
 20
209.3702507651
 11
708.8501894333
 21
209.7726185807
  0
LINE
  5
5B5
100
AcDbEntity
  8
BEZUGSACHSEN
100
AcDbLine
 62
7
  6
CONTINUOUS
 10
708.8501894333
 20
209.7726185807
 11
708.6432992881
 21
210.0436783406
  0
LINE
  5
5B6
100
AcDbEntity
  8
BEZUGSACHSEN
100
AcDbLine
 62
7
  6
CONTINUOUS
 10
708.6432992881
 20
210.0436783406
 11
708.4726678709
 21
210.2709807715
  0
LINE
  5
5B7
100
AcDbEntity
  8
BEZUGSACHSEN
100
AcDbLine
 62
7
  6
CONTINUOUS
 10
708.4726678709
 20
210.2709807715
 11
708.1299728047
 21
210.7274056009
  0
LINE
  5
5B8
100
AcDbEntity
  8
BEZUGSACHSEN
100
AcDbLine
 62
7
  6
CONTINUOUS
 10
708.1299728047
 20
210.7274056009
 11
707.9579093365
 21
210.956528135
  0
LINE
  5
5B9
100
AcDbEntity
  8
BEZUGSACHSEN
100
AcDbLine
 62
7
  6
CONTINUOUS
 10
707.9579093365
 20
210.956528135
 11
707.8942940759
 21
211.0432471441
  0
LINE
  5
5BA
100
AcDbEntity
  8
BEZUGSACHSEN
100
AcDbLine
 62
7
  6
CONTINUOUS
 10
707.8942940759
 20
211.0432471441
 11
707.8200676208
 21
211.1444091132
  0
LINE
  5
5BB
100
AcDbEntity
  8
BEZUGSACHSEN
100
AcDbLine
 62
7
  6
CONTINUOUS
 10
707.8200676208
 20
211.1444091132
 11
707.6817178354
 21
211.332900951
  0
LINE
  5
5BC
100
AcDbEntity
  8
BEZUGSACHSEN
100
AcDbLine
 62
7
  6
CONTINUOUS
 10
707.6817178354
 20
211.332900951
 11
707.5387304987
 21
211.527626233
  0
LINE
  5
5BD
100
AcDbEntity
  8
BEZUGSACHSEN
100
AcDbLine
 62
7
  6
CONTINUOUS
 10
707.5387304987
 20
211.527626233
 11
707.4034942644
 21
211.711717354
  0
LINE
  5
5BE
100
AcDbEntity
  8
0
100
AcDbLine
 62
7
  6
CONTINUOUS
 10
706.1962281655
 20
212.2745052483
 11
706.4871183331
 21
211.8768520311
  0
LINE
  5
5BF
100
AcDbEntity
  8
0
100
AcDbLine
 62
7
  6
CONTINUOUS
 10
706.4871183331
 20
211.8768520311
 11
706.695176655
 21
211.5916705274
  0
LINE
  5
5C0
100
AcDbEntity
  8
BEZUGSACHSEN
100
AcDbLine
 62
7
  6
CONTINUOUS
 10
707.4034942644
 20
211.711717354
 11
707.2632147004
 21
211.9094249366
  0
LINE
  5
5C1
100
AcDbEntity
  8
BEZUGSACHSEN
100
AcDbLine
 62
7
  6
CONTINUOUS
 10
707.4684103287
 20
211.9351205661
 11
707.5685165599
 21
211.8057741607
  0
LINE
  5
5C2
100
AcDbEntity
  8
BEZUGSACHSEN
100
AcDbLine
 62
7
  6
CONTINUOUS
 10
707.5685165599
 20
211.8057741607
 11
707.7681128268
 21
211.5478148079
  0
LINE
  5
5C3
100
AcDbEntity
  8
BEZUGSACHSEN
100
AcDbLine
 62
7
  6
CONTINUOUS
 10
707.7681128268
 20
211.5478148079
 11
707.8676028035
 21
211.4192018186
  0
LINE
  5
5C4
100
AcDbEntity
  8
BEZUGSACHSEN
100
AcDbLine
 62
7
  6
CONTINUOUS
 10
707.4074075199
 20
212.0096789558
 11
707.4407788588
 21
211.9689095559
  0
LINE
  5
5C5
100
AcDbEntity
  8
BEZUGSACHSEN
100
AcDbLine
 62
7
  6
CONTINUOUS
 10
707.4407788588
 20
211.9689095559
 11
707.4684103287
 21
211.9351205661
  0
LINE
  5
5C6
100
AcDbEntity
  8
0
100
AcDbLine
 62
7
  6
CONTINUOUS
 10
718.5128807223
 20
187.5230760534
 11
717.6840238632
 21
187.8907223662
  0
LINE
  5
5C7
100
AcDbEntity
  8
BEZUGSACHSEN
100
AcDbLine
 62
7
  6
CONTINUOUS
 10
711.9081515984
 20
206.0478286777
 11
711.8896554847
 21
206.0919649298
  0
LINE
  5
5C8
100
AcDbEntity
  8
BEZUGSACHSEN
100
AcDbLine
 62
7
  6
CONTINUOUS
 10
711.8896554847
 20
206.0919649298
 11
711.8043836021
 21
206.2201078071
  0
LINE
  5
5C9
100
AcDbEntity
  8
BEZUGSACHSEN
100
AcDbLine
 62
7
  6
CONTINUOUS
 10
711.8043836021
 20
206.2201078071
 11
711.7614947992
 21
206.2840937281
  0
LINE
  5
5CA
100
AcDbEntity
  8
BEZUGSACHSEN
100
AcDbLine
 62
7
  6
CONTINUOUS
 10
711.7614947992
 20
206.2840937281
 11
711.7184381627
 21
206.3480229443
  0
LINE
  5
5CB
100
AcDbEntity
  8
BEZUGSACHSEN
100
AcDbLine
 62
7
  6
CONTINUOUS
 10
711.7184381627
 20
206.3480229443
 11
711.6437587663
 21
206.451274181
  0
LINE
  5
5CC
100
AcDbEntity
  8
BEZUGSACHSEN
100
AcDbLine
 62
7
  6
CONTINUOUS
 10
711.6437587663
 20
206.451274181
 11
711.4935691047
 21
206.6584634228
  0
LINE
  5
5CD
100
AcDbEntity
  8
BEZUGSACHSEN
100
AcDbLine
 62
7
  6
CONTINUOUS
 10
711.4935691047
 20
206.6584634228
 11
711.4180587264
 21
206.7624013656
  0
SPLINE
  5
5CE
100
AcDbEntity
  8
0
100
AcDbSpline
 62
7
  6
CONTINUOUS
 70
0
 71
3
 72
9
 73
5
 74
0
 42
0.0000001
 43
0.0000001
 44
0.0000000001
 40
0.0
 40
0.0
 40
0.0
 40
0.0
 40
0.5000053871
 40
1.0
 40
1.0
 40
1.0
 40
1.0
 10
715.1890502893
 20
178.4936706188
 30
0.0
 10
717.1237144306
 20
174.4874078781
 30
0.0
 10
720.7531179418
 20
166.3557637704
 30
0.0
 10
723.8065224838
 20
157.9892072812
 30
0.0
 10
725.184259172
 20
153.7590707464
 30
0.0
  0
LINE
  5
5CF
100
AcDbEntity
  8
BEZUGSACHSEN
100
AcDbLine
 62
7
  6
CONTINUOUS
 10
711.4180587264
 20
206.7624013656
 11
711.3137931293
 21
206.9006026716
  0
LINE
  5
5D0
100
AcDbEntity
  8
BEZUGSACHSEN
100
AcDbLine
 62
7
  6
CONTINUOUS
 10
711.3137931293
 20
206.9006026716
 11
711.1047004465
 21
207.1777143184
  0
LINE
  5
5D1
100
AcDbEntity
  8
BEZUGSACHSEN
100
AcDbLine
 62
7
  6
CONTINUOUS
 10
711.1047004465
 20
207.1777143184
 11
710.999873413
 21
207.3166246981
  0
SPLINE
  5
5D2
100
AcDbEntity
  8
0
100
AcDbSpline
 62
7
  6
CONTINUOUS
 70
0
 71
3
 72
9
 73
5
 74
0
 42
0.0000001
 43
0.0000001
 44
0.0000000001
 40
0.0
 40
0.0
 40
0.0
 40
0.0
 40
0.5000000005
 40
1.0
 40
1.0
 40
1.0
 40
1.0
 10
704.0407912096
 20
209.1232607065
 30
0.0
 10
706.522947219
 20
204.2783900937
 30
0.0
 10
710.9432324094
 20
194.2919315623
 30
0.0
 10
713.9762693094
 20
183.800555946
 30
0.0
 10
715.1890502893
 20
178.4936706188
 30
0.0
  0
LINE
  5
5D3
100
AcDbEntity
  8
BEZUGSACHSEN
100
AcDbLine
 62
7
  6
CONTINUOUS
 10
709.9104225809
 20
208.743620845
 11
710.0623434932
 21
208.5446341383
  0
LINE
  5
5D4
100
AcDbEntity
  8
BEZUGSACHSEN
100
AcDbLine
 62
7
  6
CONTINUOUS
 10
710.0623434932
 20
208.5446341383
 11
710.1836677631
 21
208.3857221534
  0
LINE
  5
5D5
100
AcDbEntity
  8
BEZUGSACHSEN
100
AcDbLine
 62
7
  6
CONTINUOUS
 10
710.1836677631
 20
208.3857221534
 11
710.4419986866
 21
208.0473545009
  0
LINE
  5
5D6
100
AcDbEntity
  8
BEZUGSACHSEN
100
AcDbLine
 62
7
  6
CONTINUOUS
 10
710.4419986866
 20
208.0473545009
 11
710.4563246542
 21
208.0285899174
  0
LINE
  5
5D7
100
AcDbEntity
  8
BEZUGSACHSEN
100
AcDbLine
 62
7
  6
CONTINUOUS
 10
710.4563246542
 20
208.0285899174
 11
710.7283932171
 21
207.6722241087
  0
LINE
  5
5D8
100
AcDbEntity
  8
BEZUGSACHSEN
100
AcDbLine
 62
7
  6
CONTINUOUS
 10
710.7283932171
 20
207.6722241087
 11
710.999873413
 21
207.3166246981
  0
SPLINE
  5
5D9
100
AcDbEntity
  8
0
100
AcDbSpline
 62
7
  6
CONTINUOUS
 70
0
 71
3
 72
11
 73
7
 74
0
 42
0.0000001
 43
0.0000001
 44
0.0000000001
 40
0.0
 40
0.0
 40
0.0
 40
0.0
 40
0.2530106614
 40
0.5000000005
 40
0.7469893397
 40
1.0
 40
1.0
 40
1.0
 40
1.0
 10
699.7825351565
 20
220.8227230586
 30
0.0
 10
700.4419786926
 20
219.9824986091
 30
0.0
 10
701.6386896456
 20
218.2328107858
 30
0.0
 10
702.9795377484
 20
215.3616664309
 30
0.0
 10
703.7979245352
 20
212.3003617109
 30
0.0
 10
704.0058684006
 20
210.1907921067
 30
0.0
 10
704.0407912096
 20
209.1232607065
 30
0.0
  0
LINE
  5
5DA
100
AcDbEntity
  8
BEZUGSACHSEN
100
AcDbLine
 62
7
  6
CONTINUOUS
 10
720.7023921021
 20
183.6938274181
 11
720.1501377852
 21
184.1733449263
  0
LINE
  5
5DB
100
AcDbEntity
  8
BEZUGSACHSEN
100
AcDbLine
 62
7
  6
CONTINUOUS
 10
720.1501377852
 20
184.1733449263
 11
717.9609397833
 21
186.0740777059
  0
LINE
  5
5DC
100
AcDbEntity
  8
BEZUGSACHSEN
100
AcDbLine
 62
7
  6
CONTINUOUS
 10
717.9609397833
 20
186.0740777059
 11
717.335431655
 21
186.6171314671
  0
LINE
  5
5DD
100
AcDbEntity
  8
BEZUGSACHSEN
100
AcDbLine
 62
7
  6
CONTINUOUS
 10
717.335431655
 20
186.6171314671
 11
715.8032155508
 21
187.9473191833
  0
SPLINE
  5
5DE
100
AcDbEntity
  8
0
100
AcDbSpline
 62
7
  6
CONTINUOUS
 70
0
 71
3
 72
8
 73
4
 74
0
 42
0.0000001
 43
0.0000001
 44
0.0000000001
 40
0.0
 40
0.0
 40
0.0
 40
0.0
 40
1.0
 40
1.0
 40
1.0
 40
1.0
 10
714.9235579978
 20
187.6271500177
 30
0.0
 10
716.6089424256
 20
186.2285470047
 30
0.0
 10
718.2941573052
 20
184.8297395984
 30
0.0
 10
719.9790597457
 20
183.4305559709
 30
0.0
  0
LINE
  5
5DF
100
AcDbEntity
  8
BEZUGSACHSEN
100
AcDbLine
 62
7
  6
CONTINUOUS
 10
709.1730947131
 20
209.6394183953
 11
709.3777638457
 21
209.3714971072
  0
LINE
  5
5E0
100
AcDbEntity
  8
BEZUGSACHSEN
100
AcDbLine
 62
7
  6
CONTINUOUS
 10
709.3777638457
 20
209.3714971072
 11
709.4143032745
 21
209.323665284
  0
LINE
  5
5E1
100
AcDbEntity
  8
BEZUGSACHSEN
100
AcDbLine
 62
7
  6
CONTINUOUS
 10
709.4143032745
 20
209.323665284
 11
709.9905648172
 21
208.569310554
  0
LINE
  5
5E2
100
AcDbEntity
  8
BEZUGSACHSEN
100
AcDbLine
 62
7
  6
CONTINUOUS
 10
715.1793312342
 20
191.169664332
 11
715.3103969782
 21
191.0990878267
  0
LINE
  5
5E3
100
AcDbEntity
  8
BEZUGSACHSEN
100
AcDbLine
 62
7
  6
CONTINUOUS
 10
715.3103969782
 20
191.0990878267
 11
715.4408802948
 21
191.0287736189
  0
LINE
  5
5E4
100
AcDbEntity
  8
BEZUGSACHSEN
100
AcDbLine
 62
7
  6
CONTINUOUS
 10
715.4408802948
 20
191.0287736189
 11
715.7533405065
 21
190.7571816788
  0
LINE
  5
5E5
100
AcDbEntity
  8
BEZUGSACHSEN
100
AcDbLine
 62
7
  6
CONTINUOUS
 10
716.1168178176
 20
190.3549277933
 11
715.7533405065
 21
190.7571816788
  0
LINE
  5
5E6
100
AcDbEntity
  8
BEZUGSACHSEN
100
AcDbLine
 62
7
  6
CONTINUOUS
 10
716.4267720154
 20
189.9124009154
 11
716.1168178176
 21
190.3549277933
  0
LINE
  5
5E7
100
AcDbEntity
  8
0
100
AcDbLine
 62
7
  6
CONTINUOUS
 10
715.4523529843
 20
189.9035641809
 11
715.6481885373
 21
189.6290197045
  0
LINE
  5
5E8
100
AcDbEntity
  8
BEZUGSACHSEN
100
AcDbLine
 62
7
  6
CONTINUOUS
 10
711.8320407114
 20
198.6058586695
 11
714.8796561958
 21
195.4794059283
  0
LINE
  5
5E9
100
AcDbEntity
  8
BEZUGSACHSEN
100
AcDbLine
 62
7
  6
CONTINUOUS
 10
714.8796561958
 20
195.4794059283
 11
715.3552086375
 21
194.9914664354
  0
LINE
  5
5EA
100
AcDbEntity
  8
0
100
AcDbLine
 62
7
  6
CONTINUOUS
 10
714.681510729
 20
194.7462604498
 11
713.2099103328
 21
196.1952051034
  0
LINE
  5
5EB
100
AcDbEntity
  8
0
100
AcDbLine
 62
7
  6
CONTINUOUS
 10
713.2099103328
 20
196.1952051034
 11
711.050362269
 21
198.3213509837
  0
LINE
  5
5EC
100
AcDbEntity
  8
BEZUGSACHSEN
100
AcDbLine
 62
7
  6
CONTINUOUS
 10
715.8548677505
 20
194.4107932216
 11
715.4804714691
 21
194.845904501
  0
LINE
  5
5ED
100
AcDbEntity
  8
BEZUGSACHSEN
100
AcDbLine
 62
7
  6
CONTINUOUS
 10
715.4804714691
 20
194.845904501
 11
715.3552086375
 21
194.9914664354
  0
LINE
  5
5EE
100
AcDbEntity
  8
0
100
AcDbLine
 62
7
  6
CONTINUOUS
 10
714.681510729
 20
194.7462604498
 11
715.1940951424
 21
194.1702916606
  0
LINE
  5
5EF
100
AcDbEntity
  8
BEZUGSACHSEN
100
AcDbLine
 62
7
  6
CONTINUOUS
 10
716.285623698
 20
193.8323013164
 11
715.8548677505
 21
194.4107932216
  0
LINE
  5
5F0
100
AcDbEntity
  8
0
100
AcDbLine
 62
7
  6
CONTINUOUS
 10
715.1940951424
 20
194.1702916606
 11
715.6331633499
 21
193.5948251707
  0
LINE
  5
5F1
100
AcDbEntity
  8
0
100
AcDbLine
 62
7
  6
CONTINUOUS
 10
716.2140303443
 20
192.5876434901
 11
716.2857867686
 21
192.4435898483
  0
LINE
  5
5F2
100
AcDbEntity
  8
0
100
AcDbLine
 62
7
  6
CONTINUOUS
 10
716.2857867686
 20
192.4435898483
 11
716.3462497148
 21
192.2785295114
  0
LINE
  5
5F3
100
AcDbEntity
  8
BEZUGSACHSEN
100
AcDbLine
 62
7
  6
CONTINUOUS
 10
717.1653117616
 20
191.8760761779
 11
717.1374308309
 21
192.048345249
  0
LINE
  5
5F4
100
AcDbEntity
  8
BEZUGSACHSEN
100
AcDbLine
 62
7
  6
CONTINUOUS
 10
717.1374308309
 20
192.048345249
 11
717.108859467
 21
192.2203667911
  0
LINE
  5
5F5
100
AcDbEntity
  8
BEZUGSACHSEN
100
AcDbLine
 62
7
  6
CONTINUOUS
 10
709.426997994
 20
208.5779283761
 11
709.1220985351
 21
209.0115482329
  0
LINE
  5
5F6
100
AcDbEntity
  8
BEZUGSACHSEN
100
AcDbLine
 62
7
  6
CONTINUOUS
 10
709.1220985351
 20
209.0115482329
 11
708.7023294587
 21
209.5705615075
  0
LINE
  5
5F7
100
AcDbEntity
  8
BEZUGSACHSEN
100
AcDbLine
 62
7
  6
CONTINUOUS
 10
716.636033412
 20
191.5366723739
 11
716.1693549046
 21
192.0150161125
  0
LINE
  5
5F8
100
AcDbEntity
  8
BEZUGSACHSEN
100
AcDbLine
 62
7
  6
CONTINUOUS
 10
716.1693549046
 20
192.0150161125
 11
713.1104662542
 21
195.1501913591
  0
LINE
  5
5F9
100
AcDbEntity
  8
0
100
AcDbLine
 62
7
  6
CONTINUOUS
 10
712.2964935319
 20
194.8539295167
 11
714.9352050644
 21
192.2542202488
  0
LINE
  5
5FA
100
AcDbEntity
  8
0
100
AcDbLine
 62
7
  6
CONTINUOUS
 10
714.9352050644
 20
192.2542202488
 11
715.0307849318
 21
192.1600416796
  0
LINE
  5
5FB
100
AcDbEntity
  8
0
100
AcDbLine
 62
7
  6
CONTINUOUS
 10
715.0307849318
 20
192.1600416796
 11
715.0534997154
 21
192.1376597882
  0
LINE
  5
5FC
100
AcDbEntity
  8
0
100
AcDbLine
 62
7
  6
CONTINUOUS
 10
715.0534997154
 20
192.1376597882
 11
715.2562697375
 21
191.9378591922
  0
LINE
  5
5FD
100
AcDbEntity
  8
0
100
AcDbLine
 62
7
  6
CONTINUOUS
 10
715.2562697375
 20
191.9378591922
 11
715.648574735
 21
191.5512875859
  0
LINE
  5
5FE
100
AcDbEntity
  8
0
100
AcDbLine
 62
7
  6
CONTINUOUS
 10
715.648574735
 20
191.5512875859
 11
715.9257524048
 21
191.2781512293
  0
LINE
  5
5FF
100
AcDbEntity
  8
BEZUGSACHSEN
100
AcDbLine
 62
7
  6
CONTINUOUS
 10
716.636033412
 20
191.5366723739
 11
717.1643688985
 21
191.0698766864
  0
LINE
  5
600
100
AcDbEntity
  8
0
100
AcDbLine
 62
7
  6
CONTINUOUS
 10
716.4721889328
 20
190.8179437821
 11
716.3359897812
 21
190.9326580161
  0
LINE
  5
601
100
AcDbEntity
  8
0
100
AcDbLine
 62
7
  6
CONTINUOUS
 10
716.3359897812
 20
190.9326580161
 11
716.0316047901
 21
191.1890089331
  0
LINE
  5
602
100
AcDbEntity
  8
0
100
AcDbLine
 62
7
  6
CONTINUOUS
 10
716.0316047901
 20
191.1890089331
 11
715.9257524048
 21
191.2781512293
  0
LINE
  5
603
100
AcDbEntity
  8
BEZUGSACHSEN
100
AcDbLine
 62
7
  6
CONTINUOUS
 10
717.1643688985
 20
191.0698766864
 11
717.5382792511
 21
190.8355325082
  0
LINE
  5
604
100
AcDbEntity
  8
0
100
AcDbLine
 62
7
  6
CONTINUOUS
 10
716.8623302686
 20
190.5895071987
 11
716.4721889328
 21
190.8179437821
  0
LINE
  5
605
100
AcDbEntity
  8
BEZUGSACHSEN
100
AcDbLine
 62
7
  6
CONTINUOUS
 10
708.3016558441
 20
210.0839773989
 11
708.7023294587
 21
209.5705615075
  0
LINE
  5
606
100
AcDbEntity
  8
BEZUGSACHSEN
100
AcDbLine
 62
7
  6
CONTINUOUS
 10
707.9200022626
 20
210.5517672221
 11
708.1112224223
 21
210.3174304636
  0
LINE
  5
607
100
AcDbEntity
  8
BEZUGSACHSEN
100
AcDbLine
 62
7
  6
CONTINUOUS
 10
708.1112224223
 20
210.3174304636
 11
708.2173655584
 21
210.1873191793
  0
LINE
  5
608
100
AcDbEntity
  8
BEZUGSACHSEN
100
AcDbLine
 62
7
  6
CONTINUOUS
 10
708.2173655584
 20
210.1873191793
 11
708.3016558441
 21
210.0839773989
  0
LINE
  5
609
100
AcDbEntity
  8
BEZUGSACHSEN
100
AcDbLine
 62
7
  6
CONTINUOUS
 10
707.6904394021
 20
210.8026170499
 11
707.8628788874
 21
210.6142762957
  0
LINE
  5
60A
100
AcDbEntity
  8
BEZUGSACHSEN
100
AcDbLine
 62
7
  6
CONTINUOUS
 10
707.8628788874
 20
210.6142762957
 11
707.9200022626
 21
210.5517672221
  0
LINE
  5
60B
100
AcDbEntity
  8
BEZUGSACHSEN
100
AcDbLine
 62
7
  6
CONTINUOUS
 10
716.563098468
 20
194.6787785446
 11
716.0377761907
 21
195.2788404327
  0
LINE
  5
60C
100
AcDbEntity
  8
BEZUGSACHSEN
100
AcDbLine
 62
7
  6
CONTINUOUS
 10
716.0377761907
 20
195.2788404327
 11
715.4599111575
 21
195.9388988612
  0
LINE
  5
60D
100
AcDbEntity
  8
BEZUGSACHSEN
100
AcDbLine
 62
7
  6
CONTINUOUS
 10
715.4599111575
 20
195.9388988612
 11
715.4259584711
 21
195.9776801723
  0
LINE
  5
60E
100
AcDbEntity
  8
BEZUGSACHSEN
100
AcDbLine
 62
7
  6
CONTINUOUS
 10
715.4259584711
 20
195.9776801723
 11
711.1904303452
 21
200.8150670088
  0
LINE
  5
60F
100
AcDbEntity
  8
BEZUGSACHSEN
100
AcDbLine
 62
7
  6
CONTINUOUS
 10
711.1904303452
 20
200.8150670088
 11
710.8303610059
 21
201.2262619665
  0
LINE
  5
610
100
AcDbEntity
  8
0
100
AcDbLine
 62
7
  6
CONTINUOUS
 10
710.0710332478
 20
200.9498892645
 11
711.5693280152
 21
199.2991210927
  0
SPLINE
  5
611
100
AcDbEntity
  8
0
100
AcDbSpline
 62
7
  6
CONTINUOUS
 70
0
 71
3
 72
8
 73
4
 74
0
 42
0.0000001
 43
0.0000001
 44
0.0000000001
 40
0.0
 40
0.0
 40
0.0
 40
0.0
 40
1.0
 40
1.0
 40
1.0
 40
1.0
 10
706.6781145144
 20
210.2813198412
 30
0.0
 10
708.8233346508
 20
207.6195015493
 30
0.0
 10
710.9683281214
 20
204.9575005322
 30
0.0
 10
713.1129042089
 20
202.295163315
 30
0.0
  0
LINE
  5
612
100
AcDbEntity
  8
BEZUGSACHSEN
100
AcDbLine
 62
7
  6
CONTINUOUS
 10
713.6296414071
 20
202.4832402742
 11
713.4590552629
 21
202.7019023089
  0
LINE
  5
613
100
AcDbEntity
  8
BEZUGSACHSEN
100
AcDbLine
 62
7
  6
CONTINUOUS
 10
713.4590552629
 20
202.7019023089
 11
710.6546741992
 21
206.2963147594
  0
LINE
  5
614
100
AcDbEntity
  8
BEZUGSACHSEN
100
AcDbLine
 62
7
  6
CONTINUOUS
 10
710.6546741992
 20
206.2963147594
 11
710.534285607
 21
206.4506061563
  0
LINE
  5
615
100
AcDbEntity
  8
BEZUGSACHSEN
100
AcDbLine
 62
7
  6
CONTINUOUS
 10
710.534285607
 20
206.4506061563
 11
710.1643387333
 21
206.9247286649
  0
LINE
  5
616
100
AcDbEntity
  8
BEZUGSACHSEN
100
AcDbLine
 62
7
  6
CONTINUOUS
 10
710.1643387333
 20
206.9247286649
 11
709.8533717773
 21
207.3232562929
  0
LINE
  5
617
100
AcDbEntity
  8
BEZUGSACHSEN
100
AcDbLine
 62
7
  6
CONTINUOUS
 10
709.8533717773
 20
207.3232562929
 11
707.8500253326
 21
209.8905648166
  0
LINE
  5
618
100
AcDbEntity
  8
BEZUGSACHSEN
100
AcDbLine
 62
7
  6
CONTINUOUS
 10
707.8500253326
 20
209.8905648166
 11
707.3533143918
 21
210.5270724987
  0
LINE
  5
619
100
AcDbEntity
  8
BEZUGSACHSEN
100
AcDbLine
 62
7
  6
CONTINUOUS
 10
710.4539756156
 20
207.1507313667
 11
710.9564497528
 21
206.5415184959
  0
LINE
  5
61A
100
AcDbEntity
  8
BEZUGSACHSEN
100
AcDbLine
 62
7
  6
CONTINUOUS
 10
710.9564497528
 20
206.5415184959
 11
711.1347294285
 21
206.3252018333
  0
LINE
  5
61B
100
AcDbEntity
  8
BEZUGSACHSEN
100
AcDbLine
 62
7
  6
CONTINUOUS
 10
712.89759639
 20
204.1811232846
 11
713.1093848936
 21
203.9228638942
  0
LINE
  5
61C
100
AcDbEntity
  8
BEZUGSACHSEN
100
AcDbLine
 62
7
  6
CONTINUOUS
 10
710.8444834218
 20
202.9291060206
 11
710.917607546
 21
202.8716254373
  0
LINE
  5
61D
100
AcDbEntity
  8
BEZUGSACHSEN
100
AcDbLine
 62
7
  6
CONTINUOUS
 10
710.917607546
 20
202.8716254373
 11
711.0630801343
 21
202.7571166911
  0
LINE
  5
61E
100
AcDbEntity
  8
BEZUGSACHSEN
100
AcDbLine
 62
7
  6
CONTINUOUS
 10
711.0630801343
 20
202.7571166911
 11
711.1354286214
 21
202.7000885397
  0
LINE
  5
61F
100
AcDbEntity
  8
BEZUGSACHSEN
100
AcDbLine
 62
7
  6
CONTINUOUS
 10
711.1354286214
 20
202.7000885397
 11
711.2483456664
 21
202.5839575883
  0
LINE
  5
620
100
AcDbEntity
  8
BEZUGSACHSEN
100
AcDbLine
 62
7
  6
CONTINUOUS
 10
711.2483456664
 20
202.5839575883
 11
711.5854170818
 21
202.2371573286
  0
LINE
  5
621
100
AcDbEntity
  8
BEZUGSACHSEN
100
AcDbLine
 62
7
  6
CONTINUOUS
 10
711.5854170818
 20
202.2371573286
 11
712.9600468114
 21
200.6661006086
  0
LINE
  5
622
100
AcDbEntity
  8
BEZUGSACHSEN
100
AcDbLine
 62
7
  6
CONTINUOUS
 10
712.9600468114
 20
200.6661006086
 11
713.0341565294
 21
200.5813952409
  0
LINE
  5
623
100
AcDbEntity
  8
BEZUGSACHSEN
100
AcDbLine
 62
7
  6
CONTINUOUS
 10
713.0341565294
 20
200.5813952409
 11
713.4140456696
 21
200.1471825352
  0
LINE
  5
624
100
AcDbEntity
  8
0
100
AcDbLine
 62
7
  6
CONTINUOUS
 10
712.7928172182
 20
199.9210738702
 11
711.6264515031
 21
201.2054166494
  0
LINE
  5
625
100
AcDbEntity
  8
0
100
AcDbLine
 62
7
  6
CONTINUOUS
 10
711.6264515031
 20
201.2054166494
 11
711.0517012048
 21
201.8382748215
  0
LINE
  5
626
100
AcDbEntity
  8
BEZUGSACHSEN
100
AcDbLine
 62
7
  6
CONTINUOUS
 10
713.9396123468
 20
199.4955649588
 11
713.5457990716
 21
199.9838406225
  0
LINE
  5
627
100
AcDbEntity
  8
BEZUGSACHSEN
100
AcDbLine
 62
7
  6
CONTINUOUS
 10
713.5457990716
 20
199.9838406225
 11
713.4140456696
 21
200.1471825352
  0
LINE
  5
628
100
AcDbEntity
  8
0
100
AcDbLine
 62
7
  6
CONTINUOUS
 10
712.7928172182
 20
199.9210738702
 11
713.3315117779
 21
199.2742344523
  0
LINE
  5
629
100
AcDbEntity
  8
BEZUGSACHSEN
100
AcDbLine
 62
7
  6
CONTINUOUS
 10
714.3808665887
 20
198.8888643626
 11
713.9396123468
 21
199.4955649588
  0
LINE
  5
62A
100
AcDbEntity
  8
0
100
AcDbLine
 62
7
  6
CONTINUOUS
 10
713.3315117779
 20
199.2742344523
 11
713.7815458667
 21
198.6707294591
  0
LINE
  5
62B
100
AcDbEntity
  8
0
100
AcDbLine
 62
7
  6
CONTINUOUS
 10
714.4106861863
 20
197.5919259706
 11
714.4768626331
 21
197.4134181667
  0
LINE
  5
62C
100
AcDbEntity
  8
BEZUGSACHSEN
100
AcDbLine
 62
7
  6
CONTINUOUS
 10
631.9111539094
 20
180.2997233702
 11
632.2525683225
 21
180.3439352639
  0
LINE
  5
62D
100
AcDbEntity
  8
BEZUGSACHSEN
100
AcDbLine
 62
7
  6
CONTINUOUS
 10
632.6865506075
 20
180.6551693008
 11
632.2525683225
 21
180.3439352639
  0
LINE
  5
62E
100
AcDbEntity
  8
BEZUGSACHSEN
100
AcDbLine
 62
7
  6
CONTINUOUS
 10
633.2133151392
 20
181.2333465785
 11
632.6865506075
 21
180.6551693008
  0
LINE
  5
62F
100
AcDbEntity
  8
BEZUGSACHSEN
100
AcDbLine
 62
7
  6
CONTINUOUS
 10
630.639204372
 20
185.0921648222
 11
631.0040062551
 21
185.3572454864
  0
LINE
  5
630
100
AcDbEntity
  8
BEZUGSACHSEN
100
AcDbLine
 62
7
  6
CONTINUOUS
 10
631.690411031
 20
188.2173153612
 11
632.1616035888
 21
188.6749093843
  0
SPLINE
  5
631
100
AcDbEntity
  8
BEZUGSACHSEN
100
AcDbSpline
 62
7
  6
CONTINUOUS
 70
0
 71
3
 72
8
 73
4
 74
0
 42
0.0000001
 43
0.0000001
 44
0.0000000001
 40
0.0
 40
0.0
 40
0.0
 40
0.0
 40
1.0
 40
1.0
 40
1.0
 40
1.0
 10
632.1616035888
 20
188.6749093843
 30
0.0
 10
634.5944053061
 20
191.0374489969
 30
0.0
 10
637.0275785643
 20
193.3996060217
 30
0.0
 10
639.4609027054
 20
195.7616075545
 30
0.0
  0
LINE
  5
632
100
AcDbEntity
  8
BEZUGSACHSEN
100
AcDbLine
 62
7
  6
CONTINUOUS
 10
643.8548785427
 20
207.2096423044
 11
643.1795662303
 21
206.338223014
  0
LINE
  5
633
100
AcDbEntity
  8
BEZUGSACHSEN
100
AcDbLine
 62
7
  6
CONTINUOUS
 10
643.1795662303
 20
206.338223014
 11
641.1566647751
 21
203.725356986
  0
LINE
  5
634
100
AcDbEntity
  8
BEZUGSACHSEN
100
AcDbLine
 62
7
  6
CONTINUOUS
 10
641.1566647751
 20
203.725356986
 11
641.0353790221
 21
203.5685684046
  0
LINE
  5
635
100
AcDbEntity
  8
BEZUGSACHSEN
100
AcDbLine
 62
7
  6
CONTINUOUS
 10
641.0353790221
 20
203.5685684046
 11
640.4941427932
 21
202.8687072684
  0
LINE
  5
636
100
AcDbEntity
  8
BEZUGSACHSEN
100
AcDbLine
 62
7
  6
CONTINUOUS
 10
640.4941427932
 20
202.8687072684
 11
640.3850943537
 21
202.7276598951
  0
LINE
  5
637
100
AcDbEntity
  8
BEZUGSACHSEN
100
AcDbLine
 62
7
  6
CONTINUOUS
 10
640.3850943537
 20
202.7276598951
 11
640.370934114
 21
202.7093435263
  0
LINE
  5
638
100
AcDbEntity
  8
BEZUGSACHSEN
100
AcDbLine
 62
7
  6
CONTINUOUS
 10
640.370934114
 20
202.7093435263
 11
639.876542645
 21
202.0697004298
  0
LINE
  5
639
100
AcDbEntity
  8
BEZUGSACHSEN
100
AcDbLine
 62
7
  6
CONTINUOUS
 10
639.876542645
 20
202.0697004298
 11
639.7568938516
 21
201.914855824
  0
SPLINE
  5
63A
100
AcDbEntity
  8
BEZUGSACHSEN
100
AcDbSpline
 62
7
  6
CONTINUOUS
 70
0
 71
3
 72
8
 73
4
 74
0
 42
0.0000001
 43
0.0000001
 44
0.0000000001
 40
0.0
 40
0.0
 40
0.0
 40
0.0
 40
1.0
 40
1.0
 40
1.0
 40
1.0
 10
639.7568938516
 20
201.914855824
 30
0.0
 10
638.6524244701
 20
200.4854171237
 30
0.0
 10
637.5490151406
 20
199.055158219
 30
0.0
 10
636.44705724
 20
197.6237825179
 30
0.0
  0
LINE
  5
63B
100
AcDbEntity
  8
BEZUGSACHSEN
100
AcDbLine
 62
7
  6
CONTINUOUS
 10
636.44705724
 20
197.6237825179
 11
634.6578799712
 21
195.2968788421
  0
LINE
  5
63C
100
AcDbEntity
  8
BEZUGSACHSEN
100
AcDbLine
 62
7
  6
CONTINUOUS
 10
634.6578799712
 20
195.2968788421
 11
634.5218020898
 21
195.1196518436
  0
LINE
  5
63D
100
AcDbEntity
  8
BEZUGSACHSEN
100
AcDbLine
 62
7
  6
CONTINUOUS
 10
634.5218020898
 20
195.1196518436
 11
634.0855469054
 21
194.5512162563
  0
LINE
  5
63E
100
AcDbEntity
  8
BEZUGSACHSEN
100
AcDbLine
 62
7
  6
CONTINUOUS
 10
634.9119503161
 20
195.1017280106
 11
635.1036579778
 21
195.2797588488
  0
LINE
  5
63F
100
AcDbEntity
  8
BEZUGSACHSEN
100
AcDbLine
 62
7
  6
CONTINUOUS
 10
640.8169378176
 20
200.5289148618
 11
641.5463799041
 21
201.19311671
  0
LINE
  5
640
100
AcDbEntity
  8
BEZUGSACHSEN
100
AcDbLine
 62
7
  6
CONTINUOUS
 10
639.9211489964
 20
203.1611253906
 11
640.5597878423
 21
203.9365004317
  0
LINE
  5
641
100
AcDbEntity
  8
BEZUGSACHSEN
100
AcDbLine
 62
7
  6
CONTINUOUS
 10
641.4086395402
 20
205.9397706324
 11
641.4535350626
 21
205.9815143815
  0
LINE
  5
642
100
AcDbEntity
  8
BEZUGSACHSEN
100
AcDbLine
 62
7
  6
CONTINUOUS
 10
642.1159543339
 20
206.5924028289
 11
642.6020086303
 21
207.1370020749
  0
LINE
  5
643
100
AcDbEntity
  8
BEZUGSACHSEN
100
AcDbLine
 62
7
  6
CONTINUOUS
 10
642.8652389237
 20
207.4683246014
 11
642.6020086303
 21
207.1370020749
  0
LINE
  5
644
100
AcDbEntity
  8
BEZUGSACHSEN
100
AcDbLine
 62
7
  6
CONTINUOUS
 10
643.3005668223
 20
208.0833243812
 11
642.8652389237
 21
207.4683246014
  0
LINE
  5
645
100
AcDbEntity
  8
BEZUGSACHSEN
100
AcDbLine
 62
7
  6
CONTINUOUS
 10
643.5106847339
 20
209.1582816785
 11
643.6011683145
 21
209.2674646273
  0
LINE
  5
646
100
AcDbEntity
  8
BEZUGSACHSEN
100
AcDbLine
 62
7
  6
CONTINUOUS
 10
643.6011683145
 20
209.2674646273
 11
643.7609312949
 21
209.4602120568
  0
LINE
  5
647
100
AcDbEntity
  8
BEZUGSACHSEN
100
AcDbLine
 62
7
  6
CONTINUOUS
 10
643.7609312949
 20
209.4602120568
 11
643.8865224256
 21
209.6117040167
  0
LINE
  5
648
100
AcDbEntity
  8
BEZUGSACHSEN
100
AcDbLine
 62
7
  6
CONTINUOUS
 10
643.8865224256
 20
209.6117040167
 11
644.0124253803
 21
209.7635472087
  0
LINE
  5
649
100
AcDbEntity
  8
BEZUGSACHSEN
100
AcDbLine
 62
7
  6
CONTINUOUS
 10
638.8020322132
 20
203.2501269356
 11
639.459306995
 21
204.0787234283
  0
LINE
  5
64A
100
AcDbEntity
  8
BEZUGSACHSEN
100
AcDbLine
 62
7
  6
CONTINUOUS
 10
642.281157414
 20
208.2660066122
 11
642.5267799042
 21
208.5427132265
  0
LINE
  5
64B
100
AcDbEntity
  8
BEZUGSACHSEN
100
AcDbLine
 62
7
  6
CONTINUOUS
 10
643.0784635748
 20
209.1600184336
 11
643.2514407054
 21
209.3709431338
  0
LINE
  5
64C
100
AcDbEntity
  8
BEZUGSACHSEN
100
AcDbLine
 62
7
  6
CONTINUOUS
 10
643.2514407054
 20
209.3709431338
 11
643.3367219482
 21
209.4748986985
  0
LINE
  5
64D
100
AcDbEntity
  8
BEZUGSACHSEN
100
AcDbLine
 62
7
  6
CONTINUOUS
 10
643.3367219482
 20
209.4748986985
 11
643.5966823309
 21
209.7916448591
  0
LINE
  5
64E
100
AcDbEntity
  8
BEZUGSACHSEN
100
AcDbLine
 62
7
  6
CONTINUOUS
 10
643.8668577743
 20
210.1420994199
 11
643.7380755656
 21
209.9750514386
  0
LINE
  5
64F
100
AcDbEntity
  8
BEZUGSACHSEN
100
AcDbLine
 62
7
  6
CONTINUOUS
 10
643.7380755656
 20
209.9750514386
 11
643.664184848
 21
209.87920501
  0
LINE
  5
650
100
AcDbEntity
  8
BEZUGSACHSEN
100
AcDbLine
 62
7
  6
CONTINUOUS
 10
643.664184848
 20
209.87920501
 11
643.5966823309
 21
209.7916448591
  0
LINE
  5
651
100
AcDbEntity
  8
BEZUGSACHSEN
100
AcDbLine
 62
7
  6
CONTINUOUS
 10
644.2943448326
 20
210.7370283579
 11
644.0799125309
 21
210.4387500497
  0
LINE
  5
652
100
AcDbEntity
  8
BEZUGSACHSEN
100
AcDbLine
 62
7
  6
CONTINUOUS
 10
644.0799125309
 20
210.4387500497
 11
643.8668577743
 21
210.1420994199
  0
LINE
  5
653
100
AcDbEntity
  8
BEZUGSACHSEN
100
AcDbLine
 62
7
  6
CONTINUOUS
 10
644.2473974544
 20
211.1249829805
 11
644.4136582421
 21
211.3365875431
  0
LINE
  5
654
100
AcDbEntity
  8
BEZUGSACHSEN
100
AcDbLine
 62
7
  6
CONTINUOUS
 10
644.4136582421
 20
211.3365875431
 11
644.6405658398
 21
211.6253133725
  0
LINE
  5
655
100
AcDbEntity
  8
BEZUGSACHSEN
100
AcDbLine
 62
7
  6
CONTINUOUS
 10
644.6405658398
 20
211.6253133725
 11
644.6567032243
 21
211.6458443454
  0
LINE
  5
656
100
AcDbEntity
  8
BEZUGSACHSEN
100
AcDbLine
 62
7
  6
CONTINUOUS
 10
644.6567032243
 20
211.6458443454
 11
644.7423021003
 21
211.7547422394
  0
LINE
  5
657
100
AcDbEntity
  8
BEZUGSACHSEN
100
AcDbLine
 62
7
  6
CONTINUOUS
 10
644.7423021003
 20
211.7547422394
 11
644.7722650687
 21
211.7928582999
  0
LINE
  5
658
100
AcDbEntity
  8
BEZUGSACHSEN
100
AcDbLine
 62
7
  6
CONTINUOUS
 10
639.4035142719
 20
204.8484643721
 11
640.0783171491
 21
205.7248307469
  0
LINE
  5
659
100
AcDbEntity
  8
BEZUGSACHSEN
100
AcDbLine
 62
7
  6
CONTINUOUS
 10
640.516870924
 20
206.5192665153
 11
641.0719523466
 21
207.2516043364
  0
LINE
  5
65A
100
AcDbEntity
  8
BEZUGSACHSEN
100
AcDbLine
 62
7
  6
CONTINUOUS
 10
639.9311729177
 20
205.7302457393
 11
640.076258404
 21
205.9260668751
  0
LINE
  5
65B
100
AcDbEntity
  8
BEZUGSACHSEN
100
AcDbLine
 62
7
  6
CONTINUOUS
 10
640.076258404
 20
205.9260668751
 11
640.2222364409
 21
206.1228441298
  0
LINE
  5
65C
100
AcDbEntity
  8
BEZUGSACHSEN
100
AcDbLine
 62
7
  6
CONTINUOUS
 10
640.2222364409
 20
206.1228441298
 11
640.516870924
 21
206.5192665153
  0
LINE
  5
65D
100
AcDbEntity
  8
BEZUGSACHSEN
100
AcDbLine
 62
7
  6
CONTINUOUS
 10
639.6202496768
 20
205.2970965406
 11
639.6975256159
 21
205.4051770816
  0
LINE
  5
65E
100
AcDbEntity
  8
BEZUGSACHSEN
100
AcDbLine
 62
7
  6
CONTINUOUS
 10
639.5747073892
 20
205.2284379914
 11
639.6202496768
 21
205.2970965406
  0
LINE
  5
65F
100
AcDbEntity
  8
BEZUGSACHSEN
100
AcDbLine
 62
7
  6
CONTINUOUS
 10
639.421101817
 20
204.9777271618
 11
639.4396560321
 21
205.0218421827
  0
LINE
  5
660
100
AcDbEntity
  8
BEZUGSACHSEN
100
AcDbLine
 62
7
  6
CONTINUOUS
 10
645.5143685946
 20
213.0436878467
 11
645.2602354198
 21
212.7235756084
  0
LINE
  5
661
100
AcDbEntity
  8
BEZUGSACHSEN
100
AcDbLine
 62
7
  6
CONTINUOUS
 10
645.2602354198
 20
212.7235756084
 11
645.1343164736
 21
212.5645612829
  0
LINE
  5
662
100
AcDbEntity
  8
BEZUGSACHSEN
100
AcDbLine
 62
7
  6
CONTINUOUS
 10
645.1343164736
 20
212.5645612829
 11
645.0808635722
 21
212.4969770251
  0
LINE
  5
663
100
AcDbEntity
  8
BEZUGSACHSEN
100
AcDbLine
 62
7
  6
CONTINUOUS
 10
645.0808635722
 20
212.4969770251
 11
645.0091619586
 21
212.4062418589
  0
LINE
  5
664
100
AcDbEntity
  8
BEZUGSACHSEN
100
AcDbLine
 62
7
  6
CONTINUOUS
 10
645.0091619586
 20
212.4062418589
 11
644.8408658528
 21
212.1871112954
  0
LINE
  5
665
100
AcDbEntity
  8
BEZUGSACHSEN
100
AcDbLine
 62
7
  6
CONTINUOUS
 10
644.8408658528
 20
212.1871112954
 11
644.5945325304
 21
211.8663184063
  0
LINE
  5
666
100
AcDbEntity
  8
BEZUGSACHSEN
100
AcDbLine
 62
7
  6
CONTINUOUS
 10
644.5945325304
 20
211.8663184063
 11
644.5056618209
 21
211.7505687189
  0
LINE
  5
667
100
AcDbEntity
  8
BEZUGSACHSEN
100
AcDbLine
 62
7
  6
CONTINUOUS
 10
644.5056618209
 20
211.7505687189
 11
644.3387540805
 21
211.5331565697
  0
LINE
  5
668
100
AcDbEntity
  8
BEZUGSACHSEN
100
AcDbLine
 62
7
  6
CONTINUOUS
 10
644.0833853913
 20
210.9026195215
 11
644.1879003616
 21
211.0460475803
  0
LINE
  5
669
100
AcDbEntity
  8
BEZUGSACHSEN
100
AcDbLine
 62
7
  6
CONTINUOUS
 10
644.1879003616
 20
211.0460475803
 11
644.3996568324
 21
211.3364227746
  0
LINE
  5
66A
100
AcDbEntity
  8
BEZUGSACHSEN
100
AcDbLine
 62
7
  6
CONTINUOUS
 10
644.3996568324
 20
211.3364227746
 11
644.4220930157
 21
211.3671715475
  0
LINE
  5
66B
100
AcDbEntity
  8
BEZUGSACHSEN
100
AcDbLine
 62
7
  6
CONTINUOUS
 10
643.5330456197
 20
210.1685565577
 11
643.6701445695
 21
210.3514579813
  0
LINE
  5
66C
100
AcDbEntity
  8
BEZUGSACHSEN
100
AcDbLine
 62
7
  6
CONTINUOUS
 10
643.6701445695
 20
210.3514579813
 11
643.8075675505
 21
210.5347689232
  0
LINE
  5
66D
100
AcDbEntity
  8
BEZUGSACHSEN
100
AcDbLine
 62
7
  6
CONTINUOUS
 10
643.8075675505
 20
210.5347689232
 11
643.9453145086
 21
210.7184894234
  0
LINE
  5
66E
100
AcDbEntity
  8
BEZUGSACHSEN
100
AcDbLine
 62
7
  6
CONTINUOUS
 10
643.9453145086
 20
210.7184894234
 11
644.0833853913
 21
210.9026195215
  0
LINE
  5
66F
100
AcDbEntity
  8
BEZUGSACHSEN
100
AcDbLine
 62
7
  6
CONTINUOUS
 10
643.2978369959
 20
209.8605556574
 11
643.3746794531
 21
209.961179489
  0
LINE
  5
670
100
AcDbEntity
  8
BEZUGSACHSEN
100
AcDbLine
 62
7
  6
CONTINUOUS
 10
643.3746794531
 20
209.961179489
 11
643.5330456197
 21
210.1685565577
  0
LINE
  5
671
100
AcDbEntity
  8
BEZUGSACHSEN
100
AcDbLine
 62
7
  6
CONTINUOUS
 10
643.113627972
 20
209.9276020665
 11
642.730520254
 21
209.4255014358
  0
LINE
  5
672
100
AcDbEntity
  8
BEZUGSACHSEN
100
AcDbLine
 62
7
  6
CONTINUOUS
 10
642.730520254
 20
209.4255014358
 11
641.0719523466
 21
207.2516043364
  0
LINE
  5
673
100
AcDbEntity
  8
BEZUGSACHSEN
100
AcDbLine
 62
7
  6
CONTINUOUS
 10
622.7523360125
 20
91.0934720176
 11
621.6114145874
 21
94.1691778871
  0
LINE
  5
674
100
AcDbEntity
  8
RUNDUNGEN
100
AcDbLine
 62
7
  6
CONTINUOUS
 10
604.6645715999
 20
97.6768798682
 11
607.5155937416
 21
99.2996371025
  0
LINE
  5
675
100
AcDbEntity
  8
BEZUGSACHSEN
100
AcDbLine
 62
7
  6
CONTINUOUS
 10
633.5498507068
 20
193.1328407463
 11
634.3223219656
 21
193.8443481234
  0
LINE
  5
676
100
AcDbEntity
  8
BEZUGSACHSEN
100
AcDbLine
 62
7
  6
CONTINUOUS
 10
634.3223219656
 20
193.8443481234
 11
635.2682295499
 21
194.7128925049
  0
LINE
  5
677
100
AcDbEntity
  8
BEZUGSACHSEN
100
AcDbLine
 62
7
  6
CONTINUOUS
 10
640.1592483249
 20
202.8728729013
 11
639.5203605449
 21
202.0975884649
  0
SPLINE
  5
678
100
AcDbEntity
  8
BEZUGSACHSEN
100
AcDbSpline
 62
7
  6
CONTINUOUS
 70
0
 71
3
 72
9
 73
5
 74
0
 42
0.0000001
 43
0.0000001
 44
0.0000000001
 40
0.0
 40
0.0
 40
0.0
 40
0.0
 40
0.4999946137
 40
1.0
 40
1.0
 40
1.0
 40
1.0
 10
641.7200831282
 20
148.3877431826
 30
0.0
 10
643.3837549486
 20
152.5138078479
 30
0.0
 10
646.4226302126
 20
160.8856525619
 30
0.0
 10
648.8692658999
 20
169.4477889515
 30
0.0
 10
649.9624032343
 20
173.7603423938
 30
0.0
  0
SPLINE
  5
679
100
AcDbEntity
  8
BEZUGSACHSEN
100
AcDbSpline
 62
7
  6
CONTINUOUS
 70
0
 71
3
 72
9
 73
5
 74
0
 42
0.0000001
 43
0.0000001
 44
0.0000000001
 40
0.0
 40
0.0
 40
0.0
 40
0.0
 40
0.5000000005
 40
1.0
 40
1.0
 40
1.0
 40
1.0
 10
649.9624032343
 20
173.7603423938
 30
0.0
 10
652.4445592437
 20
178.6052130066
 30
0.0
 10
656.8648444342
 20
188.591671538
 30
0.0
 10
659.8978813341
 20
199.0830471543
 30
0.0
 10
661.110662314
 20
204.3899324815
 30
0.0
  0
SPLINE
  5
67A
100
AcDbEntity
  8
BEZUGSACHSEN
100
AcDbSpline
 62
7
  6
CONTINUOUS
 70
0
 71
3
 72
11
 73
7
 74
0
 42
0.0000001
 43
0.0000001
 44
0.0000000001
 40
0.0
 40
0.0
 40
0.0
 40
0.0
 40
0.2530106614
 40
0.5000000005
 40
0.7469893397
 40
1.0
 40
1.0
 40
1.0
 40
1.0
 10
661.110662314
 20
204.3899324815
 30
0.0
 10
661.7701058501
 20
205.230156931
 30
0.0
 10
662.9668168031
 20
206.9798447542
 30
0.0
 10
664.3076649059
 20
209.8509891091
 30
0.0
 10
665.1260516927
 20
212.9122938291
 30
0.0
 10
665.3339955581
 20
215.0218634334
 30
0.0
 10
665.3689183671
 20
216.0893948335
 30
0.0
  0
LINE
  5
67B
100
AcDbEntity
  8
BEZUGSACHSEN
100
AcDbLine
 62
7
  6
CONTINUOUS
 10
643.8831648534
 20
209.3696412872
 11
643.9318651184
 21
209.4090574252
  0
LINE
  5
67C
100
AcDbEntity
  8
BEZUGSACHSEN
100
AcDbLine
 62
7
  6
CONTINUOUS
 10
643.3903946203
 20
208.8701884942
 11
643.4768669987
 21
208.9651442646
  0
LINE
  5
67D
100
AcDbEntity
  8
BEZUGSACHSEN
100
AcDbLine
 62
7
  6
CONTINUOUS
 10
643.4768669987
 20
208.9651442646
 11
643.6507055224
 21
209.1558440098
  0
LINE
  5
67E
100
AcDbEntity
  8
BEZUGSACHSEN
100
AcDbLine
 62
7
  6
CONTINUOUS
 10
643.6507055224
 20
209.1558440098
 11
643.6947030588
 21
209.2040685714
  0
LINE
  5
67F
100
AcDbEntity
  8
BEZUGSACHSEN
100
AcDbLine
 62
7
  6
CONTINUOUS
 10
643.6947030588
 20
209.2040685714
 11
643.7380716895
 21
209.2515879721
  0
LINE
  5
680
100
AcDbEntity
  8
0
100
AcDbLine
 62
7
  6
CONTINUOUS
 10
643.3996662624
 20
206.8755581039
 11
643.5387282603
 21
207.0542857618
  0
LINE
  5
681
100
AcDbEntity
  8
0
100
AcDbLine
 62
7
  6
CONTINUOUS
 10
643.5387282603
 20
207.0542857618
 11
643.8178928879
 21
207.4129966261
  0
LINE
  5
682
100
AcDbEntity
  8
0
100
AcDbLine
 62
7
  6
CONTINUOUS
 10
643.8178928879
 20
207.4129966261
 11
643.9579953943
 21
207.5929799264
  0
LINE
  5
683
100
AcDbEntity
  8
BEZUGSACHSEN
100
AcDbLine
 62
7
  6
CONTINUOUS
 10
643.2930646678
 20
207.8349949187
 11
642.7474749325
 21
207.112936335
  0
LINE
  5
684
100
AcDbEntity
  8
0
100
AcDbLine
 62
7
  6
CONTINUOUS
 10
643.129770205
 20
206.546661717
 11
643.3996662624
 21
206.8755581039
  0
LINE
  5
685
100
AcDbEntity
  8
BEZUGSACHSEN
100
AcDbLine
 62
7
  6
CONTINUOUS
 10
642.7474749325
 20
207.112936335
 11
642.484324762
 21
206.7815846461
  0
LINE
  5
686
100
AcDbEntity
  8
0
100
AcDbLine
 62
7
  6
CONTINUOUS
 10
643.129770205
 20
206.546661717
 11
642.6084023364
 21
205.9485414306
  0
LINE
  5
687
100
AcDbEntity
  8
BEZUGSACHSEN
100
AcDbLine
 62
7
  6
CONTINUOUS
 10
641.9772340612
 20
206.1782678956
 11
642.484324762
 21
206.7815846461
  0
LINE
  5
688
100
AcDbEntity
  8
0
100
AcDbLine
 62
7
  6
CONTINUOUS
 10
642.6084023364
 20
205.9485414306
 11
642.2407971508
 21
205.5743921555
  0
LINE
  5
689
100
AcDbEntity
  8
BEZUGSACHSEN
100
AcDbLine
 62
7
  6
CONTINUOUS
 10
641.6213125882
 20
205.7998660969
 11
641.9772340612
 21
206.1782678956
  0
LINE
  5
68A
100
AcDbEntity
  8
0
100
AcDbLine
 62
7
  6
CONTINUOUS
 10
640.4717647649
 20
204.0357307899
 11
640.3680944792
 21
203.9433783102
  0
LINE
  5
68B
100
AcDbEntity
  8
BEZUGSACHSEN
100
AcDbLine
 62
7
  6
CONTINUOUS
 10
639.2645448726
 20
203.6186088924
 11
639.5961609623
 21
203.9339648484
  0
LINE
  5
68C
100
AcDbEntity
  8
BEZUGSACHSEN
100
AcDbLine
 62
7
  6
CONTINUOUS
 10
639.5961609623
 20
203.9339648484
 11
639.8191612395
 21
204.1443090037
  0
LINE
  5
68D
100
AcDbEntity
  8
0
100
AcDbLine
 62
7
  6
CONTINUOUS
 10
632.7205586814
 20
180.6925484997
 11
632.7477604354
 21
180.8432588813
  0
LINE
  5
68E
100
AcDbEntity
  8
0
100
AcDbLine
 62
7
  6
CONTINUOUS
 10
632.7477604354
 20
180.8432588813
 11
632.779628739
 21
181.0179989844
  0
LINE
  5
68F
100
AcDbEntity
  8
0
100
AcDbLine
 62
7
  6
CONTINUOUS
 10
638.5421502373
 20
200.9552095968
 11
639.2167182236
 21
201.7775118779
  0
LINE
  5
690
100
AcDbEntity
  8
BEZUGSACHSEN
100
AcDbLine
 62
7
  6
CONTINUOUS
 10
638.6688929003
 20
201.9769039891
 11
638.0111126523
 21
201.148491471
  0
LINE
  5
691
100
AcDbEntity
  8
BEZUGSACHSEN
100
AcDbLine
 62
7
  6
CONTINUOUS
 10
644.8281128467
 20
211.6721992196
 11
644.8454794365
 21
211.6736394174
  0
LINE
  5
692
100
AcDbEntity
  8
BEZUGSACHSEN
100
AcDbLine
 62
7
  6
CONTINUOUS
 10
644.7205253657
 20
211.6053251428
 11
644.7773879832
 21
211.6673713201
  0
LINE
  5
693
100
AcDbEntity
  8
BEZUGSACHSEN
100
AcDbLine
 62
7
  6
CONTINUOUS
 10
644.1727901729
 20
210.958795179
 11
644.458084698
 21
211.3066509465
  0
LINE
  5
694
100
AcDbEntity
  8
BEZUGSACHSEN
100
AcDbLine
 62
7
  6
CONTINUOUS
 10
644.458084698
 20
211.3066509465
 11
644.5492164745
 21
211.4176349617
  0
LINE
  5
695
100
AcDbEntity
  8
0
100
AcDbLine
 62
7
  6
CONTINUOUS
 10
635.5407251432
 20
186.6570217758
 11
634.6507625275
 21
186.0505111036
  0
SPLINE
  5
696
100
AcDbEntity
  8
BEZUGSACHSEN
100
AcDbSpline
 62
7
  6
CONTINUOUS
 70
0
 71
3
 72
8
 73
4
 74
0
 42
0.0000001
 43
0.0000001
 44
0.0000000001
 40
0.0
 40
0.0
 40
0.0
 40
0.0
 40
1.0
 40
1.0
 40
1.0
 40
1.0
 10
633.8679327696
 20
186.335437834
 30
0.0
 10
634.5891935069
 20
186.8550242815
 30
0.0
 10
635.3105814955
 20
187.3744341116
 30
0.0
 10
636.0320664295
 20
187.8937092003
 30
0.0
  0
LINE
  5
697
100
AcDbEntity
  8
0
100
AcDbLine
 62
7
  6
CONTINUOUS
 10
632.779628739
 20
181.0179989844
 11
632.8940439741
 21
181.346129195
  0
LINE
  5
698
100
AcDbEntity
  8
0
100
AcDbLine
 62
7
  6
CONTINUOUS
 10
632.4575840546
 20
178.3086404064
 11
633.0546997901
 21
178.7168954673
  0
LINE
  5
699
100
AcDbEntity
  8
BEZUGSACHSEN
100
AcDbLine
 62
7
  6
CONTINUOUS
 10
632.1416515173
 20
179.0492178611
 11
631.5638640063
 21
178.6339279018
  0
LINE
  5
69A
100
AcDbEntity
  8
0
100
AcDbLine
 62
7
  6
CONTINUOUS
 10
644.8247883207
 20
210.2182608074
 11
644.99294293
 21
210.4364748139
  0
LINE
  5
69B
100
AcDbEntity
  8
BEZUGSACHSEN
100
AcDbLine
 62
7
  6
CONTINUOUS
 10
644.3542116283
 20
210.6689539954
 11
644.2161453112
 21
210.4843583621
  0
LINE
  5
69C
100
AcDbEntity
  8
BEZUGSACHSEN
100
AcDbLine
 62
7
  6
CONTINUOUS
 10
644.2161453112
 20
210.4843583621
 11
644.0784009823
 21
210.3001692601
  0
LINE
  5
69D
100
AcDbEntity
  8
BEZUGSACHSEN
100
AcDbLine
 62
7
  6
CONTINUOUS
 10
644.0784009823
 20
210.3001692601
 11
643.9409786957
 21
210.1163866489
  0
LINE
  5
69E
100
AcDbEntity
  8
BEZUGSACHSEN
100
AcDbLine
 62
7
  6
CONTINUOUS
 10
643.9409786957
 20
210.1163866489
 11
643.8038785068
 21
209.9330104872
  0
LINE
  5
69F
100
AcDbEntity
  8
0
100
AcDbLine
 62
7
  6
CONTINUOUS
 10
632.4575840546
 20
178.3086404064
 11
632.0956596515
 21
178.271891818
  0
LINE
  5
6A0
100
AcDbEntity
  8
BEZUGSACHSEN
100
AcDbLine
 62
7
  6
CONTINUOUS
 10
643.8038785068
 20
209.9330104872
 11
643.6012625302
 21
209.6700772867
  0
LINE
  5
6A1
100
AcDbEntity
  8
BEZUGSACHSEN
100
AcDbLine
 62
7
  6
CONTINUOUS
 10
643.6012625302
 20
209.6700772867
 11
643.5337936478
 21
209.5825229564
  0
LINE
  5
6A2
100
AcDbEntity
  8
0
100
AcDbLine
 62
7
  6
CONTINUOUS
 10
643.6683392415
 20
208.7690251286
 11
643.6085431849
 21
208.696405727
  0
LINE
  5
6A3
100
AcDbEntity
  8
BEZUGSACHSEN
100
AcDbLine
 62
7
  6
CONTINUOUS
 10
643.0036990119
 20
208.9165510023
 11
643.2682491412
 21
209.2489300108
  0
LINE
  5
6A4
100
AcDbEntity
  8
BEZUGSACHSEN
100
AcDbLine
 62
7
  6
CONTINUOUS
 10
643.2682491412
 20
209.2489300108
 11
643.3181094109
 21
209.3115701522
  0
LINE
  5
6A5
100
AcDbEntity
  8
BEZUGSACHSEN
100
AcDbLine
 62
7
  6
CONTINUOUS
 10
643.3181094109
 20
209.3115701522
 11
643.4008971116
 21
209.4155747312
  0
LINE
  5
6A6
100
AcDbEntity
  8
BEZUGSACHSEN
100
AcDbLine
 62
7
  6
CONTINUOUS
 10
643.4008971116
 20
209.4155747312
 11
643.5337936478
 21
209.5825229564
  0
LINE
  5
6A7
100
AcDbEntity
  8
0
100
AcDbLine
 62
7
  6
CONTINUOUS
 10
643.6085431849
 20
208.696405727
 11
643.4100076069
 21
208.4699307789
  0
LINE
  5
6A8
100
AcDbEntity
  8
0
100
AcDbLine
 62
7
  6
CONTINUOUS
 10
643.4100076069
 20
208.4699307789
 11
643.311195435
 21
208.3571365639
  0
LINE
  5
6A9
100
AcDbEntity
  8
0
100
AcDbLine
 62
7
  6
CONTINUOUS
 10
643.311195435
 20
208.3571365639
 11
643.2126870587
 21
208.2446378221
  0
LINE
  5
6AA
100
AcDbEntity
  8
BEZUGSACHSEN
100
AcDbLine
 62
7
  6
CONTINUOUS
 10
642.6190983034
 20
208.4606864605
 11
643.0036990119
 21
208.9165510023
  0
LINE
  5
6AB
100
AcDbEntity
  8
0
100
AcDbLine
 62
7
  6
CONTINUOUS
 10
643.2126870587
 20
208.2446378221
 11
643.1733599057
 21
208.2031530046
  0
LINE
  5
6AC
100
AcDbEntity
  8
0
100
AcDbLine
 62
7
  6
CONTINUOUS
 10
642.6611857319
 20
207.6604055447
 11
642.4856075985
 21
207.4732513117
  0
LINE
  5
6AD
100
AcDbEntity
  8
0
100
AcDbLine
 62
7
  6
CONTINUOUS
 10
642.4856075985
 20
207.4732513117
 11
642.3715410754
 21
207.3513528359
  0
LINE
  5
6AE
100
AcDbEntity
  8
0
100
AcDbLine
 62
7
  6
CONTINUOUS
 10
641.8744038104
 20
206.8171082426
 11
641.7855101872
 21
206.7210525815
  0
LINE
  5
6AF
100
AcDbEntity
  8
BEZUGSACHSEN
100
AcDbLine
 62
7
  6
CONTINUOUS
 10
639.9569037234
 20
205.4596732329
 11
640.1398847706
 21
205.6710819494
  0
LINE
  5
6B0
100
AcDbEntity
  8
BEZUGSACHSEN
100
AcDbLine
 62
7
  6
CONTINUOUS
 10
639.6178612666
 20
204.5003539134
 11
639.2798118435
 21
204.0615780853
  0
LINE
  5
6B1
100
AcDbEntity
  8
BEZUGSACHSEN
100
AcDbLine
 62
7
  6
CONTINUOUS
 10
639.2798118435
 20
204.0615780853
 11
639.111163027
 21
203.8426747251
  0
LINE
  5
6B2
100
AcDbEntity
  8
BEZUGSACHSEN
100
AcDbLine
 62
7
  6
CONTINUOUS
 10
639.111163027
 20
203.8426747251
 11
638.9427648253
 21
203.6240943873
  0
LINE
  5
6B3
100
AcDbEntity
  8
BEZUGSACHSEN
100
AcDbLine
 62
7
  6
CONTINUOUS
 10
631.2197251251
 20
178.5907059127
 11
631.5638640063
 21
178.6339279018
  0
LINE
  5
6B4
100
AcDbEntity
  8
0
100
AcDbLine
 62
7
  6
CONTINUOUS
 10
632.5675223034
 20
184.6301839802
 11
630.7828636152
 21
183.4125994107
  0
SPLINE
  5
6B5
100
AcDbEntity
  8
BEZUGSACHSEN
100
AcDbSpline
 62
7
  6
CONTINUOUS
 70
0
 71
3
 72
8
 73
4
 74
0
 42
0.0000001
 43
0.0000001
 44
0.0000000001
 40
0.0
 40
0.0
 40
0.0
 40
0.0
 40
1.0
 40
1.0
 40
1.0
 40
1.0
 10
629.9766356983
 20
183.5290416084
 30
0.0
 10
630.9849380216
 20
184.2572132118
 30
0.0
 10
631.9936703817
 20
184.9847894766
 30
0.0
 10
633.0026771278
 20
185.7119846673
 30
0.0
  0
SPLINE
  5
6B6
100
AcDbEntity
  8
0
100
AcDbSpline
 62
7
  6
CONTINUOUS
 70
0
 71
3
 72
8
 73
4
 74
0
 42
0.0000001
 43
0.0000001
 44
0.0000000001
 40
0.0
 40
0.0
 40
0.0
 40
0.0
 40
1.0
 40
1.0
 40
1.0
 40
1.0
 10
633.0546997901
 20
178.7168954673
 30
0.0
 10
633.2327070134
 20
178.9088076554
 30
0.0
 10
633.4108359877
 20
179.1006069784
 30
0.0
 10
633.5890802079
 20
179.2922990686
 30
0.0
  0
LINE
  5
6B7
100
AcDbEntity
  8
BEZUGSACHSEN
100
AcDbLine
 62
7
  6
CONTINUOUS
 10
632.6646277833
 20
179.6287722341
 11
632.1416515173
 21
179.0492178611
  0
SPLINE
  5
6B8
100
AcDbEntity
  8
0
100
AcDbSpline
 62
7
  6
CONTINUOUS
 70
0
 71
3
 72
11
 73
7
 74
0
 42
0.0000001
 43
0.0000001
 44
0.0000000001
 40
0.0
 40
0.0
 40
0.0
 40
0.0
 40
0.2530106614
 40
0.5000000005
 40
0.7469893397
 40
1.0
 40
1.0
 40
1.0
 40
1.0
 10
648.1059498968
 20
209.1232607065
 30
0.0
 10
648.1408727059
 20
210.1907921113
 30
0.0
 10
648.348816584
 20
212.3003617185
 30
0.0
 10
649.1672033627
 20
215.3616664439
 30
0.0
 10
650.5080514559
 20
218.2328107998
 30
0.0
 10
651.7047624166
 20
219.9824986127
 30
0.0
 10
652.3642059499
 20
220.8227230586
 30
0.0
  0
SPLINE
  5
6B9
100
AcDbEntity
  8
0
100
AcDbSpline
 62
7
  6
CONTINUOUS
 70
0
 71
3
 72
9
 73
5
 74
0
 42
0.0000001
 43
0.0000001
 44
0.0000000001
 40
0.0
 40
0.0
 40
0.0
 40
0.0
 40
0.5000000005
 40
1.0
 40
1.0
 40
1.0
 40
1.0
 10
636.9576908171
 20
178.4936706188
 30
0.0
 10
638.1704717996
 20
183.8005559576
 30
0.0
 10
641.2035087011
 20
194.2919315737
 30
0.0
 10
645.6237938928
 20
204.2783901043
 30
0.0
 10
648.1059498968
 20
209.1232607065
 30
0.0
  0
SPLINE
  5
6BA
100
AcDbEntity
  8
0
100
AcDbSpline
 62
7
  6
CONTINUOUS
 70
0
 71
3
 72
9
 73
5
 74
0
 42
0.0000001
 43
0.0000001
 44
0.0000000001
 40
0.0
 40
0.0
 40
0.0
 40
0.0
 40
0.4999946137
 40
1.0
 40
1.0
 40
1.0
 40
1.0
 10
626.9624819343
 20
153.7590707464
 30
0.0
 10
628.3402186248
 20
157.9892072879
 30
0.0
 10
631.3936231678
 20
166.3557637768
 30
0.0
 10
635.0230266788
 20
174.4874078845
 30
0.0
 10
636.9576908171
 20
178.4936706188
 30
0.0
  0
LINE
  5
6BB
100
AcDbEntity
  8
0
100
AcDbLine
 62
7
  6
CONTINUOUS
 10
632.0520784359
 20
186.8997384712
 11
639.7818526788
 21
194.0896095007
  0
LINE
  5
6BC
100
AcDbEntity
  8
BEZUGSACHSEN
100
AcDbLine
 62
7
  6
CONTINUOUS
 10
631.1739253539
 20
186.8501189574
 11
632.1232769761
 21
187.7711286256
  0
LINE
  5
6BD
100
AcDbEntity
  8
BEZUGSACHSEN
100
AcDbLine
 62
7
  6
CONTINUOUS
 10
632.1232769761
 20
187.7711286256
 11
638.9487801608
 21
194.3928231003
  0
SPLINE
  5
6BE
100
AcDbEntity
  8
KONSTRUKTIONSELEMENTE
100
AcDbSpline
 62
7
  6
CONTINUOUS
 70
0
 71
3
 72
9
 73
5
 74
0
 42
0.0000001
 43
0.0000001
 44
0.0000000001
 40
0.0
 40
0.0
 40
0.0
 40
0.0
 40
0.2391558199
 40
1.0
 40
1.0
 40
1.0
 40
1.0
 10
148.9084625486
 20
212.9897717434
 30
0.0
 10
148.5875486171
 20
213.1622707249
 30
0.0
 10
147.2334019723
 20
213.860614473
 30
0.0
 10
145.8342013651
 20
214.4702842076
 30
0.0
 10
144.7540503747
 20
214.890725628
 30
0.0
  0
SPLINE
  5
6BF
100
AcDbEntity
  8
KONSTRUKTIONSELEMENTE
100
AcDbSpline
 62
7
  6
CONTINUOUS
 70
0
 71
3
 72
9
 73
5
 74
0
 42
0.0000001
 43
0.0000001
 44
0.0000000001
 40
0.0
 40
0.0
 40
0.0
 40
0.0
 40
0.2606513562
 40
1.0
 40
1.0
 40
1.0
 40
1.0
 10
99.7435894359
 20
214.8919081335
 30
0.0
 10
99.3732776626
 20
214.747796014
 30
0.0
 10
97.9603443585
 20
214.1753393459
 30
0.0
 10
96.5789063934
 20
213.5234003593
 30
0.0
 10
95.5861005008
 20
212.98974458
 30
0.0
  0
SPLINE
  5
6C0
100
AcDbEntity
  8
KONSTRUKTIONSELEMENTE
100
AcDbSpline
 62
7
  6
CONTINUOUS
 70
0
 71
3
 72
15
 73
11
 74
0
 42
0.0000001
 43
0.0000001
 44
0.0000000001
 40
0.0
 40
0.0
 40
0.0
 40
0.0
 40
0.1083664214
 40
0.2182754059
 40
0.3314512523
 40
0.449874026
 40
0.5752089728
 40
0.7085294217
 40
0.8502141031
 40
1.0
 40
1.0
 40
1.0
 40
1.0
 10
165.247158718
 20
203.2943124765
 30
0.0
 10
165.2421139991
 20
204.3985994897
 30
0.0
 10
164.9588781089
 20
206.6302854669
 30
0.0
 10
163.7604375048
 20
209.8164201245
 30
0.0
 10
161.8758134712
 20
212.7681274843
 30
0.0
 10
159.3965838131
 20
215.4511644042
 30
0.0
 10
156.3902988641
 20
217.8632492899
 30
0.0
 10
152.9082490704
 20
220.0060081507
 30
0.0
 10
148.9966415128
 20
221.8756992943
 30
0.0
 10
146.2067888005
 20
222.907359467
 30
0.0
 10
144.7552961551
 20
223.3795937756
 30
0.0
  0
SPLINE
  5
6C1
100
AcDbEntity
  8
KONSTRUKTIONSELEMENTE
100
AcDbSpline
 62
7
  6
CONTINUOUS
 70
0
 71
3
 72
15
 73
11
 74
0
 42
0.0000001
 43
0.0000001
 44
0.0000000001
 40
0.0
 40
0.0
 40
0.0
 40
0.0
 40
0.1497900255
 40
0.29147809
 40
0.4248007056
 40
0.5501359156
 40
0.6685572264
 40
0.7817304232
 40
0.8916353799
 40
1.0
 40
1.0
 40
1.0
 40
1.0
 10
99.7443893335
 20
223.3812463658
 30
0.0
 10
98.2925602995
 20
222.909048121
 30
0.0
 10
95.5020509573
 20
221.877444418
 30
0.0
 10
91.5895015787
 20
220.0077377335
 30
0.0
 10
88.106598807
 20
217.8648878331
 30
0.0
 10
85.0995744986
 20
215.4526325332
 30
0.0
 10
82.6197126597
 20
212.7693613429
 30
0.0
 10
80.7346060153
 20
209.8173327139
 30
0.0
 10
79.5358011985
 20
206.6307862497
 30
0.0
 10
79.2524922855
 20
204.3987650379
 30
0.0
 10
79.2474462168
 20
203.2943034703
 30
0.0
  0
SPLINE
  5
6C2
100
AcDbEntity
  8
KONSTRUKTIONSELEMENTE
100
AcDbSpline
 62
7
  6
CONTINUOUS
 70
0
 71
3
 72
9
 73
5
 74
0
 42
0.0000001
 43
0.0000001
 44
0.0000000001
 40
0.0
 40
0.0
 40
0.0
 40
0.0
 40
0.2456349696
 40
1.0
 40
1.0
 40
1.0
 40
1.0
 10
112.2373024695
 20
51.4163129619
 30
0.0
 10
112.2373024695
 20
51.4908832323
 30
0.0
 10
112.2218573348
 20
51.7943963235
 30
0.0
 10
112.1430378665
 20
52.09364072
 30
0.0
 10
112.0557586449
 20
52.3053682602
 30
0.0
  0
SPLINE
  5
6C3
100
AcDbEntity
  8
KONSTRUKTIONSELEMENTE
100
AcDbSpline
 62
7
  6
CONTINUOUS
 70
0
 71
3
 72
10
 73
6
 74
0
 42
0.0000001
 43
0.0000001
 44
0.0000000001
 40
0.0
 40
0.0
 40
0.0
 40
0.0
 40
0.2150918515
 40
0.5784343517
 40
1.0
 40
1.0
 40
1.0
 40
1.0
 10
112.0557586449
 20
52.3053682602
 30
0.0
 10
111.9724066335
 20
52.5075689219
 30
0.0
 10
111.678694173
 20
53.023766485
 30
0.0
 10
110.9581324538
 20
53.7581537709
 30
0.0
 10
110.283743568
 20
54.19459077
 30
0.0
 10
109.9069208541
 20
54.3989093293
 30
0.0
  0
SPLINE
  5
6C4
100
AcDbEntity
  8
KONSTRUKTIONSELEMENTE
100
AcDbSpline
 62
7
  6
CONTINUOUS
 70
0
 71
3
 72
12
 73
8
 74
0
 42
0.0000001
 43
0.0000001
 44
0.0000000001
 40
0.0
 40
0.0
 40
0.0
 40
0.0
 40
0.0882011711
 40
0.1824632096
 40
0.3441927035
 40
0.5361481696
 40
1.0
 40
1.0
 40
1.0
 40
1.0
 10
60.6485348879
 20
110.7910688205
 30
0.0
 10
60.6484902896
 20
110.8781771992
 30
0.0
 10
60.6779425922
 20
111.0594734107
 30
0.0
 10
60.8309663463
 20
111.3674364496
 30
0.0
 10
61.1448052242
 20
111.6903017353
 30
0.0
 10
61.8385031593
 20
112.1126387125
 30
0.0
 10
62.4766122341
 20
112.2873267413
 30
0.0
 10
62.9287887749
 20
112.3607872735
 30
0.0
  0
SPLINE
  5
6C5
100
AcDbEntity
  8
KONSTRUKTIONSELEMENTE
100
AcDbSpline
 62
7
  6
CONTINUOUS
 70
0
 71
3
 72
13
 73
9
 74
0
 42
0.0000001
 43
0.0000001
 44
0.0000000001
 40
0.0
 40
0.0
 40
0.0
 40
0.0
 40
0.0880907501
 40
0.1822545665
 40
0.2869893666
 40
0.4047309738
 40
0.6799224916
 40
1.0
 40
1.0
 40
1.0
 40
1.0
 10
50.1081170832
 20
128.5745915482
 30
0.0
 10
50.1081749769
 20
128.8648779901
 30
0.0
 10
50.2069306665
 20
129.4689557705
 30
0.0
 10
50.6326504502
 20
130.3258124403
 30
0.0
 10
51.313804986
 20
131.1271094658
 30
0.0
 10
52.6015208802
 20
132.1549519075
 30
0.0
 10
54.7524327195
 20
133.1684111213
 30
0.0
 10
56.6678186825
 20
133.6356848082
 30
0.0
 10
57.7089241487
 20
133.8048226442
 30
0.0
  0
SPLINE
  5
6C6
100
AcDbEntity
  8
KONSTRUKTIONSELEMENTE
100
AcDbSpline
 62
7
  6
CONTINUOUS
 70
0
 71
3
 72
9
 73
5
 74
0
 42
0.0000001
 43
0.0000001
 44
0.0000000001
 40
0.0
 40
0.0
 40
0.0
 40
0.0
 40
0.4834558984
 40
1.0
 40
1.0
 40
1.0
 40
1.0
 10
50.1081170832
 20
124.2444645293
 30
0.0
 10
50.1080591526
 20
123.953992706
 30
0.0
 10
50.2064953678
 20
123.3499498233
 30
0.0
 10
50.47738056
 20
122.8045230747
 30
0.0
 10
50.6464894076
 20
122.5442913166
 30
0.0
  0
SPLINE
  5
6C7
100
AcDbEntity
  8
KONSTRUKTIONSELEMENTE
100
AcDbSpline
 62
7
  6
CONTINUOUS
 70
0
 71
3
 72
13
 73
9
 74
0
 42
0.0000001
 43
0.0000001
 44
0.0000000001
 40
0.0
 40
0.0
 40
0.0
 40
0.0
 40
0.0822829264
 40
0.1731425714
 40
0.2778852515
 40
0.3984458421
 40
0.6815990786
 40
1.0
 40
1.0
 40
1.0
 40
1.0
 10
107.8373024695
 20
36.4189409061
 30
0.0
 10
107.8373024695
 20
36.3096118073
 30
0.0
 10
107.8857023619
 20
36.0778153872
 30
0.0
 10
108.0872395397
 20
35.7615660275
 30
0.0
 10
108.4017041376
 20
35.4774404998
 30
0.0
 10
108.9856895776
 20
35.1313534331
 30
0.0
 10
109.9134629149
 20
34.8442323336
 30
0.0
 10
110.7142440379
 20
34.7689409061
 30
0.0
 10
111.1373024695
 20
34.7689409061
 30
0.0
  0
SPLINE
  5
6C8
100
AcDbEntity
  8
KONSTRUKTIONSELEMENTE
100
AcDbSpline
 62
7
  6
CONTINUOUS
 70
0
 71
3
 72
10
 73
6
 74
0
 42
0.0000001
 43
0.0000001
 44
0.0000000001
 40
0.0
 40
0.0
 40
0.0
 40
0.0
 40
0.1814349565
 40
0.5339084433
 40
1.0
 40
1.0
 40
1.0
 40
1.0
 10
182.6385450167
 20
66.9957108013
 30
0.0
 10
182.6385381873
 20
67.0551353649
 30
0.0
 10
182.5743176848
 20
67.2300287555
 30
0.0
 10
182.2886377665
 20
67.4222528971
 30
0.0
 10
182.029145161
 20
67.4942787937
 30
0.0
 10
181.8784638495
 20
67.5187584566
 30
0.0
  0
SPLINE
  5
6C9
100
AcDbEntity
  8
KONSTRUKTIONSELEMENTE
100
AcDbSpline
 62
7
  6
CONTINUOUS
 70
0
 71
3
 72
13
 73
9
 74
0
 42
0.0000001
 43
0.0000001
 44
0.0000000001
 40
0.0
 40
0.0
 40
0.0
 40
0.0
 40
0.0880988688
 40
0.1822591285
 40
0.2869883243
 40
0.4047236123
 40
0.6799264077
 40
1.0
 40
1.0
 40
1.0
 40
1.0
 10
219.4943768053
 20
124.494691031
 30
0.0
 10
219.4943893173
 20
124.7850299844
 30
0.0
 10
219.3959124947
 20
125.3892282996
 30
0.0
 10
218.9702178033
 20
126.2462153313
 30
0.0
 10
218.2891586608
 20
127.0476353085
 30
0.0
 10
217.0014264521
 20
128.0757038177
 30
0.0
 10
214.8503316254
 20
129.0893077236
 30
0.0
 10
212.9347579002
 20
129.5566475485
 30
0.0
 10
211.8935728204
 20
129.7257983184
 30
0.0
  0
SPLINE
  5
6CA
100
AcDbEntity
  8
KONSTRUKTIONSELEMENTE
100
AcDbSpline
 62
7
  6
CONTINUOUS
 70
0
 71
3
 72
9
 73
5
 74
0
 42
0.0000001
 43
0.0000001
 44
0.0000000001
 40
0.0
 40
0.0
 40
0.0
 40
0.0
 40
0.5166451658
 40
1.0
 40
1.0
 40
1.0
 40
1.0
 10
218.9560075615
 20
118.4652669908
 30
0.0
 10
219.1250695824
 20
118.7254266899
 30
0.0
 10
219.3959246075
 20
119.2705471159
 30
0.0
 10
219.4943642961
 20
119.8742901143
 30
0.0
 10
219.4943768053
 20
120.1645640121
 30
0.0
  0
SPLINE
  5
6CB
100
AcDbEntity
  8
KONSTRUKTIONSELEMENTE
100
AcDbSpline
 62
7
  6
CONTINUOUS
 70
0
 71
3
 72
10
 73
6
 74
0
 42
0.0000001
 43
0.0000001
 44
0.0000000001
 40
0.0
 40
0.0
 40
0.0
 40
0.0
 40
0.5662414861
 40
0.8104764579
 40
1.0
 40
1.0
 40
1.0
 40
1.0
 10
216.8900893122
 20
117.0659830858
 30
0.0
 10
217.1664519572
 20
117.0210852525
 30
0.0
 10
217.5824194283
 20
117.0335933921
 30
0.0
 10
218.0494300356
 20
117.2018240105
 30
0.0
 10
218.2251068042
 20
117.3405263767
 30
0.0
 10
218.2761701739
 20
117.4191048229
 30
0.0
  0
SPLINE
  5
6CC
100
AcDbEntity
  8
KONSTRUKTIONSELEMENTE
100
AcDbSpline
 62
7
  6
CONTINUOUS
 70
0
 71
3
 72
9
 73
5
 74
0
 42
0.0000001
 43
0.0000001
 44
0.0000000001
 40
0.0
 40
0.0
 40
0.0
 40
0.0
 40
0.2654145495
 40
1.0
 40
1.0
 40
1.0
 40
1.0
 10
182.5847073236
 20
62.4955910068
 30
0.0
 10
182.5933699104
 20
62.5089213572
 30
0.0
 10
182.623068559
 20
62.560921182
 30
0.0
 10
182.6385500735
 20
62.6215837066
 30
0.0
 10
182.6385450167
 20
62.6655837823
 30
0.0
  0
SPLINE
  5
6CD
100
AcDbEntity
  8
KONSTRUKTIONSELEMENTE
100
AcDbSpline
 62
7
  6
CONTINUOUS
 70
0
 71
3
 72
11
 73
7
 74
0
 42
0.0000001
 43
0.0000001
 44
0.0000000001
 40
0.0
 40
0.0
 40
0.0
 40
0.0
 40
0.2985639432
 40
0.5697923801
 40
0.8044124749
 40
1.0
 40
1.0
 40
1.0
 40
1.0
 10
172.9400085795
 20
55.9830108012
 30
0.0
 10
173.8090803197
 20
56.0925077122
 30
0.0
 10
175.4571584866
 20
56.4063690011
 30
0.0
 10
177.6948392786
 20
57.1903553962
 30
0.0
 10
179.4895360765
 20
58.2238079926
 30
0.0
 10
180.4012296475
 20
59.1355643581
 30
0.0
 10
180.713903208
 20
59.6167194929
 30
0.0
  0
SPLINE
  5
6CE
100
AcDbEntity
  8
KONSTRUKTIONSELEMENTE
100
AcDbSpline
 62
7
  6
CONTINUOUS
 70
0
 71
3
 72
11
 73
7
 74
0
 42
0.0000001
 43
0.0000001
 44
0.0000000001
 40
0.0
 40
0.0
 40
0.0
 40
0.0
 40
0.2997900995
 40
0.5615882878
 40
0.7906753234
 40
1.0
 40
1.0
 40
1.0
 40
1.0
 10
134.5876840849
 20
54.3989093293
 30
0.0
 10
134.2399492994
 20
54.2103626528
 30
0.0
 10
133.6120792419
 20
53.8089128635
 30
0.0
 10
132.8543755719
 20
53.0790313155
 30
0.0
 10
132.3718624365
 20
52.2751644073
 30
0.0
 10
132.2573024695
 20
51.6925091971
 30
0.0
 10
132.2573024695
 20
51.4163129619
 30
0.0
  0
SPLINE
  5
6CF
100
AcDbEntity
  8
KONSTRUKTIONSELEMENTE
100
AcDbSpline
 62
7
  6
CONTINUOUS
 70
0
 71
3
 72
13
 73
9
 74
0
 42
0.0000001
 43
0.0000001
 44
0.0000000001
 40
0.0
 40
0.0
 40
0.0
 40
0.0
 40
0.3184009214
 40
0.6015541579
 40
0.7221147485
 40
0.8268574286
 40
0.9177170736
 40
1.0
 40
1.0
 40
1.0
 40
1.0
 10
133.3573024695
 20
34.7689409061
 30
0.0
 10
133.7803609011
 20
34.7689409061
 30
0.0
 10
134.5811420241
 20
34.8442323336
 30
0.0
 10
135.5089153613
 20
35.1313534331
 30
0.0
 10
136.0929008014
 20
35.4774404998
 30
0.0
 10
136.4073653993
 20
35.7615660275
 30
0.0
 10
136.608902577
 20
36.0778153872
 30
0.0
 10
136.6573024695
 20
36.3096118073
 30
0.0
 10
136.6573024695
 20
36.4189409061
 30
0.0
  0
SPLINE
  5
6D0
100
AcDbEntity
  8
KONSTRUKTIONSELEMENTE
100
AcDbSpline
 62
7
  6
CONTINUOUS
 70
0
 71
3
 72
8
 73
4
 74
0
 42
0.0000001
 43
0.0000001
 44
0.0000000001
 40
0.0
 40
0.0
 40
0.0
 40
0.0
 40
1.0
 40
1.0
 40
1.0
 40
1.0
 10
136.7103200588
 20
52.8506019967
 30
0.0
 10
136.6755625618
 20
52.6928625778
 30
0.0
 10
136.6573024695
 20
52.5304643034
 30
0.0
 10
136.6573024695
 20
52.3689409061
 30
0.0
  0
SPLINE
  5
6D1
100
AcDbEntity
  8
KONSTRUKTIONSELEMENTE
100
AcDbSpline
 62
7
  6
CONTINUOUS
 70
0
 71
3
 72
9
 73
5
 74
0
 42
0.0000001
 43
0.0000001
 44
0.0000000001
 40
0.0
 40
0.0
 40
0.0
 40
0.0
 40
0.2651473847
 40
1.0
 40
1.0
 40
1.0
 40
1.0
 10
60.8100583526
 20
107.8567948502
 30
0.0
 10
60.784124328
 20
107.8967032105
 30
0.0
 10
60.6951813931
 20
108.05256498
 30
0.0
 10
60.6486024229
 20
108.2342897342
 30
0.0
 10
60.6485348879
 20
108.3661976899
 30
0.0
  0
SPLINE
  5
6D2
100
AcDbEntity
  8
KONSTRUKTIONSELEMENTE
100
AcDbSpline
 62
7
  6
CONTINUOUS
 70
0
 71
3
 72
9
 73
5
 74
0
 42
0.0000001
 43
0.0000001
 44
0.0000000001
 40
0.0
 40
0.0
 40
0.0
 40
0.0
 40
0.2233516299
 40
1.0
 40
1.0
 40
1.0
 40
1.0
 10
52.3460828767
 20
119.9288858967
 30
0.0
 10
52.3817060763
 20
119.8740674292
 30
0.0
 10
52.5614205084
 20
119.6416732012
 30
0.0
 10
52.8041928413
 20
119.4646752447
 30
0.0
 10
53.0015942318
 20
119.3519297262
 30
0.0
  0
SPLINE
  5
6D3
100
AcDbEntity
  8
KONSTRUKTIONSELEMENTE
100
AcDbSpline
 62
7
  6
CONTINUOUS
 70
0
 71
3
 72
13
 73
9
 74
0
 42
0.0000001
 43
0.0000001
 44
0.0000000001
 40
0.0
 40
0.0
 40
0.0
 40
0.0
 40
0.0880669773
 40
0.1898919744
 40
0.3056214264
 40
0.4335764681
 40
0.7134981913
 40
1.0
 40
1.0
 40
1.0
 40
1.0
 10
189.4291725118
 20
115.744237225
 30
0.0
 10
189.6675560651
 20
116.1110717938
 30
0.0
 10
190.3109076815
 20
116.8191101021
 30
0.0
 10
191.5636053985
 20
117.6910925804
 30
0.0
 10
193.1228665949
 20
118.4245792502
 30
0.0
 10
195.6104131189
 20
119.2052268073
 30
0.0
 10
199.0557166015
 20
119.6614162139
 30
0.0
 10
201.8851571358
 20
119.5036820882
 30
0.0
 10
203.2899811292
 20
119.2754545956
 30
0.0
  0
SPLINE
  5
6D4
100
AcDbEntity
  8
KONSTRUKTIONSELEMENTE
100
AcDbSpline
 62
7
  6
CONTINUOUS
 70
0
 71
3
 72
13
 73
9
 74
0
 42
0.0000001
 43
0.0000001
 44
0.0000000001
 40
0.0
 40
0.0
 40
0.0
 40
0.0
 40
0.0880988688
 40
0.1822591285
 40
0.2869883243
 40
0.4047236123
 40
0.6799264077
 40
1.0
 40
1.0
 40
1.0
 40
1.0
 10
219.4943768053
 20
120.1645640121
 30
0.0
 10
219.4943893173
 20
120.4549029655
 30
0.0
 10
219.3959124947
 20
121.0591012807
 30
0.0
 10
218.9702178033
 20
121.9160883123
 30
0.0
 10
218.2891586608
 20
122.7175082896
 30
0.0
 10
217.0014264521
 20
123.7455767988
 30
0.0
 10
214.8503316254
 20
124.7591807047
 30
0.0
 10
212.9347579002
 20
125.2265205296
 30
0.0
 10
211.8935728204
 20
125.3956712995
 30
0.0
  0
SPLINE
  5
6D5
100
AcDbEntity
  8
KONSTRUKTIONSELEMENTE
100
AcDbSpline
 62
7
  6
CONTINUOUS
 70
0
 71
3
 72
13
 73
9
 74
0
 42
0.0000001
 43
0.0000001
 44
0.0000000001
 40
0.0
 40
0.0
 40
0.0
 40
0.0
 40
0.3200775084
 40
0.5952690262
 40
0.7130106334
 40
0.8177454335
 40
0.9119092499
 40
1.0
 40
1.0
 40
1.0
 40
1.0
 10
57.7089241487
 20
129.4746956252
 30
0.0
 10
56.6678186825
 20
129.3055577893
 30
0.0
 10
54.7524327195
 20
128.8382841024
 30
0.0
 10
52.6015208802
 20
127.8248248885
 30
0.0
 10
51.313804986
 20
126.7969824468
 30
0.0
 10
50.6326504502
 20
125.9956854214
 30
0.0
 10
50.2069306665
 20
125.1388287516
 30
0.0
 10
50.1081749769
 20
124.5347509711
 30
0.0
 10
50.1081170832
 20
124.2444645293
 30
0.0
  0
SPLINE
  5
6D6
100
AcDbEntity
  8
KONSTRUKTIONSELEMENTE
100
AcDbSpline
 62
7
  6
CONTINUOUS
 70
0
 71
3
 72
12
 73
8
 74
0
 42
0.0000001
 43
0.0000001
 44
0.0000000001
 40
0.0
 40
0.0
 40
0.0
 40
0.0
 40
0.0882011711
 40
0.1824632096
 40
0.3441927035
 40
0.5361481696
 40
1.0
 40
1.0
 40
1.0
 40
1.0
 10
60.6485348879
 20
108.3661976899
 30
0.0
 10
60.6484902896
 20
108.4533060686
 30
0.0
 10
60.6779425922
 20
108.6346022801
 30
0.0
 10
60.8309663463
 20
108.942565319
 30
0.0
 10
61.1448052242
 20
109.2654306047
 30
0.0
 10
61.8385031593
 20
109.6877675819
 30
0.0
 10
62.4766122341
 20
109.8624556107
 30
0.0
 10
62.9287887749
 20
109.9359161429
 30
0.0
  0
SPLINE
  5
6D7
100
AcDbEntity
  8
KONSTRUKTIONSELEMENTE
100
AcDbSpline
 62
7
  6
CONTINUOUS
 70
0
 71
3
 72
10
 73
6
 74
0
 42
0.0000001
 43
0.0000001
 44
0.0000000001
 40
0.0
 40
0.0
 40
0.0
 40
0.0
 40
0.1814349565
 40
0.5339084433
 40
1.0
 40
1.0
 40
1.0
 40
1.0
 10
182.6385450167
 20
62.6655837823
 30
0.0
 10
182.6385381873
 20
62.725008346
 30
0.0
 10
182.5743176848
 20
62.8999017366
 30
0.0
 10
182.2886377665
 20
63.0921258782
 30
0.0
 10
182.029145161
 20
63.1641517747
 30
0.0
 10
181.8784638495
 20
63.1886314377
 30
0.0
  0
SPLINE
  5
6D8
100
AcDbEntity
  8
BEZUGSACHSEN
100
AcDbSpline
 62
7
  6
CONTINUOUS
 70
0
 71
3
 72
8
 73
4
 74
0
 42
0.0000001
 43
0.0000001
 44
0.0000000001
 40
0.0
 40
0.0
 40
0.0
 40
0.0
 40
1.0
 40
1.0
 40
1.0
 40
1.0
 10
173.425037341
 20
92.7191268444
 30
0.0
 10
173.5360030751
 20
93.2173489499
 30
0.0
 10
173.7003299179
 20
93.7070992406
 30
0.0
 10
173.9171754506
 20
94.1691778871
 30
0.0
  0
SPLINE
  5
6D9
100
AcDbEntity
  8
BEZUGSACHSEN
100
AcDbSpline
 62
7
  6
CONTINUOUS
 70
0
 71
3
 72
15
 73
11
 74
0
 42
0.0000001
 43
0.0000001
 44
0.0000000001
 40
0.0
 40
0.0
 40
0.0
 40
0.0
 40
0.121402058
 40
0.2449244877
 40
0.3714319489
 40
0.5
 40
0.6285680511
 40
0.7550755123
 40
0.878597942
 40
1.0
 40
1.0
 40
1.0
 40
1.0
 10
157.4473024695
 20
89.8050156885
 30
0.0
 10
157.4473024695
 20
89.3148693932
 30
0.0
 10
157.6603656036
 20
88.3143125362
 30
0.0
 10
158.5594888494
 20
87.06535396
 30
0.0
 10
159.8894298268
 20
86.2378555305
 30
0.0
 10
161.4473024695
 20
85.9497636817
 30
0.0
 10
163.0051751121
 20
86.2378555305
 30
0.0
 10
164.3351160895
 20
87.06535396
 30
0.0
 10
165.2342393353
 20
88.3143125362
 30
0.0
 10
165.4473024695
 20
89.3148693932
 30
0.0
 10
165.4473024695
 20
89.8050156885
 30
0.0
  0
SPLINE
  5
6DA
100
AcDbEntity
  8
BEZUGSACHSEN
100
AcDbSpline
 62
7
  6
CONTINUOUS
 70
0
 71
3
 72
9
 73
5
 74
0
 42
0.0000001
 43
0.0000001
 44
0.0000000001
 40
0.0
 40
0.0
 40
0.0
 40
0.0
 40
0.501594057
 40
1.0
 40
1.0
 40
1.0
 40
1.0
 10
145.6564169188
 20
167.7602067869
 30
0.0
 10
146.4887616824
 20
166.1417013068
 30
0.0
 10
147.7818477953
 20
162.7118342927
 30
0.0
 10
148.2360405654
 20
159.0732844325
 30
0.0
 10
148.2467665005
 20
157.2648956175
 30
0.0
  0
SPLINE
  5
6DB
100
AcDbEntity
  8
BEZUGSACHSEN
100
AcDbSpline
 62
7
  6
CONTINUOUS
 70
0
 71
3
 72
9
 73
5
 74
0
 42
0.0000001
 43
0.0000001
 44
0.0000000001
 40
0.0
 40
0.0
 40
0.0
 40
0.0
 40
0.501594057
 40
1.0
 40
1.0
 40
1.0
 40
1.0
 10
98.8381880202
 20
167.7602067869
 30
0.0
 10
98.0058432566
 20
166.1417013068
 30
0.0
 10
96.7127571437
 20
162.7118342927
 30
0.0
 10
96.2585643735
 20
159.0732844325
 30
0.0
 10
96.2478384384
 20
157.2648956175
 30
0.0
  0
SPLINE
  5
6DC
100
AcDbEntity
  8
BEZUGSACHSEN
100
AcDbSpline
 62
7
  6
CONTINUOUS
 70
0
 71
3
 72
9
 73
5
 74
0
 42
0.0000001
 43
0.0000001
 44
0.0000000001
 40
0.0
 40
0.0
 40
0.0
 40
0.0
 40
0.251245453
 40
1.0
 40
1.0
 40
1.0
 40
1.0
 10
70.5774294884
 20
94.1691778871
 30
0.0
 10
70.6509094082
 20
94.0125986786
 30
0.0
 10
70.9189505354
 20
93.3781056442
 30
0.0
 10
71.0912635737
 20
92.7040391964
 30
0.0
 10
71.1666156766
 20
92.1941158929
 30
0.0
  0
LINE
  5
6DD
100
AcDbEntity
  8
BEZUGSACHSEN
100
AcDbLine
 62
7
  6
CONTINUOUS
 10
148.2471710668
 20
157.2652827993
 11
148.2470693231
 21
157.1968693631
  0
LINE
  5
6DE
100
AcDbEntity
  8
BEZUGSACHSEN
100
AcDbLine
 62
7
  6
CONTINUOUS
 10
148.2470693231
 20
157.1968693631
 11
148.2467665005
 21
157.1288619238
  0
SPLINE
  5
6DF
100
AcDbEntity
  8
BEZUGSACHSEN
100
AcDbSpline
 62
7
  6
CONTINUOUS
 70
0
 71
3
 72
11
 73
7
 74
0
 42
0.0000001
 43
0.0000001
 44
0.0000000001
 40
0.0
 40
0.0
 40
0.0
 40
0.0
 40
0.2584255903
 40
0.5115362057
 40
0.7586995309
 40
1.0
 40
1.0
 40
1.0
 40
1.0
 10
133.1422921556
 20
136.0920889239
 30
0.0
 10
134.5819263155
 20
136.6831924881
 30
0.0
 10
137.339602235
 20
138.0950105478
 30
0.0
 10
141.0075818711
 20
140.8566524212
 30
0.0
 10
144.0651847274
 20
144.1428652602
 30
0.0
 10
145.6589870087
 20
146.6382957207
 30
0.0
 10
146.3236182168
 20
147.930526179
 30
0.0
  0
SPLINE
  5
6E0
100
AcDbEntity
  8
BEZUGSACHSEN
100
AcDbSpline
 62
7
  6
CONTINUOUS
 70
0
 71
3
 72
11
 73
7
 74
0
 42
0.0000001
 43
0.0000001
 44
0.0000000001
 40
0.0
 40
0.0
 40
0.0
 40
0.0
 40
0.2412993625
 40
0.4884622148
 40
0.7415732432
 40
1.0
 40
1.0
 40
1.0
 40
1.0
 10
98.1709294037
 20
147.930637386
 30
0.0
 10
98.8356659379
 20
146.6381768718
 30
0.0
 10
100.4297838606
 20
144.142323689
 30
0.0
 10
103.488067409
 20
140.8556494058
 30
0.0
 10
107.156908961
 20
138.0937669593
 30
0.0
 10
109.9152267484
 20
136.6819544605
 30
0.0
 10
111.3551921988
 20
136.0909078032
 30
0.0
  0
LINE
  5
6E1
100
AcDbEntity
  8
BEZUGSACHSEN
100
AcDbLine
 62
7
  6
CONTINUOUS
 10
96.2474338722
 20
157.2652827993
 11
96.2475356158
 21
157.1968693631
  0
LINE
  5
6E2
100
AcDbEntity
  8
BEZUGSACHSEN
100
AcDbLine
 62
7
  6
CONTINUOUS
 10
96.2475356158
 20
157.1968693631
 11
96.2478384384
 21
157.1288619238
  0
SPLINE
  5
6E3
100
AcDbEntity
  8
BEZUGSACHSEN
100
AcDbSpline
 62
7
  6
CONTINUOUS
 70
0
 71
3
 72
8
 73
4
 74
0
 42
0.0000001
 43
0.0000001
 44
0.0000000001
 40
0.0
 40
0.0
 40
0.0
 40
0.0
 40
1.0
 40
1.0
 40
1.0
 40
1.0
 10
168.1995309303
 20
181.3206583942
 30
0.0
 10
168.439784675
 20
181.0891705707
 30
0.0
 10
168.6798833854
 20
180.8575217392
 30
0.0
 10
168.9198304012
 20
180.6257159932
 30
0.0
  0
LINE
  5
6E4
100
AcDbEntity
  8
BEZUGSACHSEN
100
AcDbLine
 62
7
  6
CONTINUOUS
 10
168.9198304012
 20
180.6257159932
 11
169.7848166064
 21
180.2997233702
  0
LINE
  5
6E5
100
AcDbEntity
  8
BEZUGSACHSEN
100
AcDbLine
 62
7
  6
CONTINUOUS
 10
169.7848166064
 20
180.2997233702
 11
170.7944903692
 21
180.3439352639
  0
LINE
  5
6E6
100
AcDbEntity
  8
BEZUGSACHSEN
100
AcDbLine
 62
7
  6
CONTINUOUS
 10
171.6602615504
 20
180.6551693008
 11
170.7944903692
 21
180.3439352639
  0
LINE
  5
6E7
100
AcDbEntity
  8
BEZUGSACHSEN
100
AcDbLine
 62
7
  6
CONTINUOUS
 10
172.3821285331
 20
181.2333465785
 11
171.6602615504
 21
180.6551693008
  0
LINE
  5
6E8
100
AcDbEntity
  8
BEZUGSACHSEN
100
AcDbLine
 62
7
  6
CONTINUOUS
 10
172.671502825
 20
181.9741024748
 11
172.3821285331
 21
181.2333465785
  0
LINE
  5
6E9
100
AcDbEntity
  8
BEZUGSACHSEN
100
AcDbLine
 62
7
  6
CONTINUOUS
 10
156.8100186034
 20
185.0921648222
 11
156.8656722687
 21
185.1122615833
  0
SPLINE
  5
6EA
100
AcDbEntity
  8
BEZUGSACHSEN
100
AcDbSpline
 62
7
  6
CONTINUOUS
 70
0
 71
3
 72
8
 73
4
 74
0
 42
0.0000001
 43
0.0000001
 44
0.0000000001
 40
0.0
 40
0.0
 40
0.0
 40
0.0
 40
1.0
 40
1.0
 40
1.0
 40
1.0
 10
156.8656722687
 20
185.1122615833
 30
0.0
 10
161.3677200417
 20
186.7379579
 30
0.0
 10
165.8705816189
 20
188.3614005863
 30
0.0
 10
170.3737560602
 20
189.9839734247
 30
0.0
  0
SPLINE
  5
6EB
100
AcDbEntity
  8
BEZUGSACHSEN
100
AcDbSpline
 62
7
  6
CONTINUOUS
 70
0
 71
3
 72
8
 73
4
 74
0
 42
0.0000001
 43
0.0000001
 44
0.0000000001
 40
0.0
 40
0.0
 40
0.0
 40
0.0
 40
1.0
 40
1.0
 40
1.0
 40
1.0
 10
173.8274308338
 20
183.6606366764
 30
0.0
 10
173.9712869344
 20
183.1825504859
 30
0.0
 10
174.1149294221
 20
182.7043999666
 30
0.0
 10
174.2583568363
 20
182.2261849939
 30
0.0
  0
SPLINE
  5
6EC
100
AcDbEntity
  8
BEZUGSACHSEN
100
AcDbSpline
 62
7
  6
CONTINUOUS
 70
0
 71
3
 72
15
 73
11
 74
0
 42
0.0000001
 43
0.0000001
 44
0.0000000001
 40
0.0
 40
0.0
 40
0.0
 40
0.0
 40
0.1250417805
 40
0.2500407285
 40
0.3746957372
 40
0.4999999999
 40
0.6253042627
 40
0.7499592714
 40
0.8749582192
 40
1.0
 40
1.0
 40
1.0
 40
1.0
 10
134.2197184661
 20
99.9328201943
 30
0.0
 10
133.9189080184
 20
101.284689576
 30
0.0
 10
132.9211131524
 20
103.9271540725
 30
0.0
 10
130.1531475746
 20
107.1406353228
 30
0.0
 10
126.4227568173
 20
109.156867208
 30
0.0
 10
122.2473024484
 20
109.8277008839
 30
0.0
 10
118.0718480893
 20
109.1568671938
 30
0.0
 10
114.3414573181
 20
107.1406353061
 30
0.0
 10
111.5734918341
 20
103.9271540075
 30
0.0
 10
110.5756967948
 20
101.2846895791
 30
0.0
 10
110.2748863464
 20
99.9328201943
 30
0.0
  0
LINE
  5
6ED
100
AcDbEntity
  8
BEZUGSACHSEN
100
AcDbLine
 62
7
  6
CONTINUOUS
 10
153.7238086985
 20
188.2173153612
 11
154.0429975895
 21
188.423303044
  0
LINE
  5
6EE
100
AcDbEntity
  8
BEZUGSACHSEN
100
AcDbLine
 62
7
  6
CONTINUOUS
 10
154.0429975895
 20
188.423303044
 11
165.4149517157
 21
195.7616075545
  0
SPLINE
  5
6EF
100
AcDbEntity
  8
BEZUGSACHSEN
100
AcDbSpline
 62
7
  6
CONTINUOUS
 70
0
 71
3
 72
9
 73
5
 74
0
 42
0.0000001
 43
0.0000001
 44
0.0000000001
 40
0.0
 40
0.0
 40
0.0
 40
0.0
 40
0.2497206944
 40
1.0
 40
1.0
 40
1.0
 40
1.0
 10
151.2229329246
 20
207.2096423044
 30
0.0
 10
150.8133057803
 20
206.1794086299
 30
0.0
 10
149.1732127723
 20
202.0537661375
 30
0.0
 10
147.5342472315
 20
197.9276751591
 30
0.0
 10
146.3058467664
 20
194.8314460883
 30
0.0
  0
LINE
  5
6F0
100
AcDbEntity
  8
BEZUGSACHSEN
100
AcDbLine
 62
7
  6
CONTINUOUS
 10
146.3058467664
 20
194.8314460883
 11
146.1946723931
 21
194.5512162563
  0
LINE
  5
6F1
100
AcDbEntity
  8
BEZUGSACHSEN
100
AcDbLine
 62
7
  6
CONTINUOUS
 10
145.0489279547
 20
203.1611253906
 11
145.5670774087
 21
203.9365004317
  0
SPLINE
  5
6F2
100
AcDbEntity
  8
BEZUGSACHSEN
100
AcDbSpline
 62
7
  6
CONTINUOUS
 70
0
 71
3
 72
8
 73
4
 74
0
 42
0.0000001
 43
0.0000001
 44
0.0000000001
 40
0.0
 40
0.0
 40
0.0
 40
0.0
 40
1.0
 40
1.0
 40
1.0
 40
1.0
 10
80.7921256388
 20
189.5905405194
 30
0.0
 10
82.4484501926
 20
189.2886120704
 30
0.0
 10
84.1045805621
 20
188.9856149293
 30
0.0
 10
85.7604474222
 20
188.6811863542
 30
0.0
  0
LINE
  5
6F3
100
AcDbEntity
  8
BEZUGSACHSEN
100
AcDbLine
 62
7
  6
CONTINUOUS
 10
80.8122607328
 20
190.2940211614
 11
80.3798151102
 21
191.0474795848
  0
LINE
  5
6F4
100
AcDbEntity
  8
BEZUGSACHSEN
100
AcDbLine
 62
7
  6
CONTINUOUS
 10
80.3798151102
 20
191.0474795848
 11
79.9373018054
 21
191.4494855136
  0
LINE
  5
6F5
100
AcDbEntity
  8
BEZUGSACHSEN
100
AcDbLine
 62
7
  6
CONTINUOUS
 10
79.2212260868
 20
191.8117310142
 11
79.9373018054
 21
191.4494855136
  0
LINE
  5
6F6
100
AcDbEntity
  8
BEZUGSACHSEN
100
AcDbLine
 62
7
  6
CONTINUOUS
 10
78.589626566
 20
191.9530368383
 11
79.2212260868
 21
191.8117310142
  0
LINE
  5
6F7
100
AcDbEntity
  8
BEZUGSACHSEN
100
AcDbLine
 62
7
  6
CONTINUOUS
 10
77.5899217544
 20
191.9237437849
 11
78.589626566
 21
191.9530368383
  0
SPLINE
  5
6F8
100
AcDbEntity
  8
BEZUGSACHSEN
100
AcDbSpline
 62
7
  6
CONTINUOUS
 70
0
 71
3
 72
8
 73
4
 74
0
 42
0.0000001
 43
0.0000001
 44
0.0000000001
 40
0.0
 40
0.0
 40
0.0
 40
0.0
 40
1.0
 40
1.0
 40
1.0
 40
1.0
 10
76.674692639
 20
191.6725516889
 30
0.0
 10
76.9797286339
 20
191.7564293638
 30
0.0
 10
77.284804634
 20
191.8401616972
 30
0.0
 10
77.5899217544
 20
191.9237437849
 30
0.0
  0
SPLINE
  5
6F9
100
AcDbEntity
  8
BEZUGSACHSEN
100
AcDbSpline
 62
7
  6
CONTINUOUS
 70
0
 71
3
 72
8
 73
4
 74
0
 42
0.0000001
 43
0.0000001
 44
0.0000000001
 40
0.0
 40
0.0
 40
0.0
 40
0.0
 40
1.0
 40
1.0
 40
1.0
 40
1.0
 10
76.0229577537
 20
191.1083619909
 30
0.0
 10
76.2400910568
 20
191.296554131
 30
0.0
 10
76.4573356354
 20
191.4846179616
 30
0.0
 10
76.674692639
 20
191.6725516889
 30
0.0
  0
LINE
  5
6FA
100
AcDbEntity
  8
BEZUGSACHSEN
100
AcDbLine
 62
7
  6
CONTINUOUS
 10
82.7350649904
 20
184.4874854736
 11
78.9756695992
 21
186.3877498602
  0
LINE
  5
6FB
100
AcDbEntity
  8
BEZUGSACHSEN
100
AcDbLine
 62
7
  6
CONTINUOUS
 10
144.7473007748
 20
208.8248746547
 11
144.8220293288
 21
208.7345313299
  0
LINE
  5
6FC
100
AcDbEntity
  8
BEZUGSACHSEN
100
AcDbLine
 62
7
  6
CONTINUOUS
 10
144.8220293288
 20
208.7345313299
 11
145.1323448483
 21
207.8349949187
  0
LINE
  5
6FD
100
AcDbEntity
  8
BEZUGSACHSEN
100
AcDbLine
 62
7
  6
CONTINUOUS
 10
77.9015567735
 20
186.9306804294
 11
75.2162742079
 21
188.288003779
  0
LINE
  5
6FE
100
AcDbEntity
  8
BEZUGSACHSEN
100
AcDbLine
 62
7
  6
CONTINUOUS
 10
79.6978774487
 20
189.4292590177
 11
79.8024882389
 21
189.9124009154
  0
LINE
  5
6FF
100
AcDbEntity
  8
BEZUGSACHSEN
100
AcDbLine
 62
7
  6
CONTINUOUS
 10
83.4421196659
 20
199.2912974221
 11
88.3025398402
 21
195.6759843002
  0
SPLINE
  5
700
100
AcDbEntity
  8
BEZUGSACHSEN
100
AcDbSpline
 62
7
  6
CONTINUOUS
 70
0
 71
3
 72
8
 73
4
 74
0
 42
0.0000001
 43
0.0000001
 44
0.0000000001
 40
0.0
 40
0.0
 40
0.0
 40
0.0
 40
1.0
 40
1.0
 40
1.0
 40
1.0
 10
82.7444862283
 20
198.6058586695
 30
0.0
 10
82.9768731393
 20
198.8344985147
 30
0.0
 10
83.2094176965
 20
199.0629782406
 30
0.0
 10
83.4421196659
 20
199.2912974221
 30
0.0
  0
LINE
  5
701
100
AcDbEntity
  8
BEZUGSACHSEN
100
AcDbLine
 62
7
  6
CONTINUOUS
 10
88.3183626117
 20
193.2556333421
 11
88.3536037681
 21
193.8323013164
  0
LINE
  5
702
100
AcDbEntity
  8
BEZUGSACHSEN
100
AcDbLine
 62
7
  6
CONTINUOUS
 10
88.0100611579
 20
192.6802111166
 11
88.3183626117
 21
193.2556333421
  0
LINE
  5
703
100
AcDbEntity
  8
BEZUGSACHSEN
100
AcDbLine
 62
7
  6
CONTINUOUS
 10
87.5449719778
 20
192.2203667911
 11
88.0100611579
 21
192.6802111166
  0
SPLINE
  5
704
100
AcDbEntity
  8
BEZUGSACHSEN
100
AcDbSpline
 62
7
  6
CONTINUOUS
 70
0
 71
3
 72
8
 73
4
 74
0
 42
0.0000001
 43
0.0000001
 44
0.0000000001
 40
0.0
 40
0.0
 40
0.0
 40
0.0
 40
1.0
 40
1.0
 40
1.0
 40
1.0
 10
86.9230957366
 20
191.8760761779
 30
0.0
 10
87.1303170226
 20
191.9909674953
 30
0.0
 10
87.3376088303
 20
192.1057317125
 30
0.0
 10
87.5449719778
 20
192.2203667911
 30
0.0
  0
LINE
  5
705
100
AcDbEntity
  8
BEZUGSACHSEN
100
AcDbLine
 62
7
  6
CONTINUOUS
 10
86.2607034554
 20
191.7628929792
 11
86.9230957366
 21
191.8760761779
  0
LINE
  5
706
100
AcDbEntity
  8
BEZUGSACHSEN
100
AcDbLine
 62
7
  6
CONTINUOUS
 10
85.5577953538
 20
191.8813876145
 11
86.2607034554
 21
191.7628929792
  0
LINE
  5
707
100
AcDbEntity
  8
BEZUGSACHSEN
100
AcDbLine
 62
7
  6
CONTINUOUS
 10
84.8143726525
 20
192.2319356291
 11
85.5577953538
 21
191.8813876145
  0
LINE
  5
708
100
AcDbEntity
  8
BEZUGSACHSEN
100
AcDbLine
 62
7
  6
CONTINUOUS
 10
84.8143726525
 20
192.2319356291
 11
79.9539524782
 21
195.8451285978
  0
SPLINE
  5
709
100
AcDbEntity
  8
BEZUGSACHSEN
100
AcDbSpline
 62
7
  6
CONTINUOUS
 70
0
 71
3
 72
8
 73
4
 74
0
 42
0.0000001
 43
0.0000001
 44
0.0000000001
 40
0.0
 40
0.0
 40
0.0
 40
0.0
 40
1.0
 40
1.0
 40
1.0
 40
1.0
 10
79.256318708
 20
195.1501913591
 30
0.0
 10
79.4887049474
 20
195.3819959618
 30
0.0
 10
79.7212493661
 20
195.6136420976
 30
0.0
 10
79.9539524782
 20
195.8451285978
 30
0.0
  0
LINE
  5
70A
100
AcDbEntity
  8
BEZUGSACHSEN
100
AcDbLine
 62
7
  6
CONTINUOUS
 10
89.526874548
 20
193.3614183376
 11
89.364812768
 21
194.2844405738
  0
LINE
  5
70B
100
AcDbEntity
  8
BEZUGSACHSEN
100
AcDbLine
 62
7
  6
CONTINUOUS
 10
89.364812768
 20
194.2844405738
 11
88.9702060104
 21
194.9789076291
  0
LINE
  5
70C
100
AcDbEntity
  8
BEZUGSACHSEN
100
AcDbLine
 62
7
  6
CONTINUOUS
 10
88.9702060104
 20
194.9789076291
 11
88.3025398402
 21
195.6759843002
  0
LINE
  5
70D
100
AcDbEntity
  8
BEZUGSACHSEN
100
AcDbLine
 62
7
  6
CONTINUOUS
 10
95.907394011
 20
199.1755346605
 11
95.659139632
 21
199.9209527602
  0
LINE
  5
70E
100
AcDbEntity
  8
BEZUGSACHSEN
100
AcDbLine
 62
7
  6
CONTINUOUS
 10
95.659139632
 20
199.9209527602
 11
95.1459872726
 21
200.7117156687
  0
LINE
  5
70F
100
AcDbEntity
  8
BEZUGSACHSEN
100
AcDbLine
 62
7
  6
CONTINUOUS
 10
93.2008648831
 20
202.8021767609
 11
95.1459872726
 21
200.7117156687
  0
LINE
  5
710
100
AcDbEntity
  8
BEZUGSACHSEN
100
AcDbLine
 62
7
  6
CONTINUOUS
 10
92.4172687406
 20
203.4049083751
 11
93.2008648831
 21
202.8021767609
  0
LINE
  5
711
100
AcDbEntity
  8
BEZUGSACHSEN
100
AcDbLine
 62
7
  6
CONTINUOUS
 10
91.6281245178
 20
203.7739874362
 11
92.4172687406
 21
203.4049083751
  0
SPLINE
  5
712
100
AcDbEntity
  8
BEZUGSACHSEN
100
AcDbSpline
 62
7
  6
CONTINUOUS
 70
0
 71
3
 72
8
 73
4
 74
0
 42
0.0000001
 43
0.0000001
 44
0.0000000001
 40
0.0
 40
0.0
 40
0.0
 40
0.0
 40
1.0
 40
1.0
 40
1.0
 40
1.0
 10
90.5685368752
 20
203.9539865609
 30
0.0
 10
90.9217599345
 20
203.8941470623
 30
0.0
 10
91.2749562812
 20
203.8341496494
 30
0.0
 10
91.6281245178
 20
203.7739874362
 30
0.0
  0
SPLINE
  5
713
100
AcDbEntity
  8
BEZUGSACHSEN
100
AcDbSpline
 62
7
  6
CONTINUOUS
 70
0
 71
3
 72
8
 73
4
 74
0
 42
0.0000001
 43
0.0000001
 44
0.0000000001
 40
0.0
 40
0.0
 40
0.0
 40
0.0
 40
1.0
 40
1.0
 40
1.0
 40
1.0
 10
89.7682988603
 20
203.8543977595
 30
0.0
 10
90.0350264846
 20
203.8877413908
 30
0.0
 10
90.3017724414
 20
203.9209387143
 30
0.0
 10
90.5685368752
 20
203.9539865609
 30
0.0
  0
SPLINE
  5
714
100
AcDbEntity
  8
BEZUGSACHSEN
100
AcDbSpline
 62
7
  6
CONTINUOUS
 70
0
 71
3
 72
8
 73
4
 74
0
 42
0.0000001
 43
0.0000001
 44
0.0000000001
 40
0.0
 40
0.0
 40
0.0
 40
0.0
 40
1.0
 40
1.0
 40
1.0
 40
1.0
 10
88.9625124019
 20
203.5197177428
 30
0.0
 10
89.2310287626
 20
203.6314680629
 30
0.0
 10
89.4996240832
 20
203.7430288493
 30
0.0
 10
89.7682988603
 20
203.8543977595
 30
0.0
  0
LINE
  5
715
100
AcDbEntity
  8
BEZUGSACHSEN
100
AcDbLine
 62
7
  6
CONTINUOUS
 10
94.6903939793
 20
198.3267274595
 11
94.836710938
 21
198.8888643626
  0
LINE
  5
716
100
AcDbEntity
  8
BEZUGSACHSEN
100
AcDbLine
 62
7
  6
CONTINUOUS
 10
94.279180406
 20
197.8085781672
 11
94.6903939793
 21
198.3267274595
  0
LINE
  5
717
100
AcDbEntity
  8
BEZUGSACHSEN
100
AcDbLine
 62
7
  6
CONTINUOUS
 10
91.8451803426
 20
196.0914927679
 11
87.3065612217
 21
200.9667228106
  0
SPLINE
  5
718
100
AcDbEntity
  8
RUNDUNGEN
100
AcDbSpline
 62
7
  6
CONTINUOUS
 70
0
 71
3
 72
9
 73
5
 74
0
 42
0.0000001
 43
0.0000001
 44
0.0000000001
 40
0.0
 40
0.0
 40
0.0
 40
0.0
 40
0.5267941641
 40
1.0
 40
1.0
 40
1.0
 40
1.0
 10
70.5774294884
 20
99.2996371025
 30
0.0
 10
70.7858248234
 20
99.0653425638
 30
0.0
 10
71.122268639
 20
98.5584603024
 30
0.0
 10
71.2473024695
 20
97.9585466916
 30
0.0
 10
71.2473024695
 20
97.6768798682
 30
0.0
  0
SPLINE
  5
719
100
AcDbEntity
  8
BEZUGSACHSEN
100
AcDbSpline
 62
7
  6
CONTINUOUS
 70
0
 71
3
 72
15
 73
11
 74
0
 42
0.0000001
 43
0.0000001
 44
0.0000000001
 40
0.0
 40
0.0
 40
0.0
 40
0.0
 40
0.1215817694
 40
0.2453929452
 40
0.3718480444
 40
0.5
 40
0.6281519556
 40
0.7546070548
 40
0.8784182306
 40
1.0
 40
1.0
 40
1.0
 40
1.0
 10
165.3966226876
 20
90.0580691444
 30
0.0
 10
165.322027071
 20
90.4950412528
 30
0.0
 10
165.0008292993
 20
91.3562713298
 30
0.0
 10
164.0842086618
 20
92.3926719042
 30
0.0
 10
162.8493462155
 20
93.0667963035
 30
0.0
 10
161.4473024695
 20
93.299767297
 30
0.0
 10
160.0452587235
 20
93.0667963035
 30
0.0
 10
158.8103962772
 20
92.3926719042
 30
0.0
 10
157.8937756396
 20
91.3562713298
 30
0.0
 10
157.572577868
 20
90.4950412528
 30
0.0
 10
157.4979822513
 20
90.0580691444
 30
0.0
  0
SPLINE
  5
71A
100
AcDbEntity
  8
BEZUGSACHSEN
100
AcDbSpline
 62
7
  6
CONTINUOUS
 70
0
 71
3
 72
23
 73
19
 74
0
 42
0.0000001
 43
0.0000001
 44
0.0000000001
 40
0.0
 40
0.0
 40
0.0
 40
0.0
 40
0.0018740407
 40
0.0057971456
 40
0.0119049909
 40
0.020219905
 40
0.0307427216
 40
0.0434578446
 40
0.0753763607
 40
0.1157731381
 40
0.16435762
 40
0.2207965318
 40
0.2846802732
 40
0.3555628984
 40
0.4329344677
 40
0.6049108386
 40
0.7957319317
 40
1.0
 40
1.0
 40
1.0
 40
1.0
 10
91.8794130127
 20
48.2034633023
 30
0.0
 10
91.8935077447
 20
48.2092380033
 30
0.0
 10
91.9116494123
 20
48.2609048525
 30
0.0
 10
91.9304926846
 20
48.350194967
 30
0.0
 10
91.9475105729
 20
48.5013781268
 30
0.0
 10
91.9618947236
 20
48.7023965753
 30
0.0
 10
91.9733047902
 20
48.9590932018
 30
0.0
 10
91.9852241334
 20
49.4070292874
 30
0.0
 10
91.9899155231
 20
50.0983201693
 30
0.0
 10
91.9827444551
 20
51.0808947462
 30
0.0
 10
91.9625807032
 20
52.262706778
 30
0.0
 10
91.9295261532
 20
53.6351523452
 30
0.0
 10
91.8838001756
 20
55.1885664196
 30
0.0
 10
91.8257523683
 20
56.9118073208
 30
0.0
 10
91.7291247208
 20
59.5127877976
 30
0.0
 10
91.5804998064
 20
63.0873223798
 30
0.0
 10
91.3698709773
 20
67.6915117135
 30
0.0
 10
91.2124524336
 20
70.8988631042
 30
0.0
 10
91.1287944068
 20
72.5570042808
 30
0.0
  0
SPLINE
  5
71B
100
AcDbEntity
  8
0
100
AcDbSpline
 62
7
  6
CONTINUOUS
 70
0
 71
3
 72
10
 73
6
 74
0
 42
0.0000001
 43
0.0000001
 44
0.0000000001
 40
0.0
 40
0.0
 40
0.0
 40
0.0
 40
0.5005596387
 40
0.75045034
 40
1.0
 40
1.0
 40
1.0
 40
1.0
 10
155.7858461378
 20
79.9299146758
 30
0.0
 10
155.1368094041
 20
78.79717362
 30
0.0
 10
154.2763776226
 20
77.0215955969
 30
0.0
 10
153.5682264249
 20
74.5047603311
 30
0.0
 10
153.3986060674
 20
73.2070269167
 30
0.0
 10
153.3658105206
 20
72.5570040626
 30
0.0
  0
LINE
  5
71C
100
AcDbEntity
  8
0
100
AcDbLine
 62
7
  6
CONTINUOUS
 10
172.6341598659
 20
181.8785530852
 11
172.5999377377
 21
182.0946193585
  0
LINE
  5
71D
100
AcDbEntity
  8
0
100
AcDbLine
 62
7
  6
CONTINUOUS
 10
172.5999377377
 20
182.0946193585
 11
172.5283836025
 21
182.5460383779
  0
LINE
  5
71E
100
AcDbEntity
  8
BEZUGSACHSEN
100
AcDbLine
 62
7
  6
CONTINUOUS
 10
172.5283836025
 20
182.8763111133
 11
172.671502825
 21
181.9741024748
  0
LINE
  5
71F
100
AcDbEntity
  8
0
100
AcDbLine
 62
7
  6
CONTINUOUS
 10
169.7942241323
 20
187.5796589589
 11
165.5962457302
 21
186.0967461116
  0
LINE
  5
720
100
AcDbEntity
  8
BEZUGSACHSEN
100
AcDbLine
 62
7
  6
CONTINUOUS
 10
165.4653714601
 20
186.335437834
 11
169.7942241323
 21
187.8937092003
  0
LINE
  5
721
100
AcDbEntity
  8
0
100
AcDbLine
 62
7
  6
CONTINUOUS
 10
171.3693189383
 20
178.3086404064
 11
172.5236802438
 21
178.7168954673
  0
LINE
  5
722
100
AcDbEntity
  8
BEZUGSACHSEN
100
AcDbLine
 62
7
  6
CONTINUOUS
 10
172.5236802438
 20
179.0492178611
 11
171.3693189383
 21
178.6339279018
  0
LINE
  5
723
100
AcDbEntity
  8
0
100
AcDbLine
 62
7
  6
CONTINUOUS
 10
171.3693189383
 20
178.3086404064
 11
170.359645999
 21
178.271891818
  0
LINE
  5
724
100
AcDbEntity
  8
BEZUGSACHSEN
100
AcDbLine
 62
7
  6
CONTINUOUS
 10
170.359645999
 20
178.5907059127
 11
171.3693189383
 21
178.6339279018
  0
SPLINE
  5
725
100
AcDbEntity
  8
0
100
AcDbSpline
 62
7
  6
CONTINUOUS
 70
0
 71
3
 72
8
 73
4
 74
0
 42
0.0000001
 43
0.0000001
 44
0.0000000001
 40
0.0
 40
0.0
 40
0.0
 40
0.0
 40
1.0
 40
1.0
 40
1.0
 40
1.0
 10
170.359645999
 20
178.271891818
 30
0.0
 10
169.8310131257
 20
178.4051716667
 30
0.0
 10
169.3023243989
 20
178.5382302113
 30
0.0
 10
168.7735753318
 20
178.6710483458
 30
0.0
  0
SPLINE
  5
726
100
AcDbEntity
  8
BEZUGSACHSEN
100
AcDbSpline
 62
7
  6
CONTINUOUS
 70
0
 71
3
 72
8
 73
4
 74
0
 42
0.0000001
 43
0.0000001
 44
0.0000000001
 40
0.0
 40
0.0
 40
0.0
 40
0.0
 40
1.0
 40
1.0
 40
1.0
 40
1.0
 10
168.7735753318
 20
178.9791825413
 30
0.0
 10
169.3023249781
 20
178.8499331886
 30
0.0
 10
169.8310137448
 20
178.7204345659
 30
0.0
 10
170.359645999
 20
178.5907059127
 30
0.0
  0
SPLINE
  5
727
100
AcDbEntity
  8
0
100
AcDbSpline
 62
7
  6
CONTINUOUS
 70
0
 71
3
 72
8
 73
4
 74
0
 42
0.0000001
 43
0.0000001
 44
0.0000000001
 40
0.0
 40
0.0
 40
0.0
 40
0.0
 40
1.0
 40
1.0
 40
1.0
 40
1.0
 10
168.7735753318
 20
178.6710483458
 30
0.0
 10
168.2933323472
 20
178.9273316214
 30
0.0
 10
167.8128761835
 20
179.1832158821
 30
0.0
 10
167.3321930458
 20
179.4386726548
 30
0.0
  0
SPLINE
  5
728
100
AcDbEntity
  8
BEZUGSACHSEN
100
AcDbSpline
 62
7
  6
CONTINUOUS
 70
0
 71
3
 72
8
 73
4
 74
0
 42
0.0000001
 43
0.0000001
 44
0.0000000001
 40
0.0
 40
0.0
 40
0.0
 40
0.0
 40
1.0
 40
1.0
 40
1.0
 40
1.0
 10
167.3321930458
 20
179.7366992955
 30
0.0
 10
167.8128717406
 20
179.4846088227
 30
0.0
 10
168.2933282211
 20
179.2320942389
 30
0.0
 10
168.7735753318
 20
178.9791825413
 30
0.0
  0
LINE
  5
729
100
AcDbEntity
  8
0
100
AcDbLine
 62
7
  6
CONTINUOUS
 10
163.7338307146
 20
185.4387672932
 11
158.0000468647
 21
183.4125994107
  0
SPLINE
  5
72A
100
AcDbEntity
  8
BEZUGSACHSEN
100
AcDbSpline
 62
7
  6
CONTINUOUS
 70
0
 71
3
 72
8
 73
4
 74
0
 42
0.0000001
 43
0.0000001
 44
0.0000000001
 40
0.0
 40
0.0
 40
0.0
 40
0.0
 40
1.0
 40
1.0
 40
1.0
 40
1.0
 10
157.6734372968
 20
183.5290416084
 30
0.0
 10
159.6934832721
 20
184.2569256876
 30
0.0
 10
161.7136260149
 20
184.9845412354
 30
0.0
 10
163.7338307146
 20
185.7119846673
 30
0.0
  0
LINE
  5
72B
100
AcDbEntity
  8
0
100
AcDbLine
 62
7
  6
CONTINUOUS
 10
173.9681983768
 20
180.5066702366
 11
174.2583568363
 21
181.8846109848
  0
LINE
  5
72C
100
AcDbEntity
  8
BEZUGSACHSEN
100
AcDbLine
 62
7
  6
CONTINUOUS
 10
174.2583568363
 20
182.2261849939
 11
173.9681983768
 21
180.8469725452
  0
SPLINE
  5
72D
100
AcDbEntity
  8
0
100
AcDbSpline
 62
7
  6
CONTINUOUS
 70
0
 71
3
 72
8
 73
4
 74
0
 42
0.0000001
 43
0.0000001
 44
0.0000000001
 40
0.0
 40
0.0
 40
0.0
 40
0.0
 40
1.0
 40
1.0
 40
1.0
 40
1.0
 10
173.2455480499
 20
179.2922990686
 30
0.0
 10
173.486261104
 20
179.6971908043
 30
0.0
 10
173.7271480204
 20
180.1019792214
 30
0.0
 10
173.9681983768
 20
180.5066702366
 30
0.0
  0
SPLINE
  5
72E
100
AcDbEntity
  8
BEZUGSACHSEN
100
AcDbSpline
 62
7
  6
CONTINUOUS
 70
0
 71
3
 72
8
 73
4
 74
0
 42
0.0000001
 43
0.0000001
 44
0.0000000001
 40
0.0
 40
0.0
 40
0.0
 40
0.0
 40
1.0
 40
1.0
 40
1.0
 40
1.0
 10
173.9681983768
 20
180.8469725452
 30
0.0
 10
173.727168466
 20
180.4409926973
 30
0.0
 10
173.4862819135
 20
180.034927699
 30
0.0
 10
173.2455480499
 20
179.6287722341
 30
0.0
  0
LINE
  5
72F
100
AcDbEntity
  8
0
100
AcDbLine
 62
7
  6
CONTINUOUS
 10
172.5236802438
 20
178.7168954673
 11
173.2455480499
 21
179.2922990686
  0
LINE
  5
730
100
AcDbEntity
  8
BEZUGSACHSEN
100
AcDbLine
 62
7
  6
CONTINUOUS
 10
173.2455480499
 20
179.6287722341
 11
172.5236802438
 21
179.0492178611
  0
LINE
  5
731
100
AcDbEntity
  8
0
100
AcDbLine
 62
7
  6
CONTINUOUS
 10
155.3583627068
 20
186.8997384712
 11
166.6333242631
 21
194.0896095007
  0
LINE
  5
732
100
AcDbEntity
  8
BEZUGSACHSEN
100
AcDbLine
 62
7
  6
CONTINUOUS
 10
154.9421812459
 20
186.8501189574
 11
166.6333242631
 21
194.3928231003
  0
SPLINE
  5
733
100
AcDbEntity
  8
0
100
AcDbSpline
 62
7
  6
CONTINUOUS
 70
0
 71
3
 72
10
 73
6
 74
0
 42
0.0000001
 43
0.0000001
 44
0.0000000001
 40
0.0
 40
0.0
 40
0.0
 40
0.0
 40
0.2495497518
 40
0.4994404112
 40
1.0
 40
1.0
 40
1.0
 40
1.0
 10
91.1287943943
 20
72.5570042808
 30
0.0
 10
91.0959988353
 20
73.2070273569
 30
0.0
 10
90.926378534
 20
74.5047608841
 30
0.0
 10
90.2182270584
 20
77.021596003
 30
0.0
 10
89.3577954529
 20
78.7971737629
 30
0.0
 10
88.7087588011
 20
79.9299146758
 30
0.0
  0
SPLINE
  5
734
100
AcDbEntity
  8
0
100
AcDbSpline
 62
7
  6
CONTINUOUS
 70
0
 71
3
 72
9
 73
5
 74
0
 42
0.0000001
 43
0.0000001
 44
0.0000000001
 40
0.0
 40
0.0
 40
0.0
 40
0.0
 40
0.2504497171
 40
1.0
 40
1.0
 40
1.0
 40
1.0
 10
148.4717270383
 20
195.1543390547
 30
0.0
 10
148.8282406296
 20
196.051380906
 30
0.0
 10
150.2524119919
 20
199.6328359351
 30
0.0
 10
151.6787133377
 20
203.2134436315
 30
0.0
 10
152.7484611374
 20
205.8970245062
 30
0.0
  0
SPLINE
  5
735
100
AcDbEntity
  8
BEZUGSACHSEN
100
AcDbSpline
 62
7
  6
CONTINUOUS
 70
0
 71
3
 72
9
 73
5
 74
0
 42
0.0000001
 43
0.0000001
 44
0.0000000001
 40
0.0
 40
0.0
 40
0.0
 40
0.0
 40
0.2496764566
 40
1.0
 40
1.0
 40
1.0
 40
1.0
 10
152.7484611374
 20
206.1631771901
 30
0.0
 10
152.3839635936
 20
205.242717836
 30
0.0
 10
150.9243509415
 20
201.5560036723
 30
0.0
 10
149.4659499198
 20
197.8688095322
 30
0.0
 10
148.3729253248
 20
195.1017280106
 30
0.0
  0
SPLINE
  5
736
100
AcDbEntity
  8
0
100
AcDbSpline
 62
7
  6
CONTINUOUS
 70
0
 71
3
 72
9
 73
5
 74
0
 42
0.0000001
 43
0.0000001
 44
0.0000000001
 40
0.0
 40
0.0
 40
0.0
 40
0.0
 40
0.2497574858
 40
1.0
 40
1.0
 40
1.0
 40
1.0
 10
161.3931207675
 20
199.8223046896
 30
0.0
 10
160.3346841234
 20
199.2705603427
 30
0.0
 10
156.0971856073
 20
197.0607518785
 30
0.0
 10
151.8613173075
 20
194.8478128839
 30
0.0
 10
148.6852631116
 20
193.1839943193
 30
0.0
  0
SPLINE
  5
737
100
AcDbEntity
  8
0
100
AcDbSpline
 62
7
  6
CONTINUOUS
 70
0
 71
3
 72
9
 73
5
 74
0
 42
0.0000001
 43
0.0000001
 44
0.0000000001
 40
0.0
 40
0.0
 40
0.0
 40
0.0
 40
0.4981660998
 40
1.0
 40
1.0
 40
1.0
 40
1.0
 10
154.2901353001
 20
89.0964874524
 30
0.0
 10
154.2901353001
 20
87.9948039833
 30
0.0
 10
154.60871003
 20
85.7754270295
 30
0.0
 10
155.4343218353
 20
83.7080660419
 30
0.0
 10
155.9234046445
 20
82.7118520348
 30
0.0
  0
LINE
  5
738
100
AcDbEntity
  8
0
100
AcDbLine
 62
7
  6
CONTINUOUS
 10
147.126107693
 20
201.8772904405
 11
147.6442571469
 21
202.6463798588
  0
LINE
  5
739
100
AcDbEntity
  8
BEZUGSACHSEN
100
AcDbLine
 62
7
  6
CONTINUOUS
 10
147.6442571469
 20
202.8728729013
 11
147.126107693
 21
202.0975884649
  0
SPLINE
  5
73A
100
AcDbEntity
  8
BEZUGSACHSEN
100
AcDbSpline
 62
7
  6
CONTINUOUS
 70
0
 71
3
 72
8
 73
4
 74
0
 42
0.0000001
 43
0.0000001
 44
0.0000000001
 40
0.0
 40
0.0
 40
0.0
 40
0.0
 40
1.0
 40
1.0
 40
1.0
 40
1.0
 10
80.5829039231
 20
188.6242039518
 30
0.0
 10
82.0883116833
 20
188.340129817
 30
0.0
 10
83.5935743251
 20
188.0552848213
 30
0.0
 10
85.0986448547
 20
187.7694293688
 30
0.0
  0
SPLINE
  5
73B
100
AcDbEntity
  8
0
100
AcDbSpline
 62
7
  6
CONTINUOUS
 70
0
 71
3
 72
8
 73
4
 74
0
 42
0.0000001
 43
0.0000001
 44
0.0000000001
 40
0.0
 40
0.0
 40
0.0
 40
0.0
 40
1.0
 40
1.0
 40
1.0
 40
1.0
 10
85.0986448547
 20
187.5230760534
 30
0.0
 10
83.5935544907
 20
187.7987192917
 30
0.0
 10
82.088293238
 20
188.0734303284
 30
0.0
 10
80.5829039231
 20
188.347436184
 30
0.0
  0
SPLINE
  5
73C
100
AcDbEntity
  8
BEZUGSACHSEN
100
AcDbSpline
 62
7
  6
CONTINUOUS
 70
0
 71
3
 72
8
 73
4
 74
0
 42
0.0000001
 43
0.0000001
 44
0.0000000001
 40
0.0
 40
0.0
 40
0.0
 40
0.0
 40
1.0
 40
1.0
 40
1.0
 40
1.0
 10
85.0986448547
 20
187.7694293688
 30
0.0
 10
85.3189980209
 20
188.0735279964
 30
0.0
 10
85.5395989931
 20
188.3774472151
 30
0.0
 10
85.7604474222
 20
188.6811863542
 30
0.0
  0
SPLINE
  5
73D
100
AcDbEntity
  8
0
100
AcDbSpline
 62
7
  6
CONTINUOUS
 70
0
 71
3
 72
8
 73
4
 74
0
 42
0.0000001
 43
0.0000001
 44
0.0000000001
 40
0.0
 40
0.0
 40
0.0
 40
0.0
 40
1.0
 40
1.0
 40
1.0
 40
1.0
 10
85.7604474222
 20
188.4379842227
 30
0.0
 10
85.5395788405
 20
188.1332086726
 30
0.0
 10
85.318978076
 20
187.8282388589
 30
0.0
 10
85.0986448547
 20
187.5230760534
 30
0.0
  0
SPLINE
  5
73E
100
AcDbEntity
  8
0
100
AcDbSpline
 62
7
  6
CONTINUOUS
 70
0
 71
3
 72
9
 73
5
 74
0
 42
0.0000001
 43
0.0000001
 44
0.0000000001
 40
0.0
 40
0.0
 40
0.0
 40
0.0
 40
0.5018339002
 40
1.0
 40
1.0
 40
1.0
 40
1.0
 10
88.5712002945
 20
82.7118520348
 30
0.0
 10
89.0602831036
 20
83.7080660419
 30
0.0
 10
89.885894909
 20
85.7754270295
 30
0.0
 10
90.2044696388
 20
87.9948039833
 30
0.0
 10
90.2044696388
 20
89.0964874524
 30
0.0
  0
LINE
  5
73F
100
AcDbEntity
  8
BEZUGSACHSEN
100
AcDbLine
 62
7
  6
CONTINUOUS
 10
80.7921256388
 20
189.5905405194
 11
80.8122607328
 21
190.2940211614
  0
SPLINE
  5
740
100
AcDbEntity
  8
BEZUGSACHSEN
100
AcDbSpline
 62
7
  6
CONTINUOUS
 70
0
 71
3
 72
15
 73
11
 74
0
 42
0.0000001
 43
0.0000001
 44
0.0000000001
 40
0.0
 40
0.0
 40
0.0
 40
0.0
 40
0.121402058
 40
0.2449244877
 40
0.3714319489
 40
0.5
 40
0.6285680511
 40
0.7550755123
 40
0.878597942
 40
1.0
 40
1.0
 40
1.0
 40
1.0
 10
165.4473024695
 20
89.8050156885
 30
0.0
 10
165.4473024695
 20
90.2951619838
 30
0.0
 10
165.2342393353
 20
91.2957188407
 30
0.0
 10
164.3351160895
 20
92.544677417
 30
0.0
 10
163.0051751121
 20
93.3721758465
 30
0.0
 10
161.4473024695
 20
93.6602676953
 30
0.0
 10
159.8894298268
 20
93.3721758465
 30
0.0
 10
158.5594888494
 20
92.544677417
 30
0.0
 10
157.6603656036
 20
91.2957188407
 30
0.0
 10
157.4473024695
 20
90.2951619838
 30
0.0
 10
157.4473024695
 20
89.8050156885
 30
0.0
  0
LINE
  5
741
100
AcDbEntity
  8
BEZUGSACHSEN
100
AcDbLine
 62
7
  6
CONTINUOUS
 10
82.1678058014
 20
183.6938274181
 11
73.7539209975
 21
187.9473191833
  0
LINE
  5
742
100
AcDbEntity
  8
0
100
AcDbLine
 62
7
  6
CONTINUOUS
 10
73.7539209975
 20
187.6271500177
 11
82.1678058014
 21
183.4305559709
  0
SPLINE
  5
743
100
AcDbEntity
  8
BEZUGSACHSEN
100
AcDbSpline
 62
7
  6
CONTINUOUS
 70
0
 71
3
 72
8
 73
4
 74
0
 42
0.0000001
 43
0.0000001
 44
0.0000000001
 40
0.0
 40
0.0
 40
0.0
 40
0.0
 40
1.0
 40
1.0
 40
1.0
 40
1.0
 10
82.1678058014
 20
183.6938274181
 30
0.0
 10
82.3567095772
 20
183.9585105343
 30
0.0
 10
82.5457956004
 20
184.223063677
 30
0.0
 10
82.7350649904
 20
184.4874854736
 30
0.0
  0
SPLINE
  5
744
100
AcDbEntity
  8
0
100
AcDbSpline
 62
7
  6
CONTINUOUS
 70
0
 71
3
 72
8
 73
4
 74
0
 42
0.0000001
 43
0.0000001
 44
0.0000000001
 40
0.0
 40
0.0
 40
0.0
 40
0.0
 40
1.0
 40
1.0
 40
1.0
 40
1.0
 10
82.7350649904
 20
184.2278494534
 30
0.0
 10
82.5457827519
 20
183.9622244059
 30
0.0
 10
82.3566969087
 20
183.6964593015
 30
0.0
 10
82.1678058014
 20
183.4305559709
 30
0.0
  0
SPLINE
  5
745
100
AcDbEntity
  8
BEZUGSACHSEN
100
AcDbSpline
 62
7
  6
CONTINUOUS
 70
0
 71
3
 72
23
 73
19
 74
0
 42
0.0000001
 43
0.0000001
 44
0.0000000001
 40
0.0
 40
0.0
 40
0.0
 40
0.0
 40
0.2042680686
 40
0.3950891619
 40
0.5670655328
 40
0.644437102
 40
0.7153197271
 40
0.7792034685
 40
0.8356423803
 40
0.8842268621
 40
0.9246236394
 40
0.9565421555
 40
0.9692572784
 40
0.979780095
 40
0.9880950091
 40
0.9942028544
 40
0.9981259593
 40
1.0
 40
1.0
 40
1.0
 40
1.0
 10
153.3658105206
 20
72.5570040626
 30
0.0
 10
153.2821524679
 20
70.8988628997
 30
0.0
 10
153.1247339651
 20
67.6915115322
 30
0.0
 10
152.9141051235
 20
63.0873222371
 30
0.0
 10
152.7654802138
 20
59.5127876861
 30
0.0
 10
152.6688525679
 20
56.9118072333
 30
0.0
 10
152.610804761
 20
55.1885663488
 30
0.0
 10
152.5650787842
 20
53.6351522898
 30
0.0
 10
152.5320242349
 20
52.2627067364
 30
0.0
 10
152.5118604835
 20
51.0808947165
 30
0.0
 10
152.5046894158
 20
50.0983201497
 30
0.0
 10
152.5093808057
 20
49.407029275
 30
0.0
 10
152.5213001491
 20
48.9590931941
 30
0.0
 10
152.5327102157
 20
48.7023965702
 30
0.0
 10
152.5470943663
 20
48.5013781237
 30
0.0
 10
152.5641122545
 20
48.3501949656
 30
0.0
 10
152.5829555267
 20
48.2609048519
 30
0.0
 10
152.6010971944
 20
48.2092380033
 30
0.0
 10
152.6151919263
 20
48.2034633023
 30
0.0
  0
LINE
  5
746
100
AcDbEntity
  8
0
100
AcDbLine
 62
7
  6
CONTINUOUS
 10
144.9710567781
 20
206.8755581039
 11
145.1323448483
 21
207.5929799264
  0
LINE
  5
747
100
AcDbEntity
  8
BEZUGSACHSEN
100
AcDbLine
 62
7
  6
CONTINUOUS
 10
145.1323448483
 20
207.8349949187
 11
144.9710567781
 21
207.112936335
  0
LINE
  5
748
100
AcDbEntity
  8
BEZUGSACHSEN
100
AcDbLine
 62
7
  6
CONTINUOUS
 10
77.0125948831
 20
190.7868781135
 11
77.4752432819
 21
191.0891387378
  0
LINE
  5
749
100
AcDbEntity
  8
0
100
AcDbLine
 62
7
  6
CONTINUOUS
 10
77.4752432819
 20
190.7892844264
 11
77.0125948831
 21
190.4845158255
  0
LINE
  5
74A
100
AcDbEntity
  8
BEZUGSACHSEN
100
AcDbLine
 62
7
  6
CONTINUOUS
 10
77.4752432819
 20
191.0891387378
 11
78.0223673769
 21
191.169664332
  0
LINE
  5
74B
100
AcDbEntity
  8
0
100
AcDbLine
 62
7
  6
CONTINUOUS
 10
78.0223673769
 20
190.8731593213
 11
77.4752432819
 21
190.7892844264
  0
LINE
  5
74C
100
AcDbEntity
  8
BEZUGSACHSEN
100
AcDbLine
 62
7
  6
CONTINUOUS
 10
78.0223673769
 20
191.169664332
 11
78.6539668978
 21
191.0287736189
  0
LINE
  5
74D
100
AcDbEntity
  8
0
100
AcDbLine
 62
7
  6
CONTINUOUS
 10
78.6539668978
 20
190.7364846403
 11
78.0223673769
 21
190.8731593213
  0
LINE
  5
74E
100
AcDbEntity
  8
BEZUGSACHSEN
100
AcDbLine
 62
7
  6
CONTINUOUS
 10
78.6539668978
 20
191.0287736189
 11
79.1910238121
 21
190.7571816788
  0
LINE
  5
74F
100
AcDbEntity
  8
0
100
AcDbLine
 62
7
  6
CONTINUOUS
 10
79.1910238121
 20
190.4687083802
 11
78.6539668978
 21
190.7364846403
  0
LINE
  5
750
100
AcDbEntity
  8
BEZUGSACHSEN
100
AcDbLine
 62
7
  6
CONTINUOUS
 10
79.6335371169
 20
190.3549277933
 11
79.1910238121
 21
190.7571816788
  0
LINE
  5
751
100
AcDbEntity
  8
0
100
AcDbLine
 62
7
  6
CONTINUOUS
 10
79.1910238121
 20
190.4687083802
 11
79.6335371169
 21
190.0698558458
  0
LINE
  5
752
100
AcDbEntity
  8
BEZUGSACHSEN
100
AcDbLine
 62
7
  6
CONTINUOUS
 10
79.8024882389
 20
189.9124009154
 11
79.6335371169
 21
190.3549277933
  0
LINE
  5
753
100
AcDbEntity
  8
0
100
AcDbLine
 62
7
  6
CONTINUOUS
 10
79.6335371169
 20
190.0698558458
 11
79.7182186811
 21
189.8489282939
  0
LINE
  5
754
100
AcDbEntity
  8
0
100
AcDbLine
 62
7
  6
CONTINUOUS
 10
79.7182186811
 20
189.8489282939
 11
79.7604049624
 21
189.7388466179
  0
SPLINE
  5
755
100
AcDbEntity
  8
0
100
AcDbSpline
 62
7
  6
CONTINUOUS
 70
0
 71
3
 72
11
 73
7
 74
0
 42
0.0000001
 43
0.0000001
 44
0.0000000001
 40
0.0
 40
0.0
 40
0.0
 40
0.0
 40
0.2577016531
 40
0.5055245612
 40
0.7515288888
 40
1.0
 40
1.0
 40
1.0
 40
1.0
 10
90.2044696388
 20
104.2015840739
 30
0.0
 10
90.2044696388
 20
104.6850642435
 30
0.0
 10
90.3940656244
 20
105.6451745421
 30
0.0
 10
91.1784104669
 20
106.8469987472
 30
0.0
 10
92.2391236898
 20
107.7674290981
 30
0.0
 10
93.0453678373
 20
108.2347720148
 30
0.0
 10
93.4630228494
 20
108.4418270718
 30
0.0
  0
LINE
  5
756
100
AcDbEntity
  8
0
100
AcDbLine
 62
7
  6
CONTINUOUS
 10
144.8118083235
 20
206.546661717
 11
144.9710567781
 21
206.8755581039
  0
SPLINE
  5
757
100
AcDbEntity
  8
0
100
AcDbSpline
 62
7
  6
CONTINUOUS
 70
0
 71
3
 72
11
 73
7
 74
0
 42
0.0000001
 43
0.0000001
 44
0.0000000001
 40
0.0
 40
0.0
 40
0.0
 40
0.0
 40
0.2484711067
 40
0.4944754296
 40
0.7422983368
 40
1.0
 40
1.0
 40
1.0
 40
1.0
 10
151.0315820896
 20
108.4418270718
 30
0.0
 10
151.4492370943
 20
108.2347720185
 30
0.0
 10
152.2554812302
 20
107.7674291134
 30
0.0
 10
153.3161944348
 20
106.8469987745
 30
0.0
 10
154.100539321
 20
105.6451745856
 30
0.0
 10
154.2901353001
 20
104.6850642627
 30
0.0
 10
154.2901353001
 20
104.2015840739
 30
0.0
  0
LINE
  5
758
100
AcDbEntity
  8
BEZUGSACHSEN
100
AcDbLine
 62
7
  6
CONTINUOUS
 10
144.9710567781
 20
207.112936335
 11
144.8118083235
 21
206.7815846461
  0
LINE
  5
759
100
AcDbEntity
  8
0
100
AcDbLine
 62
7
  6
CONTINUOUS
 10
144.8118083235
 20
206.546661717
 11
144.747302577
 21
206.465558185
  0
LINE
  5
75A
100
AcDbEntity
  8
BEZUGSACHSEN
100
AcDbLine
 62
7
  6
CONTINUOUS
 10
144.7473025829
 20
206.6997766606
 11
144.8118083235
 21
206.7815846461
  0
LINE
  5
75B
100
AcDbEntity
  8
BEZUGSACHSEN
100
AcDbLine
 62
7
  6
CONTINUOUS
 10
82.7444862283
 20
198.6058586695
 11
87.6049064027
 21
194.9914664354
  0
LINE
  5
75C
100
AcDbEntity
  8
0
100
AcDbLine
 62
7
  6
CONTINUOUS
 10
87.6049064027
 20
194.7462604498
 11
82.7444862283
 21
198.3213509837
  0
LINE
  5
75D
100
AcDbEntity
  8
BEZUGSACHSEN
100
AcDbLine
 62
7
  6
CONTINUOUS
 10
88.1157848466
 20
194.4107932216
 11
87.6049064027
 21
194.9914664354
  0
LINE
  5
75E
100
AcDbEntity
  8
0
100
AcDbLine
 62
7
  6
CONTINUOUS
 10
87.6049064027
 20
194.7462604498
 11
88.1157848466
 21
194.1702916606
  0
LINE
  5
75F
100
AcDbEntity
  8
BEZUGSACHSEN
100
AcDbLine
 62
7
  6
CONTINUOUS
 10
88.3536037681
 20
193.8323013164
 11
88.1157848466
 21
194.4107932216
  0
LINE
  5
760
100
AcDbEntity
  8
0
100
AcDbLine
 62
7
  6
CONTINUOUS
 10
88.1157848466
 20
194.1702916606
 11
88.2944120323
 21
193.7380769676
  0
LINE
  5
761
100
AcDbEntity
  8
BEZUGSACHSEN
100
AcDbLine
 62
7
  6
CONTINUOUS
 10
84.1167388823
 20
191.5366723739
 11
79.256318708
 21
195.1501913591
  0
LINE
  5
762
100
AcDbEntity
  8
0
100
AcDbLine
 62
7
  6
CONTINUOUS
 10
79.256318708
 20
194.8539295167
 11
84.1167388823
 21
191.2781512293
  0
LINE
  5
763
100
AcDbEntity
  8
BEZUGSACHSEN
100
AcDbLine
 62
7
  6
CONTINUOUS
 10
84.1167388823
 20
191.5366723739
 11
85.0169499752
 21
191.0698766864
  0
LINE
  5
764
100
AcDbEntity
  8
0
100
AcDbLine
 62
7
  6
CONTINUOUS
 10
85.0169499752
 20
190.8179437821
 11
84.1167388823
 21
191.2781512293
  0
LINE
  5
765
100
AcDbEntity
  8
BEZUGSACHSEN
100
AcDbLine
 62
7
  6
CONTINUOUS
 10
85.0169499752
 20
191.0698766864
 11
85.8766455803
 21
190.8355325082
  0
LINE
  5
766
100
AcDbEntity
  8
0
100
AcDbLine
 62
7
  6
CONTINUOUS
 10
85.8766455803
 20
190.5895071987
 11
85.0169499752
 21
190.8179437821
  0
SPLINE
  5
767
100
AcDbEntity
  8
BEZUGSACHSEN
100
AcDbSpline
 62
7
  6
CONTINUOUS
 70
0
 71
3
 72
8
 73
4
 74
0
 42
0.0000001
 43
0.0000001
 44
0.0000000001
 40
0.0
 40
0.0
 40
0.0
 40
0.0
 40
1.0
 40
1.0
 40
1.0
 40
1.0
 10
85.8766455803
 20
190.8355325082
 30
0.0
 10
86.2407258222
 20
190.8346461664
 30
0.0
 10
86.6048057246
 20
190.8336054157
 30
0.0
 10
86.9688850553
 20
190.8324016307
 30
0.0
  0
SPLINE
  5
768
100
AcDbEntity
  8
0
100
AcDbSpline
 62
7
  6
CONTINUOUS
 70
0
 71
3
 72
8
 73
4
 74
0
 42
0.0000001
 43
0.0000001
 44
0.0000000001
 40
0.0
 40
0.0
 40
0.0
 40
0.0
 40
1.0
 40
1.0
 40
1.0
 40
1.0
 10
86.9688850553
 20
190.5933309476
 30
0.0
 10
86.6048047025
 20
190.5922172809
 30
0.0
 10
86.2407248183
 20
190.590939684
 30
0.0
 10
85.8766455803
 20
190.5895071987
 30
0.0
  0
SPLINE
  5
769
100
AcDbEntity
  8
BEZUGSACHSEN
100
AcDbSpline
 62
7
  6
CONTINUOUS
 70
0
 71
3
 72
8
 73
4
 74
0
 42
0.0000001
 43
0.0000001
 44
0.0000000001
 40
0.0
 40
0.0
 40
0.0
 40
0.0
 40
1.0
 40
1.0
 40
1.0
 40
1.0
 10
86.9688850553
 20
190.8324016307
 30
0.0
 10
87.228394579
 20
190.9088874068
 30
0.0
 10
87.4879491309
 20
190.9852205817
 30
0.0
 10
87.7475497292
 20
191.0613966688
 30
0.0
  0
SPLINE
  5
76A
100
AcDbEntity
  8
0
100
AcDbSpline
 62
7
  6
CONTINUOUS
 70
0
 71
3
 72
8
 73
4
 74
0
 42
0.0000001
 43
0.0000001
 44
0.0000000001
 40
0.0
 40
0.0
 40
0.0
 40
0.0
 40
1.0
 40
1.0
 40
1.0
 40
1.0
 10
87.7475497292
 20
190.8268024456
 30
0.0
 10
87.4879463876
 20
190.7491403854
 30
0.0
 10
87.228391884
 20
190.6713148972
 30
0.0
 10
86.9688850553
 20
190.5933309476
 30
0.0
  0
SPLINE
  5
76B
100
AcDbEntity
  8
BEZUGSACHSEN
100
AcDbSpline
 62
7
  6
CONTINUOUS
 70
0
 71
3
 72
8
 73
4
 74
0
 42
0.0000001
 43
0.0000001
 44
0.0000000001
 40
0.0
 40
0.0
 40
0.0
 40
0.0
 40
1.0
 40
1.0
 40
1.0
 40
1.0
 10
87.7475497292
 20
191.0613966688
 30
0.0
 10
87.9934792427
 20
191.2148009701
 30
0.0
 10
88.2395283219
 20
191.3680137617
 30
0.0
 10
88.4856984454
 20
191.5210316547
 30
0.0
  0
SPLINE
  5
76C
100
AcDbEntity
  8
0
100
AcDbSpline
 62
7
  6
CONTINUOUS
 70
0
 71
3
 72
8
 73
4
 74
0
 42
0.0000001
 43
0.0000001
 44
0.0000000001
 40
0.0
 40
0.0
 40
0.0
 40
0.0
 40
1.0
 40
1.0
 40
1.0
 40
1.0
 10
88.4856984454
 20
191.2900984395
 30
0.0
 10
88.2395198889
 20
191.1358721376
 30
0.0
 10
87.9934709193
 20
190.9814388002
 30
0.0
 10
87.7475497292
 20
190.8268024456
 30
0.0
  0
LINE
  5
76D
100
AcDbEntity
  8
BEZUGSACHSEN
100
AcDbLine
 62
7
  6
CONTINUOUS
 10
88.4856984454
 20
191.5210316547
 11
88.9507876255
 21
191.9808268215
  0
LINE
  5
76E
100
AcDbEntity
  8
0
100
AcDbLine
 62
7
  6
CONTINUOUS
 10
88.9507876255
 20
191.751739826
 11
88.4856984454
 21
191.2900984395
  0
LINE
  5
76F
100
AcDbEntity
  8
BEZUGSACHSEN
100
AcDbLine
 62
7
  6
CONTINUOUS
 10
88.9507876255
 20
191.9808268215
 11
89.3753608617
 21
192.6707099209
  0
SPLINE
  5
770
100
AcDbEntity
  8
0
100
AcDbSpline
 62
7
  6
CONTINUOUS
 70
0
 71
3
 72
8
 73
4
 74
0
 42
0.0000001
 43
0.0000001
 44
0.0000000001
 40
0.0
 40
0.0
 40
0.0
 40
0.0
 40
1.0
 40
1.0
 40
1.0
 40
1.0
 10
89.3753608617
 20
192.4425463076
 30
0.0
 10
89.233709182
 20
192.2123557483
 30
0.0
 10
89.0921843234
 20
191.9820870983
 30
0.0
 10
88.9507876255
 20
191.751739826
 30
0.0
  0
LINE
  5
771
100
AcDbEntity
  8
BEZUGSACHSEN
100
AcDbLine
 62
7
  6
CONTINUOUS
 10
89.3753608617
 20
192.6707099209
 11
89.526874548
 21
193.3614183376
  0
LINE
  5
772
100
AcDbEntity
  8
0
100
AcDbLine
 62
7
  6
CONTINUOUS
 10
89.526874548
 20
193.1323575826
 11
89.3753608617
 21
192.4425463076
  0
LINE
  5
773
100
AcDbEntity
  8
BEZUGSACHSEN
100
AcDbLine
 62
7
  6
CONTINUOUS
 10
91.8118959621
 20
194.6787785446
 11
85.717178984
 21
201.2262619665
  0
LINE
  5
774
100
AcDbEntity
  8
0
100
AcDbLine
 62
7
  6
CONTINUOUS
 10
85.717178984
 20
200.9498892645
 11
91.8118959621
 21
194.4595061347
  0
SPLINE
  5
775
100
AcDbEntity
  8
BEZUGSACHSEN
100
AcDbSpline
 62
7
  6
CONTINUOUS
 70
0
 71
3
 72
8
 73
4
 74
0
 42
0.0000001
 43
0.0000001
 44
0.0000000001
 40
0.0
 40
0.0
 40
0.0
 40
0.0
 40
1.0
 40
1.0
 40
1.0
 40
1.0
 10
95.05722938
 20
196.9727868887
 30
0.0
 10
95.2392460085
 20
197.1771034725
 30
0.0
 10
95.4213921886
 20
197.3813047164
 30
0.0
 10
95.6036661993
 20
197.5853917185
 30
0.0
  0
SPLINE
  5
776
100
AcDbEntity
  8
0
100
AcDbSpline
 62
7
  6
CONTINUOUS
 70
0
 71
3
 72
8
 73
4
 74
0
 42
0.0000001
 43
0.0000001
 44
0.0000000001
 40
0.0
 40
0.0
 40
0.0
 40
0.0
 40
1.0
 40
1.0
 40
1.0
 40
1.0
 10
95.6036661993
 20
197.3767328358
 30
0.0
 10
95.4213795247
 20
197.1725041512
 30
0.0
 10
95.2392333301
 20
196.9681499908
 30
0.0
 10
95.05722938
 20
196.7636693083
 30
0.0
  0
LINE
  5
777
100
AcDbEntity
  8
BEZUGSACHSEN
100
AcDbLine
 62
7
  6
CONTINUOUS
 10
95.6036661993
 20
197.5853917185
 11
95.8852049247
 21
198.2415660997
  0
LINE
  5
778
100
AcDbEntity
  8
0
100
AcDbLine
 62
7
  6
CONTINUOUS
 10
95.8852049247
 20
198.0316422067
 11
95.6036661993
 21
197.3767328358
  0
LINE
  5
779
100
AcDbEntity
  8
BEZUGSACHSEN
100
AcDbLine
 62
7
  6
CONTINUOUS
 10
95.8852049247
 20
198.2415660997
 11
95.907394011
 21
199.1755346605
  0
LINE
  5
77A
100
AcDbEntity
  8
0
100
AcDbLine
 62
7
  6
CONTINUOUS
 10
95.907394011
 20
198.9616940527
 11
95.8852049247
 21
198.0316422067
  0
SPLINE
  5
77B
100
AcDbEntity
  8
0
100
AcDbSpline
 62
7
  6
CONTINUOUS
 70
0
 71
3
 72
10
 73
6
 74
0
 42
0.0000001
 43
0.0000001
 44
0.0000000001
 40
0.0
 40
0.0
 40
0.0
 40
0.0
 40
0.2454147986
 40
0.49731295
 40
1.0
 40
1.0
 40
1.0
 40
1.0
 10
155.9234046445
 20
82.7118520348
 30
0.0
 10
156.0275242332
 20
82.4997705821
 30
0.0
 10
156.1889442121
 20
82.0427939493
 30
0.0
 10
156.2659801631
 20
81.0732617518
 30
0.0
 10
156.026437158
 20
80.3498097481
 30
0.0
 10
155.7858461378
 20
79.9299146758
 30
0.0
  0
SPLINE
  5
77C
100
AcDbEntity
  8
RUNDUNGEN
100
AcDbSpline
 62
7
  6
CONTINUOUS
 70
0
 71
3
 72
15
 73
11
 74
0
 42
0.0000001
 43
0.0000001
 44
0.0000000001
 40
0.0
 40
0.0
 40
0.0
 40
0.0
 40
0.104221722
 40
0.2285226783
 40
0.3626894932
 40
0.4999999997
 40
0.6373105062
 40
0.771477321
 40
0.8957782769
 40
1.0
 40
1.0
 40
1.0
 40
1.0
 10
134.2197184661
 20
116.130546638
 30
0.0
 10
133.8801343505
 20
117.1266518697
 30
0.0
 10
132.7184442802
 20
119.1743761349
 30
0.0
 10
130.0202985459
 20
121.7233910424
 30
0.0
 10
126.3913767519
 20
123.5400318777
 30
0.0
 10
122.2473024481
 20
124.1970406586
 30
0.0
 10
118.1032281567
 20
123.5400318627
 30
0.0
 10
114.4743063447
 20
121.7233910344
 30
0.0
 10
111.7761607012
 20
119.174376062
 30
0.0
 10
110.6144704655
 20
117.1266518799
 30
0.0
 10
110.2748863464
 20
116.130546638
 30
0.0
  0
LINE
  5
77D
100
AcDbEntity
  8
BEZUGSACHSEN
100
AcDbLine
 62
7
  6
CONTINUOUS
 10
89.7405612851
 20
202.6839505848
 11
90.4111244861
 21
202.923881954
  0
SPLINE
  5
77E
100
AcDbEntity
  8
0
100
AcDbSpline
 62
7
  6
CONTINUOUS
 70
0
 71
3
 72
8
 73
4
 74
0
 42
0.0000001
 43
0.0000001
 44
0.0000000001
 40
0.0
 40
0.0
 40
0.0
 40
0.0
 40
1.0
 40
1.0
 40
1.0
 40
1.0
 10
90.4111244861
 20
202.6657752341
 30
0.0
 10
90.1875530828
 20
202.5851259166
 30
0.0
 10
89.964032138
 20
202.5043365869
 30
0.0
 10
89.7405612851
 20
202.4234090718
 30
0.0
  0
LINE
  5
77F
100
AcDbEntity
  8
BEZUGSACHSEN
100
AcDbLine
 62
7
  6
CONTINUOUS
 10
90.4111244861
 20
202.923881954
 11
91.076140791
 21
202.9291060206
  0
LINE
  5
780
100
AcDbEntity
  8
0
100
AcDbLine
 62
7
  6
CONTINUOUS
 10
91.076140791
 20
202.6743601515
 11
90.4111244861
 21
202.6657752341
  0
LINE
  5
781
100
AcDbEntity
  8
BEZUGSACHSEN
100
AcDbLine
 62
7
  6
CONTINUOUS
 10
91.076140791
 20
202.9291060206
 11
91.7356105632
 21
202.7000885397
  0
LINE
  5
782
100
AcDbEntity
  8
0
100
AcDbLine
 62
7
  6
CONTINUOUS
 10
91.7356105632
 20
202.4496723224
 11
91.076140791
 21
202.6743601515
  0
LINE
  5
783
100
AcDbEntity
  8
BEZUGSACHSEN
100
AcDbLine
 62
7
  6
CONTINUOUS
 10
91.7356105632
 20
202.7000885397
 11
92.3895315286
 21
202.2371573286
  0
LINE
  5
784
100
AcDbEntity
  8
0
100
AcDbLine
 62
7
  6
CONTINUOUS
 10
92.3895315286
 20
201.9920644415
 11
91.7356105632
 21
202.4496723224
  0
LINE
  5
785
100
AcDbEntity
  8
BEZUGSACHSEN
100
AcDbLine
 62
7
  6
CONTINUOUS
 10
92.3895315286
 20
202.2371573286
 11
94.3346539182
 21
200.1471825352
  0
LINE
  5
786
100
AcDbEntity
  8
0
100
AcDbLine
 62
7
  6
CONTINUOUS
 10
94.3346539182
 20
199.9210738702
 11
92.3895315286
 21
201.9920644415
  0
LINE
  5
787
100
AcDbEntity
  8
BEZUGSACHSEN
100
AcDbLine
 62
7
  6
CONTINUOUS
 10
94.7181314637
 20
199.4955649588
 11
94.3346539182
 21
200.1471825352
  0
LINE
  5
788
100
AcDbEntity
  8
0
100
AcDbLine
 62
7
  6
CONTINUOUS
 10
94.3346539182
 20
199.9210738702
 11
94.7181314637
 21
199.2742344523
  0
LINE
  5
789
100
AcDbEntity
  8
BEZUGSACHSEN
100
AcDbLine
 62
7
  6
CONTINUOUS
 10
94.836710938
 20
198.8888643626
 11
94.7181314637
 21
199.4955649588
  0
LINE
  5
78A
100
AcDbEntity
  8
0
100
AcDbLine
 62
7
  6
CONTINUOUS
 10
94.7181314637
 20
199.2742344523
 11
94.8071960951
 21
198.8209648784
  0
SPLINE
  5
78B
100
AcDbEntity
  8
0
100
AcDbSpline
 62
7
  6
CONTINUOUS
 70
0
 71
3
 72
10
 73
6
 74
0
 42
0.0000001
 43
0.0000001
 44
0.0000000001
 40
0.0
 40
0.0
 40
0.0
 40
0.0
 40
0.50268705
 40
0.7545852014
 40
1.0
 40
1.0
 40
1.0
 40
1.0
 10
88.7087588011
 20
79.9299146758
 30
0.0
 10
88.4681677809
 20
80.3498097481
 30
0.0
 10
88.2286247759
 20
81.0732617518
 30
0.0
 10
88.3056607269
 20
82.0427939493
 30
0.0
 10
88.4670807058
 20
82.4997705821
 30
0.0
 10
88.5712002945
 20
82.7118520348
 30
0.0
  0
SPLINE
  5
78C
100
AcDbEntity
  8
RUNDUNGEN
100
AcDbSpline
 62
7
  6
CONTINUOUS
 70
0
 71
3
 72
9
 73
5
 74
0
 42
0.0000001
 43
0.0000001
 44
0.0000000001
 40
0.0
 40
0.0
 40
0.0
 40
0.0
 40
0.4732058359
 40
1.0
 40
1.0
 40
1.0
 40
1.0
 10
173.2473024695
 20
97.6768798682
 30
0.0
 10
173.2473024695
 20
97.9585466916
 30
0.0
 10
173.3723363
 20
98.5584603024
 30
0.0
 10
173.7087801155
 20
99.0653425638
 30
0.0
 10
173.9171754506
 20
99.2996371025
 30
0.0
  0
ELLIPSE
  5
78D
100
AcDbEntity
  8
BEZUGSACHSEN
100
AcDbEllipse
 62
7
  6
CONTINUOUS
 10
741.8229628412
 20
122.8625295147
 30
0.0
 11
20.9240711291
 21
2.587232844
 31
0.0
 40
0.9293161211
 41
-2.9637318929
 42
-2.8342734606
  0
ELLIPSE
  5
78E
100
AcDbEntity
  8
RUNDUNGEN
100
AcDbEllipse
 62
7
  6
CONTINUOUS
 10
717.5405853775
 20
114.0244669007
 30
0.0
 11
17.6918096314
 21
11.4677983227
 31
0.0
 40
0.9293161211
 41
-0.307319193
 42
-0.1778607607
  0
ELLIPSE
  5
78F
100
AcDbEntity
  8
BEZUGSACHSEN
100
AcDbEllipse
 62
7
  6
CONTINUOUS
 10
724.4361202696
 20
99.9305816533
 30
0.0
 11
-4.9015102375
 21
7.3464449231
 31
0.0
 40
0.5625674239
 41
-2.7543953279
 42
-1.9800006766
  0
ELLIPSE
  5
790
100
AcDbEntity
  8
RUNDUNGEN
100
AcDbEllipse
 62
7
  6
CONTINUOUS
 10
745.6000514643
 20
107.6336226482
 30
0.0
 11
-0.9674290915
 21
8.7783333594
 31
0.0
 40
0.5625674239
 41
-4.3031846306
 42
-3.5287899793
  0
ELLIPSE
  5
791
100
AcDbEntity
  8
BEZUGSACHSEN
100
AcDbEllipse
 62
7
  6
CONTINUOUS
 10
610.3237782651
 20
122.8625295147
 30
0.0
 11
20.9240711291
 21
-2.587232844
 31
0.0
 40
0.9293161211
 41
-0.307319193
 42
-0.1778607607
  0
ELLIPSE
  5
792
100
AcDbEntity
  8
RUNDUNGEN
100
AcDbEllipse
 62
7
  6
CONTINUOUS
 10
634.6061557288
 20
114.0244669007
 30
0.0
 11
17.6918096314
 21
-11.4677983227
 31
0.0
 40
0.9293161211
 41
-2.9637318929
 42
-2.8342734606
  0
ELLIPSE
  5
793
100
AcDbEntity
  8
BEZUGSACHSEN
100
AcDbEllipse
 62
7
  6
CONTINUOUS
 10
627.7106208368
 20
99.9305816533
 30
0.0
 11
4.9015102375
 21
7.3464449231
 31
0.0
 40
0.5625674239
 41
-4.3031846306
 42
-3.5287899793
  0
ELLIPSE
  5
794
100
AcDbEntity
  8
RUNDUNGEN
100
AcDbEllipse
 62
7
  6
CONTINUOUS
 10
606.5466896421
 20
107.6336226482
 30
0.0
 11
0.9674290915
 21
8.7783333594
 31
0.0
 40
0.5625674239
 41
-2.7543953279
 42
-1.9800006766
  0
ELLIPSE
  5
795
100
AcDbEntity
  8
KONSTRUKTIONSELEMENTE
100
AcDbEllipse
 62
7
  6
CONTINUOUS
 10
426.26918368
 20
125.8947239813
 30
0.0
 11
1.1930127781
 21
4.4523843021
 31
0.0
 40
0.1583844403
 41
-4.1503956982
 42
-3.2973220173
  0
ELLIPSE
  5
796
100
AcDbEntity
  8
KONSTRUKTIONSELEMENTE
100
AcDbEllipse
 62
7
  6
CONTINUOUS
 10
430.06918368
 20
119.3129309125
 30
0.0
 11
4.4523843021
 21
-1.1930127781
 31
0.0
 40
0.1583844403
 41
-2.9858632899
 42
-2.132789609
  0
ELLIPSE
  5
797
100
AcDbEntity
  8
BEZUGSACHSEN
100
AcDbEllipse
 62
7
  6
CONTINUOUS
 10
64.7312819846
 20
122.8625295147
 30
0.0
 11
-3.9132765364
 21
19.6142416064
 31
0.0
 40
0.0750717887
 41
-4.4172283799
 42
-4.2877699477
  0
ELLIPSE
  5
798
100
AcDbEntity
  8
BEZUGSACHSEN
100
AcDbEllipse
 62
7
  6
CONTINUOUS
 10
179.7633229544
 20
122.8625295147
 30
0.0
 11
3.9132765364
 21
19.6142416064
 31
0.0
 40
0.0750717887
 41
-1.9954153595
 42
-1.8659569273
  0
ELLIPSE
  5
799
100
AcDbEntity
  8
BEZUGSACHSEN
100
AcDbEllipse
 62
7
  6
CONTINUOUS
 10
122.2473024695
 20
96.4878090876
 30
0.0
 11
-0.0
 21
14.0439018262
 31
0.0
 40
0.8793852416
 41
-1.5472906324
 42
-1.3229641076
  0
ELLIPSE
  5
79A
100
AcDbEntity
  8
BEZUGSACHSEN
100
AcDbEllipse
 62
7
  6
CONTINUOUS
 10
122.2473024695
 20
96.4878090876
 30
0.0
 11
0.0
 21
14.0439018262
 31
0.0
 40
0.8793852416
 41
1.3229641076
 42
1.5472906324
  0
ELLIPSE
  5
79B
100
AcDbEntity
  8
BEZUGSACHSEN
100
AcDbEllipse
 62
7
  6
CONTINUOUS
 10
178.2473024695
 20
99.9305816533
 30
0.0
 11
4.9369173702
 21
7.8309983879
 31
0.0
 40
0.1011028969
 41
-4.5986027151
 42
-3.8242080638
  0
ELLIPSE
  5
79C
100
AcDbEntity
  8
BEZUGSACHSEN
100
AcDbEllipse
 62
7
  6
CONTINUOUS
 10
66.2473024695
 20
99.9305816533
 30
0.0
 11
-4.9369173702
 21
7.8309983879
 31
0.0
 40
0.1011028969
 41
-2.4589772434
 42
-1.684582592
  0
ELLIPSE
  5
79D
100
AcDbEntity
  8
RUNDUNGEN
100
AcDbEllipse
 62
7
  6
CONTINUOUS
 10
64.7312819846
 20
114.0244669007
 30
0.0
 11
-3.9242497345
 21
20.0436124613
 31
0.0
 40
0.0719918769
 41
-1.2831633006
 42
-1.1537048683
  0
ELLIPSE
  5
79E
100
AcDbEntity
  8
RUNDUNGEN
100
AcDbEllipse
 62
7
  6
CONTINUOUS
 10
179.7633229544
 20
114.0244669007
 30
0.0
 11
3.9242497345
 21
20.0436124613
 31
0.0
 40
0.0719918769
 41
1.1537048683
 42
1.2831633006
  0
ELLIPSE
  5
79F
100
AcDbEntity
  8
RUNDUNGEN
100
AcDbEllipse
 62
7
  6
CONTINUOUS
 10
122.2473024695
 20
113.8819753327
 30
0.0
 11
12.35
 21
-0.0
 31
0.0
 40
0.742227199
 41
0.0235056944
 42
0.2478322192
  0
ELLIPSE
  5
7A0
100
AcDbEntity
  8
RUNDUNGEN
100
AcDbEllipse
 62
7
  6
CONTINUOUS
 10
122.2473024695
 20
113.8819753327
 30
0.0
 11
12.35
 21
0.0
 31
0.0
 40
0.742227199
 41
2.8937604344
 42
3.1180869592
  0
ELLIPSE
  5
7A1
100
AcDbEntity
  8
0
100
AcDbEllipse
 62
7
  6
CONTINUOUS
 10
122.2473024695
 20
12.4836022058
 30
0.0
 11
-0.0
 21
102.8460175498
 31
0.0
 40
0.7778619134
 41
0.1549516761
 42
0.3680572752
  0
ELLIPSE
  5
7A2
100
AcDbEntity
  8
0
100
AcDbEllipse
 62
7
  6
CONTINUOUS
 10
122.2473024695
 20
12.4836022058
 30
0.0
 11
-0.0
 21
102.8460175498
 31
0.0
 40
0.7778619134
 41
-0.3680572752
 42
-0.1549516761
  0
ELLIPSE
  5
7A3
100
AcDbEntity
  8
RUNDUNGEN
100
AcDbEllipse
 62
7
  6
CONTINUOUS
 10
178.2473024695
 20
107.6336226482
 30
0.0
 11
4.9435732005
 21
8.7850820445
 31
0.0
 40
0.0852644755
 41
-2.7683710741
 42
-1.9939764228
  0
ELLIPSE
  5
7A4
100
AcDbEntity
  8
RUNDUNGEN
100
AcDbEllipse
 62
7
  6
CONTINUOUS
 10
66.2473024695
 20
107.6336226482
 30
0.0
 11
-4.9435732005
 21
8.7850820445
 31
0.0
 40
0.0852644755
 41
-4.2892088844
 42
-3.514814233
  0
ENDSEC
  0
SECTION
  2
OBJECTS
  0
DICTIONARY
  5
C
100
AcDbDictionary
280
0
281
1
  3
ACAD_GROUP
350
D
  3
ACAD_MLINESTYLE
350
17
  3
ACAD_LAYOUT
350
1A
  3
ACAD_PLOTSETTINGS
350
19
  3
ACAD_PLOTSTYLENAME
350
E
  0
DICTIONARY
  5
D
102
{ACAD_REACTORS
330
C
102
}
100
AcDbDictionary
280
0
281
1
  0
ACDBDICTIONARYWDFLT
  5
E
102
{ACAD_REACTORS
330
C
102
}
100
AcDbDictionary
281
1
  3
Normal
350
F
100
AcDbDictionaryWithDefault
340
F
  0
DICTIONARY
  5
17
102
{ACAD_REACTORS
330
C
102
}
100
AcDbDictionary
280
0
281
1
  3
Standard
350
18
  0
DICTIONARY
  5
19
102
{ACAD_REACTORS
330
C
102
}
100
AcDbDictionary
281
1
  0
DICTIONARY
  5
1A
102
{ACAD_REACTORS
330
C
102
}
100
AcDbDictionary
281
1
  3
Model
350
7A5
  3
Layout1
350
7A6
  0
ACDBPLACEHOLDER
  5
F
102
{ACAD_REACTORS
330
E
102
}
  0
MLINESTYLE
  5
18
102
{ACAD_REACTORS
330
17
102
}
100
AcDbMlineStyle
  2
STANDARD
 70
0
  3

 62
256
 51
90.0
 52
90.0
 71
2
 49
0.5
 62
256
  6
BYLAYER
 49
-0.5
 62
256
  6
BYLAYER
  0
LAYOUT
  5
7A5
102
{ACAD_REACTORS
330
1A
102
}
100
AcDbPlotSettings
  1

  2
none_device
  4
ISO_A1_(594.00_x_841.00_MM)
  6

 40
0.0
 41
0.0
 42
0.0
 43
0.0
 44
841.0
 45
594.0
 46
0.0
 47
0.0
 48
0.0
 49
0.0
140
0.0
141
0.0
142
1.0
143
1.0
 70
1024
 72
1
 73
0
 74
0
  7

 75
0
147
1.0
148
0.0
149
0.0
100
AcDbLayout
  1
Model
 70
0
 71
0
 10
0.0
 20
0.0
 11
841.0
 21
594.0
 12
0.0
 22
0.0
 32
0.0
 14
0.0
 24
0.0
 34
0.0
 15
0.0
 25
0.0
 35
0.0
146
0.0
 13
0.0
 23
0.0
 33
0.0
 16
1.0
 26
0.0
 36
0.0
 17
0.0
 27
1.0
 37
0.0
 76
0
330
209
345
0
346
0
  0
LAYOUT
  5
7A6
102
{ACAD_REACTORS
330
1A
102
}
100
AcDbPlotSettings
  1

  2
none_device
  4
ISO_A1_(594.00_x_841.00_MM)
  6

 40
0.0
 41
0.0
 42
0.0
 43
0.0
 44
841.0
 45
594.0
 46
0.0
 47
0.0
 48
0.0
 49
0.0
140
0.0
141
0.0
142
1.0
143
1.0
 70
0
 72
1
 73
0
 74
0
  7

 75
0
147
1.0
148
0.0
149
0.0
100
AcDbLayout
  1
Layout1
 70
0
 71
1
 10
0.0
 20
0.0
 11
841.0
 21
594.0
 12
0.0
 22
0.0
 32
0.0
 14
0.0
 24
0.0
 34
0.0
 15
0.0
 25
0.0
 35
0.0
146
0.0
 13
0.0
 23
0.0
 33
0.0
 16
1.0
 26
0.0
 36
0.0
 17
0.0
 27
1.0
 37
0.0
 76
0
330
20A
345
0
346
0
  0
ENDSEC
  0
EOF
