999
DXF file: VAK-2-20_7104095_M34479-P-6.dxf
999
Pro/ENGINEER 2010140 by Parametric Technology Corporation
  0
SECTION
  2
HEADER
  9
$ACADVER
  1
AC1015
  9
$DWGCODEPAGE
  3
ANSI_1252
  9
$EXTMAX
 10
841.0
 20
594.0
 30
0.0
  9
$EXTMIN
 10
0.0
 20
0.0
 30
0.0
  9
$LIMMIN
 10
0.0
 20
0.0
  9
$LIMMAX
 10
841.0
 20
594.0
  9
$VIEWCTR
 10
420.5
 20
297.0
  9
$VIEWSIZE
 40
594.0
  9
$CLAYER
  8
0
  9
$LTSCALE
 40
46.255
  9
$CELTYPE
  6
BYLAYER
  9
$DIMSCALE
 40
1.0
  9
$DIMASZ
 40
3.5
  9
$DIMEXO
 40
5.25625
  9
$DIMDLI
 40
31.958
  9
$DIMEXE
 40
15.138
  9
$DIMCEN
 40
7.569
  9
$DIMLFAC
 40
1.0
  9
$DIMBLK
  1
_FILLED
  9
$DIMTXT
 40
3.5
  9
$DIMTOL
 70
1
  9
$DIMLIM
 70
0
  9
$DIMTFAC
 40
1.0
  9
$DIMTP
 40
0.005
  9
$DIMTM
 40
0.005
  9
$PDMODE
 70
3
  9
$PDSIZE
 40
0.3125
  9
$HANDSEED
  5
826
  9
$TILEMODE
 70
1
  9
$MEASUREMENT
 70
1
  9
$INSUNITS
 70
4
  0
ENDSEC
  0
SECTION
  2
CLASSES
  0
CLASS
  1
ACDBDICTIONARYWDFLT
  2
AcDbDictionaryWithDefault
  3
AutoCAD 2000
 90
0
280
0
281
0
  0
CLASS
  1
ACDBPLACEHOLDER
  2
AcDbPlaceHolder
  3
AutoCAD 2000
 90
0
280
0
281
0
  0
CLASS
  1
LAYOUT
  2
AcDbLayout
  3
AutoCAD 2000
 90
0
280
0
281
0
  0
ENDSEC
  0
SECTION
  2
TABLES
  0
TABLE
  2
VPORT
  5
8
100
AcDbSymbolTable
 70
2
  0
VPORT
  5
1F4
100
AcDbSymbolTableRecord
100
AcDbViewportTableRecord
  2
*ACTIVE
 70
0
 10
0.0
 20
0.0
 11
1.0
 21
1.0
 12
420.5
 22
297.0
 13
0.0
 23
0.0
 14
1.0
 24
1.0
 15
0.0
 25
0.0
 16
0.0
 26
0.0
 36
1.0
 17
0.0
 27
0.0
 37
0.0
 40
594.0
 41
1.4158249158
 42
50.0
 43
0.0
 44
0.0
 50
0.0
 51
0.0
 71
0
 72
100
 73
1
 74
1
 75
0
 76
0
 77
0
 78
0
  0
ENDTAB
  0
TABLE
  2
LTYPE
  5
5
100
AcDbSymbolTable
 70
6
  0
LTYPE
  5
14
100
AcDbSymbolTableRecord
100
AcDbLinetypeTableRecord
  2
BYBLOCK
 70
0
  3

 72
65
 73
0
 40
0.0
  0
LTYPE
  5
15
100
AcDbSymbolTableRecord
100
AcDbLinetypeTableRecord
  2
BYLAYER
 70
0
  3

 72
65
 73
0
 40
0.0
  0
LTYPE
  5
16
100
AcDbSymbolTableRecord
100
AcDbLinetypeTableRecord
  2
CONTINUOUS
 70
64
  3
Solid line
 72
65
 73
0
 40
0.0
  0
LTYPE
  5
1F5
100
AcDbSymbolTableRecord
100
AcDbLinetypeTableRecord
  2
CENTER
 70
64
  3
____ _ ____ _ ____ _ ____ _ ____ _ ____ _ ____
 72
65
 73
4
 40
0.6
 49
0.375
 74
0
 49
-0.075
 74
0
 49
0.075
 74
0
 49
-0.075
 74
0
  0
LTYPE
  5
1F6
100
AcDbSymbolTableRecord
100
AcDbLinetypeTableRecord
  2
HIDDEN
 70
64
  3
- - - - - - - - - - - - - - - - - - - -
 72
65
 73
2
 40
0.2
 49
0.1
 74
0
 49
-0.1
 74
0
  0
LTYPE
  5
1F7
100
AcDbSymbolTableRecord
100
AcDbLinetypeTableRecord
  2
PHANTOM
 70
64
  3
_____ _ _ _____ _ _ _____ _ _ _____
 72
65
 73
6
 40
0.8
 49
0.45
 74
0
 49
-0.05
 74
0
 49
0.1
 74
0
 49
-0.05
 74
0
 49
0.1
 74
0
 49
-0.05
 74
0
  0
LTYPE
  5
1F8
100
AcDbSymbolTableRecord
100
AcDbLinetypeTableRecord
  2
DOT
 70
64
  3
. . . . . . . . . . . . . . . . . . . .
 72
65
 73
2
 40
0.2
 49
0.1
 74
0
 49
-0.1
 74
0
  0
LTYPE
  5
1F9
100
AcDbSymbolTableRecord
100
AcDbLinetypeTableRecord
  2
DASHED
 70
64
  3
- - - - - - - - - - - - - - - - - - - -
 72
65
 73
2
 40
0.2
 49
0.1
 74
0
 49
-0.1
 74
0
  0
ENDTAB
  0
TABLE
  2
LAYER
  5
2
100
AcDbSymbolTable
 70
36
  0
LAYER
  5
10
100
AcDbSymbolTableRecord
100
AcDbLayerTableRecord
  2
0
 70
0
 62
7
  6
CONTINUOUS
370
-3
390
F
  0
LAYER
  5
1FA
100
AcDbSymbolTableRecord
100
AcDbLayerTableRecord
  2
DEFAULT_1
 70
0
 62
7
  6
CENTER
370
-3
390
F
  0
LAYER
  5
1FB
100
AcDbSymbolTableRecord
100
AcDbLayerTableRecord
  2
DEFAULT_2
 70
0
 62
8
  6
HIDDEN
370
-3
390
F
  0
LAYER
  5
1FC
100
AcDbSymbolTableRecord
100
AcDbLayerTableRecord
  2
DEFAULT_3
 70
0
 62
7
  6
PHANTOM
370
-3
390
F
  0
LAYER
  5
1FD
100
AcDbSymbolTableRecord
100
AcDbLayerTableRecord
  2
BEZUGSACHSEN
 70
0
 62
7
  6
CONTINUOUS
370
-3
390
F
  0
LAYER
  5
1FE
100
AcDbSymbolTableRecord
100
AcDbLayerTableRecord
  2
BEZUGSEBENEN
 70
0
 62
7
  6
CONTINUOUS
370
-3
390
F
  0
LAYER
  5
1FF
100
AcDbSymbolTableRecord
100
AcDbLayerTableRecord
  2
BG_STARTBEZUEGE
 70
0
 62
7
  6
CONTINUOUS
370
-3
390
F
  0
LAYER
  5
200
100
AcDbSymbolTableRecord
100
AcDbLayerTableRecord
  2
FASEN
 70
0
 62
7
  6
CONTINUOUS
370
-3
390
F
  0
LAYER
  5
201
100
AcDbSymbolTableRecord
100
AcDbLayerTableRecord
  2
HILFEN
 70
0
 62
7
  6
CONTINUOUS
370
-3
390
F
  0
LAYER
  5
202
100
AcDbSymbolTableRecord
100
AcDbLayerTableRecord
  2
KONSTRUKTIONSELEMENTE
 70
0
 62
7
  6
CONTINUOUS
370
-3
390
F
  0
LAYER
  5
203
100
AcDbSymbolTableRecord
100
AcDbLayerTableRecord
  2
PLATZIERUNG
 70
0
 62
7
  6
CONTINUOUS
370
-3
390
F
  0
LAYER
  5
204
100
AcDbSymbolTableRecord
100
AcDbLayerTableRecord
  2
RUNDUNGEN
 70
0
 62
7
  6
CONTINUOUS
370
-3
390
F
  0
LAYER
  5
205
100
AcDbSymbolTableRecord
100
AcDbLayerTableRecord
  2
TEIL_STARTBEZUEGE
 70
0
 62
7
  6
CONTINUOUS
370
-3
390
F
  0
LAYER
  5
206
100
AcDbSymbolTableRecord
100
AcDbLayerTableRecord
  2
T_STARTBEZUEGE
 70
0
 62
7
  6
CONTINUOUS
370
-3
390
F
  0
ENDTAB
  0
TABLE
  2
STYLE
  5
3
100
AcDbSymbolTable
 70
1
  0
STYLE
  5
11
100
AcDbSymbolTableRecord
100
AcDbTextStyleTableRecord
  2
STANDARD
 70
0
 40
0.0
 41
0.7
 50
0.0
 71
0
 42
0.2
  3
txt
  4

  0
STYLE
  5
207
100
AcDbSymbolTableRecord
100
AcDbTextStyleTableRecord
  2
TEXTSTYLE_1
 70
0
 40
0.0
 41
0.8
 50
0.0
 71
0
 42
0.2
  3
gdt
  4

  0
ENDTAB
  0
TABLE
  2
VIEW
  5
6
100
AcDbSymbolTable
 70
0
  0
ENDTAB
  0
TABLE
  2
UCS
  5
7
100
AcDbSymbolTable
 70
0
  0
ENDTAB
  0
TABLE
  2
APPID
  5
9
100
AcDbSymbolTable
 70
1
  0
APPID
  5
208
100
AcDbSymbolTableRecord
100
AcDbRegAppTableRecord
  2
ACAD
 70
0
  0
ENDTAB
  0
TABLE
  2
BLOCK_RECORD
  5
1
100
AcDbSymbolTable
 70
0
  0
BLOCK_RECORD
  5
209
100
AcDbSymbolTableRecord
100
AcDbBlockTableRecord
  2
*Model_Space
  0
BLOCK_RECORD
  5
20A
100
AcDbSymbolTableRecord
100
AcDbBlockTableRecord
  2
*Paper_Space
  0
ENDTAB
  0
TABLE
  2
DIMSTYLE
  5
A
100
AcDbSymbolTable
 70
1
100
AcDbDimStyleTable
 71
0
  0
DIMSTYLE
105
20B
100
AcDbSymbolTableRecord
100
AcDbDimStyleTableRecord
  2
STANDARD
 70
0
  3

  4

 40
1.0
 41
3.5
 42
0.0625
 43
0.38
 44
0.18
 45
0.0
 46
0.0
 47
0.005
 48
0.005
140
3.5
141
0.09
142
0.0
143
25.4
144
1.0
145
0.0
146
1.0
147
0.09
 71
1.0
 72
0.0
 73
0
 74
0
 75
0
 76
0
 77
1
 78
8
170
0
171
2
172
0
173
0
174
0
175
0
176
0
177
0
178
5
270
2
271
3
272
3
273
2
274
2
275
0
280
0
281
0
282
0
283
1
284
8
285
0
286
0
287
3
288
0
340
11
  0
ENDTAB
  0
ENDSEC
  0
SECTION
  2
BLOCKS
  0
BLOCK
  5
20
100
AcDbEntity
  8
0
100
AcDbBlockBegin
  2
*Model_Space
 70
0
 10
0.0
 20
0.0
 30
0.0
  3
*Model_Space
  1

  0
ENDBLK
  5
21
100
AcDbEntity
  8
0
100
AcDbBlockEnd
  0
BLOCK
  5
1C
100
AcDbEntity
  8
0
100
AcDbBlockBegin
  2
*Paper_Space
 70
0
 10
0.0
 20
0.0
 30
0.0
  3
*Paper_Space
  1

  0
ENDBLK
  5
1D
100
AcDbEntity
  8
0
100
AcDbBlockEnd
  0
ENDSEC
  0
SECTION
  2
ENTITIES
  0
MTEXT
  5
20C
100
AcDbEntity
  8
0
100
AcDbMText
 62
5
  6
CONTINUOUS
  7
STANDARD
 71
1
 72
1
 10
781.3174892629
 20
277.6423804745
 30
0.0
 11
0.0
 21
1.0
 31
0.0
 44
0.9
  1
RUD VAK-2-20
 40
10.0
 41
97.1428571429
  0
MTEXT
  5
20D
100
AcDbEntity
  8
0
100
AcDbMText
 62
5
  6
CONTINUOUS
  7
STANDARD
 71
1
 72
1
 10
114.1165615882
 20
288.3180613851
 30
0.0
 11
0.0
 21
1.0
 31
0.0
 44
0.9
  1
RUD VAK-2-20
 40
10.0
 41
97.1428571429
  0
LINE
  5
20E
100
AcDbEntity
  8
0
100
AcDbLine
 62
7
  6
CONTINUOUS
 10
0.0
 20
0.0
 11
0.0
 21
594.0
  0
LINE
  5
20F
100
AcDbEntity
  8
0
100
AcDbLine
 62
7
  6
CONTINUOUS
 10
0.0
 20
0.0
 11
841.0
 21
0.0
  0
LINE
  5
210
100
AcDbEntity
  8
0
100
AcDbLine
 62
7
  6
CONTINUOUS
 10
0.0
 20
594.0
 11
841.0
 21
594.0
  0
LINE
  5
211
100
AcDbEntity
  8
0
100
AcDbLine
 62
7
  6
CONTINUOUS
 10
841.0
 20
0.0
 11
841.0
 21
594.0
  0
LINE
  5
212
100
AcDbEntity
  8
KONSTRUKTIONSELEMENTE
100
AcDbLine
 62
7
  6
CONTINUOUS
 10
295.9704524125
 20
35.7857976118
 11
298.4704524125
 21
31.4556705929
  0
LINE
  5
213
100
AcDbEntity
  8
KONSTRUKTIONSELEMENTE
100
AcDbLine
 62
7
  6
CONTINUOUS
 10
333.1114685639
 20
51.4556705929
 11
332.6114685639
 21
52.3216959966
  0
LINE
  5
214
100
AcDbEntity
  8
KONSTRUKTIONSELEMENTE
100
AcDbLine
 62
7
  6
CONTINUOUS
 10
331.1114685639
 20
54.919772208
 11
330.6114685639
 21
55.7857976118
  0
LINE
  5
215
100
AcDbEntity
  8
KONSTRUKTIONSELEMENTE
100
AcDbLine
 62
7
  6
CONTINUOUS
 10
409.8815686467
 20
95.7789085414
 11
409.3815686467
 21
96.6449339452
  0
LINE
  5
216
100
AcDbEntity
  8
KONSTRUKTIONSELEMENTE
100
AcDbLine
 62
7
  6
CONTINUOUS
 10
407.3815686467
 20
100.1090355603
 11
407.8815686467
 21
99.2430101565
  0
LINE
  5
217
100
AcDbEntity
  8
KONSTRUKTIONSELEMENTE
100
AcDbLine
 62
7
  6
CONTINUOUS
 10
427.6712708
 20
109.7046474641
 11
428.3364633969
 21
108.5525000895
  0
LINE
  5
218
100
AcDbEntity
  8
RUNDUNGEN
100
AcDbLine
 62
7
  6
CONTINUOUS
 10
610.6176124407
 20
122.2749759127
 11
610.0455445687
 21
122.2415549786
  0
LINE
  5
219
100
AcDbEntity
  8
RUNDUNGEN
100
AcDbLine
 62
7
  6
CONTINUOUS
 10
741.5457393003
 20
122.2473951024
 11
741.298112104
 21
122.2415246494
  0
LINE
  5
21A
100
AcDbEntity
  8
RUNDUNGEN
100
AcDbLine
 62
7
  6
CONTINUOUS
 10
610.0455445687
 20
122.2415549786
 11
609.8013684324
 21
122.2473951024
  0
LINE
  5
21B
100
AcDbEntity
  8
RUNDUNGEN
100
AcDbLine
 62
7
  6
CONTINUOUS
 10
741.298112104
 20
122.2415246494
 11
740.7218681386
 21
122.2758335095
  0
LINE
  5
21C
100
AcDbEntity
  8
BEZUGSACHSEN
100
AcDbLine
 62
7
  6
CONTINUOUS
 10
621.4265291195
 20
88.4592365369
 11
612.0296029116
 21
91.8794379701
  0
LINE
  5
21D
100
AcDbEntity
  8
BEZUGSACHSEN
100
AcDbLine
 62
7
  6
CONTINUOUS
 10
614.2971948024
 20
100.4982802957
 11
625.229538009
 21
96.5192327778
  0
LINE
  5
21E
100
AcDbEntity
  8
BEZUGSACHSEN
100
AcDbLine
 62
7
  6
CONTINUOUS
 10
458.783228324
 20
129.7857976118
 11
461.283228324
 21
125.4556705929
  0
LINE
  5
21F
100
AcDbEntity
  8
KONSTRUKTIONSELEMENTE
100
AcDbLine
 62
7
  6
CONTINUOUS
 10
457.5058235882
 20
139.498327516
 11
461.0058235882
 21
133.4361496895
  0
LINE
  5
220
100
AcDbEntity
  8
KONSTRUKTIONSELEMENTE
100
AcDbLine
 62
7
  6
CONTINUOUS
 10
457.9388362901
 20
139.748327516
 11
461.4388362901
 21
133.6861496895
  0
LINE
  5
221
100
AcDbEntity
  8
RUNDUNGEN
100
AcDbLine
 62
7
  6
CONTINUOUS
 10
740.7294952919
 20
122.2749759127
 11
740.140741618
 21
122.3798063
  0
LINE
  5
222
100
AcDbEntity
  8
BEZUGSACHSEN
100
AcDbLine
 62
7
  6
CONTINUOUS
 10
636.2036809669
 20
126.6704427524
 11
625.2713377603
 21
130.6494902704
  0
LWPOLYLINE
  5
223
100
AcDbEntity
  8
RUNDUNGEN
100
AcDbPolyline
 62
7
  6
CONTINUOUS
 90
8
 70
0
 10
740.153162806
 20
122.3768701355
 10
739.5756783579
 20
122.5521484561
 10
739.0431642168
 20
122.7862927562
 10
738.5540875194
 20
123.0729911903
 10
738.11929639
 20
123.3983971969
 10
737.7394813649
 20
123.7524086051
 10
737.4149796983
 20
124.1243751661
 10
737.1462426614
 20
124.5014219705
  0
LINE
  5
224
100
AcDbEntity
  8
BEZUGSACHSEN
100
AcDbLine
 62
7
  6
CONTINUOUS
 10
647.8262778402
 20
159.8240756314
 11
637.6786564416
 21
163.5175077691
  0
LINE
  5
225
100
AcDbEntity
  8
BEZUGSACHSEN
100
AcDbLine
 62
7
  6
CONTINUOUS
 10
631.5843347156
 20
166.3844096257
 11
630.9477082061
 21
166.6161227255
  0
LINE
  5
226
100
AcDbEntity
  8
BEZUGSACHSEN
100
AcDbLine
 62
7
  6
CONTINUOUS
 10
631.9328259843
 20
166.4588940709
 11
631.2971805279
 21
166.6902500966
  0
LINE
  5
227
100
AcDbEntity
  8
BEZUGSACHSEN
100
AcDbLine
 62
7
  6
CONTINUOUS
 10
632.4827368921
 20
166.8291235947
 11
631.8464663191
 21
167.0607071442
  0
LINE
  5
228
100
AcDbEntity
  8
BEZUGSACHSEN
100
AcDbLine
 62
7
  6
CONTINUOUS
 10
632.9595778839
 20
167.3098132627
 11
632.3214682582
 21
167.5420661727
  0
LINE
  5
229
100
AcDbEntity
  8
BEZUGSACHSEN
100
AcDbLine
 62
7
  6
CONTINUOUS
 10
631.7596346052
 20
167.9897011837
 11
631.3271397654
 21
168.1471164318
  0
LINE
  5
22A
100
AcDbEntity
  8
BEZUGSACHSEN
100
AcDbLine
 62
7
  6
CONTINUOUS
 10
632.0438470449
 20
168.4230448779
 11
631.3913697075
 21
168.6605272072
  0
LINE
  5
22B
100
AcDbEntity
  8
BEZUGSACHSEN
100
AcDbLine
 62
7
  6
CONTINUOUS
 10
630.6639944692
 20
169.3779660523
 11
629.725819758
 21
169.7194337218
  0
LINE
  5
22C
100
AcDbEntity
  8
BEZUGSACHSEN
100
AcDbLine
 62
7
  6
CONTINUOUS
 10
633.7061215468
 20
168.287858857
 11
633.0634010716
 21
168.5217899789
  0
LINE
  5
22D
100
AcDbEntity
  8
BEZUGSACHSEN
100
AcDbLine
 62
7
  6
CONTINUOUS
 10
634.3876767294
 20
169.3734222971
 11
633.7393277548
 21
169.6094020253
  0
LINE
  5
22E
100
AcDbEntity
  8
BEZUGSACHSEN
100
AcDbLine
 62
7
  6
CONTINUOUS
 10
634.8713723519
 20
170.4722735069
 11
634.2164197157
 21
170.7106567714
  0
LINE
  5
22F
100
AcDbEntity
  8
BEZUGSACHSEN
100
AcDbLine
 62
7
  6
CONTINUOUS
 10
631.0167103847
 20
172.0732794616
 11
630.6291727932
 21
172.2143316096
  0
LINE
  5
230
100
AcDbEntity
  8
BEZUGSACHSEN
100
AcDbLine
 62
7
  6
CONTINUOUS
 10
633.4553088571
 20
172.2120783025
 11
632.7760886638
 21
172.4592942353
  0
LINE
  5
231
100
AcDbEntity
  8
BEZUGSACHSEN
100
AcDbLine
 62
7
  6
CONTINUOUS
 10
636.6883461292
 20
175.2460182881
 11
636.0034274208
 21
175.4953083108
  0
LINE
  5
232
100
AcDbEntity
  8
BEZUGSACHSEN
100
AcDbLine
 62
7
  6
CONTINUOUS
 10
633.3137296071
 20
176.6471724229
 11
632.3666419907
 21
176.9918841246
  0
LINE
  5
233
100
AcDbEntity
  8
BEZUGSACHSEN
100
AcDbLine
 62
7
  6
CONTINUOUS
 10
637.7175433694
 20
178.3069665695
 11
637.0124662187
 21
178.5635936652
  0
LINE
  5
234
100
AcDbEntity
  8
BEZUGSACHSEN
100
AcDbLine
 62
7
  6
CONTINUOUS
 10
638.0941164073
 20
179.3415924878
 11
637.3824131835
 21
179.6006312769
  0
LWPOLYLINE
  5
235
100
AcDbEntity
  8
RUNDUNGEN
100
AcDbPolyline
 62
7
  6
CONTINUOUS
 90
7
 70
0
 10
739.5930753988
 20
122.5457679838
 10
739.0656710863
 20
122.7748935578
 10
738.5804530875
 20
123.0555997098
 10
738.1472512988
 20
123.3751892336
 10
737.7671783927
 20
123.7239889774
 10
737.4406915588
 20
124.0920306967
 10
737.1688559866
 20
124.4666106324
  0
LINE
  5
236
100
AcDbEntity
  8
BEZUGSACHSEN
100
AcDbLine
 62
7
  6
CONTINUOUS
 10
724.4727247635
 20
45.4066845409
 11
719.4023330927
 21
49.3885985092
  0
LINE
  5
237
100
AcDbEntity
  8
BEZUGSACHSEN
100
AcDbLine
 62
7
  6
CONTINUOUS
 10
642.6536031259
 20
110.2901592341
 11
642.4443471464
 21
110.4582195728
  0
LINE
  5
238
100
AcDbEntity
  8
KONSTRUKTIONSELEMENTE
100
AcDbLine
 62
7
  6
CONTINUOUS
 10
522.457728872
 20
176.998327516
 11
525.957728872
 21
170.9361496895
  0
LINE
  5
239
100
AcDbEntity
  8
KONSTRUKTIONSELEMENTE
100
AcDbLine
 62
7
  6
CONTINUOUS
 10
522.8907415739
 20
177.248327516
 11
526.3907415739
 21
171.1861496895
  0
LINE
  5
23A
100
AcDbEntity
  8
BEZUGSACHSEN
100
AcDbLine
 62
7
  6
CONTINUOUS
 10
639.3013752616
 20
182.3849339095
 11
638.5710609983
 21
182.650746563
  0
LINE
  5
23B
100
AcDbEntity
  8
BEZUGSACHSEN
100
AcDbLine
 62
7
  6
CONTINUOUS
 10
635.9057118882
 20
183.7927478493
 11
635.6363655982
 21
183.8907818815
  0
LINE
  5
23C
100
AcDbEntity
  8
BEZUGSACHSEN
100
AcDbLine
 62
7
  6
CONTINUOUS
 10
636.0103679297
 20
184.0802879601
 11
635.7245879386
 21
184.1843033704
  0
LINE
  5
23D
100
AcDbEntity
  8
BEZUGSACHSEN
100
AcDbLine
 62
7
  6
CONTINUOUS
 10
639.5537563241
 20
183.2209139846
 11
638.8176286187
 21
183.488842558
  0
LINE
  5
23E
100
AcDbEntity
  8
BEZUGSACHSEN
100
AcDbLine
 62
7
  6
CONTINUOUS
 10
636.4994370785
 20
185.2590809065
 11
636.1503077109
 21
185.3861536043
  0
LINE
  5
23F
100
AcDbEntity
  8
BEZUGSACHSEN
100
AcDbLine
 62
7
  6
CONTINUOUS
 10
636.66173499
 20
185.5799122301
 11
636.2861263597
 21
185.7166225913
  0
LINE
  5
240
100
AcDbEntity
  8
BEZUGSACHSEN
100
AcDbLine
 62
7
  6
CONTINUOUS
 10
637.0703950232
 20
186.3313530563
 11
636.5441331596
 21
186.5228967101
  0
LINE
  5
241
100
AcDbEntity
  8
BEZUGSACHSEN
100
AcDbLine
 62
7
  6
CONTINUOUS
 10
637.227273302
 20
186.5776026268
 11
636.6410723132
 21
186.790962338
  0
LINE
  5
242
100
AcDbEntity
  8
BEZUGSACHSEN
100
AcDbLine
 62
7
  6
CONTINUOUS
 10
637.5407238315
 20
186.5568336216
 11
636.7289935358
 21
186.8522792875
  0
LINE
  5
243
100
AcDbEntity
  8
BEZUGSACHSEN
100
AcDbLine
 62
7
  6
CONTINUOUS
 10
637.8388440423
 20
186.8315559996
 11
637.0423476039
 21
187.1214569949
  0
LINE
  5
244
100
AcDbEntity
  8
BEZUGSACHSEN
100
AcDbLine
 62
7
  6
CONTINUOUS
 10
637.0415582304
 20
187.4322410046
 11
636.9106690004
 21
187.4798807883
  0
LINE
  5
245
100
AcDbEntity
  8
BEZUGSACHSEN
100
AcDbLine
 62
7
  6
CONTINUOUS
 10
638.1708018665
 20
187.153370256
 11
637.3750988495
 21
187.4429824695
  0
LINE
  5
246
100
AcDbEntity
  8
BEZUGSACHSEN
100
AcDbLine
 62
7
  6
CONTINUOUS
 10
637.5494168394
 20
187.7666676839
 11
637.4210596255
 21
187.8133858891
  0
LINE
  5
247
100
AcDbEntity
  8
BEZUGSACHSEN
100
AcDbLine
 62
7
  6
CONTINUOUS
 10
638.9538035983
 20
187.4314195316
 11
638.1654299021
 21
187.7183640904
  0
LINE
  5
248
100
AcDbEntity
  8
BEZUGSACHSEN
100
AcDbLine
 62
7
  6
CONTINUOUS
 10
638.193247288
 20
187.7947917301
 11
637.8341701163
 21
187.9254851325
  0
LINE
  5
249
100
AcDbEntity
  8
BEZUGSACHSEN
100
AcDbLine
 62
7
  6
CONTINUOUS
 10
637.6176025957
 20
188.1263128258
 11
637.503019099
 21
188.1680178079
  0
LINE
  5
24A
100
AcDbEntity
  8
BEZUGSACHSEN
100
AcDbLine
 62
7
  6
CONTINUOUS
 10
637.8804219456
 20
188.0898046191
 11
637.6888691707
 21
188.1595241274
  0
LINE
  5
24B
100
AcDbEntity
  8
BEZUGSACHSEN
100
AcDbLine
 62
7
  6
CONTINUOUS
 10
640.9453646446
 20
187.0443264221
 11
640.1847535086
 21
187.3211662355
  0
LINE
  5
24C
100
AcDbEntity
  8
BEZUGSACHSEN
100
AcDbLine
 62
7
  6
CONTINUOUS
 10
637.7690440807
 20
188.3358316797
 11
637.5686915364
 21
188.4087540421
  0
LINE
  5
24D
100
AcDbEntity
  8
BEZUGSACHSEN
100
AcDbLine
 62
7
  6
CONTINUOUS
 10
638.3517645421
 20
188.2391422361
 11
638.1821446689
 21
188.3008788211
  0
LINE
  5
24E
100
AcDbEntity
  8
BEZUGSACHSEN
100
AcDbLine
 62
7
  6
CONTINUOUS
 10
639.5374316014
 20
188.079916356
 11
638.7490161239
 21
188.366876122
  0
LINE
  5
24F
100
AcDbEntity
  8
BEZUGSACHSEN
100
AcDbLine
 62
7
  6
CONTINUOUS
 10
641.2893871685
 20
187.8469517331
 11
640.5241873781
 21
188.1254616801
  0
LINE
  5
250
100
AcDbEntity
  8
BEZUGSACHSEN
100
AcDbLine
 62
7
  6
CONTINUOUS
 10
638.9339983065
 20
188.8837713941
 11
638.7667301749
 21
188.9446520152
  0
LINE
  5
251
100
AcDbEntity
  8
BEZUGSACHSEN
100
AcDbLine
 62
7
  6
CONTINUOUS
 10
638.7022786146
 20
188.9729907955
 11
638.442477033
 21
189.067550838
  0
LINE
  5
252
100
AcDbEntity
  8
BEZUGSACHSEN
100
AcDbLine
 62
7
  6
CONTINUOUS
 10
639.739936859
 20
188.6328902573
 11
638.9476435649
 21
188.9212614332
  0
LINE
  5
253
100
AcDbEntity
  8
BEZUGSACHSEN
100
AcDbLine
 62
7
  6
CONTINUOUS
 10
639.4357989153
 20
189.7992152447
 11
639.1636826223
 21
189.8982574756
  0
LINE
  5
254
100
AcDbEntity
  8
BEZUGSACHSEN
100
AcDbLine
 62
7
  6
CONTINUOUS
 10
640.6261871837
 20
189.8631148367
 11
639.8310985466
 21
190.1525034342
  0
LINE
  5
255
100
AcDbEntity
  8
BEZUGSACHSEN
100
AcDbLine
 62
7
  6
CONTINUOUS
 10
640.2553173521
 20
190.7416847909
 11
639.9919728415
 21
190.8375343541
  0
LINE
  5
256
100
AcDbEntity
  8
BEZUGSACHSEN
100
AcDbLine
 62
7
  6
CONTINUOUS
 10
641.2247211814
 20
190.5612214132
 11
640.4293387377
 21
190.8507169475
  0
LINE
  5
257
100
AcDbEntity
  8
BEZUGSACHSEN
100
AcDbLine
 62
7
  6
CONTINUOUS
 10
640.2383756439
 20
191.1772166684
 11
640.1313933278
 21
191.216155047
  0
LINE
  5
258
100
AcDbEntity
  8
BEZUGSACHSEN
100
AcDbLine
 62
7
  6
CONTINUOUS
 10
641.5868838535
 20
190.9908592922
 11
640.7912469382
 21
191.2804474466
  0
LINE
  5
259
100
AcDbEntity
  8
BEZUGSACHSEN
100
AcDbLine
 62
7
  6
CONTINUOUS
 10
640.5925024519
 20
191.5716631576
 11
640.4882823586
 21
191.6095961694
  0
LINE
  5
25A
100
AcDbEntity
  8
BEZUGSACHSEN
100
AcDbLine
 62
7
  6
CONTINUOUS
 10
640.9129988941
 20
191.5361042956
 11
640.6908105363
 21
191.6169742443
  0
LINE
  5
25B
100
AcDbEntity
  8
BEZUGSACHSEN
100
AcDbLine
 62
7
  6
CONTINUOUS
 10
642.0751276602
 20
191.5815621083
 11
641.2790277731
 21
191.8713187707
  0
LINE
  5
25C
100
AcDbEntity
  8
BEZUGSACHSEN
100
AcDbLine
 62
7
  6
CONTINUOUS
 10
641.0853079791
 20
192.1058329081
 11
640.9654075832
 21
192.1494730833
  0
LINE
  5
25D
100
AcDbEntity
  8
BEZUGSACHSEN
100
AcDbLine
 62
7
  6
CONTINUOUS
 10
641.4801366558
 20
192.2743658778
 11
641.3578006644
 21
192.3188925372
  0
LINE
  5
25E
100
AcDbEntity
  8
BEZUGSACHSEN
100
AcDbLine
 62
7
  6
CONTINUOUS
 10
641.3291116784
 20
192.3785900037
 11
641.2042147732
 21
192.4240487596
  0
LINE
  5
25F
100
AcDbEntity
  8
BEZUGSACHSEN
100
AcDbLine
 62
7
  6
CONTINUOUS
 10
642.4536955937
 20
192.0646375705
 11
641.6569682397
 21
192.3546226122
  0
LINE
  5
260
100
AcDbEntity
  8
BEZUGSACHSEN
100
AcDbLine
 62
7
  6
CONTINUOUS
 10
641.355491213
 20
192.6525303968
 11
641.2810858964
 21
192.6796117173
  0
LINE
  5
261
100
AcDbEntity
  8
BEZUGSACHSEN
100
AcDbLine
 62
7
  6
CONTINUOUS
 10
641.8579555262
 20
192.9185458063
 11
641.6824071592
 21
192.9824401865
  0
LINE
  5
262
100
AcDbEntity
  8
BEZUGSACHSEN
100
AcDbLine
 62
7
  6
CONTINUOUS
 10
642.8507970904
 20
192.6003751144
 11
642.0531069692
 21
192.8907105748
  0
LINE
  5
263
100
AcDbEntity
  8
BEZUGSACHSEN
100
AcDbLine
 62
7
  6
CONTINUOUS
 10
641.7024049657
 20
193.0496022235
 11
641.6304434775
 21
193.0757940632
  0
LINE
  5
264
100
AcDbEntity
  8
BEZUGSACHSEN
100
AcDbLine
 62
7
  6
CONTINUOUS
 10
643.0240518042
 20
192.8927914966
 11
642.2253054653
 21
193.1835113887
  0
LINE
  5
265
100
AcDbEntity
  8
BEZUGSACHSEN
100
AcDbLine
 62
7
  6
CONTINUOUS
 10
641.8909718085
 20
193.3141092085
 11
641.8569237477
 21
193.3265016891
  0
LINE
  5
266
100
AcDbEntity
  8
BEZUGSACHSEN
100
AcDbLine
 62
7
  6
CONTINUOUS
 10
642.9675412252
 20
193.2754828208
 11
642.1638511901
 21
193.5680020711
  0
LINE
  5
267
100
AcDbEntity
  8
BEZUGSACHSEN
100
AcDbLine
 62
7
  6
CONTINUOUS
 10
643.2127499257
 20
193.5855336714
 11
642.4087388294
 21
193.8781697784
  0
LINE
  5
268
100
AcDbEntity
  8
BEZUGSACHSEN
100
AcDbLine
 62
7
  6
CONTINUOUS
 10
643.345680788
 20
193.7746060854
 11
642.5412652883
 21
194.0673893832
  0
LINE
  5
269
100
AcDbEntity
  8
BEZUGSACHSEN
100
AcDbLine
 62
7
  6
CONTINUOUS
 10
643.3573016939
 20
193.8081820615
 11
642.5526623551
 21
194.1010468301
  0
LINE
  5
26A
100
AcDbEntity
  8
BEZUGSACHSEN
100
AcDbLine
 62
7
  6
CONTINUOUS
 10
658.6149156593
 20
189.4656144259
 11
648.4672942606
 21
193.1590465636
  0
LINE
  5
26B
100
AcDbEntity
  8
BEZUGSACHSEN
100
AcDbLine
 62
7
  6
CONTINUOUS
 10
642.1656355811
 20
193.2062061101
 11
642.2253054653
 21
193.1835113887
  0
LINE
  5
26C
100
AcDbEntity
  8
BEZUGSACHSEN
100
AcDbLine
 62
7
  6
CONTINUOUS
 10
636.6829902995
 20
186.8697537783
 11
636.6685999171
 21
186.8752367313
  0
LINE
  5
26D
100
AcDbEntity
  8
BEZUGSACHSEN
100
AcDbLine
 62
7
  6
CONTINUOUS
 10
642.4443471464
 20
110.4582195728
 11
642.0310708274
 21
110.8518987717
  0
LINE
  5
26E
100
AcDbEntity
  8
BEZUGSACHSEN
100
AcDbLine
 62
7
  6
CONTINUOUS
 10
652.5881872152
 20
204.4811069043
 11
662.7358086138
 21
200.7876747666
  0
LWPOLYLINE
  5
26F
100
AcDbEntity
  8
BEZUGSACHSEN
100
AcDbPolyline
 62
7
  6
CONTINUOUS
 90
10
 70
0
 10
642.0310708274
 20
110.8518987717
 10
641.6582889804
 20
111.3003812418
 10
641.3407982274
 20
111.7892212654
 10
641.0868135671
 20
112.3025044691
 10
640.8978853587
 20
112.8276502699
 10
640.7732929666
 20
113.348680255
 10
640.7076056939
 20
113.8577287305
 10
640.6947827012
 20
114.3470711801
 10
640.7275501262
 20
114.8065321319
 10
640.7703374448
 20
115.0921893873
  0
LINE
  5
270
100
AcDbEntity
  8
0
100
AcDbLine
 62
7
  6
CONTINUOUS
 10
545.6735538663
 20
252.1207341023
 11
545.6735538663
 21
412.1207341023
  0
LINE
  5
271
100
AcDbEntity
  8
RUNDUNGEN
100
AcDbLine
 62
7
  6
CONTINUOUS
 10
760.9818256401
 20
96.6527786071
 11
746.3693317136
 21
108.9141168714
  0
LINE
  5
272
100
AcDbEntity
  8
RUNDUNGEN
100
AcDbLine
 62
7
  6
CONTINUOUS
 10
578.8580373525
 20
68.7105907161
 11
580.1826577547
 21
62.4010827055
  0
LINE
  5
273
100
AcDbEntity
  8
0
100
AcDbLine
 62
7
  6
CONTINUOUS
 10
585.6735538663
 20
252.1207341023
 11
585.6735538663
 21
412.1207341023
  0
LINE
  5
274
100
AcDbEntity
  8
0
100
AcDbLine
 62
7
  6
CONTINUOUS
 10
698.7589205175
 20
204.4811069043
 11
708.8074924114
 21
192.9215472599
  0
LINE
  5
275
100
AcDbEntity
  8
RUNDUNGEN
100
AcDbLine
 62
7
  6
CONTINUOUS
 10
737.1688559866
 20
124.4666106324
 11
737.0164145022
 21
124.7153802535
  0
LINE
  5
276
100
AcDbEntity
  8
BEZUGSACHSEN
100
AcDbLine
 62
7
  6
CONTINUOUS
 10
729.9205786132
 20
88.4592365369
 11
728.6277599235
 21
90.8223978007
  0
LINE
  5
277
100
AcDbEntity
  8
BEZUGSACHSEN
100
AcDbLine
 62
7
  6
CONTINUOUS
 10
637.7782225462
 20
96.9757301918
 11
641.0906059151
 21
78.1902706122
  0
LINE
  5
278
100
AcDbEntity
  8
RUNDUNGEN
100
AcDbLine
 62
7
  6
CONTINUOUS
 10
612.0296029116
 20
91.8794379701
 11
612.5582571185
 21
94.5207323598
  0
LINE
  5
279
100
AcDbEntity
  8
KONSTRUKTIONSELEMENTE
100
AcDbLine
 62
7
  6
CONTINUOUS
 10
452.5694787866
 20
136.648327516
 11
457.5058235882
 21
139.498327516
  0
LINE
  5
27A
100
AcDbEntity
  8
KONSTRUKTIONSELEMENTE
100
AcDbLine
 62
7
  6
CONTINUOUS
 10
457.9388362901
 20
139.748327516
 11
462.8751810917
 21
142.598327516
  0
LINE
  5
27B
100
AcDbEntity
  8
KONSTRUKTIONSELEMENTE
100
AcDbLine
 62
7
  6
CONTINUOUS
 10
517.5213840705
 20
174.148327516
 11
522.457728872
 21
176.998327516
  0
LINE
  5
27C
100
AcDbEntity
  8
KONSTRUKTIONSELEMENTE
100
AcDbLine
 62
7
  6
CONTINUOUS
 10
522.8907415739
 20
177.248327516
 11
527.8270863755
 21
180.098327516
  0
LINE
  5
27D
100
AcDbEntity
  8
KONSTRUKTIONSELEMENTE
100
AcDbLine
 62
7
  6
CONTINUOUS
 10
495.2034096
 20
159.7041932209
 11
486.1967454006
 21
154.5041932209
  0
LINE
  5
27E
100
AcDbEntity
  8
KONSTRUKTIONSELEMENTE
100
AcDbLine
 62
7
  6
CONTINUOUS
 10
456.0694787866
 20
130.5861496895
 11
461.0058235882
 21
133.4361496895
  0
LINE
  5
27F
100
AcDbEntity
  8
KONSTRUKTIONSELEMENTE
100
AcDbLine
 62
7
  6
CONTINUOUS
 10
461.4388362901
 20
133.6861496895
 11
466.3751810917
 21
136.5361496895
  0
LINE
  5
280
100
AcDbEntity
  8
KONSTRUKTIONSELEMENTE
100
AcDbLine
 62
7
  6
CONTINUOUS
 10
521.0213840705
 20
168.0861496895
 11
525.957728872
 21
170.9361496895
  0
LINE
  5
281
100
AcDbEntity
  8
KONSTRUKTIONSELEMENTE
100
AcDbLine
 62
7
  6
CONTINUOUS
 10
526.3907415739
 20
171.1861496895
 11
531.3270863755
 21
174.0361496895
  0
LINE
  5
282
100
AcDbEntity
  8
KONSTRUKTIONSELEMENTE
100
AcDbLine
 62
7
  6
CONTINUOUS
 10
531.6453876457
 20
173.5848357175
 11
599.1953691409
 21
212.5848357175
  0
LINE
  5
283
100
AcDbEntity
  8
KONSTRUKTIONSELEMENTE
100
AcDbLine
 62
7
  6
CONTINUOUS
 10
498.4034096
 20
154.1616306367
 11
489.3967454006
 21
148.9616306367
  0
LINE
  5
284
100
AcDbEntity
  8
KONSTRUKTIONSELEMENTE
100
AcDbLine
 62
7
  6
CONTINUOUS
 10
468.046110306
 20
135.9420153944
 11
489.1329300566
 21
148.1164964538
  0
LINE
  5
285
100
AcDbEntity
  8
KONSTRUKTIONSELEMENTE
100
AcDbLine
 62
7
  6
CONTINUOUS
 10
499.2230248423
 20
153.9420153944
 11
520.3098445928
 21
166.1164964538
  0
LINE
  5
286
100
AcDbEntity
  8
BEZUGSACHSEN
100
AcDbLine
 62
7
  6
CONTINUOUS
 10
458.7822555123
 20
129.7852359587
 11
457.7235708181
 21
129.1740040655
  0
LINE
  5
287
100
AcDbEntity
  8
KONSTRUKTIONSELEMENTE
100
AcDbLine
 62
7
  6
CONTINUOUS
 10
295.9704524125
 20
35.7857976118
 11
457.7235708181
 21
129.1740040655
  0
LINE
  5
288
100
AcDbEntity
  8
KONSTRUKTIONSELEMENTE
100
AcDbLine
 62
7
  6
CONTINUOUS
 10
331.1114685639
 20
54.919772208
 11
296.4704524125
 21
34.919772208
  0
LINE
  5
289
100
AcDbEntity
  8
KONSTRUKTIONSELEMENTE
100
AcDbLine
 62
7
  6
CONTINUOUS
 10
407.8815686467
 20
99.2430101565
 11
418.0627157325
 21
105.1210981671
  0
LINE
  5
28A
100
AcDbEntity
  8
KONSTRUKTIONSELEMENTE
100
AcDbLine
 62
7
  6
CONTINUOUS
 10
332.6114685639
 20
52.3216959966
 11
297.9704524125
 21
32.3216959966
  0
LINE
  5
28B
100
AcDbEntity
  8
KONSTRUKTIONSELEMENTE
100
AcDbLine
 62
7
  6
CONTINUOUS
 10
409.3815686467
 20
96.6449339452
 11
419.5627157325
 21
102.5230219558
  0
LINE
  5
28C
100
AcDbEntity
  8
BEZUGSACHSEN
100
AcDbLine
 62
7
  6
CONTINUOUS
 10
461.2822555123
 20
125.4551089398
 11
460.2235708181
 21
124.8438770465
  0
LINE
  5
28D
100
AcDbEntity
  8
KONSTRUKTIONSELEMENTE
100
AcDbLine
 62
7
  6
CONTINUOUS
 10
298.4704524125
 20
31.4556705929
 11
460.2235708181
 21
124.8438770465
  0
LINE
  5
28E
100
AcDbEntity
  8
KONSTRUKTIONSELEMENTE
100
AcDbLine
 62
7
  6
CONTINUOUS
 10
471.246110306
 20
130.3994528102
 11
492.3329300566
 21
142.5739338696
  0
LINE
  5
28F
100
AcDbEntity
  8
KONSTRUKTIONSELEMENTE
100
AcDbLine
 62
7
  6
CONTINUOUS
 10
502.4230248423
 20
148.3994528102
 11
523.5098445928
 21
160.5739338696
  0
LINE
  5
290
100
AcDbEntity
  8
KONSTRUKTIONSELEMENTE
100
AcDbLine
 62
7
  6
CONTINUOUS
 10
493.1967454006
 20
142.3798375679
 11
502.2034096
 21
147.5798375679
  0
LINE
  5
291
100
AcDbEntity
  8
KONSTRUKTIONSELEMENTE
100
AcDbLine
 62
7
  6
CONTINUOUS
 10
535.6453876457
 20
166.6566324872
 11
603.1953691409
 21
205.6566324872
  0
LINE
  5
292
100
AcDbEntity
  8
KONSTRUKTIONSELEMENTE
100
AcDbLine
 62
7
  6
CONTINUOUS
 10
535.8770863755
 20
166.1553185151
 11
525.5713840705
 21
160.2053185151
  0
LINE
  5
293
100
AcDbEntity
  8
KONSTRUKTIONSELEMENTE
100
AcDbLine
 62
7
  6
CONTINUOUS
 10
470.9251810917
 20
128.6553185151
 11
460.6194787866
 21
122.7053185151
  0
LINE
  5
294
100
AcDbEntity
  8
RUNDUNGEN
100
AcDbLine
 62
7
  6
CONTINUOUS
 10
737.0164146688
 20
124.71538035
 11
737.0097912096
 21
124.7269840386
  0
LINE
  5
295
100
AcDbEntity
  8
RUNDUNGEN
100
AcDbLine
 62
7
  6
CONTINUOUS
 10
737.0133321327
 20
124.7207802499
 11
736.9432821386
 21
124.8481842743
  0
LINE
  5
296
100
AcDbEntity
  8
RUNDUNGEN
100
AcDbLine
 62
7
  6
CONTINUOUS
 10
737.0097741455
 20
124.7269743406
 11
736.9268403667
 21
124.879403771
  0
LINE
  5
297
100
AcDbEntity
  8
RUNDUNGEN
100
AcDbLine
 62
7
  6
CONTINUOUS
 10
736.9432821386
 20
124.8481842743
 11
736.8487894432
 21
125.0421488075
  0
LINE
  5
298
100
AcDbEntity
  8
RUNDUNGEN
100
AcDbLine
 62
7
  6
CONTINUOUS
 10
736.9268403667
 20
124.879403771
 11
736.7933831251
 21
125.1576772709
  0
LINE
  5
299
100
AcDbEntity
  8
BEZUGSACHSEN
100
AcDbLine
 62
7
  6
CONTINUOUS
 10
714.8538636581
 20
127.2828643509
 11
715.1434267658
 21
126.6704427524
  0
LINE
  5
29A
100
AcDbEntity
  8
BEZUGSACHSEN
100
AcDbLine
 62
7
  6
CONTINUOUS
 10
727.7307990473
 20
92.6814883483
 11
726.1175697237
 21
96.5192327778
  0
LINE
  5
29B
100
AcDbEntity
  8
BEZUGSACHSEN
100
AcDbLine
 62
7
  6
CONTINUOUS
 10
717.792035309
 20
51.6108297922
 11
710.933228801
 21
70.4552457973
  0
LINE
  5
29C
100
AcDbEntity
  8
BEZUGSACHSEN
100
AcDbLine
 62
7
  6
CONTINUOUS
 10
710.9622790077
 20
93.7658662117
 11
707.0195121871
 21
104.5985290214
  0
LINE
  5
29D
100
AcDbEntity
  8
BEZUGSACHSEN
100
AcDbLine
 62
7
  6
CONTINUOUS
 10
688.9531306251
 20
174.7021352154
 11
710.5916831333
 21
115.2507008096
  0
LINE
  5
29E
100
AcDbEntity
  8
BEZUGSACHSEN
100
AcDbLine
 62
7
  6
CONTINUOUS
 10
663.115838
 20
179.0158058126
 11
662.7358086138
 21
200.7876747666
  0
LINE
  5
29F
100
AcDbEntity
  8
BEZUGSACHSEN
100
AcDbLine
 62
7
  6
CONTINUOUS
 10
640.7703376344
 20
115.0921893541
 11
640.7714340697
 21
115.0982344975
  0
LWPOLYLINE
  5
2A0
100
AcDbEntity
  8
BEZUGSACHSEN
100
AcDbPolyline
 62
7
  6
CONTINUOUS
 90
3
 70
0
 10
640.7714340697
 20
115.0982344975
 10
640.8026359718
 20
115.2546397816
 10
640.8825322276
 20
115.5698150234
  0
LINE
  5
2A1
100
AcDbEntity
  8
0
100
AcDbLine
 62
7
  6
CONTINUOUS
 10
625.4431765661
 20
131.3047600106
 11
625.2713377603
 21
130.6494902704
  0
LINE
  5
2A2
100
AcDbEntity
  8
RUNDUNGEN
100
AcDbLine
 62
7
  6
CONTINUOUS
 10
613.0661455929
 20
96.5214336806
 11
614.2971948024
 21
100.4982802957
  0
LINE
  5
2A3
100
AcDbEntity
  8
RUNDUNGEN
100
AcDbLine
 62
7
  6
CONTINUOUS
 10
585.9117069261
 20
90.2924141102
 11
579.0529004181
 21
71.4479981051
  0
LINE
  5
2A4
100
AcDbEntity
  8
RUNDUNGEN
100
AcDbLine
 62
7
  6
CONTINUOUS
 10
600.917738652
 20
108.1307122314
 11
604.8605054726
 21
118.9633750411
  0
LINE
  5
2A5
100
AcDbEntity
  8
RUNDUNGEN
100
AcDbLine
 62
7
  6
CONTINUOUS
 10
614.4440291199
 20
124.8272590597
 11
619.7468918662
 21
139.3967547138
  0
LINE
  5
2A6
100
AcDbEntity
  8
BEZUGSACHSEN
100
AcDbLine
 62
7
  6
CONTINUOUS
 10
619.7468918662
 20
139.3967547138
 11
630.7194306049
 21
169.5435571324
  0
LINE
  5
2A7
100
AcDbEntity
  8
BEZUGSACHSEN
100
AcDbLine
 62
7
  6
CONTINUOUS
 10
633.0238726638
 20
175.8749596537
 11
633.4004370681
 21
176.9095618516
  0
LINE
  5
2A8
100
AcDbEntity
  8
BEZUGSACHSEN
100
AcDbLine
 62
7
  6
CONTINUOUS
 10
635.3261250405
 20
182.2003460726
 11
636.0825837256
 21
184.2786992286
  0
LINE
  5
2A9
100
AcDbEntity
  8
0
100
AcDbLine
 62
7
  6
CONTINUOUS
 10
614.2971948024
 20
100.4982802957
 11
625.2713377603
 21
130.6494902704
  0
LINE
  5
2AA
100
AcDbEntity
  8
KONSTRUKTIONSELEMENTE
100
AcDbLine
 62
7
  6
CONTINUOUS
 10
496.3967454006
 20
136.8372749837
 11
505.4034096
 21
142.0372749837
  0
LINE
  5
2AB
100
AcDbEntity
  8
KONSTRUKTIONSELEMENTE
100
AcDbLine
 62
7
  6
CONTINUOUS
 10
539.3770863755
 20
160.0931406886
 11
529.0713840705
 21
154.1431406886
  0
LINE
  5
2AC
100
AcDbEntity
  8
KONSTRUKTIONSELEMENTE
100
AcDbLine
 62
7
  6
CONTINUOUS
 10
474.4251810917
 20
122.5931406886
 11
464.1194787866
 21
116.6431406886
  0
LINE
  5
2AD
100
AcDbEntity
  8
BEZUGSACHSEN
100
AcDbLine
 62
7
  6
CONTINUOUS
 10
715.1434267658
 20
126.6704427524
 11
726.1175697237
 21
96.5192327778
  0
LINE
  5
2AE
100
AcDbEntity
  8
BEZUGSACHSEN
100
AcDbLine
 62
7
  6
CONTINUOUS
 10
729.9205786132
 20
88.4592365369
 11
730.8117595752
 21
86.0107369671
  0
LINE
  5
2AF
100
AcDbEntity
  8
RUNDUNGEN
100
AcDbLine
 62
7
  6
CONTINUOUS
 10
739.3175048211
 20
91.8794379701
 11
740.2086857831
 21
89.4309384003
  0
LINE
  5
2B0
100
AcDbEntity
  8
0
100
AcDbLine
 62
7
  6
CONTINUOUS
 10
726.0757699724
 20
130.6494902704
 11
737.0499129303
 21
100.4982802957
  0
LINE
  5
2B1
100
AcDbEntity
  8
BEZUGSACHSEN
100
AcDbLine
 62
7
  6
CONTINUOUS
 10
715.4413958445
 20
183.7927478493
 11
716.7585614687
 21
180.173865039
  0
LINE
  5
2B2
100
AcDbEntity
  8
BEZUGSACHSEN
100
AcDbLine
 62
7
  6
CONTINUOUS
 10
717.9527164281
 20
176.8929512527
 11
718.2910750532
 21
175.9633185705
  0
LINE
  5
2B3
100
AcDbEntity
  8
BEZUGSACHSEN
100
AcDbLine
 62
7
  6
CONTINUOUS
 10
719.1015746223
 20
173.736489306
 11
719.7022435776
 21
172.0861649146
  0
LINE
  5
2B4
100
AcDbEntity
  8
BEZUGSACHSEN
100
AcDbLine
 62
7
  6
CONTINUOUS
 10
720.0236299671
 20
171.2031630668
 11
720.8999287949
 21
168.7955518247
  0
LINE
  5
2B5
100
AcDbEntity
  8
BEZUGSACHSEN
100
AcDbLine
 62
7
  6
CONTINUOUS
 10
721.2212296853
 20
167.9127848834
 11
731.6002158664
 21
139.3967547138
  0
LINE
  5
2B6
100
AcDbEntity
  8
RUNDUNGEN
100
AcDbLine
 62
7
  6
CONTINUOUS
 10
731.6002158855
 20
139.3967546614
 11
736.9030765153
 21
124.8272648227
  0
LINE
  5
2B7
100
AcDbEntity
  8
RUNDUNGEN
100
AcDbLine
 62
7
  6
CONTINUOUS
 10
738.2809621398
 20
96.5214336806
 11
737.0499129303
 21
100.4982802957
  0
LWPOLYLINE
  5
2B8
100
AcDbEntity
  8
BEZUGSACHSEN
100
AcDbPolyline
 62
7
  6
CONTINUOUS
 90
3
 70
0
 10
710.4581083513
 20
115.592091206
 10
710.536907538
 20
115.289057339
 10
710.5744155434
 20
115.105278716
  0
LINE
  5
2B9
100
AcDbEntity
  8
BEZUGSACHSEN
100
AcDbLine
 62
7
  6
CONTINUOUS
 10
710.4907376139
 20
115.4666105756
 11
710.5444717609
 21
115.2546397816
  0
LINE
  5
2BA
100
AcDbEntity
  8
BEZUGSACHSEN
100
AcDbLine
 62
7
  6
CONTINUOUS
 10
710.5444717609
 20
115.2546397816
 11
710.5756736629
 21
115.0982344975
  0
LWPOLYLINE
  5
2BB
100
AcDbEntity
  8
BEZUGSACHSEN
100
AcDbPolyline
 62
7
  6
CONTINUOUS
 90
7
 70
0
 10
710.6144820246
 20
114.847705902
 10
710.6511883549
 20
114.3883333142
 10
710.6423858246
 20
113.8972499874
 10
710.580224728
 20
113.384368908
 10
710.458136873
 20
112.8578580242
 10
710.2700924518
 20
112.3256297256
 10
710.0154181813
 20
111.8052185874
  0
LINE
  5
2BC
100
AcDbEntity
  8
BEZUGSACHSEN
100
AcDbLine
 62
7
  6
CONTINUOUS
 10
688.2312697326
 20
179.0158058126
 11
688.6112991188
 21
200.7876747666
  0
LINE
  5
2BD
100
AcDbEntity
  8
RUNDUNGEN
100
AcDbLine
 62
7
  6
CONTINUOUS
 10
612.0296029116
 20
91.8794379701
 11
611.1384219496
 21
89.4309384003
  0
LINE
  5
2BE
100
AcDbEntity
  8
BEZUGSACHSEN
100
AcDbLine
 62
7
  6
CONTINUOUS
 10
621.4265291195
 20
88.4592365369
 11
620.5353481574
 21
86.0107369671
  0
LINE
  5
2BF
100
AcDbEntity
  8
BEZUGSACHSEN
100
AcDbLine
 62
7
  6
CONTINUOUS
 10
625.229538009
 20
96.5192327778
 11
636.2036809669
 21
126.6704427524
  0
LINE
  5
2C0
100
AcDbEntity
  8
BEZUGSACHSEN
100
AcDbLine
 62
7
  6
CONTINUOUS
 10
640.7554225019
 20
115.2506950466
 11
662.3939771076
 21
174.7021352154
  0
LINE
  5
2C1
100
AcDbEntity
  8
BEZUGSACHSEN
100
AcDbLine
 62
7
  6
CONTINUOUS
 10
623.6163086853
 20
92.6814883483
 11
625.229538009
 21
96.5192327778
  0
LINE
  5
2C2
100
AcDbEntity
  8
BEZUGSACHSEN
100
AcDbLine
 62
7
  6
CONTINUOUS
 10
636.4932440746
 20
127.2828643509
 11
636.2036809669
 21
126.6704427524
  0
LWPOLYLINE
  5
2C3
100
AcDbEntity
  8
RUNDUNGEN
100
AcDbPolyline
 62
7
  6
CONTINUOUS
 90
3
 70
0
 10
614.544260114
 20
125.1364532881
 10
614.4038255941
 20
124.8481842743
 10
614.3337756
 20
124.7207802499
  0
LINE
  5
2C4
100
AcDbEntity
  8
RUNDUNGEN
100
AcDbLine
 62
7
  6
CONTINUOUS
 10
614.3306930639
 20
124.71538035
 11
614.3337756
 21
124.7207802499
  0
LWPOLYLINE
  5
2C5
100
AcDbEntity
  8
RUNDUNGEN
100
AcDbPolyline
 62
7
  6
CONTINUOUS
 90
10
 70
0
 10
614.3306932305
 20
124.7153802535
 10
614.1782517461
 20
124.4666106324
 10
613.9064161739
 20
124.0920306967
 10
613.57992934
 20
123.7239889774
 10
613.1998564339
 20
123.3751892336
 10
612.7666546452
 20
123.0555997098
 10
612.2814366464
 20
122.7748935578
 10
611.7540323339
 20
122.5457679838
 10
611.1939449267
 20
122.3768701355
 10
610.6176124407
 20
122.2749759127
  0
LINE
  5
2C6
100
AcDbEntity
  8
0
100
AcDbLine
 62
7
  6
CONTINUOUS
 10
652.5881872152
 20
204.4811069043
 11
643.3305615999
 21
193.8314268705
  0
LINE
  5
2C7
100
AcDbEntity
  8
BEZUGSACHSEN
100
AcDbLine
 62
7
  6
CONTINUOUS
 10
698.7589205175
 20
204.4811069043
 11
688.6112991188
 21
200.7876747666
  0
LINE
  5
2C8
100
AcDbEntity
  8
BEZUGSACHSEN
100
AcDbLine
 62
7
  6
CONTINUOUS
 10
692.7321920734
 20
189.4656144259
 11
702.879813472
 21
193.1590465636
  0
LINE
  5
2C9
100
AcDbEntity
  8
BEZUGSACHSEN
100
AcDbLine
 62
7
  6
CONTINUOUS
 10
708.025468979
 20
193.8211623102
 11
708.7944453775
 21
194.1010468301
  0
LINE
  5
2CA
100
AcDbEntity
  8
BEZUGSACHSEN
100
AcDbLine
 62
7
  6
CONTINUOUS
 10
708.0838472673
 20
193.7278229294
 11
708.8887938988
 21
194.0207995435
  0
LINE
  5
2CB
100
AcDbEntity
  8
BEZUGSACHSEN
100
AcDbLine
 62
7
  6
CONTINUOUS
 10
708.3052971346
 20
193.4847358506
 11
709.1103723007
 21
193.7777592474
  0
LINE
  5
2CC
100
AcDbEntity
  8
BEZUGSACHSEN
100
AcDbLine
 62
7
  6
CONTINUOUS
 10
708.763379184
 20
192.9662819636
 11
709.5685486336
 21
193.2593396768
  0
LINE
  5
2CD
100
AcDbEntity
  8
BEZUGSACHSEN
100
AcDbLine
 62
7
  6
CONTINUOUS
 10
708.3684798674
 20
192.7617597614
 11
709.1663546304
 21
193.0521624258
  0
LINE
  5
2CE
100
AcDbEntity
  8
BEZUGSACHSEN
100
AcDbLine
 62
7
  6
CONTINUOUS
 10
708.4671657228
 20
192.494329881
 11
709.2633358024
 21
192.7841120914
  0
LINE
  5
2CF
100
AcDbEntity
  8
BEZUGSACHSEN
100
AcDbLine
 62
7
  6
CONTINUOUS
 10
708.6353423542
 20
192.2108978757
 11
709.4304836478
 21
192.5003056387
  0
LINE
  5
2D0
100
AcDbEntity
  8
BEZUGSACHSEN
100
AcDbLine
 62
7
  6
CONTINUOUS
 10
709.7281146598
 20
192.6038804508
 11
710.0409753842
 21
192.7177524419
  0
LINE
  5
2D1
100
AcDbEntity
  8
BEZUGSACHSEN
100
AcDbLine
 62
7
  6
CONTINUOUS
 10
709.762898404
 20
192.5692838107
 11
710.0660218362
 21
192.6796117173
  0
LINE
  5
2D2
100
AcDbEntity
  8
BEZUGSACHSEN
100
AcDbLine
 62
7
  6
CONTINUOUS
 10
709.9225366975
 20
192.400553991
 11
710.1375845436
 21
192.4788250059
  0
LINE
  5
2D3
100
AcDbEntity
  8
BEZUGSACHSEN
100
AcDbLine
 62
7
  6
CONTINUOUS
 10
709.8870842743
 20
192.2164925431
 11
709.9456513654
 21
192.2378092209
  0
LINE
  5
2D4
100
AcDbEntity
  8
BEZUGSACHSEN
100
AcDbLine
 62
7
  6
CONTINUOUS
 10
708.9090262843
 20
191.8234557182
 11
709.703288447
 21
192.1125435037
  0
LINE
  5
2D5
100
AcDbEntity
  8
BEZUGSACHSEN
100
AcDbLine
 62
7
  6
CONTINUOUS
 10
710.1685665038
 20
192.128607132
 11
710.3764851759
 21
192.2042833398
  0
LINE
  5
2D6
100
AcDbEntity
  8
BEZUGSACHSEN
100
AcDbLine
 62
7
  6
CONTINUOUS
 10
709.9677916931
 20
191.9947507323
 11
710.145134548
 21
192.0592982527
  0
LINE
  5
2D7
100
AcDbEntity
  8
BEZUGSACHSEN
100
AcDbLine
 62
7
  6
CONTINUOUS
 10
710.229612949
 20
191.5954013787
 11
710.4865883997
 21
191.6889327937
  0
LINE
  5
2D8
100
AcDbEntity
  8
BEZUGSACHSEN
100
AcDbLine
 62
7
  6
CONTINUOUS
 10
709.4163547897
 20
191.168820896
 11
710.2096616017
 21
191.4575609622
  0
LINE
  5
2D9
100
AcDbEntity
  8
BEZUGSACHSEN
100
AcDbLine
 62
7
  6
CONTINUOUS
 10
710.3162073421
 20
191.4782589566
 11
710.8514662307
 21
191.6730772597
  0
LINE
  5
2DA
100
AcDbEntity
  8
BEZUGSACHSEN
100
AcDbLine
 62
7
  6
CONTINUOUS
 10
709.1484183925
 20
190.7954994672
 11
709.934398249
 21
191.0815727397
  0
LINE
  5
2DB
100
AcDbEntity
  8
BEZUGSACHSEN
100
AcDbLine
 62
7
  6
CONTINUOUS
 10
709.1252864413
 20
190.6835320271
 11
709.9097940862
 21
190.9690694584
  0
LINE
  5
2DC
100
AcDbEntity
  8
BEZUGSACHSEN
100
AcDbLine
 62
7
  6
CONTINUOUS
 10
710.3718486185
 20
190.7447146815
 11
710.6977263157
 21
190.8633244633
  0
LINE
  5
2DD
100
AcDbEntity
  8
BEZUGSACHSEN
100
AcDbLine
 62
7
  6
CONTINUOUS
 10
711.0946300978
 20
190.5274252874
 11
711.4701451888
 21
190.6641016031
  0
LINE
  5
2DE
100
AcDbEntity
  8
BEZUGSACHSEN
100
AcDbLine
 62
7
  6
CONTINUOUS
 10
710.5431494558
 20
190.1827332231
 11
710.7230428092
 21
190.2482090491
  0
LINE
  5
2DF
100
AcDbEntity
  8
BEZUGSACHSEN
100
AcDbLine
 62
7
  6
CONTINUOUS
 10
709.5216830151
 20
189.5252814017
 11
710.2984578099
 21
189.8080043058
  0
LINE
  5
2E0
100
AcDbEntity
  8
BEZUGSACHSEN
100
AcDbLine
 62
7
  6
CONTINUOUS
 10
711.0492662909
 20
190.0769864044
 11
711.2951525699
 21
190.166481691
  0
LINE
  5
2E1
100
AcDbEntity
  8
BEZUGSACHSEN
100
AcDbLine
 62
7
  6
CONTINUOUS
 10
711.4288700718
 20
190.1434976986
 11
711.6556382059
 21
190.2260345495
  0
LINE
  5
2E2
100
AcDbEntity
  8
BEZUGSACHSEN
100
AcDbLine
 62
7
  6
CONTINUOUS
 10
710.6724562026
 20
189.7806354602
 11
711.0502520246
 21
189.9181418941
  0
LINE
  5
2E3
100
AcDbEntity
  8
BEZUGSACHSEN
100
AcDbLine
 62
7
  6
CONTINUOUS
 10
710.8903678214
 20
189.3565143834
 11
711.3961756299
 21
189.54061337
  0
LINE
  5
2E4
100
AcDbEntity
  8
BEZUGSACHSEN
100
AcDbLine
 62
7
  6
CONTINUOUS
 10
712.1365162668
 20
189.3443605288
 11
712.3636280292
 21
189.4270224502
  0
LINE
  5
2E5
100
AcDbEntity
  8
BEZUGSACHSEN
100
AcDbLine
 62
7
  6
CONTINUOUS
 10
711.2734726471
 20
188.9382468071
 11
711.7608549727
 21
189.1156394663
  0
LINE
  5
2E6
100
AcDbEntity
  8
BEZUGSACHSEN
100
AcDbLine
 62
7
  6
CONTINUOUS
 10
711.5785797704
 20
188.6051305676
 11
712.0285812285
 21
188.7689177038
  0
LINE
  5
2E7
100
AcDbEntity
  8
RUNDUNGEN
100
AcDbLine
 62
7
  6
CONTINUOUS
 10
750.4293690807
 20
108.1307122314
 11
746.4866022601
 21
118.9633750411
  0
LINE
  5
2E8
100
AcDbEntity
  8
RUNDUNGEN
100
AcDbLine
 62
7
  6
CONTINUOUS
 10
772.2942073146
 20
71.4479981051
 11
765.4354008066
 21
90.2924141102
  0
LINE
  5
2E9
100
AcDbEntity
  8
0
100
AcDbLine
 62
7
  6
CONTINUOUS
 10
725.9039311666
 20
131.3047600106
 11
726.0757699724
 21
130.6494902704
  0
LINE
  5
2EA
100
AcDbEntity
  8
RUNDUNGEN
100
AcDbLine
 62
7
  6
CONTINUOUS
 10
739.3175048211
 20
91.8794379701
 11
738.7888506142
 21
94.5207323598
  0
LINE
  5
2EB
100
AcDbEntity
  8
BEZUGSACHSEN
100
AcDbLine
 62
7
  6
CONTINUOUS
 10
710.5770800973
 20
115.0905245251
 11
710.5743962378
 21
115.1052751765
  0
LWPOLYLINE
  5
2EC
100
AcDbEntity
  8
BEZUGSACHSEN
100
AcDbPolyline
 62
7
  6
CONTINUOUS
 90
8
 70
0
 10
710.5770800973
 20
115.0905245251
 10
710.6195576064
 20
114.8065321319
 10
710.6523250315
 20
114.3470711801
 10
710.6395020388
 20
113.8577287305
 10
710.5738147661
 20
113.348680255
 10
710.449222374
 20
112.8276502699
 10
710.2602941656
 20
112.3025044691
 10
710.0063095053
 20
111.7892212654
  0
LINE
  5
2ED
100
AcDbEntity
  8
BEZUGSACHSEN
100
AcDbLine
 62
7
  6
CONTINUOUS
 10
640.384828725
 20
93.7658662117
 11
644.3275955456
 21
104.5985290214
  0
LINE
  5
2EE
100
AcDbEntity
  8
BEZUGSACHSEN
100
AcDbLine
 62
7
  6
CONTINUOUS
 10
640.4138789317
 20
70.4552457973
 11
633.5550724237
 21
51.6108297922
  0
LINE
  5
2EF
100
AcDbEntity
  8
BEZUGSACHSEN
100
AcDbLine
 62
7
  6
CONTINUOUS
 10
621.4265291195
 20
88.4592365369
 11
622.7193478091
 21
90.8223978007
  0
LINE
  5
2F0
100
AcDbEntity
  8
RUNDUNGEN
100
AcDbLine
 62
7
  6
CONTINUOUS
 10
604.9777756259
 20
108.9141165414
 11
590.3652820926
 21
96.6527786071
  0
LINE
  5
2F1
100
AcDbEntity
  8
BEZUGSACHSEN
100
AcDbLine
 62
7
  6
CONTINUOUS
 10
711.8056924617
 20
188.3571656132
 11
712.1984851631
 21
188.5001304647
  0
LINE
  5
2F2
100
AcDbEntity
  8
BEZUGSACHSEN
100
AcDbLine
 62
7
  6
CONTINUOUS
 10
712.8768801449
 20
188.5082468624
 11
713.1996839124
 21
188.6257378252
  0
LINE
  5
2F3
100
AcDbEntity
  8
BEZUGSACHSEN
100
AcDbLine
 62
7
  6
CONTINUOUS
 10
713.4872986693
 20
188.3784069911
 11
713.7369944897
 21
188.4692888374
  0
LINE
  5
2F4
100
AcDbEntity
  8
BEZUGSACHSEN
100
AcDbLine
 62
7
  6
CONTINUOUS
 10
712.7284537389
 20
188.0464121037
 11
713.0633593189
 21
188.1683077661
  0
LINE
  5
2F5
100
AcDbEntity
  8
BEZUGSACHSEN
100
AcDbLine
 62
7
  6
CONTINUOUS
 10
713.2606793738
 20
188.0858830405
 11
713.5661784946
 21
188.1970756271
  0
LINE
  5
2F6
100
AcDbEntity
  8
BEZUGSACHSEN
100
AcDbLine
 62
7
  6
CONTINUOUS
 10
713.5791316939
 20
187.7484407776
 11
713.8390867612
 21
187.8430566843
  0
LINE
  5
2F7
100
AcDbEntity
  8
BEZUGSACHSEN
100
AcDbLine
 62
7
  6
CONTINUOUS
 10
713.3520757174
 20
187.4265140587
 11
713.6450142044
 21
187.5331349485
  0
LINE
  5
2F8
100
AcDbEntity
  8
BEZUGSACHSEN
100
AcDbLine
 62
7
  6
CONTINUOUS
 10
714.0639560157
 20
187.6845582769
 11
714.3292019926
 21
187.7810999172
  0
LINE
  5
2F9
100
AcDbEntity
  8
BEZUGSACHSEN
100
AcDbLine
 62
7
  6
CONTINUOUS
 10
713.8103068002
 20
187.5216432271
 11
714.0042083216
 21
187.5922176092
  0
LINE
  5
2FA
100
AcDbEntity
  8
BEZUGSACHSEN
100
AcDbLine
 62
7
  6
CONTINUOUS
 10
714.2628075592
 20
187.4166842096
 11
714.4364387323
 21
187.4798807883
  0
LINE
  5
2FB
100
AcDbEntity
  8
BEZUGSACHSEN
100
AcDbLine
 62
7
  6
CONTINUOUS
 10
713.8206222996
 20
186.9599960436
 11
714.1007638448
 21
187.0619592274
  0
LINE
  5
2FC
100
AcDbEntity
  8
BEZUGSACHSEN
100
AcDbLine
 62
7
  6
CONTINUOUS
 10
714.4726944361
 20
187.1558034237
 11
714.5058410447
 21
187.1678678026
  0
LINE
  5
2FD
100
AcDbEntity
  8
BEZUGSACHSEN
100
AcDbLine
 62
7
  6
CONTINUOUS
 10
714.6594403346
 20
186.8682967358
 11
714.6785078156
 21
186.8752367313
  0
LINE
  5
2FE
100
AcDbEntity
  8
BEZUGSACHSEN
100
AcDbLine
 62
7
  6
CONTINUOUS
 10
714.2390590724
 20
186.5426493812
 11
714.5391244864
 21
186.6518642602
  0
LINE
  5
2FF
100
AcDbEntity
  8
BEZUGSACHSEN
100
AcDbLine
 62
7
  6
CONTINUOUS
 10
714.3986596817
 20
186.3833279536
 11
714.7378936795
 21
186.5067990313
  0
LINE
  5
300
100
AcDbEntity
  8
BEZUGSACHSEN
100
AcDbLine
 62
7
  6
CONTINUOUS
 10
714.4042264661
 20
186.3777642682
 11
714.6799866359
 21
186.4781327618
  0
LINE
  5
301
100
AcDbEntity
  8
BEZUGSACHSEN
100
AcDbLine
 62
7
  6
CONTINUOUS
 10
714.6941997307
 20
185.2032220586
 11
715.1968000218
 21
185.3861536043
  0
LINE
  5
302
100
AcDbEntity
  8
BEZUGSACHSEN
100
AcDbLine
 62
7
  6
CONTINUOUS
 10
711.8169064825
 20
183.8314688874
 11
712.5592906465
 21
184.1016746255
  0
LINE
  5
303
100
AcDbEntity
  8
BEZUGSACHSEN
100
AcDbLine
 62
7
  6
CONTINUOUS
 10
711.7287242713
 20
183.710092952
 11
712.4690549657
 21
183.9795512883
  0
LINE
  5
304
100
AcDbEntity
  8
BEZUGSACHSEN
100
AcDbLine
 62
7
  6
CONTINUOUS
 10
711.7747300204
 20
183.406099297
 11
712.5124977722
 21
183.6746247985
  0
LINE
  5
305
100
AcDbEntity
  8
BEZUGSACHSEN
100
AcDbLine
 62
7
  6
CONTINUOUS
 10
713.1524019493
 20
183.0627253295
 11
713.5149848888
 21
183.194694727
  0
LINE
  5
306
100
AcDbEntity
  8
BEZUGSACHSEN
100
AcDbLine
 62
7
  6
CONTINUOUS
 10
714.915962262
 20
183.6015056652
 11
715.7107421345
 21
183.8907818815
  0
LINE
  5
307
100
AcDbEntity
  8
BEZUGSACHSEN
100
AcDbLine
 62
7
  6
CONTINUOUS
 10
713.3020645103
 20
182.6515308226
 11
713.9087915406
 21
182.872361402
  0
LINE
  5
308
100
AcDbEntity
  8
BEZUGSACHSEN
100
AcDbLine
 62
7
  6
CONTINUOUS
 10
712.4592172549
 20
181.4464504043
 11
713.1841673428
 21
181.7103106576
  0
LINE
  5
309
100
AcDbEntity
  8
BEZUGSACHSEN
100
AcDbLine
 62
7
  6
CONTINUOUS
 10
714.757964822
 20
181.0900620629
 11
715.5014983378
 21
181.3606861308
  0
LINE
  5
30A
100
AcDbEntity
  8
BEZUGSACHSEN
100
AcDbLine
 62
7
  6
CONTINUOUS
 10
713.009674452
 20
179.9497153144
 11
713.7250925415
 21
180.210106204
  0
LINE
  5
30B
100
AcDbEntity
  8
BEZUGSACHSEN
100
AcDbLine
 62
7
  6
CONTINUOUS
 10
715.214180663
 20
180.6063793713
 11
715.9572556687
 21
180.8768365552
  0
LINE
  5
30C
100
AcDbEntity
  8
BEZUGSACHSEN
100
AcDbLine
 62
7
  6
CONTINUOUS
 10
713.2287361588
 20
179.384892668
 11
713.9406483123
 21
179.6440075012
  0
LINE
  5
30D
100
AcDbEntity
  8
BEZUGSACHSEN
100
AcDbLine
 62
7
  6
CONTINUOUS
 10
715.5954619008
 20
180.1428142973
 11
716.3374662295
 21
180.4128817866
  0
LINE
  5
30E
100
AcDbEntity
  8
BEZUGSACHSEN
100
AcDbLine
 62
7
  6
CONTINUOUS
 10
715.9009087706
 20
179.6990403088
 11
716.6412067962
 21
179.9684867546
  0
LINE
  5
30F
100
AcDbEntity
  8
BEZUGSACHSEN
100
AcDbLine
 62
7
  6
CONTINUOUS
 10
716.1291048491
 20
179.2745420653
 11
716.8670442638
 21
179.5431300469
  0
LINE
  5
310
100
AcDbEntity
  8
BEZUGSACHSEN
100
AcDbLine
 62
7
  6
CONTINUOUS
 10
714.0573595682
 20
177.1082685757
 11
714.7547007001
 21
177.3620799908
  0
LINE
  5
311
100
AcDbEntity
  8
BEZUGSACHSEN
100
AcDbLine
 62
7
  6
CONTINUOUS
 10
714.2526096579
 20
176.5347789021
 11
714.9461859415
 21
176.7872200245
  0
LINE
  5
312
100
AcDbEntity
  8
BEZUGSACHSEN
100
AcDbLine
 62
7
  6
CONTINUOUS
 10
717.8891154197
 20
177.8317840445
 11
718.5830332411
 21
178.0843494765
  0
LINE
  5
313
100
AcDbEntity
  8
BEZUGSACHSEN
100
AcDbLine
 62
7
  6
CONTINUOUS
 10
716.3344994312
 20
176.7705340945
 11
717.047090222
 21
177.0298959316
  0
LINE
  5
314
100
AcDbEntity
  8
BEZUGSACHSEN
100
AcDbLine
 62
7
  6
CONTINUOUS
 10
717.6389557775
 20
176.7787517151
 11
718.1683602138
 21
176.9714391718
  0
LINE
  5
315
100
AcDbEntity
  8
BEZUGSACHSEN
100
AcDbLine
 62
7
  6
CONTINUOUS
 10
716.7714769596
 20
176.3389596544
 11
717.4834990301
 21
176.5981144942
  0
LINE
  5
316
100
AcDbEntity
  8
BEZUGSACHSEN
100
AcDbLine
 62
7
  6
CONTINUOUS
 10
718.0333781256
 20
176.6471724229
 11
718.980465742
 21
176.9918841246
  0
LINE
  5
317
100
AcDbEntity
  8
BEZUGSACHSEN
100
AcDbLine
 62
7
  6
CONTINUOUS
 10
717.1441286837
 20
175.8973460025
 11
717.8548619096
 21
176.1560317412
  0
LINE
  5
318
100
AcDbEntity
  8
BEZUGSACHSEN
100
AcDbLine
 62
7
  6
CONTINUOUS
 10
717.4515500858
 20
175.445363222
 11
718.1602514987
 21
175.7033094413
  0
LINE
  5
319
100
AcDbEntity
  8
BEZUGSACHSEN
100
AcDbLine
 62
7
  6
CONTINUOUS
 10
717.6923270977
 20
174.9824968034
 11
718.3982416088
 21
175.2394286734
  0
LINE
  5
31A
100
AcDbEntity
  8
BEZUGSACHSEN
100
AcDbLine
 62
7
  6
CONTINUOUS
 10
715.4357780075
 20
174.0739826475
 11
716.1154837292
 21
174.3213752983
  0
LINE
  5
31B
100
AcDbEntity
  8
BEZUGSACHSEN
100
AcDbLine
 62
7
  6
CONTINUOUS
 10
715.3161967421
 20
173.8496677057
 11
715.9931619776
 21
174.096062901
  0
LINE
  5
31C
100
AcDbEntity
  8
BEZUGSACHSEN
100
AcDbLine
 62
7
  6
CONTINUOUS
 10
717.9905505911
 20
174.6613380151
 11
718.5335166333
 21
174.8589614927
  0
LINE
  5
31D
100
AcDbEntity
  8
BEZUGSACHSEN
100
AcDbLine
 62
7
  6
CONTINUOUS
 10
718.3348387001
 20
174.4777448115
 11
718.5661116169
 21
174.5619212693
  0
LINE
  5
31E
100
AcDbEntity
  8
BEZUGSACHSEN
100
AcDbLine
 62
7
  6
CONTINUOUS
 10
715.4208050758
 20
173.3867367438
 11
716.0944077346
 21
173.6319080613
  0
LINE
  5
31F
100
AcDbEntity
  8
BEZUGSACHSEN
100
AcDbLine
 62
7
  6
CONTINUOUS
 10
717.3569710938
 20
173.9199101019
 11
718.0490244399
 21
174.1717969204
  0
LINE
  5
320
100
AcDbEntity
  8
BEZUGSACHSEN
100
AcDbLine
 62
7
  6
CONTINUOUS
 10
716.512706875
 20
173.5255064608
 11
716.8495894357
 21
173.6481216853
  0
LINE
  5
321
100
AcDbEntity
  8
BEZUGSACHSEN
100
AcDbLine
 62
7
  6
CONTINUOUS
 10
716.5808935594
 20
173.250306243
 11
717.1301720284
 21
173.450227256
  0
LINE
  5
322
100
AcDbEntity
  8
BEZUGSACHSEN
100
AcDbLine
 62
7
  6
CONTINUOUS
 10
717.8257284609
 20
173.5939556949
 11
718.5182237498
 21
173.8460033675
  0
LINE
  5
323
100
AcDbEntity
  8
BEZUGSACHSEN
100
AcDbLine
 62
7
  6
CONTINUOUS
 10
718.1621206616
 20
173.4480487059
 11
718.8558598887
 21
173.7005491349
  0
LINE
  5
324
100
AcDbEntity
  8
BEZUGSACHSEN
100
AcDbLine
 62
7
  6
CONTINUOUS
 10
716.7723372246
 20
172.899766068
 11
717.450297007
 21
173.1465232488
  0
LINE
  5
325
100
AcDbEntity
  8
BEZUGSACHSEN
100
AcDbLine
 62
7
  6
CONTINUOUS
 10
718.4303645668
 20
173.4921888248
 11
719.1292151037
 21
173.7465496184
  0
LINE
  5
326
100
AcDbEntity
  8
BEZUGSACHSEN
100
AcDbLine
 62
7
  6
CONTINUOUS
 10
717.0394487537
 20
172.5565702434
 11
717.7160293176
 21
172.8028254298
  0
LINE
  5
327
100
AcDbEntity
  8
BEZUGSACHSEN
100
AcDbLine
 62
7
  6
CONTINUOUS
 10
717.2520598942
 20
172.173341744
 11
717.9265041142
 21
172.4188193647
  0
LINE
  5
328
100
AcDbEntity
  8
BEZUGSACHSEN
100
AcDbLine
 62
7
  6
CONTINUOUS
 10
716.3257514739
 20
170.8312569172
 11
716.982892904
 21
171.0704368375
  0
LINE
  5
329
100
AcDbEntity
  8
BEZUGSACHSEN
100
AcDbLine
 62
7
  6
CONTINUOUS
 10
719.5121747673
 20
171.0170085979
 11
720.2165195161
 21
171.2733691211
  0
LINE
  5
32A
100
AcDbEntity
  8
BEZUGSACHSEN
100
AcDbLine
 62
7
  6
CONTINUOUS
 10
720.6957960923
 20
167.7215426954
 11
721.3718183569
 21
167.9675946775
  0
LINE
  5
32B
100
AcDbEntity
  8
BEZUGSACHSEN
100
AcDbLine
 62
7
  6
CONTINUOUS
 10
703.5208298925
 20
159.8240756314
 11
713.6684512911
 21
163.5175077691
  0
LINE
  5
32C
100
AcDbEntity
  8
BEZUGSACHSEN
100
AcDbLine
 62
7
  6
CONTINUOUS
 10
710.2565018176
 20
78.1902706122
 11
713.5688852756
 21
96.9757306974
  0
LINE
  5
32D
100
AcDbEntity
  8
0
100
AcDbLine
 62
7
  6
CONTINUOUS
 10
765.6735538663
 20
412.1207341023
 11
765.6735538663
 21
252.1207341023
  0
LINE
  5
32E
100
AcDbEntity
  8
BEZUGSACHSEN
100
AcDbLine
 62
7
  6
CONTINUOUS
 10
715.1434267658
 20
126.6704427524
 11
726.0757699724
 21
130.6494902704
  0
LINE
  5
32F
100
AcDbEntity
  8
BEZUGSACHSEN
100
AcDbLine
 62
7
  6
CONTINUOUS
 10
710.0154181813
 20
111.8052185874
 11
709.6888187523
 21
111.3003812418
  0
LINE
  5
330
100
AcDbEntity
  8
BEZUGSACHSEN
100
AcDbLine
 62
7
  6
CONTINUOUS
 10
709.6963616596
 20
111.3105846404
 11
709.3160369053
 21
110.8518987717
  0
LINE
  5
331
100
AcDbEntity
  8
BEZUGSACHSEN
100
AcDbLine
 62
7
  6
CONTINUOUS
 10
709.3212893699
 20
110.8574659161
 11
708.9054124325
 21
110.4604268152
  0
LINE
  5
332
100
AcDbEntity
  8
BEZUGSACHSEN
100
AcDbLine
 62
7
  6
CONTINUOUS
 10
708.9054124325
 20
110.4604268152
 11
708.6935618346
 21
110.290162474
  0
LINE
  5
333
100
AcDbEntity
  8
BEZUGSACHSEN
100
AcDbLine
 62
7
  6
CONTINUOUS
 10
631.9447746399
 20
49.3885985092
 11
626.8743829692
 21
45.4066845409
  0
LINE
  5
334
100
AcDbEntity
  8
BEZUGSACHSEN
100
AcDbLine
 62
7
  6
CONTINUOUS
 10
726.1175697237
 20
96.5192327778
 11
737.0499129303
 21
100.4982802957
  0
LINE
  5
335
100
AcDbEntity
  8
0
100
AcDbLine
 62
7
  6
CONTINUOUS
 10
805.6735538663
 20
412.1207341023
 11
805.6735538663
 21
252.1207341023
  0
LINE
  5
336
100
AcDbEntity
  8
RUNDUNGEN
100
AcDbLine
 62
7
  6
CONTINUOUS
 10
771.164449978
 20
62.4010827055
 11
772.4890703801
 21
68.7105907161
  0
LINE
  5
337
100
AcDbEntity
  8
RUNDUNGEN
100
AcDbLine
 62
7
  6
CONTINUOUS
 10
770.7556374846
 20
60.7065945058
 11
771.164449978
 21
62.4010827055
  0
LINE
  5
338
100
AcDbEntity
  8
BEZUGSACHSEN
100
AcDbLine
 62
7
  6
CONTINUOUS
 10
739.3175048211
 20
91.8794379701
 11
729.9205786132
 21
88.4592365369
  0
LWPOLYLINE
  5
339
100
AcDbEntity
  8
BEZUGSACHSEN
100
AcDbPolyline
 62
7
  6
CONTINUOUS
 90
4
 70
0
 10
154.440257899
 20
39.1648489294
 10
155.0785466369
 20
39.226205847
 10
155.7106431893
 20
39.3533811615
 10
156.3468537846
 20
39.5402119667
  0
LINE
  5
33A
100
AcDbEntity
  8
BEZUGSACHSEN
100
AcDbLine
 62
7
  6
CONTINUOUS
 10
154.2370322373
 20
39.1608307094
 11
154.4386592832
 21
39.164788851
  0
LINE
  5
33B
100
AcDbEntity
  8
BEZUGSACHSEN
100
AcDbLine
 62
7
  6
CONTINUOUS
 10
154.2359523495
 20
39.160826885
 11
154.2370543136
 21
39.1608276244
  0
LINE
  5
33C
100
AcDbEntity
  8
KONSTRUKTIONSELEMENTE
100
AcDbLine
 62
7
  6
CONTINUOUS
 10
110.1140485924
 20
31.4556705929
 11
128.3140485924
 21
31.4556705929
  0
LINE
  5
33D
100
AcDbEntity
  8
KONSTRUKTIONSELEMENTE
100
AcDbLine
 62
7
  6
CONTINUOUS
 10
109.1140485924
 20
32.3216959966
 11
110.1140485924
 21
32.3216959966
  0
LINE
  5
33E
100
AcDbEntity
  8
KONSTRUKTIONSELEMENTE
100
AcDbLine
 62
7
  6
CONTINUOUS
 10
128.3140485924
 20
32.3216959966
 11
129.3140485924
 21
32.3216959966
  0
LINE
  5
33F
100
AcDbEntity
  8
0
100
AcDbLine
 62
7
  6
CONTINUOUS
 10
154.2456653151
 20
39.1608267387
 11
144.4960393051
 21
39.1608267387
  0
LINE
  5
340
100
AcDbEntity
  8
0
100
AcDbLine
 62
7
  6
CONTINUOUS
 10
93.9320578797
 20
39.1608267387
 11
84.189918472
 21
39.1608267387
  0
LINE
  5
341
100
AcDbEntity
  8
BEZUGSACHSEN
100
AcDbLine
 62
7
  6
CONTINUOUS
 10
84.1910318186
 20
39.1608277007
 11
84.1927814676
 21
39.1608267471
  0
LINE
  5
342
100
AcDbEntity
  8
BEZUGSACHSEN
100
AcDbLine
 62
7
  6
CONTINUOUS
 10
93.9427338942
 20
39.1608267611
 11
93.9838623974
 21
39.1691941526
  0
LINE
  5
343
100
AcDbEntity
  8
0
100
AcDbLine
 62
7
  6
CONTINUOUS
 10
130.4640485924
 20
56.1608267387
 11
107.9640485924
 21
56.1608267387
  0
LINE
  5
344
100
AcDbEntity
  8
BEZUGSACHSEN
100
AcDbLine
 62
7
  6
CONTINUOUS
 10
144.4442347874
 20
39.1691941526
 11
144.4853632906
 21
39.1608267611
  0
LINE
  5
345
100
AcDbEntity
  8
KONSTRUKTIONSELEMENTE
100
AcDbLine
 62
7
  6
CONTINUOUS
 10
170.5312470927
 20
56.2514240038
 11
165.2140485924
 21
57.1152552645
  0
LINE
  5
346
100
AcDbEntity
  8
KONSTRUKTIONSELEMENTE
100
AcDbLine
 62
7
  6
CONTINUOUS
 10
170.5312470927
 20
60.5815510227
 11
165.2059144843
 21
61.4467037494
  0
LWPOLYLINE
  5
347
100
AcDbEntity
  8
BEZUGSACHSEN
100
AcDbPolyline
 62
7
  6
CONTINUOUS
 90
15
 70
0
 10
74.2957292207
 20
44.5304687567
 10
75.0954946773
 20
43.8760909253
 10
76.0317594457
 20
43.1391103494
 10
76.9240094343
 20
42.4693831852
 10
77.7728307295
 20
41.8657608967
 10
78.5788257506
 20
41.3271958575
 10
79.3444990633
 20
40.8515707247
 10
80.0724219296
 20
40.4371305783
 10
80.7673736789
 20
40.0814571956
 10
81.4342995859
 20
39.7830023066
 10
82.0812434002
 20
39.5402119667
 10
82.7174539955
 20
39.3533811615
 10
83.3495505479
 20
39.226205847
 10
83.9878392858
 20
39.1648489294
 10
84.1909695478
 20
39.1608276852
  0
LINE
  5
348
100
AcDbEntity
  8
BEZUGSACHSEN
100
AcDbLine
 62
7
  6
CONTINUOUS
 10
74.2959232429
 20
44.5303071331
 11
74.2956494364
 21
44.5305348216
  0
LINE
  5
349
100
AcDbEntity
  8
0
100
AcDbLine
 62
7
  6
CONTINUOUS
 10
130.4640485924
 20
80.6608267387
 11
107.9640485924
 21
80.6608267387
  0
LINE
  5
34A
100
AcDbEntity
  8
KONSTRUKTIONSELEMENTE
100
AcDbLine
 62
7
  6
CONTINUOUS
 10
64.2910402634
 20
95.7789085414
 11
67.2560650564
 21
96.2606060189
  0
LINE
  5
34B
100
AcDbEntity
  8
KONSTRUKTIONSELEMENTE
100
AcDbLine
 62
7
  6
CONTINUOUS
 10
64.2910402634
 20
96.6449339452
 11
67.0612840302
 21
97.0949873267
  0
LINE
  5
34C
100
AcDbEntity
  8
KONSTRUKTIONSELEMENTE
100
AcDbLine
 62
7
  6
CONTINUOUS
 10
65.9081418348
 20
99.0105724693
 11
66.5263740085
 21
99.1110103743
  0
LINE
  5
34D
100
AcDbEntity
  8
KONSTRUKTIONSELEMENTE
100
AcDbLine
 62
7
  6
CONTINUOUS
 10
63.9785010518
 20
108.7136919378
 11
56.8214960034
 21
107.5509659847
  0
LINE
  5
34E
100
AcDbEntity
  8
RUNDUNGEN
100
AcDbLine
 62
7
  6
CONTINUOUS
 10
89.4723102122
 20
122.1390595528
 11
90.0727081604
 21
122.2143839179
  0
LINE
  5
34F
100
AcDbEntity
  8
RUNDUNGEN
100
AcDbLine
 62
7
  6
CONTINUOUS
 10
89.4645339253
 20
122.1380839335
 11
89.4672554006
 21
122.1384253712
  0
LINE
  5
350
100
AcDbEntity
  8
RUNDUNGEN
100
AcDbLine
 62
7
  6
CONTINUOUS
 10
90.6953166747
 20
122.2532743245
 11
147.7329799494
 21
122.2532743245
  0
LINE
  5
351
100
AcDbEntity
  8
RUNDUNGEN
100
AcDbLine
 62
7
  6
CONTINUOUS
 10
148.355355578
 20
122.2143881139
 11
148.9557760518
 21
122.1390609229
  0
LINE
  5
352
100
AcDbEntity
  8
RUNDUNGEN
100
AcDbLine
 62
7
  6
CONTINUOUS
 10
148.9607883142
 20
122.1384320787
 11
148.9639080218
 21
122.1380406655
  0
LINE
  5
353
100
AcDbEntity
  8
KONSTRUKTIONSELEMENTE
100
AcDbLine
 62
7
  6
CONTINUOUS
 10
192.2073928285
 20
107.4059563202
 11
202.6690145077
 21
105.7063628511
  0
LINE
  5
354
100
AcDbEntity
  8
KONSTRUKTIONSELEMENTE
100
AcDbLine
 62
7
  6
CONTINUOUS
 10
128.7520852674
 20
124.5494004063
 11
133.5674313821
 21
123.7671000079
  0
LINE
  5
355
100
AcDbEntity
  8
KONSTRUKTIONSELEMENTE
100
AcDbLine
 62
7
  6
CONTINUOUS
 10
176.5892362197
 20
116.7777841283
 11
198.1267267879
 21
113.2788066817
  0
LINE
  5
356
100
AcDbEntity
  8
KONSTRUKTIONSELEMENTE
100
AcDbLine
 62
7
  6
CONTINUOUS
 10
54.8042185361
 20
110.3776260665
 11
56.349303508
 21
107.9999847758
  0
LINE
  5
357
100
AcDbEntity
  8
KONSTRUKTIONSELEMENTE
100
AcDbLine
 62
7
  6
CONTINUOUS
 10
64.2910402634
 20
95.7789085414
 11
68.0591692807
 21
89.9803542202
  0
LINE
  5
358
100
AcDbEntity
  8
KONSTRUKTIONSELEMENTE
100
AcDbLine
 62
7
  6
CONTINUOUS
 10
64.2910402634
 20
96.6449339452
 11
63.9820232691
 21
97.1204622033
  0
LINE
  5
359
100
AcDbEntity
  8
KONSTRUKTIONSELEMENTE
100
AcDbLine
 62
7
  6
CONTINUOUS
 10
109.6760119174
 20
124.5494004063
 11
104.878129299
 21
123.7699371248
  0
LINE
  5
35A
100
AcDbEntity
  8
KONSTRUKTIONSELEMENTE
100
AcDbLine
 62
7
  6
CONTINUOUS
 10
61.8388609651
 20
116.7777841283
 11
61.2246137553
 21
116.6779936199
  0
LINE
  5
35B
100
AcDbEntity
  8
KONSTRUKTIONSELEMENTE
100
AcDbLine
 62
7
  6
CONTINUOUS
 10
104.9461584021
 20
128.1111161415
 11
100.1566330617
 21
127.3330105821
  0
LINE
  5
35C
100
AcDbEntity
  8
KONSTRUKTIONSELEMENTE
100
AcDbLine
 62
7
  6
CONTINUOUS
 10
198.1267267879
 20
117.6089337006
 11
177.6906682465
 21
120.9289726674
  0
LINE
  5
35D
100
AcDbEntity
  8
KONSTRUKTIONSELEMENTE
100
AcDbLine
 62
7
  6
CONTINUOUS
 10
138.285167416
 20
127.3307843473
 11
133.4819387827
 21
128.1111161415
  0
LINE
  5
35E
100
AcDbEntity
  8
BEZUGSACHSEN
100
AcDbLine
 62
7
  6
CONTINUOUS
 10
68.2614610604
 20
88.4592365369
 11
69.7658273334
 21
86.0107369671
  0
LINE
  5
35F
100
AcDbEntity
  8
RUNDUNGEN
100
AcDbLine
 62
7
  6
CONTINUOUS
 10
68.2614610604
 20
91.8794379701
 11
69.7658273334
 21
89.4309384003
  0
LINE
  5
360
100
AcDbEntity
  8
BEZUGSACHSEN
100
AcDbLine
 62
7
  6
CONTINUOUS
 10
59.2140485924
 20
126.6704427524
 11
67.2140485924
 21
96.5192327778
  0
LINE
  5
361
100
AcDbEntity
  8
0
100
AcDbLine
 62
7
  6
CONTINUOUS
 10
59.2140485924
 20
130.6494902704
 11
67.2140485924
 21
100.4982802957
  0
LINE
  5
362
100
AcDbEntity
  8
BEZUGSACHSEN
100
AcDbLine
 62
7
  6
CONTINUOUS
 10
68.2614610604
 20
88.4592365369
 11
67.9471868244
 21
90.8223978007
  0
LINE
  5
363
100
AcDbEntity
  8
KONSTRUKTIONSELEMENTE
100
AcDbLine
 62
7
  6
CONTINUOUS
 10
54.3147836991
 20
111.9227110384
 11
54.3147836991
 21
116.2528380573
  0
LINE
  5
364
100
AcDbEntity
  8
0
100
AcDbLine
 62
7
  6
CONTINUOUS
 10
59.2140485924
 20
163.5175077691
 11
59.2140485924
 21
130.6494902704
  0
LINE
  5
365
100
AcDbEntity
  8
BEZUGSACHSEN
100
AcDbLine
 62
7
  6
CONTINUOUS
 10
59.2140485924
 20
126.6704427524
 11
59.2140485924
 21
130.6494902704
  0
LINE
  5
366
100
AcDbEntity
  8
BEZUGSACHSEN
100
AcDbLine
 62
7
  6
CONTINUOUS
 10
67.7047961981
 20
92.6814883483
 11
67.2140485924
 21
96.5192327778
  0
LINE
  5
367
100
AcDbEntity
  8
RUNDUNGEN
100
AcDbLine
 62
7
  6
CONTINUOUS
 10
67.7047961981
 20
96.5214336806
 11
67.2140485924
 21
100.4982802957
  0
LINE
  5
368
100
AcDbEntity
  8
RUNDUNGEN
100
AcDbLine
 62
7
  6
CONTINUOUS
 10
68.2614610604
 20
91.8794379701
 11
67.9471868244
 21
94.5207323598
  0
LINE
  5
369
100
AcDbEntity
  8
KONSTRUKTIONSELEMENTE
100
AcDbLine
 62
7
  6
CONTINUOUS
 10
63.835192818
 20
97.5839876949
 11
63.835192818
 21
100.1820639062
  0
LINE
  5
36A
100
AcDbEntity
  8
KONSTRUKTIONSELEMENTE
100
AcDbLine
 62
7
  6
CONTINUOUS
 10
64.2910402634
 20
95.7789085414
 11
64.2910402634
 21
96.6449339452
  0
LINE
  5
36B
100
AcDbEntity
  8
BEZUGSACHSEN
100
AcDbLine
 62
7
  6
CONTINUOUS
 10
67.2140485924
 20
96.5192327778
 11
67.2140485924
 21
100.4982802957
  0
LINE
  5
36C
100
AcDbEntity
  8
BEZUGSACHSEN
100
AcDbLine
 62
7
  6
CONTINUOUS
 10
68.2614610604
 20
91.8794379701
 11
68.2614610604
 21
88.4592365369
  0
LINE
  5
36D
100
AcDbEntity
  8
BEZUGSACHSEN
100
AcDbLine
 62
7
  6
CONTINUOUS
 10
73.2140485924
 20
46.836991991
 11
73.2140485924
 21
61.4967721707
  0
LINE
  5
36E
100
AcDbEntity
  8
RUNDUNGEN
100
AcDbLine
 62
7
  6
CONTINUOUS
 10
73.2140485924
 20
46.836991991
 11
73.2140485924
 21
110.5090297045
  0
LINE
  5
36F
100
AcDbEntity
  8
BEZUGSACHSEN
100
AcDbLine
 62
7
  6
CONTINUOUS
 10
76.104140046
 20
170.8312569172
 11
76.104140046
 21
171.0704368375
  0
LINE
  5
370
100
AcDbEntity
  8
BEZUGSACHSEN
100
AcDbLine
 62
7
  6
CONTINUOUS
 10
78.6835936036
 20
173.1627959519
 11
78.6835936036
 21
173.4082263953
  0
LINE
  5
371
100
AcDbEntity
  8
BEZUGSACHSEN
100
AcDbLine
 62
7
  6
CONTINUOUS
 10
79.0498957835
 20
173.4141495771
 11
79.0498957835
 21
173.6603287885
  0
LINE
  5
372
100
AcDbEntity
  8
BEZUGSACHSEN
100
AcDbLine
 62
7
  6
CONTINUOUS
 10
79.4833231231
 20
173.4935070576
 11
79.4833231231
 21
173.7401956351
  0
LINE
  5
373
100
AcDbEntity
  8
BEZUGSACHSEN
100
AcDbLine
 62
7
  6
CONTINUOUS
 10
79.9838754083
 20
173.4011598364
 11
79.9838754083
 21
173.6481216853
  0
LINE
  5
374
100
AcDbEntity
  8
BEZUGSACHSEN
100
AcDbLine
 62
7
  6
CONTINUOUS
 10
80.3301788481
 20
176.5347789021
 11
80.3301788481
 21
176.7872200245
  0
LINE
  5
375
100
AcDbEntity
  8
BEZUGSACHSEN
100
AcDbLine
 62
7
  6
CONTINUOUS
 10
80.4096338895
 20
173.203239893
 11
80.4096338895
 21
173.450227256
  0
LINE
  5
376
100
AcDbEntity
  8
BEZUGSACHSEN
100
AcDbLine
 62
7
  6
CONTINUOUS
 10
80.7605977716
 20
172.899766068
 11
80.7605977716
 21
173.1465232488
  0
LINE
  5
377
100
AcDbEntity
  8
BEZUGSACHSEN
100
AcDbLine
 62
7
  6
CONTINUOUS
 10
81.5143120764
 20
171.5658048328
 11
81.5143120764
 21
171.8107658865
  0
LINE
  5
378
100
AcDbEntity
  8
BEZUGSACHSEN
100
AcDbLine
 62
7
  6
CONTINUOUS
 10
81.6945773964
 20
172.8863788888
 11
81.6945773964
 21
173.1339570566
  0
LINE
  5
379
100
AcDbEntity
  8
BEZUGSACHSEN
100
AcDbLine
 62
7
  6
CONTINUOUS
 10
82.774350818
 20
167.7215426954
 11
82.774350818
 21
167.9675946775
  0
LINE
  5
37A
100
AcDbEntity
  8
BEZUGSACHSEN
100
AcDbLine
 62
7
  6
CONTINUOUS
 10
83.0405357356
 20
179.384892668
 11
83.0405357356
 21
179.6440075012
  0
LINE
  5
37B
100
AcDbEntity
  8
BEZUGSACHSEN
100
AcDbLine
 62
7
  6
CONTINUOUS
 10
83.2231164555
 20
168.362895139
 11
83.2231164555
 21
168.6117592121
  0
LINE
  5
37C
100
AcDbEntity
  8
BEZUGSACHSEN
100
AcDbLine
 62
7
  6
CONTINUOUS
 10
84.2620506562
 20
173.9199101019
 11
84.2620506562
 21
174.1717969204
  0
LINE
  5
37D
100
AcDbEntity
  8
BEZUGSACHSEN
100
AcDbLine
 62
7
  6
CONTINUOUS
 10
84.9865688358
 20
173.5939556949
 11
84.9865688358
 21
173.8460033675
  0
LINE
  5
37E
100
AcDbEntity
  8
BEZUGSACHSEN
100
AcDbLine
 62
7
  6
CONTINUOUS
 10
85.092973207
 20
171.0170085979
 11
85.092973207
 21
171.2733691211
  0
LINE
  5
37F
100
AcDbEntity
  8
BEZUGSACHSEN
100
AcDbLine
 62
7
  6
CONTINUOUS
 10
85.2095821328
 20
181.4464504043
 11
85.2095821328
 21
181.7103106576
  0
LINE
  5
380
100
AcDbEntity
  8
BEZUGSACHSEN
100
AcDbLine
 62
7
  6
CONTINUOUS
 10
85.6165332601
 20
171.7549097262
 11
85.6165332601
 21
172.0121293188
  0
LINE
  5
381
100
AcDbEntity
  8
BEZUGSACHSEN
100
AcDbLine
 62
7
  6
CONTINUOUS
 10
85.6745976818
 20
173.4480487059
 11
85.6745976818
 21
173.7005491349
  0
LINE
  5
382
100
AcDbEntity
  8
BEZUGSACHSEN
100
AcDbLine
 62
7
  6
CONTINUOUS
 10
86.5433164945
 20
173.4921888248
 11
86.5433164945
 21
173.7465496184
  0
LINE
  5
383
100
AcDbEntity
  8
BEZUGSACHSEN
100
AcDbLine
 62
7
  6
CONTINUOUS
 10
86.9724075437
 20
176.7705340945
 11
86.9724075437
 21
177.0298959316
  0
LINE
  5
384
100
AcDbEntity
  8
BEZUGSACHSEN
100
AcDbLine
 62
7
  6
CONTINUOUS
 10
87.1583666985
 20
173.7001291306
 11
87.1583666985
 21
173.9604205238
  0
LINE
  5
385
100
AcDbEntity
  8
BEZUGSACHSEN
100
AcDbLine
 62
7
  6
CONTINUOUS
 10
87.3894003795
 20
176.3389596544
 11
87.3894003795
 21
176.5981144942
  0
LINE
  5
386
100
AcDbEntity
  8
BEZUGSACHSEN
100
AcDbLine
 62
7
  6
CONTINUOUS
 10
87.7369271994
 20
174.0873111009
 11
87.7369271994
 21
174.3528249487
  0
LINE
  5
387
100
AcDbEntity
  8
BEZUGSACHSEN
100
AcDbLine
 62
7
  6
CONTINUOUS
 10
88.0983082556
 20
174.4667486311
 11
88.0983082556
 21
174.7332878595
  0
LINE
  5
388
100
AcDbEntity
  8
BEZUGSACHSEN
100
AcDbLine
 62
7
  6
CONTINUOUS
 10
88.3641581791
 20
182.8014823508
 11
88.3641581791
 21
183.0700158837
  0
LINE
  5
389
100
AcDbEntity
  8
BEZUGSACHSEN
100
AcDbLine
 62
7
  6
CONTINUOUS
 10
88.4231996198
 20
175.0281596721
 11
88.4231996198
 21
175.2921276363
  0
LINE
  5
38A
100
AcDbEntity
  8
BEZUGSACHSEN
100
AcDbLine
 62
7
  6
CONTINUOUS
 10
88.5309115281
 20
175.5790944268
 11
88.5309115281
 21
175.8391837046
  0
LINE
  5
38B
100
AcDbEntity
  8
BEZUGSACHSEN
100
AcDbLine
 62
7
  6
CONTINUOUS
 10
88.8899204558
 20
183.0245951541
 11
88.8899204558
 21
183.2938920612
  0
LINE
  5
38C
100
AcDbEntity
  8
BEZUGSACHSEN
100
AcDbLine
 62
7
  6
CONTINUOUS
 10
89.420067784
 20
183.0654318833
 11
89.420067784
 21
183.3353051599
  0
LINE
  5
38D
100
AcDbEntity
  8
BEZUGSACHSEN
100
AcDbLine
 62
7
  6
CONTINUOUS
 10
89.9546004682
 20
182.9244239547
 11
89.9546004682
 21
183.194694727
  0
LINE
  5
38E
100
AcDbEntity
  8
0
100
AcDbLine
 62
7
  6
CONTINUOUS
 10
90.3118041103
 20
90.2924141102
 11
90.3118041103
 21
76.4049204077
  0
LINE
  5
38F
100
AcDbEntity
  8
BEZUGSACHSEN
100
AcDbLine
 62
7
  6
CONTINUOUS
 10
90.316614865
 20
176.7007874891
 11
90.316614865
 21
176.9714391718
  0
LINE
  5
390
100
AcDbEntity
  8
BEZUGSACHSEN
100
AcDbLine
 62
7
  6
CONTINUOUS
 10
90.4935167063
 20
182.601869249
 11
90.4935167063
 21
182.872361402
  0
LINE
  5
391
100
AcDbEntity
  8
BEZUGSACHSEN
100
AcDbLine
 62
7
  6
CONTINUOUS
 10
92.1234207277
 20
181.0900620629
 11
92.1234207277
 21
181.3606861308
  0
LINE
  5
392
100
AcDbEntity
  8
BEZUGSACHSEN
100
AcDbLine
 62
7
  6
CONTINUOUS
 10
92.4537865531
 20
180.6063793713
 11
92.4537865531
 21
180.8768365552
  0
LINE
  5
393
100
AcDbEntity
  8
BEZUGSACHSEN
100
AcDbLine
 62
7
  6
CONTINUOUS
 10
92.8192293637
 20
178.6601694983
 11
92.8192293637
 21
178.9378518701
  0
LINE
  5
394
100
AcDbEntity
  8
BEZUGSACHSEN
100
AcDbLine
 62
7
  6
CONTINUOUS
 10
93.2319475146
 20
179.1695651159
 11
93.2319475146
 21
179.4448588105
  0
LINE
  5
395
100
AcDbEntity
  8
BEZUGSACHSEN
100
AcDbLine
 62
7
  6
CONTINUOUS
 10
93.4317289888
 20
179.6985198503
 11
93.4317289888
 21
179.9175208843
  0
LINE
  5
396
100
AcDbEntity
  8
BEZUGSACHSEN
100
AcDbLine
 62
7
  6
CONTINUOUS
 10
98.0067087348
 20
189.5252814017
 11
98.0067087348
 21
189.8080043058
  0
LINE
  5
397
100
AcDbEntity
  8
0
100
AcDbLine
 62
7
  6
CONTINUOUS
 10
99.2140485924
 20
522.0593061126
 11
99.2140485924
 21
142.182162092
  0
LINE
  5
398
100
AcDbEntity
  8
KONSTRUKTIONSELEMENTE
100
AcDbLine
 62
7
  6
CONTINUOUS
 10
106.1140485924
 20
42.9035667371
 11
106.1140485924
 21
33.8216959966
  0
LINE
  5
399
100
AcDbEntity
  8
BEZUGSACHSEN
100
AcDbLine
 62
7
  6
CONTINUOUS
 10
107.9640485924
 20
74.4218016998
 11
107.9640485924
 21
43.2845874555
  0
LINE
  5
39A
100
AcDbEntity
  8
0
100
AcDbLine
 62
7
  6
CONTINUOUS
 10
107.9640485924
 20
74.4218016998
 11
107.9640485924
 21
102.0506249161
  0
LINE
  5
39B
100
AcDbEntity
  8
KONSTRUKTIONSELEMENTE
100
AcDbLine
 62
7
  6
CONTINUOUS
 10
110.1140485924
 20
31.4556705929
 11
110.1140485924
 21
47.4556705929
  0
LINE
  5
39C
100
AcDbEntity
  8
KONSTRUKTIONSELEMENTE
100
AcDbLine
 62
7
  6
CONTINUOUS
 10
115.7140485924
 20
122.4357856608
 11
115.7140485924
 21
122.2532743245
  0
LINE
  5
39D
100
AcDbEntity
  8
KONSTRUKTIONSELEMENTE
100
AcDbLine
 62
7
  6
CONTINUOUS
 10
122.7140485924
 20
122.4357856608
 11
122.7140485924
 21
122.2532743245
  0
LINE
  5
39E
100
AcDbEntity
  8
KONSTRUKTIONSELEMENTE
100
AcDbLine
 62
7
  6
CONTINUOUS
 10
128.3140485924
 20
31.4556705929
 11
128.3140485924
 21
47.4556705929
  0
LINE
  5
39F
100
AcDbEntity
  8
BEZUGSACHSEN
100
AcDbLine
 62
7
  6
CONTINUOUS
 10
130.4640485924
 20
43.2845874555
 11
130.4640485924
 21
74.4218016998
  0
LINE
  5
3A0
100
AcDbEntity
  8
0
100
AcDbLine
 62
7
  6
CONTINUOUS
 10
130.4640485924
 20
74.4218016998
 11
130.4640485924
 21
102.0506249161
  0
LINE
  5
3A1
100
AcDbEntity
  8
KONSTRUKTIONSELEMENTE
100
AcDbLine
 62
7
  6
CONTINUOUS
 10
132.3140485924
 20
33.8216959966
 11
132.3140485924
 21
42.9035667371
  0
LINE
  5
3A2
100
AcDbEntity
  8
0
100
AcDbLine
 62
7
  6
CONTINUOUS
 10
139.2140485924
 20
522.0593061126
 11
139.2140485924
 21
142.182162092
  0
LINE
  5
3A3
100
AcDbEntity
  8
BEZUGSACHSEN
100
AcDbLine
 62
7
  6
CONTINUOUS
 10
140.4880486763
 20
177.7395759485
 11
140.4880486763
 21
178.0843494765
  0
LINE
  5
3A4
100
AcDbEntity
  8
BEZUGSACHSEN
100
AcDbLine
 62
7
  6
CONTINUOUS
 10
142.1154903551
 20
176.6471724229
 11
142.1154903551
 21
176.9918841246
  0
LINE
  5
3A5
100
AcDbEntity
  8
BEZUGSACHSEN
100
AcDbLine
 62
7
  6
CONTINUOUS
 10
145.4288160788
 20
187.0443264221
 11
145.4288160788
 21
187.3211662355
  0
LINE
  5
3A6
100
AcDbEntity
  8
BEZUGSACHSEN
100
AcDbLine
 62
7
  6
CONTINUOUS
 10
146.5973567516
 20
172.9046279087
 11
146.5973567516
 21
173.2490898793
  0
LINE
  5
3A7
100
AcDbEntity
  8
BEZUGSACHSEN
100
AcDbLine
 62
7
  6
CONTINUOUS
 10
147.6160529557
 20
171.8700019904
 11
147.6160529557
 21
172.2143316096
  0
LINE
  5
3A8
100
AcDbEntity
  8
0
100
AcDbLine
 62
7
  6
CONTINUOUS
 10
148.1162930745
 20
90.2924141102
 11
148.1162930745
 21
76.4049204077
  0
LINE
  5
3A9
100
AcDbEntity
  8
BEZUGSACHSEN
100
AcDbLine
 62
7
  6
CONTINUOUS
 10
149.1329724103
 20
170.5788898074
 11
149.1329724103
 21
170.9176445921
  0
LINE
  5
3AA
100
AcDbEntity
  8
BEZUGSACHSEN
100
AcDbLine
 62
7
  6
CONTINUOUS
 10
149.9201963364
 20
169.3779660523
 11
149.9201963364
 21
169.7194337218
  0
LINE
  5
3AB
100
AcDbEntity
  8
BEZUGSACHSEN
100
AcDbLine
 62
7
  6
CONTINUOUS
 10
152.345443432
 20
182.3849339095
 11
152.345443432
 21
182.650746563
  0
LINE
  5
3AC
100
AcDbEntity
  8
BEZUGSACHSEN
100
AcDbLine
 62
7
  6
CONTINUOUS
 10
154.4841615883
 20
171.6572118667
 11
154.4841615883
 21
171.9046218375
  0
LINE
  5
3AD
100
AcDbEntity
  8
BEZUGSACHSEN
100
AcDbLine
 62
7
  6
CONTINUOUS
 10
156.4242601961
 20
178.3069665695
 11
156.4242601961
 21
178.5635936652
  0
LINE
  5
3AE
100
AcDbEntity
  8
BEZUGSACHSEN
100
AcDbLine
 62
7
  6
CONTINUOUS
 10
156.8458333665
 20
168.0696501561
 11
156.8458333665
 21
168.3075308453
  0
LINE
  5
3AF
100
AcDbEntity
  8
BEZUGSACHSEN
100
AcDbLine
 62
7
  6
CONTINUOUS
 10
157.719185455
 20
167.154692231
 11
157.719185455
 21
167.3898633568
  0
LINE
  5
3B0
100
AcDbEntity
  8
BEZUGSACHSEN
100
AcDbLine
 62
7
  6
CONTINUOUS
 10
158.8959958542
 20
166.6229516339
 11
158.8959958542
 21
166.8560678302
  0
LINE
  5
3B1
100
AcDbEntity
  8
BEZUGSACHSEN
100
AcDbLine
 62
7
  6
CONTINUOUS
 10
159.0481268402
 20
173.5991068388
 11
159.0481268402
 21
173.8458900156
  0
LINE
  5
3B2
100
AcDbEntity
  8
BEZUGSACHSEN
100
AcDbLine
 62
7
  6
CONTINUOUS
 10
160.1589351667
 20
166.3844096257
 11
160.1589351667
 21
166.6161227255
  0
LINE
  5
3B3
100
AcDbEntity
  8
BEZUGSACHSEN
100
AcDbLine
 62
7
  6
CONTINUOUS
 10
160.9421336029
 20
166.4588940709
 11
160.9421336029
 21
166.6902500966
  0
LINE
  5
3B4
100
AcDbEntity
  8
BEZUGSACHSEN
100
AcDbLine
 62
7
  6
CONTINUOUS
 10
161.5410028563
 20
169.8092579812
 11
161.5410028563
 21
170.0470700829
  0
LINE
  5
3B5
100
AcDbEntity
  8
BEZUGSACHSEN
100
AcDbLine
 62
7
  6
CONTINUOUS
 10
161.8114608104
 20
166.8291235947
 11
161.8114608104
 21
167.0607071442
  0
LINE
  5
3B6
100
AcDbEntity
  8
BEZUGSACHSEN
100
AcDbLine
 62
7
  6
CONTINUOUS
 10
162.3322522722
 20
167.3098132627
 11
162.3322522722
 21
167.5420661727
  0
LINE
  5
3B7
100
AcDbEntity
  8
BEZUGSACHSEN
100
AcDbLine
 62
7
  6
CONTINUOUS
 10
162.8079661571
 20
168.287858857
 11
162.8079661571
 21
168.5217899789
  0
LINE
  5
3B8
100
AcDbEntity
  8
BEZUGSACHSEN
100
AcDbLine
 62
7
  6
CONTINUOUS
 10
162.9351456559
 20
169.3734222971
 11
162.9351456559
 21
169.6094020253
  0
LINE
  5
3B9
100
AcDbEntity
  8
BEZUGSACHSEN
100
AcDbLine
 62
7
  6
CONTINUOUS
 10
165.2140485924
 20
61.4967721707
 11
165.2140485924
 21
46.836991991
  0
LINE
  5
3BA
100
AcDbEntity
  8
RUNDUNGEN
100
AcDbLine
 62
7
  6
CONTINUOUS
 10
165.2140485924
 20
110.509030391
 11
165.2140485924
 21
46.836991991
  0
LINE
  5
3BB
100
AcDbEntity
  8
BEZUGSACHSEN
100
AcDbLine
 62
7
  6
CONTINUOUS
 10
170.1666361244
 20
88.4592365369
 11
170.1666361244
 21
91.8794379701
  0
LINE
  5
3BC
100
AcDbEntity
  8
BEZUGSACHSEN
100
AcDbLine
 62
7
  6
CONTINUOUS
 10
171.2140485924
 20
100.4982802957
 11
171.2140485924
 21
96.5192327778
  0
LINE
  5
3BD
100
AcDbEntity
  8
KONSTRUKTIONSELEMENTE
100
AcDbLine
 62
7
  6
CONTINUOUS
 10
171.2222300983
 20
60.1060227645
 11
171.2222300983
 21
55.7758957456
  0
LINE
  5
3BE
100
AcDbEntity
  8
BEZUGSACHSEN
100
AcDbLine
 62
7
  6
CONTINUOUS
 10
179.2140485924
 20
126.6704427524
 11
179.2140485924
 21
130.6494902704
  0
LINE
  5
3BF
100
AcDbEntity
  8
0
100
AcDbLine
 62
7
  6
CONTINUOUS
 10
179.2140485924
 20
130.6494902704
 11
179.2140485924
 21
163.5175077691
  0
LINE
  5
3C0
100
AcDbEntity
  8
RUNDUNGEN
100
AcDbLine
 62
7
  6
CONTINUOUS
 10
170.1666361244
 20
91.8794379701
 11
170.4809103603
 21
94.5207323598
  0
LINE
  5
3C1
100
AcDbEntity
  8
RUNDUNGEN
100
AcDbLine
 62
7
  6
CONTINUOUS
 10
170.7233009867
 20
96.5214336806
 11
171.2140485924
 21
100.4982802957
  0
LINE
  5
3C2
100
AcDbEntity
  8
BEZUGSACHSEN
100
AcDbLine
 62
7
  6
CONTINUOUS
 10
170.7233009867
 20
92.6814883483
 11
171.2140485924
 21
96.5192327778
  0
LINE
  5
3C3
100
AcDbEntity
  8
BEZUGSACHSEN
100
AcDbLine
 62
7
  6
CONTINUOUS
 10
170.1666361244
 20
88.4592365369
 11
170.4809103603
 21
90.8223978007
  0
LINE
  5
3C4
100
AcDbEntity
  8
KONSTRUKTIONSELEMENTE
100
AcDbLine
 62
7
  6
CONTINUOUS
 10
205.0365568442
 20
112.8536511192
 11
205.0365568442
 21
108.5235241002
  0
LINE
  5
3C5
100
AcDbEntity
  8
0
100
AcDbLine
 62
7
  6
CONTINUOUS
 10
171.2140485924
 20
100.4982802957
 11
179.2140485924
 21
130.6494902704
  0
LINE
  5
3C6
100
AcDbEntity
  8
BEZUGSACHSEN
100
AcDbLine
 62
7
  6
CONTINUOUS
 10
171.2140485924
 20
96.5192327778
 11
179.2140485924
 21
126.6704427524
  0
LINE
  5
3C7
100
AcDbEntity
  8
RUNDUNGEN
100
AcDbLine
 62
7
  6
CONTINUOUS
 10
170.1666361244
 20
91.8794379701
 11
168.6622698513
 21
89.4309384003
  0
LINE
  5
3C8
100
AcDbEntity
  8
BEZUGSACHSEN
100
AcDbLine
 62
7
  6
CONTINUOUS
 10
170.1666361244
 20
88.4592365369
 11
168.6622698513
 21
86.0107369671
  0
LINE
  5
3C9
100
AcDbEntity
  8
KONSTRUKTIONSELEMENTE
100
AcDbLine
 62
7
  6
CONTINUOUS
 10
170.3689279041
 20
89.9803542202
 11
179.6066577218
 21
104.1957587106
  0
LINE
  5
3CA
100
AcDbEntity
  8
KONSTRUKTIONSELEMENTE
100
AcDbLine
 62
7
  6
CONTINUOUS
 10
170.7113797169
 20
54.910585621
 11
171.1732866146
 21
55.6213872484
  0
LINE
  5
3CB
100
AcDbEntity
  8
KONSTRUKTIONSELEMENTE
100
AcDbLine
 62
7
  6
CONTINUOUS
 10
203.9290880184
 20
106.0273826121
 11
204.5471220071
 21
106.9784391284
  0
LINE
  5
3CC
100
AcDbEntity
  8
BEZUGSACHSEN
100
AcDbLine
 62
7
  6
CONTINUOUS
 10
164.1321739079
 20
44.5303071049
 11
164.1324372522
 21
44.5305260911
  0
LINE
  5
3CD
100
AcDbEntity
  8
BEZUGSACHSEN
100
AcDbLine
 62
7
  6
CONTINUOUS
 10
163.3190095896
 20
43.8651597137
 11
164.1323573999
 21
44.5304599799
  0
LINE
  5
3CE
100
AcDbEntity
  8
BEZUGSACHSEN
100
AcDbLine
 62
7
  6
CONTINUOUS
 10
162.3841006294
 20
43.1297008239
 11
163.3326025075
 21
43.8760909253
  0
LINE
  5
3CF
100
AcDbEntity
  8
BEZUGSACHSEN
100
AcDbLine
 62
7
  6
CONTINUOUS
 10
161.4932360625
 20
42.4614507428
 11
162.3963377391
 21
43.1391103494
  0
LINE
  5
3D0
100
AcDbEntity
  8
BEZUGSACHSEN
100
AcDbLine
 62
7
  6
CONTINUOUS
 10
160.6457768967
 20
41.8592144667
 11
161.5040877505
 21
42.4693831852
  0
LINE
  5
3D1
100
AcDbEntity
  8
BEZUGSACHSEN
100
AcDbLine
 62
7
  6
CONTINUOUS
 10
159.8410880616
 20
41.3219177994
 11
160.6552664553
 21
41.8657608967
  0
LINE
  5
3D2
100
AcDbEntity
  8
BEZUGSACHSEN
100
AcDbLine
 62
7
  6
CONTINUOUS
 10
159.0766364933
 20
40.8474237413
 11
159.8492714342
 21
41.3271958575
  0
LINE
  5
3D3
100
AcDbEntity
  8
BEZUGSACHSEN
100
AcDbLine
 62
7
  6
CONTINUOUS
 10
158.3498256964
 20
40.4339651245
 11
159.0835981215
 21
40.8515707247
  0
LINE
  5
3D4
100
AcDbEntity
  8
BEZUGSACHSEN
100
AcDbLine
 62
7
  6
CONTINUOUS
 10
157.6558691888
 20
40.0791252845
 11
158.3556752551
 21
40.4371305783
  0
LINE
  5
3D5
100
AcDbEntity
  8
BEZUGSACHSEN
100
AcDbLine
 62
7
  6
CONTINUOUS
 10
156.9898120956
 20
39.7813577395
 11
157.6607235059
 21
40.0814571956
  0
LINE
  5
3D6
100
AcDbEntity
  8
BEZUGSACHSEN
100
AcDbLine
 62
7
  6
CONTINUOUS
 10
156.3436119009
 20
39.5391236637
 11
156.9937975989
 21
39.7830023066
  0
ARC
  5
3D7
100
AcDbEntity
  8
BEZUGSACHSEN
100
AcDbCircle
 62
7
  6
CONTINUOUS
 10
166.1766750368
 20
-362.5658735242
 40
775.8174039262
100
AcDbArc
 50
44.9861441167
 51
45.1236231297
  0
ARC
  5
3D8
100
AcDbEntity
  8
BEZUGSACHSEN
100
AcDbCircle
 62
7
  6
CONTINUOUS
 10
582.6223321016
 20
-248.7773407905
 40
442.0121709947
100
AcDbArc
 50
71.862981086
 51
72.088110011
  0
ARC
  5
3D9
100
AcDbEntity
  8
BEZUGSACHSEN
100
AcDbCircle
 62
7
  6
CONTINUOUS
 10
599.9703874832
 20
-203.8592054945
 40
394.5513514214
100
AcDbArc
 50
72.4307241444
 51
72.5715256485
  0
ARC
  5
3DA
100
AcDbEntity
  8
BEZUGSACHSEN
100
AcDbCircle
 62
7
  6
CONTINUOUS
 10
432.2810735833
 20
-35.1711327502
 40
356.792536938
100
AcDbArc
 50
37.0840682834
 51
37.2302838169
  0
ARC
  5
3DB
100
AcDbEntity
  8
BEZUGSACHSEN
100
AcDbCircle
 62
7
  6
CONTINUOUS
 10
447.3404495364
 20
-29.9404956448
 40
340.3096121202
100
AcDbArc
 50
37.2060854353
 51
37.3573437198
  0
ARC
  5
3DC
100
AcDbEntity
  8
0
100
AcDbCircle
 62
7
  6
CONTINUOUS
 10
483.5559805281
 20
16.6555842928
 40
285.4256092422
100
AcDbArc
 50
37.6918206165
 51
37.8580735889
  0
ARC
  5
3DD
100
AcDbEntity
  8
BEZUGSACHSEN
100
AcDbCircle
 62
7
  6
CONTINUOUS
 10
490.400604743
 20
22.0443467705
 40
277.5191139721
100
AcDbArc
 50
37.6224835927
 51
37.7934091407
  0
ARC
  5
3DE
100
AcDbEntity
  8
BEZUGSACHSEN
100
AcDbCircle
 62
7
  6
CONTINUOUS
 10
560.3926646869
 20
23.3645822649
 40
224.7440069228
100
AcDbArc
 50
48.0572912711
 51
48.1954017735
  0
ARC
  5
3DF
100
AcDbEntity
  8
KONSTRUKTIONSELEMENTE
100
AcDbCircle
 62
7
  6
CONTINUOUS
 10
458.3444787866
 20
126.6457341023
 40
11.55
100
AcDbArc
 50
222.5041463713
 51
300.0
  0
ARC
  5
3E0
100
AcDbEntity
  8
KONSTRUKTIONSELEMENTE
100
AcDbCircle
 62
7
  6
CONTINUOUS
 10
458.3444787866
 20
126.6457341023
 40
11.55
100
AcDbArc
 50
120.0
 51
197.4958536287
  0
ARC
  5
3E1
100
AcDbEntity
  8
KONSTRUKTIONSELEMENTE
100
AcDbCircle
 62
7
  6
CONTINUOUS
 10
458.3444787866
 20
126.6457341023
 40
4.55
100
AcDbArc
 50
243.4100243465
 51
300.0
  0
ARC
  5
3E2
100
AcDbEntity
  8
KONSTRUKTIONSELEMENTE
100
AcDbCircle
 62
7
  6
CONTINUOUS
 10
458.3444787866
 20
126.6457341023
 40
4.55
100
AcDbArc
 50
120.0
 51
176.5899756535
  0
ARC
  5
3E3
100
AcDbEntity
  8
KONSTRUKTIONSELEMENTE
100
AcDbCircle
 62
7
  6
CONTINUOUS
 10
468.6501810917
 20
132.5957341023
 40
11.55
100
AcDbArc
 50
46.1105804865
 51
120.0
  0
ARC
  5
3E4
100
AcDbEntity
  8
KONSTRUKTIONSELEMENTE
100
AcDbCircle
 62
7
  6
CONTINUOUS
 10
468.6501810917
 20
132.5957341023
 40
11.55
100
AcDbArc
 50
300.0
 51
13.8894195135
  0
ARC
  5
3E5
100
AcDbEntity
  8
KONSTRUKTIONSELEMENTE
100
AcDbCircle
 62
7
  6
CONTINUOUS
 10
491.2967454006
 20
145.6707341023
 40
10.2
100
AcDbArc
 50
120.0
 51
191.7018290247
  0
ARC
  5
3E6
100
AcDbEntity
  8
KONSTRUKTIONSELEMENTE
100
AcDbCircle
 62
7
  6
CONTINUOUS
 10
491.2967454006
 20
145.6707341023
 40
10.2
100
AcDbArc
 50
228.2981709753
 51
300.0
  0
ARC
  5
3E7
100
AcDbEntity
  8
KONSTRUKTIONSELEMENTE
100
AcDbCircle
 62
7
  6
CONTINUOUS
 10
500.3034096
 20
150.8707341023
 40
10.2
100
AcDbArc
 50
300.0
 51
11.7018290247
  0
ARC
  5
3E8
100
AcDbEntity
  8
KONSTRUKTIONSELEMENTE
100
AcDbCircle
 62
7
  6
CONTINUOUS
 10
500.3034096
 20
150.8707341023
 40
10.2
100
AcDbArc
 50
48.2981709753
 51
120.0
  0
ARC
  5
3E9
100
AcDbEntity
  8
KONSTRUKTIONSELEMENTE
100
AcDbCircle
 62
7
  6
CONTINUOUS
 10
468.6501810917
 20
132.5957341023
 40
4.55
100
AcDbArc
 50
74.7094363532
 51
120.0
  0
ARC
  5
3EA
100
AcDbEntity
  8
KONSTRUKTIONSELEMENTE
100
AcDbCircle
 62
7
  6
CONTINUOUS
 10
468.6501810917
 20
132.5957341023
 40
4.55
100
AcDbArc
 50
300.0
 51
345.2905636468
  0
ARC
  5
3EB
100
AcDbEntity
  8
KONSTRUKTIONSELEMENTE
100
AcDbCircle
 62
7
  6
CONTINUOUS
 10
491.2967454006
 20
145.6707341023
 40
3.8
100
AcDbArc
 50
120.0
 51
152.6253590191
  0
ARC
  5
3EC
100
AcDbEntity
  8
KONSTRUKTIONSELEMENTE
100
AcDbCircle
 62
7
  6
CONTINUOUS
 10
491.2967454006
 20
145.6707341023
 40
3.8
100
AcDbArc
 50
267.3746409809
 51
300.0
  0
ARC
  5
3ED
100
AcDbEntity
  8
KONSTRUKTIONSELEMENTE
100
AcDbCircle
 62
7
  6
CONTINUOUS
 10
500.3034096
 20
150.8707341023
 40
3.8
100
AcDbArc
 50
300.0
 51
332.6253590191
  0
ARC
  5
3EE
100
AcDbEntity
  8
KONSTRUKTIONSELEMENTE
100
AcDbCircle
 62
7
  6
CONTINUOUS
 10
500.3034096
 20
150.8707341023
 40
3.8
100
AcDbArc
 50
87.3746409809
 51
120.0
  0
ARC
  5
3EF
100
AcDbEntity
  8
KONSTRUKTIONSELEMENTE
100
AcDbCircle
 62
7
  6
CONTINUOUS
 10
490.7771301584
 20
145.3707341023
 40
3.2
100
AcDbArc
 50
300.0
 51
120.0
  0
ARC
  5
3F0
100
AcDbEntity
  8
KONSTRUKTIONSELEMENTE
100
AcDbCircle
 62
7
  6
CONTINUOUS
 10
469.646110306
 20
133.1707341023
 40
3.2
100
AcDbArc
 50
120.0
 51
300.0
  0
ARC
  5
3F1
100
AcDbEntity
  8
KONSTRUKTIONSELEMENTE
100
AcDbCircle
 62
7
  6
CONTINUOUS
 10
500.8230248423
 20
151.1707341023
 40
3.2
100
AcDbArc
 50
120.0
 51
300.0
  0
ARC
  5
3F2
100
AcDbEntity
  8
KONSTRUKTIONSELEMENTE
100
AcDbCircle
 62
7
  6
CONTINUOUS
 10
533.6020863755
 20
170.0957341023
 40
11.55
100
AcDbArc
 50
50.2810606849
 51
120.0
  0
ARC
  5
3F3
100
AcDbEntity
  8
KONSTRUKTIONSELEMENTE
100
AcDbCircle
 62
7
  6
CONTINUOUS
 10
533.6020863755
 20
170.0957341023
 40
11.55
100
AcDbArc
 50
300.0
 51
9.7189393151
  0
ARC
  5
3F4
100
AcDbEntity
  8
KONSTRUKTIONSELEMENTE
100
AcDbCircle
 62
7
  6
CONTINUOUS
 10
523.2963840705
 20
164.1457341023
 40
11.55
100
AcDbArc
 50
226.1105804865
 51
300.0
  0
ARC
  5
3F5
100
AcDbEntity
  8
KONSTRUKTIONSELEMENTE
100
AcDbCircle
 62
7
  6
CONTINUOUS
 10
523.2963840705
 20
164.1457341023
 40
11.55
100
AcDbArc
 50
120.0
 51
193.8894195135
  0
ARC
  5
3F6
100
AcDbEntity
  8
KONSTRUKTIONSELEMENTE
100
AcDbCircle
 62
7
  6
CONTINUOUS
 10
533.6020863755
 20
170.0957341023
 40
4.55
100
AcDbArc
 50
91.6976500586
 51
120.0
  0
ARC
  5
3F7
100
AcDbEntity
  8
KONSTRUKTIONSELEMENTE
100
AcDbCircle
 62
7
  6
CONTINUOUS
 10
533.6020863755
 20
170.0957341023
 40
4.55
100
AcDbArc
 50
300.0
 51
328.3023499414
  0
ARC
  5
3F8
100
AcDbEntity
  8
KONSTRUKTIONSELEMENTE
100
AcDbCircle
 62
7
  6
CONTINUOUS
 10
523.2963840705
 20
164.1457341023
 40
4.55
100
AcDbArc
 50
254.7094363532
 51
300.0
  0
ARC
  5
3F9
100
AcDbEntity
  8
KONSTRUKTIONSELEMENTE
100
AcDbCircle
 62
7
  6
CONTINUOUS
 10
523.2963840705
 20
164.1457341023
 40
4.55
100
AcDbArc
 50
120.0
 51
165.2905636468
  0
ARC
  5
3FA
100
AcDbEntity
  8
KONSTRUKTIONSELEMENTE
100
AcDbCircle
 62
7
  6
CONTINUOUS
 10
533.6453876457
 20
170.1207341023
 40
4.0
100
AcDbArc
 50
120.0
 51
300.0
  0
ARC
  5
3FB
100
AcDbEntity
  8
KONSTRUKTIONSELEMENTE
100
AcDbCircle
 62
7
  6
CONTINUOUS
 10
521.9540446946
 20
163.3707341023
 40
3.2
100
AcDbArc
 50
300.0
 51
120.0
  0
ARC
  5
3FC
100
AcDbEntity
  8
0
100
AcDbCircle
 62
7
  6
CONTINUOUS
 10
535.7956617806
 20
52.2205145795
 40
219.5067768405
100
AcDbArc
 50
34.1506992873
 51
34.293379076
  0
ARC
  5
3FD
100
AcDbEntity
  8
0
100
AcDbCircle
 62
7
  6
CONTINUOUS
 10
537.8835126518
 20
57.4977818968
 40
215.9243869469
100
AcDbArc
 50
34.4679174276
 51
34.6108708485
  0
ARC
  5
3FE
100
AcDbEntity
  8
BEZUGSACHSEN
100
AcDbCircle
 62
7
  6
CONTINUOUS
 10
543.2092893922
 20
58.0172747439
 40
210.8502831508
100
AcDbArc
 50
33.927937575
 51
34.0763318525
  0
ARC
  5
3FF
100
AcDbEntity
  8
BEZUGSACHSEN
100
AcDbCircle
 62
7
  6
CONTINUOUS
 10
544.9477518639
 20
62.9433381536
 40
207.782405106
100
AcDbArc
 50
34.2780893703
 51
34.4265195342
  0
ARC
  5
400
100
AcDbEntity
  8
BEZUGSACHSEN
100
AcDbCircle
 62
7
  6
CONTINUOUS
 10
558.140546986
 20
59.8893320789
 40
201.7870141639
100
AcDbArc
 50
41.3951637352
 51
41.5683932464
  0
ARC
  5
401
100
AcDbEntity
  8
BEZUGSACHSEN
100
AcDbCircle
 62
7
  6
CONTINUOUS
 10
563.7855491619
 20
76.8512797703
 40
181.6327219799
100
AcDbArc
 50
31.8056521761
 51
32.0119034053
  0
ARC
  5
402
100
AcDbEntity
  8
BEZUGSACHSEN
100
AcDbCircle
 62
7
  6
CONTINUOUS
 10
581.7007022945
 20
72.2394909322
 40
175.9099240189
100
AcDbArc
 50
42.3937106237
 51
42.7614441707
  0
ARC
  5
403
100
AcDbEntity
  8
BEZUGSACHSEN
100
AcDbCircle
 62
7
  6
CONTINUOUS
 10
596.2078283667
 20
60.6039532848
 40
172.8883208971
100
AcDbArc
 50
46.8085933413
 51
47.0075287939
  0
ARC
  5
404
100
AcDbEntity
  8
BEZUGSACHSEN
100
AcDbCircle
 62
7
  6
CONTINUOUS
 10
592.8193970496
 20
82.3853743981
 40
160.8578685
100
AcDbArc
 50
41.9373007756
 51
42.3827997261
  0
ARC
  5
405
100
AcDbEntity
  8
BEZUGSACHSEN
100
AcDbCircle
 62
7
  6
CONTINUOUS
 10
582.3652700098
 20
90.5833519721
 40
160.5304576638
100
AcDbArc
 50
31.8488621734
 51
32.0790096096
  0
ARC
  5
406
100
AcDbEntity
  8
BEZUGSACHSEN
100
AcDbCircle
 62
7
  6
CONTINUOUS
 10
588.8241186076
 20
97.8111549274
 40
152.1735368844
100
AcDbArc
 50
32.5110087753
 51
32.6769172621
  0
ARC
  5
407
100
AcDbEntity
  8
BEZUGSACHSEN
100
AcDbCircle
 62
7
  6
CONTINUOUS
 10
603.9065074452
 20
86.105588096
 40
150.1336024242
100
AcDbArc
 50
45.1263879292
 51
45.3522323603
  0
ARC
  5
408
100
AcDbEntity
  8
BEZUGSACHSEN
100
AcDbCircle
 62
7
  6
CONTINUOUS
 10
591.2013951845
 20
103.522657341
 40
148.069335053
100
AcDbArc
 50
36.3925336289
 51
36.5644396966
  0
ARC
  5
409
100
AcDbEntity
  8
0
100
AcDbCircle
 62
7
  6
CONTINUOUS
 10
589.5386321318
 20
101.5698668418
 40
145.9300184989
100
AcDbArc
 50
28.935017451
 51
29.1070874635
  0
ARC
  5
40A
100
AcDbEntity
  8
BEZUGSACHSEN
100
AcDbCircle
 62
7
  6
CONTINUOUS
 10
605.3303138072
 20
93.6062723774
 40
144.0521462104
100
AcDbArc
 50
41.3777430779
 51
41.8361032678
  0
ARC
  5
40B
100
AcDbEntity
  8
BEZUGSACHSEN
100
AcDbCircle
 62
7
  6
CONTINUOUS
 10
593.0374351422
 20
104.2164558758
 40
142.2984256207
100
AcDbArc
 50
28.6391103676
 51
28.8154305622
  0
ARC
  5
40C
100
AcDbEntity
  8
BEZUGSACHSEN
100
AcDbCircle
 62
7
  6
CONTINUOUS
 10
610.0745081003
 20
117.4228119971
 40
124.5646535542
100
AcDbArc
 50
34.6174319648
 51
34.8644603336
  0
ARC
  5
40D
100
AcDbEntity
  8
BEZUGSACHSEN
100
AcDbCircle
 62
7
  6
CONTINUOUS
 10
608.8086158462
 20
68.4108267387
 40
29.25
100
AcDbArc
 50
195.2714609134
 51
308.1434935435
  0
ARC
  5
40E
100
AcDbEntity
  8
RUNDUNGEN
100
AcDbCircle
 62
7
  6
CONTINUOUS
 10
608.8086158462
 20
68.4108267387
 40
29.25
100
AcDbArc
 50
191.8565064565
 51
195.2714609134
  0
ARC
  5
40F
100
AcDbEntity
  8
RUNDUNGEN
100
AcDbCircle
 62
7
  6
CONTINUOUS
 10
600.0070962379
 20
85.1621119603
 40
15.0
100
AcDbArc
 50
129.9999999942
 51
160.0000000123
  0
ARC
  5
410
100
AcDbEntity
  8
RUNDUNGEN
100
AcDbCircle
 62
7
  6
CONTINUOUS
 10
586.8224112708
 20
113.2610663472
 40
14.9999696833
100
AcDbArc
 50
309.9996911962
 51
339.9997325674
  0
CIRCLE
  5
411
100
AcDbEntity
  8
0
100
AcDbCircle
 62
7
  6
CONTINUOUS
 10
608.8086158462
 20
68.4108267387
 40
12.25
  0
ARC
  5
412
100
AcDbEntity
  8
RUNDUNGEN
100
AcDbCircle
 62
7
  6
CONTINUOUS
 10
583.751363522
 20
69.7378973884
 40
5.0
100
AcDbArc
 50
160.0
 51
191.8565064556
  0
ARC
  5
413
100
AcDbEntity
  8
RUNDUNGEN
100
AcDbCircle
 62
7
  6
CONTINUOUS
 10
609.5589685765
 20
117.2532743245
 40
5.0
100
AcDbArc
 50
87.2214708243
 51
160.0
  0
ARC
  5
414
100
AcDbEntity
  8
KONSTRUKTIONSELEMENTE
100
AcDbCircle
 62
7
  6
CONTINUOUS
 10
601.1953691409
 20
209.1207341023
 40
4.0
100
AcDbArc
 50
300.0
 51
120.0
  0
ARC
  5
415
100
AcDbEntity
  8
BEZUGSACHSEN
100
AcDbCircle
 62
7
  6
CONTINUOUS
 10
1065.0252502735
 20
-153.5120275397
 40
546.744398095
100
AcDbArc
 50
140.8200440037
 51
140.9432689259
  0
ARC
  5
416
100
AcDbEntity
  8
BEZUGSACHSEN
100
AcDbCircle
 62
7
  6
CONTINUOUS
 10
1062.050527326
 20
11.2380275631
 40
460.4573909405
100
AcDbArc
 50
159.7092162265
 51
159.8680954751
  0
ARC
  5
417
100
AcDbEntity
  8
0
100
AcDbCircle
 62
7
  6
CONTINUOUS
 10
864.3474014428
 20
-8.534916307
 40
290.622940954
100
AcDbArc
 50
142.5241655991
 51
142.7667382016
  0
ARC
  5
418
100
AcDbEntity
  8
0
100
AcDbCircle
 62
7
  6
CONTINUOUS
 10
864.3540290079
 20
17.7798828478
 40
282.1611838969
100
AcDbArc
 50
141.8532329653
 51
141.9778591166
  0
ARC
  5
419
100
AcDbEntity
  8
BEZUGSACHSEN
100
AcDbCircle
 62
7
  6
CONTINUOUS
 10
854.0366985538
 20
0.4106338165
 40
277.6518666
100
AcDbArc
 50
142.7369976764
 51
142.990602385
  0
ARC
  5
41A
100
AcDbEntity
  8
BEZUGSACHSEN
100
AcDbCircle
 62
7
  6
CONTINUOUS
 10
857.8155465248
 20
22.9305922408
 40
274.6434653028
100
AcDbArc
 50
141.9108261581
 51
142.0388204849
  0
ARC
  5
41B
100
AcDbEntity
  8
0
100
AcDbCircle
 62
7
  6
CONTINUOUS
 10
623.66021929
 20
126.3622910827
 40
105.8582150949
100
AcDbArc
 50
27.341659114
 51
27.624054525
  0
ARC
  5
41C
100
AcDbEntity
  8
BEZUGSACHSEN
100
AcDbCircle
 62
7
  6
CONTINUOUS
 10
626.3184896199
 20
75.5855479472
 40
15.0
100
AcDbArc
 50
340.0
 51
10.0
  0
ARC
  5
41D
100
AcDbEntity
  8
BEZUGSACHSEN
100
AcDbCircle
 62
7
  6
CONTINUOUS
 10
654.4802039982
 20
88.6356436782
 40
14.9999696833
100
AcDbArc
 50
160.0002674326
 51
190.0003088038
  0
ARC
  5
41E
100
AcDbEntity
  8
BEZUGSACHSEN
100
AcDbCircle
 62
7
  6
CONTINUOUS
 10
628.8566093197
 20
53.3209305088
 40
5.0
100
AcDbArc
 50
308.1434935435
 51
340.0
  0
ARC
  5
41F
100
AcDbEntity
  8
BEZUGSACHSEN
100
AcDbCircle
 62
7
  6
CONTINUOUS
 10
639.6291324416
 20
106.3086297381
 40
5.0
100
AcDbArc
 50
340.0
 51
52.7785291757
  0
ARC
  5
420
100
AcDbEntity
  8
BEZUGSACHSEN
100
AcDbCircle
 62
7
  6
CONTINUOUS
 10
626.3490298517
 20
128.307347812
 40
103.3231706786
100
AcDbArc
 50
27.0151511939
 51
27.3042656414
  0
ARC
  5
421
100
AcDbEntity
  8
0
100
AcDbCircle
 62
7
  6
CONTINUOUS
 10
627.6949745037
 20
134.7453260373
 40
99.2654778586
100
AcDbArc
 50
35.0999707685
 51
35.3737685254
  0
ARC
  5
422
100
AcDbEntity
  8
BEZUGSACHSEN
100
AcDbCircle
 62
7
  6
CONTINUOUS
 10
630.2165466529
 20
136.4805678041
 40
97.0209196065
100
AcDbArc
 50
34.9877900831
 51
35.267777412
  0
ARC
  5
423
100
AcDbEntity
  8
BEZUGSACHSEN
100
AcDbCircle
 62
7
  6
CONTINUOUS
 10
639.9721885929
 20
131.6102626554
 40
92.9285915018
100
AcDbArc
 50
36.7873438781
 51
36.9278038593
  0
ARC
  5
424
100
AcDbEntity
  8
BEZUGSACHSEN
100
AcDbCircle
 62
7
  6
CONTINUOUS
 10
636.117905847
 20
134.6013092104
 40
92.0867123279
100
AcDbArc
 50
26.0893695057
 51
26.2235765118
  0
ARC
  5
425
100
AcDbEntity
  8
0
100
AcDbCircle
 62
7
  6
CONTINUOUS
 10
635.9674487397
 20
136.4558973718
 40
90.8808420053
100
AcDbArc
 50
28.1090686406
 51
28.4129117728
  0
ARC
  5
426
100
AcDbEntity
  8
0
100
AcDbCircle
 62
7
  6
CONTINUOUS
 10
630.4108759588
 20
141.8450548748
 40
90.672850091
100
AcDbArc
 50
18.6435106131
 51
20.3566300269
  0
ARC
  5
427
100
AcDbEntity
  8
BEZUGSACHSEN
100
AcDbCircle
 62
7
  6
CONTINUOUS
 10
631.515833389
 20
142.8600074923
 40
90.0024809991
100
AcDbArc
 50
18.266698339
 51
19.7663039672
  0
ARC
  5
428
100
AcDbEntity
  8
BEZUGSACHSEN
100
AcDbCircle
 62
7
  6
CONTINUOUS
 10
631.7823497052
 20
142.9541671553
 40
89.7198245442
100
AcDbArc
 50
19.7672746092
 51
19.9943959487
  0
ARC
  5
429
100
AcDbEntity
  8
BEZUGSACHSEN
100
AcDbCircle
 62
7
  6
CONTINUOUS
 10
638.4796276067
 20
138.1970082858
 40
88.6232975851
100
AcDbArc
 50
27.809793845
 51
28.1211479234
  0
ARC
  5
42A
100
AcDbEntity
  8
BEZUGSACHSEN
100
AcDbCircle
 62
7
  6
CONTINUOUS
 10
633.5686997481
 20
143.1050481658
 40
88.3162920824
100
AcDbArc
 50
18.6747183434
 51
20.0671393568
  0
ARC
  5
42B
100
AcDbEntity
  8
0
100
AcDbCircle
 62
7
  6
CONTINUOUS
 10
638.1714692231
 20
142.6691043977
 40
84.4052121748
100
AcDbArc
 50
20.0958485527
 51
20.4600800798
  0
ARC
  5
42C
100
AcDbEntity
  8
0
100
AcDbCircle
 62
7
  6
CONTINUOUS
 10
638.1858979801
 20
142.6743845797
 40
84.3898476263
100
AcDbArc
 50
19.7315685973
 51
20.0958477926
  0
ARC
  5
42D
100
AcDbEntity
  8
BEZUGSACHSEN
100
AcDbCircle
 62
7
  6
CONTINUOUS
 10
639.309934874
 20
143.6946822674
 40
83.6997073536
100
AcDbArc
 50
18.6015515896
 51
20.070787859
  0
ARC
  5
42E
100
AcDbEntity
  8
BEZUGSACHSEN
100
AcDbCircle
 62
7
  6
CONTINUOUS
 10
641.5065828606
 20
143.8964240646
 40
81.9585843206
100
AcDbArc
 50
18.5703498468
 51
19.3215898177
  0
ARC
  5
42F
100
AcDbEntity
  8
BEZUGSACHSEN
100
AcDbCircle
 62
7
  6
CONTINUOUS
 10
641.7030327595
 20
143.9649922208
 40
81.7505120529
100
AcDbArc
 50
19.321795333
 51
19.9145883918
  0
ARC
  5
430
100
AcDbEntity
  8
BEZUGSACHSEN
100
AcDbCircle
 62
7
  6
CONTINUOUS
 10
647.9174560146
 20
148.0553428101
 40
75.946241229
100
AcDbArc
 50
32.1775690319
 51
32.4174645608
  0
ARC
  5
431
100
AcDbEntity
  8
BEZUGSACHSEN
100
AcDbCircle
 62
7
  6
CONTINUOUS
 10
649.1705563699
 20
144.5971754815
 40
75.8893848039
100
AcDbArc
 50
17.93595601
 51
18.4478840232
  0
ARC
  5
432
100
AcDbEntity
  8
0
100
AcDbCircle
 62
7
  6
CONTINUOUS
 10
645.4748770299
 20
153.4320209213
 40
72.5543725682
100
AcDbArc
 50
20.9591581916
 51
21.4375688229
  0
ARC
  5
433
100
AcDbEntity
  8
0
100
AcDbCircle
 62
7
  6
CONTINUOUS
 10
645.4727080244
 20
153.4379803449
 40
72.5543725237
100
AcDbArc
 50
18.562431177
 51
19.0408420367
  0
ARC
  5
434
100
AcDbEntity
  8
BEZUGSACHSEN
100
AcDbCircle
 62
7
  6
CONTINUOUS
 10
646.6159917473
 20
154.3458269924
 40
71.9210091686
100
AcDbArc
 50
18.1815102149
 51
18.664211465
  0
ARC
  5
435
100
AcDbEntity
  8
BEZUGSACHSEN
100
AcDbCircle
 62
7
  6
CONTINUOUS
 10
646.8797292123
 20
154.4330292374
 40
71.6432850696
100
AcDbArc
 50
20.6033207391
 51
21.0877621356
  0
ARC
  5
436
100
AcDbEntity
  8
BEZUGSACHSEN
100
AcDbCircle
 62
7
  6
CONTINUOUS
 10
648.6604926808
 20
178.4102659015
 40
14.7101901458
100
AcDbArc
 50
142.5012702566
 51
143.4629454596
  0
ARC
  5
437
100
AcDbEntity
  8
BEZUGSACHSEN
100
AcDbCircle
 62
7
  6
CONTINUOUS
 10
648.5844099868
 20
180.0435524483
 40
13.7352990415
100
AcDbArc
 50
149.4628098185
 51
150.1730847924
  0
ARC
  5
438
100
AcDbEntity
  8
BEZUGSACHSEN
100
AcDbCircle
 62
7
  6
CONTINUOUS
 10
643.8619688936
 20
173.0476777184
 40
12.1500793103
100
AcDbArc
 50
143.5462414171
 51
152.4209813626
  0
ARC
  5
439
100
AcDbEntity
  8
BEZUGSACHSEN
100
AcDbCircle
 62
7
  6
CONTINUOUS
 10
644.0491207991
 20
173.9007446995
 40
12.03556476
100
AcDbArc
 50
156.4749067327
 51
159.6591939227
  0
ARC
  5
43A
100
AcDbEntity
  8
BEZUGSACHSEN
100
AcDbCircle
 62
7
  6
CONTINUOUS
 10
643.7524157046
 20
173.1242642835
 40
12.0164564391
100
AcDbArc
 50
139.0928330514
 51
143.529589959
  0
ARC
  5
43B
100
AcDbEntity
  8
BEZUGSACHSEN
100
AcDbCircle
 62
7
  6
CONTINUOUS
 10
644.0307224977
 20
173.9085736796
 40
12.0155706855
100
AcDbArc
 50
156.1903704433
 51
156.4741179476
  0
ARC
  5
43C
100
AcDbEntity
  8
BEZUGSACHSEN
100
AcDbCircle
 62
7
  6
CONTINUOUS
 10
647.358895175
 20
180.1744575087
 40
12.0
100
AcDbArc
 50
147.2780777927
 51
160.0
  0
ARC
  5
43D
100
AcDbEntity
  8
BEZUGSACHSEN
100
AcDbCircle
 62
7
  6
CONTINUOUS
 10
646.1707610108
 20
179.8643982993
 40
11.9893651551
100
AcDbArc
 50
138.9932544135
 51
140.5661643542
  0
ARC
  5
43E
100
AcDbEntity
  8
BEZUGSACHSEN
100
AcDbCircle
 62
7
  6
CONTINUOUS
 10
646.2798815189
 20
180.1720834146
 40
11.9867146033
100
AcDbArc
 50
138.9903160704
 51
140.5957621017
  0
ARC
  5
43F
100
AcDbEntity
  8
BEZUGSACHSEN
100
AcDbCircle
 62
7
  6
CONTINUOUS
 10
643.9670311034
 20
173.9373950982
 40
11.9456647873
100
AcDbArc
 50
147.8888212978
 51
156.1935184137
  0
ARC
  5
440
100
AcDbEntity
  8
BEZUGSACHSEN
100
AcDbCircle
 62
7
  6
CONTINUOUS
 10
643.875612466
 20
173.9909130333
 40
11.8397837857
100
AcDbArc
 50
138.8822454595
 51
147.8730251045
  0
ARC
  5
441
100
AcDbEntity
  8
BEZUGSACHSEN
100
AcDbCircle
 62
7
  6
CONTINUOUS
 10
649.4832467071
 20
184.8337471853
 40
11.3007391926
100
AcDbArc
 50
158.7951638211
 51
161.7812472031
  0
ARC
  5
442
100
AcDbEntity
  8
BEZUGSACHSEN
100
AcDbCircle
 62
7
  6
CONTINUOUS
 10
648.698870978
 20
184.2583170561
 40
11.0871685466
100
AcDbArc
 50
158.7719541223
 51
161.8155729313
  0
ARC
  5
443
100
AcDbEntity
  8
BEZUGSACHSEN
100
AcDbCircle
 62
7
  6
CONTINUOUS
 10
643.7475080188
 20
177.2076041352
 40
10.6321020394
100
AcDbArc
 50
137.5185026411
 51
138.6222455835
  0
ARC
  5
444
100
AcDbEntity
  8
BEZUGSACHSEN
100
AcDbCircle
 62
7
  6
CONTINUOUS
 10
643.7325356942
 20
177.2208538907
 40
10.6121089286
100
AcDbArc
 50
138.6224894868
 51
138.9908452681
  0
ARC
  5
445
100
AcDbEntity
  8
BEZUGSACHSEN
100
AcDbCircle
 62
7
  6
CONTINUOUS
 10
642.641616403
 20
179.7007400641
 40
8.7511768506
100
AcDbArc
 50
135.014477315
 51
136.5724360285
  0
ARC
  5
446
100
AcDbEntity
  8
0
100
AcDbCircle
 62
7
  6
CONTINUOUS
 10
643.4600013879
 20
181.1078272286
 40
8.0223737727
100
AcDbArc
 50
134.1553762545
 51
134.4819913053
  0
ARC
  5
447
100
AcDbEntity
  8
BEZUGSACHSEN
100
AcDbCircle
 62
7
  6
CONTINUOUS
 10
640.7121536152
 20
182.4150238007
 40
5.962784624
100
AcDbArc
 50
130.5196903267
 51
131.9131484927
  0
ARC
  5
448
100
AcDbEntity
  8
BEZUGSACHSEN
100
AcDbCircle
 62
7
  6
CONTINUOUS
 10
645.9980504862
 20
189.0753662242
 40
5.9347353273
100
AcDbArc
 50
133.2361584333
 51
134.248989771
  0
ARC
  5
449
100
AcDbEntity
  8
0
100
AcDbCircle
 62
7
  6
CONTINUOUS
 10
641.6812376622
 20
182.3627929258
 40
5.8935415618
100
AcDbArc
 50
130.6900572229
 51
134.6320353679
  0
ARC
  5
44A
100
AcDbEntity
  8
BEZUGSACHSEN
100
AcDbCircle
 62
7
  6
CONTINUOUS
 10
636.0126278092
 20
170.065046022
 40
5.799112941
100
AcDbArc
 50
144.0413410324
 51
148.8113582396
  0
ARC
  5
44B
100
AcDbEntity
  8
BEZUGSACHSEN
100
AcDbCircle
 62
7
  6
CONTINUOUS
 10
635.8577541962
 20
170.1584866075
 40
5.6182347905
100
AcDbArc
 50
148.8086340994
 51
158.5355630132
  0
ARC
  5
44C
100
AcDbEntity
  8
BEZUGSACHSEN
100
AcDbCircle
 62
7
  6
CONTINUOUS
 10
634.3943740461
 20
168.3579839058
 40
5.0248371998
100
AcDbArc
 50
123.9339709645
 51
125.6444003188
  0
ARC
  5
44D
100
AcDbEntity
  8
BEZUGSACHSEN
100
AcDbCircle
 62
7
  6
CONTINUOUS
 10
636.9667154893
 20
175.133644621
 40
4.9736177616
100
AcDbArc
 50
137.4245064284
 51
142.6495846875
  0
ARC
  5
44E
100
AcDbEntity
  8
BEZUGSACHSEN
100
AcDbCircle
 62
7
  6
CONTINUOUS
 10
634.2522752125
 20
168.5548872062
 40
4.782015398
100
AcDbArc
 50
125.6356470375
 51
128.4830891296
  0
ARC
  5
44F
100
AcDbEntity
  8
BEZUGSACHSEN
100
AcDbCircle
 62
7
  6
CONTINUOUS
 10
634.0265531865
 20
168.8359851084
 40
4.4215114834
100
AcDbArc
 50
128.4601431025
 51
133.3124773048
  0
ARC
  5
450
100
AcDbEntity
  8
BEZUGSACHSEN
100
AcDbCircle
 62
7
  6
CONTINUOUS
 10
633.8406497495
 20
169.0368402707
 40
4.1478398823
100
AcDbArc
 50
133.3472083064
 51
135.2669877669
  0
ARC
  5
451
100
AcDbEntity
  8
BEZUGSACHSEN
100
AcDbCircle
 62
7
  6
CONTINUOUS
 10
637.3848980446
 20
183.9983087887
 40
3.5525283644
100
AcDbArc
 50
90.9248083502
 51
92.111874172
  0
ARC
  5
452
100
AcDbEntity
  8
BEZUGSACHSEN
100
AcDbCircle
 62
7
  6
CONTINUOUS
 10
641.7632190527
 20
189.0634177005
 40
3.4516892254
100
AcDbArc
 50
92.154068603
 51
93.3136294279
  0
ARC
  5
453
100
AcDbEntity
  8
BEZUGSACHSEN
100
AcDbCircle
 62
7
  6
CONTINUOUS
 10
644.125087611
 20
192.1567239808
 40
2.5005824377
100
AcDbArc
 50
128.9633832659
 51
131.8016716902
  0
ARC
  5
454
100
AcDbEntity
  8
0
100
AcDbCircle
 62
7
  6
CONTINUOUS
 10
643.8808791931
 20
193.6081687958
 40
0.5604807795
100
AcDbArc
 50
159.0925070182
 51
162.7252251851
  0
ARC
  5
455
100
AcDbEntity
  8
BEZUGSACHSEN
100
AcDbCircle
 62
7
  6
CONTINUOUS
 10
643.069043874
 20
193.9074316363
 40
0.5514859167
100
AcDbArc
 50
159.4466664956
 51
163.1391312078
  0
ARC
  5
456
100
AcDbEntity
  8
BEZUGSACHSEN
100
AcDbCircle
 62
7
  6
CONTINUOUS
 10
637.4511202799
 20
187.451420093
 40
0.5443928949
100
AcDbArc
 50
142.7285670787
 51
148.5210917886
  0
ARC
  5
457
100
AcDbEntity
  8
BEZUGSACHSEN
100
AcDbCircle
 62
7
  6
CONTINUOUS
 10
642.46227544
 20
193.2245334071
 40
0.5415677759
100
AcDbArc
 50
158.4958522878
 51
162.2550655713
  0
ARC
  5
458
100
AcDbEntity
  8
BEZUGSACHSEN
100
AcDbCircle
 62
7
  6
CONTINUOUS
 10
649.6396885634
 20
144.7517588362
 40
75.3955229402
100
AcDbArc
 50
20.5953930157
 51
21.1963295846
  0
ARC
  5
459
100
AcDbEntity
  8
BEZUGSACHSEN
100
AcDbCircle
 62
7
  6
CONTINUOUS
 10
653.7604587189
 20
160.2781689327
 40
63.748282711
100
AcDbArc
 50
12.0916498299
 51
12.518633935
  0
ARC
  5
45A
100
AcDbEntity
  8
0
100
AcDbCircle
 62
7
  6
CONTINUOUS
 10
653.1941780708
 20
159.5686940913
 40
63.742383162
100
AcDbArc
 50
12.5199482735
 51
12.9465531253
  0
ARC
  5
45B
100
AcDbEntity
  8
BEZUGSACHSEN
100
AcDbCircle
 62
7
  6
CONTINUOUS
 10
661.0609674669
 20
153.9171365942
 40
61.563998123
100
AcDbArc
 50
19.3867009764
 51
19.7625063907
  0
ARC
  5
45C
100
AcDbEntity
  8
BEZUGSACHSEN
100
AcDbCircle
 62
7
  6
CONTINUOUS
 10
660.557640202
 20
154.4599331533
 40
61.4599268237
100
AcDbArc
 50
19.3846114058
 51
19.7610532677
  0
ARC
  5
45D
100
AcDbEntity
  8
BEZUGSACHSEN
100
AcDbCircle
 62
7
  6
CONTINUOUS
 10
670.7633960543
 20
148.2512516749
 40
58.9072692968
100
AcDbArc
 50
48.1105493043
 51
48.3060550888
  0
ARC
  5
45E
100
AcDbEntity
  8
BEZUGSACHSEN
100
AcDbCircle
 62
7
  6
CONTINUOUS
 10
669.485635637
 20
150.9422643663
 40
54.9325443031
100
AcDbArc
 50
25.6641528775
 51
26.0875437208
  0
ARC
  5
45F
100
AcDbEntity
  8
BEZUGSACHSEN
100
AcDbCircle
 62
7
  6
CONTINUOUS
 10
669.0646871557
 20
149.2401482246
 40
49.6026590469
100
AcDbArc
 50
130.2089563872
 51
130.4415441835
  0
ARC
  5
460
100
AcDbEntity
  8
BEZUGSACHSEN
100
AcDbCircle
 62
7
  6
CONTINUOUS
 10
672.738180933
 20
160.8399733091
 40
49.0696856257
100
AcDbArc
 50
42.1632349438
 51
42.5472557002
  0
ARC
  5
461
100
AcDbEntity
  8
0
100
AcDbCircle
 62
7
  6
CONTINUOUS
 10
661.9244375425
 20
164.8944861956
 40
53.1764184554
100
AcDbArc
 50
18.1354889681
 51
20.3721831124
  0
ARC
  5
462
100
AcDbEntity
  8
BEZUGSACHSEN
100
AcDbCircle
 62
7
  6
CONTINUOUS
 10
663.0138390328
 20
165.6536813133
 40
52.6771030775
100
AcDbArc
 50
17.7468722395
 51
18.8759914345
  0
ARC
  5
463
100
AcDbEntity
  8
BEZUGSACHSEN
100
AcDbCircle
 62
7
  6
CONTINUOUS
 10
663.2316168462
 20
165.727714464
 40
52.4470858618
100
AcDbArc
 50
18.8764327441
 51
20.010405852
  0
ARC
  5
464
100
AcDbEntity
  8
BEZUGSACHSEN
100
AcDbCircle
 62
7
  6
CONTINUOUS
 10
664.7161804466
 20
165.4355653167
 40
51.5440455443
100
AcDbArc
 50
18.2756936332
 51
18.5606411011
  0
ARC
  5
465
100
AcDbEntity
  8
BEZUGSACHSEN
100
AcDbCircle
 62
7
  6
CONTINUOUS
 10
664.8649063957
 20
165.485862687
 40
51.3870451716
100
AcDbArc
 50
18.5602613562
 51
20.0103809749
  0
ARC
  5
466
100
AcDbEntity
  8
BEZUGSACHSEN
100
AcDbCircle
 62
7
  6
CONTINUOUS
 10
666.2022126369
 20
168.8747620389
 40
50.5250011282
100
AcDbArc
 50
5.1479104316
 51
5.4350205164
  0
ARC
  5
467
100
AcDbEntity
  8
BEZUGSACHSEN
100
AcDbCircle
 62
7
  6
CONTINUOUS
 10
664.7492428186
 20
178.1327675716
 40
27.2235185346
100
AcDbArc
 50
148.1149983056
 51
148.608339693
  0
ARC
  5
468
100
AcDbEntity
  8
BEZUGSACHSEN
100
AcDbCircle
 62
7
  6
CONTINUOUS
 10
657.6928470205
 20
174.8453423052
 40
24.0648177763
100
AcDbArc
 50
147.5792216411
 51
147.9521173053
  0
ARC
  5
469
100
AcDbEntity
  8
0
100
AcDbCircle
 62
7
  6
CONTINUOUS
 10
662.7760374371
 20
180.9923402948
 40
23.0599582664
100
AcDbArc
 50
148.9312921872
 51
149.7758029016
  0
ARC
  5
46A
100
AcDbEntity
  8
BEZUGSACHSEN
100
AcDbCircle
 62
7
  6
CONTINUOUS
 10
661.6317655504
 20
181.573381229
 40
22.6142834368
100
AcDbArc
 50
149.1095582199
 51
149.9701909956
  0
ARC
  5
46B
100
AcDbEntity
  8
BEZUGSACHSEN
100
AcDbCircle
 62
7
  6
CONTINUOUS
 10
651.1920765674
 20
179.3973178229
 40
16.1901502263
100
AcDbArc
 50
157.0257210589
 51
158.2901719303
  0
ARC
  5
46C
100
AcDbEntity
  8
BEZUGSACHSEN
100
AcDbCircle
 62
7
  6
CONTINUOUS
 10
650.8173093987
 20
179.4879377342
 40
15.8065205298
100
AcDbArc
 50
162.7155516856
 51
163.8265513229
  0
ARC
  5
46D
100
AcDbEntity
  8
BEZUGSACHSEN
100
AcDbCircle
 62
7
  6
CONTINUOUS
 10
653.2597100991
 20
185.0084148428
 40
14.0795401344
100
AcDbArc
 50
143.4678656738
 51
144.3752606105
  0
ARC
  5
46E
100
AcDbEntity
  8
BEZUGSACHSEN
100
AcDbCircle
 62
7
  6
CONTINUOUS
 10
651.1176656581
 20
178.8063769354
 40
12.0
100
AcDbArc
 50
340.0
 51
1.0
  0
ARC
  5
46F
100
AcDbEntity
  8
0
100
AcDbCircle
 62
7
  6
CONTINUOUS
 10
650.4309526178
 20
184.404153329
 40
11.496957596
100
AcDbArc
 50
158.4191629503
 51
161.3542402463
  0
ARC
  5
470
100
AcDbEntity
  8
0
100
AcDbCircle
 62
7
  6
CONTINUOUS
 10
652.1312257832
 20
187.4565000058
 40
10.8214724181
100
AcDbArc
 50
144.2782798084
 51
145.5020288776
  0
ARC
  5
471
100
AcDbEntity
  8
BEZUGSACHSEN
100
AcDbCircle
 62
7
  6
CONTINUOUS
 10
651.1750010489
 20
187.879436028
 40
10.6222483453
100
AcDbArc
 50
144.3701516667
 51
145.6162503654
  0
ARC
  5
472
100
AcDbEntity
  8
BEZUGSACHSEN
100
AcDbCircle
 62
7
  6
CONTINUOUS
 10
695.3269105292
 20
119.0130678838
 40
67.3311343442
100
AcDbArc
 50
74.9064777051
 51
75.1710167566
  0
ARC
  5
473
100
AcDbEntity
  8
BEZUGSACHSEN
100
AcDbCircle
 62
7
  6
CONTINUOUS
 10
696.8668896959
 20
88.6355640618
 40
15.0
100
AcDbArc
 50
350.6489713793
 51
20.0
  0
ARC
  5
474
100
AcDbEntity
  8
BEZUGSACHSEN
100
AcDbCircle
 62
7
  6
CONTINUOUS
 10
722.4904984129
 20
53.3209305088
 40
5.0
100
AcDbArc
 50
200.0
 51
231.8565064565
  0
ARC
  5
475
100
AcDbEntity
  8
BEZUGSACHSEN
100
AcDbCircle
 62
7
  6
CONTINUOUS
 10
711.717975291
 20
106.3086297381
 40
5.0
100
AcDbArc
 50
127.0348021631
 51
200.0
  0
ARC
  5
476
100
AcDbEntity
  8
0
100
AcDbCircle
 62
7
  6
CONTINUOUS
 10
697.9631852105
 20
150.0332825417
 40
69.9600510459
100
AcDbArc
 50
141.4988537115
 51
141.8225929837
  0
ARC
  5
477
100
AcDbEntity
  8
BEZUGSACHSEN
100
AcDbCircle
 62
7
  6
CONTINUOUS
 10
696.1415286989
 20
151.2026019111
 40
68.6179043688
100
AcDbArc
 50
141.5427524193
 51
141.8727343028
  0
ARC
  5
478
100
AcDbEntity
  8
BEZUGSACHSEN
100
AcDbCircle
 62
7
  6
CONTINUOUS
 10
694.9732170099
 20
153.9491544778
 40
65.9231202153
100
AcDbArc
 50
167.4198651459
 51
168.235787716
  0
ARC
  5
479
100
AcDbEntity
  8
BEZUGSACHSEN
100
AcDbCircle
 62
7
  6
CONTINUOUS
 10
679.9079626701
 20
139.9053100106
 40
63.8994760581
100
AcDbArc
 50
131.53310634
 51
131.7239033291
  0
ARC
  5
47A
100
AcDbEntity
  8
BEZUGSACHSEN
100
AcDbCircle
 62
7
  6
CONTINUOUS
 10
674.7510623704
 20
140.8859964683
 40
60.8266561349
100
AcDbArc
 50
49.7876382387
 51
50.0440824004
  0
ARC
  5
47B
100
AcDbEntity
  8
BEZUGSACHSEN
100
AcDbCircle
 62
7
  6
CONTINUOUS
 10
690.3482283558
 20
161.0240422318
 40
59.4493657195
100
AcDbArc
 50
172.6197591594
 51
173.1184300651
  0
ARC
  5
47C
100
AcDbEntity
  8
BEZUGSACHSEN
100
AcDbCircle
 62
7
  6
CONTINUOUS
 10
678.8204594221
 20
145.9003293998
 40
54.8581984671
100
AcDbArc
 50
55.1026272403
 51
55.4468656563
  0
ARC
  5
47D
100
AcDbEntity
  8
BEZUGSACHSEN
100
AcDbCircle
 62
7
  6
CONTINUOUS
 10
675.8780952186
 20
155.5810341699
 40
50.5191399208
100
AcDbArc
 50
131.860597968
 51
132.3227743844
  0
ARC
  5
47E
100
AcDbEntity
  8
BEZUGSACHSEN
100
AcDbCircle
 62
7
  6
CONTINUOUS
 10
678.6089267997
 20
160.8399733091
 40
49.0696856257
100
AcDbArc
 50
137.4527442998
 51
137.8367650562
  0
ARC
  5
47F
100
AcDbEntity
  8
BEZUGSACHSEN
100
AcDbCircle
 62
7
  6
CONTINUOUS
 10
676.6338924178
 20
158.7545545747
 40
45.580752629
100
AcDbArc
 50
26.2828654037
 51
26.6405087438
  0
ARC
  5
480
100
AcDbEntity
  8
BEZUGSACHSEN
100
AcDbCircle
 62
7
  6
CONTINUOUS
 10
674.8914361756
 20
163.4089857655
 40
45.3524500501
100
AcDbArc
 50
17.8358397078
 51
20.0234143891
  0
ARC
  5
481
100
AcDbEntity
  8
BEZUGSACHSEN
100
AcDbCircle
 62
7
  6
CONTINUOUS
 10
674.4880604266
 20
164.1090565143
 40
45.1019832921
100
AcDbArc
 50
18.0332695594
 51
20.0112031588
  0
ARC
  5
482
100
AcDbEntity
  8
BEZUGSACHSEN
100
AcDbCircle
 62
7
  6
CONTINUOUS
 10
677.1609042055
 20
164.147612084
 40
42.9658235048
100
AcDbArc
 50
17.3654762886
 51
17.8251592497
  0
ARC
  5
483
100
AcDbEntity
  8
BEZUGSACHSEN
100
AcDbCircle
 62
7
  6
CONTINUOUS
 10
680.8722471186
 20
167.7936381949
 40
38.8206930342
100
AcDbArc
 50
9.1403246922
 51
9.4090332783
  0
ARC
  5
484
100
AcDbEntity
  8
BEZUGSACHSEN
100
AcDbCircle
 62
7
  6
CONTINUOUS
 10
697.7246779367
 20
163.1562620217
 40
28.8923681501
100
AcDbArc
 50
54.1540669056
 51
54.4108880317
  0
ARC
  5
485
100
AcDbEntity
  8
BEZUGSACHSEN
100
AcDbCircle
 62
7
  6
CONTINUOUS
 10
684.4336352961
 20
202.5609615499
 40
63.2820085282
100
AcDbArc
 50
212.9438726897
 51
213.1813441704
  0
ARC
  5
486
100
AcDbEntity
  8
BEZUGSACHSEN
100
AcDbCircle
 62
7
  6
CONTINUOUS
 10
678.8622303941
 20
180.9938811149
 40
50.3019254419
100
AcDbArc
 50
195.6908829748
 51
196.3234245473
  0
ARC
  5
487
100
AcDbEntity
  8
0
100
AcDbCircle
 62
7
  6
CONTINUOUS
 10
682.2199955826
 20
169.8839570769
 40
44.7021519843
100
AcDbArc
 50
162.6413789583
 51
163.760656528
  0
ARC
  5
488
100
AcDbEntity
  8
0
100
AcDbCircle
 62
7
  6
CONTINUOUS
 10
682.2024307854
 20
169.8356982035
 40
44.7021519807
100
AcDbArc
 50
156.239343472
 51
157.3586210418
  0
ARC
  5
489
100
AcDbEntity
  8
BEZUGSACHSEN
100
AcDbCircle
 62
7
  6
CONTINUOUS
 10
681.1789474659
 20
170.5708356774
 40
44.2872017205
100
AcDbArc
 50
163.0410107819
 51
164.1712509907
  0
ARC
  5
48A
100
AcDbEntity
  8
BEZUGSACHSEN
100
AcDbCircle
 62
7
  6
CONTINUOUS
 10
680.8647942131
 20
170.626889945
 40
43.9723159793
100
AcDbArc
 50
156.5502147841
 51
157.6877327425
  0
ARC
  5
48B
100
AcDbEntity
  8
BEZUGSACHSEN
100
AcDbCircle
 62
7
  6
CONTINUOUS
 10
679.3815567394
 20
194.118307042
 40
41.7288856615
100
AcDbArc
 50
331.3265252054
 51
331.6785414343
  0
ARC
  5
48C
100
AcDbEntity
  8
0
100
AcDbCircle
 62
7
  6
CONTINUOUS
 10
680.0139760304
 20
192.8131510234
 40
40.0731891259
100
AcDbArc
 50
331.7564033189
 51
332.1198514336
  0
ARC
  5
48D
100
AcDbEntity
  8
BEZUGSACHSEN
100
AcDbCircle
 62
7
  6
CONTINUOUS
 10
677.4260703675
 20
171.5967640591
 40
38.4041192451
100
AcDbArc
 50
31.6201498825
 51
32.065548788
  0
ARC
  5
48E
100
AcDbEntity
  8
BEZUGSACHSEN
100
AcDbCircle
 62
7
  6
CONTINUOUS
 10
691.1280726141
 20
198.2722996634
 40
36.2633151809
100
AcDbArc
 50
318.9215779448
 51
319.168306614
  0
ARC
  5
48F
100
AcDbEntity
  8
BEZUGSACHSEN
100
AcDbCircle
 62
7
  6
CONTINUOUS
 10
683.4995650494
 20
170.8644381258
 40
35.260941288
100
AcDbArc
 50
6.1406444709
 51
6.5046961201
  0
ARC
  5
490
100
AcDbEntity
  8
BEZUGSACHSEN
100
AcDbCircle
 62
7
  6
CONTINUOUS
 10
684.4891077504
 20
168.3426649066
 40
35.2375721934
100
AcDbArc
 50
33.2340933377
 51
33.4782425198
  0
ARC
  5
491
100
AcDbEntity
  8
0
100
AcDbCircle
 62
7
  6
CONTINUOUS
 10
681.8185648002
 20
176.4905604006
 40
31.0848607639
100
AcDbArc
 50
30.379376504
 51
30.9868464601
  0
ARC
  5
492
100
AcDbEntity
  8
BEZUGSACHSEN
100
AcDbCircle
 62
7
  6
CONTINUOUS
 10
683.0902424367
 20
177.1783414238
 40
30.4724612472
100
AcDbArc
 50
30.1863134109
 51
30.8056133947
  0
ARC
  5
493
100
AcDbEntity
  8
BEZUGSACHSEN
100
AcDbCircle
 62
7
  6
CONTINUOUS
 10
691.7644423346
 20
171.0775118417
 40
28.0784481001
100
AcDbArc
 50
51.1803959703
 51
51.5467568165
  0
ARC
  5
494
100
AcDbEntity
  8
0
100
AcDbCircle
 62
7
  6
CONTINUOUS
 10
684.9553655525
 20
179.5027921197
 40
27.1019209168
100
AcDbArc
 50
8.2807228094
 51
8.9307127929
  0
ARC
  5
495
100
AcDbEntity
  8
BEZUGSACHSEN
100
AcDbCircle
 62
7
  6
CONTINUOUS
 10
685.7295442365
 20
180.0144214869
 40
27.031901309
100
AcDbArc
 50
7.7819300083
 51
8.4347703491
  0
ARC
  5
496
100
AcDbEntity
  8
BEZUGSACHSEN
100
AcDbCircle
 62
7
  6
CONTINUOUS
 10
695.020630592
 20
181.8449564817
 40
25.4324210582
100
AcDbArc
 50
341.4320881429
 51
341.9396192317
  0
ARC
  5
497
100
AcDbEntity
  8
BEZUGSACHSEN
100
AcDbCircle
 62
7
  6
CONTINUOUS
 10
690.7932201748
 20
181.8574545064
 40
22.3893872088
100
AcDbArc
 50
3.1045359107
 51
3.6784559721
  0
ARC
  5
498
100
AcDbEntity
  8
BEZUGSACHSEN
100
AcDbCircle
 62
7
  6
CONTINUOUS
 10
698.621708846
 20
170.7341278608
 40
20.8293098201
100
AcDbArc
 50
9.411176645
 51
10.0048193469
  0
ARC
  5
499
100
AcDbEntity
  8
0
100
AcDbCircle
 62
7
  6
CONTINUOUS
 10
691.825356223
 20
184.1158943541
 40
18.504633208
100
AcDbArc
 50
16.9972669912
 51
20.7884528688
  0
ARC
  5
49A
100
AcDbEntity
  8
BEZUGSACHSEN
100
AcDbCircle
 62
7
  6
CONTINUOUS
 10
692.7408916817
 20
184.5782945147
 40
18.319879717
100
AcDbArc
 50
16.5867285211
 51
17.5448265946
  0
ARC
  5
49B
100
AcDbEntity
  8
BEZUGSACHSEN
100
AcDbCircle
 62
7
  6
CONTINUOUS
 10
692.8473605713
 20
184.6121796581
 40
18.2081488731
100
AcDbArc
 50
17.5441544318
 51
20.4337042218
  0
ARC
  5
49C
100
AcDbEntity
  8
BEZUGSACHSEN
100
AcDbCircle
 62
7
  6
CONTINUOUS
 10
693.6987496403
 20
184.0838098375
 40
17.915523462
100
AcDbArc
 50
17.5017651402
 51
19.0189058229
  0
ARC
  5
49D
100
AcDbEntity
  8
BEZUGSACHSEN
100
AcDbCircle
 62
7
  6
CONTINUOUS
 10
693.7425125506
 20
184.0986965505
 40
17.8692982381
100
AcDbArc
 50
19.0195066959
 51
19.8293532545
  0
ARC
  5
49E
100
AcDbEntity
  8
BEZUGSACHSEN
100
AcDbCircle
 62
7
  6
CONTINUOUS
 10
693.7467450814
 20
184.100209122
 40
17.8648035719
100
AcDbArc
 50
19.8293945371
 51
20.6064042862
  0
ARC
  5
49F
100
AcDbEntity
  8
BEZUGSACHSEN
100
AcDbCircle
 62
7
  6
CONTINUOUS
 10
698.2637811916
 20
194.5700811043
 40
17.7186095612
100
AcDbArc
 50
323.2941793039
 51
323.7851910014
  0
ARC
  5
4A0
100
AcDbEntity
  8
0
100
AcDbCircle
 62
7
  6
CONTINUOUS
 10
697.9349649892
 20
193.8242749795
 40
17.1045161644
100
AcDbArc
 50
323.7495157208
 51
324.2520709624
  0
ARC
  5
4A1
100
AcDbEntity
  8
BEZUGSACHSEN
100
AcDbCircle
 62
7
  6
CONTINUOUS
 10
696.3337883553
 20
182.5248934114
 40
16.9526417601
100
AcDbArc
 50
17.3623847263
 51
20.6382471574
  0
ARC
  5
4A2
100
AcDbEntity
  8
BEZUGSACHSEN
100
AcDbCircle
 62
7
  6
CONTINUOUS
 10
697.3771559017
 20
181.8979079959
 40
16.5786721526
100
AcDbArc
 50
17.3024284729
 51
20.2997103973
  0
ARC
  5
4A3
100
AcDbEntity
  8
BEZUGSACHSEN
100
AcDbCircle
 62
7
  6
CONTINUOUS
 10
722.9884874146
 20
140.2814344282
 40
93.8425147571
100
AcDbArc
 50
157.9605837559
 51
161.0793494284
  0
ARC
  5
4A4
100
AcDbEntity
  8
BEZUGSACHSEN
100
AcDbCircle
 62
7
  6
CONTINUOUS
 10
719.9785045037
 20
140.6668508888
 40
91.372335945
100
AcDbArc
 50
160.6097448031
 51
161.2436795787
  0
ARC
  5
4A5
100
AcDbEntity
  8
BEZUGSACHSEN
100
AcDbCircle
 62
7
  6
CONTINUOUS
 10
719.8732726827
 20
140.7026750149
 40
91.2611793357
100
AcDbArc
 50
158.7050677432
 51
160.6090260172
  0
ARC
  5
4A6
100
AcDbEntity
  8
BEZUGSACHSEN
100
AcDbCircle
 62
7
  6
CONTINUOUS
 10
708.3171181268
 20
133.0607761041
 40
89.7157455747
100
AcDbArc
 50
137.8525454163
 51
137.9824421523
  0
ARC
  5
4A7
100
AcDbEntity
  8
0
100
AcDbCircle
 62
7
  6
CONTINUOUS
 10
712.3206554562
 20
140.6763511112
 40
84.9367116369
100
AcDbArc
 50
158.2051114408
 51
160.9329193639
  0
ARC
  5
4A8
100
AcDbEntity
  8
BEZUGSACHSEN
100
AcDbCircle
 62
7
  6
CONTINUOUS
 10
711.0550465359
 20
141.773444133
 40
84.0786336833
100
AcDbArc
 50
158.5945042227
 51
161.3500789141
  0
ARC
  5
4A9
100
AcDbEntity
  8
BEZUGSACHSEN
100
AcDbCircle
 62
7
  6
CONTINUOUS
 10
707.5436579342
 20
142.1978805728
 40
81.2219215179
100
AcDbArc
 50
160.5730764194
 51
161.248719228
  0
ARC
  5
4AA
100
AcDbEntity
  8
BEZUGSACHSEN
100
AcDbCircle
 62
7
  6
CONTINUOUS
 10
707.4802865533
 20
142.2187351344
 40
81.1552217885
100
AcDbArc
 50
158.5437016562
 51
160.5720807038
  0
ARC
  5
4AB
100
AcDbEntity
  8
0
100
AcDbCircle
 62
7
  6
CONTINUOUS
 10
703.8606416456
 20
154.8186912424
 40
70.1898035859
100
AcDbArc
 50
159.550612902
 51
160.449387098
  0
ARC
  5
4AC
100
AcDbEntity
  8
BEZUGSACHSEN
100
AcDbCircle
 62
7
  6
CONTINUOUS
 10
702.5827754682
 20
155.7569155502
 40
69.4234111933
100
AcDbArc
 50
159.912577879
 51
160.8212928399
  0
ARC
  5
4AD
100
AcDbEntity
  8
0
100
AcDbCircle
 62
7
  6
CONTINUOUS
 10
719.5229872203
 20
166.4018840274
 40
7.1739979358
100
AcDbArc
 50
98.76042251
 51
99.4334493322
  0
ARC
  5
4AE
100
AcDbEntity
  8
0
100
AcDbCircle
 62
7
  6
CONTINUOUS
 10
717.3946168023
 20
163.8128015297
 40
5.1162527503
100
AcDbArc
 50
49.816791485
 51
54.8024527005
  0
ARC
  5
4AF
100
AcDbEntity
  8
BEZUGSACHSEN
100
AcDbCircle
 62
7
  6
CONTINUOUS
 10
700.2603451946
 20
179.4413081037
 40
16.0760195074
100
AcDbArc
 50
22.3400907125
 51
22.9764350764
  0
ARC
  5
4B0
100
AcDbEntity
  8
BEZUGSACHSEN
100
AcDbCircle
 62
7
  6
CONTINUOUS
 10
700.4665433733
 20
179.468653958
 40
15.8726485076
100
AcDbArc
 50
16.453008066
 51
17.2830726747
  0
ARC
  5
4B1
100
AcDbEntity
  8
BEZUGSACHSEN
100
AcDbCircle
 62
7
  6
CONTINUOUS
 10
702.1893848359
 20
178.1338410514
 40
15.2406075293
100
AcDbArc
 50
35.9103235804
 51
36.7855374651
  0
ARC
  5
4B2
100
AcDbEntity
  8
BEZUGSACHSEN
100
AcDbCircle
 62
7
  6
CONTINUOUS
 10
701.7605262766
 20
179.0495917697
 40
15.0835879608
100
AcDbArc
 50
31.1943109765
 51
32.1347460112
  0
ARC
  5
4B3
100
AcDbEntity
  8
BEZUGSACHSEN
100
AcDbCircle
 62
7
  6
CONTINUOUS
 10
702.6290050203
 20
178.3672050725
 40
14.7821141397
100
AcDbArc
 50
36.5382191624
 51
37.0177897341
  0
ARC
  5
4B4
100
AcDbEntity
  8
BEZUGSACHSEN
100
AcDbCircle
 62
7
  6
CONTINUOUS
 10
702.7156739849
 20
178.4324611175
 40
14.6736251774
100
AcDbArc
 50
37.0180887342
 51
37.2588345058
  0
ARC
  5
4B5
100
AcDbEntity
  8
BEZUGSACHSEN
100
AcDbCircle
 62
7
  6
CONTINUOUS
 10
702.7719753966
 20
178.4752869642
 40
14.6028869127
100
AcDbArc
 50
37.2588358926
 51
37.5002090526
  0
ARC
  5
4B6
100
AcDbEntity
  8
BEZUGSACHSEN
100
AcDbCircle
 62
7
  6
CONTINUOUS
 10
702.99569685
 20
180.180033173
 40
13.4652715402
100
AcDbArc
 50
30.1788992973
 51
30.9017831038
  0
ARC
  5
4B7
100
AcDbEntity
  8
BEZUGSACHSEN
100
AcDbCircle
 62
7
  6
CONTINUOUS
 10
700.2294420745
 20
178.8063769354
 40
12.0
100
AcDbArc
 50
179.0
 51
200.0
  0
ARC
  5
4B8
100
AcDbEntity
  8
BEZUGSACHSEN
100
AcDbCircle
 62
7
  6
CONTINUOUS
 10
703.9882125577
 20
180.1744575087
 40
12.0
100
AcDbArc
 50
22.7811707557
 51
25.0908512802
  0
ARC
  5
4B9
100
AcDbEntity
  8
BEZUGSACHSEN
100
AcDbCircle
 62
7
  6
CONTINUOUS
 10
705.0667241814
 20
180.171658119
 40
11.9873725096
100
AcDbArc
 50
39.4042723555
 51
41.0096433051
  0
ARC
  5
4BA
100
AcDbEntity
  8
BEZUGSACHSEN
100
AcDbCircle
 62
7
  6
CONTINUOUS
 10
707.4277776485
 20
173.959272045
 40
11.8935272796
100
AcDbArc
 50
20.2937788683
 51
41.0940913041
  0
ARC
  5
4BB
100
AcDbEntity
  8
BEZUGSACHSEN
100
AcDbCircle
 62
7
  6
CONTINUOUS
 10
707.7047151951
 20
176.8700844374
 40
10.6483172359
100
AcDbArc
 50
41.248382856
 51
42.4578538449
  0
ARC
  5
4BC
100
AcDbEntity
  8
BEZUGSACHSEN
100
AcDbCircle
 62
7
  6
CONTINUOUS
 10
707.5995997139
 20
177.2076041352
 40
10.6321020394
100
AcDbArc
 50
41.3777544165
 51
42.4814973589
  0
ARC
  5
4BD
100
AcDbEntity
  8
BEZUGSACHSEN
100
AcDbCircle
 62
7
  6
CONTINUOUS
 10
707.6145720385
 20
177.2208538907
 40
10.6121089286
100
AcDbArc
 50
41.0091547319
 51
41.3775105132
  0
ARC
  5
4BE
100
AcDbEntity
  8
0
100
AcDbCircle
 62
7
  6
CONTINUOUS
 10
706.6501536386
 20
176.9487547074
 40
10.6104989281
100
AcDbArc
 50
38.8289122477
 51
42.4718851892
  0
ARC
  5
4BF
100
AcDbEntity
  8
0
100
AcDbCircle
 62
7
  6
CONTINUOUS
 10
701.7368925186
 20
190.1626758884
 40
7.1227233376
100
AcDbArc
 50
19.108269691
 51
21.4014470419
  0
ARC
  5
4C0
100
AcDbEntity
  8
BEZUGSACHSEN
100
AcDbCircle
 62
7
  6
CONTINUOUS
 10
702.62597105
 20
190.5342687963
 40
7.0083097612
100
AcDbArc
 50
18.7249295086
 51
21.0555302745
  0
ARC
  5
4C1
100
AcDbEntity
  8
BEZUGSACHSEN
100
AcDbCircle
 62
7
  6
CONTINUOUS
 10
703.4705762665
 20
189.7849807001
 40
6.8629433789
100
AcDbArc
 50
18.6979166755
 51
21.0778899168
  0
ARC
  5
4C2
100
AcDbEntity
  8
BEZUGSACHSEN
100
AcDbCircle
 62
7
  6
CONTINUOUS
 10
704.2522179862
 20
189.0092265558
 40
6.785882402
100
AcDbArc
 50
23.2593815903
 51
24.8680271231
  0
ARC
  5
4C3
100
AcDbEntity
  8
BEZUGSACHSEN
100
AcDbCircle
 62
7
  6
CONTINUOUS
 10
705.54437963
 20
187.8966181248
 40
6.5401576634
100
AcDbArc
 50
20.8652474305
 51
25.03377292
  0
ARC
  5
4C4
100
AcDbEntity
  8
BEZUGSACHSEN
100
AcDbCircle
 62
7
  6
CONTINUOUS
 10
706.4093917136
 20
187.1556409409
 40
6.3727626712
100
AcDbArc
 50
20.8805118593
 51
23.4454003432
  0
ARC
  5
4C5
100
AcDbEntity
  8
BEZUGSACHSEN
100
AcDbCircle
 62
7
  6
CONTINUOUS
 10
705.6723336511
 20
191.9547326458
 40
4.3505864958
100
AcDbArc
 50
346.9054481793
 51
348.4221415858
  0
ARC
  5
4C6
100
AcDbEntity
  8
0
100
AcDbCircle
 62
7
  6
CONTINUOUS
 10
704.9146338327
 20
191.6118064239
 40
4.3117616755
100
AcDbArc
 50
347.5675234472
 51
349.0868398248
  0
ARC
  5
4C7
100
AcDbEntity
  8
BEZUGSACHSEN
100
AcDbCircle
 62
7
  6
CONTINUOUS
 10
707.2220201217
 20
192.1567239808
 40
2.5005824377
100
AcDbArc
 50
48.1983283098
 51
51.0366167341
  0
ARC
  5
4C8
100
AcDbEntity
  8
BEZUGSACHSEN
100
AcDbCircle
 62
7
  6
CONTINUOUS
 10
708.7054913297
 20
179.7007400641
 40
8.7511768506
100
AcDbArc
 50
43.4275639715
 51
44.985522685
  0
ARC
  5
4C9
100
AcDbEntity
  8
BEZUGSACHSEN
100
AcDbCircle
 62
7
  6
CONTINUOUS
 10
708.8620852968
 20
179.4196174927
 40
8.7021930464
100
AcDbArc
 50
43.285638979
 51
45.088219114
  0
ARC
  5
4CA
100
AcDbEntity
  8
BEZUGSACHSEN
100
AcDbCircle
 62
7
  6
CONTINUOUS
 10
712.55195792
 20
171.1532349674
 40
8.086746867
100
AcDbArc
 50
46.0110708731
 51
46.4362706273
  0
ARC
  5
4CB
100
AcDbEntity
  8
BEZUGSACHSEN
100
AcDbCircle
 62
7
  6
CONTINUOUS
 10
714.2770811866
 20
170.5056575856
 40
6.7104452391
100
AcDbArc
 50
47.0838162698
 51
49.4819396839
  0
ARC
  5
4CC
100
AcDbEntity
  8
BEZUGSACHSEN
100
AcDbCircle
 62
7
  6
CONTINUOUS
 10
714.3905327226
 20
170.62817361
 40
6.543468265
100
AcDbArc
 50
45.3272114488
 51
47.0808543893
  0
ARC
  5
4CD
100
AcDbEntity
  8
BEZUGSACHSEN
100
AcDbCircle
 62
7
  6
CONTINUOUS
 10
714.4448925677
 20
170.6836505722
 40
6.4657986783
100
AcDbArc
 50
45.0903557709
 51
45.3241421873
  0
ARC
  5
4CE
100
AcDbEntity
  8
BEZUGSACHSEN
100
AcDbCircle
 62
7
  6
CONTINUOUS
 10
714.5418958471
 20
170.77922289
 40
6.3296290515
100
AcDbArc
 50
41.6448441199
 51
45.1014588099
  0
ARC
  5
4CF
100
AcDbEntity
  8
BEZUGSACHSEN
100
AcDbCircle
 62
7
  6
CONTINUOUS
 10
716.140542983
 20
180.9756698493
 40
5.7062084694
100
AcDbArc
 50
103.5565998191
 51
104.2297714742
  0
ARC
  5
4D0
100
AcDbEntity
  8
BEZUGSACHSEN
100
AcDbCircle
 62
7
  6
CONTINUOUS
 10
711.2197495929
 20
184.4913169629
 40
8.8036643457
100
AcDbArc
 50
103.0909030786
 51
103.4880888191
  0
ARC
  5
4D1
100
AcDbEntity
  8
BEZUGSACHSEN
100
AcDbCircle
 62
7
  6
CONTINUOUS
 10
708.6620643891
 20
184.4537441884
 40
6.4801369195
100
AcDbArc
 50
19.2511853473
 51
21.1416062499
  0
ARC
  5
4D2
100
AcDbEntity
  8
BEZUGSACHSEN
100
AcDbCircle
 62
7
  6
CONTINUOUS
 10
708.3979695883
 20
185.4143320353
 40
6.0144079198
100
AcDbArc
 50
18.5141118689
 51
20.5509453154
  0
ARC
  5
4D3
100
AcDbEntity
  8
BEZUGSACHSEN
100
AcDbCircle
 62
7
  6
CONTINUOUS
 10
713.2741151937
 20
182.3727827702
 40
5.0199416767
100
AcDbArc
 50
80.5178194096
 51
81.4306568962
  0
ARC
  5
4D4
100
AcDbEntity
  8
BEZUGSACHSEN
100
AcDbCircle
 62
7
  6
CONTINUOUS
 10
711.9581288518
 20
182.8579324186
 40
4.587081867
100
AcDbArc
 50
52.6992710189
 51
54.1554233613
  0
ARC
  5
4D5
100
AcDbEntity
  8
BEZUGSACHSEN
100
AcDbCircle
 62
7
  6
CONTINUOUS
 10
709.0220015455
 20
188.1167627324
 40
4.2232870079
100
AcDbArc
 50
77.3670751066
 51
78.356714715
  0
ARC
  5
4D6
100
AcDbEntity
  8
BEZUGSACHSEN
100
AcDbCircle
 62
7
  6
CONTINUOUS
 10
709.5718639148
 20
192.3823996695
 40
0.5766515869
100
AcDbArc
 50
31.0248700829
 51
35.5597626573
  0
ARC
  5
4D7
100
AcDbEntity
  8
BEZUGSACHSEN
100
AcDbCircle
 62
7
  6
CONTINUOUS
 10
713.8959874528
 20
187.451420093
 40
0.5443928949
100
AcDbArc
 50
31.4789082115
 51
37.2714329213
  0
ARC
  5
4D8
100
AcDbEntity
  8
BEZUGSACHSEN
100
AcDbCircle
 62
7
  6
CONTINUOUS
 10
713.9166214857
 20
187.4641307316
 40
0.5201582257
100
AcDbArc
 50
19.6543954234
 51
31.4717187079
  0
ARC
  5
4D9
100
AcDbEntity
  8
0
100
AcDbCircle
 62
7
  6
CONTINUOUS
 10
675.6735538663
 20
412.1207341023
 40
130.0
100
AcDbArc
 50
0.0
 51
180.0
  0
ARC
  5
4DA
100
AcDbEntity
  8
0
100
AcDbCircle
 62
7
  6
CONTINUOUS
 10
675.6735538663
 20
252.1207341023
 40
130.0
100
AcDbArc
 50
296.18240892
 51
360.0
  0
ARC
  5
4DB
100
AcDbEntity
  8
0
100
AcDbCircle
 62
7
  6
CONTINUOUS
 10
675.6735538663
 20
252.1207341023
 40
130.0
100
AcDbArc
 50
256.1830577215
 51
283.8169422785
  0
ARC
  5
4DC
100
AcDbEntity
  8
0
100
AcDbCircle
 62
7
  6
CONTINUOUS
 10
675.6735538663
 20
252.1207341023
 40
130.0
100
AcDbArc
 50
211.763261764
 51
243.81759108
  0
ARC
  5
4DD
100
AcDbEntity
  8
0
100
AcDbCircle
 62
7
  6
CONTINUOUS
 10
675.6735538663
 20
252.1207341023
 40
130.0
100
AcDbArc
 50
180.0
 51
208.236738236
  0
ARC
  5
4DE
100
AcDbEntity
  8
0
100
AcDbCircle
 62
7
  6
CONTINUOUS
 10
675.6735538663
 20
412.1207341023
 40
90.0
100
AcDbArc
 50
0.0
 51
180.0
  0
ARC
  5
4DF
100
AcDbEntity
  8
0
100
AcDbCircle
 62
7
  6
CONTINUOUS
 10
675.6735538663
 20
252.1207341023
 40
90.0
100
AcDbArc
 50
298.9498179905
 51
360.0
  0
ARC
  5
4E0
100
AcDbEntity
  8
0
100
AcDbCircle
 62
7
  6
CONTINUOUS
 10
675.6735538663
 20
252.1207341023
 40
90.0
100
AcDbArc
 50
258.9501887468
 51
281.0498112532
  0
ARC
  5
4E1
100
AcDbEntity
  8
0
100
AcDbCircle
 62
7
  6
CONTINUOUS
 10
675.6735538663
 20
252.1207341023
 40
90.0
100
AcDbArc
 50
212.5477274242
 51
240.4429171076
  0
ARC
  5
4E2
100
AcDbEntity
  8
0
100
AcDbCircle
 62
7
  6
CONTINUOUS
 10
675.6735538663
 20
252.1207341023
 40
90.0
100
AcDbArc
 50
180.0
 51
207.4525438347
  0
ARC
  5
4E3
100
AcDbEntity
  8
0
100
AcDbCircle
 62
7
  6
CONTINUOUS
 10
762.5301652575
 20
58.4726930584
 40
178.952418109
100
AcDbArc
 50
134.021621333
 51
134.1550090982
  0
ARC
  5
4E4
100
AcDbEntity
  8
BEZUGSACHSEN
100
AcDbCircle
 62
7
  6
CONTINUOUS
 10
760.8514349854
 20
59.3226345353
 40
177.9360254145
100
AcDbArc
 50
133.9425454282
 51
134.0915395909
  0
ARC
  5
4E5
100
AcDbEntity
  8
BEZUGSACHSEN
100
AcDbCircle
 62
7
  6
CONTINUOUS
 10
768.9433000963
 20
70.8950115681
 40
176.2659470312
100
AcDbArc
 50
136.9716768329
 51
137.2741338725
  0
ARC
  5
4E6
100
AcDbEntity
  8
BEZUGSACHSEN
100
AcDbCircle
 62
7
  6
CONTINUOUS
 10
761.1376818403
 20
78.1064797306
 40
165.6389546852
100
AcDbArc
 50
137.2920904276
 51
137.5098488622
  0
ARC
  5
4E7
100
AcDbEntity
  8
BEZUGSACHSEN
100
AcDbCircle
 62
7
  6
CONTINUOUS
 10
757.8172199499
 20
78.0097244711
 40
163.2565358697
100
AcDbArc
 50
135.2557747279
 51
135.376466694
  0
ARC
  5
4E8
100
AcDbEntity
  8
BEZUGSACHSEN
100
AcDbCircle
 62
7
  6
CONTINUOUS
 10
757.4101721508
 20
83.391650766
 40
159.35405155
100
AcDbArc
 50
137.7805903615
 51
137.995033437
  0
ARC
  5
4E9
100
AcDbEntity
  8
BEZUGSACHSEN
100
AcDbCircle
 62
7
  6
CONTINUOUS
 10
742.5384918865
 20
68.4108267387
 40
29.25
100
AcDbArc
 50
231.8565064565
 51
344.7285400078
  0
ARC
  5
4EA
100
AcDbEntity
  8
RUNDUNGEN
100
AcDbCircle
 62
7
  6
CONTINUOUS
 10
742.5384918865
 20
68.4108267387
 40
29.25
100
AcDbArc
 50
344.7285400078
 51
348.1434935435
  0
ARC
  5
4EB
100
AcDbEntity
  8
RUNDUNGEN
100
AcDbCircle
 62
7
  6
CONTINUOUS
 10
751.3400114948
 20
85.1621119603
 40
15.0
100
AcDbArc
 50
20.0
 51
50.0
  0
ARC
  5
4EC
100
AcDbEntity
  8
BEZUGSACHSEN
100
AcDbCircle
 62
7
  6
CONTINUOUS
 10
725.0286181128
 20
75.5855479472
 40
15.0
100
AcDbArc
 50
170.0
 51
200.0
  0
CIRCLE
  5
4ED
100
AcDbEntity
  8
0
100
AcDbCircle
 62
7
  6
CONTINUOUS
 10
742.5384918865
 20
68.4108267387
 40
11.75
  0
ARC
  5
4EE
100
AcDbEntity
  8
RUNDUNGEN
100
AcDbCircle
 62
7
  6
CONTINUOUS
 10
767.5957442106
 20
69.7378973884
 40
5.0
100
AcDbArc
 50
348.1434935435
 51
20.0
  0
ARC
  5
4EF
100
AcDbEntity
  8
BEZUGSACHSEN
100
AcDbCircle
 62
7
  6
CONTINUOUS
 10
751.854995349
 20
88.3924998327
 40
151.8795289585
100
AcDbArc
 50
138.0066371358
 51
138.2431329516
  0
ARC
  5
4F0
100
AcDbEntity
  8
BEZUGSACHSEN
100
AcDbCircle
 62
7
  6
CONTINUOUS
 10
757.2610255237
 20
104.8047297998
 40
145.098649929
100
AcDbArc
 50
142.9410719969
 51
143.1131757449
  0
ARC
  5
4F1
100
AcDbEntity
  8
BEZUGSACHSEN
100
AcDbCircle
 62
7
  6
CONTINUOUS
 10
746.585534942
 20
103.6283514265
 40
137.8550060701
100
AcDbArc
 50
142.2251860378
 51
142.3614491531
  0
ARC
  5
4F2
100
AcDbEntity
  8
BEZUGSACHSEN
100
AcDbCircle
 62
7
  6
CONTINUOUS
 10
750.911310364
 20
112.2286387917
 40
130.9126705169
100
AcDbArc
 50
153.7903800795
 51
154.1303224702
  0
ARC
  5
4F3
100
AcDbEntity
  8
0
100
AcDbCircle
 62
7
  6
CONTINUOUS
 10
744.0582231988
 20
117.1679679483
 40
126.2259527608
100
AcDbArc
 50
143.3019228044
 51
143.6046212227
  0
ARC
  5
4F4
100
AcDbEntity
  8
BEZUGSACHSEN
100
AcDbCircle
 62
7
  6
CONTINUOUS
 10
741.3444061194
 20
119.1051585717
 40
123.7055769614
100
AcDbArc
 50
143.3831463776
 51
143.6393657689
  0
ARC
  5
4F5
100
AcDbEntity
  8
0
100
AcDbCircle
 62
7
  6
CONTINUOUS
 10
743.0539682787
 20
122.1962509388
 40
118.4653891077
100
AcDbArc
 50
155.9513858113
 51
156.5320574346
  0
ARC
  5
4F6
100
AcDbEntity
  8
BEZUGSACHSEN
100
AcDbCircle
 62
7
  6
CONTINUOUS
 10
741.2065889289
 20
123.7057842015
 40
116.8604054142
100
AcDbArc
 50
156.2822794181
 51
156.870710366
  0
ARC
  5
4F7
100
AcDbEntity
  8
0
100
AcDbCircle
 62
7
  6
CONTINUOUS
 10
724.3269562681
 20
139.1565160488
 40
94.7785743665
100
AcDbArc
 50
157.6181791994
 51
160.7063573424
  0
ARC
  5
4F8
100
AcDbEntity
  8
RUNDUNGEN
100
AcDbCircle
 62
7
  6
CONTINUOUS
 10
764.5247583925
 20
113.2610143812
 40
15.0
100
AcDbArc
 50
200.0
 51
229.3510356842
  0
ARC
  5
4F9
100
AcDbEntity
  8
RUNDUNGEN
100
AcDbCircle
 62
7
  6
CONTINUOUS
 10
741.7881391562
 20
117.2532743245
 40
5.0
100
AcDbArc
 50
20.0
 51
92.9651978369
  0
ARC
  5
4FA
100
AcDbEntity
  8
BEZUGSACHSEN
100
AcDbCircle
 62
7
  6
CONTINUOUS
 10
823.9537453364
 20
36.6788607091
 40
232.4217505048
100
AcDbArc
 50
145.1927680614
 51
145.3695528904
  0
ARC
  5
4FB
100
AcDbEntity
  8
0
100
AcDbCircle
 62
7
  6
CONTINUOUS
 10
801.5139966961
 20
63.6888643945
 40
197.7382932178
100
AcDbArc
 50
147.6922399284
 51
148.0636441423
  0
ARC
  5
4FC
100
AcDbEntity
  8
BEZUGSACHSEN
100
AcDbCircle
 62
7
  6
CONTINUOUS
 10
796.3449137113
 20
67.7998062345
 40
191.8483004338
100
AcDbArc
 50
147.9487509774
 51
148.331186176
  0
ARC
  5
4FD
100
AcDbEntity
  8
BEZUGSACHSEN
100
AcDbCircle
 62
7
  6
CONTINUOUS
 10
2206.9312893461
 20
-1191.3967200107
 40
2087.2738189492
100
AcDbArc
 50
138.6526165704
 51
138.8616880762
  0
ARC
  5
4FE
100
AcDbEntity
  8
0
100
AcDbCircle
 62
7
  6
CONTINUOUS
 10
2030.0003906317
 20
-1031.273122107
 40
1847.6393778578
100
AcDbArc
 50
138.7465287851
 51
138.9886609431
  0
ARC
  5
4FF
100
AcDbEntity
  8
BEZUGSACHSEN
100
AcDbCircle
 62
7
  6
CONTINUOUS
 10
1925.6404887495
 20
-938.3863143916
 40
1708.6877360137
100
AcDbArc
 50
138.7905122032
 51
139.0458392882
  0
ARC
  5
500
100
AcDbEntity
  8
BEZUGSACHSEN
100
AcDbCircle
 62
7
  6
CONTINUOUS
 10
1424.0006692209
 20
-843.0231025476
 40
1291.861646703
100
AcDbArc
 50
127.443785799
 51
127.7000283498
  0
ARC
  5
501
100
AcDbEntity
  8
0
100
AcDbCircle
 62
7
  6
CONTINUOUS
 10
1376.7150876412
 20
-778.3698835474
 40
1211.1270794066
100
AcDbArc
 50
127.5075293369
 51
127.7616337591
  0
ARC
  5
502
100
AcDbEntity
  8
BEZUGSACHSEN
100
AcDbCircle
 62
7
  6
CONTINUOUS
 10
1296.0618115224
 20
-669.8828374147
 40
1077.1319047081
100
AcDbArc
 50
127.6025083502
 51
127.8064579262
  0
ARC
  5
503
100
AcDbEntity
  8
BEZUGSACHSEN
100
AcDbCircle
 62
7
  6
CONTINUOUS
 10
-361.2680933788
 20
-170.5630413411
 40
625.1376177428
100
AcDbArc
 50
33.0873992064
 51
33.6123774097
  0
ARC
  5
504
100
AcDbEntity
  8
0
100
AcDbCircle
 62
7
  6
CONTINUOUS
 10
-356.1002257169
 20
-167.968516056
 40
618.0989129195
100
AcDbArc
 50
33.1257579653
 51
33.5462528539
  0
ARC
  5
505
100
AcDbEntity
  8
BEZUGSACHSEN
100
AcDbCircle
 62
7
  6
CONTINUOUS
 10
-351.5677227191
 20
-163.9497305736
 40
612.2372310717
100
AcDbArc
 50
33.06122709
 51
33.4864495679
  0
ARC
  5
506
100
AcDbEntity
  8
BEZUGSACHSEN
100
AcDbCircle
 62
7
  6
CONTINUOUS
 10
-314.1734010068
 20
-138.662289383
 40
563.6137867503
100
AcDbArc
 50
33.0432531017
 51
33.5051555814
  0
ARC
  5
507
100
AcDbEntity
  8
0
100
AcDbCircle
 62
7
  6
CONTINUOUS
 10
-303.2192855426
 20
-132.2175220357
 40
549.3926641481
100
AcDbArc
 50
33.1327177341
 51
33.5806544044
  0
ARC
  5
508
100
AcDbEntity
  8
BEZUGSACHSEN
100
AcDbCircle
 62
7
  6
CONTINUOUS
 10
-298.8347564027
 20
-128.2959502583
 40
543.7080327668
100
AcDbArc
 50
33.060190068
 51
33.5136491839
  0
ARC
  5
509
100
AcDbEntity
  8
0
100
AcDbCircle
 62
7
  6
CONTINUOUS
 10
-13.2949855869
 20
-293.6864839311
 40
515.5382650929
100
AcDbArc
 50
70.7943825044
 51
72.7929846467
  0
ARC
  5
50A
100
AcDbEntity
  8
BEZUGSACHSEN
100
AcDbCircle
 62
7
  6
CONTINUOUS
 10
-204.2481807412
 20
-174.7110107825
 40
504.8638982928
100
AcDbArc
 50
44.4063290237
 51
44.5713038323
  0
ARC
  5
50B
100
AcDbEntity
  8
BEZUGSACHSEN
100
AcDbCircle
 62
7
  6
CONTINUOUS
 10
-208.0716795756
 20
-179.8620456497
 40
504.3677678525
100
AcDbArc
 50
43.5106578083
 51
43.6545686981
  0
ARC
  5
50C
100
AcDbEntity
  8
0
100
AcDbCircle
 62
7
  6
CONTINUOUS
 10
-205.9940506377
 20
-179.1451317698
 40
502.2060196891
100
AcDbArc
 50
43.5950750677
 51
43.7393816529
  0
ARC
  5
50D
100
AcDbEntity
  8
BEZUGSACHSEN
100
AcDbCircle
 62
7
  6
CONTINUOUS
 10
-103.127765992
 20
-188.1059689133
 40
450.2522657401
100
AcDbArc
 50
55.430870463
 51
55.6192828076
  0
ARC
  5
50E
100
AcDbEntity
  8
BEZUGSACHSEN
100
AcDbCircle
 62
7
  6
CONTINUOUS
 10
-92.387966825
 20
-172.2561166949
 40
431.1063031671
100
AcDbArc
 50
56.520195838
 51
56.7144683044
  0
ARC
  5
50F
100
AcDbEntity
  8
BEZUGSACHSEN
100
AcDbCircle
 62
7
  6
CONTINUOUS
 10
65.7709296729
 20
77.9646922011
 40
7.4431189386
100
AcDbArc
 50
359.9958953779
 51
8.4290391186
  0
ARC
  5
510
100
AcDbEntity
  8
BEZUGSACHSEN
100
AcDbCircle
 62
7
  6
CONTINUOUS
 10
65.9278187083
 20
77.9868692771
 40
7.284673856
100
AcDbArc
 50
8.4373759869
 51
12.61124664
  0
ARC
  5
511
100
AcDbEntity
  8
BEZUGSACHSEN
100
AcDbCircle
 62
7
  6
CONTINUOUS
 10
66.0863590827
 20
78.0221384002
 40
7.1222579646
100
AcDbArc
 50
12.6128287213
 51
16.7886329729
  0
ARC
  5
512
100
AcDbEntity
  8
BEZUGSACHSEN
100
AcDbCircle
 62
7
  6
CONTINUOUS
 10
66.3770755166
 20
78.1143395283
 40
6.8173025998
100
AcDbArc
 50
16.75249255
 51
25.2272206241
  0
ARC
  5
513
100
AcDbEntity
  8
BEZUGSACHSEN
100
AcDbCircle
 62
7
  6
CONTINUOUS
 10
76.2186921023
 20
46.840960983
 40
3.0060719036
100
AcDbArc
 50
214.2441743124
 51
222.6546958858
  0
ARC
  5
514
100
AcDbEntity
  8
BEZUGSACHSEN
100
AcDbCircle
 62
7
  6
CONTINUOUS
 10
76.2140668063
 20
46.8369975998
 40
3.0000182139
100
AcDbArc
 50
180.0001071364
 51
214.2313101885
  0
ARC
  5
515
100
AcDbEntity
  8
BEZUGSACHSEN
100
AcDbCircle
 62
7
  6
CONTINUOUS
 10
76.2140858616
 20
46.8366107643
 40
2.9997366282
100
AcDbArc
 50
222.65320068
 51
230.2495468426
  0
ARC
  5
516
100
AcDbEntity
  8
0
100
AcDbCircle
 62
7
  6
CONTINUOUS
 10
88.4621420259
 20
130.9653021597
 40
42.570153639
100
AcDbArc
 50
92.5834500712
 51
92.9546387933
  0
ARC
  5
517
100
AcDbEntity
  8
0
100
AcDbCircle
 62
7
  6
CONTINUOUS
 10
68.6992742288
 20
154.2743882441
 40
31.1488811882
100
AcDbArc
 50
46.0523727281
 51
47.1399861839
  0
ARC
  5
518
100
AcDbEntity
  8
0
100
AcDbCircle
 62
7
  6
CONTINUOUS
 10
79.7160937544
 20
140.4587802926
 40
31.027667489
100
AcDbArc
 50
80.0206599519
 51
81.399167057
  0
ARC
  5
519
100
AcDbEntity
  8
BEZUGSACHSEN
100
AcDbCircle
 62
7
  6
CONTINUOUS
 10
69.9361174915
 20
155.0992681663
 40
29.8957611993
100
AcDbArc
 50
47.0219107169
 51
47.13876259
  0
ARC
  5
51A
100
AcDbEntity
  8
0
100
AcDbCircle
 62
7
  6
CONTINUOUS
 10
70.4693389331
 20
142.7622095555
 40
27.8277133139
100
AcDbArc
 50
63.7565907283
 51
65.0534726408
  0
ARC
  5
51B
100
AcDbEntity
  8
KONSTRUKTIONSELEMENTE
100
AcDbCircle
 62
7
  6
CONTINUOUS
 10
90.1853234133
 20
189.635090754
 40
13.9712821972
100
AcDbArc
 50
180.0588761776
 51
193.6866326207
  0
ARC
  5
51C
100
AcDbEntity
  8
RUNDUNGEN
100
AcDbCircle
 62
7
  6
CONTINUOUS
 10
90.6960821941
 20
117.2469442112
 40
5.0063302064
100
AcDbArc
 50
90.0110569998
 51
97.1568510848
  0
ARC
  5
51D
100
AcDbEntity
  8
BEZUGSACHSEN
100
AcDbCircle
 62
7
  6
CONTINUOUS
 10
577.5422650183
 20
-178.424454507
 40
611.2175326769
100
AcDbArc
 50
144.8308731352
 51
145.1240784657
  0
ARC
  5
51E
100
AcDbEntity
  8
0
100
AcDbCircle
 62
7
  6
CONTINUOUS
 10
567.6633254255
 20
-172.3587890807
 40
598.7372911855
100
AcDbArc
 50
144.7543077488
 51
144.9694306206
  0
ARC
  5
51F
100
AcDbEntity
  8
BEZUGSACHSEN
100
AcDbCircle
 62
7
  6
CONTINUOUS
 10
566.6120330485
 20
-170.5615620355
 40
596.9835654122
100
AcDbArc
 50
144.8177134903
 51
145.0551260744
  0
ARC
  5
520
100
AcDbEntity
  8
BEZUGSACHSEN
100
AcDbCircle
 62
7
  6
CONTINUOUS
 10
543.4204255477
 20
-153.7082409512
 40
566.0080027588
100
AcDbArc
 50
144.8171238146
 51
145.0675660494
  0
ARC
  5
521
100
AcDbEntity
  8
0
100
AcDbCircle
 62
7
  6
CONTINUOUS
 10
535.6222749483
 20
-149.0646723742
 40
555.893825166
100
AcDbArc
 50
144.7753608015
 51
144.9803953761
  0
ARC
  5
522
100
AcDbEntity
  8
BEZUGSACHSEN
100
AcDbCircle
 62
7
  6
CONTINUOUS
 10
534.6767408486
 20
-147.3401624928
 40
554.268438517
100
AcDbArc
 50
144.8439243247
 51
145.0728415961
  0
ARC
  5
523
100
AcDbEntity
  8
0
100
AcDbCircle
 62
7
  6
CONTINUOUS
 10
246.8000441647
 20
-278.7185383326
 40
499.7839701756
100
AcDbArc
 50
107.175511835
 51
109.2371210256
  0
ARC
  5
524
100
AcDbEntity
  8
0
100
AcDbCircle
 62
7
  6
CONTINUOUS
 10
382.9269024435
 20
-194.4568612731
 40
472.629644258
100
AcDbArc
 50
127.8659444618
 51
128.251255724
  0
ARC
  5
525
100
AcDbEntity
  8
BEZUGSACHSEN
100
AcDbCircle
 62
7
  6
CONTINUOUS
 10
369.6384150894
 20
-178.086985408
 40
458.6434947464
100
AcDbArc
 50
127.929818086
 51
128.3272594378
  0
ARC
  5
526
100
AcDbEntity
  8
0
100
AcDbCircle
 62
7
  6
CONTINUOUS
 10
365.7724259176
 20
-174.008505201
 40
451.960965379
100
AcDbArc
 50
127.8639150509
 51
128.1409884861
  0
ARC
  5
527
100
AcDbEntity
  8
BEZUGSACHSEN
100
AcDbCircle
 62
7
  6
CONTINUOUS
 10
363.6841923845
 20
-170.2195162653
 40
447.9002285787
100
AcDbArc
 50
127.9294379513
 51
128.2344738823
  0
ARC
  5
528
100
AcDbEntity
  8
BEZUGSACHSEN
100
AcDbCircle
 62
7
  6
CONTINUOUS
 10
242.8810788034
 20
-181.5387630442
 40
398.6063280031
100
AcDbArc
 50
111.126199076
 51
111.3123630318
  0
ARC
  5
529
100
AcDbEntity
  8
BEZUGSACHSEN
100
AcDbCircle
 62
7
  6
CONTINUOUS
 10
336.2731304987
 20
-133.4768270998
 40
396.0716268728
100
AcDbArc
 50
127.9280474613
 51
128.3884648871
  0
ARC
  5
52A
100
AcDbEntity
  8
BEZUGSACHSEN
100
AcDbCircle
 62
7
  6
CONTINUOUS
 10
333.8584640031
 20
-130.5954413194
 40
393.1927870654
100
AcDbArc
 50
127.9293102803
 51
128.2768884755
  0
ARC
  5
52B
100
AcDbEntity
  8
0
100
AcDbCircle
 62
7
  6
CONTINUOUS
 10
324.4754377439
 20
-8.6084456399
 40
297.8827505863
100
AcDbArc
 50
140.9221626414
 51
141.0482642884
  0
ARC
  5
52C
100
AcDbEntity
  8
BEZUGSACHSEN
100
AcDbCircle
 62
7
  6
CONTINUOUS
 10
304.8532689334
 20
6.7575647386
 40
273.1382163172
100
AcDbArc
 50
140.7848566887
 51
140.9219933648
  0
ARC
  5
52D
100
AcDbEntity
  8
0
100
AcDbCircle
 62
7
  6
CONTINUOUS
 10
232.1122219229
 20
-42.27649279
 40
260.1105944798
100
AcDbArc
 50
123.7143995081
 51
123.8677465149
  0
ARC
  5
52E
100
AcDbEntity
  8
0
100
AcDbCircle
 62
7
  6
CONTINUOUS
 10
115.0506926039
 20
90.1860473718
 40
88.0487574951
100
AcDbArc
 50
108.4684692645
 51
108.8909554659
  0
ARC
  5
52F
100
AcDbEntity
  8
0
100
AcDbCircle
 62
7
  6
CONTINUOUS
 10
119.2140485924
 20
-20.734452681
 40
65.0
100
AcDbArc
 50
99.9667663002
 51
112.8531497492
  0
ARC
  5
530
100
AcDbEntity
  8
0
100
AcDbCircle
 62
7
  6
CONTINUOUS
 10
119.2140485924
 20
-20.734452681
 40
65.0
100
AcDbArc
 50
67.1468502508
 51
80.0332336998
  0
ARC
  5
531
100
AcDbEntity
  8
KONSTRUKTIONSELEMENTE
100
AcDbCircle
 62
7
  6
CONTINUOUS
 10
161.7050838532
 20
67.8917756033
 40
16.3956795964
100
AcDbArc
 50
282.3620584214
 51
282.5516998537
  0
ARC
  5
532
100
AcDbEntity
  8
BEZUGSACHSEN
100
AcDbCircle
 62
7
  6
CONTINUOUS
 10
172.6195443271
 20
77.9665737732
 40
7.4054961284
100
AcDbArc
 50
167.4369856186
 51
180.0186830607
  0
ARC
  5
533
100
AcDbEntity
  8
BEZUGSACHSEN
100
AcDbCircle
 62
7
  6
CONTINUOUS
 10
162.2094050825
 20
46.840960983
 40
3.0060719036
100
AcDbArc
 50
317.3453041158
 51
325.755825688
  0
ARC
  5
534
100
AcDbEntity
  8
BEZUGSACHSEN
100
AcDbCircle
 62
7
  6
CONTINUOUS
 10
162.2140113242
 20
46.8366107633
 40
2.9997366268
100
AcDbArc
 50
309.7504523122
 51
359.9998928591
  0
ARC
  5
535
100
AcDbEntity
  8
BEZUGSACHSEN
100
AcDbCircle
 62
7
  6
CONTINUOUS
 10
155.2446899717
 20
77.9842393851
 40
2.6694583026
100
AcDbArc
 50
3.5662869345
 51
9.6930581263
  0
ARC
  5
536
100
AcDbEntity
  8
0
100
AcDbCircle
 62
7
  6
CONTINUOUS
 10
258.1861778795
 20
117.1700322287
 40
176.2209981629
100
AcDbArc
 50
159.2169773484
 51
159.4008175063
  0
ARC
  5
537
100
AcDbEntity
  8
BEZUGSACHSEN
100
AcDbCircle
 62
7
  6
CONTINUOUS
 10
117.4788020754
 20
142.7837670263
 40
24.3885113864
100
AcDbArc
 50
138.5140604337
 51
152.7094826247
  0
ARC
  5
538
100
AcDbEntity
  8
BEZUGSACHSEN
100
AcDbCircle
 62
7
  6
CONTINUOUS
 10
120.9492951094
 20
142.7837670263
 40
24.3885113864
100
AcDbArc
 50
27.2905173753
 51
41.4859395663
  0
ARC
  5
539
100
AcDbEntity
  8
BEZUGSACHSEN
100
AcDbCircle
 62
7
  6
CONTINUOUS
 10
117.4770892447
 20
142.8193283951
 40
24.3863277882
100
AcDbArc
 50
138.5137871304
 51
152.7851880339
  0
ARC
  5
53A
100
AcDbEntity
  8
BEZUGSACHSEN
100
AcDbCircle
 62
7
  6
CONTINUOUS
 10
120.9510079401
 20
142.8193283951
 40
24.3863277882
100
AcDbArc
 50
27.2148119661
 51
41.4862128696
  0
ARC
  5
53B
100
AcDbEntity
  8
BEZUGSACHSEN
100
AcDbCircle
 62
7
  6
CONTINUOUS
 10
116.946316373
 20
143.1244036649
 40
23.774810188
100
AcDbArc
 50
152.8540294953
 51
154.5255317865
  0
ARC
  5
53C
100
AcDbEntity
  8
BEZUGSACHSEN
100
AcDbCircle
 62
7
  6
CONTINUOUS
 10
121.4817808117
 20
143.1244036649
 40
23.7748101881
100
AcDbArc
 50
25.4744682135
 51
27.1459705047
  0
ARC
  5
53D
100
AcDbEntity
  8
BEZUGSACHSEN
100
AcDbCircle
 62
7
  6
CONTINUOUS
 10
116.8664819892
 20
143.5738107281
 40
23.6861298829
100
AcDbArc
 50
204.3478832397
 51
206.1603375984
  0
ARC
  5
53E
100
AcDbEntity
  8
BEZUGSACHSEN
100
AcDbCircle
 62
7
  6
CONTINUOUS
 10
121.5805891796
 20
143.5650063108
 40
23.6652136041
100
AcDbArc
 50
334.3093996253
 51
335.655185577
  0
ARC
  5
53F
100
AcDbEntity
  8
BEZUGSACHSEN
100
AcDbCircle
 62
7
  6
CONTINUOUS
 10
121.5923828211
 20
143.1772846276
 40
23.6522166644
100
AcDbArc
 50
24.267272392
 51
25.4740592695
  0
ARC
  5
540
100
AcDbEntity
  8
BEZUGSACHSEN
100
AcDbCircle
 62
7
  6
CONTINUOUS
 10
116.8354560068
 20
143.1774055458
 40
23.6519314177
100
AcDbArc
 50
154.5259359888
 51
155.7392943245
  0
ARC
  5
541
100
AcDbEntity
  8
BEZUGSACHSEN
100
AcDbCircle
 62
7
  6
CONTINUOUS
 10
122.1873281343
 20
142.0999630931
 40
23.6005898992
100
AcDbArc
 50
30.1392215997
 51
31.3103727201
  0
ARC
  5
542
100
AcDbEntity
  8
BEZUGSACHSEN
100
AcDbCircle
 62
7
  6
CONTINUOUS
 10
116.7697608855
 20
143.5296100115
 40
23.5797883597
100
AcDbArc
 50
203.7878050468
 51
204.346926641
  0
ARC
  5
543
100
AcDbEntity
  8
BEZUGSACHSEN
100
AcDbCircle
 62
7
  6
CONTINUOUS
 10
121.6584454493
 20
143.52956147
 40
23.5796689032
100
AcDbArc
 50
335.6556683012
 51
336.2121959055
  0
ARC
  5
544
100
AcDbEntity
  8
BEZUGSACHSEN
100
AcDbCircle
 62
7
  6
CONTINUOUS
 10
121.6617051332
 20
143.2087157631
 40
23.5761017995
100
AcDbArc
 50
23.7877777139
 51
24.2668767713
  0
ARC
  5
545
100
AcDbEntity
  8
BEZUGSACHSEN
100
AcDbCircle
 62
7
  6
CONTINUOUS
 10
116.7661152338
 20
143.2088387086
 40
23.5757989086
100
AcDbArc
 50
155.7396972082
 51
156.2122243428
  0
ARC
  5
546
100
AcDbEntity
  8
BEZUGSACHSEN
100
AcDbCircle
 62
7
  6
CONTINUOUS
 10
116.1184203479
 20
142.1710903014
 40
23.4591084001
100
AcDbArc
 50
149.8640001275
 51
150.2012647813
  0
ARC
  5
547
100
AcDbEntity
  8
BEZUGSACHSEN
100
AcDbCircle
 62
7
  6
CONTINUOUS
 10
122.3098370725
 20
142.1709017223
 40
23.4590247126
100
AcDbArc
 50
28.5540920992
 51
30.1396216611
  0
ARC
  5
548
100
AcDbEntity
  8
BEZUGSACHSEN
100
AcDbCircle
 62
7
  6
CONTINUOUS
 10
116.0714190208
 20
142.1979334902
 40
23.404981905
100
AcDbArc
 50
150.2011089675
 51
151.1125925689
  0
ARC
  5
549
100
AcDbEntity
  8
BEZUGSACHSEN
100
AcDbCircle
 62
7
  6
CONTINUOUS
 10
122.0538494024
 20
143.3866556279
 40
23.1602329387
100
AcDbArc
 50
336.1411433044
 51
359.8704858215
  0
ARC
  5
54A
100
AcDbEntity
  8
BEZUGSACHSEN
100
AcDbCircle
 62
7
  6
CONTINUOUS
 10
116.3742477823
 20
143.3866556279
 40
23.1602329387
100
AcDbArc
 50
180.1295141785
 51
203.8588566956
  0
ARC
  5
54B
100
AcDbEntity
  8
BEZUGSACHSEN
100
AcDbCircle
 62
7
  6
CONTINUOUS
 10
116.3732580098
 20
143.3504481968
 40
23.1592163861
100
AcDbArc
 50
156.1407757732
 51
179.9555520657
  0
ARC
  5
54C
100
AcDbEntity
  8
BEZUGSACHSEN
100
AcDbCircle
 62
7
  6
CONTINUOUS
 10
122.054839175
 20
143.3504481968
 40
23.1592163861
100
AcDbArc
 50
0.0444479343
 51
23.8592242268
  0
ARC
  5
54D
100
AcDbEntity
  8
0
100
AcDbCircle
 62
7
  6
CONTINUOUS
 10
119.2140485924
 20
522.1207341023
 40
20.0
100
AcDbArc
 50
0.0
 51
180.0
  0
ARC
  5
54E
100
AcDbEntity
  8
0
100
AcDbCircle
 62
7
  6
CONTINUOUS
 10
119.2140485924
 20
142.1207341023
 40
20.0
100
AcDbArc
 50
180.0
 51
263.4956183799
  0
ARC
  5
54F
100
AcDbEntity
  8
0
100
AcDbCircle
 62
7
  6
CONTINUOUS
 10
119.2140485924
 20
142.1207341023
 40
20.0
100
AcDbArc
 50
276.5043816201
 51
360.0
  0
ARC
  5
550
100
AcDbEntity
  8
RUNDUNGEN
100
AcDbCircle
 62
7
  6
CONTINUOUS
 10
147.7326778864
 20
117.2484607618
 40
5.004813878
100
AcDbArc
 50
82.8525966125
 51
89.9965285798
  0
SPLINE
  5
551
100
AcDbEntity
  8
BEZUGSACHSEN
100
AcDbSpline
 62
7
  6
CONTINUOUS
 70
0
 71
3
 72
9
 73
5
 74
0
 42
0.0000001
 43
0.0000001
 44
0.0000000001
 40
0.0
 40
0.0
 40
0.0
 40
0.0
 40
0.2473743609
 40
1.0
 40
1.0
 40
1.0
 40
1.0
 10
720.0707952387
 20
173.8403634687
 30
0.0
 10
720.0167562346
 20
173.942191673
 30
0.0
 10
719.7857314646
 20
174.3470724806
 30
0.0
 10
719.5048996105
 20
174.7231909408
 30
0.0
 10
719.2718897866
 20
174.9853328816
 30
0.0
  0
LINE
  5
552
100
AcDbEntity
  8
BEZUGSACHSEN
100
AcDbLine
 62
7
  6
CONTINUOUS
 10
718.6367749544
 20
175.606946203
 11
718.4087483538
 21
175.8018630428
  0
LINE
  5
553
100
AcDbEntity
  8
BEZUGSACHSEN
100
AcDbLine
 62
7
  6
CONTINUOUS
 10
718.980465742
 20
176.9918841246
 11
718.5830332411
 21
178.0843494765
  0
LINE
  5
554
100
AcDbEntity
  8
BEZUGSACHSEN
100
AcDbLine
 62
7
  6
CONTINUOUS
 10
716.0210876803
 20
182.2004325041
 11
716.3911106574
 21
181.7768581509
  0
LINE
  5
555
100
AcDbEntity
  8
BEZUGSACHSEN
100
AcDbLine
 62
7
  6
CONTINUOUS
 10
714.6785078156
 20
186.8752367313
 11
714.6358854033
 21
186.949046993
  0
LINE
  5
556
100
AcDbEntity
  8
BEZUGSACHSEN
100
AcDbLine
 62
7
  6
CONTINUOUS
 10
714.5495585981
 20
187.0953651506
 11
714.5058410447
 21
187.1678678026
  0
LINE
  5
557
100
AcDbEntity
  8
BEZUGSACHSEN
100
AcDbLine
 62
7
  6
CONTINUOUS
 10
714.3055560895
 20
187.432244835
 11
714.3311104934
 21
187.3989802361
  0
LINE
  5
558
100
AcDbEntity
  8
BEZUGSACHSEN
100
AcDbLine
 62
7
  6
CONTINUOUS
 10
714.3311104934
 20
187.3989802361
 11
714.3571920712
 21
187.3650035393
  0
LINE
  5
559
100
AcDbEntity
  8
BEZUGSACHSEN
100
AcDbLine
 62
7
  6
CONTINUOUS
 10
713.7369944897
 20
188.4692888374
 11
713.4224208213
 21
188.8276839877
  0
LINE
  5
55A
100
AcDbEntity
  8
BEZUGSACHSEN
100
AcDbLine
 62
7
  6
CONTINUOUS
 10
712.6572088643
 20
189.6893532252
 11
712.4778038108
 21
189.8894187395
  0
LINE
  5
55B
100
AcDbEntity
  8
BEZUGSACHSEN
100
AcDbLine
 62
7
  6
CONTINUOUS
 10
711.6383056721
 20
190.8165544717
 11
711.6153449424
 21
190.84171264
  0
LINE
  5
55C
100
AcDbEntity
  8
BEZUGSACHSEN
100
AcDbLine
 62
7
  6
CONTINUOUS
 10
710.8514662307
 20
191.6730772597
 11
710.6815295476
 21
191.8632112361
  0
LINE
  5
55D
100
AcDbEntity
  8
BEZUGSACHSEN
100
AcDbLine
 62
7
  6
CONTINUOUS
 10
710.6815295476
 20
191.8632112361
 11
710.6146922637
 21
191.9379672265
  0
LINE
  5
55E
100
AcDbEntity
  8
BEZUGSACHSEN
100
AcDbLine
 62
7
  6
CONTINUOUS
 10
710.6146922637
 20
191.9379672265
 11
710.5605534102
 21
191.998510051
  0
LINE
  5
55F
100
AcDbEntity
  8
BEZUGSACHSEN
100
AcDbLine
 62
7
  6
CONTINUOUS
 10
710.5605534102
 20
191.998510051
 11
710.4957678277
 21
192.0709469896
  0
LINE
  5
560
100
AcDbEntity
  8
BEZUGSACHSEN
100
AcDbLine
 62
7
  6
CONTINUOUS
 10
710.4957678277
 20
192.0709469896
 11
710.3764851759
 21
192.2042833398
  0
LINE
  5
561
100
AcDbEntity
  8
BEZUGSACHSEN
100
AcDbLine
 62
7
  6
CONTINUOUS
 10
710.1375845436
 20
192.4788250059
 11
710.3764851759
 21
192.2042833398
  0
LINE
  5
562
100
AcDbEntity
  8
BEZUGSACHSEN
100
AcDbLine
 62
7
  6
CONTINUOUS
 10
709.9916202078
 20
192.6525331654
 11
710.0476800043
 21
192.5858369069
  0
LINE
  5
563
100
AcDbEntity
  8
BEZUGSACHSEN
100
AcDbLine
 62
7
  6
CONTINUOUS
 10
710.0476800043
 20
192.5858369069
 11
710.1375845436
 21
192.4788250059
  0
LINE
  5
564
100
AcDbEntity
  8
BEZUGSACHSEN
100
AcDbLine
 62
7
  6
CONTINUOUS
 10
710.0409753842
 20
192.7177524419
 11
709.8052798517
 21
192.9879919765
  0
LINE
  5
565
100
AcDbEntity
  8
BEZUGSACHSEN
100
AcDbLine
 62
7
  6
CONTINUOUS
 10
709.8052798517
 20
192.9879919765
 11
709.6707799661
 21
193.1421690095
  0
LINE
  5
566
100
AcDbEntity
  8
BEZUGSACHSEN
100
AcDbLine
 62
7
  6
CONTINUOUS
 10
709.6707799661
 20
193.1421690095
 11
709.5685486336
 21
193.2593396768
  0
LINE
  5
567
100
AcDbEntity
  8
BEZUGSACHSEN
100
AcDbLine
 62
7
  6
CONTINUOUS
 10
709.5685486336
 20
193.2593396768
 11
709.5144833316
 21
193.3207020052
  0
SPLINE
  5
568
100
AcDbEntity
  8
BEZUGSACHSEN
100
AcDbSpline
 62
7
  6
CONTINUOUS
 70
0
 71
3
 72
8
 73
4
 74
0
 42
0.0000001
 43
0.0000001
 44
0.0000000001
 40
0.0
 40
0.0
 40
0.0
 40
0.0
 40
1.0
 40
1.0
 40
1.0
 40
1.0
 10
714.4364387323
 20
187.4798807883
 30
0.0
 10
714.4345616589
 20
187.5338475767
 30
0.0
 10
714.4245905092
 20
187.5882138336
 30
0.0
 10
714.4064745428
 20
187.6390837601
 30
0.0
  0
LINE
  5
569
100
AcDbEntity
  8
BEZUGSACHSEN
100
AcDbLine
 62
7
  6
CONTINUOUS
 10
714.112385287
 20
188.0376046511
 11
713.9120024711
 21
188.2680382707
  0
LINE
  5
56A
100
AcDbEntity
  8
BEZUGSACHSEN
100
AcDbLine
 62
7
  6
CONTINUOUS
 10
713.9120024711
 20
188.2680382707
 11
713.8309602113
 21
188.3612332066
  0
LINE
  5
56B
100
AcDbEntity
  8
BEZUGSACHSEN
100
AcDbLine
 62
7
  6
CONTINUOUS
 10
713.8309602113
 20
188.3612332066
 11
713.7369944897
 21
188.4692888374
  0
LINE
  5
56C
100
AcDbEntity
  8
BEZUGSACHSEN
100
AcDbLine
 62
7
  6
CONTINUOUS
 10
713.7239319759
 20
188.1044923644
 11
713.2387571361
 21
188.6660751583
  0
LINE
  5
56D
100
AcDbEntity
  8
BEZUGSACHSEN
100
AcDbLine
 62
7
  6
CONTINUOUS
 10
714.2484558163
 20
187.4561152991
 11
714.2175310352
 21
187.4944413544
  0
LINE
  5
56E
100
AcDbEntity
  8
BEZUGSACHSEN
100
AcDbLine
 62
7
  6
CONTINUOUS
 10
714.2175310352
 20
187.4944413544
 11
714.1184696166
 21
187.617126316
  0
LINE
  5
56F
100
AcDbEntity
  8
BEZUGSACHSEN
100
AcDbLine
 62
7
  6
CONTINUOUS
 10
714.1184696166
 20
187.617126316
 11
713.9877203734
 21
187.7788595927
  0
LINE
  5
570
100
AcDbEntity
  8
BEZUGSACHSEN
100
AcDbLine
 62
7
  6
CONTINUOUS
 10
713.9877203734
 20
187.7788595927
 11
713.7239319759
 21
188.1044923644
  0
LINE
  5
571
100
AcDbEntity
  8
BEZUGSACHSEN
100
AcDbLine
 62
7
  6
CONTINUOUS
 10
714.25867264
 20
187.4425239961
 11
714.2484558163
 21
187.4561152991
  0
LINE
  5
572
100
AcDbEntity
  8
BEZUGSACHSEN
100
AcDbLine
 62
7
  6
CONTINUOUS
 10
714.6632641097
 20
186.8620166291
 11
714.7060354195
 21
186.790962338
  0
LINE
  5
573
100
AcDbEntity
  8
BEZUGSACHSEN
100
AcDbLine
 62
7
  6
CONTINUOUS
 10
714.779846305
 20
186.5903112772
 11
714.8029745731
 21
186.5228967101
  0
LINE
  5
574
100
AcDbEntity
  8
BEZUGSACHSEN
100
AcDbLine
 62
7
  6
CONTINUOUS
 10
709.3659911396
 20
192.9540912676
 11
709.4123601012
 21
192.9167000284
  0
LINE
  5
575
100
AcDbEntity
  8
BEZUGSACHSEN
100
AcDbLine
 62
7
  6
CONTINUOUS
 10
709.8325598268
 20
192.4999958614
 11
709.9771726849
 21
192.3401705735
  0
LINE
  5
576
100
AcDbEntity
  8
BEZUGSACHSEN
100
AcDbLine
 62
7
  6
CONTINUOUS
 10
709.9771726849
 20
192.3401705735
 11
710.1214346133
 21
192.1807113542
  0
LINE
  5
577
100
AcDbEntity
  8
BEZUGSACHSEN
100
AcDbLine
 62
7
  6
CONTINUOUS
 10
710.1214346133
 20
192.1807113542
 11
710.265345541
 21
192.0216181456
  0
LINE
  5
578
100
AcDbEntity
  8
BEZUGSACHSEN
100
AcDbLine
 62
7
  6
CONTINUOUS
 10
710.265345541
 20
192.0216181456
 11
710.3482532621
 21
191.9299537674
  0
LINE
  5
579
100
AcDbEntity
  8
BEZUGSACHSEN
100
AcDbLine
 62
7
  6
CONTINUOUS
 10
710.3482532621
 20
191.9299537674
 11
710.4089053951
 21
191.8628908885
  0
LINE
  5
57A
100
AcDbEntity
  8
BEZUGSACHSEN
100
AcDbLine
 62
7
  6
CONTINUOUS
 10
710.7648694007
 20
190.913877897
 11
710.5794788555
 21
191.1434849897
  0
LINE
  5
57B
100
AcDbEntity
  8
BEZUGSACHSEN
100
AcDbLine
 62
7
  6
CONTINUOUS
 10
710.5794788555
 20
191.1434849897
 11
710.3929337447
 21
191.3742658561
  0
LINE
  5
57C
100
AcDbEntity
  8
BEZUGSACHSEN
100
AcDbLine
 62
7
  6
CONTINUOUS
 10
711.2454537679
 20
190.3506252026
 11
711.1881508981
 21
190.4178018414
  0
LINE
  5
57D
100
AcDbEntity
  8
BEZUGSACHSEN
100
AcDbLine
 62
7
  6
CONTINUOUS
 10
711.1881508981
 20
190.4178018414
 11
711.1257032255
 21
190.4910045561
  0
LINE
  5
57E
100
AcDbEntity
  8
BEZUGSACHSEN
100
AcDbLine
 62
7
  6
CONTINUOUS
 10
711.1257032255
 20
190.4910045561
 11
711.0056889538
 21
190.6316730977
  0
LINE
  5
57F
100
AcDbEntity
  8
BEZUGSACHSEN
100
AcDbLine
 62
7
  6
CONTINUOUS
 10
711.0056889538
 20
190.6316730977
 11
710.8854109975
 21
190.7726308655
  0
LINE
  5
580
100
AcDbEntity
  8
BEZUGSACHSEN
100
AcDbLine
 62
7
  6
CONTINUOUS
 10
710.8854109975
 20
190.7726308655
 11
710.7648694007
 21
190.913877897
  0
LINE
  5
581
100
AcDbEntity
  8
BEZUGSACHSEN
100
AcDbLine
 62
7
  6
CONTINUOUS
 10
713.0145470651
 20
188.3527739548
 11
712.9086547821
 21
188.4723634347
  0
LINE
  5
582
100
AcDbEntity
  8
BEZUGSACHSEN
100
AcDbLine
 62
7
  6
CONTINUOUS
 10
712.9086547821
 20
188.4723634347
 11
712.5746155316
 21
188.8496068624
  0
LINE
  5
583
100
AcDbEntity
  8
BEZUGSACHSEN
100
AcDbLine
 62
7
  6
CONTINUOUS
 10
712.5746155316
 20
188.8496068624
 11
712.55511219
 21
188.8716325593
  0
LINE
  5
584
100
AcDbEntity
  8
BEZUGSACHSEN
100
AcDbLine
 62
7
  6
CONTINUOUS
 10
712.55511219
 20
188.8716325593
 11
712.1331226987
 21
189.3481929497
  0
LINE
  5
585
100
AcDbEntity
  8
BEZUGSACHSEN
100
AcDbLine
 62
7
  6
CONTINUOUS
 10
712.1331226987
 20
189.3481929497
 11
712.0067562214
 21
189.4908991735
  0
LINE
  5
586
100
AcDbEntity
  8
BEZUGSACHSEN
100
AcDbLine
 62
7
  6
CONTINUOUS
 10
712.0067562214
 20
189.4908991735
 11
711.6900687276
 21
189.8485323538
  0
LINE
  5
587
100
AcDbEntity
  8
BEZUGSACHSEN
100
AcDbLine
 62
7
  6
CONTINUOUS
 10
711.6900687276
 20
189.8485323538
 11
711.6353584879
 21
189.9103157943
  0
LINE
  5
588
100
AcDbEntity
  8
BEZUGSACHSEN
100
AcDbLine
 62
7
  6
CONTINUOUS
 10
711.6353584879
 20
189.9103157943
 11
711.2454537679
 21
190.3506252026
  0
LINE
  5
589
100
AcDbEntity
  8
BEZUGSACHSEN
100
AcDbLine
 62
7
  6
CONTINUOUS
 10
713.0145470651
 20
188.3527739548
 11
713.4776603298
 21
187.8505720692
  0
LINE
  5
58A
100
AcDbEntity
  8
BEZUGSACHSEN
100
AcDbLine
 62
7
  6
CONTINUOUS
 10
713.4776603298
 20
187.8505720692
 11
713.7301584352
 21
187.596320314
  0
LINE
  5
58B
100
AcDbEntity
  8
BEZUGSACHSEN
100
AcDbLine
 62
7
  6
CONTINUOUS
 10
713.7301584352
 20
187.596320314
 11
713.8138215923
 21
187.5119864152
  0
LINE
  5
58C
100
AcDbEntity
  8
BEZUGSACHSEN
100
AcDbLine
 62
7
  6
CONTINUOUS
 10
711.4701451888
 20
190.6641016031
 11
712.2982605655
 21
189.7285976077
  0
LINE
  5
58D
100
AcDbEntity
  8
BEZUGSACHSEN
100
AcDbLine
 62
7
  6
CONTINUOUS
 10
712.2982605655
 20
189.7285976077
 11
712.3578568211
 21
189.6612710364
  0
LINE
  5
58E
100
AcDbEntity
  8
BEZUGSACHSEN
100
AcDbLine
 62
7
  6
CONTINUOUS
 10
712.3578568211
 20
189.6612710364
 11
712.4766512742
 21
189.527066769
  0
LINE
  5
58F
100
AcDbEntity
  8
BEZUGSACHSEN
100
AcDbLine
 62
7
  6
CONTINUOUS
 10
712.4766512742
 20
189.527066769
 11
713.2387571361
 21
188.6660751583
  0
LINE
  5
590
100
AcDbEntity
  8
BEZUGSACHSEN
100
AcDbLine
 62
7
  6
CONTINUOUS
 10
719.0691497441
 20
172.2873799431
 11
719.9344755719
 21
172.0121293188
  0
SPLINE
  5
591
100
AcDbEntity
  8
BEZUGSACHSEN
100
AcDbSpline
 62
7
  6
CONTINUOUS
 70
0
 71
3
 72
8
 73
4
 74
0
 42
0.0000001
 43
0.0000001
 44
0.0000000001
 40
0.0
 40
0.0
 40
0.0
 40
0.0
 40
1.0
 40
1.0
 40
1.0
 40
1.0
 10
717.7988334863
 20
173.1339570566
 30
0.0
 10
717.6341744284
 20
173.3276416575
 30
0.0
 10
717.4693648838
 20
173.5211984153
 30
0.0
 10
717.3044120023
 20
173.7146328405
 30
0.0
  0
LINE
  5
592
100
AcDbEntity
  8
BEZUGSACHSEN
100
AcDbLine
 62
7
  6
CONTINUOUS
 10
717.3044120023
 20
173.7146328405
 11
717.0639390232
 21
173.9420314363
  0
LINE
  5
593
100
AcDbEntity
  8
BEZUGSACHSEN
100
AcDbLine
 62
7
  6
CONTINUOUS
 10
717.0639390232
 20
173.9420314363
 11
716.9835224191
 21
174.0180585544
  0
LINE
  5
594
100
AcDbEntity
  8
BEZUGSACHSEN
100
AcDbLine
 62
7
  6
CONTINUOUS
 10
712.5140075112
 20
187.5838034434
 11
711.6978981169
 21
188.4748581964
  0
LINE
  5
595
100
AcDbEntity
  8
BEZUGSACHSEN
100
AcDbLine
 62
7
  6
CONTINUOUS
 10
711.6978981169
 20
188.4748581964
 11
710.7849220701
 21
189.4716380286
  0
LINE
  5
596
100
AcDbEntity
  8
BEZUGSACHSEN
100
AcDbLine
 62
7
  6
CONTINUOUS
 10
716.6095321831
 20
174.2819613356
 11
716.9835224191
 21
174.0180585544
  0
LINE
  5
597
100
AcDbEntity
  8
BEZUGSACHSEN
100
AcDbLine
 62
7
  6
CONTINUOUS
 10
716.3693745354
 20
174.374366852
 11
716.6095321831
 21
174.2819613356
  0
LINE
  5
598
100
AcDbEntity
  8
BEZUGSACHSEN
100
AcDbLine
 62
7
  6
CONTINUOUS
 10
715.4407267839
 20
184.388016383
 11
715.4153439599
 21
184.4157350577
  0
LINE
  5
599
100
AcDbEntity
  8
BEZUGSACHSEN
100
AcDbLine
 62
7
  6
CONTINUOUS
 10
715.4153439599
 20
184.4157350577
 11
714.3284962089
 21
185.6025600329
  0
LINE
  5
59A
100
AcDbEntity
  8
BEZUGSACHSEN
100
AcDbLine
 62
7
  6
CONTINUOUS
 10
714.3284962089
 20
185.6025600329
 11
714.172100269
 21
185.7733364396
  0
LINE
  5
59B
100
AcDbEntity
  8
BEZUGSACHSEN
100
AcDbLine
 62
7
  6
CONTINUOUS
 10
714.172100269
 20
185.7733364396
 11
713.2056132059
 21
186.8286594308
  0
LINE
  5
59C
100
AcDbEntity
  8
BEZUGSACHSEN
100
AcDbLine
 62
7
  6
CONTINUOUS
 10
716.1154837292
 20
174.3213752983
 11
716.3693745354
 21
174.374366852
  0
LINE
  5
59D
100
AcDbEntity
  8
BEZUGSACHSEN
100
AcDbLine
 62
7
  6
CONTINUOUS
 10
721.1601284909
 20
168.6117592121
 11
719.197857621
 21
169.9976763323
  0
LINE
  5
59E
100
AcDbEntity
  8
BEZUGSACHSEN
100
AcDbLine
 62
7
  6
CONTINUOUS
 10
718.6371504431
 20
170.3936313317
 11
717.2352852528
 21
171.383483716
  0
LINE
  5
59F
100
AcDbEntity
  8
BEZUGSACHSEN
100
AcDbLine
 62
7
  6
CONTINUOUS
 10
716.5000663674
 20
173.6603287885
 11
716.6085208163
 21
173.7401956351
  0
LINE
  5
5A0
100
AcDbEntity
  8
BEZUGSACHSEN
100
AcDbLine
 62
7
  6
CONTINUOUS
 10
713.7250925415
 20
180.210106204
 11
714.1301509957
 21
179.8691080063
  0
LINE
  5
5A1
100
AcDbEntity
  8
BEZUGSACHSEN
100
AcDbLine
 62
7
  6
CONTINUOUS
 10
714.1301509957
 20
179.8691080063
 11
716.8305321178
 21
177.5956298149
  0
LINE
  5
5A2
100
AcDbEntity
  8
BEZUGSACHSEN
100
AcDbLine
 62
7
  6
CONTINUOUS
 10
710.608678959
 20
190.5322158065
 11
710.8536134561
 21
190.2841958662
  0
LINE
  5
5A3
100
AcDbEntity
  8
BEZUGSACHSEN
100
AcDbLine
 62
7
  6
CONTINUOUS
 10
710.8536134561
 20
190.2841958662
 11
710.9349465639
 21
190.2018059333
  0
LINE
  5
5A4
100
AcDbEntity
  8
BEZUGSACHSEN
100
AcDbLine
 62
7
  6
CONTINUOUS
 10
718.2278852556
 20
174.5056818986
 11
718.4637552462
 21
174.4439870301
  0
LINE
  5
5A5
100
AcDbEntity
  8
BEZUGSACHSEN
100
AcDbLine
 62
7
  6
CONTINUOUS
 10
710.9349465639
 20
190.2018059333
 11
711.3960224836
 21
189.6983781076
  0
LINE
  5
5A6
100
AcDbEntity
  8
BEZUGSACHSEN
100
AcDbLine
 62
7
  6
CONTINUOUS
 10
711.7614454027
 20
189.2736748435
 11
711.3960224836
 21
189.6983781076
  0
LINE
  5
5A7
100
AcDbEntity
  8
BEZUGSACHSEN
100
AcDbLine
 62
7
  6
CONTINUOUS
 10
717.8594046133
 20
174.7473358422
 11
718.2278852556
 21
174.5056818986
  0
SPLINE
  5
5A8
100
AcDbEntity
  8
BEZUGSACHSEN
100
AcDbSpline
 62
7
  6
CONTINUOUS
 70
0
 71
3
 72
8
 73
4
 74
0
 42
0.0000001
 43
0.0000001
 44
0.0000000001
 40
0.0
 40
0.0
 40
0.0
 40
0.0
 40
1.0
 40
1.0
 40
1.0
 40
1.0
 10
712.2806298528
 20
188.6285813659
 30
0.0
 10
712.107717748
 20
188.8437326626
 30
0.0
 10
711.9346538637
 20
189.0587620578
 30
0.0
 10
711.7614454027
 20
189.2736748435
 30
0.0
  0
LINE
  5
5A9
100
AcDbEntity
  8
BEZUGSACHSEN
100
AcDbLine
 62
7
  6
CONTINUOUS
 10
717.8594046133
 20
174.7473358422
 11
715.1499757001
 21
177.0292157594
  0
LINE
  5
5AA
100
AcDbEntity
  8
BEZUGSACHSEN
100
AcDbLine
 62
7
  6
CONTINUOUS
 10
715.1499757001
 20
177.0292157594
 11
714.7547007001
 21
177.3620799908
  0
LINE
  5
5AB
100
AcDbEntity
  8
BEZUGSACHSEN
100
AcDbLine
 62
7
  6
CONTINUOUS
 10
712.5866796762
 20
188.1872634815
 11
712.8361281214
 21
187.9395664623
  0
LINE
  5
5AC
100
AcDbEntity
  8
BEZUGSACHSEN
100
AcDbLine
 62
7
  6
CONTINUOUS
 10
712.8361281214
 20
187.9395664623
 11
712.8519056882
 21
187.9238932607
  0
LINE
  5
5AD
100
AcDbEntity
  8
BEZUGSACHSEN
100
AcDbLine
 62
7
  6
CONTINUOUS
 10
712.8519056882
 20
187.9238932607
 11
713.0264186142
 21
187.750482937
  0
LINE
  5
5AE
100
AcDbEntity
  8
BEZUGSACHSEN
100
AcDbLine
 62
7
  6
CONTINUOUS
 10
713.0264186142
 20
187.750482937
 11
713.1777703963
 21
187.6000095282
  0
LINE
  5
5AF
100
AcDbEntity
  8
BEZUGSACHSEN
100
AcDbLine
 62
7
  6
CONTINUOUS
 10
713.1777703963
 20
187.6000095282
 11
713.5775008802
 21
187.2022413212
  0
LINE
  5
5B0
100
AcDbEntity
  8
BEZUGSACHSEN
100
AcDbLine
 62
7
  6
CONTINUOUS
 10
715.1297626728
 20
185.551858575
 11
715.1634981849
 21
185.4691232815
  0
LINE
  5
5B1
100
AcDbEntity
  8
BEZUGSACHSEN
100
AcDbLine
 62
7
  6
CONTINUOUS
 10
717.8411894844
 20
176.554012246
 11
717.3678815798
 21
177.0797889499
  0
LINE
  5
5B2
100
AcDbEntity
  8
BEZUGSACHSEN
100
AcDbLine
 62
7
  6
CONTINUOUS
 10
717.3744954362
 20
178.0712407651
 11
716.4585799158
 21
178.9413368897
  0
LINE
  5
5B3
100
AcDbEntity
  8
BEZUGSACHSEN
100
AcDbLine
 62
7
  6
CONTINUOUS
 10
716.4585799158
 20
178.9413368897
 11
716.1190040701
 21
179.2639067502
  0
LINE
  5
5B4
100
AcDbEntity
  8
BEZUGSACHSEN
100
AcDbLine
 62
7
  6
CONTINUOUS
 10
716.1190040701
 20
179.2639067502
 11
714.4916396291
 21
180.8096480484
  0
LINE
  5
5B5
100
AcDbEntity
  8
BEZUGSACHSEN
100
AcDbLine
 62
7
  6
CONTINUOUS
 10
714.4916396291
 20
180.8096480484
 11
713.6602719664
 21
181.5992448602
  0
LINE
  5
5B6
100
AcDbEntity
  8
BEZUGSACHSEN
100
AcDbLine
 62
7
  6
CONTINUOUS
 10
717.3678815798
 20
177.0797889499
 11
717.2258710326
 21
177.21612613
  0
LINE
  5
5B7
100
AcDbEntity
  8
BEZUGSACHSEN
100
AcDbLine
 62
7
  6
CONTINUOUS
 10
717.2258710326
 20
177.21612613
 11
716.9652614462
 21
177.4663037738
  0
LINE
  5
5B8
100
AcDbEntity
  8
BEZUGSACHSEN
100
AcDbLine
 62
7
  6
CONTINUOUS
 10
716.9652614462
 20
177.4663037738
 11
716.8305321178
 21
177.5956298149
  0
LINE
  5
5B9
100
AcDbEntity
  8
BEZUGSACHSEN
100
AcDbLine
 62
7
  6
CONTINUOUS
 10
717.2480916927
 20
179.4448588105
 11
717.3119861986
 21
179.3190120796
  0
LINE
  5
5BA
100
AcDbEntity
  8
BEZUGSACHSEN
100
AcDbLine
 62
7
  6
CONTINUOUS
 10
717.3119861986
 20
179.3190120796
 11
717.3756757889
 21
179.1925607878
  0
LINE
  5
5BB
100
AcDbEntity
  8
BEZUGSACHSEN
100
AcDbLine
 62
7
  6
CONTINUOUS
 10
717.2288735812
 20
179.4751234347
 11
717.1502656762
 21
179.5985947116
  0
LINE
  5
5BC
100
AcDbEntity
  8
BEZUGSACHSEN
100
AcDbLine
 62
7
  6
CONTINUOUS
 10
717.2288735812
 20
179.4751234347
 11
717.2480916927
 21
179.4448588105
  0
LINE
  5
5BD
100
AcDbEntity
  8
BEZUGSACHSEN
100
AcDbLine
 62
7
  6
CONTINUOUS
 10
716.3629466599
 20
180.6955015496
 11
715.8748483707
 21
181.2596133568
  0
LINE
  5
5BE
100
AcDbEntity
  8
BEZUGSACHSEN
100
AcDbLine
 62
7
  6
CONTINUOUS
 10
715.8748483707
 20
181.2596133568
 11
715.594063069
 21
181.5512672076
  0
LINE
  5
5BF
100
AcDbEntity
  8
BEZUGSACHSEN
100
AcDbLine
 62
7
  6
CONTINUOUS
 10
715.594063069
 20
181.5512672076
 11
715.3122229656
 21
181.8439909972
  0
LINE
  5
5C0
100
AcDbEntity
  8
BEZUGSACHSEN
100
AcDbLine
 62
7
  6
CONTINUOUS
 10
713.7201612689
 20
183.3559010658
 11
714.0607950899
 21
183.0324293125
  0
LINE
  5
5C1
100
AcDbEntity
  8
BEZUGSACHSEN
100
AcDbLine
 62
7
  6
CONTINUOUS
 10
714.0607950899
 20
183.0324293125
 11
714.1203010009
 21
182.9759207762
  0
LINE
  5
5C2
100
AcDbEntity
  8
BEZUGSACHSEN
100
AcDbLine
 62
7
  6
CONTINUOUS
 10
714.1203010009
 20
182.9759207762
 11
715.3122229656
 21
181.8439909972
  0
LINE
  5
5C3
100
AcDbEntity
  8
BEZUGSACHSEN
100
AcDbLine
 62
7
  6
CONTINUOUS
 10
713.2212010282
 20
183.7793868677
 11
713.6804576659
 21
183.3896092857
  0
LINE
  5
5C4
100
AcDbEntity
  8
BEZUGSACHSEN
100
AcDbLine
 62
7
  6
CONTINUOUS
 10
713.6804576659
 20
183.3896092857
 11
713.7201612689
 21
183.3559010658
  0
LINE
  5
5C5
100
AcDbEntity
  8
BEZUGSACHSEN
100
AcDbLine
 62
7
  6
CONTINUOUS
 10
712.8596250426
 20
184.0214179157
 11
713.2212010282
 21
183.7793868677
  0
LINE
  5
5C6
100
AcDbEntity
  8
BEZUGSACHSEN
100
AcDbLine
 62
7
  6
CONTINUOUS
 10
731.1696963492
 20
81.019936052
 11
730.0835288515
 21
77.9641589822
  0
LINE
  5
5C7
100
AcDbEntity
  8
RUNDUNGEN
100
AcDbLine
 62
7
  6
CONTINUOUS
 10
743.142515297
 20
85.3776857693
 11
745.9387835114
 21
83.7349997351
  0
SPLINE
  5
5C8
100
AcDbEntity
  8
BEZUGSACHSEN
100
AcDbSpline
 62
7
  6
CONTINUOUS
 70
0
 71
3
 72
11
 73
7
 74
0
 42
0.0000001
 43
0.0000001
 44
0.0000000001
 40
0.0
 40
0.0
 40
0.0
 40
0.0
 40
0.2540845274
 40
0.5000000008
 40
0.7459154741
 40
1.0
 40
1.0
 40
1.0
 40
1.0
 10
688.6112991188
 20
200.7876747666
 30
0.0
 10
688.5930700243
 20
199.7433306402
 30
0.0
 10
688.7087750323
 20
197.6796310418
 30
0.0
 10
689.4591195691
 20
194.6852848064
 30
0.0
 10
690.8090509545
 20
191.9091703404
 30
0.0
 10
692.0469363164
 20
190.2539109996
 30
0.0
 10
692.7321920734
 20
189.4656144259
 30
0.0
  0
SPLINE
  5
5C9
100
AcDbEntity
  8
0
100
AcDbSpline
 62
7
  6
CONTINUOUS
 70
0
 71
3
 72
11
 73
7
 74
0
 42
0.0000001
 43
0.0000001
 44
0.0000000001
 40
0.0
 40
0.0
 40
0.0
 40
0.0
 40
0.2540845274
 40
0.5000000008
 40
0.7459154741
 40
1.0
 40
1.0
 40
1.0
 40
1.0
 10
698.7589205175
 20
204.4811069043
 30
0.0
 10
699.4441762787
 20
203.6928103257
 30
0.0
 10
700.6820616322
 20
202.0375509706
 30
0.0
 10
702.0319930287
 20
199.2614365049
 30
0.0
 10
702.7823375741
 20
196.2670902762
 30
0.0
 10
702.8980425664
 20
194.2033906835
 30
0.0
 10
702.879813472
 20
193.1590465636
 30
0.0
  0
SPLINE
  5
5CA
100
AcDbEntity
  8
0
100
AcDbSpline
 62
7
  6
CONTINUOUS
 70
0
 71
3
 72
9
 73
5
 74
0
 42
0.0000001
 43
0.0000001
 44
0.0000000001
 40
0.0
 40
0.0
 40
0.0
 40
0.0
 40
0.2593208895
 40
1.0
 40
1.0
 40
1.0
 40
1.0
 10
719.1993363551
 20
171.1375170575
 30
0.0
 10
719.226866307
 20
171.1284459339
 30
0.0
 10
719.3326124696
 20
171.0922299462
 30
0.0
 10
719.4366474899
 20
171.0509183476
 30
0.0
 10
719.5121747673
 20
171.0170085979
 30
0.0
  0
LINE
  5
5CB
100
AcDbEntity
  8
BEZUGSACHSEN
100
AcDbLine
 62
7
  6
CONTINUOUS
 10
713.6450142044
 20
187.5331349485
 11
713.7594613504
 21
187.414872212
  0
LINE
  5
5CC
100
AcDbEntity
  8
BEZUGSACHSEN
100
AcDbLine
 62
7
  6
CONTINUOUS
 10
713.7594613504
 20
187.414872212
 11
714.1007638448
 21
187.0619592274
  0
LINE
  5
5CD
100
AcDbEntity
  8
BEZUGSACHSEN
100
AcDbLine
 62
7
  6
CONTINUOUS
 10
713.0633593189
 20
188.1683077661
 11
713.6450142044
 21
187.5331349485
  0
LINE
  5
5CE
100
AcDbEntity
  8
BEZUGSACHSEN
100
AcDbLine
 62
7
  6
CONTINUOUS
 10
713.0633593189
 20
188.1683077661
 11
712.8446238745
 21
188.4155080697
  0
LINE
  5
5CF
100
AcDbEntity
  8
BEZUGSACHSEN
100
AcDbLine
 62
7
  6
CONTINUOUS
 10
712.8446238745
 20
188.4155080697
 11
712.6240732574
 21
188.6647547394
  0
LINE
  5
5D0
100
AcDbEntity
  8
BEZUGSACHSEN
100
AcDbLine
 62
7
  6
CONTINUOUS
 10
712.6240732574
 20
188.6647547394
 11
712.4912000938
 21
188.8149137679
  0
LINE
  5
5D1
100
AcDbEntity
  8
BEZUGSACHSEN
100
AcDbLine
 62
7
  6
CONTINUOUS
 10
712.4912000938
 20
188.8149137679
 11
711.9430371271
 21
189.4343704338
  0
LINE
  5
5D2
100
AcDbEntity
  8
BEZUGSACHSEN
100
AcDbLine
 62
7
  6
CONTINUOUS
 10
711.9430371271
 20
189.4343704338
 11
711.739969597
 21
189.6638414583
  0
LINE
  5
5D3
100
AcDbEntity
  8
BEZUGSACHSEN
100
AcDbLine
 62
7
  6
CONTINUOUS
 10
711.739969597
 20
189.6638414583
 11
711.5717700625
 21
189.8539079228
  0
LINE
  5
5D4
100
AcDbEntity
  8
BEZUGSACHSEN
100
AcDbLine
 62
7
  6
CONTINUOUS
 10
711.5717700625
 20
189.8539079228
 11
711.2951525699
 21
190.166481691
  0
LINE
  5
5D5
100
AcDbEntity
  8
BEZUGSACHSEN
100
AcDbLine
 62
7
  6
CONTINUOUS
 10
711.2951525699
 20
190.166481691
 11
711.125127041
 21
190.3648420934
  0
LINE
  5
5D6
100
AcDbEntity
  8
BEZUGSACHSEN
100
AcDbLine
 62
7
  6
CONTINUOUS
 10
711.125127041
 20
190.3648420934
 11
710.9972060765
 21
190.5140593353
  0
LINE
  5
5D7
100
AcDbEntity
  8
BEZUGSACHSEN
100
AcDbLine
 62
7
  6
CONTINUOUS
 10
710.9972060765
 20
190.5140593353
 11
710.8236114663
 21
190.7165244092
  0
LINE
  5
5D8
100
AcDbEntity
  8
BEZUGSACHSEN
100
AcDbLine
 62
7
  6
CONTINUOUS
 10
710.8236114663
 20
190.7165244092
 11
710.6977263157
 21
190.8633244633
  0
LINE
  5
5D9
100
AcDbEntity
  8
0
100
AcDbLine
 62
7
  6
CONTINUOUS
 10
709.4163547897
 20
191.168820896
 11
709.5391124955
 21
191.0196732503
  0
LINE
  5
5DA
100
AcDbEntity
  8
0
100
AcDbLine
 62
7
  6
CONTINUOUS
 10
709.5391124955
 20
191.0196732503
 11
709.5910146016
 21
190.9565931317
  0
SPLINE
  5
5DB
100
AcDbEntity
  8
0
100
AcDbSpline
 62
7
  6
CONTINUOUS
 70
0
 71
3
 72
9
 73
5
 74
0
 42
0.0000001
 43
0.0000001
 44
0.0000000001
 40
0.0
 40
0.0
 40
0.0
 40
0.0
 40
0.5000071001
 40
1.0
 40
1.0
 40
1.0
 40
1.0
 10
713.6684512911
 20
163.5175077691
 30
0.0
 10
716.2585012191
 20
158.3822533686
 30
0.0
 10
720.9568408316
 20
147.8564742623
 30
0.0
 10
724.4450361455
 20
136.8679374149
 30
0.0
 10
725.9039311666
 20
131.3047600106
 30
0.0
  0
LINE
  5
5DC
100
AcDbEntity
  8
BEZUGSACHSEN
100
AcDbLine
 62
7
  6
CONTINUOUS
 10
710.6977263157
 20
190.8633244633
 11
710.5763403446
 21
191.0112220155
  0
LINE
  5
5DD
100
AcDbEntity
  8
BEZUGSACHSEN
100
AcDbLine
 62
7
  6
CONTINUOUS
 10
710.5763403446
 20
191.0112220155
 11
710.4545342069
 21
191.159560593
  0
LINE
  5
5DE
100
AcDbEntity
  8
BEZUGSACHSEN
100
AcDbLine
 62
7
  6
CONTINUOUS
 10
710.4545342069
 20
191.159560593
 11
710.2096616017
 21
191.4575609622
  0
SPLINE
  5
5DF
100
AcDbEntity
  8
0
100
AcDbSpline
 62
7
  6
CONTINUOUS
 70
0
 71
3
 72
11
 73
7
 74
0
 42
0.0000001
 43
0.0000001
 44
0.0000000001
 40
0.0
 40
0.0
 40
0.0
 40
0.0
 40
0.2502389943
 40
0.5000000009
 40
0.7497610074
 40
1.0
 40
1.0
 40
1.0
 40
1.0
 10
702.879813472
 20
193.1590465636
 30
0.0
 10
704.133257873
 20
190.8351760995
 30
0.0
 10
706.4882627478
 20
186.1087361799
 30
0.0
 10
709.4845165092
 20
178.7788209311
 30
0.0
 10
711.9008316714
 20
171.2378253132
 30
0.0
 10
713.1348902722
 20
166.1033943368
 30
0.0
 10
713.6684512911
 20
163.5175077691
 30
0.0
  0
LINE
  5
5E0
100
AcDbEntity
  8
BEZUGSACHSEN
100
AcDbLine
 62
7
  6
CONTINUOUS
 10
710.145134548
 20
192.0592982527
 11
710.3161799858
 21
191.873801974
  0
LINE
  5
5E1
100
AcDbEntity
  8
BEZUGSACHSEN
100
AcDbLine
 62
7
  6
CONTINUOUS
 10
710.3161799858
 20
191.873801974
 11
710.4014638328
 21
191.7812890059
  0
LINE
  5
5E2
100
AcDbEntity
  8
BEZUGSACHSEN
100
AcDbLine
 62
7
  6
CONTINUOUS
 10
710.4014638328
 20
191.7812890059
 11
710.4865883997
 21
191.6889327937
  0
SPLINE
  5
5E3
100
AcDbEntity
  8
BEZUGSACHSEN
100
AcDbSpline
 62
7
  6
CONTINUOUS
 70
0
 71
3
 72
11
 73
7
 74
0
 42
0.0000001
 43
0.0000001
 44
0.0000000001
 40
0.0
 40
0.0
 40
0.0
 40
0.0
 40
0.2502389943
 40
0.5000000009
 40
0.7497610074
 40
1.0
 40
1.0
 40
1.0
 40
1.0
 10
692.7321920734
 20
189.4656144259
 30
0.0
 10
693.2657530961
 20
186.87972784
 30
0.0
 10
694.4998117165
 20
181.7452968495
 30
0.0
 10
696.9161268744
 20
174.2043012114
 30
0.0
 10
699.9123806195
 20
166.8743859753
 30
0.0
 10
702.2673855003
 20
162.1479460791
 30
0.0
 10
703.5208298925
 20
159.8240756314
 30
0.0
  0
SPLINE
  5
5E4
100
AcDbEntity
  8
BEZUGSACHSEN
100
AcDbSpline
 62
7
  6
CONTINUOUS
 70
0
 71
3
 72
9
 73
5
 74
0
 42
0.0000001
 43
0.0000001
 44
0.0000000001
 40
0.0
 40
0.0
 40
0.0
 40
0.0
 40
0.5000071001
 40
1.0
 40
1.0
 40
1.0
 40
1.0
 10
703.5208298925
 20
159.8240756314
 30
0.0
 10
704.8376144389
 20
154.2253905317
 30
0.0
 10
708.0043178787
 20
143.1421414488
 30
0.0
 10
712.3955005761
 20
132.4822651309
 30
0.0
 10
714.8538636581
 20
127.2828643509
 30
0.0
  0
LINE
  5
5E5
100
AcDbEntity
  8
BEZUGSACHSEN
100
AcDbLine
 62
7
  6
CONTINUOUS
 10
710.0955147659
 20
192.1038549461
 11
710.145134548
 21
192.0592982527
  0
LINE
  5
5E6
100
AcDbEntity
  8
BEZUGSACHSEN
100
AcDbLine
 62
7
  6
CONTINUOUS
 10
714.0296231586
 20
187.5256303775
 11
714.00676396
 21
187.5856275826
  0
LINE
  5
5E7
100
AcDbEntity
  8
BEZUGSACHSEN
100
AcDbLine
 62
7
  6
CONTINUOUS
 10
714.00676396
 20
187.5856275826
 11
714.0042083216
 21
187.5922176092
  0
LINE
  5
5E8
100
AcDbEntity
  8
BEZUGSACHSEN
100
AcDbLine
 62
7
  6
CONTINUOUS
 10
714.0042083216
 20
187.5922176092
 11
713.9631642392
 21
187.6550052147
  0
LINE
  5
5E9
100
AcDbEntity
  8
BEZUGSACHSEN
100
AcDbLine
 62
7
  6
CONTINUOUS
 10
713.8806030139
 20
187.7804245578
 11
713.8390867612
 21
187.8430566843
  0
LINE
  5
5EA
100
AcDbEntity
  8
BEZUGSACHSEN
100
AcDbLine
 62
7
  6
CONTINUOUS
 10
713.8390867612
 20
187.8430566843
 11
713.700799061
 21
188.0227202542
  0
LINE
  5
5EB
100
AcDbEntity
  8
BEZUGSACHSEN
100
AcDbLine
 62
7
  6
CONTINUOUS
 10
713.700799061
 20
188.0227202542
 11
713.6347325896
 21
188.1083533911
  0
LINE
  5
5EC
100
AcDbEntity
  8
BEZUGSACHSEN
100
AcDbLine
 62
7
  6
CONTINUOUS
 10
713.6347325896
 20
188.1083533911
 11
713.5661784946
 21
188.1970756271
  0
LINE
  5
5ED
100
AcDbEntity
  8
BEZUGSACHSEN
100
AcDbLine
 62
7
  6
CONTINUOUS
 10
713.5661784946
 20
188.1970756271
 11
713.3832378615
 21
188.4110699696
  0
LINE
  5
5EE
100
AcDbEntity
  8
BEZUGSACHSEN
100
AcDbLine
 62
7
  6
CONTINUOUS
 10
713.3832378615
 20
188.4110699696
 11
713.2563156484
 21
188.5595111868
  0
LINE
  5
5EF
100
AcDbEntity
  8
BEZUGSACHSEN
100
AcDbLine
 62
7
  6
CONTINUOUS
 10
713.2563156484
 20
188.5595111868
 11
713.1996839124
 21
188.6257378252
  0
LINE
  5
5F0
100
AcDbEntity
  8
BEZUGSACHSEN
100
AcDbLine
 62
7
  6
CONTINUOUS
 10
712.256016826
 20
189.6912037696
 11
712.4925338528
 21
189.4241624879
  0
LINE
  5
5F1
100
AcDbEntity
  8
BEZUGSACHSEN
100
AcDbLine
 62
7
  6
CONTINUOUS
 10
712.4925338528
 20
189.4241624879
 11
712.964367414
 21
188.8914295311
  0
LINE
  5
5F2
100
AcDbEntity
  8
BEZUGSACHSEN
100
AcDbLine
 62
7
  6
CONTINUOUS
 10
712.964367414
 20
188.8914295311
 11
713.1996839124
 21
188.6257378252
  0
LINE
  5
5F3
100
AcDbEntity
  8
BEZUGSACHSEN
100
AcDbLine
 62
7
  6
CONTINUOUS
 10
711.6556382059
 20
190.2260345495
 11
712.3636280292
 21
189.4270224502
  0
LINE
  5
5F4
100
AcDbEntity
  8
BEZUGSACHSEN
100
AcDbLine
 62
7
  6
CONTINUOUS
 10
712.0285812285
 20
188.7689177038
 11
711.7608549727
 21
189.1156394663
  0
LINE
  5
5F5
100
AcDbEntity
  8
BEZUGSACHSEN
100
AcDbLine
 62
7
  6
CONTINUOUS
 10
711.7608549727
 20
189.1156394663
 11
711.3961756299
 21
189.54061337
  0
LINE
  5
5F6
100
AcDbEntity
  8
BEZUGSACHSEN
100
AcDbLine
 62
7
  6
CONTINUOUS
 10
711.0502520246
 20
189.9181418941
 11
711.3961756299
 21
189.54061337
  0
LINE
  5
5F7
100
AcDbEntity
  8
0
100
AcDbLine
 62
7
  6
CONTINUOUS
 10
719.1993363551
 20
171.1375170575
 11
718.753598848
 21
171.2840843749
  0
LINE
  5
5F8
100
AcDbEntity
  8
BEZUGSACHSEN
100
AcDbLine
 62
7
  6
CONTINUOUS
 10
710.7230428092
 20
190.2482090491
 11
711.0502520246
 21
189.9181418941
  0
LINE
  5
5F9
100
AcDbEntity
  8
BEZUGSACHSEN
100
AcDbLine
 62
7
  6
CONTINUOUS
 10
710.5294176974
 20
190.4048143873
 11
710.5780373449
 21
190.3655544154
  0
LINE
  5
5FA
100
AcDbEntity
  8
BEZUGSACHSEN
100
AcDbLine
 62
7
  6
CONTINUOUS
 10
710.5780373449
 20
190.3655544154
 11
710.6748498583
 21
190.2872517234
  0
LINE
  5
5FB
100
AcDbEntity
  8
BEZUGSACHSEN
100
AcDbLine
 62
7
  6
CONTINUOUS
 10
710.6748498583
 20
190.2872517234
 11
710.7230428092
 21
190.2482090491
  0
LINE
  5
5FC
100
AcDbEntity
  8
BEZUGSACHSEN
100
AcDbLine
 62
7
  6
CONTINUOUS
 10
710.4685621381
 20
190.3876601943
 11
710.5294176974
 21
190.4048143873
  0
LINE
  5
5FD
100
AcDbEntity
  8
BEZUGSACHSEN
100
AcDbLine
 62
7
  6
CONTINUOUS
 10
721.3718183569
 20
167.9675946775
 11
720.9270375955
 21
168.2821780339
  0
LINE
  5
5FE
100
AcDbEntity
  8
BEZUGSACHSEN
100
AcDbLine
 62
7
  6
CONTINUOUS
 10
720.9270375955
 20
168.2821780339
 11
718.9655739349
 21
169.6690811569
  0
LINE
  5
5FF
100
AcDbEntity
  8
BEZUGSACHSEN
100
AcDbLine
 62
7
  6
CONTINUOUS
 10
718.9655739349
 20
169.6690811569
 11
718.4050756353
 21
170.0652909692
  0
LINE
  5
600
100
AcDbEntity
  8
BEZUGSACHSEN
100
AcDbLine
 62
7
  6
CONTINUOUS
 10
718.4050756353
 20
170.0652909692
 11
716.982892904
 21
171.0704368375
  0
SPLINE
  5
601
100
AcDbEntity
  8
0
100
AcDbSpline
 62
7
  6
CONTINUOUS
 70
0
 71
3
 72
8
 73
4
 74
0
 42
0.0000001
 43
0.0000001
 44
0.0000000001
 40
0.0
 40
0.0
 40
0.0
 40
0.0
 40
1.0
 40
1.0
 40
1.0
 40
1.0
 10
716.3257514739
 20
170.8312569172
 30
0.0
 10
717.6651384376
 20
169.8855292798
 30
0.0
 10
719.0044422224
 20
168.9396838128
 30
0.0
 10
720.3436112556
 20
167.9936476067
 30
0.0
  0
SPLINE
  5
602
100
AcDbEntity
  8
0
100
AcDbSpline
 62
7
  6
CONTINUOUS
 70
0
 71
3
 72
8
 73
4
 74
0
 42
0.0000001
 43
0.0000001
 44
0.0000000001
 40
0.0
 40
0.0
 40
0.0
 40
0.0
 40
1.0
 40
1.0
 40
1.0
 40
1.0
 10
709.5216830151
 20
189.5252814017
 30
0.0
 10
711.1734498969
 20
187.721407902
 30
0.0
 10
712.8250971119
 20
185.9174248078
 30
0.0
 10
714.476550569
 20
184.1132643621
 30
0.0
  0
LINE
  5
603
100
AcDbEntity
  8
0
100
AcDbLine
 62
7
  6
CONTINUOUS
 10
717.6207678995
 20
171.1655730999
 11
717.6466811189
 21
171.0932220606
  0
LINE
  5
604
100
AcDbEntity
  8
BEZUGSACHSEN
100
AcDbLine
 62
7
  6
CONTINUOUS
 10
715.5607677979
 20
184.0582064076
 11
715.5261092199
 21
184.096085812
  0
LINE
  5
605
100
AcDbEntity
  8
BEZUGSACHSEN
100
AcDbLine
 62
7
  6
CONTINUOUS
 10
715.5261092199
 20
184.096085812
 11
715.3418120392
 21
184.297507102
  0
LINE
  5
606
100
AcDbEntity
  8
BEZUGSACHSEN
100
AcDbLine
 62
7
  6
CONTINUOUS
 10
715.3418120392
 20
184.297507102
 11
715.3164948109
 21
184.3251763531
  0
LINE
  5
607
100
AcDbEntity
  8
BEZUGSACHSEN
100
AcDbLine
 62
7
  6
CONTINUOUS
 10
715.3164948109
 20
184.3251763531
 11
713.1076129366
 21
186.7389708293
  0
LINE
  5
608
100
AcDbEntity
  8
BEZUGSACHSEN
100
AcDbLine
 62
7
  6
CONTINUOUS
 10
713.1076129366
 20
186.7389708293
 11
712.9636268387
 21
186.8962953612
  0
LINE
  5
609
100
AcDbEntity
  8
BEZUGSACHSEN
100
AcDbLine
 62
7
  6
CONTINUOUS
 10
712.9636268387
 20
186.8962953612
 11
712.5713813138
 21
187.3248666556
  0
LINE
  5
60A
100
AcDbEntity
  8
BEZUGSACHSEN
100
AcDbLine
 62
7
  6
CONTINUOUS
 10
712.5713813138
 20
187.3248666556
 11
712.4162654148
 21
187.4943435961
  0
LINE
  5
60B
100
AcDbEntity
  8
BEZUGSACHSEN
100
AcDbLine
 62
7
  6
CONTINUOUS
 10
712.4162654148
 20
187.4943435961
 11
710.6877763089
 21
189.3827108607
  0
LINE
  5
60C
100
AcDbEntity
  8
BEZUGSACHSEN
100
AcDbLine
 62
7
  6
CONTINUOUS
 10
710.6877763089
 20
189.3827108607
 11
710.2984578099
 21
189.8080043058
  0
LINE
  5
60D
100
AcDbEntity
  8
BEZUGSACHSEN
100
AcDbLine
 62
7
  6
CONTINUOUS
 10
716.6085208163
 20
173.7401956351
 11
716.6689536232
 21
173.7171248887
  0
LINE
  5
60E
100
AcDbEntity
  8
BEZUGSACHSEN
100
AcDbLine
 62
7
  6
CONTINUOUS
 10
716.6689536232
 20
173.7171248887
 11
716.8495894357
 21
173.6481216853
  0
LINE
  5
60F
100
AcDbEntity
  8
BEZUGSACHSEN
100
AcDbLine
 62
7
  6
CONTINUOUS
 10
716.8495894357
 20
173.6481216853
 11
717.1301720284
 21
173.450227256
  0
LINE
  5
610
100
AcDbEntity
  8
BEZUGSACHSEN
100
AcDbLine
 62
7
  6
CONTINUOUS
 10
717.450297007
 20
173.1465232488
 11
717.1301720284
 21
173.450227256
  0
LINE
  5
611
100
AcDbEntity
  8
0
100
AcDbLine
 62
7
  6
CONTINUOUS
 10
716.6735974687
 20
172.9932003464
 11
716.7723372246
 21
172.899766068
  0
LINE
  5
612
100
AcDbEntity
  8
BEZUGSACHSEN
100
AcDbLine
 62
7
  6
CONTINUOUS
 10
717.7160293176
 20
172.8028254298
 11
717.450297007
 21
173.1465232488
  0
LINE
  5
613
100
AcDbEntity
  8
0
100
AcDbLine
 62
7
  6
CONTINUOUS
 10
716.7723372246
 20
172.899766068
 11
717.0394487537
 21
172.5565702434
  0
LINE
  5
614
100
AcDbEntity
  8
BEZUGSACHSEN
100
AcDbLine
 62
7
  6
CONTINUOUS
 10
713.9406483123
 20
179.6440075012
 11
716.6416048536
 21
177.3711243437
  0
LINE
  5
615
100
AcDbEntity
  8
BEZUGSACHSEN
100
AcDbLine
 62
7
  6
CONTINUOUS
 10
716.6416048536
 20
177.3711243437
 11
717.047090222
 21
177.0298959316
  0
LINE
  5
616
100
AcDbEntity
  8
0
100
AcDbLine
 62
7
  6
CONTINUOUS
 10
716.3344994312
 20
176.7705340945
 11
713.2287361588
 21
179.384892668
  0
LINE
  5
617
100
AcDbEntity
  8
BEZUGSACHSEN
100
AcDbLine
 62
7
  6
CONTINUOUS
 10
717.4834990301
 20
176.5981144942
 11
717.156505433
 21
176.9216560836
  0
LINE
  5
618
100
AcDbEntity
  8
BEZUGSACHSEN
100
AcDbLine
 62
7
  6
CONTINUOUS
 10
717.156505433
 20
176.9216560836
 11
717.047090222
 21
177.0298959316
  0
LINE
  5
619
100
AcDbEntity
  8
0
100
AcDbLine
 62
7
  6
CONTINUOUS
 10
716.3344994312
 20
176.7705340945
 11
716.7714769596
 21
176.3389596544
  0
LINE
  5
61A
100
AcDbEntity
  8
BEZUGSACHSEN
100
AcDbLine
 62
7
  6
CONTINUOUS
 10
717.8548619096
 20
176.1560317412
 11
717.4834990301
 21
176.5981144942
  0
LINE
  5
61B
100
AcDbEntity
  8
0
100
AcDbLine
 62
7
  6
CONTINUOUS
 10
716.7714769596
 20
176.3389596544
 11
717.1441286837
 21
175.8973460025
  0
LINE
  5
61C
100
AcDbEntity
  8
0
100
AcDbLine
 62
7
  6
CONTINUOUS
 10
717.6923270977
 20
174.9824968034
 11
717.7423465652
 21
174.8459520738
  0
LINE
  5
61D
100
AcDbEntity
  8
BEZUGSACHSEN
100
AcDbLine
 62
7
  6
CONTINUOUS
 10
718.5661116169
 20
174.5619212693
 11
718.5581900705
 21
174.636280135
  0
LINE
  5
61E
100
AcDbEntity
  8
BEZUGSACHSEN
100
AcDbLine
 62
7
  6
CONTINUOUS
 10
718.0490244399
 20
174.1717969204
 11
717.654564175
 21
174.5043562386
  0
LINE
  5
61F
100
AcDbEntity
  8
BEZUGSACHSEN
100
AcDbLine
 62
7
  6
CONTINUOUS
 10
717.654564175
 20
174.5043562386
 11
714.9461859415
 21
176.7872200245
  0
LINE
  5
620
100
AcDbEntity
  8
0
100
AcDbLine
 62
7
  6
CONTINUOUS
 10
714.2526096579
 20
176.5347789021
 11
716.5553750466
 21
174.5951779755
  0
LINE
  5
621
100
AcDbEntity
  8
0
100
AcDbLine
 62
7
  6
CONTINUOUS
 10
716.5553750466
 20
174.5951779755
 11
716.5896022651
 21
174.5663458544
  0
LINE
  5
622
100
AcDbEntity
  8
0
100
AcDbLine
 62
7
  6
CONTINUOUS
 10
716.5896022651
 20
174.5663458544
 11
716.7413886648
 21
174.438483844
  0
LINE
  5
623
100
AcDbEntity
  8
0
100
AcDbLine
 62
7
  6
CONTINUOUS
 10
716.7413886648
 20
174.438483844
 11
717.0901770997
 21
174.1446641854
  0
LINE
  5
624
100
AcDbEntity
  8
0
100
AcDbLine
 62
7
  6
CONTINUOUS
 10
717.0901770997
 20
174.1446641854
 11
717.3569710938
 21
173.9199101019
  0
LINE
  5
625
100
AcDbEntity
  8
BEZUGSACHSEN
100
AcDbLine
 62
7
  6
CONTINUOUS
 10
718.0490244399
 20
174.1717969204
 11
718.5182237498
 21
173.8460033675
  0
LINE
  5
626
100
AcDbEntity
  8
0
100
AcDbLine
 62
7
  6
CONTINUOUS
 10
717.8257284609
 20
173.5939556949
 11
717.5917756006
 21
173.7566454813
  0
LINE
  5
627
100
AcDbEntity
  8
0
100
AcDbLine
 62
7
  6
CONTINUOUS
 10
717.5917756006
 20
173.7566454813
 11
717.4177561753
 21
173.877646572
  0
LINE
  5
628
100
AcDbEntity
  8
0
100
AcDbLine
 62
7
  6
CONTINUOUS
 10
717.4177561753
 20
173.877646572
 11
717.3569710938
 21
173.9199101019
  0
LINE
  5
629
100
AcDbEntity
  8
BEZUGSACHSEN
100
AcDbLine
 62
7
  6
CONTINUOUS
 10
718.5182237498
 20
173.8460033675
 11
718.8558598887
 21
173.7005491349
  0
LINE
  5
62A
100
AcDbEntity
  8
0
100
AcDbLine
 62
7
  6
CONTINUOUS
 10
718.1621206616
 20
173.4480487059
 11
717.8257284609
 21
173.5939556949
  0
LINE
  5
62B
100
AcDbEntity
  8
BEZUGSACHSEN
100
AcDbLine
 62
7
  6
CONTINUOUS
 10
718.8558598887
 20
173.7005491349
 11
719.1292151037
 21
173.7465496184
  0
LINE
  5
62C
100
AcDbEntity
  8
0
100
AcDbLine
 62
7
  6
CONTINUOUS
 10
718.3471553554
 20
173.4788654325
 11
718.1621206616
 21
173.4480487059
  0
LINE
  5
62D
100
AcDbEntity
  8
BEZUGSACHSEN
100
AcDbLine
 62
7
  6
CONTINUOUS
 10
712.9261381362
 20
187.6495618288
 11
713.4776702924
 21
187.1025973072
  0
SPLINE
  5
62E
100
AcDbEntity
  8
BEZUGSACHSEN
100
AcDbSpline
 62
7
  6
CONTINUOUS
 70
0
 71
3
 72
8
 73
4
 74
0
 42
0.0000001
 43
0.0000001
 44
0.0000000001
 40
0.0
 40
0.0
 40
0.0
 40
0.0
 40
1.0
 40
1.0
 40
1.0
 40
1.0
 10
713.4776702924
 20
187.1025973072
 30
0.0
 10
713.8175697699
 20
186.7652638406
 30
0.0
 10
714.1572349222
 20
186.4276940612
 30
0.0
 10
714.4966370987
 20
186.0898602483
 30
0.0
  0
LINE
  5
62F
100
AcDbEntity
  8
BEZUGSACHSEN
100
AcDbLine
 62
7
  6
CONTINUOUS
 10
714.4966370987
 20
186.0898602483
 11
714.9665270377
 21
185.6217988631
  0
LINE
  5
630
100
AcDbEntity
  8
BEZUGSACHSEN
100
AcDbLine
 62
7
  6
CONTINUOUS
 10
714.9665270377
 20
185.6217988631
 11
715.005983276
 21
185.5824643543
  0
LINE
  5
631
100
AcDbEntity
  8
BEZUGSACHSEN
100
AcDbLine
 62
7
  6
CONTINUOUS
 10
718.1250282712
 20
177.0129586598
 11
717.6940916999
 21
177.4227998189
  0
LINE
  5
632
100
AcDbEntity
  8
BEZUGSACHSEN
100
AcDbLine
 62
7
  6
CONTINUOUS
 10
717.6940916999
 20
177.4227998189
 11
717.2024641274
 21
177.8903225728
  0
LINE
  5
633
100
AcDbEntity
  8
BEZUGSACHSEN
100
AcDbLine
 62
7
  6
CONTINUOUS
 10
717.2024641274
 20
177.8903225728
 11
717.1543026047
 21
177.9361205788
  0
SPLINE
  5
634
100
AcDbEntity
  8
BEZUGSACHSEN
100
AcDbSpline
 62
7
  6
CONTINUOUS
 70
0
 71
3
 72
8
 73
4
 74
0
 42
0.0000001
 43
0.0000001
 44
0.0000000001
 40
0.0
 40
0.0
 40
0.0
 40
0.0
 40
1.0
 40
1.0
 40
1.0
 40
1.0
 10
717.1543026047
 20
177.9361205788
 30
0.0
 10
715.9329499881
 20
179.0975308581
 30
0.0
 10
714.7114215571
 20
180.2587562607
 30
0.0
 10
713.4897737042
 20
181.419855987
 30
0.0
  0
LINE
  5
635
100
AcDbEntity
  8
BEZUGSACHSEN
100
AcDbLine
 62
7
  6
CONTINUOUS
 10
713.4897737042
 20
181.419855987
 11
713.1841673428
 21
181.7103106576
  0
LINE
  5
636
100
AcDbEntity
  8
0
100
AcDbLine
 62
7
  6
CONTINUOUS
 10
712.4592172549
 20
181.4464504043
 11
713.7419919198
 21
180.2278944983
  0
LINE
  5
637
100
AcDbEntity
  8
0
100
AcDbLine
 62
7
  6
CONTINUOUS
 10
713.7419919198
 20
180.2278944983
 11
714.0042440322
 21
179.9787555003
  0
LINE
  5
638
100
AcDbEntity
  8
0
100
AcDbLine
 62
7
  6
CONTINUOUS
 10
715.214180663
 20
180.6063793713
 11
715.5954619008
 21
180.1428142973
  0
LINE
  5
639
100
AcDbEntity
  8
BEZUGSACHSEN
100
AcDbLine
 62
7
  6
CONTINUOUS
 10
716.3374662295
 20
180.4128817866
 11
715.9572556687
 21
180.8768365552
  0
LINE
  5
63A
100
AcDbEntity
  8
0
100
AcDbLine
 62
7
  6
CONTINUOUS
 10
714.757964822
 20
181.0900620629
 11
715.214180663
 21
180.6063793713
  0
LINE
  5
63B
100
AcDbEntity
  8
BEZUGSACHSEN
100
AcDbLine
 62
7
  6
CONTINUOUS
 10
715.9572556687
 20
180.8768365552
 11
715.6157563397
 21
181.2394000023
  0
LINE
  5
63C
100
AcDbEntity
  8
BEZUGSACHSEN
100
AcDbLine
 62
7
  6
CONTINUOUS
 10
715.6157563397
 20
181.2394000023
 11
715.5014983378
 21
181.3606861308
  0
LINE
  5
63D
100
AcDbEntity
  8
0
100
AcDbLine
 62
7
  6
CONTINUOUS
 10
714.757964822
 20
181.0900620629
 11
713.9644634762
 21
181.8434441468
  0
LINE
  5
63E
100
AcDbEntity
  8
0
100
AcDbLine
 62
7
  6
CONTINUOUS
 10
713.9644634762
 20
181.8434441468
 11
713.9264148454
 21
181.8795683171
  0
LINE
  5
63F
100
AcDbEntity
  8
0
100
AcDbLine
 62
7
  6
CONTINUOUS
 10
713.9264148454
 20
181.8795683171
 11
713.3933161215
 21
182.3856967631
  0
LINE
  5
640
100
AcDbEntity
  8
BEZUGSACHSEN
100
AcDbLine
 62
7
  6
CONTINUOUS
 10
713.9087915406
 20
182.872361402
 11
715.1050088226
 21
181.7370094853
  0
LINE
  5
641
100
AcDbEntity
  8
BEZUGSACHSEN
100
AcDbLine
 62
7
  6
CONTINUOUS
 10
715.1050088226
 20
181.7370094853
 11
715.1606015685
 21
181.6842445308
  0
LINE
  5
642
100
AcDbEntity
  8
BEZUGSACHSEN
100
AcDbLine
 62
7
  6
CONTINUOUS
 10
715.1606015685
 20
181.6842445308
 11
715.5014983378
 21
181.3606861308
  0
LINE
  5
643
100
AcDbEntity
  8
BEZUGSACHSEN
100
AcDbLine
 62
7
  6
CONTINUOUS
 10
713.5149848888
 20
183.194694727
 11
713.5588649117
 21
183.158789274
  0
LINE
  5
644
100
AcDbEntity
  8
BEZUGSACHSEN
100
AcDbLine
 62
7
  6
CONTINUOUS
 10
713.5588649117
 20
183.158789274
 11
713.9087915406
 21
182.872361402
  0
LINE
  5
645
100
AcDbEntity
  8
BEZUGSACHSEN
100
AcDbLine
 62
7
  6
CONTINUOUS
 10
713.1364810544
 20
183.2938920612
 11
713.2578236427
 21
183.3353051599
  0
LINE
  5
646
100
AcDbEntity
  8
BEZUGSACHSEN
100
AcDbLine
 62
7
  6
CONTINUOUS
 10
713.2578236427
 20
183.3353051599
 11
713.3224212777
 21
183.3000362202
  0
LINE
  5
647
100
AcDbEntity
  8
BEZUGSACHSEN
100
AcDbLine
 62
7
  6
CONTINUOUS
 10
713.3224212777
 20
183.3000362202
 11
713.4510019058
 21
183.2297310063
  0
LINE
  5
648
100
AcDbEntity
  8
BEZUGSACHSEN
100
AcDbLine
 62
7
  6
CONTINUOUS
 10
713.4510019058
 20
183.2297310063
 11
713.5149848888
 21
183.194694727
  0
LINE
  5
649
100
AcDbEntity
  8
BEZUGSACHSEN
100
AcDbLine
 62
7
  6
CONTINUOUS
 10
631.4702291538
 20
167.9273043193
 11
631.8176146981
 21
168.0021899194
  0
LINE
  5
64A
100
AcDbEntity
  8
BEZUGSACHSEN
100
AcDbLine
 62
7
  6
CONTINUOUS
 10
632.2304581423
 20
168.2797128385
 11
631.8176146981
 21
168.0021899194
  0
LINE
  5
64B
100
AcDbEntity
  8
BEZUGSACHSEN
100
AcDbLine
 62
7
  6
CONTINUOUS
 10
632.7091107382
 20
168.7597444324
 11
632.2304581423
 21
168.2797128385
  0
LINE
  5
64C
100
AcDbEntity
  8
BEZUGSACHSEN
100
AcDbLine
 62
7
  6
CONTINUOUS
 10
630.5879521635
 20
166.8560678302
 11
630.9477082061
 21
166.6161227255
  0
SPLINE
  5
64D
100
AcDbEntity
  8
BEZUGSACHSEN
100
AcDbSpline
 62
7
  6
CONTINUOUS
 70
0
 71
3
 72
9
 73
5
 74
0
 42
0.0000001
 43
0.0000001
 44
0.0000000001
 40
0.0
 40
0.0
 40
0.0
 40
0.0
 40
0.2448754556
 40
1.0
 40
1.0
 40
1.0
 40
1.0
 10
630.1669448905
 20
170.9176445921
 30
0.0
 10
630.2101716965
 20
171.0119978026
 30
0.0
 10
630.4044093422
 20
171.3891070683
 30
0.0
 10
630.6688246713
 20
171.7287327424
 30
0.0
 10
630.8940488546
 20
171.9561071059
 30
0.0
  0
SPLINE
  5
64E
100
AcDbEntity
  8
BEZUGSACHSEN
100
AcDbSpline
 62
7
  6
CONTINUOUS
 70
0
 71
3
 72
8
 73
4
 74
0
 42
0.0000001
 43
0.0000001
 44
0.0000000001
 40
0.0
 40
0.0
 40
0.0
 40
0.0
 40
1.0
 40
1.0
 40
1.0
 40
1.0
 10
631.5893233515
 20
172.5269981161
 30
0.0
 10
633.0603442997
 20
173.5169507791
 30
0.0
 10
634.5317695633
 20
174.5063027216
 30
0.0
 10
636.0034274208
 20
175.4953083108
 30
0.0
  0
SPLINE
  5
64F
100
AcDbEntity
  8
BEZUGSACHSEN
100
AcDbSpline
 62
7
  6
CONTINUOUS
 70
0
 71
3
 72
8
 73
4
 74
0
 42
0.0000001
 43
0.0000001
 44
0.0000000001
 40
0.0
 40
0.0
 40
0.0
 40
0.0
 40
1.0
 40
1.0
 40
1.0
 40
1.0
 10
630.6291727932
 20
172.2143316096
 30
0.0
 10
630.7544086717
 20
172.5593117967
 30
0.0
 10
630.8798307575
 20
172.904224412
 30
0.0
 10
631.0053821983
 20
173.2490898793
 30
0.0
  0
SPLINE
  5
650
100
AcDbEntity
  8
BEZUGSACHSEN
100
AcDbSpline
 62
7
  6
CONTINUOUS
 70
0
 71
3
 72
9
 73
5
 74
0
 42
0.0000001
 43
0.0000001
 44
0.0000000001
 40
0.0
 40
0.0
 40
0.0
 40
0.0
 40
0.2477373923
 40
1.0
 40
1.0
 40
1.0
 40
1.0
 10
631.0053821983
 20
173.2490898793
 30
0.0
 10
631.0613019107
 20
173.3928086138
 30
0.0
 10
631.3110859369
 20
173.9633938663
 30
0.0
 10
631.6573930204
 20
174.49081093
 30
0.0
 10
631.9581638646
 20
174.8497264265
 30
0.0
  0
SPLINE
  5
651
100
AcDbEntity
  8
BEZUGSACHSEN
100
AcDbSpline
 62
7
  6
CONTINUOUS
 70
0
 71
3
 72
9
 73
5
 74
0
 42
0.0000001
 43
0.0000001
 44
0.0000000001
 40
0.0
 40
0.0
 40
0.0
 40
0.0
 40
0.2467140547
 40
1.0
 40
1.0
 40
1.0
 40
1.0
 10
631.9581638646
 20
174.8497264265
 30
0.0
 10
632.0145766234
 20
174.9170448309
 30
0.0
 10
632.2491104165
 20
175.1849428795
 30
0.0
 10
632.5064868727
 20
175.4326989813
 30
0.0
 10
632.7103327782
 20
175.606946203
 30
0.0
  0
LINE
  5
652
100
AcDbEntity
  8
BEZUGSACHSEN
100
AcDbLine
 62
7
  6
CONTINUOUS
 10
632.7103327782
 20
175.606946203
 11
637.3824131835
 21
179.6006312769
  0
LINE
  5
653
100
AcDbEntity
  8
BEZUGSACHSEN
100
AcDbLine
 62
7
  6
CONTINUOUS
 10
632.3666419907
 20
176.9918841246
 11
632.7640744916
 21
178.0843494765
  0
LINE
  5
654
100
AcDbEntity
  8
BEZUGSACHSEN
100
AcDbLine
 62
7
  6
CONTINUOUS
 10
640.5241873781
 20
188.1254616801
 11
639.9771428123
 21
187.5038195248
  0
SPLINE
  5
655
100
AcDbEntity
  8
BEZUGSACHSEN
100
AcDbSpline
 62
7
  6
CONTINUOUS
 70
0
 71
3
 72
9
 73
5
 74
0
 42
0.0000001
 43
0.0000001
 44
0.0000000001
 40
0.0
 40
0.0
 40
0.0
 40
0.0
 40
0.2468946165
 40
1.0
 40
1.0
 40
1.0
 40
1.0
 10
633.092464507
 20
178.6728179401
 30
0.0
 10
633.1315148519
 20
178.7345305725
 30
0.0
 10
633.2954278729
 20
178.9808160812
 30
0.0
 10
633.4820055131
 20
179.2119086827
 30
0.0
 10
633.6328070578
 20
179.375868336
 30
0.0
  0
SPLINE
  5
656
100
AcDbEntity
  8
BEZUGSACHSEN
100
AcDbSpline
 62
7
  6
CONTINUOUS
 70
0
 71
3
 72
9
 73
5
 74
0
 42
0.0000001
 43
0.0000001
 44
0.0000000001
 40
0.0
 40
0.0
 40
0.0
 40
0.0
 40
0.245417552
 40
1.0
 40
1.0
 40
1.0
 40
1.0
 10
633.6328070578
 20
179.375868336
 30
0.0
 10
633.683576305
 20
179.4310674268
 30
0.0
 10
633.895284913
 20
179.6515055645
 30
0.0
 10
634.1257909916
 20
179.8537344497
 30
0.0
 10
634.3076418413
 20
179.9955167857
 30
0.0
  0
LINE
  5
657
100
AcDbEntity
  8
BEZUGSACHSEN
100
AcDbLine
 62
7
  6
CONTINUOUS
 10
634.3076418413
 20
179.9955167857
 11
635.7513364172
 21
181.1184593122
  0
LINE
  5
658
100
AcDbEntity
  8
BEZUGSACHSEN
100
AcDbLine
 62
7
  6
CONTINUOUS
 10
635.7513364172
 20
181.1184593122
 11
635.7841442264
 21
181.14392022
  0
LINE
  5
659
100
AcDbEntity
  8
BEZUGSACHSEN
100
AcDbLine
 62
7
  6
CONTINUOUS
 10
638.3640036615
 20
188.2727689401
 11
638.9476435649
 21
188.9212614332
  0
LINE
  5
65A
100
AcDbEntity
  8
BEZUGSACHSEN
100
AcDbLine
 62
7
  6
CONTINUOUS
 10
637.3275593494
 20
187.5503743925
 11
637.3801911171
 21
187.5973605772
  0
LINE
  5
65B
100
AcDbEntity
  8
BEZUGSACHSEN
100
AcDbLine
 62
7
  6
CONTINUOUS
 10
637.5392428507
 20
187.7387148798
 11
637.8765105416
 21
188.0857859753
  0
LINE
  5
65C
100
AcDbEntity
  8
BEZUGSACHSEN
100
AcDbLine
 62
7
  6
CONTINUOUS
 10
637.8765105416
 20
188.0857859753
 11
638.0466998057
 21
188.2606411597
  0
LINE
  5
65D
100
AcDbEntity
  8
BEZUGSACHSEN
100
AcDbLine
 62
7
  6
CONTINUOUS
 10
638.0466998057
 20
188.2606411597
 11
638.2179257119
 21
188.4363763137
  0
LINE
  5
65E
100
AcDbEntity
  8
BEZUGSACHSEN
100
AcDbLine
 62
7
  6
CONTINUOUS
 10
638.2179257119
 20
188.4363763137
 11
638.3929884197
 21
188.6303341401
  0
LINE
  5
65F
100
AcDbEntity
  8
BEZUGSACHSEN
100
AcDbLine
 62
7
  6
CONTINUOUS
 10
638.3929884197
 20
188.6303341401
 11
638.5684059244
 21
188.824678568
  0
LINE
  5
660
100
AcDbEntity
  8
BEZUGSACHSEN
100
AcDbLine
 62
7
  6
CONTINUOUS
 10
638.5684059244
 20
188.824678568
 11
638.7867117034
 21
189.0665298598
  0
LINE
  5
661
100
AcDbEntity
  8
BEZUGSACHSEN
100
AcDbLine
 62
7
  6
CONTINUOUS
 10
638.7867117034
 20
189.0665298598
 11
638.9203051723
 21
189.2145273548
  0
LINE
  5
662
100
AcDbEntity
  8
BEZUGSACHSEN
100
AcDbLine
 62
7
  6
CONTINUOUS
 10
639.748469665
 20
190.153849994
 11
639.5409436411
 21
189.9184722333
  0
LINE
  5
663
100
AcDbEntity
  8
BEZUGSACHSEN
100
AcDbLine
 62
7
  6
CONTINUOUS
 10
639.5409436411
 20
189.9184722333
 11
638.9203051723
 21
189.2145273548
  0
LINE
  5
664
100
AcDbEntity
  8
BEZUGSACHSEN
100
AcDbLine
 62
7
  6
CONTINUOUS
 10
640.4659437541
 20
190.9859145383
 11
639.7830332136
 21
190.1939423674
  0
LINE
  5
665
100
AcDbEntity
  8
BEZUGSACHSEN
100
AcDbLine
 62
7
  6
CONTINUOUS
 10
639.7830332136
 20
190.1939423674
 11
639.748469665
 21
190.153849994
  0
LINE
  5
666
100
AcDbEntity
  8
BEZUGSACHSEN
100
AcDbLine
 62
7
  6
CONTINUOUS
 10
641.5105226027
 20
192.3131005767
 11
641.4699626672
 21
192.2464130736
  0
LINE
  5
667
100
AcDbEntity
  8
BEZUGSACHSEN
100
AcDbLine
 62
7
  6
CONTINUOUS
 10
640.1682856055
 20
191.0991338235
 11
640.2448222398
 21
191.184401242
  0
LINE
  5
668
100
AcDbEntity
  8
BEZUGSACHSEN
100
AcDbLine
 62
7
  6
CONTINUOUS
 10
640.2448222398
 20
191.184401242
 11
640.3126457139
 21
191.2599562917
  0
LINE
  5
669
100
AcDbEntity
  8
BEZUGSACHSEN
100
AcDbLine
 62
7
  6
CONTINUOUS
 10
640.3126457139
 20
191.2599562917
 11
640.7479032744
 21
191.744715594
  0
LINE
  5
66A
100
AcDbEntity
  8
BEZUGSACHSEN
100
AcDbLine
 62
7
  6
CONTINUOUS
 10
640.7479032744
 20
191.744715594
 11
640.8334576628
 21
191.8387439412
  0
LINE
  5
66B
100
AcDbEntity
  8
BEZUGSACHSEN
100
AcDbLine
 62
7
  6
CONTINUOUS
 10
640.8334576628
 20
191.8387439412
 11
641.0326953407
 21
192.0576482163
  0
LINE
  5
66C
100
AcDbEntity
  8
BEZUGSACHSEN
100
AcDbLine
 62
7
  6
CONTINUOUS
 10
641.0326953407
 20
192.0576482163
 11
641.0911326958
 21
192.1218361858
  0
LINE
  5
66D
100
AcDbEntity
  8
BEZUGSACHSEN
100
AcDbLine
 62
7
  6
CONTINUOUS
 10
641.0911326958
 20
192.1218361858
 11
641.3155497598
 21
192.3639684332
  0
LINE
  5
66E
100
AcDbEntity
  8
BEZUGSACHSEN
100
AcDbLine
 62
7
  6
CONTINUOUS
 10
641.3155497598
 20
192.3639684332
 11
641.3283453409
 21
192.377766812
  0
LINE
  5
66F
100
AcDbEntity
  8
BEZUGSACHSEN
100
AcDbLine
 62
7
  6
CONTINUOUS
 10
641.3283453409
 20
192.377766812
 11
641.4283318016
 21
192.4855625841
  0
LINE
  5
670
100
AcDbEntity
  8
BEZUGSACHSEN
100
AcDbLine
 62
7
  6
CONTINUOUS
 10
641.4283318016
 20
192.4855625841
 11
641.5414961189
 21
192.6075088005
  0
LINE
  5
671
100
AcDbEntity
  8
BEZUGSACHSEN
100
AcDbLine
 62
7
  6
CONTINUOUS
 10
641.5414961189
 20
192.6075088005
 11
641.621406879
 21
192.6885347586
  0
LINE
  5
672
100
AcDbEntity
  8
BEZUGSACHSEN
100
AcDbLine
 62
7
  6
CONTINUOUS
 10
636.7542032363
 20
187.0224239903
 11
636.7975491346
 21
187.0953651506
  0
LINE
  5
673
100
AcDbEntity
  8
BEZUGSACHSEN
100
AcDbLine
 62
7
  6
CONTINUOUS
 10
636.7975491346
 20
187.0953651506
 11
636.841266688
 21
187.1678678026
  0
LINE
  5
674
100
AcDbEntity
  8
BEZUGSACHSEN
100
AcDbLine
 62
7
  6
CONTINUOUS
 10
637.2480153933
 20
187.7000947761
 11
637.1831492807
 21
187.6161149776
  0
LINE
  5
675
100
AcDbEntity
  8
BEZUGSACHSEN
100
AcDbLine
 62
7
  6
CONTINUOUS
 10
637.1831492807
 20
187.6161149776
 11
637.0540994303
 21
187.4485693502
  0
LINE
  5
676
100
AcDbEntity
  8
BEZUGSACHSEN
100
AcDbLine
 62
7
  6
CONTINUOUS
 10
637.0540994303
 20
187.4485693502
 11
636.9899156615
 21
187.3650035393
  0
LINE
  5
677
100
AcDbEntity
  8
BEZUGSACHSEN
100
AcDbLine
 62
7
  6
CONTINUOUS
 10
637.6369267818
 20
188.1794055908
 11
637.5390588753
 21
188.0589816317
  0
LINE
  5
678
100
AcDbEntity
  8
BEZUGSACHSEN
100
AcDbLine
 62
7
  6
CONTINUOUS
 10
637.5390588753
 20
188.0589816317
 11
637.3446032699
 21
187.8193261612
  0
LINE
  5
679
100
AcDbEntity
  8
BEZUGSACHSEN
100
AcDbLine
 62
7
  6
CONTINUOUS
 10
637.3446032699
 20
187.8193261612
 11
637.2480153933
 21
187.7000947761
  0
LINE
  5
67A
100
AcDbEntity
  8
BEZUGSACHSEN
100
AcDbLine
 62
7
  6
CONTINUOUS
 10
638.1335027556
 20
188.7670751903
 11
638.0087865181
 21
188.6195515845
  0
LINE
  5
67B
100
AcDbEntity
  8
BEZUGSACHSEN
100
AcDbLine
 62
7
  6
CONTINUOUS
 10
638.0087865181
 20
188.6195515845
 11
637.8844517196
 21
188.4724321634
  0
LINE
  5
67C
100
AcDbEntity
  8
BEZUGSACHSEN
100
AcDbLine
 62
7
  6
CONTINUOUS
 10
637.8844517196
 20
188.4724321634
 11
637.6369267818
 21
188.1794055908
  0
LINE
  5
67D
100
AcDbEntity
  8
BEZUGSACHSEN
100
AcDbLine
 62
7
  6
CONTINUOUS
 10
638.5002631806
 20
189.1950398074
 11
638.1335027556
 21
188.7670751903
  0
LINE
  5
67E
100
AcDbEntity
  8
BEZUGSACHSEN
100
AcDbLine
 62
7
  6
CONTINUOUS
 10
639.1036938539
 20
189.8913637081
 11
638.8014299843
 21
189.5425821597
  0
LINE
  5
67F
100
AcDbEntity
  8
BEZUGSACHSEN
100
AcDbLine
 62
7
  6
CONTINUOUS
 10
638.8014299843
 20
189.5425821597
 11
638.6507094339
 21
189.3686560973
  0
LINE
  5
680
100
AcDbEntity
  8
BEZUGSACHSEN
100
AcDbLine
 62
7
  6
CONTINUOUS
 10
638.6507094339
 20
189.3686560973
 11
638.5002631806
 21
189.1950398074
  0
LINE
  5
681
100
AcDbEntity
  8
BEZUGSACHSEN
100
AcDbLine
 62
7
  6
CONTINUOUS
 10
639.1036938539
 20
189.8913637081
 11
639.1333422255
 21
189.9250004982
  0
LINE
  5
682
100
AcDbEntity
  8
BEZUGSACHSEN
100
AcDbLine
 62
7
  6
CONTINUOUS
 10
639.1333422255
 20
189.9250004982
 11
639.3689527114
 21
190.1923042319
  0
LINE
  5
683
100
AcDbEntity
  8
BEZUGSACHSEN
100
AcDbLine
 62
7
  6
CONTINUOUS
 10
639.3689527114
 20
190.1923042319
 11
639.6348043171
 21
190.4939127352
  0
LINE
  5
684
100
AcDbEntity
  8
BEZUGSACHSEN
100
AcDbLine
 62
7
  6
CONTINUOUS
 10
639.6348043171
 20
190.4939127352
 11
640.1682856055
 21
191.0991338235
  0
LINE
  5
685
100
AcDbEntity
  8
BEZUGSACHSEN
100
AcDbLine
 62
7
  6
CONTINUOUS
 10
638.3604151797
 20
189.3200345782
 11
638.556274611
 21
189.5398734801
  0
LINE
  5
686
100
AcDbEntity
  8
BEZUGSACHSEN
100
AcDbLine
 62
7
  6
CONTINUOUS
 10
638.9747375783
 20
190.0066657853
 11
638.9962766476
 21
190.0305887632
  0
LINE
  5
687
100
AcDbEntity
  8
BEZUGSACHSEN
100
AcDbLine
 62
7
  6
CONTINUOUS
 10
639.3962266671
 20
190.4730329797
 11
639.7317627903
 21
190.84171264
  0
LINE
  5
688
100
AcDbEntity
  8
BEZUGSACHSEN
100
AcDbLine
 62
7
  6
CONTINUOUS
 10
639.7317627903
 20
190.84171264
 11
640.0590600505
 21
191.1992400385
  0
LINE
  5
689
100
AcDbEntity
  8
BEZUGSACHSEN
100
AcDbLine
 62
7
  6
CONTINUOUS
 10
640.0590600505
 20
191.1992400385
 11
640.1004635971
 21
191.2443247175
  0
LINE
  5
68A
100
AcDbEntity
  8
BEZUGSACHSEN
100
AcDbLine
 62
7
  6
CONTINUOUS
 10
640.1004635971
 20
191.2443247175
 11
640.1388937465
 21
191.2861434329
  0
LINE
  5
68B
100
AcDbEntity
  8
BEZUGSACHSEN
100
AcDbLine
 62
7
  6
CONTINUOUS
 10
640.1388937465
 20
191.2861434329
 11
640.4956415019
 21
191.6730772597
  0
LINE
  5
68C
100
AcDbEntity
  8
BEZUGSACHSEN
100
AcDbLine
 62
7
  6
CONTINUOUS
 10
640.4956415019
 20
191.6730772597
 11
640.6138493129
 21
191.8053440002
  0
LINE
  5
68D
100
AcDbEntity
  8
BEZUGSACHSEN
100
AcDbLine
 62
7
  6
CONTINUOUS
 10
640.6138493129
 20
191.8053440002
 11
640.732415469
 21
191.9379672265
  0
LINE
  5
68E
100
AcDbEntity
  8
BEZUGSACHSEN
100
AcDbLine
 62
7
  6
CONTINUOUS
 10
640.732415469
 20
191.9379672265
 11
640.851339905
 21
192.0709469896
  0
LINE
  5
68F
100
AcDbEntity
  8
BEZUGSACHSEN
100
AcDbLine
 62
7
  6
CONTINUOUS
 10
640.851339905
 20
192.0709469896
 11
640.9706225567
 21
192.2042833398
  0
LINE
  5
690
100
AcDbEntity
  8
BEZUGSACHSEN
100
AcDbLine
 62
7
  6
CONTINUOUS
 10
641.2095231891
 20
192.4788250059
 11
640.9706225567
 21
192.2042833398
  0
LINE
  5
691
100
AcDbEntity
  8
BEZUGSACHSEN
100
AcDbLine
 62
7
  6
CONTINUOUS
 10
641.5707961247
 20
192.9084759409
 11
641.389608065
 21
192.6931160291
  0
LINE
  5
692
100
AcDbEntity
  8
BEZUGSACHSEN
100
AcDbLine
 62
7
  6
CONTINUOUS
 10
641.389608065
 20
192.6931160291
 11
641.2994277284
 21
192.5858369069
  0
LINE
  5
693
100
AcDbEntity
  8
BEZUGSACHSEN
100
AcDbLine
 62
7
  6
CONTINUOUS
 10
641.2994277284
 20
192.5858369069
 11
641.2095231891
 21
192.4788250059
  0
LINE
  5
694
100
AcDbEntity
  8
BEZUGSACHSEN
100
AcDbLine
 62
7
  6
CONTINUOUS
 10
641.815165278
 20
193.2093808977
 11
641.6926073758
 21
193.058726615
  0
LINE
  5
695
100
AcDbEntity
  8
BEZUGSACHSEN
100
AcDbLine
 62
7
  6
CONTINUOUS
 10
641.6926073758
 20
193.058726615
 11
641.6316084204
 21
192.983550826
  0
LINE
  5
696
100
AcDbEntity
  8
BEZUGSACHSEN
100
AcDbLine
 62
7
  6
CONTINUOUS
 10
641.6316084204
 20
192.983550826
 11
641.5707961247
 21
192.9084759409
  0
LINE
  5
697
100
AcDbEntity
  8
BEZUGSACHSEN
100
AcDbLine
 62
7
  6
CONTINUOUS
 10
641.8921246068
 20
193.3881737145
 11
641.9216584777
 21
193.4216415223
  0
LINE
  5
698
100
AcDbEntity
  8
BEZUGSACHSEN
100
AcDbLine
 62
7
  6
CONTINUOUS
 10
641.9216584777
 20
193.4216415223
 11
642.006342248
 21
193.5175218126
  0
LINE
  5
699
100
AcDbEntity
  8
BEZUGSACHSEN
100
AcDbLine
 62
7
  6
CONTINUOUS
 10
642.006342248
 20
193.5175218126
 11
642.236735432
 21
193.7777592474
  0
SPLINE
  5
69A
100
AcDbEntity
  8
BEZUGSACHSEN
100
AcDbSpline
 62
7
  6
CONTINUOUS
 70
0
 71
3
 72
8
 73
4
 74
0
 42
0.0000001
 43
0.0000001
 44
0.0000000001
 40
0.0
 40
0.0
 40
0.0
 40
0.0
 40
1.0
 40
1.0
 40
1.0
 40
1.0
 10
636.9153383938
 20
187.5348751002
 30
0.0
 10
636.9249436004
 20
187.6052793898
 30
0.0
 10
636.9497693625
 20
187.6750763102
 30
0.0
 10
636.986844354
 20
187.7356937087
 30
0.0
  0
LINE
  5
69B
100
AcDbEntity
  8
BEZUGSACHSEN
100
AcDbLine
 62
7
  6
CONTINUOUS
 10
637.2347224457
 20
188.0376046511
 11
637.32845212
 21
188.1453911157
  0
LINE
  5
69C
100
AcDbEntity
  8
BEZUGSACHSEN
100
AcDbLine
 62
7
  6
CONTINUOUS
 10
637.32845212
 20
188.1453911157
 11
637.5161475214
 21
188.3612332066
  0
LINE
  5
69D
100
AcDbEntity
  8
BEZUGSACHSEN
100
AcDbLine
 62
7
  6
CONTINUOUS
 10
636.6838436229
 20
186.8620166291
 11
636.6410723132
 21
186.790962338
  0
LINE
  5
69E
100
AcDbEntity
  8
BEZUGSACHSEN
100
AcDbLine
 62
7
  6
CONTINUOUS
 10
636.6410723132
 20
186.790962338
 11
636.6157311598
 21
186.7243440349
  0
LINE
  5
69F
100
AcDbEntity
  8
BEZUGSACHSEN
100
AcDbLine
 62
7
  6
CONTINUOUS
 10
636.6157311598
 20
186.7243440349
 11
636.5911277665
 21
186.6574602623
  0
LINE
  5
6A0
100
AcDbEntity
  8
BEZUGSACHSEN
100
AcDbLine
 62
7
  6
CONTINUOUS
 10
636.5911277665
 20
186.6574602623
 11
636.5672614277
 21
186.5903112772
  0
LINE
  5
6A1
100
AcDbEntity
  8
BEZUGSACHSEN
100
AcDbLine
 62
7
  6
CONTINUOUS
 10
636.5672614277
 20
186.5903112772
 11
636.5441331596
 21
186.5228967101
  0
LINE
  5
6A2
100
AcDbEntity
  8
BEZUGSACHSEN
100
AcDbLine
 62
7
  6
CONTINUOUS
 10
635.9063809487
 20
184.388016383
 11
635.9323001172
 21
184.4163207587
  0
LINE
  5
6A3
100
AcDbEntity
  8
BEZUGSACHSEN
100
AcDbLine
 62
7
  6
CONTINUOUS
 10
635.9323001172
 20
184.4163207587
 11
636.3007416541
 21
184.818663169
  0
LINE
  5
6A4
100
AcDbEntity
  8
BEZUGSACHSEN
100
AcDbLine
 62
7
  6
CONTINUOUS
 10
636.9428368399
 20
186.3777960506
 11
636.8158783176
 21
186.2509761895
  0
LINE
  5
6A5
100
AcDbEntity
  8
BEZUGSACHSEN
100
AcDbLine
 62
7
  6
CONTINUOUS
 10
636.8158783176
 20
186.2509761895
 11
636.4520365378
 21
185.8871927927
  0
LINE
  5
6A6
100
AcDbEntity
  8
BEZUGSACHSEN
100
AcDbLine
 62
7
  6
CONTINUOUS
 10
632.9383458576
 20
175.8018714027
 11
632.9617252639
 21
175.8391837046
  0
LINE
  5
6A7
100
AcDbEntity
  8
BEZUGSACHSEN
100
AcDbLine
 62
7
  6
CONTINUOUS
 10
632.9617252639
 20
175.8391837046
 11
633.0560202357
 21
175.9633278711
  0
LINE
  5
6A8
100
AcDbEntity
  8
BEZUGSACHSEN
100
AcDbLine
 62
7
  6
CONTINUOUS
 10
638.7490161239
 20
188.366876122
 11
638.1654299021
 21
187.7183640904
  0
LINE
  5
6A9
100
AcDbEntity
  8
BEZUGSACHSEN
100
AcDbLine
 62
7
  6
CONTINUOUS
 10
639.1636826223
 20
189.8982574756
 11
639.3703049195
 21
190.132568085
  0
LINE
  5
6AA
100
AcDbEntity
  8
BEZUGSACHSEN
100
AcDbLine
 62
7
  6
CONTINUOUS
 10
639.3703049195
 20
190.132568085
 11
639.5772273953
 21
190.367217762
  0
LINE
  5
6AB
100
AcDbEntity
  8
BEZUGSACHSEN
100
AcDbLine
 62
7
  6
CONTINUOUS
 10
639.5772273953
 20
190.367217762
 11
639.9919728415
 21
190.8375343541
  0
LINE
  5
6AC
100
AcDbEntity
  8
BEZUGSACHSEN
100
AcDbLine
 62
7
  6
CONTINUOUS
 10
639.1636826223
 20
189.8982574756
 11
639.134485349
 21
189.8646295519
  0
LINE
  5
6AD
100
AcDbEntity
  8
BEZUGSACHSEN
100
AcDbLine
 62
7
  6
CONTINUOUS
 10
639.134485349
 20
189.8646295519
 11
638.8023357202
 21
189.4820626041
  0
LINE
  5
6AE
100
AcDbEntity
  8
BEZUGSACHSEN
100
AcDbLine
 62
7
  6
CONTINUOUS
 10
638.8023357202
 20
189.4820626041
 11
638.6222203277
 21
189.2745963519
  0
LINE
  5
6AF
100
AcDbEntity
  8
BEZUGSACHSEN
100
AcDbLine
 62
7
  6
CONTINUOUS
 10
638.6222203277
 20
189.2745963519
 11
638.587159248
 21
189.2342102687
  0
LINE
  5
6B0
100
AcDbEntity
  8
BEZUGSACHSEN
100
AcDbLine
 62
7
  6
CONTINUOUS
 10
638.587159248
 20
189.2342102687
 11
638.442477033
 21
189.067550838
  0
LINE
  5
6B1
100
AcDbEntity
  8
BEZUGSACHSEN
100
AcDbLine
 62
7
  6
CONTINUOUS
 10
638.442477033
 20
189.067550838
 11
638.0634063135
 21
188.611239421
  0
LINE
  5
6B2
100
AcDbEntity
  8
BEZUGSACHSEN
100
AcDbLine
 62
7
  6
CONTINUOUS
 10
638.0634063135
 20
188.611239421
 11
637.8755709255
 21
188.384807353
  0
LINE
  5
6B3
100
AcDbEntity
  8
BEZUGSACHSEN
100
AcDbLine
 62
7
  6
CONTINUOUS
 10
637.8755709255
 20
188.384807353
 11
637.6888691707
 21
188.1595241274
  0
LINE
  5
6B4
100
AcDbEntity
  8
BEZUGSACHSEN
100
AcDbLine
 62
7
  6
CONTINUOUS
 10
637.6888691707
 20
188.1595241274
 11
637.6215803726
 21
188.0727668912
  0
LINE
  5
6B5
100
AcDbEntity
  8
BEZUGSACHSEN
100
AcDbLine
 62
7
  6
CONTINUOUS
 10
637.4210596255
 20
187.8133858891
 11
637.3789269133
 21
187.7472841932
  0
LINE
  5
6B6
100
AcDbEntity
  8
BEZUGSACHSEN
100
AcDbLine
 62
7
  6
CONTINUOUS
 10
637.2953885721
 20
187.6148036661
 11
637.2754379083
 21
187.5828789985
  0
LINE
  5
6B7
100
AcDbEntity
  8
BEZUGSACHSEN
100
AcDbLine
 62
7
  6
CONTINUOUS
 10
637.2754379083
 20
187.5828789985
 11
637.2539844893
 21
187.5484241982
  0
LINE
  5
6B8
100
AcDbEntity
  8
BEZUGSACHSEN
100
AcDbLine
 62
7
  6
CONTINUOUS
 10
641.3578006644
 20
192.3188925372
 11
641.4604181499
 21
192.4140090742
  0
LINE
  5
6B9
100
AcDbEntity
  8
BEZUGSACHSEN
100
AcDbLine
 62
7
  6
CONTINUOUS
 10
641.4604181499
 20
192.4140090742
 11
641.5119783598
 21
192.4616462481
  0
LINE
  5
6BA
100
AcDbEntity
  8
BEZUGSACHSEN
100
AcDbLine
 62
7
  6
CONTINUOUS
 10
641.5119783598
 20
192.4616462481
 11
641.5637062059
 21
192.5093360299
  0
LINE
  5
6BB
100
AcDbEntity
  8
BEZUGSACHSEN
100
AcDbLine
 62
7
  6
CONTINUOUS
 10
640.6908105363
 20
191.6169742443
 11
640.8560000983
 21
191.7911399283
  0
LINE
  5
6BC
100
AcDbEntity
  8
BEZUGSACHSEN
100
AcDbLine
 62
7
  6
CONTINUOUS
 10
640.8560000983
 20
191.7911399283
 11
641.1894951664
 21
192.1420990719
  0
LINE
  5
6BD
100
AcDbEntity
  8
BEZUGSACHSEN
100
AcDbLine
 62
7
  6
CONTINUOUS
 10
641.1894951664
 20
192.1420990719
 11
641.3578006644
 21
192.3188925372
  0
LINE
  5
6BE
100
AcDbEntity
  8
BEZUGSACHSEN
100
AcDbLine
 62
7
  6
CONTINUOUS
 10
621.2635788812
 20
77.9641589822
 11
620.1774113835
 21
81.019936052
  0
LINE
  5
6BF
100
AcDbEntity
  8
RUNDUNGEN
100
AcDbLine
 62
7
  6
CONTINUOUS
 10
605.4083242213
 20
83.7349997351
 11
608.2045924356
 21
85.3776857693
  0
LINE
  5
6C0
100
AcDbEntity
  8
BEZUGSACHSEN
100
AcDbLine
 62
7
  6
CONTINUOUS
 10
639.9919728415
 20
190.8375343541
 11
640.1659810949
 21
191.0316432159
  0
LINE
  5
6C1
100
AcDbEntity
  8
BEZUGSACHSEN
100
AcDbLine
 62
7
  6
CONTINUOUS
 10
640.1659810949
 20
191.0316432159
 11
640.3404568567
 21
191.2262527671
  0
LINE
  5
6C2
100
AcDbEntity
  8
BEZUGSACHSEN
100
AcDbLine
 62
7
  6
CONTINUOUS
 10
640.3404568567
 20
191.2262527671
 11
640.515400034
 21
191.421363085
  0
LINE
  5
6C3
100
AcDbEntity
  8
BEZUGSACHSEN
100
AcDbLine
 62
7
  6
CONTINUOUS
 10
640.515400034
 20
191.421363085
 11
640.6908105363
 21
191.6169742443
  0
LINE
  5
6C4
100
AcDbEntity
  8
0
100
AcDbLine
 62
7
  6
CONTINUOUS
 10
632.003706843
 20
168.1273167954
 11
632.0090588629
 21
168.1674084762
  0
LINE
  5
6C5
100
AcDbEntity
  8
0
100
AcDbLine
 62
7
  6
CONTINUOUS
 10
632.0090588629
 20
168.1674084762
 11
632.0279802728
 21
168.3074952435
  0
LINE
  5
6C6
100
AcDbEntity
  8
0
100
AcDbLine
 62
7
  6
CONTINUOUS
 10
632.0279802728
 20
168.3074952435
 11
632.0438470449
 21
168.4230448779
  0
LINE
  5
6C7
100
AcDbEntity
  8
BEZUGSACHSEN
100
AcDbLine
 62
7
  6
CONTINUOUS
 10
641.72414132
 20
192.4459563083
 11
641.6569682397
 21
192.3546226122
  0
LINE
  5
6C8
100
AcDbEntity
  8
0
100
AcDbLine
 62
7
  6
CONTINUOUS
 10
641.5868838535
 20
190.9908592922
 11
642.0751276602
 21
191.5815621083
  0
LINE
  5
6C9
100
AcDbEntity
  8
BEZUGSACHSEN
100
AcDbLine
 62
7
  6
CONTINUOUS
 10
641.2790277731
 20
191.8713187707
 11
640.7912469382
 21
191.2804474466
  0
LINE
  5
6CA
100
AcDbEntity
  8
0
100
AcDbLine
 62
7
  6
CONTINUOUS
 10
634.4806675764
 20
172.9005863912
 11
633.4553088571
 21
172.2120783025
  0
LINE
  5
6CB
100
AcDbEntity
  8
BEZUGSACHSEN
100
AcDbLine
 62
7
  6
CONTINUOUS
 10
632.7760886638
 20
172.4592942353
 11
634.8431006662
 21
173.8458900156
  0
LINE
  5
6CC
100
AcDbEntity
  8
0
100
AcDbLine
 62
7
  6
CONTINUOUS
 10
641.2247211814
 20
190.5612214132
 11
641.5868838535
 21
190.9908592922
  0
LINE
  5
6CD
100
AcDbEntity
  8
BEZUGSACHSEN
100
AcDbLine
 62
7
  6
CONTINUOUS
 10
640.7912469382
 20
191.2804474466
 11
640.4293387377
 21
190.8507169475
  0
LINE
  5
6CE
100
AcDbEntity
  8
0
100
AcDbLine
 62
7
  6
CONTINUOUS
 10
640.6261871837
 20
189.8631148367
 11
641.2247211814
 21
190.5612214132
  0
LINE
  5
6CF
100
AcDbEntity
  8
BEZUGSACHSEN
100
AcDbLine
 62
7
  6
CONTINUOUS
 10
640.4293387377
 20
190.8507169475
 11
639.8310985466
 21
190.1525034342
  0
LINE
  5
6D0
100
AcDbEntity
  8
0
100
AcDbLine
 62
7
  6
CONTINUOUS
 10
639.5900060121
 20
188.6874606828
 11
639.8268987903
 21
188.9562464117
  0
LINE
  5
6D1
100
AcDbEntity
  8
0
100
AcDbLine
 62
7
  6
CONTINUOUS
 10
639.8268987903
 20
188.9562464117
 11
640.6261871837
 21
189.8631148367
  0
LINE
  5
6D2
100
AcDbEntity
  8
BEZUGSACHSEN
100
AcDbLine
 62
7
  6
CONTINUOUS
 10
639.8310985466
 20
190.1525034342
 11
639.7956477231
 21
190.1122751088
  0
LINE
  5
6D3
100
AcDbEntity
  8
BEZUGSACHSEN
100
AcDbLine
 62
7
  6
CONTINUOUS
 10
639.7956477231
 20
190.1122751088
 11
639.5640754887
 21
189.8494927894
  0
LINE
  5
6D4
100
AcDbEntity
  8
BEZUGSACHSEN
100
AcDbLine
 62
7
  6
CONTINUOUS
 10
639.5640754887
 20
189.8494927894
 11
639.2976730387
 21
189.5471807016
  0
LINE
  5
6D5
100
AcDbEntity
  8
BEZUGSACHSEN
100
AcDbLine
 62
7
  6
CONTINUOUS
 10
639.2976730387
 20
189.5471807016
 11
638.8342029449
 21
189.021223312
  0
LINE
  5
6D6
100
AcDbEntity
  8
BEZUGSACHSEN
100
AcDbLine
 62
7
  6
CONTINUOUS
 10
638.8342029449
 20
189.021223312
 11
638.7667301749
 21
188.9446520152
  0
LINE
  5
6D7
100
AcDbEntity
  8
0
100
AcDbLine
 62
7
  6
CONTINUOUS
 10
631.9328259843
 20
166.4588940709
 11
632.4827368921
 21
166.8291235947
  0
LINE
  5
6D8
100
AcDbEntity
  8
BEZUGSACHSEN
100
AcDbLine
 62
7
  6
CONTINUOUS
 10
638.1821446689
 20
188.3008788211
 11
638.3278994052
 21
188.4613992054
  0
LINE
  5
6D9
100
AcDbEntity
  8
BEZUGSACHSEN
100
AcDbLine
 62
7
  6
CONTINUOUS
 10
638.3278994052
 20
188.4613992054
 11
638.473915253
 21
188.6222015175
  0
LINE
  5
6DA
100
AcDbEntity
  8
BEZUGSACHSEN
100
AcDbLine
 62
7
  6
CONTINUOUS
 10
638.473915253
 20
188.6222015175
 11
638.6201921851
 21
188.7832857801
  0
LINE
  5
6DB
100
AcDbEntity
  8
BEZUGSACHSEN
100
AcDbLine
 62
7
  6
CONTINUOUS
 10
638.6201921851
 20
188.7832857801
 11
638.7667301749
 21
188.9446520152
  0
LINE
  5
6DC
100
AcDbEntity
  8
BEZUGSACHSEN
100
AcDbLine
 62
7
  6
CONTINUOUS
 10
631.8464663191
 20
167.0607071442
 11
631.2971805279
 21
166.6902500966
  0
LINE
  5
6DD
100
AcDbEntity
  8
BEZUGSACHSEN
100
AcDbLine
 62
7
  6
CONTINUOUS
 10
637.8341701163
 20
187.9254851325
 11
638.0078820501
 21
188.1129020903
  0
LINE
  5
6DE
100
AcDbEntity
  8
BEZUGSACHSEN
100
AcDbLine
 62
7
  6
CONTINUOUS
 10
638.0078820501
 20
188.1129020903
 11
638.1821446689
 21
188.3008788211
  0
LINE
  5
6DF
100
AcDbEntity
  8
0
100
AcDbLine
 62
7
  6
CONTINUOUS
 10
638.5683199014
 20
187.5717252169
 11
638.5142731794
 21
187.5148749628
  0
LINE
  5
6E0
100
AcDbEntity
  8
0
100
AcDbLine
 62
7
  6
CONTINUOUS
 10
638.5142731794
 20
187.5148749628
 11
638.3994353849
 21
187.3940497338
  0
LINE
  5
6E1
100
AcDbEntity
  8
0
100
AcDbLine
 62
7
  6
CONTINUOUS
 10
638.3994353849
 20
187.3940497338
 11
638.1708018665
 21
187.153370256
  0
LINE
  5
6E2
100
AcDbEntity
  8
BEZUGSACHSEN
100
AcDbLine
 62
7
  6
CONTINUOUS
 10
637.3750988495
 20
187.4429824695
 11
637.71887019
 21
187.8043621821
  0
LINE
  5
6E3
100
AcDbEntity
  8
BEZUGSACHSEN
100
AcDbLine
 62
7
  6
CONTINUOUS
 10
637.71887019
 20
187.8043621821
 11
637.8341701163
 21
187.9254851325
  0
LINE
  5
6E4
100
AcDbEntity
  8
0
100
AcDbLine
 62
7
  6
CONTINUOUS
 10
631.9328259843
 20
166.4588940709
 11
631.5843347156
 21
166.3844096257
  0
LINE
  5
6E5
100
AcDbEntity
  8
BEZUGSACHSEN
100
AcDbLine
 62
7
  6
CONTINUOUS
 10
636.838076801
 20
186.9478296989
 11
636.8888356223
 21
186.9911530142
  0
LINE
  5
6E6
100
AcDbEntity
  8
BEZUGSACHSEN
100
AcDbLine
 62
7
  6
CONTINUOUS
 10
630.9477082061
 20
166.6161227255
 11
631.2971805279
 21
166.6902500966
  0
SPLINE
  5
6E7
100
AcDbEntity
  8
BEZUGSACHSEN
100
AcDbSpline
 62
7
  6
CONTINUOUS
 70
0
 71
3
 72
9
 73
5
 74
0
 42
0.0000001
 43
0.0000001
 44
0.0000000001
 40
0.0
 40
0.0
 40
0.0
 40
0.0
 40
0.4999929088
 40
1.0
 40
1.0
 40
1.0
 40
1.0
 10
636.4932440746
 20
127.2828643509
 30
0.0
 10
638.9516071999
 20
132.4822652225
 30
0.0
 10
643.3427897905
 20
143.1421415805
 30
0.0
 10
646.5094933174
 20
154.2253906321
 30
0.0
 10
647.8262778402
 20
159.8240756314
 30
0.0
  0
SPLINE
  5
6E8
100
AcDbEntity
  8
BEZUGSACHSEN
100
AcDbSpline
 62
7
  6
CONTINUOUS
 70
0
 71
3
 72
11
 73
7
 74
0
 42
0.0000001
 43
0.0000001
 44
0.0000000001
 40
0.0
 40
0.0
 40
0.0
 40
0.0
 40
0.2502389943
 40
0.5000000009
 40
0.7497610074
 40
1.0
 40
1.0
 40
1.0
 40
1.0
 10
647.8262778402
 20
159.8240756314
 30
0.0
 10
649.0797222412
 20
162.1479460955
 30
0.0
 10
651.434727116
 20
166.8743860152
 30
0.0
 10
654.4309808774
 20
174.2043012639
 30
0.0
 10
656.8472960396
 20
181.7452968819
 30
0.0
 10
658.0813546403
 20
186.8797278583
 30
0.0
 10
658.6149156593
 20
189.4656144259
 30
0.0
  0
SPLINE
  5
6E9
100
AcDbEntity
  8
BEZUGSACHSEN
100
AcDbSpline
 62
7
  6
CONTINUOUS
 70
0
 71
3
 72
11
 73
7
 74
0
 42
0.0000001
 43
0.0000001
 44
0.0000000001
 40
0.0
 40
0.0
 40
0.0
 40
0.0
 40
0.2540845274
 40
0.5000000008
 40
0.7459154741
 40
1.0
 40
1.0
 40
1.0
 40
1.0
 10
658.6149156593
 20
189.4656144259
 30
0.0
 10
659.3001714205
 20
190.2539110046
 30
0.0
 10
660.538056774
 20
191.9091703597
 30
0.0
 10
661.8879881705
 20
194.6852848254
 30
0.0
 10
662.6383327159
 20
197.679631054
 30
0.0
 10
662.7540377082
 20
199.7433306468
 30
0.0
 10
662.7358086138
 20
200.7876747666
 30
0.0
  0
LINE
  5
6EA
100
AcDbEntity
  8
BEZUGSACHSEN
100
AcDbLine
 62
7
  6
CONTINUOUS
 10
641.9327151856
 20
193.3990373841
 11
641.9584056369
 21
193.4230551376
  0
LINE
  5
6EB
100
AcDbEntity
  8
BEZUGSACHSEN
100
AcDbLine
 62
7
  6
CONTINUOUS
 10
641.6304434775
 20
193.0757940632
 11
641.663725373
 21
193.1127555755
  0
LINE
  5
6EC
100
AcDbEntity
  8
BEZUGSACHSEN
100
AcDbLine
 62
7
  6
CONTINUOUS
 10
641.8000419387
 20
193.2637127386
 11
641.8569237477
 21
193.3265016891
  0
LINE
  5
6ED
100
AcDbEntity
  8
BEZUGSACHSEN
100
AcDbLine
 62
7
  6
CONTINUOUS
 10
641.2810858964
 20
192.6796117173
 11
641.352275356
 21
192.7604185325
  0
LINE
  5
6EE
100
AcDbEntity
  8
BEZUGSACHSEN
100
AcDbLine
 62
7
  6
CONTINUOUS
 10
641.352275356
 20
192.7604185325
 11
641.3680192838
 21
192.778284105
  0
LINE
  5
6EF
100
AcDbEntity
  8
BEZUGSACHSEN
100
AcDbLine
 62
7
  6
CONTINUOUS
 10
641.3680192838
 20
192.778284105
 11
641.4552233421
 21
192.8772052926
  0
LINE
  5
6F0
100
AcDbEntity
  8
BEZUGSACHSEN
100
AcDbLine
 62
7
  6
CONTINUOUS
 10
641.4552233421
 20
192.8772052926
 11
641.5426980729
 21
192.976375279
  0
LINE
  5
6F1
100
AcDbEntity
  8
BEZUGSACHSEN
100
AcDbLine
 62
7
  6
CONTINUOUS
 10
641.5426980729
 20
192.976375279
 11
641.6304434775
 21
193.0757940632
  0
SPLINE
  5
6F2
100
AcDbEntity
  8
BEZUGSACHSEN
100
AcDbSpline
 62
7
  6
CONTINUOUS
 70
0
 71
3
 72
9
 73
5
 74
0
 42
0.0000001
 43
0.0000001
 44
0.0000000001
 40
0.0
 40
0.0
 40
0.0
 40
0.0
 40
0.2565559532
 40
1.0
 40
1.0
 40
1.0
 40
1.0
 10
631.1732416118
 20
171.3838229317
 30
0.0
 10
631.1175497672
 20
171.3464506944
 30
0.0
 10
630.9033741055
 20
171.196538891
 30
0.0
 10
630.7012267667
 20
171.0291991229
 30
0.0
 10
630.5605166091
 20
170.8951345703
 30
0.0
  0
SPLINE
  5
6F3
100
AcDbEntity
  8
BEZUGSACHSEN
100
AcDbSpline
 62
7
  6
CONTINUOUS
 70
0
 71
3
 72
9
 73
5
 74
0
 42
0.0000001
 43
0.0000001
 44
0.0000000001
 40
0.0
 40
0.0
 40
0.0
 40
0.0
 40
0.2587873464
 40
1.0
 40
1.0
 40
1.0
 40
1.0
 10
630.5605166091
 20
170.8951345703
 30
0.0
 10
630.4701309767
 20
170.8090177641
 30
0.0
 10
630.1358254119
 20
170.4611070584
 30
0.0
 10
629.8683280331
 20
170.0473796396
 30
0.0
 10
629.725819758
 20
169.7194337218
 30
0.0
  0
LINE
  5
6F4
100
AcDbEntity
  8
BEZUGSACHSEN
100
AcDbLine
 62
7
  6
CONTINUOUS
 10
631.1732416118
 20
171.3838229317
 11
631.9493779517
 21
171.9046218375
  0
LINE
  5
6F5
100
AcDbEntity
  8
0
100
AcDbLine
 62
7
  6
CONTINUOUS
 10
642.7379092573
 20
192.9969406061
 11
642.9675412252
 21
193.2754828208
  0
LINE
  5
6F6
100
AcDbEntity
  8
BEZUGSACHSEN
100
AcDbLine
 62
7
  6
CONTINUOUS
 10
642.1638511901
 20
193.5680020711
 11
641.999881706
 21
193.3690020798
  0
LINE
  5
6F7
100
AcDbEntity
  8
BEZUGSACHSEN
100
AcDbLine
 62
7
  6
CONTINUOUS
 10
641.999881706
 20
193.3690020798
 11
641.9869247094
 21
193.3532582402
  0
LINE
  5
6F8
100
AcDbEntity
  8
BEZUGSACHSEN
100
AcDbLine
 62
7
  6
CONTINUOUS
 10
641.9869247094
 20
193.3532582402
 11
641.9217697582
 21
193.2740475848
  0
LINE
  5
6F9
100
AcDbEntity
  8
BEZUGSACHSEN
100
AcDbLine
 62
7
  6
CONTINUOUS
 10
641.9217697582
 20
193.2740475848
 11
641.8017487958
 21
193.1279503738
  0
LINE
  5
6FA
100
AcDbEntity
  8
BEZUGSACHSEN
100
AcDbLine
 62
7
  6
CONTINUOUS
 10
641.8017487958
 20
193.1279503738
 11
641.730889653
 21
193.0415827089
  0
LINE
  5
6FB
100
AcDbEntity
  8
BEZUGSACHSEN
100
AcDbLine
 62
7
  6
CONTINUOUS
 10
641.730889653
 20
193.0415827089
 11
641.6824071592
 21
192.9824401865
  0
LINE
  5
6FC
100
AcDbEntity
  8
BEZUGSACHSEN
100
AcDbLine
 62
7
  6
CONTINUOUS
 10
641.6824071592
 20
192.9824401865
 11
641.5624692357
 21
192.8424184223
  0
LINE
  5
6FD
100
AcDbEntity
  8
BEZUGSACHSEN
100
AcDbLine
 62
7
  6
CONTINUOUS
 10
641.5624692357
 20
192.8424184223
 11
641.4375301781
 21
192.6965359471
  0
LINE
  5
6FE
100
AcDbEntity
  8
BEZUGSACHSEN
100
AcDbLine
 62
7
  6
CONTINUOUS
 10
641.4375301781
 20
192.6965359471
 11
641.323372997
 21
192.5632227475
  0
LINE
  5
6FF
100
AcDbEntity
  8
BEZUGSACHSEN
100
AcDbLine
 62
7
  6
CONTINUOUS
 10
641.323372997
 20
192.5632227475
 11
641.2288626156
 21
192.4528385897
  0
LINE
  5
700
100
AcDbEntity
  8
BEZUGSACHSEN
100
AcDbLine
 62
7
  6
CONTINUOUS
 10
641.2288626156
 20
192.4528385897
 11
641.2042147732
 21
192.4240487596
  0
LINE
  5
701
100
AcDbEntity
  8
BEZUGSACHSEN
100
AcDbLine
 62
7
  6
CONTINUOUS
 10
641.2042147732
 20
192.4240487596
 11
641.0058676565
 21
192.1959935208
  0
LINE
  5
702
100
AcDbEntity
  8
BEZUGSACHSEN
100
AcDbLine
 62
7
  6
CONTINUOUS
 10
641.0058676565
 20
192.1959935208
 11
640.9654075832
 21
192.1494730833
  0
LINE
  5
703
100
AcDbEntity
  8
BEZUGSACHSEN
100
AcDbLine
 62
7
  6
CONTINUOUS
 10
640.4882823586
 20
191.6095961694
 11
640.7264449883
 21
191.879096461
  0
LINE
  5
704
100
AcDbEntity
  8
BEZUGSACHSEN
100
AcDbLine
 62
7
  6
CONTINUOUS
 10
640.7264449883
 20
191.879096461
 11
640.8458263012
 21
192.0141752214
  0
LINE
  5
705
100
AcDbEntity
  8
BEZUGSACHSEN
100
AcDbLine
 62
7
  6
CONTINUOUS
 10
640.8458263012
 20
192.0141752214
 11
640.9654075832
 21
192.1494730833
  0
LINE
  5
706
100
AcDbEntity
  8
BEZUGSACHSEN
100
AcDbLine
 62
7
  6
CONTINUOUS
 10
640.1313933278
 20
191.216155047
 11
640.3093299039
 21
191.4124024856
  0
LINE
  5
707
100
AcDbEntity
  8
BEZUGSACHSEN
100
AcDbLine
 62
7
  6
CONTINUOUS
 10
640.3093299039
 20
191.4124024856
 11
640.4882823586
 21
191.6095961694
  0
LINE
  5
708
100
AcDbEntity
  8
BEZUGSACHSEN
100
AcDbLine
 62
7
  6
CONTINUOUS
 10
637.5686915364
 20
188.4087540421
 11
637.6170314639
 21
188.4630366076
  0
LINE
  5
709
100
AcDbEntity
  8
BEZUGSACHSEN
100
AcDbLine
 62
7
  6
CONTINUOUS
 10
637.6170314639
 20
188.4630366076
 11
637.8708345998
 21
188.7471097059
  0
LINE
  5
70A
100
AcDbEntity
  8
BEZUGSACHSEN
100
AcDbLine
 62
7
  6
CONTINUOUS
 10
637.8708345998
 20
188.7471097059
 11
637.9977230996
 21
188.888557192
  0
LINE
  5
70B
100
AcDbEntity
  8
BEZUGSACHSEN
100
AcDbLine
 62
7
  6
CONTINUOUS
 10
637.9977230996
 20
188.888557192
 11
638.175579831
 21
189.0861937668
  0
LINE
  5
70C
100
AcDbEntity
  8
BEZUGSACHSEN
100
AcDbLine
 62
7
  6
CONTINUOUS
 10
638.175579831
 20
189.0861937668
 11
638.3757895328
 21
189.3078148662
  0
LINE
  5
70D
100
AcDbEntity
  8
BEZUGSACHSEN
100
AcDbLine
 62
7
  6
CONTINUOUS
 10
638.3757895328
 20
189.3078148662
 11
638.5750946068
 21
189.527561131
  0
LINE
  5
70E
100
AcDbEntity
  8
BEZUGSACHSEN
100
AcDbLine
 62
7
  6
CONTINUOUS
 10
638.5750946068
 20
189.527561131
 11
638.8049445423
 21
189.7799363395
  0
LINE
  5
70F
100
AcDbEntity
  8
BEZUGSACHSEN
100
AcDbLine
 62
7
  6
CONTINUOUS
 10
638.8049445423
 20
189.7799363395
 11
638.9966005065
 21
189.9895417186
  0
LINE
  5
710
100
AcDbEntity
  8
BEZUGSACHSEN
100
AcDbLine
 62
7
  6
CONTINUOUS
 10
639.4227045705
 20
190.4529421467
 11
639.4568608182
 21
190.4899367359
  0
LINE
  5
711
100
AcDbEntity
  8
BEZUGSACHSEN
100
AcDbLine
 62
7
  6
CONTINUOUS
 10
640.0899882522
 20
191.1718094538
 11
640.1313933278
 21
191.216155047
  0
SPLINE
  5
712
100
AcDbEntity
  8
BEZUGSACHSEN
100
AcDbSpline
 62
7
  6
CONTINUOUS
 70
0
 71
3
 72
8
 73
4
 74
0
 42
0.0000001
 43
0.0000001
 44
0.0000000001
 40
0.0
 40
0.0
 40
0.0
 40
0.0
 40
1.0
 40
1.0
 40
1.0
 40
1.0
 10
637.5686915364
 20
188.4087540421
 30
0.0
 10
637.5477750021
 20
188.3729106377
 30
0.0
 10
637.5313461834
 20
188.3340275158
 30
0.0
 10
637.52042842
 20
188.2939893654
 30
0.0
  0
SPLINE
  5
713
100
AcDbEntity
  8
BEZUGSACHSEN
100
AcDbSpline
 62
7
  6
CONTINUOUS
 70
0
 71
3
 72
8
 73
4
 74
0
 42
0.0000001
 43
0.0000001
 44
0.0000000001
 40
0.0
 40
0.0
 40
0.0
 40
0.0
 40
1.0
 40
1.0
 40
1.0
 40
1.0
 10
637.52042842
 20
188.2939893654
 30
0.0
 10
637.5111649869
 20
188.2600180555
 30
0.0
 10
637.5057061582
 20
188.2248338314
 30
0.0
 10
637.5037767698
 20
188.1896750693
 30
0.0
  0
LINE
  5
714
100
AcDbEntity
  8
BEZUGSACHSEN
100
AcDbLine
 62
7
  6
CONTINUOUS
 10
637.503019099
 20
188.1680178079
 11
637.4079417297
 21
188.0586728014
  0
LINE
  5
715
100
AcDbEntity
  8
BEZUGSACHSEN
100
AcDbLine
 62
7
  6
CONTINUOUS
 10
637.4079417297
 20
188.0586728014
 11
637.3129458188
 21
187.9494206346
  0
LINE
  5
716
100
AcDbEntity
  8
BEZUGSACHSEN
100
AcDbLine
 62
7
  6
CONTINUOUS
 10
637.3129458188
 20
187.9494206346
 11
637.2180313692
 21
187.8402613049
  0
LINE
  5
717
100
AcDbEntity
  8
BEZUGSACHSEN
100
AcDbLine
 62
7
  6
CONTINUOUS
 10
637.2180313692
 20
187.8402613049
 11
637.1615368486
 21
187.7752876091
  0
LINE
  5
718
100
AcDbEntity
  8
BEZUGSACHSEN
100
AcDbLine
 62
7
  6
CONTINUOUS
 10
637.1615368486
 20
187.7752876091
 11
637.1231983839
 21
187.7311948096
  0
SPLINE
  5
719
100
AcDbEntity
  8
0
100
AcDbSpline
 62
7
  6
CONTINUOUS
 70
0
 71
3
 72
11
 73
7
 74
0
 42
0.0000001
 43
0.0000001
 44
0.0000000001
 40
0.0
 40
0.0
 40
0.0
 40
0.0
 40
0.2540845274
 40
0.5000000008
 40
0.7459154741
 40
1.0
 40
1.0
 40
1.0
 40
1.0
 10
648.4672942606
 20
193.1590465636
 30
0.0
 10
648.4490651661
 20
194.20339069
 30
0.0
 10
648.5647701741
 20
196.2670902884
 30
0.0
 10
649.3151147109
 20
199.2614365239
 30
0.0
 10
650.6650460963
 20
202.0375509899
 30
0.0
 10
651.9029314582
 20
203.6928103306
 30
0.0
 10
652.5881872152
 20
204.4811069043
 30
0.0
  0
SPLINE
  5
71A
100
AcDbEntity
  8
0
100
AcDbSpline
 62
7
  6
CONTINUOUS
 70
0
 71
3
 72
11
 73
7
 74
0
 42
0.0000001
 43
0.0000001
 44
0.0000000001
 40
0.0
 40
0.0
 40
0.0
 40
0.0
 40
0.2502389943
 40
0.5000000009
 40
0.7497610074
 40
1.0
 40
1.0
 40
1.0
 40
1.0
 10
637.6786564416
 20
163.5175077691
 30
0.0
 10
638.2122174643
 20
166.1033943551
 30
0.0
 10
639.4462760847
 20
171.2378253455
 30
0.0
 10
641.8625912426
 20
178.7788209836
 30
0.0
 10
644.8588449877
 20
186.1087362197
 30
0.0
 10
647.2138498685
 20
190.835176116
 30
0.0
 10
648.4672942606
 20
193.1590465636
 30
0.0
  0
SPLINE
  5
71B
100
AcDbEntity
  8
0
100
AcDbSpline
 62
7
  6
CONTINUOUS
 70
0
 71
3
 72
9
 73
5
 74
0
 42
0.0000001
 43
0.0000001
 44
0.0000000001
 40
0.0
 40
0.0
 40
0.0
 40
0.0
 40
0.4999929088
 40
1.0
 40
1.0
 40
1.0
 40
1.0
 10
625.4431765661
 20
131.3047600106
 30
0.0
 10
626.9020716129
 20
136.8679375129
 30
0.0
 10
630.3902670343
 20
147.8564743224
 30
0.0
 10
635.08860656
 20
158.3822534608
 30
0.0
 10
637.6786564416
 20
163.5175077691
 30
0.0
  0
LINE
  5
71C
100
AcDbEntity
  8
0
100
AcDbLine
 62
7
  6
CONTINUOUS
 10
632.4827368921
 20
166.8291235947
 11
632.9595778839
 21
167.3098132627
  0
LINE
  5
71D
100
AcDbEntity
  8
BEZUGSACHSEN
100
AcDbLine
 62
7
  6
CONTINUOUS
 10
632.3214682582
 20
167.5420661727
 11
631.8464663191
 21
167.0607071442
  0
SPLINE
  5
71E
100
AcDbEntity
  8
0
100
AcDbSpline
 62
7
  6
CONTINUOUS
 70
0
 71
3
 72
9
 73
5
 74
0
 42
0.0000001
 43
0.0000001
 44
0.0000000001
 40
0.0
 40
0.0
 40
0.0
 40
0.0
 40
0.4865652039
 40
1.0
 40
1.0
 40
1.0
 40
1.0
 10
633.4000653384
 20
176.9085005296
 30
0.0
 10
633.5540988548
 20
177.3311852403
 30
0.0
 10
634.0054299978
 20
178.1559625652
 30
0.0
 10
634.6724890441
 20
178.8143206576
 30
0.0
 10
635.0477332167
 20
179.1050967278
 30
0.0
  0
SPLINE
  5
71F
100
AcDbEntity
  8
BEZUGSACHSEN
100
AcDbSpline
 62
7
  6
CONTINUOUS
 70
0
 71
3
 72
9
 73
5
 74
0
 42
0.0000001
 43
0.0000001
 44
0.0000000001
 40
0.0
 40
0.0
 40
0.0
 40
0.0
 40
0.2549848856
 40
1.0
 40
1.0
 40
1.0
 40
1.0
 10
632.3286818137
 20
174.5583687958
 30
0.0
 10
632.2326562926
 20
174.4762488429
 30
0.0
 10
631.8650873654
 20
174.143851794
 30
0.0
 10
631.535305149
 20
173.7691615659
 30
0.0
 10
631.3185886537
 20
173.4702930483
 30
0.0
  0
SPLINE
  5
720
100
AcDbEntity
  8
0
100
AcDbSpline
 62
7
  6
CONTINUOUS
 70
0
 71
3
 72
9
 73
5
 74
0
 42
0.0000001
 43
0.0000001
 44
0.0000000001
 40
0.0
 40
0.0
 40
0.0
 40
0.0
 40
0.2448942802
 40
1.0
 40
1.0
 40
1.0
 40
1.0
 10
631.9325446149
 20
172.7630543585
 30
0.0
 10
632.0207165561
 20
172.9378730986
 30
0.0
 10
632.4178957619
 20
173.6327974977
 30
0.0
 10
632.9611695456
 20
174.2407740492
 30
0.0
 10
633.4200502997
 20
174.6330750386
 30
0.0
  0
LINE
  5
721
100
AcDbEntity
  8
0
100
AcDbLine
 62
7
  6
CONTINUOUS
 10
633.4200502997
 20
174.6330750386
 11
637.7175433694
 21
178.3069665695
  0
LINE
  5
722
100
AcDbEntity
  8
BEZUGSACHSEN
100
AcDbLine
 62
7
  6
CONTINUOUS
 10
637.0124662187
 20
178.5635936652
 11
633.097940977
 21
175.2162214564
  0
LINE
  5
723
100
AcDbEntity
  8
BEZUGSACHSEN
100
AcDbLine
 62
7
  6
CONTINUOUS
 10
633.097940977
 20
175.2162214564
 11
632.3286818137
 21
174.5583687958
  0
SPLINE
  5
724
100
AcDbEntity
  8
0
100
AcDbSpline
 62
7
  6
CONTINUOUS
 70
0
 71
3
 72
9
 73
5
 74
0
 42
0.0000001
 43
0.0000001
 44
0.0000000001
 40
0.0
 40
0.0
 40
0.0
 40
0.0
 40
0.2453766592
 40
1.0
 40
1.0
 40
1.0
 40
1.0
 10
630.7194426297
 20
169.5435625805
 30
0.0
 10
630.7616553616
 20
169.6594330614
 30
0.0
 10
630.9596326011
 20
170.1220927063
 30
0.0
 10
631.2629352442
 20
170.5371671939
 30
0.0
 10
631.5282056837
 20
170.8082132847
 30
0.0
  0
LINE
  5
725
100
AcDbEntity
  8
BEZUGSACHSEN
100
AcDbLine
 62
7
  6
CONTINUOUS
 10
635.1810454274
 20
181.5816335178
 11
634.6707196304
 21
180.9930648127
  0
SPLINE
  5
726
100
AcDbEntity
  8
BEZUGSACHSEN
100
AcDbSpline
 62
7
  6
CONTINUOUS
 70
0
 71
3
 72
9
 73
5
 74
0
 42
0.0000001
 43
0.0000001
 44
0.0000000001
 40
0.0
 40
0.0
 40
0.0
 40
0.0
 40
0.2551095016
 40
1.0
 40
1.0
 40
1.0
 40
1.0
 10
633.9918343259
 20
179.1278427681
 30
0.0
 10
633.9290891134
 20
179.0793275525
 30
0.0
 10
633.6869901398
 20
178.8842428698
 30
0.0
 10
633.4608256103
 20
178.6692007877
 30
0.0
 10
633.3042103557
 20
178.4986007552
 30
0.0
  0
SPLINE
  5
727
100
AcDbEntity
  8
BEZUGSACHSEN
100
AcDbSpline
 62
7
  6
CONTINUOUS
 70
0
 71
3
 72
9
 73
5
 74
0
 42
0.0000001
 43
0.0000001
 44
0.0000000001
 40
0.0
 40
0.0
 40
0.0
 40
0.0
 40
0.2535725655
 40
1.0
 40
1.0
 40
1.0
 40
1.0
 10
633.0129880058
 20
178.1510793966
 30
0.0
 10
632.9448346889
 20
178.0616961222
 30
0.0
 10
632.6883478479
 20
177.7000196411
 30
0.0
 10
632.4839138045
 20
177.3012763933
 30
0.0
 10
632.3666419907
 20
176.9918841246
 30
0.0
  0
LINE
  5
728
100
AcDbEntity
  8
0
100
AcDbLine
 62
7
  6
CONTINUOUS
 10
638.9538035983
 20
187.4314195316
 11
639.5374316014
 21
188.079916356
  0
SPLINE
  5
729
100
AcDbEntity
  8
KONSTRUKTIONSELEMENTE
100
AcDbSpline
 62
7
  6
CONTINUOUS
 70
0
 71
3
 72
15
 73
11
 74
0
 42
0.0000001
 43
0.0000001
 44
0.0000000001
 40
0.0
 40
0.0
 40
0.0
 40
0.0
 40
0.1067291449
 40
0.215176069
 40
0.3273335145
 40
0.4454067917
 40
0.5711381846
 40
0.7055038858
 40
0.8486503896
 40
1.0
 40
1.0
 40
1.0
 40
1.0
 10
76.2140485924
 20
189.6207341023
 30
0.0
 10
76.2140485924
 20
190.8033879199
 30
0.0
 10
76.5283249737
 20
193.1982801783
 30
0.0
 10
77.8852891839
 20
196.5964906035
 30
0.0
 10
80.0169418183
 20
199.7164364741
 30
0.0
 10
82.8131263619
 20
202.5239825146
 30
0.0
 10
86.1955782594
 20
205.0199286563
 30
0.0
 10
90.1042743708
 20
207.2054275062
 30
0.0
 10
94.4818986931
 20
209.0736462486
 30
0.0
 10
97.5931903372
 20
210.0737547731
 30
0.0
 10
99.2091368675
 20
210.5224660404
 30
0.0
  0
SPLINE
  5
72A
100
AcDbEntity
  8
KONSTRUKTIONSELEMENTE
100
AcDbSpline
 62
7
  6
CONTINUOUS
 70
0
 71
3
 72
15
 73
11
 74
0
 42
0.0000001
 43
0.0000001
 44
0.0000000001
 40
0.0
 40
0.0
 40
0.0
 40
0.0
 40
0.1513526559
 40
0.2945015926
 40
0.4288688672
 40
0.5546003212
 40
0.672672358
 40
0.7848281021
 40
0.8932718145
 40
1.0
 40
1.0
 40
1.0
 40
1.0
 10
139.2151213693
 20
210.5235319378
 30
0.0
 10
140.8313242799
 20
210.0748685207
 30
0.0
 10
143.9431064557
 20
209.0748083741
 30
0.0
 10
148.3214415083
 20
207.2066075705
 30
0.0
 10
152.2307781204
 20
205.0210626946
 30
0.0
 10
155.6137809672
 20
202.5250110038
 30
0.0
 10
158.4104496838
 20
199.7173208741
 30
0.0
 10
160.5424602972
 20
196.5971542799
 30
0.0
 10
161.8997188975
 20
193.198656426
 30
0.0
 10
162.2140485924
 20
190.8035186653
 30
0.0
 10
162.2140485924
 20
189.6207341023
 30
0.0
  0
SPLINE
  5
72B
100
AcDbEntity
  8
KONSTRUKTIONSELEMENTE
100
AcDbSpline
 62
7
  6
CONTINUOUS
 70
0
 71
3
 72
9
 73
5
 74
0
 42
0.0000001
 43
0.0000001
 44
0.0000000001
 40
0.0
 40
0.0
 40
0.0
 40
0.0
 40
0.2503309148
 40
1.0
 40
1.0
 40
1.0
 40
1.0
 10
162.2140485924
 20
189.6207341023
 30
0.0
 10
162.2140485924
 20
189.3437357713
 30
0.0
 10
162.1808164534
 20
188.2374043903
 30
0.0
 10
162.0131216862
 20
187.1355301245
 30
0.0
 10
161.8173542625
 20
186.3294310748
 30
0.0
  0
SPLINE
  5
72C
100
AcDbEntity
  8
KONSTRUKTIONSELEMENTE
100
AcDbSpline
 62
7
  6
CONTINUOUS
 70
0
 71
3
 72
11
 73
7
 74
0
 42
0.0000001
 43
0.0000001
 44
0.0000000001
 40
0.0
 40
0.0
 40
0.0
 40
0.0
 40
0.1981311082
 40
0.4331593747
 40
0.7019479187
 40
1.0
 40
1.0
 40
1.0
 40
1.0
 10
86.3199721548
 20
194.5993432915
 30
0.0
 10
86.9616788849
 20
195.3636478736
 30
0.0
 10
88.5545687836
 20
196.8765728953
 30
0.0
 10
91.4850477666
 20
198.873994654
 30
0.0
 10
95.0984244987
 20
200.7000798429
 30
0.0
 10
97.776668003
 20
201.7052692634
 30
0.0
 10
99.204502093
 20
202.1690510238
 30
0.0
  0
SPLINE
  5
72D
100
AcDbEntity
  8
KONSTRUKTIONSELEMENTE
100
AcDbSpline
 62
7
  6
CONTINUOUS
 70
0
 71
3
 72
11
 73
7
 74
0
 42
0.0000001
 43
0.0000001
 44
0.0000000001
 40
0.0
 40
0.0
 40
0.0
 40
0.0
 40
0.2980488417
 40
0.5668360996
 40
0.80186544
 40
1.0
 40
1.0
 40
1.0
 40
1.0
 10
139.2241603741
 20
202.168863778
 30
0.0
 10
140.6518878885
 20
201.7050985515
 30
0.0
 10
143.3299386429
 20
200.6999510847
 30
0.0
 10
146.9430757498
 20
198.8739719913
 30
0.0
 10
149.8733980194
 20
196.8766709349
 30
0.0
 10
151.4662229184
 20
195.3638378409
 30
0.0
 10
152.1079150534
 20
194.599576557
 30
0.0
  0
SPLINE
  5
72E
100
AcDbEntity
  8
KONSTRUKTIONSELEMENTE
100
AcDbSpline
 62
7
  6
CONTINUOUS
 70
0
 71
3
 72
9
 73
5
 74
0
 42
0.0000001
 43
0.0000001
 44
0.0000000001
 40
0.0
 40
0.0
 40
0.0
 40
0.0
 40
0.2456349696
 40
1.0
 40
1.0
 40
1.0
 40
1.0
 10
110.1140485924
 20
47.4556705929
 30
0.0
 10
110.1140485924
 20
47.5234617477
 30
0.0
 10
110.1000075609
 20
47.7993827397
 30
0.0
 10
110.0283534988
 20
48.0714231002
 30
0.0
 10
109.9490087519
 20
48.2639026822
 30
0.0
  0
SPLINE
  5
72F
100
AcDbEntity
  8
KONSTRUKTIONSELEMENTE
100
AcDbSpline
 62
7
  6
CONTINUOUS
 70
0
 71
3
 72
10
 73
6
 74
0
 42
0.0000001
 43
0.0000001
 44
0.0000000001
 40
0.0
 40
0.0
 40
0.0
 40
0.0
 40
0.2148247754
 40
0.5780961939
 40
1.0
 40
1.0
 40
1.0
 40
1.0
 10
109.9490087519
 20
48.2639026822
 30
0.0
 10
109.8726121841
 20
48.449230382
 30
0.0
 10
109.6027009219
 20
48.9224508023
 30
0.0
 10
108.9395648478
 20
49.5946997456
 30
0.0
 10
108.3190816335
 20
49.9932289645
 30
0.0
 10
107.9723282887
 20
50.1796429789
 30
0.0
  0
SPLINE
  5
730
100
AcDbEntity
  8
KONSTRUKTIONSELEMENTE
100
AcDbSpline
 62
7
  6
CONTINUOUS
 70
0
 71
3
 72
12
 73
8
 74
0
 42
0.0000001
 43
0.0000001
 44
0.0000000001
 40
0.0
 40
0.0
 40
0.0
 40
0.0
 40
0.0885485418
 40
0.1830446944
 40
0.344818532
 40
0.5365244746
 40
1.0
 40
1.0
 40
1.0
 40
1.0
 10
63.8351837557
 20
100.1816319053
 30
0.0
 10
63.8351437091
 20
100.2598501419
 30
0.0
 10
63.8612240737
 20
100.4225041216
 30
0.0
 10
63.9968444521
 20
100.6991213709
 30
0.0
 10
64.2753966261
 20
100.9899260555
 30
0.0
 10
64.8925290349
 20
101.3721425262
 30
0.0
 10
65.4614997584
 20
101.5324770498
 30
0.0
 10
65.8650506316
 20
101.6014654512
 30
0.0
  0
SPLINE
  5
731
100
AcDbEntity
  8
KONSTRUKTIONSELEMENTE
100
AcDbSpline
 62
7
  6
CONTINUOUS
 70
0
 71
3
 72
13
 73
9
 74
0
 42
0.0000001
 43
0.0000001
 44
0.0000000001
 40
0.0
 40
0.0
 40
0.0
 40
0.0
 40
0.089311718
 40
0.1843161355
 40
0.2893266183
 40
0.4068055122
 40
0.6806123779
 40
1.0
 40
1.0
 40
1.0
 40
1.0
 10
54.3147891503
 20
116.253365097
 30
0.0
 10
54.3148395774
 20
116.5062128567
 30
0.0
 10
54.3968266258
 20
117.0308720282
 30
0.0
 10
54.7517919057
 20
117.7790592156
 30
0.0
 10
55.3219764203
 20
118.4828069643
 30
0.0
 10
56.4021132297
 20
119.3914882919
 30
0.0
 10
58.2201076402
 20
120.3079899448
 30
0.0
 10
59.848549831
 20
120.7515591866
 30
0.0
 10
60.7365941989
 20
120.921767458
 30
0.0
  0
SPLINE
  5
732
100
AcDbEntity
  8
KONSTRUKTIONSELEMENTE
100
AcDbSpline
 62
7
  6
CONTINUOUS
 70
0
 71
3
 72
9
 73
5
 74
0
 42
0.0000001
 43
0.0000001
 44
0.0000000001
 40
0.0
 40
0.0
 40
0.0
 40
0.0
 40
0.4834558984
 40
1.0
 40
1.0
 40
1.0
 40
1.0
 10
54.3147891503
 20
111.9232380781
 30
0.0
 10
54.3147364861
 20
111.6591727842
 30
0.0
 10
54.4042239545
 20
111.1100428908
 30
0.0
 10
54.6504832201
 20
110.6142003921
 30
0.0
 10
54.8042185361
 20
110.3776260665
 30
0.0
  0
SPLINE
  5
733
100
AcDbEntity
  8
KONSTRUKTIONSELEMENTE
100
AcDbSpline
 62
7
  6
CONTINUOUS
 70
0
 71
3
 72
13
 73
9
 74
0
 42
0.0000001
 43
0.0000001
 44
0.0000000001
 40
0.0
 40
0.0
 40
0.0
 40
0.0
 40
0.0822829264
 40
0.1731425714
 40
0.2778852515
 40
0.3984458421
 40
0.6815990786
 40
1.0
 40
1.0
 40
1.0
 40
1.0
 10
106.1140485924
 20
33.8216959966
 30
0.0
 10
106.1140485924
 20
33.7223059068
 30
0.0
 10
106.1580484946
 20
33.5115818885
 30
0.0
 10
106.3412641108
 20
33.2240824706
 30
0.0
 10
106.6271410179
 20
32.9657865364
 30
0.0
 10
107.1580368725
 20
32.6511619303
 30
0.0
 10
108.0014671791
 20
32.3901427489
 30
0.0
 10
108.7294500182
 20
32.3216959966
 30
0.0
 10
109.1140485924
 20
32.3216959966
 30
0.0
  0
SPLINE
  5
734
100
AcDbEntity
  8
KONSTRUKTIONSELEMENTE
100
AcDbSpline
 62
7
  6
CONTINUOUS
 70
0
 71
3
 72
10
 73
6
 74
0
 42
0.0000001
 43
0.0000001
 44
0.0000000001
 40
0.0
 40
0.0
 40
0.0
 40
0.0
 40
0.1814349565
 40
0.5339084433
 40
1.0
 40
1.0
 40
1.0
 40
1.0
 10
171.222229972
 20
60.1060531542
 30
0.0
 10
171.2222237635
 20
60.1600754848
 30
0.0
 10
171.1638414885
 20
60.3190694762
 30
0.0
 10
170.9041324718
 20
60.4938186958
 30
0.0
 10
170.6682301032
 20
60.5592967836
 30
0.0
 10
170.5312470927
 20
60.5815510227
 30
0.0
  0
SPLINE
  5
735
100
AcDbEntity
  8
KONSTRUKTIONSELEMENTE
100
AcDbSpline
 62
7
  6
CONTINUOUS
 70
0
 71
3
 72
13
 73
9
 74
0
 42
0.0000001
 43
0.0000001
 44
0.0000000001
 40
0.0
 40
0.0
 40
0.0
 40
0.0
 40
0.0880988711
 40
0.1822591313
 40
0.2869883242
 40
0.4047236074
 40
0.679926403
 40
1.0
 40
1.0
 40
1.0
 40
1.0
 10
205.0365485934
 20
112.8533819547
 30
0.0
 10
205.0365599316
 20
113.1173264552
 30
0.0
 10
204.9470354788
 20
113.6665976261
 30
0.0
 10
204.560040245
 20
114.4456766773
 30
0.0
 10
203.9408955636
 20
115.1742402097
 30
0.0
 10
202.7702299554
 20
116.1088478634
 30
0.0
 10
200.8146892681
 20
117.0303059055
 30
0.0
 10
199.0732586578
 20
117.4551602768
 30
0.0
 10
198.1267267879
 20
117.6089337006
 30
0.0
  0
SPLINE
  5
736
100
AcDbEntity
  8
BEZUGSACHSEN
100
AcDbSpline
 62
7
  6
CONTINUOUS
 70
0
 71
3
 72
9
 73
5
 74
0
 42
0.0000001
 43
0.0000001
 44
0.0000000001
 40
0.0
 40
0.0
 40
0.0
 40
0.0
 40
0.24353244
 40
1.0
 40
1.0
 40
1.0
 40
1.0
 10
115.0586357455
 20
122.2571893324
 30
0.0
 10
115.0928183264
 20
122.2769080897
 30
0.0
 10
115.2341832082
 20
122.3561322624
 30
0.0
 10
115.3793638658
 20
122.4284946781
 30
0.0
 10
115.490735145
 20
122.4797009801
 30
0.0
  0
SPLINE
  5
737
100
AcDbEntity
  8
BEZUGSACHSEN
100
AcDbSpline
 62
7
  6
CONTINUOUS
 70
0
 71
3
 72
9
 73
5
 74
0
 42
0.0000001
 43
0.0000001
 44
0.0000000001
 40
0.0
 40
0.0
 40
0.0
 40
0.0
 40
0.2564745777
 40
1.0
 40
1.0
 40
1.0
 40
1.0
 10
122.9373620398
 20
122.4797009801
 30
0.0
 10
122.9751213816
 20
122.4623399847
 30
0.0
 10
123.1216166043
 20
122.3930819569
 30
0.0
 10
123.2650997632
 20
122.317392
 30
0.0
 10
123.3694614393
 20
122.2571893324
 30
0.0
  0
SPLINE
  5
738
100
AcDbEntity
  8
KONSTRUKTIONSELEMENTE
100
AcDbSpline
 62
7
  6
CONTINUOUS
 70
0
 71
3
 72
9
 73
5
 74
0
 42
0.0000001
 43
0.0000001
 44
0.0000000001
 40
0.0
 40
0.0
 40
0.0
 40
0.0
 40
0.5166451603
 40
1.0
 40
1.0
 40
1.0
 40
1.0
 10
204.5471220071
 20
106.9784391284
 30
0.0
 10
204.7008147826
 20
107.2149479909
 30
0.0
 10
204.9470466624
 20
107.7105121229
 30
0.0
 10
205.0365372578
 20
108.2593695181
 30
0.0
 10
205.0365485934
 20
108.5232549358
 30
0.0
  0
SPLINE
  5
739
100
AcDbEntity
  8
KONSTRUKTIONSELEMENTE
100
AcDbSpline
 62
7
  6
CONTINUOUS
 70
0
 71
3
 72
10
 73
6
 74
0
 42
0.0000001
 43
0.0000001
 44
0.0000000001
 40
0.0
 40
0.0
 40
0.0
 40
0.0
 40
0.5662414861
 40
0.8104764579
 40
1.0
 40
1.0
 40
1.0
 40
1.0
 10
202.6690145077
 20
105.7063628511
 30
0.0
 10
202.9202532759
 20
105.665546639
 30
0.0
 10
203.2984055224
 20
105.676917675
 30
0.0
 10
203.7229606199
 20
105.8298546008
 30
0.0
 10
203.8826667732
 20
105.955947661
 30
0.0
 10
203.9290880184
 20
106.0273826121
 30
0.0
  0
SPLINE
  5
73A
100
AcDbEntity
  8
KONSTRUKTIONSELEMENTE
100
AcDbSpline
 62
7
  6
CONTINUOUS
 70
0
 71
3
 72
9
 73
5
 74
0
 42
0.0000001
 43
0.0000001
 44
0.0000000001
 40
0.0
 40
0.0
 40
0.0
 40
0.0
 40
0.2654145495
 40
1.0
 40
1.0
 40
1.0
 40
1.0
 10
171.1732866146
 20
55.6213872484
 30
0.0
 10
171.1811616935
 20
55.6335057488
 30
0.0
 10
171.208160465
 20
55.6807783168
 30
0.0
 10
171.2222345691
 20
55.7359260664
 30
0.0
 10
171.222229972
 20
55.7759261353
 30
0.0
  0
SPLINE
  5
73B
100
AcDbEntity
  8
KONSTRUKTIONSELEMENTE
100
AcDbSpline
 62
7
  6
CONTINUOUS
 70
0
 71
3
 72
11
 73
7
 74
0
 42
0.0000001
 43
0.0000001
 44
0.0000000001
 40
0.0
 40
0.0
 40
0.0
 40
0.0
 40
0.2963614627
 40
0.5643146225
 40
0.7989101085
 40
1.0
 40
1.0
 40
1.0
 40
1.0
 10
165.2682006407
 20
51.8879476804
 30
0.0
 10
165.8813239587
 20
52.0244554521
 30
0.0
 10
167.0357655362
 20
52.350903331
 30
0.0
 10
168.5920987099
 20
53.0350824038
 30
0.0
 10
169.8406365834
 20
53.8660554263
 30
0.0
 10
170.47914143
 20
54.5532076449
 30
0.0
 10
170.7113797169
 20
54.910585621
 30
0.0
  0
SPLINE
  5
73C
100
AcDbEntity
  8
KONSTRUKTIONSELEMENTE
100
AcDbSpline
 62
7
  6
CONTINUOUS
 70
0
 71
3
 72
11
 73
7
 74
0
 42
0.0000001
 43
0.0000001
 44
0.0000000001
 40
0.0
 40
0.0
 40
0.0
 40
0.0
 40
0.3000908666
 40
0.562004797
 40
0.7909705068
 40
1.0
 40
1.0
 40
1.0
 40
1.0
 10
130.4557688961
 20
50.1796429789
 30
0.0
 10
130.1364092258
 20
50.0079557578
 30
0.0
 10
129.5597184077
 20
49.6421323385
 30
0.0
 10
128.8633231927
 20
48.9758917622
 30
0.0
 10
128.4195188506
 20
48.2412910596
 30
0.0
 10
128.3140485924
 20
47.7082298741
 30
0.0
 10
128.3140485924
 20
47.4556705929
 30
0.0
  0
SPLINE
  5
73D
100
AcDbEntity
  8
KONSTRUKTIONSELEMENTE
100
AcDbSpline
 62
7
  6
CONTINUOUS
 70
0
 71
3
 72
13
 73
9
 74
0
 42
0.0000001
 43
0.0000001
 44
0.0000000001
 40
0.0
 40
0.0
 40
0.0
 40
0.0
 40
0.3184009214
 40
0.6015541579
 40
0.7221147485
 40
0.8268574286
 40
0.9177170736
 40
1.0
 40
1.0
 40
1.0
 40
1.0
 10
129.3140485924
 20
32.3216959966
 30
0.0
 10
129.6986471666
 20
32.3216959966
 30
0.0
 10
130.4266300056
 20
32.3901427489
 30
0.0
 10
131.2700603123
 20
32.6511619303
 30
0.0
 10
131.8009561668
 20
32.9657865364
 30
0.0
 10
132.086833074
 20
33.2240824706
 30
0.0
 10
132.2700486902
 20
33.5115818885
 30
0.0
 10
132.3140485924
 20
33.7223059068
 30
0.0
 10
132.3140485924
 20
33.8216959966
 30
0.0
  0
SPLINE
  5
73E
100
AcDbEntity
  8
KONSTRUKTIONSELEMENTE
100
AcDbSpline
 62
7
  6
CONTINUOUS
 70
0
 71
3
 72
9
 73
5
 74
0
 42
0.0000001
 43
0.0000001
 44
0.0000000001
 40
0.0
 40
0.0
 40
0.0
 40
0.0
 40
0.2651473847
 40
1.0
 40
1.0
 40
1.0
 40
1.0
 10
63.9820232691
 20
97.1204622033
 30
0.0
 10
63.9584468831
 20
97.1567425308
 30
0.0
 10
63.8775896696
 20
97.2984350486
 30
0.0
 10
63.8352451512
 20
97.4636393705
 30
0.0
 10
63.8351837557
 20
97.5835556939
 30
0.0
  0
SPLINE
  5
73F
100
AcDbEntity
  8
KONSTRUKTIONSELEMENTE
100
AcDbSpline
 62
7
  6
CONTINUOUS
 70
0
 71
3
 72
9
 73
5
 74
0
 42
0.0000001
 43
0.0000001
 44
0.0000000001
 40
0.0
 40
0.0
 40
0.0
 40
0.0
 40
0.2274156271
 40
1.0
 40
1.0
 40
1.0
 40
1.0
 10
56.349303508
 20
107.9999847758
 30
0.0
 10
56.3763330972
 20
107.958390515
 30
0.0
 10
56.507718169
 20
107.7835890059
 30
0.0
 10
56.6803488181
 20
107.6430349987
 30
0.0
 10
56.8214960034
 20
107.5509659847
 30
0.0
  0
SPLINE
  5
740
100
AcDbEntity
  8
KONSTRUKTIONSELEMENTE
100
AcDbSpline
 62
7
  6
CONTINUOUS
 70
0
 71
3
 72
13
 73
9
 74
0
 42
0.0000001
 43
0.0000001
 44
0.0000000001
 40
0.0
 40
0.0
 40
0.0
 40
0.0
 40
0.0880669773
 40
0.1898919744
 40
0.3056214264
 40
0.4335764681
 40
0.7134981913
 40
1.0
 40
1.0
 40
1.0
 40
1.0
 10
179.6066577218
 20
104.1957587106
 30
0.0
 10
179.823370043
 20
104.5292446822
 30
0.0
 10
180.4082351488
 20
105.1729158715
 30
0.0
 10
181.5470512552
 20
105.9656272155
 30
0.0
 10
182.9645614337
 20
106.6324332789
 30
0.0
 10
185.2259673646
 20
107.3421128762
 30
0.0
 10
188.3580614397
 20
107.7568305187
 30
0.0
 10
190.9302801072
 20
107.6134358589
 30
0.0
 10
192.2073928285
 20
107.4059563202
 30
0.0
  0
SPLINE
  5
741
100
AcDbEntity
  8
KONSTRUKTIONSELEMENTE
100
AcDbSpline
 62
7
  6
CONTINUOUS
 70
0
 71
3
 72
13
 73
9
 74
0
 42
0.0000001
 43
0.0000001
 44
0.0000000001
 40
0.0
 40
0.0
 40
0.0
 40
0.0
 40
0.0880988711
 40
0.1822591313
 40
0.2869883242
 40
0.4047236074
 40
0.679926403
 40
1.0
 40
1.0
 40
1.0
 40
1.0
 10
205.0365485934
 20
108.5232549358
 30
0.0
 10
205.0365599316
 20
108.7871994363
 30
0.0
 10
204.9470354788
 20
109.3364706072
 30
0.0
 10
204.560040245
 20
110.1155496584
 30
0.0
 10
203.9408955636
 20
110.8441131908
 30
0.0
 10
202.7702299554
 20
111.7787208445
 30
0.0
 10
200.8146892681
 20
112.7001788866
 30
0.0
 10
199.0732586578
 20
113.1250332579
 30
0.0
 10
198.1267267879
 20
113.2788066817
 30
0.0
  0
SPLINE
  5
742
100
AcDbEntity
  8
KONSTRUKTIONSELEMENTE
100
AcDbSpline
 62
7
  6
CONTINUOUS
 70
0
 71
3
 72
13
 73
9
 74
0
 42
0.0000001
 43
0.0000001
 44
0.0000000001
 40
0.0
 40
0.0
 40
0.0
 40
0.0
 40
0.3200775084
 40
0.5952690262
 40
0.7130106334
 40
0.8177454335
 40
0.9119092499
 40
1.0
 40
1.0
 40
1.0
 40
1.0
 10
61.2246137553
 20
116.6779936199
 30
0.0
 10
60.2781542406
 20
116.5242319508
 30
0.0
 10
58.5368942742
 20
116.09943769
 30
0.0
 10
56.5815198749
 20
115.1781111319
 30
0.0
 10
55.410869062
 20
114.2437089122
 30
0.0
 10
54.7916376658
 20
113.5152570709
 30
0.0
 10
54.4046196806
 20
112.736296462
 30
0.0
 10
54.314841781
 20
112.1871348434
 30
0.0
 10
54.3147891503
 20
111.9232380781
 30
0.0
  0
SPLINE
  5
743
100
AcDbEntity
  8
KONSTRUKTIONSELEMENTE
100
AcDbSpline
 62
7
  6
CONTINUOUS
 70
0
 71
3
 72
12
 73
8
 74
0
 42
0.0000001
 43
0.0000001
 44
0.0000000001
 40
0.0
 40
0.0
 40
0.0
 40
0.0
 40
0.0882011711
 40
0.1824632096
 40
0.3441927035
 40
0.5361481696
 40
1.0
 40
1.0
 40
1.0
 40
1.0
 10
63.8351837557
 20
97.5835556939
 30
0.0
 10
63.8351432118
 20
97.6627451291
 30
0.0
 10
63.8619180323
 20
97.8275598668
 30
0.0
 10
64.001030536
 20
98.1075262658
 30
0.0
 10
64.2863386069
 20
98.4010401619
 30
0.0
 10
64.9169730934
 20
98.7849828684
 30
0.0
 10
65.4970722522
 20
98.9437901674
 30
0.0
 10
65.9081418348
 20
99.0105724693
 30
0.0
  0
SPLINE
  5
744
100
AcDbEntity
  8
KONSTRUKTIONSELEMENTE
100
AcDbSpline
 62
7
  6
CONTINUOUS
 70
0
 71
3
 72
10
 73
6
 74
0
 42
0.0000001
 43
0.0000001
 44
0.0000000001
 40
0.0
 40
0.0
 40
0.0
 40
0.0
 40
0.1814349565
 40
0.5339084433
 40
1.0
 40
1.0
 40
1.0
 40
1.0
 10
171.222229972
 20
55.7759261353
 30
0.0
 10
171.2222237635
 20
55.8299484659
 30
0.0
 10
171.1638414885
 20
55.9889424573
 30
0.0
 10
170.9041324718
 20
56.1636916769
 30
0.0
 10
170.6682301032
 20
56.2291697647
 30
0.0
 10
170.5312470927
 20
56.2514240038
 30
0.0
  0
SPLINE
  5
745
100
AcDbEntity
  8
BEZUGSACHSEN
100
AcDbSpline
 62
7
  6
CONTINUOUS
 70
0
 71
3
 72
15
 73
11
 74
0
 42
0.0000001
 43
0.0000001
 44
0.0000000001
 40
0.0
 40
0.0
 40
0.0
 40
0.0
 40
0.121402058
 40
0.2449244877
 40
0.3714319489
 40
0.5
 40
0.6285680511
 40
0.7550755123
 40
0.878597942
 40
1.0
 40
1.0
 40
1.0
 40
1.0
 10
151.9140485924
 20
78.3294108951
 30
0.0
 10
151.9140485924
 20
77.9618011736
 30
0.0
 10
152.073845943
 20
77.2113835309
 30
0.0
 10
152.7481883774
 20
76.2746645987
 30
0.0
 10
153.7456441104
 20
75.6540407766
 30
0.0
 10
154.9140485924
 20
75.43797189
 30
0.0
 10
156.0824530744
 20
75.6540407766
 30
0.0
 10
157.0799088074
 20
76.2746645987
 30
0.0
 10
157.7542512418
 20
77.2113835309
 30
0.0
 10
157.9140485924
 20
77.9618011736
 30
0.0
 10
157.9140485924
 20
78.3294108951
 30
0.0
  0
SPLINE
  5
746
100
AcDbEntity
  8
BEZUGSACHSEN
100
AcDbSpline
 62
7
  6
CONTINUOUS
 70
0
 71
3
 72
8
 73
4
 74
0
 42
0.0000001
 43
0.0000001
 44
0.0000000001
 40
0.0
 40
0.0
 40
0.0
 40
0.0
 40
1.0
 40
1.0
 40
1.0
 40
1.0
 10
165.3913552184
 20
79.5773670922
 30
0.0
 10
165.5023688334
 20
80.0732065166
 30
0.0
 10
165.6669078394
 20
80.5604953085
 30
0.0
 10
165.8839215735
 20
81.019936052
 30
0.0
  0
SPLINE
  5
747
100
AcDbEntity
  8
BEZUGSACHSEN
100
AcDbSpline
 62
7
  6
CONTINUOUS
 70
0
 71
3
 72
9
 73
5
 74
0
 42
0.0000001
 43
0.0000001
 44
0.0000000001
 40
0.0
 40
0.0
 40
0.0
 40
0.0
 40
0.2475418416
 40
1.0
 40
1.0
 40
1.0
 40
1.0
 10
142.3508405389
 20
154.3645711627
 30
0.0
 10
142.1305572284
 20
154.7267325651
 30
0.0
 10
141.2015976528
 20
156.1657023344
 30
0.0
 10
140.1176543775
 20
157.5040706855
 30
0.0
 10
139.2317457864
 20
158.4397222732
 30
0.0
  0
SPLINE
  5
748
100
AcDbEntity
  8
BEZUGSACHSEN
100
AcDbSpline
 62
7
  6
CONTINUOUS
 70
0
 71
3
 72
9
 73
5
 74
0
 42
0.0000001
 43
0.0000001
 44
0.0000000001
 40
0.0
 40
0.0
 40
0.0
 40
0.0
 40
0.5015950834
 40
1.0
 40
1.0
 40
1.0
 40
1.0
 10
142.6231975897
 20
153.965959965
 30
0.0
 10
143.4634965074
 20
152.3324321036
 30
0.0
 10
144.7650157899
 20
148.868360096
 30
0.0
 10
145.2113026171
 20
145.1936234563
 30
0.0
 10
145.214023171
 20
143.3683233419
 30
0.0
  0
SPLINE
  5
749
100
AcDbEntity
  8
BEZUGSACHSEN
100
AcDbSpline
 62
7
  6
CONTINUOUS
 70
0
 71
3
 72
9
 73
5
 74
0
 42
0.0000001
 43
0.0000001
 44
0.0000000001
 40
0.0
 40
0.0
 40
0.0
 40
0.0
 40
0.2531376023
 40
1.0
 40
1.0
 40
1.0
 40
1.0
 10
99.1978043599
 20
158.4412168659
 30
0.0
 10
98.8716196639
 20
158.0968215932
 30
0.0
 10
97.6219303358
 20
156.7000802711
 30
0.0
 10
96.532770169
 20
155.1591922814
 30
0.0
 10
95.8301355339
 20
153.9488348324
 30
0.0
  0
SPLINE
  5
74A
100
AcDbEntity
  8
BEZUGSACHSEN
100
AcDbSpline
 62
7
  6
CONTINUOUS
 70
0
 71
3
 72
9
 73
5
 74
0
 42
0.0000001
 43
0.0000001
 44
0.0000000001
 40
0.0
 40
0.0
 40
0.0
 40
0.0
 40
0.5015950834
 40
1.0
 40
1.0
 40
1.0
 40
1.0
 10
95.8048995951
 20
153.965959965
 30
0.0
 10
94.9646006774
 20
152.3324321036
 30
0.0
 10
93.6630813948
 20
148.868360096
 30
0.0
 10
93.2167945677
 20
145.1936234563
 30
0.0
 10
93.2140740137
 20
143.3683233419
 30
0.0
  0
SPLINE
  5
74B
100
AcDbEntity
  8
0
100
AcDbSpline
 62
7
  6
CONTINUOUS
 70
0
 71
3
 72
9
 73
5
 74
0
 42
0.0000001
 43
0.0000001
 44
0.0000000001
 40
0.0
 40
0.0
 40
0.0
 40
0.0
 40
0.4914420125
 40
1.0
 40
1.0
 40
1.0
 40
1.0
 10
82.1320092674
 20
193.1590465636
 30
0.0
 10
78.2490453092
 20
188.4049276044
 30
0.0
 10
70.4736873805
 20
178.627439885
 30
0.0
 10
62.9726752598
 20
168.6382561106
 30
0.0
 10
59.2140485924
 20
163.5175077691
 30
0.0
  0
SPLINE
  5
74C
100
AcDbEntity
  8
0
100
AcDbSpline
 62
7
  6
CONTINUOUS
 70
0
 71
3
 72
9
 73
5
 74
0
 42
0.0000001
 43
0.0000001
 44
0.0000000001
 40
0.0
 40
0.0
 40
0.0
 40
0.0
 40
0.5085579893
 40
1.0
 40
1.0
 40
1.0
 40
1.0
 10
179.2140485924
 20
163.5175077691
 30
0.0
 10
175.4554219121
 20
168.6382561283
 30
0.0
 10
167.9544097909
 20
178.6274399024
 30
0.0
 10
160.1790518618
 20
188.4049276213
 30
0.0
 10
156.2960879174
 20
193.1590465636
 30
0.0
  0
SPLINE
  5
74D
100
AcDbEntity
  8
BEZUGSACHSEN
100
AcDbSpline
 62
7
  6
CONTINUOUS
 70
0
 71
3
 72
11
 73
7
 74
0
 42
0.0000001
 43
0.0000001
 44
0.0000000001
 40
0.0
 40
0.0
 40
0.0
 40
0.0
 40
0.2582826786
 40
0.511298289
 40
0.7584999641
 40
1.0
 40
1.0
 40
1.0
 40
1.0
 10
130.5644910254
 20
122.2355889341
 30
0.0
 10
131.9403195824
 20
122.8327834732
 30
0.0
 10
134.5730208666
 20
124.2398298472
 30
0.0
 10
138.0734973364
 20
126.9467776039
 30
0.0
 10
140.996336629
 20
130.1386694885
 30
0.0
 10
142.5268044717
 20
132.5494145717
 30
0.0
 10
143.1683524607
 20
133.7964584649
 30
0.0
  0
LINE
  5
74E
100
AcDbEntity
  8
BEZUGSACHSEN
100
AcDbLine
 62
7
  6
CONTINUOUS
 10
145.2140485924
 20
143.3684142535
 11
145.214023171
 21
143.3343031508
  0
SPLINE
  5
74F
100
AcDbEntity
  8
BEZUGSACHSEN
100
AcDbSpline
 62
7
  6
CONTINUOUS
 70
0
 71
3
 72
11
 73
7
 74
0
 42
0.0000001
 43
0.0000001
 44
0.0000000001
 40
0.0
 40
0.0
 40
0.0
 40
0.0
 40
0.2415033187
 40
0.4887043757
 40
0.7417186106
 40
1.0
 40
1.0
 40
1.0
 40
1.0
 10
95.2602331777
 20
133.7955760869
 30
0.0
 10
95.9015846288
 20
132.54903973
 30
0.0
 10
97.4314618787
 20
130.1392676135
 30
0.0
 10
100.3529365353
 20
126.948484854
 30
0.0
 10
103.851637032
 20
124.2421829485
 30
0.0
 10
106.4830115489
 20
122.8352443618
 30
0.0
 10
107.8581492843
 20
122.2379821058
 30
0.0
  0
LINE
  5
750
100
AcDbEntity
  8
BEZUGSACHSEN
100
AcDbLine
 62
7
  6
CONTINUOUS
 10
93.2140485924
 20
143.3684142535
 11
93.2140740137
 21
143.3343031508
  0
SPLINE
  5
751
100
AcDbEntity
  8
BEZUGSACHSEN
100
AcDbSpline
 62
7
  6
CONTINUOUS
 70
0
 71
3
 72
13
 73
9
 74
0
 42
0.0000001
 43
0.0000001
 44
0.0000000001
 40
0.0
 40
0.0
 40
0.0
 40
0.0
 40
0.1233236705
 40
0.248254937
 40
0.5
 40
0.751745063
 40
0.8766763295
 40
1.0
 40
1.0
 40
1.0
 40
1.0
 10
127.9196613014
 20
93.7658662117
 30
0.0
 10
127.3916605083
 20
94.3720378208
 30
0.0
 10
126.1865510519
 20
95.4760096898
 30
0.0
 10
123.3480998295
 20
97.1188589507
 30
0.0
 10
119.2140485924
 20
97.9907095664
 30
0.0
 10
115.0799973553
 20
97.1188589507
 30
0.0
 10
112.2415461328
 20
95.4760096898
 30
0.0
 10
111.0364366765
 20
94.3720378208
 30
0.0
 10
110.5084358833
 20
93.7658662117
 30
0.0
  0
SPLINE
  5
752
100
AcDbEntity
  8
BEZUGSACHSEN
100
AcDbSpline
 62
7
  6
CONTINUOUS
 70
0
 71
3
 72
8
 73
4
 74
0
 42
0.0000001
 43
0.0000001
 44
0.0000000001
 40
0.0
 40
0.0
 40
0.0
 40
0.0
 40
1.0
 40
1.0
 40
1.0
 40
1.0
 10
158.2810275024
 20
168.6605272072
 30
0.0
 10
158.4848055252
 20
168.4895452786
 30
0.0
 10
158.6884524763
 20
168.3184070215
 30
0.0
 10
158.8919711151
 20
168.1471164318
 30
0.0
  0
LINE
  5
753
100
AcDbEntity
  8
BEZUGSACHSEN
100
AcDbLine
 62
7
  6
CONTINUOUS
 10
158.8919711151
 20
168.1471164318
 11
159.5890421396
 21
167.9273043193
  0
LINE
  5
754
100
AcDbEntity
  8
BEZUGSACHSEN
100
AcDbLine
 62
7
  6
CONTINUOUS
 10
159.5890421396
 20
167.9273043193
 11
160.3722413265
 21
168.0021899194
  0
LINE
  5
755
100
AcDbEntity
  8
BEZUGSACHSEN
100
AcDbLine
 62
7
  6
CONTINUOUS
 10
161.0242368843
 20
168.2797128385
 11
160.3722413265
 21
168.0021899194
  0
LINE
  5
756
100
AcDbEntity
  8
BEZUGSACHSEN
100
AcDbLine
 62
7
  6
CONTINUOUS
 10
161.5450275954
 20
168.7597444324
 11
161.0242368843
 21
168.2797128385
  0
LINE
  5
757
100
AcDbEntity
  8
BEZUGSACHSEN
100
AcDbLine
 62
7
  6
CONTINUOUS
 10
161.7172831697
 20
169.3491957656
 11
161.5450275954
 21
168.7597444324
  0
SPLINE
  5
758
100
AcDbEntity
  8
BEZUGSACHSEN
100
AcDbSpline
 62
7
  6
CONTINUOUS
 70
0
 71
3
 72
10
 73
6
 74
0
 42
0.0000001
 43
0.0000001
 44
0.0000000001
 40
0.0
 40
0.0
 40
0.0
 40
0.0
 40
0.5039480068
 40
0.7539695975
 40
1.0
 40
1.0
 40
1.0
 40
1.0
 10
107.9640485924
 20
86.4541227045
 30
0.0
 10
107.9640485924
 20
87.7794200819
 30
0.0
 10
108.2496225156
 20
89.7896552156
 30
0.0
 10
109.3235984758
 20
92.2045263586
 30
0.0
 10
110.0834663608
 20
93.277979711
 30
0.0
 10
110.5084358833
 20
93.7658662117
 30
0.0
  0
SPLINE
  5
759
100
AcDbEntity
  8
BEZUGSACHSEN
100
AcDbSpline
 62
7
  6
CONTINUOUS
 70
0
 71
3
 72
10
 73
6
 74
0
 42
0.0000001
 43
0.0000001
 44
0.0000000001
 40
0.0
 40
0.0
 40
0.0
 40
0.0
 40
0.246036424
 40
0.4960584874
 40
1.0
 40
1.0
 40
1.0
 40
1.0
 10
127.9196613014
 20
93.7658662117
 30
0.0
 10
128.3446412337
 20
93.2779677602
 30
0.0
 10
129.1045162489
 20
92.2044976064
 30
0.0
 10
130.1784796203
 20
89.7896210103
 30
0.0
 10
130.4640485924
 20
87.7794030304
 30
0.0
 10
130.4640485924
 20
86.4541227045
 30
0.0
  0
SPLINE
  5
75A
100
AcDbEntity
  8
BEZUGSACHSEN
100
AcDbSpline
 62
7
  6
CONTINUOUS
 70
0
 71
3
 72
9
 73
5
 74
0
 42
0.0000001
 43
0.0000001
 44
0.0000000001
 40
0.0
 40
0.0
 40
0.0
 40
0.0
 40
0.2606079822
 40
1.0
 40
1.0
 40
1.0
 40
1.0
 10
149.1329724103
 20
170.9176445921
 30
0.0
 10
149.4070979972
 20
171.0717982505
 30
0.0
 10
150.4661279712
 20
171.6503404837
 30
0.0
 10
151.5539021017
 20
172.1774211651
 30
0.0
 10
152.3748569821
 20
172.5269981161
 30
0.0
  0
LINE
  5
75B
100
AcDbEntity
  8
BEZUGSACHSEN
100
AcDbLine
 62
7
  6
CONTINUOUS
 10
152.3748569821
 20
172.5269981161
 11
152.8799177244
 21
172.7420569434
  0
SPLINE
  5
75C
100
AcDbEntity
  8
BEZUGSACHSEN
100
AcDbSpline
 62
7
  6
CONTINUOUS
 70
0
 71
3
 72
8
 73
4
 74
0
 42
0.0000001
 43
0.0000001
 44
0.0000000001
 40
0.0
 40
0.0
 40
0.0
 40
0.0
 40
1.0
 40
1.0
 40
1.0
 40
1.0
 10
152.8799177244
 20
172.7420569434
 30
0.0
 10
155.0357195376
 20
173.6599937369
 30
0.0
 10
157.1916127936
 20
174.5777157838
 30
0.0
 10
159.3475611625
 20
175.4953083108
 30
0.0
  0
SPLINE
  5
75D
100
AcDbEntity
  8
BEZUGSACHSEN
100
AcDbSpline
 62
7
  6
CONTINUOUS
 70
0
 71
3
 72
8
 73
4
 74
0
 42
0.0000001
 43
0.0000001
 44
0.0000000001
 40
0.0
 40
0.0
 40
0.0
 40
0.0
 40
1.0
 40
1.0
 40
1.0
 40
1.0
 10
162.4964568667
 20
170.7106567714
 30
0.0
 10
162.6429283643
 20
170.3436683106
 30
0.0
 10
162.7891581357
 20
169.9765832801
 30
0.0
 10
162.9351456559
 20
169.6094020253
 30
0.0
  0
SPLINE
  5
75E
100
AcDbEntity
  8
BEZUGSACHSEN
100
AcDbSpline
 62
7
  6
CONTINUOUS
 70
0
 71
3
 72
9
 73
5
 74
0
 42
0.0000001
 43
0.0000001
 44
0.0000000001
 40
0.0
 40
0.0
 40
0.0
 40
0.0
 40
0.2632511649
 40
1.0
 40
1.0
 40
1.0
 40
1.0
 10
146.5973567516
 20
173.2490898793
 30
0.0
 10
146.8522815352
 20
173.4689531658
 30
0.0
 10
147.8303447282
 20
174.2926921712
 30
0.0
 10
148.8470873749
 20
175.0715856552
 30
0.0
 10
149.6223387537
 20
175.606946203
 30
0.0
  0
LINE
  5
75F
100
AcDbEntity
  8
BEZUGSACHSEN
100
AcDbLine
 62
7
  6
CONTINUOUS
 10
149.6223387537
 20
175.606946203
 11
149.9644252508
 21
175.8431787545
  0
LINE
  5
760
100
AcDbEntity
  8
BEZUGSACHSEN
100
AcDbLine
 62
7
  6
CONTINUOUS
 10
149.9644252508
 20
175.8431787545
 11
155.405563992
 21
179.6006312769
  0
SPLINE
  5
761
100
AcDbEntity
  8
BEZUGSACHSEN
100
AcDbSpline
 62
7
  6
CONTINUOUS
 70
0
 71
3
 72
9
 73
5
 74
0
 42
0.0000001
 43
0.0000001
 44
0.0000000001
 40
0.0
 40
0.0
 40
0.0
 40
0.0
 40
0.2671977219
 40
1.0
 40
1.0
 40
1.0
 40
1.0
 10
140.4880486763
 20
178.0843494765
 30
0.0
 10
140.5967571635
 20
178.4156006524
 30
0.0
 10
141.009590622
 20
179.6533241809
 30
0.0
 10
141.4459867467
 20
180.8833890975
 30
0.0
 10
141.7864578095
 20
181.7768581509
 30
0.0
  0
SPLINE
  5
762
100
AcDbEntity
  8
BEZUGSACHSEN
100
AcDbSpline
 62
7
  6
CONTINUOUS
 70
0
 71
3
 72
9
 73
5
 74
0
 42
0.0000001
 43
0.0000001
 44
0.0000000001
 40
0.0
 40
0.0
 40
0.0
 40
0.0
 40
0.2497318888
 40
1.0
 40
1.0
 40
1.0
 40
1.0
 10
144.208234747
 20
188.1254616801
 30
0.0
 10
144.0115856116
 20
187.6104064706
 30
0.0
 10
143.224268877
 20
185.5479263406
 30
0.0
 10
142.4375021049
 20
183.485236219
 30
0.0
 10
141.8476718651
 20
181.9374919264
 30
0.0
  0
LINE
  5
763
100
AcDbEntity
  8
BEZUGSACHSEN
100
AcDbLine
 62
7
  6
CONTINUOUS
 10
141.8476718651
 20
181.9374919264
 11
141.7864578095
 21
181.7768581509
  0
SPLINE
  5
764
100
AcDbEntity
  8
BEZUGSACHSEN
100
AcDbSpline
 62
7
  6
CONTINUOUS
 70
0
 71
3
 72
9
 73
5
 74
0
 42
0.0000001
 43
0.0000001
 44
0.0000000001
 40
0.0
 40
0.0
 40
0.0
 40
0.0
 40
0.2588909987
 40
1.0
 40
1.0
 40
1.0
 40
1.0
 10
142.1922038002
 20
178.6728179401
 30
0.0
 10
142.3851931476
 20
178.7939822511
 30
0.0
 10
143.1345810079
 20
179.2556461089
 30
0.0
 10
143.9000195054
 20
179.6915779849
 30
0.0
 10
144.4771969777
 20
179.9955167857
 30
0.0
  0
LINE
  5
765
100
AcDbEntity
  8
BEZUGSACHSEN
100
AcDbLine
 62
7
  6
CONTINUOUS
 10
144.4771969777
 20
179.9955167857
 11
144.8226938036
 21
180.177430517
  0
SPLINE
  5
766
100
AcDbEntity
  8
BEZUGSACHSEN
100
AcDbSpline
 62
7
  6
CONTINUOUS
 70
0
 71
3
 72
8
 73
4
 74
0
 42
0.0000001
 43
0.0000001
 44
0.0000000001
 40
0.0
 40
0.0
 40
0.0
 40
0.0
 40
1.0
 40
1.0
 40
1.0
 40
1.0
 10
144.8226938036
 20
180.177430517
 30
0.0
 10
146.9225328519
 20
181.2829147591
 30
0.0
 10
149.0233905522
 20
182.3864647773
 30
0.0
 10
151.1248621001
 20
183.488842558
 30
0.0
  0
SPLINE
  5
767
100
AcDbEntity
  8
BEZUGSACHSEN
100
AcDbSpline
 62
7
  6
CONTINUOUS
 70
0
 71
3
 72
8
 73
4
 74
0
 42
0.0000001
 43
0.0000001
 44
0.0000000001
 40
0.0
 40
0.0
 40
0.0
 40
0.0
 40
1.0
 40
1.0
 40
1.0
 40
1.0
 10
81.6792390985
 20
172.5789230973
 30
0.0
 10
82.770889952
 20
172.4224876674
 30
0.0
 10
83.8624652675
 20
172.2655237097
 30
0.0
 10
84.9539451739
 20
172.1078999687
 30
0.0
  0
LINE
  5
768
100
AcDbEntity
  8
BEZUGSACHSEN
100
AcDbLine
 62
7
  6
CONTINUOUS
 10
84.9539451739
 20
172.1078999687
 11
85.6165332601
 21
172.0121293188
  0
LINE
  5
769
100
AcDbEntity
  8
BEZUGSACHSEN
100
AcDbLine
 62
7
  6
CONTINUOUS
 10
81.6945773964
 20
173.1339570566
 11
81.3512827703
 21
173.7146328405
  0
LINE
  5
76A
100
AcDbEntity
  8
BEZUGSACHSEN
100
AcDbLine
 62
7
  6
CONTINUOUS
 10
81.3512827703
 20
173.7146328405
 11
81.0003188882
 21
174.0180585544
  0
LINE
  5
76B
100
AcDbEntity
  8
BEZUGSACHSEN
100
AcDbLine
 62
7
  6
CONTINUOUS
 10
80.4326410458
 20
174.2819613356
 11
81.0003188882
 21
174.0180585544
  0
LINE
  5
76C
100
AcDbEntity
  8
BEZUGSACHSEN
100
AcDbLine
 62
7
  6
CONTINUOUS
 10
79.9320887606
 20
174.374366852
 11
80.4326410458
 21
174.2819613356
  0
LINE
  5
76D
100
AcDbEntity
  8
BEZUGSACHSEN
100
AcDbLine
 62
7
  6
CONTINUOUS
 10
79.140028497
 20
174.3213752983
 11
79.9320887606
 21
174.374366852
  0
LINE
  5
76E
100
AcDbEntity
  8
BEZUGSACHSEN
100
AcDbLine
 62
7
  6
CONTINUOUS
 10
78.415093393
 20
174.096062901
 11
79.140028497
 21
174.3213752983
  0
SPLINE
  5
76F
100
AcDbEntity
  8
BEZUGSACHSEN
100
AcDbSpline
 62
7
  6
CONTINUOUS
 70
0
 71
3
 72
8
 73
4
 74
0
 42
0.0000001
 43
0.0000001
 44
0.0000000001
 40
0.0
 40
0.0
 40
0.0
 40
0.0
 40
1.0
 40
1.0
 40
1.0
 40
1.0
 10
77.8992025959
 20
173.6319080613
 30
0.0
 10
78.0710651299
 20
173.7867385975
 30
0.0
 10
78.2430283442
 20
173.9414574532
 30
0.0
 10
78.415093393
 20
174.096062901
 30
0.0
  0
LINE
  5
770
100
AcDbEntity
  8
BEZUGSACHSEN
100
AcDbLine
 62
7
  6
CONTINUOUS
 10
83.2231164555
 20
168.6117592121
 11
82.712433947
 21
168.849248319
  0
LINE
  5
771
100
AcDbEntity
  8
BEZUGSACHSEN
100
AcDbLine
 62
7
  6
CONTINUOUS
 10
82.712433947
 20
168.849248319
 11
82.4842611913
 21
168.9553570853
  0
LINE
  5
772
100
AcDbEntity
  8
BEZUGSACHSEN
100
AcDbLine
 62
7
  6
CONTINUOUS
 10
82.4842611913
 20
168.9553570853
 11
80.2428094725
 21
169.9976763323
  0
LINE
  5
773
100
AcDbEntity
  8
BEZUGSACHSEN
100
AcDbLine
 62
7
  6
CONTINUOUS
 10
79.3912933053
 20
170.3936313317
 11
77.2625024895
 21
171.383483716
  0
LINE
  5
774
100
AcDbEntity
  8
BEZUGSACHSEN
100
AcDbLine
 62
7
  6
CONTINUOUS
 10
80.8123844193
 20
172.4188193647
 11
80.8948478768
 21
172.8028254298
  0
LINE
  5
775
100
AcDbEntity
  8
BEZUGSACHSEN
100
AcDbLine
 62
7
  6
CONTINUOUS
 10
83.5826070614
 20
180.210106204
 11
87.5144788695
 21
177.5956298149
  0
SPLINE
  5
776
100
AcDbEntity
  8
BEZUGSACHSEN
100
AcDbSpline
 62
7
  6
CONTINUOUS
 70
0
 71
3
 72
8
 73
4
 74
0
 42
0.0000001
 43
0.0000001
 44
0.0000000001
 40
0.0
 40
0.0
 40
0.0
 40
0.0
 40
1.0
 40
1.0
 40
1.0
 40
1.0
 10
83.0405357356
 20
179.6440075012
 30
0.0
 10
83.2210803507
 20
179.8328465983
 30
0.0
 10
83.4017707337
 20
180.0215464384
 30
0.0
 10
83.5826070614
 20
180.210106204
 30
0.0
  0
LINE
  5
777
100
AcDbEntity
  8
BEZUGSACHSEN
100
AcDbLine
 62
7
  6
CONTINUOUS
 10
87.5718473221
 20
175.7033094413
 11
87.5892137817
 21
176.1560317412
  0
LINE
  5
778
100
AcDbEntity
  8
BEZUGSACHSEN
100
AcDbLine
 62
7
  6
CONTINUOUS
 10
87.3373008232
 20
175.2394286734
 11
87.5718473221
 21
175.7033094413
  0
LINE
  5
779
100
AcDbEntity
  8
BEZUGSACHSEN
100
AcDbLine
 62
7
  6
CONTINUOUS
 10
86.975919767
 20
174.8589614927
 11
87.3373008232
 21
175.2394286734
  0
LINE
  5
77A
100
AcDbEntity
  8
BEZUGSACHSEN
100
AcDbLine
 62
7
  6
CONTINUOUS
 10
86.4877046705
 20
174.5619212693
 11
86.975919767
 21
174.8589614927
  0
LINE
  5
77B
100
AcDbEntity
  8
BEZUGSACHSEN
100
AcDbLine
 62
7
  6
CONTINUOUS
 10
85.9629998043
 20
174.4439870301
 11
86.4877046705
 21
174.5619212693
  0
LINE
  5
77C
100
AcDbEntity
  8
BEZUGSACHSEN
100
AcDbLine
 62
7
  6
CONTINUOUS
 10
85.4018053459
 20
174.5056818986
 11
85.9629998043
 21
174.4439870301
  0
LINE
  5
77D
100
AcDbEntity
  8
BEZUGSACHSEN
100
AcDbLine
 62
7
  6
CONTINUOUS
 10
84.8041222405
 20
174.7473358422
 11
85.4018053459
 21
174.5056818986
  0
LINE
  5
77E
100
AcDbEntity
  8
BEZUGSACHSEN
100
AcDbLine
 62
7
  6
CONTINUOUS
 10
84.8041222405
 20
174.7473358422
 11
80.8722504324
 21
177.3620799908
  0
SPLINE
  5
77F
100
AcDbEntity
  8
BEZUGSACHSEN
100
AcDbSpline
 62
7
  6
CONTINUOUS
 70
0
 71
3
 72
8
 73
4
 74
0
 42
0.0000001
 43
0.0000001
 44
0.0000000001
 40
0.0
 40
0.0
 40
0.0
 40
0.0
 40
1.0
 40
1.0
 40
1.0
 40
1.0
 10
80.3301788481
 20
176.7872200245
 30
0.0
 10
80.5107242077
 20
176.978976798
 30
0.0
 10
80.6914144785
 20
177.1705972375
 30
0.0
 10
80.8722504324
 20
177.3620799908
 30
0.0
  0
LINE
  5
780
100
AcDbEntity
  8
BEZUGSACHSEN
100
AcDbLine
 62
7
  6
CONTINUOUS
 10
88.5309115281
 20
175.8391837046
 11
88.4582814667
 21
176.1949971444
  0
LINE
  5
781
100
AcDbEntity
  8
BEZUGSACHSEN
100
AcDbLine
 62
7
  6
CONTINUOUS
 10
88.4582814667
 20
176.1949971444
 11
88.3849543108
 21
176.554012246
  0
LINE
  5
782
100
AcDbEntity
  8
BEZUGSACHSEN
100
AcDbLine
 62
7
  6
CONTINUOUS
 10
88.3849543108
 20
176.554012246
 11
88.0583062626
 21
177.0797889499
  0
LINE
  5
783
100
AcDbEntity
  8
BEZUGSACHSEN
100
AcDbLine
 62
7
  6
CONTINUOUS
 10
88.0583062626
 20
177.0797889499
 11
87.5144788695
 21
177.5956298149
  0
LINE
  5
784
100
AcDbEntity
  8
BEZUGSACHSEN
100
AcDbLine
 62
7
  6
CONTINUOUS
 10
93.4317289888
 20
179.9698388319
 11
93.427375615
 21
180.1500337419
  0
LINE
  5
785
100
AcDbEntity
  8
BEZUGSACHSEN
100
AcDbLine
 62
7
  6
CONTINUOUS
 10
93.427375615
 20
180.1500337419
 11
93.4141899376
 21
180.6955015496
  0
LINE
  5
786
100
AcDbEntity
  8
BEZUGSACHSEN
100
AcDbLine
 62
7
  6
CONTINUOUS
 10
93.4141899376
 20
180.6955015496
 11
93.1881004357
 21
181.2596133568
  0
LINE
  5
787
100
AcDbEntity
  8
BEZUGSACHSEN
100
AcDbLine
 62
7
  6
CONTINUOUS
 10
93.1881004357
 20
181.2596133568
 11
92.7490743524
 21
181.8439909972
  0
LINE
  5
788
100
AcDbEntity
  8
BEZUGSACHSEN
100
AcDbLine
 62
7
  6
CONTINUOUS
 10
91.119170331
 20
183.3559010658
 11
92.7490743524
 21
181.8439909972
  0
LINE
  5
789
100
AcDbEntity
  8
BEZUGSACHSEN
100
AcDbLine
 62
7
  6
CONTINUOUS
 10
90.4715935305
 20
183.7793868677
 11
91.119170331
 21
183.3559010658
  0
LINE
  5
78A
100
AcDbEntity
  8
BEZUGSACHSEN
100
AcDbLine
 62
7
  6
CONTINUOUS
 10
89.8284008928
 20
184.0214179157
 11
90.4715935305
 21
183.7793868677
  0
SPLINE
  5
78B
100
AcDbEntity
  8
BEZUGSACHSEN
100
AcDbSpline
 62
7
  6
CONTINUOUS
 70
0
 71
3
 72
8
 73
4
 74
0
 42
0.0000001
 43
0.0000001
 44
0.0000000001
 40
0.0
 40
0.0
 40
0.0
 40
0.0
 40
1.0
 40
1.0
 40
1.0
 40
1.0
 10
88.9766578423
 20
184.1016746255
 30
0.0
 10
89.260585402
 20
184.0750629508
 30
0.0
 10
89.5445000038
 20
184.0483126294
 30
0.0
 10
89.8284008928
 20
184.0214179157
 30
0.0
  0
LINE
  5
78C
100
AcDbEntity
  8
BEZUGSACHSEN
100
AcDbLine
 62
7
  6
CONTINUOUS
 10
88.3422353078
 20
183.9795512883
 11
88.9766578423
 21
184.1016746255
  0
SPLINE
  5
78D
100
AcDbEntity
  8
BEZUGSACHSEN
100
AcDbSpline
 62
7
  6
CONTINUOUS
 70
0
 71
3
 72
8
 73
4
 74
0
 42
0.0000001
 43
0.0000001
 44
0.0000000001
 40
0.0
 40
0.0
 40
0.0
 40
0.0
 40
1.0
 40
1.0
 40
1.0
 40
1.0
 10
87.7121966315
 20
183.6746247985
 30
0.0
 10
87.9221294556
 20
183.7764322321
 30
0.0
 10
88.1321421482
 20
183.8780751408
 30
0.0
 10
88.3422353078
 20
183.9795512883
 30
0.0
  0
LINE
  5
78E
100
AcDbEntity
  8
BEZUGSACHSEN
100
AcDbLine
 62
7
  6
CONTINUOUS
 10
92.4757095006
 20
179.9684867546
 11
92.571215721
 21
180.4128817866
  0
LINE
  5
78F
100
AcDbEntity
  8
BEZUGSACHSEN
100
AcDbLine
 62
7
  6
CONTINUOUS
 10
92.1672677399
 20
179.5431300469
 11
92.4757095006
 21
179.9684867546
  0
LINE
  5
790
100
AcDbEntity
  8
BEZUGSACHSEN
100
AcDbLine
 62
7
  6
CONTINUOUS
 10
90.2903068659
 20
178.0712407651
 11
86.4871973052
 21
181.5992448602
  0
LINE
  5
791
100
AcDbEntity
  8
BEZUGSACHSEN
100
AcDbLine
 62
7
  6
CONTINUOUS
 10
99.2140485043
 20
189.2086087168
 11
99.0801302892
 21
189.4716380286
  0
SPLINE
  5
792
100
AcDbEntity
  8
RUNDUNGEN
100
AcDbSpline
 62
7
  6
CONTINUOUS
 70
0
 71
3
 72
9
 73
5
 74
0
 42
0.0000001
 43
0.0000001
 44
0.0000000001
 40
0.0
 40
0.0
 40
0.0
 40
0.0
 40
0.4741820727
 40
1.0
 40
1.0
 40
1.0
 40
1.0
 10
165.2140485924
 20
83.7349997351
 30
0.0
 10
165.2140485924
 20
84.0201287691
 30
0.0
 10
165.3386467795
 20
84.6261255966
 30
0.0
 10
165.6752238963
 20
85.1401698086
 30
0.0
 10
165.8839215735
 20
85.3776857693
 30
0.0
  0
SPLINE
  5
793
100
AcDbEntity
  8
BEZUGSACHSEN
100
AcDbSpline
 62
7
  6
CONTINUOUS
 70
0
 71
3
 72
18
 73
14
 74
0
 42
0.0000001
 43
0.0000001
 44
0.0000000001
 40
0.0
 40
0.0
 40
0.0
 40
0.0
 40
0.2009588861
 40
0.3893165796
 40
0.5597899789
 40
0.7074751436
 40
0.828071838
 40
0.8770893818
 40
0.9181081636
 40
0.9508819207
 40
0.9752655438
 40
0.9913475123
 40
1.0
 40
1.0
 40
1.0
 40
1.0
 10
146.4946257254
 20
62.4010827055
 30
0.0
 10
146.2829007281
 20
60.8465741354
 30
0.0
 10
145.878277474
 20
57.8342655627
 30
0.0
 10
145.3210114031
 20
53.4997159698
 30
0.0
 10
144.8507406444
 20
49.573336898
 30
0.0
 10
144.4896146584
 20
46.1671366214
 30
0.0
 10
144.2803385948
 20
43.6981772365
 30
0.0
 10
144.1902341942
 20
42.0565483861
 30
0.0
 10
144.1643961066
 20
41.0970271855
 30
0.0
 10
144.1720083022
 20
40.3329195262
 30
0.0
 10
144.2184988481
 20
39.7559513351
 30
0.0
 10
144.2844929759
 20
39.3907082216
 30
0.0
 10
144.3818073479
 20
39.1954469723
 30
0.0
 10
144.4440661595
 20
39.1692421522
 30
0.0
  0
SPLINE
  5
794
100
AcDbEntity
  8
0
100
AcDbSpline
 62
7
  6
CONTINUOUS
 70
0
 71
3
 72
9
 73
5
 74
0
 42
0.0000001
 43
0.0000001
 44
0.0000000001
 40
0.0
 40
0.0
 40
0.0
 40
0.0
 40
0.214204688
 40
1.0
 40
1.0
 40
1.0
 40
1.0
 10
107.9640485924
 20
102.0506249161
 30
0.0
 10
107.9640485924
 20
102.5267465352
 30
0.0
 10
108.210653901
 20
104.7485314961
 30
0.0
 10
109.3612342281
 20
106.8136667223
 30
0.0
 10
110.5084358833
 20
108.1307122314
 30
0.0
  0
SPLINE
  5
795
100
AcDbEntity
  8
BEZUGSACHSEN
100
AcDbSpline
 62
7
  6
CONTINUOUS
 70
0
 71
3
 72
18
 73
14
 74
0
 42
0.0000001
 43
0.0000001
 44
0.0000000001
 40
0.0
 40
0.0
 40
0.0
 40
0.0
 40
0.0086524877
 40
0.0247344562
 40
0.0491180793
 40
0.0818918364
 40
0.1229106182
 40
0.171928162
 40
0.2925248564
 40
0.4402100211
 40
0.6106834204
 40
0.7990411139
 40
1.0
 40
1.0
 40
1.0
 40
1.0
 10
93.9840310253
 20
39.1692421522
 30
0.0
 10
94.0462898369
 20
39.1954469723
 30
0.0
 10
94.1436042089
 20
39.3907082216
 30
0.0
 10
94.2095983367
 20
39.7559513351
 30
0.0
 10
94.2560888826
 20
40.3329195262
 30
0.0
 10
94.2637010782
 20
41.0970271855
 30
0.0
 10
94.2378629906
 20
42.0565483861
 30
0.0
 10
94.14775859
 20
43.6981772365
 30
0.0
 10
93.9384825264
 20
46.1671366214
 30
0.0
 10
93.5773565404
 20
49.573336898
 30
0.0
 10
93.1070857817
 20
53.4997159698
 30
0.0
 10
92.5498197107
 20
57.8342655627
 30
0.0
 10
92.1451964567
 20
60.8465741354
 30
0.0
 10
91.9334714593
 20
62.4010827055
 30
0.0
  0
SPLINE
  5
796
100
AcDbEntity
  8
0
100
AcDbSpline
 62
7
  6
CONTINUOUS
 70
0
 71
3
 72
9
 73
5
 74
0
 42
0.0000001
 43
0.0000001
 44
0.0000000001
 40
0.0
 40
0.0
 40
0.0
 40
0.0
 40
0.2836040983
 40
1.0
 40
1.0
 40
1.0
 40
1.0
 10
127.9196613014
 20
108.1307122314
 30
0.0
 10
128.3335727824
 20
107.6555209216
 30
0.0
 10
129.656605193
 20
105.8762633572
 30
0.0
 10
130.4640485924
 20
103.6424914846
 30
0.0
 10
130.4640485924
 20
102.0506249161
 30
0.0
  0
SPLINE
  5
797
100
AcDbEntity
  8
RUNDUNGEN
100
AcDbSpline
 62
7
  6
CONTINUOUS
 70
0
 71
3
 72
9
 73
5
 74
0
 42
0.0000001
 43
0.0000001
 44
0.0000000001
 40
0.0
 40
0.0
 40
0.0
 40
0.0
 40
0.5258179273
 40
1.0
 40
1.0
 40
1.0
 40
1.0
 10
72.5441756113
 20
85.3776857693
 30
0.0
 10
72.7528732885
 20
85.1401698086
 30
0.0
 10
73.0894504052
 20
84.6261255966
 30
0.0
 10
73.2140485924
 20
84.0201287691
 30
0.0
 10
73.2140485924
 20
83.7349997351
 30
0.0
  0
SPLINE
  5
798
100
AcDbEntity
  8
0
100
AcDbSpline
 62
7
  6
CONTINUOUS
 70
0
 71
3
 72
8
 73
4
 74
0
 42
0.0000001
 43
0.0000001
 44
0.0000000001
 40
0.0
 40
0.0
 40
0.0
 40
0.0
 40
1.0
 40
1.0
 40
1.0
 40
1.0
 10
85.092973207
 20
171.0170085979
 30
0.0
 10
85.2673085119
 20
171.263106595
 30
0.0
 10
85.4418258206
 20
171.5090757714
 30
0.0
 10
85.6165332601
 20
171.7549097262
 30
0.0
  0
LINE
  5
799
100
AcDbEntity
  8
0
100
AcDbLine
 62
7
  6
CONTINUOUS
 10
87.7369271994
 20
174.0873111009
 11
88.0983082556
 21
174.4667486311
  0
SPLINE
  5
79A
100
AcDbEntity
  8
0
100
AcDbSpline
 62
7
  6
CONTINUOUS
 70
0
 71
3
 72
8
 73
4
 74
0
 42
0.0000001
 43
0.0000001
 44
0.0000000001
 40
0.0
 40
0.0
 40
0.0
 40
0.0
 40
1.0
 40
1.0
 40
1.0
 40
1.0
 10
88.0983082556
 20
174.4667486311
 30
0.0
 10
88.2064459081
 20
174.6539778396
 30
0.0
 10
88.3147379712
 20
174.8411179677
 30
0.0
 10
88.4231996198
 20
175.0281596721
 30
0.0
  0
SPLINE
  5
79B
100
AcDbEntity
  8
0
100
AcDbSpline
 62
7
  6
CONTINUOUS
 70
0
 71
3
 72
8
 73
4
 74
0
 42
0.0000001
 43
0.0000001
 44
0.0000000001
 40
0.0
 40
0.0
 40
0.0
 40
0.0
 40
1.0
 40
1.0
 40
1.0
 40
1.0
 10
88.4231996198
 20
175.0281596721
 30
0.0
 10
88.4589475195
 20
175.2118350343
 30
0.0
 10
88.4948463626
 20
175.3954810971
 30
0.0
 10
88.5309115281
 20
175.5790944268
 30
0.0
  0
SPLINE
  5
79C
100
AcDbEntity
  8
BEZUGSACHSEN
100
AcDbSpline
 62
7
  6
CONTINUOUS
 70
0
 71
3
 72
15
 73
11
 74
0
 42
0.0000001
 43
0.0000001
 44
0.0000000001
 40
0.0
 40
0.0
 40
0.0
 40
0.0
 40
0.1215817694
 40
0.2453929452
 40
0.3718480444
 40
0.5
 40
0.6281519556
 40
0.7546070548
 40
0.8784182306
 40
1.0
 40
1.0
 40
1.0
 40
1.0
 10
157.876038756
 20
78.4336959512
 30
0.0
 10
157.8200920435
 20
78.7614250325
 30
0.0
 10
157.5791937148
 20
79.4073475903
 30
0.0
 10
156.8917282366
 20
80.184648021
 30
0.0
 10
155.9655814019
 20
80.6902413206
 30
0.0
 10
154.9140485924
 20
80.8649695657
 30
0.0
 10
153.8625157829
 20
80.6902413206
 30
0.0
 10
152.9363689482
 20
80.184648021
 30
0.0
 10
152.24890347
 20
79.4073475903
 30
0.0
 10
152.0080051413
 20
78.7614250325
 30
0.0
 10
151.9520584288
 20
78.4336959512
 30
0.0
  0
LINE
  5
79D
100
AcDbEntity
  8
0
100
AcDbLine
 62
7
  6
CONTINUOUS
 10
161.6852346675
 20
169.2395963109
 11
161.6291427664
 21
169.4612622064
  0
LINE
  5
79E
100
AcDbEntity
  8
0
100
AcDbLine
 62
7
  6
CONTINUOUS
 10
161.6291427664
 20
169.4612622064
 11
161.5410028563
 21
169.8092579812
  0
LINE
  5
79F
100
AcDbEntity
  8
BEZUGSACHSEN
100
AcDbLine
 62
7
  6
CONTINUOUS
 10
161.5410028563
 20
170.0470700829
 11
161.7172831697
 21
169.3491957656
  0
LINE
  5
7A0
100
AcDbEntity
  8
0
100
AcDbLine
 62
7
  6
CONTINUOUS
 10
159.0481268402
 20
173.5991068388
 11
155.9156273108
 21
172.2663192698
  0
LINE
  5
7A1
100
AcDbEntity
  8
BEZUGSACHSEN
100
AcDbLine
 62
7
  6
CONTINUOUS
 10
155.7881514863
 20
172.4592942353
 11
159.0481268402
 21
173.8458900156
  0
LINE
  5
7A2
100
AcDbEntity
  8
0
100
AcDbLine
 62
7
  6
CONTINUOUS
 10
160.9421336029
 20
166.4588940709
 11
161.8114608104
 21
166.8291235947
  0
LINE
  5
7A3
100
AcDbEntity
  8
BEZUGSACHSEN
100
AcDbLine
 62
7
  6
CONTINUOUS
 10
161.8114608104
 20
167.0607071442
 11
160.9421336029
 21
166.6902500966
  0
LINE
  5
7A4
100
AcDbEntity
  8
0
100
AcDbLine
 62
7
  6
CONTINUOUS
 10
160.9421336029
 20
166.4588940709
 11
160.1589351667
 21
166.3844096257
  0
LINE
  5
7A5
100
AcDbEntity
  8
BEZUGSACHSEN
100
AcDbLine
 62
7
  6
CONTINUOUS
 10
160.1589351667
 20
166.6161227255
 11
160.9421336029
 21
166.6902500966
  0
SPLINE
  5
7A6
100
AcDbEntity
  8
0
100
AcDbSpline
 62
7
  6
CONTINUOUS
 70
0
 71
3
 72
8
 73
4
 74
0
 42
0.0000001
 43
0.0000001
 44
0.0000000001
 40
0.0
 40
0.0
 40
0.0
 40
0.0
 40
1.0
 40
1.0
 40
1.0
 40
1.0
 10
160.1589351667
 20
166.3844096257
 30
0.0
 10
159.7379931398
 20
166.4641232007
 30
0.0
 10
159.3170141964
 20
166.5436421161
 30
0.0
 10
158.8959958542
 20
166.6229516339
 30
0.0
  0
SPLINE
  5
7A7
100
AcDbEntity
  8
BEZUGSACHSEN
100
AcDbSpline
 62
7
  6
CONTINUOUS
 70
0
 71
3
 72
8
 73
4
 74
0
 42
0.0000001
 43
0.0000001
 44
0.0000000001
 40
0.0
 40
0.0
 40
0.0
 40
0.0
 40
1.0
 40
1.0
 40
1.0
 40
1.0
 10
158.8959958542
 20
166.8560678302
 30
0.0
 10
159.3170126208
 20
166.7762811
 30
0.0
 10
159.7379915777
 20
166.6962946337
 30
0.0
 10
160.1589351667
 20
166.6161227255
 30
0.0
  0
SPLINE
  5
7A8
100
AcDbEntity
  8
0
100
AcDbSpline
 62
7
  6
CONTINUOUS
 70
0
 71
3
 72
8
 73
4
 74
0
 42
0.0000001
 43
0.0000001
 44
0.0000000001
 40
0.0
 40
0.0
 40
0.0
 40
0.0
 40
1.0
 40
1.0
 40
1.0
 40
1.0
 10
158.8959958542
 20
166.6229516339
 30
0.0
 10
158.5038898762
 20
166.8005613483
 30
0.0
 10
158.1116226748
 20
166.977815615
 30
0.0
 10
157.719185455
 20
167.154692231
 30
0.0
  0
SPLINE
  5
7A9
100
AcDbEntity
  8
BEZUGSACHSEN
100
AcDbSpline
 62
7
  6
CONTINUOUS
 70
0
 71
3
 72
8
 73
4
 74
0
 42
0.0000001
 43
0.0000001
 44
0.0000000001
 40
0.0
 40
0.0
 40
0.0
 40
0.0
 40
1.0
 40
1.0
 40
1.0
 40
1.0
 10
157.719185455
 20
167.3898633568
 30
0.0
 10
158.1116195782
 20
167.2122934925
 30
0.0
 10
158.5038867439
 20
167.0343542384
 30
0.0
 10
158.8959958542
 20
166.8560678302
 30
0.0
  0
SPLINE
  5
7AA
100
AcDbEntity
  8
BEZUGSACHSEN
100
AcDbSpline
 62
7
  6
CONTINUOUS
 70
0
 71
3
 72
9
 73
5
 74
0
 42
0.0000001
 43
0.0000001
 44
0.0000000001
 40
0.0
 40
0.0
 40
0.0
 40
0.0
 40
0.237713896
 40
1.0
 40
1.0
 40
1.0
 40
1.0
 10
153.2598541625
 20
171.3838229317
 30
0.0
 10
152.9876951643
 20
171.2680488815
 30
0.0
 10
151.8509537492
 20
170.7619098231
 30
0.0
 10
150.7454010999
 20
170.1869252761
 30
0.0
 10
149.9201963364
 20
169.7194337218
 30
0.0
  0
LINE
  5
7AB
100
AcDbEntity
  8
0
100
AcDbLine
 62
7
  6
CONTINUOUS
 10
154.4841615883
 20
171.6572118667
 11
153.8736673185
 21
171.3974254228
  0
LINE
  5
7AC
100
AcDbEntity
  8
BEZUGSACHSEN
100
AcDbLine
 62
7
  6
CONTINUOUS
 10
153.2598541625
 20
171.3838229317
 11
154.4841615883
 21
171.9046218375
  0
LINE
  5
7AD
100
AcDbEntity
  8
BEZUGSACHSEN
100
AcDbLine
 62
7
  6
CONTINUOUS
 10
149.9201963364
 20
169.7194337218
 11
149.1329724103
 21
170.9176445921
  0
LINE
  5
7AE
100
AcDbEntity
  8
0
100
AcDbLine
 62
7
  6
CONTINUOUS
 10
162.8079661571
 20
168.287858857
 11
162.9351456559
 21
169.3734222971
  0
LINE
  5
7AF
100
AcDbEntity
  8
BEZUGSACHSEN
100
AcDbLine
 62
7
  6
CONTINUOUS
 10
162.9351456559
 20
169.6094020253
 11
162.8079661571
 21
168.5217899789
  0
LINE
  5
7B0
100
AcDbEntity
  8
0
100
AcDbLine
 62
7
  6
CONTINUOUS
 10
162.3322522722
 20
167.3098132627
 11
162.8079661571
 21
168.287858857
  0
SPLINE
  5
7B1
100
AcDbEntity
  8
BEZUGSACHSEN
100
AcDbSpline
 62
7
  6
CONTINUOUS
 70
0
 71
3
 72
8
 73
4
 74
0
 42
0.0000001
 43
0.0000001
 44
0.0000000001
 40
0.0
 40
0.0
 40
0.0
 40
0.0
 40
1.0
 40
1.0
 40
1.0
 40
1.0
 10
162.8079661571
 20
168.5217899789
 30
0.0
 10
162.6492685249
 20
168.1952767513
 30
0.0
 10
162.490694919
 20
167.8687032098
 30
0.0
 10
162.3322522722
 20
167.5420661727
 30
0.0
  0
LINE
  5
7B2
100
AcDbEntity
  8
0
100
AcDbLine
 62
7
  6
CONTINUOUS
 10
161.8114608104
 20
166.8291235947
 11
162.3322522722
 21
167.3098132627
  0
LINE
  5
7B3
100
AcDbEntity
  8
BEZUGSACHSEN
100
AcDbLine
 62
7
  6
CONTINUOUS
 10
162.3322522722
 20
167.5420661727
 11
161.8114608104
 21
167.0607071442
  0
LINE
  5
7B4
100
AcDbEntity
  8
BEZUGSACHSEN
100
AcDbLine
 62
7
  6
CONTINUOUS
 10
147.6160529557
 20
172.2143316096
 11
146.5973567516
 21
173.2490898793
  0
SPLINE
  5
7B5
100
AcDbEntity
  8
BEZUGSACHSEN
100
AcDbSpline
 62
7
  6
CONTINUOUS
 70
0
 71
3
 72
9
 73
5
 74
0
 42
0.0000001
 43
0.0000001
 44
0.0000000001
 40
0.0
 40
0.0
 40
0.0
 40
0.0
 40
0.2351141388
 40
1.0
 40
1.0
 40
1.0
 40
1.0
 10
150.6249881893
 20
174.5583687958
 30
0.0
 10
150.3789580076
 20
174.388446108
 30
0.0
 10
149.3443065333
 20
173.648708371
 30
0.0
 10
148.3530152878
 20
172.849244093
 30
0.0
 10
147.6160529557
 20
172.2143316096
 30
0.0
  0
LINE
  5
7B6
100
AcDbEntity
  8
0
100
AcDbLine
 62
7
  6
CONTINUOUS
 10
151.104299842
 20
174.6330750386
 11
156.4242601961
 21
178.3069665695
  0
LINE
  5
7B7
100
AcDbEntity
  8
BEZUGSACHSEN
100
AcDbLine
 62
7
  6
CONTINUOUS
 10
156.4242601961
 20
178.5635936652
 11
150.6249881893
 21
174.5583687958
  0
LINE
  5
7B8
100
AcDbEntity
  8
BEZUGSACHSEN
100
AcDbLine
 62
7
  6
CONTINUOUS
 10
142.1154903551
 20
176.9918841246
 11
140.4880486763
 21
178.0843494765
  0
SPLINE
  5
7B9
100
AcDbEntity
  8
BEZUGSACHSEN
100
AcDbSpline
 62
7
  6
CONTINUOUS
 70
0
 71
3
 72
9
 73
5
 74
0
 42
0.0000001
 43
0.0000001
 44
0.0000000001
 40
0.0
 40
0.0
 40
0.0
 40
0.0
 40
0.2362393563
 40
1.0
 40
1.0
 40
1.0
 40
1.0
 10
143.0265045282
 20
180.9930648127
 30
0.0
 10
142.9576718536
 20
180.8115061334
 30
0.0
 10
142.6700258166
 20
180.0415588963
 30
0.0
 10
142.3958849644
 20
179.2666021023
 30
0.0
 10
142.1922038002
 20
178.6728179401
 30
0.0
  0
SPLINE
  5
7BA
100
AcDbEntity
  8
0
100
AcDbSpline
 62
7
  6
CONTINUOUS
 70
0
 71
3
 72
9
 73
5
 74
0
 42
0.0000001
 43
0.0000001
 44
0.0000000001
 40
0.0
 40
0.0
 40
0.0
 40
0.0
 40
0.2503225275
 40
1.0
 40
1.0
 40
1.0
 40
1.0
 10
143.1857599712
 20
181.1389601182
 30
0.0
 10
143.3727401117
 20
181.6317780889
 30
0.0
 10
144.1199105576
 20
183.6004290714
 30
0.0
 10
144.8678265238
 20
185.5687970513
 30
0.0
 10
145.4288160788
 20
187.0443264221
 30
0.0
  0
SPLINE
  5
7BB
100
AcDbEntity
  8
BEZUGSACHSEN
100
AcDbSpline
 62
7
  6
CONTINUOUS
 70
0
 71
3
 72
9
 73
5
 74
0
 42
0.0000001
 43
0.0000001
 44
0.0000000001
 40
0.0
 40
0.0
 40
0.0
 40
0.0
 40
0.2496484783
 40
1.0
 40
1.0
 40
1.0
 40
1.0
 10
145.4288160788
 20
187.3211662355
 30
0.0
 10
145.2287089736
 20
186.7946403649
 30
0.0
 10
144.4273193692
 20
184.6855083236
 30
0.0
 10
143.6266649281
 20
182.576096855
 30
0.0
 10
143.0265045282
 20
180.9930648127
 30
0.0
  0
SPLINE
  5
7BC
100
AcDbEntity
  8
BEZUGSACHSEN
100
AcDbSpline
 62
7
  6
CONTINUOUS
 70
0
 71
3
 72
9
 73
5
 74
0
 42
0.0000001
 43
0.0000001
 44
0.0000000001
 40
0.0
 40
0.0
 40
0.0
 40
0.0
 40
0.2368421026
 40
1.0
 40
1.0
 40
1.0
 40
1.0
 10
145.639766116
 20
179.1278427681
 30
0.0
 10
145.3517634207
 20
178.9762926013
 30
0.0
 10
144.1467363656
 20
178.3155996
 30
0.0
 10
142.9826105048
 20
177.5816021429
 30
0.0
 10
142.1154903551
 20
176.9918841246
 30
0.0
  0
SPLINE
  5
7BD
100
AcDbEntity
  8
0
100
AcDbSpline
 62
7
  6
CONTINUOUS
 70
0
 71
3
 72
8
 73
4
 74
0
 42
0.0000001
 43
0.0000001
 44
0.0000000001
 40
0.0
 40
0.0
 40
0.0
 40
0.0
 40
1.0
 40
1.0
 40
1.0
 40
1.0
 10
152.345443432
 20
182.3849339095
 30
0.0
 10
150.2653415241
 20
181.2928131734
 30
0.0
 10
148.1857412074
 20
180.1997357296
 30
0.0
 10
146.1069634163
 20
179.1050967278
 30
0.0
  0
SPLINE
  5
7BE
100
AcDbEntity
  8
BEZUGSACHSEN
100
AcDbSpline
 62
7
  6
CONTINUOUS
 70
0
 71
3
 72
8
 73
4
 74
0
 42
0.0000001
 43
0.0000001
 44
0.0000000001
 40
0.0
 40
0.0
 40
0.0
 40
0.0
 40
1.0
 40
1.0
 40
1.0
 40
1.0
 10
145.639766116
 20
179.1278427681
 30
0.0
 10
147.8742098143
 20
180.3036314701
 30
0.0
 10
150.1095631056
 20
181.4776920549
 30
0.0
 10
152.345443432
 20
182.650746563
 30
0.0
  0
SPLINE
  5
7BF
100
AcDbEntity
  8
0
100
AcDbSpline
 62
7
  6
CONTINUOUS
 70
0
 71
3
 72
8
 73
4
 74
0
 42
0.0000001
 43
0.0000001
 44
0.0000000001
 40
0.0
 40
0.0
 40
0.0
 40
0.0
 40
1.0
 40
1.0
 40
1.0
 40
1.0
 10
82.774350818
 20
167.7215426954
 30
0.0
 10
82.9238022587
 20
167.9354227127
 30
0.0
 10
83.0733921774
 20
168.1492060296
 30
0.0
 10
83.2231164555
 20
168.362895139
 30
0.0
  0
SPLINE
  5
7C0
100
AcDbEntity
  8
0
100
AcDbSpline
 62
7
  6
CONTINUOUS
 70
0
 71
3
 72
9
 73
5
 74
0
 42
0.0000001
 43
0.0000001
 44
0.0000000001
 40
0.0
 40
0.0
 40
0.0
 40
0.0
 40
0.4991519886
 40
1.0
 40
1.0
 40
1.0
 40
1.0
 10
91.9334714593
 20
62.4010827055
 30
0.0
 10
91.7821239834
 20
63.512292772
 30
0.0
 10
91.183998374
 20
65.7019543039
 30
0.0
 10
90.1959587187
 20
67.7280625644
 30
0.0
 10
89.6474210014
 20
68.7105907161
 30
0.0
  0
LINE
  5
7C1
100
AcDbEntity
  8
0
100
AcDbLine
 62
7
  6
CONTINUOUS
 10
142.3310374474
 20
178.7597424118
 11
142.3633448325
 21
178.853984758
  0
SPLINE
  5
7C2
100
AcDbEntity
  8
0
100
AcDbSpline
 62
7
  6
CONTINUOUS
 70
0
 71
3
 72
9
 73
5
 74
0
 42
0.0000001
 43
0.0000001
 44
0.0000000001
 40
0.0
 40
0.0
 40
0.0
 40
0.0
 40
0.2629383707
 40
1.0
 40
1.0
 40
1.0
 40
1.0
 10
142.3633448325
 20
178.853984758
 30
0.0
 10
142.4324749737
 20
179.055296874
 30
0.0
 10
142.6979914741
 20
179.8200200426
 30
0.0
 10
142.9741039903
 20
180.581104772
 30
0.0
 10
143.1857599712
 20
181.1389601182
 30
0.0
  0
SPLINE
  5
7C3
100
AcDbEntity
  8
0
100
AcDbSpline
 62
7
  6
CONTINUOUS
 70
0
 71
3
 72
9
 73
5
 74
0
 42
0.0000001
 43
0.0000001
 44
0.0000000001
 40
0.0
 40
0.0
 40
0.0
 40
0.0
 40
0.2614384097
 40
1.0
 40
1.0
 40
1.0
 40
1.0
 10
149.9201963364
 20
169.3779660523
 30
0.0
 10
150.2534700868
 20
169.5747268441
 30
0.0
 10
151.5390709292
 20
170.3085524731
 30
0.0
 10
152.8676335427
 20
170.9693163911
 30
0.0
 10
153.8736673185
 20
171.3974254228
 30
0.0
  0
SPLINE
  5
7C4
100
AcDbEntity
  8
0
100
AcDbSpline
 62
7
  6
CONTINUOUS
 70
0
 71
3
 72
8
 73
4
 74
0
 42
0.0000001
 43
0.0000001
 44
0.0000000001
 40
0.0
 40
0.0
 40
0.0
 40
0.0
 40
1.0
 40
1.0
 40
1.0
 40
1.0
 10
140.4880486763
 20
177.7395759485
 30
0.0
 10
141.030426168
 20
177.3752879384
 30
0.0
 10
141.5729067319
 20
177.0111533423
 30
0.0
 10
142.1154903551
 20
176.6471724229
 30
0.0
  0
SPLINE
  5
7C5
100
AcDbEntity
  8
0
100
AcDbSpline
 62
7
  6
CONTINUOUS
 70
0
 71
3
 72
9
 73
5
 74
0
 42
0.0000001
 43
0.0000001
 44
0.0000000001
 40
0.0
 40
0.0
 40
0.0
 40
0.0
 40
0.261894867
 40
1.0
 40
1.0
 40
1.0
 40
1.0
 10
142.1154903551
 20
176.6471724229
 30
0.0
 10
142.4510994169
 20
176.8815632898
 30
0.0
 10
143.7446107485
 20
177.7588939887
 30
0.0
 10
145.0861442674
 20
178.5675556501
 30
0.0
 10
146.1069634163
 20
179.1050967278
 30
0.0
  0
LINE
  5
7C6
100
AcDbEntity
  8
0
100
AcDbLine
 62
7
  6
CONTINUOUS
 10
146.5973567516
 20
172.9046279087
 11
147.6160529557
 21
171.8700019904
  0
SPLINE
  5
7C7
100
AcDbEntity
  8
0
100
AcDbSpline
 62
7
  6
CONTINUOUS
 70
0
 71
3
 72
9
 73
5
 74
0
 42
0.0000001
 43
0.0000001
 44
0.0000000001
 40
0.0
 40
0.0
 40
0.0
 40
0.0
 40
0.2640014357
 40
1.0
 40
1.0
 40
1.0
 40
1.0
 10
147.6160529557
 20
171.8700019904
 30
0.0
 10
147.9091156886
 20
172.1299337017
 30
0.0
 10
149.0320477535
 20
173.0997064543
 30
0.0
 10
150.2056784431
 20
174.0124958557
 30
0.0
 10
151.104299842
 20
174.6330750386
 30
0.0
  0
SPLINE
  5
7C8
100
AcDbEntity
  8
0
100
AcDbSpline
 62
7
  6
CONTINUOUS
 70
0
 71
3
 72
9
 73
5
 74
0
 42
0.0000001
 43
0.0000001
 44
0.0000000001
 40
0.0
 40
0.0
 40
0.0
 40
0.0
 40
0.5008480114
 40
1.0
 40
1.0
 40
1.0
 40
1.0
 10
148.7806761834
 20
68.7105907161
 30
0.0
 10
148.2321384661
 20
67.7280625644
 30
0.0
 10
147.2440988108
 20
65.7019543039
 30
0.0
 10
146.6459732013
 20
63.512292772
 30
0.0
 10
146.4946257254
 20
62.4010827055
 30
0.0
  0
LINE
  5
7C9
100
AcDbEntity
  8
0
100
AcDbLine
 62
7
  6
CONTINUOUS
 10
149.1329724103
 20
170.5788898074
 11
149.9201963364
 21
169.3779660523
  0
SPLINE
  5
7CA
100
AcDbEntity
  8
BEZUGSACHSEN
100
AcDbSpline
 62
7
  6
CONTINUOUS
 70
0
 71
3
 72
8
 73
4
 74
0
 42
0.0000001
 43
0.0000001
 44
0.0000000001
 40
0.0
 40
0.0
 40
0.0
 40
0.0
 40
1.0
 40
1.0
 40
1.0
 40
1.0
 10
81.5143120764
 20
171.8107658865
 30
0.0
 10
82.7072878936
 20
171.6322257983
 30
0.0
 10
83.9001828539
 20
171.4531440828
 30
0.0
 10
85.092973207
 20
171.2733691211
 30
0.0
  0
SPLINE
  5
7CB
100
AcDbEntity
  8
0
100
AcDbSpline
 62
7
  6
CONTINUOUS
 70
0
 71
3
 72
8
 73
4
 74
0
 42
0.0000001
 43
0.0000001
 44
0.0000000001
 40
0.0
 40
0.0
 40
0.0
 40
0.0
 40
1.0
 40
1.0
 40
1.0
 40
1.0
 10
84.3562726642
 20
171.1375170575
 30
0.0
 10
83.4090168602
 20
171.2807062788
 30
0.0
 10
82.4616925151
 20
171.4234425638
 30
0.0
 10
81.5143120764
 20
171.5658048328
 30
0.0
  0
SPLINE
  5
7CC
100
AcDbEntity
  8
BEZUGSACHSEN
100
AcDbSpline
 62
7
  6
CONTINUOUS
 70
0
 71
3
 72
8
 73
4
 74
0
 42
0.0000001
 43
0.0000001
 44
0.0000000001
 40
0.0
 40
0.0
 40
0.0
 40
0.0
 40
1.0
 40
1.0
 40
1.0
 40
1.0
 10
85.092973207
 20
171.2733691211
 30
0.0
 10
85.2672702656
 20
171.5197803801
 30
0.0
 10
85.4417900683
 20
171.7660342353
 30
0.0
 10
85.6165332601
 20
172.0121293188
 30
0.0
  0
LINE
  5
7CD
100
AcDbEntity
  8
BEZUGSACHSEN
100
AcDbLine
 62
7
  6
CONTINUOUS
 10
81.6792390985
 20
172.5789230973
 11
81.6945773964
 21
173.1339570566
  0
SPLINE
  5
7CE
100
AcDbEntity
  8
0
100
AcDbSpline
 62
7
  6
CONTINUOUS
 70
0
 71
3
 72
9
 73
5
 74
0
 42
0.0000001
 43
0.0000001
 44
0.0000000001
 40
0.0
 40
0.0
 40
0.0
 40
0.0
 40
0.5010352187
 40
1.0
 40
1.0
 40
1.0
 40
1.0
 10
89.3724203279
 20
71.4479981051
 30
0.0
 10
89.6649458834
 20
72.2417749131
 30
0.0
 10
90.139830716
 20
73.8702531834
 30
0.0
 10
90.3118041103
 20
75.5624535358
 30
0.0
 10
90.3118041103
 20
76.4049204077
 30
0.0
  0
SPLINE
  5
7CF
100
AcDbEntity
  8
BEZUGSACHSEN
100
AcDbSpline
 62
7
  6
CONTINUOUS
 70
0
 71
3
 72
8
 73
4
 74
0
 42
0.0000001
 43
0.0000001
 44
0.0000000001
 40
0.0
 40
0.0
 40
0.0
 40
0.0
 40
1.0
 40
1.0
 40
1.0
 40
1.0
 10
82.774350818
 20
167.9675946775
 30
0.0
 10
80.5510133165
 20
169.0020174581
 30
0.0
 10
78.3275991008
 20
170.0362753577
 30
0.0
 10
76.104140046
 20
171.0704368375
 30
0.0
  0
LINE
  5
7D0
100
AcDbEntity
  8
0
100
AcDbLine
 62
7
  6
CONTINUOUS
 10
76.104140046
 20
170.8312569172
 11
82.2062960408
 21
167.9936476067
  0
SPLINE
  5
7D1
100
AcDbEntity
  8
BEZUGSACHSEN
100
AcDbSpline
 62
7
  6
CONTINUOUS
 70
0
 71
3
 72
8
 73
4
 74
0
 42
0.0000001
 43
0.0000001
 44
0.0000000001
 40
0.0
 40
0.0
 40
0.0
 40
0.0
 40
1.0
 40
1.0
 40
1.0
 40
1.0
 10
82.774350818
 20
167.9675946775
 30
0.0
 10
82.9237775469
 20
168.1824288304
 30
0.0
 10
83.0733656099
 20
168.39715086
 30
0.0
 10
83.2231164555
 20
168.6117592121
 30
0.0
  0
SPLINE
  5
7D2
100
AcDbEntity
  8
0
100
AcDbSpline
 62
7
  6
CONTINUOUS
 70
0
 71
3
 72
9
 73
5
 74
0
 42
0.0000001
 43
0.0000001
 44
0.0000000001
 40
0.0
 40
0.0
 40
0.0
 40
0.0
 40
0.4989647813
 40
1.0
 40
1.0
 40
1.0
 40
1.0
 10
148.1162930745
 20
76.4049204077
 30
0.0
 10
148.1162930745
 20
75.5624535358
 30
0.0
 10
148.2882664688
 20
73.8702531834
 30
0.0
 10
148.7631513014
 20
72.2417749131
 30
0.0
 10
149.0556768569
 20
71.4479981051
 30
0.0
  0
LINE
  5
7D3
100
AcDbEntity
  8
BEZUGSACHSEN
100
AcDbLine
 62
7
  6
CONTINUOUS
 10
78.6835936036
 20
173.4082263953
 11
79.0498957835
 21
173.6603287885
  0
LINE
  5
7D4
100
AcDbEntity
  8
0
100
AcDbLine
 62
7
  6
CONTINUOUS
 10
79.0498957835
 20
173.4141495771
 11
78.6835936036
 21
173.1627959519
  0
LINE
  5
7D5
100
AcDbEntity
  8
BEZUGSACHSEN
100
AcDbLine
 62
7
  6
CONTINUOUS
 10
79.0498957835
 20
173.6603287885
 11
79.4833231231
 21
173.7401956351
  0
LINE
  5
7D6
100
AcDbEntity
  8
0
100
AcDbLine
 62
7
  6
CONTINUOUS
 10
79.4833231231
 20
173.4935070576
 11
79.0498957835
 21
173.4141495771
  0
LINE
  5
7D7
100
AcDbEntity
  8
BEZUGSACHSEN
100
AcDbLine
 62
7
  6
CONTINUOUS
 10
79.4833231231
 20
173.7401956351
 11
79.9838754083
 21
173.6481216853
  0
LINE
  5
7D8
100
AcDbEntity
  8
0
100
AcDbLine
 62
7
  6
CONTINUOUS
 10
79.9838754083
 20
173.4011598364
 11
79.4833231231
 21
173.4935070576
  0
LINE
  5
7D9
100
AcDbEntity
  8
BEZUGSACHSEN
100
AcDbLine
 62
7
  6
CONTINUOUS
 10
79.9838754083
 20
173.6481216853
 11
80.4096338895
 21
173.450227256
  0
LINE
  5
7DA
100
AcDbEntity
  8
0
100
AcDbLine
 62
7
  6
CONTINUOUS
 10
80.4096338895
 20
173.203239893
 11
79.9838754083
 21
173.4011598364
  0
LINE
  5
7DB
100
AcDbEntity
  8
BEZUGSACHSEN
100
AcDbLine
 62
7
  6
CONTINUOUS
 10
80.7605977716
 20
173.1465232488
 11
80.4096338895
 21
173.450227256
  0
LINE
  5
7DC
100
AcDbEntity
  8
0
100
AcDbLine
 62
7
  6
CONTINUOUS
 10
80.4096338895
 20
173.203239893
 11
80.7605977716
 21
172.899766068
  0
LINE
  5
7DD
100
AcDbEntity
  8
BEZUGSACHSEN
100
AcDbLine
 62
7
  6
CONTINUOUS
 10
80.8948478768
 20
172.8028254298
 11
80.7605977716
 21
173.1465232488
  0
LINE
  5
7DE
100
AcDbEntity
  8
0
100
AcDbLine
 62
7
  6
CONTINUOUS
 10
80.7605977716
 20
172.899766068
 11
80.7942696331
 21
172.8137054719
  0
LINE
  5
7DF
100
AcDbEntity
  8
0
100
AcDbLine
 62
7
  6
CONTINUOUS
 10
80.7942696331
 20
172.8137054719
 11
80.8613946886
 21
172.6421075409
  0
LINE
  5
7E0
100
AcDbEntity
  8
BEZUGSACHSEN
100
AcDbLine
 62
7
  6
CONTINUOUS
 10
83.0405357356
 20
179.6440075012
 11
86.9724075437
 21
177.0298959316
  0
LINE
  5
7E1
100
AcDbEntity
  8
0
100
AcDbLine
 62
7
  6
CONTINUOUS
 10
86.9724075437
 20
176.7705340945
 11
83.0405357356
 21
179.384892668
  0
LINE
  5
7E2
100
AcDbEntity
  8
BEZUGSACHSEN
100
AcDbLine
 62
7
  6
CONTINUOUS
 10
87.3894003795
 20
176.5981144942
 11
86.9724075437
 21
177.0298959316
  0
LINE
  5
7E3
100
AcDbEntity
  8
0
100
AcDbLine
 62
7
  6
CONTINUOUS
 10
86.9724075437
 20
176.7705340945
 11
87.3894003795
 21
176.3389596544
  0
LINE
  5
7E4
100
AcDbEntity
  8
BEZUGSACHSEN
100
AcDbLine
 62
7
  6
CONTINUOUS
 10
87.5892137817
 20
176.1560317412
 11
87.3894003795
 21
176.5981144942
  0
LINE
  5
7E5
100
AcDbEntity
  8
0
100
AcDbLine
 62
7
  6
CONTINUOUS
 10
87.3894003795
 20
176.3389596544
 11
87.5394563225
 21
176.0073347498
  0
SPLINE
  5
7E6
100
AcDbEntity
  8
BEZUGSACHSEN
100
AcDbSpline
 62
7
  6
CONTINUOUS
 70
0
 71
3
 72
15
 73
11
 74
0
 42
0.0000001
 43
0.0000001
 44
0.0000000001
 40
0.0
 40
0.0
 40
0.0
 40
0.0
 40
0.121402058
 40
0.2449244877
 40
0.3714319489
 40
0.5
 40
0.6285680511
 40
0.7550755123
 40
0.878597942
 40
1.0
 40
1.0
 40
1.0
 40
1.0
 10
157.9140485924
 20
78.3294108951
 30
0.0
 10
157.9140485924
 20
78.6970206166
 30
0.0
 10
157.7542512418
 20
79.4474382593
 30
0.0
 10
157.0799088074
 20
80.3841571915
 30
0.0
 10
156.0824530744
 20
81.0047810136
 30
0.0
 10
154.9140485924
 20
81.2208499002
 30
0.0
 10
153.7456441104
 20
81.0047810136
 30
0.0
 10
152.7481883774
 20
80.3841571915
 30
0.0
 10
152.073845943
 20
79.4474382593
 30
0.0
 10
151.9140485924
 20
78.6970206166
 30
0.0
 10
151.9140485924
 20
78.3294108951
 30
0.0
  0
LINE
  5
7E7
100
AcDbEntity
  8
BEZUGSACHSEN
100
AcDbLine
 62
7
  6
CONTINUOUS
 10
84.2620506562
 20
174.1717969204
 11
80.3301788481
 21
176.7872200245
  0
LINE
  5
7E8
100
AcDbEntity
  8
0
100
AcDbLine
 62
7
  6
CONTINUOUS
 10
80.3301788481
 20
176.5347789021
 11
84.2620506562
 21
173.9199101019
  0
LINE
  5
7E9
100
AcDbEntity
  8
BEZUGSACHSEN
100
AcDbLine
 62
7
  6
CONTINUOUS
 10
84.2620506562
 20
174.1717969204
 11
84.9865688358
 21
173.8460033675
  0
LINE
  5
7EA
100
AcDbEntity
  8
0
100
AcDbLine
 62
7
  6
CONTINUOUS
 10
84.9865688358
 20
173.5939556949
 11
84.2620506562
 21
173.9199101019
  0
LINE
  5
7EB
100
AcDbEntity
  8
BEZUGSACHSEN
100
AcDbLine
 62
7
  6
CONTINUOUS
 10
84.9865688358
 20
173.8460033675
 11
85.6745976818
 21
173.7005491349
  0
LINE
  5
7EC
100
AcDbEntity
  8
0
100
AcDbLine
 62
7
  6
CONTINUOUS
 10
85.6745976818
 20
173.4480487059
 11
84.9865688358
 21
173.5939556949
  0
LINE
  5
7ED
100
AcDbEntity
  8
BEZUGSACHSEN
100
AcDbLine
 62
7
  6
CONTINUOUS
 10
85.6745976818
 20
173.7005491349
 11
86.5433164945
 21
173.7465496184
  0
LINE
  5
7EE
100
AcDbEntity
  8
0
100
AcDbLine
 62
7
  6
CONTINUOUS
 10
86.2678497271
 20
173.4788654325
 11
85.6745976818
 21
173.4480487059
  0
LINE
  5
7EF
100
AcDbEntity
  8
BEZUGSACHSEN
100
AcDbLine
 62
7
  6
CONTINUOUS
 10
86.5433164945
 20
173.7465496184
 11
87.1583666985
 21
173.9604205238
  0
LINE
  5
7F0
100
AcDbEntity
  8
BEZUGSACHSEN
100
AcDbLine
 62
7
  6
CONTINUOUS
 10
87.1583666985
 20
173.9604205238
 11
87.4229079382
 21
174.1401034638
  0
LINE
  5
7F1
100
AcDbEntity
  8
BEZUGSACHSEN
100
AcDbLine
 62
7
  6
CONTINUOUS
 10
87.7369271994
 20
174.3528249487
 11
87.4229079382
 21
174.1401034638
  0
LINE
  5
7F2
100
AcDbEntity
  8
BEZUGSACHSEN
100
AcDbLine
 62
7
  6
CONTINUOUS
 10
88.0983082556
 20
174.7332878595
 11
87.7369271994
 21
174.3528249487
  0
LINE
  5
7F3
100
AcDbEntity
  8
BEZUGSACHSEN
100
AcDbLine
 62
7
  6
CONTINUOUS
 10
88.3105027579
 20
175.0985170357
 11
88.4231996198
 21
175.2921276363
  0
LINE
  5
7F4
100
AcDbEntity
  8
BEZUGSACHSEN
100
AcDbLine
 62
7
  6
CONTINUOUS
 10
88.3105027579
 20
175.0985170357
 11
88.0983082556
 21
174.7332878595
  0
LINE
  5
7F5
100
AcDbEntity
  8
BEZUGSACHSEN
100
AcDbLine
 62
7
  6
CONTINUOUS
 10
88.4231996198
 20
175.2921276363
 11
88.5309115281
 21
175.8391837046
  0
LINE
  5
7F6
100
AcDbEntity
  8
BEZUGSACHSEN
100
AcDbLine
 62
7
  6
CONTINUOUS
 10
90.2719653136
 20
177.0129586598
 11
85.2095821328
 21
181.7103106576
  0
LINE
  5
7F7
100
AcDbEntity
  8
0
100
AcDbLine
 62
7
  6
CONTINUOUS
 10
85.2095821328
 20
181.4464504043
 11
89.8870381447
 21
177.1070722633
  0
LINE
  5
7F8
100
AcDbEntity
  8
BEZUGSACHSEN
100
AcDbLine
 62
7
  6
CONTINUOUS
 10
93.2434528934
 20
179.4751234347
 11
93.4317289888
 21
179.9698388319
  0
LINE
  5
7F9
100
AcDbEntity
  8
BEZUGSACHSEN
100
AcDbLine
 62
7
  6
CONTINUOUS
 10
93.2434528934
 20
179.4751234347
 11
93.2319475146
 21
179.4448588105
  0
LINE
  5
7FA
100
AcDbEntity
  8
BEZUGSACHSEN
100
AcDbLine
 62
7
  6
CONTINUOUS
 10
88.3641581791
 20
183.0700158837
 11
88.8899204558
 21
183.2938920612
  0
LINE
  5
7FB
100
AcDbEntity
  8
0
100
AcDbLine
 62
7
  6
CONTINUOUS
 10
88.8899204558
 20
183.0245951541
 11
88.3641581791
 21
182.8014823508
  0
LINE
  5
7FC
100
AcDbEntity
  8
BEZUGSACHSEN
100
AcDbLine
 62
7
  6
CONTINUOUS
 10
88.8899204558
 20
183.2938920612
 11
89.420067784
 21
183.3353051599
  0
LINE
  5
7FD
100
AcDbEntity
  8
0
100
AcDbLine
 62
7
  6
CONTINUOUS
 10
89.420067784
 20
183.0654318833
 11
88.8899204558
 21
183.0245951541
  0
LINE
  5
7FE
100
AcDbEntity
  8
BEZUGSACHSEN
100
AcDbLine
 62
7
  6
CONTINUOUS
 10
89.420067784
 20
183.3353051599
 11
89.9546004682
 21
183.194694727
  0
LINE
  5
7FF
100
AcDbEntity
  8
0
100
AcDbLine
 62
7
  6
CONTINUOUS
 10
89.9546004682
 20
182.9244239547
 11
89.420067784
 21
183.0654318833
  0
LINE
  5
800
100
AcDbEntity
  8
BEZUGSACHSEN
100
AcDbLine
 62
7
  6
CONTINUOUS
 10
89.9546004682
 20
183.194694727
 11
90.4935167063
 21
182.872361402
  0
LINE
  5
801
100
AcDbEntity
  8
0
100
AcDbLine
 62
7
  6
CONTINUOUS
 10
90.4935167063
 20
182.601869249
 11
89.9546004682
 21
182.9244239547
  0
LINE
  5
802
100
AcDbEntity
  8
BEZUGSACHSEN
100
AcDbLine
 62
7
  6
CONTINUOUS
 10
90.4935167063
 20
182.872361402
 11
92.1234207277
 21
181.3606861308
  0
LINE
  5
803
100
AcDbEntity
  8
0
100
AcDbLine
 62
7
  6
CONTINUOUS
 10
92.1234207277
 20
181.0900620629
 11
90.4935167063
 21
182.601869249
  0
LINE
  5
804
100
AcDbEntity
  8
BEZUGSACHSEN
100
AcDbLine
 62
7
  6
CONTINUOUS
 10
92.4537865531
 20
180.8768365552
 11
92.1234207277
 21
181.3606861308
  0
LINE
  5
805
100
AcDbEntity
  8
0
100
AcDbLine
 62
7
  6
CONTINUOUS
 10
92.1234207277
 20
181.0900620629
 11
92.4537865531
 21
180.6063793713
  0
LINE
  5
806
100
AcDbEntity
  8
BEZUGSACHSEN
100
AcDbLine
 62
7
  6
CONTINUOUS
 10
92.571215721
 20
180.4128817866
 11
92.4537865531
 21
180.8768365552
  0
LINE
  5
807
100
AcDbEntity
  8
0
100
AcDbLine
 62
7
  6
CONTINUOUS
 10
92.4537865531
 20
180.6063793713
 11
92.5419727018
 21
180.25827228
  0
SPLINE
  5
808
100
AcDbEntity
  8
0
100
AcDbSpline
 62
7
  6
CONTINUOUS
 70
0
 71
3
 72
11
 73
7
 74
0
 42
0.0000001
 43
0.0000001
 44
0.0000000001
 40
0.0
 40
0.0
 40
0.0
 40
0.0
 40
0.259775142
 40
0.5078483282
 40
0.7525205501
 40
1.0
 40
1.0
 40
1.0
 40
1.0
 10
90.3118041103
 20
90.2924141102
 30
0.0
 10
90.3118041103
 20
90.9999910163
 30
0.0
 10
90.5437741482
 20
92.3976222183
 30
0.0
 10
91.56643826
 20
94.214039023
 30
0.0
 10
93.0309603282
 20
95.6298848157
 30
0.0
 10
94.1767116944
 20
96.341012418
 30
0.0
 10
94.7743684154
 20
96.6527786071
 30
0.0
  0
LINE
  5
809
100
AcDbEntity
  8
BEZUGSACHSEN
100
AcDbLine
 62
7
  6
CONTINUOUS
 10
99.2140477402
 20
187.4362823025
 11
98.0067087348
 21
189.8080043058
  0
LINE
  5
80A
100
AcDbEntity
  8
0
100
AcDbLine
 62
7
  6
CONTINUOUS
 10
98.0067087348
 20
189.5252814017
 11
99.2140480394
 21
187.1537347459
  0
LINE
  5
80B
100
AcDbEntity
  8
BEZUGSACHSEN
100
AcDbLine
 62
7
  6
CONTINUOUS
 10
99.0801302892
 20
189.4716380286
 11
99.2140445584
 21
189.5235556425
  0
SPLINE
  5
80C
100
AcDbEntity
  8
0
100
AcDbSpline
 62
7
  6
CONTINUOUS
 70
0
 71
3
 72
11
 73
7
 74
0
 42
0.0000001
 43
0.0000001
 44
0.0000000001
 40
0.0
 40
0.0
 40
0.0
 40
0.0
 40
0.2474653374
 40
0.4921280839
 40
0.7402037388
 40
1.0
 40
1.0
 40
1.0
 40
1.0
 10
143.6537287693
 20
96.6527786071
 30
0.0
 10
144.2513516742
 20
96.3410300581
 30
0.0
 10
145.3970550292
 20
95.6299471772
 30
0.0
 10
146.8615534627
 20
94.2141651959
 30
0.0
 10
147.8843067853
 20
92.397751955
 30
0.0
 10
148.1162930745
 20
91.0000488549
 30
0.0
 10
148.1162930745
 20
90.2924141102
 30
0.0
  0
SPLINE
  5
80D
100
AcDbEntity
  8
0
100
AcDbSpline
 62
7
  6
CONTINUOUS
 70
0
 71
3
 72
9
 73
5
 74
0
 42
0.0000001
 43
0.0000001
 44
0.0000000001
 40
0.0
 40
0.0
 40
0.0
 40
0.0
 40
0.5052291864
 40
1.0
 40
1.0
 40
1.0
 40
1.0
 10
89.6474210014
 20
68.7105907161
 30
0.0
 10
89.416030911
 20
69.1250513278
 30
0.0
 10
89.0954711902
 20
70.0392235833
 30
0.0
 10
89.2116791519
 20
71.0118221359
 30
0.0
 10
89.3724203279
 20
71.4479981051
 30
0.0
  0
SPLINE
  5
80E
100
AcDbEntity
  8
0
100
AcDbSpline
 62
7
  6
CONTINUOUS
 70
0
 71
3
 72
9
 73
5
 74
0
 42
0.0000001
 43
0.0000001
 44
0.0000000001
 40
0.0
 40
0.0
 40
0.0
 40
0.0
 40
0.4947708136
 40
1.0
 40
1.0
 40
1.0
 40
1.0
 10
149.0556768569
 20
71.4479981051
 30
0.0
 10
149.2164180329
 20
71.0118221359
 30
0.0
 10
149.3326259946
 20
70.0392235833
 30
0.0
 10
149.0120662738
 20
69.1250513278
 30
0.0
 10
148.7806761834
 20
68.7105907161
 30
0.0
  0
SPLINE
  5
80F
100
AcDbEntity
  8
0
100
AcDbSpline
 62
7
  6
CONTINUOUS
 70
0
 71
3
 72
13
 73
9
 74
0
 42
0.0000001
 43
0.0000001
 44
0.0000000001
 40
0.0
 40
0.0
 40
0.0
 40
0.0
 40
0.1233236705
 40
0.248254937
 40
0.5
 40
0.751745063
 40
0.8766763295
 40
1.0
 40
1.0
 40
1.0
 40
1.0
 10
127.9196613014
 20
108.1307122314
 30
0.0
 10
127.3916605083
 20
108.7368838405
 30
0.0
 10
126.1865510519
 20
109.8408557095
 30
0.0
 10
123.3480998295
 20
111.4837049704
 30
0.0
 10
119.2140485924
 20
112.3555555861
 30
0.0
 10
115.0799973553
 20
111.4837049704
 30
0.0
 10
112.2415461328
 20
109.8408557095
 30
0.0
 10
111.0364366765
 20
108.7368838405
 30
0.0
 10
110.5084358833
 20
108.1307122314
 30
0.0
  0
ELLIPSE
  5
810
100
AcDbEntity
  8
RUNDUNGEN
100
AcDbEllipse
 62
7
  6
CONTINUOUS
 10
744.3221530837
 20
93.7883721044
 30
0.0
 11
-0.6309081816
 21
8.8719359882
 31
0.0
 40
0.5573507153
 41
-4.2390381249
 42
-3.5074078107
  0
ELLIPSE
  5
811
100
AcDbEntity
  8
BEZUGSACHSEN
100
AcDbEllipse
 62
7
  6
CONTINUOUS
 10
724.8597564127
 20
86.7046390287
 30
0.0
 11
-5.2194668206
 21
7.2018372255
 31
0.0
 40
0.5573507153
 41
-2.7757774965
 42
-2.0441471822
  0
ELLIPSE
  5
812
100
AcDbEntity
  8
BEZUGSACHSEN
100
AcDbEllipse
 62
7
  6
CONTINUOUS
 10
748.2601440225
 20
99.0607800443
 30
0.0
 11
21.568137241
 21
-4.9624148256
 31
0.0
 40
0.8993801471
 41
-2.566886172
 42
-2.4670944126
  0
ELLIPSE
  5
813
100
AcDbEntity
  8
RUNDUNGEN
100
AcDbEllipse
 62
7
  6
CONTINUOUS
 10
718.4540418399
 20
88.2122460504
 30
0.0
 11
13.3323729179
 21
17.6651616841
 31
0.0
 40
0.8993801471
 41
-0.674498241
 42
-0.5747064816
  0
ELLIPSE
  5
814
100
AcDbEntity
  8
RUNDUNGEN
100
AcDbEllipse
 62
7
  6
CONTINUOUS
 10
607.024954649
 20
93.7883721044
 30
0.0
 11
0.6309081816
 21
8.8719359882
 31
0.0
 40
0.5573507153
 41
-2.7757774965
 42
-2.0441471822
  0
ELLIPSE
  5
815
100
AcDbEntity
  8
BEZUGSACHSEN
100
AcDbEllipse
 62
7
  6
CONTINUOUS
 10
626.48735132
 20
86.7046390287
 30
0.0
 11
5.2194668206
 21
7.2018372255
 31
0.0
 40
0.5573507153
 41
-4.2390381249
 42
-3.5074078107
  0
ELLIPSE
  5
816
100
AcDbEntity
  8
BEZUGSACHSEN
100
AcDbEllipse
 62
7
  6
CONTINUOUS
 10
603.0869637102
 20
99.0607800443
 30
0.0
 11
21.568137241
 21
4.9624148256
 31
0.0
 40
0.8993801471
 41
-0.674498241
 42
-0.5747064816
  0
ELLIPSE
  5
817
100
AcDbEntity
  8
RUNDUNGEN
100
AcDbEllipse
 62
7
  6
CONTINUOUS
 10
632.8930658928
 20
88.2122460504
 30
0.0
 11
-13.3323729179
 21
17.6651616841
 31
0.0
 40
0.8993801471
 41
0.5747064816
 42
0.674498241
  0
ELLIPSE
  5
818
100
AcDbEntity
  8
KONSTRUKTIONSELEMENTE
100
AcDbEllipse
 62
7
  6
CONTINUOUS
 10
428.8519433098
 20
113.65966269
 30
0.0
 11
1.084557071
 21
4.0476220928
 31
0.0
 40
0.1583844403
 41
-4.2154724383
 42
-3.2972706863
  0
ELLIPSE
  5
819
100
AcDbEntity
  8
KONSTRUKTIONSELEMENTE
100
AcDbEllipse
 62
7
  6
CONTINUOUS
 10
432.3519433098
 20
107.5974848635
 30
0.0
 11
4.0476220928
 21
-1.084557071
 31
0.0
 40
0.1583844403
 41
-2.9859146209
 42
-2.0677128689
  0
ELLIPSE
  5
81A
100
AcDbEntity
  8
BEZUGSACHSEN
100
AcDbEllipse
 62
7
  6
CONTINUOUS
 10
67.8259915113
 20
99.0607800443
 30
0.0
 11
-2.2662362912
 21
20.0223961288
 31
0.0
 40
0.0437955536
 41
-4.393089683
 42
-4.2932979236
  0
ELLIPSE
  5
81B
100
AcDbEntity
  8
BEZUGSACHSEN
100
AcDbEllipse
 62
7
  6
CONTINUOUS
 10
170.6021056735
 20
99.0607800443
 30
0.0
 11
2.2662362912
 21
20.0223961288
 31
0.0
 40
0.0437955536
 41
-1.9898873836
 42
-1.8900956242
  0
ELLIPSE
  5
81C
100
AcDbEntity
  8
BEZUGSACHSEN
100
AcDbEllipse
 62
7
  6
CONTINUOUS
 10
170.2140485924
 20
86.7046390287
 30
0.0
 11
4.9357095573
 21
7.7504914031
 31
0.0
 40
0.1031201208
 41
-4.5573567146
 42
-3.8257264004
  0
ELLIPSE
  5
81D
100
AcDbEntity
  8
BEZUGSACHSEN
100
AcDbEllipse
 62
7
  6
CONTINUOUS
 10
68.2140485924
 20
86.7046390287
 30
0.0
 11
-4.9357095573
 21
7.7504914031
 31
0.0
 40
0.1031201208
 41
-2.4574589068
 42
-1.7258285925
  0
ELLIPSE
  5
81E
100
AcDbEntity
  8
0
100
AcDbEllipse
 62
7
  6
CONTINUOUS
 10
119.2140485924
 20
19.2220587896
 30
0.0
 11
-0.0
 21
83.5623892592
 31
0.0
 40
0.7778619134
 41
-0.3854704199
 42
-0.1739528877
  0
ELLIPSE
  5
81F
100
AcDbEntity
  8
0
100
AcDbEllipse
 62
7
  6
CONTINUOUS
 10
119.2140485924
 20
19.2220587896
 30
0.0
 11
0.0
 21
83.5623892592
 31
0.0
 40
0.7778619134
 41
0.1739528877
 42
0.3854704199
  0
ELLIPSE
  5
820
100
AcDbEntity
  8
RUNDUNGEN
100
AcDbEllipse
 62
7
  6
CONTINUOUS
 10
170.2140485924
 20
93.7883721044
 30
0.0
 11
4.9435850454
 21
8.8690817039
 31
0.0
 40
0.0844481154
 41
-2.7683552603
 42
-2.036724946
  0
ELLIPSE
  5
821
100
AcDbEntity
  8
RUNDUNGEN
100
AcDbEllipse
 62
7
  6
CONTINUOUS
 10
68.2140485924
 20
93.7883721044
 30
0.0
 11
-4.9435850454
 21
8.8690817039
 31
0.0
 40
0.0844481154
 41
-4.2464603611
 42
-3.5148300469
  0
ELLIPSE
  5
822
100
AcDbEntity
  8
RUNDUNGEN
100
AcDbEllipse
 62
7
  6
CONTINUOUS
 10
67.8259915113
 20
88.2122460504
 30
0.0
 11
-2.2861970735
 21
21.3502028582
 31
0.0
 40
0.0385687034
 41
-1.274974507
 42
-1.1751827477
  0
ELLIPSE
  5
823
100
AcDbEntity
  8
RUNDUNGEN
100
AcDbEllipse
 62
7
  6
CONTINUOUS
 10
170.6021056735
 20
88.2122460504
 30
0.0
 11
2.2861970735
 21
21.3502028582
 31
0.0
 40
0.0385687034
 41
1.1751827477
 42
1.274974507
  0
ENDSEC
  0
SECTION
  2
OBJECTS
  0
DICTIONARY
  5
C
100
AcDbDictionary
280
0
281
1
  3
ACAD_GROUP
350
D
  3
ACAD_MLINESTYLE
350
17
  3
ACAD_LAYOUT
350
1A
  3
ACAD_PLOTSETTINGS
350
19
  3
ACAD_PLOTSTYLENAME
350
E
  0
DICTIONARY
  5
D
102
{ACAD_REACTORS
330
C
102
}
100
AcDbDictionary
280
0
281
1
  0
ACDBDICTIONARYWDFLT
  5
E
102
{ACAD_REACTORS
330
C
102
}
100
AcDbDictionary
281
1
  3
Normal
350
F
100
AcDbDictionaryWithDefault
340
F
  0
DICTIONARY
  5
17
102
{ACAD_REACTORS
330
C
102
}
100
AcDbDictionary
280
0
281
1
  3
Standard
350
18
  0
DICTIONARY
  5
19
102
{ACAD_REACTORS
330
C
102
}
100
AcDbDictionary
281
1
  0
DICTIONARY
  5
1A
102
{ACAD_REACTORS
330
C
102
}
100
AcDbDictionary
281
1
  3
Model
350
824
  3
Layout1
350
825
  0
ACDBPLACEHOLDER
  5
F
102
{ACAD_REACTORS
330
E
102
}
  0
MLINESTYLE
  5
18
102
{ACAD_REACTORS
330
17
102
}
100
AcDbMlineStyle
  2
STANDARD
 70
0
  3

 62
256
 51
90.0
 52
90.0
 71
2
 49
0.5
 62
256
  6
BYLAYER
 49
-0.5
 62
256
  6
BYLAYER
  0
LAYOUT
  5
824
102
{ACAD_REACTORS
330
1A
102
}
100
AcDbPlotSettings
  1

  2
none_device
  4
ISO_A1_(594.00_x_841.00_MM)
  6

 40
0.0
 41
0.0
 42
0.0
 43
0.0
 44
841.0
 45
594.0
 46
0.0
 47
0.0
 48
0.0
 49
0.0
140
0.0
141
0.0
142
1.0
143
1.0
 70
1024
 72
1
 73
0
 74
0
  7

 75
0
147
1.0
148
0.0
149
0.0
100
AcDbLayout
  1
Model
 70
0
 71
0
 10
0.0
 20
0.0
 11
841.0
 21
594.0
 12
0.0
 22
0.0
 32
0.0
 14
0.0
 24
0.0
 34
0.0
 15
0.0
 25
0.0
 35
0.0
146
0.0
 13
0.0
 23
0.0
 33
0.0
 16
1.0
 26
0.0
 36
0.0
 17
0.0
 27
1.0
 37
0.0
 76
0
330
209
345
0
346
0
  0
LAYOUT
  5
825
102
{ACAD_REACTORS
330
1A
102
}
100
AcDbPlotSettings
  1

  2
none_device
  4
ISO_A1_(594.00_x_841.00_MM)
  6

 40
0.0
 41
0.0
 42
0.0
 43
0.0
 44
841.0
 45
594.0
 46
0.0
 47
0.0
 48
0.0
 49
0.0
140
0.0
141
0.0
142
1.0
143
1.0
 70
0
 72
1
 73
0
 74
0
  7

 75
0
147
1.0
148
0.0
149
0.0
100
AcDbLayout
  1
Layout1
 70
0
 71
1
 10
0.0
 20
0.0
 11
841.0
 21
594.0
 12
0.0
 22
0.0
 32
0.0
 14
0.0
 24
0.0
 34
0.0
 15
0.0
 25
0.0
 35
0.0
146
0.0
 13
0.0
 23
0.0
 33
0.0
 16
1.0
 26
0.0
 36
0.0
 17
0.0
 27
1.0
 37
0.0
 76
0
330
20A
345
0
346
0
  0
ENDSEC
  0
EOF
