999
DXF file: VAK-2-16_7100710_M34479-P-5.dxf
999
Pro/ENGINEER 2010140 by Parametric Technology Corporation
  0
SECTION
  2
HEADER
  9
$ACADVER
  1
AC1015
  9
$DWGCODEPAGE
  3
ANSI_1252
  9
$EXTMAX
 10
594.0
 20
420.0
 30
0.0
  9
$EXTMIN
 10
0.0
 20
0.0
 30
0.0
  9
$LIMMIN
 10
0.0
 20
0.0
  9
$LIMMAX
 10
594.0
 20
420.0
  9
$VIEWCTR
 10
297.0
 20
210.0
  9
$VIEWSIZE
 40
420.0
  9
$CLAYER
  8
0
  9
$LTSCALE
 40
32.67
  9
$CELTYPE
  6
BYLAYER
  9
$DIMSCALE
 40
1.0
  9
$DIMASZ
 40
3.5
  9
$DIMEXO
 40
3.7125
  9
$DIMDLI
 40
22.572
  9
$DIMEXE
 40
10.692
  9
$DIMCEN
 40
5.346
  9
$DIMLFAC
 40
1.0
  9
$DIMBLK
  1
_FILLED
  9
$DIMTXT
 40
3.5
  9
$DIMTOL
 70
1
  9
$DIMLIM
 70
0
  9
$DIMTFAC
 40
1.0
  9
$DIMTP
 40
0.005
  9
$DIMTM
 40
0.005
  9
$PDMODE
 70
3
  9
$PDSIZE
 40
0.3125
  9
$HANDSEED
  5
73B
  9
$TILEMODE
 70
1
  9
$MEASUREMENT
 70
1
  9
$INSUNITS
 70
4
  0
ENDSEC
  0
SECTION
  2
CLASSES
  0
CLASS
  1
ACDBDICTIONARYWDFLT
  2
AcDbDictionaryWithDefault
  3
AutoCAD 2000
 90
0
280
0
281
0
  0
CLASS
  1
ACDBPLACEHOLDER
  2
AcDbPlaceHolder
  3
AutoCAD 2000
 90
0
280
0
281
0
  0
CLASS
  1
LAYOUT
  2
AcDbLayout
  3
AutoCAD 2000
 90
0
280
0
281
0
  0
ENDSEC
  0
SECTION
  2
TABLES
  0
TABLE
  2
VPORT
  5
8
100
AcDbSymbolTable
 70
2
  0
VPORT
  5
1F4
100
AcDbSymbolTableRecord
100
AcDbViewportTableRecord
  2
*ACTIVE
 70
0
 10
0.0
 20
0.0
 11
1.0
 21
1.0
 12
297.0
 22
210.0
 13
0.0
 23
0.0
 14
1.0
 24
1.0
 15
0.0
 25
0.0
 16
0.0
 26
0.0
 36
1.0
 17
0.0
 27
0.0
 37
0.0
 40
420.0
 41
1.4142857143
 42
50.0
 43
0.0
 44
0.0
 50
0.0
 51
0.0
 71
0
 72
100
 73
1
 74
1
 75
0
 76
0
 77
0
 78
0
  0
ENDTAB
  0
TABLE
  2
LTYPE
  5
5
100
AcDbSymbolTable
 70
6
  0
LTYPE
  5
14
100
AcDbSymbolTableRecord
100
AcDbLinetypeTableRecord
  2
BYBLOCK
 70
0
  3

 72
65
 73
0
 40
0.0
  0
LTYPE
  5
15
100
AcDbSymbolTableRecord
100
AcDbLinetypeTableRecord
  2
BYLAYER
 70
0
  3

 72
65
 73
0
 40
0.0
  0
LTYPE
  5
16
100
AcDbSymbolTableRecord
100
AcDbLinetypeTableRecord
  2
CONTINUOUS
 70
64
  3
Solid line
 72
65
 73
0
 40
0.0
  0
LTYPE
  5
1F5
100
AcDbSymbolTableRecord
100
AcDbLinetypeTableRecord
  2
CENTER
 70
64
  3
____ _ ____ _ ____ _ ____ _ ____ _ ____ _ ____
 72
65
 73
4
 40
0.6
 49
0.375
 74
0
 49
-0.075
 74
0
 49
0.075
 74
0
 49
-0.075
 74
0
  0
LTYPE
  5
1F6
100
AcDbSymbolTableRecord
100
AcDbLinetypeTableRecord
  2
HIDDEN
 70
64
  3
- - - - - - - - - - - - - - - - - - - -
 72
65
 73
2
 40
0.2
 49
0.1
 74
0
 49
-0.1
 74
0
  0
LTYPE
  5
1F7
100
AcDbSymbolTableRecord
100
AcDbLinetypeTableRecord
  2
PHANTOM
 70
64
  3
_____ _ _ _____ _ _ _____ _ _ _____
 72
65
 73
6
 40
0.8
 49
0.45
 74
0
 49
-0.05
 74
0
 49
0.1
 74
0
 49
-0.05
 74
0
 49
0.1
 74
0
 49
-0.05
 74
0
  0
LTYPE
  5
1F8
100
AcDbSymbolTableRecord
100
AcDbLinetypeTableRecord
  2
DOT
 70
64
  3
. . . . . . . . . . . . . . . . . . . .
 72
65
 73
2
 40
0.2
 49
0.1
 74
0
 49
-0.1
 74
0
  0
LTYPE
  5
1F9
100
AcDbSymbolTableRecord
100
AcDbLinetypeTableRecord
  2
DASHED
 70
64
  3
- - - - - - - - - - - - - - - - - - - -
 72
65
 73
2
 40
0.2
 49
0.1
 74
0
 49
-0.1
 74
0
  0
ENDTAB
  0
TABLE
  2
LAYER
  5
2
100
AcDbSymbolTable
 70
36
  0
LAYER
  5
10
100
AcDbSymbolTableRecord
100
AcDbLayerTableRecord
  2
0
 70
0
 62
7
  6
CONTINUOUS
370
-3
390
F
  0
LAYER
  5
1FA
100
AcDbSymbolTableRecord
100
AcDbLayerTableRecord
  2
DEFAULT_1
 70
0
 62
7
  6
CENTER
370
-3
390
F
  0
LAYER
  5
1FB
100
AcDbSymbolTableRecord
100
AcDbLayerTableRecord
  2
DEFAULT_2
 70
0
 62
8
  6
HIDDEN
370
-3
390
F
  0
LAYER
  5
1FC
100
AcDbSymbolTableRecord
100
AcDbLayerTableRecord
  2
DEFAULT_3
 70
0
 62
7
  6
PHANTOM
370
-3
390
F
  0
LAYER
  5
1FD
100
AcDbSymbolTableRecord
100
AcDbLayerTableRecord
  2
AUSFORMSCHRAEGEN
 70
0
 62
7
  6
CONTINUOUS
370
-3
390
F
  0
LAYER
  5
1FE
100
AcDbSymbolTableRecord
100
AcDbLayerTableRecord
  2
BEZUGSACHSEN
 70
0
 62
7
  6
CONTINUOUS
370
-3
390
F
  0
LAYER
  5
1FF
100
AcDbSymbolTableRecord
100
AcDbLayerTableRecord
  2
BEZUGSEBENEN
 70
0
 62
7
  6
CONTINUOUS
370
-3
390
F
  0
LAYER
  5
200
100
AcDbSymbolTableRecord
100
AcDbLayerTableRecord
  2
BG_STARTBEZUEGE
 70
0
 62
7
  6
CONTINUOUS
370
-3
390
F
  0
LAYER
  5
201
100
AcDbSymbolTableRecord
100
AcDbLayerTableRecord
  2
FASEN
 70
0
 62
7
  6
CONTINUOUS
370
-3
390
F
  0
LAYER
  5
202
100
AcDbSymbolTableRecord
100
AcDbLayerTableRecord
  2
FLAECHEN
 70
0
 62
7
  6
CONTINUOUS
370
-3
390
F
  0
LAYER
  5
203
100
AcDbSymbolTableRecord
100
AcDbLayerTableRecord
  2
HILFEN
 70
0
 62
7
  6
CONTINUOUS
370
-3
390
F
  0
LAYER
  5
204
100
AcDbSymbolTableRecord
100
AcDbLayerTableRecord
  2
KONSTRUKTIONSELEMENTE
 70
0
 62
7
  6
CONTINUOUS
370
-3
390
F
  0
LAYER
  5
205
100
AcDbSymbolTableRecord
100
AcDbLayerTableRecord
  2
PLATZIERUNG
 70
0
 62
7
  6
CONTINUOUS
370
-3
390
F
  0
LAYER
  5
206
100
AcDbSymbolTableRecord
100
AcDbLayerTableRecord
  2
PLAZIERUNG
 70
0
 62
7
  6
CONTINUOUS
370
-3
390
F
  0
LAYER
  5
207
100
AcDbSymbolTableRecord
100
AcDbLayerTableRecord
  2
RUNDUNGEN
 70
0
 62
7
  6
CONTINUOUS
370
-3
390
F
  0
LAYER
  5
208
100
AcDbSymbolTableRecord
100
AcDbLayerTableRecord
  2
TEIL_STARTBEZUEGE
 70
0
 62
7
  6
CONTINUOUS
370
-3
390
F
  0
LAYER
  5
209
100
AcDbSymbolTableRecord
100
AcDbLayerTableRecord
  2
T_STARTBEZUEGE
 70
0
 62
7
  6
CONTINUOUS
370
-3
390
F
  0
ENDTAB
  0
TABLE
  2
STYLE
  5
3
100
AcDbSymbolTable
 70
1
  0
STYLE
  5
11
100
AcDbSymbolTableRecord
100
AcDbTextStyleTableRecord
  2
STANDARD
 70
0
 40
0.0
 41
0.7
 50
0.0
 71
0
 42
0.2
  3
txt
  4

  0
STYLE
  5
20A
100
AcDbSymbolTableRecord
100
AcDbTextStyleTableRecord
  2
TEXTSTYLE_1
 70
0
 40
0.0
 41
0.8
 50
0.0
 71
0
 42
0.2
  3
gdt
  4

  0
ENDTAB
  0
TABLE
  2
VIEW
  5
6
100
AcDbSymbolTable
 70
0
  0
ENDTAB
  0
TABLE
  2
UCS
  5
7
100
AcDbSymbolTable
 70
0
  0
ENDTAB
  0
TABLE
  2
APPID
  5
9
100
AcDbSymbolTable
 70
1
  0
APPID
  5
20B
100
AcDbSymbolTableRecord
100
AcDbRegAppTableRecord
  2
ACAD
 70
0
  0
ENDTAB
  0
TABLE
  2
BLOCK_RECORD
  5
1
100
AcDbSymbolTable
 70
0
  0
BLOCK_RECORD
  5
20C
100
AcDbSymbolTableRecord
100
AcDbBlockTableRecord
  2
*Model_Space
  0
BLOCK_RECORD
  5
20D
100
AcDbSymbolTableRecord
100
AcDbBlockTableRecord
  2
*Paper_Space
  0
ENDTAB
  0
TABLE
  2
DIMSTYLE
  5
A
100
AcDbSymbolTable
 70
1
100
AcDbDimStyleTable
 71
0
  0
DIMSTYLE
105
20E
100
AcDbSymbolTableRecord
100
AcDbDimStyleTableRecord
  2
STANDARD
 70
0
  3

  4

 40
1.0
 41
3.5
 42
0.0625
 43
0.38
 44
0.18
 45
0.0
 46
0.0
 47
0.005
 48
0.005
140
3.5
141
0.09
142
0.0
143
25.4
144
1.0
145
0.0
146
1.0
147
0.09
 71
1.0
 72
0.0
 73
0
 74
0
 75
0
 76
0
 77
1
 78
8
170
0
171
2
172
0
173
0
174
0
175
0
176
0
177
0
178
5
270
2
271
3
272
3
273
2
274
2
275
0
280
0
281
0
282
0
283
1
284
8
285
0
286
0
287
3
288
0
340
11
  0
ENDTAB
  0
ENDSEC
  0
SECTION
  2
BLOCKS
  0
BLOCK
  5
20
100
AcDbEntity
  8
0
100
AcDbBlockBegin
  2
*Model_Space
 70
0
 10
0.0
 20
0.0
 30
0.0
  3
*Model_Space
  1

  0
ENDBLK
  5
21
100
AcDbEntity
  8
0
100
AcDbBlockEnd
  0
BLOCK
  5
1C
100
AcDbEntity
  8
0
100
AcDbBlockBegin
  2
*Paper_Space
 70
0
 10
0.0
 20
0.0
 30
0.0
  3
*Paper_Space
  1

  0
ENDBLK
  5
1D
100
AcDbEntity
  8
0
100
AcDbBlockEnd
  0
ENDSEC
  0
SECTION
  2
ENTITIES
  0
MTEXT
  5
20F
100
AcDbEntity
  8
0
100
AcDbMText
 62
5
  6
CONTINUOUS
  7
STANDARD
 71
1
 72
1
 10
558.0485816932
 20
211.0628299335
 30
0.0
 11
0.0
 21
1.0
 31
0.0
 44
0.9
  1
RUD VAK-2-16
 40
8.0
 41
76.0
  0
MTEXT
  5
210
100
AcDbEntity
  8
0
100
AcDbMText
 62
5
  6
CONTINUOUS
  7
STANDARD
 71
1
 72
1
 10
110.9235679087
 20
214.712168994
 30
0.0
 11
0.0
 21
1.0
 31
0.0
 44
0.9
  1
RUD VAK-2-16
 40
8.0
 41
76.0
  0
LINE
  5
211
100
AcDbEntity
  8
0
100
AcDbLine
 62
7
  6
CONTINUOUS
 10
0.0
 20
0.0
 11
0.0
 21
420.0
  0
LINE
  5
212
100
AcDbEntity
  8
0
100
AcDbLine
 62
7
  6
CONTINUOUS
 10
0.0
 20
0.0
 11
594.0
 21
0.0
  0
LINE
  5
213
100
AcDbEntity
  8
0
100
AcDbLine
 62
7
  6
CONTINUOUS
 10
0.0
 20
420.0
 11
594.0
 21
420.0
  0
LINE
  5
214
100
AcDbEntity
  8
0
100
AcDbLine
 62
7
  6
CONTINUOUS
 10
594.0
 20
0.0
 11
594.0
 21
420.0
  0
LINE
  5
215
100
AcDbEntity
  8
KONSTRUKTIONSELEMENTE
100
AcDbLine
 62
7
  6
CONTINUOUS
 10
197.362765457
 20
40.7248984285
 11
199.862765457
 21
36.3947714096
  0
LINE
  5
216
100
AcDbEntity
  8
KONSTRUKTIONSELEMENTE
100
AcDbLine
 62
7
  6
CONTINUOUS
 10
227.5755783781
 20
52.3947714096
 11
227.1755783781
 21
53.0875917327
  0
LINE
  5
217
100
AcDbEntity
  8
KONSTRUKTIONSELEMENTE
100
AcDbLine
 62
7
  6
CONTINUOUS
 10
225.4755783781
 20
56.0320781055
 11
225.0755783781
 21
56.7248984285
  0
LINE
  5
218
100
AcDbEntity
  8
KONSTRUKTIONSELEMENTE
100
AcDbLine
 62
7
  6
CONTINUOUS
 10
287.0285139568
 20
86.7199397701
 11
286.6285139568
 21
87.4127600931
  0
LINE
  5
219
100
AcDbEntity
  8
KONSTRUKTIONSELEMENTE
100
AcDbLine
 62
7
  6
CONTINUOUS
 10
284.5285139568
 20
91.050066789
 11
284.9285139568
 21
90.357246466
  0
LINE
  5
21A
100
AcDbEntity
  8
KONSTRUKTIONSELEMENTE
100
AcDbLine
 62
7
  6
CONTINUOUS
 10
300.7292593063
 20
98.3120010257
 11
301.4179061612
 21
97.1192296846
  0
LWPOLYLINE
  5
21B
100
AcDbEntity
  8
RUNDUNGEN
100
AcDbPolyline
 62
7
  6
CONTINUOUS
 90
3
 70
0
 10
535.5456259681
 20
120.5571458983
 10
535.5992231584
 20
120.5561880195
 10
535.6161495831
 20
120.5554831458
  0
LINE
  5
21C
100
AcDbEntity
  8
0
100
AcDbLine
 62
7
  6
CONTINUOUS
 10
456.7376878289
 20
95.6865618042
 11
445.9173501904
 21
99.6248426293
  0
LINE
  5
21D
100
AcDbEntity
  8
BEZUGSACHSEN
100
AcDbLine
 62
7
  6
CONTINUOUS
 10
330.7306776398
 20
117.7248984285
 11
333.2306776398
 21
113.3947714096
  0
LINE
  5
21E
100
AcDbEntity
  8
KONSTRUKTIONSELEMENTE
100
AcDbLine
 62
7
  6
CONTINUOUS
 10
328.5051966927
 20
123.0795445003
 11
331.0051966927
 21
118.7494174814
  0
LINE
  5
21F
100
AcDbEntity
  8
KONSTRUKTIONSELEMENTE
100
AcDbLine
 62
7
  6
CONTINUOUS
 10
328.9382093946
 20
123.3295445003
 11
331.4382093946
 21
118.9994174814
  0
LINE
  5
220
100
AcDbEntity
  8
0
100
AcDbLine
 62
7
  6
CONTINUOUS
 10
465.7893548504
 20
121.2431918289
 11
455.4108560929
 21
125.020656453
  0
LINE
  5
221
100
AcDbEntity
  8
0
100
AcDbLine
 62
7
  6
CONTINUOUS
 10
525.3958899642
 20
58.3118922267
 11
521.6281164215
 21
61.231651402
  0
LINE
  5
222
100
AcDbEntity
  8
BEZUGSACHSEN
100
AcDbLine
 62
7
  6
CONTINUOUS
 10
462.0773977572
 20
153.3762827868
 11
461.480248145
 21
153.5936274711
  0
LINE
  5
223
100
AcDbEntity
  8
BEZUGSACHSEN
100
AcDbLine
 62
7
  6
CONTINUOUS
 10
462.3158639839
 20
153.4502412082
 11
461.7185543852
 21
153.6676441228
  0
LINE
  5
224
100
AcDbEntity
  8
BEZUGSACHSEN
100
AcDbLine
 62
7
  6
CONTINUOUS
 10
462.6272670386
 20
153.7362083623
 11
462.0299965651
 21
153.9535970364
  0
LINE
  5
225
100
AcDbEntity
  8
BEZUGSACHSEN
100
AcDbLine
 62
7
  6
CONTINUOUS
 10
462.0245936171
 20
154.3092701385
 11
461.6900259267
 21
154.4310428191
  0
LINE
  5
226
100
AcDbEntity
  8
0
100
AcDbLine
 62
7
  6
CONTINUOUS
 10
475.8442677258
 20
149.3945561426
 11
465.8036941352
 21
153.0490260645
  0
LINE
  5
227
100
AcDbEntity
  8
BEZUGSACHSEN
100
AcDbLine
 62
7
  6
CONTINUOUS
 10
462.2235506206
 20
154.5148245511
 11
461.7411305882
 21
154.6904110833
  0
LINE
  5
228
100
AcDbEntity
  8
BEZUGSACHSEN
100
AcDbLine
 62
7
  6
CONTINUOUS
 10
463.0118545663
 20
154.234093946
 11
462.4148088162
 21
154.4514008275
  0
LINE
  5
229
100
AcDbEntity
  8
BEZUGSACHSEN
100
AcDbLine
 62
7
  6
CONTINUOUS
 10
463.3093398147
 20
154.7232337982
 11
462.7125895779
 21
154.9404331217
  0
LINE
  5
22A
100
AcDbEntity
  8
BEZUGSACHSEN
100
AcDbLine
 62
7
  6
CONTINUOUS
 10
462.6050421087
 20
155.210909104
 11
462.0097759346
 21
155.4275682728
  0
LINE
  5
22B
100
AcDbEntity
  8
BEZUGSACHSEN
100
AcDbLine
 62
7
  6
CONTINUOUS
 10
463.8218128046
 20
154.977495541
 11
463.2248463979
 21
155.1947735439
  0
LINE
  5
22C
100
AcDbEntity
  8
BEZUGSACHSEN
100
AcDbLine
 62
7
  6
CONTINUOUS
 10
462.7839110637
 20
155.5834983623
 11
462.1889364037
 21
155.8000514287
  0
LINE
  5
22D
100
AcDbEntity
  8
BEZUGSACHSEN
100
AcDbLine
 62
7
  6
CONTINUOUS
 10
464.0455796253
 20
155.2549111954
 11
463.4487174936
 21
155.4721512453
  0
LINE
  5
22E
100
AcDbEntity
  8
BEZUGSACHSEN
100
AcDbLine
 62
7
  6
CONTINUOUS
 10
463.3457163685
 20
155.5459649544
 11
463.0864244495
 21
155.6403394949
  0
LINE
  5
22F
100
AcDbEntity
  8
BEZUGSACHSEN
100
AcDbLine
 62
7
  6
CONTINUOUS
 10
463.0261033043
 20
156.0129015266
 11
462.431411052
 21
156.229351805
  0
LINE
  5
230
100
AcDbEntity
  8
BEZUGSACHSEN
100
AcDbLine
 62
7
  6
CONTINUOUS
 10
464.4060110813
 20
155.8010021987
 11
463.8094262167
 21
156.0181413317
  0
LINE
  5
231
100
AcDbEntity
  8
BEZUGSACHSEN
100
AcDbLine
 62
7
  6
CONTINUOUS
 10
463.6713196052
 20
156.103697353
 11
463.3381406277
 21
156.2249645835
  0
LINE
  5
232
100
AcDbEntity
  8
BEZUGSACHSEN
100
AcDbLine
 62
7
  6
CONTINUOUS
 10
463.2042385679
 20
156.4262062511
 11
462.6974527087
 21
156.610661219
  0
LINE
  5
233
100
AcDbEntity
  8
BEZUGSACHSEN
100
AcDbLine
 62
7
  6
CONTINUOUS
 10
463.2845418468
 20
156.7558383645
 11
462.9240880227
 21
156.8870328273
  0
LINE
  5
234
100
AcDbEntity
  8
BEZUGSACHSEN
100
AcDbLine
 62
7
  6
CONTINUOUS
 10
463.9344605756
 20
156.6043079204
 11
463.5300079806
 21
156.7515166262
  0
LINE
  5
235
100
AcDbEntity
  8
BEZUGSACHSEN
100
AcDbLine
 62
7
  6
CONTINUOUS
 10
463.3055206533
 20
156.9877877943
 11
463.1110459135
 21
157.058570811
  0
LINE
  5
236
100
AcDbEntity
  8
BEZUGSACHSEN
100
AcDbLine
 62
7
  6
CONTINUOUS
 10
464.7802364261
 20
156.5007664514
 11
464.1840836185
 21
156.7177483284
  0
LINE
  5
237
100
AcDbEntity
  8
BEZUGSACHSEN
100
AcDbLine
 62
7
  6
CONTINUOUS
 10
463.0315261247
 20
157.3152977263
 11
462.5563720885
 21
157.4882396522
  0
LINE
  5
238
100
AcDbEntity
  8
BEZUGSACHSEN
100
AcDbLine
 62
7
  6
CONTINUOUS
 10
464.136125389
 20
157.0474322821
 11
463.6620271096
 21
157.2199899439
  0
LINE
  5
239
100
AcDbEntity
  8
BEZUGSACHSEN
100
AcDbLine
 62
7
  6
CONTINUOUS
 10
465.0321633028
 20
157.085320312
 11
464.4364280432
 21
157.302150214
  0
LINE
  5
23A
100
AcDbEntity
  8
BEZUGSACHSEN
100
AcDbLine
 62
7
  6
CONTINUOUS
 10
464.2437242973
 20
157.4044837678
 11
463.6493178165
 21
157.6208300339
  0
LINE
  5
23B
100
AcDbEntity
  8
BEZUGSACHSEN
100
AcDbLine
 62
7
  6
CONTINUOUS
 10
464.315305171
 20
157.5381538544
 11
463.7739518023
 21
157.7351903669
  0
LINE
  5
23C
100
AcDbEntity
  8
BEZUGSACHSEN
100
AcDbLine
 62
7
  6
CONTINUOUS
 10
465.1855020834
 20
157.5066151225
 11
464.5900966586
 21
157.7233249745
  0
LINE
  5
23D
100
AcDbEntity
  8
BEZUGSACHSEN
100
AcDbLine
 62
7
  6
CONTINUOUS
 10
464.3682310359
 20
157.8787801113
 11
464.108206965
 21
157.9734211333
  0
LINE
  5
23E
100
AcDbEntity
  8
BEZUGSACHSEN
100
AcDbLine
 62
7
  6
CONTINUOUS
 10
465.3169247904
 20
157.9753055201
 11
464.7219307876
 21
158.1918656267
  0
LINE
  5
23F
100
AcDbEntity
  8
BEZUGSACHSEN
100
AcDbLine
 62
7
  6
CONTINUOUS
 10
465.326047223
 20
158.3287807231
 11
464.7314721343
 21
158.5451883574
  0
LINE
  5
240
100
AcDbEntity
  8
BEZUGSACHSEN
100
AcDbLine
 62
7
  6
CONTINUOUS
 10
465.1956248024
 20
158.4146343509
 11
464.601315307
 21
158.6309453171
  0
LINE
  5
241
100
AcDbEntity
  8
BEZUGSACHSEN
100
AcDbLine
 62
7
  6
CONTINUOUS
 10
466.354754133
 20
160.7144654323
 11
465.7618575078
 21
160.9302621559
  0
LINE
  5
242
100
AcDbEntity
  8
BEZUGSACHSEN
100
AcDbLine
 62
7
  6
CONTINUOUS
 10
466.565861904
 20
161.2997030354
 11
465.9734258736
 21
161.5153321162
  0
LINE
  5
243
100
AcDbEntity
  8
BEZUGSACHSEN
100
AcDbLine
 62
7
  6
CONTINUOUS
 10
465.7565314004
 20
164.0624357715
 11
465.1697548126
 21
164.2760049836
  0
LINE
  5
244
100
AcDbEntity
  8
BEZUGSACHSEN
100
AcDbLine
 62
7
  6
CONTINUOUS
 10
465.9832537636
 20
164.2066137491
 11
465.3962123656
 21
164.4202793443
  0
LINE
  5
245
100
AcDbEntity
  8
BEZUGSACHSEN
100
AcDbLine
 62
7
  6
CONTINUOUS
 10
466.2818287852
 20
164.5649480386
 11
465.6947414583
 21
164.7786303505
  0
LINE
  5
246
100
AcDbEntity
  8
BEZUGSACHSEN
100
AcDbLine
 62
7
  6
CONTINUOUS
 10
465.8010350347
 20
165.1774944668
 11
465.633840821
 21
165.2383481839
  0
LINE
  5
247
100
AcDbEntity
  8
BEZUGSACHSEN
100
AcDbLine
 62
7
  6
CONTINUOUS
 10
466.2383564783
 20
165.7392479569
 11
465.8651357011
 21
165.8750892107
  0
LWPOLYLINE
  5
248
100
AcDbEntity
  8
0
100
AcDbPolyline
 62
7
  6
CONTINUOUS
 90
3
 70
0
 10
469.2767323816
 20
112.490235416
 10
469.3171745545
 20
112.4550499805
 10
469.3296878772
 20
112.4436299078
  0
LINE
  5
249
100
AcDbEntity
  8
BEZUGSACHSEN
100
AcDbLine
 62
7
  6
CONTINUOUS
 10
466.5078111698
 20
166.0983652938
 11
466.0514620916
 21
166.2644627747
  0
LINE
  5
24A
100
AcDbEntity
  8
BEZUGSACHSEN
100
AcDbLine
 62
7
  6
CONTINUOUS
 10
467.4902520595
 20
166.1767739636
 11
466.9032533726
 21
166.3904240132
  0
LINE
  5
24B
100
AcDbEntity
  8
BEZUGSACHSEN
100
AcDbLine
 62
7
  6
CONTINUOUS
 10
466.6907874739
 20
166.5456300655
 11
466.2931220578
 21
166.6903684402
  0
LINE
  5
24C
100
AcDbEntity
  8
BEZUGSACHSEN
100
AcDbLine
 62
7
  6
CONTINUOUS
 10
466.2173259754
 20
166.7678603863
 11
465.994652407
 21
166.8489069371
  0
LINE
  5
24D
100
AcDbEntity
  8
BEZUGSACHSEN
100
AcDbLine
 62
7
  6
CONTINUOUS
 10
466.9459170511
 20
167.0233067115
 11
466.5890875371
 21
167.1531820333
  0
LINE
  5
24E
100
AcDbEntity
  8
BEZUGSACHSEN
100
AcDbLine
 62
7
  6
CONTINUOUS
 10
467.8581069559
 20
167.2444281949
 11
467.2720630046
 21
167.4577307491
  0
LINE
  5
24F
100
AcDbEntity
  8
BEZUGSACHSEN
100
AcDbLine
 62
7
  6
CONTINUOUS
 10
468.2153881122
 20
167.1438395261
 11
467.6284370547
 21
167.35747224
  0
LINE
  5
250
100
AcDbEntity
  8
BEZUGSACHSEN
100
AcDbLine
 62
7
  6
CONTINUOUS
 10
467.5236583399
 20
167.4402359107
 11
466.9387128934
 21
167.6531386419
  0
LINE
  5
251
100
AcDbEntity
  8
BEZUGSACHSEN
100
AcDbLine
 62
7
  6
CONTINUOUS
 10
468.6421893369
 20
167.7524838547
 11
468.0553245569
 21
167.9660851662
  0
LINE
  5
252
100
AcDbEntity
  8
BEZUGSACHSEN
100
AcDbLine
 62
7
  6
CONTINUOUS
 10
466.8936275206
 20
168.4080469912
 11
466.5915358278
 21
168.5179993754
  0
LINE
  5
253
100
AcDbEntity
  8
BEZUGSACHSEN
100
AcDbLine
 62
7
  6
CONTINUOUS
 10
469.0612867367
 20
168.4674632003
 11
468.4746792644
 21
168.6809708594
  0
LINE
  5
254
100
AcDbEntity
  8
BEZUGSACHSEN
100
AcDbLine
 62
7
  6
CONTINUOUS
 10
468.5060246551
 20
169.1343398402
 11
468.1478182692
 21
169.2647163023
  0
LINE
  5
255
100
AcDbEntity
  8
BEZUGSACHSEN
100
AcDbLine
 62
7
  6
CONTINUOUS
 10
469.3208110152
 20
168.9669719676
 11
468.734444058
 21
169.1803920864
  0
LINE
  5
256
100
AcDbEntity
  8
BEZUGSACHSEN
100
AcDbLine
 62
7
  6
CONTINUOUS
 10
468.6557698673
 20
169.5468436544
 11
468.4431892825
 21
169.6242166596
  0
LINE
  5
257
100
AcDbEntity
  8
BEZUGSACHSEN
100
AcDbLine
 62
7
  6
CONTINUOUS
 10
469.5264345083
 20
169.4294199025
 11
468.9403558526
 21
169.6427350881
  0
LINE
  5
258
100
AcDbEntity
  8
BEZUGSACHSEN
100
AcDbLine
 62
7
  6
CONTINUOUS
 10
468.5393227499
 20
169.9679466276
 11
468.1236886951
 21
170.1192250518
  0
LINE
  5
259
100
AcDbEntity
  8
BEZUGSACHSEN
100
AcDbLine
 62
7
  6
CONTINUOUS
 10
468.5827196752
 20
170.0219836382
 11
468.2241897113
 21
170.1524778731
  0
LINE
  5
25A
100
AcDbEntity
  8
BEZUGSACHSEN
100
AcDbLine
 62
7
  6
CONTINUOUS
 10
468.8711252022
 20
170.351418642
 11
468.5149377264
 21
170.4810602811
  0
LINE
  5
25B
100
AcDbEntity
  8
BEZUGSACHSEN
100
AcDbLine
 62
7
  6
CONTINUOUS
 10
469.7572960452
 20
170.0663186533
 11
469.1717173668
 21
170.279451862
  0
LINE
  5
25C
100
AcDbEntity
  8
BEZUGSACHSEN
100
AcDbLine
 62
7
  6
CONTINUOUS
 10
469.8081785209
 20
170.3115372679
 11
469.2228709474
 21
170.5245718025
  0
LINE
  5
25D
100
AcDbEntity
  8
BEZUGSACHSEN
100
AcDbLine
 62
7
  6
CONTINUOUS
 10
469.7538434358
 20
170.378171445
 11
469.1687529154
 21
170.5911269788
  0
LINE
  5
25E
100
AcDbEntity
  8
BEZUGSACHSEN
100
AcDbLine
 62
7
  6
CONTINUOUS
 10
469.3387580044
 20
170.5807034781
 11
468.7549197684
 21
170.7932032176
  0
LINE
  5
25F
100
AcDbEntity
  8
BEZUGSACHSEN
100
AcDbLine
 62
7
  6
CONTINUOUS
 10
469.6817120985
 20
171.0671292947
 11
469.097888311
 21
171.2796237754
  0
LINE
  5
260
100
AcDbEntity
  8
BEZUGSACHSEN
100
AcDbLine
 62
7
  6
CONTINUOUS
 10
469.25540006
 20
171.6743731904
 11
468.9070798854
 21
171.8011513659
  0
LINE
  5
261
100
AcDbEntity
  8
BEZUGSACHSEN
100
AcDbLine
 62
7
  6
CONTINUOUS
 10
469.9561952939
 20
171.4846120308
 11
469.3724288387
 21
171.6970856442
  0
LINE
  5
262
100
AcDbEntity
  8
BEZUGSACHSEN
100
AcDbLine
 62
7
  6
CONTINUOUS
 10
470.3516258098
 20
172.1287820031
 11
469.7680085657
 21
172.3412013081
  0
LINE
  5
263
100
AcDbEntity
  8
BEZUGSACHSEN
100
AcDbLine
 62
7
  6
CONTINUOUS
 10
470.6802213843
 20
172.7034138833
 11
470.0967876809
 21
172.915766385
  0
LINE
  5
264
100
AcDbEntity
  8
BEZUGSACHSEN
100
AcDbLine
 62
7
  6
CONTINUOUS
 10
470.8572392121
 20
173.0865375631
 11
470.2740205777
 21
173.2988117861
  0
LINE
  5
265
100
AcDbEntity
  8
BEZUGSACHSEN
100
AcDbLine
 62
7
  6
CONTINUOUS
 10
471.3275885127
 20
174.3300999329
 11
470.7453002053
 21
174.5420355445
  0
LINE
  5
266
100
AcDbEntity
  8
0
100
AcDbLine
 62
7
  6
CONTINUOUS
 10
484.1155567204
 20
172.1197358851
 11
474.0749831299
 21
175.774205807
  0
LINE
  5
267
100
AcDbEntity
  8
KONSTRUKTIONSELEMENTE
100
AcDbLine
 62
7
  6
CONTINUOUS
 10
398.6532543992
 20
163.5795445003
 11
401.1532543992
 21
159.2494174814
  0
LINE
  5
268
100
AcDbEntity
  8
KONSTRUKTIONSELEMENTE
100
AcDbLine
 62
7
  6
CONTINUOUS
 10
399.0862671011
 20
163.8295445003
 11
401.5862671011
 21
159.4994174814
  0
LINE
  5
269
100
AcDbEntity
  8
0
100
AcDbLine
 62
7
  6
CONTINUOUS
 10
404.3293519362
 20
207.5598349191
 11
404.3293519362
 21
297.5598349191
  0
LINE
  5
26A
100
AcDbEntity
  8
0
100
AcDbLine
 62
7
  6
CONTINUOUS
 10
477.234334395
 20
184.4544520682
 11
487.2749079856
 21
180.7999821462
  0
LINE
  5
26B
100
AcDbEntity
  8
RUNDUNGEN
100
AcDbLine
 62
7
  6
CONTINUOUS
 10
420.4816087908
 20
75.9902726642
 11
421.491105755
 21
71.3317292233
  0
LINE
  5
26C
100
AcDbEntity
  8
RUNDUNGEN
100
AcDbLine
 62
7
  6
CONTINUOUS
 10
553.9931922645
 20
97.260792465
 11
538.8055361906
 21
110.0047490751
  0
LINE
  5
26D
100
AcDbEntity
  8
0
100
AcDbLine
 62
7
  6
CONTINUOUS
 10
436.3293519362
 20
207.5598349191
 11
436.3293519362
 21
297.5598349191
  0
LINE
  5
26E
100
AcDbEntity
  8
KONSTRUKTIONSELEMENTE
100
AcDbLine
 62
7
  6
CONTINUOUS
 10
325.0410950775
 20
121.0795445003
 11
328.5051966927
 21
123.0795445003
  0
LINE
  5
26F
100
AcDbEntity
  8
KONSTRUKTIONSELEMENTE
100
AcDbLine
 62
7
  6
CONTINUOUS
 10
328.9382093946
 20
123.3295445003
 11
332.4023110097
 21
125.3295445003
  0
LINE
  5
270
100
AcDbEntity
  8
KONSTRUKTIONSELEMENTE
100
AcDbLine
 62
7
  6
CONTINUOUS
 10
395.1891527841
 20
161.5795445003
 11
398.6532543992
 21
163.5795445003
  0
LINE
  5
271
100
AcDbEntity
  8
KONSTRUKTIONSELEMENTE
100
AcDbLine
 62
7
  6
CONTINUOUS
 10
399.0862671011
 20
163.8295445003
 11
402.5503687162
 21
165.8295445003
  0
LINE
  5
272
100
AcDbEntity
  8
KONSTRUKTIONSELEMENTE
100
AcDbLine
 62
7
  6
CONTINUOUS
 10
357.4255413685
 20
139.4880381494
 11
370.4159224253
 21
146.9880381494
  0
LINE
  5
273
100
AcDbEntity
  8
KONSTRUKTIONSELEMENTE
100
AcDbLine
 62
7
  6
CONTINUOUS
 10
444.9790436413
 20
184.8409238323
 11
404.3327568563
 21
161.3737792155
  0
LINE
  5
274
100
AcDbEntity
  8
KONSTRUKTIONSELEMENTE
100
AcDbLine
 62
7
  6
CONTINUOUS
 10
359.6755413685
 20
135.5909238323
 11
372.6659224253
 21
143.0909238323
  0
LINE
  5
275
100
AcDbEntity
  8
KONSTRUKTIONSELEMENTE
100
AcDbLine
 62
7
  6
CONTINUOUS
 10
327.5410950775
 20
116.7494174814
 11
331.0051966927
 21
118.7494174814
  0
LINE
  5
276
100
AcDbEntity
  8
KONSTRUKTIONSELEMENTE
100
AcDbLine
 62
7
  6
CONTINUOUS
 10
331.4382093946
 20
118.9994174814
 11
334.9023110097
 21
120.9994174814
  0
LINE
  5
277
100
AcDbEntity
  8
KONSTRUKTIONSELEMENTE
100
AcDbLine
 62
7
  6
CONTINUOUS
 10
397.6891527841
 20
157.2494174814
 11
401.1532543992
 21
159.2494174814
  0
LINE
  5
278
100
AcDbEntity
  8
KONSTRUKTIONSELEMENTE
100
AcDbLine
 62
7
  6
CONTINUOUS
 10
401.5862671011
 20
159.4994174814
 11
403.2827975018
 21
160.4789097649
  0
LINE
  5
279
100
AcDbEntity
  8
BEZUGSACHSEN
100
AcDbLine
 62
7
  6
CONTINUOUS
 10
330.7306776398
 20
117.7248984285
 11
329.6759215023
 21
117.1159346886
  0
LINE
  5
27A
100
AcDbEntity
  8
KONSTRUKTIONSELEMENTE
100
AcDbLine
 62
7
  6
CONTINUOUS
 10
197.362765457
 20
40.7248984285
 11
329.6759215023
 21
117.1159346886
  0
LINE
  5
27B
100
AcDbEntity
  8
KONSTRUKTIONSELEMENTE
100
AcDbLine
 62
7
  6
CONTINUOUS
 10
397.3231273803
 20
155.8833920776
 11
374.4097614065
 21
142.6543540646
  0
LINE
  5
27C
100
AcDbEntity
  8
KONSTRUKTIONSELEMENTE
100
AcDbLine
 62
7
  6
CONTINUOUS
 10
359.2180096138
 20
133.8833920776
 11
336.3046436399
 21
120.6543540646
  0
LINE
  5
27D
100
AcDbEntity
  8
KONSTRUKTIONSELEMENTE
100
AcDbLine
 62
7
  6
CONTINUOUS
 10
225.4755783781
 20
56.0320781055
 11
197.762765457
 21
40.0320781055
  0
LINE
  5
27E
100
AcDbEntity
  8
KONSTRUKTIONSELEMENTE
100
AcDbLine
 62
7
  6
CONTINUOUS
 10
284.9285139568
 20
90.357246466
 11
293.6511853175
 21
95.3932831241
  0
LINE
  5
27F
100
AcDbEntity
  8
KONSTRUKTIONSELEMENTE
100
AcDbLine
 62
7
  6
CONTINUOUS
 10
227.1755783781
 20
53.0875917327
 11
199.462765457
 21
37.0875917327
  0
LINE
  5
280
100
AcDbEntity
  8
KONSTRUKTIONSELEMENTE
100
AcDbLine
 62
7
  6
CONTINUOUS
 10
286.6285139568
 20
87.4127600931
 11
295.3511853175
 21
92.4487967513
  0
LINE
  5
281
100
AcDbEntity
  8
KONSTRUKTIONSELEMENTE
100
AcDbLine
 62
7
  6
CONTINUOUS
 10
399.5731273803
 20
151.9862777606
 11
376.6597614065
 21
138.7572397475
  0
LINE
  5
282
100
AcDbEntity
  8
KONSTRUKTIONSELEMENTE
100
AcDbLine
 62
7
  6
CONTINUOUS
 10
361.4680096138
 20
129.9862777606
 11
338.5546436399
 21
116.7572397475
  0
LINE
  5
283
100
AcDbEntity
  8
BEZUGSACHSEN
100
AcDbLine
 62
7
  6
CONTINUOUS
 10
333.2306776398
 20
113.3947714096
 11
332.1759215023
 21
112.7858076697
  0
LINE
  5
284
100
AcDbEntity
  8
KONSTRUKTIONSELEMENTE
100
AcDbLine
 62
7
  6
CONTINUOUS
 10
199.862765457
 20
36.3947714096
 11
332.1759215023
 21
112.7858076697
  0
LINE
  5
285
100
AcDbEntity
  8
KONSTRUKTIONSELEMENTE
100
AcDbLine
 62
7
  6
CONTINUOUS
 10
406.5327975018
 20
154.8497446403
 11
400.9391527841
 21
151.6202523568
  0
LINE
  5
286
100
AcDbEntity
  8
KONSTRUKTIONSELEMENTE
100
AcDbLine
 62
7
  6
CONTINUOUS
 10
338.1523110097
 20
115.3702523568
 11
330.7910950775
 21
111.1202523568
  0
LINE
  5
287
100
AcDbEntity
  8
KONSTRUKTIONSELEMENTE
100
AcDbLine
 62
7
  6
CONTINUOUS
 10
448.4790436413
 20
178.7787460058
 11
407.8327568563
 21
155.311601389
  0
LINE
  5
288
100
AcDbEntity
  8
KONSTRUKTIONSELEMENTE
100
AcDbLine
 62
7
  6
CONTINUOUS
 10
376.1659224253
 20
137.0287460058
 11
363.1755413685
 21
129.5287460058
  0
LINE
  5
289
100
AcDbEntity
  8
KONSTRUKTIONSELEMENTE
100
AcDbLine
 62
7
  6
CONTINUOUS
 10
378.4159224253
 20
133.1316316888
 11
365.4255413685
 21
125.6316316888
  0
LINE
  5
28A
100
AcDbEntity
  8
KONSTRUKTIONSELEMENTE
100
AcDbLine
 62
7
  6
CONTINUOUS
 10
410.8003687162
 20
151.5401253379
 11
403.4391527841
 21
147.2901253379
  0
LINE
  5
28B
100
AcDbEntity
  8
KONSTRUKTIONSELEMENTE
100
AcDbLine
 62
7
  6
CONTINUOUS
 10
340.6523110097
 20
111.0401253379
 11
333.2910950775
 21
106.7901253379
  0
LINE
  5
28C
100
AcDbEntity
  8
0
100
AcDbLine
 62
7
  6
CONTINUOUS
 10
505.4243694773
 20
184.4544520682
 11
495.3837958867
 21
180.7999821462
  0
LINE
  5
28D
100
AcDbEntity
  8
0
100
AcDbLine
 62
7
  6
CONTINUOUS
 10
464.9910172655
 20
102.3112082114
 11
468.4337807544
 21
82.7863262273
  0
LINE
  5
28E
100
AcDbEntity
  8
RUNDUNGEN
100
AcDbLine
 62
7
  6
CONTINUOUS
 10
425.6964614968
 20
93.0205494671
 11
420.7073539007
 21
79.3130890036
  0
LINE
  5
28F
100
AcDbEntity
  8
KONSTRUKTIONSELEMENTE
100
AcDbLine
 62
7
  6
CONTINUOUS
 10
439.0200085676
 20
107.6981611898
 11
442.5031269958
 21
117.2679504207
  0
LINE
  5
290
100
AcDbEntity
  8
KONSTRUKTIONSELEMENTE
100
AcDbLine
 62
7
  6
CONTINUOUS
 10
449.5711285481
 20
122.0681030854
 11
454.9647536927
 21
136.8869663793
  0
LINE
  5
291
100
AcDbEntity
  8
RUNDUNGEN
100
AcDbLine
 62
7
  6
CONTINUOUS
 10
449.5711345701
 20
122.0681196309
 11
454.9647536927
 21
136.8869663793
  0
LINE
  5
292
100
AcDbEntity
  8
BEZUGSACHSEN
100
AcDbLine
 62
7
  6
CONTINUOUS
 10
454.8689955439
 20
136.6238730276
 11
466.0172075116
 21
167.2533336761
  0
LINE
  5
293
100
AcDbEntity
  8
0
100
AcDbLine
 62
7
  6
CONTINUOUS
 10
498.5431471519
 20
172.1197358851
 11
508.5837207425
 21
175.774205807
  0
LINE
  5
294
100
AcDbEntity
  8
BEZUGSACHSEN
100
AcDbLine
 62
7
  6
CONTINUOUS
 10
511.8407924064
 20
173.0844813125
 11
512.4239248179
 21
173.2967241529
  0
LINE
  5
295
100
AcDbEntity
  8
BEZUGSACHSEN
100
AcDbLine
 62
7
  6
CONTINUOUS
 10
511.861107482
 20
172.9239761859
 11
512.4444521304
 21
173.1362962742
  0
LINE
  5
296
100
AcDbEntity
  8
BEZUGSACHSEN
100
AcDbLine
 62
7
  6
CONTINUOUS
 10
512.9551109426
 20
172.4182071451
 11
513.0597951008
 21
172.4563090627
  0
LINE
  5
297
100
AcDbEntity
  8
BEZUGSACHSEN
100
AcDbLine
 62
7
  6
CONTINUOUS
 10
513.0595726417
 20
172.1337254872
 11
513.2710087554
 21
172.210681939
  0
LINE
  5
298
100
AcDbEntity
  8
BEZUGSACHSEN
100
AcDbLine
 62
7
  6
CONTINUOUS
 10
512.3334357788
 20
171.5705985548
 11
512.9178821511
 21
171.7833196379
  0
LINE
  5
299
100
AcDbEntity
  8
BEZUGSACHSEN
100
AcDbLine
 62
7
  6
CONTINUOUS
 10
513.2279877354
 20
171.6590970952
 11
513.5884848918
 21
171.7903073297
  0
LINE
  5
29A
100
AcDbEntity
  8
BEZUGSACHSEN
100
AcDbLine
 62
7
  6
CONTINUOUS
 10
512.7904748915
 20
170.3259025543
 11
513.3758844301
 21
170.5389742012
  0
LINE
  5
29B
100
AcDbEntity
  8
BEZUGSACHSEN
100
AcDbLine
 62
7
  6
CONTINUOUS
 10
512.9608366862
 20
169.8839274948
 11
513.5465720972
 21
170.0971177496
  0
LINE
  5
29C
100
AcDbEntity
  8
BEZUGSACHSEN
100
AcDbLine
 62
7
  6
CONTINUOUS
 10
514.426893737
 20
169.8474128888
 11
514.8606739874
 21
170.0052959882
  0
LINE
  5
29D
100
AcDbEntity
  8
BEZUGSACHSEN
100
AcDbLine
 62
7
  6
CONTINUOUS
 10
514.8021422004
 20
169.3209585825
 11
515.2218426144
 21
169.4737170405
  0
LINE
  5
29E
100
AcDbEntity
  8
BEZUGSACHSEN
100
AcDbLine
 62
7
  6
CONTINUOUS
 10
515.12852772
 20
168.8630353458
 11
515.5198689927
 21
169.0054719205
  0
LINE
  5
29F
100
AcDbEntity
  8
BEZUGSACHSEN
100
AcDbLine
 62
7
  6
CONTINUOUS
 10
513.6087430506
 20
168.1038193987
 11
514.1958697413
 21
168.3175160379
  0
LINE
  5
2A0
100
AcDbEntity
  8
BEZUGSACHSEN
100
AcDbLine
 62
7
  6
CONTINUOUS
 10
515.8720998259
 20
168.8006892289
 11
515.9422205124
 21
168.8262110716
  0
LINE
  5
2A1
100
AcDbEntity
  8
BEZUGSACHSEN
100
AcDbLine
 62
7
  6
CONTINUOUS
 10
515.4060633269
 20
168.4736485441
 11
515.7541083844
 21
168.6003265852
  0
LINE
  5
2A2
100
AcDbEntity
  8
BEZUGSACHSEN
100
AcDbLine
 62
7
  6
CONTINUOUS
 10
516.0452887527
 20
168.5100359644
 11
516.0671680445
 21
168.5179993754
  0
LINE
  5
2A3
100
AcDbEntity
  8
BEZUGSACHSEN
100
AcDbLine
 62
7
  6
CONTINUOUS
 10
513.7623345105
 20
167.6557401962
 11
514.3498290676
 21
167.8695707278
  0
LINE
  5
2A4
100
AcDbEntity
  8
BEZUGSACHSEN
100
AcDbLine
 62
7
  6
CONTINUOUS
 10
515.6347461116
 20
168.1527973283
 11
515.923532135
 21
168.2579068449
  0
LINE
  5
2A5
100
AcDbEntity
  8
BEZUGSACHSEN
100
AcDbLine
 62
7
  6
CONTINUOUS
 10
515.4545140016
 20
166.6673666003
 11
516.0084864726
 21
166.8689960904
  0
LINE
  5
2A6
100
AcDbEntity
  8
BEZUGSACHSEN
100
AcDbLine
 62
7
  6
CONTINUOUS
 10
515.8223472075
 20
166.185096973
 11
516.3544374633
 21
166.378761988
  0
LINE
  5
2A7
100
AcDbEntity
  8
BEZUGSACHSEN
100
AcDbLine
 62
7
  6
CONTINUOUS
 10
516.6565693785
 20
166.1001993673
 11
516.902211039
 21
166.1896056201
  0
LINE
  5
2A8
100
AcDbEntity
  8
BEZUGSACHSEN
100
AcDbLine
 62
7
  6
CONTINUOUS
 10
514.7736001324
 20
165.3520683294
 11
515.3625983754
 21
165.5664461579
  0
LINE
  5
2A9
100
AcDbEntity
  8
BEZUGSACHSEN
100
AcDbLine
 62
7
  6
CONTINUOUS
 10
514.6900753499
 20
165.2533737119
 11
515.2793564235
 21
165.4678544823
  0
LINE
  5
2AA
100
AcDbEntity
  8
BEZUGSACHSEN
100
AcDbLine
 62
7
  6
CONTINUOUS
 10
516.1609006688
 20
165.7412119781
 11
516.6490072444
 21
165.9188682427
  0
LINE
  5
2AB
100
AcDbEntity
  8
BEZUGSACHSEN
100
AcDbLine
 62
7
  6
CONTINUOUS
 10
514.783640488
 20
164.8930768215
 11
515.3732667581
 21
165.1076832332
  0
LINE
  5
2AC
100
AcDbEntity
  8
BEZUGSACHSEN
100
AcDbLine
 62
7
  6
CONTINUOUS
 10
516.4701726921
 20
165.3357104256
 11
516.8915466261
 21
165.4890779951
  0
LINE
  5
2AD
100
AcDbEntity
  8
BEZUGSACHSEN
100
AcDbLine
 62
7
  6
CONTINUOUS
 10
515.7253329277
 20
164.7092821133
 11
515.9397408028
 21
164.7873201978
  0
LINE
  5
2AE
100
AcDbEntity
  8
BEZUGSACHSEN
100
AcDbLine
 62
7
  6
CONTINUOUS
 10
516.7585547225
 20
164.9716467381
 11
517.0810281653
 21
165.0890174726
  0
LINE
  5
2AF
100
AcDbEntity
  8
BEZUGSACHSEN
100
AcDbLine
 62
7
  6
CONTINUOUS
 10
515.8353197546
 20
164.4122402809
 11
516.1580519719
 21
164.5297052016
  0
LINE
  5
2B0
100
AcDbEntity
  8
BEZUGSACHSEN
100
AcDbLine
 62
7
  6
CONTINUOUS
 10
516.9839287696
 20
164.7176882347
 11
517.189290216
 21
164.7924336884
  0
LINE
  5
2B1
100
AcDbEntity
  8
BEZUGSACHSEN
100
AcDbLine
 62
7
  6
CONTINUOUS
 10
516.3745461388
 20
164.4823222634
 11
516.8108073328
 21
164.6411083524
  0
LINE
  5
2B2
100
AcDbEntity
  8
BEZUGSACHSEN
100
AcDbLine
 62
7
  6
CONTINUOUS
 10
515.9764189142
 20
164.0251809159
 11
516.4101536866
 21
164.1830474626
  0
LINE
  5
2B3
100
AcDbEntity
  8
BEZUGSACHSEN
100
AcDbLine
 62
7
  6
CONTINUOUS
 10
516.6758541898
 20
164.0107954596
 11
517.1825204574
 21
164.1952068996
  0
LINE
  5
2B4
100
AcDbEntity
  8
BEZUGSACHSEN
100
AcDbLine
 62
7
  6
CONTINUOUS
 10
516.112270703
 20
163.64722738
 11
516.6230080921
 21
163.8331205872
  0
LINE
  5
2B5
100
AcDbEntity
  8
BEZUGSACHSEN
100
AcDbLine
 62
7
  6
CONTINUOUS
 10
516.8619715578
 20
163.7143776641
 11
517.4494540246
 21
163.9282037952
  0
LINE
  5
2B6
100
AcDbEntity
  8
BEZUGSACHSEN
100
AcDbLine
 62
7
  6
CONTINUOUS
 10
517.0774289761
 20
163.5966323137
 11
517.6646340524
 21
163.8103574828
  0
LINE
  5
2B7
100
AcDbEntity
  8
BEZUGSACHSEN
100
AcDbLine
 62
7
  6
CONTINUOUS
 10
516.2430218314
 20
163.2784333614
 11
516.7960071055
 21
163.4797035412
  0
LINE
  5
2B8
100
AcDbEntity
  8
KONSTRUKTIONSELEMENTE
100
AcDbLine
 62
7
  6
CONTINUOUS
 10
505.4243694773
 20
184.4544520682
 11
515.775042068
 21
168.9635758215
  0
LINE
  5
2B9
100
AcDbEntity
  8
RUNDUNGEN
100
AcDbLine
 62
7
  6
CONTINUOUS
 10
537.341827578
 20
98.3959787088
 11
536.7413536819
 21
99.6248426293
  0
LINE
  5
2BA
100
AcDbEntity
  8
0
100
AcDbLine
 62
7
  6
CONTINUOUS
 10
513.6971102773
 20
129.114338113
 11
516.869349022
 21
121.2431918289
  0
LINE
  5
2BB
100
AcDbEntity
  8
0
100
AcDbLine
 62
7
  6
CONTINUOUS
 10
519.6651820363
 20
63.9221825539
 11
514.6760744402
 21
77.6296430174
  0
LINE
  5
2BC
100
AcDbEntity
  8
0
100
AcDbLine
 62
7
  6
CONTINUOUS
 10
515.4479166812
 20
97.4375568901
 11
511.964798253
 21
107.0073461209
  0
LINE
  5
2BD
100
AcDbEntity
  8
0
100
AcDbLine
 62
7
  6
CONTINUOUS
 10
514.2937229085
 20
115.2277002189
 11
497.8469737201
 21
160.4147722374
  0
LINE
  5
2BE
100
AcDbEntity
  8
0
100
AcDbLine
 62
7
  6
CONTINUOUS
 10
497.4120639807
 20
162.2799983852
 11
495.3837958867
 21
180.7999821462
  0
LINE
  5
2BF
100
AcDbEntity
  8
0
100
AcDbLine
 62
7
  6
CONTINUOUS
 10
485.2466398917
 20
162.2799983852
 11
487.2749079856
 21
180.7999821462
  0
LINE
  5
2C0
100
AcDbEntity
  8
0
100
AcDbLine
 62
7
  6
CONTINUOUS
 10
456.4077790182
 20
94.3592202462
 11
456.7376878289
 21
95.6865618042
  0
LINE
  5
2C1
100
AcDbEntity
  8
0
100
AcDbLine
 62
7
  6
CONTINUOUS
 10
458.0402555358
 20
133.0893800849
 11
455.4108560929
 21
125.020656453
  0
LINE
  5
2C2
100
AcDbEntity
  8
0
100
AcDbLine
 62
7
  6
CONTINUOUS
 10
456.7376878289
 20
95.6865618042
 11
465.7893548504
 21
121.2431918289
  0
LINE
  5
2C3
100
AcDbEntity
  8
RUNDUNGEN
100
AcDbLine
 62
7
  6
CONTINUOUS
 10
445.0033837907
 20
97.6584907828
 11
444.9501867544
 21
97.512333127
  0
LINE
  5
2C4
100
AcDbEntity
  8
0
100
AcDbLine
 62
7
  6
CONTINUOUS
 10
456.1738801074
 20
93.5927626215
 11
456.1206830712
 21
93.4466049657
  0
LINE
  5
2C5
100
AcDbEntity
  8
0
100
AcDbLine
 62
7
  6
CONTINUOUS
 10
445.9173501904
 20
99.6248426293
 11
455.4108560929
 21
125.020656453
  0
LINE
  5
2C6
100
AcDbEntity
  8
RUNDUNGEN
100
AcDbLine
 62
7
  6
CONTINUOUS
 10
445.3168762943
 20
98.3959787088
 11
445.9173501904
 21
99.6248426293
  0
LINE
  5
2C7
100
AcDbEntity
  8
KONSTRUKTIONSELEMENTE
100
AcDbLine
 62
7
  6
CONTINUOUS
 10
477.234334395
 20
184.4544520682
 11
468.1699661189
 21
170.8886662712
  0
LINE
  5
2C8
100
AcDbEntity
  8
BEZUGSACHSEN
100
AcDbLine
 62
7
  6
CONTINUOUS
 10
515.5496807021
 20
162.7396868884
 11
516.1410181378
 21
162.9549161134
  0
LINE
  5
2C9
100
AcDbEntity
  8
BEZUGSACHSEN
100
AcDbLine
 62
7
  6
CONTINUOUS
 10
517.9703210481
 20
161.4815089506
 11
518.5592765334
 21
161.6958712165
  0
LINE
  5
2CA
100
AcDbEntity
  8
BEZUGSACHSEN
100
AcDbLine
 62
7
  6
CONTINUOUS
 10
518.967562131
 20
158.7028759991
 11
519.5592182719
 21
158.9182212233
  0
LINE
  5
2CB
100
AcDbEntity
  8
0
100
AcDbLine
 62
7
  6
CONTINUOUS
 10
506.8144361465
 20
149.3945561426
 11
516.8550097371
 21
153.0490260645
  0
LINE
  5
2CC
100
AcDbEntity
  8
0
100
AcDbLine
 62
7
  6
CONTINUOUS
 10
527.2478477794
 20
125.020656453
 11
536.7413536819
 21
99.6248426293
  0
LINE
  5
2CD
100
AcDbEntity
  8
0
100
AcDbLine
 62
7
  6
CONTINUOUS
 10
526.4848237649
 20
93.5927626215
 11
526.5380208011
 21
93.4466049657
  0
LINE
  5
2CE
100
AcDbEntity
  8
RUNDUNGEN
100
AcDbLine
 62
7
  6
CONTINUOUS
 10
537.6553200817
 20
97.6584907828
 11
537.7085171179
 21
97.512333127
  0
LINE
  5
2CF
100
AcDbEntity
  8
0
100
AcDbLine
 62
7
  6
CONTINUOUS
 10
516.869349022
 20
121.2431918289
 11
525.9210160434
 21
95.6865618042
  0
LINE
  5
2D0
100
AcDbEntity
  8
0
100
AcDbLine
 62
7
  6
CONTINUOUS
 10
468.3649809638
 20
115.2277002189
 11
484.8117301522
 21
160.4147722374
  0
LINE
  5
2D1
100
AcDbEntity
  8
0
100
AcDbLine
 62
7
  6
CONTINUOUS
 10
467.2107871912
 20
97.4375568901
 11
470.6939056194
 21
107.0073461209
  0
LINE
  5
2D2
100
AcDbEntity
  8
0
100
AcDbLine
 62
7
  6
CONTINUOUS
 10
467.9826294322
 20
77.6296430174
 11
462.9935218361
 21
63.9221825539
  0
LINE
  5
2D3
100
AcDbEntity
  8
0
100
AcDbLine
 62
7
  6
CONTINUOUS
 10
468.961593595
 20
129.114338113
 11
465.7893548504
 21
121.2431918289
  0
LINE
  5
2D4
100
AcDbEntity
  8
RUNDUNGEN
100
AcDbLine
 62
7
  6
CONTINUOUS
 10
443.8531736674
 20
110.0047540977
 11
428.6655116078
 21
97.260792465
  0
LINE
  5
2D5
100
AcDbEntity
  8
BEZUGSACHSEN
100
AcDbLine
 62
7
  6
CONTINUOUS
 10
516.6408261359
 20
167.2551751039
 11
527.6939501796
 21
136.8869663793
  0
LINE
  5
2D6
100
AcDbEntity
  8
RUNDUNGEN
100
AcDbLine
 62
7
  6
CONTINUOUS
 10
527.6939501887
 20
136.8869663543
 11
533.0875711184
 21
122.0681146409
  0
LINE
  5
2D7
100
AcDbEntity
  8
KONSTRUKTIONSELEMENTE
100
AcDbLine
 62
7
  6
CONTINUOUS
 10
527.6939501796
 20
136.8869663793
 11
533.0875753243
 21
122.0681030854
  0
LINE
  5
2D8
100
AcDbEntity
  8
KONSTRUKTIONSELEMENTE
100
AcDbLine
 62
7
  6
CONTINUOUS
 10
543.6386953048
 20
107.6981611898
 11
540.1555768765
 21
117.2679504207
  0
LINE
  5
2D9
100
AcDbEntity
  8
RUNDUNGEN
100
AcDbLine
 62
7
  6
CONTINUOUS
 10
561.9513499716
 20
79.3130890036
 11
556.9622423755
 21
93.0205494671
  0
LINE
  5
2DA
100
AcDbEntity
  8
0
100
AcDbLine
 62
7
  6
CONTINUOUS
 10
524.6184483366
 20
133.0893800849
 11
527.2478477794
 21
125.020656453
  0
LINE
  5
2DB
100
AcDbEntity
  8
0
100
AcDbLine
 62
7
  6
CONTINUOUS
 10
526.2509248541
 20
94.3592202462
 11
525.9210160434
 21
95.6865618042
  0
LINE
  5
2DC
100
AcDbEntity
  8
0
100
AcDbLine
 62
7
  6
CONTINUOUS
 10
516.869349022
 20
121.2431918289
 11
527.2478477794
 21
125.020656453
  0
LINE
  5
2DD
100
AcDbEntity
  8
0
100
AcDbLine
 62
7
  6
CONTINUOUS
 10
514.2249231179
 20
82.7863262273
 11
517.66768525
 21
102.3112005163
  0
LINE
  5
2DE
100
AcDbEntity
  8
0
100
AcDbLine
 62
7
  6
CONTINUOUS
 10
525.9210160434
 20
95.6865618042
 11
536.7413536819
 21
99.6248426293
  0
LINE
  5
2DF
100
AcDbEntity
  8
0
100
AcDbLine
 62
7
  6
CONTINUOUS
 10
546.3293519362
 20
297.5598349191
 11
546.3293519362
 21
207.5598349191
  0
LINE
  5
2E0
100
AcDbEntity
  8
0
100
AcDbLine
 62
7
  6
CONTINUOUS
 10
461.0305874509
 20
61.231651402
 11
457.2628139081
 21
58.3118922267
  0
LINE
  5
2E1
100
AcDbEntity
  8
0
100
AcDbLine
 62
7
  6
CONTINUOUS
 10
578.3293519362
 20
297.5598349191
 11
578.3293519362
 21
207.5598349191
  0
LINE
  5
2E2
100
AcDbEntity
  8
RUNDUNGEN
100
AcDbLine
 62
7
  6
CONTINUOUS
 10
561.1675981174
 20
71.3317292233
 11
562.1770950816
 21
75.9902726642
  0
LINE
  5
2E3
100
AcDbEntity
  8
KONSTRUKTIONSELEMENTE
100
AcDbLine
 62
7
  6
CONTINUOUS
 10
108.1319264283
 20
36.3947714096
 11
122.6919264283
 21
36.3947714096
  0
LINE
  5
2E4
100
AcDbEntity
  8
KONSTRUKTIONSELEMENTE
100
AcDbLine
 62
7
  6
CONTINUOUS
 10
107.3319264283
 20
37.0875917327
 11
108.1319264283
 21
37.0875917327
  0
LINE
  5
2E5
100
AcDbEntity
  8
KONSTRUKTIONSELEMENTE
100
AcDbLine
 62
7
  6
CONTINUOUS
 10
122.6919264283
 20
37.0875917327
 11
123.4919264283
 21
37.0875917327
  0
LWPOLYLINE
  5
2E6
100
AcDbEntity
  8
0
100
AcDbPolyline
 62
7
  6
CONTINUOUS
 90
7
 70
0
 10
142.9496315954
 20
53.5968419139
 10
143.0857010369
 20
53.5993951165
 10
143.5936272659
 20
53.6500663585
 10
144.1009391098
 20
53.7586952179
 10
144.6177569654
 20
53.9205019571
 10
145.1509264358
 20
54.133347124
 10
145.7076661569
 20
54.3975180178
  0
LINE
  5
2E7
100
AcDbEntity
  8
0
100
AcDbLine
 62
7
  6
CONTINUOUS
 10
142.9497397901
 20
53.5968387241
 11
142.9478278573
 21
53.5968372847
  0
LINE
  5
2E8
100
AcDbEntity
  8
KONSTRUKTIONSELEMENTE
100
AcDbLine
 62
7
  6
CONTINUOUS
 10
101.7319264283
 20
52.3947714096
 11
101.2817476326
 21
52.3947714096
  0
LINE
  5
2E9
100
AcDbEntity
  8
KONSTRUKTIONSELEMENTE
100
AcDbLine
 62
7
  6
CONTINUOUS
 10
129.0919264283
 20
52.3947714096
 11
149.4698078679
 21
52.3947714096
  0
LINE
  5
2EA
100
AcDbEntity
  8
KONSTRUKTIONSELEMENTE
100
AcDbLine
 62
7
  6
CONTINUOUS
 10
142.9567845167
 20
53.5968372711
 11
137.8672514365
 21
53.5968372711
  0
LINE
  5
2EB
100
AcDbEntity
  8
KONSTRUKTIONSELEMENTE
100
AcDbLine
 62
7
  6
CONTINUOUS
 10
92.9566014201
 20
53.5968372711
 11
87.867525107
 21
53.5968372711
  0
LINE
  5
2EC
100
AcDbEntity
  8
0
100
AcDbLine
 62
7
  6
CONTINUOUS
 10
87.8756854383
 20
53.5968374072
 11
87.8742088827
 21
53.5968387332
  0
LINE
  5
2ED
100
AcDbEntity
  8
0
100
AcDbLine
 62
7
  6
CONTINUOUS
 10
137.8604405648
 20
53.5977010154
 11
137.8644451883
 21
53.5968372713
  0
LWPOLYLINE
  5
2EE
100
AcDbEntity
  8
0
100
AcDbPolyline
 62
7
  6
CONTINUOUS
 90
6
 70
0
 10
85.6756629562
 20
54.1321482883
 10
86.2082410842
 20
53.9197345085
 10
86.724580989
 20
53.7582527988
 10
87.2314957846
 20
53.6498627752
 10
87.7390867918
 20
53.5993613491
 10
87.8742465174
 20
53.5968413942
  0
LINE
  5
2EF
100
AcDbEntity
  8
0
100
AcDbLine
 62
7
  6
CONTINUOUS
 10
85.1161866998
 20
54.3975180178
 11
85.6729264208
 21
54.133347124
  0
LINE
  5
2F0
100
AcDbEntity
  8
0
100
AcDbLine
 62
7
  6
CONTINUOUS
 10
84.5293816891
 20
54.7148720369
 11
85.1196238945
 21
54.3957701725
  0
LINE
  5
2F1
100
AcDbEntity
  8
0
100
AcDbLine
 62
7
  6
CONTINUOUS
 10
83.9097227562
 20
55.0864605108
 11
84.5336285813
 21
54.7124474536
  0
LINE
  5
2F2
100
AcDbEntity
  8
0
100
AcDbLine
 62
7
  6
CONTINUOUS
 10
83.2545494177
 20
55.513805932
 11
83.9148780174
 21
55.0832309689
  0
LINE
  5
2F3
100
AcDbEntity
  8
0
100
AcDbLine
 62
7
  6
CONTINUOUS
 10
82.5630972726
 20
55.9975789996
 11
83.2606969342
 21
55.5096482639
  0
LINE
  5
2F4
100
AcDbEntity
  8
0
100
AcDbLine
 62
7
  6
CONTINUOUS
 10
81.8347601134
 20
56.5384997427
 11
82.5703014818
 21
55.9923817304
  0
LINE
  5
2F5
100
AcDbEntity
  8
0
100
AcDbLine
 62
7
  6
CONTINUOUS
 10
81.0704840825
 20
57.1362142336
 11
81.843062096
 21
56.5321690346
  0
LINE
  5
2F6
100
AcDbEntity
  8
0
100
AcDbLine
 62
7
  6
CONTINUOUS
 10
92.9594076683
 20
53.5968372713
 11
92.9634122919
 21
53.5977010154
  0
LINE
  5
2F7
100
AcDbEntity
  8
0
100
AcDbLine
 62
7
  6
CONTINUOUS
 10
124.2119264283
 20
66.5968372711
 11
106.6119264283
 21
66.5968372711
  0
LINE
  5
2F8
100
AcDbEntity
  8
KONSTRUKTIONSELEMENTE
100
AcDbLine
 62
7
  6
CONTINUOUS
 10
155.2515716303
 20
55.579850237
 11
149.3311485085
 21
56.806010013
  0
LINE
  5
2F9
100
AcDbEntity
  8
KONSTRUKTIONSELEMENTE
100
AcDbLine
 62
7
  6
CONTINUOUS
 10
155.2515716303
 20
59.9099772559
 11
152.8811672306
 21
60.4009040813
  0
LINE
  5
2FA
100
AcDbEntity
  8
0
100
AcDbLine
 62
7
  6
CONTINUOUS
 10
80.2717087122
 20
57.7899182726
 11
81.0799029302
 21
57.1286758843
  0
LINE
  5
2FB
100
AcDbEntity
  8
0
100
AcDbLine
 62
7
  6
CONTINUOUS
 10
79.5785937778
 20
58.378674442
 11
80.28221538
 21
57.7811419859
  0
LINE
  5
2FC
100
AcDbEntity
  8
0
100
AcDbLine
 62
7
  6
CONTINUOUS
 10
78.6052963087
 20
59.2185654087
 11
79.5786753588
 21
58.3786039385
  0
LINE
  5
2FD
100
AcDbEntity
  8
0
100
AcDbLine
 62
7
  6
CONTINUOUS
 10
124.2119264283
 20
85.5968372711
 11
106.6119264283
 21
85.5968372711
  0
LINE
  5
2FE
100
AcDbEntity
  8
KONSTRUKTIONSELEMENTE
100
AcDbLine
 62
7
  6
CONTINUOUS
 10
68.9333283353
 20
86.7199397701
 11
77.874830726
 21
88.5717855492
  0
LINE
  5
2FF
100
AcDbEntity
  8
KONSTRUKTIONSELEMENTE
100
AcDbLine
 62
7
  6
CONTINUOUS
 10
59.4733938872
 20
98.1390907919
 11
61.0041276167
 21
96.2913317269
  0
LINE
  5
300
100
AcDbEntity
  8
KONSTRUKTIONSELEMENTE
100
AcDbLine
 62
7
  6
CONTINUOUS
 10
68.9333283353
 20
86.7199397701
 11
77.9119264283
 21
75.8818131264
  0
LINE
  5
301
100
AcDbEntity
  8
KONSTRUKTIONSELEMENTE
100
AcDbLine
 62
7
  6
CONTINUOUS
 10
68.9333283353
 20
87.4127600931
 11
68.6271815894
 21
87.7823119061
  0
LINE
  5
302
100
AcDbEntity
  8
KONSTRUKTIONSELEMENTE
100
AcDbLine
 62
7
  6
CONTINUOUS
 10
68.9333283353
 20
87.4127600931
 11
77.7422352741
 21
89.237144455
  0
LINE
  5
303
100
AcDbEntity
  8
KONSTRUKTIONSELEMENTE
100
AcDbLine
 62
7
  6
CONTINUOUS
 10
69.9260522297
 20
89.350187464
 11
77.0354342964
 21
90.8225887
  0
LINE
  5
304
100
AcDbEntity
  8
KONSTRUKTIONSELEMENTE
100
AcDbLine
 62
7
  6
CONTINUOUS
 10
69.9260522297
 20
92.2946738368
 11
75.5277503749
 21
93.4548235088
  0
LINE
  5
305
100
AcDbEntity
  8
KONSTRUKTIONSELEMENTE
100
AcDbLine
 62
7
  6
CONTINUOUS
 10
70.7655481277
 20
98.0965096687
 11
61.1882138579
 21
96.1129787957
  0
LINE
  5
306
100
AcDbEntity
  8
KONSTRUKTIONSELEMENTE
100
AcDbLine
 62
7
  6
CONTINUOUS
 10
177.5934449324
 20
95.2225377637
 11
186.5550763977
 21
93.3665231167
  0
LINE
  5
307
100
AcDbEntity
  8
RUNDUNGEN
100
AcDbLine
 62
7
  6
CONTINUOUS
 10
74.9776381692
 20
98.3959787088
 11
74.1923675985
 21
99.6248426293
  0
LINE
  5
308
100
AcDbEntity
  8
0
100
AcDbLine
 62
7
  6
CONTINUOUS
 10
75.4396527415
 20
93.5927626215
 11
75.5294524909
 21
93.4466049657
  0
LINE
  5
309
100
AcDbEntity
  8
RUNDUNGEN
100
AcDbLine
 62
7
  6
CONTINUOUS
 10
75.4396527415
 20
97.6584907828
 11
75.5294524909
 21
97.512333127
  0
LINE
  5
30A
100
AcDbEntity
  8
0
100
AcDbLine
 62
7
  6
CONTINUOUS
 10
74.9776381692
 20
94.3592202462
 11
74.1923675985
 21
95.6865618042
  0
LINE
  5
30B
100
AcDbEntity
  8
KONSTRUKTIONSELEMENTE
100
AcDbLine
 62
7
  6
CONTINUOUS
 10
72.422123939
 20
105.1504293946
 11
63.8029626884
 21
103.3653426514
  0
LINE
  5
30C
100
AcDbEntity
  8
KONSTRUKTIONSELEMENTE
100
AcDbLine
 62
7
  6
CONTINUOUS
 10
71.6423688711
 20
109.3190638513
 11
63.8029626884
 21
107.6954696703
  0
LINE
  5
30D
100
AcDbEntity
  8
KONSTRUKTIONSELEMENTE
100
AcDbLine
 62
7
  6
CONTINUOUS
 10
97.7822774254
 20
120.557849704
 11
133.1317748781
 21
120.557849704
  0
LINE
  5
30E
100
AcDbEntity
  8
RUNDUNGEN
100
AcDbLine
 62
7
  6
CONTINUOUS
 10
97.7827038462
 20
120.5578460088
 11
97.8402999924
 21
120.557849704
  0
LINE
  5
30F
100
AcDbEntity
  8
KONSTRUKTIONSELEMENTE
100
AcDbLine
 62
7
  6
CONTINUOUS
 10
158.4017289176
 20
105.1504293946
 11
184.1126615197
 21
99.825520902
  0
LINE
  5
310
100
AcDbEntity
  8
KONSTRUKTIONSELEMENTE
100
AcDbLine
 62
7
  6
CONTINUOUS
 10
184.1126615197
 20
104.155647921
 11
159.1814839855
 21
109.3190638513
  0
LINE
  5
311
100
AcDbEntity
  8
KONSTRUKTIONSELEMENTE
100
AcDbLine
 62
7
  6
CONTINUOUS
 10
58.8644301473
 20
99.6698245214
 11
58.8644301473
 21
103.9999515403
  0
LINE
  5
312
100
AcDbEntity
  8
0
100
AcDbLine
 62
7
  6
CONTINUOUS
 10
69.4119264283
 20
125.020656453
 11
74.1923675985
 21
99.6248426293
  0
LINE
  5
313
100
AcDbEntity
  8
0
100
AcDbLine
 62
7
  6
CONTINUOUS
 10
69.4119264283
 20
121.2431918289
 11
74.1923675985
 21
95.6865618042
  0
LINE
  5
314
100
AcDbEntity
  8
KONSTRUKTIONSELEMENTE
100
AcDbLine
 62
7
  6
CONTINUOUS
 10
68.4444924674
 20
88.2415320249
 11
68.4444924674
 21
91.1860183978
  0
LINE
  5
315
100
AcDbEntity
  8
KONSTRUKTIONSELEMENTE
100
AcDbLine
 62
7
  6
CONTINUOUS
 10
68.9333283353
 20
86.7199397701
 11
68.9333283353
 21
87.4127600931
  0
LINE
  5
316
100
AcDbEntity
  8
0
100
AcDbLine
 62
7
  6
CONTINUOUS
 10
69.4119264283
 20
121.2431918289
 11
69.4119264283
 21
153.0490260645
  0
LINE
  5
317
100
AcDbEntity
  8
0
100
AcDbLine
 62
7
  6
CONTINUOUS
 10
74.1923675985
 20
95.6865618042
 11
74.1923675985
 21
99.6248426293
  0
LINE
  5
318
100
AcDbEntity
  8
0
100
AcDbLine
 62
7
  6
CONTINUOUS
 10
77.9119264283
 20
60.7327377009
 11
77.9119264283
 21
73.0954723782
  0
LINE
  5
319
100
AcDbEntity
  8
RUNDUNGEN
100
AcDbLine
 62
7
  6
CONTINUOUS
 10
77.9119264283
 20
73.0954723782
 11
77.9119264283
 21
108.7464635454
  0
LINE
  5
31A
100
AcDbEntity
  8
BEZUGSACHSEN
100
AcDbLine
 62
7
  6
CONTINUOUS
 10
84.0011196738
 20
162.7396868884
 11
84.0011196738
 21
162.9549161134
  0
LINE
  5
31B
100
AcDbEntity
  8
BEZUGSACHSEN
100
AcDbLine
 62
7
  6
CONTINUOUS
 10
86.7001824062
 20
164.5530677985
 11
86.7001824062
 21
164.767645869
  0
LINE
  5
31C
100
AcDbEntity
  8
BEZUGSACHSEN
100
AcDbLine
 62
7
  6
CONTINUOUS
 10
87.0719305514
 20
164.7348848221
 11
87.0719305514
 21
164.9493856607
  0
LINE
  5
31D
100
AcDbEntity
  8
BEZUGSACHSEN
100
AcDbLine
 62
7
  6
CONTINUOUS
 10
87.479298087
 20
164.7414276286
 11
87.479298087
 21
164.9558754615
  0
LINE
  5
31E
100
AcDbEntity
  8
BEZUGSACHSEN
100
AcDbLine
 62
7
  6
CONTINUOUS
 10
87.9222847728
 20
164.5729016984
 11
87.9222847728
 21
164.7873201978
  0
LINE
  5
31F
100
AcDbEntity
  8
BEZUGSACHSEN
100
AcDbLine
 62
7
  6
CONTINUOUS
 10
88.2812396652
 20
164.315290746
 11
88.2812396652
 21
164.5297052016
  0
LINE
  5
320
100
AcDbEntity
  8
BEZUGSACHSEN
100
AcDbLine
 62
7
  6
CONTINUOUS
 10
88.5561620939
 20
163.9686108229
 11
88.5561620939
 21
164.1830474626
  0
LINE
  5
321
100
AcDbEntity
  8
BEZUGSACHSEN
100
AcDbLine
 62
7
  6
CONTINUOUS
 10
88.9095343304
 20
167.6557401962
 11
88.9095343304
 21
167.8695707278
  0
LINE
  5
322
100
AcDbEntity
  8
BEZUGSACHSEN
100
AcDbLine
 62
7
  6
CONTINUOUS
 10
89.0448002646
 20
162.5713667277
 11
89.0448002646
 21
162.7859854756
  0
LINE
  5
323
100
AcDbEntity
  8
BEZUGSACHSEN
100
AcDbLine
 62
7
  6
CONTINUOUS
 10
89.4065163153
 20
163.8063318359
 11
89.4065163153
 21
164.0206815267
  0
LINE
  5
324
100
AcDbEntity
  8
BEZUGSACHSEN
100
AcDbLine
 62
7
  6
CONTINUOUS
 10
89.6247417406
 20
158.7028759991
 11
89.6247417406
 21
158.9182212233
  0
LINE
  5
325
100
AcDbEntity
  8
BEZUGSACHSEN
100
AcDbLine
 62
7
  6
CONTINUOUS
 10
90.1289349927
 20
159.2438077223
 11
90.1289349927
 21
159.4589552491
  0
LINE
  5
326
100
AcDbEntity
  8
KONSTRUKTIONSELEMENTE
100
AcDbLine
 62
7
  6
CONTINUOUS
 10
91.7598144719
 20
93.0205494671
 11
91.7598144719
 21
83.2494876251
  0
LINE
  5
327
100
AcDbEntity
  8
BEZUGSACHSEN
100
AcDbLine
 62
7
  6
CONTINUOUS
 10
91.894505857
 20
169.8839274948
 11
91.894505857
 21
170.0971177496
  0
LINE
  5
328
100
AcDbEntity
  8
BEZUGSACHSEN
100
AcDbLine
 62
7
  6
CONTINUOUS
 10
91.9838920435
 20
164.4272210314
 11
91.9838920435
 21
164.6411083524
  0
LINE
  5
329
100
AcDbEntity
  8
BEZUGSACHSEN
100
AcDbLine
 62
7
  6
CONTINUOUS
 10
92.2297401298
 20
161.4815089506
 11
92.2297401298
 21
161.6958712165
  0
LINE
  5
32A
100
AcDbEntity
  8
BEZUGSACHSEN
100
AcDbLine
 62
7
  6
CONTINUOUS
 10
92.5792553548
 20
163.9813353628
 11
92.5792553548
 21
164.1952068996
  0
LINE
  5
32B
100
AcDbEntity
  8
BEZUGSACHSEN
100
AcDbLine
 62
7
  6
CONTINUOUS
 10
92.8179657509
 20
162.1033880088
 11
92.8179657509
 21
162.317543576
  0
LINE
  5
32C
100
AcDbEntity
  8
BEZUGSACHSEN
100
AcDbLine
 62
7
  6
CONTINUOUS
 10
93.1749448659
 20
163.7143776641
 11
93.1749448659
 21
163.9282037952
  0
LINE
  5
32D
100
AcDbEntity
  8
BEZUGSACHSEN
100
AcDbLine
 62
7
  6
CONTINUOUS
 10
93.9696319508
 20
163.5966323137
 11
93.9696319508
 21
163.8103574828
  0
LINE
  5
32E
100
AcDbEntity
  8
BEZUGSACHSEN
100
AcDbLine
 62
7
  6
CONTINUOUS
 10
94.4730227916
 20
171.5705985548
 11
94.4730227916
 21
171.7833196379
  0
LINE
  5
32F
100
AcDbEntity
  8
BEZUGSACHSEN
100
AcDbLine
 62
7
  6
CONTINUOUS
 10
94.5659739642
 20
163.6865493229
 11
94.5659739642
 21
163.90016939
  0
LINE
  5
330
100
AcDbEntity
  8
BEZUGSACHSEN
100
AcDbLine
 62
7
  6
CONTINUOUS
 10
94.9688635701
 20
166.6558407141
 11
94.9688635701
 21
166.8689960904
  0
LINE
  5
331
100
AcDbEntity
  8
BEZUGSACHSEN
100
AcDbLine
 62
7
  6
CONTINUOUS
 10
95.1626418061
 20
163.9542206489
 11
95.1626418061
 21
164.1677087152
  0
LINE
  5
332
100
AcDbEntity
  8
BEZUGSACHSEN
100
AcDbLine
 62
7
  6
CONTINUOUS
 10
95.266055603
 20
166.1655886564
 11
95.266055603
 21
166.378761988
  0
LINE
  5
333
100
AcDbEntity
  8
BEZUGSACHSEN
100
AcDbLine
 62
7
  6
CONTINUOUS
 10
95.5606381615
 20
164.2509054735
 11
95.5606381615
 21
164.4642895102
  0
LINE
  5
334
100
AcDbEntity
  8
BEZUGSACHSEN
100
AcDbLine
 62
7
  6
CONTINUOUS
 10
95.958960354
 20
164.7249455723
 11
95.958960354
 21
164.9382034468
  0
LINE
  5
335
100
AcDbEntity
  8
BEZUGSACHSEN
100
AcDbLine
 62
7
  6
CONTINUOUS
 10
97.6133399783
 20
172.2100686437
 11
97.6133399783
 21
172.4223871063
  0
LINE
  5
336
100
AcDbEntity
  8
BEZUGSACHSEN
100
AcDbLine
 62
7
  6
CONTINUOUS
 10
97.999722974
 20
165.976802109
 11
97.999722974
 21
166.1896056201
  0
LINE
  5
337
100
AcDbEntity
  8
BEZUGSACHSEN
100
AcDbLine
 62
7
  6
CONTINUOUS
 10
98.1367257486
 20
172.3147232602
 11
98.1367257486
 21
172.5269781931
  0
LINE
  5
338
100
AcDbEntity
  8
BEZUGSACHSEN
100
AcDbLine
 62
7
  6
CONTINUOUS
 10
98.6230606033
 20
172.2441018907
 11
98.6230606033
 21
172.4563090627
  0
LINE
  5
339
100
AcDbEntity
  8
BEZUGSACHSEN
100
AcDbLine
 62
7
  6
CONTINUOUS
 10
99.0723447529
 20
171.9985078906
 11
99.0723447529
 21
172.210681939
  0
LINE
  5
33A
100
AcDbEntity
  8
0
100
AcDbLine
 62
7
  6
CONTINUOUS
 10
99.4119264283
 20
368.5598349191
 11
99.4119264283
 21
136.5598349191
  0
LINE
  5
33B
100
AcDbEntity
  8
BEZUGSACHSEN
100
AcDbLine
 62
7
  6
CONTINUOUS
 10
96.1586110513
 20
165.2283982123
 11
96.1599161079
 21
166.1525859204
  0
LINE
  5
33C
100
AcDbEntity
  8
KONSTRUKTIONSELEMENTE
100
AcDbLine
 62
7
  6
CONTINUOUS
 10
104.9319264283
 20
50.1980206856
 11
104.9319264283
 21
38.2875917327
  0
LINE
  5
33D
100
AcDbEntity
  8
0
100
AcDbLine
 62
7
  6
CONTINUOUS
 10
106.6119264283
 20
57.5982837849
 11
106.6119264283
 21
81.6952627993
  0
LINE
  5
33E
100
AcDbEntity
  8
KONSTRUKTIONSELEMENTE
100
AcDbLine
 62
7
  6
CONTINUOUS
 10
106.6119264283
 20
81.6952627993
 11
106.6119264283
 21
101.9958248868
  0
LINE
  5
33F
100
AcDbEntity
  8
KONSTRUKTIONSELEMENTE
100
AcDbLine
 62
7
  6
CONTINUOUS
 10
107.4119264283
 20
122.7115815913
 11
107.4119264283
 21
121.5598349191
  0
LINE
  5
340
100
AcDbEntity
  8
KONSTRUKTIONSELEMENTE
100
AcDbLine
 62
7
  6
CONTINUOUS
 10
108.1319264283
 20
36.3947714096
 11
108.1319264283
 21
49.1947714096
  0
LINE
  5
341
100
AcDbEntity
  8
KONSTRUKTIONSELEMENTE
100
AcDbLine
 62
7
  6
CONTINUOUS
 10
112.9119264283
 20
120.764347454
 11
112.9119264283
 21
120.557849704
  0
LINE
  5
342
100
AcDbEntity
  8
KONSTRUKTIONSELEMENTE
100
AcDbLine
 62
7
  6
CONTINUOUS
 10
117.9119264283
 20
120.764347454
 11
117.9119264283
 21
120.557849704
  0
LINE
  5
343
100
AcDbEntity
  8
KONSTRUKTIONSELEMENTE
100
AcDbLine
 62
7
  6
CONTINUOUS
 10
122.6919264283
 20
36.3947714096
 11
122.6919264283
 21
49.1947714096
  0
LINE
  5
344
100
AcDbEntity
  8
KONSTRUKTIONSELEMENTE
100
AcDbLine
 62
7
  6
CONTINUOUS
 10
123.4119264283
 20
121.5598349191
 11
123.4119264283
 21
122.7115815913
  0
LINE
  5
345
100
AcDbEntity
  8
0
100
AcDbLine
 62
7
  6
CONTINUOUS
 10
124.2119264283
 20
81.6952627993
 11
124.2119264283
 21
57.5982837849
  0
LINE
  5
346
100
AcDbEntity
  8
KONSTRUKTIONSELEMENTE
100
AcDbLine
 62
7
  6
CONTINUOUS
 10
124.2119264283
 20
81.6952627993
 11
124.2119264283
 21
101.9958248868
  0
LINE
  5
347
100
AcDbEntity
  8
KONSTRUKTIONSELEMENTE
100
AcDbLine
 62
7
  6
CONTINUOUS
 10
125.8919264283
 20
38.2875917327
 11
125.8919264283
 21
49.8875917327
  0
LINE
  5
348
100
AcDbEntity
  8
0
100
AcDbLine
 62
7
  6
CONTINUOUS
 10
131.4119264283
 20
368.5598349191
 11
131.4119264283
 21
136.5598349191
  0
LINE
  5
349
100
AcDbEntity
  8
BEZUGSACHSEN
100
AcDbLine
 62
7
  6
CONTINUOUS
 10
131.6544768328
 20
166.6363363956
 11
131.6544768328
 21
166.8489069371
  0
LINE
  5
34A
100
AcDbEntity
  8
BEZUGSACHSEN
100
AcDbLine
 62
7
  6
CONTINUOUS
 10
132.2266458466
 20
169.90685671
 11
132.2266458466
 21
170.1192250518
  0
LINE
  5
34B
100
AcDbEntity
  8
BEZUGSACHSEN
100
AcDbLine
 62
7
  6
CONTINUOUS
 10
132.8229966596
 20
169.9400406152
 11
132.8229966596
 21
170.1524778731
  0
LINE
  5
34C
100
AcDbEntity
  8
BEZUGSACHSEN
100
AcDbLine
 62
7
  6
CONTINUOUS
 10
133.0918643867
 20
172.4263761044
 11
133.0918643867
 21
172.6386674906
  0
LINE
  5
34D
100
AcDbEntity
  8
BEZUGSACHSEN
100
AcDbLine
 62
7
  6
CONTINUOUS
 10
133.3651308255
 20
172.1478516006
 11
133.3651308255
 21
172.3601911558
  0
LINE
  5
34E
100
AcDbEntity
  8
BEZUGSACHSEN
100
AcDbLine
 62
7
  6
CONTINUOUS
 10
133.4442551322
 20
170.2685743243
 11
133.4442551322
 21
170.4810602811
  0
LINE
  5
34F
100
AcDbEntity
  8
BEZUGSACHSEN
100
AcDbLine
 62
7
  6
CONTINUOUS
 10
133.5377109119
 20
165.9733287855
 11
133.5377109119
 21
166.1862355882
  0
LINE
  5
350
100
AcDbEntity
  8
BEZUGSACHSEN
100
AcDbLine
 62
7
  6
CONTINUOUS
 10
133.7577426363
 20
165.4772692958
 11
133.7577426363
 21
165.6902661847
  0
LINE
  5
351
100
AcDbEntity
  8
BEZUGSACHSEN
100
AcDbLine
 62
7
  6
CONTINUOUS
 10
133.7673395063
 20
170.5807034781
 11
133.7673395063
 21
170.7932032176
  0
LINE
  5
352
100
AcDbEntity
  8
BEZUGSACHSEN
100
AcDbLine
 62
7
  6
CONTINUOUS
 10
134.0457333283
 20
171.0671292947
 11
134.0457333283
 21
171.2796237754
  0
LINE
  5
353
100
AcDbEntity
  8
BEZUGSACHSEN
100
AcDbLine
 62
7
  6
CONTINUOUS
 10
134.1402393948
 20
171.4846120308
 11
134.1402393948
 21
171.6970856442
  0
LINE
  5
354
100
AcDbEntity
  8
BEZUGSACHSEN
100
AcDbLine
 62
7
  6
CONTINUOUS
 10
134.1746456152
 20
165.0174306738
 11
134.1746456152
 21
165.2305464472
  0
LINE
  5
355
100
AcDbEntity
  8
BEZUGSACHSEN
100
AcDbLine
 62
7
  6
CONTINUOUS
 10
134.3888873029
 20
166.9402629978
 11
134.3888873029
 21
167.1531820333
  0
LINE
  5
356
100
AcDbEntity
  8
BEZUGSACHSEN
100
AcDbLine
 62
7
  6
CONTINUOUS
 10
134.6648941239
 20
167.4402359107
 11
134.6648941239
 21
167.6531386419
  0
LINE
  5
357
100
AcDbEntity
  8
BEZUGSACHSEN
100
AcDbLine
 62
7
  6
CONTINUOUS
 10
135.0953034408
 20
164.3804609164
 11
135.0953034408
 21
164.5938010491
  0
LINE
  5
358
100
AcDbEntity
  8
BEZUGSACHSEN
100
AcDbLine
 62
7
  6
CONTINUOUS
 10
135.7013520406
 20
164.1325607971
 11
135.7013520406
 21
164.3460287437
  0
LINE
  5
359
100
AcDbEntity
  8
BEZUGSACHSEN
100
AcDbLine
 62
7
  6
CONTINUOUS
 10
136.0835214091
 20
169.0517945836
 11
136.0835214091
 21
169.2647163023
  0
LINE
  5
35A
100
AcDbEntity
  8
BEZUGSACHSEN
100
AcDbLine
 62
7
  6
CONTINUOUS
 10
136.2996867301
 20
164.0624357715
 11
136.2996867301
 21
164.2760049836
  0
LINE
  5
35B
100
AcDbEntity
  8
BEZUGSACHSEN
100
AcDbLine
 62
7
  6
CONTINUOUS
 10
136.5641157362
 20
169.4112704305
 11
136.5641157362
 21
169.6242166596
  0
LINE
  5
35C
100
AcDbEntity
  8
BEZUGSACHSEN
100
AcDbLine
 62
7
  6
CONTINUOUS
 10
136.8845081403
 20
166.5998854155
 11
136.8845081403
 21
166.8131905143
  0
LINE
  5
35D
100
AcDbEntity
  8
BEZUGSACHSEN
100
AcDbLine
 62
7
  6
CONTINUOUS
 10
137.0524312792
 20
169.5929167395
 11
137.0524312792
 21
169.8059056647
  0
LINE
  5
35E
100
AcDbEntity
  8
BEZUGSACHSEN
100
AcDbLine
 62
7
  6
CONTINUOUS
 10
137.0871670322
 20
164.2066137491
 11
137.0871670322
 21
164.4202793443
  0
LINE
  5
35F
100
AcDbEntity
  8
BEZUGSACHSEN
100
AcDbLine
 62
7
  6
CONTINUOUS
 10
137.5484675081
 20
169.5965219913
 11
137.5484675081
 21
169.8095722484
  0
LINE
  5
360
100
AcDbEntity
  8
BEZUGSACHSEN
100
AcDbLine
 62
7
  6
CONTINUOUS
 10
137.5677614255
 20
164.5649480386
 11
137.5677614255
 21
164.7786303505
  0
LINE
  5
361
100
AcDbEntity
  8
BEZUGSACHSEN
100
AcDbLine
 62
7
  6
CONTINUOUS
 10
138.0522270292
 20
169.4217808794
 11
138.0522270292
 21
169.6349122338
  0
LINE
  5
362
100
AcDbEntity
  8
BEZUGSACHSEN
100
AcDbLine
 62
7
  6
CONTINUOUS
 10
138.9728848548
 20
168.7848745917
 11
138.9728848548
 21
168.99819242
  0
LINE
  5
363
100
AcDbEntity
  8
BEZUGSACHSEN
100
AcDbLine
 62
7
  6
CONTINUOUS
 10
138.9863887107
 20
166.1767739636
 11
138.9863887107
 21
166.3904240132
  0
LINE
  5
364
100
AcDbEntity
  8
KONSTRUKTIONSELEMENTE
100
AcDbLine
 62
7
  6
CONTINUOUS
 10
139.0640383847
 20
93.0205494671
 11
139.0640383847
 21
83.2494876251
  0
LINE
  5
365
100
AcDbEntity
  8
BEZUGSACHSEN
100
AcDbLine
 62
7
  6
CONTINUOUS
 10
139.2237931186
 20
167.5717606494
 11
139.2237931186
 21
167.7852575204
  0
LINE
  5
366
100
AcDbEntity
  8
BEZUGSACHSEN
100
AcDbLine
 62
7
  6
CONTINUOUS
 10
139.2874894062
 20
168.3934734403
 11
139.2874894062
 21
168.6068772832
  0
LINE
  5
367
100
AcDbEntity
  8
BEZUGSACHSEN
100
AcDbLine
 62
7
  6
CONTINUOUS
 10
139.8375650024
 20
167.1438395261
 11
139.8375650024
 21
167.35747224
  0
LINE
  5
368
100
AcDbEntity
  8
BEZUGSACHSEN
100
AcDbLine
 62
7
  6
CONTINUOUS
 10
140.2081472318
 20
167.7524838547
 11
140.2081472318
 21
167.9660851662
  0
LINE
  5
369
100
AcDbEntity
  8
BEZUGSACHSEN
100
AcDbLine
 62
7
  6
CONTINUOUS
 10
141.7517413835
 20
157.8577859969
 11
141.7517413835
 21
158.0734124412
  0
LINE
  5
36A
100
AcDbEntity
  8
BEZUGSACHSEN
100
AcDbLine
 62
7
  6
CONTINUOUS
 10
142.1917655303
 20
157.2724063744
 11
142.1917655303
 21
157.4882396522
  0
LINE
  5
36B
100
AcDbEntity
  8
BEZUGSACHSEN
100
AcDbLine
 62
7
  6
CONTINUOUS
 10
143.6063409068
 20
155.4027141819
 11
143.6063409068
 21
155.6192253779
  0
LINE
  5
36C
100
AcDbEntity
  8
BEZUGSACHSEN
100
AcDbLine
 62
7
  6
CONTINUOUS
 10
143.7641571106
 20
154.8198637212
 11
143.7641571106
 21
155.0365566164
  0
LINE
  5
36D
100
AcDbEntity
  8
BEZUGSACHSEN
100
AcDbLine
 62
7
  6
CONTINUOUS
 10
144.0628001197
 20
154.2931369851
 11
144.0628001197
 21
154.510014954
  0
LINE
  5
36E
100
AcDbEntity
  8
BEZUGSACHSEN
100
AcDbLine
 62
7
  6
CONTINUOUS
 10
144.4726735277
 20
156.0129015266
 11
144.4726735277
 21
156.229351805
  0
LINE
  5
36F
100
AcDbEntity
  8
BEZUGSACHSEN
100
AcDbLine
 62
7
  6
CONTINUOUS
 10
144.5022672
 20
153.8225404742
 11
144.5022672
 21
154.0396039478
  0
LINE
  5
370
100
AcDbEntity
  8
BEZUGSACHSEN
100
AcDbLine
 62
7
  6
CONTINUOUS
 10
144.7756962548
 20
156.3942749059
 11
144.7756962548
 21
156.610661219
  0
LINE
  5
371
100
AcDbEntity
  8
BEZUGSACHSEN
100
AcDbLine
 62
7
  6
CONTINUOUS
 10
145.1384491257
 20
156.6706747937
 11
145.1384491257
 21
156.8870328273
  0
LINE
  5
372
100
AcDbEntity
  8
BEZUGSACHSEN
100
AcDbLine
 62
7
  6
CONTINUOUS
 10
145.223390625
 20
153.4652791552
 11
145.223390625
 21
153.6825233226
  0
LINE
  5
373
100
AcDbEntity
  8
BEZUGSACHSEN
100
AcDbLine
 62
7
  6
CONTINUOUS
 10
145.4807451485
 20
160.7851951396
 11
145.4807451485
 21
161.0006476301
  0
LINE
  5
374
100
AcDbEntity
  8
BEZUGSACHSEN
100
AcDbLine
 62
7
  6
CONTINUOUS
 10
145.5609295046
 20
156.8422070474
 11
145.5609295046
 21
157.058570811
  0
LINE
  5
375
100
AcDbEntity
  8
BEZUGSACHSEN
100
AcDbLine
 62
7
  6
CONTINUOUS
 10
145.965883105
 20
153.3762827868
 11
145.965883105
 21
153.5936274711
  0
LINE
  5
376
100
AcDbEntity
  8
BEZUGSACHSEN
100
AcDbLine
 62
7
  6
CONTINUOUS
 10
146.043137589
 20
156.9088533531
 11
146.043137589
 21
157.1252555196
  0
LINE
  5
377
100
AcDbEntity
  8
BEZUGSACHSEN
100
AcDbLine
 62
7
  6
CONTINUOUS
 10
146.4442489255
 20
156.8133075003
 11
146.4442489255
 21
157.0297783325
  0
LINE
  5
378
100
AcDbEntity
  8
BEZUGSACHSEN
100
AcDbLine
 62
7
  6
CONTINUOUS
 10
146.789474919
 20
153.4502412082
 11
146.789474919
 21
153.6676441228
  0
LINE
  5
379
100
AcDbEntity
  8
BEZUGSACHSEN
100
AcDbLine
 62
7
  6
CONTINUOUS
 10
146.9050877701
 20
156.6125191295
 11
146.9050877701
 21
156.8290903632
  0
LINE
  5
37A
100
AcDbEntity
  8
BEZUGSACHSEN
100
AcDbLine
 62
7
  6
CONTINUOUS
 10
146.9094673895
 20
157.5188403482
 11
146.9094673895
 21
157.7351903669
  0
LINE
  5
37B
100
AcDbEntity
  8
BEZUGSACHSEN
100
AcDbLine
 62
7
  6
CONTINUOUS
 10
147.2250998217
 20
156.3542170152
 11
147.2250998217
 21
156.5708870448
  0
LINE
  5
37C
100
AcDbEntity
  8
BEZUGSACHSEN
100
AcDbLine
 62
7
  6
CONTINUOUS
 10
147.4936090812
 20
153.7362083623
 11
147.4936090812
 21
153.9535970364
  0
LINE
  5
37D
100
AcDbEntity
  8
BEZUGSACHSEN
100
AcDbLine
 62
7
  6
CONTINUOUS
 10
147.8141583898
 20
157.7570292416
 11
147.8141583898
 21
157.9734211333
  0
LINE
  5
37E
100
AcDbEntity
  8
BEZUGSACHSEN
100
AcDbLine
 62
7
  6
CONTINUOUS
 10
148.0782852957
 20
154.234093946
 11
148.0782852957
 21
154.4514008275
  0
LINE
  5
37F
100
AcDbEntity
  8
BEZUGSACHSEN
100
AcDbLine
 62
7
  6
CONTINUOUS
 10
148.2963666714
 20
157.8236413921
 11
148.2963666714
 21
158.040068824
  0
LINE
  5
380
100
AcDbEntity
  8
BEZUGSACHSEN
100
AcDbLine
 62
7
  6
CONTINUOUS
 10
148.3150254697
 20
160.7144654323
 11
148.3150254697
 21
160.9302621559
  0
LINE
  5
381
100
AcDbEntity
  8
BEZUGSACHSEN
100
AcDbLine
 62
7
  6
CONTINUOUS
 10
148.3215804161
 20
154.7232337982
 11
148.3215804161
 21
154.9404331217
  0
LINE
  5
382
100
AcDbEntity
  8
BEZUGSACHSEN
100
AcDbLine
 62
7
  6
CONTINUOUS
 10
148.4454177859
 20
155.4233101668
 11
148.4454177859
 21
155.6403394949
  0
LINE
  5
383
100
AcDbEntity
  8
BEZUGSACHSEN
100
AcDbLine
 62
7
  6
CONTINUOUS
 10
148.8383048009
 20
157.7852131883
 11
148.8383048009
 21
158.0017058054
  0
LINE
  5
384
100
AcDbEntity
  8
BEZUGSACHSEN
100
AcDbLine
 62
7
  6
CONTINUOUS
 10
149.2991436455
 20
157.584364215
 11
149.2991436455
 21
157.8009501551
  0
LINE
  5
385
100
AcDbEntity
  8
BEZUGSACHSEN
100
AcDbLine
 62
7
  6
CONTINUOUS
 10
149.61039099
 20
155.5065127031
 11
149.61039099
 21
155.7236304082
  0
LINE
  5
386
100
AcDbEntity
  8
BEZUGSACHSEN
100
AcDbLine
 62
7
  6
CONTINUOUS
 10
149.6191556971
 20
157.3260267144
 11
149.6191556971
 21
157.5427045825
  0
LINE
  5
387
100
AcDbEntity
  8
BEZUGSACHSEN
100
AcDbLine
 62
7
  6
CONTINUOUS
 10
149.9090339991
 20
154.977495541
 11
149.9090339991
 21
155.1947735439
  0
LINE
  5
388
100
AcDbEntity
  8
BEZUGSACHSEN
100
AcDbLine
 62
7
  6
CONTINUOUS
 10
150.27178687
 20
155.2549111954
 11
150.27178687
 21
155.4721512453
  0
LINE
  5
389
100
AcDbEntity
  8
BEZUGSACHSEN
100
AcDbLine
 62
7
  6
CONTINUOUS
 10
150.6559087833
 20
155.8010021987
 11
150.6559087833
 21
156.0181413317
  0
LINE
  5
38A
100
AcDbEntity
  8
BEZUGSACHSEN
100
AcDbLine
 62
7
  6
CONTINUOUS
 10
150.7797461532
 20
156.5007664514
 11
150.7797461532
 21
156.7177483284
  0
LINE
  5
38B
100
AcDbEntity
  8
RUNDUNGEN
100
AcDbLine
 62
7
  6
CONTINUOUS
 10
152.9119264283
 20
108.7464632188
 11
152.9119264283
 21
73.0954723782
  0
LINE
  5
38C
100
AcDbEntity
  8
0
100
AcDbLine
 62
7
  6
CONTINUOUS
 10
152.9119264283
 20
73.0954723782
 11
152.9119264283
 21
60.7327377009
  0
LINE
  5
38D
100
AcDbEntity
  8
KONSTRUKTIONSELEMENTE
100
AcDbLine
 62
7
  6
CONTINUOUS
 10
155.7454248844
 20
59.5404254429
 11
155.7454248844
 21
55.210298424
  0
LINE
  5
38E
100
AcDbEntity
  8
0
100
AcDbLine
 62
7
  6
CONTINUOUS
 10
156.6314852581
 20
95.6865618042
 11
156.6314852581
 21
99.6248426293
  0
LINE
  5
38F
100
AcDbEntity
  8
0
100
AcDbLine
 62
7
  6
CONTINUOUS
 10
161.4119264283
 20
121.2431918289
 11
161.4119264283
 21
153.0490260645
  0
LINE
  5
390
100
AcDbEntity
  8
0
100
AcDbLine
 62
7
  6
CONTINUOUS
 10
156.6314852581
 20
95.6865618042
 11
161.4119264283
 21
121.2431918289
  0
LINE
  5
391
100
AcDbEntity
  8
0
100
AcDbLine
 62
7
  6
CONTINUOUS
 10
156.6314852581
 20
99.6248426293
 11
161.4119264283
 21
125.020656453
  0
LINE
  5
392
100
AcDbEntity
  8
KONSTRUKTIONSELEMENTE
100
AcDbLine
 62
7
  6
CONTINUOUS
 10
189.0511940608
 20
100.4601297909
 11
189.0511940608
 21
96.130002772
  0
LINE
  5
393
100
AcDbEntity
  8
0
100
AcDbLine
 62
7
  6
CONTINUOUS
 10
155.8462146874
 20
94.3592202462
 11
156.6314852581
 21
95.6865618042
  0
LINE
  5
394
100
AcDbEntity
  8
RUNDUNGEN
100
AcDbLine
 62
7
  6
CONTINUOUS
 10
155.3842001152
 20
97.6584907828
 11
155.2944003657
 21
97.512333127
  0
LINE
  5
395
100
AcDbEntity
  8
0
100
AcDbLine
 62
7
  6
CONTINUOUS
 10
155.3842001152
 20
93.5927626215
 11
155.2944003657
 21
93.4466049657
  0
LINE
  5
396
100
AcDbEntity
  8
RUNDUNGEN
100
AcDbLine
 62
7
  6
CONTINUOUS
 10
155.8462146874
 20
98.3959787088
 11
156.6314852581
 21
99.6248426293
  0
LINE
  5
397
100
AcDbEntity
  8
KONSTRUKTIONSELEMENTE
100
AcDbLine
 62
7
  6
CONTINUOUS
 10
152.9119264283
 20
75.8818131264
 11
167.1409412134
 21
93.0577533631
  0
LINE
  5
398
100
AcDbEntity
  8
KONSTRUKTIONSELEMENTE
100
AcDbLine
 62
7
  6
CONTINUOUS
 10
155.013085063
 20
54.2467211125
 11
155.6845285104
 21
55.0572250511
  0
LINE
  5
399
100
AcDbEntity
  8
KONSTRUKTIONSELEMENTE
100
AcDbLine
 62
7
  6
CONTINUOUS
 10
187.6003267696
 20
93.5830015568
 11
188.4422303208
 21
94.5992690425
  0
LINE
  5
39A
100
AcDbEntity
  8
0
100
AcDbLine
 62
7
  6
CONTINUOUS
 10
151.2451774973
 20
58.378603938
 11
152.2185565479
 21
59.2185654087
  0
LINE
  5
39B
100
AcDbEntity
  8
0
100
AcDbLine
 62
7
  6
CONTINUOUS
 10
150.5416374767
 20
57.7811419859
 11
151.2452590788
 21
58.378674442
  0
LINE
  5
39C
100
AcDbEntity
  8
0
100
AcDbLine
 62
7
  6
CONTINUOUS
 10
149.7439499265
 20
57.1286758843
 11
150.5521441444
 21
57.7899182726
  0
LINE
  5
39D
100
AcDbEntity
  8
0
100
AcDbLine
 62
7
  6
CONTINUOUS
 10
148.9807907606
 20
56.5321690346
 11
149.7533687741
 21
57.1362142336
  0
LINE
  5
39E
100
AcDbEntity
  8
0
100
AcDbLine
 62
7
  6
CONTINUOUS
 10
148.2535513748
 20
55.9923817304
 11
148.9890927432
 21
56.5384997427
  0
LINE
  5
39F
100
AcDbEntity
  8
0
100
AcDbLine
 62
7
  6
CONTINUOUS
 10
147.5631559224
 20
55.5096482639
 11
148.260755584
 21
55.9975789996
  0
LINE
  5
3A0
100
AcDbEntity
  8
0
100
AcDbLine
 62
7
  6
CONTINUOUS
 10
146.9089748392
 20
55.0832309689
 11
147.5693034389
 21
55.513805932
  0
LINE
  5
3A1
100
AcDbEntity
  8
0
100
AcDbLine
 62
7
  6
CONTINUOUS
 10
146.2902242754
 20
54.7124474536
 11
146.9141301004
 21
55.0864605108
  0
LINE
  5
3A2
100
AcDbEntity
  8
0
100
AcDbLine
 62
7
  6
CONTINUOUS
 10
145.7042289622
 20
54.3957701725
 11
146.2944711675
 21
54.7148720369
  0
ARC
  5
3A3
100
AcDbEntity
  8
BEZUGSACHSEN
100
AcDbCircle
 62
7
  6
CONTINUOUS
 10
277.3732266839
 20
-115.8734449421
 40
367.7166098591
100
AcDbArc
 50
49.1037086153
 51
49.2715362397
  0
ARC
  5
3A4
100
AcDbEntity
  8
BEZUGSACHSEN
100
AcDbCircle
 62
7
  6
CONTINUOUS
 10
343.263441544
 20
-39.6398980621
 40
267.2657839967
100
AcDbArc
 50
49.0815601877
 51
49.3126957374
  0
ARC
  5
3A5
100
AcDbEntity
  8
BEZUGSACHSEN
100
AcDbCircle
 62
7
  6
CONTINUOUS
 10
301.9924267215
 20
44.5004621501
 40
246.6168625619
100
AcDbArc
 50
29.3795943629
 51
29.4942484532
  0
ARC
  5
3A6
100
AcDbEntity
  8
BEZUGSACHSEN
100
AcDbCircle
 62
7
  6
CONTINUOUS
 10
320.7635368532
 20
56.1345927755
 40
225.0996762935
100
AcDbArc
 50
29.9752838139
 51
30.0944027048
  0
ARC
  5
3A7
100
AcDbEntity
  8
BEZUGSACHSEN
100
AcDbCircle
 62
7
  6
CONTINUOUS
 10
322.9385841101
 20
60.5225325053
 40
219.6465398261
100
AcDbArc
 50
27.9564472385
 51
28.1124262205
  0
ARC
  5
3A8
100
AcDbEntity
  8
BEZUGSACHSEN
100
AcDbCircle
 62
7
  6
CONTINUOUS
 10
359.0303809824
 20
79.9689980713
 40
179.6714177342
100
AcDbArc
 50
28.2236451481
 51
28.4059767173
  0
ARC
  5
3A9
100
AcDbEntity
  8
0
100
AcDbCircle
 62
7
  6
CONTINUOUS
 10
443.4807338849
 20
76.0968372711
 40
22.5
100
AcDbArc
 50
192.2268364662
 51
307.7731635338
  0
ARC
  5
3AA
100
AcDbEntity
  8
RUNDUNGEN
100
AcDbCircle
 62
7
  6
CONTINUOUS
 10
435.0933877047
 20
89.6003480338
 40
10.0
100
AcDbArc
 50
129.9999999918
 51
160.0000000168
  0
ARC
  5
3AB
100
AcDbEntity
  8
0
100
AcDbCircle
 62
7
  6
CONTINUOUS
 10
458.5857032243
 20
81.0498444507
 40
10.0
100
AcDbArc
 50
340.0
 51
10.0
  0
ARC
  5
3AC
100
AcDbEntity
  8
0
100
AcDbCircle
 62
7
  6
CONTINUOUS
 10
524.073000648
 20
81.0498444507
 40
10.0
100
AcDbArc
 50
170.0
 51
200.0
  0
CIRCLE
  5
3AD
100
AcDbEntity
  8
0
100
AcDbCircle
 62
7
  6
CONTINUOUS
 10
443.4807338849
 20
76.0968372711
 40
9.5
  0
ARC
  5
3AE
100
AcDbEntity
  8
RUNDUNGEN
100
AcDbCircle
 62
7
  6
CONTINUOUS
 10
426.3455096254
 20
77.2609681436
 40
6.0
100
AcDbArc
 50
159.9999999602
 51
192.2268365354
  0
ARC
  5
3AF
100
AcDbEntity
  8
0
100
AcDbCircle
 62
7
  6
CONTINUOUS
 10
457.3553661114
 20
65.9743034139
 40
6.0
100
AcDbArc
 50
307.7731635338
 51
340.0
  0
ARC
  5
3B0
100
AcDbEntity
  8
0
100
AcDbCircle
 62
7
  6
CONTINUOUS
 10
525.303337761
 20
65.9743034139
 40
6.0
100
AcDbArc
 50
200.0
 51
232.2268364662
  0
ARC
  5
3B1
100
AcDbEntity
  8
BEZUGSACHSEN
100
AcDbCircle
 62
7
  6
CONTINUOUS
 10
368.388198494
 20
91.0525565727
 40
165.1380309767
100
AcDbArc
 50
26.0136656722
 51
26.150188844
  0
ARC
  5
3B2
100
AcDbEntity
  8
KONSTRUKTIONSELEMENTE
100
AcDbCircle
 62
7
  6
CONTINUOUS
 10
336.5273110097
 20
118.1848349191
 40
8.25
100
AcDbArc
 50
45.8421444573
 51
120.0
  0
ARC
  5
3B3
100
AcDbEntity
  8
KONSTRUKTIONSELEMENTE
100
AcDbCircle
 62
7
  6
CONTINUOUS
 10
336.5273110097
 20
118.1848349191
 40
8.25
100
AcDbArc
 50
300.0
 51
14.1578555427
  0
ARC
  5
3B4
100
AcDbEntity
  8
KONSTRUKTIONSELEMENTE
100
AcDbCircle
 62
7
  6
CONTINUOUS
 10
329.1660950775
 20
113.9348349191
 40
8.25
100
AcDbArc
 50
227.6769957192
 51
300.0
  0
ARC
  5
3B5
100
AcDbEntity
  8
KONSTRUKTIONSELEMENTE
100
AcDbCircle
 62
7
  6
CONTINUOUS
 10
329.1660950775
 20
113.9348349191
 40
8.25
100
AcDbArc
 50
120.0
 51
192.3230042808
  0
ARC
  5
3B6
100
AcDbEntity
  8
KONSTRUKTIONSELEMENTE
100
AcDbCircle
 62
7
  6
CONTINUOUS
 10
336.5273110097
 20
118.1848349191
 40
3.25
100
AcDbArc
 50
73.8837571799
 51
120.0
  0
ARC
  5
3B7
100
AcDbEntity
  8
KONSTRUKTIONSELEMENTE
100
AcDbCircle
 62
7
  6
CONTINUOUS
 10
336.5273110097
 20
118.1848349191
 40
3.25
100
AcDbArc
 50
300.0
 51
346.1162428201
  0
ARC
  5
3B8
100
AcDbEntity
  8
KONSTRUKTIONSELEMENTE
100
AcDbCircle
 62
7
  6
CONTINUOUS
 10
329.1660950775
 20
113.9348349191
 40
3.25
100
AcDbArc
 50
260.4863577938
 51
300.0
  0
ARC
  5
3B9
100
AcDbEntity
  8
KONSTRUKTIONSELEMENTE
100
AcDbCircle
 62
7
  6
CONTINUOUS
 10
329.1660950775
 20
113.9348349191
 40
3.25
100
AcDbArc
 50
120.0
 51
159.5136422062
  0
ARC
  5
3BA
100
AcDbEntity
  8
KONSTRUKTIONSELEMENTE
100
AcDbCircle
 62
7
  6
CONTINUOUS
 10
337.3933364135
 20
118.6848349191
 40
2.25
100
AcDbArc
 50
120.0
 51
300.0
  0
ARC
  5
3BB
100
AcDbEntity
  8
KONSTRUKTIONSELEMENTE
100
AcDbCircle
 62
7
  6
CONTINUOUS
 10
361.4255413685
 20
132.5598349191
 40
8.0
100
AcDbArc
 50
226.3642958278
 51
300.0
  0
ARC
  5
3BC
100
AcDbEntity
  8
KONSTRUKTIONSELEMENTE
100
AcDbCircle
 62
7
  6
CONTINUOUS
 10
361.4255413685
 20
132.5598349191
 40
8.0
100
AcDbArc
 50
120.0
 51
193.6357041722
  0
ARC
  5
3BD
100
AcDbEntity
  8
KONSTRUKTIONSELEMENTE
100
AcDbCircle
 62
7
  6
CONTINUOUS
 10
374.4159224253
 20
140.0598349191
 40
8.0
100
AcDbArc
 50
46.3642958278
 51
120.0
  0
ARC
  5
3BE
100
AcDbEntity
  8
KONSTRUKTIONSELEMENTE
100
AcDbCircle
 62
7
  6
CONTINUOUS
 10
374.4159224253
 20
140.0598349191
 40
8.0
100
AcDbArc
 50
300.0
 51
13.6357041722
  0
ARC
  5
3BF
100
AcDbEntity
  8
KONSTRUKTIONSELEMENTE
100
AcDbCircle
 62
7
  6
CONTINUOUS
 10
361.4255413685
 20
132.5598349191
 40
3.5
100
AcDbArc
 50
250.1538775079
 51
300.0
  0
ARC
  5
3C0
100
AcDbEntity
  8
KONSTRUKTIONSELEMENTE
100
AcDbCircle
 62
7
  6
CONTINUOUS
 10
361.4255413685
 20
132.5598349191
 40
3.5
100
AcDbArc
 50
120.0
 51
169.8461224921
  0
ARC
  5
3C1
100
AcDbEntity
  8
KONSTRUKTIONSELEMENTE
100
AcDbCircle
 62
7
  6
CONTINUOUS
 10
374.4159224253
 20
140.0598349191
 40
3.5
100
AcDbArc
 50
70.1538775079
 51
120.0
  0
ARC
  5
3C2
100
AcDbEntity
  8
KONSTRUKTIONSELEMENTE
100
AcDbCircle
 62
7
  6
CONTINUOUS
 10
374.4159224253
 20
140.0598349191
 40
3.5
100
AcDbArc
 50
300.0
 51
349.8461224921
  0
ARC
  5
3C3
100
AcDbEntity
  8
KONSTRUKTIONSELEMENTE
100
AcDbCircle
 62
7
  6
CONTINUOUS
 10
360.3430096138
 20
131.9348349191
 40
2.25
100
AcDbArc
 50
300.0
 51
120.0
  0
ARC
  5
3C4
100
AcDbEntity
  8
KONSTRUKTIONSELEMENTE
100
AcDbCircle
 62
7
  6
CONTINUOUS
 10
375.49845418
 20
140.6848349191
 40
2.25
100
AcDbArc
 50
120.0
 51
300.0
  0
ARC
  5
3C5
100
AcDbEntity
  8
BEZUGSACHSEN
100
AcDbCircle
 62
7
  6
CONTINUOUS
 10
380.9599295992
 20
92.8900414372
 40
154.7060908693
100
AcDbArc
 50
29.0207882484
 51
29.2160417851
  0
ARC
  5
3C6
100
AcDbEntity
  8
BEZUGSACHSEN
100
AcDbCircle
 62
7
  6
CONTINUOUS
 10
421.8266798859
 20
120.2183949518
 40
105.2937017657
100
AcDbArc
 50
25.2233028691
 51
25.464179711
  0
ARC
  5
3C7
100
AcDbEntity
  8
KONSTRUKTIONSELEMENTE
100
AcDbCircle
 62
7
  6
CONTINUOUS
 10
429.6232097199
 20
111.1184694909
 40
9.9999480447
100
AcDbArc
 50
309.9990474183
 51
339.9991750332
  0
ARC
  5
3C8
100
AcDbEntity
  8
BEZUGSACHSEN
100
AcDbCircle
 62
7
  6
CONTINUOUS
 10
429.3663982922
 20
133.221711923
 40
91.7273028099
100
AcDbArc
 50
18.9139532288
 51
19.9846475775
  0
ARC
  5
3C9
100
AcDbEntity
  8
BEZUGSACHSEN
100
AcDbCircle
 62
7
  6
CONTINUOUS
 10
429.5167022072
 20
133.2755165246
 40
91.5676608516
100
AcDbArc
 50
20.0716741131
 51
20.3427578489
  0
ARC
  5
3CA
100
AcDbEntity
  8
KONSTRUKTIONSELEMENTE
100
AcDbCircle
 62
7
  6
CONTINUOUS
 10
428.9548730535
 20
133.1476696216
 40
91.5114648425
100
AcDbArc
 50
18.8668212899
 51
20.2978754907
  0
ARC
  5
3CB
100
AcDbEntity
  8
BEZUGSACHSEN
100
AcDbCircle
 62
7
  6
CONTINUOUS
 10
431.5777842518
 20
133.4639038183
 40
89.7616824073
100
AcDbArc
 50
19.3992548995
 51
20.4104395024
  0
ARC
  5
3CC
100
AcDbEntity
  8
KONSTRUKTIONSELEMENTE
100
AcDbCircle
 62
7
  6
CONTINUOUS
 10
406.6753687162
 20
158.6848349191
 40
8.25
100
AcDbArc
 50
55.1568492871
 51
120.0
  0
ARC
  5
3CD
100
AcDbEntity
  8
KONSTRUKTIONSELEMENTE
100
AcDbCircle
 62
7
  6
CONTINUOUS
 10
406.6753687162
 20
158.6848349191
 40
8.25
100
AcDbArc
 50
300.0
 51
4.8431507129
  0
ARC
  5
3CE
100
AcDbEntity
  8
KONSTRUKTIONSELEMENTE
100
AcDbCircle
 62
7
  6
CONTINUOUS
 10
399.3141527841
 20
154.4348349191
 40
8.25
100
AcDbArc
 50
225.8421444573
 51
300.0
  0
ARC
  5
3CF
100
AcDbEntity
  8
KONSTRUKTIONSELEMENTE
100
AcDbCircle
 62
7
  6
CONTINUOUS
 10
399.3141527841
 20
154.4348349191
 40
8.25
100
AcDbArc
 50
120.0
 51
194.1578555427
  0
ARC
  5
3D0
100
AcDbEntity
  8
KONSTRUKTIONSELEMENTE
100
AcDbCircle
 62
7
  6
CONTINUOUS
 10
406.0258496634
 20
158.3098349191
 40
3.5
100
AcDbArc
 50
141.6630838942
 51
278.3369161058
  0
ARC
  5
3D1
100
AcDbEntity
  8
KONSTRUKTIONSELEMENTE
100
AcDbCircle
 62
7
  6
CONTINUOUS
 10
399.3141527841
 20
154.4348349191
 40
3.25
100
AcDbArc
 50
253.8837571799
 51
300.0
  0
ARC
  5
3D2
100
AcDbEntity
  8
KONSTRUKTIONSELEMENTE
100
AcDbCircle
 62
7
  6
CONTINUOUS
 10
399.3141527841
 20
154.4348349191
 40
3.25
100
AcDbArc
 50
120.0
 51
166.1162428201
  0
ARC
  5
3D3
100
AcDbEntity
  8
KONSTRUKTIONSELEMENTE
100
AcDbCircle
 62
7
  6
CONTINUOUS
 10
398.4481273803
 20
153.9348349191
 40
2.25
100
AcDbArc
 50
300.0
 51
120.0
  0
ARC
  5
3D4
100
AcDbEntity
  8
BEZUGSACHSEN
100
AcDbCircle
 62
7
  6
CONTINUOUS
 10
435.0667616886
 20
126.9184914077
 40
90.6335757782
100
AcDbArc
 50
24.4726772657
 51
24.8022771823
  0
ARC
  5
3D5
100
AcDbEntity
  8
BEZUGSACHSEN
100
AcDbCircle
 62
7
  6
CONTINUOUS
 10
437.7771328671
 20
134.0354748432
 40
84.326427901
100
AcDbArc
 50
19.2071240803
 51
19.8218030026
  0
ARC
  5
3D6
100
AcDbEntity
  8
BEZUGSACHSEN
100
AcDbCircle
 62
7
  6
CONTINUOUS
 10
437.8596093236
 20
134.064909001
 40
84.2388570235
100
AcDbArc
 50
19.8219915385
 51
20.4373647607
  0
ARC
  5
3D7
100
AcDbEntity
  8
BEZUGSACHSEN
100
AcDbCircle
 62
7
  6
CONTINUOUS
 10
440.2133746686
 20
134.2489354754
 40
82.1983919171
100
AcDbArc
 50
19.1860142126
 51
19.4681134147
  0
ARC
  5
3D8
100
AcDbEntity
  8
BEZUGSACHSEN
100
AcDbCircle
 62
7
  6
CONTINUOUS
 10
440.3238926437
 20
134.288001692
 40
82.0811724985
100
AcDbArc
 50
19.4681141029
 51
19.7506256451
  0
ARC
  5
3D9
100
AcDbEntity
  8
BEZUGSACHSEN
100
AcDbCircle
 62
7
  6
CONTINUOUS
 10
440.371732633
 20
134.3051120051
 40
82.0303647879
100
AcDbArc
 50
19.7506694187
 51
20.3160983999
  0
ARC
  5
3DA
100
AcDbEntity
  8
BEZUGSACHSEN
100
AcDbCircle
 62
7
  6
CONTINUOUS
 10
445.0494821126
 20
133.4036968597
 40
78.9806743467
100
AcDbArc
 50
26.1868867428
 51
26.4640353672
  0
ARC
  5
3DB
100
AcDbEntity
  8
BEZUGSACHSEN
100
AcDbCircle
 62
7
  6
CONTINUOUS
 10
458.1491789755
 20
119.094830089
 40
76.7531637281
100
AcDbArc
 50
44.6426778302
 51
44.8421631791
  0
ARC
  5
3DC
100
AcDbEntity
  8
BEZUGSACHSEN
100
AcDbCircle
 62
7
  6
CONTINUOUS
 10
448.6687900841
 20
134.9580535927
 40
74.8304148552
100
AcDbArc
 50
20.9352184119
 51
21.4457383597
  0
ARC
  5
3DD
100
AcDbEntity
  8
BEZUGSACHSEN
100
AcDbCircle
 62
7
  6
CONTINUOUS
 10
448.7230598217
 20
134.991364898
 40
74.7680131981
100
AcDbArc
 50
18.6638082286
 51
19.1017501881
  0
ARC
  5
3DE
100
AcDbEntity
  8
0
100
AcDbCircle
 62
7
  6
CONTINUOUS
 10
476.6076845288
 20
94.0175191878
 40
9.9999480447
100
AcDbArc
 50
160.0008249668
 51
188.6284929339
  0
ARC
  5
3DF
100
AcDbEntity
  8
RUNDUNGEN
100
AcDbCircle
 62
7
  6
CONTINUOUS
 10
447.2015900997
 20
115.557849704
 40
5.0
100
AcDbArc
 50
92.0243056227
 51
160.0
  0
ARC
  5
3E0
100
AcDbEntity
  8
0
100
AcDbCircle
 62
7
  6
CONTINUOUS
 10
465.9954425154
 20
108.7174468375
 40
5.0
100
AcDbArc
 50
340.0
 51
47.9756943773
  0
ARC
  5
3E1
100
AcDbEntity
  8
0
100
AcDbCircle
 62
7
  6
CONTINUOUS
 10
471.3510096473
 20
114.6603334001
 40
3.0
100
AcDbArc
 50
168.4969608954
 51
227.975742793
  0
ARC
  5
3E2
100
AcDbEntity
  8
RUNDUNGEN
100
AcDbCircle
 62
7
  6
CONTINUOUS
 10
446.9190015069
 20
123.5528571266
 40
3.0
100
AcDbArc
 50
272.024257207
 51
331.5030391046
  0
ARC
  5
3E3
100
AcDbEntity
  8
BEZUGSACHSEN
100
AcDbCircle
 62
7
  6
CONTINUOUS
 10
457.3641256034
 20
139.4581969848
 40
65.4056855348
100
AcDbArc
 50
25.4300663805
 51
25.81687832
  0
ARC
  5
3E4
100
AcDbEntity
  8
BEZUGSACHSEN
100
AcDbCircle
 62
7
  6
CONTINUOUS
 10
454.5138187629
 20
147.5468591496
 40
63.1931968581
100
AcDbArc
 50
20.9066424585
 51
21.3361166544
  0
ARC
  5
3E5
100
AcDbEntity
  8
BEZUGSACHSEN
100
AcDbCircle
 62
7
  6
CONTINUOUS
 10
454.5506075609
 20
147.5669391044
 40
63.1517517069
100
AcDbArc
 50
18.7530337392
 51
19.1827774094
  0
ARC
  5
3E6
100
AcDbEntity
  8
KONSTRUKTIONSELEMENTE
100
AcDbCircle
 62
7
  6
CONTINUOUS
 10
454.0777553595
 20
147.4409306409
 40
63.0151202039
100
AcDbArc
 50
20.8640991224
 51
21.2947809348
  0
ARC
  5
3E7
100
AcDbEntity
  8
KONSTRUKTIONSELEMENTE
100
AcDbCircle
 62
7
  6
CONTINUOUS
 10
454.0756056326
 20
147.4468371337
 40
63.0151201469
100
AcDbArc
 50
18.705219065
 51
19.1359010832
  0
ARC
  5
3E8
100
AcDbEntity
  8
BEZUGSACHSEN
100
AcDbCircle
 62
7
  6
CONTINUOUS
 10
461.7146723117
 20
151.3091767491
 40
55.4043638998
100
AcDbArc
 50
14.4213562311
 51
14.806276654
  0
ARC
  5
3E9
100
AcDbEntity
  8
KONSTRUKTIONSELEMENTE
100
AcDbCircle
 62
7
  6
CONTINUOUS
 10
461.1568595927
 20
151.1590892383
 40
55.3575111808
100
AcDbArc
 50
14.3648830388
 51
14.7501651226
  0
ARC
  5
3EA
100
AcDbEntity
  8
BEZUGSACHSEN
100
AcDbCircle
 62
7
  6
CONTINUOUS
 10
467.7306410652
 20
146.9065810247
 40
52.5933617624
100
AcDbArc
 50
19.9676241001
 51
20.1396015774
  0
ARC
  5
3EB
100
AcDbEntity
  8
BEZUGSACHSEN
100
AcDbCircle
 62
7
  6
CONTINUOUS
 10
469.6260787637
 20
146.7982344312
 40
51.0835753993
100
AcDbArc
 50
19.8781366834
 51
20.2322577427
  0
ARC
  5
3EC
100
AcDbEntity
  8
BEZUGSACHSEN
100
AcDbCircle
 62
7
  6
CONTINUOUS
 10
479.0943516276
 20
159.3658189315
 40
37.0061170191
100
AcDbArc
 50
8.3935226877
 51
8.6780585163
  0
ARC
  5
3ED
100
AcDbEntity
  8
BEZUGSACHSEN
100
AcDbCircle
 62
7
  6
CONTINUOUS
 10
478.4961764851
 20
160.4996258286
 40
36.2239639871
100
AcDbArc
 50
18.1495325897
 51
18.7163631664
  0
ARC
  5
3EE
100
AcDbEntity
  8
BEZUGSACHSEN
100
AcDbCircle
 62
7
  6
CONTINUOUS
 10
478.6455198299
 20
160.5503931813
 40
36.0662277113
100
AcDbArc
 50
18.7161075662
 51
20.4241110062
  0
ARC
  5
3EF
100
AcDbEntity
  8
KONSTRUKTIONSELEMENTE
100
AcDbCircle
 62
7
  6
CONTINUOUS
 10
478.1039046891
 20
160.3836147778
 40
36.0112399765
100
AcDbArc
 50
18.0985609926
 51
20.3793761388
  0
ARC
  5
3F0
100
AcDbEntity
  8
BEZUGSACHSEN
100
AcDbCircle
 62
7
  6
CONTINUOUS
 10
479.9354934639
 20
160.1213368026
 40
35.2350859281
100
AcDbArc
 50
18.6849771232
 51
19.4717444375
  0
ARC
  5
3F1
100
AcDbEntity
  8
BEZUGSACHSEN
100
AcDbCircle
 62
7
  6
CONTINUOUS
 10
479.9956527019
 20
160.1424832024
 40
35.1713184557
100
AcDbArc
 50
19.559372654
 51
20.4350526196
  0
ARC
  5
3F2
100
AcDbEntity
  8
BEZUGSACHSEN
100
AcDbCircle
 62
7
  6
CONTINUOUS
 10
466.010117375
 20
143.3317413258
 40
21.7335885595
100
AcDbArc
 50
90.8122596476
 51
91.0428372735
  0
ARC
  5
3F3
100
AcDbEntity
  8
BEZUGSACHSEN
100
AcDbCircle
 62
7
  6
CONTINUOUS
 10
486.2750602142
 20
160.7268528318
 40
21.4760985414
100
AcDbArc
 50
169.6268486433
 51
170.2981557493
  0
ARC
  5
3F4
100
AcDbEntity
  8
BEZUGSACHSEN
100
AcDbCircle
 62
7
  6
CONTINUOUS
 10
469.4737764299
 20
152.0335783856
 40
17.7922881797
100
AcDbArc
 50
92.4522963807
 51
92.7142659879
  0
ARC
  5
3F5
100
AcDbEntity
  8
BEZUGSACHSEN
100
AcDbCircle
 62
7
  6
CONTINUOUS
 10
483.0039635426
 20
163.253495906
 40
17.4831576646
100
AcDbArc
 50
173.4811900419
 51
174.0288132654
  0
ARC
  5
3F6
100
AcDbEntity
  8
BEZUGSACHSEN
100
AcDbCircle
 62
7
  6
CONTINUOUS
 10
471.6101510553
 20
159.7504835456
 40
10.9392056481
100
AcDbArc
 50
108.0306275919
 51
108.5850845139
  0
ARC
  5
3F7
100
AcDbEntity
  8
BEZUGSACHSEN
100
AcDbCircle
 62
7
  6
CONTINUOUS
 10
472.9782180206
 20
171.4368672825
 40
10.5948122463
100
AcDbArc
 50
222.0111013665
 51
222.5228224854
  0
ARC
  5
3F8
100
AcDbEntity
  8
KONSTRUKTIONSELEMENTE
100
AcDbCircle
 62
7
  6
CONTINUOUS
 10
476.4909887625
 20
175.8163290572
 40
8.6580994086
100
AcDbArc
 50
218.9101283791
 51
219.4791057839
  0
ARC
  5
3F9
100
AcDbEntity
  8
BEZUGSACHSEN
100
AcDbCircle
 62
7
  6
CONTINUOUS
 10
475.870612568
 20
175.9853321945
 40
8.6030443863
100
AcDbArc
 50
218.8299571794
 51
219.401255008
  0
ARC
  5
3FA
100
AcDbEntity
  8
0
100
AcDbCircle
 62
7
  6
CONTINUOUS
 10
477.2941891859
 20
163.150933384
 40
8.0
100
AcDbArc
 50
340.0
 51
353.75
  0
ARC
  5
3FB
100
AcDbEntity
  8
BEZUGSACHSEN
100
AcDbCircle
 62
7
  6
CONTINUOUS
 10
473.5354187028
 20
164.5190139573
 40
8.0
100
AcDbArc
 50
150.0640795645
 51
160.0
  0
ARC
  5
3FC
100
AcDbEntity
  8
BEZUGSACHSEN
100
AcDbCircle
 62
7
  6
CONTINUOUS
 10
472.1929099695
 20
173.9972837492
 40
4.8450534257
100
AcDbArc
 50
221.0586032171
 51
221.4751925694
  0
ARC
  5
3FD
100
AcDbEntity
  8
KONSTRUKTIONSELEMENTE
100
AcDbCircle
 62
7
  6
CONTINUOUS
 10
446.7290436413
 20
181.8098349191
 40
3.5
100
AcDbArc
 50
300.0
 51
120.0
  0
ARC
  5
3FE
100
AcDbEntity
  8
BEZUGSACHSEN
100
AcDbCircle
 62
7
  6
CONTINUOUS
 10
537.6669260395
 20
133.7374297156
 40
78.9801952912
100
AcDbArc
 50
164.7512567943
 51
165.1046722085
  0
ARC
  5
3FF
100
AcDbEntity
  8
BEZUGSACHSEN
100
AcDbCircle
 62
7
  6
CONTINUOUS
 10
493.860476093
 20
112.4384469216
 40
57.3142701733
100
AcDbArc
 50
67.7620915444
 51
67.9656892605
  0
ARC
  5
400
100
AcDbEntity
  8
KONSTRUKTIONSELEMENTE
100
AcDbCircle
 62
7
  6
CONTINUOUS
 10
496.2411177773
 20
116.3752479087
 40
56.5983912566
100
AcDbArc
 50
122.3172245469
 51
122.5892179897
  0
ARC
  5
401
100
AcDbEntity
  8
BEZUGSACHSEN
100
AcDbCircle
 62
7
  6
CONTINUOUS
 10
495.5115188751
 20
116.9004868936
 40
56.2588869488
100
AcDbArc
 50
122.3641677183
 51
122.6376277516
  0
ARC
  5
402
100
AcDbEntity
  8
KONSTRUKTIONSELEMENTE
100
AcDbCircle
 62
7
  6
CONTINUOUS
 10
493.9404902888
 20
121.5141150919
 40
48.0234976322
100
AcDbArc
 50
61.2705059324
 51
61.4169750848
  0
ARC
  5
403
100
AcDbEntity
  8
BEZUGSACHSEN
100
AcDbCircle
 62
7
  6
CONTINUOUS
 10
494.640078948
 20
122.0243294653
 40
47.7095616752
100
AcDbArc
 50
61.1447585713
 51
61.4393910159
  0
ARC
  5
404
100
AcDbEntity
  8
BEZUGSACHSEN
100
AcDbCircle
 62
7
  6
CONTINUOUS
 10
495.1841372479
 20
133.0239536505
 40
45.6956533364
100
AcDbArc
 50
124.7027217146
 51
125.0293323915
  0
ARC
  5
405
100
AcDbEntity
  8
BEZUGSACHSEN
100
AcDbCircle
 62
7
  6
CONTINUOUS
 10
524.6887625453
 20
124.685075588
 40
40.6076916533
100
AcDbArc
 50
100.6037240984
 51
100.7188140712
  0
ARC
  5
406
100
AcDbEntity
  8
0
100
AcDbCircle
 62
7
  6
CONTINUOUS
 10
506.0509904733
 20
94.0173554568
 40
10.0
100
AcDbArc
 50
350.0
 51
20.0
  0
ARC
  5
407
100
AcDbEntity
  8
RUNDUNGEN
100
AcDbCircle
 62
7
  6
CONTINUOUS
 10
535.4571137726
 20
115.557849704
 40
5.0
100
AcDbArc
 50
20.0
 51
88.0864505434
  0
ARC
  5
408
100
AcDbEntity
  8
0
100
AcDbCircle
 62
7
  6
CONTINUOUS
 10
516.6632613569
 20
108.7174468375
 40
5.0
100
AcDbArc
 50
131.9135496437
 51
200.0
  0
ARC
  5
409
100
AcDbEntity
  8
RUNDUNGEN
100
AcDbCircle
 62
7
  6
CONTINUOUS
 10
535.7397023655
 20
123.5528571266
 40
3.0
100
AcDbArc
 50
204.0329148335
 51
267.9756751388
  0
ARC
  5
40A
100
AcDbEntity
  8
0
100
AcDbCircle
 62
7
  6
CONTINUOUS
 10
511.307694225
 20
114.6603334001
 40
3.0
100
AcDbArc
 50
312.0243248612
 51
15.967085226
  0
ARC
  5
40B
100
AcDbEntity
  8
BEZUGSACHSEN
100
AcDbCircle
 62
7
  6
CONTINUOUS
 10
510.7131280675
 20
149.2237604989
 40
47.8394101883
100
AcDbArc
 50
159.6308591592
 51
160.0365433198
  0
ARC
  5
40C
100
AcDbEntity
  8
BEZUGSACHSEN
100
AcDbCircle
 62
7
  6
CONTINUOUS
 10
509.1108212394
 20
153.9638644216
 40
47.770182515
100
AcDbArc
 50
179.9091576212
 51
180.337443776
  0
ARC
  5
40D
100
AcDbEntity
  8
BEZUGSACHSEN
100
AcDbCircle
 62
7
  6
CONTINUOUS
 10
508.9404772236
 20
149.0482997493
 40
46.4679600007
100
AcDbArc
 50
159.6199752711
 51
160.455288109
  0
ARC
  5
40E
100
AcDbEntity
  8
BEZUGSACHSEN
100
AcDbCircle
 62
7
  6
CONTINUOUS
 10
509.722996995
 20
159.545311172
 40
45.3853804086
100
AcDbArc
 50
181.9490666766
 51
182.2026728897
  0
ARC
  5
40F
100
AcDbEntity
  8
BEZUGSACHSEN
100
AcDbCircle
 62
7
  6
CONTINUOUS
 10
506.0442616814
 20
157.0044079691
 40
44.4288244001
100
AcDbArc
 50
183.3204913805
 51
183.5821807925
  0
ARC
  5
410
100
AcDbEntity
  8
BEZUGSACHSEN
100
AcDbCircle
 62
7
  6
CONTINUOUS
 10
505.6845154094
 20
158.7530034524
 40
42.0504417732
100
AcDbArc
 50
181.5428279877
 51
182.0892687109
  0
ARC
  5
411
100
AcDbEntity
  8
BEZUGSACHSEN
100
AcDbCircle
 62
7
  6
CONTINUOUS
 10
505.3034320588
 20
158.4132405695
 40
42.0220989495
100
AcDbArc
 50
181.8866471556
 51
182.1604497469
  0
ARC
  5
412
100
AcDbEntity
  8
BEZUGSACHSEN
100
AcDbCircle
 62
7
  6
CONTINUOUS
 10
487.6074528947
 20
157.6692851675
 40
30.2311303465
100
AcDbArc
 50
18.4654190149
 51
18.9115303365
  0
ARC
  5
413
100
AcDbEntity
  8
BEZUGSACHSEN
100
AcDbCircle
 62
7
  6
CONTINUOUS
 10
487.6936200657
 20
157.6988952005
 40
30.1400176235
100
AcDbArc
 50
18.9113702061
 51
20.5076210077
  0
ARC
  5
414
100
AcDbEntity
  8
BEZUGSACHSEN
100
AcDbCircle
 62
7
  6
CONTINUOUS
 10
488.9295481433
 20
157.2508295119
 40
29.3661624227
100
AcDbArc
 50
17.8130361993
 51
19.819188421
  0
ARC
  5
415
100
AcDbEntity
  8
BEZUGSACHSEN
100
AcDbCircle
 62
7
  6
CONTINUOUS
 10
489.033096011
 20
157.2872097146
 40
29.2564131091
100
AcDbArc
 50
20.0739579279
 51
20.5229429139
  0
ARC
  5
416
100
AcDbEntity
  8
BEZUGSACHSEN
100
AcDbCircle
 62
7
  6
CONTINUOUS
 10
492.4509906089
 20
159.1234096824
 40
25.4161806174
100
AcDbArc
 50
22.0676937502
 51
22.4425493451
  0
ARC
  5
417
100
AcDbEntity
  8
BEZUGSACHSEN
100
AcDbCircle
 62
7
  6
CONTINUOUS
 10
490.1728980888
 20
159.1376614926
 40
25.3785615211
100
AcDbArc
 50
157.5571830922
 51
158.3080254065
  0
ARC
  5
418
100
AcDbEntity
  8
BEZUGSACHSEN
100
AcDbCircle
 62
7
  6
CONTINUOUS
 10
492.5209866247
 20
159.1517945086
 40
25.3406482368
100
AcDbArc
 50
21.6916834775
 51
22.0676762415
  0
ARC
  5
419
100
AcDbEntity
  8
BEZUGSACHSEN
100
AcDbCircle
 62
7
  6
CONTINUOUS
 10
490.1071169508
 20
159.1697258167
 40
25.3057435027
100
AcDbArc
 50
161.4562886234
 51
161.895508752
  0
ARC
  5
41A
100
AcDbEntity
  8
BEZUGSACHSEN
100
AcDbCircle
 62
7
  6
CONTINUOUS
 10
493.2206881167
 20
159.1566980692
 40
24.9536168743
100
AcDbArc
 50
10.958126089
 51
11.584505032
  0
ARC
  5
41B
100
AcDbEntity
  8
BEZUGSACHSEN
100
AcDbCircle
 62
7
  6
CONTINUOUS
 10
501.4894109501
 20
155.2923210352
 40
20.6996692178
100
AcDbArc
 50
56.1032729074
 51
56.3673171867
  0
ARC
  5
41C
100
AcDbEntity
  8
BEZUGSACHSEN
100
AcDbCircle
 62
7
  6
CONTINUOUS
 10
493.0235295048
 20
171.3235660994
 40
32.9781155922
100
AcDbArc
 50
205.5016667175
 51
205.685594602
  0
ARC
  5
41D
100
AcDbEntity
  8
BEZUGSACHSEN
100
AcDbCircle
 62
7
  6
CONTINUOUS
 10
499.5671091204
 20
162.9051297447
 40
31.0823783796
100
AcDbArc
 50
158.0134352362
 51
159.949030371
  0
ARC
  5
41E
100
AcDbEntity
  8
BEZUGSACHSEN
100
AcDbCircle
 62
7
  6
CONTINUOUS
 10
499.4925298955
 20
162.9330751117
 40
31.0027383235
100
AcDbArc
 50
159.9502900486
 51
160.4670400042
  0
ARC
  5
41F
100
AcDbEntity
  8
KONSTRUKTIONSELEMENTE
100
AcDbCircle
 62
7
  6
CONTINUOUS
 10
500.0572245456
 20
162.7530351404
 40
30.9745123577
100
AcDbArc
 50
158.0522440842
 51
160.5117779815
  0
ARC
  5
420
100
AcDbEntity
  8
BEZUGSACHSEN
100
AcDbCircle
 62
7
  6
CONTINUOUS
 10
498.5516175801
 20
162.5103910296
 40
30.4583821333
100
AcDbArc
 50
158.5977061965
 51
159.092704977
  0
ARC
  5
421
100
AcDbEntity
  8
BEZUGSACHSEN
100
AcDbCircle
 62
7
  6
CONTINUOUS
 10
498.5027972693
 20
162.5290458546
 40
30.4061190945
100
AcDbArc
 50
159.0927138462
 51
159.5885343749
  0
ARC
  5
422
100
AcDbEntity
  8
BEZUGSACHSEN
100
AcDbCircle
 62
7
  6
CONTINUOUS
 10
498.4833311334
 20
162.5363488507
 40
30.3853282042
100
AcDbArc
 50
159.5886389436
 51
160.5810197398
  0
ARC
  5
423
100
AcDbEntity
  8
BEZUGSACHSEN
100
AcDbCircle
 62
7
  6
CONTINUOUS
 10
495.4957559459
 20
161.3309140003
 40
28.5759263217
100
AcDbArc
 50
158.5061947758
 51
159.5495836147
  0
ARC
  5
424
100
AcDbEntity
  8
BEZUGSACHSEN
100
AcDbCircle
 62
7
  6
CONTINUOUS
 10
495.4509179518
 20
161.3478950563
 40
28.5279815271
100
AcDbArc
 50
160.2327153179
 51
160.6189015143
  0
ARC
  5
425
100
AcDbEntity
  8
BEZUGSACHSEN
100
AcDbCircle
 62
7
  6
CONTINUOUS
 10
495.4451750797
 20
161.3499623769
 40
28.5218778807
100
AcDbArc
 50
159.5499352922
 51
160.0903489818
  0
ARC
  5
426
100
AcDbEntity
  8
BEZUGSACHSEN
100
AcDbCircle
 62
7
  6
CONTINUOUS
 10
494.3173792171
 20
160.8420002142
 40
27.8701280635
100
AcDbArc
 50
158.4665545666
 51
158.8484206008
  0
ARC
  5
427
100
AcDbEntity
  8
BEZUGSACHSEN
100
AcDbCircle
 62
7
  6
CONTINUOUS
 10
494.246416237
 20
160.869346523
 40
27.7940783778
100
AcDbArc
 50
158.8482101833
 51
160.4067074151
  0
ARC
  5
428
100
AcDbEntity
  8
BEZUGSACHSEN
100
AcDbCircle
 62
7
  6
CONTINUOUS
 10
493.9551067929
 20
165.2353543877
 40
25.291486923
100
AcDbArc
 50
167.9286068145
 51
168.4958711181
  0
ARC
  5
429
100
AcDbEntity
  8
KONSTRUKTIONSELEMENTE
100
AcDbCircle
 62
7
  6
CONTINUOUS
 10
494.514884974
 20
165.057046326
 40
25.2592758965
100
AcDbArc
 50
167.9935249044
 51
168.5616064456
  0
ARC
  5
42A
100
AcDbEntity
  8
BEZUGSACHSEN
100
AcDbCircle
 62
7
  6
CONTINUOUS
 10
496.6172303356
 20
161.8136743885
 40
20.7865989581
100
AcDbArc
 50
7.701485479
 51
8.1046884839
  0
ARC
  5
42B
100
AcDbEntity
  8
KONSTRUKTIONSELEMENTE
100
AcDbCircle
 62
7
  6
CONTINUOUS
 10
499.7843376884
 20
177.9527187875
 40
19.5819912313
100
AcDbArc
 50
319.5697675893
 51
319.948075967
  0
ARC
  5
42C
100
AcDbEntity
  8
BEZUGSACHSEN
100
AcDbCircle
 62
7
  6
CONTINUOUS
 10
500.4765190506
 20
178.0504771092
 40
19.4279794744
100
AcDbArc
 50
319.6349896114
 51
320.0155266446
  0
ARC
  5
42D
100
AcDbEntity
  8
BEZUGSACHSEN
100
AcDbCircle
 62
7
  6
CONTINUOUS
 10
487.8335987114
 20
167.0204597748
 40
19.3234583592
100
AcDbArc
 50
171.7010444661
 51
172.2240664995
  0
ARC
  5
42E
100
AcDbEntity
  8
BEZUGSACHSEN
100
AcDbCircle
 62
7
  6
CONTINUOUS
 10
501.818127085
 20
171.858147744
 40
10.702917716
100
AcDbArc
 50
6.8586631968
 51
7.7244895244
  0
ARC
  5
42F
100
AcDbEntity
  8
KONSTRUKTIONSELEMENTE
100
AcDbCircle
 62
7
  6
CONTINUOUS
 10
501.2465850415
 20
171.6620381283
 40
10.6892737968
100
AcDbArc
 50
6.779949863
 51
7.6471484995
  0
ARC
  5
430
100
AcDbEntity
  8
BEZUGSACHSEN
100
AcDbCircle
 62
7
  6
CONTINUOUS
 10
509.5286740319
 20
168.8249405668
 40
9.5571904324
100
AcDbArc
 50
328.3524767164
 51
328.9828336288
  0
ARC
  5
431
100
AcDbEntity
  8
BEZUGSACHSEN
100
AcDbCircle
 62
7
  6
CONTINUOUS
 10
510.9392280234
 20
164.815930682
 40
8.6097724981
100
AcDbArc
 50
79.5043560862
 51
80.0700971492
  0
ARC
  5
432
100
AcDbEntity
  8
0
100
AcDbCircle
 62
7
  6
CONTINUOUS
 10
505.3645146864
 20
163.150933384
 40
8.0
100
AcDbArc
 50
186.25
 51
200.0
  0
ARC
  5
433
100
AcDbEntity
  8
BEZUGSACHSEN
100
AcDbCircle
 62
7
  6
CONTINUOUS
 10
509.1232851696
 20
164.5190139573
 40
8.0
100
AcDbArc
 50
20.0
 51
33.75
  0
ARC
  5
434
100
AcDbEntity
  8
BEZUGSACHSEN
100
AcDbCircle
 62
7
  6
CONTINUOUS
 10
505.8672346996
 20
172.5205068763
 40
7.0870341267
100
AcDbArc
 50
359.2067163464
 51
0.0523179637
  0
ARC
  5
435
100
AcDbEntity
  8
BEZUGSACHSEN
100
AcDbCircle
 62
7
  6
CONTINUOUS
 10
534.9363089714
 20
143.1474190455
 40
71.3464646952
100
AcDbArc
 50
155.0008206433
 51
155.3397629469
  0
ARC
  5
436
100
AcDbEntity
  8
KONSTRUKTIONSELEMENTE
100
AcDbCircle
 62
7
  6
CONTINUOUS
 10
535.2997541488
 20
143.0791687939
 40
71.0864256508
100
AcDbArc
 50
155.0311694255
 51
155.3713361252
  0
ARC
  5
437
100
AcDbEntity
  8
BEZUGSACHSEN
100
AcDbCircle
 62
7
  6
CONTINUOUS
 10
532.414282764
 20
142.1605178428
 40
70.6427816427
100
AcDbArc
 50
168.0156608697
 51
168.2296619336
  0
ARC
  5
438
100
AcDbEntity
  8
BEZUGSACHSEN
100
AcDbCircle
 62
7
  6
CONTINUOUS
 10
527.5690843624
 20
141.5852723674
 40
67.1197747231
100
AcDbArc
 50
168.7406693862
 51
168.9663322027
  0
ARC
  5
439
100
AcDbEntity
  8
BEZUGSACHSEN
100
AcDbCircle
 62
7
  6
CONTINUOUS
 10
522.8462806047
 20
150.4155234401
 40
57.2322845178
100
AcDbArc
 50
159.6914514315
 51
160.3696554184
  0
ARC
  5
43A
100
AcDbEntity
  8
KONSTRUKTIONSELEMENTE
100
AcDbCircle
 62
7
  6
CONTINUOUS
 10
523.309766371
 20
150.2944567641
 40
57.0858441346
100
AcDbArc
 50
159.7355810769
 51
160.4155253525
  0
ARC
  5
43B
100
AcDbEntity
  8
BEZUGSACHSEN
100
AcDbCircle
 62
7
  6
CONTINUOUS
 10
521.0710365789
 20
150.2409971071
 40
55.8580780385
100
AcDbArc
 50
159.6838605373
 51
160.3787497363
  0
ARC
  5
43C
100
AcDbEntity
  8
BEZUGSACHSEN
100
AcDbCircle
 62
7
  6
CONTINUOUS
 10
519.5477385029
 20
149.9789990621
 40
54.7505725346
100
AcDbArc
 50
161.0207890214
 51
161.4935315582
  0
ARC
  5
43D
100
AcDbEntity
  8
BEZUGSACHSEN
100
AcDbCircle
 62
7
  6
CONTINUOUS
 10
516.9320392503
 20
149.7014111187
 40
52.7390042358
100
AcDbArc
 50
161.2452525262
 51
161.5519094027
  0
ARC
  5
43E
100
AcDbEntity
  8
BEZUGSACHSEN
100
AcDbCircle
 62
7
  6
CONTINUOUS
 10
516.7323784104
 20
149.7694788807
 40
52.5280596843
100
AcDbArc
 50
160.3216731561
 51
161.2455351024
  0
ARC
  5
43F
100
AcDbEntity
  8
KONSTRUKTIONSELEMENTE
100
AcDbCircle
 62
7
  6
CONTINUOUS
 10
517.2605979256
 20
149.6258499714
 40
52.4501707588
100
AcDbArc
 50
160.3720679575
 51
161.6056661948
  0
ARC
  5
440
100
AcDbEntity
  8
BEZUGSACHSEN
100
AcDbCircle
 62
7
  6
CONTINUOUS
 10
514.9278942513
 20
149.6053113505
 40
51.1228330012
100
AcDbArc
 50
160.5200613828
 51
160.8997154365
  0
ARC
  5
441
100
AcDbEntity
  8
KONSTRUKTIONSELEMENTE
100
AcDbCircle
 62
7
  6
CONTINUOUS
 10
515.6243889858
 20
156.8538336856
 40
50.3199627668
100
AcDbArc
 50
178.3203416447
 51
178.7229536762
  0
ARC
  5
442
100
AcDbEntity
  8
BEZUGSACHSEN
100
AcDbCircle
 62
7
  6
CONTINUOUS
 10
514.8503406836
 20
157.0149570745
 40
50.1422236487
100
AcDbArc
 50
178.2511862697
 51
178.6550639164
  0
ARC
  5
443
100
AcDbEntity
  8
0
100
AcDbCircle
 62
7
  6
CONTINUOUS
 10
491.3293519362
 20
297.5598349191
 40
87.0
100
AcDbArc
 50
0.0
 51
180.0
  0
ARC
  5
444
100
AcDbEntity
  8
0
100
AcDbCircle
 62
7
  6
CONTINUOUS
 10
491.3293519362
 20
207.5598349191
 40
87.0
100
AcDbArc
 50
296.6016422348
 51
360.0
  0
ARC
  5
445
100
AcDbEntity
  8
0
100
AcDbCircle
 62
7
  6
CONTINUOUS
 10
491.3293519362
 20
207.5598349191
 40
87.0
100
AcDbArc
 50
256.6012103221
 51
283.3987896779
  0
ARC
  5
446
100
AcDbEntity
  8
0
100
AcDbCircle
 62
7
  6
CONTINUOUS
 10
491.3293519362
 20
207.5598349191
 40
87.0
100
AcDbArc
 50
212.3056259467
 51
243.3983577652
  0
ARC
  5
447
100
AcDbEntity
  8
0
100
AcDbCircle
 62
7
  6
CONTINUOUS
 10
491.3293519362
 20
207.5598349191
 40
87.0
100
AcDbArc
 50
180.0
 51
207.6943740533
  0
ARC
  5
448
100
AcDbEntity
  8
0
100
AcDbCircle
 62
7
  6
CONTINUOUS
 10
491.3293519362
 20
297.5598349191
 40
55.0
100
AcDbArc
 50
0.0
 51
180.0
  0
ARC
  5
449
100
AcDbEntity
  8
0
100
AcDbCircle
 62
7
  6
CONTINUOUS
 10
491.3293519362
 20
207.5598349191
 40
55.0
100
AcDbArc
 50
300.478499971
 51
360.0
  0
ARC
  5
44A
100
AcDbEntity
  8
0
100
AcDbCircle
 62
7
  6
CONTINUOUS
 10
491.3293519362
 20
207.5598349191
 40
55.0
100
AcDbArc
 50
260.4784463154
 51
279.5215536846
  0
ARC
  5
44B
100
AcDbEntity
  8
0
100
AcDbCircle
 62
7
  6
CONTINUOUS
 10
491.3293519362
 20
207.5598349191
 40
55.0
100
AcDbArc
 50
213.6492782767
 51
239.521500029
  0
ARC
  5
44C
100
AcDbEntity
  8
0
100
AcDbCircle
 62
7
  6
CONTINUOUS
 10
491.3293519362
 20
207.5598349191
 40
55.0
100
AcDbArc
 50
180.0
 51
206.3512348354
  0
ARC
  5
44D
100
AcDbEntity
  8
BEZUGSACHSEN
100
AcDbCircle
 62
7
  6
CONTINUOUS
 10
798.1173601979
 20
-25.16913874
 40
382.4162157712
100
AcDbArc
 50
149.5418612247
 51
149.6660377418
  0
ARC
  5
44E
100
AcDbEntity
  8
KONSTRUKTIONSELEMENTE
100
AcDbCircle
 62
7
  6
CONTINUOUS
 10
796.3444120446
 20
-23.8554713238
 40
379.6081601536
100
AcDbArc
 50
149.5600254132
 51
149.6851130439
  0
ARC
  5
44F
100
AcDbEntity
  8
BEZUGSACHSEN
100
AcDbCircle
 62
7
  6
CONTINUOUS
 10
695.593475309
 20
43.5001182678
 40
259.9945501521
100
AcDbArc
 50
150.1478935651
 51
150.2937766593
  0
ARC
  5
450
100
AcDbEntity
  8
KONSTRUKTIONSELEMENTE
100
AcDbCircle
 62
7
  6
CONTINUOUS
 10
694.9425293987
 20
44.0807374843
 40
258.529254979
100
AcDbArc
 50
150.1641443059
 51
150.3108468923
  0
ARC
  5
451
100
AcDbEntity
  8
BEZUGSACHSEN
100
AcDbCircle
 62
7
  6
CONTINUOUS
 10
679.6141028611
 20
45.3699851285
 40
245.4067567484
100
AcDbArc
 50
150.3721479435
 51
150.4864769446
  0
ARC
  5
452
100
AcDbEntity
  8
BEZUGSACHSEN
100
AcDbCircle
 62
7
  6
CONTINUOUS
 10
675.8417336934
 20
35.4091937481
 40
245.2375917407
100
AcDbArc
 50
150.4840563858
 51
150.599248217
  0
ARC
  5
453
100
AcDbEntity
  8
BEZUGSACHSEN
100
AcDbCircle
 62
7
  6
CONTINUOUS
 10
679.2394248233
 20
41.1000017676
 40
244.1644181705
100
AcDbArc
 50
151.7366995303
 51
151.9229288358
  0
ARC
  5
454
100
AcDbEntity
  8
KONSTRUKTIONSELEMENTE
100
AcDbCircle
 62
7
  6
CONTINUOUS
 10
678.6588855656
 20
41.6711388662
 40
242.7548556241
100
AcDbArc
 50
151.7690271569
 51
151.9563224174
  0
ARC
  5
455
100
AcDbEntity
  8
BEZUGSACHSEN
100
AcDbCircle
 62
7
  6
CONTINUOUS
 10
671.0315896284
 20
40.5614965667
 40
237.8170268008
100
AcDbArc
 50
151.1094141269
 51
151.2279911823
  0
ARC
  5
456
100
AcDbEntity
  8
BEZUGSACHSEN
100
AcDbCircle
 62
7
  6
CONTINUOUS
 10
660.1718987471
 20
46.5382477886
 40
226.2828096149
100
AcDbArc
 50
150.9788933
 51
151.1802335261
  0
ARC
  5
457
100
AcDbEntity
  8
BEZUGSACHSEN
100
AcDbCircle
 62
7
  6
CONTINUOUS
 10
660.8687578737
 20
49.5498909572
 40
224.4393758043
100
AcDbArc
 50
151.8417209518
 51
151.9934546439
  0
ARC
  5
458
100
AcDbEntity
  8
BEZUGSACHSEN
100
AcDbCircle
 62
7
  6
CONTINUOUS
 10
638.2997451554
 20
80.6668433647
 40
191.2773892637
100
AcDbArc
 50
152.4353185052
 51
152.6039426657
  0
ARC
  5
459
100
AcDbEntity
  8
KONSTRUKTIONSELEMENTE
100
AcDbCircle
 62
7
  6
CONTINUOUS
 10
638.0780415594
 20
80.9704595939
 40
190.3218039292
100
AcDbArc
 50
152.4607306691
 51
152.6301914599
  0
ARC
  5
45A
100
AcDbEntity
  8
BEZUGSACHSEN
100
AcDbCircle
 62
7
  6
CONTINUOUS
 10
632.2217344403
 20
77.3091515093
 40
186.026664751
100
AcDbArc
 50
154.6653027344
 51
154.7925189951
  0
ARC
  5
45B
100
AcDbEntity
  8
BEZUGSACHSEN
100
AcDbCircle
 62
7
  6
CONTINUOUS
 10
620.8864907179
 20
81.7089210471
 40
176.546044799
100
AcDbArc
 50
151.4125077342
 51
151.5956566728
  0
ARC
  5
45C
100
AcDbEntity
  8
BEZUGSACHSEN
100
AcDbCircle
 62
7
  6
CONTINUOUS
 10
618.8940648918
 20
82.1944047924
 40
172.422048369
100
AcDbArc
 50
154.7171278554
 51
154.8543693721
  0
ARC
  5
45D
100
AcDbEntity
  8
BEZUGSACHSEN
100
AcDbCircle
 62
7
  6
CONTINUOUS
 10
609.3206561482
 20
84.801917416
 40
163.3660857959
100
AcDbArc
 50
154.2404546445
 51
154.3854180526
  0
ARC
  5
45E
100
AcDbEntity
  8
0
100
AcDbCircle
 62
7
  6
CONTINUOUS
 10
539.1779699874
 20
76.0968372711
 40
22.5
100
AcDbArc
 50
232.2268364662
 51
347.7731635338
  0
ARC
  5
45F
100
AcDbEntity
  8
RUNDUNGEN
100
AcDbCircle
 62
7
  6
CONTINUOUS
 10
547.5653161677
 20
89.6003480338
 40
10.0
100
AcDbArc
 50
20.0
 51
50.0
  0
CIRCLE
  5
460
100
AcDbEntity
  8
0
100
AcDbCircle
 62
7
  6
CONTINUOUS
 10
539.1779699874
 20
76.0968372711
 40
9.0
  0
ARC
  5
461
100
AcDbEntity
  8
RUNDUNGEN
100
AcDbCircle
 62
7
  6
CONTINUOUS
 10
556.3131942469
 20
77.2609681436
 40
6.0
100
AcDbArc
 50
347.7731635338
 51
20.0
  0
ARC
  5
462
100
AcDbEntity
  8
BEZUGSACHSEN
100
AcDbCircle
 62
7
  6
CONTINUOUS
 10
613.5589138487
 20
92.5644577811
 40
162.568399741
100
AcDbArc
 50
156.5331644707
 51
156.7575130125
  0
ARC
  5
463
100
AcDbEntity
  8
KONSTRUKTIONSELEMENTE
100
AcDbCircle
 62
7
  6
CONTINUOUS
 10
613.7603217126
 20
92.6409497537
 40
162.0899194911
100
AcDbArc
 50
156.5727660955
 51
156.7977677659
  0
ARC
  5
464
100
AcDbEntity
  8
BEZUGSACHSEN
100
AcDbCircle
 62
7
  6
CONTINUOUS
 10
585.3010482211
 20
100.8269253096
 40
135.0036007431
100
AcDbArc
 50
156.0550909555
 51
156.3253810421
  0
ARC
  5
465
100
AcDbEntity
  8
BEZUGSACHSEN
100
AcDbCircle
 62
7
  6
CONTINUOUS
 10
583.5857803948
 20
114.0682800867
 40
126.7506832012
100
AcDbArc
 50
159.8538103984
 51
160.0564727041
  0
ARC
  5
466
100
AcDbEntity
  8
KONSTRUKTIONSELEMENTE
100
AcDbCircle
 62
7
  6
CONTINUOUS
 10
584.0345833206
 20
114.0105316711
 40
126.5583398538
100
AcDbArc
 50
159.8985137136
 51
160.1014839636
  0
ARC
  5
467
100
AcDbEntity
  8
BEZUGSACHSEN
100
AcDbCircle
 62
7
  6
CONTINUOUS
 10
580.8911772896
 20
114.6497267769
 40
124.2149561521
100
AcDbArc
 50
159.7991265363
 51
160.1093271289
  0
ARC
  5
468
100
AcDbEntity
  8
BEZUGSACHSEN
100
AcDbCircle
 62
7
  6
CONTINUOUS
 10
577.9768565653
 20
115.2341554337
 40
121.5108013192
100
AcDbArc
 50
160.5358437984
 51
160.8001156691
  0
ARC
  5
469
100
AcDbEntity
  8
BEZUGSACHSEN
100
AcDbCircle
 62
7
  6
CONTINUOUS
 10
574.4127220026
 20
116.0493520643
 40
118.1170710308
100
AcDbArc
 50
159.8431252179
 51
160.1149716836
  0
ARC
  5
46A
100
AcDbEntity
  8
BEZUGSACHSEN
100
AcDbCircle
 62
7
  6
CONTINUOUS
 10
571.7191370647
 20
116.6304282487
 40
115.5824274556
100
AcDbArc
 50
159.7841242161
 51
160.1730535863
  0
ARC
  5
46B
100
AcDbEntity
  8
BEZUGSACHSEN
100
AcDbCircle
 62
7
  6
CONTINUOUS
 10
571.0805543806
 20
121.2974017787
 40
113.1683167142
100
AcDbArc
 50
155.0704822693
 51
155.288763646
  0
ARC
  5
46C
100
AcDbEntity
  8
BEZUGSACHSEN
100
AcDbCircle
 62
7
  6
CONTINUOUS
 10
567.9267920684
 20
124.3169753872
 40
108.5274463985
100
AcDbArc
 50
159.9551693854
 51
160.2836254574
  0
ARC
  5
46D
100
AcDbEntity
  8
KONSTRUKTIONSELEMENTE
100
AcDbCircle
 62
7
  6
CONTINUOUS
 10
568.3672127481
 20
124.2470753231
 40
108.334723215
100
AcDbArc
 50
160.0000167995
 51
160.3290578257
  0
ARC
  5
46E
100
AcDbEntity
  8
BEZUGSACHSEN
100
AcDbCircle
 62
7
  6
CONTINUOUS
 10
564.0564212722
 20
124.8821270099
 40
105.6406954385
100
AcDbArc
 50
153.123702072
 51
153.2929011805
  0
ARC
  5
46F
100
AcDbEntity
  8
BEZUGSACHSEN
100
AcDbCircle
 62
7
  6
CONTINUOUS
 10
560.9274953863
 20
118.9610304458
 40
105.4254409647
100
AcDbArc
 50
159.7633259938
 51
160.1897260957
  0
ARC
  5
470
100
AcDbEntity
  8
BEZUGSACHSEN
100
AcDbCircle
 62
7
  6
CONTINUOUS
 10
558.2246191598
 20
119.5454884666
 40
102.8809098551
100
AcDbArc
 50
159.8198927308
 51
160.1319984325
  0
ARC
  5
471
100
AcDbEntity
  8
BEZUGSACHSEN
100
AcDbCircle
 62
7
  6
CONTINUOUS
 10
562.3834942306
 20
127.7493256433
 40
102.4044816639
100
AcDbArc
 50
155.8518511377
 51
156.135029703
  0
ARC
  5
472
100
AcDbEntity
  8
KONSTRUKTIONSELEMENTE
100
AcDbCircle
 62
7
  6
CONTINUOUS
 10
562.6637638219
 20
127.7397699009
 40
102.042094397
100
AcDbArc
 50
155.8860026873
 51
156.1701749365
  0
ARC
  5
473
100
AcDbEntity
  8
BEZUGSACHSEN
100
AcDbCircle
 62
7
  6
CONTINUOUS
 10
556.6649305346
 20
122.6640575964
 40
100.5574263541
100
AcDbArc
 50
154.3045756602
 51
154.5505271106
  0
ARC
  5
474
100
AcDbEntity
  8
BEZUGSACHSEN
100
AcDbCircle
 62
7
  6
CONTINUOUS
 10
556.0143796792
 20
132.2519269833
 40
94.9062255147
100
AcDbArc
 50
164.13797176
 51
164.4318183364
  0
ARC
  5
475
100
AcDbEntity
  8
KONSTRUKTIONSELEMENTE
100
AcDbCircle
 62
7
  6
CONTINUOUS
 10
556.6295072786
 20
132.1181124843
 40
94.9030144535
100
AcDbArc
 50
164.1893478614
 51
164.483224248
  0
ARC
  5
476
100
AcDbEntity
  8
BEZUGSACHSEN
100
AcDbCircle
 62
7
  6
CONTINUOUS
 10
548.6533865342
 20
133.0159788189
 40
88.3706135057
100
AcDbArc
 50
164.1039997635
 51
164.419568848
  0
ARC
  5
477
100
AcDbEntity
  8
BEZUGSACHSEN
100
AcDbCircle
 62
7
  6
CONTINUOUS
 10
545.5259933385
 20
127.8614823833
 40
88.1005266536
100
AcDbArc
 50
159.9447791572
 51
160.3493915406
  0
ARC
  5
478
100
AcDbEntity
  8
BEZUGSACHSEN
100
AcDbCircle
 62
7
  6
CONTINUOUS
 10
543.4460270711
 20
129.3184383493
 40
85.9289752506
100
AcDbArc
 50
154.9582974645
 51
155.2961698178
  0
ARC
  5
479
100
AcDbEntity
  8
BEZUGSACHSEN
100
AcDbCircle
 62
7
  6
CONTINUOUS
 10
538.7481895265
 20
142.0591577843
 40
76.0246534152
100
AcDbArc
 50
168.0497855403
 51
168.2486503863
  0
ARC
  5
47A
100
AcDbEntity
  8
KONSTRUKTIONSELEMENTE
100
AcDbCircle
 62
7
  6
CONTINUOUS
 10
553.0356215126
 20
111.1183626231
 40
10.0
100
AcDbArc
 50
200.0
 51
230.0
  0
ARC
  5
47B
100
AcDbEntity
  8
0
100
AcDbCircle
 62
7
  6
CONTINUOUS
 10
-520.5946670566
 20
-356.103230137
 40
851.0987096406
100
AcDbArc
 50
36.743191539
 51
38.6770773605
  0
ARC
  5
47C
100
AcDbEntity
  8
0
100
AcDbCircle
 62
7
  6
CONTINUOUS
 10
-50.9141096545
 20
-409.5744045769
 40
616.8976732331
100
AcDbArc
 50
71.5968243943
 51
72.8092888283
  0
ARC
  5
47D
100
AcDbEntity
  8
BEZUGSACHSEN
100
AcDbCircle
 62
7
  6
CONTINUOUS
 10
-176.8792154262
 20
-286.8987575985
 40
555.4740920056
100
AcDbArc
 50
55.2749635099
 51
55.3904251549
  0
ARC
  5
47E
100
AcDbEntity
  8
BEZUGSACHSEN
100
AcDbCircle
 62
7
  6
CONTINUOUS
 10
-169.8621686015
 20
-276.5743987751
 40
542.1383811055
100
AcDbArc
 50
55.2734153616
 51
55.3917173566
  0
ARC
  5
47F
100
AcDbEntity
  8
KONSTRUKTIONSELEMENTE
100
AcDbCircle
 62
7
  6
CONTINUOUS
 10
-169.2014659026
 20
-275.7020192053
 40
540.8696970824
100
AcDbArc
 50
55.2654215565
 51
55.3840122823
  0
ARC
  5
480
100
AcDbEntity
  8
BEZUGSACHSEN
100
AcDbCircle
 62
7
  6
CONTINUOUS
 10
-154.6918487384
 20
-254.1838948106
 40
512.961660171
100
AcDbArc
 50
55.0742097936
 51
55.2829834451
  0
ARC
  5
481
100
AcDbEntity
  8
BEZUGSACHSEN
100
AcDbCircle
 62
7
  6
CONTINUOUS
 10
-79.2240299887
 20
-292.0001920669
 40
511.5471574352
100
AcDbArc
 50
65.4489762886
 51
65.6843973669
  0
ARC
  5
482
100
AcDbEntity
  8
BEZUGSACHSEN
100
AcDbCircle
 62
7
  6
CONTINUOUS
 10
-75.4213619926
 20
-283.4949407766
 40
501.5332832085
100
AcDbArc
 50
65.4333476098
 51
65.6441909136
  0
ARC
  5
483
100
AcDbEntity
  8
KONSTRUKTIONSELEMENTE
100
AcDbCircle
 62
7
  6
CONTINUOUS
 10
-74.8880296352
 20
-282.4036307087
 40
500.1259555502
100
AcDbArc
 50
65.4268266877
 51
65.6382737326
  0
ARC
  5
484
100
AcDbEntity
  8
BEZUGSACHSEN
100
AcDbCircle
 62
7
  6
CONTINUOUS
 10
-146.8638234557
 20
-242.6914836188
 40
498.2039680898
100
AcDbArc
 50
55.1527569307
 51
55.2816712188
  0
ARC
  5
485
100
AcDbEntity
  8
BEZUGSACHSEN
100
AcDbCircle
 62
7
  6
CONTINUOUS
 10
-128.9303237786
 20
-216.3503241369
 40
464.3483733649
100
AcDbArc
 50
55.2626123225
 51
55.4007343687
  0
ARC
  5
486
100
AcDbEntity
  8
BEZUGSACHSEN
100
AcDbCircle
 62
7
  6
CONTINUOUS
 10
-121.9136335119
 20
-206.0264845577
 40
451.0132922397
100
AcDbArc
 50
55.2603862217
 51
55.4025924316
  0
ARC
  5
487
100
AcDbEntity
  8
KONSTRUKTIONSELEMENTE
100
AcDbCircle
 62
7
  6
CONTINUOUS
 10
-121.2538146737
 20
-205.1553738523
 40
449.7461545542
100
AcDbArc
 50
55.2507339959
 51
55.3933571255
  0
ARC
  5
488
100
AcDbEntity
  8
0
100
AcDbCircle
 62
7
  6
CONTINUOUS
 10
113.5595473959
 20
135.8557914439
 40
18.6654062905
100
AcDbArc
 50
139.3424003307
 51
149.8193919145
  0
ARC
  5
489
100
AcDbEntity
  8
0
100
AcDbCircle
 62
7
  6
CONTINUOUS
 10
113.9880110614
 20
136.708081563
 40
18.654955324
100
AcDbArc
 50
141.4788161012
 51
152.7402569093
  0
ARC
  5
48A
100
AcDbEntity
  8
BEZUGSACHSEN
100
AcDbCircle
 62
7
  6
CONTINUOUS
 10
113.9791905131
 20
136.9197352205
 40
18.644042491
100
AcDbArc
 50
141.4774217284
 51
153.3123627104
  0
ARC
  5
48B
100
AcDbEntity
  8
BEZUGSACHSEN
100
AcDbCircle
 62
7
  6
CONTINUOUS
 10
113.6049017182
 20
137.1222962422
 40
18.2186563963
100
AcDbArc
 50
153.3528656451
 51
156.2095884674
  0
ARC
  5
48C
100
AcDbEntity
  8
BEZUGSACHSEN
100
AcDbCircle
 62
7
  6
CONTINUOUS
 10
113.5964778277
 20
137.4329852039
 40
18.2094828315
100
AcDbArc
 50
204.3390712034
 51
205.8565700775
  0
ARC
  5
48D
100
AcDbEntity
  8
0
100
AcDbCircle
 62
7
  6
CONTINUOUS
 10
113.1155706643
 20
136.1336348872
 40
18.1419412593
100
AcDbArc
 50
149.8730215612
 51
151.5933409574
  0
ARC
  5
48E
100
AcDbEntity
  8
BEZUGSACHSEN
100
AcDbCircle
 62
7
  6
CONTINUOUS
 10
113.5314301218
 20
137.4033381121
 40
18.1379977808
100
AcDbArc
 50
203.7878019443
 51
204.3384279145
  0
ARC
  5
48F
100
AcDbEntity
  8
BEZUGSACHSEN
100
AcDbCircle
 62
7
  6
CONTINUOUS
 10
113.2267029032
 20
137.2932837088
 40
17.8147818355
100
AcDbArc
 50
180.0444479343
 51
203.8592242268
  0
ARC
  5
490
100
AcDbEntity
  8
BEZUGSACHSEN
100
AcDbCircle
 62
7
  6
CONTINUOUS
 10
113.2260094481
 20
137.2657373257
 40
17.8140883081
100
AcDbArc
 50
156.1952440835
 51
179.9558517177
  0
ARC
  5
491
100
AcDbEntity
  8
KONSTRUKTIONSELEMENTE
100
AcDbCircle
 62
7
  6
CONTINUOUS
 10
98.7339916558
 20
41.6215462502
 40
11.070385759
100
AcDbArc
 50
76.6945932008
 51
81.3920821283
  0
ARC
  5
492
100
AcDbEntity
  8
KONSTRUKTIONSELEMENTE
100
AcDbCircle
 62
7
  6
CONTINUOUS
 10
111.121606048
 20
121.5595846911
 40
3.7096796281
100
AcDbArc
 50
179.9961352438
 51
193.966711088
  0
ARC
  5
493
100
AcDbEntity
  8
0
100
AcDbCircle
 62
7
  6
CONTINUOUS
 10
79.9119858794
 20
60.7327718496
 40
2.0000594514
100
AcDbArc
 50
180.00097827
 51
229.2027998382
  0
ARC
  5
494
100
AcDbEntity
  8
0
100
AcDbCircle
 62
7
  6
CONTINUOUS
 10
751.4185199254
 20
-356.1032301464
 40
851.098709656
100
AcDbArc
 50
141.3229226395
 51
143.256808461
  0
ARC
  5
495
100
AcDbEntity
  8
BEZUGSACHSEN
100
AcDbCircle
 62
7
  6
CONTINUOUS
 10
562.2624264714
 20
-283.0727084876
 40
653.9682863006
100
AcDbArc
 50
136.7388791023
 51
136.9973254225
  0
ARC
  5
496
100
AcDbEntity
  8
BEZUGSACHSEN
100
AcDbCircle
 62
7
  6
CONTINUOUS
 10
551.3787494746
 20
-272.722499757
 40
638.2192399266
100
AcDbArc
 50
136.7261853917
 51
136.9356925506
  0
ARC
  5
497
100
AcDbEntity
  8
KONSTRUKTIONSELEMENTE
100
AcDbCircle
 62
7
  6
CONTINUOUS
 10
550.4261171745
 20
-271.9157640969
 40
636.8255520886
100
AcDbArc
 50
136.734335727
 51
136.9284752124
  0
ARC
  5
498
100
AcDbEntity
  8
0
100
AcDbCircle
 62
7
  6
CONTINUOUS
 10
276.4540480818
 20
-393.1139211865
 40
599.6108909138
100
AcDbArc
 50
107.1732328163
 51
108.4206539602
  0
ARC
  5
499
100
AcDbEntity
  8
BEZUGSACHSEN
100
AcDbCircle
 62
7
  6
CONTINUOUS
 10
524.1390183717
 20
-246.7464743176
 40
598.3905635051
100
AcDbArc
 50
136.7211853072
 51
136.9446454273
  0
ARC
  5
49A
100
AcDbEntity
  8
BEZUGSACHSEN
100
AcDbCircle
 62
7
  6
CONTINUOUS
 10
514.3728787302
 20
-237.4152872154
 40
584.0077336771
100
AcDbArc
 50
136.7433851265
 51
136.9482964348
  0
ARC
  5
49B
100
AcDbEntity
  8
KONSTRUKTIONSELEMENTE
100
AcDbCircle
 62
7
  6
CONTINUOUS
 10
513.4215408181
 20
-236.6097619631
 40
582.6158180359
100
AcDbArc
 50
136.7523384082
 51
136.9404384976
  0
ARC
  5
49C
100
AcDbEntity
  8
BEZUGSACHSEN
100
AcDbCircle
 62
7
  6
CONTINUOUS
 10
330.042802494
 20
-293.2451968839
 40
521.2913218993
100
AcDbArc
 50
116.5344709157
 51
116.8654335584
  0
ARC
  5
49D
100
AcDbEntity
  8
BEZUGSACHSEN
100
AcDbCircle
 62
7
  6
CONTINUOUS
 10
324.4607629539
 20
-281.9125636146
 40
507.8188660903
100
AcDbArc
 50
116.5327528606
 51
116.7874710191
  0
ARC
  5
49E
100
AcDbEntity
  8
KONSTRUKTIONSELEMENTE
100
AcDbCircle
 62
7
  6
CONTINUOUS
 10
323.8533693281
 20
-280.7795548778
 40
506.3439047705
100
AcDbArc
 50
116.5392647307
 51
116.781845946
  0
ARC
  5
49F
100
AcDbEntity
  8
BEZUGSACHSEN
100
AcDbCircle
 62
7
  6
CONTINUOUS
 10
295.0031762756
 20
-221.9899885614
 40
436.1493712728
100
AcDbArc
 50
116.6442905174
 51
116.8193095936
  0
ARC
  5
4A0
100
AcDbEntity
  8
BEZUGSACHSEN
100
AcDbCircle
 62
7
  6
CONTINUOUS
 10
290.8021529165
 20
-213.3996241214
 40
425.7472963243
100
AcDbArc
 50
116.7141427288
 51
116.9271021748
  0
ARC
  5
4A1
100
AcDbEntity
  8
KONSTRUKTIONSELEMENTE
100
AcDbCircle
 62
7
  6
CONTINUOUS
 10
290.2995067075
 20
-212.4739706775
 40
424.5046457304
100
AcDbArc
 50
116.7226007297
 51
116.9362001059
  0
ARC
  5
4A2
100
AcDbEntity
  8
KONSTRUKTIONSELEMENTE
100
AcDbCircle
 62
7
  6
CONTINUOUS
 10
115.4119264283
 20
2.2940344003
 40
56.0
100
AcDbArc
 50
99.0410961486
 51
113.6359217904
  0
ARC
  5
4A3
100
AcDbEntity
  8
KONSTRUKTIONSELEMENTE
100
AcDbCircle
 62
7
  6
CONTINUOUS
 10
115.4119264283
 20
2.2940344003
 40
56.0
100
AcDbArc
 50
66.3640782096
 51
80.9589038514
  0
ARC
  5
4A4
100
AcDbEntity
  8
0
100
AcDbCircle
 62
7
  6
CONTINUOUS
 10
116.8358417952
 20
136.708081563
 40
18.654955324
100
AcDbArc
 50
27.2597430907
 51
38.5211838988
  0
ARC
  5
4A5
100
AcDbEntity
  8
BEZUGSACHSEN
100
AcDbCircle
 62
7
  6
CONTINUOUS
 10
116.8446623435
 20
136.9197352205
 40
18.644042491
100
AcDbArc
 50
26.6876372896
 51
38.5225782716
  0
ARC
  5
4A6
100
AcDbEntity
  8
0
100
AcDbCircle
 62
7
  6
CONTINUOUS
 10
117.3387482341
 20
135.9079868227
 40
18.5749388143
100
AcDbArc
 50
31.1359022637
 51
40.7318970867
  0
ARC
  5
4A7
100
AcDbEntity
  8
0
100
AcDbCircle
 62
7
  6
CONTINUOUS
 10
117.6104271533
 20
136.077474682
 40
18.2547606062
100
AcDbArc
 50
30.1290026186
 51
31.1214799485
  0
ARC
  5
4A8
100
AcDbEntity
  8
BEZUGSACHSEN
100
AcDbCircle
 62
7
  6
CONTINUOUS
 10
117.2189511384
 20
137.1222962422
 40
18.2186563963
100
AcDbArc
 50
23.7904115326
 51
26.6471343549
  0
ARC
  5
4A9
100
AcDbEntity
  8
BEZUGSACHSEN
100
AcDbCircle
 62
7
  6
CONTINUOUS
 10
117.2315631628
 20
137.4310464644
 40
18.2048679013
100
AcDbArc
 50
334.2776057619
 51
335.6620763862
  0
ARC
  5
4AA
100
AcDbEntity
  8
0
100
AcDbCircle
 62
7
  6
CONTINUOUS
 10
117.6933939656
 20
136.12545157
 40
18.1589208905
100
AcDbArc
 50
28.5838411317
 51
30.1294758658
  0
ARC
  5
4AB
100
AcDbEntity
  8
BEZUGSACHSEN
100
AcDbCircle
 62
7
  6
CONTINUOUS
 10
117.2924558595
 20
137.4033233826
 40
18.1379615292
100
AcDbArc
 50
335.6625957193
 51
336.2121984262
  0
ARC
  5
4AC
100
AcDbEntity
  8
BEZUGSACHSEN
100
AcDbCircle
 62
7
  6
CONTINUOUS
 10
117.5971499534
 20
137.2932837088
 40
17.8147818355
100
AcDbArc
 50
336.1407757732
 51
359.9555520657
  0
ARC
  5
4AD
100
AcDbEntity
  8
BEZUGSACHSEN
100
AcDbCircle
 62
7
  6
CONTINUOUS
 10
117.5978013784
 20
137.2657316549
 40
17.8141303426
100
AcDbArc
 50
0.0441664172
 51
23.8080591773
  0
ARC
  5
4AE
100
AcDbEntity
  8
0
100
AcDbCircle
 62
7
  6
CONTINUOUS
 10
115.4119264283
 20
368.5598349191
 40
16.0
100
AcDbArc
 50
0.0
 51
180.0
  0
ARC
  5
4AF
100
AcDbEntity
  8
0
100
AcDbCircle
 62
7
  6
CONTINUOUS
 10
115.4119264283
 20
136.5598349191
 40
16.0
100
AcDbArc
 50
180.0
 51
360.0
  0
ARC
  5
4B0
100
AcDbEntity
  8
KONSTRUKTIONSELEMENTE
100
AcDbCircle
 62
7
  6
CONTINUOUS
 10
119.6923861559
 20
121.5611546532
 40
3.7195405065
100
AcDbArc
 50
346.0151030528
 51
359.9796708234
  0
ARC
  5
4B1
100
AcDbEntity
  8
BEZUGSACHSEN
100
AcDbCircle
 62
7
  6
CONTINUOUS
 10
142.736313433
 20
83.4465726521
 40
2.6757696485
100
AcDbArc
 50
7.3898791682
 51
8.7901450508
  0
ARC
  5
4B2
100
AcDbEntity
  8
BEZUGSACHSEN
100
AcDbCircle
 62
7
  6
CONTINUOUS
 10
142.0875394237
 20
83.4465726521
 40
2.6757696487
100
AcDbArc
 50
171.2098549492
 51
172.6101208317
  0
ARC
  5
4B3
100
AcDbEntity
  8
0
100
AcDbCircle
 62
7
  6
CONTINUOUS
 10
150.9119516973
 20
60.732730236
 40
1.999974731
100
AcDbArc
 50
310.8021945444
 51
0.0002138447
  0
LINE
  5
4B4
100
AcDbEntity
  8
BEZUGSACHSEN
100
AcDbLine
 62
7
  6
CONTINUOUS
 10
462.574993832
 20
155.0288976264
 11
462.3757539069
 21
154.7031361233
  0
LINE
  5
4B5
100
AcDbEntity
  8
BEZUGSACHSEN
100
AcDbLine
 62
7
  6
CONTINUOUS
 10
461.7022419517
 20
154.2284894069
 11
461.8147870292
 21
154.1885559844
  0
LINE
  5
4B6
100
AcDbEntity
  8
BEZUGSACHSEN
100
AcDbLine
 62
7
  6
CONTINUOUS
 10
461.8147870292
 20
154.1885559844
 11
461.9646846819
 21
154.254307766
  0
LINE
  5
4B7
100
AcDbEntity
  8
BEZUGSACHSEN
100
AcDbLine
 62
7
  6
CONTINUOUS
 10
462.151656658
 20
154.4258406231
 11
461.9646846819
 21
154.254307766
  0
LINE
  5
4B8
100
AcDbEntity
  8
BEZUGSACHSEN
100
AcDbLine
 62
7
  6
CONTINUOUS
 10
462.3757539069
 20
154.7031361233
 11
462.2074756384
 21
154.494931545
  0
LINE
  5
4B9
100
AcDbEntity
  8
BEZUGSACHSEN
100
AcDbLine
 62
7
  6
CONTINUOUS
 10
462.2074756384
 20
154.494931545
 11
462.151656658
 21
154.4258406231
  0
LINE
  5
4BA
100
AcDbEntity
  8
BEZUGSACHSEN
100
AcDbLine
 62
7
  6
CONTINUOUS
 10
461.3414672067
 20
153.6825233226
 11
461.480248145
 21
153.5936274711
  0
SPLINE
  5
4BB
100
AcDbEntity
  8
BEZUGSACHSEN
100
AcDbSpline
 62
7
  6
CONTINUOUS
 70
0
 71
3
 72
8
 73
4
 74
0
 42
0.0000001
 43
0.0000001
 44
0.0000000001
 40
0.0
 40
0.0
 40
0.0
 40
0.0
 40
1.0
 40
1.0
 40
1.0
 40
1.0
 10
462.6699440598
 20
156.8581939638
 30
0.0
 10
462.5468202862
 20
156.6772848767
 30
0.0
 10
462.4238100116
 20
156.4962984851
 30
0.0
 10
462.3009204435
 20
156.3152302231
 30
0.0
  0
LINE
  5
4BC
100
AcDbEntity
  8
BEZUGSACHSEN
100
AcDbLine
 62
7
  6
CONTINUOUS
 10
463.0617256822
 20
157.3534611671
 11
462.767351118
 21
156.9813729052
  0
LINE
  5
4BD
100
AcDbEntity
  8
BEZUGSACHSEN
100
AcDbLine
 62
7
  6
CONTINUOUS
 10
462.767351118
 20
156.9813729052
 11
462.6699440598
 21
156.8581939638
  0
LINE
  5
4BE
100
AcDbEntity
  8
BEZUGSACHSEN
100
AcDbLine
 62
7
  6
CONTINUOUS
 10
463.537953951
 20
157.858435269
 11
463.1804244126
 21
157.4793271357
  0
LINE
  5
4BF
100
AcDbEntity
  8
BEZUGSACHSEN
100
AcDbLine
 62
7
  6
CONTINUOUS
 10
463.1804244126
 20
157.4793271357
 11
463.0617256822
 21
157.3534611671
  0
LINE
  5
4C0
100
AcDbEntity
  8
BEZUGSACHSEN
100
AcDbLine
 62
7
  6
CONTINUOUS
 10
463.537953951
 20
157.858435269
 11
463.6045741044
 21
157.9196189705
  0
LINE
  5
4C1
100
AcDbEntity
  8
BEZUGSACHSEN
100
AcDbLine
 62
7
  6
CONTINUOUS
 10
463.6045741044
 20
157.9196189705
 11
463.6465505576
 21
157.9581694334
  0
LINE
  5
4C2
100
AcDbEntity
  8
BEZUGSACHSEN
100
AcDbLine
 62
7
  6
CONTINUOUS
 10
463.6465505576
 20
157.9581694334
 11
463.8645269071
 21
158.1583484657
  0
LINE
  5
4C3
100
AcDbEntity
  8
BEZUGSACHSEN
100
AcDbLine
 62
7
  6
CONTINUOUS
 10
463.8645269071
 20
158.1583484657
 11
463.9739065868
 21
158.2587933651
  0
LINE
  5
4C4
100
AcDbEntity
  8
BEZUGSACHSEN
100
AcDbLine
 62
7
  6
CONTINUOUS
 10
463.9739065868
 20
158.2587933651
 11
464.3697553279
 21
158.5544730595
  0
LINE
  5
4C5
100
AcDbEntity
  8
BEZUGSACHSEN
100
AcDbLine
 62
7
  6
CONTINUOUS
 10
464.3697553279
 20
158.5544730595
 11
464.601315307
 21
158.6309453171
  0
LINE
  5
4C6
100
AcDbEntity
  8
BEZUGSACHSEN
100
AcDbLine
 62
7
  6
CONTINUOUS
 10
463.6723141336
 20
156.1064297975
 11
463.4103813053
 21
155.7236304082
  0
SPLINE
  5
4C7
100
AcDbEntity
  8
BEZUGSACHSEN
100
AcDbSpline
 62
7
  6
CONTINUOUS
 70
0
 71
3
 72
8
 73
4
 74
0
 42
0.0000001
 43
0.0000001
 44
0.0000000001
 40
0.0
 40
0.0
 40
0.0
 40
0.0
 40
1.0
 40
1.0
 40
1.0
 40
1.0
 10
463.91011895
 20
156.5374298536
 30
0.0
 10
463.8307141987
 20
156.3938385553
 30
0.0
 10
463.751444713
 20
156.2501723689
 30
0.0
 10
463.6723141336
 20
156.1064297975
 30
0.0
  0
LINE
  5
4C8
100
AcDbEntity
  8
BEZUGSACHSEN
100
AcDbLine
 62
7
  6
CONTINUOUS
 10
462.7676579347
 20
158.0734124412
 11
465.3413706588
 21
160.8367171048
  0
LINE
  5
4C9
100
AcDbEntity
  8
BEZUGSACHSEN
100
AcDbLine
 62
7
  6
CONTINUOUS
 10
465.3413706588
 20
160.8367171048
 11
465.4277631118
 21
160.9294735904
  0
LINE
  5
4CA
100
AcDbEntity
  8
BEZUGSACHSEN
100
AcDbLine
 62
7
  6
CONTINUOUS
 10
465.1653643072
 20
161.0006476301
 11
465.2517326203
 21
161.0933957212
  0
LINE
  5
4CB
100
AcDbEntity
  8
BEZUGSACHSEN
100
AcDbLine
 62
7
  6
CONTINUOUS
 10
465.2517326203
 20
161.0933957212
 11
465.7109523869
 21
161.5865336127
  0
LINE
  5
4CC
100
AcDbEntity
  8
BEZUGSACHSEN
100
AcDbLine
 62
7
  6
CONTINUOUS
 10
465.7109523869
 20
161.5865336127
 11
465.9734258736
 21
161.5153321162
  0
SPLINE
  5
4CD
100
AcDbEntity
  8
BEZUGSACHSEN
100
AcDbSpline
 62
7
  6
CONTINUOUS
 70
0
 71
3
 72
8
 73
4
 74
0
 42
0.0000001
 43
0.0000001
 44
0.0000000001
 40
0.0
 40
0.0
 40
0.0
 40
0.0
 40
1.0
 40
1.0
 40
1.0
 40
1.0
 10
466.2957030508
 20
166.8964899805
 30
0.0
 10
466.1514514693
 20
166.6598756443
 30
0.0
 10
466.0074202714
 20
166.4231267924
 30
0.0
 10
465.8636238173
 20
166.1862355882
 30
0.0
  0
LINE
  5
4CE
100
AcDbEntity
  8
BEZUGSACHSEN
100
AcDbLine
 62
7
  6
CONTINUOUS
 10
466.6734240204
 20
167.4663259936
 11
466.2957030508
 21
166.8964899805
  0
LINE
  5
4CF
100
AcDbEntity
  8
BEZUGSACHSEN
100
AcDbLine
 62
7
  6
CONTINUOUS
 10
467.1040533736
 20
168.0735766142
 11
466.6734240204
 21
167.4663259936
  0
LINE
  5
4D0
100
AcDbEntity
  8
BEZUGSACHSEN
100
AcDbLine
 62
7
  6
CONTINUOUS
 10
467.1040533736
 20
168.0735766142
 11
468.0079471471
 21
169.2792582072
  0
LINE
  5
4D1
100
AcDbEntity
  8
BEZUGSACHSEN
100
AcDbLine
 62
7
  6
CONTINUOUS
 10
468.0079471471
 20
169.2792582072
 11
468.0513005644
 21
169.3370819489
  0
LINE
  5
4D2
100
AcDbEntity
  8
BEZUGSACHSEN
100
AcDbLine
 62
7
  6
CONTINUOUS
 10
468.0513005644
 20
169.3370819489
 11
468.3124637189
 21
169.6854072451
  0
LINE
  5
4D3
100
AcDbEntity
  8
BEZUGSACHSEN
100
AcDbLine
 62
7
  6
CONTINUOUS
 10
468.3124637189
 20
169.6854072451
 11
468.3338250748
 21
169.7120167568
  0
LINE
  5
4D4
100
AcDbEntity
  8
BEZUGSACHSEN
100
AcDbLine
 62
7
  6
CONTINUOUS
 10
468.3338250748
 20
169.7120167568
 11
468.4058181523
 21
169.8016897167
  0
LINE
  5
4D5
100
AcDbEntity
  8
BEZUGSACHSEN
100
AcDbLine
 62
7
  6
CONTINUOUS
 10
468.4058181523
 20
169.8016897167
 11
468.6876583594
 21
170.1526316169
  0
LINE
  5
4D6
100
AcDbEntity
  8
BEZUGSACHSEN
100
AcDbLine
 62
7
  6
CONTINUOUS
 10
468.6876583594
 20
170.1526316169
 11
468.9550276528
 21
170.4422184913
  0
LINE
  5
4D7
100
AcDbEntity
  8
BEZUGSACHSEN
100
AcDbLine
 62
7
  6
CONTINUOUS
 10
468.0399939724
 20
168.1787279168
 11
467.7735909717
 21
167.7852575204
  0
SPLINE
  5
4D8
100
AcDbEntity
  8
BEZUGSACHSEN
100
AcDbSpline
 62
7
  6
CONTINUOUS
 70
0
 71
3
 72
8
 73
4
 74
0
 42
0.0000001
 43
0.0000001
 44
0.0000000001
 40
0.0
 40
0.0
 40
0.0
 40
0.0
 40
1.0
 40
1.0
 40
1.0
 40
1.0
 10
468.275489158
 20
168.6068772832
 30
0.0
 10
468.1968510417
 20
168.4642377678
 30
0.0
 10
468.1183514159
 20
168.3215218094
 30
0.0
 10
468.0399939724
 20
168.1787279168
 30
0.0
  0
LINE
  5
4D9
100
AcDbEntity
  8
BEZUGSACHSEN
100
AcDbLine
 62
7
  6
CONTINUOUS
 10
465.7020191901
 20
165.0631459556
 11
465.9194635746
 21
165.3142322305
  0
LINE
  5
4DA
100
AcDbEntity
  8
BEZUGSACHSEN
100
AcDbLine
 62
7
  6
CONTINUOUS
 10
466.564357185
 20
166.1737267893
 11
465.9194635746
 21
165.3142322305
  0
LINE
  5
4DB
100
AcDbEntity
  8
BEZUGSACHSEN
100
AcDbLine
 62
7
  6
CONTINUOUS
 10
466.7881715131
 20
166.8131905143
 11
466.731418532
 21
166.6535893369
  0
LINE
  5
4DC
100
AcDbEntity
  8
BEZUGSACHSEN
100
AcDbLine
 62
7
  6
CONTINUOUS
 10
466.6195119033
 20
166.3338572822
 11
466.564357185
 21
166.1737267893
  0
LINE
  5
4DD
100
AcDbEntity
  8
BEZUGSACHSEN
100
AcDbLine
 62
7
  6
CONTINUOUS
 10
467.2720630046
 20
167.4577307491
 11
466.7881715131
 21
166.8131905143
  0
LINE
  5
4DE
100
AcDbEntity
  8
BEZUGSACHSEN
100
AcDbLine
 62
7
  6
CONTINUOUS
 10
468.5706493109
 20
170.7795550268
 11
468.7062458779
 21
170.9179313047
  0
LINE
  5
4DF
100
AcDbEntity
  8
BEZUGSACHSEN
100
AcDbLine
 62
7
  6
CONTINUOUS
 10
468.7062458779
 20
170.9179313047
 11
468.9457360506
 21
171.2302532671
  0
LINE
  5
4E0
100
AcDbEntity
  8
BEZUGSACHSEN
100
AcDbLine
 62
7
  6
CONTINUOUS
 10
469.2030710376
 20
171.5950292725
 11
468.9457360506
 21
171.2302532671
  0
LINE
  5
4E1
100
AcDbEntity
  8
BEZUGSACHSEN
100
AcDbLine
 62
7
  6
CONTINUOUS
 10
469.4782912725
 20
172.0122437481
 11
469.2030710376
 21
171.5950292725
  0
LINE
  5
4E2
100
AcDbEntity
  8
BEZUGSACHSEN
100
AcDbLine
 62
7
  6
CONTINUOUS
 10
469.6859282265
 20
172.3601911558
 11
469.4782912725
 21
172.0122437481
  0
LINE
  5
4E3
100
AcDbEntity
  8
BEZUGSACHSEN
100
AcDbLine
 62
7
  6
CONTINUOUS
 10
466.7164833599
 20
168.8262110716
 11
466.8366314405
 21
168.996717338
  0
LINE
  5
4E4
100
AcDbEntity
  8
BEZUGSACHSEN
100
AcDbLine
 62
7
  6
CONTINUOUS
 10
466.8366314405
 20
168.996717338
 11
467.8049652822
 21
170.3707884257
  0
LINE
  5
4E5
100
AcDbEntity
  8
BEZUGSACHSEN
100
AcDbLine
 62
7
  6
CONTINUOUS
 10
467.8049652822
 20
170.3707884257
 11
468.2578938109
 21
171.0134265348
  0
LINE
  5
4E6
100
AcDbEntity
  8
BEZUGSACHSEN
100
AcDbLine
 62
7
  6
CONTINUOUS
 10
468.2578938109
 20
171.0134265348
 11
468.3299456052
 21
171.1156535185
  0
LINE
  5
4E7
100
AcDbEntity
  8
BEZUGSACHSEN
100
AcDbLine
 62
7
  6
CONTINUOUS
 10
468.3299456052
 20
171.1156535185
 11
468.6968379459
 21
171.6361844498
  0
LINE
  5
4E8
100
AcDbEntity
  8
BEZUGSACHSEN
100
AcDbLine
 62
7
  6
CONTINUOUS
 10
468.6968379459
 20
171.6361844498
 11
468.8443065213
 21
171.8453994195
  0
LINE
  5
4E9
100
AcDbEntity
  8
BEZUGSACHSEN
100
AcDbLine
 62
7
  6
CONTINUOUS
 10
468.8443065213
 20
171.8453994195
 11
469.1333180739
 21
172.2554114191
  0
LINE
  5
4EA
100
AcDbEntity
  8
BEZUGSACHSEN
100
AcDbLine
 62
7
  6
CONTINUOUS
 10
469.1333180739
 20
172.2554114191
 11
469.5439233419
 21
172.8379003041
  0
LINE
  5
4EB
100
AcDbEntity
  8
BEZUGSACHSEN
100
AcDbLine
 62
7
  6
CONTINUOUS
 10
469.5439233419
 20
172.8379003041
 11
470.0550066169
 21
173.5628905653
  0
LINE
  5
4EC
100
AcDbEntity
  8
BEZUGSACHSEN
100
AcDbLine
 62
7
  6
CONTINUOUS
 10
470.0550066169
 20
173.5628905653
 11
470.1303102402
 21
173.6697081206
  0
LINE
  5
4ED
100
AcDbEntity
  8
BEZUGSACHSEN
100
AcDbLine
 62
7
  6
CONTINUOUS
 10
470.1303102402
 20
173.6697081206
 11
470.7453002053
 21
174.5420355445
  0
LINE
  5
4EE
100
AcDbEntity
  8
BEZUGSACHSEN
100
AcDbLine
 62
7
  6
CONTINUOUS
 10
466.054225996
 20
167.0335093169
 11
466.0242626251
 21
166.9412642305
  0
LINE
  5
4EF
100
AcDbEntity
  8
BEZUGSACHSEN
100
AcDbLine
 62
7
  6
CONTINUOUS
 10
468.0617062601
 20
170.1898484567
 11
468.0479622164
 21
170.1689146774
  0
LINE
  5
4F0
100
AcDbEntity
  8
BEZUGSACHSEN
100
AcDbLine
 62
7
  6
CONTINUOUS
 10
468.0479622164
 20
170.1689146774
 11
467.0704551865
 21
168.6782339805
  0
LINE
  5
4F1
100
AcDbEntity
  8
BEZUGSACHSEN
100
AcDbLine
 62
7
  6
CONTINUOUS
 10
467.0704551865
 20
168.6782339805
 11
467.0320933428
 21
168.6196555641
  0
LINE
  5
4F2
100
AcDbEntity
  8
BEZUGSACHSEN
100
AcDbLine
 62
7
  6
CONTINUOUS
 10
467.0320933428
 20
168.6196555641
 11
466.8034139515
 21
168.2703338363
  0
LINE
  5
4F3
100
AcDbEntity
  8
BEZUGSACHSEN
100
AcDbLine
 62
7
  6
CONTINUOUS
 10
466.8034139515
 20
168.2703338363
 11
466.3961027062
 21
167.6475728645
  0
LINE
  5
4F4
100
AcDbEntity
  8
BEZUGSACHSEN
100
AcDbLine
 62
7
  6
CONTINUOUS
 10
466.3961027062
 20
167.6475728645
 11
466.1152146225
 21
167.217662005
  0
SPLINE
  5
4F5
100
AcDbEntity
  8
KONSTRUKTIONSELEMENTE
100
AcDbSpline
 62
7
  6
CONTINUOUS
 70
0
 71
3
 72
8
 73
4
 74
0
 42
0.0000001
 43
0.0000001
 44
0.0000000001
 40
0.0
 40
0.0
 40
0.0
 40
0.0
 40
1.0
 40
1.0
 40
1.0
 40
1.0
 10
464.0455796253
 20
155.2549111954
 30
0.0
 10
464.1655797689
 20
155.437036277
 30
0.0
 10
464.2857259917
 20
155.6190651848
 30
0.0
 10
464.4060110813
 20
155.8010021987
 30
0.0
  0
SPLINE
  5
4F6
100
AcDbEntity
  8
BEZUGSACHSEN
100
AcDbSpline
 62
7
  6
CONTINUOUS
 70
0
 71
3
 72
8
 73
4
 74
0
 42
0.0000001
 43
0.0000001
 44
0.0000000001
 40
0.0
 40
0.0
 40
0.0
 40
0.0
 40
1.0
 40
1.0
 40
1.0
 40
1.0
 10
463.8094262167
 20
156.0181413317
 30
0.0
 10
463.6890502247
 20
155.8362370399
 30
0.0
 10
463.5688116055
 20
155.6542417588
 30
0.0
 10
463.4487174936
 20
155.4721512453
 30
0.0
  0
LINE
  5
4F7
100
AcDbEntity
  8
KONSTRUKTIONSELEMENTE
100
AcDbLine
 62
7
  6
CONTINUOUS
 10
463.8218128046
 20
154.977495541
 11
464.0455796253
 21
155.2549111954
  0
LINE
  5
4F8
100
AcDbEntity
  8
BEZUGSACHSEN
100
AcDbLine
 62
7
  6
CONTINUOUS
 10
463.4487174936
 20
155.4721512453
 11
463.2248463979
 21
155.1947735439
  0
LINE
  5
4F9
100
AcDbEntity
  8
BEZUGSACHSEN
100
AcDbLine
 62
7
  6
CONTINUOUS
 10
464.2556437426
 20
158.040068824
 11
464.3638740173
 21
158.0017058054
  0
LINE
  5
4FA
100
AcDbEntity
  8
BEZUGSACHSEN
100
AcDbLine
 62
7
  6
CONTINUOUS
 10
463.1110459135
 20
157.058570811
 11
463.2583806778
 21
157.1252555196
  0
LINE
  5
4FB
100
AcDbEntity
  8
BEZUGSACHSEN
100
AcDbLine
 62
7
  6
CONTINUOUS
 10
464.108206965
 20
157.9734211333
 11
464.2556437426
 21
158.040068824
  0
LINE
  5
4FC
100
AcDbEntity
  8
BEZUGSACHSEN
100
AcDbLine
 62
7
  6
CONTINUOUS
 10
463.7739518023
 20
157.7351903669
 11
464.108206965
 21
157.9734211333
  0
LINE
  5
4FD
100
AcDbEntity
  8
KONSTRUKTIONSELEMENTE
100
AcDbLine
 62
7
  6
CONTINUOUS
 10
464.2748596918
 20
157.4330495116
 11
464.2437242973
 21
157.4044837678
  0
SPLINE
  5
4FE
100
AcDbEntity
  8
0
100
AcDbSpline
 62
7
  6
CONTINUOUS
 70
0
 71
3
 72
11
 73
7
 74
0
 42
0.0000001
 43
0.0000001
 44
0.0000000001
 40
0.0
 40
0.0
 40
0.0
 40
0.0
 40
0.2517094103
 40
0.5000000002
 40
0.7482905901
 40
1.0
 40
1.0
 40
1.0
 40
1.0
 10
474.0749831299
 20
175.774205807
 30
0.0
 10
474.1601761755
 20
176.5520979538
 30
0.0
 10
474.4097312653
 20
178.0903619155
 30
0.0
 10
475.0628922948
 20
180.3297143197
 30
0.0
 10
476.0019698924
 20
182.4650016028
 30
0.0
 10
476.7995766214
 20
183.8037910789
 30
0.0
 10
477.234334395
 20
184.4544520682
 30
0.0
  0
LINE
  5
4FF
100
AcDbEntity
  8
BEZUGSACHSEN
100
AcDbLine
 62
7
  6
CONTINUOUS
 10
463.6493178165
 20
157.6208300339
 11
463.74276634
 21
157.7065757201
  0
LINE
  5
500
100
AcDbEntity
  8
BEZUGSACHSEN
100
AcDbLine
 62
7
  6
CONTINUOUS
 10
463.74276634
 20
157.7065757201
 11
463.7739518023
 21
157.7351903669
  0
SPLINE
  5
501
100
AcDbEntity
  8
0
100
AcDbSpline
 62
7
  6
CONTINUOUS
 70
0
 71
3
 72
9
 73
5
 74
0
 42
0.0000001
 43
0.0000001
 44
0.0000000001
 40
0.0
 40
0.0
 40
0.0
 40
0.0
 40
0.5000000002
 40
1.0
 40
1.0
 40
1.0
 40
1.0
 10
465.8036941352
 20
153.0490260645
 30
0.0
 10
466.8249589589
 20
156.9528805124
 30
0.0
 10
469.2035508844
 20
164.6794207766
 30
0.0
 10
472.3479681053
 20
172.1272234285
 30
0.0
 10
474.0749831299
 20
175.774205807
 30
0.0
  0
SPLINE
  5
502
100
AcDbEntity
  8
0
100
AcDbSpline
 62
7
  6
CONTINUOUS
 70
0
 71
3
 72
9
 73
5
 74
0
 42
0.0000001
 43
0.0000001
 44
0.0000000001
 40
0.0
 40
0.0
 40
0.0
 40
0.0
 40
0.4999969483
 40
1.0
 40
1.0
 40
1.0
 40
1.0
 10
458.0402555358
 20
133.0893800849
 30
0.0
 10
459.1466088555
 20
136.4843983658
 30
0.0
 10
461.5503317456
 20
143.213977895
 30
0.0
 10
464.3328892987
 20
149.7952265614
 30
0.0
 10
465.8036941352
 20
153.0490260645
 30
0.0
  0
LINE
  5
503
100
AcDbEntity
  8
KONSTRUKTIONSELEMENTE
100
AcDbLine
 62
7
  6
CONTINUOUS
 10
464.2453685304
 20
157.3476571492
 11
464.2437242973
 21
157.4044837678
  0
LINE
  5
504
100
AcDbEntity
  8
BEZUGSACHSEN
100
AcDbLine
 62
7
  6
CONTINUOUS
 10
462.9240880227
 20
156.8870328273
 11
463.1110459135
 21
157.058570811
  0
LINE
  5
505
100
AcDbEntity
  8
BEZUGSACHSEN
100
AcDbLine
 62
7
  6
CONTINUOUS
 10
463.3381406277
 20
156.2249645835
 11
463.2119912066
 21
155.9328226801
  0
LINE
  5
506
100
AcDbEntity
  8
BEZUGSACHSEN
100
AcDbLine
 62
7
  6
CONTINUOUS
 10
463.2119912066
 20
155.9328226801
 11
463.1491347186
 21
155.7866238654
  0
LINE
  5
507
100
AcDbEntity
  8
BEZUGSACHSEN
100
AcDbLine
 62
7
  6
CONTINUOUS
 10
463.1491347186
 20
155.7866238654
 11
463.0864244495
 21
155.6403394949
  0
LINE
  5
508
100
AcDbEntity
  8
BEZUGSACHSEN
100
AcDbLine
 62
7
  6
CONTINUOUS
 10
462.9240880227
 20
156.8870328273
 11
462.8077575262
 21
156.7451875858
  0
LINE
  5
509
100
AcDbEntity
  8
BEZUGSACHSEN
100
AcDbLine
 62
7
  6
CONTINUOUS
 10
462.8077575262
 20
156.7451875858
 11
462.6974527087
 21
156.610661219
  0
LINE
  5
50A
100
AcDbEntity
  8
KONSTRUKTIONSELEMENTE
100
AcDbLine
 62
7
  6
CONTINUOUS
 10
463.3093398147
 20
154.7232337982
 11
463.4021273409
 21
154.8977733442
  0
LINE
  5
50B
100
AcDbEntity
  8
KONSTRUKTIONSELEMENTE
100
AcDbLine
 62
7
  6
CONTINUOUS
 10
463.4021273409
 20
154.8977733442
 11
463.4952847732
 21
155.0726324356
  0
LINE
  5
50C
100
AcDbEntity
  8
BEZUGSACHSEN
100
AcDbLine
 62
7
  6
CONTINUOUS
 10
463.0864244495
 20
155.6403394949
 11
462.9923848779
 21
155.4648305146
  0
SPLINE
  5
50D
100
AcDbEntity
  8
KONSTRUKTIONSELEMENTE
100
AcDbSpline
 62
7
  6
CONTINUOUS
 70
0
 71
3
 72
8
 73
4
 74
0
 42
0.0000001
 43
0.0000001
 44
0.0000000001
 40
0.0
 40
0.0
 40
0.0
 40
0.0
 40
1.0
 40
1.0
 40
1.0
 40
1.0
 10
463.0118545663
 20
154.234093946
 30
0.0
 10
463.1108606152
 20
154.3972351556
 30
0.0
 10
463.2100244712
 20
154.5602806928
 30
0.0
 10
463.3093398147
 20
154.7232337982
 30
0.0
  0
SPLINE
  5
50E
100
AcDbEntity
  8
BEZUGSACHSEN
100
AcDbSpline
 62
7
  6
CONTINUOUS
 70
0
 71
3
 72
8
 73
4
 74
0
 42
0.0000001
 43
0.0000001
 44
0.0000000001
 40
0.0
 40
0.0
 40
0.0
 40
0.0
 40
1.0
 40
1.0
 40
1.0
 40
1.0
 10
462.7125895779
 20
154.9404331217
 30
0.0
 10
462.6131771316
 20
154.7775151271
 30
0.0
 10
462.513914789
 20
154.6145054368
 30
0.0
 10
462.4148088162
 20
154.4514008275
 30
0.0
  0
LINE
  5
50F
100
AcDbEntity
  8
KONSTRUKTIONSELEMENTE
100
AcDbLine
 62
7
  6
CONTINUOUS
 10
463.0261033043
 20
156.0129015266
 11
463.0824284416
 21
156.093754623
  0
LINE
  5
510
100
AcDbEntity
  8
BEZUGSACHSEN
100
AcDbLine
 62
7
  6
CONTINUOUS
 10
462.6974527087
 20
156.610661219
 11
462.431411052
 21
156.229351805
  0
LINE
  5
511
100
AcDbEntity
  8
BEZUGSACHSEN
100
AcDbLine
 62
7
  6
CONTINUOUS
 10
465.1653643072
 20
161.0006476301
 11
465.4277631118
 21
160.9294735904
  0
LINE
  5
512
100
AcDbEntity
  8
KONSTRUKTIONSELEMENTE
100
AcDbLine
 62
7
  6
CONTINUOUS
 10
462.7839110637
 20
155.5834983623
 11
462.8441425315
 21
155.6904784923
  0
LINE
  5
513
100
AcDbEntity
  8
KONSTRUKTIONSELEMENTE
100
AcDbLine
 62
7
  6
CONTINUOUS
 10
462.8441425315
 20
155.6904784923
 11
462.9652386462
 21
155.9051800775
  0
LINE
  5
514
100
AcDbEntity
  8
KONSTRUKTIONSELEMENTE
100
AcDbLine
 62
7
  6
CONTINUOUS
 10
462.9652386462
 20
155.9051800775
 11
463.0261033043
 21
156.0129015266
  0
SPLINE
  5
515
100
AcDbEntity
  8
0
100
AcDbSpline
 62
7
  6
CONTINUOUS
 70
0
 71
3
 72
9
 73
5
 74
0
 42
0.0000001
 43
0.0000001
 44
0.0000000001
 40
0.0
 40
0.0
 40
0.0
 40
0.0
 40
0.4999969483
 40
1.0
 40
1.0
 40
1.0
 40
1.0
 10
468.961593595
 20
129.114338113
 30
0.0
 10
470.2963534679
 20
132.4262232072
 30
0.0
 10
472.7806852449
 20
139.126463501
 30
0.0
 10
474.8794675927
 20
145.956585989
 30
0.0
 10
475.8442677258
 20
149.3945561426
 30
0.0
  0
SPLINE
  5
516
100
AcDbEntity
  8
0
100
AcDbSpline
 62
7
  6
CONTINUOUS
 70
0
 71
3
 72
9
 73
5
 74
0
 42
0.0000001
 43
0.0000001
 44
0.0000000001
 40
0.0
 40
0.0
 40
0.0
 40
0.0
 40
0.5000000002
 40
1.0
 40
1.0
 40
1.0
 40
1.0
 10
475.8442677258
 20
149.3945561426
 30
0.0
 10
477.5712827518
 20
153.041538524
 30
0.0
 10
480.7156999724
 20
160.4893411761
 30
0.0
 10
483.0942918976
 20
168.2158814403
 30
0.0
 10
484.1155567204
 20
172.1197358851
 30
0.0
  0
SPLINE
  5
517
100
AcDbEntity
  8
0
100
AcDbSpline
 62
7
  6
CONTINUOUS
 70
0
 71
3
 72
11
 73
7
 74
0
 42
0.0000001
 43
0.0000001
 44
0.0000000001
 40
0.0
 40
0.0
 40
0.0
 40
0.0
 40
0.2517094103
 40
0.5000000002
 40
0.7482905901
 40
1.0
 40
1.0
 40
1.0
 40
1.0
 10
484.1155567204
 20
172.1197358851
 30
0.0
 10
484.5503144949
 20
172.7703968756
 30
0.0
 10
485.3479212201
 20
174.1091863552
 30
0.0
 10
486.2869988221
 20
176.2444736375
 30
0.0
 10
486.9401598555
 20
178.4838260395
 30
0.0
 10
487.1897149401
 20
180.0220900009
 30
0.0
 10
487.2749079856
 20
180.7999821462
 30
0.0
  0
LINE
  5
518
100
AcDbEntity
  8
KONSTRUKTIONSELEMENTE
100
AcDbLine
 62
7
  6
CONTINUOUS
 10
464.2827710773
 20
158.4895221547
 11
464.355562965
 21
158.5676893352
  0
LINE
  5
519
100
AcDbEntity
  8
KONSTRUKTIONSELEMENTE
100
AcDbLine
 62
7
  6
CONTINUOUS
 10
464.355562965
 20
158.5676893352
 11
464.5012476961
 21
158.7241317222
  0
LINE
  5
51A
100
AcDbEntity
  8
KONSTRUKTIONSELEMENTE
100
AcDbLine
 62
7
  6
CONTINUOUS
 10
464.5012476961
 20
158.7241317222
 11
466.354754133
 21
160.7144654323
  0
LINE
  5
51B
100
AcDbEntity
  8
BEZUGSACHSEN
100
AcDbLine
 62
7
  6
CONTINUOUS
 10
465.7618575078
 20
160.9302621559
 11
465.6873974221
 21
160.8503093474
  0
LINE
  5
51C
100
AcDbEntity
  8
BEZUGSACHSEN
100
AcDbLine
 62
7
  6
CONTINUOUS
 10
465.6873974221
 20
160.8503093474
 11
465.6062865012
 21
160.7632150103
  0
LINE
  5
51D
100
AcDbEntity
  8
BEZUGSACHSEN
100
AcDbLine
 62
7
  6
CONTINUOUS
 10
465.6062865012
 20
160.7632150103
 11
462.9463495316
 21
157.9070040992
  0
LINE
  5
51E
100
AcDbEntity
  8
BEZUGSACHSEN
100
AcDbLine
 62
7
  6
CONTINUOUS
 10
462.9463495316
 20
157.9070040992
 11
462.5563720885
 21
157.4882396522
  0
LINE
  5
51F
100
AcDbEntity
  8
KONSTRUKTIONSELEMENTE
100
AcDbLine
 62
7
  6
CONTINUOUS
 10
466.2818287852
 20
164.5649480386
 11
465.9832537636
 21
164.2066137491
  0
LINE
  5
520
100
AcDbEntity
  8
BEZUGSACHSEN
100
AcDbLine
 62
7
  6
CONTINUOUS
 10
465.3962123656
 20
164.4202793443
 11
465.6947414583
 21
164.7786303505
  0
LINE
  5
521
100
AcDbEntity
  8
KONSTRUKTIONSELEMENTE
100
AcDbLine
 62
7
  6
CONTINUOUS
 10
462.6050421087
 20
155.210909104
 11
462.741024229
 21
155.4943845347
  0
LINE
  5
522
100
AcDbEntity
  8
KONSTRUKTIONSELEMENTE
100
AcDbLine
 62
7
  6
CONTINUOUS
 10
462.741024229
 20
155.4943845347
 11
462.7839110637
 21
155.5834983623
  0
LINE
  5
523
100
AcDbEntity
  8
KONSTRUKTIONSELEMENTE
100
AcDbLine
 62
7
  6
CONTINUOUS
 10
462.4843318795
 20
154.8808280442
 11
462.5426588828
 21
155.0407495216
  0
LINE
  5
524
100
AcDbEntity
  8
KONSTRUKTIONSELEMENTE
100
AcDbLine
 62
7
  6
CONTINUOUS
 10
462.5426588828
 20
155.0407495216
 11
462.6050421087
 21
155.210909104
  0
LINE
  5
525
100
AcDbEntity
  8
KONSTRUKTIONSELEMENTE
100
AcDbLine
 62
7
  6
CONTINUOUS
 10
468.2153881122
 20
167.1438395261
 11
468.6421893369
 21
167.7524838547
  0
LINE
  5
526
100
AcDbEntity
  8
BEZUGSACHSEN
100
AcDbLine
 62
7
  6
CONTINUOUS
 10
468.0553245569
 20
167.9660851662
 11
467.6284370547
 21
167.35747224
  0
LINE
  5
527
100
AcDbEntity
  8
BEZUGSACHSEN
100
AcDbLine
 62
7
  6
CONTINUOUS
 10
468.4431892825
 20
169.6242166596
 11
468.583939609
 21
169.760276028
  0
LINE
  5
528
100
AcDbEntity
  8
BEZUGSACHSEN
100
AcDbLine
 62
7
  6
CONTINUOUS
 10
468.583939609
 20
169.760276028
 11
468.6312197533
 21
169.8059056647
  0
LINE
  5
529
100
AcDbEntity
  8
BEZUGSACHSEN
100
AcDbLine
 62
7
  6
CONTINUOUS
 10
468.1478182692
 20
169.2647163023
 11
468.4205056717
 21
169.5966163863
  0
LINE
  5
52A
100
AcDbEntity
  8
BEZUGSACHSEN
100
AcDbLine
 62
7
  6
CONTINUOUS
 10
468.4205056717
 20
169.5966163863
 11
468.4431892825
 21
169.6242166596
  0
LINE
  5
52B
100
AcDbEntity
  8
KONSTRUKTIONSELEMENTE
100
AcDbLine
 62
7
  6
CONTINUOUS
 10
467.7660795297
 20
167.7633450498
 11
467.5236583399
 21
167.4402359107
  0
LINE
  5
52C
100
AcDbEntity
  8
BEZUGSACHSEN
100
AcDbLine
 62
7
  6
CONTINUOUS
 10
466.9387128934
 20
167.6531386419
 11
467.2000869363
 21
168.0015287939
  0
LINE
  5
52D
100
AcDbEntity
  8
BEZUGSACHSEN
100
AcDbLine
 62
7
  6
CONTINUOUS
 10
467.2000869363
 20
168.0015287939
 11
467.2389607611
 21
168.053343764
  0
LINE
  5
52E
100
AcDbEntity
  8
BEZUGSACHSEN
100
AcDbLine
 62
7
  6
CONTINUOUS
 10
467.2389607611
 20
168.053343764
 11
468.1478182692
 21
169.2647163023
  0
LINE
  5
52F
100
AcDbEntity
  8
RUNDUNGEN
100
AcDbLine
 62
7
  6
CONTINUOUS
 10
441.0514596418
 20
93.6845173081
 11
442.8120835365
 21
94.6399692755
  0
LINE
  5
530
100
AcDbEntity
  8
0
100
AcDbLine
 62
7
  6
CONTINUOUS
 10
456.6468087306
 20
88.0082744468
 11
455.9122452659
 21
89.8719003419
  0
LINE
  5
531
100
AcDbEntity
  8
KONSTRUKTIONSELEMENTE
100
AcDbLine
 62
7
  6
CONTINUOUS
 10
467.4823670132
 20
167.3811864594
 11
467.5236583399
 21
167.4402359107
  0
LINE
  5
532
100
AcDbEntity
  8
BEZUGSACHSEN
100
AcDbLine
 62
7
  6
CONTINUOUS
 10
466.9387128934
 20
167.6531386419
 11
466.5890875371
 21
167.1531820333
  0
LINE
  5
533
100
AcDbEntity
  8
BEZUGSACHSEN
100
AcDbLine
 62
7
  6
CONTINUOUS
 10
466.5890875371
 20
167.1531820333
 11
466.2931220578
 21
166.6903684402
  0
LINE
  5
534
100
AcDbEntity
  8
KONSTRUKTIONSELEMENTE
100
AcDbLine
 62
7
  6
CONTINUOUS
 10
462.6272670386
 20
153.7362083623
 11
463.0118545663
 21
154.234093946
  0
LINE
  5
535
100
AcDbEntity
  8
BEZUGSACHSEN
100
AcDbLine
 62
7
  6
CONTINUOUS
 10
462.4148088162
 20
154.4514008275
 11
462.3039488204
 21
154.3080870618
  0
LINE
  5
536
100
AcDbEntity
  8
BEZUGSACHSEN
100
AcDbLine
 62
7
  6
CONTINUOUS
 10
462.3039488204
 20
154.3080870618
 11
462.0299965651
 21
153.9535970364
  0
LINE
  5
537
100
AcDbEntity
  8
KONSTRUKTIONSELEMENTE
100
AcDbLine
 62
7
  6
CONTINUOUS
 10
462.3158639839
 20
153.4502412082
 11
462.6272670386
 21
153.7362083623
  0
LINE
  5
538
100
AcDbEntity
  8
BEZUGSACHSEN
100
AcDbLine
 62
7
  6
CONTINUOUS
 10
465.7483607442
 20
165.5571271674
 11
465.6902061911
 21
165.3961340216
  0
LINE
  5
539
100
AcDbEntity
  8
BEZUGSACHSEN
100
AcDbLine
 62
7
  6
CONTINUOUS
 10
465.6902061911
 20
165.3961340216
 11
465.633840821
 21
165.2383481839
  0
LINE
  5
53A
100
AcDbEntity
  8
BEZUGSACHSEN
100
AcDbLine
 62
7
  6
CONTINUOUS
 10
465.615663625
 20
165.0722394014
 11
465.6145673871
 21
165.0617300944
  0
LINE
  5
53B
100
AcDbEntity
  8
BEZUGSACHSEN
100
AcDbLine
 62
7
  6
CONTINUOUS
 10
462.0299965651
 20
153.9535970364
 11
461.7185543852
 21
153.6676441228
  0
LINE
  5
53C
100
AcDbEntity
  8
KONSTRUKTIONSELEMENTE
100
AcDbLine
 62
7
  6
CONTINUOUS
 10
462.3158639839
 20
153.4502412082
 11
462.0773977572
 21
153.3762827868
  0
LINE
  5
53D
100
AcDbEntity
  8
BEZUGSACHSEN
100
AcDbLine
 62
7
  6
CONTINUOUS
 10
461.480248145
 20
153.5936274711
 11
461.7185543852
 21
153.6676441228
  0
LINE
  5
53E
100
AcDbEntity
  8
KONSTRUKTIONSELEMENTE
100
AcDbLine
 62
7
  6
CONTINUOUS
 10
466.2818287852
 20
164.5649480386
 11
467.4902520595
 21
166.1767739636
  0
LINE
  5
53F
100
AcDbEntity
  8
BEZUGSACHSEN
100
AcDbLine
 62
7
  6
CONTINUOUS
 10
466.9032533726
 20
166.3904240132
 11
466.677273996
 21
166.0890567369
  0
LINE
  5
540
100
AcDbEntity
  8
BEZUGSACHSEN
100
AcDbLine
 62
7
  6
CONTINUOUS
 10
466.677273996
 20
166.0890567369
 11
466.598792327
 21
165.9843909576
  0
LINE
  5
541
100
AcDbEntity
  8
BEZUGSACHSEN
100
AcDbLine
 62
7
  6
CONTINUOUS
 10
466.598792327
 20
165.9843909576
 11
466.0326684981
 21
165.2293537712
  0
LINE
  5
542
100
AcDbEntity
  8
BEZUGSACHSEN
100
AcDbLine
 62
7
  6
CONTINUOUS
 10
466.0326684981
 20
165.2293537712
 11
465.9945360383
 21
165.1784943264
  0
LINE
  5
543
100
AcDbEntity
  8
BEZUGSACHSEN
100
AcDbLine
 62
7
  6
CONTINUOUS
 10
465.9945360383
 20
165.1784943264
 11
465.6947414583
 21
164.7786303505
  0
LINE
  5
544
100
AcDbEntity
  8
BEZUGSACHSEN
100
AcDbLine
 62
7
  6
CONTINUOUS
 10
468.562789805
 20
170.7884256519
 11
468.5706493109
 21
170.7795550268
  0
LINE
  5
545
100
AcDbEntity
  8
BEZUGSACHSEN
100
AcDbLine
 62
7
  6
CONTINUOUS
 10
468.9070798854
 20
171.8011513659
 11
469.1962763312
 21
172.2111607015
  0
LINE
  5
546
100
AcDbEntity
  8
BEZUGSACHSEN
100
AcDbLine
 62
7
  6
CONTINUOUS
 10
469.1962763312
 20
172.2111607015
 11
469.2267077615
 21
172.2543045813
  0
LINE
  5
547
100
AcDbEntity
  8
BEZUGSACHSEN
100
AcDbLine
 62
7
  6
CONTINUOUS
 10
469.2267077615
 20
172.2543045813
 11
469.4291487653
 21
172.541311591
  0
LINE
  5
548
100
AcDbEntity
  8
BEZUGSACHSEN
100
AcDbLine
 62
7
  6
CONTINUOUS
 10
469.4291487653
 20
172.541311591
 11
469.5476719468
 21
172.7093441785
  0
LINE
  5
549
100
AcDbEntity
  8
BEZUGSACHSEN
100
AcDbLine
 62
7
  6
CONTINUOUS
 10
469.5476719468
 20
172.7093441785
 11
469.6070346687
 21
172.7935034467
  0
LINE
  5
54A
100
AcDbEntity
  8
BEZUGSACHSEN
100
AcDbLine
 62
7
  6
CONTINUOUS
 10
469.6070346687
 20
172.7935034467
 11
470.1936087007
 21
173.6250828639
  0
LINE
  5
54B
100
AcDbEntity
  8
BEZUGSACHSEN
100
AcDbLine
 62
7
  6
CONTINUOUS
 10
468.6280276087
 20
171.062743614
 11
468.6039753645
 21
170.9960764251
  0
LINE
  5
54C
100
AcDbEntity
  8
BEZUGSACHSEN
100
AcDbLine
 62
7
  6
CONTINUOUS
 10
466.5915358278
 20
168.5179993754
 11
466.7781997548
 21
168.7826865323
  0
LINE
  5
54D
100
AcDbEntity
  8
BEZUGSACHSEN
100
AcDbLine
 62
7
  6
CONTINUOUS
 10
466.7781997548
 20
168.7826865323
 11
467.8673092558
 21
170.3269527556
  0
LINE
  5
54E
100
AcDbEntity
  8
BEZUGSACHSEN
100
AcDbLine
 62
7
  6
CONTINUOUS
 10
467.8673092558
 20
170.3269527556
 11
468.3924893652
 21
171.0715712924
  0
SPLINE
  5
54F
100
AcDbEntity
  8
KONSTRUKTIONSELEMENTE
100
AcDbSpline
 62
7
  6
CONTINUOUS
 70
0
 71
3
 72
8
 73
4
 74
0
 42
0.0000001
 43
0.0000001
 44
0.0000000001
 40
0.0
 40
0.0
 40
0.0
 40
0.0
 40
1.0
 40
1.0
 40
1.0
 40
1.0
 10
469.9561952939
 20
171.4846120308
 30
0.0
 10
470.0878548104
 20
171.6994277636
 30
0.0
 10
470.2196674657
 20
171.9141497064
 30
0.0
 10
470.3516258098
 20
172.1287820031
 30
0.0
  0
SPLINE
  5
550
100
AcDbEntity
  8
BEZUGSACHSEN
100
AcDbSpline
 62
7
  6
CONTINUOUS
 70
0
 71
3
 72
8
 73
4
 74
0
 42
0.0000001
 43
0.0000001
 44
0.0000000001
 40
0.0
 40
0.0
 40
0.0
 40
0.0
 40
1.0
 40
1.0
 40
1.0
 40
1.0
 10
469.7680085657
 20
172.3412013081
 30
0.0
 10
469.6360016275
 20
172.1265864533
 30
0.0
 10
469.5041392593
 20
171.9118826013
 30
0.0
 10
469.3724288387
 20
171.6970856442
 30
0.0
  0
LINE
  5
551
100
AcDbEntity
  8
KONSTRUKTIONSELEMENTE
100
AcDbLine
 62
7
  6
CONTINUOUS
 10
469.6817120985
 20
171.0671292947
 11
469.9561952939
 21
171.4846120308
  0
LINE
  5
552
100
AcDbEntity
  8
BEZUGSACHSEN
100
AcDbLine
 62
7
  6
CONTINUOUS
 10
469.3724288387
 20
171.6970856442
 11
469.097888311
 21
171.2796237754
  0
LINE
  5
553
100
AcDbEntity
  8
KONSTRUKTIONSELEMENTE
100
AcDbLine
 62
7
  6
CONTINUOUS
 10
469.3387580044
 20
170.5807034781
 11
469.6817120985
 21
171.0671292947
  0
LINE
  5
554
100
AcDbEntity
  8
BEZUGSACHSEN
100
AcDbLine
 62
7
  6
CONTINUOUS
 10
469.097888311
 20
171.2796237754
 11
468.7549197684
 21
170.7932032176
  0
LINE
  5
555
100
AcDbEntity
  8
KONSTRUKTIONSELEMENTE
100
AcDbLine
 62
7
  6
CONTINUOUS
 10
469.3387580044
 20
170.5807034781
 11
469.3078407222
 21
170.540503246
  0
LINE
  5
556
100
AcDbEntity
  8
BEZUGSACHSEN
100
AcDbLine
 62
7
  6
CONTINUOUS
 10
468.5149377264
 20
170.4810602811
 11
468.7549197684
 21
170.7932032176
  0
LINE
  5
557
100
AcDbEntity
  8
BEZUGSACHSEN
100
AcDbLine
 62
7
  6
CONTINUOUS
 10
468.2241897113
 20
170.1524778731
 11
468.5149377264
 21
170.4810602811
  0
SPLINE
  5
558
100
AcDbEntity
  8
BEZUGSACHSEN
100
AcDbSpline
 62
7
  6
CONTINUOUS
 70
0
 71
3
 72
8
 73
4
 74
0
 42
0.0000001
 43
0.0000001
 44
0.0000000001
 40
0.0
 40
0.0
 40
0.0
 40
0.0
 40
1.0
 40
1.0
 40
1.0
 40
1.0
 10
468.1236886951
 20
170.1192250518
 30
0.0
 10
467.709764291
 20
169.4855061748
 30
0.0
 10
467.2963379705
 20
168.8514615684
 30
0.0
 10
466.8835094184
 20
168.217028267
 30
0.0
  0
LINE
  5
559
100
AcDbEntity
  8
BEZUGSACHSEN
100
AcDbLine
 62
7
  6
CONTINUOUS
 10
466.8835094184
 20
168.217028267
 11
466.5097218909
 21
167.6422269752
  0
LINE
  5
55A
100
AcDbEntity
  8
BEZUGSACHSEN
100
AcDbLine
 62
7
  6
CONTINUOUS
 10
466.5097218909
 20
167.6422269752
 11
466.4779073641
 21
167.5932688056
  0
LINE
  5
55B
100
AcDbEntity
  8
BEZUGSACHSEN
100
AcDbLine
 62
7
  6
CONTINUOUS
 10
466.4779073641
 20
167.5932688056
 11
466.1987415787
 21
167.1634299119
  0
LINE
  5
55C
100
AcDbEntity
  8
BEZUGSACHSEN
100
AcDbLine
 62
7
  6
CONTINUOUS
 10
466.1987415787
 20
167.1634299119
 11
466.1870124069
 21
167.1453605554
  0
LINE
  5
55D
100
AcDbEntity
  8
BEZUGSACHSEN
100
AcDbLine
 62
7
  6
CONTINUOUS
 10
466.1870124069
 20
167.1453605554
 11
466.121862336
 21
167.0449793034
  0
LINE
  5
55E
100
AcDbEntity
  8
BEZUGSACHSEN
100
AcDbLine
 62
7
  6
CONTINUOUS
 10
466.121862336
 20
167.0449793034
 11
466.1055993936
 21
167.0199180262
  0
LINE
  5
55F
100
AcDbEntity
  8
BEZUGSACHSEN
100
AcDbLine
 62
7
  6
CONTINUOUS
 10
466.1055993936
 20
167.0199180262
 11
465.994652407
 21
166.8489069371
  0
LINE
  5
560
100
AcDbEntity
  8
KONSTRUKTIONSELEMENTE
100
AcDbLine
 62
7
  6
CONTINUOUS
 10
465.326047223
 20
158.3287807231
 11
465.1956248024
 21
158.4146343509
  0
LINE
  5
561
100
AcDbEntity
  8
BEZUGSACHSEN
100
AcDbLine
 62
7
  6
CONTINUOUS
 10
464.601315307
 20
158.6309453171
 11
464.7314721343
 21
158.5451883574
  0
LINE
  5
562
100
AcDbEntity
  8
BEZUGSACHSEN
100
AcDbLine
 62
7
  6
CONTINUOUS
 10
515.9422205124
 20
168.8262110716
 11
515.8220724319
 21
168.996717338
  0
LINE
  5
563
100
AcDbEntity
  8
BEZUGSACHSEN
100
AcDbLine
 62
7
  6
CONTINUOUS
 10
515.8220724319
 20
168.996717338
 11
515.6852789897
 21
169.1908412671
  0
LINE
  5
564
100
AcDbEntity
  8
BEZUGSACHSEN
100
AcDbLine
 62
7
  6
CONTINUOUS
 10
515.6852789897
 20
169.1908412671
 11
515.2897650452
 21
169.7520909856
  0
LINE
  5
565
100
AcDbEntity
  8
BEZUGSACHSEN
100
AcDbLine
 62
7
  6
CONTINUOUS
 10
515.2897650452
 20
169.7520909856
 11
515.2815427133
 21
169.7637584101
  0
LINE
  5
566
100
AcDbEntity
  8
BEZUGSACHSEN
100
AcDbLine
 62
7
  6
CONTINUOUS
 10
515.2815427133
 20
169.7637584101
 11
514.8537385902
 21
170.3707884257
  0
LINE
  5
567
100
AcDbEntity
  8
BEZUGSACHSEN
100
AcDbLine
 62
7
  6
CONTINUOUS
 10
514.8537385902
 20
170.3707884257
 11
514.827136687
 21
170.4085337266
  0
LINE
  5
568
100
AcDbEntity
  8
BEZUGSACHSEN
100
AcDbLine
 62
7
  6
CONTINUOUS
 10
514.827136687
 20
170.4085337266
 11
514.4887412596
 21
170.8886684952
  0
LINE
  5
569
100
AcDbEntity
  8
BEZUGSACHSEN
100
AcDbLine
 62
7
  6
CONTINUOUS
 10
516.2821332639
 20
167.2444586778
 11
516.1912696532
 21
167.371951413
  0
LINE
  5
56A
100
AcDbEntity
  8
BEZUGSACHSEN
100
AcDbLine
 62
7
  6
CONTINUOUS
 10
516.1912696532
 20
167.371951413
 11
516.1008775239
 21
167.4987816845
  0
LINE
  5
56B
100
AcDbEntity
  8
BEZUGSACHSEN
100
AcDbLine
 62
7
  6
CONTINUOUS
 10
516.1008775239
 20
167.4987816845
 11
515.586201801
 21
168.2209124619
  0
LINE
  5
56C
100
AcDbEntity
  8
BEZUGSACHSEN
100
AcDbLine
 62
7
  6
CONTINUOUS
 10
515.586201801
 20
168.2209124619
 11
513.3134898577
 21
171.4094117976
  0
LINE
  5
56D
100
AcDbEntity
  8
BEZUGSACHSEN
100
AcDbLine
 62
7
  6
CONTINUOUS
 10
513.1553436824
 20
171.8666691445
 11
513.1374129784
 21
171.9172599597
  0
LINE
  5
56E
100
AcDbEntity
  8
BEZUGSACHSEN
100
AcDbLine
 62
7
  6
CONTINUOUS
 10
512.5075908113
 20
173.2816510078
 11
512.5711642821
 21
173.217798019
  0
LINE
  5
56F
100
AcDbEntity
  8
BEZUGSACHSEN
100
AcDbLine
 62
7
  6
CONTINUOUS
 10
512.7592726948
 20
173.0279906328
 11
513.0540294485
 21
172.662901124
  0
LINE
  5
570
100
AcDbEntity
  8
BEZUGSACHSEN
100
AcDbLine
 62
7
  6
CONTINUOUS
 10
513.0540294485
 20
172.662901124
 11
513.0835727482
 21
172.6232030705
  0
LINE
  5
571
100
AcDbEntity
  8
BEZUGSACHSEN
100
AcDbLine
 62
7
  6
CONTINUOUS
 10
513.0835727482
 20
172.6232030705
 11
513.1334240317
 21
172.5562126459
  0
LINE
  5
572
100
AcDbEntity
  8
BEZUGSACHSEN
100
AcDbLine
 62
7
  6
CONTINUOUS
 10
513.1334240317
 20
172.5562126459
 11
513.2554008269
 21
172.3922779614
  0
LINE
  5
573
100
AcDbEntity
  8
BEZUGSACHSEN
100
AcDbLine
 62
7
  6
CONTINUOUS
 10
513.2554008269
 20
172.3922779614
 11
513.3556210748
 21
172.2575604074
  0
LINE
  5
574
100
AcDbEntity
  8
BEZUGSACHSEN
100
AcDbLine
 62
7
  6
CONTINUOUS
 10
513.3556210748
 20
172.2575604074
 11
513.4555309306
 21
172.1232388133
  0
LINE
  5
575
100
AcDbEntity
  8
BEZUGSACHSEN
100
AcDbLine
 62
7
  6
CONTINUOUS
 10
513.4555309306
 20
172.1232388133
 11
513.657601314
 21
171.8395357608
  0
LINE
  5
576
100
AcDbEntity
  8
BEZUGSACHSEN
100
AcDbLine
 62
7
  6
CONTINUOUS
 10
513.657601314
 20
171.8395357608
 11
513.7758941328
 21
171.6734512292
  0
LINE
  5
577
100
AcDbEntity
  8
BEZUGSACHSEN
100
AcDbLine
 62
7
  6
CONTINUOUS
 10
513.7758941328
 20
171.6734512292
 11
514.7270102164
 21
170.3379691221
  0
LINE
  5
578
100
AcDbEntity
  8
BEZUGSACHSEN
100
AcDbLine
 62
7
  6
CONTINUOUS
 10
515.1733826146
 20
169.6875318047
 11
514.7270102164
 21
170.3379691221
  0
LINE
  5
579
100
AcDbEntity
  8
BEZUGSACHSEN
100
AcDbLine
 62
7
  6
CONTINUOUS
 10
515.5573647507
 20
169.1007019107
 11
515.1733826146
 21
169.6875318047
  0
LINE
  5
57A
100
AcDbEntity
  8
BEZUGSACHSEN
100
AcDbLine
 62
7
  6
CONTINUOUS
 10
515.9851549143
 20
168.4027097828
 11
515.7726884973
 21
168.7497551445
  0
LINE
  5
57B
100
AcDbEntity
  8
BEZUGSACHSEN
100
AcDbLine
 62
7
  6
CONTINUOUS
 10
515.7726884973
 20
168.7497551445
 11
515.5573647507
 21
169.1007019107
  0
LINE
  5
57C
100
AcDbEntity
  8
BEZUGSACHSEN
100
AcDbLine
 62
7
  6
CONTINUOUS
 10
516.556272669
 20
167.2075150758
 11
516.5121924174
 21
167.3289709498
  0
LINE
  5
57D
100
AcDbEntity
  8
BEZUGSACHSEN
100
AcDbLine
 62
7
  6
CONTINUOUS
 10
516.2623532028
 20
166.7161895254
 11
516.0499015381
 21
167.0126900272
  0
LINE
  5
57E
100
AcDbEntity
  8
BEZUGSACHSEN
100
AcDbLine
 62
7
  6
CONTINUOUS
 10
516.0499015381
 20
167.0126900272
 11
516.0189560775
 21
167.0558766123
  0
LINE
  5
57F
100
AcDbEntity
  8
BEZUGSACHSEN
100
AcDbLine
 62
7
  6
CONTINUOUS
 10
516.0189560775
 20
167.0558766123
 11
515.8365684713
 21
167.310404737
  0
LINE
  5
580
100
AcDbEntity
  8
BEZUGSACHSEN
100
AcDbLine
 62
7
  6
CONTINUOUS
 10
516.6375022325
 20
166.1525859204
 11
516.2623532028
 21
166.7161895254
  0
LINE
  5
581
100
AcDbEntity
  8
BEZUGSACHSEN
100
AcDbLine
 62
7
  6
CONTINUOUS
 10
516.9532955661
 20
163.4928884155
 11
517.5021306326
 21
163.0220828817
  0
SPLINE
  5
582
100
AcDbEntity
  8
BEZUGSACHSEN
100
AcDbSpline
 62
7
  6
CONTINUOUS
 70
0
 71
3
 72
8
 73
4
 74
0
 42
0.0000001
 43
0.0000001
 44
0.0000000001
 40
0.0
 40
0.0
 40
0.0
 40
0.0
 40
1.0
 40
1.0
 40
1.0
 40
1.0
 10
517.0691721039
 20
165.4415600516
 30
0.0
 10
516.943806472
 20
165.6485162568
 30
0.0
 10
516.8182590202
 20
165.855362421
 30
0.0
 10
516.6925394672
 20
166.0621038211
 30
0.0
  0
LINE
  5
583
100
AcDbEntity
  8
BEZUGSACHSEN
100
AcDbLine
 62
7
  6
CONTINUOUS
 10
516.6925394672
 20
166.0621038211
 11
516.6375022325
 21
166.1525859204
  0
LINE
  5
584
100
AcDbEntity
  8
BEZUGSACHSEN
100
AcDbLine
 62
7
  6
CONTINUOUS
 10
516.6722559556
 20
164.0206815267
 11
516.3551187569
 21
164.5124203509
  0
LINE
  5
585
100
AcDbEntity
  8
BEZUGSACHSEN
100
AcDbLine
 62
7
  6
CONTINUOUS
 10
516.3551187569
 20
164.5124203509
 11
516.2786365815
 21
164.6308727771
  0
LINE
  5
586
100
AcDbEntity
  8
BEZUGSACHSEN
100
AcDbLine
 62
7
  6
CONTINUOUS
 10
516.2786365815
 20
164.6308727771
 11
516.0260517486
 21
164.9773546755
  0
LINE
  5
587
100
AcDbEntity
  8
BEZUGSACHSEN
100
AcDbLine
 62
7
  6
CONTINUOUS
 10
515.7351269914
 20
165.3208983032
 11
516.0260517486
 21
164.9773546755
  0
LINE
  5
588
100
AcDbEntity
  8
BEZUGSACHSEN
100
AcDbLine
 62
7
  6
CONTINUOUS
 10
515.5512499397
 20
165.489704168
 11
515.7351269914
 21
165.3208983032
  0
LINE
  5
589
100
AcDbEntity
  8
BEZUGSACHSEN
100
AcDbLine
 62
7
  6
CONTINUOUS
 10
519.3742651901
 20
159.4589552491
 11
517.8461898876
 21
161.2622957795
  0
LINE
  5
58A
100
AcDbEntity
  8
BEZUGSACHSEN
100
AcDbLine
 62
7
  6
CONTINUOUS
 10
517.4095699696
 20
161.7775260232
 11
516.3179764131
 21
163.0655860194
  0
LINE
  5
58B
100
AcDbEntity
  8
BEZUGSACHSEN
100
AcDbLine
 62
7
  6
CONTINUOUS
 10
516.3179764131
 20
163.0655860194
 11
516.243424639
 21
163.2781448184
  0
LINE
  5
58C
100
AcDbEntity
  8
BEZUGSACHSEN
100
AcDbLine
 62
7
  6
CONTINUOUS
 10
516.6579808831
 20
165.0894659958
 11
515.4484253571
 21
166.6753497176
  0
LINE
  5
58D
100
AcDbEntity
  8
BEZUGSACHSEN
100
AcDbLine
 62
7
  6
CONTINUOUS
 10
515.4484253571
 20
166.6753497176
 11
515.4370251547
 21
166.6902963945
  0
LINE
  5
58E
100
AcDbEntity
  8
BEZUGSACHSEN
100
AcDbLine
 62
7
  6
CONTINUOUS
 10
515.4370251547
 20
166.6902963945
 11
514.4685015417
 21
167.9600887994
  0
LINE
  5
58F
100
AcDbEntity
  8
BEZUGSACHSEN
100
AcDbLine
 62
7
  6
CONTINUOUS
 10
514.4685015417
 20
167.9600887994
 11
514.1958697413
 21
168.3175160379
  0
LINE
  5
590
100
AcDbEntity
  8
BEZUGSACHSEN
100
AcDbLine
 62
7
  6
CONTINUOUS
 10
516.6579808831
 20
165.0894659958
 11
516.9498346731
 21
164.7475358563
  0
LINE
  5
591
100
AcDbEntity
  8
BEZUGSACHSEN
100
AcDbLine
 62
7
  6
CONTINUOUS
 10
513.3758844301
 20
170.5389742012
 11
513.6516441585
 21
170.1772081161
  0
LINE
  5
592
100
AcDbEntity
  8
BEZUGSACHSEN
100
AcDbLine
 62
7
  6
CONTINUOUS
 10
513.6516441585
 20
170.1772081161
 11
515.8365684713
 21
167.310404737
  0
LINE
  5
593
100
AcDbEntity
  8
BEZUGSACHSEN
100
AcDbLine
 62
7
  6
CONTINUOUS
 10
516.9498346731
 20
164.7475358563
 11
517.1361678836
 21
164.5842351692
  0
SPLINE
  5
594
100
AcDbEntity
  8
0
100
AcDbSpline
 62
7
  6
CONTINUOUS
 70
0
 71
3
 72
11
 73
7
 74
0
 42
0.0000001
 43
0.0000001
 44
0.0000000001
 40
0.0
 40
0.0
 40
0.0
 40
0.0
 40
0.2517094103
 40
0.5000000002
 40
0.7482905901
 40
1.0
 40
1.0
 40
1.0
 40
1.0
 10
505.4243694773
 20
184.4544520682
 30
0.0
 10
505.8591272518
 20
183.8037910776
 30
0.0
 10
506.656733977
 20
182.465001598
 30
0.0
 10
507.595811579
 20
180.3297143157
 30
0.0
 10
508.2489726124
 20
178.0903619137
 30
0.0
 10
508.498527697
 20
176.5520979523
 30
0.0
 10
508.5837207425
 20
175.774205807
 30
0.0
  0
SPLINE
  5
595
100
AcDbEntity
  8
0
100
AcDbSpline
 62
7
  6
CONTINUOUS
 70
0
 71
3
 72
9
 73
5
 74
0
 42
0.0000001
 43
0.0000001
 44
0.0000000001
 40
0.0
 40
0.0
 40
0.0
 40
0.0
 40
0.5000030521
 40
1.0
 40
1.0
 40
1.0
 40
1.0
 10
516.8550097371
 20
153.0490260645
 30
0.0
 10
518.325814575
 20
149.7952265583
 30
0.0
 10
521.1083721284
 20
143.2139778921
 30
0.0
 10
523.5120950178
 20
136.4843983626
 30
0.0
 10
524.6184483366
 20
133.0893800849
 30
0.0
  0
SPLINE
  5
596
100
AcDbEntity
  8
0
100
AcDbSpline
 62
7
  6
CONTINUOUS
 70
0
 71
3
 72
9
 73
5
 74
0
 42
0.0000001
 43
0.0000001
 44
0.0000000001
 40
0.0
 40
0.0
 40
0.0
 40
0.0
 40
0.5000000002
 40
1.0
 40
1.0
 40
1.0
 40
1.0
 10
508.5837207425
 20
175.774205807
 30
0.0
 10
510.3107357685
 20
172.1272234255
 30
0.0
 10
513.4551529891
 20
164.6794207734
 30
0.0
 10
515.8337449142
 20
156.9528805092
 30
0.0
 10
516.8550097371
 20
153.0490260645
 30
0.0
  0
SPLINE
  5
597
100
AcDbEntity
  8
0
100
AcDbSpline
 62
7
  6
CONTINUOUS
 70
0
 71
3
 72
9
 73
5
 74
0
 42
0.0000001
 43
0.0000001
 44
0.0000000001
 40
0.0
 40
0.0
 40
0.0
 40
0.0
 40
0.5000000002
 40
1.0
 40
1.0
 40
1.0
 40
1.0
 10
498.5431471519
 20
172.1197358851
 30
0.0
 10
499.5644119756
 20
168.2158814371
 30
0.0
 10
501.9430039011
 20
160.489341173
 30
0.0
 10
505.0874211219
 20
153.0415385211
 30
0.0
 10
506.8144361465
 20
149.3945561426
 30
0.0
  0
SPLINE
  5
598
100
AcDbEntity
  8
0
100
AcDbSpline
 62
7
  6
CONTINUOUS
 70
0
 71
3
 72
9
 73
5
 74
0
 42
0.0000001
 43
0.0000001
 44
0.0000000001
 40
0.0
 40
0.0
 40
0.0
 40
0.0
 40
0.5000030521
 40
1.0
 40
1.0
 40
1.0
 40
1.0
 10
506.8144361465
 20
149.3945561426
 30
0.0
 10
507.7792362805
 20
145.9565859858
 30
0.0
 10
509.878018628
 20
139.1264634977
 30
0.0
 10
512.3623504057
 20
132.4262232041
 30
0.0
 10
513.6971102773
 20
129.114338113
 30
0.0
  0
LINE
  5
599
100
AcDbEntity
  8
BEZUGSACHSEN
100
AcDbLine
 62
7
  6
CONTINUOUS
 10
515.5198689927
 20
169.0054719205
 11
515.2218426144
 21
169.4737170405
  0
LINE
  5
59A
100
AcDbEntity
  8
BEZUGSACHSEN
100
AcDbLine
 62
7
  6
CONTINUOUS
 10
515.2218426144
 20
169.4737170405
 11
514.8606739874
 21
170.0052959882
  0
LINE
  5
59B
100
AcDbEntity
  8
BEZUGSACHSEN
100
AcDbLine
 62
7
  6
CONTINUOUS
 10
513.5884848918
 20
171.7903073297
 11
514.5447297291
 21
170.4486138694
  0
LINE
  5
59C
100
AcDbEntity
  8
BEZUGSACHSEN
100
AcDbLine
 62
7
  6
CONTINUOUS
 10
514.5447297291
 20
170.4486138694
 11
514.658422028
 21
170.2890875404
  0
LINE
  5
59D
100
AcDbEntity
  8
BEZUGSACHSEN
100
AcDbLine
 62
7
  6
CONTINUOUS
 10
514.658422028
 20
170.2890875404
 11
514.8606739874
 21
170.0052959882
  0
LINE
  5
59E
100
AcDbEntity
  8
BEZUGSACHSEN
100
AcDbLine
 62
7
  6
CONTINUOUS
 10
513.2710087554
 20
172.210681939
 11
513.4301636624
 21
171.9999744014
  0
LINE
  5
59F
100
AcDbEntity
  8
BEZUGSACHSEN
100
AcDbLine
 62
7
  6
CONTINUOUS
 10
513.4301636624
 20
171.9999744014
 11
513.5884848918
 21
171.7903073297
  0
LINE
  5
5A0
100
AcDbEntity
  8
BEZUGSACHSEN
100
AcDbLine
 62
7
  6
CONTINUOUS
 10
513.0597951008
 20
172.4563090627
 11
513.218503235
 21
172.2718067421
  0
LINE
  5
5A1
100
AcDbEntity
  8
BEZUGSACHSEN
100
AcDbLine
 62
7
  6
CONTINUOUS
 10
513.218503235
 20
172.2718067421
 11
513.2710087554
 21
172.210681939
  0
LINE
  5
5A2
100
AcDbEntity
  8
BEZUGSACHSEN
100
AcDbLine
 62
7
  6
CONTINUOUS
 10
513.0335687658
 20
172.4739602485
 11
513.0597951008
 21
172.4563090627
  0
LINE
  5
5A3
100
AcDbEntity
  8
RUNDUNGEN
100
AcDbLine
 62
7
  6
CONTINUOUS
 10
539.8466203359
 20
94.6399692755
 11
541.6072442306
 21
93.6845173081
  0
LINE
  5
5A4
100
AcDbEntity
  8
0
100
AcDbLine
 62
7
  6
CONTINUOUS
 10
526.7464586064
 20
89.8719003419
 11
526.0118951418
 21
88.0082744468
  0
LINE
  5
5A5
100
AcDbEntity
  8
KONSTRUKTIONSELEMENTE
100
AcDbLine
 62
7
  6
CONTINUOUS
 10
512.3334357788
 20
171.5705985548
 11
513.0163943499
 21
170.6119154907
  0
LINE
  5
5A6
100
AcDbEntity
  8
KONSTRUKTIONSELEMENTE
100
AcDbLine
 62
7
  6
CONTINUOUS
 10
513.0163943499
 20
170.6119154907
 11
513.0755040013
 21
170.5289385977
  0
LINE
  5
5A7
100
AcDbEntity
  8
KONSTRUKTIONSELEMENTE
100
AcDbLine
 62
7
  6
CONTINUOUS
 10
513.0755040013
 20
170.5289385977
 11
513.1316731518
 21
170.4500889883
  0
LINE
  5
5A8
100
AcDbEntity
  8
BEZUGSACHSEN
100
AcDbLine
 62
7
  6
CONTINUOUS
 10
516.902211039
 20
166.1896056201
 11
516.8306367371
 21
166.2901201894
  0
LINE
  5
5A9
100
AcDbEntity
  8
BEZUGSACHSEN
100
AcDbLine
 62
7
  6
CONTINUOUS
 10
516.8306367371
 20
166.2901201894
 11
516.4381049667
 21
166.8413449424
  0
LINE
  5
5AA
100
AcDbEntity
  8
BEZUGSACHSEN
100
AcDbLine
 62
7
  6
CONTINUOUS
 10
516.4381049667
 20
166.8413449424
 11
516.3107770449
 21
167.0201410278
  0
LINE
  5
5AB
100
AcDbEntity
  8
BEZUGSACHSEN
100
AcDbLine
 62
7
  6
CONTINUOUS
 10
516.3107770449
 20
167.0201410278
 11
516.2570046174
 21
167.0956480594
  0
LINE
  5
5AC
100
AcDbEntity
  8
BEZUGSACHSEN
100
AcDbLine
 62
7
  6
CONTINUOUS
 10
516.2570046174
 20
167.0956480594
 11
516.1951468681
 21
167.1825076365
  0
LINE
  5
5AD
100
AcDbEntity
  8
BEZUGSACHSEN
100
AcDbLine
 62
7
  6
CONTINUOUS
 10
516.1951468681
 20
167.1825076365
 11
516.0140457975
 21
167.4368015828
  0
LINE
  5
5AE
100
AcDbEntity
  8
BEZUGSACHSEN
100
AcDbLine
 62
7
  6
CONTINUOUS
 10
516.0140457975
 20
167.4368015828
 11
513.6601321879
 21
170.7414666116
  0
LINE
  5
5AF
100
AcDbEntity
  8
BEZUGSACHSEN
100
AcDbLine
 62
7
  6
CONTINUOUS
 10
513.6601321879
 20
170.7414666116
 11
513.227777761
 21
171.3483470557
  0
LINE
  5
5B0
100
AcDbEntity
  8
BEZUGSACHSEN
100
AcDbLine
 62
7
  6
CONTINUOUS
 10
513.227777761
 20
171.3483470557
 11
512.9178821511
 21
171.7833196379
  0
LINE
  5
5B1
100
AcDbEntity
  8
BEZUGSACHSEN
100
AcDbLine
 62
7
  6
CONTINUOUS
 10
518.1143081698
 20
162.0820134524
 11
518.5592765334
 21
161.6958712165
  0
LINE
  5
5B2
100
AcDbEntity
  8
KONSTRUKTIONSELEMENTE
100
AcDbLine
 62
7
  6
CONTINUOUS
 10
517.9703210481
 20
161.4815089506
 11
517.6807065187
 21
161.7327869976
  0
SPLINE
  5
5B3
100
AcDbEntity
  8
0
100
AcDbSpline
 62
7
  6
CONTINUOUS
 70
0
 71
3
 72
11
 73
7
 74
0
 42
0.0000001
 43
0.0000001
 44
0.0000000001
 40
0.0
 40
0.0
 40
0.0
 40
0.0
 40
0.2517094103
 40
0.5000000002
 40
0.7482905901
 40
1.0
 40
1.0
 40
1.0
 40
1.0
 10
495.3837958867
 20
180.7999821462
 30
0.0
 10
495.4689889324
 20
180.0220899994
 30
0.0
 10
495.7185440222
 20
178.4838260377
 30
0.0
 10
496.3717050517
 20
176.2444736335
 30
0.0
 10
497.3107826493
 20
174.1091863504
 30
0.0
 10
498.1083893783
 20
172.7703968744
 30
0.0
 10
498.5431471519
 20
172.1197358851
 30
0.0
  0
LINE
  5
5B4
100
AcDbEntity
  8
KONSTRUKTIONSELEMENTE
100
AcDbLine
 62
7
  6
CONTINUOUS
 10
517.0774289761
 20
163.5966323137
 11
517.0241831446
 21
163.6258646277
  0
LINE
  5
5B5
100
AcDbEntity
  8
KONSTRUKTIONSELEMENTE
100
AcDbLine
 62
7
  6
CONTINUOUS
 10
516.9164546662
 20
163.6847373989
 11
516.8619715578
 21
163.7143776641
  0
LINE
  5
5B6
100
AcDbEntity
  8
KONSTRUKTIONSELEMENTE
100
AcDbLine
 62
7
  6
CONTINUOUS
 10
516.8619715578
 20
163.7143776641
 11
516.8055100043
 21
163.7708539927
  0
LINE
  5
5B7
100
AcDbEntity
  8
BEZUGSACHSEN
100
AcDbLine
 62
7
  6
CONTINUOUS
 10
517.1825204574
 20
164.1952068996
 11
517.4494540246
 21
163.9282037952
  0
LINE
  5
5B8
100
AcDbEntity
  8
BEZUGSACHSEN
100
AcDbLine
 62
7
  6
CONTINUOUS
 10
515.5702710672
 20
164.5711999472
 11
515.5229128876
 21
164.7011149793
  0
LINE
  5
5B9
100
AcDbEntity
  8
BEZUGSACHSEN
100
AcDbLine
 62
7
  6
CONTINUOUS
 10
519.5592182719
 20
158.9182212233
 11
519.2153509161
 21
159.3244216161
  0
LINE
  5
5BA
100
AcDbEntity
  8
BEZUGSACHSEN
100
AcDbLine
 62
7
  6
CONTINUOUS
 10
519.2153509161
 20
159.3244216161
 11
517.6879838372
 21
161.1283211366
  0
LINE
  5
5BB
100
AcDbEntity
  8
BEZUGSACHSEN
100
AcDbLine
 62
7
  6
CONTINUOUS
 10
517.6879838372
 20
161.1283211366
 11
517.2515434728
 21
161.6436930956
  0
LINE
  5
5BC
100
AcDbEntity
  8
BEZUGSACHSEN
100
AcDbLine
 62
7
  6
CONTINUOUS
 10
517.2515434728
 20
161.6436930956
 11
516.1603555493
 21
162.9320856072
  0
LINE
  5
5BD
100
AcDbEntity
  8
BEZUGSACHSEN
100
AcDbLine
 62
7
  6
CONTINUOUS
 10
516.1603555493
 20
162.9320856072
 11
516.1410181378
 21
162.9549161134
  0
SPLINE
  5
5BE
100
AcDbEntity
  8
KONSTRUKTIONSELEMENTE
100
AcDbSpline
 62
7
  6
CONTINUOUS
 70
0
 71
3
 72
8
 73
4
 74
0
 42
0.0000001
 43
0.0000001
 44
0.0000000001
 40
0.0
 40
0.0
 40
0.0
 40
0.0
 40
1.0
 40
1.0
 40
1.0
 40
1.0
 10
515.5496807021
 20
162.7396868884
 30
0.0
 10
516.6891608064
 20
161.3942410125
 30
0.0
 10
517.828497762
 20
160.0486738578
 30
0.0
 10
518.967562131
 20
158.7028759991
 30
0.0
  0
LINE
  5
5BF
100
AcDbEntity
  8
BEZUGSACHSEN
100
AcDbLine
 62
7
  6
CONTINUOUS
 10
516.8108073328
 20
164.6411083524
 11
517.1825204574
 21
164.1952068996
  0
LINE
  5
5C0
100
AcDbEntity
  8
KONSTRUKTIONSELEMENTE
100
AcDbLine
 62
7
  6
CONTINUOUS
 10
513.7623345105
 20
167.6557401962
 11
515.3577341283
 21
165.5627379364
  0
LINE
  5
5C1
100
AcDbEntity
  8
BEZUGSACHSEN
100
AcDbLine
 62
7
  6
CONTINUOUS
 10
516.8108073328
 20
164.6411083524
 11
516.5384932815
 21
164.9983922017
  0
LINE
  5
5C2
100
AcDbEntity
  8
BEZUGSACHSEN
100
AcDbLine
 62
7
  6
CONTINUOUS
 10
516.5384932815
 20
164.9983922017
 11
514.3498290676
 21
167.8695707278
  0
LINE
  5
5C3
100
AcDbEntity
  8
BEZUGSACHSEN
100
AcDbLine
 62
7
  6
CONTINUOUS
 10
515.6768129911
 20
164.9493856607
 11
515.7551752302
 21
164.9558754615
  0
LINE
  5
5C4
100
AcDbEntity
  8
BEZUGSACHSEN
100
AcDbLine
 62
7
  6
CONTINUOUS
 10
515.7551752302
 20
164.9558754615
 11
515.8476716495
 21
164.8714232171
  0
LINE
  5
5C5
100
AcDbEntity
  8
BEZUGSACHSEN
100
AcDbLine
 62
7
  6
CONTINUOUS
 10
515.8476716495
 20
164.8714232171
 11
515.8937596447
 21
164.8293280594
  0
LINE
  5
5C6
100
AcDbEntity
  8
BEZUGSACHSEN
100
AcDbLine
 62
7
  6
CONTINUOUS
 10
515.8937596447
 20
164.8293280594
 11
515.9397408028
 21
164.7873201978
  0
LINE
  5
5C7
100
AcDbEntity
  8
BEZUGSACHSEN
100
AcDbLine
 62
7
  6
CONTINUOUS
 10
515.9397408028
 20
164.7873201978
 11
516.1580519719
 21
164.5297052016
  0
LINE
  5
5C8
100
AcDbEntity
  8
BEZUGSACHSEN
100
AcDbLine
 62
7
  6
CONTINUOUS
 10
516.4101536866
 20
164.1830474626
 11
516.1580519719
 21
164.5297052016
  0
LINE
  5
5C9
100
AcDbEntity
  8
BEZUGSACHSEN
100
AcDbLine
 62
7
  6
CONTINUOUS
 10
516.6230080921
 20
163.8331205872
 11
516.4101536866
 21
164.1830474626
  0
LINE
  5
5CA
100
AcDbEntity
  8
BEZUGSACHSEN
100
AcDbLine
 62
7
  6
CONTINUOUS
 10
513.5465720972
 20
170.0971177496
 11
515.7324321718
 21
167.2309895364
  0
LINE
  5
5CB
100
AcDbEntity
  8
BEZUGSACHSEN
100
AcDbLine
 62
7
  6
CONTINUOUS
 10
515.7324321718
 20
167.2309895364
 11
516.0084864726
 21
166.8689960904
  0
LINE
  5
5CC
100
AcDbEntity
  8
KONSTRUKTIONSELEMENTE
100
AcDbLine
 62
7
  6
CONTINUOUS
 10
514.1703808074
 20
168.2980756678
 11
512.9608366862
 21
169.8839274948
  0
LINE
  5
5CD
100
AcDbEntity
  8
BEZUGSACHSEN
100
AcDbLine
 62
7
  6
CONTINUOUS
 10
516.3544374633
 20
166.378761988
 11
516.0952529574
 21
166.7460533072
  0
LINE
  5
5CE
100
AcDbEntity
  8
BEZUGSACHSEN
100
AcDbLine
 62
7
  6
CONTINUOUS
 10
516.0952529574
 20
166.7460533072
 11
516.0084864726
 21
166.8689960904
  0
LINE
  5
5CF
100
AcDbEntity
  8
BEZUGSACHSEN
100
AcDbLine
 62
7
  6
CONTINUOUS
 10
516.6490072444
 20
165.9188682427
 11
516.3544374633
 21
166.378761988
  0
LINE
  5
5D0
100
AcDbEntity
  8
BEZUGSACHSEN
100
AcDbLine
 62
7
  6
CONTINUOUS
 10
517.189290216
 20
164.7924336884
 11
517.162391527
 21
164.8666408174
  0
LINE
  5
5D1
100
AcDbEntity
  8
BEZUGSACHSEN
100
AcDbLine
 62
7
  6
CONTINUOUS
 10
517.1082604974
 20
165.0149327079
 11
517.0810281653
 21
165.0890174726
  0
LINE
  5
5D2
100
AcDbEntity
  8
BEZUGSACHSEN
100
AcDbLine
 62
7
  6
CONTINUOUS
 10
517.1962153318
 20
164.7442157669
 11
517.189290216
 21
164.7924336884
  0
SPLINE
  5
5D3
100
AcDbEntity
  8
KONSTRUKTIONSELEMENTE
100
AcDbSpline
 62
7
  6
CONTINUOUS
 70
0
 71
3
 72
10
 73
6
 74
0
 42
0.0000001
 43
0.0000001
 44
0.0000000001
 40
0.0
 40
0.0
 40
0.0
 40
0.0
 40
0.4747213266
 40
0.7307096514
 40
1.0
 40
1.0
 40
1.0
 40
1.0
 10
139.4389396691
 20
177.2281772171
 30
0.0
 10
138.4169832127
 20
178.3625789669
 30
0.0
 10
136.5624381107
 20
179.8627823673
 30
0.0
 10
133.7677335482
 20
181.4565635169
 30
0.0
 10
132.2238714848
 20
182.1511188483
 30
0.0
 10
131.4200051835
 20
182.4735491119
 30
0.0
  0
SPLINE
  5
5D4
100
AcDbEntity
  8
KONSTRUKTIONSELEMENTE
100
AcDbSpline
 62
7
  6
CONTINUOUS
 70
0
 71
3
 72
10
 73
6
 74
0
 42
0.0000001
 43
0.0000001
 44
0.0000000001
 40
0.0
 40
0.0
 40
0.0
 40
0.0
 40
0.2692933231
 40
0.5252878171
 40
1.0
 40
1.0
 40
1.0
 40
1.0
 10
99.411590518
 20
182.4766496722
 30
0.0
 10
98.6074469176
 20
182.1543586217
 30
0.0
 10
97.063011393
 20
181.4600746307
 30
0.0
 10
94.2672019824
 20
179.8667695545
 30
0.0
 10
92.4116678494
 20
178.366980282
 30
0.0
 10
91.3890382457
 20
177.2327596513
 30
0.0
  0
SPLINE
  5
5D5
100
AcDbEntity
  8
KONSTRUKTIONSELEMENTE
100
AcDbSpline
 62
7
  6
CONTINUOUS
 70
0
 71
3
 72
9
 73
5
 74
0
 42
0.0000001
 43
0.0000001
 44
0.0000000001
 40
0.0
 40
0.0
 40
0.0
 40
0.0
 40
0.2456349696
 40
1.0
 40
1.0
 40
1.0
 40
1.0
 10
108.1319264283
 20
49.1947714096
 30
0.0
 10
108.1319264283
 20
49.2490043335
 30
0.0
 10
108.1206936031
 20
49.4697411271
 30
0.0
 10
108.0633703534
 20
49.6873734155
 30
0.0
 10
107.9998945559
 20
49.8413570811
 30
0.0
  0
SPLINE
  5
5D6
100
AcDbEntity
  8
KONSTRUKTIONSELEMENTE
100
AcDbSpline
 62
7
  6
CONTINUOUS
 70
0
 71
3
 72
12
 73
8
 74
0
 42
0.0000001
 43
0.0000001
 44
0.0000000001
 40
0.0
 40
0.0
 40
0.0
 40
0.0
 40
0.1823690154
 40
0.2928844387
 40
0.4163124161
 40
0.6952261538
 40
1.0
 40
1.0
 40
1.0
 40
1.0
 10
107.9998945559
 20
49.8413570811
 30
0.0
 10
107.8361978481
 20
50.2384630663
 30
0.0
 10
107.3575895512
 20
50.7838054235
 30
0.0
 10
106.5435636494
 20
51.327687022
 30
0.0
 10
105.4482919826
 20
51.8490714494
 30
0.0
 10
103.827003286
 20
52.2806997316
 30
0.0
 10
102.4497418651
 20
52.3947714096
 30
0.0
 10
101.7319264283
 20
52.3947714096
 30
0.0
  0
SPLINE
  5
5D7
100
AcDbEntity
  8
KONSTRUKTIONSELEMENTE
100
AcDbSpline
 62
7
  6
CONTINUOUS
 70
0
 71
3
 72
12
 73
8
 74
0
 42
0.0000001
 43
0.0000001
 44
0.0000000001
 40
0.0
 40
0.0
 40
0.0
 40
0.0
 40
0.0900615419
 40
0.1856388296
 40
0.4074282657
 40
0.6807923345
 40
1.0
 40
1.0
 40
1.0
 40
1.0
 10
68.4444947777
 20
91.1860184012
 30
0.0
 10
68.4444979032
 20
91.2453341378
 30
0.0
 10
68.4631735285
 20
91.368255075
 30
0.0
 10
68.5773131298
 20
91.6143278716
 30
0.0
 10
68.8637171582
 20
91.8935967701
 30
0.0
 10
69.3426974572
 20
92.1431231565
 30
0.0
 10
69.7201865549
 20
92.2520376596
 30
0.0
 10
69.9260522297
 20
92.2946738368
 30
0.0
  0
SPLINE
  5
5D8
100
AcDbEntity
  8
KONSTRUKTIONSELEMENTE
100
AcDbSpline
 62
7
  6
CONTINUOUS
 70
0
 71
3
 72
13
 73
9
 74
0
 42
0.0000001
 43
0.0000001
 44
0.0000000001
 40
0.0
 40
0.0
 40
0.0
 40
0.0
 40
0.0899872198
 40
0.1854659478
 40
0.2906525884
 40
0.4080231454
 40
0.6811284467
 40
1.0
 40
1.0
 40
1.0
 40
1.0
 10
58.8644297931
 20
104.0000075069
 30
0.0
 10
58.8644491187
 20
104.1977619692
 30
0.0
 10
58.9268501502
 20
104.6075058875
 30
0.0
 10
59.1980677818
 20
105.1933104368
 30
0.0
 10
59.6344773236
 20
105.7459405029
 30
0.0
 10
60.4620662948
 20
106.4618145148
 30
0.0
 10
61.8603980924
 20
107.1917400004
 30
0.0
 10
63.1167775379
 20
107.5533560725
 30
0.0
 10
63.8029626884
 20
107.6954696703
 30
0.0
  0
SPLINE
  5
5D9
100
AcDbEntity
  8
KONSTRUKTIONSELEMENTE
100
AcDbSpline
 62
7
  6
CONTINUOUS
 70
0
 71
3
 72
9
 73
5
 74
0
 42
0.0000001
 43
0.0000001
 44
0.0000000001
 40
0.0
 40
0.0
 40
0.0
 40
0.0
 40
0.475405863
 40
1.0
 40
1.0
 40
1.0
 40
1.0
 10
58.8644301576
 20
99.669824272
 30
0.0
 10
58.8644107798
 20
99.4047017149
 30
0.0
 10
58.98126451
 20
98.8430932653
 30
0.0
 10
59.2867586836
 20
98.3643794119
 30
0.0
 10
59.4733938872
 20
98.1390907919
 30
0.0
  0
SPLINE
  5
5DA
100
AcDbEntity
  8
KONSTRUKTIONSELEMENTE
100
AcDbSpline
 62
7
  6
CONTINUOUS
 70
0
 71
3
 72
13
 73
9
 74
0
 42
0.0000001
 43
0.0000001
 44
0.0000000001
 40
0.0
 40
0.0
 40
0.0
 40
0.0
 40
0.0822829264
 40
0.1731425714
 40
0.2778852515
 40
0.3984458421
 40
0.6815990786
 40
1.0
 40
1.0
 40
1.0
 40
1.0
 10
104.9319264283
 20
38.2875917327
 30
0.0
 10
104.9319264283
 20
38.2080796608
 30
0.0
 10
104.9671263501
 20
38.0395004462
 30
0.0
 10
105.113698843
 20
37.8095009119
 30
0.0
 10
105.3424003687
 20
37.6028641645
 30
0.0
 10
105.7671170524
 20
37.3511644796
 30
0.0
 10
106.4418612977
 20
37.1423491345
 30
0.0
 10
107.0242475689
 20
37.0875917327
 30
0.0
 10
107.3319264283
 20
37.0875917327
 30
0.0
  0
SPLINE
  5
5DB
100
AcDbEntity
  8
KONSTRUKTIONSELEMENTE
100
AcDbSpline
 62
7
  6
CONTINUOUS
 70
0
 71
3
 72
10
 73
6
 74
0
 42
0.0000001
 43
0.0000001
 44
0.0000000001
 40
0.0
 40
0.0
 40
0.0
 40
0.0
 40
0.1847845142
 40
0.5364065081
 40
1.0
 40
1.0
 40
1.0
 40
1.0
 10
155.7454248844
 20
59.5404254429
 30
0.0
 10
155.7454213842
 20
59.5807976857
 30
0.0
 10
155.7055836555
 20
59.6983686012
 30
0.0
 10
155.5213485533
 20
59.8348955546
 30
0.0
 10
155.3507540534
 20
59.8894359035
 30
0.0
 10
155.2515716303
 20
59.9099772559
 30
0.0
  0
SPLINE
  5
5DC
100
AcDbEntity
  8
KONSTRUKTIONSELEMENTE
100
AcDbSpline
 62
7
  6
CONTINUOUS
 70
0
 71
3
 72
13
 73
9
 74
0
 42
0.0000001
 43
0.0000001
 44
0.0000000001
 40
0.0
 40
0.0
 40
0.0
 40
0.0
 40
0.0899880167
 40
0.1854671829
 40
0.2906577933
 40
0.4080313969
 40
0.681147935
 40
1.0
 40
1.0
 40
1.0
 40
1.0
 10
189.05118678
 20
100.4603565332
 30
0.0
 10
189.0511766108
 20
100.6581080341
 30
0.0
 10
188.9887441686
 20
101.0678446525
 30
0.0
 10
188.7174965338
 20
101.6536279472
 30
0.0
 10
188.2810521226
 20
102.2062315309
 30
0.0
 10
187.453417232
 20
102.9220708363
 30
0.0
 10
186.0551241659
 20
103.6519576248
 30
0.0
 10
184.7987883791
 20
104.0135463956
 30
0.0
 10
184.1126615197
 20
104.155647921
 30
0.0
  0
SPLINE
  5
5DD
100
AcDbEntity
  8
KONSTRUKTIONSELEMENTE
100
AcDbSpline
 62
7
  6
CONTINUOUS
 70
0
 71
3
 72
9
 73
5
 74
0
 42
0.0000001
 43
0.0000001
 44
0.0000000001
 40
0.0
 40
0.0
 40
0.0
 40
0.0
 40
0.5246157362
 40
1.0
 40
1.0
 40
1.0
 40
1.0
 10
188.4422303208
 20
94.5992690425
 30
0.0
 10
188.6288979682
 20
94.8245968255
 30
0.0
 10
188.9344497279
 20
95.3033837902
 30
0.0
 10
189.0512004149
 20
95.8650838335
 30
0.0
 10
189.05118678
 20
96.1302295143
 30
0.0
  0
SPLINE
  5
5DE
100
AcDbEntity
  8
KONSTRUKTIONSELEMENTE
100
AcDbSpline
 62
7
  6
CONTINUOUS
 70
0
 71
3
 72
10
 73
6
 74
0
 42
0.0000001
 43
0.0000001
 44
0.0000000001
 40
0.0
 40
0.0
 40
0.0
 40
0.0
 40
0.5553532946
 40
0.8035460669
 40
1.0
 40
1.0
 40
1.0
 40
1.0
 10
186.5550763977
 20
93.3665231167
 30
0.0
 10
186.7549329848
 20
93.3251314623
 30
0.0
 10
187.0613849165
 20
93.3248590811
 30
0.0
 10
187.4136879407
 20
93.4333422734
 30
0.0
 10
187.5542674256
 20
93.5274030103
 30
0.0
 10
187.6003267696
 20
93.5830015568
 30
0.0
  0
SPLINE
  5
5DF
100
AcDbEntity
  8
KONSTRUKTIONSELEMENTE
100
AcDbSpline
 62
7
  6
CONTINUOUS
 70
0
 71
3
 72
9
 73
5
 74
0
 42
0.0000001
 43
0.0000001
 44
0.0000000001
 40
0.0
 40
0.0
 40
0.0
 40
0.0
 40
0.2727103578
 40
1.0
 40
1.0
 40
1.0
 40
1.0
 10
155.6845285104
 20
55.0572250511
 30
0.0
 10
155.6941877405
 20
55.0688847733
 30
0.0
 10
155.7268599908
 20
55.1136763084
 30
0.0
 10
155.7454283852
 20
55.1699189835
 30
0.0
 10
155.7454248844
 20
55.210298424
 30
0.0
  0
SPLINE
  5
5E0
100
AcDbEntity
  8
KONSTRUKTIONSELEMENTE
100
AcDbSpline
 62
7
  6
CONTINUOUS
 70
0
 71
3
 72
11
 73
7
 74
0
 42
0.0000001
 43
0.0000001
 44
0.0000000001
 40
0.0
 40
0.0
 40
0.0
 40
0.0
 40
0.2914079068
 40
0.564315681
 40
0.8033087966
 40
1.0
 40
1.0
 40
1.0
 40
1.0
 10
149.4698078679
 20
52.3947714096
 30
0.0
 10
150.0519718569
 20
52.3947714096
 30
0.0
 10
151.1811120831
 20
52.4756111614
 30
0.0
 10
152.7531514246
 20
52.8345886036
 30
0.0
 10
154.0604902853
 20
53.3977634464
 30
0.0
 10
154.7624066546
 20
53.9441255058
 30
0.0
 10
155.013085063
 20
54.2467211125
 30
0.0
  0
SPLINE
  5
5E1
100
AcDbEntity
  8
KONSTRUKTIONSELEMENTE
100
AcDbSpline
 62
7
  6
CONTINUOUS
 70
0
 71
3
 72
14
 73
10
 74
0
 42
0.0000001
 43
0.0000001
 44
0.0000000001
 40
0.0
 40
0.0
 40
0.0
 40
0.0
 40
0.3182002095
 40
0.4662529345
 40
0.6017813164
 40
0.7222707828
 40
0.8269646072
 40
0.9177479782
 40
1.0
 40
1.0
 40
1.0
 40
1.0
 10
129.0919264283
 20
52.3947714096
 30
0.0
 10
128.2714866468
 20
52.3947714096
 30
0.0
 10
127.0633744909
 20
52.282268991
 30
0.0
 10
125.5600355435
 20
51.8875523802
 30
0.0
 10
124.5902092985
 20
51.4976777134
 30
0.0
 10
123.7865446354
 20
51.0206045203
 30
0.0
 10
123.1766890539
 20
50.4696967538
 30
0.0
 10
122.7856629731
 20
49.8564110211
 30
0.0
 10
122.6919264283
 20
49.4068480481
 30
0.0
 10
122.6919264283
 20
49.1947714096
 30
0.0
  0
SPLINE
  5
5E2
100
AcDbEntity
  8
KONSTRUKTIONSELEMENTE
100
AcDbSpline
 62
7
  6
CONTINUOUS
 70
0
 71
3
 72
13
 73
9
 74
0
 42
0.0000001
 43
0.0000001
 44
0.0000000001
 40
0.0
 40
0.0
 40
0.0
 40
0.0
 40
0.3184009214
 40
0.6015541579
 40
0.7221147485
 40
0.8268574286
 40
0.9177170736
 40
1.0
 40
1.0
 40
1.0
 40
1.0
 10
123.4919264283
 20
37.0875917327
 30
0.0
 10
123.7996052877
 20
37.0875917327
 30
0.0
 10
124.3819915589
 20
37.1423491345
 30
0.0
 10
125.0567358042
 20
37.3511644796
 30
0.0
 10
125.4814524879
 20
37.6028641645
 30
0.0
 10
125.7101540136
 20
37.8095009119
 30
0.0
 10
125.8567265065
 20
38.0395004462
 30
0.0
 10
125.8919264283
 20
38.2080796608
 30
0.0
 10
125.8919264283
 20
38.2875917327
 30
0.0
  0
SPLINE
  5
5E3
100
AcDbEntity
  8
KONSTRUKTIONSELEMENTE
100
AcDbSpline
 62
7
  6
CONTINUOUS
 70
0
 71
3
 72
11
 73
7
 74
0
 42
0.0000001
 43
0.0000001
 44
0.0000000001
 40
0.0
 40
0.0
 40
0.0
 40
0.0
 40
0.3086545928
 40
0.5743393267
 40
0.7999647966
 40
1.0
 40
1.0
 40
1.0
 40
1.0
 10
128.2408024457
 20
52.364909002
 30
0.0
 10
127.8981752097
 20
52.2248318687
 30
0.0
 10
127.2774127981
 20
51.9171418679
 30
0.0
 10
126.5136351174
 20
51.322893169
 30
0.0
 10
126.0147400474
 20
50.6421791585
 30
0.0
 10
125.8919264283
 20
50.1274848496
 30
0.0
 10
125.8919264283
 20
49.8875917327
 30
0.0
  0
SPLINE
  5
5E4
100
AcDbEntity
  8
KONSTRUKTIONSELEMENTE
100
AcDbSpline
 62
7
  6
CONTINUOUS
 70
0
 71
3
 72
11
 73
7
 74
0
 42
0.0000001
 43
0.0000001
 44
0.0000000001
 40
0.0
 40
0.0
 40
0.0
 40
0.0
 40
0.2972949332
 40
0.55817822
 40
0.7882327549
 40
1.0
 40
1.0
 40
1.0
 40
1.0
 10
103.384054217
 20
52.2846842137
 30
0.0
 10
103.6163311046
 20
52.1496380648
 30
0.0
 10
104.0355347752
 20
51.8638925313
 30
0.0
 10
104.5384353288
 20
51.3510767228
 30
0.0
 10
104.85696104
 20
50.7914614569
 30
0.0
 10
104.9319264283
 20
50.3894065442
 30
0.0
 10
104.9319264283
 20
50.1980206856
 30
0.0
  0
SPLINE
  5
5E5
100
AcDbEntity
  8
KONSTRUKTIONSELEMENTE
100
AcDbSpline
 62
7
  6
CONTINUOUS
 70
0
 71
3
 72
9
 73
5
 74
0
 42
0.0000001
 43
0.0000001
 44
0.0000000001
 40
0.0
 40
0.0
 40
0.0
 40
0.0
 40
0.5243915566
 40
1.0
 40
1.0
 40
1.0
 40
1.0
 10
68.6271815894
 20
87.7823119061
 30
0.0
 10
68.5712144196
 20
87.8498702562
 30
0.0
 10
68.4796379885
 20
87.9935080663
 30
0.0
 10
68.4444905851
 20
88.1619638848
 30
0.0
 10
68.4444947777
 20
88.2415320284
 30
0.0
  0
SPLINE
  5
5E6
100
AcDbEntity
  8
KONSTRUKTIONSELEMENTE
100
AcDbSpline
 62
7
  6
CONTINUOUS
 70
0
 71
3
 72
9
 73
5
 74
0
 42
0.0000001
 43
0.0000001
 44
0.0000000001
 40
0.0
 40
0.0
 40
0.0
 40
0.0
 40
0.2385167193
 40
1.0
 40
1.0
 40
1.0
 40
1.0
 10
61.0041276167
 20
96.2913317269
 30
0.0
 10
61.0171413895
 20
96.2756227135
 30
0.0
 10
61.0736470389
 20
96.2113769843
 30
0.0
 10
61.1372905182
 20
96.1535775118
 30
0.0
 10
61.1882138579
 20
96.1129787957
 30
0.0
  0
SPLINE
  5
5E7
100
AcDbEntity
  8
KONSTRUKTIONSELEMENTE
100
AcDbSpline
 62
7
  6
CONTINUOUS
 70
0
 71
3
 72
11
 73
7
 74
0
 42
0.0000001
 43
0.0000001
 44
0.0000000001
 40
0.0
 40
0.0
 40
0.0
 40
0.0
 40
0.207701822
 40
0.4461771263
 40
0.7123292067
 40
1.0
 40
1.0
 40
1.0
 40
1.0
 10
95.544890702
 20
54.6203822301
 30
0.0
 10
95.8049979967
 20
54.3576705087
 30
0.0
 10
96.4407471813
 20
53.868843415
 30
0.0
 10
97.5760623888
 20
53.2937121977
 30
0.0
 10
98.9167727311
 20
52.8432408771
 30
0.0
 10
99.8846837978
 20
52.6440670094
 30
0.0
 10
100.3909182246
 20
52.567231939
 30
0.0
  0
SPLINE
  5
5E8
100
AcDbEntity
  8
KONSTRUKTIONSELEMENTE
100
AcDbSpline
 62
7
  6
CONTINUOUS
 70
0
 71
3
 72
13
 73
9
 74
0
 42
0.0000001
 43
0.0000001
 44
0.0000000001
 40
0.0
 40
0.0
 40
0.0
 40
0.0
 40
0.0914252864
 40
0.196644593
 40
0.3149898918
 40
0.444285101
 40
0.7221394287
 40
1.0
 40
1.0
 40
1.0
 40
1.0
 10
167.1409412134
 20
93.0577533631
 30
0.0
 10
167.356208538
 20
93.3176040105
 30
0.0
 10
167.900561603
 20
93.8098530348
 30
0.0
 10
168.9047187286
 20
94.4054869857
 30
0.0
 10
170.1170441306
 20
94.893114089
 30
0.0
 10
171.9968992901
 20
95.3862891129
 30
0.0
 10
174.5316539904
 20
95.6232703332
 30
0.0
 10
176.5892204573
 20
95.4305194623
 30
0.0
 10
177.5934449324
 20
95.2225377637
 30
0.0
  0
SPLINE
  5
5E9
100
AcDbEntity
  8
KONSTRUKTIONSELEMENTE
100
AcDbSpline
 62
7
  6
CONTINUOUS
 70
0
 71
3
 72
13
 73
9
 74
0
 42
0.0000001
 43
0.0000001
 44
0.0000000001
 40
0.0
 40
0.0
 40
0.0
 40
0.0
 40
0.0899880167
 40
0.1854671829
 40
0.2906577933
 40
0.4080313969
 40
0.681147935
 40
1.0
 40
1.0
 40
1.0
 40
1.0
 10
189.05118678
 20
96.1302295143
 30
0.0
 10
189.0511766108
 20
96.3279810151
 30
0.0
 10
188.9887441686
 20
96.7377176336
 30
0.0
 10
188.7174965338
 20
97.3235009282
 30
0.0
 10
188.2810521226
 20
97.8761045119
 30
0.0
 10
187.453417232
 20
98.5919438174
 30
0.0
 10
186.0551241659
 20
99.3218306059
 30
0.0
 10
184.7987883791
 20
99.6834193767
 30
0.0
 10
184.1126615197
 20
99.825520902
 30
0.0
  0
SPLINE
  5
5EA
100
AcDbEntity
  8
KONSTRUKTIONSELEMENTE
100
AcDbSpline
 62
7
  6
CONTINUOUS
 70
0
 71
3
 72
13
 73
9
 74
0
 42
0.0000001
 43
0.0000001
 44
0.0000000001
 40
0.0
 40
0.0
 40
0.0
 40
0.0
 40
0.3188681384
 40
0.5919714241
 40
0.7093446626
 40
0.8145342349
 40
0.9100138977
 40
1.0
 40
1.0
 40
1.0
 40
1.0
 10
63.8029626884
 20
103.3653426514
 30
0.0
 10
63.1167790861
 20
103.2232293742
 30
0.0
 10
61.8604006284
 20
102.8616131904
 30
0.0
 10
60.4620620654
 20
102.131685987
 30
0.0
 10
59.6344605486
 20
101.41579876
 30
0.0
 10
59.1980468569
 20
100.8631462601
 30
0.0
 10
58.9268287275
 20
100.277327841
 30
0.0
 10
58.8644446114
 20
99.8675779506
 30
0.0
 10
58.8644301576
 20
99.669824272
 30
0.0
  0
SPLINE
  5
5EB
100
AcDbEntity
  8
KONSTRUKTIONSELEMENTE
100
AcDbSpline
 62
7
  6
CONTINUOUS
 70
0
 71
3
 72
12
 73
8
 74
0
 42
0.0000001
 43
0.0000001
 44
0.0000000001
 40
0.0
 40
0.0
 40
0.0
 40
0.0
 40
0.0900615419
 40
0.1856388296
 40
0.4074282657
 40
0.6807923345
 40
1.0
 40
1.0
 40
1.0
 40
1.0
 10
68.4444947777
 20
88.2415320284
 30
0.0
 10
68.4444979032
 20
88.3008477649
 30
0.0
 10
68.4631735285
 20
88.4237687021
 30
0.0
 10
68.5773131298
 20
88.6698414987
 30
0.0
 10
68.8637171582
 20
88.9491103972
 30
0.0
 10
69.3426974572
 20
89.1986367836
 30
0.0
 10
69.7201865549
 20
89.3075512867
 30
0.0
 10
69.9260522297
 20
89.350187464
 30
0.0
  0
SPLINE
  5
5EC
100
AcDbEntity
  8
KONSTRUKTIONSELEMENTE
100
AcDbSpline
 62
7
  6
CONTINUOUS
 70
0
 71
3
 72
10
 73
6
 74
0
 42
0.0000001
 43
0.0000001
 44
0.0000000001
 40
0.0
 40
0.0
 40
0.0
 40
0.0
 40
0.1847845142
 40
0.5364065081
 40
1.0
 40
1.0
 40
1.0
 40
1.0
 10
155.7454248844
 20
55.210298424
 30
0.0
 10
155.7454213842
 20
55.2506706668
 30
0.0
 10
155.7055836555
 20
55.3682415822
 30
0.0
 10
155.5213485533
 20
55.5047685357
 30
0.0
 10
155.3507540534
 20
55.5593088846
 30
0.0
 10
155.2515716303
 20
55.579850237
 30
0.0
  0
SPLINE
  5
5ED
100
AcDbEntity
  8
BEZUGSACHSEN
100
AcDbSpline
 62
7
  6
CONTINUOUS
 70
0
 71
3
 72
15
 73
11
 74
0
 42
0.0000001
 43
0.0000001
 44
0.0000000001
 40
0.0
 40
0.0
 40
0.0
 40
0.0
 40
0.1213984729
 40
0.2449249801
 40
0.3714323559
 40
0.5
 40
0.6285676441
 40
0.7550750199
 40
0.8786015271
 40
1.0
 40
1.0
 40
1.0
 40
1.0
 10
139.4119264283
 20
83.792290496
 30
0.0
 10
139.4119264283
 20
83.4246905628
 30
0.0
 10
139.5717445715
 20
82.6742893897
 30
0.0
 10
140.246003463
 20
81.737478636
 30
0.0
 10
141.2435541866
 20
81.1170016629
 30
0.0
 10
142.4119264283
 20
80.9007374192
 30
0.0
 10
143.58029867
 20
81.1170016629
 30
0.0
 10
144.5778493936
 20
81.737478636
 30
0.0
 10
145.2521082851
 20
82.6742893897
 30
0.0
 10
145.4119264283
 20
83.4246905628
 30
0.0
 10
145.4119264283
 20
83.792290496
 30
0.0
  0
SPLINE
  5
5EE
100
AcDbEntity
  8
0
100
AcDbSpline
 62
7
  6
CONTINUOUS
 70
0
 71
3
 72
9
 73
5
 74
0
 42
0.0000001
 43
0.0000001
 44
0.0000000001
 40
0.0
 40
0.0
 40
0.0
 40
0.0
 40
0.7480023613
 40
1.0
 40
1.0
 40
1.0
 40
1.0
 10
152.9119264283
 20
88.0082744468
 30
0.0
 10
152.9119264283
 20
88.4857783512
 30
0.0
 10
153.0116192901
 20
89.1313674446
 30
0.0
 10
153.2460571468
 20
89.7260144122
 30
0.0
 10
153.313850217
 20
89.8719003419
 30
0.0
  0
SPLINE
  5
5EF
100
AcDbEntity
  8
0
100
AcDbSpline
 62
7
  6
CONTINUOUS
 70
0
 71
3
 72
9
 73
5
 74
0
 42
0.0000001
 43
0.0000001
 44
0.0000000001
 40
0.0
 40
0.0
 40
0.0
 40
0.0
 40
0.5015920257
 40
1.0
 40
1.0
 40
1.0
 40
1.0
 10
133.4189641185
 20
145.2525190606
 30
0.0
 10
134.0517851235
 20
144.0223249938
 30
0.0
 10
135.0378565775
 20
141.4170797998
 30
0.0
 10
135.3947557575
 20
138.6535432819
 30
0.0
 10
135.4107360586
 20
137.279001932
 30
0.0
  0
SPLINE
  5
5F0
100
AcDbEntity
  8
0
100
AcDbSpline
 62
7
  6
CONTINUOUS
 70
0
 71
3
 72
9
 73
5
 74
0
 42
0.0000001
 43
0.0000001
 44
0.0000000001
 40
0.0
 40
0.0
 40
0.0
 40
0.0
 40
0.5015920257
 40
1.0
 40
1.0
 40
1.0
 40
1.0
 10
97.4048887381
 20
145.2525190606
 30
0.0
 10
96.7720677331
 20
144.0223249938
 30
0.0
 10
95.7859962791
 20
141.4170797998
 30
0.0
 10
95.4290970991
 20
138.6535432819
 30
0.0
 10
95.413116798
 20
137.279001932
 30
0.0
  0
SPLINE
  5
5F1
100
AcDbEntity
  8
BEZUGSACHSEN
100
AcDbSpline
 62
7
  6
CONTINUOUS
 70
0
 71
3
 72
11
 73
7
 74
0
 42
0.0000001
 43
0.0000001
 44
0.0000000001
 40
0.0
 40
0.0
 40
0.0
 40
0.0
 40
0.2580160398
 40
0.511039594
 40
0.758355671
 40
1.0
 40
1.0
 40
1.0
 40
1.0
 10
122.9908569648
 20
120.5450708409
 30
0.0
 10
124.173382548
 20
120.9800890383
 30
0.0
 10
126.4451922881
 20
122.0504349044
 30
0.0
 10
129.472698047
 20
124.2180464967
 30
0.0
 10
131.9943439784
 20
126.8485978905
 30
0.0
 10
133.2994706356
 20
128.869040562
 30
0.0
 10
133.8393150863
 20
129.9183702867
 30
0.0
  0
SPLINE
  5
5F2
100
AcDbEntity
  8
BEZUGSACHSEN
100
AcDbSpline
 62
7
  6
CONTINUOUS
 70
0
 71
3
 72
11
 73
7
 74
0
 42
0.0000001
 43
0.0000001
 44
0.0000000001
 40
0.0
 40
0.0
 40
0.0
 40
0.0
 40
0.2416409919
 40
0.4889566582
 40
0.7419824058
 40
1.0
 40
1.0
 40
1.0
 40
1.0
 10
96.9846855338
 20
129.918099362
 30
0.0
 10
97.5246446278
 20
128.8685990418
 30
0.0
 10
98.8300703593
 20
126.8478298929
 30
0.0
 10
101.3523644712
 20
124.2169581258
 30
0.0
 10
104.3806570659
 20
122.0492095424
 30
0.0
 10
106.6530538054
 20
120.9789541954
 30
0.0
 10
107.8358669291
 20
120.5440139121
 30
0.0
  0
SPLINE
  5
5F3
100
AcDbEntity
  8
0
100
AcDbSpline
 62
7
  6
CONTINUOUS
 70
0
 71
3
 72
11
 73
7
 74
0
 42
0.0000001
 43
0.0000001
 44
0.0000000001
 40
0.0
 40
0.0
 40
0.0
 40
0.0
 40
0.2485437453
 40
0.5
 40
0.7514562547
 40
1.0
 40
1.0
 40
1.0
 40
1.0
 10
120.7841578667
 20
97.4375568901
 30
0.0
 10
120.0178575353
 20
97.9925846182
 30
0.0
 10
118.2827219104
 20
98.8630400755
 30
0.0
 10
115.4119264283
 20
99.3052796833
 30
0.0
 10
112.5411309462
 20
98.8630400755
 30
0.0
 10
110.8059953213
 20
97.9925846182
 30
0.0
 10
110.0396949899
 20
97.4375568901
 30
0.0
  0
LINE
  5
5F4
100
AcDbEntity
  8
BEZUGSACHSEN
100
AcDbLine
 62
7
  6
CONTINUOUS
 10
147.5790879855
 20
155.0288976264
 11
147.41689215
 21
154.7031361233
  0
LINE
  5
5F5
100
AcDbEntity
  8
BEZUGSACHSEN
100
AcDbLine
 62
7
  6
CONTINUOUS
 10
147.6815563128
 20
155.4600656216
 11
147.5790879855
 21
155.0288976264
  0
SPLINE
  5
5F6
100
AcDbEntity
  8
0
100
AcDbSpline
 62
7
  6
CONTINUOUS
 70
0
 71
3
 72
11
 73
7
 74
0
 42
0.0000001
 43
0.0000001
 44
0.0000000001
 40
0.0
 40
0.0
 40
0.0
 40
0.0
 40
0.2510804246
 40
0.5030564324
 40
0.7526868647
 40
1.0
 40
1.0
 40
1.0
 40
1.0
 10
106.8352370648
 20
92.2808736801
 30
0.0
 10
106.9381226447
 20
92.7902711627
 30
0.0
 10
107.2224539717
 20
93.7975477445
 30
0.0
 10
107.9073471995
 20
95.2069081405
 30
0.0
 10
108.8481585903
 20
96.4513924353
 30
0.0
 10
109.6251277174
 20
97.1372877631
 30
0.0
 10
110.0396949899
 20
97.4375568901
 30
0.0
  0
SPLINE
  5
5F7
100
AcDbEntity
  8
0
100
AcDbSpline
 62
7
  6
CONTINUOUS
 70
0
 71
3
 72
11
 73
7
 74
0
 42
0.0000001
 43
0.0000001
 44
0.0000000001
 40
0.0
 40
0.0
 40
0.0
 40
0.0
 40
0.247312994
 40
0.4969438304
 40
0.748919926
 40
1.0
 40
1.0
 40
1.0
 40
1.0
 10
120.7841578667
 20
97.4375568901
 30
0.0
 10
121.1987248991
 20
97.1372879371
 30
0.0
 10
121.9756942842
 20
96.4513921284
 30
0.0
 10
122.9165063509
 20
95.2069073956
 30
0.0
 10
123.6013990923
 20
93.7975464355
 30
0.0
 10
123.8857303564
 20
92.7902704475
 30
0.0
 10
123.9886157918
 20
92.2808736801
 30
0.0
  0
LINE
  5
5F8
100
AcDbEntity
  8
BEZUGSACHSEN
100
AcDbLine
 62
7
  6
CONTINUOUS
 10
144.3702052004
 20
155.8000514287
 11
144.408563666
 21
155.4275682728
  0
SPLINE
  5
5F9
100
AcDbEntity
  8
BEZUGSACHSEN
100
AcDbSpline
 62
7
  6
CONTINUOUS
 70
0
 71
3
 72
8
 73
4
 74
0
 42
0.0000001
 43
0.0000001
 44
0.0000000001
 40
0.0
 40
0.0
 40
0.0
 40
0.0
 40
1.0
 40
1.0
 40
1.0
 40
1.0
 10
144.408563666
 20
155.4275682728
 30
0.0
 10
144.5480726269
 20
155.1819303438
 30
0.0
 10
144.6874383954
 20
154.9362110348
 30
0.0
 10
144.8266616914
 20
154.6904110833
 30
0.0
  0
LINE
  5
5FA
100
AcDbEntity
  8
BEZUGSACHSEN
100
AcDbLine
 62
7
  6
CONTINUOUS
 10
144.8266616914
 20
154.6904110833
 11
145.1466737431
 21
154.4310428191
  0
LINE
  5
5FB
100
AcDbEntity
  8
BEZUGSACHSEN
100
AcDbLine
 62
7
  6
CONTINUOUS
 10
145.1466737431
 20
154.4310428191
 11
145.6075125877
 21
154.2284894069
  0
LINE
  5
5FC
100
AcDbEntity
  8
BEZUGSACHSEN
100
AcDbLine
 62
7
  6
CONTINUOUS
 10
145.6075125877
 20
154.2284894069
 11
146.1494508158
 21
154.1885559844
  0
LINE
  5
5FD
100
AcDbEntity
  8
BEZUGSACHSEN
100
AcDbLine
 62
7
  6
CONTINUOUS
 10
146.1494508158
 20
154.1885559844
 11
146.6316587029
 21
154.254307766
  0
LINE
  5
5FE
100
AcDbEntity
  8
BEZUGSACHSEN
100
AcDbLine
 62
7
  6
CONTINUOUS
 10
147.0541390819
 20
154.4258406231
 11
146.6316587029
 21
154.254307766
  0
LINE
  5
5FF
100
AcDbEntity
  8
BEZUGSACHSEN
100
AcDbLine
 62
7
  6
CONTINUOUS
 10
147.41689215
 20
154.7031361233
 11
147.0541390819
 21
154.4258406231
  0
LINE
  5
600
100
AcDbEntity
  8
BEZUGSACHSEN
100
AcDbLine
 62
7
  6
CONTINUOUS
 10
143.7301810478
 20
156.3152302231
 11
143.6063409068
 21
155.6192253779
  0
LINE
  5
601
100
AcDbEntity
  8
BEZUGSACHSEN
100
AcDbLine
 62
7
  6
CONTINUOUS
 10
144.1143030104
 20
156.8581939638
 11
143.7301810478
 21
156.3152302231
  0
LINE
  5
602
100
AcDbEntity
  8
BEZUGSACHSEN
100
AcDbLine
 62
7
  6
CONTINUOUS
 10
144.6989793236
 20
157.3534611671
 11
144.1143030104
 21
156.8581939638
  0
LINE
  5
603
100
AcDbEntity
  8
BEZUGSACHSEN
100
AcDbLine
 62
7
  6
CONTINUOUS
 10
145.6250395636
 20
157.858435269
 11
144.6989793236
 21
157.3534611671
  0
LINE
  5
604
100
AcDbEntity
  8
BEZUGSACHSEN
100
AcDbLine
 62
7
  6
CONTINUOUS
 10
145.6250395636
 20
157.858435269
 11
146.6108271145
 21
158.2587933651
  0
LINE
  5
605
100
AcDbEntity
  8
BEZUGSACHSEN
100
AcDbLine
 62
7
  6
CONTINUOUS
 10
146.6108271145
 20
158.2587933651
 11
147.6563421737
 21
158.5544730595
  0
LINE
  5
606
100
AcDbEntity
  8
BEZUGSACHSEN
100
AcDbLine
 62
7
  6
CONTINUOUS
 10
147.6563421737
 20
158.5544730595
 11
148.4799342836
 21
158.6309453171
  0
LINE
  5
607
100
AcDbEntity
  8
BEZUGSACHSEN
100
AcDbLine
 62
7
  6
CONTINUOUS
 10
148.4799342836
 20
158.6309453171
 11
149.2224267142
 21
158.5451883574
  0
LINE
  5
608
100
AcDbEntity
  8
BEZUGSACHSEN
100
AcDbLine
 62
7
  6
CONTINUOUS
 10
149.2224267142
 20
158.5451883574
 11
149.9435473682
 21
158.1918656267
  0
LINE
  5
609
100
AcDbEntity
  8
BEZUGSACHSEN
100
AcDbLine
 62
7
  6
CONTINUOUS
 10
149.9435473682
 20
158.1918656267
 11
150.3830171703
 21
157.7233249745
  0
LINE
  5
60A
100
AcDbEntity
  8
BEZUGSACHSEN
100
AcDbLine
 62
7
  6
CONTINUOUS
 10
150.3830171703
 20
157.7233249745
 11
150.6219299371
 21
157.302150214
  0
LINE
  5
60B
100
AcDbEntity
  8
BEZUGSACHSEN
100
AcDbLine
 62
7
  6
CONTINUOUS
 10
150.6219299371
 20
157.302150214
 11
150.7797461532
 21
156.7177483284
  0
LINE
  5
60C
100
AcDbEntity
  8
BEZUGSACHSEN
100
AcDbLine
 62
7
  6
CONTINUOUS
 10
149.9134163527
 20
156.1064297975
 11
149.61039099
 21
155.7236304082
  0
LINE
  5
60D
100
AcDbEntity
  8
BEZUGSACHSEN
100
AcDbLine
 62
7
  6
CONTINUOUS
 10
150.01588468
 20
156.5374298536
 11
149.9134163527
 21
156.1064297975
  0
LINE
  5
60E
100
AcDbEntity
  8
BEZUGSACHSEN
100
AcDbLine
 62
7
  6
CONTINUOUS
 10
146.6278138035
 20
157.6208300339
 11
146.8570347605
 21
157.5212734121
  0
LINE
  5
60F
100
AcDbEntity
  8
BEZUGSACHSEN
100
AcDbLine
 62
7
  6
CONTINUOUS
 10
146.8570347605
 20
157.5212734121
 11
146.9020261398
 21
157.5017220919
  0
LINE
  5
610
100
AcDbEntity
  8
BEZUGSACHSEN
100
AcDbLine
 62
7
  6
CONTINUOUS
 10
146.9020261398
 20
157.5017220919
 11
147.5494914928
 21
157.2199899439
  0
LINE
  5
611
100
AcDbEntity
  8
BEZUGSACHSEN
100
AcDbLine
 62
7
  6
CONTINUOUS
 10
147.5494914928
 20
157.2199899439
 11
147.9889612949
 21
156.7515166262
  0
LINE
  5
612
100
AcDbEntity
  8
BEZUGSACHSEN
100
AcDbLine
 62
7
  6
CONTINUOUS
 10
147.9889612949
 20
156.7515166262
 11
148.287604304
 21
156.2249645835
  0
LINE
  5
613
100
AcDbEntity
  8
BEZUGSACHSEN
100
AcDbLine
 62
7
  6
CONTINUOUS
 10
148.287604304
 20
156.2249645835
 11
148.4454177859
 21
155.6403394949
  0
LINE
  5
614
100
AcDbEntity
  8
BEZUGSACHSEN
100
AcDbLine
 62
7
  6
CONTINUOUS
 10
141.7517413835
 20
158.0734124412
 11
146.8327444361
 21
160.9294735904
  0
LINE
  5
615
100
AcDbEntity
  8
BEZUGSACHSEN
100
AcDbLine
 62
7
  6
CONTINUOUS
 10
145.4807451485
 20
161.0006476301
 11
146.5230024002
 21
161.5865336127
  0
SPLINE
  5
616
100
AcDbEntity
  8
BEZUGSACHSEN
100
AcDbSpline
 62
7
  6
CONTINUOUS
 70
0
 71
3
 72
8
 73
4
 74
0
 42
0.0000001
 43
0.0000001
 44
0.0000000001
 40
0.0
 40
0.0
 40
0.0
 40
0.0
 40
1.0
 40
1.0
 40
1.0
 40
1.0
 10
146.5230024002
 20
161.5865336127
 30
0.0
 10
146.9736800418
 20
161.563015984
 30
0.0
 10
147.4243461332
 20
161.5392761255
 30
0.0
 10
147.8750013229
 20
161.5153321162
 30
0.0
  0
LINE
  5
617
100
AcDbEntity
  8
BEZUGSACHSEN
100
AcDbLine
 62
7
  6
CONTINUOUS
 10
147.8750013229
 20
161.5153321162
 11
148.3150254697
 21
160.9302621559
  0
SPLINE
  5
618
100
AcDbEntity
  8
0
100
AcDbSpline
 62
7
  6
CONTINUOUS
 70
0
 71
3
 72
9
 73
5
 74
0
 42
0.0000001
 43
0.0000001
 44
0.0000000001
 40
0.0
 40
0.0
 40
0.0
 40
0.0
 40
0.2519976387
 40
1.0
 40
1.0
 40
1.0
 40
1.0
 10
77.5100026397
 20
89.8719003419
 30
0.0
 10
77.5777957098
 20
89.7260144122
 30
0.0
 10
77.8122335665
 20
89.1313674446
 30
0.0
 10
77.9119264283
 20
88.4857783512
 30
0.0
 10
77.9119264283
 20
88.0082744468
 30
0.0
  0
SPLINE
  5
619
100
AcDbEntity
  8
BEZUGSACHSEN
100
AcDbSpline
 62
7
  6
CONTINUOUS
 70
0
 71
3
 72
8
 73
4
 74
0
 42
0.0000001
 43
0.0000001
 44
0.0000000001
 40
0.0
 40
0.0
 40
0.0
 40
0.0
 40
1.0
 40
1.0
 40
1.0
 40
1.0
 10
89.3096905988
 20
163.4928884155
 30
0.0
 10
90.4793282004
 20
163.1017418157
 30
0.0
 10
91.6487771428
 20
162.7100302385
 30
0.0
 10
92.8179657509
 20
162.317543576
 30
0.0
  0
LINE
  5
61A
100
AcDbEntity
  8
BEZUGSACHSEN
100
AcDbLine
 62
7
  6
CONTINUOUS
 10
89.4065163153
 20
164.0206815267
 11
89.1800068651
 21
164.6308727771
  0
LINE
  5
61B
100
AcDbEntity
  8
BEZUGSACHSEN
100
AcDbLine
 62
7
  6
CONTINUOUS
 10
89.1800068651
 20
164.6308727771
 11
88.9050844364
 21
164.9773546755
  0
LINE
  5
61C
100
AcDbEntity
  8
BEZUGSACHSEN
100
AcDbLine
 62
7
  6
CONTINUOUS
 10
88.4264780249
 20
165.3208983032
 11
88.9050844364
 21
164.9773546755
  0
LINE
  5
61D
100
AcDbEntity
  8
BEZUGSACHSEN
100
AcDbLine
 62
7
  6
CONTINUOUS
 10
87.9834913392
 20
165.489704168
 11
88.4264780249
 21
165.3208983032
  0
LINE
  5
61E
100
AcDbEntity
  8
BEZUGSACHSEN
100
AcDbLine
 62
7
  6
CONTINUOUS
 10
87.2527886368
 20
165.5664461579
 11
87.9834913392
 21
165.489704168
  0
LINE
  5
61F
100
AcDbEntity
  8
BEZUGSACHSEN
100
AcDbLine
 62
7
  6
CONTINUOUS
 10
86.557705325
 20
165.4678544823
 11
87.2527886368
 21
165.5664461579
  0
LINE
  5
620
100
AcDbEntity
  8
BEZUGSACHSEN
100
AcDbLine
 62
7
  6
CONTINUOUS
 10
86.0178926823
 20
165.1076832332
 11
86.557705325
 21
165.4678544823
  0
LINE
  5
621
100
AcDbEntity
  8
BEZUGSACHSEN
100
AcDbLine
 62
7
  6
CONTINUOUS
 10
133.6805402757
 20
167.4663259936
 11
133.5068318242
 21
166.8964899805
  0
LINE
  5
622
100
AcDbEntity
  8
BEZUGSACHSEN
100
AcDbLine
 62
7
  6
CONTINUOUS
 10
90.1289349927
 20
159.4589552491
 11
87.616252757
 21
161.2622957795
  0
LINE
  5
623
100
AcDbEntity
  8
BEZUGSACHSEN
100
AcDbLine
 62
7
  6
CONTINUOUS
 10
134.0511222402
 20
168.0735766142
 11
133.6805402757
 21
167.4663259936
  0
LINE
  5
624
100
AcDbEntity
  8
BEZUGSACHSEN
100
AcDbLine
 62
7
  6
CONTINUOUS
 10
134.0511222402
 20
168.0735766142
 11
135.4697495254
 21
169.6854072451
  0
LINE
  5
625
100
AcDbEntity
  8
BEZUGSACHSEN
100
AcDbLine
 62
7
  6
CONTINUOUS
 10
135.4697495254
 20
169.6854072451
 11
136.044919261
 21
170.1526316169
  0
LINE
  5
626
100
AcDbEntity
  8
BEZUGSACHSEN
100
AcDbLine
 62
7
  6
CONTINUOUS
 10
86.8983436426
 20
161.7775260232
 11
85.1035705213
 21
163.0655860194
  0
LINE
  5
627
100
AcDbEntity
  8
BEZUGSACHSEN
100
AcDbLine
 62
7
  6
CONTINUOUS
 10
136.044919261
 20
170.1526316169
 11
136.6278120238
 21
170.4422184913
  0
LINE
  5
628
100
AcDbEntity
  8
BEZUGSACHSEN
100
AcDbLine
 62
7
  6
CONTINUOUS
 10
136.6278120238
 20
170.4422184913
 11
137.4152922928
 21
170.5911269788
  0
LINE
  5
629
100
AcDbEntity
  8
BEZUGSACHSEN
100
AcDbLine
 62
7
  6
CONTINUOUS
 10
137.4152922928
 20
170.5911269788
 11
138.0136246161
 21
170.5245718025
  0
LINE
  5
62A
100
AcDbEntity
  8
BEZUGSACHSEN
100
AcDbLine
 62
7
  6
CONTINUOUS
 10
88.4949555275
 20
163.4797035412
 11
88.6274006345
 21
163.8331205872
  0
LINE
  5
62B
100
AcDbEntity
  8
BEZUGSACHSEN
100
AcDbLine
 62
7
  6
CONTINUOUS
 10
138.0136246161
 20
170.5245718025
 11
138.6196778903
 21
170.279451862
  0
LINE
  5
62C
100
AcDbEntity
  8
BEZUGSACHSEN
100
AcDbLine
 62
7
  6
CONTINUOUS
 10
92.4915001054
 20
170.5389742012
 11
95.5658578185
 21
167.310404737
  0
LINE
  5
62D
100
AcDbEntity
  8
BEZUGSACHSEN
100
AcDbLine
 62
7
  6
CONTINUOUS
 10
139.5403357159
 20
169.6427350881
 11
139.9572340204
 21
169.1803920864
  0
LINE
  5
62E
100
AcDbEntity
  8
BEZUGSACHSEN
100
AcDbLine
 62
7
  6
CONTINUOUS
 10
139.9572340204
 20
169.1803920864
 11
140.177268111
 21
168.6809708594
  0
SPLINE
  5
62F
100
AcDbEntity
  8
BEZUGSACHSEN
100
AcDbSpline
 62
7
  6
CONTINUOUS
 70
0
 71
3
 72
8
 73
4
 74
0
 42
0.0000001
 43
0.0000001
 44
0.0000000001
 40
0.0
 40
0.0
 40
0.0
 40
0.0
 40
1.0
 40
1.0
 40
1.0
 40
1.0
 10
91.894505857
 20
170.0971177496
 30
0.0
 10
92.0934070966
 20
170.2445339888
 30
0.0
 10
92.2924052631
 20
170.3918195394
 30
0.0
 10
92.4915001054
 20
170.5389742012
 30
0.0
  0
LINE
  5
630
100
AcDbEntity
  8
BEZUGSACHSEN
100
AcDbLine
 62
7
  6
CONTINUOUS
 10
140.177268111
 20
168.6809708594
 11
140.2081472318
 21
167.9660851662
  0
LINE
  5
631
100
AcDbEntity
  8
BEZUGSACHSEN
100
AcDbLine
 62
7
  6
CONTINUOUS
 10
95.2644247353
 20
165.4890779951
 11
95.364576158
 21
165.9188682427
  0
LINE
  5
632
100
AcDbEntity
  8
BEZUGSACHSEN
100
AcDbLine
 62
7
  6
CONTINUOUS
 10
94.965601196
 20
165.0890174726
 11
95.2644247353
 21
165.4890779951
  0
LINE
  5
633
100
AcDbEntity
  8
BEZUGSACHSEN
100
AcDbLine
 62
7
  6
CONTINUOUS
 10
94.5676048406
 20
164.7924336884
 11
94.965601196
 21
165.0890174726
  0
LINE
  5
634
100
AcDbEntity
  8
BEZUGSACHSEN
100
AcDbLine
 62
7
  6
CONTINUOUS
 10
94.0704362385
 20
164.5993255541
 11
94.5676048406
 21
164.7924336884
  0
LINE
  5
635
100
AcDbEntity
  8
BEZUGSACHSEN
100
AcDbLine
 62
7
  6
CONTINUOUS
 10
139.4052250611
 20
168.1787279168
 11
139.2237931186
 21
167.7852575204
  0
LINE
  5
636
100
AcDbEntity
  8
BEZUGSACHSEN
100
AcDbLine
 62
7
  6
CONTINUOUS
 10
93.5735934129
 20
164.5842351692
 11
94.0704362385
 21
164.5993255541
  0
LINE
  5
637
100
AcDbEntity
  8
BEZUGSACHSEN
100
AcDbLine
 62
7
  6
CONTINUOUS
 10
93.0770765025
 20
164.7475358563
 11
93.5735934129
 21
164.5842351692
  0
LINE
  5
638
100
AcDbEntity
  8
BEZUGSACHSEN
100
AcDbLine
 62
7
  6
CONTINUOUS
 10
92.5808865766
 20
165.0894659958
 11
93.0770765025
 21
164.7475358563
  0
LINE
  5
639
100
AcDbEntity
  8
BEZUGSACHSEN
100
AcDbLine
 62
7
  6
CONTINUOUS
 10
92.5808865766
 20
165.0894659958
 11
89.5065288634
 21
168.3175160379
  0
SPLINE
  5
63A
100
AcDbEntity
  8
BEZUGSACHSEN
100
AcDbSpline
 62
7
  6
CONTINUOUS
 70
0
 71
3
 72
8
 73
4
 74
0
 42
0.0000001
 43
0.0000001
 44
0.0000000001
 40
0.0
 40
0.0
 40
0.0
 40
0.0
 40
1.0
 40
1.0
 40
1.0
 40
1.0
 10
88.9095343304
 20
167.8695707278
 30
0.0
 10
89.1084353197
 20
168.0190152702
 30
0.0
 10
89.3074334018
 20
168.1683306768
 30
0.0
 10
89.5065288634
 20
168.3175160379
 30
0.0
  0
LINE
  5
63B
100
AcDbEntity
  8
BEZUGSACHSEN
100
AcDbLine
 62
7
  6
CONTINUOUS
 10
96.1599161079
 20
166.1525859204
 11
95.9622226674
 21
166.7161895254
  0
LINE
  5
63C
100
AcDbEntity
  8
BEZUGSACHSEN
100
AcDbLine
 62
7
  6
CONTINUOUS
 10
95.9622226674
 20
166.7161895254
 11
95.5658578185
 21
167.310404737
  0
LINE
  5
63D
100
AcDbEntity
  8
BEZUGSACHSEN
100
AcDbLine
 62
7
  6
CONTINUOUS
 10
99.145513322
 20
173.0279906328
 11
99.4119263614
 21
172.8425077076
  0
LINE
  5
63E
100
AcDbEntity
  8
BEZUGSACHSEN
100
AcDbLine
 62
7
  6
CONTINUOUS
 10
98.3970190563
 20
173.2816510078
 11
99.145513322
 21
173.0279906328
  0
LINE
  5
63F
100
AcDbEntity
  8
BEZUGSACHSEN
100
AcDbLine
 62
7
  6
CONTINUOUS
 10
97.798597121
 20
173.2967241529
 11
98.3970190563
 21
173.2816510078
  0
LINE
  5
640
100
AcDbEntity
  8
BEZUGSACHSEN
100
AcDbLine
 62
7
  6
CONTINUOUS
 10
134.3097517198
 20
166.6903684402
 11
134.4274873084
 21
166.2644627747
  0
LINE
  5
641
100
AcDbEntity
  8
BEZUGSACHSEN
100
AcDbLine
 62
7
  6
CONTINUOUS
 10
134.4274873084
 20
166.2644627747
 11
134.7420965425
 21
165.8750892107
  0
LINE
  5
642
100
AcDbEntity
  8
BEZUGSACHSEN
100
AcDbLine
 62
7
  6
CONTINUOUS
 10
97.1631229874
 20
173.1362962742
 11
97.798597121
 21
173.2967241529
  0
LINE
  5
643
100
AcDbEntity
  8
BEZUGSACHSEN
100
AcDbLine
 62
7
  6
CONTINUOUS
 10
135.6627543681
 20
165.2383481839
 11
136.1665092066
 21
165.0617300944
  0
LINE
  5
644
100
AcDbEntity
  8
BEZUGSACHSEN
100
AcDbLine
 62
7
  6
CONTINUOUS
 10
136.1665092066
 20
165.0617300944
 11
136.6625455017
 21
165.0631459556
  0
LINE
  5
645
100
AcDbEntity
  8
BEZUGSACHSEN
100
AcDbLine
 62
7
  6
CONTINUOUS
 10
136.6625455017
 20
165.0631459556
 11
137.0485646853
 21
165.3142322305
  0
LINE
  5
646
100
AcDbEntity
  8
BEZUGSACHSEN
100
AcDbLine
 62
7
  6
CONTINUOUS
 10
137.8051659659
 20
166.1737267893
 11
137.0485646853
 21
165.3142322305
  0
LINE
  5
647
100
AcDbEntity
  8
BEZUGSACHSEN
100
AcDbLine
 62
7
  6
CONTINUOUS
 10
137.4519590014
 20
167.4577307491
 11
136.8845081403
 21
166.8131905143
  0
LINE
  5
648
100
AcDbEntity
  8
BEZUGSACHSEN
100
AcDbLine
 62
7
  6
CONTINUOUS
 10
98.2220309796
 20
167.2444586778
 11
95.5957648315
 21
171.4094117976
  0
LINE
  5
649
100
AcDbEntity
  8
BEZUGSACHSEN
100
AcDbLine
 62
7
  6
CONTINUOUS
 10
132.0478880902
 20
170.814904318
 11
132.4603513425
 21
170.7795550268
  0
LINE
  5
64A
100
AcDbEntity
  8
BEZUGSACHSEN
100
AcDbLine
 62
7
  6
CONTINUOUS
 10
134.0757681763
 20
172.3412013081
 11
134.1402393948
 21
171.6970856442
  0
LINE
  5
64B
100
AcDbEntity
  8
BEZUGSACHSEN
100
AcDbLine
 62
7
  6
CONTINUOUS
 10
132.4603513425
 20
170.7795550268
 11
132.8281238478
 21
170.9179313047
  0
LINE
  5
64C
100
AcDbEntity
  8
BEZUGSACHSEN
100
AcDbLine
 62
7
  6
CONTINUOUS
 10
133.8274093973
 20
172.915766385
 11
134.0757681763
 21
172.3412013081
  0
LINE
  5
64D
100
AcDbEntity
  8
BEZUGSACHSEN
100
AcDbLine
 62
7
  6
CONTINUOUS
 10
132.8281238478
 20
170.9179313047
 11
133.1512082219
 21
171.2302532671
  0
LINE
  5
64E
100
AcDbEntity
  8
BEZUGSACHSEN
100
AcDbLine
 62
7
  6
CONTINUOUS
 10
133.3600036372
 20
171.5950292725
 11
133.1512082219
 21
171.2302532671
  0
LINE
  5
64F
100
AcDbEntity
  8
BEZUGSACHSEN
100
AcDbLine
 62
7
  6
CONTINUOUS
 10
133.3255672667
 20
173.2988117861
 11
133.8274093973
 21
172.915766385
  0
LINE
  5
650
100
AcDbEntity
  8
BEZUGSACHSEN
100
AcDbLine
 62
7
  6
CONTINUOUS
 10
133.4545097037
 20
172.0122437481
 11
133.3600036372
 21
171.5950292725
  0
SPLINE
  5
651
100
AcDbEntity
  8
BEZUGSACHSEN
100
AcDbSpline
 62
7
  6
CONTINUOUS
 70
0
 71
3
 72
8
 73
4
 74
0
 42
0.0000001
 43
0.0000001
 44
0.0000000001
 40
0.0
 40
0.0
 40
0.0
 40
0.0
 40
1.0
 40
1.0
 40
1.0
 40
1.0
 10
131.411926428
 20
171.1051218532
 30
0.0
 10
131.6239853273
 20
171.0085399002
 30
0.0
 10
131.8359726129
 20
170.9118005557
 30
0.0
 10
132.0478880902
 20
170.814904318
 30
0.0
  0
SPLINE
  5
652
100
AcDbEntity
  8
KONSTRUKTIONSELEMENTE
100
AcDbSpline
 62
7
  6
CONTINUOUS
 70
0
 71
3
 72
11
 73
7
 74
0
 42
0.0000001
 43
0.0000001
 44
0.0000000001
 40
0.0
 40
0.0
 40
0.0
 40
0.0
 40
0.2481455841
 40
0.4935038819
 40
0.7413480469
 40
1.0
 40
1.0
 40
1.0
 40
1.0
 10
135.9452279329
 20
97.260792465
 30
0.0
 10
136.3539413582
 20
97.0537117888
 30
0.0
 10
137.1401418288
 20
96.5837549351
 30
0.0
 10
138.1602812223
 20
95.6517744477
 30
0.0
 10
138.8929899572
 20
94.4440331744
 30
0.0
 10
139.0640383847
 20
93.4981287758
 30
0.0
 10
139.0640383847
 20
93.0205494671
 30
0.0
  0
SPLINE
  5
653
100
AcDbEntity
  8
KONSTRUKTIONSELEMENTE
100
AcDbSpline
 62
7
  6
CONTINUOUS
 70
0
 71
3
 72
11
 73
7
 74
0
 42
0.0000001
 43
0.0000001
 44
0.0000000001
 40
0.0
 40
0.0
 40
0.0
 40
0.0
 40
0.251196471
 40
0.5046096456
 40
0.7556333308
 40
1.0
 40
1.0
 40
1.0
 40
1.0
 10
91.1144572411
 20
75.9902726642
 30
0.0
 10
90.9884687567
 20
76.2475932569
 30
0.0
 10
90.7820344422
 20
76.7892441565
 30
0.0
 10
90.6420720531
 20
77.6460176692
 30
0.0
 10
90.6887627997
 20
78.5055643838
 30
0.0
 10
90.8434300483
 20
79.0543998653
 30
0.0
 10
90.947179063
 20
79.3130890036
 30
0.0
  0
SPLINE
  5
654
100
AcDbEntity
  8
KONSTRUKTIONSELEMENTE
100
AcDbSpline
 62
7
  6
CONTINUOUS
 70
0
 71
3
 72
11
 73
7
 74
0
 42
0.0000001
 43
0.0000001
 44
0.0000000001
 40
0.0
 40
0.0
 40
0.0
 40
0.0
 40
0.2443815649
 40
0.4953998954
 40
0.7488035144
 40
1.0
 40
1.0
 40
1.0
 40
1.0
 10
139.8766737936
 20
79.3130890036
 30
0.0
 10
139.9804291675
 20
79.0543840093
 30
0.0
 10
140.1351013495
 20
78.5055373525
 30
0.0
 10
140.1817771425
 20
77.6459896211
 30
0.0
 10
140.0418164204
 20
76.7892337414
 30
0.0
 10
139.8353841497
 20
76.2475933586
 30
0.0
 10
139.7093956155
 20
75.9902726642
 30
0.0
  0
SPLINE
  5
655
100
AcDbEntity
  8
KONSTRUKTIONSELEMENTE
100
AcDbSpline
 62
7
  6
CONTINUOUS
 70
0
 71
3
 72
11
 73
7
 74
0
 42
0.0000001
 43
0.0000001
 44
0.0000000001
 40
0.0
 40
0.0
 40
0.0
 40
0.0
 40
0.2485437453
 40
0.5
 40
0.7514562547
 40
1.0
 40
1.0
 40
1.0
 40
1.0
 10
120.7841578667
 20
107.6981611898
 30
0.0
 10
120.0178575353
 20
108.253188918
 30
0.0
 10
118.2827219104
 20
109.1236443752
 30
0.0
 10
115.4119264283
 20
109.5658839831
 30
0.0
 10
112.5411309462
 20
109.1236443752
 30
0.0
 10
110.8059953213
 20
108.253188918
 30
0.0
 10
110.0396949899
 20
107.6981611898
 30
0.0
  0
SPLINE
  5
656
100
AcDbEntity
  8
0
100
AcDbSpline
 62
7
  6
CONTINUOUS
 70
0
 71
3
 72
24
 73
20
 74
0
 42
0.0000001
 43
0.0000001
 44
0.0000000001
 40
0.0
 40
0.0
 40
0.0
 40
0.0
 40
0.001886262
 40
0.0058267139
 40
0.0119568877
 40
0.0202970294
 40
0.0308406757
 40
0.0435750315
 40
0.0584838285
 40
0.0755407477
 40
0.1159729978
 40
0.1645967542
 40
0.2210615569
 40
0.2849711565
 40
0.355864932
 40
0.4332405452
 40
0.605185544
 40
0.7959040732
 40
1.0
 40
1.0
 40
1.0
 40
1.0
 10
92.9634548347
 20
53.5977276795
 30
0.0
 10
92.9736807055
 20
53.6022064804
 30
0.0
 10
92.9865444708
 20
53.6399478634
 30
0.0
 10
93.0002506771
 20
53.7054047007
 30
0.0
 10
93.0124012087
 20
53.8158438024
 30
0.0
 10
93.0227523203
 20
53.9626577966
 30
0.0
 10
93.0309231862
 20
54.149961726
 30
0.0
 10
93.03684581
 20
54.3757770274
 30
0.0
 10
93.0404317282
 20
54.6403525172
 30
0.0
 10
93.0421461346
 20
55.0688185032
 30
0.0
 10
93.0374343023
 20
55.6968503545
 30
0.0
 10
93.0227923792
 20
56.5579824357
 30
0.0
 10
92.9988291223
 20
57.5579059049
 30
0.0
 10
92.9657181039
 20
58.6894308322
 30
0.0
 10
92.9237352633
 20
59.9444969324
 30
0.0
 10
92.8538793069
 20
61.8383758977
 30
0.0
 10
92.7465221699
 20
64.4405117817
 30
0.0
 10
92.5944660262
 20
67.7913916415
 30
0.0
 10
92.4808723984
 20
70.1253119775
 30
0.0
 10
92.420519687
 20
71.3317292233
 30
0.0
  0
SPLINE
  5
657
100
AcDbEntity
  8
KONSTRUKTIONSELEMENTE
100
AcDbSpline
 62
7
  6
CONTINUOUS
 70
0
 71
3
 72
10
 73
6
 74
0
 42
0.0000001
 43
0.0000001
 44
0.0000000001
 40
0.0
 40
0.0
 40
0.0
 40
0.0
 40
0.2109293668
 40
0.4546440965
 40
1.0
 40
1.0
 40
1.0
 40
1.0
 10
106.8352370648
 20
103.4579181919
 30
0.0
 10
106.9472364963
 20
103.8198561573
 30
0.0
 10
107.2629149618
 20
104.5782609401
 30
0.0
 10
108.212691681
 20
106.1086247796
 30
0.0
 10
109.2463621321
 20
107.1235539298
 30
0.0
 10
110.0396949899
 20
107.6981611898
 30
0.0
  0
SPLINE
  5
658
100
AcDbEntity
  8
KONSTRUKTIONSELEMENTE
100
AcDbSpline
 62
7
  6
CONTINUOUS
 70
0
 71
3
 72
10
 73
6
 74
0
 42
0.0000001
 43
0.0000001
 44
0.0000000001
 40
0.0
 40
0.0
 40
0.0
 40
0.0
 40
0.5453561705
 40
0.7890709367
 40
1.0
 40
1.0
 40
1.0
 40
1.0
 10
120.7841578667
 20
107.6981611898
 30
0.0
 10
121.5774911091
 20
107.1235536512
 30
0.0
 10
122.6111619944
 20
106.108624072
 30
0.0
 10
123.5609382265
 20
104.5782599447
 30
0.0
 10
123.876616522
 20
103.8198556349
 30
0.0
 10
123.9886157918
 20
103.4579181919
 30
0.0
  0
LINE
  5
659
100
AcDbEntity
  8
KONSTRUKTIONSELEMENTE
100
AcDbLine
 62
7
  6
CONTINUOUS
 10
147.65278883
 20
155.5233993881
 11
147.6431978472
 21
155.6168195616
  0
LINE
  5
65A
100
AcDbEntity
  8
BEZUGSACHSEN
100
AcDbLine
 62
7
  6
CONTINUOUS
 10
147.6431978472
 20
155.833720194
 11
147.6815563128
 21
155.4600656216
  0
SPLINE
  5
65B
100
AcDbEntity
  8
KONSTRUKTIONSELEMENTE
100
AcDbSpline
 62
7
  6
CONTINUOUS
 70
0
 71
3
 72
8
 73
4
 74
0
 42
0.0000001
 43
0.0000001
 44
0.0000000001
 40
0.0
 40
0.0
 40
0.0
 40
0.0
 40
1.0
 40
1.0
 40
1.0
 40
1.0
 10
147.6431978472
 20
155.6168195616
 30
0.0
 10
147.5039622072
 20
155.8626925849
 30
0.0
 10
147.3645964093
 20
156.108491947
 30
0.0
 10
147.2250998217
 20
156.3542170152
 30
0.0
  0
SPLINE
  5
65C
100
AcDbEntity
  8
BEZUGSACHSEN
100
AcDbSpline
 62
7
  6
CONTINUOUS
 70
0
 71
3
 72
8
 73
4
 74
0
 42
0.0000001
 43
0.0000001
 44
0.0000000001
 40
0.0
 40
0.0
 40
0.0
 40
0.0
 40
1.0
 40
1.0
 40
1.0
 40
1.0
 10
147.2250998217
 20
156.5708870448
 30
0.0
 10
147.3645962099
 20
156.3252387542
 30
0.0
 10
147.5039620183
 20
156.0795162658
 30
0.0
 10
147.6431978472
 20
155.833720194
 30
0.0
  0
LINE
  5
65D
100
AcDbEntity
  8
KONSTRUKTIONSELEMENTE
100
AcDbLine
 62
7
  6
CONTINUOUS
 10
147.2250998217
 20
156.3542170152
 11
146.9050877701
 21
156.6125191295
  0
LINE
  5
65E
100
AcDbEntity
  8
BEZUGSACHSEN
100
AcDbLine
 62
7
  6
CONTINUOUS
 10
146.9050877701
 20
156.8290903632
 11
147.2250998217
 21
156.5708870448
  0
LINE
  5
65F
100
AcDbEntity
  8
KONSTRUKTIONSELEMENTE
100
AcDbLine
 62
7
  6
CONTINUOUS
 10
146.9050877701
 20
156.6125191295
 11
146.4442489255
 21
156.8133075003
  0
LINE
  5
660
100
AcDbEntity
  8
BEZUGSACHSEN
100
AcDbLine
 62
7
  6
CONTINUOUS
 10
146.4442489255
 20
157.0297783325
 11
146.9050877701
 21
156.8290903632
  0
LINE
  5
661
100
AcDbEntity
  8
KONSTRUKTIONSELEMENTE
100
AcDbLine
 62
7
  6
CONTINUOUS
 10
146.4442489255
 20
156.8133075003
 11
146.043137589
 21
156.9088533531
  0
LINE
  5
662
100
AcDbEntity
  8
BEZUGSACHSEN
100
AcDbLine
 62
7
  6
CONTINUOUS
 10
146.043137589
 20
157.1252555196
 11
146.4442489255
 21
157.0297783325
  0
LINE
  5
663
100
AcDbEntity
  8
KONSTRUKTIONSELEMENTE
100
AcDbLine
 62
7
  6
CONTINUOUS
 10
146.043137589
 20
156.9088533531
 11
145.5609295046
 21
156.8422070474
  0
LINE
  5
664
100
AcDbEntity
  8
BEZUGSACHSEN
100
AcDbLine
 62
7
  6
CONTINUOUS
 10
145.5609295046
 20
157.058570811
 11
146.043137589
 21
157.1252555196
  0
LINE
  5
665
100
AcDbEntity
  8
KONSTRUKTIONSELEMENTE
100
AcDbLine
 62
7
  6
CONTINUOUS
 10
145.5609295046
 20
156.8422070474
 11
145.1384491257
 21
156.6706747937
  0
LINE
  5
666
100
AcDbEntity
  8
BEZUGSACHSEN
100
AcDbLine
 62
7
  6
CONTINUOUS
 10
145.1384491257
 20
156.8870328273
 11
145.5609295046
 21
157.058570811
  0
LINE
  5
667
100
AcDbEntity
  8
KONSTRUKTIONSELEMENTE
100
AcDbLine
 62
7
  6
CONTINUOUS
 10
144.7756962548
 20
156.3942749059
 11
145.1384491257
 21
156.6706747937
  0
LINE
  5
668
100
AcDbEntity
  8
BEZUGSACHSEN
100
AcDbLine
 62
7
  6
CONTINUOUS
 10
145.1384491257
 20
156.8870328273
 11
144.7756962548
 21
156.610661219
  0
LINE
  5
669
100
AcDbEntity
  8
KONSTRUKTIONSELEMENTE
100
AcDbLine
 62
7
  6
CONTINUOUS
 10
144.4726735277
 20
156.0129015266
 11
144.7756962548
 21
156.3942749059
  0
LINE
  5
66A
100
AcDbEntity
  8
BEZUGSACHSEN
100
AcDbLine
 62
7
  6
CONTINUOUS
 10
144.7756962548
 20
156.610661219
 11
144.4726735277
 21
156.229351805
  0
LINE
  5
66B
100
AcDbEntity
  8
KONSTRUKTIONSELEMENTE
100
AcDbLine
 62
7
  6
CONTINUOUS
 10
144.3857849834
 20
155.6488093146
 11
144.4469602465
 21
155.9051800775
  0
LINE
  5
66C
100
AcDbEntity
  8
KONSTRUKTIONSELEMENTE
100
AcDbLine
 62
7
  6
CONTINUOUS
 10
144.4469602465
 20
155.9051800775
 11
144.4726735277
 21
156.0129015266
  0
LINE
  5
66D
100
AcDbEntity
  8
BEZUGSACHSEN
100
AcDbLine
 62
7
  6
CONTINUOUS
 10
144.4726735277
 20
156.229351805
 11
144.3702052004
 21
155.8000514287
  0
SPLINE
  5
66E
100
AcDbEntity
  8
KONSTRUKTIONSELEMENTE
100
AcDbSpline
 62
7
  6
CONTINUOUS
 70
0
 71
3
 72
9
 73
5
 74
0
 42
0.0000001
 43
0.0000001
 44
0.0000000001
 40
0.0
 40
0.0
 40
0.0
 40
0.0
 40
0.5012266852
 40
1.0
 40
1.0
 40
1.0
 40
1.0
 10
90.947179063
 20
79.3130890036
 30
0.0
 10
91.1983183141
 20
79.9392828679
 30
0.0
 10
91.6092588146
 20
81.2285610809
 30
0.0
 10
91.7598144719
 20
82.5781125274
 30
0.0
 10
91.7598144719
 20
83.2494876251
 30
0.0
  0
LINE
  5
66F
100
AcDbEntity
  8
BEZUGSACHSEN
100
AcDbLine
 62
7
  6
CONTINUOUS
 10
96.9343357781
 20
144.471559615
 11
96.9274338985
 21
144.4558817821
  0
LINE
  5
670
100
AcDbEntity
  8
KONSTRUKTIONSELEMENTE
100
AcDbLine
 62
7
  6
CONTINUOUS
 10
147.4936090812
 20
153.7362083623
 11
148.0782852957
 21
154.234093946
  0
LINE
  5
671
100
AcDbEntity
  8
BEZUGSACHSEN
100
AcDbLine
 62
7
  6
CONTINUOUS
 10
148.0782852957
 20
154.4514008275
 11
147.4936090812
 21
153.9535970364
  0
LINE
  5
672
100
AcDbEntity
  8
KONSTRUKTIONSELEMENTE
100
AcDbLine
 62
7
  6
CONTINUOUS
 10
146.789474919
 20
153.4502412082
 11
147.4936090812
 21
153.7362083623
  0
LINE
  5
673
100
AcDbEntity
  8
BEZUGSACHSEN
100
AcDbLine
 62
7
  6
CONTINUOUS
 10
147.4936090812
 20
153.9535970364
 11
146.789474919
 21
153.6676441228
  0
LINE
  5
674
100
AcDbEntity
  8
KONSTRUKTIONSELEMENTE
100
AcDbLine
 62
7
  6
CONTINUOUS
 10
146.789474919
 20
153.4502412082
 11
145.965883105
 21
153.3762827868
  0
LINE
  5
675
100
AcDbEntity
  8
BEZUGSACHSEN
100
AcDbLine
 62
7
  6
CONTINUOUS
 10
145.965883105
 20
153.5936274711
 11
146.789474919
 21
153.6676441228
  0
LINE
  5
676
100
AcDbEntity
  8
KONSTRUKTIONSELEMENTE
100
AcDbLine
 62
7
  6
CONTINUOUS
 10
145.965883105
 20
153.3762827868
 11
145.223390625
 21
153.4652791552
  0
LINE
  5
677
100
AcDbEntity
  8
BEZUGSACHSEN
100
AcDbLine
 62
7
  6
CONTINUOUS
 10
145.223390625
 20
153.6825233226
 11
145.965883105
 21
153.5936274711
  0
SPLINE
  5
678
100
AcDbEntity
  8
KONSTRUKTIONSELEMENTE
100
AcDbSpline
 62
7
  6
CONTINUOUS
 70
0
 71
3
 72
8
 73
4
 74
0
 42
0.0000001
 43
0.0000001
 44
0.0000000001
 40
0.0
 40
0.0
 40
0.0
 40
0.0
 40
1.0
 40
1.0
 40
1.0
 40
1.0
 10
145.223390625
 20
153.4652791552
 30
0.0
 10
144.9830798716
 20
153.5844947956
 30
0.0
 10
144.7427063512
 20
153.7035840045
 30
0.0
 10
144.5022672
 20
153.8225404742
 30
0.0
  0
SPLINE
  5
679
100
AcDbEntity
  8
BEZUGSACHSEN
100
AcDbSpline
 62
7
  6
CONTINUOUS
 70
0
 71
3
 72
8
 73
4
 74
0
 42
0.0000001
 43
0.0000001
 44
0.0000000001
 40
0.0
 40
0.0
 40
0.0
 40
0.0
 40
1.0
 40
1.0
 40
1.0
 40
1.0
 10
144.5022672
 20
154.0396039478
 30
0.0
 10
144.7427065895
 20
153.9207082574
 30
0.0
 10
144.9830801124
 20
153.8016792824
 30
0.0
 10
145.223390625
 20
153.6825233226
 30
0.0
  0
LINE
  5
67A
100
AcDbEntity
  8
KONSTRUKTIONSELEMENTE
100
AcDbLine
 62
7
  6
CONTINUOUS
 10
144.5022672
 20
153.8225404742
 11
144.0628001197
 21
154.2931369851
  0
LINE
  5
67B
100
AcDbEntity
  8
BEZUGSACHSEN
100
AcDbLine
 62
7
  6
CONTINUOUS
 10
144.0628001197
 20
154.510014954
 11
144.5022672
 21
154.0396039478
  0
LINE
  5
67C
100
AcDbEntity
  8
KONSTRUKTIONSELEMENTE
100
AcDbLine
 62
7
  6
CONTINUOUS
 10
144.0628001197
 20
154.2931369851
 11
143.7641571106
 21
154.8198637212
  0
LINE
  5
67D
100
AcDbEntity
  8
BEZUGSACHSEN
100
AcDbLine
 62
7
  6
CONTINUOUS
 10
143.7641571106
 20
155.0365566164
 11
144.0628001197
 21
154.510014954
  0
LINE
  5
67E
100
AcDbEntity
  8
KONSTRUKTIONSELEMENTE
100
AcDbLine
 62
7
  6
CONTINUOUS
 10
143.7641571106
 20
154.8198637212
 11
143.6063409068
 21
155.4027141819
  0
LINE
  5
67F
100
AcDbEntity
  8
BEZUGSACHSEN
100
AcDbLine
 62
7
  6
CONTINUOUS
 10
143.6063409068
 20
155.6192253779
 11
143.7641571106
 21
155.0365566164
  0
LINE
  5
680
100
AcDbEntity
  8
BEZUGSACHSEN
100
AcDbLine
 62
7
  6
CONTINUOUS
 10
133.8895170785
 20
144.471559615
 11
133.8960008265
 21
144.4568327258
  0
LINE
  5
681
100
AcDbEntity
  8
KONSTRUKTIONSELEMENTE
100
AcDbLine
 62
7
  6
CONTINUOUS
 10
150.6559087833
 20
155.8010021987
 11
150.7797461532
 21
156.5007664514
  0
LINE
  5
682
100
AcDbEntity
  8
BEZUGSACHSEN
100
AcDbLine
 62
7
  6
CONTINUOUS
 10
150.7797461532
 20
156.7177483284
 11
150.6559087833
 21
156.0181413317
  0
LINE
  5
683
100
AcDbEntity
  8
KONSTRUKTIONSELEMENTE
100
AcDbLine
 62
7
  6
CONTINUOUS
 10
150.27178687
 20
155.2549111954
 11
150.6559087833
 21
155.8010021987
  0
LINE
  5
684
100
AcDbEntity
  8
BEZUGSACHSEN
100
AcDbLine
 62
7
  6
CONTINUOUS
 10
150.6559087833
 20
156.0181413317
 11
150.27178687
 21
155.4721512453
  0
LINE
  5
685
100
AcDbEntity
  8
KONSTRUKTIONSELEMENTE
100
AcDbLine
 62
7
  6
CONTINUOUS
 10
149.9090339991
 20
154.977495541
 11
150.27178687
 21
155.2549111954
  0
LINE
  5
686
100
AcDbEntity
  8
BEZUGSACHSEN
100
AcDbLine
 62
7
  6
CONTINUOUS
 10
150.27178687
 20
155.4721512453
 11
149.9090339991
 21
155.1947735439
  0
LINE
  5
687
100
AcDbEntity
  8
KONSTRUKTIONSELEMENTE
100
AcDbLine
 62
7
  6
CONTINUOUS
 10
149.9090339991
 20
154.977495541
 11
149.61039099
 21
155.5065127031
  0
LINE
  5
688
100
AcDbEntity
  8
BEZUGSACHSEN
100
AcDbLine
 62
7
  6
CONTINUOUS
 10
149.61039099
 20
155.7236304082
 11
149.9090339991
 21
155.1947735439
  0
LINE
  5
689
100
AcDbEntity
  8
KONSTRUKTIONSELEMENTE
100
AcDbLine
 62
7
  6
CONTINUOUS
 10
149.9871172784
 20
156.6006958202
 11
149.9775262144
 21
156.6940820833
  0
LINE
  5
68A
100
AcDbEntity
  8
BEZUGSACHSEN
100
AcDbLine
 62
7
  6
CONTINUOUS
 10
149.9775262144
 20
156.9109437039
 11
150.01588468
 21
156.5374298536
  0
LINE
  5
68B
100
AcDbEntity
  8
KONSTRUKTIONSELEMENTE
100
AcDbLine
 62
7
  6
CONTINUOUS
 10
149.9775262144
 20
156.6940820833
 11
149.6191556971
 21
157.3260267144
  0
LINE
  5
68C
100
AcDbEntity
  8
BEZUGSACHSEN
100
AcDbLine
 62
7
  6
CONTINUOUS
 10
149.6191556971
 20
157.5427045825
 11
149.9775262144
 21
156.9109437039
  0
LINE
  5
68D
100
AcDbEntity
  8
KONSTRUKTIONSELEMENTE
100
AcDbLine
 62
7
  6
CONTINUOUS
 10
149.6191556971
 20
157.3260267144
 11
149.2991436455
 21
157.584364215
  0
LINE
  5
68E
100
AcDbEntity
  8
BEZUGSACHSEN
100
AcDbLine
 62
7
  6
CONTINUOUS
 10
149.2991436455
 20
157.8009501551
 11
149.6191556971
 21
157.5427045825
  0
LINE
  5
68F
100
AcDbEntity
  8
KONSTRUKTIONSELEMENTE
100
AcDbLine
 62
7
  6
CONTINUOUS
 10
149.2991436455
 20
157.584364215
 11
148.8383048009
 21
157.7852131883
  0
LINE
  5
690
100
AcDbEntity
  8
BEZUGSACHSEN
100
AcDbLine
 62
7
  6
CONTINUOUS
 10
148.8383048009
 20
158.0017058054
 11
149.2991436455
 21
157.8009501551
  0
LINE
  5
691
100
AcDbEntity
  8
KONSTRUKTIONSELEMENTE
100
AcDbLine
 62
7
  6
CONTINUOUS
 10
148.8383048009
 20
157.7852131883
 11
148.2963666714
 21
157.8236413921
  0
LINE
  5
692
100
AcDbEntity
  8
BEZUGSACHSEN
100
AcDbLine
 62
7
  6
CONTINUOUS
 10
148.2963666714
 20
158.040068824
 11
148.8383048009
 21
158.0017058054
  0
LINE
  5
693
100
AcDbEntity
  8
KONSTRUKTIONSELEMENTE
100
AcDbLine
 62
7
  6
CONTINUOUS
 10
148.2963666714
 20
157.8236413921
 11
147.8141583898
 21
157.7570292416
  0
LINE
  5
694
100
AcDbEntity
  8
BEZUGSACHSEN
100
AcDbLine
 62
7
  6
CONTINUOUS
 10
147.8141583898
 20
157.9734211333
 11
148.2963666714
 21
158.040068824
  0
LINE
  5
695
100
AcDbEntity
  8
KONSTRUKTIONSELEMENTE
100
AcDbLine
 62
7
  6
CONTINUOUS
 10
147.8141583898
 20
157.7570292416
 11
146.9094673895
 21
157.5188403482
  0
LINE
  5
696
100
AcDbEntity
  8
BEZUGSACHSEN
100
AcDbLine
 62
7
  6
CONTINUOUS
 10
146.9094673895
 20
157.7351903669
 11
147.8141583898
 21
157.9734211333
  0
LINE
  5
697
100
AcDbEntity
  8
BEZUGSACHSEN
100
AcDbLine
 62
7
  6
CONTINUOUS
 10
146.6278138035
 20
157.6208300339
 11
146.9094673895
 21
157.7351903669
  0
SPLINE
  5
698
100
AcDbEntity
  8
KONSTRUKTIONSELEMENTE
100
AcDbSpline
 62
7
  6
CONTINUOUS
 70
0
 71
3
 72
9
 73
5
 74
0
 42
0.0000001
 43
0.0000001
 44
0.0000000001
 40
0.0
 40
0.0
 40
0.0
 40
0.0
 40
0.4987756542
 40
1.0
 40
1.0
 40
1.0
 40
1.0
 10
139.0640383847
 20
83.2494876251
 30
0.0
 10
139.0640383847
 20
82.5781093618
 30
0.0
 10
139.2145936478
 20
81.2285576637
 30
0.0
 10
139.6255357084
 20
79.9392799609
 30
0.0
 10
139.8766737936
 20
79.3130890036
 30
0.0
  0
LINE
  5
699
100
AcDbEntity
  8
KONSTRUKTIONSELEMENTE
100
AcDbLine
 62
7
  6
CONTINUOUS
 10
148.3215804161
 20
154.7232337982
 11
148.4454177859
 21
155.4233101668
  0
LINE
  5
69A
100
AcDbEntity
  8
BEZUGSACHSEN
100
AcDbLine
 62
7
  6
CONTINUOUS
 10
148.4454177859
 20
155.6403394949
 11
148.3215804161
 21
154.9404331217
  0
LINE
  5
69B
100
AcDbEntity
  8
KONSTRUKTIONSELEMENTE
100
AcDbLine
 62
7
  6
CONTINUOUS
 10
148.0782852957
 20
154.234093946
 11
148.3215804161
 21
154.7232337982
  0
LINE
  5
69C
100
AcDbEntity
  8
BEZUGSACHSEN
100
AcDbLine
 62
7
  6
CONTINUOUS
 10
148.3215804161
 20
154.9404331217
 11
148.0782852957
 21
154.4514008275
  0
SPLINE
  5
69D
100
AcDbEntity
  8
KONSTRUKTIONSELEMENTE
100
AcDbSpline
 62
7
  6
CONTINUOUS
 70
0
 71
3
 72
8
 73
4
 74
0
 42
0.0000001
 43
0.0000001
 44
0.0000000001
 40
0.0
 40
0.0
 40
0.0
 40
0.0
 40
1.0
 40
1.0
 40
1.0
 40
1.0
 10
142.1917655303
 20
157.2724063744
 30
0.0
 10
142.0452112792
 20
157.4676234091
 30
0.0
 10
141.8985367394
 20
157.6627501986
 30
0.0
 10
141.7517413835
 20
157.8577859969
 30
0.0
  0
SPLINE
  5
69E
100
AcDbEntity
  8
BEZUGSACHSEN
100
AcDbSpline
 62
7
  6
CONTINUOUS
 70
0
 71
3
 72
8
 73
4
 74
0
 42
0.0000001
 43
0.0000001
 44
0.0000000001
 40
0.0
 40
0.0
 40
0.0
 40
0.0
 40
1.0
 40
1.0
 40
1.0
 40
1.0
 10
141.7517413835
 20
158.0734124412
 30
0.0
 10
141.8985364839
 20
157.8784454271
 30
0.0
 10
142.0452110337
 20
157.6833875899
 30
0.0
 10
142.1917655303
 20
157.4882396522
 30
0.0
  0
LINE
  5
69F
100
AcDbEntity
  8
KONSTRUKTIONSELEMENTE
100
AcDbLine
 62
7
  6
CONTINUOUS
 10
146.4822634226
 20
160.7324669328
 11
145.4807451485
 21
160.7851951396
  0
SPLINE
  5
6A0
100
AcDbEntity
  8
BEZUGSACHSEN
100
AcDbSpline
 62
7
  6
CONTINUOUS
 70
0
 71
3
 72
8
 73
4
 74
0
 42
0.0000001
 43
0.0000001
 44
0.0000000001
 40
0.0
 40
0.0
 40
0.0
 40
0.0
 40
1.0
 40
1.0
 40
1.0
 40
1.0
 10
145.4807451485
 20
161.0006476301
 30
0.0
 10
145.9314233057
 20
160.97714679
 30
0.0
 10
146.382089504
 20
160.9534156661
 30
0.0
 10
146.8327444361
 20
160.9294735904
 30
0.0
  0
LINE
  5
6A1
100
AcDbEntity
  8
KONSTRUKTIONSELEMENTE
100
AcDbLine
 62
7
  6
CONTINUOUS
 10
142.1917655303
 20
157.2724063744
 11
148.3150254697
 21
160.7144654323
  0
LINE
  5
6A2
100
AcDbEntity
  8
BEZUGSACHSEN
100
AcDbLine
 62
7
  6
CONTINUOUS
 10
148.3150254697
 20
160.9302621559
 11
142.1917655303
 21
157.4882396522
  0
LINE
  5
6A3
100
AcDbEntity
  8
KONSTRUKTIONSELEMENTE
100
AcDbLine
 62
7
  6
CONTINUOUS
 10
137.5677614255
 20
164.5649480386
 11
137.0871670322
 21
164.2066137491
  0
LINE
  5
6A4
100
AcDbEntity
  8
BEZUGSACHSEN
100
AcDbLine
 62
7
  6
CONTINUOUS
 10
137.0871670322
 20
164.4202793443
 11
137.5677614255
 21
164.7786303505
  0
SPLINE
  5
6A5
100
AcDbEntity
  8
BEZUGSACHSEN
100
AcDbSpline
 62
7
  6
CONTINUOUS
 70
0
 71
3
 72
15
 73
11
 74
0
 42
0.0000001
 43
0.0000001
 44
0.0000000001
 40
0.0
 40
0.0
 40
0.0
 40
0.0
 40
0.1213984729
 40
0.2449249801
 40
0.3714323559
 40
0.5
 40
0.6285676441
 40
0.7550750199
 40
0.8786015271
 40
1.0
 40
1.0
 40
1.0
 40
1.0
 10
145.4119264283
 20
83.792290496
 30
0.0
 10
145.4119264283
 20
84.1598904292
 30
0.0
 10
145.2521082851
 20
84.9102916022
 30
0.0
 10
144.5778493936
 20
85.8471023559
 30
0.0
 10
143.58029867
 20
86.467579329
 30
0.0
 10
142.4119264283
 20
86.6838435727
 30
0.0
 10
141.2435541866
 20
86.467579329
 30
0.0
 10
140.246003463
 20
85.8471023559
 30
0.0
 10
139.5717445715
 20
84.9102916022
 30
0.0
 10
139.4119264283
 20
84.1598904292
 30
0.0
 10
139.4119264283
 20
83.792290496
 30
0.0
  0
SPLINE
  5
6A6
100
AcDbEntity
  8
RUNDUNGEN
100
AcDbSpline
 62
7
  6
CONTINUOUS
 70
0
 71
3
 72
9
 73
5
 74
0
 42
0.0000001
 43
0.0000001
 44
0.0000000001
 40
0.0
 40
0.0
 40
0.0
 40
0.0
 40
0.5283152207
 40
1.0
 40
1.0
 40
1.0
 40
1.0
 10
77.5100026397
 20
94.6399692755
 30
0.0
 10
77.6347535234
 20
94.502336503
 30
0.0
 10
77.8364875881
 20
94.2047637614
 30
0.0
 10
77.9119264283
 20
93.850362658
 30
0.0
 10
77.9119264283
 20
93.6845173081
 30
0.0
  0
LINE
  5
6A7
100
AcDbEntity
  8
KONSTRUKTIONSELEMENTE
100
AcDbLine
 62
7
  6
CONTINUOUS
 10
137.0871670322
 20
164.2066137491
 11
136.2996867301
 21
164.0624357715
  0
LINE
  5
6A8
100
AcDbEntity
  8
BEZUGSACHSEN
100
AcDbLine
 62
7
  6
CONTINUOUS
 10
136.2996867301
 20
164.2760049836
 11
137.0871670322
 21
164.4202793443
  0
LINE
  5
6A9
100
AcDbEntity
  8
KONSTRUKTIONSELEMENTE
100
AcDbLine
 62
7
  6
CONTINUOUS
 10
136.2996867301
 20
164.0624357715
 11
135.7013520406
 21
164.1325607971
  0
SPLINE
  5
6AA
100
AcDbEntity
  8
BEZUGSACHSEN
100
AcDbSpline
 62
7
  6
CONTINUOUS
 70
0
 71
3
 72
8
 73
4
 74
0
 42
0.0000001
 43
0.0000001
 44
0.0000000001
 40
0.0
 40
0.0
 40
0.0
 40
0.0
 40
1.0
 40
1.0
 40
1.0
 40
1.0
 10
89.0448002646
 20
162.7859854756
 30
0.0
 10
90.1065986501
 20
162.4230577602
 30
0.0
 10
91.1682609733
 20
162.0597315447
 30
0.0
 10
92.2297401298
 20
161.6958712165
 30
0.0
  0
SPLINE
  5
6AB
100
AcDbEntity
  8
KONSTRUKTIONSELEMENTE
100
AcDbSpline
 62
7
  6
CONTINUOUS
 70
0
 71
3
 72
8
 73
4
 74
0
 42
0.0000001
 43
0.0000001
 44
0.0000000001
 40
0.0
 40
0.0
 40
0.0
 40
0.0
 40
1.0
 40
1.0
 40
1.0
 40
1.0
 10
92.2297401298
 20
161.4815089506
 30
0.0
 10
91.1682587106
 20
161.845277297
 30
0.0
 10
90.1065965503
 20
162.2085184662
 30
0.0
 10
89.0448002646
 20
162.5713667277
 30
0.0
  0
SPLINE
  5
6AC
100
AcDbEntity
  8
BEZUGSACHSEN
100
AcDbSpline
 62
7
  6
CONTINUOUS
 70
0
 71
3
 72
8
 73
4
 74
0
 42
0.0000001
 43
0.0000001
 44
0.0000000001
 40
0.0
 40
0.0
 40
0.0
 40
0.0
 40
1.0
 40
1.0
 40
1.0
 40
1.0
 10
92.2297401298
 20
161.6958712165
 30
0.0
 10
92.4256461626
 20
161.903255278
 30
0.0
 10
92.6217215039
 20
162.1104795324
 30
0.0
 10
92.8179657509
 20
162.317543576
 30
0.0
  0
SPLINE
  5
6AD
100
AcDbEntity
  8
KONSTRUKTIONSELEMENTE
100
AcDbSpline
 62
7
  6
CONTINUOUS
 70
0
 71
3
 72
8
 73
4
 74
0
 42
0.0000001
 43
0.0000001
 44
0.0000000001
 40
0.0
 40
0.0
 40
0.0
 40
0.0
 40
1.0
 40
1.0
 40
1.0
 40
1.0
 10
92.8179657509
 20
162.1033880088
 30
0.0
 10
92.6217209707
 20
161.8962555175
 30
0.0
 10
92.4256456418
 20
161.6889623504
 30
0.0
 10
92.2297401298
 20
161.4815089506
 30
0.0
  0
LINE
  5
6AE
100
AcDbEntity
  8
BEZUGSACHSEN
100
AcDbLine
 62
7
  6
CONTINUOUS
 10
135.7013520406
 20
164.3460287437
 11
136.2996867301
 21
164.2760049836
  0
LINE
  5
6AF
100
AcDbEntity
  8
BEZUGSACHSEN
100
AcDbLine
 62
7
  6
CONTINUOUS
 10
89.3096905988
 20
163.4928884155
 11
89.4065163153
 21
164.0206815267
  0
LINE
  5
6B0
100
AcDbEntity
  8
KONSTRUKTIONSELEMENTE
100
AcDbLine
 62
7
  6
CONTINUOUS
 10
89.4065163153
 20
163.8063318359
 11
89.3467406274
 21
163.4804991027
  0
SPLINE
  5
6B1
100
AcDbEntity
  8
KONSTRUKTIONSELEMENTE
100
AcDbSpline
 62
7
  6
CONTINUOUS
 70
0
 71
3
 72
8
 73
4
 74
0
 42
0.0000001
 43
0.0000001
 44
0.0000000001
 40
0.0
 40
0.0
 40
0.0
 40
0.0
 40
1.0
 40
1.0
 40
1.0
 40
1.0
 10
135.7013520406
 20
164.1325607971
 30
0.0
 10
135.4993956035
 20
164.2153401237
 30
0.0
 10
135.2973796651
 20
164.2979744389
 30
0.0
 10
135.0953034408
 20
164.3804609164
 30
0.0
  0
SPLINE
  5
6B2
100
AcDbEntity
  8
BEZUGSACHSEN
100
AcDbSpline
 62
7
  6
CONTINUOUS
 70
0
 71
3
 72
8
 73
4
 74
0
 42
0.0000001
 43
0.0000001
 44
0.0000000001
 40
0.0
 40
0.0
 40
0.0
 40
0.0
 40
1.0
 40
1.0
 40
1.0
 40
1.0
 10
135.0953034408
 20
164.5938010491
 30
0.0
 10
135.297379538
 20
164.5113569408
 30
0.0
 10
135.4993954808
 20
164.4287652413
 30
0.0
 10
135.7013520406
 20
164.3460287437
 30
0.0
  0
LINE
  5
6B3
100
AcDbEntity
  8
KONSTRUKTIONSELEMENTE
100
AcDbLine
 62
7
  6
CONTINUOUS
 10
134.1746456152
 20
165.0174306738
 11
133.7577426363
 21
165.4772692958
  0
LINE
  5
6B4
100
AcDbEntity
  8
BEZUGSACHSEN
100
AcDbLine
 62
7
  6
CONTINUOUS
 10
133.7577426363
 20
165.6902661847
 11
134.1746456152
 21
165.2305464472
  0
LINE
  5
6B5
100
AcDbEntity
  8
KONSTRUKTIONSELEMENTE
100
AcDbLine
 62
7
  6
CONTINUOUS
 10
133.7577426363
 20
165.4772692958
 11
133.5377109119
 21
165.9733287855
  0
LINE
  5
6B6
100
AcDbEntity
  8
BEZUGSACHSEN
100
AcDbLine
 62
7
  6
CONTINUOUS
 10
133.5377109119
 20
166.1862355882
 11
133.7577426363
 21
165.6902661847
  0
LINE
  5
6B7
100
AcDbEntity
  8
KONSTRUKTIONSELEMENTE
100
AcDbLine
 62
7
  6
CONTINUOUS
 10
133.5377109119
 20
165.9733287855
 11
133.5068318242
 21
166.6836658972
  0
LINE
  5
6B8
100
AcDbEntity
  8
BEZUGSACHSEN
100
AcDbLine
 62
7
  6
CONTINUOUS
 10
133.5068318242
 20
166.8964899805
 11
133.5377109119
 21
166.1862355882
  0
LINE
  5
6B9
100
AcDbEntity
  8
BEZUGSACHSEN
100
AcDbLine
 62
7
  6
CONTINUOUS
 10
89.6247417406
 20
158.9182212233
 11
84.0011196738
 21
162.9549161134
  0
LINE
  5
6BA
100
AcDbEntity
  8
KONSTRUKTIONSELEMENTE
100
AcDbLine
 62
7
  6
CONTINUOUS
 10
84.0011196738
 20
162.7396868884
 11
89.6247417406
 21
158.7028759991
  0
SPLINE
  5
6BB
100
AcDbEntity
  8
BEZUGSACHSEN
100
AcDbSpline
 62
7
  6
CONTINUOUS
 70
0
 71
3
 72
8
 73
4
 74
0
 42
0.0000001
 43
0.0000001
 44
0.0000000001
 40
0.0
 40
0.0
 40
0.0
 40
0.0
 40
1.0
 40
1.0
 40
1.0
 40
1.0
 10
89.6247417406
 20
158.9182212233
 30
0.0
 10
89.7926820755
 20
159.0985815162
 30
0.0
 10
89.9607462145
 20
159.2788266111
 30
0.0
 10
90.1289349927
 20
159.4589552491
 30
0.0
  0
SPLINE
  5
6BC
100
AcDbEntity
  8
KONSTRUKTIONSELEMENTE
100
AcDbSpline
 62
7
  6
CONTINUOUS
 70
0
 71
3
 72
8
 73
4
 74
0
 42
0.0000001
 43
0.0000001
 44
0.0000000001
 40
0.0
 40
0.0
 40
0.0
 40
0.0
 40
1.0
 40
1.0
 40
1.0
 40
1.0
 10
90.1289349927
 20
159.2438077223
 30
0.0
 10
89.9607459592
 20
159.063613381
 30
0.0
 10
89.7926818306
 20
158.883302377
 30
0.0
 10
89.6247417406
 20
158.7028759991
 30
0.0
  0
LINE
  5
6BD
100
AcDbEntity
  8
BEZUGSACHSEN
100
AcDbLine
 62
7
  6
CONTINUOUS
 10
86.7001824062
 20
164.767645869
 11
87.0719305514
 21
164.9493856607
  0
LINE
  5
6BE
100
AcDbEntity
  8
KONSTRUKTIONSELEMENTE
100
AcDbLine
 62
7
  6
CONTINUOUS
 10
87.0719305514
 20
164.7348848221
 11
86.7001824062
 21
164.5530677985
  0
LINE
  5
6BF
100
AcDbEntity
  8
BEZUGSACHSEN
100
AcDbLine
 62
7
  6
CONTINUOUS
 10
87.0719305514
 20
164.9493856607
 11
87.479298087
 21
164.9558754615
  0
LINE
  5
6C0
100
AcDbEntity
  8
KONSTRUKTIONSELEMENTE
100
AcDbLine
 62
7
  6
CONTINUOUS
 10
87.479298087
 20
164.7414276286
 11
87.0719305514
 21
164.7348848221
  0
LINE
  5
6C1
100
AcDbEntity
  8
BEZUGSACHSEN
100
AcDbLine
 62
7
  6
CONTINUOUS
 10
87.479298087
 20
164.9558754615
 11
87.9222847728
 21
164.7873201978
  0
LINE
  5
6C2
100
AcDbEntity
  8
KONSTRUKTIONSELEMENTE
100
AcDbLine
 62
7
  6
CONTINUOUS
 10
87.9222847728
 20
164.5729016984
 11
87.479298087
 21
164.7414276286
  0
LINE
  5
6C3
100
AcDbEntity
  8
BEZUGSACHSEN
100
AcDbLine
 62
7
  6
CONTINUOUS
 10
87.9222847728
 20
164.7873201978
 11
88.2812396652
 21
164.5297052016
  0
LINE
  5
6C4
100
AcDbEntity
  8
KONSTRUKTIONSELEMENTE
100
AcDbLine
 62
7
  6
CONTINUOUS
 10
88.2812396652
 20
164.315290746
 11
87.9222847728
 21
164.5729016984
  0
LINE
  5
6C5
100
AcDbEntity
  8
BEZUGSACHSEN
100
AcDbLine
 62
7
  6
CONTINUOUS
 10
88.5561620939
 20
164.1830474626
 11
88.2812396652
 21
164.5297052016
  0
LINE
  5
6C6
100
AcDbEntity
  8
KONSTRUKTIONSELEMENTE
100
AcDbLine
 62
7
  6
CONTINUOUS
 10
88.2812396652
 20
164.315290746
 11
88.5561620939
 21
163.9686108229
  0
LINE
  5
6C7
100
AcDbEntity
  8
BEZUGSACHSEN
100
AcDbLine
 62
7
  6
CONTINUOUS
 10
88.6274006345
 20
163.8331205872
 11
88.5561620939
 21
164.1830474626
  0
LINE
  5
6C8
100
AcDbEntity
  8
KONSTRUKTIONSELEMENTE
100
AcDbLine
 62
7
  6
CONTINUOUS
 10
88.5561620939
 20
163.9686108229
 11
88.5991069529
 21
163.7576491845
  0
LINE
  5
6C9
100
AcDbEntity
  8
BEZUGSACHSEN
100
AcDbLine
 62
7
  6
CONTINUOUS
 10
91.894505857
 20
170.0971177496
 11
94.9688635701
 21
166.8689960904
  0
LINE
  5
6CA
100
AcDbEntity
  8
KONSTRUKTIONSELEMENTE
100
AcDbLine
 62
7
  6
CONTINUOUS
 10
94.9688635701
 20
166.6558407141
 11
91.894505857
 21
169.8839274948
  0
LINE
  5
6CB
100
AcDbEntity
  8
BEZUGSACHSEN
100
AcDbLine
 62
7
  6
CONTINUOUS
 10
95.266055603
 20
166.378761988
 11
94.9688635701
 21
166.8689960904
  0
LINE
  5
6CC
100
AcDbEntity
  8
KONSTRUKTIONSELEMENTE
100
AcDbLine
 62
7
  6
CONTINUOUS
 10
94.9688635701
 20
166.6558407141
 11
95.266055603
 21
166.1655886564
  0
LINE
  5
6CD
100
AcDbEntity
  8
BEZUGSACHSEN
100
AcDbLine
 62
7
  6
CONTINUOUS
 10
95.364576158
 20
165.9188682427
 11
95.266055603
 21
166.378761988
  0
LINE
  5
6CE
100
AcDbEntity
  8
KONSTRUKTIONSELEMENTE
100
AcDbLine
 62
7
  6
CONTINUOUS
 10
95.266055603
 20
166.1655886564
 11
95.3400664261
 21
165.820086395
  0
LINE
  5
6CF
100
AcDbEntity
  8
KONSTRUKTIONSELEMENTE
100
AcDbLine
 62
7
  6
CONTINUOUS
 10
139.8375650024
 20
167.1438395261
 11
140.2081472318
 21
167.7524838547
  0
LINE
  5
6D0
100
AcDbEntity
  8
BEZUGSACHSEN
100
AcDbLine
 62
7
  6
CONTINUOUS
 10
140.2081472318
 20
167.9660851662
 11
139.8375650024
 21
167.35747224
  0
SPLINE
  5
6D1
100
AcDbEntity
  8
KONSTRUKTIONSELEMENTE
100
AcDbSpline
 62
7
  6
CONTINUOUS
 70
0
 71
3
 72
8
 73
4
 74
0
 42
0.0000001
 43
0.0000001
 44
0.0000000001
 40
0.0
 40
0.0
 40
0.0
 40
0.0
 40
1.0
 40
1.0
 40
1.0
 40
1.0
 10
139.8375650024
 20
167.1438395261
 30
0.0
 10
139.6330742601
 20
167.2866230607
 30
0.0
 10
139.4284837404
 20
167.4292638045
 30
0.0
 10
139.2237931186
 20
167.5717606494
 30
0.0
  0
SPLINE
  5
6D2
100
AcDbEntity
  8
BEZUGSACHSEN
100
AcDbSpline
 62
7
  6
CONTINUOUS
 70
0
 71
3
 72
8
 73
4
 74
0
 42
0.0000001
 43
0.0000001
 44
0.0000000001
 40
0.0
 40
0.0
 40
0.0
 40
0.0
 40
1.0
 40
1.0
 40
1.0
 40
1.0
 10
139.2237931186
 20
167.7852575204
 30
0.0
 10
139.4284834914
 20
167.6428056444
 30
0.0
 10
139.633074016
 20
167.5002101894
 30
0.0
 10
139.8375650024
 20
167.35747224
 30
0.0
  0
LINE
  5
6D3
100
AcDbEntity
  8
KONSTRUKTIONSELEMENTE
100
AcDbLine
 62
7
  6
CONTINUOUS
 10
139.3684614813
 20
168.0990056685
 11
139.3169967603
 21
168.286183518
  0
LINE
  5
6D4
100
AcDbEntity
  8
KONSTRUKTIONSELEMENTE
100
AcDbLine
 62
7
  6
CONTINUOUS
 10
139.3169967603
 20
168.286183518
 11
139.2874894062
 21
168.3934734403
  0
LINE
  5
6D5
100
AcDbEntity
  8
BEZUGSACHSEN
100
AcDbLine
 62
7
  6
CONTINUOUS
 10
139.2874894062
 20
168.6068772832
 11
139.4052250611
 21
168.1787279168
  0
SPLINE
  5
6D6
100
AcDbEntity
  8
BEZUGSACHSEN
100
AcDbSpline
 62
7
  6
CONTINUOUS
 70
0
 71
3
 72
15
 73
11
 74
0
 42
0.0000001
 43
0.0000001
 44
0.0000000001
 40
0.0
 40
0.0
 40
0.0
 40
0.0
 40
0.1215431162
 40
0.2453390972
 40
0.3718042613
 40
0.5
 40
0.6281957387
 40
0.7546609028
 40
0.8784568838
 40
1.0
 40
1.0
 40
1.0
 40
1.0
 10
145.3806553124
 20
83.8554726853
 30
0.0
 10
145.3293585167
 20
84.187215296
 30
0.0
 10
145.0947796933
 20
84.843058106
 30
0.0
 10
144.4076024018
 20
85.6349105643
 30
0.0
 10
143.4743298996
 20
86.1506463625
 30
0.0
 10
142.4119264283
 20
86.3290293077
 30
0.0
 10
141.349522957
 20
86.1506463625
 30
0.0
 10
140.4162504548
 20
85.6349105643
 30
0.0
 10
139.7290731633
 20
84.843058106
 30
0.0
 10
139.4944943399
 20
84.187215296
 30
0.0
 10
139.4431975442
 20
83.8554726853
 30
0.0
  0
LINE
  5
6D7
100
AcDbEntity
  8
KONSTRUKTIONSELEMENTE
100
AcDbLine
 62
7
  6
CONTINUOUS
 10
139.2874894062
 20
168.3934734403
 11
138.9728848548
 21
168.7848745917
  0
LINE
  5
6D8
100
AcDbEntity
  8
BEZUGSACHSEN
100
AcDbLine
 62
7
  6
CONTINUOUS
 10
138.9728848548
 20
168.99819242
 11
139.2874894062
 21
168.6068772832
  0
SPLINE
  5
6D9
100
AcDbEntity
  8
KONSTRUKTIONSELEMENTE
100
AcDbSpline
 62
7
  6
CONTINUOUS
 70
0
 71
3
 72
9
 73
5
 74
0
 42
0.0000001
 43
0.0000001
 44
0.0000000001
 40
0.0
 40
0.0
 40
0.0
 40
0.0
 40
0.4992052222
 40
1.0
 40
1.0
 40
1.0
 40
1.0
 10
92.420519687
 20
71.3317292233
 30
0.0
 10
92.3800840846
 20
72.1400145006
 30
0.0
 10
92.0873042637
 20
73.7527760963
 30
0.0
 10
91.4714684077
 20
75.261108206
 30
0.0
 10
91.1144572411
 20
75.9902726642
 30
0.0
  0
LINE
  5
6DA
100
AcDbEntity
  8
KONSTRUKTIONSELEMENTE
100
AcDbLine
 62
7
  6
CONTINUOUS
 10
138.0522270292
 20
169.4217808794
 11
137.5484675081
 21
169.5965219913
  0
LINE
  5
6DB
100
AcDbEntity
  8
BEZUGSACHSEN
100
AcDbLine
 62
7
  6
CONTINUOUS
 10
91.9838920435
 20
164.6411083524
 11
88.9095343304
 21
167.8695707278
  0
LINE
  5
6DC
100
AcDbEntity
  8
KONSTRUKTIONSELEMENTE
100
AcDbLine
 62
7
  6
CONTINUOUS
 10
88.9095343304
 20
167.6557401962
 11
91.9838920435
 21
164.4272210314
  0
LINE
  5
6DD
100
AcDbEntity
  8
BEZUGSACHSEN
100
AcDbLine
 62
7
  6
CONTINUOUS
 10
91.9838920435
 20
164.6411083524
 11
92.5792553548
 21
164.1952068996
  0
LINE
  5
6DE
100
AcDbEntity
  8
KONSTRUKTIONSELEMENTE
100
AcDbLine
 62
7
  6
CONTINUOUS
 10
92.5792553548
 20
163.9813353628
 11
91.9838920435
 21
164.4272210314
  0
LINE
  5
6DF
100
AcDbEntity
  8
BEZUGSACHSEN
100
AcDbLine
 62
7
  6
CONTINUOUS
 10
92.5792553548
 20
164.1952068996
 11
93.1749448659
 21
163.9282037952
  0
LINE
  5
6E0
100
AcDbEntity
  8
KONSTRUKTIONSELEMENTE
100
AcDbLine
 62
7
  6
CONTINUOUS
 10
93.1749448659
 20
163.7143776641
 11
92.5792553548
 21
163.9813353628
  0
LINE
  5
6E1
100
AcDbEntity
  8
BEZUGSACHSEN
100
AcDbLine
 62
7
  6
CONTINUOUS
 10
93.1749448659
 20
163.9282037952
 11
93.9696319508
 21
163.8103574828
  0
LINE
  5
6E2
100
AcDbEntity
  8
KONSTRUKTIONSELEMENTE
100
AcDbLine
 62
7
  6
CONTINUOUS
 10
93.9696319508
 20
163.5966323137
 11
93.1749448659
 21
163.7143776641
  0
LINE
  5
6E3
100
AcDbEntity
  8
BEZUGSACHSEN
100
AcDbLine
 62
7
  6
CONTINUOUS
 10
93.9696319508
 20
163.8103574828
 11
94.5659739642
 21
163.90016939
  0
LINE
  5
6E4
100
AcDbEntity
  8
KONSTRUKTIONSELEMENTE
100
AcDbLine
 62
7
  6
CONTINUOUS
 10
94.5659739642
 20
163.6865493229
 11
93.9696319508
 21
163.5966323137
  0
SPLINE
  5
6E5
100
AcDbEntity
  8
BEZUGSACHSEN
100
AcDbSpline
 62
7
  6
CONTINUOUS
 70
0
 71
3
 72
8
 73
4
 74
0
 42
0.0000001
 43
0.0000001
 44
0.0000000001
 40
0.0
 40
0.0
 40
0.0
 40
0.0
 40
1.0
 40
1.0
 40
1.0
 40
1.0
 10
94.5659739642
 20
163.90016939
 30
0.0
 10
94.7647991693
 20
163.9894919294
 30
0.0
 10
94.9636881768
 20
164.0786725899
 30
0.0
 10
95.1626418061
 20
164.1677087152
 30
0.0
  0
SPLINE
  5
6E6
100
AcDbEntity
  8
KONSTRUKTIONSELEMENTE
100
AcDbSpline
 62
7
  6
CONTINUOUS
 70
0
 71
3
 72
8
 73
4
 74
0
 42
0.0000001
 43
0.0000001
 44
0.0000000001
 40
0.0
 40
0.0
 40
0.0
 40
0.0
 40
1.0
 40
1.0
 40
1.0
 40
1.0
 10
95.1626418061
 20
163.9542206489
 30
0.0
 10
94.9636880441
 20
163.8651407487
 30
0.0
 10
94.7647990413
 20
163.775916077
 30
0.0
 10
94.5659739642
 20
163.6865493229
 30
0.0
  0
LINE
  5
6E7
100
AcDbEntity
  8
BEZUGSACHSEN
100
AcDbLine
 62
7
  6
CONTINUOUS
 10
95.1626418061
 20
164.1677087152
 11
95.5606381615
 21
164.4642895102
  0
LINE
  5
6E8
100
AcDbEntity
  8
KONSTRUKTIONSELEMENTE
100
AcDbLine
 62
7
  6
CONTINUOUS
 10
95.5606381615
 20
164.2509054735
 11
95.1626418061
 21
163.9542206489
  0
LINE
  5
6E9
100
AcDbEntity
  8
BEZUGSACHSEN
100
AcDbLine
 62
7
  6
CONTINUOUS
 10
95.5606381615
 20
164.4642895102
 11
95.958960354
 21
164.9382034468
  0
LINE
  5
6EA
100
AcDbEntity
  8
KONSTRUKTIONSELEMENTE
100
AcDbLine
 62
7
  6
CONTINUOUS
 10
95.958960354
 20
164.7249455723
 11
95.5606381615
 21
164.2509054735
  0
LINE
  5
6EB
100
AcDbEntity
  8
BEZUGSACHSEN
100
AcDbLine
 62
7
  6
CONTINUOUS
 10
95.958960354
 20
164.9382034468
 11
96.1586110513
 21
165.4415600516
  0
LINE
  5
6EC
100
AcDbEntity
  8
KONSTRUKTIONSELEMENTE
100
AcDbLine
 62
7
  6
CONTINUOUS
 10
96.1586110513
 20
165.2283982123
 11
95.958960354
 21
164.7249455723
  0
LINE
  5
6ED
100
AcDbEntity
  8
BEZUGSACHSEN
100
AcDbLine
 62
7
  6
CONTINUOUS
 10
137.5484675081
 20
169.8095722484
 11
138.0522270292
 21
169.6349122338
  0
LINE
  5
6EE
100
AcDbEntity
  8
KONSTRUKTIONSELEMENTE
100
AcDbLine
 62
7
  6
CONTINUOUS
 10
137.5484675081
 20
169.5965219913
 11
137.0524312792
 21
169.5929167395
  0
LINE
  5
6EF
100
AcDbEntity
  8
BEZUGSACHSEN
100
AcDbLine
 62
7
  6
CONTINUOUS
 10
137.0524312792
 20
169.8059056647
 11
137.5484675081
 21
169.8095722484
  0
SPLINE
  5
6F0
100
AcDbEntity
  8
KONSTRUKTIONSELEMENTE
100
AcDbSpline
 62
7
  6
CONTINUOUS
 70
0
 71
3
 72
9
 73
5
 74
0
 42
0.0000001
 43
0.0000001
 44
0.0000000001
 40
0.0
 40
0.0
 40
0.0
 40
0.0
 40
0.5007958748
 40
1.0
 40
1.0
 40
1.0
 40
1.0
 10
139.7093956155
 20
75.9902726642
 30
0.0
 10
139.3523836752
 20
75.2611066259
 30
0.0
 10
138.7365492042
 20
73.7527740006
 30
0.0
 10
138.4437686821
 20
72.1400127053
 30
0.0
 10
138.4033331696
 20
71.3317292233
 30
0.0
  0
LINE
  5
6F1
100
AcDbEntity
  8
KONSTRUKTIONSELEMENTE
100
AcDbLine
 62
7
  6
CONTINUOUS
 10
137.0524312792
 20
169.5929167395
 11
136.5641157362
 21
169.4112704305
  0
LINE
  5
6F2
100
AcDbEntity
  8
BEZUGSACHSEN
100
AcDbLine
 62
7
  6
CONTINUOUS
 10
136.5641157362
 20
169.6242166596
 11
137.0524312792
 21
169.8059056647
  0
LINE
  5
6F3
100
AcDbEntity
  8
BEZUGSACHSEN
100
AcDbLine
 62
7
  6
CONTINUOUS
 10
97.999722974
 20
166.1896056201
 11
94.4730227916
 21
171.7833196379
  0
LINE
  5
6F4
100
AcDbEntity
  8
KONSTRUKTIONSELEMENTE
100
AcDbLine
 62
7
  6
CONTINUOUS
 10
94.4730227916
 20
171.5705985548
 11
97.999722974
 21
165.976802109
  0
LINE
  5
6F5
100
AcDbEntity
  8
KONSTRUKTIONSELEMENTE
100
AcDbLine
 62
7
  6
CONTINUOUS
 10
136.5641157362
 20
169.4112704305
 11
136.0835214091
 21
169.0517945836
  0
LINE
  5
6F6
100
AcDbEntity
  8
BEZUGSACHSEN
100
AcDbLine
 62
7
  6
CONTINUOUS
 10
136.0835214091
 20
169.2647163023
 11
136.5641157362
 21
169.6242166596
  0
LINE
  5
6F7
100
AcDbEntity
  8
KONSTRUKTIONSELEMENTE
100
AcDbLine
 62
7
  6
CONTINUOUS
 10
136.0835214091
 20
169.0517945836
 11
134.6648941239
 21
167.4402359107
  0
SPLINE
  5
6F8
100
AcDbEntity
  8
RUNDUNGEN
100
AcDbSpline
 62
7
  6
CONTINUOUS
 70
0
 71
3
 72
9
 73
5
 74
0
 42
0.0000001
 43
0.0000001
 44
0.0000000001
 40
0.0
 40
0.0
 40
0.0
 40
0.0
 40
0.4716847793
 40
1.0
 40
1.0
 40
1.0
 40
1.0
 10
152.9119264283
 20
93.6845173081
 30
0.0
 10
152.9119264283
 20
93.850362658
 30
0.0
 10
152.9873652685
 20
94.2047637614
 30
0.0
 10
153.1890993332
 20
94.502336503
 30
0.0
 10
153.313850217
 20
94.6399692755
 30
0.0
  0
LINE
  5
6F9
100
AcDbEntity
  8
BEZUGSACHSEN
100
AcDbLine
 62
7
  6
CONTINUOUS
 10
134.6648941239
 20
167.6531386419
 11
136.0835214091
 21
169.2647163023
  0
LINE
  5
6FA
100
AcDbEntity
  8
KONSTRUKTIONSELEMENTE
100
AcDbLine
 62
7
  6
CONTINUOUS
 10
134.3888873029
 20
166.9402629978
 11
134.6648941239
 21
167.4402359107
  0
LINE
  5
6FB
100
AcDbEntity
  8
BEZUGSACHSEN
100
AcDbLine
 62
7
  6
CONTINUOUS
 10
134.6648941239
 20
167.6531386419
 11
134.3888873029
 21
167.1531820333
  0
SPLINE
  5
6FC
100
AcDbEntity
  8
0
100
AcDbSpline
 62
7
  6
CONTINUOUS
 70
0
 71
3
 72
24
 73
20
 74
0
 42
0.0000001
 43
0.0000001
 44
0.0000000001
 40
0.0
 40
0.0
 40
0.0
 40
0.0
 40
0.2040959268
 40
0.394814456
 40
0.5667594548
 40
0.644135068
 40
0.7150288435
 40
0.7789384431
 40
0.8354032458
 40
0.8840270022
 40
0.9244592523
 40
0.9415161715
 40
0.9564249685
 40
0.9691593243
 40
0.9797029706
 40
0.9880431123
 40
0.9941732861
 40
0.998113738
 40
1.0
 40
1.0
 40
1.0
 40
1.0
 10
138.4033331696
 20
71.3317292233
 30
0.0
 10
138.3429804582
 20
70.1253119775
 30
0.0
 10
138.2293868304
 20
67.7913916415
 30
0.0
 10
138.0773306867
 20
64.4405117817
 30
0.0
 10
137.9699735497
 20
61.8383758977
 30
0.0
 10
137.9001175933
 20
59.9444969324
 30
0.0
 10
137.8581347527
 20
58.6894308322
 30
0.0
 10
137.8250237343
 20
57.5579059049
 30
0.0
 10
137.8010604774
 20
56.5579824357
 30
0.0
 10
137.7864185544
 20
55.6968503545
 30
0.0
 10
137.781706722
 20
55.0688185032
 30
0.0
 10
137.7834211284
 20
54.6403525172
 30
0.0
 10
137.7870070467
 20
54.3757770274
 30
0.0
 10
137.7929296704
 20
54.149961726
 30
0.0
 10
137.8011005364
 20
53.9626577966
 30
0.0
 10
137.8114516479
 20
53.8158438024
 30
0.0
 10
137.8236021795
 20
53.7054047007
 30
0.0
 10
137.8373083858
 20
53.6399478634
 30
0.0
 10
137.8501721511
 20
53.6022064804
 30
0.0
 10
137.8603980219
 20
53.5977276795
 30
0.0
  0
LINE
  5
6FD
100
AcDbEntity
  8
KONSTRUKTIONSELEMENTE
100
AcDbLine
 62
7
  6
CONTINUOUS
 10
134.3322494158
 20
166.6090087082
 11
134.3690055333
 21
166.8239895552
  0
LINE
  5
6FE
100
AcDbEntity
  8
KONSTRUKTIONSELEMENTE
100
AcDbLine
 62
7
  6
CONTINUOUS
 10
134.3690055333
 20
166.8239895552
 11
134.3888873029
 21
166.9402629978
  0
LINE
  5
6FF
100
AcDbEntity
  8
BEZUGSACHSEN
100
AcDbLine
 62
7
  6
CONTINUOUS
 10
134.3888873029
 20
167.1531820333
 11
134.3097517198
 21
166.6903684402
  0
LINE
  5
700
100
AcDbEntity
  8
BEZUGSACHSEN
100
AcDbLine
 62
7
  6
CONTINUOUS
 10
97.6133399783
 20
172.4223871063
 11
98.1367257486
 21
172.5269781931
  0
LINE
  5
701
100
AcDbEntity
  8
KONSTRUKTIONSELEMENTE
100
AcDbLine
 62
7
  6
CONTINUOUS
 10
98.1367257486
 20
172.3147232602
 11
97.6133399783
 21
172.2100686437
  0
LINE
  5
702
100
AcDbEntity
  8
BEZUGSACHSEN
100
AcDbLine
 62
7
  6
CONTINUOUS
 10
98.1367257486
 20
172.5269781931
 11
98.6230606033
 21
172.4563090627
  0
LINE
  5
703
100
AcDbEntity
  8
KONSTRUKTIONSELEMENTE
100
AcDbLine
 62
7
  6
CONTINUOUS
 10
98.6230606033
 20
172.2441018907
 11
98.1367257486
 21
172.3147232602
  0
LINE
  5
704
100
AcDbEntity
  8
BEZUGSACHSEN
100
AcDbLine
 62
7
  6
CONTINUOUS
 10
98.6230606033
 20
172.4563090627
 11
99.0723447529
 21
172.210681939
  0
LINE
  5
705
100
AcDbEntity
  8
KONSTRUKTIONSELEMENTE
100
AcDbLine
 62
7
  6
CONTINUOUS
 10
99.0723447529
 20
171.9985078906
 11
98.6230606033
 21
172.2441018907
  0
LINE
  5
706
100
AcDbEntity
  8
BEZUGSACHSEN
100
AcDbLine
 62
7
  6
CONTINUOUS
 10
99.0723447529
 20
172.210681939
 11
99.411926277
 21
171.864396608
  0
LINE
  5
707
100
AcDbEntity
  8
KONSTRUKTIONSELEMENTE
100
AcDbLine
 62
7
  6
CONTINUOUS
 10
99.4119262784
 20
171.6522381879
 11
99.0723447529
 21
171.9985078906
  0
SPLINE
  5
708
100
AcDbEntity
  8
KONSTRUKTIONSELEMENTE
100
AcDbSpline
 62
7
  6
CONTINUOUS
 70
0
 71
3
 72
11
 73
7
 74
0
 42
0.0000001
 43
0.0000001
 44
0.0000000001
 40
0.0
 40
0.0
 40
0.0
 40
0.0
 40
0.2586554229
 40
0.5065003269
 40
0.7518564843
 40
1.0
 40
1.0
 40
1.0
 40
1.0
 10
91.7598144719
 20
93.0205494671
 30
0.0
 10
91.7598144719
 20
93.4981351845
 30
0.0
 10
91.9308661967
 20
94.4440478939
 30
0.0
 10
92.663583885
 20
95.6517883529
 30
0.0
 10
93.6837209641
 20
96.5837610776
 30
0.0
 10
94.4699149032
 20
97.0537135139
 30
0.0
 10
94.8786249237
 20
97.260792465
 30
0.0
  0
LINE
  5
709
100
AcDbEntity
  8
KONSTRUKTIONSELEMENTE
100
AcDbLine
 62
7
  6
CONTINUOUS
 10
137.688621068
 20
166.0413558102
 11
137.5750371538
 21
166.1203926244
  0
SPLINE
  5
70A
100
AcDbEntity
  8
KONSTRUKTIONSELEMENTE
100
AcDbSpline
 62
7
  6
CONTINUOUS
 70
0
 71
3
 72
8
 73
4
 74
0
 42
0.0000001
 43
0.0000001
 44
0.0000000001
 40
0.0
 40
0.0
 40
0.0
 40
0.0
 40
1.0
 40
1.0
 40
1.0
 40
1.0
 10
137.5750371538
 20
166.1203926244
 30
0.0
 10
137.3449960785
 20
166.2804181739
 30
0.0
 10
137.1148198275
 20
166.4402495815
 30
0.0
 10
136.8845081403
 20
166.5998854155
 30
0.0
  0
LINE
  5
70B
100
AcDbEntity
  8
KONSTRUKTIONSELEMENTE
100
AcDbLine
 62
7
  6
CONTINUOUS
 10
137.5677614255
 20
164.5649480386
 11
138.9863887107
 21
166.1767739636
  0
LINE
  5
70C
100
AcDbEntity
  8
BEZUGSACHSEN
100
AcDbLine
 62
7
  6
CONTINUOUS
 10
138.9863887107
 20
166.3904240132
 11
137.5677614255
 21
164.7786303505
  0
LINE
  5
70D
100
AcDbEntity
  8
BEZUGSACHSEN
100
AcDbLine
 62
7
  6
CONTINUOUS
 10
131.4119268653
 20
166.9609211884
 11
131.6544768328
 21
166.8489069371
  0
LINE
  5
70E
100
AcDbEntity
  8
KONSTRUKTIONSELEMENTE
100
AcDbLine
 62
7
  6
CONTINUOUS
 10
131.6544768328
 20
166.6363363956
 11
131.4119268798
 21
166.7483946789
  0
LINE
  5
70F
100
AcDbEntity
  8
BEZUGSACHSEN
100
AcDbLine
 62
7
  6
CONTINUOUS
 10
132.2266458466
 20
170.1192250518
 11
131.6544768328
 21
166.8489069371
  0
LINE
  5
710
100
AcDbEntity
  8
KONSTRUKTIONSELEMENTE
100
AcDbLine
 62
7
  6
CONTINUOUS
 10
131.6544768328
 20
166.6363363956
 11
132.2266458466
 21
169.90685671
  0
LINE
  5
711
100
AcDbEntity
  8
BEZUGSACHSEN
100
AcDbLine
 62
7
  6
CONTINUOUS
 10
132.2266458466
 20
170.1192250518
 11
132.8229966596
 21
170.1524778731
  0
LINE
  5
712
100
AcDbEntity
  8
KONSTRUKTIONSELEMENTE
100
AcDbLine
 62
7
  6
CONTINUOUS
 10
132.8229966596
 20
169.9400406152
 11
132.2266458466
 21
169.90685671
  0
LINE
  5
713
100
AcDbEntity
  8
BEZUGSACHSEN
100
AcDbLine
 62
7
  6
CONTINUOUS
 10
132.8229966596
 20
170.1524778731
 11
133.4442551322
 21
170.4810602811
  0
LINE
  5
714
100
AcDbEntity
  8
KONSTRUKTIONSELEMENTE
100
AcDbLine
 62
7
  6
CONTINUOUS
 10
133.4442551322
 20
170.2685743243
 11
132.8229966596
 21
169.9400406152
  0
LINE
  5
715
100
AcDbEntity
  8
BEZUGSACHSEN
100
AcDbLine
 62
7
  6
CONTINUOUS
 10
133.4442551322
 20
170.4810602811
 11
133.7673395063
 21
170.7932032176
  0
LINE
  5
716
100
AcDbEntity
  8
KONSTRUKTIONSELEMENTE
100
AcDbLine
 62
7
  6
CONTINUOUS
 10
133.7673395063
 20
170.5807034781
 11
133.4442551322
 21
170.2685743243
  0
LINE
  5
717
100
AcDbEntity
  8
BEZUGSACHSEN
100
AcDbLine
 62
7
  6
CONTINUOUS
 10
134.0457333283
 20
171.2796237754
 11
133.7673395063
 21
170.7932032176
  0
LINE
  5
718
100
AcDbEntity
  8
KONSTRUKTIONSELEMENTE
100
AcDbLine
 62
7
  6
CONTINUOUS
 10
133.7673395063
 20
170.5807034781
 11
134.0457333283
 21
171.0671292947
  0
LINE
  5
719
100
AcDbEntity
  8
BEZUGSACHSEN
100
AcDbLine
 62
7
  6
CONTINUOUS
 10
134.1402393948
 20
171.6970856442
 11
134.0457333283
 21
171.2796237754
  0
LINE
  5
71A
100
AcDbEntity
  8
KONSTRUKTIONSELEMENTE
100
AcDbLine
 62
7
  6
CONTINUOUS
 10
134.0457333283
 20
171.0671292947
 11
134.1402393948
 21
171.4846120308
  0
LINE
  5
71B
100
AcDbEntity
  8
KONSTRUKTIONSELEMENTE
100
AcDbLine
 62
7
  6
CONTINUOUS
 10
133.4289484229
 20
171.8994042855
 11
133.3875643975
 21
172.0605245552
  0
LINE
  5
71C
100
AcDbEntity
  8
KONSTRUKTIONSELEMENTE
100
AcDbLine
 62
7
  6
CONTINUOUS
 10
133.3875643975
 20
172.0605245552
 11
133.3651308255
 21
172.1478516006
  0
LINE
  5
71D
100
AcDbEntity
  8
BEZUGSACHSEN
100
AcDbLine
 62
7
  6
CONTINUOUS
 10
133.3651308255
 20
172.3601911558
 11
133.4545097037
 21
172.0122437481
  0
LINE
  5
71E
100
AcDbEntity
  8
KONSTRUKTIONSELEMENTE
100
AcDbLine
 62
7
  6
CONTINUOUS
 10
133.3651308255
 20
172.1478516006
 11
133.0918643867
 21
172.4263761044
  0
LINE
  5
71F
100
AcDbEntity
  8
BEZUGSACHSEN
100
AcDbLine
 62
7
  6
CONTINUOUS
 10
133.0918643867
 20
172.6386674906
 11
133.3651308255
 21
172.3601911558
  0
ELLIPSE
  5
720
100
AcDbEntity
  8
RUNDUNGEN
100
AcDbEllipse
 62
7
  6
CONTINUOUS
 10
454.8143994785
 20
94.5133680375
 30
0.0
 11
10.1038471025
 21
-2.1190357161
 31
0.0
 40
0.8513282235
 41
2.9294562065
 42
3.0201925426
  0
ELLIPSE
  5
721
100
AcDbEntity
  8
0
100
AcDbEllipse
 62
7
  6
CONTINUOUS
 10
446.6365601268
 20
97.4898581422
 30
0.0
 11
9.1020858298
 21
-4.8713521926
 31
0.0
 40
0.8513282235
 41
0.121400111
 42
0.2121364471
  0
ELLIPSE
  5
722
100
AcDbEntity
  8
0
100
AcDbEllipse
 62
7
  6
CONTINUOUS
 10
459.3887535548
 20
93.3953547817
 30
0.0
 11
2.6557303072
 21
4.5333395252
 31
0.0
 40
0.5689268959
 41
-4.4014028654
 42
-3.5615293909
  0
ELLIPSE
  5
723
100
AcDbEntity
  8
RUNDUNGEN
100
AcDbEllipse
 62
7
  6
CONTINUOUS
 10
442.4137565375
 20
99.5737484227
 30
0.0
 11
0.8795670331
 21
5.1798100882
 31
0.0
 40
0.5689268959
 41
-2.7216559163
 42
-1.8817824418
  0
ELLIPSE
  5
724
100
AcDbEntity
  8
RUNDUNGEN
100
AcDbEllipse
 62
7
  6
CONTINUOUS
 10
527.8443043938
 20
94.5133680375
 30
0.0
 11
10.1038471025
 21
2.1190357161
 31
0.0
 40
0.8513282235
 41
0.121400111
 42
0.2121364471
  0
ELLIPSE
  5
725
100
AcDbEntity
  8
0
100
AcDbEllipse
 62
7
  6
CONTINUOUS
 10
536.0221437456
 20
97.4898581422
 30
0.0
 11
9.1020858298
 21
4.8713521926
 31
0.0
 40
0.8513282235
 41
2.9294562065
 42
3.0201925426
  0
ELLIPSE
  5
726
100
AcDbEntity
  8
0
100
AcDbEllipse
 62
7
  6
CONTINUOUS
 10
523.2699503175
 20
93.3953547817
 30
0.0
 11
-2.6557303072
 21
4.5333395252
 31
0.0
 40
0.5689268959
 41
-2.7216559163
 42
-1.8817824418
  0
ELLIPSE
  5
727
100
AcDbEntity
  8
RUNDUNGEN
100
AcDbEllipse
 62
7
  6
CONTINUOUS
 10
540.2449473349
 20
99.5737484227
 30
0.0
 11
-0.8795670331
 21
5.1798100882
 31
0.0
 40
0.5689268959
 41
-4.4014028654
 42
-3.5615293909
  0
ELLIPSE
  5
728
100
AcDbEntity
  8
KONSTRUKTIONSELEMENTE
100
AcDbEllipse
 62
7
  6
CONTINUOUS
 10
301.7020437028
 20
101.4270890262
 30
0.0
 11
0.8615815879
 21
3.2154662609
 31
0.0
 40
0.1989123674
 41
-4.3485913603
 42
-3.3373776335
  0
ELLIPSE
  5
729
100
AcDbEntity
  8
KONSTRUKTIONSELEMENTE
100
AcDbEllipse
 62
7
  6
CONTINUOUS
 10
304.6020437028
 20
96.4041416842
 30
0.0
 11
3.2154662609
 21
-0.8615815879
 31
0.0
 40
0.1989123674
 41
-2.9458076736
 42
-1.9345939469
  0
ELLIPSE
  5
72A
100
AcDbEntity
  8
KONSTRUKTIONSELEMENTE
100
AcDbEllipse
 62
7
  6
CONTINUOUS
 10
72.0644187681
 20
96.5286341108
 30
0.0
 11
2.5432359137
 21
-0.6191804685
 31
0.0
 40
0.5944646678
 41
0.9311315695
 42
2.2444304632
  0
ELLIPSE
  5
72B
100
AcDbEntity
  8
0
100
AcDbEllipse
 62
7
  6
CONTINUOUS
 10
115.4119264283
 20
90.0408167768
 30
0.0
 11
0.0
 21
10.0069907749
 31
0.0
 40
0.8793852416
 41
1.3450342119
 42
1.5707963268
  0
ELLIPSE
  5
72C
100
AcDbEntity
  8
0
100
AcDbEllipse
 62
7
  6
CONTINUOUS
 10
115.4119264283
 20
90.0408167768
 30
0.0
 11
0.0
 21
10.0069907749
 31
0.0
 40
0.8793852416
 41
-1.5707963268
 42
-1.3450342119
  0
ELLIPSE
  5
72D
100
AcDbEntity
  8
0
100
AcDbEllipse
 62
7
  6
CONTINUOUS
 10
75.2086454553
 20
97.4898581422
 30
0.0
 11
-4.8581641484
 21
9.1164476122
 31
0.0
 40
0.1678978337
 41
-4.4525382564
 42
-4.3618019203
  0
ELLIPSE
  5
72E
100
AcDbEntity
  8
0
100
AcDbEllipse
 62
7
  6
CONTINUOUS
 10
155.6152074013
 20
97.4898581422
 30
0.0
 11
4.8581641484
 21
9.1164476122
 31
0.0
 40
0.1678978337
 41
-1.9213833869
 42
-1.8306470507
  0
ELLIPSE
  5
72F
100
AcDbEntity
  8
0
100
AcDbEllipse
 62
7
  6
CONTINUOUS
 10
155.9119264283
 20
93.3953547817
 30
0.0
 11
2.9630926281
 21
4.7696012272
 31
0.0
 40
0.098358131
 41
-4.6620857013
 42
-3.8222122268
  0
ELLIPSE
  5
730
100
AcDbEntity
  8
0
100
AcDbEllipse
 62
7
  6
CONTINUOUS
 10
74.9119264283
 20
93.3953547817
 30
0.0
 11
-2.9630926281
 21
4.7696012272
 31
0.0
 40
0.098358131
 41
-2.4609730804
 42
-1.6210996058
  0
ELLIPSE
  5
731
100
AcDbEntity
  8
RUNDUNGEN
100
AcDbEllipse
 62
7
  6
CONTINUOUS
 10
74.9119264283
 20
99.5737484227
 30
0.0
 11
-2.966045824
 21
5.197583494
 31
0.0
 40
0.0865941225
 41
-4.3544695977
 42
-3.5145961232
  0
ELLIPSE
  5
732
100
AcDbEntity
  8
KONSTRUKTIONSELEMENTE
100
AcDbEllipse
 62
7
  6
CONTINUOUS
 10
115.4119264283
 20
101.9958248868
 30
0.0
 11
8.8
 21
-0.0
 31
0.0
 40
0.742227199
 41
0.0
 42
0.2257621149
  0
ELLIPSE
  5
733
100
AcDbEntity
  8
RUNDUNGEN
100
AcDbEllipse
 62
7
  6
CONTINUOUS
 10
75.2086454553
 20
94.5133680375
 30
0.0
 11
-4.8487536558
 21
8.8172140695
 31
0.0
 40
0.1769477373
 41
-1.3048562997
 42
-1.2141199636
  0
ELLIPSE
  5
734
100
AcDbEntity
  8
RUNDUNGEN
100
AcDbEllipse
 62
7
  6
CONTINUOUS
 10
155.6152074013
 20
94.5133680375
 30
0.0
 11
4.8487536558
 21
8.8172140695
 31
0.0
 40
0.1769477373
 41
1.2141199636
 42
1.3048562997
  0
ELLIPSE
  5
735
100
AcDbEntity
  8
KONSTRUKTIONSELEMENTE
100
AcDbEllipse
 62
7
  6
CONTINUOUS
 10
115.4119264283
 20
101.9958248868
 30
0.0
 11
8.8
 21
-0.0
 31
0.0
 40
0.742227199
 41
2.9158305387
 42
3.1415926536
  0
ELLIPSE
  5
736
100
AcDbEntity
  8
KONSTRUKTIONSELEMENTE
100
AcDbEllipse
 62
7
  6
CONTINUOUS
 10
115.4119264283
 20
30.2826501204
 30
0.0
 11
-0.0
 21
71.9922122849
 31
0.0
 40
0.7778619134
 41
-0.3754229971
 42
-0.1577968958
  0
ELLIPSE
  5
737
100
AcDbEntity
  8
KONSTRUKTIONSELEMENTE
100
AcDbEllipse
 62
7
  6
CONTINUOUS
 10
115.4119264283
 20
30.2826501204
 30
0.0
 11
-0.0
 21
71.9922122849
 31
0.0
 40
0.7778619134
 41
0.1577968958
 42
0.3754229971
  0
ELLIPSE
  5
738
100
AcDbEntity
  8
RUNDUNGEN
100
AcDbEllipse
 62
7
  6
CONTINUOUS
 10
155.9119264283
 20
99.5737484227
 30
0.0
 11
2.966045824
 21
5.197583494
 31
0.0
 40
0.0865941225
 41
-2.768589184
 42
-1.9287157095
  0
ENDSEC
  0
SECTION
  2
OBJECTS
  0
DICTIONARY
  5
C
100
AcDbDictionary
280
0
281
1
  3
ACAD_GROUP
350
D
  3
ACAD_MLINESTYLE
350
17
  3
ACAD_LAYOUT
350
1A
  3
ACAD_PLOTSETTINGS
350
19
  3
ACAD_PLOTSTYLENAME
350
E
  0
DICTIONARY
  5
D
102
{ACAD_REACTORS
330
C
102
}
100
AcDbDictionary
280
0
281
1
  0
ACDBDICTIONARYWDFLT
  5
E
102
{ACAD_REACTORS
330
C
102
}
100
AcDbDictionary
281
1
  3
Normal
350
F
100
AcDbDictionaryWithDefault
340
F
  0
DICTIONARY
  5
17
102
{ACAD_REACTORS
330
C
102
}
100
AcDbDictionary
280
0
281
1
  3
Standard
350
18
  0
DICTIONARY
  5
19
102
{ACAD_REACTORS
330
C
102
}
100
AcDbDictionary
281
1
  0
DICTIONARY
  5
1A
102
{ACAD_REACTORS
330
C
102
}
100
AcDbDictionary
281
1
  3
Model
350
739
  3
Layout1
350
73A
  0
ACDBPLACEHOLDER
  5
F
102
{ACAD_REACTORS
330
E
102
}
  0
MLINESTYLE
  5
18
102
{ACAD_REACTORS
330
17
102
}
100
AcDbMlineStyle
  2
STANDARD
 70
0
  3

 62
256
 51
90.0
 52
90.0
 71
2
 49
0.5
 62
256
  6
BYLAYER
 49
-0.5
 62
256
  6
BYLAYER
  0
LAYOUT
  5
739
102
{ACAD_REACTORS
330
1A
102
}
100
AcDbPlotSettings
  1

  2
none_device
  4
ISO_A2_(594.00_x_420.00_MM)
  6

 40
0.0
 41
0.0
 42
0.0
 43
0.0
 44
594.0
 45
420.0
 46
0.0
 47
0.0
 48
0.0
 49
0.0
140
0.0
141
0.0
142
1.0
143
1.0
 70
1024
 72
1
 73
0
 74
0
  7

 75
0
147
1.0
148
0.0
149
0.0
100
AcDbLayout
  1
Model
 70
0
 71
0
 10
0.0
 20
0.0
 11
594.0
 21
420.0
 12
0.0
 22
0.0
 32
0.0
 14
0.0
 24
0.0
 34
0.0
 15
0.0
 25
0.0
 35
0.0
146
0.0
 13
0.0
 23
0.0
 33
0.0
 16
1.0
 26
0.0
 36
0.0
 17
0.0
 27
1.0
 37
0.0
 76
0
330
20C
345
0
346
0
  0
LAYOUT
  5
73A
102
{ACAD_REACTORS
330
1A
102
}
100
AcDbPlotSettings
  1

  2
none_device
  4
ISO_A2_(594.00_x_420.00_MM)
  6

 40
0.0
 41
0.0
 42
0.0
 43
0.0
 44
594.0
 45
420.0
 46
0.0
 47
0.0
 48
0.0
 49
0.0
140
0.0
141
0.0
142
1.0
143
1.0
 70
0
 72
1
 73
0
 74
0
  7

 75
0
147
1.0
148
0.0
149
0.0
100
AcDbLayout
  1
Layout1
 70
0
 71
1
 10
0.0
 20
0.0
 11
594.0
 21
420.0
 12
0.0
 22
0.0
 32
0.0
 14
0.0
 24
0.0
 34
0.0
 15
0.0
 25
0.0
 35
0.0
146
0.0
 13
0.0
 23
0.0
 33
0.0
 16
1.0
 26
0.0
 36
0.0
 17
0.0
 27
1.0
 37
0.0
 76
0
330
20D
345
0
346
0
  0
ENDSEC
  0
EOF
