999
DXF file: VAK-2-13_7100709_M34479-P-4.dxf
999
Pro/ENGINEER 2010140 by Parametric Technology Corporation
  0
SECTION
  2
HEADER
  9
$ACADVER
  1
AC1015
  9
$DWGCODEPAGE
  3
ANSI_1252
  9
$EXTMAX
 10
594.0
 20
420.0
 30
0.0
  9
$EXTMIN
 10
0.0
 20
0.0
 30
0.0
  9
$LIMMIN
 10
0.0
 20
0.0
  9
$LIMMAX
 10
594.0
 20
420.0
  9
$VIEWCTR
 10
297.0
 20
210.0
  9
$VIEWSIZE
 40
420.0
  9
$CLAYER
  8
0
  9
$LTSCALE
 40
32.67
  9
$CELTYPE
  6
BYLAYER
  9
$DIMSCALE
 40
1.0
  9
$DIMASZ
 40
3.5
  9
$DIMEXO
 40
3.7125
  9
$DIMDLI
 40
22.572
  9
$DIMEXE
 40
10.692
  9
$DIMCEN
 40
5.346
  9
$DIMLFAC
 40
1.0
  9
$DIMBLK
  1
_FILLED
  9
$DIMTXT
 40
3.5
  9
$DIMTOL
 70
1
  9
$DIMLIM
 70
0
  9
$DIMTFAC
 40
1.0
  9
$DIMTP
 40
0.005
  9
$DIMTM
 40
0.005
  9
$PDMODE
 70
3
  9
$PDSIZE
 40
0.3125
  9
$HANDSEED
  5
721
  9
$TILEMODE
 70
1
  9
$MEASUREMENT
 70
1
  9
$INSUNITS
 70
4
  0
ENDSEC
  0
SECTION
  2
CLASSES
  0
CLASS
  1
ACDBDICTIONARYWDFLT
  2
AcDbDictionaryWithDefault
  3
AutoCAD 2000
 90
0
280
0
281
0
  0
CLASS
  1
ACDBPLACEHOLDER
  2
AcDbPlaceHolder
  3
AutoCAD 2000
 90
0
280
0
281
0
  0
CLASS
  1
LAYOUT
  2
AcDbLayout
  3
AutoCAD 2000
 90
0
280
0
281
0
  0
ENDSEC
  0
SECTION
  2
TABLES
  0
TABLE
  2
VPORT
  5
8
100
AcDbSymbolTable
 70
2
  0
VPORT
  5
1F4
100
AcDbSymbolTableRecord
100
AcDbViewportTableRecord
  2
*ACTIVE
 70
0
 10
0.0
 20
0.0
 11
1.0
 21
1.0
 12
297.0
 22
210.0
 13
0.0
 23
0.0
 14
1.0
 24
1.0
 15
0.0
 25
0.0
 16
0.0
 26
0.0
 36
1.0
 17
0.0
 27
0.0
 37
0.0
 40
420.0
 41
1.4142857143
 42
50.0
 43
0.0
 44
0.0
 50
0.0
 51
0.0
 71
0
 72
100
 73
1
 74
1
 75
0
 76
0
 77
0
 78
0
  0
ENDTAB
  0
TABLE
  2
LTYPE
  5
5
100
AcDbSymbolTable
 70
6
  0
LTYPE
  5
14
100
AcDbSymbolTableRecord
100
AcDbLinetypeTableRecord
  2
BYBLOCK
 70
0
  3

 72
65
 73
0
 40
0.0
  0
LTYPE
  5
15
100
AcDbSymbolTableRecord
100
AcDbLinetypeTableRecord
  2
BYLAYER
 70
0
  3

 72
65
 73
0
 40
0.0
  0
LTYPE
  5
16
100
AcDbSymbolTableRecord
100
AcDbLinetypeTableRecord
  2
CONTINUOUS
 70
64
  3
Solid line
 72
65
 73
0
 40
0.0
  0
LTYPE
  5
1F5
100
AcDbSymbolTableRecord
100
AcDbLinetypeTableRecord
  2
CENTER
 70
64
  3
____ _ ____ _ ____ _ ____ _ ____ _ ____ _ ____
 72
65
 73
4
 40
0.6
 49
0.375
 74
0
 49
-0.075
 74
0
 49
0.075
 74
0
 49
-0.075
 74
0
  0
LTYPE
  5
1F6
100
AcDbSymbolTableRecord
100
AcDbLinetypeTableRecord
  2
HIDDEN
 70
64
  3
- - - - - - - - - - - - - - - - - - - -
 72
65
 73
2
 40
0.2
 49
0.1
 74
0
 49
-0.1
 74
0
  0
LTYPE
  5
1F7
100
AcDbSymbolTableRecord
100
AcDbLinetypeTableRecord
  2
PHANTOM
 70
64
  3
_____ _ _ _____ _ _ _____ _ _ _____
 72
65
 73
6
 40
0.8
 49
0.45
 74
0
 49
-0.05
 74
0
 49
0.1
 74
0
 49
-0.05
 74
0
 49
0.1
 74
0
 49
-0.05
 74
0
  0
LTYPE
  5
1F8
100
AcDbSymbolTableRecord
100
AcDbLinetypeTableRecord
  2
DOT
 70
64
  3
. . . . . . . . . . . . . . . . . . . .
 72
65
 73
2
 40
0.2
 49
0.1
 74
0
 49
-0.1
 74
0
  0
LTYPE
  5
1F9
100
AcDbSymbolTableRecord
100
AcDbLinetypeTableRecord
  2
DASHED
 70
64
  3
- - - - - - - - - - - - - - - - - - - -
 72
65
 73
2
 40
0.2
 49
0.1
 74
0
 49
-0.1
 74
0
  0
ENDTAB
  0
TABLE
  2
LAYER
  5
2
100
AcDbSymbolTable
 70
36
  0
LAYER
  5
10
100
AcDbSymbolTableRecord
100
AcDbLayerTableRecord
  2
0
 70
0
 62
7
  6
CONTINUOUS
370
-3
390
F
  0
LAYER
  5
1FA
100
AcDbSymbolTableRecord
100
AcDbLayerTableRecord
  2
DEFAULT_1
 70
0
 62
7
  6
CENTER
370
-3
390
F
  0
LAYER
  5
1FB
100
AcDbSymbolTableRecord
100
AcDbLayerTableRecord
  2
DEFAULT_2
 70
0
 62
8
  6
HIDDEN
370
-3
390
F
  0
LAYER
  5
1FC
100
AcDbSymbolTableRecord
100
AcDbLayerTableRecord
  2
DEFAULT_3
 70
0
 62
7
  6
PHANTOM
370
-3
390
F
  0
LAYER
  5
1FD
100
AcDbSymbolTableRecord
100
AcDbLayerTableRecord
  2
AUSFORMSCHRAEGEN
 70
0
 62
7
  6
CONTINUOUS
370
-3
390
F
  0
LAYER
  5
1FE
100
AcDbSymbolTableRecord
100
AcDbLayerTableRecord
  2
BEZUGSACHSEN
 70
0
 62
7
  6
CONTINUOUS
370
-3
390
F
  0
LAYER
  5
1FF
100
AcDbSymbolTableRecord
100
AcDbLayerTableRecord
  2
BEZUGSEBENEN
 70
0
 62
7
  6
CONTINUOUS
370
-3
390
F
  0
LAYER
  5
200
100
AcDbSymbolTableRecord
100
AcDbLayerTableRecord
  2
BG_STARTBEZUEGE
 70
0
 62
7
  6
CONTINUOUS
370
-3
390
F
  0
LAYER
  5
201
100
AcDbSymbolTableRecord
100
AcDbLayerTableRecord
  2
FASEN
 70
0
 62
7
  6
CONTINUOUS
370
-3
390
F
  0
LAYER
  5
202
100
AcDbSymbolTableRecord
100
AcDbLayerTableRecord
  2
HILFEN
 70
0
 62
7
  6
CONTINUOUS
370
-3
390
F
  0
LAYER
  5
203
100
AcDbSymbolTableRecord
100
AcDbLayerTableRecord
  2
KONSTRUKTIONSELEMENTE
 70
0
 62
7
  6
CONTINUOUS
370
-3
390
F
  0
LAYER
  5
204
100
AcDbSymbolTableRecord
100
AcDbLayerTableRecord
  2
PLATZIERUNG
 70
0
 62
7
  6
CONTINUOUS
370
-3
390
F
  0
LAYER
  5
205
100
AcDbSymbolTableRecord
100
AcDbLayerTableRecord
  2
PLAZIERUNG
 70
0
 62
7
  6
CONTINUOUS
370
-3
390
F
  0
LAYER
  5
206
100
AcDbSymbolTableRecord
100
AcDbLayerTableRecord
  2
RUNDUNGEN
 70
0
 62
7
  6
CONTINUOUS
370
-3
390
F
  0
LAYER
  5
207
100
AcDbSymbolTableRecord
100
AcDbLayerTableRecord
  2
TEIL_STARTBEZUEGE
 70
0
 62
7
  6
CONTINUOUS
370
-3
390
F
  0
LAYER
  5
208
100
AcDbSymbolTableRecord
100
AcDbLayerTableRecord
  2
T_STARTBEZUEGE
 70
0
 62
7
  6
CONTINUOUS
370
-3
390
F
  0
LAYER
  5
209
100
AcDbSymbolTableRecord
100
AcDbLayerTableRecord
  2
ZEICHNUNGSBEMASSUNGEN
 70
0
 62
7
  6
CONTINUOUS
370
-3
390
F
  0
ENDTAB
  0
TABLE
  2
STYLE
  5
3
100
AcDbSymbolTable
 70
1
  0
STYLE
  5
11
100
AcDbSymbolTableRecord
100
AcDbTextStyleTableRecord
  2
STANDARD
 70
0
 40
0.0
 41
0.7
 50
0.0
 71
0
 42
0.2
  3
txt
  4

  0
STYLE
  5
20A
100
AcDbSymbolTableRecord
100
AcDbTextStyleTableRecord
  2
TEXTSTYLE_1
 70
0
 40
0.0
 41
0.8
 50
0.0
 71
0
 42
0.2
  3
gdt
  4

  0
ENDTAB
  0
TABLE
  2
VIEW
  5
6
100
AcDbSymbolTable
 70
0
  0
ENDTAB
  0
TABLE
  2
UCS
  5
7
100
AcDbSymbolTable
 70
0
  0
ENDTAB
  0
TABLE
  2
APPID
  5
9
100
AcDbSymbolTable
 70
1
  0
APPID
  5
20B
100
AcDbSymbolTableRecord
100
AcDbRegAppTableRecord
  2
ACAD
 70
0
  0
ENDTAB
  0
TABLE
  2
BLOCK_RECORD
  5
1
100
AcDbSymbolTable
 70
0
  0
BLOCK_RECORD
  5
20C
100
AcDbSymbolTableRecord
100
AcDbBlockTableRecord
  2
*Model_Space
  0
BLOCK_RECORD
  5
20D
100
AcDbSymbolTableRecord
100
AcDbBlockTableRecord
  2
*Paper_Space
  0
ENDTAB
  0
TABLE
  2
DIMSTYLE
  5
A
100
AcDbSymbolTable
 70
1
100
AcDbDimStyleTable
 71
0
  0
DIMSTYLE
105
20E
100
AcDbSymbolTableRecord
100
AcDbDimStyleTableRecord
  2
STANDARD
 70
0
  3

  4

 40
1.0
 41
3.5
 42
0.0625
 43
0.38
 44
0.18
 45
0.0
 46
0.0
 47
0.005
 48
0.005
140
3.5
141
0.09
142
0.0
143
25.4
144
1.0
145
0.0
146
1.0
147
0.09
 71
1.0
 72
0.0
 73
0
 74
0
 75
0
 76
0
 77
1
 78
8
170
0
171
2
172
0
173
0
174
0
175
0
176
0
177
0
178
5
270
2
271
3
272
3
273
2
274
2
275
0
280
0
281
0
282
0
283
1
284
8
285
0
286
0
287
3
288
0
340
11
  0
ENDTAB
  0
ENDSEC
  0
SECTION
  2
BLOCKS
  0
BLOCK
  5
20
100
AcDbEntity
  8
0
100
AcDbBlockBegin
  2
*Model_Space
 70
0
 10
0.0
 20
0.0
 30
0.0
  3
*Model_Space
  1

  0
ENDBLK
  5
21
100
AcDbEntity
  8
0
100
AcDbBlockEnd
  0
BLOCK
  5
1C
100
AcDbEntity
  8
0
100
AcDbBlockBegin
  2
*Paper_Space
 70
0
 10
0.0
 20
0.0
 30
0.0
  3
*Paper_Space
  1

  0
ENDBLK
  5
1D
100
AcDbEntity
  8
0
100
AcDbBlockEnd
  0
ENDSEC
  0
SECTION
  2
ENTITIES
  0
MTEXT
  5
20F
100
AcDbEntity
  8
0
100
AcDbMText
 62
5
  6
CONTINUOUS
  7
STANDARD
 71
1
 72
1
 10
551.8626295295
 20
217.5075721781
 30
0.0
 11
0.0
 21
1.0
 31
0.0
 44
0.9
  1
RUD VAK-2-13
 40
7.0
 41
66.0
  0
MTEXT
  5
210
100
AcDbEntity
  8
0
100
AcDbMText
 62
5
  6
CONTINUOUS
  7
STANDARD
 71
1
 72
1
 10
111.9142692006
 20
218.1133984075
 30
0.0
 11
0.0
 21
1.0
 31
0.0
 44
0.9
  1
RUD VAK-2-13
 40
7.0
 41
66.0
  0
LINE
  5
211
100
AcDbEntity
  8
0
100
AcDbLine
 62
7
  6
CONTINUOUS
 10
0.0
 20
0.0
 11
0.0
 21
420.0
  0
LINE
  5
212
100
AcDbEntity
  8
0
100
AcDbLine
 62
7
  6
CONTINUOUS
 10
0.0
 20
0.0
 11
594.0
 21
0.0
  0
LINE
  5
213
100
AcDbEntity
  8
0
100
AcDbLine
 62
7
  6
CONTINUOUS
 10
0.0
 20
420.0
 11
594.0
 21
420.0
  0
LINE
  5
214
100
AcDbEntity
  8
0
100
AcDbLine
 62
7
  6
CONTINUOUS
 10
594.0
 20
0.0
 11
594.0
 21
420.0
  0
LINE
  5
215
100
AcDbEntity
  8
KONSTRUKTIONSELEMENTE
100
AcDbLine
 62
7
  6
CONTINUOUS
 10
228.3648308503
 20
63.0348511164
 11
230.8648308503
 21
58.7047240975
  0
LINE
  5
216
100
AcDbEntity
  8
KONSTRUKTIONSELEMENTE
100
AcDbLine
 62
7
  6
CONTINUOUS
 10
314.7960305307
 20
107.1624248264
 11
314.7317862524
 21
107.1830684019
  0
LINE
  5
217
100
AcDbEntity
  8
BEZUGSACHSEN
100
AcDbLine
 62
7
  6
CONTINUOUS
 10
340.0821079384
 20
127.5348511164
 11
342.5821079384
 21
123.2047240975
  0
LINE
  5
218
100
AcDbEntity
  8
KONSTRUKTIONSELEMENTE
100
AcDbLine
 62
7
  6
CONTINUOUS
 10
337.8566269913
 20
132.8894971882
 11
340.3566269913
 21
128.5593701692
  0
LINE
  5
219
100
AcDbEntity
  8
KONSTRUKTIONSELEMENTE
100
AcDbLine
 62
7
  6
CONTINUOUS
 10
338.2896396932
 20
133.1394971882
 11
340.7896396932
 21
128.8093701692
  0
LINE
  5
21A
100
AcDbEntity
  8
0
100
AcDbLine
 62
7
  6
CONTINUOUS
 10
460.355462609
 20
111.47294024
 11
452.0261551612
 21
114.504560223
  0
LINE
  5
21B
100
AcDbEntity
  8
KONSTRUKTIONSELEMENTE
100
AcDbLine
 62
7
  6
CONTINUOUS
 10
312.2817862524
 20
111.4265928805
 11
312.2960305307
 21
111.4925518453
  0
LINE
  5
21C
100
AcDbEntity
  8
0
100
AcDbLine
 62
7
  6
CONTINUOUS
 10
469.8187073992
 20
137.7624161058
 11
461.6754384276
 21
140.7263236211
  0
LINE
  5
21D
100
AcDbEntity
  8
0
100
AcDbLine
 62
7
  6
CONTINUOUS
 10
478.013041255
 20
160.7128463855
 11
470.1504667329
 21
163.5745894762
  0
LINE
  5
21E
100
AcDbEntity
  8
BEZUGSACHSEN
100
AcDbLine
 62
7
  6
CONTINUOUS
 10
468.1974203262
 20
166.5555297399
 11
467.671983026
 21
166.7467732771
  0
LINE
  5
21F
100
AcDbEntity
  8
BEZUGSACHSEN
100
AcDbLine
 62
7
  6
CONTINUOUS
 10
468.3051183691
 20
166.56416143
 11
467.7792078771
 21
166.7555771949
  0
LINE
  5
220
100
AcDbEntity
  8
BEZUGSACHSEN
100
AcDbLine
 62
7
  6
CONTINUOUS
 10
468.4403686335
 20
166.6525036555
 11
467.9142542574
 21
166.8439936282
  0
LINE
  5
221
100
AcDbEntity
  8
BEZUGSACHSEN
100
AcDbLine
 62
7
  6
CONTINUOUS
 10
468.6571797076
 20
166.8766790516
 11
468.1311395354
 21
167.0681420163
  0
LINE
  5
222
100
AcDbEntity
  8
BEZUGSACHSEN
100
AcDbLine
 62
7
  6
CONTINUOUS
 10
468.0091555056
 20
167.2243187292
 11
467.9817680897
 21
167.2342869334
  0
LINE
  5
223
100
AcDbEntity
  8
BEZUGSACHSEN
100
AcDbLine
 62
7
  6
CONTINUOUS
 10
468.1032474593
 20
167.2937896817
 11
467.9230155166
 21
167.3593887442
  0
LINE
  5
224
100
AcDbEntity
  8
BEZUGSACHSEN
100
AcDbLine
 62
7
  6
CONTINUOUS
 10
468.9014216818
 20
167.1806174099
 11
468.3757018254
 21
167.3719637892
  0
LINE
  5
225
100
AcDbEntity
  8
BEZUGSACHSEN
100
AcDbLine
 62
7
  6
CONTINUOUS
 10
468.3492742137
 20
167.5771892265
 11
468.0118868761
 21
167.6999881748
  0
LINE
  5
226
100
AcDbEntity
  8
BEZUGSACHSEN
100
AcDbLine
 62
7
  6
CONTINUOUS
 10
469.119177939
 20
167.5081623023
 11
468.5939966108
 21
167.6993126734
  0
LINE
  5
227
100
AcDbEntity
  8
BEZUGSACHSEN
100
AcDbLine
 62
7
  6
CONTINUOUS
 10
468.6332621515
 20
168.0122909611
 11
468.186478338
 21
168.1749069703
  0
LINE
  5
228
100
AcDbEntity
  8
BEZUGSACHSEN
100
AcDbLine
 62
7
  6
CONTINUOUS
 10
469.4180066091
 20
167.8680046654
 11
468.8931326725
 21
168.0590431551
  0
LINE
  5
229
100
AcDbEntity
  8
BEZUGSACHSEN
100
AcDbLine
 62
7
  6
CONTINUOUS
 10
469.5253398708
 20
167.8767650168
 11
469.0000301174
 21
168.0679621309
  0
LINE
  5
22A
100
AcDbEntity
  8
BEZUGSACHSEN
100
AcDbLine
 62
7
  6
CONTINUOUS
 10
469.7146453827
 20
168.0212088398
 11
469.1891579659
 21
168.212470618
  0
LINE
  5
22B
100
AcDbEntity
  8
BEZUGSACHSEN
100
AcDbLine
 62
7
  6
CONTINUOUS
 10
468.8468252884
 20
168.4590544912
 11
468.388572445
 21
168.625844886
  0
LINE
  5
22C
100
AcDbEntity
  8
BEZUGSACHSEN
100
AcDbLine
 62
7
  6
CONTINUOUS
 10
469.823081787
 20
168.1332855153
 11
469.297623234
 21
168.3245367879
  0
LINE
  5
22D
100
AcDbEntity
  8
BEZUGSACHSEN
100
AcDbLine
 62
7
  6
CONTINUOUS
 10
469.2047249473
 20
168.559869776
 11
469.1774288144
 21
168.5698047559
  0
LINE
  5
22E
100
AcDbEntity
  8
BEZUGSACHSEN
100
AcDbLine
 62
7
  6
CONTINUOUS
 10
468.9440552894
 20
168.6789273746
 11
468.5025359086
 21
168.8396272871
  0
LINE
  5
22F
100
AcDbEntity
  8
BEZUGSACHSEN
100
AcDbLine
 62
7
  6
CONTINUOUS
 10
470.0675714048
 20
168.4371295245
 11
469.5423965059
 21
168.6282775554
  0
LINE
  5
230
100
AcDbEntity
  8
BEZUGSACHSEN
100
AcDbLine
 62
7
  6
CONTINUOUS
 10
469.0513945503
 20
168.9708887767
 11
468.6710381141
 21
169.1093271979
  0
LINE
  5
231
100
AcDbEntity
  8
BEZUGSACHSEN
100
AcDbLine
 62
7
  6
CONTINUOUS
 10
469.5127653581
 20
168.8346730396
 11
469.1802750905
 21
168.9556896002
  0
LINE
  5
232
100
AcDbEntity
  8
BEZUGSACHSEN
100
AcDbLine
 62
7
  6
CONTINUOUS
 10
469.1896035733
 20
169.1618757802
 11
468.8096159334
 21
169.3001799705
  0
LINE
  5
233
100
AcDbEntity
  8
BEZUGSACHSEN
100
AcDbLine
 62
7
  6
CONTINUOUS
 10
469.6990107691
 20
169.1258604782
 11
469.2965801608
 21
169.272333241
  0
LINE
  5
234
100
AcDbEntity
  8
BEZUGSACHSEN
100
AcDbLine
 62
7
  6
CONTINUOUS
 10
470.3957340204
 20
168.9797514984
 11
469.871501306
 21
169.1705566023
  0
LINE
  5
235
100
AcDbEntity
  8
BEZUGSACHSEN
100
AcDbLine
 62
7
  6
CONTINUOUS
 10
468.845630842
 20
169.5454927073
 11
468.561544407
 21
169.6488917136
  0
LINE
  5
236
100
AcDbEntity
  8
BEZUGSACHSEN
100
AcDbLine
 62
7
  6
CONTINUOUS
 10
469.4787243137
 20
169.5053624402
 11
468.9615421348
 21
169.693601359
  0
LINE
  5
237
100
AcDbEntity
  8
BEZUGSACHSEN
100
AcDbLine
 62
7
  6
CONTINUOUS
 10
470.6166764655
 20
169.4098584443
 11
470.0933398559
 21
169.6003373927
  0
LINE
  5
238
100
AcDbEntity
  8
BEZUGSACHSEN
100
AcDbLine
 62
7
  6
CONTINUOUS
 10
470.8705442468
 20
170.0214378417
 11
470.3487282911
 21
170.2113633174
  0
LINE
  5
239
100
AcDbEntity
  8
BEZUGSACHSEN
100
AcDbLine
 62
7
  6
CONTINUOUS
 10
470.9282311169
 20
170.1799312044
 11
470.4068441869
 21
170.3697005275
  0
LINE
  5
23A
100
AcDbEntity
  8
BEZUGSACHSEN
100
AcDbLine
 62
7
  6
CONTINUOUS
 10
470.2458342737
 20
170.5819937605
 11
470.1351047915
 21
170.6222959961
  0
LINE
  5
23B
100
AcDbEntity
  8
BEZUGSACHSEN
100
AcDbLine
 62
7
  6
CONTINUOUS
 10
471.0781674655
 20
170.677794463
 11
470.5582751538
 21
170.8670197895
  0
LINE
  5
23C
100
AcDbEntity
  8
BEZUGSACHSEN
100
AcDbLine
 62
7
  6
CONTINUOUS
 10
471.0879711405
 20
170.8816573549
 11
470.5689427215
 21
171.0705682501
  0
LINE
  5
23D
100
AcDbEntity
  8
BEZUGSACHSEN
100
AcDbLine
 62
7
  6
CONTINUOUS
 10
470.9905547263
 20
170.973005189
 11
470.4724235697
 21
171.1615895075
  0
LINE
  5
23E
100
AcDbEntity
  8
BEZUGSACHSEN
100
AcDbLine
 62
7
  6
CONTINUOUS
 10
470.9119487331
 20
172.6129780873
 11
470.7486633237
 21
172.672409116
  0
LINE
  5
23F
100
AcDbEntity
  8
BEZUGSACHSEN
100
AcDbLine
 62
7
  6
CONTINUOUS
 10
471.820821522
 20
172.6283486555
 11
471.3060516424
 21
172.8157095691
  0
LINE
  5
240
100
AcDbEntity
  8
0
100
AcDbLine
 62
7
  6
CONTINUOUS
 10
520.7776857662
 20
89.7112566896
 11
517.9694136954
 21
91.9814398173
  0
LINE
  5
241
100
AcDbEntity
  8
BEZUGSACHSEN
100
AcDbLine
 62
7
  6
CONTINUOUS
 10
471.9775302932
 20
173.0629700007
 11
471.4639435958
 21
173.2499002713
  0
LINE
  5
242
100
AcDbEntity
  8
BEZUGSACHSEN
100
AcDbLine
 62
7
  6
CONTINUOUS
 10
471.0123374494
 20
174.4772981628
 11
470.5129249712
 21
174.6590694395
  0
LINE
  5
243
100
AcDbEntity
  8
BEZUGSACHSEN
100
AcDbLine
 62
7
  6
CONTINUOUS
 10
471.2122916838
 20
174.6373506617
 11
470.7122222087
 21
174.8193610656
  0
LINE
  5
244
100
AcDbEntity
  8
BEZUGSACHSEN
100
AcDbLine
 62
7
  6
CONTINUOUS
 10
471.4631825603
 20
174.9502592301
 11
470.9629942563
 21
175.1323128843
  0
LINE
  5
245
100
AcDbEntity
  8
BEZUGSACHSEN
100
AcDbLine
 62
7
  6
CONTINUOUS
 10
470.9836118333
 20
175.3479570077
 11
470.8728082623
 21
175.3882862094
  0
LINE
  5
246
100
AcDbEntity
  8
BEZUGSACHSEN
100
AcDbLine
 62
7
  6
CONTINUOUS
 10
471.2949015281
 20
175.7488431769
 11
471.0387485234
 21
175.842075246
  0
LINE
  5
247
100
AcDbEntity
  8
BEZUGSACHSEN
100
AcDbLine
 62
7
  6
CONTINUOUS
 10
471.4945194959
 20
176.0200562506
 11
471.181677684
 21
176.1339213582
  0
LINE
  5
248
100
AcDbEntity
  8
BEZUGSACHSEN
100
AcDbLine
 62
7
  6
CONTINUOUS
 10
471.2347366593
 20
176.3847436178
 11
471.0756946901
 21
176.4426301606
  0
LINE
  5
249
100
AcDbEntity
  8
BEZUGSACHSEN
100
AcDbLine
 62
7
  6
CONTINUOUS
 10
471.7013856192
 20
176.3468367927
 11
471.3734336994
 21
176.4662015298
  0
LINE
  5
24A
100
AcDbEntity
  8
BEZUGSACHSEN
100
AcDbLine
 62
7
  6
CONTINUOUS
 10
472.4668666029
 20
176.3150341903
 11
471.9668788108
 21
176.4970148641
  0
LINE
  5
24B
100
AcDbEntity
  8
BEZUGSACHSEN
100
AcDbLine
 62
7
  6
CONTINUOUS
 10
471.8567725273
 20
176.7505609643
 11
471.6132295067
 21
176.8392033745
  0
LINE
  5
24C
100
AcDbEntity
  8
BEZUGSACHSEN
100
AcDbLine
 62
7
  6
CONTINUOUS
 10
472.1578594367
 20
177.1594614805
 11
471.9005717376
 21
177.2531065446
  0
LINE
  5
24D
100
AcDbEntity
  8
BEZUGSACHSEN
100
AcDbLine
 62
7
  6
CONTINUOUS
 10
472.7280908576
 20
177.076933591
 11
472.2304585509
 21
177.2580569382
  0
LINE
  5
24E
100
AcDbEntity
  8
BEZUGSACHSEN
100
AcDbLine
 62
7
  6
CONTINUOUS
 10
471.6950272751
 20
177.5122796238
 11
471.4872809347
 21
177.587893108
  0
LINE
  5
24F
100
AcDbEntity
  8
BEZUGSACHSEN
100
AcDbLine
 62
7
  6
CONTINUOUS
 10
473.0691345781
 20
177.1338781231
 11
472.5692551102
 21
177.3158193701
  0
LINE
  5
250
100
AcDbEntity
  8
BEZUGSACHSEN
100
AcDbLine
 62
7
  6
CONTINUOUS
 10
473.4206906168
 20
177.6397487625
 11
472.921020412
 21
177.821613844
  0
LINE
  5
251
100
AcDbEntity
  8
BEZUGSACHSEN
100
AcDbLine
 62
7
  6
CONTINUOUS
 10
473.7570121227
 20
178.2072203851
 11
473.2579769973
 21
178.3888543166
  0
LINE
  5
252
100
AcDbEntity
  8
BEZUGSACHSEN
100
AcDbLine
 62
7
  6
CONTINUOUS
 10
473.1951741222
 20
178.5119958876
 11
472.9046693405
 21
178.6177309811
  0
LINE
  5
253
100
AcDbEntity
  8
BEZUGSACHSEN
100
AcDbLine
 62
7
  6
CONTINUOUS
 10
473.960715326
 20
178.5922856156
 11
473.4622746443
 21
178.7737031873
  0
LINE
  5
254
100
AcDbEntity
  8
BEZUGSACHSEN
100
AcDbLine
 62
7
  6
CONTINUOUS
 10
473.3256805542
 20
178.8687207298
 11
473.1529573184
 21
178.9315868464
  0
LINE
  5
255
100
AcDbEntity
  8
BEZUGSACHSEN
100
AcDbLine
 62
7
  6
CONTINUOUS
 10
473.0705815589
 20
178.9782622226
 11
472.8012421857
 21
179.0762937374
  0
LINE
  5
256
100
AcDbEntity
  8
BEZUGSACHSEN
100
AcDbLine
 62
7
  6
CONTINUOUS
 10
473.1251163503
 20
179.0484835114
 11
472.8933280091
 21
179.1328475683
  0
LINE
  5
257
100
AcDbEntity
  8
BEZUGSACHSEN
100
AcDbLine
 62
7
  6
CONTINUOUS
 10
473.3868170717
 20
179.0782231653
 11
473.3150846005
 21
179.1043316496
  0
LINE
  5
258
100
AcDbEntity
  8
BEZUGSACHSEN
100
AcDbLine
 62
7
  6
CONTINUOUS
 10
474.1165829167
 20
178.9365508542
 11
473.6188543258
 21
179.1177092461
  0
LINE
  5
259
100
AcDbEntity
  8
BEZUGSACHSEN
100
AcDbLine
 62
7
  6
CONTINUOUS
 10
473.3479058347
 20
179.3498904845
 11
473.1390707148
 21
179.425900252
  0
LINE
  5
25A
100
AcDbEntity
  8
BEZUGSACHSEN
100
AcDbLine
 62
7
  6
CONTINUOUS
 10
473.5728966082
 20
179.6054606259
 11
473.3383734625
 21
179.6908200702
  0
LINE
  5
25B
100
AcDbEntity
  8
BEZUGSACHSEN
100
AcDbLine
 62
7
  6
CONTINUOUS
 10
474.2811855821
 20
179.3908267359
 11
473.7846880945
 21
179.5715370428
  0
LINE
  5
25C
100
AcDbEntity
  8
BEZUGSACHSEN
100
AcDbLine
 62
7
  6
CONTINUOUS
 10
474.3082047395
 20
179.5513134622
 11
473.8123721593
 21
179.7317817626
  0
LINE
  5
25D
100
AcDbEntity
  8
BEZUGSACHSEN
100
AcDbLine
 62
7
  6
CONTINUOUS
 10
474.1120909772
 20
179.9131186542
 11
473.6197977078
 21
180.0922987508
  0
LINE
  5
25E
100
AcDbEntity
  8
BEZUGSACHSEN
100
AcDbLine
 62
7
  6
CONTINUOUS
 10
473.6235251117
 20
180.2117457067
 11
473.3870266491
 21
180.2978241075
  0
LINE
  5
25F
100
AcDbEntity
  8
BEZUGSACHSEN
100
AcDbLine
 62
7
  6
CONTINUOUS
 10
474.3348369486
 20
180.2504482291
 11
473.8426795153
 21
180.4295788855
  0
LINE
  5
260
100
AcDbEntity
  8
BEZUGSACHSEN
100
AcDbLine
 62
7
  6
CONTINUOUS
 10
474.6518552484
 20
180.7603840428
 11
474.1600535712
 21
180.9393852145
  0
LINE
  5
261
100
AcDbEntity
  8
BEZUGSACHSEN
100
AcDbLine
 62
7
  6
CONTINUOUS
 10
474.911496498
 20
181.205697497
 11
474.4201327136
 21
181.3845392888
  0
LINE
  5
262
100
AcDbEntity
  8
BEZUGSACHSEN
100
AcDbLine
 62
7
  6
CONTINUOUS
 10
475.0441927929
 20
181.485731218
 11
474.5533414418
 21
181.6643864992
  0
LINE
  5
263
100
AcDbEntity
  8
BEZUGSACHSEN
100
AcDbLine
 62
7
  6
CONTINUOUS
 10
475.3685543694
 20
182.3389745575
 11
474.8798900873
 21
182.5168338107
  0
LINE
  5
264
100
AcDbEntity
  8
0
100
AcDbLine
 62
7
  6
CONTINUOUS
 10
484.7559398919
 20
179.2388081321
 11
476.8933653698
 21
182.1005512228
  0
LINE
  5
265
100
AcDbEntity
  8
KONSTRUKTIONSELEMENTE
100
AcDbLine
 62
7
  6
CONTINUOUS
 10
408.4376973997
 20
173.6394971882
 11
410.9376973997
 21
169.3093701692
  0
LINE
  5
266
100
AcDbEntity
  8
KONSTRUKTIONSELEMENTE
100
AcDbLine
 62
7
  6
CONTINUOUS
 10
408.8707101016
 20
173.8894971882
 11
411.3707101016
 21
169.5593701692
  0
LINE
  5
267
100
AcDbEntity
  8
0
100
AcDbLine
 62
7
  6
CONTINUOUS
 10
479.4689234664
 20
189.1768389357
 11
487.3314979886
 21
186.315095845
  0
LINE
  5
268
100
AcDbEntity
  8
RUNDUNGEN
100
AcDbLine
 62
7
  6
CONTINUOUS
 10
435.1470138821
 20
100.2599811101
 11
434.4549982537
 21
103.8041647717
  0
LINE
  5
269
100
AcDbEntity
  8
0
100
AcDbLine
 62
7
  6
CONTINUOUS
 10
416.4535408988
 20
212.6197876069
 11
416.4535408988
 21
292.6197876069
  0
LINE
  5
26A
100
AcDbEntity
  8
RUNDUNGEN
100
AcDbLine
 62
7
  6
CONTINUOUS
 10
543.5353313522
 20
120.9850458548
 11
529.9663704903
 21
132.3707559094
  0
LINE
  5
26B
100
AcDbEntity
  8
0
100
AcDbLine
 62
7
  6
CONTINUOUS
 10
442.4535408988
 20
212.6197876069
 11
442.4535408988
 21
292.6197876069
  0
LINE
  5
26C
100
AcDbEntity
  8
KONSTRUKTIONSELEMENTE
100
AcDbLine
 62
7
  6
CONTINUOUS
 10
334.3925253761
 20
130.8894971882
 11
337.8566269913
 21
132.8894971882
  0
LINE
  5
26D
100
AcDbEntity
  8
KONSTRUKTIONSELEMENTE
100
AcDbLine
 62
7
  6
CONTINUOUS
 10
338.2896396932
 20
133.1394971882
 11
341.7537413083
 21
135.1394971882
  0
LINE
  5
26E
100
AcDbEntity
  8
KONSTRUKTIONSELEMENTE
100
AcDbLine
 62
7
  6
CONTINUOUS
 10
404.9735957846
 20
171.6394971882
 11
408.4376973997
 21
173.6394971882
  0
LINE
  5
26F
100
AcDbEntity
  8
KONSTRUKTIONSELEMENTE
100
AcDbLine
 62
7
  6
CONTINUOUS
 10
408.8707101016
 20
173.8894971882
 11
412.3348117167
 21
175.8894971882
  0
LINE
  5
270
100
AcDbEntity
  8
KONSTRUKTIONSELEMENTE
100
AcDbLine
 62
7
  6
CONTINUOUS
 10
367.209984369
 20
149.5479908372
 11
380.2003654258
 21
157.0479908372
  0
LINE
  5
271
100
AcDbEntity
  8
KONSTRUKTIONSELEMENTE
100
AcDbLine
 62
7
  6
CONTINUOUS
 10
369.459984369
 20
145.6508765202
 11
382.4503654258
 21
153.1508765202
  0
LINE
  5
272
100
AcDbEntity
  8
KONSTRUKTIONSELEMENTE
100
AcDbLine
 62
7
  6
CONTINUOUS
 10
336.8925253761
 20
126.5593701692
 11
340.3566269913
 21
128.5593701692
  0
LINE
  5
273
100
AcDbEntity
  8
KONSTRUKTIONSELEMENTE
100
AcDbLine
 62
7
  6
CONTINUOUS
 10
340.7896396932
 20
128.8093701692
 11
344.2537413083
 21
130.8093701692
  0
LINE
  5
274
100
AcDbEntity
  8
KONSTRUKTIONSELEMENTE
100
AcDbLine
 62
7
  6
CONTINUOUS
 10
407.4735957846
 20
167.3093701692
 11
410.9376973997
 21
169.3093701692
  0
LINE
  5
275
100
AcDbEntity
  8
KONSTRUKTIONSELEMENTE
100
AcDbLine
 62
7
  6
CONTINUOUS
 10
411.3707101016
 20
169.5593701692
 11
414.8348117167
 21
171.5593701692
  0
LINE
  5
276
100
AcDbEntity
  8
KONSTRUKTIONSELEMENTE
100
AcDbLine
 62
7
  6
CONTINUOUS
 10
450.250346921
 20
191.7178638183
 11
414.7433053658
 21
171.2178638183
  0
LINE
  5
277
100
AcDbEntity
  8
BEZUGSACHSEN
100
AcDbLine
 62
7
  6
CONTINUOUS
 10
340.0818073523
 20
127.5346775729
 11
338.7838705534
 21
126.7853134127
  0
LINE
  5
278
100
AcDbEntity
  8
KONSTRUKTIONSELEMENTE
100
AcDbLine
 62
7
  6
CONTINUOUS
 10
228.3648308503
 20
63.0348511164
 11
338.7838705534
 21
126.7853134127
  0
LINE
  5
279
100
AcDbEntity
  8
KONSTRUKTIONSELEMENTE
100
AcDbLine
 62
7
  6
CONTINUOUS
 10
407.1075703808
 20
165.9433447655
 11
384.194204407
 21
152.7143067524
  0
LINE
  5
27A
100
AcDbEntity
  8
KONSTRUKTIONSELEMENTE
100
AcDbLine
 62
7
  6
CONTINUOUS
 10
369.0024526143
 20
143.9433447655
 11
346.0890866404
 21
130.7143067524
  0
LINE
  5
27B
100
AcDbEntity
  8
KONSTRUKTIONSELEMENTE
100
AcDbLine
 62
7
  6
CONTINUOUS
 10
409.3575703808
 20
162.0462304484
 11
386.444204407
 21
148.8171924354
  0
LINE
  5
27C
100
AcDbEntity
  8
KONSTRUKTIONSELEMENTE
100
AcDbLine
 62
7
  6
CONTINUOUS
 10
371.2524526143
 20
140.0462304484
 11
348.3390866404
 21
126.8171924354
  0
LINE
  5
27D
100
AcDbEntity
  8
BEZUGSACHSEN
100
AcDbLine
 62
7
  6
CONTINUOUS
 10
342.5818073523
 20
123.204550554
 11
341.2838705534
 21
122.4551863938
  0
LINE
  5
27E
100
AcDbEntity
  8
KONSTRUKTIONSELEMENTE
100
AcDbLine
 62
7
  6
CONTINUOUS
 10
230.8648308503
 20
58.7047240975
 11
341.2838705534
 21
122.4551863938
  0
LINE
  5
27F
100
AcDbEntity
  8
KONSTRUKTIONSELEMENTE
100
AcDbLine
 62
7
  6
CONTINUOUS
 10
453.250346921
 20
186.5217113956
 11
417.8039426402
 21
166.0567203423
  0
LINE
  5
280
100
AcDbEntity
  8
KONSTRUKTIONSELEMENTE
100
AcDbLine
 62
7
  6
CONTINUOUS
 10
418.0848117167
 20
165.9302050446
 11
410.7235957846
 21
161.6802050446
  0
LINE
  5
281
100
AcDbEntity
  8
KONSTRUKTIONSELEMENTE
100
AcDbLine
 62
7
  6
CONTINUOUS
 10
347.5037413083
 20
125.1802050446
 11
340.1425253761
 21
120.9302050446
  0
LINE
  5
282
100
AcDbEntity
  8
KONSTRUKTIONSELEMENTE
100
AcDbLine
 62
7
  6
CONTINUOUS
 10
385.9503654258
 20
147.0886986937
 11
372.959984369
 21
139.5886986937
  0
LINE
  5
283
100
AcDbEntity
  8
KONSTRUKTIONSELEMENTE
100
AcDbLine
 62
7
  6
CONTINUOUS
 10
388.2003654258
 20
143.1915843767
 11
375.209984369
 21
135.6915843767
  0
LINE
  5
284
100
AcDbEntity
  8
KONSTRUKTIONSELEMENTE
100
AcDbLine
 62
7
  6
CONTINUOUS
 10
420.5848117167
 20
161.6000780257
 11
413.2235957846
 21
157.3500780257
  0
LINE
  5
285
100
AcDbEntity
  8
KONSTRUKTIONSELEMENTE
100
AcDbLine
 62
7
  6
CONTINUOUS
 10
350.0037413083
 20
120.8500780257
 11
342.6425253761
 21
116.6000780257
  0
LINE
  5
286
100
AcDbEntity
  8
0
100
AcDbLine
 62
7
  6
CONTINUOUS
 10
505.4381583312
 20
189.1768389357
 11
497.5755838091
 21
186.315095845
  0
LINE
  5
287
100
AcDbEntity
  8
0
100
AcDbLine
 62
7
  6
CONTINUOUS
 10
469.6069334598
 20
127.0327875266
 11
472.6827860051
 21
109.588760907
  0
LINE
  5
288
100
AcDbEntity
  8
RUNDUNGEN
100
AcDbLine
 62
7
  6
CONTINUOUS
 10
438.4027003345
 20
116.7448028568
 11
434.6638663734
 21
106.4724409738
  0
LINE
  5
289
100
AcDbEntity
  8
KONSTRUKTIONSELEMENTE
100
AcDbLine
 62
7
  6
CONTINUOUS
 10
447.4378050837
 20
126.9495271368
 11
450.0613044012
 21
134.1575322717
  0
LINE
  5
28A
100
AcDbEntity
  8
0
100
AcDbLine
 62
7
  6
CONTINUOUS
 10
500.1511419057
 20
179.2388081321
 11
508.0137164278
 21
182.1005512228
  0
LINE
  5
28B
100
AcDbEntity
  8
BEZUGSACHSEN
100
AcDbLine
 62
7
  6
CONTINUOUS
 10
509.9494694136
 20
182.4885452082
 11
510.0271917104
 21
182.5168338107
  0
LINE
  5
28C
100
AcDbEntity
  8
BEZUGSACHSEN
100
AcDbLine
 62
7
  6
CONTINUOUS
 10
510.310859978
 20
180.3416416991
 11
510.8045558525
 21
180.5213323021
  0
LINE
  5
28D
100
AcDbEntity
  8
BEZUGSACHSEN
100
AcDbLine
 62
7
  6
CONTINUOUS
 10
510.3293212838
 20
180.2052359381
 11
510.8236228606
 21
180.3851469988
  0
LINE
  5
28E
100
AcDbEntity
  8
BEZUGSACHSEN
100
AcDbLine
 62
7
  6
CONTINUOUS
 10
511.2289268147
 20
179.8298701609
 11
511.3138282055
 21
179.86077174
  0
LINE
  5
28F
100
AcDbEntity
  8
BEZUGSACHSEN
100
AcDbLine
 62
7
  6
CONTINUOUS
 10
511.3109770652
 20
179.6080045991
 11
511.4823205757
 21
179.6703685368
  0
LINE
  5
290
100
AcDbEntity
  8
BEZUGSACHSEN
100
AcDbLine
 62
7
  6
CONTINUOUS
 10
510.719517193
 20
179.0898327577
 11
511.2169417112
 21
179.2708804761
  0
LINE
  5
291
100
AcDbEntity
  8
BEZUGSACHSEN
100
AcDbLine
 62
7
  6
CONTINUOUS
 10
511.4450914709
 20
179.2338579809
 11
511.736597997
 21
179.3399576795
  0
LINE
  5
292
100
AcDbEntity
  8
BEZUGSACHSEN
100
AcDbLine
 62
7
  6
CONTINUOUS
 10
511.0794700288
 20
178.1094437584
 11
511.5795142505
 21
178.2914449709
  0
LINE
  5
293
100
AcDbEntity
  8
BEZUGSACHSEN
100
AcDbLine
 62
7
  6
CONTINUOUS
 10
511.2166278457
 20
177.7529230175
 11
511.7175827783
 21
177.9352557017
  0
LINE
  5
294
100
AcDbEntity
  8
BEZUGSACHSEN
100
AcDbLine
 62
7
  6
CONTINUOUS
 10
512.3925848225
 20
177.7961446046
 11
512.7575385504
 21
177.9289768985
  0
LINE
  5
295
100
AcDbEntity
  8
BEZUGSACHSEN
100
AcDbLine
 62
7
  6
CONTINUOUS
 10
513.1559812328
 20
177.73469594
 11
513.3326722588
 21
177.7990062141
  0
LINE
  5
296
100
AcDbEntity
  8
BEZUGSACHSEN
100
AcDbLine
 62
7
  6
CONTINUOUS
 10
512.6949169581
 20
177.378439393
 11
513.0478767005
 21
177.5069062331
  0
LINE
  5
297
100
AcDbEntity
  8
BEZUGSACHSEN
100
AcDbLine
 62
7
  6
CONTINUOUS
 10
513.2874847374
 20
177.5397339768
 11
513.4198008629
 21
177.587893108
  0
LINE
  5
298
100
AcDbEntity
  8
BEZUGSACHSEN
100
AcDbLine
 62
7
  6
CONTINUOUS
 10
512.9591782944
 20
177.0133226964
 11
513.2880515426
 21
177.1330227696
  0
LINE
  5
299
100
AcDbEntity
  8
BEZUGSACHSEN
100
AcDbLine
 62
7
  6
CONTINUOUS
 10
511.7391397447
 20
176.3173333813
 11
512.2439688792
 21
176.5010761597
  0
LINE
  5
29A
100
AcDbEntity
  8
BEZUGSACHSEN
100
AcDbLine
 62
7
  6
CONTINUOUS
 10
513.1853745343
 20
176.7007971071
 11
513.4775702955
 21
176.8071476667
  0
LINE
  5
29B
100
AcDbEntity
  8
BEZUGSACHSEN
100
AcDbLine
 62
7
  6
CONTINUOUS
 10
511.8632379358
 20
175.9560591316
 11
512.3690886863
 21
176.1401737477
  0
LINE
  5
29C
100
AcDbEntity
  8
BEZUGSACHSEN
100
AcDbLine
 62
7
  6
CONTINUOUS
 10
513.373505332
 20
176.4408626655
 11
513.6156455474
 21
176.5289944964
  0
LINE
  5
29D
100
AcDbEntity
  8
BEZUGSACHSEN
100
AcDbLine
 62
7
  6
CONTINUOUS
 10
513.2441712123
 20
175.2084226284
 11
513.6987695983
 21
175.3738829095
  0
LINE
  5
29E
100
AcDbEntity
  8
BEZUGSACHSEN
100
AcDbLine
 62
7
  6
CONTINUOUS
 10
513.5407692574
 20
174.8250910888
 11
513.9772990257
 21
174.9839749308
  0
LINE
  5
29F
100
AcDbEntity
  8
BEZUGSACHSEN
100
AcDbLine
 62
7
  6
CONTINUOUS
 10
514.215939039
 20
174.7770314642
 11
514.4152031893
 21
174.8495576837
  0
LINE
  5
2A0
100
AcDbEntity
  8
BEZUGSACHSEN
100
AcDbLine
 62
7
  6
CONTINUOUS
 10
512.6614178087
 20
174.1494279043
 11
513.1713262108
 21
174.3350193848
  0
LINE
  5
2A1
100
AcDbEntity
  8
BEZUGSACHSEN
100
AcDbLine
 62
7
  6
CONTINUOUS
 10
512.5922116086
 20
174.0715253366
 11
513.1029009833
 21
174.257401068
  0
LINE
  5
2A2
100
AcDbEntity
  8
BEZUGSACHSEN
100
AcDbLine
 62
7
  6
CONTINUOUS
 10
513.8143367252
 20
174.4715229923
 11
514.2146259729
 21
174.6172163636
  0
LINE
  5
2A3
100
AcDbEntity
  8
BEZUGSACHSEN
100
AcDbLine
 62
7
  6
CONTINUOUS
 10
512.6659526068
 20
173.7843772709
 11
513.177594536
 21
173.9705997037
  0
LINE
  5
2A4
100
AcDbEntity
  8
BEZUGSACHSEN
100
AcDbLine
 62
7
  6
CONTINUOUS
 10
514.0648725324
 20
174.1477174829
 11
514.4102546836
 21
174.2734263054
  0
LINE
  5
2A5
100
AcDbEntity
  8
BEZUGSACHSEN
100
AcDbLine
 62
7
  6
CONTINUOUS
 10
513.4635735849
 20
173.6481913246
 11
513.6376961674
 21
173.7115667618
  0
LINE
  5
2A6
100
AcDbEntity
  8
BEZUGSACHSEN
100
AcDbLine
 62
7
  6
CONTINUOUS
 10
514.2985619457
 20
173.8559259618
 11
514.5633976362
 21
173.9523182701
  0
LINE
  5
2A7
100
AcDbEntity
  8
BEZUGSACHSEN
100
AcDbLine
 62
7
  6
CONTINUOUS
 10
513.5524315554
 20
173.4098831385
 11
513.8143125517
 21
173.505200026
  0
LINE
  5
2A8
100
AcDbEntity
  8
BEZUGSACHSEN
100
AcDbLine
 62
7
  6
CONTINUOUS
 10
514.4814375339
 20
173.6515257009
 11
514.651248384
 21
173.7133317958
  0
LINE
  5
2A9
100
AcDbEntity
  8
BEZUGSACHSEN
100
AcDbLine
 62
7
  6
CONTINUOUS
 10
514.0000552103
 20
173.4513311923
 11
514.3500577769
 21
173.5787217085
  0
LINE
  5
2AA
100
AcDbEntity
  8
BEZUGSACHSEN
100
AcDbLine
 62
7
  6
CONTINUOUS
 10
513.666140798
 20
173.099779596
 11
514.0179999465
 21
173.2278458527
  0
LINE
  5
2AB
100
AcDbEntity
  8
BEZUGSACHSEN
100
AcDbLine
 62
7
  6
CONTINUOUS
 10
514.2382778136
 20
173.0763477091
 11
514.6490382904
 21
173.2258522961
  0
LINE
  5
2AC
100
AcDbEntity
  8
BEZUGSACHSEN
100
AcDbLine
 62
7
  6
CONTINUOUS
 10
513.7754866194
 20
172.7974634645
 11
514.1896826194
 21
172.9482184796
  0
LINE
  5
2AD
100
AcDbEntity
  8
BEZUGSACHSEN
100
AcDbLine
 62
7
  6
CONTINUOUS
 10
514.3707558719
 20
172.8365025509
 11
514.8634298192
 21
173.015821203
  0
LINE
  5
2AE
100
AcDbEntity
  8
BEZUGSACHSEN
100
AcDbLine
 62
7
  6
CONTINUOUS
 10
514.530702416
 20
172.7421355192
 11
515.0356996456
 21
172.9259394792
  0
LINE
  5
2AF
100
AcDbEntity
  8
BEZUGSACHSEN
100
AcDbLine
 62
7
  6
CONTINUOUS
 10
513.8805903461
 20
172.5029791344
 11
514.3288921746
 21
172.6661476559
  0
LINE
  5
2B0
100
AcDbEntity
  8
BEZUGSACHSEN
100
AcDbLine
 62
7
  6
CONTINUOUS
 10
513.2773228905
 20
172.0667184306
 11
513.7936797134
 21
172.2546569444
  0
LINE
  5
2B1
100
AcDbEntity
  8
KONSTRUKTIONSELEMENTE
100
AcDbLine
 62
7
  6
CONTINUOUS
 10
505.4381583312
 20
189.1768389357
 11
514.4255462738
 21
175.8524883632
  0
LINE
  5
2B2
100
AcDbEntity
  8
0
100
AcDbLine
 62
7
  6
CONTINUOUS
 10
516.4142810759
 20
94.159715814
 11
512.6754471149
 21
104.4320776971
  0
LINE
  5
2B3
100
AcDbEntity
  8
0
100
AcDbLine
 62
7
  6
CONTINUOUS
 10
513.0372685735
 20
118.0570034103
 11
510.413769256
 21
125.2650085452
  0
LINE
  5
2B4
100
AcDbEntity
  8
0
100
AcDbLine
 62
7
  6
CONTINUOUS
 10
485.651509125
 20
170.3310695178
 11
487.3314979886
 21
186.315095845
  0
LINE
  5
2B5
100
AcDbEntity
  8
0
100
AcDbLine
 62
7
  6
CONTINUOUS
 10
463.814784351
 20
147.305611115
 11
461.6754384276
 21
140.7263236211
  0
LINE
  5
2B6
100
AcDbEntity
  8
KONSTRUKTIONSELEMENTE
100
AcDbLine
 62
7
  6
CONTINUOUS
 10
456.8397791646
 20
138.8931677216
 11
461.0964879604
 21
150.5883790192
  0
LINE
  5
2B7
100
AcDbEntity
  8
RUNDUNGEN
100
AcDbLine
 62
7
  6
CONTINUOUS
 10
456.839781714
 20
138.8931747261
 11
461.0964879604
 21
150.5883790192
  0
LINE
  5
2B8
100
AcDbEntity
  8
BEZUGSACHSEN
100
AcDbLine
 62
7
  6
CONTINUOUS
 10
460.9643408966
 20
150.2253079454
 11
469.8176052345
 21
174.5494518023
  0
LINE
  5
2B9
100
AcDbEntity
  8
RUNDUNGEN
100
AcDbLine
 62
7
  6
CONTINUOUS
 10
453.8424045496
 20
119.2052399157
 11
461.6754384276
 21
140.7263236211
  0
LINE
  5
2BA
100
AcDbEntity
  8
0
100
AcDbLine
 62
7
  6
CONTINUOUS
 10
461.9856735213
 20
116.2413324005
 11
469.8187073992
 21
137.7624161058
  0
LINE
  5
2BB
100
AcDbEntity
  8
KONSTRUKTIONSELEMENTE
100
AcDbLine
 62
7
  6
CONTINUOUS
 10
479.4689234664
 20
189.1768389357
 11
474.9576123841
 21
182.4885452082
  0
LINE
  5
2BC
100
AcDbEntity
  8
KONSTRUKTIONSELEMENTE
100
AcDbLine
 62
7
  6
CONTINUOUS
 10
471.6195970602
 20
177.5397339768
 11
470.4815355239
 21
175.8524883632
  0
LINE
  5
2BD
100
AcDbEntity
  8
BEZUGSACHSEN
100
AcDbLine
 62
7
  6
CONTINUOUS
 10
515.2471294646
 20
171.0495569931
 11
515.7569123367
 21
171.2351027845
  0
LINE
  5
2BE
100
AcDbEntity
  8
BEZUGSACHSEN
100
AcDbLine
 62
7
  6
CONTINUOUS
 10
516.0429673267
 20
168.8331532719
 11
516.5601084232
 21
169.0213772379
  0
LINE
  5
2BF
100
AcDbEntity
  8
0
100
AcDbLine
 62
7
  6
CONTINUOUS
 10
506.8940405426
 20
160.7128463855
 11
514.7566150647
 21
163.5745894762
  0
LINE
  5
2C0
100
AcDbEntity
  8
0
100
AcDbLine
 62
7
  6
CONTINUOUS
 10
512.4981239734
 20
144.1775877826
 11
515.0883743985
 21
137.7624161058
  0
LINE
  5
2C1
100
AcDbEntity
  8
0
100
AcDbLine
 62
7
  6
CONTINUOUS
 10
512.5623743901
 20
133.2498353567
 11
499.5845483202
 21
168.9061194375
  0
LINE
  5
2C2
100
AcDbEntity
  8
0
100
AcDbLine
 62
7
  6
CONTINUOUS
 10
515.0883743985
 20
137.7624161058
 11
522.9214082764
 21
116.2413324005
  0
LINE
  5
2C3
100
AcDbEntity
  8
RUNDUNGEN
100
AcDbLine
 62
7
  6
CONTINUOUS
 10
523.2316433701
 20
140.7263236211
 11
531.064677248
 21
119.2052399157
  0
LINE
  5
2C4
100
AcDbEntity
  8
0
100
AcDbLine
 62
7
  6
CONTINUOUS
 10
499.2555726727
 20
170.3310695178
 11
497.5755838091
 21
186.315095845
  0
LINE
  5
2C5
100
AcDbEntity
  8
0
100
AcDbLine
 62
7
  6
CONTINUOUS
 10
472.3447074076
 20
133.2498353567
 11
485.3225334775
 21
168.9061194375
  0
LINE
  5
2C6
100
AcDbEntity
  8
0
100
AcDbLine
 62
7
  6
CONTINUOUS
 10
471.8698132241
 20
118.0570034103
 11
474.4933125417
 21
125.2650085452
  0
LINE
  5
2C7
100
AcDbEntity
  8
0
100
AcDbLine
 62
7
  6
CONTINUOUS
 10
472.2316346828
 20
104.4320776971
 11
468.4928007217
 21
94.159715814
  0
LINE
  5
2C8
100
AcDbEntity
  8
0
100
AcDbLine
 62
7
  6
CONTINUOUS
 10
472.4089578242
 20
144.1775877826
 11
469.8187073992
 21
137.7624161058
  0
LINE
  5
2C9
100
AcDbEntity
  8
RUNDUNGEN
100
AcDbLine
 62
7
  6
CONTINUOUS
 10
454.9407943697
 20
132.370825607
 11
441.3717504455
 21
120.9850458548
  0
LINE
  5
2CA
100
AcDbEntity
  8
BEZUGSACHSEN
100
AcDbLine
 62
7
  6
CONTINUOUS
 10
515.0894765631
 20
174.5494518023
 11
523.8796867364
 21
150.3985478391
  0
LINE
  5
2CB
100
AcDbEntity
  8
KONSTRUKTIONSELEMENTE
100
AcDbLine
 62
7
  6
CONTINUOUS
 10
523.8105938373
 20
150.5883790192
 11
528.0673026331
 21
138.8931677216
  0
LINE
  5
2CC
100
AcDbEntity
  8
RUNDUNGEN
100
AcDbLine
 62
7
  6
CONTINUOUS
 10
523.8105938455
 20
150.5883789967
 11
528.0672999741
 21
138.8931750272
  0
LINE
  5
2CD
100
AcDbEntity
  8
KONSTRUKTIONSELEMENTE
100
AcDbLine
 62
7
  6
CONTINUOUS
 10
537.469276714
 20
126.9495271368
 11
534.8457773964
 21
134.1575322717
  0
LINE
  5
2CE
100
AcDbEntity
  8
RUNDUNGEN
100
AcDbLine
 62
7
  6
CONTINUOUS
 10
550.2432154242
 20
106.4724409738
 11
546.5043814632
 21
116.7448028568
  0
LINE
  5
2CF
100
AcDbEntity
  8
0
100
AcDbLine
 62
7
  6
CONTINUOUS
 10
521.0922974467
 20
147.305611115
 11
523.2316433701
 21
140.7263236211
  0
LINE
  5
2D0
100
AcDbEntity
  8
0
100
AcDbLine
 62
7
  6
CONTINUOUS
 10
515.0883743985
 20
137.7624161058
 11
523.2316433701
 21
140.7263236211
  0
LINE
  5
2D1
100
AcDbEntity
  8
0
100
AcDbLine
 62
7
  6
CONTINUOUS
 10
512.2242957926
 20
109.588760907
 11
515.3001295091
 21
127.0326807437
  0
LINE
  5
2D2
100
AcDbEntity
  8
0
100
AcDbLine
 62
7
  6
CONTINUOUS
 10
464.1293960315
 20
89.7112566896
 11
466.9376681023
 21
91.9814398173
  0
LINE
  5
2D3
100
AcDbEntity
  8
0
100
AcDbLine
 62
7
  6
CONTINUOUS
 10
524.5516191886
 20
111.47294024
 11
532.8809266365
 21
114.504560223
  0
LINE
  5
2D4
100
AcDbEntity
  8
0
100
AcDbLine
 62
7
  6
CONTINUOUS
 10
542.4535408988
 20
292.6197876069
 11
542.4535408988
 21
212.6197876069
  0
LINE
  5
2D5
100
AcDbEntity
  8
0
100
AcDbLine
 62
7
  6
CONTINUOUS
 10
568.4535408988
 20
292.6197876069
 11
568.4535408988
 21
212.6197876069
  0
LINE
  5
2D6
100
AcDbEntity
  8
RUNDUNGEN
100
AcDbLine
 62
7
  6
CONTINUOUS
 10
549.7600679156
 20
100.2599811101
 11
550.452083544
 21
103.8041647717
  0
LINE
  5
2D7
100
AcDbEntity
  8
KONSTRUKTIONSELEMENTE
100
AcDbLine
 62
7
  6
CONTINUOUS
 10
109.4132267181
 20
58.7047240975
 11
121.2432267181
 21
58.7047240975
  0
LINE
  5
2D8
100
AcDbEntity
  8
KONSTRUKTIONSELEMENTE
100
AcDbLine
 62
7
  6
CONTINUOUS
 10
108.7632267181
 20
59.2676406099
 11
109.4132267181
 21
59.2676406099
  0
LINE
  5
2D9
100
AcDbEntity
  8
KONSTRUKTIONSELEMENTE
100
AcDbLine
 62
7
  6
CONTINUOUS
 10
121.2432267181
 20
59.2676406099
 11
121.8932267181
 21
59.2676406099
  0
LINE
  5
2DA
100
AcDbEntity
  8
KONSTRUKTIONSELEMENTE
100
AcDbLine
 62
7
  6
CONTINUOUS
 10
104.2132267181
 20
71.7047240975
 11
102.6263402778
 21
71.7047240975
  0
LINE
  5
2DB
100
AcDbEntity
  8
KONSTRUKTIONSELEMENTE
100
AcDbLine
 62
7
  6
CONTINUOUS
 10
126.4432267181
 20
71.7047240975
 11
144.7321736389
 21
71.7047240975
  0
LINE
  5
2DC
100
AcDbEntity
  8
0
100
AcDbLine
 62
7
  6
CONTINUOUS
 10
97.7637915859
 20
85.709412858
 11
97.7672091331
 21
85.7101261671
  0
LWPOLYLINE
  5
2DD
100
AcDbEntity
  8
0
100
AcDbPolyline
 62
7
  6
CONTINUOUS
 90
8
 70
0
 10
139.2355790964
 20
85.7094150503
 10
139.3815828542
 20
85.7126586115
 10
139.8319590865
 20
85.7604601459
 10
140.275893419
 20
85.858286288
 10
140.7225613676
 20
86.0011444821
 10
141.1776355779
 20
86.186224664
 10
141.6484294247
 20
86.4134864167
 10
142.141223783
 20
86.6843782051
  0
LINE
  5
2DE
100
AcDbEntity
  8
0
100
AcDbLine
 62
7
  6
CONTINUOUS
 10
139.2339270958
 20
85.7094128604
 11
139.2355603981
 21
85.7094141095
  0
LINE
  5
2DF
100
AcDbEntity
  8
KONSTRUKTIONSELEMENTE
100
AcDbLine
 62
7
  6
CONTINUOUS
 10
139.2349235041
 20
85.7094128579
 11
132.8953814329
 21
85.7094128579
  0
LINE
  5
2E0
100
AcDbEntity
  8
KONSTRUKTIONSELEMENTE
100
AcDbLine
 62
7
  6
CONTINUOUS
 10
97.7610720034
 20
85.7094128579
 11
91.4208624599
 21
85.7094128579
  0
LINE
  5
2E1
100
AcDbEntity
  8
0
100
AcDbLine
 62
7
  6
CONTINUOUS
 10
91.4208789414
 20
85.7094141115
 11
91.4224811666
 21
85.709412863
  0
LINE
  5
2E2
100
AcDbEntity
  8
0
100
AcDbLine
 62
7
  6
CONTINUOUS
 10
91.2748705821
 20
85.7126586115
 11
91.4208743398
 21
85.7094150503
  0
LINE
  5
2E3
100
AcDbEntity
  8
0
100
AcDbLine
 62
7
  6
CONTINUOUS
 10
132.8892443031
 20
85.7101261671
 11
132.8926618503
 21
85.709412858
  0
LINE
  5
2E4
100
AcDbEntity
  8
KONSTRUKTIONSELEMENTE
100
AcDbLine
 62
7
  6
CONTINUOUS
 10
150.5332421122
 20
74.2538002104
 11
142.8749413117
 21
76.0393623663
  0
LINE
  5
2E5
100
AcDbEntity
  8
KONSTRUKTIONSELEMENTE
100
AcDbLine
 62
7
  6
CONTINUOUS
 10
150.5332421122
 20
78.5839272293
 11
142.8749413117
 21
80.3694893852
  0
LWPOLYLINE
  5
2E6
100
AcDbEntity
  8
0
100
AcDbPolyline
 62
7
  6
CONTINUOUS
 90
6
 70
0
 10
89.0108351088
 20
86.4120328404
 10
89.4810579677
 20
86.1852253929
 10
89.9356531945
 20
86.0005017917
 10
90.381943901
 20
85.8579103954
 10
90.825566158
 20
85.7602812466
 10
91.275667917
 20
85.7126252807
  0
LINE
  5
2E7
100
AcDbEntity
  8
0
100
AcDbLine
 62
7
  6
CONTINUOUS
 10
88.5152296533
 20
86.6843782051
 11
89.0080240115
 21
86.4134864167
  0
LINE
  5
2E8
100
AcDbEntity
  8
0
100
AcDbLine
 62
7
  6
CONTINUOUS
 10
87.9975847039
 20
86.9996879994
 11
88.5186977113
 21
86.6823663581
  0
LINE
  5
2E9
100
AcDbEntity
  8
0
100
AcDbLine
 62
7
  6
CONTINUOUS
 10
87.452450708
 20
87.3606686058
 11
88.001790072
 21
86.9970125545
  0
LINE
  5
2EA
100
AcDbEntity
  8
0
100
AcDbLine
 62
7
  6
CONTINUOUS
 10
86.8788800065
 20
87.7678770785
 11
87.4574646821
 21
87.3572267262
  0
LINE
  5
2EB
100
AcDbEntity
  8
0
100
AcDbLine
 62
7
  6
CONTINUOUS
 10
86.2761061894
 20
88.2219512141
 11
86.8847576048
 21
87.763575344
  0
LINE
  5
2EC
100
AcDbEntity
  8
0
100
AcDbLine
 62
7
  6
CONTINUOUS
 10
85.6448476407
 20
88.7225254454
 11
86.2828836868
 21
88.2167100057
  0
LINE
  5
2ED
100
AcDbEntity
  8
0
100
AcDbLine
 62
7
  6
CONTINUOUS
 10
108.2282267181
 20
95.9094128579
 11
122.4282267181
 21
95.9094128579
  0
LINE
  5
2EE
100
AcDbEntity
  8
0
100
AcDbLine
 62
7
  6
CONTINUOUS
 10
84.9862194123
 20
89.2688950654
 11
85.6525382297
 21
88.7162851235
  0
LINE
  5
2EF
100
AcDbEntity
  8
0
100
AcDbLine
 62
7
  6
CONTINUOUS
 10
84.4144057062
 20
89.7611520195
 11
84.9947841726
 21
89.2616440664
  0
LINE
  5
2F0
100
AcDbEntity
  8
0
100
AcDbLine
 62
7
  6
CONTINUOUS
 10
84.4144851877
 20
89.7610823986
 11
84.0116422933
 21
90.1133692679
  0
LINE
  5
2F1
100
AcDbEntity
  8
KONSTRUKTIONSELEMENTE
100
AcDbLine
 62
7
  6
CONTINUOUS
 10
64.5752454194
 20
108.6125172857
 11
65.927623857
 21
107.1624248264
  0
LINE
  5
2F2
100
AcDbEntity
  8
KONSTRUKTIONSELEMENTE
100
AcDbLine
 62
7
  6
CONTINUOUS
 10
73.0635332065
 20
99.5109213343
 11
97.2459747175
 21
73.5812147468
  0
LINE
  5
2F3
100
AcDbEntity
  8
KONSTRUKTIONSELEMENTE
100
AcDbLine
 62
7
  6
CONTINUOUS
 10
73.0635332065
 20
100.0738378468
 11
72.7888313364
 21
100.3683878776
  0
LINE
  5
2F4
100
AcDbEntity
  8
KONSTRUKTIONSELEMENTE
100
AcDbLine
 62
7
  6
CONTINUOUS
 10
73.0635332065
 20
99.5109213343
 11
80.721834007
 21
101.2964834902
  0
LINE
  5
2F5
100
AcDbEntity
  8
KONSTRUKTIONSELEMENTE
100
AcDbLine
 62
7
  6
CONTINUOUS
 10
73.0635332065
 20
100.0738378468
 11
80.721834007
 21
101.8594000027
  0
LINE
  5
2F6
100
AcDbEntity
  8
KONSTRUKTIONSELEMENTE
100
AcDbLine
 62
7
  6
CONTINUOUS
 10
73.7320259107
 20
101.6640907752
 11
79.6230265264
 21
103.0376001258
  0
LINE
  5
2F7
100
AcDbEntity
  8
0
100
AcDbLine
 62
7
  6
CONTINUOUS
 10
108.2282267181
 20
111.5094128579
 11
122.4282267181
 21
111.5094128579
  0
LINE
  5
2F8
100
AcDbEntity
  8
KONSTRUKTIONSELEMENTE
100
AcDbLine
 62
7
  6
CONTINUOUS
 10
76.5186861732
 20
108.1103698424
 11
81.6650285813
 21
102.5921863878
  0
LINE
  5
2F9
100
AcDbEntity
  8
KONSTRUKTIONSELEMENTE
100
AcDbLine
 62
7
  6
CONTINUOUS
 10
73.7320259107
 20
104.8683847692
 11
78.5044760366
 21
105.9810997901
  0
LINE
  5
2FA
100
AcDbEntity
  8
KONSTRUKTIONSELEMENTE
100
AcDbLine
 62
7
  6
CONTINUOUS
 10
73.5859246575
 20
108.9479869823
 11
65.927623857
 21
107.1624248264
  0
LINE
  5
2FB
100
AcDbEntity
  8
KONSTRUKTIONSELEMENTE
100
AcDbLine
 62
7
  6
CONTINUOUS
 10
171.1481030222
 20
106.3553578426
 11
178.8064038226
 21
104.5697956868
  0
LINE
  5
2FC
100
AcDbEntity
  8
KONSTRUKTIONSELEMENTE
100
AcDbLine
 62
7
  6
CONTINUOUS
 10
149.5803018028
 20
116.0457449893
 11
177.0756275802
 21
109.6351045026
  0
LINE
  5
2FD
100
AcDbEntity
  8
KONSTRUKTIONSELEMENTE
100
AcDbLine
 62
7
  6
CONTINUOUS
 10
81.0761516334
 20
116.0457449893
 11
67.7192273339
 21
112.9315269442
  0
LINE
  5
2FE
100
AcDbEntity
  8
KONSTRUKTIONSELEMENTE
100
AcDbLine
 62
7
  6
CONTINUOUS
 10
80.4503865671
 20
120.2299724869
 11
67.7192273339
 21
117.2616539631
  0
LINE
  5
2FF
100
AcDbEntity
  8
KONSTRUKTIONSELEMENTE
100
AcDbLine
 62
7
  6
CONTINUOUS
 10
102.8133269703
 20
137.4474315551
 11
127.8677238612
 21
137.4474315551
  0
LINE
  5
300
100
AcDbEntity
  8
RUNDUNGEN
100
AcDbLine
 62
7
  6
CONTINUOUS
 10
102.8069466981
 20
137.4474310409
 11
102.8147073874
 21
137.4474314602
  0
LINE
  5
301
100
AcDbEntity
  8
RUNDUNGEN
100
AcDbLine
 62
7
  6
CONTINUOUS
 10
127.8420449447
 20
137.4474314371
 11
127.8764727251
 21
137.4474268989
  0
LINE
  5
302
100
AcDbEntity
  8
KONSTRUKTIONSELEMENTE
100
AcDbLine
 62
7
  6
CONTINUOUS
 10
177.0756275802
 20
113.9652315215
 11
150.2060668692
 21
120.2299724869
  0
LINE
  5
303
100
AcDbEntity
  8
KONSTRUKTIONSELEMENTE
100
AcDbLine
 62
7
  6
CONTINUOUS
 10
63.9662460352
 20
109.9860266363
 11
63.9662460352
 21
114.3161536552
  0
LINE
  5
304
100
AcDbEntity
  8
0
100
AcDbLine
 62
7
  6
CONTINUOUS
 10
77.8282267181
 20
137.7624161058
 11
81.0469293032
 21
116.2413324005
  0
LINE
  5
305
100
AcDbEntity
  8
RUNDUNGEN
100
AcDbLine
 62
7
  6
CONTINUOUS
 10
77.8282267181
 20
140.7263236211
 11
81.0469293032
 21
119.2052399157
  0
LINE
  5
306
100
AcDbEntity
  8
KONSTRUKTIONSELEMENTE
100
AcDbLine
 62
7
  6
CONTINUOUS
 10
72.6061315211
 20
100.7804406828
 11
72.6061315211
 21
103.9847346768
  0
LINE
  5
307
100
AcDbEntity
  8
KONSTRUKTIONSELEMENTE
100
AcDbLine
 62
7
  6
CONTINUOUS
 10
73.0635332065
 20
99.5109213343
 11
73.0635332065
 21
100.0738378468
  0
LINE
  5
308
100
AcDbEntity
  8
0
100
AcDbLine
 62
7
  6
CONTINUOUS
 10
77.8282267181
 20
137.7624161058
 11
77.8282267181
 21
163.5745894762
  0
LINE
  5
309
100
AcDbEntity
  8
0
100
AcDbLine
 62
7
  6
CONTINUOUS
 10
81.7550285436
 20
111.47294024
 11
81.7550285436
 21
114.504560223
  0
LINE
  5
30A
100
AcDbEntity
  8
0
100
AcDbLine
 62
7
  6
CONTINUOUS
 10
83.3282267181
 20
91.6188942436
 11
83.3282267181
 21
101.1932374921
  0
LINE
  5
30B
100
AcDbEntity
  8
RUNDUNGEN
100
AcDbLine
 62
7
  6
CONTINUOUS
 10
83.3282267181
 20
101.1932374921
 11
83.3282267181
 21
128.9186551869
  0
LINE
  5
30C
100
AcDbEntity
  8
BEZUGSACHSEN
100
AcDbLine
 62
7
  6
CONTINUOUS
 10
89.14903342
 20
172.0667184306
 11
89.14903342
 21
172.2546569444
  0
LINE
  5
30D
100
AcDbEntity
  8
BEZUGSACHSEN
100
AcDbLine
 62
7
  6
CONTINUOUS
 10
91.3130851362
 20
173.5117217271
 11
91.3130851362
 21
173.697865142
  0
LINE
  5
30E
100
AcDbEntity
  8
BEZUGSACHSEN
100
AcDbLine
 62
7
  6
CONTINUOUS
 10
91.6109499314
 20
173.656486867
 11
91.6109499314
 21
173.842417313
  0
LINE
  5
30F
100
AcDbEntity
  8
BEZUGSACHSEN
100
AcDbLine
 62
7
  6
CONTINUOUS
 10
91.9367884642
 20
173.6611475423
 11
91.9367884642
 21
173.8469316931
  0
LINE
  5
310
100
AcDbEntity
  8
BEZUGSACHSEN
100
AcDbLine
 62
7
  6
CONTINUOUS
 10
92.2906005417
 20
173.5258637054
 11
92.2906005417
 21
173.7115667618
  0
LINE
  5
311
100
AcDbEntity
  8
BEZUGSACHSEN
100
AcDbLine
 62
7
  6
CONTINUOUS
 10
92.5769401704
 20
173.3195083698
 11
92.5769401704
 21
173.505200026
  0
LINE
  5
312
100
AcDbEntity
  8
BEZUGSACHSEN
100
AcDbLine
 62
7
  6
CONTINUOUS
 10
92.7958068157
 20
173.0420934517
 11
92.7958068157
 21
173.2278458527
  0
LINE
  5
313
100
AcDbEntity
  8
BEZUGSACHSEN
100
AcDbLine
 62
7
  6
CONTINUOUS
 10
93.0402176384
 20
175.9560591316
 11
93.0402176384
 21
176.1401737477
  0
LINE
  5
314
100
AcDbEntity
  8
BEZUGSACHSEN
100
AcDbLine
 62
7
  6
CONTINUOUS
 10
93.1825154043
 20
171.9248861892
 11
93.1825154043
 21
172.1111371701
  0
LINE
  5
315
100
AcDbEntity
  8
BEZUGSACHSEN
100
AcDbLine
 62
7
  6
CONTINUOUS
 10
93.475457426
 20
172.9112436168
 11
93.475457426
 21
173.0967565682
  0
LINE
  5
316
100
AcDbEntity
  8
BEZUGSACHSEN
100
AcDbLine
 62
7
  6
CONTINUOUS
 10
93.6350172825
 20
168.8331532719
 11
93.6350172825
 21
169.0213772379
  0
LINE
  5
317
100
AcDbEntity
  8
BEZUGSACHSEN
100
AcDbLine
 62
7
  6
CONTINUOUS
 10
94.0398539653
 20
169.2645486399
 11
94.0398539653
 21
169.452234544
  0
LINE
  5
318
100
AcDbEntity
  8
BEZUGSACHSEN
100
AcDbLine
 62
7
  6
CONTINUOUS
 10
95.4159758834
 20
177.7529230175
 11
95.4159758834
 21
177.9352557017
  0
LINE
  5
319
100
AcDbEntity
  8
BEZUGSACHSEN
100
AcDbLine
 62
7
  6
CONTINUOUS
 10
95.5195704825
 20
173.3944648206
 11
95.5195704825
 21
173.5787217085
  0
LINE
  5
31A
100
AcDbEntity
  8
BEZUGSACHSEN
100
AcDbLine
 62
7
  6
CONTINUOUS
 10
95.7266734126
 20
171.0495569931
 11
95.7266734126
 21
171.2351027845
  0
LINE
  5
31B
100
AcDbEntity
  8
BEZUGSACHSEN
100
AcDbLine
 62
7
  6
CONTINUOUS
 10
95.9986581333
 20
173.0416416952
 11
95.9986581333
 21
173.2258522961
  0
LINE
  5
31C
100
AcDbEntity
  8
BEZUGSACHSEN
100
AcDbLine
 62
7
  6
CONTINUOUS
 10
96.1989830046
 20
171.5457541221
 11
96.1989830046
 21
171.7307350496
  0
LINE
  5
31D
100
AcDbEntity
  8
BEZUGSACHSEN
100
AcDbLine
 62
7
  6
CONTINUOUS
 10
96.4769585854
 20
172.8317377177
 11
96.4769585854
 21
173.015821203
  0
LINE
  5
31E
100
AcDbEntity
  8
KONSTRUKTIONSELEMENTE
100
AcDbLine
 62
7
  6
CONTINUOUS
 10
96.758899859
 20
116.7448028568
 11
96.758899859
 21
109.4244722907
  0
LINE
  5
31F
100
AcDbEntity
  8
BEZUGSACHSEN
100
AcDbLine
 62
7
  6
CONTINUOUS
 10
97.1136424998
 20
172.7421355192
 11
97.1136424998
 21
172.9259394792
  0
LINE
  5
320
100
AcDbEntity
  8
BEZUGSACHSEN
100
AcDbLine
 62
7
  6
CONTINUOUS
 10
97.4148627677
 20
179.0898327577
 11
97.4148627677
 21
179.2708804761
  0
LINE
  5
321
100
AcDbEntity
  8
BEZUGSACHSEN
100
AcDbLine
 62
7
  6
CONTINUOUS
 10
97.5903686339
 20
172.8173104978
 11
97.5903686339
 21
173.0008247856
  0
LINE
  5
322
100
AcDbEntity
  8
BEZUGSACHSEN
100
AcDbLine
 62
7
  6
CONTINUOUS
 10
97.8953287275
 20
175.1916484056
 11
97.8953287275
 21
175.3738829095
  0
LINE
  5
323
100
AcDbEntity
  8
BEZUGSACHSEN
100
AcDbLine
 62
7
  6
CONTINUOUS
 10
98.0663072728
 20
173.0344998057
 11
98.0663072728
 21
173.2176508391
  0
LINE
  5
324
100
AcDbEntity
  8
BEZUGSACHSEN
100
AcDbLine
 62
7
  6
CONTINUOUS
 10
98.1360530952
 20
174.8016907754
 11
98.1360530952
 21
174.9839749308
  0
LINE
  5
325
100
AcDbEntity
  8
BEZUGSACHSEN
100
AcDbLine
 62
7
  6
CONTINUOUS
 10
98.3830751596
 20
173.2737648595
 11
98.3830751596
 21
173.4566295787
  0
LINE
  5
326
100
AcDbEntity
  8
BEZUGSACHSEN
100
AcDbLine
 62
7
  6
CONTINUOUS
 10
98.6990555582
 20
173.6547376727
 11
98.6990555582
 21
173.8372547785
  0
LINE
  5
327
100
AcDbEntity
  8
BEZUGSACHSEN
100
AcDbLine
 62
7
  6
CONTINUOUS
 10
98.8558651977
 20
174.0580928017
 11
98.8558651977
 21
174.2403447934
  0
LINE
  5
328
100
AcDbEntity
  8
BEZUGSACHSEN
100
AcDbLine
 62
7
  6
CONTINUOUS
 10
99.9191061916
 20
179.6409276433
 11
99.9191061916
 21
179.8208336455
  0
LINE
  5
329
100
AcDbEntity
  8
BEZUGSACHSEN
100
AcDbLine
 62
7
  6
CONTINUOUS
 10
100.3222117787
 20
174.6682982198
 11
100.3222117787
 21
174.8495576837
  0
LINE
  5
32A
100
AcDbEntity
  8
BEZUGSACHSEN
100
AcDbLine
 62
7
  6
CONTINUOUS
 10
100.3364797566
 20
179.7312796168
 11
100.3364797566
 21
179.9110045533
  0
LINE
  5
32B
100
AcDbEntity
  8
BEZUGSACHSEN
100
AcDbLine
 62
7
  6
CONTINUOUS
 10
100.7268332873
 20
179.6811831595
 11
100.7268332873
 21
179.86077174
  0
LINE
  5
32C
100
AcDbEntity
  8
BEZUGSACHSEN
100
AcDbLine
 62
7
  6
CONTINUOUS
 10
101.0901669572
 20
179.4908745856
 11
101.0901669572
 21
179.6703685368
  0
LINE
  5
32D
100
AcDbEntity
  8
BEZUGSACHSEN
100
AcDbLine
 62
7
  6
CONTINUOUS
 10
101.4264794025
 20
179.1605180009
 11
101.4264794025
 21
179.3399576795
  0
LINE
  5
32E
100
AcDbEntity
  8
0
100
AcDbLine
 62
7
  6
CONTINUOUS
 10
102.3282267181
 20
355.556350799
 11
102.3282267181
 21
149.6832244148
  0
LINE
  5
32F
100
AcDbEntity
  8
KONSTRUKTIONSELEMENTE
100
AcDbLine
 62
7
  6
CONTINUOUS
 10
106.8132267181
 20
69.7174641006
 11
106.8132267181
 21
60.2426406099
  0
LINE
  5
330
100
AcDbEntity
  8
KONSTRUKTIONSELEMENTE
100
AcDbLine
 62
7
  6
CONTINUOUS
 10
107.3282267181
 20
139.1197876069
 11
107.3282267181
 21
138.3556188647
  0
LINE
  5
331
100
AcDbEntity
  8
0
100
AcDbLine
 62
7
  6
CONTINUOUS
 10
108.2282267181
 20
88.7144686976
 11
108.2282267181
 21
108.2457480961
  0
LINE
  5
332
100
AcDbEntity
  8
KONSTRUKTIONSELEMENTE
100
AcDbLine
 62
7
  6
CONTINUOUS
 10
108.2282267181
 20
108.2457480961
 11
108.2282267181
 21
124.7551829179
  0
LINE
  5
333
100
AcDbEntity
  8
KONSTRUKTIONSELEMENTE
100
AcDbLine
 62
7
  6
CONTINUOUS
 10
109.4132267181
 20
58.7047240975
 11
109.4132267181
 21
69.1047240975
  0
LINE
  5
334
100
AcDbEntity
  8
KONSTRUKTIONSELEMENTE
100
AcDbLine
 62
7
  6
CONTINUOUS
 10
112.8282267181
 20
121.8498603993
 11
112.8282267181
 21
117.9947876069
  0
LINE
  5
335
100
AcDbEntity
  8
KONSTRUKTIONSELEMENTE
100
AcDbLine
 62
7
  6
CONTINUOUS
 10
117.8282267181
 20
121.8498603993
 11
117.8282267181
 21
117.9947876069
  0
LINE
  5
336
100
AcDbEntity
  8
KONSTRUKTIONSELEMENTE
100
AcDbLine
 62
7
  6
CONTINUOUS
 10
121.2432267181
 20
58.7047240975
 11
121.2432267181
 21
69.1047240975
  0
LINE
  5
337
100
AcDbEntity
  8
0
100
AcDbLine
 62
7
  6
CONTINUOUS
 10
122.4282267181
 20
108.2457480961
 11
122.4282267181
 21
88.7144686976
  0
LINE
  5
338
100
AcDbEntity
  8
KONSTRUKTIONSELEMENTE
100
AcDbLine
 62
7
  6
CONTINUOUS
 10
122.4282267181
 20
108.2457480961
 11
122.4282267181
 21
124.7551829179
  0
LINE
  5
339
100
AcDbEntity
  8
KONSTRUKTIONSELEMENTE
100
AcDbLine
 62
7
  6
CONTINUOUS
 10
123.3282267181
 20
138.3599250713
 11
123.3282267181
 21
139.1197876069
  0
LINE
  5
33A
100
AcDbEntity
  8
KONSTRUKTIONSELEMENTE
100
AcDbLine
 62
7
  6
CONTINUOUS
 10
123.8432267181
 20
60.2426406099
 11
123.8432267181
 21
69.6676406099
  0
LINE
  5
33B
100
AcDbEntity
  8
0
100
AcDbLine
 62
7
  6
CONTINUOUS
 10
128.3282267181
 20
355.556350799
 11
128.3282267181
 21
149.6832244148
  0
LINE
  5
33C
100
AcDbEntity
  8
BEZUGSACHSEN
100
AcDbLine
 62
7
  6
CONTINUOUS
 10
128.3536459954
 20
180.7398926741
 11
128.3536459954
 21
180.9187028811
  0
LINE
  5
33D
100
AcDbEntity
  8
BEZUGSACHSEN
100
AcDbLine
 62
7
  6
CONTINUOUS
 10
128.533995514
 20
179.2467422424
 11
128.533995514
 21
179.425900252
  0
LINE
  5
33E
100
AcDbEntity
  8
BEZUGSACHSEN
100
AcDbLine
 62
7
  6
CONTINUOUS
 10
128.7715627662
 20
179.5116282914
 11
128.7715627662
 21
179.6908200702
  0
LINE
  5
33F
100
AcDbEntity
  8
BEZUGSACHSEN
100
AcDbLine
 62
7
  6
CONTINUOUS
 10
128.8773367847
 20
175.8402707979
 11
128.8773367847
 21
176.020428285
  0
LINE
  5
340
100
AcDbEntity
  8
BEZUGSACHSEN
100
AcDbLine
 62
7
  6
CONTINUOUS
 10
128.9626942218
 20
179.9131186542
 11
128.9626942218
 21
180.0922987508
  0
LINE
  5
341
100
AcDbEntity
  8
BEZUGSACHSEN
100
AcDbLine
 62
7
  6
CONTINUOUS
 10
129.0118239522
 20
180.2504482291
 11
129.0118239522
 21
180.4295788855
  0
LINE
  5
342
100
AcDbEntity
  8
BEZUGSACHSEN
100
AcDbLine
 62
7
  6
CONTINUOUS
 10
129.0874770942
 20
175.4578781133
 11
129.0874770942
 21
175.6382533166
  0
LINE
  5
343
100
AcDbEntity
  8
BEZUGSACHSEN
100
AcDbLine
 62
7
  6
CONTINUOUS
 10
129.4513338679
 20
175.1156349464
 11
129.4513338679
 21
175.2962981181
  0
LINE
  5
344
100
AcDbEntity
  8
BEZUGSACHSEN
100
AcDbLine
 62
7
  6
CONTINUOUS
 10
129.484422117
 20
176.6590165809
 11
129.484422117
 21
176.8392033745
  0
LINE
  5
345
100
AcDbEntity
  8
BEZUGSACHSEN
100
AcDbLine
 62
7
  6
CONTINUOUS
 10
129.6679772288
 20
177.0729593459
 11
129.6679772288
 21
177.2531065446
  0
LINE
  5
346
100
AcDbEntity
  8
BEZUGSACHSEN
100
AcDbLine
 62
7
  6
CONTINUOUS
 10
130.2276907542
 20
174.6613067916
 11
130.2276907542
 21
174.842515986
  0
LINE
  5
347
100
AcDbEntity
  8
BEZUGSACHSEN
100
AcDbLine
 62
7
  6
CONTINUOUS
 10
130.6797860924
 20
178.4375380921
 11
130.6797860924
 21
178.6177309811
  0
LINE
  5
348
100
AcDbEntity
  8
BEZUGSACHSEN
100
AcDbLine
 62
7
  6
CONTINUOUS
 10
130.7264514268
 20
174.4987448249
 11
130.7264514268
 21
174.680266861
  0
LINE
  5
349
100
AcDbEntity
  8
BEZUGSACHSEN
100
AcDbLine
 62
7
  6
CONTINUOUS
 10
131.0358623242
 20
178.7513343554
 11
131.0358623242
 21
178.9315868464
  0
LINE
  5
34A
100
AcDbEntity
  8
BEZUGSACHSEN
100
AcDbLine
 62
7
  6
CONTINUOUS
 10
131.2064094179
 20
174.4772981628
 11
131.2064094179
 21
174.6590694395
  0
LINE
  5
34B
100
AcDbEntity
  8
BEZUGSACHSEN
100
AcDbLine
 62
7
  6
CONTINUOUS
 10
131.4107473613
 20
178.9239750432
 11
131.4107473613
 21
179.1043316496
  0
LINE
  5
34C
100
AcDbEntity
  8
BEZUGSACHSEN
100
AcDbLine
 62
7
  6
CONTINUOUS
 10
131.4905047932
 20
176.5311615663
 11
131.4905047932
 21
176.7122899225
  0
LINE
  5
34D
100
AcDbEntity
  8
BEZUGSACHSEN
100
AcDbLine
 62
7
  6
CONTINUOUS
 10
131.804440826
 20
178.9552956129
 11
131.804440826
 21
179.1358021411
  0
LINE
  5
34E
100
AcDbEntity
  8
BEZUGSACHSEN
100
AcDbLine
 62
7
  6
CONTINUOUS
 10
131.8212713021
 20
174.6373506617
 11
131.8212713021
 21
174.8193610656
  0
LINE
  5
34F
100
AcDbEntity
  8
BEZUGSACHSEN
100
AcDbLine
 62
7
  6
CONTINUOUS
 10
132.1773475811
 20
174.9502592301
 11
132.1773475811
 21
175.1323128843
  0
LINE
  5
350
100
AcDbEntity
  8
BEZUGSACHSEN
100
AcDbLine
 62
7
  6
CONTINUOUS
 10
132.2169448814
 20
178.845058367
 11
132.2169448814
 21
179.0257636085
  0
LINE
  5
351
100
AcDbEntity
  8
BEZUGSACHSEN
100
AcDbLine
 62
7
  6
CONTINUOUS
 10
132.9933017677
 20
178.3907768854
 11
132.9933017677
 21
178.5719407125
  0
LINE
  5
352
100
AcDbEntity
  8
BEZUGSACHSEN
100
AcDbLine
 62
7
  6
CONTINUOUS
 10
133.1891564447
 20
176.3150341903
 11
133.1891564447
 21
176.4970148641
  0
LINE
  5
353
100
AcDbEntity
  8
BEZUGSACHSEN
100
AcDbLine
 62
7
  6
CONTINUOUS
 10
133.2708940386
 20
178.0972059166
 11
133.2708940386
 21
178.2785818393
  0
LINE
  5
354
100
AcDbEntity
  8
BEZUGSACHSEN
100
AcDbLine
 62
7
  6
CONTINUOUS
 10
133.2786704487
 20
177.4393095533
 11
133.2786704487
 21
177.6209141533
  0
LINE
  5
355
100
AcDbEntity
  8
BEZUGSACHSEN
100
AcDbLine
 62
7
  6
CONTINUOUS
 10
133.7962417062
 20
177.1338781231
 11
133.7962417062
 21
177.3158193701
  0
LINE
  5
356
100
AcDbEntity
  8
KONSTRUKTIONSELEMENTE
100
AcDbLine
 62
7
  6
CONTINUOUS
 10
133.8975535772
 20
116.7448028568
 11
133.8975535772
 21
109.4244722907
  0
LINE
  5
357
100
AcDbEntity
  8
BEZUGSACHSEN
100
AcDbLine
 62
7
  6
CONTINUOUS
 10
134.0472509249
 20
177.6397487625
 11
134.0472509249
 21
177.821613844
  0
LINE
  5
358
100
AcDbEntity
  8
BEZUGSACHSEN
100
AcDbLine
 62
7
  6
CONTINUOUS
 10
136.0177700627
 20
169.8961830355
 11
136.0177700627
 21
170.0830922562
  0
LINE
  5
359
100
AcDbEntity
  8
BEZUGSACHSEN
100
AcDbLine
 62
7
  6
CONTINUOUS
 10
136.4154994269
 20
169.46145714
 11
136.4154994269
 21
169.6488917136
  0
LINE
  5
35A
100
AcDbEntity
  8
BEZUGSACHSEN
100
AcDbLine
 62
7
  6
CONTINUOUS
 10
137.6400270234
 20
168.1566172173
 11
137.6400270234
 21
168.3456905862
  0
LINE
  5
35B
100
AcDbEntity
  8
BEZUGSACHSEN
100
AcDbLine
 62
7
  6
CONTINUOUS
 10
137.7607468752
 20
167.7843808062
 11
137.7607468752
 21
167.9738243787
  0
LINE
  5
35C
100
AcDbEntity
  8
BEZUGSACHSEN
100
AcDbLine
 62
7
  6
CONTINUOUS
 10
138.2141059396
 20
167.150410984
 11
138.2141059396
 21
167.3406153324
  0
LINE
  5
35D
100
AcDbEntity
  8
BEZUGSACHSEN
100
AcDbLine
 62
7
  6
CONTINUOUS
 10
138.2610159196
 20
168.9205779314
 11
138.2610159196
 21
169.1093271979
  0
LINE
  5
35E
100
AcDbEntity
  8
BEZUGSACHSEN
100
AcDbLine
 62
7
  6
CONTINUOUS
 10
138.4162611633
 20
169.1115076284
 11
138.4162611633
 21
169.3001799705
  0
LINE
  5
35F
100
AcDbEntity
  8
BEZUGSACHSEN
100
AcDbLine
 62
7
  6
CONTINUOUS
 10
138.5467425581
 20
166.8886812006
 11
138.5467425581
 21
167.0792685983
  0
LINE
  5
360
100
AcDbEntity
  8
BEZUGSACHSEN
100
AcDbLine
 62
7
  6
CONTINUOUS
 10
138.7159741381
 20
172.485933939
 11
138.7159741381
 21
172.672409116
  0
LINE
  5
361
100
AcDbEntity
  8
BEZUGSACHSEN
100
AcDbLine
 62
7
  6
CONTINUOUS
 10
138.9853401632
 20
166.6824772355
 11
138.9853401632
 21
166.8734427621
  0
LINE
  5
362
100
AcDbEntity
  8
BEZUGSACHSEN
100
AcDbLine
 62
7
  6
CONTINUOUS
 10
139.3672662732
 20
166.5555297399
 11
139.3672662732
 21
166.7467732771
  0
LINE
  5
363
100
AcDbEntity
  8
BEZUGSACHSEN
100
AcDbLine
 62
7
  6
CONTINUOUS
 10
139.7984792158
 20
166.56416143
 11
139.7984792158
 21
166.7555771949
  0
LINE
  5
364
100
AcDbEntity
  8
BEZUGSACHSEN
100
AcDbLine
 62
7
  6
CONTINUOUS
 10
140.1730259164
 20
166.6525036555
 11
140.1730259164
 21
166.8439936282
  0
LINE
  5
365
100
AcDbEntity
  8
BEZUGSACHSEN
100
AcDbLine
 62
7
  6
CONTINUOUS
 10
140.2051718153
 20
168.8585755643
 11
140.2051718153
 21
169.0482384811
  0
LINE
  5
366
100
AcDbEntity
  8
BEZUGSACHSEN
100
AcDbLine
 62
7
  6
CONTINUOUS
 10
140.4318500504
 20
168.5415924668
 11
140.4318500504
 21
168.7316005582
  0
LINE
  5
367
100
AcDbEntity
  8
BEZUGSACHSEN
100
AcDbLine
 62
7
  6
CONTINUOUS
 10
140.5968594125
 20
166.8766790516
 11
140.5968594125
 21
167.0681420163
  0
LINE
  5
368
100
AcDbEntity
  8
BEZUGSACHSEN
100
AcDbLine
 62
7
  6
CONTINUOUS
 10
140.8385427241
 20
170.8276509146
 11
140.8385427241
 21
171.0161354815
  0
LINE
  5
369
100
AcDbEntity
  8
BEZUGSACHSEN
100
AcDbLine
 62
7
  6
CONTINUOUS
 10
140.9626518103
 20
172.6283486555
 11
140.9626518103
 21
172.8157095691
  0
LINE
  5
36A
100
AcDbEntity
  8
BEZUGSACHSEN
100
AcDbLine
 62
7
  6
CONTINUOUS
 10
140.9640215527
 20
167.1806174099
 11
140.9640215527
 21
167.3719637892
  0
LINE
  5
36B
100
AcDbEntity
  8
BEZUGSACHSEN
100
AcDbLine
 62
7
  6
CONTINUOUS
 10
141.1218924636
 20
170.4334181359
 11
141.1218924636
 21
170.6222959961
  0
LINE
  5
36C
100
AcDbEntity
  8
BEZUGSACHSEN
100
AcDbLine
 62
7
  6
CONTINUOUS
 10
141.1685588543
 20
167.5081623023
 11
141.1685588543
 21
167.6993126734
  0
LINE
  5
36D
100
AcDbEntity
  8
BEZUGSACHSEN
100
AcDbLine
 62
7
  6
CONTINUOUS
 10
141.5531054061
 20
170.4436181893
 11
141.5531054061
 21
170.6326656323
  0
LINE
  5
36E
100
AcDbEntity
  8
BEZUGSACHSEN
100
AcDbLine
 62
7
  6
CONTINUOUS
 10
141.64167922
 20
167.8680046654
 11
141.64167922
 21
168.0590431551
  0
LINE
  5
36F
100
AcDbEntity
  8
BEZUGSACHSEN
100
AcDbLine
 62
7
  6
CONTINUOUS
 10
141.9350314791
 20
170.3186248036
 11
141.9350314791
 21
170.5079144108
  0
LINE
  5
370
100
AcDbEntity
  8
BEZUGSACHSEN
100
AcDbLine
 62
7
  6
CONTINUOUS
 10
142.0728947567
 20
167.8767650168
 11
142.0728947567
 21
168.0679621309
  0
LINE
  5
371
100
AcDbEntity
  8
BEZUGSACHSEN
100
AcDbLine
 62
7
  6
CONTINUOUS
 10
142.3243395926
 20
169.9790243669
 11
142.3243395926
 21
170.1687105902
  0
LINE
  5
372
100
AcDbEntity
  8
BEZUGSACHSEN
100
AcDbLine
 62
7
  6
CONTINUOUS
 10
142.5510178277
 20
169.6620412692
 11
142.5510178277
 21
169.8520458544
  0
LINE
  5
373
100
AcDbEntity
  8
BEZUGSACHSEN
100
AcDbLine
 62
7
  6
CONTINUOUS
 10
142.5533971631
 20
168.0212088398
 11
142.5533971631
 21
168.212470618
  0
LINE
  5
374
100
AcDbEntity
  8
BEZUGSACHSEN
100
AcDbLine
 62
7
  6
CONTINUOUS
 10
142.7653142079
 20
168.1332855153
 11
142.7653142079
 21
168.3245367879
  0
LINE
  5
375
100
AcDbEntity
  8
BEZUGSACHSEN
100
AcDbLine
 62
7
  6
CONTINUOUS
 10
143.1324787938
 20
168.4371295245
 11
143.1324787938
 21
168.6282775554
  0
LINE
  5
376
100
AcDbEntity
  8
BEZUGSACHSEN
100
AcDbLine
 62
7
  6
CONTINUOUS
 10
143.3296340548
 20
168.9797514984
 11
143.3296340548
 21
169.1705566023
  0
LINE
  5
377
100
AcDbEntity
  8
RUNDUNGEN
100
AcDbLine
 62
7
  6
CONTINUOUS
 10
147.3282267181
 20
128.9186551869
 11
147.3282267181
 21
101.1932374921
  0
LINE
  5
378
100
AcDbEntity
  8
0
100
AcDbLine
 62
7
  6
CONTINUOUS
 10
147.3282267181
 20
101.1932374921
 11
147.3282267181
 21
96.6316671453
  0
LINE
  5
379
100
AcDbEntity
  8
0
100
AcDbLine
 62
7
  6
CONTINUOUS
 10
147.3282267181
 20
96.1804645903
 11
147.3282267181
 21
91.6188942436
  0
LINE
  5
37A
100
AcDbEntity
  8
0
100
AcDbLine
 62
7
  6
CONTINUOUS
 10
148.9014248926
 20
111.47294024
 11
148.9014248926
 21
114.504560223
  0
LINE
  5
37B
100
AcDbEntity
  8
KONSTRUKTIONSELEMENTE
100
AcDbLine
 62
7
  6
CONTINUOUS
 10
150.908540242
 20
78.2893771986
 11
150.908540242
 21
73.9592501796
  0
LINE
  5
37C
100
AcDbEntity
  8
0
100
AcDbLine
 62
7
  6
CONTINUOUS
 10
152.8282267181
 20
137.7624161058
 11
152.8282267181
 21
163.5745894762
  0
LINE
  5
37D
100
AcDbEntity
  8
RUNDUNGEN
100
AcDbLine
 62
7
  6
CONTINUOUS
 10
149.6095241331
 20
119.2052399157
 11
152.8282267181
 21
140.7263236211
  0
LINE
  5
37E
100
AcDbEntity
  8
0
100
AcDbLine
 62
7
  6
CONTINUOUS
 10
149.6095241331
 20
116.2413324005
 11
152.8282267181
 21
137.7624161058
  0
LINE
  5
37F
100
AcDbEntity
  8
KONSTRUKTIONSELEMENTE
100
AcDbLine
 62
7
  6
CONTINUOUS
 10
180.8286088788
 20
111.0197312137
 11
180.8286088788
 21
106.6896041947
  0
LINE
  5
380
100
AcDbEntity
  8
KONSTRUKTIONSELEMENTE
100
AcDbLine
 62
7
  6
CONTINUOUS
 10
139.7309593973
 20
80.3583720248
 11
162.5100837051
 21
104.7833668854
  0
LINE
  5
381
100
AcDbEntity
  8
0
100
AcDbLine
 62
7
  6
CONTINUOUS
 10
146.6448111429
 20
90.1133692679
 11
146.2419682494
 21
89.7610823993
  0
LINE
  5
382
100
AcDbEntity
  8
0
100
AcDbLine
 62
7
  6
CONTINUOUS
 10
145.6616692636
 20
89.2616440664
 11
146.24204773
 21
89.7611520195
  0
LINE
  5
383
100
AcDbEntity
  8
0
100
AcDbLine
 62
7
  6
CONTINUOUS
 10
145.0039152066
 20
88.7162851235
 11
145.670234024
 21
89.2688950654
  0
LINE
  5
384
100
AcDbEntity
  8
KONSTRUKTIONSELEMENTE
100
AcDbLine
 62
7
  6
CONTINUOUS
 10
150.6231742546
 20
73.5812147468
 11
150.8476403036
 21
73.8218992446
  0
LINE
  5
385
100
AcDbEntity
  8
KONSTRUKTIONSELEMENTE
100
AcDbLine
 62
7
  6
CONTINUOUS
 10
179.6702057543
 20
104.7269947825
 11
180.2196094946
 21
105.3160948441
  0
LINE
  5
386
100
AcDbEntity
  8
0
100
AcDbLine
 62
7
  6
CONTINUOUS
 10
144.3735697494
 20
88.2167100057
 11
145.0116057955
 21
88.7225254454
  0
LINE
  5
387
100
AcDbEntity
  8
0
100
AcDbLine
 62
7
  6
CONTINUOUS
 10
143.7716958315
 20
87.763575344
 11
144.3803472469
 21
88.2219512141
  0
LINE
  5
388
100
AcDbEntity
  8
0
100
AcDbLine
 62
7
  6
CONTINUOUS
 10
143.1989887542
 20
87.3572267262
 11
143.7775734298
 21
87.7678770785
  0
LINE
  5
389
100
AcDbEntity
  8
0
100
AcDbLine
 62
7
  6
CONTINUOUS
 10
142.6546633643
 20
86.9970125545
 11
143.2040027283
 21
87.3606686058
  0
LINE
  5
38A
100
AcDbEntity
  8
0
100
AcDbLine
 62
7
  6
CONTINUOUS
 10
142.137755725
 20
86.6823663581
 11
142.6588687323
 21
86.9996879994
  0
ARC
  5
38B
100
AcDbEntity
  8
BEZUGSACHSEN
100
AcDbCircle
 62
7
  6
CONTINUOUS
 10
317.9184808227
 20
-58.4390661448
 40
303.1341461315
100
AcDbArc
 50
49.3475079187
 51
49.513153647
  0
ARC
  5
38C
100
AcDbEntity
  8
BEZUGSACHSEN
100
AcDbCircle
 62
7
  6
CONTINUOUS
 10
369.3052572684
 20
1.4546024949
 40
224.4672573752
100
AcDbArc
 50
49.3390794032
 51
49.5630019154
  0
ARC
  5
38D
100
AcDbEntity
  8
BEZUGSACHSEN
100
AcDbCircle
 62
7
  6
CONTINUOUS
 10
352.6873241094
 20
86.0803609994
 40
183.4888653967
100
AcDbArc
 50
28.1600272413
 51
28.3093942681
  0
ARC
  5
38E
100
AcDbEntity
  8
BEZUGSACHSEN
100
AcDbCircle
 62
7
  6
CONTINUOUS
 10
381.1905925036
 20
101.5834780667
 40
151.869712859
100
AcDbArc
 50
28.4089489429
 51
28.5819849586
  0
ARC
  5
38F
100
AcDbEntity
  8
BEZUGSACHSEN
100
AcDbCircle
 62
7
  6
CONTINUOUS
 10
390.9957217881
 20
111.9732906551
 40
137.4579710621
100
AcDbArc
 50
26.2020246619
 51
26.3331377007
  0
ARC
  5
390
100
AcDbEntity
  8
BEZUGSACHSEN
100
AcDbCircle
 62
7
  6
CONTINUOUS
 10
398.2931886375
 20
111.8635296567
 40
132.3186534266
100
AcDbArc
 50
29.1366643626
 51
29.3210355417
  0
ARC
  5
391
100
AcDbEntity
  8
0
100
AcDbCircle
 62
7
  6
CONTINUOUS
 10
452.8134062874
 20
103.7094128579
 40
18.0
100
AcDbArc
 50
191.0482219935
 51
308.9517780065
  0
CIRCLE
  5
392
100
AcDbEntity
  8
0
100
AcDbCircle
 62
7
  6
CONTINUOUS
 10
452.8134062874
 20
103.7094128579
 40
7.8
  0
ARC
  5
393
100
AcDbEntity
  8
RUNDUNGEN
100
AcDbCircle
 62
7
  6
CONTINUOUS
 10
439.3623294774
 20
104.7623402571
 40
5.0
100
AcDbArc
 50
160.0
 51
191.0482219935
  0
ARC
  5
394
100
AcDbEntity
  8
0
100
AcDbCircle
 62
7
  6
CONTINUOUS
 10
463.7943376178
 20
95.8698165307
 40
5.0
100
AcDbArc
 50
308.9517780065
 51
340.0
  0
ARC
  5
395
100
AcDbEntity
  8
RUNDUNGEN
100
AcDbCircle
 62
7
  6
CONTINUOUS
 10
447.7996265424
 20
113.3246014236
 40
10.0
100
AcDbArc
 50
129.9999999953
 51
160.0000000102
  0
ARC
  5
396
100
AcDbEntity
  8
0
100
AcDbCircle
 62
7
  6
CONTINUOUS
 10
462.8347084749
 20
107.8522791304
 40
10.0
100
AcDbArc
 50
340.0
 51
10.0
  0
ARC
  5
397
100
AcDbEntity
  8
0
100
AcDbCircle
 62
7
  6
CONTINUOUS
 10
476.5682589815
 20
116.3470010711
 40
4.9999750263
100
AcDbArc
 50
160.0009913597
 51
190.0011447121
  0
ARC
  5
398
100
AcDbEntity
  8
0
100
AcDbCircle
 62
7
  6
CONTINUOUS
 10
532.0936755103
 20
103.7094128579
 40
18.0
100
AcDbArc
 50
231.0482219935
 51
348.9517780065
  0
CIRCLE
  5
399
100
AcDbEntity
  8
0
100
AcDbCircle
 62
7
  6
CONTINUOUS
 10
532.0936755103
 20
103.7094128579
 40
7.5
  0
ARC
  5
39A
100
AcDbEntity
  8
0
100
AcDbCircle
 62
7
  6
CONTINUOUS
 10
521.1127441798
 20
95.8698165307
 40
5.0
100
AcDbArc
 50
200.0
 51
231.0482219935
  0
ARC
  5
39B
100
AcDbEntity
  8
0
100
AcDbCircle
 62
7
  6
CONTINUOUS
 10
522.0723733227
 20
107.8522791304
 40
10.0
100
AcDbArc
 50
170.0
 51
200.0
  0
ARC
  5
39C
100
AcDbEntity
  8
0
100
AcDbCircle
 62
7
  6
CONTINUOUS
 10
508.3388054696
 20
116.3469026937
 40
5.0
100
AcDbArc
 50
350.0
 51
20.0
  0
ARC
  5
39D
100
AcDbEntity
  8
KONSTRUKTIONSELEMENTE
100
AcDbCircle
 62
7
  6
CONTINUOUS
 10
345.8787413083
 20
127.9947876069
 40
8.25
100
AcDbArc
 50
45.8421444573
 51
120.0
  0
ARC
  5
39E
100
AcDbEntity
  8
KONSTRUKTIONSELEMENTE
100
AcDbCircle
 62
7
  6
CONTINUOUS
 10
345.8787413083
 20
127.9947876069
 40
8.25
100
AcDbArc
 50
300.0
 51
14.1578555427
  0
ARC
  5
39F
100
AcDbEntity
  8
KONSTRUKTIONSELEMENTE
100
AcDbCircle
 62
7
  6
CONTINUOUS
 10
338.5175253761
 20
123.7447876069
 40
8.25
100
AcDbArc
 50
227.6769957192
 51
300.0
  0
ARC
  5
3A0
100
AcDbEntity
  8
KONSTRUKTIONSELEMENTE
100
AcDbCircle
 62
7
  6
CONTINUOUS
 10
338.5175253761
 20
123.7447876069
 40
8.25
100
AcDbArc
 50
120.0
 51
192.3230042808
  0
ARC
  5
3A1
100
AcDbEntity
  8
KONSTRUKTIONSELEMENTE
100
AcDbCircle
 62
7
  6
CONTINUOUS
 10
371.209984369
 20
142.6197876069
 40
8.0
100
AcDbArc
 50
226.3642958278
 51
300.0
  0
ARC
  5
3A2
100
AcDbEntity
  8
KONSTRUKTIONSELEMENTE
100
AcDbCircle
 62
7
  6
CONTINUOUS
 10
371.209984369
 20
142.6197876069
 40
8.0
100
AcDbArc
 50
120.0
 51
193.6357041722
  0
ARC
  5
3A3
100
AcDbEntity
  8
KONSTRUKTIONSELEMENTE
100
AcDbCircle
 62
7
  6
CONTINUOUS
 10
371.209984369
 20
142.6197876069
 40
3.5
100
AcDbArc
 50
250.1538775079
 51
300.0
  0
ARC
  5
3A4
100
AcDbEntity
  8
KONSTRUKTIONSELEMENTE
100
AcDbCircle
 62
7
  6
CONTINUOUS
 10
371.209984369
 20
142.6197876069
 40
3.5
100
AcDbArc
 50
120.0
 51
169.8461224921
  0
ARC
  5
3A5
100
AcDbEntity
  8
KONSTRUKTIONSELEMENTE
100
AcDbCircle
 62
7
  6
CONTINUOUS
 10
345.8787413083
 20
127.9947876069
 40
3.25
100
AcDbArc
 50
73.8837571799
 51
120.0
  0
ARC
  5
3A6
100
AcDbEntity
  8
KONSTRUKTIONSELEMENTE
100
AcDbCircle
 62
7
  6
CONTINUOUS
 10
345.8787413083
 20
127.9947876069
 40
3.25
100
AcDbArc
 50
300.0
 51
346.1162428201
  0
ARC
  5
3A7
100
AcDbEntity
  8
KONSTRUKTIONSELEMENTE
100
AcDbCircle
 62
7
  6
CONTINUOUS
 10
338.5175253761
 20
123.7447876069
 40
3.25
100
AcDbArc
 50
260.4863577938
 51
300.0
  0
ARC
  5
3A8
100
AcDbEntity
  8
KONSTRUKTIONSELEMENTE
100
AcDbCircle
 62
7
  6
CONTINUOUS
 10
338.5175253761
 20
123.7447876069
 40
3.25
100
AcDbArc
 50
120.0
 51
159.5136422062
  0
ARC
  5
3A9
100
AcDbEntity
  8
KONSTRUKTIONSELEMENTE
100
AcDbCircle
 62
7
  6
CONTINUOUS
 10
370.1274526143
 20
141.9947876069
 40
2.25
100
AcDbArc
 50
300.0
 51
120.0
  0
ARC
  5
3AA
100
AcDbEntity
  8
KONSTRUKTIONSELEMENTE
100
AcDbCircle
 62
7
  6
CONTINUOUS
 10
347.177779414
 20
128.7447876069
 40
2.25
100
AcDbArc
 50
120.0
 51
300.0
  0
ARC
  5
3AB
100
AcDbEntity
  8
KONSTRUKTIONSELEMENTE
100
AcDbCircle
 62
7
  6
CONTINUOUS
 10
384.2003654258
 20
150.1197876069
 40
8.0
100
AcDbArc
 50
46.3642958278
 51
120.0
  0
ARC
  5
3AC
100
AcDbEntity
  8
KONSTRUKTIONSELEMENTE
100
AcDbCircle
 62
7
  6
CONTINUOUS
 10
384.2003654258
 20
150.1197876069
 40
8.0
100
AcDbArc
 50
300.0
 51
13.6357041722
  0
ARC
  5
3AD
100
AcDbEntity
  8
KONSTRUKTIONSELEMENTE
100
AcDbCircle
 62
7
  6
CONTINUOUS
 10
384.2003654258
 20
150.1197876069
 40
3.5
100
AcDbArc
 50
70.1538775079
 51
120.0
  0
ARC
  5
3AE
100
AcDbEntity
  8
KONSTRUKTIONSELEMENTE
100
AcDbCircle
 62
7
  6
CONTINUOUS
 10
384.2003654258
 20
150.1197876069
 40
3.5
100
AcDbArc
 50
300.0
 51
349.8461224921
  0
ARC
  5
3AF
100
AcDbEntity
  8
KONSTRUKTIONSELEMENTE
100
AcDbCircle
 62
7
  6
CONTINUOUS
 10
385.2828971805
 20
150.7447876069
 40
2.25
100
AcDbArc
 50
120.0
 51
300.0
  0
ARC
  5
3B0
100
AcDbEntity
  8
BEZUGSACHSEN
100
AcDbCircle
 62
7
  6
CONTINUOUS
 10
434.1231296781
 20
135.7857910353
 40
89.0355014044
100
AcDbArc
 50
25.3829558254
 51
25.6118914209
  0
ARC
  5
3B1
100
AcDbEntity
  8
KONSTRUKTIONSELEMENTE
100
AcDbCircle
 62
7
  6
CONTINUOUS
 10
416.4598117167
 20
168.7447876069
 40
8.25
100
AcDbArc
 50
51.346698243
 51
120.0
  0
ARC
  5
3B2
100
AcDbEntity
  8
KONSTRUKTIONSELEMENTE
100
AcDbCircle
 62
7
  6
CONTINUOUS
 10
416.4598117167
 20
168.7447876069
 40
8.25
100
AcDbArc
 50
300.0
 51
8.653301757
  0
ARC
  5
3B3
100
AcDbEntity
  8
KONSTRUKTIONSELEMENTE
100
AcDbCircle
 62
7
  6
CONTINUOUS
 10
409.0985957846
 20
164.4947876069
 40
8.25
100
AcDbArc
 50
225.8421444573
 51
300.0
  0
ARC
  5
3B4
100
AcDbEntity
  8
KONSTRUKTIONSELEMENTE
100
AcDbCircle
 62
7
  6
CONTINUOUS
 10
409.0985957846
 20
164.4947876069
 40
8.25
100
AcDbArc
 50
120.0
 51
194.1578555427
  0
ARC
  5
3B5
100
AcDbEntity
  8
KONSTRUKTIONSELEMENTE
100
AcDbCircle
 62
7
  6
CONTINUOUS
 10
416.4598117167
 20
168.7447876069
 40
3.25
100
AcDbArc
 50
97.8065550031
 51
120.0
  0
ARC
  5
3B6
100
AcDbEntity
  8
KONSTRUKTIONSELEMENTE
100
AcDbCircle
 62
7
  6
CONTINUOUS
 10
416.4598117167
 20
168.7447876069
 40
3.25
100
AcDbArc
 50
300.0
 51
322.1934449969
  0
ARC
  5
3B7
100
AcDbEntity
  8
KONSTRUKTIONSELEMENTE
100
AcDbCircle
 62
7
  6
CONTINUOUS
 10
409.0985957846
 20
164.4947876069
 40
3.25
100
AcDbArc
 50
253.8837571799
 51
300.0
  0
ARC
  5
3B8
100
AcDbEntity
  8
KONSTRUKTIONSELEMENTE
100
AcDbCircle
 62
7
  6
CONTINUOUS
 10
409.0985957846
 20
164.4947876069
 40
3.25
100
AcDbArc
 50
120.0
 51
166.1162428201
  0
ARC
  5
3B9
100
AcDbEntity
  8
KONSTRUKTIONSELEMENTE
100
AcDbCircle
 62
7
  6
CONTINUOUS
 10
416.2433053658
 20
168.6197876069
 40
3.0
100
AcDbArc
 50
120.0
 51
300.0
  0
ARC
  5
3BA
100
AcDbEntity
  8
KONSTRUKTIONSELEMENTE
100
AcDbCircle
 62
7
  6
CONTINUOUS
 10
408.2325703808
 20
163.9947876069
 40
2.25
100
AcDbArc
 50
300.0
 51
120.0
  0
ARC
  5
3BB
100
AcDbEntity
  8
BEZUGSACHSEN
100
AcDbCircle
 62
7
  6
CONTINUOUS
 10
445.1272559298
 20
141.4516098163
 40
76.8057341531
100
AcDbArc
 50
24.6264770114
 51
24.9392200225
  0
ARC
  5
3BC
100
AcDbEntity
  8
BEZUGSACHSEN
100
AcDbCircle
 62
7
  6
CONTINUOUS
 10
442.6244565196
 20
147.6710952559
 40
75.2954834987
100
AcDbArc
 50
19.0561437912
 51
20.0966394789
  0
ARC
  5
3BD
100
AcDbEntity
  8
BEZUGSACHSEN
100
AcDbCircle
 62
7
  6
CONTINUOUS
 10
442.6835641607
 20
147.6921999757
 40
75.2327230055
100
AcDbArc
 50
20.1786567809
 51
20.4441886495
  0
ARC
  5
3BE
100
AcDbEntity
  8
KONSTRUKTIONSELEMENTE
100
AcDbCircle
 62
7
  6
CONTINUOUS
 10
442.5314391596
 20
147.853605053
 40
74.7746944113
100
AcDbArc
 50
18.8937536058
 51
20.2908213039
  0
ARC
  5
3BF
100
AcDbEntity
  8
BEZUGSACHSEN
100
AcDbCircle
 62
7
  6
CONTINUOUS
 10
444.3243979286
 20
147.8384133608
 40
73.7999806236
100
AcDbArc
 50
19.5240370018
 51
20.5117319273
  0
ARC
  5
3C0
100
AcDbEntity
  8
BEZUGSACHSEN
100
AcDbCircle
 62
7
  6
CONTINUOUS
 10
449.2247011906
 20
148.2688989227
 40
69.5254044428
100
AcDbArc
 50
19.3535842249
 51
19.9483171363
  0
ARC
  5
3C1
100
AcDbEntity
  8
BEZUGSACHSEN
100
AcDbCircle
 62
7
  6
CONTINUOUS
 10
449.2430664918
 20
148.275352638
 40
69.5059392168
100
AcDbArc
 50
19.9484813724
 51
20.5433950025
  0
ARC
  5
3C2
100
AcDbEntity
  8
BEZUGSACHSEN
100
AcDbCircle
 62
7
  6
CONTINUOUS
 10
452.3781237278
 20
146.3040315393
 40
68.290427326
100
AcDbArc
 50
26.2695336968
 51
26.5300759591
  0
ARC
  5
3C3
100
AcDbEntity
  8
BEZUGSACHSEN
100
AcDbCircle
 62
7
  6
CONTINUOUS
 10
451.1547758192
 20
148.4304701407
 40
67.8474430665
100
AcDbArc
 50
19.337294651
 51
19.6099354056
  0
ARC
  5
3C4
100
AcDbEntity
  8
BEZUGSACHSEN
100
AcDbCircle
 62
7
  6
CONTINUOUS
 10
451.2168707929
 20
148.4525925052
 40
67.781525051
100
AcDbArc
 50
19.6099360383
 51
19.8828425176
  0
ARC
  5
3C5
100
AcDbEntity
  8
BEZUGSACHSEN
100
AcDbCircle
 62
7
  6
CONTINUOUS
 10
451.2228381795
 20
148.4546763848
 40
67.775204657
100
AcDbArc
 50
19.882901556
 51
20.4287919175
  0
ARC
  5
3C6
100
AcDbEntity
  8
BEZUGSACHSEN
100
AcDbCircle
 62
7
  6
CONTINUOUS
 10
457.6840115732
 20
148.9044732674
 40
62.2183157737
100
AcDbArc
 50
21.0331262368
 51
21.5229370663
  0
ARC
  5
3C7
100
AcDbEntity
  8
BEZUGSACHSEN
100
AcDbCircle
 62
7
  6
CONTINUOUS
 10
457.8837290254
 20
148.9874049065
 40
62.0022382387
100
AcDbArc
 50
18.8515282007
 51
19.2727803651
  0
ARC
  5
3C8
100
AcDbEntity
  8
BEZUGSACHSEN
100
AcDbCircle
 62
7
  6
CONTINUOUS
 10
468.9152379142
 20
136.8389474482
 40
60.5635219674
100
AcDbArc
 50
45.8901195317
 51
46.0867752776
  0
ARC
  5
3C9
100
AcDbEntity
  8
BEZUGSACHSEN
100
AcDbCircle
 62
7
  6
CONTINUOUS
 10
462.719001962
 20
151.4861382906
 40
56.8456243095
100
AcDbArc
 50
25.5065514389
 51
25.8690065192
  0
ARC
  5
3CA
100
AcDbEntity
  8
BEZUGSACHSEN
100
AcDbCircle
 62
7
  6
CONTINUOUS
 10
462.1179141959
 20
158.9139460957
 40
53.1219101936
100
AcDbArc
 50
20.9816543679
 51
21.3936832903
  0
ARC
  5
3CB
100
AcDbEntity
  8
BEZUGSACHSEN
100
AcDbCircle
 62
7
  6
CONTINUOUS
 10
462.2226793393
 20
158.9572564378
 40
53.0086315393
100
AcDbArc
 50
18.914279503
 51
19.3271490363
  0
ARC
  5
3CC
100
AcDbEntity
  8
KONSTRUKTIONSELEMENTE
100
AcDbCircle
 62
7
  6
CONTINUOUS
 10
462.0407338917
 20
159.0390086696
 40
52.616339063
100
AcDbArc
 50
20.8343508008
 51
21.2503182391
  0
ARC
  5
3CD
100
AcDbEntity
  8
KONSTRUKTIONSELEMENTE
100
AcDbCircle
 62
7
  6
CONTINUOUS
 10
462.0391472568
 20
159.0433679834
 40
52.616339039
100
AcDbArc
 50
18.7496817609
 51
19.1656493977
  0
ARC
  5
3CE
100
AcDbEntity
  8
BEZUGSACHSEN
100
AcDbCircle
 62
7
  6
CONTINUOUS
 10
472.7136470702
 20
158.4328255895
 40
44.6346981008
100
AcDbArc
 50
20.1015770573
 51
20.265001066
  0
ARC
  5
3CF
100
AcDbEntity
  8
BEZUGSACHSEN
100
AcDbCircle
 62
7
  6
CONTINUOUS
 10
478.1403367472
 20
129.3090663428
 40
44.445147225
100
AcDbArc
 50
98.6394715506
 51
98.9632560083
  0
ARC
  5
3D0
100
AcDbEntity
  8
BEZUGSACHSEN
100
AcDbCircle
 62
7
  6
CONTINUOUS
 10
474.2292179552
 20
158.3491314376
 40
43.4301270425
100
AcDbArc
 50
20.0204160595
 51
20.3563299452
  0
ARC
  5
3D1
100
AcDbEntity
  8
BEZUGSACHSEN
100
AcDbCircle
 62
7
  6
CONTINUOUS
 10
477.4539586399
 20
130.2336029408
 40
42.965256369
100
AcDbArc
 50
98.6436288348
 51
98.9784634534
  0
ARC
  5
3D2
100
AcDbEntity
  8
RUNDUNGEN
100
AcDbCircle
 62
7
  6
CONTINUOUS
 10
454.7597675052
 20
132.4474315551
 40
5.0
100
AcDbArc
 50
93.9694823178
 51
160.0
  0
ARC
  5
3D3
100
AcDbEntity
  8
0
100
AcDbCircle
 62
7
  6
CONTINUOUS
 10
469.7948494377
 20
126.9751092619
 40
5.0
100
AcDbArc
 50
340.0
 51
46.0305176822
  0
ARC
  5
3D4
100
AcDbEntity
  8
KONSTRUKTIONSELEMENTE
100
AcDbCircle
 62
7
  6
CONTINUOUS
 10
442.7394185037
 20
128.6596920647
 40
4.9999750263
100
AcDbArc
 50
309.9988552879
 51
339.9990086403
  0
ARC
  5
3D5
100
AcDbEntity
  8
RUNDUNGEN
100
AcDbCircle
 62
7
  6
CONTINUOUS
 10
454.2059664867
 20
140.4282400625
 40
3.0
100
AcDbArc
 50
273.9694823178
 51
333.3969483249
  0
ARC
  5
3D6
100
AcDbEntity
  8
0
100
AcDbCircle
 62
7
  6
CONTINUOUS
 10
475.3490504544
 20
132.7327868377
 40
3.0
100
AcDbArc
 50
166.6030516751
 51
226.0305176822
  0
ARC
  5
3D7
100
AcDbEntity
  8
BEZUGSACHSEN
100
AcDbCircle
 62
7
  6
CONTINUOUS
 10
469.3388730144
 20
162.7065222449
 40
45.2627103214
100
AcDbArc
 50
14.4100622929
 51
14.7852205869
  0
ARC
  5
3D8
100
AcDbEntity
  8
KONSTRUKTIONSELEMENTE
100
AcDbCircle
 62
7
  6
CONTINUOUS
 10
468.9172932115
 20
162.7025546056
 40
45.1303887916
100
AcDbArc
 50
14.2144122837
 51
14.590793885
  0
ARC
  5
3D9
100
AcDbEntity
  8
BEZUGSACHSEN
100
AcDbCircle
 62
7
  6
CONTINUOUS
 10
481.0774675989
 20
169.2593475585
 40
31.7587577075
100
AcDbArc
 50
18.3751169402
 51
19.30321794
  0
ARC
  5
3DA
100
AcDbEntity
  8
BEZUGSACHSEN
100
AcDbCircle
 62
7
  6
CONTINUOUS
 10
481.1632829334
 20
169.2892090358
 40
31.6678954759
100
AcDbArc
 50
19.3035526833
 51
20.510831251
  0
ARC
  5
3DB
100
AcDbEntity
  8
KONSTRUKTIONSELEMENTE
100
AcDbCircle
 62
7
  6
CONTINUOUS
 10
480.8683095366
 20
169.2730859958
 40
31.4239258453
100
AcDbArc
 50
18.2037570356
 51
20.3584686019
  0
ARC
  5
3DC
100
AcDbEntity
  8
BEZUGSACHSEN
100
AcDbCircle
 62
7
  6
CONTINUOUS
 10
482.2041051703
 20
168.9556384807
 40
30.9949085736
100
AcDbArc
 50
18.882573874
 51
19.2921365754
  0
ARC
  5
3DD
100
AcDbEntity
  8
BEZUGSACHSEN
100
AcDbCircle
 62
7
  6
CONTINUOUS
 10
482.2411557182
 20
168.9686050099
 40
30.9556546059
100
AcDbArc
 50
19.2921412571
 51
19.7022099547
  0
ARC
  5
3DE
100
AcDbEntity
  8
BEZUGSACHSEN
100
AcDbCircle
 62
7
  6
CONTINUOUS
 10
482.253478134
 20
168.9729745693
 40
30.9425804582
100
AcDbArc
 50
19.7022849863
 51
20.5228128296
  0
ARC
  5
3DF
100
AcDbEntity
  8
BEZUGSACHSEN
100
AcDbCircle
 62
7
  6
CONTINUOUS
 10
483.6131061929
 20
169.3752011847
 40
30.1439342765
100
AcDbArc
 50
8.2446833701
 51
8.5224074134
  0
ARC
  5
3E0
100
AcDbEntity
  8
BEZUGSACHSEN
100
AcDbCircle
 62
7
  6
CONTINUOUS
 10
486.0135451508
 20
171.7162867537
 40
15.6680602901
100
AcDbArc
 50
157.1559538426
 51
157.9911348432
  0
ARC
  5
3E1
100
AcDbEntity
  8
BEZUGSACHSEN
100
AcDbCircle
 62
7
  6
CONTINUOUS
 10
485.9732737428
 20
171.7373212803
 40
15.6229892559
100
AcDbArc
 50
161.4946992624
 51
162.4715981063
  0
ARC
  5
3E2
100
AcDbEntity
  8
BEZUGSACHSEN
100
AcDbCircle
 62
7
  6
CONTINUOUS
 10
476.124692018
 20
161.0633805541
 40
15.1542228491
100
AcDbArc
 50
109.9688381372
 51
110.295609957
  0
ARC
  5
3E3
100
AcDbEntity
  8
BEZUGSACHSEN
100
AcDbCircle
 62
7
  6
CONTINUOUS
 10
478.4658639889
 20
166.7060143858
 40
13.425676865
100
AcDbArc
 50
112.2959656241
 51
112.5600414557
  0
ARC
  5
3E4
100
AcDbEntity
  8
BEZUGSACHSEN
100
AcDbCircle
 62
7
  6
CONTINUOUS
 10
470.4893683866
 20
167.7876507807
 40
12.1254169011
100
AcDbArc
 50
77.2493764463
 51
77.4082575723
  0
ARC
  5
3E5
100
AcDbEntity
  8
BEZUGSACHSEN
100
AcDbCircle
 62
7
  6
CONTINUOUS
 10
482.2932507255
 20
173.1444723392
 40
11.9436230771
100
AcDbArc
 50
171.8264747994
 51
172.6120525904
  0
ARC
  5
3E6
100
AcDbEntity
  8
BEZUGSACHSEN
100
AcDbCircle
 62
7
  6
CONTINUOUS
 10
478.942115423
 20
169.1804424319
 40
11.6463812911
100
AcDbArc
 50
121.2900384561
 51
121.8216812423
  0
ARC
  5
3E7
100
AcDbEntity
  8
BEZUGSACHSEN
100
AcDbCircle
 62
7
  6
CONTINUOUS
 10
483.2845108755
 20
178.3020045096
 40
9.9280876057
100
AcDbArc
 50
175.1824132186
 51
175.8194204533
  0
ARC
  5
3E8
100
AcDbEntity
  8
BEZUGSACHSEN
100
AcDbCircle
 62
7
  6
CONTINUOUS
 10
479.9822310495
 20
174.9594377503
 40
9.1195117477
100
AcDbArc
 50
177.3046504537
 51
177.8303611406
  0
ARC
  5
3E9
100
AcDbEntity
  8
0
100
AcDbCircle
 62
7
  6
CONTINUOUS
 10
479.6843777528
 20
170.9582402974
 40
6.0
100
AcDbArc
 50
340.0
 51
354.0
  0
ARC
  5
3EA
100
AcDbEntity
  8
BEZUGSACHSEN
100
AcDbCircle
 62
7
  6
CONTINUOUS
 10
475.4557609592
 20
172.4973309424
 40
6.0
100
AcDbArc
 50
146.0
 51
160.0
  0
ARC
  5
3EB
100
AcDbEntity
  8
KONSTRUKTIONSELEMENTE
100
AcDbCircle
 62
7
  6
CONTINUOUS
 10
451.750346921
 20
189.1197876069
 40
3.0
100
AcDbArc
 50
300.0
 51
120.0
  0
ARC
  5
3EC
100
AcDbEntity
  8
KONSTRUKTIONSELEMENTE
100
AcDbCircle
 62
7
  6
CONTINUOUS
 10
509.3923526026
 20
126.7339180219
 40
61.2572927123
100
AcDbArc
 50
128.5555952163
 51
128.7951539993
  0
ARC
  5
3ED
100
AcDbEntity
  8
BEZUGSACHSEN
100
AcDbCircle
 62
7
  6
CONTINUOUS
 10
508.4446164346
 20
127.7010647677
 40
60.3644549386
100
AcDbArc
 50
128.6877928525
 51
128.9305505583
  0
ARC
  5
3EE
100
AcDbEntity
  8
BEZUGSACHSEN
100
AcDbCircle
 62
7
  6
CONTINUOUS
 10
507.0580859057
 20
141.0417717263
 40
51.0628538751
100
AcDbArc
 50
130.7067833547
 51
130.9878871108
  0
ARC
  5
3EF
100
AcDbEntity
  8
BEZUGSACHSEN
100
AcDbCircle
 62
7
  6
CONTINUOUS
 10
494.9386945894
 20
129.3371047369
 40
48.5514281819
100
AcDbArc
 50
67.7472394248
 51
67.9427812479
  0
ARC
  5
3F0
100
AcDbEntity
  8
BEZUGSACHSEN
100
AcDbCircle
 62
7
  6
CONTINUOUS
 10
496.9916969367
 20
138.5523285274
 40
38.8217872286
100
AcDbArc
 50
62.3033275659
 51
62.5901006247
  0
ARC
  5
3F1
100
AcDbEntity
  8
0
100
AcDbCircle
 62
7
  6
CONTINUOUS
 10
509.5580313433
 20
132.7327868377
 40
3.0
100
AcDbArc
 50
313.9694823178
 51
13.3969482318
  0
ARC
  5
3F2
100
AcDbEntity
  8
KONSTRUKTIONSELEMENTE
100
AcDbCircle
 62
7
  6
CONTINUOUS
 10
530.1473142925
 20
132.4474315551
 40
5.0
100
AcDbArc
 50
20.0
 51
86.0305176822
  0
ARC
  5
3F3
100
AcDbEntity
  8
RUNDUNGEN
100
AcDbCircle
 62
7
  6
CONTINUOUS
 10
530.1473142925
 20
132.4474315551
 40
5.0
100
AcDbArc
 50
20.0
 51
86.0305176822
  0
ARC
  5
3F4
100
AcDbEntity
  8
0
100
AcDbCircle
 62
7
  6
CONTINUOUS
 10
515.1122323599
 20
126.9751092619
 40
5.0
100
AcDbArc
 50
133.9694823178
 51
200.0
  0
ARC
  5
3F5
100
AcDbEntity
  8
RUNDUNGEN
100
AcDbCircle
 62
7
  6
CONTINUOUS
 10
530.701115311
 20
140.4282400625
 40
3.0
100
AcDbArc
 50
206.6030517682
 51
266.0305176822
  0
ARC
  5
3F6
100
AcDbEntity
  8
BEZUGSACHSEN
100
AcDbCircle
 62
7
  6
CONTINUOUS
 10
528.2611331859
 20
148.1893494159
 40
63.439363616
100
AcDbArc
 50
159.8113121619
 51
160.2285794335
  0
ARC
  5
3F7
100
AcDbEntity
  8
BEZUGSACHSEN
100
AcDbCircle
 62
7
  6
CONTINUOUS
 10
527.519035761
 20
148.5211995821
 40
62.8687692787
100
AcDbArc
 50
154.4481389327
 51
154.793071685
  0
ARC
  5
3F8
100
AcDbEntity
  8
BEZUGSACHSEN
100
AcDbCircle
 62
7
  6
CONTINUOUS
 10
530.5658029903
 20
153.8411144651
 40
62.5690156598
100
AcDbArc
 50
164.5513489823
 51
164.8733601423
  0
ARC
  5
3F9
100
AcDbEntity
  8
BEZUGSACHSEN
100
AcDbCircle
 62
7
  6
CONTINUOUS
 10
520.8969994613
 20
153.7191256223
 40
54.7019163362
100
AcDbArc
 50
165.1918853995
 51
165.468412447
  0
ARC
  5
3FA
100
AcDbEntity
  8
BEZUGSACHSEN
100
AcDbCircle
 62
7
  6
CONTINUOUS
 10
519.548175897
 20
160.0749835558
 40
49.9062866491
100
AcDbArc
 50
154.3673959614
 51
154.7232215398
  0
ARC
  5
3FB
100
AcDbEntity
  8
KONSTRUKTIONSELEMENTE
100
AcDbCircle
 62
7
  6
CONTINUOUS
 10
519.5179138447
 20
160.2400341786
 40
49.2878433986
100
AcDbArc
 50
154.4655639784
 51
154.825794615
  0
ARC
  5
3FC
100
AcDbEntity
  8
BEZUGSACHSEN
100
AcDbCircle
 62
7
  6
CONTINUOUS
 10
515.2949214157
 20
156.2697848903
 40
48.8540550574
100
AcDbArc
 50
166.9024142833
 51
167.2169076928
  0
ARC
  5
3FD
100
AcDbEntity
  8
BEZUGSACHSEN
100
AcDbCircle
 62
7
  6
CONTINUOUS
 10
500.7979649313
 20
164.7025702853
 40
31.7757694875
100
AcDbArc
 50
159.6958708576
 51
160.1314874977
  0
ARC
  5
3FE
100
AcDbEntity
  8
BEZUGSACHSEN
100
AcDbCircle
 62
7
  6
CONTINUOUS
 10
499.5251205306
 20
166.5696029455
 40
31.6119724618
100
AcDbArc
 50
178.5683872804
 51
178.7548383244
  0
ARC
  5
3FF
100
AcDbEntity
  8
BEZUGSACHSEN
100
AcDbCircle
 62
7
  6
CONTINUOUS
 10
498.8439012863
 20
166.3062059014
 40
31.2017502845
100
AcDbArc
 50
178.5802795566
 51
178.9583254691
  0
ARC
  5
400
100
AcDbEntity
  8
BEZUGSACHSEN
100
AcDbCircle
 62
7
  6
CONTINUOUS
 10
499.5941428069
 20
164.4486906298
 40
30.9223532282
100
AcDbArc
 50
159.4636545412
 51
160.3589397222
  0
ARC
  5
401
100
AcDbEntity
  8
BEZUGSACHSEN
100
AcDbCircle
 62
7
  6
CONTINUOUS
 10
488.5329082868
 20
167.1000165135
 40
26.7964597174
100
AcDbArc
 50
18.7070291796
 51
19.1768893076
  0
ARC
  5
402
100
AcDbEntity
  8
BEZUGSACHSEN
100
AcDbCircle
 62
7
  6
CONTINUOUS
 10
488.5847975011
 20
167.1180575861
 40
26.741523656
100
AcDbArc
 50
19.1768998284
 51
20.6049330646
  0
ARC
  5
403
100
AcDbEntity
  8
BEZUGSACHSEN
100
AcDbCircle
 62
7
  6
CONTINUOUS
 10
489.6182970606
 20
166.7817184562
 40
26.0763599504
100
AcDbArc
 50
18.0821299863
 51
20.14654034
  0
ARC
  5
404
100
AcDbEntity
  8
BEZUGSACHSEN
100
AcDbCircle
 62
7
  6
CONTINUOUS
 10
489.675457398
 20
166.8019915772
 40
26.0157144714
100
AcDbArc
 50
20.1479819872
 51
20.621820251
  0
ARC
  5
405
100
AcDbEntity
  8
BEZUGSACHSEN
100
AcDbCircle
 62
7
  6
CONTINUOUS
 10
492.8553090415
 20
176.1670353036
 40
25.2967474791
100
AcDbArc
 50
198.3359543252
 51
198.6940850207
  0
ARC
  5
406
100
AcDbEntity
  8
BEZUGSACHSEN
100
AcDbCircle
 62
7
  6
CONTINUOUS
 10
492.3298163935
 20
171.6159155896
 40
25.1339868154
100
AcDbArc
 50
190.8762066721
 51
191.1703923467
  0
ARC
  5
407
100
AcDbEntity
  8
BEZUGSACHSEN
100
AcDbCircle
 62
7
  6
CONTINUOUS
 10
494.1534580354
 20
174.2888266741
 40
24.1932906758
100
AcDbArc
 50
188.6920077576
 51
188.9910031435
  0
ARC
  5
408
100
AcDbEntity
  8
BEZUGSACHSEN
100
AcDbCircle
 62
7
  6
CONTINUOUS
 10
494.1252572777
 20
168.8682971907
 40
21.3571935776
100
AcDbArc
 50
11.1568667217
 51
11.750376358
  0
ARC
  5
409
100
AcDbEntity
  8
BEZUGSACHSEN
100
AcDbCircle
 62
7
  6
CONTINUOUS
 10
492.4095709038
 20
175.3128569955
 40
18.9522291957
100
AcDbArc
 50
157.659356521
 51
160.1386446202
  0
ARC
  5
40A
100
AcDbEntity
  8
KONSTRUKTIONSELEMENTE
100
AcDbCircle
 62
7
  6
CONTINUOUS
 10
492.7283223142
 20
175.2513610551
 40
18.7508881991
100
AcDbArc
 50
157.7908805356
 51
160.5803867729
  0
ARC
  5
40B
100
AcDbEntity
  8
BEZUGSACHSEN
100
AcDbCircle
 62
7
  6
CONTINUOUS
 10
491.7001973891
 20
174.9413313982
 40
18.5718541397
100
AcDbArc
 50
158.5905627182
 51
159.4310264871
  0
ARC
  5
40C
100
AcDbEntity
  8
BEZUGSACHSEN
100
AcDbCircle
 62
7
  6
CONTINUOUS
 10
491.6757821604
 20
174.9505649446
 40
18.5457513185
100
AcDbArc
 50
159.4312334477
 51
160.5475177489
  0
ARC
  5
40D
100
AcDbEntity
  8
BEZUGSACHSEN
100
AcDbCircle
 62
7
  6
CONTINUOUS
 10
497.0253482704
 20
171.0998800057
 40
17.8186001258
100
AcDbArc
 50
7.9243931903
 51
8.3066742045
  0
ARC
  5
40E
100
AcDbEntity
  8
BEZUGSACHSEN
100
AcDbCircle
 62
7
  6
CONTINUOUS
 10
489.6604650628
 20
173.7933574761
 40
17.5252071019
100
AcDbArc
 50
158.2134909844
 51
158.8041925326
  0
ARC
  5
40F
100
AcDbEntity
  8
BEZUGSACHSEN
100
AcDbCircle
 62
7
  6
CONTINUOUS
 10
489.6261099196
 20
173.8066853785
 40
17.4883572874
100
AcDbArc
 50
158.8042087603
 51
159.3960844784
  0
ARC
  5
410
100
AcDbEntity
  8
BEZUGSACHSEN
100
AcDbCircle
 62
7
  6
CONTINUOUS
 10
489.6087393244
 20
173.8132466104
 40
17.4697888596
100
AcDbArc
 50
159.3961787236
 51
159.9886760599
  0
ARC
  5
411
100
AcDbEntity
  8
BEZUGSACHSEN
100
AcDbCircle
 62
7
  6
CONTINUOUS
 10
489.6084375104
 20
173.8133622864
 40
17.4694656846
100
AcDbArc
 50
160.041741225
 51
160.5812579321
  0
ARC
  5
412
100
AcDbEntity
  8
BEZUGSACHSEN
100
AcDbCircle
 62
7
  6
CONTINUOUS
 10
488.8027963503
 20
173.3505753424
 40
17.0616664794
100
AcDbArc
 50
158.1678252149
 51
160.3392325707
  0
ARC
  5
413
100
AcDbEntity
  8
BEZUGSACHSEN
100
AcDbCircle
 62
7
  6
CONTINUOUS
 10
498.8935366468
 20
171.7162867537
 40
15.6680602901
100
AcDbArc
 50
22.0088651568
 51
22.8440461574
  0
ARC
  5
414
100
AcDbEntity
  8
BEZUGSACHSEN
100
AcDbCircle
 62
7
  6
CONTINUOUS
 10
487.4489522725
 20
177.2933965361
 40
13.8528711716
100
AcDbArc
 50
169.861966794
 51
170.5345643591
  0
ARC
  5
415
100
AcDbEntity
  8
KONSTRUKTIONSELEMENTE
100
AcDbCircle
 62
7
  6
CONTINUOUS
 10
487.8939735495
 20
177.1815284522
 40
13.7909026228
100
AcDbArc
 50
170.1053664798
 51
170.7815130451
  0
ARC
  5
416
100
AcDbEntity
  8
KONSTRUKTIONSELEMENTE
100
AcDbCircle
 62
7
  6
CONTINUOUS
 10
493.2124552437
 20
194.5735720864
 40
32.4160395557
100
AcDbArc
 50
226.7233454885
 51
226.9593889906
  0
ARC
  5
417
100
AcDbEntity
  8
BEZUGSACHSEN
100
AcDbCircle
 62
7
  6
CONTINUOUS
 10
492.029457276
 20
193.9240326993
 40
31.3501917423
100
AcDbArc
 50
226.5579573235
 51
226.800422379
  0
ARC
  5
418
100
AcDbEntity
  8
KONSTRUKTIONSELEMENTE
100
AcDbCircle
 62
7
  6
CONTINUOUS
 10
499.8316837166
 20
185.4772700879
 40
17.1149667079
100
AcDbArc
 50
318.2086946707
 51
318.5575363162
  0
ARC
  5
419
100
AcDbEntity
  8
BEZUGSACHSEN
100
AcDbCircle
 62
7
  6
CONTINUOUS
 10
500.6431864394
 20
185.3103605367
 40
16.6557017124
100
AcDbArc
 50
318.4239049831
 51
318.7798529253
  0
ARC
  5
41A
100
AcDbEntity
  8
BEZUGSACHSEN
100
AcDbCircle
 62
7
  6
CONTINUOUS
 10
500.943831351
 20
179.0713262956
 40
9.9667650275
100
AcDbArc
 50
7.5747859077
 51
8.3653143139
  0
ARC
  5
41B
100
AcDbEntity
  8
KONSTRUKTIONSELEMENTE
100
AcDbCircle
 62
7
  6
CONTINUOUS
 10
500.486738497
 20
178.9425821204
 40
9.9232419389
100
AcDbArc
 50
7.3102508344
 51
8.1050305776
  0
ARC
  5
41C
100
AcDbEntity
  8
BEZUGSACHSEN
100
AcDbCircle
 62
7
  6
CONTINUOUS
 10
514.9827053553
 20
160.7620062197
 40
46.5295504546
100
AcDbArc
 50
169.8575355679
 51
170.3122778399
  0
ARC
  5
41D
100
AcDbEntity
  8
BEZUGSACHSEN
100
AcDbCircle
 62
7
  6
CONTINUOUS
 10
509.0546485464
 20
166.4262851225
 40
37.6399755357
100
AcDbArc
 50
159.5593791066
 51
160.2948796448
  0
ARC
  5
41E
100
AcDbEntity
  8
KONSTRUKTIONSELEMENTE
100
AcDbCircle
 62
7
  6
CONTINUOUS
 10
509.2616865789
 20
166.4590065733
 40
37.2943349948
100
AcDbArc
 50
159.7113255025
 51
160.4536428573
  0
ARC
  5
41F
100
AcDbEntity
  8
BEZUGSACHSEN
100
AcDbCircle
 62
7
  6
CONTINUOUS
 10
507.8469031824
 20
166.1738340736
 40
36.7823840871
100
AcDbArc
 50
159.5491056316
 51
160.3017548406
  0
ARC
  5
420
100
AcDbEntity
  8
BEZUGSACHSEN
100
AcDbCircle
 62
7
  6
CONTINUOUS
 10
506.769422024
 20
165.8761600436
 40
36.0626846261
100
AcDbArc
 50
160.9934593035
 51
161.5053584324
  0
ARC
  5
421
100
AcDbEntity
  8
BEZUGSACHSEN
100
AcDbCircle
 62
7
  6
CONTINUOUS
 10
504.9015081421
 20
165.5165820267
 40
34.7168505842
100
AcDbArc
 50
160.232339814
 51
161.5615705715
  0
ARC
  5
422
100
AcDbEntity
  8
KONSTRUKTIONSELEMENTE
100
AcDbCircle
 62
7
  6
CONTINUOUS
 10
505.1365521684
 20
165.5396616755
 40
34.4008285915
100
AcDbArc
 50
160.4044906603
 51
161.7460047592
  0
ARC
  5
423
100
AcDbEntity
  8
BEZUGSACHSEN
100
AcDbCircle
 62
7
  6
CONTINUOUS
 10
503.6527734462
 20
165.2785426129
 40
33.8158111331
100
AcDbArc
 50
160.2377229359
 51
161.0564526975
  0
ARC
  5
424
100
AcDbEntity
  8
KONSTRUKTIONSELEMENTE
100
AcDbCircle
 62
7
  6
CONTINUOUS
 10
504.7763933545
 20
169.1594290748
 40
33.7324155898
100
AcDbArc
 50
177.0734579791
 51
177.4201274751
  0
ARC
  5
425
100
AcDbEntity
  8
BEZUGSACHSEN
100
AcDbCircle
 62
7
  6
CONTINUOUS
 10
503.9861240185
 20
169.2171868542
 40
33.4685378891
100
AcDbArc
 50
176.8255177068
 51
177.1744570863
  0
ARC
  5
426
100
AcDbEntity
  8
BEZUGSACHSEN
100
AcDbCircle
 62
7
  6
CONTINUOUS
 10
502.8947176724
 20
166.0177298955
 40
16.2021988589
100
AcDbArc
 50
58.7782359713
 51
59.0362692795
  0
ARC
  5
427
100
AcDbEntity
  8
BEZUGSACHSEN
100
AcDbCircle
 62
7
  6
CONTINUOUS
 10
510.2873813332
 20
172.3941454901
 40
8.1436254188
100
AcDbArc
 50
85.8997019311
 51
86.3588856308
  0
ARC
  5
428
100
AcDbEntity
  8
BEZUGSACHSEN
100
AcDbCircle
 62
7
  6
CONTINUOUS
 10
508.0396739752
 20
177.0045582635
 40
8.0981174583
100
AcDbArc
 50
329.7582069273
 51
330.3696095304
  0
ARC
  5
429
100
AcDbEntity
  8
0
100
AcDbCircle
 62
7
  6
CONTINUOUS
 10
505.2227040449
 20
170.9582402974
 40
6.0
100
AcDbArc
 50
186.0
 51
200.0
  0
ARC
  5
42A
100
AcDbEntity
  8
BEZUGSACHSEN
100
AcDbCircle
 62
7
  6
CONTINUOUS
 10
509.4513208384
 20
172.4973309424
 40
6.0
100
AcDbArc
 50
20.0
 51
34.0
  0
ARC
  5
42B
100
AcDbEntity
  8
BEZUGSACHSEN
100
AcDbCircle
 62
7
  6
CONTINUOUS
 10
504.4791185014
 20
179.7504573274
 40
6.7534640337
100
AcDbArc
 50
0.5970771392
 51
1.3621965038
  0
ARC
  5
42C
100
AcDbEntity
  8
0
100
AcDbCircle
 62
7
  6
CONTINUOUS
 10
492.4535408988
 20
292.6197876069
 40
76.0
100
AcDbArc
 50
0.0
 51
180.0
  0
ARC
  5
42D
100
AcDbEntity
  8
0
100
AcDbCircle
 62
7
  6
CONTINUOUS
 10
492.4535408988
 20
212.6197876069
 40
76.0
100
AcDbArc
 50
296.2333794722
 51
360.0
  0
ARC
  5
42E
100
AcDbEntity
  8
0
100
AcDbCircle
 62
7
  6
CONTINUOUS
 10
492.4535408988
 20
212.6197876069
 40
76.0
100
AcDbArc
 50
256.2333794722
 51
283.7666205278
  0
ARC
  5
42F
100
AcDbEntity
  8
0
100
AcDbCircle
 62
7
  6
CONTINUOUS
 10
492.4535408988
 20
212.6197876069
 40
76.0
100
AcDbArc
 50
212.2623933184
 51
243.7666205278
  0
ARC
  5
430
100
AcDbEntity
  8
0
100
AcDbCircle
 62
7
  6
CONTINUOUS
 10
492.4535408988
 20
212.6197876069
 40
76.0
100
AcDbArc
 50
180.0
 51
207.7376066816
  0
ARC
  5
431
100
AcDbEntity
  8
0
100
AcDbCircle
 62
7
  6
CONTINUOUS
 10
492.4535408988
 20
292.6197876069
 40
50.0
100
AcDbArc
 50
0.0
 51
180.0
  0
ARC
  5
432
100
AcDbEntity
  8
0
100
AcDbCircle
 62
7
  6
CONTINUOUS
 10
492.4535408988
 20
212.6197876069
 40
50.0
100
AcDbArc
 50
299.4987657815
 51
360.0
  0
ARC
  5
433
100
AcDbEntity
  8
0
100
AcDbCircle
 62
7
  6
CONTINUOUS
 10
492.4535408988
 20
212.6197876069
 40
50.0
100
AcDbArc
 50
259.4987072093
 51
280.5012927907
  0
ARC
  5
434
100
AcDbEntity
  8
0
100
AcDbCircle
 62
7
  6
CONTINUOUS
 10
492.4535408988
 20
212.6197876069
 40
50.0
100
AcDbArc
 50
213.4406613475
 51
240.5012342185
  0
ARC
  5
435
100
AcDbEntity
  8
0
100
AcDbCircle
 62
7
  6
CONTINUOUS
 10
492.4535408988
 20
212.6197876069
 40
50.0
100
AcDbArc
 50
180.0
 51
206.5593386525
  0
ARC
  5
436
100
AcDbEntity
  8
BEZUGSACHSEN
100
AcDbCircle
 62
7
  6
CONTINUOUS
 10
747.0592471378
 20
15.3595990964
 40
318.6623190593
100
AcDbArc
 50
149.2291986838
 51
149.3478266477
  0
ARC
  5
437
100
AcDbEntity
  8
KONSTRUKTIONSELEMENTE
100
AcDbCircle
 62
7
  6
CONTINUOUS
 10
741.2152635958
 20
19.3102352615
 40
311.0983255539
100
AcDbArc
 50
149.2854471468
 51
149.4069363396
  0
ARC
  5
438
100
AcDbEntity
  8
BEZUGSACHSEN
100
AcDbCircle
 62
7
  6
CONTINUOUS
 10
727.4997136923
 20
12.447057683
 40
301.5535622918
100
AcDbArc
 50
148.6865103431
 51
148.8070346304
  0
ARC
  5
439
100
AcDbEntity
  8
KONSTRUKTIONSELEMENTE
100
AcDbCircle
 62
7
  6
CONTINUOUS
 10
720.9740636256
 20
17.0664330893
 40
293.0309805768
100
AcDbArc
 50
148.7736270744
 51
148.8976186111
  0
ARC
  5
43A
100
AcDbEntity
  8
BEZUGSACHSEN
100
AcDbCircle
 62
7
  6
CONTINUOUS
 10
652.2282330617
 20
77.2024536359
 40
206.081604032
100
AcDbArc
 50
149.6329262878
 51
149.7762650706
  0
ARC
  5
43B
100
AcDbEntity
  8
KONSTRUKTIONSELEMENTE
100
AcDbCircle
 62
7
  6
CONTINUOUS
 10
649.5777485544
 20
79.0677037995
 40
202.3375134867
100
AcDbArc
 50
149.6825737033
 51
149.8285413289
  0
ARC
  5
43C
100
AcDbEntity
  8
BEZUGSACHSEN
100
AcDbCircle
 62
7
  6
CONTINUOUS
 10
634.8050374955
 20
84.3094939841
 40
185.4844233586
100
AcDbArc
 50
152.6240214018
 51
152.7734220843
  0
ARC
  5
43D
100
AcDbEntity
  8
KONSTRUKTIONSELEMENTE
100
AcDbCircle
 62
7
  6
CONTINUOUS
 10
632.6169133418
 20
85.9198507473
 40
182.2488906227
100
AcDbArc
 50
152.734794825
 51
152.8868100655
  0
ARC
  5
43E
100
AcDbEntity
  8
BEZUGSACHSEN
100
AcDbCircle
 62
7
  6
CONTINUOUS
 10
618.5532118413
 20
88.2498179789
 40
170.4297165955
100
AcDbArc
 50
151.8051158135
 51
151.9680245563
  0
ARC
  5
43F
100
AcDbEntity
  8
BEZUGSACHSEN
100
AcDbCircle
 62
7
  6
CONTINUOUS
 10
605.2893360424
 20
108.5464435812
 40
149.3661344101
100
AcDbArc
 50
151.9547616297
 51
152.1218982355
  0
ARC
  5
440
100
AcDbEntity
  8
BEZUGSACHSEN
100
AcDbCircle
 62
7
  6
CONTINUOUS
 10
601.7256662425
 20
102.9918045652
 40
148.0239948944
100
AcDbArc
 50
153.9137184762
 51
154.0783275551
  0
ARC
  5
441
100
AcDbEntity
  8
KONSTRUKTIONSELEMENTE
100
AcDbCircle
 62
7
  6
CONTINUOUS
 10
603.6924969912
 20
109.7165146788
 40
146.8816087745
100
AcDbArc
 50
152.0357650523
 51
152.2056947987
  0
ARC
  5
442
100
AcDbEntity
  8
KONSTRUKTIONSELEMENTE
100
AcDbCircle
 62
7
  6
CONTINUOUS
 10
600.3290820849
 20
104.1127244582
 40
145.7224090023
100
AcDbArc
 50
154.0333443052
 51
154.21200318
  0
ARC
  5
443
100
AcDbEntity
  8
BEZUGSACHSEN
100
AcDbCircle
 62
7
  6
CONTINUOUS
 10
592.4181393365
 20
108.5378409987
 40
138.9015781679
100
AcDbArc
 50
150.9331180895
 51
151.1133207087
  0
ARC
  5
444
100
AcDbEntity
  8
RUNDUNGEN
100
AcDbCircle
 62
7
  6
CONTINUOUS
 10
537.1074552553
 20
113.3246014236
 40
10.0
100
AcDbArc
 50
20.0
 51
50.0
  0
ARC
  5
445
100
AcDbEntity
  8
RUNDUNGEN
100
AcDbCircle
 62
7
  6
CONTINUOUS
 10
545.5447523203
 20
104.7623402571
 40
5.0
100
AcDbArc
 50
348.9517780065
 51
20.0
  0
ARC
  5
446
100
AcDbEntity
  8
BEZUGSACHSEN
100
AcDbCircle
 62
7
  6
CONTINUOUS
 10
583.8139354164
 20
119.8194351717
 40
124.2813080718
100
AcDbArc
 50
156.2607150598
 51
156.4883891334
  0
ARC
  5
447
100
AcDbEntity
  8
BEZUGSACHSEN
100
AcDbCircle
 62
7
  6
CONTINUOUS
 10
577.4568122867
 20
125.0848755267
 40
116.2262515852
100
AcDbArc
 50
157.1534666748
 51
157.479935252
  0
ARC
  5
448
100
AcDbEntity
  8
BEZUGSACHSEN
100
AcDbCircle
 62
7
  6
CONTINUOUS
 10
572.8109641327
 20
119.4803175127
 40
115.5360170512
100
AcDbArc
 50
154.9793464214
 51
155.1826900818
  0
ARC
  5
449
100
AcDbEntity
  8
KONSTRUKTIONSELEMENTE
100
AcDbCircle
 62
7
  6
CONTINUOUS
 10
577.0806919412
 20
125.5749215472
 40
115.1350871107
100
AcDbArc
 50
157.2918056304
 51
157.6213315229
  0
ARC
  5
44A
100
AcDbEntity
  8
BEZUGSACHSEN
100
AcDbCircle
 62
7
  6
CONTINUOUS
 10
567.8762667787
 20
123.7682945391
 40
109.132951701
100
AcDbArc
 50
155.7300811021
 51
155.989516003
  0
ARC
  5
44B
100
AcDbEntity
  8
BEZUGSACHSEN
100
AcDbCircle
 62
7
  6
CONTINUOUS
 10
569.1263812824
 20
125.7900330414
 40
108.979978641
100
AcDbArc
 50
156.7944019286
 51
157.0720925784
  0
ARC
  5
44C
100
AcDbEntity
  8
BEZUGSACHSEN
100
AcDbCircle
 62
7
  6
CONTINUOUS
 10
555.3650249139
 20
138.7121454707
 40
90.82184842
100
AcDbArc
 50
159.7354923727
 51
159.9482986778
  0
ARC
  5
44D
100
AcDbEntity
  8
BEZUGSACHSEN
100
AcDbCircle
 62
7
  6
CONTINUOUS
 10
553.4844234789
 20
138.9362103107
 40
89.169035984
100
AcDbArc
 50
158.9142168728
 51
159.1174426425
  0
ARC
  5
44E
100
AcDbEntity
  8
BEZUGSACHSEN
100
AcDbCircle
 62
7
  6
CONTINUOUS
 10
549.1965964673
 20
139.7449037534
 40
85.1814633469
100
AcDbArc
 50
159.7179692531
 51
159.9096663597
  0
ARC
  5
44F
100
AcDbEntity
  8
BEZUGSACHSEN
100
AcDbCircle
 62
7
  6
CONTINUOUS
 10
547.6486812673
 20
140.0052274442
 40
83.7651793005
100
AcDbArc
 50
159.74874384
 51
159.943945523
  0
ARC
  5
450
100
AcDbEntity
  8
BEZUGSACHSEN
100
AcDbCircle
 62
7
  6
CONTINUOUS
 10
548.4618978273
 20
142.7998182765
 40
83.3153080669
100
AcDbArc
 50
154.5731542681
 51
154.7963284416
  0
ARC
  5
451
100
AcDbEntity
  8
BEZUGSACHSEN
100
AcDbCircle
 62
7
  6
CONTINUOUS
 10
543.9126959229
 20
140.5239237552
 40
80.4272686698
100
AcDbArc
 50
158.7348830852
 51
159.0353255707
  0
ARC
  5
452
100
AcDbEntity
  8
BEZUGSACHSEN
100
AcDbCircle
 62
7
  6
CONTINUOUS
 10
541.1039428792
 20
141.0991475813
 40
77.7820890798
100
AcDbArc
 50
159.628999427
 51
159.9085409916
  0
ARC
  5
453
100
AcDbEntity
  8
BEZUGSACHSEN
100
AcDbCircle
 62
7
  6
CONTINUOUS
 10
543.0138995123
 20
145.2501670074
 40
77.6147141395
100
AcDbArc
 50
152.4682789738
 51
152.6413495346
  0
ARC
  5
454
100
AcDbEntity
  8
BEZUGSACHSEN
100
AcDbCircle
 62
7
  6
CONTINUOUS
 10
543.9929534397
 20
146.6291718747
 40
77.2600831563
100
AcDbArc
 50
159.8450657738
 51
160.1876896684
  0
ARC
  5
455
100
AcDbEntity
  8
KONSTRUKTIONSELEMENTE
100
AcDbCircle
 62
7
  6
CONTINUOUS
 10
544.0745272686
 20
146.8218325014
 40
76.7240136472
100
AcDbArc
 50
160.0000164065
 51
160.3450357663
  0
ARC
  5
456
100
AcDbEntity
  8
BEZUGSACHSEN
100
AcDbCircle
 62
7
  6
CONTINUOUS
 10
539.1622100843
 20
141.4270751334
 40
76.0044447239
100
AcDbArc
 50
159.6839276888
 51
160.0653767493
  0
ARC
  5
457
100
AcDbEntity
  8
BEZUGSACHSEN
100
AcDbCircle
 62
7
  6
CONTINUOUS
 10
538.1508025596
 20
143.1554376652
 40
74.648804902
100
AcDbArc
 50
153.7823773904
 51
154.0318012726
  0
ARC
  5
458
100
AcDbEntity
  8
BEZUGSACHSEN
100
AcDbCircle
 62
7
  6
CONTINUOUS
 10
540.9388209842
 20
148.2683467174
 40
74.0517459572
100
AcDbArc
 50
155.3803896783
 51
155.6728312566
  0
ARC
  5
459
100
AcDbEntity
  8
KONSTRUKTIONSELEMENTE
100
AcDbCircle
 62
7
  6
CONTINUOUS
 10
540.6731370964
 20
148.5953627048
 40
73.14617285
100
AcDbArc
 50
155.4931438425
 51
155.7891602437
  0
ARC
  5
45A
100
AcDbEntity
  8
BEZUGSACHSEN
100
AcDbCircle
 62
7
  6
CONTINUOUS
 10
538.628759544
 20
149.8682189041
 40
71.235808999
100
AcDbArc
 50
162.8557308227
 51
163.2738637249
  0
ARC
  5
45B
100
AcDbEntity
  8
KONSTRUKTIONSELEMENTE
100
AcDbCircle
 62
7
  6
CONTINUOUS
 10
539.0170179731
 20
149.9458417447
 40
71.0316920241
100
AcDbArc
 50
163.0301132899
 51
163.4495182972
  0
ARC
  5
45C
100
AcDbEntity
  8
KONSTRUKTIONSELEMENTE
100
AcDbCircle
 62
7
  6
CONTINUOUS
 10
542.1677398179
 20
128.6596278534
 40
5.0
100
AcDbArc
 50
200.0
 51
230.0
  0
ARC
  5
45D
100
AcDbEntity
  8
0
100
AcDbCircle
 62
7
  6
CONTINUOUS
 10
-392.9608890963
 20
-243.6130832644
 40
680.9460769939
100
AcDbArc
 50
36.7248939242
 51
38.6953749753
  0
ARC
  5
45E
100
AcDbEntity
  8
0
100
AcDbCircle
 62
7
  6
CONTINUOUS
 10
-17.5345685363
 20
-286.1513331076
 40
493.5666302468
100
AcDbArc
 50
71.5699950043
 51
72.8107911529
  0
ARC
  5
45F
100
AcDbEntity
  8
BEZUGSACHSEN
100
AcDbCircle
 62
7
  6
CONTINUOUS
 10
-89.8244403514
 20
-201.8548860436
 40
441.552247783
100
AcDbArc
 50
59.6327732731
 51
59.749462714
  0
ARC
  5
460
100
AcDbEntity
  8
BEZUGSACHSEN
100
AcDbCircle
 62
7
  6
CONTINUOUS
 10
-85.1482022856
 20
-193.7127495484
 40
431.48766656
100
AcDbArc
 50
59.6316820966
 51
59.7510930268
  0
ARC
  5
461
100
AcDbEntity
  8
KONSTRUKTIONSELEMENTE
100
AcDbCircle
 62
7
  6
CONTINUOUS
 10
-83.4308811107
 20
-190.5827795629
 40
427.7626822115
100
AcDbArc
 50
59.6059285211
 51
59.7264102995
  0
ARC
  5
462
100
AcDbEntity
  8
BEZUGSACHSEN
100
AcDbCircle
 62
7
  6
CONTINUOUS
 10
-74.8143401156
 20
-175.6712420417
 40
409.0084788283
100
AcDbArc
 50
59.4323422839
 51
59.6426296059
  0
ARC
  5
463
100
AcDbEntity
  8
BEZUGSACHSEN
100
AcDbCircle
 62
7
  6
CONTINUOUS
 10
-69.6621835449
 20
-166.718382154
 40
398.0038072036
100
AcDbArc
 50
59.5122217933
 51
59.6418301892
  0
ARC
  5
464
100
AcDbEntity
  8
BEZUGSACHSEN
100
AcDbCircle
 62
7
  6
CONTINUOUS
 10
-57.8707226703
 20
-146.2179436833
 40
372.7787544333
100
AcDbArc
 50
59.624142871
 51
59.7623572064
  0
ARC
  5
465
100
AcDbEntity
  8
BEZUGSACHSEN
100
AcDbCircle
 62
7
  6
CONTINUOUS
 10
-53.1947043761
 20
-138.0761852293
 40
362.714610411
100
AcDbArc
 50
59.6226054425
 51
59.7646542252
  0
ARC
  5
466
100
AcDbEntity
  8
KONSTRUKTIONSELEMENTE
100
AcDbCircle
 62
7
  6
CONTINUOUS
 10
-51.4775945951
 20
-134.9465746988
 40
358.9900430441
100
AcDbArc
 50
59.5918202485
 51
59.7353868022
  0
ARC
  5
467
100
AcDbEntity
  8
0
100
AcDbCircle
 62
7
  6
CONTINUOUS
 10
113.8519374542
 20
149.430917482
 40
15.0223398565
100
AcDbArc
 50
140.1643614985
 51
149.2158263458
  0
ARC
  5
468
100
AcDbEntity
  8
0
100
AcDbCircle
 62
7
  6
CONTINUOUS
 10
114.1647154412
 20
150.3135988252
 40
14.8953781968
100
AcDbArc
 50
142.7084880582
 51
152.7489274734
  0
ARC
  5
469
100
AcDbEntity
  8
BEZUGSACHSEN
100
AcDbCircle
 62
7
  6
CONTINUOUS
 10
114.1563217792
 20
150.5247474704
 40
14.8851037258
100
AcDbArc
 50
142.707092475
 51
153.463785706
  0
ARC
  5
46A
100
AcDbEntity
  8
0
100
AcDbCircle
 62
7
  6
CONTINUOUS
 10
113.542049034
 20
149.6266239033
 40
14.6559537704
100
AcDbArc
 50
149.2530789576
 51
151.3285209362
  0
ARC
  5
46B
100
AcDbEntity
  8
BEZUGSACHSEN
100
AcDbCircle
 62
7
  6
CONTINUOUS
 10
113.8555035376
 20
150.9099754241
 40
14.5451192904
100
AcDbArc
 50
203.7887540502
 51
205.5725128748
  0
ARC
  5
46C
100
AcDbEntity
  8
BEZUGSACHSEN
100
AcDbCircle
 62
7
  6
CONTINUOUS
 10
113.5791387245
 20
150.8075832478
 40
14.2509162004
100
AcDbArc
 50
180.0439573453
 51
203.769922914
  0
ARC
  5
46D
100
AcDbEntity
  8
KONSTRUKTIONSELEMENTE
100
AcDbCircle
 62
7
  6
CONTINUOUS
 10
101.6299451815
 20
61.6653761834
 40
10.0886723472
100
AcDbArc
 50
84.3320139403
 51
86.2461730792
  0
ARC
  5
46E
100
AcDbEntity
  8
KONSTRUKTIONSELEMENTE
100
AcDbCircle
 62
7
  6
CONTINUOUS
 10
111.0328274876
 20
139.1197897888
 40
3.7046007695
100
AcDbArc
 50
176.1618501731
 51
180.0000337449
  0
ARC
  5
46F
100
AcDbEntity
  8
0
100
AcDbCircle
 62
7
  6
CONTINUOUS
 10
85.3282806951
 20
91.6189195386
 40
2.0000539771
100
AcDbArc
 50
180.0007246456
 51
228.8288441235
  0
ARC
  5
470
100
AcDbEntity
  8
KONSTRUKTIONSELEMENTE
100
AcDbCircle
 62
7
  6
CONTINUOUS
 10
81.1456739579
 20
102.8358187559
 40
0.7232939134
100
AcDbArc
 50
323.8940517812
 51
329.1591563289
  0
ARC
  5
471
100
AcDbEntity
  8
0
100
AcDbCircle
 62
7
  6
CONTINUOUS
 10
623.6173425429
 20
-243.6130832724
 40
680.946077007
100
AcDbArc
 50
141.3046250247
 51
143.2751060757
  0
ARC
  5
472
100
AcDbEntity
  8
BEZUGSACHSEN
100
AcDbCircle
 62
7
  6
CONTINUOUS
 10
480.9737710377
 20
-195.8909195656
 40
537.6409494384
100
AcDbArc
 50
136.53320679
 51
136.7846449805
  0
ARC
  5
473
100
AcDbEntity
  8
BEZUGSACHSEN
100
AcDbCircle
 62
7
  6
CONTINUOUS
 10
472.6032216352
 20
-187.872650225
 40
525.4668455518
100
AcDbArc
 50
136.5205890702
 51
136.7241183611
  0
ARC
  5
474
100
AcDbEntity
  8
KONSTRUKTIONSELEMENTE
100
AcDbCircle
 62
7
  6
CONTINUOUS
 10
470.4300067916
 20
-185.642912926
 40
522.2276245837
100
AcDbArc
 50
136.5488557925
 51
136.7369172916
  0
ARC
  5
475
100
AcDbEntity
  8
BEZUGSACHSEN
100
AcDbCircle
 62
7
  6
CONTINUOUS
 10
451.8414915805
 20
-167.9270250332
 40
494.9284351934
100
AcDbArc
 50
136.5148532832
 51
136.7309430641
  0
ARC
  5
476
100
AcDbEntity
  8
BEZUGSACHSEN
100
AcDbCircle
 62
7
  6
CONTINUOUS
 10
443.7442000703
 20
-160.1444279832
 40
482.9981939213
100
AcDbArc
 50
136.5357142814
 51
136.7338769662
  0
ARC
  5
477
100
AcDbEntity
  8
KONSTRUKTIONSELEMENTE
100
AcDbCircle
 62
7
  6
CONTINUOUS
 10
441.5979351124
 20
-157.9399298688
 40
479.7958957342
100
AcDbArc
 50
136.5666185634
 51
136.7478850425
  0
ARC
  5
478
100
AcDbEntity
  8
0
100
AcDbCircle
 62
7
  6
CONTINUOUS
 10
243.9448297604
 20
-272.9336076888
 40
479.6844415579
100
AcDbArc
 50
107.1712536386
 51
108.4479602037
  0
ARC
  5
479
100
AcDbEntity
  8
BEZUGSACHSEN
100
AcDbCircle
 62
7
  6
CONTINUOUS
 10
299.3028136787
 20
-204.6137957376
 40
433.7351603856
100
AcDbArc
 50
117.4223254373
 51
117.7402328104
  0
ARC
  5
47A
100
AcDbEntity
  8
BEZUGSACHSEN
100
AcDbCircle
 62
7
  6
CONTINUOUS
 10
294.7759978887
 20
-195.7691977685
 40
423.1277347793
100
AcDbArc
 50
117.42037851
 51
117.6646999095
  0
ARC
  5
47B
100
AcDbEntity
  8
KONSTRUKTIONSELEMENTE
100
AcDbCircle
 62
7
  6
CONTINUOUS
 10
293.1527626604
 20
-192.4537872793
 40
419.2776202776
100
AcDbArc
 50
117.4434429106
 51
117.6764192374
  0
ARC
  5
47C
100
AcDbEntity
  8
BEZUGSACHSEN
100
AcDbCircle
 62
7
  6
CONTINUOUS
 10
270.4331758765
 20
-148.1359895147
 40
365.7167554555
100
AcDbArc
 50
117.4081618044
 51
117.6908552944
  0
ARC
  5
47D
100
AcDbEntity
  8
BEZUGSACHSEN
100
AcDbCircle
 62
7
  6
CONTINUOUS
 10
266.7126914936
 20
-140.8377382274
 40
356.8532759264
100
AcDbArc
 50
117.4290591629
 51
117.7925365205
  0
ARC
  5
47E
100
AcDbEntity
  8
KONSTRUKTIONSELEMENTE
100
AcDbCircle
 62
7
  6
CONTINUOUS
 10
265.2002982881
 20
-137.7335793784
 40
353.2417253636
100
AcDbArc
 50
117.4567058856
 51
117.8239985213
  0
ARC
  5
47F
100
AcDbEntity
  8
KONSTRUKTIONSELEMENTE
100
AcDbCircle
 62
7
  6
CONTINUOUS
 10
115.3282267181
 20
44.2781097108
 40
45.0
100
AcDbArc
 50
99.0779339621
 51
112.9738803106
  0
ARC
  5
480
100
AcDbEntity
  8
KONSTRUKTIONSELEMENTE
100
AcDbCircle
 62
7
  6
CONTINUOUS
 10
115.3282267181
 20
44.2781097108
 40
45.0
100
AcDbArc
 50
67.0261196894
 51
80.9220660379
  0
ARC
  5
481
100
AcDbEntity
  8
0
100
AcDbCircle
 62
7
  6
CONTINUOUS
 10
116.8636425267
 20
149.473307365
 40
14.9498191574
100
AcDbArc
 50
30.7606068921
 51
39.8631863959
  0
ARC
  5
482
100
AcDbEntity
  8
0
100
AcDbCircle
 62
7
  6
CONTINUOUS
 10
116.491737995
 20
150.3135988252
 40
14.8953781968
100
AcDbArc
 50
27.2510725266
 51
37.2915119418
  0
ARC
  5
483
100
AcDbEntity
  8
BEZUGSACHSEN
100
AcDbCircle
 62
7
  6
CONTINUOUS
 10
116.500131657
 20
150.5247474704
 40
14.8851037258
100
AcDbArc
 50
26.536214294
 51
37.292907525
  0
ARC
  5
484
100
AcDbEntity
  8
0
100
AcDbCircle
 62
7
  6
CONTINUOUS
 10
117.1155906048
 20
149.6265233359
 40
14.6549548411
100
AcDbArc
 50
28.6759839364
 51
30.7496563834
  0
ARC
  5
485
100
AcDbEntity
  8
BEZUGSACHSEN
100
AcDbCircle
 62
7
  6
CONTINUOUS
 10
116.8120116886
 20
150.9049744911
 40
14.5329801184
100
AcDbArc
 50
334.8609675414
 51
336.2116957905
  0
ARC
  5
486
100
AcDbEntity
  8
BEZUGSACHSEN
100
AcDbCircle
 62
7
  6
CONTINUOUS
 10
117.0773688386
 20
150.8075759617
 40
14.250862068
100
AcDbArc
 50
336.2353994358
 51
359.9560717815
  0
ARC
  5
487
100
AcDbEntity
  8
0
100
AcDbCircle
 62
7
  6
CONTINUOUS
 10
115.3282267181
 20
355.6197876069
 40
13.0
100
AcDbArc
 50
0.0
 51
180.0
  0
ARC
  5
488
100
AcDbEntity
  8
0
100
AcDbCircle
 62
7
  6
CONTINUOUS
 10
115.3282267181
 20
149.6197876069
 40
13.0
100
AcDbArc
 50
180.0
 51
249.5090969607
  0
ARC
  5
489
100
AcDbEntity
  8
0
100
AcDbCircle
 62
7
  6
CONTINUOUS
 10
115.3282267181
 20
149.6197876069
 40
13.0
100
AcDbArc
 50
290.4909030393
 51
360.0
  0
ARC
  5
48A
100
AcDbEntity
  8
KONSTRUKTIONSELEMENTE
100
AcDbCircle
 62
7
  6
CONTINUOUS
 10
119.613435532
 20
139.1198697586
 40
3.714791187
100
AcDbArc
 50
359.998732919
 51
3.8273656268
  0
ARC
  5
48B
100
AcDbEntity
  8
BEZUGSACHSEN
100
AcDbCircle
 62
7
  6
CONTINUOUS
 10
138.6558539917
 20
109.5207732522
 40
2.672492404
100
AcDbArc
 50
7.3853181871
 51
8.0455533675
  0
ARC
  5
48C
100
AcDbEntity
  8
BEZUGSACHSEN
100
AcDbCircle
 62
7
  6
CONTINUOUS
 10
138.0005994437
 20
109.5207732523
 40
2.6724924031
100
AcDbArc
 50
171.9544466325
 51
172.6146818131
  0
ARC
  5
48D
100
AcDbEntity
  8
BEZUGSACHSEN
100
AcDbCircle
 62
7
  6
CONTINUOUS
 10
138.6653999216
 20
109.5219211344
 40
2.6628781168
100
AcDbArc
 50
3.5759390721
 51
7.38722645
  0
ARC
  5
48E
100
AcDbEntity
  8
KONSTRUKTIONSELEMENTE
100
AcDbCircle
 62
7
  6
CONTINUOUS
 10
115.3282267181
 20
117.9947876069
 40
2.5
100
AcDbArc
 50
180.0
 51
360.0
  0
ARC
  5
48F
100
AcDbEntity
  8
0
100
AcDbCircle
 62
7
  6
CONTINUOUS
 10
145.325331019
 20
91.6212125584
 40
2.0036891581
100
AcDbArc
 50
319.2598017412
 51
327.3020293201
  0
ARC
  5
490
100
AcDbEntity
  8
0
100
AcDbCircle
 62
7
  6
CONTINUOUS
 10
145.3282190423
 20
91.6188964945
 40
2.0000076758
100
AcDbArc
 50
327.3131703415
 51
359.9999355022
  0
ARC
  5
491
100
AcDbEntity
  8
0
100
AcDbCircle
 62
7
  6
CONTINUOUS
 10
145.3288771789
 20
91.6180763617
 40
1.9989555401
100
AcDbArc
 50
311.1718669825
 51
319.2615757462
  0
LINE
  5
492
100
AcDbEntity
  8
BEZUGSACHSEN
100
AcDbLine
 62
7
  6
CONTINUOUS
 10
513.3326722588
 20
177.7990062141
 11
513.2777009901
 21
177.8774856128
  0
LINE
  5
493
100
AcDbEntity
  8
BEZUGSACHSEN
100
AcDbLine
 62
7
  6
CONTINUOUS
 10
513.2777009901
 20
177.8774856128
 11
512.9171444948
 21
178.3922117648
  0
LINE
  5
494
100
AcDbEntity
  8
BEZUGSACHSEN
100
AcDbLine
 62
7
  6
CONTINUOUS
 10
512.9171444948
 20
178.3922117648
 11
512.3432362721
 21
179.2114483876
  0
LINE
  5
495
100
AcDbEntity
  8
BEZUGSACHSEN
100
AcDbLine
 62
7
  6
CONTINUOUS
 10
512.3432362721
 20
179.2114483876
 11
511.9836835879
 21
179.7246598614
  0
LINE
  5
496
100
AcDbEntity
  8
BEZUGSACHSEN
100
AcDbLine
 62
7
  6
CONTINUOUS
 10
511.9836835879
 20
179.7246598614
 11
510.0271917104
 21
182.5168338107
  0
LINE
  5
497
100
AcDbEntity
  8
BEZUGSACHSEN
100
AcDbLine
 62
7
  6
CONTINUOUS
 10
513.9137361475
 20
175.6944234443
 11
513.8233592563
 21
175.8192998542
  0
LINE
  5
498
100
AcDbEntity
  8
BEZUGSACHSEN
100
AcDbLine
 62
7
  6
CONTINUOUS
 10
513.8233592563
 20
175.8192998542
 11
513.7752816454
 21
175.8857297856
  0
LINE
  5
499
100
AcDbEntity
  8
BEZUGSACHSEN
100
AcDbLine
 62
7
  6
CONTINUOUS
 10
513.7752816454
 20
175.8857297856
 11
513.330436029
 21
176.5003729898
  0
LINE
  5
49A
100
AcDbEntity
  8
BEZUGSACHSEN
100
AcDbLine
 62
7
  6
CONTINUOUS
 10
513.330436029
 20
176.5003729898
 11
511.5309865484
 21
178.9865101335
  0
LINE
  5
49B
100
AcDbEntity
  8
BEZUGSACHSEN
100
AcDbLine
 62
7
  6
CONTINUOUS
 10
510.8696719952
 20
180.5169265746
 11
510.9201662141
 21
180.468366326
  0
LINE
  5
49C
100
AcDbEntity
  8
BEZUGSACHSEN
100
AcDbLine
 62
7
  6
CONTINUOUS
 10
511.0696673278
 20
180.3239365123
 11
511.3052408618
 21
180.0391110165
  0
LINE
  5
49D
100
AcDbEntity
  8
BEZUGSACHSEN
100
AcDbLine
 62
7
  6
CONTINUOUS
 10
511.3052408618
 20
180.0391110165
 11
511.3397095267
 21
179.9936231239
  0
LINE
  5
49E
100
AcDbEntity
  8
BEZUGSACHSEN
100
AcDbLine
 62
7
  6
CONTINUOUS
 10
511.3397095267
 20
179.9936231239
 11
511.3836752559
 21
179.9355978753
  0
LINE
  5
49F
100
AcDbEntity
  8
BEZUGSACHSEN
100
AcDbLine
 62
7
  6
CONTINUOUS
 10
511.3836752559
 20
179.9355978753
 11
511.4665824668
 21
179.8261653814
  0
LINE
  5
4A0
100
AcDbEntity
  8
BEZUGSACHSEN
100
AcDbLine
 62
7
  6
CONTINUOUS
 10
511.4665824668
 20
179.8261653814
 11
511.5473116357
 21
179.7195913384
  0
LINE
  5
4A1
100
AcDbEntity
  8
BEZUGSACHSEN
100
AcDbLine
 62
7
  6
CONTINUOUS
 10
511.5473116357
 20
179.7195913384
 11
511.6269716035
 21
179.6144126546
  0
LINE
  5
4A2
100
AcDbEntity
  8
BEZUGSACHSEN
100
AcDbLine
 62
7
  6
CONTINUOUS
 10
511.6269716035
 20
179.6144126546
 11
511.7949332851
 21
179.3821411169
  0
LINE
  5
4A3
100
AcDbEntity
  8
BEZUGSACHSEN
100
AcDbLine
 62
7
  6
CONTINUOUS
 10
511.7949332851
 20
179.3821411169
 11
511.8839964407
 21
179.2589744935
  0
LINE
  5
4A4
100
AcDbEntity
  8
BEZUGSACHSEN
100
AcDbLine
 62
7
  6
CONTINUOUS
 10
511.8839964407
 20
179.2589744935
 11
512.6473595659
 21
178.2032307469
  0
LINE
  5
4A5
100
AcDbEntity
  8
BEZUGSACHSEN
100
AcDbLine
 62
7
  6
CONTINUOUS
 10
513.0060582593
 20
177.687203112
 11
512.6473595659
 21
178.2032307469
  0
LINE
  5
4A6
100
AcDbEntity
  8
BEZUGSACHSEN
100
AcDbLine
 62
7
  6
CONTINUOUS
 10
513.315169793
 20
177.2195722966
 11
513.0060582593
 21
177.687203112
  0
SPLINE
  5
4A7
100
AcDbEntity
  8
BEZUGSACHSEN
100
AcDbSpline
 62
7
  6
CONTINUOUS
 70
0
 71
3
 72
8
 73
4
 74
0
 42
0.0000001
 43
0.0000001
 44
0.0000000001
 40
0.0
 40
0.0
 40
0.0
 40
0.0
 40
1.0
 40
1.0
 40
1.0
 40
1.0
 10
513.6604387786
 20
176.6603169191
 30
0.0
 10
513.5455228694
 20
176.8468425367
 30
0.0
 10
513.4304297977
 20
177.03325911
 30
0.0
 10
513.315169793
 20
177.2195722966
 30
0.0
  0
LINE
  5
4A8
100
AcDbEntity
  8
BEZUGSACHSEN
100
AcDbLine
 62
7
  6
CONTINUOUS
 10
513.9024616536
 20
175.2572924787
 11
513.7314237306
 21
175.4930424832
  0
LINE
  5
4A9
100
AcDbEntity
  8
BEZUGSACHSEN
100
AcDbLine
 62
7
  6
CONTINUOUS
 10
513.7314237306
 20
175.4930424832
 11
513.6985755206
 21
175.5383174568
  0
LINE
  5
4AA
100
AcDbEntity
  8
BEZUGSACHSEN
100
AcDbLine
 62
7
  6
CONTINUOUS
 10
513.6985755206
 20
175.5383174568
 11
513.5597105199
 21
175.7297116478
  0
LINE
  5
4AB
100
AcDbEntity
  8
BEZUGSACHSEN
100
AcDbLine
 62
7
  6
CONTINUOUS
 10
514.2045832683
 20
174.8082311876
 11
513.9024616536
 21
175.2572924787
  0
SPLINE
  5
4AC
100
AcDbEntity
  8
BEZUGSACHSEN
100
AcDbSpline
 62
7
  6
CONTINUOUS
 70
0
 71
3
 72
8
 73
4
 74
0
 42
0.0000001
 43
0.0000001
 44
0.0000000001
 40
0.0
 40
0.0
 40
0.0
 40
0.0
 40
1.0
 40
1.0
 40
1.0
 40
1.0
 10
514.5524663707
 20
174.2403447934
 30
0.0
 10
514.4497078858
 20
174.4084411806
 30
0.0
 10
514.3468071388
 20
174.5764506765
 30
0.0
 10
514.2437714267
 20
174.7443772785
 30
0.0
  0
LINE
  5
4AD
100
AcDbEntity
  8
BEZUGSACHSEN
100
AcDbLine
 62
7
  6
CONTINUOUS
 10
514.2437714267
 20
174.7443772785
 11
514.2045832683
 21
174.8082311876
  0
LINE
  5
4AE
100
AcDbEntity
  8
BEZUGSACHSEN
100
AcDbLine
 62
7
  6
CONTINUOUS
 10
514.4571474814
 20
172.6753260421
 11
514.8973063605
 21
172.3010390241
  0
LINE
  5
4AF
100
AcDbEntity
  8
BEZUGSACHSEN
100
AcDbLine
 62
7
  6
CONTINUOUS
 10
514.2308495964
 20
173.0967565682
 11
513.9795024834
 21
173.4828821379
  0
LINE
  5
4B0
100
AcDbEntity
  8
BEZUGSACHSEN
100
AcDbLine
 62
7
  6
CONTINUOUS
 10
513.9795024834
 20
173.4828821379
 11
513.9132504819
 21
173.584548492
  0
LINE
  5
4B1
100
AcDbEntity
  8
BEZUGSACHSEN
100
AcDbLine
 62
7
  6
CONTINUOUS
 10
513.9132504819
 20
173.584548492
 11
513.7091960816
 21
173.8617690862
  0
LINE
  5
4B2
100
AcDbEntity
  8
BEZUGSACHSEN
100
AcDbLine
 62
7
  6
CONTINUOUS
 10
513.4738363984
 20
174.1369715396
 11
513.7091960816
 21
173.8617690862
  0
LINE
  5
4B3
100
AcDbEntity
  8
BEZUGSACHSEN
100
AcDbLine
 62
7
  6
CONTINUOUS
 10
513.3247908018
 20
174.2725322364
 11
513.4738363984
 21
174.1369715396
  0
LINE
  5
4B4
100
AcDbEntity
  8
BEZUGSACHSEN
100
AcDbLine
 62
7
  6
CONTINUOUS
 10
516.4112293523
 20
169.452234544
 11
515.1746471156
 21
170.8967027989
  0
LINE
  5
4B5
100
AcDbEntity
  8
BEZUGSACHSEN
100
AcDbLine
 62
7
  6
CONTINUOUS
 10
514.8213247858
 20
171.3094031673
 11
513.9379973624
 21
172.3411464797
  0
LINE
  5
4B6
100
AcDbEntity
  8
BEZUGSACHSEN
100
AcDbLine
 62
7
  6
CONTINUOUS
 10
513.9379973624
 20
172.3411464797
 11
513.8809806158
 21
172.502535987
  0
LINE
  5
4B7
100
AcDbEntity
  8
BEZUGSACHSEN
100
AcDbLine
 62
7
  6
CONTINUOUS
 10
514.2256723628
 20
173.9398914176
 11
513.2418719345
 21
175.2113942789
  0
LINE
  5
4B8
100
AcDbEntity
  8
BEZUGSACHSEN
100
AcDbLine
 62
7
  6
CONTINUOUS
 10
513.2418719345
 20
175.2113942789
 11
513.2350308586
 21
175.2202357838
  0
LINE
  5
4B9
100
AcDbEntity
  8
BEZUGSACHSEN
100
AcDbLine
 62
7
  6
CONTINUOUS
 10
513.2350308586
 20
175.2202357838
 11
512.4655006703
 21
176.2147739721
  0
LINE
  5
4BA
100
AcDbEntity
  8
BEZUGSACHSEN
100
AcDbLine
 62
7
  6
CONTINUOUS
 10
512.4655006703
 20
176.2147739721
 11
512.2439688792
 21
176.5010761597
  0
LINE
  5
4BB
100
AcDbEntity
  8
BEZUGSACHSEN
100
AcDbLine
 62
7
  6
CONTINUOUS
 10
514.2256723628
 20
173.9398914176
 11
514.4603643004
 21
173.6695084695
  0
LINE
  5
4BC
100
AcDbEntity
  8
BEZUGSACHSEN
100
AcDbLine
 62
7
  6
CONTINUOUS
 10
514.4603643004
 20
173.6695084695
 11
514.6099066156
 21
173.5417604408
  0
LINE
  5
4BD
100
AcDbEntity
  8
BEZUGSACHSEN
100
AcDbLine
 62
7
  6
CONTINUOUS
 10
514.6099066156
 20
173.5417604408
 11
514.6737960467
 21
173.5564633098
  0
LINE
  5
4BE
100
AcDbEntity
  8
BEZUGSACHSEN
100
AcDbLine
 62
7
  6
CONTINUOUS
 10
511.5795142505
 20
178.2914449709
 11
511.8035205741
 21
178.0016921753
  0
LINE
  5
4BF
100
AcDbEntity
  8
BEZUGSACHSEN
100
AcDbLine
 62
7
  6
CONTINUOUS
 10
511.8035205741
 20
178.0016921753
 11
513.5597105199
 21
175.7297116478
  0
SPLINE
  5
4C0
100
AcDbEntity
  8
0
100
AcDbSpline
 62
7
  6
CONTINUOUS
 70
0
 71
3
 72
9
 73
5
 74
0
 42
0.0000001
 43
0.0000001
 44
0.0000000001
 40
0.0
 40
0.0
 40
0.0
 40
0.0
 40
0.5000031771
 40
1.0
 40
1.0
 40
1.0
 40
1.0
 10
514.7566150647
 20
163.5745894762
 30
0.0
 10
515.9594412847
 20
160.9236798006
 30
0.0
 10
518.233110179
 20
155.5604884696
 30
0.0
 10
520.1921390846
 20
150.0739341754
 30
0.0
 10
521.0922974467
 20
147.305611115
 30
0.0
  0
SPLINE
  5
4C1
100
AcDbEntity
  8
0
100
AcDbSpline
 62
7
  6
CONTINUOUS
 70
0
 71
3
 72
9
 73
5
 74
0
 42
0.0000001
 43
0.0000001
 44
0.0000000001
 40
0.0
 40
0.0
 40
0.0
 40
0.0
 40
0.5000000002
 40
1.0
 40
1.0
 40
1.0
 40
1.0
 10
508.0137164278
 20
182.1005512228
 30
0.0
 10
509.4268797555
 20
179.129810082
 30
0.0
 10
511.9963767644
 20
173.0600329654
 30
0.0
 10
513.9296053829
 20
166.7586730938
 30
0.0
 10
514.7566150647
 20
163.5745894762
 30
0.0
  0
SPLINE
  5
4C2
100
AcDbEntity
  8
0
100
AcDbSpline
 62
7
  6
CONTINUOUS
 70
0
 71
3
 72
11
 73
7
 74
0
 42
0.0000001
 43
0.0000001
 44
0.0000000001
 40
0.0
 40
0.0
 40
0.0
 40
0.0
 40
0.2517733154
 40
0.5000000002
 40
0.7482266851
 40
1.0
 40
1.0
 40
1.0
 40
1.0
 10
505.4381583312
 20
189.1768389357
 30
0.0
 10
505.7951116824
 20
188.6476338296
 30
0.0
 10
506.4494734619
 20
187.5580355355
 30
0.0
 10
507.2175014696
 20
185.8176097743
 30
0.0
 10
507.7478820002
 20
183.9906874059
 30
0.0
 10
507.9469920739
 20
182.7353910437
 30
0.0
 10
508.0137164278
 20
182.1005512228
 30
0.0
  0
SPLINE
  5
4C3
100
AcDbEntity
  8
0
100
AcDbSpline
 62
7
  6
CONTINUOUS
 70
0
 71
3
 72
9
 73
5
 74
0
 42
0.0000001
 43
0.0000001
 44
0.0000000001
 40
0.0
 40
0.0
 40
0.0
 40
0.0
 40
0.5000000002
 40
1.0
 40
1.0
 40
1.0
 40
1.0
 10
500.1511419057
 20
179.2388081321
 30
0.0
 10
500.9781515883
 20
176.0547245117
 30
0.0
 10
502.911380207
 20
169.7533646401
 30
0.0
 10
505.4808772162
 20
163.6835875237
 30
0.0
 10
506.8940405426
 20
160.7128463855
 30
0.0
  0
SPLINE
  5
4C4
100
AcDbEntity
  8
0
100
AcDbSpline
 62
7
  6
CONTINUOUS
 70
0
 71
3
 72
9
 73
5
 74
0
 42
0.0000001
 43
0.0000001
 44
0.0000000001
 40
0.0
 40
0.0
 40
0.0
 40
0.0
 40
0.5000031771
 40
1.0
 40
1.0
 40
1.0
 40
1.0
 10
506.8940405426
 20
160.7128463855
 30
0.0
 10
507.6765940947
 20
157.9089699684
 30
0.0
 10
509.3822556086
 20
152.3390408582
 30
0.0
 10
511.4082415218
 20
146.8768569217
 30
0.0
 10
512.4981239734
 20
144.1775877826
 30
0.0
  0
LINE
  5
4C5
100
AcDbEntity
  8
BEZUGSACHSEN
100
AcDbLine
 62
7
  6
CONTINUOUS
 10
513.4775702955
 20
176.8071476667
 11
513.2880515426
 21
177.1330227696
  0
LINE
  5
4C6
100
AcDbEntity
  8
BEZUGSACHSEN
100
AcDbLine
 62
7
  6
CONTINUOUS
 10
513.2880515426
 20
177.1330227696
 11
513.0478767005
 21
177.5069062331
  0
LINE
  5
4C7
100
AcDbEntity
  8
BEZUGSACHSEN
100
AcDbLine
 62
7
  6
CONTINUOUS
 10
513.0478767005
 20
177.5069062331
 11
512.7575385504
 21
177.9289768985
  0
LINE
  5
4C8
100
AcDbEntity
  8
BEZUGSACHSEN
100
AcDbLine
 62
7
  6
CONTINUOUS
 10
511.736597997
 20
179.3399576795
 11
512.503948481
 21
178.2794611711
  0
LINE
  5
4C9
100
AcDbEntity
  8
BEZUGSACHSEN
100
AcDbLine
 62
7
  6
CONTINUOUS
 10
512.503948481
 20
178.2794611711
 11
512.5894313295
 21
178.1613171722
  0
LINE
  5
4CA
100
AcDbEntity
  8
BEZUGSACHSEN
100
AcDbLine
 62
7
  6
CONTINUOUS
 10
512.5894313295
 20
178.1613171722
 11
512.7575385504
 21
177.9289768985
  0
LINE
  5
4CB
100
AcDbEntity
  8
BEZUGSACHSEN
100
AcDbLine
 62
7
  6
CONTINUOUS
 10
511.4823205757
 20
179.6703685368
 11
511.6097794298
 21
179.5047714906
  0
LINE
  5
4CC
100
AcDbEntity
  8
BEZUGSACHSEN
100
AcDbLine
 62
7
  6
CONTINUOUS
 10
511.6097794298
 20
179.5047714906
 11
511.736597997
 21
179.3399576795
  0
LINE
  5
4CD
100
AcDbEntity
  8
BEZUGSACHSEN
100
AcDbLine
 62
7
  6
CONTINUOUS
 10
511.3138282055
 20
179.86077174
 11
511.440424586
 21
179.7177616597
  0
LINE
  5
4CE
100
AcDbEntity
  8
BEZUGSACHSEN
100
AcDbLine
 62
7
  6
CONTINUOUS
 10
511.440424586
 20
179.7177616597
 11
511.4823205757
 21
179.6703685368
  0
LINE
  5
4CF
100
AcDbEntity
  8
BEZUGSACHSEN
100
AcDbLine
 62
7
  6
CONTINUOUS
 10
511.293158
 20
179.8733225543
 11
511.3138282055
 21
179.86077174
  0
LINE
  5
4D0
100
AcDbEntity
  8
0
100
AcDbLine
 62
7
  6
CONTINUOUS
 10
524.2724694141
 20
110.2662825831
 11
523.1817277419
 21
107.8171642212
  0
LINE
  5
4D1
100
AcDbEntity
  8
RUNDUNGEN
100
AcDbLine
 62
7
  6
CONTINUOUS
 10
533.870392361
 20
113.7596408466
 11
536.2802118956
 21
112.5846225672
  0
LINE
  5
4D2
100
AcDbEntity
  8
KONSTRUKTIONSELEMENTE
100
AcDbLine
 62
7
  6
CONTINUOUS
 10
510.719517193
 20
179.0898327577
 11
511.2667511999
 21
178.3333008096
  0
LINE
  5
4D3
100
AcDbEntity
  8
KONSTRUKTIONSELEMENTE
100
AcDbLine
 62
7
  6
CONTINUOUS
 10
511.2667511999
 20
178.3333008096
 11
511.3087292577
 21
178.2752654918
  0
LINE
  5
4D4
100
AcDbEntity
  8
KONSTRUKTIONSELEMENTE
100
AcDbLine
 62
7
  6
CONTINUOUS
 10
511.3087292577
 20
178.2752654918
 11
511.3558968509
 21
178.2100551872
  0
LINE
  5
4D5
100
AcDbEntity
  8
BEZUGSACHSEN
100
AcDbLine
 62
7
  6
CONTINUOUS
 10
514.4152031893
 20
174.8495576837
 11
514.3624942372
 21
174.9224391845
  0
LINE
  5
4D6
100
AcDbEntity
  8
BEZUGSACHSEN
100
AcDbLine
 62
7
  6
CONTINUOUS
 10
514.3624942372
 20
174.9224391845
 11
514.0454976634
 21
175.3607420483
  0
LINE
  5
4D7
100
AcDbEntity
  8
BEZUGSACHSEN
100
AcDbLine
 62
7
  6
CONTINUOUS
 10
514.0454976634
 20
175.3607420483
 11
513.8417932821
 21
175.6423871398
  0
LINE
  5
4D8
100
AcDbEntity
  8
BEZUGSACHSEN
100
AcDbLine
 62
7
  6
CONTINUOUS
 10
513.8417932821
 20
175.6423871398
 11
513.7034405865
 21
175.8336709245
  0
LINE
  5
4D9
100
AcDbEntity
  8
BEZUGSACHSEN
100
AcDbLine
 62
7
  6
CONTINUOUS
 10
513.7034405865
 20
175.8336709245
 11
511.8066595755
 21
178.4557716946
  0
LINE
  5
4DA
100
AcDbEntity
  8
BEZUGSACHSEN
100
AcDbLine
 62
7
  6
CONTINUOUS
 10
511.8066595755
 20
178.4557716946
 11
511.4598948644
 21
178.9350760551
  0
LINE
  5
4DB
100
AcDbEntity
  8
BEZUGSACHSEN
100
AcDbLine
 62
7
  6
CONTINUOUS
 10
511.4598948644
 20
178.9350760551
 11
511.2169417112
 21
179.2708804761
  0
LINE
  5
4DC
100
AcDbEntity
  8
BEZUGSACHSEN
100
AcDbLine
 62
7
  6
CONTINUOUS
 10
515.401148954
 20
171.5411641765
 11
515.7569123367
 21
171.2351027845
  0
LINE
  5
4DD
100
AcDbEntity
  8
KONSTRUKTIONSELEMENTE
100
AcDbLine
 62
7
  6
CONTINUOUS
 10
515.2471294646
 20
171.0495569931
 11
515.0654718749
 21
171.2055244003
  0
SPLINE
  5
4DE
100
AcDbEntity
  8
0
100
AcDbSpline
 62
7
  6
CONTINUOUS
 70
0
 71
3
 72
11
 73
7
 74
0
 42
0.0000001
 43
0.0000001
 44
0.0000000001
 40
0.0
 40
0.0
 40
0.0
 40
0.0
 40
0.2517733154
 40
0.5000000002
 40
0.7482266851
 40
1.0
 40
1.0
 40
1.0
 40
1.0
 10
497.5755838091
 20
186.315095845
 30
0.0
 10
497.6423081631
 20
185.6802560228
 30
0.0
 10
497.8414182412
 20
184.4249596603
 30
0.0
 10
498.3717987686
 20
182.59803729
 30
0.0
 10
499.1398267726
 20
180.8576115282
 30
0.0
 10
499.7941885552
 20
179.7680132371
 30
0.0
 10
500.1511419057
 20
179.2388081321
 30
0.0
  0
LINE
  5
4DF
100
AcDbEntity
  8
KONSTRUKTIONSELEMENTE
100
AcDbLine
 62
7
  6
CONTINUOUS
 10
514.530702416
 20
172.7421355192
 11
514.4448170093
 21
172.7867432179
  0
LINE
  5
4E0
100
AcDbEntity
  8
KONSTRUKTIONSELEMENTE
100
AcDbLine
 62
7
  6
CONTINUOUS
 10
514.4448170093
 20
172.7867432179
 11
514.401399269
 21
172.8091921546
  0
LINE
  5
4E1
100
AcDbEntity
  8
KONSTRUKTIONSELEMENTE
100
AcDbLine
 62
7
  6
CONTINUOUS
 10
514.401399269
 20
172.8091921546
 11
514.3793046083
 21
172.8205904771
  0
LINE
  5
4E2
100
AcDbEntity
  8
BEZUGSACHSEN
100
AcDbLine
 62
7
  6
CONTINUOUS
 10
514.6490382904
 20
173.2258522961
 11
514.8634298192
 21
173.015821203
  0
LINE
  5
4E3
100
AcDbEntity
  8
BEZUGSACHSEN
100
AcDbLine
 62
7
  6
CONTINUOUS
 10
514.3500577769
 20
173.5787217085
 11
514.6490382904
 21
173.2258522961
  0
LINE
  5
4E4
100
AcDbEntity
  8
BEZUGSACHSEN
100
AcDbLine
 62
7
  6
CONTINUOUS
 10
513.3355298449
 20
173.5429708062
 11
513.2986218331
 21
173.6436207604
  0
LINE
  5
4E5
100
AcDbEntity
  8
BEZUGSACHSEN
100
AcDbLine
 62
7
  6
CONTINUOUS
 10
516.5601084232
 20
169.0213772379
 11
516.2843696605
 21
169.3437096416
  0
LINE
  5
4E6
100
AcDbEntity
  8
BEZUGSACHSEN
100
AcDbLine
 62
7
  6
CONTINUOUS
 10
516.2843696605
 20
169.3437096416
 11
515.0482368376
 21
170.7885400734
  0
LINE
  5
4E7
100
AcDbEntity
  8
BEZUGSACHSEN
100
AcDbLine
 62
7
  6
CONTINUOUS
 10
515.0482368376
 20
170.7885400734
 11
514.6950291351
 21
171.2013327985
  0
LINE
  5
4E8
100
AcDbEntity
  8
BEZUGSACHSEN
100
AcDbLine
 62
7
  6
CONTINUOUS
 10
514.6950291351
 20
171.2013327985
 11
513.8119622402
 21
172.2332928898
  0
LINE
  5
4E9
100
AcDbEntity
  8
BEZUGSACHSEN
100
AcDbLine
 62
7
  6
CONTINUOUS
 10
513.8119622402
 20
172.2332928898
 11
513.7936797134
 21
172.2546569444
  0
SPLINE
  5
4EA
100
AcDbEntity
  8
KONSTRUKTIONSELEMENTE
100
AcDbSpline
 62
7
  6
CONTINUOUS
 70
0
 71
3
 72
8
 73
4
 74
0
 42
0.0000001
 43
0.0000001
 44
0.0000000001
 40
0.0
 40
0.0
 40
0.0
 40
0.0
 40
1.0
 40
1.0
 40
1.0
 40
1.0
 10
513.2773228905
 20
172.0667184306
 30
0.0
 10
514.1993346538
 20
170.9889748228
 30
0.0
 10
515.121244671
 20
169.9111441447
 30
0.0
 10
516.0429673267
 20
168.8331532719
 30
0.0
  0
LINE
  5
4EB
100
AcDbEntity
  8
KONSTRUKTIONSELEMENTE
100
AcDbLine
 62
7
  6
CONTINUOUS
 10
511.8632379358
 20
175.9560591316
 11
513.1286621824
 21
174.3194917108
  0
LINE
  5
4EC
100
AcDbEntity
  8
BEZUGSACHSEN
100
AcDbLine
 62
7
  6
CONTINUOUS
 10
514.3500577769
 20
173.5787217085
 11
514.1837750033
 21
173.7937503158
  0
LINE
  5
4ED
100
AcDbEntity
  8
BEZUGSACHSEN
100
AcDbLine
 62
7
  6
CONTINUOUS
 10
514.1837750033
 20
173.7937503158
 11
514.1287335946
 21
173.8649262248
  0
LINE
  5
4EE
100
AcDbEntity
  8
BEZUGSACHSEN
100
AcDbLine
 62
7
  6
CONTINUOUS
 10
514.1287335946
 20
173.8649262248
 11
513.9732586437
 21
174.0659737806
  0
LINE
  5
4EF
100
AcDbEntity
  8
BEZUGSACHSEN
100
AcDbLine
 62
7
  6
CONTINUOUS
 10
513.9732586437
 20
174.0659737806
 11
512.3690886863
 21
176.1401737477
  0
LINE
  5
4F0
100
AcDbEntity
  8
BEZUGSACHSEN
100
AcDbLine
 62
7
  6
CONTINUOUS
 10
513.4241906033
 20
173.842417313
 11
513.4881127096
 21
173.8469316931
  0
LINE
  5
4F1
100
AcDbEntity
  8
BEZUGSACHSEN
100
AcDbLine
 62
7
  6
CONTINUOUS
 10
513.4881127096
 20
173.8469316931
 11
513.5630708933
 21
173.7791147346
  0
LINE
  5
4F2
100
AcDbEntity
  8
BEZUGSACHSEN
100
AcDbLine
 62
7
  6
CONTINUOUS
 10
513.5630708933
 20
173.7791147346
 11
513.6004251516
 21
173.7453071287
  0
LINE
  5
4F3
100
AcDbEntity
  8
BEZUGSACHSEN
100
AcDbLine
 62
7
  6
CONTINUOUS
 10
513.6004251516
 20
173.7453071287
 11
513.6376961674
 21
173.7115667618
  0
LINE
  5
4F4
100
AcDbEntity
  8
BEZUGSACHSEN
100
AcDbLine
 62
7
  6
CONTINUOUS
 10
513.6376961674
 20
173.7115667618
 11
513.8143125517
 21
173.505200026
  0
LINE
  5
4F5
100
AcDbEntity
  8
BEZUGSACHSEN
100
AcDbLine
 62
7
  6
CONTINUOUS
 10
514.0179999465
 20
173.2278458527
 11
513.8143125517
 21
173.505200026
  0
LINE
  5
4F6
100
AcDbEntity
  8
BEZUGSACHSEN
100
AcDbLine
 62
7
  6
CONTINUOUS
 10
514.1896826194
 20
172.9482184796
 11
514.0179999465
 21
173.2278458527
  0
LINE
  5
4F7
100
AcDbEntity
  8
BEZUGSACHSEN
100
AcDbLine
 62
7
  6
CONTINUOUS
 10
514.65701287
 20
173.6741593014
 11
514.651248384
 21
173.7133317958
  0
LINE
  5
4F8
100
AcDbEntity
  8
BEZUGSACHSEN
100
AcDbLine
 62
7
  6
CONTINUOUS
 10
511.7175827783
 20
177.9352557017
 11
513.4745215713
 21
175.6638227454
  0
LINE
  5
4F9
100
AcDbEntity
  8
BEZUGSACHSEN
100
AcDbLine
 62
7
  6
CONTINUOUS
 10
513.4745215713
 20
175.6638227454
 11
513.6987695983
 21
175.3738829095
  0
LINE
  5
4FA
100
AcDbEntity
  8
KONSTRUKTIONSELEMENTE
100
AcDbLine
 62
7
  6
CONTINUOUS
 10
512.1980431968
 20
176.4843606129
 11
511.2166278457
 21
177.7529230175
  0
LINE
  5
4FB
100
AcDbEntity
  8
BEZUGSACHSEN
100
AcDbLine
 62
7
  6
CONTINUOUS
 10
513.9772990257
 20
174.9839749308
 11
513.7686154954
 21
175.2761148269
  0
LINE
  5
4FC
100
AcDbEntity
  8
BEZUGSACHSEN
100
AcDbLine
 62
7
  6
CONTINUOUS
 10
513.7686154954
 20
175.2761148269
 11
513.6987695983
 21
175.3738829095
  0
LINE
  5
4FD
100
AcDbEntity
  8
BEZUGSACHSEN
100
AcDbLine
 62
7
  6
CONTINUOUS
 10
514.2146259729
 20
174.6172163636
 11
513.9772990257
 21
174.9839749308
  0
LINE
  5
4FE
100
AcDbEntity
  8
BEZUGSACHSEN
100
AcDbLine
 62
7
  6
CONTINUOUS
 10
514.4102546836
 20
174.2734263054
 11
514.2146259729
 21
174.6172163636
  0
LINE
  5
4FF
100
AcDbEntity
  8
BEZUGSACHSEN
100
AcDbLine
 62
7
  6
CONTINUOUS
 10
514.651248384
 20
173.7133317958
 11
514.6294132771
 21
173.7731260374
  0
LINE
  5
500
100
AcDbEntity
  8
BEZUGSACHSEN
100
AcDbLine
 62
7
  6
CONTINUOUS
 10
514.5854878928
 20
173.8926192708
 11
514.5633976362
 21
173.9523182701
  0
LINE
  5
501
100
AcDbEntity
  8
BEZUGSACHSEN
100
AcDbLine
 62
7
  6
CONTINUOUS
 10
467.9446157273
 20
167.9738243787
 11
467.8858819966
 21
167.8157217854
  0
LINE
  5
502
100
AcDbEntity
  8
BEZUGSACHSEN
100
AcDbLine
 62
7
  6
CONTINUOUS
 10
468.5449295764
 20
169.1213711707
 11
468.3457239266
 21
168.773099539
  0
LINE
  5
503
100
AcDbEntity
  8
BEZUGSACHSEN
100
AcDbLine
 62
7
  6
CONTINUOUS
 10
468.7684273993
 20
169.4468304122
 11
468.5449295764
 21
169.1213711707
  0
LINE
  5
504
100
AcDbEntity
  8
BEZUGSACHSEN
100
AcDbLine
 62
7
  6
CONTINUOUS
 10
468.9615421348
 20
169.693601359
 11
468.9131376071
 21
169.6317545998
  0
LINE
  5
505
100
AcDbEntity
  8
BEZUGSACHSEN
100
AcDbLine
 62
7
  6
CONTINUOUS
 10
468.9131376071
 20
169.6317545998
 11
468.7684273993
 21
169.4468304122
  0
LINE
  5
506
100
AcDbEntity
  8
BEZUGSACHSEN
100
AcDbLine
 62
7
  6
CONTINUOUS
 10
467.9727865706
 20
167.2096104125
 11
468.0532347023
 21
167.2421309949
  0
LINE
  5
507
100
AcDbEntity
  8
BEZUGSACHSEN
100
AcDbLine
 62
7
  6
CONTINUOUS
 10
468.2702106906
 20
167.4662463671
 11
468.0532347023
 21
167.2421309949
  0
LINE
  5
508
100
AcDbEntity
  8
BEZUGSACHSEN
100
AcDbLine
 62
7
  6
CONTINUOUS
 10
468.5434175138
 20
167.8493851617
 11
468.2702106906
 21
167.4662463671
  0
LINE
  5
509
100
AcDbEntity
  8
BEZUGSACHSEN
100
AcDbLine
 62
7
  6
CONTINUOUS
 10
468.7368805986
 20
168.1997468895
 11
468.5434175138
 21
167.8493851617
  0
LINE
  5
50A
100
AcDbEntity
  8
BEZUGSACHSEN
100
AcDbLine
 62
7
  6
CONTINUOUS
 10
468.7562826792
 20
168.2456457562
 11
468.7368805986
 21
168.1997468895
  0
LINE
  5
50B
100
AcDbEntity
  8
BEZUGSACHSEN
100
AcDbLine
 62
7
  6
CONTINUOUS
 10
469.0795475404
 20
169.0482384811
 11
469.061551451
 21
168.9995077505
  0
LINE
  5
50C
100
AcDbEntity
  8
BEZUGSACHSEN
100
AcDbLine
 62
7
  6
CONTINUOUS
 10
469.0795475404
 20
169.0482384811
 11
469.2965801608
 21
169.272333241
  0
LINE
  5
50D
100
AcDbEntity
  8
BEZUGSACHSEN
100
AcDbLine
 62
7
  6
CONTINUOUS
 10
469.1684472783
 20
168.5451281881
 11
469.3289980209
 21
168.610291004
  0
LINE
  5
50E
100
AcDbEntity
  8
BEZUGSACHSEN
100
AcDbLine
 62
7
  6
CONTINUOUS
 10
469.4374980411
 20
168.7223445252
 11
469.3289980209
 21
168.610291004
  0
LINE
  5
50F
100
AcDbEntity
  8
BEZUGSACHSEN
100
AcDbLine
 62
7
  6
CONTINUOUS
 10
469.6567401598
 20
169.0493527164
 11
469.4374980411
 21
168.7223445252
  0
LINE
  5
510
100
AcDbEntity
  8
BEZUGSACHSEN
100
AcDbLine
 62
7
  6
CONTINUOUS
 10
469.8505547625
 20
169.3995865022
 11
469.6567401598
 21
169.0493527164
  0
LINE
  5
511
100
AcDbEntity
  8
BEZUGSACHSEN
100
AcDbLine
 62
7
  6
CONTINUOUS
 10
470.1726309897
 20
170.7208325446
 11
470.1515760392
 21
170.6655895175
  0
LINE
  5
512
100
AcDbEntity
  8
BEZUGSACHSEN
100
AcDbLine
 62
7
  6
CONTINUOUS
 10
470.1515760392
 20
170.6655895175
 11
470.1351047915
 21
170.6222959961
  0
LINE
  5
513
100
AcDbEntity
  8
BEZUGSACHSEN
100
AcDbLine
 62
7
  6
CONTINUOUS
 10
470.2858935679
 20
171.0161354815
 11
470.4724235697
 21
171.1615895075
  0
LINE
  5
514
100
AcDbEntity
  8
BEZUGSACHSEN
100
AcDbLine
 62
7
  6
CONTINUOUS
 10
468.7194093241
 20
170.0830922562
 11
470.8713245483
 21
172.5661036876
  0
LINE
  5
515
100
AcDbEntity
  8
BEZUGSACHSEN
100
AcDbLine
 62
7
  6
CONTINUOUS
 10
470.8713245483
 20
172.5661036876
 11
470.9967873746
 21
172.7108697326
  0
LINE
  5
516
100
AcDbEntity
  8
BEZUGSACHSEN
100
AcDbLine
 62
7
  6
CONTINUOUS
 10
470.7486633237
 20
172.672409116
 11
470.8651419239
 21
172.8068405635
  0
LINE
  5
517
100
AcDbEntity
  8
BEZUGSACHSEN
100
AcDbLine
 62
7
  6
CONTINUOUS
 10
470.8651419239
 20
172.8068405635
 11
471.2157372625
 21
173.2114698513
  0
SPLINE
  5
518
100
AcDbEntity
  8
BEZUGSACHSEN
100
AcDbSpline
 62
7
  6
CONTINUOUS
 70
0
 71
3
 72
8
 73
4
 74
0
 42
0.0000001
 43
0.0000001
 44
0.0000000001
 40
0.0
 40
0.0
 40
0.0
 40
0.0
 40
1.0
 40
1.0
 40
1.0
 40
1.0
 10
471.3575286326
 20
176.5841018918
 30
0.0
 10
471.2417718824
 20
176.3963161294
 30
0.0
 10
471.1261829312
 20
176.2084268145
 30
0.0
 10
471.0107720532
 20
176.020428285
 30
0.0
  0
LINE
  5
519
100
AcDbEntity
  8
BEZUGSACHSEN
100
AcDbLine
 62
7
  6
CONTINUOUS
 10
471.6651418602
 20
177.0477606637
 11
471.3575286326
 21
176.5841018918
  0
LINE
  5
51A
100
AcDbEntity
  8
BEZUGSACHSEN
100
AcDbLine
 62
7
  6
CONTINUOUS
 10
472.0197255978
 20
177.5525289877
 11
471.6651418602
 21
177.0477606637
  0
LINE
  5
51B
100
AcDbEntity
  8
BEZUGSACHSEN
100
AcDbLine
 62
7
  6
CONTINUOUS
 10
472.0197255978
 20
177.5525289877
 11
472.7704604192
 21
178.5735416113
  0
LINE
  5
51C
100
AcDbEntity
  8
BEZUGSACHSEN
100
AcDbLine
 62
7
  6
CONTINUOUS
 10
472.7704604192
 20
178.5735416113
 11
472.8386520218
 21
178.6662767038
  0
LINE
  5
51D
100
AcDbEntity
  8
BEZUGSACHSEN
100
AcDbLine
 62
7
  6
CONTINUOUS
 10
472.8386520218
 20
178.6662767038
 11
473.0232802849
 21
178.9173510294
  0
LINE
  5
51E
100
AcDbEntity
  8
BEZUGSACHSEN
100
AcDbLine
 62
7
  6
CONTINUOUS
 10
473.0232802849
 20
178.9173510294
 11
473.1015797128
 21
179.0181794733
  0
LINE
  5
51F
100
AcDbEntity
  8
BEZUGSACHSEN
100
AcDbLine
 62
7
  6
CONTINUOUS
 10
473.1015797128
 20
179.0181794733
 11
473.1801163802
 21
179.1192976053
  0
LINE
  5
520
100
AcDbEntity
  8
BEZUGSACHSEN
100
AcDbLine
 62
7
  6
CONTINUOUS
 10
473.1801163802
 20
179.1192976053
 11
473.2588902354
 21
179.2207054556
  0
LINE
  5
521
100
AcDbEntity
  8
BEZUGSACHSEN
100
AcDbLine
 62
7
  6
CONTINUOUS
 10
473.2588902354
 20
179.2207054556
 11
473.2676698502
 21
179.2320067447
  0
LINE
  5
522
100
AcDbEntity
  8
BEZUGSACHSEN
100
AcDbLine
 62
7
  6
CONTINUOUS
 10
473.2676698502
 20
179.2320067447
 11
473.3379012281
 21
179.3224030539
  0
LINE
  5
523
100
AcDbEntity
  8
BEZUGSACHSEN
100
AcDbLine
 62
7
  6
CONTINUOUS
 10
473.3379012281
 20
179.3224030539
 11
473.565987555
 21
179.5864781584
  0
LINE
  5
524
100
AcDbEntity
  8
BEZUGSACHSEN
100
AcDbLine
 62
7
  6
CONTINUOUS
 10
473.7554973864
 20
179.7503320686
 11
473.8123721593
 21
179.7317817626
  0
LINE
  5
525
100
AcDbEntity
  8
BEZUGSACHSEN
100
AcDbLine
 62
7
  6
CONTINUOUS
 10
472.8912354851
 20
177.9445674504
 11
472.6728243442
 21
177.6209141533
  0
LINE
  5
526
100
AcDbEntity
  8
BEZUGSACHSEN
100
AcDbLine
 62
7
  6
CONTINUOUS
 10
473.0782265559
 20
178.2785818393
 11
472.8912354851
 21
177.9445674504
  0
LINE
  5
527
100
AcDbEntity
  8
BEZUGSACHSEN
100
AcDbLine
 62
7
  6
CONTINUOUS
 10
470.9493882927
 20
175.3065087748
 11
471.1328224089
 21
175.5286304543
  0
LINE
  5
528
100
AcDbEntity
  8
BEZUGSACHSEN
100
AcDbLine
 62
7
  6
CONTINUOUS
 10
471.6684640389
 20
176.2563854942
 11
471.1328224089
 21
175.5286304543
  0
LINE
  5
529
100
AcDbEntity
  8
BEZUGSACHSEN
100
AcDbLine
 62
7
  6
CONTINUOUS
 10
472.2304585509
 20
177.2580569382
 11
471.8285923091
 21
176.7122899225
  0
LINE
  5
52A
100
AcDbEntity
  8
BEZUGSACHSEN
100
AcDbLine
 62
7
  6
CONTINUOUS
 10
473.1655455029
 20
179.6140539138
 11
473.2816393827
 21
179.7428119192
  0
LINE
  5
52B
100
AcDbEntity
  8
BEZUGSACHSEN
100
AcDbLine
 62
7
  6
CONTINUOUS
 10
473.2816393827
 20
179.7428119192
 11
473.4805537335
 21
180.0078731023
  0
LINE
  5
52C
100
AcDbEntity
  8
BEZUGSACHSEN
100
AcDbLine
 62
7
  6
CONTINUOUS
 10
473.6916962015
 20
180.3089551638
 11
473.4805537335
 21
180.0078731023
  0
LINE
  5
52D
100
AcDbEntity
  8
BEZUGSACHSEN
100
AcDbLine
 62
7
  6
CONTINUOUS
 10
473.9150938151
 20
180.6460475604
 11
473.6916962015
 21
180.3089551638
  0
LINE
  5
52E
100
AcDbEntity
  8
BEZUGSACHSEN
100
AcDbLine
 62
7
  6
CONTINUOUS
 10
474.0806027712
 20
180.9187028811
 11
474.0390393384
 21
180.8502918326
  0
LINE
  5
52F
100
AcDbEntity
  8
BEZUGSACHSEN
100
AcDbLine
 62
7
  6
CONTINUOUS
 10
474.0390393384
 20
180.8502918326
 11
473.9150938151
 21
180.6460475604
  0
LINE
  5
530
100
AcDbEntity
  8
BEZUGSACHSEN
100
AcDbLine
 62
7
  6
CONTINUOUS
 10
474.4425307782
 20
181.803308786
 11
474.4098809738
 21
181.7206178242
  0
LINE
  5
531
100
AcDbEntity
  8
BEZUGSACHSEN
100
AcDbLine
 62
7
  6
CONTINUOUS
 10
471.5744095389
 20
177.7990062141
 11
472.5638455256
 21
179.2114483876
  0
LINE
  5
532
100
AcDbEntity
  8
BEZUGSACHSEN
100
AcDbLine
 62
7
  6
CONTINUOUS
 10
472.5638455256
 20
179.2114483876
 11
472.9233982097
 21
179.7246598614
  0
LINE
  5
533
100
AcDbEntity
  8
BEZUGSACHSEN
100
AcDbLine
 62
7
  6
CONTINUOUS
 10
472.9233982097
 20
179.7246598614
 11
472.9438111957
 21
179.7537957099
  0
LINE
  5
534
100
AcDbEntity
  8
BEZUGSACHSEN
100
AcDbLine
 62
7
  6
CONTINUOUS
 10
472.9438111957
 20
179.7537957099
 11
473.0498786254
 21
179.9051863651
  0
LINE
  5
535
100
AcDbEntity
  8
BEZUGSACHSEN
100
AcDbLine
 62
7
  6
CONTINUOUS
 10
473.0498786254
 20
179.9051863651
 11
473.200543094
 21
180.1202265648
  0
LINE
  5
536
100
AcDbEntity
  8
BEZUGSACHSEN
100
AcDbLine
 62
7
  6
CONTINUOUS
 10
473.200543094
 20
180.1202265648
 11
473.2399434865
 21
180.1764611352
  0
LINE
  5
537
100
AcDbEntity
  8
BEZUGSACHSEN
100
AcDbLine
 62
7
  6
CONTINUOUS
 10
473.2399434865
 20
180.1764611352
 11
473.3454080361
 21
180.3269848263
  0
LINE
  5
538
100
AcDbEntity
  8
BEZUGSACHSEN
100
AcDbLine
 62
7
  6
CONTINUOUS
 10
473.3454080361
 20
180.3269848263
 11
473.4509601236
 21
180.4776312269
  0
LINE
  5
539
100
AcDbEntity
  8
BEZUGSACHSEN
100
AcDbLine
 62
7
  6
CONTINUOUS
 10
473.4509601236
 20
180.4776312269
 11
473.6829398633
 21
180.8087104966
  0
LINE
  5
53A
100
AcDbEntity
  8
BEZUGSACHSEN
100
AcDbLine
 62
7
  6
CONTINUOUS
 10
473.6829398633
 20
180.8087104966
 11
473.8655835104
 21
181.069370628
  0
LINE
  5
53B
100
AcDbEntity
  8
BEZUGSACHSEN
100
AcDbLine
 62
7
  6
CONTINUOUS
 10
473.8655835104
 20
181.069370628
 11
473.9989475953
 21
181.259697516
  0
LINE
  5
53C
100
AcDbEntity
  8
BEZUGSACHSEN
100
AcDbLine
 62
7
  6
CONTINUOUS
 10
473.9989475953
 20
181.259697516
 11
474.314265189
 21
181.7096818543
  0
LINE
  5
53D
100
AcDbEntity
  8
BEZUGSACHSEN
100
AcDbLine
 62
7
  6
CONTINUOUS
 10
474.314265189
 20
181.7096818543
 11
474.4005091429
 21
181.8327561513
  0
LINE
  5
53E
100
AcDbEntity
  8
BEZUGSACHSEN
100
AcDbLine
 62
7
  6
CONTINUOUS
 10
474.4005091429
 20
181.8327561513
 11
474.8798900873
 21
182.5168338107
  0
SPLINE
  5
53F
100
AcDbEntity
  8
BEZUGSACHSEN
100
AcDbSpline
 62
7
  6
CONTINUOUS
 70
0
 71
3
 72
8
 73
4
 74
0
 42
0.0000001
 43
0.0000001
 44
0.0000000001
 40
0.0
 40
0.0
 40
0.0
 40
0.0
 40
1.0
 40
1.0
 40
1.0
 40
1.0
 10
472.7358054764
 20
179.0909818883
 30
0.0
 10
472.4274732209
 20
178.6240107985
 30
0.0
 10
472.1194068862
 20
178.1568639777
 30
0.0
 10
471.8116526195
 20
177.6895117659
 30
0.0
  0
LINE
  5
540
100
AcDbEntity
  8
BEZUGSACHSEN
100
AcDbLine
 62
7
  6
CONTINUOUS
 10
471.8116526195
 20
177.6895117659
 11
471.5422687518
 21
177.2802513841
  0
LINE
  5
541
100
AcDbEntity
  8
BEZUGSACHSEN
100
AcDbLine
 62
7
  6
CONTINUOUS
 10
471.5422687518
 20
177.2802513841
 11
471.4726047761
 21
177.1743557916
  0
LINE
  5
542
100
AcDbEntity
  8
BEZUGSACHSEN
100
AcDbLine
 62
7
  6
CONTINUOUS
 10
471.4726047761
 20
177.1743557916
 11
471.1669381738
 21
176.7094171467
  0
LINE
  5
543
100
AcDbEntity
  8
BEZUGSACHSEN
100
AcDbLine
 62
7
  6
CONTINUOUS
 10
471.1669381738
 20
176.7094171467
 11
471.1580821511
 21
176.6959391716
  0
LINE
  5
544
100
AcDbEntity
  8
KONSTRUKTIONSELEMENTE
100
AcDbLine
 62
7
  6
CONTINUOUS
 10
470.8705442468
 20
170.0214378417
 11
470.9282311169
 21
170.1799312044
  0
LINE
  5
545
100
AcDbEntity
  8
BEZUGSACHSEN
100
AcDbLine
 62
7
  6
CONTINUOUS
 10
470.4068441869
 20
170.3697005275
 11
470.3487282911
 21
170.2113633174
  0
LINE
  5
546
100
AcDbEntity
  8
KONSTRUKTIONSELEMENTE
100
AcDbLine
 62
7
  6
CONTINUOUS
 10
469.823081787
 20
168.1332855153
 11
470.0675714048
 21
168.4371295245
  0
SPLINE
  5
547
100
AcDbEntity
  8
0
100
AcDbSpline
 62
7
  6
CONTINUOUS
 70
0
 71
3
 72
11
 73
7
 74
0
 42
0.0000001
 43
0.0000001
 44
0.0000000001
 40
0.0
 40
0.0
 40
0.0
 40
0.0
 40
0.2517733154
 40
0.5000000002
 40
0.7482266851
 40
1.0
 40
1.0
 40
1.0
 40
1.0
 10
476.8933653698
 20
182.1005512228
 30
0.0
 10
476.9600897239
 20
182.735391045
 30
0.0
 10
477.1591998019
 20
183.9906874075
 30
0.0
 10
477.6895803293
 20
185.8176097778
 30
0.0
 10
478.4576083334
 20
187.5580355396
 30
0.0
 10
479.1119701159
 20
188.6476338307
 30
0.0
 10
479.4689234664
 20
189.1768389357
 30
0.0
  0
SPLINE
  5
548
100
AcDbEntity
  8
0
100
AcDbSpline
 62
7
  6
CONTINUOUS
 70
0
 71
3
 72
9
 73
5
 74
0
 42
0.0000001
 43
0.0000001
 44
0.0000000001
 40
0.0
 40
0.0
 40
0.0
 40
0.0
 40
0.5000000002
 40
1.0
 40
1.0
 40
1.0
 40
1.0
 10
470.1504667329
 20
163.5745894762
 30
0.0
 10
470.9774764155
 20
166.7586730966
 30
0.0
 10
472.9107050342
 20
173.0600329681
 30
0.0
 10
475.4802020434
 20
179.1298100845
 30
0.0
 10
476.8933653698
 20
182.1005512228
 30
0.0
  0
LINE
  5
549
100
AcDbEntity
  8
BEZUGSACHSEN
100
AcDbLine
 62
7
  6
CONTINUOUS
 10
469.5423965059
 20
168.6282775554
 11
469.297623234
 21
168.3245367879
  0
SPLINE
  5
54A
100
AcDbEntity
  8
0
100
AcDbSpline
 62
7
  6
CONTINUOUS
 70
0
 71
3
 72
9
 73
5
 74
0
 42
0.0000001
 43
0.0000001
 44
0.0000000001
 40
0.0
 40
0.0
 40
0.0
 40
0.0
 40
0.4999968234
 40
1.0
 40
1.0
 40
1.0
 40
1.0
 10
463.814784351
 20
147.305611115
 30
0.0
 10
464.7149427139
 20
150.0739341781
 30
0.0
 10
466.67397162
 20
155.5604884721
 30
0.0
 10
468.9476405141
 20
160.9236798032
 30
0.0
 10
470.1504667329
 20
163.5745894762
 30
0.0
  0
LINE
  5
54B
100
AcDbEntity
  8
KONSTRUKTIONSELEMENTE
100
AcDbLine
 62
7
  6
CONTINUOUS
 10
469.7146453827
 20
168.0212088398
 11
469.823081787
 21
168.1332855153
  0
LINE
  5
54C
100
AcDbEntity
  8
BEZUGSACHSEN
100
AcDbLine
 62
7
  6
CONTINUOUS
 10
469.297623234
 20
168.3245367879
 11
469.1891579659
 21
168.212470618
  0
LINE
  5
54D
100
AcDbEntity
  8
KONSTRUKTIONSELEMENTE
100
AcDbLine
 62
7
  6
CONTINUOUS
 10
469.7146453827
 20
168.0212088398
 11
469.5253398708
 21
167.8767650168
  0
LINE
  5
54E
100
AcDbEntity
  8
BEZUGSACHSEN
100
AcDbLine
 62
7
  6
CONTINUOUS
 10
469.0000301174
 20
168.0679621309
 11
469.1891579659
 21
168.212470618
  0
LINE
  5
54F
100
AcDbEntity
  8
KONSTRUKTIONSELEMENTE
100
AcDbLine
 62
7
  6
CONTINUOUS
 10
469.5253398708
 20
167.8767650168
 11
469.4180066091
 21
167.8680046654
  0
LINE
  5
550
100
AcDbEntity
  8
BEZUGSACHSEN
100
AcDbLine
 62
7
  6
CONTINUOUS
 10
468.8931326725
 20
168.0590431551
 11
469.0000301174
 21
168.0679621309
  0
LINE
  5
551
100
AcDbEntity
  8
BEZUGSACHSEN
100
AcDbLine
 62
7
  6
CONTINUOUS
 10
468.8429216064
 20
168.2089775829
 11
468.7804485421
 21
168.0815284476
  0
LINE
  5
552
100
AcDbEntity
  8
KONSTRUKTIONSELEMENTE
100
AcDbLine
 62
7
  6
CONTINUOUS
 10
468.9014216818
 20
167.1806174099
 11
469.119177939
 21
167.5081623023
  0
LINE
  5
553
100
AcDbEntity
  8
BEZUGSACHSEN
100
AcDbLine
 62
7
  6
CONTINUOUS
 10
468.5939966108
 20
167.6993126734
 11
468.3757018254
 21
167.3719637892
  0
LINE
  5
554
100
AcDbEntity
  8
KONSTRUKTIONSELEMENTE
100
AcDbLine
 62
7
  6
CONTINUOUS
 10
468.6571797076
 20
166.8766790516
 11
468.9014216818
 21
167.1806174099
  0
LINE
  5
555
100
AcDbEntity
  8
BEZUGSACHSEN
100
AcDbLine
 62
7
  6
CONTINUOUS
 10
468.3757018254
 20
167.3719637892
 11
468.1311395354
 21
167.0681420163
  0
LINE
  5
556
100
AcDbEntity
  8
KONSTRUKTIONSELEMENTE
100
AcDbLine
 62
7
  6
CONTINUOUS
 10
469.3779411202
 20
169.2427204505
 11
469.4031017166
 21
169.3085493013
  0
LINE
  5
557
100
AcDbEntity
  8
KONSTRUKTIONSELEMENTE
100
AcDbLine
 62
7
  6
CONTINUOUS
 10
469.4031017166
 20
169.3085493013
 11
469.4787243137
 21
169.5053624402
  0
LINE
  5
558
100
AcDbEntity
  8
KONSTRUKTIONSELEMENTE
100
AcDbLine
 62
7
  6
CONTINUOUS
 10
468.4403686335
 20
166.6525036555
 11
468.6571797076
 21
166.8766790516
  0
LINE
  5
559
100
AcDbEntity
  8
BEZUGSACHSEN
100
AcDbLine
 62
7
  6
CONTINUOUS
 10
468.1311395354
 20
167.0681420163
 11
467.9142542574
 21
166.8439936282
  0
LINE
  5
55A
100
AcDbEntity
  8
KONSTRUKTIONSELEMENTE
100
AcDbLine
 62
7
  6
CONTINUOUS
 10
468.4403686335
 20
166.6525036555
 11
468.3051183691
 21
166.56416143
  0
LINE
  5
55B
100
AcDbEntity
  8
BEZUGSACHSEN
100
AcDbLine
 62
7
  6
CONTINUOUS
 10
467.7792078771
 20
166.7555771949
 11
467.9142542574
 21
166.8439936282
  0
LINE
  5
55C
100
AcDbEntity
  8
KONSTRUKTIONSELEMENTE
100
AcDbLine
 62
7
  6
CONTINUOUS
 10
468.3051183691
 20
166.56416143
 11
468.1974203262
 21
166.5555297399
  0
LINE
  5
55D
100
AcDbEntity
  8
BEZUGSACHSEN
100
AcDbLine
 62
7
  6
CONTINUOUS
 10
467.671983026
 20
166.7467732771
 11
467.7792078771
 21
166.7555771949
  0
LINE
  5
55E
100
AcDbEntity
  8
BEZUGSACHSEN
100
AcDbLine
 62
7
  6
CONTINUOUS
 10
468.8096159334
 20
169.3001799705
 11
468.6710381141
 21
169.1093271979
  0
LINE
  5
55F
100
AcDbEntity
  8
BEZUGSACHSEN
100
AcDbLine
 62
7
  6
CONTINUOUS
 10
468.6710381141
 20
169.1093271979
 11
468.5025359086
 21
168.8396272871
  0
SPLINE
  5
560
100
AcDbEntity
  8
0
100
AcDbSpline
 62
7
  6
CONTINUOUS
 70
0
 71
3
 72
9
 73
5
 74
0
 42
0.0000001
 43
0.0000001
 44
0.0000000001
 40
0.0
 40
0.0
 40
0.0
 40
0.0
 40
0.4999968234
 40
1.0
 40
1.0
 40
1.0
 40
1.0
 10
472.4089578242
 20
144.1775877826
 30
0.0
 10
473.498840277
 20
146.8768569243
 30
0.0
 10
475.5248261896
 20
152.339040861
 30
0.0
 10
477.2304877037
 20
157.9089699712
 30
0.0
 10
478.013041255
 20
160.7128463855
 30
0.0
  0
SPLINE
  5
561
100
AcDbEntity
  8
0
100
AcDbSpline
 62
7
  6
CONTINUOUS
 70
0
 71
3
 72
9
 73
5
 74
0
 42
0.0000001
 43
0.0000001
 44
0.0000000001
 40
0.0
 40
0.0
 40
0.0
 40
0.0
 40
0.5000000002
 40
1.0
 40
1.0
 40
1.0
 40
1.0
 10
478.013041255
 20
160.7128463855
 30
0.0
 10
479.4262045827
 20
163.6835875263
 30
0.0
 10
481.9957015916
 20
169.7533646428
 30
0.0
 10
483.9289302101
 20
176.0547245144
 30
0.0
 10
484.7559398919
 20
179.2388081321
 30
0.0
  0
SPLINE
  5
562
100
AcDbEntity
  8
0
100
AcDbSpline
 62
7
  6
CONTINUOUS
 70
0
 71
3
 72
11
 73
7
 74
0
 42
0.0000001
 43
0.0000001
 44
0.0000000001
 40
0.0
 40
0.0
 40
0.0
 40
0.0
 40
0.2517733154
 40
0.5000000002
 40
0.7482266851
 40
1.0
 40
1.0
 40
1.0
 40
1.0
 10
484.7559398919
 20
179.2388081321
 30
0.0
 10
485.1128932432
 20
179.7680132381
 30
0.0
 10
485.7672550226
 20
180.8576115323
 30
0.0
 10
486.5352830303
 20
182.5980372934
 30
0.0
 10
487.0656635609
 20
184.4249596618
 30
0.0
 10
487.2647736347
 20
185.6802560241
 30
0.0
 10
487.3314979886
 20
186.315095845
 30
0.0
  0
LINE
  5
563
100
AcDbEntity
  8
KONSTRUKTIONSELEMENTE
100
AcDbLine
 62
7
  6
CONTINUOUS
 10
469.2018778262
 20
169.6061263974
 11
469.2707373136
 21
169.685591405
  0
LINE
  5
564
100
AcDbEntity
  8
KONSTRUKTIONSELEMENTE
100
AcDbLine
 62
7
  6
CONTINUOUS
 10
469.2707373136
 20
169.685591405
 11
470.1008784706
 21
170.6435778304
  0
LINE
  5
565
100
AcDbEntity
  8
KONSTRUKTIONSELEMENTE
100
AcDbLine
 62
7
  6
CONTINUOUS
 10
470.1008784706
 20
170.6435778304
 11
470.1542973707
 21
170.7052228552
  0
LINE
  5
566
100
AcDbEntity
  8
KONSTRUKTIONSELEMENTE
100
AcDbLine
 62
7
  6
CONTINUOUS
 10
470.1542973707
 20
170.7052228552
 11
470.1764232503
 21
170.7307559402
  0
LINE
  5
567
100
AcDbEntity
  8
KONSTRUKTIONSELEMENTE
100
AcDbLine
 62
7
  6
CONTINUOUS
 10
470.5312216278
 20
171.1401888065
 11
471.820821522
 21
172.6283486555
  0
LINE
  5
568
100
AcDbEntity
  8
BEZUGSACHSEN
100
AcDbLine
 62
7
  6
CONTINUOUS
 10
471.3060516424
 20
172.8157095691
 11
471.1215128207
 21
172.6027763283
  0
LINE
  5
569
100
AcDbEntity
  8
BEZUGSACHSEN
100
AcDbLine
 62
7
  6
CONTINUOUS
 10
471.1215128207
 20
172.6027763283
 11
470.9960512158
 21
172.4580102324
  0
LINE
  5
56A
100
AcDbEntity
  8
BEZUGSACHSEN
100
AcDbLine
 62
7
  6
CONTINUOUS
 10
470.9960512158
 20
172.4580102324
 11
468.844150662
 21
169.974986498
  0
LINE
  5
56B
100
AcDbEntity
  8
BEZUGSACHSEN
100
AcDbLine
 62
7
  6
CONTINUOUS
 10
468.844150662
 20
169.974986498
 11
468.7552384163
 21
169.8723921717
  0
LINE
  5
56C
100
AcDbEntity
  8
BEZUGSACHSEN
100
AcDbLine
 62
7
  6
CONTINUOUS
 10
468.7552384163
 20
169.8723921717
 11
468.561544407
 21
169.6488917136
  0
LINE
  5
56D
100
AcDbEntity
  8
KONSTRUKTIONSELEMENTE
100
AcDbLine
 62
7
  6
CONTINUOUS
 10
471.4631825603
 20
174.9502592301
 11
471.2122916838
 21
174.6373506617
  0
LINE
  5
56E
100
AcDbEntity
  8
BEZUGSACHSEN
100
AcDbLine
 62
7
  6
CONTINUOUS
 10
470.7122222087
 20
174.8193610656
 11
470.9629942563
 21
175.1323128843
  0
LINE
  5
56F
100
AcDbEntity
  8
KONSTRUKTIONSELEMENTE
100
AcDbLine
 62
7
  6
CONTINUOUS
 10
471.0123374494
 20
174.4772981628
 11
470.9475085133
 21
174.4987448249
  0
LINE
  5
570
100
AcDbEntity
  8
BEZUGSACHSEN
100
AcDbLine
 62
7
  6
CONTINUOUS
 10
468.5025359086
 20
168.8396272871
 11
468.388572445
 21
168.625844886
  0
LINE
  5
571
100
AcDbEntity
  8
BEZUGSACHSEN
100
AcDbLine
 62
7
  6
CONTINUOUS
 10
470.4487808178
 20
174.680266861
 11
470.5129249712
 21
174.6590694395
  0
LINE
  5
572
100
AcDbEntity
  8
BEZUGSACHSEN
100
AcDbLine
 62
7
  6
CONTINUOUS
 10
468.0552462363
 20
167.8188276015
 11
468.0118868761
 21
167.6999881748
  0
LINE
  5
573
100
AcDbEntity
  8
KONSTRUKTIONSELEMENTE
100
AcDbLine
 62
7
  6
CONTINUOUS
 10
473.0691345781
 20
177.1338781231
 11
473.4206906168
 21
177.6397487625
  0
LINE
  5
574
100
AcDbEntity
  8
BEZUGSACHSEN
100
AcDbLine
 62
7
  6
CONTINUOUS
 10
472.921020412
 20
177.821613844
 11
472.5692551102
 21
177.3158193701
  0
LINE
  5
575
100
AcDbEntity
  8
BEZUGSACHSEN
100
AcDbLine
 62
7
  6
CONTINUOUS
 10
467.9450271287
 20
167.4445865233
 11
467.9230155166
 21
167.3593887442
  0
LINE
  5
576
100
AcDbEntity
  8
BEZUGSACHSEN
100
AcDbLine
 62
7
  6
CONTINUOUS
 10
473.3722828609
 20
179.127939783
 11
473.3914979362
 21
179.1358021411
  0
LINE
  5
577
100
AcDbEntity
  8
BEZUGSACHSEN
100
AcDbLine
 62
7
  6
CONTINUOUS
 10
473.1529573184
 20
178.9315868464
 11
473.3076430061
 21
179.0964135528
  0
LINE
  5
578
100
AcDbEntity
  8
BEZUGSACHSEN
100
AcDbLine
 62
7
  6
CONTINUOUS
 10
473.3076430061
 20
179.0964135528
 11
473.3150846005
 21
179.1043316496
  0
LINE
  5
579
100
AcDbEntity
  8
RUNDUNGEN
100
AcDbLine
 62
7
  6
CONTINUOUS
 10
448.626869902
 20
112.5846225672
 11
451.0366894366
 21
113.7596408466
  0
LINE
  5
57A
100
AcDbEntity
  8
0
100
AcDbLine
 62
7
  6
CONTINUOUS
 10
461.7253540558
 20
107.8171642212
 11
460.6346123836
 21
110.2662825831
  0
LINE
  5
57B
100
AcDbEntity
  8
BEZUGSACHSEN
100
AcDbLine
 62
7
  6
CONTINUOUS
 10
472.9046693405
 20
178.6177309811
 11
473.096099912
 21
178.8597311755
  0
LINE
  5
57C
100
AcDbEntity
  8
BEZUGSACHSEN
100
AcDbLine
 62
7
  6
CONTINUOUS
 10
473.096099912
 20
178.8597311755
 11
473.1529573184
 21
178.9315868464
  0
LINE
  5
57D
100
AcDbEntity
  8
KONSTRUKTIONSELEMENTE
100
AcDbLine
 62
7
  6
CONTINUOUS
 10
472.5731889735
 20
177.31438766
 11
472.5142511459
 21
177.2342984825
  0
LINE
  5
57E
100
AcDbEntity
  8
KONSTRUKTIONSELEMENTE
100
AcDbLine
 62
7
  6
CONTINUOUS
 10
472.5142511459
 20
177.2342984825
 11
472.468087266
 21
177.1715672531
  0
LINE
  5
57F
100
AcDbEntity
  8
BEZUGSACHSEN
100
AcDbLine
 62
7
  6
CONTINUOUS
 10
471.9005717376
 20
177.2531065446
 11
472.0187994609
 21
177.4137912882
  0
LINE
  5
580
100
AcDbEntity
  8
BEZUGSACHSEN
100
AcDbLine
 62
7
  6
CONTINUOUS
 10
472.0187994609
 20
177.4137912882
 11
472.0853517839
 21
177.5042425365
  0
LINE
  5
581
100
AcDbEntity
  8
BEZUGSACHSEN
100
AcDbLine
 62
7
  6
CONTINUOUS
 10
472.0853517839
 20
177.5042425365
 11
472.1499528946
 21
177.5920413313
  0
LINE
  5
582
100
AcDbEntity
  8
BEZUGSACHSEN
100
AcDbLine
 62
7
  6
CONTINUOUS
 10
472.1499528946
 20
177.5920413313
 11
472.9046693405
 21
178.6177309811
  0
LINE
  5
583
100
AcDbEntity
  8
BEZUGSACHSEN
100
AcDbLine
 62
7
  6
CONTINUOUS
 10
467.9206127408
 20
167.2565456601
 11
467.9727865706
 21
167.2096104125
  0
LINE
  5
584
100
AcDbEntity
  8
BEZUGSACHSEN
100
AcDbLine
 62
7
  6
CONTINUOUS
 10
471.9005717376
 20
177.2531065446
 11
471.6132295067
 21
176.8392033745
  0
LINE
  5
585
100
AcDbEntity
  8
BEZUGSACHSEN
100
AcDbLine
 62
7
  6
CONTINUOUS
 10
471.6132295067
 20
176.8392033745
 11
471.3734336994
 21
176.4662015298
  0
LINE
  5
586
100
AcDbEntity
  8
BEZUGSACHSEN
100
AcDbLine
 62
7
  6
CONTINUOUS
 10
471.3734336994
 20
176.4662015298
 11
471.181677684
 21
176.1339213582
  0
LINE
  5
587
100
AcDbEntity
  8
BEZUGSACHSEN
100
AcDbLine
 62
7
  6
CONTINUOUS
 10
471.0387485234
 20
175.842075246
 11
470.9966168962
 21
175.728865303
  0
LINE
  5
588
100
AcDbEntity
  8
BEZUGSACHSEN
100
AcDbLine
 62
7
  6
CONTINUOUS
 10
470.9136467191
 20
175.5019708017
 11
470.8728082623
 21
175.3882862094
  0
LINE
  5
589
100
AcDbEntity
  8
BEZUGSACHSEN
100
AcDbLine
 62
7
  6
CONTINUOUS
 10
470.8692569166
 20
175.3046868929
 11
470.8682408635
 21
175.2767612716
  0
LINE
  5
58A
100
AcDbEntity
  8
BEZUGSACHSEN
100
AcDbLine
 62
7
  6
CONTINUOUS
 10
469.198236276
 20
169.0048433404
 11
469.1802750905
 21
168.9556896002
  0
LINE
  5
58B
100
AcDbEntity
  8
KONSTRUKTIONSELEMENTE
100
AcDbLine
 62
7
  6
CONTINUOUS
 10
471.4631825603
 20
174.9502592301
 11
472.4668666029
 21
176.3150341903
  0
LINE
  5
58C
100
AcDbEntity
  8
BEZUGSACHSEN
100
AcDbLine
 62
7
  6
CONTINUOUS
 10
471.9668788108
 20
176.4970148641
 11
471.7472336128
 21
176.1984392348
  0
LINE
  5
58D
100
AcDbEntity
  8
BEZUGSACHSEN
100
AcDbLine
 62
7
  6
CONTINUOUS
 10
471.7472336128
 20
176.1984392348
 11
471.7141599122
 21
176.1534796793
  0
LINE
  5
58E
100
AcDbEntity
  8
BEZUGSACHSEN
100
AcDbLine
 62
7
  6
CONTINUOUS
 10
471.7141599122
 20
176.1534796793
 11
471.2122174474
 21
175.4711288063
  0
LINE
  5
58F
100
AcDbEntity
  8
BEZUGSACHSEN
100
AcDbLine
 62
7
  6
CONTINUOUS
 10
471.2122174474
 20
175.4711288063
 11
470.9629942563
 21
175.1323128843
  0
LINE
  5
590
100
AcDbEntity
  8
BEZUGSACHSEN
100
AcDbLine
 62
7
  6
CONTINUOUS
 10
473.3870266491
 20
180.2978241075
 11
473.4926607927
 21
180.448496571
  0
LINE
  5
591
100
AcDbEntity
  8
BEZUGSACHSEN
100
AcDbLine
 62
7
  6
CONTINUOUS
 10
473.4926607927
 20
180.448496571
 11
473.7247319821
 21
180.7795102393
  0
LINE
  5
592
100
AcDbEntity
  8
BEZUGSACHSEN
100
AcDbLine
 62
7
  6
CONTINUOUS
 10
473.7247319821
 20
180.7795102393
 11
473.9074380371
 21
181.0401086888
  0
LINE
  5
593
100
AcDbEntity
  8
BEZUGSACHSEN
100
AcDbLine
 62
7
  6
CONTINUOUS
 10
473.9074380371
 20
181.0401086888
 11
474.0408491896
 21
181.2303946431
  0
LINE
  5
594
100
AcDbEntity
  8
BEZUGSACHSEN
100
AcDbLine
 62
7
  6
CONTINUOUS
 10
474.0408491896
 20
181.2303946431
 11
474.4425307782
 21
181.803308786
  0
LINE
  5
595
100
AcDbEntity
  8
BEZUGSACHSEN
100
AcDbLine
 62
7
  6
CONTINUOUS
 10
473.1936888701
 20
179.7915106879
 11
473.1881610225
 21
179.7763104976
  0
LINE
  5
596
100
AcDbEntity
  8
BEZUGSACHSEN
100
AcDbLine
 62
7
  6
CONTINUOUS
 10
471.4872809347
 20
177.587893108
 11
471.6152154701
 21
177.77040176
  0
LINE
  5
597
100
AcDbEntity
  8
BEZUGSACHSEN
100
AcDbLine
 62
7
  6
CONTINUOUS
 10
471.6152154701
 20
177.77040176
 11
472.5919603191
 21
179.1637359049
  0
LINE
  5
598
100
AcDbEntity
  8
BEZUGSACHSEN
100
AcDbLine
 62
7
  6
CONTINUOUS
 10
472.5919603191
 20
179.1637359049
 11
472.6051630882
 21
179.1825689793
  0
LINE
  5
599
100
AcDbEntity
  8
BEZUGSACHSEN
100
AcDbLine
 62
7
  6
CONTINUOUS
 10
472.6051630882
 20
179.1825689793
 11
472.9648414438
 21
179.6956243913
  0
LINE
  5
59A
100
AcDbEntity
  8
BEZUGSACHSEN
100
AcDbLine
 62
7
  6
CONTINUOUS
 10
474.5846678536
 20
181.7517872433
 11
474.5533414418
 21
181.6643864992
  0
LINE
  5
59B
100
AcDbEntity
  8
KONSTRUKTIONSELEMENTE
100
AcDbLine
 62
7
  6
CONTINUOUS
 10
474.3348369486
 20
180.2504482291
 11
474.6518552484
 21
180.7603840428
  0
LINE
  5
59C
100
AcDbEntity
  8
BEZUGSACHSEN
100
AcDbLine
 62
7
  6
CONTINUOUS
 10
474.1600535712
 20
180.9393852145
 11
473.8426795153
 21
180.4295788855
  0
LINE
  5
59D
100
AcDbEntity
  8
KONSTRUKTIONSELEMENTE
100
AcDbLine
 62
7
  6
CONTINUOUS
 10
474.1120909772
 20
179.9131186542
 11
474.3348369486
 21
180.2504482291
  0
LINE
  5
59E
100
AcDbEntity
  8
BEZUGSACHSEN
100
AcDbLine
 62
7
  6
CONTINUOUS
 10
473.8426795153
 20
180.4295788855
 11
473.6197977078
 21
180.0922987508
  0
LINE
  5
59F
100
AcDbEntity
  8
KONSTRUKTIONSELEMENTE
100
AcDbLine
 62
7
  6
CONTINUOUS
 10
473.9499110487
 20
179.6817217114
 11
474.0416164263
 21
179.8125666284
  0
LINE
  5
5A0
100
AcDbEntity
  8
KONSTRUKTIONSELEMENTE
100
AcDbLine
 62
7
  6
CONTINUOUS
 10
474.0416164263
 20
179.8125666284
 11
474.1120909772
 21
179.9131186542
  0
LINE
  5
5A1
100
AcDbEntity
  8
BEZUGSACHSEN
100
AcDbLine
 62
7
  6
CONTINUOUS
 10
473.6197977078
 20
180.0922987508
 11
473.4086112002
 21
179.7910218379
  0
LINE
  5
5A2
100
AcDbEntity
  8
BEZUGSACHSEN
100
AcDbLine
 62
7
  6
CONTINUOUS
 10
473.4086112002
 20
179.7910218379
 11
473.3643218659
 21
179.7278383588
  0
LINE
  5
5A3
100
AcDbEntity
  8
BEZUGSACHSEN
100
AcDbLine
 62
7
  6
CONTINUOUS
 10
473.3643218659
 20
179.7278383588
 11
473.3383734625
 21
179.6908200702
  0
LINE
  5
5A4
100
AcDbEntity
  8
BEZUGSACHSEN
100
AcDbLine
 62
7
  6
CONTINUOUS
 10
473.1390707148
 20
179.425900252
 11
473.1612012379
 21
179.4553210213
  0
LINE
  5
5A5
100
AcDbEntity
  8
BEZUGSACHSEN
100
AcDbLine
 62
7
  6
CONTINUOUS
 10
473.1612012379
 20
179.4553210213
 11
473.2385456281
 21
179.5581360495
  0
LINE
  5
5A6
100
AcDbEntity
  8
BEZUGSACHSEN
100
AcDbLine
 62
7
  6
CONTINUOUS
 10
473.2385456281
 20
179.5581360495
 11
473.3383734625
 21
179.6908200702
  0
LINE
  5
5A7
100
AcDbEntity
  8
BEZUGSACHSEN
100
AcDbLine
 62
7
  6
CONTINUOUS
 10
472.8933280091
 20
179.1328475683
 11
473.1390707148
 21
179.425900252
  0
LINE
  5
5A8
100
AcDbEntity
  8
BEZUGSACHSEN
100
AcDbLine
 62
7
  6
CONTINUOUS
 10
472.8012421857
 20
179.0762937374
 11
471.9211109926
 21
177.7350635158
  0
LINE
  5
5A9
100
AcDbEntity
  8
BEZUGSACHSEN
100
AcDbLine
 62
7
  6
CONTINUOUS
 10
471.9211109926
 20
177.7350635158
 11
471.8670203076
 21
177.6524994855
  0
LINE
  5
5AA
100
AcDbEntity
  8
BEZUGSACHSEN
100
AcDbLine
 62
7
  6
CONTINUOUS
 10
471.8670203076
 20
177.6524994855
 11
471.5293322429
 21
177.1366701734
  0
LINE
  5
5AB
100
AcDbEntity
  8
BEZUGSACHSEN
100
AcDbLine
 62
7
  6
CONTINUOUS
 10
471.5293322429
 20
177.1366701734
 11
471.4940590196
 21
177.0827501382
  0
LINE
  5
5AC
100
AcDbEntity
  8
BEZUGSACHSEN
100
AcDbLine
 62
7
  6
CONTINUOUS
 10
471.4940590196
 20
177.0827501382
 11
471.2247789015
 21
176.6708645475
  0
LINE
  5
5AD
100
AcDbEntity
  8
BEZUGSACHSEN
100
AcDbLine
 62
7
  6
CONTINUOUS
 10
471.2247789015
 20
176.6708645475
 11
471.0756946901
 21
176.4426301606
  0
LINE
  5
5AE
100
AcDbEntity
  8
BEZUGSACHSEN
100
AcDbLine
 62
7
  6
CONTINUOUS
 10
469.1166871432
 20
168.5919129162
 11
469.1684472783
 21
168.5451281881
  0
LINE
  5
5AF
100
AcDbEntity
  8
BEZUGSACHSEN
100
AcDbLine
 62
7
  6
CONTINUOUS
 10
470.1351047915
 20
170.6222959961
 11
470.2380278665
 21
170.6326656323
  0
SPLINE
  5
5B0
100
AcDbEntity
  8
KONSTRUKTIONSELEMENTE
100
AcDbSpline
 62
7
  6
CONTINUOUS
 70
0
 71
3
 72
13
 73
9
 74
0
 42
0.0000001
 43
0.0000001
 44
0.0000000001
 40
0.0
 40
0.0
 40
0.0
 40
0.0
 40
0.1122135015
 40
0.2264240108
 40
0.3437134514
 40
0.4649762136
 40
0.721827031
 40
1.0
 40
1.0
 40
1.0
 40
1.0
 10
138.1152041271
 20
182.2337438393
 30
0.0
 10
137.9245010799
 20
182.6738247061
 30
0.0
 10
137.4700166188
 20
183.533097212
 30
0.0
 10
136.6033220804
 20
184.724383066
 30
0.0
 10
135.568602478
 20
185.8259739688
 30
0.0
 10
133.9547699135
 20
187.2022975549
 30
0.0
 10
131.5623704613
 20
188.6962504217
 30
0.0
 10
129.4545632261
 20
189.6025669076
 30
0.0
 10
128.3360732502
 20
190.0058366208
 30
0.0
  0
SPLINE
  5
5B1
100
AcDbEntity
  8
KONSTRUKTIONSELEMENTE
100
AcDbSpline
 62
7
  6
CONTINUOUS
 70
0
 71
3
 72
12
 73
8
 74
0
 42
0.0000001
 43
0.0000001
 44
0.0000000001
 40
0.0
 40
0.0
 40
0.0
 40
0.0
 40
0.2782950424
 40
0.5352463017
 40
0.7735164658
 40
0.8877634989
 40
1.0
 40
1.0
 40
1.0
 40
1.0
 10
102.3272032602
 20
190.0082938093
 30
0.0
 10
101.2080030165
 20
189.6050896663
 30
0.0
 10
99.0981700769
 20
188.6980912827
 30
0.0
 10
96.2806624441
 20
186.9406400926
 30
0.0
 10
94.3594991724
 20
185.1451123345
 30
0.0
 10
93.1873827946
 20
183.5345959267
 30
0.0
 10
92.7324926862
 20
182.6750738711
 30
0.0
 10
92.5416850624
 20
182.2348765965
 30
0.0
  0
SPLINE
  5
5B2
100
AcDbEntity
  8
BEZUGSACHSEN
100
AcDbSpline
 62
7
  6
CONTINUOUS
 70
0
 71
3
 72
9
 73
5
 74
0
 42
0.0000001
 43
0.0000001
 44
0.0000000001
 40
0.0
 40
0.0
 40
0.0
 40
0.0
 40
0.2421060639
 40
1.0
 40
1.0
 40
1.0
 40
1.0
 10
118.7166767817
 20
120.3687260502
 30
0.0
 10
118.6467668043
 20
120.3413885504
 30
0.0
 10
118.3561005165
 20
120.2333813649
 30
0.0
 10
118.0585417076
 20
120.1442192462
 30
0.0
 10
117.8308729339
 20
120.0860401536
 30
0.0
  0
SPLINE
  5
5B3
100
AcDbEntity
  8
BEZUGSACHSEN
100
AcDbSpline
 62
7
  6
CONTINUOUS
 70
0
 71
3
 72
9
 73
5
 74
0
 42
0.0000001
 43
0.0000001
 44
0.0000000001
 40
0.0
 40
0.0
 40
0.0
 40
0.0
 40
0.2576683189
 40
1.0
 40
1.0
 40
1.0
 40
1.0
 10
112.8255805023
 20
120.0860401536
 30
0.0
 10
112.7481789484
 20
120.1058195555
 30
0.0
 10
112.4488971201
 20
120.186805802
 30
0.0
 10
112.1541274554
 20
120.2849066128
 30
0.0
 10
111.9397766545
 20
120.3687260502
 30
0.0
  0
SPLINE
  5
5B4
100
AcDbEntity
  8
KONSTRUKTIONSELEMENTE
100
AcDbSpline
 62
7
  6
CONTINUOUS
 70
0
 71
3
 72
9
 73
5
 74
0
 42
0.0000001
 43
0.0000001
 44
0.0000000001
 40
0.0
 40
0.0
 40
0.0
 40
0.0
 40
0.2459783277
 40
1.0
 40
1.0
 40
1.0
 40
1.0
 10
109.4132267181
 20
69.1047240975
 30
0.0
 10
109.4132267181
 20
69.1472589372
 30
0.0
 10
109.4047495774
 20
69.3201391049
 30
0.0
 10
109.3614890201
 20
69.4908004748
 30
0.0
 10
109.3133101762
 20
69.6119589347
 30
0.0
  0
SPLINE
  5
5B5
100
AcDbEntity
  8
KONSTRUKTIONSELEMENTE
100
AcDbSpline
 62
7
  6
CONTINUOUS
 70
0
 71
3
 72
12
 73
8
 74
0
 42
0.0000001
 43
0.0000001
 44
0.0000000001
 40
0.0
 40
0.0
 40
0.0
 40
0.0
 40
0.1818705703
 40
0.2922146149
 40
0.4155793068
 40
0.6947164513
 40
1.0
 40
1.0
 40
1.0
 40
1.0
 10
109.3133101762
 20
69.6119589347
 30
0.0
 10
109.1842802248
 20
69.9364389126
 30
0.0
 10
108.7982619659
 20
70.3838449512
 30
0.0
 10
108.1377799318
 20
70.8293145233
 30
0.0
 10
107.2461612906
 20
71.2571070377
 30
0.0
 10
105.9235508667
 20
71.6111594379
 30
0.0
 10
104.7993742183
 20
71.7047240975
 30
0.0
 10
104.2132267181
 20
71.7047240975
 30
0.0
  0
SPLINE
  5
5B6
100
AcDbEntity
  8
KONSTRUKTIONSELEMENTE
100
AcDbSpline
 62
7
  6
CONTINUOUS
 70
0
 71
3
 72
9
 73
5
 74
0
 42
0.0000001
 43
0.0000001
 44
0.0000000001
 40
0.0
 40
0.0
 40
0.0
 40
0.0
 40
0.4707698622
 40
1.0
 40
1.0
 40
1.0
 40
1.0
 10
81.847726674
 20
102.1799163589
 30
0.0
 10
81.8477547239
 20
102.2519770589
 30
0.0
 10
81.8116417467
 20
102.4062125785
 30
0.0
 10
81.7202799092
 20
102.5329429602
 30
0.0
 10
81.6650285813
 20
102.5921863878
 30
0.0
  0
SPLINE
  5
5B7
100
AcDbEntity
  8
KONSTRUKTIONSELEMENTE
100
AcDbSpline
 62
7
  6
CONTINUOUS
 70
0
 71
3
 72
11
 73
7
 74
0
 42
0.0000001
 43
0.0000001
 44
0.0000000001
 40
0.0
 40
0.0
 40
0.0
 40
0.0
 40
0.1862358785
 40
0.4086240556
 40
0.6812683877
 40
1.0
 40
1.0
 40
1.0
 40
1.0
 10
72.6061332437
 20
103.9849519004
 30
0.0
 10
72.606170052
 20
104.0795134094
 30
0.0
 10
72.6728778621
 20
104.2882778716
 30
0.0
 10
72.9217790587
 20
104.5391821023
 30
0.0
 10
73.2860722054
 20
104.7412479977
 30
0.0
 10
73.574416695
 20
104.831637577
 30
0.0
 10
73.7320259107
 20
104.8683847692
 30
0.0
  0
SPLINE
  5
5B8
100
AcDbEntity
  8
KONSTRUKTIONSELEMENTE
100
AcDbSpline
 62
7
  6
CONTINUOUS
 70
0
 71
3
 72
13
 73
9
 74
0
 42
0.0000001
 43
0.0000001
 44
0.0000000001
 40
0.0
 40
0.0
 40
0.0
 40
0.0
 40
0.0911181669
 40
0.1874156637
 40
0.2929417967
 40
0.4101723646
 40
0.6821038475
 40
1.0
 40
1.0
 40
1.0
 40
1.0
 10
63.9662649149
 20
114.3161538733
 30
0.0
 10
63.9662885742
 20
114.470802405
 30
0.0
 10
64.0129721801
 20
114.7904933137
 30
0.0
 10
64.2169640072
 20
115.249404421
 30
0.0
 10
64.5461274639
 20
115.6843326687
 30
0.0
 10
65.1712344439
 20
116.2505042643
 30
0.0
 10
66.2339151872
 20
116.8379160282
 30
0.0
 10
67.1937772123
 20
117.1391432553
 30
0.0
 10
67.7192273339
 20
117.2616539631
 30
0.0
  0
SPLINE
  5
5B9
100
AcDbEntity
  8
KONSTRUKTIONSELEMENTE
100
AcDbSpline
 62
7
  6
CONTINUOUS
 70
0
 71
3
 72
9
 73
5
 74
0
 42
0.0000001
 43
0.0000001
 44
0.0000000001
 40
0.0
 40
0.0
 40
0.0
 40
0.0
 40
0.470634336
 40
1.0
 40
1.0
 40
1.0
 40
1.0
 10
63.9662651751
 20
109.9859181088
 30
0.0
 10
63.966245356
 20
109.7459083063
 30
0.0
 10
64.086613737
 20
109.2320742436
 30
0.0
 10
64.3911218285
 20
108.8099444432
 30
0.0
 10
64.5752454194
 20
108.6125172857
 30
0.0
  0
SPLINE
  5
5BA
100
AcDbEntity
  8
KONSTRUKTIONSELEMENTE
100
AcDbSpline
 62
7
  6
CONTINUOUS
 70
0
 71
3
 72
9
 73
5
 74
0
 42
0.0000001
 43
0.0000001
 44
0.0000000001
 40
0.0
 40
0.0
 40
0.0
 40
0.0
 40
0.4706342069
 40
1.0
 40
1.0
 40
1.0
 40
1.0
 10
139.1219788927
 20
78.9848624561
 30
0.0
 10
139.1219421716
 20
79.2248889058
 30
0.0
 10
139.2422963191
 20
79.7387677656
 30
0.0
 10
139.5468229384
 20
80.1609310696
 30
0.0
 10
139.7309593973
 20
80.3583720248
 30
0.0
  0
SPLINE
  5
5BB
100
AcDbEntity
  8
KONSTRUKTIONSELEMENTE
100
AcDbSpline
 62
7
  6
CONTINUOUS
 70
0
 71
3
 72
9
 73
5
 74
0
 42
0.0000001
 43
0.0000001
 44
0.0000000001
 40
0.0
 40
0.0
 40
0.0
 40
0.0
 40
0.4712883371
 40
1.0
 40
1.0
 40
1.0
 40
1.0
 10
140.5748971111
 20
81.2670142255
 30
0.0
 10
140.906149499
 20
81.062903828
 30
0.0
 10
141.6562621475
 20
80.7057288567
 30
0.0
 10
142.4498472511
 20
80.4686016931
 30
0.0
 10
142.8749413117
 20
80.3694893852
 30
0.0
  0
SPLINE
  5
5BC
100
AcDbEntity
  8
KONSTRUKTIONSELEMENTE
100
AcDbSpline
 62
7
  6
CONTINUOUS
 70
0
 71
3
 72
13
 73
9
 74
0
 42
0.0000001
 43
0.0000001
 44
0.0000000001
 40
0.0
 40
0.0
 40
0.0
 40
0.0
 40
0.0822829264
 40
0.1731425714
 40
0.2778852515
 40
0.3984458421
 40
0.6815990786
 40
1.0
 40
1.0
 40
1.0
 40
1.0
 10
106.8132267181
 20
60.2426406099
 30
0.0
 10
106.8132267181
 20
60.1780370516
 30
0.0
 10
106.8418266546
 20
60.0410664397
 30
0.0
 10
106.9609168051
 20
59.854191818
 30
0.0
 10
107.1467367947
 20
59.6862994608
 30
0.0
 10
107.4918191002
 20
59.4817934668
 30
0.0
 10
108.0400487995
 20
59.3121309989
 30
0.0
 10
108.5132376449
 20
59.2676406099
 30
0.0
 10
108.7632267181
 20
59.2676406099
 30
0.0
  0
SPLINE
  5
5BD
100
AcDbEntity
  8
KONSTRUKTIONSELEMENTE
100
AcDbSpline
 62
7
  6
CONTINUOUS
 70
0
 71
3
 72
11
 73
7
 74
0
 42
0.0000001
 43
0.0000001
 44
0.0000000001
 40
0.0
 40
0.0
 40
0.0
 40
0.0
 40
0.1862435736
 40
0.408604906
 40
0.6812556469
 40
1.0
 40
1.0
 40
1.0
 40
1.0
 10
150.9085381541
 20
78.289337745
 30
0.0
 10
150.908540771
 20
78.3208664084
 30
0.0
 10
150.886356322
 20
78.3904852053
 30
0.0
 10
150.8033814066
 20
78.474158028
 30
0.0
 10
150.6819302761
 20
78.5415329769
 30
0.0
 10
150.5857920442
 20
78.5716750115
 30
0.0
 10
150.5332421122
 20
78.5839272293
 30
0.0
  0
SPLINE
  5
5BE
100
AcDbEntity
  8
KONSTRUKTIONSELEMENTE
100
AcDbSpline
 62
7
  6
CONTINUOUS
 70
0
 71
3
 72
13
 73
9
 74
0
 42
0.0000001
 43
0.0000001
 44
0.0000000001
 40
0.0
 40
0.0
 40
0.0
 40
0.0
 40
0.0911174922
 40
0.1874130423
 40
0.2929407321
 40
0.4101736749
 40
0.6821184768
 40
1.0
 40
1.0
 40
1.0
 40
1.0
 10
180.8286089181
 20
111.0196739286
 30
0.0
 10
180.8286128146
 20
111.17432339
 30
0.0
 10
180.7818773381
 20
111.4940101245
 30
0.0
 10
180.5779478453
 20
111.9529444051
 30
0.0
 10
180.2487725226
 20
112.3878863365
 30
0.0
 10
179.6236317638
 20
112.954076883
 30
0.0
 10
178.5609344401
 20
113.5414995721
 30
0.0
 10
177.6010605647
 20
113.8427248093
 30
0.0
 10
177.0756275802
 20
113.9652315215
 30
0.0
  0
SPLINE
  5
5BF
100
AcDbEntity
  8
BEZUGSACHSEN
100
AcDbSpline
 62
7
  6
CONTINUOUS
 70
0
 71
3
 72
13
 73
9
 74
0
 42
0.0000001
 43
0.0000001
 44
0.0000000001
 40
0.0
 40
0.0
 40
0.0
 40
0.0
 40
0.0920554613
 40
0.1891214156
 40
0.2949700326
 40
0.4121200022
 40
0.6830929495
 40
1.0
 40
1.0
 40
1.0
 40
1.0
 10
109.8282267181
 20
118.2047240975
 30
0.0
 10
109.8282267181
 20
118.3313127194
 30
0.0
 10
109.8652751316
 20
118.5925910476
 30
0.0
 10
110.0265773816
 20
118.968984634
 30
0.0
 10
110.2879764215
 20
119.3269689365
 30
0.0
 10
110.7847686954
 20
119.7946360399
 30
0.0
 10
111.6333358697
 20
120.2866829912
 30
0.0
 10
112.4033587254
 20
120.5456393683
 30
0.0
 10
112.8255805023
 20
120.6535350603
 30
0.0
  0
SPLINE
  5
5C0
100
AcDbEntity
  8
BEZUGSACHSEN
100
AcDbSpline
 62
7
  6
CONTINUOUS
 70
0
 71
3
 72
13
 73
9
 74
0
 42
0.0000001
 43
0.0000001
 44
0.0000000001
 40
0.0
 40
0.0
 40
0.0
 40
0.0
 40
0.3169070505
 40
0.5878799978
 40
0.7050299674
 40
0.8108785844
 40
0.9079445387
 40
1.0
 40
1.0
 40
1.0
 40
1.0
 10
117.8308729339
 20
120.6535350603
 30
0.0
 10
118.2530947108
 20
120.5456393683
 30
0.0
 10
119.0231175665
 20
120.2866829912
 30
0.0
 10
119.8716847409
 20
119.7946360399
 30
0.0
 10
120.3684770147
 20
119.3269689365
 30
0.0
 10
120.6298760546
 20
118.968984634
 30
0.0
 10
120.7911783047
 20
118.5925910476
 30
0.0
 10
120.8282267181
 20
118.3313127194
 30
0.0
 10
120.8282267181
 20
118.2047240975
 30
0.0
  0
SPLINE
  5
5C1
100
AcDbEntity
  8
KONSTRUKTIONSELEMENTE
100
AcDbSpline
 62
7
  6
CONTINUOUS
 70
0
 71
3
 72
9
 73
5
 74
0
 42
0.0000001
 43
0.0000001
 44
0.0000000001
 40
0.0
 40
0.0
 40
0.0
 40
0.0
 40
0.5293596716
 40
1.0
 40
1.0
 40
1.0
 40
1.0
 10
180.2196094946
 20
105.3160948441
 30
0.0
 10
180.4037372779
 20
105.5135264969
 30
0.0
 10
180.7082539804
 20
105.9356793352
 30
0.0
 10
180.8286028706
 20
106.4495258686
 30
0.0
 10
180.8286089181
 20
106.6895469097
 30
0.0
  0
SPLINE
  5
5C2
100
AcDbEntity
  8
KONSTRUKTIONSELEMENTE
100
AcDbSpline
 62
7
  6
CONTINUOUS
 70
0
 71
3
 72
10
 73
6
 74
0
 42
0.0000001
 43
0.0000001
 44
0.0000000001
 40
0.0
 40
0.0
 40
0.0
 40
0.0
 40
0.5491793108
 40
0.7994812063
 40
1.0
 40
1.0
 40
1.0
 40
1.0
 10
178.8064038226
 20
104.5697956868
 30
0.0
 10
178.9677865548
 20
104.5321686848
 30
0.0
 10
179.2180621643
 20
104.5276623257
 30
0.0
 10
179.5093565092
 20
104.609417743
 30
0.0
 10
179.6289389459
 20
104.6827463044
 30
0.0
 10
179.6702057543
 20
104.7269947825
 30
0.0
  0
SPLINE
  5
5C3
100
AcDbEntity
  8
KONSTRUKTIONSELEMENTE
100
AcDbSpline
 62
7
  6
CONTINUOUS
 70
0
 71
3
 72
9
 73
5
 74
0
 42
0.0000001
 43
0.0000001
 44
0.0000000001
 40
0.0
 40
0.0
 40
0.0
 40
0.0
 40
0.2769800816
 40
1.0
 40
1.0
 40
1.0
 40
1.0
 10
150.8476403036
 20
73.8218992446
 30
0.0
 10
150.857221043
 20
73.8321722255
 30
0.0
 10
150.8893438077
 20
73.8712582805
 30
0.0
 10
150.9085351107
 20
73.9225422845
 30
0.0
 10
150.9085381541
 20
73.9592107261
 30
0.0
  0
SPLINE
  5
5C4
100
AcDbEntity
  8
KONSTRUKTIONSELEMENTE
100
AcDbSpline
 62
7
  6
CONTINUOUS
 70
0
 71
3
 72
11
 73
7
 74
0
 42
0.0000001
 43
0.0000001
 44
0.0000000001
 40
0.0
 40
0.0
 40
0.0
 40
0.0
 40
0.2884496779
 40
0.5598869462
 40
0.7999109858
 40
1.0
 40
1.0
 40
1.0
 40
1.0
 10
144.7321736389
 20
71.7047240975
 30
0.0
 10
145.3400125801
 20
71.7047240975
 30
0.0
 10
146.521559462
 20
71.7863814952
 30
0.0
 10
148.1751922549
 20
72.149032514
 30
0.0
 10
149.5695445438
 20
72.7207098156
 30
0.0
 10
150.3356000008
 20
73.2728622581
 30
0.0
 10
150.6231742546
 20
73.5812147468
 30
0.0
  0
SPLINE
  5
5C5
100
AcDbEntity
  8
KONSTRUKTIONSELEMENTE
100
AcDbSpline
 62
7
  6
CONTINUOUS
 70
0
 71
3
 72
14
 73
10
 74
0
 42
0.0000001
 43
0.0000001
 44
0.0000000001
 40
0.0
 40
0.0
 40
0.0
 40
0.0
 40
0.3181911525
 40
0.466256663
 40
0.6017819162
 40
0.7222716736
 40
0.8269687628
 40
0.9177410353
 40
1.0
 40
1.0
 40
1.0
 40
1.0
 10
126.4432267181
 20
71.7047240975
 30
0.0
 10
125.7766362259
 20
71.7047240975
 30
0.0
 10
124.7950434513
 20
71.6132887158
 30
0.0
 10
123.5735525817
 20
71.2926496121
 30
0.0
 10
122.7855680549
 20
70.9758257236
 30
0.0
 10
122.1325526597
 20
70.5882480344
 30
0.0
 10
121.6371190039
 20
70.1405822412
 30
0.0
 10
121.3193482404
 20
69.642327697
 30
0.0
 10
121.2432267181
 20
69.2770514654
 30
0.0
 10
121.2432267181
 20
69.1047240975
 30
0.0
  0
SPLINE
  5
5C6
100
AcDbEntity
  8
KONSTRUKTIONSELEMENTE
100
AcDbSpline
 62
7
  6
CONTINUOUS
 70
0
 71
3
 72
13
 73
9
 74
0
 42
0.0000001
 43
0.0000001
 44
0.0000000001
 40
0.0
 40
0.0
 40
0.0
 40
0.0
 40
0.3184009214
 40
0.6015541579
 40
0.7221147485
 40
0.8268574286
 40
0.9177170736
 40
1.0
 40
1.0
 40
1.0
 40
1.0
 10
121.8932267181
 20
59.2676406099
 30
0.0
 10
122.1432157914
 20
59.2676406099
 30
0.0
 10
122.6164046367
 20
59.3121309989
 30
0.0
 10
123.1646343361
 20
59.4817934668
 30
0.0
 10
123.5097166415
 20
59.6862994608
 30
0.0
 10
123.6955366312
 20
59.854191818
 30
0.0
 10
123.8146267817
 20
60.0410664397
 30
0.0
 10
123.8432267181
 20
60.1780370516
 30
0.0
 10
123.8432267181
 20
60.2426406099
 30
0.0
  0
SPLINE
  5
5C7
100
AcDbEntity
  8
KONSTRUKTIONSELEMENTE
100
AcDbSpline
 62
7
  6
CONTINUOUS
 70
0
 71
3
 72
11
 73
7
 74
0
 42
0.0000001
 43
0.0000001
 44
0.0000000001
 40
0.0
 40
0.0
 40
0.0
 40
0.0
 40
0.3085861138
 40
0.5742410783
 40
0.7998808571
 40
1.0
 40
1.0
 40
1.0
 40
1.0
 10
125.7468753046
 20
71.6784786348
 30
0.0
 10
125.4691421309
 20
71.5646560581
 30
0.0
 10
124.9659586185
 20
71.3147216792
 30
0.0
 10
124.3469796187
 20
70.8322606713
 30
0.0
 10
123.9426915892
 20
70.2798413702
 30
0.0
 10
123.8432267181
 20
69.8622902789
 30
0.0
 10
123.8432267181
 20
69.6676406099
 30
0.0
  0
SPLINE
  5
5C8
100
AcDbEntity
  8
KONSTRUKTIONSELEMENTE
100
AcDbSpline
 62
7
  6
CONTINUOUS
 70
0
 71
3
 72
11
 73
7
 74
0
 42
0.0000001
 43
0.0000001
 44
0.0000000001
 40
0.0
 40
0.0
 40
0.0
 40
0.0
 40
0.3066337151
 40
0.5713310824
 40
0.7977045851
 40
1.0
 40
1.0
 40
1.0
 40
1.0
 10
105.0452060039
 20
71.670748324
 30
0.0
 10
105.3045831462
 20
71.5568302692
 30
0.0
 10
105.7740730284
 20
71.3089062527
 30
0.0
 10
106.3490633958
 20
70.8377317371
 30
0.0
 10
106.7222970399
 20
70.3036196861
 30
0.0
 10
106.8132267181
 20
69.9043596698
 30
0.0
 10
106.8132267181
 20
69.7174641006
 30
0.0
  0
SPLINE
  5
5C9
100
AcDbEntity
  8
KONSTRUKTIONSELEMENTE
100
AcDbSpline
 62
7
  6
CONTINUOUS
 70
0
 71
3
 72
9
 73
5
 74
0
 42
0.0000001
 43
0.0000001
 44
0.0000000001
 40
0.0
 40
0.0
 40
0.0
 40
0.0
 40
0.5292301378
 40
1.0
 40
1.0
 40
1.0
 40
1.0
 10
72.7888313364
 20
100.3683878776
 30
0.0
 10
72.7335800085
 20
100.4276313051
 30
0.0
 10
72.642218171
 20
100.5543616869
 30
0.0
 10
72.6061051938
 20
100.7085972065
 30
0.0
 10
72.6061332437
 20
100.7806579064
 30
0.0
  0
SPLINE
  5
5CA
100
AcDbEntity
  8
KONSTRUKTIONSELEMENTE
100
AcDbSpline
 62
7
  6
CONTINUOUS
 70
0
 71
3
 72
11
 73
7
 74
0
 42
0.0000001
 43
0.0000001
 44
0.0000000001
 40
0.0
 40
0.0
 40
0.0
 40
0.0
 40
0.2020821723
 40
0.4407218152
 40
0.7101962398
 40
1.0
 40
1.0
 40
1.0
 40
1.0
 10
97.2459747175
 20
73.5812147468
 30
0.0
 10
97.497628417
 20
73.3113781967
 30
0.0
 10
98.1490868921
 20
72.8188724273
 30
0.0
 10
99.3344637616
 20
72.2783106992
 30
0.0
 10
100.7462377515
 20
71.8967776764
 30
0.0
 10
101.762445313
 20
71.7670813738
 30
0.0
 10
102.2904483248
 20
71.7324038145
 30
0.0
  0
SPLINE
  5
5CB
100
AcDbEntity
  8
KONSTRUKTIONSELEMENTE
100
AcDbSpline
 62
7
  6
CONTINUOUS
 70
0
 71
3
 72
13
 73
9
 74
0
 42
0.0000001
 43
0.0000001
 44
0.0000000001
 40
0.0
 40
0.0
 40
0.0
 40
0.0
 40
0.0934751525
 40
0.2006226407
 40
0.3203898778
 40
0.450368174
 40
0.7269534957
 40
1.0
 40
1.0
 40
1.0
 40
1.0
 10
162.5100837051
 20
104.7833668854
 30
0.0
 10
162.7032488936
 20
104.9904889272
 30
0.0
 10
163.1783411016
 20
105.379194307
 30
0.0
 10
164.0343513638
 20
105.8447787552
 30
0.0
 10
165.0523014106
 20
106.2193450432
 30
0.0
 10
166.607505938
 20
106.5856700036
 30
0.0
 10
168.6749982176
 20
106.7352515181
 30
0.0
 10
170.3424159437
 20
106.54320687
 30
0.0
 10
171.1481030222
 20
106.3553578426
 30
0.0
  0
SPLINE
  5
5CC
100
AcDbEntity
  8
KONSTRUKTIONSELEMENTE
100
AcDbSpline
 62
7
  6
CONTINUOUS
 70
0
 71
3
 72
11
 73
7
 74
0
 42
0.0000001
 43
0.0000001
 44
0.0000000001
 40
0.0
 40
0.0
 40
0.0
 40
0.0
 40
0.1862435736
 40
0.408604906
 40
0.6812556469
 40
1.0
 40
1.0
 40
1.0
 40
1.0
 10
150.9085381541
 20
73.9592107261
 30
0.0
 10
150.908540771
 20
73.9907393895
 30
0.0
 10
150.886356322
 20
74.0603581864
 30
0.0
 10
150.8033814066
 20
74.1440310091
 30
0.0
 10
150.6819302761
 20
74.211405958
 30
0.0
 10
150.5857920442
 20
74.2415479925
 30
0.0
 10
150.5332421122
 20
74.2538002104
 30
0.0
  0
SPLINE
  5
5CD
100
AcDbEntity
  8
KONSTRUKTIONSELEMENTE
100
AcDbSpline
 62
7
  6
CONTINUOUS
 70
0
 71
3
 72
9
 73
5
 74
0
 42
0.0000001
 43
0.0000001
 44
0.0000000001
 40
0.0
 40
0.0
 40
0.0
 40
0.0
 40
0.5448269476
 40
1.0
 40
1.0
 40
1.0
 40
1.0
 10
80.721834007
 20
101.8594000027
 30
0.0
 10
80.89511359
 20
101.899800801
 30
0.0
 10
81.2077687292
 20
102.0001008287
 30
0.0
 10
81.492885866
 20
102.1707666164
 30
0.0
 10
81.6032368255
 20
102.2703607153
 30
0.0
  0
SPLINE
  5
5CE
100
AcDbEntity
  8
KONSTRUKTIONSELEMENTE
100
AcDbSpline
 62
7
  6
CONTINUOUS
 70
0
 71
3
 72
9
 73
5
 74
0
 42
0.0000001
 43
0.0000001
 44
0.0000000001
 40
0.0
 40
0.0
 40
0.0
 40
0.0
 40
0.2612271511
 40
1.0
 40
1.0
 40
1.0
 40
1.0
 10
81.6032368255
 20
102.2703607153
 30
0.0
 10
81.6154224213
 20
102.2813584759
 30
0.0
 10
81.6610944456
 20
102.3245111109
 30
0.0
 10
81.7027234209
 20
102.3720647789
 30
0.0
 10
81.7300438774
 20
102.4095959476
 30
0.0
  0
SPLINE
  5
5CF
100
AcDbEntity
  8
KONSTRUKTIONSELEMENTE
100
AcDbSpline
 62
7
  6
CONTINUOUS
 70
0
 71
3
 72
10
 73
6
 74
0
 42
0.0000001
 43
0.0000001
 44
0.0000000001
 40
0.0
 40
0.0
 40
0.0
 40
0.0
 40
0.2999842026
 40
0.5696213514
 40
1.0
 40
1.0
 40
1.0
 40
1.0
 10
79.6230265264
 20
103.0376001258
 30
0.0
 10
79.7443949864
 20
103.065897647
 30
0.0
 10
79.9726873686
 20
103.1336332106
 30
0.0
 10
80.3484643036
 20
103.3066857069
 30
0.0
 10
80.5879842785
 20
103.5009382696
 30
0.0
 10
80.6757518405
 20
103.6567077334
 30
0.0
  0
SPLINE
  5
5D0
100
AcDbEntity
  8
KONSTRUKTIONSELEMENTE
100
AcDbSpline
 62
7
  6
CONTINUOUS
 70
0
 71
3
 72
13
 73
9
 74
0
 42
0.0000001
 43
0.0000001
 44
0.0000000001
 40
0.0
 40
0.0
 40
0.0
 40
0.0
 40
0.0911174922
 40
0.1874130423
 40
0.2929407321
 40
0.4101736749
 40
0.6821184768
 40
1.0
 40
1.0
 40
1.0
 40
1.0
 10
180.8286089181
 20
106.6895469097
 30
0.0
 10
180.8286128146
 20
106.8441963711
 30
0.0
 10
180.7818773381
 20
107.1638831055
 30
0.0
 10
180.5779478453
 20
107.6228173861
 30
0.0
 10
180.2487725226
 20
108.0577593176
 30
0.0
 10
179.6236317638
 20
108.6239498641
 30
0.0
 10
178.5609344401
 20
109.2113725532
 30
0.0
 10
177.6010605647
 20
109.5125977903
 30
0.0
 10
177.0756275802
 20
109.6351045026
 30
0.0
  0
SPLINE
  5
5D1
100
AcDbEntity
  8
BEZUGSACHSEN
100
AcDbSpline
 62
7
  6
CONTINUOUS
 70
0
 71
3
 72
14
 73
10
 74
0
 42
0.0000001
 43
0.0000001
 44
0.0000000001
 40
0.0
 40
0.0
 40
0.0
 40
0.0
 40
0.0822549443
 40
0.1730396113
 40
0.27773219
 40
0.3982204415
 40
0.5337415093
 40
0.6818040728
 40
1.0
 40
1.0
 40
1.0
 40
1.0
 10
120.8282267181
 20
118.2047240975
 30
0.0
 10
120.8282267181
 20
118.0224952882
 30
0.0
 10
120.7476958803
 20
117.6362084922
 30
0.0
 10
120.4117465898
 20
117.1092300551
 30
0.0
 10
119.8877849255
 20
116.6358291092
 30
0.0
 10
119.197298165
 20
116.225882314
 30
0.0
 10
118.3640321633
 20
115.8907921988
 30
0.0
 10
117.072336619
 20
115.5515863118
 30
0.0
 10
116.0342972853
 20
115.4547971777
 30
0.0
 10
115.3293613678
 20
115.4547241562
 30
0.0
  0
SPLINE
  5
5D2
100
AcDbEntity
  8
BEZUGSACHSEN
100
AcDbSpline
 62
7
  6
CONTINUOUS
 70
0
 71
3
 72
14
 73
10
 74
0
 42
0.0000001
 43
0.0000001
 44
0.0000000001
 40
0.0
 40
0.0
 40
0.0
 40
0.0
 40
0.3181871569
 40
0.4662538389
 40
0.6017808677
 40
0.7222741811
 40
0.8269686741
 40
0.9177508775
 40
1.0
 40
1.0
 40
1.0
 40
1.0
 10
115.3293613678
 20
115.4547241562
 30
0.0
 10
114.6242050642
 20
115.454651112
 30
0.0
 10
113.5858029859
 20
115.5512889805
 30
0.0
 10
112.2936079676
 20
115.8903923642
 30
0.0
 10
111.4599715756
 20
116.2254709359
 30
0.0
 10
110.7691574197
 20
116.6354580627
 30
0.0
 10
110.244934199
 20
117.1089435274
 30
0.0
 10
109.9088047821
 20
117.6360457722
 30
0.0
 10
109.8282267181
 20
118.0224461951
 30
0.0
 10
109.8282267181
 20
118.2047240975
 30
0.0
  0
SPLINE
  5
5D3
100
AcDbEntity
  8
KONSTRUKTIONSELEMENTE
100
AcDbSpline
 62
7
  6
CONTINUOUS
 70
0
 71
3
 72
13
 73
9
 74
0
 42
0.0000001
 43
0.0000001
 44
0.0000000001
 40
0.0
 40
0.0
 40
0.0
 40
0.0
 40
0.3178942481
 40
0.5898237647
 40
0.7070565527
 40
0.8125850464
 40
0.9088825702
 40
1.0
 40
1.0
 40
1.0
 40
1.0
 10
67.7192273339
 20
112.9315269442
 30
0.0
 10
67.1937692505
 20
112.80901438
 30
0.0
 10
66.2338947345
 20
112.5077799322
 30
0.0
 10
65.1711925077
 20
111.9203558874
 30
0.0
 10
64.5460819864
 20
111.3541545985
 30
0.0
 10
64.2169161982
 20
110.9192030769
 30
0.0
 10
64.0129415213
 20
110.4602685221
 30
0.0
 10
63.9662779455
 20
110.1405686604
 30
0.0
 10
63.9662651751
 20
109.9859181088
 30
0.0
  0
SPLINE
  5
5D4
100
AcDbEntity
  8
KONSTRUKTIONSELEMENTE
100
AcDbSpline
 62
7
  6
CONTINUOUS
 70
0
 71
3
 72
11
 73
7
 74
0
 42
0.0000001
 43
0.0000001
 44
0.0000000001
 40
0.0
 40
0.0
 40
0.0
 40
0.0
 40
0.1862358785
 40
0.4086240556
 40
0.6812683877
 40
1.0
 40
1.0
 40
1.0
 40
1.0
 10
72.6061332437
 20
100.7806579064
 30
0.0
 10
72.606170052
 20
100.8752194154
 30
0.0
 10
72.6728778621
 20
101.0839838776
 30
0.0
 10
72.9217790587
 20
101.3348881083
 30
0.0
 10
73.2860722054
 20
101.5369540037
 30
0.0
 10
73.574416695
 20
101.627343583
 30
0.0
 10
73.7320259107
 20
101.6640907752
 30
0.0
  0
SPLINE
  5
5D5
100
AcDbEntity
  8
KONSTRUKTIONSELEMENTE
100
AcDbSpline
 62
7
  6
CONTINUOUS
 70
0
 71
3
 72
13
 73
9
 74
0
 42
0.0000001
 43
0.0000001
 44
0.0000000001
 40
0.0
 40
0.0
 40
0.0
 40
0.0
 40
0.3178961525
 40
0.5898276354
 40
0.7070582033
 40
0.8125843363
 40
0.9088818331
 40
1.0
 40
1.0
 40
1.0
 40
1.0
 10
142.8749413117
 20
76.0393623663
 30
0.0
 10
142.3494911901
 20
76.1618730741
 30
0.0
 10
141.3896291651
 20
76.4631003012
 30
0.0
 10
140.3269484217
 20
77.0505120651
 30
0.0
 10
139.7018414417
 20
77.6166836607
 30
0.0
 10
139.372677985
 20
78.0516119083
 30
0.0
 10
139.1686861579
 20
78.5105230157
 30
0.0
 10
139.1220025521
 20
78.8302139244
 30
0.0
 10
139.1219788927
 20
78.9848624561
 30
0.0
  0
SPLINE
  5
5D6
100
AcDbEntity
  8
KONSTRUKTIONSELEMENTE
100
AcDbSpline
 62
7
  6
CONTINUOUS
 70
0
 71
3
 72
11
 73
7
 74
0
 42
0.0000001
 43
0.0000001
 44
0.0000000001
 40
0.0
 40
0.0
 40
0.0
 40
0.0
 40
0.3187316123
 40
0.5913759444
 40
0.8137641215
 40
1.0
 40
1.0
 40
1.0
 40
1.0
 10
80.721834007
 20
101.2964834902
 30
0.0
 10
80.8794432227
 20
101.3332306824
 30
0.0
 10
81.1677877122
 20
101.4236202616
 30
0.0
 10
81.532080859
 20
101.6256861571
 30
0.0
 10
81.7809820556
 20
101.8765903877
 30
0.0
 10
81.8476898657
 20
102.08535485
 30
0.0
 10
81.847726674
 20
102.1799163589
 30
0.0
  0
SPLINE
  5
5D7
100
AcDbEntity
  8
BEZUGSACHSEN
100
AcDbSpline
 62
7
  6
CONTINUOUS
 70
0
 71
3
 72
15
 73
11
 74
0
 42
0.0000001
 43
0.0000001
 44
0.0000000001
 40
0.0
 40
0.0
 40
0.0
 40
0.0
 40
0.1213952628
 40
0.2449248391
 40
0.3714323782
 40
0.5
 40
0.6285676218
 40
0.7550751609
 40
0.8786047372
 40
1.0
 40
1.0
 40
1.0
 40
1.0
 10
135.3282267181
 20
109.8657754377
 30
0.0
 10
135.3282267181
 20
109.4981849871
 30
0.0
 10
135.4880338122
 20
108.7477762406
 30
0.0
 10
136.16231746
 20
107.8109966395
 30
0.0
 10
137.1598316369
 20
107.1904167527
 30
0.0
 10
138.3282267181
 20
106.9742961225
 30
0.0
 10
139.4966217994
 20
107.1904167527
 30
0.0
 10
140.4941359763
 20
107.8109966395
 30
0.0
 10
141.168419624
 20
108.7477762406
 30
0.0
 10
141.3282267181
 20
109.4981849871
 30
0.0
 10
141.3282267181
 20
109.8657754377
 30
0.0
  0
LINE
  5
5D8
100
AcDbEntity
  8
0
100
AcDbLine
 62
7
  6
CONTINUOUS
 10
147.3282267181
 20
96.1804645903
 11
147.3280315412
 21
96.3798104157
  0
SPLINE
  5
5D9
100
AcDbEntity
  8
0
100
AcDbSpline
 62
7
  6
CONTINUOUS
 70
0
 71
3
 72
9
 73
5
 74
0
 42
0.0000001
 43
0.0000001
 44
0.0000000001
 40
0.0
 40
0.0
 40
0.0
 40
0.0
 40
0.5015908789
 40
1.0
 40
1.0
 40
1.0
 40
1.0
 10
129.7338568703
 20
157.1340518393
 30
0.0
 10
130.2369998014
 20
156.1559499056
 30
0.0
 10
131.0223528855
 20
154.0853719583
 30
0.0
 10
131.3108568939
 20
151.8890417469
 30
0.0
 10
131.3267385561
 20
150.7962087911
 30
0.0
  0
SPLINE
  5
5DA
100
AcDbEntity
  8
0
100
AcDbSpline
 62
7
  6
CONTINUOUS
 70
0
 71
3
 72
9
 73
5
 74
0
 42
0.0000001
 43
0.0000001
 44
0.0000000001
 40
0.0
 40
0.0
 40
0.0
 40
0.0
 40
0.5015908789
 40
1.0
 40
1.0
 40
1.0
 40
1.0
 10
100.9225965659
 20
157.1340518393
 30
0.0
 10
100.4194536348
 20
156.1559499056
 30
0.0
 10
99.6341005507
 20
154.0853719583
 30
0.0
 10
99.3455965424
 20
151.8890417469
 30
0.0
 10
99.3297148802
 20
150.7962087911
 30
0.0
  0
SPLINE
  5
5DB
100
AcDbEntity
  8
BEZUGSACHSEN
100
AcDbSpline
 62
7
  6
CONTINUOUS
 70
0
 71
3
 72
11
 73
7
 74
0
 42
0.0000001
 43
0.0000001
 44
0.0000000001
 40
0.0
 40
0.0
 40
0.0
 40
0.0
 40
0.257785415
 40
0.5107486063
 40
0.7581337902
 40
1.0
 40
1.0
 40
1.0
 40
1.0
 10
121.2175515847
 20
137.4365345573
 30
0.0
 10
122.1897209692
 20
137.7807686937
 30
0.0
 10
124.0595109304
 20
138.63724113
 30
0.0
 10
126.5532453932
 20
140.3934023493
 30
0.0
 10
128.6304846023
 20
142.5395005042
 30
0.0
 10
129.7032392688
 20
144.1944163316
 30
0.0
 10
130.1458163415
 20
145.0548977723
 30
0.0
  0
SPLINE
  5
5DC
100
AcDbEntity
  8
0
100
AcDbSpline
 62
7
  6
CONTINUOUS
 70
0
 71
3
 72
15
 73
11
 74
0
 42
0.0000001
 43
0.0000001
 44
0.0000000001
 40
0.0
 40
0.0
 40
0.0
 40
0.0
 40
0.1219810581
 40
0.2461770523
 40
0.3724654578
 40
0.5
 40
0.6275345422
 40
0.7538229477
 40
0.8780189419
 40
1.0
 40
1.0
 40
1.0
 40
1.0
 10
121.9350413818
 20
118.0570034103
 30
0.0
 10
121.6749354906
 20
118.6780937598
 30
0.0
 10
120.9466000077
 20
119.8555783764
 30
0.0
 10
119.3698950086
 20
121.2198902543
 30
0.0
 10
117.4403261986
 20
122.0877796742
 30
0.0
 10
115.3282267181
 20
122.385026115
 30
0.0
 10
113.2161272376
 20
122.0877796742
 30
0.0
 10
111.2865584276
 20
121.2198902543
 30
0.0
 10
109.7098534285
 20
119.8555783764
 30
0.0
 10
108.9815179457
 20
118.6780937598
 30
0.0
 10
108.7214120545
 20
118.0570034103
 30
0.0
  0
LINE
  5
5DD
100
AcDbEntity
  8
BEZUGSACHSEN
100
AcDbLine
 62
7
  6
CONTINUOUS
 10
130.1198834716
 20
145.0647646529
 11
130.1102992383
 21
145.0429731803
  0
SPLINE
  5
5DE
100
AcDbEntity
  8
BEZUGSACHSEN
100
AcDbSpline
 62
7
  6
CONTINUOUS
 70
0
 71
3
 72
11
 73
7
 74
0
 42
0.0000001
 43
0.0000001
 44
0.0000000001
 40
0.0
 40
0.0
 40
0.0
 40
0.0
 40
0.2418541933
 40
0.4892516171
 40
0.7422126596
 40
1.0
 40
1.0
 40
1.0
 40
1.0
 10
100.5112352045
 20
145.0537653873
 30
0.0
 10
100.9539498698
 20
144.1932787663
 30
0.0
 10
102.0269849301
 20
142.538271366
 30
0.0
 10
104.1046630411
 20
140.3920991777
 30
0.0
 10
106.5989921537
 20
138.6360557476
 30
0.0
 10
108.4691285499
 20
137.7797534372
 30
0.0
 10
109.4414720688
 20
137.4356188218
 30
0.0
  0
LINE
  5
5DF
100
AcDbEntity
  8
BEZUGSACHSEN
100
AcDbLine
 62
7
  6
CONTINUOUS
 10
100.5371080716
 20
145.0635385927
 11
100.546154198
 21
145.0429731803
  0
SPLINE
  5
5E0
100
AcDbEntity
  8
0
100
AcDbSpline
 62
7
  6
CONTINUOUS
 70
0
 71
3
 72
9
 73
5
 74
0
 42
0.0000001
 43
0.0000001
 44
0.0000000001
 40
0.0
 40
0.0
 40
0.0
 40
0.0
 40
0.5054262845
 40
1.0
 40
1.0
 40
1.0
 40
1.0
 10
108.2289309784
 20
115.4786618054
 30
0.0
 10
108.2344339514
 20
115.9229179872
 30
0.0
 10
108.3097778607
 20
116.8031134553
 30
0.0
 10
108.553475414
 20
117.655998165
 30
0.0
 10
108.7214120545
 20
118.0570034103
 30
0.0
  0
SPLINE
  5
5E1
100
AcDbEntity
  8
0
100
AcDbSpline
 62
7
  6
CONTINUOUS
 70
0
 71
3
 72
9
 73
5
 74
0
 42
0.0000001
 43
0.0000001
 44
0.0000000001
 40
0.0
 40
0.0
 40
0.0
 40
0.0
 40
0.4945737155
 40
1.0
 40
1.0
 40
1.0
 40
1.0
 10
121.9350413818
 20
118.0570034103
 30
0.0
 10
122.1029780222
 20
117.655998165
 30
0.0
 10
122.3466755755
 20
116.8031134553
 30
0.0
 10
122.4220194848
 20
115.9229179872
 30
0.0
 10
122.4275224579
 20
115.4786618054
 30
0.0
  0
LINE
  5
5E2
100
AcDbEntity
  8
BEZUGSACHSEN
100
AcDbLine
 62
7
  6
CONTINUOUS
 10
137.6671730245
 20
169.1213711707
 11
137.6252655642
 21
168.773099539
  0
LINE
  5
5E3
100
AcDbEntity
  8
BEZUGSACHSEN
100
AcDbLine
 62
7
  6
CONTINUOUS
 10
137.8717077319
 20
169.4468304122
 11
137.6671730245
 21
169.1213711707
  0
LINE
  5
5E4
100
AcDbEntity
  8
BEZUGSACHSEN
100
AcDbLine
 62
7
  6
CONTINUOUS
 10
138.1329140179
 20
169.693601359
 11
137.8717077319
 21
169.4468304122
  0
LINE
  5
5E5
100
AcDbEntity
  8
BEZUGSACHSEN
100
AcDbLine
 62
7
  6
CONTINUOUS
 10
138.1329140179
 20
169.693601359
 11
138.4162611633
 21
169.3001799705
  0
LINE
  5
5E6
100
AcDbEntity
  8
BEZUGSACHSEN
100
AcDbLine
 62
7
  6
CONTINUOUS
 10
138.1624369179
 20
168.8396272871
 11
138.1698189585
 21
168.625844886
  0
LINE
  5
5E7
100
AcDbEntity
  8
BEZUGSACHSEN
100
AcDbLine
 62
7
  6
CONTINUOUS
 10
138.1698189585
 20
168.625844886
 11
138.347210324
 21
168.1749069703
  0
LINE
  5
5E8
100
AcDbEntity
  8
BEZUGSACHSEN
100
AcDbLine
 62
7
  6
CONTINUOUS
 10
138.347210324
 20
168.1749069703
 11
138.6872289737
 21
167.6999881748
  0
LINE
  5
5E9
100
AcDbEntity
  8
BEZUGSACHSEN
100
AcDbLine
 62
7
  6
CONTINUOUS
 10
138.6872289737
 20
167.6999881748
 11
139.0765344931
 21
167.3593887442
  0
LINE
  5
5EA
100
AcDbEntity
  8
BEZUGSACHSEN
100
AcDbLine
 62
7
  6
CONTINUOUS
 10
139.0765344931
 20
167.3593887442
 11
139.2958332818
 21
167.2565456601
  0
LINE
  5
5EB
100
AcDbEntity
  8
BEZUGSACHSEN
100
AcDbLine
 62
7
  6
CONTINUOUS
 10
139.2958332818
 20
167.2565456601
 11
139.6210905186
 21
167.2096104125
  0
LINE
  5
5EC
100
AcDbEntity
  8
BEZUGSACHSEN
100
AcDbLine
 62
7
  6
CONTINUOUS
 10
139.6210905186
 20
167.2096104125
 11
139.8896761769
 21
167.2421309949
  0
LINE
  5
5ED
100
AcDbEntity
  8
BEZUGSACHSEN
100
AcDbLine
 62
7
  6
CONTINUOUS
 10
140.313509673
 20
167.4662463671
 11
139.8896761769
 21
167.2421309949
  0
LINE
  5
5EE
100
AcDbEntity
  8
BEZUGSACHSEN
100
AcDbLine
 62
7
  6
CONTINUOUS
 10
140.6240029029
 20
167.8493851617
 11
140.313509673
 21
167.4662463671
  0
LINE
  5
5EF
100
AcDbEntity
  8
BEZUGSACHSEN
100
AcDbLine
 62
7
  6
CONTINUOUS
 10
140.6659103261
 20
168.1997468895
 11
140.6240029029
 21
167.8493851617
  0
LINE
  5
5F0
100
AcDbEntity
  8
BEZUGSACHSEN
100
AcDbLine
 62
7
  6
CONTINUOUS
 10
140.2051718153
 20
169.0482384811
 11
140.6290053114
 21
169.272333241
  0
LINE
  5
5F1
100
AcDbEntity
  8
BEZUGSACHSEN
100
AcDbLine
 62
7
  6
CONTINUOUS
 10
140.6290053114
 20
169.272333241
 11
140.8556835465
 21
168.9556896002
  0
SPLINE
  5
5F2
100
AcDbEntity
  8
BEZUGSACHSEN
100
AcDbSpline
 62
7
  6
CONTINUOUS
 70
0
 71
3
 72
8
 73
4
 74
0
 42
0.0000001
 43
0.0000001
 44
0.0000000001
 40
0.0
 40
0.0
 40
0.0
 40
0.0
 40
1.0
 40
1.0
 40
1.0
 40
1.0
 10
140.8556835465
 20
168.9556896002
 30
0.0
 10
141.0397403085
 20
168.8345495828
 30
0.0
 10
141.2237181311
 20
168.7132895464
 30
0.0
 10
141.4076189443
 20
168.5919129162
 30
0.0
  0
LINE
  5
5F3
100
AcDbEntity
  8
BEZUGSACHSEN
100
AcDbLine
 62
7
  6
CONTINUOUS
 10
141.4076189443
 20
168.5919129162
 11
141.732876107
 21
168.5451281881
  0
LINE
  5
5F4
100
AcDbEntity
  8
BEZUGSACHSEN
100
AcDbLine
 62
7
  6
CONTINUOUS
 10
141.732876107
 20
168.5451281881
 11
142.2700500177
 21
168.610291004
  0
LINE
  5
5F5
100
AcDbEntity
  8
BEZUGSACHSEN
100
AcDbLine
 62
7
  6
CONTINUOUS
 10
142.4819670626
 20
168.7223445252
 11
142.2700500177
 21
168.610291004
  0
LINE
  5
5F6
100
AcDbEntity
  8
BEZUGSACHSEN
100
AcDbLine
 62
7
  6
CONTINUOUS
 10
142.68650177
 20
169.0493527164
 11
142.4819670626
 21
168.7223445252
  0
LINE
  5
5F7
100
AcDbEntity
  8
BEZUGSACHSEN
100
AcDbLine
 62
7
  6
CONTINUOUS
 10
142.7284091932
 20
169.3995865022
 11
142.68650177
 21
169.0493527164
  0
LINE
  5
5F8
100
AcDbEntity
  8
BEZUGSACHSEN
100
AcDbLine
 62
7
  6
CONTINUOUS
 10
140.8385427241
 20
171.0161354815
 11
141.3190451304
 21
171.1615895075
  0
LINE
  5
5F9
100
AcDbEntity
  8
BEZUGSACHSEN
100
AcDbLine
 62
7
  6
CONTINUOUS
 10
141.3190451304
 20
171.1615895075
 11
141.9695594558
 21
171.0705682501
  0
LINE
  5
5FA
100
AcDbEntity
  8
BEZUGSACHSEN
100
AcDbLine
 62
7
  6
CONTINUOUS
 10
141.9695594558
 20
171.0705682501
 11
142.4081544389
 21
170.8670197895
  0
SPLINE
  5
5FB
100
AcDbEntity
  8
BEZUGSACHSEN
100
AcDbSpline
 62
7
  6
CONTINUOUS
 70
0
 71
3
 72
8
 73
4
 74
0
 42
0.0000001
 43
0.0000001
 44
0.0000000001
 40
0.0
 40
0.0
 40
0.0
 40
0.0
 40
1.0
 40
1.0
 40
1.0
 40
1.0
 10
142.4081544389
 20
170.8670197895
 30
0.0
 10
142.5758115791
 20
170.7013564316
 30
0.0
 10
142.7433597945
 20
170.5355827673
 30
0.0
 10
142.910800373
 20
170.3697005275
 30
0.0
  0
LINE
  5
5FC
100
AcDbEntity
  8
BEZUGSACHSEN
100
AcDbLine
 62
7
  6
CONTINUOUS
 10
142.910800373
 20
170.3697005275
 11
143.0241407876
 21
170.2113633174
  0
LINE
  5
5FD
100
AcDbEntity
  8
BEZUGSACHSEN
100
AcDbLine
 62
7
  6
CONTINUOUS
 10
143.0241407876
 20
170.2113633174
 11
143.3148699736
 21
169.6003373927
  0
LINE
  5
5FE
100
AcDbEntity
  8
BEZUGSACHSEN
100
AcDbLine
 62
7
  6
CONTINUOUS
 10
143.3148699736
 20
169.6003373927
 11
143.3296340548
 21
169.1705566023
  0
LINE
  5
5FF
100
AcDbEntity
  8
BEZUGSACHSEN
100
AcDbLine
 62
7
  6
CONTINUOUS
 10
141.0971258628
 20
168.2089775829
 11
141.1685588543
 21
167.6993126734
  0
LINE
  5
600
100
AcDbEntity
  8
BEZUGSACHSEN
100
AcDbLine
 62
7
  6
CONTINUOUS
 10
136.0177700627
 20
170.0830922562
 11
139.790939154
 21
172.7108697326
  0
LINE
  5
601
100
AcDbEntity
  8
BEZUGSACHSEN
100
AcDbLine
 62
7
  6
CONTINUOUS
 10
138.7159741381
 20
172.672409116
 11
139.4899577013
 21
173.2114698513
  0
SPLINE
  5
602
100
AcDbEntity
  8
BEZUGSACHSEN
100
AcDbSpline
 62
7
  6
CONTINUOUS
 70
0
 71
3
 72
8
 73
4
 74
0
 42
0.0000001
 43
0.0000001
 44
0.0000000001
 40
0.0
 40
0.0
 40
0.0
 40
0.0
 40
1.0
 40
1.0
 40
1.0
 40
1.0
 10
139.4899577013
 20
173.2114698513
 30
0.0
 10
139.8482731675
 20
173.2244499196
 30
0.0
 10
140.2065949874
 20
173.2372555953
 30
0.0
 10
140.5649224461
 20
173.2499002713
 30
0.0
  0
LINE
  5
603
100
AcDbEntity
  8
BEZUGSACHSEN
100
AcDbLine
 62
7
  6
CONTINUOUS
 10
140.5649224461
 20
173.2499002713
 11
140.9626518103
 21
172.8157095691
  0
SPLINE
  5
604
100
AcDbEntity
  8
0
100
AcDbSpline
 62
7
  6
CONTINUOUS
 70
0
 71
3
 72
9
 73
5
 74
0
 42
0.0000001
 43
0.0000001
 44
0.0000000001
 40
0.0
 40
0.0
 40
0.0
 40
0.0
 40
0.252045648
 40
1.0
 40
1.0
 40
1.0
 40
1.0
 10
82.6263600475
 20
110.2662825831
 30
0.0
 10
82.6831268594
 20
110.1803610541
 30
0.0
 10
82.8942738505
 20
109.830257043
 30
0.0
 10
83.050751971
 20
109.448067018
 30
0.0
 10
83.1372834858
 20
109.1549756187
 30
0.0
  0
SPLINE
  5
605
100
AcDbEntity
  8
0
100
AcDbSpline
 62
7
  6
CONTINUOUS
 70
0
 71
3
 72
9
 73
5
 74
0
 42
0.0000001
 43
0.0000001
 44
0.0000000001
 40
0.0
 40
0.0
 40
0.0
 40
0.0
 40
0.2510318443
 40
1.0
 40
1.0
 40
1.0
 40
1.0
 10
83.1372834858
 20
109.1549756187
 30
0.0
 10
83.1693647333
 20
109.046313038
 30
0.0
 10
83.2807349306
 20
108.6087283983
 30
0.0
 10
83.3282267181
 20
108.1551997086
 30
0.0
 10
83.3282267181
 20
107.8171642212
 30
0.0
  0
SPLINE
  5
606
100
AcDbEntity
  8
0
100
AcDbSpline
 62
7
  6
CONTINUOUS
 70
0
 71
3
 72
9
 73
5
 74
0
 42
0.0000001
 43
0.0000001
 44
0.0000000001
 40
0.0
 40
0.0
 40
0.0
 40
0.0
 40
0.2487014884
 40
1.0
 40
1.0
 40
1.0
 40
1.0
 10
147.4190764166
 20
108.7477261619
 30
0.0
 10
147.4455609476
 20
108.8812800374
 30
0.0
 10
147.575230624
 20
109.4131737315
 30
0.0
 10
147.803364972
 20
109.923109317
 30
0.0
 10
148.0300933888
 20
110.2662825831
 30
0.0
  0
LINE
  5
607
100
AcDbEntity
  8
0
100
AcDbLine
 62
7
  6
CONTINUOUS
 10
147.3280315412
 20
96.3798104157
 11
147.3282267181
 21
96.6316671453
  0
SPLINE
  5
608
100
AcDbEntity
  8
BEZUGSACHSEN
100
AcDbSpline
 62
7
  6
CONTINUOUS
 70
0
 71
3
 72
8
 73
4
 74
0
 42
0.0000001
 43
0.0000001
 44
0.0000000001
 40
0.0
 40
0.0
 40
0.0
 40
0.0
 40
1.0
 40
1.0
 40
1.0
 40
1.0
 10
93.396459276
 20
172.6753260421
 30
0.0
 10
94.3308014252
 20
172.3609599909
 30
0.0
 10
95.2649936788
 20
172.0461478031
 30
0.0
 10
96.1989830046
 20
171.7307350496
 30
0.0
  0
LINE
  5
609
100
AcDbEntity
  8
BEZUGSACHSEN
100
AcDbLine
 62
7
  6
CONTINUOUS
 10
93.475457426
 20
173.0967565682
 11
93.2960899522
 21
173.584548492
  0
LINE
  5
60A
100
AcDbEntity
  8
BEZUGSACHSEN
100
AcDbLine
 62
7
  6
CONTINUOUS
 10
93.2960899522
 20
173.584548492
 11
93.077223307
 21
173.8617690862
  0
LINE
  5
60B
100
AcDbEntity
  8
BEZUGSACHSEN
100
AcDbLine
 62
7
  6
CONTINUOUS
 10
92.6954372245
 20
174.1369715396
 11
93.077223307
 21
173.8617690862
  0
LINE
  5
60C
100
AcDbEntity
  8
BEZUGSACHSEN
100
AcDbLine
 62
7
  6
CONTINUOUS
 10
128.8993969416
 20
177.0477606637
 11
128.8021062913
 21
176.5841018918
  0
LINE
  5
60D
100
AcDbEntity
  8
BEZUGSACHSEN
100
AcDbLine
 62
7
  6
CONTINUOUS
 10
92.341625147
 20
174.2725322364
 11
92.6954372245
 21
174.1369715396
  0
LINE
  5
60E
100
AcDbEntity
  8
BEZUGSACHSEN
100
AcDbLine
 62
7
  6
CONTINUOUS
 10
129.1504059713
 20
177.5525289877
 11
128.8993969416
 21
177.0477606637
  0
LINE
  5
60F
100
AcDbEntity
  8
BEZUGSACHSEN
100
AcDbLine
 62
7
  6
CONTINUOUS
 10
129.1504059713
 20
177.5525289877
 11
130.1622148349
 21
178.9173510294
  0
LINE
  5
610
100
AcDbEntity
  8
BEZUGSACHSEN
100
AcDbLine
 62
7
  6
CONTINUOUS
 10
91.7574209905
 20
174.3350193848
 11
92.341625147
 21
174.2725322364
  0
LINE
  5
611
100
AcDbEntity
  8
BEZUGSACHSEN
100
AcDbLine
 62
7
  6
CONTINUOUS
 10
130.1622148349
 20
178.9173510294
 11
130.5857451735
 21
179.3224030539
  0
LINE
  5
612
100
AcDbEntity
  8
BEZUGSACHSEN
100
AcDbLine
 62
7
  6
CONTINUOUS
 10
130.5857451735
 20
179.3224030539
 11
131.0280859141
 21
179.5864781584
  0
LINE
  5
613
100
AcDbEntity
  8
BEZUGSACHSEN
100
AcDbLine
 62
7
  6
CONTINUOUS
 10
91.2011905716
 20
174.257401068
 11
91.7574209905
 21
174.3350193848
  0
LINE
  5
614
100
AcDbEntity
  8
BEZUGSACHSEN
100
AcDbLine
 62
7
  6
CONTINUOUS
 10
131.0280859141
 20
179.5864781584
 11
131.6429477746
 21
179.7503320686
  0
LINE
  5
615
100
AcDbEntity
  8
BEZUGSACHSEN
100
AcDbLine
 62
7
  6
CONTINUOUS
 10
131.6429477746
 20
179.7503320686
 11
132.1229037736
 21
179.7317817626
  0
LINE
  5
616
100
AcDbEntity
  8
BEZUGSACHSEN
100
AcDbLine
 62
7
  6
CONTINUOUS
 10
90.7683801512
 20
173.9705997037
 11
91.2011905716
 21
174.257401068
  0
LINE
  5
617
100
AcDbEntity
  8
BEZUGSACHSEN
100
AcDbLine
 62
7
  6
CONTINUOUS
 10
132.1229037736
 20
179.7317817626
 11
132.6216683891
 21
179.5715370428
  0
LINE
  5
618
100
AcDbEntity
  8
BEZUGSACHSEN
100
AcDbLine
 62
7
  6
CONTINUOUS
 10
133.3980252754
 20
179.1177092461
 11
133.7618781062
 21
178.7737031873
  0
LINE
  5
619
100
AcDbEntity
  8
BEZUGSACHSEN
100
AcDbLine
 62
7
  6
CONTINUOUS
 10
133.7618781062
 20
178.7737031873
 11
133.9720204079
 21
178.3888543166
  0
LINE
  5
61A
100
AcDbEntity
  8
BEZUGSACHSEN
100
AcDbLine
 62
7
  6
CONTINUOUS
 10
94.0398539653
 20
169.452234544
 11
92.0354781685
 21
170.8967027989
  0
LINE
  5
61B
100
AcDbEntity
  8
BEZUGSACHSEN
100
AcDbLine
 62
7
  6
CONTINUOUS
 10
133.9720204079
 20
178.3888543166
 11
134.0472509249
 21
177.821613844
  0
LINE
  5
61C
100
AcDbEntity
  8
BEZUGSACHSEN
100
AcDbLine
 62
7
  6
CONTINUOUS
 10
91.4627994458
 20
171.3094031673
 11
90.0311023717
 21
172.3411464797
  0
LINE
  5
61D
100
AcDbEntity
  8
BEZUGSACHSEN
100
AcDbLine
 62
7
  6
CONTINUOUS
 10
92.7447822103
 20
172.6661476559
 11
92.851754098
 21
172.9482184796
  0
LINE
  5
61E
100
AcDbEntity
  8
BEZUGSACHSEN
100
AcDbLine
 62
7
  6
CONTINUOUS
 10
95.8911274871
 20
178.2914449709
 11
98.3704803312
 21
175.7297116478
  0
LINE
  5
61F
100
AcDbEntity
  8
BEZUGSACHSEN
100
AcDbLine
 62
7
  6
CONTINUOUS
 10
133.3947718314
 20
177.9445674504
 11
133.2786704487
 21
177.6209141533
  0
LINE
  5
620
100
AcDbEntity
  8
BEZUGSACHSEN
100
AcDbLine
 62
7
  6
CONTINUOUS
 10
95.4159758834
 20
177.9352557017
 11
95.8911274871
 21
178.2914449709
  0
LINE
  5
621
100
AcDbEntity
  8
BEZUGSACHSEN
100
AcDbLine
 62
7
  6
CONTINUOUS
 10
98.1399891983
 20
174.2734263054
 11
98.2176067178
 21
174.6172163636
  0
LINE
  5
622
100
AcDbEntity
  8
BEZUGSACHSEN
100
AcDbLine
 62
7
  6
CONTINUOUS
 10
97.9032004246
 20
173.9523182701
 11
98.1399891983
 21
174.2734263054
  0
LINE
  5
623
100
AcDbEntity
  8
BEZUGSACHSEN
100
AcDbLine
 62
7
  6
CONTINUOUS
 10
97.5864325378
 20
173.7133317958
 11
97.9032004246
 21
173.9523182701
  0
LINE
  5
624
100
AcDbEntity
  8
BEZUGSACHSEN
100
AcDbLine
 62
7
  6
CONTINUOUS
 10
97.1896859909
 20
173.5564633098
 11
97.5864325378
 21
173.7133317958
  0
LINE
  5
625
100
AcDbEntity
  8
BEZUGSACHSEN
100
AcDbLine
 62
7
  6
CONTINUOUS
 10
96.7921519068
 20
173.5417604408
 11
97.1896859909
 21
173.5564633098
  0
LINE
  5
626
100
AcDbEntity
  8
BEZUGSACHSEN
100
AcDbLine
 62
7
  6
CONTINUOUS
 10
96.3938303973
 20
173.6695084695
 11
96.7921519068
 21
173.5417604408
  0
LINE
  5
627
100
AcDbEntity
  8
BEZUGSACHSEN
100
AcDbLine
 62
7
  6
CONTINUOUS
 10
95.9947223128
 20
173.9398914176
 11
96.3938303973
 21
173.6695084695
  0
LINE
  5
628
100
AcDbEntity
  8
BEZUGSACHSEN
100
AcDbLine
 62
7
  6
CONTINUOUS
 10
95.9947223128
 20
173.9398914176
 11
93.5153694687
 21
176.5010761597
  0
LINE
  5
629
100
AcDbEntity
  8
BEZUGSACHSEN
100
AcDbLine
 62
7
  6
CONTINUOUS
 10
93.0402176384
 20
176.1401737477
 11
93.5153694687
 21
176.5010761597
  0
LINE
  5
62A
100
AcDbEntity
  8
BEZUGSACHSEN
100
AcDbLine
 62
7
  6
CONTINUOUS
 10
98.8558651977
 20
174.2403447934
 11
98.8527166039
 21
174.8082311876
  0
LINE
  5
62B
100
AcDbEntity
  8
BEZUGSACHSEN
100
AcDbLine
 62
7
  6
CONTINUOUS
 10
98.8527166039
 20
174.8082311876
 11
98.6911838121
 21
175.2572924787
  0
LINE
  5
62C
100
AcDbEntity
  8
BEZUGSACHSEN
100
AcDbLine
 62
7
  6
CONTINUOUS
 10
98.6911838121
 20
175.2572924787
 11
98.3704803312
 21
175.7297116478
  0
LINE
  5
62D
100
AcDbEntity
  8
BEZUGSACHSEN
100
AcDbLine
 62
7
  6
CONTINUOUS
 10
129.4545834576
 20
176.4662015298
 11
129.5784612032
 21
176.1339213582
  0
LINE
  5
62E
100
AcDbEntity
  8
BEZUGSACHSEN
100
AcDbLine
 62
7
  6
CONTINUOUS
 10
129.5784612032
 20
176.1339213582
 11
129.8560574228
 21
175.842075246
  0
LINE
  5
62F
100
AcDbEntity
  8
BEZUGSACHSEN
100
AcDbLine
 62
7
  6
CONTINUOUS
 10
101.9597525351
 20
179.6144126546
 11
102.3282265943
 21
179.0540173406
  0
LINE
  5
630
100
AcDbEntity
  8
BEZUGSACHSEN
100
AcDbLine
 62
7
  6
CONTINUOUS
 10
130.6324143091
 20
175.3882862094
 11
131.0449144158
 21
175.2767612716
  0
LINE
  5
631
100
AcDbEntity
  8
BEZUGSACHSEN
100
AcDbLine
 62
7
  6
CONTINUOUS
 10
101.5615814343
 20
180.0391110165
 11
101.9597525351
 21
179.6144126546
  0
LINE
  5
632
100
AcDbEntity
  8
BEZUGSACHSEN
100
AcDbLine
 62
7
  6
CONTINUOUS
 10
131.0449144158
 20
175.2767612716
 11
131.4386079277
 21
175.3065087748
  0
LINE
  5
633
100
AcDbEntity
  8
BEZUGSACHSEN
100
AcDbLine
 62
7
  6
CONTINUOUS
 10
131.4386079277
 20
175.3065087748
 11
131.7272302415
 21
175.5286304543
  0
LINE
  5
634
100
AcDbEntity
  8
BEZUGSACHSEN
100
AcDbLine
 62
7
  6
CONTINUOUS
 10
101.1363894555
 20
180.3239365123
 11
101.5615814343
 21
180.0391110165
  0
LINE
  5
635
100
AcDbEntity
  8
BEZUGSACHSEN
100
AcDbLine
 62
7
  6
CONTINUOUS
 10
132.2668616795
 20
176.2563854942
 11
131.7272302415
 21
175.5286304543
  0
LINE
  5
636
100
AcDbEntity
  8
BEZUGSACHSEN
100
AcDbLine
 62
7
  6
CONTINUOUS
 10
100.5334404439
 20
180.5169265746
 11
101.1363894555
 21
180.3239365123
  0
LINE
  5
637
100
AcDbEntity
  8
BEZUGSACHSEN
100
AcDbLine
 62
7
  6
CONTINUOUS
 10
100.0542083968
 20
180.5213323021
 11
100.5334404439
 21
180.5169265746
  0
LINE
  5
638
100
AcDbEntity
  8
BEZUGSACHSEN
100
AcDbLine
 62
7
  6
CONTINUOUS
 10
131.8952283009
 20
177.2580569382
 11
131.4905047932
 21
176.7122899225
  0
LINE
  5
639
100
AcDbEntity
  8
BEZUGSACHSEN
100
AcDbLine
 62
7
  6
CONTINUOUS
 10
99.5479552983
 20
180.3851469988
 11
100.0542083968
 21
180.5213323021
  0
LINE
  5
63A
100
AcDbEntity
  8
BEZUGSACHSEN
100
AcDbLine
 62
7
  6
CONTINUOUS
 10
102.0841533727
 20
176.5289944964
 11
102.3282272579
 21
176.7602166893
  0
LINE
  5
63B
100
AcDbEntity
  8
BEZUGSACHSEN
100
AcDbLine
 62
7
  6
CONTINUOUS
 10
128.3973859695
 20
180.3089551638
 11
128.3282267184
 21
180.1636966941
  0
LINE
  5
63C
100
AcDbEntity
  8
BEZUGSACHSEN
100
AcDbLine
 62
7
  6
CONTINUOUS
 10
128.4465156999
 20
180.6460475604
 11
128.3973859695
 21
180.3089551638
  0
LINE
  5
63D
100
AcDbEntity
  8
BEZUGSACHSEN
100
AcDbLine
 62
7
  6
CONTINUOUS
 10
100.4843339747
 20
175.6944234443
 11
98.3192867937
 21
178.9865101335
  0
LINE
  5
63E
100
AcDbEntity
  8
BEZUGSACHSEN
100
AcDbLine
 62
7
  6
CONTINUOUS
 10
128.9203011477
 20
180.9393852145
 11
129.0118239522
 21
180.4295788855
  0
LINE
  5
63F
100
AcDbEntity
  8
BEZUGSACHSEN
100
AcDbLine
 62
7
  6
CONTINUOUS
 10
128.686776752
 20
181.3845392888
 11
128.9203011477
 21
180.9393852145
  0
LINE
  5
640
100
AcDbEntity
  8
BEZUGSACHSEN
100
AcDbLine
 62
7
  6
CONTINUOUS
 10
128.3282260617
 20
181.6216192456
 11
128.686776752
 21
181.3845392888
  0
SPLINE
  5
641
100
AcDbEntity
  8
KONSTRUKTIONSELEMENTE
100
AcDbSpline
 62
7
  6
CONTINUOUS
 70
0
 71
3
 72
13
 73
9
 74
0
 42
0.0000001
 43
0.0000001
 44
0.0000000001
 40
0.0
 40
0.0
 40
0.0
 40
0.0
 40
0.1307247067
 40
0.2577907276
 40
0.382166428
 40
0.5051051596
 40
0.7504546525
 40
1.0
 40
1.0
 40
1.0
 40
1.0
 10
96.758899859
 20
116.7448028568
 30
0.0
 10
96.758899859
 20
116.9924947416
 30
0.0
 10
96.8047717924
 20
117.4824117195
 30
0.0
 10
97.0121643808
 20
118.1806941446
 30
0.0
 10
97.339063675
 20
118.8146143103
 30
0.0
 10
97.9027185664
 20
119.5633593387
 30
0.0
 10
98.8030833877
 20
120.3322808495
 30
0.0
 10
99.6286385248
 20
120.7861119843
 30
0.0
 10
100.0575814541
 20
120.9850458548
 30
0.0
  0
SPLINE
  5
642
100
AcDbEntity
  8
0
100
AcDbSpline
 62
7
  6
CONTINUOUS
 70
0
 71
3
 72
9
 73
5
 74
0
 42
0.0000001
 43
0.0000001
 44
0.0000000001
 40
0.0
 40
0.0
 40
0.0
 40
0.0
 40
0.5819284412
 40
1.0
 40
1.0
 40
1.0
 40
1.0
 10
83.3282267181
 20
109.2020831757
 30
0.0
 10
83.3282267181
 20
109.5039382286
 30
0.0
 10
83.3018557303
 20
110.0222120326
 30
0.0
 10
83.269254042
 20
110.5402474953
 30
0.0
 10
83.269254042
 20
110.7571075137
 30
0.0
  0
SPLINE
  5
643
100
AcDbEntity
  8
KONSTRUKTIONSELEMENTE
100
AcDbSpline
 62
7
  6
CONTINUOUS
 70
0
 71
3
 72
13
 73
9
 74
0
 42
0.0000001
 43
0.0000001
 44
0.0000000001
 40
0.0
 40
0.0
 40
0.0
 40
0.0
 40
0.249547219
 40
0.4948985988
 40
0.6178376073
 40
0.7422123936
 40
0.8692765947
 40
1.0
 40
1.0
 40
1.0
 40
1.0
 10
130.5988719821
 20
120.9850458548
 30
0.0
 10
131.0278181106
 20
120.7861105007
 30
0.0
 10
131.8533794024
 20
120.3322756377
 30
0.0
 10
132.753748172
 20
119.563346371
 30
0.0
 10
133.3174005513
 20
118.8145964467
 30
0.0
 10
133.6442942273
 20
118.1806787511
 30
0.0
 10
133.851682584
 20
117.482403276
 30
0.0
 10
133.8975535772
 20
116.9924922653
 30
0.0
 10
133.8975535772
 20
116.7448028568
 30
0.0
  0
SPLINE
  5
644
100
AcDbEntity
  8
KONSTRUKTIONSELEMENTE
100
AcDbSpline
 62
7
  6
CONTINUOUS
 70
0
 71
3
 72
11
 73
7
 74
0
 42
0.0000001
 43
0.0000001
 44
0.0000000001
 40
0.0
 40
0.0
 40
0.0
 40
0.0
 40
0.2516587843
 40
0.5051199693
 40
0.7559135823
 40
1.0
 40
1.0
 40
1.0
 40
1.0
 10
96.3114110515
 20
103.8041647717
 30
0.0
 10
96.2114796033
 20
104.0116134566
 30
0.0
 10
96.0475838481
 20
104.4471151195
 30
0.0
 10
95.9348910845
 20
105.1343971127
 30
0.0
 10
95.96880561
 20
105.8234764084
 30
0.0
 10
96.088710152
 20
106.2642892102
 30
0.0
 10
96.1696502557
 20
106.4724409738
 30
0.0
  0
SPLINE
  5
645
100
AcDbEntity
  8
KONSTRUKTIONSELEMENTE
100
AcDbSpline
 62
7
  6
CONTINUOUS
 70
0
 71
3
 72
11
 73
7
 74
0
 42
0.0000001
 43
0.0000001
 44
0.0000000001
 40
0.0
 40
0.0
 40
0.0
 40
0.0
 40
0.2440864177
 40
0.4948800307
 40
0.7483412157
 40
1.0
 40
1.0
 40
1.0
 40
1.0
 10
134.4868031805
 20
106.4724409738
 30
0.0
 10
134.5677432843
 20
106.2642892102
 30
0.0
 10
134.6876478262
 20
105.8234764084
 30
0.0
 10
134.7215623517
 20
105.1343971127
 30
0.0
 10
134.6088695881
 20
104.4471151195
 30
0.0
 10
134.444973833
 20
104.0116134566
 30
0.0
 10
134.3450423848
 20
103.8041647717
 30
0.0
  0
SPLINE
  5
646
100
AcDbEntity
  8
KONSTRUKTIONSELEMENTE
100
AcDbSpline
 62
7
  6
CONTINUOUS
 70
0
 71
3
 72
15
 73
11
 74
0
 42
0.0000001
 43
0.0000001
 44
0.0000000001
 40
0.0
 40
0.0
 40
0.0
 40
0.0
 40
0.1219810581
 40
0.2461770523
 40
0.3724654578
 40
0.5
 40
0.6275345422
 40
0.7538229477
 40
0.8780189419
 40
1.0
 40
1.0
 40
1.0
 40
1.0
 10
121.9350413818
 20
126.9495271368
 30
0.0
 10
121.6749354906
 20
127.5706174863
 30
0.0
 10
120.9466000077
 20
128.7481021028
 30
0.0
 10
119.3698950086
 20
130.1124139807
 30
0.0
 10
117.4403261986
 20
130.9803034007
 30
0.0
 10
115.3282267181
 20
131.2775498414
 30
0.0
 10
113.2161272376
 20
130.9803034007
 30
0.0
 10
111.2865584276
 20
130.1124139807
 30
0.0
 10
109.7098534285
 20
128.7481021028
 30
0.0
 10
108.9815179457
 20
127.5706174863
 30
0.0
 10
108.7214120545
 20
126.9495271368
 30
0.0
  0
SPLINE
  5
647
100
AcDbEntity
  8
0
100
AcDbSpline
 62
7
  6
CONTINUOUS
 70
0
 71
3
 72
24
 73
20
 74
0
 42
0.0000001
 43
0.0000001
 44
0.0000000001
 40
0.0
 40
0.0
 40
0.0
 40
0.0
 40
0.001913134
 40
0.0058786123
 40
0.0120411344
 40
0.0204216916
 40
0.0310143434
 40
0.0438066462
 40
0.0587817689
 40
0.0759117818
 40
0.1165080822
 40
0.1653111021
 40
0.2219585117
 40
0.2860398752
 40
0.3570795591
 40
0.4345580374
 40
0.6065082629
 40
0.7968385848
 40
1.0
 40
1.0
 40
1.0
 40
1.0
 10
97.7672449173
 20
85.7101526091
 30
0.0
 10
97.7757986879
 20
85.71377916
 30
0.0
 10
97.7869836688
 20
85.7448078788
 30
0.0
 10
97.7984676303
 20
85.7989345476
 30
0.0
 10
97.8088297003
 20
85.8899610065
 30
0.0
 10
97.8175068261
 20
86.0110242986
 30
0.0
 10
97.8243420149
 20
86.1654207014
 30
0.0
 10
97.8292092006
 20
86.351556257
 30
0.0
 10
97.8320577295
 20
86.5696112498
 30
0.0
 10
97.8331774974
 20
86.9226615621
 30
0.0
 10
97.828656489
 20
87.440006766
 30
0.0
 10
97.8154803972
 20
88.1491372237
 30
0.0
 10
97.7942509357
 20
88.9721714248
 30
0.0
 10
97.765132231
 20
89.9030084613
 30
0.0
 10
97.728377904
 20
90.9348085591
 30
0.0
 10
97.66745315
 20
92.4899156938
 30
0.0
 10
97.5742160816
 20
94.6235013423
 30
0.0
 10
97.4426800047
 20
97.3663226799
 30
0.0
 10
97.3446745453
 20
99.2747340736
 30
0.0
 10
97.2926957541
 20
100.2599811101
 30
0.0
  0
SPLINE
  5
648
100
AcDbEntity
  8
KONSTRUKTIONSELEMENTE
100
AcDbSpline
 62
7
  6
CONTINUOUS
 70
0
 71
3
 72
9
 73
5
 74
0
 42
0.0000001
 43
0.0000001
 44
0.0000000001
 40
0.0
 40
0.0
 40
0.0
 40
0.0
 40
0.4525274281
 40
1.0
 40
1.0
 40
1.0
 40
1.0
 10
108.2289309784
 20
124.8294056378
 30
0.0
 10
108.2351874601
 20
125.1590778282
 30
0.0
 10
108.3369059121
 20
125.8863005734
 30
0.0
 10
108.5673188724
 20
126.5815778072
 30
0.0
 10
108.7214120545
 20
126.9495271368
 30
0.0
  0
SPLINE
  5
649
100
AcDbEntity
  8
KONSTRUKTIONSELEMENTE
100
AcDbSpline
 62
7
  6
CONTINUOUS
 70
0
 71
3
 72
9
 73
5
 74
0
 42
0.0000001
 43
0.0000001
 44
0.0000000001
 40
0.0
 40
0.0
 40
0.0
 40
0.0
 40
0.5474725719
 40
1.0
 40
1.0
 40
1.0
 40
1.0
 10
121.9350413818
 20
126.9495271368
 30
0.0
 10
122.0891345638
 20
126.5815778072
 30
0.0
 10
122.3195475242
 20
125.8863005734
 30
0.0
 10
122.4212659761
 20
125.1590778282
 30
0.0
 10
122.4275224579
 20
124.8294056378
 30
0.0
  0
LINE
  5
64A
100
AcDbEntity
  8
KONSTRUKTIONSELEMENTE
100
AcDbLine
 62
7
  6
CONTINUOUS
 10
139.3672662732
 20
166.5555297399
 11
138.9853401632
 21
166.6824772355
  0
LINE
  5
64B
100
AcDbEntity
  8
BEZUGSACHSEN
100
AcDbLine
 62
7
  6
CONTINUOUS
 10
138.9853401632
 20
166.8734427621
 11
139.3672662732
 21
166.7467732771
  0
LINE
  5
64C
100
AcDbEntity
  8
KONSTRUKTIONSELEMENTE
100
AcDbLine
 62
7
  6
CONTINUOUS
 10
138.9853401632
 20
166.6824772355
 11
138.5467425581
 21
166.8886812006
  0
LINE
  5
64D
100
AcDbEntity
  8
BEZUGSACHSEN
100
AcDbLine
 62
7
  6
CONTINUOUS
 10
138.5467425581
 20
167.0792685983
 11
138.9853401632
 21
166.8734427621
  0
LINE
  5
64E
100
AcDbEntity
  8
KONSTRUKTIONSELEMENTE
100
AcDbLine
 62
7
  6
CONTINUOUS
 10
138.5467425581
 20
166.8886812006
 11
138.2141059396
 21
167.150410984
  0
LINE
  5
64F
100
AcDbEntity
  8
BEZUGSACHSEN
100
AcDbLine
 62
7
  6
CONTINUOUS
 10
138.2141059396
 20
167.3406153324
 11
138.5467425581
 21
167.0792685983
  0
SPLINE
  5
650
100
AcDbEntity
  8
KONSTRUKTIONSELEMENTE
100
AcDbSpline
 62
7
  6
CONTINUOUS
 70
0
 71
3
 72
8
 73
4
 74
0
 42
0.0000001
 43
0.0000001
 44
0.0000000001
 40
0.0
 40
0.0
 40
0.0
 40
0.0
 40
1.0
 40
1.0
 40
1.0
 40
1.0
 10
138.2141059396
 20
167.150410984
 30
0.0
 10
138.0631488487
 20
167.3618504387
 30
0.0
 10
137.9120294214
 20
167.5731740887
 30
0.0
 10
137.7607468752
 20
167.7843808062
 30
0.0
  0
SPLINE
  5
651
100
AcDbEntity
  8
BEZUGSACHSEN
100
AcDbSpline
 62
7
  6
CONTINUOUS
 70
0
 71
3
 72
8
 73
4
 74
0
 42
0.0000001
 43
0.0000001
 44
0.0000000001
 40
0.0
 40
0.0
 40
0.0
 40
0.0
 40
1.0
 40
1.0
 40
1.0
 40
1.0
 10
137.7607468752
 20
167.9738243787
 30
0.0
 10
137.9120282265
 20
167.7628705363
 30
0.0
 10
138.0631477101
 20
167.5518005207
 30
0.0
 10
138.2141059396
 20
167.3406153324
 30
0.0
  0
LINE
  5
652
100
AcDbEntity
  8
KONSTRUKTIONSELEMENTE
100
AcDbLine
 62
7
  6
CONTINUOUS
 10
137.7607468752
 20
167.7843808062
 11
137.6400270234
 21
168.1566172173
  0
LINE
  5
653
100
AcDbEntity
  8
BEZUGSACHSEN
100
AcDbLine
 62
7
  6
CONTINUOUS
 10
137.6400270234
 20
168.3456905862
 11
137.7607468752
 21
167.9738243787
  0
LINE
  5
654
100
AcDbEntity
  8
KONSTRUKTIONSELEMENTE
100
AcDbLine
 62
7
  6
CONTINUOUS
 10
137.6400270234
 20
168.1566172173
 11
137.6252655642
 21
168.5843830919
  0
LINE
  5
655
100
AcDbEntity
  8
BEZUGSACHSEN
100
AcDbLine
 62
7
  6
CONTINUOUS
 10
137.6252655642
 20
168.773099539
 11
137.6400270234
 21
168.3456905862
  0
SPLINE
  5
656
100
AcDbEntity
  8
KONSTRUKTIONSELEMENTE
100
AcDbSpline
 62
7
  6
CONTINUOUS
 70
0
 71
3
 72
9
 73
5
 74
0
 42
0.0000001
 43
0.0000001
 44
0.0000000001
 40
0.0
 40
0.0
 40
0.0
 40
0.0
 40
0.499349665
 40
1.0
 40
1.0
 40
1.0
 40
1.0
 10
97.2926957541
 20
100.2599811101
 30
0.0
 10
97.2602854347
 20
100.874311888
 30
0.0
 10
97.0397777901
 20
102.0994543813
 30
0.0
 10
96.5790891055
 20
103.2484892428
 30
0.0
 10
96.3114110515
 20
103.8041647717
 30
0.0
  0
SPLINE
  5
657
100
AcDbEntity
  8
BEZUGSACHSEN
100
AcDbSpline
 62
7
  6
CONTINUOUS
 70
0
 71
3
 72
15
 73
11
 74
0
 42
0.0000001
 43
0.0000001
 44
0.0000000001
 40
0.0
 40
0.0
 40
0.0
 40
0.0
 40
0.1213952628
 40
0.2449248391
 40
0.3714323782
 40
0.5
 40
0.6285676218
 40
0.7550751609
 40
0.8786047372
 40
1.0
 40
1.0
 40
1.0
 40
1.0
 10
141.3282267181
 20
109.8657754377
 30
0.0
 10
141.3282267181
 20
110.2333658884
 30
0.0
 10
141.168419624
 20
110.9837746349
 30
0.0
 10
140.4941359763
 20
111.9205542359
 30
0.0
 10
139.4966217994
 20
112.5411341227
 30
0.0
 10
138.3282267181
 20
112.757254753
 30
0.0
 10
137.1598316369
 20
112.5411341227
 30
0.0
 10
136.16231746
 20
111.9205542359
 30
0.0
 10
135.4880338122
 20
110.9837746349
 30
0.0
 10
135.3282267181
 20
110.2333658884
 30
0.0
 10
135.3282267181
 20
109.8657754377
 30
0.0
  0
LINE
  5
658
100
AcDbEntity
  8
KONSTRUKTIONSELEMENTE
100
AcDbLine
 62
7
  6
CONTINUOUS
 10
138.2610159196
 20
168.9205779314
 11
138.4162611633
 21
169.1115076284
  0
LINE
  5
659
100
AcDbEntity
  8
BEZUGSACHSEN
100
AcDbLine
 62
7
  6
CONTINUOUS
 10
138.4162611633
 20
169.3001799705
 11
138.2610159196
 21
169.1093271979
  0
LINE
  5
65A
100
AcDbEntity
  8
KONSTRUKTIONSELEMENTE
100
AcDbLine
 62
7
  6
CONTINUOUS
 10
138.1683972444
 20
168.6670300495
 11
138.1869794767
 21
168.7179077102
  0
LINE
  5
65B
100
AcDbEntity
  8
KONSTRUKTIONSELEMENTE
100
AcDbLine
 62
7
  6
CONTINUOUS
 10
138.1869794767
 20
168.7179077102
 11
138.2362689792
 21
168.8528416994
  0
LINE
  5
65C
100
AcDbEntity
  8
KONSTRUKTIONSELEMENTE
100
AcDbLine
 62
7
  6
CONTINUOUS
 10
138.2362689792
 20
168.8528416994
 11
138.2610159196
 21
168.9205779314
  0
LINE
  5
65D
100
AcDbEntity
  8
BEZUGSACHSEN
100
AcDbLine
 62
7
  6
CONTINUOUS
 10
138.2610159196
 20
169.1093271979
 11
138.1624369179
 21
168.8396272871
  0
SPLINE
  5
65E
100
AcDbEntity
  8
BEZUGSACHSEN
100
AcDbSpline
 62
7
  6
CONTINUOUS
 70
0
 71
3
 72
9
 73
5
 74
0
 42
0.0000001
 43
0.0000001
 44
0.0000000001
 40
0.0
 40
0.0
 40
0.0
 40
0.0
 40
0.5015147881
 40
1.0
 40
1.0
 40
1.0
 40
1.0
 10
100.8393315841
 20
157.1748666476
 30
0.0
 10
100.3470831229
 20
156.1876238102
 30
0.0
 10
99.5865778575
 20
154.100296777
 30
0.0
 10
99.3282267181
 20
151.8931436543
 30
0.0
 10
99.3282267181
 20
150.7966499401
 30
0.0
  0
SPLINE
  5
65F
100
AcDbEntity
  8
BEZUGSACHSEN
100
AcDbSpline
 62
7
  6
CONTINUOUS
 70
0
 71
3
 72
9
 73
5
 74
0
 42
0.0000001
 43
0.0000001
 44
0.0000000001
 40
0.0
 40
0.0
 40
0.0
 40
0.0
 40
0.5015147881
 40
1.0
 40
1.0
 40
1.0
 40
1.0
 10
129.8171218521
 20
157.1748666476
 30
0.0
 10
130.3093703134
 20
156.1876238102
 30
0.0
 10
131.0698755788
 20
154.100296777
 30
0.0
 10
131.3282267181
 20
151.8931436543
 30
0.0
 10
131.3282267181
 20
150.7966499401
 30
0.0
  0
LINE
  5
660
100
AcDbEntity
  8
KONSTRUKTIONSELEMENTE
100
AcDbLine
 62
7
  6
CONTINUOUS
 10
140.6479939663
 20
168.0500019201
 11
140.5488490628
 21
168.2756061775
  0
LINE
  5
661
100
AcDbEntity
  8
KONSTRUKTIONSELEMENTE
100
AcDbLine
 62
7
  6
CONTINUOUS
 10
140.5488490628
 20
168.2756061775
 11
140.4318500504
 21
168.5415924668
  0
LINE
  5
662
100
AcDbEntity
  8
BEZUGSACHSEN
100
AcDbLine
 62
7
  6
CONTINUOUS
 10
140.4318500504
 20
168.7316005582
 11
140.6659103261
 21
168.1997468895
  0
LINE
  5
663
100
AcDbEntity
  8
KONSTRUKTIONSELEMENTE
100
AcDbLine
 62
7
  6
CONTINUOUS
 10
140.4318500504
 20
168.5415924668
 11
140.2051718153
 21
168.8585755643
  0
LINE
  5
664
100
AcDbEntity
  8
BEZUGSACHSEN
100
AcDbLine
 62
7
  6
CONTINUOUS
 10
140.2051718153
 20
169.0482384811
 11
140.4318500504
 21
168.7316005582
  0
SPLINE
  5
665
100
AcDbEntity
  8
BEZUGSACHSEN
100
AcDbSpline
 62
7
  6
CONTINUOUS
 70
0
 71
3
 72
15
 73
11
 74
0
 42
0.0000001
 43
0.0000001
 44
0.0000000001
 40
0.0
 40
0.0
 40
0.0
 40
0.0
 40
0.1215149143
 40
0.2452951446
 40
0.3717686663
 40
0.5
 40
0.6282313337
 40
0.7547048554
 40
0.8784850857
 40
1.0
 40
1.0
 40
1.0
 40
1.0
 10
141.3020413344
 20
109.8948162931
 30
0.0
 10
141.2546849817
 20
110.2298430735
 30
0.0
 10
141.0255535028
 20
110.8938996854
 30
0.0
 10
140.3386724909
 20
111.6977775506
 30
0.0
 10
139.3996391321
 20
112.2220788917
 30
0.0
 10
138.3282267181
 20
112.4036269741
 30
0.0
 10
137.2568143042
 20
112.2220788917
 30
0.0
 10
136.3177809454
 20
111.6977775506
 30
0.0
 10
135.6308999335
 20
110.8938996854
 30
0.0
 10
135.4017684545
 20
110.2298430735
 30
0.0
 10
135.3544121019
 20
109.8948162931
 30
0.0
  0
LINE
  5
666
100
AcDbEntity
  8
KONSTRUKTIONSELEMENTE
100
AcDbLine
 62
7
  6
CONTINUOUS
 10
142.7109563328
 20
169.2537641516
 11
142.639696509
 21
169.4357382604
  0
LINE
  5
667
100
AcDbEntity
  8
KONSTRUKTIONSELEMENTE
100
AcDbLine
 62
7
  6
CONTINUOUS
 10
142.639696509
 20
169.4357382604
 11
142.5510178277
 21
169.6620412692
  0
LINE
  5
668
100
AcDbEntity
  8
BEZUGSACHSEN
100
AcDbLine
 62
7
  6
CONTINUOUS
 10
142.5510178277
 20
169.8520458544
 11
142.7284091932
 21
169.3995865022
  0
LINE
  5
669
100
AcDbEntity
  8
KONSTRUKTIONSELEMENTE
100
AcDbLine
 62
7
  6
CONTINUOUS
 10
142.5510178277
 20
169.6620412692
 11
142.3243395926
 21
169.9790243669
  0
LINE
  5
66A
100
AcDbEntity
  8
BEZUGSACHSEN
100
AcDbLine
 62
7
  6
CONTINUOUS
 10
142.3243395926
 20
170.1687105902
 11
142.5510178277
 21
169.8520458544
  0
LINE
  5
66B
100
AcDbEntity
  8
KONSTRUKTIONSELEMENTE
100
AcDbLine
 62
7
  6
CONTINUOUS
 10
142.3243395926
 20
169.9790243669
 11
141.9350314791
 21
170.3186248036
  0
LINE
  5
66C
100
AcDbEntity
  8
BEZUGSACHSEN
100
AcDbLine
 62
7
  6
CONTINUOUS
 10
141.9350314791
 20
170.5079144108
 11
142.3243395926
 21
170.1687105902
  0
LINE
  5
66D
100
AcDbEntity
  8
KONSTRUKTIONSELEMENTE
100
AcDbLine
 62
7
  6
CONTINUOUS
 10
141.9350314791
 20
170.3186248036
 11
141.5531054061
 21
170.4436181893
  0
LINE
  5
66E
100
AcDbEntity
  8
BEZUGSACHSEN
100
AcDbLine
 62
7
  6
CONTINUOUS
 10
141.5531054061
 20
170.6326656323
 11
141.9350314791
 21
170.5079144108
  0
LINE
  5
66F
100
AcDbEntity
  8
KONSTRUKTIONSELEMENTE
100
AcDbLine
 62
7
  6
CONTINUOUS
 10
141.5531054061
 20
170.4436181893
 11
141.1218924636
 21
170.4334181359
  0
LINE
  5
670
100
AcDbEntity
  8
BEZUGSACHSEN
100
AcDbLine
 62
7
  6
CONTINUOUS
 10
141.1218924636
 20
170.6222959961
 11
141.5531054061
 21
170.6326656323
  0
LINE
  5
671
100
AcDbEntity
  8
KONSTRUKTIONSELEMENTE
100
AcDbLine
 62
7
  6
CONTINUOUS
 10
141.1218924636
 20
170.4334181359
 11
140.8385427241
 21
170.8276509146
  0
LINE
  5
672
100
AcDbEntity
  8
BEZUGSACHSEN
100
AcDbLine
 62
7
  6
CONTINUOUS
 10
140.8385427241
 20
171.0161354815
 11
141.1218924636
 21
170.6222959961
  0
LINE
  5
673
100
AcDbEntity
  8
KONSTRUKTIONSELEMENTE
100
AcDbLine
 62
7
  6
CONTINUOUS
 10
143.1324787938
 20
168.4371295245
 11
143.3296340548
 21
168.9797514984
  0
LINE
  5
674
100
AcDbEntity
  8
BEZUGSACHSEN
100
AcDbLine
 62
7
  6
CONTINUOUS
 10
143.3296340548
 20
169.1705566023
 11
143.1324787938
 21
168.6282775554
  0
LINE
  5
675
100
AcDbEntity
  8
KONSTRUKTIONSELEMENTE
100
AcDbLine
 62
7
  6
CONTINUOUS
 10
142.7653142079
 20
168.1332855153
 11
143.1324787938
 21
168.4371295245
  0
LINE
  5
676
100
AcDbEntity
  8
BEZUGSACHSEN
100
AcDbLine
 62
7
  6
CONTINUOUS
 10
143.1324787938
 20
168.6282775554
 11
142.7653142079
 21
168.3245367879
  0
LINE
  5
677
100
AcDbEntity
  8
KONSTRUKTIONSELEMENTE
100
AcDbLine
 62
7
  6
CONTINUOUS
 10
142.5533971631
 20
168.0212088398
 11
142.7653142079
 21
168.1332855153
  0
LINE
  5
678
100
AcDbEntity
  8
BEZUGSACHSEN
100
AcDbLine
 62
7
  6
CONTINUOUS
 10
142.7653142079
 20
168.3245367879
 11
142.5533971631
 21
168.212470618
  0
LINE
  5
679
100
AcDbEntity
  8
KONSTRUKTIONSELEMENTE
100
AcDbLine
 62
7
  6
CONTINUOUS
 10
142.5533971631
 20
168.0212088398
 11
142.0728947567
 21
167.8767650168
  0
LINE
  5
67A
100
AcDbEntity
  8
BEZUGSACHSEN
100
AcDbLine
 62
7
  6
CONTINUOUS
 10
142.0728947567
 20
168.0679621309
 11
142.5533971631
 21
168.212470618
  0
LINE
  5
67B
100
AcDbEntity
  8
KONSTRUKTIONSELEMENTE
100
AcDbLine
 62
7
  6
CONTINUOUS
 10
142.0728947567
 20
167.8767650168
 11
141.64167922
 21
167.8680046654
  0
LINE
  5
67C
100
AcDbEntity
  8
BEZUGSACHSEN
100
AcDbLine
 62
7
  6
CONTINUOUS
 10
141.64167922
 20
168.0590431551
 11
142.0728947567
 21
168.0679621309
  0
LINE
  5
67D
100
AcDbEntity
  8
KONSTRUKTIONSELEMENTE
100
AcDbLine
 62
7
  6
CONTINUOUS
 10
141.64167922
 20
167.8680046654
 11
141.1249412303
 21
168.0106109275
  0
LINE
  5
67E
100
AcDbEntity
  8
BEZUGSACHSEN
100
AcDbLine
 62
7
  6
CONTINUOUS
 10
141.0971258628
 20
168.2089775829
 11
141.64167922
 21
168.0590431551
  0
LINE
  5
67F
100
AcDbEntity
  8
KONSTRUKTIONSELEMENTE
100
AcDbLine
 62
7
  6
CONTINUOUS
 10
140.9640215527
 20
167.1806174099
 11
141.1685588543
 21
167.5081623023
  0
LINE
  5
680
100
AcDbEntity
  8
BEZUGSACHSEN
100
AcDbLine
 62
7
  6
CONTINUOUS
 10
141.1685588543
 20
167.6993126734
 11
140.9640215527
 21
167.3719637892
  0
LINE
  5
681
100
AcDbEntity
  8
KONSTRUKTIONSELEMENTE
100
AcDbLine
 62
7
  6
CONTINUOUS
 10
140.5968594125
 20
166.8766790516
 11
140.9640215527
 21
167.1806174099
  0
LINE
  5
682
100
AcDbEntity
  8
BEZUGSACHSEN
100
AcDbLine
 62
7
  6
CONTINUOUS
 10
140.9640215527
 20
167.3719637892
 11
140.5968594125
 21
167.0681420163
  0
LINE
  5
683
100
AcDbEntity
  8
KONSTRUKTIONSELEMENTE
100
AcDbLine
 62
7
  6
CONTINUOUS
 10
140.1730259164
 20
166.6525036555
 11
140.5968594125
 21
166.8766790516
  0
LINE
  5
684
100
AcDbEntity
  8
BEZUGSACHSEN
100
AcDbLine
 62
7
  6
CONTINUOUS
 10
140.5968594125
 20
167.0681420163
 11
140.1730259164
 21
166.8439936282
  0
LINE
  5
685
100
AcDbEntity
  8
KONSTRUKTIONSELEMENTE
100
AcDbLine
 62
7
  6
CONTINUOUS
 10
140.1730259164
 20
166.6525036555
 11
139.7984792158
 21
166.56416143
  0
LINE
  5
686
100
AcDbEntity
  8
BEZUGSACHSEN
100
AcDbLine
 62
7
  6
CONTINUOUS
 10
139.7984792158
 20
166.7555771949
 11
140.1730259164
 21
166.8439936282
  0
LINE
  5
687
100
AcDbEntity
  8
KONSTRUKTIONSELEMENTE
100
AcDbLine
 62
7
  6
CONTINUOUS
 10
139.7984792158
 20
166.56416143
 11
139.3672662732
 21
166.5555297399
  0
LINE
  5
688
100
AcDbEntity
  8
BEZUGSACHSEN
100
AcDbLine
 62
7
  6
CONTINUOUS
 10
139.3672662732
 20
166.7467732771
 11
139.7984792158
 21
166.7555771949
  0
LINE
  5
689
100
AcDbEntity
  8
KONSTRUKTIONSELEMENTE
100
AcDbLine
 62
7
  6
CONTINUOUS
 10
136.4154994269
 20
169.46145714
 11
136.0177700627
 21
169.8961830355
  0
LINE
  5
68A
100
AcDbEntity
  8
BEZUGSACHSEN
100
AcDbLine
 62
7
  6
CONTINUOUS
 10
136.0177700627
 20
170.0830922562
 11
136.4154994269
 21
169.6488917136
  0
LINE
  5
68B
100
AcDbEntity
  8
KONSTRUKTIONSELEMENTE
100
AcDbLine
 62
7
  6
CONTINUOUS
 10
139.5083262774
 20
172.5140484307
 11
138.7159741381
 21
172.485933939
  0
SPLINE
  5
68C
100
AcDbEntity
  8
BEZUGSACHSEN
100
AcDbSpline
 62
7
  6
CONTINUOUS
 70
0
 71
3
 72
8
 73
4
 74
0
 42
0.0000001
 43
0.0000001
 44
0.0000000001
 40
0.0
 40
0.0
 40
0.0
 40
0.0
 40
1.0
 40
1.0
 40
1.0
 40
1.0
 10
138.7159741381
 20
172.672409116
 30
0.0
 10
139.074289481
 20
172.6854050118
 30
0.0
 10
139.4326114072
 20
172.6982204586
 30
0.0
 10
139.790939154
 20
172.7108697326
 30
0.0
  0
LINE
  5
68D
100
AcDbEntity
  8
KONSTRUKTIONSELEMENTE
100
AcDbLine
 62
7
  6
CONTINUOUS
 10
136.4154994269
 20
169.46145714
 11
140.9626518103
 21
172.6283486555
  0
LINE
  5
68E
100
AcDbEntity
  8
BEZUGSACHSEN
100
AcDbLine
 62
7
  6
CONTINUOUS
 10
140.9626518103
 20
172.8157095691
 11
136.4154994269
 21
169.6488917136
  0
LINE
  5
68F
100
AcDbEntity
  8
KONSTRUKTIONSELEMENTE
100
AcDbLine
 62
7
  6
CONTINUOUS
 10
132.1773475811
 20
174.9502592301
 11
131.8212713021
 21
174.6373506617
  0
LINE
  5
690
100
AcDbEntity
  8
BEZUGSACHSEN
100
AcDbLine
 62
7
  6
CONTINUOUS
 10
131.8212713021
 20
174.8193610656
 11
132.1773475811
 21
175.1323128843
  0
LINE
  5
691
100
AcDbEntity
  8
KONSTRUKTIONSELEMENTE
100
AcDbLine
 62
7
  6
CONTINUOUS
 10
131.8212713021
 20
174.6373506617
 11
131.2064094179
 21
174.4772981628
  0
LINE
  5
692
100
AcDbEntity
  8
BEZUGSACHSEN
100
AcDbLine
 62
7
  6
CONTINUOUS
 10
131.2064094179
 20
174.6590694395
 11
131.8212713021
 21
174.8193610656
  0
SPLINE
  5
693
100
AcDbEntity
  8
0
100
AcDbSpline
 62
7
  6
CONTINUOUS
 70
0
 71
3
 72
14
 73
10
 74
0
 42
0.0000001
 43
0.0000001
 44
0.0000000001
 40
0.0
 40
0.0
 40
0.0
 40
0.0
 40
0.4280336912
 40
0.5977349784
 40
0.737723046
 40
0.8479166674
 40
0.9282315587
 40
0.9786315049
 40
1.0
 40
1.0
 40
1.0
 40
1.0
 10
83.269254042
 20
110.7571075137
 30
0.0
 10
83.269254042
 20
110.8227297961
 30
0.0
 10
83.2711784732
 20
110.9144871832
 30
0.0
 10
83.2804085691
 20
111.0271350521
 30
0.0
 10
83.2886704898
 20
111.0912276175
 30
0.0
 10
83.2979300736
 20
111.1404866954
 30
0.0
 10
83.3074801481
 20
111.1775960117
 30
0.0
 10
83.3155011783
 20
111.1969201544
 30
0.0
 10
83.3217001436
 20
111.2094125373
 30
0.0
 10
83.3249761694
 20
111.2094127519
 30
0.0
  0
LINE
  5
694
100
AcDbEntity
  8
KONSTRUKTIONSELEMENTE
100
AcDbLine
 62
7
  6
CONTINUOUS
 10
131.2064094179
 20
174.4772981628
 11
130.7264514268
 21
174.4987448249
  0
LINE
  5
695
100
AcDbEntity
  8
BEZUGSACHSEN
100
AcDbLine
 62
7
  6
CONTINUOUS
 10
130.7264514268
 20
174.680266861
 11
131.2064094179
 21
174.6590694395
  0
SPLINE
  5
696
100
AcDbEntity
  8
RUNDUNGEN
100
AcDbSpline
 62
7
  6
CONTINUOUS
 70
0
 71
3
 72
11
 73
7
 74
0
 42
0.0000001
 43
0.0000001
 44
0.0000000001
 40
0.0
 40
0.0
 40
0.0
 40
0.0
 40
0.2935227687
 40
0.5504192536
 40
0.7818183103
 40
1.0
 40
1.0
 40
1.0
 40
1.0
 10
82.6263600475
 20
113.7596408466
 30
0.0
 10
82.7386389445
 20
113.6781065218
 30
0.0
 10
82.9371188942
 20
113.5069683153
 30
0.0
 10
83.1631336153
 20
113.2107181621
 30
0.0
 10
83.2979275941
 20
112.9013308134
 30
0.0
 10
83.3282267181
 20
112.6877659722
 30
0.0
 10
83.3282267181
 20
112.5846225672
 30
0.0
  0
SPLINE
  5
697
100
AcDbEntity
  8
0
100
AcDbSpline
 62
7
  6
CONTINUOUS
 70
0
 71
3
 72
10
 73
6
 74
0
 42
0.0000001
 43
0.0000001
 44
0.0000000001
 40
0.0
 40
0.0
 40
0.0
 40
0.0
 40
0.1802804601
 40
0.4098059251
 40
1.0
 40
1.0
 40
1.0
 40
1.0
 10
147.4638776999
 20
111.0390153
 30
0.0
 10
147.4638776999
 20
110.9139265232
 30
0.0
 10
147.4470708516
 20
110.6296992511
 30
0.0
 10
147.3770798844
 20
109.9397174986
 30
0.0
 10
147.3282267181
 20
109.3716339222
 30
0.0
 10
147.3282267181
 20
108.9621239017
 30
0.0
  0
SPLINE
  5
698
100
AcDbEntity
  8
RUNDUNGEN
100
AcDbSpline
 62
7
  6
CONTINUOUS
 70
0
 71
3
 72
11
 73
7
 74
0
 42
0.0000001
 43
0.0000001
 44
0.0000000001
 40
0.0
 40
0.0
 40
0.0
 40
0.0
 40
0.2182212439
 40
0.4495909519
 40
0.7064442792
 40
1.0
 40
1.0
 40
1.0
 40
1.0
 10
147.3282267181
 20
112.5846225672
 30
0.0
 10
147.3282267181
 20
112.6877839928
 30
0.0
 10
147.3585033751
 20
112.9013644022
 30
0.0
 10
147.4934094385
 20
113.2106771471
 30
0.0
 10
147.7192923268
 20
113.506989464
 30
0.0
 10
147.9178026252
 20
113.6780979046
 30
0.0
 10
148.0300933888
 20
113.7596408466
 30
0.0
  0
LINE
  5
699
100
AcDbEntity
  8
KONSTRUKTIONSELEMENTE
100
AcDbLine
 62
7
  6
CONTINUOUS
 10
130.7264514268
 20
174.4987448249
 11
130.2276907542
 21
174.6613067916
  0
LINE
  5
69A
100
AcDbEntity
  8
BEZUGSACHSEN
100
AcDbLine
 62
7
  6
CONTINUOUS
 10
130.2276907542
 20
174.842515986
 11
130.7264514268
 21
174.680266861
  0
LINE
  5
69B
100
AcDbEntity
  8
KONSTRUKTIONSELEMENTE
100
AcDbLine
 62
7
  6
CONTINUOUS
 10
129.4513338679
 20
175.1156349464
 11
129.0874770942
 21
175.4578781133
  0
LINE
  5
69C
100
AcDbEntity
  8
BEZUGSACHSEN
100
AcDbLine
 62
7
  6
CONTINUOUS
 10
129.0874770942
 20
175.6382533166
 11
129.4513338679
 21
175.2962981181
  0
SPLINE
  5
69D
100
AcDbEntity
  8
BEZUGSACHSEN
100
AcDbSpline
 62
7
  6
CONTINUOUS
 70
0
 71
3
 72
8
 73
4
 74
0
 42
0.0000001
 43
0.0000001
 44
0.0000000001
 40
0.0
 40
0.0
 40
0.0
 40
0.0
 40
1.0
 40
1.0
 40
1.0
 40
1.0
 10
93.1825154043
 20
172.1111371701
 30
0.0
 10
94.0306888796
 20
171.8194767857
 30
0.0
 10
94.8787532748
 20
171.5274988582
 30
0.0
 10
95.7266734126
 20
171.2351027845
 30
0.0
  0
SPLINE
  5
69E
100
AcDbEntity
  8
KONSTRUKTIONSELEMENTE
100
AcDbSpline
 62
7
  6
CONTINUOUS
 70
0
 71
3
 72
8
 73
4
 74
0
 42
0.0000001
 43
0.0000001
 44
0.0000000001
 40
0.0
 40
0.0
 40
0.0
 40
0.0
 40
1.0
 40
1.0
 40
1.0
 40
1.0
 10
95.7266734126
 20
171.0495569931
 30
0.0
 10
94.8787474004
 20
171.3417012636
 30
0.0
 10
94.0306834036
 20
171.6334452143
 30
0.0
 10
93.1825154043
 20
171.9248861892
 30
0.0
  0
SPLINE
  5
69F
100
AcDbEntity
  8
BEZUGSACHSEN
100
AcDbSpline
 62
7
  6
CONTINUOUS
 70
0
 71
3
 72
8
 73
4
 74
0
 42
0.0000001
 43
0.0000001
 44
0.0000000001
 40
0.0
 40
0.0
 40
0.0
 40
0.0
 40
1.0
 40
1.0
 40
1.0
 40
1.0
 10
95.7266734126
 20
171.2351027845
 30
0.0
 10
95.8839804086
 20
171.4004368819
 30
0.0
 10
96.0414170462
 20
171.5656477287
 30
0.0
 10
96.1989830046
 20
171.7307350496
 30
0.0
  0
SPLINE
  5
6A0
100
AcDbEntity
  8
KONSTRUKTIONSELEMENTE
100
AcDbSpline
 62
7
  6
CONTINUOUS
 70
0
 71
3
 72
8
 73
4
 74
0
 42
0.0000001
 43
0.0000001
 44
0.0000000001
 40
0.0
 40
0.0
 40
0.0
 40
0.0
 40
1.0
 40
1.0
 40
1.0
 40
1.0
 10
96.1989830046
 20
171.5457541221
 30
0.0
 10
96.0414156648
 20
171.3804796896
 30
0.0
 10
95.8839790571
 20
171.2150805226
 30
0.0
 10
95.7266734126
 20
171.0495569931
 30
0.0
  0
LINE
  5
6A1
100
AcDbEntity
  8
BEZUGSACHSEN
100
AcDbLine
 62
7
  6
CONTINUOUS
 10
93.396459276
 20
172.6753260421
 11
93.475457426
 21
173.0967565682
  0
LINE
  5
6A2
100
AcDbEntity
  8
KONSTRUKTIONSELEMENTE
100
AcDbLine
 62
7
  6
CONTINUOUS
 10
93.475457426
 20
172.9112436168
 11
93.4291912599
 21
172.6643128424
  0
LINE
  5
6A3
100
AcDbEntity
  8
KONSTRUKTIONSELEMENTE
100
AcDbLine
 62
7
  6
CONTINUOUS
 10
129.0874770942
 20
175.4578781133
 11
128.8773367847
 21
175.8402707979
  0
LINE
  5
6A4
100
AcDbEntity
  8
BEZUGSACHSEN
100
AcDbLine
 62
7
  6
CONTINUOUS
 10
128.8773367847
 20
176.020428285
 11
129.0874770942
 21
175.6382533166
  0
SPLINE
  5
6A5
100
AcDbEntity
  8
KONSTRUKTIONSELEMENTE
100
AcDbSpline
 62
7
  6
CONTINUOUS
 70
0
 71
3
 72
9
 73
5
 74
0
 42
0.0000001
 43
0.0000001
 44
0.0000000001
 40
0.0
 40
0.0
 40
0.0
 40
0.0
 40
0.500650335
 40
1.0
 40
1.0
 40
1.0
 40
1.0
 10
134.3450423848
 20
103.8041647717
 30
0.0
 10
134.0773643307
 20
103.2484892428
 30
0.0
 10
133.6166756462
 20
102.0994543813
 30
0.0
 10
133.3961680016
 20
100.874311888
 30
0.0
 10
133.3637576821
 20
100.2599811101
 30
0.0
  0
LINE
  5
6A6
100
AcDbEntity
  8
KONSTRUKTIONSELEMENTE
100
AcDbLine
 62
7
  6
CONTINUOUS
 10
128.8773367847
 20
175.8402707979
 11
128.8021062913
 21
176.4041441962
  0
LINE
  5
6A7
100
AcDbEntity
  8
BEZUGSACHSEN
100
AcDbLine
 62
7
  6
CONTINUOUS
 10
128.8021062913
 20
176.5841018918
 11
128.8773367847
 21
176.020428285
  0
LINE
  5
6A8
100
AcDbEntity
  8
BEZUGSACHSEN
100
AcDbLine
 62
7
  6
CONTINUOUS
 10
93.6350172825
 20
169.0213772379
 11
89.14903342
 21
172.2546569444
  0
LINE
  5
6A9
100
AcDbEntity
  8
KONSTRUKTIONSELEMENTE
100
AcDbLine
 62
7
  6
CONTINUOUS
 10
89.14903342
 20
172.0667184306
 11
93.6350172825
 21
168.8331532719
  0
LINE
  5
6AA
100
AcDbEntity
  8
BEZUGSACHSEN
100
AcDbLine
 62
7
  6
CONTINUOUS
 10
93.6350172825
 20
169.0213772379
 11
94.0398539653
 21
169.452234544
  0
LINE
  5
6AB
100
AcDbEntity
  8
KONSTRUKTIONSELEMENTE
100
AcDbLine
 62
7
  6
CONTINUOUS
 10
94.0398539653
 20
169.2645486399
 11
93.6350172825
 21
168.8331532719
  0
LINE
  5
6AC
100
AcDbEntity
  8
KONSTRUKTIONSELEMENTE
100
AcDbLine
 62
7
  6
CONTINUOUS
 10
133.7962417062
 20
177.1338781231
 11
134.0472509249
 21
177.6397487625
  0
LINE
  5
6AD
100
AcDbEntity
  8
BEZUGSACHSEN
100
AcDbLine
 62
7
  6
CONTINUOUS
 10
134.0472509249
 20
177.821613844
 11
133.7962417062
 21
177.3158193701
  0
LINE
  5
6AE
100
AcDbEntity
  8
BEZUGSACHSEN
100
AcDbLine
 62
7
  6
CONTINUOUS
 10
91.3130851362
 20
173.697865142
 11
91.6109499314
 21
173.842417313
  0
LINE
  5
6AF
100
AcDbEntity
  8
KONSTRUKTIONSELEMENTE
100
AcDbLine
 62
7
  6
CONTINUOUS
 10
91.6109499314
 20
173.656486867
 11
91.3130851362
 21
173.5117217271
  0
LINE
  5
6B0
100
AcDbEntity
  8
BEZUGSACHSEN
100
AcDbLine
 62
7
  6
CONTINUOUS
 10
91.6109499314
 20
173.842417313
 11
91.9367884642
 21
173.8469316931
  0
LINE
  5
6B1
100
AcDbEntity
  8
KONSTRUKTIONSELEMENTE
100
AcDbLine
 62
7
  6
CONTINUOUS
 10
91.9367884642
 20
173.6611475423
 11
91.6109499314
 21
173.656486867
  0
LINE
  5
6B2
100
AcDbEntity
  8
BEZUGSACHSEN
100
AcDbLine
 62
7
  6
CONTINUOUS
 10
91.9367884642
 20
173.8469316931
 11
92.2906005417
 21
173.7115667618
  0
LINE
  5
6B3
100
AcDbEntity
  8
KONSTRUKTIONSELEMENTE
100
AcDbLine
 62
7
  6
CONTINUOUS
 10
92.2906005417
 20
173.5258637054
 11
91.9367884642
 21
173.6611475423
  0
LINE
  5
6B4
100
AcDbEntity
  8
BEZUGSACHSEN
100
AcDbLine
 62
7
  6
CONTINUOUS
 10
92.2906005417
 20
173.7115667618
 11
92.5769401704
 21
173.505200026
  0
LINE
  5
6B5
100
AcDbEntity
  8
KONSTRUKTIONSELEMENTE
100
AcDbLine
 62
7
  6
CONTINUOUS
 10
92.5769401704
 20
173.3195083698
 11
92.2906005417
 21
173.5258637054
  0
LINE
  5
6B6
100
AcDbEntity
  8
BEZUGSACHSEN
100
AcDbLine
 62
7
  6
CONTINUOUS
 10
92.7958068157
 20
173.2278458527
 11
92.5769401704
 21
173.505200026
  0
LINE
  5
6B7
100
AcDbEntity
  8
KONSTRUKTIONSELEMENTE
100
AcDbLine
 62
7
  6
CONTINUOUS
 10
92.5769401704
 20
173.3195083698
 11
92.7958068157
 21
173.0420934517
  0
LINE
  5
6B8
100
AcDbEntity
  8
BEZUGSACHSEN
100
AcDbLine
 62
7
  6
CONTINUOUS
 10
92.851754098
 20
172.9482184796
 11
92.7958068157
 21
173.2278458527
  0
LINE
  5
6B9
100
AcDbEntity
  8
KONSTRUKTIONSELEMENTE
100
AcDbLine
 62
7
  6
CONTINUOUS
 10
92.7958068157
 20
173.0420934517
 11
92.8238523923
 21
172.9018634032
  0
SPLINE
  5
6BA
100
AcDbEntity
  8
KONSTRUKTIONSELEMENTE
100
AcDbSpline
 62
7
  6
CONTINUOUS
 70
0
 71
3
 72
9
 73
5
 74
0
 42
0.0000001
 43
0.0000001
 44
0.0000000001
 40
0.0
 40
0.0
 40
0.0
 40
0.0
 40
0.5011433233
 40
1.0
 40
1.0
 40
1.0
 40
1.0
 10
96.1696502557
 20
106.4724409738
 30
0.0
 10
96.3526970959
 20
106.9431782332
 30
0.0
 10
96.6506049321
 20
107.9113824994
 30
0.0
 10
96.758899859
 20
108.9217029044
 30
0.0
 10
96.758899859
 20
109.4244722907
 30
0.0
  0
SPLINE
  5
6BB
100
AcDbEntity
  8
KONSTRUKTIONSELEMENTE
100
AcDbSpline
 62
7
  6
CONTINUOUS
 70
0
 71
3
 72
8
 73
4
 74
0
 42
0.0000001
 43
0.0000001
 44
0.0000000001
 40
0.0
 40
0.0
 40
0.0
 40
0.0
 40
1.0
 40
1.0
 40
1.0
 40
1.0
 10
133.7962417062
 20
177.1338781231
 30
0.0
 10
133.6237903982
 20
177.2358112616
 30
0.0
 10
133.4512666924
 20
177.3376220171
 30
0.0
 10
133.2786704487
 20
177.4393095533
 30
0.0
  0
SPLINE
  5
6BC
100
AcDbEntity
  8
BEZUGSACHSEN
100
AcDbSpline
 62
7
  6
CONTINUOUS
 70
0
 71
3
 72
8
 73
4
 74
0
 42
0.0000001
 43
0.0000001
 44
0.0000000001
 40
0.0
 40
0.0
 40
0.0
 40
0.0
 40
1.0
 40
1.0
 40
1.0
 40
1.0
 10
133.2786704487
 20
177.6209141533
 30
0.0
 10
133.4512660206
 20
177.5193378272
 30
0.0
 10
133.6237897364
 20
177.4176393072
 30
0.0
 10
133.7962417062
 20
177.3158193701
 30
0.0
  0
SPLINE
  5
6BD
100
AcDbEntity
  8
KONSTRUKTIONSELEMENTE
100
AcDbSpline
 62
7
  6
CONTINUOUS
 70
0
 71
3
 72
9
 73
5
 74
0
 42
0.0000001
 43
0.0000001
 44
0.0000000001
 40
0.0
 40
0.0
 40
0.0
 40
0.0
 40
0.4988566767
 40
1.0
 40
1.0
 40
1.0
 40
1.0
 10
133.8975535772
 20
109.4244722907
 30
0.0
 10
133.8975535772
 20
108.9217029044
 30
0.0
 10
134.0058485042
 20
107.9113824994
 30
0.0
 10
134.3037563403
 20
106.9431782332
 30
0.0
 10
134.4868031805
 20
106.4724409738
 30
0.0
  0
LINE
  5
6BE
100
AcDbEntity
  8
KONSTRUKTIONSELEMENTE
100
AcDbLine
 62
7
  6
CONTINUOUS
 10
133.3616798537
 20
177.8523220316
 11
133.3019379529
 21
178.0134842839
  0
LINE
  5
6BF
100
AcDbEntity
  8
KONSTRUKTIONSELEMENTE
100
AcDbLine
 62
7
  6
CONTINUOUS
 10
133.3019379529
 20
178.0134842839
 11
133.2708940386
 21
178.0972059166
  0
LINE
  5
6C0
100
AcDbEntity
  8
BEZUGSACHSEN
100
AcDbLine
 62
7
  6
CONTINUOUS
 10
133.2708940386
 20
178.2785818393
 11
133.3947718314
 21
177.9445674504
  0
LINE
  5
6C1
100
AcDbEntity
  8
BEZUGSACHSEN
100
AcDbLine
 62
7
  6
CONTINUOUS
 10
95.4159758834
 20
177.9352557017
 11
97.8953287275
 21
175.3738829095
  0
LINE
  5
6C2
100
AcDbEntity
  8
KONSTRUKTIONSELEMENTE
100
AcDbLine
 62
7
  6
CONTINUOUS
 10
97.8953287275
 20
175.1916484056
 11
95.4159758834
 21
177.7529230175
  0
LINE
  5
6C3
100
AcDbEntity
  8
BEZUGSACHSEN
100
AcDbLine
 62
7
  6
CONTINUOUS
 10
98.1360530952
 20
174.9839749308
 11
97.8953287275
 21
175.3738829095
  0
LINE
  5
6C4
100
AcDbEntity
  8
KONSTRUKTIONSELEMENTE
100
AcDbLine
 62
7
  6
CONTINUOUS
 10
97.8953287275
 20
175.1916484056
 11
98.1360530952
 21
174.8016907754
  0
LINE
  5
6C5
100
AcDbEntity
  8
BEZUGSACHSEN
100
AcDbLine
 62
7
  6
CONTINUOUS
 10
98.2176067178
 20
174.6172163636
 11
98.1360530952
 21
174.9839749308
  0
LINE
  5
6C6
100
AcDbEntity
  8
KONSTRUKTIONSELEMENTE
100
AcDbLine
 62
7
  6
CONTINUOUS
 10
98.1360530952
 20
174.8016907754
 11
98.1973134242
 21
174.5261135608
  0
LINE
  5
6C7
100
AcDbEntity
  8
KONSTRUKTIONSELEMENTE
100
AcDbLine
 62
7
  6
CONTINUOUS
 10
133.2708940386
 20
178.0972059166
 11
132.9933017677
 21
178.3907768854
  0
LINE
  5
6C8
100
AcDbEntity
  8
BEZUGSACHSEN
100
AcDbLine
 62
7
  6
CONTINUOUS
 10
132.9933017677
 20
178.5719407125
 11
133.2708940386
 21
178.2785818393
  0
SPLINE
  5
6C9
100
AcDbEntity
  8
0
100
AcDbSpline
 62
7
  6
CONTINUOUS
 70
0
 71
3
 72
10
 73
6
 74
0
 42
0.0000001
 43
0.0000001
 44
0.0000000001
 40
0.0
 40
0.0
 40
0.0
 40
0.0
 40
0.1206529202
 40
0.3195281317
 40
1.0
 40
1.0
 40
1.0
 40
1.0
 10
147.357987945
 20
111.5094129277
 30
0.0
 10
147.3660037012
 20
111.509411937
 30
0.0
 10
147.3854455749
 20
111.4959218699
 30
0.0
 10
147.4190786715
 20
111.4390989754
 30
0.0
 10
147.4335541308
 20
111.3808048975
 30
0.0
 10
147.441824141
 20
111.3363595969
 30
0.0
  0
SPLINE
  5
6CA
100
AcDbEntity
  8
0
100
AcDbSpline
 62
7
  6
CONTINUOUS
 70
0
 71
3
 72
9
 73
5
 74
0
 42
0.0000001
 43
0.0000001
 44
0.0000000001
 40
0.0
 40
0.0
 40
0.0
 40
0.0
 40
0.2064482119
 40
1.0
 40
1.0
 40
1.0
 40
1.0
 10
147.441824141
 20
111.3363595969
 30
0.0
 10
147.4455806145
 20
111.3161712788
 30
0.0
 10
147.4603542142
 20
111.2177448261
 30
0.0
 10
147.4638776999
 20
111.1179476949
 30
0.0
 10
147.4638776999
 20
111.0390153
 30
0.0
  0
LINE
  5
6CB
100
AcDbEntity
  8
KONSTRUKTIONSELEMENTE
100
AcDbLine
 62
7
  6
CONTINUOUS
 10
132.2169448814
 20
178.845058367
 11
131.804440826
 21
178.9552956129
  0
LINE
  5
6CC
100
AcDbEntity
  8
BEZUGSACHSEN
100
AcDbLine
 62
7
  6
CONTINUOUS
 10
131.804440826
 20
179.1358021411
 11
132.2169448814
 21
179.0257636085
  0
LINE
  5
6CD
100
AcDbEntity
  8
KONSTRUKTIONSELEMENTE
100
AcDbLine
 62
7
  6
CONTINUOUS
 10
131.804440826
 20
178.9552956129
 11
131.4107473613
 21
178.9239750432
  0
LINE
  5
6CE
100
AcDbEntity
  8
BEZUGSACHSEN
100
AcDbLine
 62
7
  6
CONTINUOUS
 10
131.4107473613
 20
179.1043316496
 11
131.804440826
 21
179.1358021411
  0
LINE
  5
6CF
100
AcDbEntity
  8
KONSTRUKTIONSELEMENTE
100
AcDbLine
 62
7
  6
CONTINUOUS
 10
131.4107473613
 20
178.9239750432
 11
131.0358623242
 21
178.7513343554
  0
LINE
  5
6D0
100
AcDbEntity
  8
BEZUGSACHSEN
100
AcDbLine
 62
7
  6
CONTINUOUS
 10
131.0358623242
 20
178.9315868464
 11
131.4107473613
 21
179.1043316496
  0
LINE
  5
6D1
100
AcDbEntity
  8
KONSTRUKTIONSELEMENTE
100
AcDbLine
 62
7
  6
CONTINUOUS
 10
131.0358623242
 20
178.7513343554
 11
130.6797860924
 21
178.4375380921
  0
LINE
  5
6D2
100
AcDbEntity
  8
BEZUGSACHSEN
100
AcDbLine
 62
7
  6
CONTINUOUS
 10
130.6797860924
 20
178.6177309811
 11
131.0358623242
 21
178.9315868464
  0
LINE
  5
6D3
100
AcDbEntity
  8
BEZUGSACHSEN
100
AcDbLine
 62
7
  6
CONTINUOUS
 10
95.5195704825
 20
173.5787217085
 11
93.0402176384
 21
176.1401737477
  0
LINE
  5
6D4
100
AcDbEntity
  8
KONSTRUKTIONSELEMENTE
100
AcDbLine
 62
7
  6
CONTINUOUS
 10
93.0402176384
 20
175.9560591316
 11
95.5195704825
 21
173.3944648206
  0
LINE
  5
6D5
100
AcDbEntity
  8
BEZUGSACHSEN
100
AcDbLine
 62
7
  6
CONTINUOUS
 10
95.5195704825
 20
173.5787217085
 11
95.9986581333
 21
173.2258522961
  0
LINE
  5
6D6
100
AcDbEntity
  8
KONSTRUKTIONSELEMENTE
100
AcDbLine
 62
7
  6
CONTINUOUS
 10
95.9986581333
 20
173.0416416952
 11
95.5195704825
 21
173.3944648206
  0
LINE
  5
6D7
100
AcDbEntity
  8
BEZUGSACHSEN
100
AcDbLine
 62
7
  6
CONTINUOUS
 10
95.9986581333
 20
173.2258522961
 11
96.4769585854
 21
173.015821203
  0
LINE
  5
6D8
100
AcDbEntity
  8
KONSTRUKTIONSELEMENTE
100
AcDbLine
 62
7
  6
CONTINUOUS
 10
96.4769585854
 20
172.8317377177
 11
95.9986581333
 21
173.0416416952
  0
LINE
  5
6D9
100
AcDbEntity
  8
BEZUGSACHSEN
100
AcDbLine
 62
7
  6
CONTINUOUS
 10
96.4769585854
 20
173.015821203
 11
97.1136424998
 21
172.9259394792
  0
LINE
  5
6DA
100
AcDbEntity
  8
KONSTRUKTIONSELEMENTE
100
AcDbLine
 62
7
  6
CONTINUOUS
 10
97.1136424998
 20
172.7421355192
 11
96.4769585854
 21
172.8317377177
  0
LINE
  5
6DB
100
AcDbEntity
  8
BEZUGSACHSEN
100
AcDbLine
 62
7
  6
CONTINUOUS
 10
97.1136424998
 20
172.9259394792
 11
97.5903686339
 21
173.0008247856
  0
LINE
  5
6DC
100
AcDbEntity
  8
KONSTRUKTIONSELEMENTE
100
AcDbLine
 62
7
  6
CONTINUOUS
 10
97.5903686339
 20
172.8173104978
 11
97.1136424998
 21
172.7421355192
  0
LINE
  5
6DD
100
AcDbEntity
  8
BEZUGSACHSEN
100
AcDbLine
 62
7
  6
CONTINUOUS
 10
97.5903686339
 20
173.0008247856
 11
98.0663072728
 21
173.2176508391
  0
LINE
  5
6DE
100
AcDbEntity
  8
KONSTRUKTIONSELEMENTE
100
AcDbLine
 62
7
  6
CONTINUOUS
 10
98.0663072728
 20
173.0344998057
 11
97.5903686339
 21
172.8173104978
  0
LINE
  5
6DF
100
AcDbEntity
  8
BEZUGSACHSEN
100
AcDbLine
 62
7
  6
CONTINUOUS
 10
98.0663072728
 20
173.2176508391
 11
98.3830751596
 21
173.4566295787
  0
LINE
  5
6E0
100
AcDbEntity
  8
KONSTRUKTIONSELEMENTE
100
AcDbLine
 62
7
  6
CONTINUOUS
 10
98.3830751596
 20
173.2737648595
 11
98.0663072728
 21
173.0344998057
  0
LINE
  5
6E1
100
AcDbEntity
  8
BEZUGSACHSEN
100
AcDbLine
 62
7
  6
CONTINUOUS
 10
98.3830751596
 20
173.4566295787
 11
98.6990555582
 21
173.8372547785
  0
LINE
  5
6E2
100
AcDbEntity
  8
KONSTRUKTIONSELEMENTE
100
AcDbLine
 62
7
  6
CONTINUOUS
 10
98.6990555582
 20
173.6547376727
 11
98.3830751596
 21
173.2737648595
  0
LINE
  5
6E3
100
AcDbEntity
  8
BEZUGSACHSEN
100
AcDbLine
 62
7
  6
CONTINUOUS
 10
98.6990555582
 20
173.8372547785
 11
98.8558651977
 21
174.2403447934
  0
LINE
  5
6E4
100
AcDbEntity
  8
KONSTRUKTIONSELEMENTE
100
AcDbLine
 62
7
  6
CONTINUOUS
 10
98.8558651977
 20
174.0580928017
 11
98.6990555582
 21
173.6547376727
  0
SPLINE
  5
6E5
100
AcDbEntity
  8
0
100
AcDbSpline
 62
7
  6
CONTINUOUS
 70
0
 71
3
 72
24
 73
20
 74
0
 42
0.0000001
 43
0.0000001
 44
0.0000000001
 40
0.0
 40
0.0
 40
0.0
 40
0.0
 40
0.2031614152
 40
0.3934917371
 40
0.5654419626
 40
0.6429204409
 40
0.7139601248
 40
0.7780414883
 40
0.8346888979
 40
0.8834919178
 40
0.9240882182
 40
0.9412182311
 40
0.9561933538
 40
0.9689856566
 40
0.9795783084
 40
0.9879588656
 40
0.9941213877
 40
0.998086866
 40
1.0
 40
1.0
 40
1.0
 40
1.0
 10
133.3637576821
 20
100.2599811101
 30
0.0
 10
133.311778891
 20
99.2747340736
 30
0.0
 10
133.2137734316
 20
97.3663226799
 30
0.0
 10
133.0822373546
 20
94.6235013423
 30
0.0
 10
132.9890002862
 20
92.4899156938
 30
0.0
 10
132.9280755323
 20
90.9348085591
 30
0.0
 10
132.8913212052
 20
89.9030084613
 30
0.0
 10
132.8622025006
 20
88.9721714248
 30
0.0
 10
132.840973039
 20
88.1491372237
 30
0.0
 10
132.8277969473
 20
87.440006766
 30
0.0
 10
132.8232759389
 20
86.9226615621
 30
0.0
 10
132.8243957068
 20
86.5696112498
 30
0.0
 10
132.8272442357
 20
86.351556257
 30
0.0
 10
132.8321114213
 20
86.1654207014
 30
0.0
 10
132.8389466102
 20
86.0110242986
 30
0.0
 10
132.847623736
 20
85.8899610065
 30
0.0
 10
132.857985806
 20
85.7989345476
 30
0.0
 10
132.8694697675
 20
85.7448078788
 30
0.0
 10
132.8806547483
 20
85.71377916
 30
0.0
 10
132.889208519
 20
85.7101526091
 30
0.0
  0
LINE
  5
6E6
100
AcDbEntity
  8
KONSTRUKTIONSELEMENTE
100
AcDbLine
 62
7
  6
CONTINUOUS
 10
130.6797860924
 20
178.4375380921
 11
129.6679772288
 21
177.0729593459
  0
LINE
  5
6E7
100
AcDbEntity
  8
BEZUGSACHSEN
100
AcDbLine
 62
7
  6
CONTINUOUS
 10
129.6679772288
 20
177.2531065446
 11
130.6797860924
 21
178.6177309811
  0
LINE
  5
6E8
100
AcDbEntity
  8
KONSTRUKTIONSELEMENTE
100
AcDbLine
 62
7
  6
CONTINUOUS
 10
129.484422117
 20
176.6590165809
 11
129.6679772288
 21
177.0729593459
  0
LINE
  5
6E9
100
AcDbEntity
  8
BEZUGSACHSEN
100
AcDbLine
 62
7
  6
CONTINUOUS
 10
129.6679772288
 20
177.2531065446
 11
129.484422117
 21
176.8392033745
  0
LINE
  5
6EA
100
AcDbEntity
  8
KONSTRUKTIONSELEMENTE
100
AcDbLine
 62
7
  6
CONTINUOUS
 10
129.4664549362
 20
176.4343689439
 11
129.4769272484
 21
176.565311146
  0
LINE
  5
6EB
100
AcDbEntity
  8
KONSTRUKTIONSELEMENTE
100
AcDbLine
 62
7
  6
CONTINUOUS
 10
129.4769272484
 20
176.565311146
 11
129.484422117
 21
176.6590165809
  0
LINE
  5
6EC
100
AcDbEntity
  8
BEZUGSACHSEN
100
AcDbLine
 62
7
  6
CONTINUOUS
 10
100.3222117787
 20
174.8495576837
 11
97.4148627677
 21
179.2708804761
  0
LINE
  5
6ED
100
AcDbEntity
  8
KONSTRUKTIONSELEMENTE
100
AcDbLine
 62
7
  6
CONTINUOUS
 10
97.4148627677
 20
179.0898327577
 11
100.3222117787
 21
174.6682982198
  0
LINE
  5
6EE
100
AcDbEntity
  8
BEZUGSACHSEN
100
AcDbLine
 62
7
  6
CONTINUOUS
 10
129.484422117
 20
176.8392033745
 11
129.4545834576
 21
176.4662015298
  0
LINE
  5
6EF
100
AcDbEntity
  8
KONSTRUKTIONSELEMENTE
100
AcDbLine
 62
7
  6
CONTINUOUS
 10
132.1731160451
 20
176.1299766432
 11
132.0727995438
 21
176.1890503116
  0
SPLINE
  5
6F0
100
AcDbEntity
  8
KONSTRUKTIONSELEMENTE
100
AcDbSpline
 62
7
  6
CONTINUOUS
 70
0
 71
3
 72
8
 73
4
 74
0
 42
0.0000001
 43
0.0000001
 44
0.0000000001
 40
0.0
 40
0.0
 40
0.0
 40
0.0
 40
1.0
 40
1.0
 40
1.0
 40
1.0
 10
132.0727995438
 20
176.1890503116
 30
0.0
 10
131.8787989856
 20
176.3032535115
 30
0.0
 10
131.6847007517
 20
176.4172909504
 30
0.0
 10
131.4905047932
 20
176.5311615663
 30
0.0
  0
LINE
  5
6F1
100
AcDbEntity
  8
KONSTRUKTIONSELEMENTE
100
AcDbLine
 62
7
  6
CONTINUOUS
 10
132.1773475811
 20
174.9502592301
 11
133.1891564447
 21
176.3150341903
  0
LINE
  5
6F2
100
AcDbEntity
  8
BEZUGSACHSEN
100
AcDbLine
 62
7
  6
CONTINUOUS
 10
99.9191061916
 20
179.8208336455
 11
100.3364797566
 21
179.9110045533
  0
LINE
  5
6F3
100
AcDbEntity
  8
KONSTRUKTIONSELEMENTE
100
AcDbLine
 62
7
  6
CONTINUOUS
 10
100.3364797566
 20
179.7312796168
 11
99.9191061916
 21
179.6409276433
  0
LINE
  5
6F4
100
AcDbEntity
  8
BEZUGSACHSEN
100
AcDbLine
 62
7
  6
CONTINUOUS
 10
100.3364797566
 20
179.9110045533
 11
100.7268332873
 21
179.86077174
  0
LINE
  5
6F5
100
AcDbEntity
  8
KONSTRUKTIONSELEMENTE
100
AcDbLine
 62
7
  6
CONTINUOUS
 10
100.7268332873
 20
179.6811831595
 11
100.3364797566
 21
179.7312796168
  0
LINE
  5
6F6
100
AcDbEntity
  8
BEZUGSACHSEN
100
AcDbLine
 62
7
  6
CONTINUOUS
 10
100.7268332873
 20
179.86077174
 11
101.0901669572
 21
179.6703685368
  0
LINE
  5
6F7
100
AcDbEntity
  8
KONSTRUKTIONSELEMENTE
100
AcDbLine
 62
7
  6
CONTINUOUS
 10
101.0901669572
 20
179.4908745856
 11
100.7268332873
 21
179.6811831595
  0
LINE
  5
6F8
100
AcDbEntity
  8
BEZUGSACHSEN
100
AcDbLine
 62
7
  6
CONTINUOUS
 10
101.0901669572
 20
179.6703685368
 11
101.4264794025
 21
179.3399576795
  0
LINE
  5
6F9
100
AcDbEntity
  8
KONSTRUKTIONSELEMENTE
100
AcDbLine
 62
7
  6
CONTINUOUS
 10
101.4264794025
 20
179.1605180009
 11
101.0901669572
 21
179.4908745856
  0
LINE
  5
6FA
100
AcDbEntity
  8
BEZUGSACHSEN
100
AcDbLine
 62
7
  6
CONTINUOUS
 10
101.4264794025
 20
179.3399576795
 11
102.3282266861
 21
177.968712046
  0
LINE
  5
6FB
100
AcDbEntity
  8
KONSTRUKTIONSELEMENTE
100
AcDbLine
 62
7
  6
CONTINUOUS
 10
102.3282266919
 20
177.789313626
 11
101.4264794025
 21
179.1605180009
  0
LINE
  5
6FC
100
AcDbEntity
  8
BEZUGSACHSEN
100
AcDbLine
 62
7
  6
CONTINUOUS
 10
133.1891564447
 20
176.4970148641
 11
132.1773475811
 21
175.1323128843
  0
LINE
  5
6FD
100
AcDbEntity
  8
KONSTRUKTIONSELEMENTE
100
AcDbLine
 62
7
  6
CONTINUOUS
 10
128.428258298
 20
180.5207837851
 11
128.37695182
 21
180.6714601374
  0
LINE
  5
6FE
100
AcDbEntity
  8
KONSTRUKTIONSELEMENTE
100
AcDbLine
 62
7
  6
CONTINUOUS
 10
128.37695182
 20
180.6714601374
 11
128.3536459954
 21
180.7398926741
  0
LINE
  5
6FF
100
AcDbEntity
  8
BEZUGSACHSEN
100
AcDbLine
 62
7
  6
CONTINUOUS
 10
128.3536459954
 20
180.9187028811
 11
128.4465156999
 21
180.6460475604
  0
LINE
  5
700
100
AcDbEntity
  8
BEZUGSACHSEN
100
AcDbLine
 62
7
  6
CONTINUOUS
 10
128.3282273691
 20
179.2986520691
 11
128.533995514
 21
179.425900252
  0
LINE
  5
701
100
AcDbEntity
  8
KONSTRUKTIONSELEMENTE
100
AcDbLine
 62
7
  6
CONTINUOUS
 10
128.533995514
 20
179.2467422424
 11
128.328227365
 21
179.1195448368
  0
LINE
  5
702
100
AcDbEntity
  8
BEZUGSACHSEN
100
AcDbLine
 62
7
  6
CONTINUOUS
 10
128.533995514
 20
179.425900252
 11
128.7715627662
 21
179.6908200702
  0
LINE
  5
703
100
AcDbEntity
  8
KONSTRUKTIONSELEMENTE
100
AcDbLine
 62
7
  6
CONTINUOUS
 10
128.7715627662
 20
179.5116282914
 11
128.533995514
 21
179.2467422424
  0
LINE
  5
704
100
AcDbEntity
  8
BEZUGSACHSEN
100
AcDbLine
 62
7
  6
CONTINUOUS
 10
128.9626942218
 20
180.0922987508
 11
128.7715627662
 21
179.6908200702
  0
LINE
  5
705
100
AcDbEntity
  8
KONSTRUKTIONSELEMENTE
100
AcDbLine
 62
7
  6
CONTINUOUS
 10
128.7715627662
 20
179.5116282914
 11
128.9626942218
 21
179.9131186542
  0
LINE
  5
706
100
AcDbEntity
  8
BEZUGSACHSEN
100
AcDbLine
 62
7
  6
CONTINUOUS
 10
129.0118239522
 20
180.4295788855
 11
128.9626942218
 21
180.0922987508
  0
LINE
  5
707
100
AcDbEntity
  8
KONSTRUKTIONSELEMENTE
100
AcDbLine
 62
7
  6
CONTINUOUS
 10
128.9626942218
 20
179.9131186542
 11
129.0118239522
 21
180.2504482291
  0
LINE
  5
708
100
AcDbEntity
  8
KONSTRUKTIONSELEMENTE
100
AcDbLine
 62
7
  6
CONTINUOUS
 10
128.3536459954
 20
180.7398926741
 11
128.3282263625
 21
180.7624349903
  0
LINE
  5
709
100
AcDbEntity
  8
BEZUGSACHSEN
100
AcDbLine
 62
7
  6
CONTINUOUS
 10
128.3282263635
 20
180.9412326303
 11
128.3536459954
 21
180.9187028811
  0
ELLIPSE
  5
70A
100
AcDbEntity
  8
0
100
AcDbEllipse
 62
7
  6
CONTINUOUS
 10
518.266993762
 20
119.9892931864
 30
0.0
 11
-8.0107595842
 21
19.8000961013
 31
0.0
 40
0.1404528969
 41
-2.0714148455
 42
-1.8176885507
  0
ELLIPSE
  5
70B
100
AcDbEntity
  8
0
100
AcDbEllipse
 62
7
  6
CONTINUOUS
 10
521.4332781548
 20
112.1474807653
 30
0.0
 11
-1.6065414156
 21
3.2020585789
 31
0.0
 40
0.8362247574
 41
-2.5405585317
 42
-2.1635405839
  0
ELLIPSE
  5
70C
100
AcDbEntity
  8
RUNDUNGEN
100
AcDbEllipse
 62
7
  6
CONTINUOUS
 10
534.8361281653
 20
117.0257192235
 30
0.0
 11
-0.827561456
 21
3.4855840973
 31
0.0
 40
0.8362247574
 41
-4.1196447232
 42
-3.7426267755
  0
ELLIPSE
  5
70D
100
AcDbEntity
  8
RUNDUNGEN
100
AcDbEllipse
 62
7
  6
CONTINUOUS
 10
532.2210228679
 20
125.0681444291
 30
0.0
 11
-6.5906585799
 21
20.3169705965
 31
0.0
 40
0.1404528969
 41
-4.4654967564
 42
-4.2117704617
  0
ELLIPSE
  5
70E
100
AcDbEntity
  8
0
100
AcDbEllipse
 62
7
  6
CONTINUOUS
 10
463.4738036429
 20
112.1474807653
 30
0.0
 11
1.6065414156
 21
3.2020585789
 31
0.0
 40
0.8362247574
 41
-4.1196447232
 42
-3.7426267755
  0
ELLIPSE
  5
70F
100
AcDbEntity
  8
0
100
AcDbEllipse
 62
7
  6
CONTINUOUS
 10
466.6400880356
 20
119.9892931864
 30
0.0
 11
8.0107595842
 21
19.8000961013
 31
0.0
 40
0.1404528969
 41
-4.4654967564
 42
-4.2117704617
  0
ELLIPSE
  5
710
100
AcDbEntity
  8
RUNDUNGEN
100
AcDbEllipse
 62
7
  6
CONTINUOUS
 10
450.0709536324
 20
117.0257192235
 30
0.0
 11
0.827561456
 21
3.4855840973
 31
0.0
 40
0.8362247574
 41
-2.5405585317
 42
-2.1635405839
  0
ELLIPSE
  5
711
100
AcDbEntity
  8
RUNDUNGEN
100
AcDbEllipse
 62
7
  6
CONTINUOUS
 10
452.6860589297
 20
125.0681444291
 30
0.0
 11
6.5906585799
 21
20.3169705965
 31
0.0
 40
0.1404528969
 41
-2.0714148455
 42
-1.8176885507
  0
ELLIPSE
  5
712
100
AcDbEntity
  8
KONSTRUKTIONSELEMENTE
100
AcDbEllipse
 62
7
  6
CONTINUOUS
 10
74.7513859885
 20
107.6983170373
 30
0.0
 11
2.0955922615
 21
-0.520640272
 31
0.0
 40
0.576671595
 41
0.7252988105
 42
2.2960951373
  0
ELLIPSE
  5
713
100
AcDbEntity
  8
0
100
AcDbEllipse
 62
7
  6
CONTINUOUS
 10
150.3282267181
 20
112.1474807653
 30
0.0
 11
2.9554597299
 21
3.4442223202
 31
0.0
 40
0.1495350128
 41
-4.3892742733
 42
-4.0122563255
  0
ELLIPSE
  5
714
100
AcDbEntity
  8
0
100
AcDbEllipse
 62
7
  6
CONTINUOUS
 10
150.3282267181
 20
119.9892931864
 30
0.0
 11
2.9961549491
 21
19.8320247779
 31
0.0
 40
0.007656326
 41
-4.5211037137
 42
-4.2673774189
  0
ELLIPSE
  5
715
100
AcDbEntity
  8
0
100
AcDbEllipse
 62
7
  6
CONTINUOUS
 10
80.3282267181
 20
119.9892931864
 30
0.0
 11
-2.9961549491
 21
19.8320247779
 31
0.0
 40
0.007656326
 41
-2.0158078883
 42
-1.7620815935
  0
ELLIPSE
  5
716
100
AcDbEntity
  8
0
100
AcDbEllipse
 62
7
  6
CONTINUOUS
 10
80.3282267181
 20
112.1474807653
 30
0.0
 11
-2.9554597299
 21
3.4442223202
 31
0.0
 40
0.1495350128
 41
-2.2709289817
 42
-1.8939110339
  0
ELLIPSE
  5
717
100
AcDbEntity
  8
RUNDUNGEN
100
AcDbEllipse
 62
7
  6
CONTINUOUS
 10
80.3282267181
 20
117.0257192235
 30
0.0
 11
-2.9558179535
 21
3.5275261689
 31
0.0
 40
0.1454197445
 41
-4.0449072614
 42
-3.6678893136
  0
ELLIPSE
  5
718
100
AcDbEntity
  8
RUNDUNGEN
100
AcDbEllipse
 62
7
  6
CONTINUOUS
 10
80.3282267181
 20
125.0681444291
 30
0.0
 11
-2.9963359967
 21
20.3380356824
 31
0.0
 40
0.0072880594
 41
-4.421040202
 42
-4.1673139073
  0
ELLIPSE
  5
719
100
AcDbEntity
  8
KONSTRUKTIONSELEMENTE
100
AcDbEllipse
 62
7
  6
CONTINUOUS
 10
115.3282267181
 20
124.7551829179
 30
0.0
 11
7.1
 21
0.0
 31
0.0
 40
0.742227199
 41
0.0
 42
0.0140849727
  0
ELLIPSE
  5
71A
100
AcDbEntity
  8
KONSTRUKTIONSELEMENTE
100
AcDbEllipse
 62
7
  6
CONTINUOUS
 10
115.3282267181
 20
124.7551829179
 30
0.0
 11
7.1
 21
-0.0
 31
0.0
 40
0.742227199
 41
3.1275076808
 42
3.1415926536
  0
ELLIPSE
  5
71B
100
AcDbEntity
  8
KONSTRUKTIONSELEMENTE
100
AcDbEllipse
 62
7
  6
CONTINUOUS
 10
115.3282267181
 20
66.5669734035
 30
0.0
 11
-0.0
 21
57.8508848718
 31
0.0
 40
0.7778619134
 41
-0.346223333
 42
-0.1584398369
  0
ELLIPSE
  5
71C
100
AcDbEntity
  8
KONSTRUKTIONSELEMENTE
100
AcDbEllipse
 62
7
  6
CONTINUOUS
 10
115.3282267181
 20
66.5669734035
 30
0.0
 11
-0.0
 21
57.8508848718
 31
0.0
 40
0.7778619134
 41
0.1584398369
 42
0.346223333
  0
ELLIPSE
  5
71D
100
AcDbEntity
  8
RUNDUNGEN
100
AcDbEllipse
 62
7
  6
CONTINUOUS
 10
150.3282267181
 20
117.0257192235
 30
0.0
 11
2.9558179535
 21
3.5275261689
 31
0.0
 40
0.1454197445
 41
-2.6152959936
 42
-2.2382780458
  0
ELLIPSE
  5
71E
100
AcDbEntity
  8
RUNDUNGEN
100
AcDbEllipse
 62
7
  6
CONTINUOUS
 10
150.3282267181
 20
125.0681444291
 30
0.0
 11
2.9963359967
 21
20.3380356824
 31
0.0
 40
0.0072880594
 41
-2.1158713999
 42
-1.8621451051
  0
ENDSEC
  0
SECTION
  2
OBJECTS
  0
DICTIONARY
  5
C
100
AcDbDictionary
280
0
281
1
  3
ACAD_GROUP
350
D
  3
ACAD_MLINESTYLE
350
17
  3
ACAD_LAYOUT
350
1A
  3
ACAD_PLOTSETTINGS
350
19
  3
ACAD_PLOTSTYLENAME
350
E
  0
DICTIONARY
  5
D
102
{ACAD_REACTORS
330
C
102
}
100
AcDbDictionary
280
0
281
1
  0
ACDBDICTIONARYWDFLT
  5
E
102
{ACAD_REACTORS
330
C
102
}
100
AcDbDictionary
281
1
  3
Normal
350
F
100
AcDbDictionaryWithDefault
340
F
  0
DICTIONARY
  5
17
102
{ACAD_REACTORS
330
C
102
}
100
AcDbDictionary
280
0
281
1
  3
Standard
350
18
  0
DICTIONARY
  5
19
102
{ACAD_REACTORS
330
C
102
}
100
AcDbDictionary
281
1
  0
DICTIONARY
  5
1A
102
{ACAD_REACTORS
330
C
102
}
100
AcDbDictionary
281
1
  3
Model
350
71F
  3
Layout1
350
720
  0
ACDBPLACEHOLDER
  5
F
102
{ACAD_REACTORS
330
E
102
}
  0
MLINESTYLE
  5
18
102
{ACAD_REACTORS
330
17
102
}
100
AcDbMlineStyle
  2
STANDARD
 70
0
  3

 62
256
 51
90.0
 52
90.0
 71
2
 49
0.5
 62
256
  6
BYLAYER
 49
-0.5
 62
256
  6
BYLAYER
  0
LAYOUT
  5
71F
102
{ACAD_REACTORS
330
1A
102
}
100
AcDbPlotSettings
  1

  2
none_device
  4
ISO_A2_(594.00_x_420.00_MM)
  6

 40
0.0
 41
0.0
 42
0.0
 43
0.0
 44
594.0
 45
420.0
 46
0.0
 47
0.0
 48
0.0
 49
0.0
140
0.0
141
0.0
142
1.0
143
1.0
 70
1024
 72
1
 73
0
 74
0
  7

 75
0
147
1.0
148
0.0
149
0.0
100
AcDbLayout
  1
Model
 70
0
 71
0
 10
0.0
 20
0.0
 11
594.0
 21
420.0
 12
0.0
 22
0.0
 32
0.0
 14
0.0
 24
0.0
 34
0.0
 15
0.0
 25
0.0
 35
0.0
146
0.0
 13
0.0
 23
0.0
 33
0.0
 16
1.0
 26
0.0
 36
0.0
 17
0.0
 27
1.0
 37
0.0
 76
0
330
20C
345
0
346
0
  0
LAYOUT
  5
720
102
{ACAD_REACTORS
330
1A
102
}
100
AcDbPlotSettings
  1

  2
none_device
  4
ISO_A2_(594.00_x_420.00_MM)
  6

 40
0.0
 41
0.0
 42
0.0
 43
0.0
 44
594.0
 45
420.0
 46
0.0
 47
0.0
 48
0.0
 49
0.0
140
0.0
141
0.0
142
1.0
143
1.0
 70
0
 72
1
 73
0
 74
0
  7

 75
0
147
1.0
148
0.0
149
0.0
100
AcDbLayout
  1
Layout1
 70
0
 71
1
 10
0.0
 20
0.0
 11
594.0
 21
420.0
 12
0.0
 22
0.0
 32
0.0
 14
0.0
 24
0.0
 34
0.0
 15
0.0
 25
0.0
 35
0.0
146
0.0
 13
0.0
 23
0.0
 33
0.0
 16
1.0
 26
0.0
 36
0.0
 17
0.0
 27
1.0
 37
0.0
 76
0
330
20D
345
0
346
0
  0
ENDSEC
  0
EOF
