999
DXF file: VAK-2-10_7100708_M34479-P-3.dxf
999
Pro/ENGINEER 2010140 by Parametric Technology Corporation
  0
SECTION
  2
HEADER
  9
$ACADVER
  1
AC1015
  9
$DWGCODEPAGE
  3
ANSI_1252
  9
$EXTMAX
 10
594.0
 20
420.0
 30
0.0
  9
$EXTMIN
 10
0.0
 20
0.0
 30
0.0
  9
$LIMMIN
 10
0.0
 20
0.0
  9
$LIMMAX
 10
594.0
 20
420.0
  9
$VIEWCTR
 10
297.0
 20
210.0
  9
$VIEWSIZE
 40
420.0
  9
$CLAYER
  8
0
  9
$LTSCALE
 40
32.67
  9
$CELTYPE
  6
BYLAYER
  9
$DIMSCALE
 40
1.0
  9
$DIMASZ
 40
3.5
  9
$DIMEXO
 40
3.7125
  9
$DIMDLI
 40
22.572
  9
$DIMEXE
 40
10.692
  9
$DIMCEN
 40
5.346
  9
$DIMLFAC
 40
1.0
  9
$DIMBLK
  1
_FILLED
  9
$DIMTXT
 40
3.5
  9
$DIMTOL
 70
1
  9
$DIMLIM
 70
0
  9
$DIMTFAC
 40
1.0
  9
$DIMTP
 40
0.005
  9
$DIMTM
 40
0.005
  9
$PDMODE
 70
3
  9
$PDSIZE
 40
0.3125
  9
$HANDSEED
  5
70E
  9
$TILEMODE
 70
1
  9
$MEASUREMENT
 70
1
  9
$INSUNITS
 70
4
  0
ENDSEC
  0
SECTION
  2
CLASSES
  0
CLASS
  1
ACDBDICTIONARYWDFLT
  2
AcDbDictionaryWithDefault
  3
AutoCAD 2000
 90
0
280
0
281
0
  0
CLASS
  1
ACDBPLACEHOLDER
  2
AcDbPlaceHolder
  3
AutoCAD 2000
 90
0
280
0
281
0
  0
CLASS
  1
LAYOUT
  2
AcDbLayout
  3
AutoCAD 2000
 90
0
280
0
281
0
  0
ENDSEC
  0
SECTION
  2
TABLES
  0
TABLE
  2
VPORT
  5
8
100
AcDbSymbolTable
 70
2
  0
VPORT
  5
1F4
100
AcDbSymbolTableRecord
100
AcDbViewportTableRecord
  2
*ACTIVE
 70
0
 10
0.0
 20
0.0
 11
1.0
 21
1.0
 12
297.0
 22
210.0
 13
0.0
 23
0.0
 14
1.0
 24
1.0
 15
0.0
 25
0.0
 16
0.0
 26
0.0
 36
1.0
 17
0.0
 27
0.0
 37
0.0
 40
420.0
 41
1.4142857143
 42
50.0
 43
0.0
 44
0.0
 50
0.0
 51
0.0
 71
0
 72
100
 73
1
 74
1
 75
0
 76
0
 77
0
 78
0
  0
ENDTAB
  0
TABLE
  2
LTYPE
  5
5
100
AcDbSymbolTable
 70
6
  0
LTYPE
  5
14
100
AcDbSymbolTableRecord
100
AcDbLinetypeTableRecord
  2
BYBLOCK
 70
0
  3

 72
65
 73
0
 40
0.0
  0
LTYPE
  5
15
100
AcDbSymbolTableRecord
100
AcDbLinetypeTableRecord
  2
BYLAYER
 70
0
  3

 72
65
 73
0
 40
0.0
  0
LTYPE
  5
16
100
AcDbSymbolTableRecord
100
AcDbLinetypeTableRecord
  2
CONTINUOUS
 70
64
  3
Solid line
 72
65
 73
0
 40
0.0
  0
LTYPE
  5
1F5
100
AcDbSymbolTableRecord
100
AcDbLinetypeTableRecord
  2
CENTER
 70
64
  3
____ _ ____ _ ____ _ ____ _ ____ _ ____ _ ____
 72
65
 73
4
 40
0.6
 49
0.375
 74
0
 49
-0.075
 74
0
 49
0.075
 74
0
 49
-0.075
 74
0
  0
LTYPE
  5
1F6
100
AcDbSymbolTableRecord
100
AcDbLinetypeTableRecord
  2
HIDDEN
 70
64
  3
- - - - - - - - - - - - - - - - - - - -
 72
65
 73
2
 40
0.2
 49
0.1
 74
0
 49
-0.1
 74
0
  0
LTYPE
  5
1F7
100
AcDbSymbolTableRecord
100
AcDbLinetypeTableRecord
  2
PHANTOM
 70
64
  3
_____ _ _ _____ _ _ _____ _ _ _____
 72
65
 73
6
 40
0.8
 49
0.45
 74
0
 49
-0.05
 74
0
 49
0.1
 74
0
 49
-0.05
 74
0
 49
0.1
 74
0
 49
-0.05
 74
0
  0
LTYPE
  5
1F8
100
AcDbSymbolTableRecord
100
AcDbLinetypeTableRecord
  2
DOT
 70
64
  3
. . . . . . . . . . . . . . . . . . . .
 72
65
 73
2
 40
0.2
 49
0.1
 74
0
 49
-0.1
 74
0
  0
LTYPE
  5
1F9
100
AcDbSymbolTableRecord
100
AcDbLinetypeTableRecord
  2
DASHED
 70
64
  3
- - - - - - - - - - - - - - - - - - - -
 72
65
 73
2
 40
0.2
 49
0.1
 74
0
 49
-0.1
 74
0
  0
ENDTAB
  0
TABLE
  2
LAYER
  5
2
100
AcDbSymbolTable
 70
36
  0
LAYER
  5
10
100
AcDbSymbolTableRecord
100
AcDbLayerTableRecord
  2
0
 70
0
 62
7
  6
CONTINUOUS
370
-3
390
F
  0
LAYER
  5
1FA
100
AcDbSymbolTableRecord
100
AcDbLayerTableRecord
  2
DEFAULT_1
 70
0
 62
7
  6
CENTER
370
-3
390
F
  0
LAYER
  5
1FB
100
AcDbSymbolTableRecord
100
AcDbLayerTableRecord
  2
DEFAULT_2
 70
0
 62
8
  6
HIDDEN
370
-3
390
F
  0
LAYER
  5
1FC
100
AcDbSymbolTableRecord
100
AcDbLayerTableRecord
  2
DEFAULT_3
 70
0
 62
7
  6
PHANTOM
370
-3
390
F
  0
LAYER
  5
1FD
100
AcDbSymbolTableRecord
100
AcDbLayerTableRecord
  2
AUSFORMSCHRAEGEN
 70
0
 62
7
  6
CONTINUOUS
370
-3
390
F
  0
LAYER
  5
1FE
100
AcDbSymbolTableRecord
100
AcDbLayerTableRecord
  2
BEZUGSACHSEN
 70
0
 62
7
  6
CONTINUOUS
370
-3
390
F
  0
LAYER
  5
1FF
100
AcDbSymbolTableRecord
100
AcDbLayerTableRecord
  2
BEZUGSEBENEN
 70
0
 62
7
  6
CONTINUOUS
370
-3
390
F
  0
LAYER
  5
200
100
AcDbSymbolTableRecord
100
AcDbLayerTableRecord
  2
BG_STARTBEZUEGE
 70
0
 62
7
  6
CONTINUOUS
370
-3
390
F
  0
LAYER
  5
201
100
AcDbSymbolTableRecord
100
AcDbLayerTableRecord
  2
FASEN
 70
0
 62
7
  6
CONTINUOUS
370
-3
390
F
  0
LAYER
  5
202
100
AcDbSymbolTableRecord
100
AcDbLayerTableRecord
  2
FLAECHEN
 70
0
 62
7
  6
CONTINUOUS
370
-3
390
F
  0
LAYER
  5
203
100
AcDbSymbolTableRecord
100
AcDbLayerTableRecord
  2
HILFEN
 70
0
 62
7
  6
CONTINUOUS
370
-3
390
F
  0
LAYER
  5
204
100
AcDbSymbolTableRecord
100
AcDbLayerTableRecord
  2
KONSTRUKTIONSELEMENTE
 70
0
 62
7
  6
CONTINUOUS
370
-3
390
F
  0
LAYER
  5
205
100
AcDbSymbolTableRecord
100
AcDbLayerTableRecord
  2
PLATZIERUNG
 70
0
 62
7
  6
CONTINUOUS
370
-3
390
F
  0
LAYER
  5
206
100
AcDbSymbolTableRecord
100
AcDbLayerTableRecord
  2
PLAZIERUNG
 70
0
 62
7
  6
CONTINUOUS
370
-3
390
F
  0
LAYER
  5
207
100
AcDbSymbolTableRecord
100
AcDbLayerTableRecord
  2
RUNDUNGEN
 70
0
 62
7
  6
CONTINUOUS
370
-3
390
F
  0
LAYER
  5
208
100
AcDbSymbolTableRecord
100
AcDbLayerTableRecord
  2
TEIL_STARTBEZUEGE
 70
0
 62
7
  6
CONTINUOUS
370
-3
390
F
  0
LAYER
  5
209
100
AcDbSymbolTableRecord
100
AcDbLayerTableRecord
  2
T_STARTBEZUEGE
 70
0
 62
7
  6
CONTINUOUS
370
-3
390
F
  0
LAYER
  5
20A
100
AcDbSymbolTableRecord
100
AcDbLayerTableRecord
  2
ZEICHNUNGSBEMASSUNGEN
 70
0
 62
7
  6
CONTINUOUS
370
-3
390
F
  0
ENDTAB
  0
TABLE
  2
STYLE
  5
3
100
AcDbSymbolTable
 70
1
  0
STYLE
  5
11
100
AcDbSymbolTableRecord
100
AcDbTextStyleTableRecord
  2
STANDARD
 70
0
 40
0.0
 41
0.7
 50
0.0
 71
0
 42
0.2
  3
txt
  4

  0
STYLE
  5
20B
100
AcDbSymbolTableRecord
100
AcDbTextStyleTableRecord
  2
TEXTSTYLE_1
 70
0
 40
0.0
 41
0.8
 50
0.0
 71
0
 42
0.2
  3
gdt
  4

  0
ENDTAB
  0
TABLE
  2
VIEW
  5
6
100
AcDbSymbolTable
 70
0
  0
ENDTAB
  0
TABLE
  2
UCS
  5
7
100
AcDbSymbolTable
 70
0
  0
ENDTAB
  0
TABLE
  2
APPID
  5
9
100
AcDbSymbolTable
 70
1
  0
APPID
  5
20C
100
AcDbSymbolTableRecord
100
AcDbRegAppTableRecord
  2
ACAD
 70
0
  0
ENDTAB
  0
TABLE
  2
BLOCK_RECORD
  5
1
100
AcDbSymbolTable
 70
0
  0
BLOCK_RECORD
  5
20D
100
AcDbSymbolTableRecord
100
AcDbBlockTableRecord
  2
*Model_Space
  0
BLOCK_RECORD
  5
20E
100
AcDbSymbolTableRecord
100
AcDbBlockTableRecord
  2
*Paper_Space
  0
ENDTAB
  0
TABLE
  2
DIMSTYLE
  5
A
100
AcDbSymbolTable
 70
1
100
AcDbDimStyleTable
 71
0
  0
DIMSTYLE
105
20F
100
AcDbSymbolTableRecord
100
AcDbDimStyleTableRecord
  2
STANDARD
 70
0
  3

  4

 40
1.0
 41
3.5
 42
0.0625
 43
0.38
 44
0.18
 45
0.0
 46
0.0
 47
0.005
 48
0.005
140
3.5
141
0.09
142
0.0
143
25.4
144
1.0
145
0.0
146
1.0
147
0.09
 71
1.0
 72
0.0
 73
0
 74
0
 75
0
 76
0
 77
1
 78
8
170
0
171
2
172
0
173
0
174
0
175
0
176
0
177
0
178
5
270
2
271
3
272
3
273
2
274
2
275
0
280
0
281
0
282
0
283
1
284
8
285
0
286
0
287
3
288
0
340
11
  0
ENDTAB
  0
ENDSEC
  0
SECTION
  2
BLOCKS
  0
BLOCK
  5
20
100
AcDbEntity
  8
0
100
AcDbBlockBegin
  2
*Model_Space
 70
0
 10
0.0
 20
0.0
 30
0.0
  3
*Model_Space
  1

  0
ENDBLK
  5
21
100
AcDbEntity
  8
0
100
AcDbBlockEnd
  0
BLOCK
  5
1C
100
AcDbEntity
  8
0
100
AcDbBlockBegin
  2
*Paper_Space
 70
0
 10
0.0
 20
0.0
 30
0.0
  3
*Paper_Space
  1

  0
ENDBLK
  5
1D
100
AcDbEntity
  8
0
100
AcDbBlockEnd
  0
ENDSEC
  0
SECTION
  2
ENTITIES
  0
MTEXT
  5
210
100
AcDbEntity
  8
0
100
AcDbMText
 62
5
  6
CONTINUOUS
  7
STANDARD
 71
1
 72
1
 10
503.2066548488
 20
207.6532683785
 30
0.0
 11
0.0
 21
1.0
 31
0.0
 44
0.9
  1
RUD VAK-2-10
 40
6.0
 41
57.0
  0
MTEXT
  5
211
100
AcDbEntity
  8
0
100
AcDbMText
 62
5
  6
CONTINUOUS
  7
STANDARD
 71
1
 72
1
 10
119.6610020421
 20
218.3950689959
 30
0.0
 11
0.0
 21
1.0
 31
0.0
 44
0.9
  1
RUD VAK-2-10
 40
6.0
 41
57.0
  0
LINE
  5
212
100
AcDbEntity
  8
0
100
AcDbLine
 62
7
  6
CONTINUOUS
 10
0.0
 20
0.0
 11
0.0
 21
420.0
  0
LINE
  5
213
100
AcDbEntity
  8
0
100
AcDbLine
 62
7
  6
CONTINUOUS
 10
0.0
 20
0.0
 11
594.0
 21
0.0
  0
LINE
  5
214
100
AcDbEntity
  8
0
100
AcDbLine
 62
7
  6
CONTINUOUS
 10
0.0
 20
420.0
 11
594.0
 21
420.0
  0
LINE
  5
215
100
AcDbEntity
  8
0
100
AcDbLine
 62
7
  6
CONTINUOUS
 10
594.0
 20
0.0
 11
594.0
 21
420.0
  0
LINE
  5
216
100
AcDbEntity
  8
KONSTRUKTIONSELEMENTE
100
AcDbLine
 62
7
  6
CONTINUOUS
 10
217.1862603037
 20
71.2627935318
 11
219.6862603037
 21
66.9326665129
  0
LINE
  5
217
100
AcDbEntity
  8
BEZUGSACHSEN
100
AcDbLine
 62
7
  6
CONTINUOUS
 10
302.9227752783
 20
120.7627935318
 11
305.4227752783
 21
116.4326665129
  0
LINE
  5
218
100
AcDbEntity
  8
KONSTRUKTIONSELEMENTE
100
AcDbLine
 62
7
  6
CONTINUOUS
 10
300.2642816293
 20
125.8674396035
 11
302.7642816293
 21
121.5373125846
  0
LINE
  5
219
100
AcDbEntity
  8
KONSTRUKTIONSELEMENTE
100
AcDbLine
 62
7
  6
CONTINUOUS
 10
300.6972943311
 20
126.1174396035
 11
303.1972943311
 21
121.7873125846
  0
LINE
  5
21A
100
AcDbEntity
  8
KONSTRUKTIONSELEMENTE
100
AcDbLine
 62
7
  6
CONTINUOUS
 10
482.3101348027
 20
137.4674603141
 11
482.7124359755
 21
137.5456597404
  0
LINE
  5
21B
100
AcDbEntity
  8
RUNDUNGEN
100
AcDbLine
 62
7
  6
CONTINUOUS
 10
482.5792835425
 20
137.5197775293
 11
482.3060023544
 21
137.4666612599
  0
LINE
  5
21C
100
AcDbEntity
  8
RUNDUNGEN
100
AcDbLine
 62
7
  6
CONTINUOUS
 10
482.3060023037
 20
137.4666615239
 11
482.2344943237
 21
137.4543009169
  0
LINE
  5
21D
100
AcDbEntity
  8
RUNDUNGEN
100
AcDbLine
 62
7
  6
CONTINUOUS
 10
482.2344943237
 20
137.4543009169
 11
481.9855268453
 21
137.432228418
  0
LWPOLYLINE
  5
21E
100
AcDbEntity
  8
RUNDUNGEN
100
AcDbPolyline
 62
7
  6
CONTINUOUS
 90
8
 70
0
 10
481.9855268453
 20
137.432228418
 10
481.7296913834
 20
137.4427034477
 10
481.4737478307
 20
137.4872506638
 10
481.2241712809
 20
137.565780672
 10
480.9860694132
 20
137.6772839084
 10
480.7647123282
 20
137.8195967635
 10
480.5643639934
 20
137.9899938512
 10
480.3888483012
 20
138.1850416348
  0
LINE
  5
21F
100
AcDbEntity
  8
RUNDUNGEN
100
AcDbLine
 62
7
  6
CONTINUOUS
 10
418.1803174961
 20
137.4332024803
 11
417.9430368567
 21
137.4572489326
  0
LINE
  5
220
100
AcDbEntity
  8
RUNDUNGEN
100
AcDbLine
 62
7
  6
CONTINUOUS
 10
417.9430368567
 20
137.4572489326
 11
417.8896773566
 21
137.4667445731
  0
LINE
  5
221
100
AcDbEntity
  8
KONSTRUKTIONSELEMENTE
100
AcDbLine
 62
7
  6
CONTINUOUS
 10
417.4836756565
 20
137.5456597404
 11
417.8859768293
 21
137.4674603141
  0
LINE
  5
222
100
AcDbEntity
  8
RUNDUNGEN
100
AcDbLine
 62
7
  6
CONTINUOUS
 10
417.6168280895
 20
137.5197775293
 11
417.8896773566
 21
137.4667445731
  0
LINE
  5
223
100
AcDbEntity
  8
BEZUGSACHSEN
100
AcDbLine
 62
7
  6
CONTINUOUS
 10
429.0911367571
 20
138.3249593264
 11
424.7158518822
 21
139.9174327874
  0
LINE
  5
224
100
AcDbEntity
  8
BEZUGSACHSEN
100
AcDbLine
 62
7
  6
CONTINUOUS
 10
433.1067588388
 20
131.8593224946
 11
432.7451271847
 21
132.0597819327
  0
LINE
  5
225
100
AcDbEntity
  8
BEZUGSACHSEN
100
AcDbLine
 62
7
  6
CONTINUOUS
 10
432.7451271847
 20
132.0597819327
 11
432.686125533
 21
132.0940006328
  0
LWPOLYLINE
  5
226
100
AcDbEntity
  8
BEZUGSACHSEN
100
AcDbPolyline
 62
7
  6
CONTINUOUS
 90
10
 70
0
 10
432.7447352308
 20
132.0600002149
 10
432.6696030935
 20
132.1040863852
 10
432.4654714322
 20
132.2489533285
 10
432.2774033735
 20
132.422981953
 10
432.1114552504
 20
132.6229441186
 10
431.9724397502
 20
132.844584868
 10
431.86356002
 20
133.083825
 10
431.7873952565
 20
133.3356292135
 10
431.7454166906
 20
133.5951472291
 10
431.7382958015
 20
133.8572970269
  0
LINE
  5
227
100
AcDbEntity
  8
KONSTRUKTIONSELEMENTE
100
AcDbLine
 62
7
  6
CONTINUOUS
 10
428.3314258426
 20
158.264939666
 11
427.8365514755
 21
158.4450592053
  0
LINE
  5
228
100
AcDbEntity
  8
KONSTRUKTIONSELEMENTE
100
AcDbLine
 62
7
  6
CONTINUOUS
 10
428.4797341258
 20
158.2526241042
 11
427.9848597587
 21
158.4327436436
  0
LINE
  5
229
100
AcDbEntity
  8
KONSTRUKTIONSELEMENTE
100
AcDbLine
 62
7
  6
CONTINUOUS
 10
428.6031136317
 20
158.2787176547
 11
428.1082392645
 21
158.4588371941
  0
LINE
  5
22A
100
AcDbEntity
  8
KONSTRUKTIONSELEMENTE
100
AcDbLine
 62
7
  6
CONTINUOUS
 10
428.8247795553
 20
158.3693664992
 11
428.3299051882
 21
158.5494860386
  0
LINE
  5
22B
100
AcDbEntity
  8
KONSTRUKTIONSELEMENTE
100
AcDbLine
 62
7
  6
CONTINUOUS
 10
428.2499606663
 20
158.8217535724
 11
428.0326272812
 21
158.9008564555
  0
LINE
  5
22C
100
AcDbEntity
  8
KONSTRUKTIONSELEMENTE
100
AcDbLine
 62
7
  6
CONTINUOUS
 10
428.4186982769
 20
158.8985043665
 11
428.0090403177
 21
159.0476076699
  0
LINE
  5
22D
100
AcDbEntity
  8
KONSTRUKTIONSELEMENTE
100
AcDbLine
 62
7
  6
CONTINUOUS
 10
429.2668568443
 20
158.6599583953
 11
428.7719824772
 21
158.8400779346
  0
LINE
  5
22E
100
AcDbEntity
  8
BEZUGSACHSEN
100
AcDbLine
 62
7
  6
CONTINUOUS
 10
435.6087099153
 20
156.5262096521
 11
431.4226393718
 21
158.0498147285
  0
LINE
  5
22F
100
AcDbEntity
  8
KONSTRUKTIONSELEMENTE
100
AcDbLine
 62
7
  6
CONTINUOUS
 10
428.5812645677
 20
159.1866639781
 11
428.0863902006
 21
159.3667835174
  0
LINE
  5
230
100
AcDbEntity
  8
KONSTRUKTIONSELEMENTE
100
AcDbLine
 62
7
  6
CONTINUOUS
 10
429.5365183391
 20
158.8921420326
 11
429.0416439719
 21
159.0722615719
  0
LINE
  5
231
100
AcDbEntity
  8
KONSTRUKTIONSELEMENTE
100
AcDbLine
 62
7
  6
CONTINUOUS
 10
429.7080605792
 20
159.059702466
 11
429.213186212
 21
159.2398220053
  0
LINE
  5
232
100
AcDbEntity
  8
KONSTRUKTIONSELEMENTE
100
AcDbLine
 62
7
  6
CONTINUOUS
 10
428.7594207371
 20
159.5694851705
 11
428.26454637
 21
159.7496047098
  0
LINE
  5
233
100
AcDbEntity
  8
KONSTRUKTIONSELEMENTE
100
AcDbLine
 62
7
  6
CONTINUOUS
 10
429.9532079866
 20
159.3301406767
 11
429.4583336195
 21
159.5102602161
  0
LINE
  5
234
100
AcDbEntity
  8
KONSTRUKTIONSELEMENTE
100
AcDbLine
 62
7
  6
CONTINUOUS
 10
428.9363115657
 20
159.8439328228
 11
428.4414371985
 21
160.0240523621
  0
LINE
  5
235
100
AcDbEntity
  8
KONSTRUKTIONSELEMENTE
100
AcDbLine
 62
7
  6
CONTINUOUS
 10
430.1742105661
 20
159.6386990615
 11
429.679336199
 21
159.8188186008
  0
LINE
  5
236
100
AcDbEntity
  8
KONSTRUKTIONSELEMENTE
100
AcDbLine
 62
7
  6
CONTINUOUS
 10
429.3372851616
 20
160.3169837118
 11
428.8424107945
 21
160.4971032511
  0
LINE
  5
237
100
AcDbEntity
  8
KONSTRUKTIONSELEMENTE
100
AcDbLine
 62
7
  6
CONTINUOUS
 10
430.4459810754
 20
160.0877759749
 11
429.9511067083
 21
160.2678955142
  0
LINE
  5
238
100
AcDbEntity
  8
KONSTRUKTIONSELEMENTE
100
AcDbLine
 62
7
  6
CONTINUOUS
 10
428.9478273054
 20
160.8178347575
 11
428.4900194588
 21
160.9844631867
  0
LINE
  5
239
100
AcDbEntity
  8
KONSTRUKTIONSELEMENTE
100
AcDbLine
 62
7
  6
CONTINUOUS
 10
429.6588996333
 20
160.5804241789
 11
429.1640252662
 21
160.7605437183
  0
LINE
  5
23A
100
AcDbEntity
  8
KONSTRUKTIONSELEMENTE
100
AcDbLine
 62
7
  6
CONTINUOUS
 10
430.6469973448
 20
160.5417750433
 11
430.1521229777
 21
160.7218945827
  0
LINE
  5
23B
100
AcDbEntity
  8
KONSTRUKTIONSELEMENTE
100
AcDbLine
 62
7
  6
CONTINUOUS
 10
429.9644974522
 20
160.8203583463
 11
429.5080785556
 21
160.986481239
  0
LINE
  5
23C
100
AcDbEntity
  8
KONSTRUKTIONSELEMENTE
100
AcDbLine
 62
7
  6
CONTINUOUS
 10
430.7525887793
 20
160.9301737179
 11
430.2577144121
 21
161.1102932572
  0
LINE
  5
23D
100
AcDbEntity
  8
KONSTRUKTIONSELEMENTE
100
AcDbLine
 62
7
  6
CONTINUOUS
 10
430.7363243416
 20
161.1830938373
 11
430.2414499745
 21
161.3632133766
  0
LINE
  5
23E
100
AcDbEntity
  8
KONSTRUKTIONSELEMENTE
100
AcDbLine
 62
7
  6
CONTINUOUS
 10
430.6686256261
 20
161.2957343197
 11
430.1737512589
 21
161.4758538591
  0
LINE
  5
23F
100
AcDbEntity
  8
KONSTRUKTIONSELEMENTE
100
AcDbLine
 62
7
  6
CONTINUOUS
 10
431.4800423397
 20
162.8259866475
 11
430.9851679726
 21
163.0061061868
  0
LINE
  5
240
100
AcDbEntity
  8
KONSTRUKTIONSELEMENTE
100
AcDbLine
 62
7
  6
CONTINUOUS
 10
431.621327926
 20
163.2187263143
 11
431.1264535589
 21
163.3988458537
  0
LINE
  5
241
100
AcDbEntity
  8
KONSTRUKTIONSELEMENTE
100
AcDbLine
 62
7
  6
CONTINUOUS
 10
430.7702372239
 20
165.3742241006
 11
430.2753628568
 21
165.5543436399
  0
LINE
  5
242
100
AcDbEntity
  8
KONSTRUKTIONSELEMENTE
100
AcDbLine
 62
7
  6
CONTINUOUS
 10
430.9516326049
 20
165.4418657778
 11
430.4567582377
 21
165.6219853172
  0
LINE
  5
243
100
AcDbEntity
  8
KONSTRUKTIONSELEMENTE
100
AcDbLine
 62
7
  6
CONTINUOUS
 10
431.1815470378
 20
165.6574318386
 11
430.6866726707
 21
165.8375513779
  0
LINE
  5
244
100
AcDbEntity
  8
KONSTRUKTIONSELEMENTE
100
AcDbLine
 62
7
  6
CONTINUOUS
 10
430.7733228916
 20
166.1356839056
 11
430.6107196217
 21
166.1948666558
  0
LINE
  5
245
100
AcDbEntity
  8
KONSTRUKTIONSELEMENTE
100
AcDbLine
 62
7
  6
CONTINUOUS
 10
431.1274338699
 20
166.5035495794
 11
430.7694952265
 21
166.6338285913
  0
LINE
  5
246
100
AcDbEntity
  8
KONSTRUKTIONSELEMENTE
100
AcDbLine
 62
7
  6
CONTINUOUS
 10
431.3395075974
 20
166.7357516423
 11
430.9041235348
 21
166.8942184816
  0
LINE
  5
247
100
AcDbEntity
  8
KONSTRUKTIONSELEMENTE
100
AcDbLine
 62
7
  6
CONTINUOUS
 10
432.1034594184
 20
166.6510399758
 11
431.6085850513
 21
166.8311595151
  0
LINE
  5
248
100
AcDbEntity
  8
KONSTRUKTIONSELEMENTE
100
AcDbLine
 62
7
  6
CONTINUOUS
 10
431.4422890462
 20
167.0411470499
 11
431.0829883323
 21
167.171921815
  0
LINE
  5
249
100
AcDbEntity
  8
KONSTRUKTIONSELEMENTE
100
AcDbLine
 62
7
  6
CONTINUOUS
 10
431.0384710735
 20
167.2783851051
 11
430.8272465471
 21
167.3552645455
  0
LINE
  5
24A
100
AcDbEntity
  8
KONSTRUKTIONSELEMENTE
100
AcDbLine
 62
7
  6
CONTINUOUS
 10
431.6487918042
 20
167.3422050728
 11
431.3051890519
 21
167.467266247
  0
LINE
  5
24B
100
AcDbEntity
  8
BEZUGSACHSEN
100
AcDbLine
 62
7
  6
CONTINUOUS
 10
432.686125533
 20
132.0940006328
 11
432.4905261589
 21
132.2289780327
  0
LINE
  5
24C
100
AcDbEntity
  8
BEZUGSACHSEN
100
AcDbLine
 62
7
  6
CONTINUOUS
 10
474.5995349701
 20
100.7758132258
 11
472.5762427949
 21
102.3628020954
  0
LINE
  5
24D
100
AcDbEntity
  8
KONSTRUKTIONSELEMENTE
100
AcDbLine
 62
7
  6
CONTINUOUS
 10
370.4123393358
 20
166.3674396035
 11
372.9123393358
 21
162.0373125846
  0
LINE
  5
24E
100
AcDbEntity
  8
KONSTRUKTIONSELEMENTE
100
AcDbLine
 62
7
  6
CONTINUOUS
 10
370.8453520377
 20
166.6174396035
 11
373.3453520377
 21
162.2873125846
  0
LINE
  5
24F
100
AcDbEntity
  8
KONSTRUKTIONSELEMENTE
100
AcDbLine
 62
7
  6
CONTINUOUS
 10
432.6566785883
 20
167.2471786719
 11
432.1618042212
 21
167.4272982112
  0
LINE
  5
250
100
AcDbEntity
  8
KONSTRUKTIONSELEMENTE
100
AcDbLine
 62
7
  6
CONTINUOUS
 10
432.1715826948
 20
167.4541643468
 11
431.8586832872
 21
167.5680504175
  0
LINE
  5
251
100
AcDbEntity
  8
KONSTRUKTIONSELEMENTE
100
AcDbLine
 62
7
  6
CONTINUOUS
 10
432.0650350613
 20
167.6003429966
 11
431.5701606942
 21
167.780462536
  0
LINE
  5
252
100
AcDbEntity
  8
KONSTRUKTIONSELEMENTE
100
AcDbLine
 62
7
  6
CONTINUOUS
 10
432.9801931035
 20
167.6276752645
 11
432.4853187364
 21
167.8077948038
  0
LINE
  5
253
100
AcDbEntity
  8
KONSTRUKTIONSELEMENTE
100
AcDbLine
 62
7
  6
CONTINUOUS
 10
431.5420931069
 20
168.4345378067
 11
431.2481221713
 21
168.541534477
  0
LINE
  5
254
100
AcDbEntity
  8
KONSTRUKTIONSELEMENTE
100
AcDbLine
 62
7
  6
CONTINUOUS
 10
433.2916438144
 20
168.0895358725
 11
432.7967694472
 21
168.2696554119
  0
LINE
  5
255
100
AcDbEntity
  8
KONSTRUKTIONSELEMENTE
100
AcDbLine
 62
7
  6
CONTINUOUS
 10
432.8166605324
 20
168.6559305002
 11
432.4927144995
 21
168.7738372137
  0
LINE
  5
256
100
AcDbEntity
  8
KONSTRUKTIONSELEMENTE
100
AcDbLine
 62
7
  6
CONTINUOUS
 10
433.4815260341
 20
168.4184254289
 11
432.986651667
 21
168.5985449683
  0
LINE
  5
257
100
AcDbEntity
  8
KONSTRUKTIONSELEMENTE
100
AcDbLine
 62
7
  6
CONTINUOUS
 10
432.9120851892
 20
168.9204442476
 11
432.719889389
 21
168.990397798
  0
LINE
  5
258
100
AcDbEntity
  8
KONSTRUKTIONSELEMENTE
100
AcDbLine
 62
7
  6
CONTINUOUS
 10
433.6284868896
 20
168.7295178847
 11
433.1336125224
 21
168.9096374241
  0
LINE
  5
259
100
AcDbEntity
  8
KONSTRUKTIONSELEMENTE
100
AcDbLine
 62
7
  6
CONTINUOUS
 10
432.8426321388
 20
169.2939818174
 11
432.4329083329
 21
169.443109087
  0
LINE
  5
25A
100
AcDbEntity
  8
KONSTRUKTIONSELEMENTE
100
AcDbLine
 62
7
  6
CONTINUOUS
 10
432.8665325751
 20
169.3174632549
 11
432.5136173703
 21
169.4459138846
  0
LINE
  5
25B
100
AcDbEntity
  8
KONSTRUKTIONSELEMENTE
100
AcDbLine
 62
7
  6
CONTINUOUS
 10
433.7874068513
 20
169.1684272785
 11
433.2925324842
 21
169.3485468179
  0
LINE
  5
25C
100
AcDbEntity
  8
KONSTRUKTIONSELEMENTE
100
AcDbLine
 62
7
  6
CONTINUOUS
 10
433.1001315405
 20
169.5060897977
 11
432.7377357659
 21
169.6379910727
  0
LINE
  5
25D
100
AcDbEntity
  8
KONSTRUKTIONSELEMENTE
100
AcDbLine
 62
7
  6
CONTINUOUS
 10
433.8170178039
 20
169.3450132421
 11
433.3221434368
 21
169.5251327815
  0
LINE
  5
25E
100
AcDbEntity
  8
KONSTRUKTIONSELEMENTE
100
AcDbLine
 62
7
  6
CONTINUOUS
 10
433.7683787265
 20
169.4062731434
 11
433.2735043594
 21
169.5863926828
  0
LINE
  5
25F
100
AcDbEntity
  8
KONSTRUKTIONSELEMENTE
100
AcDbLine
 62
7
  6
CONTINUOUS
 10
433.4159232716
 20
169.648711336
 11
432.9210489045
 21
169.8288308753
  0
LINE
  5
260
100
AcDbEntity
  8
KONSTRUKTIONSELEMENTE
100
AcDbLine
 62
7
  6
CONTINUOUS
 10
432.7944548047
 20
169.8781737124
 11
432.7793985102
 21
169.8836537554
  0
LINE
  5
261
100
AcDbEntity
  8
KONSTRUKTIONSELEMENTE
100
AcDbLine
 62
7
  6
CONTINUOUS
 10
433.676240362
 20
169.9531875086
 11
433.1813659949
 21
170.1333070479
  0
LINE
  5
262
100
AcDbEntity
  8
KONSTRUKTIONSELEMENTE
100
AcDbLine
 62
7
  6
CONTINUOUS
 10
433.8834657592
 20
170.2190386517
 11
433.3885913921
 21
170.3991581911
  0
LINE
  5
263
100
AcDbEntity
  8
KONSTRUKTIONSELEMENTE
100
AcDbLine
 62
7
  6
CONTINUOUS
 10
433.3446575253
 20
170.4732173591
 11
433.0058512311
 21
170.5965327654
  0
LINE
  5
264
100
AcDbEntity
  8
KONSTRUKTIONSELEMENTE
100
AcDbLine
 62
7
  6
CONTINUOUS
 10
434.1803346044
 20
170.6357847464
 11
433.6854602373
 21
170.8159042857
  0
LINE
  5
265
100
AcDbEntity
  8
KONSTRUKTIONSELEMENTE
100
AcDbLine
 62
7
  6
CONTINUOUS
 10
434.4255401884
 20
171.0133861844
 11
433.9306658213
 21
171.1935057238
  0
LINE
  5
266
100
AcDbEntity
  8
KONSTRUKTIONSELEMENTE
100
AcDbLine
 62
7
  6
CONTINUOUS
 10
434.554873454
 20
171.2754091762
 11
434.0599990869
 21
171.4555287155
  0
LINE
  5
267
100
AcDbEntity
  8
KONSTRUKTIONSELEMENTE
100
AcDbLine
 62
7
  6
CONTINUOUS
 10
434.8914118229
 20
172.1575108465
 11
434.3965374558
 21
172.3376303859
  0
LINE
  5
268
100
AcDbEntity
  8
BEZUGSACHSEN
100
AcDbLine
 62
7
  6
CONTINUOUS
 10
440.9580761673
 20
171.2234726378
 11
436.7720056238
 21
172.7470777142
  0
LINE
  5
269
100
AcDbEntity
  8
BEZUGSACHSEN
100
AcDbLine
 62
7
  6
CONTINUOUS
 10
438.8152817137
 20
178.3609326331
 11
443.0013522573
 21
176.8373275567
  0
LWPOLYLINE
  5
26A
100
AcDbEntity
  8
BEZUGSACHSEN
100
AcDbPolyline
 62
7
  6
CONTINUOUS
 90
9
 70
0
 10
432.4905261589
 20
132.2289780327
 10
432.3083618385
 20
132.3910638639
 10
432.1454428976
 20
132.5773955751
 10
432.006404343
 20
132.7840581386
 10
431.8940530964
 20
133.00774422
 10
431.810838054
 20
133.2441822457
 10
431.758260693
 20
133.4892802717
 10
431.7371920167
 20
133.7386625413
 10
431.7477773855
 20
133.9876897186
  0
LINE
  5
26B
100
AcDbEntity
  8
0
100
AcDbLine
 62
7
  6
CONTINUOUS
 10
383.098055816
 20
202.8477300223
 11
383.098055816
 21
272.8477300223
  0
LINE
  5
26C
100
AcDbEntity
  8
RUNDUNGEN
100
AcDbLine
 62
7
  6
CONTINUOUS
 10
492.6330382991
 20
124.9585101456
 11
479.5700213826
 21
135.9196828223
  0
LINE
  5
26D
100
AcDbEntity
  8
RUNDUNGEN
100
AcDbLine
 62
7
  6
CONTINUOUS
 10
402.7268794109
 20
111.4231092884
 11
403.2567143564
 21
108.9068581426
  0
LINE
  5
26E
100
AcDbEntity
  8
0
100
AcDbLine
 62
7
  6
CONTINUOUS
 10
405.098055816
 20
202.8477300223
 11
405.098055816
 21
272.8477300223
  0
LINE
  5
26F
100
AcDbEntity
  8
KONSTRUKTIONSELEMENTE
100
AcDbLine
 62
7
  6
CONTINUOUS
 10
296.8001800141
 20
123.8674396035
 11
300.2642816293
 21
125.8674396035
  0
LINE
  5
270
100
AcDbEntity
  8
KONSTRUKTIONSELEMENTE
100
AcDbLine
 62
7
  6
CONTINUOUS
 10
300.6972943311
 20
126.1174396035
 11
304.1613959463
 21
128.1174396035
  0
LINE
  5
271
100
AcDbEntity
  8
KONSTRUKTIONSELEMENTE
100
AcDbLine
 62
7
  6
CONTINUOUS
 10
366.9482377207
 20
164.3674396035
 11
370.4123393358
 21
166.3674396035
  0
LINE
  5
272
100
AcDbEntity
  8
KONSTRUKTIONSELEMENTE
100
AcDbLine
 62
7
  6
CONTINUOUS
 10
370.8453520377
 20
166.6174396035
 11
374.3094536528
 21
168.6174396035
  0
LINE
  5
273
100
AcDbEntity
  8
KONSTRUKTIONSELEMENTE
100
AcDbLine
 62
7
  6
CONTINUOUS
 10
329.1846263051
 20
142.2759332526
 11
342.1750073619
 21
149.7759332526
  0
LINE
  5
274
100
AcDbEntity
  8
KONSTRUKTIONSELEMENTE
100
AcDbLine
 62
7
  6
CONTINUOUS
 10
331.4346263051
 20
138.3788189356
 11
344.4250073619
 21
145.8788189356
  0
LINE
  5
275
100
AcDbEntity
  8
KONSTRUKTIONSELEMENTE
100
AcDbLine
 62
7
  6
CONTINUOUS
 10
299.3001800141
 20
119.5373125846
 11
302.7642816293
 21
121.5373125846
  0
LINE
  5
276
100
AcDbEntity
  8
KONSTRUKTIONSELEMENTE
100
AcDbLine
 62
7
  6
CONTINUOUS
 10
303.1972943311
 20
121.7873125846
 11
306.6613959463
 21
123.7873125846
  0
LINE
  5
277
100
AcDbEntity
  8
KONSTRUKTIONSELEMENTE
100
AcDbLine
 62
7
  6
CONTINUOUS
 10
369.4482377207
 20
160.0373125846
 11
372.9123393358
 21
162.0373125846
  0
LINE
  5
278
100
AcDbEntity
  8
KONSTRUKTIONSELEMENTE
100
AcDbLine
 62
7
  6
CONTINUOUS
 10
373.3453520377
 20
162.2873125846
 11
376.8094536528
 21
164.2873125846
  0
LINE
  5
279
100
AcDbEntity
  8
KONSTRUKTIONSELEMENTE
100
AcDbLine
 62
7
  6
CONTINUOUS
 10
412.224988857
 20
184.4458062337
 11
376.7179473019
 21
163.9458062337
  0
LINE
  5
27A
100
AcDbEntity
  8
BEZUGSACHSEN
100
AcDbLine
 62
7
  6
CONTINUOUS
 10
302.9224746922
 20
120.7626199883
 11
301.6245378933
 21
120.0132558281
  0
LINE
  5
27B
100
AcDbEntity
  8
KONSTRUKTIONSELEMENTE
100
AcDbLine
 62
7
  6
CONTINUOUS
 10
217.1862603037
 20
71.2627935318
 11
301.6245378933
 21
120.0132558281
  0
LINE
  5
27C
100
AcDbEntity
  8
KONSTRUKTIONSELEMENTE
100
AcDbLine
 62
7
  6
CONTINUOUS
 10
369.0822123169
 20
158.6712871808
 11
346.168846343
 21
145.4422491678
  0
LINE
  5
27D
100
AcDbEntity
  8
KONSTRUKTIONSELEMENTE
100
AcDbLine
 62
7
  6
CONTINUOUS
 10
330.9770945504
 20
136.6712871808
 11
308.0637285765
 21
123.4422491678
  0
LINE
  5
27E
100
AcDbEntity
  8
KONSTRUKTIONSELEMENTE
100
AcDbLine
 62
7
  6
CONTINUOUS
 10
371.3322123169
 20
154.7741728638
 11
348.418846343
 21
141.5451348508
  0
LINE
  5
27F
100
AcDbEntity
  8
KONSTRUKTIONSELEMENTE
100
AcDbLine
 62
7
  6
CONTINUOUS
 10
333.2270945504
 20
132.7741728638
 11
310.3137285765
 21
119.5451348508
  0
LINE
  5
280
100
AcDbEntity
  8
BEZUGSACHSEN
100
AcDbLine
 62
7
  6
CONTINUOUS
 10
305.4224746922
 20
116.4324929694
 11
304.1245378933
 21
115.6831288091
  0
LINE
  5
281
100
AcDbEntity
  8
KONSTRUKTIONSELEMENTE
100
AcDbLine
 62
7
  6
CONTINUOUS
 10
219.6862603037
 20
66.9326665129
 11
304.1245378933
 21
115.6831288091
  0
LINE
  5
282
100
AcDbEntity
  8
KONSTRUKTIONSELEMENTE
100
AcDbLine
 62
7
  6
CONTINUOUS
 10
415.224988857
 20
179.249653811
 11
379.7785845763
 21
158.7846627576
  0
LINE
  5
283
100
AcDbEntity
  8
KONSTRUKTIONSELEMENTE
100
AcDbLine
 62
7
  6
CONTINUOUS
 10
380.0594536528
 20
158.65814746
 11
372.6982377207
 21
154.40814746
  0
LINE
  5
284
100
AcDbEntity
  8
KONSTRUKTIONSELEMENTE
100
AcDbLine
 62
7
  6
CONTINUOUS
 10
309.9113959463
 20
118.15814746
 11
302.5501800141
 21
113.90814746
  0
LINE
  5
285
100
AcDbEntity
  8
KONSTRUKTIONSELEMENTE
100
AcDbLine
 62
7
  6
CONTINUOUS
 10
347.9250073619
 20
139.8166411091
 11
334.9346263051
 21
132.3166411091
  0
LINE
  5
286
100
AcDbEntity
  8
KONSTRUKTIONSELEMENTE
100
AcDbLine
 62
7
  6
CONTINUOUS
 10
350.1750073619
 20
135.919526792
 11
337.1846263051
 21
128.419526792
  0
LINE
  5
287
100
AcDbEntity
  8
KONSTRUKTIONSELEMENTE
100
AcDbLine
 62
7
  6
CONTINUOUS
 10
382.5594536528
 20
154.3280204411
 11
375.1982377207
 21
150.0780204411
  0
LINE
  5
288
100
AcDbEntity
  8
KONSTRUKTIONSELEMENTE
100
AcDbLine
 62
7
  6
CONTINUOUS
 10
312.4113959463
 20
113.8280204411
 11
305.0501800141
 21
109.5780204411
  0
LINE
  5
289
100
AcDbEntity
  8
BEZUGSACHSEN
100
AcDbLine
 62
7
  6
CONTINUOUS
 10
461.3808299182
 20
178.3609326331
 11
457.1947593747
 21
176.8373275567
  0
LINE
  5
28A
100
AcDbEntity
  8
BEZUGSACHSEN
100
AcDbLine
 62
7
  6
CONTINUOUS
 10
429.6543719286
 20
132.6336562645
 11
432.6155173205
 21
115.8401662385
  0
LINE
  5
28B
100
AcDbEntity
  8
RUNDUNGEN
100
AcDbLine
 62
7
  6
CONTINUOUS
 10
406.0785482773
 20
122.8383886466
 11
402.9211268682
 21
114.1634446213
  0
LINE
  5
28C
100
AcDbEntity
  8
KONSTRUKTIONSELEMENTE
100
AcDbLine
 62
7
  6
CONTINUOUS
 10
413.1233440343
 20
130.4985883129
 11
415.2226724242
 21
136.2664456602
  0
LINE
  5
28D
100
AcDbEntity
  8
BEZUGSACHSEN
100
AcDbLine
 62
7
  6
CONTINUOUS
 10
459.2380354647
 20
171.2234726378
 11
463.4241060082
 21
172.7470777142
  0
LINE
  5
28E
100
AcDbEntity
  8
KONSTRUKTIONSELEMENTE
100
AcDbLine
 62
7
  6
CONTINUOUS
 10
466.1586552229
 20
170.143924155
 11
466.65352959
 21
170.3240436943
  0
LINE
  5
28F
100
AcDbEntity
  8
KONSTRUKTIONSELEMENTE
100
AcDbLine
 62
7
  6
CONTINUOUS
 10
466.103314086
 20
170.1015991624
 11
466.5981884531
 21
170.2817187018
  0
LINE
  5
290
100
AcDbEntity
  8
KONSTRUKTIONSELEMENTE
100
AcDbLine
 62
7
  6
CONTINUOUS
 10
466.126217182
 20
169.9440804652
 11
466.6210915491
 21
170.1242000045
  0
LINE
  5
291
100
AcDbEntity
  8
KONSTRUKTIONSELEMENTE
100
AcDbLine
 62
7
  6
CONTINUOUS
 10
467.0007869886
 20
169.794754509
 11
467.0644798868
 21
169.8179368281
  0
LINE
  5
292
100
AcDbEntity
  8
KONSTRUKTIONSELEMENTE
100
AcDbLine
 62
7
  6
CONTINUOUS
 10
467.0253652347
 20
169.6306232395
 11
467.2171724956
 21
169.7004353732
  0
LINE
  5
293
100
AcDbEntity
  8
KONSTRUKTIONSELEMENTE
100
AcDbLine
 62
7
  6
CONTINUOUS
 10
467.1270545785
 20
169.3508860957
 11
467.4499202362
 21
169.4683995848
  0
LINE
  5
294
100
AcDbEntity
  8
KONSTRUKTIONSELEMENTE
100
AcDbLine
 62
7
  6
CONTINUOUS
 10
466.5085163254
 20
168.8451202593
 11
467.0033906926
 21
169.0252397986
  0
LINE
  5
295
100
AcDbEntity
  8
KONSTRUKTIONSELEMENTE
100
AcDbLine
 62
7
  6
CONTINUOUS
 10
466.8642302268
 20
167.8774161626
 11
467.359104594
 21
168.057535702
  0
LINE
  5
296
100
AcDbEntity
  8
KONSTRUKTIONSELEMENTE
100
AcDbLine
 62
7
  6
CONTINUOUS
 10
467.8943050494
 20
168.2488801278
 11
468.3891794165
 21
168.4289996671
  0
LINE
  5
297
100
AcDbEntity
  8
KONSTRUKTIONSELEMENTE
100
AcDbLine
 62
7
  6
CONTINUOUS
 10
466.9941234075
 20
167.5433168193
 11
467.4889977747
 21
167.7234363587
  0
LINE
  5
298
100
AcDbEntity
  8
KONSTRUKTIONSELEMENTE
100
AcDbLine
 62
7
  6
CONTINUOUS
 10
468.1626178276
 20
167.9266138718
 11
468.6574921948
 21
168.1067334112
  0
LINE
  5
299
100
AcDbEntity
  8
KONSTRUKTIONSELEMENTE
100
AcDbLine
 62
7
  6
CONTINUOUS
 10
468.4147567009
 20
167.6389568091
 11
468.8808116501
 21
167.8085869381
  0
LINE
  5
29A
100
AcDbEntity
  8
KONSTRUKTIONSELEMENTE
100
AcDbLine
 62
7
  6
CONTINUOUS
 10
468.6452240363
 20
167.3839084906
 11
469.0585719513
 21
167.5343548281
  0
LINE
  5
29B
100
AcDbEntity
  8
KONSTRUKTIONSELEMENTE
100
AcDbLine
 62
7
  6
CONTINUOUS
 10
468.84815437
 20
167.1593341912
 11
469.1898721803
 21
167.2837093027
  0
LINE
  5
29C
100
AcDbEntity
  8
KONSTRUKTIONSELEMENTE
100
AcDbLine
 62
7
  6
CONTINUOUS
 10
467.4844117097
 20
166.1962607887
 11
467.9792860769
 21
166.3763803281
  0
LINE
  5
29D
100
AcDbEntity
  8
KONSTRUKTIONSELEMENTE
100
AcDbLine
 62
7
  6
CONTINUOUS
 10
461.3808299182
 20
178.3609326331
 11
468.8218401041
 21
168.9389822801
  0
LINE
  5
29E
100
AcDbEntity
  8
RUNDUNGEN
100
AcDbLine
 62
7
  6
CONTINUOUS
 10
480.3888483012
 20
138.1850416348
 11
480.2415387141
 21
138.4004308622
  0
LINE
  5
29F
100
AcDbEntity
  8
BEZUGSACHSEN
100
AcDbLine
 62
7
  6
CONTINUOUS
 10
470.9635913818
 20
104.5868806082
 11
467.8061699726
 21
113.2618246335
  0
LINE
  5
2A0
100
AcDbEntity
  8
BEZUGSACHSEN
100
AcDbLine
 62
7
  6
CONTINUOUS
 10
468.278915182
 20
123.6581854464
 11
466.1795867921
 21
129.4260427936
  0
LINE
  5
2A1
100
AcDbEntity
  8
BEZUGSACHSEN
100
AcDbLine
 62
7
  6
CONTINUOUS
 10
442.6451838154
 20
164.8367056944
 11
443.0013522573
 21
176.8373275567
  0
LINE
  5
2A2
100
AcDbEntity
  8
BEZUGSACHSEN
100
AcDbLine
 62
7
  6
CONTINUOUS
 10
431.7382958015
 20
133.8572970269
 11
431.7657921909
 21
134.1165888582
  0
LWPOLYLINE
  5
2A3
100
AcDbEntity
  8
BEZUGSACHSEN
100
AcDbPolyline
 62
7
  6
CONTINUOUS
 90
3
 70
0
 10
431.7477773855
 20
133.9876897186
 10
431.789308504
 20
134.2315562831
 10
431.8552370886
 20
134.4522255663
  0
LINE
  5
2A4
100
AcDbEntity
  8
BEZUGSACHSEN
100
AcDbLine
 62
7
  6
CONTINUOUS
 10
431.7657921909
 20
134.1165888582
 11
431.8121888984
 21
134.3081391535
  0
LINE
  5
2A5
100
AcDbEntity
  8
0
100
AcDbLine
 62
7
  6
CONTINUOUS
 10
425.989236717
 20
144.1582982948
 11
424.7158518822
 21
139.9174327874
  0
LINE
  5
2A6
100
AcDbEntity
  8
BEZUGSACHSEN
100
AcDbLine
 62
7
  6
CONTINUOUS
 10
424.7722569758
 20
125.5197616169
 11
429.0911367571
 21
138.3249593264
  0
LINE
  5
2A7
100
AcDbEntity
  8
KONSTRUKTIONSELEMENTE
100
AcDbLine
 62
7
  6
CONTINUOUS
 10
419.9435676323
 20
138.2727321435
 11
423.2489150727
 21
147.3540995993
  0
LINE
  5
2A8
100
AcDbEntity
  8
RUNDUNGEN
100
AcDbLine
 62
7
  6
CONTINUOUS
 10
419.9435690902
 20
138.2727361491
 11
423.2489150727
 21
147.3540995993
  0
LINE
  5
2A9
100
AcDbEntity
  8
BEZUGSACHSEN
100
AcDbLine
 62
7
  6
CONTINUOUS
 10
423.1556731289
 20
147.0979194642
 11
430.5996898379
 21
167.5501872823
  0
LINE
  5
2AA
100
AcDbEntity
  8
RUNDUNGEN
100
AcDbLine
 62
7
  6
CONTINUOUS
 10
419.7932833119
 20
127.3319598278
 11
424.7158518822
 21
139.9174327874
  0
LINE
  5
2AB
100
AcDbEntity
  8
BEZUGSACHSEN
100
AcDbLine
 62
7
  6
CONTINUOUS
 10
430.8416431829
 20
142.3921667767
 11
429.0911367571
 21
138.3249593264
  0
LWPOLYLINE
  5
2AC
100
AcDbEntity
  8
RUNDUNGEN
100
AcDbPolyline
 62
7
  6
CONTINUOUS
 90
3
 70
0
 10
420.1090829646
 20
138.7274762157
 10
420.0171395301
 20
138.5148568499
 10
419.8926414127
 20
138.3026030778
  0
LINE
  5
2AD
100
AcDbEntity
  8
RUNDUNGEN
100
AcDbLine
 62
7
  6
CONTINUOUS
 10
420.0454754394
 20
138.5803836936
 11
419.9545729179
 21
138.4004308622
  0
LWPOLYLINE
  5
2AE
100
AcDbEntity
  8
RUNDUNGEN
100
AcDbPolyline
 62
7
  6
CONTINUOUS
 90
11
 70
0
 10
419.9545729179
 20
138.4004308622
 10
419.8072633308
 20
138.1850416348
 10
419.6317476385
 20
137.9899938512
 10
419.4313993037
 20
137.8195967635
 10
419.2100422188
 20
137.6772839084
 10
418.9719403511
 20
137.565780672
 10
418.7223638013
 20
137.4872506638
 10
418.4664202485
 20
137.4427034477
 10
418.2105847867
 20
137.432228418
 10
417.9616173083
 20
137.4543009169
 10
417.8901093283
 20
137.4666615239
  0
LWPOLYLINE
  5
2AF
100
AcDbEntity
  8
RUNDUNGEN
100
AcDbPolyline
 62
7
  6
CONTINUOUS
 90
9
 70
0
 10
419.8912979719
 20
138.3003126787
 10
419.7381650857
 20
138.1019256634
 10
419.5603372926
 20
137.9238915752
 10
419.360968451
 20
137.7697156546
 10
419.1436060399
 20
137.6422206007
 10
418.9120936147
 20
137.5435889797
 10
418.6711605953
 20
137.4755281898
 10
418.4251668609
 20
137.4387446832
 10
418.1803174961
 20
137.4332024803
  0
LINE
  5
2B0
100
AcDbEntity
  8
KONSTRUKTIONSELEMENTE
100
AcDbLine
 62
7
  6
CONTINUOUS
 10
438.8152817137
 20
178.3609326331
 11
431.3742715278
 21
168.9389822801
  0
LINE
  5
2B1
100
AcDbEntity
  8
KONSTRUKTIONSELEMENTE
100
AcDbLine
 62
7
  6
CONTINUOUS
 10
428.6309642486
 20
161.3773268933
 11
430.7016894716
 21
163.054757561
  0
LINE
  5
2B2
100
AcDbEntity
  8
KONSTRUKTIONSELEMENTE
100
AcDbLine
 62
7
  6
CONTINUOUS
 10
467.5996627344
 20
165.8568319546
 11
468.0945371015
 21
166.036951494
  0
LINE
  5
2B3
100
AcDbEntity
  8
KONSTRUKTIONSELEMENTE
100
AcDbLine
 62
7
  6
CONTINUOUS
 10
468.8047249185
 20
165.7550385576
 11
469.2995992857
 21
165.935158097
  0
LINE
  5
2B4
100
AcDbEntity
  8
KONSTRUKTIONSELEMENTE
100
AcDbLine
 62
7
  6
CONTINUOUS
 10
469.0598507684
 20
165.4685554362
 11
469.5547251356
 21
165.6486749755
  0
LINE
  5
2B5
100
AcDbEntity
  8
KONSTRUKTIONSELEMENTE
100
AcDbLine
 62
7
  6
CONTINUOUS
 10
469.6863080057
 20
165.6737865182
 11
469.9444636696
 21
165.7677474956
  0
LINE
  5
2B6
100
AcDbEntity
  8
KONSTRUKTIONSELEMENTE
100
AcDbLine
 62
7
  6
CONTINUOUS
 10
469.2778474099
 20
165.1839404771
 11
469.772721777
 21
165.3640600164
  0
LINE
  5
2B7
100
AcDbEntity
  8
KONSTRUKTIONSELEMENTE
100
AcDbLine
 62
7
  6
CONTINUOUS
 10
469.4690863376
 20
164.9049681769
 11
469.9530193764
 21
165.0811053984
  0
LINE
  5
2B8
100
AcDbEntity
  8
KONSTRUKTIONSELEMENTE
100
AcDbLine
 62
7
  6
CONTINUOUS
 10
468.3444003795
 20
164.2379446427
 11
468.8392747466
 21
164.4180641821
  0
LINE
  5
2B9
100
AcDbEntity
  8
KONSTRUKTIONSELEMENTE
100
AcDbLine
 62
7
  6
CONTINUOUS
 10
469.715586967
 20
164.6614912719
 11
470.0947186273
 21
164.7994839111
  0
LINE
  5
2BA
100
AcDbEntity
  8
KONSTRUKTIONSELEMENTE
100
AcDbLine
 62
7
  6
CONTINUOUS
 10
468.2821230639
 20
164.1129548381
 11
468.776997431
 21
164.2930743774
  0
LINE
  5
2BB
100
AcDbEntity
  8
KONSTRUKTIONSELEMENTE
100
AcDbLine
 62
7
  6
CONTINUOUS
 10
469.9205698572
 20
164.4818477581
 11
470.1764333823
 21
164.5749744653
  0
LINE
  5
2BC
100
AcDbEntity
  8
KONSTRUKTIONSELEMENTE
100
AcDbLine
 62
7
  6
CONTINUOUS
 10
468.3495085241
 20
163.8344975451
 11
468.8443828913
 21
164.0146170845
  0
LINE
  5
2BD
100
AcDbEntity
  8
KONSTRUKTIONSELEMENTE
100
AcDbLine
 62
7
  6
CONTINUOUS
 10
470.0997272241
 20
164.3717494987
 11
470.1981635277
 21
164.4075773832
  0
LINE
  5
2BE
100
AcDbEntity
  8
KONSTRUKTIONSELEMENTE
100
AcDbLine
 62
7
  6
CONTINUOUS
 10
469.433335333
 20
164.0769508821
 11
469.9041009518
 21
164.2482955547
  0
LINE
  5
2BF
100
AcDbEntity
  8
KONSTRUKTIONSELEMENTE
100
AcDbLine
 62
7
  6
CONTINUOUS
 10
469.0809627257
 20
163.9137134532
 11
469.2630444362
 21
163.979985776
  0
LINE
  5
2C0
100
AcDbEntity
  8
KONSTRUKTIONSELEMENTE
100
AcDbLine
 62
7
  6
CONTINUOUS
 10
469.1306997048
 20
163.7408196442
 11
469.4235345676
 21
163.8474028178
  0
LINE
  5
2C1
100
AcDbEntity
  8
KONSTRUKTIONSELEMENTE
100
AcDbLine
 62
7
  6
CONTINUOUS
 10
469.6822746896
 20
163.8363972228
 11
470.1771490568
 21
164.0165167621
  0
LINE
  5
2C2
100
AcDbEntity
  8
KONSTRUKTIONSELEMENTE
100
AcDbLine
 62
7
  6
CONTINUOUS
 10
469.2170205055
 20
163.5079117067
 11
469.6085946458
 21
163.6504330382
  0
LINE
  5
2C3
100
AcDbEntity
  8
KONSTRUKTIONSELEMENTE
100
AcDbLine
 62
7
  6
CONTINUOUS
 10
469.8779873842
 20
163.7189779051
 11
470.3728617513
 21
163.8990974445
  0
LINE
  5
2C4
100
AcDbEntity
  8
KONSTRUKTIONSELEMENTE
100
AcDbLine
 62
7
  6
CONTINUOUS
 10
470.034930677
 20
163.7145729354
 11
470.5298050442
 21
163.8946924748
  0
LINE
  5
2C5
100
AcDbEntity
  8
KONSTRUKTIONSELEMENTE
100
AcDbLine
 62
7
  6
CONTINUOUS
 10
469.3047302895
 20
163.265844849
 11
469.7644919428
 21
163.4331844057
  0
LINE
  5
2C6
100
AcDbEntity
  8
KONSTRUKTIONSELEMENTE
100
AcDbLine
 62
7
  6
CONTINUOUS
 10
469.3958196291
 20
163.0153437901
 11
469.8906939962
 21
163.1954633294
  0
LINE
  5
2C7
100
AcDbEntity
  8
KONSTRUKTIONSELEMENTE
100
AcDbLine
 62
7
  6
CONTINUOUS
 10
468.9014655266
 20
162.2754782887
 11
469.3963398938
 21
162.4555978281
  0
LINE
  5
2C8
100
AcDbEntity
  8
KONSTRUKTIONSELEMENTE
100
AcDbLine
 62
7
  6
CONTINUOUS
 10
470.6938971679
 20
162.2088162965
 11
471.188771535
 21
162.3889358358
  0
LINE
  5
2C9
100
AcDbEntity
  8
KONSTRUKTIONSELEMENTE
100
AcDbLine
 62
7
  6
CONTINUOUS
 10
471.4136266388
 20
160.1975527017
 11
471.908501006
 21
160.3776722411
  0
LINE
  5
2CA
100
AcDbEntity
  8
BEZUGSACHSEN
100
AcDbLine
 62
7
  6
CONTINUOUS
 10
464.5874017166
 20
156.5262096521
 11
468.7734722602
 21
158.0498147285
  0
LINE
  5
2CB
100
AcDbEntity
  8
BEZUGSACHSEN
100
AcDbLine
 62
7
  6
CONTINUOUS
 10
469.3544684491
 20
142.3921667767
 11
471.1049748749
 21
138.3249593264
  0
LINE
  5
2CC
100
AcDbEntity
  8
RUNDUNGEN
100
AcDbLine
 62
7
  6
CONTINUOUS
 10
475.4802597498
 20
139.9174327874
 11
480.4028283201
 21
127.3319598278
  0
LINE
  5
2CD
100
AcDbEntity
  8
BEZUGSACHSEN
100
AcDbLine
 62
7
  6
CONTINUOUS
 10
457.8502640342
 20
163.2749354908
 11
468.5063847371
 21
133.9974844807
  0
LINE
  5
2CE
100
AcDbEntity
  8
BEZUGSACHSEN
100
AcDbLine
 62
7
  6
CONTINUOUS
 10
471.1049748749
 20
138.3249593264
 11
475.4238546562
 21
125.5197616169
  0
LWPOLYLINE
  5
2CF
100
AcDbEntity
  8
BEZUGSACHSEN
100
AcDbPolyline
 62
7
  6
CONTINUOUS
 90
9
 70
0
 10
468.430319441
 20
134.1165888582
 10
468.4578158305
 20
133.8572970269
 10
468.4506949414
 20
133.5951472291
 10
468.4087163755
 20
133.3356292135
 10
468.332551612
 20
133.083825
 10
468.2236718818
 20
132.844584868
 10
468.0846563816
 20
132.6229441186
 10
467.9187082585
 20
132.422981953
 10
467.7306401997
 20
132.2489533285
  0
LINE
  5
2D0
100
AcDbEntity
  8
BEZUGSACHSEN
100
AcDbLine
 62
7
  6
CONTINUOUS
 10
457.5509278166
 20
164.8367056944
 11
457.1947593747
 21
176.8373275567
  0
LINE
  5
2D1
100
AcDbEntity
  8
BEZUGSACHSEN
100
AcDbLine
 62
7
  6
CONTINUOUS
 10
431.6897253922
 20
133.9974803519
 11
442.3458475977
 21
163.2749354908
  0
LINE
  5
2D2
100
AcDbEntity
  8
BEZUGSACHSEN
100
AcDbLine
 62
7
  6
CONTINUOUS
 10
434.0165248399
 20
129.4260427936
 11
431.91719645
 21
123.6581854464
  0
LINE
  5
2D3
100
AcDbEntity
  8
BEZUGSACHSEN
100
AcDbLine
 62
7
  6
CONTINUOUS
 10
432.3899416593
 20
113.2618246335
 11
429.2325202502
 21
104.5868806082
  0
LINE
  5
2D4
100
AcDbEntity
  8
RUNDUNGEN
100
AcDbLine
 62
7
  6
CONTINUOUS
 10
420.6260896176
 20
135.9196822922
 11
407.5630733328
 21
124.9585101456
  0
LINE
  5
2D5
100
AcDbEntity
  8
BEZUGSACHSEN
100
AcDbLine
 62
7
  6
CONTINUOUS
 10
469.5964217941
 20
167.5501872823
 11
476.9471965593
 21
147.3540995993
  0
LINE
  5
2D6
100
AcDbEntity
  8
KONSTRUKTIONSELEMENTE
100
AcDbLine
 62
7
  6
CONTINUOUS
 10
476.9471965593
 20
147.3540995993
 11
480.2525439996
 21
138.2727321435
  0
LINE
  5
2D7
100
AcDbEntity
  8
RUNDUNGEN
100
AcDbLine
 62
7
  6
CONTINUOUS
 10
476.9471965644
 20
147.3540995854
 11
480.2525424969
 21
138.2727362723
  0
LINE
  5
2D8
100
AcDbEntity
  8
KONSTRUKTIONSELEMENTE
100
AcDbLine
 62
7
  6
CONTINUOUS
 10
487.0727675977
 20
130.4985883129
 11
484.9734392078
 21
136.2664456602
  0
LINE
  5
2D9
100
AcDbEntity
  8
RUNDUNGEN
100
AcDbLine
 62
7
  6
CONTINUOUS
 10
497.2749847638
 20
114.1634446213
 11
494.1175633546
 21
122.8383886466
  0
LINE
  5
2DA
100
AcDbEntity
  8
0
100
AcDbLine
 62
7
  6
CONTINUOUS
 10
474.2068749149
 20
144.1582982948
 11
475.4802597498
 21
139.9174327874
  0
LINE
  5
2DB
100
AcDbEntity
  8
BEZUGSACHSEN
100
AcDbLine
 62
7
  6
CONTINUOUS
 10
471.1049748749
 20
138.3249593264
 11
475.4802597498
 21
139.9174327874
  0
LINE
  5
2DC
100
AcDbEntity
  8
BEZUGSACHSEN
100
AcDbLine
 62
7
  6
CONTINUOUS
 10
467.5805943115
 20
115.8401662385
 11
470.5417398466
 21
132.6336570767
  0
LINE
  5
2DD
100
AcDbEntity
  8
BEZUGSACHSEN
100
AcDbLine
 62
7
  6
CONTINUOUS
 10
427.619868837
 20
102.3628020954
 11
425.5965766619
 21
100.7758132258
  0
LINE
  5
2DE
100
AcDbEntity
  8
BEZUGSACHSEN
100
AcDbLine
 62
7
  6
CONTINUOUS
 10
467.7306401997
 20
132.2489533285
 11
467.5265085384
 21
132.1040863852
  0
LINE
  5
2DF
100
AcDbEntity
  8
BEZUGSACHSEN
100
AcDbLine
 62
7
  6
CONTINUOUS
 10
467.5265085384
 20
132.1040863852
 11
467.4513764012
 21
132.0600002149
  0
LINE
  5
2E0
100
AcDbEntity
  8
BEZUGSACHSEN
100
AcDbLine
 62
7
  6
CONTINUOUS
 10
467.451376532
 20
132.0599999801
 11
467.0893527931
 21
131.8593224946
  0
LINE
  5
2E1
100
AcDbEntity
  8
0
100
AcDbLine
 62
7
  6
CONTINUOUS
 10
495.098055816
 20
272.8477300223
 11
495.098055816
 21
202.8477300223
  0
LINE
  5
2E2
100
AcDbEntity
  8
0
100
AcDbLine
 62
7
  6
CONTINUOUS
 10
517.098055816
 20
272.8477300223
 11
517.098055816
 21
202.8477300223
  0
LINE
  5
2E3
100
AcDbEntity
  8
RUNDUNGEN
100
AcDbLine
 62
7
  6
CONTINUOUS
 10
496.9393972755
 20
108.9068581426
 11
497.469232221
 21
111.4231092884
  0
LINE
  5
2E4
100
AcDbEntity
  8
KONSTRUKTIONSELEMENTE
100
AcDbLine
 62
7
  6
CONTINUOUS
 10
118.3186382213
 20
66.9326665129
 11
127.4186382213
 21
66.9326665129
  0
LINE
  5
2E5
100
AcDbEntity
  8
KONSTRUKTIONSELEMENTE
100
AcDbLine
 62
7
  6
CONTINUOUS
 10
117.8186382213
 20
67.3656792147
 11
118.3186382213
 21
67.3656792147
  0
LINE
  5
2E6
100
AcDbEntity
  8
KONSTRUKTIONSELEMENTE
100
AcDbLine
 62
7
  6
CONTINUOUS
 10
127.4186382213
 20
67.3656792147
 11
127.9186382213
 21
67.3656792147
  0
LINE
  5
2E7
100
AcDbEntity
  8
KONSTRUKTIONSELEMENTE
100
AcDbLine
 62
7
  6
CONTINUOUS
 10
114.3186382213
 20
76.9326665129
 11
113.2680200079
 21
76.9326665129
  0
LINE
  5
2E8
100
AcDbEntity
  8
KONSTRUKTIONSELEMENTE
100
AcDbLine
 62
7
  6
CONTINUOUS
 10
131.4186382213
 20
76.9326665129
 11
145.22937842
 21
76.9326665129
  0
LINE
  5
2E9
100
AcDbEntity
  8
KONSTRUKTIONSELEMENTE
100
AcDbLine
 62
7
  6
CONTINUOUS
 10
149.7793185912
 20
78.9874020433
 11
143.8883179755
 21
80.360911394
  0
LWPOLYLINE
  5
2EA
100
AcDbEntity
  8
BEZUGSACHSEN
100
AcDbPolyline
 62
7
  6
CONTINUOUS
 90
8
 70
0
 10
141.3375226895
 20
97.7927881493
 10
141.7188117289
 20
97.8268636216
 10
142.0903073428
 20
97.9016576617
 10
142.4580725769
 20
98.0121877225
 10
142.8249405594
 20
98.1546128377
 10
143.1979722248
 20
98.3282563143
 10
143.5826752501
 20
98.5336521964
 10
143.9823818207
 20
98.7713720322
  0
LINE
  5
2EB
100
AcDbEntity
  8
BEZUGSACHSEN
100
AcDbLine
 62
7
  6
CONTINUOUS
 10
141.2512035614
 20
97.7915159655
 11
141.3369809435
 21
97.7927801768
  0
LINE
  5
2EC
100
AcDbEntity
  8
BEZUGSACHSEN
100
AcDbLine
 62
7
  6
CONTINUOUS
 10
141.2511404216
 20
97.7915158471
 11
141.2501391617
 21
97.7915150808
  0
LINE
  5
2ED
100
AcDbEntity
  8
KONSTRUKTIONSELEMENTE
100
AcDbLine
 62
7
  6
CONTINUOUS
 10
141.2511187202
 20
97.7915150682
 11
137.1221435109
 21
97.7915150682
  0
LINE
  5
2EE
100
AcDbEntity
  8
KONSTRUKTIONSELEMENTE
100
AcDbLine
 62
7
  6
CONTINUOUS
 10
108.6151329316
 20
97.7915150682
 11
104.4860236837
 21
97.7915150682
  0
LINE
  5
2EF
100
AcDbEntity
  8
BEZUGSACHSEN
100
AcDbLine
 62
7
  6
CONTINUOUS
 10
104.4871560988
 20
97.7915150718
 11
104.4860691584
 21
97.7915158704
  0
LINE
  5
2F0
100
AcDbEntity
  8
KONSTRUKTIONSELEMENTE
100
AcDbLine
 62
7
  6
CONTINUOUS
 10
149.7793185912
 20
83.3175290622
 11
143.8883179755
 21
84.6910384129
  0
LWPOLYLINE
  5
2F1
100
AcDbEntity
  8
BEZUGSACHSEN
100
AcDbPolyline
 62
7
  6
CONTINUOUS
 90
8
 70
0
 10
102.1574189599
 20
98.5320599072
 10
102.5416080491
 20
98.3271030108
 10
102.9141965985
 20
98.1538162569
 10
103.2806927524
 20
98.0116719646
 10
103.6481635936
 20
97.9013559825
 10
104.0194036049
 20
97.8267254465
 10
104.4004426179
 20
97.7927670655
 10
104.4860728811
 20
97.7915159655
  0
LINE
  5
2F2
100
AcDbEntity
  8
0
100
AcDbLine
 62
7
  6
CONTINUOUS
 10
117.2686382213
 20
105.7415150682
 11
128.4686382213
 21
105.7415150682
  0
LINE
  5
2F3
100
AcDbEntity
  8
BEZUGSACHSEN
100
AcDbLine
 62
7
  6
CONTINUOUS
 10
101.7548946218
 20
98.7713720322
 11
102.1546011924
 21
98.5336521964
  0
LINE
  5
2F4
100
AcDbEntity
  8
BEZUGSACHSEN
100
AcDbLine
 62
7
  6
CONTINUOUS
 10
101.3372563164
 20
99.0424685141
 11
101.7582920276
 21
98.7692571515
  0
LINE
  5
2F5
100
AcDbEntity
  8
BEZUGSACHSEN
100
AcDbLine
 62
7
  6
CONTINUOUS
 10
100.9001287355
 20
99.3476189529
 11
101.3412923871
 21
99.039748208
  0
LINE
  5
2F6
100
AcDbEntity
  8
BEZUGSACHSEN
100
AcDbLine
 62
7
  6
CONTINUOUS
 10
100.4421517183
 20
99.6876722401
 11
100.9048495873
 21
99.3442172865
  0
LINE
  5
2F7
100
AcDbEntity
  8
BEZUGSACHSEN
100
AcDbLine
 62
7
  6
CONTINUOUS
 10
99.963346644
 20
100.062647519
 11
100.4475883886
 21
99.683523981
  0
LINE
  5
2F8
100
AcDbEntity
  8
BEZUGSACHSEN
100
AcDbLine
 62
7
  6
CONTINUOUS
 10
99.4639506817
 20
100.4724500257
 11
99.9695118721
 21
100.0577027948
  0
LINE
  5
2F9
100
AcDbEntity
  8
BEZUGSACHSEN
100
AcDbLine
 62
7
  6
CONTINUOUS
 10
99.0352794224
 20
100.8378813445
 11
99.4708133524
 21
100.4666988931
  0
LINE
  5
2FA
100
AcDbEntity
  8
BEZUGSACHSEN
100
AcDbLine
 62
7
  6
CONTINUOUS
 10
98.2973608975
 20
101.4771119534
 11
99.0353685508
 21
100.8378040007
  0
LINE
  5
2FB
100
AcDbEntity
  8
BEZUGSACHSEN
100
AcDbLine
 62
7
  6
CONTINUOUS
 10
98.2505003961
 20
101.5196605079
 11
98.2958278298
 21
101.4784442441
  0
LINE
  5
2FC
100
AcDbEntity
  8
KONSTRUKTIONSELEMENTE
100
AcDbLine
 62
7
  6
CONTINUOUS
 10
83.98172953
 20
105.4346134048
 11
84.8269660535
 21
104.5283056177
  0
LINE
  5
2FD
100
AcDbEntity
  8
KONSTRUKTIONSELEMENTE
100
AcDbLine
 62
7
  6
CONTINUOUS
 10
90.5111816739
 20
98.4333857499
 11
109.2168941149
 21
78.3761208585
  0
LINE
  5
2FE
100
AcDbEntity
  8
KONSTRUKTIONSELEMENTE
100
AcDbLine
 62
7
  6
CONTINUOUS
 10
90.5111816739
 20
98.8663984518
 11
90.299872543
 21
99.0929753986
  0
LINE
  5
2FF
100
AcDbEntity
  8
KONSTRUKTIONSELEMENTE
100
AcDbLine
 62
7
  6
CONTINUOUS
 10
90.5111816739
 20
98.4333857499
 11
96.4021822896
 21
99.8068951006
  0
LINE
  5
300
100
AcDbEntity
  8
KONSTRUKTIONSELEMENTE
100
AcDbLine
 62
7
  6
CONTINUOUS
 10
90.5111816739
 20
98.8663984518
 11
96.4021822896
 21
100.2399078025
  0
LINE
  5
301
100
AcDbEntity
  8
KONSTRUKTIONSELEMENTE
100
AcDbLine
 62
7
  6
CONTINUOUS
 10
91.0254068309
 20
100.0896699352
 11
95.5569457661
 21
101.1462155895
  0
LINE
  5
302
100
AcDbEntity
  8
KONSTRUKTIONSELEMENTE
100
AcDbLine
 62
7
  6
CONTINUOUS
 10
91.0254068309
 20
103.5537715503
 11
93.9310446799
 21
104.2312321407
  0
LINE
  5
303
100
AcDbEntity
  8
KONSTRUKTIONSELEMENTE
100
AcDbLine
 62
7
  6
CONTINUOUS
 10
90.7179666692
 20
105.9018149684
 11
84.8269660535
 21
104.5283056177
  0
LINE
  5
304
100
AcDbEntity
  8
0
100
AcDbLine
 62
7
  6
CONTINUOUS
 10
117.2686382213
 20
117.8415150682
 11
128.4686382213
 21
117.8415150682
  0
LINE
  5
305
100
AcDbEntity
  8
KONSTRUKTIONSELEMENTE
100
AcDbLine
 62
7
  6
CONTINUOUS
 10
165.6531584551
 20
103.6983369102
 11
171.5441590709
 21
102.3248275595
  0
LINE
  5
306
100
AcDbEntity
  8
KONSTRUKTIONSELEMENTE
100
AcDbLine
 62
7
  6
CONTINUOUS
 10
147.8686382213
 20
111.4308441376
 11
170.2127927305
 21
106.2212189563
  0
LINE
  5
307
100
AcDbEntity
  8
KONSTRUKTIONSELEMENTE
100
AcDbLine
 62
7
  6
CONTINUOUS
 10
92.9739370659
 20
105.2574940916
 11
97.1277165775
 21
100.8035896372
  0
LINE
  5
308
100
AcDbEntity
  8
KONSTRUKTIONSELEMENTE
100
AcDbLine
 62
7
  6
CONTINUOUS
 10
97.8686382213
 20
111.4308441376
 11
86.4001771565
 21
108.7569285267
  0
LINE
  5
309
100
AcDbEntity
  8
KONSTRUKTIONSELEMENTE
100
AcDbLine
 62
7
  6
CONTINUOUS
 10
97.8686382213
 20
115.7609711565
 11
86.4001771565
 21
113.0870555457
  0
LINE
  5
30A
100
AcDbEntity
  8
KONSTRUKTIONSELEMENTE
100
AcDbLine
 62
7
  6
CONTINUOUS
 10
170.2127927305
 20
110.5513459752
 11
147.8895249072
 21
115.7561013457
  0
LINE
  5
30B
100
AcDbEntity
  8
KONSTRUKTIONSELEMENTE
100
AcDbLine
 62
7
  6
CONTINUOUS
 10
108.762438835
 20
137.3558845938
 11
110.4507869756
 21
137.5441975905
  0
LINE
  5
30C
100
AcDbEntity
  8
RUNDUNGEN
100
AcDbLine
 62
7
  6
CONTINUOUS
 10
108.7591247145
 20
137.3555148791
 11
108.7608919648
 21
137.3557120607
  0
LWPOLYLINE
  5
30D
100
AcDbEntity
  8
KONSTRUKTIONSELEMENTE
100
AcDbPolyline
 62
7
  6
CONTINUOUS
 90
7
 70
0
 10
111.1724857987
 20
137.5824042191
 10
111.1232834348
 20
137.5822356534
 10
110.9798214571
 20
137.5798098505
 10
110.8300429253
 20
137.5741424171
 10
110.6755292386
 20
137.564781216
 10
110.5173496456
 20
137.5512116896
 10
110.4502865592
 20
137.5441405161
  0
LWPOLYLINE
  5
30E
100
AcDbEntity
  8
KONSTRUKTIONSELEMENTE
100
AcDbPolyline
 62
7
  6
CONTINUOUS
 90
7
 70
0
 10
135.2869545255
 20
137.5441442205
 10
135.2122071972
 20
137.5519739285
 10
135.054136805
 20
137.565329383
 10
134.8996550185
 20
137.5745078932
 10
134.7498298241
 20
137.5800120401
 10
134.6062457402
 20
137.5822844304
 10
111.1724857986
 20
137.5824053735
  0
LINE
  5
30F
100
AcDbEntity
  8
KONSTRUKTIONSELEMENTE
100
AcDbLine
 62
7
  6
CONTINUOUS
 10
135.2864895444
 20
137.5441975818
 11
136.974837795
 21
137.3558845729
  0
LINE
  5
310
100
AcDbEntity
  8
RUNDUNGEN
100
AcDbLine
 62
7
  6
CONTINUOUS
 10
136.9763832642
 20
137.3557121961
 11
136.9781490294
 21
137.3555151804
  0
LINE
  5
311
100
AcDbEntity
  8
RUNDUNGEN
100
AcDbLine
 62
7
  6
CONTINUOUS
 10
93.1186382213
 20
139.9174327874
 11
96.487082896
 21
127.3319598278
  0
LINE
  5
312
100
AcDbEntity
  8
BEZUGSACHSEN
100
AcDbLine
 62
7
  6
CONTINUOUS
 10
93.1186382213
 20
138.3249593264
 11
96.487082896
 21
125.5197616169
  0
LWPOLYLINE
  5
313
100
AcDbEntity
  8
BEZUGSACHSEN
100
AcDbPolyline
 62
7
  6
CONTINUOUS
 90
8
 70
0
 10
97.8688041358
 20
102.38994236
 10
97.8836818017
 20
102.2190499801
 10
97.9207989542
 20
102.0558512511
 10
97.9789344738
 20
101.9009950947
 10
98.0572590519
 20
101.7557047556
 10
98.1547115571
 20
101.6219029824
 10
98.2703833572
 20
101.5010922263
 10
98.2957961021
 20
101.4784744508
  0
LINE
  5
314
100
AcDbEntity
  8
KONSTRUKTIONSELEMENTE
100
AcDbLine
 62
7
  6
CONTINUOUS
 10
83.5132684652
 20
106.4911590591
 11
83.5132684652
 21
110.8212860781
  0
LINE
  5
315
100
AcDbEntity
  8
KONSTRUKTIONSELEMENTE
100
AcDbLine
 62
7
  6
CONTINUOUS
 10
90.1593342236
 20
99.4099390949
 11
90.1593342236
 21
102.87404071
  0
LINE
  5
316
100
AcDbEntity
  8
KONSTRUKTIONSELEMENTE
100
AcDbLine
 62
7
  6
CONTINUOUS
 10
90.5111816739
 20
98.4333857499
 11
90.5111816739
 21
98.8663984518
  0
LWPOLYLINE
  5
317
100
AcDbEntity
  8
BEZUGSACHSEN
100
AcDbPolyline
 62
7
  6
CONTINUOUS
 90
7
 70
0
 10
97.8686496769
 20
102.410441112
 10
97.8697117021
 20
102.3616234317
 10
97.893272274
 20
102.1658772473
 10
97.9452282848
 20
101.9828664646
 10
98.0232495391
 20
101.8131245247
 10
98.1256168627
 20
101.6580321182
 10
98.2505003961
 20
101.5196605079
  0
LINE
  5
318
100
AcDbEntity
  8
BEZUGSACHSEN
100
AcDbLine
 62
7
  6
CONTINUOUS
 10
97.8685913585
 20
102.4112118602
 11
97.8688041358
 21
102.38994236
  0
LINE
  5
319
100
AcDbEntity
  8
0
100
AcDbLine
 62
7
  6
CONTINUOUS
 10
93.1186382213
 20
158.0498147285
 11
93.1186382213
 21
139.9174327874
  0
LINE
  5
31A
100
AcDbEntity
  8
BEZUGSACHSEN
100
AcDbLine
 62
7
  6
CONTINUOUS
 10
93.1186382213
 20
138.3249593264
 11
93.1186382213
 21
139.9174327874
  0
LINE
  5
31B
100
AcDbEntity
  8
BEZUGSACHSEN
100
AcDbLine
 62
7
  6
CONTINUOUS
 10
97.8686441589
 20
102.4104410825
 11
97.8686382213
 21
110.3214043044
  0
LINE
  5
31C
100
AcDbEntity
  8
RUNDUNGEN
100
AcDbLine
 62
7
  6
CONTINUOUS
 10
97.8686382213
 20
102.413702335
 11
97.8686382213
 21
133.9052924631
  0
LINE
  5
31D
100
AcDbEntity
  8
KONSTRUKTIONSELEMENTE
100
AcDbLine
 62
7
  6
CONTINUOUS
 10
100.0656524235
 20
162.2754782887
 11
100.0656524235
 21
162.4555978281
  0
LINE
  5
31E
100
AcDbEntity
  8
KONSTRUKTIONSELEMENTE
100
AcDbLine
 62
7
  6
CONTINUOUS
 10
101.6770793494
 20
163.6781514346
 11
101.6770793494
 21
163.8582709739
  0
LINE
  5
31F
100
AcDbEntity
  8
KONSTRUKTIONSELEMENTE
100
AcDbLine
 62
7
  6
CONTINUOUS
 10
101.9056373754
 20
163.8275367398
 11
101.9056373754
 21
164.0076562792
  0
LINE
  5
320
100
AcDbEntity
  8
KONSTRUKTIONSELEMENTE
100
AcDbLine
 62
7
  6
CONTINUOUS
 10
102.1752987358
 20
163.8680485264
 11
102.1752987358
 21
164.0481680657
  0
LINE
  5
321
100
AcDbEntity
  8
KONSTRUKTIONSELEMENTE
100
AcDbLine
 62
7
  6
CONTINUOUS
 10
102.4860632965
 20
163.7998662367
 11
102.4860632965
 21
163.979985776
  0
LINE
  5
322
100
AcDbEntity
  8
KONSTRUKTIONSELEMENTE
100
AcDbLine
 62
7
  6
CONTINUOUS
 10
102.7499644642
 20
163.6672832785
 11
102.7499644642
 21
163.8474028178
  0
LINE
  5
323
100
AcDbEntity
  8
KONSTRUKTIONSELEMENTE
100
AcDbLine
 62
7
  6
CONTINUOUS
 10
102.8286793652
 20
165.8568319546
 11
102.8286793652
 21
166.036951494
  0
LINE
  5
324
100
AcDbEntity
  8
KONSTRUKTIONSELEMENTE
100
AcDbLine
 62
7
  6
CONTINUOUS
 10
102.9670017462
 20
163.4703134989
 11
102.9670017462
 21
163.6504330382
  0
LINE
  5
325
100
AcDbEntity
  8
KONSTRUKTIONSELEMENTE
100
AcDbLine
 62
7
  6
CONTINUOUS
 10
103.4306586992
 20
162.6210466944
 11
103.4306586992
 21
162.8011662338
  0
LINE
  5
326
100
AcDbEntity
  8
KONSTRUKTIONSELEMENTE
100
AcDbLine
 62
7
  6
CONTINUOUS
 10
103.5474276672
 20
163.4423846405
 11
103.5474276672
 21
163.6225041798
  0
LINE
  5
327
100
AcDbEntity
  8
KONSTRUKTIONSELEMENTE
100
AcDbLine
 62
7
  6
CONTINUOUS
 10
104.2001006835
 20
160.1975527017
 11
104.2001006835
 21
160.3776722411
  0
LINE
  5
328
100
AcDbEntity
  8
KONSTRUKTIONSELEMENTE
100
AcDbLine
 62
7
  6
CONTINUOUS
 10
104.4812827879
 20
160.5895641553
 11
104.4812827879
 21
160.7696836946
  0
LINE
  5
329
100
AcDbEntity
  8
KONSTRUKTIONSELEMENTE
100
AcDbLine
 62
7
  6
CONTINUOUS
 10
104.571995979
 20
167.5433168193
 11
104.571995979
 21
167.7234363587
  0
LINE
  5
32A
100
AcDbEntity
  8
KONSTRUKTIONSELEMENTE
100
AcDbLine
 62
7
  6
CONTINUOUS
 10
105.1924410901
 20
164.0681760153
 11
105.1924410901
 21
164.2482955547
  0
LINE
  5
32B
100
AcDbEntity
  8
KONSTRUKTIONSELEMENTE
100
AcDbLine
 62
7
  6
CONTINUOUS
 10
105.6318035886
 20
163.8363972228
 11
105.6318035886
 21
164.0165167621
  0
LINE
  5
32C
100
AcDbEntity
  8
KONSTRUKTIONSELEMENTE
100
AcDbLine
 62
7
  6
CONTINUOUS
 10
105.652874845
 20
162.2088162965
 11
105.652874845
 21
162.3889358358
  0
LINE
  5
32D
100
AcDbEntity
  8
KONSTRUKTIONSELEMENTE
100
AcDbLine
 62
7
  6
CONTINUOUS
 10
105.9809207229
 20
162.6581227601
 11
105.9809207229
 21
162.8382422994
  0
LINE
  5
32E
100
AcDbEntity
  8
KONSTRUKTIONSELEMENTE
100
AcDbLine
 62
7
  6
CONTINUOUS
 10
106.0530262654
 20
163.7189779051
 11
106.0530262654
 21
163.8990974445
  0
LINE
  5
32F
100
AcDbEntity
  8
KONSTRUKTIONSELEMENTE
100
AcDbLine
 62
7
  6
CONTINUOUS
 10
106.0974249732
 20
168.8451202593
 11
106.0974249732
 21
169.0252397986
  0
LINE
  5
330
100
AcDbEntity
  8
KONSTRUKTIONSELEMENTE
100
AcDbLine
 62
7
  6
CONTINUOUS
 10
106.590469735
 20
163.7145729354
 11
106.590469735
 21
163.8946924748
  0
LINE
  5
331
100
AcDbEntity
  8
KONSTRUKTIONSELEMENTE
100
AcDbLine
 62
7
  6
CONTINUOUS
 10
106.9357577038
 20
165.7550385576
 11
106.9357577038
 21
165.935158097
  0
LINE
  5
332
100
AcDbEntity
  8
KONSTRUKTIONSELEMENTE
100
AcDbLine
 62
7
  6
CONTINUOUS
 10
106.9754127946
 20
163.8250156768
 11
106.9754127946
 21
164.0051352161
  0
LINE
  5
333
100
AcDbEntity
  8
KONSTRUKTIONSELEMENTE
100
AcDbLine
 62
7
  6
CONTINUOUS
 10
107.1826485163
 20
165.4685554362
 11
107.1826485163
 21
165.6486749755
  0
LINE
  5
334
100
AcDbEntity
  8
KONSTRUKTIONSELEMENTE
100
AcDbLine
 62
7
  6
CONTINUOUS
 10
107.3422157996
 20
164.048793093
 11
107.3422157996
 21
164.2289126323
  0
LINE
  5
335
100
AcDbEntity
  8
KONSTRUKTIONSELEMENTE
100
AcDbLine
 62
7
  6
CONTINUOUS
 10
107.5746581035
 20
164.2733025389
 11
107.5746581035
 21
164.4534220782
  0
LINE
  5
336
100
AcDbEntity
  8
KONSTRUKTIONSELEMENTE
100
AcDbLine
 62
7
  6
CONTINUOUS
 10
107.7889603593
 20
164.6107982556
 11
107.7889603593
 21
164.7909177949
  0
LINE
  5
337
100
AcDbEntity
  8
KONSTRUKTIONSELEMENTE
100
AcDbLine
 62
7
  6
CONTINUOUS
 10
107.8689019073
 20
164.9493744059
 11
107.8689019073
 21
165.1294939453
  0
LINE
  5
338
100
AcDbEntity
  8
KONSTRUKTIONSELEMENTE
100
AcDbLine
 62
7
  6
CONTINUOUS
 10
108.0955142577
 20
169.5283999328
 11
108.0955142577
 21
169.7085194722
  0
LINE
  5
339
100
AcDbEntity
  8
KONSTRUKTIONSELEMENTE
100
AcDbLine
 62
7
  6
CONTINUOUS
 10
108.4285288799
 20
169.6406003046
 11
108.4285288799
 21
169.8207198439
  0
LINE
  5
33A
100
AcDbEntity
  8
KONSTRUKTIONSELEMENTE
100
AcDbLine
 62
7
  6
CONTINUOUS
 10
108.6151329316
 20
122.8383886466
 11
108.6151329316
 21
116.5797970747
  0
LINE
  5
33B
100
AcDbEntity
  8
BEZUGSACHSEN
100
AcDbLine
 62
7
  6
CONTINUOUS
 10
108.6151329316
 20
97.7915150682
 11
108.6151329316
 21
108.9068581426
  0
LINE
  5
33C
100
AcDbEntity
  8
KONSTRUKTIONSELEMENTE
100
AcDbLine
 62
7
  6
CONTINUOUS
 10
108.7556463347
 20
169.6378172887
 11
108.7556463347
 21
169.8179368281
  0
LINE
  5
33D
100
AcDbEntity
  8
KONSTRUKTIONSELEMENTE
100
AcDbLine
 62
7
  6
CONTINUOUS
 10
109.0060219827
 20
165.5876279563
 11
109.0060219827
 21
165.7677474956
  0
LINE
  5
33E
100
AcDbEntity
  8
KONSTRUKTIONSELEMENTE
100
AcDbLine
 62
7
  6
CONTINUOUS
 10
109.0768667954
 20
169.5203158339
 11
109.0768667954
 21
169.7004353732
  0
LINE
  5
33F
100
AcDbEntity
  8
KONSTRUKTIONSELEMENTE
100
AcDbLine
 62
7
  6
CONTINUOUS
 10
109.3921891397
 20
169.2882800455
 11
109.3921891397
 21
169.4683995848
  0
LINE
  5
340
100
AcDbEntity
  8
KONSTRUKTIONSELEMENTE
100
AcDbLine
 62
7
  6
CONTINUOUS
 10
110.3204647571
 20
168.2488801278
 11
110.3204647571
 21
168.4289996671
  0
LINE
  5
341
100
AcDbEntity
  8
KONSTRUKTIONSELEMENTE
100
AcDbLine
 62
7
  6
CONTINUOUS
 10
110.5002226958
 20
167.9266138718
 11
110.5002226958
 21
168.1067334112
  0
LINE
  5
342
100
AcDbEntity
  8
KONSTRUKTIONSELEMENTE
100
AcDbLine
 62
7
  6
CONTINUOUS
 10
110.632801055
 20
166.6879066089
 11
110.632801055
 21
166.8680261482
  0
LINE
  5
343
100
AcDbEntity
  8
KONSTRUKTIONSELEMENTE
100
AcDbLine
 62
7
  6
CONTINUOUS
 10
110.9098285794
 20
166.9837718193
 11
110.9098285794
 21
167.1638913586
  0
LINE
  5
344
100
AcDbEntity
  8
KONSTRUKTIONSELEMENTE
100
AcDbLine
 62
7
  6
CONTINUOUS
 10
111.0571880792
 20
167.3029741277
 11
111.0571880792
 21
167.4830936671
  0
LINE
  5
345
100
AcDbEntity
  8
KONSTRUKTIONSELEMENTE
100
AcDbLine
 62
7
  6
CONTINUOUS
 10
111.0807775028
 20
167.7602456781
 11
111.0807775028
 21
167.9403652174
  0
LINE
  5
346
100
AcDbEntity
  8
0
100
AcDbLine
 62
7
  6
CONTINUOUS
 10
111.8686382213
 20
328.7843010166
 11
111.8686382213
 21
146.9111590281
  0
LINE
  5
347
100
AcDbEntity
  8
KONSTRUKTIONSELEMENTE
100
AcDbLine
 62
7
  6
CONTINUOUS
 10
116.3186382213
 20
75.4228285885
 11
116.3186382213
 21
68.1156792147
  0
LINE
  5
348
100
AcDbEntity
  8
BEZUGSACHSEN
100
AcDbLine
 62
7
  6
CONTINUOUS
 10
117.2686382213
 20
115.723487018
 11
117.2686382213
 21
100.2951981799
  0
LINE
  5
349
100
AcDbEntity
  8
KONSTRUKTIONSELEMENTE
100
AcDbLine
 62
7
  6
CONTINUOUS
 10
117.2686382213
 20
115.723487018
 11
117.2686382213
 21
128.1053649154
  0
LINE
  5
34A
100
AcDbEntity
  8
KONSTRUKTIONSELEMENTE
100
AcDbLine
 62
7
  6
CONTINUOUS
 10
118.3186382213
 20
66.9326665129
 11
118.3186382213
 21
74.9326665129
  0
LINE
  5
34B
100
AcDbEntity
  8
KONSTRUKTIONSELEMENTE
100
AcDbLine
 62
7
  6
CONTINUOUS
 10
119.3686382213
 20
125.0619812141
 11
119.3686382213
 21
124.3477300223
  0
LINE
  5
34C
100
AcDbEntity
  8
KONSTRUKTIONSELEMENTE
100
AcDbLine
 62
7
  6
CONTINUOUS
 10
120.3686382213
 20
125.6640222571
 11
120.3686382213
 21
117.8415150682
  0
LINE
  5
34D
100
AcDbEntity
  8
KONSTRUKTIONSELEMENTE
100
AcDbLine
 62
7
  6
CONTINUOUS
 10
125.3686382213
 20
125.6640222571
 11
125.3686382213
 21
117.8415150682
  0
LINE
  5
34E
100
AcDbEntity
  8
KONSTRUKTIONSELEMENTE
100
AcDbLine
 62
7
  6
CONTINUOUS
 10
126.3686382213
 20
124.3477300223
 11
126.3686382213
 21
125.0619812141
  0
LINE
  5
34F
100
AcDbEntity
  8
KONSTRUKTIONSELEMENTE
100
AcDbLine
 62
7
  6
CONTINUOUS
 10
127.4186382213
 20
66.9326665129
 11
127.4186382213
 21
74.9326665129
  0
LINE
  5
350
100
AcDbEntity
  8
BEZUGSACHSEN
100
AcDbLine
 62
7
  6
CONTINUOUS
 10
128.4686382213
 20
100.2951981799
 11
128.4686382213
 21
115.723487018
  0
LINE
  5
351
100
AcDbEntity
  8
KONSTRUKTIONSELEMENTE
100
AcDbLine
 62
7
  6
CONTINUOUS
 10
128.4686382213
 20
115.723487018
 11
128.4686382213
 21
128.1053649154
  0
LINE
  5
352
100
AcDbEntity
  8
KONSTRUKTIONSELEMENTE
100
AcDbLine
 62
7
  6
CONTINUOUS
 10
129.4186382213
 20
68.1156792147
 11
129.4186382213
 21
75.3656792147
  0
LINE
  5
353
100
AcDbEntity
  8
0
100
AcDbLine
 62
7
  6
CONTINUOUS
 10
133.8686382213
 20
328.7843010166
 11
133.8686382213
 21
146.9111590281
  0
LINE
  5
354
100
AcDbEntity
  8
KONSTRUKTIONSELEMENTE
100
AcDbLine
 62
7
  6
CONTINUOUS
 10
133.8983119395
 20
167.4378334135
 11
133.8983119395
 21
167.6179529529
  0
LINE
  5
355
100
AcDbEntity
  8
KONSTRUKTIONSELEMENTE
100
AcDbLine
 62
7
  6
CONTINUOUS
 10
134.1706060866
 20
171.5580443658
 11
134.1706060866
 21
171.7381639051
  0
LINE
  5
356
100
AcDbEntity
  8
KONSTRUKTIONSELEMENTE
100
AcDbLine
 62
7
  6
CONTINUOUS
 10
134.4125788563
 20
167.1751450061
 11
134.4125788563
 21
167.3552645455
  0
LINE
  5
357
100
AcDbEntity
  8
KONSTRUKTIONSELEMENTE
100
AcDbLine
 62
7
  6
CONTINUOUS
 10
134.9062840067
 20
169.2629895477
 11
134.9062840067
 21
169.443109087
  0
LINE
  5
358
100
AcDbEntity
  8
KONSTRUKTIONSELEMENTE
100
AcDbLine
 62
7
  6
CONTINUOUS
 10
135.3005747141
 20
169.2657943453
 11
135.3005747141
 21
169.4459138846
  0
LINE
  5
359
100
AcDbEntity
  8
KONSTRUKTIONSELEMENTE
100
AcDbLine
 62
7
  6
CONTINUOUS
 10
135.5664662259
 20
170.8577863471
 11
135.5664662259
 21
171.0379058865
  0
LINE
  5
35A
100
AcDbEntity
  8
KONSTRUKTIONSELEMENTE
100
AcDbLine
 62
7
  6
CONTINUOUS
 10
135.6333778778
 20
166.6911227678
 11
135.6333778778
 21
166.8712423071
  0
LINE
  5
35B
100
AcDbEntity
  8
KONSTRUKTIONSELEMENTE
100
AcDbLine
 62
7
  6
CONTINUOUS
 10
135.7218264602
 20
169.4578715333
 11
135.7218264602
 21
169.6379910727
  0
LINE
  5
35C
100
AcDbEntity
  8
KONSTRUKTIONSELEMENTE
100
AcDbLine
 62
7
  6
CONTINUOUS
 10
135.7366522223
 20
170.6701187429
 11
135.7366522223
 21
170.8502382822
  0
LINE
  5
35D
100
AcDbEntity
  8
KONSTRUKTIONSELEMENTE
100
AcDbLine
 62
7
  6
CONTINUOUS
 10
135.7618551095
 20
166.3652456532
 11
135.7618551095
 21
166.5453651925
  0
LINE
  5
35E
100
AcDbEntity
  8
KONSTRUKTIONSELEMENTE
100
AcDbLine
 62
7
  6
CONTINUOUS
 10
135.9459311712
 20
169.648711336
 11
135.9459311712
 21
169.8288308753
  0
LINE
  5
35F
100
AcDbEntity
  8
KONSTRUKTIONSELEMENTE
100
AcDbLine
 62
7
  6
CONTINUOUS
 10
136.0217717109
 20
166.056431998
 11
136.0217717109
 21
166.2365515373
  0
LINE
  5
360
100
AcDbEntity
  8
KONSTRUKTIONSELEMENTE
100
AcDbLine
 62
7
  6
CONTINUOUS
 10
136.1467839117
 20
169.9531875086
 11
136.1467839117
 21
170.1333070479
  0
LINE
  5
361
100
AcDbEntity
  8
KONSTRUKTIONSELEMENTE
100
AcDbLine
 62
7
  6
CONTINUOUS
 10
136.2239581004
 20
170.2190386517
 11
136.2239581004
 21
170.3991581911
  0
LINE
  5
362
100
AcDbEntity
  8
KONSTRUKTIONSELEMENTE
100
AcDbLine
 62
7
  6
CONTINUOUS
 10
136.2292847869
 20
167.2871467077
 11
136.2292847869
 21
167.467266247
  0
LINE
  5
363
100
AcDbEntity
  8
KONSTRUKTIONSELEMENTE
100
AcDbLine
 62
7
  6
CONTINUOUS
 10
136.428904784
 20
167.6003429966
 11
136.428904784
 21
167.780462536
  0
LINE
  5
364
100
AcDbEntity
  8
KONSTRUKTIONSELEMENTE
100
AcDbLine
 62
7
  6
CONTINUOUS
 10
136.6088011804
 20
165.6174605862
 11
136.6088011804
 21
165.7975801255
  0
LINE
  5
365
100
AcDbEntity
  8
KONSTRUKTIONSELEMENTE
100
AcDbLine
 62
7
  6
CONTINUOUS
 10
137.0011385499
 20
165.4385327638
 11
137.0011385499
 21
165.6186523031
  0
LINE
  5
366
100
AcDbEntity
  8
KONSTRUKTIONSELEMENTE
100
AcDbLine
 62
7
  6
CONTINUOUS
 10
137.1221435109
 20
122.8383886466
 11
137.1221435109
 21
116.5797970747
  0
LINE
  5
367
100
AcDbEntity
  8
BEZUGSACHSEN
100
AcDbLine
 62
7
  6
CONTINUOUS
 10
137.1221435109
 20
108.9068581426
 11
137.1221435109
 21
97.7915150682
  0
LINE
  5
368
100
AcDbEntity
  8
KONSTRUKTIONSELEMENTE
100
AcDbLine
 62
7
  6
CONTINUOUS
 10
137.3944662863
 20
165.3742241006
 11
137.3944662863
 21
165.5543436399
  0
LINE
  5
369
100
AcDbEntity
  8
KONSTRUKTIONSELEMENTE
100
AcDbLine
 62
7
  6
CONTINUOUS
 10
137.4220829427
 20
168.5937176744
 11
137.4220829427
 21
168.7738372137
  0
LINE
  5
36A
100
AcDbEntity
  8
KONSTRUKTIONSELEMENTE
100
AcDbLine
 62
7
  6
CONTINUOUS
 10
137.7521579141
 20
168.8102782587
 11
137.7521579141
 21
168.990397798
  0
LINE
  5
36B
100
AcDbEntity
  8
KONSTRUKTIONSELEMENTE
100
AcDbLine
 62
7
  6
CONTINUOUS
 10
137.8678113001
 20
166.990651469
 11
137.8678113001
 21
167.1707710084
  0
LINE
  5
36C
100
AcDbEntity
  8
KONSTRUKTIONSELEMENTE
100
AcDbLine
 62
7
  6
CONTINUOUS
 10
137.920214785
 20
165.4418657778
 11
137.920214785
 21
165.6219853172
  0
LINE
  5
36D
100
AcDbEntity
  8
KONSTRUKTIONSELEMENTE
100
AcDbLine
 62
7
  6
CONTINUOUS
 10
138.0812427155
 20
168.9121762282
 11
138.0812427155
 21
169.0922957675
  0
LINE
  5
36E
100
AcDbEntity
  8
KONSTRUKTIONSELEMENTE
100
AcDbLine
 62
7
  6
CONTINUOUS
 10
138.250286817
 20
165.6574318386
 11
138.250286817
 21
165.8375513779
  0
LINE
  5
36F
100
AcDbEntity
  8
KONSTRUKTIONSELEMENTE
100
AcDbLine
 62
7
  6
CONTINUOUS
 10
138.4093429475
 20
168.8992226316
 11
138.4093429475
 21
169.0793421709
  0
LINE
  5
370
100
AcDbEntity
  8
KONSTRUKTIONSELEMENTE
100
AcDbLine
 62
7
  6
CONTINUOUS
 10
138.7364587955
 20
168.7711522415
 11
138.7364587955
 21
168.9512717808
  0
LINE
  5
371
100
AcDbEntity
  8
KONSTRUKTIONSELEMENTE
100
AcDbLine
 62
7
  6
CONTINUOUS
 10
139.2434649757
 20
166.6510399758
 11
139.2434649757
 21
166.8311595151
  0
LINE
  5
372
100
AcDbEntity
  8
KONSTRUKTIONSELEMENTE
100
AcDbLine
 62
7
  6
CONTINUOUS
 10
139.3234882651
 20
168.3322362653
 11
139.3234882651
 21
168.5123558046
  0
LINE
  5
373
100
AcDbEntity
  8
KONSTRUKTIONSELEMENTE
100
AcDbLine
 62
7
  6
CONTINUOUS
 10
139.4480188356
 20
167.5426854175
 11
139.4480188356
 21
167.7228049568
  0
LINE
  5
374
100
AcDbEntity
  8
KONSTRUKTIONSELEMENTE
100
AcDbLine
 62
7
  6
CONTINUOUS
 10
139.5181773852
 20
168.0701563976
 11
139.5181773852
 21
168.2502759369
  0
LINE
  5
375
100
AcDbEntity
  8
KONSTRUKTIONSELEMENTE
100
AcDbLine
 62
7
  6
CONTINUOUS
 10
139.8393718152
 20
167.2471786719
 11
139.8393718152
 21
167.4272982112
  0
LINE
  5
376
100
AcDbEntity
  8
KONSTRUKTIONSELEMENTE
100
AcDbLine
 62
7
  6
CONTINUOUS
 10
140.1052068547
 20
167.6276752645
 11
140.1052068547
 21
167.8077948038
  0
LINE
  5
377
100
AcDbEntity
  8
KONSTRUKTIONSELEMENTE
100
AcDbLine
 62
7
  6
CONTINUOUS
 10
140.8158528024
 20
161.1972073539
 11
140.8158528024
 21
161.3773268933
  0
LINE
  5
378
100
AcDbEntity
  8
KONSTRUKTIONSELEMENTE
100
AcDbLine
 62
7
  6
CONTINUOUS
 10
141.0911642086
 20
160.8043436474
 11
141.0911642086
 21
160.9844631867
  0
LINE
  5
379
100
AcDbEntity
  8
KONSTRUKTIONSELEMENTE
100
AcDbLine
 62
7
  6
CONTINUOUS
 10
142.0163555414
 20
159.4781503435
 11
142.0163555414
 21
159.6582698828
  0
LINE
  5
37A
100
AcDbEntity
  8
KONSTRUKTIONSELEMENTE
100
AcDbLine
 62
7
  6
CONTINUOUS
 10
142.1425487255
 20
159.0253412284
 11
142.1425487255
 21
159.2054607678
  0
LINE
  5
37B
100
AcDbEntity
  8
KONSTRUKTIONSELEMENTE
100
AcDbLine
 62
7
  6
CONTINUOUS
 10
142.4594782767
 20
158.6357526005
 11
142.4594782767
 21
158.8158721398
  0
LINE
  5
37C
100
AcDbEntity
  8
KONSTRUKTIONSELEMENTE
100
AcDbLine
 62
7
  6
CONTINUOUS
 10
142.6100784735
 20
159.8439328228
 11
142.6100784735
 21
160.0240523621
  0
LINE
  5
37D
100
AcDbEntity
  8
KONSTRUKTIONSELEMENTE
100
AcDbLine
 62
7
  6
CONTINUOUS
 10
142.9302161734
 20
158.3800371216
 11
142.9302161734
 21
158.5601566609
  0
LINE
  5
37E
100
AcDbEntity
  8
KONSTRUKTIONSELEMENTE
100
AcDbLine
 62
7
  6
CONTINUOUS
 10
143.0345805765
 20
160.3169837118
 11
143.0345805765
 21
160.4971032511
  0
LINE
  5
37F
100
AcDbEntity
  8
KONSTRUKTIONSELEMENTE
100
AcDbLine
 62
7
  6
CONTINUOUS
 10
143.3271014162
 20
158.264939666
 11
143.3271014162
 21
158.4450592053
  0
LINE
  5
380
100
AcDbEntity
  8
KONSTRUKTIONSELEMENTE
100
AcDbLine
 62
7
  6
CONTINUOUS
 10
143.382257618
 20
162.9651991312
 11
143.382257618
 21
163.1453186705
  0
LINE
  5
381
100
AcDbEntity
  8
KONSTRUKTIONSELEMENTE
100
AcDbLine
 62
7
  6
CONTINUOUS
 10
143.5698617397
 20
160.5804241789
 11
143.5698617397
 21
160.7605437183
  0
LINE
  5
382
100
AcDbEntity
  8
KONSTRUKTIONSELEMENTE
100
AcDbLine
 62
7
  6
CONTINUOUS
 10
143.7824285365
 20
158.2526241042
 11
143.7824285365
 21
158.4327436436
  0
LINE
  5
383
100
AcDbEntity
  8
KONSTRUKTIONSELEMENTE
100
AcDbLine
 62
7
  6
CONTINUOUS
 10
144.1054593932
 20
158.2787176547
 11
144.1054593932
 21
158.4588371941
  0
LINE
  5
384
100
AcDbEntity
  8
KONSTRUKTIONSELEMENTE
100
AcDbLine
 62
7
  6
CONTINUOUS
 10
144.2374389661
 20
160.8063616996
 11
144.2374389661
 21
160.986481239
  0
LINE
  5
385
100
AcDbEntity
  8
KONSTRUKTIONSELEMENTE
100
AcDbLine
 62
7
  6
CONTINUOUS
 10
144.6192284243
 20
158.3693664992
 11
144.6192284243
 21
158.5494860386
  0
LINE
  5
386
100
AcDbEntity
  8
KONSTRUKTIONSELEMENTE
100
AcDbLine
 62
7
  6
CONTINUOUS
 10
144.8465760388
 20
160.9302086775
 11
144.8465760388
 21
161.1103282168
  0
LINE
  5
387
100
AcDbEntity
  8
KONSTRUKTIONSELEMENTE
100
AcDbLine
 62
7
  6
CONTINUOUS
 10
145.2649350414
 20
162.8259866475
 11
145.2649350414
 21
163.0061061868
  0
LINE
  5
388
100
AcDbEntity
  8
KONSTRUKTIONSELEMENTE
100
AcDbLine
 62
7
  6
CONTINUOUS
 10
145.477542001
 20
158.6599583953
 11
145.477542001
 21
158.8400779346
  0
LINE
  5
389
100
AcDbEntity
  8
KONSTRUKTIONSELEMENTE
100
AcDbLine
 62
7
  6
CONTINUOUS
 10
145.5664923721
 20
160.8442784032
 11
145.5664923721
 21
161.0243979425
  0
LINE
  5
38A
100
AcDbEntity
  8
KONSTRUKTIONSELEMENTE
100
AcDbLine
 62
7
  6
CONTINUOUS
 10
145.8680094063
 20
160.6988082589
 11
145.8680094063
 21
160.8789277982
  0
LINE
  5
38B
100
AcDbEntity
  8
KONSTRUKTIONSELEMENTE
100
AcDbLine
 62
7
  6
CONTINUOUS
 10
145.9174548554
 20
158.8921420326
 11
145.9174548554
 21
159.0722615719
  0
LINE
  5
38C
100
AcDbEntity
  8
KONSTRUKTIONSELEMENTE
100
AcDbLine
 62
7
  6
CONTINUOUS
 10
146.148012618
 20
160.3804523163
 11
146.148012618
 21
160.5605718556
  0
LINE
  5
38D
100
AcDbEntity
  8
KONSTRUKTIONSELEMENTE
100
AcDbLine
 62
7
  6
CONTINUOUS
 10
146.166633317
 20
159.059702466
 11
146.166633317
 21
159.2398220053
  0
LINE
  5
38E
100
AcDbEntity
  8
KONSTRUKTIONSELEMENTE
100
AcDbLine
 62
7
  6
CONTINUOUS
 10
146.4742516651
 20
159.3301406767
 11
146.4742516651
 21
159.5102602161
  0
LINE
  5
38F
100
AcDbEntity
  8
KONSTRUKTIONSELEMENTE
100
AcDbLine
 62
7
  6
CONTINUOUS
 10
146.6495755069
 20
159.6386990615
 11
146.6495755069
 21
159.8188186008
  0
LINE
  5
390
100
AcDbEntity
  8
KONSTRUKTIONSELEMENTE
100
AcDbLine
 62
7
  6
CONTINUOUS
 10
146.7510466864
 20
160.0877759749
 11
146.7510466864
 21
160.2678955142
  0
LINE
  5
391
100
AcDbEntity
  8
0
100
AcDbLine
 62
7
  6
CONTINUOUS
 10
147.8686382213
 20
110.3214043044
 11
147.8686382213
 21
106.9875282783
  0
LINE
  5
392
100
AcDbEntity
  8
0
100
AcDbLine
 62
7
  6
CONTINUOUS
 10
147.8686382213
 20
106.1304133383
 11
147.8686382213
 21
105.9438180457
  0
LINE
  5
393
100
AcDbEntity
  8
0
100
AcDbLine
 62
7
  6
CONTINUOUS
 10
147.8686382213
 20
105.7475783611
 11
147.8686382213
 21
102.413702335
  0
LINE
  5
394
100
AcDbEntity
  8
RUNDUNGEN
100
AcDbLine
 62
7
  6
CONTINUOUS
 10
147.8686382213
 20
110.3214043044
 11
147.8686382213
 21
133.9052924631
  0
LINE
  5
395
100
AcDbEntity
  8
BEZUGSACHSEN
100
AcDbLine
 62
7
  6
CONTINUOUS
 10
147.8686347607
 20
102.4112120046
 11
147.8686382212
 21
102.413702335
  0
LINE
  5
396
100
AcDbEntity
  8
KONSTRUKTIONSELEMENTE
100
AcDbLine
 62
7
  6
CONTINUOUS
 10
150.0680094604
 20
83.0909521155
 11
150.0680094604
 21
78.7608250965
  0
LINE
  5
397
100
AcDbEntity
  8
BEZUGSACHSEN
100
AcDbLine
 62
7
  6
CONTINUOUS
 10
152.6186382213
 20
138.3249593264
 11
152.6186382213
 21
139.9174327874
  0
LINE
  5
398
100
AcDbEntity
  8
0
100
AcDbLine
 62
7
  6
CONTINUOUS
 10
152.6186382213
 20
139.9174327874
 11
152.6186382213
 21
158.0498147285
  0
LINE
  5
399
100
AcDbEntity
  8
KONSTRUKTIONSELEMENTE
100
AcDbLine
 62
7
  6
CONTINUOUS
 10
173.0997014218
 20
108.2855765076
 11
173.0997014218
 21
103.9554494887
  0
LINE
  5
39A
100
AcDbEntity
  8
BEZUGSACHSEN
100
AcDbLine
 62
7
  6
CONTINUOUS
 10
149.2501935465
 20
125.5197616169
 11
152.6186382213
 21
138.3249593264
  0
LINE
  5
39B
100
AcDbEntity
  8
RUNDUNGEN
100
AcDbLine
 62
7
  6
CONTINUOUS
 10
149.2501935465
 20
127.3319598278
 11
152.6186382213
 21
139.9174327874
  0
LINE
  5
39C
100
AcDbEntity
  8
KONSTRUKTIONSELEMENTE
100
AcDbLine
 62
7
  6
CONTINUOUS
 10
140.8158528024
 20
161.3773268933
 11
144.279194642
 21
163.054757561
  0
LWPOLYLINE
  5
39D
100
AcDbEntity
  8
BEZUGSACHSEN
100
AcDbPolyline
 62
7
  6
CONTINUOUS
 90
7
 70
0
 10
147.5825648854
 20
101.6219029824
 10
147.6800173907
 20
101.7557047556
 10
147.7583419688
 20
101.9009950947
 10
147.8164774883
 20
102.0558512511
 10
147.8535946408
 20
102.2190499801
 10
147.8684723067
 20
102.38994236
 10
147.868685084
 20
102.4112118602
  0
LINE
  5
39E
100
AcDbEntity
  8
KONSTRUKTIONSELEMENTE
100
AcDbLine
 62
7
  6
CONTINUOUS
 10
141.469870349
 20
83.6832265159
 11
159.0085282113
 21
102.4891130969
  0
LWPOLYLINE
  5
39F
100
AcDbEntity
  8
BEZUGSACHSEN
100
AcDbPolyline
 62
7
  6
CONTINUOUS
 90
3
 70
0
 10
147.4414803404
 20
101.4784744508
 10
147.4668930853
 20
101.5010922263
 10
147.5825648854
 20
101.6219029824
  0
LINE
  5
3A0
100
AcDbEntity
  8
BEZUGSACHSEN
100
AcDbLine
 62
7
  6
CONTINUOUS
 10
146.70190789
 20
100.8378039992
 11
147.43993524
 21
101.4771290144
  0
LINE
  5
3A1
100
AcDbEntity
  8
BEZUGSACHSEN
100
AcDbLine
 62
7
  6
CONTINUOUS
 10
146.2664630902
 20
100.4666988931
 11
146.7019970201
 21
100.8378813445
  0
LINE
  5
3A2
100
AcDbEntity
  8
BEZUGSACHSEN
100
AcDbLine
 62
7
  6
CONTINUOUS
 10
145.7677645705
 20
100.0577027948
 11
146.2733257609
 21
100.4724500257
  0
LINE
  5
3A3
100
AcDbEntity
  8
BEZUGSACHSEN
100
AcDbLine
 62
7
  6
CONTINUOUS
 10
145.2896880539
 20
99.683523981
 11
145.7739297986
 21
100.062647519
  0
LINE
  5
3A4
100
AcDbEntity
  8
BEZUGSACHSEN
100
AcDbLine
 62
7
  6
CONTINUOUS
 10
144.8324268552
 20
99.3442172865
 11
145.2951247243
 21
99.6876722401
  0
LINE
  5
3A5
100
AcDbEntity
  8
BEZUGSACHSEN
100
AcDbLine
 62
7
  6
CONTINUOUS
 10
144.3959840555
 20
99.039748208
 11
144.837147707
 21
99.3476189529
  0
LINE
  5
3A6
100
AcDbEntity
  8
BEZUGSACHSEN
100
AcDbLine
 62
7
  6
CONTINUOUS
 10
143.9789844149
 20
98.7692571515
 11
144.4000201262
 21
99.0424685141
  0
LINE
  5
3A7
100
AcDbEntity
  8
KONSTRUKTIONSELEMENTE
100
AcDbLine
 62
7
  6
CONTINUOUS
 10
149.7609173552
 20
78.3761208585
 11
150.0211633539
 21
78.6551705311
  0
LINE
  5
3A8
100
AcDbEntity
  8
KONSTRUKTIONSELEMENTE
100
AcDbLine
 62
7
  6
CONTINUOUS
 10
172.2086220953
 20
102.4457499408
 11
172.631240357
 21
102.8989038343
  0
ARC
  5
3A9
100
AcDbEntity
  8
0
100
AcDbCircle
 62
7
  6
CONTINUOUS
 10
652.7742319028
 20
-29.4820349195
 40
293.168444145
100
AcDbArc
 50
139.6536880222
 51
139.7748833378
  0
ARC
  5
3AA
100
AcDbEntity
  8
KONSTRUKTIONSELEMENTE
100
AcDbCircle
 62
7
  6
CONTINUOUS
 10
283.4127571956
 20
36.7409320535
 40
227.196465367
100
AcDbArc
 50
35.1317550947
 51
35.2728816292
  0
ARC
  5
3AB
100
AcDbEntity
  8
KONSTRUKTIONSELEMENTE
100
AcDbCircle
 62
7
  6
CONTINUOUS
 10
291.2150667687
 20
39.0896218579
 40
218.8123568513
100
AcDbArc
 50
35.1709596689
 51
35.3163345801
  0
ARC
  5
3AC
100
AcDbEntity
  8
0
100
AcDbCircle
 62
7
  6
CONTINUOUS
 10
358.6585174652
 20
94.4986412619
 40
131.2747031326
100
AcDbArc
 50
32.452538124
 51
32.5784113138
  0
ARC
  5
3AD
100
AcDbEntity
  8
KONSTRUKTIONSELEMENTE
100
AcDbCircle
 62
7
  6
CONTINUOUS
 10
359.3964396416
 20
94.8337958193
 40
130.9864184782
100
AcDbArc
 50
32.4317510099
 51
32.5785114004
  0
ARC
  5
3AE
100
AcDbEntity
  8
KONSTRUKTIONSELEMENTE
100
AcDbCircle
 62
7
  6
CONTINUOUS
 10
363.0575105836
 20
99.0180180569
 40
126.2169299881
100
AcDbArc
 50
32.8775791987
 51
33.0259316692
  0
ARC
  5
3AF
100
AcDbEntity
  8
KONSTRUKTIONSELEMENTE
100
AcDbCircle
 62
7
  6
CONTINUOUS
 10
308.2863959463
 20
120.9727300223
 40
8.25
100
AcDbArc
 50
45.8421444573
 51
120.0
  0
ARC
  5
3B0
100
AcDbEntity
  8
KONSTRUKTIONSELEMENTE
100
AcDbCircle
 62
7
  6
CONTINUOUS
 10
308.2863959463
 20
120.9727300223
 40
8.25
100
AcDbArc
 50
300.0
 51
14.1578555427
  0
ARC
  5
3B1
100
AcDbEntity
  8
KONSTRUKTIONSELEMENTE
100
AcDbCircle
 62
7
  6
CONTINUOUS
 10
300.9251800141
 20
116.7227300223
 40
8.25
100
AcDbArc
 50
227.6769957192
 51
300.0
  0
ARC
  5
3B2
100
AcDbEntity
  8
KONSTRUKTIONSELEMENTE
100
AcDbCircle
 62
7
  6
CONTINUOUS
 10
300.9251800141
 20
116.7227300223
 40
8.25
100
AcDbArc
 50
120.0
 51
192.3230042808
  0
ARC
  5
3B3
100
AcDbEntity
  8
KONSTRUKTIONSELEMENTE
100
AcDbCircle
 62
7
  6
CONTINUOUS
 10
308.2863959463
 20
120.9727300223
 40
3.25
100
AcDbArc
 50
73.8837571799
 51
120.0
  0
ARC
  5
3B4
100
AcDbEntity
  8
KONSTRUKTIONSELEMENTE
100
AcDbCircle
 62
7
  6
CONTINUOUS
 10
308.2863959463
 20
120.9727300223
 40
3.25
100
AcDbArc
 50
300.0
 51
346.1162428201
  0
ARC
  5
3B5
100
AcDbEntity
  8
KONSTRUKTIONSELEMENTE
100
AcDbCircle
 62
7
  6
CONTINUOUS
 10
300.9251800141
 20
116.7227300223
 40
3.25
100
AcDbArc
 50
260.4863577938
 51
300.0
  0
ARC
  5
3B6
100
AcDbEntity
  8
KONSTRUKTIONSELEMENTE
100
AcDbCircle
 62
7
  6
CONTINUOUS
 10
300.9251800141
 20
116.7227300223
 40
3.25
100
AcDbArc
 50
120.0
 51
159.5136422062
  0
ARC
  5
3B7
100
AcDbEntity
  8
KONSTRUKTIONSELEMENTE
100
AcDbCircle
 62
7
  6
CONTINUOUS
 10
309.1524213501
 20
121.4727300223
 40
2.25
100
AcDbArc
 50
120.0
 51
300.0
  0
ARC
  5
3B8
100
AcDbEntity
  8
KONSTRUKTIONSELEMENTE
100
AcDbCircle
 62
7
  6
CONTINUOUS
 10
394.0406511518
 20
-10.2075034052
 40
189.0538635346
100
AcDbArc
 50
65.9160450668
 51
66.2240508138
  0
ARC
  5
3B9
100
AcDbEntity
  8
KONSTRUKTIONSELEMENTE
100
AcDbCircle
 62
7
  6
CONTINUOUS
 10
406.7814426735
 20
16.9266339518
 40
159.4235898375
100
AcDbArc
 50
66.2405129432
 51
66.6346843422
  0
ARC
  5
3BA
100
AcDbEntity
  8
KONSTRUKTIONSELEMENTE
100
AcDbCircle
 62
7
  6
CONTINUOUS
 10
371.8391018146
 20
105.159836994
 40
114.0816423149
100
AcDbArc
 50
30.6260005665
 51
30.8280558523
  0
ARC
  5
3BB
100
AcDbEntity
  8
KONSTRUKTIONSELEMENTE
100
AcDbCircle
 62
7
  6
CONTINUOUS
 10
386.0532802868
 20
114.739119344
 40
97.9782748452
100
AcDbArc
 50
30.7201901069
 51
30.9507782969
  0
ARC
  5
3BC
100
AcDbEntity
  8
KONSTRUKTIONSELEMENTE
100
AcDbCircle
 62
7
  6
CONTINUOUS
 10
392.9674986454
 20
120.4553860283
 40
89.5891127553
100
AcDbArc
 50
31.4237658477
 51
31.6633015948
  0
ARC
  5
3BD
100
AcDbEntity
  8
KONSTRUKTIONSELEMENTE
100
AcDbCircle
 62
7
  6
CONTINUOUS
 10
391.7184652343
 20
121.8475239337
 40
88.4338704449
100
AcDbArc
 50
27.875879699
 51
28.0502562956
  0
ARC
  5
3BE
100
AcDbEntity
  8
0
100
AcDbCircle
 62
7
  6
CONTINUOUS
 10
445.2287650761
 20
126.8776871579
 40
41.1221641482
100
AcDbArc
 50
110.3154324385
 51
110.5851722269
  0
ARC
  5
3BF
100
AcDbEntity
  8
KONSTRUKTIONSELEMENTE
100
AcDbCircle
 62
7
  6
CONTINUOUS
 10
444.7338907084
 20
127.0578066986
 40
41.1221641467
100
AcDbArc
 50
110.3154324385
 51
110.5851722269
  0
ARC
  5
3C0
100
AcDbEntity
  8
BEZUGSACHSEN
100
AcDbCircle
 62
7
  6
CONTINUOUS
 10
416.9563039277
 20
111.7915150682
 40
14.0
100
AcDbArc
 50
191.8907918018
 51
308.1092081982
  0
CIRCLE
  5
3C1
100
AcDbEntity
  8
0
100
AcDbCircle
 62
7
  6
CONTINUOUS
 10
416.9563039277
 20
111.7915150682
 40
6.05
  0
ARC
  5
3C2
100
AcDbEntity
  8
RUNDUNGEN
100
AcDbCircle
 62
7
  6
CONTINUOUS
 10
410.7770113813
 20
121.12828793
 40
5.0
100
AcDbArc
 50
129.999999983
 51
160.0000000315
  0
ARC
  5
3C3
100
AcDbEntity
  8
RUNDUNGEN
100
AcDbCircle
 62
7
  6
CONTINUOUS
 10
407.6195899721
 20
112.4533439046
 40
5.0
100
AcDbArc
 50
159.9999999777
 51
191.8907918441
  0
ARC
  5
3C4
100
AcDbEntity
  8
BEZUGSACHSEN
100
AcDbCircle
 62
7
  6
CONTINUOUS
 10
427.6914785554
 20
114.9719253502
 40
5.0
100
AcDbArc
 50
340.0
 51
10.0
  0
ARC
  5
3C5
100
AcDbEntity
  8
BEZUGSACHSEN
100
AcDbCircle
 62
7
  6
CONTINUOUS
 10
424.5340571463
 20
106.2969813248
 40
5.0
100
AcDbArc
 50
308.1092081982
 51
340.0
  0
ARC
  5
3C6
100
AcDbEntity
  8
BEZUGSACHSEN
100
AcDbCircle
 62
7
  6
CONTINUOUS
 10
436.6156385736
 20
121.948203715
 40
4.9999622435
100
AcDbArc
 50
160.0011990311
 51
186.8768241558
  0
ARC
  5
3C7
100
AcDbEntity
  8
BEZUGSACHSEN
100
AcDbCircle
 62
7
  6
CONTINUOUS
 10
432.1371395983
 20
130.1100830803
 40
2.0
100
AcDbArc
 50
340.0
 51
61.0
  0
ARC
  5
3C8
100
AcDbEntity
  8
KONSTRUKTIONSELEMENTE
100
AcDbCircle
 62
7
  6
CONTINUOUS
 10
333.1846263051
 20
135.3477300223
 40
8.0
100
AcDbArc
 50
226.3642958278
 51
300.0
  0
ARC
  5
3C9
100
AcDbEntity
  8
KONSTRUKTIONSELEMENTE
100
AcDbCircle
 62
7
  6
CONTINUOUS
 10
333.1846263051
 20
135.3477300223
 40
8.0
100
AcDbArc
 50
120.0
 51
193.6357041722
  0
ARC
  5
3CA
100
AcDbEntity
  8
KONSTRUKTIONSELEMENTE
100
AcDbCircle
 62
7
  6
CONTINUOUS
 10
346.1750073619
 20
142.8477300223
 40
8.0
100
AcDbArc
 50
46.3642958278
 51
120.0
  0
ARC
  5
3CB
100
AcDbEntity
  8
KONSTRUKTIONSELEMENTE
100
AcDbCircle
 62
7
  6
CONTINUOUS
 10
346.1750073619
 20
142.8477300223
 40
8.0
100
AcDbArc
 50
300.0
 51
13.6357041722
  0
ARC
  5
3CC
100
AcDbEntity
  8
KONSTRUKTIONSELEMENTE
100
AcDbCircle
 62
7
  6
CONTINUOUS
 10
333.1846263051
 20
135.3477300223
 40
3.5
100
AcDbArc
 50
250.1538775079
 51
300.0
  0
ARC
  5
3CD
100
AcDbEntity
  8
KONSTRUKTIONSELEMENTE
100
AcDbCircle
 62
7
  6
CONTINUOUS
 10
333.1846263051
 20
135.3477300223
 40
3.5
100
AcDbArc
 50
120.0
 51
169.8461224921
  0
ARC
  5
3CE
100
AcDbEntity
  8
KONSTRUKTIONSELEMENTE
100
AcDbCircle
 62
7
  6
CONTINUOUS
 10
346.1750073619
 20
142.8477300223
 40
3.5
100
AcDbArc
 50
70.1538775079
 51
120.0
  0
ARC
  5
3CF
100
AcDbEntity
  8
KONSTRUKTIONSELEMENTE
100
AcDbCircle
 62
7
  6
CONTINUOUS
 10
346.1750073619
 20
142.8477300223
 40
3.5
100
AcDbArc
 50
300.0
 51
349.8461224921
  0
ARC
  5
3D0
100
AcDbEntity
  8
KONSTRUKTIONSELEMENTE
100
AcDbCircle
 62
7
  6
CONTINUOUS
 10
332.1020945504
 20
134.7227300223
 40
2.25
100
AcDbArc
 50
300.0
 51
120.0
  0
ARC
  5
3D1
100
AcDbEntity
  8
KONSTRUKTIONSELEMENTE
100
AcDbCircle
 62
7
  6
CONTINUOUS
 10
370.2072123169
 20
156.7227300223
 40
2.25
100
AcDbArc
 50
300.0
 51
120.0
  0
ARC
  5
3D2
100
AcDbEntity
  8
KONSTRUKTIONSELEMENTE
100
AcDbCircle
 62
7
  6
CONTINUOUS
 10
347.2575391166
 20
143.4727300223
 40
2.25
100
AcDbArc
 50
120.0
 51
300.0
  0
ARC
  5
3D3
100
AcDbEntity
  8
KONSTRUKTIONSELEMENTE
100
AcDbCircle
 62
7
  6
CONTINUOUS
 10
378.4344536528
 20
161.4727300223
 40
8.25
100
AcDbArc
 50
51.346698243
 51
120.0
  0
ARC
  5
3D4
100
AcDbEntity
  8
KONSTRUKTIONSELEMENTE
100
AcDbCircle
 62
7
  6
CONTINUOUS
 10
378.4344536528
 20
161.4727300223
 40
8.25
100
AcDbArc
 50
300.0
 51
8.653301757
  0
ARC
  5
3D5
100
AcDbEntity
  8
KONSTRUKTIONSELEMENTE
100
AcDbCircle
 62
7
  6
CONTINUOUS
 10
371.0732377207
 20
157.2227300223
 40
8.25
100
AcDbArc
 50
225.8421444573
 51
300.0
  0
ARC
  5
3D6
100
AcDbEntity
  8
KONSTRUKTIONSELEMENTE
100
AcDbCircle
 62
7
  6
CONTINUOUS
 10
371.0732377207
 20
157.2227300223
 40
8.25
100
AcDbArc
 50
120.0
 51
194.1578555427
  0
ARC
  5
3D7
100
AcDbEntity
  8
KONSTRUKTIONSELEMENTE
100
AcDbCircle
 62
7
  6
CONTINUOUS
 10
378.4344536528
 20
161.4727300223
 40
3.25
100
AcDbArc
 50
97.8065550031
 51
120.0
  0
ARC
  5
3D8
100
AcDbEntity
  8
KONSTRUKTIONSELEMENTE
100
AcDbCircle
 62
7
  6
CONTINUOUS
 10
378.4344536528
 20
161.4727300223
 40
3.25
100
AcDbArc
 50
300.0
 51
322.1934449969
  0
ARC
  5
3D9
100
AcDbEntity
  8
KONSTRUKTIONSELEMENTE
100
AcDbCircle
 62
7
  6
CONTINUOUS
 10
371.0732377207
 20
157.2227300223
 40
3.25
100
AcDbArc
 50
253.8837571799
 51
300.0
  0
ARC
  5
3DA
100
AcDbEntity
  8
KONSTRUKTIONSELEMENTE
100
AcDbCircle
 62
7
  6
CONTINUOUS
 10
371.0732377207
 20
157.2227300223
 40
3.25
100
AcDbArc
 50
120.0
 51
166.1162428201
  0
ARC
  5
3DB
100
AcDbEntity
  8
KONSTRUKTIONSELEMENTE
100
AcDbCircle
 62
7
  6
CONTINUOUS
 10
378.2179473019
 20
161.3477300223
 40
3.0
100
AcDbArc
 50
120.0
 51
300.0
  0
ARC
  5
3DC
100
AcDbEntity
  8
KONSTRUKTIONSELEMENTE
100
AcDbCircle
 62
7
  6
CONTINUOUS
 10
415.4960883989
 20
137.50437084
 40
61.0412452395
100
AcDbArc
 50
26.5615233707
 51
26.8574401785
  0
ARC
  5
3DD
100
AcDbEntity
  8
0
100
AcDbCircle
 62
7
  6
CONTINUOUS
 10
416.8959955205
 20
144.7406181906
 40
54.8820574434
100
AcDbArc
 50
18.6327368
 51
20.359381713
  0
ARC
  5
3DE
100
AcDbEntity
  8
KONSTRUKTIONSELEMENTE
100
AcDbCircle
 62
7
  6
CONTINUOUS
 10
417.3908698878
 20
144.92073773
 40
54.8820574433
100
AcDbArc
 50
18.6327368
 51
20.359381713
  0
ARC
  5
3DF
100
AcDbEntity
  8
KONSTRUKTIONSELEMENTE
100
AcDbCircle
 62
7
  6
CONTINUOUS
 10
418.7405850138
 20
145.0933967316
 40
53.730603558
100
AcDbArc
 50
19.0446728256
 51
20.4408351866
  0
ARC
  5
3E0
100
AcDbEntity
  8
KONSTRUKTIONSELEMENTE
100
AcDbCircle
 62
7
  6
CONTINUOUS
 10
422.1998206307
 20
141.3857122986
 40
53.4766001484
100
AcDbArc
 50
25.5539518679
 51
25.9554336498
  0
ARC
  5
3E1
100
AcDbEntity
  8
KONSTRUKTIONSELEMENTE
100
AcDbCircle
 62
7
  6
CONTINUOUS
 10
422.6409728804
 20
145.55804593
 40
50.4342605581
100
AcDbArc
 50
18.9822202641
 51
20.4696416752
  0
ARC
  5
3E2
100
AcDbEntity
  8
0
100
AcDbCircle
 62
7
  6
CONTINUOUS
 10
422.1742847725
 20
145.3880973811
 40
50.40429714
100
AcDbArc
 50
20.0979117009
 51
20.4700148345
  0
ARC
  5
3E3
100
AcDbEntity
  8
KONSTRUKTIONSELEMENTE
100
AcDbCircle
 62
7
  6
CONTINUOUS
 10
425.2476582552
 20
144.4243692985
 40
49.5324902469
100
AcDbArc
 50
27.4840670454
 51
27.8113691507
  0
ARC
  5
3E4
100
AcDbEntity
  8
KONSTRUKTIONSELEMENTE
100
AcDbCircle
 62
7
  6
CONTINUOUS
 10
424.1479385991
 20
145.7254417403
 40
49.1720260171
100
AcDbArc
 50
18.9551078563
 51
19.5007820123
  0
ARC
  5
3E5
100
AcDbEntity
  8
KONSTRUKTIONSELEMENTE
100
AcDbCircle
 62
7
  6
CONTINUOUS
 10
424.2355085228
 20
145.7563657504
 40
49.0791563281
100
AcDbArc
 50
19.5008782702
 51
20.3217735549
  0
ARC
  5
3E6
100
AcDbEntity
  8
KONSTRUKTIONSELEMENTE
100
AcDbCircle
 62
7
  6
CONTINUOUS
 10
429.4242548267
 20
146.313176334
 40
44.7517733564
100
AcDbArc
 50
18.3172302345
 51
18.8467284614
  0
ARC
  5
3E7
100
AcDbEntity
  8
KONSTRUKTIONSELEMENTE
100
AcDbCircle
 62
7
  6
CONTINUOUS
 10
429.4434514247
 20
146.3101593821
 40
44.7347605712
100
AcDbArc
 50
21.0648671092
 51
21.6828393283
  0
ARC
  5
3E8
100
AcDbEntity
  8
KONSTRUKTIONSELEMENTE
100
AcDbCircle
 62
7
  6
CONTINUOUS
 10
431.9406702021
 20
148.1308395666
 40
42.0325061077
100
AcDbArc
 50
26.4731562984
 51
26.9245921445
  0
ARC
  5
3E9
100
AcDbEntity
  8
KONSTRUKTIONSELEMENTE
100
AcDbCircle
 62
7
  6
CONTINUOUS
 10
428.8995595207
 20
152.9126991611
 40
41.3340378029
100
AcDbArc
 50
20.9969455703
 51
21.4938336929
  0
ARC
  5
3EA
100
AcDbEntity
  8
0
100
AcDbCircle
 62
7
  6
CONTINUOUS
 10
428.4046851567
 20
152.732579623
 40
41.3340377995
100
AcDbArc
 50
20.9969455703
 51
21.4938336929
  0
ARC
  5
3EB
100
AcDbEntity
  8
KONSTRUKTIONSELEMENTE
100
AcDbCircle
 62
7
  6
CONTINUOUS
 10
428.8979030645
 20
152.917250331
 40
41.3340377708
100
AcDbArc
 50
18.506166307
 51
19.0030546668
  0
ARC
  5
3EC
100
AcDbEntity
  8
0
100
AcDbCircle
 62
7
  6
CONTINUOUS
 10
428.4030286985
 20
152.7371307921
 40
41.3340377696
100
AcDbArc
 50
18.506166307
 51
19.0030546668
  0
ARC
  5
3ED
100
AcDbEntity
  8
0
100
AcDbCircle
 62
7
  6
CONTINUOUS
 10
431.7500805576
 20
155.124976448
 40
37.6214551183
100
AcDbArc
 50
13.3856405663
 51
13.8219602644
  0
ARC
  5
3EE
100
AcDbEntity
  8
KONSTRUKTIONSELEMENTE
100
AcDbCircle
 62
7
  6
CONTINUOUS
 10
432.2449549253
 20
155.3050959875
 40
37.6214551178
100
AcDbArc
 50
13.3856405663
 51
13.8219602644
  0
ARC
  5
3EF
100
AcDbEntity
  8
KONSTRUKTIONSELEMENTE
100
AcDbCircle
 62
7
  6
CONTINUOUS
 10
437.8190387432
 20
152.9249716413
 40
34.3907480819
100
AcDbArc
 50
19.80097804
 51
20.1990216753
  0
ARC
  5
3F0
100
AcDbEntity
  8
KONSTRUKTIONSELEMENTE
100
AcDbCircle
 62
7
  6
CONTINUOUS
 10
439.1013336125
 20
152.9180210753
 40
33.3992592268
100
AcDbArc
 50
19.7950698585
 51
20.2049298483
  0
ARC
  5
3F1
100
AcDbEntity
  8
KONSTRUKTIONSELEMENTE
100
AcDbCircle
 62
7
  6
CONTINUOUS
 10
445.4911012838
 20
140.3390813466
 40
31.6966069951
100
AcDbArc
 50
112.6719534386
 51
113.0058660685
  0
ARC
  5
3F2
100
AcDbEntity
  8
RUNDUNGEN
100
AcDbCircle
 62
7
  6
CONTINUOUS
 10
411.3180635908
 20
147.0125879075
 40
14.4807425053
100
AcDbArc
 50
309.9999269356
 51
311.1151796214
  0
ARC
  5
3F3
100
AcDbEntity
  8
KONSTRUKTIONSELEMENTE
100
AcDbCircle
 62
7
  6
CONTINUOUS
 10
408.4249734845
 20
132.2087666916
 40
4.9999622435
100
AcDbArc
 50
313.1231758338
 51
339.9988009689
  0
ARC
  5
3F4
100
AcDbEntity
  8
KONSTRUKTIONSELEMENTE
100
AcDbCircle
 62
7
  6
CONTINUOUS
 10
417.1020576658
 20
135.5824053735
 40
2.0
100
AcDbArc
 50
79.0
 51
160.0
  0
ARC
  5
3F5
100
AcDbEntity
  8
KONSTRUKTIONSELEMENTE
100
AcDbCircle
 62
7
  6
CONTINUOUS
 10
440.7220529279
 20
160.3142848877
 40
28.5864304539
100
AcDbArc
 50
7.1215335979
 51
7.4233750848
  0
ARC
  5
3F6
100
AcDbEntity
  8
KONSTRUKTIONSELEMENTE
100
AcDbCircle
 62
7
  6
CONTINUOUS
 10
441.1026795384
 20
160.6317778331
 40
27.2267706873
100
AcDbArc
 50
17.9555905703
 51
19.179970878
  0
ARC
  5
3F7
100
AcDbEntity
  8
0
100
AcDbCircle
 62
7
  6
CONTINUOUS
 10
440.6541567629
 20
160.4670494413
 40
27.1779318385
100
AcDbArc
 50
17.954847911
 51
20.4080157851
  0
ARC
  5
3F8
100
AcDbEntity
  8
KONSTRUKTIONSELEMENTE
100
AcDbCircle
 62
7
  6
CONTINUOUS
 10
441.1992569461
 20
160.6650663031
 40
27.1246176925
100
AcDbArc
 50
19.1805803526
 51
20.4095787648
  0
ARC
  5
3F9
100
AcDbEntity
  8
KONSTRUKTIONSELEMENTE
100
AcDbCircle
 62
7
  6
CONTINUOUS
 10
442.126309848
 20
160.451098923
 40
26.5377594013
100
AcDbArc
 50
18.5322810974
 51
19.0189195548
  0
ARC
  5
3FA
100
AcDbEntity
  8
KONSTRUKTIONSELEMENTE
100
AcDbCircle
 62
7
  6
CONTINUOUS
 10
442.1855030445
 20
160.4715381055
 40
26.4751367731
100
AcDbArc
 50
19.0188469949
 51
20.4196013032
  0
ARC
  5
3FB
100
AcDbEntity
  8
KONSTRUKTIONSELEMENTE
100
AcDbCircle
 62
7
  6
CONTINUOUS
 10
447.937634332
 20
159.3423207185
 40
22.6875134425
100
AcDbArc
 50
18.2854597459
 51
20.4893610307
  0
ARC
  5
3FC
100
AcDbEntity
  8
KONSTRUKTIONSELEMENTE
100
AcDbCircle
 62
7
  6
CONTINUOUS
 10
448.8668220515
 20
159.1292768691
 40
22.0983318022
100
AcDbArc
 50
17.4819877743
 51
19.7449364926
  0
ARC
  5
3FD
100
AcDbEntity
  8
KONSTRUKTIONSELEMENTE
100
AcDbCircle
 62
7
  6
CONTINUOUS
 10
448.957733943
 20
159.1609802872
 40
22.0020545352
100
AcDbArc
 50
19.747211555
 51
20.5049041918
  0
ARC
  5
3FE
100
AcDbEntity
  8
KONSTRUKTIONSELEMENTE
100
AcDbCircle
 62
7
  6
CONTINUOUS
 10
448.2793553939
 20
164.4929448066
 40
16.4479091492
100
AcDbArc
 50
158.2173938983
 51
159.68085477
  0
ARC
  5
3FF
100
AcDbEntity
  8
KONSTRUKTIONSELEMENTE
100
AcDbCircle
 62
7
  6
CONTINUOUS
 10
448.2533390452
 20
164.502753456
 40
16.4201056779
100
AcDbArc
 50
159.6814274955
 51
160.531275284
  0
ARC
  5
400
100
AcDbEntity
  8
KONSTRUKTIONSELEMENTE
100
AcDbCircle
 62
7
  6
CONTINUOUS
 10
447.4767609973
 20
164.186472373
 40
16.0096306951
100
AcDbArc
 50
158.1693927577
 51
160.5627796756
  0
ARC
  5
401
100
AcDbEntity
  8
KONSTRUKTIONSELEMENTE
100
AcDbCircle
 62
7
  6
CONTINUOUS
 10
447.9843597686
 20
166.975712157
 40
14.8822086157
100
AcDbArc
 50
170.1362035152
 51
170.8255469339
  0
ARC
  5
402
100
AcDbEntity
  8
0
100
AcDbCircle
 62
7
  6
CONTINUOUS
 10
448.4792341342
 20
166.7955926179
 40
14.8822086142
100
AcDbArc
 50
170.1362035152
 51
170.8255469339
  0
ARC
  5
403
100
AcDbEntity
  8
KONSTRUKTIONSELEMENTE
100
AcDbCircle
 62
7
  6
CONTINUOUS
 10
444.7922082979
 20
163.0638861982
 40
14.6098220274
100
AcDbArc
 50
157.0536500522
 51
157.9800655303
  0
ARC
  5
404
100
AcDbEntity
  8
KONSTRUKTIONSELEMENTE
100
AcDbCircle
 62
7
  6
CONTINUOUS
 10
444.7879247697
 20
163.0727995144
 40
14.6027409474
100
AcDbArc
 50
161.8652148047
 51
162.9465036834
  0
ARC
  5
405
100
AcDbEntity
  8
KONSTRUKTIONSELEMENTE
100
AcDbCircle
 62
7
  6
CONTINUOUS
 10
442.8655201197
 20
164.0719050638
 40
12.7413983332
100
AcDbArc
 50
172.2160267306
 51
173.0273576679
  0
ARC
  5
406
100
AcDbEntity
  8
KONSTRUKTIONSELEMENTE
100
AcDbCircle
 62
7
  6
CONTINUOUS
 10
432.892119986
 20
157.3917501701
 40
12.0601047709
100
AcDbArc
 50
91.7985054536
 51
92.1821743748
  0
ARC
  5
407
100
AcDbEntity
  8
KONSTRUKTIONSELEMENTE
100
AcDbCircle
 62
7
  6
CONTINUOUS
 10
444.7707087045
 20
167.9739191511
 40
11.8876482537
100
AcDbArc
 50
174.6644023245
 51
175.2840580156
  0
ARC
  5
408
100
AcDbEntity
  8
KONSTRUKTIONSELEMENTE
100
AcDbCircle
 62
7
  6
CONTINUOUS
 10
441.4743617581
 20
165.5845651533
 40
10.880771498
100
AcDbArc
 50
176.7845973491
 51
177.4689399128
  0
ARC
  5
409
100
AcDbEntity
  8
KONSTRUKTIONSELEMENTE
100
AcDbCircle
 62
7
  6
CONTINUOUS
 10
437.5669541408
 20
172.0756459218
 40
9.78236612
100
AcDbArc
 50
221.3048000422
 51
221.808152935
  0
ARC
  5
40A
100
AcDbEntity
  8
0
100
AcDbCircle
 62
7
  6
CONTINUOUS
 10
440.0837078656
 20
174.3705729316
 40
8.032910713
100
AcDbArc
 50
218.1698764006
 51
218.7278005316
  0
ARC
  5
40B
100
AcDbEntity
  8
KONSTRUKTIONSELEMENTE
100
AcDbCircle
 62
7
  6
CONTINUOUS
 10
439.5888334971
 20
174.5506924699
 40
8.0329107112
100
AcDbArc
 50
218.1698764006
 51
218.7278005317
  0
ARC
  5
40C
100
AcDbEntity
  8
BEZUGSACHSEN
100
AcDbCircle
 62
7
  6
CONTINUOUS
 10
437.6473844938
 20
164.9850362074
 40
5.0
100
AcDbArc
 50
340.0
 51
358.3000081101
  0
ARC
  5
40D
100
AcDbEntity
  8
BEZUGSACHSEN
100
AcDbCircle
 62
7
  6
CONTINUOUS
 10
435.2981529419
 20
165.8400865657
 40
5.0
100
AcDbArc
 50
141.6999918899
 51
160.0
  0
ARC
  5
40E
100
AcDbEntity
  8
KONSTRUKTIONSELEMENTE
100
AcDbCircle
 62
7
  6
CONTINUOUS
 10
436.2616029047
 20
172.5189606643
 40
4.3873431274
100
AcDbArc
 50
216.7092497854
 51
217.2898489713
  0
ARC
  5
40F
100
AcDbEntity
  8
KONSTRUKTIONSELEMENTE
100
AcDbCircle
 62
7
  6
CONTINUOUS
 10
413.724988857
 20
181.8477300223
 40
3.0
100
AcDbArc
 50
300.0
 51
120.0
  0
ARC
  5
410
100
AcDbEntity
  8
KONSTRUKTIONSELEMENTE
100
AcDbCircle
 62
7
  6
CONTINUOUS
 10
525.706071352
 20
60.9344236257
 40
143.0369777273
100
AcDbArc
 50
130.5385974676
 51
130.6568308328
  0
ARC
  5
411
100
AcDbEntity
  8
BEZUGSACHSEN
100
AcDbCircle
 62
7
  6
CONTINUOUS
 10
475.6620544857
 20
106.2969813248
 40
5.0
100
AcDbArc
 50
200.0
 51
231.8907918018
  0
ARC
  5
412
100
AcDbEntity
  8
0
100
AcDbCircle
 62
7
  6
CONTINUOUS
 10
491.3917561266
 20
130.1889727531
 40
69.1810952952
100
AcDbArc
 50
154.8689633489
 51
155.2186680084
  0
ARC
  5
413
100
AcDbEntity
  8
KONSTRUKTIONSELEMENTE
100
AcDbCircle
 62
7
  6
CONTINUOUS
 10
490.8968817507
 20
130.3690922965
 40
69.1810952856
100
AcDbArc
 50
154.8689633489
 51
155.2186680085
  0
ARC
  5
414
100
AcDbEntity
  8
KONSTRUKTIONSELEMENTE
100
AcDbCircle
 62
7
  6
CONTINUOUS
 10
468.4707130667
 20
121.6553831084
 40
59.9852734415
100
AcDbArc
 50
126.3977638923
 51
126.5225662136
  0
ARC
  5
415
100
AcDbEntity
  8
0
100
AcDbCircle
 62
7
  6
CONTINUOUS
 10
468.6566488229
 20
117.3937894229
 40
46.3412856511
100
AcDbArc
 50
88.3436200271
 51
88.4897775805
  0
ARC
  5
416
100
AcDbEntity
  8
KONSTRUKTIONSELEMENTE
100
AcDbCircle
 62
7
  6
CONTINUOUS
 10
469.1651224999
 20
118.0708879365
 40
45.8441208968
100
AcDbArc
 50
88.2941737996
 51
88.4903981731
  0
ARC
  5
417
100
AcDbEntity
  8
BEZUGSACHSEN
100
AcDbCircle
 62
7
  6
CONTINUOUS
 10
483.2398077042
 20
111.7915150682
 40
14.0
100
AcDbArc
 50
231.8907918018
 51
348.1092081982
  0
CIRCLE
  5
418
100
AcDbEntity
  8
0
100
AcDbCircle
 62
7
  6
CONTINUOUS
 10
483.2398077042
 20
111.7915150682
 40
5.75
  0
ARC
  5
419
100
AcDbEntity
  8
RUNDUNGEN
100
AcDbCircle
 62
7
  6
CONTINUOUS
 10
489.4191002507
 20
121.12828793
 40
5.0
100
AcDbArc
 50
20.0
 51
50.0
  0
ARC
  5
41A
100
AcDbEntity
  8
RUNDUNGEN
100
AcDbCircle
 62
7
  6
CONTINUOUS
 10
492.5765216599
 20
112.4533439046
 40
5.0
100
AcDbArc
 50
348.1092081982
 51
20.0
  0
ARC
  5
41B
100
AcDbEntity
  8
BEZUGSACHSEN
100
AcDbCircle
 62
7
  6
CONTINUOUS
 10
472.5046330766
 20
114.9719253502
 40
5.0
100
AcDbArc
 50
170.0
 51
200.0
  0
ARC
  5
41C
100
AcDbEntity
  8
BEZUGSACHSEN
100
AcDbCircle
 62
7
  6
CONTINUOUS
 10
463.580452078
 20
121.9480847297
 40
5.0
100
AcDbArc
 50
350.0
 51
20.0
  0
ARC
  5
41D
100
AcDbEntity
  8
BEZUGSACHSEN
100
AcDbCircle
 62
7
  6
CONTINUOUS
 10
468.0589720336
 20
130.1100830803
 40
2.0
100
AcDbArc
 50
119.0
 51
200.0
  0
ARC
  5
41E
100
AcDbEntity
  8
KONSTRUKTIONSELEMENTE
100
AcDbCircle
 62
7
  6
CONTINUOUS
 10
538.9535485561
 20
97.4975626522
 40
128.4156302314
100
AcDbArc
 50
147.1412962259
 51
147.2886769342
  0
ARC
  5
41F
100
AcDbEntity
  8
0
100
AcDbCircle
 62
7
  6
CONTINUOUS
 10
535.8068114519
 20
96.0191714326
 40
123.3113565963
100
AcDbArc
 50
148.6967382694
 51
148.9406337576
  0
ARC
  5
420
100
AcDbEntity
  8
KONSTRUKTIONSELEMENTE
100
AcDbCircle
 62
7
  6
CONTINUOUS
 10
535.3119370847
 20
96.199290972
 40
123.3113565963
100
AcDbArc
 50
148.6967382694
 51
148.9406337576
  0
ARC
  5
421
100
AcDbEntity
  8
0
100
AcDbCircle
 62
7
  6
CONTINUOUS
 10
532.0632457918
 20
93.1808929934
 40
122.7970905281
100
AcDbArc
 50
147.1206714368
 51
147.2730196912
  0
ARC
  5
422
100
AcDbEntity
  8
KONSTRUKTIONSELEMENTE
100
AcDbCircle
 62
7
  6
CONTINUOUS
 10
531.5683713977
 20
93.3610125501
 40
122.797090496
100
AcDbArc
 50
147.1206714368
 51
147.2730196912
  0
ARC
  5
423
100
AcDbEntity
  8
KONSTRUKTIONSELEMENTE
100
AcDbCircle
 62
7
  6
CONTINUOUS
 10
524.1378767567
 20
99.7955623274
 40
113.2140969643
100
AcDbArc
 50
147.8120307643
 51
148.0785143451
  0
ARC
  5
424
100
AcDbEntity
  8
KONSTRUKTIONSELEMENTE
100
AcDbCircle
 62
7
  6
CONTINUOUS
 10
519.4005489638
 20
118.4887919633
 40
99.8916863019
100
AcDbArc
 50
149.891381021
 51
150.1092080218
  0
ARC
  5
425
100
AcDbEntity
  8
0
100
AcDbCircle
 62
7
  6
CONTINUOUS
 10
519.895423325
 20
118.3086724274
 40
99.8916862951
100
AcDbArc
 50
149.891381021
 51
150.1092080218
  0
ARC
  5
426
100
AcDbEntity
  8
KONSTRUKTIONSELEMENTE
100
AcDbCircle
 62
7
  6
CONTINUOUS
 10
509.7408257148
 20
118.6181177613
 40
92.5616185225
100
AcDbArc
 50
148.5799605521
 51
148.8160431246
  0
ARC
  5
427
100
AcDbEntity
  8
KONSTRUKTIONSELEMENTE
100
AcDbCircle
 62
7
  6
CONTINUOUS
 10
502.8465313898
 20
126.886418795
 40
80.3382858418
100
AcDbArc
 50
155.2187817181
 51
155.519774245
  0
ARC
  5
428
100
AcDbEntity
  8
0
100
AcDbCircle
 62
7
  6
CONTINUOUS
 10
502.5387520441
 20
128.4389037166
 40
78.7338474938
100
AcDbArc
 50
155.9371099307
 51
156.2984285405
  0
ARC
  5
429
100
AcDbEntity
  8
KONSTRUKTIONSELEMENTE
100
AcDbCircle
 62
7
  6
CONTINUOUS
 10
502.0438776745
 20
128.619023257
 40
78.733847491
100
AcDbArc
 50
155.9371099307
 51
156.2984285405
  0
ARC
  5
42A
100
AcDbEntity
  8
KONSTRUKTIONSELEMENTE
100
AcDbCircle
 62
7
  6
CONTINUOUS
 10
615.8678781109
 20
36.7746602478
 40
226.2590041702
100
AcDbArc
 50
144.7592724689
 51
144.9010937194
  0
ARC
  5
42B
100
AcDbEntity
  8
KONSTRUKTIONSELEMENTE
100
AcDbCircle
 62
7
  6
CONTINUOUS
 10
597.7189766156
 20
56.7202049002
 40
199.1045311558
100
AcDbArc
 50
145.9265163477
 51
146.0868203077
  0
ARC
  5
42C
100
AcDbEntity
  8
0
100
AcDbCircle
 62
7
  6
CONTINUOUS
 10
598.2138509511
 20
56.5400853822
 40
199.1045311176
100
AcDbArc
 50
145.9265163476
 51
146.0868203077
  0
ARC
  5
42D
100
AcDbEntity
  8
KONSTRUKTIONSELEMENTE
100
AcDbCircle
 62
7
  6
CONTINUOUS
 10
576.3858863099
 20
50.1778429709
 40
184.407536298
100
AcDbArc
 50
143.2898351786
 51
143.4083791074
  0
ARC
  5
42E
100
AcDbEntity
  8
0
100
AcDbCircle
 62
7
  6
CONTINUOUS
 10
568.3220728957
 20
60.4579259995
 40
170.0636869276
100
AcDbArc
 50
144.3242233138
 51
144.4520932334
  0
ARC
  5
42F
100
AcDbEntity
  8
KONSTRUKTIONSELEMENTE
100
AcDbCircle
 62
7
  6
CONTINUOUS
 10
567.8271985286
 20
60.6380455388
 40
170.0636869276
100
AcDbArc
 50
144.3242233138
 51
144.4520932334
  0
ARC
  5
430
100
AcDbEntity
  8
KONSTRUKTIONSELEMENTE
100
AcDbCircle
 62
7
  6
CONTINUOUS
 10
550.0022811753
 20
95.5508845433
 40
138.5439498135
100
AcDbArc
 50
146.9081459199
 51
147.0943423593
  0
ARC
  5
431
100
AcDbEntity
  8
0
100
AcDbCircle
 62
7
  6
CONTINUOUS
 10
550.4971555366
 20
95.3707650078
 40
138.5439498066
100
AcDbArc
 50
146.9081459199
 51
147.0943423593
  0
ARC
  5
432
100
AcDbEntity
  8
KONSTRUKTIONSELEMENTE
100
AcDbCircle
 62
7
  6
CONTINUOUS
 10
540.1940662844
 20
90.5277966084
 40
130.5880682692
100
AcDbArc
 50
147.7679247291
 51
147.9108285793
  0
ARC
  5
433
100
AcDbEntity
  8
KONSTRUKTIONSELEMENTE
100
AcDbCircle
 62
7
  6
CONTINUOUS
 10
542.6474540152
 20
99.813863631
 40
129.5623748967
100
AcDbArc
 50
148.1152679113
 51
148.2608042921
  0
ARC
  5
434
100
AcDbEntity
  8
KONSTRUKTIONSELEMENTE
100
AcDbCircle
 62
7
  6
CONTINUOUS
 10
450.1524860545
 20
139.5594336129
 40
34.9105381113
100
AcDbArc
 50
61.4582650472
 51
61.7924723834
  0
ARC
  5
435
100
AcDbEntity
  8
0
100
AcDbCircle
 62
7
  6
CONTINUOUS
 10
459.244492452
 20
157.850373597
 40
28.5322169283
100
AcDbArc
 50
160.5245302832
 51
162.0343574185
  0
ARC
  5
436
100
AcDbEntity
  8
KONSTRUKTIONSELEMENTE
100
AcDbCircle
 62
7
  6
CONTINUOUS
 10
458.7465433939
 20
158.0315165525
 40
28.5289764849
100
AcDbArc
 50
160.4715210496
 51
162.034407904
  0
ARC
  5
437
100
AcDbEntity
  8
KONSTRUKTIONSELEMENTE
100
AcDbCircle
 62
7
  6
CONTINUOUS
 10
457.6297518137
 20
157.9055119446
 40
27.7337240059
100
AcDbArc
 50
160.4834484677
 51
161.4479574815
  0
ARC
  5
438
100
AcDbEntity
  8
KONSTRUKTIONSELEMENTE
100
AcDbCircle
 62
7
  6
CONTINUOUS
 10
455.0771193339
 20
157.593398013
 40
25.934339683
100
AcDbArc
 50
159.5989517982
 51
160.4474063852
  0
ARC
  5
439
100
AcDbEntity
  8
KONSTRUKTIONSELEMENTE
100
AcDbCircle
 62
7
  6
CONTINUOUS
 10
454.0076586437
 20
157.4509888567
 40
25.1891790238
100
AcDbArc
 50
159.5870912337
 51
160.6488864985
  0
ARC
  5
43A
100
AcDbEntity
  8
KONSTRUKTIONSELEMENTE
100
AcDbCircle
 62
7
  6
CONTINUOUS
 10
459.5398703331
 20
179.0335518592
 40
37.8019372036
100
AcDbArc
 50
212.7923827493
 51
213.0001482911
  0
ARC
  5
43B
100
AcDbEntity
  8
KONSTRUKTIONSELEMENTE
100
AcDbCircle
 62
7
  6
CONTINUOUS
 10
456.9560944315
 20
177.4958024281
 40
31.2078941611
100
AcDbArc
 50
210.8858956081
 51
211.1271732947
  0
ARC
  5
43C
100
AcDbEntity
  8
0
100
AcDbCircle
 62
7
  6
CONTINUOUS
 10
457.4509687952
 20
177.3156828868
 40
31.2078941571
100
AcDbArc
 50
210.8858956081
 51
211.1271732947
  0
ARC
  5
43D
100
AcDbEntity
  8
KONSTRUKTIONSELEMENTE
100
AcDbCircle
 62
7
  6
CONTINUOUS
 10
459.0504093265
 20
164.9624370185
 40
29.3500543702
100
AcDbArc
 50
187.7109080491
 51
187.9975775101
  0
ARC
  5
43E
100
AcDbEntity
  8
KONSTRUKTIONSELEMENTE
100
AcDbCircle
 62
7
  6
CONTINUOUS
 10
456.7706532182
 20
161.4065704957
 40
29.1478661648
100
AcDbArc
 50
185.0992486628
 51
185.6041093167
  0
ARC
  5
43F
100
AcDbEntity
  8
KONSTRUKTIONSELEMENTE
100
AcDbCircle
 62
7
  6
CONTINUOUS
 10
456.0671933217
 20
163.4820547935
 40
28.406412503
100
AcDbArc
 50
188.9810191387
 51
189.280815839
  0
ARC
  5
440
100
AcDbEntity
  8
KONSTRUKTIONSELEMENTE
100
AcDbCircle
 62
7
  6
CONTINUOUS
 10
450.98101912
 20
160.4914753767
 40
19.9001228331
100
AcDbArc
 50
10.1697286685
 51
10.8249916996
  0
ARC
  5
441
100
AcDbEntity
  8
0
100
AcDbCircle
 62
7
  6
CONTINUOUS
 10
451.4327192222
 20
172.5863347407
 40
18.8600258959
100
AcDbArc
 50
333.3026797558
 51
333.7269170438
  0
ARC
  5
442
100
AcDbEntity
  8
KONSTRUKTIONSELEMENTE
100
AcDbCircle
 62
7
  6
CONTINUOUS
 10
451.9275935942
 20
172.7664542776
 40
18.8600258904
100
AcDbArc
 50
333.3026797557
 51
333.7269170439
  0
ARC
  5
443
100
AcDbEntity
  8
KONSTRUKTIONSELEMENTE
100
AcDbCircle
 62
7
  6
CONTINUOUS
 10
457.8189176431
 20
177.6298907149
 40
18.1128489894
100
AcDbArc
 50
312.8642818007
 51
313.1139134123
  0
ARC
  5
444
100
AcDbEntity
  8
KONSTRUKTIONSELEMENTE
100
AcDbCircle
 62
7
  6
CONTINUOUS
 10
450.949807038
 20
165.5167782541
 40
17.9034845118
100
AcDbArc
 50
157.60566089
 51
159.872003388
  0
ARC
  5
445
100
AcDbEntity
  8
0
100
AcDbCircle
 62
7
  6
CONTINUOUS
 10
451.4349500229
 20
165.3405913476
 40
17.8929887841
100
AcDbArc
 50
157.6054322434
 51
160.628981548
  0
ARC
  5
446
100
AcDbEntity
  8
KONSTRUKTIONSELEMENTE
100
AcDbCircle
 62
7
  6
CONTINUOUS
 10
450.9040707272
 20
165.5340703467
 40
17.8545909681
100
AcDbArc
 50
159.8735991939
 51
160.6311024869
  0
ARC
  5
447
100
AcDbEntity
  8
KONSTRUKTIONSELEMENTE
100
AcDbCircle
 62
7
  6
CONTINUOUS
 10
450.2822262945
 20
165.2606137162
 40
17.5396963838
100
AcDbArc
 50
158.3270538248
 51
158.9374984953
  0
ARC
  5
448
100
AcDbEntity
  8
KONSTRUKTIONSELEMENTE
100
AcDbCircle
 62
7
  6
CONTINUOUS
 10
450.2489515356
 20
165.2734009694
 40
17.5040490914
100
AcDbArc
 50
159.1009264067
 51
159.5490168858
  0
ARC
  5
449
100
AcDbEntity
  8
KONSTRUKTIONSELEMENTE
100
AcDbCircle
 62
7
  6
CONTINUOUS
 10
450.242805856
 20
165.2757316432
 40
17.497476414
100
AcDbArc
 50
159.5491362024
 51
160.772820913
  0
ARC
  5
44A
100
AcDbEntity
  8
KONSTRUKTIONSELEMENTE
100
AcDbCircle
 62
7
  6
CONTINUOUS
 10
454.9291708522
 20
168.5046282287
 40
11.8035597308
100
AcDbArc
 50
7.8864591578
 51
8.6591181716
  0
ARC
  5
44B
100
AcDbEntity
  8
0
100
AcDbCircle
 62
7
  6
CONTINUOUS
 10
454.434296485
 20
168.3245086893
 40
11.8035597309
100
AcDbArc
 50
7.8864591578
 51
8.6591181716
  0
ARC
  5
44C
100
AcDbEntity
  8
0
100
AcDbCircle
 62
7
  6
CONTINUOUS
 10
459.3728576203
 20
178.9592058267
 40
11.1245781968
100
AcDbArc
 50
307.2294024152
 51
307.5882348996
  0
ARC
  5
44D
100
AcDbEntity
  8
KONSTRUKTIONSELEMENTE
100
AcDbCircle
 62
7
  6
CONTINUOUS
 10
457.8397385536
 20
169.3014373019
 40
9.1663186245
100
AcDbArc
 50
2.5453800026
 51
3.2476108204
  0
ARC
  5
44E
100
AcDbEntity
  8
KONSTRUKTIONSELEMENTE
100
AcDbCircle
 62
7
  6
CONTINUOUS
 10
469.0863044355
 20
148.1643709953
 40
42.6980626315
100
AcDbArc
 50
165.0138667691
 51
165.5543811123
  0
ARC
  5
44F
100
AcDbEntity
  8
KONSTRUKTIONSELEMENTE
100
AcDbCircle
 62
7
  6
CONTINUOUS
 10
468.8217931982
 20
149.3259023206
 40
41.9546463766
100
AcDbArc
 50
166.1531750557
 51
166.6016790201
  0
ARC
  5
450
100
AcDbEntity
  8
KONSTRUKTIONSELEMENTE
100
AcDbCircle
 62
7
  6
CONTINUOUS
 10
469.0799210736
 20
154.0069360817
 40
39.1260568017
100
AcDbArc
 50
153.5153284896
 51
153.9432298097
  0
ARC
  5
451
100
AcDbEntity
  8
0
100
AcDbCircle
 62
7
  6
CONTINUOUS
 10
469.5747954397
 20
153.8268165428
 40
39.1260568007
100
AcDbArc
 50
153.5153284896
 51
153.9432298097
  0
ARC
  5
452
100
AcDbEntity
  8
KONSTRUKTIONSELEMENTE
100
AcDbCircle
 62
7
  6
CONTINUOUS
 10
462.4022584088
 20
158.5602950674
 40
31.0445247868
100
AcDbArc
 50
159.6649701198
 51
160.5264940459
  0
ARC
  5
453
100
AcDbEntity
  8
0
100
AcDbCircle
 62
7
  6
CONTINUOUS
 10
462.8971327753
 20
158.3801755283
 40
31.0445247861
100
AcDbArc
 50
159.6649701198
 51
160.5264940459
  0
ARC
  5
454
100
AcDbEntity
  8
KONSTRUKTIONSELEMENTE
100
AcDbCircle
 62
7
  6
CONTINUOUS
 10
461.3305839141
 20
158.4186900869
 40
30.2970088358
100
AcDbArc
 50
159.656703985
 51
160.5394847068
  0
ARC
  5
455
100
AcDbEntity
  8
KONSTRUKTIONSELEMENTE
100
AcDbCircle
 62
7
  6
CONTINUOUS
 10
460.4158049088
 20
158.2234538878
 40
29.715304225
100
AcDbArc
 50
161.3565023269
 51
161.9567904793
  0
ARC
  5
456
100
AcDbEntity
  8
KONSTRUKTIONSELEMENTE
100
AcDbCircle
 62
7
  6
CONTINUOUS
 10
466.3912921251
 20
153.0877214688
 40
16.7437536929
100
AcDbArc
 50
87.6957845147
 51
87.946257026
  0
ARC
  5
457
100
AcDbEntity
  8
0
100
AcDbCircle
 62
7
  6
CONTINUOUS
 10
461.4739664819
 20
163.0327446502
 40
30.7932436173
100
AcDbArc
 50
183.4436455634
 51
183.9152174703
  0
ARC
  5
458
100
AcDbEntity
  8
KONSTRUKTIONSELEMENTE
100
AcDbCircle
 62
7
  6
CONTINUOUS
 10
460.9790921147
 20
163.2128641895
 40
30.7932436173
100
AcDbArc
 50
183.4436455634
 51
183.9152174703
  0
ARC
  5
459
100
AcDbEntity
  8
KONSTRUKTIONSELEMENTE
100
AcDbCircle
 62
7
  6
CONTINUOUS
 10
459.8677319874
 20
179.139325366
 40
11.1245781968
100
AcDbArc
 50
307.2294024152
 51
307.5882348996
  0
ARC
  5
45A
100
AcDbEntity
  8
KONSTRUKTIONSELEMENTE
100
AcDbCircle
 62
7
  6
CONTINUOUS
 10
460.2122772841
 20
167.5707882945
 40
10.9528562282
100
AcDbArc
 50
340.3892103767
 51
341.0013726741
  0
ARC
  5
45B
100
AcDbEntity
  8
BEZUGSACHSEN
100
AcDbCircle
 62
7
  6
CONTINUOUS
 10
462.5487271382
 20
164.9850362074
 40
5.0
100
AcDbArc
 50
181.6999918899
 51
200.0
  0
ARC
  5
45C
100
AcDbEntity
  8
BEZUGSACHSEN
100
AcDbCircle
 62
7
  6
CONTINUOUS
 10
464.8979586901
 20
165.8400865657
 40
5.0
100
AcDbArc
 50
20.0
 51
38.3000081101
  0
ARC
  5
45D
100
AcDbEntity
  8
0
100
AcDbCircle
 62
7
  6
CONTINUOUS
 10
450.098055816
 20
272.8477300223
 40
67.0
100
AcDbArc
 50
0.0
 51
180.0
  0
ARC
  5
45E
100
AcDbEntity
  8
0
100
AcDbCircle
 62
7
  6
CONTINUOUS
 10
450.098055816
 20
202.8477300223
 40
67.0
100
AcDbArc
 50
295.3538992513
 51
360.0
  0
ARC
  5
45F
100
AcDbEntity
  8
0
100
AcDbCircle
 62
7
  6
CONTINUOUS
 10
450.098055816
 20
202.8477300223
 40
67.0
100
AcDbArc
 50
255.3539793774
 51
284.6460206226
  0
ARC
  5
460
100
AcDbEntity
  8
0
100
AcDbCircle
 62
7
  6
CONTINUOUS
 10
450.098055816
 20
202.8477300223
 40
67.0
100
AcDbArc
 50
212.566998034
 51
244.6461007487
  0
ARC
  5
461
100
AcDbEntity
  8
0
100
AcDbCircle
 62
7
  6
CONTINUOUS
 10
450.098055816
 20
202.8477300223
 40
67.0
100
AcDbArc
 50
180.0
 51
207.4330844471
  0
ARC
  5
462
100
AcDbEntity
  8
0
100
AcDbCircle
 62
7
  6
CONTINUOUS
 10
450.098055816
 20
272.8477300223
 40
45.0
100
AcDbArc
 50
0.0
 51
180.0
  0
ARC
  5
463
100
AcDbEntity
  8
0
100
AcDbCircle
 62
7
  6
CONTINUOUS
 10
450.098055816
 20
202.8477300223
 40
45.0
100
AcDbArc
 50
297.9858547501
 51
360.0
  0
ARC
  5
464
100
AcDbEntity
  8
0
100
AcDbCircle
 62
7
  6
CONTINUOUS
 10
450.098055816
 20
202.8477300223
 40
45.0
100
AcDbArc
 50
257.9846806361
 51
282.0153193639
  0
ARC
  5
465
100
AcDbEntity
  8
0
100
AcDbCircle
 62
7
  6
CONTINUOUS
 10
450.098055816
 20
202.8477300223
 40
45.0
100
AcDbArc
 50
213.8235865656
 51
242.0141452499
  0
ARC
  5
466
100
AcDbEntity
  8
0
100
AcDbCircle
 62
7
  6
CONTINUOUS
 10
450.098055816
 20
202.8477300223
 40
45.0
100
AcDbArc
 50
180.0
 51
206.1773854636
  0
ARC
  5
467
100
AcDbEntity
  8
KONSTRUKTIONSELEMENTE
100
AcDbCircle
 62
7
  6
CONTINUOUS
 10
487.0505155214
 20
132.7652279004
 40
64.845319407
100
AcDbArc
 50
155.4979354278
 51
155.9368602245
  0
ARC
  5
468
100
AcDbEntity
  8
KONSTRUKTIONSELEMENTE
100
AcDbCircle
 62
7
  6
CONTINUOUS
 10
486.1027682635
 20
141.8959875157
 40
59.6105041421
100
AcDbArc
 50
153.480352834
 51
153.7615344288
  0
ARC
  5
469
100
AcDbEntity
  8
KONSTRUKTIONSELEMENTE
100
AcDbCircle
 62
7
  6
CONTINUOUS
 10
483.7355355015
 20
143.3020307969
 40
57.1900263018
100
AcDbArc
 50
150.9890027401
 51
151.2037701937
  0
ARC
  5
46A
100
AcDbEntity
  8
KONSTRUKTIONSELEMENTE
100
AcDbCircle
 62
7
  6
CONTINUOUS
 10
483.6049450207
 20
144.298260661
 40
55.8464360619
100
AcDbArc
 50
160.0000227895
 51
160.4282357551
  0
ARC
  5
46B
100
AcDbEntity
  8
0
100
AcDbCircle
 62
7
  6
CONTINUOUS
 10
484.0998193843
 20
144.1181411229
 40
55.8464360582
100
AcDbArc
 50
160.0000227895
 51
160.4282357551
  0
ARC
  5
46C
100
AcDbEntity
  8
0
100
AcDbCircle
 62
7
  6
CONTINUOUS
 10
482.4841530798
 20
145.4597202216
 40
54.1143197515
100
AcDbArc
 50
154.5316890967
 51
154.8959755382
  0
ARC
  5
46D
100
AcDbEntity
  8
KONSTRUKTIONSELEMENTE
100
AcDbCircle
 62
7
  6
CONTINUOUS
 10
481.9892787072
 20
145.6398397635
 40
54.1143197455
100
AcDbArc
 50
154.5316890966
 51
154.8959755382
  0
ARC
  5
46E
100
AcDbEntity
  8
KONSTRUKTIONSELEMENTE
100
AcDbCircle
 62
7
  6
CONTINUOUS
 10
477.9623726236
 20
142.3988884266
 40
53.0518614359
100
AcDbArc
 50
152.5015747816
 51
152.8181588765
  0
ARC
  5
46F
100
AcDbEntity
  8
0
100
AcDbCircle
 62
7
  6
CONTINUOUS
 10
480.6876455671
 20
147.1461003719
 40
51.8026116563
100
AcDbArc
 50
164.568365079
 51
165.0135430922
  0
ARC
  5
470
100
AcDbEntity
  8
KONSTRUKTIONSELEMENTE
100
AcDbCircle
 62
7
  6
CONTINUOUS
 10
480.1927711988
 20
147.3262199116
 40
51.8026116551
100
AcDbArc
 50
164.568365079
 51
165.0135430922
  0
ARC
  5
471
100
AcDbEntity
  8
KONSTRUKTIONSELEMENTE
100
AcDbCircle
 62
7
  6
CONTINUOUS
 10
477.1669594642
 20
148.9110166461
 40
48.6753663705
100
AcDbArc
 50
165.7666261488
 51
166.1529034794
  0
ARC
  5
472
100
AcDbEntity
  8
KONSTRUKTIONSELEMENTE
100
AcDbCircle
 62
7
  6
CONTINUOUS
 10
471.2046745762
 20
146.1824325885
 40
45.4661063352
100
AcDbArc
 50
153.3928538854
 51
153.8272903185
  0
ARC
  5
473
100
AcDbEntity
  8
KONSTRUKTIONSELEMENTE
100
AcDbCircle
 62
7
  6
CONTINUOUS
 10
471.212486477
 20
145.8789561806
 40
45.3142971923
100
AcDbArc
 50
160.0000426644
 51
160.5277852324
  0
ARC
  5
474
100
AcDbEntity
  8
RUNDUNGEN
100
AcDbCircle
 62
7
  6
CONTINUOUS
 10
488.8752464977
 20
147.0093137728
 40
14.4764335753
100
AcDbArc
 50
228.8852859717
 51
230.0002435559
  0
ARC
  5
475
100
AcDbEntity
  8
KONSTRUKTIONSELEMENTE
100
AcDbCircle
 62
7
  6
CONTINUOUS
 10
491.7712307016
 20
132.2086890295
 40
5.0
100
AcDbArc
 50
200.0
 51
230.0
  0
ARC
  5
476
100
AcDbEntity
  8
KONSTRUKTIONSELEMENTE
100
AcDbCircle
 62
7
  6
CONTINUOUS
 10
483.0940539662
 20
135.5824053735
 40
2.0
100
AcDbArc
 50
20.0
 51
101.0
  0
ARC
  5
477
100
AcDbEntity
  8
KONSTRUKTIONSELEMENTE
100
AcDbCircle
 62
7
  6
CONTINUOUS
 10
1037.4211621592
 20
-300.7656089261
 40
766.3147445797
100
AcDbArc
 50
142.1449516694
 51
142.3225458955
  0
ARC
  5
478
100
AcDbEntity
  8
KONSTRUKTIONSELEMENTE
100
AcDbCircle
 62
7
  6
CONTINUOUS
 10
979.4817850982
 20
-252.9818896405
 40
691.1623203851
100
AcDbArc
 50
142.3250832371
 51
142.4531107198
  0
ARC
  5
479
100
AcDbEntity
  8
0
100
AcDbCircle
 62
7
  6
CONTINUOUS
 10
-175.163587832
 20
-83.6401149241
 40
407.2532502165
100
AcDbArc
 50
36.4031741577
 51
39.0170947418
  0
ARC
  5
47A
100
AcDbEntity
  8
0
100
AcDbCircle
 62
7
  6
CONTINUOUS
 10
44.537689558
 20
-109.7900467201
 40
298.6327070488
100
AcDbArc
 50
71.1030166598
 51
72.5944444194
  0
ARC
  5
47B
100
AcDbEntity
  8
KONSTRUKTIONSELEMENTE
100
AcDbCircle
 62
7
  6
CONTINUOUS
 10
-27.8936478036
 20
-54.6580862508
 40
279.4228276323
100
AcDbArc
 50
53.1401720479
 51
53.2904679317
  0
ARC
  5
47C
100
AcDbEntity
  8
0
100
AcDbCircle
 62
7
  6
CONTINUOUS
 10
-24.2658468821
 20
-49.8487833592
 40
272.6984193175
100
AcDbArc
 50
53.1379064874
 51
53.2919093136
  0
ARC
  5
47D
100
AcDbEntity
  8
KONSTRUKTIONSELEMENTE
100
AcDbCircle
 62
7
  6
CONTINUOUS
 10
-24.2658468641
 20
-49.6686637959
 40
272.6984192876
100
AcDbArc
 50
53.1379064874
 51
53.2919093136
  0
ARC
  5
47E
100
AcDbEntity
  8
KONSTRUKTIONSELEMENTE
100
AcDbCircle
 62
7
  6
CONTINUOUS
 10
-16.8308595098
 20
-39.373394179
 40
258.6107359098
100
AcDbArc
 50
52.8782570842
 51
53.1496240128
  0
ARC
  5
47F
100
AcDbEntity
  8
KONSTRUKTIONSELEMENTE
100
AcDbCircle
 62
7
  6
CONTINUOUS
 10
20.8939071556
 20
-55.9100312869
 40
254.7266319526
100
AcDbArc
 50
63.2000901661
 51
63.6435497412
  0
ARC
  5
480
100
AcDbEntity
  8
KONSTRUKTIONSELEMENTE
100
AcDbCircle
 62
7
  6
CONTINUOUS
 10
-12.6725889153
 20
-33.6779786905
 40
251.0032516774
100
AcDbArc
 50
52.9800178997
 51
53.1476628604
  0
ARC
  5
481
100
AcDbEntity
  8
0
100
AcDbCircle
 62
7
  6
CONTINUOUS
 10
-12.4869182429
 20
-33.6108282942
 40
250.6940333936
100
AcDbArc
 50
53.0218648918
 51
53.1477244196
  0
ARC
  5
482
100
AcDbEntity
  8
0
100
AcDbCircle
 62
7
  6
CONTINUOUS
 10
22.7545169521
 20
-52.2746957527
 40
250.0292792195
100
AcDbArc
 50
63.179623126
 51
63.5374882609
  0
ARC
  5
483
100
AcDbEntity
  8
KONSTRUKTIONSELEMENTE
100
AcDbCircle
 62
7
  6
CONTINUOUS
 10
22.7545169521
 20
-52.0945762134
 40
250.0292792195
100
AcDbArc
 50
63.179623126
 51
63.5374882609
  0
ARC
  5
484
100
AcDbEntity
  8
KONSTRUKTIONSELEMENTE
100
AcDbCircle
 62
7
  6
CONTINUOUS
 10
28.7925564
 20
-39.7372506981
 40
234.9184147352
100
AcDbArc
 50
63.1723234283
 51
63.4302118068
  0
ARC
  5
485
100
AcDbEntity
  8
KONSTRUKTIONSELEMENTE
100
AcDbCircle
 62
7
  6
CONTINUOUS
 10
-3.1042146404
 20
-20.5644290714
 40
233.4736111213
100
AcDbArc
 50
53.1220893052
 51
53.301972199
  0
ARC
  5
486
100
AcDbEntity
  8
KONSTRUKTIONSELEMENTE
100
AcDbCircle
 62
7
  6
CONTINUOUS
 10
31.2107831794
 20
-34.7879318418
 40
228.8670088401
100
AcDbArc
 50
63.2102978618
 51
63.3494324592
  0
ARC
  5
487
100
AcDbEntity
  8
0
100
AcDbCircle
 62
7
  6
CONTINUOUS
 10
31.2372960017
 20
-34.9153211759
 40
228.8079884848
100
AcDbArc
 50
63.2305771034
 51
63.3494434858
  0
ARC
  5
488
100
AcDbEntity
  8
KONSTRUKTIONSELEMENTE
100
AcDbCircle
 62
7
  6
CONTINUOUS
 10
0.5233789871
 20
-15.5752867721
 40
226.7495512237
100
AcDbArc
 50
53.1188282365
 51
53.304046839
  0
ARC
  5
489
100
AcDbEntity
  8
0
100
AcDbCircle
 62
7
  6
CONTINUOUS
 10
0.5233789956
 20
-15.7554063
 40
226.7495512095
100
AcDbArc
 50
53.1188282365
 51
53.304046839
  0
ARC
  5
48A
100
AcDbEntity
  8
0
100
AcDbCircle
 62
7
  6
CONTINUOUS
 10
38.4816638302
 20
-19.9947364702
 40
210.3219080116
100
AcDbArc
 50
62.8633207283
 51
63.020635798
  0
ARC
  5
48B
100
AcDbEntity
  8
KONSTRUKTIONSELEMENTE
100
AcDbCircle
 62
7
  6
CONTINUOUS
 10
38.4816638356
 20
-19.8146169203
 40
210.3219079997
100
AcDbArc
 50
62.8633207283
 51
63.020635798
  0
ARC
  5
48C
100
AcDbEntity
  8
BEZUGSACHSEN
100
AcDbCircle
 62
7
  6
CONTINUOUS
 10
122.4292820218
 20
92.6243235937
 40
28.1101934718
100
AcDbArc
 50
99.5912595658
 51
100.5829792628
  0
ARC
  5
48D
100
AcDbEntity
  8
KONSTRUKTIONSELEMENTE
100
AcDbCircle
 62
7
  6
CONTINUOUS
 10
112.3419460807
 20
69.3440906556
 40
7.6448738681
100
AcDbArc
 50
83.0422972371
 51
85.4071741234
  0
ARC
  5
48E
100
AcDbEntity
  8
KONSTRUKTIONSELEMENTE
100
AcDbCircle
 62
7
  6
CONTINUOUS
 10
96.7282130211
 20
100.9909991511
 40
0.5563799333
100
AcDbArc
 50
323.8940517812
 51
329.159156329
  0
ARC
  5
48F
100
AcDbEntity
  8
BEZUGSACHSEN
100
AcDbCircle
 62
7
  6
CONTINUOUS
 10
121.8821771899
 20
147.5608595779
 40
12.3085026429
100
AcDbArc
 50
144.4529820181
 51
152.7574387789
  0
ARC
  5
490
100
AcDbEntity
  8
BEZUGSACHSEN
100
AcDbCircle
 62
7
  6
CONTINUOUS
 10
121.7160890366
 20
148.758108012
 40
12.119528899
100
AcDbArc
 50
206.0747107224
 51
206.7289394753
  0
ARC
  5
491
100
AcDbEntity
  8
BEZUGSACHSEN
100
AcDbCircle
 62
7
  6
CONTINUOUS
 10
121.5531016446
 20
147.4470301623
 40
12.068176234
100
AcDbArc
 50
143.4349170178
 51
151.5648972843
  0
ARC
  5
492
100
AcDbEntity
  8
BEZUGSACHSEN
100
AcDbCircle
 62
7
  6
CONTINUOUS
 10
121.4827458269
 20
147.7530895021
 40
11.8653886964
100
AcDbArc
 50
152.6998021484
 51
175.758490069
  0
ARC
  5
493
100
AcDbEntity
  8
BEZUGSACHSEN
100
AcDbCircle
 62
7
  6
CONTINUOUS
 10
121.3262660054
 20
147.5781436164
 40
11.8062775901
100
AcDbArc
 50
151.6002503052
 51
151.9471554166
  0
ARC
  5
494
100
AcDbEntity
  8
BEZUGSACHSEN
100
AcDbCircle
 62
7
  6
CONTINUOUS
 10
121.3315152409
 20
147.7757981794
 40
11.712898365
100
AcDbArc
 50
175.8145554071
 51
177.8996501343
  0
ARC
  5
495
100
AcDbEntity
  8
BEZUGSACHSEN
100
AcDbCircle
 62
7
  6
CONTINUOUS
 10
93.5929519646
 20
119.4327584208
 40
4.2756865547
100
AcDbArc
 50
359.9786078562
 51
11.7182487435
  0
ARC
  5
496
100
AcDbEntity
  8
RUNDUNGEN
100
AcDbCircle
 62
7
  6
CONTINUOUS
 10
96.3522130128
 20
122.2867714518
 40
1.5196431263
100
AcDbArc
 50
15.5155120532
 51
20.0753813902
  0
ARC
  5
497
100
AcDbEntity
  8
0
100
AcDbCircle
 62
7
  6
CONTINUOUS
 10
420.9008642947
 20
-83.6401149397
 40
407.253250242
100
AcDbArc
 50
140.9829052583
 51
143.5968258422
  0
ARC
  5
498
100
AcDbEntity
  8
KONSTRUKTIONSELEMENTE
100
AcDbCircle
 62
7
  6
CONTINUOUS
 10
401.6794946133
 20
-53.9534558635
 40
371.2193264368
100
AcDbArc
 50
144.0437095776
 51
144.3404197102
  0
ARC
  5
499
100
AcDbEntity
  8
KONSTRUKTIONSELEMENTE
100
AcDbCircle
 62
7
  6
CONTINUOUS
 10
394.7966600948
 20
-48.8766615181
 40
362.1812255194
100
AcDbArc
 50
144.0292965635
 51
144.269806415
  0
ARC
  5
49A
100
AcDbEntity
  8
0
100
AcDbCircle
 62
7
  6
CONTINUOUS
 10
393.5906854223
 20
-48.1848748691
 40
360.6930763475
100
AcDbArc
 50
144.0288666732
 51
144.2444672121
  0
ARC
  5
49B
100
AcDbEntity
  8
KONSTRUKTIONSELEMENTE
100
AcDbCircle
 62
7
  6
CONTINUOUS
 10
378.1956933984
 20
-36.5696331731
 40
340.0597645751
100
AcDbArc
 50
144.024366625
 51
144.2805400294
  0
ARC
  5
49C
100
AcDbEntity
  8
KONSTRUKTIONSELEMENTE
100
AcDbCircle
 62
7
  6
CONTINUOUS
 10
371.8089925825
 20
-31.829555815
 40
331.5238272933
100
AcDbArc
 50
144.0499923691
 51
144.285187683
  0
ARC
  5
49D
100
AcDbEntity
  8
0
100
AcDbCircle
 62
7
  6
CONTINUOUS
 10
370.7055891222
 20
-31.2120630179
 40
330.1623280348
100
AcDbArc
 50
144.0496289114
 51
144.2266337246
  0
ARC
  5
49E
100
AcDbEntity
  8
0
100
AcDbCircle
 62
7
  6
CONTINUOUS
 10
198.5697983248
 20
-101.7685124541
 40
290.1918316049
100
AcDbArc
 50
107.3838635422
 51
108.918675359
  0
ARC
  5
49F
100
AcDbEntity
  8
KONSTRUKTIONSELEMENTE
100
AcDbCircle
 62
7
  6
CONTINUOUS
 10
259.8805914078
 20
-56.8648094052
 40
273.2683234624
100
AcDbArc
 50
123.8349316456
 51
124.2465522423
  0
ARC
  5
4A0
100
AcDbEntity
  8
KONSTRUKTIONSELEMENTE
100
AcDbCircle
 62
7
  6
CONTINUOUS
 10
255.9771728835
 20
-50.9228145497
 40
265.6071733033
100
AcDbArc
 50
123.8325985755
 51
124.1500334391
  0
ARC
  5
4A1
100
AcDbEntity
  8
0
100
AcDbCircle
 62
7
  6
CONTINUOUS
 10
255.885196002
 20
-50.9662551334
 40
265.4424286787
100
AcDbArc
 50
123.8325330165
 51
124.1240262471
  0
ARC
  5
4A2
100
AcDbEntity
  8
KONSTRUKTIONSELEMENTE
100
AcDbCircle
 62
7
  6
CONTINUOUS
 10
236.9167878178
 20
-21.7629743765
 40
227.5526595602
100
AcDbArc
 50
123.8208340983
 51
124.1914196034
  0
ARC
  5
4A3
100
AcDbEntity
  8
KONSTRUKTIONSELEMENTE
100
AcDbCircle
 62
7
  6
CONTINUOUS
 10
234.3265390003
 20
-17.7678344186
 40
222.2398294954
100
AcDbArc
 50
123.8194532219
 51
124.3257769489
  0
ARC
  5
4A4
100
AcDbEntity
  8
0
100
AcDbCircle
 62
7
  6
CONTINUOUS
 10
233.7759566847
 20
-17.1339094552
 40
221.2570831399
100
AcDbArc
 50
123.8183287584
 51
124.3269014125
  0
ARC
  5
4A5
100
AcDbEntity
  8
KONSTRUKTIONSELEMENTE
100
AcDbCircle
 62
7
  6
CONTINUOUS
 10
122.8686382213
 20
64.7334209465
 40
36.0
100
AcDbArc
 50
98.9490180653
 51
113.3240322405
  0
ARC
  5
4A6
100
AcDbEntity
  8
KONSTRUKTIONSELEMENTE
100
AcDbCircle
 62
7
  6
CONTINUOUS
 10
122.8686382213
 20
64.7334209465
 40
36.0
100
AcDbArc
 50
66.6759677595
 51
81.0509819347
  0
ARC
  5
4A7
100
AcDbEntity
  8
BEZUGSACHSEN
100
AcDbCircle
 62
7
  6
CONTINUOUS
 10
123.3073727646
 20
92.6208875114
 40
28.1136852791
100
AcDbArc
 50
79.4170614704
 51
80.4189921433
  0
ARC
  5
4A8
100
AcDbEntity
  8
BEZUGSACHSEN
100
AcDbCircle
 62
7
  6
CONTINUOUS
 10
123.8550992527
 20
147.5608595779
 40
12.3085026428
100
AcDbArc
 50
27.2425612211
 51
35.5470179819
  0
ARC
  5
4A9
100
AcDbEntity
  8
BEZUGSACHSEN
100
AcDbCircle
 62
7
  6
CONTINUOUS
 10
124.0247980369
 20
148.7563260869
 40
12.1155025186
100
AcDbArc
 50
333.4582619286
 51
333.9308415642
  0
ARC
  5
4AA
100
AcDbEntity
  8
BEZUGSACHSEN
100
AcDbCircle
 62
7
  6
CONTINUOUS
 10
124.2312097786
 20
147.4771073162
 40
12.0124864002
100
AcDbArc
 50
28.4135123837
 51
36.6303822908
  0
ARC
  5
4AB
100
AcDbEntity
  8
BEZUGSACHSEN
100
AcDbCircle
 62
7
  6
CONTINUOUS
 10
124.2545306157
 20
147.7530895021
 40
11.8653886964
100
AcDbArc
 50
4.241509931
 51
27.3001978516
  0
ARC
  5
4AC
100
AcDbEntity
  8
BEZUGSACHSEN
100
AcDbCircle
 62
7
  6
CONTINUOUS
 10
124.4057612016
 20
147.7757981794
 40
11.712898365
100
AcDbArc
 50
2.1003498657
 51
4.1854445929
  0
ARC
  5
4AD
100
AcDbEntity
  8
0
100
AcDbCircle
 62
7
  6
CONTINUOUS
 10
122.8686382213
 20
328.8477300223
 40
11.0
100
AcDbArc
 50
0.0
 51
180.0
  0
ARC
  5
4AE
100
AcDbEntity
  8
0
100
AcDbCircle
 62
7
  6
CONTINUOUS
 10
122.8686382213
 20
146.8477300223
 40
11.0
100
AcDbArc
 50
180.0
 51
233.37762111
  0
ARC
  5
4AF
100
AcDbEntity
  8
0
100
AcDbCircle
 62
7
  6
CONTINUOUS
 10
122.8686382213
 20
146.8477300223
 40
11.0
100
AcDbArc
 50
306.7498231448
 51
360.0
  0
ARC
  5
4B0
100
AcDbEntity
  8
KONSTRUKTIONSELEMENTE
100
AcDbCircle
 62
7
  6
CONTINUOUS
 10
124.8406276087
 20
126.5812448968
 40
7.0016843237
100
AcDbArc
 50
300.67959366
 51
301.2268299873
  0
ARC
  5
4B1
100
AcDbEntity
  8
BEZUGSACHSEN
100
AcDbCircle
 62
7
  6
CONTINUOUS
 10
152.1443244779
 20
119.4327584208
 40
4.2756865547
100
AcDbArc
 50
168.2817512565
 51
180.0213921438
  0
ARC
  5
4B2
100
AcDbEntity
  8
BEZUGSACHSEN
100
AcDbCircle
 62
7
  6
CONTINUOUS
 10
140.844796066
 20
116.2355049336
 40
2.2239175474
100
AcDbArc
 50
4.2789042785
 51
8.7925106542
  0
ARC
  5
4B3
100
AcDbEntity
  8
KONSTRUKTIONSELEMENTE
100
AcDbCircle
 62
7
  6
CONTINUOUS
 10
125.3519172818
 20
125.8094711501
 40
1.575637998
100
AcDbArc
 50
305.1049205491
 51
307.6758220268
  0
ARC
  5
4B4
100
AcDbEntity
  8
RUNDUNGEN
100
AcDbCircle
 62
7
  6
CONTINUOUS
 10
149.3731651247
 20
122.2907327704
 40
1.5071080373
100
AcDbArc
 50
159.9107982631
 51
166.330095901
  0
ARC
  5
4B5
100
AcDbEntity
  8
RUNDUNGEN
100
AcDbCircle
 62
7
  6
CONTINUOUS
 10
149.3127724617
 20
122.3061850773
 40
1.4447744749
100
AcDbArc
 50
166.3595267786
 51
169.6839607516
  0
LINE
  5
4B6
100
AcDbEntity
  8
KONSTRUKTIONSELEMENTE
100
AcDbLine
 62
7
  6
CONTINUOUS
 10
469.4795447463
 20
166.4605622084
 11
468.8070429026
 21
167.2048356243
  0
LINE
  5
4B7
100
AcDbEntity
  8
KONSTRUKTIONSELEMENTE
100
AcDbLine
 62
7
  6
CONTINUOUS
 10
468.8070429026
 20
167.2048356243
 11
467.2879466136
 21
168.8858312435
  0
LINE
  5
4B8
100
AcDbEntity
  8
KONSTRUKTIONSELEMENTE
100
AcDbLine
 62
7
  6
CONTINUOUS
 10
466.8326983933
 20
170.2272699819
 11
467.0468987592
 21
170.0400716329
  0
LINE
  5
4B9
100
AcDbEntity
  8
KONSTRUKTIONSELEMENTE
100
AcDbLine
 62
7
  6
CONTINUOUS
 10
467.0468987592
 20
170.0400716329
 11
467.2998577027
 21
169.7812046236
  0
LINE
  5
4BA
100
AcDbEntity
  8
KONSTRUKTIONSELEMENTE
100
AcDbLine
 62
7
  6
CONTINUOUS
 10
467.2998577027
 20
169.7812046236
 11
467.34157823
 21
169.7384927481
  0
LINE
  5
4BB
100
AcDbEntity
  8
KONSTRUKTIONSELEMENTE
100
AcDbLine
 62
7
  6
CONTINUOUS
 10
467.34157823
 20
169.7384927481
 11
467.5245849238
 21
169.5358182646
  0
LINE
  5
4BC
100
AcDbEntity
  8
KONSTRUKTIONSELEMENTE
100
AcDbLine
 62
7
  6
CONTINUOUS
 10
467.5245849238
 20
169.5358182646
 11
467.578065686
 21
169.4765883507
  0
LINE
  5
4BD
100
AcDbEntity
  8
KONSTRUKTIONSELEMENTE
100
AcDbLine
 62
7
  6
CONTINUOUS
 10
467.578065686
 20
169.4765883507
 11
468.280230169
 21
168.6988718126
  0
LINE
  5
4BE
100
AcDbEntity
  8
KONSTRUKTIONSELEMENTE
100
AcDbLine
 62
7
  6
CONTINUOUS
 10
468.611508459
 20
168.3074389839
 11
468.280230169
 21
168.6988718126
  0
LINE
  5
4BF
100
AcDbEntity
  8
KONSTRUKTIONSELEMENTE
100
AcDbLine
 62
7
  6
CONTINUOUS
 10
468.8984510179
 20
167.9403652174
 11
468.611508459
 21
168.3074389839
  0
LINE
  5
4C0
100
AcDbEntity
  8
KONSTRUKTIONSELEMENTE
100
AcDbLine
 62
7
  6
CONTINUOUS
 10
469.4825739854
 20
165.9248460867
 11
469.3943165967
 21
166.0215791707
  0
LINE
  5
4C1
100
AcDbEntity
  8
KONSTRUKTIONSELEMENTE
100
AcDbLine
 62
7
  6
CONTINUOUS
 10
469.3943165967
 20
166.0215791707
 11
469.1686684443
 21
166.2688797627
  0
LINE
  5
4C2
100
AcDbEntity
  8
KONSTRUKTIONSELEMENTE
100
AcDbLine
 62
7
  6
CONTINUOUS
 10
469.7600013729
 20
165.5829174825
 11
469.4825739854
 21
165.9248460867
  0
LINE
  5
4C3
100
AcDbEntity
  8
KONSTRUKTIONSELEMENTE
100
AcDbLine
 62
7
  6
CONTINUOUS
 10
469.7898875882
 20
164.5881020665
 11
468.7077912696
 21
165.6568924187
  0
LINE
  5
4C4
100
AcDbEntity
  8
KONSTRUKTIONSELEMENTE
100
AcDbLine
 62
7
  6
CONTINUOUS
 10
468.7077912696
 20
165.6568924187
 11
468.2073322881
 21
166.1511613878
  0
LINE
  5
4C5
100
AcDbEntity
  8
KONSTRUKTIONSELEMENTE
100
AcDbLine
 62
7
  6
CONTINUOUS
 10
468.2073322881
 20
166.1511613878
 11
467.9792860769
 21
166.3763803281
  0
LINE
  5
4C6
100
AcDbEntity
  8
KONSTRUKTIONSELEMENTE
100
AcDbLine
 62
7
  6
CONTINUOUS
 10
469.7898875882
 20
164.5881020665
 11
470.0041561127
 21
164.413873505
  0
LINE
  5
4C7
100
AcDbEntity
  8
KONSTRUKTIONSELEMENTE
100
AcDbLine
 62
7
  6
CONTINUOUS
 10
470.0041561127
 20
164.413873505
 11
470.140438004
 21
164.3537679936
  0
LINE
  5
4C8
100
AcDbEntity
  8
KONSTRUKTIONSELEMENTE
100
AcDbLine
 62
7
  6
CONTINUOUS
 10
467.359104594
 20
168.057535702
 11
467.5918554289
 21
167.8275098624
  0
LINE
  5
4C9
100
AcDbEntity
  8
KONSTRUKTIONSELEMENTE
100
AcDbLine
 62
7
  6
CONTINUOUS
 10
467.5918554289
 20
167.8275098624
 11
469.1686684443
 21
166.2688797627
  0
LINE
  5
4CA
100
AcDbEntity
  8
KONSTRUKTIONSELEMENTE
100
AcDbLine
 62
7
  6
CONTINUOUS
 10
469.0688872108
 20
164.0076562792
 11
469.1270871871
 21
164.0481680657
  0
LINE
  5
4CB
100
AcDbEntity
  8
KONSTRUKTIONSELEMENTE
100
AcDbLine
 62
7
  6
CONTINUOUS
 10
470.3325960944
 20
161.9630364286
 11
469.5302142558
 21
162.625975554
  0
LINE
  5
4CC
100
AcDbEntity
  8
KONSTRUKTIONSELEMENTE
100
AcDbLine
 62
7
  6
CONTINUOUS
 10
471.7767118212
 20
160.7696836946
 11
470.653531508
 21
161.6978545452
  0
LINE
  5
4CD
100
AcDbEntity
  8
KONSTRUKTIONSELEMENTE
100
AcDbLine
 62
7
  6
CONTINUOUS
 10
468.8392747466
 20
164.4180641821
 11
468.9786204404
 21
164.4341093831
  0
LINE
  5
4CE
100
AcDbEntity
  8
KONSTRUKTIONSELEMENTE
100
AcDbLine
 62
7
  6
CONTINUOUS
 10
468.9786204404
 20
164.4341093831
 11
469.1139794804
 21
164.3657093631
  0
LINE
  5
4CF
100
AcDbEntity
  8
KONSTRUKTIONSELEMENTE
100
AcDbLine
 62
7
  6
CONTINUOUS
 10
469.1139794804
 20
164.3657093631
 11
469.3278353078
 21
164.1888844596
  0
LINE
  5
4D0
100
AcDbEntity
  8
KONSTRUKTIONSELEMENTE
100
AcDbLine
 62
7
  6
CONTINUOUS
 10
469.5133229589
 20
163.9920703038
 11
469.3743330349
 21
164.1395543629
  0
LINE
  5
4D1
100
AcDbEntity
  8
KONSTRUKTIONSELEMENTE
100
AcDbLine
 62
7
  6
CONTINUOUS
 10
469.3743330349
 20
164.1395543629
 11
469.3278353078
 21
164.1888844596
  0
LINE
  5
4D2
100
AcDbEntity
  8
KONSTRUKTIONSELEMENTE
100
AcDbLine
 62
7
  6
CONTINUOUS
 10
469.802042046
 20
163.6225041798
 11
469.5133229589
 21
163.9920703038
  0
SPLINE
  5
4D3
100
AcDbEntity
  8
0
100
AcDbSpline
 62
7
  6
CONTINUOUS
 70
0
 71
3
 72
9
 73
5
 74
0
 42
0.0000001
 43
0.0000001
 44
0.0000000001
 40
0.0
 40
0.0
 40
0.0
 40
0.0
 40
0.5000059437
 40
1.0
 40
1.0
 40
1.0
 40
1.0
 10
468.7734722602
 20
158.0498147285
 30
0.0
 10
469.8577548006
 20
155.8103841972
 30
0.0
 10
471.8680315597
 20
151.2521420502
 30
0.0
 10
473.491357225
 20
146.541249786
 30
0.0
 10
474.2068749149
 20
144.1582982948
 30
0.0
  0
SPLINE
  5
4D4
100
AcDbEntity
  8
0
100
AcDbSpline
 62
7
  6
CONTINUOUS
 70
0
 71
3
 72
11
 73
7
 74
0
 42
0.0000001
 43
0.0000001
 44
0.0000000001
 40
0.0
 40
0.0
 40
0.0
 40
0.0
 40
0.2501778167
 40
0.5000000005
 40
0.7498221845
 40
1.0
 40
1.0
 40
1.0
 40
1.0
 10
463.4241060082
 20
172.7470777142
 30
0.0
 10
464.0218396917
 20
171.5839964705
 30
0.0
 10
465.1514559082
 20
169.2251695425
 30
0.0
 10
466.6157678897
 20
165.5866110907
 30
0.0
 10
467.8328601253
 20
161.8580720161
 30
0.0
 10
468.4837486158
 20
159.3250024519
 30
0.0
 10
468.7734722602
 20
158.0498147285
 30
0.0
  0
LINE
  5
4D5
100
AcDbEntity
  8
0
100
AcDbLine
 62
7
  6
CONTINUOUS
 10
470.6938971679
 20
162.2088162965
 11
470.4331955196
 21
162.325122569
  0
LINE
  5
4D6
100
AcDbEntity
  8
KONSTRUKTIONSELEMENTE
100
AcDbLine
 62
7
  6
CONTINUOUS
 10
468.8808116501
 20
167.8085869381
 11
468.6574921948
 21
168.1067334112
  0
LINE
  5
4D7
100
AcDbEntity
  8
KONSTRUKTIONSELEMENTE
100
AcDbLine
 62
7
  6
CONTINUOUS
 10
468.6574921948
 20
168.1067334112
 11
468.3891794165
 21
168.4289996671
  0
LINE
  5
4D8
100
AcDbEntity
  8
KONSTRUKTIONSELEMENTE
100
AcDbLine
 62
7
  6
CONTINUOUS
 10
467.4499202362
 20
169.4683995848
 11
468.1558955136
 21
168.6871663873
  0
LINE
  5
4D9
100
AcDbEntity
  8
KONSTRUKTIONSELEMENTE
100
AcDbLine
 62
7
  6
CONTINUOUS
 10
468.1558955136
 20
168.6871663873
 11
468.2059612982
 21
168.6317610614
  0
LINE
  5
4DA
100
AcDbEntity
  8
KONSTRUKTIONSELEMENTE
100
AcDbLine
 62
7
  6
CONTINUOUS
 10
468.2059612982
 20
168.6317610614
 11
468.3891794165
 21
168.4289996671
  0
LINE
  5
4DB
100
AcDbEntity
  8
KONSTRUKTIONSELEMENTE
100
AcDbLine
 62
7
  6
CONTINUOUS
 10
467.2171724956
 20
169.7004353732
 11
467.2755855481
 21
169.6422175699
  0
LINE
  5
4DC
100
AcDbEntity
  8
KONSTRUKTIONSELEMENTE
100
AcDbLine
 62
7
  6
CONTINUOUS
 10
467.2755855481
 20
169.6422175699
 11
467.4499202362
 21
169.4683995848
  0
LINE
  5
4DD
100
AcDbEntity
  8
KONSTRUKTIONSELEMENTE
100
AcDbLine
 62
7
  6
CONTINUOUS
 10
467.0644798868
 20
169.8179368281
 11
467.0749280355
 21
169.8099107576
  0
LINE
  5
4DE
100
AcDbEntity
  8
KONSTRUKTIONSELEMENTE
100
AcDbLine
 62
7
  6
CONTINUOUS
 10
467.0749280355
 20
169.8099107576
 11
467.1792150806
 21
169.7296864224
  0
LINE
  5
4DF
100
AcDbEntity
  8
KONSTRUKTIONSELEMENTE
100
AcDbLine
 62
7
  6
CONTINUOUS
 10
467.1792150806
 20
169.7296864224
 11
467.2171724956
 21
169.7004353732
  0
SPLINE
  5
4E0
100
AcDbEntity
  8
0
100
AcDbSpline
 62
7
  6
CONTINUOUS
 70
0
 71
3
 72
8
 73
4
 74
0
 42
0.0000001
 43
0.0000001
 44
0.0000000001
 40
0.0
 40
0.0
 40
0.0
 40
0.0
 40
1.0
 40
1.0
 40
1.0
 40
1.0
 10
468.9014655266
 20
162.2754782887
 30
0.0
 10
469.7389775334
 20
161.582987539
 30
0.0
 10
470.5763935652
 20
160.8903806604
 30
0.0
 10
471.4136266388
 20
160.1975527017
 30
0.0
  0
LINE
  5
4E1
100
AcDbEntity
  8
0
100
AcDbLine
 62
7
  6
CONTINUOUS
 10
469.5093018104
 20
162.7082975012
 11
469.5382793809
 21
162.6288973251
  0
LINE
  5
4E2
100
AcDbEntity
  8
KONSTRUKTIONSELEMENTE
100
AcDbLine
 62
7
  6
CONTINUOUS
 10
469.9444636696
 20
165.7677474956
 11
469.6589750841
 21
166.0840610675
  0
LINE
  5
4E3
100
AcDbEntity
  8
KONSTRUKTIONSELEMENTE
100
AcDbLine
 62
7
  6
CONTINUOUS
 10
469.6589750841
 20
166.0840610675
 11
469.3911554821
 21
166.3807724232
  0
LINE
  5
4E4
100
AcDbEntity
  8
KONSTRUKTIONSELEMENTE
100
AcDbLine
 62
7
  6
CONTINUOUS
 10
469.3911554821
 20
166.3807724232
 11
469.3469156214
 21
166.4297825073
  0
LINE
  5
4E5
100
AcDbEntity
  8
KONSTRUKTIONSELEMENTE
100
AcDbLine
 62
7
  6
CONTINUOUS
 10
469.3469156214
 20
166.4297825073
 11
467.2005666985
 21
168.8069165054
  0
LINE
  5
4E6
100
AcDbEntity
  8
KONSTRUKTIONSELEMENTE
100
AcDbLine
 62
7
  6
CONTINUOUS
 10
467.2005666985
 20
168.8069165054
 11
467.0033906926
 21
169.0252397986
  0
LINE
  5
4E7
100
AcDbEntity
  8
0
100
AcDbLine
 62
7
  6
CONTINUOUS
 10
468.8047249185
 20
165.7550385576
 11
468.0762581321
 21
166.4745602748
  0
LINE
  5
4E8
100
AcDbEntity
  8
0
100
AcDbLine
 62
7
  6
CONTINUOUS
 10
468.0762581321
 20
166.4745602748
 11
466.9941234075
 21
167.5433168193
  0
LINE
  5
4E9
100
AcDbEntity
  8
0
100
AcDbLine
 62
7
  6
CONTINUOUS
 10
468.8047249185
 20
165.7550385576
 11
469.0598507684
 21
165.4685554362
  0
LINE
  5
4EA
100
AcDbEntity
  8
0
100
AcDbLine
 62
7
  6
CONTINUOUS
 10
469.0598507684
 20
165.4685554362
 11
469.2778474099
 21
165.1839404771
  0
LINE
  5
4EB
100
AcDbEntity
  8
KONSTRUKTIONSELEMENTE
100
AcDbLine
 62
7
  6
CONTINUOUS
 10
470.1771490568
 20
164.0165167621
 11
470.3728617513
 21
163.8990974445
  0
LINE
  5
4EC
100
AcDbEntity
  8
KONSTRUKTIONSELEMENTE
100
AcDbLine
 62
7
  6
CONTINUOUS
 10
469.9041009518
 20
164.2482955547
 11
470.1771490568
 21
164.0165167621
  0
LINE
  5
4ED
100
AcDbEntity
  8
KONSTRUKTIONSELEMENTE
100
AcDbLine
 62
7
  6
CONTINUOUS
 10
469.9041009518
 20
164.2482955547
 11
469.6764507863
 21
164.4733541707
  0
LINE
  5
4EE
100
AcDbEntity
  8
KONSTRUKTIONSELEMENTE
100
AcDbLine
 62
7
  6
CONTINUOUS
 10
469.6764507863
 20
164.4733541707
 11
468.0945371015
 21
166.036951494
  0
LINE
  5
4EF
100
AcDbEntity
  8
0
100
AcDbLine
 62
7
  6
CONTINUOUS
 10
467.5996627344
 20
165.8568319546
 11
468.9460424741
 21
164.5260743459
  0
LINE
  5
4F0
100
AcDbEntity
  8
0
100
AcDbLine
 62
7
  6
CONTINUOUS
 10
468.9460424741
 20
164.5260743459
 11
468.9635654215
 21
164.5087522788
  0
LINE
  5
4F1
100
AcDbEntity
  8
0
100
AcDbLine
 62
7
  6
CONTINUOUS
 10
468.9635654215
 20
164.5087522788
 11
469.008499688
 21
164.4643328134
  0
LINE
  5
4F2
100
AcDbEntity
  8
0
100
AcDbLine
 62
7
  6
CONTINUOUS
 10
469.008499688
 20
164.4643328134
 11
469.1022721848
 21
164.3716331551
  0
LINE
  5
4F3
100
AcDbEntity
  8
0
100
AcDbLine
 62
7
  6
CONTINUOUS
 10
469.6822746896
 20
163.8363972228
 11
469.5418319536
 21
163.9556180213
  0
LINE
  5
4F4
100
AcDbEntity
  8
KONSTRUKTIONSELEMENTE
100
AcDbLine
 62
7
  6
CONTINUOUS
 10
470.1981635277
 20
164.4075773832
 11
470.1874901604
 21
164.4913527167
  0
LINE
  5
4F5
100
AcDbEntity
  8
KONSTRUKTIONSELEMENTE
100
AcDbLine
 62
7
  6
CONTINUOUS
 10
470.1874901604
 20
164.4913527167
 11
470.1764333823
 21
164.5749744653
  0
LINE
  5
4F6
100
AcDbEntity
  8
0
100
AcDbLine
 62
7
  6
CONTINUOUS
 10
469.8779873842
 20
163.7189779051
 11
469.8647474102
 21
163.7269297715
  0
LINE
  5
4F7
100
AcDbEntity
  8
0
100
AcDbLine
 62
7
  6
CONTINUOUS
 10
469.8647474102
 20
163.7269297715
 11
469.7314758616
 21
163.8069034452
  0
LINE
  5
4F8
100
AcDbEntity
  8
0
100
AcDbLine
 62
7
  6
CONTINUOUS
 10
469.7314758616
 20
163.8069034452
 11
469.6822746896
 21
163.8363972228
  0
LINE
  5
4F9
100
AcDbEntity
  8
KONSTRUKTIONSELEMENTE
100
AcDbLine
 62
7
  6
CONTINUOUS
 10
469.772721777
 20
165.3640600164
 11
469.5547251356
 21
165.6486749755
  0
LINE
  5
4FA
100
AcDbEntity
  8
KONSTRUKTIONSELEMENTE
100
AcDbLine
 62
7
  6
CONTINUOUS
 10
469.5547251356
 20
165.6486749755
 11
469.3635882308
 21
165.8633123996
  0
LINE
  5
4FB
100
AcDbEntity
  8
KONSTRUKTIONSELEMENTE
100
AcDbLine
 62
7
  6
CONTINUOUS
 10
469.3635882308
 20
165.8633123996
 11
469.2995992857
 21
165.935158097
  0
LINE
  5
4FC
100
AcDbEntity
  8
KONSTRUKTIONSELEMENTE
100
AcDbLine
 62
7
  6
CONTINUOUS
 10
467.4889977747
 20
167.7234363587
 11
469.06647962
 21
166.1654211885
  0
LINE
  5
4FD
100
AcDbEntity
  8
KONSTRUKTIONSELEMENTE
100
AcDbLine
 62
7
  6
CONTINUOUS
 10
469.06647962
 20
166.1654211885
 11
469.2995992857
 21
165.935158097
  0
LINE
  5
4FE
100
AcDbEntity
  8
0
100
AcDbLine
 62
7
  6
CONTINUOUS
 10
470.034930677
 20
163.7145729354
 11
469.99615562
 21
163.7157116341
  0
LINE
  5
4FF
100
AcDbEntity
  8
KONSTRUKTIONSELEMENTE
100
AcDbLine
 62
7
  6
CONTINUOUS
 10
469.7644919428
 20
163.4331844057
 11
469.6085946458
 21
163.6504330382
  0
LINE
  5
500
100
AcDbEntity
  8
KONSTRUKTIONSELEMENTE
100
AcDbLine
 62
7
  6
CONTINUOUS
 10
469.6085946458
 20
163.6504330382
 11
469.4235345676
 21
163.8474028178
  0
LINE
  5
501
100
AcDbEntity
  8
KONSTRUKTIONSELEMENTE
100
AcDbLine
 62
7
  6
CONTINUOUS
 10
469.2630444362
 20
163.979985776
 11
469.4235345676
 21
163.8474028178
  0
LINE
  5
502
100
AcDbEntity
  8
KONSTRUKTIONSELEMENTE
100
AcDbLine
 62
7
  6
CONTINUOUS
 10
469.1270871871
 20
164.0481680657
 11
469.1611922864
 21
164.0310733892
  0
LINE
  5
503
100
AcDbEntity
  8
KONSTRUKTIONSELEMENTE
100
AcDbLine
 62
7
  6
CONTINUOUS
 10
469.1611922864
 20
164.0310733892
 11
469.2630444362
 21
163.979985776
  0
LINE
  5
504
100
AcDbEntity
  8
0
100
AcDbLine
 62
7
  6
CONTINUOUS
 10
466.5085163254
 20
168.8451202593
 11
467.2542435426
 21
168.0193705299
  0
LINE
  5
505
100
AcDbEntity
  8
KONSTRUKTIONSELEMENTE
100
AcDbLine
 62
7
  6
CONTINUOUS
 10
471.908501006
 20
160.3776722411
 11
471.6377362127
 21
160.6017226936
  0
LINE
  5
506
100
AcDbEntity
  8
KONSTRUKTIONSELEMENTE
100
AcDbLine
 62
7
  6
CONTINUOUS
 10
471.6377362127
 20
160.6017226936
 11
470.5150737019
 21
161.5304467718
  0
LINE
  5
507
100
AcDbEntity
  8
KONSTRUKTIONSELEMENTE
100
AcDbLine
 62
7
  6
CONTINUOUS
 10
470.5150737019
 20
161.5304467718
 11
470.1942696045
 21
161.7957689342
  0
LINE
  5
508
100
AcDbEntity
  8
KONSTRUKTIONSELEMENTE
100
AcDbLine
 62
7
  6
CONTINUOUS
 10
470.1942696045
 20
161.7957689342
 11
469.3963398938
 21
162.4555978281
  0
SPLINE
  5
509
100
AcDbEntity
  8
BEZUGSACHSEN
100
AcDbSpline
 62
7
  6
CONTINUOUS
 70
0
 71
3
 72
9
 73
5
 74
0
 42
0.0000001
 43
0.0000001
 44
0.0000000001
 40
0.0
 40
0.0
 40
0.0
 40
0.0
 40
0.2478797211
 40
1.0
 40
1.0
 40
1.0
 40
1.0
 10
476.2419641377
 20
120.3011468035
 30
0.0
 10
476.2200905937
 20
120.2291733379
 30
0.0
 10
476.1313868608
 20
119.938956966
 30
0.0
 10
476.0413811763
 20
119.6491411256
 30
0.0
 10
475.9736975431
 20
119.4311620362
 30
0.0
  0
SPLINE
  5
50A
100
AcDbEntity
  8
RUNDUNGEN
100
AcDbSpline
 62
7
  6
CONTINUOUS
 70
0
 71
3
 72
9
 73
5
 74
0
 42
0.0000001
 43
0.0000001
 44
0.0000000001
 40
0.0
 40
0.0
 40
0.0
 40
0.0
 40
0.2478797211
 40
1.0
 40
1.0
 40
1.0
 40
1.0
 10
483.1305810397
 20
122.8083983111
 30
0.0
 10
483.1936007985
 20
122.7673234808
 30
0.0
 10
483.4480992881
 20
122.6020225022
 30
0.0
 10
483.7033376739
 20
122.4378652269
 30
0.0
 10
483.8953006029
 20
122.3143897577
 30
0.0
  0
LINE
  5
50B
100
AcDbEntity
  8
0
100
AcDbLine
 62
7
  6
CONTINUOUS
 10
467.8943050494
 20
168.2488801278
 11
467.4267728085
 21
168.7662734147
  0
LINE
  5
50C
100
AcDbEntity
  8
0
100
AcDbLine
 62
7
  6
CONTINUOUS
 10
467.4267728085
 20
168.7662734147
 11
467.2693952315
 21
168.9404283721
  0
LINE
  5
50D
100
AcDbEntity
  8
0
100
AcDbLine
 62
7
  6
CONTINUOUS
 10
467.8943050494
 20
168.2488801278
 11
468.1626178276
 21
167.9266138718
  0
SPLINE
  5
50E
100
AcDbEntity
  8
BEZUGSACHSEN
100
AcDbSpline
 62
7
  6
CONTINUOUS
 70
0
 71
3
 72
11
 73
7
 74
0
 42
0.0000001
 43
0.0000001
 44
0.0000000001
 40
0.0
 40
0.0
 40
0.0
 40
0.0
 40
0.2530704919
 40
0.5000000005
 40
0.7469295092
 40
1.0
 40
1.0
 40
1.0
 40
1.0
 10
457.1947593747
 20
176.8373275567
 30
0.0
 10
457.2099725878
 20
176.3247385798
 30
0.0
 10
457.3072365505
 20
175.3118103792
 30
0.0
 10
457.6987117749
 20
173.8419779284
 30
0.0
 10
458.343614438
 20
172.4643855231
 30
0.0
 10
458.9202036201
 20
171.6259174383
 30
0.0
 10
459.2380354647
 20
171.2234726378
 30
0.0
  0
SPLINE
  5
50F
100
AcDbEntity
  8
0
100
AcDbSpline
 62
7
  6
CONTINUOUS
 70
0
 71
3
 72
11
 73
7
 74
0
 42
0.0000001
 43
0.0000001
 44
0.0000000001
 40
0.0
 40
0.0
 40
0.0
 40
0.0
 40
0.2530704919
 40
0.5000000005
 40
0.7469295092
 40
1.0
 40
1.0
 40
1.0
 40
1.0
 10
461.3808299182
 20
178.3609326331
 30
0.0
 10
461.6986617641
 20
177.9584878308
 30
0.0
 10
462.2752509428
 20
177.1200197414
 30
0.0
 10
462.9201536102
 20
175.7424273365
 30
0.0
 10
463.3116288381
 20
174.2725948881
 30
0.0
 10
463.4088927952
 20
173.259666689
 30
0.0
 10
463.4241060082
 20
172.7470777142
 30
0.0
  0
SPLINE
  5
510
100
AcDbEntity
  8
BEZUGSACHSEN
100
AcDbSpline
 62
7
  6
CONTINUOUS
 70
0
 71
3
 72
11
 73
7
 74
0
 42
0.0000001
 43
0.0000001
 44
0.0000000001
 40
0.0
 40
0.0
 40
0.0
 40
0.0
 40
0.2501778167
 40
0.5000000005
 40
0.7498221845
 40
1.0
 40
1.0
 40
1.0
 40
1.0
 10
459.2380354647
 20
171.2234726378
 30
0.0
 10
459.5277591104
 20
169.9482849085
 30
0.0
 10
460.1786476076
 20
167.4152153404
 30
0.0
 10
461.3957398412
 20
163.686676259
 30
0.0
 10
462.8600518167
 20
160.048117811
 30
0.0
 10
463.9896680359
 20
157.6892908904
 30
0.0
 10
464.5874017166
 20
156.5262096521
 30
0.0
  0
SPLINE
  5
511
100
AcDbEntity
  8
BEZUGSACHSEN
100
AcDbSpline
 62
7
  6
CONTINUOUS
 70
0
 71
3
 72
9
 73
5
 74
0
 42
0.0000001
 43
0.0000001
 44
0.0000000001
 40
0.0
 40
0.0
 40
0.0
 40
0.0
 40
0.5000059437
 40
1.0
 40
1.0
 40
1.0
 40
1.0
 10
464.5874017166
 20
156.5262096521
 30
0.0
 10
465.1962713001
 20
154.1137429555
 30
0.0
 10
466.5862915337
 20
149.3297458956
 30
0.0
 10
468.3708551064
 20
144.6775394303
 30
0.0
 10
469.3544684491
 20
142.3921667767
 30
0.0
  0
LINE
  5
512
100
AcDbEntity
  8
KONSTRUKTIONSELEMENTE
100
AcDbLine
 62
7
  6
CONTINUOUS
 10
428.2291953868
 20
158.8123077651
 11
428.4997081303
 21
158.935347557
  0
LINE
  5
513
100
AcDbEntity
  8
KONSTRUKTIONSELEMENTE
100
AcDbLine
 62
7
  6
CONTINUOUS
 10
428.8437614213
 20
159.1612850771
 11
428.5854701571
 21
158.991668317
  0
LINE
  5
514
100
AcDbEntity
  8
KONSTRUKTIONSELEMENTE
100
AcDbLine
 62
7
  6
CONTINUOUS
 10
428.5854701571
 20
158.991668317
 11
428.4997081303
 21
158.935347557
  0
LINE
  5
515
100
AcDbEntity
  8
KONSTRUKTIONSELEMENTE
100
AcDbLine
 62
7
  6
CONTINUOUS
 10
429.1631479746
 20
159.4255327308
 11
429.082910602
 21
159.3591645317
  0
LINE
  5
516
100
AcDbEntity
  8
KONSTRUKTIONSELEMENTE
100
AcDbLine
 62
7
  6
CONTINUOUS
 10
429.082910602
 20
159.3591645317
 11
428.9232172462
 21
159.227040751
  0
LINE
  5
517
100
AcDbEntity
  8
KONSTRUKTIONSELEMENTE
100
AcDbLine
 62
7
  6
CONTINUOUS
 10
428.9232172462
 20
159.227040751
 11
428.9174808957
 21
159.2222938764
  0
LINE
  5
518
100
AcDbEntity
  8
KONSTRUKTIONSELEMENTE
100
AcDbLine
 62
7
  6
CONTINUOUS
 10
428.9174808957
 20
159.2222938764
 11
428.8437614213
 21
159.1612850771
  0
SPLINE
  5
519
100
AcDbEntity
  8
KONSTRUKTIONSELEMENTE
100
AcDbSpline
 62
7
  6
CONTINUOUS
 70
0
 71
3
 72
8
 73
4
 74
0
 42
0.0000001
 43
0.0000001
 44
0.0000000001
 40
0.0
 40
0.0
 40
0.0
 40
0.0
 40
1.0
 40
1.0
 40
1.0
 40
1.0
 10
429.5569378243
 20
159.9012020342
 30
0.0
 10
429.4580263878
 20
159.7820236213
 30
0.0
 10
429.3592225937
 20
159.662755779
 30
0.0
 10
429.2605331059
 20
159.5433935095
 30
0.0
  0
LINE
  5
51A
100
AcDbEntity
  8
KONSTRUKTIONSELEMENTE
100
AcDbLine
 62
7
  6
CONTINUOUS
 10
429.2605331059
 20
159.5433935095
 11
429.1631479746
 21
159.4255327308
  0
LINE
  5
51B
100
AcDbEntity
  8
KONSTRUKTIONSELEMENTE
100
AcDbLine
 62
7
  6
CONTINUOUS
 10
429.7763633824
 20
161.1103282168
 11
429.9657477371
 21
161.0243979425
  0
LINE
  5
51C
100
AcDbEntity
  8
KONSTRUKTIONSELEMENTE
100
AcDbLine
 62
7
  6
CONTINUOUS
 10
429.6918055888
 20
161.3672711636
 11
429.9103654767
 21
161.4590540816
  0
LINE
  5
51D
100
AcDbEntity
  8
KONSTRUKTIONSELEMENTE
100
AcDbLine
 62
7
  6
CONTINUOUS
 10
429.9103654767
 20
161.4590540816
 11
430.0308072079
 21
161.4862170351
  0
LINE
  5
51E
100
AcDbEntity
  8
KONSTRUKTIONSELEMENTE
100
AcDbLine
 62
7
  6
CONTINUOUS
 10
430.0308072079
 20
161.4862170351
 11
430.1737512589
 21
161.4758538591
  0
LINE
  5
51F
100
AcDbEntity
  8
KONSTRUKTIONSELEMENTE
100
AcDbLine
 62
7
  6
CONTINUOUS
 10
428.8024807618
 20
160.6791386707
 11
428.676775187
 21
160.5444642756
  0
LINE
  5
520
100
AcDbEntity
  8
KONSTRUKTIONSELEMENTE
100
AcDbLine
 62
7
  6
CONTINUOUS
 10
428.676775187
 20
160.5444642756
 11
428.5519691234
 21
160.4106528452
  0
LINE
  5
521
100
AcDbEntity
  8
KONSTRUKTIONSELEMENTE
100
AcDbLine
 62
7
  6
CONTINUOUS
 10
428.9769607752
 20
160.8456297015
 11
428.8895589444
 21
160.7622389411
  0
LINE
  5
522
100
AcDbEntity
  8
KONSTRUKTIONSELEMENTE
100
AcDbLine
 62
7
  6
CONTINUOUS
 10
428.8895589444
 20
160.7622389411
 11
428.8024807618
 21
160.6791386707
  0
LINE
  5
523
100
AcDbEntity
  8
KONSTRUKTIONSELEMENTE
100
AcDbLine
 62
7
  6
CONTINUOUS
 10
429.2497282998
 20
161.0766792676
 11
429.1130647123
 21
160.9609224804
  0
LINE
  5
524
100
AcDbEntity
  8
KONSTRUKTIONSELEMENTE
100
AcDbLine
 62
7
  6
CONTINUOUS
 10
429.1130647123
 20
160.9609224804
 11
429.0439071826
 21
160.9023408495
  0
LINE
  5
525
100
AcDbEntity
  8
KONSTRUKTIONSELEMENTE
100
AcDbLine
 62
7
  6
CONTINUOUS
 10
429.0439071826
 20
160.9023408495
 11
428.9769607752
 21
160.8456297015
  0
LINE
  5
526
100
AcDbEntity
  8
KONSTRUKTIONSELEMENTE
100
AcDbLine
 62
7
  6
CONTINUOUS
 10
429.2497282998
 20
161.0766792676
 11
429.3597476416
 21
161.1490030348
  0
LINE
  5
527
100
AcDbEntity
  8
KONSTRUKTIONSELEMENTE
100
AcDbLine
 62
7
  6
CONTINUOUS
 10
429.3597476416
 20
161.1490030348
 11
429.3887242316
 21
161.1680509649
  0
LINE
  5
528
100
AcDbEntity
  8
KONSTRUKTIONSELEMENTE
100
AcDbLine
 62
7
  6
CONTINUOUS
 10
429.3887242316
 20
161.1680509649
 11
429.6918055888
 21
161.3672711636
  0
LINE
  5
529
100
AcDbEntity
  8
KONSTRUKTIONSELEMENTE
100
AcDbLine
 62
7
  6
CONTINUOUS
 10
430.4743318019
 20
163.1453186705
 11
430.7016894716
 21
163.054757561
  0
LINE
  5
52A
100
AcDbEntity
  8
KONSTRUKTIONSELEMENTE
100
AcDbLine
 62
7
  6
CONTINUOUS
 10
430.4743318019
 20
163.1453186705
 11
430.5672919176
 21
163.2206363867
  0
LINE
  5
52B
100
AcDbEntity
  8
KONSTRUKTIONSELEMENTE
100
AcDbLine
 62
7
  6
CONTINUOUS
 10
430.5672919176
 20
163.2206363867
 11
430.8990445092
 21
163.4894258386
  0
LINE
  5
52C
100
AcDbEntity
  8
KONSTRUKTIONSELEMENTE
100
AcDbLine
 62
7
  6
CONTINUOUS
 10
431.3589575894
 20
167.690253341
 11
431.0742423715
 21
167.3290518182
  0
LINE
  5
52D
100
AcDbEntity
  8
KONSTRUKTIONSELEMENTE
100
AcDbLine
 62
7
  6
CONTINUOUS
 10
431.6857877871
 20
168.0695454022
 11
431.4404212548
 21
167.7847975199
  0
LINE
  5
52E
100
AcDbEntity
  8
KONSTRUKTIONSELEMENTE
100
AcDbLine
 62
7
  6
CONTINUOUS
 10
431.4404212548
 20
167.7847975199
 11
431.3589575894
 21
167.690253341
  0
LINE
  5
52F
100
AcDbEntity
  8
KONSTRUKTIONSELEMENTE
100
AcDbLine
 62
7
  6
CONTINUOUS
 10
431.6857877871
 20
168.0695454022
 11
432.3754426372
 21
168.8127978417
  0
LINE
  5
530
100
AcDbEntity
  8
KONSTRUKTIONSELEMENTE
100
AcDbLine
 62
7
  6
CONTINUOUS
 10
432.3754426372
 20
168.8127978417
 11
432.410277972
 21
168.8503372494
  0
LINE
  5
531
100
AcDbEntity
  8
KONSTRUKTIONSELEMENTE
100
AcDbLine
 62
7
  6
CONTINUOUS
 10
432.410277972
 20
168.8503372494
 11
432.6077520328
 21
169.0631346621
  0
LINE
  5
532
100
AcDbEntity
  8
KONSTRUKTIONSELEMENTE
100
AcDbLine
 62
7
  6
CONTINUOUS
 10
432.6077520328
 20
169.0631346621
 11
432.6284144984
 21
169.0834486026
  0
LINE
  5
533
100
AcDbEntity
  8
KONSTRUKTIONSELEMENTE
100
AcDbLine
 62
7
  6
CONTINUOUS
 10
432.6284144984
 20
169.0834486026
 11
432.8957497633
 21
169.3461682362
  0
LINE
  5
534
100
AcDbEntity
  8
KONSTRUKTIONSELEMENTE
100
AcDbLine
 62
7
  6
CONTINUOUS
 10
432.8957497633
 20
169.3461682362
 11
433.1032631348
 21
169.5146937823
  0
LINE
  5
535
100
AcDbEntity
  8
KONSTRUKTIONSELEMENTE
100
AcDbLine
 62
7
  6
CONTINUOUS
 10
432.4609459369
 20
167.9706125733
 11
432.2597818506
 21
167.7228049568
  0
LINE
  5
536
100
AcDbEntity
  8
KONSTRUKTIONSELEMENTE
100
AcDbLine
 62
7
  6
CONTINUOUS
 10
430.6042052287
 20
166.0650705308
 11
430.6771945815
 21
166.0501416883
  0
LINE
  5
537
100
AcDbEntity
  8
KONSTRUKTIONSELEMENTE
100
AcDbLine
 62
7
  6
CONTINUOUS
 10
430.6771945815
 20
166.0501416883
 11
430.8452006403
 21
166.1996300472
  0
LINE
  5
538
100
AcDbEntity
  8
KONSTRUKTIONSELEMENTE
100
AcDbLine
 62
7
  6
CONTINUOUS
 10
431.3372093334
 20
166.7294372138
 11
430.8452006403
 21
166.1996300472
  0
LINE
  5
539
100
AcDbEntity
  8
KONSTRUKTIONSELEMENTE
100
AcDbLine
 62
7
  6
CONTINUOUS
 10
431.8586832872
 20
167.5680504175
 11
431.4894683088
 21
167.1707710084
  0
LINE
  5
53A
100
AcDbEntity
  8
KONSTRUKTIONSELEMENTE
100
AcDbLine
 62
7
  6
CONTINUOUS
 10
432.8762032296
 20
169.9385468336
 11
433.0590888028
 21
170.1295422574
  0
LINE
  5
53B
100
AcDbEntity
  8
KONSTRUKTIONSELEMENTE
100
AcDbLine
 62
7
  6
CONTINUOUS
 10
433.2544248893
 20
170.3578636898
 11
433.0590888028
 21
170.1295422574
  0
LINE
  5
53C
100
AcDbEntity
  8
KONSTRUKTIONSELEMENTE
100
AcDbLine
 62
7
  6
CONTINUOUS
 10
433.4622484883
 20
170.6234971053
 11
433.2544248893
 21
170.3578636898
  0
LINE
  5
53D
100
AcDbEntity
  8
KONSTRUKTIONSELEMENTE
100
AcDbLine
 62
7
  6
CONTINUOUS
 10
433.6177205776
 20
170.8502382822
 11
433.4622484883
 21
170.6234971053
  0
LINE
  5
53E
100
AcDbEntity
  8
KONSTRUKTIONSELEMENTE
100
AcDbLine
 62
7
  6
CONTINUOUS
 10
433.9143755672
 20
171.5641374772
 11
433.8964895936
 21
171.5174960227
  0
LINE
  5
53F
100
AcDbEntity
  8
KONSTRUKTIONSELEMENTE
100
AcDbLine
 62
7
  6
CONTINUOUS
 10
431.3384568302
 20
168.7598032549
 11
431.4420612461
 21
168.8810554518
  0
LINE
  5
540
100
AcDbEntity
  8
KONSTRUKTIONSELEMENTE
100
AcDbLine
 62
7
  6
CONTINUOUS
 10
431.4420612461
 20
168.8810554518
 11
432.5589378523
 21
170.187981137
  0
LINE
  5
541
100
AcDbEntity
  8
KONSTRUKTIONSELEMENTE
100
AcDbLine
 62
7
  6
CONTINUOUS
 10
432.5589378523
 20
170.187981137
 11
432.8419499698
 21
170.5190994321
  0
LINE
  5
542
100
AcDbEntity
  8
KONSTRUKTIONSELEMENTE
100
AcDbLine
 62
7
  6
CONTINUOUS
 10
432.8419499698
 20
170.5190994321
 11
432.9493887184
 21
170.6447956253
  0
LINE
  5
543
100
AcDbEntity
  8
KONSTRUKTIONSELEMENTE
100
AcDbLine
 62
7
  6
CONTINUOUS
 10
432.9493887184
 20
170.6447956253
 11
433.8727280573
 21
171.7249393978
  0
LINE
  5
544
100
AcDbEntity
  8
KONSTRUKTIONSELEMENTE
100
AcDbLine
 62
7
  6
CONTINUOUS
 10
433.8727280573
 20
171.7249393978
 11
433.9255964006
 21
171.7867808672
  0
LINE
  5
545
100
AcDbEntity
  8
KONSTRUKTIONSELEMENTE
100
AcDbLine
 62
7
  6
CONTINUOUS
 10
433.9255964006
 20
171.7867808672
 11
434.3965374558
 21
172.3376303859
  0
LINE
  5
546
100
AcDbEntity
  8
KONSTRUKTIONSELEMENTE
100
AcDbLine
 62
7
  6
CONTINUOUS
 10
432.3795722858
 20
169.5140579427
 11
432.3652614162
 21
169.4956426526
  0
LINE
  5
547
100
AcDbEntity
  8
0
100
AcDbLine
 62
7
  6
CONTINUOUS
 10
431.9985808195
 20
167.5218019321
 11
432.0200801251
 21
167.5472121345
  0
LINE
  5
548
100
AcDbEntity
  8
0
100
AcDbLine
 62
7
  6
CONTINUOUS
 10
432.0200801251
 20
167.5472121345
 11
432.0650350613
 21
167.6003429966
  0
LINE
  5
549
100
AcDbEntity
  8
0
100
AcDbLine
 62
7
  6
CONTINUOUS
 10
432.5653108769
 20
168.1390359335
 11
432.5243427723
 21
168.0949229975
  0
LINE
  5
54A
100
AcDbEntity
  8
0
100
AcDbLine
 62
7
  6
CONTINUOUS
 10
432.5243427723
 20
168.0949229975
 11
432.2941965491
 21
167.8471062106
  0
LINE
  5
54B
100
AcDbEntity
  8
0
100
AcDbLine
 62
7
  6
CONTINUOUS
 10
432.2941965491
 20
167.8471062106
 11
432.2162789933
 21
167.7632046395
  0
LINE
  5
54C
100
AcDbEntity
  8
0
100
AcDbLine
 62
7
  6
CONTINUOUS
 10
432.2162789933
 20
167.7632046395
 11
432.0650350613
 21
167.6003429966
  0
LINE
  5
54D
100
AcDbEntity
  8
0
100
AcDbLine
 62
7
  6
CONTINUOUS
 10
432.6566785883
 20
167.2471786719
 11
432.9801931035
 21
167.6276752645
  0
LINE
  5
54E
100
AcDbEntity
  8
0
100
AcDbLine
 62
7
  6
CONTINUOUS
 10
431.1815470378
 20
165.6574318386
 11
430.9516326049
 21
165.4418657778
  0
LINE
  5
54F
100
AcDbEntity
  8
0
100
AcDbLine
 62
7
  6
CONTINUOUS
 10
429.6869870103
 20
161.3732179332
 11
429.8059313515
 21
161.4695915722
  0
LINE
  5
550
100
AcDbEntity
  8
0
100
AcDbLine
 62
7
  6
CONTINUOUS
 10
429.8059313515
 20
161.4695915722
 11
429.8638227917
 21
161.5164974672
  0
LINE
  5
551
100
AcDbEntity
  8
0
100
AcDbLine
 62
7
  6
CONTINUOUS
 10
429.8638227917
 20
161.5164974672
 11
429.9498183191
 21
161.5861742068
  0
LINE
  5
552
100
AcDbEntity
  8
0
100
AcDbLine
 62
7
  6
CONTINUOUS
 10
429.9498183191
 20
161.5861742068
 11
430.0310432606
 21
161.6519854493
  0
LINE
  5
553
100
AcDbEntity
  8
0
100
AcDbLine
 62
7
  6
CONTINUOUS
 10
430.0310432606
 20
161.6519854493
 11
431.4800423397
 21
162.8259866475
  0
LINE
  5
554
100
AcDbEntity
  8
0
100
AcDbLine
 62
7
  6
CONTINUOUS
 10
431.621327926
 20
163.2187263143
 11
431.3939188764
 21
163.3093062993
  0
LINE
  5
555
100
AcDbEntity
  8
KONSTRUKTIONSELEMENTE
100
AcDbLine
 62
7
  6
CONTINUOUS
 10
432.4853187364
 20
167.8077948038
 11
432.1618042212
 21
167.4272982112
  0
LINE
  5
556
100
AcDbEntity
  8
KONSTRUKTIONSELEMENTE
100
AcDbLine
 62
7
  6
CONTINUOUS
 10
432.8670060073
 20
169.0922957675
 11
432.9345682461
 21
169.0793421709
  0
LINE
  5
557
100
AcDbEntity
  8
KONSTRUKTIONSELEMENTE
100
AcDbLine
 62
7
  6
CONTINUOUS
 10
432.719889389
 20
168.990397798
 11
432.7564573653
 21
169.0157646715
  0
LINE
  5
558
100
AcDbEntity
  8
KONSTRUKTIONSELEMENTE
100
AcDbLine
 62
7
  6
CONTINUOUS
 10
432.7564573653
 20
169.0157646715
 11
432.8391129999
 21
169.0730076516
  0
LINE
  5
559
100
AcDbEntity
  8
KONSTRUKTIONSELEMENTE
100
AcDbLine
 62
7
  6
CONTINUOUS
 10
432.8391129999
 20
169.0730076516
 11
432.8670060073
 21
169.0922957675
  0
LINE
  5
55A
100
AcDbEntity
  8
KONSTRUKTIONSELEMENTE
100
AcDbLine
 62
7
  6
CONTINUOUS
 10
432.4927144995
 20
168.7738372137
 11
432.6974491109
 21
168.9690134708
  0
LINE
  5
55B
100
AcDbEntity
  8
KONSTRUKTIONSELEMENTE
100
AcDbLine
 62
7
  6
CONTINUOUS
 10
432.6974491109
 20
168.9690134708
 11
432.719889389
 21
168.990397798
  0
LINE
  5
55C
100
AcDbEntity
  8
0
100
AcDbLine
 62
7
  6
CONTINUOUS
 10
428.4797341258
 20
158.2526241042
 11
428.3314258426
 21
158.264939666
  0
LINE
  5
55D
100
AcDbEntity
  8
0
100
AcDbLine
 62
7
  6
CONTINUOUS
 10
428.6031136317
 20
158.2787176547
 11
428.4797341258
 21
158.2526241042
  0
LINE
  5
55E
100
AcDbEntity
  8
0
100
AcDbLine
 62
7
  6
CONTINUOUS
 10
428.8247795553
 20
158.3693664992
 11
428.6031136317
 21
158.2787176547
  0
LINE
  5
55F
100
AcDbEntity
  8
0
100
AcDbLine
 62
7
  6
CONTINUOUS
 10
428.8247795553
 20
158.3693664992
 11
429.2668568443
 21
158.6599583953
  0
LINE
  5
560
100
AcDbEntity
  8
0
100
AcDbLine
 62
7
  6
CONTINUOUS
 10
429.2668568443
 20
158.6599583953
 11
429.5365183391
 21
158.8921420326
  0
LINE
  5
561
100
AcDbEntity
  8
0
100
AcDbLine
 62
7
  6
CONTINUOUS
 10
429.5365183391
 20
158.8921420326
 11
429.7080605792
 21
159.059702466
  0
LINE
  5
562
100
AcDbEntity
  8
0
100
AcDbLine
 62
7
  6
CONTINUOUS
 10
429.7080605792
 20
159.059702466
 11
429.9532079866
 21
159.3301406767
  0
LINE
  5
563
100
AcDbEntity
  8
KONSTRUKTIONSELEMENTE
100
AcDbLine
 62
7
  6
CONTINUOUS
 10
431.5701606942
 20
167.780462536
 11
431.767849997
 21
167.9933366174
  0
LINE
  5
564
100
AcDbEntity
  8
KONSTRUKTIONSELEMENTE
100
AcDbLine
 62
7
  6
CONTINUOUS
 10
431.767849997
 20
167.9933366174
 11
431.799281438
 21
168.0271818771
  0
LINE
  5
565
100
AcDbEntity
  8
KONSTRUKTIONSELEMENTE
100
AcDbLine
 62
7
  6
CONTINUOUS
 10
431.799281438
 20
168.0271818771
 11
432.4927144995
 21
168.7738372137
  0
LINE
  5
566
100
AcDbEntity
  8
KONSTRUKTIONSELEMENTE
100
AcDbLine
 62
7
  6
CONTINUOUS
 10
431.5701606942
 20
167.780462536
 11
431.5037104654
 21
167.7019262145
  0
LINE
  5
567
100
AcDbEntity
  8
KONSTRUKTIONSELEMENTE
100
AcDbLine
 62
7
  6
CONTINUOUS
 10
431.5037104654
 20
167.7019262145
 11
431.3051890519
 21
167.467266247
  0
LINE
  5
568
100
AcDbEntity
  8
KONSTRUKTIONSELEMENTE
100
AcDbLine
 62
7
  6
CONTINUOUS
 10
431.3051890519
 20
167.467266247
 11
431.0829883323
 21
167.171921815
  0
LINE
  5
569
100
AcDbEntity
  8
KONSTRUKTIONSELEMENTE
100
AcDbLine
 62
7
  6
CONTINUOUS
 10
430.6382915936
 20
166.2728953181
 11
430.6107196217
 21
166.1948666558
  0
LINE
  5
56A
100
AcDbEntity
  8
0
100
AcDbLine
 62
7
  6
CONTINUOUS
 10
428.5239656197
 20
158.951280819
 11
428.5422823729
 21
159.0271726294
  0
LINE
  5
56B
100
AcDbEntity
  8
0
100
AcDbLine
 62
7
  6
CONTINUOUS
 10
428.5422823729
 20
159.0271726294
 11
428.5616963488
 21
159.1069425381
  0
LINE
  5
56C
100
AcDbEntity
  8
0
100
AcDbLine
 62
7
  6
CONTINUOUS
 10
428.5616963488
 20
159.1069425381
 11
428.5812645677
 21
159.1866639781
  0
LINE
  5
56D
100
AcDbEntity
  8
0
100
AcDbLine
 62
7
  6
CONTINUOUS
 10
429.3372851616
 20
160.3169837118
 11
429.6588996333
 21
160.5804241789
  0
LINE
  5
56E
100
AcDbEntity
  8
0
100
AcDbLine
 62
7
  6
CONTINUOUS
 10
429.9604568433
 20
160.778455602
 11
429.916688321
 21
160.7497136941
  0
LINE
  5
56F
100
AcDbEntity
  8
0
100
AcDbLine
 62
7
  6
CONTINUOUS
 10
429.916688321
 20
160.7497136941
 11
429.83059123
 21
160.6931747769
  0
LINE
  5
570
100
AcDbEntity
  8
0
100
AcDbLine
 62
7
  6
CONTINUOUS
 10
429.83059123
 20
160.6931747769
 11
429.7446616628
 21
160.636744941
  0
LINE
  5
571
100
AcDbEntity
  8
0
100
AcDbLine
 62
7
  6
CONTINUOUS
 10
429.7446616628
 20
160.636744941
 11
429.6588996333
 21
160.5804241789
  0
SPLINE
  5
572
100
AcDbEntity
  8
0
100
AcDbSpline
 62
7
  6
CONTINUOUS
 70
0
 71
3
 72
11
 73
7
 74
0
 42
0.0000001
 43
0.0000001
 44
0.0000000001
 40
0.0
 40
0.0
 40
0.0
 40
0.0
 40
0.2530704919
 40
0.5000000005
 40
0.7469295092
 40
1.0
 40
1.0
 40
1.0
 40
1.0
 10
436.7720056238
 20
172.7470777142
 30
0.0
 10
436.7872188368
 20
173.2596666911
 30
0.0
 10
436.8844827996
 20
174.2725948916
 30
0.0
 10
437.2759580239
 20
175.7424273424
 30
0.0
 10
437.9208606871
 20
177.1200197478
 30
0.0
 10
438.4974498691
 20
177.9584878325
 30
0.0
 10
438.8152817137
 20
178.3609326331
 30
0.0
  0
SPLINE
  5
573
100
AcDbEntity
  8
0
100
AcDbSpline
 62
7
  6
CONTINUOUS
 70
0
 71
3
 72
11
 73
7
 74
0
 42
0.0000001
 43
0.0000001
 44
0.0000000001
 40
0.0
 40
0.0
 40
0.0
 40
0.0
 40
0.2501778167
 40
0.5000000005
 40
0.7498221845
 40
1.0
 40
1.0
 40
1.0
 40
1.0
 10
431.4226393718
 20
158.0498147285
 30
0.0
 10
431.7123630176
 20
159.3250024578
 30
0.0
 10
432.3632515148
 20
161.8580720259
 30
0.0
 10
433.5803437483
 20
165.5866111073
 30
0.0
 10
435.0446557238
 20
169.2251695553
 30
0.0
 10
436.174271943
 20
171.5839964759
 30
0.0
 10
436.7720056238
 20
172.7470777142
 30
0.0
  0
LINE
  5
574
100
AcDbEntity
  8
KONSTRUKTIONSELEMENTE
100
AcDbLine
 62
7
  6
CONTINUOUS
 10
431.6085850513
 20
166.8311595151
 11
431.4323087817
 21
166.6411920511
  0
LINE
  5
575
100
AcDbEntity
  8
KONSTRUKTIONSELEMENTE
100
AcDbLine
 62
7
  6
CONTINUOUS
 10
431.4323087817
 20
166.6411920511
 11
431.3762958437
 21
166.5808269958
  0
LINE
  5
576
100
AcDbEntity
  8
KONSTRUKTIONSELEMENTE
100
AcDbLine
 62
7
  6
CONTINUOUS
 10
431.3762958437
 20
166.5808269958
 11
430.9405337543
 21
166.1111783367
  0
LINE
  5
577
100
AcDbEntity
  8
KONSTRUKTIONSELEMENTE
100
AcDbLine
 62
7
  6
CONTINUOUS
 10
430.9405337543
 20
166.1111783367
 11
430.6866726707
 21
165.8375513779
  0
SPLINE
  5
578
100
AcDbEntity
  8
0
100
AcDbSpline
 62
7
  6
CONTINUOUS
 70
0
 71
3
 72
9
 73
5
 74
0
 42
0.0000001
 43
0.0000001
 44
0.0000000001
 40
0.0
 40
0.0
 40
0.0
 40
0.0
 40
0.4999940578
 40
1.0
 40
1.0
 40
1.0
 40
1.0
 10
425.989236717
 20
144.1582982948
 30
0.0
 10
426.704754409
 20
146.541249793
 30
0.0
 10
428.3280800756
 20
151.2521420568
 30
0.0
 10
430.3383568346
 20
155.8103842037
 30
0.0
 10
431.4226393718
 20
158.0498147285
 30
0.0
  0
LINE
  5
579
100
AcDbEntity
  8
KONSTRUKTIONSELEMENTE
100
AcDbLine
 62
7
  6
CONTINUOUS
 10
433.0058512311
 20
170.5965327654
 11
433.9824627138
 21
171.7381639051
  0
LINE
  5
57A
100
AcDbEntity
  8
KONSTRUKTIONSELEMENTE
100
AcDbLine
 62
7
  6
CONTINUOUS
 10
432.7720701271
 20
169.9754296829
 11
432.7443613795
 21
169.8964062281
  0
LINE
  5
57B
100
AcDbEntity
  8
KONSTRUKTIONSELEMENTE
100
AcDbLine
 62
7
  6
CONTINUOUS
 10
429.1640252662
 20
160.7605437183
 11
429.4218085022
 21
160.9298296534
  0
LINE
  5
57C
100
AcDbEntity
  8
KONSTRUKTIONSELEMENTE
100
AcDbLine
 62
7
  6
CONTINUOUS
 10
429.4218085022
 20
160.9298296534
 11
429.5080785556
 21
160.986481239
  0
LINE
  5
57D
100
AcDbEntity
  8
KONSTRUKTIONSELEMENTE
100
AcDbLine
 62
7
  6
CONTINUOUS
 10
431.2481221713
 20
168.541534477
 11
431.3940985914
 21
168.7122139729
  0
LINE
  5
57E
100
AcDbEntity
  8
KONSTRUKTIONSELEMENTE
100
AcDbLine
 62
7
  6
CONTINUOUS
 10
431.3940985914
 20
168.7122139729
 11
432.2065259188
 21
169.6620717698
  0
LINE
  5
57F
100
AcDbEntity
  8
KONSTRUKTIONSELEMENTE
100
AcDbLine
 62
7
  6
CONTINUOUS
 10
432.2065259188
 20
169.6620717698
 11
432.6152239729
 21
170.139874112
  0
LINE
  5
580
100
AcDbEntity
  8
KONSTRUKTIONSELEMENTE
100
AcDbLine
 62
7
  6
CONTINUOUS
 10
429.1640252662
 20
160.7605437183
 11
429.0937779653
 21
160.7030068344
  0
LINE
  5
581
100
AcDbEntity
  8
KONSTRUKTIONSELEMENTE
100
AcDbLine
 62
7
  6
CONTINUOUS
 10
429.0937779653
 20
160.7030068344
 11
429.0833383455
 21
160.6944559532
  0
LINE
  5
582
100
AcDbEntity
  8
KONSTRUKTIONSELEMENTE
100
AcDbLine
 62
7
  6
CONTINUOUS
 10
429.0833383455
 20
160.6944559532
 11
428.9225310809
 21
160.5627357364
  0
LINE
  5
583
100
AcDbEntity
  8
KONSTRUKTIONSELEMENTE
100
AcDbLine
 62
7
  6
CONTINUOUS
 10
428.9225310809
 20
160.5627357364
 11
428.8424107945
 21
160.4971032511
  0
LINE
  5
584
100
AcDbEntity
  8
KONSTRUKTIONSELEMENTE
100
AcDbLine
 62
7
  6
CONTINUOUS
 10
428.8424107945
 20
160.4971032511
 11
428.7410993021
 21
160.3777704309
  0
LINE
  5
585
100
AcDbEntity
  8
KONSTRUKTIONSELEMENTE
100
AcDbLine
 62
7
  6
CONTINUOUS
 10
428.7410993021
 20
160.3777704309
 11
428.4414371985
 21
160.0240523621
  0
SPLINE
  5
586
100
AcDbEntity
  8
KONSTRUKTIONSELEMENTE
100
AcDbSpline
 62
7
  6
CONTINUOUS
 70
0
 71
3
 72
8
 73
4
 74
0
 42
0.0000001
 43
0.0000001
 44
0.0000000001
 40
0.0
 40
0.0
 40
0.0
 40
0.0
 40
1.0
 40
1.0
 40
1.0
 40
1.0
 10
433.6854602373
 20
170.8159042857
 30
0.0
 10
433.5863823432
 20
170.6770756316
 30
0.0
 10
433.4874239704
 20
170.5381615931
 30
0.0
 10
433.3885913921
 20
170.3991581911
 30
0.0
  0
LINE
  5
587
100
AcDbEntity
  8
KONSTRUKTIONSELEMENTE
100
AcDbLine
 62
7
  6
CONTINUOUS
 10
433.3885913921
 20
170.3991581911
 11
433.1813659949
 21
170.1333070479
  0
LINE
  5
588
100
AcDbEntity
  8
KONSTRUKTIONSELEMENTE
100
AcDbLine
 62
7
  6
CONTINUOUS
 10
433.1813659949
 20
170.1333070479
 11
432.9210489045
 21
169.8288308753
  0
LINE
  5
589
100
AcDbEntity
  8
KONSTRUKTIONSELEMENTE
100
AcDbLine
 62
7
  6
CONTINUOUS
 10
432.7377357659
 20
169.6379910727
 11
432.9210489045
 21
169.8288308753
  0
LINE
  5
58A
100
AcDbEntity
  8
KONSTRUKTIONSELEMENTE
100
AcDbLine
 62
7
  6
CONTINUOUS
 10
431.490365697
 20
168.2196742012
 11
431.215876137
 21
167.8622633403
  0
LINE
  5
58B
100
AcDbEntity
  8
KONSTRUKTIONSELEMENTE
100
AcDbLine
 62
7
  6
CONTINUOUS
 10
431.215876137
 20
167.8622633403
 11
431.1857606241
 21
167.8230166069
  0
LINE
  5
58C
100
AcDbEntity
  8
KONSTRUKTIONSELEMENTE
100
AcDbLine
 62
7
  6
CONTINUOUS
 10
431.1857606241
 20
167.8230166069
 11
430.9848413709
 21
167.5610013211
  0
LINE
  5
58D
100
AcDbEntity
  8
KONSTRUKTIONSELEMENTE
100
AcDbLine
 62
7
  6
CONTINUOUS
 10
430.9848413709
 20
167.5610013211
 11
430.9059597176
 21
167.458047616
  0
LINE
  5
58E
100
AcDbEntity
  8
KONSTRUKTIONSELEMENTE
100
AcDbLine
 62
7
  6
CONTINUOUS
 10
430.9059597176
 20
167.458047616
 11
430.8272465471
 21
167.3552645455
  0
LINE
  5
58F
100
AcDbEntity
  8
KONSTRUKTIONSELEMENTE
100
AcDbLine
 62
7
  6
CONTINUOUS
 10
428.0326272812
 20
158.9008564555
 11
428.2291953868
 21
158.8123077651
  0
SPLINE
  5
590
100
AcDbEntity
  8
BEZUGSACHSEN
100
AcDbSpline
 62
7
  6
CONTINUOUS
 70
0
 71
3
 72
9
 73
5
 74
0
 42
0.0000001
 43
0.0000001
 44
0.0000000001
 40
0.0
 40
0.0
 40
0.0
 40
0.0
 40
0.2514964194
 40
1.0
 40
1.0
 40
1.0
 40
1.0
 10
424.2224140889
 20
119.4311620362
 30
0.0
 10
424.199781829
 20
119.5040505495
 30
0.0
 10
424.1097944665
 20
119.7938704451
 30
0.0
 10
424.0201973369
 20
120.0838141172
 30
0.0
 10
423.9541474942
 20
120.3011468035
 30
0.0
  0
SPLINE
  5
591
100
AcDbEntity
  8
RUNDUNGEN
100
AcDbSpline
 62
7
  6
CONTINUOUS
 70
0
 71
3
 72
9
 73
5
 74
0
 42
0.0000001
 43
0.0000001
 44
0.0000000001
 40
0.0
 40
0.0
 40
0.0
 40
0.0
 40
0.2514964194
 40
1.0
 40
1.0
 40
1.0
 40
1.0
 10
416.3008110291
 20
122.3143897577
 30
0.0
 10
416.3650001792
 20
122.355677862
 30
0.0
 10
416.6202271362
 20
122.5198500208
 30
0.0
 10
416.8752347194
 20
122.6843678349
 30
0.0
 10
417.0655305922
 20
122.8083983111
 30
0.0
  0
LINE
  5
592
100
AcDbEntity
  8
KONSTRUKTIONSELEMENTE
100
AcDbLine
 62
7
  6
CONTINUOUS
 10
429.5080785556
 20
160.986481239
 11
429.7763633824
 21
161.1103282168
  0
LINE
  5
593
100
AcDbEntity
  8
KONSTRUKTIONSELEMENTE
100
AcDbLine
 62
7
  6
CONTINUOUS
 10
429.4583336195
 20
159.5102602161
 11
429.3352716787
 21
159.374580668
  0
LINE
  5
594
100
AcDbEntity
  8
KONSTRUKTIONSELEMENTE
100
AcDbLine
 62
7
  6
CONTINUOUS
 10
429.3352716787
 20
159.374580668
 11
429.213186212
 21
159.2398220053
  0
LINE
  5
595
100
AcDbEntity
  8
KONSTRUKTIONSELEMENTE
100
AcDbLine
 62
7
  6
CONTINUOUS
 10
429.213186212
 20
159.2398220053
 11
429.0416439719
 21
159.0722615719
  0
LINE
  5
596
100
AcDbEntity
  8
KONSTRUKTIONSELEMENTE
100
AcDbLine
 62
7
  6
CONTINUOUS
 10
429.0416439719
 20
159.0722615719
 11
428.9739198382
 21
159.0139686438
  0
LINE
  5
597
100
AcDbEntity
  8
KONSTRUKTIONSELEMENTE
100
AcDbLine
 62
7
  6
CONTINUOUS
 10
428.9739198382
 20
159.0139686438
 11
428.7719824772
 21
158.8400779346
  0
LINE
  5
598
100
AcDbEntity
  8
KONSTRUKTIONSELEMENTE
100
AcDbLine
 62
7
  6
CONTINUOUS
 10
428.7719824772
 20
158.8400779346
 11
428.6609744425
 21
158.767113099
  0
LINE
  5
599
100
AcDbEntity
  8
KONSTRUKTIONSELEMENTE
100
AcDbLine
 62
7
  6
CONTINUOUS
 10
428.6609744425
 20
158.767113099
 11
428.6255830607
 21
158.7438499795
  0
LINE
  5
59A
100
AcDbEntity
  8
KONSTRUKTIONSELEMENTE
100
AcDbLine
 62
7
  6
CONTINUOUS
 10
428.6255830607
 20
158.7438499795
 11
428.3299051882
 21
158.5494860386
  0
LINE
  5
59B
100
AcDbEntity
  8
KONSTRUKTIONSELEMENTE
100
AcDbLine
 62
7
  6
CONTINUOUS
 10
428.1082392645
 20
158.4588371941
 11
428.3299051882
 21
158.5494860386
  0
LINE
  5
59C
100
AcDbEntity
  8
KONSTRUKTIONSELEMENTE
100
AcDbLine
 62
7
  6
CONTINUOUS
 10
427.9848597587
 20
158.4327436436
 11
428.1082392645
 21
158.4588371941
  0
LINE
  5
59D
100
AcDbEntity
  8
KONSTRUKTIONSELEMENTE
100
AcDbLine
 62
7
  6
CONTINUOUS
 10
427.8365514755
 20
158.4450592053
 11
427.9848597587
 21
158.4327436436
  0
LINE
  5
59E
100
AcDbEntity
  8
KONSTRUKTIONSELEMENTE
100
AcDbLine
 62
7
  6
CONTINUOUS
 10
430.8990445092
 20
163.4894258386
 11
431.1264535589
 21
163.3988458537
  0
LINE
  5
59F
100
AcDbEntity
  8
0
100
AcDbLine
 62
7
  6
CONTINUOUS
 10
433.4159232716
 20
169.648711336
 11
433.3346695635
 21
169.5641304388
  0
LINE
  5
5A0
100
AcDbEntity
  8
0
100
AcDbLine
 62
7
  6
CONTINUOUS
 10
433.4159232716
 20
169.648711336
 11
433.676240362
 21
169.9531875086
  0
LINE
  5
5A1
100
AcDbEntity
  8
0
100
AcDbLine
 62
7
  6
CONTINUOUS
 10
433.676240362
 20
169.9531875086
 11
433.8834657592
 21
170.2190386517
  0
SPLINE
  5
5A2
100
AcDbEntity
  8
0
100
AcDbSpline
 62
7
  6
CONTINUOUS
 70
0
 71
3
 72
8
 73
4
 74
0
 42
0.0000001
 43
0.0000001
 44
0.0000000001
 40
0.0
 40
0.0
 40
0.0
 40
0.0
 40
1.0
 40
1.0
 40
1.0
 40
1.0
 10
433.8834657592
 20
170.2190386517
 30
0.0
 10
433.9822983375
 20
170.3580420537
 30
0.0
 10
434.0812567104
 20
170.4969560923
 30
0.0
 10
434.1803346044
 20
170.6357847464
 30
0.0
  0
LINE
  5
5A3
100
AcDbEntity
  8
KONSTRUKTIONSELEMENTE
100
AcDbLine
 62
7
  6
CONTINUOUS
 10
430.9851679726
 20
163.0061061868
 11
430.8378260684
 21
162.8867296673
  0
LINE
  5
5A4
100
AcDbEntity
  8
KONSTRUKTIONSELEMENTE
100
AcDbLine
 62
7
  6
CONTINUOUS
 10
430.8378260684
 20
162.8867296673
 11
428.7672665204
 21
161.2091059024
  0
LINE
  5
5A5
100
AcDbEntity
  8
KONSTRUKTIONSELEMENTE
100
AcDbLine
 62
7
  6
CONTINUOUS
 10
428.7672665204
 20
161.2091059024
 11
428.4900194588
 21
160.9844631867
  0
LINE
  5
5A6
100
AcDbEntity
  8
KONSTRUKTIONSELEMENTE
100
AcDbLine
 62
7
  6
CONTINUOUS
 10
430.4567582377
 20
165.6219853172
 11
430.6866726707
 21
165.8375513779
  0
SPLINE
  5
5A7
100
AcDbEntity
  8
BEZUGSACHSEN
100
AcDbSpline
 62
7
  6
CONTINUOUS
 70
0
 71
3
 72
9
 73
5
 74
0
 42
0.0000001
 43
0.0000001
 44
0.0000000001
 40
0.0
 40
0.0
 40
0.0
 40
0.0
 40
0.4999940578
 40
1.0
 40
1.0
 40
1.0
 40
1.0
 10
430.8416431829
 20
142.3921667767
 30
0.0
 10
431.8252565285
 20
144.677539437
 30
0.0
 10
433.6098201
 20
149.3297459028
 30
0.0
 10
434.9998403337
 20
154.1137429625
 30
0.0
 10
435.6087099153
 20
156.5262096521
 30
0.0
  0
SPLINE
  5
5A8
100
AcDbEntity
  8
BEZUGSACHSEN
100
AcDbSpline
 62
7
  6
CONTINUOUS
 70
0
 71
3
 72
11
 73
7
 74
0
 42
0.0000001
 43
0.0000001
 44
0.0000000001
 40
0.0
 40
0.0
 40
0.0
 40
0.0
 40
0.2501778167
 40
0.5000000005
 40
0.7498221845
 40
1.0
 40
1.0
 40
1.0
 40
1.0
 10
435.6087099153
 20
156.5262096521
 30
0.0
 10
436.2064435989
 20
157.6892908958
 30
0.0
 10
437.3360598154
 20
160.0481178238
 30
0.0
 10
438.8003717968
 20
163.6866762756
 30
0.0
 10
440.0174640325
 20
167.4152153502
 30
0.0
 10
440.6683525229
 20
169.9482849144
 30
0.0
 10
440.9580761673
 20
171.2234726378
 30
0.0
  0
SPLINE
  5
5A9
100
AcDbEntity
  8
BEZUGSACHSEN
100
AcDbSpline
 62
7
  6
CONTINUOUS
 70
0
 71
3
 72
11
 73
7
 74
0
 42
0.0000001
 43
0.0000001
 44
0.0000000001
 40
0.0
 40
0.0
 40
0.0
 40
0.0
 40
0.2530704919
 40
0.5000000005
 40
0.7469295092
 40
1.0
 40
1.0
 40
1.0
 40
1.0
 10
440.9580761673
 20
171.2234726378
 30
0.0
 10
441.2759080132
 20
171.62591744
 30
0.0
 10
441.8524971918
 20
172.4643855294
 30
0.0
 10
442.4973998593
 20
173.8419779344
 30
0.0
 10
442.8888750872
 20
175.3118103827
 30
0.0
 10
442.9861390443
 20
176.3247385819
 30
0.0
 10
443.0013522573
 20
176.8373275567
 30
0.0
  0
LINE
  5
5AA
100
AcDbEntity
  8
0
100
AcDbLine
 62
7
  6
CONTINUOUS
 10
431.1815470378
 20
165.6574318386
 11
432.1034594184
 21
166.6510399758
  0
SPLINE
  5
5AB
100
AcDbEntity
  8
KONSTRUKTIONSELEMENTE
100
AcDbSpline
 62
7
  6
CONTINUOUS
 70
0
 71
3
 72
9
 73
5
 74
0
 42
0.0000001
 43
0.0000001
 44
0.0000000001
 40
0.0
 40
0.0
 40
0.0
 40
0.0
 40
0.4838269336
 40
1.0
 40
1.0
 40
1.0
 40
1.0
 10
117.2595745574
 20
120.598434133
 30
0.0
 10
117.7173441995
 20
120.3200553475
 30
0.0
 10
118.7305361364
 20
119.8528034254
 30
0.0
 10
119.804805409
 20
119.5660309839
 30
0.0
 10
120.3659908149
 20
119.4574826884
 30
0.0
  0
SPLINE
  5
5AC
100
AcDbEntity
  8
KONSTRUKTIONSELEMENTE
100
AcDbSpline
 62
7
  6
CONTINUOUS
 70
0
 71
3
 72
9
 73
5
 74
0
 42
0.0000001
 43
0.0000001
 44
0.0000000001
 40
0.0
 40
0.0
 40
0.0
 40
0.0
 40
0.5157312071
 40
1.0
 40
1.0
 40
1.0
 40
1.0
 10
125.3732846332
 20
119.4578922895
 30
0.0
 10
125.9209669035
 20
119.563947297
 30
0.0
 10
126.9705607754
 20
119.8424022952
 30
0.0
 10
127.9626400495
 20
120.2922788247
 30
0.0
 10
128.4131435094
 20
120.5595579647
 30
0.0
  0
SPLINE
  5
5AD
100
AcDbEntity
  8
KONSTRUKTIONSELEMENTE
100
AcDbSpline
 62
7
  6
CONTINUOUS
 70
0
 71
3
 72
9
 73
5
 74
0
 42
0.0000001
 43
0.0000001
 44
0.0000000001
 40
0.0
 40
0.0
 40
0.0
 40
0.0
 40
0.2129771727
 40
1.0
 40
1.0
 40
1.0
 40
1.0
 10
119.3659826012
 20
124.6085586004
 30
0.0
 10
119.3741653786
 20
124.601534675
 30
0.0
 10
119.4130034365
 20
124.5690429597
 30
0.0
 10
119.4535501342
 20
124.5386042127
 30
0.0
 10
119.4861959708
 20
124.5157503959
 30
0.0
  0
SPLINE
  5
5AE
100
AcDbEntity
  8
KONSTRUKTIONSELEMENTE
100
AcDbSpline
 62
7
  6
CONTINUOUS
 70
0
 71
3
 72
9
 73
5
 74
0
 42
0.0000001
 43
0.0000001
 44
0.0000000001
 40
0.0
 40
0.0
 40
0.0
 40
0.0
 40
0.4264036406
 40
1.0
 40
1.0
 40
1.0
 40
1.0
 10
119.4861959708
 20
124.5157503959
 30
0.0
 10
119.6001454968
 20
124.4359796849
 30
0.0
 10
119.8873991808
 20
124.27800119
 30
0.0
 10
120.1912890204
 20
124.1575812851
 30
0.0
 10
120.3685492842
 20
124.0976667562
 30
0.0
  0
SPLINE
  5
5AF
100
AcDbEntity
  8
KONSTRUKTIONSELEMENTE
100
AcDbSpline
 62
7
  6
CONTINUOUS
 70
0
 71
3
 72
9
 73
5
 74
0
 42
0.0000001
 43
0.0000001
 44
0.0000000001
 40
0.0
 40
0.0
 40
0.0
 40
0.0
 40
0.574980176
 40
1.0
 40
1.0
 40
1.0
 40
1.0
 10
125.3732948896
 20
124.0992176426
 30
0.0
 10
125.5515586171
 20
124.1596974876
 30
0.0
 10
125.8565243498
 20
124.2807497354
 30
0.0
 10
126.1442080195
 20
124.440396335
 30
0.0
 10
126.2580281109
 20
124.520441179
 30
0.0
  0
SPLINE
  5
5B0
100
AcDbEntity
  8
KONSTRUKTIONSELEMENTE
100
AcDbSpline
 62
7
  6
CONTINUOUS
 70
0
 71
3
 72
9
 73
5
 74
0
 42
0.0000001
 43
0.0000001
 44
0.0000000001
 40
0.0
 40
0.0
 40
0.0
 40
0.0
 40
0.4980311582
 40
1.0
 40
1.0
 40
1.0
 40
1.0
 10
99.3686382213
 20
171.5977300223
 30
0.0
 10
99.3686382213
 20
170.9100002144
 30
0.0
 10
99.5466487641
 20
169.5234617402
 30
0.0
 10
100.0577320707
 20
168.2258515615
 30
0.0
 10
100.378814718
 20
167.6115333212
 30
0.0
  0
SPLINE
  5
5B1
100
AcDbEntity
  8
KONSTRUKTIONSELEMENTE
100
AcDbSpline
 62
7
  6
CONTINUOUS
 70
0
 71
3
 72
9
 73
5
 74
0
 42
0.0000001
 43
0.0000001
 44
0.0000000001
 40
0.0
 40
0.0
 40
0.0
 40
0.0
 40
0.5019866422
 40
1.0
 40
1.0
 40
1.0
 40
1.0
 10
145.3579541454
 20
167.6104538674
 30
0.0
 10
145.6792371582
 20
168.2249192418
 30
0.0
 10
146.1904770118
 20
169.5229077154
 30
0.0
 10
146.3686382213
 20
170.9098277303
 30
0.0
 10
146.3686382213
 20
171.5977300223
 30
0.0
  0
SPLINE
  5
5B2
100
AcDbEntity
  8
KONSTRUKTIONSELEMENTE
100
AcDbSpline
 62
7
  6
CONTINUOUS
 70
0
 71
3
 72
11
 73
7
 74
0
 42
0.0000001
 43
0.0000001
 44
0.0000000001
 40
0.0
 40
0.0
 40
0.0
 40
0.0
 40
0.1816740081
 40
0.4122513154
 40
0.6871050007
 40
1.0
 40
1.0
 40
1.0
 40
1.0
 10
139.7681567752
 20
173.251962413
 30
0.0
 10
139.5220530343
 20
173.6057711679
 30
0.0
 10
138.8582027023
 20
174.3353278376
 30
0.0
 10
137.5609402557
 20
175.3320279069
 30
0.0
 10
135.8639153658
 20
176.286170966
 30
0.0
 10
134.5741508088
 20
176.823909427
 30
0.0
 10
133.8762807454
 20
177.0768054431
 30
0.0
  0
SPLINE
  5
5B3
100
AcDbEntity
  8
KONSTRUKTIONSELEMENTE
100
AcDbSpline
 62
7
  6
CONTINUOUS
 70
0
 71
3
 72
11
 73
7
 74
0
 42
0.0000001
 43
0.0000001
 44
0.0000000001
 40
0.0
 40
0.0
 40
0.0
 40
0.0
 40
0.3129029109
 40
0.5877622935
 40
0.8183431066
 40
1.0
 40
1.0
 40
1.0
 40
1.0
 10
111.8630058698
 20
177.0775310652
 30
0.0
 10
111.1648886451
 20
176.8246272057
 30
0.0
 10
109.8746820029
 20
176.2868095705
 30
0.0
 10
108.1770340789
 20
175.3325231852
 30
0.0
 10
106.8793879509
 20
174.3355783073
 30
0.0
 10
106.2152956502
 20
173.605890415
 30
0.0
 10
105.9691527318
 20
173.2520054168
 30
0.0
  0
SPLINE
  5
5B4
100
AcDbEntity
  8
KONSTRUKTIONSELEMENTE
100
AcDbSpline
 62
7
  6
CONTINUOUS
 70
0
 71
3
 72
15
 73
11
 74
0
 42
0.0000001
 43
0.0000001
 44
0.0000000001
 40
0.0
 40
0.0
 40
0.0
 40
0.0
 40
0.1109870671
 40
0.2228156823
 40
0.3370829694
 40
0.4556656145
 40
0.5804251498
 40
0.7125607226
 40
0.8525225703
 40
1.0
 40
1.0
 40
1.0
 40
1.0
 10
146.3686382213
 20
171.5977300223
 30
0.0
 10
146.3686382213
 20
172.2778546614
 30
0.0
 10
146.1942455729
 20
173.6491899295
 30
0.0
 10
145.4395555379
 20
175.5908203453
 30
0.0
 10
144.262912102
 20
177.3620729666
 30
0.0
 10
142.7289880397
 20
178.9413409265
 30
0.0
 10
140.8880563131
 20
180.3338081453
 30
0.0
 10
138.7731131959
 20
181.5455060638
 30
0.0
 10
136.4139393074
 20
182.5780833203
 30
0.0
 10
134.7389305635
 20
183.1315094931
 30
0.0
 10
133.8700169178
 20
183.3799611983
 30
0.0
  0
SPLINE
  5
5B5
100
AcDbEntity
  8
KONSTRUKTIONSELEMENTE
100
AcDbSpline
 62
7
  6
CONTINUOUS
 70
0
 71
3
 72
15
 73
11
 74
0
 42
0.0000001
 43
0.0000001
 44
0.0000000001
 40
0.0
 40
0.0
 40
0.0
 40
0.0
 40
0.1474762373
 40
0.2874343824
 40
0.4195667747
 40
0.5443249169
 40
0.6629063514
 40
0.777169948
 40
0.889009526
 40
1.0
 40
1.0
 40
1.0
 40
1.0
 10
111.8633630833
 20
183.3788503457
 30
0.0
 10
110.9946789223
 20
183.1303452127
 30
0.0
 10
109.3201299143
 20
182.5768576885
 30
0.0
 10
106.9616590703
 20
181.5442094027
 30
0.0
 10
104.8473559852
 20
180.3325823695
 30
0.0
 10
103.0070093938
 20
178.9402244951
 30
0.0
 10
101.4737241552
 20
177.3610862363
 30
0.0
 10
100.2973014322
 20
175.590203026
 30
0.0
 10
99.5430153792
 20
173.6488298559
 30
0.0
 10
99.3686382213
 20
172.2777260421
 30
0.0
 10
99.3686382213
 20
171.5977300223
 30
0.0
  0
SPLINE
  5
5B6
100
AcDbEntity
  8
KONSTRUKTIONSELEMENTE
100
AcDbSpline
 62
7
  6
CONTINUOUS
 70
0
 71
3
 72
9
 73
5
 74
0
 42
0.0000001
 43
0.0000001
 44
0.0000000001
 40
0.0
 40
0.0
 40
0.0
 40
0.0
 40
0.2459783277
 40
1.0
 40
1.0
 40
1.0
 40
1.0
 10
118.3186382213
 20
74.9326665129
 30
0.0
 10
118.3186382213
 20
74.9653856204
 30
0.0
 10
118.3121173438
 20
75.0983703647
 30
0.0
 10
118.278839992
 20
75.2296483415
 30
0.0
 10
118.2417793429
 20
75.3228471569
 30
0.0
  0
SPLINE
  5
5B7
100
AcDbEntity
  8
KONSTRUKTIONSELEMENTE
100
AcDbSpline
 62
7
  6
CONTINUOUS
 70
0
 71
3
 72
12
 73
8
 74
0
 42
0.0000001
 43
0.0000001
 44
0.0000000001
 40
0.0
 40
0.0
 40
0.0
 40
0.0
 40
0.1818705703
 40
0.2922146149
 40
0.4155793068
 40
0.6947164513
 40
1.0
 40
1.0
 40
1.0
 40
1.0
 10
118.2417793429
 20
75.3228471569
 30
0.0
 10
118.1425255341
 20
75.5724471399
 30
0.0
 10
117.8455884118
 20
75.9166056311
 30
0.0
 10
117.3375253087
 20
76.2592745327
 30
0.0
 10
116.6516648155
 20
76.5883456976
 30
0.0
 10
115.6342721817
 20
76.8606936978
 30
0.0
 10
114.7695209137
 20
76.9326665129
 30
0.0
 10
114.3186382213
 20
76.9326665129
 30
0.0
  0
SPLINE
  5
5B8
100
AcDbEntity
  8
KONSTRUKTIONSELEMENTE
100
AcDbSpline
 62
7
  6
CONTINUOUS
 70
0
 71
3
 72
9
 73
5
 74
0
 42
0.0000001
 43
0.0000001
 44
0.0000000001
 40
0.0
 40
0.0
 40
0.0
 40
0.0
 40
0.4707698622
 40
1.0
 40
1.0
 40
1.0
 40
1.0
 10
97.2682535719
 20
100.4864588458
 30
0.0
 10
97.2682751487
 20
100.5418901534
 30
0.0
 10
97.2404959356
 20
100.6605328608
 30
0.0
 10
97.170217599
 20
100.7580177698
 30
0.0
 10
97.1277165775
 20
100.8035896372
 30
0.0
  0
SPLINE
  5
5B9
100
AcDbEntity
  8
KONSTRUKTIONSELEMENTE
100
AcDbSpline
 62
7
  6
CONTINUOUS
 70
0
 71
3
 72
11
 73
7
 74
0
 42
0.0000001
 43
0.0000001
 44
0.0000000001
 40
0.0
 40
0.0
 40
0.0
 40
0.0
 40
0.1862358785
 40
0.4086240556
 40
0.6812683877
 40
1.0
 40
1.0
 40
1.0
 40
1.0
 10
90.1593355486
 20
102.8742078051
 30
0.0
 10
90.1593638627
 20
102.9469474274
 30
0.0
 10
90.2106775628
 20
103.1075354753
 30
0.0
 10
90.4021400217
 20
103.3005387296
 30
0.0
 10
90.6823655192
 20
103.4559740338
 30
0.0
 10
90.9041689727
 20
103.5255044794
 30
0.0
 10
91.0254068309
 20
103.5537715503
 30
0.0
  0
SPLINE
  5
5BA
100
AcDbEntity
  8
KONSTRUKTIONSELEMENTE
100
AcDbSpline
 62
7
  6
CONTINUOUS
 70
0
 71
3
 72
13
 73
9
 74
0
 42
0.0000001
 43
0.0000001
 44
0.0000000001
 40
0.0
 40
0.0
 40
0.0
 40
0.0
 40
0.0911181669
 40
0.1874156637
 40
0.2929417967
 40
0.4101723646
 40
0.6821038475
 40
1.0
 40
1.0
 40
1.0
 40
1.0
 10
83.513282988
 20
110.8212862458
 30
0.0
 10
83.5133011875
 20
110.9402466548
 30
0.0
 10
83.5492116536
 20
111.1861627384
 30
0.0
 10
83.7061284436
 20
111.5391712825
 30
0.0
 10
83.9593311026
 20
111.873731473
 30
0.0
 10
84.4401826257
 20
112.309248085
 30
0.0
 10
85.2576293513
 20
112.761103288
 30
0.0
 10
85.9959847552
 20
112.9928165396
 30
0.0
 10
86.4001771565
 20
113.0870555457
 30
0.0
  0
SPLINE
  5
5BB
100
AcDbEntity
  8
KONSTRUKTIONSELEMENTE
100
AcDbSpline
 62
7
  6
CONTINUOUS
 70
0
 71
3
 72
9
 73
5
 74
0
 42
0.0000001
 43
0.0000001
 44
0.0000000001
 40
0.0
 40
0.0
 40
0.0
 40
0.0
 40
0.470634336
 40
1.0
 40
1.0
 40
1.0
 40
1.0
 10
83.5132831882
 20
106.4910755764
 30
0.0
 10
83.5132679427
 20
106.3064526514
 30
0.0
 10
83.605859005
 20
105.9111956801
 30
0.0
 10
83.8400959985
 20
105.586480449
 30
0.0
 10
83.98172953
 20
105.4346134048
 30
0.0
  0
SPLINE
  5
5BC
100
AcDbEntity
  8
KONSTRUKTIONSELEMENTE
100
AcDbSpline
 62
7
  6
CONTINUOUS
 70
0
 71
3
 72
9
 73
5
 74
0
 42
0.0000001
 43
0.0000001
 44
0.0000000001
 40
0.0
 40
0.0
 40
0.0
 40
0.0
 40
0.4706342069
 40
1.0
 40
1.0
 40
1.0
 40
1.0
 10
141.001423807
 20
82.6266806938
 30
0.0
 10
141.00139556
 20
82.8113164244
 30
0.0
 10
141.0939756735
 20
83.206607855
 30
0.0
 10
141.3282269191
 20
83.5313488581
 30
0.0
 10
141.469870349
 20
83.6832265159
 30
0.0
  0
SPLINE
  5
5BD
100
AcDbEntity
  8
KONSTRUKTIONSELEMENTE
100
AcDbSpline
 62
7
  6
CONTINUOUS
 70
0
 71
3
 72
9
 73
5
 74
0
 42
0.0000001
 43
0.0000001
 44
0.0000000001
 40
0.0
 40
0.0
 40
0.0
 40
0.0
 40
0.2386817686
 40
1.0
 40
1.0
 40
1.0
 40
1.0
 10
142.7501591967
 20
85.0575074533
 30
0.0
 10
142.8376813432
 20
85.0200501578
 30
0.0
 10
143.2083325065
 20
84.8724192775
 30
0.0
 10
143.5925898968
 20
84.7599885468
 30
0.0
 10
143.8883179755
 20
84.6910384129
 30
0.0
  0
SPLINE
  5
5BE
100
AcDbEntity
  8
KONSTRUKTIONSELEMENTE
100
AcDbSpline
 62
7
  6
CONTINUOUS
 70
0
 71
3
 72
13
 73
9
 74
0
 42
0.0000001
 43
0.0000001
 44
0.0000000001
 40
0.0
 40
0.0
 40
0.0
 40
0.0
 40
0.0822829264
 40
0.1731425714
 40
0.2778852515
 40
0.3984458421
 40
0.6815990786
 40
1.0
 40
1.0
 40
1.0
 40
1.0
 10
116.3186382213
 20
68.1156792147
 30
0.0
 10
116.3186382213
 20
68.0659841698
 30
0.0
 10
116.3406381724
 20
67.9606221607
 30
0.0
 10
116.4322459805
 20
67.8168724517
 30
0.0
 10
116.575184434
 20
67.6877244846
 30
0.0
 10
116.8406323613
 20
67.5304121816
 30
0.0
 10
117.2623475146
 20
67.3999025909
 30
0.0
 10
117.6263389342
 20
67.3656792147
 30
0.0
 10
117.8186382213
 20
67.3656792147
 30
0.0
  0
SPLINE
  5
5BF
100
AcDbEntity
  8
KONSTRUKTIONSELEMENTE
100
AcDbSpline
 62
7
  6
CONTINUOUS
 70
0
 71
3
 72
11
 73
7
 74
0
 42
0.0000001
 43
0.0000001
 44
0.0000000001
 40
0.0
 40
0.0
 40
0.0
 40
0.0
 40
0.1862435736
 40
0.408604906
 40
0.6812556469
 40
1.0
 40
1.0
 40
1.0
 40
1.0
 10
150.0680078543
 20
83.0909217666
 30
0.0
 10
150.0680098672
 20
83.1151745846
 30
0.0
 10
150.0509449065
 20
83.1687275053
 30
0.0
 10
149.9871180484
 20
83.2330912151
 30
0.0
 10
149.8936941019
 20
83.2849180988
 30
0.0
 10
149.8197416159
 20
83.3081042792
 30
0.0
 10
149.7793185912
 20
83.3175290622
 30
0.0
  0
SPLINE
  5
5C0
100
AcDbEntity
  8
KONSTRUKTIONSELEMENTE
100
AcDbSpline
 62
7
  6
CONTINUOUS
 70
0
 71
3
 72
13
 73
9
 74
0
 42
0.0000001
 43
0.0000001
 44
0.0000000001
 40
0.0
 40
0.0
 40
0.0
 40
0.0
 40
0.0911174922
 40
0.1874130423
 40
0.2929407321
 40
0.4101736749
 40
0.6821184768
 40
1.0
 40
1.0
 40
1.0
 40
1.0
 10
173.099701452
 20
108.2855324422
 30
0.0
 10
173.0997044493
 20
108.4044935664
 30
0.0
 10
173.0637540827
 20
108.650406439
 30
0.0
 10
172.9068852421
 20
109.0034328087
 30
0.0
 10
172.6536734554
 20
109.3380035252
 30
0.0
 10
172.1727959487
 20
109.7735347148
 30
0.0
 10
171.3553364689
 20
110.2253983218
 30
0.0
 10
170.6169719494
 20
110.4571100427
 30
0.0
 10
170.2127927305
 20
110.5513459752
 30
0.0
  0
SPLINE
  5
5C1
100
AcDbEntity
  8
KONSTRUKTIONSELEMENTE
100
AcDbSpline
 62
7
  6
CONTINUOUS
 70
0
 71
3
 72
9
 73
5
 74
0
 42
0.0000001
 43
0.0000001
 44
0.0000000001
 40
0.0
 40
0.0
 40
0.0
 40
0.0
 40
0.5293596716
 40
1.0
 40
1.0
 40
1.0
 40
1.0
 10
172.631240357
 20
102.8989038343
 30
0.0
 10
172.7728771134
 20
103.0507743365
 30
0.0
 10
173.0071207307
 20
103.3755072891
 30
0.0
 10
173.0996968001
 20
103.7707738533
 30
0.0
 10
173.099701452
 20
103.9554054233
 30
0.0
  0
SPLINE
  5
5C2
100
AcDbEntity
  8
KONSTRUKTIONSELEMENTE
100
AcDbSpline
 62
7
  6
CONTINUOUS
 70
0
 71
3
 72
10
 73
6
 74
0
 42
0.0000001
 43
0.0000001
 44
0.0000000001
 40
0.0
 40
0.0
 40
0.0
 40
0.0
 40
0.5491793108
 40
0.7994812063
 40
1.0
 40
1.0
 40
1.0
 40
1.0
 10
171.5441590709
 20
102.3248275595
 30
0.0
 10
171.6682996341
 20
102.2958837118
 30
0.0
 10
171.8608193337
 20
102.2924172817
 30
0.0
 10
172.0848919067
 20
102.3553060643
 30
0.0
 10
172.1768783965
 20
102.41171265
 30
0.0
 10
172.2086220953
 20
102.4457499408
 30
0.0
  0
SPLINE
  5
5C3
100
AcDbEntity
  8
KONSTRUKTIONSELEMENTE
100
AcDbSpline
 62
7
  6
CONTINUOUS
 70
0
 71
3
 72
9
 73
5
 74
0
 42
0.0000001
 43
0.0000001
 44
0.0000000001
 40
0.0
 40
0.0
 40
0.0
 40
0.0
 40
0.2769800816
 40
1.0
 40
1.0
 40
1.0
 40
1.0
 10
150.0211633539
 20
78.6551705311
 30
0.0
 10
150.0285331534
 20
78.6630728241
 30
0.0
 10
150.0532429724
 20
78.6931390203
 30
0.0
 10
150.0680055132
 20
78.7325882542
 30
0.0
 10
150.0680078543
 20
78.7607947476
 30
0.0
  0
SPLINE
  5
5C4
100
AcDbEntity
  8
KONSTRUKTIONSELEMENTE
100
AcDbSpline
 62
7
  6
CONTINUOUS
 70
0
 71
3
 72
11
 73
7
 74
0
 42
0.0000001
 43
0.0000001
 44
0.0000000001
 40
0.0
 40
0.0
 40
0.0
 40
0.0
 40
0.2884496779
 40
0.5598869462
 40
0.7999109858
 40
1.0
 40
1.0
 40
1.0
 40
1.0
 10
145.22937842
 20
76.9326665129
 30
0.0
 10
145.6969468364
 20
76.9326665129
 30
0.0
 10
146.6058290532
 20
76.9954798957
 30
0.0
 10
147.8778542785
 20
77.2744422179
 30
0.0
 10
148.9504329623
 20
77.7141939884
 30
0.0
 10
149.5397063907
 20
78.1389266364
 30
0.0
 10
149.7609173552
 20
78.3761208585
 30
0.0
  0
SPLINE
  5
5C5
100
AcDbEntity
  8
KONSTRUKTIONSELEMENTE
100
AcDbSpline
 62
7
  6
CONTINUOUS
 70
0
 71
3
 72
14
 73
10
 74
0
 42
0.0000001
 43
0.0000001
 44
0.0000000001
 40
0.0
 40
0.0
 40
0.0
 40
0.0
 40
0.3181911525
 40
0.466256663
 40
0.6017819162
 40
0.7222716736
 40
0.8269687628
 40
0.9177410353
 40
1.0
 40
1.0
 40
1.0
 40
1.0
 10
131.4186382213
 20
76.9326665129
 30
0.0
 10
130.9058763042
 20
76.9326665129
 30
0.0
 10
130.1508049391
 20
76.8623316039
 30
0.0
 10
129.2111965779
 20
76.6156861395
 30
0.0
 10
128.6050546341
 20
76.371975456
 30
0.0
 10
128.1027350994
 20
76.073838772
 30
0.0
 10
127.7216322873
 20
75.7294804696
 30
0.0
 10
127.4771932384
 20
75.3462077432
 30
0.0
 10
127.4186382213
 20
75.0652260266
 30
0.0
 10
127.4186382213
 20
74.9326665129
 30
0.0
  0
SPLINE
  5
5C6
100
AcDbEntity
  8
KONSTRUKTIONSELEMENTE
100
AcDbSpline
 62
7
  6
CONTINUOUS
 70
0
 71
3
 72
13
 73
9
 74
0
 42
0.0000001
 43
0.0000001
 44
0.0000000001
 40
0.0
 40
0.0
 40
0.0
 40
0.0
 40
0.3184009214
 40
0.6015541579
 40
0.7221147485
 40
0.8268574286
 40
0.9177170736
 40
1.0
 40
1.0
 40
1.0
 40
1.0
 10
127.9186382213
 20
67.3656792147
 30
0.0
 10
128.1109375084
 20
67.3656792147
 30
0.0
 10
128.4749289279
 20
67.3999025909
 30
0.0
 10
128.8966440812
 20
67.5304121816
 30
0.0
 10
129.1620920085
 20
67.6877244846
 30
0.0
 10
129.3050304621
 20
67.8168724517
 30
0.0
 10
129.3966382702
 20
67.9606221607
 30
0.0
 10
129.4186382213
 20
68.0659841698
 30
0.0
 10
129.4186382213
 20
68.1156792147
 30
0.0
  0
SPLINE
  5
5C7
100
AcDbEntity
  8
KONSTRUKTIONSELEMENTE
100
AcDbSpline
 62
7
  6
CONTINUOUS
 70
0
 71
3
 72
11
 73
7
 74
0
 42
0.0000001
 43
0.0000001
 44
0.0000000001
 40
0.0
 40
0.0
 40
0.0
 40
0.0
 40
0.3085861138
 40
0.5742410783
 40
0.7998808571
 40
1.0
 40
1.0
 40
1.0
 40
1.0
 10
130.8829832878
 20
76.9124776954
 30
0.0
 10
130.6693423849
 20
76.8249218671
 30
0.0
 10
130.2822781447
 20
76.6326646527
 30
0.0
 10
129.8061404524
 20
76.2615408004
 30
0.0
 10
129.4951496606
 20
75.8366028765
 30
0.0
 10
129.4186382213
 20
75.5154097293
 30
0.0
 10
129.4186382213
 20
75.3656792147
 30
0.0
  0
SPLINE
  5
5C8
100
AcDbEntity
  8
KONSTRUKTIONSELEMENTE
100
AcDbSpline
 62
7
  6
CONTINUOUS
 70
0
 71
3
 72
11
 73
7
 74
0
 42
0.0000001
 43
0.0000001
 44
0.0000000001
 40
0.0
 40
0.0
 40
0.0
 40
0.0
 40
0.3055908667
 40
0.5698069282
 40
0.7965770613
 40
1.0
 40
1.0
 40
1.0
 40
1.0
 10
115.0102963441
 20
76.9022570565
 30
0.0
 10
115.2027707017
 20
76.8147188425
 30
0.0
 10
115.5510193055
 20
76.625015301
 30
0.0
 10
115.9765285978
 20
76.2672137874
 30
0.0
 10
116.2518772704
 20
75.8636371452
 30
0.0
 10
116.3186382213
 20
75.5635818842
 30
0.0
 10
116.3186382213
 20
75.4228285885
 30
0.0
  0
SPLINE
  5
5C9
100
AcDbEntity
  8
KONSTRUKTIONSELEMENTE
100
AcDbSpline
 62
7
  6
CONTINUOUS
 70
0
 71
3
 72
9
 73
5
 74
0
 42
0.0000001
 43
0.0000001
 44
0.0000000001
 40
0.0
 40
0.0
 40
0.0
 40
0.0
 40
0.5292301378
 40
1.0
 40
1.0
 40
1.0
 40
1.0
 10
90.299872543
 20
99.0929753986
 30
0.0
 10
90.2573715215
 20
99.1385472659
 30
0.0
 10
90.187093185
 20
99.236032175
 30
0.0
 10
90.1593139718
 20
99.3546748823
 30
0.0
 10
90.1593355486
 20
99.41010619
 30
0.0
  0
SPLINE
  5
5CA
100
AcDbEntity
  8
KONSTRUKTIONSELEMENTE
100
AcDbSpline
 62
7
  6
CONTINUOUS
 70
0
 71
3
 72
11
 73
7
 74
0
 42
0.0000001
 43
0.0000001
 44
0.0000000001
 40
0.0
 40
0.0
 40
0.0
 40
0.0
 40
0.2026497719
 40
0.4410786458
 40
0.7101031716
 40
1.0
 40
1.0
 40
1.0
 40
1.0
 10
109.2168941149
 20
78.3761208585
 30
0.0
 10
109.4044248655
 20
78.1750403622
 30
0.0
 10
109.8867196516
 20
77.8065630677
 30
0.0
 10
110.7637720873
 20
77.3971320545
 30
0.0
 10
111.8087957663
 20
77.1022310434
 30
0.0
 10
112.5620354161
 20
76.9959598553
 30
0.0
 10
112.9541025896
 20
76.964416165
 30
0.0
  0
SPLINE
  5
5CB
100
AcDbEntity
  8
KONSTRUKTIONSELEMENTE
100
AcDbSpline
 62
7
  6
CONTINUOUS
 70
0
 71
3
 72
13
 73
9
 74
0
 42
0.0000001
 43
0.0000001
 44
0.0000000001
 40
0.0
 40
0.0
 40
0.0
 40
0.0
 40
0.0934751525
 40
0.2006226407
 40
0.3203898778
 40
0.450368174
 40
0.7269534957
 40
1.0
 40
1.0
 40
1.0
 40
1.0
 10
159.0085282113
 20
102.4891130969
 30
0.0
 10
159.1571168178
 20
102.6484377444
 30
0.0
 10
159.5225723624
 20
102.9474418827
 30
0.0
 10
160.1810417949
 20
103.305583766
 30
0.0
 10
160.9640802924
 20
103.5937116798
 30
0.0
 10
162.1603914674
 20
103.8755001109
 30
0.0
 10
163.750770144
 20
103.9905628143
 30
0.0
 10
165.033399164
 20
103.842836162
 30
0.0
 10
165.6531584551
 20
103.6983369102
 30
0.0
  0
SPLINE
  5
5CC
100
AcDbEntity
  8
KONSTRUKTIONSELEMENTE
100
AcDbSpline
 62
7
  6
CONTINUOUS
 70
0
 71
3
 72
11
 73
7
 74
0
 42
0.0000001
 43
0.0000001
 44
0.0000000001
 40
0.0
 40
0.0
 40
0.0
 40
0.0
 40
0.1862435736
 40
0.408604906
 40
0.6812556469
 40
1.0
 40
1.0
 40
1.0
 40
1.0
 10
150.0680078543
 20
78.7607947476
 30
0.0
 10
150.0680098672
 20
78.7850475657
 30
0.0
 10
150.0509449065
 20
78.8386004864
 30
0.0
 10
149.9871180484
 20
78.9029641961
 30
0.0
 10
149.8936941019
 20
78.9547910799
 30
0.0
 10
149.8197416159
 20
78.9779772603
 30
0.0
 10
149.7793185912
 20
78.9874020433
 30
0.0
  0
SPLINE
  5
5CD
100
AcDbEntity
  8
KONSTRUKTIONSELEMENTE
100
AcDbSpline
 62
7
  6
CONTINUOUS
 70
0
 71
3
 72
9
 73
5
 74
0
 42
0.0000001
 43
0.0000001
 44
0.0000000001
 40
0.0
 40
0.0
 40
0.0
 40
0.0
 40
0.5448269476
 40
1.0
 40
1.0
 40
1.0
 40
1.0
 10
96.4021822896
 20
100.2399078025
 30
0.0
 10
96.5354742766
 20
100.2709853396
 30
0.0
 10
96.7759782297
 20
100.3481392071
 30
0.0
 10
96.9952991043
 20
100.4794205823
 30
0.0
 10
97.0801844577
 20
100.5560314276
 30
0.0
  0
SPLINE
  5
5CE
100
AcDbEntity
  8
KONSTRUKTIONSELEMENTE
100
AcDbSpline
 62
7
  6
CONTINUOUS
 70
0
 71
3
 72
9
 73
5
 74
0
 42
0.0000001
 43
0.0000001
 44
0.0000000001
 40
0.0
 40
0.0
 40
0.0
 40
0.0
 40
0.2612271511
 40
1.0
 40
1.0
 40
1.0
 40
1.0
 10
97.0801844577
 20
100.5560314276
 30
0.0
 10
97.089557993
 20
100.5644912434
 30
0.0
 10
97.1246903193
 20
100.597685578
 30
0.0
 10
97.156712608
 20
100.6342653227
 30
0.0
 10
97.1777283438
 20
100.6631354524
 30
0.0
  0
SPLINE
  5
5CF
100
AcDbEntity
  8
KONSTRUKTIONSELEMENTE
100
AcDbSpline
 62
7
  6
CONTINUOUS
 70
0
 71
3
 72
10
 73
6
 74
0
 42
0.0000001
 43
0.0000001
 44
0.0000000001
 40
0.0
 40
0.0
 40
0.0
 40
0.0
 40
0.2999842026
 40
0.5696213514
 40
1.0
 40
1.0
 40
1.0
 40
1.0
 10
95.5569457661
 20
101.1462155895
 30
0.0
 10
95.6503061199
 20
101.1679829135
 30
0.0
 10
95.8259156447
 20
101.2200871932
 30
0.0
 10
96.1149748255
 20
101.3532044981
 30
0.0
 10
96.29922096
 20
101.5026295462
 30
0.0
 10
96.3667344692
 20
101.6224522107
 30
0.0
  0
SPLINE
  5
5D0
100
AcDbEntity
  8
KONSTRUKTIONSELEMENTE
100
AcDbSpline
 62
7
  6
CONTINUOUS
 70
0
 71
3
 72
13
 73
9
 74
0
 42
0.0000001
 43
0.0000001
 44
0.0000000001
 40
0.0
 40
0.0
 40
0.0
 40
0.0
 40
0.0911174922
 40
0.1874130423
 40
0.2929407321
 40
0.4101736749
 40
0.6821184768
 40
1.0
 40
1.0
 40
1.0
 40
1.0
 10
173.099701452
 20
103.9554054233
 30
0.0
 10
173.0997044493
 20
104.0743665475
 30
0.0
 10
173.0637540827
 20
104.3202794201
 30
0.0
 10
172.9068852421
 20
104.6733057898
 30
0.0
 10
172.6536734554
 20
105.0078765063
 30
0.0
 10
172.1727959487
 20
105.4434076959
 30
0.0
 10
171.3553364689
 20
105.8952713029
 30
0.0
 10
170.6169719494
 20
106.1269830238
 30
0.0
 10
170.2127927305
 20
106.2212189563
 30
0.0
  0
SPLINE
  5
5D1
100
AcDbEntity
  8
KONSTRUKTIONSELEMENTE
100
AcDbSpline
 62
7
  6
CONTINUOUS
 70
0
 71
3
 72
13
 73
9
 74
0
 42
0.0000001
 43
0.0000001
 44
0.0000000001
 40
0.0
 40
0.0
 40
0.0
 40
0.0
 40
0.3178942481
 40
0.5898237647
 40
0.7070565527
 40
0.8125850464
 40
0.9088825702
 40
1.0
 40
1.0
 40
1.0
 40
1.0
 10
86.4001771565
 20
108.7569285267
 30
0.0
 10
85.9959786308
 20
108.6626880928
 30
0.0
 10
85.2576136185
 20
108.4309692868
 30
0.0
 10
84.4401503671
 20
107.9791046369
 30
0.0
 10
83.95929612
 20
107.5435651839
 30
0.0
 10
83.7060916675
 20
107.2089870903
 30
0.0
 10
83.5491880698
 20
106.8559605097
 30
0.0
 10
83.5132930116
 20
106.6100375392
 30
0.0
 10
83.5132831882
 20
106.4910755764
 30
0.0
  0
SPLINE
  5
5D2
100
AcDbEntity
  8
KONSTRUKTIONSELEMENTE
100
AcDbSpline
 62
7
  6
CONTINUOUS
 70
0
 71
3
 72
11
 73
7
 74
0
 42
0.0000001
 43
0.0000001
 44
0.0000000001
 40
0.0
 40
0.0
 40
0.0
 40
0.0
 40
0.1862358785
 40
0.4086240556
 40
0.6812683877
 40
1.0
 40
1.0
 40
1.0
 40
1.0
 10
90.1593355486
 20
99.41010619
 30
0.0
 10
90.1593638627
 20
99.4828458123
 30
0.0
 10
90.2106775628
 20
99.6434338601
 30
0.0
 10
90.4021400217
 20
99.8364371145
 30
0.0
 10
90.6823655192
 20
99.9918724187
 30
0.0
 10
90.9041689727
 20
100.0614028643
 30
0.0
 10
91.0254068309
 20
100.0896699352
 30
0.0
  0
SPLINE
  5
5D3
100
AcDbEntity
  8
KONSTRUKTIONSELEMENTE
100
AcDbSpline
 62
7
  6
CONTINUOUS
 70
0
 71
3
 72
13
 73
9
 74
0
 42
0.0000001
 43
0.0000001
 44
0.0000000001
 40
0.0
 40
0.0
 40
0.0
 40
0.0
 40
0.3178961525
 40
0.5898276354
 40
0.7070582033
 40
0.8125843363
 40
0.9088818331
 40
1.0
 40
1.0
 40
1.0
 40
1.0
 10
143.8883179755
 20
80.360911394
 30
0.0
 10
143.4841255743
 20
80.4551504
 30
0.0
 10
142.7457701704
 20
80.6868636516
 30
0.0
 10
141.9283234448
 20
81.1387188546
 30
0.0
 10
141.4474719216
 20
81.5742354666
 30
0.0
 10
141.1942692627
 20
81.9087956571
 30
0.0
 10
141.0373524726
 20
82.2618042012
 30
0.0
 10
141.0014420065
 20
82.5077202848
 30
0.0
 10
141.001423807
 20
82.6266806938
 30
0.0
  0
SPLINE
  5
5D4
100
AcDbEntity
  8
KONSTRUKTIONSELEMENTE
100
AcDbSpline
 62
7
  6
CONTINUOUS
 70
0
 71
3
 72
11
 73
7
 74
0
 42
0.0000001
 43
0.0000001
 44
0.0000000001
 40
0.0
 40
0.0
 40
0.0
 40
0.0
 40
0.3187316123
 40
0.5913759444
 40
0.8137641215
 40
1.0
 40
1.0
 40
1.0
 40
1.0
 10
96.4021822896
 20
99.8068951006
 30
0.0
 10
96.5234201479
 20
99.8351621715
 30
0.0
 10
96.7452236013
 20
99.9046926171
 30
0.0
 10
97.0254490989
 20
100.0601279213
 30
0.0
 10
97.2169115578
 20
100.2531311756
 30
0.0
 10
97.2682252578
 20
100.4137192235
 30
0.0
 10
97.2682535719
 20
100.4864588458
 30
0.0
  0
SPLINE
  5
5D5
100
AcDbEntity
  8
BEZUGSACHSEN
100
AcDbSpline
 62
7
  6
CONTINUOUS
 70
0
 71
3
 72
15
 73
11
 74
0
 42
0.0000001
 43
0.0000001
 44
0.0000000001
 40
0.0
 40
0.0
 40
0.0
 40
0.0
 40
0.1213984729
 40
0.2449249801
 40
0.3714323559
 40
0.5
 40
0.6285676441
 40
0.7550750199
 40
0.8786015271
 40
1.0
 40
1.0
 40
1.0
 40
1.0
 10
138.0686382213
 20
116.5797970747
 30
0.0
 10
138.0686382213
 20
116.2734637971
 30
0.0
 10
138.2018200072
 20
115.6481294862
 30
0.0
 10
138.7637024169
 20
114.8674538581
 30
0.0
 10
139.5949946865
 20
114.3503897138
 30
0.0
 10
140.5686382213
 20
114.1701695108
 30
0.0
 10
141.542281756
 20
114.3503897138
 30
0.0
 10
142.3735740257
 20
114.8674538581
 30
0.0
 10
142.9354564353
 20
115.6481294862
 30
0.0
 10
143.0686382213
 20
116.2734637971
 30
0.0
 10
143.0686382213
 20
116.5797970747
 30
0.0
  0
SPLINE
  5
5D6
100
AcDbEntity
  8
BEZUGSACHSEN
100
AcDbSpline
 62
7
  6
CONTINUOUS
 70
0
 71
3
 72
11
 73
7
 74
0
 42
0.0000001
 43
0.0000001
 44
0.0000000001
 40
0.0
 40
0.0
 40
0.0
 40
0.0
 40
0.2574235274
 40
0.5101284271
 40
0.7576108439
 40
1.0
 40
1.0
 40
1.0
 40
1.0
 10
128.5032290205
 20
137.5736741478
 30
0.0
 10
129.2006481364
 20
137.8728769845
 30
0.0
 10
130.5368299036
 20
138.5806904063
 30
0.0
 10
132.3154882694
 20
139.9487721817
 30
0.0
 10
133.8036226391
 20
141.5688729199
 30
0.0
 10
134.5830391657
 20
142.7954288103
 30
0.0
 10
134.9098716298
 20
143.4308735426
 30
0.0
  0
SPLINE
  5
5D7
100
AcDbEntity
  8
BEZUGSACHSEN
100
AcDbSpline
 62
7
  6
CONTINUOUS
 70
0
 71
3
 72
9
 73
5
 74
0
 42
0.0000001
 43
0.0000001
 44
0.0000000001
 40
0.0
 40
0.0
 40
0.0
 40
0.0
 40
0.4985326537
 40
1.0
 40
1.0
 40
1.0
 40
1.0
 10
136.1186382213
 20
148.6321293028
 30
0.0
 10
136.1186382213
 20
147.739095756
 30
0.0
 10
135.9117833903
 20
145.9418638165
 30
0.0
 10
135.3024789189
 20
144.2390020561
 30
0.0
 10
134.9077209305
 20
143.4320993291
 30
0.0
  0
SPLINE
  5
5D8
100
AcDbEntity
  8
BEZUGSACHSEN
100
AcDbSpline
 62
7
  6
CONTINUOUS
 70
0
 71
3
 72
11
 73
7
 74
0
 42
0.0000001
 43
0.0000001
 44
0.0000000001
 40
0.0
 40
0.0
 40
0.0
 40
0.0
 40
0.2423856701
 40
0.4898748046
 40
0.742576715
 40
1.0
 40
1.0
 40
1.0
 40
1.0
 10
110.8279224683
 20
143.4298997856
 30
0.0
 10
111.1546571785
 20
142.7948448679
 30
0.0
 10
111.9336900025
 20
141.5689690819
 30
0.0
 10
113.420934664
 20
139.9496529993
 30
0.0
 10
115.1984615858
 20
138.5820631276
 30
0.0
 10
116.5337598791
 20
137.87434496
 30
0.0
 10
117.2307250931
 20
137.5751125204
 30
0.0
  0
SPLINE
  5
5D9
100
AcDbEntity
  8
BEZUGSACHSEN
100
AcDbSpline
 62
7
  6
CONTINUOUS
 70
0
 71
3
 72
9
 73
5
 74
0
 42
0.0000001
 43
0.0000001
 44
0.0000000001
 40
0.0
 40
0.0
 40
0.0
 40
0.0
 40
0.4985320552
 40
1.0
 40
1.0
 40
1.0
 40
1.0
 10
109.6186382213
 20
148.6321293028
 30
0.0
 10
109.6186382213
 20
147.7389052063
 30
0.0
 10
109.8255823746
 20
145.9412850941
 30
0.0
 10
110.4351450256
 20
144.238095871
 30
0.0
 10
110.8300655597
 20
143.4310568957
 30
0.0
  0
LINE
  5
5DA
100
AcDbEntity
  8
KONSTRUKTIONSELEMENTE
100
AcDbLine
 62
7
  6
CONTINUOUS
 10
142.530122807
 20
159.7496047098
 11
142.6193896683
 21
159.3667835174
  0
LINE
  5
5DB
100
AcDbEntity
  8
KONSTRUKTIONSELEMENTE
100
AcDbLine
 62
7
  6
CONTINUOUS
 10
142.6193896683
 20
159.3667835174
 11
142.8993911896
 21
159.0476076699
  0
LINE
  5
5DC
100
AcDbEntity
  8
KONSTRUKTIONSELEMENTE
100
AcDbLine
 62
7
  6
CONTINUOUS
 10
142.8993911896
 20
159.0476076699
 11
143.2009082238
 21
158.9008564555
  0
LINE
  5
5DD
100
AcDbEntity
  8
KONSTRUKTIONSELEMENTE
100
AcDbLine
 62
7
  6
CONTINUOUS
 10
143.2009082238
 20
158.9008564555
 11
143.9208260471
 21
158.8123077651
  0
LINE
  5
5DE
100
AcDbEntity
  8
KONSTRUKTIONSELEMENTE
100
AcDbLine
 62
7
  6
CONTINUOUS
 10
143.9208260471
 20
158.8123077651
 11
144.529961563
 21
158.935347557
  0
LINE
  5
5DF
100
AcDbEntity
  8
KONSTRUKTIONSELEMENTE
100
AcDbLine
 62
7
  6
CONTINUOUS
 10
145.1975387893
 20
159.1612850771
 11
144.529961563
 21
158.935347557
  0
LINE
  5
5E0
100
AcDbEntity
  8
KONSTRUKTIONSELEMENTE
100
AcDbLine
 62
7
  6
CONTINUOUS
 10
145.7328215093
 20
159.4255327308
 11
145.1975387893
 21
159.1612850771
  0
LINE
  5
5E1
100
AcDbEntity
  8
KONSTRUKTIONSELEMENTE
100
AcDbLine
 62
7
  6
CONTINUOUS
 10
146.1573221223
 20
159.9012020342
 11
145.7328215093
 21
159.4255327308
  0
LINE
  5
5E2
100
AcDbEntity
  8
KONSTRUKTIONSELEMENTE
100
AcDbLine
 62
7
  6
CONTINUOUS
 10
146.2372777889
 20
160.1769307572
 11
146.1573221223
 21
159.9012020342
  0
LINE
  5
5E3
100
AcDbEntity
  8
KONSTRUKTIONSELEMENTE
100
AcDbLine
 62
7
  6
CONTINUOUS
 10
144.1481737952
 20
161.3672711636
 11
144.6619410023
 21
161.4590540816
  0
LINE
  5
5E4
100
AcDbEntity
  8
KONSTRUKTIONSELEMENTE
100
AcDbLine
 62
7
  6
CONTINUOUS
 10
144.6619410023
 20
161.4590540816
 11
144.9849721262
 21
161.4862170351
  0
LINE
  5
5E5
100
AcDbEntity
  8
KONSTRUKTIONSELEMENTE
100
AcDbLine
 62
7
  6
CONTINUOUS
 10
144.9849721262
 20
161.4862170351
 11
145.4402991796
 21
161.4758538591
  0
LINE
  5
5E6
100
AcDbEntity
  8
KONSTRUKTIONSELEMENTE
100
AcDbLine
 62
7
  6
CONTINUOUS
 10
145.4402991796
 20
161.4758538591
 11
145.837184389
 21
161.3632133766
  0
LINE
  5
5E7
100
AcDbEntity
  8
KONSTRUKTIONSELEMENTE
100
AcDbLine
 62
7
  6
CONTINUOUS
 10
145.837184389
 20
161.3632133766
 11
146.3079239511
 21
161.1102932572
  0
LINE
  5
5E8
100
AcDbEntity
  8
KONSTRUKTIONSELEMENTE
100
AcDbLine
 62
7
  6
CONTINUOUS
 10
146.3079239511
 20
161.1102932572
 11
146.6248534939
 21
160.7218945827
  0
LINE
  5
5E9
100
AcDbEntity
  8
KONSTRUKTIONSELEMENTE
100
AcDbLine
 62
7
  6
CONTINUOUS
 10
146.6248534939
 20
160.7218945827
 11
146.7510466864
 21
160.2678955142
  0
SPLINE
  5
5EA
100
AcDbEntity
  8
0
100
AcDbSpline
 62
7
  6
CONTINUOUS
 70
0
 71
3
 72
11
 73
7
 74
0
 42
0.0000001
 43
0.0000001
 44
0.0000000001
 40
0.0
 40
0.0
 40
0.0
 40
0.0
 40
0.3917316342
 40
0.6901953932
 40
0.8936440793
 40
1.0
 40
1.0
 40
1.0
 40
1.0
 10
147.8492313385
 20
106.1063747124
 30
0.0
 10
147.8492313385
 20
106.05942916
 30
0.0
 10
147.8502435581
 20
105.9767032767
 30
0.0
 10
147.8565342365
 20
105.8697289146
 30
0.0
 10
147.8628673453
 20
105.7971788846
 30
0.0
 10
147.8686382213
 20
105.7603241723
 30
0.0
 10
147.8686382213
 20
105.7475783611
 30
0.0
  0
SPLINE
  5
5EB
100
AcDbEntity
  8
0
100
AcDbSpline
 62
7
  6
CONTINUOUS
 70
0
 71
3
 72
9
 73
5
 74
0
 42
0.0000001
 43
0.0000001
 44
0.0000000001
 40
0.0
 40
0.0
 40
0.0
 40
0.0
 40
0.5695437746
 40
1.0
 40
1.0
 40
1.0
 40
1.0
 10
147.8686382213
 20
106.9875282783
 30
0.0
 10
147.8686382213
 20
106.8202025138
 30
0.0
 10
147.8593761306
 20
106.5265105397
 30
0.0
 10
147.8492313385
 20
106.2328380682
 30
0.0
 10
147.8492313385
 20
106.1063747124
 30
0.0
  0
LINE
  5
5EC
100
AcDbEntity
  8
KONSTRUKTIONSELEMENTE
100
AcDbLine
 62
7
  6
CONTINUOUS
 10
142.1178250555
 20
160.1045514339
 11
142.0163555414
 21
159.6582698828
  0
LINE
  5
5ED
100
AcDbEntity
  8
KONSTRUKTIONSELEMENTE
100
AcDbLine
 62
7
  6
CONTINUOUS
 10
142.2931489307
 20
160.4106528452
 11
142.1178250555
 21
160.1045514339
  0
LINE
  5
5EE
100
AcDbEntity
  8
KONSTRUKTIONSELEMENTE
100
AcDbLine
 62
7
  6
CONTINUOUS
 10
142.6007673456
 20
160.6791386707
 11
142.2931489307
 21
160.4106528452
  0
LINE
  5
5EF
100
AcDbEntity
  8
KONSTRUKTIONSELEMENTE
100
AcDbLine
 62
7
  6
CONTINUOUS
 10
142.84994554
 20
160.8456297015
 11
142.6007673456
 21
160.6791386707
  0
LINE
  5
5F0
100
AcDbEntity
  8
KONSTRUKTIONSELEMENTE
100
AcDbLine
 62
7
  6
CONTINUOUS
 10
143.2898602184
 20
161.0766792676
 11
142.84994554
 21
160.8456297015
  0
LINE
  5
5F1
100
AcDbEntity
  8
KONSTRUKTIONSELEMENTE
100
AcDbLine
 62
7
  6
CONTINUOUS
 10
143.2898602184
 20
161.0766792676
 11
144.1481737952
 21
161.3672711636
  0
LINE
  5
5F2
100
AcDbEntity
  8
KONSTRUKTIONSELEMENTE
100
AcDbLine
 62
7
  6
CONTINUOUS
 10
143.382257618
 20
163.1453186705
 11
144.09268686
 21
163.4894258386
  0
SPLINE
  5
5F3
100
AcDbEntity
  8
KONSTRUKTIONSELEMENTE
100
AcDbSpline
 62
7
  6
CONTINUOUS
 70
0
 71
3
 72
8
 73
4
 74
0
 42
0.0000001
 43
0.0000001
 44
0.0000000001
 40
0.0
 40
0.0
 40
0.0
 40
0.0
 40
1.0
 40
1.0
 40
1.0
 40
1.0
 10
144.09268686
 20
163.4894258386
 30
0.0
 10
144.3916845453
 20
163.4594188573
 30
0.0
 10
144.6906630557
 20
163.4292202928
 30
0.0
 10
144.9896236353
 20
163.3988458537
 30
0.0
  0
LINE
  5
5F4
100
AcDbEntity
  8
KONSTRUKTIONSELEMENTE
100
AcDbLine
 62
7
  6
CONTINUOUS
 10
144.9896236353
 20
163.3988458537
 11
145.2649350414
 21
163.0061061868
  0
LINE
  5
5F5
100
AcDbEntity
  8
KONSTRUKTIONSELEMENTE
100
AcDbLine
 62
7
  6
CONTINUOUS
 10
135.6373214082
 20
167.3290518182
 11
135.6333778778
 21
166.8712423071
  0
LINE
  5
5F6
100
AcDbEntity
  8
KONSTRUKTIONSELEMENTE
100
AcDbLine
 62
7
  6
CONTINUOUS
 10
135.7717199362
 20
167.690253341
 11
135.6373214082
 21
167.3290518182
  0
LINE
  5
5F7
100
AcDbEntity
  8
KONSTRUKTIONSELEMENTE
100
AcDbLine
 62
7
  6
CONTINUOUS
 10
136.0375518043
 20
168.0695454022
 11
135.7717199362
 21
167.690253341
  0
LINE
  5
5F8
100
AcDbEntity
  8
KONSTRUKTIONSELEMENTE
100
AcDbLine
 62
7
  6
CONTINUOUS
 10
136.0375518043
 20
168.0695454022
 11
137.0307299631
 21
169.0631346621
  0
LINE
  5
5F9
100
AcDbEntity
  8
KONSTRUKTIONSELEMENTE
100
AcDbLine
 62
7
  6
CONTINUOUS
 10
137.0307299631
 20
169.0631346621
 11
137.427016991
 21
169.3461682362
  0
LINE
  5
5FA
100
AcDbEntity
  8
KONSTRUKTIONSELEMENTE
100
AcDbLine
 62
7
  6
CONTINUOUS
 10
137.427016991
 20
169.3461682362
 11
137.822313478
 21
169.5146937823
  0
SPLINE
  5
5FB
100
AcDbEntity
  8
BEZUGSACHSEN
100
AcDbSpline
 62
7
  6
CONTINUOUS
 70
0
 71
3
 72
15
 73
11
 74
0
 42
0.0000001
 43
0.0000001
 44
0.0000000001
 40
0.0
 40
0.0
 40
0.0
 40
0.0
 40
0.1224762884
 40
0.2468931748
 40
0.372976282
 40
0.5
 40
0.627023718
 40
0.7531068252
 40
0.8775237116
 40
1.0
 40
1.0
 40
1.0
 40
1.0
 10
127.6785100937
 20
123.6581854464
 30
0.0
 10
127.4303807361
 20
124.0492298024
 30
0.0
 10
126.8214743788
 20
124.7735574391
 30
0.0
 10
125.6568118699
 20
125.5941976706
 30
0.0
 10
124.30957047
 20
126.1088967465
 30
0.0
 10
122.8686382213
 20
126.2839783862
 30
0.0
 10
121.4277059726
 20
126.1088967465
 30
0.0
 10
120.0804645726
 20
125.5941976706
 30
0.0
 10
118.9158020638
 20
124.7735574391
 30
0.0
 10
118.3068957065
 20
124.0492298024
 30
0.0
 10
118.0587663488
 20
123.6581854464
 30
0.0
  0
LINE
  5
5FC
100
AcDbEntity
  8
KONSTRUKTIONSELEMENTE
100
AcDbLine
 62
7
  6
CONTINUOUS
 10
137.822313478
 20
169.5146937823
 11
138.3480649392
 21
169.5863926828
  0
LINE
  5
5FD
100
AcDbEntity
  8
KONSTRUKTIONSELEMENTE
100
AcDbLine
 62
7
  6
CONTINUOUS
 10
138.3480649392
 20
169.5863926828
 11
138.7413896725
 21
169.5251327815
  0
LINE
  5
5FE
100
AcDbEntity
  8
KONSTRUKTIONSELEMENTE
100
AcDbLine
 62
7
  6
CONTINUOUS
 10
138.7413896725
 20
169.5251327815
 11
139.1337300219
 21
169.3485468179
  0
LINE
  5
5FF
100
AcDbEntity
  8
KONSTRUKTIONSELEMENTE
100
AcDbLine
 62
7
  6
CONTINUOUS
 10
139.7207594914
 20
168.9096374241
 11
139.9806731129
 21
168.5985449683
  0
LINE
  5
600
100
AcDbEntity
  8
KONSTRUKTIONSELEMENTE
100
AcDbLine
 62
7
  6
CONTINUOUS
 10
139.9806731129
 20
168.5985449683
 11
140.1091533478
 21
168.2696554119
  0
SPLINE
  5
601
100
AcDbEntity
  8
BEZUGSACHSEN
100
AcDbSpline
 62
7
  6
CONTINUOUS
 70
0
 71
3
 72
9
 73
5
 74
0
 42
0.0000001
 43
0.0000001
 44
0.0000000001
 40
0.0
 40
0.0
 40
0.0
 40
0.0
 40
0.5049916886
 40
1.0
 40
1.0
 40
1.0
 40
1.0
 10
117.2807393861
 20
121.0798438414
 30
0.0
 10
117.3071613821
 20
121.5361403336
 30
0.0
 10
117.448472566
 20
122.4386134414
 30
0.0
 10
117.8187266298
 20
123.279890116
 30
0.0
 10
118.0587663488
 20
123.6581854464
 30
0.0
  0
LINE
  5
602
100
AcDbEntity
  8
KONSTRUKTIONSELEMENTE
100
AcDbLine
 62
7
  6
CONTINUOUS
 10
139.5814301329
 20
167.9706125733
 11
139.4480188356
 21
167.7228049568
  0
SPLINE
  5
603
100
AcDbEntity
  8
BEZUGSACHSEN
100
AcDbSpline
 62
7
  6
CONTINUOUS
 70
0
 71
3
 72
9
 73
5
 74
0
 42
0.0000001
 43
0.0000001
 44
0.0000000001
 40
0.0
 40
0.0
 40
0.0
 40
0.0
 40
0.4950083114
 40
1.0
 40
1.0
 40
1.0
 40
1.0
 10
127.6785100937
 20
123.6581854464
 30
0.0
 10
127.9185498127
 20
123.279890116
 30
0.0
 10
128.2888038765
 20
122.4386134414
 30
0.0
 10
128.4301150604
 20
121.5361403336
 30
0.0
 10
128.4565370564
 20
121.0798438414
 30
0.0
  0
LINE
  5
604
100
AcDbEntity
  8
KONSTRUKTIONSELEMENTE
100
AcDbLine
 62
7
  6
CONTINUOUS
 10
136.1610981764
 20
167.171921815
 11
136.2243508778
 21
166.8942184816
  0
LINE
  5
605
100
AcDbEntity
  8
KONSTRUKTIONSELEMENTE
100
AcDbLine
 62
7
  6
CONTINUOUS
 10
136.2243508778
 20
166.8942184816
 11
136.4190429837
 21
166.6338285913
  0
LINE
  5
606
100
AcDbEntity
  8
KONSTRUKTIONSELEMENTE
100
AcDbLine
 62
7
  6
CONTINUOUS
 10
137.0060724532
 20
166.1948666558
 11
137.3331853155
 21
166.0650705308
  0
LINE
  5
607
100
AcDbEntity
  8
KONSTRUKTIONSELEMENTE
100
AcDbLine
 62
7
  6
CONTINUOUS
 10
137.3331853155
 20
166.0650705308
 11
137.6612855938
 21
166.0501416883
  0
LINE
  5
608
100
AcDbEntity
  8
KONSTRUKTIONSELEMENTE
100
AcDbLine
 62
7
  6
CONTINUOUS
 10
137.6612855938
 20
166.0501416883
 11
137.9251457083
 21
166.1996300472
  0
LINE
  5
609
100
AcDbEntity
  8
KONSTRUKTIONSELEMENTE
100
AcDbLine
 62
7
  6
CONTINUOUS
 10
138.4548407696
 20
166.7294372138
 11
137.9251457083
 21
166.1996300472
  0
LINE
  5
60A
100
AcDbEntity
  8
KONSTRUKTIONSELEMENTE
100
AcDbLine
 62
7
  6
CONTINUOUS
 10
138.2650825265
 20
167.5680504175
 11
137.8678113001
 21
167.1707710084
  0
LINE
  5
60B
100
AcDbEntity
  8
KONSTRUKTIONSELEMENTE
100
AcDbLine
 62
7
  6
CONTINUOUS
 10
134.813268836
 20
169.8964062281
 11
135.0838811323
 21
169.8608999849
  0
LINE
  5
60C
100
AcDbEntity
  8
KONSTRUKTIONSELEMENTE
100
AcDbLine
 62
7
  6
CONTINUOUS
 10
135.0838811323
 20
169.8608999849
 11
135.3312413175
 21
169.9385468336
  0
LINE
  5
60D
100
AcDbEntity
  8
KONSTRUKTIONSELEMENTE
100
AcDbLine
 62
7
  6
CONTINUOUS
 10
135.3312413175
 20
169.9385468336
 11
135.5553460284
 21
170.1295422574
  0
LINE
  5
60E
100
AcDbEntity
  8
KONSTRUKTIONSELEMENTE
100
AcDbLine
 62
7
  6
CONTINUOUS
 10
135.7059856189
 20
170.3578636898
 11
135.5553460284
 21
170.1295422574
  0
LINE
  5
60F
100
AcDbEntity
  8
KONSTRUKTIONSELEMENTE
100
AcDbLine
 62
7
  6
CONTINUOUS
 10
135.7831598077
 20
170.6234971053
 11
135.7059856189
 21
170.3578636898
  0
LINE
  5
610
100
AcDbEntity
  8
KONSTRUKTIONSELEMENTE
100
AcDbLine
 62
7
  6
CONTINUOUS
 10
133.8686386488
 20
172.1674910788
 11
133.9808735436
 21
172.3376303859
  0
LINE
  5
611
100
AcDbEntity
  8
KONSTRUKTIONSELEMENTE
100
AcDbLine
 62
7
  6
CONTINUOUS
 10
135.7440667145
 20
171.4555287155
 11
136.0611865962
 21
171.1935057238
  0
LINE
  5
612
100
AcDbEntity
  8
KONSTRUKTIONSELEMENTE
100
AcDbLine
 62
7
  6
CONTINUOUS
 10
136.0611865962
 20
171.1935057238
 11
136.2044115538
 21
170.8159042857
  0
LINE
  5
613
100
AcDbEntity
  8
KONSTRUKTIONSELEMENTE
100
AcDbLine
 62
7
  6
CONTINUOUS
 10
136.2044115538
 20
170.8159042857
 11
136.2239581004
 21
170.3991581911
  0
LINE
  5
614
100
AcDbEntity
  8
KONSTRUKTIONSELEMENTE
100
AcDbLine
 62
7
  6
CONTINUOUS
 10
134.3650594141
 20
169.5140579427
 11
133.8983119395
 21
167.6179529529
  0
LINE
  5
615
100
AcDbEntity
  8
KONSTRUKTIONSELEMENTE
100
AcDbLine
 62
7
  6
CONTINUOUS
 10
109.0414064952
 20
166.4605622084
 11
106.8754299535
 21
168.8858312435
  0
LINE
  5
616
100
AcDbEntity
  8
KONSTRUKTIONSELEMENTE
100
AcDbLine
 62
7
  6
CONTINUOUS
 10
110.2614907993
 20
167.2837093027
 11
110.4707353508
 21
167.5343548281
  0
LINE
  5
617
100
AcDbEntity
  8
KONSTRUKTIONSELEMENTE
100
AcDbLine
 62
7
  6
CONTINUOUS
 10
110.4707353508
 20
167.5343548281
 11
110.5503126207
 21
167.8085869381
  0
LINE
  5
618
100
AcDbEntity
  8
KONSTRUKTIONSELEMENTE
100
AcDbLine
 62
7
  6
CONTINUOUS
 10
107.7242040454
 20
170.1242000045
 11
108.1250016461
 21
170.2817187018
  0
LINE
  5
619
100
AcDbEntity
  8
KONSTRUKTIONSELEMENTE
100
AcDbLine
 62
7
  6
CONTINUOUS
 10
108.1250016461
 20
170.2817187018
 11
108.5199013036
 21
170.3240436943
  0
LINE
  5
61A
100
AcDbEntity
  8
KONSTRUKTIONSELEMENTE
100
AcDbLine
 62
7
  6
CONTINUOUS
 10
108.5199013036
 20
170.3240436943
 11
109.038571032
 21
170.2272699819
  0
LINE
  5
61B
100
AcDbEntity
  8
KONSTRUKTIONSELEMENTE
100
AcDbLine
 62
7
  6
CONTINUOUS
 10
109.038571032
 20
170.2272699819
 11
109.4216763547
 21
170.0400716329
  0
LINE
  5
61C
100
AcDbEntity
  8
KONSTRUKTIONSELEMENTE
100
AcDbLine
 62
7
  6
CONTINUOUS
 10
109.4216763547
 20
170.0400716329
 11
109.7988839078
 21
169.7384927481
  0
LINE
  5
61D
100
AcDbEntity
  8
KONSTRUKTIONSELEMENTE
100
AcDbLine
 62
7
  6
CONTINUOUS
 10
109.7988839078
 20
169.7384927481
 11
110.7271595251
 21
168.6988718126
  0
LINE
  5
61E
100
AcDbEntity
  8
KONSTRUKTIONSELEMENTE
100
AcDbLine
 62
7
  6
CONTINUOUS
 10
110.9688024992
 20
168.3074389839
 11
110.7271595251
 21
168.6988718126
  0
LINE
  5
61F
100
AcDbEntity
  8
KONSTRUKTIONSELEMENTE
100
AcDbLine
 62
7
  6
CONTINUOUS
 10
111.0807775028
 20
167.9403652174
 11
110.9688024992
 21
168.3074389839
  0
LINE
  5
620
100
AcDbEntity
  8
KONSTRUKTIONSELEMENTE
100
AcDbLine
 62
7
  6
CONTINUOUS
 10
107.6075621737
 20
165.9248460867
 11
107.2844209933
 21
166.2688797627
  0
LINE
  5
621
100
AcDbEntity
  8
KONSTRUKTIONSELEMENTE
100
AcDbLine
 62
7
  6
CONTINUOUS
 10
107.7963427129
 20
165.5829174825
 11
107.6075621737
 21
165.9248460867
  0
LINE
  5
622
100
AcDbEntity
  8
KONSTRUKTIONSELEMENTE
100
AcDbLine
 62
7
  6
CONTINUOUS
 10
107.8689019073
 20
165.1294939453
 11
107.7963427129
 21
165.5829174825
  0
SPLINE
  5
623
100
AcDbEntity
  8
KONSTRUKTIONSELEMENTE
100
AcDbSpline
 62
7
  6
CONTINUOUS
 70
0
 71
3
 72
8
 73
4
 74
0
 42
0.0000001
 43
0.0000001
 44
0.0000000001
 40
0.0
 40
0.0
 40
0.0
 40
0.0
 40
1.0
 40
1.0
 40
1.0
 40
1.0
 10
103.5359069232
 20
163.2766721149
 30
0.0
 10
104.3510171955
 20
163.1311193832
 30
0.0
 10
105.1660340443
 20
162.9850416685
 30
0.0
 10
105.9809207229
 20
162.8382422994
 30
0.0
  0
LINE
  5
624
100
AcDbEntity
  8
KONSTRUKTIONSELEMENTE
100
AcDbLine
 62
7
  6
CONTINUOUS
 10
103.5474276672
 20
163.6225041798
 11
103.3361508244
 21
163.9920703038
  0
LINE
  5
625
100
AcDbEntity
  8
KONSTRUKTIONSELEMENTE
100
AcDbLine
 62
7
  6
CONTINUOUS
 10
103.3361508244
 20
163.9920703038
 11
103.1191135424
 21
164.1888844596
  0
LINE
  5
626
100
AcDbEntity
  8
KONSTRUKTIONSELEMENTE
100
AcDbLine
 62
7
  6
CONTINUOUS
 10
102.7672454009
 20
164.3657093631
 11
103.1191135424
 21
164.1888844596
  0
LINE
  5
627
100
AcDbEntity
  8
KONSTRUKTIONSELEMENTE
100
AcDbLine
 62
7
  6
CONTINUOUS
 10
102.4564808402
 20
164.4341093831
 11
102.7672454009
 21
164.3657093631
  0
LINE
  5
628
100
AcDbEntity
  8
KONSTRUKTIONSELEMENTE
100
AcDbLine
 62
7
  6
CONTINUOUS
 10
101.9640218929
 20
164.4180641821
 11
102.4564808402
 21
164.4341093831
  0
LINE
  5
629
100
AcDbEntity
  8
KONSTRUKTIONSELEMENTE
100
AcDbLine
 62
7
  6
CONTINUOUS
 10
101.51266628
 20
164.2930743774
 11
101.9640218929
 21
164.4180641821
  0
LINE
  5
62A
100
AcDbEntity
  8
KONSTRUKTIONSELEMENTE
100
AcDbLine
 62
7
  6
CONTINUOUS
 10
101.1903808412
 20
164.0146170845
 11
101.51266628
 21
164.2930743774
  0
LINE
  5
62B
100
AcDbEntity
  8
KONSTRUKTIONSELEMENTE
100
AcDbLine
 62
7
  6
CONTINUOUS
 10
104.4812827879
 20
160.7696836946
 11
102.6339760924
 21
161.6978545452
  0
LINE
  5
62C
100
AcDbEntity
  8
KONSTRUKTIONSELEMENTE
100
AcDbLine
 62
7
  6
CONTINUOUS
 10
102.1061742497
 20
161.9630364286
 11
100.7866693968
 21
162.625975554
  0
LINE
  5
62D
100
AcDbEntity
  8
KONSTRUKTIONSELEMENTE
100
AcDbLine
 62
7
  6
CONTINUOUS
 10
102.8286793652
 20
166.036951494
 11
103.177342821
 21
166.3763803281
  0
LINE
  5
62E
100
AcDbEntity
  8
KONSTRUKTIONSELEMENTE
100
AcDbLine
 62
7
  6
CONTINUOUS
 10
105.5411045458
 20
164.5881020665
 11
103.177342821
 21
166.3763803281
  0
LINE
  5
62F
100
AcDbEntity
  8
KONSTRUKTIONSELEMENTE
100
AcDbLine
 62
7
  6
CONTINUOUS
 10
102.9965842024
 20
163.1954633294
 11
103.0492082809
 21
163.4331844057
  0
LINE
  5
630
100
AcDbEntity
  8
KONSTRUKTIONSELEMENTE
100
AcDbLine
 62
7
  6
CONTINUOUS
 10
105.5411045458
 20
164.5881020665
 11
105.9042163439
 21
164.413873505
  0
LINE
  5
631
100
AcDbEntity
  8
KONSTRUKTIONSELEMENTE
100
AcDbLine
 62
7
  6
CONTINUOUS
 10
104.9206592685
 20
168.057535702
 11
107.2844209933
 21
166.2688797627
  0
LINE
  5
632
100
AcDbEntity
  8
KONSTRUKTIONSELEMENTE
100
AcDbLine
 62
7
  6
CONTINUOUS
 10
105.9042163439
 20
164.413873505
 11
106.2491887658
 21
164.3537679936
  0
LINE
  5
633
100
AcDbEntity
  8
KONSTRUKTIONSELEMENTE
100
AcDbLine
 62
7
  6
CONTINUOUS
 10
104.571995979
 20
167.7234363587
 11
104.9206592685
 21
168.057535702
  0
LINE
  5
634
100
AcDbEntity
  8
KONSTRUKTIONSELEMENTE
100
AcDbLine
 62
7
  6
CONTINUOUS
 10
106.2491887658
 20
164.3537679936
 11
106.5760211997
 21
164.4075773832
  0
LINE
  5
635
100
AcDbEntity
  8
KONSTRUKTIONSELEMENTE
100
AcDbLine
 62
7
  6
CONTINUOUS
 10
107.2733477787
 20
165.0811053984
 11
107.2951786343
 21
165.3640600164
  0
LINE
  5
636
100
AcDbEntity
  8
KONSTRUKTIONSELEMENTE
100
AcDbLine
 62
7
  6
CONTINUOUS
 10
106.5760211997
 20
164.4075773832
 11
106.8847135389
 21
164.5749744653
  0
LINE
  5
637
100
AcDbEntity
  8
KONSTRUKTIONSELEMENTE
100
AcDbLine
 62
7
  6
CONTINUOUS
 10
107.1171558427
 20
164.7994839111
 11
107.2733477787
 21
165.0811053984
  0
LINE
  5
638
100
AcDbEntity
  8
KONSTRUKTIONSELEMENTE
100
AcDbLine
 62
7
  6
CONTINUOUS
 10
106.8847135389
 20
164.5749744653
 11
107.1171558427
 21
164.7994839111
  0
LINE
  5
639
100
AcDbEntity
  8
0
100
AcDbLine
 62
7
  6
CONTINUOUS
 10
135.7218264602
 20
169.4578715333
 11
135.3005747141
 21
169.2657943453
  0
LINE
  5
63A
100
AcDbEntity
  8
0
100
AcDbLine
 62
7
  6
CONTINUOUS
 10
135.9459311712
 20
169.648711336
 11
135.7218264602
 21
169.4578715333
  0
LINE
  5
63B
100
AcDbEntity
  8
0
100
AcDbLine
 62
7
  6
CONTINUOUS
 10
135.9459311712
 20
169.648711336
 11
136.1467839117
 21
169.9531875086
  0
LINE
  5
63C
100
AcDbEntity
  8
0
100
AcDbLine
 62
7
  6
CONTINUOUS
 10
136.1467839117
 20
169.9531875086
 11
136.2239581004
 21
170.2190386517
  0
LINE
  5
63D
100
AcDbEntity
  8
0
100
AcDbLine
 62
7
  6
CONTINUOUS
 10
134.1706060866
 20
171.5580443658
 11
133.8686382817
 21
171.1003503379
  0
LINE
  5
63E
100
AcDbEntity
  8
0
100
AcDbLine
 62
7
  6
CONTINUOUS
 10
135.7366522223
 20
170.6701187429
 11
135.6941150964
 21
170.7170514089
  0
LINE
  5
63F
100
AcDbEntity
  8
0
100
AcDbLine
 62
7
  6
CONTINUOUS
 10
135.6941150964
 20
170.7170514089
 11
135.5664662259
 21
170.8577863471
  0
LINE
  5
640
100
AcDbEntity
  8
0
100
AcDbLine
 62
7
  6
CONTINUOUS
 10
135.7599666015
 20
170.5564692832
 11
135.7477090952
 21
170.6162244603
  0
LINE
  5
641
100
AcDbEntity
  8
0
100
AcDbLine
 62
7
  6
CONTINUOUS
 10
135.7477090952
 20
170.6162244603
 11
135.7366522223
 21
170.6701187429
  0
LINE
  5
642
100
AcDbEntity
  8
0
100
AcDbLine
 62
7
  6
CONTINUOUS
 10
138.250286817
 20
165.6574318386
 11
139.2434649757
 21
166.6510399758
  0
LINE
  5
643
100
AcDbEntity
  8
0
100
AcDbLine
 62
7
  6
CONTINUOUS
 10
138.3521349126
 20
166.6267267979
 11
138.3081020699
 21
166.6598890561
  0
SPLINE
  5
644
100
AcDbEntity
  8
KONSTRUKTIONSELEMENTE
100
AcDbSpline
 62
7
  6
CONTINUOUS
 70
0
 71
3
 72
9
 73
5
 74
0
 42
0.0000001
 43
0.0000001
 44
0.0000000001
 40
0.0
 40
0.0
 40
0.0
 40
0.0
 40
0.4519260654
 40
1.0
 40
1.0
 40
1.0
 40
1.0
 10
117.2807393861
 20
128.3784668139
 30
0.0
 10
117.3110085112
 20
128.7196576942
 30
0.0
 10
117.492677305
 20
129.4649650849
 30
0.0
 10
117.8362036467
 20
130.1478362321
 30
0.0
 10
118.0587663488
 20
130.4985883129
 30
0.0
  0
SPLINE
  5
645
100
AcDbEntity
  8
KONSTRUKTIONSELEMENTE
100
AcDbSpline
 62
7
  6
CONTINUOUS
 70
0
 71
3
 72
9
 73
5
 74
0
 42
0.0000001
 43
0.0000001
 44
0.0000000001
 40
0.0
 40
0.0
 40
0.0
 40
0.0
 40
0.5480739346
 40
1.0
 40
1.0
 40
1.0
 40
1.0
 10
127.6785100937
 20
130.4985883129
 30
0.0
 10
127.9010727958
 20
130.1478362321
 30
0.0
 10
128.2445991375
 20
129.4649650849
 30
0.0
 10
128.4262679313
 20
128.7196576942
 30
0.0
 10
128.4565370564
 20
128.3784668139
 30
0.0
  0
LINE
  5
646
100
AcDbEntity
  8
0
100
AcDbLine
 62
7
  6
CONTINUOUS
 10
136.1817521126
 20
167.0812754071
 11
136.2121566039
 21
167.2129684205
  0
LINE
  5
647
100
AcDbEntity
  8
0
100
AcDbLine
 62
7
  6
CONTINUOUS
 10
136.2121566039
 20
167.2129684205
 11
136.2292847869
 21
167.2871467077
  0
LINE
  5
648
100
AcDbEntity
  8
0
100
AcDbLine
 62
7
  6
CONTINUOUS
 10
136.2292847869
 20
167.2871467077
 11
136.428904784
 21
167.6003429966
  0
LINE
  5
649
100
AcDbEntity
  8
0
100
AcDbLine
 62
7
  6
CONTINUOUS
 10
137.4220829427
 20
168.5937176744
 11
136.428904784
 21
167.6003429966
  0
LINE
  5
64A
100
AcDbEntity
  8
0
100
AcDbLine
 62
7
  6
CONTINUOUS
 10
137.7521579141
 20
168.8102782587
 11
137.4220829427
 21
168.5937176744
  0
LINE
  5
64B
100
AcDbEntity
  8
0
100
AcDbLine
 62
7
  6
CONTINUOUS
 10
138.0812427155
 20
168.9121762282
 11
137.7521579141
 21
168.8102782587
  0
LINE
  5
64C
100
AcDbEntity
  8
0
100
AcDbLine
 62
7
  6
CONTINUOUS
 10
138.4093429475
 20
168.8992226316
 11
138.0812427155
 21
168.9121762282
  0
LINE
  5
64D
100
AcDbEntity
  8
0
100
AcDbLine
 62
7
  6
CONTINUOUS
 10
138.7364587955
 20
168.7711522415
 11
138.4093429475
 21
168.8992226316
  0
LINE
  5
64E
100
AcDbEntity
  8
0
100
AcDbLine
 62
7
  6
CONTINUOUS
 10
139.5181773852
 20
168.0701563976
 11
139.3234882651
 21
168.3322362653
  0
LINE
  5
64F
100
AcDbEntity
  8
0
100
AcDbLine
 62
7
  6
CONTINUOUS
 10
139.5340334998
 20
168.0000781365
 11
139.5181773852
 21
168.0701563976
  0
SPLINE
  5
650
100
AcDbEntity
  8
0
100
AcDbSpline
 62
7
  6
CONTINUOUS
 70
0
 71
3
 72
8
 73
4
 74
0
 42
0.0000001
 43
0.0000001
 44
0.0000000001
 40
0.0
 40
0.0
 40
0.0
 40
0.0
 40
1.0
 40
1.0
 40
1.0
 40
1.0
 10
139.8393718152
 20
167.2471786719
 30
0.0
 10
139.7090102194
 20
167.3457992019
 30
0.0
 10
139.5785593377
 20
167.4443018218
 30
0.0
 10
139.4480188356
 20
167.5426854175
 30
0.0
  0
LINE
  5
651
100
AcDbEntity
  8
0
100
AcDbLine
 62
7
  6
CONTINUOUS
 10
139.8393718152
 20
167.2471786719
 11
140.1052068547
 21
167.6276752645
  0
LINE
  5
652
100
AcDbEntity
  8
0
100
AcDbLine
 62
7
  6
CONTINUOUS
 10
140.1052068547
 20
167.6276752645
 11
140.1091533478
 21
168.0895358725
  0
LINE
  5
653
100
AcDbEntity
  8
KONSTRUKTIONSELEMENTE
100
AcDbLine
 62
7
  6
CONTINUOUS
 10
143.5698617397
 20
160.7605437183
 11
144.2374389661
 21
160.986481239
  0
LINE
  5
654
100
AcDbEntity
  8
0
100
AcDbLine
 62
7
  6
CONTINUOUS
 10
135.7618551095
 20
166.3652456532
 11
135.6333778778
 21
166.6911227678
  0
LINE
  5
655
100
AcDbEntity
  8
0
100
AcDbLine
 62
7
  6
CONTINUOUS
 10
136.0217717109
 20
166.056431998
 11
135.7618551095
 21
166.3652456532
  0
LINE
  5
656
100
AcDbEntity
  8
0
100
AcDbLine
 62
7
  6
CONTINUOUS
 10
137.0011385499
 20
165.4385327638
 11
136.6088011804
 21
165.6174605862
  0
LINE
  5
657
100
AcDbEntity
  8
0
100
AcDbLine
 62
7
  6
CONTINUOUS
 10
137.3944662863
 20
165.3742241006
 11
137.0011385499
 21
165.4385327638
  0
LINE
  5
658
100
AcDbEntity
  8
0
100
AcDbLine
 62
7
  6
CONTINUOUS
 10
137.920214785
 20
165.4418657778
 11
137.3944662863
 21
165.3742241006
  0
LINE
  5
659
100
AcDbEntity
  8
0
100
AcDbLine
 62
7
  6
CONTINUOUS
 10
138.250286817
 20
165.6574318386
 11
137.920214785
 21
165.4418657778
  0
LINE
  5
65A
100
AcDbEntity
  8
0
100
AcDbLine
 62
7
  6
CONTINUOUS
 10
141.0911642086
 20
160.8043436474
 11
145.2649350414
 21
162.8259866475
  0
LINE
  5
65B
100
AcDbEntity
  8
KONSTRUKTIONSELEMENTE
100
AcDbLine
 62
7
  6
CONTINUOUS
 10
143.5698617397
 20
160.7605437183
 11
143.0345805765
 21
160.4971032511
  0
LINE
  5
65C
100
AcDbEntity
  8
0
100
AcDbLine
 62
7
  6
CONTINUOUS
 10
143.9716715714
 20
162.9058169107
 11
143.382257618
 21
162.9651991312
  0
LINE
  5
65D
100
AcDbEntity
  8
KONSTRUKTIONSELEMENTE
100
AcDbLine
 62
7
  6
CONTINUOUS
 10
143.0345805765
 20
160.4971032511
 11
142.6100784735
 21
160.0240523621
  0
LINE
  5
65E
100
AcDbEntity
  8
0
100
AcDbLine
 62
7
  6
CONTINUOUS
 10
141.0911642086
 20
160.8043436474
 11
140.8158528024
 21
161.1972073539
  0
LINE
  5
65F
100
AcDbEntity
  8
KONSTRUKTIONSELEMENTE
100
AcDbLine
 62
7
  6
CONTINUOUS
 10
142.6100784735
 20
160.0240523621
 11
142.530122807
 21
159.7496047098
  0
LINE
  5
660
100
AcDbEntity
  8
0
100
AcDbLine
 62
7
  6
CONTINUOUS
 10
142.1425487255
 20
159.0253412284
 11
142.0163555414
 21
159.4781503435
  0
LINE
  5
661
100
AcDbEntity
  8
0
100
AcDbLine
 62
7
  6
CONTINUOUS
 10
142.4594782767
 20
158.6357526005
 11
142.1425487255
 21
159.0253412284
  0
LINE
  5
662
100
AcDbEntity
  8
0
100
AcDbLine
 62
7
  6
CONTINUOUS
 10
142.9302161734
 20
158.3800371216
 11
142.4594782767
 21
158.6357526005
  0
LINE
  5
663
100
AcDbEntity
  8
0
100
AcDbLine
 62
7
  6
CONTINUOUS
 10
143.3271014162
 20
158.264939666
 11
142.9302161734
 21
158.3800371216
  0
LINE
  5
664
100
AcDbEntity
  8
0
100
AcDbLine
 62
7
  6
CONTINUOUS
 10
143.7824285365
 20
158.2526241042
 11
143.3271014162
 21
158.264939666
  0
LINE
  5
665
100
AcDbEntity
  8
0
100
AcDbLine
 62
7
  6
CONTINUOUS
 10
144.1054593932
 20
158.2787176547
 11
143.7824285365
 21
158.2526241042
  0
LINE
  5
666
100
AcDbEntity
  8
0
100
AcDbLine
 62
7
  6
CONTINUOUS
 10
144.6192284243
 20
158.3693664992
 11
144.1054593932
 21
158.2787176547
  0
LINE
  5
667
100
AcDbEntity
  8
0
100
AcDbLine
 62
7
  6
CONTINUOUS
 10
144.6192284243
 20
158.3693664992
 11
145.477542001
 21
158.6599583953
  0
LINE
  5
668
100
AcDbEntity
  8
0
100
AcDbLine
 62
7
  6
CONTINUOUS
 10
145.477542001
 20
158.6599583953
 11
145.9174548554
 21
158.8921420326
  0
LINE
  5
669
100
AcDbEntity
  8
0
100
AcDbLine
 62
7
  6
CONTINUOUS
 10
145.9174548554
 20
158.8921420326
 11
146.166633317
 21
159.059702466
  0
LINE
  5
66A
100
AcDbEntity
  8
0
100
AcDbLine
 62
7
  6
CONTINUOUS
 10
146.166633317
 20
159.059702466
 11
146.4742516651
 21
159.3301406767
  0
LINE
  5
66B
100
AcDbEntity
  8
0
100
AcDbLine
 62
7
  6
CONTINUOUS
 10
146.4742516651
 20
159.3301406767
 11
146.6495755069
 21
159.6386990615
  0
LINE
  5
66C
100
AcDbEntity
  8
0
100
AcDbLine
 62
7
  6
CONTINUOUS
 10
146.6495755069
 20
159.6386990615
 11
146.7510466864
 21
160.0877759749
  0
SPLINE
  5
66D
100
AcDbEntity
  8
BEZUGSACHSEN
100
AcDbSpline
 62
7
  6
CONTINUOUS
 70
0
 71
3
 72
11
 73
7
 74
0
 42
0.0000001
 43
0.0000001
 44
0.0000000001
 40
0.0
 40
0.0
 40
0.0
 40
0.0
 40
0.2522377916
 40
0.5026204382
 40
0.7516616843
 40
1.0
 40
1.0
 40
1.0
 40
1.0
 10
111.8675029941
 20
155.5717144376
 30
0.0
 10
111.5055312546
 20
155.0650245856
 30
0.0
 10
110.8592239328
 20
153.9991912011
 30
0.0
 10
110.1486632328
 20
152.2772272761
 30
0.0
 10
109.7156389818
 20
150.4752498649
 30
0.0
 10
109.6186382213
 20
149.245204916
 30
0.0
 10
109.6186382213
 20
148.6321293028
 30
0.0
  0
LINE
  5
66E
100
AcDbEntity
  8
KONSTRUKTIONSELEMENTE
100
AcDbLine
 62
7
  6
CONTINUOUS
 10
146.148012618
 20
160.5605718556
 11
146.2372777889
 21
160.1769307572
  0
LINE
  5
66F
100
AcDbEntity
  8
0
100
AcDbLine
 62
7
  6
CONTINUOUS
 10
144.8465760388
 20
160.9302086775
 11
144.2374389661
 21
160.8063616996
  0
LINE
  5
670
100
AcDbEntity
  8
0
100
AcDbLine
 62
7
  6
CONTINUOUS
 10
145.5664923721
 20
160.8442784032
 11
144.8465760388
 21
160.9302086775
  0
LINE
  5
671
100
AcDbEntity
  8
0
100
AcDbLine
 62
7
  6
CONTINUOUS
 10
145.8680094063
 20
160.6988082589
 11
145.5664923721
 21
160.8442784032
  0
LINE
  5
672
100
AcDbEntity
  8
0
100
AcDbLine
 62
7
  6
CONTINUOUS
 10
146.148012618
 20
160.3804523163
 11
145.8680094063
 21
160.6988082589
  0
LINE
  5
673
100
AcDbEntity
  8
0
100
AcDbLine
 62
7
  6
CONTINUOUS
 10
146.2149570792
 20
160.0928118797
 11
146.1926393192
 21
160.1887521552
  0
LINE
  5
674
100
AcDbEntity
  8
0
100
AcDbLine
 62
7
  6
CONTINUOUS
 10
146.1926393192
 20
160.1887521552
 11
146.148012618
 21
160.3804523163
  0
LINE
  5
675
100
AcDbEntity
  8
KONSTRUKTIONSELEMENTE
100
AcDbLine
 62
7
  6
CONTINUOUS
 10
145.8680094063
 20
160.8789277982
 11
146.148012618
 21
160.5605718556
  0
LINE
  5
676
100
AcDbEntity
  8
KONSTRUKTIONSELEMENTE
100
AcDbLine
 62
7
  6
CONTINUOUS
 10
145.5664923721
 20
161.0243979425
 11
145.8680094063
 21
160.8789277982
  0
LINE
  5
677
100
AcDbEntity
  8
KONSTRUKTIONSELEMENTE
100
AcDbLine
 62
7
  6
CONTINUOUS
 10
144.8465760388
 20
161.1103282168
 11
145.5664923721
 21
161.0243979425
  0
LINE
  5
678
100
AcDbEntity
  8
KONSTRUKTIONSELEMENTE
100
AcDbLine
 62
7
  6
CONTINUOUS
 10
144.2374389661
 20
160.986481239
 11
144.8465760388
 21
161.1103282168
  0
LINE
  5
679
100
AcDbEntity
  8
0
100
AcDbLine
 62
7
  6
CONTINUOUS
 10
142.5534585294
 20
159.649616519
 11
142.5900106541
 21
159.7750786286
  0
LINE
  5
67A
100
AcDbEntity
  8
0
100
AcDbLine
 62
7
  6
CONTINUOUS
 10
142.5900106541
 20
159.7750786286
 11
142.6100784735
 21
159.8439328228
  0
LINE
  5
67B
100
AcDbEntity
  8
0
100
AcDbLine
 62
7
  6
CONTINUOUS
 10
142.6100784735
 20
159.8439328228
 11
143.0345805765
 21
160.3169837118
  0
LINE
  5
67C
100
AcDbEntity
  8
0
100
AcDbLine
 62
7
  6
CONTINUOUS
 10
143.0345805765
 20
160.3169837118
 11
143.5698617397
 21
160.5804241789
  0
LINE
  5
67D
100
AcDbEntity
  8
0
100
AcDbLine
 62
7
  6
CONTINUOUS
 10
144.2374389661
 20
160.8063616996
 11
143.5698617397
 21
160.5804241789
  0
SPLINE
  5
67E
100
AcDbEntity
  8
BEZUGSACHSEN
100
AcDbSpline
 62
7
  6
CONTINUOUS
 70
0
 71
3
 72
11
 73
7
 74
0
 42
0.0000001
 43
0.0000001
 44
0.0000000001
 40
0.0
 40
0.0
 40
0.0
 40
0.0
 40
0.2522377916
 40
0.5026204382
 40
0.7516616843
 40
1.0
 40
1.0
 40
1.0
 40
1.0
 10
133.8697734484
 20
155.5717144376
 30
0.0
 10
134.231745188
 20
155.0650245856
 30
0.0
 10
134.8780525097
 20
153.9991912011
 30
0.0
 10
135.5886132097
 20
152.2772272761
 30
0.0
 10
136.0216374608
 20
150.4752498649
 30
0.0
 10
136.1186382213
 20
149.245204916
 30
0.0
 10
136.1186382213
 20
148.6321293028
 30
0.0
  0
LINE
  5
67F
100
AcDbEntity
  8
KONSTRUKTIONSELEMENTE
100
AcDbLine
 62
7
  6
CONTINUOUS
 10
146.7510466864
 20
160.2678955142
 11
146.6495755069
 21
159.8188186008
  0
LINE
  5
680
100
AcDbEntity
  8
KONSTRUKTIONSELEMENTE
100
AcDbLine
 62
7
  6
CONTINUOUS
 10
146.6495755069
 20
159.8188186008
 11
146.4742516651
 21
159.5102602161
  0
LINE
  5
681
100
AcDbEntity
  8
KONSTRUKTIONSELEMENTE
100
AcDbLine
 62
7
  6
CONTINUOUS
 10
146.4742516651
 20
159.5102602161
 11
146.166633317
 21
159.2398220053
  0
LINE
  5
682
100
AcDbEntity
  8
KONSTRUKTIONSELEMENTE
100
AcDbLine
 62
7
  6
CONTINUOUS
 10
146.166633317
 20
159.2398220053
 11
145.9174548554
 21
159.0722615719
  0
LINE
  5
683
100
AcDbEntity
  8
KONSTRUKTIONSELEMENTE
100
AcDbLine
 62
7
  6
CONTINUOUS
 10
145.9174548554
 20
159.0722615719
 11
145.477542001
 21
158.8400779346
  0
LINE
  5
684
100
AcDbEntity
  8
KONSTRUKTIONSELEMENTE
100
AcDbLine
 62
7
  6
CONTINUOUS
 10
145.477542001
 20
158.8400779346
 11
144.6192284243
 21
158.5494860386
  0
LINE
  5
685
100
AcDbEntity
  8
KONSTRUKTIONSELEMENTE
100
AcDbLine
 62
7
  6
CONTINUOUS
 10
144.1054593932
 20
158.4588371941
 11
144.6192284243
 21
158.5494860386
  0
LINE
  5
686
100
AcDbEntity
  8
KONSTRUKTIONSELEMENTE
100
AcDbLine
 62
7
  6
CONTINUOUS
 10
143.7824285365
 20
158.4327436436
 11
144.1054593932
 21
158.4588371941
  0
LINE
  5
687
100
AcDbEntity
  8
KONSTRUKTIONSELEMENTE
100
AcDbLine
 62
7
  6
CONTINUOUS
 10
143.3271014162
 20
158.4450592053
 11
143.7824285365
 21
158.4327436436
  0
LINE
  5
688
100
AcDbEntity
  8
KONSTRUKTIONSELEMENTE
100
AcDbLine
 62
7
  6
CONTINUOUS
 10
142.9302161734
 20
158.5601566609
 11
143.3271014162
 21
158.4450592053
  0
LINE
  5
689
100
AcDbEntity
  8
KONSTRUKTIONSELEMENTE
100
AcDbLine
 62
7
  6
CONTINUOUS
 10
142.4594782767
 20
158.8158721398
 11
142.9302161734
 21
158.5601566609
  0
SPLINE
  5
68A
100
AcDbEntity
  8
RUNDUNGEN
100
AcDbSpline
 62
7
  6
CONTINUOUS
 70
0
 71
3
 72
9
 73
5
 74
0
 42
0.0000001
 43
0.0000001
 44
0.0000000001
 40
0.0
 40
0.0
 40
0.0
 40
0.0
 40
0.2536456115
 40
1.0
 40
1.0
 40
1.0
 40
1.0
 10
97.8164774057
 20
122.6932748577
 30
0.0
 10
97.8247616889
 20
122.6633962325
 30
0.0
 10
97.8537451896
 20
122.544614437
 30
0.0
 10
97.8674568278
 20
122.4220768543
 30
0.0
 10
97.8685404722
 20
122.3308483645
 30
0.0
  0
LINE
  5
68B
100
AcDbEntity
  8
KONSTRUKTIONSELEMENTE
100
AcDbLine
 62
7
  6
CONTINUOUS
 10
142.1425487255
 20
159.2054607678
 11
142.4594782767
 21
158.8158721398
  0
LINE
  5
68C
100
AcDbEntity
  8
KONSTRUKTIONSELEMENTE
100
AcDbLine
 62
7
  6
CONTINUOUS
 10
142.0163555414
 20
159.6582698828
 11
142.1425487255
 21
159.2054607678
  0
SPLINE
  5
68D
100
AcDbEntity
  8
KONSTRUKTIONSELEMENTE
100
AcDbSpline
 62
7
  6
CONTINUOUS
 70
0
 71
3
 72
9
 73
5
 74
0
 42
0.0000001
 43
0.0000001
 44
0.0000000001
 40
0.0
 40
0.0
 40
0.0
 40
0.0
 40
0.499451206
 40
1.0
 40
1.0
 40
1.0
 40
1.0
 10
108.6151329316
 20
108.9068581426
 30
0.0
 10
108.6151329316
 20
109.3370889437
 30
0.0
 10
108.5161144701
 20
110.2008297809
 30
0.0
 10
108.2473182812
 20
111.0241430364
 30
0.0
 10
108.083797926
 20
111.4231092884
 30
0.0
  0
LINE
  5
68E
100
AcDbEntity
  8
KONSTRUKTIONSELEMENTE
100
AcDbLine
 62
7
  6
CONTINUOUS
 10
140.8158528024
 20
161.3773268933
 11
141.0911642086
 21
160.9844631867
  0
SPLINE
  5
68F
100
AcDbEntity
  8
KONSTRUKTIONSELEMENTE
100
AcDbSpline
 62
7
  6
CONTINUOUS
 70
0
 71
3
 72
8
 73
4
 74
0
 42
0.0000001
 43
0.0000001
 44
0.0000000001
 40
0.0
 40
0.0
 40
0.0
 40
0.0
 40
1.0
 40
1.0
 40
1.0
 40
1.0
 10
143.382257618
 20
163.1453186705
 30
0.0
 10
143.6812560395
 20
163.1153245319
 30
0.0
 10
143.9802346043
 20
163.0851318965
 30
0.0
 10
144.279194642
 20
163.054757561
 30
0.0
  0
SPLINE
  5
690
100
AcDbEntity
  8
KONSTRUKTIONSELEMENTE
100
AcDbSpline
 62
7
  6
CONTINUOUS
 70
0
 71
3
 72
9
 73
5
 74
0
 42
0.0000001
 43
0.0000001
 44
0.0000000001
 40
0.0
 40
0.0
 40
0.0
 40
0.0
 40
0.500548794
 40
1.0
 40
1.0
 40
1.0
 40
1.0
 10
137.6534785165
 20
111.4231092884
 30
0.0
 10
137.4899581613
 20
111.0241430364
 30
0.0
 10
137.2211619724
 20
110.2008297809
 30
0.0
 10
137.1221435109
 20
109.3370889437
 30
0.0
 10
137.1221435109
 20
108.9068581426
 30
0.0
  0
LINE
  5
691
100
AcDbEntity
  8
KONSTRUKTIONSELEMENTE
100
AcDbLine
 62
7
  6
CONTINUOUS
 10
145.2649350414
 20
163.0061061868
 11
141.0911642086
 21
160.9844631867
  0
LINE
  5
692
100
AcDbEntity
  8
KONSTRUKTIONSELEMENTE
100
AcDbLine
 62
7
  6
CONTINUOUS
 10
137.920214785
 20
165.6219853172
 11
138.250286817
 21
165.8375513779
  0
LINE
  5
693
100
AcDbEntity
  8
KONSTRUKTIONSELEMENTE
100
AcDbLine
 62
7
  6
CONTINUOUS
 10
137.3944662863
 20
165.5543436399
 11
137.920214785
 21
165.6219853172
  0
LINE
  5
694
100
AcDbEntity
  8
KONSTRUKTIONSELEMENTE
100
AcDbLine
 62
7
  6
CONTINUOUS
 10
137.0011385499
 20
165.6186523031
 11
137.3944662863
 21
165.5543436399
  0
LINE
  5
695
100
AcDbEntity
  8
KONSTRUKTIONSELEMENTE
100
AcDbLine
 62
7
  6
CONTINUOUS
 10
136.6088011804
 20
165.7975801255
 11
137.0011385499
 21
165.6186523031
  0
LINE
  5
696
100
AcDbEntity
  8
KONSTRUKTIONSELEMENTE
100
AcDbLine
 62
7
  6
CONTINUOUS
 10
135.7618551095
 20
166.5453651925
 11
136.0217717109
 21
166.2365515373
  0
LINE
  5
697
100
AcDbEntity
  8
KONSTRUKTIONSELEMENTE
100
AcDbLine
 62
7
  6
CONTINUOUS
 10
135.6333778778
 20
166.8712423071
 11
135.7618551095
 21
166.5453651925
  0
SPLINE
  5
698
100
AcDbEntity
  8
KONSTRUKTIONSELEMENTE
100
AcDbSpline
 62
7
  6
CONTINUOUS
 70
0
 71
3
 72
9
 73
5
 74
0
 42
0.0000001
 43
0.0000001
 44
0.0000000001
 40
0.0
 40
0.0
 40
0.0
 40
0.0
 40
0.5013766228
 40
1.0
 40
1.0
 40
1.0
 40
1.0
 10
108.083797926
 20
114.1634446213
 30
0.0
 10
108.2469568362
 20
114.5457244921
 30
0.0
 10
108.515685188
 20
115.3350344864
 30
0.0
 10
108.6151329316
 20
116.1664369723
 30
0.0
 10
108.6151329316
 20
116.5797970747
 30
0.0
  0
SPLINE
  5
699
100
AcDbEntity
  8
KONSTRUKTIONSELEMENTE
100
AcDbSpline
 62
7
  6
CONTINUOUS
 70
0
 71
3
 72
9
 73
5
 74
0
 42
0.0000001
 43
0.0000001
 44
0.0000000001
 40
0.0
 40
0.0
 40
0.0
 40
0.0
 40
0.4986233772
 40
1.0
 40
1.0
 40
1.0
 40
1.0
 10
137.1221435109
 20
116.5797970747
 30
0.0
 10
137.1221435109
 20
116.1664369723
 30
0.0
 10
137.2215912545
 20
115.3350344864
 30
0.0
 10
137.4903196064
 20
114.5457244921
 30
0.0
 10
137.6534785165
 20
114.1634446213
 30
0.0
  0
LINE
  5
69A
100
AcDbEntity
  8
KONSTRUKTIONSELEMENTE
100
AcDbLine
 62
7
  6
CONTINUOUS
 10
140.1091533478
 20
168.2696554119
 11
140.1052068547
 21
167.8077948038
  0
LINE
  5
69B
100
AcDbEntity
  8
KONSTRUKTIONSELEMENTE
100
AcDbLine
 62
7
  6
CONTINUOUS
 10
140.1052068547
 20
167.8077948038
 11
139.8393718152
 21
167.4272982112
  0
SPLINE
  5
69C
100
AcDbEntity
  8
KONSTRUKTIONSELEMENTE
100
AcDbSpline
 62
7
  6
CONTINUOUS
 70
0
 71
3
 72
8
 73
4
 74
0
 42
0.0000001
 43
0.0000001
 44
0.0000000001
 40
0.0
 40
0.0
 40
0.0
 40
0.0
 40
1.0
 40
1.0
 40
1.0
 40
1.0
 10
139.4480188356
 20
167.7228049568
 30
0.0
 10
139.5785593377
 20
167.6244213611
 30
0.0
 10
139.7090102194
 20
167.5259187412
 30
0.0
 10
139.8393718152
 20
167.4272982112
 30
0.0
  0
SPLINE
  5
69D
100
AcDbEntity
  8
BEZUGSACHSEN
100
AcDbSpline
 62
7
  6
CONTINUOUS
 70
0
 71
3
 72
15
 73
11
 74
0
 42
0.0000001
 43
0.0000001
 44
0.0000000001
 40
0.0
 40
0.0
 40
0.0
 40
0.0
 40
0.1213984729
 40
0.2449249801
 40
0.3714323559
 40
0.5
 40
0.6285676441
 40
0.7550750199
 40
0.8786015271
 40
1.0
 40
1.0
 40
1.0
 40
1.0
 10
143.0686382213
 20
116.5797970747
 30
0.0
 10
143.0686382213
 20
116.8861303524
 30
0.0
 10
142.9354564353
 20
117.5114646633
 30
0.0
 10
142.3735740257
 20
118.2921402914
 30
0.0
 10
141.542281756
 20
118.8092044356
 30
0.0
 10
140.5686382213
 20
118.9894246387
 30
0.0
 10
139.5949946865
 20
118.8092044356
 30
0.0
 10
138.7637024169
 20
118.2921402914
 30
0.0
 10
138.2018200072
 20
117.5114646633
 30
0.0
 10
138.0686382213
 20
116.8861303524
 30
0.0
 10
138.0686382213
 20
116.5797970747
 30
0.0
  0
LINE
  5
69E
100
AcDbEntity
  8
0
100
AcDbLine
 62
7
  6
CONTINUOUS
 10
102.8331231917
 20
161.7944261208
 11
102.7291843856
 21
161.6500899584
  0
LINE
  5
69F
100
AcDbEntity
  8
KONSTRUKTIONSELEMENTE
100
AcDbLine
 62
7
  6
CONTINUOUS
 10
139.5181773852
 20
168.2502759369
 11
139.5814301329
 21
167.9706125733
  0
LINE
  5
6A0
100
AcDbEntity
  8
KONSTRUKTIONSELEMENTE
100
AcDbLine
 62
7
  6
CONTINUOUS
 10
139.3234882651
 20
168.5123558046
 11
139.5181773852
 21
168.2502759369
  0
LINE
  5
6A1
100
AcDbEntity
  8
KONSTRUKTIONSELEMENTE
100
AcDbLine
 62
7
  6
CONTINUOUS
 10
138.4093429475
 20
169.0793421709
 11
138.7364587955
 21
168.9512717808
  0
LINE
  5
6A2
100
AcDbEntity
  8
KONSTRUKTIONSELEMENTE
100
AcDbLine
 62
7
  6
CONTINUOUS
 10
138.0812427155
 20
169.0922957675
 11
138.4093429475
 21
169.0793421709
  0
LINE
  5
6A3
100
AcDbEntity
  8
KONSTRUKTIONSELEMENTE
100
AcDbLine
 62
7
  6
CONTINUOUS
 10
137.7521579141
 20
168.990397798
 11
138.0812427155
 21
169.0922957675
  0
LINE
  5
6A4
100
AcDbEntity
  8
KONSTRUKTIONSELEMENTE
100
AcDbLine
 62
7
  6
CONTINUOUS
 10
137.4220829427
 20
168.7738372137
 11
137.7521579141
 21
168.990397798
  0
LINE
  5
6A5
100
AcDbEntity
  8
KONSTRUKTIONSELEMENTE
100
AcDbLine
 62
7
  6
CONTINUOUS
 10
136.428904784
 20
167.780462536
 11
137.4220829427
 21
168.7738372137
  0
LINE
  5
6A6
100
AcDbEntity
  8
KONSTRUKTIONSELEMENTE
100
AcDbLine
 62
7
  6
CONTINUOUS
 10
136.428904784
 20
167.780462536
 11
136.2292847869
 21
167.467266247
  0
LINE
  5
6A7
100
AcDbEntity
  8
KONSTRUKTIONSELEMENTE
100
AcDbLine
 62
7
  6
CONTINUOUS
 10
136.2292847869
 20
167.467266247
 11
136.1610981764
 21
167.171921815
  0
SPLINE
  5
6A8
100
AcDbEntity
  8
0
100
AcDbSpline
 62
7
  6
CONTINUOUS
 70
0
 71
3
 72
8
 73
4
 74
0
 42
0.0000001
 43
0.0000001
 44
0.0000000001
 40
0.0
 40
0.0
 40
0.0
 40
0.0
 40
1.0
 40
1.0
 40
1.0
 40
1.0
 10
105.652874845
 20
162.2088162965
 30
0.0
 10
104.9122206732
 20
162.3466813992
 30
0.0
 10
104.1714738502
 20
162.4840492457
 30
0.0
 10
103.4306586992
 20
162.6210466944
 30
0.0
  0
SPLINE
  5
6A9
100
AcDbEntity
  8
0
100
AcDbSpline
 62
7
  6
CONTINUOUS
 70
0
 71
3
 72
8
 73
4
 74
0
 42
0.0000001
 43
0.0000001
 44
0.0000000001
 40
0.0
 40
0.0
 40
0.0
 40
0.0
 40
1.0
 40
1.0
 40
1.0
 40
1.0
 10
105.9809207229
 20
162.6581227601
 30
0.0
 10
105.8714307597
 20
162.5084572338
 30
0.0
 10
105.7620821721
 20
162.3586881802
 30
0.0
 10
105.652874845
 20
162.2088162965
 30
0.0
  0
SPLINE
  5
6AA
100
AcDbEntity
  8
BEZUGSACHSEN
100
AcDbSpline
 62
7
  6
CONTINUOUS
 70
0
 71
3
 72
15
 73
11
 74
0
 42
0.0000001
 43
0.0000001
 44
0.0000000001
 40
0.0
 40
0.0
 40
0.0
 40
0.0
 40
0.1215431162
 40
0.2453390972
 40
0.3718042613
 40
0.5
 40
0.6281957387
 40
0.7546609028
 40
0.8784568838
 40
1.0
 40
1.0
 40
1.0
 40
1.0
 10
143.042578958
 20
116.5754455419
 30
0.0
 10
142.9998316283
 20
116.8518977175
 30
0.0
 10
142.8043492754
 20
117.3984333925
 30
0.0
 10
142.2317015325
 20
118.0583104411
 30
0.0
 10
141.4539744474
 20
118.488090273
 30
0.0
 10
140.5686382213
 20
118.6367427273
 30
0.0
 10
139.6833019952
 20
118.488090273
 30
0.0
 10
138.90557491
 20
118.0583104411
 30
0.0
 10
138.3329271671
 20
117.3984333925
 30
0.0
 10
138.1374448143
 20
116.8518977175
 30
0.0
 10
138.0946974845
 20
116.5754455419
 30
0.0
  0
LINE
  5
6AB
100
AcDbEntity
  8
KONSTRUKTIONSELEMENTE
100
AcDbLine
 62
7
  6
CONTINUOUS
 10
139.2434649757
 20
166.8311595151
 11
138.250286817
 21
165.8375513779
  0
LINE
  5
6AC
100
AcDbEntity
  8
0
100
AcDbLine
 62
7
  6
CONTINUOUS
 10
100.0656524235
 20
162.2754782887
 11
104.2001006835
 21
160.1975527017
  0
LINE
  5
6AD
100
AcDbEntity
  8
0
100
AcDbLine
 62
7
  6
CONTINUOUS
 10
104.4812827879
 20
160.5895641553
 11
104.2001006835
 21
160.1975527017
  0
SPLINE
  5
6AE
100
AcDbEntity
  8
KONSTRUKTIONSELEMENTE
100
AcDbSpline
 62
7
  6
CONTINUOUS
 70
0
 71
3
 72
12
 73
8
 74
0
 42
0.0000001
 43
0.0000001
 44
0.0000000001
 40
0.0
 40
0.0
 40
0.0
 40
0.0
 40
0.1307698245
 40
0.2579668759
 40
0.5051016078
 40
0.7510327975
 40
1.0
 40
1.0
 40
1.0
 40
1.0
 10
108.6151329316
 20
122.8383886466
 30
0.0
 10
108.6151329316
 20
122.9624222005
 30
0.0
 10
108.6394379268
 20
123.2079138837
 30
0.0
 10
108.7826625541
 20
123.668107452
 30
0.0
 10
109.1155094485
 20
124.1681680179
 30
0.0
 10
109.657996637
 20
124.6252780043
 30
0.0
 10
110.0690610788
 20
124.856366696
 30
0.0
 10
110.2819692769
 20
124.9585101456
 30
0.0
  0
LINE
  5
6AF
100
AcDbEntity
  8
KONSTRUKTIONSELEMENTE
100
AcDbLine
 62
7
  6
CONTINUOUS
 10
135.7366522223
 20
170.8502382822
 11
135.7831598077
 21
170.6234971053
  0
LINE
  5
6B0
100
AcDbEntity
  8
KONSTRUKTIONSELEMENTE
100
AcDbLine
 62
7
  6
CONTINUOUS
 10
135.5664662259
 20
171.0379058865
 11
135.7366522223
 21
170.8502382822
  0
LINE
  5
6B1
100
AcDbEntity
  8
KONSTRUKTIONSELEMENTE
100
AcDbLine
 62
7
  6
CONTINUOUS
 10
133.8686382817
 20
171.2804698773
 11
134.1706060866
 21
171.7381639051
  0
LINE
  5
6B2
100
AcDbEntity
  8
0
100
AcDbLine
 62
7
  6
CONTINUOUS
 10
101.9056373754
 20
163.8275367398
 11
101.6770793494
 21
163.6781514346
  0
LINE
  5
6B3
100
AcDbEntity
  8
0
100
AcDbLine
 62
7
  6
CONTINUOUS
 10
102.1752987358
 20
163.8680485264
 11
101.9056373754
 21
163.8275367398
  0
LINE
  5
6B4
100
AcDbEntity
  8
0
100
AcDbLine
 62
7
  6
CONTINUOUS
 10
102.4860632965
 20
163.7998662367
 11
102.1752987358
 21
163.8680485264
  0
LINE
  5
6B5
100
AcDbEntity
  8
0
100
AcDbLine
 62
7
  6
CONTINUOUS
 10
102.7499644642
 20
163.6672832785
 11
102.4860632965
 21
163.7998662367
  0
LINE
  5
6B6
100
AcDbEntity
  8
0
100
AcDbLine
 62
7
  6
CONTINUOUS
 10
102.7499644642
 20
163.6672832785
 11
102.9670017462
 21
163.4703134989
  0
LINE
  5
6B7
100
AcDbEntity
  8
0
100
AcDbLine
 62
7
  6
CONTINUOUS
 10
102.9670017462
 20
163.4703134989
 11
103.0082119058
 21
163.3614212943
  0
LINE
  5
6B8
100
AcDbEntity
  8
0
100
AcDbLine
 62
7
  6
CONTINUOUS
 10
103.0082119058
 20
163.3614212943
 11
103.0240488107
 21
163.3195666564
  0
LINE
  5
6B9
100
AcDbEntity
  8
KONSTRUKTIONSELEMENTE
100
AcDbLine
 62
7
  6
CONTINUOUS
 10
136.2239581004
 20
170.3991581911
 11
136.1467839117
 21
170.1333070479
  0
LINE
  5
6BA
100
AcDbEntity
  8
KONSTRUKTIONSELEMENTE
100
AcDbLine
 62
7
  6
CONTINUOUS
 10
136.1467839117
 20
170.1333070479
 11
135.9459311712
 21
169.8288308753
  0
LINE
  5
6BB
100
AcDbEntity
  8
KONSTRUKTIONSELEMENTE
100
AcDbLine
 62
7
  6
CONTINUOUS
 10
135.7218264602
 20
169.6379910727
 11
135.9459311712
 21
169.8288308753
  0
LINE
  5
6BC
100
AcDbEntity
  8
KONSTRUKTIONSELEMENTE
100
AcDbLine
 62
7
  6
CONTINUOUS
 10
135.3005747141
 20
169.4459138846
 11
135.7218264602
 21
169.6379910727
  0
LINE
  5
6BD
100
AcDbEntity
  8
KONSTRUKTIONSELEMENTE
100
AcDbLine
 62
7
  6
CONTINUOUS
 10
134.9062840067
 20
169.443109087
 11
135.3005747141
 21
169.4459138846
  0
SPLINE
  5
6BE
100
AcDbEntity
  8
KONSTRUKTIONSELEMENTE
100
AcDbSpline
 62
7
  6
CONTINUOUS
 70
0
 71
3
 72
9
 73
5
 74
0
 42
0.0000001
 43
0.0000001
 44
0.0000000001
 40
0.0
 40
0.0
 40
0.0
 40
0.0
 40
0.7497118906
 40
1.0
 40
1.0
 40
1.0
 40
1.0
 10
134.9062840067
 20
169.443109087
 30
0.0
 10
134.7828027337
 20
168.9213726831
 30
0.0
 10
134.6181893182
 20
168.2254351345
 30
0.0
 10
134.4537304347
 20
167.5294610657
 30
0.0
 10
134.4125788563
 20
167.3552645455
 30
0.0
  0
LINE
  5
6BF
100
AcDbEntity
  8
0
100
AcDbLine
 62
7
  6
CONTINUOUS
 10
106.9357577038
 20
165.7550385576
 11
104.571995979
 21
167.5433168193
  0
LINE
  5
6C0
100
AcDbEntity
  8
0
100
AcDbLine
 62
7
  6
CONTINUOUS
 10
106.9357577038
 20
165.7550385576
 11
107.1826485163
 21
165.4685554362
  0
LINE
  5
6C1
100
AcDbEntity
  8
0
100
AcDbLine
 62
7
  6
CONTINUOUS
 10
107.1826485163
 20
165.4685554362
 11
107.2671789933
 21
165.2547693445
  0
LINE
  5
6C2
100
AcDbEntity
  8
KONSTRUKTIONSELEMENTE
100
AcDbLine
 62
7
  6
CONTINUOUS
 10
110.5503126207
 20
167.8085869381
 11
110.5002226958
 21
168.1067334112
  0
LINE
  5
6C3
100
AcDbEntity
  8
KONSTRUKTIONSELEMENTE
100
AcDbLine
 62
7
  6
CONTINUOUS
 10
110.5002226958
 20
168.1067334112
 11
110.3204647571
 21
168.4289996671
  0
LINE
  5
6C4
100
AcDbEntity
  8
KONSTRUKTIONSELEMENTE
100
AcDbLine
 62
7
  6
CONTINUOUS
 10
109.3921891397
 20
169.4683995848
 11
110.3204647571
 21
168.4289996671
  0
LINE
  5
6C5
100
AcDbEntity
  8
KONSTRUKTIONSELEMENTE
100
AcDbLine
 62
7
  6
CONTINUOUS
 10
109.0768667954
 20
169.7004353732
 11
109.3921891397
 21
169.4683995848
  0
LINE
  5
6C6
100
AcDbEntity
  8
KONSTRUKTIONSELEMENTE
100
AcDbLine
 62
7
  6
CONTINUOUS
 10
108.7556463347
 20
169.8179368281
 11
109.0768667954
 21
169.7004353732
  0
LINE
  5
6C7
100
AcDbEntity
  8
KONSTRUKTIONSELEMENTE
100
AcDbLine
 62
7
  6
CONTINUOUS
 10
108.4285288799
 20
169.8207198439
 11
108.7556463347
 21
169.8179368281
  0
LINE
  5
6C8
100
AcDbEntity
  8
KONSTRUKTIONSELEMENTE
100
AcDbLine
 62
7
  6
CONTINUOUS
 10
108.0955142577
 20
169.7085194722
 11
108.4285288799
 21
169.8207198439
  0
SPLINE
  5
6C9
100
AcDbEntity
  8
KONSTRUKTIONSELEMENTE
100
AcDbSpline
 62
7
  6
CONTINUOUS
 70
0
 71
3
 72
12
 73
8
 74
0
 42
0.0000001
 43
0.0000001
 44
0.0000000001
 40
0.0
 40
0.0
 40
0.0
 40
0.0
 40
0.2489697923
 40
0.4949035878
 40
0.7420377042
 40
0.8692321984
 40
1.0
 40
1.0
 40
1.0
 40
1.0
 10
135.4553071656
 20
124.9585101456
 30
0.0
 10
135.6682175615
 20
124.8563656417
 30
0.0
 10
136.0792862014
 20
124.6252743191
 30
0.0
 10
136.621775244
 20
124.1681593674
 30
0.0
 10
136.9546181534
 20
123.6680968506
 30
0.0
 10
137.0978392127
 20
123.2079075583
 30
0.0
 10
137.1221435109
 20
122.9624202719
 30
0.0
 10
137.1221435109
 20
122.8383886466
 30
0.0
  0
LINE
  5
6CA
100
AcDbEntity
  8
0
100
AcDbLine
 62
7
  6
CONTINUOUS
 10
102.8286793652
 20
165.8568319546
 11
105.1924410901
 21
164.0681760153
  0
LINE
  5
6CB
100
AcDbEntity
  8
0
100
AcDbLine
 62
7
  6
CONTINUOUS
 10
105.6318035886
 20
163.8363972228
 11
105.1924410901
 21
164.0681760153
  0
LINE
  5
6CC
100
AcDbEntity
  8
0
100
AcDbLine
 62
7
  6
CONTINUOUS
 10
106.0530262654
 20
163.7189779051
 11
105.6318035886
 21
163.8363972228
  0
LINE
  5
6CD
100
AcDbEntity
  8
KONSTRUKTIONSELEMENTE
100
AcDbLine
 62
7
  6
CONTINUOUS
 10
111.0571880792
 20
167.4830936671
 11
111.0807775028
 21
167.9403652174
  0
LINE
  5
6CE
100
AcDbEntity
  8
KONSTRUKTIONSELEMENTE
100
AcDbLine
 62
7
  6
CONTINUOUS
 10
110.9098285794
 20
167.1638913586
 11
111.0571880792
 21
167.4830936671
  0
LINE
  5
6CF
100
AcDbEntity
  8
KONSTRUKTIONSELEMENTE
100
AcDbLine
 62
7
  6
CONTINUOUS
 10
110.632801055
 20
166.8680261482
 11
110.9098285794
 21
167.1638913586
  0
LINE
  5
6D0
100
AcDbEntity
  8
0
100
AcDbLine
 62
7
  6
CONTINUOUS
 10
106.590469735
 20
163.7145729354
 11
106.0530262654
 21
163.7189779051
  0
LINE
  5
6D1
100
AcDbEntity
  8
KONSTRUKTIONSELEMENTE
100
AcDbLine
 62
7
  6
CONTINUOUS
 10
109.0060219827
 20
165.7677474956
 11
106.0974249732
 21
169.0252397986
  0
LINE
  5
6D2
100
AcDbEntity
  8
0
100
AcDbLine
 62
7
  6
CONTINUOUS
 10
106.9754127946
 20
163.8250156768
 11
106.590469735
 21
163.7145729354
  0
LINE
  5
6D3
100
AcDbEntity
  8
0
100
AcDbLine
 62
7
  6
CONTINUOUS
 10
107.3422157996
 20
164.048793093
 11
106.9754127946
 21
163.8250156768
  0
LINE
  5
6D4
100
AcDbEntity
  8
0
100
AcDbLine
 62
7
  6
CONTINUOUS
 10
107.5746581035
 20
164.2733025389
 11
107.3422157996
 21
164.048793093
  0
LINE
  5
6D5
100
AcDbEntity
  8
0
100
AcDbLine
 62
7
  6
CONTINUOUS
 10
107.7889603593
 20
164.6107982556
 11
107.5746581035
 21
164.2733025389
  0
LINE
  5
6D6
100
AcDbEntity
  8
0
100
AcDbLine
 62
7
  6
CONTINUOUS
 10
107.8689019073
 20
164.9493744059
 11
107.7889603593
 21
164.6107982556
  0
SPLINE
  5
6D7
100
AcDbEntity
  8
KONSTRUKTIONSELEMENTE
100
AcDbSpline
 62
7
  6
CONTINUOUS
 70
0
 71
3
 72
11
 73
7
 74
0
 42
0.0000001
 43
0.0000001
 44
0.0000000001
 40
0.0
 40
0.0
 40
0.0
 40
0.0
 40
0.2512417393
 40
0.5046752723
 40
0.7555964423
 40
1.0
 40
1.0
 40
1.0
 40
1.0
 10
108.083797926
 20
111.4231092884
 30
0.0
 10
107.9945704722
 20
111.6408114993
 30
0.0
 10
107.8554618945
 20
112.0959547367
 30
0.0
 10
107.7833925697
 20
112.8044783006
 30
0.0
 10
107.8541166466
 20
113.5068369349
 30
0.0
 10
107.9939541373
 20
113.9529414258
 30
0.0
 10
108.083797926
 20
114.1634446213
 30
0.0
  0
LINE
  5
6D8
100
AcDbEntity
  8
KONSTRUKTIONSELEMENTE
100
AcDbLine
 62
7
  6
CONTINUOUS
 10
107.7889603593
 20
164.7909177949
 11
107.8689019073
 21
165.1294939453
  0
LINE
  5
6D9
100
AcDbEntity
  8
KONSTRUKTIONSELEMENTE
100
AcDbLine
 62
7
  6
CONTINUOUS
 10
107.5746581035
 20
164.4534220782
 11
107.7889603593
 21
164.7909177949
  0
LINE
  5
6DA
100
AcDbEntity
  8
KONSTRUKTIONSELEMENTE
100
AcDbLine
 62
7
  6
CONTINUOUS
 10
107.3422157996
 20
164.2289126323
 11
107.5746581035
 21
164.4534220782
  0
LINE
  5
6DB
100
AcDbEntity
  8
KONSTRUKTIONSELEMENTE
100
AcDbLine
 62
7
  6
CONTINUOUS
 10
106.9754127946
 20
164.0051352161
 11
107.3422157996
 21
164.2289126323
  0
SPLINE
  5
6DC
100
AcDbEntity
  8
KONSTRUKTIONSELEMENTE
100
AcDbSpline
 62
7
  6
CONTINUOUS
 70
0
 71
3
 72
8
 73
4
 74
0
 42
0.0000001
 43
0.0000001
 44
0.0000000001
 40
0.0
 40
0.0
 40
0.0
 40
0.0
 40
1.0
 40
1.0
 40
1.0
 40
1.0
 10
103.4306586992
 20
162.8011662338
 30
0.0
 10
104.1714738502
 20
162.6641687851
 30
0.0
 10
104.9122206732
 20
162.5268009386
 30
0.0
 10
105.652874845
 20
162.3889358358
 30
0.0
  0
SPLINE
  5
6DD
100
AcDbEntity
  8
KONSTRUKTIONSELEMENTE
100
AcDbSpline
 62
7
  6
CONTINUOUS
 70
0
 71
3
 72
8
 73
4
 74
0
 42
0.0000001
 43
0.0000001
 44
0.0000000001
 40
0.0
 40
0.0
 40
0.0
 40
0.0
 40
1.0
 40
1.0
 40
1.0
 40
1.0
 10
105.652874845
 20
162.3889358358
 30
0.0
 10
105.7620821721
 20
162.5388077195
 30
0.0
 10
105.8714307597
 20
162.6885767732
 30
0.0
 10
105.9809207229
 20
162.8382422994
 30
0.0
  0
LINE
  5
6DE
100
AcDbEntity
  8
0
100
AcDbLine
 62
7
  6
CONTINUOUS
 10
106.0974249732
 20
168.8451202593
 11
109.0060219827
 21
165.5876279563
  0
LINE
  5
6DF
100
AcDbEntity
  8
KONSTRUKTIONSELEMENTE
100
AcDbLine
 62
7
  6
CONTINUOUS
 10
103.5359069232
 20
163.2766721149
 11
103.5474276672
 21
163.6225041798
  0
LINE
  5
6E0
100
AcDbEntity
  8
KONSTRUKTIONSELEMENTE
100
AcDbLine
 62
7
  6
CONTINUOUS
 10
106.590469735
 20
163.8946924748
 11
106.9754127946
 21
164.0051352161
  0
LINE
  5
6E1
100
AcDbEntity
  8
0
100
AcDbLine
 62
7
  6
CONTINUOUS
 10
110.9098285794
 20
166.9837718193
 11
110.632801055
 21
166.6879066089
  0
LINE
  5
6E2
100
AcDbEntity
  8
0
100
AcDbLine
 62
7
  6
CONTINUOUS
 10
111.0571880792
 20
167.3029741277
 11
110.9098285794
 21
166.9837718193
  0
LINE
  5
6E3
100
AcDbEntity
  8
0
100
AcDbLine
 62
7
  6
CONTINUOUS
 10
111.0807775028
 20
167.7602456781
 11
111.0571880792
 21
167.3029741277
  0
LINE
  5
6E4
100
AcDbEntity
  8
KONSTRUKTIONSELEMENTE
100
AcDbLine
 62
7
  6
CONTINUOUS
 10
106.0530262654
 20
163.8990974445
 11
106.590469735
 21
163.8946924748
  0
LINE
  5
6E5
100
AcDbEntity
  8
KONSTRUKTIONSELEMENTE
100
AcDbLine
 62
7
  6
CONTINUOUS
 10
105.6318035886
 20
164.0165167621
 11
106.0530262654
 21
163.8990974445
  0
LINE
  5
6E6
100
AcDbEntity
  8
KONSTRUKTIONSELEMENTE
100
AcDbLine
 62
7
  6
CONTINUOUS
 10
105.1924410901
 20
164.2482955547
 11
105.6318035886
 21
164.0165167621
  0
LINE
  5
6E7
100
AcDbEntity
  8
KONSTRUKTIONSELEMENTE
100
AcDbLine
 62
7
  6
CONTINUOUS
 10
104.2001006835
 20
160.3776722411
 11
100.0656524235
 21
162.4555978281
  0
SPLINE
  5
6E8
100
AcDbEntity
  8
KONSTRUKTIONSELEMENTE
100
AcDbSpline
 62
7
  6
CONTINUOUS
 70
0
 71
3
 72
11
 73
7
 74
0
 42
0.0000001
 43
0.0000001
 44
0.0000000001
 40
0.0
 40
0.0
 40
0.0
 40
0.0
 40
0.2444035577
 40
0.4953247277
 40
0.7487582607
 40
1.0
 40
1.0
 40
1.0
 40
1.0
 10
137.6534785165
 20
114.1634446213
 30
0.0
 10
137.7433223052
 20
113.9529414258
 30
0.0
 10
137.883159796
 20
113.5068369349
 30
0.0
 10
137.9538838728
 20
112.8044783006
 30
0.0
 10
137.881814548
 20
112.0959547367
 30
0.0
 10
137.7427059704
 20
111.6408114993
 30
0.0
 10
137.6534785165
 20
111.4231092884
 30
0.0
  0
LINE
  5
6E9
100
AcDbEntity
  8
KONSTRUKTIONSELEMENTE
100
AcDbLine
 62
7
  6
CONTINUOUS
 10
104.2001006835
 20
160.3776722411
 11
104.4812827879
 21
160.7696836946
  0
LINE
  5
6EA
100
AcDbEntity
  8
0
100
AcDbLine
 62
7
  6
CONTINUOUS
 10
108.4285288799
 20
169.6406003046
 11
108.0955142577
 21
169.5283999328
  0
LINE
  5
6EB
100
AcDbEntity
  8
0
100
AcDbLine
 62
7
  6
CONTINUOUS
 10
108.7556463347
 20
169.6378172887
 11
108.4285288799
 21
169.6406003046
  0
LINE
  5
6EC
100
AcDbEntity
  8
KONSTRUKTIONSELEMENTE
100
AcDbLine
 62
7
  6
CONTINUOUS
 10
105.1924410901
 20
164.2482955547
 11
102.8286793652
 21
166.036951494
  0
LINE
  5
6ED
100
AcDbEntity
  8
0
100
AcDbLine
 62
7
  6
CONTINUOUS
 10
109.0768667954
 20
169.5203158339
 11
108.7556463347
 21
169.6378172887
  0
LINE
  5
6EE
100
AcDbEntity
  8
0
100
AcDbLine
 62
7
  6
CONTINUOUS
 10
109.3921891397
 20
169.2882800455
 11
109.0768667954
 21
169.5203158339
  0
LINE
  5
6EF
100
AcDbEntity
  8
0
100
AcDbLine
 62
7
  6
CONTINUOUS
 10
110.3204647571
 20
168.2488801278
 11
109.3921891397
 21
169.2882800455
  0
LINE
  5
6F0
100
AcDbEntity
  8
KONSTRUKTIONSELEMENTE
100
AcDbLine
 62
7
  6
CONTINUOUS
 10
101.6770793494
 20
163.8582709739
 11
101.9056373754
 21
164.0076562792
  0
LINE
  5
6F1
100
AcDbEntity
  8
KONSTRUKTIONSELEMENTE
100
AcDbLine
 62
7
  6
CONTINUOUS
 10
101.9056373754
 20
164.0076562792
 11
102.1752987358
 21
164.0481680657
  0
LINE
  5
6F2
100
AcDbEntity
  8
KONSTRUKTIONSELEMENTE
100
AcDbLine
 62
7
  6
CONTINUOUS
 10
102.1752987358
 20
164.0481680657
 11
102.4860632965
 21
163.979985776
  0
LINE
  5
6F3
100
AcDbEntity
  8
KONSTRUKTIONSELEMENTE
100
AcDbLine
 62
7
  6
CONTINUOUS
 10
102.4860632965
 20
163.979985776
 11
102.7499644642
 21
163.8474028178
  0
LINE
  5
6F4
100
AcDbEntity
  8
KONSTRUKTIONSELEMENTE
100
AcDbLine
 62
7
  6
CONTINUOUS
 10
102.9670017462
 20
163.6504330382
 11
102.7499644642
 21
163.8474028178
  0
LINE
  5
6F5
100
AcDbEntity
  8
KONSTRUKTIONSELEMENTE
100
AcDbLine
 62
7
  6
CONTINUOUS
 10
103.0492082809
 20
163.4331844057
 11
102.9670017462
 21
163.6504330382
  0
LINE
  5
6F6
100
AcDbEntity
  8
0
100
AcDbLine
 62
7
  6
CONTINUOUS
 10
110.3204647571
 20
168.2488801278
 11
110.5002226958
 21
167.9266138718
  0
LINE
  5
6F7
100
AcDbEntity
  8
0
100
AcDbLine
 62
7
  6
CONTINUOUS
 10
110.5002226958
 20
167.9266138718
 11
110.5311459949
 21
167.7425651882
  0
SPLINE
  5
6F8
100
AcDbEntity
  8
KONSTRUKTIONSELEMENTE
100
AcDbSpline
 62
7
  6
CONTINUOUS
 70
0
 71
3
 72
15
 73
11
 74
0
 42
0.0000001
 43
0.0000001
 44
0.0000000001
 40
0.0
 40
0.0
 40
0.0
 40
0.0
 40
0.1224762884
 40
0.2468931748
 40
0.372976282
 40
0.5
 40
0.627023718
 40
0.7531068252
 40
0.8775237116
 40
1.0
 40
1.0
 40
1.0
 40
1.0
 10
127.6785100937
 20
130.4985883129
 30
0.0
 10
127.4303807361
 20
130.8896326689
 30
0.0
 10
126.8214743788
 20
131.6139603057
 30
0.0
 10
125.6568118699
 20
132.4346005371
 30
0.0
 10
124.30957047
 20
132.949299613
 30
0.0
 10
122.8686382213
 20
133.1243812527
 30
0.0
 10
121.4277059726
 20
132.949299613
 30
0.0
 10
120.0804645726
 20
132.4346005371
 30
0.0
 10
118.9158020638
 20
131.6139603057
 30
0.0
 10
118.3068957065
 20
130.8896326689
 30
0.0
 10
118.0587663488
 20
130.4985883129
 30
0.0
  0
LINE
  5
6F9
100
AcDbEntity
  8
KONSTRUKTIONSELEMENTE
100
AcDbLine
 62
7
  6
CONTINUOUS
 10
104.571995979
 20
167.7234363587
 11
106.9357577038
 21
165.935158097
  0
LINE
  5
6FA
100
AcDbEntity
  8
0
100
AcDbLine
 62
7
  6
CONTINUOUS
 10
134.325596419
 20
169.3538588846
 11
134.2926723905
 21
169.3704712615
  0
LINE
  5
6FB
100
AcDbEntity
  8
KONSTRUKTIONSELEMENTE
100
AcDbLine
 62
7
  6
CONTINUOUS
 10
107.1826485163
 20
165.6486749755
 11
106.9357577038
 21
165.935158097
  0
LINE
  5
6FC
100
AcDbEntity
  8
KONSTRUKTIONSELEMENTE
100
AcDbLine
 62
7
  6
CONTINUOUS
 10
107.2951786343
 20
165.3640600164
 11
107.1826485163
 21
165.6486749755
  0
SPLINE
  5
6FD
100
AcDbEntity
  8
0
100
AcDbSpline
 62
7
  6
CONTINUOUS
 70
0
 71
3
 72
9
 73
5
 74
0
 42
0.0000001
 43
0.0000001
 44
0.0000000001
 40
0.0
 40
0.0
 40
0.0
 40
0.0
 40
0.250288109
 40
1.0
 40
1.0
 40
1.0
 40
1.0
 10
134.4125788563
 20
167.1751450061
 30
0.0
 10
134.4537304347
 20
167.3493415261
 30
0.0
 10
134.6181893183
 20
168.0453155948
 30
0.0
 10
134.7828027336
 20
168.7412531435
 30
0.0
 10
134.9062840067
 20
169.2629895477
 30
0.0
  0
LINE
  5
6FE
100
AcDbEntity
  8
0
100
AcDbLine
 62
7
  6
CONTINUOUS
 10
135.3005747141
 20
169.2657943453
 11
134.9062840067
 21
169.2629895477
  0
ELLIPSE
  5
6FF
100
AcDbEntity
  8
RUNDUNGEN
100
AcDbEllipse
 62
7
  6
CONTINUOUS
 10
481.4785447822
 20
130.3631242165
 30
0.0
 11
-2.2816976414
 21
7.7049067952
 31
0.0
 40
0.2488636556
 41
-4.3827759479
 42
-3.4259921791
  0
ELLIPSE
  5
700
100
AcDbEntity
  8
BEZUGSACHSEN
100
AcDbEllipse
 62
7
  6
CONTINUOUS
 10
472.6514131261
 20
127.1503110397
 30
0.0
 11
-3.2047368227
 21
7.3689480082
 31
0.0
 40
0.2488636556
 41
-2.857193128
 42
-1.9004093593
  0
ELLIPSE
  5
701
100
AcDbEntity
  8
RUNDUNGEN
100
AcDbEllipse
 62
7
  6
CONTINUOUS
 10
418.7175668498
 20
130.3631242165
 30
0.0
 11
2.2816976414
 21
7.7049067952
 31
0.0
 40
0.2488636556
 41
-2.857193128
 42
-1.9004093593
  0
ELLIPSE
  5
702
100
AcDbEntity
  8
BEZUGSACHSEN
100
AcDbEllipse
 62
7
  6
CONTINUOUS
 10
427.5446985059
 20
127.1503110397
 30
0.0
 11
3.2047368227
 21
7.3689480082
 31
0.0
 40
0.2488636556
 41
-4.3827759479
 42
-3.4259921791
  0
ELLIPSE
  5
703
100
AcDbEntity
  8
KONSTRUKTIONSELEMENTE
100
AcDbEllipse
 62
7
  6
CONTINUOUS
 10
91.6144753854
 20
104.9405303953
 30
0.0
 11
1.6119940473
 21
-0.4004925169
 31
0.0
 40
0.576671595
 41
0.7252988105
 42
2.2960951373
  0
ELLIPSE
  5
704
100
AcDbEntity
  8
BEZUGSACHSEN
100
AcDbEllipse
 62
7
  6
CONTINUOUS
 10
95.8686382213
 20
127.1503110397
 30
0.0
 11
-1.9925536887
 21
7.4118364928
 31
0.0
 40
0.0232632371
 41
-2.7556364713
 42
-1.7988527025
  0
ELLIPSE
  5
705
100
AcDbEntity
  8
BEZUGSACHSEN
100
AcDbEllipse
 62
7
  6
CONTINUOUS
 10
149.8686382213
 20
127.1503110397
 30
0.0
 11
1.9925536887
 21
7.4118364928
 31
0.0
 40
0.0232632371
 41
-4.4843326047
 42
-3.5275488359
  0
ELLIPSE
  5
706
100
AcDbEntity
  8
KONSTRUKTIONSELEMENTE
100
AcDbEllipse
 62
7
  6
CONTINUOUS
 10
122.8686382213
 20
81.5986714385
 30
0.0
 11
-0.0
 21
46.2807078974
 31
0.0
 40
0.7778619134
 41
-0.3571758222
 42
-0.1561898301
  0
ELLIPSE
  5
707
100
AcDbEntity
  8
KONSTRUKTIONSELEMENTE
100
AcDbEllipse
 62
7
  6
CONTINUOUS
 10
122.8686382213
 20
81.5986714385
 30
0.0
 11
-0.0
 21
46.2807078974
 31
0.0
 40
0.7778619134
 41
0.1561898301
 42
0.3571758222
  0
ELLIPSE
  5
708
100
AcDbEntity
  8
RUNDUNGEN
100
AcDbEllipse
 62
7
  6
CONTINUOUS
 10
95.8686382213
 20
130.3631242165
 30
0.0
 11
-1.9930736142
 21
7.7256831899
 31
0.0
 40
0.0215263353
 41
-4.3147648489
 42
-3.3579810802
  0
ELLIPSE
  5
709
100
AcDbEntity
  8
RUNDUNGEN
100
AcDbEllipse
 62
7
  6
CONTINUOUS
 10
149.8686382213
 20
130.3631242165
 30
0.0
 11
1.9930736142
 21
7.7256831899
 31
0.0
 40
0.0215263353
 41
-2.925204227
 42
-1.9684204582
  0
ELLIPSE
  5
70A
100
AcDbEntity
  8
KONSTRUKTIONSELEMENTE
100
AcDbEllipse
 62
7
  6
CONTINUOUS
 10
122.8686382213
 20
128.1053649154
 30
0.0
 11
5.6
 21
0.0
 31
0.0
 40
0.742227199
 41
3.0758400718
 42
3.1415926536
  0
ELLIPSE
  5
70B
100
AcDbEntity
  8
KONSTRUKTIONSELEMENTE
100
AcDbEllipse
 62
7
  6
CONTINUOUS
 10
122.8686382213
 20
128.1053649154
 30
0.0
 11
5.6
 21
0.0
 31
0.0
 40
0.742227199
 41
-0.0
 42
0.0657525818
  0
ENDSEC
  0
SECTION
  2
OBJECTS
  0
DICTIONARY
  5
C
100
AcDbDictionary
280
0
281
1
  3
ACAD_GROUP
350
D
  3
ACAD_MLINESTYLE
350
17
  3
ACAD_LAYOUT
350
1A
  3
ACAD_PLOTSETTINGS
350
19
  3
ACAD_PLOTSTYLENAME
350
E
  0
DICTIONARY
  5
D
102
{ACAD_REACTORS
330
C
102
}
100
AcDbDictionary
280
0
281
1
  0
ACDBDICTIONARYWDFLT
  5
E
102
{ACAD_REACTORS
330
C
102
}
100
AcDbDictionary
281
1
  3
Normal
350
F
100
AcDbDictionaryWithDefault
340
F
  0
DICTIONARY
  5
17
102
{ACAD_REACTORS
330
C
102
}
100
AcDbDictionary
280
0
281
1
  3
Standard
350
18
  0
DICTIONARY
  5
19
102
{ACAD_REACTORS
330
C
102
}
100
AcDbDictionary
281
1
  0
DICTIONARY
  5
1A
102
{ACAD_REACTORS
330
C
102
}
100
AcDbDictionary
281
1
  3
Model
350
70C
  3
Layout1
350
70D
  0
ACDBPLACEHOLDER
  5
F
102
{ACAD_REACTORS
330
E
102
}
  0
MLINESTYLE
  5
18
102
{ACAD_REACTORS
330
17
102
}
100
AcDbMlineStyle
  2
STANDARD
 70
0
  3

 62
256
 51
90.0
 52
90.0
 71
2
 49
0.5
 62
256
  6
BYLAYER
 49
-0.5
 62
256
  6
BYLAYER
  0
LAYOUT
  5
70C
102
{ACAD_REACTORS
330
1A
102
}
100
AcDbPlotSettings
  1

  2
none_device
  4
ISO_A2_(594.00_x_420.00_MM)
  6

 40
0.0
 41
0.0
 42
0.0
 43
0.0
 44
594.0
 45
420.0
 46
0.0
 47
0.0
 48
0.0
 49
0.0
140
0.0
141
0.0
142
1.0
143
1.0
 70
1024
 72
1
 73
0
 74
0
  7

 75
0
147
1.0
148
0.0
149
0.0
100
AcDbLayout
  1
Model
 70
0
 71
0
 10
0.0
 20
0.0
 11
594.0
 21
420.0
 12
0.0
 22
0.0
 32
0.0
 14
0.0
 24
0.0
 34
0.0
 15
0.0
 25
0.0
 35
0.0
146
0.0
 13
0.0
 23
0.0
 33
0.0
 16
1.0
 26
0.0
 36
0.0
 17
0.0
 27
1.0
 37
0.0
 76
0
330
20D
345
0
346
0
  0
LAYOUT
  5
70D
102
{ACAD_REACTORS
330
1A
102
}
100
AcDbPlotSettings
  1

  2
none_device
  4
ISO_A2_(594.00_x_420.00_MM)
  6

 40
0.0
 41
0.0
 42
0.0
 43
0.0
 44
594.0
 45
420.0
 46
0.0
 47
0.0
 48
0.0
 49
0.0
140
0.0
141
0.0
142
1.0
143
1.0
 70
0
 72
1
 73
0
 74
0
  7

 75
0
147
1.0
148
0.0
149
0.0
100
AcDbLayout
  1
Layout1
 70
0
 71
1
 10
0.0
 20
0.0
 11
594.0
 21
420.0
 12
0.0
 22
0.0
 32
0.0
 14
0.0
 24
0.0
 34
0.0
 15
0.0
 25
0.0
 35
0.0
146
0.0
 13
0.0
 23
0.0
 33
0.0
 16
1.0
 26
0.0
 36
0.0
 17
0.0
 27
1.0
 37
0.0
 76
0
330
20E
345
0
346
0
  0
ENDSEC
  0
EOF
