999
DXF file: VSAK-1-8_190_7100692_M32080-P-1.dxf
999
Pro/ENGINEER 2010140 by Parametric Technology Corporation
  0
SECTION
  2
HEADER
  9
$ACADVER
  1
AC1015
  9
$DWGCODEPAGE
  3
ANSI_1252
  9
$EXTMAX
 10
841.0
 20
594.0
 30
0.0
  9
$EXTMIN
 10
0.0
 20
0.0
 30
0.0
  9
$LIMMIN
 10
0.0
 20
0.0
  9
$LIMMAX
 10
841.0
 20
594.0
  9
$VIEWCTR
 10
420.5
 20
297.0
  9
$VIEWSIZE
 40
594.0
  9
$CLAYER
  8
0
  9
$LTSCALE
 40
46.255
  9
$CELTYPE
  6
BYLAYER
  9
$DIMSCALE
 40
1.0
  9
$DIMASZ
 40
3.5
  9
$DIMEXO
 40
5.25625
  9
$DIMDLI
 40
31.958
  9
$DIMEXE
 40
15.138
  9
$DIMCEN
 40
7.569
  9
$DIMLFAC
 40
1.0
  9
$DIMBLK
  1
_FILLED
  9
$DIMTXT
 40
3.5
  9
$DIMTOL
 70
1
  9
$DIMLIM
 70
0
  9
$DIMTFAC
 40
1.0
  9
$DIMTP
 40
0.005
  9
$DIMTM
 40
0.005
  9
$PDMODE
 70
3
  9
$PDSIZE
 40
0.3125
  9
$HANDSEED
  5
4F0
  9
$TILEMODE
 70
1
  9
$MEASUREMENT
 70
1
  9
$INSUNITS
 70
4
  0
ENDSEC
  0
SECTION
  2
CLASSES
  0
CLASS
  1
ACDBDICTIONARYWDFLT
  2
AcDbDictionaryWithDefault
  3
AutoCAD 2000
 90
0
280
0
281
0
  0
CLASS
  1
ACDBPLACEHOLDER
  2
AcDbPlaceHolder
  3
AutoCAD 2000
 90
0
280
0
281
0
  0
CLASS
  1
LAYOUT
  2
AcDbLayout
  3
AutoCAD 2000
 90
0
280
0
281
0
  0
ENDSEC
  0
SECTION
  2
TABLES
  0
TABLE
  2
VPORT
  5
8
100
AcDbSymbolTable
 70
2
  0
VPORT
  5
1F4
100
AcDbSymbolTableRecord
100
AcDbViewportTableRecord
  2
*ACTIVE
 70
0
 10
0.0
 20
0.0
 11
1.0
 21
1.0
 12
420.5
 22
297.0
 13
0.0
 23
0.0
 14
1.0
 24
1.0
 15
0.0
 25
0.0
 16
0.0
 26
0.0
 36
1.0
 17
0.0
 27
0.0
 37
0.0
 40
594.0
 41
1.4158249158
 42
50.0
 43
0.0
 44
0.0
 50
0.0
 51
0.0
 71
0
 72
100
 73
1
 74
1
 75
0
 76
0
 77
0
 78
0
  0
ENDTAB
  0
TABLE
  2
LTYPE
  5
5
100
AcDbSymbolTable
 70
6
  0
LTYPE
  5
14
100
AcDbSymbolTableRecord
100
AcDbLinetypeTableRecord
  2
BYBLOCK
 70
0
  3

 72
65
 73
0
 40
0.0
  0
LTYPE
  5
15
100
AcDbSymbolTableRecord
100
AcDbLinetypeTableRecord
  2
BYLAYER
 70
0
  3

 72
65
 73
0
 40
0.0
  0
LTYPE
  5
16
100
AcDbSymbolTableRecord
100
AcDbLinetypeTableRecord
  2
CONTINUOUS
 70
64
  3
Solid line
 72
65
 73
0
 40
0.0
  0
LTYPE
  5
1F5
100
AcDbSymbolTableRecord
100
AcDbLinetypeTableRecord
  2
CENTER
 70
64
  3
____ _ ____ _ ____ _ ____ _ ____ _ ____ _ ____
 72
65
 73
4
 40
0.6
 49
0.375
 74
0
 49
-0.075
 74
0
 49
0.075
 74
0
 49
-0.075
 74
0
  0
LTYPE
  5
1F6
100
AcDbSymbolTableRecord
100
AcDbLinetypeTableRecord
  2
HIDDEN
 70
64
  3
- - - - - - - - - - - - - - - - - - - -
 72
65
 73
2
 40
0.2
 49
0.1
 74
0
 49
-0.1
 74
0
  0
LTYPE
  5
1F7
100
AcDbSymbolTableRecord
100
AcDbLinetypeTableRecord
  2
PHANTOM
 70
64
  3
_____ _ _ _____ _ _ _____ _ _ _____
 72
65
 73
6
 40
0.8
 49
0.45
 74
0
 49
-0.05
 74
0
 49
0.1
 74
0
 49
-0.05
 74
0
 49
0.1
 74
0
 49
-0.05
 74
0
  0
LTYPE
  5
1F8
100
AcDbSymbolTableRecord
100
AcDbLinetypeTableRecord
  2
DOT
 70
64
  3
. . . . . . . . . . . . . . . . . . . .
 72
65
 73
2
 40
0.2
 49
0.1
 74
0
 49
-0.1
 74
0
  0
LTYPE
  5
1F9
100
AcDbSymbolTableRecord
100
AcDbLinetypeTableRecord
  2
DASHED
 70
64
  3
- - - - - - - - - - - - - - - - - - - -
 72
65
 73
2
 40
0.2
 49
0.1
 74
0
 49
-0.1
 74
0
  0
ENDTAB
  0
TABLE
  2
LAYER
  5
2
100
AcDbSymbolTable
 70
36
  0
LAYER
  5
10
100
AcDbSymbolTableRecord
100
AcDbLayerTableRecord
  2
0
 70
0
 62
7
  6
CONTINUOUS
370
-3
390
F
  0
LAYER
  5
1FA
100
AcDbSymbolTableRecord
100
AcDbLayerTableRecord
  2
DEFAULT_1
 70
0
 62
7
  6
CENTER
370
-3
390
F
  0
LAYER
  5
1FB
100
AcDbSymbolTableRecord
100
AcDbLayerTableRecord
  2
DEFAULT_2
 70
0
 62
8
  6
HIDDEN
370
-3
390
F
  0
LAYER
  5
1FC
100
AcDbSymbolTableRecord
100
AcDbLayerTableRecord
  2
DEFAULT_3
 70
0
 62
7
  6
PHANTOM
370
-3
390
F
  0
LAYER
  5
1FD
100
AcDbSymbolTableRecord
100
AcDbLayerTableRecord
  2
AUSFORMSCHRAEGEN
 70
0
 62
7
  6
CONTINUOUS
370
-3
390
F
  0
LAYER
  5
1FE
100
AcDbSymbolTableRecord
100
AcDbLayerTableRecord
  2
BEZUGSACHSEN
 70
0
 62
7
  6
CONTINUOUS
370
-3
390
F
  0
LAYER
  5
1FF
100
AcDbSymbolTableRecord
100
AcDbLayerTableRecord
  2
BEZUGSEBENEN
 70
0
 62
7
  6
CONTINUOUS
370
-3
390
F
  0
LAYER
  5
200
100
AcDbSymbolTableRecord
100
AcDbLayerTableRecord
  2
BG_STARTBEZUEGE
 70
0
 62
7
  6
CONTINUOUS
370
-3
390
F
  0
LAYER
  5
201
100
AcDbSymbolTableRecord
100
AcDbLayerTableRecord
  2
FASEN
 70
0
 62
7
  6
CONTINUOUS
370
-3
390
F
  0
LAYER
  5
202
100
AcDbSymbolTableRecord
100
AcDbLayerTableRecord
  2
HILFEN
 70
0
 62
7
  6
CONTINUOUS
370
-3
390
F
  0
LAYER
  5
203
100
AcDbSymbolTableRecord
100
AcDbLayerTableRecord
  2
KONSTRUKTIONSELEMENTE
 70
0
 62
7
  6
CONTINUOUS
370
-3
390
F
  0
LAYER
  5
204
100
AcDbSymbolTableRecord
100
AcDbLayerTableRecord
  2
NORM
 70
0
 62
7
  6
CONTINUOUS
370
-3
390
F
  0
LAYER
  5
205
100
AcDbSymbolTableRecord
100
AcDbLayerTableRecord
  2
PLATZIERUNG
 70
0
 62
7
  6
CONTINUOUS
370
-3
390
F
  0
LAYER
  5
206
100
AcDbSymbolTableRecord
100
AcDbLayerTableRecord
  2
PLAZIERUNG
 70
0
 62
7
  6
CONTINUOUS
370
-3
390
F
  0
LAYER
  5
207
100
AcDbSymbolTableRecord
100
AcDbLayerTableRecord
  2
RUNDUNGEN
 70
0
 62
7
  6
CONTINUOUS
370
-3
390
F
  0
LAYER
  5
208
100
AcDbSymbolTableRecord
100
AcDbLayerTableRecord
  2
TEIL_STARTBEZUEGE
 70
0
 62
7
  6
CONTINUOUS
370
-3
390
F
  0
LAYER
  5
209
100
AcDbSymbolTableRecord
100
AcDbLayerTableRecord
  2
T_STARTBEZUEGE
 70
0
 62
7
  6
CONTINUOUS
370
-3
390
F
  0
ENDTAB
  0
TABLE
  2
STYLE
  5
3
100
AcDbSymbolTable
 70
1
  0
STYLE
  5
11
100
AcDbSymbolTableRecord
100
AcDbTextStyleTableRecord
  2
STANDARD
 70
0
 40
0.0
 41
0.7
 50
0.0
 71
0
 42
0.2
  3
txt
  4

  0
STYLE
  5
20A
100
AcDbSymbolTableRecord
100
AcDbTextStyleTableRecord
  2
TEXTSTYLE_1
 70
0
 40
0.0
 41
0.8
 50
0.0
 71
0
 42
0.2
  3
gdt
  4

  0
ENDTAB
  0
TABLE
  2
VIEW
  5
6
100
AcDbSymbolTable
 70
0
  0
ENDTAB
  0
TABLE
  2
UCS
  5
7
100
AcDbSymbolTable
 70
0
  0
ENDTAB
  0
TABLE
  2
APPID
  5
9
100
AcDbSymbolTable
 70
1
  0
APPID
  5
20B
100
AcDbSymbolTableRecord
100
AcDbRegAppTableRecord
  2
ACAD
 70
0
  0
ENDTAB
  0
TABLE
  2
BLOCK_RECORD
  5
1
100
AcDbSymbolTable
 70
0
  0
BLOCK_RECORD
  5
20C
100
AcDbSymbolTableRecord
100
AcDbBlockTableRecord
  2
*Model_Space
  0
BLOCK_RECORD
  5
20D
100
AcDbSymbolTableRecord
100
AcDbBlockTableRecord
  2
*Paper_Space
  0
ENDTAB
  0
TABLE
  2
DIMSTYLE
  5
A
100
AcDbSymbolTable
 70
1
100
AcDbDimStyleTable
 71
0
  0
DIMSTYLE
105
20E
100
AcDbSymbolTableRecord
100
AcDbDimStyleTableRecord
  2
STANDARD
 70
0
  3

  4

 40
1.0
 41
3.5
 42
0.0625
 43
0.38
 44
0.18
 45
0.0
 46
0.0
 47
0.005
 48
0.005
140
3.5
141
0.09
142
0.0
143
25.4
144
1.0
145
0.0
146
1.0
147
0.09
 71
1.0
 72
0.0
 73
0
 74
0
 75
0
 76
0
 77
1
 78
8
170
0
171
2
172
0
173
0
174
0
175
0
176
0
177
0
178
5
270
2
271
3
272
3
273
2
274
2
275
0
280
0
281
0
282
0
283
1
284
8
285
0
286
0
287
3
288
0
340
11
  0
ENDTAB
  0
ENDSEC
  0
SECTION
  2
BLOCKS
  0
BLOCK
  5
20
100
AcDbEntity
  8
0
100
AcDbBlockBegin
  2
*Model_Space
 70
0
 10
0.0
 20
0.0
 30
0.0
  3
*Model_Space
  1

  0
ENDBLK
  5
21
100
AcDbEntity
  8
0
100
AcDbBlockEnd
  0
BLOCK
  5
1C
100
AcDbEntity
  8
0
100
AcDbBlockBegin
  2
*Paper_Space
 70
0
 10
0.0
 20
0.0
 30
0.0
  3
*Paper_Space
  1

  0
ENDBLK
  5
1D
100
AcDbEntity
  8
0
100
AcDbBlockEnd
  0
ENDSEC
  0
SECTION
  2
ENTITIES
  0
MTEXT
  5
20F
100
AcDbEntity
  8
0
100
AcDbMText
 62
5
  6
CONTINUOUS
  7
STANDARD
 71
1
 72
1
 10
307.8092184451
 20
353.1841509893
 30
0.0
 11
0.0
 21
1.0
 31
0.0
 44
0.9
  1
VSAK 1-8/190
 40
9.0
 41
82.9285714286
  0
MTEXT
  5
210
100
AcDbEntity
  8
0
100
AcDbMText
 62
5
  6
CONTINUOUS
  7
STANDARD
 71
1
 72
1
 10
96.366935243
 20
375.2408107544
 30
0.0
 11
0.0
 21
1.0
 31
0.0
 44
0.9
  1
RUD
 40
9.0
 41
24.0
  0
MTEXT
  5
211
100
AcDbEntity
  8
0
100
AcDbMText
 62
5
  6
CONTINUOUS
  7
STANDARD
 71
1
 72
1
 10
549.5119171841
 20
344.4469299208
 30
0.0
 11
0.0
 21
1.0
 31
0.0
 44
0.9
  1
RUD VSAK 1-8/190
 40
9.0
 41
112.2857142857
  0
LINE
  5
212
100
AcDbEntity
  8
0
100
AcDbLine
 62
7
  6
CONTINUOUS
 10
0.0
 20
0.0
 11
0.0
 21
594.0
  0
LINE
  5
213
100
AcDbEntity
  8
0
100
AcDbLine
 62
7
  6
CONTINUOUS
 10
0.0
 20
0.0
 11
841.0
 21
0.0
  0
LINE
  5
214
100
AcDbEntity
  8
0
100
AcDbLine
 62
7
  6
CONTINUOUS
 10
0.0
 20
594.0
 11
841.0
 21
594.0
  0
LINE
  5
215
100
AcDbEntity
  8
0
100
AcDbLine
 62
7
  6
CONTINUOUS
 10
841.0
 20
0.0
 11
841.0
 21
594.0
  0
LINE
  5
216
100
AcDbEntity
  8
KONSTRUKTIONSELEMENTE
100
AcDbLine
 62
7
  6
CONTINUOUS
 10
203.41817866
 20
9.4443649172
 11
210.69817866
 21
9.4443649172
  0
LINE
  5
217
100
AcDbEntity
  8
KONSTRUKTIONSELEMENTE
100
AcDbLine
 62
7
  6
CONTINUOUS
 10
203.01817866
 20
9.7272076297
 11
203.41817866
 21
9.7272076297
  0
LINE
  5
218
100
AcDbEntity
  8
KONSTRUKTIONSELEMENTE
100
AcDbLine
 62
7
  6
CONTINUOUS
 10
210.69817866
 20
9.7272076297
 11
211.09817866
 21
9.7272076297
  0
LINE
  5
219
100
AcDbEntity
  8
KONSTRUKTIONSELEMENTE
100
AcDbLine
 62
7
  6
CONTINUOUS
 10
196.2510887581
 20
20.7580734162
 11
200.21817866
 21
20.7580734162
  0
LINE
  5
21A
100
AcDbEntity
  8
KONSTRUKTIONSELEMENTE
100
AcDbLine
 62
7
  6
CONTINUOUS
 10
213.89817866
 20
20.7580734162
 11
228.8990477516
 21
20.7580734162
  0
LINE
  5
21B
100
AcDbEntity
  8
KONSTRUKTIONSELEMENTE
100
AcDbLine
 62
7
  6
CONTINUOUS
 10
232.5224605923
 20
23.0576611871
 11
227.4471369849
 21
24.731144124
  0
LINE
  5
21C
100
AcDbEntity
  8
KONSTRUKTIONSELEMENTE
100
AcDbLine
 62
7
  6
CONTINUOUS
 10
232.5224605923
 20
25.8860883118
 11
227.4471369849
 21
27.5595712487
  0
LINE
  5
21D
100
AcDbEntity
  8
KONSTRUKTIONSELEMENTE
100
AcDbLine
 62
7
  6
CONTINUOUS
 10
172.9248409258
 20
52.2656863814
 11
173.0938882305
 21
52.292186541
  0
LINE
  5
21E
100
AcDbEntity
  8
KONSTRUKTIONSELEMENTE
100
AcDbLine
 62
7
  6
CONTINUOUS
 10
244.8590093686
 20
51.1344270647
 11
249.934332976
 21
49.4609441278
  0
LINE
  5
21F
100
AcDbEntity
  8
KONSTRUKTIONSELEMENTE
100
AcDbLine
 62
7
  6
CONTINUOUS
 10
213.8200708479
 20
65.6600078072
 11
248.9960253822
 21
54.0614646885
  0
LINE
  5
220
100
AcDbEntity
  8
KONSTRUKTIONSELEMENTE
100
AcDbLine
 62
7
  6
CONTINUOUS
 10
248.9960253822
 20
56.8898918132
 11
213.8200708479
 21
68.488434932
  0
LINE
  5
221
100
AcDbEntity
  8
KONSTRUKTIONSELEMENTE
100
AcDbLine
 62
7
  6
CONTINUOUS
 10
221.0909655566
 20
97.9398372936
 11
217.9656719914
 21
97.9398372936
  0
LINE
  5
222
100
AcDbEntity
  8
KONSTRUKTIONSELEMENTE
100
AcDbLine
 62
7
  6
CONTINUOUS
 10
196.1506853286
 20
97.9398372936
 11
193.0253917634
 21
97.9398372936
  0
LINE
  5
223
100
AcDbEntity
  8
0
100
AcDbLine
 62
7
  6
CONTINUOUS
 10
211.60817866
 20
104.3898372936
 11
202.50817866
 21
104.3898372936
  0
LINE
  5
224
100
AcDbEntity
  8
0
100
AcDbLine
 62
7
  6
CONTINUOUS
 10
211.60817866
 20
113.9898372936
 11
202.50817866
 21
113.9898372936
  0
LINE
  5
225
100
AcDbEntity
  8
KONSTRUKTIONSELEMENTE
100
AcDbLine
 62
7
  6
CONTINUOUS
 10
172.248651707
 20
53.2910565927
 11
172.9248409258
 21
52.2656863814
  0
LINE
  5
226
100
AcDbEntity
  8
KONSTRUKTIONSELEMENTE
100
AcDbLine
 62
7
  6
CONTINUOUS
 10
177.4722134221
 20
45.3700717104
 11
192.62585761
 21
22.391155586
  0
LINE
  5
227
100
AcDbEntity
  8
KONSTRUKTIONSELEMENTE
100
AcDbLine
 62
7
  6
CONTINUOUS
 10
177.4722134221
 20
45.6529144229
 11
177.3031661174
 21
45.9092569757
  0
LINE
  5
228
100
AcDbEntity
  8
BEZUGSACHSEN
100
AcDbLine
 62
7
  6
CONTINUOUS
 10
218.3326059281
 20
152.3013128471
 11
218.7591402734
 21
152.3871487998
  0
LINE
  5
229
100
AcDbEntity
  8
BEZUGSACHSEN
100
AcDbLine
 62
7
  6
CONTINUOUS
 10
218.7550920954
 20
156.062498591
 11
219.1816264215
 21
156.1483345209
  0
LINE
  5
22A
100
AcDbEntity
  8
BEZUGSACHSEN
100
AcDbLine
 62
7
  6
CONTINUOUS
 10
222.3703749555
 20
147.1324951198
 11
222.8106083268
 21
147.2074942713
  0
LINE
  5
22B
100
AcDbEntity
  8
BEZUGSACHSEN
100
AcDbLine
 62
7
  6
CONTINUOUS
 10
221.9179735073
 20
149.4910511379
 11
222.3582069316
 21
149.5660503168
  0
LINE
  5
22C
100
AcDbEntity
  8
BEZUGSACHSEN
100
AcDbLine
 62
7
  6
CONTINUOUS
 10
223.4612318884
 20
150.2122860944
 11
223.9014654186
 21
150.2872853279
  0
LINE
  5
22D
100
AcDbEntity
  8
BEZUGSACHSEN
100
AcDbLine
 62
7
  6
CONTINUOUS
 10
196.0075862665
 20
152.4931449597
 11
196.3246251983
 21
152.5363786877
  0
LINE
  5
22E
100
AcDbEntity
  8
BEZUGSACHSEN
100
AcDbLine
 62
7
  6
CONTINUOUS
 10
191.9995688014
 20
153.6115059513
 11
192.3687013769
 21
153.6598726969
  0
LINE
  5
22F
100
AcDbEntity
  8
BEZUGSACHSEN
100
AcDbLine
 62
7
  6
CONTINUOUS
 10
223.9270502928
 20
148.0131512977
 11
224.2916754782
 21
148.0490799096
  0
LINE
  5
230
100
AcDbEntity
  8
BEZUGSACHSEN
100
AcDbLine
 62
7
  6
CONTINUOUS
 10
216.363694913
 20
155.9064358001
 11
216.6831521457
 21
155.9246049608
  0
LINE
  5
231
100
AcDbEntity
  8
BEZUGSACHSEN
100
AcDbLine
 62
7
  6
CONTINUOUS
 10
195.783939222
 20
152.9717744256
 11
196.0490159879
 21
152.9715558837
  0
LINE
  5
232
100
AcDbEntity
  8
BEZUGSACHSEN
100
AcDbLine
 62
7
  6
CONTINUOUS
 10
218.2928656854
 20
152.7798676217
 11
218.5579415696
 21
152.7791498746
  0
LINE
  5
233
100
AcDbEntity
  8
BEZUGSACHSEN
100
AcDbLine
 62
7
  6
CONTINUOUS
 10
218.9562896518
 20
155.6704985604
 11
219.2213654976
 21
155.6697807678
  0
LINE
  5
234
100
AcDbEntity
  8
BEZUGSACHSEN
100
AcDbLine
 62
7
  6
CONTINUOUS
 10
223.9227856373
 20
148.392174536
 11
224.2118026897
 21
148.3890326358
  0
LINE
  5
235
100
AcDbEntity
  8
BEZUGSACHSEN
100
AcDbLine
 62
7
  6
CONTINUOUS
 10
223.61671281
 20
149.9114038803
 11
223.9057300741
 21
149.9082620896
  0
LINE
  5
236
100
AcDbEntity
  8
BEZUGSACHSEN
100
AcDbLine
 62
7
  6
CONTINUOUS
 10
192.2863206981
 20
153.2898867919
 11
192.5038466238
 21
153.2871548172
  0
LINE
  5
237
100
AcDbEntity
  8
BEZUGSACHSEN
100
AcDbLine
 62
7
  6
CONTINUOUS
 10
222.2594065521
 20
147.532623187
 11
222.6551274053
 21
147.5083764854
  0
LINE
  5
238
100
AcDbEntity
  8
BEZUGSACHSEN
100
AcDbLine
 62
7
  6
CONTINUOUS
 10
222.0734544288
 20
149.1901689238
 11
222.469175335
 21
149.1659222496
  0
LINE
  5
239
100
AcDbEntity
  8
BEZUGSACHSEN
100
AcDbLine
 62
7
  6
CONTINUOUS
 10
218.0157201992
 20
152.3456673789
 11
218.3326059281
 21
152.3013128471
  0
LINE
  5
23A
100
AcDbEntity
  8
BEZUGSACHSEN
100
AcDbLine
 62
7
  6
CONTINUOUS
 10
192.3687013769
 20
153.6598726969
 11
192.7609093578
 21
153.6019438145
  0
LINE
  5
23B
100
AcDbEntity
  8
BEZUGSACHSEN
100
AcDbLine
 62
7
  6
CONTINUOUS
 10
222.0502622617
 20
147.1958123473
 11
222.3703749555
 21
147.1324951198
  0
LINE
  5
23C
100
AcDbEntity
  8
BEZUGSACHSEN
100
AcDbLine
 62
7
  6
CONTINUOUS
 10
223.6069376255
 20
148.0764685388
 11
223.9270502928
 21
148.0131512977
  0
LINE
  5
23D
100
AcDbEntity
  8
BEZUGSACHSEN
100
AcDbLine
 62
7
  6
CONTINUOUS
 10
223.9014654186
 20
150.2872853279
 11
224.2215780859
 21
150.2239680868
  0
LINE
  5
23E
100
AcDbEntity
  8
BEZUGSACHSEN
100
AcDbLine
 62
7
  6
CONTINUOUS
 10
195.5813571717
 20
152.5804864575
 11
196.0075862665
 21
152.4931449597
  0
LINE
  5
23F
100
AcDbEntity
  8
KONSTRUKTIONSELEMENTE
100
AcDbLine
 62
7
  6
CONTINUOUS
 10
179.4424177358
 20
53.0906689648
 11
182.765441345
 21
48.0516512968
  0
LINE
  5
240
100
AcDbEntity
  8
BEZUGSACHSEN
100
AcDbLine
 62
7
  6
CONTINUOUS
 10
197.6216824142
 20
158.1664373358
 11
197.959468393
 21
158.2550241625
  0
LINE
  5
241
100
AcDbEntity
  8
BEZUGSACHSEN
100
AcDbLine
 62
7
  6
CONTINUOUS
 10
197.8676921415
 20
157.7189659701
 11
198.1461208412
 21
157.7749194952
  0
LINE
  5
242
100
AcDbEntity
  8
BEZUGSACHSEN
100
AcDbLine
 62
7
  6
CONTINUOUS
 10
197.959468393
 20
158.2550241625
 11
198.2788987139
 21
158.2363991267
  0
LINE
  5
243
100
AcDbEntity
  8
BEZUGSACHSEN
100
AcDbLine
 62
7
  6
CONTINUOUS
 10
216.2908865729
 20
156.3353860115
 11
216.5099251968
 21
156.3117530591
  0
LINE
  5
244
100
AcDbEntity
  8
BEZUGSACHSEN
100
AcDbLine
 62
7
  6
CONTINUOUS
 10
219.1816264215
 20
156.1483345209
 11
219.4985109502
 21
156.1039809707
  0
LINE
  5
245
100
AcDbEntity
  8
BEZUGSACHSEN
100
AcDbLine
 62
7
  6
CONTINUOUS
 10
198.1461208412
 20
157.7749194952
 11
198.4061945624
 21
157.7236615312
  0
LINE
  5
246
100
AcDbEntity
  8
0
100
AcDbLine
 62
7
  6
CONTINUOUS
 10
222.5090283788
 20
161.7061075024
 11
215.05817866
 21
164.1270353297
  0
LINE
  5
247
100
AcDbEntity
  8
BEZUGSACHSEN
100
AcDbLine
 62
7
  6
CONTINUOUS
 10
223.5715773551
 20
148.5156671181
 11
223.9227856373
 21
148.392174536
  0
LINE
  5
248
100
AcDbEntity
  8
BEZUGSACHSEN
100
AcDbLine
 62
7
  6
CONTINUOUS
 10
222.3582069316
 20
149.5660503168
 11
222.7094152137
 21
149.4425577347
  0
LINE
  5
249
100
AcDbEntity
  8
BEZUGSACHSEN
100
AcDbLine
 62
7
  6
CONTINUOUS
 10
223.9057300741
 20
149.9082620896
 11
224.2569383563
 21
149.7847695075
  0
LINE
  5
24A
100
AcDbEntity
  8
BEZUGSACHSEN
100
AcDbLine
 62
7
  6
CONTINUOUS
 10
193.5157095158
 20
152.373396359
 11
195.417444331
 21
151.6074702628
  0
LINE
  5
24B
100
AcDbEntity
  8
BEZUGSACHSEN
100
AcDbLine
 62
7
  6
CONTINUOUS
 10
195.516229159
 20
153.0807324002
 11
195.783939222
 21
152.9717744256
  0
LINE
  5
24C
100
AcDbEntity
  8
BEZUGSACHSEN
100
AcDbLine
 62
7
  6
CONTINUOUS
 10
193.3904850275
 20
151.9509455961
 11
195.1175377264
 21
151.2402163325
  0
LINE
  5
24D
100
AcDbEntity
  8
BEZUGSACHSEN
100
AcDbLine
 62
7
  6
CONTINUOUS
 10
218.0308078341
 20
152.8893144138
 11
218.2928656854
 21
152.7798676217
  0
LINE
  5
24E
100
AcDbEntity
  8
BEZUGSACHSEN
100
AcDbLine
 62
7
  6
CONTINUOUS
 10
219.2213654976
 20
155.6697807678
 11
219.4834257205
 21
155.5603319782
  0
LINE
  5
24F
100
AcDbEntity
  8
BEZUGSACHSEN
100
AcDbLine
 62
7
  6
CONTINUOUS
 10
198.2788987139
 20
158.2363991267
 11
198.6803322773
 21
158.068616969
  0
LINE
  5
250
100
AcDbEntity
  8
BEZUGSACHSEN
100
AcDbLine
 62
7
  6
CONTINUOUS
 10
192.5038466238
 20
153.2871548172
 11
192.7444478324
 21
153.1781270642
  0
LINE
  5
251
100
AcDbEntity
  8
BEZUGSACHSEN
100
AcDbLine
 62
7
  6
CONTINUOUS
 10
192.7609093578
 20
153.6019438145
 11
193.0015105663
 21
153.4929160615
  0
LINE
  5
252
100
AcDbEntity
  8
BEZUGSACHSEN
100
AcDbLine
 62
7
  6
CONTINUOUS
 10
221.6679583448
 20
147.37948026
 11
222.0502622617
 21
147.1958123473
  0
LINE
  5
253
100
AcDbEntity
  8
BEZUGSACHSEN
100
AcDbLine
 62
7
  6
CONTINUOUS
 10
224.2215780859
 20
150.2239680868
 11
224.6038834065
 21
150.0402974091
  0
LINE
  5
254
100
AcDbEntity
  8
BEZUGSACHSEN
100
AcDbLine
 62
7
  6
CONTINUOUS
 10
217.7018548461
 20
152.4987489242
 11
218.0157201992
 21
152.3456673789
  0
LINE
  5
255
100
AcDbEntity
  8
BEZUGSACHSEN
100
AcDbLine
 62
7
  6
CONTINUOUS
 10
219.4985109502
 20
156.1039809707
 11
219.8123786701
 21
155.9508974223
  0
LINE
  5
256
100
AcDbEntity
  8
BEZUGSACHSEN
100
AcDbLine
 62
7
  6
CONTINUOUS
 10
195.2590519913
 20
152.7547320879
 11
195.5813571717
 21
152.5804864575
  0
LINE
  5
257
100
AcDbEntity
  8
BEZUGSACHSEN
100
AcDbLine
 62
7
  6
CONTINUOUS
 10
215.5368339523
 20
154.1270393138
 11
215.9520046839
 21
153.8980162106
  0
LINE
  5
258
100
AcDbEntity
  8
BEZUGSACHSEN
100
AcDbLine
 62
7
  6
CONTINUOUS
 10
215.05817866
 20
156.4322122494
 11
215.9256176652
 21
155.9537017048
  0
LINE
  5
259
100
AcDbEntity
  8
BEZUGSACHSEN
100
AcDbLine
 62
7
  6
CONTINUOUS
 10
221.9838064029
 20
147.6951862812
 11
222.2594065521
 21
147.532623187
  0
LINE
  5
25A
100
AcDbEntity
  8
BEZUGSACHSEN
100
AcDbLine
 62
7
  6
CONTINUOUS
 10
223.4691368392
 20
148.1577514632
 11
223.6069376255
 21
148.0764685388
  0
LINE
  5
25B
100
AcDbEntity
  8
BEZUGSACHSEN
100
AcDbLine
 62
7
  6
CONTINUOUS
 10
222.469175335
 20
149.1659222496
 11
222.7447754841
 21
149.0033591554
  0
LINE
  5
25C
100
AcDbEntity
  8
BEZUGSACHSEN
100
AcDbLine
 62
7
  6
CONTINUOUS
 10
198.4061945624
 20
157.7236615312
 11
198.6479134198
 21
157.5651918692
  0
LINE
  5
25D
100
AcDbEntity
  8
BEZUGSACHSEN
100
AcDbLine
 62
7
  6
CONTINUOUS
 10
193.7893803085
 20
149.6138065632
 11
190.6911797264
 21
152.1438565929
  0
LINE
  5
25E
100
AcDbEntity
  8
BEZUGSACHSEN
100
AcDbLine
 62
7
  6
CONTINUOUS
 10
194.0464430425
 20
149.9285955605
 11
192.6621406351
 21
151.0590434622
  0
LINE
  5
25F
100
AcDbEntity
  8
BEZUGSACHSEN
100
AcDbLine
 62
7
  6
CONTINUOUS
 10
192.2666257143
 20
151.3820285338
 11
191.2778382277
 21
152.1894913638
  0
LINE
  5
260
100
AcDbEntity
  8
BEZUGSACHSEN
100
AcDbLine
 62
7
  6
CONTINUOUS
 10
192.7444478324
 20
153.1781270642
 11
192.9422054774
 21
153.0166343775
  0
LINE
  5
261
100
AcDbEntity
  8
BEZUGSACHSEN
100
AcDbLine
 62
7
  6
CONTINUOUS
 10
193.0015105663
 20
153.4929160615
 11
193.2651873648
 21
153.2775925295
  0
LINE
  5
262
100
AcDbEntity
  8
0
100
AcDbLine
 62
7
  6
CONTINUOUS
 10
191.4933028772
 20
98.6542620742
 11
187.8707177785
 21
102.9714908801
  0
LINE
  5
263
100
AcDbEntity
  8
RUNDUNGEN
100
AcDbLine
 62
7
  6
CONTINUOUS
 10
187.8707177785
 20
102.9714908801
 11
187.5260897738
 21
103.3822025428
  0
LINE
  5
264
100
AcDbEntity
  8
0
100
AcDbLine
 62
7
  6
CONTINUOUS
 10
90.05817866
 20
476.1898372936
 11
90.05817866
 21
316.1898372936
  0
LINE
  5
265
100
AcDbEntity
  8
BEZUGSACHSEN
100
AcDbLine
 62
7
  6
CONTINUOUS
 10
215.1639916784
 20
156.9570217535
 11
216.2908865729
 21
156.3353860115
  0
LINE
  5
266
100
AcDbEntity
  8
BEZUGSACHSEN
100
AcDbLine
 62
7
  6
CONTINUOUS
 10
215.7806106315
 20
158.0748222645
 11
216.907505526
 21
157.4531865224
  0
LINE
  5
267
100
AcDbEntity
  8
BEZUGSACHSEN
100
AcDbLine
 62
7
  6
CONTINUOUS
 10
215.6302888413
 20
158.6437283102
 11
217.0537344523
 21
157.8585045302
  0
LINE
  5
268
100
AcDbEntity
  8
BEZUGSACHSEN
100
AcDbLine
 62
7
  6
CONTINUOUS
 10
222.7094152137
 20
149.4425577347
 11
222.8472160001
 21
149.3612748103
  0
LINE
  5
269
100
AcDbEntity
  8
BEZUGSACHSEN
100
AcDbLine
 62
7
  6
CONTINUOUS
 10
195.2458863554
 20
153.2984303506
 11
195.516229159
 21
153.0807324002
  0
LINE
  5
26A
100
AcDbEntity
  8
BEZUGSACHSEN
100
AcDbLine
 62
7
  6
CONTINUOUS
 10
198.6803322773
 20
158.068616969
 11
198.963052641
 21
157.8355689549
  0
LINE
  5
26B
100
AcDbEntity
  8
BEZUGSACHSEN
100
AcDbLine
 62
7
  6
CONTINUOUS
 10
217.2355802581
 20
152.891467746
 11
217.7018548461
 21
152.4987489242
  0
LINE
  5
26C
100
AcDbEntity
  8
BEZUGSACHSEN
100
AcDbLine
 62
7
  6
CONTINUOUS
 10
217.564533246
 20
153.2820332356
 11
218.0308078341
 21
152.8893144138
  0
LINE
  5
26D
100
AcDbEntity
  8
BEZUGSACHSEN
100
AcDbLine
 62
7
  6
CONTINUOUS
 10
218.7465549629
 20
153.8442706762
 11
219.212829551
 21
153.4515518544
  0
LINE
  5
26E
100
AcDbEntity
  8
BEZUGSACHSEN
100
AcDbLine
 62
7
  6
CONTINUOUS
 10
219.0755079125
 20
154.2348361203
 11
219.8526322259
 21
153.5803047505
  0
LINE
  5
26F
100
AcDbEntity
  8
BEZUGSACHSEN
100
AcDbLine
 62
7
  6
CONTINUOUS
 10
220.0352119249
 20
154.4279654644
 11
220.3460616502
 21
154.1661529165
  0
LINE
  5
270
100
AcDbEntity
  8
BEZUGSACHSEN
100
AcDbLine
 62
7
  6
CONTINUOUS
 10
219.4834257205
 20
155.5603319782
 11
219.9497003086
 21
155.1676131564
  0
LINE
  5
271
100
AcDbEntity
  8
BEZUGSACHSEN
100
AcDbLine
 62
7
  6
CONTINUOUS
 10
219.8123786701
 20
155.9508974223
 11
220.2786532581
 21
155.5581786004
  0
LINE
  5
272
100
AcDbEntity
  8
BEZUGSACHSEN
100
AcDbLine
 62
7
  6
CONTINUOUS
 10
194.9341136626
 20
153.0377172755
 11
195.2590519913
 21
152.7547320879
  0
LINE
  5
273
100
AcDbEntity
  8
BEZUGSACHSEN
100
AcDbLine
 62
7
  6
CONTINUOUS
 10
194.9341136626
 20
153.0377172755
 11
193.2416613714
 21
155.0616296088
  0
LINE
  5
274
100
AcDbEntity
  8
BEZUGSACHSEN
100
AcDbLine
 62
7
  6
CONTINUOUS
 10
195.2458863554
 20
153.2984303506
 11
193.5534340642
 21
155.3223426839
  0
LINE
  5
275
100
AcDbEntity
  8
BEZUGSACHSEN
100
AcDbLine
 62
7
  6
CONTINUOUS
 10
194.8005242408
 20
156.3651944872
 11
196.4929765319
 21
154.3412821539
  0
LINE
  5
276
100
AcDbEntity
  8
RUNDUNGEN
100
AcDbLine
 62
7
  6
CONTINUOUS
 10
186.7902294676
 20
116.4039389087
 11
184.6541576979
 21
120.1037237424
  0
LINE
  5
277
100
AcDbEntity
  8
0
100
AcDbLine
 62
7
  6
CONTINUOUS
 10
112.05817866
 20
476.1898372936
 11
112.05817866
 21
316.1898372936
  0
LINE
  5
278
100
AcDbEntity
  8
BEZUGSACHSEN
100
AcDbLine
 62
7
  6
CONTINUOUS
 10
217.0537344523
 20
157.8585045302
 11
217.3091772463
 21
157.6203964722
  0
LINE
  5
279
100
AcDbEntity
  8
BEZUGSACHSEN
100
AcDbLine
 62
7
  6
CONTINUOUS
 10
221.7838143867
 20
147.8968198875
 11
221.9838064029
 21
147.6951862812
  0
LINE
  5
27A
100
AcDbEntity
  8
BEZUGSACHSEN
100
AcDbLine
 62
7
  6
CONTINUOUS
 10
222.7447754841
 20
149.0033591554
 11
222.9447675003
 21
148.801725549
  0
LINE
  5
27B
100
AcDbEntity
  8
BEZUGSACHSEN
100
AcDbLine
 62
7
  6
CONTINUOUS
 10
223.371585339
 20
148.7173007244
 11
223.5715773551
 21
148.5156671181
  0
LINE
  5
27C
100
AcDbEntity
  8
BEZUGSACHSEN
100
AcDbLine
 62
7
  6
CONTINUOUS
 10
224.2569383563
 20
149.7847695075
 11
224.4569303725
 21
149.5831359011
  0
LINE
  5
27D
100
AcDbEntity
  8
BEZUGSACHSEN
100
AcDbLine
 62
7
  6
CONTINUOUS
 10
221.4368692836
 20
147.6412919586
 11
221.6679583448
 21
147.37948026
  0
LINE
  5
27E
100
AcDbEntity
  8
BEZUGSACHSEN
100
AcDbLine
 62
7
  6
CONTINUOUS
 10
224.6038834065
 20
150.0402974091
 11
224.8349710376
 21
149.7784884618
  0
LINE
  5
27F
100
AcDbEntity
  8
BEZUGSACHSEN
100
AcDbLine
 62
7
  6
CONTINUOUS
 10
198.6479134198
 20
157.5651918692
 11
198.8712765044
 21
157.2995105535
  0
LINE
  5
280
100
AcDbEntity
  8
BEZUGSACHSEN
100
AcDbLine
 62
7
  6
CONTINUOUS
 10
195.1122967849
 20
156.625907438
 11
196.804749076
 21
154.6019951047
  0
LINE
  5
281
100
AcDbEntity
  8
BEZUGSACHSEN
100
AcDbLine
 62
7
  6
CONTINUOUS
 10
216.907505526
 20
157.4531865224
 11
217.0443283049
 21
157.2805135298
  0
LINE
  5
282
100
AcDbEntity
  8
BEZUGSACHSEN
100
AcDbLine
 62
7
  6
CONTINUOUS
 10
198.963052641
 20
157.8355689549
 11
199.05817866
 21
157.7131336503
  0
LINE
  5
283
100
AcDbEntity
  8
BEZUGSACHSEN
100
AcDbLine
 62
7
  6
CONTINUOUS
 10
193.0971191897
 20
152.8026770588
 11
192.9422054774
 21
153.0166343775
  0
LINE
  5
284
100
AcDbEntity
  8
BEZUGSACHSEN
100
AcDbLine
 62
7
  6
CONTINUOUS
 10
193.4201010771
 20
153.0636352109
 11
193.2651873648
 21
153.2775925295
  0
LINE
  5
285
100
AcDbEntity
  8
BEZUGSACHSEN
100
AcDbLine
 62
7
  6
CONTINUOUS
 10
197.0257630252
 20
154.2321054345
 11
196.804749076
 21
154.6019951047
  0
LINE
  5
286
100
AcDbEntity
  8
0
100
AcDbLine
 62
7
  6
CONTINUOUS
 10
232.05817866
 20
148.5628296994
 11
222.5090283788
 21
161.7061075024
  0
LINE
  5
287
100
AcDbEntity
  8
BEZUGSACHSEN
100
AcDbLine
 62
7
  6
CONTINUOUS
 10
217.0313635261
 20
153.1747397815
 11
217.2355802581
 21
152.891467746
  0
LINE
  5
288
100
AcDbEntity
  8
BEZUGSACHSEN
100
AcDbLine
 62
7
  6
CONTINUOUS
 10
220.2786532581
 20
155.5581786004
 11
220.4828676233
 21
155.2749085681
  0
LINE
  5
289
100
AcDbEntity
  8
BEZUGSACHSEN
100
AcDbLine
 62
7
  6
CONTINUOUS
 10
217.4121240063
 20
153.5216705066
 11
217.564533246
 21
153.2820332356
  0
LINE
  5
28A
100
AcDbEntity
  8
BEZUGSACHSEN
100
AcDbLine
 62
7
  6
CONTINUOUS
 10
219.9497003086
 20
155.1676131564
 11
220.1021071767
 21
154.9279778829
  0
LINE
  5
28B
100
AcDbEntity
  8
BEZUGSACHSEN
100
AcDbLine
 62
7
  6
CONTINUOUS
 10
198.1241950119
 20
153.8780512896
 11
196.1971185848
 21
157.3832440723
  0
LINE
  5
28C
100
AcDbEntity
  8
BEZUGSACHSEN
100
AcDbLine
 62
7
  6
CONTINUOUS
 10
198.2343262132
 20
154.5213210234
 11
196.7992692695
 21
157.1315710225
  0
LINE
  5
28D
100
AcDbEntity
  8
BEZUGSACHSEN
100
AcDbLine
 62
7
  6
CONTINUOUS
 10
198.8712765044
 20
157.2995105535
 11
199.05817866
 21
156.9595509766
  0
LINE
  5
28E
100
AcDbEntity
  8
BEZUGSACHSEN
100
AcDbLine
 62
7
  6
CONTINUOUS
 10
196.6593952533
 20
154.0366799694
 11
196.4929765319
 21
154.3412821539
  0
LINE
  5
28F
100
AcDbEntity
  8
BEZUGSACHSEN
100
AcDbLine
 62
7
  6
CONTINUOUS
 10
193.555246324
 20
152.6909173311
 11
193.4201010771
 21
153.0636352109
  0
LINE
  5
290
100
AcDbEntity
  8
BEZUGSACHSEN
100
AcDbLine
 62
7
  6
CONTINUOUS
 10
221.2502927472
 20
148.0023495136
 11
221.4368692836
 21
147.6412919586
  0
LINE
  5
291
100
AcDbEntity
  8
BEZUGSACHSEN
100
AcDbLine
 62
7
  6
CONTINUOUS
 10
221.6594290801
 20
148.1375267607
 11
221.7838143867
 21
147.8968198875
  0
LINE
  5
292
100
AcDbEntity
  8
BEZUGSACHSEN
100
AcDbLine
 62
7
  6
CONTINUOUS
 10
222.9447675003
 20
148.801725549
 11
223.0691528069
 21
148.5610186759
  0
LINE
  5
293
100
AcDbEntity
  8
BEZUGSACHSEN
100
AcDbLine
 62
7
  6
CONTINUOUS
 10
223.2472000324
 20
148.9580075976
 11
223.371585339
 21
148.7173007244
  0
LINE
  5
294
100
AcDbEntity
  8
BEZUGSACHSEN
100
AcDbLine
 62
7
  6
CONTINUOUS
 10
224.4569303725
 20
149.5831359011
 11
224.5813156791
 21
149.342429028
  0
LINE
  5
295
100
AcDbEntity
  8
BEZUGSACHSEN
100
AcDbLine
 62
7
  6
CONTINUOUS
 10
224.8349710376
 20
149.7784884618
 11
224.9593563442
 21
149.5377815887
  0
LINE
  5
296
100
AcDbEntity
  8
BEZUGSACHSEN
100
AcDbLine
 62
7
  6
CONTINUOUS
 10
197.1402198924
 20
153.8840512116
 11
197.0257630252
 21
154.2321054345
  0
LINE
  5
297
100
AcDbEntity
  8
BEZUGSACHSEN
100
AcDbLine
 62
7
  6
CONTINUOUS
 10
193.1432698778
 20
152.5900856525
 11
193.0971191897
 21
152.8026770588
  0
LINE
  5
298
100
AcDbEntity
  8
0
100
AcDbLine
 62
7
  6
CONTINUOUS
 10
182.05817866
 20
132.3168448878
 11
184.6541576979
 21
120.1037237424
  0
LINE
  5
299
100
AcDbEntity
  8
BEZUGSACHSEN
100
AcDbLine
 62
7
  6
CONTINUOUS
 10
196.7192568544
 20
153.753913278
 11
196.6593952533
 21
154.0366799694
  0
LINE
  5
29A
100
AcDbEntity
  8
KONSTRUKTIONSELEMENTE
100
AcDbLine
 62
7
  6
CONTINUOUS
 10
171.8738828551
 20
54.4864015476
 11
171.8738828551
 21
57.3148286723
  0
LINE
  5
29B
100
AcDbEntity
  8
KONSTRUKTIONSELEMENTE
100
AcDbLine
 62
7
  6
CONTINUOUS
 10
177.1907354618
 20
46.2678604622
 11
177.1907354618
 21
48.530602162
  0
LINE
  5
29C
100
AcDbEntity
  8
KONSTRUKTIONSELEMENTE
100
AcDbLine
 62
7
  6
CONTINUOUS
 10
177.4722134221
 20
45.3700717104
 11
177.4722134221
 21
45.6529144229
  0
LINE
  5
29D
100
AcDbEntity
  8
0
100
AcDbLine
 62
7
  6
CONTINUOUS
 10
182.05817866
 20
148.5628296994
 11
182.05817866
 21
132.3168448878
  0
LINE
  5
29E
100
AcDbEntity
  8
RUNDUNGEN
100
AcDbLine
 62
7
  6
CONTINUOUS
 10
187.05817866
 20
104.6677777621
 11
187.05817866
 21
123.3050557757
  0
LINE
  5
29F
100
AcDbEntity
  8
BEZUGSACHSEN
100
AcDbLine
 62
7
  6
CONTINUOUS
 10
217.3091772463
 20
157.6203964722
 11
217.4230948664
 21
157.2659655322
  0
LINE
  5
2A0
100
AcDbEntity
  8
BEZUGSACHSEN
100
AcDbLine
 62
7
  6
CONTINUOUS
 10
216.9337809782
 20
153.4794703114
 11
217.0313635261
 21
153.1747397815
  0
LINE
  5
2A1
100
AcDbEntity
  8
BEZUGSACHSEN
100
AcDbLine
 62
7
  6
CONTINUOUS
 10
220.4828676233
 20
155.2749085681
 11
220.5804513714
 21
154.9701770565
  0
LINE
  5
2A2
100
AcDbEntity
  8
BEZUGSACHSEN
100
AcDbLine
 62
7
  6
CONTINUOUS
 10
221.1704199653
 20
148.3423022432
 11
221.2502927472
 21
148.0023495136
  0
LINE
  5
2A3
100
AcDbEntity
  8
BEZUGSACHSEN
100
AcDbLine
 62
7
  6
CONTINUOUS
 10
197.1507523608
 20
153.4490925289
 11
197.1402198924
 21
153.8840512116
  0
LINE
  5
2A4
100
AcDbEntity
  8
KONSTRUKTIONSELEMENTE
100
AcDbLine
 62
7
  6
CONTINUOUS
 10
195.4931451538
 20
114.1359897163
 11
195.4931451538
 21
108.9008372936
  0
LINE
  5
2A5
100
AcDbEntity
  8
0
100
AcDbLine
 62
7
  6
CONTINUOUS
 10
199.05817866
 20
229.1315565234
 11
199.05817866
 21
143.2481180638
  0
LINE
  5
2A6
100
AcDbEntity
  8
KONSTRUKTIONSELEMENTE
100
AcDbLine
 62
7
  6
CONTINUOUS
 10
199.05817866
 20
87.5796642383
 11
199.05817866
 21
76.9730625205
  0
LINE
  5
2A7
100
AcDbEntity
  8
KONSTRUKTIONSELEMENTE
100
AcDbLine
 62
7
  6
CONTINUOUS
 10
201.81817866
 20
18.7781744289
 11
201.81817866
 21
10.5757357671
  0
LINE
  5
2A8
100
AcDbEntity
  8
0
100
AcDbLine
 62
7
  6
CONTINUOUS
 10
202.50817866
 20
99.7786765142
 11
202.50817866
 21
108.9008372936
  0
LINE
  5
2A9
100
AcDbEntity
  8
KONSTRUKTIONSELEMENTE
100
AcDbLine
 62
7
  6
CONTINUOUS
 10
202.50817866
 20
108.9008372936
 11
202.50817866
 21
119.3898372936
  0
LINE
  5
2AA
100
AcDbEntity
  8
KONSTRUKTIONSELEMENTE
100
AcDbLine
 62
7
  6
CONTINUOUS
 10
203.41817866
 20
9.4443649172
 11
203.41817866
 21
18.4953317164
  0
LINE
  5
2AB
100
AcDbEntity
  8
KONSTRUKTIONSELEMENTE
100
AcDbLine
 62
7
  6
CONTINUOUS
 10
203.55817866
 20
118.6923626105
 11
203.55817866
 21
113.9898372936
  0
LINE
  5
2AC
100
AcDbEntity
  8
KONSTRUKTIONSELEMENTE
100
AcDbLine
 62
7
  6
CONTINUOUS
 10
203.55817866
 20
87.5796642383
 11
203.55817866
 21
76.9730625205
  0
LINE
  5
2AD
100
AcDbEntity
  8
KONSTRUKTIONSELEMENTE
100
AcDbLine
 62
7
  6
CONTINUOUS
 10
204.55817866
 20
135.2257410236
 11
204.55817866
 21
129.7398732107
  0
LINE
  5
2AE
100
AcDbEntity
  8
KONSTRUKTIONSELEMENTE
100
AcDbLine
 62
7
  6
CONTINUOUS
 10
204.55817866
 20
123.185645404
 11
204.55817866
 21
117.7153333835
  0
LINE
  5
2AF
100
AcDbEntity
  8
KONSTRUKTIONSELEMENTE
100
AcDbLine
 62
7
  6
CONTINUOUS
 10
204.55817866
 20
77.9500917475
 11
204.55817866
 21
60.4396841074
  0
LINE
  5
2B0
100
AcDbEntity
  8
KONSTRUKTIONSELEMENTE
100
AcDbLine
 62
7
  6
CONTINUOUS
 10
204.80817866
 20
104.3898372936
 11
204.80817866
 21
86.7794117066
  0
LINE
  5
2B1
100
AcDbEntity
  8
KONSTRUKTIONSELEMENTE
100
AcDbLine
 62
7
  6
CONTINUOUS
 10
209.30817866
 20
104.3898372936
 11
209.30817866
 21
86.7794117066
  0
LINE
  5
2B2
100
AcDbEntity
  8
KONSTRUKTIONSELEMENTE
100
AcDbLine
 62
7
  6
CONTINUOUS
 10
209.55817866
 20
135.2257410236
 11
209.55817866
 21
129.7398732107
  0
LINE
  5
2B3
100
AcDbEntity
  8
KONSTRUKTIONSELEMENTE
100
AcDbLine
 62
7
  6
CONTINUOUS
 10
209.55817866
 20
123.185645404
 11
209.55817866
 21
117.7153333835
  0
LINE
  5
2B4
100
AcDbEntity
  8
KONSTRUKTIONSELEMENTE
100
AcDbLine
 62
7
  6
CONTINUOUS
 10
209.55817866
 20
77.9500917475
 11
209.55817866
 21
60.4396841074
  0
LINE
  5
2B5
100
AcDbEntity
  8
BEZUGSACHSEN
100
AcDbLine
 62
7
  6
CONTINUOUS
 10
224.9593563442
 20
149.5377815887
 11
225.0392277092
 21
149.1978316171
  0
LINE
  5
2B6
100
AcDbEntity
  8
BEZUGSACHSEN
100
AcDbLine
 62
7
  6
CONTINUOUS
 10
217.3663501652
 20
153.7827653075
 11
217.4121240063
 21
153.5216705066
  0
LINE
  5
2B7
100
AcDbEntity
  8
BEZUGSACHSEN
100
AcDbLine
 62
7
  6
CONTINUOUS
 10
220.1021071767
 20
154.9279778829
 11
220.1478810562
 21
154.6668831276
  0
LINE
  5
2B8
100
AcDbEntity
  8
BEZUGSACHSEN
100
AcDbLine
 62
7
  6
CONTINUOUS
 10
221.61065333
 20
148.4173013913
 11
221.6594290801
 21
148.1375267607
  0
LINE
  5
2B9
100
AcDbEntity
  8
BEZUGSACHSEN
100
AcDbLine
 62
7
  6
CONTINUOUS
 10
223.0691528069
 20
148.5610186759
 11
223.117928557
 21
148.2812440453
  0
LINE
  5
2BA
100
AcDbEntity
  8
BEZUGSACHSEN
100
AcDbLine
 62
7
  6
CONTINUOUS
 10
223.1984242823
 20
149.2377822282
 11
223.2472000324
 21
148.9580075976
  0
LINE
  5
2BB
100
AcDbEntity
  8
BEZUGSACHSEN
100
AcDbLine
 62
7
  6
CONTINUOUS
 10
224.5813156791
 20
149.342429028
 11
224.6300914292
 21
149.0626543974
  0
LINE
  5
2BC
100
AcDbEntity
  8
BEZUGSACHSEN
100
AcDbLine
 62
7
  6
CONTINUOUS
 10
217.0443283049
 20
157.2805135298
 11
217.0807324749
 21
157.0660384241
  0
LINE
  5
2BD
100
AcDbEntity
  8
BEZUGSACHSEN
100
AcDbLine
 62
7
  6
CONTINUOUS
 10
217.4230948664
 20
157.2659655322
 11
217.4365938776
 21
156.8697324791
  0
LINE
  5
2BE
100
AcDbEntity
  8
KONSTRUKTIONSELEMENTE
100
AcDbLine
 62
7
  6
CONTINUOUS
 10
210.55817866
 20
76.9730625205
 11
210.55817866
 21
87.5796642383
  0
LINE
  5
2BF
100
AcDbEntity
  8
KONSTRUKTIONSELEMENTE
100
AcDbLine
 62
7
  6
CONTINUOUS
 10
210.55817866
 20
113.9898372936
 11
210.55817866
 21
118.6923626105
  0
LINE
  5
2C0
100
AcDbEntity
  8
KONSTRUKTIONSELEMENTE
100
AcDbLine
 62
7
  6
CONTINUOUS
 10
210.69817866
 20
9.4443649172
 11
210.69817866
 21
18.4953317164
  0
LINE
  5
2C1
100
AcDbEntity
  8
0
100
AcDbLine
 62
7
  6
CONTINUOUS
 10
211.60817866
 20
108.9008372936
 11
211.60817866
 21
99.7786765142
  0
LINE
  5
2C2
100
AcDbEntity
  8
KONSTRUKTIONSELEMENTE
100
AcDbLine
 62
7
  6
CONTINUOUS
 10
211.60817866
 20
108.9008372936
 11
211.60817866
 21
119.3898372936
  0
LINE
  5
2C3
100
AcDbEntity
  8
KONSTRUKTIONSELEMENTE
100
AcDbLine
 62
7
  6
CONTINUOUS
 10
212.29817866
 20
10.5757357671
 11
212.29817866
 21
18.7781744289
  0
LINE
  5
2C4
100
AcDbEntity
  8
0
100
AcDbLine
 62
7
  6
CONTINUOUS
 10
215.05817866
 20
229.1315565234
 11
215.05817866
 21
143.2481180638
  0
LINE
  5
2C5
100
AcDbEntity
  8
KONSTRUKTIONSELEMENTE
100
AcDbLine
 62
7
  6
CONTINUOUS
 10
215.05817866
 20
76.9730625205
 11
215.05817866
 21
87.5796642383
  0
LINE
  5
2C6
100
AcDbEntity
  8
KONSTRUKTIONSELEMENTE
100
AcDbLine
 62
7
  6
CONTINUOUS
 10
218.6232121662
 20
114.1359897163
 11
218.6232121662
 21
108.9008372936
  0
LINE
  5
2C7
100
AcDbEntity
  8
RUNDUNGEN
100
AcDbLine
 62
7
  6
CONTINUOUS
 10
227.05817866
 20
104.6677777621
 11
227.05817866
 21
123.3050557757
  0
LINE
  5
2C8
100
AcDbEntity
  8
BEZUGSACHSEN
100
AcDbLine
 62
7
  6
CONTINUOUS
 10
216.9458506041
 20
153.9143883297
 11
216.9337809782
 21
153.4794703114
  0
LINE
  5
2C9
100
AcDbEntity
  8
BEZUGSACHSEN
100
AcDbLine
 62
7
  6
CONTINUOUS
 10
220.5804513714
 20
154.9701770565
 11
220.5683817647
 21
154.535259061
  0
LINE
  5
2CA
100
AcDbEntity
  8
BEZUGSACHSEN
100
AcDbLine
 62
7
  6
CONTINUOUS
 10
193.5157095158
 20
152.373396359
 11
193.555246324
 21
152.6909173311
  0
LINE
  5
2CB
100
AcDbEntity
  8
BEZUGSACHSEN
100
AcDbLine
 62
7
  6
CONTINUOUS
 10
196.6725610762
 20
153.4929817854
 11
196.7192568544
 21
153.753913278
  0
LINE
  5
2CC
100
AcDbEntity
  8
0
100
AcDbLine
 62
7
  6
CONTINUOUS
 10
232.05817866
 20
132.3168448878
 11
232.05817866
 21
148.5628296994
  0
LINE
  5
2CD
100
AcDbEntity
  8
KONSTRUKTIONSELEMENTE
100
AcDbLine
 62
7
  6
CONTINUOUS
 10
232.7534132876
 20
25.629745759
 11
232.7534132876
 21
22.8013186342
  0
LINE
  5
2CE
100
AcDbEntity
  8
KONSTRUKTIONSELEMENTE
100
AcDbLine
 62
7
  6
CONTINUOUS
 10
251.3055523353
 20
54.326466285
 11
251.3055523353
 21
51.4980391603
  0
LINE
  5
2CF
100
AcDbEntity
  8
BEZUGSACHSEN
100
AcDbLine
 62
7
  6
CONTINUOUS
 10
221.6374857129
 20
148.736146534
 11
221.61065333
 21
148.4173013913
  0
LINE
  5
2D0
100
AcDbEntity
  8
BEZUGSACHSEN
100
AcDbLine
 62
7
  6
CONTINUOUS
 10
222.8606314798
 20
149.5206987589
 11
222.8472160001
 21
149.3612748103
  0
LINE
  5
2D1
100
AcDbEntity
  8
BEZUGSACHSEN
100
AcDbLine
 62
7
  6
CONTINUOUS
 10
223.117928557
 20
148.2812440453
 11
223.0910961741
 21
147.9623989025
  0
LINE
  5
2D2
100
AcDbEntity
  8
BEZUGSACHSEN
100
AcDbLine
 62
7
  6
CONTINUOUS
 10
223.4691368392
 20
148.1577514632
 11
223.4557213595
 21
147.9983275145
  0
LINE
  5
2D3
100
AcDbEntity
  8
BEZUGSACHSEN
100
AcDbLine
 62
7
  6
CONTINUOUS
 10
221.2417648862
 20
148.7603932493
 11
221.1704199653
 21
148.3423022432
  0
LINE
  5
2D4
100
AcDbEntity
  8
BEZUGSACHSEN
100
AcDbLine
 62
7
  6
CONTINUOUS
 10
225.0392277092
 20
149.1978316171
 11
224.9678842317
 21
148.7797378666
  0
LINE
  5
2D5
100
AcDbEntity
  8
BEZUGSACHSEN
100
AcDbLine
 62
7
  6
CONTINUOUS
 10
216.363694913
 20
155.9064358001
 11
215.9520046839
 21
153.8980162106
  0
LINE
  5
2D6
100
AcDbEntity
  8
BEZUGSACHSEN
100
AcDbLine
 62
7
  6
CONTINUOUS
 10
215.9256176652
 20
155.9537017048
 11
215.5368339523
 21
154.1270393138
  0
LINE
  5
2D7
100
AcDbEntity
  8
BEZUGSACHSEN
100
AcDbLine
 62
7
  6
CONTINUOUS
 10
217.4272104601
 20
154.0653185459
 11
217.3663501652
 21
153.7827653075
  0
LINE
  5
2D8
100
AcDbEntity
  8
BEZUGSACHSEN
100
AcDbLine
 62
7
  6
CONTINUOUS
 10
217.0807324749
 20
157.0660384241
 11
217.0167193936
 21
156.8097604566
  0
LINE
  5
2D9
100
AcDbEntity
  8
BEZUGSACHSEN
100
AcDbLine
 62
7
  6
CONTINUOUS
 10
193.0806576643
 20
152.3788603086
 11
193.1432698778
 21
152.5900856525
  0
LINE
  5
2DA
100
AcDbEntity
  8
BEZUGSACHSEN
100
AcDbLine
 62
7
  6
CONTINUOUS
 10
197.0520943689
 20
153.1447088234
 11
197.1507523608
 21
153.4490925289
  0
LINE
  5
2DB
100
AcDbEntity
  8
0
100
AcDbLine
 62
7
  6
CONTINUOUS
 10
229.4621996221
 20
120.1037237424
 11
232.05817866
 21
132.3168448878
  0
LINE
  5
2DC
100
AcDbEntity
  8
BEZUGSACHSEN
100
AcDbLine
 62
7
  6
CONTINUOUS
 10
217.4365938776
 20
156.8697324791
 11
217.3725807963
 21
156.6134545116
  0
LINE
  5
2DD
100
AcDbEntity
  8
BEZUGSACHSEN
100
AcDbLine
 62
7
  6
CONTINUOUS
 10
223.3008647982
 20
149.5956978831
 11
223.1984242823
 21
149.2377822282
  0
LINE
  5
2DE
100
AcDbEntity
  8
BEZUGSACHSEN
100
AcDbLine
 62
7
  6
CONTINUOUS
 10
223.4557213595
 20
147.9983275145
 11
223.3532808436
 21
147.6404118596
  0
LINE
  5
2DF
100
AcDbEntity
  8
BEZUGSACHSEN
100
AcDbLine
 62
7
  6
CONTINUOUS
 10
224.6300914292
 20
149.0626543974
 11
224.5276509133
 21
148.7047387425
  0
LINE
  5
2E0
100
AcDbEntity
  8
BEZUGSACHSEN
100
AcDbLine
 62
7
  6
CONTINUOUS
 10
217.0615352432
 20
154.2620368531
 11
216.9458506041
 21
153.9143883297
  0
LINE
  5
2E1
100
AcDbEntity
  8
BEZUGSACHSEN
100
AcDbLine
 62
7
  6
CONTINUOUS
 10
221.3753010435
 20
149.0581335769
 11
221.2417648862
 21
148.7603932493
  0
LINE
  5
2E2
100
AcDbEntity
  8
BEZUGSACHSEN
100
AcDbLine
 62
7
  6
CONTINUOUS
 10
222.9941676106
 20
149.8184390729
 11
222.8606314798
 21
149.5206987589
  0
LINE
  5
2E3
100
AcDbEntity
  8
BEZUGSACHSEN
100
AcDbLine
 62
7
  6
CONTINUOUS
 10
224.9678842317
 20
148.7797378666
 11
224.8343481008
 21
148.4819975527
  0
LINE
  5
2E4
100
AcDbEntity
  8
BEZUGSACHSEN
100
AcDbLine
 62
7
  6
CONTINUOUS
 10
220.1478810562
 20
154.6668831276
 11
220.0352119249
 21
154.4279654644
  0
LINE
  5
2E5
100
AcDbEntity
  8
BEZUGSACHSEN
100
AcDbLine
 62
7
  6
CONTINUOUS
 10
217.5947049295
 20
154.3693302674
 11
217.4272104601
 21
154.0653185459
  0
LINE
  5
2E6
100
AcDbEntity
  8
BEZUGSACHSEN
100
AcDbLine
 62
7
  6
CONTINUOUS
 10
215.05817866
 20
157.6066128439
 11
215.6302888413
 21
158.6437283102
  0
LINE
  5
2E7
100
AcDbEntity
  8
BEZUGSACHSEN
100
AcDbLine
 62
7
  6
CONTINUOUS
 10
215.1639916784
 20
156.9570217535
 11
215.7806106315
 21
158.0748222645
  0
LINE
  5
2E8
100
AcDbEntity
  8
BEZUGSACHSEN
100
AcDbLine
 62
7
  6
CONTINUOUS
 10
217.0167193936
 20
156.8097604566
 11
216.8933955109
 21
156.5862001874
  0
LINE
  5
2E9
100
AcDbEntity
  8
BEZUGSACHSEN
100
AcDbLine
 62
7
  6
CONTINUOUS
 10
217.3725807963
 20
156.6134545116
 11
217.2081489911
 21
156.3153742222
  0
LINE
  5
2EA
100
AcDbEntity
  8
BEZUGSACHSEN
100
AcDbLine
 62
7
  6
CONTINUOUS
 10
217.2838552041
 20
154.6311428153
 11
217.0615352432
 21
154.2620368531
  0
LINE
  5
2EB
100
AcDbEntity
  8
BEZUGSACHSEN
100
AcDbLine
 62
7
  6
CONTINUOUS
 10
196.5193078421
 20
153.2538855828
 11
196.6725610762
 21
153.4929817854
  0
LINE
  5
2EC
100
AcDbEntity
  8
BEZUGSACHSEN
100
AcDbLine
 62
7
  6
CONTINUOUS
 10
196.8468792471
 20
152.8621606225
 11
197.0520943689
 21
153.1447088234
  0
LINE
  5
2ED
100
AcDbEntity
  8
0
100
AcDbLine
 62
7
  6
CONTINUOUS
 10
191.6073289413
 20
161.7061075024
 11
182.05817866
 21
148.5628296994
  0
LINE
  5
2EE
100
AcDbEntity
  8
BEZUGSACHSEN
100
AcDbLine
 62
7
  6
CONTINUOUS
 10
190.6911797264
 20
152.1438565929
 11
191.7194306622
 21
153.4030125821
  0
LINE
  5
2EF
100
AcDbEntity
  8
BEZUGSACHSEN
100
AcDbLine
 62
7
  6
CONTINUOUS
 10
191.2778382277
 20
152.1894913638
 11
192.0918701776
 21
153.1863231385
  0
LINE
  5
2F0
100
AcDbEntity
  8
BEZUGSACHSEN
100
AcDbLine
 62
7
  6
CONTINUOUS
 10
192.2666257143
 20
151.3820285338
 11
193.0806576643
 21
152.3788603086
  0
LINE
  5
2F1
100
AcDbEntity
  8
BEZUGSACHSEN
100
AcDbLine
 62
7
  6
CONTINUOUS
 10
192.6621406351
 20
151.0590434622
 11
193.3904850275
 21
151.9509455961
  0
LINE
  5
2F2
100
AcDbEntity
  8
BEZUGSACHSEN
100
AcDbLine
 62
7
  6
CONTINUOUS
 10
193.7893803085
 20
149.6138065632
 11
194.0464430425
 21
149.9285955605
  0
LINE
  5
2F3
100
AcDbEntity
  8
BEZUGSACHSEN
100
AcDbLine
 62
7
  6
CONTINUOUS
 10
195.1175377264
 20
151.2402163325
 11
195.417444331
 21
151.6074702628
  0
LINE
  5
2F4
100
AcDbEntity
  8
0
100
AcDbLine
 62
7
  6
CONTINUOUS
 10
302.05817866
 20
316.1898372936
 11
302.05817866
 21
476.1898372936
  0
LINE
  5
2F5
100
AcDbEntity
  8
BEZUGSACHSEN
100
AcDbLine
 62
7
  6
CONTINUOUS
 10
220.5683817647
 20
154.535259061
 11
220.3460616502
 21
154.1661529165
  0
LINE
  5
2F6
100
AcDbEntity
  8
BEZUGSACHSEN
100
AcDbLine
 62
7
  6
CONTINUOUS
 10
221.8466300297
 20
149.0729573874
 11
221.6374857129
 21
148.736146534
  0
LINE
  5
2F7
100
AcDbEntity
  8
BEZUGSACHSEN
100
AcDbLine
 62
7
  6
CONTINUOUS
 10
223.0910961741
 20
147.9623989025
 11
222.8819518044
 21
147.6255880218
  0
LINE
  5
2F8
100
AcDbEntity
  8
BEZUGSACHSEN
100
AcDbLine
 62
7
  6
CONTINUOUS
 10
223.4654965439
 20
149.833262856
 11
223.3008647982
 21
149.5956978831
  0
LINE
  5
2F9
100
AcDbEntity
  8
BEZUGSACHSEN
100
AcDbLine
 62
7
  6
CONTINUOUS
 10
224.5276509133
 20
148.7047387425
 11
224.3630189557
 21
148.4671736601
  0
LINE
  5
2FA
100
AcDbEntity
  8
BEZUGSACHSEN
100
AcDbLine
 62
7
  6
CONTINUOUS
 10
217.2838552041
 20
154.6311428153
 11
218.1062376548
 21
155.6075565165
  0
LINE
  5
2FB
100
AcDbEntity
  8
BEZUGSACHSEN
100
AcDbLine
 62
7
  6
CONTINUOUS
 10
217.5947049295
 20
154.3693302674
 11
218.4170873802
 21
155.3457439686
  0
LINE
  5
2FC
100
AcDbEntity
  8
BEZUGSACHSEN
100
AcDbLine
 62
7
  6
CONTINUOUS
 10
219.0755079125
 20
154.2348361203
 11
218.7465549629
 21
153.8442706762
  0
LINE
  5
2FD
100
AcDbEntity
  8
BEZUGSACHSEN
100
AcDbLine
 62
7
  6
CONTINUOUS
 10
219.212829551
 20
153.4515518544
 11
218.7742255414
 21
152.9307978378
  0
LINE
  5
2FE
100
AcDbEntity
  8
BEZUGSACHSEN
100
AcDbLine
 62
7
  6
CONTINUOUS
 10
219.8526322259
 20
153.5803047505
 11
219.0302497752
 21
152.6038910492
  0
LINE
  5
2FF
100
AcDbEntity
  8
BEZUGSACHSEN
100
AcDbLine
 62
7
  6
CONTINUOUS
 10
216.710761057
 20
156.395358034
 11
216.8933955109
 21
156.5862001874
  0
LINE
  5
300
100
AcDbEntity
  8
BEZUGSACHSEN
100
AcDbLine
 62
7
  6
CONTINUOUS
 10
217.0255145372
 20
156.1245320689
 11
217.2081489911
 21
156.3153742222
  0
LINE
  5
301
100
AcDbEntity
  8
BEZUGSACHSEN
100
AcDbLine
 62
7
  6
CONTINUOUS
 10
193.2416613714
 20
155.0616296088
 11
193.5534340642
 21
155.3223426839
  0
LINE
  5
302
100
AcDbEntity
  8
BEZUGSACHSEN
100
AcDbLine
 62
7
  6
CONTINUOUS
 10
194.8005242408
 20
156.3651944872
 11
195.1122967849
 21
156.625907438
  0
LINE
  5
303
100
AcDbEntity
  8
BEZUGSACHSEN
100
AcDbLine
 62
7
  6
CONTINUOUS
 10
196.3114593802
 20
153.0800768661
 11
196.5193078421
 21
153.2538855828
  0
LINE
  5
304
100
AcDbEntity
  8
BEZUGSACHSEN
100
AcDbLine
 62
7
  6
CONTINUOUS
 10
196.6390307852
 20
152.6883519057
 11
196.8468792471
 21
152.8621606225
  0
LINE
  5
305
100
AcDbEntity
  8
0
100
AcDbLine
 62
7
  6
CONTINUOUS
 10
324.05817866
 20
316.1898372936
 11
324.05817866
 21
476.1898372936
  0
LINE
  5
306
100
AcDbEntity
  8
RUNDUNGEN
100
AcDbLine
 62
7
  6
CONTINUOUS
 10
227.3261278525
 20
116.4039389087
 11
229.4621996221
 21
120.1037237424
  0
LINE
  5
307
100
AcDbEntity
  8
BEZUGSACHSEN
100
AcDbLine
 62
7
  6
CONTINUOUS
 10
223.2344074894
 20
150.095074558
 11
222.9941676106
 21
149.8184390729
  0
LINE
  5
308
100
AcDbEntity
  8
BEZUGSACHSEN
100
AcDbLine
 62
7
  6
CONTINUOUS
 10
221.6911491082
 20
149.3738396015
 11
221.3753010435
 21
149.0581335769
  0
LINE
  5
309
100
AcDbEntity
  8
BEZUGSACHSEN
100
AcDbLine
 62
7
  6
CONTINUOUS
 10
223.3532808436
 20
147.6404118596
 11
223.0374327259
 21
147.3247058077
  0
LINE
  5
30A
100
AcDbEntity
  8
BEZUGSACHSEN
100
AcDbLine
 62
7
  6
CONTINUOUS
 10
224.8343481008
 20
148.4819975527
 11
224.5184998772
 21
148.166291446
  0
LINE
  5
30B
100
AcDbEntity
  8
BEZUGSACHSEN
100
AcDbLine
 62
7
  6
CONTINUOUS
 10
218.1062376548
 20
155.6075565165
 11
218.4321727634
 21
155.8893931434
  0
LINE
  5
30C
100
AcDbEntity
  8
BEZUGSACHSEN
100
AcDbLine
 62
7
  6
CONTINUOUS
 10
218.4170873802
 20
155.3457439686
 11
218.6881968436
 21
155.5624861725
  0
LINE
  5
30D
100
AcDbEntity
  8
BEZUGSACHSEN
100
AcDbLine
 62
7
  6
CONTINUOUS
 10
218.7591402734
 20
152.3871487998
 11
219.0302497752
 21
152.6038910492
  0
LINE
  5
30E
100
AcDbEntity
  8
BEZUGSACHSEN
100
AcDbLine
 62
7
  6
CONTINUOUS
 10
191.7194306622
 20
153.4030125821
 11
191.9995688014
 21
153.6115059513
  0
LINE
  5
30F
100
AcDbEntity
  8
BEZUGSACHSEN
100
AcDbLine
 62
7
  6
CONTINUOUS
 10
218.5579415696
 20
152.7791498746
 11
218.7742255414
 21
152.9307978378
  0
LINE
  5
310
100
AcDbEntity
  8
BEZUGSACHSEN
100
AcDbLine
 62
7
  6
CONTINUOUS
 10
196.1971185848
 20
157.3832440723
 11
197.6216824142
 21
158.1664373358
  0
LINE
  5
311
100
AcDbEntity
  8
BEZUGSACHSEN
100
AcDbLine
 62
7
  6
CONTINUOUS
 10
196.7992692695
 20
157.1315710225
 11
197.8676921415
 21
157.7189659701
  0
LINE
  5
312
100
AcDbEntity
  8
BEZUGSACHSEN
100
AcDbLine
 62
7
  6
CONTINUOUS
 10
198.2343262132
 20
154.5213210234
 11
199.05817866
 21
154.974256633
  0
LINE
  5
313
100
AcDbEntity
  8
BEZUGSACHSEN
100
AcDbLine
 62
7
  6
CONTINUOUS
 10
198.1241950119
 20
153.8780512896
 11
199.05817866
 21
154.3915345652
  0
LINE
  5
314
100
AcDbEntity
  8
BEZUGSACHSEN
100
AcDbLine
 62
7
  6
CONTINUOUS
 10
192.0918701776
 20
153.1863231385
 11
192.2863206981
 21
153.2898867919
  0
LINE
  5
315
100
AcDbEntity
  8
0
100
AcDbLine
 62
7
  6
CONTINUOUS
 10
199.05817866
 20
164.1270353297
 11
191.6073289413
 21
161.7061075024
  0
LINE
  5
316
100
AcDbEntity
  8
0
100
AcDbLine
 62
7
  6
CONTINUOUS
 10
226.2456395416
 20
102.9714908801
 11
222.6230544429
 21
98.6542620742
  0
LINE
  5
317
100
AcDbEntity
  8
RUNDUNGEN
100
AcDbLine
 62
7
  6
CONTINUOUS
 10
226.5902675463
 20
103.3822025428
 11
226.2456395416
 21
102.9714908801
  0
LINE
  5
318
100
AcDbEntity
  8
BEZUGSACHSEN
100
AcDbLine
 62
7
  6
CONTINUOUS
 10
216.6831521457
 20
155.9246049608
 11
217.0255145372
 21
156.1245320689
  0
LINE
  5
319
100
AcDbEntity
  8
BEZUGSACHSEN
100
AcDbLine
 62
7
  6
CONTINUOUS
 10
218.4321727634
 20
155.8893931434
 11
218.7550920954
 21
156.062498591
  0
LINE
  5
31A
100
AcDbEntity
  8
BEZUGSACHSEN
100
AcDbLine
 62
7
  6
CONTINUOUS
 10
221.6911491082
 20
149.3738396015
 11
221.9179735073
 21
149.4910511379
  0
LINE
  5
31B
100
AcDbEntity
  8
BEZUGSACHSEN
100
AcDbLine
 62
7
  6
CONTINUOUS
 10
223.2344074894
 20
150.095074558
 11
223.4612318884
 21
150.2122860944
  0
LINE
  5
31C
100
AcDbEntity
  8
BEZUGSACHSEN
100
AcDbLine
 62
7
  6
CONTINUOUS
 10
221.8466300297
 20
149.0729573874
 11
222.0734544288
 21
149.1901689238
  0
LINE
  5
31D
100
AcDbEntity
  8
BEZUGSACHSEN
100
AcDbLine
 62
7
  6
CONTINUOUS
 10
223.61671281
 20
149.9114038803
 11
223.4654965439
 21
149.833262856
  0
LINE
  5
31E
100
AcDbEntity
  8
BEZUGSACHSEN
100
AcDbLine
 62
7
  6
CONTINUOUS
 10
224.3630189557
 20
148.4671736601
 11
224.2118026897
 21
148.3890326358
  0
LINE
  5
31F
100
AcDbEntity
  8
BEZUGSACHSEN
100
AcDbLine
 62
7
  6
CONTINUOUS
 10
222.8819518044
 20
147.6255880218
 11
222.6551274053
 21
147.5083764854
  0
LINE
  5
320
100
AcDbEntity
  8
BEZUGSACHSEN
100
AcDbLine
 62
7
  6
CONTINUOUS
 10
224.5184998772
 20
148.166291446
 11
224.2916754782
 21
148.0490799096
  0
LINE
  5
321
100
AcDbEntity
  8
BEZUGSACHSEN
100
AcDbLine
 62
7
  6
CONTINUOUS
 10
223.0374327259
 20
147.3247058077
 11
222.8106083268
 21
147.2074942713
  0
LINE
  5
322
100
AcDbEntity
  8
BEZUGSACHSEN
100
AcDbLine
 62
7
  6
CONTINUOUS
 10
196.3246251983
 20
152.5363786877
 11
196.6390307852
 21
152.6883519057
  0
LINE
  5
323
100
AcDbEntity
  8
BEZUGSACHSEN
100
AcDbLine
 62
7
  6
CONTINUOUS
 10
216.5099251968
 20
156.3117530591
 11
216.710761057
 21
156.395358034
  0
LINE
  5
324
100
AcDbEntity
  8
BEZUGSACHSEN
100
AcDbLine
 62
7
  6
CONTINUOUS
 10
196.0490159879
 20
152.9715558837
 11
196.3114593802
 21
153.0800768661
  0
LINE
  5
325
100
AcDbEntity
  8
BEZUGSACHSEN
100
AcDbLine
 62
7
  6
CONTINUOUS
 10
218.6881968436
 20
155.5624861725
 11
218.9562896518
 21
155.6704985604
  0
LINE
  5
326
100
AcDbEntity
  8
KONSTRUKTIONSELEMENTE
100
AcDbLine
 62
7
  6
CONTINUOUS
 10
225.5123788837
 20
28.4899146071
 11
239.5433051735
 21
49.7663464913
  0
LINE
  5
327
100
AcDbEntity
  8
KONSTRUKTIONSELEMENTE
100
AcDbLine
 62
7
  6
CONTINUOUS
 10
232.5242788997
 20
22.391155586
 11
232.7159364024
 21
22.6817841388
  0
LINE
  5
328
100
AcDbEntity
  8
KONSTRUKTIONSELEMENTE
100
AcDbLine
 62
7
  6
CONTINUOUS
 10
250.4659033955
 20
49.5977521851
 11
250.9307834834
 21
50.3026942054
  0
LINE
  5
329
100
AcDbEntity
  8
KONSTRUKTIONSELEMENTE
100
AcDbLine
 62
7
  6
CONTINUOUS
 10
200.2962864722
 20
68.488434932
 11
174.1834098082
 21
59.8782542005
  0
LINE
  5
32A
100
AcDbEntity
  8
KONSTRUKTIONSELEMENTE
100
AcDbLine
 62
7
  6
CONTINUOUS
 10
200.2962864722
 20
65.6600078072
 11
174.1834098082
 21
57.0498270758
  0
LINE
  5
32B
100
AcDbEntity
  8
KONSTRUKTIONSELEMENTE
100
AcDbLine
 62
7
  6
CONTINUOUS
 10
177.6376414184
 20
53.8196348228
 11
172.9248409258
 21
52.2656863814
  0
LINE
  5
32C
100
AcDbEntity
  8
KONSTRUKTIONSELEMENTE
100
AcDbLine
 62
7
  6
CONTINUOUS
 10
174.688599489
 20
52.7302905065
 11
178.1462839484
 21
53.8703904078
  0
LINE
  5
32D
100
AcDbEntity
  8
KONSTRUKTIONSELEMENTE
100
AcDbLine
 62
7
  6
CONTINUOUS
 10
177.8835935478
 20
49.2996298205
 11
181.2175140427
 21
50.3989211156
  0
LINE
  5
32E
100
AcDbEntity
  8
KONSTRUKTIONSELEMENTE
100
AcDbLine
 62
7
  6
CONTINUOUS
 10
177.8835935478
 20
47.0368881207
 11
181.5088246959
 21
48.2322330756
  0
LINE
  5
32F
100
AcDbEntity
  8
KONSTRUKTIONSELEMENTE
100
AcDbLine
 62
7
  6
CONTINUOUS
 10
177.4722134221
 20
45.6529144229
 11
182.1850139147
 21
47.2068628643
  0
LINE
  5
330
100
AcDbEntity
  8
KONSTRUKTIONSELEMENTE
100
AcDbLine
 62
7
  6
CONTINUOUS
 10
177.4722134221
 20
45.3700717104
 11
182.1850139147
 21
46.9240201518
  0
LINE
  5
331
100
AcDbEntity
  8
KONSTRUKTIONSELEMENTE
100
AcDbLine
 62
7
  6
CONTINUOUS
 10
395.3141411132
 20
12.272792042
 11
398.1425682379
 21
9.4443649172
  0
LINE
  5
332
100
AcDbEntity
  8
KONSTRUKTIONSELEMENTE
100
AcDbLine
 62
7
  6
CONTINUOUS
 10
440.9638897021
 20
52.2656863814
 11
440.4247044368
 21
52.292186541
  0
LINE
  5
333
100
AcDbEntity
  8
KONSTRUKTIONSELEMENTE
100
AcDbLine
 62
7
  6
CONTINUOUS
 10
409.4562767369
 20
20.7580734162
 11
406.6278496122
 21
23.5865005409
  0
LINE
  5
334
100
AcDbEntity
  8
KONSTRUKTIONSELEMENTE
100
AcDbLine
 62
7
  6
CONTINUOUS
 10
434.0682750312
 20
45.3700717104
 11
433.7854323187
 21
45.6529144229
  0
LINE
  5
335
100
AcDbEntity
  8
KONSTRUKTIONSELEMENTE
100
AcDbLine
 62
7
  6
CONTINUOUS
 10
431.2398479064
 20
48.1984988352
 11
431.5226906189
 21
47.9156561227
  0
LINE
  5
336
100
AcDbEntity
  8
KONSTRUKTIONSELEMENTE
100
AcDbLine
 62
7
  6
CONTINUOUS
 10
438.4382939539
 20
53.298747722
 11
439.168523918
 21
52.5685177579
  0
LINE
  5
337
100
AcDbEntity
  8
BEZUGSACHSEN
100
AcDbLine
 62
7
  6
CONTINUOUS
 10
452.5897903893
 20
69.5484413181
 11
455.4182175141
 21
66.7200141933
  0
LINE
  5
338
100
AcDbEntity
  8
KONSTRUKTIONSELEMENTE
100
AcDbLine
 62
7
  6
CONTINUOUS
 10
449.0542564834
 20
74.851742177
 11
452.5897903893
 21
71.316208271
  0
LINE
  5
339
100
AcDbEntity
  8
KONSTRUKTIONSELEMENTE
100
AcDbLine
 62
7
  6
CONTINUOUS
 10
449.407809874
 20
75.2052955676
 11
452.9433437799
 21
71.6697616616
  0
LINE
  5
33A
100
AcDbEntity
  8
0
100
AcDbLine
 62
7
  6
CONTINUOUS
 10
551.0048099423
 20
120.1037237424
 11
557.1144170368
 21
120.1037237424
  0
LINE
  5
33B
100
AcDbEntity
  8
0
100
AcDbLine
 62
7
  6
CONTINUOUS
 10
551.0855721823
 20
132.3168448878
 11
557.0336547969
 21
132.3168448878
  0
LINE
  5
33C
100
AcDbEntity
  8
0
100
AcDbLine
 62
7
  6
CONTINUOUS
 10
551.1329854226
 20
148.5628296994
 11
556.9862415566
 21
148.5628296994
  0
LINE
  5
33D
100
AcDbEntity
  8
BEZUGSACHSEN
100
AcDbLine
 62
7
  6
CONTINUOUS
 10
558.8683846299
 20
149.6138065632
 11
559.0956793946
 21
149.6138065632
  0
LINE
  5
33E
100
AcDbEntity
  8
BEZUGSACHSEN
100
AcDbLine
 62
7
  6
CONTINUOUS
 10
558.8741096586
 20
151.2402163325
 11
559.1196306277
 21
151.2402163325
  0
LINE
  5
33F
100
AcDbEntity
  8
BEZUGSACHSEN
100
AcDbLine
 62
7
  6
CONTINUOUS
 10
558.128922527
 20
152.1438565929
 11
558.3592196532
 21
152.1438565929
  0
LINE
  5
340
100
AcDbEntity
  8
BEZUGSACHSEN
100
AcDbLine
 62
7
  6
CONTINUOUS
 10
559.0596134896
 20
152.3013128471
 11
559.0803799927
 21
152.3013128471
  0
LINE
  5
341
100
AcDbEntity
  8
BEZUGSACHSEN
100
AcDbLine
 62
7
  6
CONTINUOUS
 10
559.0596134896
 20
152.3456673789
 11
559.1164424832
 21
152.3456673789
  0
LINE
  5
342
100
AcDbEntity
  8
BEZUGSACHSEN
100
AcDbLine
 62
7
  6
CONTINUOUS
 10
558.4511965899
 20
152.3788603086
 11
558.693283058
 21
152.3788603086
  0
LINE
  5
343
100
AcDbEntity
  8
BEZUGSACHSEN
100
AcDbLine
 62
7
  6
CONTINUOUS
 10
558.827446421
 20
152.4931449597
 11
559.0849055244
 21
152.4931449597
  0
LINE
  5
344
100
AcDbEntity
  8
BEZUGSACHSEN
100
AcDbLine
 62
7
  6
CONTINUOUS
 10
559.0849055244
 20
152.4987489242
 11
559.1368063855
 21
152.4987489242
  0
LINE
  5
345
100
AcDbEntity
  8
BEZUGSACHSEN
100
AcDbLine
 62
7
  6
CONTINUOUS
 10
558.7617685656
 20
152.5804864575
 11
559.0174107955
 21
152.5804864575
  0
LINE
  5
346
100
AcDbEntity
  8
BEZUGSACHSEN
100
AcDbLine
 62
7
  6
CONTINUOUS
 10
558.4513712814
 20
152.5900856525
 11
558.6779592744
 21
152.5900856525
  0
LINE
  5
347
100
AcDbEntity
  8
BEZUGSACHSEN
100
AcDbLine
 62
7
  6
CONTINUOUS
 10
558.7141761502
 20
152.7547320879
 11
558.9520552616
 21
152.7547320879
  0
LINE
  5
348
100
AcDbEntity
  8
BEZUGSACHSEN
100
AcDbLine
 62
7
  6
CONTINUOUS
 10
558.4538863532
 20
152.8026770588
 11
558.6464725991
 21
152.8026770588
  0
LINE
  5
349
100
AcDbEntity
  8
BEZUGSACHSEN
100
AcDbLine
 62
7
  6
CONTINUOUS
 10
558.4557022605
 20
153.0166343775
 11
558.5991118206
 21
153.0166343775
  0
LINE
  5
34A
100
AcDbEntity
  8
BEZUGSACHSEN
100
AcDbLine
 62
7
  6
CONTINUOUS
 10
558.6612901347
 20
153.0377172755
 11
558.8722959842
 21
153.0377172755
  0
LINE
  5
34B
100
AcDbEntity
  8
BEZUGSACHSEN
100
AcDbLine
 62
7
  6
CONTINUOUS
 10
558.9434401834
 20
153.0800768661
 11
559.0451173696
 21
153.0800768661
  0
LINE
  5
34C
100
AcDbEntity
  8
BEZUGSACHSEN
100
AcDbLine
 62
7
  6
CONTINUOUS
 10
558.456714369
 20
153.1781270642
 11
558.551791771
 21
153.1781270642
  0
LINE
  5
34D
100
AcDbEntity
  8
BEZUGSACHSEN
100
AcDbLine
 62
7
  6
CONTINUOUS
 10
558.8926031589
 20
153.2538855828
 11
559.0470028638
 21
153.2538855828
  0
LINE
  5
34E
100
AcDbEntity
  8
BEZUGSACHSEN
100
AcDbLine
 62
7
  6
CONTINUOUS
 10
558.4729069937
 20
153.2871548172
 11
558.5045108784
 21
153.2871548172
  0
LINE
  5
34F
100
AcDbEntity
  8
BEZUGSACHSEN
100
AcDbLine
 62
7
  6
CONTINUOUS
 10
558.1360293231
 20
153.4030125821
 11
558.377633192
 21
153.4030125821
  0
LINE
  5
350
100
AcDbEntity
  8
BEZUGSACHSEN
100
AcDbLine
 62
7
  6
CONTINUOUS
 10
558.8326789006
 20
153.4929817854
 11
559.032260154
 21
153.4929817854
  0
LINE
  5
351
100
AcDbEntity
  8
BEZUGSACHSEN
100
AcDbLine
 62
7
  6
CONTINUOUS
 10
558.1502063375
 20
153.6115059513
 11
558.3940903442
 21
153.6115059513
  0
LINE
  5
352
100
AcDbEntity
  8
BEZUGSACHSEN
100
AcDbLine
 62
7
  6
CONTINUOUS
 10
558.1954334617
 20
153.6598726969
 11
558.4411682974
 21
153.6598726969
  0
LINE
  5
353
100
AcDbEntity
  8
BEZUGSACHSEN
100
AcDbLine
 62
7
  6
CONTINUOUS
 10
558.769851341
 20
153.753913278
 11
559.0009220554
 21
153.753913278
  0
LINE
  5
354
100
AcDbEntity
  8
BEZUGSACHSEN
100
AcDbLine
 62
7
  6
CONTINUOUS
 10
559.0314488788
 20
153.8780512896
 11
559.1420408236
 21
153.8780512896
  0
LINE
  5
355
100
AcDbEntity
  8
BEZUGSACHSEN
100
AcDbLine
 62
7
  6
CONTINUOUS
 10
558.7017529503
 20
154.0366799694
 11
558.953477723
 21
154.0366799694
  0
LINE
  5
356
100
AcDbEntity
  8
BEZUGSACHSEN
100
AcDbLine
 62
7
  6
CONTINUOUS
 10
558.6220298329
 20
154.3412821539
 11
558.8902492675
 21
154.3412821539
  0
LINE
  5
357
100
AcDbEntity
  8
BEZUGSACHSEN
100
AcDbLine
 62
7
  6
CONTINUOUS
 10
559.1457708616
 20
154.9449810009
 11
559.1604541344
 21
154.9449810009
  0
LINE
  5
358
100
AcDbEntity
  8
BEZUGSACHSEN
100
AcDbLine
 62
7
  6
CONTINUOUS
 10
558.1297044561
 20
155.0616296088
 11
558.3857857418
 21
155.0616296088
  0
LINE
  5
359
100
AcDbEntity
  8
BEZUGSACHSEN
100
AcDbLine
 62
7
  6
CONTINUOUS
 10
558.9318553614
 20
155.108715971
 11
559.0668765517
 21
155.108715971
  0
LINE
  5
35A
100
AcDbEntity
  8
BEZUGSACHSEN
100
AcDbLine
 62
7
  6
CONTINUOUS
 10
559.1132646222
 20
155.1412869458
 11
559.1573260037
 21
155.1412869458
  0
LINE
  5
35B
100
AcDbEntity
  8
BEZUGSACHSEN
100
AcDbLine
 62
7
  6
CONTINUOUS
 10
558.8886255076
 20
155.3138266181
 11
559.0512358046
 21
155.3138266181
  0
LINE
  5
35C
100
AcDbEntity
  8
BEZUGSACHSEN
100
AcDbLine
 62
7
  6
CONTINUOUS
 10
558.1335107828
 20
155.3223426839
 11
558.3920359499
 21
155.3223426839
  0
LINE
  5
35D
100
AcDbEntity
  8
BEZUGSACHSEN
100
AcDbLine
 62
7
  6
CONTINUOUS
 10
558.8365512743
 20
155.5608829501
 11
559.0192301473
 21
155.5608829501
  0
LINE
  5
35E
100
AcDbEntity
  8
BEZUGSACHSEN
100
AcDbLine
 62
7
  6
CONTINUOUS
 10
558.7756332654
 20
155.8498848628
 11
558.9713553047
 21
155.8498848628
  0
LINE
  5
35F
100
AcDbEntity
  8
BEZUGSACHSEN
100
AcDbLine
 62
7
  6
CONTINUOUS
 10
558.7058569008
 20
156.1808320348
 11
558.9079309435
 21
156.1808320348
  0
LINE
  5
360
100
AcDbEntity
  8
BEZUGSACHSEN
100
AcDbLine
 62
7
  6
CONTINUOUS
 10
558.1335107814
 20
156.3651944872
 11
558.4013049363
 21
156.3651944872
  0
LINE
  5
361
100
AcDbEntity
  8
BEZUGSACHSEN
100
AcDbLine
 62
7
  6
CONTINUOUS
 10
558.1297044561
 20
156.625907438
 11
558.3996739983
 21
156.625907438
  0
LINE
  5
362
100
AcDbEntity
  8
BEZUGSACHSEN
100
AcDbLine
 62
7
  6
CONTINUOUS
 10
558.5095116471
 20
157.2995105535
 11
558.6714273077
 21
157.2995105535
  0
LINE
  5
363
100
AcDbEntity
  8
BEZUGSACHSEN
100
AcDbLine
 62
7
  6
CONTINUOUS
 10
558.1280985101
 20
157.3832440723
 11
558.4047468364
 21
157.3832440723
  0
LINE
  5
364
100
AcDbEntity
  8
BEZUGSACHSEN
100
AcDbLine
 62
7
  6
CONTINUOUS
 10
558.5137486097
 20
157.5651918692
 11
558.6086781598
 21
157.5651918692
  0
LINE
  5
365
100
AcDbEntity
  8
BEZUGSACHSEN
100
AcDbLine
 62
7
  6
CONTINUOUS
 10
558.5148320501
 20
157.7236615312
 11
558.5618656361
 21
157.7236615312
  0
LINE
  5
366
100
AcDbEntity
  8
BEZUGSACHSEN
100
AcDbLine
 62
7
  6
CONTINUOUS
 10
558.1362198699
 20
158.1664373358
 11
558.4201949546
 21
158.1664373358
  0
LINE
  5
367
100
AcDbEntity
  8
BEZUGSACHSEN
100
AcDbLine
 62
7
  6
CONTINUOUS
 10
558.1506101515
 20
158.2550241625
 11
558.4359932203
 21
158.2550241625
  0
LINE
  5
368
100
AcDbEntity
  8
BEZUGSACHSEN
100
AcDbLine
 62
7
  6
CONTINUOUS
 10
558.9925770725
 20
152.9717744256
 11
559.0266354061
 21
152.9715558837
  0
LINE
  5
369
100
AcDbEntity
  8
0
100
AcDbLine
 62
7
  6
CONTINUOUS
 10
551.1329854226
 20
161.7061075024
 11
556.9862415566
 21
161.7061075024
  0
LINE
  5
36A
100
AcDbEntity
  8
0
100
AcDbLine
 62
7
  6
CONTINUOUS
 10
556.9862415566
 20
166.7263928996
 11
551.1329854226
 21
166.7263928996
  0
LINE
  5
36B
100
AcDbEntity
  8
KONSTRUKTIONSELEMENTE
100
AcDbLine
 62
7
  6
CONTINUOUS
 10
506.3299057595
 20
132.1273914531
 11
509.8654396654
 21
128.5918575472
  0
LINE
  5
36C
100
AcDbEntity
  8
KONSTRUKTIONSELEMENTE
100
AcDbLine
 62
7
  6
CONTINUOUS
 10
506.6834591501
 20
132.4809448437
 11
510.218993056
 21
128.9454109377
  0
LINE
  5
36D
100
AcDbEntity
  8
KONSTRUKTIONSELEMENTE
100
AcDbLine
 62
7
  6
CONTINUOUS
 10
438.161962737
 20
54.5549282408
 11
438.1354625773
 21
55.0941135061
  0
LINE
  5
36E
100
AcDbEntity
  8
0
100
AcDbLine
 62
7
  6
CONTINUOUS
 10
544.5427493146
 20
103.1905209764
 11
543.2717830429
 21
105.2066862757
  0
LINE
  5
36F
100
AcDbEntity
  8
RUNDUNGEN
100
AcDbLine
 62
7
  6
CONTINUOUS
 10
564.9076897009
 20
115.6359897163
 11
560.0213638759
 21
124.0993543075
  0
LINE
  5
370
100
AcDbEntity
  8
0
100
AcDbLine
 62
7
  6
CONTINUOUS
 10
521.0596134896
 20
168.1898372936
 11
521.0596134896
 21
204.1898372936
  0
LINE
  5
371
100
AcDbEntity
  8
KONSTRUKTIONSELEMENTE
100
AcDbLine
 62
7
  6
CONTINUOUS
 10
556.9862415566
 20
166.7263928996
 11
558.9023747062
 21
156.3878635827
  0
LINE
  5
372
100
AcDbEntity
  8
RUNDUNGEN
100
AcDbLine
 62
7
  6
CONTINUOUS
 10
557.2111439783
 20
118.7822471284
 11
557.1144170368
 21
120.1037237424
  0
LINE
  5
373
100
AcDbEntity
  8
0
100
AcDbLine
 62
7
  6
CONTINUOUS
 10
550.9660152731
 20
136.0316627759
 11
551.0855721823
 21
132.3168448878
  0
LINE
  5
374
100
AcDbEntity
  8
0
100
AcDbLine
 62
7
  6
CONTINUOUS
 10
537.0596134896
 20
168.1898372936
 11
537.0596134896
 21
204.1898372936
  0
LINE
  5
375
100
AcDbEntity
  8
0
100
AcDbLine
 62
7
  6
CONTINUOUS
 10
542.8096134896
 20
106.8065039603
 11
542.8096134896
 21
114.1359897163
  0
LINE
  5
376
100
AcDbEntity
  8
0
100
AcDbLine
 62
7
  6
CONTINUOUS
 10
543.0596134896
 20
582.1252649576
 11
543.0596134896
 21
210.2544096296
  0
LINE
  5
377
100
AcDbEntity
  8
0
100
AcDbLine
 62
7
  6
CONTINUOUS
 10
546.0596134896
 20
121.3728499955
 11
546.0596134896
 21
126.6781205714
  0
LINE
  5
378
100
AcDbEntity
  8
0
100
AcDbLine
 62
7
  6
CONTINUOUS
 10
549.0596134896
 20
155.2178742055
 11
549.0596134896
 21
130.3523551856
  0
LINE
  5
379
100
AcDbEntity
  8
0
100
AcDbLine
 62
7
  6
CONTINUOUS
 10
551.0855721823
 20
132.3168448878
 11
551.0048099423
 21
120.1037237424
  0
LINE
  5
37A
100
AcDbEntity
  8
0
100
AcDbLine
 62
7
  6
CONTINUOUS
 10
557.0336547969
 20
132.3168448878
 11
557.1144170368
 21
120.1037237424
  0
LINE
  5
37B
100
AcDbEntity
  8
BEZUGSACHSEN
100
AcDbLine
 62
7
  6
CONTINUOUS
 10
559.0596134896
 20
153.8780512896
 11
559.0596134896
 21
153.6932459319
  0
LINE
  5
37C
100
AcDbEntity
  8
BEZUGSACHSEN
100
AcDbLine
 62
7
  6
CONTINUOUS
 10
559.0596134896
 20
152.4931449597
 11
559.0596134896
 21
151.7315000543
  0
LINE
  5
37D
100
AcDbEntity
  8
BEZUGSACHSEN
100
AcDbLine
 62
7
  6
CONTINUOUS
 10
559.0596134896
 20
151.2402163325
 11
559.0596134896
 21
150.0822021262
  0
LINE
  5
37E
100
AcDbEntity
  8
BEZUGSACHSEN
100
AcDbLine
 62
7
  6
CONTINUOUS
 10
559.0596134896
 20
149.6138065632
 11
559.0596134896
 21
137.8736581143
  0
LINE
  5
37F
100
AcDbEntity
  8
KONSTRUKTIONSELEMENTE
100
AcDbLine
 62
7
  6
CONTINUOUS
 10
559.0596134896
 20
137.8736581143
 11
559.0596134896
 21
130.3523551856
  0
LINE
  5
380
100
AcDbEntity
  8
RUNDUNGEN
100
AcDbLine
 62
7
  6
CONTINUOUS
 10
559.0596134896
 20
137.8736581045
 11
559.0596134896
 21
130.3523551856
  0
LINE
  5
381
100
AcDbEntity
  8
KONSTRUKTIONSELEMENTE
100
AcDbLine
 62
7
  6
CONTINUOUS
 10
562.0596134896
 20
121.3728499955
 11
562.0596134896
 21
126.6781205714
  0
LINE
  5
382
100
AcDbEntity
  8
0
100
AcDbLine
 62
7
  6
CONTINUOUS
 10
565.0596134896
 20
582.1252649576
 11
565.0596134896
 21
210.2544096296
  0
LINE
  5
383
100
AcDbEntity
  8
RUNDUNGEN
100
AcDbLine
 62
7
  6
CONTINUOUS
 10
565.3096134896
 20
106.8065039603
 11
565.3096134896
 21
114.1359897163
  0
LINE
  5
384
100
AcDbEntity
  8
0
100
AcDbLine
 62
7
  6
CONTINUOUS
 10
571.0596134896
 20
204.1898372936
 11
571.0596134896
 21
168.1898372936
  0
LINE
  5
385
100
AcDbEntity
  8
0
100
AcDbLine
 62
7
  6
CONTINUOUS
 10
557.153211706
 20
136.0316627759
 11
557.0336547969
 21
132.3168448878
  0
LINE
  5
386
100
AcDbEntity
  8
0
100
AcDbLine
 62
7
  6
CONTINUOUS
 10
550.9080830009
 20
118.7822471284
 11
551.0048099423
 21
120.1037237424
  0
LINE
  5
387
100
AcDbEntity
  8
0
100
AcDbLine
 62
7
  6
CONTINUOUS
 10
549.1182213131
 20
155.8556985448
 11
551.1329854226
 21
166.7263928996
  0
LINE
  5
388
100
AcDbEntity
  8
0
100
AcDbLine
 62
7
  6
CONTINUOUS
 10
587.0596134896
 20
204.1898372936
 11
587.0596134896
 21
168.1898372936
  0
LINE
  5
389
100
AcDbEntity
  8
0
100
AcDbLine
 62
7
  6
CONTINUOUS
 10
543.2115372782
 20
115.6359897163
 11
548.0978631032
 21
124.0993543075
  0
LINE
  5
38A
100
AcDbEntity
  8
KONSTRUKTIONSELEMENTE
100
AcDbLine
 62
7
  6
CONTINUOUS
 10
446.2258293586
 20
72.0233150522
 11
449.0542564834
 21
74.851742177
  0
LINE
  5
38B
100
AcDbEntity
  8
KONSTRUKTIONSELEMENTE
100
AcDbLine
 62
7
  6
CONTINUOUS
 10
449.407809874
 20
75.2052955676
 11
452.2362369987
 21
78.0337226923
  0
LINE
  5
38C
100
AcDbEntity
  8
KONSTRUKTIONSELEMENTE
100
AcDbLine
 62
7
  6
CONTINUOUS
 10
503.5014786347
 20
129.2989643283
 11
506.3299057595
 21
132.1273914531
  0
LINE
  5
38D
100
AcDbEntity
  8
KONSTRUKTIONSELEMENTE
100
AcDbLine
 62
7
  6
CONTINUOUS
 10
506.6834591501
 20
132.4809448437
 11
509.5118862748
 21
135.3093719684
  0
LINE
  5
38E
100
AcDbEntity
  8
KONSTRUKTIONSELEMENTE
100
AcDbLine
 62
7
  6
CONTINUOUS
 10
472.7423336531
 20
98.1862659561
 11
483.3489353709
 21
108.7928676739
  0
LINE
  5
38F
100
AcDbEntity
  8
KONSTRUKTIONSELEMENTE
100
AcDbLine
 62
7
  6
CONTINUOUS
 10
475.9243141685
 20
95.0042854408
 11
486.5309158863
 21
105.6108871586
  0
LINE
  5
390
100
AcDbEntity
  8
KONSTRUKTIONSELEMENTE
100
AcDbLine
 62
7
  6
CONTINUOUS
 10
449.7613632646
 20
68.4877811463
 11
452.5897903893
 21
71.316208271
  0
LINE
  5
391
100
AcDbEntity
  8
KONSTRUKTIONSELEMENTE
100
AcDbLine
 62
7
  6
CONTINUOUS
 10
452.9433437799
 20
71.6697616616
 11
455.7717709046
 21
74.4981887864
  0
LINE
  5
392
100
AcDbEntity
  8
KONSTRUKTIONSELEMENTE
100
AcDbLine
 62
7
  6
CONTINUOUS
 10
507.0370125407
 20
125.7634304224
 11
509.8654396654
 21
128.5918575472
  0
LINE
  5
393
100
AcDbEntity
  8
KONSTRUKTIONSELEMENTE
100
AcDbLine
 62
7
  6
CONTINUOUS
 10
510.218993056
 20
128.9454109377
 11
513.0474201808
 21
131.7738380625
  0
LINE
  5
394
100
AcDbEntity
  8
KONSTRUKTIONSELEMENTE
100
AcDbLine
 62
7
  6
CONTINUOUS
 10
542.0387982094
 20
160.4116627005
 11
513.0474201808
 21
131.4202846719
  0
LINE
  5
395
100
AcDbEntity
  8
KONSTRUKTIONSELEMENTE
100
AcDbLine
 62
7
  6
CONTINUOUS
 10
507.0370125407
 20
124.34921686
 11
488.3283275655
 21
105.6405318849
  0
LINE
  5
396
100
AcDbEntity
  8
KONSTRUKTIONSELEMENTE
100
AcDbLine
 62
7
  6
CONTINUOUS
 10
475.9243141685
 20
93.2365184878
 11
457.2156291933
 21
74.5278335126
  0
LINE
  5
397
100
AcDbEntity
  8
BEZUGSACHSEN
100
AcDbLine
 62
7
  6
CONTINUOUS
 10
452.5895449618
 20
69.5481958906
 11
451.5297840032
 21
68.488434932
  0
LINE
  5
398
100
AcDbEntity
  8
KONSTRUKTIONSELEMENTE
100
AcDbLine
 62
7
  6
CONTINUOUS
 10
395.3141411132
 20
12.272792042
 11
451.5297840032
 21
68.488434932
  0
LINE
  5
399
100
AcDbEntity
  8
KONSTRUKTIONSELEMENTE
100
AcDbLine
 62
7
  6
CONTINUOUS
 10
406.9106923247
 20
23.3036578285
 11
395.5969838257
 21
11.9899493295
  0
LINE
  5
39A
100
AcDbEntity
  8
KONSTRUKTIONSELEMENTE
100
AcDbLine
 62
7
  6
CONTINUOUS
 10
431.5226906189
 20
47.9156561227
 11
435.2296404165
 21
51.6226059203
  0
LINE
  5
39B
100
AcDbEntity
  8
KONSTRUKTIONSELEMENTE
100
AcDbLine
 62
7
  6
CONTINUOUS
 10
409.1734340245
 20
21.0409161287
 11
397.8597255255
 21
9.7272076297
  0
LINE
  5
39C
100
AcDbEntity
  8
KONSTRUKTIONSELEMENTE
100
AcDbLine
 62
7
  6
CONTINUOUS
 10
433.7854323187
 20
45.6529144229
 11
437.4923821163
 21
49.3598642206
  0
LINE
  5
39D
100
AcDbEntity
  8
BEZUGSACHSEN
100
AcDbLine
 62
7
  6
CONTINUOUS
 10
455.4179720865
 20
66.7197687658
 11
454.358211128
 21
65.6600078072
  0
LINE
  5
39E
100
AcDbEntity
  8
KONSTRUKTIONSELEMENTE
100
AcDbLine
 62
7
  6
CONTINUOUS
 10
398.1425682379
 20
9.4443649172
 11
454.358211128
 21
65.6600078072
  0
LINE
  5
39F
100
AcDbEntity
  8
KONSTRUKTIONSELEMENTE
100
AcDbLine
 62
7
  6
CONTINUOUS
 10
510.218993056
 20
121.1672363447
 11
491.5103080808
 21
102.4585513695
  0
LINE
  5
3A0
100
AcDbEntity
  8
KONSTRUKTIONSELEMENTE
100
AcDbLine
 62
7
  6
CONTINUOUS
 10
479.1062946838
 20
90.0545379725
 11
460.3976097086
 21
71.3458529973
  0
LINE
  5
3A1
100
AcDbEntity
  8
KONSTRUKTIONSELEMENTE
100
AcDbLine
 62
7
  6
CONTINUOUS
 10
546.2814388965
 20
156.1690220134
 11
517.3395709951
 21
127.227154112
  0
LINE
  5
3A2
100
AcDbEntity
  8
KONSTRUKTIONSELEMENTE
100
AcDbLine
 62
7
  6
CONTINUOUS
 10
517.6436142585
 20
127.1776439848
 11
511.6332066184
 21
121.1672363447
  0
LINE
  5
3A3
100
AcDbEntity
  8
KONSTRUKTIONSELEMENTE
100
AcDbLine
 62
7
  6
CONTINUOUS
 10
460.3679649824
 20
69.9019947087
 11
454.3575573423
 21
63.8915870686
  0
LINE
  5
3A4
100
AcDbEntity
  8
KONSTRUKTIONSELEMENTE
100
AcDbLine
 62
7
  6
CONTINUOUS
 10
491.4806633546
 20
100.6611396903
 11
480.8740616368
 21
90.0545379725
  0
LINE
  5
3A5
100
AcDbEntity
  8
KONSTRUKTIONSELEMENTE
100
AcDbLine
 62
7
  6
CONTINUOUS
 10
494.6626438699
 20
97.4791591749
 11
484.0560421521
 21
86.8725574571
  0
LINE
  5
3A6
100
AcDbEntity
  8
KONSTRUKTIONSELEMENTE
100
AcDbLine
 62
7
  6
CONTINUOUS
 10
521.1791481644
 20
123.6421100788
 11
515.1687405243
 21
117.6317024388
  0
LINE
  5
3A7
100
AcDbEntity
  8
KONSTRUKTIONSELEMENTE
100
AcDbLine
 62
7
  6
CONTINUOUS
 10
463.9034988883
 20
66.3664608027
 11
457.8930912482
 21
60.3560531627
  0
LINE
  5
3A8
100
AcDbEntity
  8
RUNDUNGEN
100
AcDbLine
 62
7
  6
CONTINUOUS
 10
563.5764776646
 20
103.1905209764
 11
564.8474439363
 21
105.2066862757
  0
ARC
  5
3A9
100
AcDbEntity
  8
KONSTRUKTIONSELEMENTE
100
AcDbCircle
 62
7
  6
CONTINUOUS
 10
198.804875223
 20
17.2751064893
 40
3.7399682217
100
AcDbArc
 50
67.9069648585
 51
68.6850824746
  0
ARC
  5
3AA
100
AcDbEntity
  8
0
100
AcDbCircle
 62
7
  6
CONTINUOUS
 10
193.0253908298
 20
99.9398384063
 40
2.0
100
AcDbArc
 50
220.0000416102
 51
270.0000267465
  0
ARC
  5
3AB
100
AcDbEntity
  8
RUNDUNGEN
100
AcDbCircle
 62
7
  6
CONTINUOUS
 10
189.05817866
 20
104.6677777621
 40
2.0
100
AcDbArc
 50
180.0
 51
220.0
  0
ARC
  5
3AC
100
AcDbEntity
  8
RUNDUNGEN
100
AcDbCircle
 62
7
  6
CONTINUOUS
 10
185.05817866
 20
115.4039389087
 40
2.0
100
AcDbArc
 50
0.0
 51
30.0
  0
ARC
  5
3AD
100
AcDbEntity
  8
KONSTRUKTIONSELEMENTE
100
AcDbCircle
 62
7
  6
CONTINUOUS
 10
201.8087876922
 20
18.4947455757
 40
1.6093910746
100
AcDbArc
 50
0.0208671421
 51
7.9801551546
  0
ARC
  5
3AE
100
AcDbEntity
  8
KONSTRUKTIONSELEMENTE
100
AcDbCircle
 62
7
  6
CONTINUOUS
 10
207.05817866
 20
72.1508372936
 40
28.0
100
AcDbArc
 50
99.3520350576
 51
112.9267093509
  0
ARC
  5
3AF
100
AcDbEntity
  8
KONSTRUKTIONSELEMENTE
100
AcDbCircle
 62
7
  6
CONTINUOUS
 10
207.05817866
 20
72.1508372936
 40
28.0
100
AcDbArc
 50
67.0732906491
 51
80.6479649424
  0
ARC
  5
3B0
100
AcDbEntity
  8
BEZUGSACHSEN
100
AcDbCircle
 62
7
  6
CONTINUOUS
 10
207.05817866
 20
140.4398372936
 40
11.0
100
AcDbArc
 50
136.7212007008
 51
43.2787992992
  0
ARC
  5
3B1
100
AcDbEntity
  8
0
100
AcDbCircle
 62
7
  6
CONTINUOUS
 10
207.05817866
 20
229.1898372936
 40
8.0
100
AcDbArc
 50
0.0
 51
180.0
  0
ARC
  5
3B2
100
AcDbEntity
  8
0
100
AcDbCircle
 62
7
  6
CONTINUOUS
 10
207.05817866
 20
143.1898372936
 40
8.0
100
AcDbArc
 50
180.0
 51
360.0
  0
ARC
  5
3B3
100
AcDbEntity
  8
KONSTRUKTIONSELEMENTE
100
AcDbCircle
 62
7
  6
CONTINUOUS
 10
207.05817866
 20
119.3898372936
 40
4.55
100
AcDbArc
 50
0.0
 51
180.0
  0
ARC
  5
3B4
100
AcDbEntity
  8
KONSTRUKTIONSELEMENTE
100
AcDbCircle
 62
7
  6
CONTINUOUS
 10
215.3114820967
 20
17.2751064901
 40
3.7399682209
100
AcDbArc
 50
111.3149175253
 51
112.0930351416
  0
ARC
  5
3B5
100
AcDbEntity
  8
KONSTRUKTIONSELEMENTE
100
AcDbCircle
 62
7
  6
CONTINUOUS
 10
207.05817866
 20
77.9500917475
 40
2.5
100
AcDbArc
 50
0.0
 51
180.0
  0
ARC
  5
3B6
100
AcDbEntity
  8
KONSTRUKTIONSELEMENTE
100
AcDbCircle
 62
7
  6
CONTINUOUS
 10
207.05817866
 20
60.4396841074
 40
2.5
100
AcDbArc
 50
180.0
 51
360.0
  0
ARC
  5
3B7
100
AcDbEntity
  8
KONSTRUKTIONSELEMENTE
100
AcDbCircle
 62
7
  6
CONTINUOUS
 10
207.05817866
 20
135.2257410236
 40
2.5
100
AcDbArc
 50
171.6386766468
 51
180.0
  0
ARC
  5
3B8
100
AcDbEntity
  8
KONSTRUKTIONSELEMENTE
100
AcDbCircle
 62
7
  6
CONTINUOUS
 10
207.05817866
 20
135.2257410236
 40
2.5
100
AcDbArc
 50
0.0
 51
8.3613233532
  0
ARC
  5
3B9
100
AcDbEntity
  8
KONSTRUKTIONSELEMENTE
100
AcDbCircle
 62
7
  6
CONTINUOUS
 10
207.05817866
 20
117.7153333835
 40
2.5
100
AcDbArc
 50
180.0
 51
360.0
  0
ARC
  5
3BA
100
AcDbEntity
  8
KONSTRUKTIONSELEMENTE
100
AcDbCircle
 62
7
  6
CONTINUOUS
 10
207.05817866
 20
86.7794117066
 40
2.25
100
AcDbArc
 50
180.0
 51
360.0
  0
ARC
  5
3BB
100
AcDbEntity
  8
RUNDUNGEN
100
AcDbCircle
 62
7
  6
CONTINUOUS
 10
229.05817866
 20
115.4039389087
 40
2.0
100
AcDbArc
 50
150.0
 51
180.0
  0
ARC
  5
3BC
100
AcDbEntity
  8
0
100
AcDbCircle
 62
7
  6
CONTINUOUS
 10
221.0909660836
 20
99.9398379216
 40
2.0
100
AcDbArc
 50
269.9999849045
 51
319.9999765155
  0
ARC
  5
3BD
100
AcDbEntity
  8
RUNDUNGEN
100
AcDbCircle
 62
7
  6
CONTINUOUS
 10
225.05817866
 20
104.6677777621
 40
2.0
100
AcDbArc
 50
320.0
 51
360.0
  0
CIRCLE
  5
3BE
100
AcDbEntity
  8
BEZUGSACHSEN
100
AcDbCircle
 62
7
  6
CONTINUOUS
 10
221.75817866
 20
109.1898372936
 40
1.75
  0
ARC
  5
3BF
100
AcDbEntity
  8
0
100
AcDbCircle
 62
7
  6
CONTINUOUS
 10
207.05817866
 20
316.1898372936
 40
117.0
100
AcDbArc
 50
180.0
 51
266.0790293692
  0
ARC
  5
3C0
100
AcDbEntity
  8
0
100
AcDbCircle
 62
7
  6
CONTINUOUS
 10
207.05817866
 20
316.1898372936
 40
117.0
100
AcDbArc
 50
273.9209706308
 51
360.0
  0
ARC
  5
3C1
100
AcDbEntity
  8
0
100
AcDbCircle
 62
7
  6
CONTINUOUS
 10
207.05817866
 20
476.1898372936
 40
117.0
100
AcDbArc
 50
0.0
 51
180.0
  0
ARC
  5
3C2
100
AcDbEntity
  8
0
100
AcDbCircle
 62
7
  6
CONTINUOUS
 10
207.05817866
 20
476.1898372936
 40
95.0
100
AcDbArc
 50
0.0
 51
180.0
  0
ARC
  5
3C3
100
AcDbEntity
  8
0
100
AcDbCircle
 62
7
  6
CONTINUOUS
 10
207.05817866
 20
316.1898372936
 40
95.0
100
AcDbArc
 50
180.0
 51
265.1686442901
  0
ARC
  5
3C4
100
AcDbEntity
  8
0
100
AcDbCircle
 62
7
  6
CONTINUOUS
 10
207.05817866
 20
316.1898372936
 40
95.0
100
AcDbArc
 50
274.8313557099
 51
360.0
  0
ARC
  5
3C5
100
AcDbEntity
  8
BEZUGSACHSEN
100
AcDbCircle
 62
7
  6
CONTINUOUS
 10
416.6856564192
 20
84.9474051799
 40
157.2592410569
100
AcDbArc
 50
25.080201137
 51
25.2447474755
  0
ARC
  5
3C6
100
AcDbEntity
  8
KONSTRUKTIONSELEMENTE
100
AcDbCircle
 62
7
  6
CONTINUOUS
 10
452.0594603034
 20
66.1896841074
 40
8.25
100
AcDbArc
 50
239.0415598584
 51
315.0
  0
ARC
  5
3C7
100
AcDbEntity
  8
KONSTRUKTIONSELEMENTE
100
AcDbCircle
 62
7
  6
CONTINUOUS
 10
452.0594603034
 20
66.1896841074
 40
8.25
100
AcDbArc
 50
135.0
 51
210.9584401416
  0
ARC
  5
3C8
100
AcDbEntity
  8
KONSTRUKTIONSELEMENTE
100
AcDbCircle
 62
7
  6
CONTINUOUS
 10
452.0594603034
 20
66.1896841074
 40
3.25
100
AcDbArc
 50
263.0218177685
 51
315.0
  0
ARC
  5
3C9
100
AcDbEntity
  8
KONSTRUKTIONSELEMENTE
100
AcDbCircle
 62
7
  6
CONTINUOUS
 10
452.0594603034
 20
66.1896841074
 40
3.25
100
AcDbArc
 50
135.0
 51
186.9781822315
  0
ARC
  5
3CA
100
AcDbEntity
  8
BEZUGSACHSEN
100
AcDbCircle
 62
7
  6
CONTINUOUS
 10
426.6297019643
 20
139.2966928308
 40
132.772706269
100
AcDbArc
 50
5.6521897656
 51
5.7898964304
  0
ARC
  5
3CB
100
AcDbEntity
  8
BEZUGSACHSEN
100
AcDbCircle
 62
7
  6
CONTINUOUS
 10
452.0630016627
 20
142.1877715291
 40
107.6232261211
100
AcDbArc
 50
5.8433097495
 51
6.0062259473
  0
ARC
  5
3CC
100
AcDbEntity
  8
KONSTRUKTIONSELEMENTE
100
AcDbCircle
 62
7
  6
CONTINUOUS
 10
458.0698679435
 20
72.2000917475
 40
8.25
100
AcDbArc
 50
60.8421444573
 51
135.0
  0
ARC
  5
3CD
100
AcDbEntity
  8
KONSTRUKTIONSELEMENTE
100
AcDbCircle
 62
7
  6
CONTINUOUS
 10
458.0698679435
 20
72.2000917475
 40
8.25
100
AcDbArc
 50
315.0
 51
29.1578555427
  0
ARC
  5
3CE
100
AcDbEntity
  8
KONSTRUKTIONSELEMENTE
100
AcDbCircle
 62
7
  6
CONTINUOUS
 10
478.3991879026
 20
92.5294117066
 40
8.0
100
AcDbArc
 50
241.3642958278
 51
315.0
  0
ARC
  5
3CF
100
AcDbEntity
  8
KONSTRUKTIONSELEMENTE
100
AcDbCircle
 62
7
  6
CONTINUOUS
 10
478.3991879026
 20
92.5294117066
 40
8.0
100
AcDbArc
 50
135.0
 51
208.6357041722
  0
ARC
  5
3D0
100
AcDbEntity
  8
KONSTRUKTIONSELEMENTE
100
AcDbCircle
 62
7
  6
CONTINUOUS
 10
489.0057896204
 20
103.1360134244
 40
8.0
100
AcDbArc
 50
61.3642958278
 51
135.0
  0
ARC
  5
3D1
100
AcDbEntity
  8
KONSTRUKTIONSELEMENTE
100
AcDbCircle
 62
7
  6
CONTINUOUS
 10
489.0057896204
 20
103.1360134244
 40
8.0
100
AcDbArc
 50
315.0
 51
28.6357041722
  0
ARC
  5
3D2
100
AcDbEntity
  8
KONSTRUKTIONSELEMENTE
100
AcDbCircle
 62
7
  6
CONTINUOUS
 10
478.3991879026
 20
92.5294117066
 40
3.5
100
AcDbArc
 50
265.1538775079
 51
315.0
  0
ARC
  5
3D3
100
AcDbEntity
  8
KONSTRUKTIONSELEMENTE
100
AcDbCircle
 62
7
  6
CONTINUOUS
 10
478.3991879026
 20
92.5294117066
 40
3.5
100
AcDbArc
 50
135.0
 51
184.8461224921
  0
ARC
  5
3D4
100
AcDbEntity
  8
KONSTRUKTIONSELEMENTE
100
AcDbCircle
 62
7
  6
CONTINUOUS
 10
489.0057896204
 20
103.1360134244
 40
3.5
100
AcDbArc
 50
85.1538775079
 51
135.0
  0
ARC
  5
3D5
100
AcDbEntity
  8
KONSTRUKTIONSELEMENTE
100
AcDbCircle
 62
7
  6
CONTINUOUS
 10
489.0057896204
 20
103.1360134244
 40
3.5
100
AcDbArc
 50
315.0
 51
4.8461224921
  0
ARC
  5
3D6
100
AcDbEntity
  8
KONSTRUKTIONSELEMENTE
100
AcDbCircle
 62
7
  6
CONTINUOUS
 10
458.0698679435
 20
72.2000917475
 40
3.25
100
AcDbArc
 50
88.8837571799
 51
135.0
  0
ARC
  5
3D7
100
AcDbEntity
  8
KONSTRUKTIONSELEMENTE
100
AcDbCircle
 62
7
  6
CONTINUOUS
 10
458.0698679435
 20
72.2000917475
 40
3.25
100
AcDbArc
 50
315.0
 51
1.1162428201
  0
ARC
  5
3D8
100
AcDbEntity
  8
KONSTRUKTIONSELEMENTE
100
AcDbCircle
 62
7
  6
CONTINUOUS
 10
489.8896730969
 20
104.0198969009
 40
2.25
100
AcDbArc
 50
135.0
 51
315.0
  0
ARC
  5
3D9
100
AcDbEntity
  8
KONSTRUKTIONSELEMENTE
100
AcDbCircle
 62
7
  6
CONTINUOUS
 10
477.5153044261
 20
91.6455282302
 40
2.25
100
AcDbArc
 50
315.0
 51
135.0
  0
ARC
  5
3DA
100
AcDbEntity
  8
KONSTRUKTIONSELEMENTE
100
AcDbCircle
 62
7
  6
CONTINUOUS
 10
458.7769747247
 20
72.9071985287
 40
2.25
100
AcDbArc
 50
135.0
 51
315.0
  0
ARC
  5
3DB
100
AcDbEntity
  8
BEZUGSACHSEN
100
AcDbCircle
 62
7
  6
CONTINUOUS
 10
455.1943259107
 20
144.9764808671
 40
103.7633333696
100
AcDbArc
 50
4.0909024439
 51
4.2078428735
  0
ARC
  5
3DC
100
AcDbEntity
  8
BEZUGSACHSEN
100
AcDbCircle
 62
7
  6
CONTINUOUS
 10
467.3263543447
 20
144.3689617162
 40
92.4212460084
100
AcDbArc
 50
6.5422088698
 51
6.6730119385
  0
ARC
  5
3DD
100
AcDbEntity
  8
KONSTRUKTIONSELEMENTE
100
AcDbCircle
 62
7
  6
CONTINUOUS
 10
508.6280027983
 20
122.7582266024
 40
2.25
100
AcDbArc
 50
315.0
 51
135.0
  0
ARC
  5
3DE
100
AcDbEntity
  8
BEZUGSACHSEN
100
AcDbCircle
 62
7
  6
CONTINUOUS
 10
492.707308521
 20
149.2833721238
 40
66.4584082161
100
AcDbArc
 50
3.4251379636
 51
3.6316615385
  0
ARC
  5
3DF
100
AcDbEntity
  8
KONSTRUKTIONSELEMENTE
100
AcDbCircle
 62
7
  6
CONTINUOUS
 10
493.0240379153
 20
153.1409128032
 40
65.1125189298
100
AcDbArc
 50
359.1226058136
 51
0.2306353977
  0
ARC
  5
3E0
100
AcDbEntity
  8
BEZUGSACHSEN
100
AcDbCircle
 62
7
  6
CONTINUOUS
 10
494.8503695834
 20
153.7023045713
 40
63.5279686224
100
AcDbArc
 50
358.5942970915
 51
359.7300680058
  0
ARC
  5
3E1
100
AcDbEntity
  8
BEZUGSACHSEN
100
AcDbCircle
 62
7
  6
CONTINUOUS
 10
496.4566288692
 20
153.4314515202
 40
62.0005700773
100
AcDbArc
 50
358.8522067633
 51
359.7734721103
  0
ARC
  5
3E2
100
AcDbEntity
  8
BEZUGSACHSEN
100
AcDbCircle
 62
7
  6
CONTINUOUS
 10
500.8050902737
 20
152.6242829058
 40
57.8887130285
100
AcDbArc
 50
358.7703752113
 51
359.7570904515
  0
ARC
  5
3E3
100
AcDbEntity
  8
BEZUGSACHSEN
100
AcDbCircle
 62
7
  6
CONTINUOUS
 10
501.6293166596
 20
150.0357778706
 40
57.5816941743
100
AcDbArc
 50
2.8134792342
 51
3.0949988956
  0
ARC
  5
3E4
100
AcDbEntity
  8
BEZUGSACHSEN
100
AcDbCircle
 62
7
  6
CONTINUOUS
 10
502.5120192651
 20
152.3019800169
 40
56.276430219
100
AcDbArc
 50
358.7344469148
 51
359.6426048858
  0
ARC
  5
3E5
100
AcDbEntity
  8
BEZUGSACHSEN
100
AcDbCircle
 62
7
  6
CONTINUOUS
 10
507.8874957913
 20
151.1886039086
 40
51.2323926303
100
AcDbArc
 50
358.2385469105
 51
358.590726753
  0
ARC
  5
3E6
100
AcDbEntity
  8
KONSTRUKTIONSELEMENTE
100
AcDbCircle
 62
7
  6
CONTINUOUS
 10
515.3455172196
 20
129.4757410236
 40
8.25
100
AcDbArc
 50
66.346698243
 51
135.0
  0
ARC
  5
3E7
100
AcDbEntity
  8
KONSTRUKTIONSELEMENTE
100
AcDbCircle
 62
7
  6
CONTINUOUS
 10
515.3455172196
 20
129.4757410236
 40
8.25
100
AcDbArc
 50
315.0
 51
23.653301757
  0
ARC
  5
3E8
100
AcDbEntity
  8
KONSTRUKTIONSELEMENTE
100
AcDbCircle
 62
7
  6
CONTINUOUS
 10
509.3351095795
 20
123.4653333835
 40
8.25
100
AcDbArc
 50
240.8421444573
 51
315.0
  0
ARC
  5
3E9
100
AcDbEntity
  8
KONSTRUKTIONSELEMENTE
100
AcDbCircle
 62
7
  6
CONTINUOUS
 10
509.3351095795
 20
123.4653333835
 40
8.25
100
AcDbArc
 50
135.0
 51
209.1578555427
  0
ARC
  5
3EA
100
AcDbEntity
  8
KONSTRUKTIONSELEMENTE
100
AcDbCircle
 62
7
  6
CONTINUOUS
 10
515.3455172196
 20
129.4757410236
 40
3.25
100
AcDbArc
 50
112.8065550031
 51
135.0
  0
ARC
  5
3EB
100
AcDbEntity
  8
KONSTRUKTIONSELEMENTE
100
AcDbCircle
 62
7
  6
CONTINUOUS
 10
515.3455172196
 20
129.4757410236
 40
3.25
100
AcDbArc
 50
315.0
 51
337.1934449969
  0
ARC
  5
3EC
100
AcDbEntity
  8
KONSTRUKTIONSELEMENTE
100
AcDbCircle
 62
7
  6
CONTINUOUS
 10
509.3351095795
 20
123.4653333835
 40
3.25
100
AcDbArc
 50
268.8837571799
 51
315.0
  0
ARC
  5
3ED
100
AcDbEntity
  8
KONSTRUKTIONSELEMENTE
100
AcDbCircle
 62
7
  6
CONTINUOUS
 10
509.3351095795
 20
123.4653333835
 40
3.25
100
AcDbArc
 50
135.0
 51
181.1162428201
  0
ARC
  5
3EE
100
AcDbEntity
  8
KONSTRUKTIONSELEMENTE
100
AcDbCircle
 62
7
  6
CONTINUOUS
 10
515.1687405243
 20
129.2989643283
 40
3.0
100
AcDbArc
 50
135.0
 51
315.0
  0
ARC
  5
3EF
100
AcDbEntity
  8
BEZUGSACHSEN
100
AcDbCircle
 62
7
  6
CONTINUOUS
 10
508.9317016933
 20
151.1684484412
 40
50.1879802478
100
AcDbArc
 50
0.0819319418
 51
0.5012040367
  0
ARC
  5
3F0
100
AcDbEntity
  8
BEZUGSACHSEN
100
AcDbCircle
 62
7
  6
CONTINUOUS
 10
510.0469703179
 20
151.4737555551
 40
49.1544926166
100
AcDbArc
 50
4.2408774655
 51
4.4207158794
  0
ARC
  5
3F1
100
AcDbEntity
  8
KONSTRUKTIONSELEMENTE
100
AcDbCircle
 62
7
  6
CONTINUOUS
 10
513.3640800549
 20
155.8419594595
 40
44.7724882318
100
AcDbArc
 50
0.6696040897
 51
1.0032769625
  0
ARC
  5
3F2
100
AcDbEntity
  8
KONSTRUKTIONSELEMENTE
100
AcDbCircle
 62
7
  6
CONTINUOUS
 10
513.3640800882
 20
155.8455775869
 40
44.7724881984
100
AcDbArc
 50
358.9967230374
 51
359.3303960695
  0
ARC
  5
3F3
100
AcDbEntity
  8
BEZUGSACHSEN
100
AcDbCircle
 62
7
  6
CONTINUOUS
 10
514.9133017873
 20
156.234249184
 40
43.4882961019
100
AcDbArc
 50
358.4548878043
 51
358.7984761847
  0
ARC
  5
3F4
100
AcDbEntity
  8
BEZUGSACHSEN
100
AcDbCircle
 62
7
  6
CONTINUOUS
 10
517.6850519428
 20
143.1802627279
 40
43.472225819
100
AcDbArc
 50
20.0280221325
 51
20.204134013
  0
ARC
  5
3F5
100
AcDbEntity
  8
BEZUGSACHSEN
100
AcDbCircle
 62
7
  6
CONTINUOUS
 10
515.3658322561
 20
156.2263397196
 40
43.0356966884
100
AcDbArc
 50
0.1848652762
 51
0.531974026
  0
ARC
  5
3F6
100
AcDbEntity
  8
BEZUGSACHSEN
100
AcDbCircle
 62
7
  6
CONTINUOUS
 10
518.2849900114
 20
152.0742522385
 40
40.9583025367
100
AcDbArc
 50
3.6213041829
 51
3.9546082293
  0
ARC
  5
3F7
100
AcDbEntity
  8
KONSTRUKTIONSELEMENTE
100
AcDbCircle
 62
7
  6
CONTINUOUS
 10
517.4612437525
 20
156.2735223708
 40
40.7759488873
100
AcDbArc
 50
355.9632026174
 51
356.2568411047
  0
ARC
  5
3F8
100
AcDbEntity
  8
BEZUGSACHSEN
100
AcDbCircle
 62
7
  6
CONTINUOUS
 10
518.1405726891
 20
156.6839686799
 40
40.3706045388
100
AcDbArc
 50
355.3383781164
 51
355.6352020098
  0
ARC
  5
3F9
100
AcDbEntity
  8
BEZUGSACHSEN
100
AcDbCircle
 62
7
  6
CONTINUOUS
 10
523.7131835056
 20
153.5502757638
 40
35.3350624391
100
AcDbArc
 50
359.2375503071
 51
359.5193978889
  0
ARC
  5
3FA
100
AcDbEntity
  8
BEZUGSACHSEN
100
AcDbCircle
 62
7
  6
CONTINUOUS
 10
524.9388741266
 20
153.1585903867
 40
34.2040132693
100
AcDbArc
 50
359.2122699486
 51
359.5034387663
  0
ARC
  5
3FB
100
AcDbEntity
  8
0
100
AcDbCircle
 62
7
  6
CONTINUOUS
 10
545.8096134896
 20
114.1359897163
 40
3.0
100
AcDbArc
 50
150.0
 51
180.0
  0
ARC
  5
3FC
100
AcDbEntity
  8
0
100
AcDbCircle
 62
7
  6
CONTINUOUS
 10
545.8096134896
 20
106.8065039603
 40
3.0
100
AcDbArc
 50
180.0
 51
212.2268364662
  0
ARC
  5
3FD
100
AcDbEntity
  8
0
100
AcDbCircle
 62
7
  6
CONTINUOUS
 10
543.0596134896
 20
121.3728499955
 40
3.0
100
AcDbArc
 50
330.0
 51
360.0
  0
ARC
  5
3FE
100
AcDbEntity
  8
0
100
AcDbCircle
 62
7
  6
CONTINUOUS
 10
547.0596134896
 20
130.3523551856
 40
2.0
100
AcDbArc
 50
281.5369590328
 51
360.0
  0
ARC
  5
3FF
100
AcDbEntity
  8
0
100
AcDbCircle
 62
7
  6
CONTINUOUS
 10
547.8096134896
 20
126.6781205714
 40
1.75
100
AcDbArc
 50
100.9007810051
 51
180.0
  0
ARC
  5
400
100
AcDbEntity
  8
BEZUGSACHSEN
100
AcDbCircle
 62
7
  6
CONTINUOUS
 10
530.8905720873
 20
157.5494563175
 40
27.9093018801
100
AcDbArc
 50
351.0059102799
 51
351.2211021973
  0
ARC
  5
401
100
AcDbEntity
  8
KONSTRUKTIONSELEMENTE
100
AcDbCircle
 62
7
  6
CONTINUOUS
 10
532.9336025105
 20
158.0361383368
 40
25.2029541838
100
AcDbArc
 50
358.5155600861
 51
0.2962198765
  0
ARC
  5
402
100
AcDbEntity
  8
BEZUGSACHSEN
100
AcDbCircle
 62
7
  6
CONTINUOUS
 10
541.4812895368
 20
135.3196414888
 40
24.9800233855
100
AcDbArc
 50
47.0439736732
 51
47.2393158521
  0
ARC
  5
403
100
AcDbEntity
  8
BEZUGSACHSEN
100
AcDbCircle
 62
7
  6
CONTINUOUS
 10
534.1589111707
 20
158.2532307439
 40
24.2614390327
100
AcDbArc
 50
357.9450001623
 51
359.7950283752
  0
ARC
  5
404
100
AcDbEntity
  8
BEZUGSACHSEN
100
AcDbCircle
 62
7
  6
CONTINUOUS
 10
534.9424709795
 20
157.805066751
 40
23.5725183166
100
AcDbArc
 50
358.3627665812
 51
359.7907214551
  0
ARC
  5
405
100
AcDbEntity
  8
BEZUGSACHSEN
100
AcDbCircle
 62
7
  6
CONTINUOUS
 10
540.657945741
 20
138.3231267197
 40
23.2452632547
100
AcDbArc
 50
37.559671078
 51
37.8317437147
  0
ARC
  5
406
100
AcDbEntity
  8
KONSTRUKTIONSELEMENTE
100
AcDbCircle
 62
7
  6
CONTINUOUS
 10
542.0837749788
 20
139.9708342668
 40
20.9083427955
100
AcDbArc
 50
36.7921974251
 51
37.0916611296
  0
ARC
  5
407
100
AcDbEntity
  8
BEZUGSACHSEN
100
AcDbCircle
 62
7
  6
CONTINUOUS
 10
539.2085864443
 20
155.1951375246
 40
19.858478156
100
AcDbArc
 50
358.055528058
 51
359.7506553185
  0
ARC
  5
408
100
AcDbEntity
  8
BEZUGSACHSEN
100
AcDbCircle
 62
7
  6
CONTINUOUS
 10
539.874136091
 20
154.7489047033
 40
19.2875747167
100
AcDbArc
 50
357.4121581034
 51
359.739595361
  0
ARC
  5
409
100
AcDbEntity
  8
BEZUGSACHSEN
100
AcDbCircle
 62
7
  6
CONTINUOUS
 10
541.5142489114
 20
154.862374638
 40
17.7589782365
100
AcDbArc
 50
352.4740177119
 51
352.9683136993
  0
ARC
  5
40A
100
AcDbEntity
  8
BEZUGSACHSEN
100
AcDbCircle
 62
7
  6
CONTINUOUS
 10
544.2511340076
 20
155.5438381467
 40
14.9977357497
100
AcDbArc
 50
350.1242948433
 51
350.4397721382
  0
ARC
  5
40B
100
AcDbEntity
  8
KONSTRUKTIONSELEMENTE
100
AcDbCircle
 62
7
  6
CONTINUOUS
 10
544.160118553
 20
158.290342357
 40
3.0
100
AcDbArc
 50
315.0
 51
135.0
  0
ARC
  5
40C
100
AcDbEntity
  8
0
100
AcDbCircle
 62
7
  6
CONTINUOUS
 10
554.0596134896
 20
109.1898372936
 40
11.25
100
AcDbArc
 50
212.2268364662
 51
327.7731635338
  0
CIRCLE
  5
40D
100
AcDbEntity
  8
0
100
AcDbCircle
 62
7
  6
CONTINUOUS
 10
554.0596134896
 20
109.1898372936
 40
4.5
  0
ARC
  5
40E
100
AcDbEntity
  8
RUNDUNGEN
100
AcDbCircle
 62
7
  6
CONTINUOUS
 10
562.3096134896
 20
114.1359897163
 40
3.0
100
AcDbArc
 50
0.0
 51
30.0
  0
ARC
  5
40F
100
AcDbEntity
  8
RUNDUNGEN
100
AcDbCircle
 62
7
  6
CONTINUOUS
 10
562.3096134896
 20
106.8065039603
 40
3.0
100
AcDbArc
 50
327.7731635338
 51
360.0
  0
ARC
  5
410
100
AcDbEntity
  8
KONSTRUKTIONSELEMENTE
100
AcDbCircle
 62
7
  6
CONTINUOUS
 10
565.0596134896
 20
121.3728499955
 40
3.0
100
AcDbArc
 50
180.0
 51
210.0
  0
ARC
  5
411
100
AcDbEntity
  8
RUNDUNGEN
100
AcDbCircle
 62
7
  6
CONTINUOUS
 10
561.0596134896
 20
130.3523551856
 40
2.0
100
AcDbArc
 50
180.0
 51
258.4630409672
  0
ARC
  5
412
100
AcDbEntity
  8
RUNDUNGEN
100
AcDbCircle
 62
7
  6
CONTINUOUS
 10
560.3096134896
 20
126.6781205714
 40
1.75
100
AcDbArc
 50
0.0
 51
79.0992189949
  0
ARC
  5
413
100
AcDbEntity
  8
BEZUGSACHSEN
100
AcDbCircle
 62
7
  6
CONTINUOUS
 10
549.9202243552
 20
152.5072744801
 40
10.09399153
100
AcDbArc
 50
31.2013318062
 51
31.4570635528
  0
ARC
  5
414
100
AcDbEntity
  8
BEZUGSACHSEN
100
AcDbCircle
 62
7
  6
CONTINUOUS
 10
554.834269345
 20
155.7904543702
 40
5.4957769424
100
AcDbArc
 50
320.5891491503
 51
321.1851200692
  0
ARC
  5
415
100
AcDbEntity
  8
BEZUGSACHSEN
100
AcDbCircle
 62
7
  6
CONTINUOUS
 10
555.1324600286
 20
155.7598305558
 40
5.1276759045
100
AcDbArc
 50
320.4263597969
 51
321.0502928431
  0
ARC
  5
416
100
AcDbEntity
  8
0
100
AcDbCircle
 62
7
  6
CONTINUOUS
 10
552.5596134896
 20
155.2178742055
 40
3.5
100
AcDbArc
 50
169.5
 51
180.0
  0
ARC
  5
417
100
AcDbEntity
  8
BEZUGSACHSEN
100
AcDbCircle
 62
7
  6
CONTINUOUS
 10
556.6711070312
 20
155.3053985805
 40
3.4373120799
100
AcDbArc
 50
58.506706754
 51
59.1061259928
  0
ARC
  5
418
100
AcDbEntity
  8
0
100
AcDbCircle
 62
7
  6
CONTINUOUS
 10
554.0596134896
 20
168.1898372936
 40
33.0
100
AcDbArc
 50
278.7156619979
 51
360.0
  0
ARC
  5
419
100
AcDbEntity
  8
0
100
AcDbCircle
 62
7
  6
CONTINUOUS
 10
554.0596134896
 20
168.1898372936
 40
33.0
100
AcDbArc
 50
230.218521892
 51
261.2843380021
  0
ARC
  5
41A
100
AcDbEntity
  8
0
100
AcDbCircle
 62
7
  6
CONTINUOUS
 10
554.0596134896
 20
168.1898372936
 40
33.0
100
AcDbArc
 50
180.0
 51
219.781478108
  0
ARC
  5
41B
100
AcDbEntity
  8
0
100
AcDbCircle
 62
7
  6
CONTINUOUS
 10
554.0596134896
 20
204.1898372936
 40
33.0
100
AcDbArc
 50
109.4851816585
 51
180.0
  0
ARC
  5
41C
100
AcDbEntity
  8
0
100
AcDbCircle
 62
7
  6
CONTINUOUS
 10
554.0596134896
 20
204.1898372936
 40
33.0
100
AcDbArc
 50
0.0
 51
70.5148183415
  0
ARC
  5
41D
100
AcDbEntity
  8
0
100
AcDbCircle
 62
7
  6
CONTINUOUS
 10
554.0596134896
 20
168.1898372936
 40
17.0
100
AcDbArc
 50
287.1128011601
 51
360.0
  0
ARC
  5
41E
100
AcDbEntity
  8
0
100
AcDbCircle
 62
7
  6
CONTINUOUS
 10
554.0596134896
 20
168.1898372936
 40
17.0
100
AcDbArc
 50
235.1707765494
 51
252.8871988399
  0
ARC
  5
41F
100
AcDbEntity
  8
0
100
AcDbCircle
 62
7
  6
CONTINUOUS
 10
554.0596134896
 20
168.1898372936
 40
17.0
100
AcDbArc
 50
180.0
 51
214.8292234506
  0
ARC
  5
420
100
AcDbEntity
  8
0
100
AcDbCircle
 62
7
  6
CONTINUOUS
 10
554.0596134896
 20
204.1898372936
 40
17.0
100
AcDbArc
 50
130.3256402192
 51
180.0
  0
ARC
  5
421
100
AcDbEntity
  8
0
100
AcDbCircle
 62
7
  6
CONTINUOUS
 10
554.0596134896
 20
204.1898372936
 40
17.0
100
AcDbArc
 50
0.0
 51
49.6743597808
  0
ARC
  5
422
100
AcDbEntity
  8
0
100
AcDbCircle
 62
7
  6
CONTINUOUS
 10
554.0596134896
 20
210.1898372936
 40
11.0
100
AcDbArc
 50
180.0
 51
360.0
  0
ARC
  5
423
100
AcDbEntity
  8
BEZUGSACHSEN
100
AcDbCircle
 62
7
  6
CONTINUOUS
 10
552.0209063002
 20
159.8619636508
 40
8.9266845084
100
AcDbArc
 50
315.5570088405
 51
315.9902302233
  0
ARC
  5
424
100
AcDbEntity
  8
KONSTRUKTIONSELEMENTE
100
AcDbCircle
 62
7
  6
CONTINUOUS
 10
552.2223483527
 20
159.1998990256
 40
8.1467562527
100
AcDbArc
 50
316.6884206664
 51
317.1541308402
  0
ARC
  5
425
100
AcDbEntity
  8
KONSTRUKTIONSELEMENTE
100
AcDbCircle
 62
7
  6
CONTINUOUS
 10
550.6290409149
 20
159.4313858228
 40
7.6130040416
100
AcDbArc
 50
350.4355878679
 51
351.1110390027
  0
ARC
  5
426
100
AcDbEntity
  8
BEZUGSACHSEN
100
AcDbCircle
 62
7
  6
CONTINUOUS
 10
551.1048720053
 20
159.5167286319
 40
7.4389002169
100
AcDbArc
 50
349.5418319392
 51
350.2349133922
  0
ARC
  5
427
100
AcDbEntity
  8
BEZUGSACHSEN
100
AcDbCircle
 62
7
  6
CONTINUOUS
 10
553.8634003986
 20
159.0697052251
 40
4.8435847204
100
AcDbArc
 50
343.8071174403
 51
344.4951631471
  0
ARC
  5
428
100
AcDbEntity
  8
0
100
AcDbCircle
 62
7
  6
CONTINUOUS
 10
554.0596134896
 20
582.1898372936
 40
11.0
100
AcDbArc
 50
0.0
 51
180.0
  0
SPLINE
  5
429
100
AcDbEntity
  8
KONSTRUKTIONSELEMENTE
100
AcDbSpline
 62
7
  6
CONTINUOUS
 70
0
 71
3
 72
10
 73
6
 74
0
 42
0.0000001
 43
0.0000001
 44
0.0000000001
 40
0.0
 40
0.0
 40
0.0
 40
0.0
 40
0.3116645009
 40
0.6060899939
 40
1.0
 40
1.0
 40
1.0
 40
1.0
 10
210.55817866
 20
87.5796642383
 30
0.0
 10
210.55817866
 20
87.7768190848
 30
0.0
 10
210.3706501035
 20
88.1481452795
 30
0.0
 10
209.9133308338
 20
88.5820183692
 30
0.0
 10
209.5349295216
 20
88.8094284027
 30
0.0
 10
209.3101705483
 20
88.9170165337
 30
0.0
  0
SPLINE
  5
42A
100
AcDbEntity
  8
KONSTRUKTIONSELEMENTE
100
AcDbSpline
 62
7
  6
CONTINUOUS
 70
0
 71
3
 72
10
 73
6
 74
0
 42
0.0000001
 43
0.0000001
 44
0.0000000001
 40
0.0
 40
0.0
 40
0.0
 40
0.0
 40
0.3939255147
 40
0.6883533687
 40
1.0
 40
1.0
 40
1.0
 40
1.0
 10
204.8064294245
 20
88.9171284617
 30
0.0
 10
204.5816215186
 20
88.8095385611
 30
0.0
 10
204.2031589969
 20
88.5820929928
 30
0.0
 10
203.7457174792
 20
88.1482152494
 30
0.0
 10
203.55817866
 20
87.7768355422
 30
0.0
 10
203.55817866
 20
87.5796642383
 30
0.0
  0
SPLINE
  5
42B
100
AcDbEntity
  8
KONSTRUKTIONSELEMENTE
100
AcDbSpline
 62
7
  6
CONTINUOUS
 70
0
 71
3
 72
13
 73
9
 74
0
 42
0.0000001
 43
0.0000001
 44
0.0000000001
 40
0.0
 40
0.0
 40
0.0
 40
0.0
 40
0.1194785188
 40
0.2392741704
 40
0.3602835725
 40
0.4830059608
 40
0.7355440041
 40
1.0
 40
1.0
 40
1.0
 40
1.0
 10
215.05817866
 20
87.5796642383
 30
0.0
 10
215.05817866
 20
87.9383038496
 30
0.0
 10
214.9820831769
 20
88.6588104786
 30
0.0
 10
214.6465069492
 20
89.6943062343
 30
0.0
 10
214.110522484
 20
90.6526259134
 30
0.0
 10
213.1528269183
 20
91.8030056743
 30
0.0
 10
211.5665082755
 20
92.9423481936
 30
0.0
 10
210.0864548331
 20
93.4698742139
 30
0.0
 10
209.3122909805
 20
93.645430359
 30
0.0
  0
SPLINE
  5
42C
100
AcDbEntity
  8
KONSTRUKTIONSELEMENTE
100
AcDbSpline
 62
7
  6
CONTINUOUS
 70
0
 71
3
 72
13
 73
9
 74
0
 42
0.0000001
 43
0.0000001
 44
0.0000000001
 40
0.0
 40
0.0
 40
0.0
 40
0.0
 40
0.2644681654
 40
0.5169944072
 40
0.6397129492
 40
0.760706397
 40
0.8805228501
 40
1.0
 40
1.0
 40
1.0
 40
1.0
 10
204.8060078812
 20
93.6458615713
 30
0.0
 10
204.0316105547
 20
93.4703814671
 30
0.0
 10
202.5511197071
 20
92.9430607384
 30
0.0
 10
200.9642693001
 20
91.803708275
 30
0.0
 10
200.0062973407
 20
90.6532657261
 30
0.0
 10
199.469980583
 20
89.6948439396
 30
0.0
 10
199.1343662464
 20
88.6590905271
 30
0.0
 10
199.05817866
 20
87.9383785086
 30
0.0
 10
199.05817866
 20
87.5796642383
 30
0.0
  0
SPLINE
  5
42D
100
AcDbEntity
  8
KONSTRUKTIONSELEMENTE
100
AcDbSpline
 62
7
  6
CONTINUOUS
 70
0
 71
3
 72
13
 73
9
 74
0
 42
0.0000001
 43
0.0000001
 44
0.0000000001
 40
0.0
 40
0.0
 40
0.0
 40
0.0
 40
0.1197290731
 40
0.2397365246
 40
0.3609040964
 40
0.4836831257
 40
0.7359942557
 40
1.0
 40
1.0
 40
1.0
 40
1.0
 10
199.05817866
 20
76.9730625205
 30
0.0
 10
199.05817866
 20
76.6238488184
 30
0.0
 10
199.1302822818
 20
75.9225077824
 30
0.0
 10
199.4485676166
 20
74.9122895343
 30
0.0
 10
199.9579511582
 20
73.9737113156
 30
0.0
 10
200.8697516868
 20
72.8409368089
 30
0.0
 10
202.3856429524
 20
71.7037933928
 30
0.0
 10
203.8085298024
 20
71.1572476689
 30
0.0
 10
204.5547543241
 20
70.9672791783
 30
0.0
  0
SPLINE
  5
42E
100
AcDbEntity
  8
KONSTRUKTIONSELEMENTE
100
AcDbSpline
 62
7
  6
CONTINUOUS
 70
0
 71
3
 72
13
 73
9
 74
0
 42
0.0000001
 43
0.0000001
 44
0.0000000001
 40
0.0
 40
0.0
 40
0.0
 40
0.0
 40
0.2640112835
 40
0.5163080567
 40
0.6390830379
 40
0.7602378991
 40
0.8802701562
 40
1.0
 40
1.0
 40
1.0
 40
1.0
 10
209.5625064625
 20
70.9675263679
 30
0.0
 10
210.3086462848
 20
71.1575609691
 30
0.0
 10
211.7313227262
 20
71.7041276003
 30
0.0
 10
213.2469127933
 20
72.8412729413
 30
0.0
 10
214.1585030708
 20
73.9738884499
 30
0.0
 10
214.6678939866
 20
74.9123657364
 30
0.0
 10
214.9860307056
 20
75.9225538396
 30
0.0
 10
215.05817866
 20
76.6238837231
 30
0.0
 10
215.05817866
 20
76.9730625205
 30
0.0
  0
SPLINE
  5
42F
100
AcDbEntity
  8
KONSTRUKTIONSELEMENTE
100
AcDbSpline
 62
7
  6
CONTINUOUS
 70
0
 71
3
 72
10
 73
6
 74
0
 42
0.0000001
 43
0.0000001
 44
0.0000000001
 40
0.0
 40
0.0
 40
0.0
 40
0.0
 40
0.3192646009
 40
0.6086079864
 40
1.0
 40
1.0
 40
1.0
 40
1.0
 10
203.55817866
 20
76.9730625205
 30
0.0
 10
203.55817866
 20
76.8013227453
 30
0.0
 10
203.7001944466
 20
76.4804715304
 30
0.0
 10
204.0660004612
 20
76.087119191
 30
0.0
 10
204.369288294
 20
75.8740792777
 30
0.0
 10
204.551824595
 20
75.7691646813
 30
0.0
  0
SPLINE
  5
430
100
AcDbEntity
  8
KONSTRUKTIONSELEMENTE
100
AcDbSpline
 62
7
  6
CONTINUOUS
 70
0
 71
3
 72
10
 73
6
 74
0
 42
0.0000001
 43
0.0000001
 44
0.0000000001
 40
0.0
 40
0.0
 40
0.0
 40
0.0
 40
0.3914026107
 40
0.6807340322
 40
1.0
 40
1.0
 40
1.0
 40
1.0
 10
209.5646242611
 20
75.7692171524
 30
0.0
 10
209.7471515046
 20
75.8741325619
 30
0.0
 10
210.0503910853
 20
76.0871916334
 30
0.0
 10
210.4162117899
 20
76.480489994
 30
0.0
 10
210.55817866
 20
76.8013327349
 30
0.0
 10
210.55817866
 20
76.9730625205
 30
0.0
  0
SPLINE
  5
431
100
AcDbEntity
  8
KONSTRUKTIONSELEMENTE
100
AcDbSpline
 62
7
  6
CONTINUOUS
 70
0
 71
3
 72
10
 73
6
 74
0
 42
0.0000001
 43
0.0000001
 44
0.0000000001
 40
0.0
 40
0.0
 40
0.0
 40
0.0
 40
0.3192646009
 40
0.6086079864
 40
1.0
 40
1.0
 40
1.0
 40
1.0
 10
210.55817866
 20
118.6923626105
 30
0.0
 10
210.55817866
 20
118.8641023857
 30
0.0
 10
210.4161628735
 20
119.1849536007
 30
0.0
 10
210.0503568588
 20
119.5783059401
 30
0.0
 10
209.7470690261
 20
119.7913458534
 30
0.0
 10
209.564532725
 20
119.8962604498
 30
0.0
  0
SPLINE
  5
432
100
AcDbEntity
  8
KONSTRUKTIONSELEMENTE
100
AcDbSpline
 62
7
  6
CONTINUOUS
 70
0
 71
3
 72
10
 73
6
 74
0
 42
0.0000001
 43
0.0000001
 44
0.0000000001
 40
0.0
 40
0.0
 40
0.0
 40
0.0
 40
0.3914026107
 40
0.6807340322
 40
1.0
 40
1.0
 40
1.0
 40
1.0
 10
204.5517330589
 20
119.8962079787
 30
0.0
 10
204.3692058155
 20
119.7912925692
 30
0.0
 10
204.0659662347
 20
119.5782334977
 30
0.0
 10
203.7001455301
 20
119.1849351371
 30
0.0
 10
203.55817866
 20
118.8640923962
 30
0.0
 10
203.55817866
 20
118.6923626105
 30
0.0
  0
SPLINE
  5
433
100
AcDbEntity
  8
KONSTRUKTIONSELEMENTE
100
AcDbSpline
 62
7
  6
CONTINUOUS
 70
0
 71
3
 72
9
 73
5
 74
0
 42
0.0000001
 43
0.0000001
 44
0.0000000001
 40
0.0
 40
0.0
 40
0.0
 40
0.0
 40
0.2461884529
 40
1.0
 40
1.0
 40
1.0
 40
1.0
 10
202.5066260486
 20
102.8706266682
 30
0.0
 10
202.6839305244
 20
102.7751139473
 30
0.0
 10
203.4182080884
 20
102.41359465
 30
0.0
 10
204.202681114
 20
102.1563701292
 30
0.0
 10
204.8040663395
 20
102.0199947721
 30
0.0
  0
SPLINE
  5
434
100
AcDbEntity
  8
KONSTRUKTIONSELEMENTE
100
AcDbSpline
 62
7
  6
CONTINUOUS
 70
0
 71
3
 72
9
 73
5
 74
0
 42
0.0000001
 43
0.0000001
 44
0.0000000001
 40
0.0
 40
0.0
 40
0.0
 40
0.0
 40
0.2541577505
 40
1.0
 40
1.0
 40
1.0
 40
1.0
 10
209.3103494388
 20
102.0195635598
 30
0.0
 10
209.5135970547
 20
102.0656199078
 30
0.0
 10
210.3072265163
 20
102.2720733979
 30
0.0
 10
211.0749172977
 20
102.5822205653
 30
0.0
 10
211.613201
 20
102.8724998982
 30
0.0
  0
SPLINE
  5
435
100
AcDbEntity
  8
KONSTRUKTIONSELEMENTE
100
AcDbSpline
 62
7
  6
CONTINUOUS
 70
0
 71
3
 72
9
 73
5
 74
0
 42
0.0000001
 43
0.0000001
 44
0.0000000001
 40
0.0
 40
0.0
 40
0.0
 40
0.0
 40
0.2427240457
 40
1.0
 40
1.0
 40
1.0
 40
1.0
 10
198.2244195863
 20
133.9056076634
 30
0.0
 10
198.7152829573
 20
133.7134974004
 30
0.0
 10
200.7669415584
 20
132.9982039473
 30
0.0
 10
202.9189682939
 20
132.5791374197
 30
0.0
 10
204.5558116597
 20
132.4200360993
 30
0.0
  0
SPLINE
  5
436
100
AcDbEntity
  8
KONSTRUKTIONSELEMENTE
100
AcDbSpline
 62
7
  6
CONTINUOUS
 70
0
 71
3
 72
9
 73
5
 74
0
 42
0.0000001
 43
0.0000001
 44
0.0000000001
 40
0.0
 40
0.0
 40
0.0
 40
0.0
 40
0.2566178912
 40
1.0
 40
1.0
 40
1.0
 40
1.0
 10
209.5602054869
 20
132.4199963248
 30
0.0
 10
210.1156241321
 20
132.4739771536
 30
0.0
 10
212.2721326461
 20
132.7551063603
 30
0.0
 10
214.3949662313
 20
133.3189819539
 30
0.0
 10
215.9000677778
 20
133.9087946344
 30
0.0
  0
SPLINE
  5
437
100
AcDbEntity
  8
BEZUGSACHSEN
100
AcDbSpline
 62
7
  6
CONTINUOUS
 70
0
 71
3
 72
11
 73
7
 74
0
 42
0.0000001
 43
0.0000001
 44
0.0000000001
 40
0.0
 40
0.0
 40
0.0
 40
0.0
 40
0.2247459803
 40
0.4666479017
 40
0.7259253114
 40
1.0
 40
1.0
 40
1.0
 40
1.0
 10
212.1810345264
 20
61.0620335754
 30
0.0
 10
212.0361096739
 20
60.7997571215
 30
0.0
 10
211.6598341645
 20
60.2948573618
 30
0.0
 10
210.9157945102
 20
59.6654307012
 30
0.0
 10
210.0071676465
 20
59.1608577344
 30
0.0
 10
209.3319602432
 20
58.9261566148
 30
0.0
 10
208.9785926229
 20
58.8330680445
 30
0.0
  0
SPLINE
  5
438
100
AcDbEntity
  8
BEZUGSACHSEN
100
AcDbSpline
 62
7
  6
CONTINUOUS
 70
0
 71
3
 72
11
 73
7
 74
0
 42
0.0000001
 43
0.0000001
 44
0.0000000001
 40
0.0
 40
0.0
 40
0.0
 40
0.0
 40
0.2740746886
 40
0.5333520983
 40
0.7752540197
 40
1.0
 40
1.0
 40
1.0
 40
1.0
 10
205.1377646971
 20
58.8330680445
 30
0.0
 10
204.7843970769
 20
58.9261566148
 30
0.0
 10
204.1091896735
 20
59.1608577344
 30
0.0
 10
203.2005628098
 20
59.6654307012
 30
0.0
 10
202.4565231555
 20
60.2948573618
 30
0.0
 10
202.0802476461
 20
60.7997571215
 30
0.0
 10
201.9353227936
 20
61.0620335754
 30
0.0
  0
SPLINE
  5
439
100
AcDbEntity
  8
KONSTRUKTIONSELEMENTE
100
AcDbSpline
 62
7
  6
CONTINUOUS
 70
0
 71
3
 72
13
 73
9
 74
0
 42
0.0000001
 43
0.0000001
 44
0.0000000001
 40
0.0
 40
0.0
 40
0.0
 40
0.0
 40
0.1035698708
 40
0.2118852886
 40
0.327021228
 40
0.4498249804
 40
0.7159005812
 40
1.0
 40
1.0
 40
1.0
 40
1.0
 10
203.4025937665
 20
18.7181775083
 30
0.0
 10
203.3830310486
 20
18.8579236259
 30
0.0
 10
203.3049612324
 20
19.1396392087
 30
0.0
 10
203.0838855353
 20
19.5307580139
 30
0.0
 10
202.7669048999
 20
19.884613174
 30
0.0
 10
202.2177016471
 20
20.3024667905
 30
0.0
 10
201.3582135327
 20
20.6628430475
 30
0.0
 10
200.6052498374
 20
20.7580734162
 30
0.0
 10
200.21817866
 20
20.7580734162
 30
0.0
  0
SPLINE
  5
43A
100
AcDbEntity
  8
KONSTRUKTIONSELEMENTE
100
AcDbSpline
 62
7
  6
CONTINUOUS
 70
0
 71
3
 72
9
 73
5
 74
0
 42
0.0000001
 43
0.0000001
 44
0.0000000001
 40
0.0
 40
0.0
 40
0.0
 40
0.0
 40
0.4892987036
 40
1.0
 40
1.0
 40
1.0
 40
1.0
 10
182.8778709406
 20
47.6928587638
 30
0.0
 10
182.8778880036
 20
47.7548513725
 30
0.0
 10
182.8577465991
 20
47.8822534914
 30
0.0
 10
182.8010628055
 20
47.9976350785
 30
0.0
 10
182.765441345
 20
48.0516512968
 30
0.0
  0
SPLINE
  5
43B
100
AcDbEntity
  8
KONSTRUKTIONSELEMENTE
100
AcDbSpline
 62
7
  6
CONTINUOUS
 70
0
 71
3
 72
11
 73
7
 74
0
 42
0.0000001
 43
0.0000001
 44
0.0000000001
 40
0.0
 40
0.0
 40
0.0
 40
0.0
 40
0.2200436456
 40
0.4557793627
 40
0.7157728079
 40
1.0
 40
1.0
 40
1.0
 40
1.0
 10
177.1907365219
 20
48.5307912085
 30
0.0
 10
177.190758741
 20
48.6115164729
 30
0.0
 10
177.226210389
 20
48.7802383113
 30
0.0
 10
177.3744933556
 20
49.0029834444
 30
0.0
 10
177.6005962898
 20
49.1841635079
 30
0.0
 10
177.7845662183
 20
49.2669776078
 30
0.0
 10
177.8835935478
 20
49.2996298205
 30
0.0
  0
SPLINE
  5
43C
100
AcDbEntity
  8
KONSTRUKTIONSELEMENTE
100
AcDbSpline
 62
7
  6
CONTINUOUS
 70
0
 71
3
 72
11
 73
7
 74
0
 42
0.0000001
 43
0.0000001
 44
0.0000000001
 40
0.0
 40
0.0
 40
0.0
 40
0.0
 40
0.2200599668
 40
0.4557760239
 40
0.7157731965
 40
1.0
 40
1.0
 40
1.0
 40
1.0
 10
171.8738944734
 20
57.3148288621
 30
0.0
 10
171.8739235898
 20
57.5839791987
 30
0.0
 10
171.9918723777
 20
58.1465257614
 30
0.0
 10
172.486161516
 20
58.8892241923
 30
0.0
 10
173.2399334562
 20
59.4932655292
 30
0.0
 10
173.8532625465
 20
59.7693949727
 30
0.0
 10
174.1834098082
 20
59.8782542005
 30
0.0
  0
SPLINE
  5
43D
100
AcDbEntity
  8
KONSTRUKTIONSELEMENTE
100
AcDbSpline
 62
7
  6
CONTINUOUS
 70
0
 71
3
 72
9
 73
5
 74
0
 42
0.0000001
 43
0.0000001
 44
0.0000000001
 40
0.0
 40
0.0
 40
0.0
 40
0.0
 40
0.4891681133
 40
1.0
 40
1.0
 40
1.0
 40
1.0
 10
171.8738946335
 20
54.4863070977
 30
0.0
 10
171.8738825776
 20
54.2798347304
 30
0.0
 10
171.9410113473
 20
53.8554013999
 30
0.0
 10
172.1299489805
 20
53.4710568594
 30
0.0
 10
172.248651707
 20
53.2910565927
 30
0.0
  0
SPLINE
  5
43E
100
AcDbEntity
  8
KONSTRUKTIONSELEMENTE
100
AcDbSpline
 62
7
  6
CONTINUOUS
 70
0
 71
3
 72
9
 73
5
 74
0
 42
0.0000001
 43
0.0000001
 44
0.0000000001
 40
0.0
 40
0.0
 40
0.0
 40
0.0
 40
0.4891681133
 40
1.0
 40
1.0
 40
1.0
 40
1.0
 10
225.1376218102
 20
27.2946641021
 30
0.0
 10
225.1376097543
 20
27.5011364694
 30
0.0
 10
225.2047385241
 20
27.9255697999
 30
0.0
 10
225.3936761572
 20
28.3099143404
 30
0.0
 10
225.5123788837
 20
28.4899146071
 30
0.0
  0
SPLINE
  5
43F
100
AcDbEntity
  8
KONSTRUKTIONSELEMENTE
100
AcDbSpline
 62
7
  6
CONTINUOUS
 70
0
 71
3
 72
9
 73
5
 74
0
 42
0.0000001
 43
0.0000001
 44
0.0000000001
 40
0.0
 40
0.0
 40
0.0
 40
0.0
 40
0.4753722117
 40
1.0
 40
1.0
 40
1.0
 40
1.0
 10
225.6628281782
 20
28.7219493631
 30
0.0
 10
225.8767799662
 20
28.4566035713
 30
0.0
 10
226.4309200733
 20
27.9800610227
 30
0.0
 10
227.0898814312
 20
27.6773688749
 30
0.0
 10
227.4471369849
 20
27.5595712487
 30
0.0
  0
SPLINE
  5
440
100
AcDbEntity
  8
KONSTRUKTIONSELEMENTE
100
AcDbSpline
 62
7
  6
CONTINUOUS
 70
0
 71
3
 72
11
 73
7
 74
0
 42
0.0000001
 43
0.0000001
 44
0.0000000001
 40
0.0
 40
0.0
 40
0.0
 40
0.0
 40
0.2094829334
 40
0.4446557434
 40
0.7120095299
 40
1.0
 40
1.0
 40
1.0
 40
1.0
 10
201.81817866
 20
10.5757357671
 30
0.0
 10
201.81817866
 20
10.4632868972
 30
0.0
 10
201.8912086035
 20
10.2217719816
 30
0.0
 10
202.1708263805
 20
9.9452109734
 30
0.0
 10
202.5636060287
 20
9.7676261639
 30
0.0
 10
202.8635875323
 20
9.7272076297
 30
0.0
 10
203.01817866
 20
9.7272076297
 30
0.0
  0
SPLINE
  5
441
100
AcDbEntity
  8
BEZUGSACHSEN
100
AcDbSpline
 62
7
  6
CONTINUOUS
 70
0
 71
3
 72
9
 73
5
 74
0
 42
0.0000001
 43
0.0000001
 44
0.0000000001
 40
0.0
 40
0.0
 40
0.0
 40
0.0
 40
0.2459387646
 40
1.0
 40
1.0
 40
1.0
 40
1.0
 10
213.8200708479
 20
68.488434932
 30
0.0
 10
213.4803749813
 20
68.6004426147
 30
0.0
 10
212.0868713753
 20
69.0180112286
 30
0.0
 10
210.6496295118
 20
69.2873156637
 30
0.0
 10
209.5597528094
 20
69.4093089479
 30
0.0
  0
SPLINE
  5
442
100
AcDbEntity
  8
BEZUGSACHSEN
100
AcDbSpline
 62
7
  6
CONTINUOUS
 70
0
 71
3
 72
9
 73
5
 74
0
 42
0.0000001
 43
0.0000001
 44
0.0000000001
 40
0.0
 40
0.0
 40
0.0
 40
0.0
 40
0.2536983179
 40
1.0
 40
1.0
 40
1.0
 40
1.0
 10
204.5566045106
 20
69.4093089479
 30
0.0
 10
204.1899303582
 20
69.3682659712
 30
0.0
 10
202.7489540436
 20
69.1705741664
 30
0.0
 10
201.3270751774
 20
68.8283161776
 30
0.0
 10
200.2962864722
 20
68.488434932
 30
0.0
  0
SPLINE
  5
443
100
AcDbEntity
  8
KONSTRUKTIONSELEMENTE
100
AcDbSpline
 62
7
  6
CONTINUOUS
 70
0
 71
3
 72
10
 73
6
 74
0
 42
0.0000001
 43
0.0000001
 44
0.0000000001
 40
0.0
 40
0.0
 40
0.0
 40
0.0
 40
0.2210513433
 40
0.4578290806
 40
1.0
 40
1.0
 40
1.0
 40
1.0
 10
232.7534120027
 20
25.6297114231
 30
0.0
 10
232.7534135825
 20
25.6566290181
 30
0.0
 10
232.7416028911
 20
25.7129137227
 30
0.0
 10
232.673018634
 20
25.8160725123
 30
0.0
 10
232.5851606727
 20
25.8654142577
 30
0.0
 10
232.5224605923
 20
25.8860883118
 30
0.0
  0
SPLINE
  5
444
100
AcDbEntity
  8
BEZUGSACHSEN
100
AcDbSpline
 62
7
  6
CONTINUOUS
 70
0
 71
3
 72
11
 73
7
 74
0
 42
0.0000001
 43
0.0000001
 44
0.0000000001
 40
0.0
 40
0.0
 40
0.0
 40
0.0
 40
0.2211778223
 40
0.4572018266
 40
0.7166414314
 40
1.0
 40
1.0
 40
1.0
 40
1.0
 10
201.55817866
 20
59.6489463815
 30
0.0
 10
201.55817866
 20
60.007183216
 30
0.0
 10
201.7094617915
 20
60.754190087
 30
0.0
 10
202.3468820857
 20
61.7493999651
 30
0.0
 10
203.324665044
 20
62.5706045097
 30
0.0
 10
204.124611919
 20
62.956419976
 30
0.0
 10
204.5562638176
 20
63.112341073
 30
0.0
  0
SPLINE
  5
445
100
AcDbEntity
  8
BEZUGSACHSEN
100
AcDbSpline
 62
7
  6
CONTINUOUS
 70
0
 71
3
 72
11
 73
7
 74
0
 42
0.0000001
 43
0.0000001
 44
0.0000000001
 40
0.0
 40
0.0
 40
0.0
 40
0.0
 40
0.2833585686
 40
0.5427981734
 40
0.7788221777
 40
1.0
 40
1.0
 40
1.0
 40
1.0
 10
209.5600935024
 20
63.112341073
 30
0.0
 10
209.9917454011
 20
62.956419976
 30
0.0
 10
210.791692276
 20
62.5706045097
 30
0.0
 10
211.7694752343
 20
61.7493999651
 30
0.0
 10
212.4068955286
 20
60.754190087
 30
0.0
 10
212.55817866
 20
60.007183216
 30
0.0
 10
212.55817866
 20
59.6489463815
 30
0.0
  0
SPLINE
  5
446
100
AcDbEntity
  8
KONSTRUKTIONSELEMENTE
100
AcDbSpline
 62
7
  6
CONTINUOUS
 70
0
 71
3
 72
9
 73
5
 74
0
 42
0.0000001
 43
0.0000001
 44
0.0000000001
 40
0.0
 40
0.0
 40
0.0
 40
0.0
 40
0.5108269807
 40
1.0
 40
1.0
 40
1.0
 40
1.0
 10
250.9307834834
 20
50.3026942054
 30
0.0
 10
251.0494892745
 20
50.4826991192
 30
0.0
 10
251.2384305526
 20
50.8670616724
 30
0.0
 10
251.3055486807
 20
51.291507553
 30
0.0
 10
251.3055523594
 20
51.497989305
 30
0.0
  0
SPLINE
  5
447
100
AcDbEntity
  8
KONSTRUKTIONSELEMENTE
100
AcDbSpline
 62
7
  6
CONTINUOUS
 70
0
 71
3
 72
9
 73
5
 74
0
 42
0.0000001
 43
0.0000001
 44
0.0000000001
 40
0.0
 40
0.0
 40
0.0
 40
0.0
 40
0.5322168521
 40
1.0
 40
1.0
 40
1.0
 40
1.0
 10
249.934332976
 20
49.4609441278
 30
0.0
 10
250.0312032434
 20
49.4290031616
 30
0.0
 10
250.2317044915
 20
49.4207667134
 30
0.0
 10
250.4165477809
 20
49.5229095588
 30
0.0
 10
250.4659033955
 20
49.5977521851
 30
0.0
  0
SPLINE
  5
448
100
AcDbEntity
  8
KONSTRUKTIONSELEMENTE
100
AcDbSpline
 62
7
  6
CONTINUOUS
 70
0
 71
3
 72
9
 73
5
 74
0
 42
0.0000001
 43
0.0000001
 44
0.0000000001
 40
0.0
 40
0.0
 40
0.0
 40
0.0
 40
0.2605100871
 40
1.0
 40
1.0
 40
1.0
 40
1.0
 10
232.7159364024
 20
22.6817841388
 30
0.0
 10
232.7219712348
 20
22.6909353308
 30
0.0
 10
232.7429100118
 20
22.727453435
 30
0.0
 10
232.7534101765
 20
22.770167563
 30
0.0
 10
232.7534120027
 20
22.8012842984
 30
0.0
  0
SPLINE
  5
449
100
AcDbEntity
  8
KONSTRUKTIONSELEMENTE
100
AcDbSpline
 62
7
  6
CONTINUOUS
 70
0
 71
3
 72
11
 73
7
 74
0
 42
0.0000001
 43
0.0000001
 44
0.0000000001
 40
0.0
 40
0.0
 40
0.0
 40
0.0
 40
0.2729767978
 40
0.5353848362
 40
0.7789285996
 40
1.0
 40
1.0
 40
1.0
 40
1.0
 10
228.8990477516
 20
20.7580734162
 30
0.0
 10
229.2740494622
 20
20.7580734162
 30
0.0
 10
230.0117561014
 20
20.8308873664
 30
0.0
 10
231.040521999
 20
21.153656824
 30
0.0
 10
231.9089015106
 20
21.6662234112
 30
0.0
 10
232.3570855597
 20
22.1376243767
 30
0.0
 10
232.5242788997
 20
22.391155586
 30
0.0
  0
SPLINE
  5
44A
100
AcDbEntity
  8
KONSTRUKTIONSELEMENTE
100
AcDbSpline
 62
7
  6
CONTINUOUS
 70
0
 71
3
 72
13
 73
9
 74
0
 42
0.0000001
 43
0.0000001
 44
0.0000000001
 40
0.0
 40
0.0
 40
0.0
 40
0.0
 40
0.2870489256
 40
0.5535682914
 40
0.6755020148
 40
0.789331082
 40
0.8965440086
 40
1.0
 40
1.0
 40
1.0
 40
1.0
 10
213.89817866
 20
20.7580734162
 30
0.0
 10
213.4859650925
 20
20.7580734162
 30
0.0
 10
212.6869640951
 20
20.6507385283
 30
0.0
 10
211.7857562726
 20
20.2432676972
 30
0.0
 10
211.2325967646
 20
19.773498208
 30
0.0
 10
210.929959304
 20
19.3794401211
 30
0.0
 10
210.7412936688
 20
18.9479705032
 30
0.0
 10
210.69817866
 20
18.6438985964
 30
0.0
 10
210.69817866
 20
18.4953317164
 30
0.0
  0
SPLINE
  5
44B
100
AcDbEntity
  8
KONSTRUKTIONSELEMENTE
100
AcDbSpline
 62
7
  6
CONTINUOUS
 70
0
 71
3
 72
11
 73
7
 74
0
 42
0.0000001
 43
0.0000001
 44
0.0000000001
 40
0.0
 40
0.0
 40
0.0
 40
0.0
 40
0.220058334
 40
0.4557781708
 40
0.71578719
 40
1.0
 40
1.0
 40
1.0
 40
1.0
 10
251.3055523594
 20
54.3264164297
 30
0.0
 10
251.3055571547
 20
54.5955689574
 30
0.0
 10
251.187581073
 20
55.1581314747
 30
0.0
 10
250.6932902639
 20
55.9008570208
 30
0.0
 10
249.9394973362
 20
56.5049070665
 30
0.0
 10
249.3261615246
 20
56.7810362517
 30
0.0
 10
248.9960253822
 20
56.8898918132
 30
0.0
  0
SPLINE
  5
44C
100
AcDbEntity
  8
KONSTRUKTIONSELEMENTE
100
AcDbSpline
 62
7
  6
CONTINUOUS
 70
0
 71
3
 72
11
 73
7
 74
0
 42
0.0000001
 43
0.0000001
 44
0.0000000001
 40
0.0
 40
0.0
 40
0.0
 40
0.0
 40
0.2879904701
 40
0.5553442566
 40
0.7905170666
 40
1.0
 40
1.0
 40
1.0
 40
1.0
 10
211.09817866
 20
9.7272076297
 30
0.0
 10
211.2527697878
 20
9.7272076297
 30
0.0
 10
211.5527512914
 20
9.7676261639
 30
0.0
 10
211.9455309396
 20
9.9452109734
 30
0.0
 10
212.2251487166
 20
10.2217719816
 30
0.0
 10
212.29817866
 20
10.4632868972
 30
0.0
 10
212.29817866
 20
10.5757357671
 30
0.0
  0
SPLINE
  5
44D
100
AcDbEntity
  8
KONSTRUKTIONSELEMENTE
100
AcDbSpline
 62
7
  6
CONTINUOUS
 70
0
 71
3
 72
11
 73
7
 74
0
 42
0.0000001
 43
0.0000001
 44
0.0000000001
 40
0.0
 40
0.0
 40
0.0
 40
0.0
 40
0.2820767698
 40
0.5407553301
 40
0.7772666753
 40
1.0
 40
1.0
 40
1.0
 40
1.0
 10
213.9048365462
 20
20.7404651423
 30
0.0
 10
213.6712780869
 20
20.6456560007
 30
0.0
 10
213.2398639239
 20
20.4176400702
 30
0.0
 10
212.7164830175
 20
19.94871282
 30
0.0
 10
212.3779341559
 20
19.3909698377
 30
0.0
 10
212.29817866
 20
18.9772123223
 30
0.0
 10
212.29817866
 20
18.7781744289
 30
0.0
  0
SPLINE
  5
44E
100
AcDbEntity
  8
KONSTRUKTIONSELEMENTE
100
AcDbSpline
 62
7
  6
CONTINUOUS
 70
0
 71
3
 72
11
 73
7
 74
0
 42
0.0000001
 43
0.0000001
 44
0.0000000001
 40
0.0
 40
0.0
 40
0.0
 40
0.0
 40
0.2820767698
 40
0.5407553301
 40
0.7772666753
 40
1.0
 40
1.0
 40
1.0
 40
1.0
 10
200.2115207738
 20
20.7404651423
 30
0.0
 10
200.4450792331
 20
20.6456560007
 30
0.0
 10
200.8764933961
 20
20.4176400702
 30
0.0
 10
201.3998743026
 20
19.94871282
 30
0.0
 10
201.7384231642
 20
19.3909698377
 30
0.0
 10
201.81817866
 20
18.9772123223
 30
0.0
 10
201.81817866
 20
18.7781744289
 30
0.0
  0
SPLINE
  5
44F
100
AcDbEntity
  8
KONSTRUKTIONSELEMENTE
100
AcDbSpline
 62
7
  6
CONTINUOUS
 70
0
 71
3
 72
9
 73
5
 74
0
 42
0.0000001
 43
0.0000001
 44
0.0000000001
 40
0.0
 40
0.0
 40
0.0
 40
0.0
 40
0.5107012964
 40
1.0
 40
1.0
 40
1.0
 40
1.0
 10
177.3031661174
 20
45.9092569757
 30
0.0
 10
177.267544657
 20
45.963273194
 30
0.0
 10
177.2108608633
 20
46.0786547811
 30
0.0
 10
177.1907194588
 20
46.2060569001
 30
0.0
 10
177.1907365219
 20
46.2680495087
 30
0.0
  0
SPLINE
  5
450
100
AcDbEntity
  8
KONSTRUKTIONSELEMENTE
100
AcDbSpline
 62
7
  6
CONTINUOUS
 70
0
 71
3
 72
11
 73
7
 74
0
 42
0.0000001
 43
0.0000001
 44
0.0000000001
 40
0.0
 40
0.0
 40
0.0
 40
0.0
 40
0.2210800583
 40
0.4646152767
 40
0.7270135498
 40
1.0
 40
1.0
 40
1.0
 40
1.0
 10
192.62585761
 20
22.391155586
 30
0.0
 10
192.7930574605
 20
22.1376145042
 30
0.0
 10
193.2412478328
 20
21.6662185681
 30
0.0
 10
194.109613825
 20
21.1536584319
 30
0.0
 10
195.1383678958
 20
20.830893105
 30
0.0
 10
195.8760738712
 20
20.7580734162
 30
0.0
 10
196.2510887581
 20
20.7580734162
 30
0.0
  0
SPLINE
  5
451
100
AcDbEntity
  8
KONSTRUKTIONSELEMENTE
100
AcDbSpline
 62
7
  6
CONTINUOUS
 70
0
 71
3
 72
13
 73
9
 74
0
 42
0.0000001
 43
0.0000001
 44
0.0000000001
 40
0.0
 40
0.0
 40
0.0
 40
0.0
 40
0.2198121251
 40
0.3415455497
 40
0.4695397045
 40
0.6018885822
 40
0.736224413
 40
1.0
 40
1.0
 40
1.0
 40
1.0
 10
239.5433051735
 20
49.7663464913
 30
0.0
 10
239.7785839505
 20
50.1231221431
 30
0.0
 10
240.2866495299
 20
50.5877567907
 30
0.0
 10
241.0967659778
 20
51.0113104928
 30
0.0
 10
241.8041688714
 20
51.2490641046
 30
0.0
 10
242.5621391616
 20
51.3848828294
 30
0.0
 10
243.5946879133
 20
51.4245578511
 30
0.0
 10
244.3719570765
 20
51.2950224795
 30
0.0
 10
244.8590093686
 20
51.1344270647
 30
0.0
  0
SPLINE
  5
452
100
AcDbEntity
  8
KONSTRUKTIONSELEMENTE
100
AcDbSpline
 62
7
  6
CONTINUOUS
 70
0
 71
3
 72
10
 73
6
 74
0
 42
0.0000001
 43
0.0000001
 44
0.0000000001
 40
0.0
 40
0.0
 40
0.0
 40
0.0
 40
0.2210513433
 40
0.4578290806
 40
1.0
 40
1.0
 40
1.0
 40
1.0
 10
232.7534120027
 20
22.8012842984
 30
0.0
 10
232.7534135825
 20
22.8282018934
 30
0.0
 10
232.7416028911
 20
22.884486598
 30
0.0
 10
232.673018634
 20
22.9876453875
 30
0.0
 10
232.5851606727
 20
23.036987133
 30
0.0
 10
232.5224605923
 20
23.0576611871
 30
0.0
  0
SPLINE
  5
453
100
AcDbEntity
  8
BEZUGSACHSEN
100
AcDbSpline
 62
7
  6
CONTINUOUS
 70
0
 71
3
 72
9
 73
5
 74
0
 42
0.0000001
 43
0.0000001
 44
0.0000000001
 40
0.0
 40
0.0
 40
0.0
 40
0.0
 40
0.2459387646
 40
1.0
 40
1.0
 40
1.0
 40
1.0
 10
213.8200708479
 20
65.6600078072
 30
0.0
 10
213.4803749813
 20
65.77201549
 30
0.0
 10
212.0868713753
 20
66.1895841038
 30
0.0
 10
210.6496295118
 20
66.458888539
 30
0.0
 10
209.5597528094
 20
66.5808818231
 30
0.0
  0
SPLINE
  5
454
100
AcDbEntity
  8
BEZUGSACHSEN
100
AcDbSpline
 62
7
  6
CONTINUOUS
 70
0
 71
3
 72
9
 73
5
 74
0
 42
0.0000001
 43
0.0000001
 44
0.0000000001
 40
0.0
 40
0.0
 40
0.0
 40
0.0
 40
0.2536983179
 40
1.0
 40
1.0
 40
1.0
 40
1.0
 10
204.5566045106
 20
66.5808818231
 30
0.0
 10
204.1899303582
 20
66.5398388465
 30
0.0
 10
202.7489540436
 20
66.3421470417
 30
0.0
 10
201.3270751774
 20
65.9998890529
 30
0.0
 10
200.2962864722
 20
65.6600078072
 30
0.0
  0
SPLINE
  5
455
100
AcDbEntity
  8
BEZUGSACHSEN
100
AcDbSpline
 62
7
  6
CONTINUOUS
 70
0
 71
3
 72
19
 73
15
 74
0
 42
0.0000001
 43
0.0000001
 44
0.0000000001
 40
0.0
 40
0.0
 40
0.0
 40
0.0
 40
0.0517279957
 40
0.105334459
 40
0.1622489926
 40
0.2232158543
 40
0.3564755372
 40
0.5
 40
0.6435244628
 40
0.7767841457
 40
0.8377510074
 40
0.894665541
 40
0.9482720043
 40
1.0
 40
1.0
 40
1.0
 40
1.0
 10
212.55817866
 20
59.6489463815
 30
0.0
 10
212.55817866
 20
59.3935970564
 30
0.0
 10
212.4840736556
 20
58.8709734667
 30
0.0
 10
212.1598097212
 20
58.129385061
 30
0.0
 10
211.6396310279
 20
57.452097724
 30
0.0
 10
210.689004513
 20
56.6446814144
 30
0.0
 10
209.1390387215
 20
55.9443409236
 30
0.0
 10
207.05817866
 20
55.6641973312
 30
0.0
 10
204.9773185986
 20
55.9443409236
 30
0.0
 10
203.427352807
 20
56.6446814144
 30
0.0
 10
202.4767262921
 20
57.452097724
 30
0.0
 10
201.9565475988
 20
58.129385061
 30
0.0
 10
201.6322836644
 20
58.8709734667
 30
0.0
 10
201.55817866
 20
59.3935970564
 30
0.0
 10
201.55817866
 20
59.6489463815
 30
0.0
  0
SPLINE
  5
456
100
AcDbEntity
  8
KONSTRUKTIONSELEMENTE
100
AcDbSpline
 62
7
  6
CONTINUOUS
 70
0
 71
3
 72
9
 73
5
 74
0
 42
0.0000001
 43
0.0000001
 44
0.0000000001
 40
0.0
 40
0.0
 40
0.0
 40
0.0
 40
0.5398499172
 40
1.0
 40
1.0
 40
1.0
 40
1.0
 10
182.1850139147
 20
47.2068628643
 30
0.0
 10
182.3442844713
 20
47.2593790346
 30
0.0
 10
182.6285092713
 20
47.4056460271
 30
0.0
 10
182.8178909185
 20
47.676162447
 30
0.0
 10
182.8558246207
 20
47.8139837213
 30
0.0
  0
SPLINE
  5
457
100
AcDbEntity
  8
KONSTRUKTIONSELEMENTE
100
AcDbSpline
 62
7
  6
CONTINUOUS
 70
0
 71
3
 72
11
 73
7
 74
0
 42
0.0000001
 43
0.0000001
 44
0.0000000001
 40
0.0
 40
0.0
 40
0.0
 40
0.0
 40
0.2816064552
 40
0.5417085427
 40
0.7793419382
 40
1.0
 40
1.0
 40
1.0
 40
1.0
 10
181.5088246959
 20
48.2322330756
 30
0.0
 10
181.5995151311
 20
48.26213637
 30
0.0
 10
181.7691141811
 20
48.3367497236
 30
0.0
 10
181.9829187817
 20
48.4965438329
 30
0.0
 10
182.1340334121
 20
48.6920426458
 30
0.0
 10
182.1852380754
 20
48.8427585238
 30
0.0
 10
182.1957279771
 20
48.9168451244
 30
0.0
  0
SPLINE
  5
458
100
AcDbEntity
  8
KONSTRUKTIONSELEMENTE
100
AcDbSpline
 62
7
  6
CONTINUOUS
 70
0
 71
3
 72
11
 73
7
 74
0
 42
0.0000001
 43
0.0000001
 44
0.0000000001
 40
0.0
 40
0.0
 40
0.0
 40
0.0
 40
0.2200436456
 40
0.4557793627
 40
0.7157728079
 40
1.0
 40
1.0
 40
1.0
 40
1.0
 10
177.1907365219
 20
46.2680495087
 30
0.0
 10
177.190758741
 20
46.3487747731
 30
0.0
 10
177.226210389
 20
46.5174966115
 30
0.0
 10
177.3744933556
 20
46.7402417446
 30
0.0
 10
177.6005962898
 20
46.9214218081
 30
0.0
 10
177.7845662183
 20
47.004235908
 30
0.0
 10
177.8835935478
 20
47.0368881207
 30
0.0
  0
SPLINE
  5
459
100
AcDbEntity
  8
KONSTRUKTIONSELEMENTE
100
AcDbSpline
 62
7
  6
CONTINUOUS
 70
0
 71
3
 72
11
 73
7
 74
0
 42
0.0000001
 43
0.0000001
 44
0.0000000001
 40
0.0
 40
0.0
 40
0.0
 40
0.0
 40
0.220058334
 40
0.4557781708
 40
0.71578719
 40
1.0
 40
1.0
 40
1.0
 40
1.0
 10
251.3055523594
 20
51.497989305
 30
0.0
 10
251.3055571547
 20
51.7671418327
 30
0.0
 10
251.187581073
 20
52.3297043499
 30
0.0
 10
250.6932902639
 20
53.0724298961
 30
0.0
 10
249.9394973362
 20
53.6764799417
 30
0.0
 10
249.3261615246
 20
53.952609127
 30
0.0
 10
248.9960253822
 20
54.0614646885
 30
0.0
  0
SPLINE
  5
45A
100
AcDbEntity
  8
KONSTRUKTIONSELEMENTE
100
AcDbSpline
 62
7
  6
CONTINUOUS
 70
0
 71
3
 72
11
 73
7
 74
0
 42
0.0000001
 43
0.0000001
 44
0.0000000001
 40
0.0
 40
0.0
 40
0.0
 40
0.0
 40
0.2842271921
 40
0.5442206373
 40
0.7799563544
 40
1.0
 40
1.0
 40
1.0
 40
1.0
 10
182.1850139147
 20
46.9240201518
 30
0.0
 10
182.2840412441
 20
46.9566723646
 30
0.0
 10
182.4680111727
 20
47.0394864644
 30
0.0
 10
182.6941141068
 20
47.220666528
 30
0.0
 10
182.8423970735
 20
47.443411661
 30
0.0
 10
182.8778487215
 20
47.6121334994
 30
0.0
 10
182.8778709406
 20
47.6928587638
 30
0.0
  0
SPLINE
  5
45B
100
AcDbEntity
  8
KONSTRUKTIONSELEMENTE
100
AcDbSpline
 62
7
  6
CONTINUOUS
 70
0
 71
3
 72
11
 73
7
 74
0
 42
0.0000001
 43
0.0000001
 44
0.0000000001
 40
0.0
 40
0.0
 40
0.0
 40
0.0
 40
0.2842240174
 40
0.5442187073
 40
0.779940343
 40
1.0
 40
1.0
 40
1.0
 40
1.0
 10
174.1834098082
 20
57.0498270758
 30
0.0
 10
173.8532573964
 20
56.9409661498
 30
0.0
 10
173.2399193124
 20
56.664830627
 30
0.0
 10
172.4861302345
 20
56.0607700625
 30
0.0
 10
171.9918409914
 20
55.3180373234
 30
0.0
 10
171.8739103496
 20
54.7554638934
 30
0.0
 10
171.8738946335
 20
54.4863070977
 30
0.0
  0
SPLINE
  5
45C
100
AcDbEntity
  8
KONSTRUKTIONSELEMENTE
100
AcDbSpline
 62
7
  6
CONTINUOUS
 70
0
 71
3
 72
11
 73
7
 74
0
 42
0.0000001
 43
0.0000001
 44
0.0000000001
 40
0.0
 40
0.0
 40
0.0
 40
0.0
 40
0.2842240174
 40
0.5442187073
 40
0.779940343
 40
1.0
 40
1.0
 40
1.0
 40
1.0
 10
227.4471369849
 20
24.731144124
 30
0.0
 10
227.1169845732
 20
24.8400050499
 30
0.0
 10
226.5036464891
 20
25.1161405728
 30
0.0
 10
225.7498574112
 20
25.7202011372
 30
0.0
 10
225.2555681681
 20
26.4629338764
 30
0.0
 10
225.1376375264
 20
27.0255073063
 30
0.0
 10
225.1376218102
 20
27.2946641021
 30
0.0
  0
SPLINE
  5
45D
100
AcDbEntity
  8
KONSTRUKTIONSELEMENTE
100
AcDbSpline
 62
7
  6
CONTINUOUS
 70
0
 71
3
 72
9
 73
5
 74
0
 42
0.0000001
 43
0.0000001
 44
0.0000000001
 40
0.0
 40
0.0
 40
0.0
 40
0.0
 40
0.5001151744
 40
1.0
 40
1.0
 40
1.0
 40
1.0
 10
195.0761050248
 20
106.8065039603
 30
0.0
 10
195.2050155656
 20
107.1399990582
 30
0.0
 10
195.4159926024
 20
107.8267878403
 30
0.0
 10
195.4931451538
 20
108.5434590993
 30
0.0
 10
195.4931451538
 20
108.9008372936
 30
0.0
  0
SPLINE
  5
45E
100
AcDbEntity
  8
KONSTRUKTIONSELEMENTE
100
AcDbSpline
 62
7
  6
CONTINUOUS
 70
0
 71
3
 72
9
 73
5
 74
0
 42
0.0000001
 43
0.0000001
 44
0.0000000001
 40
0.0
 40
0.0
 40
0.0
 40
0.0
 40
0.4998848256
 40
1.0
 40
1.0
 40
1.0
 40
1.0
 10
218.6232121662
 20
108.9008372936
 30
0.0
 10
218.6232121662
 20
108.5434590993
 30
0.0
 10
218.7003647177
 20
107.8267878403
 30
0.0
 10
218.9113417544
 20
107.1399990582
 30
0.0
 10
219.0402522952
 20
106.8065039603
 30
0.0
  0
SPLINE
  5
45F
100
AcDbEntity
  8
KONSTRUKTIONSELEMENTE
100
AcDbSpline
 62
7
  6
CONTINUOUS
 70
0
 71
3
 72
9
 73
5
 74
0
 42
0.0000001
 43
0.0000001
 44
0.0000000001
 40
0.0
 40
0.0
 40
0.0
 40
0.0
 40
0.494688926
 40
1.0
 40
1.0
 40
1.0
 40
1.0
 10
195.8330056529
 20
103.1905209764
 30
0.0
 10
195.8120485393
 20
103.542715435
 30
0.0
 10
195.6575351659
 20
104.2501452503
 30
0.0
 10
195.342885991
 20
104.8949952653
 30
0.0
 10
195.1619660808
 20
105.2066862757
 30
0.0
  0
SPLINE
  5
460
100
AcDbEntity
  8
KONSTRUKTIONSELEMENTE
100
AcDbSpline
 62
7
  6
CONTINUOUS
 70
0
 71
3
 72
11
 73
7
 74
0
 42
0.0000001
 43
0.0000001
 44
0.0000000001
 40
0.0
 40
0.0
 40
0.0
 40
0.0
 40
0.2557279993
 40
0.5074851301
 40
0.7550583766
 40
1.0
 40
1.0
 40
1.0
 40
1.0
 10
195.4931451538
 20
114.1359897163
 30
0.0
 10
195.4931451538
 20
114.2920031566
 30
0.0
 10
195.5485496569
 20
114.6037633642
 30
0.0
 10
195.7667048229
 20
115.0155342577
 30
0.0
 10
196.0677220926
 20
115.3593507571
 30
0.0
 10
196.3020034719
 20
115.5493892593
 30
0.0
 10
196.4237842698
 20
115.6359897163
 30
0.0
  0
SPLINE
  5
461
100
AcDbEntity
  8
KONSTRUKTIONSELEMENTE
100
AcDbSpline
 62
7
  6
CONTINUOUS
 70
0
 71
3
 72
11
 73
7
 74
0
 42
0.0000001
 43
0.0000001
 44
0.0000000001
 40
0.0
 40
0.0
 40
0.0
 40
0.0
 40
0.2449450505
 40
0.4925219357
 40
0.7442781348
 40
1.0
 40
1.0
 40
1.0
 40
1.0
 10
217.6925730503
 20
115.6359897163
 30
0.0
 10
217.8143555601
 20
115.5493880419
 30
0.0
 10
218.0486403081
 20
115.3593467569
 30
0.0
 10
218.3496588574
 20
115.0155260771
 30
0.0
 10
218.5678096235
 20
114.6037551616
 30
0.0
 10
218.6232121662
 20
114.2919994247
 30
0.0
 10
218.6232121662
 20
114.1359897163
 30
0.0
  0
LINE
  5
462
100
AcDbEntity
  8
0
100
AcDbLine
 62
7
  6
CONTINUOUS
 10
218.2833516671
 20
103.1905209764
 11
217.9635677004
 21
97.9398547689
  0
LINE
  5
463
100
AcDbEntity
  8
0
100
AcDbLine
 62
7
  6
CONTINUOUS
 10
196.1527896196
 20
97.9398547689
 11
195.8330056529
 21
103.1905209764
  0
SPLINE
  5
464
100
AcDbEntity
  8
KONSTRUKTIONSELEMENTE
100
AcDbSpline
 62
7
  6
CONTINUOUS
 70
0
 71
3
 72
10
 73
6
 74
0
 42
0.0000001
 43
0.0000001
 44
0.0000000001
 40
0.0
 40
0.0
 40
0.0
 40
0.0
 40
0.2359601556
 40
0.4830998292
 40
1.0
 40
1.0
 40
1.0
 40
1.0
 10
195.1619660808
 20
105.2066862757
 30
0.0
 10
195.0968145856
 20
105.3189300599
 30
0.0
 10
194.989376584
 20
105.5651532289
 30
0.0
 10
194.8939437615
 20
106.1111755731
 30
0.0
 10
194.9736005125
 20
106.5413219807
 30
0.0
 10
195.0761050248
 20
106.8065039603
 30
0.0
  0
SPLINE
  5
465
100
AcDbEntity
  8
KONSTRUKTIONSELEMENTE
100
AcDbSpline
 62
7
  6
CONTINUOUS
 70
0
 71
3
 72
10
 73
6
 74
0
 42
0.0000001
 43
0.0000001
 44
0.0000000001
 40
0.0
 40
0.0
 40
0.0
 40
0.0
 40
0.5169001708
 40
0.7640398444
 40
1.0
 40
1.0
 40
1.0
 40
1.0
 10
219.0402522952
 20
106.8065039603
 30
0.0
 10
219.1427568076
 20
106.5413219807
 30
0.0
 10
219.2224135585
 20
106.1111755731
 30
0.0
 10
219.126980736
 20
105.5651532289
 30
0.0
 10
219.0195427345
 20
105.3189300599
 30
0.0
 10
218.9543912392
 20
105.2066862757
 30
0.0
  0
SPLINE
  5
466
100
AcDbEntity
  8
KONSTRUKTIONSELEMENTE
100
AcDbSpline
 62
7
  6
CONTINUOUS
 70
0
 71
3
 72
9
 73
5
 74
0
 42
0.0000001
 43
0.0000001
 44
0.0000000001
 40
0.0
 40
0.0
 40
0.0
 40
0.0
 40
0.505311074
 40
1.0
 40
1.0
 40
1.0
 40
1.0
 10
218.9543912392
 20
105.2066862757
 30
0.0
 10
218.7734713291
 20
104.8949952653
 30
0.0
 10
218.4588221542
 20
104.2501452503
 30
0.0
 10
218.3043087808
 20
103.542715435
 30
0.0
 10
218.2833516671
 20
103.1905209764
 30
0.0
  0
LINE
  5
467
100
AcDbEntity
  8
BEZUGSACHSEN
100
AcDbLine
 62
7
  6
CONTINUOUS
 10
559.1368063855
 20
152.4987489242
 11
559.1318382253
 21
152.4604713604
  0
LINE
  5
468
100
AcDbEntity
  8
BEZUGSACHSEN
100
AcDbLine
 62
7
  6
CONTINUOUS
 10
559.1318382253
 20
152.4604713604
 11
559.1267878767
 21
152.4221985894
  0
LINE
  5
469
100
AcDbEntity
  8
BEZUGSACHSEN
100
AcDbLine
 62
7
  6
CONTINUOUS
 10
559.1267878767
 20
152.4221985894
 11
559.1164424832
 21
152.3456673789
  0
LINE
  5
46A
100
AcDbEntity
  8
BEZUGSACHSEN
100
AcDbLine
 62
7
  6
CONTINUOUS
 10
559.1384489526
 20
152.5969018832
 11
559.1368063855
 21
152.4987489242
  0
LINE
  5
46B
100
AcDbEntity
  8
BEZUGSACHSEN
100
AcDbLine
 62
7
  6
CONTINUOUS
 10
559.1267166751
 20
153.1747397815
 11
559.1305916953
 21
153.1039507095
  0
LINE
  5
46C
100
AcDbEntity
  8
BEZUGSACHSEN
100
AcDbLine
 62
7
  6
CONTINUOUS
 10
559.1305916953
 20
153.1039507095
 11
559.1343814131
 21
153.0331423561
  0
LINE
  5
46D
100
AcDbEntity
  8
BEZUGSACHSEN
100
AcDbLine
 62
7
  6
CONTINUOUS
 10
559.1343814131
 20
153.0331423561
 11
559.1380854134
 21
152.9623147061
  0
LINE
  5
46E
100
AcDbEntity
  8
BEZUGSACHSEN
100
AcDbLine
 62
7
  6
CONTINUOUS
 10
559.1380854134
 20
152.9623147061
 11
559.1417032885
 21
152.891467746
  0
LINE
  5
46F
100
AcDbEntity
  8
BEZUGSACHSEN
100
AcDbLine
 62
7
  6
CONTINUOUS
 10
559.0948092977
 20
153.4794703114
 11
559.1028878046
 21
153.4030927619
  0
LINE
  5
470
100
AcDbEntity
  8
BEZUGSACHSEN
100
AcDbLine
 62
7
  6
CONTINUOUS
 10
559.1028878046
 20
153.4030927619
 11
559.110898651
 21
153.326845168
  0
LINE
  5
471
100
AcDbEntity
  8
BEZUGSACHSEN
100
AcDbLine
 62
7
  6
CONTINUOUS
 10
559.110898651
 20
153.326845168
 11
559.1188416648
 21
153.2507275132
  0
LINE
  5
472
100
AcDbEntity
  8
BEZUGSACHSEN
100
AcDbLine
 62
7
  6
CONTINUOUS
 10
559.1188416648
 20
153.2507275132
 11
559.1267166751
 21
153.1747397815
  0
LINE
  5
473
100
AcDbEntity
  8
BEZUGSACHSEN
100
AcDbLine
 62
7
  6
CONTINUOUS
 10
559.0596175847
 20
153.7182136081
 11
559.0789704219
 21
153.5871304108
  0
LINE
  5
474
100
AcDbEntity
  8
BEZUGSACHSEN
100
AcDbLine
 62
7
  6
CONTINUOUS
 10
559.0789704219
 20
153.5871304108
 11
559.0948092977
 21
153.4794703114
  0
LINE
  5
475
100
AcDbEntity
  8
BEZUGSACHSEN
100
AcDbLine
 62
7
  6
CONTINUOUS
 10
559.1573260037
 20
155.1412869458
 11
559.1591398964
 21
155.0431454201
  0
LINE
  5
476
100
AcDbEntity
  8
BEZUGSACHSEN
100
AcDbLine
 62
7
  6
CONTINUOUS
 10
559.1591398964
 20
155.0431454201
 11
559.1604541344
 21
154.9449810009
  0
LINE
  5
477
100
AcDbEntity
  8
BEZUGSACHSEN
100
AcDbLine
 62
7
  6
CONTINUOUS
 10
559.1573260037
 20
155.1412869458
 11
559.1478771948
 21
155.1859935706
  0
LINE
  5
478
100
AcDbEntity
  8
BEZUGSACHSEN
100
AcDbLine
 62
7
  6
CONTINUOUS
 10
559.1478771948
 20
155.1859935706
 11
559.1376528951
 21
155.2343688979
  0
LINE
  5
479
100
AcDbEntity
  8
BEZUGSACHSEN
100
AcDbLine
 62
7
  6
CONTINUOUS
 10
559.1376528951
 20
155.2343688979
 11
559.0583375556
 21
155.6096250239
  0
LINE
  5
47A
100
AcDbEntity
  8
BEZUGSACHSEN
100
AcDbLine
 62
7
  6
CONTINUOUS
 10
559.0583375556
 20
155.6096250239
 11
559.0372016321
 21
155.7096182207
  0
LINE
  5
47B
100
AcDbEntity
  8
BEZUGSACHSEN
100
AcDbLine
 62
7
  6
CONTINUOUS
 10
559.0372016321
 20
155.7096182207
 11
559.0060959203
 21
155.8567744748
  0
LINE
  5
47C
100
AcDbEntity
  8
BEZUGSACHSEN
100
AcDbLine
 62
7
  6
CONTINUOUS
 10
559.0060959203
 20
155.8567744748
 11
558.9956488119
 21
155.9061971666
  0
LINE
  5
47D
100
AcDbEntity
  8
BEZUGSACHSEN
100
AcDbLine
 62
7
  6
CONTINUOUS
 10
559.0556297001
 20
154.5213210234
 11
559.0322451847
 21
154.6323137752
  0
LINE
  5
47E
100
AcDbEntity
  8
BEZUGSACHSEN
100
AcDbLine
 62
7
  6
CONTINUOUS
 10
559.0322451847
 20
154.6323137752
 11
558.9211494442
 21
155.1595312718
  0
LINE
  5
47F
100
AcDbEntity
  8
BEZUGSACHSEN
100
AcDbLine
 62
7
  6
CONTINUOUS
 10
558.9211494442
 20
155.1595312718
 11
558.5053660327
 21
157.1315710225
  0
LINE
  5
480
100
AcDbEntity
  8
BEZUGSACHSEN
100
AcDbLine
 62
7
  6
CONTINUOUS
 10
558.4667545837
 20
158.2363991267
 11
558.4823493844
 21
158.194087661
  0
LINE
  5
481
100
AcDbEntity
  8
BEZUGSACHSEN
100
AcDbLine
 62
7
  6
CONTINUOUS
 10
558.5283050656
 20
158.068616969
 11
558.5902981212
 21
157.8355689549
  0
LINE
  5
482
100
AcDbEntity
  8
BEZUGSACHSEN
100
AcDbLine
 62
7
  6
CONTINUOUS
 10
558.5902981212
 20
157.8355689549
 11
558.6005490986
 21
157.7909689156
  0
LINE
  5
483
100
AcDbEntity
  8
BEZUGSACHSEN
100
AcDbLine
 62
7
  6
CONTINUOUS
 10
558.6005490986
 20
157.7909689156
 11
558.609940067
 21
157.750105535
  0
LINE
  5
484
100
AcDbEntity
  8
BEZUGSACHSEN
100
AcDbLine
 62
7
  6
CONTINUOUS
 10
558.609940067
 20
157.750105535
 11
558.6502298841
 21
157.5747343721
  0
LINE
  5
485
100
AcDbEntity
  8
BEZUGSACHSEN
100
AcDbLine
 62
7
  6
CONTINUOUS
 10
558.6502298841
 20
157.5747343721
 11
558.6684700978
 21
157.4953088694
  0
LINE
  5
486
100
AcDbEntity
  8
BEZUGSACHSEN
100
AcDbLine
 62
7
  6
CONTINUOUS
 10
558.6684700978
 20
157.4953088694
 11
558.7081880841
 21
157.307275403
  0
LINE
  5
487
100
AcDbEntity
  8
BEZUGSACHSEN
100
AcDbLine
 62
7
  6
CONTINUOUS
 10
558.7081880841
 20
157.307275403
 11
558.7279756017
 21
157.2135948329
  0
LINE
  5
488
100
AcDbEntity
  8
BEZUGSACHSEN
100
AcDbLine
 62
7
  6
CONTINUOUS
 10
558.7279756017
 20
157.2135948329
 11
558.9047471038
 21
156.3766303506
  0
LINE
  5
489
100
AcDbEntity
  8
BEZUGSACHSEN
100
AcDbLine
 62
7
  6
CONTINUOUS
 10
558.9841700476
 20
155.9711046177
 11
558.9047471038
 21
156.3766303506
  0
LINE
  5
48A
100
AcDbEntity
  8
BEZUGSACHSEN
100
AcDbLine
 62
7
  6
CONTINUOUS
 10
559.0483973541
 20
155.6075240919
 11
559.0164332121
 21
155.7885836441
  0
LINE
  5
48B
100
AcDbEntity
  8
BEZUGSACHSEN
100
AcDbLine
 62
7
  6
CONTINUOUS
 10
559.0164332121
 20
155.7885836441
 11
558.9841700476
 21
155.9711046177
  0
LINE
  5
48C
100
AcDbEntity
  8
BEZUGSACHSEN
100
AcDbLine
 62
7
  6
CONTINUOUS
 10
559.1132646222
 20
155.1786777358
 11
559.097282652
 21
155.2848249769
  0
LINE
  5
48D
100
AcDbEntity
  8
BEZUGSACHSEN
100
AcDbLine
 62
7
  6
CONTINUOUS
 10
559.097282652
 20
155.2848249769
 11
559.0483973541
 21
155.6075240919
  0
LINE
  5
48E
100
AcDbEntity
  8
BEZUGSACHSEN
100
AcDbLine
 62
7
  6
CONTINUOUS
 10
559.121492145
 20
155.1085794919
 11
559.1132646222
 21
155.1786777358
  0
LINE
  5
48F
100
AcDbEntity
  8
BEZUGSACHSEN
100
AcDbLine
 62
7
  6
CONTINUOUS
 10
558.9676260684
 20
154.2321054345
 11
558.9280997838
 21
154.4165731932
  0
LINE
  5
490
100
AcDbEntity
  8
BEZUGSACHSEN
100
AcDbLine
 62
7
  6
CONTINUOUS
 10
558.9280997838
 20
154.4165731932
 11
558.8883612922
 21
154.6019951047
  0
LINE
  5
491
100
AcDbEntity
  8
BEZUGSACHSEN
100
AcDbLine
 62
7
  6
CONTINUOUS
 10
559.0314488788
 20
153.8840512116
 11
558.9676260684
 21
154.2321054345
  0
LINE
  5
492
100
AcDbEntity
  8
BEZUGSACHSEN
100
AcDbLine
 62
7
  6
CONTINUOUS
 10
559.0954334301
 20
153.4490925289
 11
559.0346851993
 21
153.86218335
  0
LINE
  5
493
100
AcDbEntity
  8
BEZUGSACHSEN
100
AcDbLine
 62
7
  6
CONTINUOUS
 10
559.0346851993
 20
153.86218335
 11
559.0314488788
 21
153.8840512116
  0
LINE
  5
494
100
AcDbEntity
  8
BEZUGSACHSEN
100
AcDbLine
 62
7
  6
CONTINUOUS
 10
558.879523349
 20
153.2984303506
 11
558.6388884238
 21
154.2977053025
  0
LINE
  5
495
100
AcDbEntity
  8
BEZUGSACHSEN
100
AcDbLine
 62
7
  6
CONTINUOUS
 10
558.6388884238
 20
154.2977053025
 11
558.6280432261
 21
154.3427306297
  0
LINE
  5
496
100
AcDbEntity
  8
BEZUGSACHSEN
100
AcDbLine
 62
7
  6
CONTINUOUS
 10
558.6280432261
 20
154.3427306297
 11
558.4510657871
 21
155.0773581309
  0
LINE
  5
497
100
AcDbEntity
  8
BEZUGSACHSEN
100
AcDbLine
 62
7
  6
CONTINUOUS
 10
558.4510657871
 20
155.0773581309
 11
558.3920359499
 21
155.3223426839
  0
LINE
  5
498
100
AcDbEntity
  8
BEZUGSACHSEN
100
AcDbLine
 62
7
  6
CONTINUOUS
 10
558.7568806779
 20
152.373396359
 11
558.9257352193
 21
152.0162420622
  0
LINE
  5
499
100
AcDbEntity
  8
BEZUGSACHSEN
100
AcDbLine
 62
7
  6
CONTINUOUS
 10
558.879523349
 20
153.2984303506
 11
558.9434401834
 21
153.0807324002
  0
LINE
  5
49A
100
AcDbEntity
  8
BEZUGSACHSEN
100
AcDbLine
 62
7
  6
CONTINUOUS
 10
558.9434401834
 20
153.0807324002
 11
558.9925770725
 21
152.9717744256
  0
LINE
  5
49B
100
AcDbEntity
  8
BEZUGSACHSEN
100
AcDbLine
 62
7
  6
CONTINUOUS
 10
558.7250700891
 20
152.6909173311
 11
558.6773948
 21
152.9697438777
  0
LINE
  5
49C
100
AcDbEntity
  8
BEZUGSACHSEN
100
AcDbLine
 62
7
  6
CONTINUOUS
 10
558.6773948
 20
152.9697438777
 11
558.6612901347
 21
153.0636352109
  0
LINE
  5
49D
100
AcDbEntity
  8
BEZUGSACHSEN
100
AcDbLine
 62
7
  6
CONTINUOUS
 10
558.6612901347
 20
153.0636352109
 11
558.63753149
 21
153.1703876721
  0
LINE
  5
49E
100
AcDbEntity
  8
BEZUGSACHSEN
100
AcDbLine
 62
7
  6
CONTINUOUS
 10
558.63753149
 20
153.1703876721
 11
558.6136625637
 21
153.2775925295
  0
LINE
  5
49F
100
AcDbEntity
  8
BEZUGSACHSEN
100
AcDbLine
 62
7
  6
CONTINUOUS
 10
558.5505916041
 20
153.4929160615
 11
558.6136625637
 21
153.2775925295
  0
LINE
  5
4A0
100
AcDbEntity
  8
BEZUGSACHSEN
100
AcDbLine
 62
7
  6
CONTINUOUS
 10
558.503598135
 20
153.6019438145
 11
558.5505916041
 21
153.4929160615
  0
LINE
  5
4A1
100
AcDbEntity
  8
BEZUGSACHSEN
100
AcDbLine
 62
7
  6
CONTINUOUS
 10
559.104391769
 20
149.9285955605
 11
558.7747218923
 21
151.0590434622
  0
LINE
  5
4A2
100
AcDbEntity
  8
BEZUGSACHSEN
100
AcDbLine
 62
7
  6
CONTINUOUS
 10
558.6804727792
 20
151.3820285338
 11
558.4447585787
 21
152.1894913638
  0
LINE
  5
4A3
100
AcDbEntity
  8
BEZUGSACHSEN
100
AcDbLine
 62
7
  6
CONTINUOUS
 10
558.3996739983
 20
156.625907438
 11
558.4592507074
 21
156.3791867455
  0
LINE
  5
4A4
100
AcDbEntity
  8
BEZUGSACHSEN
100
AcDbLine
 62
7
  6
CONTINUOUS
 10
558.4592507074
 20
156.3791867455
 11
558.8883612922
 21
154.6019951047
  0
SPLINE
  5
4A5
100
AcDbEntity
  8
0
100
AcDbSpline
 62
7
  6
CONTINUOUS
 70
0
 71
3
 72
9
 73
5
 74
0
 42
0.0000001
 43
0.0000001
 44
0.0000000001
 40
0.0
 40
0.0
 40
0.0
 40
0.0
 40
0.5000000001
 40
1.0
 40
1.0
 40
1.0
 40
1.0
 10
551.1329854226
 20
166.7263928996
 30
0.0
 10
550.979819932
 20
165.899985865
 30
0.0
 10
550.8092529385
 20
164.2162502008
 30
0.0
 10
550.9798199321
 20
162.5325145367
 30
0.0
 10
551.1329854226
 20
161.7061075024
 30
0.0
  0
SPLINE
  5
4A6
100
AcDbEntity
  8
0
100
AcDbSpline
 62
7
  6
CONTINUOUS
 70
0
 71
3
 72
9
 73
5
 74
0
 42
0.0000001
 43
0.0000001
 44
0.0000000001
 40
0.0
 40
0.0
 40
0.0
 40
0.0
 40
0.5000019527
 40
1.0
 40
1.0
 40
1.0
 40
1.0
 10
556.9862415566
 20
148.5628296994
 30
0.0
 10
557.1057037374
 20
146.4769889197
 30
0.0
 10
557.2607200697
 20
142.2998580527
 30
0.0
 10
557.2204166505
 20
138.1198242349
 30
0.0
 10
557.153211706
 20
136.0316627759
 30
0.0
  0
SPLINE
  5
4A7
100
AcDbEntity
  8
0
100
AcDbSpline
 62
7
  6
CONTINUOUS
 70
0
 71
3
 72
9
 73
5
 74
0
 42
0.0000001
 43
0.0000001
 44
0.0000000001
 40
0.0
 40
0.0
 40
0.0
 40
0.0
 40
0.5000000001
 40
1.0
 40
1.0
 40
1.0
 40
1.0
 10
556.9862415566
 20
161.7061075024
 30
0.0
 10
557.1410320285
 20
159.5195918833
 30
0.0
 10
557.3083490592
 20
155.1344686005
 30
0.0
 10
557.1410320284
 20
150.7493453178
 30
0.0
 10
556.9862415566
 20
148.5628296994
 30
0.0
  0
LINE
  5
4A8
100
AcDbEntity
  8
BEZUGSACHSEN
100
AcDbLine
 62
7
  6
CONTINUOUS
 10
559.0552257876
 20
155.2625601436
 11
559.0512358046
 21
155.3138266181
  0
SPLINE
  5
4A9
100
AcDbEntity
  8
0
100
AcDbSpline
 62
7
  6
CONTINUOUS
 70
0
 71
3
 72
9
 73
5
 74
0
 42
0.0000001
 43
0.0000001
 44
0.0000000001
 40
0.0
 40
0.0
 40
0.0
 40
0.0
 40
0.5000000001
 40
1.0
 40
1.0
 40
1.0
 40
1.0
 10
551.1329854226
 20
161.7061075024
 30
0.0
 10
550.9781949507
 20
159.5195918833
 30
0.0
 10
550.8108779199
 20
155.1344686005
 30
0.0
 10
550.9781949507
 20
150.7493453178
 30
0.0
 10
551.1329854226
 20
148.5628296994
 30
0.0
  0
SPLINE
  5
4AA
100
AcDbEntity
  8
0
100
AcDbSpline
 62
7
  6
CONTINUOUS
 70
0
 71
3
 72
9
 73
5
 74
0
 42
0.0000001
 43
0.0000001
 44
0.0000000001
 40
0.0
 40
0.0
 40
0.0
 40
0.0
 40
0.5000019527
 40
1.0
 40
1.0
 40
1.0
 40
1.0
 10
551.1329854226
 20
148.5628296994
 30
0.0
 10
551.0135232417
 20
146.4769889197
 30
0.0
 10
550.8585069094
 20
142.2998580527
 30
0.0
 10
550.8988103287
 20
138.1198242349
 30
0.0
 10
550.9660152731
 20
136.0316627759
 30
0.0
  0
LINE
  5
4AB
100
AcDbEntity
  8
BEZUGSACHSEN
100
AcDbLine
 62
7
  6
CONTINUOUS
 10
559.0512358046
 20
155.3138266181
 11
559.0192301473
 21
155.5608829501
  0
LINE
  5
4AC
100
AcDbEntity
  8
BEZUGSACHSEN
100
AcDbLine
 62
7
  6
CONTINUOUS
 10
559.0192301473
 20
155.5608829501
 11
558.9713553047
 21
155.8498848628
  0
LINE
  5
4AD
100
AcDbEntity
  8
BEZUGSACHSEN
100
AcDbLine
 62
7
  6
CONTINUOUS
 10
558.9713553047
 20
155.8498848628
 11
558.9079309435
 21
156.1808320348
  0
LINE
  5
4AE
100
AcDbEntity
  8
BEZUGSACHSEN
100
AcDbLine
 62
7
  6
CONTINUOUS
 10
558.6714273077
 20
157.2995105535
 11
558.8491294607
 21
156.4589737202
  0
LINE
  5
4AF
100
AcDbEntity
  8
BEZUGSACHSEN
100
AcDbLine
 62
7
  6
CONTINUOUS
 10
558.8491294607
 20
156.4589737202
 11
558.8681723044
 21
156.368898123
  0
LINE
  5
4B0
100
AcDbEntity
  8
BEZUGSACHSEN
100
AcDbLine
 62
7
  6
CONTINUOUS
 10
558.8681723044
 20
156.368898123
 11
558.9079309435
 21
156.1808320348
  0
LINE
  5
4B1
100
AcDbEntity
  8
BEZUGSACHSEN
100
AcDbLine
 62
7
  6
CONTINUOUS
 10
558.6086781598
 20
157.5651918692
 11
558.6401428986
 21
157.4320012017
  0
LINE
  5
4B2
100
AcDbEntity
  8
BEZUGSACHSEN
100
AcDbLine
 62
7
  6
CONTINUOUS
 10
558.6401428986
 20
157.4320012017
 11
558.6714273077
 21
157.2995105535
  0
LINE
  5
4B3
100
AcDbEntity
  8
BEZUGSACHSEN
100
AcDbLine
 62
7
  6
CONTINUOUS
 10
558.5618656361
 20
157.7236615312
 11
558.5853795161
 21
157.6441466658
  0
LINE
  5
4B4
100
AcDbEntity
  8
BEZUGSACHSEN
100
AcDbLine
 62
7
  6
CONTINUOUS
 10
558.5853795161
 20
157.6441466658
 11
558.6086781598
 21
157.5651918692
  0
LINE
  5
4B5
100
AcDbEntity
  8
BEZUGSACHSEN
100
AcDbLine
 62
7
  6
CONTINUOUS
 10
558.5541424059
 20
157.7364354167
 11
558.5618656361
 21
157.7236615312
  0
LINE
  5
4B6
100
AcDbEntity
  8
KONSTRUKTIONSELEMENTE
100
AcDbLine
 62
7
  6
CONTINUOUS
 10
558.1280985101
 20
157.3832440723
 11
558.2811562455
 21
156.6578588796
  0
LINE
  5
4B7
100
AcDbEntity
  8
KONSTRUKTIONSELEMENTE
100
AcDbLine
 62
7
  6
CONTINUOUS
 10
558.2811562455
 20
156.6578588796
 11
558.287897295
 21
156.6259076823
  0
LINE
  5
4B8
100
AcDbEntity
  8
BEZUGSACHSEN
100
AcDbLine
 62
7
  6
CONTINUOUS
 10
559.1420408236
 20
153.8780512896
 11
559.1361595396
 21
153.9060513244
  0
LINE
  5
4B9
100
AcDbEntity
  8
BEZUGSACHSEN
100
AcDbLine
 62
7
  6
CONTINUOUS
 10
559.1361595396
 20
153.9060513244
 11
559.0634317904
 21
154.2522342547
  0
LINE
  5
4BA
100
AcDbEntity
  8
BEZUGSACHSEN
100
AcDbLine
 62
7
  6
CONTINUOUS
 10
559.0634317904
 20
154.2522342547
 11
559.0089466411
 21
154.5115077363
  0
LINE
  5
4BB
100
AcDbEntity
  8
BEZUGSACHSEN
100
AcDbLine
 62
7
  6
CONTINUOUS
 10
559.0089466411
 20
154.5115077363
 11
558.985630537
 21
154.6224412818
  0
LINE
  5
4BC
100
AcDbEntity
  8
BEZUGSACHSEN
100
AcDbLine
 62
7
  6
CONTINUOUS
 10
558.985630537
 20
154.6224412818
 11
558.5572163272
 21
156.6590657204
  0
LINE
  5
4BD
100
AcDbEntity
  8
BEZUGSACHSEN
100
AcDbLine
 62
7
  6
CONTINUOUS
 10
558.5572163272
 20
156.6590657204
 11
558.4597629825
 21
157.1219690504
  0
LINE
  5
4BE
100
AcDbEntity
  8
BEZUGSACHSEN
100
AcDbLine
 62
7
  6
CONTINUOUS
 10
558.4597629825
 20
157.1219690504
 11
558.4047468364
 21
157.3832440723
  0
LINE
  5
4BF
100
AcDbEntity
  8
KONSTRUKTIONSELEMENTE
100
AcDbLine
 62
7
  6
CONTINUOUS
 10
558.7617685656
 20
152.5804864575
 11
558.7266500833
 21
152.6752945126
  0
LINE
  5
4C0
100
AcDbEntity
  8
BEZUGSACHSEN
100
AcDbLine
 62
7
  6
CONTINUOUS
 10
558.9520552616
 20
152.7547320879
 11
559.0174107955
 21
152.5804864575
  0
LINE
  5
4C1
100
AcDbEntity
  8
BEZUGSACHSEN
100
AcDbLine
 62
7
  6
CONTINUOUS
 10
558.8722959842
 20
153.0377172755
 11
558.9520552616
 21
152.7547320879
  0
LINE
  5
4C2
100
AcDbEntity
  8
KONSTRUKTIONSELEMENTE
100
AcDbLine
 62
7
  6
CONTINUOUS
 10
558.1297044561
 20
155.0616296088
 11
558.4662295318
 21
153.6659140357
  0
LINE
  5
4C3
100
AcDbEntity
  8
KONSTRUKTIONSELEMENTE
100
AcDbLine
 62
7
  6
CONTINUOUS
 10
558.4662295318
 20
153.6659140357
 11
558.4753111477
 21
153.6282408318
  0
LINE
  5
4C4
100
AcDbEntity
  8
BEZUGSACHSEN
100
AcDbLine
 62
7
  6
CONTINUOUS
 10
558.8722959842
 20
153.0377172755
 11
558.8134800155
 21
153.2825630693
  0
LINE
  5
4C5
100
AcDbEntity
  8
BEZUGSACHSEN
100
AcDbLine
 62
7
  6
CONTINUOUS
 10
558.8134800155
 20
153.2825630693
 11
558.3857857418
 21
155.0616296088
  0
LINE
  5
4C6
100
AcDbEntity
  8
RUNDUNGEN
100
AcDbLine
 62
7
  6
CONTINUOUS
 10
558.1026299666
 20
116.4039389087
 11
559.0709639432
 21
115.4039389087
  0
LINE
  5
4C7
100
AcDbEntity
  8
0
100
AcDbLine
 62
7
  6
CONTINUOUS
 10
550.0165970126
 20
116.4039389087
 11
549.0482630359
 21
115.4039389087
  0
SPLINE
  5
4C8
100
AcDbEntity
  8
BEZUGSACHSEN
100
AcDbSpline
 62
7
  6
CONTINUOUS
 70
0
 71
3
 72
8
 73
4
 74
0
 42
0.0000001
 43
0.0000001
 44
0.0000000001
 40
0.0
 40
0.0
 40
0.0
 40
0.0
 40
1.0
 40
1.0
 40
1.0
 40
1.0
 10
558.7873546531
 20
151.9509455961
 30
0.0
 10
558.8512566276
 20
151.8148620108
 30
0.0
 10
558.9150405775
 20
151.6787229137
 30
0.0
 10
558.9786821025
 20
151.5425173307
 30
0.0
  0
LINE
  5
4C9
100
AcDbEntity
  8
BEZUGSACHSEN
100
AcDbLine
 62
7
  6
CONTINUOUS
 10
558.9786821025
 20
151.5425173307
 11
559.1196306277
 21
151.2402163325
  0
LINE
  5
4CA
100
AcDbEntity
  8
KONSTRUKTIONSELEMENTE
100
AcDbLine
 62
7
  6
CONTINUOUS
 10
558.8741096586
 20
151.2402163325
 11
558.7865608059
 21
151.4308817723
  0
LINE
  5
4CB
100
AcDbEntity
  8
KONSTRUKTIONSELEMENTE
100
AcDbLine
 62
7
  6
CONTINUOUS
 10
558.7865608059
 20
151.4308817723
 11
558.7817958204
 21
151.4412396133
  0
SPLINE
  5
4CC
100
AcDbEntity
  8
0
100
AcDbSpline
 62
7
  6
CONTINUOUS
 70
0
 71
3
 72
9
 73
5
 74
0
 42
0.0000001
 43
0.0000001
 44
0.0000000001
 40
0.0
 40
0.0
 40
0.0
 40
0.0
 40
0.5000000001
 40
1.0
 40
1.0
 40
1.0
 40
1.0
 10
556.9862415566
 20
166.7263928996
 30
0.0
 10
557.1394070471
 20
165.899985865
 30
0.0
 10
557.3099740406
 20
164.2162502008
 30
0.0
 10
557.1394070471
 20
162.5325145367
 30
0.0
 10
556.9862415566
 20
161.7061075024
 30
0.0
  0
LINE
  5
4CD
100
AcDbEntity
  8
BEZUGSACHSEN
100
AcDbLine
 62
7
  6
CONTINUOUS
 10
559.0405746466
 20
153.0529501119
 11
559.0451173696
 21
153.0800768661
  0
LINE
  5
4CE
100
AcDbEntity
  8
BEZUGSACHSEN
100
AcDbLine
 62
7
  6
CONTINUOUS
 10
559.0956793946
 20
149.6138065632
 11
559.0119906522
 21
149.9017336795
  0
LINE
  5
4CF
100
AcDbEntity
  8
BEZUGSACHSEN
100
AcDbLine
 62
7
  6
CONTINUOUS
 10
559.0119906522
 20
149.9017336795
 11
558.9778741001
 21
150.0190726013
  0
LINE
  5
4D0
100
AcDbEntity
  8
BEZUGSACHSEN
100
AcDbLine
 62
7
  6
CONTINUOUS
 10
558.9778741001
 20
150.0190726013
 11
558.6830334168
 21
151.0323452625
  0
LINE
  5
4D1
100
AcDbEntity
  8
BEZUGSACHSEN
100
AcDbLine
 62
7
  6
CONTINUOUS
 10
558.6830334168
 20
151.0323452625
 11
558.5889640064
 21
151.3553715455
  0
LINE
  5
4D2
100
AcDbEntity
  8
BEZUGSACHSEN
100
AcDbLine
 62
7
  6
CONTINUOUS
 10
558.5889640064
 20
151.3553715455
 11
558.3592196532
 21
152.1438565929
  0
LINE
  5
4D3
100
AcDbEntity
  8
KONSTRUKTIONSELEMENTE
100
AcDbLine
 62
7
  6
CONTINUOUS
 10
558.128922527
 20
152.1438565929
 11
558.8683846299
 21
149.6138065632
  0
LINE
  5
4D4
100
AcDbEntity
  8
BEZUGSACHSEN
100
AcDbLine
 62
7
  6
CONTINUOUS
 10
559.032260154
 20
153.4929817854
 11
559.0009220554
 21
153.753913278
  0
LINE
  5
4D5
100
AcDbEntity
  8
KONSTRUKTIONSELEMENTE
100
AcDbLine
 62
7
  6
CONTINUOUS
 10
558.4511965899
 20
152.3788603086
 11
558.4518970701
 21
152.1895139854
  0
LINE
  5
4D6
100
AcDbEntity
  8
KONSTRUKTIONSELEMENTE
100
AcDbLine
 62
7
  6
CONTINUOUS
 10
558.4518970701
 20
152.1895139854
 11
558.4519435333
 21
152.165102693
  0
LINE
  5
4D7
100
AcDbEntity
  8
BEZUGSACHSEN
100
AcDbLine
 62
7
  6
CONTINUOUS
 10
559.0009220554
 20
153.753913278
 11
558.953477723
 21
154.0366799694
  0
LINE
  5
4D8
100
AcDbEntity
  8
BEZUGSACHSEN
100
AcDbLine
 62
7
  6
CONTINUOUS
 10
558.953477723
 20
154.0366799694
 11
558.9061217786
 21
154.2648372013
  0
LINE
  5
4D9
100
AcDbEntity
  8
BEZUGSACHSEN
100
AcDbLine
 62
7
  6
CONTINUOUS
 10
558.9061217786
 20
154.2648372013
 11
558.8902492675
 21
154.3412821539
  0
LINE
  5
4DA
100
AcDbEntity
  8
KONSTRUKTIONSELEMENTE
100
AcDbLine
 62
7
  6
CONTINUOUS
 10
558.3856178089
 20
155.3207935467
 11
558.3800415968
 21
155.3438954962
  0
LINE
  5
4DB
100
AcDbEntity
  8
KONSTRUKTIONSELEMENTE
100
AcDbLine
 62
7
  6
CONTINUOUS
 10
558.3800415968
 20
155.3438954962
 11
558.1335107814
 21
156.3651944872
  0
LINE
  5
4DC
100
AcDbEntity
  8
BEZUGSACHSEN
100
AcDbLine
 62
7
  6
CONTINUOUS
 10
558.4729069937
 20
153.2898867919
 11
558.5045108784
 21
153.2871548172
  0
LINE
  5
4DD
100
AcDbEntity
  8
BEZUGSACHSEN
100
AcDbLine
 62
7
  6
CONTINUOUS
 10
558.4013049363
 20
156.3651944872
 11
558.8306348851
 21
154.5880494434
  0
LINE
  5
4DE
100
AcDbEntity
  8
BEZUGSACHSEN
100
AcDbLine
 62
7
  6
CONTINUOUS
 10
558.8306348851
 20
154.5880494434
 11
558.8902492675
 21
154.3412821539
  0
LINE
  5
4DF
100
AcDbEntity
  8
BEZUGSACHSEN
100
AcDbLine
 62
7
  6
CONTINUOUS
 10
558.5045108784
 20
153.2871548172
 11
558.5337562877
 21
153.2197288303
  0
LINE
  5
4E0
100
AcDbEntity
  8
BEZUGSACHSEN
100
AcDbLine
 62
7
  6
CONTINUOUS
 10
558.5337562877
 20
153.2197288303
 11
558.5400144178
 21
153.2052952328
  0
LINE
  5
4E1
100
AcDbEntity
  8
BEZUGSACHSEN
100
AcDbLine
 62
7
  6
CONTINUOUS
 10
558.5400144178
 20
153.2052952328
 11
558.551791771
 21
153.1781270642
  0
LINE
  5
4E2
100
AcDbEntity
  8
BEZUGSACHSEN
100
AcDbLine
 62
7
  6
CONTINUOUS
 10
558.551791771
 20
153.1781270642
 11
558.5991118206
 21
153.0166343775
  0
LINE
  5
4E3
100
AcDbEntity
  8
BEZUGSACHSEN
100
AcDbLine
 62
7
  6
CONTINUOUS
 10
558.6464725991
 20
152.8026770588
 11
558.5991118206
 21
153.0166343775
  0
LINE
  5
4E4
100
AcDbEntity
  8
BEZUGSACHSEN
100
AcDbLine
 62
7
  6
CONTINUOUS
 10
558.6779592744
 20
152.5900856525
 11
558.6464725991
 21
152.8026770588
  0
LINE
  5
4E5
100
AcDbEntity
  8
KONSTRUKTIONSELEMENTE
100
AcDbLine
 62
7
  6
CONTINUOUS
 10
558.4487386461
 20
152.4100750768
 11
558.4511965899
 21
152.3788603086
  0
ELLIPSE
  5
4E6
100
AcDbEntity
  8
KONSTRUKTIONSELEMENTE
100
AcDbEllipse
 62
7
  6
CONTINUOUS
 10
174.1814575749
 20
52.6507900275
 30
0.0
 11
1.1998003788
 21
0.3599938705
 31
0.0
 40
0.0607989098
 41
-2.7235007144
 42
-1.1527043876
  0
ELLIPSE
  5
4E7
100
AcDbEntity
  8
KONSTRUKTIONSELEMENTE
100
AcDbEllipse
 62
7
  6
CONTINUOUS
 10
178.3548483913
 20
52.7320654783
 30
0.0
 11
1.183046702
 21
-0.7347108677
 31
0.0
 40
0.7424978488
 41
7.2982401868
 42
8.8690365136
  0
ELLIPSE
  5
4E8
100
AcDbEntity
  8
KONSTRUKTIONSELEMENTE
100
AcDbEllipse
 62
7
  6
CONTINUOUS
 10
207.05817866
 20
70.7725417006
 30
0.0
 11
-0.0
 21
48.4974226119
 31
0.0
 40
0.5773502692
 41
-0.3895798701
 42
-0.1632238035
  0
ELLIPSE
  5
4E9
100
AcDbEntity
  8
KONSTRUKTIONSELEMENTE
100
AcDbEllipse
 62
7
  6
CONTINUOUS
 10
207.05817866
 20
70.7725417006
 30
0.0
 11
-0.0
 21
48.4974226119
 31
0.0
 40
0.5773502692
 41
0.1632238035
 42
0.3895798701
  0
ELLIPSE
  5
4EA
100
AcDbEntity
  8
0
100
AcDbEllipse
 62
7
  6
CONTINUOUS
 10
548.9195278863
 20
119.4039389087
 30
0.0
 11
-0.1671239375
 21
3.4627603303
 31
0.0
 40
0.5767533335
 41
-2.6458226605
 42
-1.7790696948
  0
ELLIPSE
  5
4EB
100
AcDbEntity
  8
RUNDUNGEN
100
AcDbEllipse
 62
7
  6
CONTINUOUS
 10
559.1996990929
 20
119.4039389087
 30
0.0
 11
0.1671239375
 21
3.4627603303
 31
0.0
 40
0.5767533335
 41
-4.5041156123
 42
-3.6373626467
  0
ELLIPSE
  5
4EC
100
AcDbEntity
  8
KONSTRUKTIONSELEMENTE
100
AcDbEllipse
 62
7
  6
CONTINUOUS
 10
438.5205662235
 20
54.9135317273
 30
0.0
 11
-0.0
 21
1.656829265
 31
0.0
 40
0.2216946626
 41
-4.4942228239
 42
-3.3587878842
  0
ELLIPSE
  5
4ED
100
AcDbEntity
  8
KONSTRUKTIONSELEMENTE
100
AcDbEllipse
 62
7
  6
CONTINUOUS
 10
440.7833079233
 20
52.6507900275
 30
0.0
 11
1.656829265
 21
-0.0
 31
0.0
 40
0.2216946626
 41
-2.9243974229
 42
-1.7889624833
  0
ENDSEC
  0
SECTION
  2
OBJECTS
  0
DICTIONARY
  5
C
100
AcDbDictionary
280
0
281
1
  3
ACAD_GROUP
350
D
  3
ACAD_MLINESTYLE
350
17
  3
ACAD_LAYOUT
350
1A
  3
ACAD_PLOTSETTINGS
350
19
  3
ACAD_PLOTSTYLENAME
350
E
  0
DICTIONARY
  5
D
102
{ACAD_REACTORS
330
C
102
}
100
AcDbDictionary
280
0
281
1
  0
ACDBDICTIONARYWDFLT
  5
E
102
{ACAD_REACTORS
330
C
102
}
100
AcDbDictionary
281
1
  3
Normal
350
F
100
AcDbDictionaryWithDefault
340
F
  0
DICTIONARY
  5
17
102
{ACAD_REACTORS
330
C
102
}
100
AcDbDictionary
280
0
281
1
  3
Standard
350
18
  0
DICTIONARY
  5
19
102
{ACAD_REACTORS
330
C
102
}
100
AcDbDictionary
281
1
  0
DICTIONARY
  5
1A
102
{ACAD_REACTORS
330
C
102
}
100
AcDbDictionary
281
1
  3
Model
350
4EE
  3
Layout1
350
4EF
  0
ACDBPLACEHOLDER
  5
F
102
{ACAD_REACTORS
330
E
102
}
  0
MLINESTYLE
  5
18
102
{ACAD_REACTORS
330
17
102
}
100
AcDbMlineStyle
  2
STANDARD
 70
0
  3

 62
256
 51
90.0
 52
90.0
 71
2
 49
0.5
 62
256
  6
BYLAYER
 49
-0.5
 62
256
  6
BYLAYER
  0
LAYOUT
  5
4EE
102
{ACAD_REACTORS
330
1A
102
}
100
AcDbPlotSettings
  1

  2
none_device
  4
ISO_A1_(594.00_x_841.00_MM)
  6

 40
0.0
 41
0.0
 42
0.0
 43
0.0
 44
841.0
 45
594.0
 46
0.0
 47
0.0
 48
0.0
 49
0.0
140
0.0
141
0.0
142
1.0
143
1.0
 70
1024
 72
1
 73
0
 74
0
  7

 75
0
147
1.0
148
0.0
149
0.0
100
AcDbLayout
  1
Model
 70
0
 71
0
 10
0.0
 20
0.0
 11
841.0
 21
594.0
 12
0.0
 22
0.0
 32
0.0
 14
0.0
 24
0.0
 34
0.0
 15
0.0
 25
0.0
 35
0.0
146
0.0
 13
0.0
 23
0.0
 33
0.0
 16
1.0
 26
0.0
 36
0.0
 17
0.0
 27
1.0
 37
0.0
 76
0
330
20C
345
0
346
0
  0
LAYOUT
  5
4EF
102
{ACAD_REACTORS
330
1A
102
}
100
AcDbPlotSettings
  1

  2
none_device
  4
ISO_A1_(594.00_x_841.00_MM)
  6

 40
0.0
 41
0.0
 42
0.0
 43
0.0
 44
841.0
 45
594.0
 46
0.0
 47
0.0
 48
0.0
 49
0.0
140
0.0
141
0.0
142
1.0
143
1.0
 70
0
 72
1
 73
0
 74
0
  7

 75
0
147
1.0
148
0.0
149
0.0
100
AcDbLayout
  1
Layout1
 70
0
 71
1
 10
0.0
 20
0.0
 11
841.0
 21
594.0
 12
0.0
 22
0.0
 32
0.0
 14
0.0
 24
0.0
 34
0.0
 15
0.0
 25
0.0
 35
0.0
146
0.0
 13
0.0
 23
0.0
 33
0.0
 16
1.0
 26
0.0
 36
0.0
 17
0.0
 27
1.0
 37
0.0
 76
0
330
20D
345
0
346
0
  0
ENDSEC
  0
EOF
