999
DXF file: VSAK-1-8_140_7100688_M31566-P-2.dxf
999
Pro/ENGINEER 2010140 by Parametric Technology Corporation
  0
SECTION
  2
HEADER
  9
$ACADVER
  1
AC1015
  9
$DWGCODEPAGE
  3
ANSI_1252
  9
$EXTMAX
 10
841.0
 20
594.0
 30
0.0
  9
$EXTMIN
 10
0.0
 20
0.0
 30
0.0
  9
$LIMMIN
 10
0.0
 20
0.0
  9
$LIMMAX
 10
841.0
 20
594.0
  9
$VIEWCTR
 10
420.5
 20
297.0
  9
$VIEWSIZE
 40
594.0
  9
$CLAYER
  8
0
  9
$LTSCALE
 40
46.255
  9
$CELTYPE
  6
BYLAYER
  9
$DIMSCALE
 40
1.0
  9
$DIMASZ
 40
3.5
  9
$DIMEXO
 40
5.25625
  9
$DIMDLI
 40
31.958
  9
$DIMEXE
 40
15.138
  9
$DIMCEN
 40
7.569
  9
$DIMLFAC
 40
1.0
  9
$DIMBLK
  1
_FILLED
  9
$DIMTXT
 40
3.5
  9
$DIMTOL
 70
1
  9
$DIMLIM
 70
0
  9
$DIMTFAC
 40
1.0
  9
$DIMTP
 40
0.005
  9
$DIMTM
 40
0.005
  9
$PDMODE
 70
3
  9
$PDSIZE
 40
0.3125
  9
$HANDSEED
  5
4F0
  9
$TILEMODE
 70
1
  9
$MEASUREMENT
 70
1
  9
$INSUNITS
 70
4
  0
ENDSEC
  0
SECTION
  2
CLASSES
  0
CLASS
  1
ACDBDICTIONARYWDFLT
  2
AcDbDictionaryWithDefault
  3
AutoCAD 2000
 90
0
280
0
281
0
  0
CLASS
  1
ACDBPLACEHOLDER
  2
AcDbPlaceHolder
  3
AutoCAD 2000
 90
0
280
0
281
0
  0
CLASS
  1
LAYOUT
  2
AcDbLayout
  3
AutoCAD 2000
 90
0
280
0
281
0
  0
ENDSEC
  0
SECTION
  2
TABLES
  0
TABLE
  2
VPORT
  5
8
100
AcDbSymbolTable
 70
2
  0
VPORT
  5
1F4
100
AcDbSymbolTableRecord
100
AcDbViewportTableRecord
  2
*ACTIVE
 70
0
 10
0.0
 20
0.0
 11
1.0
 21
1.0
 12
420.5
 22
297.0
 13
0.0
 23
0.0
 14
1.0
 24
1.0
 15
0.0
 25
0.0
 16
0.0
 26
0.0
 36
1.0
 17
0.0
 27
0.0
 37
0.0
 40
594.0
 41
1.4158249158
 42
50.0
 43
0.0
 44
0.0
 50
0.0
 51
0.0
 71
0
 72
100
 73
1
 74
1
 75
0
 76
0
 77
0
 78
0
  0
ENDTAB
  0
TABLE
  2
LTYPE
  5
5
100
AcDbSymbolTable
 70
6
  0
LTYPE
  5
14
100
AcDbSymbolTableRecord
100
AcDbLinetypeTableRecord
  2
BYBLOCK
 70
0
  3

 72
65
 73
0
 40
0.0
  0
LTYPE
  5
15
100
AcDbSymbolTableRecord
100
AcDbLinetypeTableRecord
  2
BYLAYER
 70
0
  3

 72
65
 73
0
 40
0.0
  0
LTYPE
  5
16
100
AcDbSymbolTableRecord
100
AcDbLinetypeTableRecord
  2
CONTINUOUS
 70
64
  3
Solid line
 72
65
 73
0
 40
0.0
  0
LTYPE
  5
1F5
100
AcDbSymbolTableRecord
100
AcDbLinetypeTableRecord
  2
CENTER
 70
64
  3
____ _ ____ _ ____ _ ____ _ ____ _ ____ _ ____
 72
65
 73
4
 40
0.6
 49
0.375
 74
0
 49
-0.075
 74
0
 49
0.075
 74
0
 49
-0.075
 74
0
  0
LTYPE
  5
1F6
100
AcDbSymbolTableRecord
100
AcDbLinetypeTableRecord
  2
HIDDEN
 70
64
  3
- - - - - - - - - - - - - - - - - - - -
 72
65
 73
2
 40
0.2
 49
0.1
 74
0
 49
-0.1
 74
0
  0
LTYPE
  5
1F7
100
AcDbSymbolTableRecord
100
AcDbLinetypeTableRecord
  2
PHANTOM
 70
64
  3
_____ _ _ _____ _ _ _____ _ _ _____
 72
65
 73
6
 40
0.8
 49
0.45
 74
0
 49
-0.05
 74
0
 49
0.1
 74
0
 49
-0.05
 74
0
 49
0.1
 74
0
 49
-0.05
 74
0
  0
LTYPE
  5
1F8
100
AcDbSymbolTableRecord
100
AcDbLinetypeTableRecord
  2
DOT
 70
64
  3
. . . . . . . . . . . . . . . . . . . .
 72
65
 73
2
 40
0.2
 49
0.1
 74
0
 49
-0.1
 74
0
  0
LTYPE
  5
1F9
100
AcDbSymbolTableRecord
100
AcDbLinetypeTableRecord
  2
DASHED
 70
64
  3
- - - - - - - - - - - - - - - - - - - -
 72
65
 73
2
 40
0.2
 49
0.1
 74
0
 49
-0.1
 74
0
  0
ENDTAB
  0
TABLE
  2
LAYER
  5
2
100
AcDbSymbolTable
 70
36
  0
LAYER
  5
10
100
AcDbSymbolTableRecord
100
AcDbLayerTableRecord
  2
0
 70
0
 62
7
  6
CONTINUOUS
370
-3
390
F
  0
LAYER
  5
1FA
100
AcDbSymbolTableRecord
100
AcDbLayerTableRecord
  2
DEFAULT_1
 70
0
 62
7
  6
CENTER
370
-3
390
F
  0
LAYER
  5
1FB
100
AcDbSymbolTableRecord
100
AcDbLayerTableRecord
  2
DEFAULT_2
 70
0
 62
8
  6
HIDDEN
370
-3
390
F
  0
LAYER
  5
1FC
100
AcDbSymbolTableRecord
100
AcDbLayerTableRecord
  2
DEFAULT_3
 70
0
 62
7
  6
PHANTOM
370
-3
390
F
  0
LAYER
  5
1FD
100
AcDbSymbolTableRecord
100
AcDbLayerTableRecord
  2
AUSFORMSCHRAEGEN
 70
0
 62
7
  6
CONTINUOUS
370
-3
390
F
  0
LAYER
  5
1FE
100
AcDbSymbolTableRecord
100
AcDbLayerTableRecord
  2
BEZUGSACHSEN
 70
0
 62
7
  6
CONTINUOUS
370
-3
390
F
  0
LAYER
  5
1FF
100
AcDbSymbolTableRecord
100
AcDbLayerTableRecord
  2
BEZUGSEBENEN
 70
0
 62
7
  6
CONTINUOUS
370
-3
390
F
  0
LAYER
  5
200
100
AcDbSymbolTableRecord
100
AcDbLayerTableRecord
  2
BG_STARTBEZUEGE
 70
0
 62
7
  6
CONTINUOUS
370
-3
390
F
  0
LAYER
  5
201
100
AcDbSymbolTableRecord
100
AcDbLayerTableRecord
  2
FASEN
 70
0
 62
7
  6
CONTINUOUS
370
-3
390
F
  0
LAYER
  5
202
100
AcDbSymbolTableRecord
100
AcDbLayerTableRecord
  2
HILFEN
 70
0
 62
7
  6
CONTINUOUS
370
-3
390
F
  0
LAYER
  5
203
100
AcDbSymbolTableRecord
100
AcDbLayerTableRecord
  2
KONSTRUKTIONSELEMENTE
 70
0
 62
7
  6
CONTINUOUS
370
-3
390
F
  0
LAYER
  5
204
100
AcDbSymbolTableRecord
100
AcDbLayerTableRecord
  2
NORM
 70
0
 62
7
  6
CONTINUOUS
370
-3
390
F
  0
LAYER
  5
205
100
AcDbSymbolTableRecord
100
AcDbLayerTableRecord
  2
PLATZIERUNG
 70
0
 62
7
  6
CONTINUOUS
370
-3
390
F
  0
LAYER
  5
206
100
AcDbSymbolTableRecord
100
AcDbLayerTableRecord
  2
PLAZIERUNG
 70
0
 62
7
  6
CONTINUOUS
370
-3
390
F
  0
LAYER
  5
207
100
AcDbSymbolTableRecord
100
AcDbLayerTableRecord
  2
RUNDUNGEN
 70
0
 62
7
  6
CONTINUOUS
370
-3
390
F
  0
LAYER
  5
208
100
AcDbSymbolTableRecord
100
AcDbLayerTableRecord
  2
TEIL_STARTBEZUEGE
 70
0
 62
7
  6
CONTINUOUS
370
-3
390
F
  0
LAYER
  5
209
100
AcDbSymbolTableRecord
100
AcDbLayerTableRecord
  2
T_STARTBEZUEGE
 70
0
 62
7
  6
CONTINUOUS
370
-3
390
F
  0
ENDTAB
  0
TABLE
  2
STYLE
  5
3
100
AcDbSymbolTable
 70
1
  0
STYLE
  5
11
100
AcDbSymbolTableRecord
100
AcDbTextStyleTableRecord
  2
STANDARD
 70
0
 40
0.0
 41
0.7
 50
0.0
 71
0
 42
0.2
  3
txt
  4

  0
STYLE
  5
20A
100
AcDbSymbolTableRecord
100
AcDbTextStyleTableRecord
  2
TEXTSTYLE_1
 70
0
 40
0.0
 41
0.8
 50
0.0
 71
0
 42
0.2
  3
gdt
  4

  0
ENDTAB
  0
TABLE
  2
VIEW
  5
6
100
AcDbSymbolTable
 70
0
  0
ENDTAB
  0
TABLE
  2
UCS
  5
7
100
AcDbSymbolTable
 70
0
  0
ENDTAB
  0
TABLE
  2
APPID
  5
9
100
AcDbSymbolTable
 70
1
  0
APPID
  5
20B
100
AcDbSymbolTableRecord
100
AcDbRegAppTableRecord
  2
ACAD
 70
0
  0
ENDTAB
  0
TABLE
  2
BLOCK_RECORD
  5
1
100
AcDbSymbolTable
 70
0
  0
BLOCK_RECORD
  5
20C
100
AcDbSymbolTableRecord
100
AcDbBlockTableRecord
  2
*Model_Space
  0
BLOCK_RECORD
  5
20D
100
AcDbSymbolTableRecord
100
AcDbBlockTableRecord
  2
*Paper_Space
  0
ENDTAB
  0
TABLE
  2
DIMSTYLE
  5
A
100
AcDbSymbolTable
 70
1
100
AcDbDimStyleTable
 71
0
  0
DIMSTYLE
105
20E
100
AcDbSymbolTableRecord
100
AcDbDimStyleTableRecord
  2
STANDARD
 70
0
  3

  4

 40
1.0
 41
3.5
 42
0.0625
 43
0.38
 44
0.18
 45
0.0
 46
0.0
 47
0.005
 48
0.005
140
3.5
141
0.09
142
0.0
143
25.4
144
1.0
145
0.0
146
1.0
147
0.09
 71
1.0
 72
0.0
 73
0
 74
0
 75
0
 76
0
 77
1
 78
8
170
0
171
2
172
0
173
0
174
0
175
0
176
0
177
0
178
5
270
2
271
3
272
3
273
2
274
2
275
0
280
0
281
0
282
0
283
1
284
8
285
0
286
0
287
3
288
0
340
11
  0
ENDTAB
  0
ENDSEC
  0
SECTION
  2
BLOCKS
  0
BLOCK
  5
20
100
AcDbEntity
  8
0
100
AcDbBlockBegin
  2
*Model_Space
 70
0
 10
0.0
 20
0.0
 30
0.0
  3
*Model_Space
  1

  0
ENDBLK
  5
21
100
AcDbEntity
  8
0
100
AcDbBlockEnd
  0
BLOCK
  5
1C
100
AcDbEntity
  8
0
100
AcDbBlockBegin
  2
*Paper_Space
 70
0
 10
0.0
 20
0.0
 30
0.0
  3
*Paper_Space
  1

  0
ENDBLK
  5
1D
100
AcDbEntity
  8
0
100
AcDbBlockEnd
  0
ENDSEC
  0
SECTION
  2
ENTITIES
  0
MTEXT
  5
20F
100
AcDbEntity
  8
0
100
AcDbMText
 62
5
  6
CONTINUOUS
  7
STANDARD
 71
1
 72
1
 10
283.6134042615
 20
349.2923820635
 30
0.0
 11
0.0
 21
1.0
 31
0.0
 44
0.9
  1
VSAK 1-8/140
 40
9.0
 41
82.9285714286
  0
MTEXT
  5
210
100
AcDbEntity
  8
0
100
AcDbMText
 62
5
  6
CONTINUOUS
  7
STANDARD
 71
1
 72
1
 10
121.1492563656
 20
376.0385012575
 30
0.0
 11
0.0
 21
1.0
 31
0.0
 44
0.9
  1
RUD
 40
9.0
 41
24.0
  0
MTEXT
  5
211
100
AcDbEntity
  8
0
100
AcDbMText
 62
5
  6
CONTINUOUS
  7
STANDARD
 71
1
 72
1
 10
549.5119171841
 20
339.3390931768
 30
0.0
 11
0.0
 21
1.0
 31
0.0
 44
0.9
  1
RUD VSAK 1-8/140
 40
9.0
 41
112.2857142857
  0
LINE
  5
212
100
AcDbEntity
  8
0
100
AcDbLine
 62
7
  6
CONTINUOUS
 10
0.0
 20
0.0
 11
0.0
 21
594.0
  0
LINE
  5
213
100
AcDbEntity
  8
0
100
AcDbLine
 62
7
  6
CONTINUOUS
 10
0.0
 20
0.0
 11
841.0
 21
0.0
  0
LINE
  5
214
100
AcDbEntity
  8
0
100
AcDbLine
 62
7
  6
CONTINUOUS
 10
0.0
 20
594.0
 11
841.0
 21
594.0
  0
LINE
  5
215
100
AcDbEntity
  8
0
100
AcDbLine
 62
7
  6
CONTINUOUS
 10
841.0
 20
0.0
 11
841.0
 21
594.0
  0
LINE
  5
216
100
AcDbEntity
  8
KONSTRUKTIONSELEMENTE
100
AcDbLine
 62
7
  6
CONTINUOUS
 10
203.41817866
 20
54.4467841015
 11
210.69817866
 21
54.4467841015
  0
LINE
  5
217
100
AcDbEntity
  8
KONSTRUKTIONSELEMENTE
100
AcDbLine
 62
7
  6
CONTINUOUS
 10
203.01817866
 20
54.7296268139
 11
203.41817866
 21
54.7296268139
  0
LINE
  5
218
100
AcDbEntity
  8
KONSTRUKTIONSELEMENTE
100
AcDbLine
 62
7
  6
CONTINUOUS
 10
210.69817866
 20
54.7296268139
 11
211.09817866
 21
54.7296268139
  0
LINE
  5
219
100
AcDbEntity
  8
KONSTRUKTIONSELEMENTE
100
AcDbLine
 62
7
  6
CONTINUOUS
 10
196.2510887581
 20
65.7604926004
 11
200.21817866
 21
65.7604926004
  0
LINE
  5
21A
100
AcDbEntity
  8
KONSTRUKTIONSELEMENTE
100
AcDbLine
 62
7
  6
CONTINUOUS
 10
213.89817866
 20
65.7604926004
 11
228.8990477516
 21
65.7604926004
  0
LINE
  5
21B
100
AcDbEntity
  8
KONSTRUKTIONSELEMENTE
100
AcDbLine
 62
7
  6
CONTINUOUS
 10
232.5224605923
 20
68.0600803713
 11
227.4471369849
 21
69.7335633082
  0
LINE
  5
21C
100
AcDbEntity
  8
KONSTRUKTIONSELEMENTE
100
AcDbLine
 62
7
  6
CONTINUOUS
 10
232.5224605923
 20
70.8885074961
 11
227.4471369849
 21
72.5619904329
  0
LINE
  5
21D
100
AcDbEntity
  8
KONSTRUKTIONSELEMENTE
100
AcDbLine
 62
7
  6
CONTINUOUS
 10
172.9248409258
 20
97.2681055656
 11
173.0938882305
 21
97.2946057253
  0
LINE
  5
21E
100
AcDbEntity
  8
KONSTRUKTIONSELEMENTE
100
AcDbLine
 62
7
  6
CONTINUOUS
 10
244.8590093686
 20
96.1368462489
 11
249.934332976
 21
94.463363312
  0
LINE
  5
21F
100
AcDbEntity
  8
KONSTRUKTIONSELEMENTE
100
AcDbLine
 62
7
  6
CONTINUOUS
 10
213.8200708479
 20
110.6624269915
 11
248.9960253822
 21
99.0638838727
  0
LINE
  5
220
100
AcDbEntity
  8
KONSTRUKTIONSELEMENTE
100
AcDbLine
 62
7
  6
CONTINUOUS
 10
248.9960253822
 20
101.8923109975
 11
213.8200708479
 21
113.4908541162
  0
LINE
  5
221
100
AcDbEntity
  8
KONSTRUKTIONSELEMENTE
100
AcDbLine
 62
7
  6
CONTINUOUS
 10
221.0909655566
 20
142.9422564778
 11
217.9656719914
 21
142.9422564778
  0
LINE
  5
222
100
AcDbEntity
  8
KONSTRUKTIONSELEMENTE
100
AcDbLine
 62
7
  6
CONTINUOUS
 10
196.1506853286
 20
142.9422564778
 11
193.0253917634
 21
142.9422564778
  0
LINE
  5
223
100
AcDbEntity
  8
0
100
AcDbLine
 62
7
  6
CONTINUOUS
 10
211.60817866
 20
149.3922564778
 11
202.50817866
 21
149.3922564778
  0
LINE
  5
224
100
AcDbEntity
  8
0
100
AcDbLine
 62
7
  6
CONTINUOUS
 10
211.60817866
 20
158.9922564778
 11
202.50817866
 21
158.9922564778
  0
LINE
  5
225
100
AcDbEntity
  8
KONSTRUKTIONSELEMENTE
100
AcDbLine
 62
7
  6
CONTINUOUS
 10
172.248651707
 20
98.2934757769
 11
172.9248409258
 21
97.2681055656
  0
LINE
  5
226
100
AcDbEntity
  8
KONSTRUKTIONSELEMENTE
100
AcDbLine
 62
7
  6
CONTINUOUS
 10
177.4722134221
 20
90.3724908947
 11
192.62585761
 21
67.3935747703
  0
LINE
  5
227
100
AcDbEntity
  8
KONSTRUKTIONSELEMENTE
100
AcDbLine
 62
7
  6
CONTINUOUS
 10
177.4722134221
 20
90.6553336072
 11
177.3031661174
 21
90.91167616
  0
LINE
  5
228
100
AcDbEntity
  8
KONSTRUKTIONSELEMENTE
100
AcDbLine
 62
7
  6
CONTINUOUS
 10
179.4424177358
 20
98.093088149
 11
182.765441345
 21
93.054070481
  0
LINE
  5
229
100
AcDbEntity
  8
BEZUGSACHSEN
100
AcDbLine
 62
7
  6
CONTINUOUS
 10
218.3326059281
 20
197.3037320313
 11
218.7591402734
 21
197.389567984
  0
LINE
  5
22A
100
AcDbEntity
  8
BEZUGSACHSEN
100
AcDbLine
 62
7
  6
CONTINUOUS
 10
222.3703749555
 20
192.1349143041
 11
222.8106083268
 21
192.2099134555
  0
LINE
  5
22B
100
AcDbEntity
  8
BEZUGSACHSEN
100
AcDbLine
 62
7
  6
CONTINUOUS
 10
221.9179735073
 20
194.4934703222
 11
222.3582069316
 21
194.568469501
  0
LINE
  5
22C
100
AcDbEntity
  8
BEZUGSACHSEN
100
AcDbLine
 62
7
  6
CONTINUOUS
 10
223.4612318884
 20
195.2147052786
 11
223.9014654186
 21
195.2897045122
  0
LINE
  5
22D
100
AcDbEntity
  8
BEZUGSACHSEN
100
AcDbLine
 62
7
  6
CONTINUOUS
 10
223.9270502928
 20
193.0155704819
 11
224.2916754782
 21
193.0514990939
  0
LINE
  5
22E
100
AcDbEntity
  8
BEZUGSACHSEN
100
AcDbLine
 62
7
  6
CONTINUOUS
 10
195.783939222
 20
197.9741936098
 11
196.0490159879
 21
197.973975068
  0
LINE
  5
22F
100
AcDbEntity
  8
BEZUGSACHSEN
100
AcDbLine
 62
7
  6
CONTINUOUS
 10
218.2928656854
 20
197.7822868059
 11
218.5579415696
 21
197.7815690589
  0
LINE
  5
230
100
AcDbEntity
  8
BEZUGSACHSEN
100
AcDbLine
 62
7
  6
CONTINUOUS
 10
223.9227856373
 20
193.3945937203
 11
224.2118026897
 21
193.3914518201
  0
LINE
  5
231
100
AcDbEntity
  8
BEZUGSACHSEN
100
AcDbLine
 62
7
  6
CONTINUOUS
 10
223.61671281
 20
194.9138230645
 11
223.9057300741
 21
194.9106812738
  0
LINE
  5
232
100
AcDbEntity
  8
BEZUGSACHSEN
100
AcDbLine
 62
7
  6
CONTINUOUS
 10
192.2863206981
 20
198.2923059762
 11
192.5038466238
 21
198.2895740014
  0
LINE
  5
233
100
AcDbEntity
  8
BEZUGSACHSEN
100
AcDbLine
 62
7
  6
CONTINUOUS
 10
222.2594065521
 20
192.5350423712
 11
222.6551274053
 21
192.5107956696
  0
LINE
  5
234
100
AcDbEntity
  8
BEZUGSACHSEN
100
AcDbLine
 62
7
  6
CONTINUOUS
 10
222.0734544288
 20
194.1925881081
 11
222.469175335
 21
194.1683414338
  0
LINE
  5
235
100
AcDbEntity
  8
BEZUGSACHSEN
100
AcDbLine
 62
7
  6
CONTINUOUS
 10
192.3687013769
 20
198.6622918812
 11
192.7609093578
 21
198.6043629987
  0
LINE
  5
236
100
AcDbEntity
  8
BEZUGSACHSEN
100
AcDbLine
 62
7
  6
CONTINUOUS
 10
222.0502622617
 20
192.1982315315
 11
222.3703749555
 21
192.1349143041
  0
LINE
  5
237
100
AcDbEntity
  8
BEZUGSACHSEN
100
AcDbLine
 62
7
  6
CONTINUOUS
 10
195.5813571717
 20
197.5829056417
 11
196.0075862665
 21
197.4955641439
  0
LINE
  5
238
100
AcDbEntity
  8
0
100
AcDbLine
 62
7
  6
CONTINUOUS
 10
191.4933028772
 20
143.6566812585
 11
187.8707177785
 21
147.9739100643
  0
LINE
  5
239
100
AcDbEntity
  8
RUNDUNGEN
100
AcDbLine
 62
7
  6
CONTINUOUS
 10
187.8707177785
 20
147.9739100643
 11
187.5260897738
 21
148.384621727
  0
LINE
  5
23A
100
AcDbEntity
  8
0
100
AcDbLine
 62
7
  6
CONTINUOUS
 10
115.05817866
 20
456.1922564778
 11
115.05817866
 21
336.1922564778
  0
LINE
  5
23B
100
AcDbEntity
  8
BEZUGSACHSEN
100
AcDbLine
 62
7
  6
CONTINUOUS
 10
197.6216824142
 20
203.16885652
 11
197.959468393
 21
203.2574433468
  0
LINE
  5
23C
100
AcDbEntity
  8
BEZUGSACHSEN
100
AcDbLine
 62
7
  6
CONTINUOUS
 10
218.7550920954
 20
201.0649177752
 11
219.1816264215
 21
201.1507537051
  0
LINE
  5
23D
100
AcDbEntity
  8
BEZUGSACHSEN
100
AcDbLine
 62
7
  6
CONTINUOUS
 10
197.8676921415
 20
202.7213851543
 11
198.1461208412
 21
202.7773386794
  0
LINE
  5
23E
100
AcDbEntity
  8
BEZUGSACHSEN
100
AcDbLine
 62
7
  6
CONTINUOUS
 10
196.0075862665
 20
197.4955641439
 11
196.3246251983
 21
197.538797872
  0
LINE
  5
23F
100
AcDbEntity
  8
BEZUGSACHSEN
100
AcDbLine
 62
7
  6
CONTINUOUS
 10
191.9995688014
 20
198.6139251355
 11
192.3687013769
 21
198.6622918812
  0
LINE
  5
240
100
AcDbEntity
  8
BEZUGSACHSEN
100
AcDbLine
 62
7
  6
CONTINUOUS
 10
216.363694913
 20
200.9088549844
 11
216.6831521457
 21
200.9270241451
  0
LINE
  5
241
100
AcDbEntity
  8
BEZUGSACHSEN
100
AcDbLine
 62
7
  6
CONTINUOUS
 10
218.9562896518
 20
200.6729177447
 11
219.2213654976
 21
200.6721999521
  0
LINE
  5
242
100
AcDbEntity
  8
BEZUGSACHSEN
100
AcDbLine
 62
7
  6
CONTINUOUS
 10
197.959468393
 20
203.2574433468
 11
198.2788987139
 21
203.238818311
  0
LINE
  5
243
100
AcDbEntity
  8
BEZUGSACHSEN
100
AcDbLine
 62
7
  6
CONTINUOUS
 10
216.2908865729
 20
201.3378051957
 11
216.5099251968
 21
201.3141722434
  0
LINE
  5
244
100
AcDbEntity
  8
BEZUGSACHSEN
100
AcDbLine
 62
7
  6
CONTINUOUS
 10
218.0157201992
 20
197.3480865632
 11
218.3326059281
 21
197.3037320313
  0
LINE
  5
245
100
AcDbEntity
  8
BEZUGSACHSEN
100
AcDbLine
 62
7
  6
CONTINUOUS
 10
219.1816264215
 20
201.1507537051
 11
219.4985109502
 21
201.1064001549
  0
LINE
  5
246
100
AcDbEntity
  8
BEZUGSACHSEN
100
AcDbLine
 62
7
  6
CONTINUOUS
 10
198.1461208412
 20
202.7773386794
 11
198.4061945624
 21
202.7260807155
  0
LINE
  5
247
100
AcDbEntity
  8
BEZUGSACHSEN
100
AcDbLine
 62
7
  6
CONTINUOUS
 10
223.6069376255
 20
193.078887723
 11
223.9270502928
 21
193.0155704819
  0
LINE
  5
248
100
AcDbEntity
  8
BEZUGSACHSEN
100
AcDbLine
 62
7
  6
CONTINUOUS
 10
223.9014654186
 20
195.2897045122
 11
224.2215780859
 21
195.226387271
  0
LINE
  5
249
100
AcDbEntity
  8
BEZUGSACHSEN
100
AcDbLine
 62
7
  6
CONTINUOUS
 10
223.5715773551
 20
193.5180863023
 11
223.9227856373
 21
193.3945937203
  0
LINE
  5
24A
100
AcDbEntity
  8
BEZUGSACHSEN
100
AcDbLine
 62
7
  6
CONTINUOUS
 10
222.3582069316
 20
194.568469501
 11
222.7094152137
 21
194.4449769189
  0
LINE
  5
24B
100
AcDbEntity
  8
BEZUGSACHSEN
100
AcDbLine
 62
7
  6
CONTINUOUS
 10
223.9057300741
 20
194.9106812738
 11
224.2569383563
 21
194.7871886917
  0
LINE
  5
24C
100
AcDbEntity
  8
BEZUGSACHSEN
100
AcDbLine
 62
7
  6
CONTINUOUS
 10
193.5157095158
 20
197.3758155433
 11
195.417444331
 21
196.609889447
  0
LINE
  5
24D
100
AcDbEntity
  8
BEZUGSACHSEN
100
AcDbLine
 62
7
  6
CONTINUOUS
 10
195.516229159
 20
198.0831515845
 11
195.783939222
 21
197.9741936098
  0
LINE
  5
24E
100
AcDbEntity
  8
BEZUGSACHSEN
100
AcDbLine
 62
7
  6
CONTINUOUS
 10
193.3904850275
 20
196.9533647804
 11
195.1175377264
 21
196.2426355168
  0
LINE
  5
24F
100
AcDbEntity
  8
BEZUGSACHSEN
100
AcDbLine
 62
7
  6
CONTINUOUS
 10
218.0308078341
 20
197.891733598
 11
218.2928656854
 21
197.7822868059
  0
LINE
  5
250
100
AcDbEntity
  8
BEZUGSACHSEN
100
AcDbLine
 62
7
  6
CONTINUOUS
 10
219.2213654976
 20
200.6721999521
 11
219.4834257205
 21
200.5627511625
  0
LINE
  5
251
100
AcDbEntity
  8
BEZUGSACHSEN
100
AcDbLine
 62
7
  6
CONTINUOUS
 10
198.2788987139
 20
203.238818311
 11
198.6803322773
 21
203.0710361532
  0
LINE
  5
252
100
AcDbEntity
  8
BEZUGSACHSEN
100
AcDbLine
 62
7
  6
CONTINUOUS
 10
192.5038466238
 20
198.2895740014
 11
192.7444478324
 21
198.1805462484
  0
LINE
  5
253
100
AcDbEntity
  8
BEZUGSACHSEN
100
AcDbLine
 62
7
  6
CONTINUOUS
 10
192.7609093578
 20
198.6043629987
 11
193.0015105663
 21
198.4953352457
  0
LINE
  5
254
100
AcDbEntity
  8
BEZUGSACHSEN
100
AcDbLine
 62
7
  6
CONTINUOUS
 10
221.6679583448
 20
192.3818994443
 11
222.0502622617
 21
192.1982315315
  0
LINE
  5
255
100
AcDbEntity
  8
BEZUGSACHSEN
100
AcDbLine
 62
7
  6
CONTINUOUS
 10
224.2215780859
 20
195.226387271
 11
224.6038834065
 21
195.0427165934
  0
LINE
  5
256
100
AcDbEntity
  8
BEZUGSACHSEN
100
AcDbLine
 62
7
  6
CONTINUOUS
 10
217.7018548461
 20
197.5011681084
 11
218.0157201992
 21
197.3480865632
  0
LINE
  5
257
100
AcDbEntity
  8
BEZUGSACHSEN
100
AcDbLine
 62
7
  6
CONTINUOUS
 10
195.2590519913
 20
197.7571512722
 11
195.5813571717
 21
197.5829056417
  0
LINE
  5
258
100
AcDbEntity
  8
BEZUGSACHSEN
100
AcDbLine
 62
7
  6
CONTINUOUS
 10
221.9838064029
 20
192.6976054654
 11
222.2594065521
 21
192.5350423712
  0
LINE
  5
259
100
AcDbEntity
  8
BEZUGSACHSEN
100
AcDbLine
 62
7
  6
CONTINUOUS
 10
198.4061945624
 20
202.7260807155
 11
198.6479134198
 21
202.5676110534
  0
LINE
  5
25A
100
AcDbEntity
  8
BEZUGSACHSEN
100
AcDbLine
 62
7
  6
CONTINUOUS
 10
195.2458863554
 20
198.3008495348
 11
195.516229159
 21
198.0831515845
  0
LINE
  5
25B
100
AcDbEntity
  8
BEZUGSACHSEN
100
AcDbLine
 62
7
  6
CONTINUOUS
 10
193.7893803085
 20
194.6162257475
 11
190.6911797264
 21
197.1462757772
  0
LINE
  5
25C
100
AcDbEntity
  8
BEZUGSACHSEN
100
AcDbLine
 62
7
  6
CONTINUOUS
 10
194.0464430425
 20
194.9310147447
 11
192.6621406351
 21
196.0614626464
  0
LINE
  5
25D
100
AcDbEntity
  8
BEZUGSACHSEN
100
AcDbLine
 62
7
  6
CONTINUOUS
 10
192.2666257143
 20
196.3844477181
 11
191.2778382277
 21
197.1919105481
  0
LINE
  5
25E
100
AcDbEntity
  8
BEZUGSACHSEN
100
AcDbLine
 62
7
  6
CONTINUOUS
 10
192.7444478324
 20
198.1805462484
 11
192.9422054774
 21
198.0190535618
  0
LINE
  5
25F
100
AcDbEntity
  8
BEZUGSACHSEN
100
AcDbLine
 62
7
  6
CONTINUOUS
 10
193.0015105663
 20
198.4953352457
 11
193.2651873648
 21
198.2800117138
  0
LINE
  5
260
100
AcDbEntity
  8
BEZUGSACHSEN
100
AcDbLine
 62
7
  6
CONTINUOUS
 10
194.9341136626
 20
198.0401364597
 11
195.2590519913
 21
197.7571512722
  0
LINE
  5
261
100
AcDbEntity
  8
RUNDUNGEN
100
AcDbLine
 62
7
  6
CONTINUOUS
 10
186.7902294676
 20
161.406358093
 11
184.6541576979
 21
165.1061429266
  0
LINE
  5
262
100
AcDbEntity
  8
0
100
AcDbLine
 62
7
  6
CONTINUOUS
 10
137.05817866
 20
456.1922564778
 11
137.05817866
 21
336.1922564778
  0
LINE
  5
263
100
AcDbEntity
  8
0
100
AcDbLine
 62
7
  6
CONTINUOUS
 10
222.5090283788
 20
206.7085266866
 11
215.05817866
 21
209.1294545139
  0
LINE
  5
264
100
AcDbEntity
  8
BEZUGSACHSEN
100
AcDbLine
 62
7
  6
CONTINUOUS
 10
219.4985109502
 20
201.1064001549
 11
219.8123786701
 21
200.9533166065
  0
LINE
  5
265
100
AcDbEntity
  8
BEZUGSACHSEN
100
AcDbLine
 62
7
  6
CONTINUOUS
 10
215.5368339523
 20
199.1294584981
 11
215.9520046839
 21
198.9004353948
  0
LINE
  5
266
100
AcDbEntity
  8
BEZUGSACHSEN
100
AcDbLine
 62
7
  6
CONTINUOUS
 10
215.05817866
 20
201.4346314337
 11
215.9256176652
 21
200.9561208891
  0
LINE
  5
267
100
AcDbEntity
  8
BEZUGSACHSEN
100
AcDbLine
 62
7
  6
CONTINUOUS
 10
215.1639916784
 20
201.9594409378
 11
216.2908865729
 21
201.3378051957
  0
LINE
  5
268
100
AcDbEntity
  8
BEZUGSACHSEN
100
AcDbLine
 62
7
  6
CONTINUOUS
 10
215.7806106315
 20
203.0772414487
 11
216.907505526
 21
202.4556057067
  0
LINE
  5
269
100
AcDbEntity
  8
BEZUGSACHSEN
100
AcDbLine
 62
7
  6
CONTINUOUS
 10
215.6302888413
 20
203.6461474944
 11
217.0537344523
 21
202.8609237145
  0
LINE
  5
26A
100
AcDbEntity
  8
BEZUGSACHSEN
100
AcDbLine
 62
7
  6
CONTINUOUS
 10
223.4691368392
 20
193.1601706475
 11
223.6069376255
 21
193.078887723
  0
LINE
  5
26B
100
AcDbEntity
  8
BEZUGSACHSEN
100
AcDbLine
 62
7
  6
CONTINUOUS
 10
222.469175335
 20
194.1683414338
 11
222.7447754841
 21
194.0057783396
  0
LINE
  5
26C
100
AcDbEntity
  8
BEZUGSACHSEN
100
AcDbLine
 62
7
  6
CONTINUOUS
 10
222.7094152137
 20
194.4449769189
 11
222.8472160001
 21
194.3636939945
  0
LINE
  5
26D
100
AcDbEntity
  8
BEZUGSACHSEN
100
AcDbLine
 62
7
  6
CONTINUOUS
 10
198.6803322773
 20
203.0710361532
 11
198.963052641
 21
202.8379881392
  0
LINE
  5
26E
100
AcDbEntity
  8
BEZUGSACHSEN
100
AcDbLine
 62
7
  6
CONTINUOUS
 10
217.2355802581
 20
197.8938869303
 11
217.7018548461
 21
197.5011681084
  0
LINE
  5
26F
100
AcDbEntity
  8
BEZUGSACHSEN
100
AcDbLine
 62
7
  6
CONTINUOUS
 10
217.564533246
 20
198.2844524199
 11
218.0308078341
 21
197.891733598
  0
LINE
  5
270
100
AcDbEntity
  8
BEZUGSACHSEN
100
AcDbLine
 62
7
  6
CONTINUOUS
 10
218.7465549629
 20
198.8466898605
 11
219.212829551
 21
198.4539710386
  0
LINE
  5
271
100
AcDbEntity
  8
BEZUGSACHSEN
100
AcDbLine
 62
7
  6
CONTINUOUS
 10
219.0755079125
 20
199.2372553045
 11
219.8526322259
 21
198.5827239347
  0
LINE
  5
272
100
AcDbEntity
  8
BEZUGSACHSEN
100
AcDbLine
 62
7
  6
CONTINUOUS
 10
220.0352119249
 20
199.4303846487
 11
220.3460616502
 21
199.1685721008
  0
LINE
  5
273
100
AcDbEntity
  8
BEZUGSACHSEN
100
AcDbLine
 62
7
  6
CONTINUOUS
 10
219.4834257205
 20
200.5627511625
 11
219.9497003086
 21
200.1700323406
  0
LINE
  5
274
100
AcDbEntity
  8
BEZUGSACHSEN
100
AcDbLine
 62
7
  6
CONTINUOUS
 10
219.8123786701
 20
200.9533166065
 11
220.2786532581
 21
200.5605977846
  0
LINE
  5
275
100
AcDbEntity
  8
BEZUGSACHSEN
100
AcDbLine
 62
7
  6
CONTINUOUS
 10
198.6479134198
 20
202.5676110534
 11
198.8712765044
 21
202.3019297378
  0
LINE
  5
276
100
AcDbEntity
  8
BEZUGSACHSEN
100
AcDbLine
 62
7
  6
CONTINUOUS
 10
194.9341136626
 20
198.0401364597
 11
193.2416613714
 21
200.064048793
  0
LINE
  5
277
100
AcDbEntity
  8
BEZUGSACHSEN
100
AcDbLine
 62
7
  6
CONTINUOUS
 10
195.2458863554
 20
198.3008495348
 11
193.5534340642
 21
200.3247618682
  0
LINE
  5
278
100
AcDbEntity
  8
BEZUGSACHSEN
100
AcDbLine
 62
7
  6
CONTINUOUS
 10
194.8005242408
 20
201.3676136715
 11
196.4929765319
 21
199.3437013381
  0
LINE
  5
279
100
AcDbEntity
  8
BEZUGSACHSEN
100
AcDbLine
 62
7
  6
CONTINUOUS
 10
195.1122967849
 20
201.6283266223
 11
196.804749076
 21
199.6044142889
  0
LINE
  5
27A
100
AcDbEntity
  8
BEZUGSACHSEN
100
AcDbLine
 62
7
  6
CONTINUOUS
 10
193.0971191897
 20
197.8050962431
 11
192.9422054774
 21
198.0190535618
  0
LINE
  5
27B
100
AcDbEntity
  8
BEZUGSACHSEN
100
AcDbLine
 62
7
  6
CONTINUOUS
 10
193.4201010771
 20
198.0660543951
 11
193.2651873648
 21
198.2800117138
  0
LINE
  5
27C
100
AcDbEntity
  8
BEZUGSACHSEN
100
AcDbLine
 62
7
  6
CONTINUOUS
 10
217.0537344523
 20
202.8609237145
 11
217.3091772463
 21
202.6228156565
  0
LINE
  5
27D
100
AcDbEntity
  8
BEZUGSACHSEN
100
AcDbLine
 62
7
  6
CONTINUOUS
 10
221.7838143867
 20
192.8992390718
 11
221.9838064029
 21
192.6976054654
  0
LINE
  5
27E
100
AcDbEntity
  8
BEZUGSACHSEN
100
AcDbLine
 62
7
  6
CONTINUOUS
 10
222.7447754841
 20
194.0057783396
 11
222.9447675003
 21
193.8041447333
  0
LINE
  5
27F
100
AcDbEntity
  8
BEZUGSACHSEN
100
AcDbLine
 62
7
  6
CONTINUOUS
 10
223.371585339
 20
193.7197199087
 11
223.5715773551
 21
193.5180863023
  0
LINE
  5
280
100
AcDbEntity
  8
BEZUGSACHSEN
100
AcDbLine
 62
7
  6
CONTINUOUS
 10
224.2569383563
 20
194.7871886917
 11
224.4569303725
 21
194.5855550854
  0
LINE
  5
281
100
AcDbEntity
  8
BEZUGSACHSEN
100
AcDbLine
 62
7
  6
CONTINUOUS
 10
221.4368692836
 20
192.6437111428
 11
221.6679583448
 21
192.3818994443
  0
LINE
  5
282
100
AcDbEntity
  8
BEZUGSACHSEN
100
AcDbLine
 62
7
  6
CONTINUOUS
 10
224.6038834065
 20
195.0427165934
 11
224.8349710376
 21
194.7809076461
  0
LINE
  5
283
100
AcDbEntity
  8
BEZUGSACHSEN
100
AcDbLine
 62
7
  6
CONTINUOUS
 10
216.907505526
 20
202.4556057067
 11
217.0443283049
 21
202.282932714
  0
LINE
  5
284
100
AcDbEntity
  8
BEZUGSACHSEN
100
AcDbLine
 62
7
  6
CONTINUOUS
 10
198.963052641
 20
202.8379881392
 11
199.05817866
 21
202.7155528346
  0
LINE
  5
285
100
AcDbEntity
  8
BEZUGSACHSEN
100
AcDbLine
 62
7
  6
CONTINUOUS
 10
217.0313635261
 20
198.1771589657
 11
217.2355802581
 21
197.8938869303
  0
LINE
  5
286
100
AcDbEntity
  8
BEZUGSACHSEN
100
AcDbLine
 62
7
  6
CONTINUOUS
 10
197.0257630252
 20
199.2345246187
 11
196.804749076
 21
199.6044142889
  0
LINE
  5
287
100
AcDbEntity
  8
BEZUGSACHSEN
100
AcDbLine
 62
7
  6
CONTINUOUS
 10
198.1241950119
 20
198.8804704738
 11
196.1971185848
 21
202.3856632566
  0
LINE
  5
288
100
AcDbEntity
  8
BEZUGSACHSEN
100
AcDbLine
 62
7
  6
CONTINUOUS
 10
198.2343262132
 20
199.5237402077
 11
196.7992692695
 21
202.1339902067
  0
LINE
  5
289
100
AcDbEntity
  8
BEZUGSACHSEN
100
AcDbLine
 62
7
  6
CONTINUOUS
 10
198.8712765044
 20
202.3019297378
 11
199.05817866
 21
201.9619701609
  0
LINE
  5
28A
100
AcDbEntity
  8
BEZUGSACHSEN
100
AcDbLine
 62
7
  6
CONTINUOUS
 10
196.6593952533
 20
199.0390991537
 11
196.4929765319
 21
199.3437013381
  0
LINE
  5
28B
100
AcDbEntity
  8
KONSTRUKTIONSELEMENTE
100
AcDbLine
 62
7
  6
CONTINUOUS
 10
171.8738828551
 20
99.4888207318
 11
171.8738828551
 21
102.3172478566
  0
LINE
  5
28C
100
AcDbEntity
  8
0
100
AcDbLine
 62
7
  6
CONTINUOUS
 10
232.05817866
 20
193.5652488837
 11
222.5090283788
 21
206.7085266866
  0
LINE
  5
28D
100
AcDbEntity
  8
BEZUGSACHSEN
100
AcDbLine
 62
7
  6
CONTINUOUS
 10
220.2786532581
 20
200.5605977846
 11
220.4828676233
 21
200.2773277524
  0
LINE
  5
28E
100
AcDbEntity
  8
BEZUGSACHSEN
100
AcDbLine
 62
7
  6
CONTINUOUS
 10
217.4121240063
 20
198.5240896908
 11
217.564533246
 21
198.2844524199
  0
LINE
  5
28F
100
AcDbEntity
  8
BEZUGSACHSEN
100
AcDbLine
 62
7
  6
CONTINUOUS
 10
219.9497003086
 20
200.1700323406
 11
220.1021071767
 21
199.9303970672
  0
LINE
  5
290
100
AcDbEntity
  8
BEZUGSACHSEN
100
AcDbLine
 62
7
  6
CONTINUOUS
 10
221.2502927472
 20
193.0047686978
 11
221.4368692836
 21
192.6437111428
  0
LINE
  5
291
100
AcDbEntity
  8
BEZUGSACHSEN
100
AcDbLine
 62
7
  6
CONTINUOUS
 10
221.6594290801
 20
193.1399459449
 11
221.7838143867
 21
192.8992390718
  0
LINE
  5
292
100
AcDbEntity
  8
BEZUGSACHSEN
100
AcDbLine
 62
7
  6
CONTINUOUS
 10
222.9447675003
 20
193.8041447333
 11
223.0691528069
 21
193.5634378601
  0
LINE
  5
293
100
AcDbEntity
  8
BEZUGSACHSEN
100
AcDbLine
 62
7
  6
CONTINUOUS
 10
223.2472000324
 20
193.9604267818
 11
223.371585339
 21
193.7197199087
  0
LINE
  5
294
100
AcDbEntity
  8
BEZUGSACHSEN
100
AcDbLine
 62
7
  6
CONTINUOUS
 10
224.4569303725
 20
194.5855550854
 11
224.5813156791
 21
194.3448482123
  0
LINE
  5
295
100
AcDbEntity
  8
BEZUGSACHSEN
100
AcDbLine
 62
7
  6
CONTINUOUS
 10
224.8349710376
 20
194.7809076461
 11
224.9593563442
 21
194.5402007729
  0
LINE
  5
296
100
AcDbEntity
  8
BEZUGSACHSEN
100
AcDbLine
 62
7
  6
CONTINUOUS
 10
193.555246324
 20
197.6933365153
 11
193.4201010771
 21
198.0660543951
  0
LINE
  5
297
100
AcDbEntity
  8
BEZUGSACHSEN
100
AcDbLine
 62
7
  6
CONTINUOUS
 10
197.1402198924
 20
198.8864703958
 11
197.0257630252
 21
199.2345246187
  0
LINE
  5
298
100
AcDbEntity
  8
BEZUGSACHSEN
100
AcDbLine
 62
7
  6
CONTINUOUS
 10
193.1432698778
 20
197.5925048367
 11
193.0971191897
 21
197.8050962431
  0
LINE
  5
299
100
AcDbEntity
  8
0
100
AcDbLine
 62
7
  6
CONTINUOUS
 10
182.05817866
 20
177.319264072
 11
184.6541576979
 21
165.1061429266
  0
LINE
  5
29A
100
AcDbEntity
  8
KONSTRUKTIONSELEMENTE
100
AcDbLine
 62
7
  6
CONTINUOUS
 10
177.1907354618
 20
91.2702796465
 11
177.1907354618
 21
93.5330213463
  0
LINE
  5
29B
100
AcDbEntity
  8
KONSTRUKTIONSELEMENTE
100
AcDbLine
 62
7
  6
CONTINUOUS
 10
177.4722134221
 20
90.3724908947
 11
177.4722134221
 21
90.6553336072
  0
LINE
  5
29C
100
AcDbEntity
  8
0
100
AcDbLine
 62
7
  6
CONTINUOUS
 10
182.05817866
 20
193.5652488837
 11
182.05817866
 21
177.319264072
  0
LINE
  5
29D
100
AcDbEntity
  8
RUNDUNGEN
100
AcDbLine
 62
7
  6
CONTINUOUS
 10
187.05817866
 20
149.6701969464
 11
187.05817866
 21
168.3074749599
  0
LINE
  5
29E
100
AcDbEntity
  8
BEZUGSACHSEN
100
AcDbLine
 62
7
  6
CONTINUOUS
 10
217.3091772463
 20
202.6228156565
 11
217.4230948664
 21
202.2683847164
  0
LINE
  5
29F
100
AcDbEntity
  8
BEZUGSACHSEN
100
AcDbLine
 62
7
  6
CONTINUOUS
 10
216.9337809782
 20
198.4818894957
 11
217.0313635261
 21
198.1771589657
  0
LINE
  5
2A0
100
AcDbEntity
  8
BEZUGSACHSEN
100
AcDbLine
 62
7
  6
CONTINUOUS
 10
220.4828676233
 20
200.2773277524
 11
220.5804513714
 21
199.9725962408
  0
LINE
  5
2A1
100
AcDbEntity
  8
BEZUGSACHSEN
100
AcDbLine
 62
7
  6
CONTINUOUS
 10
196.7192568544
 20
198.7563324623
 11
196.6593952533
 21
199.0390991537
  0
LINE
  5
2A2
100
AcDbEntity
  8
BEZUGSACHSEN
100
AcDbLine
 62
7
  6
CONTINUOUS
 10
197.1507523608
 20
198.4515117131
 11
197.1402198924
 21
198.8864703958
  0
LINE
  5
2A3
100
AcDbEntity
  8
KONSTRUKTIONSELEMENTE
100
AcDbLine
 62
7
  6
CONTINUOUS
 10
195.4931451538
 20
159.1384089005
 11
195.4931451538
 21
153.9032564778
  0
LINE
  5
2A4
100
AcDbEntity
  8
0
100
AcDbLine
 62
7
  6
CONTINUOUS
 10
199.05817866
 20
274.1339757076
 11
199.05817866
 21
188.2505372481
  0
LINE
  5
2A5
100
AcDbEntity
  8
KONSTRUKTIONSELEMENTE
100
AcDbLine
 62
7
  6
CONTINUOUS
 10
199.05817866
 20
132.5820834226
 11
199.05817866
 21
121.9754817048
  0
LINE
  5
2A6
100
AcDbEntity
  8
KONSTRUKTIONSELEMENTE
100
AcDbLine
 62
7
  6
CONTINUOUS
 10
201.81817866
 20
63.7805936131
 11
201.81817866
 21
55.5781549514
  0
LINE
  5
2A7
100
AcDbEntity
  8
0
100
AcDbLine
 62
7
  6
CONTINUOUS
 10
202.50817866
 20
144.7810956985
 11
202.50817866
 21
153.9032564778
  0
LINE
  5
2A8
100
AcDbEntity
  8
KONSTRUKTIONSELEMENTE
100
AcDbLine
 62
7
  6
CONTINUOUS
 10
202.50817866
 20
153.9032564778
 11
202.50817866
 21
164.3922564778
  0
LINE
  5
2A9
100
AcDbEntity
  8
KONSTRUKTIONSELEMENTE
100
AcDbLine
 62
7
  6
CONTINUOUS
 10
203.41817866
 20
54.4467841015
 11
203.41817866
 21
63.4977509007
  0
LINE
  5
2AA
100
AcDbEntity
  8
KONSTRUKTIONSELEMENTE
100
AcDbLine
 62
7
  6
CONTINUOUS
 10
203.55817866
 20
163.6947817948
 11
203.55817866
 21
158.9922564778
  0
LINE
  5
2AB
100
AcDbEntity
  8
KONSTRUKTIONSELEMENTE
100
AcDbLine
 62
7
  6
CONTINUOUS
 10
203.55817866
 20
132.5820834226
 11
203.55817866
 21
121.9754817048
  0
LINE
  5
2AC
100
AcDbEntity
  8
KONSTRUKTIONSELEMENTE
100
AcDbLine
 62
7
  6
CONTINUOUS
 10
204.55817866
 20
180.2281602079
 11
204.55817866
 21
174.7422923949
  0
LINE
  5
2AD
100
AcDbEntity
  8
KONSTRUKTIONSELEMENTE
100
AcDbLine
 62
7
  6
CONTINUOUS
 10
204.55817866
 20
168.1880645882
 11
204.55817866
 21
162.7177525678
  0
LINE
  5
2AE
100
AcDbEntity
  8
KONSTRUKTIONSELEMENTE
100
AcDbLine
 62
7
  6
CONTINUOUS
 10
204.55817866
 20
122.9525109318
 11
204.55817866
 21
105.4421032917
  0
LINE
  5
2AF
100
AcDbEntity
  8
KONSTRUKTIONSELEMENTE
100
AcDbLine
 62
7
  6
CONTINUOUS
 10
204.80817866
 20
149.3922564778
 11
204.80817866
 21
131.7818308909
  0
LINE
  5
2B0
100
AcDbEntity
  8
KONSTRUKTIONSELEMENTE
100
AcDbLine
 62
7
  6
CONTINUOUS
 10
209.30817866
 20
149.3922564778
 11
209.30817866
 21
131.7818308909
  0
LINE
  5
2B1
100
AcDbEntity
  8
BEZUGSACHSEN
100
AcDbLine
 62
7
  6
CONTINUOUS
 10
193.5157095158
 20
197.3758155433
 11
193.555246324
 21
197.6933365153
  0
LINE
  5
2B2
100
AcDbEntity
  8
BEZUGSACHSEN
100
AcDbLine
 62
7
  6
CONTINUOUS
 10
221.1704199653
 20
193.3447214275
 11
221.2502927472
 21
193.0047686978
  0
LINE
  5
2B3
100
AcDbEntity
  8
BEZUGSACHSEN
100
AcDbLine
 62
7
  6
CONTINUOUS
 10
224.9593563442
 20
194.5402007729
 11
225.0392277092
 21
194.2002508014
  0
LINE
  5
2B4
100
AcDbEntity
  8
BEZUGSACHSEN
100
AcDbLine
 62
7
  6
CONTINUOUS
 10
217.3663501652
 20
198.7851844917
 11
217.4121240063
 21
198.5240896908
  0
LINE
  5
2B5
100
AcDbEntity
  8
BEZUGSACHSEN
100
AcDbLine
 62
7
  6
CONTINUOUS
 10
220.1021071767
 20
199.9303970672
 11
220.1478810562
 21
199.6693023119
  0
LINE
  5
2B6
100
AcDbEntity
  8
BEZUGSACHSEN
100
AcDbLine
 62
7
  6
CONTINUOUS
 10
221.61065333
 20
193.4197205755
 11
221.6594290801
 21
193.1399459449
  0
LINE
  5
2B7
100
AcDbEntity
  8
BEZUGSACHSEN
100
AcDbLine
 62
7
  6
CONTINUOUS
 10
223.0691528069
 20
193.5634378601
 11
223.117928557
 21
193.2836632295
  0
LINE
  5
2B8
100
AcDbEntity
  8
BEZUGSACHSEN
100
AcDbLine
 62
7
  6
CONTINUOUS
 10
223.1984242823
 20
194.2402014124
 11
223.2472000324
 21
193.9604267818
  0
LINE
  5
2B9
100
AcDbEntity
  8
BEZUGSACHSEN
100
AcDbLine
 62
7
  6
CONTINUOUS
 10
224.5813156791
 20
194.3448482123
 11
224.6300914292
 21
194.0650735817
  0
LINE
  5
2BA
100
AcDbEntity
  8
BEZUGSACHSEN
100
AcDbLine
 62
7
  6
CONTINUOUS
 10
217.0443283049
 20
202.282932714
 11
217.0807324749
 21
202.0684576084
  0
LINE
  5
2BB
100
AcDbEntity
  8
BEZUGSACHSEN
100
AcDbLine
 62
7
  6
CONTINUOUS
 10
217.4230948664
 20
202.2683847164
 11
217.4365938776
 21
201.8721516634
  0
LINE
  5
2BC
100
AcDbEntity
  8
KONSTRUKTIONSELEMENTE
100
AcDbLine
 62
7
  6
CONTINUOUS
 10
209.55817866
 20
180.2281602079
 11
209.55817866
 21
174.7422923949
  0
LINE
  5
2BD
100
AcDbEntity
  8
KONSTRUKTIONSELEMENTE
100
AcDbLine
 62
7
  6
CONTINUOUS
 10
209.55817866
 20
168.1880645882
 11
209.55817866
 21
162.7177525678
  0
LINE
  5
2BE
100
AcDbEntity
  8
KONSTRUKTIONSELEMENTE
100
AcDbLine
 62
7
  6
CONTINUOUS
 10
209.55817866
 20
122.9525109318
 11
209.55817866
 21
105.4421032917
  0
LINE
  5
2BF
100
AcDbEntity
  8
KONSTRUKTIONSELEMENTE
100
AcDbLine
 62
7
  6
CONTINUOUS
 10
210.55817866
 20
121.9754817048
 11
210.55817866
 21
132.5820834226
  0
LINE
  5
2C0
100
AcDbEntity
  8
KONSTRUKTIONSELEMENTE
100
AcDbLine
 62
7
  6
CONTINUOUS
 10
210.55817866
 20
158.9922564778
 11
210.55817866
 21
163.6947817948
  0
LINE
  5
2C1
100
AcDbEntity
  8
KONSTRUKTIONSELEMENTE
100
AcDbLine
 62
7
  6
CONTINUOUS
 10
210.69817866
 20
54.4467841015
 11
210.69817866
 21
63.4977509007
  0
LINE
  5
2C2
100
AcDbEntity
  8
0
100
AcDbLine
 62
7
  6
CONTINUOUS
 10
211.60817866
 20
153.9032564778
 11
211.60817866
 21
144.7810956985
  0
LINE
  5
2C3
100
AcDbEntity
  8
KONSTRUKTIONSELEMENTE
100
AcDbLine
 62
7
  6
CONTINUOUS
 10
211.60817866
 20
153.9032564778
 11
211.60817866
 21
164.3922564778
  0
LINE
  5
2C4
100
AcDbEntity
  8
KONSTRUKTIONSELEMENTE
100
AcDbLine
 62
7
  6
CONTINUOUS
 10
212.29817866
 20
55.5781549514
 11
212.29817866
 21
63.7805936131
  0
LINE
  5
2C5
100
AcDbEntity
  8
0
100
AcDbLine
 62
7
  6
CONTINUOUS
 10
215.05817866
 20
274.1339757076
 11
215.05817866
 21
188.2505372481
  0
LINE
  5
2C6
100
AcDbEntity
  8
KONSTRUKTIONSELEMENTE
100
AcDbLine
 62
7
  6
CONTINUOUS
 10
215.05817866
 20
121.9754817048
 11
215.05817866
 21
132.5820834226
  0
LINE
  5
2C7
100
AcDbEntity
  8
KONSTRUKTIONSELEMENTE
100
AcDbLine
 62
7
  6
CONTINUOUS
 10
218.6232121662
 20
159.1384089005
 11
218.6232121662
 21
153.9032564778
  0
LINE
  5
2C8
100
AcDbEntity
  8
BEZUGSACHSEN
100
AcDbLine
 62
7
  6
CONTINUOUS
 10
216.9458506041
 20
198.9168075139
 11
216.9337809782
 21
198.4818894957
  0
LINE
  5
2C9
100
AcDbEntity
  8
BEZUGSACHSEN
100
AcDbLine
 62
7
  6
CONTINUOUS
 10
220.5804513714
 20
199.9725962408
 11
220.5683817647
 21
199.5376782453
  0
LINE
  5
2CA
100
AcDbEntity
  8
BEZUGSACHSEN
100
AcDbLine
 62
7
  6
CONTINUOUS
 10
196.6725610762
 20
198.4954009696
 11
196.7192568544
 21
198.7563324623
  0
LINE
  5
2CB
100
AcDbEntity
  8
BEZUGSACHSEN
100
AcDbLine
 62
7
  6
CONTINUOUS
 10
193.0806576643
 20
197.3812794928
 11
193.1432698778
 21
197.5925048367
  0
LINE
  5
2CC
100
AcDbEntity
  8
RUNDUNGEN
100
AcDbLine
 62
7
  6
CONTINUOUS
 10
227.05817866
 20
149.6701969464
 11
227.05817866
 21
168.3074749599
  0
LINE
  5
2CD
100
AcDbEntity
  8
0
100
AcDbLine
 62
7
  6
CONTINUOUS
 10
232.05817866
 20
177.319264072
 11
232.05817866
 21
193.5652488837
  0
LINE
  5
2CE
100
AcDbEntity
  8
KONSTRUKTIONSELEMENTE
100
AcDbLine
 62
7
  6
CONTINUOUS
 10
232.7534132876
 20
70.6321649432
 11
232.7534132876
 21
67.8037378185
  0
LINE
  5
2CF
100
AcDbEntity
  8
BEZUGSACHSEN
100
AcDbLine
 62
7
  6
CONTINUOUS
 10
221.6374857129
 20
193.7385657183
 11
221.61065333
 21
193.4197205755
  0
LINE
  5
2D0
100
AcDbEntity
  8
BEZUGSACHSEN
100
AcDbLine
 62
7
  6
CONTINUOUS
 10
222.8606314798
 20
194.5231179432
 11
222.8472160001
 21
194.3636939945
  0
LINE
  5
2D1
100
AcDbEntity
  8
BEZUGSACHSEN
100
AcDbLine
 62
7
  6
CONTINUOUS
 10
223.117928557
 20
193.2836632295
 11
223.0910961741
 21
192.9648180868
  0
LINE
  5
2D2
100
AcDbEntity
  8
BEZUGSACHSEN
100
AcDbLine
 62
7
  6
CONTINUOUS
 10
223.4691368392
 20
193.1601706475
 11
223.4557213595
 21
193.0007466988
  0
LINE
  5
2D3
100
AcDbEntity
  8
BEZUGSACHSEN
100
AcDbLine
 62
7
  6
CONTINUOUS
 10
221.2417648862
 20
193.7628124336
 11
221.1704199653
 21
193.3447214275
  0
LINE
  5
2D4
100
AcDbEntity
  8
BEZUGSACHSEN
100
AcDbLine
 62
7
  6
CONTINUOUS
 10
225.0392277092
 20
194.2002508014
 11
224.9678842317
 21
193.7821570509
  0
LINE
  5
2D5
100
AcDbEntity
  8
BEZUGSACHSEN
100
AcDbLine
 62
7
  6
CONTINUOUS
 10
216.363694913
 20
200.9088549844
 11
215.9520046839
 21
198.9004353948
  0
LINE
  5
2D6
100
AcDbEntity
  8
BEZUGSACHSEN
100
AcDbLine
 62
7
  6
CONTINUOUS
 10
215.9256176652
 20
200.9561208891
 11
215.5368339523
 21
199.1294584981
  0
LINE
  5
2D7
100
AcDbEntity
  8
BEZUGSACHSEN
100
AcDbLine
 62
7
  6
CONTINUOUS
 10
217.4272104601
 20
199.0677377301
 11
217.3663501652
 21
198.7851844917
  0
LINE
  5
2D8
100
AcDbEntity
  8
BEZUGSACHSEN
100
AcDbLine
 62
7
  6
CONTINUOUS
 10
217.0807324749
 20
202.0684576084
 11
217.0167193936
 21
201.8121796408
  0
LINE
  5
2D9
100
AcDbEntity
  8
BEZUGSACHSEN
100
AcDbLine
 62
7
  6
CONTINUOUS
 10
217.4365938776
 20
201.8721516634
 11
217.3725807963
 21
201.6158736958
  0
LINE
  5
2DA
100
AcDbEntity
  8
BEZUGSACHSEN
100
AcDbLine
 62
7
  6
CONTINUOUS
 10
197.0520943689
 20
198.1471280077
 11
197.1507523608
 21
198.4515117131
  0
LINE
  5
2DB
100
AcDbEntity
  8
KONSTRUKTIONSELEMENTE
100
AcDbLine
 62
7
  6
CONTINUOUS
 10
251.3055523353
 20
99.3288854693
 11
251.3055523353
 21
96.5004583445
  0
LINE
  5
2DC
100
AcDbEntity
  8
0
100
AcDbLine
 62
7
  6
CONTINUOUS
 10
229.4621996221
 20
165.1061429266
 11
232.05817866
 21
177.319264072
  0
LINE
  5
2DD
100
AcDbEntity
  8
BEZUGSACHSEN
100
AcDbLine
 62
7
  6
CONTINUOUS
 10
223.3008647982
 20
194.5981170673
 11
223.1984242823
 21
194.2402014124
  0
LINE
  5
2DE
100
AcDbEntity
  8
BEZUGSACHSEN
100
AcDbLine
 62
7
  6
CONTINUOUS
 10
223.4557213595
 20
193.0007466988
 11
223.3532808436
 21
192.6428310439
  0
LINE
  5
2DF
100
AcDbEntity
  8
BEZUGSACHSEN
100
AcDbLine
 62
7
  6
CONTINUOUS
 10
224.6300914292
 20
194.0650735817
 11
224.5276509133
 21
193.7071579268
  0
LINE
  5
2E0
100
AcDbEntity
  8
BEZUGSACHSEN
100
AcDbLine
 62
7
  6
CONTINUOUS
 10
217.0615352432
 20
199.2644560373
 11
216.9458506041
 21
198.9168075139
  0
LINE
  5
2E1
100
AcDbEntity
  8
BEZUGSACHSEN
100
AcDbLine
 62
7
  6
CONTINUOUS
 10
215.05817866
 20
202.6090320282
 11
215.6302888413
 21
203.6461474944
  0
LINE
  5
2E2
100
AcDbEntity
  8
BEZUGSACHSEN
100
AcDbLine
 62
7
  6
CONTINUOUS
 10
196.5193078421
 20
198.2563047671
 11
196.6725610762
 21
198.4954009696
  0
LINE
  5
2E3
100
AcDbEntity
  8
BEZUGSACHSEN
100
AcDbLine
 62
7
  6
CONTINUOUS
 10
196.8468792471
 20
197.8645798067
 11
197.0520943689
 21
198.1471280077
  0
LINE
  5
2E4
100
AcDbEntity
  8
0
100
AcDbLine
 62
7
  6
CONTINUOUS
 10
191.6073289413
 20
206.7085266866
 11
182.05817866
 21
193.5652488837
  0
LINE
  5
2E5
100
AcDbEntity
  8
BEZUGSACHSEN
100
AcDbLine
 62
7
  6
CONTINUOUS
 10
190.6911797264
 20
197.1462757772
 11
191.7194306622
 21
198.4054317663
  0
LINE
  5
2E6
100
AcDbEntity
  8
BEZUGSACHSEN
100
AcDbLine
 62
7
  6
CONTINUOUS
 10
191.2778382277
 20
197.1919105481
 11
192.0918701776
 21
198.1887423228
  0
LINE
  5
2E7
100
AcDbEntity
  8
BEZUGSACHSEN
100
AcDbLine
 62
7
  6
CONTINUOUS
 10
192.2666257143
 20
196.3844477181
 11
193.0806576643
 21
197.3812794928
  0
LINE
  5
2E8
100
AcDbEntity
  8
0
100
AcDbLine
 62
7
  6
CONTINUOUS
 10
277.05817866
 20
336.1922564778
 11
277.05817866
 21
456.1922564778
  0
LINE
  5
2E9
100
AcDbEntity
  8
BEZUGSACHSEN
100
AcDbLine
 62
7
  6
CONTINUOUS
 10
221.3753010435
 20
194.0605527612
 11
221.2417648862
 21
193.7628124336
  0
LINE
  5
2EA
100
AcDbEntity
  8
BEZUGSACHSEN
100
AcDbLine
 62
7
  6
CONTINUOUS
 10
222.9941676106
 20
194.8208582571
 11
222.8606314798
 21
194.5231179432
  0
LINE
  5
2EB
100
AcDbEntity
  8
BEZUGSACHSEN
100
AcDbLine
 62
7
  6
CONTINUOUS
 10
224.9678842317
 20
193.7821570509
 11
224.8343481008
 21
193.484416737
  0
LINE
  5
2EC
100
AcDbEntity
  8
BEZUGSACHSEN
100
AcDbLine
 62
7
  6
CONTINUOUS
 10
220.1478810562
 20
199.6693023119
 11
220.0352119249
 21
199.4303846487
  0
LINE
  5
2ED
100
AcDbEntity
  8
BEZUGSACHSEN
100
AcDbLine
 62
7
  6
CONTINUOUS
 10
217.5947049295
 20
199.3717494516
 11
217.4272104601
 21
199.0677377301
  0
LINE
  5
2EE
100
AcDbEntity
  8
BEZUGSACHSEN
100
AcDbLine
 62
7
  6
CONTINUOUS
 10
215.1639916784
 20
201.9594409378
 11
215.7806106315
 21
203.0772414487
  0
LINE
  5
2EF
100
AcDbEntity
  8
BEZUGSACHSEN
100
AcDbLine
 62
7
  6
CONTINUOUS
 10
217.0167193936
 20
201.8121796408
 11
216.8933955109
 21
201.5886193716
  0
LINE
  5
2F0
100
AcDbEntity
  8
BEZUGSACHSEN
100
AcDbLine
 62
7
  6
CONTINUOUS
 10
217.3725807963
 20
201.6158736958
 11
217.2081489911
 21
201.3177934065
  0
LINE
  5
2F1
100
AcDbEntity
  8
BEZUGSACHSEN
100
AcDbLine
 62
7
  6
CONTINUOUS
 10
217.2838552041
 20
199.6335619995
 11
217.0615352432
 21
199.2644560373
  0
LINE
  5
2F2
100
AcDbEntity
  8
BEZUGSACHSEN
100
AcDbLine
 62
7
  6
CONTINUOUS
 10
220.5683817647
 20
199.5376782453
 11
220.3460616502
 21
199.1685721008
  0
LINE
  5
2F3
100
AcDbEntity
  8
BEZUGSACHSEN
100
AcDbLine
 62
7
  6
CONTINUOUS
 10
221.8466300297
 20
194.0753765717
 11
221.6374857129
 21
193.7385657183
  0
LINE
  5
2F4
100
AcDbEntity
  8
BEZUGSACHSEN
100
AcDbLine
 62
7
  6
CONTINUOUS
 10
223.0910961741
 20
192.9648180868
 11
222.8819518044
 21
192.628007206
  0
LINE
  5
2F5
100
AcDbEntity
  8
BEZUGSACHSEN
100
AcDbLine
 62
7
  6
CONTINUOUS
 10
192.6621406351
 20
196.0614626464
 11
193.3904850275
 21
196.9533647804
  0
LINE
  5
2F6
100
AcDbEntity
  8
BEZUGSACHSEN
100
AcDbLine
 62
7
  6
CONTINUOUS
 10
193.7893803085
 20
194.6162257475
 11
194.0464430425
 21
194.9310147447
  0
LINE
  5
2F7
100
AcDbEntity
  8
BEZUGSACHSEN
100
AcDbLine
 62
7
  6
CONTINUOUS
 10
195.1175377264
 20
196.2426355168
 11
195.417444331
 21
196.609889447
  0
LINE
  5
2F8
100
AcDbEntity
  8
BEZUGSACHSEN
100
AcDbLine
 62
7
  6
CONTINUOUS
 10
193.2416613714
 20
200.064048793
 11
193.5534340642
 21
200.3247618682
  0
LINE
  5
2F9
100
AcDbEntity
  8
BEZUGSACHSEN
100
AcDbLine
 62
7
  6
CONTINUOUS
 10
194.8005242408
 20
201.3676136715
 11
195.1122967849
 21
201.6283266223
  0
LINE
  5
2FA
100
AcDbEntity
  8
BEZUGSACHSEN
100
AcDbLine
 62
7
  6
CONTINUOUS
 10
196.3114593802
 20
198.0824960503
 11
196.5193078421
 21
198.2563047671
  0
LINE
  5
2FB
100
AcDbEntity
  8
RUNDUNGEN
100
AcDbLine
 62
7
  6
CONTINUOUS
 10
227.3261278525
 20
161.406358093
 11
229.4621996221
 21
165.1061429266
  0
LINE
  5
2FC
100
AcDbEntity
  8
BEZUGSACHSEN
100
AcDbLine
 62
7
  6
CONTINUOUS
 10
223.4654965439
 20
194.8356820403
 11
223.3008647982
 21
194.5981170673
  0
LINE
  5
2FD
100
AcDbEntity
  8
BEZUGSACHSEN
100
AcDbLine
 62
7
  6
CONTINUOUS
 10
224.5276509133
 20
193.7071579268
 11
224.3630189557
 21
193.4695928444
  0
LINE
  5
2FE
100
AcDbEntity
  8
BEZUGSACHSEN
100
AcDbLine
 62
7
  6
CONTINUOUS
 10
217.2838552041
 20
199.6335619995
 11
218.1062376548
 21
200.6099757008
  0
LINE
  5
2FF
100
AcDbEntity
  8
BEZUGSACHSEN
100
AcDbLine
 62
7
  6
CONTINUOUS
 10
217.5947049295
 20
199.3717494516
 11
218.4170873802
 21
200.3481631529
  0
LINE
  5
300
100
AcDbEntity
  8
BEZUGSACHSEN
100
AcDbLine
 62
7
  6
CONTINUOUS
 10
219.0755079125
 20
199.2372553045
 11
218.7465549629
 21
198.8466898605
  0
LINE
  5
301
100
AcDbEntity
  8
BEZUGSACHSEN
100
AcDbLine
 62
7
  6
CONTINUOUS
 10
219.212829551
 20
198.4539710386
 11
218.7742255414
 21
197.9332170221
  0
LINE
  5
302
100
AcDbEntity
  8
BEZUGSACHSEN
100
AcDbLine
 62
7
  6
CONTINUOUS
 10
219.8526322259
 20
198.5827239347
 11
219.0302497752
 21
197.6063102335
  0
LINE
  5
303
100
AcDbEntity
  8
BEZUGSACHSEN
100
AcDbLine
 62
7
  6
CONTINUOUS
 10
223.2344074894
 20
195.0974937422
 11
222.9941676106
 21
194.8208582571
  0
LINE
  5
304
100
AcDbEntity
  8
BEZUGSACHSEN
100
AcDbLine
 62
7
  6
CONTINUOUS
 10
216.710761057
 20
201.3977772183
 11
216.8933955109
 21
201.5886193716
  0
LINE
  5
305
100
AcDbEntity
  8
BEZUGSACHSEN
100
AcDbLine
 62
7
  6
CONTINUOUS
 10
217.0255145372
 20
201.1269512532
 11
217.2081489911
 21
201.3177934065
  0
LINE
  5
306
100
AcDbEntity
  8
BEZUGSACHSEN
100
AcDbLine
 62
7
  6
CONTINUOUS
 10
221.6911491082
 20
194.3762587858
 11
221.3753010435
 21
194.0605527612
  0
LINE
  5
307
100
AcDbEntity
  8
BEZUGSACHSEN
100
AcDbLine
 62
7
  6
CONTINUOUS
 10
223.3532808436
 20
192.6428310439
 11
223.0374327259
 21
192.3271249919
  0
LINE
  5
308
100
AcDbEntity
  8
BEZUGSACHSEN
100
AcDbLine
 62
7
  6
CONTINUOUS
 10
224.8343481008
 20
193.484416737
 11
224.5184998772
 21
193.1687106303
  0
LINE
  5
309
100
AcDbEntity
  8
BEZUGSACHSEN
100
AcDbLine
 62
7
  6
CONTINUOUS
 10
218.1062376548
 20
200.6099757008
 11
218.4321727634
 21
200.8918123276
  0
LINE
  5
30A
100
AcDbEntity
  8
BEZUGSACHSEN
100
AcDbLine
 62
7
  6
CONTINUOUS
 10
196.6390307852
 20
197.6907710899
 11
196.8468792471
 21
197.8645798067
  0
LINE
  5
30B
100
AcDbEntity
  8
BEZUGSACHSEN
100
AcDbLine
 62
7
  6
CONTINUOUS
 10
218.4170873802
 20
200.3481631529
 11
218.6881968436
 21
200.5649053567
  0
LINE
  5
30C
100
AcDbEntity
  8
BEZUGSACHSEN
100
AcDbLine
 62
7
  6
CONTINUOUS
 10
218.7591402734
 20
197.389567984
 11
219.0302497752
 21
197.6063102335
  0
LINE
  5
30D
100
AcDbEntity
  8
BEZUGSACHSEN
100
AcDbLine
 62
7
  6
CONTINUOUS
 10
191.7194306622
 20
198.4054317663
 11
191.9995688014
 21
198.6139251355
  0
LINE
  5
30E
100
AcDbEntity
  8
BEZUGSACHSEN
100
AcDbLine
 62
7
  6
CONTINUOUS
 10
196.1971185848
 20
202.3856632566
 11
197.6216824142
 21
203.16885652
  0
LINE
  5
30F
100
AcDbEntity
  8
BEZUGSACHSEN
100
AcDbLine
 62
7
  6
CONTINUOUS
 10
196.7992692695
 20
202.1339902067
 11
197.8676921415
 21
202.7213851543
  0
LINE
  5
310
100
AcDbEntity
  8
BEZUGSACHSEN
100
AcDbLine
 62
7
  6
CONTINUOUS
 10
198.2343262132
 20
199.5237402077
 11
199.05817866
 21
199.9766758172
  0
LINE
  5
311
100
AcDbEntity
  8
BEZUGSACHSEN
100
AcDbLine
 62
7
  6
CONTINUOUS
 10
198.1241950119
 20
198.8804704738
 11
199.05817866
 21
199.3939537494
  0
LINE
  5
312
100
AcDbEntity
  8
BEZUGSACHSEN
100
AcDbLine
 62
7
  6
CONTINUOUS
 10
192.0918701776
 20
198.1887423228
 11
192.2863206981
 21
198.2923059762
  0
LINE
  5
313
100
AcDbEntity
  8
BEZUGSACHSEN
100
AcDbLine
 62
7
  6
CONTINUOUS
 10
196.3246251983
 20
197.538797872
 11
196.6390307852
 21
197.6907710899
  0
LINE
  5
314
100
AcDbEntity
  8
0
100
AcDbLine
 62
7
  6
CONTINUOUS
 10
199.05817866
 20
209.1294545139
 11
191.6073289413
 21
206.7085266866
  0
LINE
  5
315
100
AcDbEntity
  8
0
100
AcDbLine
 62
7
  6
CONTINUOUS
 10
299.05817866
 20
336.1922564778
 11
299.05817866
 21
456.1922564778
  0
LINE
  5
316
100
AcDbEntity
  8
BEZUGSACHSEN
100
AcDbLine
 62
7
  6
CONTINUOUS
 10
218.5579415696
 20
197.7815690589
 11
218.7742255414
 21
197.9332170221
  0
LINE
  5
317
100
AcDbEntity
  8
BEZUGSACHSEN
100
AcDbLine
 62
7
  6
CONTINUOUS
 10
216.6831521457
 20
200.9270241451
 11
217.0255145372
 21
201.1269512532
  0
LINE
  5
318
100
AcDbEntity
  8
BEZUGSACHSEN
100
AcDbLine
 62
7
  6
CONTINUOUS
 10
218.4321727634
 20
200.8918123276
 11
218.7550920954
 21
201.0649177752
  0
LINE
  5
319
100
AcDbEntity
  8
BEZUGSACHSEN
100
AcDbLine
 62
7
  6
CONTINUOUS
 10
221.6911491082
 20
194.3762587858
 11
221.9179735073
 21
194.4934703222
  0
LINE
  5
31A
100
AcDbEntity
  8
BEZUGSACHSEN
100
AcDbLine
 62
7
  6
CONTINUOUS
 10
223.2344074894
 20
195.0974937422
 11
223.4612318884
 21
195.2147052786
  0
LINE
  5
31B
100
AcDbEntity
  8
BEZUGSACHSEN
100
AcDbLine
 62
7
  6
CONTINUOUS
 10
221.8466300297
 20
194.0753765717
 11
222.0734544288
 21
194.1925881081
  0
LINE
  5
31C
100
AcDbEntity
  8
BEZUGSACHSEN
100
AcDbLine
 62
7
  6
CONTINUOUS
 10
223.61671281
 20
194.9138230645
 11
223.4654965439
 21
194.8356820403
  0
LINE
  5
31D
100
AcDbEntity
  8
BEZUGSACHSEN
100
AcDbLine
 62
7
  6
CONTINUOUS
 10
224.3630189557
 20
193.4695928444
 11
224.2118026897
 21
193.3914518201
  0
LINE
  5
31E
100
AcDbEntity
  8
BEZUGSACHSEN
100
AcDbLine
 62
7
  6
CONTINUOUS
 10
222.8819518044
 20
192.628007206
 11
222.6551274053
 21
192.5107956696
  0
LINE
  5
31F
100
AcDbEntity
  8
BEZUGSACHSEN
100
AcDbLine
 62
7
  6
CONTINUOUS
 10
224.5184998772
 20
193.1687106303
 11
224.2916754782
 21
193.0514990939
  0
LINE
  5
320
100
AcDbEntity
  8
BEZUGSACHSEN
100
AcDbLine
 62
7
  6
CONTINUOUS
 10
223.0374327259
 20
192.3271249919
 11
222.8106083268
 21
192.2099134555
  0
LINE
  5
321
100
AcDbEntity
  8
BEZUGSACHSEN
100
AcDbLine
 62
7
  6
CONTINUOUS
 10
216.5099251968
 20
201.3141722434
 11
216.710761057
 21
201.3977772183
  0
LINE
  5
322
100
AcDbEntity
  8
BEZUGSACHSEN
100
AcDbLine
 62
7
  6
CONTINUOUS
 10
196.0490159879
 20
197.973975068
 11
196.3114593802
 21
198.0824960503
  0
LINE
  5
323
100
AcDbEntity
  8
BEZUGSACHSEN
100
AcDbLine
 62
7
  6
CONTINUOUS
 10
218.6881968436
 20
200.5649053567
 11
218.9562896518
 21
200.6729177447
  0
LINE
  5
324
100
AcDbEntity
  8
0
100
AcDbLine
 62
7
  6
CONTINUOUS
 10
226.2456395416
 20
147.9739100643
 11
222.6230544429
 21
143.6566812585
  0
LINE
  5
325
100
AcDbEntity
  8
RUNDUNGEN
100
AcDbLine
 62
7
  6
CONTINUOUS
 10
226.5902675463
 20
148.384621727
 11
226.2456395416
 21
147.9739100643
  0
LINE
  5
326
100
AcDbEntity
  8
KONSTRUKTIONSELEMENTE
100
AcDbLine
 62
7
  6
CONTINUOUS
 10
225.5123788837
 20
73.4923337913
 11
239.5433051735
 21
94.7687656756
  0
LINE
  5
327
100
AcDbEntity
  8
KONSTRUKTIONSELEMENTE
100
AcDbLine
 62
7
  6
CONTINUOUS
 10
232.5242788997
 20
67.3935747703
 11
232.7159364024
 21
67.684203323
  0
LINE
  5
328
100
AcDbEntity
  8
KONSTRUKTIONSELEMENTE
100
AcDbLine
 62
7
  6
CONTINUOUS
 10
250.4659033955
 20
94.6001713693
 11
250.9307834834
 21
95.3051133896
  0
LINE
  5
329
100
AcDbEntity
  8
KONSTRUKTIONSELEMENTE
100
AcDbLine
 62
7
  6
CONTINUOUS
 10
200.2962864722
 20
113.4908541162
 11
174.1834098082
 21
104.8806733848
  0
LINE
  5
32A
100
AcDbEntity
  8
KONSTRUKTIONSELEMENTE
100
AcDbLine
 62
7
  6
CONTINUOUS
 10
200.2962864722
 20
110.6624269915
 11
174.1834098082
 21
102.05224626
  0
LINE
  5
32B
100
AcDbEntity
  8
KONSTRUKTIONSELEMENTE
100
AcDbLine
 62
7
  6
CONTINUOUS
 10
177.6376414184
 20
98.822054007
 11
172.9248409258
 21
97.2681055656
  0
LINE
  5
32C
100
AcDbEntity
  8
KONSTRUKTIONSELEMENTE
100
AcDbLine
 62
7
  6
CONTINUOUS
 10
174.688599489
 20
97.7327096907
 11
178.1462839484
 21
98.872809592
  0
LINE
  5
32D
100
AcDbEntity
  8
KONSTRUKTIONSELEMENTE
100
AcDbLine
 62
7
  6
CONTINUOUS
 10
177.8835935478
 20
94.3020490047
 11
181.2175140427
 21
95.4013402998
  0
LINE
  5
32E
100
AcDbEntity
  8
KONSTRUKTIONSELEMENTE
100
AcDbLine
 62
7
  6
CONTINUOUS
 10
177.8835935478
 20
92.0393073049
 11
181.5088246959
 21
93.2346522599
  0
LINE
  5
32F
100
AcDbEntity
  8
KONSTRUKTIONSELEMENTE
100
AcDbLine
 62
7
  6
CONTINUOUS
 10
177.4722134221
 20
90.6553336072
 11
182.1850139147
 21
92.2092820486
  0
LINE
  5
330
100
AcDbEntity
  8
KONSTRUKTIONSELEMENTE
100
AcDbLine
 62
7
  6
CONTINUOUS
 10
177.4722134221
 20
90.3724908947
 11
182.1850139147
 21
91.9264393361
  0
LINE
  5
331
100
AcDbEntity
  8
KONSTRUKTIONSELEMENTE
100
AcDbLine
 62
7
  6
CONTINUOUS
 10
395.3141411132
 20
57.2752112262
 11
398.1425682379
 21
54.4467841015
  0
LINE
  5
332
100
AcDbEntity
  8
KONSTRUKTIONSELEMENTE
100
AcDbLine
 62
7
  6
CONTINUOUS
 10
409.4562767369
 20
65.7604926004
 11
406.6278496122
 21
68.5889197252
  0
LINE
  5
333
100
AcDbEntity
  8
KONSTRUKTIONSELEMENTE
100
AcDbLine
 62
7
  6
CONTINUOUS
 10
440.9638897021
 20
97.2681055656
 11
440.4247044368
 21
97.2946057253
  0
LINE
  5
334
100
AcDbEntity
  8
KONSTRUKTIONSELEMENTE
100
AcDbLine
 62
7
  6
CONTINUOUS
 10
434.0682750312
 20
90.3724908947
 11
433.7854323187
 21
90.6553336072
  0
LINE
  5
335
100
AcDbEntity
  8
KONSTRUKTIONSELEMENTE
100
AcDbLine
 62
7
  6
CONTINUOUS
 10
431.2398479064
 20
93.2009180194
 11
431.5226906189
 21
92.918075307
  0
LINE
  5
336
100
AcDbEntity
  8
KONSTRUKTIONSELEMENTE
100
AcDbLine
 62
7
  6
CONTINUOUS
 10
438.4382939539
 20
98.3011669063
 11
439.168523918
 21
97.5709369422
  0
LINE
  5
337
100
AcDbEntity
  8
BEZUGSACHSEN
100
AcDbLine
 62
7
  6
CONTINUOUS
 10
452.5897903893
 20
114.5508605023
 11
455.4182175141
 21
111.7224333776
  0
LINE
  5
338
100
AcDbEntity
  8
KONSTRUKTIONSELEMENTE
100
AcDbLine
 62
7
  6
CONTINUOUS
 10
449.0542564834
 20
119.8541613612
 11
452.5897903893
 21
116.3186274553
  0
LINE
  5
339
100
AcDbEntity
  8
KONSTRUKTIONSELEMENTE
100
AcDbLine
 62
7
  6
CONTINUOUS
 10
449.407809874
 20
120.2077147518
 11
452.9433437799
 21
116.6721808459
  0
LINE
  5
33A
100
AcDbEntity
  8
0
100
AcDbLine
 62
7
  6
CONTINUOUS
 10
551.0048099423
 20
165.1061429266
 11
557.1144170368
 21
165.1061429266
  0
LINE
  5
33B
100
AcDbEntity
  8
0
100
AcDbLine
 62
7
  6
CONTINUOUS
 10
551.0855721823
 20
177.319264072
 11
557.0336547969
 21
177.319264072
  0
LINE
  5
33C
100
AcDbEntity
  8
0
100
AcDbLine
 62
7
  6
CONTINUOUS
 10
551.1329854226
 20
193.5652488837
 11
556.9862415566
 21
193.5652488837
  0
LINE
  5
33D
100
AcDbEntity
  8
BEZUGSACHSEN
100
AcDbLine
 62
7
  6
CONTINUOUS
 10
558.8683846299
 20
194.6162257475
 11
559.0956793946
 21
194.6162257475
  0
LINE
  5
33E
100
AcDbEntity
  8
BEZUGSACHSEN
100
AcDbLine
 62
7
  6
CONTINUOUS
 10
558.8741096586
 20
196.2426355168
 11
559.1196306277
 21
196.2426355168
  0
LINE
  5
33F
100
AcDbEntity
  8
BEZUGSACHSEN
100
AcDbLine
 62
7
  6
CONTINUOUS
 10
558.128922527
 20
197.1462757772
 11
558.3592196532
 21
197.1462757772
  0
LINE
  5
340
100
AcDbEntity
  8
BEZUGSACHSEN
100
AcDbLine
 62
7
  6
CONTINUOUS
 10
559.0596134896
 20
197.3037320313
 11
559.0803799927
 21
197.3037320313
  0
LINE
  5
341
100
AcDbEntity
  8
BEZUGSACHSEN
100
AcDbLine
 62
7
  6
CONTINUOUS
 10
559.0596134896
 20
197.3480865632
 11
559.1164424832
 21
197.3480865632
  0
LINE
  5
342
100
AcDbEntity
  8
BEZUGSACHSEN
100
AcDbLine
 62
7
  6
CONTINUOUS
 10
558.4511965899
 20
197.3812794928
 11
558.693283058
 21
197.3812794928
  0
LINE
  5
343
100
AcDbEntity
  8
BEZUGSACHSEN
100
AcDbLine
 62
7
  6
CONTINUOUS
 10
558.827446421
 20
197.4955641439
 11
559.0849055244
 21
197.4955641439
  0
LINE
  5
344
100
AcDbEntity
  8
BEZUGSACHSEN
100
AcDbLine
 62
7
  6
CONTINUOUS
 10
559.0849055244
 20
197.5011681084
 11
559.1368063855
 21
197.5011681084
  0
LINE
  5
345
100
AcDbEntity
  8
BEZUGSACHSEN
100
AcDbLine
 62
7
  6
CONTINUOUS
 10
558.7617685656
 20
197.5829056417
 11
559.0174107955
 21
197.5829056417
  0
LINE
  5
346
100
AcDbEntity
  8
BEZUGSACHSEN
100
AcDbLine
 62
7
  6
CONTINUOUS
 10
558.4513712814
 20
197.5925048367
 11
558.6779592744
 21
197.5925048367
  0
LINE
  5
347
100
AcDbEntity
  8
BEZUGSACHSEN
100
AcDbLine
 62
7
  6
CONTINUOUS
 10
558.7141761502
 20
197.7571512722
 11
558.9520552616
 21
197.7571512722
  0
LINE
  5
348
100
AcDbEntity
  8
BEZUGSACHSEN
100
AcDbLine
 62
7
  6
CONTINUOUS
 10
558.4538863532
 20
197.8050962431
 11
558.6464725991
 21
197.8050962431
  0
LINE
  5
349
100
AcDbEntity
  8
BEZUGSACHSEN
100
AcDbLine
 62
7
  6
CONTINUOUS
 10
558.4557022605
 20
198.0190535618
 11
558.5991118206
 21
198.0190535618
  0
LINE
  5
34A
100
AcDbEntity
  8
BEZUGSACHSEN
100
AcDbLine
 62
7
  6
CONTINUOUS
 10
558.6612901347
 20
198.0401364597
 11
558.8722959842
 21
198.0401364597
  0
LINE
  5
34B
100
AcDbEntity
  8
BEZUGSACHSEN
100
AcDbLine
 62
7
  6
CONTINUOUS
 10
558.9434401834
 20
198.0824960503
 11
559.0451173696
 21
198.0824960503
  0
LINE
  5
34C
100
AcDbEntity
  8
BEZUGSACHSEN
100
AcDbLine
 62
7
  6
CONTINUOUS
 10
558.456714369
 20
198.1805462484
 11
558.551791771
 21
198.1805462484
  0
LINE
  5
34D
100
AcDbEntity
  8
BEZUGSACHSEN
100
AcDbLine
 62
7
  6
CONTINUOUS
 10
558.8926031589
 20
198.2563047671
 11
559.0470028638
 21
198.2563047671
  0
LINE
  5
34E
100
AcDbEntity
  8
BEZUGSACHSEN
100
AcDbLine
 62
7
  6
CONTINUOUS
 10
558.4729069937
 20
198.2895740014
 11
558.5045108784
 21
198.2895740014
  0
LINE
  5
34F
100
AcDbEntity
  8
BEZUGSACHSEN
100
AcDbLine
 62
7
  6
CONTINUOUS
 10
558.1360293231
 20
198.4054317663
 11
558.377633192
 21
198.4054317663
  0
LINE
  5
350
100
AcDbEntity
  8
BEZUGSACHSEN
100
AcDbLine
 62
7
  6
CONTINUOUS
 10
558.8326789006
 20
198.4954009696
 11
559.032260154
 21
198.4954009696
  0
LINE
  5
351
100
AcDbEntity
  8
BEZUGSACHSEN
100
AcDbLine
 62
7
  6
CONTINUOUS
 10
558.1502063375
 20
198.6139251355
 11
558.3940903442
 21
198.6139251355
  0
LINE
  5
352
100
AcDbEntity
  8
BEZUGSACHSEN
100
AcDbLine
 62
7
  6
CONTINUOUS
 10
558.1954334617
 20
198.6622918812
 11
558.4411682974
 21
198.6622918812
  0
LINE
  5
353
100
AcDbEntity
  8
BEZUGSACHSEN
100
AcDbLine
 62
7
  6
CONTINUOUS
 10
558.769851341
 20
198.7563324623
 11
559.0009220554
 21
198.7563324623
  0
LINE
  5
354
100
AcDbEntity
  8
BEZUGSACHSEN
100
AcDbLine
 62
7
  6
CONTINUOUS
 10
559.0314488788
 20
198.8804704738
 11
559.1420408236
 21
198.8804704738
  0
LINE
  5
355
100
AcDbEntity
  8
BEZUGSACHSEN
100
AcDbLine
 62
7
  6
CONTINUOUS
 10
558.7017529503
 20
199.0390991537
 11
558.953477723
 21
199.0390991537
  0
LINE
  5
356
100
AcDbEntity
  8
BEZUGSACHSEN
100
AcDbLine
 62
7
  6
CONTINUOUS
 10
558.6220298329
 20
199.3437013381
 11
558.8902492675
 21
199.3437013381
  0
LINE
  5
357
100
AcDbEntity
  8
BEZUGSACHSEN
100
AcDbLine
 62
7
  6
CONTINUOUS
 10
559.1457708616
 20
199.9474001851
 11
559.1604541344
 21
199.9474001851
  0
LINE
  5
358
100
AcDbEntity
  8
BEZUGSACHSEN
100
AcDbLine
 62
7
  6
CONTINUOUS
 10
558.1297044561
 20
200.064048793
 11
558.3857857418
 21
200.064048793
  0
LINE
  5
359
100
AcDbEntity
  8
BEZUGSACHSEN
100
AcDbLine
 62
7
  6
CONTINUOUS
 10
558.9318553614
 20
200.1111351553
 11
559.0668765517
 21
200.1111351553
  0
LINE
  5
35A
100
AcDbEntity
  8
BEZUGSACHSEN
100
AcDbLine
 62
7
  6
CONTINUOUS
 10
559.1132646222
 20
200.1437061301
 11
559.1573260037
 21
200.1437061301
  0
LINE
  5
35B
100
AcDbEntity
  8
BEZUGSACHSEN
100
AcDbLine
 62
7
  6
CONTINUOUS
 10
558.8886255076
 20
200.3162458023
 11
559.0512358046
 21
200.3162458023
  0
LINE
  5
35C
100
AcDbEntity
  8
BEZUGSACHSEN
100
AcDbLine
 62
7
  6
CONTINUOUS
 10
558.1335107828
 20
200.3247618682
 11
558.3920359499
 21
200.3247618682
  0
LINE
  5
35D
100
AcDbEntity
  8
BEZUGSACHSEN
100
AcDbLine
 62
7
  6
CONTINUOUS
 10
558.8365512743
 20
200.5633021344
 11
559.0192301473
 21
200.5633021344
  0
LINE
  5
35E
100
AcDbEntity
  8
BEZUGSACHSEN
100
AcDbLine
 62
7
  6
CONTINUOUS
 10
558.7756332654
 20
200.852304047
 11
558.9713553047
 21
200.852304047
  0
LINE
  5
35F
100
AcDbEntity
  8
BEZUGSACHSEN
100
AcDbLine
 62
7
  6
CONTINUOUS
 10
558.7058569008
 20
201.183251219
 11
558.9079309435
 21
201.183251219
  0
LINE
  5
360
100
AcDbEntity
  8
BEZUGSACHSEN
100
AcDbLine
 62
7
  6
CONTINUOUS
 10
558.1335107814
 20
201.3676136715
 11
558.4013049363
 21
201.3676136715
  0
LINE
  5
361
100
AcDbEntity
  8
BEZUGSACHSEN
100
AcDbLine
 62
7
  6
CONTINUOUS
 10
558.1297044561
 20
201.6283266223
 11
558.3996739983
 21
201.6283266223
  0
LINE
  5
362
100
AcDbEntity
  8
BEZUGSACHSEN
100
AcDbLine
 62
7
  6
CONTINUOUS
 10
558.5095116471
 20
202.3019297378
 11
558.6714273077
 21
202.3019297378
  0
LINE
  5
363
100
AcDbEntity
  8
BEZUGSACHSEN
100
AcDbLine
 62
7
  6
CONTINUOUS
 10
558.1280985101
 20
202.3856632566
 11
558.4047468364
 21
202.3856632566
  0
LINE
  5
364
100
AcDbEntity
  8
BEZUGSACHSEN
100
AcDbLine
 62
7
  6
CONTINUOUS
 10
558.5137486097
 20
202.5676110534
 11
558.6086781598
 21
202.5676110534
  0
LINE
  5
365
100
AcDbEntity
  8
BEZUGSACHSEN
100
AcDbLine
 62
7
  6
CONTINUOUS
 10
558.5148320501
 20
202.7260807155
 11
558.5618656361
 21
202.7260807155
  0
LINE
  5
366
100
AcDbEntity
  8
BEZUGSACHSEN
100
AcDbLine
 62
7
  6
CONTINUOUS
 10
558.1362198699
 20
203.16885652
 11
558.4201949546
 21
203.16885652
  0
LINE
  5
367
100
AcDbEntity
  8
BEZUGSACHSEN
100
AcDbLine
 62
7
  6
CONTINUOUS
 10
558.1506101515
 20
203.2574433468
 11
558.4359932203
 21
203.2574433468
  0
LINE
  5
368
100
AcDbEntity
  8
0
100
AcDbLine
 62
7
  6
CONTINUOUS
 10
551.1329854226
 20
206.7085266866
 11
556.9862415566
 21
206.7085266866
  0
LINE
  5
369
100
AcDbEntity
  8
0
100
AcDbLine
 62
7
  6
CONTINUOUS
 10
556.9862415566
 20
211.7288120838
 11
551.1329854226
 21
211.7288120838
  0
LINE
  5
36A
100
AcDbEntity
  8
BEZUGSACHSEN
100
AcDbLine
 62
7
  6
CONTINUOUS
 10
558.9925770725
 20
197.9741936098
 11
559.0266354061
 21
197.973975068
  0
LINE
  5
36B
100
AcDbEntity
  8
KONSTRUKTIONSELEMENTE
100
AcDbLine
 62
7
  6
CONTINUOUS
 10
506.3299057595
 20
177.1298106373
 11
509.8654396654
 21
173.5942767314
  0
LINE
  5
36C
100
AcDbEntity
  8
KONSTRUKTIONSELEMENTE
100
AcDbLine
 62
7
  6
CONTINUOUS
 10
506.6834591501
 20
177.4833640279
 11
510.218993056
 21
173.947830122
  0
LINE
  5
36D
100
AcDbEntity
  8
KONSTRUKTIONSELEMENTE
100
AcDbLine
 62
7
  6
CONTINUOUS
 10
438.161962737
 20
99.5573474251
 11
438.1354625773
 21
100.0965326904
  0
LINE
  5
36E
100
AcDbEntity
  8
0
100
AcDbLine
 62
7
  6
CONTINUOUS
 10
544.5427493146
 20
148.1929401606
 11
543.2717830429
 21
150.2091054599
  0
LINE
  5
36F
100
AcDbEntity
  8
RUNDUNGEN
100
AcDbLine
 62
7
  6
CONTINUOUS
 10
564.9076897009
 20
160.6384089005
 11
560.0213638759
 21
169.1017734918
  0
LINE
  5
370
100
AcDbEntity
  8
0
100
AcDbLine
 62
7
  6
CONTINUOUS
 10
521.0596134896
 20
213.1922564778
 11
521.0596134896
 21
249.1922564778
  0
LINE
  5
371
100
AcDbEntity
  8
0
100
AcDbLine
 62
7
  6
CONTINUOUS
 10
537.0596134896
 20
213.1922564778
 11
537.0596134896
 21
249.1922564778
  0
LINE
  5
372
100
AcDbEntity
  8
0
100
AcDbLine
 62
7
  6
CONTINUOUS
 10
542.8096134896
 20
151.8089231445
 11
542.8096134896
 21
159.1384089005
  0
LINE
  5
373
100
AcDbEntity
  8
0
100
AcDbLine
 62
7
  6
CONTINUOUS
 10
543.0596134896
 20
537.1922564778
 11
543.0596134896
 21
255.1922564778
  0
LINE
  5
374
100
AcDbEntity
  8
0
100
AcDbLine
 62
7
  6
CONTINUOUS
 10
546.0596134896
 20
166.3752691797
 11
546.0596134896
 21
171.6805397557
  0
LINE
  5
375
100
AcDbEntity
  8
KONSTRUKTIONSELEMENTE
100
AcDbLine
 62
7
  6
CONTINUOUS
 10
556.9862415566
 20
211.7288120838
 11
558.9023747062
 21
201.390282767
  0
LINE
  5
376
100
AcDbEntity
  8
RUNDUNGEN
100
AcDbLine
 62
7
  6
CONTINUOUS
 10
557.2111439783
 20
163.7846663126
 11
557.1144170368
 21
165.1061429266
  0
LINE
  5
377
100
AcDbEntity
  8
0
100
AcDbLine
 62
7
  6
CONTINUOUS
 10
550.9660152731
 20
181.0340819601
 11
551.0855721823
 21
177.319264072
  0
LINE
  5
378
100
AcDbEntity
  8
0
100
AcDbLine
 62
7
  6
CONTINUOUS
 10
557.0336547969
 20
177.319264072
 11
557.1144170368
 21
165.1061429266
  0
LINE
  5
379
100
AcDbEntity
  8
0
100
AcDbLine
 62
7
  6
CONTINUOUS
 10
549.0596134896
 20
200.2202933898
 11
549.0596134896
 21
175.3547743699
  0
LINE
  5
37A
100
AcDbEntity
  8
BEZUGSACHSEN
100
AcDbLine
 62
7
  6
CONTINUOUS
 10
559.0596134896
 20
198.8804704738
 11
559.0596134896
 21
198.6956651161
  0
LINE
  5
37B
100
AcDbEntity
  8
BEZUGSACHSEN
100
AcDbLine
 62
7
  6
CONTINUOUS
 10
559.0596134896
 20
197.4955641439
 11
559.0596134896
 21
196.7339192385
  0
LINE
  5
37C
100
AcDbEntity
  8
BEZUGSACHSEN
100
AcDbLine
 62
7
  6
CONTINUOUS
 10
559.0596134896
 20
196.2426355168
 11
559.0596134896
 21
195.0846213105
  0
LINE
  5
37D
100
AcDbEntity
  8
BEZUGSACHSEN
100
AcDbLine
 62
7
  6
CONTINUOUS
 10
559.0596134896
 20
194.6162257475
 11
559.0596134896
 21
182.8760772986
  0
LINE
  5
37E
100
AcDbEntity
  8
KONSTRUKTIONSELEMENTE
100
AcDbLine
 62
7
  6
CONTINUOUS
 10
559.0596134896
 20
182.8760772986
 11
559.0596134896
 21
175.3547743699
  0
LINE
  5
37F
100
AcDbEntity
  8
RUNDUNGEN
100
AcDbLine
 62
7
  6
CONTINUOUS
 10
559.0596134896
 20
182.8760772887
 11
559.0596134896
 21
175.3547743699
  0
LINE
  5
380
100
AcDbEntity
  8
KONSTRUKTIONSELEMENTE
100
AcDbLine
 62
7
  6
CONTINUOUS
 10
562.0596134896
 20
166.3752691797
 11
562.0596134896
 21
171.6805397557
  0
LINE
  5
381
100
AcDbEntity
  8
0
100
AcDbLine
 62
7
  6
CONTINUOUS
 10
551.0855721823
 20
177.319264072
 11
551.0048099423
 21
165.1061429266
  0
LINE
  5
382
100
AcDbEntity
  8
0
100
AcDbLine
 62
7
  6
CONTINUOUS
 10
557.153211706
 20
181.0340819601
 11
557.0336547969
 21
177.319264072
  0
LINE
  5
383
100
AcDbEntity
  8
0
100
AcDbLine
 62
7
  6
CONTINUOUS
 10
550.9080830009
 20
163.7846663126
 11
551.0048099423
 21
165.1061429266
  0
LINE
  5
384
100
AcDbEntity
  8
0
100
AcDbLine
 62
7
  6
CONTINUOUS
 10
565.0596134896
 20
537.1922564778
 11
565.0596134896
 21
255.1922564778
  0
LINE
  5
385
100
AcDbEntity
  8
RUNDUNGEN
100
AcDbLine
 62
7
  6
CONTINUOUS
 10
565.3096134896
 20
151.8089231445
 11
565.3096134896
 21
159.1384089005
  0
LINE
  5
386
100
AcDbEntity
  8
0
100
AcDbLine
 62
7
  6
CONTINUOUS
 10
571.0596134896
 20
249.1922564778
 11
571.0596134896
 21
213.1922564778
  0
LINE
  5
387
100
AcDbEntity
  8
0
100
AcDbLine
 62
7
  6
CONTINUOUS
 10
549.1182213131
 20
200.858117729
 11
551.1329854226
 21
211.7288120838
  0
LINE
  5
388
100
AcDbEntity
  8
0
100
AcDbLine
 62
7
  6
CONTINUOUS
 10
587.0596134896
 20
249.1922564778
 11
587.0596134896
 21
213.1922564778
  0
LINE
  5
389
100
AcDbEntity
  8
KONSTRUKTIONSELEMENTE
100
AcDbLine
 62
7
  6
CONTINUOUS
 10
446.2258293586
 20
117.0257342365
 11
449.0542564834
 21
119.8541613612
  0
LINE
  5
38A
100
AcDbEntity
  8
KONSTRUKTIONSELEMENTE
100
AcDbLine
 62
7
  6
CONTINUOUS
 10
449.407809874
 20
120.2077147518
 11
452.2362369987
 21
123.0361418766
  0
LINE
  5
38B
100
AcDbEntity
  8
KONSTRUKTIONSELEMENTE
100
AcDbLine
 62
7
  6
CONTINUOUS
 10
503.5014786347
 20
174.3013835126
 11
506.3299057595
 21
177.1298106373
  0
LINE
  5
38C
100
AcDbEntity
  8
KONSTRUKTIONSELEMENTE
100
AcDbLine
 62
7
  6
CONTINUOUS
 10
506.6834591501
 20
177.4833640279
 11
509.5118862748
 21
180.3117911527
  0
LINE
  5
38D
100
AcDbEntity
  8
KONSTRUKTIONSELEMENTE
100
AcDbLine
 62
7
  6
CONTINUOUS
 10
472.7423336531
 20
143.1886851404
 11
483.3489353709
 21
153.7952868582
  0
LINE
  5
38E
100
AcDbEntity
  8
KONSTRUKTIONSELEMENTE
100
AcDbLine
 62
7
  6
CONTINUOUS
 10
475.9243141685
 20
140.006704625
 11
486.5309158863
 21
150.6133063428
  0
LINE
  5
38F
100
AcDbEntity
  8
KONSTRUKTIONSELEMENTE
100
AcDbLine
 62
7
  6
CONTINUOUS
 10
449.7613632646
 20
113.4902003305
 11
452.5897903893
 21
116.3186274553
  0
LINE
  5
390
100
AcDbEntity
  8
KONSTRUKTIONSELEMENTE
100
AcDbLine
 62
7
  6
CONTINUOUS
 10
452.9433437799
 20
116.6721808459
 11
455.7717709046
 21
119.5006079706
  0
LINE
  5
391
100
AcDbEntity
  8
KONSTRUKTIONSELEMENTE
100
AcDbLine
 62
7
  6
CONTINUOUS
 10
507.0370125407
 20
170.7658496066
 11
509.8654396654
 21
173.5942767314
  0
LINE
  5
392
100
AcDbEntity
  8
KONSTRUKTIONSELEMENTE
100
AcDbLine
 62
7
  6
CONTINUOUS
 10
510.218993056
 20
173.947830122
 11
513.0474201808
 21
176.7762572467
  0
LINE
  5
393
100
AcDbEntity
  8
KONSTRUKTIONSELEMENTE
100
AcDbLine
 62
7
  6
CONTINUOUS
 10
542.0387982094
 20
205.4140818848
 11
513.0474201808
 21
176.4227038561
  0
LINE
  5
394
100
AcDbEntity
  8
KONSTRUKTIONSELEMENTE
100
AcDbLine
 62
7
  6
CONTINUOUS
 10
507.0370125407
 20
169.3516360443
 11
488.3283275655
 21
150.6429510691
  0
LINE
  5
395
100
AcDbEntity
  8
KONSTRUKTIONSELEMENTE
100
AcDbLine
 62
7
  6
CONTINUOUS
 10
475.9243141685
 20
138.2389376721
 11
457.2156291933
 21
119.5302526969
  0
LINE
  5
396
100
AcDbEntity
  8
BEZUGSACHSEN
100
AcDbLine
 62
7
  6
CONTINUOUS
 10
452.5895449618
 20
114.5506150748
 11
451.5297840032
 21
113.4908541162
  0
LINE
  5
397
100
AcDbEntity
  8
KONSTRUKTIONSELEMENTE
100
AcDbLine
 62
7
  6
CONTINUOUS
 10
395.3141411132
 20
57.2752112262
 11
451.5297840032
 21
113.4908541162
  0
LINE
  5
398
100
AcDbEntity
  8
KONSTRUKTIONSELEMENTE
100
AcDbLine
 62
7
  6
CONTINUOUS
 10
406.9106923247
 20
68.3060770127
 11
395.5969838257
 21
56.9923685137
  0
LINE
  5
399
100
AcDbEntity
  8
KONSTRUKTIONSELEMENTE
100
AcDbLine
 62
7
  6
CONTINUOUS
 10
431.5226906189
 20
92.918075307
 11
435.2296404165
 21
96.6250251046
  0
LINE
  5
39A
100
AcDbEntity
  8
0
100
AcDbLine
 62
7
  6
CONTINUOUS
 10
543.2115372782
 20
160.6384089005
 11
548.0978631032
 21
169.1017734918
  0
LINE
  5
39B
100
AcDbEntity
  8
KONSTRUKTIONSELEMENTE
100
AcDbLine
 62
7
  6
CONTINUOUS
 10
409.1734340245
 20
66.0433353129
 11
397.8597255255
 21
54.7296268139
  0
LINE
  5
39C
100
AcDbEntity
  8
KONSTRUKTIONSELEMENTE
100
AcDbLine
 62
7
  6
CONTINUOUS
 10
433.7854323187
 20
90.6553336072
 11
437.4923821163
 21
94.3622834048
  0
LINE
  5
39D
100
AcDbEntity
  8
BEZUGSACHSEN
100
AcDbLine
 62
7
  6
CONTINUOUS
 10
455.4179720865
 20
111.7221879501
 11
454.358211128
 21
110.6624269915
  0
LINE
  5
39E
100
AcDbEntity
  8
KONSTRUKTIONSELEMENTE
100
AcDbLine
 62
7
  6
CONTINUOUS
 10
398.1425682379
 20
54.4467841015
 11
454.358211128
 21
110.6624269915
  0
LINE
  5
39F
100
AcDbEntity
  8
KONSTRUKTIONSELEMENTE
100
AcDbLine
 62
7
  6
CONTINUOUS
 10
510.218993056
 20
166.1696555289
 11
491.5103080808
 21
147.4609705538
  0
LINE
  5
3A0
100
AcDbEntity
  8
KONSTRUKTIONSELEMENTE
100
AcDbLine
 62
7
  6
CONTINUOUS
 10
479.1062946838
 20
135.0569571567
 11
460.3976097086
 21
116.3482721815
  0
LINE
  5
3A1
100
AcDbEntity
  8
KONSTRUKTIONSELEMENTE
100
AcDbLine
 62
7
  6
CONTINUOUS
 10
546.2814388965
 20
201.1714411977
 11
517.3395709951
 21
172.2295732962
  0
LINE
  5
3A2
100
AcDbEntity
  8
KONSTRUKTIONSELEMENTE
100
AcDbLine
 62
7
  6
CONTINUOUS
 10
517.6436142585
 20
172.180063169
 11
511.6332066184
 21
166.1696555289
  0
LINE
  5
3A3
100
AcDbEntity
  8
KONSTRUKTIONSELEMENTE
100
AcDbLine
 62
7
  6
CONTINUOUS
 10
460.3679649824
 20
114.9044138929
 11
454.3575573423
 21
108.8940062528
  0
LINE
  5
3A4
100
AcDbEntity
  8
KONSTRUKTIONSELEMENTE
100
AcDbLine
 62
7
  6
CONTINUOUS
 10
491.4806633546
 20
145.6635588745
 11
480.8740616368
 21
135.0569571567
  0
LINE
  5
3A5
100
AcDbEntity
  8
KONSTRUKTIONSELEMENTE
100
AcDbLine
 62
7
  6
CONTINUOUS
 10
494.6626438699
 20
142.4815783592
 11
484.0560421521
 21
131.8749766414
  0
LINE
  5
3A6
100
AcDbEntity
  8
KONSTRUKTIONSELEMENTE
100
AcDbLine
 62
7
  6
CONTINUOUS
 10
521.1791481644
 20
168.6445292631
 11
515.1687405243
 21
162.634121623
  0
LINE
  5
3A7
100
AcDbEntity
  8
KONSTRUKTIONSELEMENTE
100
AcDbLine
 62
7
  6
CONTINUOUS
 10
463.9034988883
 20
111.368879987
 11
457.8930912482
 21
105.3584723469
  0
LINE
  5
3A8
100
AcDbEntity
  8
RUNDUNGEN
100
AcDbLine
 62
7
  6
CONTINUOUS
 10
563.5764776646
 20
148.1929401606
 11
564.8474439363
 21
150.2091054599
  0
ARC
  5
3A9
100
AcDbEntity
  8
KONSTRUKTIONSELEMENTE
100
AcDbCircle
 62
7
  6
CONTINUOUS
 10
198.8048752231
 20
62.2775256737
 40
3.7399682216
100
AcDbArc
 50
67.9069648584
 51
68.6850824746
  0
ARC
  5
3AA
100
AcDbEntity
  8
0
100
AcDbCircle
 62
7
  6
CONTINUOUS
 10
193.0253908298
 20
144.9422575905
 40
2.0
100
AcDbArc
 50
220.0000416102
 51
270.0000267465
  0
ARC
  5
3AB
100
AcDbEntity
  8
RUNDUNGEN
100
AcDbCircle
 62
7
  6
CONTINUOUS
 10
189.05817866
 20
149.6701969464
 40
2.0
100
AcDbArc
 50
180.0
 51
220.0
  0
ARC
  5
3AC
100
AcDbEntity
  8
RUNDUNGEN
100
AcDbCircle
 62
7
  6
CONTINUOUS
 10
185.05817866
 20
160.406358093
 40
2.0
100
AcDbArc
 50
0.0
 51
30.0
  0
ARC
  5
3AD
100
AcDbEntity
  8
KONSTRUKTIONSELEMENTE
100
AcDbCircle
 62
7
  6
CONTINUOUS
 10
201.8087876922
 20
63.4971647599
 40
1.6093910746
100
AcDbArc
 50
0.0208671421
 51
7.9801551546
  0
ARC
  5
3AE
100
AcDbEntity
  8
KONSTRUKTIONSELEMENTE
100
AcDbCircle
 62
7
  6
CONTINUOUS
 10
207.05817866
 20
117.1532564778
 40
28.0
100
AcDbArc
 50
99.3520350576
 51
112.9267093509
  0
ARC
  5
3AF
100
AcDbEntity
  8
KONSTRUKTIONSELEMENTE
100
AcDbCircle
 62
7
  6
CONTINUOUS
 10
207.05817866
 20
117.1532564778
 40
28.0
100
AcDbArc
 50
67.0732906491
 51
80.6479649424
  0
ARC
  5
3B0
100
AcDbEntity
  8
BEZUGSACHSEN
100
AcDbCircle
 62
7
  6
CONTINUOUS
 10
207.05817866
 20
185.4422564778
 40
11.0
100
AcDbArc
 50
136.7212007008
 51
43.2787992992
  0
ARC
  5
3B1
100
AcDbEntity
  8
0
100
AcDbCircle
 62
7
  6
CONTINUOUS
 10
207.05817866
 20
188.1922564778
 40
8.0
100
AcDbArc
 50
180.0
 51
360.0
  0
ARC
  5
3B2
100
AcDbEntity
  8
KONSTRUKTIONSELEMENTE
100
AcDbCircle
 62
7
  6
CONTINUOUS
 10
207.05817866
 20
164.3922564778
 40
4.55
100
AcDbArc
 50
0.0
 51
180.0
  0
ARC
  5
3B3
100
AcDbEntity
  8
KONSTRUKTIONSELEMENTE
100
AcDbCircle
 62
7
  6
CONTINUOUS
 10
215.3114820969
 20
62.2775256739
 40
3.7399682214
100
AcDbArc
 50
111.3149175254
 51
112.0930351416
  0
ARC
  5
3B4
100
AcDbEntity
  8
KONSTRUKTIONSELEMENTE
100
AcDbCircle
 62
7
  6
CONTINUOUS
 10
207.05817866
 20
122.9525109318
 40
2.5
100
AcDbArc
 50
0.0
 51
180.0
  0
ARC
  5
3B5
100
AcDbEntity
  8
KONSTRUKTIONSELEMENTE
100
AcDbCircle
 62
7
  6
CONTINUOUS
 10
207.05817866
 20
105.4421032917
 40
2.5
100
AcDbArc
 50
180.0
 51
360.0
  0
ARC
  5
3B6
100
AcDbEntity
  8
KONSTRUKTIONSELEMENTE
100
AcDbCircle
 62
7
  6
CONTINUOUS
 10
207.05817866
 20
180.2281602079
 40
2.5
100
AcDbArc
 50
171.6386766468
 51
180.0
  0
ARC
  5
3B7
100
AcDbEntity
  8
KONSTRUKTIONSELEMENTE
100
AcDbCircle
 62
7
  6
CONTINUOUS
 10
207.05817866
 20
180.2281602079
 40
2.5
100
AcDbArc
 50
0.0
 51
8.3613233532
  0
ARC
  5
3B8
100
AcDbEntity
  8
KONSTRUKTIONSELEMENTE
100
AcDbCircle
 62
7
  6
CONTINUOUS
 10
207.05817866
 20
162.7177525678
 40
2.5
100
AcDbArc
 50
180.0
 51
360.0
  0
ARC
  5
3B9
100
AcDbEntity
  8
KONSTRUKTIONSELEMENTE
100
AcDbCircle
 62
7
  6
CONTINUOUS
 10
207.05817866
 20
131.7818308909
 40
2.25
100
AcDbArc
 50
180.0
 51
360.0
  0
ARC
  5
3BA
100
AcDbEntity
  8
RUNDUNGEN
100
AcDbCircle
 62
7
  6
CONTINUOUS
 10
229.05817866
 20
160.406358093
 40
2.0
100
AcDbArc
 50
150.0
 51
180.0
  0
ARC
  5
3BB
100
AcDbEntity
  8
0
100
AcDbCircle
 62
7
  6
CONTINUOUS
 10
221.0909660836
 20
144.9422571058
 40
2.0
100
AcDbArc
 50
269.9999849045
 51
319.9999765155
  0
ARC
  5
3BC
100
AcDbEntity
  8
RUNDUNGEN
100
AcDbCircle
 62
7
  6
CONTINUOUS
 10
225.05817866
 20
149.6701969464
 40
2.0
100
AcDbArc
 50
320.0
 51
360.0
  0
CIRCLE
  5
3BD
100
AcDbEntity
  8
BEZUGSACHSEN
100
AcDbCircle
 62
7
  6
CONTINUOUS
 10
221.75817866
 20
154.1922564778
 40
1.75
  0
ARC
  5
3BE
100
AcDbEntity
  8
0
100
AcDbCircle
 62
7
  6
CONTINUOUS
 10
207.05817866
 20
336.1922564778
 40
92.0
100
AcDbArc
 50
180.0
 51
265.011208396
  0
ARC
  5
3BF
100
AcDbEntity
  8
0
100
AcDbCircle
 62
7
  6
CONTINUOUS
 10
207.05817866
 20
336.1922564778
 40
92.0
100
AcDbArc
 50
274.988791604
 51
360.0
  0
ARC
  5
3C0
100
AcDbEntity
  8
0
100
AcDbCircle
 62
7
  6
CONTINUOUS
 10
207.05817866
 20
456.1922564778
 40
92.0
100
AcDbArc
 50
0.0
 51
180.0
  0
ARC
  5
3C1
100
AcDbEntity
  8
0
100
AcDbCircle
 62
7
  6
CONTINUOUS
 10
207.05817866
 20
456.1922564778
 40
70.0
100
AcDbArc
 50
0.0
 51
180.0
  0
ARC
  5
3C2
100
AcDbEntity
  8
0
100
AcDbCircle
 62
7
  6
CONTINUOUS
 10
207.05817866
 20
336.1922564778
 40
70.0
100
AcDbArc
 50
180.0
 51
263.4366429387
  0
ARC
  5
3C3
100
AcDbEntity
  8
0
100
AcDbCircle
 62
7
  6
CONTINUOUS
 10
207.05817866
 20
336.1922564778
 40
70.0
100
AcDbArc
 50
276.5633570613
 51
360.0
  0
ARC
  5
3C4
100
AcDbEntity
  8
0
100
AcDbCircle
 62
7
  6
CONTINUOUS
 10
207.05817866
 20
274.1922564778
 40
8.0
100
AcDbArc
 50
0.0
 51
180.0
  0
ARC
  5
3C5
100
AcDbEntity
  8
BEZUGSACHSEN
100
AcDbCircle
 62
7
  6
CONTINUOUS
 10
416.6856564326
 20
129.9498243705
 40
157.2592410421
100
AcDbArc
 50
25.080201137
 51
25.2447474755
  0
ARC
  5
3C6
100
AcDbEntity
  8
KONSTRUKTIONSELEMENTE
100
AcDbCircle
 62
7
  6
CONTINUOUS
 10
452.0594603034
 20
111.1921032917
 40
8.25
100
AcDbArc
 50
239.0415598584
 51
315.0
  0
ARC
  5
3C7
100
AcDbEntity
  8
KONSTRUKTIONSELEMENTE
100
AcDbCircle
 62
7
  6
CONTINUOUS
 10
452.0594603034
 20
111.1921032917
 40
8.25
100
AcDbArc
 50
135.0
 51
210.9584401416
  0
ARC
  5
3C8
100
AcDbEntity
  8
KONSTRUKTIONSELEMENTE
100
AcDbCircle
 62
7
  6
CONTINUOUS
 10
452.0594603034
 20
111.1921032917
 40
3.25
100
AcDbArc
 50
263.0218177685
 51
315.0
  0
ARC
  5
3C9
100
AcDbEntity
  8
KONSTRUKTIONSELEMENTE
100
AcDbCircle
 62
7
  6
CONTINUOUS
 10
452.0594603034
 20
111.1921032917
 40
3.25
100
AcDbArc
 50
135.0
 51
186.9781822315
  0
ARC
  5
3CA
100
AcDbEntity
  8
BEZUGSACHSEN
100
AcDbCircle
 62
7
  6
CONTINUOUS
 10
426.6297019578
 20
184.2991120143
 40
132.7727062756
100
AcDbArc
 50
5.6521897656
 51
5.7898964304
  0
ARC
  5
3CB
100
AcDbEntity
  8
BEZUGSACHSEN
100
AcDbCircle
 62
7
  6
CONTINUOUS
 10
452.0630016542
 20
187.1901907124
 40
107.6232261296
100
AcDbArc
 50
5.8433097495
 51
6.0062259473
  0
ARC
  5
3CC
100
AcDbEntity
  8
KONSTRUKTIONSELEMENTE
100
AcDbCircle
 62
7
  6
CONTINUOUS
 10
458.0698679435
 20
117.2025109318
 40
8.25
100
AcDbArc
 50
60.8421444573
 51
135.0
  0
ARC
  5
3CD
100
AcDbEntity
  8
KONSTRUKTIONSELEMENTE
100
AcDbCircle
 62
7
  6
CONTINUOUS
 10
458.0698679435
 20
117.2025109318
 40
8.25
100
AcDbArc
 50
315.0
 51
29.1578555427
  0
ARC
  5
3CE
100
AcDbEntity
  8
KONSTRUKTIONSELEMENTE
100
AcDbCircle
 62
7
  6
CONTINUOUS
 10
478.3991879026
 20
137.5318308909
 40
8.0
100
AcDbArc
 50
241.3642958278
 51
315.0
  0
ARC
  5
3CF
100
AcDbEntity
  8
KONSTRUKTIONSELEMENTE
100
AcDbCircle
 62
7
  6
CONTINUOUS
 10
478.3991879026
 20
137.5318308909
 40
8.0
100
AcDbArc
 50
135.0
 51
208.6357041722
  0
ARC
  5
3D0
100
AcDbEntity
  8
KONSTRUKTIONSELEMENTE
100
AcDbCircle
 62
7
  6
CONTINUOUS
 10
489.0057896204
 20
148.1384326087
 40
8.0
100
AcDbArc
 50
61.3642958278
 51
135.0
  0
ARC
  5
3D1
100
AcDbEntity
  8
KONSTRUKTIONSELEMENTE
100
AcDbCircle
 62
7
  6
CONTINUOUS
 10
489.0057896204
 20
148.1384326087
 40
8.0
100
AcDbArc
 50
315.0
 51
28.6357041722
  0
ARC
  5
3D2
100
AcDbEntity
  8
KONSTRUKTIONSELEMENTE
100
AcDbCircle
 62
7
  6
CONTINUOUS
 10
478.3991879026
 20
137.5318308909
 40
3.5
100
AcDbArc
 50
265.1538775079
 51
315.0
  0
ARC
  5
3D3
100
AcDbEntity
  8
KONSTRUKTIONSELEMENTE
100
AcDbCircle
 62
7
  6
CONTINUOUS
 10
478.3991879026
 20
137.5318308909
 40
3.5
100
AcDbArc
 50
135.0
 51
184.8461224921
  0
ARC
  5
3D4
100
AcDbEntity
  8
KONSTRUKTIONSELEMENTE
100
AcDbCircle
 62
7
  6
CONTINUOUS
 10
489.0057896204
 20
148.1384326087
 40
3.5
100
AcDbArc
 50
85.1538775079
 51
135.0
  0
ARC
  5
3D5
100
AcDbEntity
  8
KONSTRUKTIONSELEMENTE
100
AcDbCircle
 62
7
  6
CONTINUOUS
 10
489.0057896204
 20
148.1384326087
 40
3.5
100
AcDbArc
 50
315.0
 51
4.8461224921
  0
ARC
  5
3D6
100
AcDbEntity
  8
KONSTRUKTIONSELEMENTE
100
AcDbCircle
 62
7
  6
CONTINUOUS
 10
458.0698679435
 20
117.2025109318
 40
3.25
100
AcDbArc
 50
88.8837571799
 51
135.0
  0
ARC
  5
3D7
100
AcDbEntity
  8
KONSTRUKTIONSELEMENTE
100
AcDbCircle
 62
7
  6
CONTINUOUS
 10
458.0698679435
 20
117.2025109318
 40
3.25
100
AcDbArc
 50
315.0
 51
1.1162428201
  0
ARC
  5
3D8
100
AcDbEntity
  8
KONSTRUKTIONSELEMENTE
100
AcDbCircle
 62
7
  6
CONTINUOUS
 10
489.8896730969
 20
149.0223160852
 40
2.25
100
AcDbArc
 50
135.0
 51
315.0
  0
ARC
  5
3D9
100
AcDbEntity
  8
KONSTRUKTIONSELEMENTE
100
AcDbCircle
 62
7
  6
CONTINUOUS
 10
477.5153044261
 20
136.6479474144
 40
2.25
100
AcDbArc
 50
315.0
 51
135.0
  0
ARC
  5
3DA
100
AcDbEntity
  8
KONSTRUKTIONSELEMENTE
100
AcDbCircle
 62
7
  6
CONTINUOUS
 10
458.7769747247
 20
117.909617713
 40
2.25
100
AcDbArc
 50
135.0
 51
315.0
  0
ARC
  5
3DB
100
AcDbEntity
  8
BEZUGSACHSEN
100
AcDbCircle
 62
7
  6
CONTINUOUS
 10
455.1943259107
 20
189.9789000514
 40
103.7633333696
100
AcDbArc
 50
4.0909024439
 51
4.2078428735
  0
ARC
  5
3DC
100
AcDbEntity
  8
BEZUGSACHSEN
100
AcDbCircle
 62
7
  6
CONTINUOUS
 10
467.3263543384
 20
189.3713808997
 40
92.4212460147
100
AcDbArc
 50
6.5422088698
 51
6.6730119384
  0
ARC
  5
3DD
100
AcDbEntity
  8
KONSTRUKTIONSELEMENTE
100
AcDbCircle
 62
7
  6
CONTINUOUS
 10
508.6280027983
 20
167.7606457866
 40
2.25
100
AcDbArc
 50
315.0
 51
135.0
  0
ARC
  5
3DE
100
AcDbEntity
  8
BEZUGSACHSEN
100
AcDbCircle
 62
7
  6
CONTINUOUS
 10
492.7073085196
 20
194.2857913079
 40
66.4584082175
100
AcDbArc
 50
3.4251379636
 51
3.6316615385
  0
ARC
  5
3DF
100
AcDbEntity
  8
KONSTRUKTIONSELEMENTE
100
AcDbCircle
 62
7
  6
CONTINUOUS
 10
493.0240379153
 20
198.1433319875
 40
65.1125189298
100
AcDbArc
 50
359.1226058136
 51
0.2306353977
  0
ARC
  5
3E0
100
AcDbEntity
  8
BEZUGSACHSEN
100
AcDbCircle
 62
7
  6
CONTINUOUS
 10
494.8503695834
 20
198.7047237555
 40
63.5279686224
100
AcDbArc
 50
358.5942970915
 51
359.7300680058
  0
ARC
  5
3E1
100
AcDbEntity
  8
BEZUGSACHSEN
100
AcDbCircle
 62
7
  6
CONTINUOUS
 10
496.4566288692
 20
198.4338707045
 40
62.0005700772
100
AcDbArc
 50
358.8522067633
 51
359.7734721103
  0
ARC
  5
3E2
100
AcDbEntity
  8
BEZUGSACHSEN
100
AcDbCircle
 62
7
  6
CONTINUOUS
 10
500.8050902737
 20
197.62670209
 40
57.8887130285
100
AcDbArc
 50
358.7703752113
 51
359.7570904515
  0
ARC
  5
3E3
100
AcDbEntity
  8
BEZUGSACHSEN
100
AcDbCircle
 62
7
  6
CONTINUOUS
 10
501.6293166592
 20
195.0381970548
 40
57.5816941747
100
AcDbArc
 50
2.8134792342
 51
3.0949988956
  0
ARC
  5
3E4
100
AcDbEntity
  8
BEZUGSACHSEN
100
AcDbCircle
 62
7
  6
CONTINUOUS
 10
502.5120192651
 20
197.3043992012
 40
56.2764302191
100
AcDbArc
 50
358.7344469148
 51
359.6426048858
  0
ARC
  5
3E5
100
AcDbEntity
  8
BEZUGSACHSEN
100
AcDbCircle
 62
7
  6
CONTINUOUS
 10
507.8874957916
 20
196.1910230928
 40
51.23239263
100
AcDbArc
 50
358.2385469105
 51
358.590726753
  0
ARC
  5
3E6
100
AcDbEntity
  8
KONSTRUKTIONSELEMENTE
100
AcDbCircle
 62
7
  6
CONTINUOUS
 10
515.3455172196
 20
174.4781602079
 40
8.25
100
AcDbArc
 50
66.346698243
 51
135.0
  0
ARC
  5
3E7
100
AcDbEntity
  8
KONSTRUKTIONSELEMENTE
100
AcDbCircle
 62
7
  6
CONTINUOUS
 10
515.3455172196
 20
174.4781602079
 40
8.25
100
AcDbArc
 50
315.0
 51
23.653301757
  0
ARC
  5
3E8
100
AcDbEntity
  8
KONSTRUKTIONSELEMENTE
100
AcDbCircle
 62
7
  6
CONTINUOUS
 10
509.3351095795
 20
168.4677525678
 40
8.25
100
AcDbArc
 50
240.8421444573
 51
315.0
  0
ARC
  5
3E9
100
AcDbEntity
  8
KONSTRUKTIONSELEMENTE
100
AcDbCircle
 62
7
  6
CONTINUOUS
 10
509.3351095795
 20
168.4677525678
 40
8.25
100
AcDbArc
 50
135.0
 51
209.1578555427
  0
ARC
  5
3EA
100
AcDbEntity
  8
KONSTRUKTIONSELEMENTE
100
AcDbCircle
 62
7
  6
CONTINUOUS
 10
515.3455172196
 20
174.4781602079
 40
3.25
100
AcDbArc
 50
112.8065550031
 51
135.0
  0
ARC
  5
3EB
100
AcDbEntity
  8
KONSTRUKTIONSELEMENTE
100
AcDbCircle
 62
7
  6
CONTINUOUS
 10
515.3455172196
 20
174.4781602079
 40
3.25
100
AcDbArc
 50
315.0
 51
337.1934449969
  0
ARC
  5
3EC
100
AcDbEntity
  8
KONSTRUKTIONSELEMENTE
100
AcDbCircle
 62
7
  6
CONTINUOUS
 10
509.3351095795
 20
168.4677525678
 40
3.25
100
AcDbArc
 50
268.8837571799
 51
315.0
  0
ARC
  5
3ED
100
AcDbEntity
  8
KONSTRUKTIONSELEMENTE
100
AcDbCircle
 62
7
  6
CONTINUOUS
 10
509.3351095795
 20
168.4677525678
 40
3.25
100
AcDbArc
 50
135.0
 51
181.1162428201
  0
ARC
  5
3EE
100
AcDbEntity
  8
KONSTRUKTIONSELEMENTE
100
AcDbCircle
 62
7
  6
CONTINUOUS
 10
515.1687405243
 20
174.3013835126
 40
3.0
100
AcDbArc
 50
135.0
 51
315.0
  0
ARC
  5
3EF
100
AcDbEntity
  8
BEZUGSACHSEN
100
AcDbCircle
 62
7
  6
CONTINUOUS
 10
508.9317016933
 20
196.1708676255
 40
50.1879802478
100
AcDbArc
 50
0.0819319418
 51
0.5012040367
  0
ARC
  5
3F0
100
AcDbEntity
  8
BEZUGSACHSEN
100
AcDbCircle
 62
7
  6
CONTINUOUS
 10
510.0469702421
 20
196.4761747336
 40
49.1544926925
100
AcDbArc
 50
4.2408774656
 51
4.4207158792
  0
ARC
  5
3F1
100
AcDbEntity
  8
KONSTRUKTIONSELEMENTE
100
AcDbCircle
 62
7
  6
CONTINUOUS
 10
513.364080055
 20
200.8443786437
 40
44.7724882316
100
AcDbArc
 50
0.6696040897
 51
1.0032769625
  0
ARC
  5
3F2
100
AcDbEntity
  8
KONSTRUKTIONSELEMENTE
100
AcDbCircle
 62
7
  6
CONTINUOUS
 10
513.3640800881
 20
200.8479967711
 40
44.7724881986
100
AcDbArc
 50
358.9967230374
 51
359.3303960695
  0
ARC
  5
3F3
100
AcDbEntity
  8
BEZUGSACHSEN
100
AcDbCircle
 62
7
  6
CONTINUOUS
 10
514.9133017872
 20
201.2366683682
 40
43.488296102
100
AcDbArc
 50
358.4548878043
 51
358.7984761847
  0
ARC
  5
3F4
100
AcDbEntity
  8
BEZUGSACHSEN
100
AcDbCircle
 62
7
  6
CONTINUOUS
 10
517.6850519136
 20
188.1826819015
 40
43.4722258501
100
AcDbArc
 50
20.0280221325
 51
20.2041340129
  0
ARC
  5
3F5
100
AcDbEntity
  8
BEZUGSACHSEN
100
AcDbCircle
 62
7
  6
CONTINUOUS
 10
515.3658322561
 20
201.2287589038
 40
43.0356966883
100
AcDbArc
 50
0.1848652762
 51
0.531974026
  0
ARC
  5
3F6
100
AcDbEntity
  8
BEZUGSACHSEN
100
AcDbCircle
 62
7
  6
CONTINUOUS
 10
518.2849900117
 20
197.0766714227
 40
40.9583025363
100
AcDbArc
 50
3.6213041828
 51
3.9546082293
  0
ARC
  5
3F7
100
AcDbEntity
  8
KONSTRUKTIONSELEMENTE
100
AcDbCircle
 62
7
  6
CONTINUOUS
 10
517.4612437537
 20
201.2759415549
 40
40.7759488861
100
AcDbArc
 50
355.9632026174
 51
356.2568411047
  0
ARC
  5
3F8
100
AcDbEntity
  8
BEZUGSACHSEN
100
AcDbCircle
 62
7
  6
CONTINUOUS
 10
518.1405726905
 20
201.686387864
 40
40.3706045374
100
AcDbArc
 50
355.3383781164
 51
355.6352020098
  0
ARC
  5
3F9
100
AcDbEntity
  8
BEZUGSACHSEN
100
AcDbCircle
 62
7
  6
CONTINUOUS
 10
523.7131835057
 20
198.5526949481
 40
35.335062439
100
AcDbArc
 50
359.2375503071
 51
359.5193978889
  0
ARC
  5
3FA
100
AcDbEntity
  8
BEZUGSACHSEN
100
AcDbCircle
 62
7
  6
CONTINUOUS
 10
524.9388741266
 20
198.1610095709
 40
34.2040132693
100
AcDbArc
 50
359.2122699486
 51
359.5034387663
  0
ARC
  5
3FB
100
AcDbEntity
  8
0
100
AcDbCircle
 62
7
  6
CONTINUOUS
 10
545.8096134896
 20
159.1384089005
 40
3.0
100
AcDbArc
 50
150.0
 51
180.0
  0
ARC
  5
3FC
100
AcDbEntity
  8
0
100
AcDbCircle
 62
7
  6
CONTINUOUS
 10
545.8096134896
 20
151.8089231445
 40
3.0
100
AcDbArc
 50
180.0
 51
212.2268364662
  0
ARC
  5
3FD
100
AcDbEntity
  8
0
100
AcDbCircle
 62
7
  6
CONTINUOUS
 10
543.0596134896
 20
166.3752691797
 40
3.0
100
AcDbArc
 50
330.0
 51
360.0
  0
ARC
  5
3FE
100
AcDbEntity
  8
0
100
AcDbCircle
 62
7
  6
CONTINUOUS
 10
547.0596134896
 20
175.3547743699
 40
2.0
100
AcDbArc
 50
281.5369590328
 51
360.0
  0
ARC
  5
3FF
100
AcDbEntity
  8
0
100
AcDbCircle
 62
7
  6
CONTINUOUS
 10
547.8096134896
 20
171.6805397557
 40
1.75
100
AcDbArc
 50
100.9007810051
 51
180.0
  0
ARC
  5
400
100
AcDbEntity
  8
BEZUGSACHSEN
100
AcDbCircle
 62
7
  6
CONTINUOUS
 10
530.8905720883
 20
202.5518755015
 40
27.909301879
100
AcDbArc
 50
351.0059102799
 51
351.2211021973
  0
ARC
  5
401
100
AcDbEntity
  8
KONSTRUKTIONSELEMENTE
100
AcDbCircle
 62
7
  6
CONTINUOUS
 10
532.9336025105
 20
203.0385575211
 40
25.2029541838
100
AcDbArc
 50
358.5155600861
 51
0.2962198765
  0
ARC
  5
402
100
AcDbEntity
  8
BEZUGSACHSEN
100
AcDbCircle
 62
7
  6
CONTINUOUS
 10
541.4812895286
 20
180.3220606642
 40
24.9800233976
100
AcDbArc
 50
47.0439736732
 51
47.2393158521
  0
ARC
  5
403
100
AcDbEntity
  8
BEZUGSACHSEN
100
AcDbCircle
 62
7
  6
CONTINUOUS
 10
534.1589111707
 20
203.2556499281
 40
24.2614390327
100
AcDbArc
 50
357.9450001623
 51
359.7950283752
  0
ARC
  5
404
100
AcDbEntity
  8
BEZUGSACHSEN
100
AcDbCircle
 62
7
  6
CONTINUOUS
 10
534.9424709795
 20
202.8074859353
 40
23.5725183166
100
AcDbArc
 50
358.3627665812
 51
359.7907214551
  0
ARC
  5
405
100
AcDbEntity
  8
BEZUGSACHSEN
100
AcDbCircle
 62
7
  6
CONTINUOUS
 10
540.6579457492
 20
183.3255459103
 40
23.2452632443
100
AcDbArc
 50
37.559671078
 51
37.8317437147
  0
ARC
  5
406
100
AcDbEntity
  8
KONSTRUKTIONSELEMENTE
100
AcDbCircle
 62
7
  6
CONTINUOUS
 10
542.0837749855
 20
184.9732534561
 40
20.908342787
100
AcDbArc
 50
36.7921974251
 51
37.0916611297
  0
ARC
  5
407
100
AcDbEntity
  8
BEZUGSACHSEN
100
AcDbCircle
 62
7
  6
CONTINUOUS
 10
539.2085864443
 20
200.1975567089
 40
19.858478156
100
AcDbArc
 50
358.055528058
 51
359.7506553185
  0
ARC
  5
408
100
AcDbEntity
  8
BEZUGSACHSEN
100
AcDbCircle
 62
7
  6
CONTINUOUS
 10
539.874136091
 20
199.7513238875
 40
19.2875747167
100
AcDbArc
 50
357.4121581034
 51
359.739595361
  0
ARC
  5
409
100
AcDbEntity
  8
BEZUGSACHSEN
100
AcDbCircle
 62
7
  6
CONTINUOUS
 10
541.5142489115
 20
199.8647938222
 40
17.7589782364
100
AcDbArc
 50
352.4740177119
 51
352.9683136993
  0
ARC
  5
40A
100
AcDbEntity
  8
BEZUGSACHSEN
100
AcDbCircle
 62
7
  6
CONTINUOUS
 10
544.2511340076
 20
200.546257331
 40
14.9977357497
100
AcDbArc
 50
350.1242948433
 51
350.4397721382
  0
ARC
  5
40B
100
AcDbEntity
  8
KONSTRUKTIONSELEMENTE
100
AcDbCircle
 62
7
  6
CONTINUOUS
 10
544.160118553
 20
203.2927615412
 40
3.0
100
AcDbArc
 50
315.0
 51
135.0
  0
ARC
  5
40C
100
AcDbEntity
  8
0
100
AcDbCircle
 62
7
  6
CONTINUOUS
 10
554.0596134896
 20
154.1922564778
 40
11.25
100
AcDbArc
 50
212.2268364662
 51
327.7731635338
  0
CIRCLE
  5
40D
100
AcDbEntity
  8
0
100
AcDbCircle
 62
7
  6
CONTINUOUS
 10
554.0596134896
 20
154.1922564778
 40
4.5
  0
ARC
  5
40E
100
AcDbEntity
  8
RUNDUNGEN
100
AcDbCircle
 62
7
  6
CONTINUOUS
 10
562.3096134896
 20
159.1384089005
 40
3.0
100
AcDbArc
 50
0.0
 51
30.0
  0
ARC
  5
40F
100
AcDbEntity
  8
RUNDUNGEN
100
AcDbCircle
 62
7
  6
CONTINUOUS
 10
562.3096134896
 20
151.8089231445
 40
3.0
100
AcDbArc
 50
327.7731635338
 51
360.0
  0
ARC
  5
410
100
AcDbEntity
  8
KONSTRUKTIONSELEMENTE
100
AcDbCircle
 62
7
  6
CONTINUOUS
 10
565.0596134896
 20
166.3752691797
 40
3.0
100
AcDbArc
 50
180.0
 51
210.0
  0
ARC
  5
411
100
AcDbEntity
  8
RUNDUNGEN
100
AcDbCircle
 62
7
  6
CONTINUOUS
 10
561.0596134896
 20
175.3547743699
 40
2.0
100
AcDbArc
 50
180.0
 51
258.4630409672
  0
ARC
  5
412
100
AcDbEntity
  8
RUNDUNGEN
100
AcDbCircle
 62
7
  6
CONTINUOUS
 10
560.3096134896
 20
171.6805397557
 40
1.75
100
AcDbArc
 50
0.0
 51
79.0992189949
  0
ARC
  5
413
100
AcDbEntity
  8
BEZUGSACHSEN
100
AcDbCircle
 62
7
  6
CONTINUOUS
 10
549.9202243552
 20
197.5096936644
 40
10.09399153
100
AcDbArc
 50
31.2013318062
 51
31.4570635528
  0
ARC
  5
414
100
AcDbEntity
  8
BEZUGSACHSEN
100
AcDbCircle
 62
7
  6
CONTINUOUS
 10
554.8342693458
 20
200.7928735537
 40
5.4957769413
100
AcDbArc
 50
320.5891491502
 51
321.1851200693
  0
ARC
  5
415
100
AcDbEntity
  8
BEZUGSACHSEN
100
AcDbCircle
 62
7
  6
CONTINUOUS
 10
555.1324600298
 20
200.7622497391
 40
5.1276759029
100
AcDbArc
 50
320.4263597968
 51
321.0502928432
  0
ARC
  5
416
100
AcDbEntity
  8
0
100
AcDbCircle
 62
7
  6
CONTINUOUS
 10
552.5596134896
 20
200.2202933898
 40
3.5
100
AcDbArc
 50
169.5
 51
180.0
  0
ARC
  5
417
100
AcDbEntity
  8
BEZUGSACHSEN
100
AcDbCircle
 62
7
  6
CONTINUOUS
 10
556.671107032
 20
200.307817766
 40
3.4373120784
100
AcDbArc
 50
58.5067067538
 51
59.1061259929
  0
ARC
  5
418
100
AcDbEntity
  8
0
100
AcDbCircle
 62
7
  6
CONTINUOUS
 10
554.0596134896
 20
213.1922564778
 40
33.0
100
AcDbArc
 50
278.7156619979
 51
360.0
  0
ARC
  5
419
100
AcDbEntity
  8
0
100
AcDbCircle
 62
7
  6
CONTINUOUS
 10
554.0596134896
 20
213.1922564778
 40
33.0
100
AcDbArc
 50
230.218521892
 51
261.2843380021
  0
ARC
  5
41A
100
AcDbEntity
  8
0
100
AcDbCircle
 62
7
  6
CONTINUOUS
 10
554.0596134896
 20
213.1922564778
 40
33.0
100
AcDbArc
 50
180.0
 51
219.781478108
  0
ARC
  5
41B
100
AcDbEntity
  8
0
100
AcDbCircle
 62
7
  6
CONTINUOUS
 10
554.0596134896
 20
249.1922564778
 40
33.0
100
AcDbArc
 50
109.4851816585
 51
180.0
  0
ARC
  5
41C
100
AcDbEntity
  8
0
100
AcDbCircle
 62
7
  6
CONTINUOUS
 10
554.0596134896
 20
249.1922564778
 40
33.0
100
AcDbArc
 50
0.0
 51
70.5148183415
  0
ARC
  5
41D
100
AcDbEntity
  8
0
100
AcDbCircle
 62
7
  6
CONTINUOUS
 10
554.0596134896
 20
213.1922564778
 40
17.0
100
AcDbArc
 50
287.1128011601
 51
360.0
  0
ARC
  5
41E
100
AcDbEntity
  8
0
100
AcDbCircle
 62
7
  6
CONTINUOUS
 10
554.0596134896
 20
213.1922564778
 40
17.0
100
AcDbArc
 50
235.1707765494
 51
252.8871988399
  0
ARC
  5
41F
100
AcDbEntity
  8
0
100
AcDbCircle
 62
7
  6
CONTINUOUS
 10
554.0596134896
 20
213.1922564778
 40
17.0
100
AcDbArc
 50
180.0
 51
214.8292234506
  0
ARC
  5
420
100
AcDbEntity
  8
0
100
AcDbCircle
 62
7
  6
CONTINUOUS
 10
554.0596134896
 20
249.1922564778
 40
17.0
100
AcDbArc
 50
130.3256402192
 51
180.0
  0
ARC
  5
421
100
AcDbEntity
  8
0
100
AcDbCircle
 62
7
  6
CONTINUOUS
 10
554.0596134896
 20
249.1922564778
 40
17.0
100
AcDbArc
 50
0.0
 51
49.6743597808
  0
ARC
  5
422
100
AcDbEntity
  8
0
100
AcDbCircle
 62
7
  6
CONTINUOUS
 10
554.0596134896
 20
255.1922564778
 40
11.0
100
AcDbArc
 50
180.0
 51
360.0
  0
ARC
  5
423
100
AcDbEntity
  8
BEZUGSACHSEN
100
AcDbCircle
 62
7
  6
CONTINUOUS
 10
552.0209063002
 20
204.864382835
 40
8.9266845084
100
AcDbArc
 50
315.5570088405
 51
315.9902302233
  0
ARC
  5
424
100
AcDbEntity
  8
KONSTRUKTIONSELEMENTE
100
AcDbCircle
 62
7
  6
CONTINUOUS
 10
552.2223483527
 20
204.2023182098
 40
8.1467562527
100
AcDbArc
 50
316.6884206664
 51
317.1541308402
  0
ARC
  5
425
100
AcDbEntity
  8
KONSTRUKTIONSELEMENTE
100
AcDbCircle
 62
7
  6
CONTINUOUS
 10
550.6290409143
 20
204.4338050072
 40
7.6130040422
100
AcDbArc
 50
350.4355878679
 51
351.1110390026
  0
ARC
  5
426
100
AcDbEntity
  8
BEZUGSACHSEN
100
AcDbCircle
 62
7
  6
CONTINUOUS
 10
551.104872005
 20
204.5191478162
 40
7.4389002172
100
AcDbArc
 50
349.5418319392
 51
350.2349133922
  0
ARC
  5
427
100
AcDbEntity
  8
BEZUGSACHSEN
100
AcDbCircle
 62
7
  6
CONTINUOUS
 10
553.8634003979
 20
204.0721244096
 40
4.8435847211
100
AcDbArc
 50
343.8071174404
 51
344.4951631471
  0
ARC
  5
428
100
AcDbEntity
  8
0
100
AcDbCircle
 62
7
  6
CONTINUOUS
 10
554.0596134896
 20
537.1922564778
 40
11.0
100
AcDbArc
 50
0.0
 51
180.0
  0
SPLINE
  5
429
100
AcDbEntity
  8
KONSTRUKTIONSELEMENTE
100
AcDbSpline
 62
7
  6
CONTINUOUS
 70
0
 71
3
 72
10
 73
6
 74
0
 42
0.0000001
 43
0.0000001
 44
0.0000000001
 40
0.0
 40
0.0
 40
0.0
 40
0.0
 40
0.3116645009
 40
0.6060899939
 40
1.0
 40
1.0
 40
1.0
 40
1.0
 10
210.55817866
 20
132.5820834226
 30
0.0
 10
210.55817866
 20
132.779238269
 30
0.0
 10
210.3706501035
 20
133.1505644637
 30
0.0
 10
209.9133308338
 20
133.5844375535
 30
0.0
 10
209.5349295216
 20
133.8118475869
 30
0.0
 10
209.3101705483
 20
133.9194357179
 30
0.0
  0
SPLINE
  5
42A
100
AcDbEntity
  8
KONSTRUKTIONSELEMENTE
100
AcDbSpline
 62
7
  6
CONTINUOUS
 70
0
 71
3
 72
10
 73
6
 74
0
 42
0.0000001
 43
0.0000001
 44
0.0000000001
 40
0.0
 40
0.0
 40
0.0
 40
0.0
 40
0.3939255147
 40
0.6883533687
 40
1.0
 40
1.0
 40
1.0
 40
1.0
 10
204.8064294245
 20
133.9195476459
 30
0.0
 10
204.5816215186
 20
133.8119577453
 30
0.0
 10
204.2031589969
 20
133.584512177
 30
0.0
 10
203.7457174792
 20
133.1506344337
 30
0.0
 10
203.55817866
 20
132.7792547264
 30
0.0
 10
203.55817866
 20
132.5820834226
 30
0.0
  0
SPLINE
  5
42B
100
AcDbEntity
  8
KONSTRUKTIONSELEMENTE
100
AcDbSpline
 62
7
  6
CONTINUOUS
 70
0
 71
3
 72
13
 73
9
 74
0
 42
0.0000001
 43
0.0000001
 44
0.0000000001
 40
0.0
 40
0.0
 40
0.0
 40
0.0
 40
0.1194785188
 40
0.2392741704
 40
0.3602835725
 40
0.4830059608
 40
0.7355440041
 40
1.0
 40
1.0
 40
1.0
 40
1.0
 10
215.05817866
 20
132.5820834226
 30
0.0
 10
215.05817866
 20
132.9407230338
 30
0.0
 10
214.9820831769
 20
133.6612296628
 30
0.0
 10
214.6465069492
 20
134.6967254185
 30
0.0
 10
214.110522484
 20
135.6550450977
 30
0.0
 10
213.1528269183
 20
136.8054248586
 30
0.0
 10
211.5665082755
 20
137.9447673779
 30
0.0
 10
210.0864548331
 20
138.4722933982
 30
0.0
 10
209.3122909805
 20
138.6478495432
 30
0.0
  0
SPLINE
  5
42C
100
AcDbEntity
  8
KONSTRUKTIONSELEMENTE
100
AcDbSpline
 62
7
  6
CONTINUOUS
 70
0
 71
3
 72
13
 73
9
 74
0
 42
0.0000001
 43
0.0000001
 44
0.0000000001
 40
0.0
 40
0.0
 40
0.0
 40
0.0
 40
0.2644681654
 40
0.5169944072
 40
0.6397129492
 40
0.760706397
 40
0.8805228501
 40
1.0
 40
1.0
 40
1.0
 40
1.0
 10
204.8060078812
 20
138.6482807556
 30
0.0
 10
204.0316105547
 20
138.4728006513
 30
0.0
 10
202.5511197071
 20
137.9454799226
 30
0.0
 10
200.9642693001
 20
136.8061274592
 30
0.0
 10
200.0062973407
 20
135.6556849104
 30
0.0
 10
199.469980583
 20
134.6972631238
 30
0.0
 10
199.1343662464
 20
133.6615097114
 30
0.0
 10
199.05817866
 20
132.9407976929
 30
0.0
 10
199.05817866
 20
132.5820834226
 30
0.0
  0
SPLINE
  5
42D
100
AcDbEntity
  8
KONSTRUKTIONSELEMENTE
100
AcDbSpline
 62
7
  6
CONTINUOUS
 70
0
 71
3
 72
13
 73
9
 74
0
 42
0.0000001
 43
0.0000001
 44
0.0000000001
 40
0.0
 40
0.0
 40
0.0
 40
0.0
 40
0.1197290731
 40
0.2397365246
 40
0.3609040964
 40
0.4836831257
 40
0.7359942557
 40
1.0
 40
1.0
 40
1.0
 40
1.0
 10
199.05817866
 20
121.9754817048
 30
0.0
 10
199.05817866
 20
121.6262680027
 30
0.0
 10
199.1302822818
 20
120.9249269667
 30
0.0
 10
199.4485676166
 20
119.9147087185
 30
0.0
 10
199.9579511582
 20
118.9761304999
 30
0.0
 10
200.8697516868
 20
117.8433559932
 30
0.0
 10
202.3856429524
 20
116.7062125771
 30
0.0
 10
203.8085298024
 20
116.1596668531
 30
0.0
 10
204.5547543241
 20
115.9696983625
 30
0.0
  0
SPLINE
  5
42E
100
AcDbEntity
  8
KONSTRUKTIONSELEMENTE
100
AcDbSpline
 62
7
  6
CONTINUOUS
 70
0
 71
3
 72
13
 73
9
 74
0
 42
0.0000001
 43
0.0000001
 44
0.0000000001
 40
0.0
 40
0.0
 40
0.0
 40
0.0
 40
0.2640112835
 40
0.5163080567
 40
0.6390830379
 40
0.7602378991
 40
0.8802701562
 40
1.0
 40
1.0
 40
1.0
 40
1.0
 10
209.5625064625
 20
115.9699455521
 30
0.0
 10
210.3086462848
 20
116.1599801534
 30
0.0
 10
211.7313227262
 20
116.7065467846
 30
0.0
 10
213.2469127933
 20
117.8436921255
 30
0.0
 10
214.1585030708
 20
118.9763076341
 30
0.0
 10
214.6678939866
 20
119.9147849207
 30
0.0
 10
214.9860307056
 20
120.9249730238
 30
0.0
 10
215.05817866
 20
121.6263029073
 30
0.0
 10
215.05817866
 20
121.9754817048
 30
0.0
  0
SPLINE
  5
42F
100
AcDbEntity
  8
KONSTRUKTIONSELEMENTE
100
AcDbSpline
 62
7
  6
CONTINUOUS
 70
0
 71
3
 72
10
 73
6
 74
0
 42
0.0000001
 43
0.0000001
 44
0.0000000001
 40
0.0
 40
0.0
 40
0.0
 40
0.0
 40
0.3192646009
 40
0.6086079864
 40
1.0
 40
1.0
 40
1.0
 40
1.0
 10
203.55817866
 20
121.9754817048
 30
0.0
 10
203.55817866
 20
121.8037419296
 30
0.0
 10
203.7001944466
 20
121.4828907146
 30
0.0
 10
204.0660004612
 20
121.0895383753
 30
0.0
 10
204.369288294
 20
120.876498462
 30
0.0
 10
204.551824595
 20
120.7715838655
 30
0.0
  0
SPLINE
  5
430
100
AcDbEntity
  8
KONSTRUKTIONSELEMENTE
100
AcDbSpline
 62
7
  6
CONTINUOUS
 70
0
 71
3
 72
10
 73
6
 74
0
 42
0.0000001
 43
0.0000001
 44
0.0000000001
 40
0.0
 40
0.0
 40
0.0
 40
0.0
 40
0.3914026107
 40
0.6807340322
 40
1.0
 40
1.0
 40
1.0
 40
1.0
 10
209.5646242611
 20
120.7716363366
 30
0.0
 10
209.7471515046
 20
120.8765517462
 30
0.0
 10
210.0503910853
 20
121.0896108176
 30
0.0
 10
210.4162117899
 20
121.4829091782
 30
0.0
 10
210.55817866
 20
121.8037519191
 30
0.0
 10
210.55817866
 20
121.9754817048
 30
0.0
  0
SPLINE
  5
431
100
AcDbEntity
  8
KONSTRUKTIONSELEMENTE
100
AcDbSpline
 62
7
  6
CONTINUOUS
 70
0
 71
3
 72
10
 73
6
 74
0
 42
0.0000001
 43
0.0000001
 44
0.0000000001
 40
0.0
 40
0.0
 40
0.0
 40
0.0
 40
0.3192646009
 40
0.6086079864
 40
1.0
 40
1.0
 40
1.0
 40
1.0
 10
210.55817866
 20
163.6947817948
 30
0.0
 10
210.55817866
 20
163.86652157
 30
0.0
 10
210.4161628735
 20
164.1873727849
 30
0.0
 10
210.0503568588
 20
164.5807251243
 30
0.0
 10
209.7470690261
 20
164.7937650376
 30
0.0
 10
209.564532725
 20
164.898679634
 30
0.0
  0
SPLINE
  5
432
100
AcDbEntity
  8
KONSTRUKTIONSELEMENTE
100
AcDbSpline
 62
7
  6
CONTINUOUS
 70
0
 71
3
 72
10
 73
6
 74
0
 42
0.0000001
 43
0.0000001
 44
0.0000000001
 40
0.0
 40
0.0
 40
0.0
 40
0.0
 40
0.3914026107
 40
0.6807340322
 40
1.0
 40
1.0
 40
1.0
 40
1.0
 10
204.5517330589
 20
164.8986271629
 30
0.0
 10
204.3692058155
 20
164.7937117534
 30
0.0
 10
204.0659662347
 20
164.5806526819
 30
0.0
 10
203.7001455301
 20
164.1873543213
 30
0.0
 10
203.55817866
 20
163.8665115804
 30
0.0
 10
203.55817866
 20
163.6947817948
 30
0.0
  0
SPLINE
  5
433
100
AcDbEntity
  8
KONSTRUKTIONSELEMENTE
100
AcDbSpline
 62
7
  6
CONTINUOUS
 70
0
 71
3
 72
9
 73
5
 74
0
 42
0.0000001
 43
0.0000001
 44
0.0000000001
 40
0.0
 40
0.0
 40
0.0
 40
0.0
 40
0.2461884529
 40
1.0
 40
1.0
 40
1.0
 40
1.0
 10
202.5066260486
 20
147.8730458525
 30
0.0
 10
202.6839305244
 20
147.7775331316
 30
0.0
 10
203.4182080884
 20
147.4160138342
 30
0.0
 10
204.202681114
 20
147.1587893135
 30
0.0
 10
204.8040663395
 20
147.0224139563
 30
0.0
  0
SPLINE
  5
434
100
AcDbEntity
  8
KONSTRUKTIONSELEMENTE
100
AcDbSpline
 62
7
  6
CONTINUOUS
 70
0
 71
3
 72
9
 73
5
 74
0
 42
0.0000001
 43
0.0000001
 44
0.0000000001
 40
0.0
 40
0.0
 40
0.0
 40
0.0
 40
0.2541577505
 40
1.0
 40
1.0
 40
1.0
 40
1.0
 10
209.3103494388
 20
147.021982744
 30
0.0
 10
209.5135970547
 20
147.0680390921
 30
0.0
 10
210.3072265163
 20
147.2744925822
 30
0.0
 10
211.0749172977
 20
147.5846397495
 30
0.0
 10
211.613201
 20
147.8749190824
 30
0.0
  0
SPLINE
  5
435
100
AcDbEntity
  8
KONSTRUKTIONSELEMENTE
100
AcDbSpline
 62
7
  6
CONTINUOUS
 70
0
 71
3
 72
9
 73
5
 74
0
 42
0.0000001
 43
0.0000001
 44
0.0000000001
 40
0.0
 40
0.0
 40
0.0
 40
0.0
 40
0.2427240457
 40
1.0
 40
1.0
 40
1.0
 40
1.0
 10
198.2244195863
 20
178.9080268477
 30
0.0
 10
198.7152829573
 20
178.7159165847
 30
0.0
 10
200.7669415584
 20
178.0006231315
 30
0.0
 10
202.9189682939
 20
177.5815566039
 30
0.0
 10
204.5558116597
 20
177.4224552836
 30
0.0
  0
SPLINE
  5
436
100
AcDbEntity
  8
KONSTRUKTIONSELEMENTE
100
AcDbSpline
 62
7
  6
CONTINUOUS
 70
0
 71
3
 72
9
 73
5
 74
0
 42
0.0000001
 43
0.0000001
 44
0.0000000001
 40
0.0
 40
0.0
 40
0.0
 40
0.0
 40
0.2566178912
 40
1.0
 40
1.0
 40
1.0
 40
1.0
 10
209.5602054869
 20
177.4224155091
 30
0.0
 10
210.1156241321
 20
177.4763963379
 30
0.0
 10
212.2721326461
 20
177.7575255446
 30
0.0
 10
214.3949662313
 20
178.3214011381
 30
0.0
 10
215.9000677778
 20
178.9112138187
 30
0.0
  0
SPLINE
  5
437
100
AcDbEntity
  8
BEZUGSACHSEN
100
AcDbSpline
 62
7
  6
CONTINUOUS
 70
0
 71
3
 72
11
 73
7
 74
0
 42
0.0000001
 43
0.0000001
 44
0.0000000001
 40
0.0
 40
0.0
 40
0.0
 40
0.0
 40
0.2247459803
 40
0.4666479017
 40
0.7259253114
 40
1.0
 40
1.0
 40
1.0
 40
1.0
 10
212.1810345264
 20
106.0644527596
 30
0.0
 10
212.0361096739
 20
105.8021763057
 30
0.0
 10
211.6598341645
 20
105.2972765461
 30
0.0
 10
210.9157945102
 20
104.6678498854
 30
0.0
 10
210.0071676465
 20
104.1632769186
 30
0.0
 10
209.3319602432
 20
103.928575799
 30
0.0
 10
208.9785926229
 20
103.8354872287
 30
0.0
  0
SPLINE
  5
438
100
AcDbEntity
  8
BEZUGSACHSEN
100
AcDbSpline
 62
7
  6
CONTINUOUS
 70
0
 71
3
 72
11
 73
7
 74
0
 42
0.0000001
 43
0.0000001
 44
0.0000000001
 40
0.0
 40
0.0
 40
0.0
 40
0.0
 40
0.2740746886
 40
0.5333520983
 40
0.7752540197
 40
1.0
 40
1.0
 40
1.0
 40
1.0
 10
205.1377646971
 20
103.8354872287
 30
0.0
 10
204.7843970769
 20
103.928575799
 30
0.0
 10
204.1091896735
 20
104.1632769186
 30
0.0
 10
203.2005628098
 20
104.6678498854
 30
0.0
 10
202.4565231555
 20
105.2972765461
 30
0.0
 10
202.0802476461
 20
105.8021763057
 30
0.0
 10
201.9353227936
 20
106.0644527596
 30
0.0
  0
SPLINE
  5
439
100
AcDbEntity
  8
KONSTRUKTIONSELEMENTE
100
AcDbSpline
 62
7
  6
CONTINUOUS
 70
0
 71
3
 72
13
 73
9
 74
0
 42
0.0000001
 43
0.0000001
 44
0.0000000001
 40
0.0
 40
0.0
 40
0.0
 40
0.0
 40
0.1035698708
 40
0.2118852886
 40
0.327021228
 40
0.4498249804
 40
0.7159005812
 40
1.0
 40
1.0
 40
1.0
 40
1.0
 10
203.4025937665
 20
63.7205966925
 30
0.0
 10
203.3830310486
 20
63.8603428101
 30
0.0
 10
203.3049612324
 20
64.1420583929
 30
0.0
 10
203.0838855353
 20
64.5331771981
 30
0.0
 10
202.7669048999
 20
64.8870323582
 30
0.0
 10
202.2177016471
 20
65.3048859747
 30
0.0
 10
201.3582135327
 20
65.6652622317
 30
0.0
 10
200.6052498374
 20
65.7604926004
 30
0.0
 10
200.21817866
 20
65.7604926004
 30
0.0
  0
SPLINE
  5
43A
100
AcDbEntity
  8
KONSTRUKTIONSELEMENTE
100
AcDbSpline
 62
7
  6
CONTINUOUS
 70
0
 71
3
 72
9
 73
5
 74
0
 42
0.0000001
 43
0.0000001
 44
0.0000000001
 40
0.0
 40
0.0
 40
0.0
 40
0.0
 40
0.4892987036
 40
1.0
 40
1.0
 40
1.0
 40
1.0
 10
182.8778709406
 20
92.695277948
 30
0.0
 10
182.8778880036
 20
92.7572705567
 30
0.0
 10
182.8577465991
 20
92.8846726757
 30
0.0
 10
182.8010628055
 20
93.0000542628
 30
0.0
 10
182.765441345
 20
93.054070481
 30
0.0
  0
SPLINE
  5
43B
100
AcDbEntity
  8
KONSTRUKTIONSELEMENTE
100
AcDbSpline
 62
7
  6
CONTINUOUS
 70
0
 71
3
 72
11
 73
7
 74
0
 42
0.0000001
 43
0.0000001
 44
0.0000000001
 40
0.0
 40
0.0
 40
0.0
 40
0.0
 40
0.2200436456
 40
0.4557793627
 40
0.7157728079
 40
1.0
 40
1.0
 40
1.0
 40
1.0
 10
177.1907365219
 20
93.5332103928
 30
0.0
 10
177.190758741
 20
93.6139356571
 30
0.0
 10
177.226210389
 20
93.7826574956
 30
0.0
 10
177.3744933556
 20
94.0054026286
 30
0.0
 10
177.6005962898
 20
94.1865826921
 30
0.0
 10
177.7845662183
 20
94.269396792
 30
0.0
 10
177.8835935478
 20
94.3020490047
 30
0.0
  0
SPLINE
  5
43C
100
AcDbEntity
  8
KONSTRUKTIONSELEMENTE
100
AcDbSpline
 62
7
  6
CONTINUOUS
 70
0
 71
3
 72
11
 73
7
 74
0
 42
0.0000001
 43
0.0000001
 44
0.0000000001
 40
0.0
 40
0.0
 40
0.0
 40
0.0
 40
0.2200599668
 40
0.4557760239
 40
0.7157731965
 40
1.0
 40
1.0
 40
1.0
 40
1.0
 10
171.8738944734
 20
102.3172480463
 30
0.0
 10
171.8739235898
 20
102.586398383
 30
0.0
 10
171.9918723777
 20
103.1489449457
 30
0.0
 10
172.486161516
 20
103.8916433765
 30
0.0
 10
173.2399334562
 20
104.4956847134
 30
0.0
 10
173.8532625465
 20
104.7718141569
 30
0.0
 10
174.1834098082
 20
104.8806733848
 30
0.0
  0
SPLINE
  5
43D
100
AcDbEntity
  8
KONSTRUKTIONSELEMENTE
100
AcDbSpline
 62
7
  6
CONTINUOUS
 70
0
 71
3
 72
9
 73
5
 74
0
 42
0.0000001
 43
0.0000001
 44
0.0000000001
 40
0.0
 40
0.0
 40
0.0
 40
0.0
 40
0.4891681133
 40
1.0
 40
1.0
 40
1.0
 40
1.0
 10
171.8738946335
 20
99.4887262819
 30
0.0
 10
171.8738825776
 20
99.2822539146
 30
0.0
 10
171.9410113473
 20
98.8578205841
 30
0.0
 10
172.1299489805
 20
98.4734760436
 30
0.0
 10
172.248651707
 20
98.2934757769
 30
0.0
  0
SPLINE
  5
43E
100
AcDbEntity
  8
KONSTRUKTIONSELEMENTE
100
AcDbSpline
 62
7
  6
CONTINUOUS
 70
0
 71
3
 72
9
 73
5
 74
0
 42
0.0000001
 43
0.0000001
 44
0.0000000001
 40
0.0
 40
0.0
 40
0.0
 40
0.0
 40
0.4891681133
 40
1.0
 40
1.0
 40
1.0
 40
1.0
 10
225.1376218102
 20
72.2970832863
 30
0.0
 10
225.1376097543
 20
72.5035556536
 30
0.0
 10
225.2047385241
 20
72.9279889841
 30
0.0
 10
225.3936761572
 20
73.3123335246
 30
0.0
 10
225.5123788837
 20
73.4923337913
 30
0.0
  0
SPLINE
  5
43F
100
AcDbEntity
  8
KONSTRUKTIONSELEMENTE
100
AcDbSpline
 62
7
  6
CONTINUOUS
 70
0
 71
3
 72
9
 73
5
 74
0
 42
0.0000001
 43
0.0000001
 44
0.0000000001
 40
0.0
 40
0.0
 40
0.0
 40
0.0
 40
0.4753722117
 40
1.0
 40
1.0
 40
1.0
 40
1.0
 10
225.6628281782
 20
73.7243685473
 30
0.0
 10
225.8767799662
 20
73.4590227556
 30
0.0
 10
226.4309200733
 20
72.9824802069
 30
0.0
 10
227.0898814312
 20
72.6797880591
 30
0.0
 10
227.4471369849
 20
72.5619904329
 30
0.0
  0
SPLINE
  5
440
100
AcDbEntity
  8
KONSTRUKTIONSELEMENTE
100
AcDbSpline
 62
7
  6
CONTINUOUS
 70
0
 71
3
 72
11
 73
7
 74
0
 42
0.0000001
 43
0.0000001
 44
0.0000000001
 40
0.0
 40
0.0
 40
0.0
 40
0.0
 40
0.2094829334
 40
0.4446557434
 40
0.7120095299
 40
1.0
 40
1.0
 40
1.0
 40
1.0
 10
201.81817866
 20
55.5781549514
 30
0.0
 10
201.81817866
 20
55.4657060815
 30
0.0
 10
201.8912086035
 20
55.2241911659
 30
0.0
 10
202.1708263805
 20
54.9476301576
 30
0.0
 10
202.5636060287
 20
54.7700453481
 30
0.0
 10
202.8635875323
 20
54.7296268139
 30
0.0
 10
203.01817866
 20
54.7296268139
 30
0.0
  0
SPLINE
  5
441
100
AcDbEntity
  8
BEZUGSACHSEN
100
AcDbSpline
 62
7
  6
CONTINUOUS
 70
0
 71
3
 72
9
 73
5
 74
0
 42
0.0000001
 43
0.0000001
 44
0.0000000001
 40
0.0
 40
0.0
 40
0.0
 40
0.0
 40
0.2459387646
 40
1.0
 40
1.0
 40
1.0
 40
1.0
 10
213.8200708479
 20
113.4908541162
 30
0.0
 10
213.4803749813
 20
113.602861799
 30
0.0
 10
212.0868713753
 20
114.0204304128
 30
0.0
 10
210.6496295118
 20
114.289734848
 30
0.0
 10
209.5597528094
 20
114.4117281321
 30
0.0
  0
SPLINE
  5
442
100
AcDbEntity
  8
BEZUGSACHSEN
100
AcDbSpline
 62
7
  6
CONTINUOUS
 70
0
 71
3
 72
9
 73
5
 74
0
 42
0.0000001
 43
0.0000001
 44
0.0000000001
 40
0.0
 40
0.0
 40
0.0
 40
0.0
 40
0.2536983179
 40
1.0
 40
1.0
 40
1.0
 40
1.0
 10
204.5566045106
 20
114.4117281321
 30
0.0
 10
204.1899303582
 20
114.3706851555
 30
0.0
 10
202.7489540436
 20
114.1729933507
 30
0.0
 10
201.3270751774
 20
113.8307353619
 30
0.0
 10
200.2962864722
 20
113.4908541162
 30
0.0
  0
SPLINE
  5
443
100
AcDbEntity
  8
KONSTRUKTIONSELEMENTE
100
AcDbSpline
 62
7
  6
CONTINUOUS
 70
0
 71
3
 72
10
 73
6
 74
0
 42
0.0000001
 43
0.0000001
 44
0.0000000001
 40
0.0
 40
0.0
 40
0.0
 40
0.0
 40
0.2210513433
 40
0.4578290806
 40
1.0
 40
1.0
 40
1.0
 40
1.0
 10
232.7534120027
 20
70.6321306074
 30
0.0
 10
232.7534135825
 20
70.6590482024
 30
0.0
 10
232.7416028911
 20
70.715332907
 30
0.0
 10
232.673018634
 20
70.8184916965
 30
0.0
 10
232.5851606727
 20
70.867833442
 30
0.0
 10
232.5224605923
 20
70.8885074961
 30
0.0
  0
SPLINE
  5
444
100
AcDbEntity
  8
BEZUGSACHSEN
100
AcDbSpline
 62
7
  6
CONTINUOUS
 70
0
 71
3
 72
11
 73
7
 74
0
 42
0.0000001
 43
0.0000001
 44
0.0000000001
 40
0.0
 40
0.0
 40
0.0
 40
0.0
 40
0.2211778223
 40
0.4572018266
 40
0.7166414314
 40
1.0
 40
1.0
 40
1.0
 40
1.0
 10
201.55817866
 20
104.6513655657
 30
0.0
 10
201.55817866
 20
105.0096024002
 30
0.0
 10
201.7094617915
 20
105.7566092713
 30
0.0
 10
202.3468820857
 20
106.7518191494
 30
0.0
 10
203.324665044
 20
107.573023694
 30
0.0
 10
204.124611919
 20
107.9588391602
 30
0.0
 10
204.5562638176
 20
108.1147602573
 30
0.0
  0
SPLINE
  5
445
100
AcDbEntity
  8
BEZUGSACHSEN
100
AcDbSpline
 62
7
  6
CONTINUOUS
 70
0
 71
3
 72
11
 73
7
 74
0
 42
0.0000001
 43
0.0000001
 44
0.0000000001
 40
0.0
 40
0.0
 40
0.0
 40
0.0
 40
0.2833585686
 40
0.5427981734
 40
0.7788221777
 40
1.0
 40
1.0
 40
1.0
 40
1.0
 10
209.5600935024
 20
108.1147602573
 30
0.0
 10
209.9917454011
 20
107.9588391602
 30
0.0
 10
210.791692276
 20
107.573023694
 30
0.0
 10
211.7694752343
 20
106.7518191494
 30
0.0
 10
212.4068955286
 20
105.7566092713
 30
0.0
 10
212.55817866
 20
105.0096024002
 30
0.0
 10
212.55817866
 20
104.6513655657
 30
0.0
  0
SPLINE
  5
446
100
AcDbEntity
  8
KONSTRUKTIONSELEMENTE
100
AcDbSpline
 62
7
  6
CONTINUOUS
 70
0
 71
3
 72
9
 73
5
 74
0
 42
0.0000001
 43
0.0000001
 44
0.0000000001
 40
0.0
 40
0.0
 40
0.0
 40
0.0
 40
0.5108269807
 40
1.0
 40
1.0
 40
1.0
 40
1.0
 10
250.9307834834
 20
95.3051133896
 30
0.0
 10
251.0494892745
 20
95.4851183034
 30
0.0
 10
251.2384305526
 20
95.8694808566
 30
0.0
 10
251.3055486807
 20
96.2939267372
 30
0.0
 10
251.3055523594
 20
96.5004084892
 30
0.0
  0
SPLINE
  5
447
100
AcDbEntity
  8
KONSTRUKTIONSELEMENTE
100
AcDbSpline
 62
7
  6
CONTINUOUS
 70
0
 71
3
 72
9
 73
5
 74
0
 42
0.0000001
 43
0.0000001
 44
0.0000000001
 40
0.0
 40
0.0
 40
0.0
 40
0.0
 40
0.5322168521
 40
1.0
 40
1.0
 40
1.0
 40
1.0
 10
249.934332976
 20
94.463363312
 30
0.0
 10
250.0312032434
 20
94.4314223458
 30
0.0
 10
250.2317044915
 20
94.4231858977
 30
0.0
 10
250.4165477809
 20
94.5253287431
 30
0.0
 10
250.4659033955
 20
94.6001713693
 30
0.0
  0
SPLINE
  5
448
100
AcDbEntity
  8
KONSTRUKTIONSELEMENTE
100
AcDbSpline
 62
7
  6
CONTINUOUS
 70
0
 71
3
 72
9
 73
5
 74
0
 42
0.0000001
 43
0.0000001
 44
0.0000000001
 40
0.0
 40
0.0
 40
0.0
 40
0.0
 40
0.2605100871
 40
1.0
 40
1.0
 40
1.0
 40
1.0
 10
232.7159364024
 20
67.684203323
 30
0.0
 10
232.7219712348
 20
67.693354515
 30
0.0
 10
232.7429100118
 20
67.7298726193
 30
0.0
 10
232.7534101765
 20
67.7725867473
 30
0.0
 10
232.7534120027
 20
67.8037034826
 30
0.0
  0
SPLINE
  5
449
100
AcDbEntity
  8
KONSTRUKTIONSELEMENTE
100
AcDbSpline
 62
7
  6
CONTINUOUS
 70
0
 71
3
 72
11
 73
7
 74
0
 42
0.0000001
 43
0.0000001
 44
0.0000000001
 40
0.0
 40
0.0
 40
0.0
 40
0.0
 40
0.2729767978
 40
0.5353848362
 40
0.7789285996
 40
1.0
 40
1.0
 40
1.0
 40
1.0
 10
228.8990477516
 20
65.7604926004
 30
0.0
 10
229.2740494622
 20
65.7604926004
 30
0.0
 10
230.0117561014
 20
65.8333065506
 30
0.0
 10
231.040521999
 20
66.1560760083
 30
0.0
 10
231.9089015106
 20
66.6686425954
 30
0.0
 10
232.3570855597
 20
67.1400435609
 30
0.0
 10
232.5242788997
 20
67.3935747703
 30
0.0
  0
SPLINE
  5
44A
100
AcDbEntity
  8
KONSTRUKTIONSELEMENTE
100
AcDbSpline
 62
7
  6
CONTINUOUS
 70
0
 71
3
 72
13
 73
9
 74
0
 42
0.0000001
 43
0.0000001
 44
0.0000000001
 40
0.0
 40
0.0
 40
0.0
 40
0.0
 40
0.2870489256
 40
0.5535682914
 40
0.6755020148
 40
0.789331082
 40
0.8965440086
 40
1.0
 40
1.0
 40
1.0
 40
1.0
 10
213.89817866
 20
65.7604926004
 30
0.0
 10
213.4859650925
 20
65.7604926004
 30
0.0
 10
212.6869640951
 20
65.6531577125
 30
0.0
 10
211.7857562726
 20
65.2456868815
 30
0.0
 10
211.2325967646
 20
64.7759173922
 30
0.0
 10
210.929959304
 20
64.3818593053
 30
0.0
 10
210.7412936688
 20
63.9503896874
 30
0.0
 10
210.69817866
 20
63.6463177807
 30
0.0
 10
210.69817866
 20
63.4977509007
 30
0.0
  0
SPLINE
  5
44B
100
AcDbEntity
  8
KONSTRUKTIONSELEMENTE
100
AcDbSpline
 62
7
  6
CONTINUOUS
 70
0
 71
3
 72
11
 73
7
 74
0
 42
0.0000001
 43
0.0000001
 44
0.0000000001
 40
0.0
 40
0.0
 40
0.0
 40
0.0
 40
0.220058334
 40
0.4557781708
 40
0.71578719
 40
1.0
 40
1.0
 40
1.0
 40
1.0
 10
251.3055523594
 20
99.328835614
 30
0.0
 10
251.3055571547
 20
99.5979881417
 30
0.0
 10
251.187581073
 20
100.1605506589
 30
0.0
 10
250.6932902639
 20
100.9032762051
 30
0.0
 10
249.9394973362
 20
101.5073262507
 30
0.0
 10
249.3261615246
 20
101.783455436
 30
0.0
 10
248.9960253822
 20
101.8923109975
 30
0.0
  0
SPLINE
  5
44C
100
AcDbEntity
  8
KONSTRUKTIONSELEMENTE
100
AcDbSpline
 62
7
  6
CONTINUOUS
 70
0
 71
3
 72
11
 73
7
 74
0
 42
0.0000001
 43
0.0000001
 44
0.0000000001
 40
0.0
 40
0.0
 40
0.0
 40
0.0
 40
0.2879904701
 40
0.5553442566
 40
0.7905170666
 40
1.0
 40
1.0
 40
1.0
 40
1.0
 10
211.09817866
 20
54.7296268139
 30
0.0
 10
211.2527697878
 20
54.7296268139
 30
0.0
 10
211.5527512914
 20
54.7700453481
 30
0.0
 10
211.9455309396
 20
54.9476301576
 30
0.0
 10
212.2251487166
 20
55.2241911659
 30
0.0
 10
212.29817866
 20
55.4657060815
 30
0.0
 10
212.29817866
 20
55.5781549514
 30
0.0
  0
SPLINE
  5
44D
100
AcDbEntity
  8
KONSTRUKTIONSELEMENTE
100
AcDbSpline
 62
7
  6
CONTINUOUS
 70
0
 71
3
 72
11
 73
7
 74
0
 42
0.0000001
 43
0.0000001
 44
0.0000000001
 40
0.0
 40
0.0
 40
0.0
 40
0.0
 40
0.2820767698
 40
0.5407553301
 40
0.7772666753
 40
1.0
 40
1.0
 40
1.0
 40
1.0
 10
213.9048365462
 20
65.7428843266
 30
0.0
 10
213.6712780869
 20
65.6480751849
 30
0.0
 10
213.2398639239
 20
65.4200592544
 30
0.0
 10
212.7164830175
 20
64.9511320043
 30
0.0
 10
212.3779341559
 20
64.3933890219
 30
0.0
 10
212.29817866
 20
63.9796315066
 30
0.0
 10
212.29817866
 20
63.7805936131
 30
0.0
  0
SPLINE
  5
44E
100
AcDbEntity
  8
KONSTRUKTIONSELEMENTE
100
AcDbSpline
 62
7
  6
CONTINUOUS
 70
0
 71
3
 72
11
 73
7
 74
0
 42
0.0000001
 43
0.0000001
 44
0.0000000001
 40
0.0
 40
0.0
 40
0.0
 40
0.0
 40
0.2820767698
 40
0.5407553301
 40
0.7772666753
 40
1.0
 40
1.0
 40
1.0
 40
1.0
 10
200.2115207738
 20
65.7428843266
 30
0.0
 10
200.4450792331
 20
65.6480751849
 30
0.0
 10
200.8764933961
 20
65.4200592544
 30
0.0
 10
201.3998743026
 20
64.9511320043
 30
0.0
 10
201.7384231642
 20
64.3933890219
 30
0.0
 10
201.81817866
 20
63.9796315066
 30
0.0
 10
201.81817866
 20
63.7805936131
 30
0.0
  0
SPLINE
  5
44F
100
AcDbEntity
  8
KONSTRUKTIONSELEMENTE
100
AcDbSpline
 62
7
  6
CONTINUOUS
 70
0
 71
3
 72
9
 73
5
 74
0
 42
0.0000001
 43
0.0000001
 44
0.0000000001
 40
0.0
 40
0.0
 40
0.0
 40
0.0
 40
0.5107012964
 40
1.0
 40
1.0
 40
1.0
 40
1.0
 10
177.3031661174
 20
90.91167616
 30
0.0
 10
177.267544657
 20
90.9656923782
 30
0.0
 10
177.2108608633
 20
91.0810739653
 30
0.0
 10
177.1907194588
 20
91.2084760843
 30
0.0
 10
177.1907365219
 20
91.270468693
 30
0.0
  0
SPLINE
  5
450
100
AcDbEntity
  8
KONSTRUKTIONSELEMENTE
100
AcDbSpline
 62
7
  6
CONTINUOUS
 70
0
 71
3
 72
11
 73
7
 74
0
 42
0.0000001
 43
0.0000001
 44
0.0000000001
 40
0.0
 40
0.0
 40
0.0
 40
0.0
 40
0.2210800583
 40
0.4646152767
 40
0.7270135498
 40
1.0
 40
1.0
 40
1.0
 40
1.0
 10
192.62585761
 20
67.3935747703
 30
0.0
 10
192.7930574605
 20
67.1400336884
 30
0.0
 10
193.2412478328
 20
66.6686377524
 30
0.0
 10
194.109613825
 20
66.1560776161
 30
0.0
 10
195.1383678958
 20
65.8333122892
 30
0.0
 10
195.8760738712
 20
65.7604926004
 30
0.0
 10
196.2510887581
 20
65.7604926004
 30
0.0
  0
SPLINE
  5
451
100
AcDbEntity
  8
KONSTRUKTIONSELEMENTE
100
AcDbSpline
 62
7
  6
CONTINUOUS
 70
0
 71
3
 72
13
 73
9
 74
0
 42
0.0000001
 43
0.0000001
 44
0.0000000001
 40
0.0
 40
0.0
 40
0.0
 40
0.0
 40
0.2198121251
 40
0.3415455497
 40
0.4695397045
 40
0.6018885822
 40
0.736224413
 40
1.0
 40
1.0
 40
1.0
 40
1.0
 10
239.5433051735
 20
94.7687656756
 30
0.0
 10
239.7785839505
 20
95.1255413274
 30
0.0
 10
240.2866495299
 20
95.590175975
 30
0.0
 10
241.0967659778
 20
96.013729677
 30
0.0
 10
241.8041688714
 20
96.2514832888
 30
0.0
 10
242.5621391616
 20
96.3873020136
 30
0.0
 10
243.5946879133
 20
96.4269770353
 30
0.0
 10
244.3719570765
 20
96.2974416638
 30
0.0
 10
244.8590093686
 20
96.1368462489
 30
0.0
  0
SPLINE
  5
452
100
AcDbEntity
  8
KONSTRUKTIONSELEMENTE
100
AcDbSpline
 62
7
  6
CONTINUOUS
 70
0
 71
3
 72
10
 73
6
 74
0
 42
0.0000001
 43
0.0000001
 44
0.0000000001
 40
0.0
 40
0.0
 40
0.0
 40
0.0
 40
0.2210513433
 40
0.4578290806
 40
1.0
 40
1.0
 40
1.0
 40
1.0
 10
232.7534120027
 20
67.8037034826
 30
0.0
 10
232.7534135825
 20
67.8306210776
 30
0.0
 10
232.7416028911
 20
67.8869057822
 30
0.0
 10
232.673018634
 20
67.9900645718
 30
0.0
 10
232.5851606727
 20
68.0394063172
 30
0.0
 10
232.5224605923
 20
68.0600803713
 30
0.0
  0
SPLINE
  5
453
100
AcDbEntity
  8
BEZUGSACHSEN
100
AcDbSpline
 62
7
  6
CONTINUOUS
 70
0
 71
3
 72
9
 73
5
 74
0
 42
0.0000001
 43
0.0000001
 44
0.0000000001
 40
0.0
 40
0.0
 40
0.0
 40
0.0
 40
0.2459387646
 40
1.0
 40
1.0
 40
1.0
 40
1.0
 10
213.8200708479
 20
110.6624269915
 30
0.0
 10
213.4803749813
 20
110.7744346742
 30
0.0
 10
212.0868713753
 20
111.1920032881
 30
0.0
 10
210.6496295118
 20
111.4613077232
 30
0.0
 10
209.5597528094
 20
111.5833010074
 30
0.0
  0
SPLINE
  5
454
100
AcDbEntity
  8
BEZUGSACHSEN
100
AcDbSpline
 62
7
  6
CONTINUOUS
 70
0
 71
3
 72
9
 73
5
 74
0
 42
0.0000001
 43
0.0000001
 44
0.0000000001
 40
0.0
 40
0.0
 40
0.0
 40
0.0
 40
0.2536983179
 40
1.0
 40
1.0
 40
1.0
 40
1.0
 10
204.5566045106
 20
111.5833010074
 30
0.0
 10
204.1899303582
 20
111.5422580307
 30
0.0
 10
202.7489540436
 20
111.3445662259
 30
0.0
 10
201.3270751774
 20
111.0023082371
 30
0.0
 10
200.2962864722
 20
110.6624269915
 30
0.0
  0
SPLINE
  5
455
100
AcDbEntity
  8
BEZUGSACHSEN
100
AcDbSpline
 62
7
  6
CONTINUOUS
 70
0
 71
3
 72
19
 73
15
 74
0
 42
0.0000001
 43
0.0000001
 44
0.0000000001
 40
0.0
 40
0.0
 40
0.0
 40
0.0
 40
0.0517279957
 40
0.105334459
 40
0.1622489926
 40
0.2232158543
 40
0.3564755372
 40
0.5
 40
0.6435244628
 40
0.7767841457
 40
0.8377510074
 40
0.894665541
 40
0.9482720043
 40
1.0
 40
1.0
 40
1.0
 40
1.0
 10
212.55817866
 20
104.6513655657
 30
0.0
 10
212.55817866
 20
104.3960162407
 30
0.0
 10
212.4840736556
 20
103.873392651
 30
0.0
 10
212.1598097212
 20
103.1318042452
 30
0.0
 10
211.6396310279
 20
102.4545169083
 30
0.0
 10
210.689004513
 20
101.6471005987
 30
0.0
 10
209.1390387215
 20
100.9467601078
 30
0.0
 10
207.05817866
 20
100.6666165154
 30
0.0
 10
204.9773185986
 20
100.9467601078
 30
0.0
 10
203.427352807
 20
101.6471005987
 30
0.0
 10
202.4767262921
 20
102.4545169083
 30
0.0
 10
201.9565475988
 20
103.1318042452
 30
0.0
 10
201.6322836644
 20
103.873392651
 30
0.0
 10
201.55817866
 20
104.3960162407
 30
0.0
 10
201.55817866
 20
104.6513655657
 30
0.0
  0
SPLINE
  5
456
100
AcDbEntity
  8
KONSTRUKTIONSELEMENTE
100
AcDbSpline
 62
7
  6
CONTINUOUS
 70
0
 71
3
 72
9
 73
5
 74
0
 42
0.0000001
 43
0.0000001
 44
0.0000000001
 40
0.0
 40
0.0
 40
0.0
 40
0.0
 40
0.5398499172
 40
1.0
 40
1.0
 40
1.0
 40
1.0
 10
182.1850139147
 20
92.2092820486
 30
0.0
 10
182.3442844713
 20
92.2617982188
 30
0.0
 10
182.6285092713
 20
92.4080652114
 30
0.0
 10
182.8178909185
 20
92.6785816313
 30
0.0
 10
182.8558246207
 20
92.8164029056
 30
0.0
  0
SPLINE
  5
457
100
AcDbEntity
  8
KONSTRUKTIONSELEMENTE
100
AcDbSpline
 62
7
  6
CONTINUOUS
 70
0
 71
3
 72
11
 73
7
 74
0
 42
0.0000001
 43
0.0000001
 44
0.0000000001
 40
0.0
 40
0.0
 40
0.0
 40
0.0
 40
0.2816064552
 40
0.5417085427
 40
0.7793419382
 40
1.0
 40
1.0
 40
1.0
 40
1.0
 10
181.5088246959
 20
93.2346522599
 30
0.0
 10
181.5995151311
 20
93.2645555542
 30
0.0
 10
181.7691141811
 20
93.3391689078
 30
0.0
 10
181.9829187817
 20
93.4989630171
 30
0.0
 10
182.1340334121
 20
93.6944618301
 30
0.0
 10
182.1852380754
 20
93.8451777081
 30
0.0
 10
182.1957279771
 20
93.9192643086
 30
0.0
  0
SPLINE
  5
458
100
AcDbEntity
  8
KONSTRUKTIONSELEMENTE
100
AcDbSpline
 62
7
  6
CONTINUOUS
 70
0
 71
3
 72
11
 73
7
 74
0
 42
0.0000001
 43
0.0000001
 44
0.0000000001
 40
0.0
 40
0.0
 40
0.0
 40
0.0
 40
0.2200436456
 40
0.4557793627
 40
0.7157728079
 40
1.0
 40
1.0
 40
1.0
 40
1.0
 10
177.1907365219
 20
91.270468693
 30
0.0
 10
177.190758741
 20
91.3511939573
 30
0.0
 10
177.226210389
 20
91.5199157958
 30
0.0
 10
177.3744933556
 20
91.7426609288
 30
0.0
 10
177.6005962898
 20
91.9238409923
 30
0.0
 10
177.7845662183
 20
92.0066550922
 30
0.0
 10
177.8835935478
 20
92.0393073049
 30
0.0
  0
SPLINE
  5
459
100
AcDbEntity
  8
KONSTRUKTIONSELEMENTE
100
AcDbSpline
 62
7
  6
CONTINUOUS
 70
0
 71
3
 72
11
 73
7
 74
0
 42
0.0000001
 43
0.0000001
 44
0.0000000001
 40
0.0
 40
0.0
 40
0.0
 40
0.0
 40
0.220058334
 40
0.4557781708
 40
0.71578719
 40
1.0
 40
1.0
 40
1.0
 40
1.0
 10
251.3055523594
 20
96.5004084892
 30
0.0
 10
251.3055571547
 20
96.7695610169
 30
0.0
 10
251.187581073
 20
97.3321235342
 30
0.0
 10
250.6932902639
 20
98.0748490803
 30
0.0
 10
249.9394973362
 20
98.678899126
 30
0.0
 10
249.3261615246
 20
98.9550283112
 30
0.0
 10
248.9960253822
 20
99.0638838727
 30
0.0
  0
SPLINE
  5
45A
100
AcDbEntity
  8
KONSTRUKTIONSELEMENTE
100
AcDbSpline
 62
7
  6
CONTINUOUS
 70
0
 71
3
 72
11
 73
7
 74
0
 42
0.0000001
 43
0.0000001
 44
0.0000000001
 40
0.0
 40
0.0
 40
0.0
 40
0.0
 40
0.2842271921
 40
0.5442206373
 40
0.7799563544
 40
1.0
 40
1.0
 40
1.0
 40
1.0
 10
182.1850139147
 20
91.9264393361
 30
0.0
 10
182.2840412441
 20
91.9590915488
 30
0.0
 10
182.4680111727
 20
92.0419056487
 30
0.0
 10
182.6941141068
 20
92.2230857122
 30
0.0
 10
182.8423970735
 20
92.4458308452
 30
0.0
 10
182.8778487215
 20
92.6145526837
 30
0.0
 10
182.8778709406
 20
92.695277948
 30
0.0
  0
SPLINE
  5
45B
100
AcDbEntity
  8
KONSTRUKTIONSELEMENTE
100
AcDbSpline
 62
7
  6
CONTINUOUS
 70
0
 71
3
 72
11
 73
7
 74
0
 42
0.0000001
 43
0.0000001
 44
0.0000000001
 40
0.0
 40
0.0
 40
0.0
 40
0.0
 40
0.2842240174
 40
0.5442187073
 40
0.779940343
 40
1.0
 40
1.0
 40
1.0
 40
1.0
 10
174.1834098082
 20
102.05224626
 30
0.0
 10
173.8532573964
 20
101.9433853341
 30
0.0
 10
173.2399193124
 20
101.6672498112
 30
0.0
 10
172.4861302345
 20
101.0631892468
 30
0.0
 10
171.9918409914
 20
100.3204565076
 30
0.0
 10
171.8739103496
 20
99.7578830777
 30
0.0
 10
171.8738946335
 20
99.4887262819
 30
0.0
  0
SPLINE
  5
45C
100
AcDbEntity
  8
KONSTRUKTIONSELEMENTE
100
AcDbSpline
 62
7
  6
CONTINUOUS
 70
0
 71
3
 72
11
 73
7
 74
0
 42
0.0000001
 43
0.0000001
 44
0.0000000001
 40
0.0
 40
0.0
 40
0.0
 40
0.0
 40
0.2842240174
 40
0.5442187073
 40
0.779940343
 40
1.0
 40
1.0
 40
1.0
 40
1.0
 10
227.4471369849
 20
69.7335633082
 30
0.0
 10
227.1169845732
 20
69.8424242342
 30
0.0
 10
226.5036464891
 20
70.118559757
 30
0.0
 10
225.7498574112
 20
70.7226203215
 30
0.0
 10
225.2555681681
 20
71.4653530606
 30
0.0
 10
225.1376375264
 20
72.0279264906
 30
0.0
 10
225.1376218102
 20
72.2970832863
 30
0.0
  0
SPLINE
  5
45D
100
AcDbEntity
  8
KONSTRUKTIONSELEMENTE
100
AcDbSpline
 62
7
  6
CONTINUOUS
 70
0
 71
3
 72
9
 73
5
 74
0
 42
0.0000001
 43
0.0000001
 44
0.0000000001
 40
0.0
 40
0.0
 40
0.0
 40
0.0
 40
0.5001151744
 40
1.0
 40
1.0
 40
1.0
 40
1.0
 10
195.0761050248
 20
151.8089231445
 30
0.0
 10
195.2050155656
 20
152.1424182425
 30
0.0
 10
195.4159926024
 20
152.8292070245
 30
0.0
 10
195.4931451538
 20
153.5458782835
 30
0.0
 10
195.4931451538
 20
153.9032564778
 30
0.0
  0
SPLINE
  5
45E
100
AcDbEntity
  8
KONSTRUKTIONSELEMENTE
100
AcDbSpline
 62
7
  6
CONTINUOUS
 70
0
 71
3
 72
9
 73
5
 74
0
 42
0.0000001
 43
0.0000001
 44
0.0000000001
 40
0.0
 40
0.0
 40
0.0
 40
0.0
 40
0.4998848256
 40
1.0
 40
1.0
 40
1.0
 40
1.0
 10
218.6232121662
 20
153.9032564778
 30
0.0
 10
218.6232121662
 20
153.5458782835
 30
0.0
 10
218.7003647177
 20
152.8292070245
 30
0.0
 10
218.9113417544
 20
152.1424182425
 30
0.0
 10
219.0402522952
 20
151.8089231445
 30
0.0
  0
SPLINE
  5
45F
100
AcDbEntity
  8
KONSTRUKTIONSELEMENTE
100
AcDbSpline
 62
7
  6
CONTINUOUS
 70
0
 71
3
 72
9
 73
5
 74
0
 42
0.0000001
 43
0.0000001
 44
0.0000000001
 40
0.0
 40
0.0
 40
0.0
 40
0.0
 40
0.494688926
 40
1.0
 40
1.0
 40
1.0
 40
1.0
 10
195.8330056529
 20
148.1929401606
 30
0.0
 10
195.8120485393
 20
148.5451346193
 30
0.0
 10
195.6575351659
 20
149.2525644346
 30
0.0
 10
195.342885991
 20
149.8974144495
 30
0.0
 10
195.1619660808
 20
150.2091054599
 30
0.0
  0
SPLINE
  5
460
100
AcDbEntity
  8
KONSTRUKTIONSELEMENTE
100
AcDbSpline
 62
7
  6
CONTINUOUS
 70
0
 71
3
 72
11
 73
7
 74
0
 42
0.0000001
 43
0.0000001
 44
0.0000000001
 40
0.0
 40
0.0
 40
0.0
 40
0.0
 40
0.2557279993
 40
0.5074851301
 40
0.7550583766
 40
1.0
 40
1.0
 40
1.0
 40
1.0
 10
195.4931451538
 20
159.1384089005
 30
0.0
 10
195.4931451538
 20
159.2944223409
 30
0.0
 10
195.5485496569
 20
159.6061825485
 30
0.0
 10
195.7667048229
 20
160.017953442
 30
0.0
 10
196.0677220926
 20
160.3617699414
 30
0.0
 10
196.3020034719
 20
160.5518084436
 30
0.0
 10
196.4237842698
 20
160.6384089005
 30
0.0
  0
SPLINE
  5
461
100
AcDbEntity
  8
KONSTRUKTIONSELEMENTE
100
AcDbSpline
 62
7
  6
CONTINUOUS
 70
0
 71
3
 72
11
 73
7
 74
0
 42
0.0000001
 43
0.0000001
 44
0.0000000001
 40
0.0
 40
0.0
 40
0.0
 40
0.0
 40
0.2449450505
 40
0.4925219357
 40
0.7442781348
 40
1.0
 40
1.0
 40
1.0
 40
1.0
 10
217.6925730503
 20
160.6384089005
 30
0.0
 10
217.8143555601
 20
160.5518072261
 30
0.0
 10
218.0486403081
 20
160.3617659411
 30
0.0
 10
218.3496588574
 20
160.0179452614
 30
0.0
 10
218.5678096235
 20
159.6061743458
 30
0.0
 10
218.6232121662
 20
159.2944186089
 30
0.0
 10
218.6232121662
 20
159.1384089005
 30
0.0
  0
LINE
  5
462
100
AcDbEntity
  8
0
100
AcDbLine
 62
7
  6
CONTINUOUS
 10
218.2833516671
 20
148.1929401606
 11
217.9635677004
 21
142.9422739532
  0
LINE
  5
463
100
AcDbEntity
  8
0
100
AcDbLine
 62
7
  6
CONTINUOUS
 10
196.1527896196
 20
142.9422739532
 11
195.8330056529
 21
148.1929401606
  0
SPLINE
  5
464
100
AcDbEntity
  8
KONSTRUKTIONSELEMENTE
100
AcDbSpline
 62
7
  6
CONTINUOUS
 70
0
 71
3
 72
10
 73
6
 74
0
 42
0.0000001
 43
0.0000001
 44
0.0000000001
 40
0.0
 40
0.0
 40
0.0
 40
0.0
 40
0.2359601556
 40
0.4830998292
 40
1.0
 40
1.0
 40
1.0
 40
1.0
 10
195.1619660808
 20
150.2091054599
 30
0.0
 10
195.0968145856
 20
150.3213492442
 30
0.0
 10
194.989376584
 20
150.5675724131
 30
0.0
 10
194.8939437615
 20
151.1135947574
 30
0.0
 10
194.9736005125
 20
151.543741165
 30
0.0
 10
195.0761050248
 20
151.8089231445
 30
0.0
  0
SPLINE
  5
465
100
AcDbEntity
  8
KONSTRUKTIONSELEMENTE
100
AcDbSpline
 62
7
  6
CONTINUOUS
 70
0
 71
3
 72
10
 73
6
 74
0
 42
0.0000001
 43
0.0000001
 44
0.0000000001
 40
0.0
 40
0.0
 40
0.0
 40
0.0
 40
0.5169001708
 40
0.7640398444
 40
1.0
 40
1.0
 40
1.0
 40
1.0
 10
219.0402522952
 20
151.8089231445
 30
0.0
 10
219.1427568076
 20
151.543741165
 30
0.0
 10
219.2224135585
 20
151.1135947574
 30
0.0
 10
219.126980736
 20
150.5675724131
 30
0.0
 10
219.0195427345
 20
150.3213492442
 30
0.0
 10
218.9543912392
 20
150.2091054599
 30
0.0
  0
SPLINE
  5
466
100
AcDbEntity
  8
KONSTRUKTIONSELEMENTE
100
AcDbSpline
 62
7
  6
CONTINUOUS
 70
0
 71
3
 72
9
 73
5
 74
0
 42
0.0000001
 43
0.0000001
 44
0.0000000001
 40
0.0
 40
0.0
 40
0.0
 40
0.0
 40
0.505311074
 40
1.0
 40
1.0
 40
1.0
 40
1.0
 10
218.9543912392
 20
150.2091054599
 30
0.0
 10
218.7734713291
 20
149.8974144495
 30
0.0
 10
218.4588221542
 20
149.2525644346
 30
0.0
 10
218.3043087808
 20
148.5451346193
 30
0.0
 10
218.2833516671
 20
148.1929401606
 30
0.0
  0
LINE
  5
467
100
AcDbEntity
  8
BEZUGSACHSEN
100
AcDbLine
 62
7
  6
CONTINUOUS
 10
559.1368063855
 20
197.5011681084
 11
559.1318382253
 21
197.4628905446
  0
LINE
  5
468
100
AcDbEntity
  8
BEZUGSACHSEN
100
AcDbLine
 62
7
  6
CONTINUOUS
 10
559.1318382253
 20
197.4628905446
 11
559.1267878767
 21
197.4246177736
  0
LINE
  5
469
100
AcDbEntity
  8
BEZUGSACHSEN
100
AcDbLine
 62
7
  6
CONTINUOUS
 10
559.1267878767
 20
197.4246177736
 11
559.1164424832
 21
197.3480865632
  0
LINE
  5
46A
100
AcDbEntity
  8
BEZUGSACHSEN
100
AcDbLine
 62
7
  6
CONTINUOUS
 10
559.1384489526
 20
197.5993210674
 11
559.1368063855
 21
197.5011681084
  0
LINE
  5
46B
100
AcDbEntity
  8
BEZUGSACHSEN
100
AcDbLine
 62
7
  6
CONTINUOUS
 10
559.1267166751
 20
198.1771589657
 11
559.1305916953
 21
198.1063698938
  0
LINE
  5
46C
100
AcDbEntity
  8
BEZUGSACHSEN
100
AcDbLine
 62
7
  6
CONTINUOUS
 10
559.1305916953
 20
198.1063698938
 11
559.1343814131
 21
198.0355615403
  0
LINE
  5
46D
100
AcDbEntity
  8
BEZUGSACHSEN
100
AcDbLine
 62
7
  6
CONTINUOUS
 10
559.1343814131
 20
198.0355615403
 11
559.1380854134
 21
197.9647338904
  0
LINE
  5
46E
100
AcDbEntity
  8
BEZUGSACHSEN
100
AcDbLine
 62
7
  6
CONTINUOUS
 10
559.1380854134
 20
197.9647338904
 11
559.1417032885
 21
197.8938869303
  0
LINE
  5
46F
100
AcDbEntity
  8
BEZUGSACHSEN
100
AcDbLine
 62
7
  6
CONTINUOUS
 10
559.0948092977
 20
198.4818894957
 11
559.1028878046
 21
198.4055119462
  0
LINE
  5
470
100
AcDbEntity
  8
BEZUGSACHSEN
100
AcDbLine
 62
7
  6
CONTINUOUS
 10
559.1028878046
 20
198.4055119462
 11
559.110898651
 21
198.3292643523
  0
LINE
  5
471
100
AcDbEntity
  8
BEZUGSACHSEN
100
AcDbLine
 62
7
  6
CONTINUOUS
 10
559.110898651
 20
198.3292643523
 11
559.1188416648
 21
198.2531466975
  0
LINE
  5
472
100
AcDbEntity
  8
BEZUGSACHSEN
100
AcDbLine
 62
7
  6
CONTINUOUS
 10
559.1188416648
 20
198.2531466975
 11
559.1267166751
 21
198.1771589657
  0
LINE
  5
473
100
AcDbEntity
  8
BEZUGSACHSEN
100
AcDbLine
 62
7
  6
CONTINUOUS
 10
559.0596175847
 20
198.7206327923
 11
559.0789704219
 21
198.589549595
  0
LINE
  5
474
100
AcDbEntity
  8
BEZUGSACHSEN
100
AcDbLine
 62
7
  6
CONTINUOUS
 10
559.0789704219
 20
198.589549595
 11
559.0948092977
 21
198.4818894957
  0
LINE
  5
475
100
AcDbEntity
  8
BEZUGSACHSEN
100
AcDbLine
 62
7
  6
CONTINUOUS
 10
559.1573260037
 20
200.1437061301
 11
559.1591398964
 21
200.0455646044
  0
LINE
  5
476
100
AcDbEntity
  8
BEZUGSACHSEN
100
AcDbLine
 62
7
  6
CONTINUOUS
 10
559.1591398964
 20
200.0455646044
 11
559.1604541344
 21
199.9474001851
  0
LINE
  5
477
100
AcDbEntity
  8
BEZUGSACHSEN
100
AcDbLine
 62
7
  6
CONTINUOUS
 10
559.1573260037
 20
200.1437061301
 11
559.1478771948
 21
200.1884127549
  0
LINE
  5
478
100
AcDbEntity
  8
BEZUGSACHSEN
100
AcDbLine
 62
7
  6
CONTINUOUS
 10
559.1478771948
 20
200.1884127549
 11
559.1376528951
 21
200.2367880822
  0
LINE
  5
479
100
AcDbEntity
  8
BEZUGSACHSEN
100
AcDbLine
 62
7
  6
CONTINUOUS
 10
559.1376528951
 20
200.2367880822
 11
559.0583375556
 21
200.6120442082
  0
LINE
  5
47A
100
AcDbEntity
  8
BEZUGSACHSEN
100
AcDbLine
 62
7
  6
CONTINUOUS
 10
559.0583375556
 20
200.6120442082
 11
559.0372016321
 21
200.712037405
  0
LINE
  5
47B
100
AcDbEntity
  8
BEZUGSACHSEN
100
AcDbLine
 62
7
  6
CONTINUOUS
 10
559.0372016321
 20
200.712037405
 11
559.0060959203
 21
200.859193659
  0
LINE
  5
47C
100
AcDbEntity
  8
BEZUGSACHSEN
100
AcDbLine
 62
7
  6
CONTINUOUS
 10
559.0060959203
 20
200.859193659
 11
558.9956488119
 21
200.9086163508
  0
LINE
  5
47D
100
AcDbEntity
  8
BEZUGSACHSEN
100
AcDbLine
 62
7
  6
CONTINUOUS
 10
559.0556297001
 20
199.5237402077
 11
559.0322451847
 21
199.6347329595
  0
LINE
  5
47E
100
AcDbEntity
  8
BEZUGSACHSEN
100
AcDbLine
 62
7
  6
CONTINUOUS
 10
559.0322451847
 20
199.6347329595
 11
558.9211494442
 21
200.161950456
  0
LINE
  5
47F
100
AcDbEntity
  8
BEZUGSACHSEN
100
AcDbLine
 62
7
  6
CONTINUOUS
 10
558.9211494442
 20
200.161950456
 11
558.5053660327
 21
202.1339902067
  0
LINE
  5
480
100
AcDbEntity
  8
BEZUGSACHSEN
100
AcDbLine
 62
7
  6
CONTINUOUS
 10
558.4667545837
 20
203.238818311
 11
558.4823493844
 21
203.1965068452
  0
LINE
  5
481
100
AcDbEntity
  8
BEZUGSACHSEN
100
AcDbLine
 62
7
  6
CONTINUOUS
 10
558.5283050656
 20
203.0710361532
 11
558.5902981212
 21
202.8379881392
  0
LINE
  5
482
100
AcDbEntity
  8
BEZUGSACHSEN
100
AcDbLine
 62
7
  6
CONTINUOUS
 10
558.5902981212
 20
202.8379881392
 11
558.6005490986
 21
202.7933880998
  0
LINE
  5
483
100
AcDbEntity
  8
BEZUGSACHSEN
100
AcDbLine
 62
7
  6
CONTINUOUS
 10
558.6005490986
 20
202.7933880998
 11
558.609940067
 21
202.7525247192
  0
LINE
  5
484
100
AcDbEntity
  8
BEZUGSACHSEN
100
AcDbLine
 62
7
  6
CONTINUOUS
 10
558.609940067
 20
202.7525247192
 11
558.6502298841
 21
202.5771535564
  0
LINE
  5
485
100
AcDbEntity
  8
BEZUGSACHSEN
100
AcDbLine
 62
7
  6
CONTINUOUS
 10
558.6502298841
 20
202.5771535564
 11
558.6684700978
 21
202.4977280536
  0
LINE
  5
486
100
AcDbEntity
  8
BEZUGSACHSEN
100
AcDbLine
 62
7
  6
CONTINUOUS
 10
558.6684700978
 20
202.4977280536
 11
558.7081880841
 21
202.3096945872
  0
LINE
  5
487
100
AcDbEntity
  8
BEZUGSACHSEN
100
AcDbLine
 62
7
  6
CONTINUOUS
 10
558.7081880841
 20
202.3096945872
 11
558.7279756017
 21
202.2160140171
  0
LINE
  5
488
100
AcDbEntity
  8
BEZUGSACHSEN
100
AcDbLine
 62
7
  6
CONTINUOUS
 10
558.7279756017
 20
202.2160140171
 11
558.9047471038
 21
201.3790495349
  0
LINE
  5
489
100
AcDbEntity
  8
BEZUGSACHSEN
100
AcDbLine
 62
7
  6
CONTINUOUS
 10
558.9841700476
 20
200.9735238019
 11
558.9047471038
 21
201.3790495349
  0
LINE
  5
48A
100
AcDbEntity
  8
BEZUGSACHSEN
100
AcDbLine
 62
7
  6
CONTINUOUS
 10
559.0483973541
 20
200.6099432761
 11
559.0164332121
 21
200.7910028283
  0
LINE
  5
48B
100
AcDbEntity
  8
BEZUGSACHSEN
100
AcDbLine
 62
7
  6
CONTINUOUS
 10
559.0164332121
 20
200.7910028283
 11
558.9841700476
 21
200.9735238019
  0
LINE
  5
48C
100
AcDbEntity
  8
BEZUGSACHSEN
100
AcDbLine
 62
7
  6
CONTINUOUS
 10
559.1132646222
 20
200.1810969201
 11
559.097282652
 21
200.2872441611
  0
LINE
  5
48D
100
AcDbEntity
  8
BEZUGSACHSEN
100
AcDbLine
 62
7
  6
CONTINUOUS
 10
559.097282652
 20
200.2872441611
 11
559.0483973541
 21
200.6099432761
  0
LINE
  5
48E
100
AcDbEntity
  8
BEZUGSACHSEN
100
AcDbLine
 62
7
  6
CONTINUOUS
 10
559.121492145
 20
200.1109986762
 11
559.1132646222
 21
200.1810969201
  0
LINE
  5
48F
100
AcDbEntity
  8
BEZUGSACHSEN
100
AcDbLine
 62
7
  6
CONTINUOUS
 10
558.9676260684
 20
199.2345246187
 11
558.9280997838
 21
199.4189923774
  0
LINE
  5
490
100
AcDbEntity
  8
BEZUGSACHSEN
100
AcDbLine
 62
7
  6
CONTINUOUS
 10
558.9280997838
 20
199.4189923774
 11
558.8883612922
 21
199.6044142889
  0
LINE
  5
491
100
AcDbEntity
  8
BEZUGSACHSEN
100
AcDbLine
 62
7
  6
CONTINUOUS
 10
559.0314488788
 20
198.8864703958
 11
558.9676260684
 21
199.2345246187
  0
LINE
  5
492
100
AcDbEntity
  8
BEZUGSACHSEN
100
AcDbLine
 62
7
  6
CONTINUOUS
 10
559.0954334301
 20
198.4515117131
 11
559.0346851993
 21
198.8646025342
  0
LINE
  5
493
100
AcDbEntity
  8
BEZUGSACHSEN
100
AcDbLine
 62
7
  6
CONTINUOUS
 10
559.0346851993
 20
198.8646025342
 11
559.0314488788
 21
198.8864703958
  0
LINE
  5
494
100
AcDbEntity
  8
BEZUGSACHSEN
100
AcDbLine
 62
7
  6
CONTINUOUS
 10
558.879523349
 20
198.3008495348
 11
558.6388884238
 21
199.3001244868
  0
LINE
  5
495
100
AcDbEntity
  8
BEZUGSACHSEN
100
AcDbLine
 62
7
  6
CONTINUOUS
 10
558.6388884238
 20
199.3001244868
 11
558.6280432261
 21
199.345149814
  0
LINE
  5
496
100
AcDbEntity
  8
BEZUGSACHSEN
100
AcDbLine
 62
7
  6
CONTINUOUS
 10
558.6280432261
 20
199.345149814
 11
558.4510657871
 21
200.0797773151
  0
LINE
  5
497
100
AcDbEntity
  8
BEZUGSACHSEN
100
AcDbLine
 62
7
  6
CONTINUOUS
 10
558.4510657871
 20
200.0797773151
 11
558.3920359499
 21
200.3247618682
  0
LINE
  5
498
100
AcDbEntity
  8
BEZUGSACHSEN
100
AcDbLine
 62
7
  6
CONTINUOUS
 10
558.7568806779
 20
197.3758155433
 11
558.9257352193
 21
197.0186612464
  0
LINE
  5
499
100
AcDbEntity
  8
BEZUGSACHSEN
100
AcDbLine
 62
7
  6
CONTINUOUS
 10
558.879523349
 20
198.3008495348
 11
558.9434401834
 21
198.0831515845
  0
LINE
  5
49A
100
AcDbEntity
  8
BEZUGSACHSEN
100
AcDbLine
 62
7
  6
CONTINUOUS
 10
558.9434401834
 20
198.0831515845
 11
558.9925770725
 21
197.9741936098
  0
LINE
  5
49B
100
AcDbEntity
  8
BEZUGSACHSEN
100
AcDbLine
 62
7
  6
CONTINUOUS
 10
558.7250700891
 20
197.6933365153
 11
558.6773948
 21
197.972163062
  0
LINE
  5
49C
100
AcDbEntity
  8
BEZUGSACHSEN
100
AcDbLine
 62
7
  6
CONTINUOUS
 10
558.6773948
 20
197.972163062
 11
558.6612901347
 21
198.0660543951
  0
LINE
  5
49D
100
AcDbEntity
  8
BEZUGSACHSEN
100
AcDbLine
 62
7
  6
CONTINUOUS
 10
558.6612901347
 20
198.0660543951
 11
558.63753149
 21
198.1728068563
  0
LINE
  5
49E
100
AcDbEntity
  8
BEZUGSACHSEN
100
AcDbLine
 62
7
  6
CONTINUOUS
 10
558.63753149
 20
198.1728068563
 11
558.6136625637
 21
198.2800117138
  0
LINE
  5
49F
100
AcDbEntity
  8
BEZUGSACHSEN
100
AcDbLine
 62
7
  6
CONTINUOUS
 10
558.5505916041
 20
198.4953352457
 11
558.6136625637
 21
198.2800117138
  0
LINE
  5
4A0
100
AcDbEntity
  8
BEZUGSACHSEN
100
AcDbLine
 62
7
  6
CONTINUOUS
 10
558.503598135
 20
198.6043629987
 11
558.5505916041
 21
198.4953352457
  0
LINE
  5
4A1
100
AcDbEntity
  8
BEZUGSACHSEN
100
AcDbLine
 62
7
  6
CONTINUOUS
 10
559.104391769
 20
194.9310147447
 11
558.7747218923
 21
196.0614626464
  0
LINE
  5
4A2
100
AcDbEntity
  8
BEZUGSACHSEN
100
AcDbLine
 62
7
  6
CONTINUOUS
 10
558.6804727792
 20
196.3844477181
 11
558.4447585787
 21
197.1919105481
  0
LINE
  5
4A3
100
AcDbEntity
  8
BEZUGSACHSEN
100
AcDbLine
 62
7
  6
CONTINUOUS
 10
558.3996739983
 20
201.6283266223
 11
558.4592507074
 21
201.3816059297
  0
LINE
  5
4A4
100
AcDbEntity
  8
BEZUGSACHSEN
100
AcDbLine
 62
7
  6
CONTINUOUS
 10
558.4592507074
 20
201.3816059297
 11
558.8883612922
 21
199.6044142889
  0
SPLINE
  5
4A5
100
AcDbEntity
  8
0
100
AcDbSpline
 62
7
  6
CONTINUOUS
 70
0
 71
3
 72
9
 73
5
 74
0
 42
0.0000001
 43
0.0000001
 44
0.0000000001
 40
0.0
 40
0.0
 40
0.0
 40
0.0
 40
0.5000000001
 40
1.0
 40
1.0
 40
1.0
 40
1.0
 10
551.1329854226
 20
211.7288120838
 30
0.0
 10
550.979819932
 20
210.9024050492
 30
0.0
 10
550.8092529385
 20
209.2186693851
 30
0.0
 10
550.9798199321
 20
207.534933721
 30
0.0
 10
551.1329854226
 20
206.7085266866
 30
0.0
  0
SPLINE
  5
4A6
100
AcDbEntity
  8
0
100
AcDbSpline
 62
7
  6
CONTINUOUS
 70
0
 71
3
 72
9
 73
5
 74
0
 42
0.0000001
 43
0.0000001
 44
0.0000000001
 40
0.0
 40
0.0
 40
0.0
 40
0.0
 40
0.5000019527
 40
1.0
 40
1.0
 40
1.0
 40
1.0
 10
556.9862415566
 20
193.5652488837
 30
0.0
 10
557.1057037374
 20
191.4794081039
 30
0.0
 10
557.2607200697
 20
187.302277237
 30
0.0
 10
557.2204166505
 20
183.1222434191
 30
0.0
 10
557.153211706
 20
181.0340819601
 30
0.0
  0
SPLINE
  5
4A7
100
AcDbEntity
  8
0
100
AcDbSpline
 62
7
  6
CONTINUOUS
 70
0
 71
3
 72
9
 73
5
 74
0
 42
0.0000001
 43
0.0000001
 44
0.0000000001
 40
0.0
 40
0.0
 40
0.0
 40
0.0
 40
0.5000000001
 40
1.0
 40
1.0
 40
1.0
 40
1.0
 10
556.9862415566
 20
206.7085266866
 30
0.0
 10
557.1410320285
 20
204.5220110675
 30
0.0
 10
557.3083490592
 20
200.1368877848
 30
0.0
 10
557.1410320284
 20
195.751764502
 30
0.0
 10
556.9862415566
 20
193.5652488837
 30
0.0
  0
LINE
  5
4A8
100
AcDbEntity
  8
BEZUGSACHSEN
100
AcDbLine
 62
7
  6
CONTINUOUS
 10
559.0552257876
 20
200.2649793279
 11
559.0512358046
 21
200.3162458023
  0
SPLINE
  5
4A9
100
AcDbEntity
  8
0
100
AcDbSpline
 62
7
  6
CONTINUOUS
 70
0
 71
3
 72
9
 73
5
 74
0
 42
0.0000001
 43
0.0000001
 44
0.0000000001
 40
0.0
 40
0.0
 40
0.0
 40
0.0
 40
0.5000000001
 40
1.0
 40
1.0
 40
1.0
 40
1.0
 10
551.1329854226
 20
206.7085266866
 30
0.0
 10
550.9781949507
 20
204.5220110675
 30
0.0
 10
550.8108779199
 20
200.1368877848
 30
0.0
 10
550.9781949507
 20
195.751764502
 30
0.0
 10
551.1329854226
 20
193.5652488837
 30
0.0
  0
SPLINE
  5
4AA
100
AcDbEntity
  8
0
100
AcDbSpline
 62
7
  6
CONTINUOUS
 70
0
 71
3
 72
9
 73
5
 74
0
 42
0.0000001
 43
0.0000001
 44
0.0000000001
 40
0.0
 40
0.0
 40
0.0
 40
0.0
 40
0.5000019527
 40
1.0
 40
1.0
 40
1.0
 40
1.0
 10
551.1329854226
 20
193.5652488837
 30
0.0
 10
551.0135232417
 20
191.4794081039
 30
0.0
 10
550.8585069094
 20
187.302277237
 30
0.0
 10
550.8988103287
 20
183.1222434191
 30
0.0
 10
550.9660152731
 20
181.0340819601
 30
0.0
  0
LINE
  5
4AB
100
AcDbEntity
  8
BEZUGSACHSEN
100
AcDbLine
 62
7
  6
CONTINUOUS
 10
559.0512358046
 20
200.3162458023
 11
559.0192301473
 21
200.5633021344
  0
LINE
  5
4AC
100
AcDbEntity
  8
BEZUGSACHSEN
100
AcDbLine
 62
7
  6
CONTINUOUS
 10
559.0192301473
 20
200.5633021344
 11
558.9713553047
 21
200.852304047
  0
LINE
  5
4AD
100
AcDbEntity
  8
BEZUGSACHSEN
100
AcDbLine
 62
7
  6
CONTINUOUS
 10
558.9713553047
 20
200.852304047
 11
558.9079309435
 21
201.183251219
  0
LINE
  5
4AE
100
AcDbEntity
  8
BEZUGSACHSEN
100
AcDbLine
 62
7
  6
CONTINUOUS
 10
558.6714273077
 20
202.3019297378
 11
558.8491294607
 21
201.4613929044
  0
LINE
  5
4AF
100
AcDbEntity
  8
BEZUGSACHSEN
100
AcDbLine
 62
7
  6
CONTINUOUS
 10
558.8491294607
 20
201.4613929044
 11
558.8681723044
 21
201.3713173073
  0
LINE
  5
4B0
100
AcDbEntity
  8
BEZUGSACHSEN
100
AcDbLine
 62
7
  6
CONTINUOUS
 10
558.8681723044
 20
201.3713173073
 11
558.9079309435
 21
201.183251219
  0
LINE
  5
4B1
100
AcDbEntity
  8
BEZUGSACHSEN
100
AcDbLine
 62
7
  6
CONTINUOUS
 10
558.6086781598
 20
202.5676110534
 11
558.6401428986
 21
202.434420386
  0
LINE
  5
4B2
100
AcDbEntity
  8
BEZUGSACHSEN
100
AcDbLine
 62
7
  6
CONTINUOUS
 10
558.6401428986
 20
202.434420386
 11
558.6714273077
 21
202.3019297378
  0
LINE
  5
4B3
100
AcDbEntity
  8
BEZUGSACHSEN
100
AcDbLine
 62
7
  6
CONTINUOUS
 10
558.5618656361
 20
202.7260807155
 11
558.5853795161
 21
202.64656585
  0
LINE
  5
4B4
100
AcDbEntity
  8
BEZUGSACHSEN
100
AcDbLine
 62
7
  6
CONTINUOUS
 10
558.5853795161
 20
202.64656585
 11
558.6086781598
 21
202.5676110534
  0
LINE
  5
4B5
100
AcDbEntity
  8
BEZUGSACHSEN
100
AcDbLine
 62
7
  6
CONTINUOUS
 10
558.5541424059
 20
202.738854601
 11
558.5618656361
 21
202.7260807155
  0
LINE
  5
4B6
100
AcDbEntity
  8
KONSTRUKTIONSELEMENTE
100
AcDbLine
 62
7
  6
CONTINUOUS
 10
558.1280985101
 20
202.3856632566
 11
558.2811562455
 21
201.6602780638
  0
LINE
  5
4B7
100
AcDbEntity
  8
KONSTRUKTIONSELEMENTE
100
AcDbLine
 62
7
  6
CONTINUOUS
 10
558.2811562455
 20
201.6602780638
 11
558.287897295
 21
201.6283268665
  0
LINE
  5
4B8
100
AcDbEntity
  8
BEZUGSACHSEN
100
AcDbLine
 62
7
  6
CONTINUOUS
 10
559.1420408236
 20
198.8804704738
 11
559.1361595396
 21
198.9084705087
  0
LINE
  5
4B9
100
AcDbEntity
  8
BEZUGSACHSEN
100
AcDbLine
 62
7
  6
CONTINUOUS
 10
559.1361595396
 20
198.9084705087
 11
559.0634317904
 21
199.2546534389
  0
LINE
  5
4BA
100
AcDbEntity
  8
BEZUGSACHSEN
100
AcDbLine
 62
7
  6
CONTINUOUS
 10
559.0634317904
 20
199.2546534389
 11
559.0089466411
 21
199.5139269206
  0
LINE
  5
4BB
100
AcDbEntity
  8
BEZUGSACHSEN
100
AcDbLine
 62
7
  6
CONTINUOUS
 10
559.0089466411
 20
199.5139269206
 11
558.985630537
 21
199.624860466
  0
LINE
  5
4BC
100
AcDbEntity
  8
BEZUGSACHSEN
100
AcDbLine
 62
7
  6
CONTINUOUS
 10
558.985630537
 20
199.624860466
 11
558.5572163272
 21
201.6614849047
  0
LINE
  5
4BD
100
AcDbEntity
  8
BEZUGSACHSEN
100
AcDbLine
 62
7
  6
CONTINUOUS
 10
558.5572163272
 20
201.6614849047
 11
558.4597629825
 21
202.1243882346
  0
LINE
  5
4BE
100
AcDbEntity
  8
BEZUGSACHSEN
100
AcDbLine
 62
7
  6
CONTINUOUS
 10
558.4597629825
 20
202.1243882346
 11
558.4047468364
 21
202.3856632566
  0
LINE
  5
4BF
100
AcDbEntity
  8
KONSTRUKTIONSELEMENTE
100
AcDbLine
 62
7
  6
CONTINUOUS
 10
558.7617685656
 20
197.5829056417
 11
558.7266500833
 21
197.6777136969
  0
LINE
  5
4C0
100
AcDbEntity
  8
BEZUGSACHSEN
100
AcDbLine
 62
7
  6
CONTINUOUS
 10
558.9520552616
 20
197.7571512722
 11
559.0174107955
 21
197.5829056417
  0
LINE
  5
4C1
100
AcDbEntity
  8
BEZUGSACHSEN
100
AcDbLine
 62
7
  6
CONTINUOUS
 10
558.8722959842
 20
198.0401364597
 11
558.9520552616
 21
197.7571512722
  0
LINE
  5
4C2
100
AcDbEntity
  8
KONSTRUKTIONSELEMENTE
100
AcDbLine
 62
7
  6
CONTINUOUS
 10
558.1297044561
 20
200.064048793
 11
558.4662295318
 21
198.6683332199
  0
LINE
  5
4C3
100
AcDbEntity
  8
KONSTRUKTIONSELEMENTE
100
AcDbLine
 62
7
  6
CONTINUOUS
 10
558.4662295318
 20
198.6683332199
 11
558.4753111477
 21
198.6306600161
  0
LINE
  5
4C4
100
AcDbEntity
  8
BEZUGSACHSEN
100
AcDbLine
 62
7
  6
CONTINUOUS
 10
558.8722959842
 20
198.0401364597
 11
558.8134800155
 21
198.2849822535
  0
LINE
  5
4C5
100
AcDbEntity
  8
BEZUGSACHSEN
100
AcDbLine
 62
7
  6
CONTINUOUS
 10
558.8134800155
 20
198.2849822535
 11
558.3857857418
 21
200.064048793
  0
LINE
  5
4C6
100
AcDbEntity
  8
RUNDUNGEN
100
AcDbLine
 62
7
  6
CONTINUOUS
 10
558.1026299666
 20
161.406358093
 11
559.0709639432
 21
160.406358093
  0
LINE
  5
4C7
100
AcDbEntity
  8
0
100
AcDbLine
 62
7
  6
CONTINUOUS
 10
550.0165970126
 20
161.406358093
 11
549.0482630359
 21
160.406358093
  0
SPLINE
  5
4C8
100
AcDbEntity
  8
BEZUGSACHSEN
100
AcDbSpline
 62
7
  6
CONTINUOUS
 70
0
 71
3
 72
8
 73
4
 74
0
 42
0.0000001
 43
0.0000001
 44
0.0000000001
 40
0.0
 40
0.0
 40
0.0
 40
0.0
 40
1.0
 40
1.0
 40
1.0
 40
1.0
 10
558.7873546531
 20
196.9533647804
 30
0.0
 10
558.8512566276
 20
196.817281195
 30
0.0
 10
558.9150405775
 20
196.681142098
 30
0.0
 10
558.9786821025
 20
196.5449365149
 30
0.0
  0
LINE
  5
4C9
100
AcDbEntity
  8
BEZUGSACHSEN
100
AcDbLine
 62
7
  6
CONTINUOUS
 10
558.9786821025
 20
196.5449365149
 11
559.1196306277
 21
196.2426355168
  0
LINE
  5
4CA
100
AcDbEntity
  8
KONSTRUKTIONSELEMENTE
100
AcDbLine
 62
7
  6
CONTINUOUS
 10
558.8741096586
 20
196.2426355168
 11
558.7865608059
 21
196.4333009565
  0
LINE
  5
4CB
100
AcDbEntity
  8
KONSTRUKTIONSELEMENTE
100
AcDbLine
 62
7
  6
CONTINUOUS
 10
558.7865608059
 20
196.4333009565
 11
558.7817958204
 21
196.4436587976
  0
SPLINE
  5
4CC
100
AcDbEntity
  8
0
100
AcDbSpline
 62
7
  6
CONTINUOUS
 70
0
 71
3
 72
9
 73
5
 74
0
 42
0.0000001
 43
0.0000001
 44
0.0000000001
 40
0.0
 40
0.0
 40
0.0
 40
0.0
 40
0.5000000001
 40
1.0
 40
1.0
 40
1.0
 40
1.0
 10
556.9862415566
 20
211.7288120838
 30
0.0
 10
557.1394070471
 20
210.9024050492
 30
0.0
 10
557.3099740406
 20
209.2186693851
 30
0.0
 10
557.1394070471
 20
207.534933721
 30
0.0
 10
556.9862415566
 20
206.7085266866
 30
0.0
  0
LINE
  5
4CD
100
AcDbEntity
  8
BEZUGSACHSEN
100
AcDbLine
 62
7
  6
CONTINUOUS
 10
559.0405746466
 20
198.0553692961
 11
559.0451173696
 21
198.0824960503
  0
LINE
  5
4CE
100
AcDbEntity
  8
BEZUGSACHSEN
100
AcDbLine
 62
7
  6
CONTINUOUS
 10
559.0956793946
 20
194.6162257475
 11
559.0119906522
 21
194.9041528638
  0
LINE
  5
4CF
100
AcDbEntity
  8
BEZUGSACHSEN
100
AcDbLine
 62
7
  6
CONTINUOUS
 10
559.0119906522
 20
194.9041528638
 11
558.9778741001
 21
195.0214917855
  0
LINE
  5
4D0
100
AcDbEntity
  8
BEZUGSACHSEN
100
AcDbLine
 62
7
  6
CONTINUOUS
 10
558.9778741001
 20
195.0214917855
 11
558.6830334168
 21
196.0347644468
  0
LINE
  5
4D1
100
AcDbEntity
  8
BEZUGSACHSEN
100
AcDbLine
 62
7
  6
CONTINUOUS
 10
558.6830334168
 20
196.0347644468
 11
558.5889640064
 21
196.3577907298
  0
LINE
  5
4D2
100
AcDbEntity
  8
BEZUGSACHSEN
100
AcDbLine
 62
7
  6
CONTINUOUS
 10
558.5889640064
 20
196.3577907298
 11
558.3592196532
 21
197.1462757772
  0
LINE
  5
4D3
100
AcDbEntity
  8
KONSTRUKTIONSELEMENTE
100
AcDbLine
 62
7
  6
CONTINUOUS
 10
558.128922527
 20
197.1462757772
 11
558.8683846299
 21
194.6162257475
  0
LINE
  5
4D4
100
AcDbEntity
  8
BEZUGSACHSEN
100
AcDbLine
 62
7
  6
CONTINUOUS
 10
559.032260154
 20
198.4954009696
 11
559.0009220554
 21
198.7563324623
  0
LINE
  5
4D5
100
AcDbEntity
  8
KONSTRUKTIONSELEMENTE
100
AcDbLine
 62
7
  6
CONTINUOUS
 10
558.4511965899
 20
197.3812794928
 11
558.4518970701
 21
197.1919331697
  0
LINE
  5
4D6
100
AcDbEntity
  8
KONSTRUKTIONSELEMENTE
100
AcDbLine
 62
7
  6
CONTINUOUS
 10
558.4518970701
 20
197.1919331697
 11
558.4519435333
 21
197.1675218772
  0
LINE
  5
4D7
100
AcDbEntity
  8
BEZUGSACHSEN
100
AcDbLine
 62
7
  6
CONTINUOUS
 10
559.0009220554
 20
198.7563324623
 11
558.953477723
 21
199.0390991537
  0
LINE
  5
4D8
100
AcDbEntity
  8
BEZUGSACHSEN
100
AcDbLine
 62
7
  6
CONTINUOUS
 10
558.953477723
 20
199.0390991537
 11
558.9061217786
 21
199.2672563855
  0
LINE
  5
4D9
100
AcDbEntity
  8
BEZUGSACHSEN
100
AcDbLine
 62
7
  6
CONTINUOUS
 10
558.9061217786
 20
199.2672563855
 11
558.8902492675
 21
199.3437013381
  0
LINE
  5
4DA
100
AcDbEntity
  8
KONSTRUKTIONSELEMENTE
100
AcDbLine
 62
7
  6
CONTINUOUS
 10
558.3856178089
 20
200.3232127309
 11
558.3800415968
 21
200.3463146804
  0
LINE
  5
4DB
100
AcDbEntity
  8
KONSTRUKTIONSELEMENTE
100
AcDbLine
 62
7
  6
CONTINUOUS
 10
558.3800415968
 20
200.3463146804
 11
558.1335107814
 21
201.3676136715
  0
LINE
  5
4DC
100
AcDbEntity
  8
BEZUGSACHSEN
100
AcDbLine
 62
7
  6
CONTINUOUS
 10
558.4729069937
 20
198.2923059762
 11
558.5045108784
 21
198.2895740014
  0
LINE
  5
4DD
100
AcDbEntity
  8
BEZUGSACHSEN
100
AcDbLine
 62
7
  6
CONTINUOUS
 10
558.4013049363
 20
201.3676136715
 11
558.8306348851
 21
199.5904686277
  0
LINE
  5
4DE
100
AcDbEntity
  8
BEZUGSACHSEN
100
AcDbLine
 62
7
  6
CONTINUOUS
 10
558.8306348851
 20
199.5904686277
 11
558.8902492675
 21
199.3437013381
  0
LINE
  5
4DF
100
AcDbEntity
  8
BEZUGSACHSEN
100
AcDbLine
 62
7
  6
CONTINUOUS
 10
558.5045108784
 20
198.2895740014
 11
558.5337562877
 21
198.2221480145
  0
LINE
  5
4E0
100
AcDbEntity
  8
BEZUGSACHSEN
100
AcDbLine
 62
7
  6
CONTINUOUS
 10
558.5337562877
 20
198.2221480145
 11
558.5400144178
 21
198.2077144171
  0
LINE
  5
4E1
100
AcDbEntity
  8
BEZUGSACHSEN
100
AcDbLine
 62
7
  6
CONTINUOUS
 10
558.5400144178
 20
198.2077144171
 11
558.551791771
 21
198.1805462484
  0
LINE
  5
4E2
100
AcDbEntity
  8
BEZUGSACHSEN
100
AcDbLine
 62
7
  6
CONTINUOUS
 10
558.551791771
 20
198.1805462484
 11
558.5991118206
 21
198.0190535618
  0
LINE
  5
4E3
100
AcDbEntity
  8
BEZUGSACHSEN
100
AcDbLine
 62
7
  6
CONTINUOUS
 10
558.6464725991
 20
197.8050962431
 11
558.5991118206
 21
198.0190535618
  0
LINE
  5
4E4
100
AcDbEntity
  8
BEZUGSACHSEN
100
AcDbLine
 62
7
  6
CONTINUOUS
 10
558.6779592744
 20
197.5925048367
 11
558.6464725991
 21
197.8050962431
  0
LINE
  5
4E5
100
AcDbEntity
  8
KONSTRUKTIONSELEMENTE
100
AcDbLine
 62
7
  6
CONTINUOUS
 10
558.4487386461
 20
197.4124942611
 11
558.4511965899
 21
197.3812794928
  0
ELLIPSE
  5
4E6
100
AcDbEntity
  8
KONSTRUKTIONSELEMENTE
100
AcDbEllipse
 62
7
  6
CONTINUOUS
 10
174.1814575749
 20
97.6532092117
 30
0.0
 11
1.1998003788
 21
0.3599938705
 31
0.0
 40
0.0607989098
 41
-2.7235007144
 42
-1.1527043876
  0
ELLIPSE
  5
4E7
100
AcDbEntity
  8
KONSTRUKTIONSELEMENTE
100
AcDbEllipse
 62
7
  6
CONTINUOUS
 10
178.3548483913
 20
97.7344846626
 30
0.0
 11
1.183046702
 21
-0.7347108677
 31
0.0
 40
0.7424978488
 41
7.2982401868
 42
8.8690365136
  0
ELLIPSE
  5
4E8
100
AcDbEntity
  8
KONSTRUKTIONSELEMENTE
100
AcDbEllipse
 62
7
  6
CONTINUOUS
 10
207.05817866
 20
115.7749608848
 30
0.0
 11
0.0
 21
48.4974226119
 31
0.0
 40
0.5773502692
 41
-0.3895798701
 42
-0.1632238035
  0
ELLIPSE
  5
4E9
100
AcDbEntity
  8
KONSTRUKTIONSELEMENTE
100
AcDbEllipse
 62
7
  6
CONTINUOUS
 10
207.05817866
 20
115.7749608848
 30
0.0
 11
0.0
 21
48.4974226119
 31
0.0
 40
0.5773502692
 41
0.1632238035
 42
0.3895798701
  0
ELLIPSE
  5
4EA
100
AcDbEntity
  8
0
100
AcDbEllipse
 62
7
  6
CONTINUOUS
 10
548.9195278863
 20
164.406358093
 30
0.0
 11
-0.1671239375
 21
3.4627603303
 31
0.0
 40
0.5767533335
 41
-2.6458226605
 42
-1.7790696948
  0
ELLIPSE
  5
4EB
100
AcDbEntity
  8
RUNDUNGEN
100
AcDbEllipse
 62
7
  6
CONTINUOUS
 10
559.1996990929
 20
164.406358093
 30
0.0
 11
0.1671239375
 21
3.4627603303
 31
0.0
 40
0.5767533335
 41
-4.5041156123
 42
-3.6373626467
  0
ELLIPSE
  5
4EC
100
AcDbEntity
  8
KONSTRUKTIONSELEMENTE
100
AcDbEllipse
 62
7
  6
CONTINUOUS
 10
438.5205662235
 20
99.9159509115
 30
0.0
 11
-0.0
 21
1.656829265
 31
0.0
 40
0.2216946626
 41
-4.4942228239
 42
-3.3587878842
  0
ELLIPSE
  5
4ED
100
AcDbEntity
  8
KONSTRUKTIONSELEMENTE
100
AcDbEllipse
 62
7
  6
CONTINUOUS
 10
440.7833079233
 20
97.6532092117
 30
0.0
 11
1.656829265
 21
0.0
 31
0.0
 40
0.2216946626
 41
-2.9243974229
 42
-1.7889624833
  0
ENDSEC
  0
SECTION
  2
OBJECTS
  0
DICTIONARY
  5
C
100
AcDbDictionary
280
0
281
1
  3
ACAD_GROUP
350
D
  3
ACAD_MLINESTYLE
350
17
  3
ACAD_LAYOUT
350
1A
  3
ACAD_PLOTSETTINGS
350
19
  3
ACAD_PLOTSTYLENAME
350
E
  0
DICTIONARY
  5
D
102
{ACAD_REACTORS
330
C
102
}
100
AcDbDictionary
280
0
281
1
  0
ACDBDICTIONARYWDFLT
  5
E
102
{ACAD_REACTORS
330
C
102
}
100
AcDbDictionary
281
1
  3
Normal
350
F
100
AcDbDictionaryWithDefault
340
F
  0
DICTIONARY
  5
17
102
{ACAD_REACTORS
330
C
102
}
100
AcDbDictionary
280
0
281
1
  3
Standard
350
18
  0
DICTIONARY
  5
19
102
{ACAD_REACTORS
330
C
102
}
100
AcDbDictionary
281
1
  0
DICTIONARY
  5
1A
102
{ACAD_REACTORS
330
C
102
}
100
AcDbDictionary
281
1
  3
Model
350
4EE
  3
Layout1
350
4EF
  0
ACDBPLACEHOLDER
  5
F
102
{ACAD_REACTORS
330
E
102
}
  0
MLINESTYLE
  5
18
102
{ACAD_REACTORS
330
17
102
}
100
AcDbMlineStyle
  2
STANDARD
 70
0
  3

 62
256
 51
90.0
 52
90.0
 71
2
 49
0.5
 62
256
  6
BYLAYER
 49
-0.5
 62
256
  6
BYLAYER
  0
LAYOUT
  5
4EE
102
{ACAD_REACTORS
330
1A
102
}
100
AcDbPlotSettings
  1

  2
none_device
  4
ISO_A1_(594.00_x_841.00_MM)
  6

 40
0.0
 41
0.0
 42
0.0
 43
0.0
 44
841.0
 45
594.0
 46
0.0
 47
0.0
 48
0.0
 49
0.0
140
0.0
141
0.0
142
1.0
143
1.0
 70
1024
 72
1
 73
0
 74
0
  7

 75
0
147
1.0
148
0.0
149
0.0
100
AcDbLayout
  1
Model
 70
0
 71
0
 10
0.0
 20
0.0
 11
841.0
 21
594.0
 12
0.0
 22
0.0
 32
0.0
 14
0.0
 24
0.0
 34
0.0
 15
0.0
 25
0.0
 35
0.0
146
0.0
 13
0.0
 23
0.0
 33
0.0
 16
1.0
 26
0.0
 36
0.0
 17
0.0
 27
1.0
 37
0.0
 76
0
330
20C
345
0
346
0
  0
LAYOUT
  5
4EF
102
{ACAD_REACTORS
330
1A
102
}
100
AcDbPlotSettings
  1

  2
none_device
  4
ISO_A1_(594.00_x_841.00_MM)
  6

 40
0.0
 41
0.0
 42
0.0
 43
0.0
 44
841.0
 45
594.0
 46
0.0
 47
0.0
 48
0.0
 49
0.0
140
0.0
141
0.0
142
1.0
143
1.0
 70
0
 72
1
 73
0
 74
0
  7

 75
0
147
1.0
148
0.0
149
0.0
100
AcDbLayout
  1
Layout1
 70
0
 71
1
 10
0.0
 20
0.0
 11
841.0
 21
594.0
 12
0.0
 22
0.0
 32
0.0
 14
0.0
 24
0.0
 34
0.0
 15
0.0
 25
0.0
 35
0.0
146
0.0
 13
0.0
 23
0.0
 33
0.0
 16
1.0
 26
0.0
 36
0.0
 17
0.0
 27
1.0
 37
0.0
 76
0
330
20D
345
0
346
0
  0
ENDSEC
  0
EOF
