999
DXF file: VSAK-1-6_140_7100687_M31566-P-1.dxf
999
Pro/ENGINEER 2010140 by Parametric Technology Corporation
  0
SECTION
  2
HEADER
  9
$ACADVER
  1
AC1015
  9
$DWGCODEPAGE
  3
ANSI_1252
  9
$EXTMAX
 10
841.0
 20
594.0
 30
0.0
  9
$EXTMIN
 10
0.0
 20
0.0
 30
0.0
  9
$LIMMIN
 10
0.0
 20
0.0
  9
$LIMMAX
 10
841.0
 20
594.0
  9
$VIEWCTR
 10
420.5
 20
297.0
  9
$VIEWSIZE
 40
594.0
  9
$CLAYER
  8
0
  9
$LTSCALE
 40
46.255
  9
$CELTYPE
  6
BYLAYER
  9
$DIMSCALE
 40
1.0
  9
$DIMASZ
 40
3.5
  9
$DIMEXO
 40
5.25625
  9
$DIMDLI
 40
31.958
  9
$DIMEXE
 40
15.138
  9
$DIMCEN
 40
7.569
  9
$DIMLFAC
 40
1.0
  9
$DIMBLK
  1
_FILLED
  9
$DIMTXT
 40
3.5
  9
$DIMTOL
 70
1
  9
$DIMLIM
 70
0
  9
$DIMTFAC
 40
1.0
  9
$DIMTP
 40
0.005
  9
$DIMTM
 40
0.005
  9
$PDMODE
 70
3
  9
$PDSIZE
 40
0.3125
  9
$HANDSEED
  5
500
  9
$TILEMODE
 70
1
  9
$MEASUREMENT
 70
1
  9
$INSUNITS
 70
4
  0
ENDSEC
  0
SECTION
  2
CLASSES
  0
CLASS
  1
ACDBDICTIONARYWDFLT
  2
AcDbDictionaryWithDefault
  3
AutoCAD 2000
 90
0
280
0
281
0
  0
CLASS
  1
ACDBPLACEHOLDER
  2
AcDbPlaceHolder
  3
AutoCAD 2000
 90
0
280
0
281
0
  0
CLASS
  1
LAYOUT
  2
AcDbLayout
  3
AutoCAD 2000
 90
0
280
0
281
0
  0
ENDSEC
  0
SECTION
  2
TABLES
  0
TABLE
  2
VPORT
  5
8
100
AcDbSymbolTable
 70
2
  0
VPORT
  5
1F4
100
AcDbSymbolTableRecord
100
AcDbViewportTableRecord
  2
*ACTIVE
 70
0
 10
0.0
 20
0.0
 11
1.0
 21
1.0
 12
420.5
 22
297.0
 13
0.0
 23
0.0
 14
1.0
 24
1.0
 15
0.0
 25
0.0
 16
0.0
 26
0.0
 36
1.0
 17
0.0
 27
0.0
 37
0.0
 40
594.0
 41
1.4158249158
 42
50.0
 43
0.0
 44
0.0
 50
0.0
 51
0.0
 71
0
 72
100
 73
1
 74
1
 75
0
 76
0
 77
0
 78
0
  0
ENDTAB
  0
TABLE
  2
LTYPE
  5
5
100
AcDbSymbolTable
 70
6
  0
LTYPE
  5
14
100
AcDbSymbolTableRecord
100
AcDbLinetypeTableRecord
  2
BYBLOCK
 70
0
  3

 72
65
 73
0
 40
0.0
  0
LTYPE
  5
15
100
AcDbSymbolTableRecord
100
AcDbLinetypeTableRecord
  2
BYLAYER
 70
0
  3

 72
65
 73
0
 40
0.0
  0
LTYPE
  5
16
100
AcDbSymbolTableRecord
100
AcDbLinetypeTableRecord
  2
CONTINUOUS
 70
64
  3
Solid line
 72
65
 73
0
 40
0.0
  0
LTYPE
  5
1F5
100
AcDbSymbolTableRecord
100
AcDbLinetypeTableRecord
  2
CENTER
 70
64
  3
____ _ ____ _ ____ _ ____ _ ____ _ ____ _ ____
 72
65
 73
4
 40
0.6
 49
0.375
 74
0
 49
-0.075
 74
0
 49
0.075
 74
0
 49
-0.075
 74
0
  0
LTYPE
  5
1F6
100
AcDbSymbolTableRecord
100
AcDbLinetypeTableRecord
  2
HIDDEN
 70
64
  3
- - - - - - - - - - - - - - - - - - - -
 72
65
 73
2
 40
0.2
 49
0.1
 74
0
 49
-0.1
 74
0
  0
LTYPE
  5
1F7
100
AcDbSymbolTableRecord
100
AcDbLinetypeTableRecord
  2
PHANTOM
 70
64
  3
_____ _ _ _____ _ _ _____ _ _ _____
 72
65
 73
6
 40
0.8
 49
0.45
 74
0
 49
-0.05
 74
0
 49
0.1
 74
0
 49
-0.05
 74
0
 49
0.1
 74
0
 49
-0.05
 74
0
  0
LTYPE
  5
1F8
100
AcDbSymbolTableRecord
100
AcDbLinetypeTableRecord
  2
DOT
 70
64
  3
. . . . . . . . . . . . . . . . . . . .
 72
65
 73
2
 40
0.2
 49
0.1
 74
0
 49
-0.1
 74
0
  0
LTYPE
  5
1F9
100
AcDbSymbolTableRecord
100
AcDbLinetypeTableRecord
  2
DASHED
 70
64
  3
- - - - - - - - - - - - - - - - - - - -
 72
65
 73
2
 40
0.2
 49
0.1
 74
0
 49
-0.1
 74
0
  0
ENDTAB
  0
TABLE
  2
LAYER
  5
2
100
AcDbSymbolTable
 70
36
  0
LAYER
  5
10
100
AcDbSymbolTableRecord
100
AcDbLayerTableRecord
  2
0
 70
0
 62
7
  6
CONTINUOUS
370
-3
390
F
  0
LAYER
  5
1FA
100
AcDbSymbolTableRecord
100
AcDbLayerTableRecord
  2
DEFAULT_1
 70
0
 62
7
  6
CENTER
370
-3
390
F
  0
LAYER
  5
1FB
100
AcDbSymbolTableRecord
100
AcDbLayerTableRecord
  2
DEFAULT_2
 70
0
 62
8
  6
HIDDEN
370
-3
390
F
  0
LAYER
  5
1FC
100
AcDbSymbolTableRecord
100
AcDbLayerTableRecord
  2
DEFAULT_3
 70
0
 62
7
  6
PHANTOM
370
-3
390
F
  0
LAYER
  5
1FD
100
AcDbSymbolTableRecord
100
AcDbLayerTableRecord
  2
AUSFORMSCHRAEGEN
 70
0
 62
7
  6
CONTINUOUS
370
-3
390
F
  0
LAYER
  5
1FE
100
AcDbSymbolTableRecord
100
AcDbLayerTableRecord
  2
BEZUGSACHSEN
 70
0
 62
7
  6
CONTINUOUS
370
-3
390
F
  0
LAYER
  5
1FF
100
AcDbSymbolTableRecord
100
AcDbLayerTableRecord
  2
BEZUGSEBENEN
 70
0
 62
7
  6
CONTINUOUS
370
-3
390
F
  0
LAYER
  5
200
100
AcDbSymbolTableRecord
100
AcDbLayerTableRecord
  2
BG_STARTBEZUEGE
 70
0
 62
7
  6
CONTINUOUS
370
-3
390
F
  0
LAYER
  5
201
100
AcDbSymbolTableRecord
100
AcDbLayerTableRecord
  2
FASEN
 70
0
 62
7
  6
CONTINUOUS
370
-3
390
F
  0
LAYER
  5
202
100
AcDbSymbolTableRecord
100
AcDbLayerTableRecord
  2
FLAECHEN
 70
0
 62
7
  6
CONTINUOUS
370
-3
390
F
  0
LAYER
  5
203
100
AcDbSymbolTableRecord
100
AcDbLayerTableRecord
  2
HILFEN
 70
0
 62
7
  6
CONTINUOUS
370
-3
390
F
  0
LAYER
  5
204
100
AcDbSymbolTableRecord
100
AcDbLayerTableRecord
  2
KONSTRUKTIONSELEMENTE
 70
0
 62
7
  6
CONTINUOUS
370
-3
390
F
  0
LAYER
  5
205
100
AcDbSymbolTableRecord
100
AcDbLayerTableRecord
  2
NORM
 70
0
 62
7
  6
CONTINUOUS
370
-3
390
F
  0
LAYER
  5
206
100
AcDbSymbolTableRecord
100
AcDbLayerTableRecord
  2
PLATZIERUNG
 70
0
 62
7
  6
CONTINUOUS
370
-3
390
F
  0
LAYER
  5
207
100
AcDbSymbolTableRecord
100
AcDbLayerTableRecord
  2
PLAZIERUNG
 70
0
 62
7
  6
CONTINUOUS
370
-3
390
F
  0
LAYER
  5
208
100
AcDbSymbolTableRecord
100
AcDbLayerTableRecord
  2
RUNDUNGEN
 70
0
 62
7
  6
CONTINUOUS
370
-3
390
F
  0
LAYER
  5
209
100
AcDbSymbolTableRecord
100
AcDbLayerTableRecord
  2
TEIL_STARTBEZUEGE
 70
0
 62
7
  6
CONTINUOUS
370
-3
390
F
  0
LAYER
  5
20A
100
AcDbSymbolTableRecord
100
AcDbLayerTableRecord
  2
T_STARTBEZUEGE
 70
0
 62
7
  6
CONTINUOUS
370
-3
390
F
  0
ENDTAB
  0
TABLE
  2
STYLE
  5
3
100
AcDbSymbolTable
 70
1
  0
STYLE
  5
11
100
AcDbSymbolTableRecord
100
AcDbTextStyleTableRecord
  2
STANDARD
 70
0
 40
0.0
 41
0.7
 50
0.0
 71
0
 42
0.2
  3
txt
  4

  0
STYLE
  5
20B
100
AcDbSymbolTableRecord
100
AcDbTextStyleTableRecord
  2
TEXTSTYLE_1
 70
0
 40
0.0
 41
0.8
 50
0.0
 71
0
 42
0.2
  3
gdt
  4

  0
ENDTAB
  0
TABLE
  2
VIEW
  5
6
100
AcDbSymbolTable
 70
0
  0
ENDTAB
  0
TABLE
  2
UCS
  5
7
100
AcDbSymbolTable
 70
0
  0
ENDTAB
  0
TABLE
  2
APPID
  5
9
100
AcDbSymbolTable
 70
1
  0
APPID
  5
20C
100
AcDbSymbolTableRecord
100
AcDbRegAppTableRecord
  2
ACAD
 70
0
  0
ENDTAB
  0
TABLE
  2
BLOCK_RECORD
  5
1
100
AcDbSymbolTable
 70
0
  0
BLOCK_RECORD
  5
20D
100
AcDbSymbolTableRecord
100
AcDbBlockTableRecord
  2
*Model_Space
  0
BLOCK_RECORD
  5
20E
100
AcDbSymbolTableRecord
100
AcDbBlockTableRecord
  2
*Paper_Space
  0
ENDTAB
  0
TABLE
  2
DIMSTYLE
  5
A
100
AcDbSymbolTable
 70
1
100
AcDbDimStyleTable
 71
0
  0
DIMSTYLE
105
20F
100
AcDbSymbolTableRecord
100
AcDbDimStyleTableRecord
  2
STANDARD
 70
0
  3

  4

 40
1.0
 41
3.5
 42
0.0625
 43
0.38
 44
0.18
 45
0.0
 46
0.0
 47
0.005
 48
0.005
140
3.5
141
0.09
142
0.0
143
25.4
144
1.0
145
0.0
146
1.0
147
0.09
 71
1.0
 72
0.0
 73
0
 74
0
 75
0
 76
0
 77
1
 78
8
170
0
171
2
172
0
173
0
174
0
175
0
176
0
177
0
178
5
270
2
271
3
272
3
273
2
274
2
275
0
280
0
281
0
282
0
283
1
284
8
285
0
286
0
287
3
288
0
340
11
  0
ENDTAB
  0
ENDSEC
  0
SECTION
  2
BLOCKS
  0
BLOCK
  5
20
100
AcDbEntity
  8
0
100
AcDbBlockBegin
  2
*Model_Space
 70
0
 10
0.0
 20
0.0
 30
0.0
  3
*Model_Space
  1

  0
ENDBLK
  5
21
100
AcDbEntity
  8
0
100
AcDbBlockEnd
  0
BLOCK
  5
1C
100
AcDbEntity
  8
0
100
AcDbBlockBegin
  2
*Paper_Space
 70
0
 10
0.0
 20
0.0
 30
0.0
  3
*Paper_Space
  1

  0
ENDBLK
  5
1D
100
AcDbEntity
  8
0
100
AcDbBlockEnd
  0
ENDSEC
  0
SECTION
  2
ENTITIES
  0
MTEXT
  5
210
100
AcDbEntity
  8
0
100
AcDbMText
 62
5
  6
CONTINUOUS
  7
STANDARD
 71
1
 72
1
 10
286.834606523
 20
345.7634268378
 30
0.0
 11
0.0
 21
1.0
 31
0.0
 44
0.9
  1
VSAK 1-6/140
 40
9.0
 41
82.9285714286
  0
MTEXT
  5
211
100
AcDbEntity
  8
0
100
AcDbMText
 62
5
  6
CONTINUOUS
  7
STANDARD
 71
1
 72
1
 10
129.031112333
 20
366.2948811043
 30
0.0
 11
0.0
 21
1.0
 31
0.0
 44
0.9
  1
RUD
 40
9.0
 41
24.0
  0
MTEXT
  5
212
100
AcDbEntity
  8
0
100
AcDbMText
 62
5
  6
CONTINUOUS
  7
STANDARD
 71
1
 72
1
 10
544.6208092883
 20
335.6308705988
 30
0.0
 11
0.0
 21
1.0
 31
0.0
 44
0.9
  1
RUD VSAK 1-6/140
 40
9.0
 41
112.2857142857
  0
LINE
  5
213
100
AcDbEntity
  8
0
100
AcDbLine
 62
7
  6
CONTINUOUS
 10
0.0
 20
0.0
 11
0.0
 21
594.0
  0
LINE
  5
214
100
AcDbEntity
  8
0
100
AcDbLine
 62
7
  6
CONTINUOUS
 10
0.0
 20
0.0
 11
841.0
 21
0.0
  0
LINE
  5
215
100
AcDbEntity
  8
0
100
AcDbLine
 62
7
  6
CONTINUOUS
 10
0.0
 20
594.0
 11
841.0
 21
594.0
  0
LINE
  5
216
100
AcDbEntity
  8
0
100
AcDbLine
 62
7
  6
CONTINUOUS
 10
841.0
 20
0.0
 11
841.0
 21
594.0
  0
LINE
  5
217
100
AcDbEntity
  8
KONSTRUKTIONSELEMENTE
100
AcDbLine
 62
7
  6
CONTINUOUS
 10
209.8776605422
 20
71.0338167987
 11
215.3376605422
 21
71.0338167987
  0
LINE
  5
218
100
AcDbEntity
  8
KONSTRUKTIONSELEMENTE
100
AcDbLine
 62
7
  6
CONTINUOUS
 10
209.5776605422
 20
71.2459488331
 11
209.8776605422
 21
71.2459488331
  0
LINE
  5
219
100
AcDbEntity
  8
KONSTRUKTIONSELEMENTE
100
AcDbLine
 62
7
  6
CONTINUOUS
 10
215.3376605422
 20
71.2459488331
 11
215.6376605422
 21
71.2459488331
  0
LINE
  5
21A
100
AcDbEntity
  8
KONSTRUKTIONSELEMENTE
100
AcDbLine
 62
7
  6
CONTINUOUS
 10
204.0004320181
 20
79.5190981729
 11
207.4776605422
 21
79.5190981729
  0
LINE
  5
21B
100
AcDbEntity
  8
KONSTRUKTIONSELEMENTE
100
AcDbLine
 62
7
  6
CONTINUOUS
 10
217.7376605422
 20
79.5190981729
 11
229.7962803436
 21
79.5190981729
  0
LINE
  5
21C
100
AcDbEntity
  8
KONSTRUKTIONSELEMENTE
100
AcDbLine
 62
7
  6
CONTINUOUS
 10
231.4728072068
 20
80.9658535571
 11
228.1194683947
 21
82.0715476404
  0
LINE
  5
21D
100
AcDbEntity
  8
KONSTRUKTIONSELEMENTE
100
AcDbLine
 62
7
  6
CONTINUOUS
 10
231.4728072068
 20
83.0871739007
 11
228.1194683947
 21
84.192867984
  0
LINE
  5
21E
100
AcDbEntity
  8
KONSTRUKTIONSELEMENTE
100
AcDbLine
 62
7
  6
CONTINUOUS
 10
186.8826572415
 20
102.5782616475
 11
187.00944272
 21
102.5981367673
  0
LINE
  5
21F
100
AcDbEntity
  8
KONSTRUKTIONSELEMENTE
100
AcDbLine
 62
7
  6
CONTINUOUS
 10
241.1783726825
 20
101.874009846
 11
244.712973052
 21
100.7085485149
  0
LINE
  5
220
100
AcDbEntity
  8
KONSTRUKTIONSELEMENTE
100
AcDbLine
 62
7
  6
CONTINUOUS
 10
217.6790796831
 20
112.6652188803
 11
243.9141532477
 21
104.0147462495
  0
LINE
  5
221
100
AcDbEntity
  8
KONSTRUKTIONSELEMENTE
100
AcDbLine
 62
7
  6
CONTINUOUS
 10
243.9141532477
 20
106.1360665931
 11
217.6790796831
 21
114.7865392239
  0
LINE
  5
222
100
AcDbEntity
  8
KONSTRUKTIONSELEMENTE
100
AcDbLine
 62
7
  6
CONTINUOUS
 10
222.8990968856
 20
159.5016196454
 11
220.700196409
 21
159.5016196454
  0
LINE
  5
223
100
AcDbEntity
  8
KONSTRUKTIONSELEMENTE
100
AcDbLine
 62
7
  6
CONTINUOUS
 10
204.5151246754
 20
159.5016196454
 11
202.3162241988
 21
159.5016196454
  0
LINE
  5
224
100
AcDbEntity
  8
0
100
AcDbLine
 62
7
  6
CONTINUOUS
 10
216.1076605422
 20
164.4016196454
 11
209.1076605422
 21
164.4016196454
  0
LINE
  5
225
100
AcDbEntity
  8
RUNDUNGEN
100
AcDbLine
 62
7
  6
CONTINUOUS
 10
225.4938979641
 20
165.5016196454
 11
221.9590493193
 21
165.5016196454
  0
LINE
  5
226
100
AcDbEntity
  8
RUNDUNGEN
100
AcDbLine
 62
7
  6
CONTINUOUS
 10
203.2562717651
 20
165.5016196454
 11
199.7214231203
 21
165.5016196454
  0
LINE
  5
227
100
AcDbEntity
  8
0
100
AcDbLine
 62
7
  6
CONTINUOUS
 10
216.1076605422
 20
171.6016196454
 11
209.1076605422
 21
171.6016196454
  0
LINE
  5
228
100
AcDbEntity
  8
KONSTRUKTIONSELEMENTE
100
AcDbLine
 62
7
  6
CONTINUOUS
 10
186.3755153274
 20
103.347289306
 11
186.8826572415
 21
102.5782616475
  0
LINE
  5
229
100
AcDbEntity
  8
KONSTRUKTIONSELEMENTE
100
AcDbLine
 62
7
  6
CONTINUOUS
 10
190.2931866137
 20
97.4065506443
 11
201.281508657
 21
80.7439098003
  0
LINE
  5
22A
100
AcDbEntity
  8
KONSTRUKTIONSELEMENTE
100
AcDbLine
 62
7
  6
CONTINUOUS
 10
190.2931866137
 20
97.6186826787
 11
190.1664011352
 21
97.8109395933
  0
LINE
  5
22B
100
AcDbEntity
  8
KONSTRUKTIONSELEMENTE
100
AcDbLine
 62
7
  6
CONTINUOUS
 10
191.770839849
 20
103.1969985851
 11
194.263107556
 21
99.4177353341
  0
LINE
  5
22C
100
AcDbEntity
  8
KONSTRUKTIONSELEMENTE
100
AcDbLine
 62
7
  6
CONTINUOUS
 10
203.2976406982
 20
200.4912733135
 11
203.5323700309
 21
200.5411981329
  0
LINE
  5
22D
100
AcDbEntity
  8
KONSTRUKTIONSELEMENTE
100
AcDbLine
 62
7
  6
CONTINUOUS
 10
225.1270440824
 20
196.7789117892
 11
224.9319520276
 21
196.7444442378
  0
LINE
  5
22E
100
AcDbEntity
  8
KONSTRUKTIONSELEMENTE
100
AcDbLine
 62
7
  6
CONTINUOUS
 10
224.7664875255
 20
198.0116673532
 11
224.9615796614
 21
198.0461349422
  0
LINE
  5
22F
100
AcDbEntity
  8
KONSTRUKTIONSELEMENTE
100
AcDbLine
 62
7
  6
CONTINUOUS
 10
225.6930009683
 20
198.4412935388
 11
225.8880931852
 21
198.4757611655
  0
LINE
  5
230
100
AcDbEntity
  8
KONSTRUKTIONSELEMENTE
100
AcDbLine
 62
7
  6
CONTINUOUS
 10
221.9506304257
 20
200.4693865458
 11
222.2737999288
 21
200.5145790386
  0
LINE
  5
231
100
AcDbEntity
  8
KONSTRUKTIONSELEMENTE
100
AcDbLine
 62
7
  6
CONTINUOUS
 10
222.7582612605
 20
203.3115619003
 11
222.4350900865
 21
203.2663710252
  0
LINE
  5
232
100
AcDbEntity
  8
KONSTRUKTIONSELEMENTE
100
AcDbLine
 62
7
  6
CONTINUOUS
 10
224.8437149078
 20
196.4795378012
 11
225.175992951
 21
196.5216191788
  0
LINE
  5
233
100
AcDbEntity
  8
KONSTRUKTIONSELEMENTE
100
AcDbLine
 62
7
  6
CONTINUOUS
 10
225.9763302645
 20
198.7406675833
 11
225.6440520996
 21
198.6985861492
  0
LINE
  5
234
100
AcDbEntity
  8
KONSTRUKTIONSELEMENTE
100
AcDbLine
 62
7
  6
CONTINUOUS
 10
203.3020870902
 20
200.8513969538
 11
203.1038120208
 21
200.8368547617
  0
LINE
  5
235
100
AcDbEntity
  8
KONSTRUKTIONSELEMENTE
100
AcDbLine
 62
7
  6
CONTINUOUS
 10
200.4782007613
 20
200.9017821883
 11
200.641125899
 21
200.9104831968
  0
LINE
  5
236
100
AcDbEntity
  8
KONSTRUKTIONSELEMENTE
100
AcDbLine
 62
7
  6
CONTINUOUS
 10
220.6517020892
 20
203.2542166707
 11
220.8916661099
 21
203.2515227335
  0
LINE
  5
237
100
AcDbEntity
  8
KONSTRUKTIONSELEMENTE
100
AcDbLine
 62
7
  6
CONTINUOUS
 10
224.9319520276
 20
196.7444442378
 11
224.7154881546
 21
196.7560661287
  0
LINE
  5
238
100
AcDbEntity
  8
KONSTRUKTIONSELEMENTE
100
AcDbLine
 62
7
  6
CONTINUOUS
 10
225.8880931852
 20
198.4757611655
 11
226.1045570177
 21
198.4641392558
  0
LINE
  5
239
100
AcDbEntity
  8
KONSTRUKTIONSELEMENTE
100
AcDbLine
 62
7
  6
CONTINUOUS
 10
222.1406952896
 20
200.8170524187
 11
221.9422740221
 21
200.8294410869
  0
LINE
  5
23A
100
AcDbEntity
  8
KONSTRUKTIONSELEMENTE
100
AcDbLine
 62
7
  6
CONTINUOUS
 10
222.5681947565
 20
202.9638976776
 11
222.7666159933
 21
202.9515089769
  0
LINE
  5
23B
100
AcDbEntity
  8
KONSTRUKTIONSELEMENTE
100
AcDbLine
 62
7
  6
CONTINUOUS
 10
200.817954068
 20
201.1587608937
 11
200.5215752104
 21
201.1827385717
  0
LINE
  5
23C
100
AcDbEntity
  8
KONSTRUKTIONSELEMENTE
100
AcDbLine
 62
7
  6
CONTINUOUS
 10
224.5479731705
 20
196.5103954185
 11
224.8437149078
 21
196.4795378012
  0
LINE
  5
23D
100
AcDbEntity
  8
KONSTRUKTIONSELEMENTE
100
AcDbLine
 62
7
  6
CONTINUOUS
 10
226.2720719815
 20
198.7098099565
 11
225.9763302645
 21
198.7406675833
  0
LINE
  5
23E
100
AcDbEntity
  8
KONSTRUKTIONSELEMENTE
100
AcDbLine
 62
7
  6
CONTINUOUS
 10
204.5787330474
 20
204.5593298029
 11
204.7762893772
 21
204.5370595615
  0
LINE
  5
23F
100
AcDbEntity
  8
KONSTRUKTIONSELEMENTE
100
AcDbLine
 62
7
  6
CONTINUOUS
 10
202.9739991714
 20
200.5329540958
 11
203.2976406982
 21
200.4912733135
  0
LINE
  5
240
100
AcDbEntity
  8
KONSTRUKTIONSELEMENTE
100
AcDbLine
 62
7
  6
CONTINUOUS
 10
221.7153718414
 20
200.516760974
 11
221.9506304257
 21
200.4693865458
  0
LINE
  5
241
100
AcDbEntity
  8
KONSTRUKTIONSELEMENTE
100
AcDbLine
 62
7
  6
CONTINUOUS
 10
224.9615796614
 20
198.0461349422
 11
225.1201364087
 21
198.0076613983
  0
LINE
  5
242
100
AcDbEntity
  8
KONSTRUKTIONSELEMENTE
100
AcDbLine
 62
7
  6
CONTINUOUS
 10
203.1038120208
 20
200.8368547617
 11
202.8975348573
 21
200.9034976399
  0
LINE
  5
243
100
AcDbEntity
  8
KONSTRUKTIONSELEMENTE
100
AcDbLine
 62
7
  6
CONTINUOUS
 10
202.9045536483
 20
199.7973838248
 11
201.4435138037
 21
200.2766374105
  0
LINE
  5
244
100
AcDbEntity
  8
KONSTRUKTIONSELEMENTE
100
AcDbLine
 62
7
  6
CONTINUOUS
 10
201.370667979
 20
199.9543013912
 11
202.6982540615
 21
199.5077264329
  0
LINE
  5
245
100
AcDbEntity
  8
KONSTRUKTIONSELEMENTE
100
AcDbLine
 62
7
  6
CONTINUOUS
 10
200.641125899
 20
200.9104831968
 11
200.8265708122
 21
200.8407753786
  0
LINE
  5
246
100
AcDbEntity
  8
KONSTRUKTIONSELEMENTE
100
AcDbLine
 62
7
  6
CONTINUOUS
 10
201.0033989813
 20
201.0890530755
 11
200.817954068
 21
201.1587608937
  0
LINE
  5
247
100
AcDbEntity
  8
0
100
AcDbLine
 62
7
  6
CONTINUOUS
 10
198.075876312
 20
163.4436218196
 11
198.1727428758
 21
163.3281807443
  0
LINE
  5
248
100
AcDbEntity
  8
RUNDUNGEN
100
AcDbLine
 62
7
  6
CONTINUOUS
 10
198.2828701699
 20
163.1969361458
 11
198.1727428758
 21
163.3281807443
  0
LINE
  5
249
100
AcDbEntity
  8
0
100
AcDbLine
 62
7
  6
CONTINUOUS
 10
200.7841353126
 20
160.216044426
 11
198.2828701699
 21
163.1969361458
  0
LINE
  5
24A
100
AcDbEntity
  8
0
100
AcDbLine
 62
7
  6
CONTINUOUS
 10
124.6076605422
 20
443.6016196454
 11
124.6076605422
 21
323.6016196454
  0
LINE
  5
24B
100
AcDbEntity
  8
KONSTRUKTIONSELEMENTE
100
AcDbLine
 62
7
  6
CONTINUOUS
 10
200.5215752104
 20
201.1827385717
 11
200.2477162126
 21
201.1283075415
  0
LINE
  5
24C
100
AcDbEntity
  8
KONSTRUKTIONSELEMENTE
100
AcDbLine
 62
7
  6
CONTINUOUS
 10
204.649512089
 20
204.9124574322
 11
204.4096021444
 21
204.9066744134
  0
LINE
  5
24D
100
AcDbEntity
  8
KONSTRUKTIONSELEMENTE
100
AcDbLine
 62
7
  6
CONTINUOUS
 10
220.7817871825
 20
203.5500458089
 11
220.6190934568
 21
203.5788988229
  0
LINE
  5
24E
100
AcDbEntity
  8
KONSTRUKTIONSELEMENTE
100
AcDbLine
 62
7
  6
CONTINUOUS
 10
222.993518147
 20
203.2641890614
 11
222.7582612605
 21
203.3115619003
  0
LINE
  5
24F
100
AcDbEntity
  8
KONSTRUKTIONSELEMENTE
100
AcDbLine
 62
7
  6
CONTINUOUS
 10
204.9599170344
 20
204.8118101079
 11
204.649512089
 21
204.9124574322
  0
LINE
  5
250
100
AcDbEntity
  8
0
100
AcDbLine
 62
7
  6
CONTINUOUS
 10
224.0412893341
 20
207.4386595999
 11
219.1076605422
 21
209.0416927683
  0
LINE
  5
251
100
AcDbEntity
  8
KONSTRUKTIONSELEMENTE
100
AcDbLine
 62
7
  6
CONTINUOUS
 10
202.7232658817
 20
200.6453998049
 11
202.9739991714
 21
200.5329540958
  0
LINE
  5
252
100
AcDbEntity
  8
KONSTRUKTIONSELEMENTE
100
AcDbLine
 62
7
  6
CONTINUOUS
 10
224.7154881546
 20
196.7560661287
 11
224.5355606078
 21
196.8406270239
  0
LINE
  5
253
100
AcDbEntity
  8
KONSTRUKTIONSELEMENTE
100
AcDbLine
 62
7
  6
CONTINUOUS
 10
225.1201364087
 20
198.0076613983
 11
225.3000639555
 21
197.9231005031
  0
LINE
  5
254
100
AcDbEntity
  8
KONSTRUKTIONSELEMENTE
100
AcDbLine
 62
7
  6
CONTINUOUS
 10
225.5682285816
 20
198.1034460257
 11
225.208373488
 21
198.2725678161
  0
LINE
  5
255
100
AcDbEntity
  8
KONSTRUKTIONSELEMENTE
100
AcDbLine
 62
7
  6
CONTINUOUS
 10
226.1045570177
 20
198.4641392558
 11
226.2844845645
 21
198.3795783606
  0
LINE
  5
256
100
AcDbEntity
  8
KONSTRUKTIONSELEMENTE
100
AcDbLine
 62
7
  6
CONTINUOUS
 10
221.9422740221
 20
200.8294410869
 11
221.7509734361
 21
200.9230965835
  0
LINE
  5
257
100
AcDbEntity
  8
KONSTRUKTIONSELEMENTE
100
AcDbLine
 62
7
  6
CONTINUOUS
 10
222.7666159933
 20
202.9515089769
 11
222.9579182654
 21
202.8578518789
  0
LINE
  5
258
100
AcDbEntity
  8
KONSTRUKTIONSELEMENTE
100
AcDbLine
 62
7
  6
CONTINUOUS
 10
224.2673969245
 20
196.6602793751
 11
224.5479731705
 21
196.5103954185
  0
LINE
  5
259
100
AcDbEntity
  8
KONSTRUKTIONSELEMENTE
100
AcDbLine
 62
7
  6
CONTINUOUS
 10
226.5526491906
 20
198.5599238832
 11
226.2720719815
 21
198.7098099565
  0
LINE
  5
25A
100
AcDbEntity
  8
KONSTRUKTIONSELEMENTE
100
AcDbLine
 62
7
  6
CONTINUOUS
 10
204.7762893772
 20
204.5370595615
 11
204.9667396914
 21
204.4335207393
  0
LINE
  5
25B
100
AcDbEntity
  8
KONSTRUKTIONSELEMENTE
100
AcDbLine
 62
7
  6
CONTINUOUS
 10
221.4872356018
 20
200.6454006047
 11
221.7153718414
 21
200.516760974
  0
LINE
  5
25C
100
AcDbEntity
  8
KONSTRUKTIONSELEMENTE
100
AcDbLine
 62
7
  6
CONTINUOUS
 10
223.221656069
 20
203.1355478252
 11
222.993518147
 21
203.2641890614
  0
LINE
  5
25D
100
AcDbEntity
  8
KONSTRUKTIONSELEMENTE
100
AcDbLine
 62
7
  6
CONTINUOUS
 10
202.8975348573
 20
200.9034976399
 11
202.6832559857
 21
201.0513260254
  0
LINE
  5
25E
100
AcDbEntity
  8
KONSTRUKTIONSELEMENTE
100
AcDbLine
 62
7
  6
CONTINUOUS
 10
205.1856147502
 20
204.6550562632
 11
204.9599170344
 21
204.8118101079
  0
LINE
  5
25F
100
AcDbEntity
  8
KONSTRUKTIONSELEMENTE
100
AcDbLine
 62
7
  6
CONTINUOUS
 10
199.3410555075
 20
199.9653277655
 11
201.7846418828
 21
198.224958372
  0
LINE
  5
260
100
AcDbEntity
  8
KONSTRUKTIONSELEMENTE
100
AcDbLine
 62
7
  6
CONTINUOUS
 10
201.9614700519
 20
198.4732360688
 11
200.8696548474
 21
199.2508479365
  0
LINE
  5
261
100
AcDbEntity
  8
KONSTRUKTIONSELEMENTE
100
AcDbLine
 62
7
  6
CONTINUOUS
 10
200.5577076877
 20
199.4730227262
 11
199.7778396429
 21
200.0284598043
  0
LINE
  5
262
100
AcDbEntity
  8
KONSTRUKTIONSELEMENTE
100
AcDbLine
 62
7
  6
CONTINUOUS
 10
200.8265708122
 20
200.8407753786
 11
200.9825445377
 21
200.72968788
  0
LINE
  5
263
100
AcDbEntity
  8
KONSTRUKTIONSELEMENTE
100
AcDbLine
 62
7
  6
CONTINUOUS
 10
201.2113639
 20
200.9409364453
 11
201.0033989813
 21
201.0890530755
  0
LINE
  5
264
100
AcDbEntity
  8
KONSTRUKTIONSELEMENTE
100
AcDbLine
 62
7
  6
CONTINUOUS
 10
202.4645306022
 20
200.8390306855
 11
202.7232658817
 21
200.6453998049
  0
LINE
  5
265
100
AcDbEntity
  8
0
100
AcDbLine
 62
7
  6
CONTINUOUS
 10
142.6076605422
 20
443.6016196454
 11
142.6076605422
 21
323.6016196454
  0
LINE
  5
266
100
AcDbEntity
  8
KONSTRUKTIONSELEMENTE
100
AcDbLine
 62
7
  6
CONTINUOUS
 10
219.9422536513
 20
201.964922358
 11
220.2412346812
 21
201.7723806697
  0
LINE
  5
267
100
AcDbEntity
  8
KONSTRUKTIONSELEMENTE
100
AcDbLine
 62
7
  6
CONTINUOUS
 10
219.6002203649
 20
203.779522323
 11
220.3263146378
 21
203.3119226988
  0
LINE
  5
268
100
AcDbEntity
  8
KONSTRUKTIONSELEMENTE
100
AcDbLine
 62
7
  6
CONTINUOUS
 10
220.6190934568
 20
203.5788988229
 11
219.8075777083
 21
204.1015092788
  0
LINE
  5
269
100
AcDbEntity
  8
KONSTRUKTIONSELEMENTE
100
AcDbLine
 62
7
  6
CONTINUOUS
 10
220.3259711638
 20
204.9064768187
 11
221.1374869122
 21
204.3838663629
  0
LINE
  5
26A
100
AcDbEntity
  8
KONSTRUKTIONSELEMENTE
100
AcDbLine
 62
7
  6
CONTINUOUS
 10
221.2675739607
 20
204.6796942419
 11
220.2425006131
 21
205.3398342953
  0
LINE
  5
26B
100
AcDbEntity
  8
KONSTRUKTIONSELEMENTE
100
AcDbLine
 62
7
  6
CONTINUOUS
 10
224.5355606078
 20
196.8406270239
 11
224.4135401461
 21
196.9520395534
  0
LINE
  5
26C
100
AcDbEntity
  8
KONSTRUKTIONSELEMENTE
100
AcDbLine
 62
7
  6
CONTINUOUS
 10
225.3000639555
 20
197.9231005031
 11
225.4220844172
 21
197.8116879736
  0
LINE
  5
26D
100
AcDbEntity
  8
KONSTRUKTIONSELEMENTE
100
AcDbLine
 62
7
  6
CONTINUOUS
 10
226.2844845645
 20
198.3795783606
 11
226.4065050262
 21
198.2681658311
  0
LINE
  5
26E
100
AcDbEntity
  8
KONSTRUKTIONSELEMENTE
100
AcDbLine
 62
7
  6
CONTINUOUS
 10
221.1557096951
 20
200.960262653
 11
221.4872356018
 21
200.6454006047
  0
LINE
  5
26F
100
AcDbEntity
  8
KONSTRUKTIONSELEMENTE
100
AcDbLine
 62
7
  6
CONTINUOUS
 10
221.7509734361
 20
200.9230965835
 11
221.4194475294
 21
201.2379586318
  0
LINE
  5
270
100
AcDbEntity
  8
KONSTRUKTIONSELEMENTE
100
AcDbLine
 62
7
  6
CONTINUOUS
 10
222.3295244007
 20
201.6060396285
 11
222.6610503074
 21
201.2911775802
  0
LINE
  5
271
100
AcDbEntity
  8
KONSTRUKTIONSELEMENTE
100
AcDbLine
 62
7
  6
CONTINUOUS
 10
223.1458053821
 20
201.3589654944
 11
222.5932622042
 21
201.8837355748
  0
LINE
  5
272
100
AcDbEntity
  8
KONSTRUKTIONSELEMENTE
100
AcDbLine
 62
7
  6
CONTINUOUS
 10
223.3203948163
 20
201.985417446
 11
223.5414120874
 21
201.7755094138
  0
LINE
  5
273
100
AcDbEntity
  8
KONSTRUKTIONSELEMENTE
100
AcDbLine
 62
7
  6
CONTINUOUS
 10
222.9579182654
 20
202.8578518789
 11
223.2894441722
 21
202.5429898306
  0
LINE
  5
274
100
AcDbEntity
  8
KONSTRUKTIONSELEMENTE
100
AcDbLine
 62
7
  6
CONTINUOUS
 10
223.5531819757
 20
202.8206857769
 11
223.221656069
 21
203.1355478252
  0
LINE
  5
275
100
AcDbEntity
  8
KONSTRUKTIONSELEMENTE
100
AcDbLine
 62
7
  6
CONTINUOUS
 10
204.9667396914
 20
204.4335207393
 11
205.1500833078
 21
204.2487133133
  0
LINE
  5
276
100
AcDbEntity
  8
KONSTRUKTIONSELEMENTE
100
AcDbLine
 62
7
  6
CONTINUOUS
 10
201.0863882355
 20
202.2589145032
 11
202.4645306022
 21
200.8390306855
  0
LINE
  5
277
100
AcDbEntity
  8
KONSTRUKTIONSELEMENTE
100
AcDbLine
 62
7
  6
CONTINUOUS
 10
202.6832559857
 20
201.0513260254
 11
201.305113619
 21
202.4712098431
  0
LINE
  5
278
100
AcDbEntity
  8
KONSTRUKTIONSELEMENTE
100
AcDbLine
 62
7
  6
CONTINUOUS
 10
202.1800147358
 20
203.3203907977
 11
203.5581571026
 21
201.9005069801
  0
LINE
  5
279
100
AcDbEntity
  8
KONSTRUKTIONSELEMENTE
100
AcDbLine
 62
7
  6
CONTINUOUS
 10
203.7768823818
 20
202.1128022188
 11
202.398740015
 21
203.5326860364
  0
LINE
  5
27A
100
AcDbEntity
  8
KONSTRUKTIONSELEMENTE
100
AcDbLine
 62
7
  6
CONTINUOUS
 10
205.4042059658
 20
204.4170335166
 11
205.1856147502
 21
204.6550562632
  0
LINE
  5
27B
100
AcDbEntity
  8
KONSTRUKTIONSELEMENTE
100
AcDbLine
 62
7
  6
CONTINUOUS
 10
200.9825445377
 20
200.72968788
 11
201.1090467841
 21
200.5772209085
  0
LINE
  5
27C
100
AcDbEntity
  8
KONSTRUKTIONSELEMENTE
100
AcDbLine
 62
7
  6
CONTINUOUS
 10
201.3378661465
 20
200.7884694737
 11
201.2113639
 21
200.9409364453
  0
LINE
  5
27D
100
AcDbEntity
  8
KONSTRUKTIONSELEMENTE
100
AcDbLine
 62
7
  6
CONTINUOUS
 10
203.9627090958
 20
201.8484061236
 11
203.7768823818
 21
202.1128022188
  0
LINE
  5
27E
100
AcDbEntity
  8
KONSTRUKTIONSELEMENTE
100
AcDbLine
 62
7
  6
CONTINUOUS
 10
221.4465720026
 20
204.4885001518
 11
221.2675739607
 21
204.6796942419
  0
LINE
  5
27F
100
AcDbEntity
  8
KONSTRUKTIONSELEMENTE
100
AcDbLine
 62
7
  6
CONTINUOUS
 10
224.1026338806
 20
196.8638687146
 11
224.2673969245
 21
196.6602793751
  0
LINE
  5
280
100
AcDbEntity
  8
KONSTRUKTIONSELEMENTE
100
AcDbLine
 62
7
  6
CONTINUOUS
 10
225.7329906422
 20
197.8998587935
 11
225.5682285816
 21
198.1034460257
  0
LINE
  5
281
100
AcDbEntity
  8
KONSTRUKTIONSELEMENTE
100
AcDbLine
 62
7
  6
CONTINUOUS
 10
226.7174112511
 20
198.356336651
 11
226.5526491906
 21
198.5599238832
  0
LINE
  5
282
100
AcDbEntity
  8
KONSTRUKTIONSELEMENTE
100
AcDbLine
 62
7
  6
CONTINUOUS
 10
221.1374869122
 20
204.3838663629
 11
221.2310615234
 21
204.2476843635
  0
LINE
  5
283
100
AcDbEntity
  8
KONSTRUKTIONSELEMENTE
100
AcDbLine
 62
7
  6
CONTINUOUS
 10
203.146094969
 20
204.1463418287
 11
204.8027276858
 21
201.6452284683
  0
LINE
  5
284
100
AcDbEntity
  8
KONSTRUKTIONSELEMENTE
100
AcDbLine
 62
7
  6
CONTINUOUS
 10
204.8453653166
 20
202.1328397381
 11
203.6117026294
 21
203.9953710028
  0
LINE
  5
285
100
AcDbEntity
  8
KONSTRUKTIONSELEMENTE
100
AcDbLine
 62
7
  6
CONTINUOUS
 10
205.1500833078
 20
204.2487133133
 11
205.6787958634
 21
203.4504856657
  0
LINE
  5
286
100
AcDbEntity
  8
KONSTRUKTIONSELEMENTE
100
AcDbLine
 62
7
  6
CONTINUOUS
 10
205.9329185214
 20
203.618805869
 11
205.4042059658
 21
204.4170335166
  0
LINE
  5
287
100
AcDbEntity
  8
KONSTRUKTIONSELEMENTE
100
AcDbLine
 62
7
  6
CONTINUOUS
 10
203.5581571026
 20
201.9005069801
 11
203.6995276172
 21
201.6819135825
  0
LINE
  5
288
100
AcDbEntity
  8
KONSTRUKTIONSELEMENTE
100
AcDbLine
 62
7
  6
CONTINUOUS
 10
201.4574168351
 20
200.5162140988
 11
201.3378661465
 21
200.7884694737
  0
LINE
  5
289
100
AcDbEntity
  8
0
100
AcDbLine
 62
7
  6
CONTINUOUS
 10
231.1076605422
 20
197.7126340257
 11
224.0412893341
 21
207.4386595999
  0
LINE
  5
28A
100
AcDbEntity
  8
KONSTRUKTIONSELEMENTE
100
AcDbLine
 62
7
  6
CONTINUOUS
 10
221.0154843781
 20
201.1814692088
 11
221.1557096951
 21
200.960262653
  0
LINE
  5
28B
100
AcDbEntity
  8
KONSTRUKTIONSELEMENTE
100
AcDbLine
 62
7
  6
CONTINUOUS
 10
223.6934056103
 20
202.5994808267
 11
223.5531819757
 21
202.8206857769
  0
LINE
  5
28C
100
AcDbEntity
  8
KONSTRUKTIONSELEMENTE
100
AcDbLine
 62
7
  6
CONTINUOUS
 10
221.4194475294
 20
201.2379586318
 11
221.3160578584
 21
201.4241810452
  0
LINE
  5
28D
100
AcDbEntity
  8
KONSTRUKTIONSELEMENTE
100
AcDbLine
 62
7
  6
CONTINUOUS
 10
223.2894441722
 20
202.5429898306
 11
223.392832157
 21
202.3567690186
  0
LINE
  5
28E
100
AcDbEntity
  8
KONSTRUKTIONSELEMENTE
100
AcDbLine
 62
7
  6
CONTINUOUS
 10
223.9957779269
 20
197.0943096908
 11
224.1026338806
 21
196.8638687146
  0
LINE
  5
28F
100
AcDbEntity
  8
KONSTRUKTIONSELEMENTE
100
AcDbLine
 62
7
  6
CONTINUOUS
 10
224.4135401461
 20
196.9520395534
 11
224.2639425935
 21
197.2746552322
  0
LINE
  5
290
100
AcDbEntity
  8
KONSTRUKTIONSELEMENTE
100
AcDbLine
 62
7
  6
CONTINUOUS
 10
225.4220844172
 20
197.8116879736
 11
225.5716819698
 21
197.4890722948
  0
LINE
  5
291
100
AcDbEntity
  8
KONSTRUKTIONSELEMENTE
100
AcDbLine
 62
7
  6
CONTINUOUS
 10
225.8398465959
 20
197.6694178174
 11
225.7329906422
 21
197.8998587935
  0
LINE
  5
292
100
AcDbEntity
  8
KONSTRUKTIONSELEMENTE
100
AcDbLine
 62
7
  6
CONTINUOUS
 10
226.3582585991
 20
197.4618225582
 11
226.4651135746
 21
197.2313836918
  0
LINE
  5
293
100
AcDbEntity
  8
KONSTRUKTIONSELEMENTE
100
AcDbLine
 62
7
  6
CONTINUOUS
 10
226.4065050262
 20
198.2681658311
 11
226.5347317794
 21
197.9916375036
  0
LINE
  5
294
100
AcDbEntity
  8
KONSTRUKTIONSELEMENTE
100
AcDbLine
 62
7
  6
CONTINUOUS
 10
206.0668024086
 20
203.3246767511
 11
205.9329185214
 21
203.618805869
  0
LINE
  5
295
100
AcDbEntity
  8
KONSTRUKTIONSELEMENTE
100
AcDbLine
 62
7
  6
CONTINUOUS
 10
204.0676255675
 20
201.5944302891
 11
203.9627090958
 21
201.8484061236
  0
LINE
  5
296
100
AcDbEntity
  8
KONSTRUKTIONSELEMENTE
100
AcDbLine
 62
7
  6
CONTINUOUS
 10
205.6787958634
 20
203.4504856657
 11
205.7774322503
 21
203.2095717194
  0
LINE
  5
297
100
AcDbEntity
  8
KONSTRUKTIONSELEMENTE
100
AcDbLine
 62
7
  6
CONTINUOUS
 10
203.6995276172
 20
201.6819135825
 11
203.7599878584
 21
201.4737404777
  0
LINE
  5
298
100
AcDbEntity
  8
KONSTRUKTIONSELEMENTE
100
AcDbLine
 62
7
  6
CONTINUOUS
 10
201.1090467841
 20
200.5772209085
 11
201.1540864196
 21
200.4204033735
  0
LINE
  5
299
100
AcDbEntity
  8
RUNDUNGEN
100
AcDbLine
 62
7
  6
CONTINUOUS
 10
196.7568910471
 20
174.2155272477
 11
194.1076605422
 21
185.6906052651
  0
LINE
  5
29A
100
AcDbEntity
  8
KONSTRUKTIONSELEMENTE
100
AcDbLine
 62
7
  6
CONTINUOUS
 10
204.0996334581
 20
201.2696892561
 11
204.0676255675
 21
201.5944302891
  0
LINE
  5
29B
100
AcDbEntity
  8
KONSTRUKTIONSELEMENTE
100
AcDbLine
 62
7
  6
CONTINUOUS
 10
205.7774322503
 20
203.2095717194
 11
205.7984670373
 21
202.9938193633
  0
LINE
  5
29C
100
AcDbEntity
  8
KONSTRUKTIONSELEMENTE
100
AcDbLine
 62
7
  6
CONTINUOUS
 10
186.0944386885
 20
104.2437980222
 11
186.0944386885
 21
106.3651183657
  0
LINE
  5
29D
100
AcDbEntity
  8
KONSTRUKTIONSELEMENTE
100
AcDbLine
 62
7
  6
CONTINUOUS
 10
190.0820781436
 20
98.0798922082
 11
190.0820781436
 21
99.776948483
  0
LINE
  5
29E
100
AcDbEntity
  8
KONSTRUKTIONSELEMENTE
100
AcDbLine
 62
7
  6
CONTINUOUS
 10
190.2931866137
 20
97.4065506443
 11
190.2931866137
 21
97.6186826787
  0
LINE
  5
29F
100
AcDbEntity
  8
0
100
AcDbLine
 62
7
  6
CONTINUOUS
 10
194.1076605422
 20
197.7126340257
 11
194.1076605422
 21
185.6906052651
  0
LINE
  5
2A0
100
AcDbEntity
  8
0
100
AcDbLine
 62
7
  6
CONTINUOUS
 10
197.6076605422
 20
164.7299231336
 11
197.6076605422
 21
165.5016196454
  0
LINE
  5
2A1
100
AcDbEntity
  8
0
100
AcDbLine
 62
7
  6
CONTINUOUS
 10
197.6076605422
 20
170.5016196454
 11
197.6076605422
 21
171.4244333553
  0
LINE
  5
2A2
100
AcDbEntity
  8
KONSTRUKTIONSELEMENTE
100
AcDbLine
 62
7
  6
CONTINUOUS
 10
226.8028964054
 20
198.1719830262
 11
226.7174112511
 21
198.356336651
  0
LINE
  5
2A3
100
AcDbEntity
  8
KONSTRUKTIONSELEMENTE
100
AcDbLine
 62
7
  6
CONTINUOUS
 10
220.9560527055
 20
201.4139726907
 11
221.0154843781
 21
201.1814692088
  0
LINE
  5
2A4
100
AcDbEntity
  8
KONSTRUKTIONSELEMENTE
100
AcDbLine
 62
7
  6
CONTINUOUS
 10
221.5137382371
 20
204.2174837513
 11
221.4465720026
 21
204.4885001518
  0
LINE
  5
2A5
100
AcDbEntity
  8
KONSTRUKTIONSELEMENTE
100
AcDbLine
 62
7
  6
CONTINUOUS
 10
206.1076605422
 20
203.1294197997
 11
206.0668024086
 21
203.3246767511
  0
LINE
  5
2A6
100
AcDbEntity
  8
KONSTRUKTIONSELEMENTE
100
AcDbLine
 62
7
  6
CONTINUOUS
 10
221.2310615234
 20
204.2476843635
 11
221.2473658397
 21
204.0853432874
  0
LINE
  5
2A7
100
AcDbEntity
  8
KONSTRUKTIONSELEMENTE
100
AcDbLine
 62
7
  6
CONTINUOUS
 10
203.8750952386
 20
167.7286196454
 11
203.8750952386
 21
171.3995013385
  0
LINE
  5
2A8
100
AcDbEntity
  8
KONSTRUKTIONSELEMENTE
100
AcDbLine
 62
7
  6
CONTINUOUS
 10
204.6076605422
 20
124.0668253877
 11
204.6076605422
 21
134.6734271055
  0
LINE
  5
2A9
100
AcDbEntity
  8
KONSTRUKTIONSELEMENTE
100
AcDbLine
 62
7
  6
CONTINUOUS
 10
204.6076605422
 20
155.1795237599
 11
204.6076605422
 21
159.5367022163
  0
LINE
  5
2AA
100
AcDbEntity
  8
0
100
AcDbLine
 62
7
  6
CONTINUOUS
 10
206.1076605422
 20
260.0484917919
 11
206.1076605422
 21
193.154747499
  0
LINE
  5
2AB
100
AcDbEntity
  8
KONSTRUKTIONSELEMENTE
100
AcDbLine
 62
7
  6
CONTINUOUS
 10
208.6776605422
 20
78.0341739325
 11
208.6776605422
 21
71.8823449361
  0
LINE
  5
2AC
100
AcDbEntity
  8
0
100
AcDbLine
 62
7
  6
CONTINUOUS
 10
209.1076605422
 20
167.7286196454
 11
209.1076605422
 21
160.7952574858
  0
LINE
  5
2AD
100
AcDbEntity
  8
KONSTRUKTIONSELEMENTE
100
AcDbLine
 62
7
  6
CONTINUOUS
 10
209.1076605422
 20
124.0668253877
 11
209.1076605422
 21
134.6734271055
  0
LINE
  5
2AE
100
AcDbEntity
  8
KONSTRUKTIONSELEMENTE
100
AcDbLine
 62
7
  6
CONTINUOUS
 10
209.1076605422
 20
155.1795237599
 11
209.1076605422
 21
160.7951362555
  0
LINE
  5
2AF
100
AcDbEntity
  8
KONSTRUKTIONSELEMENTE
100
AcDbLine
 62
7
  6
CONTINUOUS
 10
209.1076605422
 20
167.7286196454
 11
209.1076605422
 21
175.7016196454
  0
LINE
  5
2B0
100
AcDbEntity
  8
KONSTRUKTIONSELEMENTE
100
AcDbLine
 62
7
  6
CONTINUOUS
 10
209.8776605422
 20
71.0338167987
 11
209.8776605422
 21
77.8220418981
  0
LINE
  5
2B1
100
AcDbEntity
  8
KONSTRUKTIONSELEMENTE
100
AcDbLine
 62
7
  6
CONTINUOUS
 10
210.1076605422
 20
178.1487511192
 11
210.1076605422
 21
171.6016196454
  0
LINE
  5
2B2
100
AcDbEntity
  8
KONSTRUKTIONSELEMENTE
100
AcDbLine
 62
7
  6
CONTINUOUS
 10
210.1076605422
 20
125.0438546147
 11
210.1076605422
 21
107.5334469746
  0
LINE
  5
2B3
100
AcDbEntity
  8
KONSTRUKTIONSELEMENTE
100
AcDbLine
 62
7
  6
CONTINUOUS
 10
210.3576605422
 20
133.9223666209
 11
210.3576605422
 21
155.9305842445
  0
LINE
  5
2B4
100
AcDbEntity
  8
KONSTRUKTIONSELEMENTE
100
AcDbLine
 62
7
  6
CONTINUOUS
 10
201.4435138037
 20
200.2766374105
 11
201.4574168351
 21
200.5162140988
  0
LINE
  5
2B5
100
AcDbEntity
  8
KONSTRUKTIONSELEMENTE
100
AcDbLine
 62
7
  6
CONTINUOUS
 10
206.094659791
 20
202.7306351196
 11
206.1076605422
 21
202.8793147151
  0
LINE
  5
2B6
100
AcDbEntity
  8
KONSTRUKTIONSELEMENTE
100
AcDbLine
 62
7
  6
CONTINUOUS
 10
203.7599878584
 20
201.4737404777
 11
203.7395376487
 21
201.2759874311
  0
LINE
  5
2B7
100
AcDbEntity
  8
KONSTRUKTIONSELEMENTE
100
AcDbLine
 62
7
  6
CONTINUOUS
 10
223.7528389807
 20
202.3669757555
 11
223.6934056103
 21
202.5994808267
  0
LINE
  5
2B8
100
AcDbEntity
  8
KONSTRUKTIONSELEMENTE
100
AcDbLine
 62
7
  6
CONTINUOUS
 10
223.9468300416
 20
197.3516001938
 11
223.9957779269
 21
197.0943096908
  0
LINE
  5
2B9
100
AcDbEntity
  8
KONSTRUKTIONSELEMENTE
100
AcDbLine
 62
7
  6
CONTINUOUS
 10
225.8887954646
 20
197.412125207
 11
225.8398465959
 21
197.6694178174
  0
LINE
  5
2BA
100
AcDbEntity
  8
KONSTRUKTIONSELEMENTE
100
AcDbLine
 62
7
  6
CONTINUOUS
 10
226.8518442958
 20
197.9146925256
 11
226.8028964054
 21
198.1719830262
  0
LINE
  5
2BB
100
AcDbEntity
  8
KONSTRUKTIONSELEMENTE
100
AcDbLine
 62
7
  6
CONTINUOUS
 10
221.3160578584
 20
201.4241810452
 11
221.2934618548
 21
201.6217004092
  0
LINE
  5
2BC
100
AcDbEntity
  8
KONSTRUKTIONSELEMENTE
100
AcDbLine
 62
7
  6
CONTINUOUS
 10
223.392832157
 20
202.3567690186
 11
223.4154281914
 21
202.159249687
  0
LINE
  5
2BD
100
AcDbEntity
  8
KONSTRUKTIONSELEMENTE
100
AcDbLine
 62
7
  6
CONTINUOUS
 10
224.2639425935
 20
197.2746552322
 11
224.257736302
 21
197.4397710302
  0
LINE
  5
2BE
100
AcDbEntity
  8
KONSTRUKTIONSELEMENTE
100
AcDbLine
 62
7
  6
CONTINUOUS
 10
225.5716819698
 20
197.4890722948
 11
225.5778882613
 21
197.3239564968
  0
LINE
  5
2BF
100
AcDbEntity
  8
KONSTRUKTIONSELEMENTE
100
AcDbLine
 62
7
  6
CONTINUOUS
 10
226.5347317794
 20
197.9916375036
 11
226.5409380709
 21
197.8265217056
  0
LINE
  5
2C0
100
AcDbEntity
  8
KONSTRUKTIONSELEMENTE
100
AcDbLine
 62
7
  6
CONTINUOUS
 10
214.8576605422
 20
133.9223666209
 11
214.8576605422
 21
155.9305842445
  0
LINE
  5
2C1
100
AcDbEntity
  8
KONSTRUKTIONSELEMENTE
100
AcDbLine
 62
7
  6
CONTINUOUS
 10
215.1076605422
 20
178.1487511192
 11
215.1076605422
 21
171.6016196454
  0
LINE
  5
2C2
100
AcDbEntity
  8
KONSTRUKTIONSELEMENTE
100
AcDbLine
 62
7
  6
CONTINUOUS
 10
215.1076605422
 20
125.0438546147
 11
215.1076605422
 21
107.5334469746
  0
LINE
  5
2C3
100
AcDbEntity
  8
KONSTRUKTIONSELEMENTE
100
AcDbLine
 62
7
  6
CONTINUOUS
 10
215.3376605422
 20
71.0338167987
 11
215.3376605422
 21
77.8220418981
  0
LINE
  5
2C4
100
AcDbEntity
  8
KONSTRUKTIONSELEMENTE
100
AcDbLine
 62
7
  6
CONTINUOUS
 10
216.1076605422
 20
160.7952574858
 11
216.1076605422
 21
155.1795237599
  0
LINE
  5
2C5
100
AcDbEntity
  8
KONSTRUKTIONSELEMENTE
100
AcDbLine
 62
7
  6
CONTINUOUS
 10
216.1076605422
 20
134.6734271055
 11
216.1076605422
 21
124.0668253877
  0
LINE
  5
2C6
100
AcDbEntity
  8
0
100
AcDbLine
 62
7
  6
CONTINUOUS
 10
216.1076605422
 20
160.7952574858
 11
216.1076605422
 21
167.7286196454
  0
LINE
  5
2C7
100
AcDbEntity
  8
KONSTRUKTIONSELEMENTE
100
AcDbLine
 62
7
  6
CONTINUOUS
 10
216.1076605422
 20
167.7286196454
 11
216.1076605422
 21
175.7016196454
  0
LINE
  5
2C8
100
AcDbEntity
  8
KONSTRUKTIONSELEMENTE
100
AcDbLine
 62
7
  6
CONTINUOUS
 10
216.5376605422
 20
71.8823449361
 11
216.5376605422
 21
78.0341739325
  0
LINE
  5
2C9
100
AcDbEntity
  8
0
100
AcDbLine
 62
7
  6
CONTINUOUS
 10
219.1076605422
 20
260.0484917919
 11
219.1076605422
 21
193.154747499
  0
LINE
  5
2CA
100
AcDbEntity
  8
KONSTRUKTIONSELEMENTE
100
AcDbLine
 62
7
  6
CONTINUOUS
 10
220.6076605422
 20
159.5367022163
 11
220.6076605422
 21
155.1795237599
  0
LINE
  5
2CB
100
AcDbEntity
  8
KONSTRUKTIONSELEMENTE
100
AcDbLine
 62
7
  6
CONTINUOUS
 10
220.6076605422
 20
134.6734271055
 11
220.6076605422
 21
124.0668253877
  0
LINE
  5
2CC
100
AcDbEntity
  8
KONSTRUKTIONSELEMENTE
100
AcDbLine
 62
7
  6
CONTINUOUS
 10
221.3402258457
 20
167.7286196454
 11
221.3402258457
 21
171.3995013385
  0
LINE
  5
2CD
100
AcDbEntity
  8
0
100
AcDbLine
 62
7
  6
CONTINUOUS
 10
231.1076605422
 20
185.6906052651
 11
231.1076605422
 21
197.7126340257
  0
LINE
  5
2CE
100
AcDbEntity
  8
KONSTRUKTIONSELEMENTE
100
AcDbLine
 62
7
  6
CONTINUOUS
 10
221.5036341766
 20
203.9203082741
 11
221.5137382371
 21
204.2174837513
  0
LINE
  5
2CF
100
AcDbEntity
  8
KONSTRUKTIONSELEMENTE
100
AcDbLine
 62
7
  6
CONTINUOUS
 10
220.9845319516
 20
201.7390430935
 11
220.9560527055
 21
201.4139726907
  0
LINE
  5
2D0
100
AcDbEntity
  8
KONSTRUKTIONSELEMENTE
100
AcDbLine
 62
7
  6
CONTINUOUS
 10
201.1540864196
 20
200.4204033735
 11
201.1176635283
 21
200.2592353935
  0
LINE
  5
2D1
100
AcDbEntity
  8
KONSTRUKTIONSELEMENTE
100
AcDbLine
 62
7
  6
CONTINUOUS
 10
204.0427289462
 20
201.0365536223
 11
204.0996334581
 21
201.2696892561
  0
LINE
  5
2D2
100
AcDbEntity
  8
KONSTRUKTIONSELEMENTE
100
AcDbLine
 62
7
  6
CONTINUOUS
 10
231.7614980759
 20
82.7667457097
 11
231.7614980759
 21
80.6454253661
  0
LINE
  5
2D3
100
AcDbEntity
  8
KONSTRUKTIONSELEMENTE
100
AcDbLine
 62
7
  6
CONTINUOUS
 10
245.6462984625
 20
104.2134974469
 11
245.6462984625
 21
102.0921771033
  0
LINE
  5
2D4
100
AcDbEntity
  8
KONSTRUKTIONSELEMENTE
100
AcDbLine
 62
7
  6
CONTINUOUS
 10
223.7243580637
 20
202.0419069703
 11
223.7528389807
 21
202.3669757555
  0
LINE
  5
2D5
100
AcDbEntity
  8
KONSTRUKTIONSELEMENTE
100
AcDbLine
 62
7
  6
CONTINUOUS
 10
224.0136953583
 20
197.6625960797
 11
223.9468300416
 21
197.3516001938
  0
LINE
  5
2D6
100
AcDbEntity
  8
KONSTRUKTIONSELEMENTE
100
AcDbLine
 62
7
  6
CONTINUOUS
 10
225.8219291847
 20
197.1011314379
 11
225.8887954646
 21
197.412125207
  0
LINE
  5
2D7
100
AcDbEntity
  8
KONSTRUKTIONSELEMENTE
100
AcDbLine
 62
7
  6
CONTINUOUS
 10
220.2412346812
 20
201.7723806697
 11
220.6517020892
 21
203.2542166707
  0
LINE
  5
2D8
100
AcDbEntity
  8
KONSTRUKTIONSELEMENTE
100
AcDbLine
 62
7
  6
CONTINUOUS
 10
220.3263146378
 20
203.3119226988
 11
219.9422536513
 21
201.964922358
  0
LINE
  5
2D9
100
AcDbEntity
  8
KONSTRUKTIONSELEMENTE
100
AcDbLine
 62
7
  6
CONTINUOUS
 10
205.7984670373
 20
202.9938193633
 11
205.7419007338
 21
202.8032288813
  0
LINE
  5
2DA
100
AcDbEntity
  8
KONSTRUKTIONSELEMENTE
100
AcDbLine
 62
7
  6
CONTINUOUS
 10
205.9957398573
 20
202.5119914007
 11
206.094659791
 21
202.7306351196
  0
LINE
  5
2DB
100
AcDbEntity
  8
KONSTRUKTIONSELEMENTE
100
AcDbLine
 62
7
  6
CONTINUOUS
 10
226.7849789942
 20
197.6036966467
 11
226.8518442958
 21
197.9146925256
  0
LINE
  5
2DC
100
AcDbEntity
  8
RUNDUNGEN
100
AcDbLine
 62
7
  6
CONTINUOUS
 10
228.4584300373
 20
174.2155272477
 11
231.1076605422
 21
185.6906052651
  0
LINE
  5
2DD
100
AcDbEntity
  8
KONSTRUKTIONSELEMENTE
100
AcDbLine
 62
7
  6
CONTINUOUS
 10
224.257736302
 20
197.4397710302
 11
224.3094370956
 21
197.6317384624
  0
LINE
  5
2DE
100
AcDbEntity
  8
KONSTRUKTIONSELEMENTE
100
AcDbLine
 62
7
  6
CONTINUOUS
 10
225.5778882613
 20
197.3239564968
 11
225.5261874677
 21
197.1319890646
  0
LINE
  5
2DF
100
AcDbEntity
  8
KONSTRUKTIONSELEMENTE
100
AcDbLine
 62
7
  6
CONTINUOUS
 10
226.5409380709
 20
197.8265217056
 11
226.4892372772
 21
197.6345542734
  0
LINE
  5
2E0
100
AcDbEntity
  8
KONSTRUKTIONSELEMENTE
100
AcDbLine
 62
7
  6
CONTINUOUS
 10
221.2934618548
 20
201.6217004092
 11
221.351659457
 21
201.8305166588
  0
LINE
  5
2E1
100
AcDbEntity
  8
KONSTRUKTIONSELEMENTE
100
AcDbLine
 62
7
  6
CONTINUOUS
 10
221.2473658397
 20
204.0853432874
 11
221.1863979057
 21
203.8968443937
  0
LINE
  5
2E2
100
AcDbEntity
  8
KONSTRUKTIONSELEMENTE
100
AcDbLine
 62
7
  6
CONTINUOUS
 10
221.4426662426
 20
203.7318093803
 11
221.5036341766
 21
203.9203082741
  0
LINE
  5
2E3
100
AcDbEntity
  8
KONSTRUKTIONSELEMENTE
100
AcDbLine
 62
7
  6
CONTINUOUS
 10
221.0866858852
 20
201.9941420332
 11
220.9845319516
 21
201.7390430935
  0
LINE
  5
2E4
100
AcDbEntity
  8
KONSTRUKTIONSELEMENTE
100
AcDbLine
 62
7
  6
CONTINUOUS
 10
203.7395376487
 20
201.2759874311
 11
203.6381769257
 21
201.0886545069
  0
LINE
  5
2E5
100
AcDbEntity
  8
KONSTRUKTIONSELEMENTE
100
AcDbLine
 62
7
  6
CONTINUOUS
 10
203.9049141529
 20
200.8138382893
 11
204.0427289462
 21
201.0365536223
  0
LINE
  5
2E6
100
AcDbEntity
  8
KONSTRUKTIONSELEMENTE
100
AcDbLine
 62
7
  6
CONTINUOUS
 10
200.0483681837
 20
200.9584385529
 11
199.3410555075
 21
199.9653277655
  0
LINE
  5
2E7
100
AcDbEntity
  8
KONSTRUKTIONSELEMENTE
100
AcDbLine
 62
7
  6
CONTINUOUS
 10
199.7778396429
 20
200.0284598043
 11
200.3377954835
 21
200.8146724715
  0
LINE
  5
2E8
100
AcDbEntity
  8
KONSTRUKTIONSELEMENTE
100
AcDbLine
 62
7
  6
CONTINUOUS
 10
201.1176635283
 20
200.2592353935
 11
200.5577076877
 21
199.4730227262
  0
LINE
  5
2E9
100
AcDbEntity
  8
KONSTRUKTIONSELEMENTE
100
AcDbLine
 62
7
  6
CONTINUOUS
 10
200.8696548474
 20
199.2508479365
 11
201.370667979
 21
199.9543013912
  0
LINE
  5
2EA
100
AcDbEntity
  8
KONSTRUKTIONSELEMENTE
100
AcDbLine
 62
7
  6
CONTINUOUS
 10
201.7846418828
 20
198.224958372
 11
201.9614700519
 21
198.4732360688
  0
LINE
  5
2EB
100
AcDbEntity
  8
KONSTRUKTIONSELEMENTE
100
AcDbLine
 62
7
  6
CONTINUOUS
 10
202.6982540615
 20
199.5077264329
 11
202.9045536483
 21
199.7973838248
  0
LINE
  5
2EC
100
AcDbEntity
  8
0
100
AcDbLine
 62
7
  6
CONTINUOUS
 10
201.1740317503
 20
207.4386595999
 11
194.1076605422
 21
197.7126340257
  0
LINE
  5
2ED
100
AcDbEntity
  8
KONSTRUKTIONSELEMENTE
100
AcDbLine
 62
7
  6
CONTINUOUS
 10
225.5261874677
 20
197.1319890646
 11
225.4531158747
 21
196.9861089837
  0
LINE
  5
2EE
100
AcDbEntity
  8
KONSTRUKTIONSELEMENTE
100
AcDbLine
 62
7
  6
CONTINUOUS
 10
225.712321306
 20
196.8823123714
 11
225.8219291847
 21
197.1011314379
  0
LINE
  5
2EF
100
AcDbEntity
  8
KONSTRUKTIONSELEMENTE
100
AcDbLine
 62
7
  6
CONTINUOUS
 10
223.4154281914
 20
202.159249687
 11
223.3203948163
 21
201.985417446
  0
LINE
  5
2F0
100
AcDbEntity
  8
KONSTRUKTIONSELEMENTE
100
AcDbLine
 62
7
  6
CONTINUOUS
 10
221.351659457
 20
201.8305166588
 11
221.4906473233
 21
202.0506330293
  0
LINE
  5
2F1
100
AcDbEntity
  8
KONSTRUKTIONSELEMENTE
100
AcDbLine
 62
7
  6
CONTINUOUS
 10
220.2425006131
 20
205.3398342953
 11
219.1076605422
 21
203.5776410992
  0
LINE
  5
2F2
100
AcDbEntity
  8
KONSTRUKTIONSELEMENTE
100
AcDbLine
 62
7
  6
CONTINUOUS
 10
219.1076605422
 20
203.0146695561
 11
219.6002203649
 21
203.779522323
  0
LINE
  5
2F3
100
AcDbEntity
  8
KONSTRUKTIONSELEMENTE
100
AcDbLine
 62
7
  6
CONTINUOUS
 10
219.8075777083
 20
204.1015092788
 11
220.3259711638
 21
204.9064768187
  0
LINE
  5
2F4
100
AcDbEntity
  8
KONSTRUKTIONSELEMENTE
100
AcDbLine
 62
7
  6
CONTINUOUS
 10
221.1863979057
 20
203.8968443937
 11
221.0827191371
 21
203.7358507654
  0
LINE
  5
2F5
100
AcDbEntity
  8
KONSTRUKTIONSELEMENTE
100
AcDbLine
 62
7
  6
CONTINUOUS
 10
221.3044279168
 20
203.5171512594
 11
221.4426662426
 21
203.7318093803
  0
LINE
  5
2F6
100
AcDbEntity
  8
KONSTRUKTIONSELEMENTE
100
AcDbLine
 62
7
  6
CONTINUOUS
 10
224.1812103424
 20
197.9082667899
 11
224.0136953583
 21
197.6625960797
  0
LINE
  5
2F7
100
AcDbEntity
  8
KONSTRUKTIONSELEMENTE
100
AcDbLine
 62
7
  6
CONTINUOUS
 10
221.2696300521
 20
202.2605410615
 11
221.0866858852
 21
201.9941420332
  0
LINE
  5
2F8
100
AcDbEntity
  8
KONSTRUKTIONSELEMENTE
100
AcDbLine
 62
7
  6
CONTINUOUS
 10
223.5414120874
 20
201.7755094138
 11
223.7243580637
 21
202.0419069703
  0
LINE
  5
2F9
100
AcDbEntity
  8
KONSTRUKTIONSELEMENTE
100
AcDbLine
 62
7
  6
CONTINUOUS
 10
205.7419007338
 20
202.8032288813
 11
205.6077332905
 21
202.6378003479
  0
LINE
  5
2FA
100
AcDbEntity
  8
KONSTRUKTIONSELEMENTE
100
AcDbLine
 62
7
  6
CONTINUOUS
 10
205.8192183176
 20
202.3185092815
 11
205.9957398573
 21
202.5119914007
  0
LINE
  5
2FB
100
AcDbEntity
  8
KONSTRUKTIONSELEMENTE
100
AcDbLine
 62
7
  6
CONTINUOUS
 10
202.398740015
 20
203.5326860364
 11
202.1800147358
 21
203.3203907977
  0
LINE
  5
2FC
100
AcDbEntity
  8
KONSTRUKTIONSELEMENTE
100
AcDbLine
 62
7
  6
CONTINUOUS
 10
201.305113619
 20
202.4712098431
 11
201.0863882355
 21
202.2589145032
  0
LINE
  5
2FD
100
AcDbEntity
  8
KONSTRUKTIONSELEMENTE
100
AcDbLine
 62
7
  6
CONTINUOUS
 10
203.6381769257
 20
201.0886545069
 11
203.4923600033
 21
200.9471242803
  0
LINE
  5
2FE
100
AcDbEntity
  8
KONSTRUKTIONSELEMENTE
100
AcDbLine
 62
7
  6
CONTINUOUS
 10
203.7590972306
 20
200.6723080627
 11
203.9049141529
 21
200.8138382893
  0
LINE
  5
2FF
100
AcDbEntity
  8
0
100
AcDbLine
 62
7
  6
CONTINUOUS
 10
282.6076605422
 20
323.6016196454
 11
282.6076605422
 21
443.6016196454
  0
LINE
  5
300
100
AcDbEntity
  8
KONSTRUKTIONSELEMENTE
100
AcDbLine
 62
7
  6
CONTINUOUS
 10
226.6174640304
 20
197.3580259459
 11
226.7849789942
 21
197.6036966467
  0
LINE
  5
301
100
AcDbEntity
  8
KONSTRUKTIONSELEMENTE
100
AcDbLine
 62
7
  6
CONTINUOUS
 10
224.3094370956
 20
197.6317384624
 11
224.4404158143
 21
197.8044701964
  0
LINE
  5
302
100
AcDbEntity
  8
KONSTRUKTIONSELEMENTE
100
AcDbLine
 62
7
  6
CONTINUOUS
 10
226.4892372772
 20
197.6345542734
 11
226.3582585991
 21
197.4618225582
  0
LINE
  5
303
100
AcDbEntity
  8
KONSTRUKTIONSELEMENTE
100
AcDbLine
 62
7
  6
CONTINUOUS
 10
221.9289746225
 20
202.9547809921
 11
221.2696300521
 21
202.2605410615
  0
LINE
  5
304
100
AcDbEntity
  8
KONSTRUKTIONSELEMENTE
100
AcDbLine
 62
7
  6
CONTINUOUS
 10
221.4906473233
 20
202.0506330293
 11
222.1499918937
 21
202.74487296
  0
LINE
  5
305
100
AcDbEntity
  8
KONSTRUKTIONSELEMENTE
100
AcDbLine
 62
7
  6
CONTINUOUS
 10
222.5932622042
 20
201.8837355748
 11
222.3295244007
 21
201.6060396285
  0
LINE
  5
306
100
AcDbEntity
  8
KONSTRUKTIONSELEMENTE
100
AcDbLine
 62
7
  6
CONTINUOUS
 10
222.6610503074
 20
201.2911775802
 11
222.3093998412
 21
200.9209162536
  0
LINE
  5
307
100
AcDbEntity
  8
KONSTRUKTIONSELEMENTE
100
AcDbLine
 62
7
  6
CONTINUOUS
 10
222.4864608118
 20
200.6647255637
 11
223.1458053821
 21
201.3589654944
  0
LINE
  5
308
100
AcDbEntity
  8
KONSTRUKTIONSELEMENTE
100
AcDbLine
 62
7
  6
CONTINUOUS
 10
224.4280032313
 20
198.1347017923
 11
224.1812103424
 21
197.9082667899
  0
LINE
  5
309
100
AcDbEntity
  8
KONSTRUKTIONSELEMENTE
100
AcDbLine
 62
7
  6
CONTINUOUS
 10
221.0827191371
 20
203.7358507654
 11
220.9363297277
 21
203.6023627034
  0
LINE
  5
30A
100
AcDbEntity
  8
KONSTRUKTIONSELEMENTE
100
AcDbLine
 62
7
  6
CONTINUOUS
 10
221.1580385073
 20
203.3836631974
 11
221.3044279168
 21
203.5171512594
  0
LINE
  5
30B
100
AcDbEntity
  8
KONSTRUKTIONSELEMENTE
100
AcDbLine
 62
7
  6
CONTINUOUS
 10
200.2477162126
 20
201.1283075415
 11
200.0483681837
 21
200.9584385529
  0
LINE
  5
30C
100
AcDbEntity
  8
KONSTRUKTIONSELEMENTE
100
AcDbLine
 62
7
  6
CONTINUOUS
 10
222.1855935846
 20
203.1512086707
 11
221.9289746225
 21
202.9547809921
  0
LINE
  5
30D
100
AcDbEntity
  8
KONSTRUKTIONSELEMENTE
100
AcDbLine
 62
7
  6
CONTINUOUS
 10
204.1625856008
 20
204.8196226419
 11
203.146094969
 21
204.1463418287
  0
LINE
  5
30E
100
AcDbEntity
  8
KONSTRUKTIONSELEMENTE
100
AcDbLine
 62
7
  6
CONTINUOUS
 10
203.6117026294
 20
203.9953710028
 11
204.3740706033
 21
204.5003316126
  0
LINE
  5
30F
100
AcDbEntity
  8
KONSTRUKTIONSELEMENTE
100
AcDbLine
 62
7
  6
CONTINUOUS
 10
205.6077332905
 20
202.6378003479
 11
204.8453653166
 21
202.1328397381
  0
LINE
  5
310
100
AcDbEntity
  8
KONSTRUKTIONSELEMENTE
100
AcDbLine
 62
7
  6
CONTINUOUS
 10
204.8027276858
 20
201.6452284683
 11
205.8192183176
 21
202.3185092815
  0
LINE
  5
311
100
AcDbEntity
  8
KONSTRUKTIONSELEMENTE
100
AcDbLine
 62
7
  6
CONTINUOUS
 10
200.3377954835
 20
200.8146724715
 11
200.4782007613
 21
200.9017821883
  0
LINE
  5
312
100
AcDbEntity
  8
KONSTRUKTIONSELEMENTE
100
AcDbLine
 62
7
  6
CONTINUOUS
 10
203.5323700309
 20
200.5411981329
 11
203.7590972306
 21
200.6723080627
  0
LINE
  5
313
100
AcDbEntity
  8
0
100
AcDbLine
 62
7
  6
CONTINUOUS
 10
300.6076605422
 20
323.6016196454
 11
300.6076605422
 21
443.6016196454
  0
LINE
  5
314
100
AcDbEntity
  8
RUNDUNGEN
100
AcDbLine
 62
7
  6
CONTINUOUS
 10
227.0425782086
 20
163.3281807443
 11
226.9324509144
 21
163.1969361458
  0
LINE
  5
315
100
AcDbEntity
  8
0
100
AcDbLine
 62
7
  6
CONTINUOUS
 10
226.9324509144
 20
163.1969361458
 11
224.4311857718
 21
160.216044426
  0
LINE
  5
316
100
AcDbEntity
  8
0
100
AcDbLine
 62
7
  6
CONTINUOUS
 10
227.0425782086
 20
163.3281807443
 11
227.1394447723
 21
163.4436218196
  0
LINE
  5
317
100
AcDbEntity
  8
KONSTRUKTIONSELEMENTE
100
AcDbLine
 62
7
  6
CONTINUOUS
 10
225.4655284577
 20
196.6558773877
 11
225.712321306
 21
196.8823123714
  0
LINE
  5
318
100
AcDbEntity
  8
KONSTRUKTIONSELEMENTE
100
AcDbLine
 62
7
  6
CONTINUOUS
 10
224.4404158143
 20
197.8044701964
 11
224.5927662702
 21
197.9311124504
  0
LINE
  5
319
100
AcDbEntity
  8
KONSTRUKTIONSELEMENTE
100
AcDbLine
 62
7
  6
CONTINUOUS
 10
225.4531158747
 20
196.9861089837
 11
225.3007653377
 21
196.859466692
  0
LINE
  5
31A
100
AcDbEntity
  8
KONSTRUKTIONSELEMENTE
100
AcDbLine
 62
7
  6
CONTINUOUS
 10
226.4651135746
 20
197.2313836918
 11
226.6174640304
 21
197.3580259459
  0
LINE
  5
31B
100
AcDbEntity
  8
KONSTRUKTIONSELEMENTE
100
AcDbLine
 62
7
  6
CONTINUOUS
 10
222.1499918937
 20
202.74487296
 11
222.362654432
 21
202.8950178512
  0
LINE
  5
31C
100
AcDbEntity
  8
KONSTRUKTIONSELEMENTE
100
AcDbLine
 62
7
  6
CONTINUOUS
 10
222.2737999288
 20
200.5145790386
 11
222.4864608118
 21
200.6647255637
  0
LINE
  5
31D
100
AcDbEntity
  8
KONSTRUKTIONSELEMENTE
100
AcDbLine
 62
7
  6
CONTINUOUS
 10
222.3093998412
 20
200.9209162536
 11
222.1406952896
 21
200.8170524187
  0
LINE
  5
31E
100
AcDbEntity
  8
KONSTRUKTIONSELEMENTE
100
AcDbLine
 62
7
  6
CONTINUOUS
 10
224.8119821087
 20
198.368750621
 11
224.4280032313
 21
198.1347017923
  0
LINE
  5
31F
100
AcDbEntity
  8
KONSTRUKTIONSELEMENTE
100
AcDbLine
 62
7
  6
CONTINUOUS
 10
203.4923600033
 20
200.9471242803
 11
203.3020870902
 21
200.8513969538
  0
LINE
  5
320
100
AcDbEntity
  8
KONSTRUKTIONSELEMENTE
100
AcDbLine
 62
7
  6
CONTINUOUS
 10
220.8916661099
 20
203.2515227335
 11
221.1580385073
 21
203.3836631974
  0
LINE
  5
321
100
AcDbEntity
  8
KONSTRUKTIONSELEMENTE
100
AcDbLine
 62
7
  6
CONTINUOUS
 10
225.2173317045
 20
198.5567120608
 11
224.8119821087
 21
198.368750621
  0
LINE
  5
322
100
AcDbEntity
  8
KONSTRUKTIONSELEMENTE
100
AcDbLine
 62
7
  6
CONTINUOUS
 10
225.208373488
 20
198.2725678161
 11
225.3241876582
 21
198.3262710846
  0
LINE
  5
323
100
AcDbEntity
  8
KONSTRUKTIONSELEMENTE
100
AcDbLine
 62
7
  6
CONTINUOUS
 10
224.5927662702
 20
197.9311124504
 11
224.7664875255
 21
198.0116673532
  0
LINE
  5
324
100
AcDbEntity
  8
KONSTRUKTIONSELEMENTE
100
AcDbLine
 62
7
  6
CONTINUOUS
 10
225.3007653377
 20
196.859466692
 11
225.1270440824
 21
196.7789117892
  0
LINE
  5
325
100
AcDbEntity
  8
KONSTRUKTIONSELEMENTE
100
AcDbLine
 62
7
  6
CONTINUOUS
 10
225.175992951
 20
196.5216191788
 11
225.4655284577
 21
196.6558773877
  0
LINE
  5
326
100
AcDbEntity
  8
KONSTRUKTIONSELEMENTE
100
AcDbLine
 62
7
  6
CONTINUOUS
 10
222.4350900865
 20
203.2663710252
 11
222.1855935846
 21
203.1512086707
  0
LINE
  5
327
100
AcDbEntity
  8
KONSTRUKTIONSELEMENTE
100
AcDbLine
 62
7
  6
CONTINUOUS
 10
204.4096021444
 20
204.9066744134
 11
204.1625856008
 21
204.8196226419
  0
LINE
  5
328
100
AcDbEntity
  8
KONSTRUKTIONSELEMENTE
100
AcDbLine
 62
7
  6
CONTINUOUS
 10
220.9363297277
 20
203.6023627034
 11
220.7817871825
 21
203.5500458089
  0
LINE
  5
329
100
AcDbEntity
  8
KONSTRUKTIONSELEMENTE
100
AcDbLine
 62
7
  6
CONTINUOUS
 10
222.362654432
 20
202.8950178512
 11
222.5681947565
 21
202.9638976776
  0
LINE
  5
32A
100
AcDbEntity
  8
0
100
AcDbLine
 62
7
  6
CONTINUOUS
 10
206.1076605422
 20
209.0416927683
 11
201.1740317503
 21
207.4386595999
  0
LINE
  5
32B
100
AcDbEntity
  8
KONSTRUKTIONSELEMENTE
100
AcDbLine
 62
7
  6
CONTINUOUS
 10
204.3740706033
 20
204.5003316126
 11
204.5787330474
 21
204.5593298029
  0
LINE
  5
32C
100
AcDbEntity
  8
KONSTRUKTIONSELEMENTE
100
AcDbLine
 62
7
  6
CONTINUOUS
 10
225.6440520996
 20
198.6985861492
 11
225.2173317045
 21
198.5567120608
  0
LINE
  5
32D
100
AcDbEntity
  8
KONSTRUKTIONSELEMENTE
100
AcDbLine
 62
7
  6
CONTINUOUS
 10
225.3241876582
 20
198.3262710846
 11
225.6930009683
 21
198.4412935388
  0
LINE
  5
32E
100
AcDbEntity
  8
KONSTRUKTIONSELEMENTE
100
AcDbLine
 62
7
  6
CONTINUOUS
 10
226.6683998188
 20
84.8906255028
 11
237.1915945362
 21
100.847949416
  0
LINE
  5
32F
100
AcDbEntity
  8
KONSTRUKTIONSELEMENTE
100
AcDbLine
 62
7
  6
CONTINUOUS
 10
231.6088959177
 20
80.3356392579
 11
231.7146519694
 21
80.4960072467
  0
LINE
  5
330
100
AcDbEntity
  8
KONSTRUKTIONSELEMENTE
100
AcDbLine
 62
7
  6
CONTINUOUS
 10
245.1116508666
 20
100.8111545579
 11
245.3652218236
 21
101.1956683871
  0
LINE
  5
331
100
AcDbEntity
  8
KONSTRUKTIONSELEMENTE
100
AcDbLine
 62
7
  6
CONTINUOUS
 10
207.5362414013
 20
114.7865392239
 11
187.8265839033
 21
108.2876875119
  0
LINE
  5
332
100
AcDbEntity
  8
KONSTRUKTIONSELEMENTE
100
AcDbLine
 62
7
  6
CONTINUOUS
 10
207.5362414013
 20
112.6652188803
 11
187.8265839033
 21
106.1663671683
  0
LINE
  5
333
100
AcDbEntity
  8
KONSTRUKTIONSELEMENTE
100
AcDbLine
 62
7
  6
CONTINUOUS
 10
190.4172576109
 20
103.7437229786
 11
186.8826572415
 21
102.5782616475
  0
LINE
  5
334
100
AcDbEntity
  8
KONSTRUKTIONSELEMENTE
100
AcDbLine
 62
7
  6
CONTINUOUS
 10
188.2054761639
 20
102.9267147413
 11
190.7987297636
 21
103.7817864541
  0
LINE
  5
335
100
AcDbEntity
  8
KONSTRUKTIONSELEMENTE
100
AcDbLine
 62
7
  6
CONTINUOUS
 10
190.601721708
 20
100.3537192269
 11
193.1021620792
 21
101.1781876982
  0
LINE
  5
336
100
AcDbEntity
  8
KONSTRUKTIONSELEMENTE
100
AcDbLine
 62
7
  6
CONTINUOUS
 10
190.601721708
 20
98.656662952
 11
193.3206450691
 21
99.5531716682
  0
LINE
  5
337
100
AcDbEntity
  8
KONSTRUKTIONSELEMENTE
100
AcDbLine
 62
7
  6
CONTINUOUS
 10
190.2931866137
 20
97.6186826787
 11
193.8277869832
 21
98.7841440097
  0
LINE
  5
338
100
AcDbEntity
  8
KONSTRUKTIONSELEMENTE
100
AcDbLine
 62
7
  6
CONTINUOUS
 10
190.2931866137
 20
97.4065506443
 11
193.8277869832
 21
98.5720119754
  0
LINE
  5
339
100
AcDbEntity
  8
KONSTRUKTIONSELEMENTE
100
AcDbLine
 62
7
  6
CONTINUOUS
 10
407.902975878
 20
73.1551371423
 11
410.0242962216
 21
71.0338167987
  0
LINE
  5
33A
100
AcDbEntity
  8
KONSTRUKTIONSELEMENTE
100
AcDbLine
 62
7
  6
CONTINUOUS
 10
441.5687410704
 20
102.5782616475
 11
441.1643521214
 21
102.5981367673
  0
LINE
  5
33B
100
AcDbEntity
  8
KONSTRUKTIONSELEMENTE
100
AcDbLine
 62
7
  6
CONTINUOUS
 10
418.5095775958
 20
79.5190981729
 11
416.3882572523
 21
81.6404185165
  0
LINE
  5
33C
100
AcDbEntity
  8
KONSTRUKTIONSELEMENTE
100
AcDbLine
 62
7
  6
CONTINUOUS
 10
436.3970300672
 20
97.4065506443
 11
436.1848980329
 21
97.6186826787
  0
LINE
  5
33D
100
AcDbEntity
  8
KONSTRUKTIONSELEMENTE
100
AcDbLine
 62
7
  6
CONTINUOUS
 10
434.2757097237
 20
99.5278709879
 11
434.487841758
 21
99.3157389535
  0
LINE
  5
33E
100
AcDbEntity
  8
KONSTRUKTIONSELEMENTE
100
AcDbLine
 62
7
  6
CONTINUOUS
 10
439.6745836996
 20
103.3530182127
 11
440.222177292
 21
102.8054246202
  0
LINE
  5
33F
100
AcDbEntity
  8
BEZUGSACHSEN
100
AcDbLine
 62
7
  6
CONTINUOUS
 10
450.3293827492
 20
115.5815440135
 11
452.4507030928
 21
113.4602236699
  0
LINE
  5
340
100
AcDbEntity
  8
KONSTRUKTIONSELEMENTE
100
AcDbLine
 62
7
  6
CONTINUOUS
 10
447.1474022339
 20
121.9455050441
 11
450.6829361398
 21
118.4099711382
  0
LINE
  5
341
100
AcDbEntity
  8
KONSTRUKTIONSELEMENTE
100
AcDbLine
 62
7
  6
CONTINUOUS
 10
447.5009556245
 20
122.2990584347
 11
451.0364895304
 21
118.7635245288
  0
LINE
  5
342
100
AcDbEntity
  8
0
100
AcDbLine
 62
7
  6
CONTINUOUS
 10
547.327944057
 20
174.2155272477
 11
550.6136133925
 21
174.2155272477
  0
LINE
  5
343
100
AcDbEntity
  8
0
100
AcDbLine
 62
7
  6
CONTINUOUS
 10
550.5058402897
 20
185.6906052651
 11
547.4357171598
 21
185.6906052651
  0
LINE
  5
344
100
AcDbEntity
  8
0
100
AcDbLine
 62
7
  6
CONTINUOUS
 10
550.4861448438
 20
197.7126340257
 11
547.4554126057
 21
197.7126340257
  0
LINE
  5
345
100
AcDbEntity
  8
KONSTRUKTIONSELEMENTE
100
AcDbLine
 62
7
  6
CONTINUOUS
 10
552.2995117279
 20
198.224958372
 11
553.1273467883
 21
198.224958372
  0
LINE
  5
346
100
AcDbEntity
  8
KONSTRUKTIONSELEMENTE
100
AcDbLine
 62
7
  6
CONTINUOUS
 10
552.7793434072
 20
199.5077264329
 11
553.1332480014
 21
199.5077264329
  0
LINE
  5
347
100
AcDbEntity
  8
KONSTRUKTIONSELEMENTE
100
AcDbLine
 62
7
  6
CONTINUOUS
 10
551.5031584452
 20
199.9653277655
 11
552.3309935056
 21
199.9653277655
  0
LINE
  5
348
100
AcDbEntity
  8
KONSTRUKTIONSELEMENTE
100
AcDbLine
 62
7
  6
CONTINUOUS
 10
552.4225717047
 20
200.2592353935
 11
552.6777444606
 21
200.2592353935
  0
LINE
  5
349
100
AcDbEntity
  8
KONSTRUKTIONSELEMENTE
100
AcDbLine
 62
7
  6
CONTINUOUS
 10
552.4235687245
 20
200.4204033735
 11
552.659690957
 21
200.4204033735
  0
LINE
  5
34A
100
AcDbEntity
  8
KONSTRUKTIONSELEMENTE
100
AcDbLine
 62
7
  6
CONTINUOUS
 10
552.7207787247
 20
200.4693865458
 11
553.0805794135
 21
200.4693865458
  0
LINE
  5
34B
100
AcDbEntity
  8
KONSTRUKTIONSELEMENTE
100
AcDbLine
 62
7
  6
CONTINUOUS
 10
552.7078372256
 20
200.4912733135
 11
553.0829719908
 21
200.4912733135
  0
LINE
  5
34C
100
AcDbEntity
  8
KONSTRUKTIONSELEMENTE
100
AcDbLine
 62
7
  6
CONTINUOUS
 10
553.1013946233
 20
200.516760974
 11
553.1171980782
 21
200.516760974
  0
LINE
  5
34D
100
AcDbEntity
  8
KONSTRUKTIONSELEMENTE
100
AcDbLine
 62
7
  6
CONTINUOUS
 10
552.7078372256
 20
200.5329540958
 11
553.0123669038
 21
200.5329540958
  0
LINE
  5
34E
100
AcDbEntity
  8
KONSTRUKTIONSELEMENTE
100
AcDbLine
 62
7
  6
CONTINUOUS
 10
552.4238144829
 20
200.5772209085
 11
552.624794738
 21
200.5772209085
  0
LINE
  5
34F
100
AcDbEntity
  8
KONSTRUKTIONSELEMENTE
100
AcDbLine
 62
7
  6
CONTINUOUS
 10
552.6746381858
 20
200.6453998049
 11
552.9428962202
 21
200.6453998049
  0
LINE
  5
350
100
AcDbEntity
  8
KONSTRUKTIONSELEMENTE
100
AcDbLine
 62
7
  6
CONTINUOUS
 10
552.4234491795
 20
200.72968788
 11
552.5733440312
 21
200.72968788
  0
LINE
  5
351
100
AcDbEntity
  8
KONSTRUKTIONSELEMENTE
100
AcDbLine
 62
7
  6
CONTINUOUS
 10
552.6206439011
 20
200.8390306855
 11
552.8572711304
 21
200.8390306855
  0
LINE
  5
352
100
AcDbEntity
  8
KONSTRUKTIONSELEMENTE
100
AcDbLine
 62
7
  6
CONTINUOUS
 10
552.4230415993
 20
200.8407753786
 11
552.5224357686
 21
200.8407753786
  0
LINE
  5
353
100
AcDbEntity
  8
KONSTRUKTIONSELEMENTE
100
AcDbLine
 62
7
  6
CONTINUOUS
 10
552.9708843039
 20
200.8513969538
 11
553.0173359116
 21
200.8513969538
  0
LINE
  5
354
100
AcDbEntity
  8
KONSTRUKTIONSELEMENTE
100
AcDbLine
 62
7
  6
CONTINUOUS
 10
552.9100578485
 20
200.9471242803
 11
553.0351612022
 21
200.9471242803
  0
LINE
  5
355
100
AcDbEntity
  8
KONSTRUKTIONSELEMENTE
100
AcDbLine
 62
7
  6
CONTINUOUS
 10
551.5105461957
 20
200.9584385529
 11
552.3383812561
 21
200.9584385529
  0
LINE
  5
356
100
AcDbEntity
  8
KONSTRUKTIONSELEMENTE
100
AcDbLine
 62
7
  6
CONTINUOUS
 10
553.1252435874
 20
200.960262653
 11
553.1368359521
 21
200.960262653
  0
LINE
  5
357
100
AcDbEntity
  8
KONSTRUKTIONSELEMENTE
100
AcDbLine
 62
7
  6
CONTINUOUS
 10
552.8479730322
 20
201.0886545069
 11
553.0351612025
 21
201.0886545069
  0
LINE
  5
358
100
AcDbEntity
  8
KONSTRUKTIONSELEMENTE
100
AcDbLine
 62
7
  6
CONTINUOUS
 10
551.5258707604
 20
201.1283075415
 11
552.3537058208
 21
201.1283075415
  0
LINE
  5
359
100
AcDbEntity
  8
KONSTRUKTIONSELEMENTE
100
AcDbLine
 62
7
  6
CONTINUOUS
 10
553.0966458323
 20
201.1814692088
 11
553.1182276205
 21
201.1814692088
  0
LINE
  5
35A
100
AcDbEntity
  8
KONSTRUKTIONSELEMENTE
100
AcDbLine
 62
7
  6
CONTINUOUS
 10
551.5746482165
 20
201.1827385717
 11
552.402483277
 21
201.1827385717
  0
LINE
  5
35B
100
AcDbEntity
  8
KONSTRUKTIONSELEMENTE
100
AcDbLine
 62
7
  6
CONTINUOUS
 10
552.7785771378
 20
201.2759874311
 11
553.0173359107
 21
201.2759874311
  0
LINE
  5
35C
100
AcDbEntity
  8
KONSTRUKTIONSELEMENTE
100
AcDbLine
 62
7
  6
CONTINUOUS
 10
553.051691394
 20
201.4139726907
 11
553.0820268532
 21
201.4139726907
  0
LINE
  5
35D
100
AcDbEntity
  8
KONSTRUKTIONSELEMENTE
100
AcDbLine
 62
7
  6
CONTINUOUS
 10
552.7053182267
 20
201.4737404777
 11
552.9822052112
 21
201.4737404777
  0
LINE
  5
35E
100
AcDbEntity
  8
KONSTRUKTIONSELEMENTE
100
AcDbLine
 62
7
  6
CONTINUOUS
 10
552.9984835099
 20
201.6452284683
 11
553.126287302
 21
201.6452284683
  0
LINE
  5
35F
100
AcDbEntity
  8
KONSTRUKTIONSELEMENTE
100
AcDbLine
 62
7
  6
CONTINUOUS
 10
552.6281964089
 20
201.6819135825
 11
552.9302572585
 21
201.6819135825
  0
LINE
  5
360
100
AcDbEntity
  8
KONSTRUKTIONSELEMENTE
100
AcDbLine
 62
7
  6
CONTINUOUS
 10
552.5472113079
 20
201.9005069801
 11
552.8618010502
 21
201.9005069801
  0
LINE
  5
361
100
AcDbEntity
  8
KONSTRUKTIONSELEMENTE
100
AcDbLine
 62
7
  6
CONTINUOUS
 10
551.5039713333
 20
202.2589145032
 11
552.3318063937
 21
202.2589145032
  0
LINE
  5
362
100
AcDbEntity
  8
KONSTRUKTIONSELEMENTE
100
AcDbLine
 62
7
  6
CONTINUOUS
 10
551.5079281989
 20
202.4712098431
 11
552.3357632593
 21
202.4712098431
  0
LINE
  5
363
100
AcDbEntity
  8
KONSTRUKTIONSELEMENTE
100
AcDbLine
 62
7
  6
CONTINUOUS
 10
552.8691572314
 20
202.6378003479
 11
553.0348438692
 21
202.6378003479
  0
LINE
  5
364
100
AcDbEntity
  8
KONSTRUKTIONSELEMENTE
100
AcDbLine
 62
7
  6
CONTINUOUS
 10
553.0947399466
 20
202.6525678272
 11
553.1325676033
 21
202.6525678272
  0
LINE
  5
365
100
AcDbEntity
  8
KONSTRUKTIONSELEMENTE
100
AcDbLine
 62
7
  6
CONTINUOUS
 10
552.8164316944
 20
202.8032288813
 11
553.0165993139
 21
202.8032288813
  0
LINE
  5
366
100
AcDbEntity
  8
KONSTRUKTIONSELEMENTE
100
AcDbLine
 62
7
  6
CONTINUOUS
 10
553.0627595223
 20
202.8176028406
 11
553.1273467809
 21
202.8176028406
  0
LINE
  5
367
100
AcDbEntity
  8
KONSTRUKTIONSELEMENTE
100
AcDbLine
 62
7
  6
CONTINUOUS
 10
552.7556836022
 20
202.9938193633
 11
552.9811635137
 21
202.9938193633
  0
LINE
  5
368
100
AcDbEntity
  8
KONSTRUKTIONSELEMENTE
100
AcDbLine
 62
7
  6
CONTINUOUS
 10
552.6869121611
 20
203.2095717194
 11
552.9290254913
 21
203.2095717194
  0
LINE
  5
369
100
AcDbEntity
  8
KONSTRUKTIONSELEMENTE
100
AcDbLine
 62
7
  6
CONTINUOUS
 10
551.5079281974
 20
203.3203907977
 11
552.3357632578
 21
203.3203907977
  0
LINE
  5
36A
100
AcDbEntity
  8
KONSTRUKTIONSELEMENTE
100
AcDbLine
 62
7
  6
CONTINUOUS
 10
552.6101173291
 20
203.4504856657
 11
552.8604918282
 21
203.4504856657
  0
LINE
  5
36B
100
AcDbEntity
  8
KONSTRUKTIONSELEMENTE
100
AcDbLine
 62
7
  6
CONTINUOUS
 10
551.5039713333
 20
203.5326860364
 11
552.3318063937
 21
203.5326860364
  0
LINE
  5
36C
100
AcDbEntity
  8
KONSTRUKTIONSELEMENTE
100
AcDbLine
 62
7
  6
CONTINUOUS
 10
551.5023017904
 20
204.1463418287
 11
552.3301368508
 21
204.1463418287
  0
LINE
  5
36D
100
AcDbEntity
  8
KONSTRUKTIONSELEMENTE
100
AcDbLine
 62
7
  6
CONTINUOUS
 10
552.44027488
 20
204.2487133133
 11
552.6060587875
 21
204.2487133133
  0
LINE
  5
36E
100
AcDbEntity
  8
KONSTRUKTIONSELEMENTE
100
AcDbLine
 62
7
  6
CONTINUOUS
 10
552.4407418272
 20
204.4335207393
 11
552.5388272154
 21
204.4335207393
  0
LINE
  5
36F
100
AcDbEntity
  8
KONSTRUKTIONSELEMENTE
100
AcDbLine
 62
7
  6
CONTINUOUS
 10
552.4504522992
 20
204.5370595615
 11
552.4890215314
 21
204.5370595615
  0
LINE
  5
370
100
AcDbEntity
  8
KONSTRUKTIONSELEMENTE
100
AcDbLine
 62
7
  6
CONTINUOUS
 10
551.5107442622
 20
204.8196226419
 11
552.3385793226
 21
204.8196226419
  0
LINE
  5
371
100
AcDbEntity
  8
KONSTRUKTIONSELEMENTE
100
AcDbLine
 62
7
  6
CONTINUOUS
 10
551.5262904603
 20
204.9066744134
 11
552.3541255207
 21
204.9066744134
  0
LINE
  5
372
100
AcDbEntity
  8
KONSTRUKTIONSELEMENTE
100
AcDbLine
 62
7
  6
CONTINUOUS
 10
551.5582836175
 20
204.9124574322
 11
552.3861186779
 21
204.9124574322
  0
LINE
  5
373
100
AcDbEntity
  8
KONSTRUKTIONSELEMENTE
100
AcDbLine
 62
7
  6
CONTINUOUS
 10
552.0330871262
 20
205.3398342953
 11
552.3309934996
 21
205.3398342953
  0
LINE
  5
374
100
AcDbEntity
  8
0
100
AcDbLine
 62
7
  6
CONTINUOUS
 10
550.4861448438
 20
207.4386595999
 11
547.4554126057
 21
207.4386595999
  0
LINE
  5
375
100
AcDbEntity
  8
0
100
AcDbLine
 62
7
  6
CONTINUOUS
 10
547.4554126057
 20
211.1536707938
 11
550.4861448438
 21
211.1536707938
  0
LINE
  5
376
100
AcDbEntity
  8
KONSTRUKTIONSELEMENTE
100
AcDbLine
 62
7
  6
CONTINUOUS
 10
504.42305151
 20
179.2211543202
 11
507.9585854159
 21
175.6856204143
  0
LINE
  5
377
100
AcDbEntity
  8
KONSTRUKTIONSELEMENTE
100
AcDbLine
 62
7
  6
CONTINUOUS
 10
504.7766049006
 20
179.5747077108
 11
508.3121388065
 21
176.0391738049
  0
LINE
  5
378
100
AcDbEntity
  8
KONSTRUKTIONSELEMENTE
100
AcDbLine
 62
7
  6
CONTINUOUS
 10
439.4672958466
 20
104.2951930421
 11
439.4474207269
 21
104.6995819911
  0
LINE
  5
379
100
AcDbEntity
  8
RUNDUNGEN
100
AcDbLine
 62
7
  6
CONTINUOUS
 10
552.8767107372
 20
184.2184206814
 11
556.6179315974
 21
181.5987896329
  0
LINE
  5
37A
100
AcDbEntity
  8
0
100
AcDbLine
 62
7
  6
CONTINUOUS
 10
541.8242819095
 20
163.3997088174
 11
540.4707787247
 21
165.5016196454
  0
LINE
  5
37B
100
AcDbEntity
  8
0
100
AcDbLine
 62
7
  6
CONTINUOUS
 10
523.4707787247
 20
212.1016196454
 11
523.4707787247
 21
241.1016196454
  0
LINE
  5
37C
100
AcDbEntity
  8
KONSTRUKTIONSELEMENTE
100
AcDbLine
 62
7
  6
CONTINUOUS
 10
550.4861448438
 20
211.1536707938
 11
552.1468033169
 21
204.9124574322
  0
LINE
  5
37D
100
AcDbEntity
  8
0
100
AcDbLine
 62
7
  6
CONTINUOUS
 10
547.3315725475
 20
187.4305581096
 11
547.4357171598
 21
185.6906052651
  0
LINE
  5
37E
100
AcDbEntity
  8
0
100
AcDbLine
 62
7
  6
CONTINUOUS
 10
536.4707787247
 20
212.1016196454
 11
536.4707787247
 21
241.1016196454
  0
LINE
  5
37F
100
AcDbEntity
  8
0
100
AcDbLine
 62
7
  6
CONTINUOUS
 10
539.9707787247
 20
522.537550501
 11
539.9707787247
 21
244.6656887899
  0
LINE
  5
380
100
AcDbEntity
  8
0
100
AcDbLine
 62
7
  6
CONTINUOUS
 10
540.4707787247
 20
179.9604855443
 11
540.4707787247
 21
165.5016196454
  0
LINE
  5
381
100
AcDbEntity
  8
0
100
AcDbLine
 62
7
  6
CONTINUOUS
 10
545.2207787247
 20
202.4283872437
 11
545.2207787247
 21
185.368739553
  0
LINE
  5
382
100
AcDbEntity
  8
0
100
AcDbLine
 62
7
  6
CONTINUOUS
 10
547.4357171598
 20
176.7620853152
 11
547.4357171598
 21
185.6906052651
  0
LINE
  5
383
100
AcDbEntity
  8
0
100
AcDbLine
 62
7
  6
CONTINUOUS
 10
548.9707787247
 20
164.7299231336
 11
548.9707787247
 21
165.5016196454
  0
LINE
  5
384
100
AcDbEntity
  8
0
100
AcDbLine
 62
7
  6
CONTINUOUS
 10
548.9707787247
 20
170.5016196454
 11
548.9707787247
 21
171.4244333553
  0
LINE
  5
385
100
AcDbEntity
  8
RUNDUNGEN
100
AcDbLine
 62
7
  6
CONTINUOUS
 10
550.5058402897
 20
176.7620853152
 11
550.5058402897
 21
185.6906052651
  0
LINE
  5
386
100
AcDbEntity
  8
BEZUGSACHSEN
100
AcDbLine
 62
7
  6
CONTINUOUS
 10
552.7207787247
 20
200.4912733135
 11
552.7207787247
 21
200.4312666626
  0
LINE
  5
387
100
AcDbEntity
  8
BEZUGSACHSEN
100
AcDbLine
 62
7
  6
CONTINUOUS
 10
552.7207787247
 20
198.224958372
 11
552.7207787247
 21
189.2886219645
  0
LINE
  5
388
100
AcDbEntity
  8
RUNDUNGEN
100
AcDbLine
 62
7
  6
CONTINUOUS
 10
552.7207787247
 20
189.2886219589
 11
552.7207787247
 21
185.368739553
  0
LINE
  5
389
100
AcDbEntity
  8
KONSTRUKTIONSELEMENTE
100
AcDbLine
 62
7
  6
CONTINUOUS
 10
552.7207787247
 20
189.2886219645
 11
552.7207787247
 21
185.368739553
  0
LINE
  5
38A
100
AcDbEntity
  8
RUNDUNGEN
100
AcDbLine
 62
7
  6
CONTINUOUS
 10
557.4707787247
 20
179.9604855443
 11
557.4707787247
 21
165.5016196454
  0
LINE
  5
38B
100
AcDbEntity
  8
0
100
AcDbLine
 62
7
  6
CONTINUOUS
 10
557.9707787247
 20
522.537550501
 11
557.9707787247
 21
244.6656887899
  0
LINE
  5
38C
100
AcDbEntity
  8
0
100
AcDbLine
 62
7
  6
CONTINUOUS
 10
550.609984902
 20
187.4305581096
 11
550.5058402897
 21
185.6906052651
  0
LINE
  5
38D
100
AcDbEntity
  8
0
100
AcDbLine
 62
7
  6
CONTINUOUS
 10
561.4707787247
 20
241.1016196454
 11
561.4707787247
 21
212.1016196454
  0
LINE
  5
38E
100
AcDbEntity
  8
0
100
AcDbLine
 62
7
  6
CONTINUOUS
 10
574.4707787247
 20
241.1016196454
 11
574.4707787247
 21
212.1016196454
  0
LINE
  5
38F
100
AcDbEntity
  8
0
100
AcDbLine
 62
7
  6
CONTINUOUS
 10
545.3048385264
 20
203.0712192266
 11
547.4554126057
 21
211.1536707938
  0
LINE
  5
390
100
AcDbEntity
  8
KONSTRUKTIONSELEMENTE
100
AcDbLine
 62
7
  6
CONTINUOUS
 10
444.3189751091
 20
119.1170779194
 11
447.1474022339
 21
121.9455050441
  0
LINE
  5
391
100
AcDbEntity
  8
KONSTRUKTIONSELEMENTE
100
AcDbLine
 62
7
  6
CONTINUOUS
 10
447.5009556245
 20
122.2990584347
 11
450.3293827492
 21
125.1274855595
  0
LINE
  5
392
100
AcDbEntity
  8
KONSTRUKTIONSELEMENTE
100
AcDbLine
 62
7
  6
CONTINUOUS
 10
501.5946243852
 20
176.3927271955
 11
504.42305151
 21
179.2211543202
  0
LINE
  5
393
100
AcDbEntity
  8
KONSTRUKTIONSELEMENTE
100
AcDbLine
 62
7
  6
CONTINUOUS
 10
504.7766049006
 20
179.5747077108
 11
507.6050320253
 21
182.4031348356
  0
LINE
  5
394
100
AcDbEntity
  8
KONSTRUKTIONSELEMENTE
100
AcDbLine
 62
7
  6
CONTINUOUS
 10
481.4420811214
 20
155.8866305411
 11
470.8354794036
 21
145.2800288233
  0
LINE
  5
395
100
AcDbEntity
  8
KONSTRUKTIONSELEMENTE
100
AcDbLine
 62
7
  6
CONTINUOUS
 10
484.6240616368
 20
152.7046500257
 11
474.017459919
 21
142.098048308
  0
LINE
  5
396
100
AcDbEntity
  8
KONSTRUKTIONSELEMENTE
100
AcDbLine
 62
7
  6
CONTINUOUS
 10
447.8545090151
 20
115.5815440135
 11
450.6829361398
 21
118.4099711382
  0
LINE
  5
397
100
AcDbEntity
  8
KONSTRUKTIONSELEMENTE
100
AcDbLine
 62
7
  6
CONTINUOUS
 10
451.0364895304
 20
118.7635245288
 11
453.8649166552
 21
121.5919516535
  0
LINE
  5
398
100
AcDbEntity
  8
KONSTRUKTIONSELEMENTE
100
AcDbLine
 62
7
  6
CONTINUOUS
 10
505.1301582912
 20
172.8571932896
 11
507.9585854159
 21
175.6856204143
  0
LINE
  5
399
100
AcDbEntity
  8
KONSTRUKTIONSELEMENTE
100
AcDbLine
 62
7
  6
CONTINUOUS
 10
508.3121388065
 20
176.0391738049
 11
511.1405659313
 21
178.8676009297
  0
LINE
  5
39A
100
AcDbEntity
  8
KONSTRUKTIONSELEMENTE
100
AcDbLine
 62
7
  6
CONTINUOUS
 10
540.1319439599
 20
207.5054255677
 11
511.1405659313
 21
178.5140475391
  0
LINE
  5
39B
100
AcDbEntity
  8
KONSTRUKTIONSELEMENTE
100
AcDbLine
 62
7
  6
CONTINUOUS
 10
455.2791302175
 20
121.5919516535
 11
473.9878151927
 21
140.3006366287
  0
LINE
  5
39C
100
AcDbEntity
  8
KONSTRUKTIONSELEMENTE
100
AcDbLine
 62
7
  6
CONTINUOUS
 10
486.3918285897
 20
152.7046500257
 11
505.1005135649
 21
171.4133350009
  0
LINE
  5
39D
100
AcDbEntity
  8
BEZUGSACHSEN
100
AcDbLine
 62
7
  6
CONTINUOUS
 10
450.3291986786
 20
115.5813599428
 11
449.5343779597
 21
114.7865392239
  0
LINE
  5
39E
100
AcDbEntity
  8
KONSTRUKTIONSELEMENTE
100
AcDbLine
 62
7
  6
CONTINUOUS
 10
407.902975878
 20
73.1551371423
 11
449.5343779597
 21
114.7865392239
  0
LINE
  5
39F
100
AcDbEntity
  8
KONSTRUKTIONSELEMENTE
100
AcDbLine
 62
7
  6
CONTINUOUS
 10
416.6003892866
 20
81.4282864821
 11
408.1151079124
 21
72.9430051079
  0
LINE
  5
3A0
100
AcDbEntity
  8
KONSTRUKTIONSELEMENTE
100
AcDbLine
 62
7
  6
CONTINUOUS
 10
434.487841758
 20
99.3157389535
 11
437.2680541062
 21
102.0959513018
  0
LINE
  5
3A1
100
AcDbEntity
  8
KONSTRUKTIONSELEMENTE
100
AcDbLine
 62
7
  6
CONTINUOUS
 10
418.2974455615
 20
79.7312302073
 11
409.8121641872
 21
71.2459488331
  0
LINE
  5
3A2
100
AcDbEntity
  8
KONSTRUKTIONSELEMENTE
100
AcDbLine
 62
7
  6
CONTINUOUS
 10
436.1848980329
 20
97.6186826787
 11
438.9651103811
 21
100.3988950269
  0
LINE
  5
3A3
100
AcDbEntity
  8
BEZUGSACHSEN
100
AcDbLine
 62
7
  6
CONTINUOUS
 10
452.4505190221
 20
113.4600395993
 11
451.6556983032
 21
112.6652188803
  0
LINE
  5
3A4
100
AcDbEntity
  8
KONSTRUKTIONSELEMENTE
100
AcDbLine
 62
7
  6
CONTINUOUS
 10
410.0242962216
 20
71.0338167987
 11
451.6556983032
 21
112.6652188803
  0
LINE
  5
3A5
100
AcDbEntity
  8
KONSTRUKTIONSELEMENTE
100
AcDbLine
 62
7
  6
CONTINUOUS
 10
458.4611107329
 20
118.4099711382
 11
477.169795708
 21
137.1186561134
  0
LINE
  5
3A6
100
AcDbEntity
  8
KONSTRUKTIONSELEMENTE
100
AcDbLine
 62
7
  6
CONTINUOUS
 10
489.5738091051
 20
149.5226695104
 11
508.2824940803
 21
168.2313544856
  0
LINE
  5
3A7
100
AcDbEntity
  8
KONSTRUKTIONSELEMENTE
100
AcDbLine
 62
7
  6
CONTINUOUS
 10
544.374584647
 20
203.2627848806
 11
515.4327167456
 21
174.3209169791
  0
LINE
  5
3A8
100
AcDbEntity
  8
KONSTRUKTIONSELEMENTE
100
AcDbLine
 62
7
  6
CONTINUOUS
 10
515.736760009
 20
174.2714068519
 11
509.7263523689
 21
168.2609992119
  0
LINE
  5
3A9
100
AcDbEntity
  8
KONSTRUKTIONSELEMENTE
100
AcDbLine
 62
7
  6
CONTINUOUS
 10
458.4611107329
 20
116.9957575758
 11
452.4507030928
 21
110.9853499357
  0
LINE
  5
3AA
100
AcDbEntity
  8
KONSTRUKTIONSELEMENTE
100
AcDbLine
 62
7
  6
CONTINUOUS
 10
478.9672073873
 20
137.1483008396
 11
489.5738091051
 21
147.7549025574
  0
LINE
  5
3AB
100
AcDbEntity
  8
KONSTRUKTIONSELEMENTE
100
AcDbLine
 62
7
  6
CONTINUOUS
 10
482.1491879026
 20
133.9663203243
 11
492.7557896204
 21
144.5729220421
  0
LINE
  5
3AC
100
AcDbEntity
  8
KONSTRUKTIONSELEMENTE
100
AcDbLine
 62
7
  6
CONTINUOUS
 10
519.2722939149
 20
170.735872946
 11
513.2618862748
 21
164.7254653059
  0
LINE
  5
3AD
100
AcDbEntity
  8
KONSTRUKTIONSELEMENTE
100
AcDbLine
 62
7
  6
CONTINUOUS
 10
461.9966446388
 20
113.4602236699
 11
455.9862369987
 21
107.4498160298
  0
LINE
  5
3AE
100
AcDbEntity
  8
RUNDUNGEN
100
AcDbLine
 62
7
  6
CONTINUOUS
 10
556.11727554
 20
163.3997088174
 11
557.4707787247
 21
165.5016196454
  0
LINE
  5
3AF
100
AcDbEntity
  8
0
100
AcDbLine
 62
7
  6
CONTINUOUS
 10
545.0648612441
 20
184.2184308566
 11
541.323625852
 21
181.5987896329
  0
ARC
  5
3B0
100
AcDbEntity
  8
KONSTRUKTIONSELEMENTE
100
AcDbCircle
 62
7
  6
CONTINUOUS
 10
212.5859633182
 20
205.0172751479
 40
31.6238284394
100
AcDbArc
 50
263.6832057483
 51
265.5015993497
  0
ARC
  5
3B1
100
AcDbEntity
  8
KONSTRUKTIONSELEMENTE
100
AcDbCircle
 62
7
  6
CONTINUOUS
 10
212.6307376918
 20
205.0017241053
 40
31.6082244038
100
AcDbArc
 50
274.496892177
 51
276.3197647754
  0
ARC
  5
3B2
100
AcDbEntity
  8
0
100
AcDbCircle
 62
7
  6
CONTINUOUS
 10
212.6076605422
 20
139.5819328199
 40
21.5
100
AcDbArc
 50
67.8893166331
 51
80.6310844215
  0
ARC
  5
3B3
100
AcDbEntity
  8
0
100
AcDbCircle
 62
7
  6
CONTINUOUS
 10
212.6076605422
 20
139.5819328199
 40
21.5
100
AcDbArc
 50
99.3689155785
 51
112.1106833669
  0
ARC
  5
3B4
100
AcDbEntity
  8
KONSTRUKTIONSELEMENTE
100
AcDbCircle
 62
7
  6
CONTINUOUS
 10
212.7688621137
 20
162.5825227087
 40
9.5025512476
100
AcDbArc
 50
71.7386063969
 51
75.7248539241
  0
ARC
  5
3B5
100
AcDbEntity
  8
KONSTRUKTIONSELEMENTE
100
AcDbCircle
 62
7
  6
CONTINUOUS
 10
212.4465006747
 20
162.5833465176
 40
9.5017799657
100
AcDbArc
 50
104.2709674534
 51
108.145396986
  0
ARC
  5
3B6
100
AcDbEntity
  8
BEZUGSACHSEN
100
AcDbCircle
 62
7
  6
CONTINUOUS
 10
212.6076605422
 20
191.7016196454
 40
8.0
100
AcDbArc
 50
144.3537330883
 51
35.6462669117
  0
ARC
  5
3B7
100
AcDbEntity
  8
0
100
AcDbCircle
 62
7
  6
CONTINUOUS
 10
212.6076605422
 20
260.1016196454
 40
6.5
100
AcDbArc
 50
0.0
 51
180.0
  0
ARC
  5
3B8
100
AcDbEntity
  8
0
100
AcDbCircle
 62
7
  6
CONTINUOUS
 10
212.6076605422
 20
193.1016196454
 40
6.5
100
AcDbArc
 50
180.0
 51
360.0
  0
ARC
  5
3B9
100
AcDbEntity
  8
RUNDUNGEN
100
AcDbCircle
 62
7
  6
CONTINUOUS
 10
192.4962136548
 20
171.2940911816
 40
5.16605851
100
AcDbArc
 50
0.5677272864
 51
34.4374225461
  0
ARC
  5
3BA
100
AcDbEntity
  8
0
100
AcDbCircle
 62
7
  6
CONTINUOUS
 10
192.5788358651
 20
171.4207497188
 40
5.028826263
100
AcDbArc
 50
0.0419694028
 51
16.3190499549
  0
ARC
  5
3BB
100
AcDbEntity
  8
0
100
AcDbCircle
 62
7
  6
CONTINUOUS
 10
192.6027032363
 20
171.4239250558
 40
5.0050295752
100
AcDbArc
 50
16.360936691
 51
33.6185418233
  0
ARC
  5
3BC
100
AcDbEntity
  8
KONSTRUKTIONSELEMENTE
100
AcDbCircle
 62
7
  6
CONTINUOUS
 10
212.6076605422
 20
175.7016196454
 40
3.5
100
AcDbArc
 50
0.0
 51
180.0
  0
ARC
  5
3BD
100
AcDbEntity
  8
KONSTRUKTIONSELEMENTE
100
AcDbCircle
 62
7
  6
CONTINUOUS
 10
206.4176829646
 20
76.9068729781
 40
2.804976166
100
AcDbArc
 50
67.9069648584
 51
68.6850824746
  0
ARC
  5
3BE
100
AcDbEntity
  8
KONSTRUKTIONSELEMENTE
100
AcDbCircle
 62
7
  6
CONTINUOUS
 10
212.6076605422
 20
125.0438546147
 40
2.5
100
AcDbArc
 50
0.0
 51
180.0
  0
ARC
  5
3BF
100
AcDbEntity
  8
KONSTRUKTIONSELEMENTE
100
AcDbCircle
 62
7
  6
CONTINUOUS
 10
212.6076605422
 20
107.5334469746
 40
2.5
100
AcDbArc
 50
180.0
 51
360.0
  0
ARC
  5
3C0
100
AcDbEntity
  8
KONSTRUKTIONSELEMENTE
100
AcDbCircle
 62
7
  6
CONTINUOUS
 10
212.6076605422
 20
182.3195038908
 40
2.5
100
AcDbArc
 50
40.3209775452
 51
139.6790224548
  0
ARC
  5
3C1
100
AcDbEntity
  8
KONSTRUKTIONSELEMENTE
100
AcDbCircle
 62
7
  6
CONTINUOUS
 10
212.6076605422
 20
164.8090962507
 40
2.5
100
AcDbArc
 50
189.3862569885
 51
350.6137430115
  0
ARC
  5
3C2
100
AcDbEntity
  8
KONSTRUKTIONSELEMENTE
100
AcDbCircle
 62
7
  6
CONTINUOUS
 10
212.6076605422
 20
133.8731745738
 40
2.25
100
AcDbArc
 50
180.0
 51
360.0
  0
ARC
  5
3C3
100
AcDbEntity
  8
KONSTRUKTIONSELEMENTE
100
AcDbCircle
 62
7
  6
CONTINUOUS
 10
212.6076605422
 20
155.9797762916
 40
2.25
100
AcDbArc
 50
0.0
 51
180.0
  0
ARC
  5
3C4
100
AcDbEntity
  8
0
100
AcDbCircle
 62
7
  6
CONTINUOUS
 10
199.6086181342
 20
164.7299086429
 40
2.0009575921
100
AcDbArc
 50
179.99958507
 51
220.0035913308
  0
ARC
  5
3C5
100
AcDbEntity
  8
0
100
AcDbCircle
 62
7
  6
CONTINUOUS
 10
202.3162231863
 20
161.5016208521
 40
2.0
100
AcDbArc
 50
220.0000451247
 51
270.0000290055
  0
ARC
  5
3C6
100
AcDbEntity
  8
KONSTRUKTIONSELEMENTE
100
AcDbCircle
 62
7
  6
CONTINUOUS
 10
208.6706173163
 20
77.8216022925
 40
1.2070433059
100
AcDbArc
 50
0.0208671421
 51
7.9801551546
  0
ARC
  5
3C7
100
AcDbEntity
  8
0
100
AcDbCircle
 62
7
  6
CONTINUOUS
 10
212.6076605422
 20
323.6016196454
 40
88.0
100
AcDbArc
 50
180.0
 51
265.7634026106
  0
ARC
  5
3C8
100
AcDbEntity
  8
0
100
AcDbCircle
 62
7
  6
CONTINUOUS
 10
212.6076605422
 20
323.6016196454
 40
88.0
100
AcDbArc
 50
274.2365973894
 51
360.0
  0
ARC
  5
3C9
100
AcDbEntity
  8
0
100
AcDbCircle
 62
7
  6
CONTINUOUS
 10
212.6076605422
 20
443.6016196454
 40
88.0
100
AcDbArc
 50
0.0
 51
180.0
  0
ARC
  5
3CA
100
AcDbEntity
  8
0
100
AcDbCircle
 62
7
  6
CONTINUOUS
 10
212.6076605422
 20
443.6016196454
 40
70.0
100
AcDbArc
 50
0.0
 51
180.0
  0
ARC
  5
3CB
100
AcDbEntity
  8
0
100
AcDbCircle
 62
7
  6
CONTINUOUS
 10
212.6076605422
 20
323.6016196454
 40
70.0
100
AcDbArc
 50
180.0
 51
264.6711890226
  0
ARC
  5
3CC
100
AcDbEntity
  8
0
100
AcDbCircle
 62
7
  6
CONTINUOUS
 10
212.6076605422
 20
323.6016196454
 40
70.0
100
AcDbArc
 50
275.3288109774
 51
360.0
  0
ARC
  5
3CD
100
AcDbEntity
  8
0
100
AcDbCircle
 62
7
  6
CONTINUOUS
 10
236.5826373402
 20
170.9531360275
 40
9.0068044369
100
AcDbArc
 50
177.1985984795
 51
177.492948371
  0
ARC
  5
3CE
100
AcDbEntity
  8
RUNDUNGEN
100
AcDbCircle
 62
7
  6
CONTINUOUS
 10
232.7190583649
 20
171.2941026404
 40
5.1660115643
100
AcDbArc
 50
145.5623745369
 51
178.8879274832
  0
ARC
  5
3CF
100
AcDbEntity
  8
RUNDUNGEN
100
AcDbCircle
 62
7
  6
CONTINUOUS
 10
232.7066811113
 20
171.2945182127
 40
5.1536285795
100
AcDbArc
 50
178.889876113
 51
179.4356511549
  0
ARC
  5
3D0
100
AcDbEntity
  8
0
100
AcDbCircle
 62
7
  6
CONTINUOUS
 10
232.6313633154
 20
171.4210671323
 40
5.023809703
100
AcDbArc
 50
163.3953851238
 51
177.940393421
  0
ARC
  5
3D1
100
AcDbEntity
  8
0
100
AcDbCircle
 62
7
  6
CONTINUOUS
 10
232.6125285517
 20
171.4239656517
 40
5.004932738
100
AcDbArc
 50
146.3812791962
 51
163.3655671415
  0
ARC
  5
3D2
100
AcDbEntity
  8
KONSTRUKTIONSELEMENTE
100
AcDbCircle
 62
7
  6
CONTINUOUS
 10
218.7976381199
 20
76.9068729778
 40
2.8049761663
100
AcDbArc
 50
111.3149175254
 51
112.0930351415
  0
ARC
  5
3D3
100
AcDbEntity
  8
0
100
AcDbCircle
 62
7
  6
CONTINUOUS
 10
225.6065060651
 20
164.7299864112
 40
2.0011584002
100
AcDbArc
 50
319.9983267928
 51
350.5556831093
  0
ARC
  5
3D4
100
AcDbEntity
  8
0
100
AcDbCircle
 62
7
  6
CONTINUOUS
 10
222.8990991466
 20
161.50162234
 40
2.0
100
AcDbArc
 50
269.9999352266
 51
319.9998992299
  0
CIRCLE
  5
3D5
100
AcDbEntity
  8
BEZUGSACHSEN
100
AcDbCircle
 62
7
  6
CONTINUOUS
 10
223.6076605422
 20
168.0016196454
 40
1.0
  0
ARC
  5
3D6
100
AcDbEntity
  8
KONSTRUKTIONSELEMENTE
100
AcDbCircle
 62
7
  6
CONTINUOUS
 10
400.4275204332
 20
169.5598622711
 40
156.2164976565
100
AcDbArc
 50
12.259428145
 51
12.3814667239
  0
ARC
  5
3D7
100
AcDbEntity
  8
KONSTRUKTIONSELEMENTE
100
AcDbCircle
 62
7
  6
CONTINUOUS
 10
404.1954778192
 20
169.0686641585
 40
152.3298786796
100
AcDbArc
 50
12.2038268713
 51
12.3288252542
  0
ARC
  5
3D8
100
AcDbEntity
  8
KONSTRUKTIONSELEMENTE
100
AcDbCircle
 62
7
  6
CONTINUOUS
 10
472.517288587
 20
136.1230538981
 40
102.5502297639
100
AcDbArc
 50
38.1763642059
 51
38.4944520674
  0
ARC
  5
3D9
100
AcDbEntity
  8
KONSTRUKTIONSELEMENTE
100
AcDbCircle
 62
7
  6
CONTINUOUS
 10
456.163013694
 20
119.2938546147
 40
8.25
100
AcDbArc
 50
60.8421444573
 51
135.0
  0
ARC
  5
3DA
100
AcDbEntity
  8
KONSTRUKTIONSELEMENTE
100
AcDbCircle
 62
7
  6
CONTINUOUS
 10
456.163013694
 20
119.2938546147
 40
8.25
100
AcDbArc
 50
315.0
 51
29.1578555427
  0
ARC
  5
3DB
100
AcDbEntity
  8
KONSTRUKTIONSELEMENTE
100
AcDbCircle
 62
7
  6
CONTINUOUS
 10
450.1526060539
 20
113.2834469746
 40
8.25
100
AcDbArc
 50
235.4985296401
 51
315.0
  0
ARC
  5
3DC
100
AcDbEntity
  8
KONSTRUKTIONSELEMENTE
100
AcDbCircle
 62
7
  6
CONTINUOUS
 10
450.1526060539
 20
113.2834469746
 40
8.25
100
AcDbArc
 50
135.0
 51
214.5014703599
  0
ARC
  5
3DD
100
AcDbEntity
  8
KONSTRUKTIONSELEMENTE
100
AcDbCircle
 62
7
  6
CONTINUOUS
 10
476.4923336531
 20
139.6231745738
 40
8.0
100
AcDbArc
 50
135.0
 51
208.6357041722
  0
ARC
  5
3DE
100
AcDbEntity
  8
KONSTRUKTIONSELEMENTE
100
AcDbCircle
 62
7
  6
CONTINUOUS
 10
476.4923336531
 20
139.6231745738
 40
8.0
100
AcDbArc
 50
241.3642958278
 51
315.0
  0
ARC
  5
3DF
100
AcDbEntity
  8
KONSTRUKTIONSELEMENTE
100
AcDbCircle
 62
7
  6
CONTINUOUS
 10
476.4923336531
 20
139.6231745738
 40
3.5
100
AcDbArc
 50
135.0
 51
184.8461224921
  0
ARC
  5
3E0
100
AcDbEntity
  8
KONSTRUKTIONSELEMENTE
100
AcDbCircle
 62
7
  6
CONTINUOUS
 10
476.4923336531
 20
139.6231745738
 40
3.5
100
AcDbArc
 50
265.1538775079
 51
315.0
  0
ARC
  5
3E1
100
AcDbEntity
  8
KONSTRUKTIONSELEMENTE
100
AcDbCircle
 62
7
  6
CONTINUOUS
 10
456.163013694
 20
119.2938546147
 40
3.25
100
AcDbArc
 50
88.8837571799
 51
135.0
  0
ARC
  5
3E2
100
AcDbEntity
  8
KONSTRUKTIONSELEMENTE
100
AcDbCircle
 62
7
  6
CONTINUOUS
 10
456.163013694
 20
119.2938546147
 40
3.25
100
AcDbArc
 50
315.0
 51
1.1162428201
  0
ARC
  5
3E3
100
AcDbEntity
  8
KONSTRUKTIONSELEMENTE
100
AcDbCircle
 62
7
  6
CONTINUOUS
 10
450.1526060539
 20
113.2834469746
 40
3.25
100
AcDbArc
 50
252.5077303474
 51
315.0
  0
ARC
  5
3E4
100
AcDbEntity
  8
KONSTRUKTIONSELEMENTE
100
AcDbCircle
 62
7
  6
CONTINUOUS
 10
450.1526060539
 20
113.2834469746
 40
3.25
100
AcDbArc
 50
135.0
 51
197.4922696526
  0
ARC
  5
3E5
100
AcDbEntity
  8
KONSTRUKTIONSELEMENTE
100
AcDbCircle
 62
7
  6
CONTINUOUS
 10
475.6084501766
 20
138.7392910973
 40
2.25
100
AcDbArc
 50
315.0
 51
135.0
  0
ARC
  5
3E6
100
AcDbEntity
  8
KONSTRUKTIONSELEMENTE
100
AcDbCircle
 62
7
  6
CONTINUOUS
 10
456.8701204752
 20
120.0009613959
 40
2.25
100
AcDbArc
 50
135.0
 51
315.0
  0
ARC
  5
3E7
100
AcDbEntity
  8
KONSTRUKTIONSELEMENTE
100
AcDbCircle
 62
7
  6
CONTINUOUS
 10
462.9898881814
 20
185.3846671986
 40
91.4192288492
100
AcDbArc
 50
10.0105248713
 51
10.136404498
  0
ARC
  5
3E8
100
AcDbEntity
  8
KONSTRUKTIONSELEMENTE
100
AcDbCircle
 62
7
  6
CONTINUOUS
 10
467.955337947
 20
187.0866851131
 40
86.5010285104
100
AcDbArc
 50
10.4683288086
 51
10.5967339199
  0
ARC
  5
3E9
100
AcDbEntity
  8
KONSTRUKTIONSELEMENTE
100
AcDbCircle
 62
7
  6
CONTINUOUS
 10
472.7236266095
 20
188.2862398874
 40
80.9138196917
100
AcDbArc
 50
8.5218904146
 51
8.6934694245
  0
ARC
  5
3EA
100
AcDbEntity
  8
KONSTRUKTIONSELEMENTE
100
AcDbCircle
 62
7
  6
CONTINUOUS
 10
487.9066986863
 20
148.0353264075
 40
83.2648997292
100
AcDbArc
 50
38.4371065315
 51
38.8593654083
  0
ARC
  5
3EB
100
AcDbEntity
  8
KONSTRUKTIONSELEMENTE
100
AcDbCircle
 62
7
  6
CONTINUOUS
 10
487.0989353709
 20
150.2297762916
 40
8.0
100
AcDbArc
 50
315.0
 51
28.6357041722
  0
ARC
  5
3EC
100
AcDbEntity
  8
KONSTRUKTIONSELEMENTE
100
AcDbCircle
 62
7
  6
CONTINUOUS
 10
487.0989353709
 20
150.2297762916
 40
8.0
100
AcDbArc
 50
61.3642958278
 51
135.0
  0
ARC
  5
3ED
100
AcDbEntity
  8
KONSTRUKTIONSELEMENTE
100
AcDbCircle
 62
7
  6
CONTINUOUS
 10
487.0989353709
 20
150.2297762916
 40
3.5
100
AcDbArc
 50
315.0
 51
4.8461224921
  0
ARC
  5
3EE
100
AcDbEntity
  8
KONSTRUKTIONSELEMENTE
100
AcDbCircle
 62
7
  6
CONTINUOUS
 10
487.0989353709
 20
150.2297762916
 40
3.5
100
AcDbArc
 50
85.1538775079
 51
135.0
  0
ARC
  5
3EF
100
AcDbEntity
  8
KONSTRUKTIONSELEMENTE
100
AcDbCircle
 62
7
  6
CONTINUOUS
 10
487.9828188474
 20
151.1136597681
 40
2.25
100
AcDbArc
 50
135.0
 51
315.0
  0
ARC
  5
3F0
100
AcDbEntity
  8
KONSTRUKTIONSELEMENTE
100
AcDbCircle
 62
7
  6
CONTINUOUS
 10
485.2692131328
 20
190.7362694295
 40
68.6483139513
100
AcDbArc
 50
8.784467693
 51
8.9153937283
  0
ARC
  5
3F1
100
AcDbEntity
  8
KONSTRUKTIONSELEMENTE
100
AcDbCircle
 62
7
  6
CONTINUOUS
 10
485.5083939595
 20
190.7488592941
 40
68.3886793221
100
AcDbArc
 50
8.6518340426
 51
8.8494546441
  0
ARC
  5
3F2
100
AcDbEntity
  8
KONSTRUKTIONSELEMENTE
100
AcDbCircle
 62
7
  6
CONTINUOUS
 10
490.1311274448
 20
193.3345655459
 40
62.9287720571
100
AcDbArc
 50
6.3176101955
 51
6.4652692258
  0
ARC
  5
3F3
100
AcDbEntity
  8
KONSTRUKTIONSELEMENTE
100
AcDbCircle
 62
7
  6
CONTINUOUS
 10
492.7493521278
 20
192.6001980858
 40
61.1769249627
100
AcDbArc
 50
9.3240763522
 51
9.531652952
  0
ARC
  5
3F4
100
AcDbEntity
  8
KONSTRUKTIONSELEMENTE
100
AcDbCircle
 62
7
  6
CONTINUOUS
 10
507.42825533
 20
170.5590962507
 40
8.25
100
AcDbArc
 50
240.8421444573
 51
315.0
  0
ARC
  5
3F5
100
AcDbEntity
  8
KONSTRUKTIONSELEMENTE
100
AcDbCircle
 62
7
  6
CONTINUOUS
 10
507.42825533
 20
170.5590962507
 40
8.25
100
AcDbArc
 50
135.0
 51
209.1578555427
  0
ARC
  5
3F6
100
AcDbEntity
  8
KONSTRUKTIONSELEMENTE
100
AcDbCircle
 62
7
  6
CONTINUOUS
 10
507.42825533
 20
170.5590962507
 40
3.25
100
AcDbArc
 50
268.8837571799
 51
315.0
  0
ARC
  5
3F7
100
AcDbEntity
  8
KONSTRUKTIONSELEMENTE
100
AcDbCircle
 62
7
  6
CONTINUOUS
 10
507.42825533
 20
170.5590962507
 40
3.25
100
AcDbArc
 50
135.0
 51
181.1162428201
  0
ARC
  5
3F8
100
AcDbEntity
  8
KONSTRUKTIONSELEMENTE
100
AcDbCircle
 62
7
  6
CONTINUOUS
 10
506.7211485488
 20
169.8519894695
 40
2.25
100
AcDbArc
 50
315.0
 51
135.0
  0
ARC
  5
3F9
100
AcDbEntity
  8
KONSTRUKTIONSELEMENTE
100
AcDbCircle
 62
7
  6
CONTINUOUS
 10
513.4386629701
 20
176.5695038908
 40
8.25
100
AcDbArc
 50
66.346698243
 51
135.0
  0
ARC
  5
3FA
100
AcDbEntity
  8
KONSTRUKTIONSELEMENTE
100
AcDbCircle
 62
7
  6
CONTINUOUS
 10
513.4386629701
 20
176.5695038908
 40
8.25
100
AcDbArc
 50
315.0
 51
23.653301757
  0
ARC
  5
3FB
100
AcDbEntity
  8
KONSTRUKTIONSELEMENTE
100
AcDbCircle
 62
7
  6
CONTINUOUS
 10
513.4386629701
 20
176.5695038908
 40
3.25
100
AcDbArc
 50
112.8065550031
 51
135.0
  0
ARC
  5
3FC
100
AcDbEntity
  8
KONSTRUKTIONSELEMENTE
100
AcDbCircle
 62
7
  6
CONTINUOUS
 10
513.4386629701
 20
176.5695038908
 40
3.25
100
AcDbArc
 50
315.0
 51
337.1934449969
  0
ARC
  5
3FD
100
AcDbEntity
  8
KONSTRUKTIONSELEMENTE
100
AcDbCircle
 62
7
  6
CONTINUOUS
 10
513.2618862748
 20
176.3927271955
 40
3.0
100
AcDbArc
 50
135.0
 51
315.0
  0
ARC
  5
3FE
100
AcDbEntity
  8
KONSTRUKTIONSELEMENTE
100
AcDbCircle
 62
7
  6
CONTINUOUS
 10
510.6494541938
 20
197.150041389
 40
42.5683078348
100
AcDbArc
 50
5.3088587916
 51
5.5621428968
  0
ARC
  5
3FF
100
AcDbEntity
  8
KONSTRUKTIONSELEMENTE
100
AcDbCircle
 62
7
  6
CONTINUOUS
 10
513.373109922
 20
200.7517183086
 40
38.9658196808
100
AcDbArc
 50
358.8436039927
 51
0.3039651981
  0
ARC
  5
400
100
AcDbEntity
  8
KONSTRUKTIONSELEMENTE
100
AcDbCircle
 62
7
  6
CONTINUOUS
 10
512.545274861
 20
200.7517183086
 40
38.9658196814
100
AcDbArc
 50
358.8436039927
 51
0.3039651981
  0
ARC
  5
401
100
AcDbEntity
  8
KONSTRUKTIONSELEMENTE
100
AcDbCircle
 62
7
  6
CONTINUOUS
 10
514.291141372
 20
200.5664203389
 40
38.1327083232
100
AcDbArc
 50
359.1916679396
 51
0.3730104824
  0
ARC
  5
402
100
AcDbEntity
  8
KONSTRUKTIONSELEMENTE
100
AcDbCircle
 62
7
  6
CONTINUOUS
 10
516.031013836
 20
197.8931727395
 40
37.2208141307
100
AcDbArc
 50
4.5005468165
 51
4.8445268978
  0
ARC
  5
403
100
AcDbEntity
  8
KONSTRUKTIONSELEMENTE
100
AcDbCircle
 62
7
  6
CONTINUOUS
 10
516.3923706423
 20
197.9805382957
 40
36.8650852265
100
AcDbArc
 50
4.6936571371
 51
4.9236656564
  0
ARC
  5
404
100
AcDbEntity
  8
KONSTRUKTIONSELEMENTE
100
AcDbCircle
 62
7
  6
CONTINUOUS
 10
516.9312072668
 20
200.0109867767
 40
35.7473991883
100
AcDbArc
 50
359.1377209566
 51
0.3978950262
  0
ARC
  5
405
100
AcDbEntity
  8
KONSTRUKTIONSELEMENTE
100
AcDbCircle
 62
7
  6
CONTINUOUS
 10
517.9858465114
 20
199.7888430335
 40
34.7946629148
100
AcDbArc
 50
359.1140573227
 51
0.2724584898
  0
ARC
  5
406
100
AcDbEntity
  8
KONSTRUKTIONSELEMENTE
100
AcDbCircle
 62
7
  6
CONTINUOUS
 10
519.6984954715
 20
199.0449671992
 40
33.5293986604
100
AcDbArc
 50
6.151323152
 51
6.4357253785
  0
ARC
  5
407
100
AcDbEntity
  8
KONSTRUKTIONSELEMENTE
100
AcDbCircle
 62
7
  6
CONTINUOUS
 10
542.1844567558
 20
173.0623519413
 40
29.9192949488
100
AcDbArc
 50
69.8964954689
 51
70.0305148303
  0
ARC
  5
408
100
AcDbEntity
  8
KONSTRUKTIONSELEMENTE
100
AcDbCircle
 62
7
  6
CONTINUOUS
 10
534.6504155111
 20
193.3594497592
 40
21.1666519108
100
AcDbArc
 50
32.7556068804
 51
33.0801543923
  0
ARC
  5
409
100
AcDbEntity
  8
KONSTRUKTIONSELEMENTE
100
AcDbCircle
 62
7
  6
CONTINUOUS
 10
543.9881232698
 20
185.1657115647
 40
17.8210301659
100
AcDbArc
 50
59.3132804113
 51
59.5768839793
  0
ARC
  5
40A
100
AcDbEntity
  8
0
100
AcDbCircle
 62
7
  6
CONTINUOUS
 10
548.9707787247
 20
168.0016196454
 40
8.5
100
AcDbArc
 50
212.7790806681
 51
327.2209193319
  0
CIRCLE
  5
40B
100
AcDbEntity
  8
0
100
AcDbCircle
 62
7
  6
CONTINUOUS
 10
548.9707787247
 20
168.0016196454
 40
2.5
  0
ARC
  5
40C
100
AcDbEntity
  8
RUNDUNGEN
100
AcDbCircle
 62
7
  6
CONTINUOUS
 10
554.7207787247
 20
185.368739553
 40
2.0
100
AcDbArc
 50
180.0
 51
235.0
  0
ARC
  5
40D
100
AcDbEntity
  8
RUNDUNGEN
100
AcDbCircle
 62
7
  6
CONTINUOUS
 10
555.4707787247
 20
179.9604855443
 40
2.0
100
AcDbArc
 50
0.0
 51
55.0
  0
ARC
  5
40E
100
AcDbEntity
  8
0
100
AcDbCircle
 62
7
  6
CONTINUOUS
 10
543.2207787247
 20
185.368739553
 40
2.0
100
AcDbArc
 50
305.0
 51
360.0
  0
ARC
  5
40F
100
AcDbEntity
  8
0
100
AcDbCircle
 62
7
  6
CONTINUOUS
 10
542.4707787247
 20
179.9604855443
 40
2.0
100
AcDbArc
 50
125.0
 51
180.0
  0
ARC
  5
410
100
AcDbEntity
  8
KONSTRUKTIONSELEMENTE
100
AcDbCircle
 62
7
  6
CONTINUOUS
 10
521.4997436185
 20
199.0142220205
 40
31.6374496344
100
AcDbArc
 50
358.5704862911
 51
359.0202205651
  0
ARC
  5
411
100
AcDbEntity
  8
KONSTRUKTIONSELEMENTE
100
AcDbCircle
 62
7
  6
CONTINUOUS
 10
521.5121754306
 20
199.0083966123
 40
31.6250147953
100
AcDbArc
 50
0.9046851148
 51
1.4295749236
  0
ARC
  5
412
100
AcDbEntity
  8
KONSTRUKTIONSELEMENTE
100
AcDbCircle
 62
7
  6
CONTINUOUS
 10
522.9526312944
 20
202.8943474868
 40
28.5584749964
100
AcDbArc
 50
0.8547861589
 51
1.2807809576
  0
ARC
  5
413
100
AcDbEntity
  8
KONSTRUKTIONSELEMENTE
100
AcDbCircle
 62
7
  6
CONTINUOUS
 10
523.7804663548
 20
202.8943474868
 40
28.5584749964
100
AcDbArc
 50
0.8547861589
 51
1.2807809576
  0
ARC
  5
414
100
AcDbEntity
  8
KONSTRUKTIONSELEMENTE
100
AcDbCircle
 62
7
  6
CONTINUOUS
 10
522.9526313161
 20
202.8972530524
 40
28.5584749747
100
AcDbArc
 50
358.7192190423
 51
359.1452140444
  0
ARC
  5
415
100
AcDbEntity
  8
KONSTRUKTIONSELEMENTE
100
AcDbCircle
 62
7
  6
CONTINUOUS
 10
523.7804663765
 20
202.8972530524
 40
28.5584749747
100
AcDbArc
 50
358.7192190423
 51
359.1452140444
  0
ARC
  5
416
100
AcDbEntity
  8
KONSTRUKTIONSELEMENTE
100
AcDbCircle
 62
7
  6
CONTINUOUS
 10
524.9253333736
 20
199.6832269092
 40
28.3342165138
100
AcDbArc
 50
5.3366252571
 51
5.729705679
  0
ARC
  5
417
100
AcDbEntity
  8
KONSTRUKTIONSELEMENTE
100
AcDbCircle
 62
7
  6
CONTINUOUS
 10
526.2635578509
 20
203.3963789949
 40
26.1885465272
100
AcDbArc
 50
354.6584954321
 51
355.031647816
  0
ARC
  5
418
100
AcDbEntity
  8
KONSTRUKTIONSELEMENTE
100
AcDbCircle
 62
7
  6
CONTINUOUS
 10
525.4357227995
 20
203.3963789941
 40
26.1885465183
100
AcDbArc
 50
354.658495432
 51
355.0316478161
  0
ARC
  5
419
100
AcDbEntity
  8
KONSTRUKTIONSELEMENTE
100
AcDbCircle
 62
7
  6
CONTINUOUS
 10
529.3653228951
 20
201.0178894442
 40
23.6699440893
100
AcDbArc
 50
359.8287046537
 51
0.1712951012
  0
ARC
  5
41A
100
AcDbEntity
  8
KONSTRUKTIONSELEMENTE
100
AcDbCircle
 62
7
  6
CONTINUOUS
 10
530.1654011899
 20
200.7430732266
 40
22.9717685532
100
AcDbArc
 50
359.8234984985
 51
0.176501249
  0
ARC
  5
41B
100
AcDbEntity
  8
KONSTRUKTIONSELEMENTE
100
AcDbCircle
 62
7
  6
CONTINUOUS
 10
530.6792885075
 20
200.8378172803
 40
22.4578812361
100
AcDbArc
 50
359.8849633927
 51
0.1785064091
  0
ARC
  5
41C
100
AcDbEntity
  8
KONSTRUKTIONSELEMENTE
100
AcDbCircle
 62
7
  6
CONTINUOUS
 10
533.4607343779
 20
204.3350784525
 40
19.2863255555
100
AcDbArc
 50
349.4826195343
 51
349.7457156906
  0
ARC
  5
41D
100
AcDbEntity
  8
KONSTRUKTIONSELEMENTE
100
AcDbCircle
 62
7
  6
CONTINUOUS
 10
533.5921479561
 20
204.707616003
 40
17.9189463716
100
AcDbArc
 50
358.2050338446
 51
0.3581432381
  0
ARC
  5
41E
100
AcDbEntity
  8
KONSTRUKTIONSELEMENTE
100
AcDbCircle
 62
7
  6
CONTINUOUS
 10
534.4199830165
 20
204.707616003
 40
17.9189463716
100
AcDbArc
 50
358.2050338446
 51
0.3581432381
  0
ARC
  5
41F
100
AcDbEntity
  8
KONSTRUKTIONSELEMENTE
100
AcDbCircle
 62
7
  6
CONTINUOUS
 10
534.9819849963
 20
204.3881734902
 40
17.4588484751
100
AcDbArc
 50
358.7108070785
 51
0.3680787577
  0
ARC
  5
420
100
AcDbEntity
  8
0
100
AcDbCircle
 62
7
  6
CONTINUOUS
 10
548.9707787247
 20
212.1016196454
 40
25.5
100
AcDbArc
 50
278.4629086832
 51
360.0
  0
ARC
  5
421
100
AcDbEntity
  8
0
100
AcDbCircle
 62
7
  6
CONTINUOUS
 10
548.9707787247
 20
212.1016196454
 40
25.5
100
AcDbArc
 50
231.7626579772
 51
261.5370913168
  0
ARC
  5
422
100
AcDbEntity
  8
0
100
AcDbCircle
 62
7
  6
CONTINUOUS
 10
548.9707787247
 20
212.1016196454
 40
25.5
100
AcDbArc
 50
180.0
 51
218.2373420228
  0
ARC
  5
423
100
AcDbEntity
  8
KONSTRUKTIONSELEMENTE
100
AcDbCircle
 62
7
  6
CONTINUOUS
 10
538.1333512811
 20
202.5256628764
 40
14.9019145135
100
AcDbArc
 50
358.489474937
 51
0.4311569819
  0
ARC
  5
424
100
AcDbEntity
  8
KONSTRUKTIONSELEMENTE
100
AcDbCircle
 62
7
  6
CONTINUOUS
 10
538.6466661398
 20
202.2066123195
 40
14.490499675
100
AcDbArc
 50
357.7797192916
 51
0.4424476396
  0
ARC
  5
425
100
AcDbEntity
  8
KONSTRUKTIONSELEMENTE
100
AcDbCircle
 62
7
  6
CONTINUOUS
 10
539.1397876712
 20
202.2924958057
 40
13.9974121624
100
AcDbArc
 50
1.5867079164
 51
2.1499315732
  0
ARC
  5
426
100
AcDbEntity
  8
KONSTRUKTIONSELEMENTE
100
AcDbCircle
 62
7
  6
CONTINUOUS
 10
540.1109892022
 20
202.4140055682
 40
13.141995665
100
AcDbArc
 50
351.8071418171
 51
352.3842332691
  0
ARC
  5
427
100
AcDbEntity
  8
KONSTRUKTIONSELEMENTE
100
AcDbCircle
 62
7
  6
CONTINUOUS
 10
540.4801392879
 20
202.4635744617
 40
12.7861377235
100
AcDbArc
 50
351.4364230863
 51
351.7277982363
  0
ARC
  5
428
100
AcDbEntity
  8
0
100
AcDbCircle
 62
7
  6
CONTINUOUS
 10
548.9707787247
 20
212.1016196454
 40
12.5
100
AcDbArc
 50
287.8319780927
 51
360.0
  0
ARC
  5
429
100
AcDbEntity
  8
0
100
AcDbCircle
 62
7
  6
CONTINUOUS
 10
548.9707787247
 20
212.1016196454
 40
12.5
100
AcDbArc
 50
238.895218185
 51
252.5351051265
  0
ARC
  5
42A
100
AcDbEntity
  8
0
100
AcDbCircle
 62
7
  6
CONTINUOUS
 10
548.9707787247
 20
212.1016196454
 40
12.5
100
AcDbArc
 50
180.0
 51
211.104781815
  0
ARC
  5
42B
100
AcDbEntity
  8
KONSTRUKTIONSELEMENTE
100
AcDbCircle
 62
7
  6
CONTINUOUS
 10
541.6797502356
 20
203.0120808224
 40
11.5416378275
100
AcDbArc
 50
349.2101245803
 51
349.6935106531
  0
ARC
  5
42C
100
AcDbEntity
  8
KONSTRUKTIONSELEMENTE
100
AcDbCircle
 62
7
  6
CONTINUOUS
 10
545.3842941173
 20
207.4229001786
 40
9.3911977916
100
AcDbArc
 50
317.9124671612
 51
318.3583838837
  0
ARC
  5
42D
100
AcDbEntity
  8
KONSTRUKTIONSELEMENTE
100
AcDbCircle
 62
7
  6
CONTINUOUS
 10
544.5564590604
 20
207.4229001754
 40
9.3911977869
100
AcDbArc
 50
317.9124671611
 51
318.3583838838
  0
ARC
  5
42E
100
AcDbEntity
  8
KONSTRUKTIONSELEMENTE
100
AcDbCircle
 62
7
  6
CONTINUOUS
 10
549.7744358147
 20
208.6358166494
 40
8.4328874673
100
AcDbArc
 50
292.3577198066
 51
292.6160510761
  0
ARC
  5
42F
100
AcDbEntity
  8
KONSTRUKTIONSELEMENTE
100
AcDbCircle
 62
7
  6
CONTINUOUS
 10
550.1166507455
 20
212.7965550358
 40
8.0148175501
100
AcDbArc
 50
280.1298262809
 51
280.3622432834
  0
ARC
  5
430
100
AcDbEntity
  8
KONSTRUKTIONSELEMENTE
100
AcDbCircle
 62
7
  6
CONTINUOUS
 10
550.9444858059
 20
212.7965550358
 40
8.0148175501
100
AcDbArc
 50
280.1298262809
 51
280.3622432834
  0
ARC
  5
431
100
AcDbEntity
  8
KONSTRUKTIONSELEMENTE
100
AcDbCircle
 62
7
  6
CONTINUOUS
 10
544.4974671067
 20
206.1170074196
 40
7.1322691846
100
AcDbArc
 50
349.5193466226
 51
350.2297296899
  0
ARC
  5
432
100
AcDbEntity
  8
KONSTRUKTIONSELEMENTE
100
AcDbCircle
 62
7
  6
CONTINUOUS
 10
545.3253021671
 20
206.1170074196
 40
7.1322691846
100
AcDbArc
 50
349.5193466226
 51
350.2297296899
  0
ARC
  5
433
100
AcDbEntity
  8
KONSTRUKTIONSELEMENTE
100
AcDbCircle
 62
7
  6
CONTINUOUS
 10
548.8341256118
 20
199.2131351472
 40
6.4577424805
100
AcDbArc
 50
55.5882961088
 51
55.8809231433
  0
ARC
  5
434
100
AcDbEntity
  8
KONSTRUKTIONSELEMENTE
100
AcDbCircle
 62
7
  6
CONTINUOUS
 10
548.5087879287
 20
203.8170317463
 40
5.6554247397
100
AcDbArc
 50
323.9801717962
 51
324.6030755896
  0
ARC
  5
435
100
AcDbEntity
  8
KONSTRUKTIONSELEMENTE
100
AcDbCircle
 62
7
  6
CONTINUOUS
 10
548.698557504
 20
203.894525668
 40
5.5618053591
100
AcDbArc
 50
322.1943110745
 51
322.6044283866
  0
ARC
  5
436
100
AcDbEntity
  8
KONSTRUKTIONSELEMENTE
100
AcDbCircle
 62
7
  6
CONTINUOUS
 10
547.3498874133
 20
205.9034430055
 40
5.2804152594
100
AcDbArc
 50
344.5902664925
 51
345.253262971
  0
ARC
  5
437
100
AcDbEntity
  8
KONSTRUKTIONSELEMENTE
100
AcDbCircle
 62
7
  6
CONTINUOUS
 10
542.2532643035
 20
205.3841052241
 40
3.0
100
AcDbArc
 50
315.0
 51
135.0
  0
ARC
  5
438
100
AcDbEntity
  8
0
100
AcDbCircle
 62
7
  6
CONTINUOUS
 10
547.7207787247
 20
202.4283872437
 40
2.5
100
AcDbArc
 50
165.1
 51
180.0
  0
ARC
  5
439
100
AcDbEntity
  8
0
100
AcDbCircle
 62
7
  6
CONTINUOUS
 10
548.9707787247
 20
241.1016196454
 40
25.5
100
AcDbArc
 50
110.6774992617
 51
180.0
  0
ARC
  5
43A
100
AcDbEntity
  8
0
100
AcDbCircle
 62
7
  6
CONTINUOUS
 10
548.9707787247
 20
241.1016196454
 40
25.5
100
AcDbArc
 50
0.0
 51
69.3225007383
  0
ARC
  5
43B
100
AcDbEntity
  8
0
100
AcDbCircle
 62
7
  6
CONTINUOUS
 10
548.9707787247
 20
241.1016196454
 40
12.5
100
AcDbArc
 50
136.093801348
 51
180.0
  0
ARC
  5
43C
100
AcDbEntity
  8
0
100
AcDbCircle
 62
7
  6
CONTINUOUS
 10
548.9707787247
 20
241.1016196454
 40
12.5
100
AcDbArc
 50
0.0
 51
43.906198652
  0
ARC
  5
43D
100
AcDbEntity
  8
0
100
AcDbCircle
 62
7
  6
CONTINUOUS
 10
548.9707787247
 20
244.6016196454
 40
9.0
100
AcDbArc
 50
180.0
 51
360.0
  0
ARC
  5
43E
100
AcDbEntity
  8
0
100
AcDbCircle
 62
7
  6
CONTINUOUS
 10
548.9707787247
 20
522.6016196454
 40
9.0
100
AcDbArc
 50
0.0
 51
180.0
  0
SPLINE
  5
43F
100
AcDbEntity
  8
KONSTRUKTIONSELEMENTE
100
AcDbSpline
 62
7
  6
CONTINUOUS
 70
0
 71
3
 72
13
 73
9
 74
0
 42
0.0000001
 43
0.0000001
 44
0.0000000001
 40
0.0
 40
0.0
 40
0.0
 40
0.0
 40
0.1194785188
 40
0.2392741704
 40
0.3602835725
 40
0.4830059608
 40
0.7355440041
 40
1.0
 40
1.0
 40
1.0
 40
1.0
 10
204.6076605422
 20
134.6734271055
 30
0.0
 10
204.6076605422
 20
135.0320667167
 30
0.0
 10
204.6837560254
 20
135.7525733457
 30
0.0
 10
205.019332253
 20
136.7880691014
 30
0.0
 10
205.5553167182
 20
137.7463887806
 30
0.0
 10
206.513012284
 20
138.8967685415
 30
0.0
 10
208.0993309267
 20
140.0361110608
 30
0.0
 10
209.5793843691
 20
140.5636370811
 30
0.0
 10
210.3535482217
 20
140.7391932262
 30
0.0
  0
SPLINE
  5
440
100
AcDbEntity
  8
KONSTRUKTIONSELEMENTE
100
AcDbSpline
 62
7
  6
CONTINUOUS
 70
0
 71
3
 72
13
 73
9
 74
0
 42
0.0000001
 43
0.0000001
 44
0.0000000001
 40
0.0
 40
0.0
 40
0.0
 40
0.0
 40
0.2644681654
 40
0.5169944072
 40
0.6397129492
 40
0.760706397
 40
0.8805228501
 40
1.0
 40
1.0
 40
1.0
 40
1.0
 10
214.859831321
 20
140.7396244385
 30
0.0
 10
215.6342286475
 20
140.5641443342
 30
0.0
 10
217.1147194951
 20
140.0368236056
 30
0.0
 10
218.7015699022
 20
138.8974711421
 30
0.0
 10
219.6595418615
 20
137.7470285933
 30
0.0
 10
220.1958586192
 20
136.7886068068
 30
0.0
 10
220.5314729558
 20
135.7528533943
 30
0.0
 10
220.6076605422
 20
135.0321413758
 30
0.0
 10
220.6076605422
 20
134.6734271055
 30
0.0
  0
SPLINE
  5
441
100
AcDbEntity
  8
KONSTRUKTIONSELEMENTE
100
AcDbSpline
 62
7
  6
CONTINUOUS
 70
0
 71
3
 72
10
 73
6
 74
0
 42
0.0000001
 43
0.0000001
 44
0.0000000001
 40
0.0
 40
0.0
 40
0.0
 40
0.0
 40
0.3116645009
 40
0.6060899939
 40
1.0
 40
1.0
 40
1.0
 40
1.0
 10
209.1076605422
 20
134.6734271055
 30
0.0
 10
209.1076605422
 20
134.8705819519
 30
0.0
 10
209.2951890987
 20
135.2419081466
 30
0.0
 10
209.7525083684
 20
135.6757812364
 30
0.0
 10
210.1309096806
 20
135.9031912698
 30
0.0
 10
210.3556686539
 20
136.0107794008
 30
0.0
  0
SPLINE
  5
442
100
AcDbEntity
  8
KONSTRUKTIONSELEMENTE
100
AcDbSpline
 62
7
  6
CONTINUOUS
 70
0
 71
3
 72
10
 73
6
 74
0
 42
0.0000001
 43
0.0000001
 44
0.0000000001
 40
0.0
 40
0.0
 40
0.0
 40
0.0
 40
0.3939255147
 40
0.6883533687
 40
1.0
 40
1.0
 40
1.0
 40
1.0
 10
214.8594097777
 20
136.0108913289
 30
0.0
 10
215.0842176837
 20
135.9033014282
 30
0.0
 10
215.4626802053
 20
135.67585586
 30
0.0
 10
215.920121723
 20
135.2419781166
 30
0.0
 10
216.1076605422
 20
134.8705984094
 30
0.0
 10
216.1076605422
 20
134.6734271055
 30
0.0
  0
SPLINE
  5
443
100
AcDbEntity
  8
KONSTRUKTIONSELEMENTE
100
AcDbSpline
 62
7
  6
CONTINUOUS
 70
0
 71
3
 72
10
 73
6
 74
0
 42
0.0000001
 43
0.0000001
 44
0.0000000001
 40
0.0
 40
0.0
 40
0.0
 40
0.0
 40
0.3192646009
 40
0.6086079864
 40
1.0
 40
1.0
 40
1.0
 40
1.0
 10
216.1076605422
 20
124.0668253877
 30
0.0
 10
216.1076605422
 20
123.8950856125
 30
0.0
 10
215.9656447556
 20
123.5742343976
 30
0.0
 10
215.599838741
 20
123.1808820582
 30
0.0
 10
215.2965509082
 20
122.9678421449
 30
0.0
 10
215.1140146072
 20
122.8629275484
 30
0.0
  0
SPLINE
  5
444
100
AcDbEntity
  8
KONSTRUKTIONSELEMENTE
100
AcDbSpline
 62
7
  6
CONTINUOUS
 70
0
 71
3
 72
10
 73
6
 74
0
 42
0.0000001
 43
0.0000001
 44
0.0000000001
 40
0.0
 40
0.0
 40
0.0
 40
0.0
 40
0.3914026107
 40
0.6807340322
 40
1.0
 40
1.0
 40
1.0
 40
1.0
 10
210.1012149411
 20
122.8629800196
 30
0.0
 10
209.9186876977
 20
122.9678954291
 30
0.0
 10
209.6154481169
 20
123.1809545005
 30
0.0
 10
209.2496274123
 20
123.5742528612
 30
0.0
 10
209.1076605422
 20
123.8950956021
 30
0.0
 10
209.1076605422
 20
124.0668253877
 30
0.0
  0
SPLINE
  5
445
100
AcDbEntity
  8
KONSTRUKTIONSELEMENTE
100
AcDbSpline
 62
7
  6
CONTINUOUS
 70
0
 71
3
 72
13
 73
9
 74
0
 42
0.0000001
 43
0.0000001
 44
0.0000000001
 40
0.0
 40
0.0
 40
0.0
 40
0.0
 40
0.1197290731
 40
0.2397365246
 40
0.3609040964
 40
0.4836831257
 40
0.7359942557
 40
1.0
 40
1.0
 40
1.0
 40
1.0
 10
220.6076605422
 20
124.0668253877
 30
0.0
 10
220.6076605422
 20
123.7176116856
 30
0.0
 10
220.5355569204
 20
123.0162706496
 30
0.0
 10
220.2172715856
 20
122.0060524014
 30
0.0
 10
219.707888044
 20
121.0674741828
 30
0.0
 10
218.7960875154
 20
119.9346996761
 30
0.0
 10
217.2801962498
 20
118.79755626
 30
0.0
 10
215.8573093998
 20
118.2510105361
 30
0.0
 10
215.1110848781
 20
118.0610420455
 30
0.0
  0
SPLINE
  5
446
100
AcDbEntity
  8
KONSTRUKTIONSELEMENTE
100
AcDbSpline
 62
7
  6
CONTINUOUS
 70
0
 71
3
 72
13
 73
9
 74
0
 42
0.0000001
 43
0.0000001
 44
0.0000000001
 40
0.0
 40
0.0
 40
0.0
 40
0.0
 40
0.2640112835
 40
0.5163080567
 40
0.6390830379
 40
0.7602378991
 40
0.8802701562
 40
1.0
 40
1.0
 40
1.0
 40
1.0
 10
210.1033327397
 20
118.061289235
 30
0.0
 10
209.3571929174
 20
118.2513238363
 30
0.0
 10
207.934516476
 20
118.7978904675
 30
0.0
 10
206.4189264089
 20
119.9350358084
 30
0.0
 10
205.5073361315
 20
121.0676513171
 30
0.0
 10
204.9979452156
 20
122.0061286036
 30
0.0
 10
204.6798084966
 20
123.0163167068
 30
0.0
 10
204.6076605422
 20
123.7176465903
 30
0.0
 10
204.6076605422
 20
124.0668253877
 30
0.0
  0
SPLINE
  5
447
100
AcDbEntity
  8
KONSTRUKTIONSELEMENTE
100
AcDbSpline
 62
7
  6
CONTINUOUS
 70
0
 71
3
 72
10
 73
6
 74
0
 42
0.0000001
 43
0.0000001
 44
0.0000000001
 40
0.0
 40
0.0
 40
0.0
 40
0.0
 40
0.3116645009
 40
0.6060899939
 40
1.0
 40
1.0
 40
1.0
 40
1.0
 10
216.1076605422
 20
155.1795237599
 30
0.0
 10
216.1076605422
 20
154.9823689135
 30
0.0
 10
215.9201319857
 20
154.6110427188
 30
0.0
 10
215.462812716
 20
154.177169629
 30
0.0
 10
215.0844114038
 20
153.9497595956
 30
0.0
 10
214.8596524305
 20
153.8421714646
 30
0.0
  0
SPLINE
  5
448
100
AcDbEntity
  8
KONSTRUKTIONSELEMENTE
100
AcDbSpline
 62
7
  6
CONTINUOUS
 70
0
 71
3
 72
10
 73
6
 74
0
 42
0.0000001
 43
0.0000001
 44
0.0000000001
 40
0.0
 40
0.0
 40
0.0
 40
0.0
 40
0.3939255147
 40
0.6883533687
 40
1.0
 40
1.0
 40
1.0
 40
1.0
 10
210.3559113067
 20
153.8420595365
 30
0.0
 10
210.1311034007
 20
153.9496494372
 30
0.0
 10
209.7526408791
 20
154.1770950054
 30
0.0
 10
209.2951993614
 20
154.6109727488
 30
0.0
 10
209.1076605422
 20
154.982352456
 30
0.0
 10
209.1076605422
 20
155.1795237599
 30
0.0
  0
SPLINE
  5
449
100
AcDbEntity
  8
KONSTRUKTIONSELEMENTE
100
AcDbSpline
 62
7
  6
CONTINUOUS
 70
0
 71
3
 72
13
 73
9
 74
0
 42
0.0000001
 43
0.0000001
 44
0.0000000001
 40
0.0
 40
0.0
 40
0.0
 40
0.0
 40
0.1194785188
 40
0.2392741704
 40
0.3602835725
 40
0.4830059608
 40
0.7355440041
 40
1.0
 40
1.0
 40
1.0
 40
1.0
 10
220.6076605422
 20
155.1795237599
 30
0.0
 10
220.6076605422
 20
154.8208841487
 30
0.0
 10
220.531565059
 20
154.1003775197
 30
0.0
 10
220.1959888314
 20
153.064881764
 30
0.0
 10
219.6600043661
 20
152.1065620848
 30
0.0
 10
218.7023088004
 20
150.9561823239
 30
0.0
 10
217.1159901577
 20
149.8168398046
 30
0.0
 10
215.6359367153
 20
149.2893137843
 30
0.0
 10
214.8617728627
 20
149.1137576392
 30
0.0
  0
SPLINE
  5
44A
100
AcDbEntity
  8
KONSTRUKTIONSELEMENTE
100
AcDbSpline
 62
7
  6
CONTINUOUS
 70
0
 71
3
 72
13
 73
9
 74
0
 42
0.0000001
 43
0.0000001
 44
0.0000000001
 40
0.0
 40
0.0
 40
0.0
 40
0.0
 40
0.2644681654
 40
0.5169944072
 40
0.6397129492
 40
0.760706397
 40
0.8805228501
 40
1.0
 40
1.0
 40
1.0
 40
1.0
 10
210.3554897634
 20
149.1133264269
 30
0.0
 10
209.5810924369
 20
149.2888065312
 30
0.0
 10
208.1006015893
 20
149.8161272598
 30
0.0
 10
206.5137511822
 20
150.9554797233
 30
0.0
 10
205.5557792229
 20
152.1059222721
 30
0.0
 10
205.0194624652
 20
153.0643440586
 30
0.0
 10
204.6838481286
 20
154.1000974711
 30
0.0
 10
204.6076605422
 20
154.8208094896
 30
0.0
 10
204.6076605422
 20
155.1795237599
 30
0.0
  0
SPLINE
  5
44B
100
AcDbEntity
  8
BEZUGSACHSEN
100
AcDbSpline
 62
7
  6
CONTINUOUS
 70
0
 71
3
 72
9
 73
5
 74
0
 42
0.0000001
 43
0.0000001
 44
0.0000000001
 40
0.0
 40
0.0
 40
0.0
 40
0.0
 40
0.4777750451
 40
1.0
 40
1.0
 40
1.0
 40
1.0
 10
216.3150221409
 20
108.8627372005
 30
0.0
 10
216.1823779441
 20
108.631194719
 30
0.0
 10
215.8235927603
 20
108.1912104157
 30
0.0
 10
215.364805585
 20
107.8626499241
 30
0.0
 10
215.111118944
 20
107.7187220584
 30
0.0
  0
SPLINE
  5
44C
100
AcDbEntity
  8
BEZUGSACHSEN
100
AcDbSpline
 62
7
  6
CONTINUOUS
 70
0
 71
3
 72
9
 73
5
 74
0
 42
0.0000001
 43
0.0000001
 44
0.0000000001
 40
0.0
 40
0.0
 40
0.0
 40
0.0
 40
0.5222249549
 40
1.0
 40
1.0
 40
1.0
 40
1.0
 10
210.1042021403
 20
107.7187220584
 30
0.0
 10
209.8505154994
 20
107.8626499241
 30
0.0
 10
209.391728324
 20
108.1912104157
 30
0.0
 10
209.0329431402
 20
108.631194719
 30
0.0
 10
208.9002989435
 20
108.8627372005
 30
0.0
  0
SPLINE
  5
44D
100
AcDbEntity
  8
KONSTRUKTIONSELEMENTE
100
AcDbSpline
 62
7
  6
CONTINUOUS
 70
0
 71
3
 72
13
 73
9
 74
0
 42
0.0000001
 43
0.0000001
 44
0.0000000001
 40
0.0
 40
0.0
 40
0.0
 40
0.0
 40
0.1035698708
 40
0.2118852886
 40
0.327021228
 40
0.4498249804
 40
0.7159005812
 40
1.0
 40
1.0
 40
1.0
 40
1.0
 10
209.865971872
 20
77.989176242
 30
0.0
 10
209.8512998337
 20
78.0939858302
 30
0.0
 10
209.7927474715
 20
78.3052725173
 30
0.0
 10
209.6269406987
 20
78.5986116212
 30
0.0
 10
209.3892052221
 20
78.8640029913
 30
0.0
 10
208.9773027825
 20
79.1773932036
 30
0.0
 10
208.3326866967
 20
79.4476753964
 30
0.0
 10
207.7679639252
 20
79.5190981729
 30
0.0
 10
207.4776605422
 20
79.5190981729
 30
0.0
  0
SPLINE
  5
44E
100
AcDbEntity
  8
KONSTRUKTIONSELEMENTE
100
AcDbSpline
 62
7
  6
CONTINUOUS
 70
0
 71
3
 72
9
 73
5
 74
0
 42
0.0000001
 43
0.0000001
 44
0.0000000001
 40
0.0
 40
0.0
 40
0.0
 40
0.0
 40
0.4892987036
 40
1.0
 40
1.0
 40
1.0
 40
1.0
 10
194.3474297526
 20
99.1486409343
 30
0.0
 10
194.3474425499
 20
99.1951353909
 30
0.0
 10
194.3323364965
 20
99.2906869801
 30
0.0
 10
194.2898236513
 20
99.3772231704
 30
0.0
 10
194.263107556
 20
99.4177353341
 30
0.0
  0
SPLINE
  5
44F
100
AcDbEntity
  8
KONSTRUKTIONSELEMENTE
100
AcDbSpline
 62
7
  6
CONTINUOUS
 70
0
 71
3
 72
11
 73
7
 74
0
 42
0.0000001
 43
0.0000001
 44
0.0000000001
 40
0.0
 40
0.0
 40
0.0
 40
0.0
 40
0.2200436456
 40
0.4557793627
 40
0.7157728079
 40
1.0
 40
1.0
 40
1.0
 40
1.0
 10
190.0820789386
 20
99.7770902679
 30
0.0
 10
190.0820956029
 20
99.8376342162
 30
0.0
 10
190.1086843389
 20
99.964175595
 30
0.0
 10
190.2198965639
 20
100.1312344448
 30
0.0
 10
190.3894737645
 20
100.2671194924
 30
0.0
 10
190.5274512109
 20
100.3292300673
 30
0.0
 10
190.601721708
 20
100.3537192269
 30
0.0
  0
SPLINE
  5
450
100
AcDbEntity
  8
KONSTRUKTIONSELEMENTE
100
AcDbSpline
 62
7
  6
CONTINUOUS
 70
0
 71
3
 72
11
 73
7
 74
0
 42
0.0000001
 43
0.0000001
 44
0.0000000001
 40
0.0
 40
0.0
 40
0.0
 40
0.0
 40
0.2200599668
 40
0.4557760239
 40
0.7157731965
 40
1.0
 40
1.0
 40
1.0
 40
1.0
 10
186.0944474022
 20
106.3651185081
 30
0.0
 10
186.0944692395
 20
106.5669812605
 30
0.0
 10
186.1829308305
 20
106.9888911826
 30
0.0
 10
186.5536476841
 20
107.5459150057
 30
0.0
 10
187.1189766393
 20
107.9989460084
 30
0.0
 10
187.5789734571
 20
108.206043091
 30
0.0
 10
187.8265839033
 20
108.2876875119
 30
0.0
  0
SPLINE
  5
451
100
AcDbEntity
  8
KONSTRUKTIONSELEMENTE
100
AcDbSpline
 62
7
  6
CONTINUOUS
 70
0
 71
3
 72
9
 73
5
 74
0
 42
0.0000001
 43
0.0000001
 44
0.0000000001
 40
0.0
 40
0.0
 40
0.0
 40
0.0
 40
0.4891681133
 40
1.0
 40
1.0
 40
1.0
 40
1.0
 10
186.0944475223
 20
104.2437271848
 30
0.0
 10
186.0944384803
 20
104.0888729093
 30
0.0
 10
186.1447850577
 20
103.7705479114
 30
0.0
 10
186.2864882826
 20
103.482289506
 30
0.0
 10
186.3755153274
 20
103.347289306
 30
0.0
  0
SPLINE
  5
452
100
AcDbEntity
  8
KONSTRUKTIONSELEMENTE
100
AcDbSpline
 62
7
  6
CONTINUOUS
 70
0
 71
3
 72
9
 73
5
 74
0
 42
0.0000001
 43
0.0000001
 44
0.0000000001
 40
0.0
 40
0.0
 40
0.0
 40
0.0
 40
0.4891681133
 40
1.0
 40
1.0
 40
1.0
 40
1.0
 10
226.3873320137
 20
83.994187624
 30
0.0
 10
226.3873229718
 20
84.1490418995
 30
0.0
 10
226.4376695491
 20
84.4673668974
 30
0.0
 10
226.579372774
 20
84.7556253028
 30
0.0
 10
226.6683998188
 20
84.8906255028
 30
0.0
  0
SPLINE
  5
453
100
AcDbEntity
  8
KONSTRUKTIONSELEMENTE
100
AcDbSpline
 62
7
  6
CONTINUOUS
 70
0
 71
3
 72
9
 73
5
 74
0
 42
0.0000001
 43
0.0000001
 44
0.0000000001
 40
0.0
 40
0.0
 40
0.0
 40
0.0
 40
0.4753722117
 40
1.0
 40
1.0
 40
1.0
 40
1.0
 10
226.7812367897
 20
85.0646515698
 30
0.0
 10
226.9417006307
 20
84.8656422259
 30
0.0
 10
227.3573057111
 20
84.5082353145
 30
0.0
 10
227.8515267295
 20
84.2812162036
 30
0.0
 10
228.1194683947
 20
84.192867984
 30
0.0
  0
SPLINE
  5
454
100
AcDbEntity
  8
KONSTRUKTIONSELEMENTE
100
AcDbSpline
 62
7
  6
CONTINUOUS
 70
0
 71
3
 72
11
 73
7
 74
0
 42
0.0000001
 43
0.0000001
 44
0.0000000001
 40
0.0
 40
0.0
 40
0.0
 40
0.0
 40
0.2094829334
 40
0.4446557434
 40
0.7120095299
 40
1.0
 40
1.0
 40
1.0
 40
1.0
 10
208.6776605422
 20
71.8823449361
 30
0.0
 10
208.6776605422
 20
71.7980082837
 30
0.0
 10
208.7324329998
 20
71.616872097
 30
0.0
 10
208.9421463325
 20
71.4094513408
 30
0.0
 10
209.2367310687
 20
71.2762627337
 30
0.0
 10
209.4617171964
 20
71.2459488331
 30
0.0
 10
209.5776605422
 20
71.2459488331
 30
0.0
  0
SPLINE
  5
455
100
AcDbEntity
  8
BEZUGSACHSEN
100
AcDbSpline
 62
7
  6
CONTINUOUS
 70
0
 71
3
 72
9
 73
5
 74
0
 42
0.0000001
 43
0.0000001
 44
0.0000000001
 40
0.0
 40
0.0
 40
0.0
 40
0.0
 40
0.2464269631
 40
1.0
 40
1.0
 40
1.0
 40
1.0
 10
217.6790796831
 20
114.7865392239
 30
0.0
 10
217.4749025169
 20
114.8538624194
 30
0.0
 10
216.6404257891
 20
115.1088381341
 30
0.0
 10
215.7843409199
 20
115.2923321019
 30
0.0
 10
215.1343960584
 20
115.3913160436
 30
0.0
  0
LINE
  5
456
100
AcDbEntity
  8
BEZUGSACHSEN
100
AcDbLine
 62
7
  6
CONTINUOUS
 10
215.1343960584
 20
115.3913160436
 11
215.1099940867
 21
115.3950135886
  0
LINE
  5
457
100
AcDbEntity
  8
BEZUGSACHSEN
100
AcDbLine
 62
7
  6
CONTINUOUS
 10
210.1053269977
 20
115.3950135886
 11
210.080925026
 21
115.3913160436
  0
SPLINE
  5
458
100
AcDbEntity
  8
BEZUGSACHSEN
100
AcDbSpline
 62
7
  6
CONTINUOUS
 70
0
 71
3
 72
9
 73
5
 74
0
 42
0.0000001
 43
0.0000001
 44
0.0000000001
 40
0.0
 40
0.0
 40
0.0
 40
0.0
 40
0.2533122656
 40
1.0
 40
1.0
 40
1.0
 40
1.0
 10
210.080925026
 20
115.3913160436
 30
0.0
 10
209.8624494677
 20
115.3580431104
 30
0.0
 10
209.0027511134
 20
115.2092627462
 30
0.0
 10
208.1549033986
 20
114.9905302156
 30
0.0
 10
207.5362414013
 20
114.7865392239
 30
0.0
  0
SPLINE
  5
459
100
AcDbEntity
  8
KONSTRUKTIONSELEMENTE
100
AcDbSpline
 62
7
  6
CONTINUOUS
 70
0
 71
3
 72
11
 73
7
 74
0
 42
0.0000001
 43
0.0000001
 44
0.0000000001
 40
0.0
 40
0.0
 40
0.0
 40
0.0
 40
0.2200606194
 40
0.4557771489
 40
0.7157721538
 40
1.0
 40
1.0
 40
1.0
 40
1.0
 10
231.7614964698
 20
82.7667027898
 30
0.0
 10
231.7614984445
 20
82.8003497836
 30
0.0
 10
231.7467644762
 20
82.8706776638
 30
0.0
 10
231.684979776
 20
82.9635291056
 30
0.0
 10
231.5907526036
 20
83.0390453208
 30
0.0
 10
231.5140795706
 20
83.0735651928
 30
0.0
 10
231.4728072068
 20
83.0871739007
 30
0.0
  0
SPLINE
  5
45A
100
AcDbEntity
  8
BEZUGSACHSEN
100
AcDbSpline
 62
7
  6
CONTINUOUS
 70
0
 71
3
 72
11
 73
7
 74
0
 42
0.0000001
 43
0.0000001
 44
0.0000000001
 40
0.0
 40
0.0
 40
0.0
 40
0.0
 40
0.2279319373
 40
0.4664024631
 40
0.722818209
 40
1.0
 40
1.0
 40
1.0
 40
1.0
 10
208.6076605422
 20
107.8033694204
 30
0.0
 10
208.6076605422
 20
108.0150902892
 30
0.0
 10
208.6785142811
 20
108.4510815973
 30
0.0
 10
208.985332453
 20
109.0582581413
 30
0.0
 10
209.4705223414
 20
109.5959763631
 30
0.0
 10
209.8802645011
 20
109.8822872098
 30
0.0
 10
210.1042021403
 20
110.009337126
 30
0.0
  0
SPLINE
  5
45B
100
AcDbEntity
  8
BEZUGSACHSEN
100
AcDbSpline
 62
7
  6
CONTINUOUS
 70
0
 71
3
 72
11
 73
7
 74
0
 42
0.0000001
 43
0.0000001
 44
0.0000000001
 40
0.0
 40
0.0
 40
0.0
 40
0.0
 40
0.277181791
 40
0.5335975369
 40
0.7720680627
 40
1.0
 40
1.0
 40
1.0
 40
1.0
 10
215.111118944
 20
110.009337126
 30
0.0
 10
215.3350565833
 20
109.8822872098
 30
0.0
 10
215.744798743
 20
109.5959763631
 30
0.0
 10
216.2299886314
 20
109.0582581413
 30
0.0
 10
216.5368068033
 20
108.4510815973
 30
0.0
 10
216.6076605422
 20
108.0150902892
 30
0.0
 10
216.6076605422
 20
107.8033694204
 30
0.0
  0
SPLINE
  5
45C
100
AcDbEntity
  8
KONSTRUKTIONSELEMENTE
100
AcDbSpline
 62
7
  6
CONTINUOUS
 70
0
 71
3
 72
9
 73
5
 74
0
 42
0.0000001
 43
0.0000001
 44
0.0000000001
 40
0.0
 40
0.0
 40
0.0
 40
0.0
 40
0.5108269807
 40
1.0
 40
1.0
 40
1.0
 40
1.0
 10
245.3652218236
 20
101.1956683871
 30
0.0
 10
245.4542511669
 20
101.3306720725
 30
0.0
 10
245.5959571255
 20
101.6189439874
 30
0.0
 10
245.6462957216
 20
101.9372783979
 30
0.0
 10
245.6462984806
 20
102.0921397119
 30
0.0
  0
SPLINE
  5
45D
100
AcDbEntity
  8
KONSTRUKTIONSELEMENTE
100
AcDbSpline
 62
7
  6
CONTINUOUS
 70
0
 71
3
 72
9
 73
5
 74
0
 42
0.0000001
 43
0.0000001
 44
0.0000000001
 40
0.0
 40
0.0
 40
0.0
 40
0.0
 40
0.5322168521
 40
1.0
 40
1.0
 40
1.0
 40
1.0
 10
244.712973052
 20
100.7085485149
 30
0.0
 10
244.7856257525
 20
100.6845927903
 30
0.0
 10
244.9360016886
 20
100.6784154542
 30
0.0
 10
245.0746341556
 20
100.7550225882
 30
0.0
 10
245.1116508666
 20
100.8111545579
 30
0.0
  0
SPLINE
  5
45E
100
AcDbEntity
  8
KONSTRUKTIONSELEMENTE
100
AcDbSpline
 62
7
  6
CONTINUOUS
 70
0
 71
3
 72
9
 73
5
 74
0
 42
0.0000001
 43
0.0000001
 44
0.0000000001
 40
0.0
 40
0.0
 40
0.0
 40
0.0
 40
0.2605100871
 40
1.0
 40
1.0
 40
1.0
 40
1.0
 10
231.7146519694
 20
80.4960072467
 30
0.0
 10
231.7221955099
 20
80.5074462368
 30
0.0
 10
231.7483689812
 20
80.5530938671
 30
0.0
 10
231.761494187
 20
80.6064865271
 30
0.0
 10
231.7614964698
 20
80.6453824463
 30
0.0
  0
SPLINE
  5
45F
100
AcDbEntity
  8
KONSTRUKTIONSELEMENTE
100
AcDbSpline
 62
7
  6
CONTINUOUS
 70
0
 71
3
 72
10
 73
6
 74
0
 42
0.0000001
 43
0.0000001
 44
0.0000000001
 40
0.0
 40
0.0
 40
0.0
 40
0.0
 40
0.274222842
 40
0.5378286819
 40
1.0
 40
1.0
 40
1.0
 40
1.0
 10
229.7962803436
 20
79.5190981729
 30
0.0
 10
229.9837811989
 20
79.5190981729
 30
0.0
 10
230.3533949162
 20
79.556118569
 30
0.0
 10
231.0066346339
 20
79.7590318788
 30
0.0
 10
231.4349230536
 20
80.0718276096
 30
0.0
 10
231.6088959177
 20
80.3356392579
 30
0.0
  0
SPLINE
  5
460
100
AcDbEntity
  8
KONSTRUKTIONSELEMENTE
100
AcDbSpline
 62
7
  6
CONTINUOUS
 70
0
 71
3
 72
13
 73
9
 74
0
 42
0.0000001
 43
0.0000001
 44
0.0000000001
 40
0.0
 40
0.0
 40
0.0
 40
0.0
 40
0.2870489256
 40
0.5535682914
 40
0.6755020148
 40
0.789331082
 40
0.8965440086
 40
1.0
 40
1.0
 40
1.0
 40
1.0
 10
217.7376605422
 20
79.5190981729
 30
0.0
 10
217.4285003665
 20
79.5190981729
 30
0.0
 10
216.8292496185
 20
79.438597007
 30
0.0
 10
216.1533437516
 20
79.1329938837
 30
0.0
 10
215.7384741206
 20
78.7806667668
 30
0.0
 10
215.5114960251
 20
78.4851232016
 30
0.0
 10
215.3699967988
 20
78.1615209882
 30
0.0
 10
215.3376605422
 20
77.9334670581
 30
0.0
 10
215.3376605422
 20
77.8220418981
 30
0.0
  0
SPLINE
  5
461
100
AcDbEntity
  8
KONSTRUKTIONSELEMENTE
100
AcDbSpline
 62
7
  6
CONTINUOUS
 70
0
 71
3
 72
11
 73
7
 74
0
 42
0.0000001
 43
0.0000001
 44
0.0000000001
 40
0.0
 40
0.0
 40
0.0
 40
0.0
 40
0.220058334
 40
0.4557781708
 40
0.71578719
 40
1.0
 40
1.0
 40
1.0
 40
1.0
 10
245.6462984806
 20
104.2134600555
 30
0.0
 10
245.6463020771
 20
104.4153244512
 30
0.0
 10
245.5578200158
 20
104.8372463392
 30
0.0
 10
245.187101909
 20
105.3942904987
 30
0.0
 10
244.6217572132
 20
105.847328033
 30
0.0
 10
244.1617553545
 20
106.0544249219
 30
0.0
 10
243.9141532477
 20
106.1360665931
 30
0.0
  0
SPLINE
  5
462
100
AcDbEntity
  8
KONSTRUKTIONSELEMENTE
100
AcDbSpline
 62
7
  6
CONTINUOUS
 70
0
 71
3
 72
11
 73
7
 74
0
 42
0.0000001
 43
0.0000001
 44
0.0000000001
 40
0.0
 40
0.0
 40
0.0
 40
0.0
 40
0.2879904701
 40
0.5553442566
 40
0.7905170666
 40
1.0
 40
1.0
 40
1.0
 40
1.0
 10
215.6376605422
 20
71.2459488331
 30
0.0
 10
215.753603888
 20
71.2459488331
 30
0.0
 10
215.9785900157
 20
71.2762627337
 30
0.0
 10
216.2731747518
 20
71.4094513408
 30
0.0
 10
216.4828880846
 20
71.616872097
 30
0.0
 10
216.5376605422
 20
71.7980082837
 30
0.0
 10
216.5376605422
 20
71.8823449361
 30
0.0
  0
SPLINE
  5
463
100
AcDbEntity
  8
KONSTRUKTIONSELEMENTE
100
AcDbSpline
 62
7
  6
CONTINUOUS
 70
0
 71
3
 72
11
 73
7
 74
0
 42
0.0000001
 43
0.0000001
 44
0.0000000001
 40
0.0
 40
0.0
 40
0.0
 40
0.0
 40
0.2820767698
 40
0.5407553301
 40
0.7772666753
 40
1.0
 40
1.0
 40
1.0
 40
1.0
 10
217.7426539568
 20
79.5058919675
 30
0.0
 10
217.5674851123
 20
79.4347851113
 30
0.0
 10
217.2439244901
 20
79.2637731634
 30
0.0
 10
216.8513888103
 20
78.9120777258
 30
0.0
 10
216.5974771641
 20
78.493770489
 30
0.0
 10
216.5376605422
 20
78.1834523525
 30
0.0
 10
216.5376605422
 20
78.0341739325
 30
0.0
  0
SPLINE
  5
464
100
AcDbEntity
  8
KONSTRUKTIONSELEMENTE
100
AcDbSpline
 62
7
  6
CONTINUOUS
 70
0
 71
3
 72
11
 73
7
 74
0
 42
0.0000001
 43
0.0000001
 44
0.0000000001
 40
0.0
 40
0.0
 40
0.0
 40
0.0
 40
0.2820767698
 40
0.5407553301
 40
0.7772666753
 40
1.0
 40
1.0
 40
1.0
 40
1.0
 10
207.4726671275
 20
79.5058919675
 30
0.0
 10
207.647835972
 20
79.4347851113
 30
0.0
 10
207.9713965943
 20
79.2637731634
 30
0.0
 10
208.3639322741
 20
78.9120777258
 30
0.0
 10
208.6178439203
 20
78.493770489
 30
0.0
 10
208.6776605422
 20
78.1834523525
 30
0.0
 10
208.6776605422
 20
78.0341739325
 30
0.0
  0
SPLINE
  5
465
100
AcDbEntity
  8
KONSTRUKTIONSELEMENTE
100
AcDbSpline
 62
7
  6
CONTINUOUS
 70
0
 71
3
 72
9
 73
5
 74
0
 42
0.0000001
 43
0.0000001
 44
0.0000000001
 40
0.0
 40
0.0
 40
0.0
 40
0.0
 40
0.5107012964
 40
1.0
 40
1.0
 40
1.0
 40
1.0
 10
190.1664011352
 20
97.8109395933
 30
0.0
 10
190.1396850399
 20
97.851451757
 30
0.0
 10
190.0971721947
 20
97.9379879473
 30
0.0
 10
190.0820661413
 20
98.0335395365
 30
0.0
 10
190.0820789386
 20
98.0800339931
 30
0.0
  0
SPLINE
  5
466
100
AcDbEntity
  8
KONSTRUKTIONSELEMENTE
100
AcDbSpline
 62
7
  6
CONTINUOUS
 70
0
 71
3
 72
11
 73
7
 74
0
 42
0.0000001
 43
0.0000001
 44
0.0000000001
 40
0.0
 40
0.0
 40
0.0
 40
0.0
 40
0.2210800583
 40
0.4646152767
 40
0.7270135498
 40
1.0
 40
1.0
 40
1.0
 40
1.0
 10
201.281508657
 20
80.7439098003
 30
0.0
 10
201.4069085449
 20
80.5537539889
 30
0.0
 10
201.7430513241
 20
80.2002070369
 30
0.0
 10
202.3943258183
 20
79.8157869347
 30
0.0
 10
203.1658913714
 20
79.5737129395
 30
0.0
 10
203.719170853
 20
79.5190981729
 30
0.0
 10
204.0004320181
 20
79.5190981729
 30
0.0
  0
SPLINE
  5
467
100
AcDbEntity
  8
KONSTRUKTIONSELEMENTE
100
AcDbSpline
 62
7
  6
CONTINUOUS
 70
0
 71
3
 72
13
 73
9
 74
0
 42
0.0000001
 43
0.0000001
 44
0.0000000001
 40
0.0
 40
0.0
 40
0.0
 40
0.0
 40
0.2198121251
 40
0.3415455497
 40
0.4695397045
 40
0.6018885822
 40
0.736224413
 40
1.0
 40
1.0
 40
1.0
 40
1.0
 10
237.1915945362
 20
100.847949416
 30
0.0
 10
237.3680536189
 20
101.1155311548
 30
0.0
 10
237.7491028035
 20
101.4640071405
 30
0.0
 10
238.3566901394
 20
101.781672417
 30
0.0
 10
238.8872423096
 20
101.9599876259
 30
0.0
 10
239.4557200273
 20
102.0618516695
 30
0.0
 10
240.230131591
 20
102.0916079358
 30
0.0
 10
240.8130834634
 20
101.9944564071
 30
0.0
 10
241.1783726825
 20
101.874009846
 30
0.0
  0
SPLINE
  5
468
100
AcDbEntity
  8
KONSTRUKTIONSELEMENTE
100
AcDbSpline
 62
7
  6
CONTINUOUS
 70
0
 71
3
 72
11
 73
7
 74
0
 42
0.0000001
 43
0.0000001
 44
0.0000000001
 40
0.0
 40
0.0
 40
0.0
 40
0.0
 40
0.2200606194
 40
0.4557771489
 40
0.7157721538
 40
1.0
 40
1.0
 40
1.0
 40
1.0
 10
231.7614964698
 20
80.6453824463
 30
0.0
 10
231.7614984445
 20
80.67902944
 30
0.0
 10
231.7467644762
 20
80.7493573203
 30
0.0
 10
231.684979776
 20
80.842208762
 30
0.0
 10
231.5907526036
 20
80.9177249773
 30
0.0
 10
231.5140795706
 20
80.9522448492
 30
0.0
 10
231.4728072068
 20
80.9658535571
 30
0.0
  0
SPLINE
  5
469
100
AcDbEntity
  8
BEZUGSACHSEN
100
AcDbSpline
 62
7
  6
CONTINUOUS
 70
0
 71
3
 72
9
 73
5
 74
0
 42
0.0000001
 43
0.0000001
 44
0.0000000001
 40
0.0
 40
0.0
 40
0.0
 40
0.0
 40
0.2464061737
 40
1.0
 40
1.0
 40
1.0
 40
1.0
 10
217.6790796831
 20
112.6652188803
 30
0.0
 10
217.4729973908
 20
112.7331702518
 30
0.0
 10
216.6306083327
 20
112.9903759292
 30
0.0
 10
215.7662263992
 20
113.1747613533
 30
0.0
 10
215.1099940867
 20
113.273693245
 30
0.0
  0
SPLINE
  5
46A
100
AcDbEntity
  8
BEZUGSACHSEN
100
AcDbSpline
 62
7
  6
CONTINUOUS
 70
0
 71
3
 72
9
 73
5
 74
0
 42
0.0000001
 43
0.0000001
 44
0.0000000001
 40
0.0
 40
0.0
 40
0.0
 40
0.0
 40
0.2533289355
 40
1.0
 40
1.0
 40
1.0
 40
1.0
 10
210.1053269977
 20
113.273693245
 30
0.0
 10
209.8847295671
 20
113.2404365451
 30
0.0
 10
209.0167368793
 20
113.0914089874
 30
0.0
 10
208.1607145734
 20
112.8711259867
 30
0.0
 10
207.5362414013
 20
112.6652188803
 30
0.0
  0
SPLINE
  5
46B
100
AcDbEntity
  8
BEZUGSACHSEN
100
AcDbSpline
 62
7
  6
CONTINUOUS
 70
0
 71
3
 72
13
 73
9
 74
0
 42
0.0000001
 43
0.0000001
 44
0.0000000001
 40
0.0
 40
0.0
 40
0.0
 40
0.0
 40
0.1034580044
 40
0.2106797569
 40
0.3245065378
 40
0.4464380011
 40
0.7129482935
 40
1.0
 40
1.0
 40
1.0
 40
1.0
 10
216.6076605422
 20
107.8033694204
 30
0.0
 10
216.6076605422
 20
107.6177309872
 30
0.0
 10
216.5537934192
 20
107.2377771687
 30
0.0
 10
216.3181466443
 20
106.6986002935
 30
0.0
 10
215.940071879
 20
106.2061599874
 30
0.0
 10
215.2490686383
 20
105.6190239627
 30
0.0
 10
214.1231598117
 20
105.1095944566
 30
0.0
 10
213.1248706044
 20
104.9751517469
 30
0.0
 10
212.6098033988
 20
104.9749569955
 30
0.0
  0
SPLINE
  5
46C
100
AcDbEntity
  8
BEZUGSACHSEN
100
AcDbSpline
 62
7
  6
CONTINUOUS
 70
0
 71
3
 72
13
 73
9
 74
0
 42
0.0000001
 43
0.0000001
 44
0.0000000001
 40
0.0
 40
0.0
 40
0.0
 40
0.0
 40
0.2870443501
 40
0.5535721934
 40
0.6755101614
 40
0.7893373578
 40
0.896552716
 40
1.0
 40
1.0
 40
1.0
 40
1.0
 10
212.6098033988
 20
104.9749569955
 30
0.0
 10
212.094342134
 20
104.9747620951
 30
0.0
 10
211.0951422976
 20
105.1086575175
 30
0.0
 10
209.9680174319
 20
105.6178771324
 30
0.0
 10
209.276149609
 20
106.2051766877
 30
0.0
 10
208.8975766722
 20
106.6978605794
 30
0.0
 10
208.6616044492
 20
107.2373777123
 30
0.0
 10
208.6076605422
 20
107.617603452
 30
0.0
 10
208.6076605422
 20
107.8033694204
 30
0.0
  0
SPLINE
  5
46D
100
AcDbEntity
  8
KONSTRUKTIONSELEMENTE
100
AcDbSpline
 62
7
  6
CONTINUOUS
 70
0
 71
3
 72
9
 73
5
 74
0
 42
0.0000001
 43
0.0000001
 44
0.0000000001
 40
0.0
 40
0.0
 40
0.0
 40
0.0
 40
0.5398499172
 40
1.0
 40
1.0
 40
1.0
 40
1.0
 10
193.8277869832
 20
98.7841440097
 30
0.0
 10
193.9472399006
 20
98.8235311375
 30
0.0
 10
194.1604085007
 20
98.9332313818
 30
0.0
 10
194.3024447361
 20
99.1361186968
 30
0.0
 10
194.3308950127
 20
99.2394846525
 30
0.0
  0
SPLINE
  5
46E
100
AcDbEntity
  8
KONSTRUKTIONSELEMENTE
100
AcDbSpline
 62
7
  6
CONTINUOUS
 70
0
 71
3
 72
11
 73
7
 74
0
 42
0.0000001
 43
0.0000001
 44
0.0000000001
 40
0.0
 40
0.0
 40
0.0
 40
0.0
 40
0.2816064552
 40
0.5417085427
 40
0.7793419382
 40
1.0
 40
1.0
 40
1.0
 40
1.0
 10
193.3206450691
 20
99.5531716682
 30
0.0
 10
193.3886628955
 20
99.575599139
 30
0.0
 10
193.515862183
 20
99.6315591542
 30
0.0
 10
193.6762156335
 20
99.7514047361
 30
0.0
 10
193.7895516062
 20
99.8980288459
 30
0.0
 10
193.8279551037
 20
100.0110657544
 30
0.0
 10
193.83582253
 20
100.0666307048
 30
0.0
  0
SPLINE
  5
46F
100
AcDbEntity
  8
KONSTRUKTIONSELEMENTE
100
AcDbSpline
 62
7
  6
CONTINUOUS
 70
0
 71
3
 72
11
 73
7
 74
0
 42
0.0000001
 43
0.0000001
 44
0.0000000001
 40
0.0
 40
0.0
 40
0.0
 40
0.0
 40
0.2200436456
 40
0.4557793627
 40
0.7157728079
 40
1.0
 40
1.0
 40
1.0
 40
1.0
 10
190.0820789386
 20
98.0800339931
 30
0.0
 10
190.0820956029
 20
98.1405779413
 30
0.0
 10
190.1086843389
 20
98.2671193202
 30
0.0
 10
190.2198965639
 20
98.4341781699
 30
0.0
 10
190.3894737645
 20
98.5700632176
 30
0.0
 10
190.5274512109
 20
98.6321737925
 30
0.0
 10
190.601721708
 20
98.656662952
 30
0.0
  0
SPLINE
  5
470
100
AcDbEntity
  8
KONSTRUKTIONSELEMENTE
100
AcDbSpline
 62
7
  6
CONTINUOUS
 70
0
 71
3
 72
11
 73
7
 74
0
 42
0.0000001
 43
0.0000001
 44
0.0000000001
 40
0.0
 40
0.0
 40
0.0
 40
0.0
 40
0.220058334
 40
0.4557781708
 40
0.71578719
 40
1.0
 40
1.0
 40
1.0
 40
1.0
 10
245.6462984806
 20
102.0921397119
 30
0.0
 10
245.6463020771
 20
102.2940041077
 30
0.0
 10
245.5578200158
 20
102.7159259956
 30
0.0
 10
245.187101909
 20
103.2729701552
 30
0.0
 10
244.6217572132
 20
103.7260076894
 30
0.0
 10
244.1617553545
 20
103.9331045784
 30
0.0
 10
243.9141532477
 20
104.0147462495
 30
0.0
  0
SPLINE
  5
471
100
AcDbEntity
  8
KONSTRUKTIONSELEMENTE
100
AcDbSpline
 62
7
  6
CONTINUOUS
 70
0
 71
3
 72
11
 73
7
 74
0
 42
0.0000001
 43
0.0000001
 44
0.0000000001
 40
0.0
 40
0.0
 40
0.0
 40
0.0
 40
0.2842271921
 40
0.5442206373
 40
0.7799563544
 40
1.0
 40
1.0
 40
1.0
 40
1.0
 10
193.8277869832
 20
98.5720119754
 30
0.0
 10
193.9020574803
 20
98.5965011349
 30
0.0
 10
194.0400349267
 20
98.6586117098
 30
0.0
 10
194.2096121273
 20
98.7944967575
 30
0.0
 10
194.3208243523
 20
98.9615556072
 30
0.0
 10
194.3474130883
 20
99.0880969861
 30
0.0
 10
194.3474297526
 20
99.1486409343
 30
0.0
  0
SPLINE
  5
472
100
AcDbEntity
  8
KONSTRUKTIONSELEMENTE
100
AcDbSpline
 62
7
  6
CONTINUOUS
 70
0
 71
3
 72
11
 73
7
 74
0
 42
0.0000001
 43
0.0000001
 44
0.0000000001
 40
0.0
 40
0.0
 40
0.0
 40
0.0
 40
0.2842240174
 40
0.5442187073
 40
0.779940343
 40
1.0
 40
1.0
 40
1.0
 40
1.0
 10
187.8265839033
 20
106.1663671683
 30
0.0
 10
187.5789695945
 20
106.0847214739
 30
0.0
 10
187.1189660315
 20
105.8776198317
 30
0.0
 10
186.5536242231
 20
105.4245744084
 30
0.0
 10
186.1829072907
 20
104.867524854
 30
0.0
 10
186.0944593094
 20
104.4455947816
 30
0.0
 10
186.0944475223
 20
104.2437271848
 30
0.0
  0
SPLINE
  5
473
100
AcDbEntity
  8
KONSTRUKTIONSELEMENTE
100
AcDbSpline
 62
7
  6
CONTINUOUS
 70
0
 71
3
 72
11
 73
7
 74
0
 42
0.0000001
 43
0.0000001
 44
0.0000000001
 40
0.0
 40
0.0
 40
0.0
 40
0.0
 40
0.2842240174
 40
0.5442187073
 40
0.779940343
 40
1.0
 40
1.0
 40
1.0
 40
1.0
 10
228.1194683947
 20
82.0715476404
 30
0.0
 10
227.8718540859
 20
82.1531933349
 30
0.0
 10
227.4118505229
 20
82.360294977
 30
0.0
 10
226.8465087145
 20
82.8133404004
 30
0.0
 10
226.4757917821
 20
83.3703899548
 30
0.0
 10
226.3873438008
 20
83.7923200272
 30
0.0
 10
226.3873320137
 20
83.994187624
 30
0.0
  0
SPLINE
  5
474
100
AcDbEntity
  8
KONSTRUKTIONSELEMENTE
100
AcDbSpline
 62
7
  6
CONTINUOUS
 70
0
 71
3
 72
11
 73
7
 74
0
 42
0.0000001
 43
0.0000001
 44
0.0000000001
 40
0.0
 40
0.0
 40
0.0
 40
0.0
 40
0.2403317958
 40
0.484747779
 40
0.7369983011
 40
1.0
 40
1.0
 40
1.0
 40
1.0
 10
189.1076605422
 20
190.8884162098
 30
0.0
 10
189.1076605422
 20
189.7384682979
 30
0.0
 10
189.4151934868
 20
187.4083694117
 30
0.0
 10
190.7567875758
 20
184.1104037071
 30
0.0
 10
192.8846172748
 20
181.1277468241
 30
0.0
 10
194.7128702081
 20
179.4469387675
 30
0.0
 10
195.7114738633
 20
178.6811641552
 30
0.0
  0
SPLINE
  5
475
100
AcDbEntity
  8
KONSTRUKTIONSELEMENTE
100
AcDbSpline
 62
7
  6
CONTINUOUS
 70
0
 71
3
 72
11
 73
7
 74
0
 42
0.0000001
 43
0.0000001
 44
0.0000000001
 40
0.0
 40
0.0
 40
0.0
 40
0.0
 40
0.2629961061
 40
0.5152443491
 40
0.7596610092
 40
1.0
 40
1.0
 40
1.0
 40
1.0
 10
229.5054706519
 20
178.6824053598
 30
0.0
 10
230.5038359161
 20
179.4481541886
 30
0.0
 10
232.3316505869
 20
181.1288593696
 30
0.0
 10
234.458935385
 20
184.1112176256
 30
0.0
 10
235.8002070262
 20
187.4087905171
 30
0.0
 10
236.1076605422
 20
189.7385966231
 30
0.0
 10
236.1076605422
 20
190.8884162098
 30
0.0
  0
SPLINE
  5
476
100
AcDbEntity
  8
KONSTRUKTIONSELEMENTE
100
AcDbSpline
 62
7
  6
CONTINUOUS
 70
0
 71
3
 72
13
 73
9
 74
0
 42
0.0000001
 43
0.0000001
 44
0.0000000001
 40
0.0
 40
0.0
 40
0.0
 40
0.0
 40
0.1172644026
 40
0.2353409334
 40
0.3551121901
 40
0.4773207979
 40
0.7310116639
 40
1.0
 40
1.0
 40
1.0
 40
1.0
 10
236.1076605422
 20
190.8884162098
 30
0.0
 10
236.1076605422
 20
191.6387318824
 30
0.0
 10
235.9787969889
 20
193.1476473219
 30
0.0
 10
235.4059764042
 20
195.3566178274
 30
0.0
 10
234.4721328745
 20
197.4734268883
 30
0.0
 10
232.7596982068
 20
200.1555636822
 30
0.0
 10
229.8109455942
 20
203.1153003431
 30
0.0
 10
226.9261718752
 20
204.867057933
 30
0.0
 10
225.3730325378
 20
205.6086871444
 30
0.0
  0
SPLINE
  5
477
100
AcDbEntity
  8
KONSTRUKTIONSELEMENTE
100
AcDbSpline
 62
7
  6
CONTINUOUS
 70
0
 71
3
 72
13
 73
9
 74
0
 42
0.0000001
 43
0.0000001
 44
0.0000000001
 40
0.0
 40
0.0
 40
0.0
 40
0.0
 40
0.2689704331
 40
0.5226532774
 40
0.6448632644
 40
0.7646389104
 40
0.8827253186
 40
1.0
 40
1.0
 40
1.0
 40
1.0
 10
199.8290241105
 20
205.6023461904
 30
0.0
 10
198.2775937247
 20
204.8604514058
 30
0.0
 10
195.3961447676
 20
203.1085341293
 30
0.0
 10
192.4511495305
 20
200.1498421723
 30
0.0
 10
190.7409966914
 20
197.4691612219
 30
0.0
 10
189.8083816312
 20
195.353641591
 30
0.0
 10
189.2363560597
 20
193.1461130794
 30
0.0
 10
189.1076605422
 20
191.6382252117
 30
0.0
 10
189.1076605422
 20
190.8884162098
 30
0.0
  0
SPLINE
  5
478
100
AcDbEntity
  8
0
100
AcDbSpline
 62
7
  6
CONTINUOUS
 70
0
 71
3
 72
14
 73
10
 74
0
 42
0.0000001
 43
0.0000001
 44
0.0000000001
 40
0.0
 40
0.0
 40
0.0
 40
0.0
 40
0.0169379324
 40
0.0643667009
 40
0.1433012366
 40
0.2535629928
 40
0.3948064114
 40
0.5666036338
 40
1.0
 40
1.0
 40
1.0
 40
1.0
 10
227.5805398394
 20
164.4016183247
 30
0.0
 10
227.578852222
 20
164.4016183247
 30
0.0
 10
227.5786269586
 20
164.4111942427
 30
0.0
 10
227.5780487502
 20
164.4225160246
 30
0.0
 10
227.5793437866
 20
164.4477477146
 30
0.0
 10
227.5808379917
 20
164.4798922085
 30
0.0
 10
227.5827823157
 20
164.5223118773
 30
0.0
 10
227.5848732146
 20
164.5965174707
 30
0.0
 10
227.5843418109
 20
164.656921361
 30
0.0
 10
227.5826092821
 20
164.7000682044
 30
0.0
  0
SPLINE
  5
479
100
AcDbEntity
  8
0
100
AcDbSpline
 62
7
  6
CONTINUOUS
 70
0
 71
3
 72
11
 73
7
 74
0
 42
0.0000001
 43
0.0000001
 44
0.0000000001
 40
0.0
 40
0.0
 40
0.0
 40
0.0
 40
0.3160601619
 40
0.6042233606
 40
0.8390981755
 40
1.0
 40
1.0
 40
1.0
 40
1.0
 10
227.5448223084
 20
168.0016196454
 30
0.0
 10
227.5448223084
 20
168.3541190338
 30
0.0
 10
227.5465396833
 20
169.028003672
 30
0.0
 10
227.553876093
 20
169.9638281997
 30
0.0
 10
227.5655600053
 20
170.7265199533
 30
0.0
 10
227.5765814744
 20
171.1678349962
 30
0.0
 10
227.5844538058
 20
171.3471147659
 30
0.0
  0
SPLINE
  5
47A
100
AcDbEntity
  8
0
100
AcDbSpline
 62
7
  6
CONTINUOUS
 70
0
 71
3
 72
11
 73
7
 74
0
 42
0.0000001
 43
0.0000001
 44
0.0000000001
 40
0.0
 40
0.0
 40
0.0
 40
0.0
 40
0.3932532929
 40
0.6919061664
 40
0.8943356919
 40
1.0
 40
1.0
 40
1.0
 40
1.0
 10
227.5865951427
 20
171.3933364009
 30
0.0
 10
227.5879230225
 20
171.4204031947
 30
0.0
 10
227.5909008002
 20
171.4679568536
 30
0.0
 10
227.5961604935
 20
171.5294947695
 30
0.0
 10
227.6019546913
 20
171.5706864709
 30
0.0
 10
227.605327951
 20
171.5919664852
 30
0.0
 10
227.6082662026
 20
171.5986287246
 30
0.0
  0
SPLINE
  5
47B
100
AcDbEntity
  8
0
100
AcDbSpline
 62
7
  6
CONTINUOUS
 70
0
 71
3
 72
9
 73
5
 74
0
 42
0.0000001
 43
0.0000001
 44
0.0000000001
 40
0.0
 40
0.0
 40
0.0
 40
0.0
 40
0.6412891437
 40
1.0
 40
1.0
 40
1.0
 40
1.0
 10
227.6082662026
 20
171.5986287246
 30
0.0
 10
227.6086144361
 20
171.5994183148
 30
0.0
 10
227.6091462966
 20
171.6006096347
 30
0.0
 10
227.6103163829
 20
171.6016196454
 30
0.0
 10
227.6107990936
 20
171.6016196454
 30
0.0
  0
LINE
  5
47C
100
AcDbEntity
  8
0
100
AcDbLine
 62
7
  6
CONTINUOUS
 10
221.0072447723
 20
163.3997088174
 11
220.6981549964
 21
159.5016324713
  0
SPLINE
  5
47D
100
AcDbEntity
  8
KONSTRUKTIONSELEMENTE
100
AcDbSpline
 62
7
  6
CONTINUOUS
 70
0
 71
3
 72
10
 73
6
 74
0
 42
0.0000001
 43
0.0000001
 44
0.0000000001
 40
0.0
 40
0.0
 40
0.0
 40
0.0
 40
0.2501131752
 40
0.5002546905
 40
1.0
 40
1.0
 40
1.0
 40
1.0
 10
221.3402258457
 20
167.7286196454
 30
0.0
 10
221.3402258457
 20
167.534215377
 30
0.0
 10
221.3706834056
 20
167.1447342871
 30
0.0
 10
221.5443832312
 20
166.3850054629
 30
0.0
 10
221.7785731938
 20
165.8455816171
 30
0.0
 10
221.9590493193
 20
165.5016196454
 30
0.0
  0
SPLINE
  5
47E
100
AcDbEntity
  8
KONSTRUKTIONSELEMENTE
100
AcDbSpline
 62
7
  6
CONTINUOUS
 70
0
 71
3
 72
11
 73
7
 74
0
 42
0.0000001
 43
0.0000001
 44
0.0000000001
 40
0.0
 40
0.0
 40
0.0
 40
0.0
 40
0.2558252066
 40
0.507988463
 40
0.755860403
 40
1.0
 40
1.0
 40
1.0
 40
1.0
 10
221.9590493193
 20
165.5016196454
 30
0.0
 10
221.8379406596
 20
165.3432861842
 30
0.0
 10
221.6077038213
 20
165.0207352955
 30
0.0
 10
221.3130352209
 20
164.5092466036
 30
0.0
 10
221.0953778761
 20
163.969161239
 30
0.0
 10
221.0218471427
 20
163.5893829356
 30
0.0
 10
221.0072447723
 20
163.3997088174
 30
0.0
  0
SPLINE
  5
47F
100
AcDbEntity
  8
KONSTRUKTIONSELEMENTE
100
AcDbSpline
 62
7
  6
CONTINUOUS
 70
0
 71
3
 72
10
 73
6
 74
0
 42
0.0000001
 43
0.0000001
 44
0.0000000001
 40
0.0
 40
0.0
 40
0.0
 40
0.0
 40
0.4997453095
 40
0.7498868248
 40
1.0
 40
1.0
 40
1.0
 40
1.0
 10
203.2562717651
 20
165.5016196454
 30
0.0
 10
203.4367478905
 20
165.8455816171
 30
0.0
 10
203.6709378532
 20
166.3850054629
 30
0.0
 10
203.8446376788
 20
167.1447342871
 30
0.0
 10
203.8750952386
 20
167.534215377
 30
0.0
 10
203.8750952386
 20
167.7286196454
 30
0.0
  0
LINE
  5
480
100
AcDbEntity
  8
0
100
AcDbLine
 62
7
  6
CONTINUOUS
 10
204.517166088
 20
159.5016324713
 11
204.2080763121
 21
163.3997088174
  0
SPLINE
  5
481
100
AcDbEntity
  8
KONSTRUKTIONSELEMENTE
100
AcDbSpline
 62
7
  6
CONTINUOUS
 70
0
 71
3
 72
17
 73
13
 74
0
 42
0.0000001
 43
0.0000001
 44
0.0000000001
 40
0.0
 40
0.0
 40
0.0
 40
0.0
 40
0.0622821369
 40
0.1247423667
 40
0.1872623249
 40
0.2497904868
 40
0.3123209288
 40
0.3748517182
 40
0.4998832918
 40
0.6249258464
 40
0.7499729332
 40
1.0
 40
1.0
 40
1.0
 40
1.0
 10
203.8750952386
 20
171.3995013385
 30
0.0
 10
203.8750952386
 20
171.5301556166
 30
0.0
 10
203.9371601527
 20
171.7934259569
 30
0.0
 10
204.1527215713
 20
172.1264773071
 30
0.0
 10
204.4268373951
 20
172.4105652993
 30
0.0
 10
204.7334218075
 20
172.6582802698
 30
0.0
 10
205.0596151898
 20
172.8790129635
 30
0.0
 10
205.5122116772
 20
173.1448610499
 30
0.0
 10
206.1018647225
 20
173.4338922547
 30
0.0
 10
206.8323266245
 20
173.7280043715
 30
0.0
 10
207.8278620928
 20
174.0604556121
 30
0.0
 10
208.5932721427
 20
174.2499695233
 30
0.0
 10
209.1076605422
 20
174.352472847
 30
0.0
  0
SPLINE
  5
482
100
AcDbEntity
  8
KONSTRUKTIONSELEMENTE
100
AcDbSpline
 62
7
  6
CONTINUOUS
 70
0
 71
3
 72
17
 73
13
 74
0
 42
0.0000001
 43
0.0000001
 44
0.0000000001
 40
0.0
 40
0.0
 40
0.0
 40
0.0
 40
0.2500270185
 40
0.3750740826
 40
0.5001166152
 40
0.6251481648
 40
0.68767894
 40
0.750209361
 40
0.8127375002
 40
0.8752574138
 40
0.9377177047
 40
1.0
 40
1.0
 40
1.0
 40
1.0
 10
216.1076605422
 20
174.352472847
 30
0.0
 10
216.6220488484
 20
174.2499695419
 30
0.0
 10
217.3874587629
 20
174.0604556691
 30
0.0
 10
218.3829940669
 20
173.7280045126
 30
0.0
 10
219.1134558554
 20
173.4338924762
 30
0.0
 10
219.7031088145
 20
173.1448613645
 30
0.0
 10
220.1557052168
 20
172.8790133671
 30
0.0
 10
220.481898548
 20
172.6582808103
 30
0.0
 10
220.7884828986
 20
172.410566048
 30
0.0
 10
221.062598876
 20
172.1264782483
 30
0.0
 10
221.2781609141
 20
171.7934268148
 30
0.0
 10
221.3402258457
 20
171.5301559503
 30
0.0
 10
221.3402258457
 20
171.3995013385
 30
0.0
  0
SPLINE
  5
483
100
AcDbEntity
  8
KONSTRUKTIONSELEMENTE
100
AcDbSpline
 62
7
  6
CONTINUOUS
 70
0
 71
3
 72
11
 73
7
 74
0
 42
0.0000001
 43
0.0000001
 44
0.0000000001
 40
0.0
 40
0.0
 40
0.0
 40
0.0
 40
0.2441398041
 40
0.4920116447
 40
0.744174815
 40
1.0
 40
1.0
 40
1.0
 40
1.0
 10
204.2080763121
 20
163.3997088174
 30
0.0
 10
204.1934739292
 20
163.5893830972
 30
0.0
 10
204.1199432563
 20
163.9691615101
 30
0.0
 10
203.9022857012
 20
164.5092468153
 30
0.0
 10
203.6076172049
 20
165.0207353718
 30
0.0
 10
203.377380415
 20
165.343286197
 30
0.0
 10
203.2562717651
 20
165.5016196454
 30
0.0
  0
SPLINE
  5
484
100
AcDbEntity
  8
RUNDUNGEN
100
AcDbSpline
 62
7
  6
CONTINUOUS
 70
0
 71
3
 72
15
 73
11
 74
0
 42
0.0000001
 43
0.0000001
 44
0.0000000001
 40
0.0
 40
0.0
 40
0.0
 40
0.0
 40
0.1239934795
 40
0.1688462495
 40
0.2198416452
 40
0.3399640357
 40
0.4825524953
 40
0.6437730352
 40
0.8184322725
 40
1.0
 40
1.0
 40
1.0
 40
1.0
 10
227.4935933544
 20
166.0898549395
 30
0.0
 10
227.4882691325
 20
166.0001167041
 30
0.0
 10
227.3846839445
 20
165.8967137514
 30
0.0
 10
227.2508061005
 20
165.8160805851
 30
0.0
 10
227.1091392346
 20
165.7470152687
 30
0.0
 10
226.8941597185
 20
165.6721715852
 30
0.0
 10
226.5948941238
 20
165.5999791449
 30
0.0
 10
226.2520401087
 20
165.545470577
 30
0.0
 10
225.8782824956
 20
165.510804261
 30
0.0
 10
225.6199767542
 20
165.5016196454
 30
0.0
 10
225.4883390262
 20
165.5016196454
 30
0.0
  0
SPLINE
  5
485
100
AcDbEntity
  8
RUNDUNGEN
100
AcDbSpline
 62
7
  6
CONTINUOUS
 70
0
 71
3
 72
15
 73
11
 74
0
 42
0.0000001
 43
0.0000001
 44
0.0000000001
 40
0.0
 40
0.0
 40
0.0
 40
0.0
 40
0.1240344084
 40
0.1688753321
 40
0.2198525669
 40
0.3399257028
 40
0.4824645796
 40
0.6436586638
 40
0.8183390547
 40
1.0
 40
1.0
 40
1.0
 40
1.0
 10
197.72172773
 20
166.0898549395
 30
0.0
 10
197.7270401906
 20
166.0003149371
 30
0.0
 10
197.8302241338
 20
165.8970757539
 30
0.0
 10
197.9637100731
 20
165.8165235086
 30
0.0
 10
198.1049066267
 20
165.7475442921
 30
0.0
 10
198.3192080431
 20
165.6727609234
 30
0.0
 10
198.6175710372
 20
165.6005497332
 30
0.0
 10
198.9594837114
 20
165.5459701027
 30
0.0
 10
199.3323263513
 20
165.5111429014
 30
0.0
 10
199.5900521119
 20
165.5016196454
 30
0.0
 10
199.7214231203
 20
165.5016196454
 30
0.0
  0
LINE
  5
486
100
AcDbEntity
  8
KONSTRUKTIONSELEMENTE
100
AcDbLine
 62
7
  6
CONTINUOUS
 10
553.1325676083
 20
198.4732360688
 11
552.7763499374
 21
199.2508479365
  0
LINE
  5
487
100
AcDbEntity
  8
KONSTRUKTIONSELEMENTE
100
AcDbLine
 62
7
  6
CONTINUOUS
 10
552.5182929153
 20
201.0890530755
 11
552.4682310733
 21
201.1587608937
  0
LINE
  5
488
100
AcDbEntity
  8
KONSTRUKTIONSELEMENTE
100
AcDbLine
 62
7
  6
CONTINUOUS
 10
552.5860982954
 20
200.9409364453
 11
552.5182929153
 21
201.0890530755
  0
LINE
  5
489
100
AcDbEntity
  8
KONSTRUKTIONSELEMENTE
100
AcDbLine
 62
7
  6
CONTINUOUS
 10
552.6377793123
 20
200.7884694737
 11
552.5860982954
 21
200.9409364453
  0
LINE
  5
48A
100
AcDbEntity
  8
KONSTRUKTIONSELEMENTE
100
AcDbLine
 62
7
  6
CONTINUOUS
 10
552.7078372256
 20
200.5162140988
 11
552.6377793123
 21
200.7884694737
  0
LINE
  5
48B
100
AcDbEntity
  8
KONSTRUKTIONSELEMENTE
100
AcDbLine
 62
7
  6
CONTINUOUS
 10
552.4390069598
 20
200.9017821883
 11
552.4720494238
 21
200.9104831968
  0
LINE
  5
48C
100
AcDbEntity
  8
KONSTRUKTIONSELEMENTE
100
AcDbLine
 62
7
  6
CONTINUOUS
 10
552.6745583045
 20
199.4730227262
 11
552.4200548437
 21
200.0284598043
  0
LINE
  5
48D
100
AcDbEntity
  8
KONSTRUKTIONSELEMENTE
100
AcDbLine
 62
7
  6
CONTINUOUS
 10
552.8572711304
 20
202.1128022188
 11
552.7712509734
 21
202.3452955312
  0
LINE
  5
48E
100
AcDbEntity
  8
KONSTRUKTIONSELEMENTE
100
AcDbLine
 62
7
  6
CONTINUOUS
 10
552.7712509734
 20
202.3452955312
 11
552.7381301306
 21
202.4348075267
  0
LINE
  5
48F
100
AcDbEntity
  8
KONSTRUKTIONSELEMENTE
100
AcDbLine
 62
7
  6
CONTINUOUS
 10
552.7381301306
 20
202.4348075267
 11
552.5187701164
 21
203.0275669959
  0
LINE
  5
490
100
AcDbEntity
  8
KONSTRUKTIONSELEMENTE
100
AcDbLine
 62
7
  6
CONTINUOUS
 10
552.5187701164
 20
203.0275669959
 11
552.4209331144
 21
203.2919032013
  0
LINE
  5
491
100
AcDbEntity
  8
KONSTRUKTIONSELEMENTE
100
AcDbLine
 62
7
  6
CONTINUOUS
 10
552.4209331144
 20
203.2919032013
 11
552.4013962744
 21
203.3446850868
  0
LINE
  5
492
100
AcDbEntity
  8
KONSTRUKTIONSELEMENTE
100
AcDbLine
 62
7
  6
CONTINUOUS
 10
552.4013962744
 20
203.3446850868
 11
552.3318063937
 21
203.5326860364
  0
LINE
  5
493
100
AcDbEntity
  8
KONSTRUKTIONSELEMENTE
100
AcDbLine
 62
7
  6
CONTINUOUS
 10
552.9428962202
 20
201.8484061236
 11
552.9144362787
 21
201.9362916784
  0
LINE
  5
494
100
AcDbEntity
  8
KONSTRUKTIONSELEMENTE
100
AcDbLine
 62
7
  6
CONTINUOUS
 10
552.9144362787
 20
201.9362916784
 11
552.8572711304
 21
202.1128022188
  0
LINE
  5
495
100
AcDbEntity
  8
KONSTRUKTIONSELEMENTE
100
AcDbLine
 62
7
  6
CONTINUOUS
 10
553.0123669015
 20
201.5944302891
 11
552.9428962202
 21
201.8484061236
  0
LINE
  5
496
100
AcDbEntity
  8
KONSTRUKTIONSELEMENTE
100
AcDbLine
 62
7
  6
CONTINUOUS
 10
552.8618010519
 20
201.0513260254
 11
552.4247002381
 21
202.2311732816
  0
LINE
  5
497
100
AcDbEntity
  8
KONSTRUKTIONSELEMENTE
100
AcDbLine
 62
7
  6
CONTINUOUS
 10
552.4247002381
 20
202.2311732816
 11
552.4044494836
 21
202.2858297962
  0
LINE
  5
498
100
AcDbEntity
  8
KONSTRUKTIONSELEMENTE
100
AcDbLine
 62
7
  6
CONTINUOUS
 10
552.4044494836
 20
202.2858297962
 11
552.3357632593
 21
202.4712098431
  0
LINE
  5
499
100
AcDbEntity
  8
KONSTRUKTIONSELEMENTE
100
AcDbLine
 62
7
  6
CONTINUOUS
 10
552.9302572569
 20
200.9034976399
 11
552.8618010519
 21
201.0513260254
  0
LINE
  5
49A
100
AcDbEntity
  8
KONSTRUKTIONSELEMENTE
100
AcDbLine
 62
7
  6
CONTINUOUS
 10
552.9822052126
 20
200.8368547617
 11
552.9302572569
 21
200.9034976399
  0
LINE
  5
49B
100
AcDbEntity
  8
KONSTRUKTIONSELEMENTE
100
AcDbLine
 62
7
  6
CONTINUOUS
 10
552.5174418612
 20
204.6550562632
 11
552.4512749161
 21
204.8118101079
  0
LINE
  5
49C
100
AcDbEntity
  8
KONSTRUKTIONSELEMENTE
100
AcDbLine
 62
7
  6
CONTINUOUS
 10
552.6012629142
 20
204.4170335166
 11
552.5873708072
 21
204.4565008059
  0
LINE
  5
49D
100
AcDbEntity
  8
KONSTRUKTIONSELEMENTE
100
AcDbLine
 62
7
  6
CONTINUOUS
 10
552.5873708072
 20
204.4565008059
 11
552.5174418612
 21
204.6550562632
  0
LINE
  5
49E
100
AcDbEntity
  8
KONSTRUKTIONSELEMENTE
100
AcDbLine
 62
7
  6
CONTINUOUS
 10
552.8553601963
 20
203.618805869
 11
552.6865855164
 21
204.1490298451
  0
LINE
  5
49F
100
AcDbEntity
  8
KONSTRUKTIONSELEMENTE
100
AcDbLine
 62
7
  6
CONTINUOUS
 10
552.6865855164
 20
204.1490298451
 11
552.6440019776
 21
204.2827911165
  0
LINE
  5
4A0
100
AcDbEntity
  8
KONSTRUKTIONSELEMENTE
100
AcDbLine
 62
7
  6
CONTINUOUS
 10
552.6440019776
 20
204.2827911165
 11
552.6012629142
 21
204.4170335166
  0
LINE
  5
4A1
100
AcDbEntity
  8
KONSTRUKTIONSELEMENTE
100
AcDbLine
 62
7
  6
CONTINUOUS
 10
552.9410421492
 20
203.3246767511
 11
552.8553601963
 21
203.618805869
  0
LINE
  5
4A2
100
AcDbEntity
  8
KONSTRUKTIONSELEMENTE
100
AcDbLine
 62
7
  6
CONTINUOUS
 10
553.0106858857
 20
203.0557091863
 11
552.9410421492
 21
203.3246767511
  0
LINE
  5
4A3
100
AcDbEntity
  8
KONSTRUKTIONSELEMENTE
100
AcDbLine
 62
7
  6
CONTINUOUS
 10
553.0300873715
 20
202.1328397381
 11
552.436414127
 21
203.9953710028
  0
LINE
  5
4A4
100
AcDbEntity
  8
KONSTRUKTIONSELEMENTE
100
AcDbLine
 62
7
  6
CONTINUOUS
 10
553.1318327457
 20
202.6800804784
 11
553.1325676033
 21
202.6525678272
  0
LINE
  5
4A5
100
AcDbEntity
  8
KONSTRUKTIONSELEMENTE
100
AcDbLine
 62
7
  6
CONTINUOUS
 10
552.3309934996
 20
205.3398342953
 11
552.4587387667
 21
204.9353950778
  0
LINE
  5
4A6
100
AcDbEntity
  8
KONSTRUKTIONSELEMENTE
100
AcDbLine
 62
7
  6
CONTINUOUS
 10
552.4587387667
 20
204.9353950778
 11
552.463534681
 21
204.9202103111
  0
LINE
  5
4A7
100
AcDbEntity
  8
KONSTRUKTIONSELEMENTE
100
AcDbLine
 62
7
  6
CONTINUOUS
 10
552.463534681
 20
204.9202103111
 11
552.4674577919
 21
204.907788949
  0
LINE
  5
4A8
100
AcDbEntity
  8
KONSTRUKTIONSELEMENTE
100
AcDbLine
 62
7
  6
CONTINUOUS
 10
552.4674577919
 20
204.907788949
 11
552.4935538789
 21
204.825162191
  0
LINE
  5
4A9
100
AcDbEntity
  8
KONSTRUKTIONSELEMENTE
100
AcDbLine
 62
7
  6
CONTINUOUS
 10
552.4935538789
 20
204.825162191
 11
552.5445706863
 21
204.6636236654
  0
LINE
  5
4AA
100
AcDbEntity
  8
KONSTRUKTIONSELEMENTE
100
AcDbLine
 62
7
  6
CONTINUOUS
 10
552.5445706863
 20
204.6636236654
 11
552.6024342111
 21
204.4803950647
  0
LINE
  5
4AB
100
AcDbEntity
  8
KONSTRUKTIONSELEMENTE
100
AcDbLine
 62
7
  6
CONTINUOUS
 10
552.6024342111
 20
204.4803950647
 11
552.6205224971
 21
204.4231149143
  0
LINE
  5
4AC
100
AcDbEntity
  8
KONSTRUKTIONSELEMENTE
100
AcDbLine
 62
7
  6
CONTINUOUS
 10
552.6205224971
 20
204.4231149143
 11
552.819438536
 21
203.7931256887
  0
LINE
  5
4AD
100
AcDbEntity
  8
KONSTRUKTIONSELEMENTE
100
AcDbLine
 62
7
  6
CONTINUOUS
 10
552.819438536
 20
203.7931256887
 11
552.8679182582
 21
203.639560527
  0
LINE
  5
4AE
100
AcDbEntity
  8
KONSTRUKTIONSELEMENTE
100
AcDbLine
 62
7
  6
CONTINUOUS
 10
552.8679182582
 20
203.639560527
 11
552.8727384894
 21
203.624291325
  0
LINE
  5
4AF
100
AcDbEntity
  8
KONSTRUKTIONSELEMENTE
100
AcDbLine
 62
7
  6
CONTINUOUS
 10
552.8727384894
 20
203.624291325
 11
552.9649346669
 21
203.3322182077
  0
LINE
  5
4B0
100
AcDbEntity
  8
KONSTRUKTIONSELEMENTE
100
AcDbLine
 62
7
  6
CONTINUOUS
 10
552.9649346669
 20
203.3322182077
 11
552.9983903445
 21
203.2262222747
  0
LINE
  5
4B1
100
AcDbEntity
  8
KONSTRUKTIONSELEMENTE
100
AcDbLine
 62
7
  6
CONTINUOUS
 10
552.9983903445
 20
203.2262222747
 11
553.0484452519
 21
203.0676254428
  0
LINE
  5
4B2
100
AcDbEntity
  8
KONSTRUKTIONSELEMENTE
100
AcDbLine
 62
7
  6
CONTINUOUS
 10
553.0484452519
 20
203.0676254428
 11
553.1273467809
 21
202.8176028406
  0
LINE
  5
4B3
100
AcDbEntity
  8
KONSTRUKTIONSELEMENTE
100
AcDbLine
 62
7
  6
CONTINUOUS
 10
553.0929073963
 20
200.4852195985
 11
553.086758651
 21
200.4773083377
  0
LINE
  5
4B4
100
AcDbEntity
  8
KONSTRUKTIONSELEMENTE
100
AcDbLine
 62
7
  6
CONTINUOUS
 10
553.086758651
 20
200.4773083377
 11
553.0805794135
 21
200.4693865458
  0
LINE
  5
4B5
100
AcDbEntity
  8
KONSTRUKTIONSELEMENTE
100
AcDbLine
 62
7
  6
CONTINUOUS
 10
553.1363455169
 20
200.6454006047
 11
553.1332463267
 21
200.6239548951
  0
LINE
  5
4B6
100
AcDbEntity
  8
KONSTRUKTIONSELEMENTE
100
AcDbLine
 62
7
  6
CONTINUOUS
 10
553.123727447
 20
200.5596321448
 11
553.1204810345
 21
200.5381955279
  0
LINE
  5
4B7
100
AcDbEntity
  8
KONSTRUKTIONSELEMENTE
100
AcDbLine
 62
7
  6
CONTINUOUS
 10
553.1204810345
 20
200.5381955279
 11
553.1171980782
 21
200.516760974
  0
LINE
  5
4B8
100
AcDbEntity
  8
KONSTRUKTIONSELEMENTE
100
AcDbLine
 62
7
  6
CONTINUOUS
 10
553.1368359521
 20
200.960262653
 11
553.13706075
 21
200.907785248
  0
LINE
  5
4B9
100
AcDbEntity
  8
KONSTRUKTIONSELEMENTE
100
AcDbLine
 62
7
  6
CONTINUOUS
 10
553.1182276205
 20
201.1814692088
 11
553.1214211343
 21
201.1446114166
  0
LINE
  5
4BA
100
AcDbEntity
  8
KONSTRUKTIONSELEMENTE
100
AcDbLine
 62
7
  6
CONTINUOUS
 10
553.1338270219
 20
200.9971409978
 11
553.1368359521
 21
200.960262653
  0
LINE
  5
4BB
100
AcDbEntity
  8
KONSTRUKTIONSELEMENTE
100
AcDbLine
 62
7
  6
CONTINUOUS
 10
553.0820268532
 20
201.4139726907
 11
553.0881362698
 21
201.3750979779
  0
LINE
  5
4BC
100
AcDbEntity
  8
KONSTRUKTIONSELEMENTE
100
AcDbLine
 62
7
  6
CONTINUOUS
 10
553.1122698707
 20
201.220097967
 11
553.1182276205
 21
201.1814692088
  0
LINE
  5
4BD
100
AcDbEntity
  8
KONSTRUKTIONSELEMENTE
100
AcDbLine
 62
7
  6
CONTINUOUS
 10
553.0316621324
 20
201.645228894
 11
553.0586653272
 21
201.5214530312
  0
LINE
  5
4BE
100
AcDbEntity
  8
KONSTRUKTIONSELEMENTE
100
AcDbLine
 62
7
  6
CONTINUOUS
 10
553.0586653272
 20
201.5214530312
 11
553.0820268532
 21
201.4139726907
  0
SPLINE
  5
4BF
100
AcDbEntity
  8
0
100
AcDbSpline
 62
7
  6
CONTINUOUS
 70
0
 71
3
 72
9
 73
5
 74
0
 42
0.0000001
 43
0.0000001
 44
0.0000000001
 40
0.0
 40
0.0
 40
0.0
 40
0.0
 40
0.5000000002
 40
1.0
 40
1.0
 40
1.0
 40
1.0
 10
547.4554126057
 20
207.4386595999
 30
0.0
 10
547.2912867032
 20
205.8237764178
 30
0.0
 10
547.1128960607
 20
202.575646812
 30
0.0
 10
547.2912867034
 20
199.3275172062
 30
0.0
 10
547.4554126057
 20
197.7126340257
 30
0.0
  0
SPLINE
  5
4C0
100
AcDbEntity
  8
0
100
AcDbSpline
 62
7
  6
CONTINUOUS
 70
0
 71
3
 72
9
 73
5
 74
0
 42
0.0000001
 43
0.0000001
 44
0.0000000001
 40
0.0
 40
0.0
 40
0.0
 40
0.0
 40
0.5000035865
 40
1.0
 40
1.0
 40
1.0
 40
1.0
 10
547.4554126057
 20
197.7126340257
 30
0.0
 10
547.3148795328
 20
196.0034655168
 30
0.0
 10
547.1431367554
 20
192.5747103814
 30
0.0
 10
547.2291101458
 20
189.1424061199
 30
0.0
 10
547.3315725475
 20
187.4305581096
 30
0.0
  0
LINE
  5
4C1
100
AcDbEntity
  8
KONSTRUKTIONSELEMENTE
100
AcDbLine
 62
7
  6
CONTINUOUS
 10
551.5023017904
 20
204.1463418287
 11
551.6977173294
 21
203.5326864989
  0
LINE
  5
4C2
100
AcDbEntity
  8
KONSTRUKTIONSELEMENTE
100
AcDbLine
 62
7
  6
CONTINUOUS
 10
551.5039713333
 20
202.2589145032
 11
551.9022645473
 21
201.1827387117
  0
SPLINE
  5
4C3
100
AcDbEntity
  8
0
100
AcDbSpline
 62
7
  6
CONTINUOUS
 70
0
 71
3
 72
10
 73
6
 74
0
 42
0.0000001
 43
0.0000001
 44
0.0000000001
 40
0.0
 40
0.0
 40
0.0
 40
0.0
 40
0.5197649714
 40
0.7678605243
 40
1.0
 40
1.0
 40
1.0
 40
1.0
 10
545.856610054
 20
171.3452793217
 30
0.0
 10
546.1314195912
 20
171.8322884685
 30
0.0
 10
546.5370765565
 20
172.5522151475
 30
0.0
 10
547.0260197435
 20
173.510682864
 30
0.0
 10
547.2374348587
 20
173.9827550164
 30
0.0
 10
547.327944057
 20
174.2155272477
 30
0.0
  0
SPLINE
  5
4C4
100
AcDbEntity
  8
0
100
AcDbSpline
 62
7
  6
CONTINUOUS
 70
0
 71
3
 72
13
 73
9
 74
0
 42
0.0000001
 43
0.0000001
 44
0.0000000001
 40
0.0
 40
0.0
 40
0.0
 40
0.0
 40
0.3768862323
 40
0.7001627069
 40
0.8261459541
 40
0.9208373056
 40
0.9798022726
 40
1.0
 40
1.0
 40
1.0
 40
1.0
 10
542.4358739119
 20
166.0898549395
 30
0.0
 10
542.1886490273
 20
166.0171213483
 30
0.0
 10
541.7294768216
 20
165.8816153054
 30
0.0
 10
541.1880092231
 20
165.7206533863
 30
0.0
 10
540.831733426
 20
165.6138373907
 30
0.0
 10
540.6488272219
 20
165.5581544406
 30
0.0
 10
540.534997652
 20
165.5237979976
 30
0.0
 10
540.483789145
 20
165.5062609202
 30
0.0
 10
540.4707787247
 20
165.5016196454
 30
0.0
  0
LINE
  5
4C5
100
AcDbEntity
  8
KONSTRUKTIONSELEMENTE
100
AcDbLine
 62
7
  6
CONTINUOUS
 10
551.8225473831
 20
202.4712100319
 11
551.5079281974
 21
203.3203907977
  0
LINE
  5
4C6
100
AcDbEntity
  8
KONSTRUKTIONSELEMENTE
100
AcDbLine
 62
7
  6
CONTINUOUS
 10
552.3309935056
 20
199.9653277655
 11
552.5768136607
 21
199.4282856443
  0
LINE
  5
4C7
100
AcDbEntity
  8
KONSTRUKTIONSELEMENTE
100
AcDbLine
 62
7
  6
CONTINUOUS
 10
552.5768136607
 20
199.4282856443
 11
552.6785082926
 21
199.2060726515
  0
LINE
  5
4C8
100
AcDbEntity
  8
KONSTRUKTIONSELEMENTE
100
AcDbLine
 62
7
  6
CONTINUOUS
 10
552.6785082926
 20
199.2060726515
 11
553.0343427669
 21
198.4283096927
  0
LINE
  5
4C9
100
AcDbEntity
  8
KONSTRUKTIONSELEMENTE
100
AcDbLine
 62
7
  6
CONTINUOUS
 10
553.0343427669
 20
198.4283096927
 11
553.1273467883
 21
198.224958372
  0
LINE
  5
4CA
100
AcDbEntity
  8
0
100
AcDbLine
 62
7
  6
CONTINUOUS
 10
548.9707741234
 20
172.8337785584
 11
548.9707787247
 21
171.4244333551
  0
LINE
  5
4CB
100
AcDbEntity
  8
KONSTRUKTIONSELEMENTE
100
AcDbLine
 62
7
  6
CONTINUOUS
 10
552.624794738
 20
200.5772209085
 11
552.659690957
 21
200.4204033735
  0
LINE
  5
4CC
100
AcDbEntity
  8
KONSTRUKTIONSELEMENTE
100
AcDbLine
 62
7
  6
CONTINUOUS
 10
552.5733440312
 20
200.72968788
 11
552.624794738
 21
200.5772209085
  0
LINE
  5
4CD
100
AcDbEntity
  8
KONSTRUKTIONSELEMENTE
100
AcDbLine
 62
7
  6
CONTINUOUS
 10
552.5224357686
 20
200.8407753786
 11
552.5733440312
 21
200.72968788
  0
LINE
  5
4CE
100
AcDbEntity
  8
KONSTRUKTIONSELEMENTE
100
AcDbLine
 62
7
  6
CONTINUOUS
 10
552.4720494238
 20
200.9104831968
 11
552.488901171
 21
200.8871786034
  0
LINE
  5
4CF
100
AcDbEntity
  8
KONSTRUKTIONSELEMENTE
100
AcDbLine
 62
7
  6
CONTINUOUS
 10
552.488901171
 20
200.8871786034
 11
552.4973059361
 21
200.8755520536
  0
LINE
  5
4D0
100
AcDbEntity
  8
KONSTRUKTIONSELEMENTE
100
AcDbLine
 62
7
  6
CONTINUOUS
 10
552.4973059361
 20
200.8755520536
 11
552.5224357686
 21
200.8407753786
  0
LINE
  5
4D1
100
AcDbEntity
  8
KONSTRUKTIONSELEMENTE
100
AcDbLine
 62
7
  6
CONTINUOUS
 10
552.9428962202
 20
200.6453998049
 11
553.0123669038
 21
200.5329540958
  0
LINE
  5
4D2
100
AcDbEntity
  8
KONSTRUKTIONSELEMENTE
100
AcDbLine
 62
7
  6
CONTINUOUS
 10
552.8572711304
 20
200.8390306855
 11
552.9428962202
 21
200.6453998049
  0
LINE
  5
4D3
100
AcDbEntity
  8
KONSTRUKTIONSELEMENTE
100
AcDbLine
 62
7
  6
CONTINUOUS
 10
552.3318063937
 20
202.2589145032
 11
552.771217394
 21
201.071614751
  0
LINE
  5
4D4
100
AcDbEntity
  8
KONSTRUKTIONSELEMENTE
100
AcDbLine
 62
7
  6
CONTINUOUS
 10
552.771217394
 20
201.071614751
 11
552.788727963
 21
201.0242895166
  0
LINE
  5
4D5
100
AcDbEntity
  8
KONSTRUKTIONSELEMENTE
100
AcDbLine
 62
7
  6
CONTINUOUS
 10
552.788727963
 20
201.0242895166
 11
552.8572711304
 21
200.8390306855
  0
LINE
  5
4D6
100
AcDbEntity
  8
KONSTRUKTIONSELEMENTE
100
AcDbLine
 62
7
  6
CONTINUOUS
 10
552.9302572585
 20
201.6819135825
 11
552.9822052112
 21
201.4737404777
  0
LINE
  5
4D7
100
AcDbEntity
  8
KONSTRUKTIONSELEMENTE
100
AcDbLine
 62
7
  6
CONTINUOUS
 10
552.8618010502
 20
201.9005069801
 11
552.8846887746
 21
201.8274332261
  0
LINE
  5
4D8
100
AcDbEntity
  8
KONSTRUKTIONSELEMENTE
100
AcDbLine
 62
7
  6
CONTINUOUS
 10
552.8846887746
 20
201.8274332261
 11
552.9302572585
 21
201.6819135825
  0
LINE
  5
4D9
100
AcDbEntity
  8
KONSTRUKTIONSELEMENTE
100
AcDbLine
 62
7
  6
CONTINUOUS
 10
552.3357632578
 20
203.3203907977
 11
552.672828202
 21
202.4106228197
  0
LINE
  5
4DA
100
AcDbEntity
  8
KONSTRUKTIONSELEMENTE
100
AcDbLine
 62
7
  6
CONTINUOUS
 10
552.672828202
 20
202.4106228197
 11
552.6884449966
 21
202.3684684649
  0
LINE
  5
4DB
100
AcDbEntity
  8
KONSTRUKTIONSELEMENTE
100
AcDbLine
 62
7
  6
CONTINUOUS
 10
552.6884449966
 20
202.3684684649
 11
552.7753730406
 21
202.1338180414
  0
LINE
  5
4DC
100
AcDbEntity
  8
KONSTRUKTIONSELEMENTE
100
AcDbLine
 62
7
  6
CONTINUOUS
 10
552.7753730406
 20
202.1338180414
 11
552.7921015142
 21
202.0886606213
  0
LINE
  5
4DD
100
AcDbEntity
  8
KONSTRUKTIONSELEMENTE
100
AcDbLine
 62
7
  6
CONTINUOUS
 10
552.7921015142
 20
202.0886606213
 11
552.8618010502
 21
201.9005069801
  0
SPLINE
  5
4DE
100
AcDbEntity
  8
RUNDUNGEN
100
AcDbSpline
 62
7
  6
CONTINUOUS
 70
0
 71
3
 72
10
 73
6
 74
0
 42
0.0000001
 43
0.0000001
 44
0.0000000001
 40
0.0
 40
0.0
 40
0.0
 40
0.0
 40
0.5197649714
 40
0.7678605243
 40
1.0
 40
1.0
 40
1.0
 40
1.0
 10
552.0849473955
 20
171.3452793217
 30
0.0
 10
551.8101378583
 20
171.8322884685
 30
0.0
 10
551.404480893
 20
172.5522151475
 30
0.0
 10
550.915537706
 20
173.510682864
 30
0.0
 10
550.7041225908
 20
173.9827550164
 30
0.0
 10
550.6136133925
 20
174.2155272477
 30
0.0
  0
SPLINE
  5
4DF
100
AcDbEntity
  8
RUNDUNGEN
100
AcDbSpline
 62
7
  6
CONTINUOUS
 70
0
 71
3
 72
13
 73
9
 74
0
 42
0.0000001
 43
0.0000001
 44
0.0000000001
 40
0.0
 40
0.0
 40
0.0
 40
0.0
 40
0.3768862323
 40
0.7001627069
 40
0.8261459541
 40
0.9208373056
 40
0.9798022726
 40
1.0
 40
1.0
 40
1.0
 40
1.0
 10
555.5056835376
 20
166.0898549395
 30
0.0
 10
555.7529084222
 20
166.0171213483
 30
0.0
 10
556.2120806279
 20
165.8816153054
 30
0.0
 10
556.7535482264
 20
165.7206533863
 30
0.0
 10
557.1098240235
 20
165.6138373907
 30
0.0
 10
557.2927302276
 20
165.5581544406
 30
0.0
 10
557.4065597975
 20
165.5237979976
 30
0.0
 10
557.4577683045
 20
165.5062609202
 30
0.0
 10
557.4707787247
 20
165.5016196454
 30
0.0
  0
LINE
  5
4E0
100
AcDbEntity
  8
KONSTRUKTIONSELEMENTE
100
AcDbLine
 62
7
  6
CONTINUOUS
 10
552.3301368508
 20
204.1463418287
 11
552.3835753855
 21
203.9785439334
  0
LINE
  5
4E1
100
AcDbEntity
  8
KONSTRUKTIONSELEMENTE
100
AcDbLine
 62
7
  6
CONTINUOUS
 10
552.3835753855
 20
203.9785439334
 11
552.9664648333
 21
202.1475503557
  0
LINE
  5
4E2
100
AcDbEntity
  8
KONSTRUKTIONSELEMENTE
100
AcDbLine
 62
7
  6
CONTINUOUS
 10
552.9664648333
 20
202.1475503557
 11
552.9765657362
 21
202.1158074314
  0
LINE
  5
4E3
100
AcDbEntity
  8
KONSTRUKTIONSELEMENTE
100
AcDbLine
 62
7
  6
CONTINUOUS
 10
552.9765657362
 20
202.1158074314
 11
553.0507325469
 21
201.8827150729
  0
LINE
  5
4E4
100
AcDbEntity
  8
KONSTRUKTIONSELEMENTE
100
AcDbLine
 62
7
  6
CONTINUOUS
 10
553.0507325469
 20
201.8827150729
 11
553.126287302
 21
201.6452284683
  0
LINE
  5
4E5
100
AcDbEntity
  8
KONSTRUKTIONSELEMENTE
100
AcDbLine
 62
7
  6
CONTINUOUS
 10
552.9290254913
 20
203.2095717194
 11
552.9811635137
 21
202.9938193633
  0
LINE
  5
4E6
100
AcDbEntity
  8
KONSTRUKTIONSELEMENTE
100
AcDbLine
 62
7
  6
CONTINUOUS
 10
552.8604918282
 20
203.4504856657
 11
552.9290254913
 21
203.2095717194
  0
LINE
  5
4E7
100
AcDbEntity
  8
KONSTRUKTIONSELEMENTE
100
AcDbLine
 62
7
  6
CONTINUOUS
 10
552.6060587875
 20
204.2487133133
 11
552.7761970249
 21
203.7149574844
  0
LINE
  5
4E8
100
AcDbEntity
  8
KONSTRUKTIONSELEMENTE
100
AcDbLine
 62
7
  6
CONTINUOUS
 10
552.7761970249
 20
203.7149574844
 11
552.8184091285
 21
203.5825205978
  0
LINE
  5
4E9
100
AcDbEntity
  8
KONSTRUKTIONSELEMENTE
100
AcDbLine
 62
7
  6
CONTINUOUS
 10
552.8184091285
 20
203.5825205978
 11
552.8604918282
 21
203.4504856657
  0
LINE
  5
4EA
100
AcDbEntity
  8
KONSTRUKTIONSELEMENTE
100
AcDbLine
 62
7
  6
CONTINUOUS
 10
552.5388272154
 20
204.4335207393
 11
552.5613225485
 21
204.3717067755
  0
LINE
  5
4EB
100
AcDbEntity
  8
KONSTRUKTIONSELEMENTE
100
AcDbLine
 62
7
  6
CONTINUOUS
 10
552.5613225485
 20
204.3717067755
 11
552.6060587875
 21
204.2487133133
  0
LINE
  5
4EC
100
AcDbEntity
  8
KONSTRUKTIONSELEMENTE
100
AcDbLine
 62
7
  6
CONTINUOUS
 10
552.4890215314
 20
204.5370595615
 11
552.4973842854
 21
204.5197053453
  0
LINE
  5
4ED
100
AcDbEntity
  8
KONSTRUKTIONSELEMENTE
100
AcDbLine
 62
7
  6
CONTINUOUS
 10
552.4973842854
 20
204.5197053453
 11
552.5057222966
 21
204.5023902608
  0
LINE
  5
4EE
100
AcDbEntity
  8
KONSTRUKTIONSELEMENTE
100
AcDbLine
 62
7
  6
CONTINUOUS
 10
552.5057222966
 20
204.5023902608
 11
552.5388272154
 21
204.4335207393
  0
LINE
  5
4EF
100
AcDbEntity
  8
KONSTRUKTIONSELEMENTE
100
AcDbLine
 62
7
  6
CONTINUOUS
 10
552.4836253877
 20
204.5407602589
 11
552.4890215314
 21
204.5370595615
  0
LINE
  5
4F0
100
AcDbEntity
  8
0
100
AcDbLine
 62
7
  6
CONTINUOUS
 10
548.9707787247
 20
164.7299231336
 11
548.9707787247
 21
163.4436218196
  0
LINE
  5
4F1
100
AcDbEntity
  8
KONSTRUKTIONSELEMENTE
100
AcDbLine
 62
7
  6
CONTINUOUS
 10
551.5031584452
 20
199.9653277655
 11
552.2995117279
 21
198.224958372
  0
SPLINE
  5
4F2
100
AcDbEntity
  8
0
100
AcDbSpline
 62
7
  6
CONTINUOUS
 70
0
 71
3
 72
9
 73
5
 74
0
 42
0.0000001
 43
0.0000001
 44
0.0000000001
 40
0.0
 40
0.0
 40
0.0
 40
0.0
 40
0.5000035865
 40
1.0
 40
1.0
 40
1.0
 40
1.0
 10
550.4861448438
 20
197.7126340257
 30
0.0
 10
550.6266779167
 20
196.0034655168
 30
0.0
 10
550.798420694
 20
192.5747103814
 30
0.0
 10
550.7124473037
 20
189.1424061199
 30
0.0
 10
550.609984902
 20
187.4305581096
 30
0.0
  0
SPLINE
  5
4F3
100
AcDbEntity
  8
0
100
AcDbSpline
 62
7
  6
CONTINUOUS
 70
0
 71
3
 72
9
 73
5
 74
0
 42
0.0000001
 43
0.0000001
 44
0.0000000001
 40
0.0
 40
0.0
 40
0.0
 40
0.0
 40
0.5000000002
 40
1.0
 40
1.0
 40
1.0
 40
1.0
 10
550.4861448438
 20
207.4386595999
 30
0.0
 10
550.6502707463
 20
205.8237764178
 30
0.0
 10
550.8286613888
 20
202.575646812
 30
0.0
 10
550.6502707461
 20
199.3275172062
 30
0.0
 10
550.4861448438
 20
197.7126340257
 30
0.0
  0
SPLINE
  5
4F4
100
AcDbEntity
  8
0
100
AcDbSpline
 62
7
  6
CONTINUOUS
 70
0
 71
3
 72
11
 73
7
 74
0
 42
0.0000001
 43
0.0000001
 44
0.0000000001
 40
0.0
 40
0.0
 40
0.0
 40
0.0
 40
0.2520136566
 40
0.5000000002
 40
0.747986344
 40
1.0
 40
1.0
 40
1.0
 40
1.0
 10
547.4554126057
 20
211.1536707938
 30
0.0
 10
547.3742499515
 20
210.8486391152
 30
0.0
 10
547.2467014889
 20
210.2336384998
 30
0.0
 10
547.1799659878
 20
209.2961651959
 30
0.0
 10
547.2467014871
 20
208.3586918924
 30
0.0
 10
547.3742499517
 20
207.7436912779
 30
0.0
 10
547.4554126057
 20
207.4386595999
 30
0.0
  0
SPLINE
  5
4F5
100
AcDbEntity
  8
0
100
AcDbSpline
 62
7
  6
CONTINUOUS
 70
0
 71
3
 72
11
 73
7
 74
0
 42
0.0000001
 43
0.0000001
 44
0.0000000001
 40
0.0
 40
0.0
 40
0.0
 40
0.0
 40
0.2520136566
 40
0.5000000002
 40
0.747986344
 40
1.0
 40
1.0
 40
1.0
 40
1.0
 10
550.4861448438
 20
211.1536707938
 30
0.0
 10
550.567307498
 20
210.8486391152
 30
0.0
 10
550.6948559606
 20
210.2336384998
 30
0.0
 10
550.7615914617
 20
209.2961651959
 30
0.0
 10
550.6948559624
 20
208.3586918924
 30
0.0
 10
550.5673074978
 20
207.7436912779
 30
0.0
 10
550.4861448438
 20
207.4386595999
 30
0.0
  0
ELLIPSE
  5
4F6
100
AcDbEntity
  8
KONSTRUKTIONSELEMENTE
100
AcDbEllipse
 62
7
  6
CONTINUOUS
 10
187.8251197284
 20
102.8670893821
 30
0.0
 11
0.8998502841
 21
0.2699954029
 31
0.0
 40
0.0607989098
 41
-2.7235007144
 42
-1.1527043876
  0
ELLIPSE
  5
4F7
100
AcDbEntity
  8
KONSTRUKTIONSELEMENTE
100
AcDbEllipse
 62
7
  6
CONTINUOUS
 10
190.9551628407
 20
102.9280459702
 30
0.0
 11
0.8872850265
 21
-0.5510331508
 31
0.0
 40
0.7424978488
 41
7.2982401868
 42
8.8690365136
  0
ELLIPSE
  5
4F8
100
AcDbEntity
  8
0
100
AcDbEllipse
 62
7
  6
CONTINUOUS
 10
227.6076605422
 20
168.0016196454
 30
0.0
 11
-0.0
 21
3.6
 31
0.0
 40
0.0174550649
 41
-4.7123889804
 42
-3.5516508528
  0
ELLIPSE
  5
4F9
100
AcDbEntity
  8
0
100
AcDbEllipse
 62
7
  6
CONTINUOUS
 10
197.6076605422
 20
168.0016196454
 30
0.0
 11
0.0
 21
2.5
 31
0.0
 40
0.0174550649
 41
-3.1415926536
 42
0.0
  0
ELLIPSE
  5
4FA
100
AcDbEntity
  8
0
100
AcDbEllipse
 62
7
  6
CONTINUOUS
 10
545.3661295088
 20
178.9221772612
 30
0.0
 11
-0.5477953176
 21
8.6228211114
 31
0.0
 40
0.2314525424
 41
-2.1628157657
 42
-1.8386768464
  0
ELLIPSE
  5
4FB
100
AcDbEntity
  8
RUNDUNGEN
100
AcDbEllipse
 62
7
  6
CONTINUOUS
 10
552.5754279407
 20
178.9221772612
 30
0.0
 11
0.5477953176
 21
8.6228211114
 31
0.0
 40
0.2314525424
 41
-4.4445084607
 42
-4.1203695415
  0
ELLIPSE
  5
4FC
100
AcDbEntity
  8
KONSTRUKTIONSELEMENTE
100
AcDbEllipse
 62
7
  6
CONTINUOUS
 10
439.7362484614
 20
104.564145657
 30
0.0
 11
0.0
 21
1.2426219487
 31
0.0
 40
0.2216946626
 41
-4.4942228239
 42
-3.3588217884
  0
ELLIPSE
  5
4FD
100
AcDbEntity
  8
KONSTRUKTIONSELEMENTE
100
AcDbEllipse
 62
7
  6
CONTINUOUS
 10
441.4333047363
 20
102.8670893821
 30
0.0
 11
1.2426219487
 21
-0.0
 31
0.0
 40
0.2216946626
 41
-2.9243635187
 42
-1.7889624833
  0
ENDSEC
  0
SECTION
  2
OBJECTS
  0
DICTIONARY
  5
C
100
AcDbDictionary
280
0
281
1
  3
ACAD_GROUP
350
D
  3
ACAD_MLINESTYLE
350
17
  3
ACAD_LAYOUT
350
1A
  3
ACAD_PLOTSETTINGS
350
19
  3
ACAD_PLOTSTYLENAME
350
E
  0
DICTIONARY
  5
D
102
{ACAD_REACTORS
330
C
102
}
100
AcDbDictionary
280
0
281
1
  0
ACDBDICTIONARYWDFLT
  5
E
102
{ACAD_REACTORS
330
C
102
}
100
AcDbDictionary
281
1
  3
Normal
350
F
100
AcDbDictionaryWithDefault
340
F
  0
DICTIONARY
  5
17
102
{ACAD_REACTORS
330
C
102
}
100
AcDbDictionary
280
0
281
1
  3
Standard
350
18
  0
DICTIONARY
  5
19
102
{ACAD_REACTORS
330
C
102
}
100
AcDbDictionary
281
1
  0
DICTIONARY
  5
1A
102
{ACAD_REACTORS
330
C
102
}
100
AcDbDictionary
281
1
  3
Model
350
4FE
  3
Layout1
350
4FF
  0
ACDBPLACEHOLDER
  5
F
102
{ACAD_REACTORS
330
E
102
}
  0
MLINESTYLE
  5
18
102
{ACAD_REACTORS
330
17
102
}
100
AcDbMlineStyle
  2
STANDARD
 70
0
  3

 62
256
 51
90.0
 52
90.0
 71
2
 49
0.5
 62
256
  6
BYLAYER
 49
-0.5
 62
256
  6
BYLAYER
  0
LAYOUT
  5
4FE
102
{ACAD_REACTORS
330
1A
102
}
100
AcDbPlotSettings
  1

  2
none_device
  4
ISO_A1_(594.00_x_841.00_MM)
  6

 40
0.0
 41
0.0
 42
0.0
 43
0.0
 44
841.0
 45
594.0
 46
0.0
 47
0.0
 48
0.0
 49
0.0
140
0.0
141
0.0
142
1.0
143
1.0
 70
1024
 72
1
 73
0
 74
0
  7

 75
0
147
1.0
148
0.0
149
0.0
100
AcDbLayout
  1
Model
 70
0
 71
0
 10
0.0
 20
0.0
 11
841.0
 21
594.0
 12
0.0
 22
0.0
 32
0.0
 14
0.0
 24
0.0
 34
0.0
 15
0.0
 25
0.0
 35
0.0
146
0.0
 13
0.0
 23
0.0
 33
0.0
 16
1.0
 26
0.0
 36
0.0
 17
0.0
 27
1.0
 37
0.0
 76
0
330
20D
345
0
346
0
  0
LAYOUT
  5
4FF
102
{ACAD_REACTORS
330
1A
102
}
100
AcDbPlotSettings
  1

  2
none_device
  4
ISO_A1_(594.00_x_841.00_MM)
  6

 40
0.0
 41
0.0
 42
0.0
 43
0.0
 44
841.0
 45
594.0
 46
0.0
 47
0.0
 48
0.0
 49
0.0
140
0.0
141
0.0
142
1.0
143
1.0
 70
0
 72
1
 73
0
 74
0
  7

 75
0
147
1.0
148
0.0
149
0.0
100
AcDbLayout
  1
Layout1
 70
0
 71
1
 10
0.0
 20
0.0
 11
841.0
 21
594.0
 12
0.0
 22
0.0
 32
0.0
 14
0.0
 24
0.0
 34
0.0
 15
0.0
 25
0.0
 35
0.0
146
0.0
 13
0.0
 23
0.0
 33
0.0
 16
1.0
 26
0.0
 36
0.0
 17
0.0
 27
1.0
 37
0.0
 76
0
330
20E
345
0
346
0
  0
ENDSEC
  0
EOF
