999
DXF file: VSAK-1-22_250_7100699_M32082-P-5.dxf
999
Pro/ENGINEER 2010140 by Parametric Technology Corporation
  0
SECTION
  2
HEADER
  9
$ACADVER
  1
AC1015
  9
$DWGCODEPAGE
  3
ANSI_1252
  9
$EXTMAX
 10
1189.0
 20
841.0
 30
0.0
  9
$EXTMIN
 10
0.0
 20
0.0
 30
0.0
  9
$LIMMIN
 10
0.0
 20
0.0
  9
$LIMMAX
 10
1189.0
 20
841.0
  9
$VIEWCTR
 10
594.5
 20
420.5
  9
$VIEWSIZE
 40
841.0
  9
$CLAYER
  8
0
  9
$LTSCALE
 40
65.395
  9
$CELTYPE
  6
BYLAYER
  9
$DIMSCALE
 40
1.0
  9
$DIMASZ
 40
3.5
  9
$DIMEXO
 40
7.43125
  9
$DIMDLI
 40
45.182
  9
$DIMEXE
 40
21.402
  9
$DIMCEN
 40
10.701
  9
$DIMLFAC
 40
1.0
  9
$DIMBLK
  1
_FILLED
  9
$DIMTXT
 40
3.5
  9
$DIMTOL
 70
1
  9
$DIMLIM
 70
0
  9
$DIMTFAC
 40
1.0
  9
$DIMTP
 40
0.005
  9
$DIMTM
 40
0.005
  9
$PDMODE
 70
3
  9
$PDSIZE
 40
0.3125
  9
$HANDSEED
  5
57D
  9
$TILEMODE
 70
1
  9
$MEASUREMENT
 70
1
  9
$INSUNITS
 70
4
  0
ENDSEC
  0
SECTION
  2
CLASSES
  0
CLASS
  1
ACDBDICTIONARYWDFLT
  2
AcDbDictionaryWithDefault
  3
AutoCAD 2000
 90
0
280
0
281
0
  0
CLASS
  1
ACDBPLACEHOLDER
  2
AcDbPlaceHolder
  3
AutoCAD 2000
 90
0
280
0
281
0
  0
CLASS
  1
LAYOUT
  2
AcDbLayout
  3
AutoCAD 2000
 90
0
280
0
281
0
  0
ENDSEC
  0
SECTION
  2
TABLES
  0
TABLE
  2
VPORT
  5
8
100
AcDbSymbolTable
 70
2
  0
VPORT
  5
1F4
100
AcDbSymbolTableRecord
100
AcDbViewportTableRecord
  2
*ACTIVE
 70
0
 10
0.0
 20
0.0
 11
1.0
 21
1.0
 12
594.5
 22
420.5
 13
0.0
 23
0.0
 14
1.0
 24
1.0
 15
0.0
 25
0.0
 16
0.0
 26
0.0
 36
1.0
 17
0.0
 27
0.0
 37
0.0
 40
841.0
 41
1.4137931034
 42
50.0
 43
0.0
 44
0.0
 50
0.0
 51
0.0
 71
0
 72
100
 73
1
 74
1
 75
0
 76
0
 77
0
 78
0
  0
ENDTAB
  0
TABLE
  2
LTYPE
  5
5
100
AcDbSymbolTable
 70
6
  0
LTYPE
  5
14
100
AcDbSymbolTableRecord
100
AcDbLinetypeTableRecord
  2
BYBLOCK
 70
0
  3

 72
65
 73
0
 40
0.0
  0
LTYPE
  5
15
100
AcDbSymbolTableRecord
100
AcDbLinetypeTableRecord
  2
BYLAYER
 70
0
  3

 72
65
 73
0
 40
0.0
  0
LTYPE
  5
16
100
AcDbSymbolTableRecord
100
AcDbLinetypeTableRecord
  2
CONTINUOUS
 70
64
  3
Solid line
 72
65
 73
0
 40
0.0
  0
LTYPE
  5
1F5
100
AcDbSymbolTableRecord
100
AcDbLinetypeTableRecord
  2
CENTER
 70
64
  3
____ _ ____ _ ____ _ ____ _ ____ _ ____ _ ____
 72
65
 73
4
 40
0.6
 49
0.375
 74
0
 49
-0.075
 74
0
 49
0.075
 74
0
 49
-0.075
 74
0
  0
LTYPE
  5
1F6
100
AcDbSymbolTableRecord
100
AcDbLinetypeTableRecord
  2
HIDDEN
 70
64
  3
- - - - - - - - - - - - - - - - - - - -
 72
65
 73
2
 40
0.2
 49
0.1
 74
0
 49
-0.1
 74
0
  0
LTYPE
  5
1F7
100
AcDbSymbolTableRecord
100
AcDbLinetypeTableRecord
  2
PHANTOM
 70
64
  3
_____ _ _ _____ _ _ _____ _ _ _____
 72
65
 73
6
 40
0.8
 49
0.45
 74
0
 49
-0.05
 74
0
 49
0.1
 74
0
 49
-0.05
 74
0
 49
0.1
 74
0
 49
-0.05
 74
0
  0
LTYPE
  5
1F8
100
AcDbSymbolTableRecord
100
AcDbLinetypeTableRecord
  2
DOT
 70
64
  3
. . . . . . . . . . . . . . . . . . . .
 72
65
 73
2
 40
0.2
 49
0.1
 74
0
 49
-0.1
 74
0
  0
LTYPE
  5
1F9
100
AcDbSymbolTableRecord
100
AcDbLinetypeTableRecord
  2
DASHED
 70
64
  3
- - - - - - - - - - - - - - - - - - - -
 72
65
 73
2
 40
0.2
 49
0.1
 74
0
 49
-0.1
 74
0
  0
ENDTAB
  0
TABLE
  2
LAYER
  5
2
100
AcDbSymbolTable
 70
36
  0
LAYER
  5
10
100
AcDbSymbolTableRecord
100
AcDbLayerTableRecord
  2
0
 70
0
 62
7
  6
CONTINUOUS
370
-3
390
F
  0
LAYER
  5
1FA
100
AcDbSymbolTableRecord
100
AcDbLayerTableRecord
  2
DEFAULT_1
 70
0
 62
7
  6
CENTER
370
-3
390
F
  0
LAYER
  5
1FB
100
AcDbSymbolTableRecord
100
AcDbLayerTableRecord
  2
DEFAULT_2
 70
0
 62
8
  6
HIDDEN
370
-3
390
F
  0
LAYER
  5
1FC
100
AcDbSymbolTableRecord
100
AcDbLayerTableRecord
  2
DEFAULT_3
 70
0
 62
7
  6
PHANTOM
370
-3
390
F
  0
LAYER
  5
1FD
100
AcDbSymbolTableRecord
100
AcDbLayerTableRecord
  2
BEZUGSACHSEN
 70
0
 62
7
  6
CONTINUOUS
370
-3
390
F
  0
LAYER
  5
1FE
100
AcDbSymbolTableRecord
100
AcDbLayerTableRecord
  2
BEZUGSEBENEN
 70
0
 62
7
  6
CONTINUOUS
370
-3
390
F
  0
LAYER
  5
1FF
100
AcDbSymbolTableRecord
100
AcDbLayerTableRecord
  2
BG_STARTBEZUEGE
 70
0
 62
7
  6
CONTINUOUS
370
-3
390
F
  0
LAYER
  5
200
100
AcDbSymbolTableRecord
100
AcDbLayerTableRecord
  2
FASEN
 70
0
 62
7
  6
CONTINUOUS
370
-3
390
F
  0
LAYER
  5
201
100
AcDbSymbolTableRecord
100
AcDbLayerTableRecord
  2
HILFEN
 70
0
 62
7
  6
CONTINUOUS
370
-3
390
F
  0
LAYER
  5
202
100
AcDbSymbolTableRecord
100
AcDbLayerTableRecord
  2
KONSTRUKTIONSELEMENTE
 70
0
 62
7
  6
CONTINUOUS
370
-3
390
F
  0
LAYER
  5
203
100
AcDbSymbolTableRecord
100
AcDbLayerTableRecord
  2
NORM
 70
0
 62
7
  6
CONTINUOUS
370
-3
390
F
  0
LAYER
  5
204
100
AcDbSymbolTableRecord
100
AcDbLayerTableRecord
  2
PLATZIERUNG
 70
0
 62
7
  6
CONTINUOUS
370
-3
390
F
  0
LAYER
  5
205
100
AcDbSymbolTableRecord
100
AcDbLayerTableRecord
  2
RUNDUNGEN
 70
0
 62
7
  6
CONTINUOUS
370
-3
390
F
  0
LAYER
  5
206
100
AcDbSymbolTableRecord
100
AcDbLayerTableRecord
  2
TEIL_STARTBEZUEGE
 70
0
 62
7
  6
CONTINUOUS
370
-3
390
F
  0
LAYER
  5
207
100
AcDbSymbolTableRecord
100
AcDbLayerTableRecord
  2
T_STARTBEZUEGE
 70
0
 62
7
  6
CONTINUOUS
370
-3
390
F
  0
ENDTAB
  0
TABLE
  2
STYLE
  5
3
100
AcDbSymbolTable
 70
1
  0
STYLE
  5
11
100
AcDbSymbolTableRecord
100
AcDbTextStyleTableRecord
  2
STANDARD
 70
0
 40
0.0
 41
0.7
 50
0.0
 71
0
 42
0.2
  3
txt
  4

  0
STYLE
  5
208
100
AcDbSymbolTableRecord
100
AcDbTextStyleTableRecord
  2
TEXTSTYLE_1
 70
0
 40
0.0
 41
0.8
 50
0.0
 71
0
 42
0.2
  3
gdt
  4

  0
ENDTAB
  0
TABLE
  2
VIEW
  5
6
100
AcDbSymbolTable
 70
0
  0
ENDTAB
  0
TABLE
  2
UCS
  5
7
100
AcDbSymbolTable
 70
0
  0
ENDTAB
  0
TABLE
  2
APPID
  5
9
100
AcDbSymbolTable
 70
1
  0
APPID
  5
209
100
AcDbSymbolTableRecord
100
AcDbRegAppTableRecord
  2
ACAD
 70
0
  0
ENDTAB
  0
TABLE
  2
BLOCK_RECORD
  5
1
100
AcDbSymbolTable
 70
0
  0
BLOCK_RECORD
  5
20A
100
AcDbSymbolTableRecord
100
AcDbBlockTableRecord
  2
*Model_Space
  0
BLOCK_RECORD
  5
20B
100
AcDbSymbolTableRecord
100
AcDbBlockTableRecord
  2
*Paper_Space
  0
ENDTAB
  0
TABLE
  2
DIMSTYLE
  5
A
100
AcDbSymbolTable
 70
1
100
AcDbDimStyleTable
 71
0
  0
DIMSTYLE
105
20C
100
AcDbSymbolTableRecord
100
AcDbDimStyleTableRecord
  2
STANDARD
 70
0
  3

  4

 40
1.0
 41
3.5
 42
0.0625
 43
0.38
 44
0.18
 45
0.0
 46
0.0
 47
0.005
 48
0.005
140
3.5
141
0.09
142
0.0
143
25.4
144
1.0
145
0.0
146
1.0
147
0.09
 71
1.0
 72
0.0
 73
0
 74
0
 75
0
 76
0
 77
1
 78
8
170
0
171
2
172
0
173
0
174
0
175
0
176
0
177
0
178
5
270
2
271
3
272
3
273
2
274
2
275
0
280
0
281
0
282
0
283
1
284
8
285
0
286
0
287
3
288
0
340
11
  0
ENDTAB
  0
ENDSEC
  0
SECTION
  2
BLOCKS
  0
BLOCK
  5
20
100
AcDbEntity
  8
0
100
AcDbBlockBegin
  2
*Model_Space
 70
0
 10
0.0
 20
0.0
 30
0.0
  3
*Model_Space
  1

  0
ENDBLK
  5
21
100
AcDbEntity
  8
0
100
AcDbBlockEnd
  0
BLOCK
  5
1C
100
AcDbEntity
  8
0
100
AcDbBlockBegin
  2
*Paper_Space
 70
0
 10
0.0
 20
0.0
 30
0.0
  3
*Paper_Space
  1

  0
ENDBLK
  5
1D
100
AcDbEntity
  8
0
100
AcDbBlockEnd
  0
ENDSEC
  0
SECTION
  2
ENTITIES
  0
MTEXT
  5
20D
100
AcDbEntity
  8
0
100
AcDbMText
 62
5
  6
CONTINUOUS
  7
STANDARD
 71
1
 72
1
 10
130.6453722363
 20
533.4579182111
 30
0.0
 11
0.0
 21
1.0
 31
0.0
 44
0.9
  1
RUD
 40
12.0
 41
32.0
  0
MTEXT
  5
20E
100
AcDbEntity
  8
0
100
AcDbMText
 62
5
  6
CONTINUOUS
  7
STANDARD
 71
1
 72
1
 10
432.4533453321
 20
486.5789413926
 30
0.0
 11
0.0
 21
1.0
 31
0.0
 44
0.9
  1
VSAK 1-22/250
 40
12.0
 41
121.7142857143
  0
MTEXT
  5
20F
100
AcDbEntity
  8
0
100
AcDbMText
 62
5
  6
CONTINUOUS
  7
STANDARD
 71
1
 72
1
 10
866.3978503556
 20
485.7958009358
 30
0.0
 11
0.0
 21
1.0
 31
0.0
 44
0.9
  1
RUD VSAK 1-22/250
 40
12.0
 41
160.8571428571
  0
LINE
  5
210
100
AcDbEntity
  8
0
100
AcDbLine
 62
7
  6
CONTINUOUS
 10
0.0
 20
0.0
 11
0.0
 21
841.0
  0
LINE
  5
211
100
AcDbEntity
  8
0
100
AcDbLine
 62
7
  6
CONTINUOUS
 10
0.0
 20
0.0
 11
1189.0
 21
0.0
  0
LINE
  5
212
100
AcDbEntity
  8
0
100
AcDbLine
 62
7
  6
CONTINUOUS
 10
0.0
 20
841.0
 11
1189.0
 21
841.0
  0
LINE
  5
213
100
AcDbEntity
  8
0
100
AcDbLine
 62
7
  6
CONTINUOUS
 10
1189.0
 20
0.0
 11
1189.0
 21
841.0
  0
LINE
  5
214
100
AcDbEntity
  8
KONSTRUKTIONSELEMENTE
100
AcDbLine
 62
7
  6
CONTINUOUS
 10
278.4741549298
 20
-115.1406823076
 11
298.4941549298
 21
-115.1406823076
  0
LINE
  5
215
100
AcDbEntity
  8
KONSTRUKTIONSELEMENTE
100
AcDbLine
 62
7
  6
CONTINUOUS
 10
277.3741549298
 20
-114.3628648483
 11
278.4741549298
 21
-114.3628648483
  0
LINE
  5
216
100
AcDbEntity
  8
KONSTRUKTIONSELEMENTE
100
AcDbLine
 62
7
  6
CONTINUOUS
 10
298.4941549298
 20
-114.3628648483
 11
299.5941549298
 21
-114.3628648483
  0
LINE
  5
217
100
AcDbEntity
  8
KONSTRUKTIONSELEMENTE
100
AcDbLine
 62
7
  6
CONTINUOUS
 10
269.6741549298
 20
-84.0279839354
 11
267.2428968353
 21
-84.0279839354
  0
LINE
  5
218
100
AcDbEntity
  8
KONSTRUKTIONSELEMENTE
100
AcDbLine
 62
7
  6
CONTINUOUS
 10
307.2941549298
 20
-84.0279839354
 11
336.489133989
 21
-84.0279839354
  0
LINE
  5
219
100
AcDbEntity
  8
KONSTRUKTIONSELEMENTE
100
AcDbLine
 62
7
  6
CONTINUOUS
 10
348.1153163098
 20
-73.6019511608
 11
334.5152081268
 21
-70.477286586
  0
LINE
  5
21A
100
AcDbEntity
  8
KONSTRUKTIONSELEMENTE
100
AcDbLine
 62
7
  6
CONTINUOUS
 10
348.1153163098
 20
-70.0664172549
 11
334.5152081268
 21
-66.9417526801
  0
LINE
  5
21B
100
AcDbEntity
  8
0
100
AcDbLine
 62
7
  6
CONTINUOUS
 10
325.4052218025
 20
-8.1060867409
 11
318.7436071081
 21
-8.1060867409
  0
LINE
  5
21C
100
AcDbEntity
  8
0
100
AcDbLine
 62
7
  6
CONTINUOUS
 10
258.2247027514
 20
-8.1060867409
 11
251.563088057
 21
-8.1060867409
  0
LINE
  5
21D
100
AcDbEntity
  8
KONSTRUKTIONSELEMENTE
100
AcDbLine
 62
7
  6
CONTINUOUS
 10
227.3868295067
 20
-12.5185963782
 11
240.9869376897
 21
-9.3939318034
  0
LINE
  5
21E
100
AcDbEntity
  8
KONSTRUKTIONSELEMENTE
100
AcDbLine
 62
7
  6
CONTINUOUS
 10
227.3868295067
 20
-11.7407789189
 11
240.9869376897
 21
-8.6161143441
  0
LINE
  5
21F
100
AcDbEntity
  8
KONSTRUKTIONSELEMENTE
100
AcDbLine
 62
7
  6
CONTINUOUS
 10
229.1656412352
 20
-8.0607090259
 11
239.6272629145
 21
-5.6571208914
  0
LINE
  5
220
100
AcDbEntity
  8
KONSTRUKTIONSELEMENTE
100
AcDbLine
 62
7
  6
CONTINUOUS
 10
229.1656412352
 20
-6.0808100386
 11
239.6272629145
 21
-3.6772219041
  0
LINE
  5
221
100
AcDbEntity
  8
KONSTRUKTIONSELEMENTE
100
AcDbLine
 62
7
  6
CONTINUOUS
 10
233.8211390838
 20
9.1753631528
 11
234.037594011
 21
9.2127998167
  0
LINE
  5
222
100
AcDbEntity
  8
0
100
AcDbLine
 62
7
  6
CONTINUOUS
 10
300.8341549298
 20
9.1439132591
 11
276.1341549298
 21
9.1439132591
  0
LINE
  5
223
100
AcDbEntity
  8
KONSTRUKTIONSELEMENTE
100
AcDbLine
 62
7
  6
CONTINUOUS
 10
222.7411779222
 20
6.5569311409
 11
234.3395222328
 21
9.2216846198
  0
LINE
  5
224
100
AcDbEntity
  8
KONSTRUKTIONSELEMENTE
100
AcDbLine
 62
7
  6
CONTINUOUS
 10
233.8211390838
 20
9.1753631528
 11
219.2384466921
 21
5.8249469864
  0
LINE
  5
225
100
AcDbEntity
  8
KONSTRUKTIONSELEMENTE
100
AcDbLine
 62
7
  6
CONTINUOUS
 10
237.4841549298
 20
23.2511817682
 11
223.945776609
 21
20.1406998095
  0
LINE
  5
226
100
AcDbEntity
  8
KONSTRUKTIONSELEMENTE
100
AcDbLine
 62
7
  6
CONTINUOUS
 10
280.7587300704
 20
36.7291756982
 11
280.3876251509
 21
36.6439132591
  0
LINE
  5
227
100
AcDbEntity
  8
KONSTRUKTIONSELEMENTE
100
AcDbLine
 62
7
  6
CONTINUOUS
 10
237.4841549298
 20
26.7867156741
 11
223.945776609
 21
23.6762337155
  0
LINE
  5
228
100
AcDbEntity
  8
0
100
AcDbLine
 62
7
  6
CONTINUOUS
 10
300.8341549298
 20
36.6439132591
 11
276.1341549298
 21
36.6439132591
  0
LINE
  5
229
100
AcDbEntity
  8
KONSTRUKTIONSELEMENTE
100
AcDbLine
 62
7
  6
CONTINUOUS
 10
369.5268335894
 20
5.7167948195
 11
383.1269417725
 21
2.5921302447
  0
LINE
  5
22A
100
AcDbEntity
  8
KONSTRUKTIONSELEMENTE
100
AcDbLine
 62
7
  6
CONTINUOUS
 10
339.4841549298
 20
23.2511817682
 11
378.1304252807
 21
14.3720882868
  0
LINE
  5
22B
100
AcDbEntity
  8
KONSTRUKTIONSELEMENTE
100
AcDbLine
 62
7
  6
CONTINUOUS
 10
378.1304252807
 20
17.9076221928
 11
339.4841549298
 21
26.7867156741
  0
LINE
  5
22C
100
AcDbEntity
  8
KONSTRUKTIONSELEMENTE
100
AcDbLine
 62
7
  6
CONTINUOUS
 10
296.5806847086
 20
36.6439132591
 11
296.2095797891
 21
36.7291756982
  0
LINE
  5
22D
100
AcDbEntity
  8
BEZUGSACHSEN
100
AcDbLine
 62
7
  6
CONTINUOUS
 10
238.6539327142
 20
4.499826382
 11
247.7328658414
 21
-6.3200247894
  0
LINE
  5
22E
100
AcDbEntity
  8
BEZUGSACHSEN
100
AcDbLine
 62
7
  6
CONTINUOUS
 10
336.5964984592
 20
124.1676179268
 11
337.6061713986
 21
124.3259357404
  0
LINE
  5
22F
100
AcDbEntity
  8
BEZUGSACHSEN
100
AcDbLine
 62
7
  6
CONTINUOUS
 10
336.0216690667
 20
126.0100515923
 11
337.0313428295
 21
126.168367789
  0
LINE
  5
230
100
AcDbEntity
  8
BEZUGSACHSEN
100
AcDbLine
 62
7
  6
CONTINUOUS
 10
253.2057375155
 20
136.7305445763
 11
253.9844021895
 21
136.924947782
  0
LINE
  5
231
100
AcDbEntity
  8
BEZUGSACHSEN
100
AcDbLine
 62
7
  6
CONTINUOUS
 10
242.9115450993
 20
138.6584190225
 11
243.8267742147
 21
138.857264252
  0
LINE
  5
232
100
AcDbEntity
  8
BEZUGSACHSEN
100
AcDbLine
 62
7
  6
CONTINUOUS
 10
307.1287907076
 20
158.3891217298
 11
307.9168545196
 21
158.5410031619
  0
LINE
  5
233
100
AcDbEntity
  8
BEZUGSACHSEN
100
AcDbLine
 62
7
  6
CONTINUOUS
 10
252.4975559157
 20
137.8667751061
 11
253.1599481969
 21
137.9383609457
  0
LINE
  5
234
100
AcDbEntity
  8
BEZUGSACHSEN
100
AcDbLine
 62
7
  6
CONTINUOUS
 10
256.0051513206
 20
151.6644984625
 11
256.8053893355
 21
151.7255643454
  0
LINE
  5
235
100
AcDbEntity
  8
BEZUGSACHSEN
100
AcDbLine
 62
7
  6
CONTINUOUS
 10
243.7120957422
 20
137.9147201911
 11
244.2592198372
 21
137.9537962915
  0
LINE
  5
236
100
AcDbEntity
  8
BEZUGSACHSEN
100
AcDbLine
 62
7
  6
CONTINUOUS
 10
256.6479769464
 20
150.5271744868
 11
257.3129932513
 21
150.486662141
  0
LINE
  5
237
100
AcDbEntity
  8
BEZUGSACHSEN
100
AcDbLine
 62
7
  6
CONTINUOUS
 10
243.8267742147
 20
138.857264252
 11
244.8264790263
 21
138.7951847719
  0
LINE
  5
238
100
AcDbEntity
  8
BEZUGSACHSEN
100
AcDbLine
 62
7
  6
CONTINUOUS
 10
252.1134980406
 20
136.8330073435
 11
253.2057375155
 21
136.7305445763
  0
LINE
  5
239
100
AcDbEntity
  8
BEZUGSACHSEN
100
AcDbLine
 62
7
  6
CONTINUOUS
 10
307.6759387355
 20
157.4752033703
 11
308.5415796283
 21
157.3640281059
  0
LINE
  5
23A
100
AcDbEntity
  8
BEZUGSACHSEN
100
AcDbLine
 62
7
  6
CONTINUOUS
 10
335.0104277921
 20
124.4274936689
 11
336.5964984592
 21
124.1676179268
  0
LINE
  5
23B
100
AcDbEntity
  8
BEZUGSACHSEN
100
AcDbLine
 62
7
  6
CONTINUOUS
 10
256.8053893355
 20
151.7255643454
 11
257.8649769781
 21
151.4413820336
  0
LINE
  5
23C
100
AcDbEntity
  8
BEZUGSACHSEN
100
AcDbLine
 62
7
  6
CONTINUOUS
 10
251.7946478141
 20
138.0664383895
 11
252.4975559157
 21
137.8667751061
  0
LINE
  5
23D
100
AcDbEntity
  8
BEZUGSACHSEN
100
AcDbLine
 62
7
  6
CONTINUOUS
 10
247.0289780991
 20
135.8824697922
 11
251.9972998825
 21
134.3686032826
  0
LINE
  5
23E
100
AcDbEntity
  8
BEZUGSACHSEN
100
AcDbLine
 62
7
  6
CONTINUOUS
 10
246.8197563833
 20
134.7996942511
 11
251.3354973149
 21
133.3869831213
  0
LINE
  5
23F
100
AcDbEntity
  8
BEZUGSACHSEN
100
AcDbLine
 62
7
  6
CONTINUOUS
 10
335.1566828615
 20
126.2812770477
 11
336.0216690667
 21
126.0100515923
  0
LINE
  5
240
100
AcDbEntity
  8
BEZUGSACHSEN
100
AcDbLine
 62
7
  6
CONTINUOUS
 10
244.2592198372
 20
137.9537962915
 11
244.8908193581
 21
137.7319472809
  0
LINE
  5
241
100
AcDbEntity
  8
BEZUGSACHSEN
100
AcDbLine
 62
7
  6
CONTINUOUS
 10
244.8264790263
 20
138.7951847719
 11
245.4580785471
 21
138.5733357613
  0
LINE
  5
242
100
AcDbEntity
  8
BEZUGSACHSEN
100
AcDbLine
 62
7
  6
CONTINUOUS
 10
251.2538024355
 20
137.1811037108
 11
252.1134980406
 21
136.8330073435
  0
LINE
  5
243
100
AcDbEntity
  8
BEZUGSACHSEN
100
AcDbLine
 62
7
  6
CONTINUOUS
 10
257.3129932513
 20
150.486662141
 11
257.9724630235
 21
150.1719469853
  0
LINE
  5
244
100
AcDbEntity
  8
BEZUGSACHSEN
100
AcDbLine
 62
7
  6
CONTINUOUS
 10
251.0512251128
 20
138.5373523055
 11
251.7946478141
 21
138.0664383895
  0
LINE
  5
245
100
AcDbEntity
  8
BEZUGSACHSEN
100
AcDbLine
 62
7
  6
CONTINUOUS
 10
248.4046582616
 20
129.0398094397
 11
239.9907734577
 21
134.7124013303
  0
LINE
  5
246
100
AcDbEntity
  8
BEZUGSACHSEN
100
AcDbLine
 62
7
  6
CONTINUOUS
 10
248.9719174507
 20
129.8811979201
 11
245.2125220594
 21
132.4157602902
  0
LINE
  5
247
100
AcDbEntity
  8
BEZUGSACHSEN
100
AcDbLine
 62
7
  6
CONTINUOUS
 10
244.1384092338
 20
133.1399208707
 11
241.4531266682
 21
134.9503226602
  0
LINE
  5
248
100
AcDbEntity
  8
BEZUGSACHSEN
100
AcDbLine
 62
7
  6
CONTINUOUS
 10
244.8908193581
 20
137.7319472809
 11
245.4278762724
 21
137.3698666525
  0
LINE
  5
249
100
AcDbEntity
  8
BEZUGSACHSEN
100
AcDbLine
 62
7
  6
CONTINUOUS
 10
245.4580785471
 20
138.5733357613
 11
246.1741542657
 21
138.0905617028
  0
LINE
  5
24A
100
AcDbEntity
  8
BEZUGSACHSEN
100
AcDbLine
 62
7
  6
CONTINUOUS
 10
250.3535913426
 20
137.8004495526
 11
251.2538024355
 21
137.1811037108
  0
LINE
  5
24B
100
AcDbEntity
  8
RUNDUNGEN
100
AcDbLine
 62
7
  6
CONTINUOUS
 10
232.3542200093
 20
49.2761491424
 11
236.8142819487
 21
41.5510952584
  0
LINE
  5
24C
100
AcDbEntity
  8
KONSTRUKTIONSELEMENTE
100
AcDbLine
 62
7
  6
CONTINUOUS
 10
216.8833418679
 20
10.3396280435
 11
218.5829353369
 21
6.6408862277
  0
LINE
  5
24D
100
AcDbEntity
  8
KONSTRUKTIONSELEMENTE
100
AcDbLine
 62
7
  6
CONTINUOUS
 10
227.3868295067
 20
-12.5185963782
 11
257.7761569111
 21
-78.6533974768
  0
LINE
  5
24E
100
AcDbEntity
  8
KONSTRUKTIONSELEMENTE
100
AcDbLine
 62
7
  6
CONTINUOUS
 10
227.3868295067
 20
-11.7407789189
 11
227.0469108129
 21
-11.0010305557
  0
LINE
  5
24F
100
AcDbEntity
  8
0
100
AcDbLine
 62
7
  6
CONTINUOUS
 10
112.4841549298
 20
666.7939132591
 11
112.4841549298
 21
456.7939132591
  0
LINE
  5
250
100
AcDbEntity
  8
BEZUGSACHSEN
100
AcDbLine
 62
7
  6
CONTINUOUS
 10
307.9168545196
 20
158.5410031619
 11
309.0969014036
 21
158.3050839105
  0
LINE
  5
251
100
AcDbEntity
  8
0
100
AcDbLine
 62
7
  6
CONTINUOUS
 10
326.8022622322
 20
158.6342633769
 11
306.4841549298
 21
165.2360166297
  0
LINE
  5
252
100
AcDbEntity
  8
BEZUGSACHSEN
100
AcDbLine
 62
7
  6
CONTINUOUS
 10
306.4841549298
 20
148.4246921362
 11
308.3414406255
 21
147.6877938926
  0
LINE
  5
253
100
AcDbEntity
  8
BEZUGSACHSEN
100
AcDbLine
 62
7
  6
CONTINUOUS
 10
306.4841549298
 20
149.5860780408
 11
308.73956126
 21
148.6912211175
  0
LINE
  5
254
100
AcDbEntity
  8
BEZUGSACHSEN
100
AcDbLine
 62
7
  6
CONTINUOUS
 10
308.5415796283
 20
157.3640281059
 11
309.1703916107
 21
157.1145401319
  0
LINE
  5
255
100
AcDbEntity
  8
BEZUGSACHSEN
100
AcDbLine
 62
7
  6
CONTINUOUS
 10
309.0969014036
 20
158.3050839105
 11
309.7257205822
 21
158.0555930813
  0
LINE
  5
256
100
AcDbEntity
  8
BEZUGSACHSEN
100
AcDbLine
 62
7
  6
CONTINUOUS
 10
333.569045506
 20
125.1169094463
 11
335.0104277921
 21
124.4274936689
  0
LINE
  5
257
100
AcDbEntity
  8
BEZUGSACHSEN
100
AcDbLine
 62
7
  6
CONTINUOUS
 10
311.285780415
 20
150.2323220394
 11
313.3629601532
 21
149.0958465146
  0
LINE
  5
258
100
AcDbEntity
  8
BEZUGSACHSEN
100
AcDbLine
 62
7
  6
CONTINUOUS
 10
311.8039298689
 20
151.1793635934
 11
313.8811096072
 21
150.0428880687
  0
LINE
  5
259
100
AcDbEntity
  8
BEZUGSACHSEN
100
AcDbLine
 62
7
  6
CONTINUOUS
 10
257.8649769781
 20
151.4413820336
 11
258.6541212008
 21
150.9540432641
  0
LINE
  5
25A
100
AcDbEntity
  8
BEZUGSACHSEN
100
AcDbLine
 62
7
  6
CONTINUOUS
 10
257.9724630235
 20
150.1719469853
 11
258.6263839889
 21
149.5830288245
  0
LINE
  5
25B
100
AcDbEntity
  8
BEZUGSACHSEN
100
AcDbLine
 62
7
  6
CONTINUOUS
 10
250.3535913426
 20
137.8004495526
 11
245.4931711682
 21
142.4018616627
  0
LINE
  5
25C
100
AcDbEntity
  8
BEZUGSACHSEN
100
AcDbLine
 62
7
  6
CONTINUOUS
 10
251.0512251128
 20
138.5373523055
 11
246.1908049384
 21
143.1387644156
  0
LINE
  5
25D
100
AcDbEntity
  8
BEZUGSACHSEN
100
AcDbLine
 62
7
  6
CONTINUOUS
 10
248.9813386886
 20
146.0863740215
 11
253.841758863
 21
141.4849619115
  0
LINE
  5
25E
100
AcDbEntity
  8
BEZUGSACHSEN
100
AcDbLine
 62
7
  6
CONTINUOUS
 10
249.6789721262
 20
146.823276423
 11
254.5393923005
 21
142.2218643129
  0
LINE
  5
25F
100
AcDbEntity
  8
BEZUGSACHSEN
100
AcDbLine
 62
7
  6
CONTINUOUS
 10
258.6541212008
 20
150.9540432641
 11
259.4377173433
 21
150.1925005223
  0
LINE
  5
260
100
AcDbEntity
  8
BEZUGSACHSEN
100
AcDbLine
 62
7
  6
CONTINUOUS
 10
245.8703895772
 20
136.8675550825
 11
245.4278762724
 21
137.3698666525
  0
LINE
  5
261
100
AcDbEntity
  8
BEZUGSACHSEN
100
AcDbLine
 62
7
  6
CONTINUOUS
 10
246.6166675705
 20
137.5882501328
 11
246.1741542657
 21
138.0905617028
  0
LINE
  5
262
100
AcDbEntity
  8
KONSTRUKTIONSELEMENTE
100
AcDbLine
 62
7
  6
CONTINUOUS
 10
236.5972841653
 20
7.7102661447
 11
243.105668112
 21
-6.4536102736
  0
LINE
  5
263
100
AcDbEntity
  8
BEZUGSACHSEN
100
AcDbLine
 62
7
  6
CONTINUOUS
 10
309.7257205822
 20
158.0555930813
 11
310.5893180382
 21
157.4806742758
  0
LINE
  5
264
100
AcDbEntity
  8
BEZUGSACHSEN
100
AcDbLine
 62
7
  6
CONTINUOUS
 10
309.1703916107
 20
157.1145401319
 11
309.8767878702
 21
156.6019926061
  0
LINE
  5
265
100
AcDbEntity
  8
BEZUGSACHSEN
100
AcDbLine
 62
7
  6
CONTINUOUS
 10
312.4315248534
 20
140.1457604966
 11
314.4655623492
 21
138.6297046058
  0
LINE
  5
266
100
AcDbEntity
  8
BEZUGSACHSEN
100
AcDbLine
 62
7
  6
CONTINUOUS
 10
317.4597853849
 20
155.3820982517
 11
318.9853135977
 21
154.2450562658
  0
LINE
  5
267
100
AcDbEntity
  8
BEZUGSACHSEN
100
AcDbLine
 62
7
  6
CONTINUOUS
 10
326.104445015
 20
148.9388605125
 11
327.6299732278
 21
147.8018185266
  0
LINE
  5
268
100
AcDbEntity
  8
BEZUGSACHSEN
100
AcDbLine
 62
7
  6
CONTINUOUS
 10
334.4363833906
 20
126.9820457723
 11
335.1566828615
 21
126.2812770477
  0
LINE
  5
269
100
AcDbEntity
  8
BEZUGSACHSEN
100
AcDbLine
 62
7
  6
CONTINUOUS
 10
255.2070584707
 20
141.3568838688
 11
254.5393923005
 21
142.2218643129
  0
LINE
  5
26A
100
AcDbEntity
  8
BEZUGSACHSEN
100
AcDbLine
 62
7
  6
CONTINUOUS
 10
258.0487484224
 20
140.778008755
 11
251.9540314443
 21
148.8913422996
  0
LINE
  5
26B
100
AcDbEntity
  8
BEZUGSACHSEN
100
AcDbLine
 62
7
  6
CONTINUOUS
 10
258.0820328029
 20
142.423225158
 11
253.543413682
 21
148.4650694131
  0
LINE
  5
26C
100
AcDbEntity
  8
BEZUGSACHSEN
100
AcDbLine
 62
7
  6
CONTINUOUS
 10
258.6263839889
 20
149.5830288245
 11
260.5715063785
 21
146.9936671218
  0
LINE
  5
26D
100
AcDbEntity
  8
BEZUGSACHSEN
100
AcDbLine
 62
7
  6
CONTINUOUS
 10
259.4377173433
 20
150.1925005223
 11
261.3828397329
 21
147.6031388196
  0
LINE
  5
26E
100
AcDbEntity
  8
BEZUGSACHSEN
100
AcDbLine
 62
7
  6
CONTINUOUS
 10
254.3526373068
 20
140.7684140959
 11
253.841758863
 21
141.4849619115
  0
LINE
  5
26F
100
AcDbEntity
  8
BEZUGSACHSEN
100
AcDbLine
 62
7
  6
CONTINUOUS
 10
247.0491131931
 20
136.6847821723
 11
246.6166675705
 21
137.5882501328
  0
LINE
  5
270
100
AcDbEntity
  8
0
100
AcDbLine
 62
7
  6
CONTINUOUS
 10
163.4841549298
 20
666.7939132591
 11
163.4841549298
 21
456.7939132591
  0
LINE
  5
271
100
AcDbEntity
  8
BEZUGSACHSEN
100
AcDbLine
 62
7
  6
CONTINUOUS
 10
319.9606611588
 20
133.3746558497
 11
321.1790337062
 21
131.9132629725
  0
LINE
  5
272
100
AcDbEntity
  8
BEZUGSACHSEN
100
AcDbLine
 62
7
  6
CONTINUOUS
 10
331.651804176
 20
143.1216362289
 11
332.8701767234
 21
141.6602433518
  0
LINE
  5
273
100
AcDbEntity
  8
BEZUGSACHSEN
100
AcDbLine
 62
7
  6
CONTINUOUS
 10
332.560939255
 20
126.3828349762
 11
333.569045506
 21
125.1169094463
  0
LINE
  5
274
100
AcDbEntity
  8
BEZUGSACHSEN
100
AcDbLine
 62
7
  6
CONTINUOUS
 10
310.5893180382
 20
157.4806742758
 11
311.0588817891
 21
156.8298154681
  0
LINE
  5
275
100
AcDbEntity
  8
BEZUGSACHSEN
100
AcDbLine
 62
7
  6
CONTINUOUS
 10
261.8959920923
 20
146.6384401039
 11
261.3828397329
 21
147.6031388196
  0
LINE
  5
276
100
AcDbEntity
  8
BEZUGSACHSEN
100
AcDbLine
 62
7
  6
CONTINUOUS
 10
260.954983924
 20
146.2015925034
 11
260.5715063785
 21
146.9936671218
  0
LINE
  5
277
100
AcDbEntity
  8
BEZUGSACHSEN
100
AcDbLine
 62
7
  6
CONTINUOUS
 10
255.6016652283
 20
140.5175193509
 11
255.2070584707
 21
141.3568838688
  0
LINE
  5
278
100
AcDbEntity
  8
BEZUGSACHSEN
100
AcDbLine
 62
7
  6
CONTINUOUS
 10
254.5904562283
 20
140.0774823106
 11
254.3526373068
 21
140.7684140959
  0
LINE
  5
279
100
AcDbEntity
  8
BEZUGSACHSEN
100
AcDbLine
 62
7
  6
CONTINUOUS
 10
246.0393406992
 20
136.3457052618
 11
245.8703895772
 21
136.8675550825
  0
LINE
  5
27A
100
AcDbEntity
  8
RUNDUNGEN
100
AcDbLine
 62
7
  6
CONTINUOUS
 10
231.9841549298
 20
59.8734264905
 11
226.4841549298
 21
85.7488920926
  0
LINE
  5
27B
100
AcDbEntity
  8
0
100
AcDbLine
 62
7
  6
CONTINUOUS
 10
232.3542200093
 20
49.2761491424
 11
231.9841549298
 21
59.8734264905
  0
LINE
  5
27C
100
AcDbEntity
  8
KONSTRUKTIONSELEMENTE
100
AcDbLine
 62
7
  6
CONTINUOUS
 10
216.3449635471
 20
12.7432161779
 11
216.3449635471
 21
16.2787500839
  0
LINE
  5
27D
100
AcDbEntity
  8
0
100
AcDbLine
 62
7
  6
CONTINUOUS
 10
350.4841549298
 20
126.0389344255
 11
326.8022622322
 21
158.6342633769
  0
LINE
  5
27E
100
AcDbEntity
  8
BEZUGSACHSEN
100
AcDbLine
 62
7
  6
CONTINUOUS
 10
309.8767878702
 20
156.6019926061
 11
310.1891504245
 21
156.0135050781
  0
LINE
  5
27F
100
AcDbEntity
  8
BEZUGSACHSEN
100
AcDbLine
 62
7
  6
CONTINUOUS
 10
323.0468710637
 20
130.0784410972
 11
323.9102897571
 21
128.3829739151
  0
LINE
  5
280
100
AcDbEntity
  8
BEZUGSACHSEN
100
AcDbLine
 62
7
  6
CONTINUOUS
 10
329.9706831748
 20
131.4692365225
 11
332.560939255
 21
126.3828349762
  0
LINE
  5
281
100
AcDbEntity
  8
BEZUGSACHSEN
100
AcDbLine
 62
7
  6
CONTINUOUS
 10
331.7022239204
 20
132.3510257213
 11
334.4363833906
 21
126.9820457723
  0
LINE
  5
282
100
AcDbEntity
  8
BEZUGSACHSEN
100
AcDbLine
 62
7
  6
CONTINUOUS
 10
270.4841549298
 20
153.8527144573
 11
268.9676648478
 21
158.8204653054
  0
LINE
  5
283
100
AcDbEntity
  8
BEZUGSACHSEN
100
AcDbLine
 62
7
  6
CONTINUOUS
 10
270.4841549298
 20
157.3282897429
 11
270.253384382
 21
158.0842528697
  0
LINE
  5
284
100
AcDbEntity
  8
BEZUGSACHSEN
100
AcDbLine
 62
7
  6
CONTINUOUS
 10
262.1442464713
 20
145.7447859733
 11
261.8959920923
 21
146.6384401039
  0
LINE
  5
285
100
AcDbEntity
  8
BEZUGSACHSEN
100
AcDbLine
 62
7
  6
CONTINUOUS
 10
255.7637270083
 20
139.4325202827
 11
255.6016652283
 21
140.5175193509
  0
LINE
  5
286
100
AcDbEntity
  8
0
100
AcDbLine
 62
7
  6
CONTINUOUS
 10
226.4841549298
 20
126.0389344255
 11
226.4841549298
 21
85.7488920926
  0
LINE
  5
287
100
AcDbEntity
  8
KONSTRUKTIONSELEMENTE
100
AcDbLine
 62
7
  6
CONTINUOUS
 10
226.8853973166
 20
-10.2799541154
 11
226.8853973166
 21
-8.3000551281
  0
LINE
  5
288
100
AcDbEntity
  8
KONSTRUKTIONSELEMENTE
100
AcDbLine
 62
7
  6
CONTINUOUS
 10
227.3868295067
 20
-12.5185963782
 11
227.3868295067
 21
-11.7407789189
  0
LINE
  5
289
100
AcDbEntity
  8
RUNDUNGEN
100
AcDbLine
 62
7
  6
CONTINUOUS
 10
237.4841549298
 20
7.7137644304
 11
237.4841549298
 21
67.5547340114
  0
LINE
  5
28A
100
AcDbEntity
  8
0
100
AcDbLine
 62
7
  6
CONTINUOUS
 10
256.4413220991
 20
22.1399132591
 11
256.4413220991
 21
38.2144213348
  0
LINE
  5
28B
100
AcDbEntity
  8
BEZUGSACHSEN
100
AcDbLine
 62
7
  6
CONTINUOUS
 10
247.0289780991
 20
135.8824697922
 11
247.0491131931
 21
136.6847821723
  0
LINE
  5
28C
100
AcDbEntity
  8
BEZUGSACHSEN
100
AcDbLine
 62
7
  6
CONTINUOUS
 10
336.0310765926
 20
134.5554991299
 11
338.7652360628
 21
129.186519181
  0
LINE
  5
28D
100
AcDbEntity
  8
BEZUGSACHSEN
100
AcDbLine
 62
7
  6
CONTINUOUS
 10
336.6106085205
 20
136.9857906443
 11
340.064283294
 21
130.2039219159
  0
LINE
  5
28E
100
AcDbEntity
  8
BEZUGSACHSEN
100
AcDbLine
 62
7
  6
CONTINUOUS
 10
311.0588817891
 20
156.8298154681
 11
311.3691973086
 21
155.7775858266
  0
LINE
  5
28F
100
AcDbEntity
  8
BEZUGSACHSEN
100
AcDbLine
 62
7
  6
CONTINUOUS
 10
261.0735633983
 20
145.4805625912
 11
260.954983924
 21
146.2015925034
  0
LINE
  5
290
100
AcDbEntity
  8
BEZUGSACHSEN
100
AcDbLine
 62
7
  6
CONTINUOUS
 10
310.1891504245
 20
156.0135050781
 11
310.2646876666
 21
155.2867034129
  0
LINE
  5
291
100
AcDbEntity
  8
0
100
AcDbLine
 62
7
  6
CONTINUOUS
 10
270.4841549298
 20
349.7939132591
 11
270.4841549298
 21
113.7939132591
  0
LINE
  5
292
100
AcDbEntity
  8
KONSTRUKTIONSELEMENTE
100
AcDbLine
 62
7
  6
CONTINUOUS
 10
274.0741549298
 20
-89.3149853237
 11
274.0741549298
 21
-112.0294124704
  0
LINE
  5
293
100
AcDbEntity
  8
BEZUGSACHSEN
100
AcDbLine
 62
7
  6
CONTINUOUS
 10
276.1341549298
 20
22.1399132591
 11
276.1341549298
 21
-3.1216029791
  0
LINE
  5
294
100
AcDbEntity
  8
0
100
AcDbLine
 62
7
  6
CONTINUOUS
 10
276.1341549298
 20
22.1399132591
 11
276.1341549298
 21
50.5439132591
  0
LINE
  5
295
100
AcDbEntity
  8
KONSTRUKTIONSELEMENTE
100
AcDbLine
 62
7
  6
CONTINUOUS
 10
278.2841549298
 20
48.2716948246
 11
278.2841549298
 21
55.625605349
  0
LINE
  5
296
100
AcDbEntity
  8
KONSTRUKTIONSELEMENTE
100
AcDbLine
 62
7
  6
CONTINUOUS
 10
278.4741549298
 20
-115.1406823076
 11
278.4741549298
 21
-90.2505236098
  0
LINE
  5
297
100
AcDbEntity
  8
KONSTRUKTIONSELEMENTE
100
AcDbLine
 62
7
  6
CONTINUOUS
 10
284.6841549298
 20
48.2716948246
 11
284.6841549298
 21
55.625605349
  0
LINE
  5
298
100
AcDbEntity
  8
KONSTRUKTIONSELEMENTE
100
AcDbLine
 62
7
  6
CONTINUOUS
 10
284.6841549298
 20
80.2077571168
 11
284.6841549298
 21
81.0814494717
  0
LINE
  5
299
100
AcDbEntity
  8
KONSTRUKTIONSELEMENTE
100
AcDbLine
 62
7
  6
CONTINUOUS
 10
284.9841549298
 20
96.1435816842
 11
284.9841549298
 21
80.1602417847
  0
LINE
  5
29A
100
AcDbEntity
  8
KONSTRUKTIONSELEMENTE
100
AcDbLine
 62
7
  6
CONTINUOUS
 10
284.9841549298
 20
50.5440877695
 11
284.9841549298
 21
36.6439132591
  0
LINE
  5
29B
100
AcDbEntity
  8
KONSTRUKTIONSELEMENTE
100
AcDbLine
 62
7
  6
CONTINUOUS
 10
285.2841549298
 20
54.0595028564
 11
285.2841549298
 21
62.4533510438
  0
LINE
  5
29C
100
AcDbEntity
  8
KONSTRUKTIONSELEMENTE
100
AcDbLine
 62
7
  6
CONTINUOUS
 10
291.6841549298
 20
54.0595028564
 11
291.6841549298
 21
62.4533510463
  0
LINE
  5
29D
100
AcDbEntity
  8
KONSTRUKTIONSELEMENTE
100
AcDbLine
 62
7
  6
CONTINUOUS
 10
291.9841549298
 20
96.1435816842
 11
291.9841549298
 21
80.1602417847
  0
LINE
  5
29E
100
AcDbEntity
  8
KONSTRUKTIONSELEMENTE
100
AcDbLine
 62
7
  6
CONTINUOUS
 10
291.9841549298
 20
50.5440877695
 11
291.9841549298
 21
36.6439132591
  0
LINE
  5
29F
100
AcDbEntity
  8
KONSTRUKTIONSELEMENTE
100
AcDbLine
 62
7
  6
CONTINUOUS
 10
292.2841549298
 20
81.0814494717
 11
292.2841549298
 21
80.2077571168
  0
LINE
  5
2A0
100
AcDbEntity
  8
KONSTRUKTIONSELEMENTE
100
AcDbLine
 62
7
  6
CONTINUOUS
 10
292.2841549298
 20
55.625605349
 11
292.2841549298
 21
48.2716948246
  0
LINE
  5
2A1
100
AcDbEntity
  8
BEZUGSACHSEN
100
AcDbLine
 62
7
  6
CONTINUOUS
 10
262.122057385
 20
144.6479754456
 11
262.1442464713
 21
145.7447859733
  0
LINE
  5
2A2
100
AcDbEntity
  8
BEZUGSACHSEN
100
AcDbLine
 62
7
  6
CONTINUOUS
 10
254.555215072
 20
139.4121657487
 11
254.5904562283
 21
140.0774823106
  0
LINE
  5
2A3
100
AcDbEntity
  8
BEZUGSACHSEN
100
AcDbLine
 62
7
  6
CONTINUOUS
 10
245.934729909
 20
135.8043175915
 11
246.0393406992
 21
136.3457052618
  0
LINE
  5
2A4
100
AcDbEntity
  8
BEZUGSACHSEN
100
AcDbLine
 62
7
  6
CONTINUOUS
 10
340.064283294
 20
130.2039219159
 11
340.4952092966
 21
128.6440666531
  0
LINE
  5
2A5
100
AcDbEntity
  8
KONSTRUKTIONSELEMENTE
100
AcDbLine
 62
7
  6
CONTINUOUS
 10
298.4941549298
 20
-115.1406823076
 11
298.4941549298
 21
-90.2505236098
  0
LINE
  5
2A6
100
AcDbEntity
  8
KONSTRUKTIONSELEMENTE
100
AcDbLine
 62
7
  6
CONTINUOUS
 10
298.6841549298
 20
55.625605349
 11
298.6841549298
 21
48.2716948246
  0
LINE
  5
2A7
100
AcDbEntity
  8
BEZUGSACHSEN
100
AcDbLine
 62
7
  6
CONTINUOUS
 10
300.8341549298
 20
-3.1216029791
 11
300.8341549298
 21
22.1399132591
  0
LINE
  5
2A8
100
AcDbEntity
  8
0
100
AcDbLine
 62
7
  6
CONTINUOUS
 10
300.8341549298
 20
22.1399132591
 11
300.8341549298
 21
50.5439132591
  0
LINE
  5
2A9
100
AcDbEntity
  8
KONSTRUKTIONSELEMENTE
100
AcDbLine
 62
7
  6
CONTINUOUS
 10
302.8941549298
 20
-112.0294124704
 11
302.8941549298
 21
-89.4727061505
  0
LINE
  5
2AA
100
AcDbEntity
  8
0
100
AcDbLine
 62
7
  6
CONTINUOUS
 10
306.4841549298
 20
349.7939132591
 11
306.4841549298
 21
113.7939132591
  0
LINE
  5
2AB
100
AcDbEntity
  8
0
100
AcDbLine
 62
7
  6
CONTINUOUS
 10
320.5269877604
 20
22.1399132591
 11
320.5269877604
 21
38.2144213348
  0
LINE
  5
2AC
100
AcDbEntity
  8
BEZUGSACHSEN
100
AcDbLine
 62
7
  6
CONTINUOUS
 10
255.612213322
 20
138.6443864846
 11
255.7637270083
 21
139.4325202827
  0
LINE
  5
2AD
100
AcDbEntity
  8
BEZUGSACHSEN
100
AcDbLine
 62
7
  6
CONTINUOUS
 10
260.9272464396
 20
144.8305784266
 11
261.0735633983
 21
145.4805625912
  0
LINE
  5
2AE
100
AcDbEntity
  8
BEZUGSACHSEN
100
AcDbLine
 62
7
  6
CONTINUOUS
 10
338.7652360628
 20
129.186519181
 11
338.9083552853
 21
128.1918207235
  0
LINE
  5
2AF
100
AcDbEntity
  8
RUNDUNGEN
100
AcDbLine
 62
7
  6
CONTINUOUS
 10
339.4841549298
 20
67.5547304025
 11
339.4841549298
 21
7.7137644304
  0
LINE
  5
2B0
100
AcDbEntity
  8
KONSTRUKTIONSELEMENTE
100
AcDbLine
 62
7
  6
CONTINUOUS
 10
348.875397616
 20
-70.806165618
 11
348.875397616
 21
-74.341699524
  0
LINE
  5
2B1
100
AcDbEntity
  8
0
100
AcDbLine
 62
7
  6
CONTINUOUS
 10
350.4841549298
 20
85.7488920926
 11
350.4841549298
 21
126.0389344255
  0
LINE
  5
2B2
100
AcDbEntity
  8
0
100
AcDbLine
 62
7
  6
CONTINUOUS
 10
344.6140898502
 20
49.2761491424
 11
344.9841549298
 21
59.8734264905
  0
LINE
  5
2B3
100
AcDbEntity
  8
BEZUGSACHSEN
100
AcDbLine
 62
7
  6
CONTINUOUS
 10
311.3691973086
 20
155.7775858266
 11
311.2079092383
 21
154.9124700243
  0
LINE
  5
2B4
100
AcDbEntity
  8
BEZUGSACHSEN
100
AcDbLine
 62
7
  6
CONTINUOUS
 10
261.8405186596
 20
143.8964131277
 11
262.122057385
 21
144.6479754456
  0
LINE
  5
2B5
100
AcDbEntity
  8
BEZUGSACHSEN
100
AcDbLine
 62
7
  6
CONTINUOUS
 10
254.2469136182
 20
138.7724646182
 11
254.555215072
 21
139.4121657487
  0
LINE
  5
2B6
100
AcDbEntity
  8
KONSTRUKTIONSELEMENTE
100
AcDbLine
 62
7
  6
CONTINUOUS
 10
385.7312383426
 20
10.5101385612
 11
385.7312383426
 21
6.9746046552
  0
LINE
  5
2B7
100
AcDbEntity
  8
BEZUGSACHSEN
100
AcDbLine
 62
7
  6
CONTINUOUS
 10
340.4952092966
 20
128.6440666531
 11
340.2050508371
 21
127.0728616769
  0
LINE
  5
2B8
100
AcDbEntity
  8
BEZUGSACHSEN
100
AcDbLine
 62
7
  6
CONTINUOUS
 10
318.9853135977
 20
154.2450562658
 11
314.6097777851
 21
140.9457189428
  0
LINE
  5
2B9
100
AcDbEntity
  8
BEZUGSACHSEN
100
AcDbLine
 62
7
  6
CONTINUOUS
 10
317.4597853849
 20
155.3820982517
 11
312.4315248534
 21
140.1457604966
  0
LINE
  5
2BA
100
AcDbEntity
  8
BEZUGSACHSEN
100
AcDbLine
 62
7
  6
CONTINUOUS
 10
310.2646876666
 20
155.2867034129
 11
310.1054392121
 21
154.8853320169
  0
LINE
  5
2BB
100
AcDbEntity
  8
BEZUGSACHSEN
100
AcDbLine
 62
7
  6
CONTINUOUS
 10
311.2079092383
 20
154.9124700243
 11
311.0486607838
 21
154.5110986283
  0
LINE
  5
2BC
100
AcDbEntity
  8
BEZUGSACHSEN
100
AcDbLine
 62
7
  6
CONTINUOUS
 10
308.73956126
 20
148.6912211175
 11
308.3414406255
 21
147.6877938926
  0
LINE
  5
2BD
100
AcDbEntity
  8
BEZUGSACHSEN
100
AcDbLine
 62
7
  6
CONTINUOUS
 10
255.1876400858
 20
137.8818687427
 11
255.612213322
 21
138.6443864846
  0
LINE
  5
2BE
100
AcDbEntity
  8
BEZUGSACHSEN
100
AcDbLine
 62
7
  6
CONTINUOUS
 10
239.9907734577
 20
134.7124013303
 11
242.259810214
 21
138.0779552518
  0
LINE
  5
2BF
100
AcDbEntity
  8
BEZUGSACHSEN
100
AcDbLine
 62
7
  6
CONTINUOUS
 10
241.4531266682
 20
134.9503226602
 11
243.2494473434
 21
137.614719381
  0
LINE
  5
2C0
100
AcDbEntity
  8
BEZUGSACHSEN
100
AcDbLine
 62
7
  6
CONTINUOUS
 10
244.1384092338
 20
133.1399208707
 11
245.934729909
 21
135.8043175915
  0
LINE
  5
2C1
100
AcDbEntity
  8
BEZUGSACHSEN
100
AcDbLine
 62
7
  6
CONTINUOUS
 10
245.2125220594
 20
132.4157602902
 11
246.8197563833
 21
134.7996942511
  0
LINE
  5
2C2
100
AcDbEntity
  8
BEZUGSACHSEN
100
AcDbLine
 62
7
  6
CONTINUOUS
 10
248.4046582616
 20
129.0398094397
 11
248.9719174507
 21
129.8811979201
  0
LINE
  5
2C3
100
AcDbEntity
  8
BEZUGSACHSEN
100
AcDbLine
 62
7
  6
CONTINUOUS
 10
251.3354973149
 20
133.3869831213
 11
251.9972998825
 21
134.3686032826
  0
LINE
  5
2C4
100
AcDbEntity
  8
BEZUGSACHSEN
100
AcDbLine
 62
7
  6
CONTINUOUS
 10
260.5160328663
 20
144.2516402515
 11
260.9272464396
 21
144.8305784266
  0
LINE
  5
2C5
100
AcDbEntity
  8
0
100
AcDbLine
 62
7
  6
CONTINUOUS
 10
250.1660476273
 20
158.6342633769
 11
226.4841549298
 21
126.0389344255
  0
LINE
  5
2C6
100
AcDbEntity
  8
0
100
AcDbLine
 62
7
  6
CONTINUOUS
 10
413.4841549298
 20
456.7939132591
 11
413.4841549298
 21
666.7939132591
  0
LINE
  5
2C7
100
AcDbEntity
  8
RUNDUNGEN
100
AcDbLine
 62
7
  6
CONTINUOUS
 10
344.9841549298
 20
59.8734264905
 11
350.4841549298
 21
85.7488920926
  0
LINE
  5
2C8
100
AcDbEntity
  8
BEZUGSACHSEN
100
AcDbLine
 62
7
  6
CONTINUOUS
 10
338.9083552853
 20
128.1918207235
 11
338.6189809934
 21
127.3327358021
  0
LINE
  5
2C9
100
AcDbEntity
  8
BEZUGSACHSEN
100
AcDbLine
 62
7
  6
CONTINUOUS
 10
311.285780415
 20
150.2323220394
 11
311.8039298689
 21
151.1793635934
  0
LINE
  5
2CA
100
AcDbEntity
  8
BEZUGSACHSEN
100
AcDbLine
 62
7
  6
CONTINUOUS
 10
313.8811096072
 20
150.0428880687
 11
313.3629601532
 21
149.0958465146
  0
LINE
  5
2CB
100
AcDbEntity
  8
BEZUGSACHSEN
100
AcDbLine
 62
7
  6
CONTINUOUS
 10
310.5729559281
 20
153.7707310957
 11
311.0486607838
 21
154.5110986283
  0
LINE
  5
2CC
100
AcDbEntity
  8
BEZUGSACHSEN
100
AcDbLine
 62
7
  6
CONTINUOUS
 10
261.2940818403
 20
143.2158955462
 11
261.8405186596
 21
143.8964131277
  0
LINE
  5
2CD
100
AcDbEntity
  8
BEZUGSACHSEN
100
AcDbLine
 62
7
  6
CONTINUOUS
 10
245.4931711682
 20
142.4018616627
 11
246.1908049384
 21
143.1387644156
  0
LINE
  5
2CE
100
AcDbEntity
  8
BEZUGSACHSEN
100
AcDbLine
 62
7
  6
CONTINUOUS
 10
248.9813386886
 20
146.0863740215
 11
249.6789721262
 21
146.823276423
  0
LINE
  5
2CF
100
AcDbEntity
  8
BEZUGSACHSEN
100
AcDbLine
 62
7
  6
CONTINUOUS
 10
253.781824438
 20
138.2811961163
 11
254.2469136182
 21
138.7724646182
  0
LINE
  5
2D0
100
AcDbEntity
  8
BEZUGSACHSEN
100
AcDbLine
 62
7
  6
CONTINUOUS
 10
254.7225509057
 20
137.3906002408
 11
255.1876400858
 21
137.8818687427
  0
LINE
  5
2D1
100
AcDbEntity
  8
BEZUGSACHSEN
100
AcDbLine
 62
7
  6
CONTINUOUS
 10
242.259810214
 20
138.0779552518
 11
242.9115450993
 21
138.6584190225
  0
LINE
  5
2D2
100
AcDbEntity
  8
BEZUGSACHSEN
100
AcDbLine
 62
7
  6
CONTINUOUS
 10
340.2050508371
 20
127.0728616769
 11
339.4824005102
 21
125.6372670031
  0
LINE
  5
2D3
100
AcDbEntity
  8
BEZUGSACHSEN
100
AcDbLine
 62
7
  6
CONTINUOUS
 10
309.4725331598
 20
154.207335764
 11
310.1054392121
 21
154.8853320169
  0
LINE
  5
2D4
100
AcDbEntity
  8
BEZUGSACHSEN
100
AcDbLine
 62
7
  6
CONTINUOUS
 10
306.4917977817
 20
156.7836383949
 11
307.0450797182
 21
157.2609492309
  0
LINE
  5
2D5
100
AcDbEntity
  8
BEZUGSACHSEN
100
AcDbLine
 62
7
  6
CONTINUOUS
 10
310.0196811877
 20
153.2934174046
 11
310.5729559281
 21
153.7707310957
  0
LINE
  5
2D6
100
AcDbEntity
  8
BEZUGSACHSEN
100
AcDbLine
 62
7
  6
CONTINUOUS
 10
251.9540314443
 20
148.8913422996
 11
255.1993648622
 21
151.3292290909
  0
LINE
  5
2D7
100
AcDbEntity
  8
BEZUGSACHSEN
100
AcDbLine
 62
7
  6
CONTINUOUS
 10
253.543413682
 20
148.4650694131
 11
255.9774137454
 21
150.2934845065
  0
LINE
  5
2D8
100
AcDbEntity
  8
BEZUGSACHSEN
100
AcDbLine
 62
7
  6
CONTINUOUS
 10
258.0820328029
 20
142.423225158
 11
260.5160328663
 21
144.2516402515
  0
LINE
  5
2D9
100
AcDbEntity
  8
BEZUGSACHSEN
100
AcDbLine
 62
7
  6
CONTINUOUS
 10
258.0487484224
 20
140.778008755
 11
261.2940818403
 21
143.2158955462
  0
LINE
  5
2DA
100
AcDbEntity
  8
BEZUGSACHSEN
100
AcDbLine
 62
7
  6
CONTINUOUS
 10
243.2494473434
 20
137.614719381
 11
243.7120957422
 21
137.9147201911
  0
LINE
  5
2DB
100
AcDbEntity
  8
BEZUGSACHSEN
100
AcDbLine
 62
7
  6
CONTINUOUS
 10
253.9844021895
 20
136.924947782
 11
254.7225509057
 21
137.3906002408
  0
LINE
  5
2DC
100
AcDbEntity
  8
0
100
AcDbLine
 62
7
  6
CONTINUOUS
 10
464.4841549298
 20
456.7939132591
 11
464.4841549298
 21
666.7939132591
  0
LINE
  5
2DD
100
AcDbEntity
  8
RUNDUNGEN
100
AcDbLine
 62
7
  6
CONTINUOUS
 10
344.6140898502
 20
49.2761491424
 11
340.1540279108
 21
41.5510952584
  0
LINE
  5
2DE
100
AcDbEntity
  8
BEZUGSACHSEN
100
AcDbLine
 62
7
  6
CONTINUOUS
 10
338.6189809934
 20
127.3327358021
 11
337.8971140107
 21
126.6092628001
  0
LINE
  5
2DF
100
AcDbEntity
  8
BEZUGSACHSEN
100
AcDbLine
 62
7
  6
CONTINUOUS
 10
339.4824005102
 20
125.6372670031
 11
338.7605327041
 21
124.913795618
  0
LINE
  5
2E0
100
AcDbEntity
  8
BEZUGSACHSEN
100
AcDbLine
 62
7
  6
CONTINUOUS
 10
319.9606611588
 20
133.3746558497
 11
331.651804176
 21
143.1216362289
  0
LINE
  5
2E1
100
AcDbEntity
  8
BEZUGSACHSEN
100
AcDbLine
 62
7
  6
CONTINUOUS
 10
321.1790337062
 20
131.9132629725
 11
332.8701767234
 21
141.6602433518
  0
LINE
  5
2E2
100
AcDbEntity
  8
BEZUGSACHSEN
100
AcDbLine
 62
7
  6
CONTINUOUS
 10
314.4655623492
 20
138.6297046058
 11
327.6299732278
 21
147.8018185266
  0
LINE
  5
2E3
100
AcDbEntity
  8
BEZUGSACHSEN
100
AcDbLine
 62
7
  6
CONTINUOUS
 10
314.6097777851
 20
140.9457189428
 11
326.104445015
 21
148.9388605125
  0
LINE
  5
2E4
100
AcDbEntity
  8
BEZUGSACHSEN
100
AcDbLine
 62
7
  6
CONTINUOUS
 10
306.4841549298
 20
158.0126370413
 11
307.1287907076
 21
158.3891217298
  0
LINE
  5
2E5
100
AcDbEntity
  8
BEZUGSACHSEN
100
AcDbLine
 62
7
  6
CONTINUOUS
 10
253.1599481969
 20
137.9383609457
 11
253.781824438
 21
138.2811961163
  0
LINE
  5
2E6
100
AcDbEntity
  8
BEZUGSACHSEN
100
AcDbLine
 62
7
  6
CONTINUOUS
 10
306.4841549298
 20
152.6782899349
 11
309.4725331598
 21
154.207335764
  0
LINE
  5
2E7
100
AcDbEntity
  8
BEZUGSACHSEN
100
AcDbLine
 62
7
  6
CONTINUOUS
 10
306.4841549298
 20
151.5164060933
 11
310.0196811877
 21
153.2934174046
  0
LINE
  5
2E8
100
AcDbEntity
  8
BEZUGSACHSEN
100
AcDbLine
 62
7
  6
CONTINUOUS
 10
255.1993648622
 20
151.3292290909
 11
256.0051513206
 21
151.6644984625
  0
LINE
  5
2E9
100
AcDbEntity
  8
BEZUGSACHSEN
100
AcDbLine
 62
7
  6
CONTINUOUS
 10
255.9774137454
 20
150.2934845065
 11
256.6479769464
 21
150.5271744868
  0
LINE
  5
2EA
100
AcDbEntity
  8
BEZUGSACHSEN
100
AcDbLine
 62
7
  6
CONTINUOUS
 10
307.0450797182
 20
157.2609492309
 11
307.6759387355
 21
157.4752033703
  0
LINE
  5
2EB
100
AcDbEntity
  8
0
100
AcDbLine
 62
7
  6
CONTINUOUS
 10
270.4841549298
 20
165.2360166297
 11
250.1660476273
 21
158.6342633769
  0
LINE
  5
2EC
100
AcDbEntity
  8
BEZUGSACHSEN
100
AcDbLine
 62
7
  6
CONTINUOUS
 10
268.9676648478
 20
158.8204653054
 11
270.4841549298
 21
159.2833995868
  0
LINE
  5
2ED
100
AcDbEntity
  8
BEZUGSACHSEN
100
AcDbLine
 62
7
  6
CONTINUOUS
 10
270.253384382
 20
158.0842528697
 11
270.4841549298
 21
158.1546994878
  0
LINE
  5
2EE
100
AcDbEntity
  8
KONSTRUKTIONSELEMENTE
100
AcDbLine
 62
7
  6
CONTINUOUS
 10
327.4527733856
 20
-60.6762148199
 11
355.6660249721
 21
0.7228993224
  0
LINE
  5
2EF
100
AcDbEntity
  8
KONSTRUKTIONSELEMENTE
100
AcDbLine
 62
7
  6
CONTINUOUS
 10
346.9507556683
 20
-78.6533974768
 11
348.8215597839
 21
-74.5820583374
  0
LINE
  5
2F0
100
AcDbEntity
  8
KONSTRUKTIONSELEMENTE
100
AcDbLine
 62
7
  6
CONTINUOUS
 10
384.5130226342
 20
3.0915197944
 11
385.1928600218
 21
4.5710165208
  0
LINE
  5
2F1
100
AcDbEntity
  8
BEZUGSACHSEN
100
AcDbLine
 62
7
  6
CONTINUOUS
 10
323.0468710637
 20
130.0784410972
 11
336.6106085205
 21
136.9857906443
  0
LINE
  5
2F2
100
AcDbEntity
  8
BEZUGSACHSEN
100
AcDbLine
 62
7
  6
CONTINUOUS
 10
323.9102897571
 20
128.3829739151
 11
329.9706831748
 21
131.4692365225
  0
LINE
  5
2F3
100
AcDbEntity
  8
BEZUGSACHSEN
100
AcDbLine
 62
7
  6
CONTINUOUS
 10
331.7022239204
 20
132.3510257213
 11
336.0310765926
 21
134.5554991299
  0
LINE
  5
2F4
100
AcDbEntity
  8
BEZUGSACHSEN
100
AcDbLine
 62
7
  6
CONTINUOUS
 10
337.8971140107
 20
126.6092628001
 11
337.0313428295
 21
126.168367789
  0
LINE
  5
2F5
100
AcDbEntity
  8
BEZUGSACHSEN
100
AcDbLine
 62
7
  6
CONTINUOUS
 10
338.7605327041
 20
124.913795618
 11
337.6061713986
 21
124.3259357404
  0
LINE
  5
2F6
100
AcDbEntity
  8
BEZUGSACHSEN
100
AcDbLine
 62
7
  6
CONTINUOUS
 10
329.2354440181
 20
-6.3200247894
 11
338.3143771454
 21
4.499826382
  0
LINE
  5
2F7
100
AcDbEntity
  8
KONSTRUKTIONSELEMENTE
100
AcDbLine
 62
7
  6
CONTINUOUS
 10
569.2190943108
 20
-111.6051484016
 11
572.7546282168
 21
-115.1406823076
  0
LINE
  5
2F8
100
AcDbEntity
  8
KONSTRUKTIONSELEMENTE
100
AcDbLine
 62
7
  6
CONTINUOUS
 10
603.867326589
 20
-84.0279839354
 11
603.0895091297
 21
-83.2501664761
  0
LINE
  5
2F9
100
AcDbEntity
  8
KONSTRUKTIONSELEMENTE
100
AcDbLine
 62
7
  6
CONTINUOUS
 10
601.1096101424
 20
-81.2702674887
 11
600.3317926831
 21
-80.4924500294
  0
LINE
  5
2FA
100
AcDbEntity
  8
BEZUGSACHSEN
100
AcDbLine
 62
7
  6
CONTINUOUS
 10
877.1536898775
 20
49.2761491424
 11
865.1536898775
 21
49.2761491424
  0
LINE
  5
2FB
100
AcDbEntity
  8
KONSTRUKTIONSELEMENTE
100
AcDbLine
 62
7
  6
CONTINUOUS
 10
675.3767141462
 20
-12.5185963782
 11
674.5988966869
 21
-11.7407789189
  0
LINE
  5
2FC
100
AcDbEntity
  8
KONSTRUKTIONSELEMENTE
100
AcDbLine
 62
7
  6
CONTINUOUS
 10
671.8411802402
 20
-8.9830624722
 11
672.6189976995
 21
-9.7608799316
  0
LINE
  5
2FD
100
AcDbEntity
  8
BEZUGSACHSEN
100
AcDbLine
 62
7
  6
CONTINUOUS
 10
863.524047557
 20
59.8734264905
 11
878.783332198
 21
59.8734264905
  0
LINE
  5
2FE
100
AcDbEntity
  8
BEZUGSACHSEN
100
AcDbLine
 62
7
  6
CONTINUOUS
 10
863.7676806132
 20
85.7488920926
 11
878.5396991418
 21
85.7488920926
  0
LINE
  5
2FF
100
AcDbEntity
  8
KONSTRUKTIONSELEMENTE
100
AcDbLine
 62
7
  6
CONTINUOUS
 10
690.6748553278
 20
7.2774757768
 11
691.6372523952
 21
6.3150787094
  0
LINE
  5
300
100
AcDbEntity
  8
BEZUGSACHSEN
100
AcDbLine
 62
7
  6
CONTINUOUS
 10
864.2340269316
 20
126.0389344255
 11
878.0733528234
 21
126.0389344255
  0
LINE
  5
301
100
AcDbEntity
  8
BEZUGSACHSEN
100
AcDbLine
 62
7
  6
CONTINUOUS
 10
718.4186251412
 20
37.5943824287
 11
721.9541590471
 21
34.0588485228
  0
LINE
  5
302
100
AcDbEntity
  8
KONSTRUKTIONSELEMENTE
100
AcDbLine
 62
7
  6
CONTINUOUS
 10
714.3174058103
 20
46.2917958373
 11
719.2671532786
 21
41.342048369
  0
LINE
  5
303
100
AcDbEntity
  8
KONSTRUKTIONSELEMENTE
100
AcDbLine
 62
7
  6
CONTINUOUS
 10
714.6709592009
 20
46.6453492279
 11
719.6207066692
 21
41.6956017596
  0
LINE
  5
304
100
AcDbEntity
  8
BEZUGSACHSEN
100
AcDbLine
 62
7
  6
CONTINUOUS
 10
884.2630035988
 20
129.0398094397
 11
885.0327578146
 21
129.0398094397
  0
LINE
  5
305
100
AcDbEntity
  8
BEZUGSACHSEN
100
AcDbLine
 62
7
  6
CONTINUOUS
 10
884.284970295
 20
133.3869831213
 11
885.0052592026
 21
133.3869831213
  0
LINE
  5
306
100
AcDbEntity
  8
BEZUGSACHSEN
100
AcDbLine
 62
7
  6
CONTINUOUS
 10
880.9477056093
 20
134.7124013303
 11
881.8838176246
 21
134.7124013303
  0
LINE
  5
307
100
AcDbEntity
  8
BEZUGSACHSEN
100
AcDbLine
 62
7
  6
CONTINUOUS
 10
882.3880135915
 20
135.8043175915
 11
883.2167045615
 21
135.8043175915
  0
LINE
  5
308
100
AcDbEntity
  8
BEZUGSACHSEN
100
AcDbLine
 62
7
  6
CONTINUOUS
 10
882.3133153373
 20
136.3457052618
 11
883.1418665687
 21
136.3457052618
  0
LINE
  5
309
100
AcDbEntity
  8
BEZUGSACHSEN
100
AcDbLine
 62
7
  6
CONTINUOUS
 10
884.0754354664
 20
136.7305445763
 11
884.7744313815
 21
136.7305445763
  0
LINE
  5
30A
100
AcDbEntity
  8
BEZUGSACHSEN
100
AcDbLine
 62
7
  6
CONTINUOUS
 10
883.7827414332
 20
136.8330073435
 11
884.5020713157
 21
136.8330073435
  0
LINE
  5
30B
100
AcDbEntity
  8
BEZUGSACHSEN
100
AcDbLine
 62
7
  6
CONTINUOUS
 10
882.221612506
 20
136.8675550825
 11
883.0019580025
 21
136.8675550825
  0
LINE
  5
30C
100
AcDbEntity
  8
BEZUGSACHSEN
100
AcDbLine
 62
7
  6
CONTINUOUS
 10
883.4942584119
 20
137.1811037108
 11
884.2308609459
 21
137.1811037108
  0
LINE
  5
30D
100
AcDbEntity
  8
BEZUGSACHSEN
100
AcDbLine
 62
7
  6
CONTINUOUS
 10
882.2153457048
 20
137.3698666525
 11
882.797979987
 21
137.3698666525
  0
LINE
  5
30E
100
AcDbEntity
  8
BEZUGSACHSEN
100
AcDbLine
 62
7
  6
CONTINUOUS
 10
882.2354961394
 20
137.7319472809
 11
882.597253346
 21
137.7319472809
  0
LINE
  5
30F
100
AcDbEntity
  8
BEZUGSACHSEN
100
AcDbLine
 62
7
  6
CONTINUOUS
 10
883.1381762559
 20
137.8004495526
 11
883.8940415159
 21
137.8004495526
  0
LINE
  5
310
100
AcDbEntity
  8
BEZUGSACHSEN
100
AcDbLine
 62
7
  6
CONTINUOUS
 10
884.3008476085
 20
137.9383609457
 11
884.5074834131
 21
137.9383609457
  0
LINE
  5
311
100
AcDbEntity
  8
BEZUGSACHSEN
100
AcDbLine
 62
7
  6
CONTINUOUS
 10
880.9756130147
 20
138.0779552518
 11
881.8793050911
 21
138.0779552518
  0
LINE
  5
312
100
AcDbEntity
  8
BEZUGSACHSEN
100
AcDbLine
 62
7
  6
CONTINUOUS
 10
884.0485147118
 20
138.2811961163
 11
884.5721899333
 21
138.2811961163
  0
LINE
  5
313
100
AcDbEntity
  8
BEZUGSACHSEN
100
AcDbLine
 62
7
  6
CONTINUOUS
 10
881.0400262082
 20
138.6584190225
 11
881.9340743101
 21
138.6584190225
  0
LINE
  5
314
100
AcDbEntity
  8
BEZUGSACHSEN
100
AcDbLine
 62
7
  6
CONTINUOUS
 10
883.8751013742
 20
138.7724646182
 11
884.5669356795
 21
138.7724646182
  0
LINE
  5
315
100
AcDbEntity
  8
BEZUGSACHSEN
100
AcDbLine
 62
7
  6
CONTINUOUS
 10
881.2438640896
 20
138.857264252
 11
882.1221880875
 21
138.857264252
  0
LINE
  5
316
100
AcDbEntity
  8
BEZUGSACHSEN
100
AcDbLine
 62
7
  6
CONTINUOUS
 10
883.8012834347
 20
139.4121657487
 11
884.4917933033
 21
139.4121657487
  0
LINE
  5
317
100
AcDbEntity
  8
BEZUGSACHSEN
100
AcDbLine
 62
7
  6
CONTINUOUS
 10
883.6555816335
 20
140.0774823106
 11
884.3499154334
 21
140.0774823106
  0
LINE
  5
318
100
AcDbEntity
  8
BEZUGSACHSEN
100
AcDbLine
 62
7
  6
CONTINUOUS
 10
883.4398136103
 20
140.7684140959
 11
884.1429931325
 21
140.7684140959
  0
LINE
  5
319
100
AcDbEntity
  8
BEZUGSACHSEN
100
AcDbLine
 62
7
  6
CONTINUOUS
 10
884.3773910355
 20
140.778008755
 11
884.9001686901
 21
140.778008755
  0
LINE
  5
31A
100
AcDbEntity
  8
BEZUGSACHSEN
100
AcDbLine
 62
7
  6
CONTINUOUS
 10
883.1551347473
 20
141.4849619115
 11
883.8720690868
 21
141.4849619115
  0
LINE
  5
31B
100
AcDbEntity
  8
BEZUGSACHSEN
100
AcDbLine
 62
7
  6
CONTINUOUS
 10
880.9507766764
 20
142.4018616627
 11
881.8169883549
 21
142.4018616627
  0
LINE
  5
31C
100
AcDbEntity
  8
BEZUGSACHSEN
100
AcDbLine
 62
7
  6
CONTINUOUS
 10
880.9657243169
 20
143.1387644156
 11
881.8242252375
 21
143.1387644156
  0
LINE
  5
31D
100
AcDbEntity
  8
BEZUGSACHSEN
100
AcDbLine
 62
7
  6
CONTINUOUS
 10
883.8739178523
 20
144.2516402515
 11
884.5073664981
 21
144.2516402515
  0
LINE
  5
31E
100
AcDbEntity
  8
BEZUGSACHSEN
100
AcDbLine
 62
7
  6
CONTINUOUS
 10
883.798535086
 20
144.8305784266
 11
884.4317141155
 21
144.8305784266
  0
LINE
  5
31F
100
AcDbEntity
  8
BEZUGSACHSEN
100
AcDbLine
 62
7
  6
CONTINUOUS
 10
883.6516918602
 20
145.4805625912
 11
884.2894756512
 21
145.4805625912
  0
LINE
  5
320
100
AcDbEntity
  8
BEZUGSACHSEN
100
AcDbLine
 62
7
  6
CONTINUOUS
 10
880.9657243112
 20
146.0863740215
 11
881.7975691348
 21
146.0863740215
  0
LINE
  5
321
100
AcDbEntity
  8
BEZUGSACHSEN
100
AcDbLine
 62
7
  6
CONTINUOUS
 10
883.4352090121
 20
146.2015925034
 11
884.082336121
 21
146.2015925034
  0
LINE
  5
322
100
AcDbEntity
  8
BEZUGSACHSEN
100
AcDbLine
 62
7
  6
CONTINUOUS
 10
880.9507766764
 20
146.823276423
 11
881.7770352673
 21
146.823276423
  0
LINE
  5
323
100
AcDbEntity
  8
BEZUGSACHSEN
100
AcDbLine
 62
7
  6
CONTINUOUS
 10
883.15023382
 20
146.9936671218
 11
883.8113313296
 21
146.9936671218
  0
LINE
  5
324
100
AcDbEntity
  8
BEZUGSACHSEN
100
AcDbLine
 62
7
  6
CONTINUOUS
 10
880.9444690962
 20
148.8913422996
 11
881.7525288184
 21
148.8913422996
  0
LINE
  5
325
100
AcDbEntity
  8
BEZUGSACHSEN
100
AcDbLine
 62
7
  6
CONTINUOUS
 10
884.2630036153
 20
149.1151052558
 11
884.8129038559
 21
149.1151052558
  0
LINE
  5
326
100
AcDbEntity
  8
BEZUGSACHSEN
100
AcDbLine
 62
7
  6
CONTINUOUS
 10
882.1688865095
 20
149.5830288245
 11
882.8077960179
 21
149.5830288245
  0
LINE
  5
327
100
AcDbEntity
  8
BEZUGSACHSEN
100
AcDbLine
 62
7
  6
CONTINUOUS
 10
882.1621711626
 20
150.1719469853
 11
882.5432769813
 21
150.1719469853
  0
LINE
  5
328
100
AcDbEntity
  8
BEZUGSACHSEN
100
AcDbLine
 62
7
  6
CONTINUOUS
 10
882.2216256115
 20
150.486662141
 11
882.3482065159
 21
150.486662141
  0
LINE
  5
329
100
AcDbEntity
  8
BEZUGSACHSEN
100
AcDbLine
 62
7
  6
CONTINUOUS
 10
884.4269824188
 20
150.6458471556
 11
884.8164029261
 21
150.6458471556
  0
LINE
  5
32A
100
AcDbEntity
  8
BEZUGSACHSEN
100
AcDbLine
 62
7
  6
CONTINUOUS
 10
880.9763611137
 20
151.3292290909
 11
881.7601059987
 21
151.3292290909
  0
LINE
  5
32B
100
AcDbEntity
  8
BEZUGSACHSEN
100
AcDbLine
 62
7
  6
CONTINUOUS
 10
884.5712792353
 20
151.6249352323
 11
884.8179872485
 21
151.6249352323
  0
LINE
  5
32C
100
AcDbEntity
  8
BEZUGSACHSEN
100
AcDbLine
 62
7
  6
CONTINUOUS
 10
881.0416110967
 20
151.6644984625
 11
881.8174998763
 21
151.6644984625
  0
LINE
  5
32D
100
AcDbEntity
  8
BEZUGSACHSEN
100
AcDbLine
 62
7
  6
CONTINUOUS
 10
881.1755187281
 20
151.7255643454
 11
881.9409009176
 21
151.7255643454
  0
LINE
  5
32E
100
AcDbEntity
  8
BEZUGSACHSEN
100
AcDbLine
 62
7
  6
CONTINUOUS
 10
884.5335693962
 20
151.7329024975
 11
884.7465547628
 21
151.7329024975
  0
LINE
  5
32F
100
AcDbEntity
  8
BEZUGSACHSEN
100
AcDbLine
 62
7
  6
CONTINUOUS
 10
884.4135815271
 20
152.076308796
 11
884.605739141
 21
152.076308796
  0
LINE
  5
330
100
AcDbEntity
  8
BEZUGSACHSEN
100
AcDbLine
 62
7
  6
CONTINUOUS
 10
884.1430743536
 20
152.8481034943
 11
884.3282482425
 21
152.8481034943
  0
LINE
  5
331
100
AcDbEntity
  8
BEZUGSACHSEN
100
AcDbLine
 62
7
  6
CONTINUOUS
 10
884.322260557
 20
153.1013074197
 11
884.4121084483
 21
153.1013074197
  0
LINE
  5
332
100
AcDbEntity
  8
BEZUGSACHSEN
100
AcDbLine
 62
7
  6
CONTINUOUS
 10
884.2074581193
 20
153.4004830195
 11
884.3387937931
 21
153.4004830195
  0
LINE
  5
333
100
AcDbEntity
  8
BEZUGSACHSEN
100
AcDbLine
 62
7
  6
CONTINUOUS
 10
883.8570192175
 20
153.6623883643
 11
884.0547050343
 21
153.6623883643
  0
LINE
  5
334
100
AcDbEntity
  8
BEZUGSACHSEN
100
AcDbLine
 62
7
  6
CONTINUOUS
 10
884.0408720498
 20
153.892607182
 11
884.1982552204
 21
153.892607182
  0
LINE
  5
335
100
AcDbEntity
  8
BEZUGSACHSEN
100
AcDbLine
 62
7
  6
CONTINUOUS
 10
883.8243321973
 20
154.5564345587
 11
883.9948451109
 21
154.5564345587
  0
LINE
  5
336
100
AcDbEntity
  8
BEZUGSACHSEN
100
AcDbLine
 62
7
  6
CONTINUOUS
 10
883.4872738018
 20
154.7121130527
 11
883.7169882873
 21
154.7121130527
  0
LINE
  5
337
100
AcDbEntity
  8
BEZUGSACHSEN
100
AcDbLine
 62
7
  6
CONTINUOUS
 10
882.7140218753
 20
155.9249941196
 11
883.0203728045
 21
155.9249941196
  0
LINE
  5
338
100
AcDbEntity
  8
BEZUGSACHSEN
100
AcDbLine
 62
7
  6
CONTINUOUS
 10
883.3452747696
 20
156.0787780843
 11
883.4748490673
 21
156.0787780843
  0
LINE
  5
339
100
AcDbEntity
  8
BEZUGSACHSEN
100
AcDbLine
 62
7
  6
CONTINUOUS
 10
882.5989448044
 20
156.2796273937
 11
882.948216951
 21
156.2796273937
  0
LINE
  5
33A
100
AcDbEntity
  8
BEZUGSACHSEN
100
AcDbLine
 62
7
  6
CONTINUOUS
 10
882.4328824299
 20
156.79137853
 11
882.8100119049
 21
156.79137853
  0
LINE
  5
33B
100
AcDbEntity
  8
BEZUGSACHSEN
100
AcDbLine
 62
7
  6
CONTINUOUS
 10
882.9433402003
 20
157.3639417684
 11
883.07267688
 21
157.3639417684
  0
LINE
  5
33C
100
AcDbEntity
  8
BEZUGSACHSEN
100
AcDbLine
 62
7
  6
CONTINUOUS
 10
882.2158330159
 20
157.4602486587
 11
882.6067518017
 21
157.4602486587
  0
LINE
  5
33D
100
AcDbEntity
  8
BEZUGSACHSEN
100
AcDbLine
 62
7
  6
CONTINUOUS
 10
882.8436701733
 20
157.6826223572
 11
883.039701844
 21
157.6826223572
  0
LINE
  5
33E
100
AcDbEntity
  8
BEZUGSACHSEN
100
AcDbLine
 62
7
  6
CONTINUOUS
 10
882.5348191599
 20
157.925022563
 11
882.713097073
 21
157.925022563
  0
LINE
  5
33F
100
AcDbEntity
  8
BEZUGSACHSEN
100
AcDbLine
 62
7
  6
CONTINUOUS
 10
882.0133404873
 20
158.0797402304
 11
882.4058403395
 21
158.0797402304
  0
LINE
  5
340
100
AcDbEntity
  8
BEZUGSACHSEN
100
AcDbLine
 62
7
  6
CONTINUOUS
 10
864.2340269316
 20
158.6342633769
 11
878.0733528234
 21
158.6342633769
  0
LINE
  5
341
100
AcDbEntity
  8
BEZUGSACHSEN
100
AcDbLine
 62
7
  6
CONTINUOUS
 10
882.0207526207
 20
158.649852088
 11
882.2071968276
 21
158.649852088
  0
LINE
  5
342
100
AcDbEntity
  8
BEZUGSACHSEN
100
AcDbLine
 62
7
  6
CONTINUOUS
 10
880.9477056228
 20
158.8204653054
 11
881.6662383243
 21
158.8204653054
  0
LINE
  5
343
100
AcDbEntity
  8
BEZUGSACHSEN
100
AcDbLine
 62
7
  6
CONTINUOUS
 10
882.0151449411
 20
158.9640889425
 11
882.0772739957
 21
158.9640889425
  0
LINE
  5
344
100
AcDbEntity
  8
BEZUGSACHSEN
100
AcDbLine
 62
7
  6
CONTINUOUS
 10
882.1640823294
 20
159.0172379482
 11
882.3812542107
 21
159.0172379482
  0
LINE
  5
345
100
AcDbEntity
  8
BEZUGSACHSEN
100
AcDbLine
 62
7
  6
CONTINUOUS
 10
882.3025049984
 20
159.4828956478
 11
882.4546375476
 21
159.4828956478
  0
LINE
  5
346
100
AcDbEntity
  8
BEZUGSACHSEN
100
AcDbLine
 62
7
  6
CONTINUOUS
 10
881.7994554813
 20
159.9165048069
 11
882.1185643835
 21
159.9165048069
  0
LINE
  5
347
100
AcDbEntity
  8
BEZUGSACHSEN
100
AcDbLine
 62
7
  6
CONTINUOUS
 10
880.9756130111
 20
160.0055555168
 11
881.6813462239
 21
160.0055555168
  0
LINE
  5
348
100
AcDbEntity
  8
BEZUGSACHSEN
100
AcDbLine
 62
7
  6
CONTINUOUS
 10
881.0400262153
 20
160.0459519364
 11
881.740375059
 21
160.0459519364
  0
LINE
  5
349
100
AcDbEntity
  8
BEZUGSACHSEN
100
AcDbLine
 62
7
  6
CONTINUOUS
 10
882.1337801897
 20
160.1042325552
 11
882.2559739287
 21
160.1042325552
  0
LINE
  5
34A
100
AcDbEntity
  8
BEZUGSACHSEN
100
AcDbLine
 62
7
  6
CONTINUOUS
 10
882.0694187864
 20
160.4688843322
 11
882.1277816034
 21
160.4688843322
  0
LINE
  5
34B
100
AcDbEntity
  8
BEZUGSACHSEN
100
AcDbLine
 62
7
  6
CONTINUOUS
 10
881.1765901353
 20
160.8582617625
 11
881.8588869273
 21
160.8582617625
  0
LINE
  5
34C
100
AcDbEntity
  8
BEZUGSACHSEN
100
AcDbLine
 62
7
  6
CONTINUOUS
 10
881.0423410269
 20
161.3716313097
 11
881.7305703912
 21
161.3716313097
  0
LINE
  5
34D
100
AcDbEntity
  8
BEZUGSACHSEN
100
AcDbLine
 62
7
  6
CONTINUOUS
 10
880.9766728236
 20
161.6920519579
 11
881.667187421
 21
161.6920519579
  0
LINE
  5
34E
100
AcDbEntity
  8
BEZUGSACHSEN
100
AcDbLine
 62
7
  6
CONTINUOUS
 10
880.9751766502
 20
161.8832603112
 11
881.664093753
 21
161.8832603112
  0
LINE
  5
34F
100
AcDbEntity
  8
BEZUGSACHSEN
100
AcDbLine
 62
7
  6
CONTINUOUS
 10
878.0733528234
 20
171.0845711619
 11
864.2340269316
 21
171.0845711619
  0
LINE
  5
350
100
AcDbEntity
  8
KONSTRUKTIONSELEMENTE
100
AcDbLine
 62
7
  6
CONTINUOUS
 10
767.3504143993
 20
99.3248044263
 11
772.3001618676
 21
94.375056958
  0
LINE
  5
351
100
AcDbEntity
  8
KONSTRUKTIONSELEMENTE
100
AcDbLine
 62
7
  6
CONTINUOUS
 10
767.7039677899
 20
99.6783578169
 11
772.6537152582
 21
94.7286103486
  0
LINE
  5
352
100
AcDbEntity
  8
BEZUGSACHSEN
100
AcDbLine
 62
7
  6
CONTINUOUS
 10
844.9732676126
 20
6.2931455048
 11
840.9310411251
 21
12.6679829761
  0
LINE
  5
353
100
AcDbEntity
  8
RUNDUNGEN
100
AcDbLine
 62
7
  6
CONTINUOUS
 10
900.8139439153
 20
43.2144213348
 11
894.8331818018
 21
53.5734051834
  0
LWPOLYLINE
  5
354
100
AcDbEntity
  8
BEZUGSACHSEN
100
AcDbPolyline
 62
7
  6
CONTINUOUS
 90
6
 70
0
 10
854.2500572378
 20
134.1914057211
 10
854.5055765741
 20
133.6399008465
 10
854.833540502
 20
133.1228166129
 10
855.228908327
 20
132.648856522
 10
855.6871860783
 20
132.224877364
 10
856.1536898775
 20
131.8923732854
  0
LINE
  5
355
100
AcDbEntity
  8
0
100
AcDbLine
 62
7
  6
CONTINUOUS
 10
780.1536898775
 20
186.7939132591
 11
780.1536898775
 21
276.7939132591
  0
LINE
  5
356
100
AcDbEntity
  8
BEZUGSACHSEN
100
AcDbLine
 62
7
  6
CONTINUOUS
 10
854.0682159334
 20
134.7778504969
 11
854.2500572378
 21
134.1914057211
  0
LINE
  5
357
100
AcDbEntity
  8
BEZUGSACHSEN
100
AcDbLine
 62
7
  6
CONTINUOUS
 10
863.1612916002
 20
63.3810463556
 11
863.524047557
 21
59.8734264905
  0
LINE
  5
358
100
AcDbEntity
  8
0
100
AcDbLine
 62
7
  6
CONTINUOUS
 10
816.1536898775
 20
186.7939132591
 11
816.1536898775
 21
276.7939132591
  0
LINE
  5
359
100
AcDbEntity
  8
0
100
AcDbLine
 62
7
  6
CONTINUOUS
 10
878.0733528234
 20
171.0845711619
 11
881.0854831907
 21
161.8832603112
  0
LINE
  5
35A
100
AcDbEntity
  8
0
100
AcDbLine
 62
7
  6
CONTINUOUS
 10
884.7692072928
 20
150.6303972483
 11
888.1137294942
 21
140.4137118233
  0
LINE
  5
35B
100
AcDbEntity
  8
BEZUGSACHSEN
100
AcDbLine
 62
7
  6
CONTINUOUS
 10
853.96898062
 20
135.3656480032
 11
854.0704190261
 21
134.7686268396
  0
LINE
  5
35C
100
AcDbEntity
  8
BEZUGSACHSEN
100
AcDbLine
 62
7
  6
CONTINUOUS
 10
865.1536898775
 20
49.2761491424
 11
863.524047557
 21
59.8734264905
  0
LINE
  5
35D
100
AcDbEntity
  8
BEZUGSACHSEN
100
AcDbLine
 62
7
  6
CONTINUOUS
 10
853.9455295823
 20
135.8222497203
 11
853.9691885705
 21
135.3615991198
  0
LINE
  5
35E
100
AcDbEntity
  8
RUNDUNGEN
100
AcDbLine
 62
7
  6
CONTINUOUS
 10
879.2331656035
 20
65.9258077558
 11
878.5396991418
 21
85.7488920926
  0
LINE
  5
35F
100
AcDbEntity
  8
BEZUGSACHSEN
100
AcDbLine
 62
7
  6
CONTINUOUS
 10
863.3013342947
 20
99.3774506726
 11
863.7676806132
 21
85.7488920926
  0
LINE
  5
360
100
AcDbEntity
  8
BEZUGSACHSEN
100
AcDbLine
 62
7
  6
CONTINUOUS
 10
840.1536898775
 20
15.3455261623
 11
840.1536898775
 21
38.2144213348
  0
LINE
  5
361
100
AcDbEntity
  8
0
100
AcDbLine
 62
7
  6
CONTINUOUS
 10
845.6536898775
 20
817.2939132591
 11
845.6536898775
 21
306.2939132591
  0
LINE
  5
362
100
AcDbEntity
  8
BEZUGSACHSEN
100
AcDbLine
 62
7
  6
CONTINUOUS
 10
850.1536898775
 20
63.5734051834
 11
850.1536898775
 21
72.2974365849
  0
LINE
  5
363
100
AcDbEntity
  8
BEZUGSACHSEN
100
AcDbLine
 62
7
  6
CONTINUOUS
 10
853.9455150828
 20
135.8222238013
 11
853.945514941
 21
138.8581469546
  0
LINE
  5
364
100
AcDbEntity
  8
BEZUGSACHSEN
100
AcDbLine
 62
7
  6
CONTINUOUS
 10
856.1536898775
 20
139.7456889824
 11
856.1536898775
 21
81.4625879749
  0
LINE
  5
365
100
AcDbEntity
  8
BEZUGSACHSEN
100
AcDbLine
 62
7
  6
CONTINUOUS
 10
865.1536898775
 20
49.2761491424
 11
865.1536898775
 21
46.7177479555
  0
LINE
  5
366
100
AcDbEntity
  8
BEZUGSACHSEN
100
AcDbLine
 62
7
  6
CONTINUOUS
 10
863.0742141515
 20
65.9258077558
 11
863.7676806132
 21
85.7488920926
  0
LINE
  5
367
100
AcDbEntity
  8
RUNDUNGEN
100
AcDbLine
 62
7
  6
CONTINUOUS
 10
877.1536898775
 20
49.2761491424
 11
877.1536898775
 21
46.7177479555
  0
LINE
  5
368
100
AcDbEntity
  8
BEZUGSACHSEN
100
AcDbLine
 62
7
  6
CONTINUOUS
 10
886.1536898775
 20
139.7456889824
 11
886.1536898775
 21
101.8598402196
  0
LINE
  5
369
100
AcDbEntity
  8
RUNDUNGEN
100
AcDbLine
 62
7
  6
CONTINUOUS
 10
886.1536898775
 20
101.8598401782
 11
886.1536898775
 21
81.4625879749
  0
LINE
  5
36A
100
AcDbEntity
  8
0
100
AcDbLine
 62
7
  6
CONTINUOUS
 10
886.1536898775
 20
101.8598402196
 11
886.1536898775
 21
81.4625879749
  0
LINE
  5
36B
100
AcDbEntity
  8
0
100
AcDbLine
 62
7
  6
CONTINUOUS
 10
888.361864814
 20
135.823341544
 11
888.361864814
 21
138.8581469546
  0
LINE
  5
36C
100
AcDbEntity
  8
RUNDUNGEN
100
AcDbLine
 62
7
  6
CONTINUOUS
 10
892.1536898775
 20
63.5734051834
 11
892.1536898775
 21
72.2974365849
  0
LINE
  5
36D
100
AcDbEntity
  8
0
100
AcDbLine
 62
7
  6
CONTINUOUS
 10
896.6536898775
 20
817.2939132591
 11
896.6536898775
 21
306.2939132591
  0
LINE
  5
36E
100
AcDbEntity
  8
RUNDUNGEN
100
AcDbLine
 62
7
  6
CONTINUOUS
 10
902.1536898775
 20
15.3455261623
 11
902.1536898775
 21
38.2144213348
  0
LINE
  5
36F
100
AcDbEntity
  8
RUNDUNGEN
100
AcDbLine
 62
7
  6
CONTINUOUS
 10
888.3618647727
 20
135.8227131841
 11
888.3618648139
 21
135.8232821552
  0
LINE
  5
370
100
AcDbEntity
  8
RUNDUNGEN
100
AcDbLine
 62
7
  6
CONTINUOUS
 10
886.1536452892
 20
139.7088448993
 11
886.1536892975
 21
139.7412966928
  0
LINE
  5
371
100
AcDbEntity
  8
0
100
AcDbLine
 62
7
  6
CONTINUOUS
 10
879.0060454603
 20
99.3774506726
 11
878.5396991418
 21
85.7488920926
  0
LINE
  5
372
100
AcDbEntity
  8
RUNDUNGEN
100
AcDbLine
 62
7
  6
CONTINUOUS
 10
888.3303884156
 20
135.2911340401
 11
888.3618502732
 21
135.8227399471
  0
LINE
  5
373
100
AcDbEntity
  8
0
100
AcDbLine
 62
7
  6
CONTINUOUS
 10
926.1536898775
 20
276.7939132591
 11
926.1536898775
 21
186.7939132591
  0
LINE
  5
374
100
AcDbEntity
  8
RUNDUNGEN
100
AcDbLine
 62
7
  6
CONTINUOUS
 10
879.1460881548
 20
63.3810463556
 11
878.783332198
 21
59.8734264905
  0
LINE
  5
375
100
AcDbEntity
  8
0
100
AcDbLine
 62
7
  6
CONTINUOUS
 10
877.1536898775
 20
49.2761491424
 11
878.783332198
 21
59.8734264905
  0
LINE
  5
376
100
AcDbEntity
  8
RUNDUNGEN
100
AcDbLine
 62
7
  6
CONTINUOUS
 10
888.2215923145
 20
134.7065061172
 11
888.3312219473
 21
135.2982040762
  0
LINE
  5
377
100
AcDbEntity
  8
BEZUGSACHSEN
100
AcDbLine
 62
7
  6
CONTINUOUS
 10
854.1936502608
 20
140.4137118233
 11
864.2340269316
 21
171.0845711619
  0
LINE
  5
378
100
AcDbEntity
  8
0
100
AcDbLine
 62
7
  6
CONTINUOUS
 10
962.1536898775
 20
276.7939132591
 11
962.1536898775
 21
186.7939132591
  0
LINE
  5
379
100
AcDbEntity
  8
KONSTRUKTIONSELEMENTE
100
AcDbLine
 62
7
  6
CONTINUOUS
 10
710.2868971576
 20
42.2612871845
 11
714.3174058103
 21
46.2917958373
  0
LINE
  5
37A
100
AcDbEntity
  8
KONSTRUKTIONSELEMENTE
100
AcDbLine
 62
7
  6
CONTINUOUS
 10
714.6709592009
 20
46.6453492279
 11
718.7014678537
 21
50.6758578807
  0
LINE
  5
37B
100
AcDbEntity
  8
KONSTRUKTIONSELEMENTE
100
AcDbLine
 62
7
  6
CONTINUOUS
 10
763.3199057466
 20
95.2942957735
 11
767.3504143993
 21
99.3248044263
  0
LINE
  5
37C
100
AcDbEntity
  8
KONSTRUKTIONSELEMENTE
100
AcDbLine
 62
7
  6
CONTINUOUS
 10
767.7039677899
 20
99.6783578169
 11
771.7344764427
 21
103.7088664697
  0
LINE
  5
37D
100
AcDbEntity
  8
KONSTRUKTIONSELEMENTE
100
AcDbLine
 62
7
  6
CONTINUOUS
 10
745.5008148606
 20
75.5660165784
 11
738.1469043363
 21
68.2121060541
  0
LINE
  5
37E
100
AcDbEntity
  8
KONSTRUKTIONSELEMENTE
100
AcDbLine
 62
7
  6
CONTINUOUS
 10
715.2366446259
 20
37.3115397162
 11
719.2671532786
 21
41.342048369
  0
LINE
  5
37F
100
AcDbEntity
  8
KONSTRUKTIONSELEMENTE
100
AcDbLine
 62
7
  6
CONTINUOUS
 10
719.6207066692
 20
41.6956017596
 11
723.651215322
 21
45.7261104124
  0
LINE
  5
380
100
AcDbEntity
  8
KONSTRUKTIONSELEMENTE
100
AcDbLine
 62
7
  6
CONTINUOUS
 10
768.2696532149
 20
90.3445483052
 11
772.3001618676
 21
94.375056958
  0
LINE
  5
381
100
AcDbEntity
  8
KONSTRUKTIONSELEMENTE
100
AcDbLine
 62
7
  6
CONTINUOUS
 10
772.6537152582
 20
94.7286103486
 11
776.684223911
 21
98.7591190014
  0
LINE
  5
382
100
AcDbEntity
  8
KONSTRUKTIONSELEMENTE
100
AcDbLine
 62
7
  6
CONTINUOUS
 10
832.2628169122
 20
153.5598945433
 11
777.1084879797
 21
98.4055656108
  0
LINE
  5
383
100
AcDbEntity
  8
KONSTRUKTIONSELEMENTE
100
AcDbLine
 62
7
  6
CONTINUOUS
 10
750.0262982602
 20
71.0405331788
 11
742.6723877359
 21
63.6866226545
  0
LINE
  5
384
100
AcDbEntity
  8
KONSTRUKTIONSELEMENTE
100
AcDbLine
 62
7
  6
CONTINUOUS
 10
725.418982275
 20
45.5846890561
 11
742.6362985039
 21
62.8020052851
  0
LINE
  5
385
100
AcDbEntity
  8
KONSTRUKTIONSELEMENTE
100
AcDbLine
 62
7
  6
CONTINUOUS
 10
750.8748263977
 20
71.0405331788
 11
768.0921426266
 21
88.2578494078
  0
LINE
  5
386
100
AcDbEntity
  8
BEZUGSACHSEN
100
AcDbLine
 62
7
  6
CONTINUOUS
 10
718.4178308438
 20
37.5935881313
 11
717.5534184106
 21
36.7291756982
  0
LINE
  5
387
100
AcDbEntity
  8
KONSTRUKTIONSELEMENTE
100
AcDbLine
 62
7
  6
CONTINUOUS
 10
569.2190943108
 20
-111.6051484016
 11
717.5534184106
 21
36.7291756982
  0
LINE
  5
388
100
AcDbEntity
  8
KONSTRUKTIONSELEMENTE
100
AcDbLine
 62
7
  6
CONTINUOUS
 10
601.1096101424
 20
-81.2702674887
 11
569.9969117701
 21
-112.3829658609
  0
LINE
  5
389
100
AcDbEntity
  8
KONSTRUKTIONSELEMENTE
100
AcDbLine
 62
7
  6
CONTINUOUS
 10
672.6189976995
 20
-9.7608799316
 11
681.6429772568
 21
-0.7369003743
  0
LINE
  5
38A
100
AcDbEntity
  8
KONSTRUKTIONSELEMENTE
100
AcDbLine
 62
7
  6
CONTINUOUS
 10
603.0895091297
 20
-83.2501664761
 11
571.9768107575
 21
-114.3628648483
  0
LINE
  5
38B
100
AcDbEntity
  8
KONSTRUKTIONSELEMENTE
100
AcDbLine
 62
7
  6
CONTINUOUS
 10
674.5988966869
 20
-11.7407789189
 11
683.6228762441
 21
-2.7167993616
  0
LINE
  5
38C
100
AcDbEntity
  8
BEZUGSACHSEN
100
AcDbLine
 62
7
  6
CONTINUOUS
 10
721.9533647497
 20
34.0580542254
 11
721.0889523166
 21
33.1936417922
  0
LINE
  5
38D
100
AcDbEntity
  8
KONSTRUKTIONSELEMENTE
100
AcDbLine
 62
7
  6
CONTINUOUS
 10
572.7546282168
 20
-115.1406823076
 11
721.0889523166
 21
33.1936417922
  0
LINE
  5
38E
100
AcDbEntity
  8
KONSTRUKTIONSELEMENTE
100
AcDbLine
 62
7
  6
CONTINUOUS
 10
729.9444656745
 20
41.0592056565
 11
747.1617819035
 21
58.2765218855
  0
LINE
  5
38F
100
AcDbEntity
  8
KONSTRUKTIONSELEMENTE
100
AcDbLine
 62
7
  6
CONTINUOUS
 10
755.4003097973
 20
66.5150497792
 11
772.6176260262
 21
83.7323660082
  0
LINE
  5
390
100
AcDbEntity
  8
KONSTRUKTIONSELEMENTE
100
AcDbLine
 62
7
  6
CONTINUOUS
 10
748.0463992729
 20
58.3126111175
 11
755.4003097973
 21
65.6665216418
  0
LINE
  5
391
100
AcDbEntity
  8
KONSTRUKTIONSELEMENTE
100
AcDbLine
 62
7
  6
CONTINUOUS
 10
837.9196711617
 20
147.9030402938
 11
782.7653422292
 21
92.7487113613
  0
LINE
  5
392
100
AcDbEntity
  8
KONSTRUKTIONSELEMENTE
100
AcDbLine
 62
7
  6
CONTINUOUS
 10
783.1188956198
 20
92.3244472926
 11
774.7043249237
 21
83.9098765964
  0
LINE
  5
393
100
AcDbEntity
  8
KONSTRUKTIONSELEMENTE
100
AcDbLine
 62
7
  6
CONTINUOUS
 10
730.0858870308
 20
39.2914387036
 11
721.6713163347
 21
30.8768680074
  0
LINE
  5
394
100
AcDbEntity
  8
KONSTRUKTIONSELEMENTE
100
AcDbLine
 62
7
  6
CONTINUOUS
 10
752.5718826725
 20
53.7871277179
 11
759.9257931969
 21
61.1410382422
  0
LINE
  5
395
100
AcDbEntity
  8
KONSTRUKTIONSELEMENTE
100
AcDbLine
 62
7
  6
CONTINUOUS
 10
788.0686430881
 20
87.3746998243
 11
779.654072392
 21
78.9601291281
  0
LINE
  5
396
100
AcDbEntity
  8
KONSTRUKTIONSELEMENTE
100
AcDbLine
 62
7
  6
CONTINUOUS
 10
735.0356344991
 20
34.3416912353
 11
726.621063803
 21
25.9271205391
  0
LINE
  5
397
100
AcDbEntity
  8
BEZUGSACHSEN
100
AcDbLine
 62
7
  6
CONTINUOUS
 10
841.4934358397
 20
43.2144213348
 11
847.4741979532
 21
53.5734051834
  0
LWPOLYLINE
  5
398
100
AcDbEntity
  8
RUNDUNGEN
100
AcDbPolyline
 62
7
  6
CONTINUOUS
 90
7
 70
0
 10
886.1536898775
 20
131.8938141264
 10
886.5959667904
 20
132.2053011549
 10
887.0525642971
 20
132.6218067001
 10
887.4477860608
 20
133.0874503435
 10
887.7773466604
 20
133.5956814162
 10
888.0364240104
 20
134.1381514192
 10
888.2239135929
 20
134.7156536895
  0
LINE
  5
399
100
AcDbEntity
  8
RUNDUNGEN
100
AcDbLine
 62
7
  6
CONTINUOUS
 10
897.3341121424
 20
6.2931455048
 11
901.3763386299
 21
12.6679829761
  0
LINE
  5
39A
100
AcDbEntity
  8
RUNDUNGEN
100
AcDbLine
 62
7
  6
CONTINUOUS
 10
896.321356081
 20
4.7945050403
 11
897.3341121424
 21
6.2931455048
  0
ARC
  5
39B
100
AcDbEntity
  8
BEZUGSACHSEN
100
AcDbCircle
 62
7
  6
CONTINUOUS
 10
288.3858617095
 20
3.3538220545
 40
34.235761535
100
AcDbArc
 50
95.7096704505
 51
102.8725206806
  0
ARC
  5
39C
100
AcDbEntity
  8
KONSTRUKTIONSELEMENTE
100
AcDbCircle
 62
7
  6
CONTINUOUS
 10
265.3025523194
 20
-95.9902655827
 40
12.1186269458
100
AcDbArc
 50
80.7865697041
 51
83.8952734692
  0
ARC
  5
39D
100
AcDbEntity
  8
BEZUGSACHSEN
100
AcDbCircle
 62
7
  6
CONTINUOUS
 10
251.5630793295
 20
-3.1060763399
 40
5.0
100
AcDbArc
 50
220.0001555872
 51
270.0001000089
  0
ARC
  5
39E
100
AcDbEntity
  8
RUNDUNGEN
100
AcDbCircle
 62
7
  6
CONTINUOUS
 10
242.4841549298
 20
7.7137644304
 40
5.0
100
AcDbArc
 50
180.0
 51
220.0
  0
ARC
  5
39F
100
AcDbEntity
  8
RUNDUNGEN
100
AcDbCircle
 62
7
  6
CONTINUOUS
 10
232.4841549298
 20
39.0510952584
 40
5.0
100
AcDbArc
 50
0.0
 51
30.0
  0
ARC
  5
3A0
100
AcDbEntity
  8
BEZUGSACHSEN
100
AcDbCircle
 62
7
  6
CONTINUOUS
 10
242.4841549298
 20
7.7137644304
 40
5.0
100
AcDbArc
 50
180.0
 51
220.0
  0
ARC
  5
3A1
100
AcDbEntity
  8
KONSTRUKTIONSELEMENTE
100
AcDbCircle
 62
7
  6
CONTINUOUS
 10
273.9642309643
 20
-90.2638429112
 40
4.5106910411
100
AcDbArc
 50
9.112215659
 51
9.8872067218
  0
ARC
  5
3A2
100
AcDbEntity
  8
KONSTRUKTIONSELEMENTE
100
AcDbCircle
 62
7
  6
CONTINUOUS
 10
274.040328396
 20
-90.2529382938
 40
4.4338271912
100
AcDbArc
 50
0.0312035642
 51
9.1288137427
  0
ARC
  5
3A3
100
AcDbEntity
  8
KONSTRUKTIONSELEMENTE
100
AcDbCircle
 62
7
  6
CONTINUOUS
 10
286.3808645684
 20
80.3091715615
 40
1.9204151671
100
AcDbArc
 50
137.0052288833
 51
139.4576183351
  0
ARC
  5
3A4
100
AcDbEntity
  8
KONSTRUKTIONSELEMENTE
100
AcDbCircle
 62
7
  6
CONTINUOUS
 10
286.186465947
 20
80.4755786904
 40
1.6645203724
100
AcDbArc
 50
139.4609188041
 51
141.8338826567
  0
ARC
  5
3A5
100
AcDbEntity
  8
0
100
AcDbCircle
 62
7
  6
CONTINUOUS
 10
288.4841549298
 20
-82.1625891824
 40
80.0
100
AcDbArc
 50
67.7750981556
 51
81.1194498884
  0
ARC
  5
3A6
100
AcDbEntity
  8
0
100
AcDbCircle
 62
7
  6
CONTINUOUS
 10
288.4841549298
 20
-82.1625891824
 40
80.0
100
AcDbArc
 50
98.8805501116
 51
112.2249018444
  0
ARC
  5
3A7
100
AcDbEntity
  8
BEZUGSACHSEN
100
AcDbCircle
 62
7
  6
CONTINUOUS
 10
288.64454488
 20
3.7333940633
 40
33.8519033272
100
AcDbArc
 50
77.0868144446
 51
84.3309944243
  0
ARC
  5
3A8
100
AcDbEntity
  8
BEZUGSACHSEN
100
AcDbCircle
 62
7
  6
CONTINUOUS
 10
288.4841549298
 20
105.8939132591
 40
26.0
100
AcDbArc
 50
133.8788621612
 51
46.1211378388
  0
ARC
  5
3A9
100
AcDbEntity
  8
0
100
AcDbCircle
 62
7
  6
CONTINUOUS
 10
288.4841549298
 20
113.7939132591
 40
18.0
100
AcDbArc
 50
180.0
 51
360.0
  0
ARC
  5
3AA
100
AcDbEntity
  8
0
100
AcDbCircle
 62
7
  6
CONTINUOUS
 10
288.4841549298
 20
50.5439132591
 40
12.35
100
AcDbArc
 50
178.6532229189
 51
180.0
  0
ARC
  5
3AB
100
AcDbEntity
  8
0
100
AcDbCircle
 62
7
  6
CONTINUOUS
 10
288.4841549298
 20
50.5439132591
 40
12.35
100
AcDbArc
 50
0.0
 51
1.3467770811
  0
ARC
  5
3AC
100
AcDbEntity
  8
RUNDUNGEN
100
AcDbCircle
 62
7
  6
CONTINUOUS
 10
288.4841549298
 20
50.5439132591
 40
12.35
100
AcDbArc
 50
1.3467770811
 51
178.6532229189
  0
ARC
  5
3AD
100
AcDbEntity
  8
KONSTRUKTIONSELEMENTE
100
AcDbCircle
 62
7
  6
CONTINUOUS
 10
311.183400287
 20
-93.6093594859
 40
10.2888693585
100
AcDbArc
 50
111.2384503882
 51
112.1140025065
  0
ARC
  5
3AE
100
AcDbEntity
  8
KONSTRUKTIONSELEMENTE
100
AcDbCircle
 62
7
  6
CONTINUOUS
 10
311.1026925552
 20
-93.4123757443
 40
10.0759939371
100
AcDbArc
 50
112.1105000658
 51
113.9508226432
  0
ARC
  5
3AF
100
AcDbEntity
  8
RUNDUNGEN
100
AcDbCircle
 62
7
  6
CONTINUOUS
 10
344.4841549298
 20
39.0510952584
 40
5.0
100
AcDbArc
 50
150.0
 51
180.0
  0
ARC
  5
3B0
100
AcDbEntity
  8
BEZUGSACHSEN
100
AcDbCircle
 62
7
  6
CONTINUOUS
 10
334.4841549298
 20
7.7137644304
 40
5.0
100
AcDbArc
 50
320.0
 51
360.0
  0
ARC
  5
3B1
100
AcDbEntity
  8
RUNDUNGEN
100
AcDbCircle
 62
7
  6
CONTINUOUS
 10
334.4841549298
 20
7.7137644304
 40
5.0
100
AcDbArc
 50
320.0
 51
360.0
  0
ARC
  5
3B2
100
AcDbEntity
  8
BEZUGSACHSEN
100
AcDbCircle
 62
7
  6
CONTINUOUS
 10
325.4052256619
 20
-3.1060821414
 40
5.0
100
AcDbArc
 50
269.9999557743
 51
319.9999311969
  0
CIRCLE
  5
3B3
100
AcDbEntity
  8
BEZUGSACHSEN
100
AcDbCircle
 62
7
  6
CONTINUOUS
 10
327.6841549298
 20
22.8939132591
 40
4.0
  0
ARC
  5
3B4
100
AcDbEntity
  8
KONSTRUKTIONSELEMENTE
100
AcDbCircle
 62
7
  6
CONTINUOUS
 10
288.4841549298
 20
50.558774558
 40
3.5
100
AcDbArc
 50
144.93427076
 51
180.0
  0
ARC
  5
3B5
100
AcDbEntity
  8
KONSTRUKTIONSELEMENTE
100
AcDbCircle
 62
7
  6
CONTINUOUS
 10
288.4841549298
 20
50.558774558
 40
3.5
100
AcDbArc
 50
0.0
 51
35.06572924
  0
ARC
  5
3B6
100
AcDbEntity
  8
KONSTRUKTIONSELEMENTE
100
AcDbCircle
 62
7
  6
CONTINUOUS
 10
288.4841549298
 20
53.999616886
 40
3.2
100
AcDbArc
 50
180.0
 51
360.0
  0
ARC
  5
3B7
100
AcDbEntity
  8
KONSTRUKTIONSELEMENTE
100
AcDbCircle
 62
7
  6
CONTINUOUS
 10
290.5890965746
 20
80.3108524664
 40
1.9180607947
100
AcDbArc
 50
40.4852452525
 51
42.9904712434
  0
ARC
  5
3B8
100
AcDbEntity
  8
KONSTRUKTIONSELEMENTE
100
AcDbCircle
 62
7
  6
CONTINUOUS
 10
290.7831031058
 20
80.4766843932
 40
1.6628378932
100
AcDbArc
 50
38.165330464
 51
40.4794514377
  0
ARC
  5
3B9
100
AcDbEntity
  8
0
100
AcDbCircle
 62
7
  6
CONTINUOUS
 10
288.4841549298
 20
456.7939132591
 40
176.0
100
AcDbArc
 50
180.0
 51
264.1293047439
  0
ARC
  5
3BA
100
AcDbEntity
  8
0
100
AcDbCircle
 62
7
  6
CONTINUOUS
 10
288.4841549298
 20
456.7939132591
 40
176.0
100
AcDbArc
 50
275.8706952561
 51
360.0
  0
ARC
  5
3BB
100
AcDbEntity
  8
0
100
AcDbCircle
 62
7
  6
CONTINUOUS
 10
288.4841549298
 20
666.7939132591
 40
176.0
100
AcDbArc
 50
0.0
 51
180.0
  0
ARC
  5
3BC
100
AcDbEntity
  8
0
100
AcDbCircle
 62
7
  6
CONTINUOUS
 10
288.4841549298
 20
666.7939132591
 40
125.0
100
AcDbArc
 50
0.0
 51
180.0
  0
ARC
  5
3BD
100
AcDbEntity
  8
0
100
AcDbCircle
 62
7
  6
CONTINUOUS
 10
288.4841549298
 20
456.7939132591
 40
125.0
100
AcDbArc
 50
180.0
 51
261.7198043823
  0
ARC
  5
3BE
100
AcDbEntity
  8
0
100
AcDbCircle
 62
7
  6
CONTINUOUS
 10
288.4841549298
 20
456.7939132591
 40
125.0
100
AcDbArc
 50
278.2801956177
 51
360.0
  0
ARC
  5
3BF
100
AcDbEntity
  8
0
100
AcDbCircle
 62
7
  6
CONTINUOUS
 10
288.4841549298
 20
349.7939132591
 40
18.0
100
AcDbArc
 50
0.0
 51
180.0
  0
ARC
  5
3C0
100
AcDbEntity
  8
BEZUGSACHSEN
100
AcDbCircle
 62
7
  6
CONTINUOUS
 10
-305.8804532651
 20
-267.47275043
 40
1261.9755166207
100
AcDbArc
 50
19.3641196945
 51
19.490143244
  0
ARC
  5
3C1
100
AcDbEntity
  8
BEZUGSACHSEN
100
AcDbCircle
 62
7
  6
CONTINUOUS
 10
-95.3563414722
 20
-190.7562041773
 40
1038.0189225645
100
AcDbArc
 50
19.2220890897
 51
19.3907378297
  0
ARC
  5
3C2
100
AcDbEntity
  8
BEZUGSACHSEN
100
AcDbCircle
 62
7
  6
CONTINUOUS
 10
347.0260109578
 20
6.6426110191
 40
555.0874180581
100
AcDbArc
 50
14.3958158904
 51
14.5127286338
  0
ARC
  5
3C3
100
AcDbEntity
  8
BEZUGSACHSEN
100
AcDbCircle
 62
7
  6
CONTINUOUS
 10
363.7564105117
 20
4.4710124317
 40
538.1857394915
100
AcDbArc
 50
14.5231551649
 51
14.6425103139
  0
ARC
  5
3C4
100
AcDbEntity
  8
BEZUGSACHSEN
100
AcDbCircle
 62
7
  6
CONTINUOUS
 10
532.7881162377
 20
64.0985567927
 40
362.2331341217
100
AcDbArc
 50
15.3767838945
 51
15.4929600742
  0
ARC
  5
3C5
100
AcDbEntity
  8
0
100
AcDbCircle
 62
7
  6
CONTINUOUS
 10
561.1259955803
 20
67.7028258676
 40
333.3321441322
100
AcDbArc
 50
16.1007522845
 51
16.228414371
  0
ARC
  5
3C6
100
AcDbEntity
  8
BEZUGSACHSEN
100
AcDbCircle
 62
7
  6
CONTINUOUS
 10
573.0947791685
 20
73.3549535115
 40
318.3263352295
100
AcDbArc
 50
11.9767135113
 51
12.09915689
  0
ARC
  5
3C7
100
AcDbEntity
  8
BEZUGSACHSEN
100
AcDbCircle
 62
7
  6
CONTINUOUS
 10
583.9981483008
 20
79.4261336163
 40
307.4704357642
100
AcDbArc
 50
12.2816719309
 51
12.405659917
  0
ARC
  5
3C8
100
AcDbEntity
  8
0
100
AcDbCircle
 62
7
  6
CONTINUOUS
 10
607.4910855275
 20
79.2498937871
 40
282.7840597259
100
AcDbArc
 50
12.2835505192
 51
12.4215471117
  0
ARC
  5
3C9
100
AcDbEntity
  8
BEZUGSACHSEN
100
AcDbCircle
 62
7
  6
CONTINUOUS
 10
622.4759653028
 20
58.2660085715
 40
278.4104717152
100
AcDbArc
 50
19.6911364888
 51
19.8599229818
  0
ARC
  5
3CA
100
AcDbEntity
  8
0
100
AcDbCircle
 62
7
  6
CONTINUOUS
 10
615.8463532116
 20
84.6368941855
 40
274.6300263878
100
AcDbArc
 50
12.6609338408
 51
12.7999569238
  0
ARC
  5
3CB
100
AcDbEntity
  8
BEZUGSACHSEN
100
AcDbCircle
 62
7
  6
CONTINUOUS
 10
615.039588993
 20
86.9488741631
 40
272.8576224824
100
AcDbArc
 50
10.331171682
 51
10.5024678676
  0
ARC
  5
3CC
100
AcDbEntity
  8
BEZUGSACHSEN
100
AcDbCircle
 62
7
  6
CONTINUOUS
 10
643.0256530432
 20
-101.9836223204
 40
337.5699212061
100
AcDbArc
 50
44.2067801668
 51
44.5422381428
  0
ARC
  5
3CD
100
AcDbEntity
  8
BEZUGSACHSEN
100
AcDbCircle
 62
7
  6
CONTINUOUS
 10
683.8370934197
 20
-63.4972275029
 40
282.1470786403
100
AcDbArc
 50
44.5302810889
 51
44.9631328825
  0
ARC
  5
3CE
100
AcDbEntity
  8
KONSTRUKTIONSELEMENTE
100
AcDbCircle
 62
7
  6
CONTINUOUS
 10
718.4539804803
 20
34.0942038618
 40
11.55
100
AcDbArc
 50
237.5041463713
 51
315.0
  0
ARC
  5
3CF
100
AcDbEntity
  8
KONSTRUKTIONSELEMENTE
100
AcDbCircle
 62
7
  6
CONTINUOUS
 10
718.4539804803
 20
34.0942038618
 40
11.55
100
AcDbArc
 50
135.0
 51
212.4958536287
  0
ARC
  5
3D0
100
AcDbEntity
  8
KONSTRUKTIONSELEMENTE
100
AcDbCircle
 62
7
  6
CONTINUOUS
 10
718.4539804803
 20
34.0942038618
 40
4.55
100
AcDbArc
 50
258.4100243465
 51
315.0
  0
ARC
  5
3D1
100
AcDbEntity
  8
KONSTRUKTIONSELEMENTE
100
AcDbCircle
 62
7
  6
CONTINUOUS
 10
718.4539804803
 20
34.0942038618
 40
4.55
100
AcDbArc
 50
135.0
 51
191.5899756535
  0
ARC
  5
3D2
100
AcDbEntity
  8
BEZUGSACHSEN
100
AcDbCircle
 62
7
  6
CONTINUOUS
 10
845.1536898775
 20
15.3455261623
 40
5.0
100
AcDbArc
 50
180.0
 51
212.3784125141
  0
ARC
  5
3D3
100
AcDbEntity
  8
0
100
AcDbCircle
 62
7
  6
CONTINUOUS
 10
849.5439016511
 20
38.5574230198
 40
104.0691530848
100
AcDbArc
 50
70.6211248287
 51
70.7918576448
  0
ARC
  5
3D4
100
AcDbEntity
  8
BEZUGSACHSEN
100
AcDbCircle
 62
7
  6
CONTINUOUS
 10
850.1536898775
 20
38.2144213348
 40
10.0
100
AcDbArc
 50
150.0
 51
180.0
  0
ARC
  5
3D5
100
AcDbEntity
  8
RUNDUNGEN
100
AcDbCircle
 62
7
  6
CONTINUOUS
 10
871.1536898775
 20
22.8939132591
 40
31.0
100
AcDbArc
 50
324.2780864737
 51
327.6215874859
  0
ARC
  5
3D6
100
AcDbEntity
  8
BEZUGSACHSEN
100
AcDbCircle
 62
7
  6
CONTINUOUS
 10
871.1536898775
 20
22.8939132591
 40
31.0
100
AcDbArc
 50
212.3784125141
 51
327.6215874859
  0
CIRCLE
  5
3D7
100
AcDbEntity
  8
0
100
AcDbCircle
 62
7
  6
CONTINUOUS
 10
871.1536898775
 20
22.8939132591
 40
13.25
  0
ARC
  5
3D8
100
AcDbEntity
  8
0
100
AcDbCircle
 62
7
  6
CONTINUOUS
 10
897.1536898775
 20
15.3455261623
 40
5.0
100
AcDbArc
 50
327.6215874859
 51
360.0
  0
ARC
  5
3D9
100
AcDbEntity
  8
RUNDUNGEN
100
AcDbCircle
 62
7
  6
CONTINUOUS
 10
897.1536898775
 20
15.3455261623
 40
5.0
100
AcDbArc
 50
327.6215874859
 51
360.0
  0
ARC
  5
3DA
100
AcDbEntity
  8
RUNDUNGEN
100
AcDbCircle
 62
7
  6
CONTINUOUS
 10
892.1536898775
 20
38.2144213348
 40
10.0
100
AcDbArc
 50
0.0
 51
30.0
  0
ARC
  5
3DB
100
AcDbEntity
  8
0
100
AcDbCircle
 62
7
  6
CONTINUOUS
 10
892.1536898775
 20
38.2144213348
 40
10.0
100
AcDbArc
 50
15.2481577479
 51
19.4603255754
  0
ARC
  5
3DC
100
AcDbEntity
  8
0
100
AcDbCircle
 62
7
  6
CONTINUOUS
 10
892.1536898775
 20
38.2144213348
 40
10.0
100
AcDbArc
 50
9.5952458584
 51
14.9297393119
  0
ARC
  5
3DD
100
AcDbEntity
  8
0
100
AcDbCircle
 62
7
  6
CONTINUOUS
 10
892.1536898775
 20
38.2144213348
 40
10.0
100
AcDbArc
 50
0.0
 51
5.2454243806
  0
ARC
  5
3DE
100
AcDbEntity
  8
BEZUGSACHSEN
100
AcDbCircle
 62
7
  6
CONTINUOUS
 10
648.492676446
 20
83.3825076802
 40
246.0632363401
100
AcDbArc
 50
18.3038223416
 51
18.4932155372
  0
ARC
  5
3DF
100
AcDbEntity
  8
BEZUGSACHSEN
100
AcDbCircle
 62
7
  6
CONTINUOUS
 10
651.0663005465
 20
95.7710120552
 40
237.7228190001
100
AcDbArc
 50
10.3901626611
 51
10.5833449017
  0
ARC
  5
3E0
100
AcDbEntity
  8
BEZUGSACHSEN
100
AcDbCircle
 62
7
  6
CONTINUOUS
 10
669.8158171145
 20
102.4099380408
 40
218.9807453087
100
AcDbArc
 50
10.920841235
 51
11.1211806181
  0
ARC
  5
3E1
100
AcDbEntity
  8
BEZUGSACHSEN
100
AcDbCircle
 62
7
  6
CONTINUOUS
 10
675.4489518179
 20
107.3596895429
 40
209.7058319288
100
AcDbArc
 50
7.7956651812
 51
7.9449895985
  0
ARC
  5
3E2
100
AcDbEntity
  8
0
100
AcDbCircle
 62
7
  6
CONTINUOUS
 10
693.6107281969
 20
110.03351748
 40
190.5282068864
100
AcDbArc
 50
7.7736409883
 51
7.9379899223
  0
ARC
  5
3E3
100
AcDbEntity
  8
KONSTRUKTIONSELEMENTE
100
AcDbCircle
 62
7
  6
CONTINUOUS
 10
726.8685511764
 20
42.508774558
 40
11.55
100
AcDbArc
 50
61.1105804865
 51
135.0
  0
ARC
  5
3E4
100
AcDbEntity
  8
KONSTRUKTIONSELEMENTE
100
AcDbCircle
 62
7
  6
CONTINUOUS
 10
726.8685511764
 20
42.508774558
 40
11.55
100
AcDbArc
 50
315.0
 51
28.8894195135
  0
ARC
  5
3E5
100
AcDbEntity
  8
KONSTRUKTIONSELEMENTE
100
AcDbCircle
 62
7
  6
CONTINUOUS
 10
726.8685511764
 20
42.508774558
 40
4.55
100
AcDbArc
 50
89.7094363532
 51
135.0
  0
ARC
  5
3E6
100
AcDbEntity
  8
KONSTRUKTIONSELEMENTE
100
AcDbCircle
 62
7
  6
CONTINUOUS
 10
726.8685511764
 20
42.508774558
 40
4.55
100
AcDbArc
 50
315.0
 51
0.2905636468
  0
ARC
  5
3E7
100
AcDbEntity
  8
KONSTRUKTIONSELEMENTE
100
AcDbCircle
 62
7
  6
CONTINUOUS
 10
727.6817239747
 20
43.3219473563
 40
3.2
100
AcDbArc
 50
135.0
 51
315.0
  0
ARC
  5
3E8
100
AcDbEntity
  8
KONSTRUKTIONSELEMENTE
100
AcDbCircle
 62
7
  6
CONTINUOUS
 10
745.3593935044
 20
60.999616886
 40
10.2
100
AcDbArc
 50
135.0
 51
206.7018290247
  0
ARC
  5
3E9
100
AcDbEntity
  8
KONSTRUKTIONSELEMENTE
100
AcDbCircle
 62
7
  6
CONTINUOUS
 10
745.3593935044
 20
60.999616886
 40
10.2
100
AcDbArc
 50
243.2981709753
 51
315.0
  0
ARC
  5
3EA
100
AcDbEntity
  8
KONSTRUKTIONSELEMENTE
100
AcDbCircle
 62
7
  6
CONTINUOUS
 10
752.7133040288
 20
68.3535274103
 40
10.2
100
AcDbArc
 50
315.0
 51
26.7018290247
  0
ARC
  5
3EB
100
AcDbEntity
  8
KONSTRUKTIONSELEMENTE
100
AcDbCircle
 62
7
  6
CONTINUOUS
 10
752.7133040288
 20
68.3535274103
 40
10.2
100
AcDbArc
 50
63.2981709753
 51
135.0
  0
ARC
  5
3EC
100
AcDbEntity
  8
KONSTRUKTIONSELEMENTE
100
AcDbCircle
 62
7
  6
CONTINUOUS
 10
745.3593935044
 20
60.999616886
 40
3.8
100
AcDbArc
 50
135.0
 51
167.6253590191
  0
ARC
  5
3ED
100
AcDbEntity
  8
KONSTRUKTIONSELEMENTE
100
AcDbCircle
 62
7
  6
CONTINUOUS
 10
745.3593935044
 20
60.999616886
 40
3.8
100
AcDbArc
 50
282.3746409809
 51
315.0
  0
ARC
  5
3EE
100
AcDbEntity
  8
KONSTRUKTIONSELEMENTE
100
AcDbCircle
 62
7
  6
CONTINUOUS
 10
752.7133040288
 20
68.3535274103
 40
3.8
100
AcDbArc
 50
315.0
 51
347.6253590191
  0
ARC
  5
3EF
100
AcDbEntity
  8
KONSTRUKTIONSELEMENTE
100
AcDbCircle
 62
7
  6
CONTINUOUS
 10
752.7133040288
 20
68.3535274103
 40
3.8
100
AcDbArc
 50
102.3746409809
 51
135.0
  0
ARC
  5
3F0
100
AcDbEntity
  8
KONSTRUKTIONSELEMENTE
100
AcDbCircle
 62
7
  6
CONTINUOUS
 10
753.1375680975
 20
68.777791479
 40
3.2
100
AcDbArc
 50
135.0
 51
315.0
  0
ARC
  5
3F1
100
AcDbEntity
  8
KONSTRUKTIONSELEMENTE
100
AcDbCircle
 62
7
  6
CONTINUOUS
 10
744.9351294357
 20
60.5753528173
 40
3.2
100
AcDbArc
 50
315.0
 51
135.0
  0
ARC
  5
3F2
100
AcDbEntity
  8
KONSTRUKTIONSELEMENTE
100
AcDbCircle
 62
7
  6
CONTINUOUS
 10
779.9015597654
 20
95.541783147
 40
11.55
100
AcDbArc
 50
65.2810606849
 51
135.0
  0
ARC
  5
3F3
100
AcDbEntity
  8
KONSTRUKTIONSELEMENTE
100
AcDbCircle
 62
7
  6
CONTINUOUS
 10
779.9015597654
 20
95.541783147
 40
11.55
100
AcDbArc
 50
315.0
 51
24.7189393151
  0
ARC
  5
3F4
100
AcDbEntity
  8
KONSTRUKTIONSELEMENTE
100
AcDbCircle
 62
7
  6
CONTINUOUS
 10
771.4869890693
 20
87.1272124508
 40
11.55
100
AcDbArc
 50
241.1105804865
 51
315.0
  0
ARC
  5
3F5
100
AcDbEntity
  8
KONSTRUKTIONSELEMENTE
100
AcDbCircle
 62
7
  6
CONTINUOUS
 10
771.4869890693
 20
87.1272124508
 40
11.55
100
AcDbArc
 50
135.0
 51
208.8894195135
  0
ARC
  5
3F6
100
AcDbEntity
  8
KONSTRUKTIONSELEMENTE
100
AcDbCircle
 62
7
  6
CONTINUOUS
 10
779.9015597654
 20
95.541783147
 40
4.55
100
AcDbArc
 50
106.6976500586
 51
135.0
  0
ARC
  5
3F7
100
AcDbEntity
  8
KONSTRUKTIONSELEMENTE
100
AcDbCircle
 62
7
  6
CONTINUOUS
 10
779.9015597654
 20
95.541783147
 40
4.55
100
AcDbArc
 50
315.0
 51
343.3023499414
  0
ARC
  5
3F8
100
AcDbEntity
  8
KONSTRUKTIONSELEMENTE
100
AcDbCircle
 62
7
  6
CONTINUOUS
 10
771.4869890693
 20
87.1272124508
 40
4.55
100
AcDbArc
 50
269.7094363532
 51
315.0
  0
ARC
  5
3F9
100
AcDbEntity
  8
KONSTRUKTIONSELEMENTE
100
AcDbCircle
 62
7
  6
CONTINUOUS
 10
771.4869890693
 20
87.1272124508
 40
4.55
100
AcDbArc
 50
135.0
 51
180.2905636468
  0
ARC
  5
3FA
100
AcDbEntity
  8
KONSTRUKTIONSELEMENTE
100
AcDbCircle
 62
7
  6
CONTINUOUS
 10
779.9369151044
 20
95.577138486
 40
4.0
100
AcDbArc
 50
135.0
 51
315.0
  0
ARC
  5
3FB
100
AcDbEntity
  8
KONSTRUKTIONSELEMENTE
100
AcDbCircle
 62
7
  6
CONTINUOUS
 10
770.3909735584
 20
86.03119694
 40
3.2
100
AcDbArc
 50
315.0
 51
135.0
  0
ARC
  5
3FC
100
AcDbEntity
  8
BEZUGSACHSEN
100
AcDbCircle
 62
7
  6
CONTINUOUS
 10
726.7488079085
 20
118.7219601861
 40
160.7484209992
100
AcDbArc
 50
13.1515027398
 51
13.3750710231
  0
ARC
  5
3FD
100
AcDbEntity
  8
BEZUGSACHSEN
100
AcDbCircle
 62
7
  6
CONTINUOUS
 10
738.3510179773
 20
121.9215024635
 40
147.1837270728
100
AcDbArc
 50
6.5741696469
 51
6.8249052538
  0
ARC
  5
3FE
100
AcDbEntity
  8
0
100
AcDbCircle
 62
7
  6
CONTINUOUS
 10
750.9146764955
 20
123.753683445
 40
133.8059728557
100
AcDbArc
 50
6.4446297664
 51
6.7203680655
  0
ARC
  5
3FF
100
AcDbEntity
  8
BEZUGSACHSEN
100
AcDbCircle
 62
7
  6
CONTINUOUS
 10
756.3773357447
 20
125.1271144628
 40
129.2226405657
100
AcDbArc
 50
5.6645293351
 51
6.0043816316
  0
ARC
  5
400
100
AcDbEntity
  8
BEZUGSACHSEN
100
AcDbCircle
 62
7
  6
CONTINUOUS
 10
755.0238780848
 20
136.2250875557
 40
126.868957904
100
AcDbArc
 50
359.3168337506
 51
0.8368104777
  0
ARC
  5
401
100
AcDbEntity
  8
BEZUGSACHSEN
100
AcDbCircle
 62
7
  6
CONTINUOUS
 10
757.7440765618
 20
135.6214599946
 40
124.4839618843
100
AcDbArc
 50
359.6910965682
 51
0.9174694421
  0
ARC
  5
402
100
AcDbEntity
  8
BEZUGSACHSEN
100
AcDbCircle
 62
7
  6
CONTINUOUS
 10
763.6640300138
 20
128.7549250998
 40
121.8329190045
100
AcDbArc
 50
7.3076159212
 51
7.5821948743
  0
ARC
  5
403
100
AcDbEntity
  8
0
100
AcDbCircle
 62
7
  6
CONTINUOUS
 10
762.5148043381
 20
137.377347788
 40
118.4628804442
100
AcDbArc
 50
358.7109627444
 51
0.338857916
  0
ARC
  5
404
100
AcDbEntity
  8
BEZUGSACHSEN
100
AcDbCircle
 62
7
  6
CONTINUOUS
 10
765.9138845845
 20
133.811036762
 40
117.3197542745
100
AcDbArc
 50
359.6722434505
 51
0.9735110248
  0
ARC
  5
405
100
AcDbEntity
  8
BEZUGSACHSEN
100
AcDbCircle
 62
7
  6
CONTINUOUS
 10
769.2125746454
 20
133.0869662382
 40
114.4233053888
100
AcDbArc
 50
359.6639016114
 51
0.8576552745
  0
ARC
  5
406
100
AcDbEntity
  8
BEZUGSACHSEN
100
AcDbCircle
 62
7
  6
CONTINUOUS
 10
772.1140758851
 20
133.7003063186
 40
113.0551993257
100
AcDbArc
 50
13.8994393972
 51
14.1676166367
  0
ARC
  5
407
100
AcDbEntity
  8
0
100
AcDbCircle
 62
7
  6
CONTINUOUS
 10
774.0327045542
 20
130.2437394591
 40
110.7308151483
100
AcDbArc
 50
7.2676232688
 51
7.5697140999
  0
ARC
  5
408
100
AcDbEntity
  8
0
100
AcDbCircle
 62
7
  6
CONTINUOUS
 10
773.1518377129
 20
134.9628696554
 40
109.2394166737
100
AcDbArc
 50
0.091938979
 51
0.4413415382
  0
ARC
  5
409
100
AcDbEntity
  8
BEZUGSACHSEN
100
AcDbCircle
 62
7
  6
CONTINUOUS
 10
779.4367928412
 20
130.5250160554
 40
105.6072532802
100
AcDbArc
 50
1.5529114424
 51
2.0857466333
  0
ARC
  5
40A
100
AcDbEntity
  8
0
100
AcDbCircle
 62
7
  6
CONTINUOUS
 10
780.0567274374
 20
134.6890705205
 40
104.4512001
100
AcDbArc
 50
14.5094618515
 51
14.8005360535
  0
ARC
  5
40B
100
AcDbEntity
  8
BEZUGSACHSEN
100
AcDbCircle
 62
7
  6
CONTINUOUS
 10
854.2300309157
 20
55.952562149
 40
86.3599608895
100
AcDbArc
 50
69.2870013811
 51
69.4800636017
  0
ARC
  5
40C
100
AcDbEntity
  8
BEZUGSACHSEN
100
AcDbCircle
 62
7
  6
CONTINUOUS
 10
830.1536898775
 20
63.5734051834
 40
20.0
100
AcDbArc
 50
330.0
 51
360.0
  0
ARC
  5
40D
100
AcDbEntity
  8
BEZUGSACHSEN
100
AcDbCircle
 62
7
  6
CONTINUOUS
 10
855.1536898775
 20
72.2974365849
 40
5.0
100
AcDbArc
 50
109.4804088396
 51
180.0
  0
ARC
  5
40E
100
AcDbEntity
  8
BEZUGSACHSEN
100
AcDbCircle
 62
7
  6
CONTINUOUS
 10
851.1536898775
 20
81.4625879749
 40
5.0
100
AcDbArc
 50
293.5781784782
 51
360.0
  0
ARC
  5
40F
100
AcDbEntity
  8
BEZUGSACHSEN
100
AcDbCircle
 62
7
  6
CONTINUOUS
 10
832.1000145746
 20
106.8340183934
 40
67.077305025
100
AcDbArc
 50
41.683418563
 51
42.0092742786
  0
ARC
  5
410
100
AcDbEntity
  8
BEZUGSACHSEN
100
AcDbCircle
 62
7
  6
CONTINUOUS
 10
870.7367244303
 20
114.4239488386
 40
37.8859585776
100
AcDbArc
 50
72.2023810609
 51
72.3534624635
  0
ARC
  5
411
100
AcDbEntity
  8
RUNDUNGEN
100
AcDbCircle
 62
7
  6
CONTINUOUS
 10
912.1536898775
 20
63.5734051834
 40
20.0
100
AcDbArc
 50
180.0
 51
210.0
  0
ARC
  5
412
100
AcDbEntity
  8
RUNDUNGEN
100
AcDbCircle
 62
7
  6
CONTINUOUS
 10
887.1536898775
 20
72.2974365849
 40
5.0
100
AcDbArc
 50
0.0
 51
70.5121248894
  0
ARC
  5
413
100
AcDbEntity
  8
RUNDUNGEN
100
AcDbCircle
 62
7
  6
CONTINUOUS
 10
891.1536898775
 20
81.4625879749
 40
5.0
100
AcDbArc
 50
180.0
 51
246.4218215218
  0
ARC
  5
414
100
AcDbEntity
  8
BEZUGSACHSEN
100
AcDbCircle
 62
7
  6
CONTINUOUS
 10
781.5314750444
 20
123.4585075807
 40
107.1174943609
100
AcDbArc
 50
15.528950257
 51
15.8141470288
  0
ARC
  5
415
100
AcDbEntity
  8
BEZUGSACHSEN
100
AcDbCircle
 62
7
  6
CONTINUOUS
 10
785.4948639148
 20
115.7843021564
 40
105.638133242
100
AcDbArc
 50
20.6504849757
 51
20.8619917016
  0
ARC
  5
416
100
AcDbEntity
  8
BEZUGSACHSEN
100
AcDbCircle
 62
7
  6
CONTINUOUS
 10
782.8199833116
 20
125.3523673965
 40
105.3337959217
100
AcDbArc
 50
19.3164008336
 51
19.4742505409
  0
ARC
  5
417
100
AcDbEntity
  8
BEZUGSACHSEN
100
AcDbCircle
 62
7
  6
CONTINUOUS
 10
780.5949612454
 20
130.5534830398
 40
104.4487652392
100
AcDbArc
 50
359.1696393476
 51
359.6312128165
  0
ARC
  5
418
100
AcDbEntity
  8
BEZUGSACHSEN
100
AcDbCircle
 62
7
  6
CONTINUOUS
 10
781.6129831221
 20
131.6344800214
 40
103.9435951151
100
AcDbArc
 50
6.3971899976
 51
6.7747974133
  0
ARC
  5
419
100
AcDbEntity
  8
BEZUGSACHSEN
100
AcDbCircle
 62
7
  6
CONTINUOUS
 10
783.4767827901
 20
143.7153916494
 40
98.3493700278
100
AcDbArc
 50
1.3814063611
 51
1.8108741342
  0
ARC
  5
41A
100
AcDbEntity
  8
BEZUGSACHSEN
100
AcDbCircle
 62
7
  6
CONTINUOUS
 10
784.124725442
 20
143.729752551
 40
97.7012872344
100
AcDbArc
 50
359.221249911
 51
359.6534197925
  0
ARC
  5
41B
100
AcDbEntity
  8
BEZUGSACHSEN
100
AcDbCircle
 62
7
  6
CONTINUOUS
 10
792.3312607726
 20
137.6574903399
 40
92.5106303918
100
AcDbArc
 50
11.3886899991
 51
11.6128299208
  0
ARC
  5
41C
100
AcDbEntity
  8
0
100
AcDbCircle
 62
7
  6
CONTINUOUS
 10
789.9149295035
 20
144.6080646321
 40
91.062795003
100
AcDbArc
 50
0.9301780121
 51
1.3939261109
  0
ARC
  5
41D
100
AcDbEntity
  8
0
100
AcDbCircle
 62
7
  6
CONTINUOUS
 10
789.9149295557
 20
144.6170734525
 40
91.0627949509
100
AcDbArc
 50
358.606073889
 51
359.0698222092
  0
ARC
  5
41E
100
AcDbEntity
  8
BEZUGSACHSEN
100
AcDbCircle
 62
7
  6
CONTINUOUS
 10
801.723414101
 20
123.4381143374
 40
87.9934532487
100
AcDbArc
 50
24.2823493972
 51
24.584140857
  0
ARC
  5
41F
100
AcDbEntity
  8
BEZUGSACHSEN
100
AcDbCircle
 62
7
  6
CONTINUOUS
 10
796.1770152118
 20
146.4571455773
 40
86.1109361293
100
AcDbArc
 50
354.4158878525
 51
354.8038281703
  0
ARC
  5
420
100
AcDbEntity
  8
BEZUGSACHSEN
100
AcDbCircle
 62
7
  6
CONTINUOUS
 10
801.9093196711
 20
137.6427559998
 40
82.6653356962
100
AcDbArc
 50
0.4425106062
 51
0.7830313674
  0
ARC
  5
421
100
AcDbEntity
  8
0
100
AcDbCircle
 62
7
  6
CONTINUOUS
 10
799.9758236292
 20
147.3601861191
 40
81.5299067236
100
AcDbArc
 50
353.4626646708
 51
353.8730949162
  0
ARC
  5
422
100
AcDbEntity
  8
BEZUGSACHSEN
100
AcDbCircle
 62
7
  6
CONTINUOUS
 10
804.5090723254
 20
136.7521237165
 40
80.4678235706
100
AcDbArc
 50
0.4546213927
 51
0.8044426425
  0
ARC
  5
423
100
AcDbEntity
  8
BEZUGSACHSEN
100
AcDbCircle
 62
7
  6
CONTINUOUS
 10
814.7203426169
 20
150.318639777
 40
67.0473800014
100
AcDbArc
 50
358.7802014121
 51
0.8636384478
  0
ARC
  5
424
100
AcDbEntity
  8
BEZUGSACHSEN
100
AcDbCircle
 62
7
  6
CONTINUOUS
 10
816.6558122884
 20
149.2828627573
 40
65.5141542667
100
AcDbArc
 50
359.2847755637
 51
0.8838801067
  0
ARC
  5
425
100
AcDbEntity
  8
BEZUGSACHSEN
100
AcDbCircle
 62
7
  6
CONTINUOUS
 10
818.985490591
 20
150.311684884
 40
64.4888706792
100
AcDbArc
 50
348.6450716319
 51
348.9168032509
  0
ARC
  5
426
100
AcDbEntity
  8
0
100
AcDbCircle
 62
7
  6
CONTINUOUS
 10
818.7891809652
 20
150.9235991314
 40
62.188503041
100
AcDbArc
 50
358.127298966
 51
0.3737193916
  0
ARC
  5
427
100
AcDbEntity
  8
BEZUGSACHSEN
100
AcDbCircle
 62
7
  6
CONTINUOUS
 10
827.7758834703
 20
143.2410166081
 40
56.7404840188
100
AcDbArc
 50
359.1741765724
 51
1.0205681625
  0
ARC
  5
428
100
AcDbEntity
  8
BEZUGSACHSEN
100
AcDbCircle
 62
7
  6
CONTINUOUS
 10
829.6467913551
 20
142.2053188456
 40
55.2718094604
100
AcDbArc
 50
358.5202594806
 51
1.0476408665
  0
ARC
  5
429
100
AcDbEntity
  8
BEZUGSACHSEN
100
AcDbCircle
 62
7
  6
CONTINUOUS
 10
830.3952328123
 20
142.8233348129
 40
54.7158168382
100
AcDbArc
 50
19.8826356764
 51
20.1695498331
  0
ARC
  5
42A
100
AcDbEntity
  8
BEZUGSACHSEN
100
AcDbCircle
 62
7
  6
CONTINUOUS
 10
835.8137510874
 20
131.8683142723
 40
52.8111838619
100
AcDbArc
 50
22.0950112509
 51
22.4976859505
  0
ARC
  5
42B
100
AcDbEntity
  8
BEZUGSACHSEN
100
AcDbCircle
 62
7
  6
CONTINUOUS
 10
837.9570289357
 20
143.6672568502
 40
47.4344400816
100
AcDbArc
 50
351.8283293423
 51
352.3961628706
  0
ARC
  5
42C
100
AcDbEntity
  8
BEZUGSACHSEN
100
AcDbCircle
 62
7
  6
CONTINUOUS
 10
842.9970873582
 20
145.9506963329
 40
42.2765951679
100
AcDbArc
 50
349.0751231013
 51
349.4298168248
  0
ARC
  5
42D
100
AcDbEntity
  8
BEZUGSACHSEN
100
AcDbCircle
 62
7
  6
CONTINUOUS
 10
860.9429962622
 20
146.3560764708
 40
24.4877211989
100
AcDbArc
 50
12.8836313326
 51
13.6539140484
  0
ARC
  5
42E
100
AcDbEntity
  8
BEZUGSACHSEN
100
AcDbCircle
 62
7
  6
CONTINUOUS
 10
865.8241442431
 20
150.0753897535
 40
23.1775381659
100
AcDbArc
 50
324.8466863208
 51
325.4323624384
  0
ARC
  5
42F
100
AcDbEntity
  8
RUNDUNGEN
100
AcDbCircle
 62
7
  6
CONTINUOUS
 10
870.6670456662
 20
139.7337634876
 40
15.4866456448
100
AcDbArc
 50
0.0278733342
 51
15.9408327858
  0
ARC
  5
430
100
AcDbEntity
  8
RUNDUNGEN
100
AcDbCircle
 62
7
  6
CONTINUOUS
 10
871.1366136893
 20
139.7454345159
 40
15.0170762584
100
AcDbArc
 50
359.5355034405
 51
359.8603995365
  0
ARC
  5
431
100
AcDbEntity
  8
BEZUGSACHSEN
100
AcDbCircle
 62
7
  6
CONTINUOUS
 10
871.5411728412
 20
149.902261447
 40
13.2960390159
100
AcDbArc
 50
3.2059595048
 51
4.6990429724
  0
ARC
  5
432
100
AcDbEntity
  8
BEZUGSACHSEN
100
AcDbCircle
 62
7
  6
CONTINUOUS
 10
871.6294426264
 20
149.9134908165
 40
13.2076140728
100
AcDbArc
 50
356.5344211757
 51
357.8212650337
  0
ARC
  5
433
100
AcDbEntity
  8
BEZUGSACHSEN
100
AcDbCircle
 62
7
  6
CONTINUOUS
 10
876.8204720564
 20
148.8730622809
 40
8.6015147285
100
AcDbArc
 50
27.9914770859
 51
28.970701319
  0
ARC
  5
434
100
AcDbEntity
  8
BEZUGSACHSEN
100
AcDbCircle
 62
7
  6
CONTINUOUS
 10
877.6181542078
 20
150.9043190505
 40
7.2084732859
100
AcDbArc
 50
3.2570144584
 51
5.7197167147
  0
ARC
  5
435
100
AcDbEntity
  8
BEZUGSACHSEN
100
AcDbCircle
 62
7
  6
CONTINUOUS
 10
877.6799750719
 20
150.9107100062
 40
7.1465305194
100
AcDbArc
 50
356.6860958398
 51
357.8737586726
  0
ARC
  5
436
100
AcDbEntity
  8
BEZUGSACHSEN
100
AcDbCircle
 62
7
  6
CONTINUOUS
 10
877.6975756284
 20
150.9089870825
 40
7.1289149402
100
AcDbArc
 50
0.6258187331
 51
3.2558236611
  0
ARC
  5
437
100
AcDbEntity
  8
BEZUGSACHSEN
100
AcDbCircle
 62
7
  6
CONTINUOUS
 10
877.7133251219
 20
150.9095516273
 40
7.1131602308
100
AcDbArc
 50
357.9879439528
 51
0.6226572732
  0
ARC
  5
438
100
AcDbEntity
  8
BEZUGSACHSEN
100
AcDbCircle
 62
7
  6
CONTINUOUS
 10
858.945514941
 20
138.8581469546
 40
5.0
100
AcDbArc
 50
161.8736837465
 51
180.0
  0
ARC
  5
439
100
AcDbEntity
  8
0
100
AcDbCircle
 62
7
  6
CONTINUOUS
 10
883.361864814
 20
138.8581469546
 40
5.0
100
AcDbArc
 50
0.0
 51
18.1263162535
  0
ARC
  5
43A
100
AcDbEntity
  8
BEZUGSACHSEN
100
AcDbCircle
 62
7
  6
CONTINUOUS
 10
881.1311434551
 20
149.2632874623
 40
4.3783783923
100
AcDbArc
 50
32.6420337789
 51
34.3362002572
  0
ARC
  5
43B
100
AcDbEntity
  8
KONSTRUKTIONSELEMENTE
100
AcDbCircle
 62
7
  6
CONTINUOUS
 10
835.091244037
 20
150.7314674186
 40
4.0
100
AcDbArc
 50
315.0
 51
135.0
  0
ARC
  5
43C
100
AcDbEntity
  8
0
100
AcDbCircle
 62
7
  6
CONTINUOUS
 10
871.1536898775
 20
186.7939132591
 40
91.0
100
AcDbArc
 50
279.4896502159
 51
360.0
  0
ARC
  5
43D
100
AcDbEntity
  8
0
100
AcDbCircle
 62
7
  6
CONTINUOUS
 10
871.1536898775
 20
186.7939132591
 40
91.0
100
AcDbArc
 50
227.5199499737
 51
260.5103497841
  0
ARC
  5
43E
100
AcDbEntity
  8
0
100
AcDbCircle
 62
7
  6
CONTINUOUS
 10
871.1536898775
 20
186.7939132591
 40
91.0
100
AcDbArc
 50
180.0
 51
222.4800500263
  0
ARC
  5
43F
100
AcDbEntity
  8
0
100
AcDbCircle
 62
7
  6
CONTINUOUS
 10
871.1536898775
 20
186.7939132591
 40
55.0
100
AcDbArc
 50
288.0000796321
 51
360.0
  0
ARC
  5
440
100
AcDbEntity
  8
0
100
AcDbCircle
 62
7
  6
CONTINUOUS
 10
871.1536898775
 20
186.7939132591
 40
55.0
100
AcDbArc
 50
229.171168951
 51
252.0008177091
  0
ARC
  5
441
100
AcDbEntity
  8
0
100
AcDbCircle
 62
7
  6
CONTINUOUS
 10
871.1536898775
 20
186.7939132591
 40
55.0
100
AcDbArc
 50
180.0
 51
220.828831049
  0
ARC
  5
442
100
AcDbEntity
  8
0
100
AcDbCircle
 62
7
  6
CONTINUOUS
 10
852.8962733098
 20
167.7127123098
 40
40.4502507487
100
AcDbArc
 50
314.0879808215
 51
314.4913327206
  0
ARC
  5
443
100
AcDbEntity
  8
BEZUGSACHSEN
100
AcDbCircle
 62
7
  6
CONTINUOUS
 10
845.1080585129
 20
152.2988974109
 40
37.8402123289
100
AcDbArc
 50
11.9092932456
 51
12.372654618
  0
ARC
  5
444
100
AcDbEntity
  8
BEZUGSACHSEN
100
AcDbCircle
 62
7
  6
CONTINUOUS
 10
855.1549644742
 20
164.1806939415
 40
36.9933404905
100
AcDbArc
 50
316.3765884007
 51
316.8005406862
  0
ARC
  5
445
100
AcDbEntity
  8
BEZUGSACHSEN
100
AcDbCircle
 62
7
  6
CONTINUOUS
 10
870.2126627305
 20
164.5837965237
 40
30.2377435581
100
AcDbArc
 50
297.9245176996
 51
298.2127974891
  0
ARC
  5
446
100
AcDbEntity
  8
BEZUGSACHSEN
100
AcDbCircle
 62
7
  6
CONTINUOUS
 10
852.293333672
 20
156.5461152043
 40
29.9250158241
100
AcDbArc
 50
349.9602164041
 51
350.6114795861
  0
ARC
  5
447
100
AcDbEntity
  8
0
100
AcDbCircle
 62
7
  6
CONTINUOUS
 10
853.2562369286
 20
156.89809206
 40
28.2739724765
100
AcDbArc
 50
348.6407117349
 51
349.3328696993
  0
ARC
  5
448
100
AcDbEntity
  8
BEZUGSACHSEN
100
AcDbCircle
 62
7
  6
CONTINUOUS
 10
854.0793927771
 20
156.0683826564
 40
28.1551428647
100
AcDbArc
 50
10.856979113
 51
11.5216744959
  0
ARC
  5
449
100
AcDbEntity
  8
0
100
AcDbCircle
 62
7
  6
CONTINUOUS
 10
855.5424294668
 20
156.3125237499
 40
25.9969240271
100
AcDbArc
 50
11.2215961541
 51
11.9424683728
  0
ARC
  5
44A
100
AcDbEntity
  8
BEZUGSACHSEN
100
AcDbCircle
 62
7
  6
CONTINUOUS
 10
859.6488287285
 20
156.1456450611
 40
23.2615212468
100
AcDbArc
 50
345.4289030272
 51
346.022847414
  0
ARC
  5
44B
100
AcDbEntity
  8
0
100
AcDbCircle
 62
7
  6
CONTINUOUS
 10
873.3494412347
 20
168.709538099
 40
18.7003436705
100
AcDbArc
 50
294.2889401665
 51
294.7398672879
  0
ARC
  5
44C
100
AcDbEntity
  8
BEZUGSACHSEN
100
AcDbCircle
 62
7
  6
CONTINUOUS
 10
874.6848602575
 20
166.2332485186
 40
16.2210673548
100
AcDbArc
 50
296.0856708517
 51
296.5719970873
  0
ARC
  5
44D
100
AcDbEntity
  8
BEZUGSACHSEN
100
AcDbCircle
 62
7
  6
CONTINUOUS
 10
865.7514480056
 20
159.6159934215
 40
15.9346608333
100
AcDbArc
 50
357.1383539498
 51
1.40087625
  0
ARC
  5
44E
100
AcDbEntity
  8
BEZUGSACHSEN
100
AcDbCircle
 62
7
  6
CONTINUOUS
 10
866.3996450023
 20
158.5833831541
 40
15.6216714131
100
AcDbArc
 50
358.1690226321
 51
1.6105812605
  0
ARC
  5
44F
100
AcDbEntity
  8
BEZUGSACHSEN
100
AcDbCircle
 62
7
  6
CONTINUOUS
 10
868.2933078034
 20
155.4859284788
 40
14.7336085934
100
AcDbArc
 50
358.0586167143
 51
1.7076830085
  0
ARC
  5
450
100
AcDbEntity
  8
0
100
AcDbCircle
 62
7
  6
CONTINUOUS
 10
866.2629952131
 20
159.7591455179
 40
14.7146811164
100
AcDbArc
 50
356.3424991462
 51
0.959511986
  0
ARC
  5
451
100
AcDbEntity
  8
BEZUGSACHSEN
100
AcDbCircle
 62
7
  6
CONTINUOUS
 10
869.0533172168
 20
154.246960145
 40
14.3758410496
100
AcDbArc
 50
358.0102284096
 51
1.356387776
  0
ARC
  5
452
100
AcDbEntity
  8
BEZUGSACHSEN
100
AcDbCircle
 62
7
  6
CONTINUOUS
 10
874.0687892375
 20
156.7106794293
 40
8.8922135628
100
AcDbArc
 50
25.0013725892
 51
25.9235136434
  0
ARC
  5
453
100
AcDbEntity
  8
BEZUGSACHSEN
100
AcDbCircle
 62
7
  6
CONTINUOUS
 10
877.0154788186
 20
153.6377059713
 40
7.3479334489
100
AcDbArc
 50
46.4590130052
 51
47.1236849489
  0
ARC
  5
454
100
AcDbEntity
  8
BEZUGSACHSEN
100
AcDbCircle
 62
7
  6
CONTINUOUS
 10
877.7699447813
 20
159.6513398729
 40
4.4884145371
100
AcDbArc
 50
28.2427372492
 51
29.8190561304
  0
ARC
  5
455
100
AcDbEntity
  8
BEZUGSACHSEN
100
AcDbCircle
 62
7
  6
CONTINUOUS
 10
878.7170446276
 20
161.7399491339
 40
2.9505315861
100
AcDbArc
 50
359.0698535155
 51
2.7840263302
  0
ARC
  5
456
100
AcDbEntity
  8
BEZUGSACHSEN
100
AcDbCircle
 62
7
  6
CONTINUOUS
 10
879.1850295901
 20
160.4547842007
 40
2.8847868302
100
AcDbArc
 50
359.0486782139
 51
2.8475512844
  0
ARC
  5
457
100
AcDbEntity
  8
BEZUGSACHSEN
100
AcDbCircle
 62
7
  6
CONTINUOUS
 10
880.3007430304
 20
157.2381660394
 40
2.7747859017
100
AcDbArc
 50
2.5979980923
 51
9.2171582902
  0
ARC
  5
458
100
AcDbEntity
  8
0
100
AcDbCircle
 62
7
  6
CONTINUOUS
 10
878.2598124642
 20
161.7664030109
 40
2.7178775343
100
AcDbArc
 50
358.4324043281
 51
2.4642371299
  0
ARC
  5
459
100
AcDbEntity
  8
BEZUGSACHSEN
100
AcDbCircle
 62
7
  6
CONTINUOUS
 10
880.7932759683
 20
155.9549638888
 40
2.6844299655
100
AcDbArc
 50
2.6435960641
 51
6.7392889421
  0
ARC
  5
45A
100
AcDbEntity
  8
0
100
AcDbCircle
 62
7
  6
CONTINUOUS
 10
879.6352363857
 20
162.2143755054
 40
2.5836979777
100
AcDbArc
 50
301.2506019894
 51
302.9367491445
  0
ARC
  5
45B
100
AcDbEntity
  8
BEZUGSACHSEN
100
AcDbCircle
 62
7
  6
CONTINUOUS
 10
881.9173721444
 20
152.9580157457
 40
2.4988466973
100
AcDbArc
 50
358.9012564193
 51
2.1900385781
  0
ARC
  5
45C
100
AcDbEntity
  8
BEZUGSACHSEN
100
AcDbCircle
 62
7
  6
CONTINUOUS
 10
882.3827975612
 20
151.6728197328
 40
2.4356604317
100
AcDbArc
 50
358.8735061293
 51
3.3734580713
  0
ARC
  5
45D
100
AcDbEntity
  8
BEZUGSACHSEN
100
AcDbCircle
 62
7
  6
CONTINUOUS
 10
880.3979937387
 20
161.9441664131
 40
2.3249098495
100
AcDbArc
 50
303.5043962566
 51
305.2672267155
  0
ARC
  5
45E
100
AcDbEntity
  8
0
100
AcDbCircle
 62
7
  6
CONTINUOUS
 10
871.1536898775
 20
276.7939132591
 40
91.0
100
AcDbArc
 50
106.2771120783
 51
180.0
  0
ARC
  5
45F
100
AcDbEntity
  8
0
100
AcDbCircle
 62
7
  6
CONTINUOUS
 10
871.1536898775
 20
276.7939132591
 40
91.0
100
AcDbArc
 50
0.0
 51
73.7228879217
  0
ARC
  5
460
100
AcDbEntity
  8
0
100
AcDbCircle
 62
7
  6
CONTINUOUS
 10
871.1536898775
 20
276.7939132591
 40
55.0
100
AcDbArc
 50
117.6276756208
 51
180.0
  0
ARC
  5
461
100
AcDbEntity
  8
0
100
AcDbCircle
 62
7
  6
CONTINUOUS
 10
871.1536898775
 20
276.7939132591
 40
55.0
100
AcDbArc
 50
0.0
 51
62.3723243792
  0
ARC
  5
462
100
AcDbEntity
  8
0
100
AcDbCircle
 62
7
  6
CONTINUOUS
 10
871.1536898775
 20
817.2939132591
 40
25.5
100
AcDbArc
 50
0.0
 51
180.0
  0
ARC
  5
463
100
AcDbEntity
  8
0
100
AcDbCircle
 62
7
  6
CONTINUOUS
 10
871.1536898775
 20
306.2939132591
 40
25.5
100
AcDbArc
 50
180.0
 51
360.0
  0
SPLINE
  5
464
100
AcDbEntity
  8
KONSTRUKTIONSELEMENTE
100
AcDbSpline
 62
7
  6
CONTINUOUS
 70
0
 71
3
 72
9
 73
5
 74
0
 42
0.0000001
 43
0.0000001
 44
0.0000000001
 40
0.0
 40
0.0
 40
0.0
 40
0.0
 40
0.4997239798
 40
1.0
 40
1.0
 40
1.0
 40
1.0
 10
278.2841549298
 20
55.625605349
 30
0.0
 10
278.2841549298
 20
56.0640279619
 30
0.0
 10
278.3708848903
 20
56.9435006399
 30
0.0
 10
278.6261911454
 20
57.7890894222
 30
0.0
 10
278.7914512018
 20
58.195695387
 30
0.0
  0
SPLINE
  5
465
100
AcDbEntity
  8
KONSTRUKTIONSELEMENTE
100
AcDbSpline
 62
7
  6
CONTINUOUS
 70
0
 71
3
 72
9
 73
5
 74
0
 42
0.0000001
 43
0.0000001
 44
0.0000000001
 40
0.0
 40
0.0
 40
0.0
 40
0.0
 40
0.5003323509
 40
1.0
 40
1.0
 40
1.0
 40
1.0
 10
298.1797631108
 20
58.1886720393
 30
0.0
 10
298.3441032159
 20
57.7830013617
 30
0.0
 10
298.5978663877
 20
56.9396390556
 30
0.0
 10
298.6841549298
 20
56.0627182413
 30
0.0
 10
298.6841549298
 20
55.625605349
 30
0.0
  0
SPLINE
  5
466
100
AcDbEntity
  8
KONSTRUKTIONSELEMENTE
100
AcDbSpline
 62
7
  6
CONTINUOUS
 70
0
 71
3
 72
10
 73
6
 74
0
 42
0.0000001
 43
0.0000001
 44
0.0000000001
 40
0.0
 40
0.0
 40
0.0
 40
0.0
 40
0.2488347756
 40
0.5438407514
 40
1.0
 40
1.0
 40
1.0
 40
1.0
 10
284.6841549298
 20
55.625605349
 30
0.0
 10
284.6841549298
 20
55.7106496103
 30
0.0
 10
284.7580436568
 20
55.8914139915
 30
0.0
 10
284.9604499009
 20
56.1652941173
 30
0.0
 10
285.1533960159
 20
56.3392709832
 30
0.0
 10
285.2765956956
 20
56.4348070033
 30
0.0
  0
SPLINE
  5
467
100
AcDbEntity
  8
KONSTRUKTIONSELEMENTE
100
AcDbSpline
 62
7
  6
CONTINUOUS
 70
0
 71
3
 72
10
 73
6
 74
0
 42
0.0000001
 43
0.0000001
 44
0.0000000001
 40
0.0
 40
0.0
 40
0.0
 40
0.0
 40
0.4561635586
 40
0.7511952336
 40
1.0
 40
1.0
 40
1.0
 40
1.0
 10
291.6915183494
 20
56.43497168
 30
0.0
 10
291.8147622122
 20
56.3394277509
 30
0.0
 10
292.0077610736
 20
56.1653955496
 30
0.0
 10
292.2102308041
 20
55.8914631188
 30
0.0
 10
292.2841549298
 20
55.7106602387
 30
0.0
 10
292.2841549298
 20
55.625605349
 30
0.0
  0
SPLINE
  5
468
100
AcDbEntity
  8
KONSTRUKTIONSELEMENTE
100
AcDbSpline
 62
7
  6
CONTINUOUS
 70
0
 71
3
 72
9
 73
5
 74
0
 42
0.0000001
 43
0.0000001
 44
0.0000000001
 40
0.0
 40
0.0
 40
0.0
 40
0.0
 40
0.2752644152
 40
1.0
 40
1.0
 40
1.0
 40
1.0
 10
292.2841549298
 20
48.2716948246
 30
0.0
 10
292.2841549298
 20
48.2147969618
 30
0.0
 10
292.2238267646
 20
48.0110064782
 30
0.0
 10
292.0941677007
 20
47.8440030506
 30
0.0
 10
291.992067553
 20
47.7343809224
 30
0.0
  0
SPLINE
  5
469
100
AcDbEntity
  8
KONSTRUKTIONSELEMENTE
100
AcDbSpline
 62
7
  6
CONTINUOUS
 70
0
 71
3
 72
9
 73
5
 74
0
 42
0.0000001
 43
0.0000001
 44
0.0000000001
 40
0.0
 40
0.0
 40
0.0
 40
0.0
 40
0.7247302759
 40
1.0
 40
1.0
 40
1.0
 40
1.0
 10
284.9762148921
 20
47.7344108254
 30
0.0
 10
284.8741326106
 20
47.8440347883
 30
0.0
 10
284.7444757783
 20
48.0110206288
 30
0.0
 10
284.6841549298
 20
48.2147995625
 30
0.0
 10
284.6841549298
 20
48.2716948246
 30
0.0
  0
SPLINE
  5
46A
100
AcDbEntity
  8
KONSTRUKTIONSELEMENTE
100
AcDbSpline
 62
7
  6
CONTINUOUS
 70
0
 71
3
 72
13
 73
9
 74
0
 42
0.0000001
 43
0.0000001
 44
0.0000000001
 40
0.0
 40
0.0
 40
0.0
 40
0.0
 40
0.1208023438
 40
0.2417405165
 40
0.3635818662
 40
0.4866533049
 40
0.7381983824
 40
1.0
 40
1.0
 40
1.0
 40
1.0
 10
298.6841549298
 20
48.2716948246
 30
0.0
 10
298.6841549298
 20
47.8323700926
 30
0.0
 10
298.5969998312
 20
46.9507713188
 30
0.0
 10
298.211739181
 20
45.6779086902
 30
0.0
 10
297.5939284028
 20
44.4910533616
 30
0.0
 10
296.4878956866
 20
43.0539147491
 30
0.0
 10
294.6442492051
 20
41.5935555593
 30
0.0
 10
292.9002828185
 20
40.8667571394
 30
0.0
 10
291.984789767
 20
40.605286103
 30
0.0
  0
SPLINE
  5
46B
100
AcDbEntity
  8
KONSTRUKTIONSELEMENTE
100
AcDbSpline
 62
7
  6
CONTINUOUS
 70
0
 71
3
 72
13
 73
9
 74
0
 42
0.0000001
 43
0.0000001
 44
0.0000000001
 40
0.0
 40
0.0
 40
0.0
 40
0.0
 40
0.2618007603
 40
0.5133270374
 40
0.6363939503
 40
0.7582240297
 40
0.8791948111
 40
1.0
 40
1.0
 40
1.0
 40
1.0
 10
284.978719148
 20
40.6066786537
 30
0.0
 10
284.0637446845
 20
40.8683749302
 30
0.0
 10
282.3209148928
 20
41.5954865808
 30
0.0
 10
280.4787161107
 20
43.0557565518
 30
0.0
 10
279.3735760892
 20
44.4923616154
 30
0.0
 10
278.7561387237
 20
45.678798165
 30
0.0
 10
278.3713215068
 20
46.9512501538
 30
0.0
 10
278.2841549298
 20
47.8325598289
 30
0.0
 10
278.2841549298
 20
48.2716948246
 30
0.0
  0
SPLINE
  5
46C
100
AcDbEntity
  8
KONSTRUKTIONSELEMENTE
100
AcDbSpline
 62
7
  6
CONTINUOUS
 70
0
 71
3
 72
11
 73
7
 74
0
 42
0.0000001
 43
0.0000001
 44
0.0000000001
 40
0.0
 40
0.0
 40
0.0
 40
0.0
 40
0.2408269973
 40
0.4857221347
 40
0.7381457264
 40
1.0
 40
1.0
 40
1.0
 40
1.0
 10
278.343803795
 20
81.9737244887
 30
0.0
 10
278.4504954033
 20
82.7697843315
 30
0.0
 10
278.9628604152
 20
84.3479234917
 30
0.0
 10
280.4735014405
 20
86.3400310971
 30
0.0
 10
282.5381686235
 20
87.8559676788
 30
0.0
 10
284.1437922432
 20
88.5080262135
 30
0.0
 10
284.9835200925
 20
88.7478581934
 30
0.0
  0
SPLINE
  5
46D
100
AcDbEntity
  8
KONSTRUKTIONSELEMENTE
100
AcDbSpline
 62
7
  6
CONTINUOUS
 70
0
 71
3
 72
11
 73
7
 74
0
 42
0.0000001
 43
0.0000001
 44
0.0000000001
 40
0.0
 40
0.0
 40
0.0
 40
0.0
 40
0.2618508936
 40
0.5142522512
 40
0.7591278735
 40
1.0
 40
1.0
 40
1.0
 40
1.0
 10
291.9895907115
 20
88.7464656426
 30
0.0
 10
292.8287978886
 20
88.5064399346
 30
0.0
 10
294.4332912685
 20
87.8541153477
 30
0.0
 10
296.4962649945
 20
86.3383730757
 30
0.0
 10
298.0059325324
 20
84.3470941162
 30
0.0
 10
298.5177847786
 20
82.7695888279
 30
0.0
 10
298.6244681552
 20
81.9737807891
 30
0.0
  0
SPLINE
  5
46E
100
AcDbEntity
  8
KONSTRUKTIONSELEMENTE
100
AcDbSpline
 62
7
  6
CONTINUOUS
 70
0
 71
3
 72
9
 73
5
 74
0
 42
0.0000001
 43
0.0000001
 44
0.0000000001
 40
0.0
 40
0.0
 40
0.0
 40
0.0
 40
0.2925670556
 40
1.0
 40
1.0
 40
1.0
 40
1.0
 10
284.6841549298
 20
81.0814494717
 30
0.0
 10
284.6841549298
 20
81.1273202922
 30
0.0
 10
284.7219132411
 20
81.282918258
 30
0.0
 10
284.8092831675
 20
81.4169212811
 30
0.0
 10
284.8777826449
 20
81.5041583348
 30
0.0
  0
SPLINE
  5
46F
100
AcDbEntity
  8
KONSTRUKTIONSELEMENTE
100
AcDbSpline
 62
7
  6
CONTINUOUS
 70
0
 71
3
 72
9
 73
5
 74
0
 42
0.0000001
 43
0.0000001
 44
0.0000000001
 40
0.0
 40
0.0
 40
0.0
 40
0.0
 40
0.7073947347
 40
1.0
 40
1.0
 40
1.0
 40
1.0
 10
292.0904777167
 20
81.5042064054
 30
0.0
 10
292.158984206
 20
81.4169620746
 30
0.0
 10
292.2463939873
 20
81.2829561248
 30
0.0
 10
292.2841549298
 20
81.1273329197
 30
0.0
 10
292.2841549298
 20
81.0814494717
 30
0.0
  0
SPLINE
  5
470
100
AcDbEntity
  8
KONSTRUKTIONSELEMENTE
100
AcDbSpline
 62
7
  6
CONTINUOUS
 70
0
 71
3
 72
9
 73
5
 74
0
 42
0.0000001
 43
0.0000001
 44
0.0000000001
 40
0.0
 40
0.0
 40
0.0
 40
0.0
 40
0.2358334554
 40
1.0
 40
1.0
 40
1.0
 40
1.0
 10
262.5524273786
 20
107.4028923596
 30
0.0
 10
263.4614847749
 20
106.7236522709
 30
0.0
 10
267.4743786521
 20
104.0566373488
 30
0.0
 10
272.0161161054
 20
102.2290846117
 30
0.0
 10
275.5649598624
 20
101.2666092681
 30
0.0
  0
SPLINE
  5
471
100
AcDbEntity
  8
KONSTRUKTIONSELEMENTE
100
AcDbSpline
 62
7
  6
CONTINUOUS
 70
0
 71
3
 72
9
 73
5
 74
0
 42
0.0000001
 43
0.0000001
 44
0.0000000001
 40
0.0
 40
0.0
 40
0.0
 40
0.0
 40
0.2639358111
 40
1.0
 40
1.0
 40
1.0
 40
1.0
 10
301.4072233302
 20
101.2676598805
 30
0.0
 10
302.6324941685
 20
101.6000721896
 30
0.0
 10
307.2176161358
 20
103.0496916352
 30
0.0
 10
311.581051468
 20
105.2844906954
 30
0.0
 10
314.4171958751
 20
107.4038779905
 30
0.0
  0
SPLINE
  5
472
100
AcDbEntity
  8
KONSTRUKTIONSELEMENTE
100
AcDbSpline
 62
7
  6
CONTINUOUS
 70
0
 71
3
 72
9
 73
5
 74
0
 42
0.0000001
 43
0.0000001
 44
0.0000000001
 40
0.0
 40
0.0
 40
0.0
 40
0.0
 40
0.4902367365
 40
1.0
 40
1.0
 40
1.0
 40
1.0
 10
264.033817367
 20
97.1326648685
 30
0.0
 10
267.2082788266
 20
95.5313898427
 30
0.0
 10
274.0750712246
 20
93.0097860586
 30
0.0
 10
281.2920242066
 20
91.9001300488
 30
0.0
 10
284.9825976638
 20
91.6809597965
 30
0.0
  0
SPLINE
  5
473
100
AcDbEntity
  8
KONSTRUKTIONSELEMENTE
100
AcDbSpline
 62
7
  6
CONTINUOUS
 70
0
 71
3
 72
9
 73
5
 74
0
 42
0.0000001
 43
0.0000001
 44
0.0000000001
 40
0.0
 40
0.0
 40
0.0
 40
0.0
 40
0.5097684429
 40
1.0
 40
1.0
 40
1.0
 40
1.0
 10
291.985370853
 20
91.6809427787
 30
0.0
 10
295.6768963165
 20
91.9001580448
 30
0.0
 10
302.895646478
 20
93.0101982711
 30
0.0
 10
309.7639807578
 20
95.5329625074
 30
0.0
 10
312.9390255568
 20
97.1349523626
 30
0.0
  0
SPLINE
  5
474
100
AcDbEntity
  8
KONSTRUKTIONSELEMENTE
100
AcDbSpline
 62
7
  6
CONTINUOUS
 70
0
 71
3
 72
12
 73
8
 74
0
 42
0.0000001
 43
0.0000001
 44
0.0000000001
 40
0.0
 40
0.0
 40
0.0
 40
0.0
 40
0.1038096184
 40
0.2125411153
 40
0.4501979882
 40
0.7163641136
 40
1.0
 40
1.0
 40
1.0
 40
1.0
 10
278.4079278271
 20
-89.4893160496
 30
0.0
 10
278.3420933846
 20
-89.1115953992
 30
0.0
 10
278.1064184969
 20
-88.3528469765
 30
0.0
 10
277.2472911016
 20
-86.9144123754
 30
0.0
 10
275.4871864161
 20
-85.4004579106
 30
0.0
 10
272.7632361661
 20
-84.2838114071
 30
0.0
 10
270.7217481641
 20
-84.0279839354
 30
0.0
 10
269.6741549298
 20
-84.0279839354
 30
0.0
  0
SPLINE
  5
475
100
AcDbEntity
  8
KONSTRUKTIONSELEMENTE
100
AcDbSpline
 62
7
  6
CONTINUOUS
 70
0
 71
3
 72
9
 73
5
 74
0
 42
0.0000001
 43
0.0000001
 44
0.0000000001
 40
0.0
 40
0.0
 40
0.0
 40
0.0
 40
0.7446194581
 40
1.0
 40
1.0
 40
1.0
 40
1.0
 10
243.2671915767
 20
-7.1740146781
 30
0.0
 10
243.2671249486
 20
-6.9899734648
 30
0.0
 10
243.2239332233
 20
-6.7405161766
 30
0.0
 10
243.1320230134
 20
-6.5109651513
 30
0.0
 10
243.105668112
 20
-6.4536102736
 30
0.0
  0
SPLINE
  5
476
100
AcDbEntity
  8
KONSTRUKTIONSELEMENTE
100
AcDbSpline
 62
7
  6
CONTINUOUS
 70
0
 71
3
 72
11
 73
7
 74
0
 42
0.0000001
 43
0.0000001
 44
0.0000000001
 40
0.0
 40
0.0
 40
0.0
 40
0.0
 40
0.2165107186
 40
0.451460212
 40
0.7134365312
 40
1.0
 40
1.0
 40
1.0
 40
1.0
 10
226.8853873482
 20
-8.3007271638
 30
0.0
 10
226.8852981661
 20
-8.0543872777
 30
0.0
 10
227.0069940401
 20
-7.5353760135
 30
0.0
 10
227.5063470475
 20
-6.872921891
 30
0.0
 10
228.2519750898
 20
-6.3624287037
 30
0.0
 10
228.8478762393
 20
-6.1538174744
 30
0.0
 10
229.1656412352
 20
-6.0808100386
 30
0.0
  0
SPLINE
  5
477
100
AcDbEntity
  8
KONSTRUKTIONSELEMENTE
100
AcDbSpline
 62
7
  6
CONTINUOUS
 70
0
 71
3
 72
11
 73
7
 74
0
 42
0.0000001
 43
0.0000001
 44
0.0000000001
 40
0.0
 40
0.0
 40
0.0
 40
0.0
 40
0.2165219707
 40
0.4514695353
 40
0.7134663306
 40
1.0
 40
1.0
 40
1.0
 40
1.0
 10
216.3449695435
 20
16.2795699652
 30
0.0
 10
216.3450853184
 20
17.1005351008
 30
0.0
 10
216.7512995147
 20
18.8299648051
 30
0.0
 10
218.416089237
 20
21.0371674282
 30
0.0
 10
220.9011869673
 20
22.73777175
 30
0.0
 10
222.8869416426
 20
23.4329632896
 30
0.0
 10
223.945776609
 20
23.6762337155
 30
0.0
  0
SPLINE
  5
478
100
AcDbEntity
  8
KONSTRUKTIONSELEMENTE
100
AcDbSpline
 62
7
  6
CONTINUOUS
 70
0
 71
3
 72
9
 73
5
 74
0
 42
0.0000001
 43
0.0000001
 44
0.0000000001
 40
0.0
 40
0.0
 40
0.0
 40
0.0
 40
0.24703719
 40
1.0
 40
1.0
 40
1.0
 40
1.0
 10
216.3449695435
 20
12.7440360593
 30
0.0
 10
216.3449408029
 20
12.5402348009
 30
0.0
 10
216.3901671522
 20
11.7155059035
 30
0.0
 10
216.6239771433
 20
10.9040707585
 30
0.0
 10
216.8833418679
 20
10.3396280435
 30
0.0
  0
SPLINE
  5
479
100
AcDbEntity
  8
KONSTRUKTIONSELEMENTE
100
AcDbSpline
 62
7
  6
CONTINUOUS
 70
0
 71
3
 72
9
 73
5
 74
0
 42
0.0000001
 43
0.0000001
 44
0.0000000001
 40
0.0
 40
0.0
 40
0.0
 40
0.0
 40
0.24703719
 40
1.0
 40
1.0
 40
1.0
 40
1.0
 10
326.9144010613
 20
-63.0806228357
 30
0.0
 10
326.9143723206
 20
-62.8768215773
 30
0.0
 10
326.9595986699
 20
-62.0520926799
 30
0.0
 10
327.1934086611
 20
-61.240657535
 30
0.0
 10
327.4527733856
 20
-60.6762148199
 30
0.0
  0
SPLINE
  5
47A
100
AcDbEntity
  8
KONSTRUKTIONSELEMENTE
100
AcDbSpline
 62
7
  6
CONTINUOUS
 70
0
 71
3
 72
11
 73
7
 74
0
 42
0.0000001
 43
0.0000001
 44
0.0000000001
 40
0.0
 40
0.0
 40
0.0
 40
0.0
 40
0.2197559531
 40
0.4591847907
 40
0.7203727702
 40
1.0
 40
1.0
 40
1.0
 40
1.0
 10
327.1996098825
 20
-61.3039205874
 30
0.0
 10
327.419274919
 20
-61.9729359605
 30
0.0
 10
328.1354819674
 20
-63.2935472136
 30
0.0
 10
329.8056538424
 20
-64.9250793034
 30
0.0
 10
331.9832426203
 20
-66.1955097772
 30
0.0
 10
333.6419614133
 20
-66.7411216973
 30
0.0
 10
334.5152081268
 20
-66.9417526801
 30
0.0
  0
SPLINE
  5
47B
100
AcDbEntity
  8
KONSTRUKTIONSELEMENTE
100
AcDbSpline
 62
7
  6
CONTINUOUS
 70
0
 71
3
 72
11
 73
7
 74
0
 42
0.0000001
 43
0.0000001
 44
0.0000000001
 40
0.0
 40
0.0
 40
0.0
 40
0.0
 40
0.2094829334
 40
0.4446557434
 40
0.7120095299
 40
1.0
 40
1.0
 40
1.0
 40
1.0
 10
274.0741549298
 20
-112.0294124704
 30
0.0
 10
274.0741549298
 20
-112.3386468626
 30
0.0
 10
274.2749872742
 20
-113.0028128804
 30
0.0
 10
275.043936161
 20
-113.7633556531
 30
0.0
 10
276.1240801935
 20
-114.2517138792
 30
0.0
 10
276.9490293285
 20
-114.3628648483
 30
0.0
 10
277.3741549298
 20
-114.3628648483
 30
0.0
  0
SPLINE
  5
47C
100
AcDbEntity
  8
KONSTRUKTIONSELEMENTE
100
AcDbSpline
 62
7
  6
CONTINUOUS
 70
0
 71
3
 72
10
 73
6
 74
0
 42
0.0000001
 43
0.0000001
 44
0.0000000001
 40
0.0
 40
0.0
 40
0.0
 40
0.0
 40
0.2176045202
 40
0.4537200981
 40
1.0
 40
1.0
 40
1.0
 40
1.0
 10
348.875397477
 20
-70.8061183428
 30
0.0
 10
348.8753908052
 20
-70.7240188114
 30
0.0
 10
348.8346961822
 20
-70.5509909917
 30
0.0
 10
348.6030891579
 20
-70.2436939736
 30
0.0
 10
348.316187594
 20
-70.1125680191
 30
0.0
 10
348.1153163098
 20
-70.0664172549
 30
0.0
  0
SPLINE
  5
47D
100
AcDbEntity
  8
KONSTRUKTIONSELEMENTE
100
AcDbSpline
 62
7
  6
CONTINUOUS
 70
0
 71
3
 72
9
 73
5
 74
0
 42
0.0000001
 43
0.0000001
 44
0.0000000001
 40
0.0
 40
0.0
 40
0.0
 40
0.0
 40
0.2557501763
 40
1.0
 40
1.0
 40
1.0
 40
1.0
 10
385.1928600218
 20
4.5710165208
 30
0.0
 10
385.2809023634
 20
4.7626187458
 30
0.0
 10
385.5878374356
 20
5.5282376496
 30
0.0
 10
385.731210567
 20
6.3605625588
 30
0.0
 10
385.7312292656
 20
6.9741854147
 30
0.0
  0
SPLINE
  5
47E
100
AcDbEntity
  8
KONSTRUKTIONSELEMENTE
100
AcDbSpline
 62
7
  6
CONTINUOUS
 70
0
 71
3
 72
9
 73
5
 74
0
 42
0.0000001
 43
0.0000001
 44
0.0000000001
 40
0.0
 40
0.0
 40
0.0
 40
0.0
 40
0.5421687125
 40
1.0
 40
1.0
 40
1.0
 40
1.0
 10
383.1269417725
 20
2.5921302447
 30
0.0
 10
383.4000291087
 20
2.5293876316
 30
0.0
 10
383.9400711644
 20
2.5443198439
 30
0.0
 10
384.4142274973
 20
2.876516789
 30
0.0
 10
384.5130226342
 20
3.0915197944
 30
0.0
  0
SPLINE
  5
47F
100
AcDbEntity
  8
KONSTRUKTIONSELEMENTE
100
AcDbSpline
 62
7
  6
CONTINUOUS
 70
0
 71
3
 72
8
 73
4
 74
0
 42
0.0000001
 43
0.0000001
 44
0.0000000001
 40
0.0
 40
0.0
 40
0.0
 40
0.0
 40
1.0
 40
1.0
 40
1.0
 40
1.0
 10
348.8215597839
 20
-74.5820583374
 30
0.0
 10
348.8558478503
 20
-74.5074389021
 30
0.0
 10
348.8754041505
 20
-74.4237724752
 30
0.0
 10
348.875397477
 20
-74.3416522488
 30
0.0
  0
SPLINE
  5
480
100
AcDbEntity
  8
KONSTRUKTIONSELEMENTE
100
AcDbSpline
 62
7
  6
CONTINUOUS
 70
0
 71
3
 72
11
 73
7
 74
0
 42
0.0000001
 43
0.0000001
 44
0.0000000001
 40
0.0
 40
0.0
 40
0.0
 40
0.0
 40
0.2773556544
 40
0.5416273378
 40
0.7832845041
 40
1.0
 40
1.0
 40
1.0
 40
1.0
 10
336.489133989
 20
-84.0279839354
 30
0.0
 10
337.6293350433
 20
-84.0279839354
 30
0.0
 10
339.8643542495
 20
-83.784543696
 30
0.0
 10
342.9318764306
 20
-82.7077624273
 30
0.0
 10
345.4181472686
 20
-81.0118675849
 30
0.0
 10
346.57876912
 20
-79.4629335371
 30
0.0
 10
346.9507556683
 20
-78.6533974768
 30
0.0
  0
SPLINE
  5
481
100
AcDbEntity
  8
KONSTRUKTIONSELEMENTE
100
AcDbSpline
 62
7
  6
CONTINUOUS
 70
0
 71
3
 72
12
 73
8
 74
0
 42
0.0000001
 43
0.0000001
 44
0.0000000001
 40
0.0
 40
0.0
 40
0.0
 40
0.0
 40
0.2874378001
 40
0.5543027143
 40
0.7890463209
 40
0.896415877
 40
1.0
 40
1.0
 40
1.0
 40
1.0
 10
307.2941549298
 20
-84.0279839354
 30
0.0
 10
306.1605387625
 20
-84.0279839354
 30
0.0
 10
303.9607519818
 20
-84.3261263472
 30
0.0
 10
301.0800240414
 20
-85.6212257955
 30
0.0
 10
299.3237740189
 20
-87.3782395019
 30
0.0
 10
298.6128887707
 20
-89.0057935439
 30
0.0
 10
298.4941549298
 20
-89.842001709
 30
0.0
 10
298.4941549298
 20
-90.2505236098
 30
0.0
  0
SPLINE
  5
482
100
AcDbEntity
  8
KONSTRUKTIONSELEMENTE
100
AcDbSpline
 62
7
  6
CONTINUOUS
 70
0
 71
3
 72
11
 73
7
 74
0
 42
0.0000001
 43
0.0000001
 44
0.0000000001
 40
0.0
 40
0.0
 40
0.0
 40
0.0
 40
0.2165288793
 40
0.4514682974
 40
0.7134745108
 40
1.0
 40
1.0
 40
1.0
 40
1.0
 10
385.7312292656
 20
10.5097193206
 30
0.0
 10
385.7312542859
 20
11.3307983928
 30
0.0
 10
385.3253938663
 20
13.0605125572
 30
0.0
 10
383.6605906112
 20
15.2681659496
 30
0.0
 10
381.1753117409
 20
16.9690428795
 30
0.0
 10
379.1893431662
 20
17.6643327159
 30
0.0
 10
378.1304252807
 20
17.9076221928
 30
0.0
  0
SPLINE
  5
483
100
AcDbEntity
  8
KONSTRUKTIONSELEMENTE
100
AcDbSpline
 62
7
  6
CONTINUOUS
 70
0
 71
3
 72
9
 73
5
 74
0
 42
0.0000001
 43
0.0000001
 44
0.0000000001
 40
0.0
 40
0.0
 40
0.0
 40
0.0
 40
0.2692734534
 40
1.0
 40
1.0
 40
1.0
 40
1.0
 10
239.6272629145
 20
-3.6772219041
 30
0.0
 10
239.8045152788
 20
-3.6364976557
 30
0.0
 10
240.4510516517
 20
-3.4452137905
 30
0.0
 10
241.0597826485
 20
-3.0786995526
 30
0.0
 10
241.3902760024
 20
-2.7121519091
 30
0.0
  0
SPLINE
  5
484
100
AcDbEntity
  8
KONSTRUKTIONSELEMENTE
100
AcDbSpline
 62
7
  6
CONTINUOUS
 70
0
 71
3
 72
11
 73
7
 74
0
 42
0.0000001
 43
0.0000001
 44
0.0000000001
 40
0.0
 40
0.0
 40
0.0
 40
0.0
 40
0.2879904701
 40
0.5553442566
 40
0.7905170666
 40
1.0
 40
1.0
 40
1.0
 40
1.0
 10
299.5941549298
 20
-114.3628648483
 30
0.0
 10
300.019280531
 20
-114.3628648483
 30
0.0
 10
300.844229666
 20
-114.2517138792
 30
0.0
 10
301.9243736985
 20
-113.7633556531
 30
0.0
 10
302.6933225853
 20
-113.0028128804
 30
0.0
 10
302.8941549298
 20
-112.3386468626
 30
0.0
 10
302.8941549298
 20
-112.0294124704
 30
0.0
  0
SPLINE
  5
485
100
AcDbEntity
  8
KONSTRUKTIONSELEMENTE
100
AcDbSpline
 62
7
  6
CONTINUOUS
 70
0
 71
3
 72
11
 73
7
 74
0
 42
0.0000001
 43
0.0000001
 44
0.0000000001
 40
0.0
 40
0.0
 40
0.0
 40
0.0
 40
0.2809363762
 40
0.5390132064
 40
0.7759685789
 40
1.0
 40
1.0
 40
1.0
 40
1.0
 10
307.0123187239
 20
-84.2039830648
 30
0.0
 10
306.4090936428
 20
-84.4719936469
 30
0.0
 10
305.2976270219
 20
-85.1037271104
 30
0.0
 10
303.9575405701
 20
-86.370109049
 30
0.0
 10
303.0959549937
 20
-87.8547993155
 30
0.0
 10
302.8941549298
 20
-88.9463256334
 30
0.0
 10
302.8941549298
 20
-89.4727061505
 30
0.0
  0
SPLINE
  5
486
100
AcDbEntity
  8
KONSTRUKTIONSELEMENTE
100
AcDbSpline
 62
7
  6
CONTINUOUS
 70
0
 71
3
 72
11
 73
7
 74
0
 42
0.0000001
 43
0.0000001
 44
0.0000000001
 40
0.0
 40
0.0
 40
0.0
 40
0.0
 40
0.2810583778
 40
0.5392023193
 40
0.7761107168
 40
1.0
 40
1.0
 40
1.0
 40
1.0
 10
269.9230746152
 20
-84.0316357395
 30
0.0
 10
270.5305994071
 20
-84.298914112
 30
0.0
 10
271.6502862208
 20
-84.9302970284
 30
0.0
 10
273.0012755846
 20
-86.1993724916
 30
0.0
 10
273.8704249036
 20
-87.6896078958
 30
0.0
 10
274.0741549298
 20
-88.7862703532
 30
0.0
 10
274.0741549298
 20
-89.3149853237
 30
0.0
  0
SPLINE
  5
487
100
AcDbEntity
  8
KONSTRUKTIONSELEMENTE
100
AcDbSpline
 62
7
  6
CONTINUOUS
 70
0
 71
3
 72
9
 73
5
 74
0
 42
0.0000001
 43
0.0000001
 44
0.0000000001
 40
0.0
 40
0.0
 40
0.0
 40
0.0
 40
0.2553805419
 40
1.0
 40
1.0
 40
1.0
 40
1.0
 10
227.0469108129
 20
-11.0010305557
 30
0.0
 10
227.0205559115
 20
-10.943675678
 30
0.0
 10
226.9286457016
 20
-10.7141246527
 30
0.0
 10
226.8854539764
 20
-10.4646673645
 30
0.0
 10
226.8853873482
 20
-10.2806261511
 30
0.0
  0
SPLINE
  5
488
100
AcDbEntity
  8
KONSTRUKTIONSELEMENTE
100
AcDbSpline
 62
7
  6
CONTINUOUS
 70
0
 71
3
 72
9
 73
5
 74
0
 42
0.0000001
 43
0.0000001
 44
0.0000000001
 40
0.0
 40
0.0
 40
0.0
 40
0.0
 40
0.2381299476
 40
1.0
 40
1.0
 40
1.0
 40
1.0
 10
218.5829353369
 20
6.6408862277
 30
0.0
 10
218.6178024856
 20
6.5650065641
 30
0.0
 10
218.7852895724
 20
6.2560552121
 30
0.0
 10
219.0306062456
 20
5.992825125
 30
0.0
 10
219.2384466921
 20
5.8249469864
 30
0.0
  0
SPLINE
  5
489
100
AcDbEntity
  8
KONSTRUKTIONSELEMENTE
100
AcDbSpline
 62
7
  6
CONTINUOUS
 70
0
 71
3
 72
11
 73
7
 74
0
 42
0.0000001
 43
0.0000001
 44
0.0000000001
 40
0.0
 40
0.0
 40
0.0
 40
0.0
 40
0.2188416256
 40
0.4597745413
 40
0.7222209482
 40
1.0
 40
1.0
 40
1.0
 40
1.0
 10
257.7761569111
 20
-78.6533974768
 30
0.0
 10
258.1019153782
 20
-79.3623296336
 30
0.0
 10
259.0704464174
 20
-80.7283567146
 30
0.0
 10
261.1338448541
 20
-82.3157797301
 30
0.0
 10
263.705097405
 20
-83.4441884498
 30
0.0
 10
265.6066335764
 20
-83.8349561995
 30
0.0
 10
266.5913210011
 20
-83.9403612538
 30
0.0
  0
SPLINE
  5
48A
100
AcDbEntity
  8
KONSTRUKTIONSELEMENTE
100
AcDbSpline
 62
7
  6
CONTINUOUS
 70
0
 71
3
 72
12
 73
8
 74
0
 42
0.0000001
 43
0.0000001
 44
0.0000000001
 40
0.0
 40
0.0
 40
0.0
 40
0.0
 40
0.214597601
 40
0.3340131511
 40
0.4606650373
 40
0.7282666641
 40
1.0
 40
1.0
 40
1.0
 40
1.0
 10
355.6660249721
 20
0.7228993224
 30
0.0
 10
356.136146443
 20
1.7460015963
 30
0.0
 10
357.3110182565
 20
3.1470011635
 30
0.0
 10
359.3235821915
 20
4.4932281654
 30
0.0
 10
361.7950765382
 20
5.6004984374
 30
0.0
 10
365.2755080273
 20
6.267690225
 30
0.0
 10
368.1373124615
 20
6.0360413568
 30
0.0
 10
369.5268335894
 20
5.7167948195
 30
0.0
  0
SPLINE
  5
48B
100
AcDbEntity
  8
KONSTRUKTIONSELEMENTE
100
AcDbSpline
 62
7
  6
CONTINUOUS
 70
0
 71
3
 72
11
 73
7
 74
0
 42
0.0000001
 43
0.0000001
 44
0.0000000001
 40
0.0
 40
0.0
 40
0.0
 40
0.0
 40
0.2165288793
 40
0.4514682974
 40
0.7134745108
 40
1.0
 40
1.0
 40
1.0
 40
1.0
 10
385.7312292656
 20
6.9741854147
 30
0.0
 10
385.7312542859
 20
7.7952644868
 30
0.0
 10
385.3253938663
 20
9.5249786513
 30
0.0
 10
383.6605906112
 20
11.7326320437
 30
0.0
 10
381.1753117409
 20
13.4335089736
 30
0.0
 10
379.1893431662
 20
14.12879881
 30
0.0
 10
378.1304252807
 20
14.3720882868
 30
0.0
  0
SPLINE
  5
48C
100
AcDbEntity
  8
KONSTRUKTIONSELEMENTE
100
AcDbSpline
 62
7
  6
CONTINUOUS
 70
0
 71
3
 72
11
 73
7
 74
0
 42
0.0000001
 43
0.0000001
 44
0.0000000001
 40
0.0
 40
0.0
 40
0.0
 40
0.0
 40
0.2815748002
 40
0.5432923916
 40
0.7815782687
 40
1.0
 40
1.0
 40
1.0
 40
1.0
 10
240.9869376897
 20
-8.6161143441
 30
0.0
 10
241.2637818285
 20
-8.5525085946
 30
0.0
 10
241.7879525006
 20
-8.376995752
 30
0.0
 10
242.4679762973
 20
-7.9630524228
 30
0.0
 10
242.9729711198
 20
-7.4294249389
 30
0.0
 10
243.1697771086
 20
-7.0001396306
 30
0.0
 10
243.2210180024
 20
-6.7858331737
 30
0.0
  0
SPLINE
  5
48D
100
AcDbEntity
  8
KONSTRUKTIONSELEMENTE
100
AcDbSpline
 62
7
  6
CONTINUOUS
 70
0
 71
3
 72
11
 73
7
 74
0
 42
0.0000001
 43
0.0000001
 44
0.0000000001
 40
0.0
 40
0.0
 40
0.0
 40
0.0
 40
0.2825292704
 40
0.5442891309
 40
0.7820757896
 40
1.0
 40
1.0
 40
1.0
 40
1.0
 10
239.6272629145
 20
-5.6571208914
 30
0.0
 10
239.9110804179
 20
-5.5919129911
 30
0.0
 10
240.4475124618
 20
-5.4110220712
 30
0.0
 10
241.1392099378
 20
-4.9811809272
 30
0.0
 10
241.645296459
 20
-4.4269419651
 30
0.0
 10
241.8319067354
 20
-3.9820832132
 30
0.0
 10
241.8755659959
 20
-3.7617455364
 30
0.0
  0
SPLINE
  5
48E
100
AcDbEntity
  8
KONSTRUKTIONSELEMENTE
100
AcDbSpline
 62
7
  6
CONTINUOUS
 70
0
 71
3
 72
10
 73
6
 74
0
 42
0.0000001
 43
0.0000001
 44
0.0000000001
 40
0.0
 40
0.0
 40
0.0
 40
0.0
 40
0.2176045202
 40
0.4537200981
 40
1.0
 40
1.0
 40
1.0
 40
1.0
 10
348.875397477
 20
-74.3416522488
 30
0.0
 10
348.8753908052
 20
-74.2595527174
 30
0.0
 10
348.8346961822
 20
-74.0865248977
 30
0.0
 10
348.6030891579
 20
-73.7792278795
 30
0.0
 10
348.316187594
 20
-73.648101925
 30
0.0
 10
348.1153163098
 20
-73.6019511608
 30
0.0
  0
SPLINE
  5
48F
100
AcDbEntity
  8
KONSTRUKTIONSELEMENTE
100
AcDbSpline
 62
7
  6
CONTINUOUS
 70
0
 71
3
 72
11
 73
7
 74
0
 42
0.0000001
 43
0.0000001
 44
0.0000000001
 40
0.0
 40
0.0
 40
0.0
 40
0.0
 40
0.2165107186
 40
0.451460212
 40
0.7134365312
 40
1.0
 40
1.0
 40
1.0
 40
1.0
 10
226.8853873482
 20
-10.2806261511
 30
0.0
 10
226.8852981661
 20
-10.034286265
 30
0.0
 10
227.0069940401
 20
-9.5152750008
 30
0.0
 10
227.5063470475
 20
-8.8528208784
 30
0.0
 10
228.2519750898
 20
-8.342327691
 30
0.0
 10
228.8478762393
 20
-8.1337164618
 30
0.0
 10
229.1656412352
 20
-8.0607090259
 30
0.0
  0
SPLINE
  5
490
100
AcDbEntity
  8
KONSTRUKTIONSELEMENTE
100
AcDbSpline
 62
7
  6
CONTINUOUS
 70
0
 71
3
 72
11
 73
7
 74
0
 42
0.0000001
 43
0.0000001
 44
0.0000000001
 40
0.0
 40
0.0
 40
0.0
 40
0.0
 40
0.2865634688
 40
0.548539788
 40
0.7834892814
 40
1.0
 40
1.0
 40
1.0
 40
1.0
 10
240.9869376897
 20
-9.3939318034
 30
0.0
 10
241.3047026856
 20
-9.3209243675
 30
0.0
 10
241.9006038351
 20
-9.1123131382
 30
0.0
 10
242.6462318774
 20
-8.6018199509
 30
0.0
 10
243.1455848849
 20
-7.9393658284
 30
0.0
 10
243.2672807588
 20
-7.4203545643
 30
0.0
 10
243.2671915767
 20
-7.1740146781
 30
0.0
  0
SPLINE
  5
491
100
AcDbEntity
  8
KONSTRUKTIONSELEMENTE
100
AcDbSpline
 62
7
  6
CONTINUOUS
 70
0
 71
3
 72
11
 73
7
 74
0
 42
0.0000001
 43
0.0000001
 44
0.0000000001
 40
0.0
 40
0.0
 40
0.0
 40
0.0
 40
0.2865336694
 40
0.5485304647
 40
0.7834780293
 40
1.0
 40
1.0
 40
1.0
 40
1.0
 10
223.945776609
 20
20.1406998095
 30
0.0
 10
222.8869416426
 20
19.8974293836
 30
0.0
 10
220.9011869673
 20
19.202237844
 30
0.0
 10
218.416089237
 20
17.5016335222
 30
0.0
 10
216.7512995147
 20
15.2944308991
 30
0.0
 10
216.3450853184
 20
13.5650011949
 30
0.0
 10
216.3449695435
 20
12.7440360593
 30
0.0
  0
SPLINE
  5
492
100
AcDbEntity
  8
KONSTRUKTIONSELEMENTE
100
AcDbSpline
 62
7
  6
CONTINUOUS
 70
0
 71
3
 72
11
 73
7
 74
0
 42
0.0000001
 43
0.0000001
 44
0.0000000001
 40
0.0
 40
0.0
 40
0.0
 40
0.0
 40
0.2865336694
 40
0.5485304647
 40
0.7834780293
 40
1.0
 40
1.0
 40
1.0
 40
1.0
 10
334.5152081268
 20
-70.477286586
 30
0.0
 10
333.4563731603
 20
-70.2340161601
 30
0.0
 10
331.4706184851
 20
-69.5388246205
 30
0.0
 10
328.9855207547
 20
-67.8382202987
 30
0.0
 10
327.3207310325
 20
-65.6310176756
 30
0.0
 10
326.9145168361
 20
-63.9015879713
 30
0.0
 10
326.9144010613
 20
-63.0806228357
 30
0.0
  0
SPLINE
  5
493
100
AcDbEntity
  8
0
100
AcDbSpline
 62
7
  6
CONTINUOUS
 70
0
 71
3
 72
9
 73
5
 74
0
 42
0.0000001
 43
0.0000001
 44
0.0000000001
 40
0.0
 40
0.0
 40
0.0
 40
0.0
 40
0.5183802924
 40
1.0
 40
1.0
 40
1.0
 40
1.0
 10
322.1602571047
 20
15.3455261623
 30
0.0
 10
322.3612874843
 20
14.9097674068
 30
0.0
 10
322.5893039374
 20
13.9647663453
 30
0.0
 10
322.2689941328
 20
13.0396448827
 30
0.0
 10
322.0226985981
 20
12.6679829761
 30
0.0
  0
SPLINE
  5
494
100
AcDbEntity
  8
0
100
AcDbSpline
 62
7
  6
CONTINUOUS
 70
0
 71
3
 72
9
 73
5
 74
0
 42
0.0000001
 43
0.0000001
 44
0.0000000001
 40
0.0
 40
0.0
 40
0.0
 40
0.0
 40
0.4816197076
 40
1.0
 40
1.0
 40
1.0
 40
1.0
 10
254.9456112614
 20
12.6679829761
 30
0.0
 10
254.6993157268
 20
13.0396448827
 30
0.0
 10
254.3790059221
 20
13.9647663453
 30
0.0
 10
254.6070223752
 20
14.9097674068
 30
0.0
 10
254.8080527548
 20
15.3455261623
 30
0.0
  0
LINE
  5
495
100
AcDbEntity
  8
BEZUGSACHSEN
100
AcDbLine
 62
7
  6
CONTINUOUS
 10
258.2247027514
 20
-8.1060867409
 11
257.3656468671
 21
6.2931456934
  0
LINE
  5
496
100
AcDbEntity
  8
BEZUGSACHSEN
100
AcDbLine
 62
7
  6
CONTINUOUS
 10
319.6026629809
 20
6.2931455048
 11
318.7436071081
 21
-8.1060867409
  0
SPLINE
  5
497
100
AcDbEntity
  8
0
100
AcDbSpline
 62
7
  6
CONTINUOUS
 70
0
 71
3
 72
11
 73
7
 74
0
 42
0.0000001
 43
0.0000001
 44
0.0000000001
 40
0.0
 40
0.0
 40
0.0
 40
0.0
 40
0.2554166893
 40
0.5069641095
 40
0.7546082035
 40
1.0
 40
1.0
 40
1.0
 40
1.0
 10
256.4413220991
 20
38.2144213348
 30
0.0
 10
256.4413220991
 20
38.7423885174
 30
0.0
 10
256.6396992294
 20
39.7981661073
 30
0.0
 10
257.4114096028
 20
41.175859857
 30
0.0
 10
258.46467806
 20
42.3119370556
 30
0.0
 10
259.2780682394
 20
42.9326835248
 30
0.0
 10
259.6998753097
 20
43.2144213348
 30
0.0
  0
SPLINE
  5
498
100
AcDbEntity
  8
0
100
AcDbSpline
 62
7
  6
CONTINUOUS
 70
0
 71
3
 72
11
 73
7
 74
0
 42
0.0000001
 43
0.0000001
 44
0.0000000001
 40
0.0
 40
0.0
 40
0.0
 40
0.0
 40
0.245391792
 40
0.4930358813
 40
0.7445833006
 40
1.0
 40
1.0
 40
1.0
 40
1.0
 10
317.2684345498
 20
43.2144213348
 30
0.0
 10
317.6902416126
 20
42.9326835298
 30
0.0
 10
318.5036317803
 20
42.311937075
 30
0.0
 10
319.5569002198
 20
41.1758598912
 30
0.0
 10
320.328610636
 20
39.7981661532
 30
0.0
 10
320.5269877604
 20
38.7423885383
 30
0.0
 10
320.5269877604
 20
38.2144213348
 30
0.0
  0
SPLINE
  5
499
100
AcDbEntity
  8
0
100
AcDbSpline
 62
7
  6
CONTINUOUS
 70
0
 71
3
 72
9
 73
5
 74
0
 42
0.0000001
 43
0.0000001
 44
0.0000000001
 40
0.0
 40
0.0
 40
0.0
 40
0.0
 40
0.5068383231
 40
1.0
 40
1.0
 40
1.0
 40
1.0
 10
322.0226985981
 20
12.6679829761
 30
0.0
 10
321.3807357303
 20
11.6992559395
 30
0.0
 10
320.2431263551
 20
9.6919461708
 30
0.0
 10
319.6685337798
 20
7.4219970422
 30
0.0
 10
319.6026629809
 20
6.2931455048
 30
0.0
  0
SPLINE
  5
49A
100
AcDbEntity
  8
0
100
AcDbSpline
 62
7
  6
CONTINUOUS
 70
0
 71
3
 72
9
 73
5
 74
0
 42
0.0000001
 43
0.0000001
 44
0.0000000001
 40
0.0
 40
0.0
 40
0.0
 40
0.0
 40
0.493161726
 40
1.0
 40
1.0
 40
1.0
 40
1.0
 10
257.3656468546
 20
6.2931456934
 30
0.0
 10
257.2997760489
 20
7.421997312
 30
0.0
 10
256.7251834158
 20
9.6919463711
 30
0.0
 10
255.5875740493
 20
11.69925606
 30
0.0
 10
254.9456112614
 20
12.6679829761
 30
0.0
  0
SPLINE
  5
49B
100
AcDbEntity
  8
0
100
AcDbSpline
 62
7
  6
CONTINUOUS
 70
0
 71
3
 72
9
 73
5
 74
0
 42
0.0000001
 43
0.0000001
 44
0.0000000001
 40
0.0
 40
0.0
 40
0.0
 40
0.0
 40
0.4997850418
 40
1.0
 40
1.0
 40
1.0
 40
1.0
 10
320.5269877604
 20
22.1399132591
 30
0.0
 10
320.5269877604
 20
20.9687601262
 30
0.0
 10
320.8428309504
 20
18.6177666507
 30
0.0
 10
321.6692329464
 20
16.409883085
 30
0.0
 10
322.1602571047
 20
15.3455261623
 30
0.0
  0
SPLINE
  5
49C
100
AcDbEntity
  8
0
100
AcDbSpline
 62
7
  6
CONTINUOUS
 70
0
 71
3
 72
9
 73
5
 74
0
 42
0.0000001
 43
0.0000001
 44
0.0000000001
 40
0.0
 40
0.0
 40
0.0
 40
0.0
 40
0.5002149582
 40
1.0
 40
1.0
 40
1.0
 40
1.0
 10
254.8080527548
 20
15.3455261623
 30
0.0
 10
255.2990769131
 20
16.409883085
 30
0.0
 10
256.1254789091
 20
18.6177666507
 30
0.0
 10
256.4413220991
 20
20.9687601262
 30
0.0
 10
256.4413220991
 20
22.1399132591
 30
0.0
  0
LINE
  5
49D
100
AcDbEntity
  8
BEZUGSACHSEN
100
AcDbLine
 62
7
  6
CONTINUOUS
 10
884.3141358662
 20
153.5916913728
 11
884.2465419794
 21
153.8106073249
  0
LINE
  5
49E
100
AcDbEntity
  8
BEZUGSACHSEN
100
AcDbLine
 62
7
  6
CONTINUOUS
 10
884.5946509618
 20
152.649933856
 11
884.4554172747
 21
153.1184052543
  0
LINE
  5
49F
100
AcDbEntity
  8
BEZUGSACHSEN
100
AcDbLine
 62
7
  6
CONTINUOUS
 10
884.4554172747
 20
153.1184052543
 11
884.3850326437
 21
153.3544464973
  0
LINE
  5
4A0
100
AcDbEntity
  8
BEZUGSACHSEN
100
AcDbLine
 62
7
  6
CONTINUOUS
 10
884.3850326437
 20
153.3544464973
 11
884.3569078068
 21
153.4486229601
  0
LINE
  5
4A1
100
AcDbEntity
  8
BEZUGSACHSEN
100
AcDbLine
 62
7
  6
CONTINUOUS
 10
884.3569078068
 20
153.4486229601
 11
884.3141358662
 21
153.5916913728
  0
LINE
  5
4A2
100
AcDbEntity
  8
BEZUGSACHSEN
100
AcDbLine
 62
7
  6
CONTINUOUS
 10
881.724016838
 20
161.775293551
 11
881.7556788344
 21
161.6893146892
  0
LINE
  5
4A3
100
AcDbEntity
  8
BEZUGSACHSEN
100
AcDbLine
 62
7
  6
CONTINUOUS
 10
882.1062272814
 20
160.6600926855
 11
882.1894268234
 21
160.3966166538
  0
LINE
  5
4A4
100
AcDbEntity
  8
BEZUGSACHSEN
100
AcDbLine
 62
7
  6
CONTINUOUS
 10
882.1894268234
 20
160.3966166538
 11
882.2723875073
 21
160.1338371975
  0
LINE
  5
4A5
100
AcDbEntity
  8
BEZUGSACHSEN
100
AcDbLine
 62
7
  6
CONTINUOUS
 10
882.2723875073
 20
160.1338371975
 11
882.355109224
 21
159.8717542849
  0
LINE
  5
4A6
100
AcDbEntity
  8
BEZUGSACHSEN
100
AcDbLine
 62
7
  6
CONTINUOUS
 10
882.355109224
 20
159.8717542849
 11
882.3879103635
 21
159.7678152424
  0
LINE
  5
4A7
100
AcDbEntity
  8
BEZUGSACHSEN
100
AcDbLine
 62
7
  6
CONTINUOUS
 10
882.3879103635
 20
159.7678152424
 11
882.4203881153
 21
159.6648913991
  0
LINE
  5
4A8
100
AcDbEntity
  8
BEZUGSACHSEN
100
AcDbLine
 62
7
  6
CONTINUOUS
 10
882.4203881153
 20
159.6648913991
 11
882.4375918616
 21
159.6103678834
  0
LINE
  5
4A9
100
AcDbEntity
  8
BEZUGSACHSEN
100
AcDbLine
 62
7
  6
CONTINUOUS
 10
882.2641499256
 20
159.6155891478
 11
882.2317809889
 21
159.7382991539
  0
LINE
  5
4AA
100
AcDbEntity
  8
BEZUGSACHSEN
100
AcDbLine
 62
7
  6
CONTINUOUS
 10
882.2317809889
 20
159.7382991539
 11
882.1665960873
 21
159.9843611553
  0
LINE
  5
4AB
100
AcDbEntity
  8
BEZUGSACHSEN
100
AcDbLine
 62
7
  6
CONTINUOUS
 10
882.1665960873
 20
159.9843611553
 11
882.1337801897
 21
160.1077131603
  0
LINE
  5
4AC
100
AcDbEntity
  8
BEZUGSACHSEN
100
AcDbLine
 62
7
  6
CONTINUOUS
 10
882.4619035627
 20
158.9305156363
 11
882.4127469017
 21
159.1010401499
  0
LINE
  5
4AD
100
AcDbEntity
  8
BEZUGSACHSEN
100
AcDbLine
 62
7
  6
CONTINUOUS
 10
882.4127469017
 20
159.1010401499
 11
882.3634024117
 21
159.2720605739
  0
LINE
  5
4AE
100
AcDbEntity
  8
BEZUGSACHSEN
100
AcDbLine
 62
7
  6
CONTINUOUS
 10
882.3634024117
 20
159.2720605739
 11
882.2641499256
 21
159.6155891478
  0
LINE
  5
4AF
100
AcDbEntity
  8
BEZUGSACHSEN
100
AcDbLine
 62
7
  6
CONTINUOUS
 10
882.727989465
 20
158.0524947985
 11
882.5952752381
 21
158.4905138861
  0
LINE
  5
4B0
100
AcDbEntity
  8
BEZUGSACHSEN
100
AcDbLine
 62
7
  6
CONTINUOUS
 10
882.5952752381
 20
158.4905138861
 11
882.5286715498
 21
158.7102669188
  0
LINE
  5
4B1
100
AcDbEntity
  8
BEZUGSACHSEN
100
AcDbLine
 62
7
  6
CONTINUOUS
 10
882.5286715498
 20
158.7102669188
 11
882.4619035627
 21
158.9305156363
  0
LINE
  5
4B2
100
AcDbEntity
  8
BEZUGSACHSEN
100
AcDbLine
 62
7
  6
CONTINUOUS
 10
883.7328186713
 20
154.8395852882
 11
883.5624057133
 21
155.384496999
  0
LINE
  5
4B3
100
AcDbEntity
  8
BEZUGSACHSEN
100
AcDbLine
 62
7
  6
CONTINUOUS
 10
883.5624057133
 20
155.384496999
 11
883.4830072683
 21
155.638377945
  0
LINE
  5
4B4
100
AcDbEntity
  8
BEZUGSACHSEN
100
AcDbLine
 62
7
  6
CONTINUOUS
 10
883.4830072683
 20
155.638377945
 11
883.3756637766
 21
155.9816116019
  0
LINE
  5
4B5
100
AcDbEntity
  8
BEZUGSACHSEN
100
AcDbLine
 62
7
  6
CONTINUOUS
 10
883.3756637766
 20
155.9816116019
 11
883.0734868327
 21
156.9478116367
  0
LINE
  5
4B6
100
AcDbEntity
  8
BEZUGSACHSEN
100
AcDbLine
 62
7
  6
CONTINUOUS
 10
883.0734868327
 20
156.9478116367
 11
882.9805924778
 21
157.2448326424
  0
LINE
  5
4B7
100
AcDbEntity
  8
BEZUGSACHSEN
100
AcDbLine
 62
7
  6
CONTINUOUS
 10
882.9805924778
 20
157.2448326424
 11
882.8647528027
 21
157.615215716
  0
LINE
  5
4B8
100
AcDbEntity
  8
BEZUGSACHSEN
100
AcDbLine
 62
7
  6
CONTINUOUS
 10
882.8647528027
 20
157.615215716
 11
882.727989465
 21
158.0524947985
  0
LINE
  5
4B9
100
AcDbEntity
  8
BEZUGSACHSEN
100
AcDbLine
 62
7
  6
CONTINUOUS
 10
883.7328186713
 20
154.8395852882
 11
884.0028253703
 21
154.0040545472
  0
LINE
  5
4BA
100
AcDbEntity
  8
BEZUGSACHSEN
100
AcDbLine
 62
7
  6
CONTINUOUS
 10
884.0028253703
 20
154.0040545472
 11
884.2074581193
 21
153.4039637745
  0
SPLINE
  5
4BB
100
AcDbEntity
  8
BEZUGSACHSEN
100
AcDbSpline
 62
7
  6
CONTINUOUS
 70
0
 71
3
 72
8
 73
4
 74
0
 42
0.0000001
 43
0.0000001
 44
0.0000000001
 40
0.0
 40
0.0
 40
0.0
 40
0.0
 40
1.0
 40
1.0
 40
1.0
 40
1.0
 10
883.3260433682
 20
136.6847821723
 30
0.0
 10
883.2331201118
 20
136.985991996
 30
0.0
 10
883.1400195027
 20
137.2871471579
 30
0.0
 10
883.046750601
 20
137.5882501328
 30
0.0
  0
LINE
  5
4BC
100
AcDbEntity
  8
BEZUGSACHSEN
100
AcDbLine
 62
7
  6
CONTINUOUS
 10
883.046750601
 20
137.5882501328
 11
882.8933480876
 21
137.9646956427
  0
LINE
  5
4BD
100
AcDbEntity
  8
BEZUGSACHSEN
100
AcDbLine
 62
7
  6
CONTINUOUS
 10
882.8933480876
 20
137.9646956427
 11
882.8420476084
 21
138.0905617028
  0
LINE
  5
4BE
100
AcDbEntity
  8
BEZUGSACHSEN
100
AcDbLine
 62
7
  6
CONTINUOUS
 10
882.5747717727
 20
138.5733357613
 11
882.8420476084
 21
138.0905617028
  0
LINE
  5
4BF
100
AcDbEntity
  8
BEZUGSACHSEN
100
AcDbLine
 62
7
  6
CONTINUOUS
 10
882.3783972158
 20
138.7951847719
 11
882.5747717727
 21
138.5733357613
  0
LINE
  5
4C0
100
AcDbEntity
  8
BEZUGSACHSEN
100
AcDbLine
 62
7
  6
CONTINUOUS
 10
882.1221880875
 20
138.857264252
 11
882.3783972158
 21
138.7951847719
  0
LINE
  5
4C1
100
AcDbEntity
  8
BEZUGSACHSEN
100
AcDbLine
 62
7
  6
CONTINUOUS
 10
885.0415628786
 20
129.8811979201
 11
883.6339113736
 21
132.4157602902
  0
LINE
  5
4C2
100
AcDbEntity
  8
BEZUGSACHSEN
100
AcDbLine
 62
7
  6
CONTINUOUS
 10
883.039701844
 20
157.6826223572
 11
883.2518237437
 21
157.0034122233
  0
LINE
  5
4C3
100
AcDbEntity
  8
BEZUGSACHSEN
100
AcDbLine
 62
7
  6
CONTINUOUS
 10
883.2518237437
 20
157.0034122233
 11
883.2923331438
 21
156.873697557
  0
LINE
  5
4C4
100
AcDbEntity
  8
BEZUGSACHSEN
100
AcDbLine
 62
7
  6
CONTINUOUS
 10
883.2923331438
 20
156.873697557
 11
883.478935235
 21
156.2761626467
  0
LINE
  5
4C5
100
AcDbEntity
  8
BEZUGSACHSEN
100
AcDbLine
 62
7
  6
CONTINUOUS
 10
883.2317193177
 20
133.1399208707
 11
882.2262292628
 21
134.9503226602
  0
LINE
  5
4C6
100
AcDbEntity
  8
BEZUGSACHSEN
100
AcDbLine
 62
7
  6
CONTINUOUS
 10
882.2715847024
 20
137.9147201911
 11
882.3996650857
 21
137.9537962915
  0
LINE
  5
4C7
100
AcDbEntity
  8
BEZUGSACHSEN
100
AcDbLine
 62
7
  6
CONTINUOUS
 10
881.7770352673
 20
146.823276423
 11
882.0564257565
 21
146.2029562882
  0
SPLINE
  5
4C8
100
AcDbEntity
  8
BEZUGSACHSEN
100
AcDbSpline
 62
7
  6
CONTINUOUS
 70
0
 71
3
 72
8
 73
4
 74
0
 42
0.0000001
 43
0.0000001
 44
0.0000000001
 40
0.0
 40
0.0
 40
0.0
 40
0.0
 40
1.0
 40
1.0
 40
1.0
 40
1.0
 10
882.0564257565
 20
146.2029562882
 30
0.0
 10
882.6540578665
 20
144.8759975829
 30
0.0
 10
883.2515482495
 20
143.5489750301
 30
0.0
 10
883.8488427237
 20
142.2218643129
 30
0.0
  0
LINE
  5
4C9
100
AcDbEntity
  8
BEZUGSACHSEN
100
AcDbLine
 62
7
  6
CONTINUOUS
 10
884.17112313
 20
138.0664383895
 11
884.3732383565
 21
137.8667751061
  0
LINE
  5
4CA
100
AcDbEntity
  8
BEZUGSACHSEN
100
AcDbLine
 62
7
  6
CONTINUOUS
 10
883.9022316067
 20
138.5373523055
 11
884.17112313
 21
138.0664383895
  0
LINE
  5
4CB
100
AcDbEntity
  8
BEZUGSACHSEN
100
AcDbLine
 62
7
  6
CONTINUOUS
 10
883.9022316067
 20
138.5373523055
 11
882.6700276852
 21
141.265885806
  0
LINE
  5
4CC
100
AcDbEntity
  8
BEZUGSACHSEN
100
AcDbLine
 62
7
  6
CONTINUOUS
 10
882.6700276852
 20
141.265885806
 11
882.0994152028
 21
142.5294074176
  0
LINE
  5
4CD
100
AcDbEntity
  8
BEZUGSACHSEN
100
AcDbLine
 62
7
  6
CONTINUOUS
 10
882.0994152028
 20
142.5294074176
 11
881.8242252375
 21
143.1387644156
  0
LINE
  5
4CE
100
AcDbEntity
  8
BEZUGSACHSEN
100
AcDbLine
 62
7
  6
CONTINUOUS
 10
883.0184594249
 20
154.9867973255
 11
882.0133404873
 21
158.0842528697
  0
LINE
  5
4CF
100
AcDbEntity
  8
BEZUGSACHSEN
100
AcDbLine
 62
7
  6
CONTINUOUS
 10
884.8275088492
 20
149.4113778087
 11
883.4204902284
 21
153.7478153392
  0
LINE
  5
4D0
100
AcDbEntity
  8
BEZUGSACHSEN
100
AcDbLine
 62
7
  6
CONTINUOUS
 10
884.4628903515
 20
140.5175193509
 11
884.2565030599
 21
141.1461073565
  0
LINE
  5
4D1
100
AcDbEntity
  8
BEZUGSACHSEN
100
AcDbLine
 62
7
  6
CONTINUOUS
 10
884.2565030599
 20
141.1461073565
 11
884.1872411239
 21
141.3568838688
  0
LINE
  5
4D2
100
AcDbEntity
  8
BEZUGSACHSEN
100
AcDbLine
 62
7
  6
CONTINUOUS
 10
884.1872411239
 20
141.3568838688
 11
884.101953762
 21
141.5748963082
  0
LINE
  5
4D3
100
AcDbEntity
  8
BEZUGSACHSEN
100
AcDbLine
 62
7
  6
CONTINUOUS
 10
884.101953762
 20
141.5748963082
 11
883.8488427237
 21
142.2218643129
  0
SPLINE
  5
4D4
100
AcDbEntity
  8
BEZUGSACHSEN
100
AcDbSpline
 62
7
  6
CONTINUOUS
 70
0
 71
3
 72
8
 73
4
 74
0
 42
0.0000001
 43
0.0000001
 44
0.0000000001
 40
0.0
 40
0.0
 40
0.0
 40
0.0
 40
1.0
 40
1.0
 40
1.0
 40
1.0
 10
881.9320869778
 20
159.6239763553
 30
0.0
 10
882.0027018648
 20
159.4398367143
 30
0.0
 10
882.0731581843
 20
159.2556361805
 30
0.0
 10
882.1434496292
 20
159.0713728298
 30
0.0
  0
LINE
  5
4D5
100
AcDbEntity
  8
BEZUGSACHSEN
100
AcDbLine
 62
7
  6
CONTINUOUS
 10
882.1434496292
 20
159.0713728298
 11
882.1707670386
 21
158.9997374639
  0
LINE
  5
4D6
100
AcDbEntity
  8
BEZUGSACHSEN
100
AcDbLine
 62
7
  6
CONTINUOUS
 10
882.1707670386
 20
158.9997374639
 11
882.1911992328
 21
158.9461246408
  0
LINE
  5
4D7
100
AcDbEntity
  8
BEZUGSACHSEN
100
AcDbLine
 62
7
  6
CONTINUOUS
 10
884.4016957533
 20
145.7447859733
 11
884.1258579286
 21
146.6384401039
  0
LINE
  5
4D8
100
AcDbEntity
  8
BEZUGSACHSEN
100
AcDbLine
 62
7
  6
CONTINUOUS
 10
882.1911992328
 20
158.9461246408
 11
882.2407452625
 21
158.8031698718
  0
LINE
  5
4D9
100
AcDbEntity
  8
BEZUGSACHSEN
100
AcDbLine
 62
7
  6
CONTINUOUS
 10
882.2407452625
 20
158.8031698718
 11
882.3887013834
 21
158.3760127832
  0
LINE
  5
4DA
100
AcDbEntity
  8
BEZUGSACHSEN
100
AcDbLine
 62
7
  6
CONTINUOUS
 10
882.3887013834
 20
158.3760127832
 11
882.6563123335
 21
157.5500242139
  0
LINE
  5
4DB
100
AcDbEntity
  8
BEZUGSACHSEN
100
AcDbLine
 62
7
  6
CONTINUOUS
 10
884.1258579286
 20
146.6384401039
 11
883.9569198228
 21
147.1199819214
  0
LINE
  5
4DC
100
AcDbEntity
  8
BEZUGSACHSEN
100
AcDbLine
 62
7
  6
CONTINUOUS
 10
883.9569198228
 20
147.1199819214
 11
883.7874060618
 21
147.6031388196
  0
LINE
  5
4DD
100
AcDbEntity
  8
BEZUGSACHSEN
100
AcDbLine
 62
7
  6
CONTINUOUS
 10
882.8603539149
 20
156.8811540852
 11
882.6563123335
 21
157.5500242139
  0
SPLINE
  5
4DE
100
AcDbEntity
  8
BEZUGSACHSEN
100
AcDbSpline
 62
7
  6
CONTINUOUS
 70
0
 71
3
 72
8
 73
4
 74
0
 42
0.0000001
 43
0.0000001
 44
0.0000000001
 40
0.0
 40
0.0
 40
0.0
 40
0.0
 40
1.0
 40
1.0
 40
1.0
 40
1.0
 10
883.1371880722
 20
155.9070298179
 30
0.0
 10
883.0450974735
 20
156.2317911206
 30
0.0
 10
882.9528162441
 20
156.5564984218
 30
0.0
 10
882.8603539149
 20
156.8811540852
 30
0.0
  0
LINE
  5
4DF
100
AcDbEntity
  8
BEZUGSACHSEN
100
AcDbLine
 62
7
  6
CONTINUOUS
 10
882.7852925927
 20
150.1925005223
 11
882.9933966097
 21
149.6548696446
  0
LINE
  5
4E0
100
AcDbEntity
  8
BEZUGSACHSEN
100
AcDbLine
 62
7
  6
CONTINUOUS
 10
882.9933966097
 20
149.6548696446
 11
883.0378105232
 21
149.5401217647
  0
LINE
  5
4E1
100
AcDbEntity
  8
BEZUGSACHSEN
100
AcDbLine
 62
7
  6
CONTINUOUS
 10
883.0378105232
 20
149.5401217647
 11
883.7874060618
 21
147.6031388196
  0
LINE
  5
4E2
100
AcDbEntity
  8
BEZUGSACHSEN
100
AcDbLine
 62
7
  6
CONTINUOUS
 10
883.2810933903
 20
155.2965204105
 11
883.5196946789
 21
154.6206026588
  0
LINE
  5
4E3
100
AcDbEntity
  8
BEZUGSACHSEN
100
AcDbLine
 62
7
  6
CONTINUOUS
 10
883.5196946789
 20
154.6206026588
 11
883.6710702601
 21
154.1911196924
  0
LINE
  5
4E4
100
AcDbEntity
  8
BEZUGSACHSEN
100
AcDbLine
 62
7
  6
CONTINUOUS
 10
883.6710702601
 20
154.1911196924
 11
883.7823499559
 21
153.8750575367
  0
LINE
  5
4E5
100
AcDbEntity
  8
BEZUGSACHSEN
100
AcDbLine
 62
7
  6
CONTINUOUS
 10
882.4552404516
 20
150.9540432641
 11
882.7545484134
 21
150.2634734528
  0
LINE
  5
4E6
100
AcDbEntity
  8
BEZUGSACHSEN
100
AcDbLine
 62
7
  6
CONTINUOUS
 10
882.7545484134
 20
150.2634734528
 11
882.7852925927
 21
150.1925005223
  0
LINE
  5
4E7
100
AcDbEntity
  8
BEZUGSACHSEN
100
AcDbLine
 62
7
  6
CONTINUOUS
 10
882.1954031696
 20
151.4413820336
 11
882.4552404516
 21
150.9540432641
  0
LINE
  5
4E8
100
AcDbEntity
  8
BEZUGSACHSEN
100
AcDbLine
 62
7
  6
CONTINUOUS
 10
884.5104738348
 20
142.423225158
 11
883.9304617089
 21
143.9172813134
  0
LINE
  5
4E9
100
AcDbEntity
  8
BEZUGSACHSEN
100
AcDbLine
 62
7
  6
CONTINUOUS
 10
883.9304617089
 20
143.9172813134
 11
883.8102525049
 21
144.2269236752
  0
LINE
  5
4EA
100
AcDbEntity
  8
BEZUGSACHSEN
100
AcDbLine
 62
7
  6
CONTINUOUS
 10
883.8102525049
 20
144.2269236752
 11
882.1648622229
 21
148.4650694131
  0
LINE
  5
4EB
100
AcDbEntity
  8
BEZUGSACHSEN
100
AcDbLine
 62
7
  6
CONTINUOUS
 10
863.6534602631
 20
41.5510952584
 11
861.5293914566
 21
39.0510952584
  0
LINE
  5
4EC
100
AcDbEntity
  8
RUNDUNGEN
100
AcDbLine
 62
7
  6
CONTINUOUS
 10
878.6539194919
 20
41.5510952584
 11
880.7779882984
 21
39.0510952584
  0
SPLINE
  5
4ED
100
AcDbEntity
  8
BEZUGSACHSEN
100
AcDbSpline
 62
7
  6
CONTINUOUS
 70
0
 71
3
 72
11
 73
7
 74
0
 42
0.0000001
 43
0.0000001
 44
0.0000000001
 40
0.0
 40
0.0
 40
0.0
 40
0.0
 40
0.2530106614
 40
0.5000000005
 40
0.7469893397
 40
1.0
 40
1.0
 40
1.0
 40
1.0
 10
864.2340269316
 20
171.0845711619
 30
0.0
 10
863.9017263935
 20
170.0694754741
 30
0.0
 10
863.3756144219
 20
168.0160074863
 30
0.0
 10
863.0976185578
 20
164.8594172625
 30
0.0
 10
863.3756144125
 20
161.702827041
 30
0.0
 10
863.9017263949
 20
159.6493590602
 30
0.0
 10
864.2340269316
 20
158.6342633769
 30
0.0
  0
SPLINE
  5
4EE
100
AcDbEntity
  8
BEZUGSACHSEN
100
AcDbSpline
 62
7
  6
CONTINUOUS
 70
0
 71
3
 72
9
 73
5
 74
0
 42
0.0000001
 43
0.0000001
 44
0.0000000001
 40
0.0
 40
0.0
 40
0.0
 40
0.0
 40
0.5000000005
 40
1.0
 40
1.0
 40
1.0
 40
1.0
 10
864.2340269316
 20
158.6342633769
 30
0.0
 10
863.5586065873
 20
153.2326268592
 30
0.0
 10
862.8204671903
 20
142.3365988952
 30
0.0
 10
863.5586065888
 20
131.4405709314
 30
0.0
 10
864.2340269316
 20
126.0389344255
 30
0.0
  0
SPLINE
  5
4EF
100
AcDbEntity
  8
BEZUGSACHSEN
100
AcDbSpline
 62
7
  6
CONTINUOUS
 70
0
 71
3
 72
9
 73
5
 74
0
 42
0.0000001
 43
0.0000001
 44
0.0000000001
 40
0.0
 40
0.0
 40
0.0
 40
0.0
 40
0.5000053871
 40
1.0
 40
1.0
 40
1.0
 40
1.0
 10
864.2340269316
 20
126.0389344255
 30
0.0
 10
863.7862598711
 20
121.6125847842
 30
0.0
 10
863.1569222568
 20
112.7300097123
 30
0.0
 10
863.1491913901
 20
103.8236924589
 30
0.0
 10
863.3013342947
 20
99.3774506726
 30
0.0
  0
LINE
  5
4F0
100
AcDbEntity
  8
BEZUGSACHSEN
100
AcDbLine
 62
7
  6
CONTINUOUS
 10
884.0547050343
 20
153.6623883643
 11
884.3282482425
 21
152.8481034943
  0
LINE
  5
4F1
100
AcDbEntity
  8
BEZUGSACHSEN
100
AcDbLine
 62
7
  6
CONTINUOUS
 10
883.7169882873
 20
154.7121130527
 11
884.0547050343
 21
153.6623883643
  0
LINE
  5
4F2
100
AcDbEntity
  8
BEZUGSACHSEN
100
AcDbLine
 62
7
  6
CONTINUOUS
 10
883.7169882873
 20
154.7121130527
 11
883.5118751891
 21
155.3686237834
  0
LINE
  5
4F3
100
AcDbEntity
  8
BEZUGSACHSEN
100
AcDbLine
 62
7
  6
CONTINUOUS
 10
883.5118751891
 20
155.3686237834
 11
883.4677179371
 21
155.509955137
  0
LINE
  5
4F4
100
AcDbEntity
  8
BEZUGSACHSEN
100
AcDbLine
 62
7
  6
CONTINUOUS
 10
883.4677179371
 20
155.509955137
 11
883.217312356
 21
156.3113873362
  0
LINE
  5
4F5
100
AcDbEntity
  8
BEZUGSACHSEN
100
AcDbLine
 62
7
  6
CONTINUOUS
 10
883.217312356
 20
156.3113873362
 11
883.023366471
 21
156.93208957
  0
LINE
  5
4F6
100
AcDbEntity
  8
BEZUGSACHSEN
100
AcDbLine
 62
7
  6
CONTINUOUS
 10
883.023366471
 20
156.93208957
 11
882.9657719445
 21
157.1164097736
  0
LINE
  5
4F7
100
AcDbEntity
  8
BEZUGSACHSEN
100
AcDbLine
 62
7
  6
CONTINUOUS
 10
882.9657719445
 20
157.1164097736
 11
882.8148023179
 21
157.5995491097
  0
LINE
  5
4F8
100
AcDbEntity
  8
BEZUGSACHSEN
100
AcDbLine
 62
7
  6
CONTINUOUS
 10
882.8148023179
 20
157.5995491097
 11
882.713097073
 21
157.925022563
  0
LINE
  5
4F9
100
AcDbEntity
  8
BEZUGSACHSEN
100
AcDbLine
 62
7
  6
CONTINUOUS
 10
882.713097073
 20
157.925022563
 11
882.6304979995
 21
158.1969763618
  0
LINE
  5
4FA
100
AcDbEntity
  8
BEZUGSACHSEN
100
AcDbLine
 62
7
  6
CONTINUOUS
 10
882.6304979995
 20
158.1969763618
 11
882.4645764601
 21
158.7430840215
  0
LINE
  5
4FB
100
AcDbEntity
  8
BEZUGSACHSEN
100
AcDbLine
 62
7
  6
CONTINUOUS
 10
882.4645764601
 20
158.7430840215
 11
882.3812542107
 21
159.0172379482
  0
LINE
  5
4FC
100
AcDbEntity
  8
BEZUGSACHSEN
100
AcDbLine
 62
7
  6
CONTINUOUS
 10
882.3812542107
 20
159.0172379482
 11
882.3159844467
 21
159.2409329603
  0
LINE
  5
4FD
100
AcDbEntity
  8
BEZUGSACHSEN
100
AcDbLine
 62
7
  6
CONTINUOUS
 10
882.3159844467
 20
159.2409329603
 11
882.1826820033
 21
159.6972622228
  0
LINE
  5
4FE
100
AcDbEntity
  8
BEZUGSACHSEN
100
AcDbLine
 62
7
  6
CONTINUOUS
 10
882.1826820033
 20
159.6972622228
 11
882.1185643835
 21
159.9165048069
  0
LINE
  5
4FF
100
AcDbEntity
  8
0
100
AcDbLine
 62
7
  6
CONTINUOUS
 10
881.3833573509
 20
160.1449187883
 11
881.41190512
 21
160.0459565802
  0
LINE
  5
500
100
AcDbEntity
  8
BEZUGSACHSEN
100
AcDbLine
 62
7
  6
CONTINUOUS
 10
882.1185643835
 20
159.9165048069
 11
882.0543646881
 21
160.1502676
  0
LINE
  5
501
100
AcDbEntity
  8
BEZUGSACHSEN
100
AcDbLine
 62
7
  6
CONTINUOUS
 10
882.2559739287
 20
160.1042325552
 11
882.3058039394
 21
159.948448345
  0
LINE
  5
502
100
AcDbEntity
  8
BEZUGSACHSEN
100
AcDbLine
 62
7
  6
CONTINUOUS
 10
882.3058039394
 20
159.948448345
 11
882.3555245692
 21
159.7929641301
  0
LINE
  5
503
100
AcDbEntity
  8
BEZUGSACHSEN
100
AcDbLine
 62
7
  6
CONTINUOUS
 10
882.3555245692
 20
159.7929641301
 11
882.4051357837
 21
159.6377799009
  0
LINE
  5
504
100
AcDbEntity
  8
BEZUGSACHSEN
100
AcDbLine
 62
7
  6
CONTINUOUS
 10
882.4051357837
 20
159.6377799009
 11
882.4546375476
 21
159.4828956478
  0
LINE
  5
505
100
AcDbEntity
  8
BEZUGSACHSEN
100
AcDbLine
 62
7
  6
CONTINUOUS
 10
882.2241505106
 20
160.1951587133
 11
882.2415653555
 21
160.1454343389
  0
LINE
  5
506
100
AcDbEntity
  8
BEZUGSACHSEN
100
AcDbLine
 62
7
  6
CONTINUOUS
 10
882.2415653555
 20
160.1454343389
 11
882.2559739287
 21
160.1042325552
  0
LINE
  5
507
100
AcDbEntity
  8
BEZUGSACHSEN
100
AcDbLine
 62
7
  6
CONTINUOUS
 10
884.4143936226
 20
153.0535068659
 11
884.4121084483
 21
153.1013074197
  0
LINE
  5
508
100
AcDbEntity
  8
0
100
AcDbLine
 62
7
  6
CONTINUOUS
 10
884.284970295
 20
133.3869831213
 11
883.6318420654
 21
134.0159433903
  0
LINE
  5
509
100
AcDbEntity
  8
BEZUGSACHSEN
100
AcDbLine
 62
7
  6
CONTINUOUS
 10
884.4121084483
 20
153.1013074197
 11
884.3758065347
 21
153.2508870375
  0
LINE
  5
50A
100
AcDbEntity
  8
BEZUGSACHSEN
100
AcDbLine
 62
7
  6
CONTINUOUS
 10
884.3758065347
 20
153.2508870375
 11
884.357388717
 21
153.3256829698
  0
LINE
  5
50B
100
AcDbEntity
  8
BEZUGSACHSEN
100
AcDbLine
 62
7
  6
CONTINUOUS
 10
884.357388717
 20
153.3256829698
 11
884.3387937931
 21
153.4004830195
  0
SPLINE
  5
50C
100
AcDbEntity
  8
0
100
AcDbSpline
 62
7
  6
CONTINUOUS
 70
0
 71
3
 72
9
 73
5
 74
0
 42
0.0000001
 43
0.0000001
 44
0.0000000001
 40
0.0
 40
0.0
 40
0.0
 40
0.0
 40
0.5000053871
 40
1.0
 40
1.0
 40
1.0
 40
1.0
 10
878.0733528234
 20
126.0389344255
 30
0.0
 10
878.5211198839
 20
121.6125847842
 30
0.0
 10
879.1504574982
 20
112.7300097123
 30
0.0
 10
879.1581883649
 20
103.8236924589
 30
0.0
 10
879.0060454603
 20
99.3774506726
 30
0.0
  0
SPLINE
  5
50D
100
AcDbEntity
  8
0
100
AcDbSpline
 62
7
  6
CONTINUOUS
 70
0
 71
3
 72
9
 73
5
 74
0
 42
0.0000001
 43
0.0000001
 44
0.0000000001
 40
0.0
 40
0.0
 40
0.0
 40
0.0
 40
0.5000000005
 40
1.0
 40
1.0
 40
1.0
 40
1.0
 10
878.0733528234
 20
158.6342633769
 30
0.0
 10
878.7487731677
 20
153.2326268592
 30
0.0
 10
879.4869125647
 20
142.3365988952
 30
0.0
 10
878.7487731662
 20
131.4405709314
 30
0.0
 10
878.0733528234
 20
126.0389344255
 30
0.0
  0
SPLINE
  5
50E
100
AcDbEntity
  8
0
100
AcDbSpline
 62
7
  6
CONTINUOUS
 70
0
 71
3
 72
11
 73
7
 74
0
 42
0.0000001
 43
0.0000001
 44
0.0000000001
 40
0.0
 40
0.0
 40
0.0
 40
0.0
 40
0.2530106614
 40
0.5000000005
 40
0.7469893397
 40
1.0
 40
1.0
 40
1.0
 40
1.0
 10
878.0733528234
 20
171.0845711619
 30
0.0
 10
878.4056533615
 20
170.0694754741
 30
0.0
 10
878.9317653331
 20
168.0160074863
 30
0.0
 10
879.2097611972
 20
164.8594172625
 30
0.0
 10
878.9317653425
 20
161.702827041
 30
0.0
 10
878.4056533601
 20
159.6493590602
 30
0.0
 10
878.0733528234
 20
158.6342633769
 30
0.0
  0
LINE
  5
50F
100
AcDbEntity
  8
BEZUGSACHSEN
100
AcDbLine
 62
7
  6
CONTINUOUS
 10
884.3387937931
 20
153.4004830195
 11
884.3039321181
 21
153.5230493026
  0
LINE
  5
510
100
AcDbEntity
  8
BEZUGSACHSEN
100
AcDbLine
 62
7
  6
CONTINUOUS
 10
884.3039321181
 20
153.5230493026
 11
884.2688885072
 21
153.6459254307
  0
LINE
  5
511
100
AcDbEntity
  8
BEZUGSACHSEN
100
AcDbLine
 62
7
  6
CONTINUOUS
 10
884.2688885072
 20
153.6459254307
 11
884.2336628956
 21
153.7691113938
  0
LINE
  5
512
100
AcDbEntity
  8
BEZUGSACHSEN
100
AcDbLine
 62
7
  6
CONTINUOUS
 10
884.2336628956
 20
153.7691113938
 11
884.1982552204
 21
153.892607182
  0
LINE
  5
513
100
AcDbEntity
  8
BEZUGSACHSEN
100
AcDbLine
 62
7
  6
CONTINUOUS
 10
884.1982552204
 20
153.892607182
 11
884.0967402056
 21
154.2239486478
  0
LINE
  5
514
100
AcDbEntity
  8
BEZUGSACHSEN
100
AcDbLine
 62
7
  6
CONTINUOUS
 10
884.0967402056
 20
154.2239486478
 11
884.0458401528
 21
154.390048543
  0
LINE
  5
515
100
AcDbEntity
  8
BEZUGSACHSEN
100
AcDbLine
 62
7
  6
CONTINUOUS
 10
884.0458401528
 20
154.390048543
 11
883.9948451109
 21
154.5564345587
  0
LINE
  5
516
100
AcDbEntity
  8
BEZUGSACHSEN
100
AcDbLine
 62
7
  6
CONTINUOUS
 10
883.4591576299
 20
156.2699864376
 11
883.5150097727
 21
156.0913334226
  0
LINE
  5
517
100
AcDbEntity
  8
BEZUGSACHSEN
100
AcDbLine
 62
7
  6
CONTINUOUS
 10
883.5150097727
 20
156.0913334226
 11
883.7205386591
 21
155.4339003561
  0
LINE
  5
518
100
AcDbEntity
  8
BEZUGSACHSEN
100
AcDbLine
 62
7
  6
CONTINUOUS
 10
883.7205386591
 20
155.4339003561
 11
883.8613593355
 21
154.9834403963
  0
LINE
  5
519
100
AcDbEntity
  8
BEZUGSACHSEN
100
AcDbLine
 62
7
  6
CONTINUOUS
 10
883.8613593355
 20
154.9834403963
 11
883.9948451109
 21
154.5564345587
  0
LINE
  5
51A
100
AcDbEntity
  8
BEZUGSACHSEN
100
AcDbLine
 62
7
  6
CONTINUOUS
 10
883.07267688
 20
157.3639417684
 11
883.1733684763
 21
157.0421771448
  0
LINE
  5
51B
100
AcDbEntity
  8
BEZUGSACHSEN
100
AcDbLine
 62
7
  6
CONTINUOUS
 10
883.1733684763
 20
157.0421771448
 11
883.2739610415
 21
156.7207283236
  0
LINE
  5
51C
100
AcDbEntity
  8
BEZUGSACHSEN
100
AcDbLine
 62
7
  6
CONTINUOUS
 10
883.2739610415
 20
156.7207283236
 11
883.4748490673
 21
156.0787780843
  0
LINE
  5
51D
100
AcDbEntity
  8
BEZUGSACHSEN
100
AcDbLine
 62
7
  6
CONTINUOUS
 10
885.0327578146
 20
129.0398094397
 11
884.6778131552
 21
129.6792906043
  0
LINE
  5
51E
100
AcDbEntity
  8
BEZUGSACHSEN
100
AcDbLine
 62
7
  6
CONTINUOUS
 10
884.6778131552
 20
129.6792906043
 11
883.270728845
 21
132.2141449858
  0
LINE
  5
51F
100
AcDbEntity
  8
BEZUGSACHSEN
100
AcDbLine
 62
7
  6
CONTINUOUS
 10
883.270728845
 20
132.2141449858
 11
882.8686787978
 21
132.9383849775
  0
LINE
  5
520
100
AcDbEntity
  8
BEZUGSACHSEN
100
AcDbLine
 62
7
  6
CONTINUOUS
 10
882.8686787978
 20
132.9383849775
 11
881.8838176246
 21
134.7124013303
  0
SPLINE
  5
521
100
AcDbEntity
  8
0
100
AcDbSpline
 62
7
  6
CONTINUOUS
 70
0
 71
3
 72
8
 73
4
 74
0
 42
0.0000001
 43
0.0000001
 44
0.0000000001
 40
0.0
 40
0.0
 40
0.0
 40
0.0
 40
1.0
 40
1.0
 40
1.0
 40
1.0
 10
880.9477056093
 20
134.7124013303
 30
0.0
 10
882.0530985163
 20
132.821708976
 30
0.0
 10
883.1582621936
 20
130.9308825438
 30
0.0
 10
884.2630035988
 20
129.0398094397
 30
0.0
  0
LINE
  5
522
100
AcDbEntity
  8
0
100
AcDbLine
 62
7
  6
CONTINUOUS
 10
882.3911137484
 20
135.1381592878
 11
882.3912535954
 21
134.9500850014
  0
LINE
  5
523
100
AcDbEntity
  8
0
100
AcDbLine
 62
7
  6
CONTINUOUS
 10
882.3912535954
 20
134.9500850014
 11
882.3908194863
 21
134.6547042567
  0
LINE
  5
524
100
AcDbEntity
  8
BEZUGSACHSEN
100
AcDbLine
 62
7
  6
CONTINUOUS
 10
882.948216951
 20
156.2796273937
 11
882.8100119049
 21
156.79137853
  0
LINE
  5
525
100
AcDbEntity
  8
BEZUGSACHSEN
100
AcDbLine
 62
7
  6
CONTINUOUS
 10
882.3996650857
 20
137.9537962915
 11
882.4492337296
 21
137.8981669067
  0
LINE
  5
526
100
AcDbEntity
  8
BEZUGSACHSEN
100
AcDbLine
 62
7
  6
CONTINUOUS
 10
882.4492337296
 20
137.8981669067
 11
882.4850925949
 21
137.8579130149
  0
LINE
  5
527
100
AcDbEntity
  8
BEZUGSACHSEN
100
AcDbLine
 62
7
  6
CONTINUOUS
 10
882.4850925949
 20
137.8579130149
 11
882.597253346
 21
137.7319472809
  0
LINE
  5
528
100
AcDbEntity
  8
BEZUGSACHSEN
100
AcDbLine
 62
7
  6
CONTINUOUS
 10
882.8100119049
 20
156.79137853
 11
882.6067518017
 21
157.4602486587
  0
LINE
  5
529
100
AcDbEntity
  8
BEZUGSACHSEN
100
AcDbLine
 62
7
  6
CONTINUOUS
 10
882.597253346
 20
137.7319472809
 11
882.797979987
 21
137.3698666525
  0
LINE
  5
52A
100
AcDbEntity
  8
BEZUGSACHSEN
100
AcDbLine
 62
7
  6
CONTINUOUS
 10
883.0019580025
 20
136.8675550825
 11
882.797979987
 21
137.3698666525
  0
LINE
  5
52B
100
AcDbEntity
  8
BEZUGSACHSEN
100
AcDbLine
 62
7
  6
CONTINUOUS
 10
883.1418665687
 20
136.3457052618
 11
883.0019580025
 21
136.8675550825
  0
LINE
  5
52C
100
AcDbEntity
  8
0
100
AcDbLine
 62
7
  6
CONTINUOUS
 10
882.2231898544
 20
136.6706723843
 11
882.3133153373
 21
136.3457052618
  0
LINE
  5
52D
100
AcDbEntity
  8
BEZUGSACHSEN
100
AcDbLine
 62
7
  6
CONTINUOUS
 10
881.7975691348
 20
146.0863740215
 11
883.5920811019
 21
142.1061235666
  0
LINE
  5
52E
100
AcDbEntity
  8
BEZUGSACHSEN
100
AcDbLine
 62
7
  6
CONTINUOUS
 10
883.5920811019
 20
142.1061235666
 11
883.8720690868
 21
141.4849619115
  0
LINE
  5
52F
100
AcDbEntity
  8
0
100
AcDbLine
 62
7
  6
CONTINUOUS
 10
883.1551347473
 20
141.4849619115
 11
882.2678509723
 21
143.3498414888
  0
LINE
  5
530
100
AcDbEntity
  8
0
100
AcDbLine
 62
7
  6
CONTINUOUS
 10
882.2678509723
 20
143.3498414888
 11
880.9657243112
 21
146.0863740215
  0
LINE
  5
531
100
AcDbEntity
  8
BEZUGSACHSEN
100
AcDbLine
 62
7
  6
CONTINUOUS
 10
884.1429931325
 20
140.7684140959
 11
883.9399925317
 21
141.3053360243
  0
LINE
  5
532
100
AcDbEntity
  8
BEZUGSACHSEN
100
AcDbLine
 62
7
  6
CONTINUOUS
 10
883.9399925317
 20
141.3053360243
 11
883.8720690868
 21
141.4849619115
  0
LINE
  5
533
100
AcDbEntity
  8
0
100
AcDbLine
 62
7
  6
CONTINUOUS
 10
883.1551347473
 20
141.4849619115
 11
883.4398136103
 21
140.7684140959
  0
LINE
  5
534
100
AcDbEntity
  8
BEZUGSACHSEN
100
AcDbLine
 62
7
  6
CONTINUOUS
 10
884.3499154334
 20
140.0774823106
 11
884.1429931325
 21
140.7684140959
  0
LINE
  5
535
100
AcDbEntity
  8
0
100
AcDbLine
 62
7
  6
CONTINUOUS
 10
883.4398136103
 20
140.7684140959
 11
883.6555816335
 21
140.0774823106
  0
LINE
  5
536
100
AcDbEntity
  8
0
100
AcDbLine
 62
7
  6
CONTINUOUS
 10
883.8751013742
 20
138.7724646182
 11
883.8754639985
 21
138.5966790921
  0
LINE
  5
537
100
AcDbEntity
  8
BEZUGSACHSEN
100
AcDbLine
 62
7
  6
CONTINUOUS
 10
884.5562886429
 20
138.195485983
 11
884.5721899333
 21
138.2811961163
  0
LINE
  5
538
100
AcDbEntity
  8
BEZUGSACHSEN
100
AcDbLine
 62
7
  6
CONTINUOUS
 10
882.4058403395
 20
158.0797402304
 11
882.6067518017
 21
157.4602486587
  0
LINE
  5
539
100
AcDbEntity
  8
BEZUGSACHSEN
100
AcDbLine
 62
7
  6
CONTINUOUS
 10
882.2071968276
 20
158.649852088
 11
882.2570215823
 21
158.506911814
  0
LINE
  5
53A
100
AcDbEntity
  8
BEZUGSACHSEN
100
AcDbLine
 62
7
  6
CONTINUOUS
 10
882.2570215823
 20
158.506911814
 11
882.3619783505
 21
158.2056787145
  0
LINE
  5
53B
100
AcDbEntity
  8
BEZUGSACHSEN
100
AcDbLine
 62
7
  6
CONTINUOUS
 10
882.3619783505
 20
158.2056787145
 11
882.4058403395
 21
158.0797402304
  0
LINE
  5
53C
100
AcDbEntity
  8
BEZUGSACHSEN
100
AcDbLine
 62
7
  6
CONTINUOUS
 10
883.8940415159
 20
137.8004495526
 11
883.6191103603
 21
138.4095590839
  0
LINE
  5
53D
100
AcDbEntity
  8
BEZUGSACHSEN
100
AcDbLine
 62
7
  6
CONTINUOUS
 10
883.6191103603
 20
138.4095590839
 11
881.8169883549
 21
142.4018616627
  0
LINE
  5
53E
100
AcDbEntity
  8
0
100
AcDbLine
 62
7
  6
CONTINUOUS
 10
880.9507766764
 20
142.4018616627
 11
882.5412014955
 21
139.056441551
  0
LINE
  5
53F
100
AcDbEntity
  8
0
100
AcDbLine
 62
7
  6
CONTINUOUS
 10
882.5412014955
 20
139.056441551
 11
882.5988062238
 21
138.9352524045
  0
LINE
  5
540
100
AcDbEntity
  8
0
100
AcDbLine
 62
7
  6
CONTINUOUS
 10
882.5988062238
 20
138.9352524045
 11
882.6124960806
 21
138.9064513927
  0
LINE
  5
541
100
AcDbEntity
  8
0
100
AcDbLine
 62
7
  6
CONTINUOUS
 10
882.6124960806
 20
138.9064513927
 11
882.7347017457
 21
138.649348815
  0
LINE
  5
542
100
AcDbEntity
  8
0
100
AcDbLine
 62
7
  6
CONTINUOUS
 10
882.7347017457
 20
138.649348815
 11
882.9711325808
 21
138.1519141177
  0
LINE
  5
543
100
AcDbEntity
  8
0
100
AcDbLine
 62
7
  6
CONTINUOUS
 10
882.9711325808
 20
138.1519141177
 11
883.1381762559
 21
137.8004495526
  0
LINE
  5
544
100
AcDbEntity
  8
BEZUGSACHSEN
100
AcDbLine
 62
7
  6
CONTINUOUS
 10
883.8940415159
 20
137.8004495526
 11
884.2308609459
 21
137.1811037108
  0
LINE
  5
545
100
AcDbEntity
  8
0
100
AcDbLine
 62
7
  6
CONTINUOUS
 10
883.4942584119
 20
137.1811037108
 11
883.4055076529
 21
137.3354826834
  0
LINE
  5
546
100
AcDbEntity
  8
0
100
AcDbLine
 62
7
  6
CONTINUOUS
 10
883.4055076529
 20
137.3354826834
 11
883.2071565003
 21
137.6804795467
  0
LINE
  5
547
100
AcDbEntity
  8
0
100
AcDbLine
 62
7
  6
CONTINUOUS
 10
883.2071565003
 20
137.6804795467
 11
883.1381762559
 21
137.8004495526
  0
LINE
  5
548
100
AcDbEntity
  8
BEZUGSACHSEN
100
AcDbLine
 62
7
  6
CONTINUOUS
 10
884.2308609459
 20
137.1811037108
 11
884.5020713157
 21
136.8330073435
  0
LINE
  5
549
100
AcDbEntity
  8
0
100
AcDbLine
 62
7
  6
CONTINUOUS
 10
883.7827414332
 20
136.8330073435
 11
883.5667750223
 21
137.0936661598
  0
LINE
  5
54A
100
AcDbEntity
  8
0
100
AcDbLine
 62
7
  6
CONTINUOUS
 10
883.5667750223
 20
137.0936661598
 11
883.4942584119
 21
137.1811037108
  0
LINE
  5
54B
100
AcDbEntity
  8
BEZUGSACHSEN
100
AcDbLine
 62
7
  6
CONTINUOUS
 10
882.0772739957
 20
158.9640889425
 11
882.1748977758
 21
158.7281287481
  0
LINE
  5
54C
100
AcDbEntity
  8
BEZUGSACHSEN
100
AcDbLine
 62
7
  6
CONTINUOUS
 10
882.1748977758
 20
158.7281287481
 11
882.2071968276
 21
158.649852088
  0
SPLINE
  5
54D
100
AcDbEntity
  8
0
100
AcDbSpline
 62
7
  6
CONTINUOUS
 70
0
 71
3
 72
8
 73
4
 74
0
 42
0.0000001
 43
0.0000001
 44
0.0000000001
 40
0.0
 40
0.0
 40
0.0
 40
0.0
 40
1.0
 40
1.0
 40
1.0
 40
1.0
 10
880.9477056228
 20
158.8204653054
 30
0.0
 10
882.0531576813
 20
155.5854658002
 30
0.0
 10
883.1583342478
 20
152.3503721136
 30
0.0
 10
884.2630036153
 20
149.1151052558
 30
0.0
  0
LINE
  5
54E
100
AcDbEntity
  8
BEZUGSACHSEN
100
AcDbLine
 62
7
  6
CONTINUOUS
 10
884.8129038559
 20
149.1151052558
 11
884.7273921355
 21
149.3789242538
  0
LINE
  5
54F
100
AcDbEntity
  8
BEZUGSACHSEN
100
AcDbLine
 62
7
  6
CONTINUOUS
 10
884.7273921355
 20
149.3789242538
 11
883.3214974055
 21
153.7157219229
  0
LINE
  5
550
100
AcDbEntity
  8
BEZUGSACHSEN
100
AcDbLine
 62
7
  6
CONTINUOUS
 10
883.3214974055
 20
153.7157219229
 11
883.2611398994
 21
153.9018837336
  0
LINE
  5
551
100
AcDbEntity
  8
BEZUGSACHSEN
100
AcDbLine
 62
7
  6
CONTINUOUS
 10
883.2611398994
 20
153.9018837336
 11
883.0756630005
 21
154.4739424391
  0
LINE
  5
552
100
AcDbEntity
  8
BEZUGSACHSEN
100
AcDbLine
 62
7
  6
CONTINUOUS
 10
883.0756630005
 20
154.4739424391
 11
882.9197541231
 21
154.9547928732
  0
LINE
  5
553
100
AcDbEntity
  8
BEZUGSACHSEN
100
AcDbLine
 62
7
  6
CONTINUOUS
 10
882.9197541231
 20
154.9547928732
 11
881.9152954814
 21
158.0524585862
  0
LINE
  5
554
100
AcDbEntity
  8
BEZUGSACHSEN
100
AcDbLine
 62
7
  6
CONTINUOUS
 10
881.9152954814
 20
158.0524585862
 11
881.6662383243
 21
158.8204653054
  0
LINE
  5
555
100
AcDbEntity
  8
BEZUGSACHSEN
100
AcDbLine
 62
7
  6
CONTINUOUS
 10
884.9001686901
 20
140.778008755
 11
884.6117604755
 21
141.5215532838
  0
LINE
  5
556
100
AcDbEntity
  8
BEZUGSACHSEN
100
AcDbLine
 62
7
  6
CONTINUOUS
 10
884.6117604755
 20
141.5215532838
 11
884.2944982464
 21
142.3394467998
  0
LINE
  5
557
100
AcDbEntity
  8
BEZUGSACHSEN
100
AcDbLine
 62
7
  6
CONTINUOUS
 10
884.2944982464
 20
142.3394467998
 11
884.2758571471
 21
142.3875018144
  0
LINE
  5
558
100
AcDbEntity
  8
BEZUGSACHSEN
100
AcDbLine
 62
7
  6
CONTINUOUS
 10
884.2758571471
 20
142.3875018144
 11
884.1284724664
 21
142.7674410677
  0
LINE
  5
559
100
AcDbEntity
  8
BEZUGSACHSEN
100
AcDbLine
 62
7
  6
CONTINUOUS
 10
884.1284724664
 20
142.7674410677
 11
881.9502463612
 21
148.3817944652
  0
LINE
  5
55A
100
AcDbEntity
  8
BEZUGSACHSEN
100
AcDbLine
 62
7
  6
CONTINUOUS
 10
881.9502463612
 20
148.3817944652
 11
881.7525288184
 21
148.8913422996
  0
LINE
  5
55B
100
AcDbEntity
  8
0
100
AcDbLine
 62
7
  6
CONTINUOUS
 10
880.9444690962
 20
148.8913422996
 11
881.7878096662
 21
146.827680639
  0
LINE
  5
55C
100
AcDbEntity
  8
0
100
AcDbLine
 62
7
  6
CONTINUOUS
 10
881.7878096662
 20
146.827680639
 11
881.9126105098
 21
146.5222598799
  0
LINE
  5
55D
100
AcDbEntity
  8
BEZUGSACHSEN
100
AcDbLine
 62
7
  6
CONTINUOUS
 10
883.425130118
 20
154.5872538622
 11
883.6889382834
 21
153.8429247466
  0
LINE
  5
55E
100
AcDbEntity
  8
BEZUGSACHSEN
100
AcDbLine
 62
7
  6
CONTINUOUS
 10
883.6889382834
 20
153.8429247466
 11
883.7824817232
 21
153.5786783348
  0
LINE
  5
55F
100
AcDbEntity
  8
BEZUGSACHSEN
100
AcDbLine
 62
7
  6
CONTINUOUS
 10
884.7057167459
 20
150.9609675333
 11
884.8164029261
 21
150.6458471556
  0
LINE
  5
560
100
AcDbEntity
  8
0
100
AcDbLine
 62
7
  6
CONTINUOUS
 10
883.8739178523
 20
144.2516402515
 11
883.8750501063
 21
144.0612641076
  0
LINE
  5
561
100
AcDbEntity
  8
BEZUGSACHSEN
100
AcDbLine
 62
7
  6
CONTINUOUS
 10
882.3167850108
 20
150.4967648404
 11
882.3482065159
 21
150.486662141
  0
LINE
  5
562
100
AcDbEntity
  8
BEZUGSACHSEN
100
AcDbLine
 62
7
  6
CONTINUOUS
 10
882.3482065159
 20
150.486662141
 11
882.3830255298
 21
150.4305789611
  0
LINE
  5
563
100
AcDbEntity
  8
BEZUGSACHSEN
100
AcDbLine
 62
7
  6
CONTINUOUS
 10
882.3830255298
 20
150.4305789611
 11
882.3972611985
 21
150.4076381375
  0
LINE
  5
564
100
AcDbEntity
  8
BEZUGSACHSEN
100
AcDbLine
 62
7
  6
CONTINUOUS
 10
882.3972611985
 20
150.4076381375
 11
882.5432769813
 21
150.1719469853
  0
LINE
  5
565
100
AcDbEntity
  8
BEZUGSACHSEN
100
AcDbLine
 62
7
  6
CONTINUOUS
 10
882.5432769813
 20
150.1719469853
 11
882.6096651707
 21
150.0241996832
  0
LINE
  5
566
100
AcDbEntity
  8
BEZUGSACHSEN
100
AcDbLine
 62
7
  6
CONTINUOUS
 10
882.6096651707
 20
150.0241996832
 11
882.8077960179
 21
149.5830288245
  0
LINE
  5
567
100
AcDbEntity
  8
BEZUGSACHSEN
100
AcDbLine
 62
7
  6
CONTINUOUS
 10
882.8077960179
 20
149.5830288245
 11
883.5621923865
 21
147.6365673608
  0
LINE
  5
568
100
AcDbEntity
  8
BEZUGSACHSEN
100
AcDbLine
 62
7
  6
CONTINUOUS
 10
883.5621923865
 20
147.6365673608
 11
883.6028617997
 21
147.5316233354
  0
LINE
  5
569
100
AcDbEntity
  8
BEZUGSACHSEN
100
AcDbLine
 62
7
  6
CONTINUOUS
 10
883.6028617997
 20
147.5316233354
 11
883.8113313296
 21
146.9936671218
  0
LINE
  5
56A
100
AcDbEntity
  8
0
100
AcDbLine
 62
7
  6
CONTINUOUS
 10
883.15023382
 20
146.9936671218
 11
882.4934796658
 21
148.599475123
  0
LINE
  5
56B
100
AcDbEntity
  8
0
100
AcDbLine
 62
7
  6
CONTINUOUS
 10
882.4934796658
 20
148.599475123
 11
882.1698412944
 21
149.3907434568
  0
LINE
  5
56C
100
AcDbEntity
  8
BEZUGSACHSEN
100
AcDbLine
 62
7
  6
CONTINUOUS
 10
884.082336121
 20
146.2015925034
 11
883.8792728049
 21
146.7951136143
  0
LINE
  5
56D
100
AcDbEntity
  8
BEZUGSACHSEN
100
AcDbLine
 62
7
  6
CONTINUOUS
 10
883.8792728049
 20
146.7951136143
 11
883.8113313296
 21
146.9936671218
  0
LINE
  5
56E
100
AcDbEntity
  8
0
100
AcDbLine
 62
7
  6
CONTINUOUS
 10
883.15023382
 20
146.9936671218
 11
883.4352090121
 21
146.2015925034
  0
LINE
  5
56F
100
AcDbEntity
  8
BEZUGSACHSEN
100
AcDbLine
 62
7
  6
CONTINUOUS
 10
884.2894756512
 20
145.4805625912
 11
884.082336121
 21
146.2015925034
  0
LINE
  5
570
100
AcDbEntity
  8
0
100
AcDbLine
 62
7
  6
CONTINUOUS
 10
883.4352090121
 20
146.2015925034
 11
883.6516918602
 21
145.4805625912
  0
ELLIPSE
  5
571
100
AcDbEntity
  8
KONSTRUKTIONSELEMENTE
100
AcDbEllipse
 62
7
  6
CONTINUOUS
 10
234.6951711327
 20
7.2732501202
 30
0.0
 11
-1.8159852916
 21
1.2949601975
 31
0.0
 40
0.8040646284
 41
-2.1902533329
 42
-0.7307217434
  0
ELLIPSE
  5
572
100
AcDbEntity
  8
KONSTRUKTIONSELEMENTE
100
AcDbEllipse
 62
7
  6
CONTINUOUS
 10
221.7214218407
 20
6.4427238525
 30
0.0
 11
3.2999138614
 21
0.7218827969
 31
0.0
 40
0.0330294486
 41
-2.4297450715
 42
-1.2638623942
  0
ELLIPSE
  5
573
100
AcDbEntity
  8
0
100
AcDbEllipse
 62
7
  6
CONTINUOUS
 10
288.4841549298
 20
-86.0697452915
 30
0.0
 11
-0.0
 21
138.5640646055
 31
0.0
 40
0.5773502692
 41
0.1549516761
 42
0.3680572752
  0
ELLIPSE
  5
574
100
AcDbEntity
  8
0
100
AcDbEllipse
 62
7
  6
CONTINUOUS
 10
288.4841549298
 20
-86.0697452915
 30
0.0
 11
0.0
 21
138.5640646055
 31
0.0
 40
0.5773502692
 41
-0.3680572752
 42
-0.1549516761
  0
ELLIPSE
  5
575
100
AcDbEntity
  8
BEZUGSACHSEN
100
AcDbEllipse
 62
7
  6
CONTINUOUS
 10
884.0740730574
 20
64.6534270557
 30
0.0
 11
20.5470809849
 21
-4.7252501947
 31
0.0
 40
0.9293161211
 41
-2.9637318929
 42
-2.8342734606
  0
ELLIPSE
  5
576
100
AcDbEntity
  8
RUNDUNGEN
100
AcDbEllipse
 62
7
  6
CONTINUOUS
 10
858.2333066976
 20
64.6534270557
 30
0.0
 11
20.5470809849
 21
4.7252501947
 31
0.0
 40
0.9293161211
 41
-0.307319193
 42
-0.1778607607
  0
ELLIPSE
  5
577
100
AcDbEntity
  8
BEZUGSACHSEN
100
AcDbEllipse
 62
7
  6
CONTINUOUS
 10
859.8925972997
 20
49.0510952584
 30
0.0
 11
-2.0932808554
 21
8.5798153171
 31
0.0
 40
0.5625674239
 41
-2.7543953279
 42
-1.9800006766
  0
ELLIPSE
  5
578
100
AcDbEntity
  8
RUNDUNGEN
100
AcDbEllipse
 62
7
  6
CONTINUOUS
 10
882.4147824553
 20
49.0510952584
 30
0.0
 11
2.0932808554
 21
8.5798153171
 31
0.0
 40
0.5625674239
 41
-4.3031846306
 42
-3.5287899793
  0
ELLIPSE
  5
579
100
AcDbEntity
  8
KONSTRUKTIONSELEMENTE
100
AcDbEllipse
 62
7
  6
CONTINUOUS
 10
690.8025004709
 20
11.8167353895
 30
0.0
 11
-0.0
 21
4.609447414
 31
0.0
 40
0.1583844403
 41
-4.1503956982
 42
-3.2973220173
  0
ELLIPSE
  5
57A
100
AcDbEntity
  8
KONSTRUKTIONSELEMENTE
100
AcDbEllipse
 62
7
  6
CONTINUOUS
 10
696.1765120079
 20
6.4427238525
 30
0.0
 11
4.609447414
 21
0.0
 31
0.0
 40
0.1583844403
 41
-2.9858632899
 42
-2.132789609
  0
ENDSEC
  0
SECTION
  2
OBJECTS
  0
DICTIONARY
  5
C
100
AcDbDictionary
280
0
281
1
  3
ACAD_GROUP
350
D
  3
ACAD_MLINESTYLE
350
17
  3
ACAD_LAYOUT
350
1A
  3
ACAD_PLOTSETTINGS
350
19
  3
ACAD_PLOTSTYLENAME
350
E
  0
DICTIONARY
  5
D
102
{ACAD_REACTORS
330
C
102
}
100
AcDbDictionary
280
0
281
1
  0
ACDBDICTIONARYWDFLT
  5
E
102
{ACAD_REACTORS
330
C
102
}
100
AcDbDictionary
281
1
  3
Normal
350
F
100
AcDbDictionaryWithDefault
340
F
  0
DICTIONARY
  5
17
102
{ACAD_REACTORS
330
C
102
}
100
AcDbDictionary
280
0
281
1
  3
Standard
350
18
  0
DICTIONARY
  5
19
102
{ACAD_REACTORS
330
C
102
}
100
AcDbDictionary
281
1
  0
DICTIONARY
  5
1A
102
{ACAD_REACTORS
330
C
102
}
100
AcDbDictionary
281
1
  3
Model
350
57B
  3
Layout1
350
57C
  0
ACDBPLACEHOLDER
  5
F
102
{ACAD_REACTORS
330
E
102
}
  0
MLINESTYLE
  5
18
102
{ACAD_REACTORS
330
17
102
}
100
AcDbMlineStyle
  2
STANDARD
 70
0
  3

 62
256
 51
90.0
 52
90.0
 71
2
 49
0.5
 62
256
  6
BYLAYER
 49
-0.5
 62
256
  6
BYLAYER
  0
LAYOUT
  5
57B
102
{ACAD_REACTORS
330
1A
102
}
100
AcDbPlotSettings
  1

  2
none_device
  4
ISO_A0_(1189.00_x_841.00_MM)
  6

 40
0.0
 41
0.0
 42
0.0
 43
0.0
 44
1189.0
 45
841.0
 46
0.0
 47
0.0
 48
0.0
 49
0.0
140
0.0
141
0.0
142
1.0
143
1.0
 70
1024
 72
1
 73
0
 74
0
  7

 75
0
147
1.0
148
0.0
149
0.0
100
AcDbLayout
  1
Model
 70
0
 71
0
 10
0.0
 20
0.0
 11
1189.0
 21
841.0
 12
0.0
 22
0.0
 32
0.0
 14
0.0
 24
0.0
 34
0.0
 15
0.0
 25
0.0
 35
0.0
146
0.0
 13
0.0
 23
0.0
 33
0.0
 16
1.0
 26
0.0
 36
0.0
 17
0.0
 27
1.0
 37
0.0
 76
0
330
20A
345
0
346
0
  0
LAYOUT
  5
57C
102
{ACAD_REACTORS
330
1A
102
}
100
AcDbPlotSettings
  1

  2
none_device
  4
ISO_A0_(1189.00_x_841.00_MM)
  6

 40
0.0
 41
0.0
 42
0.0
 43
0.0
 44
1189.0
 45
841.0
 46
0.0
 47
0.0
 48
0.0
 49
0.0
140
0.0
141
0.0
142
1.0
143
1.0
 70
0
 72
1
 73
0
 74
0
  7

 75
0
147
1.0
148
0.0
149
0.0
100
AcDbLayout
  1
Layout1
 70
0
 71
1
 10
0.0
 20
0.0
 11
1189.0
 21
841.0
 12
0.0
 22
0.0
 32
0.0
 14
0.0
 24
0.0
 34
0.0
 15
0.0
 25
0.0
 35
0.0
146
0.0
 13
0.0
 23
0.0
 33
0.0
 16
1.0
 26
0.0
 36
0.0
 17
0.0
 27
1.0
 37
0.0
 76
0
330
20B
345
0
346
0
  0
ENDSEC
  0
EOF
