999
DXF file: VSAK-1-20_250_7104100_M32082-P-4.dxf
999
Pro/ENGINEER 2010140 by Parametric Technology Corporation
  0
SECTION
  2
HEADER
  9
$ACADVER
  1
AC1015
  9
$DWGCODEPAGE
  3
ANSI_1252
  9
$EXTMAX
 10
1189.0
 20
841.0
 30
0.0
  9
$EXTMIN
 10
0.0
 20
0.0
 30
0.0
  9
$LIMMIN
 10
0.0
 20
0.0
  9
$LIMMAX
 10
1189.0
 20
841.0
  9
$VIEWCTR
 10
594.5
 20
420.5
  9
$VIEWSIZE
 40
841.0
  9
$CLAYER
  8
0
  9
$LTSCALE
 40
65.395
  9
$CELTYPE
  6
BYLAYER
  9
$DIMSCALE
 40
1.0
  9
$DIMASZ
 40
3.5
  9
$DIMEXO
 40
7.43125
  9
$DIMDLI
 40
45.182
  9
$DIMEXE
 40
21.402
  9
$DIMCEN
 40
10.701
  9
$DIMLFAC
 40
1.0
  9
$DIMBLK
  1
_FILLED
  9
$DIMTXT
 40
3.5
  9
$DIMTOL
 70
1
  9
$DIMLIM
 70
0
  9
$DIMTFAC
 40
1.0
  9
$DIMTP
 40
0.005
  9
$DIMTM
 40
0.005
  9
$PDMODE
 70
3
  9
$PDSIZE
 40
0.3125
  9
$HANDSEED
  5
5A7
  9
$TILEMODE
 70
1
  9
$MEASUREMENT
 70
1
  9
$INSUNITS
 70
4
  0
ENDSEC
  0
SECTION
  2
CLASSES
  0
CLASS
  1
ACDBDICTIONARYWDFLT
  2
AcDbDictionaryWithDefault
  3
AutoCAD 2000
 90
0
280
0
281
0
  0
CLASS
  1
ACDBPLACEHOLDER
  2
AcDbPlaceHolder
  3
AutoCAD 2000
 90
0
280
0
281
0
  0
CLASS
  1
LAYOUT
  2
AcDbLayout
  3
AutoCAD 2000
 90
0
280
0
281
0
  0
ENDSEC
  0
SECTION
  2
TABLES
  0
TABLE
  2
VPORT
  5
8
100
AcDbSymbolTable
 70
2
  0
VPORT
  5
1F4
100
AcDbSymbolTableRecord
100
AcDbViewportTableRecord
  2
*ACTIVE
 70
0
 10
0.0
 20
0.0
 11
1.0
 21
1.0
 12
594.5
 22
420.5
 13
0.0
 23
0.0
 14
1.0
 24
1.0
 15
0.0
 25
0.0
 16
0.0
 26
0.0
 36
1.0
 17
0.0
 27
0.0
 37
0.0
 40
841.0
 41
1.4137931034
 42
50.0
 43
0.0
 44
0.0
 50
0.0
 51
0.0
 71
0
 72
100
 73
1
 74
1
 75
0
 76
0
 77
0
 78
0
  0
ENDTAB
  0
TABLE
  2
LTYPE
  5
5
100
AcDbSymbolTable
 70
6
  0
LTYPE
  5
14
100
AcDbSymbolTableRecord
100
AcDbLinetypeTableRecord
  2
BYBLOCK
 70
0
  3

 72
65
 73
0
 40
0.0
  0
LTYPE
  5
15
100
AcDbSymbolTableRecord
100
AcDbLinetypeTableRecord
  2
BYLAYER
 70
0
  3

 72
65
 73
0
 40
0.0
  0
LTYPE
  5
16
100
AcDbSymbolTableRecord
100
AcDbLinetypeTableRecord
  2
CONTINUOUS
 70
64
  3
Solid line
 72
65
 73
0
 40
0.0
  0
LTYPE
  5
1F5
100
AcDbSymbolTableRecord
100
AcDbLinetypeTableRecord
  2
CENTER
 70
64
  3
____ _ ____ _ ____ _ ____ _ ____ _ ____ _ ____
 72
65
 73
4
 40
0.6
 49
0.375
 74
0
 49
-0.075
 74
0
 49
0.075
 74
0
 49
-0.075
 74
0
  0
LTYPE
  5
1F6
100
AcDbSymbolTableRecord
100
AcDbLinetypeTableRecord
  2
HIDDEN
 70
64
  3
- - - - - - - - - - - - - - - - - - - -
 72
65
 73
2
 40
0.2
 49
0.1
 74
0
 49
-0.1
 74
0
  0
LTYPE
  5
1F7
100
AcDbSymbolTableRecord
100
AcDbLinetypeTableRecord
  2
PHANTOM
 70
64
  3
_____ _ _ _____ _ _ _____ _ _ _____
 72
65
 73
6
 40
0.8
 49
0.45
 74
0
 49
-0.05
 74
0
 49
0.1
 74
0
 49
-0.05
 74
0
 49
0.1
 74
0
 49
-0.05
 74
0
  0
LTYPE
  5
1F8
100
AcDbSymbolTableRecord
100
AcDbLinetypeTableRecord
  2
DOT
 70
64
  3
. . . . . . . . . . . . . . . . . . . .
 72
65
 73
2
 40
0.2
 49
0.1
 74
0
 49
-0.1
 74
0
  0
LTYPE
  5
1F9
100
AcDbSymbolTableRecord
100
AcDbLinetypeTableRecord
  2
DASHED
 70
64
  3
- - - - - - - - - - - - - - - - - - - -
 72
65
 73
2
 40
0.2
 49
0.1
 74
0
 49
-0.1
 74
0
  0
ENDTAB
  0
TABLE
  2
LAYER
  5
2
100
AcDbSymbolTable
 70
36
  0
LAYER
  5
10
100
AcDbSymbolTableRecord
100
AcDbLayerTableRecord
  2
0
 70
0
 62
7
  6
CONTINUOUS
370
-3
390
F
  0
LAYER
  5
1FA
100
AcDbSymbolTableRecord
100
AcDbLayerTableRecord
  2
DEFAULT_1
 70
0
 62
7
  6
CENTER
370
-3
390
F
  0
LAYER
  5
1FB
100
AcDbSymbolTableRecord
100
AcDbLayerTableRecord
  2
DEFAULT_2
 70
0
 62
8
  6
HIDDEN
370
-3
390
F
  0
LAYER
  5
1FC
100
AcDbSymbolTableRecord
100
AcDbLayerTableRecord
  2
DEFAULT_3
 70
0
 62
7
  6
PHANTOM
370
-3
390
F
  0
LAYER
  5
1FD
100
AcDbSymbolTableRecord
100
AcDbLayerTableRecord
  2
BEZUGSACHSEN
 70
0
 62
7
  6
CONTINUOUS
370
-3
390
F
  0
LAYER
  5
1FE
100
AcDbSymbolTableRecord
100
AcDbLayerTableRecord
  2
BEZUGSEBENEN
 70
0
 62
7
  6
CONTINUOUS
370
-3
390
F
  0
LAYER
  5
1FF
100
AcDbSymbolTableRecord
100
AcDbLayerTableRecord
  2
BG_STARTBEZUEGE
 70
0
 62
7
  6
CONTINUOUS
370
-3
390
F
  0
LAYER
  5
200
100
AcDbSymbolTableRecord
100
AcDbLayerTableRecord
  2
FASEN
 70
0
 62
7
  6
CONTINUOUS
370
-3
390
F
  0
LAYER
  5
201
100
AcDbSymbolTableRecord
100
AcDbLayerTableRecord
  2
HILFEN
 70
0
 62
7
  6
CONTINUOUS
370
-3
390
F
  0
LAYER
  5
202
100
AcDbSymbolTableRecord
100
AcDbLayerTableRecord
  2
KONSTRUKTIONSELEMENTE
 70
0
 62
7
  6
CONTINUOUS
370
-3
390
F
  0
LAYER
  5
203
100
AcDbSymbolTableRecord
100
AcDbLayerTableRecord
  2
NORM
 70
0
 62
7
  6
CONTINUOUS
370
-3
390
F
  0
LAYER
  5
204
100
AcDbSymbolTableRecord
100
AcDbLayerTableRecord
  2
PLATZIERUNG
 70
0
 62
7
  6
CONTINUOUS
370
-3
390
F
  0
LAYER
  5
205
100
AcDbSymbolTableRecord
100
AcDbLayerTableRecord
  2
RUNDUNGEN
 70
0
 62
7
  6
CONTINUOUS
370
-3
390
F
  0
LAYER
  5
206
100
AcDbSymbolTableRecord
100
AcDbLayerTableRecord
  2
TEIL_STARTBEZUEGE
 70
0
 62
7
  6
CONTINUOUS
370
-3
390
F
  0
LAYER
  5
207
100
AcDbSymbolTableRecord
100
AcDbLayerTableRecord
  2
T_STARTBEZUEGE
 70
0
 62
7
  6
CONTINUOUS
370
-3
390
F
  0
ENDTAB
  0
TABLE
  2
STYLE
  5
3
100
AcDbSymbolTable
 70
1
  0
STYLE
  5
11
100
AcDbSymbolTableRecord
100
AcDbTextStyleTableRecord
  2
STANDARD
 70
0
 40
0.0
 41
0.7
 50
0.0
 71
0
 42
0.2
  3
txt
  4

  0
STYLE
  5
208
100
AcDbSymbolTableRecord
100
AcDbTextStyleTableRecord
  2
TEXTSTYLE_1
 70
0
 40
0.0
 41
0.8
 50
0.0
 71
0
 42
0.2
  3
gdt
  4

  0
ENDTAB
  0
TABLE
  2
VIEW
  5
6
100
AcDbSymbolTable
 70
0
  0
ENDTAB
  0
TABLE
  2
UCS
  5
7
100
AcDbSymbolTable
 70
0
  0
ENDTAB
  0
TABLE
  2
APPID
  5
9
100
AcDbSymbolTable
 70
1
  0
APPID
  5
209
100
AcDbSymbolTableRecord
100
AcDbRegAppTableRecord
  2
ACAD
 70
0
  0
ENDTAB
  0
TABLE
  2
BLOCK_RECORD
  5
1
100
AcDbSymbolTable
 70
0
  0
BLOCK_RECORD
  5
20A
100
AcDbSymbolTableRecord
100
AcDbBlockTableRecord
  2
*Model_Space
  0
BLOCK_RECORD
  5
20B
100
AcDbSymbolTableRecord
100
AcDbBlockTableRecord
  2
*Paper_Space
  0
ENDTAB
  0
TABLE
  2
DIMSTYLE
  5
A
100
AcDbSymbolTable
 70
1
100
AcDbDimStyleTable
 71
0
  0
DIMSTYLE
105
20C
100
AcDbSymbolTableRecord
100
AcDbDimStyleTableRecord
  2
STANDARD
 70
0
  3

  4

 40
1.0
 41
3.5
 42
0.0625
 43
0.38
 44
0.18
 45
0.0
 46
0.0
 47
0.005
 48
0.005
140
3.5
141
0.09
142
0.0
143
25.4
144
1.0
145
0.0
146
1.0
147
0.09
 71
1.0
 72
0.0
 73
0
 74
0
 75
0
 76
0
 77
1
 78
8
170
0
171
2
172
0
173
0
174
0
175
0
176
0
177
0
178
5
270
2
271
3
272
3
273
2
274
2
275
0
280
0
281
0
282
0
283
1
284
8
285
0
286
0
287
3
288
0
340
11
  0
ENDTAB
  0
ENDSEC
  0
SECTION
  2
BLOCKS
  0
BLOCK
  5
20
100
AcDbEntity
  8
0
100
AcDbBlockBegin
  2
*Model_Space
 70
0
 10
0.0
 20
0.0
 30
0.0
  3
*Model_Space
  1

  0
ENDBLK
  5
21
100
AcDbEntity
  8
0
100
AcDbBlockEnd
  0
BLOCK
  5
1C
100
AcDbEntity
  8
0
100
AcDbBlockBegin
  2
*Paper_Space
 70
0
 10
0.0
 20
0.0
 30
0.0
  3
*Paper_Space
  1

  0
ENDBLK
  5
1D
100
AcDbEntity
  8
0
100
AcDbBlockEnd
  0
ENDSEC
  0
SECTION
  2
ENTITIES
  0
MTEXT
  5
20D
100
AcDbEntity
  8
0
100
AcDbMText
 62
5
  6
CONTINUOUS
  7
STANDARD
 71
1
 72
1
 10
134.3237775094
 20
525.5148622884
 30
0.0
 11
0.0
 21
1.0
 31
0.0
 44
0.9
  1
RUD
 40
12.0
 41
32.0
  0
MTEXT
  5
20E
100
AcDbEntity
  8
0
100
AcDbMText
 62
5
  6
CONTINUOUS
  7
STANDARD
 71
1
 72
1
 10
429.5612852341
 20
476.3085733854
 30
0.0
 11
0.0
 21
1.0
 31
0.0
 44
0.9
  1
VSAK 1-20/250
 40
12.0
 41
121.7142857143
  0
MTEXT
  5
20F
100
AcDbEntity
  8
0
100
AcDbMText
 62
5
  6
CONTINUOUS
  7
STANDARD
 71
1
 72
1
 10
820.3895086555
 20
467.1060346177
 30
0.0
 11
0.0
 21
1.0
 31
0.0
 44
0.9
  1
RUD VSAK 1-20/250
 40
12.0
 41
160.8571428571
  0
LINE
  5
210
100
AcDbEntity
  8
0
100
AcDbLine
 62
7
  6
CONTINUOUS
 10
0.0
 20
0.0
 11
0.0
 21
841.0
  0
LINE
  5
211
100
AcDbEntity
  8
0
100
AcDbLine
 62
7
  6
CONTINUOUS
 10
0.0
 20
0.0
 11
1189.0
 21
0.0
  0
LINE
  5
212
100
AcDbEntity
  8
0
100
AcDbLine
 62
7
  6
CONTINUOUS
 10
0.0
 20
841.0
 11
1189.0
 21
841.0
  0
LINE
  5
213
100
AcDbEntity
  8
0
100
AcDbLine
 62
7
  6
CONTINUOUS
 10
1189.0
 20
0.0
 11
1189.0
 21
841.0
  0
LINE
  5
214
100
AcDbEntity
  8
KONSTRUKTIONSELEMENTE
100
AcDbLine
 62
7
  6
CONTINUOUS
 10
279.3841549298
 20
-91.7499695247
 11
297.5841549298
 21
-91.7499695247
  0
LINE
  5
215
100
AcDbEntity
  8
KONSTRUKTIONSELEMENTE
100
AcDbLine
 62
7
  6
CONTINUOUS
 10
278.3841549298
 20
-91.0428627435
 11
279.3841549298
 21
-91.0428627435
  0
LINE
  5
216
100
AcDbEntity
  8
KONSTRUKTIONSELEMENTE
100
AcDbLine
 62
7
  6
CONTINUOUS
 10
297.5841549298
 20
-91.0428627435
 11
298.5841549298
 21
-91.0428627435
  0
LINE
  5
217
100
AcDbEntity
  8
KONSTRUKTIONSELEMENTE
100
AcDbLine
 62
7
  6
CONTINUOUS
 10
271.3841549298
 20
-63.4656982772
 11
268.8774174321
 21
-63.4656982772
  0
LINE
  5
218
100
AcDbEntity
  8
KONSTRUKTIONSELEMENTE
100
AcDbLine
 62
7
  6
CONTINUOUS
 10
305.5841549298
 20
-63.4656982772
 11
330.4709208913
 21
-63.4656982772
  0
LINE
  5
219
100
AcDbEntity
  8
KONSTRUKTIONSELEMENTE
100
AcDbLine
 62
7
  6
CONTINUOUS
 10
339.8013534301
 20
-56.6834787617
 11
329.3397317508
 21
-54.2798906273
  0
LINE
  5
21A
100
AcDbEntity
  8
KONSTRUKTIONSELEMENTE
100
AcDbLine
 62
7
  6
CONTINUOUS
 10
339.8013534301
 20
-53.1479448558
 11
329.3397317508
 21
-50.7443567213
  0
LINE
  5
21B
100
AcDbEntity
  8
0
100
AcDbLine
 62
7
  6
CONTINUOUS
 10
322.17693675
 20
10.1503547945
 11
313.4549173382
 21
10.1503547945
  0
LINE
  5
21C
100
AcDbEntity
  8
0
100
AcDbLine
 62
7
  6
CONTINUOUS
 10
263.5133925213
 20
10.1503547945
 11
254.7913731095
 21
10.1503547945
  0
LINE
  5
21D
100
AcDbEntity
  8
KONSTRUKTIONSELEMENTE
100
AcDbLine
 62
7
  6
CONTINUOUS
 10
233.5611466008
 20
-0.7831740422
 11
246.4004095708
 21
2.1666841229
  0
LINE
  5
21E
100
AcDbEntity
  8
KONSTRUKTIONSELEMENTE
100
AcDbLine
 62
7
  6
CONTINUOUS
 10
233.5611466008
 20
-0.076067261
 11
246.4004095708
 21
2.873790904
  0
LINE
  5
21F
100
AcDbEntity
  8
KONSTRUKTIONSELEMENTE
100
AcDbLine
 62
7
  6
CONTINUOUS
 10
235.1782481722
 20
3.2694508235
 11
245.1643415933
 21
5.5637849519
  0
LINE
  5
220
100
AcDbEntity
  8
KONSTRUKTIONSELEMENTE
100
AcDbLine
 62
7
  6
CONTINUOUS
 10
235.1782481722
 20
5.3907711671
 11
245.1643415933
 21
7.6851052955
  0
LINE
  5
221
100
AcDbEntity
  8
KONSTRUKTIONSELEMENTE
100
AcDbLine
 62
7
  6
CONTINUOUS
 10
229.3996303774
 20
16.5522797785
 11
241.047003054
 21
19.2282976676
  0
LINE
  5
222
100
AcDbEntity
  8
KONSTRUKTIONSELEMENTE
100
AcDbLine
 62
7
  6
CONTINUOUS
 10
240.6698028423
 20
19.2144133928
 11
226.0916023408
 21
15.8650292513
  0
LINE
  5
223
100
AcDbEntity
  8
KONSTRUKTIONSELEMENTE
100
AcDbLine
 62
7
  6
CONTINUOUS
 10
240.6698028423
 20
19.2144133928
 11
240.7784265202
 21
19.2330627854
  0
LINE
  5
224
100
AcDbEntity
  8
0
100
AcDbLine
 62
7
  6
CONTINUOUS
 10
299.7341549298
 20
27.1503547945
 11
277.2341549298
 21
27.1503547945
  0
LINE
  5
225
100
AcDbEntity
  8
KONSTRUKTIONSELEMENTE
100
AcDbLine
 62
7
  6
CONTINUOUS
 10
361.4774991658
 20
15.659954617
 11
371.9391208451
 21
13.2563664825
  0
LINE
  5
226
100
AcDbEntity
  8
KONSTRUKTIONSELEMENTE
100
AcDbLine
 62
7
  6
CONTINUOUS
 10
242.4841549298
 20
31.5272031865
 11
230.4947200927
 21
28.772595517
  0
LINE
  5
227
100
AcDbEntity
  8
KONSTRUKTIONSELEMENTE
100
AcDbLine
 62
7
  6
CONTINUOUS
 10
242.4841549298
 20
35.0627370925
 11
230.4947200927
 21
32.3081294229
  0
LINE
  5
228
100
AcDbEntity
  8
0
100
AcDbLine
 62
7
  6
CONTINUOUS
 10
299.7341549298
 20
51.6503547945
 11
277.2341549298
 21
51.6503547945
  0
LINE
  5
229
100
AcDbEntity
  8
KONSTRUKTIONSELEMENTE
100
AcDbLine
 62
7
  6
CONTINUOUS
 10
334.4841549298
 20
31.5272031865
 11
367.3968331253
 21
23.9654192481
  0
LINE
  5
22A
100
AcDbEntity
  8
KONSTRUKTIONSELEMENTE
100
AcDbLine
 62
7
  6
CONTINUOUS
 10
367.3968331253
 20
27.500953154
 11
334.4841549298
 21
35.0627370925
  0
LINE
  5
22B
100
AcDbEntity
  8
BEZUGSACHSEN
100
AcDbLine
 62
7
  6
CONTINUOUS
 10
329.4290415041
 20
139.2551622975
 11
330.2122399403
 21
139.4443458146
  0
LINE
  5
22C
100
AcDbEntity
  8
BEZUGSACHSEN
100
AcDbLine
 62
7
  6
CONTINUOUS
 10
328.8591484769
 20
140.6659826551
 11
329.6423476639
 21
140.8551649546
  0
LINE
  5
22D
100
AcDbEntity
  8
BEZUGSACHSEN
100
AcDbLine
 62
7
  6
CONTINUOUS
 10
243.1860216004
 20
22.3139026682
 11
252.4932397802
 21
11.2219919654
  0
LINE
  5
22E
100
AcDbEntity
  8
BEZUGSACHSEN
100
AcDbLine
 62
7
  6
CONTINUOUS
 10
247.6851997304
 20
147.7910288823
 11
248.4101348344
 21
147.9609167764
  0
LINE
  5
22F
100
AcDbEntity
  8
BEZUGSACHSEN
100
AcDbLine
 62
7
  6
CONTINUOUS
 10
255.2331061416
 20
147.2729779552
 11
255.7578110079
 21
147.3487919489
  0
LINE
  5
230
100
AcDbEntity
  8
BEZUGSACHSEN
100
AcDbLine
 62
7
  6
CONTINUOUS
 10
270.2889538356
 20
165.7271029929
 11
270.9805591598
 21
165.8244063768
  0
LINE
  5
231
100
AcDbEntity
  8
BEZUGSACHSEN
100
AcDbLine
 62
7
  6
CONTINUOUS
 10
257.6123416451
 20
158.2837855728
 11
258.2467641797
 21
158.3676815511
  0
LINE
  5
232
100
AcDbEntity
  8
BEZUGSACHSEN
100
AcDbLine
 62
7
  6
CONTINUOUS
 10
248.3200021209
 20
147.2082012401
 11
248.7534294605
 21
147.2461579204
  0
LINE
  5
233
100
AcDbEntity
  8
BEZUGSACHSEN
100
AcDbLine
 62
7
  6
CONTINUOUS
 10
258.1600267931
 20
157.4112034902
 11
258.6901741213
 21
157.408617464
  0
LINE
  5
234
100
AcDbEntity
  8
BEZUGSACHSEN
100
AcDbLine
 62
7
  6
CONTINUOUS
 10
270.7348474385
 20
164.9896470685
 11
271.1754421567
 21
164.98495291
  0
LINE
  5
235
100
AcDbEntity
  8
BEZUGSACHSEN
100
AcDbLine
 62
7
  6
CONTINUOUS
 10
248.4101348344
 20
147.9609167764
 11
249.2021950979
 21
147.9238767785
  0
LINE
  5
236
100
AcDbEntity
  8
BEZUGSACHSEN
100
AcDbLine
 62
7
  6
CONTINUOUS
 10
254.9447040192
 20
146.440267165
 11
255.8134228319
 21
146.3900004902
  0
LINE
  5
237
100
AcDbEntity
  8
BEZUGSACHSEN
100
AcDbLine
 62
7
  6
CONTINUOUS
 10
328.1661021916
 20
139.3575931285
 11
329.4290415041
 21
139.2551622975
  0
LINE
  5
238
100
AcDbEntity
  8
BEZUGSACHSEN
100
AcDbLine
 62
7
  6
CONTINUOUS
 10
258.2467641797
 20
158.3676815511
 11
259.0985072301
 21
158.1895444999
  0
LINE
  5
239
100
AcDbEntity
  8
BEZUGSACHSEN
100
AcDbLine
 62
7
  6
CONTINUOUS
 10
328.1620774525
 20
140.823599022
 11
328.8591484769
 21
140.6659826551
  0
LINE
  5
23A
100
AcDbEntity
  8
BEZUGSACHSEN
100
AcDbLine
 62
7
  6
CONTINUOUS
 10
254.6719116833
 20
147.4116244558
 11
255.2331061416
 21
147.2729779552
  0
LINE
  5
23B
100
AcDbEntity
  8
BEZUGSACHSEN
100
AcDbLine
 62
7
  6
CONTINUOUS
 10
250.9493454358
 20
145.6296069139
 11
254.8866395975
 21
144.4847632325
  0
LINE
  5
23C
100
AcDbEntity
  8
BEZUGSACHSEN
100
AcDbLine
 62
7
  6
CONTINUOUS
 10
250.7844184138
 20
144.7639381807
 11
254.3630795444
 21
143.694091016
  0
LINE
  5
23D
100
AcDbEntity
  8
BEZUGSACHSEN
100
AcDbLine
 62
7
  6
CONTINUOUS
 10
248.7534294605
 20
147.2461579204
 11
249.2539817457
 21
147.0771863854
  0
LINE
  5
23E
100
AcDbEntity
  8
BEZUGSACHSEN
100
AcDbLine
 62
7
  6
CONTINUOUS
 10
249.2021950979
 20
147.9238767785
 11
249.7027473832
 21
147.7549052435
  0
LINE
  5
23F
100
AcDbEntity
  8
BEZUGSACHSEN
100
AcDbLine
 62
7
  6
CONTINUOUS
 10
254.2566751732
 20
146.6924277947
 11
254.9447040192
 21
146.440267165
  0
LINE
  5
240
100
AcDbEntity
  8
BEZUGSACHSEN
100
AcDbLine
 62
7
  6
CONTINUOUS
 10
326.9892917924
 20
139.8068214084
 11
328.1661021916
 21
139.3575931285
  0
LINE
  5
241
100
AcDbEntity
  8
BEZUGSACHSEN
100
AcDbLine
 62
7
  6
CONTINUOUS
 10
270.9805591598
 20
165.8244063768
 11
271.6748153627
 21
165.5553294615
  0
LINE
  5
242
100
AcDbEntity
  8
BEZUGSACHSEN
100
AcDbLine
 62
7
  6
CONTINUOUS
 10
258.6901741213
 20
157.408617464
 11
259.2247068056
 21
157.1885325515
  0
LINE
  5
243
100
AcDbEntity
  8
BEZUGSACHSEN
100
AcDbLine
 62
7
  6
CONTINUOUS
 10
259.0985072301
 20
158.1895444999
 11
259.7416998679
 21
157.8384434397
  0
LINE
  5
244
100
AcDbEntity
  8
BEZUGSACHSEN
100
AcDbLine
 62
7
  6
CONTINUOUS
 10
254.0742285779
 20
147.7647326855
 11
254.6719116833
 21
147.4116244558
  0
LINE
  5
245
100
AcDbEntity
  8
BEZUGSACHSEN
100
AcDbLine
 62
7
  6
CONTINUOUS
 10
253.5321569936
 20
147.1590492075
 11
254.2566751732
 21
146.6924277947
  0
LINE
  5
246
100
AcDbEntity
  8
BEZUGSACHSEN
100
AcDbLine
 62
7
  6
CONTINUOUS
 10
252.0444571554
 20
140.1925436902
 11
245.3742463833
 21
144.6093624839
  0
LINE
  5
247
100
AcDbEntity
  8
BEZUGSACHSEN
100
AcDbLine
 62
7
  6
CONTINUOUS
 10
252.4932227929
 20
140.8702625483
 11
249.5129158099
 21
142.8437348033
  0
LINE
  5
248
100
AcDbEntity
  8
BEZUGSACHSEN
100
AcDbLine
 62
7
  6
CONTINUOUS
 10
248.6613996426
 20
143.4075839438
 11
246.5326088269
 21
144.8172070582
  0
LINE
  5
249
100
AcDbEntity
  8
BEZUGSACHSEN
100
AcDbLine
 62
7
  6
CONTINUOUS
 10
249.2539817457
 20
147.0771863854
 11
249.6797402269
 21
146.7952615519
  0
LINE
  5
24A
100
AcDbEntity
  8
BEZUGSACHSEN
100
AcDbLine
 62
7
  6
CONTINUOUS
 10
249.7027473832
 20
147.7549052435
 11
250.2704252256
 21
147.3790055533
  0
LINE
  5
24B
100
AcDbEntity
  8
RUNDUNGEN
100
AcDbLine
 62
7
  6
CONTINUOUS
 10
241.8142819487
 20
55.13739885
 11
237.5315673978
 21
62.5552780465
  0
LINE
  5
24C
100
AcDbEntity
  8
KONSTRUKTIONSELEMENTE
100
AcDbLine
 62
7
  6
CONTINUOUS
 10
224.0743248735
 20
19.8625302751
 11
225.6194098454
 21
16.5000377153
  0
LINE
  5
24D
100
AcDbEntity
  8
KONSTRUKTIONSELEMENTE
100
AcDbLine
 62
7
  6
CONTINUOUS
 10
233.5611466008
 20
-0.7831740422
 11
260.1189927385
 21
-58.5797105876
  0
LINE
  5
24E
100
AcDbEntity
  8
KONSTRUKTIONSELEMENTE
100
AcDbLine
 62
7
  6
CONTINUOUS
 10
233.5611466008
 20
-0.076067261
 11
233.2521296064
 21
0.596431251
  0
LINE
  5
24F
100
AcDbEntity
  8
0
100
AcDbLine
 62
7
  6
CONTINUOUS
 10
118.4841549298
 20
649.4003547945
 11
118.4841549298
 21
439.4003547945
  0
LINE
  5
250
100
AcDbEntity
  8
0
100
AcDbLine
 62
7
  6
CONTINUOUS
 10
325.5661942548
 20
170.1894032956
 11
304.4841549298
 21
177.0393731091
  0
LINE
  5
251
100
AcDbEntity
  8
BEZUGSACHSEN
100
AcDbLine
 62
7
  6
CONTINUOUS
 10
271.1754421567
 20
164.98495291
 11
271.5546075082
 21
164.7715683408
  0
LINE
  5
252
100
AcDbEntity
  8
BEZUGSACHSEN
100
AcDbLine
 62
7
  6
CONTINUOUS
 10
311.3855966924
 20
149.4904926556
 11
309.7581550136
 21
150.6530042061
  0
LINE
  5
253
100
AcDbEntity
  8
BEZUGSACHSEN
100
AcDbLine
 62
7
  6
CONTINUOUS
 10
271.6748153627
 20
165.5553294615
 11
272.3076421991
 21
165.0775621355
  0
LINE
  5
254
100
AcDbEntity
  8
BEZUGSACHSEN
100
AcDbLine
 62
7
  6
CONTINUOUS
 10
259.2247068056
 20
157.1885325515
 11
259.7636230437
 21
156.7509484971
  0
LINE
  5
255
100
AcDbEntity
  8
BEZUGSACHSEN
100
AcDbLine
 62
7
  6
CONTINUOUS
 10
259.7416998679
 20
157.8384434397
 11
260.3892766684
 21
157.2698425036
  0
LINE
  5
256
100
AcDbEntity
  8
BEZUGSACHSEN
100
AcDbLine
 62
7
  6
CONTINUOUS
 10
253.5321569936
 20
147.1590492075
 11
249.6002851855
 21
150.6779762666
  0
LINE
  5
257
100
AcDbEntity
  8
BEZUGSACHSEN
100
AcDbLine
 62
7
  6
CONTINUOUS
 10
254.0742285779
 20
147.7647326855
 11
250.1423567697
 21
151.2836597446
  0
LINE
  5
258
100
AcDbEntity
  8
BEZUGSACHSEN
100
AcDbLine
 62
7
  6
CONTINUOUS
 10
252.3106420729
 20
153.7063925017
 11
256.2425138811
 21
150.1874654426
  0
LINE
  5
259
100
AcDbEntity
  8
BEZUGSACHSEN
100
AcDbLine
 62
7
  6
CONTINUOUS
 10
252.8527133987
 20
154.3120756909
 11
256.7845852069
 21
150.7931486318
  0
LINE
  5
25A
100
AcDbEntity
  8
BEZUGSACHSEN
100
AcDbLine
 62
7
  6
CONTINUOUS
 10
250.0307041089
 20
146.4003839464
 11
249.6797402269
 21
146.7952615519
  0
LINE
  5
25B
100
AcDbEntity
  8
BEZUGSACHSEN
100
AcDbLine
 62
7
  6
CONTINUOUS
 10
250.6213891076
 20
146.9841279477
 11
250.2704252256
 21
147.3790055533
  0
LINE
  5
25C
100
AcDbEntity
  8
BEZUGSACHSEN
100
AcDbLine
 62
7
  6
CONTINUOUS
 10
259.5867212024
 20
149.7490371335
 11
254.4796884702
 21
155.9068140597
  0
LINE
  5
25D
100
AcDbEntity
  8
BEZUGSACHSEN
100
AcDbLine
 62
7
  6
CONTINUOUS
 10
259.5604132033
 20
151.0540303201
 11
255.7573036425
 21
155.6396089778
  0
LINE
  5
25E
100
AcDbEntity
  8
BEZUGSACHSEN
100
AcDbLine
 62
7
  6
CONTINUOUS
 10
257.3284125999
 20
150.1246324375
 11
256.7845852069
 21
150.7931486318
  0
LINE
  5
25F
100
AcDbEntity
  8
KONSTRUKTIONSELEMENTE
100
AcDbLine
 62
7
  6
CONTINUOUS
 10
242.0578753831
 20
18.4818648887
 11
248.3265281366
 21
4.8397036954
  0
LINE
  5
260
100
AcDbEntity
  8
BEZUGSACHSEN
100
AcDbLine
 62
7
  6
CONTINUOUS
 10
313.4783410843
 20
162.74267817
 11
314.6989224162
 21
161.8707944551
  0
LINE
  5
261
100
AcDbEntity
  8
BEZUGSACHSEN
100
AcDbLine
 62
7
  6
CONTINUOUS
 10
320.3949684375
 20
157.8020039241
 11
321.6155497694
 21
156.9301202092
  0
LINE
  5
262
100
AcDbEntity
  8
BEZUGSACHSEN
100
AcDbLine
 62
7
  6
CONTINUOUS
 10
327.5511338398
 20
141.3280152731
 11
328.1620774525
 21
140.823599022
  0
LINE
  5
263
100
AcDbEntity
  8
BEZUGSACHSEN
100
AcDbLine
 62
7
  6
CONTINUOUS
 10
316.8861592931
 20
144.4068123478
 11
315.8674630889
 21
145.5078382529
  0
LINE
  5
264
100
AcDbEntity
  8
BEZUGSACHSEN
100
AcDbLine
 62
7
  6
CONTINUOUS
 10
259.7636230437
 20
156.7509484971
 11
261.3935270651
 21
154.7857005927
  0
LINE
  5
265
100
AcDbEntity
  8
BEZUGSACHSEN
100
AcDbLine
 62
7
  6
CONTINUOUS
 10
260.3892766684
 20
157.2698425036
 11
262.0191806897
 21
155.3045945992
  0
LINE
  5
266
100
AcDbEntity
  8
BEZUGSACHSEN
100
AcDbLine
 62
7
  6
CONTINUOUS
 10
272.454338912
 20
162.1975116508
 11
272.4841549298
 21
162.1612295743
  0
LINE
  5
267
100
AcDbEntity
  8
BEZUGSACHSEN
100
AcDbLine
 62
7
  6
CONTINUOUS
 10
271.8294589666
 20
161.5761357444
 11
272.4841549298
 21
160.7671198718
  0
LINE
  5
268
100
AcDbEntity
  8
BEZUGSACHSEN
100
AcDbLine
 62
7
  6
CONTINUOUS
 10
271.5546075082
 20
164.7715683408
 11
271.8723463657
 21
164.3494945282
  0
LINE
  5
269
100
AcDbEntity
  8
BEZUGSACHSEN
100
AcDbLine
 62
7
  6
CONTINUOUS
 10
272.3076421991
 20
165.0775621355
 11
272.4841549298
 21
164.8430884491
  0
LINE
  5
26A
100
AcDbEntity
  8
BEZUGSACHSEN
100
AcDbLine
 62
7
  6
CONTINUOUS
 10
256.6595067169
 20
149.632463009
 11
256.2425138811
 21
150.1874654426
  0
LINE
  5
26B
100
AcDbEntity
  8
BEZUGSACHSEN
100
AcDbLine
 62
7
  6
CONTINUOUS
 10
262.4582067731
 20
154.5630300211
 11
262.0191806897
 21
155.3045945992
  0
LINE
  5
26C
100
AcDbEntity
  8
BEZUGSACHSEN
100
AcDbLine
 62
7
  6
CONTINUOUS
 10
250.9646837337
 20
146.2693690917
 11
250.6213891076
 21
146.9841279477
  0
LINE
  5
26D
100
AcDbEntity
  8
0
100
AcDbLine
 62
7
  6
CONTINUOUS
 10
163.4841549298
 20
649.4003547945
 11
163.4841549298
 21
439.4003547945
  0
LINE
  5
26E
100
AcDbEntity
  8
BEZUGSACHSEN
100
AcDbLine
 62
7
  6
CONTINUOUS
 10
326.1159397038
 20
140.7368463359
 11
326.9892917924
 21
139.8068214084
  0
LINE
  5
26F
100
AcDbEntity
  8
BEZUGSACHSEN
100
AcDbLine
 62
7
  6
CONTINUOUS
 10
324.6756703293
 20
153.6574078863
 11
325.6943665335
 21
152.5563819813
  0
LINE
  5
270
100
AcDbEntity
  8
BEZUGSACHSEN
100
AcDbLine
 62
7
  6
CONTINUOUS
 10
261.7238928905
 20
154.1751525293
 11
261.3935270651
 21
154.7857005927
  0
LINE
  5
271
100
AcDbEntity
  8
BEZUGSACHSEN
100
AcDbLine
 62
7
  6
CONTINUOUS
 10
257.6550606482
 20
149.4686831113
 11
257.3284125999
 21
150.1246324375
  0
LINE
  5
272
100
AcDbEntity
  8
BEZUGSACHSEN
100
AcDbLine
 62
7
  6
CONTINUOUS
 10
270.2884519493
 20
157.0916473062
 11
267.2768150721
 21
164.5031278142
  0
LINE
  5
273
100
AcDbEntity
  8
BEZUGSACHSEN
100
AcDbLine
 62
7
  6
CONTINUOUS
 10
271.0414866401
 20
157.3976411009
 11
269.6958616334
 21
160.7091537153
  0
LINE
  5
274
100
AcDbEntity
  8
BEZUGSACHSEN
100
AcDbLine
 62
7
  6
CONTINUOUS
 10
269.311397397
 20
161.6553000503
 11
268.3502366266
 21
164.0206663297
  0
LINE
  5
275
100
AcDbEntity
  8
BEZUGSACHSEN
100
AcDbLine
 62
7
  6
CONTINUOUS
 10
256.859320119
 20
149.090027523
 11
256.6595067169
 21
149.632463009
  0
LINE
  5
276
100
AcDbEntity
  8
BEZUGSACHSEN
100
AcDbLine
 62
7
  6
CONTINUOUS
 10
250.1649542142
 20
145.9865278391
 11
250.0307041089
 21
146.4003839464
  0
LINE
  5
277
100
AcDbEntity
  8
0
100
AcDbLine
 62
7
  6
CONTINUOUS
 10
228.4841549298
 20
103.5161501514
 11
236.4841549298
 21
71.4299026832
  0
LINE
  5
278
100
AcDbEntity
  8
KONSTRUKTIONSELEMENTE
100
AcDbLine
 62
7
  6
CONTINUOUS
 10
223.5848900365
 20
22.0476103974
 11
223.5848900365
 21
25.5831443033
  0
LINE
  5
279
100
AcDbEntity
  8
0
100
AcDbLine
 62
7
  6
CONTINUOUS
 10
348.4841549298
 20
138.6455365685
 11
325.5661942548
 21
170.1894032956
  0
LINE
  5
27A
100
AcDbEntity
  8
BEZUGSACHSEN
100
AcDbLine
 62
7
  6
CONTINUOUS
 10
319.1903026738
 20
141.7534102785
 11
318.4030787477
 21
143.0302338725
  0
LINE
  5
27B
100
AcDbEntity
  8
BEZUGSACHSEN
100
AcDbLine
 62
7
  6
CONTINUOUS
 10
323.7542679257
 20
144.567317118
 11
326.1159397038
 21
140.7368463359
  0
LINE
  5
27C
100
AcDbEntity
  8
BEZUGSACHSEN
100
AcDbLine
 62
7
  6
CONTINUOUS
 10
325.0582578237
 20
145.3712903934
 11
327.5511338398
 21
141.3280152731
  0
LINE
  5
27D
100
AcDbEntity
  8
BEZUGSACHSEN
100
AcDbLine
 62
7
  6
CONTINUOUS
 10
328.3182331776
 20
147.3812239574
 11
330.8111091937
 21
143.3379488371
  0
LINE
  5
27E
100
AcDbEntity
  8
BEZUGSACHSEN
100
AcDbLine
 62
7
  6
CONTINUOUS
 10
328.6176674998
 20
149.328025281
 11
331.7665632041
 21
144.2207309049
  0
LINE
  5
27F
100
AcDbEntity
  8
BEZUGSACHSEN
100
AcDbLine
 62
7
  6
CONTINUOUS
 10
271.8723463657
 20
164.3494945282
 11
272.0645786634
 21
163.8764209189
  0
LINE
  5
280
100
AcDbEntity
  8
BEZUGSACHSEN
100
AcDbLine
 62
7
  6
CONTINUOUS
 10
262.684296275
 20
153.8659988717
 11
262.4582067731
 21
154.5630300211
  0
LINE
  5
281
100
AcDbEntity
  8
BEZUGSACHSEN
100
AcDbLine
 62
7
  6
CONTINUOUS
 10
261.8413220583
 20
153.6091379864
 11
261.7238928905
 21
154.1751525293
  0
LINE
  5
282
100
AcDbEntity
  8
BEZUGSACHSEN
100
AcDbLine
 62
7
  6
CONTINUOUS
 10
257.8010178655
 20
148.6108390433
 11
257.6550606482
 21
149.4686831113
  0
LINE
  5
283
100
AcDbEntity
  8
RUNDUNGEN
100
AcDbLine
 62
7
  6
CONTINUOUS
 10
237.5315673978
 20
62.5552780465
 11
236.4841549298
 21
71.4299026832
  0
LINE
  5
284
100
AcDbEntity
  8
BEZUGSACHSEN
100
AcDbLine
 62
7
  6
CONTINUOUS
 10
262.7018353262
 20
152.9960037592
 11
262.684296275
 21
153.8659988717
  0
LINE
  5
285
100
AcDbEntity
  8
0
100
AcDbLine
 62
7
  6
CONTINUOUS
 10
228.4841549298
 20
138.6455365685
 11
228.4841549298
 21
103.5161501514
  0
LINE
  5
286
100
AcDbEntity
  8
KONSTRUKTIONSELEMENTE
100
AcDbLine
 62
7
  6
CONTINUOUS
 10
233.1052991553
 20
1.2519552877
 11
233.1052991553
 21
3.3732756312
  0
LINE
  5
287
100
AcDbEntity
  8
KONSTRUKTIONSELEMENTE
100
AcDbLine
 62
7
  6
CONTINUOUS
 10
233.5611466008
 20
-0.7831740422
 11
233.5611466008
 21
-0.076067261
  0
LINE
  5
288
100
AcDbEntity
  8
RUNDUNGEN
100
AcDbLine
 62
7
  6
CONTINUOUS
 10
242.4841549298
 20
24.2422654973
 11
242.4841549298
 21
79.7180887773
  0
LINE
  5
289
100
AcDbEntity
  8
0
100
AcDbLine
 62
7
  6
CONTINUOUS
 10
259.5819104476
 20
52.131116908
 11
259.5819104476
 21
37.3523547945
  0
LINE
  5
28A
100
AcDbEntity
  8
BEZUGSACHSEN
100
AcDbLine
 62
7
  6
CONTINUOUS
 10
250.9493454358
 20
145.6296069139
 11
250.9646837337
 21
146.2693690917
  0
LINE
  5
28B
100
AcDbEntity
  8
BEZUGSACHSEN
100
AcDbLine
 62
7
  6
CONTINUOUS
 10
331.7665632041
 20
144.2207309049
 11
332.2052519933
 21
143.0227148855
  0
LINE
  5
28C
100
AcDbEntity
  8
BEZUGSACHSEN
100
AcDbLine
 62
7
  6
CONTINUOUS
 10
272.1313040423
 20
163.3523483965
 11
272.0645786634
 21
163.8764209189
  0
LINE
  5
28D
100
AcDbEntity
  8
0
100
AcDbLine
 62
7
  6
CONTINUOUS
 10
272.4841549298
 20
330.4003547945
 11
272.4841549298
 21
128.4003547945
  0
LINE
  5
28E
100
AcDbEntity
  8
KONSTRUKTIONSELEMENTE
100
AcDbLine
 62
7
  6
CONTINUOUS
 10
275.3841549298
 20
-68.3160264754
 11
275.3841549298
 21
-88.9215424
  0
LINE
  5
28F
100
AcDbEntity
  8
BEZUGSACHSEN
100
AcDbLine
 62
7
  6
CONTINUOUS
 10
277.2341549298
 20
37.3523547945
 11
277.2341549298
 21
14.1506059987
  0
LINE
  5
290
100
AcDbEntity
  8
0
100
AcDbLine
 62
7
  6
CONTINUOUS
 10
277.2341549298
 20
37.3523547945
 11
277.2341549298
 21
66.9003547945
  0
LINE
  5
291
100
AcDbEntity
  8
KONSTRUKTIONSELEMENTE
100
AcDbLine
 62
7
  6
CONTINUOUS
 10
278.2841549298
 20
55.7525050308
 11
278.2841549298
 21
63.1064155551
  0
LINE
  5
292
100
AcDbEntity
  8
KONSTRUKTIONSELEMENTE
100
AcDbLine
 62
7
  6
CONTINUOUS
 10
279.3841549298
 20
-91.7499695247
 11
279.3841549298
 21
-69.1225525267
  0
LINE
  5
293
100
AcDbEntity
  8
KONSTRUKTIONSELEMENTE
100
AcDbLine
 62
7
  6
CONTINUOUS
 10
284.6841549298
 20
55.7525050308
 11
284.6841549298
 21
63.1064155551
  0
LINE
  5
294
100
AcDbEntity
  8
KONSTRUKTIONSELEMENTE
100
AcDbLine
 62
7
  6
CONTINUOUS
 10
284.9841549298
 20
111.0579065646
 11
284.9841549298
 21
93.4167016554
  0
LINE
  5
295
100
AcDbEntity
  8
KONSTRUKTIONSELEMENTE
100
AcDbLine
 62
7
  6
CONTINUOUS
 10
284.9841549298
 20
58.0248979756
 11
284.9841549298
 21
51.6503547945
  0
LINE
  5
296
100
AcDbEntity
  8
KONSTRUKTIONSELEMENTE
100
AcDbLine
 62
7
  6
CONTINUOUS
 10
285.2841549298
 20
61.5403130626
 11
285.2841549298
 21
77.6821249998
  0
LINE
  5
297
100
AcDbEntity
  8
KONSTRUKTIONSELEMENTE
100
AcDbLine
 62
7
  6
CONTINUOUS
 10
291.6841549298
 20
61.5403130626
 11
291.6841549298
 21
77.6821249998
  0
LINE
  5
298
100
AcDbEntity
  8
KONSTRUKTIONSELEMENTE
100
AcDbLine
 62
7
  6
CONTINUOUS
 10
291.9841549298
 20
111.0579065646
 11
291.9841549298
 21
93.4167016554
  0
LINE
  5
299
100
AcDbEntity
  8
KONSTRUKTIONSELEMENTE
100
AcDbLine
 62
7
  6
CONTINUOUS
 10
291.9841549298
 20
58.0248979756
 11
291.9841549298
 21
51.6503547945
  0
LINE
  5
29A
100
AcDbEntity
  8
KONSTRUKTIONSELEMENTE
100
AcDbLine
 62
7
  6
CONTINUOUS
 10
292.2841549298
 20
63.1064155551
 11
292.2841549298
 21
55.7525050308
  0
LINE
  5
29B
100
AcDbEntity
  8
BEZUGSACHSEN
100
AcDbLine
 62
7
  6
CONTINUOUS
 10
256.8419536595
 20
148.5601583274
 11
256.859320119
 21
149.090027523
  0
LINE
  5
29C
100
AcDbEntity
  8
BEZUGSACHSEN
100
AcDbLine
 62
7
  6
CONTINUOUS
 10
250.0824907567
 20
145.5536935533
 11
250.1649542142
 21
145.9865278391
  0
LINE
  5
29D
100
AcDbEntity
  8
BEZUGSACHSEN
100
AcDbLine
 62
7
  6
CONTINUOUS
 10
330.8111091937
 20
143.3379488371
 11
330.987389507
 21
142.5655414942
  0
LINE
  5
29E
100
AcDbEntity
  8
KONSTRUKTIONSELEMENTE
100
AcDbLine
 62
7
  6
CONTINUOUS
 10
297.5841549298
 20
-91.7499695247
 11
297.5841549298
 21
-69.1225525267
  0
LINE
  5
29F
100
AcDbEntity
  8
KONSTRUKTIONSELEMENTE
100
AcDbLine
 62
7
  6
CONTINUOUS
 10
298.6841549298
 20
63.1064155551
 11
298.6841549298
 21
55.7525050308
  0
LINE
  5
2A0
100
AcDbEntity
  8
BEZUGSACHSEN
100
AcDbLine
 62
7
  6
CONTINUOUS
 10
299.7341549298
 20
14.1506059987
 11
299.7341549298
 21
37.3523547945
  0
LINE
  5
2A1
100
AcDbEntity
  8
0
100
AcDbLine
 62
7
  6
CONTINUOUS
 10
299.7341549298
 20
37.3523547945
 11
299.7341549298
 21
66.9003547945
  0
LINE
  5
2A2
100
AcDbEntity
  8
KONSTRUKTIONSELEMENTE
100
AcDbLine
 62
7
  6
CONTINUOUS
 10
301.5841549298
 20
-88.9215424
 11
301.5841549298
 21
-68.4154457455
  0
LINE
  5
2A3
100
AcDbEntity
  8
0
100
AcDbLine
 62
7
  6
CONTINUOUS
 10
304.4841549298
 20
330.4003547945
 11
304.4841549298
 21
128.4003547945
  0
LINE
  5
2A4
100
AcDbEntity
  8
0
100
AcDbLine
 62
7
  6
CONTINUOUS
 10
317.3863994119
 20
52.131116908
 11
317.3863994119
 21
37.3523547945
  0
LINE
  5
2A5
100
AcDbEntity
  8
BEZUGSACHSEN
100
AcDbLine
 62
7
  6
CONTINUOUS
 10
257.6933059571
 20
147.9800225067
 11
257.8010178655
 21
148.6108390433
  0
LINE
  5
2A6
100
AcDbEntity
  8
BEZUGSACHSEN
100
AcDbLine
 62
7
  6
CONTINUOUS
 10
261.745815838
 20
153.087657862
 11
261.8413220583
 21
153.6091379864
  0
LINE
  5
2A7
100
AcDbEntity
  8
RUNDUNGEN
100
AcDbLine
 62
7
  6
CONTINUOUS
 10
334.4841549298
 20
79.7180895071
 11
334.4841549298
 21
24.2422654973
  0
LINE
  5
2A8
100
AcDbEntity
  8
KONSTRUKTIONSELEMENTE
100
AcDbLine
 62
7
  6
CONTINUOUS
 10
340.4923364357
 20
-53.8204433678
 11
340.4923364357
 21
-57.3559772737
  0
LINE
  5
2A9
100
AcDbEntity
  8
0
100
AcDbLine
 62
7
  6
CONTINUOUS
 10
348.4841549298
 20
103.5161501514
 11
348.4841549298
 21
138.6455365685
  0
LINE
  5
2AA
100
AcDbEntity
  8
BEZUGSACHSEN
100
AcDbLine
 62
7
  6
CONTINUOUS
 10
332.2052519933
 20
143.0227148855
 11
332.0780724945
 21
141.7695133303
  0
LINE
  5
2AB
100
AcDbEntity
  8
BEZUGSACHSEN
100
AcDbLine
 62
7
  6
CONTINUOUS
 10
272.0084481816
 20
162.9349687424
 11
272.1313040423
 21
163.3523483965
  0
LINE
  5
2AC
100
AcDbEntity
  8
BEZUGSACHSEN
100
AcDbLine
 62
7
  6
CONTINUOUS
 10
262.5020538519
 20
152.3880416876
 11
262.7018353262
 21
152.9960037592
  0
LINE
  5
2AD
100
AcDbEntity
  8
BEZUGSACHSEN
100
AcDbLine
 62
7
  6
CONTINUOUS
 10
256.6074071606
 20
148.0428555813
 11
256.8419536595
 21
148.5601583274
  0
LINE
  5
2AE
100
AcDbEntity
  8
KONSTRUKTIONSELEMENTE
100
AcDbLine
 62
7
  6
CONTINUOUS
 10
374.3066631815
 20
20.7759680344
 11
374.3066631815
 21
17.2404341284
  0
LINE
  5
2AF
100
AcDbEntity
  8
RUNDUNGEN
100
AcDbLine
 62
7
  6
CONTINUOUS
 10
339.4367424618
 20
62.5552780465
 11
340.4841549298
 21
71.4299026832
  0
LINE
  5
2B0
100
AcDbEntity
  8
BEZUGSACHSEN
100
AcDbLine
 62
7
  6
CONTINUOUS
 10
330.987389507
 20
142.5655414942
 11
330.8151339328
 21
141.8719429436
  0
LINE
  5
2B1
100
AcDbEntity
  8
BEZUGSACHSEN
100
AcDbLine
 62
7
  6
CONTINUOUS
 10
314.6989224162
 20
161.8707944551
 11
311.4623101376
 21
151.3182996791
  0
LINE
  5
2B2
100
AcDbEntity
  8
BEZUGSACHSEN
100
AcDbLine
 62
7
  6
CONTINUOUS
 10
309.7581550136
 20
150.6530042061
 11
313.4783410843
 21
162.74267817
  0
LINE
  5
2B3
100
AcDbEntity
  8
BEZUGSACHSEN
100
AcDbLine
 62
7
  6
CONTINUOUS
 10
257.368414593
 20
147.3617729375
 11
257.6933059571
 21
147.9800225067
  0
LINE
  5
2B4
100
AcDbEntity
  8
BEZUGSACHSEN
100
AcDbLine
 62
7
  6
CONTINUOUS
 10
261.4373740773
 20
152.6107123395
 11
261.745815838
 21
153.087657862
  0
LINE
  5
2B5
100
AcDbEntity
  8
BEZUGSACHSEN
100
AcDbLine
 62
7
  6
CONTINUOUS
 10
245.3742463833
 20
144.6093624839
 11
247.1693089333
 21
147.3202379163
  0
LINE
  5
2B6
100
AcDbEntity
  8
BEZUGSACHSEN
100
AcDbLine
 62
7
  6
CONTINUOUS
 10
246.5326088269
 20
144.8172070582
 11
247.9536999409
 21
146.9633166678
  0
LINE
  5
2B7
100
AcDbEntity
  8
BEZUGSACHSEN
100
AcDbLine
 62
7
  6
CONTINUOUS
 10
248.6613996426
 20
143.4075839438
 11
250.0824907567
 21
145.5536935533
  0
LINE
  5
2B8
100
AcDbEntity
  8
BEZUGSACHSEN
100
AcDbLine
 62
7
  6
CONTINUOUS
 10
249.5129158099
 20
142.8437348033
 11
250.7844184138
 21
144.7639381807
  0
LINE
  5
2B9
100
AcDbEntity
  8
BEZUGSACHSEN
100
AcDbLine
 62
7
  6
CONTINUOUS
 10
252.0444571554
 20
140.1925436902
 11
252.4932227929
 21
140.8702625483
  0
LINE
  5
2BA
100
AcDbEntity
  8
BEZUGSACHSEN
100
AcDbLine
 62
7
  6
CONTINUOUS
 10
254.3630795444
 20
143.694091016
 11
254.8866395975
 21
144.4847632325
  0
LINE
  5
2BB
100
AcDbEntity
  8
0
100
AcDbLine
 62
7
  6
CONTINUOUS
 10
251.4021156048
 20
170.1894032956
 11
228.4841549298
 21
138.6455365685
  0
LINE
  5
2BC
100
AcDbEntity
  8
0
100
AcDbLine
 62
7
  6
CONTINUOUS
 10
413.4841549298
 20
439.4003547945
 11
413.4841549298
 21
649.4003547945
  0
LINE
  5
2BD
100
AcDbEntity
  8
0
100
AcDbLine
 62
7
  6
CONTINUOUS
 10
340.4841549298
 20
71.4299026832
 11
348.4841549298
 21
103.5161501514
  0
LINE
  5
2BE
100
AcDbEntity
  8
BEZUGSACHSEN
100
AcDbLine
 62
7
  6
CONTINUOUS
 10
332.0780724945
 20
141.7695133303
 11
331.6023586096
 21
140.5951181319
  0
LINE
  5
2BF
100
AcDbEntity
  8
BEZUGSACHSEN
100
AcDbLine
 62
7
  6
CONTINUOUS
 10
272.454338912
 20
162.1975116508
 11
272.4841549298
 21
162.2389319891
  0
LINE
  5
2C0
100
AcDbEntity
  8
BEZUGSACHSEN
100
AcDbLine
 62
7
  6
CONTINUOUS
 10
262.5020538519
 20
152.3880416876
 11
262.0893357011
 21
151.8246131594
  0
LINE
  5
2C1
100
AcDbEntity
  8
BEZUGSACHSEN
100
AcDbLine
 62
7
  6
CONTINUOUS
 10
249.6002851855
 20
150.6779762666
 11
250.1423567697
 21
151.2836597446
  0
LINE
  5
2C2
100
AcDbEntity
  8
BEZUGSACHSEN
100
AcDbLine
 62
7
  6
CONTINUOUS
 10
252.3106420729
 20
153.7063925017
 11
252.8527133987
 21
154.3120756909
  0
LINE
  5
2C3
100
AcDbEntity
  8
BEZUGSACHSEN
100
AcDbLine
 62
7
  6
CONTINUOUS
 10
256.2460261044
 20
147.6390665959
 11
256.6074071606
 21
148.0428555813
  0
LINE
  5
2C4
100
AcDbEntity
  8
BEZUGSACHSEN
100
AcDbLine
 62
7
  6
CONTINUOUS
 10
257.368414593
 20
147.3617729375
 11
257.0070335368
 21
146.9579839522
  0
LINE
  5
2C5
100
AcDbEntity
  8
BEZUGSACHSEN
100
AcDbLine
 62
7
  6
CONTINUOUS
 10
271.6960082089
 20
162.6242807892
 11
272.0084481816
 21
162.9349687424
  0
LINE
  5
2C6
100
AcDbEntity
  8
BEZUGSACHSEN
100
AcDbLine
 62
7
  6
CONTINUOUS
 10
247.1693089333
 20
147.3202379163
 11
247.6851997304
 21
147.7910288823
  0
LINE
  5
2C7
100
AcDbEntity
  8
BEZUGSACHSEN
100
AcDbLine
 62
7
  6
CONTINUOUS
 10
254.4796884702
 20
155.9068140597
 11
256.9823029689
 21
157.9823900855
  0
LINE
  5
2C8
100
AcDbEntity
  8
BEZUGSACHSEN
100
AcDbLine
 62
7
  6
CONTINUOUS
 10
255.7573036425
 20
155.6396089778
 11
257.6342645165
 21
157.1962909972
  0
LINE
  5
2C9
100
AcDbEntity
  8
BEZUGSACHSEN
100
AcDbLine
 62
7
  6
CONTINUOUS
 10
259.5604132033
 20
151.0540303201
 11
261.4373740773
 21
152.6107123395
  0
LINE
  5
2CA
100
AcDbEntity
  8
BEZUGSACHSEN
100
AcDbLine
 62
7
  6
CONTINUOUS
 10
262.0893357011
 20
151.8246131594
 11
259.5867212024
 21
149.7490371335
  0
LINE
  5
2CB
100
AcDbEntity
  8
BEZUGSACHSEN
100
AcDbLine
 62
7
  6
CONTINUOUS
 10
256.4284730359
 20
146.5667619243
 11
257.0070335368
 21
146.9579839522
  0
LINE
  5
2CC
100
AcDbEntity
  8
BEZUGSACHSEN
100
AcDbLine
 62
7
  6
CONTINUOUS
 10
247.9536999409
 20
146.9633166678
 11
248.3200021209
 21
147.2082012401
  0
LINE
  5
2CD
100
AcDbEntity
  8
0
100
AcDbLine
 62
7
  6
CONTINUOUS
 10
458.4841549298
 20
439.4003547945
 11
458.4841549298
 21
649.4003547945
  0
LINE
  5
2CE
100
AcDbEntity
  8
RUNDUNGEN
100
AcDbLine
 62
7
  6
CONTINUOUS
 10
339.4367424618
 20
62.5552780465
 11
335.1540279108
 21
55.13739885
  0
LINE
  5
2CF
100
AcDbEntity
  8
BEZUGSACHSEN
100
AcDbLine
 62
7
  6
CONTINUOUS
 10
330.8151339328
 20
141.8719429436
 11
330.2943432217
 21
141.2571519677
  0
LINE
  5
2D0
100
AcDbEntity
  8
BEZUGSACHSEN
100
AcDbLine
 62
7
  6
CONTINUOUS
 10
331.6023586096
 20
140.5951181319
 11
331.0815671478
 21
139.9803283737
  0
LINE
  5
2D1
100
AcDbEntity
  8
BEZUGSACHSEN
100
AcDbLine
 62
7
  6
CONTINUOUS
 10
315.8674630889
 20
145.5078382529
 11
324.6756703293
 21
153.6574078863
  0
LINE
  5
2D2
100
AcDbEntity
  8
BEZUGSACHSEN
100
AcDbLine
 62
7
  6
CONTINUOUS
 10
325.6943665335
 20
152.5563819813
 11
316.8861592931
 21
144.4068123478
  0
LINE
  5
2D3
100
AcDbEntity
  8
BEZUGSACHSEN
100
AcDbLine
 62
7
  6
CONTINUOUS
 10
311.3855966924
 20
149.4904926556
 11
321.6155497694
 21
156.9301202092
  0
LINE
  5
2D4
100
AcDbEntity
  8
BEZUGSACHSEN
100
AcDbLine
 62
7
  6
CONTINUOUS
 10
311.4623101376
 20
151.3182996791
 11
320.3949684375
 21
157.8020039241
  0
LINE
  5
2D5
100
AcDbEntity
  8
BEZUGSACHSEN
100
AcDbLine
 62
7
  6
CONTINUOUS
 10
255.7578110079
 20
147.3487919489
 11
256.2460261044
 21
147.6390665959
  0
LINE
  5
2D6
100
AcDbEntity
  8
BEZUGSACHSEN
100
AcDbLine
 62
7
  6
CONTINUOUS
 10
256.9823029689
 20
157.9823900855
 11
257.6123416451
 21
158.2837855728
  0
LINE
  5
2D7
100
AcDbEntity
  8
BEZUGSACHSEN
100
AcDbLine
 62
7
  6
CONTINUOUS
 10
257.6342645165
 20
157.1962909972
 11
258.1600267931
 21
157.4112034902
  0
LINE
  5
2D8
100
AcDbEntity
  8
BEZUGSACHSEN
100
AcDbLine
 62
7
  6
CONTINUOUS
 10
267.2768150721
 20
164.5031278142
 11
270.2889538356
 21
165.7271029929
  0
LINE
  5
2D9
100
AcDbEntity
  8
BEZUGSACHSEN
100
AcDbLine
 62
7
  6
CONTINUOUS
 10
268.3502366266
 20
164.0206663297
 11
270.7348474385
 21
164.9896470685
  0
LINE
  5
2DA
100
AcDbEntity
  8
BEZUGSACHSEN
100
AcDbLine
 62
7
  6
CONTINUOUS
 10
269.311397397
 20
161.6553000503
 11
271.6960082089
 21
162.6242807892
  0
LINE
  5
2DB
100
AcDbEntity
  8
BEZUGSACHSEN
100
AcDbLine
 62
7
  6
CONTINUOUS
 10
269.6958616334
 20
160.7091537153
 11
271.8294589666
 21
161.5761357444
  0
LINE
  5
2DC
100
AcDbEntity
  8
BEZUGSACHSEN
100
AcDbLine
 62
7
  6
CONTINUOUS
 10
271.0414866401
 20
157.3976411009
 11
270.2884519493
 21
157.0916473062
  0
LINE
  5
2DD
100
AcDbEntity
  8
0
100
AcDbLine
 62
7
  6
CONTINUOUS
 10
272.4841549298
 20
177.0393731091
 11
251.4021156048
 21
170.1894032956
  0
LINE
  5
2DE
100
AcDbEntity
  8
KONSTRUKTIONSELEMENTE
100
AcDbLine
 62
7
  6
CONTINUOUS
 10
322.9193365316
 20
-45.3698253854
 11
348.8767640591
 21
11.1200496196
  0
LINE
  5
2DF
100
AcDbEntity
  8
KONSTRUKTIONSELEMENTE
100
AcDbLine
 62
7
  6
CONTINUOUS
 10
339.9814860543
 20
-58.5797105876
 11
340.443392952
 21
-57.5744852859
  0
LINE
  5
2E0
100
AcDbEntity
  8
KONSTRUKTIONSELEMENTE
100
AcDbLine
 62
7
  6
CONTINUOUS
 10
373.1991943558
 20
13.7103569823
 11
373.8172283445
 21
15.0553540062
  0
LINE
  5
2E1
100
AcDbEntity
  8
BEZUGSACHSEN
100
AcDbLine
 62
7
  6
CONTINUOUS
 10
318.4030787477
 20
143.0302338725
 11
328.6176674998
 21
149.328025281
  0
LINE
  5
2E2
100
AcDbEntity
  8
BEZUGSACHSEN
100
AcDbLine
 62
7
  6
CONTINUOUS
 10
319.1903026738
 20
141.7534102785
 11
323.7542679257
 21
144.567317118
  0
LINE
  5
2E3
100
AcDbEntity
  8
BEZUGSACHSEN
100
AcDbLine
 62
7
  6
CONTINUOUS
 10
325.0582578237
 20
145.3712903934
 11
328.3182331776
 21
147.3812239574
  0
LINE
  5
2E4
100
AcDbEntity
  8
BEZUGSACHSEN
100
AcDbLine
 62
7
  6
CONTINUOUS
 10
330.2943432217
 20
141.2571519677
 11
329.6423476639
 21
140.8551649546
  0
LINE
  5
2E5
100
AcDbEntity
  8
BEZUGSACHSEN
100
AcDbLine
 62
7
  6
CONTINUOUS
 10
331.0815671478
 20
139.9803283737
 11
330.2122399403
 21
139.4443458146
  0
LINE
  5
2E6
100
AcDbEntity
  8
BEZUGSACHSEN
100
AcDbLine
 62
7
  6
CONTINUOUS
 10
255.8134228319
 20
146.3900004902
 11
256.4284730359
 21
146.5667619243
  0
LINE
  5
2E7
100
AcDbEntity
  8
BEZUGSACHSEN
100
AcDbLine
 62
7
  6
CONTINUOUS
 10
324.4750700793
 20
11.2219919654
 11
333.7822882591
 21
22.3139026682
  0
LINE
  5
2E8
100
AcDbEntity
  8
KONSTRUKTIONSELEMENTE
100
AcDbLine
 62
7
  6
CONTINUOUS
 10
553.2475882016
 20
-88.2144356188
 11
556.7831221076
 21
-91.7499695247
  0
LINE
  5
2E9
100
AcDbEntity
  8
KONSTRUKTIONSELEMENTE
100
AcDbLine
 62
7
  6
CONTINUOUS
 10
585.067393355
 20
-63.4656982772
 11
584.3602865739
 21
-62.7585914961
  0
LINE
  5
2EA
100
AcDbEntity
  8
KONSTRUKTIONSELEMENTE
100
AcDbLine
 62
7
  6
CONTINUOUS
 10
582.2389662303
 20
-60.6372711525
 11
581.5318594491
 21
-59.9301643713
  0
LINE
  5
2EB
100
AcDbEntity
  8
BEZUGSACHSEN
100
AcDbLine
 62
7
  6
CONTINUOUS
 10
831.8979125208
 20
62.5552780465
 11
821.8979125208
 21
62.5552780465
  0
LINE
  5
2EC
100
AcDbEntity
  8
BEZUGSACHSEN
100
AcDbLine
 62
7
  6
CONTINUOUS
 10
821.0809342001
 20
71.4299026832
 11
832.7148908416
 21
71.4299026832
  0
LINE
  5
2ED
100
AcDbEntity
  8
KONSTRUKTIONSELEMENTE
100
AcDbLine
 62
7
  6
CONTINUOUS
 10
647.7499175901
 20
-0.7831740422
 11
647.0428108089
 21
-0.076067261
  0
LINE
  5
2EE
100
AcDbEntity
  8
KONSTRUKTIONSELEMENTE
100
AcDbLine
 62
7
  6
CONTINUOUS
 10
644.2143836842
 20
2.7523598638
 11
644.9214904654
 21
2.0452530826
  0
LINE
  5
2EF
100
AcDbEntity
  8
KONSTRUKTIONSELEMENTE
100
AcDbLine
 62
7
  6
CONTINUOUS
 10
661.3292038917
 20
17.2723705574
 11
662.2699282838
 21
16.3316461653
  0
LINE
  5
2F0
100
AcDbEntity
  8
BEZUGSACHSEN
100
AcDbLine
 62
7
  6
CONTINUOUS
 10
821.0809342001
 20
103.5161501514
 11
832.7148908416
 21
103.5161501514
  0
LINE
  5
2F1
100
AcDbEntity
  8
BEZUGSACHSEN
100
AcDbLine
 62
7
  6
CONTINUOUS
 10
821.4984759529
 20
138.6455365685
 11
832.2973490888
 21
138.6455365685
  0
LINE
  5
2F2
100
AcDbEntity
  8
BEZUGSACHSEN
100
AcDbLine
 62
7
  6
CONTINUOUS
 10
840.3387577702
 20
140.1925436902
 11
841.058165638
 21
140.1925436902
  0
LINE
  5
2F3
100
AcDbEntity
  8
BEZUGSACHSEN
100
AcDbLine
 62
7
  6
CONTINUOUS
 10
686.1836630647
 20
44.7216392443
 11
689.7191969707
 21
41.1861053384
  0
LINE
  5
2F4
100
AcDbEntity
  8
KONSTRUKTIONSELEMENTE
100
AcDbLine
 62
7
  6
CONTINUOUS
 10
682.4359971244
 20
53.7726060435
 11
687.3857445927
 21
48.8228585752
  0
LINE
  5
2F5
100
AcDbEntity
  8
KONSTRUKTIONSELEMENTE
100
AcDbLine
 62
7
  6
CONTINUOUS
 10
682.789550515
 20
54.1261594341
 11
687.7392979833
 21
49.1764119658
  0
LINE
  5
2F6
100
AcDbEntity
  8
BEZUGSACHSEN
100
AcDbLine
 62
7
  6
CONTINUOUS
 10
840.3536332656
 20
143.694091016
 11
841.1031812915
 21
143.694091016
  0
LINE
  5
2F7
100
AcDbEntity
  8
BEZUGSACHSEN
100
AcDbLine
 62
7
  6
CONTINUOUS
 10
837.2958439937
 20
144.6093624839
 11
837.995159297
 21
144.6093624839
  0
LINE
  5
2F8
100
AcDbEntity
  8
BEZUGSACHSEN
100
AcDbLine
 62
7
  6
CONTINUOUS
 10
838.6253092256
 20
145.5536935533
 11
839.3430377733
 21
145.5536935533
  0
LINE
  5
2F9
100
AcDbEntity
  8
BEZUGSACHSEN
100
AcDbLine
 62
7
  6
CONTINUOUS
 10
838.5565919721
 20
145.9865278391
 11
839.2765939695
 21
145.9865278391
  0
LINE
  5
2FA
100
AcDbEntity
  8
BEZUGSACHSEN
100
AcDbLine
 62
7
  6
CONTINUOUS
 10
840.1836256991
 20
146.3900004902
 11
840.9273269067
 21
146.3900004902
  0
LINE
  5
2FB
100
AcDbEntity
  8
BEZUGSACHSEN
100
AcDbLine
 62
7
  6
CONTINUOUS
 10
838.4229691244
 20
146.4003839464
 11
839.1444388554
 21
146.4003839464
  0
LINE
  5
2FC
100
AcDbEntity
  8
BEZUGSACHSEN
100
AcDbLine
 62
7
  6
CONTINUOUS
 10
839.9164620711
 20
146.440267165
 11
840.6547239364
 21
146.440267165
  0
LINE
  5
2FD
100
AcDbEntity
  8
BEZUGSACHSEN
100
AcDbLine
 62
7
  6
CONTINUOUS
 10
839.6502599316
 20
146.6924277947
 11
840.3871980256
 21
146.6924277947
  0
LINE
  5
2FE
100
AcDbEntity
  8
BEZUGSACHSEN
100
AcDbLine
 62
7
  6
CONTINUOUS
 10
838.3629627258
 20
146.7952615519
 11
838.9474926634
 21
146.7952615519
  0
LINE
  5
2FF
100
AcDbEntity
  8
BEZUGSACHSEN
100
AcDbLine
 62
7
  6
CONTINUOUS
 10
838.3930122195
 20
147.0771863854
 11
838.7515151526
 21
147.0771863854
  0
LINE
  5
300
100
AcDbEntity
  8
BEZUGSACHSEN
100
AcDbLine
 62
7
  6
CONTINUOUS
 10
839.3212550658
 20
147.1590492075
 11
840.0577228541
 21
147.1590492075
  0
LINE
  5
301
100
AcDbEntity
  8
BEZUGSACHSEN
100
AcDbLine
 62
7
  6
CONTINUOUS
 10
837.3194981178
 20
147.3202379163
 11
838.0363310947
 21
147.3202379163
  0
LINE
  5
302
100
AcDbEntity
  8
BEZUGSACHSEN
100
AcDbLine
 62
7
  6
CONTINUOUS
 10
840.4309407469
 20
147.3487919489
 11
840.6770562443
 21
147.3487919489
  0
LINE
  5
303
100
AcDbEntity
  8
BEZUGSACHSEN
100
AcDbLine
 62
7
  6
CONTINUOUS
 10
840.1702083252
 20
147.6390665959
 11
840.7480207186
 21
147.6390665959
  0
LINE
  5
304
100
AcDbEntity
  8
BEZUGSACHSEN
100
AcDbLine
 62
7
  6
CONTINUOUS
 10
837.3795301524
 20
147.7910288823
 11
838.0999415088
 21
147.7910288823
  0
LINE
  5
305
100
AcDbEntity
  8
BEZUGSACHSEN
100
AcDbLine
 62
7
  6
CONTINUOUS
 10
837.5686200136
 20
147.9609167764
 11
838.2919477346
 21
147.9609167764
  0
LINE
  5
306
100
AcDbEntity
  8
BEZUGSACHSEN
100
AcDbLine
 62
7
  6
CONTINUOUS
 10
839.999812684
 20
148.0428555813
 11
840.751031216
 21
148.0428555813
  0
LINE
  5
307
100
AcDbEntity
  8
BEZUGSACHSEN
100
AcDbLine
 62
7
  6
CONTINUOUS
 10
839.9318659415
 20
148.5601583274
 11
840.6860502324
 21
148.5601583274
  0
LINE
  5
308
100
AcDbEntity
  8
BEZUGSACHSEN
100
AcDbLine
 62
7
  6
CONTINUOUS
 10
839.7975715338
 20
149.090027523
 11
840.553918035
 21
149.090027523
  0
LINE
  5
309
100
AcDbEntity
  8
BEZUGSACHSEN
100
AcDbLine
 62
7
  6
CONTINUOUS
 10
840.8896484121
 20
149.4904926556
 11
841.8975180022
 21
149.4904926556
  0
LINE
  5
30A
100
AcDbEntity
  8
BEZUGSACHSEN
100
AcDbLine
 62
7
  6
CONTINUOUS
 10
839.598434223
 20
149.632463009
 11
840.356152284
 21
149.632463009
  0
LINE
  5
30B
100
AcDbEntity
  8
BEZUGSACHSEN
100
AcDbLine
 62
7
  6
CONTINUOUS
 10
840.5640154105
 20
149.7490371335
 11
841.1273958443
 21
149.7490371335
  0
LINE
  5
30C
100
AcDbEntity
  8
BEZUGSACHSEN
100
AcDbLine
 62
7
  6
CONTINUOUS
 10
839.335416816
 20
150.1874654426
 11
840.0937400965
 21
150.1874654426
  0
LINE
  5
30D
100
AcDbEntity
  8
BEZUGSACHSEN
100
AcDbLine
 62
7
  6
CONTINUOUS
 10
841.1592468486
 20
150.6530042061
 11
841.89769877
 21
150.6530042061
  0
LINE
  5
30E
100
AcDbEntity
  8
BEZUGSACHSEN
100
AcDbLine
 62
7
  6
CONTINUOUS
 10
837.2984473341
 20
150.6779762666
 11
838.0365357986
 21
150.6779762666
  0
LINE
  5
30F
100
AcDbEntity
  8
BEZUGSACHSEN
100
AcDbLine
 62
7
  6
CONTINUOUS
 10
837.3111172859
 20
151.2836597446
 11
838.0532122183
 21
151.2836597446
  0
LINE
  5
310
100
AcDbEntity
  8
BEZUGSACHSEN
100
AcDbLine
 62
7
  6
CONTINUOUS
 10
839.9988302079
 20
152.6107123395
 11
840.7841289305
 21
152.6107123395
  0
LINE
  5
311
100
AcDbEntity
  8
BEZUGSACHSEN
100
AcDbLine
 62
7
  6
CONTINUOUS
 10
839.929582987
 20
153.087657862
 11
840.7173916908
 21
153.087657862
  0
LINE
  5
312
100
AcDbEntity
  8
BEZUGSACHSEN
100
AcDbLine
 62
7
  6
CONTINUOUS
 10
839.7943364606
 20
153.6091379864
 11
840.5839609742
 21
153.6091379864
  0
LINE
  5
313
100
AcDbEntity
  8
BEZUGSACHSEN
100
AcDbLine
 62
7
  6
CONTINUOUS
 10
837.3111172811
 20
153.7063925017
 11
838.0687183708
 21
153.7063925017
  0
LINE
  5
314
100
AcDbEntity
  8
BEZUGSACHSEN
100
AcDbLine
 62
7
  6
CONTINUOUS
 10
839.594597888
 20
154.1751525293
 11
840.3853617923
 21
154.1751525293
  0
LINE
  5
315
100
AcDbEntity
  8
BEZUGSACHSEN
100
AcDbLine
 62
7
  6
CONTINUOUS
 10
837.2984473341
 20
154.3120756909
 11
838.0597793631
 21
154.3120756909
  0
LINE
  5
316
100
AcDbEntity
  8
BEZUGSACHSEN
100
AcDbLine
 62
7
  6
CONTINUOUS
 10
839.3313244522
 20
154.7857005927
 11
840.1225762928
 21
154.7857005927
  0
LINE
  5
317
100
AcDbEntity
  8
BEZUGSACHSEN
100
AcDbLine
 62
7
  6
CONTINUOUS
 10
837.293100318
 20
155.9068140597
 11
838.0645760877
 21
155.9068140597
  0
LINE
  5
318
100
AcDbEntity
  8
BEZUGSACHSEN
100
AcDbLine
 62
7
  6
CONTINUOUS
 10
838.4952483362
 20
156.7509484971
 11
839.1429448614
 21
156.7509484971
  0
LINE
  5
319
100
AcDbEntity
  8
BEZUGSACHSEN
100
AcDbLine
 62
7
  6
CONTINUOUS
 10
840.3387577815
 20
157.0916473062
 11
841.1845448558
 21
157.0916473062
  0
LINE
  5
31A
100
AcDbEntity
  8
BEZUGSACHSEN
100
AcDbLine
 62
7
  6
CONTINUOUS
 10
838.4972794417
 20
157.1885325515
 11
838.8831321467
 21
157.1885325515
  0
LINE
  5
31B
100
AcDbEntity
  8
BEZUGSACHSEN
100
AcDbLine
 62
7
  6
CONTINUOUS
 10
837.3201321098
 20
157.9823900855
 11
838.1052481526
 21
157.9823900855
  0
LINE
  5
31C
100
AcDbEntity
  8
BEZUGSACHSEN
100
AcDbLine
 62
7
  6
CONTINUOUS
 10
837.3808728004
 20
158.2837855728
 11
838.1687162696
 21
158.2837855728
  0
LINE
  5
31D
100
AcDbEntity
  8
BEZUGSACHSEN
100
AcDbLine
 62
7
  6
CONTINUOUS
 10
837.5052499883
 20
158.3676815511
 11
838.2952787142
 21
158.3676815511
  0
LINE
  5
31E
100
AcDbEntity
  8
BEZUGSACHSEN
100
AcDbLine
 62
7
  6
CONTINUOUS
 10
840.6781884377
 20
158.6726156344
 11
841.2130444959
 21
158.6726156344
  0
LINE
  5
31F
100
AcDbEntity
  8
BEZUGSACHSEN
100
AcDbLine
 62
7
  6
CONTINUOUS
 10
840.8074197956
 20
159.8755009792
 11
841.2317586679
 21
159.8755009792
  0
LINE
  5
320
100
AcDbEntity
  8
BEZUGSACHSEN
100
AcDbLine
 62
7
  6
CONTINUOUS
 10
840.8040916218
 20
159.8826330857
 11
841.165096902
 21
159.8826330857
  0
LINE
  5
321
100
AcDbEntity
  8
BEZUGSACHSEN
100
AcDbLine
 62
7
  6
CONTINUOUS
 10
840.7086072445
 20
160.0869328788
 11
841.0279301884
 21
160.0869328788
  0
LINE
  5
322
100
AcDbEntity
  8
BEZUGSACHSEN
100
AcDbLine
 62
7
  6
CONTINUOUS
 10
841.2150143694
 20
160.2491624353
 11
841.2353055589
 21
160.2491624353
  0
LINE
  5
323
100
AcDbEntity
  8
BEZUGSACHSEN
100
AcDbLine
 62
7
  6
CONTINUOUS
 10
841.1378637052
 20
160.5832012073
 11
841.1731375893
 21
160.5832012073
  0
LINE
  5
324
100
AcDbEntity
  8
BEZUGSACHSEN
100
AcDbLine
 62
7
  6
CONTINUOUS
 10
840.4581462622
 20
160.6222242627
 11
840.7562666677
 21
160.6222242627
  0
LINE
  5
325
100
AcDbEntity
  8
BEZUGSACHSEN
100
AcDbLine
 62
7
  6
CONTINUOUS
 10
841.0298610396
 20
160.9001344965
 11
841.2146354746
 21
160.9001344965
  0
LINE
  5
326
100
AcDbEntity
  8
BEZUGSACHSEN
100
AcDbLine
 62
7
  6
CONTINUOUS
 10
840.6405475137
 20
161.1535280851
 11
840.8468932028
 21
161.1535280851
  0
LINE
  5
327
100
AcDbEntity
  8
BEZUGSACHSEN
100
AcDbLine
 62
7
  6
CONTINUOUS
 10
840.9346200384
 20
161.2198650142
 11
841.2168889113
 21
161.2198650142
  0
LINE
  5
328
100
AcDbEntity
  8
BEZUGSACHSEN
100
AcDbLine
 62
7
  6
CONTINUOUS
 10
840.1774150548
 20
161.2208601682
 11
840.4891536814
 21
161.2208601682
  0
LINE
  5
329
100
AcDbEntity
  8
BEZUGSACHSEN
100
AcDbLine
 62
7
  6
CONTINUOUS
 10
840.5008833029
 20
161.4457146128
 11
840.7775217074
 21
161.4457146128
  0
LINE
  5
32A
100
AcDbEntity
  8
BEZUGSACHSEN
100
AcDbLine
 62
7
  6
CONTINUOUS
 10
840.3170480588
 20
161.8717237253
 11
840.6421534327
 21
161.8717237253
  0
LINE
  5
32B
100
AcDbEntity
  8
BEZUGSACHSEN
100
AcDbLine
 62
7
  6
CONTINUOUS
 10
839.8034197016
 20
162.0166650652
 11
840.1598187757
 21
162.0166650652
  0
LINE
  5
32C
100
AcDbEntity
  8
BEZUGSACHSEN
100
AcDbLine
 62
7
  6
CONTINUOUS
 10
840.630049622
 20
162.0690979592
 11
840.8957703639
 21
162.0690979592
  0
LINE
  5
32D
100
AcDbEntity
  8
BEZUGSACHSEN
100
AcDbLine
 62
7
  6
CONTINUOUS
 10
840.1008516904
 20
162.3998829593
 11
840.4443722846
 21
162.3998829593
  0
LINE
  5
32E
100
AcDbEntity
  8
BEZUGSACHSEN
100
AcDbLine
 62
7
  6
CONTINUOUS
 10
839.0425916985
 20
162.6242807892
 11
839.4605929605
 21
162.6242807892
  0
LINE
  5
32F
100
AcDbEntity
  8
BEZUGSACHSEN
100
AcDbLine
 62
7
  6
CONTINUOUS
 10
838.9139845877
 20
162.9349687424
 11
839.392866137
 21
162.9349687424
  0
LINE
  5
330
100
AcDbEntity
  8
BEZUGSACHSEN
100
AcDbLine
 62
7
  6
CONTINUOUS
 10
838.7412101393
 20
163.3523483965
 11
839.2598715769
 21
163.3523483965
  0
LINE
  5
331
100
AcDbEntity
  8
BEZUGSACHSEN
100
AcDbLine
 62
7
  6
CONTINUOUS
 10
839.6911049334
 20
163.4387921615
 11
839.9327922229
 21
163.4387921615
  0
LINE
  5
332
100
AcDbEntity
  8
BEZUGSACHSEN
100
AcDbLine
 62
7
  6
CONTINUOUS
 10
838.524265298
 20
163.8764209189
 11
839.062534725
 21
163.8764209189
  0
LINE
  5
333
100
AcDbEntity
  8
BEZUGSACHSEN
100
AcDbLine
 62
7
  6
CONTINUOUS
 10
838.4755005668
 20
164.3494945282
 11
838.8665952257
 21
164.3494945282
  0
LINE
  5
334
100
AcDbEntity
  8
BEZUGSACHSEN
100
AcDbLine
 62
7
  6
CONTINUOUS
 10
839.2994560353
 20
164.431764716
 11
839.5407776431
 21
164.431764716
  0
LINE
  5
335
100
AcDbEntity
  8
BEZUGSACHSEN
100
AcDbLine
 62
7
  6
CONTINUOUS
 10
838.9199969611
 20
164.4990966831
 11
839.1816636738
 21
164.4990966831
  0
LINE
  5
336
100
AcDbEntity
  8
BEZUGSACHSEN
100
AcDbLine
 62
7
  6
CONTINUOUS
 10
837.2958440051
 20
164.5031278142
 11
838.122470476
 21
164.5031278142
  0
LINE
  5
337
100
AcDbEntity
  8
BEZUGSACHSEN
100
AcDbLine
 62
7
  6
CONTINUOUS
 10
838.4813986638
 20
164.7715683408
 11
838.6720087561
 21
164.7715683408
  0
LINE
  5
338
100
AcDbEntity
  8
BEZUGSACHSEN
100
AcDbLine
 62
7
  6
CONTINUOUS
 10
839.1166841671
 20
164.9068554419
 11
839.5162989802
 21
164.9068554419
  0
LINE
  5
339
100
AcDbEntity
  8
BEZUGSACHSEN
100
AcDbLine
 62
7
  6
CONTINUOUS
 10
838.5118090943
 20
165.3582465073
 11
838.8586008962
 21
165.3582465073
  0
LINE
  5
33A
100
AcDbEntity
  8
BEZUGSACHSEN
100
AcDbLine
 62
7
  6
CONTINUOUS
 10
837.3194981148
 20
165.7271029929
 11
838.1543537128
 21
165.7271029929
  0
LINE
  5
33B
100
AcDbEntity
  8
BEZUGSACHSEN
100
AcDbLine
 62
7
  6
CONTINUOUS
 10
837.3795301585
 20
165.8244063768
 11
838.2159524514
 21
165.8244063768
  0
LINE
  5
33C
100
AcDbEntity
  8
BEZUGSACHSEN
100
AcDbLine
 62
7
  6
CONTINUOUS
 10
838.7104103155
 20
166.0665830869
 11
839.2800209273
 21
166.0665830869
  0
LINE
  5
33D
100
AcDbEntity
  8
BEZUGSACHSEN
100
AcDbLine
 62
7
  6
CONTINUOUS
 10
837.7589914624
 20
166.0835741237
 11
838.6032109384
 21
166.0835741237
  0
LINE
  5
33E
100
AcDbEntity
  8
BEZUGSACHSEN
100
AcDbLine
 62
7
  6
CONTINUOUS
 10
838.6691032713
 20
166.2062779832
 11
838.942570834
 21
166.2062779832
  0
LINE
  5
33F
100
AcDbEntity
  8
BEZUGSACHSEN
100
AcDbLine
 62
7
  6
CONTINUOUS
 10
838.5596572923
 20
166.6710917674
 11
838.7483816166
 21
166.6710917674
  0
LINE
  5
340
100
AcDbEntity
  8
BEZUGSACHSEN
100
AcDbLine
 62
7
  6
CONTINUOUS
 10
838.7941054854
 20
166.7282066089
 11
839.0153679148
 21
166.7282066089
  0
LINE
  5
341
100
AcDbEntity
  8
BEZUGSACHSEN
100
AcDbLine
 62
7
  6
CONTINUOUS
 10
837.5061569052
 20
166.8722462036
 11
838.3513930444
 21
166.8722462036
  0
LINE
  5
342
100
AcDbEntity
  8
BEZUGSACHSEN
100
AcDbLine
 62
7
  6
CONTINUOUS
 10
838.5602149897
 20
166.9070644737
 11
838.6219830888
 21
166.9070644737
  0
LINE
  5
343
100
AcDbEntity
  8
BEZUGSACHSEN
100
AcDbLine
 62
7
  6
CONTINUOUS
 10
838.6559243956
 20
167.0679002152
 11
838.8847735334
 21
167.0679002152
  0
LINE
  5
344
100
AcDbEntity
  8
BEZUGSACHSEN
100
AcDbLine
 62
7
  6
CONTINUOUS
 10
838.5636224663
 20
167.2810538937
 11
838.8861996852
 21
167.2810538937
  0
LINE
  5
345
100
AcDbEntity
  8
BEZUGSACHSEN
100
AcDbLine
 62
7
  6
CONTINUOUS
 10
838.5427691864
 20
167.3254608423
 11
838.8757086151
 21
167.3254608423
  0
LINE
  5
346
100
AcDbEntity
  8
BEZUGSACHSEN
100
AcDbLine
 62
7
  6
CONTINUOUS
 10
837.3814911579
 20
167.329928157
 11
838.2276628486
 21
167.329928157
  0
LINE
  5
347
100
AcDbEntity
  8
BEZUGSACHSEN
100
AcDbLine
 62
7
  6
CONTINUOUS
 10
837.3203962735
 20
167.6537869164
 11
838.1676627753
 21
167.6537869164
  0
LINE
  5
348
100
AcDbEntity
  8
BEZUGSACHSEN
100
AcDbLine
 62
7
  6
CONTINUOUS
 10
837.3191283095
 20
167.938841352
 11
838.1682088975
 21
167.938841352
  0
LINE
  5
349
100
AcDbEntity
  8
BEZUGSACHSEN
100
AcDbLine
 62
7
  6
CONTINUOUS
 10
837.7601629961
 20
167.9959658353
 11
838.6170064275
 21
167.9959658353
  0
LINE
  5
34A
100
AcDbEntity
  8
BEZUGSACHSEN
100
AcDbLine
 62
7
  6
CONTINUOUS
 10
837.5070283474
 20
168.6398264153
 11
838.3637714442
 21
168.6398264153
  0
LINE
  5
34B
100
AcDbEntity
  8
BEZUGSACHSEN
100
AcDbLine
 62
7
  6
CONTINUOUS
 10
837.3820742187
 20
168.9439938649
 11
838.238680532
 21
168.9439938649
  0
LINE
  5
34C
100
AcDbEntity
  8
BEZUGSACHSEN
100
AcDbLine
 62
7
  6
CONTINUOUS
 10
837.3591405203
 20
169.0516707427
 11
838.1774681112
 21
169.0516707427
  0
LINE
  5
34D
100
AcDbEntity
  8
BEZUGSACHSEN
100
AcDbLine
 62
7
  6
CONTINUOUS
 10
821.4984759529
 20
170.1894032956
 11
832.2973490888
 21
170.1894032956
  0
LINE
  5
34E
100
AcDbEntity
  8
RUNDUNGEN
100
AcDbLine
 62
7
  6
CONTINUOUS
 10
844.3782210692
 20
90.3297221961
 11
844.143519807
 21
90.4088992639
  0
LINE
  5
34F
100
AcDbEntity
  8
RUNDUNGEN
100
AcDbLine
 62
7
  6
CONTINUOUS
 10
844.143519807
 20
90.4088992639
 11
843.6137619262
 21
90.6382260903
  0
LINE
  5
350
100
AcDbEntity
  8
BEZUGSACHSEN
100
AcDbLine
 62
7
  6
CONTINUOUS
 10
832.2973490888
 20
182.2380882488
 11
821.4984759529
 21
182.2380882488
  0
LINE
  5
351
100
AcDbEntity
  8
RUNDUNGEN
100
AcDbLine
 62
7
  6
CONTINUOUS
 10
843.6206357905
 20
90.6348115728
 11
843.1032424117
 21
90.9346855301
  0
LINE
  5
352
100
AcDbEntity
  8
KONSTRUKTIONSELEMENTE
100
AcDbLine
 62
7
  6
CONTINUOUS
 10
735.4690057134
 20
106.8056146325
 11
740.4187531817
 21
101.8558671642
  0
LINE
  5
353
100
AcDbEntity
  8
KONSTRUKTIONSELEMENTE
100
AcDbLine
 62
7
  6
CONTINUOUS
 10
735.822559104
 20
107.1591680231
 11
740.7723065723
 21
102.2094205548
  0
LWPOLYLINE
  5
354
100
AcDbEntity
  8
RUNDUNGEN
100
AcDbPolyline
 62
7
  6
CONTINUOUS
 90
8
 70
0
 10
843.1139102831
 20
90.9276781415
 10
842.6312011248
 20
91.2898971997
 10
842.2108835831
 20
91.6920514335
 10
841.849358459
 20
92.1287339185
 10
841.5520838522
 20
92.5832228662
 10
841.3162535084
 20
93.0457891634
 10
841.1385417435
 20
93.5063095025
 10
841.014969135
 20
93.9525310822
  0
LWPOLYLINE
  5
355
100
AcDbEntity
  8
RUNDUNGEN
100
AcDbPolyline
 62
7
  6
CONTINUOUS
 90
7
 70
0
 10
842.6453667458
 20
91.2779513785
 10
842.2281343668
 20
91.6736418882
 10
841.8681857522
 20
92.1033737173
 10
841.5704152828
 20
92.5518533723
 10
841.3325601159
 20
93.0096105076
 10
841.1516405289
 20
93.467121669
 10
841.024312531
 20
93.9120849119
  0
LINE
  5
356
100
AcDbEntity
  8
BEZUGSACHSEN
100
AcDbLine
 62
7
  6
CONTINUOUS
 10
802.0537644549
 20
23.9623883844
 11
798.6510496036
 21
29.438339643
  0
LINE
  5
357
100
AcDbEntity
  8
RUNDUNGEN
100
AcDbLine
 62
7
  6
CONTINUOUS
 10
853.8882935776
 20
59.631116908
 11
844.3506655341
 21
76.1507732631
  0
LINE
  5
358
100
AcDbEntity
  8
0
100
AcDbLine
 62
7
  6
CONTINUOUS
 10
757.3979125208
 20
181.9003547945
 11
757.3979125208
 21
276.9003547945
  0
LINE
  5
359
100
AcDbEntity
  8
0
100
AcDbLine
 62
7
  6
CONTINUOUS
 10
832.2973490888
 20
182.2380882488
 11
837.7863157006
 21
167.938841352
  0
LINE
  5
35A
100
AcDbEntity
  8
0
100
AcDbLine
 62
7
  6
CONTINUOUS
 10
789.3979125208
 20
181.9003547945
 11
789.3979125208
 21
276.9003547945
  0
LINE
  5
35B
100
AcDbEntity
  8
RUNDUNGEN
100
AcDbLine
 62
7
  6
CONTINUOUS
 10
841.024312531
 20
93.9120849119
 11
840.9661486145
 21
94.1979899475
  0
LINE
  5
35C
100
AcDbEntity
  8
RUNDUNGEN
100
AcDbLine
 62
7
  6
CONTINUOUS
 10
840.966148804
 20
94.1979899811
 11
840.9638934835
 21
94.2111592382
  0
LINE
  5
35D
100
AcDbEntity
  8
BEZUGSACHSEN
100
AcDbLine
 62
7
  6
CONTINUOUS
 10
821.8979125208
 20
62.5552780465
 11
821.4913090923
 21
65.2180932814
  0
LINE
  5
35E
100
AcDbEntity
  8
RUNDUNGEN
100
AcDbLine
 62
7
  6
CONTINUOUS
 10
840.9428483222
 20
94.3477976473
 11
840.9203940111
 21
94.562383093
  0
LINE
  5
35F
100
AcDbEntity
  8
BEZUGSACHSEN
100
AcDbLine
 62
7
  6
CONTINUOUS
 10
821.0182944074
 20
104.1906746239
 11
821.0809342001
 21
103.5161501514
  0
LINE
  5
360
100
AcDbEntity
  8
BEZUGSACHSEN
100
AcDbLine
 62
7
  6
CONTINUOUS
 10
821.2842879914
 20
67.2718456378
 11
821.0809342001
 21
71.4299026832
  0
LINE
  5
361
100
AcDbEntity
  8
BEZUGSACHSEN
100
AcDbLine
 62
7
  6
CONTINUOUS
 10
797.8979125208
 20
32.0773082601
 11
797.8979125208
 21
52.131116908
  0
LINE
  5
362
100
AcDbEntity
  8
0
100
AcDbLine
 62
7
  6
CONTINUOUS
 10
804.3979125208
 20
796.8355781795
 11
804.3979125208
 21
291.9651314094
  0
LINE
  5
363
100
AcDbEntity
  8
BEZUGSACHSEN
100
AcDbLine
 62
7
  6
CONTINUOUS
 10
805.8979125208
 20
85.5538781204
 11
805.8979125208
 21
74.0259991415
  0
LINE
  5
364
100
AcDbEntity
  8
BEZUGSACHSEN
100
AcDbLine
 62
7
  6
CONTINUOUS
 10
812.8979125208
 20
157.6087859626
 11
812.8979125208
 21
94.341890926
  0
LINE
  5
365
100
AcDbEntity
  8
BEZUGSACHSEN
100
AcDbLine
 62
7
  6
CONTINUOUS
 10
821.0809342001
 20
103.5161501514
 11
821.0809342001
 21
71.4299026832
  0
LINE
  5
366
100
AcDbEntity
  8
BEZUGSACHSEN
100
AcDbLine
 62
7
  6
CONTINUOUS
 10
821.8979125208
 20
62.5552780465
 11
821.8979125208
 21
59.9496392284
  0
LINE
  5
367
100
AcDbEntity
  8
RUNDUNGEN
100
AcDbLine
 62
7
  6
CONTINUOUS
 10
840.9650990421
 20
94.2041185167
 11
840.9428483222
 21
94.3477976473
  0
LWPOLYLINE
  5
368
100
AcDbEntity
  8
RUNDUNGEN
100
AcDbPolyline
 62
7
  6
CONTINUOUS
 90
3
 70
0
 10
840.9638741316
 20
94.2111559613
 10
840.9380758073
 20
94.3827577952
 10
840.9078421644
 20
94.6898944145
  0
LINE
  5
369
100
AcDbEntity
  8
RUNDUNGEN
100
AcDbLine
 62
7
  6
CONTINUOUS
 10
831.8979125208
 20
62.5552780465
 11
831.8979125208
 21
59.9496392284
  0
LINE
  5
36A
100
AcDbEntity
  8
0
100
AcDbLine
 62
7
  6
CONTINUOUS
 10
832.7148908416
 20
103.5161501514
 11
832.7148908416
 21
71.4299026832
  0
LINE
  5
36B
100
AcDbEntity
  8
BEZUGSACHSEN
100
AcDbLine
 62
7
  6
CONTINUOUS
 10
840.8979125208
 20
157.0916473062
 11
840.8979125208
 21
153.2405126584
  0
LINE
  5
36C
100
AcDbEntity
  8
BEZUGSACHSEN
100
AcDbLine
 62
7
  6
CONTINUOUS
 10
840.8979125208
 20
149.7490371335
 11
840.8979125208
 21
148.7597426965
  0
LINE
  5
36D
100
AcDbEntity
  8
BEZUGSACHSEN
100
AcDbLine
 62
7
  6
CONTINUOUS
 10
840.8979125208
 20
146.3900004902
 11
840.8979125208
 21
144.6337619555
  0
LINE
  5
36E
100
AcDbEntity
  8
BEZUGSACHSEN
100
AcDbLine
 62
7
  6
CONTINUOUS
 10
840.8979125208
 20
143.694091016
 11
840.8979125208
 21
141.1319646474
  0
LINE
  5
36F
100
AcDbEntity
  8
BEZUGSACHSEN
100
AcDbLine
 62
7
  6
CONTINUOUS
 10
840.8979125208
 20
140.1925436902
 11
840.8979125208
 21
109.8464182245
  0
LINE
  5
370
100
AcDbEntity
  8
RUNDUNGEN
100
AcDbLine
 62
7
  6
CONTINUOUS
 10
840.8979125208
 20
109.8464181687
 11
840.8979125208
 21
94.341890926
  0
LINE
  5
371
100
AcDbEntity
  8
RUNDUNGEN
100
AcDbLine
 62
7
  6
CONTINUOUS
 10
847.8979125208
 20
74.0259991415
 11
847.8979125208
 21
85.5538781204
  0
LINE
  5
372
100
AcDbEntity
  8
0
100
AcDbLine
 62
7
  6
CONTINUOUS
 10
849.3979125208
 20
796.8355781795
 11
849.3979125208
 21
291.9651314094
  0
LINE
  5
373
100
AcDbEntity
  8
RUNDUNGEN
100
AcDbLine
 62
7
  6
CONTINUOUS
 10
855.8979125208
 20
32.0773082601
 11
855.8979125208
 21
52.131116908
  0
LINE
  5
374
100
AcDbEntity
  8
RUNDUNGEN
100
AcDbLine
 62
7
  6
CONTINUOUS
 10
832.5115370503
 20
67.2718456378
 11
832.7148908416
 21
71.4299026832
  0
LINE
  5
375
100
AcDbEntity
  8
0
100
AcDbLine
 62
7
  6
CONTINUOUS
 10
832.7775306343
 20
104.1906746239
 11
832.7148908416
 21
103.5161501514
  0
LWPOLYLINE
  5
376
100
AcDbEntity
  8
BEZUGSACHSEN
100
AcDbPolyline
 62
7
  6
CONTINUOUS
 90
3
 70
0
 10
812.8891556762
 20
94.7083782284
 10
812.8595590038
 20
94.3966686306
 10
812.8319490088
 20
94.2111447213
  0
LINE
  5
377
100
AcDbEntity
  8
BEZUGSACHSEN
100
AcDbLine
 62
7
  6
CONTINUOUS
 10
812.8769002503
 20
94.579305141
 11
812.8548955504
 21
94.3617395893
  0
LINE
  5
378
100
AcDbEntity
  8
BEZUGSACHSEN
100
AcDbLine
 62
7
  6
CONTINUOUS
 10
812.8548955504
 20
94.3617395893
 11
812.8307219898
 21
94.204095019
  0
LINE
  5
379
100
AcDbEntity
  8
BEZUGSACHSEN
100
AcDbLine
 62
7
  6
CONTINUOUS
 10
812.8294066399
 20
94.1963689859
 11
812.8319296569
 21
94.2111479982
  0
LINE
  5
37A
100
AcDbEntity
  8
0
100
AcDbLine
 62
7
  6
CONTINUOUS
 10
864.3979125208
 20
276.9003547945
 11
864.3979125208
 21
181.9003547945
  0
LINE
  5
37B
100
AcDbEntity
  8
RUNDUNGEN
100
AcDbLine
 62
7
  6
CONTINUOUS
 10
831.8979125208
 20
62.5552780465
 11
832.3045159494
 21
65.2180932814
  0
LWPOLYLINE
  5
37C
100
AcDbEntity
  8
BEZUGSACHSEN
100
AcDbPolyline
 62
7
  6
CONTINUOUS
 90
8
 70
0
 10
812.8294066399
 20
94.1963689859
 10
812.7721913228
 20
93.9149752659
 10
812.6458377297
 20
93.4720160806
 10
812.4664230834
 20
93.0165703134
 10
812.2305924054
 20
92.5606875878
 10
811.9353111038
 20
92.1136926635
 10
811.5781662184
 20
91.6848342825
 10
811.1639455125
 20
91.2893737135
  0
LWPOLYLINE
  5
37D
100
AcDbEntity
  8
BEZUGSACHSEN
100
AcDbPolyline
 62
7
  6
CONTINUOUS
 90
7
 70
0
 10
812.7815040947
 20
93.9554019051
 10
812.6588820842
 20
93.5111785698
 10
812.4826500216
 20
93.0527218341
 10
812.2488220375
 20
92.5920316156
 10
811.9540196531
 20
92.139029729
 10
811.5952828991
 20
91.7032137041
 10
811.1779762744
 20
91.3012909282
  0
LINE
  5
37E
100
AcDbEntity
  8
BEZUGSACHSEN
100
AcDbLine
 62
7
  6
CONTINUOUS
 10
813.6949474029
 20
161.9092013571
 11
821.4984759529
 21
182.2380882488
  0
LINE
  5
37F
100
AcDbEntity
  8
0
100
AcDbLine
 62
7
  6
CONTINUOUS
 10
896.3979125208
 20
276.9003547945
 11
896.3979125208
 21
181.9003547945
  0
LINE
  5
380
100
AcDbEntity
  8
KONSTRUKTIONSELEMENTE
100
AcDbLine
 62
7
  6
CONTINUOUS
 10
678.4054884717
 20
49.7420973907
 11
682.4359971244
 21
53.7726060435
  0
LINE
  5
381
100
AcDbEntity
  8
KONSTRUKTIONSELEMENTE
100
AcDbLine
 62
7
  6
CONTINUOUS
 10
682.789550515
 20
54.1261594341
 11
686.8200591678
 21
58.1566680868
  0
LINE
  5
382
100
AcDbEntity
  8
KONSTRUKTIONSELEMENTE
100
AcDbLine
 62
7
  6
CONTINUOUS
 10
731.4384970607
 20
102.7751059797
 11
735.4690057134
 21
106.8056146325
  0
LINE
  5
383
100
AcDbEntity
  8
KONSTRUKTIONSELEMENTE
100
AcDbLine
 62
7
  6
CONTINUOUS
 10
735.822559104
 20
107.1591680231
 11
739.8530677568
 21
111.1896766758
  0
LINE
  5
384
100
AcDbEntity
  8
KONSTRUKTIONSELEMENTE
100
AcDbLine
 62
7
  6
CONTINUOUS
 10
713.6194061748
 20
83.0468267846
 11
706.2654956504
 21
75.6929162603
  0
LINE
  5
385
100
AcDbEntity
  8
KONSTRUKTIONSELEMENTE
100
AcDbLine
 62
7
  6
CONTINUOUS
 10
683.35523594
 20
44.7923499224
 11
687.3857445927
 21
48.8228585752
  0
LINE
  5
386
100
AcDbEntity
  8
KONSTRUKTIONSELEMENTE
100
AcDbLine
 62
7
  6
CONTINUOUS
 10
687.7392979833
 20
49.1764119658
 11
691.7698066361
 21
53.2069206185
  0
LINE
  5
387
100
AcDbEntity
  8
KONSTRUKTIONSELEMENTE
100
AcDbLine
 62
7
  6
CONTINUOUS
 10
736.388244529
 20
97.8253585114
 11
740.4187531817
 21
101.8558671642
  0
LINE
  5
388
100
AcDbEntity
  8
KONSTRUKTIONSELEMENTE
100
AcDbLine
 62
7
  6
CONTINUOUS
 10
740.7723065723
 20
102.2094205548
 11
744.8028152251
 21
106.2399292075
  0
LINE
  5
389
100
AcDbEntity
  8
KONSTRUKTIONSELEMENTE
100
AcDbLine
 62
7
  6
CONTINUOUS
 10
800.3814082263
 20
161.0407047495
 11
745.2270792938
 21
105.8863758169
  0
LINE
  5
38A
100
AcDbEntity
  8
KONSTRUKTIONSELEMENTE
100
AcDbLine
 62
7
  6
CONTINUOUS
 10
718.1448895744
 20
78.521343385
 11
710.79097905
 21
71.1674328607
  0
LINE
  5
38B
100
AcDbEntity
  8
KONSTRUKTIONSELEMENTE
100
AcDbLine
 62
7
  6
CONTINUOUS
 10
693.5375735891
 20
53.0654992623
 11
710.754889818
 21
70.2828154913
  0
LINE
  5
38C
100
AcDbEntity
  8
KONSTRUKTIONSELEMENTE
100
AcDbLine
 62
7
  6
CONTINUOUS
 10
718.9934177118
 20
78.521343385
 11
736.2107339408
 21
95.738659614
  0
LINE
  5
38D
100
AcDbEntity
  8
BEZUGSACHSEN
100
AcDbLine
 62
7
  6
CONTINUOUS
 10
686.1828687673
 20
44.7208449469
 11
685.3184563342
 21
43.8564325137
  0
LINE
  5
38E
100
AcDbEntity
  8
KONSTRUKTIONSELEMENTE
100
AcDbLine
 62
7
  6
CONTINUOUS
 10
553.2475882016
 20
-88.2144356188
 11
685.3184563342
 21
43.8564325137
  0
LINE
  5
38F
100
AcDbEntity
  8
BEZUGSACHSEN
100
AcDbLine
 62
7
  6
CONTINUOUS
 10
799.9075314641
 20
59.631116908
 11
809.4451595076
 21
76.1507732631
  0
LINE
  5
390
100
AcDbEntity
  8
KONSTRUKTIONSELEMENTE
100
AcDbLine
 62
7
  6
CONTINUOUS
 10
582.2389662303
 20
-60.6372711525
 11
553.9546949828
 21
-88.9215424
  0
LINE
  5
391
100
AcDbEntity
  8
KONSTRUKTIONSELEMENTE
100
AcDbLine
 62
7
  6
CONTINUOUS
 10
644.9214904654
 20
2.0452530826
 11
653.2343622508
 21
10.358124868
  0
LINE
  5
392
100
AcDbEntity
  8
KONSTRUKTIONSELEMENTE
100
AcDbLine
 62
7
  6
CONTINUOUS
 10
584.3602865739
 20
-62.7585914961
 11
556.0760153264
 21
-91.0428627435
  0
LINE
  5
393
100
AcDbEntity
  8
KONSTRUKTIONSELEMENTE
100
AcDbLine
 62
7
  6
CONTINUOUS
 10
647.0428108089
 20
-0.076067261
 11
655.3556825944
 21
8.2368045245
  0
LINE
  5
394
100
AcDbEntity
  8
BEZUGSACHSEN
100
AcDbLine
 62
7
  6
CONTINUOUS
 10
689.7184026732
 20
41.1853110409
 11
688.8539902401
 21
40.3208986078
  0
LINE
  5
395
100
AcDbEntity
  8
KONSTRUKTIONSELEMENTE
100
AcDbLine
 62
7
  6
CONTINUOUS
 10
556.7831221076
 20
-91.7499695247
 11
688.8539902401
 21
40.3208986078
  0
LINE
  5
396
100
AcDbEntity
  8
KONSTRUKTIONSELEMENTE
100
AcDbLine
 62
7
  6
CONTINUOUS
 10
698.0630569887
 20
48.5400158627
 11
715.2803732176
 21
65.7573320917
  0
LINE
  5
397
100
AcDbEntity
  8
KONSTRUKTIONSELEMENTE
100
AcDbLine
 62
7
  6
CONTINUOUS
 10
723.5189011114
 20
73.9958599854
 11
740.7362173403
 21
91.2131762144
  0
LINE
  5
398
100
AcDbEntity
  8
KONSTRUKTIONSELEMENTE
100
AcDbLine
 62
7
  6
CONTINUOUS
 10
716.164990587
 20
65.7934213237
 11
723.5189011114
 21
73.147331848
  0
LINE
  5
399
100
AcDbEntity
  8
KONSTRUKTIONSELEMENTE
100
AcDbLine
 62
7
  6
CONTINUOUS
 10
806.0382624758
 20
155.3838505
 11
750.8839335433
 21
100.2295215674
  0
LINE
  5
39A
100
AcDbEntity
  8
KONSTRUKTIONSELEMENTE
100
AcDbLine
 62
7
  6
CONTINUOUS
 10
751.2374869339
 20
99.8052574987
 11
742.8229162378
 21
91.3906868026
  0
LINE
  5
39B
100
AcDbEntity
  8
KONSTRUKTIONSELEMENTE
100
AcDbLine
 62
7
  6
CONTINUOUS
 10
698.2044783449
 20
46.7722489097
 11
689.7899076488
 21
38.3576782136
  0
LINE
  5
39C
100
AcDbEntity
  8
KONSTRUKTIONSELEMENTE
100
AcDbLine
 62
7
  6
CONTINUOUS
 10
720.6904739866
 20
61.2679379241
 11
728.044384511
 21
68.6218484484
  0
LINE
  5
39D
100
AcDbEntity
  8
KONSTRUKTIONSELEMENTE
100
AcDbLine
 62
7
  6
CONTINUOUS
 10
756.1872344022
 20
94.8555100304
 11
747.7726637061
 21
86.4409393343
  0
LINE
  5
39E
100
AcDbEntity
  8
KONSTRUKTIONSELEMENTE
100
AcDbLine
 62
7
  6
CONTINUOUS
 10
703.1542258132
 20
41.8225014414
 11
694.7396551171
 21
33.4079307453
  0
LINE
  5
39F
100
AcDbEntity
  8
RUNDUNGEN
100
AcDbLine
 62
7
  6
CONTINUOUS
 10
851.7420605868
 20
23.9623883844
 11
855.1447754381
 21
29.438339643
  0
LINE
  5
3A0
100
AcDbEntity
  8
RUNDUNGEN
100
AcDbLine
 62
7
  6
CONTINUOUS
 10
850.7783534065
 20
22.5099124348
 11
851.7420605868
 21
23.9623883844
  0
LINE
  5
3A1
100
AcDbEntity
  8
BEZUGSACHSEN
100
AcDbLine
 62
7
  6
CONTINUOUS
 10
811.1779762744
 20
91.3012909282
 11
810.6984086597
 21
90.9386025835
  0
LINE
  5
3A2
100
AcDbEntity
  8
BEZUGSACHSEN
100
AcDbLine
 62
7
  6
CONTINUOUS
 10
810.7089864419
 20
90.9456108156
 11
810.1947182702
 21
90.6446658164
  0
LINE
  5
3A3
100
AcDbEntity
  8
BEZUGSACHSEN
100
AcDbLine
 62
7
  6
CONTINUOUS
 10
810.201558048
 20
90.6481007723
 11
809.6749661885
 21
90.4172443488
  0
LINE
  5
3A4
100
AcDbEntity
  8
BEZUGSACHSEN
100
AcDbLine
 62
7
  6
CONTINUOUS
 10
809.6749661885
 20
90.4172443488
 11
809.4176579106
 21
90.3297053756
  0
ARC
  5
3A5
100
AcDbEntity
  8
BEZUGSACHSEN
100
AcDbCircle
 62
7
  6
CONTINUOUS
 10
-280.6922908018
 20
117.2937193931
 40
603.7149306356
100
AcDbArc
 50
349.7773757324
 51
351.1066896092
  0
ARC
  5
3A6
100
AcDbEntity
  8
KONSTRUKTIONSELEMENTE
100
AcDbCircle
 62
7
  6
CONTINUOUS
 10
267.3991207283
 20
-74.4739777241
 40
11.1070958187
100
AcDbArc
 50
82.3515341598
 51
84.9226131091
  0
ARC
  5
3A7
100
AcDbEntity
  8
RUNDUNGEN
100
AcDbCircle
 62
7
  6
CONTINUOUS
 10
237.4841549298
 20
52.63739885
 40
5.0
100
AcDbArc
 50
0.0
 51
30.0
  0
ARC
  5
3A8
100
AcDbEntity
  8
KONSTRUKTIONSELEMENTE
100
AcDbCircle
 62
7
  6
CONTINUOUS
 10
275.2842240533
 20
-69.1346609823
 40
4.1006282179
100
AcDbArc
 50
9.1122156589
 51
9.8872067219
  0
ARC
  5
3A9
100
AcDbEntity
  8
KONSTRUKTIONSELEMENTE
100
AcDbCircle
 62
7
  6
CONTINUOUS
 10
275.3534035355
 20
-69.124747694
 40
4.0307519921
100
AcDbArc
 50
0.0312035642
 51
9.1288137427
  0
ARC
  5
3AA
100
AcDbEntity
  8
BEZUGSACHSEN
100
AcDbCircle
 62
7
  6
CONTINUOUS
 10
254.7913731543
 20
13.1503547411
 40
3.0
100
AcDbArc
 50
219.9999986699
 51
269.9999991452
  0
ARC
  5
3AB
100
AcDbEntity
  8
RUNDUNGEN
100
AcDbCircle
 62
7
  6
CONTINUOUS
 10
245.4841549298
 20
24.2422654973
 40
3.0
100
AcDbArc
 50
180.0
 51
220.0
  0
ARC
  5
3AC
100
AcDbEntity
  8
BEZUGSACHSEN
100
AcDbCircle
 62
7
  6
CONTINUOUS
 10
245.4841549298
 20
24.2422654973
 40
3.0
100
AcDbArc
 50
180.0
 51
220.0
  0
ARC
  5
3AD
100
AcDbEntity
  8
BEZUGSACHSEN
100
AcDbCircle
 62
7
  6
CONTINUOUS
 10
833.333603139
 20
113.1946770113
 40
579.0467746493
100
AcDbArc
 50
188.8647211814
 51
190.2153652053
  0
ARC
  5
3AE
100
AcDbEntity
  8
0
100
AcDbCircle
 62
7
  6
CONTINUOUS
 10
288.4841549298
 20
-49.8684341378
 40
65.0
100
AcDbArc
 50
99.9667663002
 51
112.5919479374
  0
ARC
  5
3AF
100
AcDbEntity
  8
0
100
AcDbCircle
 62
7
  6
CONTINUOUS
 10
288.4841549298
 20
-49.8684341378
 40
65.0
100
AcDbArc
 50
67.4080520626
 51
80.0332336998
  0
ARC
  5
3B0
100
AcDbEntity
  8
BEZUGSACHSEN
100
AcDbCircle
 62
7
  6
CONTINUOUS
 10
288.4841549298
 20
119.1503547945
 40
26.0
100
AcDbArc
 50
128.0184962827
 51
51.9815037173
  0
ARC
  5
3B1
100
AcDbEntity
  8
0
100
AcDbCircle
 62
7
  6
CONTINUOUS
 10
288.4841549298
 20
128.4003547945
 40
16.0
100
AcDbArc
 50
180.0
 51
360.0
  0
ARC
  5
3B2
100
AcDbEntity
  8
0
100
AcDbCircle
 62
7
  6
CONTINUOUS
 10
288.4841549298
 20
66.9003547945
 40
11.25
100
AcDbArc
 50
0.0
 51
180.0
  0
ARC
  5
3B3
100
AcDbEntity
  8
KONSTRUKTIONSELEMENTE
100
AcDbCircle
 62
7
  6
CONTINUOUS
 10
309.1198325273
 20
-72.1760396869
 40
9.3535175987
100
AcDbArc
 50
111.2384503883
 51
112.1140025065
  0
ARC
  5
3B4
100
AcDbEntity
  8
KONSTRUKTIONSELEMENTE
100
AcDbCircle
 62
7
  6
CONTINUOUS
 10
309.046461862
 20
-71.9969635581
 40
9.1599944882
100
AcDbArc
 50
112.1105000658
 51
113.9508226432
  0
ARC
  5
3B5
100
AcDbEntity
  8
RUNDUNGEN
100
AcDbCircle
 62
7
  6
CONTINUOUS
 10
339.4841549298
 20
52.63739885
 40
5.0
100
AcDbArc
 50
150.0
 51
180.0
  0
ARC
  5
3B6
100
AcDbEntity
  8
KONSTRUKTIONSELEMENTE
100
AcDbCircle
 62
7
  6
CONTINUOUS
 10
288.4841549298
 20
58.0395847641
 40
3.5
100
AcDbArc
 50
144.93427076
 51
180.0
  0
ARC
  5
3B7
100
AcDbEntity
  8
KONSTRUKTIONSELEMENTE
100
AcDbCircle
 62
7
  6
CONTINUOUS
 10
288.4841549298
 20
58.0395847641
 40
3.5
100
AcDbArc
 50
0.0
 51
35.06572924
  0
ARC
  5
3B8
100
AcDbEntity
  8
KONSTRUKTIONSELEMENTE
100
AcDbCircle
 62
7
  6
CONTINUOUS
 10
288.4841549298
 20
111.0725933531
 40
3.5
100
AcDbArc
 50
152.1487511503
 51
180.0
  0
ARC
  5
3B9
100
AcDbEntity
  8
KONSTRUKTIONSELEMENTE
100
AcDbCircle
 62
7
  6
CONTINUOUS
 10
288.4841549298
 20
111.0725933531
 40
3.5
100
AcDbArc
 50
0.0
 51
27.8512488497
  0
ARC
  5
3BA
100
AcDbEntity
  8
KONSTRUKTIONSELEMENTE
100
AcDbCircle
 62
7
  6
CONTINUOUS
 10
288.4841549298
 20
61.4804270922
 40
3.2
100
AcDbArc
 50
180.0
 51
360.0
  0
CIRCLE
  5
3BB
100
AcDbEntity
  8
BEZUGSACHSEN
100
AcDbCircle
 62
7
  6
CONTINUOUS
 10
324.1841549298
 20
39.4003547945
 40
3.0
  0
ARC
  5
3BC
100
AcDbEntity
  8
RUNDUNGEN
100
AcDbCircle
 62
7
  6
CONTINUOUS
 10
331.4841549298
 20
24.2422654973
 40
3.0
100
AcDbArc
 50
320.0
 51
360.0
  0
ARC
  5
3BD
100
AcDbEntity
  8
BEZUGSACHSEN
100
AcDbCircle
 62
7
  6
CONTINUOUS
 10
322.176937703
 20
13.1503559303
 40
3.0
100
AcDbArc
 50
269.9999817986
 51
319.9999716836
  0
ARC
  5
3BE
100
AcDbEntity
  8
0
100
AcDbCircle
 62
7
  6
CONTINUOUS
 10
288.4841549298
 20
439.4003547945
 40
170.0
100
AcDbArc
 50
180.0
 51
264.5993031227
  0
ARC
  5
3BF
100
AcDbEntity
  8
0
100
AcDbCircle
 62
7
  6
CONTINUOUS
 10
288.4841549298
 20
439.4003547945
 40
170.0
100
AcDbArc
 50
275.4006968773
 51
360.0
  0
ARC
  5
3C0
100
AcDbEntity
  8
0
100
AcDbCircle
 62
7
  6
CONTINUOUS
 10
288.4841549298
 20
649.4003547945
 40
170.0
100
AcDbArc
 50
0.0
 51
180.0
  0
ARC
  5
3C1
100
AcDbEntity
  8
0
100
AcDbCircle
 62
7
  6
CONTINUOUS
 10
288.4841549298
 20
649.4003547945
 40
125.0
100
AcDbArc
 50
0.0
 51
180.0
  0
ARC
  5
3C2
100
AcDbEntity
  8
0
100
AcDbCircle
 62
7
  6
CONTINUOUS
 10
288.4841549298
 20
439.4003547945
 40
125.0
100
AcDbArc
 50
180.0
 51
262.645659501
  0
ARC
  5
3C3
100
AcDbEntity
  8
0
100
AcDbCircle
 62
7
  6
CONTINUOUS
 10
288.4841549298
 20
439.4003547945
 40
125.0
100
AcDbArc
 50
277.354340499
 51
360.0
  0
ARC
  5
3C4
100
AcDbEntity
  8
0
100
AcDbCircle
 62
7
  6
CONTINUOUS
 10
288.4841549298
 20
330.4003547945
 40
16.0
100
AcDbArc
 50
0.0
 51
180.0
  0
ARC
  5
3C5
100
AcDbEntity
  8
BEZUGSACHSEN
100
AcDbCircle
 62
7
  6
CONTINUOUS
 10
137.8922533293
 20
-168.4579190608
 40
775.8174041482
100
AcDbArc
 50
24.9861441167
 51
25.1236231296
  0
ARC
  5
3C6
100
AcDbEntity
  8
BEZUGSACHSEN
100
AcDbCircle
 62
7
  6
CONTINUOUS
 10
499.9241893041
 20
48.1794384728
 40
356.7925370037
100
AcDbArc
 50
17.0840682834
 51
17.2302838169
  0
ARC
  5
3C7
100
AcDbEntity
  8
BEZUGSACHSEN
100
AcDbCircle
 62
7
  6
CONTINUOUS
 10
568.1411347022
 20
-203.9644777496
 40
442.0121710025
100
AcDbArc
 50
51.862981086
 51
52.088110011
  0
ARC
  5
3C8
100
AcDbEntity
  8
KONSTRUKTIONSELEMENTE
100
AcDbCircle
 62
7
  6
CONTINUOUS
 10
686.5725717944
 20
41.575014068
 40
11.55
100
AcDbArc
 50
237.5041463713
 51
315.0
  0
ARC
  5
3C9
100
AcDbEntity
  8
KONSTRUKTIONSELEMENTE
100
AcDbCircle
 62
7
  6
CONTINUOUS
 10
686.5725717944
 20
41.575014068
 40
11.55
100
AcDbArc
 50
135.0
 51
212.4958536287
  0
ARC
  5
3CA
100
AcDbEntity
  8
KONSTRUKTIONSELEMENTE
100
AcDbCircle
 62
7
  6
CONTINUOUS
 10
686.5725717944
 20
41.575014068
 40
4.55
100
AcDbArc
 50
258.4100243465
 51
315.0
  0
ARC
  5
3CB
100
AcDbEntity
  8
KONSTRUKTIONSELEMENTE
100
AcDbCircle
 62
7
  6
CONTINUOUS
 10
686.5725717944
 20
41.575014068
 40
4.55
100
AcDbArc
 50
135.0
 51
191.5899756535
  0
ARC
  5
3CC
100
AcDbEntity
  8
BEZUGSACHSEN
100
AcDbCircle
 62
7
  6
CONTINUOUS
 10
515.8643571306
 20
47.9440196772
 40
340.3096120632
100
AcDbArc
 50
17.2060854353
 51
17.3573437198
  0
ARC
  5
3CD
100
AcDbEntity
  8
0
100
AcDbCircle
 62
7
  6
CONTINUOUS
 10
565.8326222204
 20
79.3435710267
 40
285.4256092686
100
AcDbArc
 50
17.6918206166
 51
17.8580735889
  0
ARC
  5
3CE
100
AcDbEntity
  8
BEZUGSACHSEN
100
AcDbCircle
 62
7
  6
CONTINUOUS
 10
574.1075304147
 20
82.0663520113
 40
277.5191139854
100
AcDbArc
 50
17.6224835927
 51
17.7934091407
  0
ARC
  5
3CF
100
AcDbEntity
  8
BEZUGSACHSEN
100
AcDbCircle
 62
7
  6
CONTINUOUS
 10
640.3300998411
 20
59.3682732135
 40
224.7440068799
100
AcDbArc
 50
28.0572912711
 51
28.1954017735
  0
ARC
  5
3D0
100
AcDbEntity
  8
0
100
AcDbCircle
 62
7
  6
CONTINUOUS
 10
627.085787825
 20
94.8966503249
 40
219.5067767991
100
AcDbArc
 50
14.1506992873
 51
14.293379076
  0
ARC
  5
3D1
100
AcDbEntity
  8
0
100
AcDbCircle
 62
7
  6
CONTINUOUS
 10
630.8526578027
 20
99.1415724779
 40
215.9243867023
100
AcDbArc
 50
14.4679174275
 51
14.6108708485
  0
ARC
  5
3D2
100
AcDbEntity
  8
BEZUGSACHSEN
100
AcDbCircle
 62
7
  6
CONTINUOUS
 10
636.0349277046
 20
97.8082130917
 40
210.8502831326
100
AcDbArc
 50
13.927937575
 51
14.0763318525
  0
ARC
  5
3D3
100
AcDbEntity
  8
BEZUGSACHSEN
100
AcDbCircle
 62
7
  6
CONTINUOUS
 10
639.3533608431
 20
101.8426093102
 40
207.7824052231
100
AcDbArc
 50
14.2780893703
 51
14.4265195342
  0
ARC
  5
3D4
100
AcDbEntity
  8
BEZUGSACHSEN
100
AcDbCircle
 62
7
  6
CONTINUOUS
 10
651.207952769
 20
94.6583709628
 40
201.2474998971
100
AcDbArc
 50
21.37158133
 51
21.5685589978
  0
ARC
  5
3D5
100
AcDbEntity
  8
BEZUGSACHSEN
100
AcDbCircle
 62
7
  6
CONTINUOUS
 10
661.8118962253
 20
108.4688933088
 40
181.6327220096
100
AcDbArc
 50
11.8056521762
 51
12.0119034053
  0
ARC
  5
3D6
100
AcDbEntity
  8
BEZUGSACHSEN
100
AcDbCircle
 62
7
  6
CONTINUOUS
 10
677.069308797
 20
98.0078861427
 40
175.909923994
100
AcDbArc
 50
22.3937106237
 51
22.7614441707
  0
ARC
  5
3D7
100
AcDbEntity
  8
BEZUGSACHSEN
100
AcDbCircle
 62
7
  6
CONTINUOUS
 10
686.7219598988
 20
82.1123279588
 40
172.8883208301
100
AcDbArc
 50
26.8085933412
 51
27.0075287939
  0
ARC
  5
3D8
100
AcDbEntity
  8
BEZUGSACHSEN
100
AcDbCircle
 62
7
  6
CONTINUOUS
 10
683.9677681168
 20
115.0181814401
 40
160.5304576814
100
AcDbArc
 50
11.8488621734
 51
12.0790096096
  0
ARC
  5
3D9
100
AcDbEntity
  8
BEZUGSACHSEN
100
AcDbCircle
 62
7
  6
CONTINUOUS
 10
826.8979125208
 20
39.4003547945
 40
29.25
100
AcDbArc
 50
211.8565064565
 51
324.7285400078
  0
ARC
  5
3DA
100
AcDbEntity
  8
RUNDUNGEN
100
AcDbCircle
 62
7
  6
CONTINUOUS
 10
826.8979125208
 20
39.4003547945
 40
29.25
100
AcDbArc
 50
324.7285400078
 51
328.1434935435
  0
CIRCLE
  5
3DB
100
AcDbEntity
  8
0
100
AcDbCircle
 62
7
  6
CONTINUOUS
 10
826.8979125208
 20
39.4003547945
 40
11.75
  0
ARC
  5
3DC
100
AcDbEntity
  8
RUNDUNGEN
100
AcDbCircle
 62
7
  6
CONTINUOUS
 10
850.8979125208
 20
32.0773082601
 40
5.0
100
AcDbArc
 50
328.1434935435
 51
360.0
  0
ARC
  5
3DD
100
AcDbEntity
  8
BEZUGSACHSEN
100
AcDbCircle
 62
7
  6
CONTINUOUS
 10
802.8979125208
 20
32.0773082601
 40
5.0
100
AcDbArc
 50
180.0
 51
211.8565064565
  0
ARC
  5
3DE
100
AcDbEntity
  8
KONSTRUKTIONSELEMENTE
100
AcDbCircle
 62
7
  6
CONTINUOUS
 10
694.9871424905
 20
49.9895847641
 40
11.55
100
AcDbArc
 50
61.1105804865
 51
135.0
  0
ARC
  5
3DF
100
AcDbEntity
  8
KONSTRUKTIONSELEMENTE
100
AcDbCircle
 62
7
  6
CONTINUOUS
 10
694.9871424905
 20
49.9895847641
 40
11.55
100
AcDbArc
 50
315.0
 51
28.8894195135
  0
ARC
  5
3E0
100
AcDbEntity
  8
KONSTRUKTIONSELEMENTE
100
AcDbCircle
 62
7
  6
CONTINUOUS
 10
694.9871424905
 20
49.9895847641
 40
4.55
100
AcDbArc
 50
89.7094363532
 51
135.0
  0
ARC
  5
3E1
100
AcDbEntity
  8
KONSTRUKTIONSELEMENTE
100
AcDbCircle
 62
7
  6
CONTINUOUS
 10
694.9871424905
 20
49.9895847641
 40
4.55
100
AcDbArc
 50
315.0
 51
0.2905636468
  0
ARC
  5
3E2
100
AcDbEntity
  8
KONSTRUKTIONSELEMENTE
100
AcDbCircle
 62
7
  6
CONTINUOUS
 10
695.8003152889
 20
50.8027575625
 40
3.2
100
AcDbArc
 50
135.0
 51
315.0
  0
ARC
  5
3E3
100
AcDbEntity
  8
KONSTRUKTIONSELEMENTE
100
AcDbCircle
 62
7
  6
CONTINUOUS
 10
713.4779848185
 20
68.4804270922
 40
10.2
100
AcDbArc
 50
135.0
 51
206.7018290247
  0
ARC
  5
3E4
100
AcDbEntity
  8
KONSTRUKTIONSELEMENTE
100
AcDbCircle
 62
7
  6
CONTINUOUS
 10
713.4779848185
 20
68.4804270922
 40
10.2
100
AcDbArc
 50
243.2981709753
 51
315.0
  0
ARC
  5
3E5
100
AcDbEntity
  8
KONSTRUKTIONSELEMENTE
100
AcDbCircle
 62
7
  6
CONTINUOUS
 10
720.8318953429
 20
75.8343376165
 40
10.2
100
AcDbArc
 50
315.0
 51
26.7018290247
  0
ARC
  5
3E6
100
AcDbEntity
  8
KONSTRUKTIONSELEMENTE
100
AcDbCircle
 62
7
  6
CONTINUOUS
 10
720.8318953429
 20
75.8343376165
 40
10.2
100
AcDbArc
 50
63.2981709753
 51
135.0
  0
ARC
  5
3E7
100
AcDbEntity
  8
KONSTRUKTIONSELEMENTE
100
AcDbCircle
 62
7
  6
CONTINUOUS
 10
713.4779848185
 20
68.4804270922
 40
3.8
100
AcDbArc
 50
135.0
 51
167.6253590191
  0
ARC
  5
3E8
100
AcDbEntity
  8
KONSTRUKTIONSELEMENTE
100
AcDbCircle
 62
7
  6
CONTINUOUS
 10
713.4779848185
 20
68.4804270922
 40
3.8
100
AcDbArc
 50
282.3746409809
 51
315.0
  0
ARC
  5
3E9
100
AcDbEntity
  8
KONSTRUKTIONSELEMENTE
100
AcDbCircle
 62
7
  6
CONTINUOUS
 10
720.8318953429
 20
75.8343376165
 40
3.8
100
AcDbArc
 50
315.0
 51
347.6253590191
  0
ARC
  5
3EA
100
AcDbEntity
  8
KONSTRUKTIONSELEMENTE
100
AcDbCircle
 62
7
  6
CONTINUOUS
 10
720.8318953429
 20
75.8343376165
 40
3.8
100
AcDbArc
 50
102.3746409809
 51
135.0
  0
ARC
  5
3EB
100
AcDbEntity
  8
KONSTRUKTIONSELEMENTE
100
AcDbCircle
 62
7
  6
CONTINUOUS
 10
713.0537207498
 20
68.0561630235
 40
3.2
100
AcDbArc
 50
315.0
 51
135.0
  0
ARC
  5
3EC
100
AcDbEntity
  8
KONSTRUKTIONSELEMENTE
100
AcDbCircle
 62
7
  6
CONTINUOUS
 10
721.2561594116
 20
76.2586016852
 40
3.2
100
AcDbArc
 50
135.0
 51
315.0
  0
ARC
  5
3ED
100
AcDbEntity
  8
BEZUGSACHSEN
100
AcDbCircle
 62
7
  6
CONTINUOUS
 10
698.8977470357
 20
106.9581249995
 40
152.3178476468
100
AcDbArc
 50
21.3911516893
 51
22.3961981545
  0
ARC
  5
3EE
100
AcDbEntity
  8
BEZUGSACHSEN
100
AcDbCircle
 62
7
  6
CONTINUOUS
 10
692.5091547441
 20
119.6010382315
 40
152.1735368421
100
AcDbArc
 50
12.5110087753
 51
12.6769172621
  0
ARC
  5
3EF
100
AcDbEntity
  8
BEZUGSACHSEN
100
AcDbCircle
 62
7
  6
CONTINUOUS
 10
702.6784245175
 20
103.4429226404
 40
150.1336024624
100
AcDbArc
 50
25.1263879292
 51
25.3522323603
  0
ARC
  5
3F0
100
AcDbEntity
  8
BEZUGSACHSEN
100
AcDbCircle
 62
7
  6
CONTINUOUS
 10
699.2763967864
 20
116.7169554939
 40
148.4022582248
100
AcDbArc
 50
17.5418387442
 51
17.7144181964
  0
ARC
  5
3F1
100
AcDbEntity
  8
BEZUGSACHSEN
100
AcDbCircle
 62
7
  6
CONTINUOUS
 10
696.6965128065
 20
124.1550184101
 40
148.0693350816
100
AcDbArc
 50
16.392533629
 51
16.5644396966
  0
ARC
  5
3F2
100
AcDbEntity
  8
0
100
AcDbCircle
 62
7
  6
CONTINUOUS
 10
694.4661329333
 20
122.888694047
 40
145.9300185428
100
AcDbArc
 50
8.9350174511
 51
9.1070874635
  0
ARC
  5
3F3
100
AcDbEntity
  8
BEZUGSACHSEN
100
AcDbCircle
 62
7
  6
CONTINUOUS
 10
698.6591191645
 20
124.179013141
 40
142.2984255635
100
AcDbArc
 50
8.6391103675
 51
8.8154305623
  0
ARC
  5
3F4
100
AcDbEntity
  8
BEZUGSACHSEN
100
AcDbCircle
 62
7
  6
CONTINUOUS
 10
719.1855706885
 20
130.7619063995
 40
124.5646535245
100
AcDbArc
 50
14.6174319648
 51
14.8644603336
  0
ARC
  5
3F5
100
AcDbEntity
  8
KONSTRUKTIONSELEMENTE
100
AcDbCircle
 62
7
  6
CONTINUOUS
 10
748.0201510795
 20
103.0225933531
 40
11.55
100
AcDbArc
 50
65.2810606849
 51
135.0
  0
ARC
  5
3F6
100
AcDbEntity
  8
KONSTRUKTIONSELEMENTE
100
AcDbCircle
 62
7
  6
CONTINUOUS
 10
748.0201510795
 20
103.0225933531
 40
11.55
100
AcDbArc
 50
315.0
 51
24.7189393151
  0
ARC
  5
3F7
100
AcDbEntity
  8
KONSTRUKTIONSELEMENTE
100
AcDbCircle
 62
7
  6
CONTINUOUS
 10
739.6055803834
 20
94.608022657
 40
11.55
100
AcDbArc
 50
241.1105804865
 51
315.0
  0
ARC
  5
3F8
100
AcDbEntity
  8
KONSTRUKTIONSELEMENTE
100
AcDbCircle
 62
7
  6
CONTINUOUS
 10
739.6055803834
 20
94.608022657
 40
11.55
100
AcDbArc
 50
135.0
 51
208.8894195135
  0
ARC
  5
3F9
100
AcDbEntity
  8
KONSTRUKTIONSELEMENTE
100
AcDbCircle
 62
7
  6
CONTINUOUS
 10
748.0201510795
 20
103.0225933531
 40
4.55
100
AcDbArc
 50
106.6976500586
 51
135.0
  0
ARC
  5
3FA
100
AcDbEntity
  8
KONSTRUKTIONSELEMENTE
100
AcDbCircle
 62
7
  6
CONTINUOUS
 10
748.0201510795
 20
103.0225933531
 40
4.55
100
AcDbArc
 50
315.0
 51
343.3023499414
  0
ARC
  5
3FB
100
AcDbEntity
  8
KONSTRUKTIONSELEMENTE
100
AcDbCircle
 62
7
  6
CONTINUOUS
 10
739.6055803834
 20
94.608022657
 40
4.55
100
AcDbArc
 50
269.7094363532
 51
315.0
  0
ARC
  5
3FC
100
AcDbEntity
  8
KONSTRUKTIONSELEMENTE
100
AcDbCircle
 62
7
  6
CONTINUOUS
 10
739.6055803834
 20
94.608022657
 40
4.55
100
AcDbArc
 50
135.0
 51
180.2905636468
  0
ARC
  5
3FD
100
AcDbEntity
  8
KONSTRUKTIONSELEMENTE
100
AcDbCircle
 62
7
  6
CONTINUOUS
 10
738.5095648725
 20
93.5120071462
 40
3.2
100
AcDbArc
 50
315.0
 51
135.0
  0
ARC
  5
3FE
100
AcDbEntity
  8
0
100
AcDbCircle
 62
7
  6
CONTINUOUS
 10
735.0094451375
 20
134.5156820349
 40
105.8582150883
100
AcDbArc
 50
7.341659114
 51
7.6240545251
  0
ARC
  5
3FF
100
AcDbEntity
  8
BEZUGSACHSEN
100
AcDbCircle
 62
7
  6
CONTINUOUS
 10
738.201349196
 20
135.423810121
 40
103.3231706382
100
AcDbArc
 50
7.0151511939
 51
7.3042656414
  0
ARC
  5
400
100
AcDbEntity
  8
0
100
AcDbCircle
 62
7
  6
CONTINUOUS
 10
741.6680416604
 20
141.0131905674
 40
99.2654778464
100
AcDbArc
 50
15.0999707684
 51
15.3737685254
  0
ARC
  5
401
100
AcDbEntity
  8
BEZUGSACHSEN
100
AcDbCircle
 62
7
  6
CONTINUOUS
 10
744.6310320017
 20
141.7813559728
 40
97.0209196336
100
AcDbArc
 50
14.9877900831
 51
15.267777412
  0
ARC
  5
402
100
AcDbEntity
  8
BEZUGSACHSEN
100
AcDbCircle
 62
7
  6
CONTINUOUS
 10
752.1325943756
 20
133.8681401375
 40
92.9285914279
100
AcDbArc
 50
16.787343878
 51
16.9278038593
  0
ARC
  5
403
100
AcDbEntity
  8
BEZUGSACHSEN
100
AcDbCircle
 62
7
  6
CONTINUOUS
 10
749.5337514465
 20
137.9970468322
 40
92.0867123028
100
AcDbArc
 50
6.0893695056
 51
6.2235765118
  0
ARC
  5
404
100
AcDbEntity
  8
0
100
AcDbCircle
 62
7
  6
CONTINUOUS
 10
750.0266745017
 20
139.7912490014
 40
90.8808420004
100
AcDbArc
 50
8.1090686406
 51
8.4129117728
  0
ARC
  5
405
100
AcDbEntity
  8
0
100
AcDbCircle
 62
7
  6
CONTINUOUS
 10
746.6484044804
 20
146.7558603575
 40
90.67285009
100
AcDbArc
 50
358.643510613
 51
0.356630027
  0
ARC
  5
406
100
AcDbEntity
  8
BEZUGSACHSEN
100
AcDbCircle
 62
7
  6
CONTINUOUS
 10
748.0692801416
 20
147.3308746489
 40
89.9670515819
100
AcDbArc
 50
358.2665325885
 51
359.9932259658
  0
ARC
  5
407
100
AcDbEntity
  8
BEZUGSACHSEN
100
AcDbCircle
 62
7
  6
CONTINUOUS
 10
752.9828454721
 20
140.5681423062
 40
88.6232975574
100
AcDbArc
 50
7.8097938449
 51
8.1211479235
  0
ARC
  5
408
100
AcDbEntity
  8
BEZUGSACHSEN
100
AcDbCircle
 62
7
  6
CONTINUOUS
 10
750.0467312781
 20
146.8598274102
 40
88.3162920822
100
AcDbArc
 50
358.6747183434
 51
0.0671393568
  0
ARC
  5
409
100
AcDbEntity
  8
0
100
AcDbCircle
 62
7
  6
CONTINUOUS
 10
754.2302838509
 20
144.8759745575
 40
84.3977464807
100
AcDbArc
 50
359.6794117971
 51
0.4600935108
  0
ARC
  5
40A
100
AcDbEntity
  8
BEZUGSACHSEN
100
AcDbCircle
 62
7
  6
CONTINUOUS
 10
755.6433943009
 20
145.4502841639
 40
83.6997073526
100
AcDbArc
 50
358.6015515896
 51
0.0707878591
  0
ARC
  5
40B
100
AcDbEntity
  8
BEZUGSACHSEN
100
AcDbCircle
 62
7
  6
CONTINUOUS
 10
757.866240953
 20
144.8867716276
 40
81.8688945862
100
AcDbArc
 50
358.5700363853
 51
359.9140352295
  0
ARC
  5
40C
100
AcDbEntity
  8
BEZUGSACHSEN
100
AcDbCircle
 62
7
  6
CONTINUOUS
 10
765.2232521878
 20
146.6040190932
 40
75.9462411829
100
AcDbArc
 50
12.1775690318
 51
12.4174645608
  0
ARC
  5
40D
100
AcDbEntity
  8
BEZUGSACHSEN
100
AcDbCircle
 62
7
  6
CONTINUOUS
 10
765.2180184171
 20
142.9258192001
 40
75.8893848011
100
AcDbArc
 50
357.93595601
 51
358.4478840232
  0
ARC
  5
40E
100
AcDbEntity
  8
BEZUGSACHSEN
100
AcDbCircle
 62
7
  6
CONTINUOUS
 10
765.7117290992
 20
142.9106273778
 40
75.3955229369
100
AcDbArc
 50
0.5953930157
 51
1.1963295847
  0
ARC
  5
40F
100
AcDbEntity
  8
0
100
AcDbCircle
 62
7
  6
CONTINUOUS
 10
764.7669109291
 20
152.4918550436
 40
72.5543725525
100
AcDbArc
 50
0.9591581916
 51
1.4375688229
  0
ARC
  5
410
100
AcDbEntity
  8
0
100
AcDbCircle
 62
7
  6
CONTINUOUS
 10
764.7669109539
 20
152.4981969133
 40
72.5543725277
100
AcDbArc
 50
358.562431177
 51
359.0408420367
  0
ARC
  5
411
100
AcDbEntity
  8
BEZUGSACHSEN
100
AcDbCircle
 62
7
  6
CONTINUOUS
 10
766.1517480721
 20
152.960267646
 40
71.9210091727
100
AcDbArc
 50
358.181510215
 51
358.664211465
  0
ARC
  5
412
100
AcDbEntity
  8
BEZUGSACHSEN
100
AcDbCircle
 62
7
  6
CONTINUOUS
 10
766.4294051422
 20
152.9520074264
 40
71.6432850776
100
AcDbArc
 50
0.6033207392
 51
1.0877621356
  0
ARC
  5
413
100
AcDbEntity
  8
BEZUGSACHSEN
100
AcDbCircle
 62
7
  6
CONTINUOUS
 10
774.8943314173
 20
156.0912939725
 40
63.7482827031
100
AcDbArc
 50
352.0916498298
 51
352.518633935
  0
ARC
  5
414
100
AcDbEntity
  8
0
100
AcDbCircle
 62
7
  6
CONTINUOUS
 10
774.1195469927
 20
155.6182850868
 40
63.7423831454
100
AcDbArc
 50
352.5199482734
 51
352.9465531254
  0
ARC
  5
415
100
AcDbEntity
  8
KONSTRUKTIONSELEMENTE
100
AcDbCircle
 62
7
  6
CONTINUOUS
 10
748.0555064185
 20
103.0579486922
 40
4.0
100
AcDbArc
 50
135.0
 51
315.0
  0
ARC
  5
416
100
AcDbEntity
  8
BEZUGSACHSEN
100
AcDbCircle
 62
7
  6
CONTINUOUS
 10
799.8405236645
 20
103.0982192043
 40
67.3311343587
100
AcDbArc
 50
54.9064777052
 51
55.1710167566
  0
ARC
  5
417
100
AcDbEntity
  8
BEZUGSACHSEN
100
AcDbCircle
 62
7
  6
CONTINUOUS
 10
790.8979125208
 20
74.0259991415
 40
15.0
100
AcDbArc
 50
330.6489714765
 51
360.0
  0
ARC
  5
418
100
AcDbEntity
  8
BEZUGSACHSEN
100
AcDbCircle
 62
7
  6
CONTINUOUS
 10
812.8979125208
 20
52.131116908
 40
15.0
100
AcDbArc
 50
150.0
 51
180.0
  0
ARC
  5
419
100
AcDbEntity
  8
BEZUGSACHSEN
100
AcDbCircle
 62
7
  6
CONTINUOUS
 10
810.8979125208
 20
85.5538781204
 40
5.0
100
AcDbArc
 50
107.0348021631
 51
180.0
  0
ARC
  5
41A
100
AcDbEntity
  8
BEZUGSACHSEN
100
AcDbCircle
 62
7
  6
CONTINUOUS
 10
779.5789643924
 20
147.6169577763
 40
61.5639981466
100
AcDbArc
 50
359.3867009765
 51
359.7625063907
  0
ARC
  5
41B
100
AcDbEntity
  8
BEZUGSACHSEN
100
AcDbCircle
 62
7
  6
CONTINUOUS
 10
779.2916388567
 20
148.2991677606
 40
61.4599268231
100
AcDbArc
 50
359.3846114058
 51
359.7610532677
  0
ARC
  5
41C
100
AcDbEntity
  8
BEZUGSACHSEN
100
AcDbCircle
 62
7
  6
CONTINUOUS
 10
787.986533134
 20
130.6894033228
 40
60.8266561661
100
AcDbArc
 50
29.7876382388
 51
30.0440824004
  0
ARC
  5
41D
100
AcDbEntity
  8
BEZUGSACHSEN
100
AcDbCircle
 62
7
  6
CONTINUOUS
 10
786.758418298
 20
138.9743415686
 40
58.9072691754
100
AcDbArc
 50
28.1105493041
 51
28.306055089
  0
ARC
  5
41E
100
AcDbEntity
  8
BEZUGSACHSEN
100
AcDbCircle
 62
7
  6
CONTINUOUS
 10
786.47809669
 20
141.9400860796
 40
54.9325443152
100
AcDbArc
 50
5.6641528775
 51
6.0875437207
  0
ARC
  5
41F
100
AcDbEntity
  8
BEZUGSACHSEN
100
AcDbCircle
 62
7
  6
CONTINUOUS
 10
793.5255184235
 20
134.0095192393
 40
54.8581984499
100
AcDbArc
 50
35.1026272403
 51
35.4468656564
  0
ARC
  5
420
100
AcDbEntity
  8
0
100
AcDbCircle
 62
7
  6
CONTINUOUS
 10
784.1448355579
 20
157.6369680334
 40
53.1764184558
100
AcDbArc
 50
358.1354889681
 51
0.3721831124
  0
ARC
  5
421
100
AcDbEntity
  8
BEZUGSACHSEN
100
AcDbCircle
 62
7
  6
CONTINUOUS
 10
785.5395594984
 20
157.9742574374
 40
52.5656892833
100
AcDbArc
 50
357.7459376503
 51
0.0088644594
  0
ARC
  5
422
100
AcDbEntity
  8
BEZUGSACHSEN
100
AcDbCircle
 62
7
  6
CONTINUOUS
 10
787.0832382135
 20
157.1872642563
 40
51.4140420206
100
AcDbArc
 50
358.275033257
 51
0.010059395
  0
ARC
  5
423
100
AcDbEntity
  8
BEZUGSACHSEN
100
AcDbCircle
 62
7
  6
CONTINUOUS
 10
789.525963736
 20
159.914118628
 40
50.5250011552
100
AcDbArc
 50
345.1479104316
 51
345.4350205163
  0
ARC
  5
424
100
AcDbEntity
  8
BEZUGSACHSEN
100
AcDbCircle
 62
7
  6
CONTINUOUS
 10
792.9197053315
 20
150.1284541225
 40
49.0696856421
100
AcDbArc
 50
22.1632349438
 51
22.5472557002
  0
ARC
  5
425
100
AcDbEntity
  8
BEZUGSACHSEN
100
AcDbCircle
 62
7
  6
CONTINUOUS
 10
795.8672214234
 20
146.8363897275
 40
45.5807526732
100
AcDbArc
 50
6.2828654039
 51
6.6405087436
  0
ARC
  5
426
100
AcDbEntity
  8
BEZUGSACHSEN
100
AcDbCircle
 62
7
  6
CONTINUOUS
 10
795.8217574171
 20
151.8060795101
 40
45.3524500504
100
AcDbArc
 50
357.8358397078
 51
0.0234143891
  0
ARC
  5
427
100
AcDbEntity
  8
BEZUGSACHSEN
100
AcDbCircle
 62
7
  6
CONTINUOUS
 10
795.6821465005
 20
152.6018934582
 40
45.1019832922
100
AcDbArc
 50
358.0332695594
 51
0.0112031588
  0
ARC
  5
428
100
AcDbEntity
  8
BEZUGSACHSEN
100
AcDbCircle
 62
7
  6
CONTINUOUS
 10
798.206984849
 20
151.7239574305
 40
42.9658235134
100
AcDbArc
 50
357.3654762886
 51
357.8251592497
  0
ARC
  5
429
100
AcDbEntity
  8
BEZUGSACHSEN
100
AcDbCircle
 62
7
  6
CONTINUOUS
 10
802.9415207533
 20
153.8807472317
 40
38.8206930606
100
AcDbArc
 50
349.1403246923
 51
349.4090332783
  0
ARC
  5
42A
100
AcDbEntity
  8
BEZUGSACHSEN
100
AcDbCircle
 62
7
  6
CONTINUOUS
 10
801.0039195622
 20
158.633178402
 40
38.4041192525
100
AcDbArc
 50
11.6201498825
 51
12.065548788
  0
ARC
  5
42B
100
AcDbEntity
  8
BEZUGSACHSEN
100
AcDbCircle
 62
7
  6
CONTINUOUS
 10
806.2956252959
 20
155.9081086443
 40
35.4308438561
100
AcDbArc
 50
346.0202989105
 51
346.382842452
  0
ARC
  5
42C
100
AcDbEntity
  8
0
100
AcDbCircle
 62
7
  6
CONTINUOUS
 10
806.8052911122
 20
161.7295211401
 40
31.0848607523
100
AcDbArc
 50
10.3793765039
 51
10.9868464602
  0
ARC
  5
42D
100
AcDbEntity
  8
BEZUGSACHSEN
100
AcDbCircle
 62
7
  6
CONTINUOUS
 10
808.2355121679
 20
161.9408845248
 40
30.4724612351
100
AcDbArc
 50
10.1863134108
 51
10.8056133949
  0
ARC
  5
42E
100
AcDbEntity
  8
BEZUGSACHSEN
100
AcDbCircle
 62
7
  6
CONTINUOUS
 10
817.1915495756
 20
143.759168238
 40
28.8923681771
100
AcDbArc
 50
34.1540669057
 51
34.4108880316
  0
ARC
  5
42F
100
AcDbEntity
  8
BEZUGSACHSEN
100
AcDbCircle
 62
7
  6
CONTINUOUS
 10
814.2999871632
 20
153.2412288791
 40
28.0784481237
100
AcDbArc
 50
31.1803959704
 51
31.5467568164
  0
ARC
  5
430
100
AcDbEntity
  8
0
100
AcDbCircle
 62
7
  6
CONTINUOUS
 10
810.7831635394
 20
163.4872440147
 40
27.1019209225
100
AcDbArc
 50
348.2807228094
 51
348.9307127928
  0
ARC
  5
431
100
AcDbEntity
  8
BEZUGSACHSEN
100
AcDbCircle
 62
7
  6
CONTINUOUS
 10
811.6856410914
 20
163.7032336499
 40
27.0319013085
100
AcDbArc
 50
347.7819300083
 51
348.4347703491
  0
ARC
  5
432
100
AcDbEntity
  8
BEZUGSACHSEN
100
AcDbCircle
 62
7
  6
CONTINUOUS
 10
821.0424862129
 20
162.2456351951
 40
25.4324210667
100
AcDbArc
 50
321.432088143
 51
321.9396192316
  0
ARC
  5
433
100
AcDbEntity
  8
BEZUGSACHSEN
100
AcDbCircle
 62
7
  6
CONTINUOUS
 10
817.0742944135
 20
163.7032390106
 40
22.3893872174
100
AcDbArc
 50
343.1045359109
 51
343.678455972
  0
ARC
  5
434
100
AcDbEntity
  8
BEZUGSACHSEN
100
AcDbCircle
 62
7
  6
CONTINUOUS
 10
820.6262656841
 20
150.5732302234
 40
20.8293098204
100
AcDbArc
 50
349.411176645
 51
350.0048193469
  0
ARC
  5
435
100
AcDbEntity
  8
0
100
AcDbCircle
 62
7
  6
CONTINUOUS
 10
818.8166169702
 20
165.4724669484
 40
18.5046332081
100
AcDbArc
 50
356.9972669912
 51
0.7884528688
  0
ARC
  5
436
100
AcDbEntity
  8
BEZUGSACHSEN
100
AcDbCircle
 62
7
  6
CONTINUOUS
 10
819.9160196656
 20
165.5897891245
 40
18.2388509483
100
AcDbArc
 50
356.5843242626
 51
0.4313637671
  0
ARC
  5
437
100
AcDbEntity
  8
BEZUGSACHSEN
100
AcDbCircle
 62
7
  6
CONTINUOUS
 10
820.5880134899
 20
164.8007825071
 40
17.8935535086
100
AcDbArc
 50
357.5012489072
 51
0.6047621117
  0
ARC
  5
438
100
AcDbEntity
  8
KONSTRUKTIONSELEMENTE
100
AcDbCircle
 62
7
  6
CONTINUOUS
 10
803.2098353511
 20
158.2122776247
 40
4.0
100
AcDbArc
 50
315.0
 51
135.0
  0
ARC
  5
439
100
AcDbEntity
  8
RUNDUNGEN
100
AcDbCircle
 62
7
  6
CONTINUOUS
 10
840.8979125208
 20
52.131116908
 40
15.0
100
AcDbArc
 50
0.0
 51
30.0
  0
ARC
  5
43A
100
AcDbEntity
  8
RUNDUNGEN
100
AcDbCircle
 62
7
  6
CONTINUOUS
 10
862.8979125208
 20
74.0259991415
 40
15.0
100
AcDbArc
 50
180.0
 51
209.3510356863
  0
ARC
  5
43B
100
AcDbEntity
  8
RUNDUNGEN
100
AcDbCircle
 62
7
  6
CONTINUOUS
 10
842.8979125208
 20
85.5538781204
 40
5.0
100
AcDbArc
 50
0.0
 51
72.7786396825
  0
ARC
  5
43C
100
AcDbEntity
  8
BEZUGSACHSEN
100
AcDbCircle
 62
7
  6
CONTINUOUS
 10
830.0250657966
 20
150.5959377057
 40
11.8727701194
100
AcDbArc
 50
0.2753933735
 51
21.1124767989
  0
ARC
  5
43D
100
AcDbEntity
  8
BEZUGSACHSEN
100
AcDbCircle
 62
7
  6
CONTINUOUS
 10
822.509003006
 20
162.4354404988
 40
16.9526417599
100
AcDbArc
 50
357.3623847263
 51
0.6382471574
  0
ARC
  5
43E
100
AcDbEntity
  8
BEZUGSACHSEN
100
AcDbCircle
 62
7
  6
CONTINUOUS
 10
823.2750061481
 20
161.4894142127
 40
16.5786721528
100
AcDbArc
 50
357.3024284729
 51
0.2997103973
  0
ARC
  5
43F
100
AcDbEntity
  8
BEZUGSACHSEN
100
AcDbCircle
 62
7
  6
CONTINUOUS
 10
825.0848814669
 20
158.1920434354
 40
16.1353154188
100
AcDbArc
 50
2.0242100848
 51
2.9754900198
  0
ARC
  5
440
100
AcDbEntity
  8
BEZUGSACHSEN
100
AcDbCircle
 62
7
  6
CONTINUOUS
 10
825.3472269425
 20
158.1500293736
 40
15.872648509
100
AcDbArc
 50
356.4530080661
 51
357.2830726746
  0
ARC
  5
441
100
AcDbEntity
  8
BEZUGSACHSEN
100
AcDbCircle
 62
7
  6
CONTINUOUS
 10
826.0219546344
 20
157.2335430258
 40
15.4894646016
100
AcDbArc
 50
10.8925611355
 51
11.5053489292
  0
ARC
  5
442
100
AcDbEntity
  8
BEZUGSACHSEN
100
AcDbCircle
 62
7
  6
CONTINUOUS
 10
826.5096354526
 20
156.3064690514
 40
15.2406075281
100
AcDbArc
 50
15.9103235804
 51
16.7855374651
  0
ARC
  5
443
100
AcDbEntity
  8
BEZUGSACHSEN
100
AcDbCircle
 62
7
  6
CONTINUOUS
 10
826.5484191431
 20
157.3407049151
 40
14.9522043766
100
AcDbArc
 50
11.5053478395
 51
12.1370386677
  0
ARC
  5
444
100
AcDbEntity
  8
BEZUGSACHSEN
100
AcDbCircle
 62
7
  6
CONTINUOUS
 10
826.9675247627
 20
156.3649180349
 40
14.8186824213
100
AcDbArc
 50
16.5385142683
 51
16.7779772885
  0
ARC
  5
445
100
AcDbEntity
  8
BEZUGSACHSEN
100
AcDbCircle
 62
7
  6
CONTINUOUS
 10
827.0719542902
 20
156.3964814704
 40
14.7095871829
100
AcDbArc
 50
16.7776860456
 51
17.2585393564
  0
ARC
  5
446
100
AcDbEntity
  8
BEZUGSACHSEN
100
AcDbCircle
 62
7
  6
CONTINUOUS
 10
827.1738728965
 20
156.4280655531
 40
14.6028868978
100
AcDbArc
 50
17.2588358926
 51
17.5002090528
  0
ARC
  5
447
100
AcDbEntity
  8
BEZUGSACHSEN
100
AcDbCircle
 62
7
  6
CONTINUOUS
 10
827.9671598238
 20
157.9534857378
 40
13.4652715403
100
AcDbArc
 50
10.1788992972
 51
10.9017831038
  0
ARC
  5
448
100
AcDbEntity
  8
BEZUGSACHSEN
100
AcDbCircle
 62
7
  6
CONTINUOUS
 10
824.8979125208
 20
157.6087859626
 40
12.0
100
AcDbArc
 50
159.0
 51
180.0
  0
ARC
  5
449
100
AcDbEntity
  8
BEZUGSACHSEN
100
AcDbCircle
 62
7
  6
CONTINUOUS
 10
828.8979125208
 20
157.6087859626
 40
12.0
100
AcDbArc
 50
2.7811707557
 51
5.0908512802
  0
ARC
  5
44A
100
AcDbEntity
  8
BEZUGSACHSEN
100
AcDbCircle
 62
7
  6
CONTINUOUS
 10
829.9104244885
 20
157.237282697
 40
11.9873725085
100
AcDbArc
 50
19.4042723555
 51
21.0096433052
  0
ARC
  5
44B
100
AcDbEntity
  8
BEZUGSACHSEN
100
AcDbCircle
 62
7
  6
CONTINUOUS
 10
831.2601204724
 20
153.2325722063
 40
10.6483172365
100
AcDbArc
 50
21.248382856
 51
22.4578538448
  0
ARC
  5
44C
100
AcDbEntity
  8
BEZUGSACHSEN
100
AcDbCircle
 62
7
  6
CONTINUOUS
 10
831.2811902287
 20
153.5874760643
 40
10.6273460264
100
AcDbArc
 50
21.0096145835
 51
22.4816791233
  0
ARC
  5
44D
100
AcDbEntity
  8
0
100
AcDbCircle
 62
7
  6
CONTINUOUS
 10
830.2960635775
 20
153.6671793735
 40
10.6104989278
100
AcDbArc
 50
18.8289122477
 51
22.4718851892
  0
ARC
  5
44E
100
AcDbEntity
  8
0
100
AcDbCircle
 62
7
  6
CONTINUOUS
 10
830.1985355747
 20
167.7646378713
 40
7.1227233378
100
AcDbArc
 50
359.108269691
 51
1.4014470419
  0
ARC
  5
44F
100
AcDbEntity
  8
BEZUGSACHSEN
100
AcDbCircle
 62
7
  6
CONTINUOUS
 10
831.1610883703
 20
167.809738218
 40
7.0083097606
100
AcDbArc
 50
358.7249295085
 51
1.0555302746
  0
ARC
  5
450
100
AcDbEntity
  8
BEZUGSACHSEN
100
AcDbCircle
 62
7
  6
CONTINUOUS
 10
833.8597610219
 20
146.202636296
 40
8.0867468621
100
AcDbArc
 50
26.011070873
 51
26.4362706275
  0
ARC
  5
451
100
AcDbEntity
  8
0
100
AcDbCircle
 62
7
  6
CONTINUOUS
 10
838.785328081
 20
139.3535944371
 40
7.173997935
100
AcDbArc
 50
78.76042251
 51
79.4334493322
  0
ARC
  5
452
100
AcDbEntity
  8
BEZUGSACHSEN
100
AcDbCircle
 62
7
  6
CONTINUOUS
 10
835.2593621122
 20
145.0040856999
 40
6.7104452391
100
AcDbArc
 50
27.0838162698
 51
29.4819396839
  0
ARC
  5
453
100
AcDbEntity
  8
BEZUGSACHSEN
100
AcDbCircle
 62
7
  6
CONTINUOUS
 10
835.4078746315
 20
145.0804103932
 40
6.5434682651
100
AcDbArc
 50
25.3272114489
 51
27.0808543893
  0
ARC
  5
454
100
AcDbEntity
  8
BEZUGSACHSEN
100
AcDbCircle
 62
7
  6
CONTINUOUS
 10
835.4779304874
 20
145.1139495572
 40
6.4657985988
100
AcDbArc
 50
25.0903557694
 51
25.3241421887
  0
ARC
  5
455
100
AcDbEntity
  8
BEZUGSACHSEN
100
AcDbCircle
 62
7
  6
CONTINUOUS
 10
835.6017713392
 20
145.1705810496
 40
6.3296290515
100
AcDbArc
 50
21.6448441199
 51
25.1014588099
  0
ARC
  5
456
100
AcDbEntity
  8
BEZUGSACHSEN
100
AcDbCircle
 62
7
  6
CONTINUOUS
 10
835.7558719864
 20
145.232974338
 40
6.1633805461
100
AcDbArc
 50
20.4829594514
 51
21.6341213521
  0
ARC
  5
457
100
AcDbEntity
  8
0
100
AcDbCircle
 62
7
  6
CONTINUOUS
 10
835.8997957378
 20
137.6485982741
 40
5.1162527503
100
AcDbArc
 50
29.816791485
 51
34.8024527005
  0
ARC
  5
458
100
AcDbEntity
  8
BEZUGSACHSEN
100
AcDbCircle
 62
7
  6
CONTINUOUS
 10
837.1697873986
 20
159.1919755994
 40
8.8036643498
100
AcDbArc
 50
83.0909030787
 51
83.4880888191
  0
ARC
  5
459
100
AcDbEntity
  8
BEZUGSACHSEN
100
AcDbCircle
 62
7
  6
CONTINUOUS
 10
833.1686836649
 20
155.5502328139
 40
8.7511768505
100
AcDbArc
 50
23.4275639716
 51
24.9855226851
  0
ARC
  5
45A
100
AcDbEntity
  8
BEZUGSACHSEN
100
AcDbCircle
 62
7
  6
CONTINUOUS
 10
833.2196842783
 20
155.2325057171
 40
8.7021930461
100
AcDbArc
 50
23.285638979
 51
25.0882191141
  0
ARC
  5
45B
100
AcDbEntity
  8
BEZUGSACHSEN
100
AcDbCircle
 62
7
  6
CONTINUOUS
 10
831.698486038
 20
166.816765726
 40
6.862943378
100
AcDbArc
 50
358.6979166753
 51
1.077889917
  0
ARC
  5
45C
100
AcDbEntity
  8
BEZUGSACHSEN
100
AcDbCircle
 62
7
  6
CONTINUOUS
 10
832.1676654493
 20
165.820458068
 40
6.7858824024
100
AcDbArc
 50
3.2593815903
 51
4.8680271231
  0
ARC
  5
45D
100
AcDbEntity
  8
BEZUGSACHSEN
100
AcDbCircle
 62
7
  6
CONTINUOUS
 10
833.0013657159
 20
164.333002825
 40
6.5401576635
100
AcDbArc
 50
0.8652474306
 51
5.0337729199
  0
ARC
  5
45E
100
AcDbEntity
  8
BEZUGSACHSEN
100
AcDbCircle
 62
7
  6
CONTINUOUS
 10
834.7534988406
 20
160.0314486044
 40
6.4801369199
100
AcDbArc
 50
359.2511853474
 51
1.1416062499
  0
ARC
  5
45F
100
AcDbEntity
  8
BEZUGSACHSEN
100
AcDbCircle
 62
7
  6
CONTINUOUS
 10
833.5607820658
 20
163.3408604763
 40
6.3727626707
100
AcDbArc
 50
0.8805118592
 51
3.4454003433
  0
ARC
  5
460
100
AcDbEntity
  8
BEZUGSACHSEN
100
AcDbCircle
 62
7
  6
CONTINUOUS
 10
834.8338712981
 20
161.0244316575
 40
6.0144079203
100
AcDbArc
 50
358.514111869
 51
0.5509453154
  0
ARC
  5
461
100
AcDbEntity
  8
BEZUGSACHSEN
100
AcDbCircle
 62
7
  6
CONTINUOUS
 10
840.5913985064
 20
154.205337492
 40
5.7062084704
100
AcDbArc
 50
83.5565998191
 51
84.2297714741
  0
ARC
  5
462
100
AcDbEntity
  8
BEZUGSACHSEN
100
AcDbCircle
 62
7
  6
CONTINUOUS
 10
838.3756782258
 20
156.4985702375
 40
5.0199416778
100
AcDbArc
 50
60.5178194097
 51
61.4306568961
  0
ARC
  5
463
100
AcDbEntity
  8
BEZUGSACHSEN
100
AcDbCircle
 62
7
  6
CONTINUOUS
 10
837.3049865247
 20
157.4045556207
 40
4.5870818662
100
AcDbArc
 50
32.6992710188
 51
34.1554233615
  0
ARC
  5
464
100
AcDbEntity
  8
BEZUGSACHSEN
100
AcDbCircle
 62
7
  6
CONTINUOUS
 10
834.509560076
 20
168.1026202418
 40
4.3505864955
100
AcDbArc
 50
326.9054481792
 51
328.4221415859
  0
ARC
  5
465
100
AcDbEntity
  8
0
100
AcDbCircle
 62
7
  6
CONTINUOUS
 10
833.6802674718
 20
168.0395236025
 40
4.3117616757
100
AcDbArc
 50
327.5675234473
 51
329.0868398248
  0
ARC
  5
466
100
AcDbEntity
  8
BEZUGSACHSEN
100
AcDbCircle
 62
7
  6
CONTINUOUS
 10
836.3445552581
 20
163.3504543421
 40
4.223287008
100
AcDbArc
 50
57.3670751066
 51
58.356714715
  0
ARC
  5
467
100
AcDbEntity
  8
BEZUGSACHSEN
100
AcDbCircle
 62
7
  6
CONTINUOUS
 10
836.0348741219
 20
167.7624060202
 40
2.5005824378
100
AcDbArc
 50
28.19832831
 51
31.0366167341
  0
ARC
  5
468
100
AcDbEntity
  8
BEZUGSACHSEN
100
AcDbCircle
 62
7
  6
CONTINUOUS
 10
838.3201906256
 20
167.1707778886
 40
0.5766515871
100
AcDbArc
 50
11.0248700834
 51
15.5597626566
  0
ARC
  5
469
100
AcDbEntity
  8
BEZUGSACHSEN
100
AcDbCircle
 62
7
  6
CONTINUOUS
 10
840.6970432642
 20
161.0582354152
 40
0.544392895
100
AcDbArc
 50
11.4789082122
 51
17.2714329209
  0
ARC
  5
46A
100
AcDbEntity
  8
BEZUGSACHSEN
100
AcDbCircle
 62
7
  6
CONTINUOUS
 10
840.7170467117
 20
161.0624746771
 40
0.523945941
100
AcDbArc
 50
5.5646145788
 51
11.4599200858
  0
ARC
  5
46B
100
AcDbEntity
  8
BEZUGSACHSEN
100
AcDbCircle
 62
7
  6
CONTINUOUS
 10
840.7265986784
 20
161.0634736391
 40
0.514342125
100
AcDbArc
 50
359.6113434944
 51
5.5570377399
  0
ARC
  5
46C
100
AcDbEntity
  8
0
100
AcDbCircle
 62
7
  6
CONTINUOUS
 10
826.8979125208
 20
181.9003547945
 40
69.5
100
AcDbArc
 50
281.6211580012
 51
360.0
  0
ARC
  5
46D
100
AcDbEntity
  8
0
100
AcDbCircle
 62
7
  6
CONTINUOUS
 10
826.8979125208
 20
181.9003547945
 40
69.5
100
AcDbArc
 50
228.3003244345
 51
258.3788419988
  0
ARC
  5
46E
100
AcDbEntity
  8
0
100
AcDbCircle
 62
7
  6
CONTINUOUS
 10
826.8979125208
 20
181.9003547945
 40
69.5
100
AcDbArc
 50
180.0
 51
221.6996755655
  0
ARC
  5
46F
100
AcDbEntity
  8
0
100
AcDbCircle
 62
7
  6
CONTINUOUS
 10
826.8979125208
 20
276.9003547945
 40
69.5
100
AcDbArc
 50
108.8956034486
 51
180.0
  0
ARC
  5
470
100
AcDbEntity
  8
0
100
AcDbCircle
 62
7
  6
CONTINUOUS
 10
826.8979125208
 20
276.9003547945
 40
69.5
100
AcDbArc
 50
0.0
 51
71.1043965514
  0
ARC
  5
471
100
AcDbEntity
  8
BEZUGSACHSEN
100
AcDbCircle
 62
7
  6
CONTINUOUS
 10
810.5442970365
 20
179.1276904305
 40
41.7288856701
100
AcDbArc
 50
311.3265252055
 51
311.6785414343
  0
ARC
  5
472
100
AcDbEntity
  8
0
100
AcDbCircle
 62
7
  6
CONTINUOUS
 10
810.6921871294
 20
177.6849448137
 40
40.0731891336
100
AcDbArc
 50
311.756403319
 51
312.1198514336
  0
ARC
  5
473
100
AcDbEntity
  8
0
100
AcDbCircle
 62
7
  6
CONTINUOUS
 10
826.8979125208
 20
181.9003547945
 40
37.5
100
AcDbArc
 50
292.3314099795
 51
360.0
  0
ARC
  5
474
100
AcDbEntity
  8
0
100
AcDbCircle
 62
7
  6
CONTINUOUS
 10
826.8979125208
 20
181.9003547945
 40
37.5
100
AcDbArc
 50
231.1235812811
 51
248.0717931768
  0
ARC
  5
475
100
AcDbEntity
  8
0
100
AcDbCircle
 62
7
  6
CONTINUOUS
 10
826.8979125208
 20
181.9003547945
 40
37.5
100
AcDbArc
 50
180.0
 51
218.8764187189
  0
ARC
  5
476
100
AcDbEntity
  8
0
100
AcDbCircle
 62
7
  6
CONTINUOUS
 10
826.8979125208
 20
276.9003547945
 40
37.5
100
AcDbArc
 50
126.8822467968
 51
180.0
  0
ARC
  5
477
100
AcDbEntity
  8
0
100
AcDbCircle
 62
7
  6
CONTINUOUS
 10
826.8979125208
 20
276.9003547945
 40
37.5
100
AcDbArc
 50
0.0
 51
53.1177532032
  0
ARC
  5
478
100
AcDbEntity
  8
BEZUGSACHSEN
100
AcDbCircle
 62
7
  6
CONTINUOUS
 10
823.0031604702
 20
179.0136216142
 40
36.2633152037
100
AcDbArc
 50
298.9215779449
 51
299.168306614
  0
ARC
  5
479
100
AcDbEntity
  8
0
100
AcDbCircle
 62
7
  6
CONTINUOUS
 10
826.8979125208
 20
291.9003547945
 40
22.5
100
AcDbArc
 50
180.0
 51
360.0
  0
ARC
  5
47A
100
AcDbEntity
  8
BEZUGSACHSEN
100
AcDbCircle
 62
7
  6
CONTINUOUS
 10
828.4422998497
 20
173.0941180689
 40
17.7186095679
100
AcDbArc
 50
303.2941793039
 51
303.7851910013
  0
ARC
  5
47B
100
AcDbEntity
  8
0
100
AcDbCircle
 62
7
  6
CONTINUOUS
 10
827.8782329769
 20
172.5057513157
 40
17.1045161641
100
AcDbArc
 50
303.7495157208
 51
304.2520709624
  0
ARC
  5
47C
100
AcDbEntity
  8
0
100
AcDbCircle
 62
7
  6
CONTINUOUS
 10
826.8979125208
 20
796.9003547945
 40
22.5
100
AcDbArc
 50
0.0
 51
180.0
  0
SPLINE
  5
47D
100
AcDbEntity
  8
KONSTRUKTIONSELEMENTE
100
AcDbSpline
 62
7
  6
CONTINUOUS
 70
0
 71
3
 72
13
 73
9
 74
0
 42
0.0000001
 43
0.0000001
 44
0.0000000001
 40
0.0
 40
0.0
 40
0.0
 40
0.0
 40
0.1205814004
 40
0.2413301363
 40
0.3630239401
 40
0.4860289892
 40
0.7377510631
 40
1.0
 40
1.0
 40
1.0
 40
1.0
 10
278.2841549298
 20
63.1064155551
 30
0.0
 10
278.2841549298
 20
63.5575924917
 30
0.0
 10
278.3761219344
 20
64.4632324874
 30
0.0
 10
278.7823147102
 20
65.7680461482
 30
0.0
 10
279.4324040191
 20
66.9802031095
 30
0.0
 10
280.5942388641
 20
68.4403927002
 30
0.0
 10
282.5241218933
 20
69.9057203963
 30
0.0
 10
284.3387877208
 20
70.6109869866
 30
0.0
 10
285.2890161882
 20
70.855773086
 30
0.0
  0
SPLINE
  5
47E
100
AcDbEntity
  8
KONSTRUKTIONSELEMENTE
100
AcDbSpline
 62
7
  6
CONTINUOUS
 70
0
 71
3
 72
13
 73
9
 74
0
 42
0.0000001
 43
0.0000001
 44
0.0000000001
 40
0.0
 40
0.0
 40
0.0
 40
0.0
 40
0.2622429925
 40
0.5139423583
 40
0.6369453389
 40
0.7586282612
 40
0.8794111013
 40
1.0
 40
1.0
 40
1.0
 40
1.0
 10
291.6895917438
 20
70.8530923706
 30
0.0
 10
292.6386858783
 20
70.6077014849
 30
0.0
 10
294.4509699907
 20
69.9017351908
 30
0.0
 10
296.3778900683
 20
68.4365308866
 30
0.0
 10
297.537755609
 20
66.9772255196
 30
0.0
 10
298.1869152773
 20
65.7659553131
 30
0.0
 10
298.5922617303
 20
64.4621160046
 30
0.0
 10
298.6841549298
 20
63.5571952121
 30
0.0
 10
298.6841549298
 20
63.1064155551
 30
0.0
  0
SPLINE
  5
47F
100
AcDbEntity
  8
KONSTRUKTIONSELEMENTE
100
AcDbSpline
 62
7
  6
CONTINUOUS
 70
0
 71
3
 72
10
 73
6
 74
0
 42
0.0000001
 43
0.0000001
 44
0.0000000001
 40
0.0
 40
0.0
 40
0.0
 40
0.0
 40
0.2488347756
 40
0.5438407514
 40
1.0
 40
1.0
 40
1.0
 40
1.0
 10
284.6841549298
 20
63.1064155551
 30
0.0
 10
284.6841549298
 20
63.1914598165
 30
0.0
 10
284.7580436568
 20
63.3722241977
 30
0.0
 10
284.9604499009
 20
63.6461043234
 30
0.0
 10
285.1533960159
 20
63.8200811894
 30
0.0
 10
285.2765956956
 20
63.9156172095
 30
0.0
  0
SPLINE
  5
480
100
AcDbEntity
  8
KONSTRUKTIONSELEMENTE
100
AcDbSpline
 62
7
  6
CONTINUOUS
 70
0
 71
3
 72
10
 73
6
 74
0
 42
0.0000001
 43
0.0000001
 44
0.0000000001
 40
0.0
 40
0.0
 40
0.0
 40
0.0
 40
0.4561635586
 40
0.7511952336
 40
1.0
 40
1.0
 40
1.0
 40
1.0
 10
291.6915183494
 20
63.9157818862
 30
0.0
 10
291.8147622122
 20
63.820237957
 30
0.0
 10
292.0077610736
 20
63.6462057557
 30
0.0
 10
292.2102308041
 20
63.372273325
 30
0.0
 10
292.2841549298
 20
63.1914704449
 30
0.0
 10
292.2841549298
 20
63.1064155551
 30
0.0
  0
SPLINE
  5
481
100
AcDbEntity
  8
KONSTRUKTIONSELEMENTE
100
AcDbSpline
 62
7
  6
CONTINUOUS
 70
0
 71
3
 72
9
 73
5
 74
0
 42
0.0000001
 43
0.0000001
 44
0.0000000001
 40
0.0
 40
0.0
 40
0.0
 40
0.0
 40
0.2752644152
 40
1.0
 40
1.0
 40
1.0
 40
1.0
 10
292.2841549298
 20
55.7525050308
 30
0.0
 10
292.2841549298
 20
55.695607168
 30
0.0
 10
292.2238267646
 20
55.4918166844
 30
0.0
 10
292.0941677007
 20
55.3248132567
 30
0.0
 10
291.992067553
 20
55.2151911286
 30
0.0
  0
SPLINE
  5
482
100
AcDbEntity
  8
KONSTRUKTIONSELEMENTE
100
AcDbSpline
 62
7
  6
CONTINUOUS
 70
0
 71
3
 72
9
 73
5
 74
0
 42
0.0000001
 43
0.0000001
 44
0.0000000001
 40
0.0
 40
0.0
 40
0.0
 40
0.0
 40
0.7247302759
 40
1.0
 40
1.0
 40
1.0
 40
1.0
 10
284.9762148921
 20
55.2152210316
 30
0.0
 10
284.8741326106
 20
55.3248449944
 30
0.0
 10
284.7444757783
 20
55.491830835
 30
0.0
 10
284.6841549298
 20
55.6956097687
 30
0.0
 10
284.6841549298
 20
55.7525050308
 30
0.0
  0
SPLINE
  5
483
100
AcDbEntity
  8
KONSTRUKTIONSELEMENTE
100
AcDbSpline
 62
7
  6
CONTINUOUS
 70
0
 71
3
 72
9
 73
5
 74
0
 42
0.0000001
 43
0.0000001
 44
0.0000000001
 40
0.0
 40
0.0
 40
0.0
 40
0.0
 40
0.4977738647
 40
1.0
 40
1.0
 40
1.0
 40
1.0
 10
298.6841549298
 20
55.7525050308
 30
0.0
 10
298.6841549298
 20
55.0248564391
 30
0.0
 10
298.4403817268
 20
53.5534788252
 30
0.0
 10
297.7504360246
 20
52.2366718801
 30
0.0
 10
297.3218078457
 20
51.6406313571
 30
0.0
  0
SPLINE
  5
484
100
AcDbEntity
  8
KONSTRUKTIONSELEMENTE
100
AcDbSpline
 62
7
  6
CONTINUOUS
 70
0
 71
3
 72
9
 73
5
 74
0
 42
0.0000001
 43
0.0000001
 44
0.0000000001
 40
0.0
 40
0.0
 40
0.0
 40
0.0
 40
0.5021776825
 40
1.0
 40
1.0
 40
1.0
 40
1.0
 10
279.6461662347
 20
51.6411442362
 30
0.0
 10
279.2176486516
 20
52.2370522945
 30
0.0
 10
278.5278633243
 20
53.5537113319
 30
0.0
 10
278.2841549298
 20
55.0248860175
 30
0.0
 10
278.2841549298
 20
55.7525050308
 30
0.0
  0
SPLINE
  5
485
100
AcDbEntity
  8
KONSTRUKTIONSELEMENTE
100
AcDbSpline
 62
7
  6
CONTINUOUS
 70
0
 71
3
 72
9
 73
5
 74
0
 42
0.0000001
 43
0.0000001
 44
0.0000000001
 40
0.0
 40
0.0
 40
0.0
 40
0.0
 40
0.4922747915
 40
1.0
 40
1.0
 40
1.0
 40
1.0
 10
281.111506359
 20
94.2341718673
 30
0.0
 10
281.6643847804
 20
94.6930948389
 30
0.0
 10
282.9005228319
 20
95.4943350434
 30
0.0
 10
284.2709325075
 20
96.0251485431
 30
0.0
 10
284.9835200925
 20
96.2286683995
 30
0.0
  0
SPLINE
  5
486
100
AcDbEntity
  8
KONSTRUKTIONSELEMENTE
100
AcDbSpline
 62
7
  6
CONTINUOUS
 70
0
 71
3
 72
9
 73
5
 74
0
 42
0.0000001
 43
0.0000001
 44
0.0000000001
 40
0.0
 40
0.0
 40
0.0
 40
0.0
 40
0.5077339443
 40
1.0
 40
1.0
 40
1.0
 40
1.0
 10
291.9895907115
 20
96.2272758488
 30
0.0
 10
292.7012709618
 20
96.0237247345
 30
0.0
 10
294.0698604782
 20
95.4930675242
 30
0.0
 10
295.3044219516
 20
94.6926602102
 30
0.0
 10
295.8566471444
 20
94.2343008514
 30
0.0
  0
SPLINE
  5
487
100
AcDbEntity
  8
KONSTRUKTIONSELEMENTE
100
AcDbSpline
 62
7
  6
CONTINUOUS
 70
0
 71
3
 72
9
 73
5
 74
0
 42
0.0000001
 43
0.0000001
 44
0.0000000001
 40
0.0
 40
0.0
 40
0.0
 40
0.0
 40
0.4920422614
 40
1.0
 40
1.0
 40
1.0
 40
1.0
 10
295.7677615507
 20
75.4634680836
 30
0.0
 10
295.1850193842
 20
74.991997369
 30
0.0
 10
293.8804294209
 20
74.1767281898
 30
0.0
 10
292.4374114183
 20
73.65489264
 30
0.0
 10
291.6881941024
 20
73.4612880081
 30
0.0
  0
SPLINE
  5
488
100
AcDbEntity
  8
KONSTRUKTIONSELEMENTE
100
AcDbSpline
 62
7
  6
CONTINUOUS
 70
0
 71
3
 72
9
 73
5
 74
0
 42
0.0000001
 43
0.0000001
 44
0.0000000001
 40
0.0
 40
0.0
 40
0.0
 40
0.0
 40
0.5079750284
 40
1.0
 40
1.0
 40
1.0
 40
1.0
 10
285.2787181157
 20
73.461672338
 30
0.0
 10
284.529725826
 20
73.6553263442
 30
0.0
 10
283.0871865764
 20
74.1771137433
 30
0.0
 10
281.7830303032
 20
74.9921967415
 30
0.0
 10
281.2004889094
 20
75.4635166981
 30
0.0
  0
SPLINE
  5
489
100
AcDbEntity
  8
KONSTRUKTIONSELEMENTE
100
AcDbSpline
 62
7
  6
CONTINUOUS
 70
0
 71
3
 72
11
 73
7
 74
0
 42
0.0000001
 43
0.0000001
 44
0.0000000001
 40
0.0
 40
0.0
 40
0.0
 40
0.0
 40
0.2313517462
 40
0.4775691394
 40
0.7351801865
 40
1.0
 40
1.0
 40
1.0
 40
1.0
 10
262.8982945442
 20
114.6289897397
 30
0.0
 10
264.370217224
 20
113.5605717243
 30
0.0
 10
267.6037777526
 20
111.6161087405
 30
0.0
 10
272.9600976146
 20
109.3969272214
 30
0.0
 10
278.8203639449
 20
107.8547655452
 30
0.0
 10
282.905395684
 20
107.3210111246
 30
0.0
 10
284.9824113264
 20
107.1781076766
 30
0.0
  0
SPLINE
  5
48A
100
AcDbEntity
  8
KONSTRUKTIONSELEMENTE
100
AcDbSpline
 62
7
  6
CONTINUOUS
 70
0
 71
3
 72
11
 73
7
 74
0
 42
0.0000001
 43
0.0000001
 44
0.0000000001
 40
0.0
 40
0.0
 40
0.0
 40
0.0
 40
0.2648245591
 40
0.5224383814
 40
0.7686548251
 40
1.0
 40
1.0
 40
1.0
 40
1.0
 10
291.9857206105
 20
107.1780988288
 30
0.0
 10
294.0632058425
 20
107.3210226188
 30
0.0
 10
298.1491470162
 20
107.8549316346
 30
0.0
 10
304.0106235638
 20
109.3976794685
 30
0.0
 10
309.3678642752
 20
111.6177086795
 30
0.0
 10
312.6018294252
 20
113.5629322534
 30
0.0
 10
314.0738476256
 20
114.6317739763
 30
0.0
  0
SPLINE
  5
48B
100
AcDbEntity
  8
KONSTRUKTIONSELEMENTE
100
AcDbSpline
 62
7
  6
CONTINUOUS
 70
0
 71
3
 72
9
 73
5
 74
0
 42
0.0000001
 43
0.0000001
 44
0.0000000001
 40
0.0
 40
0.0
 40
0.0
 40
0.0
 40
0.2450730537
 40
1.0
 40
1.0
 40
1.0
 40
1.0
 10
268.3436427129
 20
102.703192105
 30
0.0
 10
269.6428940656
 20
102.2012434356
 30
0.0
 10
275.0285705731
 20
100.3751076778
 30
0.0
 10
280.6996133458
 20
99.4161214645
 30
0.0
 10
284.9825976638
 20
99.1617700026
 30
0.0
  0
SPLINE
  5
48C
100
AcDbEntity
  8
KONSTRUKTIONSELEMENTE
100
AcDbSpline
 62
7
  6
CONTINUOUS
 70
0
 71
3
 72
9
 73
5
 74
0
 42
0.0000001
 43
0.0000001
 44
0.0000000001
 40
0.0
 40
0.0
 40
0.0
 40
0.0
 40
0.2546360491
 40
1.0
 40
1.0
 40
1.0
 40
1.0
 10
291.985370853
 20
99.1617529849
 30
0.0
 10
293.4293734605
 20
99.2475027431
 30
0.0
 10
299.0848188435
 20
99.7925152588
 30
0.0
 10
304.6682943848
 20
101.1753489673
 30
0.0
 10
308.6182884951
 20
102.7007279168
 30
0.0
  0
SPLINE
  5
48D
100
AcDbEntity
  8
KONSTRUKTIONSELEMENTE
100
AcDbSpline
 62
7
  6
CONTINUOUS
 70
0
 71
3
 72
12
 73
8
 74
0
 42
0.0000001
 43
0.0000001
 44
0.0000000001
 40
0.0
 40
0.0
 40
0.0
 40
0.0
 40
0.1038096184
 40
0.2125411153
 40
0.4501979882
 40
0.7163641136
 40
1.0
 40
1.0
 40
1.0
 40
1.0
 10
279.3239484728
 20
-68.4305456538
 30
0.0
 10
279.2640989796
 20
-68.0871632443
 30
0.0
 10
279.0498490817
 20
-67.397391951
 30
0.0
 10
278.2688241769
 20
-66.0897241318
 30
0.0
 10
276.6687290082
 20
-64.7134018911
 30
0.0
 10
274.1924105992
 20
-63.6982687061
 30
0.0
 10
272.3365124155
 20
-63.4656982772
 30
0.0
 10
271.3841549298
 20
-63.4656982772
 30
0.0
  0
SPLINE
  5
48E
100
AcDbEntity
  8
KONSTRUKTIONSELEMENTE
100
AcDbSpline
 62
7
  6
CONTINUOUS
 70
0
 71
3
 72
9
 73
5
 74
0
 42
0.0000001
 43
0.0000001
 44
0.0000000001
 40
0.0
 40
0.0
 40
0.0
 40
0.0
 40
0.7446194581
 40
1.0
 40
1.0
 40
1.0
 40
1.0
 10
248.4733676499
 20
4.1847906003
 30
0.0
 10
248.4733070789
 20
4.3521007943
 30
0.0
 10
248.4340418741
 20
4.5788801472
 30
0.0
 10
248.3504871378
 20
4.7875628975
 30
0.0
 10
248.3265281366
 20
4.8397036954
 30
0.0
  0
SPLINE
  5
48F
100
AcDbEntity
  8
KONSTRUKTIONSELEMENTE
100
AcDbSpline
 62
7
  6
CONTINUOUS
 70
0
 71
3
 72
11
 73
7
 74
0
 42
0.0000001
 43
0.0000001
 44
0.0000000001
 40
0.0
 40
0.0
 40
0.0
 40
0.0
 40
0.2165107186
 40
0.451460212
 40
0.7134365312
 40
1.0
 40
1.0
 40
1.0
 40
1.0
 10
233.1052900931
 20
3.3726646896
 30
0.0
 10
233.1052090185
 20
3.5966100407
 30
0.0
 10
233.2158416312
 20
4.0684384626
 30
0.0
 10
233.6697989107
 20
4.670669483
 30
0.0
 10
234.3476425855
 20
5.1347541988
 30
0.0
 10
234.8893709032
 20
5.3244007709
 30
0.0
 10
235.1782481722
 20
5.3907711671
 30
0.0
  0
SPLINE
  5
490
100
AcDbEntity
  8
KONSTRUKTIONSELEMENTE
100
AcDbSpline
 62
7
  6
CONTINUOUS
 70
0
 71
3
 72
11
 73
7
 74
0
 42
0.0000001
 43
0.0000001
 44
0.0000000001
 40
0.0
 40
0.0
 40
0.0
 40
0.0
 40
0.2165219707
 40
0.4514695353
 40
0.7134663306
 40
1.0
 40
1.0
 40
1.0
 40
1.0
 10
223.5848954877
 20
25.58388965
 30
0.0
 10
223.5850007376
 20
26.3302215914
 30
0.0
 10
223.9542863706
 20
27.9024304135
 30
0.0
 10
225.4677315727
 20
29.9089782527
 30
0.0
 10
227.7269113275
 20
31.4549821816
 30
0.0
 10
229.5321428505
 20
32.0869744903
 30
0.0
 10
230.4947200927
 20
32.3081294229
 30
0.0
  0
SPLINE
  5
491
100
AcDbEntity
  8
KONSTRUKTIONSELEMENTE
100
AcDbSpline
 62
7
  6
CONTINUOUS
 70
0
 71
3
 72
9
 73
5
 74
0
 42
0.0000001
 43
0.0000001
 44
0.0000000001
 40
0.0
 40
0.0
 40
0.0
 40
0.0
 40
0.24703719
 40
1.0
 40
1.0
 40
1.0
 40
1.0
 10
223.5848954877
 20
22.048355744
 30
0.0
 10
223.5848693599
 20
21.8630818728
 30
0.0
 10
223.6259842228
 20
21.1133283297
 30
0.0
 10
223.8385387603
 20
20.3756600161
 30
0.0
 10
224.0743248735
 20
19.8625302751
 30
0.0
  0
SPLINE
  5
492
100
AcDbEntity
  8
KONSTRUKTIONSELEMENTE
100
AcDbSpline
 62
7
  6
CONTINUOUS
 70
0
 71
3
 72
9
 73
5
 74
0
 42
0.0000001
 43
0.0000001
 44
0.0000000001
 40
0.0
 40
0.0
 40
0.0
 40
0.0
 40
0.247037646
 40
1.0
 40
1.0
 40
1.0
 40
1.0
 10
322.429906776
 20
-47.5557756207
 30
0.0
 10
322.4298759029
 20
-47.3704912323
 30
0.0
 10
322.4709769393
 20
-46.6206954821
 30
0.0
 10
322.6835376111
 20
-45.8829829982
 30
0.0
 10
322.9193365316
 20
-45.3698253854
 30
0.0
  0
SPLINE
  5
493
100
AcDbEntity
  8
KONSTRUKTIONSELEMENTE
100
AcDbSpline
 62
7
  6
CONTINUOUS
 70
0
 71
3
 72
11
 73
7
 74
0
 42
0.0000001
 43
0.0000001
 44
0.0000000001
 40
0.0
 40
0.0
 40
0.0
 40
0.0
 40
0.2203815833
 40
0.4602540562
 40
0.7212311482
 40
1.0
 40
1.0
 40
1.0
 40
1.0
 10
322.7496131726
 20
-45.7930480098
 30
0.0
 10
322.9658455827
 20
-46.3832669849
 30
0.0
 10
323.6359496316
 20
-47.541782406
 30
0.0
 10
325.1460370782
 20
-48.9708403896
 30
0.0
 10
327.090759321
 20
-50.0849497706
 30
0.0
 10
328.5648052487
 20
-50.5663150942
 30
0.0
 10
329.3397317508
 20
-50.7443567213
 30
0.0
  0
SPLINE
  5
494
100
AcDbEntity
  8
KONSTRUKTIONSELEMENTE
100
AcDbSpline
 62
7
  6
CONTINUOUS
 70
0
 71
3
 72
11
 73
7
 74
0
 42
0.0000001
 43
0.0000001
 44
0.0000000001
 40
0.0
 40
0.0
 40
0.0
 40
0.0
 40
0.2094829334
 40
0.4446557434
 40
0.7120095299
 40
1.0
 40
1.0
 40
1.0
 40
1.0
 10
275.3841549298
 20
-88.9215424
 30
0.0
 10
275.3841549298
 20
-89.2026645747
 30
0.0
 10
275.5667297884
 20
-89.8064518636
 30
0.0
 10
276.2657742309
 20
-90.4978543843
 30
0.0
 10
277.2477233513
 20
-90.941816408
 30
0.0
 10
277.9976771104
 20
-91.0428627435
 30
0.0
 10
278.3841549298
 20
-91.0428627435
 30
0.0
  0
SPLINE
  5
495
100
AcDbEntity
  8
KONSTRUKTIONSELEMENTE
100
AcDbSpline
 62
7
  6
CONTINUOUS
 70
0
 71
3
 72
10
 73
6
 74
0
 42
0.0000001
 43
0.0000001
 44
0.0000000001
 40
0.0
 40
0.0
 40
0.0
 40
0.0
 40
0.2176045202
 40
0.4537200981
 40
1.0
 40
1.0
 40
1.0
 40
1.0
 10
340.4923363094
 20
-53.8204003903
 30
0.0
 10
340.4923302441
 20
-53.7457644527
 30
0.0
 10
340.4553351323
 20
-53.5884664348
 30
0.0
 10
340.244783292
 20
-53.3091055092
 30
0.0
 10
339.9839636885
 20
-53.189900096
 30
0.0
 10
339.8013534301
 20
-53.1479448558
 30
0.0
  0
SPLINE
  5
496
100
AcDbEntity
  8
KONSTRUKTIONSELEMENTE
100
AcDbSpline
 62
7
  6
CONTINUOUS
 70
0
 71
3
 72
9
 73
5
 74
0
 42
0.0000001
 43
0.0000001
 44
0.0000000001
 40
0.0
 40
0.0
 40
0.0
 40
0.0
 40
0.2557501717
 40
1.0
 40
1.0
 40
1.0
 40
1.0
 10
373.8172283445
 20
15.0553540062
 30
0.0
 10
373.897266852
 20
15.2295378801
 30
0.0
 10
374.1762987865
 20
15.9255552127
 30
0.0
 10
374.3066379864
 20
16.6822143933
 30
0.0
 10
374.3066549308
 20
17.2400534724
 30
0.0
  0
SPLINE
  5
497
100
AcDbEntity
  8
KONSTRUKTIONSELEMENTE
100
AcDbSpline
 62
7
  6
CONTINUOUS
 70
0
 71
3
 72
9
 73
5
 74
0
 42
0.0000001
 43
0.0000001
 44
0.0000000001
 40
0.0
 40
0.0
 40
0.0
 40
0.0
 40
0.5421687125
 40
1.0
 40
1.0
 40
1.0
 40
1.0
 10
371.9391208451
 20
13.2563664825
 30
0.0
 10
372.1873820599
 20
13.1993277434
 30
0.0
 10
372.6783293832
 20
13.2129024818
 30
0.0
 10
373.109380595
 20
13.5148997046
 30
0.0
 10
373.1991943558
 20
13.7103569823
 30
0.0
  0
SPLINE
  5
498
100
AcDbEntity
  8
KONSTRUKTIONSELEMENTE
100
AcDbSpline
 62
7
  6
CONTINUOUS
 70
0
 71
3
 72
8
 73
4
 74
0
 42
0.0000001
 43
0.0000001
 44
0.0000000001
 40
0.0
 40
0.0
 40
0.0
 40
0.0
 40
1.0
 40
1.0
 40
1.0
 40
1.0
 10
340.443392952
 20
-57.5744852859
 30
0.0
 10
340.4745639215
 20
-57.5066494356
 30
0.0
 10
340.4923423762
 20
-57.4305890475
 30
0.0
 10
340.4923363094
 20
-57.3559342963
 30
0.0
  0
SPLINE
  5
499
100
AcDbEntity
  8
KONSTRUKTIONSELEMENTE
100
AcDbSpline
 62
7
  6
CONTINUOUS
 70
0
 71
3
 72
11
 73
7
 74
0
 42
0.0000001
 43
0.0000001
 44
0.0000000001
 40
0.0
 40
0.0
 40
0.0
 40
0.0
 40
0.2773556544
 40
0.5416273378
 40
0.7832845041
 40
1.0
 40
1.0
 40
1.0
 40
1.0
 10
330.4709208913
 20
-63.4656982772
 30
0.0
 10
331.5074673043
 20
-63.4656982772
 30
0.0
 10
333.5393029463
 20
-63.2443889687
 30
0.0
 10
336.3279594746
 20
-62.2654969062
 30
0.0
 10
338.5882056909
 20
-60.7237743223
 30
0.0
 10
339.6433164649
 20
-59.3156524607
 30
0.0
 10
339.9814860543
 20
-58.5797105876
 30
0.0
  0
SPLINE
  5
49A
100
AcDbEntity
  8
KONSTRUKTIONSELEMENTE
100
AcDbSpline
 62
7
  6
CONTINUOUS
 70
0
 71
3
 72
12
 73
8
 74
0
 42
0.0000001
 43
0.0000001
 44
0.0000000001
 40
0.0
 40
0.0
 40
0.0
 40
0.0
 40
0.2874378001
 40
0.5543027143
 40
0.7890463209
 40
0.896415877
 40
1.0
 40
1.0
 40
1.0
 40
1.0
 10
305.5841549298
 20
-63.4656982772
 30
0.0
 10
304.5535947777
 20
-63.4656982772
 30
0.0
 10
302.5537886134
 20
-63.7367368334
 30
0.0
 10
299.9349450313
 20
-64.9140999682
 30
0.0
 10
298.3383541017
 20
-66.5113851559
 30
0.0
 10
297.6920947852
 20
-67.9909797395
 30
0.0
 10
297.5841549298
 20
-68.7511689805
 30
0.0
 10
297.5841549298
 20
-69.1225525267
 30
0.0
  0
SPLINE
  5
49B
100
AcDbEntity
  8
KONSTRUKTIONSELEMENTE
100
AcDbSpline
 62
7
  6
CONTINUOUS
 70
0
 71
3
 72
11
 73
7
 74
0
 42
0.0000001
 43
0.0000001
 44
0.0000000001
 40
0.0
 40
0.0
 40
0.0
 40
0.0
 40
0.2165288812
 40
0.4514682898
 40
0.7134745045
 40
1.0
 40
1.0
 40
1.0
 40
1.0
 10
374.3066549308
 20
20.7755873784
 30
0.0
 10
374.3066776037
 20
21.522022872
 30
0.0
 10
373.9377134823
 20
23.0944901597
 30
0.0
 10
372.4242559865
 20
25.10144761
 30
0.0
 10
370.1649116492
 20
26.6476992629
 30
0.0
 10
368.3594857267
 20
27.2797809074
 30
0.0
 10
367.3968331253
 20
27.500953154
 30
0.0
  0
SPLINE
  5
49C
100
AcDbEntity
  8
KONSTRUKTIONSELEMENTE
100
AcDbSpline
 62
7
  6
CONTINUOUS
 70
0
 71
3
 72
9
 73
5
 74
0
 42
0.0000001
 43
0.0000001
 44
0.0000000001
 40
0.0
 40
0.0
 40
0.0
 40
0.0
 40
0.2668708834
 40
1.0
 40
1.0
 40
1.0
 40
1.0
 10
245.1643415933
 20
7.6851052955
 30
0.0
 10
245.3117661704
 20
7.7189765226
 30
0.0
 10
245.8554452906
 20
7.876965736
 30
0.0
 10
246.3691433154
 20
8.1676690219
 30
0.0
 10
246.6665309828
 20
8.4579089348
 30
0.0
  0
SPLINE
  5
49D
100
AcDbEntity
  8
KONSTRUKTIONSELEMENTE
100
AcDbSpline
 62
7
  6
CONTINUOUS
 70
0
 71
3
 72
11
 73
7
 74
0
 42
0.0000001
 43
0.0000001
 44
0.0000000001
 40
0.0
 40
0.0
 40
0.0
 40
0.0
 40
0.2879904701
 40
0.5553442566
 40
0.7905170666
 40
1.0
 40
1.0
 40
1.0
 40
1.0
 10
298.5841549298
 20
-91.0428627435
 30
0.0
 10
298.9706327491
 20
-91.0428627435
 30
0.0
 10
299.7205865082
 20
-90.941816408
 30
0.0
 10
300.7025356286
 20
-90.4978543843
 30
0.0
 10
301.4015800711
 20
-89.8064518636
 30
0.0
 10
301.5841549298
 20
-89.2026645747
 30
0.0
 10
301.5841549298
 20
-88.9215424
 30
0.0
  0
SPLINE
  5
49E
100
AcDbEntity
  8
KONSTRUKTIONSELEMENTE
100
AcDbSpline
 62
7
  6
CONTINUOUS
 70
0
 71
3
 72
11
 73
7
 74
0
 42
0.0000001
 43
0.0000001
 44
0.0000000001
 40
0.0
 40
0.0
 40
0.0
 40
0.0
 40
0.2809363762
 40
0.5390132064
 40
0.7759685789
 40
1.0
 40
1.0
 40
1.0
 40
1.0
 10
305.3279401972
 20
-63.6256974858
 30
0.0
 10
304.7795537598
 20
-63.8693434695
 30
0.0
 10
303.769129559
 20
-64.4436466182
 30
0.0
 10
302.5508691483
 20
-65.594902926
 30
0.0
 10
301.7676095333
 20
-66.9446213501
 30
0.0
 10
301.5841549298
 20
-67.9369180027
 30
0.0
 10
301.5841549298
 20
-68.4154457455
 30
0.0
  0
SPLINE
  5
49F
100
AcDbEntity
  8
KONSTRUKTIONSELEMENTE
100
AcDbSpline
 62
7
  6
CONTINUOUS
 70
0
 71
3
 72
11
 73
7
 74
0
 42
0.0000001
 43
0.0000001
 44
0.0000000001
 40
0.0
 40
0.0
 40
0.0
 40
0.0
 40
0.2815407437
 40
0.5399344635
 40
0.7766533827
 40
1.0
 40
1.0
 40
1.0
 40
1.0
 10
271.4973989394
 20
-63.4641575791
 30
0.0
 10
272.0644453361
 20
-63.7045111191
 30
0.0
 10
273.1106211835
 20
-64.2768993799
 30
0.0
 10
274.3761424739
 20
-65.4395843693
 30
0.0
 10
275.1923898987
 20
-66.8129859413
 30
0.0
 10
275.3841549298
 20
-67.8274460126
 30
0.0
 10
275.3841549298
 20
-68.3160264754
 30
0.0
  0
SPLINE
  5
4A0
100
AcDbEntity
  8
KONSTRUKTIONSELEMENTE
100
AcDbSpline
 62
7
  6
CONTINUOUS
 70
0
 71
3
 72
9
 73
5
 74
0
 42
0.0000001
 43
0.0000001
 44
0.0000000001
 40
0.0
 40
0.0
 40
0.0
 40
0.0
 40
0.2553805419
 40
1.0
 40
1.0
 40
1.0
 40
1.0
 10
233.2521296064
 20
0.596431251
 30
0.0
 10
233.2281706052
 20
0.6485720489
 30
0.0
 10
233.1446158689
 20
0.8572547992
 30
0.0
 10
233.1053506642
 20
1.0840341521
 30
0.0
 10
233.1052900931
 20
1.2513443461
 30
0.0
  0
SPLINE
  5
4A1
100
AcDbEntity
  8
KONSTRUKTIONSELEMENTE
100
AcDbSpline
 62
7
  6
CONTINUOUS
 70
0
 71
3
 72
9
 73
5
 74
0
 42
0.0000001
 43
0.0000001
 44
0.0000000001
 40
0.0
 40
0.0
 40
0.0
 40
0.0
 40
0.2401439602
 40
1.0
 40
1.0
 40
1.0
 40
1.0
 10
225.6194098454
 20
16.5000377153
 30
0.0
 10
225.6459580369
 20
16.4422621897
 30
0.0
 10
225.7698124406
 20
16.2078231597
 30
0.0
 10
225.9437247244
 20
16.0014431778
 30
0.0
 10
226.0916023408
 20
15.8650292513
 30
0.0
  0
SPLINE
  5
4A2
100
AcDbEntity
  8
KONSTRUKTIONSELEMENTE
100
AcDbSpline
 62
7
  6
CONTINUOUS
 70
0
 71
3
 72
11
 73
7
 74
0
 42
0.0000001
 43
0.0000001
 44
0.0000000001
 40
0.0
 40
0.0
 40
0.0
 40
0.0
 40
0.218430057
 40
0.4594392003
 40
0.7221962123
 40
1.0
 40
1.0
 40
1.0
 40
1.0
 10
260.1189927385
 20
-58.5797105876
 30
0.0
 10
260.4221455799
 20
-59.2394472313
 30
0.0
 10
261.3308886888
 20
-60.5092856594
 30
0.0
 10
263.2695909643
 20
-61.9709926837
 30
0.0
 10
265.6822166598
 20
-62.9925505657
 30
0.0
 10
267.4623294937
 20
-63.3286946925
 30
0.0
 10
268.3821118061
 20
-63.4104653494
 30
0.0
  0
SPLINE
  5
4A3
100
AcDbEntity
  8
KONSTRUKTIONSELEMENTE
100
AcDbSpline
 62
7
  6
CONTINUOUS
 70
0
 71
3
 72
12
 73
8
 74
0
 42
0.0000001
 43
0.0000001
 44
0.0000000001
 40
0.0
 40
0.0
 40
0.0
 40
0.0
 40
0.214597601
 40
0.3340131511
 40
0.4606650373
 40
0.7282666641
 40
1.0
 40
1.0
 40
1.0
 40
1.0
 10
348.8767640591
 20
11.1200496196
 30
0.0
 10
349.3041472145
 20
12.0501425959
 30
0.0
 10
350.3722124995
 20
13.3237785661
 30
0.0
 10
352.2018160768
 20
14.547621295
 30
0.0
 10
354.4486291193
 20
15.5542306332
 30
0.0
 10
357.6126577457
 20
16.1607686219
 30
0.0
 10
360.2142981404
 20
15.9501787418
 30
0.0
 10
361.4774991658
 20
15.659954617
 30
0.0
  0
SPLINE
  5
4A4
100
AcDbEntity
  8
KONSTRUKTIONSELEMENTE
100
AcDbSpline
 62
7
  6
CONTINUOUS
 70
0
 71
3
 72
11
 73
7
 74
0
 42
0.0000001
 43
0.0000001
 44
0.0000000001
 40
0.0
 40
0.0
 40
0.0
 40
0.0
 40
0.2165288812
 40
0.4514682898
 40
0.7134745045
 40
1.0
 40
1.0
 40
1.0
 40
1.0
 10
374.3066549308
 20
17.2400534724
 30
0.0
 10
374.3066776037
 20
17.9864889661
 30
0.0
 10
373.9377134823
 20
19.5589562538
 30
0.0
 10
372.4242559865
 20
21.5659137041
 30
0.0
 10
370.1649116492
 20
23.112165357
 30
0.0
 10
368.3594857267
 20
23.7442470014
 30
0.0
 10
367.3968331253
 20
23.9654192481
 30
0.0
  0
SPLINE
  5
4A5
100
AcDbEntity
  8
KONSTRUKTIONSELEMENTE
100
AcDbSpline
 62
7
  6
CONTINUOUS
 70
0
 71
3
 72
11
 73
7
 74
0
 42
0.0000001
 43
0.0000001
 44
0.0000000001
 40
0.0
 40
0.0
 40
0.0
 40
0.0
 40
0.2815748002
 40
0.5432923916
 40
0.7815782687
 40
1.0
 40
1.0
 40
1.0
 40
1.0
 10
246.4004095708
 20
2.873790904
 30
0.0
 10
246.6520860606
 20
2.9316143126
 30
0.0
 10
247.1286048535
 20
3.0911714423
 30
0.0
 10
247.746808305
 20
3.4674835597
 30
0.0
 10
248.2058945072
 20
3.9525994542
 30
0.0
 10
248.3848090425
 20
4.3428588254
 30
0.0
 10
248.4313916733
 20
4.5376828771
 30
0.0
  0
SPLINE
  5
4A6
100
AcDbEntity
  8
KONSTRUKTIONSELEMENTE
100
AcDbSpline
 62
7
  6
CONTINUOUS
 70
0
 71
3
 72
11
 73
7
 74
0
 42
0.0000001
 43
0.0000001
 44
0.0000000001
 40
0.0
 40
0.0
 40
0.0
 40
0.0
 40
0.2825292704
 40
0.5442891309
 40
0.7820757896
 40
1.0
 40
1.0
 40
1.0
 40
1.0
 10
245.1643415933
 20
5.5637849519
 30
0.0
 10
245.4223575056
 20
5.6230648613
 30
0.0
 10
245.910023
 20
5.7875111521
 30
0.0
 10
246.5388388872
 20
6.1782758285
 30
0.0
 10
246.9989175429
 20
6.6821294304
 30
0.0
 10
247.1685632487
 20
7.0865464776
 30
0.0
 10
247.2082534856
 20
7.2868534564
 30
0.0
  0
SPLINE
  5
4A7
100
AcDbEntity
  8
KONSTRUKTIONSELEMENTE
100
AcDbSpline
 62
7
  6
CONTINUOUS
 70
0
 71
3
 72
10
 73
6
 74
0
 42
0.0000001
 43
0.0000001
 44
0.0000000001
 40
0.0
 40
0.0
 40
0.0
 40
0.0
 40
0.2176045202
 40
0.4537200981
 40
1.0
 40
1.0
 40
1.0
 40
1.0
 10
340.4923363094
 20
-57.3559342963
 30
0.0
 10
340.4923302441
 20
-57.2812983586
 30
0.0
 10
340.4553351323
 20
-57.1240003407
 30
0.0
 10
340.244783292
 20
-56.8446394151
 30
0.0
 10
339.9839636885
 20
-56.7254340019
 30
0.0
 10
339.8013534301
 20
-56.6834787617
 30
0.0
  0
SPLINE
  5
4A8
100
AcDbEntity
  8
KONSTRUKTIONSELEMENTE
100
AcDbSpline
 62
7
  6
CONTINUOUS
 70
0
 71
3
 72
11
 73
7
 74
0
 42
0.0000001
 43
0.0000001
 44
0.0000000001
 40
0.0
 40
0.0
 40
0.0
 40
0.0
 40
0.2165107186
 40
0.451460212
 40
0.7134365312
 40
1.0
 40
1.0
 40
1.0
 40
1.0
 10
233.1052900931
 20
1.2513443461
 30
0.0
 10
233.1052090185
 20
1.4752896971
 30
0.0
 10
233.2158416312
 20
1.947118119
 30
0.0
 10
233.6697989107
 20
2.5493491395
 30
0.0
 10
234.3476425855
 20
3.0134338553
 30
0.0
 10
234.8893709032
 20
3.2030804273
 30
0.0
 10
235.1782481722
 20
3.2694508235
 30
0.0
  0
SPLINE
  5
4A9
100
AcDbEntity
  8
KONSTRUKTIONSELEMENTE
100
AcDbSpline
 62
7
  6
CONTINUOUS
 70
0
 71
3
 72
11
 73
7
 74
0
 42
0.0000001
 43
0.0000001
 44
0.0000000001
 40
0.0
 40
0.0
 40
0.0
 40
0.0
 40
0.2865634688
 40
0.548539788
 40
0.7834892814
 40
1.0
 40
1.0
 40
1.0
 40
1.0
 10
246.4004095708
 20
2.1666841229
 30
0.0
 10
246.6892868398
 20
2.2330545191
 30
0.0
 10
247.2310151575
 20
2.4227010912
 30
0.0
 10
247.9088588323
 20
2.8867858069
 30
0.0
 10
248.3628161119
 20
3.4890168274
 30
0.0
 10
248.4734487245
 20
3.9608452493
 30
0.0
 10
248.4733676499
 20
4.1847906003
 30
0.0
  0
SPLINE
  5
4AA
100
AcDbEntity
  8
KONSTRUKTIONSELEMENTE
100
AcDbSpline
 62
7
  6
CONTINUOUS
 70
0
 71
3
 72
11
 73
7
 74
0
 42
0.0000001
 43
0.0000001
 44
0.0000000001
 40
0.0
 40
0.0
 40
0.0
 40
0.0
 40
0.2865336694
 40
0.5485304647
 40
0.7834780293
 40
1.0
 40
1.0
 40
1.0
 40
1.0
 10
230.4947200927
 20
28.772595517
 30
0.0
 10
229.5321428505
 20
28.5514405844
 30
0.0
 10
227.7269113275
 20
27.9194482756
 30
0.0
 10
225.4677315727
 20
26.3734443467
 30
0.0
 10
223.9542863706
 20
24.3668965075
 30
0.0
 10
223.5850007376
 20
22.7946876855
 30
0.0
 10
223.5848954877
 20
22.048355744
 30
0.0
  0
SPLINE
  5
4AB
100
AcDbEntity
  8
KONSTRUKTIONSELEMENTE
100
AcDbSpline
 62
7
  6
CONTINUOUS
 70
0
 71
3
 72
11
 73
7
 74
0
 42
0.0000001
 43
0.0000001
 44
0.0000000001
 40
0.0
 40
0.0
 40
0.0
 40
0.0
 40
0.286535685
 40
0.5485338619
 40
0.7834775224
 40
1.0
 40
1.0
 40
1.0
 40
1.0
 10
329.3397317508
 20
-54.2798906273
 30
0.0
 10
328.3771590146
 20
-54.0587367299
 30
0.0
 10
326.5719372899
 20
-53.4267489116
 30
0.0
 10
324.3127827494
 20
-51.8807692966
 30
0.0
 10
322.7993409184
 20
-49.8742697799
 30
0.0
 10
322.4300311325
 20
-48.302100563
 30
0.0
 10
322.429906776
 20
-47.5557756207
 30
0.0
  0
SPLINE
  5
4AC
100
AcDbEntity
  8
0
100
AcDbSpline
 62
7
  6
CONTINUOUS
 70
0
 71
3
 72
9
 73
5
 74
0
 42
0.0000001
 43
0.0000001
 44
0.0000000001
 40
0.0
 40
0.0
 40
0.0
 40
0.0
 40
0.5173663479
 40
1.0
 40
1.0
 40
1.0
 40
1.0
 10
318.3257831942
 20
32.0773082601
 30
0.0
 10
318.4796321592
 20
31.6330419758
 30
0.0
 10
318.6122765153
 20
30.6972556065
 30
0.0
 10
318.2880617097
 20
29.8072002146
 30
0.0
 10
318.0507825207
 20
29.438339643
 30
0.0
  0
SPLINE
  5
4AD
100
AcDbEntity
  8
0
100
AcDbSpline
 62
7
  6
CONTINUOUS
 70
0
 71
3
 72
9
 73
5
 74
0
 42
0.0000001
 43
0.0000001
 44
0.0000000001
 40
0.0
 40
0.0
 40
0.0
 40
0.0
 40
0.2466680508
 40
1.0
 40
1.0
 40
1.0
 40
1.0
 10
261.2035777967
 20
23.9623883844
 30
0.0
 10
261.1275819814
 20
24.4466440837
 30
0.0
 10
260.6716746748
 20
26.3880849347
 30
0.0
 10
259.7274324395
 20
28.1793077842
 30
0.0
 10
258.9175273388
 20
29.438339643
 30
0.0
  0
SPLINE
  5
4AE
100
AcDbEntity
  8
0
100
AcDbSpline
 62
7
  6
CONTINUOUS
 70
0
 71
3
 72
9
 73
5
 74
0
 42
0.0000001
 43
0.0000001
 44
0.0000000001
 40
0.0
 40
0.0
 40
0.0
 40
0.0
 40
0.2547129413
 40
1.0
 40
1.0
 40
1.0
 40
1.0
 10
318.0507825207
 20
29.438339643
 30
0.0
 10
317.7772647232
 20
29.0131446161
 30
0.0
 10
316.7551245496
 20
27.316040778
 30
0.0
 10
315.9940759603
 20
25.4237989777
 30
0.0
 10
315.7647320628
 20
23.9623883844
 30
0.0
  0
SPLINE
  5
4AF
100
AcDbEntity
  8
0
100
AcDbSpline
 62
7
  6
CONTINUOUS
 70
0
 71
3
 72
9
 73
5
 74
0
 42
0.0000001
 43
0.0000001
 44
0.0000000001
 40
0.0
 40
0.0
 40
0.0
 40
0.0
 40
0.5000819919
 40
1.0
 40
1.0
 40
1.0
 40
1.0
 10
258.6425266653
 20
32.0773082601
 30
0.0
 10
258.9358345839
 20
32.9242871085
 30
0.0
 10
259.4107785602
 20
34.6603755644
 30
0.0
 10
259.5819104476
 20
36.4563213701
 30
0.0
 10
259.5819104476
 20
37.3523547945
 30
0.0
  0
LINE
  5
4B0
100
AcDbEntity
  8
BEZUGSACHSEN
100
AcDbLine
 62
7
  6
CONTINUOUS
 10
263.5292786061
 20
10.1504059047
 11
263.4658298087
 21
10.5015022072
  0
SPLINE
  5
4B1
100
AcDbEntity
  8
0
100
AcDbSpline
 62
7
  6
CONTINUOUS
 70
0
 71
3
 72
9
 73
5
 74
0
 42
0.0000001
 43
0.0000001
 44
0.0000000001
 40
0.0
 40
0.0
 40
0.0
 40
0.0
 40
0.4999180081
 40
1.0
 40
1.0
 40
1.0
 40
1.0
 10
317.3863994119
 20
37.3523547945
 30
0.0
 10
317.3863994119
 20
36.4563213701
 30
0.0
 10
317.5575312993
 20
34.6603755644
 30
0.0
 10
318.0324752756
 20
32.9242871085
 30
0.0
 10
318.3257831942
 20
32.0773082601
 30
0.0
  0
SPLINE
  5
4B2
100
AcDbEntity
  8
0
100
AcDbSpline
 62
7
  6
CONTINUOUS
 70
0
 71
3
 72
11
 73
7
 74
0
 42
0.0000001
 43
0.0000001
 44
0.0000000001
 40
0.0
 40
0.0
 40
0.0
 40
0.0
 40
0.255989082
 40
0.5077658608
 40
0.7550832605
 40
1.0
 40
1.0
 40
1.0
 40
1.0
 10
259.5819104476
 20
52.131116908
 30
0.0
 10
259.5819104476
 20
52.9039427077
 30
0.0
 10
259.8272270856
 20
54.4466930919
 30
0.0
 10
260.8347414519
 20
56.5210037472
 30
0.0
 10
262.2834813428
 20
58.259908761
 30
0.0
 10
263.4395365829
 20
59.2059579543
 30
0.0
 10
264.0444747528
 20
59.631116908
 30
0.0
  0
SPLINE
  5
4B3
100
AcDbEntity
  8
0
100
AcDbSpline
 62
7
  6
CONTINUOUS
 70
0
 71
3
 72
11
 73
7
 74
0
 42
0.0000001
 43
0.0000001
 44
0.0000000001
 40
0.0
 40
0.0
 40
0.0
 40
0.0
 40
0.2449026047
 40
0.4922101403
 40
0.7439897683
 40
1.0
 40
1.0
 40
1.0
 40
1.0
 10
312.9238351067
 20
59.631116908
 30
0.0
 10
313.5287385579
 20
59.2059823551
 30
0.0
 10
314.6847455635
 20
58.2599891739
 30
0.0
 10
316.1334648679
 20
56.5211538529
 30
0.0
 10
317.1410645477
 20
54.4468353811
 30
0.0
 10
317.3863994119
 20
52.9040068059
 30
0.0
 10
317.3863994119
 20
52.131116908
 30
0.0
  0
SPLINE
  5
4B4
100
AcDbEntity
  8
0
100
AcDbSpline
 62
7
  6
CONTINUOUS
 70
0
 71
3
 72
9
 73
5
 74
0
 42
0.0000001
 43
0.0000001
 44
0.0000000001
 40
0.0
 40
0.0
 40
0.0
 40
0.0
 40
0.4826336521
 40
1.0
 40
1.0
 40
1.0
 40
1.0
 10
258.9175273388
 20
29.438339643
 30
0.0
 10
258.6802481498
 20
29.8072002146
 30
0.0
 10
258.3560333442
 20
30.6972556065
 30
0.0
 10
258.4886777003
 20
31.6330419758
 30
0.0
 10
258.6425266653
 20
32.0773082601
 30
0.0
  0
LINE
  5
4B5
100
AcDbEntity
  8
BEZUGSACHSEN
100
AcDbLine
 62
7
  6
CONTINUOUS
 10
841.1008776388
 20
148.3066258828
 11
840.9532682103
 21
148.5677774895
  0
LINE
  5
4B6
100
AcDbEntity
  8
BEZUGSACHSEN
100
AcDbLine
 62
7
  6
CONTINUOUS
 10
841.8975180022
 20
149.4904926556
 11
841.89769877
 21
150.6530042061
  0
LINE
  5
4B7
100
AcDbEntity
  8
BEZUGSACHSEN
100
AcDbLine
 62
7
  6
CONTINUOUS
 10
840.8980407387
 20
155.3970940416
 11
841.1008776388
 21
154.8725090359
  0
LINE
  5
4B8
100
AcDbEntity
  8
BEZUGSACHSEN
100
AcDbLine
 62
7
  6
CONTINUOUS
 10
841.2353055589
 20
160.2491624353
 11
841.2204981889
 21
160.3330991171
  0
LINE
  5
4B9
100
AcDbEntity
  8
BEZUGSACHSEN
100
AcDbLine
 62
7
  6
CONTINUOUS
 10
841.1894212842
 20
160.5001187164
 11
841.1731375893
 21
160.5832012073
  0
LINE
  5
4BA
100
AcDbEntity
  8
BEZUGSACHSEN
100
AcDbLine
 62
7
  6
CONTINUOUS
 10
841.0753535654
 20
160.9001358429
 11
841.0879896873
 21
160.8601372239
  0
LINE
  5
4BB
100
AcDbEntity
  8
BEZUGSACHSEN
100
AcDbLine
 62
7
  6
CONTINUOUS
 10
841.0879896873
 20
160.8601372239
 11
841.1008776388
 21
160.8192891477
  0
LINE
  5
4BC
100
AcDbEntity
  8
BEZUGSACHSEN
100
AcDbLine
 62
7
  6
CONTINUOUS
 10
840.8957703639
 20
162.0690979592
 11
840.7227461698
 21
162.5134697684
  0
LINE
  5
4BD
100
AcDbEntity
  8
BEZUGSACHSEN
100
AcDbLine
 62
7
  6
CONTINUOUS
 10
839.7264600974
 20
164.992600005
 11
839.7134886695
 21
165.0240939821
  0
LINE
  5
4BE
100
AcDbEntity
  8
BEZUGSACHSEN
100
AcDbLine
 62
7
  6
CONTINUOUS
 10
839.2800209273
 20
166.0665830869
 11
839.0818532248
 21
166.562114355
  0
LINE
  5
4BF
100
AcDbEntity
  8
BEZUGSACHSEN
100
AcDbLine
 62
7
  6
CONTINUOUS
 10
839.0818532248
 20
166.562114355
 11
839.0153679148
 21
166.7282066089
  0
LINE
  5
4C0
100
AcDbEntity
  8
BEZUGSACHSEN
100
AcDbLine
 62
7
  6
CONTINUOUS
 10
838.8847735334
 20
167.0679002152
 11
839.0153679148
 21
166.7282066089
  0
LINE
  5
4C1
100
AcDbEntity
  8
BEZUGSACHSEN
100
AcDbLine
 62
7
  6
CONTINUOUS
 10
838.8070236138
 20
167.2810552339
 11
838.836891127
 21
167.1992076723
  0
LINE
  5
4C2
100
AcDbEntity
  8
BEZUGSACHSEN
100
AcDbLine
 62
7
  6
CONTINUOUS
 10
838.836891127
 20
167.1992076723
 11
838.8847735334
 21
167.0679002152
  0
LINE
  5
4C3
100
AcDbEntity
  8
BEZUGSACHSEN
100
AcDbLine
 62
7
  6
CONTINUOUS
 10
838.8757086151
 20
167.3254608423
 11
838.8112559242
 21
167.4925637649
  0
LINE
  5
4C4
100
AcDbEntity
  8
BEZUGSACHSEN
100
AcDbLine
 62
7
  6
CONTINUOUS
 10
838.8112559242
 20
167.4925637649
 11
838.6170064275
 21
167.9959658353
  0
SPLINE
  5
4C5
100
AcDbEntity
  8
BEZUGSACHSEN
100
AcDbSpline
 62
7
  6
CONTINUOUS
 70
0
 71
3
 72
8
 73
4
 74
0
 42
0.0000001
 43
0.0000001
 44
0.0000000001
 40
0.0
 40
0.0
 40
0.0
 40
0.0
 40
1.0
 40
1.0
 40
1.0
 40
1.0
 10
841.2146354746
 20
160.9001344965
 30
0.0
 10
841.2313293313
 20
160.9514886862
 30
0.0
 10
841.2405538705
 20
161.0059865907
 30
0.0
 10
841.2409289701
 20
161.0599847106
 30
0.0
  0
LINE
  5
4C6
100
AcDbEntity
  8
BEZUGSACHSEN
100
AcDbLine
 62
7
  6
CONTINUOUS
 10
841.1008776388
 20
161.5350563005
 11
840.991392325
 21
161.8201280319
  0
LINE
  5
4C7
100
AcDbEntity
  8
BEZUGSACHSEN
100
AcDbLine
 62
7
  6
CONTINUOUS
 10
840.991392325
 20
161.8201280319
 11
840.9471120568
 21
161.9354207107
  0
LINE
  5
4C8
100
AcDbEntity
  8
BEZUGSACHSEN
100
AcDbLine
 62
7
  6
CONTINUOUS
 10
840.9471120568
 20
161.9354207107
 11
840.8957703639
 21
162.0690979592
  0
LINE
  5
4C9
100
AcDbEntity
  8
BEZUGSACHSEN
100
AcDbLine
 62
7
  6
CONTINUOUS
 10
840.7587278741
 20
161.7307690483
 11
840.6929413204
 21
161.9037460579
  0
LINE
  5
4CA
100
AcDbEntity
  8
BEZUGSACHSEN
100
AcDbLine
 62
7
  6
CONTINUOUS
 10
840.6929413204
 20
161.9037460579
 11
840.4948852851
 21
162.4244238239
  0
LINE
  5
4CB
100
AcDbEntity
  8
BEZUGSACHSEN
100
AcDbLine
 62
7
  6
CONTINUOUS
 10
841.0298610396
 20
160.9420961855
 11
841.0139095339
 21
160.9886877949
  0
LINE
  5
4CC
100
AcDbEntity
  8
BEZUGSACHSEN
100
AcDbLine
 62
7
  6
CONTINUOUS
 10
841.0139095339
 20
160.9886877949
 11
840.962782978
 21
161.1378549486
  0
LINE
  5
4CD
100
AcDbEntity
  8
BEZUGSACHSEN
100
AcDbLine
 62
7
  6
CONTINUOUS
 10
840.962782978
 20
161.1378549486
 11
840.8952349174
 21
161.3345533902
  0
LINE
  5
4CE
100
AcDbEntity
  8
BEZUGSACHSEN
100
AcDbLine
 62
7
  6
CONTINUOUS
 10
840.8952349174
 20
161.3345533902
 11
840.8272166252
 21
161.5321914449
  0
LINE
  5
4CF
100
AcDbEntity
  8
BEZUGSACHSEN
100
AcDbLine
 62
7
  6
CONTINUOUS
 10
840.8272166252
 20
161.5321914449
 11
840.7587278741
 21
161.7307690483
  0
LINE
  5
4D0
100
AcDbEntity
  8
BEZUGSACHSEN
100
AcDbLine
 62
7
  6
CONTINUOUS
 10
841.034813214
 20
160.9258301788
 11
841.0298610396
 21
160.9420961855
  0
LINE
  5
4D1
100
AcDbEntity
  8
BEZUGSACHSEN
100
AcDbLine
 62
7
  6
CONTINUOUS
 10
841.2330823449
 20
159.9467602839
 11
841.2317586679
 21
159.8755009792
  0
LINE
  5
4D2
100
AcDbEntity
  8
BEZUGSACHSEN
100
AcDbLine
 62
7
  6
CONTINUOUS
 10
838.3222635404
 20
167.7784049008
 11
838.3530475544
 21
167.7274095103
  0
LINE
  5
4D3
100
AcDbEntity
  8
BEZUGSACHSEN
100
AcDbLine
 62
7
  6
CONTINUOUS
 10
838.6053849169
 20
167.1921189093
 11
838.6866130847
 21
166.9924717551
  0
LINE
  5
4D4
100
AcDbEntity
  8
BEZUGSACHSEN
100
AcDbLine
 62
7
  6
CONTINUOUS
 10
838.6866130847
 20
166.9924717551
 11
838.7843500767
 21
166.7521966514
  0
LINE
  5
4D5
100
AcDbEntity
  8
BEZUGSACHSEN
100
AcDbLine
 62
7
  6
CONTINUOUS
 10
838.7843500767
 20
166.7521966514
 11
838.848455644
 21
166.5945694677
  0
LINE
  5
4D6
100
AcDbEntity
  8
BEZUGSACHSEN
100
AcDbLine
 62
7
  6
CONTINUOUS
 10
838.848455644
 20
166.5945694677
 11
838.8950123539
 21
166.4800770173
  0
LINE
  5
4D7
100
AcDbEntity
  8
BEZUGSACHSEN
100
AcDbLine
 62
7
  6
CONTINUOUS
 10
838.8950123539
 20
166.4800770173
 11
838.9290698603
 21
166.3963142736
  0
LINE
  5
4D8
100
AcDbEntity
  8
BEZUGSACHSEN
100
AcDbLine
 62
7
  6
CONTINUOUS
 10
838.9389850503
 20
165.3827869083
 11
838.7469418147
 21
165.9426195626
  0
LINE
  5
4D9
100
AcDbEntity
  8
BEZUGSACHSEN
100
AcDbLine
 62
7
  6
CONTINUOUS
 10
839.1979428665
 20
164.6891329735
 11
839.1670715463
 21
164.7718571011
  0
LINE
  5
4DA
100
AcDbEntity
  8
BEZUGSACHSEN
100
AcDbLine
 62
7
  6
CONTINUOUS
 10
839.1670715463
 20
164.7718571011
 11
839.0687616814
 21
165.0352360028
  0
LINE
  5
4DB
100
AcDbEntity
  8
BEZUGSACHSEN
100
AcDbLine
 62
7
  6
CONTINUOUS
 10
839.0687616814
 20
165.0352360028
 11
838.9389850503
 21
165.3827869083
  0
LINE
  5
4DC
100
AcDbEntity
  8
BEZUGSACHSEN
100
AcDbLine
 62
7
  6
CONTINUOUS
 10
840.1770414133
 20
162.2067013555
 11
840.1184372274
 21
162.3552960011
  0
LINE
  5
4DD
100
AcDbEntity
  8
BEZUGSACHSEN
100
AcDbLine
 62
7
  6
CONTINUOUS
 10
840.1184372274
 20
162.3552960011
 11
839.9227739457
 21
162.8514049393
  0
LINE
  5
4DE
100
AcDbEntity
  8
BEZUGSACHSEN
100
AcDbLine
 62
7
  6
CONTINUOUS
 10
839.9227739457
 20
162.8514049393
 11
839.6892267877
 21
163.4435541277
  0
LINE
  5
4DF
100
AcDbEntity
  8
BEZUGSACHSEN
100
AcDbLine
 62
7
  6
CONTINUOUS
 10
839.6892267877
 20
163.4435541277
 11
839.6192895446
 21
163.6208739939
  0
LINE
  5
4E0
100
AcDbEntity
  8
BEZUGSACHSEN
100
AcDbLine
 62
7
  6
CONTINUOUS
 10
839.6192895446
 20
163.6208739939
 11
839.4440183952
 21
164.0652527564
  0
LINE
  5
4E1
100
AcDbEntity
  8
BEZUGSACHSEN
100
AcDbLine
 62
7
  6
CONTINUOUS
 10
839.4440183952
 20
164.0652527564
 11
839.4137387678
 21
164.1420222035
  0
LINE
  5
4E2
100
AcDbEntity
  8
BEZUGSACHSEN
100
AcDbLine
 62
7
  6
CONTINUOUS
 10
839.4137387678
 20
164.1420222035
 11
839.2606161495
 21
164.5302377151
  0
LINE
  5
4E3
100
AcDbEntity
  8
BEZUGSACHSEN
100
AcDbLine
 62
7
  6
CONTINUOUS
 10
839.2606161495
 20
164.5302377151
 11
839.1979428665
 21
164.6891329735
  0
LINE
  5
4E4
100
AcDbEntity
  8
BEZUGSACHSEN
100
AcDbLine
 62
7
  6
CONTINUOUS
 10
840.1770414133
 20
162.2067013555
 11
840.4404623698
 21
161.5763918843
  0
LINE
  5
4E5
100
AcDbEntity
  8
BEZUGSACHSEN
100
AcDbLine
 62
7
  6
CONTINUOUS
 10
840.4404623698
 20
161.5763918843
 11
840.5907737545
 21
161.251113948
  0
LINE
  5
4E6
100
AcDbEntity
  8
BEZUGSACHSEN
100
AcDbLine
 62
7
  6
CONTINUOUS
 10
840.5907737545
 20
161.251113948
 11
840.6405475137
 21
161.1432515205
  0
LINE
  5
4E7
100
AcDbEntity
  8
BEZUGSACHSEN
100
AcDbLine
 62
7
  6
CONTINUOUS
 10
839.5162989802
 20
164.9068554419
 11
839.9745116782
 21
163.7445371009
  0
LINE
  5
4E8
100
AcDbEntity
  8
BEZUGSACHSEN
100
AcDbLine
 62
7
  6
CONTINUOUS
 10
839.9745116782
 20
163.7445371009
 11
840.0074867963
 21
163.6608876988
  0
LINE
  5
4E9
100
AcDbEntity
  8
BEZUGSACHSEN
100
AcDbLine
 62
7
  6
CONTINUOUS
 10
840.0074867963
 20
163.6608876988
 11
840.0732165045
 21
163.4941468431
  0
LINE
  5
4EA
100
AcDbEntity
  8
BEZUGSACHSEN
100
AcDbLine
 62
7
  6
CONTINUOUS
 10
840.0732165045
 20
163.4941468431
 11
840.4948852851
 21
162.4244238239
  0
LINE
  5
4EB
100
AcDbEntity
  8
BEZUGSACHSEN
100
AcDbLine
 62
7
  6
CONTINUOUS
 10
839.4436846836
 20
161.6553000503
 11
838.4645533093
 21
164.0206663297
  0
LINE
  5
4EC
100
AcDbEntity
  8
BEZUGSACHSEN
100
AcDbLine
 62
7
  6
CONTINUOUS
 10
839.6025795273
 20
145.6296069139
 11
840.3602231809
 21
145.0482929602
  0
LINE
  5
4ED
100
AcDbEntity
  8
BEZUGSACHSEN
100
AcDbLine
 62
7
  6
CONTINUOUS
 10
840.3602231809
 20
145.0482929602
 11
841.0908175471
 21
144.4847632325
  0
SPLINE
  5
4EE
100
AcDbEntity
  8
BEZUGSACHSEN
100
AcDbSpline
 62
7
  6
CONTINUOUS
 70
0
 71
3
 72
8
 73
4
 74
0
 42
0.0000001
 43
0.0000001
 44
0.0000000001
 40
0.0
 40
0.0
 40
0.0
 40
0.0
 40
1.0
 40
1.0
 40
1.0
 40
1.0
 10
839.4676581223
 20
146.2693690917
 30
0.0
 10
839.3791732556
 20
146.5076897965
 30
0.0
 10
839.2905032527
 20
146.7459418375
 30
0.0
 10
839.201656717
 20
146.9841279477
 30
0.0
  0
LINE
  5
4EF
100
AcDbEntity
  8
BEZUGSACHSEN
100
AcDbLine
 62
7
  6
CONTINUOUS
 10
841.1008776388
 20
157.6512455869
 11
841.0865059315
 21
157.6859740582
  0
LINE
  5
4F0
100
AcDbEntity
  8
BEZUGSACHSEN
100
AcDbLine
 62
7
  6
CONTINUOUS
 10
841.0865059315
 20
157.6859740582
 11
839.8353069879
 21
160.7091537153
  0
LINE
  5
4F1
100
AcDbEntity
  8
BEZUGSACHSEN
100
AcDbLine
 62
7
  6
CONTINUOUS
 10
839.201656717
 20
146.9841279477
 11
839.0534609334
 21
147.2800593329
  0
LINE
  5
4F2
100
AcDbEntity
  8
BEZUGSACHSEN
100
AcDbLine
 62
7
  6
CONTINUOUS
 10
839.0534609334
 20
147.2800593329
 11
839.0038968497
 21
147.3790055533
  0
LINE
  5
4F3
100
AcDbEntity
  8
BEZUGSACHSEN
100
AcDbLine
 62
7
  6
CONTINUOUS
 10
841.1894696935
 20
157.168033798
 11
841.1845448558
 21
157.0916473062
  0
LINE
  5
4F4
100
AcDbEntity
  8
BEZUGSACHSEN
100
AcDbLine
 62
7
  6
CONTINUOUS
 10
838.7427210518
 20
147.7549052435
 11
839.0038968497
 21
147.3790055533
  0
LINE
  5
4F5
100
AcDbEntity
  8
BEZUGSACHSEN
100
AcDbLine
 62
7
  6
CONTINUOUS
 10
838.5486512303
 20
147.9238767785
 11
838.7427210518
 21
147.7549052435
  0
LINE
  5
4F6
100
AcDbEntity
  8
BEZUGSACHSEN
100
AcDbLine
 62
7
  6
CONTINUOUS
 10
838.2919477346
 20
147.9609167764
 11
838.5486512303
 21
147.9238767785
  0
LINE
  5
4F7
100
AcDbEntity
  8
BEZUGSACHSEN
100
AcDbLine
 62
7
  6
CONTINUOUS
 10
841.0795594794
 20
140.8702625483
 11
839.7096395951
 21
142.8437348033
  0
LINE
  5
4F8
100
AcDbEntity
  8
BEZUGSACHSEN
100
AcDbLine
 62
7
  6
CONTINUOUS
 10
839.3181717832
 20
143.4075839438
 11
838.339398863
 21
144.8172070582
  0
LINE
  5
4F9
100
AcDbEntity
  8
BEZUGSACHSEN
100
AcDbLine
 62
7
  6
CONTINUOUS
 10
838.6616779219
 20
165.0775621355
 11
838.8552623504
 21
164.6554883228
  0
LINE
  5
4FA
100
AcDbEntity
  8
BEZUGSACHSEN
100
AcDbLine
 62
7
  6
CONTINUOUS
 10
838.8552623504
 20
164.6554883228
 11
839.1163495327
 21
164.0247236577
  0
LINE
  5
4FB
100
AcDbEntity
  8
BEZUGSACHSEN
100
AcDbLine
 62
7
  6
CONTINUOUS
 10
839.314477682
 20
163.5006511353
 11
839.1163495327
 21
164.0247236577
  0
LINE
  5
4FC
100
AcDbEntity
  8
BEZUGSACHSEN
100
AcDbLine
 62
7
  6
CONTINUOUS
 10
838.4272459797
 20
147.2082012401
 11
838.5564758953
 21
147.2461579204
  0
SPLINE
  5
4FD
100
AcDbEntity
  8
BEZUGSACHSEN
100
AcDbSpline
 62
7
  6
CONTINUOUS
 70
0
 71
3
 72
8
 73
4
 74
0
 42
0.0000001
 43
0.0000001
 44
0.0000000001
 40
0.0
 40
0.0
 40
0.0
 40
0.0
 40
1.0
 40
1.0
 40
1.0
 40
1.0
 10
839.5817165149
 20
162.7168900146
 30
0.0
 10
839.4928183633
 20
162.9782055234
 30
0.0
 10
839.4037358929
 20
163.2394583938
 30
0.0
 10
839.314477682
 20
163.5006511353
 30
0.0
  0
LINE
  5
4FE
100
AcDbEntity
  8
BEZUGSACHSEN
100
AcDbLine
 62
7
  6
CONTINUOUS
 10
838.0597793631
 20
154.3120756909
 11
838.323781551
 21
153.8531040502
  0
LINE
  5
4FF
100
AcDbEntity
  8
BEZUGSACHSEN
100
AcDbLine
 62
7
  6
CONTINUOUS
 10
838.323781551
 20
153.8531040502
 11
840.0837344279
 21
150.7931486318
  0
LINE
  5
500
100
AcDbEntity
  8
BEZUGSACHSEN
100
AcDbLine
 62
7
  6
CONTINUOUS
 10
839.7183696695
 20
162.1975116508
 11
839.8680571627
 21
161.8794361966
  0
LINE
  5
501
100
AcDbEntity
  8
BEZUGSACHSEN
100
AcDbLine
 62
7
  6
CONTINUOUS
 10
839.8680571627
 20
161.8794361966
 11
839.9822013602
 21
161.6366726216
  0
LINE
  5
502
100
AcDbEntity
  8
BEZUGSACHSEN
100
AcDbLine
 62
7
  6
CONTINUOUS
 10
839.9822013602
 20
161.6366726216
 11
840.0729605761
 21
161.4435085115
  0
LINE
  5
503
100
AcDbEntity
  8
BEZUGSACHSEN
100
AcDbLine
 62
7
  6
CONTINUOUS
 10
840.0729605761
 20
161.4435085115
 11
840.312539623
 21
160.9330127852
  0
LINE
  5
504
100
AcDbEntity
  8
BEZUGSACHSEN
100
AcDbLine
 62
7
  6
CONTINUOUS
 10
840.3399924308
 20
147.4116244558
 11
840.5405368327
 21
147.2729779552
  0
LINE
  5
505
100
AcDbEntity
  8
BEZUGSACHSEN
100
AcDbLine
 62
7
  6
CONTINUOUS
 10
841.2101283064
 20
158.7619715269
 11
841.2130444959
 21
158.6726156344
  0
LINE
  5
506
100
AcDbEntity
  8
BEZUGSACHSEN
100
AcDbLine
 62
7
  6
CONTINUOUS
 10
840.0763844068
 20
147.7647326855
 11
840.3399924308
 21
147.4116244558
  0
LINE
  5
507
100
AcDbEntity
  8
BEZUGSACHSEN
100
AcDbLine
 62
7
  6
CONTINUOUS
 10
840.0763844068
 20
147.7647326855
 11
838.3108029469
 21
150.8356776705
  0
LINE
  5
508
100
AcDbEntity
  8
BEZUGSACHSEN
100
AcDbLine
 62
7
  6
CONTINUOUS
 10
838.3108029469
 20
150.8356776705
 11
838.0532122183
 21
151.2836597446
  0
LINE
  5
509
100
AcDbEntity
  8
BEZUGSACHSEN
100
AcDbLine
 62
7
  6
CONTINUOUS
 10
840.7575612695
 20
151.0540303201
 11
839.9857010885
 21
152.6041730823
  0
LINE
  5
50A
100
AcDbEntity
  8
BEZUGSACHSEN
100
AcDbLine
 62
7
  6
CONTINUOUS
 10
839.9857010885
 20
152.6041730823
 11
838.9851533923
 21
154.6132861932
  0
LINE
  5
50B
100
AcDbEntity
  8
BEZUGSACHSEN
100
AcDbLine
 62
7
  6
CONTINUOUS
 10
838.9851533923
 20
154.6132861932
 11
838.4739813492
 21
155.6396089778
  0
LINE
  5
50C
100
AcDbEntity
  8
BEZUGSACHSEN
100
AcDbLine
 62
7
  6
CONTINUOUS
 10
840.6771875071
 20
149.4686831113
 11
840.4122497855
 21
150.1246324375
  0
LINE
  5
50D
100
AcDbEntity
  8
BEZUGSACHSEN
100
AcDbLine
 62
7
  6
CONTINUOUS
 10
840.4122497855
 20
150.1246324375
 11
840.3254335841
 21
150.3013179474
  0
LINE
  5
50E
100
AcDbEntity
  8
BEZUGSACHSEN
100
AcDbLine
 62
7
  6
CONTINUOUS
 10
840.3254335841
 20
150.3013179474
 11
840.1661064725
 21
150.6255417612
  0
LINE
  5
50F
100
AcDbEntity
  8
BEZUGSACHSEN
100
AcDbLine
 62
7
  6
CONTINUOUS
 10
840.1661064725
 20
150.6255417612
 11
840.0837344279
 21
150.7931486318
  0
LINE
  5
510
100
AcDbEntity
  8
BEZUGSACHSEN
100
AcDbLine
 62
7
  6
CONTINUOUS
 10
841.1085856452
 20
152.3880416876
 11
841.125584724
 21
152.2479312351
  0
LINE
  5
511
100
AcDbEntity
  8
BEZUGSACHSEN
100
AcDbLine
 62
7
  6
CONTINUOUS
 10
841.125584724
 20
152.2479312351
 11
841.1421844731
 21
152.1073227665
  0
LINE
  5
512
100
AcDbEntity
  8
BEZUGSACHSEN
100
AcDbLine
 62
7
  6
CONTINUOUS
 10
841.1008776388
 20
152.4230541129
 11
841.0692400343
 21
152.5659646475
  0
LINE
  5
513
100
AcDbEntity
  8
BEZUGSACHSEN
100
AcDbLine
 62
7
  6
CONTINUOUS
 10
841.1008776388
 20
152.4230541129
 11
841.1085856452
 21
152.3880416876
  0
LINE
  5
514
100
AcDbEntity
  8
BEZUGSACHSEN
100
AcDbLine
 62
7
  6
CONTINUOUS
 10
840.7045663985
 20
153.8659988717
 11
840.4388416391
 21
154.5630300211
  0
LINE
  5
515
100
AcDbEntity
  8
BEZUGSACHSEN
100
AcDbLine
 62
7
  6
CONTINUOUS
 10
840.4388416391
 20
154.5630300211
 11
840.2747412548
 21
154.9331292216
  0
LINE
  5
516
100
AcDbEntity
  8
BEZUGSACHSEN
100
AcDbLine
 62
7
  6
CONTINUOUS
 10
840.2747412548
 20
154.9331292216
 11
840.1100156219
 21
155.3045945992
  0
LINE
  5
517
100
AcDbEntity
  8
BEZUGSACHSEN
100
AcDbLine
 62
7
  6
CONTINUOUS
 10
839.131070692
 20
157.2698425036
 11
839.3405279247
 21
156.8493748557
  0
LINE
  5
518
100
AcDbEntity
  8
BEZUGSACHSEN
100
AcDbLine
 62
7
  6
CONTINUOUS
 10
839.3405279247
 20
156.8493748557
 11
839.3771181324
 21
156.7759219809
  0
LINE
  5
519
100
AcDbEntity
  8
BEZUGSACHSEN
100
AcDbLine
 62
7
  6
CONTINUOUS
 10
839.3771181324
 20
156.7759219809
 11
840.1100156219
 21
155.3045945992
  0
LINE
  5
51A
100
AcDbEntity
  8
BEZUGSACHSEN
100
AcDbLine
 62
7
  6
CONTINUOUS
 10
838.8070421105
 20
157.8384434397
 11
839.1052903995
 21
157.3150973011
  0
LINE
  5
51B
100
AcDbEntity
  8
BEZUGSACHSEN
100
AcDbLine
 62
7
  6
CONTINUOUS
 10
839.1052903995
 20
157.3150973011
 11
839.131070692
 21
157.2698425036
  0
LINE
  5
51C
100
AcDbEntity
  8
BEZUGSACHSEN
100
AcDbLine
 62
7
  6
CONTINUOUS
 10
838.5500513187
 20
158.1895444999
 11
838.8070421105
 21
157.8384434397
  0
LINE
  5
51D
100
AcDbEntity
  8
BEZUGSACHSEN
100
AcDbLine
 62
7
  6
CONTINUOUS
 10
820.5273086217
 20
55.13739885
 11
818.4615077278
 21
52.63739885
  0
LINE
  5
51E
100
AcDbEntity
  8
RUNDUNGEN
100
AcDbLine
 62
7
  6
CONTINUOUS
 10
833.26851642
 20
55.13739885
 11
835.3343173139
 21
52.63739885
  0
SPLINE
  5
51F
100
AcDbEntity
  8
0
100
AcDbSpline
 62
7
  6
CONTINUOUS
 70
0
 71
3
 72
9
 73
5
 74
0
 42
0.0000001
 43
0.0000001
 44
0.0000000001
 40
0.0
 40
0.0
 40
0.0
 40
0.0
 40
0.2593208895
 40
1.0
 40
1.0
 40
1.0
 40
1.0
 10
840.1008776388
 20
143.9143289648
 30
0.0
 10
840.1236448245
 20
143.8963890988
 30
0.0
 10
840.2106271159
 20
143.8261898847
 30
0.0
 10
840.2942586579
 20
143.7517876078
 30
0.0
 10
840.3536332656
 20
143.694091016
 30
0.0
  0
LINE
  5
520
100
AcDbEntity
  8
BEZUGSACHSEN
100
AcDbLine
 62
7
  6
CONTINUOUS
 10
840.4891536814
 20
161.2208601682
 11
840.5562505818
 21
161.0705863182
  0
LINE
  5
521
100
AcDbEntity
  8
BEZUGSACHSEN
100
AcDbLine
 62
7
  6
CONTINUOUS
 10
840.5562505818
 20
161.0705863182
 11
840.7562666677
 21
160.6222242627
  0
LINE
  5
522
100
AcDbEntity
  8
BEZUGSACHSEN
100
AcDbLine
 62
7
  6
CONTINUOUS
 10
840.1598187757
 20
162.0166650652
 11
840.4891536814
 21
161.2208601682
  0
LINE
  5
523
100
AcDbEntity
  8
BEZUGSACHSEN
100
AcDbLine
 62
7
  6
CONTINUOUS
 10
840.1598187757
 20
162.0166650652
 11
840.0973215418
 21
162.1752918509
  0
LINE
  5
524
100
AcDbEntity
  8
BEZUGSACHSEN
100
AcDbLine
 62
7
  6
CONTINUOUS
 10
840.0973215418
 20
162.1752918509
 11
840.038822176
 21
162.3237692944
  0
LINE
  5
525
100
AcDbEntity
  8
BEZUGSACHSEN
100
AcDbLine
 62
7
  6
CONTINUOUS
 10
840.038822176
 20
162.3237692944
 11
839.9168197703
 21
162.6334173044
  0
LINE
  5
526
100
AcDbEntity
  8
BEZUGSACHSEN
100
AcDbLine
 62
7
  6
CONTINUOUS
 10
839.9168197703
 20
162.6334173044
 11
839.8433172513
 21
162.8199659338
  0
LINE
  5
527
100
AcDbEntity
  8
BEZUGSACHSEN
100
AcDbLine
 62
7
  6
CONTINUOUS
 10
839.8433172513
 20
162.8199659338
 11
839.6727940126
 21
163.2527398981
  0
LINE
  5
528
100
AcDbEntity
  8
BEZUGSACHSEN
100
AcDbLine
 62
7
  6
CONTINUOUS
 10
839.6727940126
 20
163.2527398981
 11
839.4277418674
 21
163.8746329822
  0
LINE
  5
529
100
AcDbEntity
  8
BEZUGSACHSEN
100
AcDbLine
 62
7
  6
CONTINUOUS
 10
839.4277418674
 20
163.8746329822
 11
839.3346925654
 21
164.1107646653
  0
LINE
  5
52A
100
AcDbEntity
  8
BEZUGSACHSEN
100
AcDbLine
 62
7
  6
CONTINUOUS
 10
839.3346925654
 20
164.1107646653
 11
839.1816636738
 21
164.4990966831
  0
LINE
  5
52B
100
AcDbEntity
  8
BEZUGSACHSEN
100
AcDbLine
 62
7
  6
CONTINUOUS
 10
839.1816636738
 20
164.4990966831
 11
839.0897351922
 21
164.7436466453
  0
LINE
  5
52C
100
AcDbEntity
  8
BEZUGSACHSEN
100
AcDbLine
 62
7
  6
CONTINUOUS
 10
839.0897351922
 20
164.7436466453
 11
839.0205641083
 21
164.927616533
  0
LINE
  5
52D
100
AcDbEntity
  8
BEZUGSACHSEN
100
AcDbLine
 62
7
  6
CONTINUOUS
 10
839.0205641083
 20
164.927616533
 11
838.9266856677
 21
165.1772443224
  0
LINE
  5
52E
100
AcDbEntity
  8
BEZUGSACHSEN
100
AcDbLine
 62
7
  6
CONTINUOUS
 10
838.9266856677
 20
165.1772443224
 11
838.8586008962
 21
165.3582465073
  0
LINE
  5
52F
100
AcDbEntity
  8
0
100
AcDbLine
 62
7
  6
CONTINUOUS
 10
837.7589914624
 20
166.0835741237
 11
837.8505318284
 21
165.8244080858
  0
LINE
  5
530
100
AcDbEntity
  8
BEZUGSACHSEN
100
AcDbLine
 62
7
  6
CONTINUOUS
 10
838.8586008962
 20
165.3582465073
 11
838.7951193368
 21
165.5387411929
  0
LINE
  5
531
100
AcDbEntity
  8
BEZUGSACHSEN
100
AcDbLine
 62
7
  6
CONTINUOUS
 10
838.7951193368
 20
165.5387411929
 11
838.6032109384
 21
166.0835741237
  0
SPLINE
  5
532
100
AcDbEntity
  8
0
100
AcDbSpline
 62
7
  6
CONTINUOUS
 70
0
 71
3
 72
9
 73
5
 74
0
 42
0.0000001
 43
0.0000001
 44
0.0000000001
 40
0.0
 40
0.0
 40
0.0
 40
0.0
 40
0.5000071001
 40
1.0
 40
1.0
 40
1.0
 40
1.0
 10
832.2973490888
 20
138.6455365685
 30
0.0
 10
832.9748394476
 20
132.9341266549
 30
0.0
 10
833.7898060328
 20
121.436202913
 30
0.0
 10
833.3093364817
 20
109.917322863
 30
0.0
 10
832.7775306343
 20
104.1906746239
 30
0.0
  0
SPLINE
  5
533
100
AcDbEntity
  8
0
100
AcDbSpline
 62
7
  6
CONTINUOUS
 70
0
 71
3
 72
9
 73
5
 74
0
 42
0.0000001
 43
0.0000001
 44
0.0000000001
 40
0.0
 40
0.0
 40
0.0
 40
0.0
 40
0.5000000009
 40
1.0
 40
1.0
 40
1.0
 40
1.0
 10
832.2973490888
 20
170.1894032956
 30
0.0
 10
833.0621878861
 20
164.9730407701
 30
0.0
 10
833.9030499386
 20
154.4174699226
 30
0.0
 10
833.0621878834
 20
143.8618990758
 30
0.0
 10
832.2973490888
 20
138.6455365685
 30
0.0
  0
LINE
  5
534
100
AcDbEntity
  8
BEZUGSACHSEN
100
AcDbLine
 62
7
  6
CONTINUOUS
 10
838.7483816166
 20
166.6710917674
 11
838.797072954
 21
166.5545856337
  0
LINE
  5
535
100
AcDbEntity
  8
BEZUGSACHSEN
100
AcDbLine
 62
7
  6
CONTINUOUS
 10
838.797072954
 20
166.5545856337
 11
838.8370423213
 21
166.4589280708
  0
LINE
  5
536
100
AcDbEntity
  8
BEZUGSACHSEN
100
AcDbLine
 62
7
  6
CONTINUOUS
 10
838.8370423213
 20
166.4589280708
 11
838.8941675915
 21
166.3221787509
  0
LINE
  5
537
100
AcDbEntity
  8
BEZUGSACHSEN
100
AcDbLine
 62
7
  6
CONTINUOUS
 10
838.8941675915
 20
166.3221787509
 11
838.942570834
 21
166.2062779832
  0
LINE
  5
538
100
AcDbEntity
  8
BEZUGSACHSEN
100
AcDbLine
 62
7
  6
CONTINUOUS
 10
838.7169935602
 20
166.7299323284
 11
838.7483816166
 21
166.6710917674
  0
SPLINE
  5
539
100
AcDbEntity
  8
BEZUGSACHSEN
100
AcDbSpline
 62
7
  6
CONTINUOUS
 70
0
 71
3
 72
9
 73
5
 74
0
 42
0.0000001
 43
0.0000001
 44
0.0000000001
 40
0.0
 40
0.0
 40
0.0
 40
0.0
 40
0.5000000009
 40
1.0
 40
1.0
 40
1.0
 40
1.0
 10
821.4984759529
 20
170.1894032956
 30
0.0
 10
820.7336371556
 20
164.9730407701
 30
0.0
 10
819.8927751031
 20
154.4174699226
 30
0.0
 10
820.7336371583
 20
143.8618990758
 30
0.0
 10
821.4984759529
 20
138.6455365685
 30
0.0
  0
SPLINE
  5
53A
100
AcDbEntity
  8
BEZUGSACHSEN
100
AcDbSpline
 62
7
  6
CONTINUOUS
 70
0
 71
3
 72
9
 73
5
 74
0
 42
0.0000001
 43
0.0000001
 44
0.0000000001
 40
0.0
 40
0.0
 40
0.0
 40
0.0
 40
0.5000071001
 40
1.0
 40
1.0
 40
1.0
 40
1.0
 10
821.4984759529
 20
138.6455365685
 30
0.0
 10
820.8209855941
 20
132.9341266549
 30
0.0
 10
820.0060190089
 20
121.436202913
 30
0.0
 10
820.48648856
 20
109.917322863
 30
0.0
 10
821.0182944074
 20
104.1906746239
 30
0.0
  0
LINE
  5
53B
100
AcDbEntity
  8
BEZUGSACHSEN
100
AcDbLine
 62
7
  6
CONTINUOUS
 10
840.8480011631
 20
161.0822641686
 11
840.8468932028
 21
161.1535280851
  0
LINE
  5
53C
100
AcDbEntity
  8
BEZUGSACHSEN
100
AcDbLine
 62
7
  6
CONTINUOUS
 10
840.8468932028
 20
161.1535280851
 11
840.8125387036
 21
161.2996110896
  0
LINE
  5
53D
100
AcDbEntity
  8
BEZUGSACHSEN
100
AcDbLine
 62
7
  6
CONTINUOUS
 10
840.8125387036
 20
161.2996110896
 11
840.7951127748
 21
161.372660271
  0
LINE
  5
53E
100
AcDbEntity
  8
BEZUGSACHSEN
100
AcDbLine
 62
7
  6
CONTINUOUS
 10
840.7951127748
 20
161.372660271
 11
840.7775217074
 21
161.4457146128
  0
LINE
  5
53F
100
AcDbEntity
  8
BEZUGSACHSEN
100
AcDbLine
 62
7
  6
CONTINUOUS
 10
840.6421534327
 20
161.8717237253
 11
840.4443722846
 21
162.3998829593
  0
LINE
  5
540
100
AcDbEntity
  8
BEZUGSACHSEN
100
AcDbLine
 62
7
  6
CONTINUOUS
 10
839.922026102
 20
163.7238465971
 11
840.0529459094
 21
163.3920162877
  0
LINE
  5
541
100
AcDbEntity
  8
BEZUGSACHSEN
100
AcDbLine
 62
7
  6
CONTINUOUS
 10
840.0529459094
 20
163.3920162877
 11
840.3141190229
 21
162.7300344771
  0
LINE
  5
542
100
AcDbEntity
  8
BEZUGSACHSEN
100
AcDbLine
 62
7
  6
CONTINUOUS
 10
840.3141190229
 20
162.7300344771
 11
840.4443722846
 21
162.3998829593
  0
LINE
  5
543
100
AcDbEntity
  8
BEZUGSACHSEN
100
AcDbLine
 62
7
  6
CONTINUOUS
 10
839.5407776431
 20
164.431764716
 11
839.9327922229
 21
163.4387921615
  0
LINE
  5
544
100
AcDbEntity
  8
BEZUGSACHSEN
100
AcDbLine
 62
7
  6
CONTINUOUS
 10
839.392866137
 20
162.9349687424
 11
839.2598715769
 21
163.3523483965
  0
LINE
  5
545
100
AcDbEntity
  8
BEZUGSACHSEN
100
AcDbLine
 62
7
  6
CONTINUOUS
 10
839.2598715769
 20
163.3523483965
 11
839.062534725
 21
163.8764209189
  0
LINE
  5
546
100
AcDbEntity
  8
BEZUGSACHSEN
100
AcDbLine
 62
7
  6
CONTINUOUS
 10
838.8665952257
 20
164.3494945282
 11
839.062534725
 21
163.8764209189
  0
LINE
  5
547
100
AcDbEntity
  8
BEZUGSACHSEN
100
AcDbLine
 62
7
  6
CONTINUOUS
 10
838.6720087561
 20
164.7715683408
 11
838.8665952257
 21
164.3494945282
  0
LINE
  5
548
100
AcDbEntity
  8
BEZUGSACHSEN
100
AcDbLine
 62
7
  6
CONTINUOUS
 10
838.5436228476
 20
164.98495291
 11
838.6080335643
 21
164.8780272042
  0
LINE
  5
549
100
AcDbEntity
  8
BEZUGSACHSEN
100
AcDbLine
 62
7
  6
CONTINUOUS
 10
838.6080335643
 20
164.8780272042
 11
838.6400755769
 21
164.8247394138
  0
LINE
  5
54A
100
AcDbEntity
  8
BEZUGSACHSEN
100
AcDbLine
 62
7
  6
CONTINUOUS
 10
838.6400755769
 20
164.8247394138
 11
838.6720087561
 21
164.7715683408
  0
LINE
  5
54B
100
AcDbEntity
  8
BEZUGSACHSEN
100
AcDbLine
 62
7
  6
CONTINUOUS
 10
838.480570248
 20
164.9896470685
 11
838.5436228476
 21
164.98495291
  0
LINE
  5
54C
100
AcDbEntity
  8
0
100
AcDbLine
 62
7
  6
CONTINUOUS
 10
840.1008776388
 20
143.9143289648
 11
839.7321503675
 21
144.2045083975
  0
SPLINE
  5
54D
100
AcDbEntity
  8
BEZUGSACHSEN
100
AcDbSpline
 62
7
  6
CONTINUOUS
 70
0
 71
3
 72
11
 73
7
 74
0
 42
0.0000001
 43
0.0000001
 44
0.0000000001
 40
0.0
 40
0.0
 40
0.0
 40
0.0
 40
0.2540845274
 40
0.5000000008
 40
0.7459154741
 40
1.0
 40
1.0
 40
1.0
 40
1.0
 10
821.4984759529
 20
182.2380882488
 30
0.0
 10
821.1241594795
 20
181.2629604972
 30
0.0
 10
820.5270597893
 20
179.2841437696
 30
0.0
 10
820.2080262849
 20
176.2137457621
 30
0.0
 10
820.5270597788
 20
173.143347758
 30
0.0
 10
821.1241594818
 20
171.1645310411
 30
0.0
 10
821.4984759529
 20
170.1894032956
 30
0.0
  0
SPLINE
  5
54E
100
AcDbEntity
  8
0
100
AcDbSpline
 62
7
  6
CONTINUOUS
 70
0
 71
3
 72
8
 73
4
 74
0
 42
0.0000001
 43
0.0000001
 44
0.0000000001
 40
0.0
 40
0.0
 40
0.0
 40
0.0
 40
1.0
 40
1.0
 40
1.0
 40
1.0
 10
837.2958440051
 20
164.5031278142
 30
0.0
 10
838.2310360824
 20
162.243103652
 30
0.0
 10
839.166078226
 20
159.9830174332
 30
0.0
 10
840.100877639
 20
157.7228308275
 30
0.0
  0
LINE
  5
54F
100
AcDbEntity
  8
BEZUGSACHSEN
100
AcDbLine
 62
7
  6
CONTINUOUS
 10
841.1008776388
 20
157.3002691419
 11
841.0812647481
 21
157.3477180706
  0
LINE
  5
550
100
AcDbEntity
  8
BEZUGSACHSEN
100
AcDbLine
 62
7
  6
CONTINUOUS
 10
841.0812647481
 20
157.3477180706
 11
840.9769721859
 21
157.6000255187
  0
LINE
  5
551
100
AcDbEntity
  8
BEZUGSACHSEN
100
AcDbLine
 62
7
  6
CONTINUOUS
 10
840.9769721859
 20
157.6000255187
 11
840.9626452145
 21
157.6346851118
  0
LINE
  5
552
100
AcDbEntity
  8
BEZUGSACHSEN
100
AcDbLine
 62
7
  6
CONTINUOUS
 10
840.9626452145
 20
157.6346851118
 11
839.7125415497
 21
160.6583920644
  0
LINE
  5
553
100
AcDbEntity
  8
BEZUGSACHSEN
100
AcDbLine
 62
7
  6
CONTINUOUS
 10
839.7125415497
 20
160.6583920644
 11
839.321240087
 21
161.6046650578
  0
LINE
  5
554
100
AcDbEntity
  8
BEZUGSACHSEN
100
AcDbLine
 62
7
  6
CONTINUOUS
 10
839.321240087
 20
161.6046650578
 11
838.3428512716
 21
163.9703279334
  0
LINE
  5
555
100
AcDbEntity
  8
BEZUGSACHSEN
100
AcDbLine
 62
7
  6
CONTINUOUS
 10
838.3428512716
 20
163.9703279334
 11
838.122470476
 21
164.5031278142
  0
LINE
  5
556
100
AcDbEntity
  8
BEZUGSACHSEN
100
AcDbLine
 62
7
  6
CONTINUOUS
 10
841.058165638
 20
140.1925436902
 11
840.7478022833
 21
140.6402793286
  0
LINE
  5
557
100
AcDbEntity
  8
BEZUGSACHSEN
100
AcDbLine
 62
7
  6
CONTINUOUS
 10
840.7478022833
 20
140.6402793286
 11
839.3789781604
 21
142.6144020414
  0
LINE
  5
558
100
AcDbEntity
  8
BEZUGSACHSEN
100
AcDbLine
 62
7
  6
CONTINUOUS
 10
839.3789781604
 20
142.6144020414
 11
838.9877937811
 21
143.178419187
  0
LINE
  5
559
100
AcDbEntity
  8
BEZUGSACHSEN
100
AcDbLine
 62
7
  6
CONTINUOUS
 10
838.9877937811
 20
143.178419187
 11
837.995159297
 21
144.6093624839
  0
SPLINE
  5
55A
100
AcDbEntity
  8
0
100
AcDbSpline
 62
7
  6
CONTINUOUS
 70
0
 71
3
 72
8
 73
4
 74
0
 42
0.0000001
 43
0.0000001
 44
0.0000000001
 40
0.0
 40
0.0
 40
0.0
 40
0.0
 40
1.0
 40
1.0
 40
1.0
 40
1.0
 10
837.2958439937
 20
144.6093624839
 30
0.0
 10
838.2309981377
 20
143.2625718804
 30
0.0
 10
839.1660338191
 20
141.9156990022
 30
0.0
 10
840.1008776388
 20
140.5686929757
 30
0.0
  0
LINE
  5
55B
100
AcDbEntity
  8
BEZUGSACHSEN
100
AcDbLine
 62
7
  6
CONTINUOUS
 10
838.5564758953
 20
147.2461579204
 11
838.605373498
 21
147.2038092729
  0
LINE
  5
55C
100
AcDbEntity
  8
BEZUGSACHSEN
100
AcDbLine
 62
7
  6
CONTINUOUS
 10
838.605373498
 20
147.2038092729
 11
838.7515151526
 21
147.0771863854
  0
LINE
  5
55D
100
AcDbEntity
  8
BEZUGSACHSEN
100
AcDbLine
 62
7
  6
CONTINUOUS
 10
838.7515151526
 20
147.0771863854
 11
838.9474926634
 21
146.7952615519
  0
LINE
  5
55E
100
AcDbEntity
  8
BEZUGSACHSEN
100
AcDbLine
 62
7
  6
CONTINUOUS
 10
839.1444388554
 20
146.4003839464
 11
838.9474926634
 21
146.7952615519
  0
LINE
  5
55F
100
AcDbEntity
  8
0
100
AcDbLine
 62
7
  6
CONTINUOUS
 10
838.3621405097
 20
146.5219544338
 11
838.4229691244
 21
146.4003839464
  0
LINE
  5
560
100
AcDbEntity
  8
BEZUGSACHSEN
100
AcDbLine
 62
7
  6
CONTINUOUS
 10
839.2765939695
 20
145.9865278391
 11
839.1444388554
 21
146.4003839464
  0
LINE
  5
561
100
AcDbEntity
  8
0
100
AcDbLine
 62
7
  6
CONTINUOUS
 10
838.4229691244
 20
146.4003839464
 11
838.5565919721
 21
145.9865278391
  0
SPLINE
  5
562
100
AcDbEntity
  8
0
100
AcDbSpline
 62
7
  6
CONTINUOUS
 70
0
 71
3
 72
11
 73
7
 74
0
 42
0.0000001
 43
0.0000001
 44
0.0000000001
 40
0.0
 40
0.0
 40
0.0
 40
0.0
 40
0.2540845274
 40
0.5000000008
 40
0.7459154741
 40
1.0
 40
1.0
 40
1.0
 40
1.0
 10
832.2973490888
 20
182.2380882488
 30
0.0
 10
832.6716655622
 20
181.2629604972
 30
0.0
 10
833.2687652524
 20
179.2841437696
 30
0.0
 10
833.5877987568
 20
176.2137457621
 30
0.0
 10
833.2687652629
 20
173.143347758
 30
0.0
 10
832.6716655599
 20
171.1645310411
 30
0.0
 10
832.2973490888
 20
170.1894032956
 30
0.0
  0
LINE
  5
563
100
AcDbEntity
  8
BEZUGSACHSEN
100
AcDbLine
 62
7
  6
CONTINUOUS
 10
838.0687183708
 20
153.7063925017
 11
839.8294154784
 21
150.6467994272
  0
LINE
  5
564
100
AcDbEntity
  8
BEZUGSACHSEN
100
AcDbLine
 62
7
  6
CONTINUOUS
 10
839.8294154784
 20
150.6467994272
 11
840.0937400965
 21
150.1874654426
  0
LINE
  5
565
100
AcDbEntity
  8
0
100
AcDbLine
 62
7
  6
CONTINUOUS
 10
839.335416816
 20
150.1874654426
 11
837.3111172811
 21
153.7063925017
  0
LINE
  5
566
100
AcDbEntity
  8
BEZUGSACHSEN
100
AcDbLine
 62
7
  6
CONTINUOUS
 10
840.356152284
 20
149.632463009
 11
840.1595365545
 21
150.04833105
  0
LINE
  5
567
100
AcDbEntity
  8
BEZUGSACHSEN
100
AcDbLine
 62
7
  6
CONTINUOUS
 10
840.1595365545
 20
150.04833105
 11
840.0937400965
 21
150.1874654426
  0
LINE
  5
568
100
AcDbEntity
  8
0
100
AcDbLine
 62
7
  6
CONTINUOUS
 10
839.335416816
 20
150.1874654426
 11
839.598434223
 21
149.632463009
  0
LINE
  5
569
100
AcDbEntity
  8
BEZUGSACHSEN
100
AcDbLine
 62
7
  6
CONTINUOUS
 10
840.553918035
 20
149.090027523
 11
840.356152284
 21
149.632463009
  0
LINE
  5
56A
100
AcDbEntity
  8
0
100
AcDbLine
 62
7
  6
CONTINUOUS
 10
839.598434223
 20
149.632463009
 11
839.7975715338
 21
149.090027523
  0
LINE
  5
56B
100
AcDbEntity
  8
0
100
AcDbLine
 62
7
  6
CONTINUOUS
 10
839.999812684
 20
148.0428555813
 11
840.0001145605
 21
147.897437841
  0
LINE
  5
56C
100
AcDbEntity
  8
BEZUGSACHSEN
100
AcDbLine
 62
7
  6
CONTINUOUS
 10
840.7305273472
 20
147.5665130492
 11
840.7480207186
 21
147.6390665959
  0
LINE
  5
56D
100
AcDbEntity
  8
BEZUGSACHSEN
100
AcDbLine
 62
7
  6
CONTINUOUS
 10
839.8534514831
 20
161.5761357444
 11
840.1720651525
 21
160.9002430949
  0
LINE
  5
56E
100
AcDbEntity
  8
BEZUGSACHSEN
100
AcDbLine
 62
7
  6
CONTINUOUS
 10
840.1720651525
 20
160.9002430949
 11
840.1846492963
 21
160.8735221125
  0
SPLINE
  5
56F
100
AcDbEntity
  8
BEZUGSACHSEN
100
AcDbSpline
 62
7
  6
CONTINUOUS
 70
0
 71
3
 72
8
 73
4
 74
0
 42
0.0000001
 43
0.0000001
 44
0.0000000001
 40
0.0
 40
0.0
 40
0.0
 40
0.0
 40
1.0
 40
1.0
 40
1.0
 40
1.0
 10
840.1846492963
 20
160.8735221125
 30
0.0
 10
840.3886754866
 20
160.4402798752
 30
0.0
 10
840.5924006594
 20
160.0068957205
 30
0.0
 10
840.795788411
 20
159.5733533984
 30
0.0
  0
LINE
  5
570
100
AcDbEntity
  8
BEZUGSACHSEN
100
AcDbLine
 62
7
  6
CONTINUOUS
 10
840.795788411
 20
159.5733533984
 11
841.0772540972
 21
158.9728077444
  0
LINE
  5
571
100
AcDbEntity
  8
BEZUGSACHSEN
100
AcDbLine
 62
7
  6
CONTINUOUS
 10
841.0772540972
 20
158.9728077444
 11
841.1008776388
 21
158.9223505683
  0
LINE
  5
572
100
AcDbEntity
  8
BEZUGSACHSEN
100
AcDbLine
 62
7
  6
CONTINUOUS
 10
840.0577228541
 20
147.1590492075
 11
839.8007934397
 21
147.606466101
  0
LINE
  5
573
100
AcDbEntity
  8
BEZUGSACHSEN
100
AcDbLine
 62
7
  6
CONTINUOUS
 10
839.8007934397
 20
147.606466101
 11
838.0365357986
 21
150.6779762666
  0
LINE
  5
574
100
AcDbEntity
  8
0
100
AcDbLine
 62
7
  6
CONTINUOUS
 10
837.2984473341
 20
150.6779762666
 11
838.7192016334
 21
148.2065076678
  0
LINE
  5
575
100
AcDbEntity
  8
0
100
AcDbLine
 62
7
  6
CONTINUOUS
 10
838.7192016334
 20
148.2065076678
 11
838.7989563903
 21
148.0677554403
  0
LINE
  5
576
100
AcDbEntity
  8
0
100
AcDbLine
 62
7
  6
CONTINUOUS
 10
838.7989563903
 20
148.0677554403
 11
838.8212582888
 21
148.0289557107
  0
LINE
  5
577
100
AcDbEntity
  8
0
100
AcDbLine
 62
7
  6
CONTINUOUS
 10
838.8212582888
 20
148.0289557107
 11
838.9201594654
 21
147.8568907168
  0
LINE
  5
578
100
AcDbEntity
  8
0
100
AcDbLine
 62
7
  6
CONTINUOUS
 10
838.9201594654
 20
147.8568907168
 11
839.1474211421
 21
147.4614978814
  0
LINE
  5
579
100
AcDbEntity
  8
0
100
AcDbLine
 62
7
  6
CONTINUOUS
 10
839.1474211421
 20
147.4614978814
 11
839.3212550658
 21
147.1590492075
  0
LINE
  5
57A
100
AcDbEntity
  8
BEZUGSACHSEN
100
AcDbLine
 62
7
  6
CONTINUOUS
 10
840.0577228541
 20
147.1590492075
 11
840.3871980256
 21
146.6924277947
  0
LINE
  5
57B
100
AcDbEntity
  8
0
100
AcDbLine
 62
7
  6
CONTINUOUS
 10
839.6502599316
 20
146.6924277947
 11
839.5682351131
 21
146.8087713586
  0
LINE
  5
57C
100
AcDbEntity
  8
0
100
AcDbLine
 62
7
  6
CONTINUOUS
 10
839.5682351131
 20
146.8087713586
 11
839.3639193798
 21
147.098544758
  0
LINE
  5
57D
100
AcDbEntity
  8
0
100
AcDbLine
 62
7
  6
CONTINUOUS
 10
839.3639193798
 20
147.098544758
 11
839.3212550658
 21
147.1590492075
  0
LINE
  5
57E
100
AcDbEntity
  8
BEZUGSACHSEN
100
AcDbLine
 62
7
  6
CONTINUOUS
 10
840.3871980256
 20
146.6924277947
 11
840.6547239364
 21
146.440267165
  0
LINE
  5
57F
100
AcDbEntity
  8
0
100
AcDbLine
 62
7
  6
CONTINUOUS
 10
839.9164620711
 20
146.440267165
 11
839.7171363122
 21
146.6291227686
  0
LINE
  5
580
100
AcDbEntity
  8
0
100
AcDbLine
 62
7
  6
CONTINUOUS
 10
839.7171363122
 20
146.6291227686
 11
839.6502599316
 21
146.6924277947
  0
LINE
  5
581
100
AcDbEntity
  8
BEZUGSACHSEN
100
AcDbLine
 62
7
  6
CONTINUOUS
 10
840.6547239364
 20
146.440267165
 11
840.9273269067
 21
146.3900004902
  0
LINE
  5
582
100
AcDbEntity
  8
0
100
AcDbLine
 62
7
  6
CONTINUOUS
 10
840.1008777487
 20
146.4059398231
 11
839.9164620711
 21
146.440267165
  0
LINE
  5
583
100
AcDbEntity
  8
0
100
AcDbLine
 62
7
  6
CONTINUOUS
 10
839.9988302079
 20
152.6107123395
 11
839.9990691679
 21
152.577572187
  0
LINE
  5
584
100
AcDbEntity
  8
BEZUGSACHSEN
100
AcDbLine
 62
7
  6
CONTINUOUS
 10
841.1008776388
 20
149.8028730872
 11
840.8361036548
 21
150.335386788
  0
LINE
  5
585
100
AcDbEntity
  8
BEZUGSACHSEN
100
AcDbLine
 62
7
  6
CONTINUOUS
 10
840.8361036548
 20
150.335386788
 11
840.534027052
 21
150.9428610027
  0
LINE
  5
586
100
AcDbEntity
  8
BEZUGSACHSEN
100
AcDbLine
 62
7
  6
CONTINUOUS
 10
840.534027052
 20
150.9428610027
 11
840.5044338651
 21
151.0023692619
  0
SPLINE
  5
587
100
AcDbEntity
  8
BEZUGSACHSEN
100
AcDbSpline
 62
7
  6
CONTINUOUS
 70
0
 71
3
 72
8
 73
4
 74
0
 42
0.0000001
 43
0.0000001
 44
0.0000000001
 40
0.0
 40
0.0
 40
0.0
 40
0.0
 40
1.0
 40
1.0
 40
1.0
 40
1.0
 10
840.5044338651
 20
151.0023692619
 30
0.0
 10
839.7539635341
 20
152.5114651279
 30
0.0
 10
839.00326476
 20
154.020447399
 30
0.0
 10
838.2524107823
 20
155.5293524175
 30
0.0
  0
LINE
  5
588
100
AcDbEntity
  8
BEZUGSACHSEN
100
AcDbLine
 62
7
  6
CONTINUOUS
 10
838.2524107823
 20
155.5293524175
 11
838.0645760877
 21
155.9068140597
  0
LINE
  5
589
100
AcDbEntity
  8
0
100
AcDbLine
 62
7
  6
CONTINUOUS
 10
837.293100318
 20
155.9068140597
 11
838.0817435391
 21
154.323011292
  0
LINE
  5
58A
100
AcDbEntity
  8
0
100
AcDbLine
 62
7
  6
CONTINUOUS
 10
838.0817435391
 20
154.323011292
 11
838.2429693581
 21
153.999201709
  0
LINE
  5
58B
100
AcDbEntity
  8
0
100
AcDbLine
 62
7
  6
CONTINUOUS
 10
839.594597888
 20
154.1751525293
 11
839.7943364606
 21
153.6091379864
  0
LINE
  5
58C
100
AcDbEntity
  8
BEZUGSACHSEN
100
AcDbLine
 62
7
  6
CONTINUOUS
 10
840.5839609742
 20
153.6091379864
 11
840.3853617923
 21
154.1751525293
  0
LINE
  5
58D
100
AcDbEntity
  8
0
100
AcDbLine
 62
7
  6
CONTINUOUS
 10
839.3313244522
 20
154.7857005927
 11
839.594597888
 21
154.1751525293
  0
LINE
  5
58E
100
AcDbEntity
  8
BEZUGSACHSEN
100
AcDbLine
 62
7
  6
CONTINUOUS
 10
840.3853617923
 20
154.1751525293
 11
840.188461395
 21
154.6326503746
  0
LINE
  5
58F
100
AcDbEntity
  8
BEZUGSACHSEN
100
AcDbLine
 62
7
  6
CONTINUOUS
 10
840.188461395
 20
154.6326503746
 11
840.1225762928
 21
154.7857005927
  0
LINE
  5
590
100
AcDbEntity
  8
0
100
AcDbLine
 62
7
  6
CONTINUOUS
 10
839.3313244522
 20
154.7857005927
 11
838.8433489413
 21
155.7650416217
  0
LINE
  5
591
100
AcDbEntity
  8
0
100
AcDbLine
 62
7
  6
CONTINUOUS
 10
838.8433489413
 20
155.7650416217
 11
838.8199501176
 21
155.812000636
  0
LINE
  5
592
100
AcDbEntity
  8
0
100
AcDbLine
 62
7
  6
CONTINUOUS
 10
838.8199501176
 20
155.812000636
 11
838.4921073042
 21
156.4699363039
  0
LINE
  5
593
100
AcDbEntity
  8
BEZUGSACHSEN
100
AcDbLine
 62
7
  6
CONTINUOUS
 10
839.1429448614
 20
156.7509484971
 11
839.8787081888
 21
155.2749362728
  0
LINE
  5
594
100
AcDbEntity
  8
BEZUGSACHSEN
100
AcDbLine
 62
7
  6
CONTINUOUS
 10
839.8787081888
 20
155.2749362728
 11
839.9129016046
 21
155.2063395954
  0
LINE
  5
595
100
AcDbEntity
  8
BEZUGSACHSEN
100
AcDbLine
 62
7
  6
CONTINUOUS
 10
839.9129016046
 20
155.2063395954
 11
840.1225762928
 21
154.7857005927
  0
LINE
  5
596
100
AcDbEntity
  8
BEZUGSACHSEN
100
AcDbLine
 62
7
  6
CONTINUOUS
 10
838.8831321467
 20
157.1885325515
 11
838.9482953136
 21
157.0788135182
  0
LINE
  5
597
100
AcDbEntity
  8
BEZUGSACHSEN
100
AcDbLine
 62
7
  6
CONTINUOUS
 10
838.9482953136
 20
157.0788135182
 11
839.1429448614
 21
156.7509484971
  0
LINE
  5
598
100
AcDbEntity
  8
BEZUGSACHSEN
100
AcDbLine
 62
7
  6
CONTINUOUS
 10
838.6895712217
 20
157.408617464
 11
838.7382104549
 21
157.3533818093
  0
LINE
  5
599
100
AcDbEntity
  8
BEZUGSACHSEN
100
AcDbLine
 62
7
  6
CONTINUOUS
 10
838.7382104549
 20
157.3533818093
 11
838.8831321467
 21
157.1885325515
  0
LINE
  5
59A
100
AcDbEntity
  8
BEZUGSACHSEN
100
AcDbLine
 62
7
  6
CONTINUOUS
 10
838.561382373
 20
157.4112034902
 11
838.6895712217
 21
157.408617464
  0
ELLIPSE
  5
59B
100
AcDbEntity
  8
KONSTRUKTIONSELEMENTE
100
AcDbEllipse
 62
7
  6
CONTINUOUS
 10
241.1068188668
 20
18.2633568765
 30
0.0
 11
-0.9079926458
 21
0.6474800987
 31
0.0
 40
0.8040646284
 41
-2.1902533329
 42
-0.7310952967
  0
ELLIPSE
  5
59C
100
AcDbEntity
  8
KONSTRUKTIONSELEMENTE
100
AcDbEllipse
 62
7
  6
CONTINUOUS
 10
228.4725793943
 20
16.4484549708
 30
0.0
 11
2.9999216922
 21
0.656257088
 31
0.0
 40
0.0330294486
 41
-2.4948218116
 42
-1.2638623942
  0
ELLIPSE
  5
59D
100
AcDbEntity
  8
0
100
AcDbEllipse
 62
7
  6
CONTINUOUS
 10
288.4841549298
 20
-44.6910096929
 30
0.0
 11
0.0
 21
112.583302492
 31
0.0
 40
0.5773502692
 41
-0.3854704199
 42
-0.1739528877
  0
ELLIPSE
  5
59E
100
AcDbEntity
  8
0
100
AcDbEllipse
 62
7
  6
CONTINUOUS
 10
288.4841549298
 20
-44.6910096929
 30
0.0
 11
0.0
 21
112.583302492
 31
0.0
 40
0.5773502692
 41
0.1739528877
 42
0.3854704199
  0
ELLIPSE
  5
59F
100
AcDbEntity
  8
RUNDUNGEN
100
AcDbEllipse
 62
7
  6
CONTINUOUS
 10
837.253637489
 20
62.63739885
 30
0.0
 11
2.4415210557
 21
8.5526760869
 31
0.0
 40
0.5573507153
 41
-4.2390381249
 42
-3.5074078107
  0
ELLIPSE
  5
5A0
100
AcDbEntity
  8
BEZUGSACHSEN
100
AcDbEllipse
 62
7
  6
CONTINUOUS
 10
816.5421875527
 20
62.63739885
 30
0.0
 11
-2.4415210557
 21
8.5526760869
 31
0.0
 40
0.5573507153
 41
-2.7757774965
 42
-2.0441471822
  0
ELLIPSE
  5
5A1
100
AcDbEntity
  8
BEZUGSACHSEN
100
AcDbEllipse
 62
7
  6
CONTINUOUS
 10
842.7574082343
 20
66.2449694596
 30
0.0
 11
18.5701735795
 21
-12.0398819833
 31
0.0
 40
0.8993801471
 41
-2.566886172
 42
-2.4670944126
  0
ELLIPSE
  5
5A2
100
AcDbEntity
  8
RUNDUNGEN
100
AcDbEllipse
 62
7
  6
CONTINUOUS
 10
811.0384168074
 20
66.2449694596
 30
0.0
 11
18.5701735795
 21
12.0398819833
 31
0.0
 40
0.8993801471
 41
-0.674498241
 42
-0.5747064816
  0
ELLIPSE
  5
5A3
100
AcDbEntity
  8
KONSTRUKTIONSELEMENTE
100
AcDbEllipse
 62
7
  6
CONTINUOUS
 10
661.4460126971
 20
21.3982024391
 30
0.0
 11
-0.0
 21
4.19040674
 31
0.0
 40
0.1583844403
 41
-4.2154724383
 42
-3.2972706863
  0
ELLIPSE
  5
5A4
100
AcDbEntity
  8
KONSTRUKTIONSELEMENTE
100
AcDbEllipse
 62
7
  6
CONTINUOUS
 10
666.3957601655
 20
16.4484549708
 30
0.0
 11
4.19040674
 21
-0.0
 31
0.0
 40
0.1583844403
 41
-2.9859146209
 42
-2.0677128689
  0
ENDSEC
  0
SECTION
  2
OBJECTS
  0
DICTIONARY
  5
C
100
AcDbDictionary
280
0
281
1
  3
ACAD_GROUP
350
D
  3
ACAD_MLINESTYLE
350
17
  3
ACAD_LAYOUT
350
1A
  3
ACAD_PLOTSETTINGS
350
19
  3
ACAD_PLOTSTYLENAME
350
E
  0
DICTIONARY
  5
D
102
{ACAD_REACTORS
330
C
102
}
100
AcDbDictionary
280
0
281
1
  0
ACDBDICTIONARYWDFLT
  5
E
102
{ACAD_REACTORS
330
C
102
}
100
AcDbDictionary
281
1
  3
Normal
350
F
100
AcDbDictionaryWithDefault
340
F
  0
DICTIONARY
  5
17
102
{ACAD_REACTORS
330
C
102
}
100
AcDbDictionary
280
0
281
1
  3
Standard
350
18
  0
DICTIONARY
  5
19
102
{ACAD_REACTORS
330
C
102
}
100
AcDbDictionary
281
1
  0
DICTIONARY
  5
1A
102
{ACAD_REACTORS
330
C
102
}
100
AcDbDictionary
281
1
  3
Model
350
5A5
  3
Layout1
350
5A6
  0
ACDBPLACEHOLDER
  5
F
102
{ACAD_REACTORS
330
E
102
}
  0
MLINESTYLE
  5
18
102
{ACAD_REACTORS
330
17
102
}
100
AcDbMlineStyle
  2
STANDARD
 70
0
  3

 62
256
 51
90.0
 52
90.0
 71
2
 49
0.5
 62
256
  6
BYLAYER
 49
-0.5
 62
256
  6
BYLAYER
  0
LAYOUT
  5
5A5
102
{ACAD_REACTORS
330
1A
102
}
100
AcDbPlotSettings
  1

  2
none_device
  4
ISO_A0_(1189.00_x_841.00_MM)
  6

 40
0.0
 41
0.0
 42
0.0
 43
0.0
 44
1189.0
 45
841.0
 46
0.0
 47
0.0
 48
0.0
 49
0.0
140
0.0
141
0.0
142
1.0
143
1.0
 70
1024
 72
1
 73
0
 74
0
  7

 75
0
147
1.0
148
0.0
149
0.0
100
AcDbLayout
  1
Model
 70
0
 71
0
 10
0.0
 20
0.0
 11
1189.0
 21
841.0
 12
0.0
 22
0.0
 32
0.0
 14
0.0
 24
0.0
 34
0.0
 15
0.0
 25
0.0
 35
0.0
146
0.0
 13
0.0
 23
0.0
 33
0.0
 16
1.0
 26
0.0
 36
0.0
 17
0.0
 27
1.0
 37
0.0
 76
0
330
20A
345
0
346
0
  0
LAYOUT
  5
5A6
102
{ACAD_REACTORS
330
1A
102
}
100
AcDbPlotSettings
  1

  2
none_device
  4
ISO_A0_(1189.00_x_841.00_MM)
  6

 40
0.0
 41
0.0
 42
0.0
 43
0.0
 44
1189.0
 45
841.0
 46
0.0
 47
0.0
 48
0.0
 49
0.0
140
0.0
141
0.0
142
1.0
143
1.0
 70
0
 72
1
 73
0
 74
0
  7

 75
0
147
1.0
148
0.0
149
0.0
100
AcDbLayout
  1
Layout1
 70
0
 71
1
 10
0.0
 20
0.0
 11
1189.0
 21
841.0
 12
0.0
 22
0.0
 32
0.0
 14
0.0
 24
0.0
 34
0.0
 15
0.0
 25
0.0
 35
0.0
146
0.0
 13
0.0
 23
0.0
 33
0.0
 16
1.0
 26
0.0
 36
0.0
 17
0.0
 27
1.0
 37
0.0
 76
0
330
20B
345
0
346
0
  0
ENDSEC
  0
EOF
