999
DXF file: VSAK-1-16_250_7100698_M32082-P-3.dxf
999
Pro/ENGINEER 2010140 by Parametric Technology Corporation
  0
SECTION
  2
HEADER
  9
$ACADVER
  1
AC1015
  9
$DWGCODEPAGE
  3
ANSI_1252
  9
$EXTMAX
 10
1189.0
 20
841.0
 30
0.0
  9
$EXTMIN
 10
0.0
 20
0.0
 30
0.0
  9
$LIMMIN
 10
0.0
 20
0.0
  9
$LIMMAX
 10
1189.0
 20
841.0
  9
$VIEWCTR
 10
594.5
 20
420.5
  9
$VIEWSIZE
 40
841.0
  9
$CLAYER
  8
0
  9
$LTSCALE
 40
65.395
  9
$CELTYPE
  6
BYLAYER
  9
$DIMSCALE
 40
1.0
  9
$DIMASZ
 40
3.5
  9
$DIMEXO
 40
7.43125
  9
$DIMDLI
 40
45.182
  9
$DIMEXE
 40
21.402
  9
$DIMCEN
 40
10.701
  9
$DIMLFAC
 40
1.0
  9
$DIMBLK
  1
_FILLED
  9
$DIMTXT
 40
3.5
  9
$DIMTOL
 70
1
  9
$DIMLIM
 70
0
  9
$DIMTFAC
 40
1.0
  9
$DIMTP
 40
0.005
  9
$DIMTM
 40
0.005
  9
$PDMODE
 70
3
  9
$PDSIZE
 40
0.3125
  9
$HANDSEED
  5
4E3
  9
$TILEMODE
 70
1
  9
$MEASUREMENT
 70
1
  9
$INSUNITS
 70
4
  0
ENDSEC
  0
SECTION
  2
CLASSES
  0
CLASS
  1
ACDBDICTIONARYWDFLT
  2
AcDbDictionaryWithDefault
  3
AutoCAD 2000
 90
0
280
0
281
0
  0
CLASS
  1
ACDBPLACEHOLDER
  2
AcDbPlaceHolder
  3
AutoCAD 2000
 90
0
280
0
281
0
  0
CLASS
  1
LAYOUT
  2
AcDbLayout
  3
AutoCAD 2000
 90
0
280
0
281
0
  0
ENDSEC
  0
SECTION
  2
TABLES
  0
TABLE
  2
VPORT
  5
8
100
AcDbSymbolTable
 70
2
  0
VPORT
  5
1F4
100
AcDbSymbolTableRecord
100
AcDbViewportTableRecord
  2
*ACTIVE
 70
0
 10
0.0
 20
0.0
 11
1.0
 21
1.0
 12
594.5
 22
420.5
 13
0.0
 23
0.0
 14
1.0
 24
1.0
 15
0.0
 25
0.0
 16
0.0
 26
0.0
 36
1.0
 17
0.0
 27
0.0
 37
0.0
 40
841.0
 41
1.4137931034
 42
50.0
 43
0.0
 44
0.0
 50
0.0
 51
0.0
 71
0
 72
100
 73
1
 74
1
 75
0
 76
0
 77
0
 78
0
  0
ENDTAB
  0
TABLE
  2
LTYPE
  5
5
100
AcDbSymbolTable
 70
6
  0
LTYPE
  5
14
100
AcDbSymbolTableRecord
100
AcDbLinetypeTableRecord
  2
BYBLOCK
 70
0
  3

 72
65
 73
0
 40
0.0
  0
LTYPE
  5
15
100
AcDbSymbolTableRecord
100
AcDbLinetypeTableRecord
  2
BYLAYER
 70
0
  3

 72
65
 73
0
 40
0.0
  0
LTYPE
  5
16
100
AcDbSymbolTableRecord
100
AcDbLinetypeTableRecord
  2
CONTINUOUS
 70
64
  3
Solid line
 72
65
 73
0
 40
0.0
  0
LTYPE
  5
1F5
100
AcDbSymbolTableRecord
100
AcDbLinetypeTableRecord
  2
CENTER
 70
64
  3
____ _ ____ _ ____ _ ____ _ ____ _ ____ _ ____
 72
65
 73
4
 40
0.6
 49
0.375
 74
0
 49
-0.075
 74
0
 49
0.075
 74
0
 49
-0.075
 74
0
  0
LTYPE
  5
1F6
100
AcDbSymbolTableRecord
100
AcDbLinetypeTableRecord
  2
HIDDEN
 70
64
  3
- - - - - - - - - - - - - - - - - - - -
 72
65
 73
2
 40
0.2
 49
0.1
 74
0
 49
-0.1
 74
0
  0
LTYPE
  5
1F7
100
AcDbSymbolTableRecord
100
AcDbLinetypeTableRecord
  2
PHANTOM
 70
64
  3
_____ _ _ _____ _ _ _____ _ _ _____
 72
65
 73
6
 40
0.8
 49
0.45
 74
0
 49
-0.05
 74
0
 49
0.1
 74
0
 49
-0.05
 74
0
 49
0.1
 74
0
 49
-0.05
 74
0
  0
LTYPE
  5
1F8
100
AcDbSymbolTableRecord
100
AcDbLinetypeTableRecord
  2
DOT
 70
64
  3
. . . . . . . . . . . . . . . . . . . .
 72
65
 73
2
 40
0.2
 49
0.1
 74
0
 49
-0.1
 74
0
  0
LTYPE
  5
1F9
100
AcDbSymbolTableRecord
100
AcDbLinetypeTableRecord
  2
DASHED
 70
64
  3
- - - - - - - - - - - - - - - - - - - -
 72
65
 73
2
 40
0.2
 49
0.1
 74
0
 49
-0.1
 74
0
  0
ENDTAB
  0
TABLE
  2
LAYER
  5
2
100
AcDbSymbolTable
 70
36
  0
LAYER
  5
10
100
AcDbSymbolTableRecord
100
AcDbLayerTableRecord
  2
0
 70
0
 62
7
  6
CONTINUOUS
370
-3
390
F
  0
LAYER
  5
1FA
100
AcDbSymbolTableRecord
100
AcDbLayerTableRecord
  2
DEFAULT_1
 70
0
 62
7
  6
CENTER
370
-3
390
F
  0
LAYER
  5
1FB
100
AcDbSymbolTableRecord
100
AcDbLayerTableRecord
  2
DEFAULT_2
 70
0
 62
8
  6
HIDDEN
370
-3
390
F
  0
LAYER
  5
1FC
100
AcDbSymbolTableRecord
100
AcDbLayerTableRecord
  2
DEFAULT_3
 70
0
 62
7
  6
PHANTOM
370
-3
390
F
  0
LAYER
  5
1FD
100
AcDbSymbolTableRecord
100
AcDbLayerTableRecord
  2
AUSFORMSCHRAEGEN
 70
0
 62
7
  6
CONTINUOUS
370
-3
390
F
  0
LAYER
  5
1FE
100
AcDbSymbolTableRecord
100
AcDbLayerTableRecord
  2
BEZUGSACHSEN
 70
0
 62
7
  6
CONTINUOUS
370
-3
390
F
  0
LAYER
  5
1FF
100
AcDbSymbolTableRecord
100
AcDbLayerTableRecord
  2
BEZUGSEBENEN
 70
0
 62
7
  6
CONTINUOUS
370
-3
390
F
  0
LAYER
  5
200
100
AcDbSymbolTableRecord
100
AcDbLayerTableRecord
  2
BG_STARTBEZUEGE
 70
0
 62
7
  6
CONTINUOUS
370
-3
390
F
  0
LAYER
  5
201
100
AcDbSymbolTableRecord
100
AcDbLayerTableRecord
  2
FASEN
 70
0
 62
7
  6
CONTINUOUS
370
-3
390
F
  0
LAYER
  5
202
100
AcDbSymbolTableRecord
100
AcDbLayerTableRecord
  2
FLAECHEN
 70
0
 62
7
  6
CONTINUOUS
370
-3
390
F
  0
LAYER
  5
203
100
AcDbSymbolTableRecord
100
AcDbLayerTableRecord
  2
HILFEN
 70
0
 62
7
  6
CONTINUOUS
370
-3
390
F
  0
LAYER
  5
204
100
AcDbSymbolTableRecord
100
AcDbLayerTableRecord
  2
KONSTRUKTIONSELEMENTE
 70
0
 62
7
  6
CONTINUOUS
370
-3
390
F
  0
LAYER
  5
205
100
AcDbSymbolTableRecord
100
AcDbLayerTableRecord
  2
NORM
 70
0
 62
7
  6
CONTINUOUS
370
-3
390
F
  0
LAYER
  5
206
100
AcDbSymbolTableRecord
100
AcDbLayerTableRecord
  2
PLATZIERUNG
 70
0
 62
7
  6
CONTINUOUS
370
-3
390
F
  0
LAYER
  5
207
100
AcDbSymbolTableRecord
100
AcDbLayerTableRecord
  2
PLAZIERUNG
 70
0
 62
7
  6
CONTINUOUS
370
-3
390
F
  0
LAYER
  5
208
100
AcDbSymbolTableRecord
100
AcDbLayerTableRecord
  2
RUNDUNGEN
 70
0
 62
7
  6
CONTINUOUS
370
-3
390
F
  0
LAYER
  5
209
100
AcDbSymbolTableRecord
100
AcDbLayerTableRecord
  2
TEIL_STARTBEZUEGE
 70
0
 62
7
  6
CONTINUOUS
370
-3
390
F
  0
LAYER
  5
20A
100
AcDbSymbolTableRecord
100
AcDbLayerTableRecord
  2
T_STARTBEZUEGE
 70
0
 62
7
  6
CONTINUOUS
370
-3
390
F
  0
ENDTAB
  0
TABLE
  2
STYLE
  5
3
100
AcDbSymbolTable
 70
1
  0
STYLE
  5
11
100
AcDbSymbolTableRecord
100
AcDbTextStyleTableRecord
  2
STANDARD
 70
0
 40
0.0
 41
0.7
 50
0.0
 71
0
 42
0.2
  3
txt
  4

  0
STYLE
  5
20B
100
AcDbSymbolTableRecord
100
AcDbTextStyleTableRecord
  2
TEXTSTYLE_1
 70
0
 40
0.0
 41
0.8
 50
0.0
 71
0
 42
0.2
  3
gdt
  4

  0
ENDTAB
  0
TABLE
  2
VIEW
  5
6
100
AcDbSymbolTable
 70
0
  0
ENDTAB
  0
TABLE
  2
UCS
  5
7
100
AcDbSymbolTable
 70
0
  0
ENDTAB
  0
TABLE
  2
APPID
  5
9
100
AcDbSymbolTable
 70
1
  0
APPID
  5
20C
100
AcDbSymbolTableRecord
100
AcDbRegAppTableRecord
  2
ACAD
 70
0
  0
ENDTAB
  0
TABLE
  2
BLOCK_RECORD
  5
1
100
AcDbSymbolTable
 70
0
  0
BLOCK_RECORD
  5
20D
100
AcDbSymbolTableRecord
100
AcDbBlockTableRecord
  2
*Model_Space
  0
BLOCK_RECORD
  5
20E
100
AcDbSymbolTableRecord
100
AcDbBlockTableRecord
  2
*Paper_Space
  0
ENDTAB
  0
TABLE
  2
DIMSTYLE
  5
A
100
AcDbSymbolTable
 70
1
100
AcDbDimStyleTable
 71
0
  0
DIMSTYLE
105
20F
100
AcDbSymbolTableRecord
100
AcDbDimStyleTableRecord
  2
STANDARD
 70
0
  3

  4

 40
1.0
 41
3.5
 42
0.0625
 43
0.38
 44
0.18
 45
0.0
 46
0.0
 47
0.005
 48
0.005
140
3.5
141
0.09
142
0.0
143
25.4
144
1.0
145
0.0
146
1.0
147
0.09
 71
1.0
 72
0.0
 73
0
 74
0
 75
0
 76
0
 77
1
 78
8
170
0
171
2
172
0
173
0
174
0
175
0
176
0
177
0
178
5
270
2
271
3
272
3
273
2
274
2
275
0
280
0
281
0
282
0
283
1
284
8
285
0
286
0
287
3
288
0
340
11
  0
ENDTAB
  0
ENDSEC
  0
SECTION
  2
BLOCKS
  0
BLOCK
  5
20
100
AcDbEntity
  8
0
100
AcDbBlockBegin
  2
*Model_Space
 70
0
 10
0.0
 20
0.0
 30
0.0
  3
*Model_Space
  1

  0
ENDBLK
  5
21
100
AcDbEntity
  8
0
100
AcDbBlockEnd
  0
BLOCK
  5
1C
100
AcDbEntity
  8
0
100
AcDbBlockBegin
  2
*Paper_Space
 70
0
 10
0.0
 20
0.0
 30
0.0
  3
*Paper_Space
  1

  0
ENDBLK
  5
1D
100
AcDbEntity
  8
0
100
AcDbBlockEnd
  0
ENDSEC
  0
SECTION
  2
ENTITIES
  0
MTEXT
  5
210
100
AcDbEntity
  8
0
100
AcDbMText
 62
5
  6
CONTINUOUS
  7
STANDARD
 71
1
 72
1
 10
123.3087739423
 20
542.972764425
 30
0.0
 11
0.0
 21
1.0
 31
0.0
 44
0.9
  1
RUD
 40
12.0
 41
32.0
  0
MTEXT
  5
211
100
AcDbEntity
  8
0
100
AcDbMText
 62
5
  6
CONTINUOUS
  7
STANDARD
 71
1
 72
1
 10
416.1928802745
 20
495.0844815844
 30
0.0
 11
0.0
 21
1.0
 31
0.0
 44
0.9
  1
VSAK 1-16/250
 40
12.0
 41
119.1428571429
  0
MTEXT
  5
212
100
AcDbEntity
  8
0
100
AcDbMText
 62
5
  6
CONTINUOUS
  7
STANDARD
 71
1
 72
1
 10
756.7059191315
 20
489.969866754
 30
0.0
 11
0.0
 21
1.0
 31
0.0
 44
0.9
  1
RUD VSAK 1-16/250
 40
12.0
 41
158.2857142857
  0
LINE
  5
213
100
AcDbEntity
  8
0
100
AcDbLine
 62
7
  6
CONTINUOUS
 10
0.0
 20
0.0
 11
0.0
 21
841.0
  0
LINE
  5
214
100
AcDbEntity
  8
0
100
AcDbLine
 62
7
  6
CONTINUOUS
 10
0.0
 20
0.0
 11
1189.0
 21
0.0
  0
LINE
  5
215
100
AcDbEntity
  8
0
100
AcDbLine
 62
7
  6
CONTINUOUS
 10
0.0
 20
841.0
 11
1189.0
 21
841.0
  0
LINE
  5
216
100
AcDbEntity
  8
0
100
AcDbLine
 62
7
  6
CONTINUOUS
 10
1189.0
 20
0.0
 11
1189.0
 21
841.0
  0
LINE
  5
217
100
AcDbEntity
  8
KONSTRUKTIONSELEMENTE
100
AcDbLine
 62
7
  6
CONTINUOUS
 10
268.9450624099
 20
4.813999028
 11
283.5050624099
 21
4.813999028
  0
LINE
  5
218
100
AcDbEntity
  8
KONSTRUKTIONSELEMENTE
100
AcDbLine
 62
7
  6
CONTINUOUS
 10
268.1450624099
 20
5.3796844529
 11
268.9450624099
 21
5.3796844529
  0
LINE
  5
219
100
AcDbEntity
  8
KONSTRUKTIONSELEMENTE
100
AcDbLine
 62
7
  6
CONTINUOUS
 10
283.5050624099
 20
5.3796844529
 11
284.3050624099
 21
5.3796844529
  0
LINE
  5
21A
100
AcDbEntity
  8
KONSTRUKTIONSELEMENTE
100
AcDbLine
 62
7
  6
CONTINUOUS
 10
262.5450624099
 20
27.4414160259
 11
262.0948836142
 21
27.4414160259
  0
LINE
  5
21B
100
AcDbEntity
  8
KONSTRUKTIONSELEMENTE
100
AcDbLine
 62
7
  6
CONTINUOUS
 10
289.9050624099
 20
27.4414160259
 11
310.2829438495
 21
27.4414160259
  0
LINE
  5
21C
100
AcDbEntity
  8
KONSTRUKTIONSELEMENTE
100
AcDbLine
 62
7
  6
CONTINUOUS
 10
316.0647076118
 20
31.9457977008
 11
307.1030761465
 21
34.5705987865
  0
LINE
  5
21D
100
AcDbEntity
  8
KONSTRUKTIONSELEMENTE
100
AcDbLine
 62
7
  6
CONTINUOUS
 10
316.0647076118
 20
35.4813316068
 11
307.1030761465
 21
38.1061326925
  0
LINE
  5
21E
100
AcDbEntity
  8
KONSTRUKTIONSELEMENTE
100
AcDbLine
 62
7
  6
CONTINUOUS
 10
302.7232515194
 20
89.7739554453
 11
298.599816427
 21
89.7739554453
  0
LINE
  5
21F
100
AcDbEntity
  8
KONSTRUKTIONSELEMENTE
100
AcDbLine
 62
7
  6
CONTINUOUS
 10
253.8503083928
 20
89.7739554453
 11
249.7268733003
 21
89.7739554453
  0
LINE
  5
220
100
AcDbEntity
  8
0
100
AcDbLine
 62
7
  6
CONTINUOUS
 10
285.0250624099
 20
102.7739554453
 11
267.4250624099
 21
102.7739554453
  0
LINE
  5
221
100
AcDbEntity
  8
0
100
AcDbLine
 62
7
  6
CONTINUOUS
 10
285.0250624099
 20
121.7739554453
 11
267.4250624099
 21
121.7739554453
  0
LINE
  5
222
100
AcDbEntity
  8
KONSTRUKTIONSELEMENTE
100
AcDbLine
 62
7
  6
CONTINUOUS
 10
338.406580914
 20
88.00902405
 11
347.3682123793
 21
85.3842229643
  0
LINE
  5
223
100
AcDbEntity
  8
KONSTRUKTIONSELEMENTE
100
AcDbLine
 62
7
  6
CONTINUOUS
 10
313.7250624099
 20
103.6571089619
 11
344.9257975012
 21
94.5186252316
  0
LINE
  5
224
100
AcDbEntity
  8
KONSTRUKTIONSELEMENTE
100
AcDbLine
 62
7
  6
CONTINUOUS
 10
344.9257975012
 20
98.0541591376
 11
313.7250624099
 21
107.1926428678
  0
LINE
  5
225
100
AcDbEntity
  8
BEZUGSACHSEN
100
AcDbLine
 62
7
  6
CONTINUOUS
 10
297.1128227117
 20
202.553350698
 11
297.9003030138
 21
202.7663772948
  0
LINE
  5
226
100
AcDbEntity
  8
BEZUGSACHSEN
100
AcDbLine
 62
7
  6
CONTINUOUS
 10
297.4409480054
 20
209.6423355887
 11
298.2284282744
 21
209.8553621405
  0
LINE
  5
227
100
AcDbEntity
  8
BEZUGSACHSEN
100
AcDbLine
 62
7
  6
CONTINUOUS
 10
306.9625867973
 20
191.9267827487
 11
307.4447946845
 21
192.0398372294
  0
LINE
  5
228
100
AcDbEntity
  8
BEZUGSACHSEN
100
AcDbLine
 62
7
  6
CONTINUOUS
 10
306.3740654862
 20
195.0670611522
 11
306.8562735706
 21
195.180115738
  0
LINE
  5
229
100
AcDbEntity
  8
BEZUGSACHSEN
100
AcDbLine
 62
7
  6
CONTINUOUS
 10
308.6272943713
 20
196.2677884151
 11
309.109502653
 21
196.380843106
  0
LINE
  5
22A
100
AcDbEntity
  8
BEZUGSACHSEN
100
AcDbLine
 62
7
  6
CONTINUOUS
 10
306.7790190865
 20
191.2533137778
 11
307.6026109006
 21
191.4043722136
  0
LINE
  5
22B
100
AcDbEntity
  8
BEZUGSACHSEN
100
AcDbLine
 62
7
  6
CONTINUOUS
 10
308.4694781552
 20
196.9032534309
 11
309.2930702652
 21
197.0543120244
  0
LINE
  5
22C
100
AcDbEntity
  8
BEZUGSACHSEN
100
AcDbLine
 62
7
  6
CONTINUOUS
 10
254.7827679323
 20
202.0556973713
 11
255.3791099458
 21
202.1213926769
  0
LINE
  5
22D
100
AcDbEntity
  8
BEZUGSACHSEN
100
AcDbLine
 62
7
  6
CONTINUOUS
 10
293.0397818282
 20
209.0544863676
 11
293.6361326411
 21
209.1201071704
  0
LINE
  5
22E
100
AcDbEntity
  8
BEZUGSACHSEN
100
AcDbLine
 62
7
  6
CONTINUOUS
 10
247.3708413065
 20
204.4290480672
 11
248.0659246184
 21
204.4932235128
  0
LINE
  5
22F
100
AcDbEntity
  8
BEZUGSACHSEN
100
AcDbLine
 62
7
  6
CONTINUOUS
 10
296.9796451882
 20
203.4438256471
 11
297.4756814833
 21
203.4750663996
  0
LINE
  5
230
100
AcDbEntity
  8
BEZUGSACHSEN
100
AcDbLine
 62
7
  6
CONTINUOUS
 10
297.8655672608
 20
208.9336482969
 11
298.3616034897
 21
208.9648889593
  0
LINE
  5
231
100
AcDbEntity
  8
BEZUGSACHSEN
100
AcDbLine
 62
7
  6
CONTINUOUS
 10
306.2938811301
 20
199.4740199212
 11
307.6458804177
 21
199.496883878
  0
LINE
  5
232
100
AcDbEntity
  8
BEZUGSACHSEN
100
AcDbLine
 62
7
  6
CONTINUOUS
 10
307.3361383817
 20
200.2111747689
 11
308.6881373044
 21
200.2340384676
  0
LINE
  5
233
100
AcDbEntity
  8
BEZUGSACHSEN
100
AcDbLine
 62
7
  6
CONTINUOUS
 10
306.4206485693
 20
191.9258152076
 11
306.9625867973
 21
191.9267827487
  0
LINE
  5
234
100
AcDbEntity
  8
BEZUGSACHSEN
100
AcDbLine
 62
7
  6
CONTINUOUS
 10
309.109502653
 20
196.380843106
 11
309.6514407825
 21
196.3818105945
  0
LINE
  5
235
100
AcDbEntity
  8
BEZUGSACHSEN
100
AcDbLine
 62
7
  6
CONTINUOUS
 10
254.3867293944
 20
202.9636505974
 11
254.8835722201
 21
202.9504143865
  0
LINE
  5
236
100
AcDbEntity
  8
BEZUGSACHSEN
100
AcDbLine
 62
7
  6
CONTINUOUS
 10
306.0365266066
 20
191.289382677
 11
306.7790190865
 21
191.2533137778
  0
LINE
  5
237
100
AcDbEntity
  8
BEZUGSACHSEN
100
AcDbLine
 62
7
  6
CONTINUOUS
 10
309.2930702652
 20
197.0543120244
 11
310.0355626958
 21
197.0182430989
  0
LINE
  5
238
100
AcDbEntity
  8
BEZUGSACHSEN
100
AcDbLine
 62
7
  6
CONTINUOUS
 10
247.8850665329
 20
203.8059085892
 11
248.2924340686
 21
203.7852055428
  0
LINE
  5
239
100
AcDbEntity
  8
BEZUGSACHSEN
100
AcDbLine
 62
7
  6
CONTINUOUS
 10
292.8610240718
 20
209.8504456319
 11
293.2734873241
 21
209.8278631063
  0
LINE
  5
23A
100
AcDbEntity
  8
BEZUGSACHSEN
100
AcDbLine
 62
7
  6
CONTINUOUS
 10
258.6117331025
 20
212.7623942528
 11
259.2101550379
 21
212.7196146744
  0
LINE
  5
23B
100
AcDbEntity
  8
BEZUGSACHSEN
100
AcDbLine
 62
7
  6
CONTINUOUS
 10
296.5144880222
 20
202.597384338
 11
297.1128227117
 21
202.553350698
  0
LINE
  5
23C
100
AcDbEntity
  8
BEZUGSACHSEN
100
AcDbLine
 62
7
  6
CONTINUOUS
 10
298.2284282744
 20
209.8553621405
 11
298.8267605977
 21
209.8113301896
  0
LINE
  5
23D
100
AcDbEntity
  8
BEZUGSACHSEN
100
AcDbLine
 62
7
  6
CONTINUOUS
 10
306.8562735706
 20
195.180115738
 11
307.2573849071
 21
195.1060377792
  0
LINE
  5
23E
100
AcDbEntity
  8
BEZUGSACHSEN
100
AcDbLine
 62
7
  6
CONTINUOUS
 10
248.0659246184
 20
204.4932235128
 11
248.7966273207
 21
204.3565869962
  0
LINE
  5
23F
100
AcDbEntity
  8
BEZUGSACHSEN
100
AcDbLine
 62
7
  6
CONTINUOUS
 10
258.9498617301
 20
211.8576823312
 11
259.4361965849
 21
211.7551819488
  0
LINE
  5
240
100
AcDbEntity
  8
BEZUGSACHSEN
100
AcDbLine
 62
7
  6
CONTINUOUS
 10
253.9880808475
 20
202.2400325853
 11
254.7827679323
 21
202.0556973713
  0
LINE
  5
241
100
AcDbEntity
  8
BEZUGSACHSEN
100
AcDbLine
 62
7
  6
CONTINUOUS
 10
253.890212484
 20
203.1808327594
 11
254.3867293944
 21
202.9636505974
  0
LINE
  5
242
100
AcDbEntity
  8
BEZUGSACHSEN
100
AcDbLine
 62
7
  6
CONTINUOUS
 10
250.1228265804
 20
202.0006661224
 11
253.6311017325
 21
200.4293563578
  0
LINE
  5
243
100
AcDbEntity
  8
BEZUGSACHSEN
100
AcDbLine
 62
7
  6
CONTINUOUS
 10
249.8579362462
 20
201.2181209111
 11
253.0428761114
 21
199.7627444805
  0
LINE
  5
244
100
AcDbEntity
  8
BEZUGSACHSEN
100
AcDbLine
 62
7
  6
CONTINUOUS
 10
248.2924340686
 20
203.7852055428
 11
248.7354207544
 21
203.5636902618
  0
LINE
  5
245
100
AcDbEntity
  8
BEZUGSACHSEN
100
AcDbLine
 62
7
  6
CONTINUOUS
 10
248.7966273207
 20
204.3565869962
 11
249.2396140065
 21
204.1350717152
  0
LINE
  5
246
100
AcDbEntity
  8
0
100
AcDbLine
 62
7
  6
CONTINUOUS
 10
248.1947844141
 20
90.4883802259
 11
240.1663525738
 21
100.0562927145
  0
LINE
  5
247
100
AcDbEntity
  8
RUNDUNGEN
100
AcDbLine
 62
7
  6
CONTINUOUS
 10
240.1663525738
 20
100.0562927145
 11
239.1929735236
 21
101.2163206944
  0
LINE
  5
248
100
AcDbEntity
  8
KONSTRUKTIONSELEMENTE
100
AcDbLine
 62
7
  6
CONTINUOUS
 10
220.2865298688
 20
92.1336528979
 11
221.8172635983
 21
89.5205269681
  0
LINE
  5
249
100
AcDbEntity
  8
KONSTRUKTIONSELEMENTE
100
AcDbLine
 62
7
  6
CONTINUOUS
 10
229.7464643169
 20
75.984534652
 11
256.1367576914
 21
30.9334858748
  0
LINE
  5
24A
100
AcDbEntity
  8
KONSTRUKTIONSELEMENTE
100
AcDbLine
 62
7
  6
CONTINUOUS
 10
229.7464643169
 20
76.550220077
 11
229.440317571
 21
77.0728452629
  0
LINE
  5
24B
100
AcDbEntity
  8
BEZUGSACHSEN
100
AcDbLine
 62
7
  6
CONTINUOUS
 10
257.976258969
 20
212.6046206046
 11
258.6117331025
 21
212.7623942528
  0
LINE
  5
24C
100
AcDbEntity
  8
BEZUGSACHSEN
100
AcDbLine
 62
7
  6
CONTINUOUS
 10
258.4264759599
 20
211.7596301705
 11
258.9498617301
 21
211.8576823312
  0
LINE
  5
24D
100
AcDbEntity
  8
0
100
AcDbLine
 62
7
  6
CONTINUOUS
 10
304.6546258924
 20
216.4038926295
 11
289.2250624099
 21
221.4172617092
  0
LINE
  5
24E
100
AcDbEntity
  8
BEZUGSACHSEN
100
AcDbLine
 62
7
  6
CONTINUOUS
 10
296.4758903497
 20
203.6163842651
 11
296.9796451882
 21
203.4438256471
  0
LINE
  5
24F
100
AcDbEntity
  8
BEZUGSACHSEN
100
AcDbLine
 62
7
  6
CONTINUOUS
 10
298.3616034897
 20
208.9648889593
 11
298.8653630108
 21
208.7923268956
  0
LINE
  5
250
100
AcDbEntity
  8
BEZUGSACHSEN
100
AcDbLine
 62
7
  6
CONTINUOUS
 10
305.9598097246
 20
192.1119750279
 11
306.4206485693
 21
191.9258152076
  0
LINE
  5
251
100
AcDbEntity
  8
BEZUGSACHSEN
100
AcDbLine
 62
7
  6
CONTINUOUS
 10
307.2573849071
 20
195.1060377792
 11
307.7182237517
 21
194.919877959
  0
LINE
  5
252
100
AcDbEntity
  8
BEZUGSACHSEN
100
AcDbLine
 62
7
  6
CONTINUOUS
 10
307.4409497851
 20
195.7795118284
 11
308.3626274743
 21
195.407192188
  0
LINE
  5
253
100
AcDbEntity
  8
BEZUGSACHSEN
100
AcDbLine
 62
7
  6
CONTINUOUS
 10
309.6514407825
 20
196.3818105945
 11
310.1122796271
 21
196.1956507743
  0
LINE
  5
254
100
AcDbEntity
  8
BEZUGSACHSEN
100
AcDbLine
 62
7
  6
CONTINUOUS
 10
295.9084394224
 20
202.8452138354
 11
296.5144880222
 21
202.597384338
  0
LINE
  5
255
100
AcDbEntity
  8
BEZUGSACHSEN
100
AcDbLine
 62
7
  6
CONTINUOUS
 10
298.8267605977
 20
209.8113301896
 11
299.4328138719
 21
209.5634972353
  0
LINE
  5
256
100
AcDbEntity
  8
BEZUGSACHSEN
100
AcDbLine
 62
7
  6
CONTINUOUS
 10
259.2101550379
 20
212.7196146744
 11
259.9586493036
 21
212.395171618
  0
LINE
  5
257
100
AcDbEntity
  8
BEZUGSACHSEN
100
AcDbLine
 62
7
  6
CONTINUOUS
 10
305.3154031815
 20
191.6246658837
 11
306.0365266066
 21
191.289382677
  0
LINE
  5
258
100
AcDbEntity
  8
BEZUGSACHSEN
100
AcDbLine
 62
7
  6
CONTINUOUS
 10
310.0355626958
 20
197.0182430989
 11
310.7566833497
 21
196.6829650033
  0
LINE
  5
259
100
AcDbEntity
  8
BEZUGSACHSEN
100
AcDbLine
 62
7
  6
CONTINUOUS
 10
291.6675965852
 20
205.6409703936
 11
292.4676128143
 21
205.2532192712
  0
LINE
  5
25A
100
AcDbEntity
  8
BEZUGSACHSEN
100
AcDbLine
 62
7
  6
CONTINUOUS
 10
290.2719554039
 20
210.0413343461
 11
292.2148553235
 21
209.0996514188
  0
LINE
  5
25B
100
AcDbEntity
  8
BEZUGSACHSEN
100
AcDbLine
 62
7
  6
CONTINUOUS
 10
290.6895458445
 20
210.9029156809
 11
292.8610240718
 21
209.8504456319
  0
LINE
  5
25C
100
AcDbEntity
  8
BEZUGSACHSEN
100
AcDbLine
 62
7
  6
CONTINUOUS
 10
291.733522141
 20
213.0568694202
 11
293.9050003682
 21
212.0043993712
  0
LINE
  5
25D
100
AcDbEntity
  8
BEZUGSACHSEN
100
AcDbLine
 62
7
  6
CONTINUOUS
 10
291.3957844837
 20
214.1072126952
 11
294.1387032483
 21
212.7777773777
  0
LINE
  5
25E
100
AcDbEntity
  8
BEZUGSACHSEN
100
AcDbLine
 62
7
  6
CONTINUOUS
 10
253.3923913363
 20
202.5822300892
 11
253.9880808475
 21
202.2400325853
  0
LINE
  5
25F
100
AcDbEntity
  8
BEZUGSACHSEN
100
AcDbLine
 62
7
  6
CONTINUOUS
 10
259.4361965849
 20
211.7551819488
 11
259.8854807345
 21
211.4521286288
  0
LINE
  5
260
100
AcDbEntity
  8
BEZUGSACHSEN
100
AcDbLine
 62
7
  6
CONTINUOUS
 10
253.3940225581
 20
203.6019618633
 11
253.890212484
 21
203.1808327594
  0
LINE
  5
261
100
AcDbEntity
  8
BEZUGSACHSEN
100
AcDbLine
 62
7
  6
CONTINUOUS
 10
250.4378777222
 20
196.810607062
 11
244.8142556554
 21
201.7729527624
  0
LINE
  5
262
100
AcDbEntity
  8
BEZUGSACHSEN
100
AcDbLine
 62
7
  6
CONTINUOUS
 10
250.9420709743
 20
197.3819885155
 11
248.4293887386
 21
199.5992068386
  0
LINE
  5
263
100
AcDbEntity
  8
BEZUGSACHSEN
100
AcDbLine
 62
7
  6
CONTINUOUS
 10
247.7114796242
 20
200.2326977035
 11
245.9167065029
 21
201.8164251617
  0
LINE
  5
264
100
AcDbEntity
  8
BEZUGSACHSEN
100
AcDbLine
 62
7
  6
CONTINUOUS
 10
248.7354207544
 20
203.5636902618
 11
249.0943756468
 21
203.2469445335
  0
LINE
  5
265
100
AcDbEntity
  8
BEZUGSACHSEN
100
AcDbLine
 62
7
  6
CONTINUOUS
 10
249.2396140065
 20
204.1350717152
 11
249.718220418
 21
203.7127441761
  0
LINE
  5
266
100
AcDbEntity
  8
BEZUGSACHSEN
100
AcDbLine
 62
7
  6
CONTINUOUS
 10
252.7970280251
 20
203.1283737701
 11
253.3923913363
 21
202.5822300892
  0
LINE
  5
267
100
AcDbEntity
  8
KONSTRUKTIONSELEMENTE
100
AcDbLine
 62
7
  6
CONTINUOUS
 10
235.0948656277
 20
90.5055585381
 11
240.6536820953
 21
81.0160652508
  0
LINE
  5
268
100
AcDbEntity
  8
RUNDUNGEN
100
AcDbLine
 62
7
  6
CONTINUOUS
 10
238.3231386212
 20
129.470107868
 11
235.0055035801
 21
135.2164203202
  0
LINE
  5
269
100
AcDbEntity
  8
0
100
AcDbLine
 62
7
  6
CONTINUOUS
 10
111.2250624099
 20
672.1739554453
 11
111.2250624099
 21
462.1739554453
  0
LINE
  5
26A
100
AcDbEntity
  8
BEZUGSACHSEN
100
AcDbLine
 62
7
  6
CONTINUOUS
 10
294.9877815968
 20
203.5226621876
 11
295.9084394224
 21
202.8452138354
  0
LINE
  5
26B
100
AcDbEntity
  8
BEZUGSACHSEN
100
AcDbLine
 62
7
  6
CONTINUOUS
 10
295.5552325241
 20
204.2938326173
 11
296.4758903497
 21
203.6163842651
  0
LINE
  5
26C
100
AcDbEntity
  8
BEZUGSACHSEN
100
AcDbLine
 62
7
  6
CONTINUOUS
 10
297.6976441219
 20
205.4910563307
 11
298.6183019475
 21
204.8136079785
  0
LINE
  5
26D
100
AcDbEntity
  8
BEZUGSACHSEN
100
AcDbLine
 62
7
  6
CONTINUOUS
 10
298.265094983
 20
206.2622266704
 11
299.7995246923
 21
205.1331460833
  0
LINE
  5
26E
100
AcDbEntity
  8
BEZUGSACHSEN
100
AcDbLine
 62
7
  6
CONTINUOUS
 10
300.0369291002
 20
206.7415338277
 11
300.6507009839
 21
206.2899015929
  0
LINE
  5
26F
100
AcDbEntity
  8
BEZUGSACHSEN
100
AcDbLine
 62
7
  6
CONTINUOUS
 10
298.8653630108
 20
208.7923268956
 11
299.7860208364
 21
208.1148785434
  0
LINE
  5
270
100
AcDbEntity
  8
BEZUGSACHSEN
100
AcDbLine
 62
7
  6
CONTINUOUS
 10
299.4328138719
 20
209.5634972353
 11
300.3534716975
 21
208.8860488831
  0
LINE
  5
271
100
AcDbEntity
  8
BEZUGSACHSEN
100
AcDbLine
 62
7
  6
CONTINUOUS
 10
305.639797673
 20
192.3731802954
 11
305.9598097246
 21
192.1119750279
  0
LINE
  5
272
100
AcDbEntity
  8
BEZUGSACHSEN
100
AcDbLine
 62
7
  6
CONTINUOUS
 10
307.7182237517
 20
194.919877959
 11
308.0382358033
 21
194.6586726914
  0
LINE
  5
273
100
AcDbEntity
  8
BEZUGSACHSEN
100
AcDbLine
 62
7
  6
CONTINUOUS
 10
310.1122796271
 20
196.1956507743
 11
310.4322916787
 21
195.9344455067
  0
LINE
  5
274
100
AcDbEntity
  8
BEZUGSACHSEN
100
AcDbLine
 62
7
  6
CONTINUOUS
 10
294.1387032483
 20
212.7777773777
 11
294.6405453788
 21
212.35721522
  0
LINE
  5
275
100
AcDbEntity
  8
BEZUGSACHSEN
100
AcDbLine
 62
7
  6
CONTINUOUS
 10
259.9586493036
 20
212.395171618
 11
260.4829694081
 21
211.9512869535
  0
LINE
  5
276
100
AcDbEntity
  8
BEZUGSACHSEN
100
AcDbLine
 62
7
  6
CONTINUOUS
 10
259.8854807345
 20
211.4521286288
 11
260.2977124756
 21
210.9485224768
  0
LINE
  5
277
100
AcDbEntity
  8
BEZUGSACHSEN
100
AcDbLine
 62
7
  6
CONTINUOUS
 10
252.7970280251
 20
203.1283737701
 11
249.7226703119
 21
207.0038401798
  0
LINE
  5
278
100
AcDbEntity
  8
BEZUGSACHSEN
100
AcDbLine
 62
7
  6
CONTINUOUS
 10
253.3940225581
 20
203.6019618633
 11
250.319664845
 21
207.477428273
  0
LINE
  5
279
100
AcDbEntity
  8
BEZUGSACHSEN
100
AcDbLine
 62
7
  6
CONTINUOUS
 10
252.7076418386
 20
209.3717797427
 11
255.7819995517
 21
205.4963133331
  0
LINE
  5
27A
100
AcDbEntity
  8
BEZUGSACHSEN
100
AcDbLine
 62
7
  6
CONTINUOUS
 10
253.304636087
 20
209.8453676102
 11
256.3789938001
 21
205.9699012005
  0
LINE
  5
27B
100
AcDbEntity
  8
0
100
AcDbLine
 62
7
  6
CONTINUOUS
 10
151.2250624099
 20
672.1739554453
 11
151.2250624099
 21
462.1739554453
  0
LINE
  5
27C
100
AcDbEntity
  8
BEZUGSACHSEN
100
AcDbLine
 62
7
  6
CONTINUOUS
 10
304.8759361013
 20
192.1100348675
 11
305.3154031815
 21
191.6246658837
  0
LINE
  5
27D
100
AcDbEntity
  8
BEZUGSACHSEN
100
AcDbLine
 62
7
  6
CONTINUOUS
 10
308.3626274743
 20
195.407192188
 11
308.8020972764
 21
194.9218180669
  0
LINE
  5
27E
100
AcDbEntity
  8
BEZUGSACHSEN
100
AcDbLine
 62
7
  6
CONTINUOUS
 10
310.7566833497
 20
196.6829650033
 11
311.1961531518
 21
196.1975908821
  0
LINE
  5
27F
100
AcDbEntity
  8
BEZUGSACHSEN
100
AcDbLine
 62
7
  6
CONTINUOUS
 10
293.9050003682
 20
212.0043993712
 11
294.178266807
 21
211.6946230673
  0
LINE
  5
280
100
AcDbEntity
  8
BEZUGSACHSEN
100
AcDbLine
 62
7
  6
CONTINUOUS
 10
294.5708786179
 20
204.0275519331
 11
294.9877815968
 21
203.5226621876
  0
LINE
  5
281
100
AcDbEntity
  8
BEZUGSACHSEN
100
AcDbLine
 62
7
  6
CONTINUOUS
 10
300.3534716975
 20
208.8860488831
 11
300.770370002
 21
208.3811625946
  0
LINE
  5
282
100
AcDbEntity
  8
BEZUGSACHSEN
100
AcDbLine
 62
7
  6
CONTINUOUS
 10
260.4829694081
 20
211.9512869535
 11
260.9702375246
 21
211.306848668
  0
LINE
  5
283
100
AcDbEntity
  8
BEZUGSACHSEN
100
AcDbLine
 62
7
  6
CONTINUOUS
 10
249.3692980755
 20
202.8349689496
 11
249.0943756468
 21
203.2469445335
  0
LINE
  5
284
100
AcDbEntity
  8
BEZUGSACHSEN
100
AcDbLine
 62
7
  6
CONTINUOUS
 10
249.9931428467
 20
203.3007685922
 11
249.718220418
 21
203.7127441761
  0
LINE
  5
285
100
AcDbEntity
  8
BEZUGSACHSEN
100
AcDbLine
 62
7
  6
CONTINUOUS
 10
256.775358649
 20
205.2658945961
 11
256.3789938001
 21
205.9699012005
  0
LINE
  5
286
100
AcDbEntity
  8
BEZUGSACHSEN
100
AcDbLine
 62
7
  6
CONTINUOUS
 10
258.8128589556
 20
204.5522233172
 11
255.2861587732
 21
211.1713158398
  0
LINE
  5
287
100
AcDbEntity
  8
BEZUGSACHSEN
100
AcDbLine
 62
7
  6
CONTINUOUS
 10
259.0351669611
 20
205.7555400411
 11
256.408900813
 21
210.6846515969
  0
LINE
  5
288
100
AcDbEntity
  8
BEZUGSACHSEN
100
AcDbLine
 62
7
  6
CONTINUOUS
 10
256.0791915846
 20
204.9173217572
 11
255.7819995517
 21
205.4963133331
  0
LINE
  5
289
100
AcDbEntity
  8
BEZUGSACHSEN
100
AcDbLine
 62
7
  6
CONTINUOUS
 10
295.24062329
 20
204.723451461
 11
295.5552325241
 21
204.2938326173
  0
LINE
  5
28A
100
AcDbEntity
  8
BEZUGSACHSEN
100
AcDbLine
 62
7
  6
CONTINUOUS
 10
299.7860208364
 20
208.1148785434
 11
300.1006253878
 21
207.6852631455
  0
LINE
  5
28B
100
AcDbEntity
  8
0
100
AcDbLine
 62
7
  6
CONTINUOUS
 10
322.2250624099
 20
192.220261472
 11
304.6546258924
 21
216.4038926295
  0
LINE
  5
28C
100
AcDbEntity
  8
BEZUGSACHSEN
100
AcDbLine
 62
7
  6
CONTINUOUS
 10
302.5648773651
 20
195.9032547377
 11
303.0049015119
 21
195.2811081706
  0
LINE
  5
28D
100
AcDbEntity
  8
BEZUGSACHSEN
100
AcDbLine
 62
7
  6
CONTINUOUS
 10
308.6881373044
 20
200.2340384676
 11
309.1281614512
 21
199.6118919004
  0
LINE
  5
28E
100
AcDbEntity
  8
BEZUGSACHSEN
100
AcDbLine
 62
7
  6
CONTINUOUS
 10
260.2977124756
 20
210.9485224768
 11
261.423255058
 21
208.8360461943
  0
LINE
  5
28F
100
AcDbEntity
  8
BEZUGSACHSEN
100
AcDbLine
 62
7
  6
CONTINUOUS
 10
260.9702375246
 20
211.306848668
 11
262.095780107
 21
209.1943723855
  0
LINE
  5
290
100
AcDbEntity
  8
BEZUGSACHSEN
100
AcDbLine
 62
7
  6
CONTINUOUS
 10
250.2196522969
 20
202.5927506222
 11
249.9931428467
 21
203.3007685922
  0
LINE
  5
291
100
AcDbEntity
  8
0
100
AcDbLine
 62
7
  6
CONTINUOUS
 10
230.2250624099
 20
162.3276494186
 11
235.0055035801
 21
135.2164203202
  0
LINE
  5
292
100
AcDbEntity
  8
KONSTRUKTIONSELEMENTE
100
AcDbLine
 62
7
  6
CONTINUOUS
 10
219.6775661289
 20
94.2984372985
 11
219.6775661289
 21
97.8339712044
  0
LINE
  5
293
100
AcDbEntity
  8
BEZUGSACHSEN
100
AcDbLine
 62
7
  6
CONTINUOUS
 10
304.5772930921
 20
192.6704544359
 11
304.8759361013
 21
192.1100348675
  0
LINE
  5
294
100
AcDbEntity
  8
BEZUGSACHSEN
100
AcDbLine
 62
7
  6
CONTINUOUS
 10
305.2216996476
 20
193.1577635866
 11
305.639797673
 21
192.3731802954
  0
LINE
  5
295
100
AcDbEntity
  8
BEZUGSACHSEN
100
AcDbLine
 62
7
  6
CONTINUOUS
 10
308.0382358033
 20
194.6586726914
 11
308.4563338287
 21
193.8740894002
  0
LINE
  5
296
100
AcDbEntity
  8
BEZUGSACHSEN
100
AcDbLine
 62
7
  6
CONTINUOUS
 10
308.8020972764
 20
194.9218180669
 11
309.1007402855
 21
194.3613984984
  0
LINE
  5
297
100
AcDbEntity
  8
BEZUGSACHSEN
100
AcDbLine
 62
7
  6
CONTINUOUS
 10
310.4235269716
 20
193.9150062402
 11
310.7221699807
 21
193.3545866717
  0
LINE
  5
298
100
AcDbEntity
  8
BEZUGSACHSEN
100
AcDbLine
 62
7
  6
CONTINUOUS
 10
310.4322916787
 20
195.9344455067
 11
310.790662196
 21
195.2619440769
  0
LINE
  5
299
100
AcDbEntity
  8
BEZUGSACHSEN
100
AcDbLine
 62
7
  6
CONTINUOUS
 10
311.1961531518
 20
196.1975908821
 11
311.4350659186
 21
195.7492583058
  0
LINE
  5
29A
100
AcDbEntity
  8
BEZUGSACHSEN
100
AcDbLine
 62
7
  6
CONTINUOUS
 10
294.3508468935
 20
204.5856974776
 11
294.5708786179
 21
204.0275519331
  0
LINE
  5
29B
100
AcDbEntity
  8
BEZUGSACHSEN
100
AcDbLine
 62
7
  6
CONTINUOUS
 10
294.6405453788
 20
212.35721522
 11
294.8889041579
 21
211.7048515771
  0
LINE
  5
29C
100
AcDbEntity
  8
BEZUGSACHSEN
100
AcDbLine
 62
7
  6
CONTINUOUS
 10
262.3588738521
 20
208.4304928864
 11
262.095780107
 21
209.1943723855
  0
LINE
  5
29D
100
AcDbEntity
  8
BEZUGSACHSEN
100
AcDbLine
 62
7
  6
CONTINUOUS
 10
261.611312638
 20
208.2129984342
 11
261.423255058
 21
208.8360461943
  0
LINE
  5
29E
100
AcDbEntity
  8
BEZUGSACHSEN
100
AcDbLine
 62
7
  6
CONTINUOUS
 10
256.9730520895
 20
204.6079719225
 11
256.775358649
 21
205.2658945961
  0
LINE
  5
29F
100
AcDbEntity
  8
BEZUGSACHSEN
100
AcDbLine
 62
7
  6
CONTINUOUS
 10
256.1777121396
 20
204.3844141997
 11
256.0791915846
 21
204.9173217572
  0
LINE
  5
2A0
100
AcDbEntity
  8
BEZUGSACHSEN
100
AcDbLine
 62
7
  6
CONTINUOUS
 10
249.4405366161
 20
202.4333447527
 11
249.3692980755
 21
202.8349689496
  0
LINE
  5
2A1
100
AcDbEntity
  8
KONSTRUKTIONSELEMENTE
100
AcDbLine
 62
7
  6
CONTINUOUS
 10
229.257628449
 20
77.7222805831
 11
229.257628449
 21
80.1264436391
  0
LINE
  5
2A2
100
AcDbEntity
  8
KONSTRUKTIONSELEMENTE
100
AcDbLine
 62
7
  6
CONTINUOUS
 10
229.7464643169
 20
75.984534652
 11
229.7464643169
 21
76.550220077
  0
LINE
  5
2A3
100
AcDbEntity
  8
0
100
AcDbLine
 62
7
  6
CONTINUOUS
 10
230.2250624099
 20
192.220261472
 11
230.2250624099
 21
162.3276494186
  0
LINE
  5
2A4
100
AcDbEntity
  8
RUNDUNGEN
100
AcDbLine
 62
7
  6
CONTINUOUS
 10
238.7250624099
 20
102.5018959138
 11
238.7250624099
 21
143.6315512804
  0
LINE
  5
2A5
100
AcDbEntity
  8
BEZUGSACHSEN
100
AcDbLine
 62
7
  6
CONTINUOUS
 10
300.770370002
 20
208.3811625946
 11
300.9904040926
 21
207.823015361
  0
LINE
  5
2A6
100
AcDbEntity
  8
BEZUGSACHSEN
100
AcDbLine
 62
7
  6
CONTINUOUS
 10
304.4194768884
 20
193.3059194583
 11
304.5772930921
 21
192.6704544359
  0
LINE
  5
2A7
100
AcDbEntity
  8
BEZUGSACHSEN
100
AcDbLine
 62
7
  6
CONTINUOUS
 10
295.1228877014
 20
205.2063244483
 11
295.24062329
 21
204.723451461
  0
LINE
  5
2A8
100
AcDbEntity
  8
BEZUGSACHSEN
100
AcDbLine
 62
7
  6
CONTINUOUS
 10
300.1006253878
 20
207.6852631455
 11
300.2183610426
 21
207.2023902482
  0
LINE
  5
2A9
100
AcDbEntity
  8
BEZUGSACHSEN
100
AcDbLine
 62
7
  6
CONTINUOUS
 10
294.178266807
 20
211.6946230673
 11
294.2676456853
 21
211.2966434352
  0
LINE
  5
2AA
100
AcDbEntity
  8
BEZUGSACHSEN
100
AcDbLine
 62
7
  6
CONTINUOUS
 10
262.4348431214
 20
207.7477235402
 11
262.3588738521
 21
208.4304928864
  0
LINE
  5
2AB
100
AcDbEntity
  8
BEZUGSACHSEN
100
AcDbLine
 62
7
  6
CONTINUOUS
 10
294.8889041579
 20
211.7048515771
 11
294.9533753764
 21
210.9642846058
  0
LINE
  5
2AC
100
AcDbEntity
  8
BEZUGSACHSEN
100
AcDbLine
 62
7
  6
CONTINUOUS
 10
261.6122456896
 20
207.6710609256
 11
261.611312638
 21
208.2129984342
  0
LINE
  5
2AD
100
AcDbEntity
  8
KONSTRUKTIONSELEMENTE
100
AcDbLine
 62
7
  6
CONTINUOUS
 10
252.5729504534
 20
122.094463521
 11
252.5729504534
 21
111.6963166953
  0
LINE
  5
2AE
100
AcDbEntity
  8
0
100
AcDbLine
 62
7
  6
CONTINUOUS
 10
263.2250624099
 20
350.1155565216
 11
263.2250624099
 21
184.232354369
  0
LINE
  5
2AF
100
AcDbEntity
  8
KONSTRUKTIONSELEMENTE
100
AcDbLine
 62
7
  6
CONTINUOUS
 10
265.7450624099
 20
23.9206308867
 11
265.7450624099
 21
7.0767407278
  0
LINE
  5
2B0
100
AcDbEntity
  8
0
100
AcDbLine
 62
7
  6
CONTINUOUS
 10
267.4250624099
 20
93.7405660799
 11
267.4250624099
 21
111.6963166953
  0
LINE
  5
2B1
100
AcDbEntity
  8
KONSTRUKTIONSELEMENTE
100
AcDbLine
 62
7
  6
CONTINUOUS
 10
267.4250624099
 20
111.6963166953
 11
267.4250624099
 21
133.4739554453
  0
LINE
  5
2B2
100
AcDbEntity
  8
KONSTRUKTIONSELEMENTE
100
AcDbLine
 62
7
  6
CONTINUOUS
 10
268.2250624099
 20
165.6807917479
 11
268.2250624099
 21
158.9601673257
  0
LINE
  5
2B3
100
AcDbEntity
  8
KONSTRUKTIONSELEMENTE
100
AcDbLine
 62
7
  6
CONTINUOUS
 10
268.2250624099
 20
134.5680933757
 11
268.2250624099
 21
123.9614916579
  0
LINE
  5
2B4
100
AcDbEntity
  8
KONSTRUKTIONSELEMENTE
100
AcDbLine
 62
7
  6
CONTINUOUS
 10
268.9450624099
 20
4.813999028
 11
268.9450624099
 21
22.9159326263
  0
LINE
  5
2B5
100
AcDbEntity
  8
KONSTRUKTIONSELEMENTE
100
AcDbLine
 62
7
  6
CONTINUOUS
 10
272.7250624099
 20
165.6807917479
 11
272.7250624099
 21
157.5986474821
  0
LINE
  5
2B6
100
AcDbEntity
  8
KONSTRUKTIONSELEMENTE
100
AcDbLine
 62
7
  6
CONTINUOUS
 10
272.7250624099
 20
134.5680933757
 11
272.7250624099
 21
123.9614916579
  0
LINE
  5
2B7
100
AcDbEntity
  8
KONSTRUKTIONSELEMENTE
100
AcDbLine
 62
7
  6
CONTINUOUS
 10
273.7250624099
 20
171.423532843
 11
273.7250624099
 21
164.7037625209
  0
LINE
  5
2B8
100
AcDbEntity
  8
KONSTRUKTIONSELEMENTE
100
AcDbLine
 62
7
  6
CONTINUOUS
 10
273.7250624099
 20
124.9385208849
 11
273.7250624099
 21
121.7739554453
  0
LINE
  5
2B9
100
AcDbEntity
  8
KONSTRUKTIONSELEMENTE
100
AcDbLine
 62
7
  6
CONTINUOUS
 10
273.9750624099
 20
141.9740251629
 11
273.9750624099
 21
133.767840844
  0
LINE
  5
2BA
100
AcDbEntity
  8
KONSTRUKTIONSELEMENTE
100
AcDbLine
 62
7
  6
CONTINUOUS
 10
278.4750624099
 20
141.9740251629
 11
278.4750624099
 21
133.767840844
  0
LINE
  5
2BB
100
AcDbEntity
  8
KONSTRUKTIONSELEMENTE
100
AcDbLine
 62
7
  6
CONTINUOUS
 10
278.7250624099
 20
171.423532843
 11
278.7250624099
 21
164.7037625209
  0
LINE
  5
2BC
100
AcDbEntity
  8
KONSTRUKTIONSELEMENTE
100
AcDbLine
 62
7
  6
CONTINUOUS
 10
278.7250624099
 20
124.9385208849
 11
278.7250624099
 21
121.7739554453
  0
LINE
  5
2BD
100
AcDbEntity
  8
KONSTRUKTIONSELEMENTE
100
AcDbLine
 62
7
  6
CONTINUOUS
 10
279.7250624099
 20
123.9614916579
 11
279.7250624099
 21
134.5680933757
  0
LINE
  5
2BE
100
AcDbEntity
  8
KONSTRUKTIONSELEMENTE
100
AcDbLine
 62
7
  6
CONTINUOUS
 10
279.7250624099
 20
157.5986474821
 11
279.7250624099
 21
165.6807917479
  0
LINE
  5
2BF
100
AcDbEntity
  8
BEZUGSACHSEN
100
AcDbLine
 62
7
  6
CONTINUOUS
 10
256.9717470329
 20
203.7921863691
 11
256.9730520895
 21
204.6079719225
  0
LINE
  5
2C0
100
AcDbEntity
  8
BEZUGSACHSEN
100
AcDbLine
 62
7
  6
CONTINUOUS
 10
309.1007402855
 20
194.3613984984
 11
309.2585537675
 21
193.7259386134
  0
LINE
  5
2C1
100
AcDbEntity
  8
BEZUGSACHSEN
100
AcDbLine
 62
7
  6
CONTINUOUS
 10
311.4350659186
 20
195.7492583058
 11
311.5928821347
 21
195.11379329
  0
LINE
  5
2C2
100
AcDbEntity
  8
BEZUGSACHSEN
100
AcDbLine
 62
7
  6
CONTINUOUS
 10
305.1833411819
 20
193.5690597489
 11
305.2216996476
 21
193.1577635866
  0
LINE
  5
2C3
100
AcDbEntity
  8
BEZUGSACHSEN
100
AcDbLine
 62
7
  6
CONTINUOUS
 10
308.4563338287
 20
193.8740894002
 11
308.4946922944
 21
193.4627932379
  0
LINE
  5
2C4
100
AcDbEntity
  8
BEZUGSACHSEN
100
AcDbLine
 62
7
  6
CONTINUOUS
 10
310.790662196
 20
195.2619440769
 11
310.8290206616
 21
194.8506479146
  0
LINE
  5
2C5
100
AcDbEntity
  8
BEZUGSACHSEN
100
AcDbLine
 62
7
  6
CONTINUOUS
 10
294.3199678058
 20
205.4008980903
 11
294.3508468935
 21
204.5856974776
  0
LINE
  5
2C6
100
AcDbEntity
  8
BEZUGSACHSEN
100
AcDbLine
 62
7
  6
CONTINUOUS
 10
300.9904040926
 20
207.823015361
 11
301.0212832134
 21
207.0078147932
  0
LINE
  5
2C7
100
AcDbEntity
  8
KONSTRUKTIONSELEMENTE
100
AcDbLine
 62
7
  6
CONTINUOUS
 10
283.5050624099
 20
4.813999028
 11
283.5050624099
 21
22.9159326263
  0
LINE
  5
2C8
100
AcDbEntity
  8
KONSTRUKTIONSELEMENTE
100
AcDbLine
 62
7
  6
CONTINUOUS
 10
284.2250624099
 20
123.9614916579
 11
284.2250624099
 21
134.5680933757
  0
LINE
  5
2C9
100
AcDbEntity
  8
KONSTRUKTIONSELEMENTE
100
AcDbLine
 62
7
  6
CONTINUOUS
 10
284.2250624099
 20
158.9601673257
 11
284.2250624099
 21
165.6807917479
  0
LINE
  5
2CA
100
AcDbEntity
  8
0
100
AcDbLine
 62
7
  6
CONTINUOUS
 10
285.0250624099
 20
111.6963166953
 11
285.0250624099
 21
93.7405660799
  0
LINE
  5
2CB
100
AcDbEntity
  8
KONSTRUKTIONSELEMENTE
100
AcDbLine
 62
7
  6
CONTINUOUS
 10
285.0250624099
 20
111.6963166953
 11
285.0250624099
 21
133.4739554453
  0
LINE
  5
2CC
100
AcDbEntity
  8
KONSTRUKTIONSELEMENTE
100
AcDbLine
 62
7
  6
CONTINUOUS
 10
286.7050624099
 20
7.0767407278
 11
286.7050624099
 21
23.4816180513
  0
LINE
  5
2CD
100
AcDbEntity
  8
0
100
AcDbLine
 62
7
  6
CONTINUOUS
 10
289.2250624099
 20
350.1155565216
 11
289.2250624099
 21
184.232354369
  0
LINE
  5
2CE
100
AcDbEntity
  8
KONSTRUKTIONSELEMENTE
100
AcDbLine
 62
7
  6
CONTINUOUS
 10
299.8771743663
 20
122.094463521
 11
299.8771743663
 21
111.6963166953
  0
LINE
  5
2CF
100
AcDbEntity
  8
BEZUGSACHSEN
100
AcDbLine
 62
7
  6
CONTINUOUS
 10
250.1228265804
 20
202.0006661224
 11
250.2196522969
 21
202.5927506222
  0
LINE
  5
2D0
100
AcDbEntity
  8
BEZUGSACHSEN
100
AcDbLine
 62
7
  6
CONTINUOUS
 10
262.2866382032
 20
206.9455126352
 11
262.4348431214
 21
207.7477235402
  0
LINE
  5
2D1
100
AcDbEntity
  8
BEZUGSACHSEN
100
AcDbLine
 62
7
  6
CONTINUOUS
 10
256.0775607169
 20
203.8975901213
 11
256.1777121396
 21
204.3844141997
  0
LINE
  5
2D2
100
AcDbEntity
  8
RUNDUNGEN
100
AcDbLine
 62
7
  6
CONTINUOUS
 10
313.7250624099
 20
143.631550965
 11
313.7250624099
 21
102.5018959138
  0
LINE
  5
2D3
100
AcDbEntity
  8
KONSTRUKTIONSELEMENTE
100
AcDbLine
 62
7
  6
CONTINUOUS
 10
316.558560866
 20
34.9587064208
 11
316.558560866
 21
31.4231725149
  0
LINE
  5
2D4
100
AcDbEntity
  8
0
100
AcDbLine
 62
7
  6
CONTINUOUS
 10
322.2250624099
 20
162.3276494186
 11
322.2250624099
 21
192.220261472
  0
LINE
  5
2D5
100
AcDbEntity
  8
BEZUGSACHSEN
100
AcDbLine
 62
7
  6
CONTINUOUS
 10
295.2020232845
 20
205.7424531221
 11
295.1228877014
 21
205.2063244483
  0
LINE
  5
2D6
100
AcDbEntity
  8
BEZUGSACHSEN
100
AcDbLine
 62
7
  6
CONTINUOUS
 10
293.0397818282
 20
209.0544863676
 11
292.4676128143
 21
205.2532192712
  0
LINE
  5
2D7
100
AcDbEntity
  8
BEZUGSACHSEN
100
AcDbLine
 62
7
  6
CONTINUOUS
 10
304.5433170294
 20
194.0914702578
 11
304.4194768884
 21
193.3059194583
  0
LINE
  5
2D8
100
AcDbEntity
  8
BEZUGSACHSEN
100
AcDbLine
 62
7
  6
CONTINUOUS
 10
292.2148553235
 20
209.0996514188
 11
291.6675965852
 21
205.6409703936
  0
LINE
  5
2D9
100
AcDbEntity
  8
BEZUGSACHSEN
100
AcDbLine
 62
7
  6
CONTINUOUS
 10
294.2676456853
 20
211.2966434352
 11
294.1731396188
 21
210.810459207
  0
LINE
  5
2DA
100
AcDbEntity
  8
BEZUGSACHSEN
100
AcDbLine
 62
7
  6
CONTINUOUS
 10
294.9533753764
 20
210.9642846058
 11
294.8588693099
 21
210.4781003776
  0
LINE
  5
2DB
100
AcDbEntity
  8
BEZUGSACHSEN
100
AcDbLine
 62
7
  6
CONTINUOUS
 10
249.3080915091
 20
202.0420722152
 11
249.4405366161
 21
202.4333447527
  0
LINE
  5
2DC
100
AcDbEntity
  8
BEZUGSACHSEN
100
AcDbLine
 62
7
  6
CONTINUOUS
 10
256.7720963356
 20
203.2264308837
 11
256.9717470329
 21
203.7921863691
  0
LINE
  5
2DD
100
AcDbEntity
  8
KONSTRUKTIONSELEMENTE
100
AcDbLine
 62
7
  6
CONTINUOUS
 10
349.8643300423
 20
92.8279072781
 11
349.8643300423
 21
89.2923733721
  0
LINE
  5
2DE
100
AcDbEntity
  8
BEZUGSACHSEN
100
AcDbLine
 62
7
  6
CONTINUOUS
 10
309.2585537675
 20
193.7259386134
 11
309.1347163976
 21
192.9403827028
  0
LINE
  5
2DF
100
AcDbEntity
  8
BEZUGSACHSEN
100
AcDbLine
 62
7
  6
CONTINUOUS
 10
311.5928821347
 20
195.11379329
 11
311.4690447649
 21
194.3282373795
  0
LINE
  5
2E0
100
AcDbEntity
  8
0
100
AcDbLine
 62
7
  6
CONTINUOUS
 10
317.4446212397
 20
135.2164203202
 11
322.2250624099
 21
162.3276494186
  0
LINE
  5
2E1
100
AcDbEntity
  8
BEZUGSACHSEN
100
AcDbLine
 62
7
  6
CONTINUOUS
 10
305.2858095093
 20
194.0554013586
 11
305.1833411819
 21
193.5690597489
  0
LINE
  5
2E2
100
AcDbEntity
  8
BEZUGSACHSEN
100
AcDbLine
 62
7
  6
CONTINUOUS
 10
308.4946922944
 20
193.4627932379
 11
308.392223967
 21
192.9764516283
  0
LINE
  5
2E3
100
AcDbEntity
  8
BEZUGSACHSEN
100
AcDbLine
 62
7
  6
CONTINUOUS
 10
310.8290206616
 20
194.8506479146
 11
310.7265523343
 21
194.364306305
  0
LINE
  5
2E4
100
AcDbEntity
  8
BEZUGSACHSEN
100
AcDbLine
 62
7
  6
CONTINUOUS
 10
294.4936762572
 20
206.065556967
 11
294.3199678058
 21
205.4008980903
  0
LINE
  5
2E5
100
AcDbEntity
  8
BEZUGSACHSEN
100
AcDbLine
 62
7
  6
CONTINUOUS
 10
261.4260555479
 20
207.2102342534
 11
261.6122456896
 21
207.6710609256
  0
LINE
  5
2E6
100
AcDbEntity
  8
BEZUGSACHSEN
100
AcDbLine
 62
7
  6
CONTINUOUS
 10
300.2183610426
 20
207.2023902482
 11
300.0369291002
 21
206.7415338277
  0
LINE
  5
2E7
100
AcDbEntity
  8
BEZUGSACHSEN
100
AcDbLine
 62
7
  6
CONTINUOUS
 10
308.392223967
 20
192.9764516283
 11
308.2300281315
 21
192.6021918801
  0
LINE
  5
2E8
100
AcDbEntity
  8
BEZUGSACHSEN
100
AcDbLine
 62
7
  6
CONTINUOUS
 10
309.1347163976
 20
192.9403827028
 11
308.8914212773
 21
192.3789956458
  0
LINE
  5
2E9
100
AcDbEntity
  8
BEZUGSACHSEN
100
AcDbLine
 62
7
  6
CONTINUOUS
 10
295.4780301055
 20
206.3318375725
 11
295.2020232845
 21
205.7424531221
  0
LINE
  5
2EA
100
AcDbEntity
  8
BEZUGSACHSEN
100
AcDbLine
 62
7
  6
CONTINUOUS
 10
289.2250624099
 20
209.6285334919
 11
291.3957844837
 21
214.1072126952
  0
LINE
  5
2EB
100
AcDbEntity
  8
BEZUGSACHSEN
100
AcDbLine
 62
7
  6
CONTINUOUS
 10
289.2250624099
 20
207.8813628153
 11
290.2719554039
 21
210.0413343461
  0
LINE
  5
2EC
100
AcDbEntity
  8
BEZUGSACHSEN
100
AcDbLine
 62
7
  6
CONTINUOUS
 10
290.6895458445
 20
210.9029156809
 11
291.733522141
 21
213.0568694202
  0
LINE
  5
2ED
100
AcDbEntity
  8
BEZUGSACHSEN
100
AcDbLine
 62
7
  6
CONTINUOUS
 10
294.1731396188
 20
210.810459207
 11
293.9643442035
 21
210.3796681373
  0
LINE
  5
2EE
100
AcDbEntity
  8
BEZUGSACHSEN
100
AcDbLine
 62
7
  6
CONTINUOUS
 10
294.8588693099
 20
210.4781003776
 11
294.5804754879
 21
209.9037124188
  0
LINE
  5
2EF
100
AcDbEntity
  8
BEZUGSACHSEN
100
AcDbLine
 62
7
  6
CONTINUOUS
 10
294.8642582218
 20
206.7834698073
 11
294.4936762572
 21
206.065556967
  0
LINE
  5
2F0
100
AcDbEntity
  8
BEZUGSACHSEN
100
AcDbLine
 62
7
  6
CONTINUOUS
 10
301.0212832134
 20
207.0078147932
 11
300.6507009839
 21
206.2899015929
  0
LINE
  5
2F1
100
AcDbEntity
  8
BEZUGSACHSEN
100
AcDbLine
 62
7
  6
CONTINUOUS
 10
261.9883609481
 20
206.4249652205
 11
262.2866382032
 21
206.9455126352
  0
LINE
  5
2F2
100
AcDbEntity
  8
BEZUGSACHSEN
100
AcDbLine
 62
7
  6
CONTINUOUS
 10
255.7787371775
 20
203.4568496973
 11
256.0775607169
 21
203.8975901213
  0
LINE
  5
2F3
100
AcDbEntity
  8
0
100
AcDbLine
 62
7
  6
CONTINUOUS
 10
247.7954989274
 20
216.4038926295
 11
230.2250624099
 21
192.220261472
  0
LINE
  5
2F4
100
AcDbEntity
  8
BEZUGSACHSEN
100
AcDbLine
 62
7
  6
CONTINUOUS
 10
256.3737741431
 20
202.7067594386
 11
256.7720963356
 21
203.2264308837
  0
LINE
  5
2F5
100
AcDbEntity
  8
BEZUGSACHSEN
100
AcDbLine
 62
7
  6
CONTINUOUS
 10
244.8142556554
 20
201.7729527624
 11
246.8310286639
 21
204.058478576
  0
LINE
  5
2F6
100
AcDbEntity
  8
BEZUGSACHSEN
100
AcDbLine
 62
7
  6
CONTINUOUS
 10
245.9167065029
 20
201.8164251617
 11
247.5133183878
 21
203.6257996733
  0
LINE
  5
2F7
100
AcDbEntity
  8
0
100
AcDbLine
 62
7
  6
CONTINUOUS
 10
401.2250624099
 20
462.1739554453
 11
401.2250624099
 21
672.1739554453
  0
LINE
  5
2F8
100
AcDbEntity
  8
BEZUGSACHSEN
100
AcDbLine
 62
7
  6
CONTINUOUS
 10
304.927438992
 20
194.7279027884
 11
304.5433170294
 21
194.0914702578
  0
LINE
  5
2F9
100
AcDbEntity
  8
BEZUGSACHSEN
100
AcDbLine
 62
7
  6
CONTINUOUS
 10
311.4690447649
 20
194.3282373795
 11
311.0849228515
 21
193.6918048752
  0
LINE
  5
2FA
100
AcDbEntity
  8
BEZUGSACHSEN
100
AcDbLine
 62
7
  6
CONTINUOUS
 10
305.5888322364
 20
194.5047066067
 11
305.2858095093
 21
194.0554013586
  0
LINE
  5
2FB
100
AcDbEntity
  8
BEZUGSACHSEN
100
AcDbLine
 62
7
  6
CONTINUOUS
 10
294.8642582218
 20
206.7834698073
 11
296.282885507
 21
208.7113958365
  0
LINE
  5
2FC
100
AcDbEntity
  8
BEZUGSACHSEN
100
AcDbLine
 62
7
  6
CONTINUOUS
 10
295.4780301055
 20
206.3318375725
 11
296.8966573907
 21
208.2597636017
  0
LINE
  5
2FD
100
AcDbEntity
  8
BEZUGSACHSEN
100
AcDbLine
 62
7
  6
CONTINUOUS
 10
298.265094983
 20
206.2622266704
 11
297.6976441219
 21
205.4910563307
  0
LINE
  5
2FE
100
AcDbEntity
  8
BEZUGSACHSEN
100
AcDbLine
 62
7
  6
CONTINUOUS
 10
298.6183019475
 20
204.8136079785
 11
297.8617006669
 21
203.7853806788
  0
LINE
  5
2FF
100
AcDbEntity
  8
BEZUGSACHSEN
100
AcDbLine
 62
7
  6
CONTINUOUS
 10
299.7995246923
 20
205.1331460833
 11
298.3808974071
 21
203.2052200541
  0
LINE
  5
300
100
AcDbEntity
  8
BEZUGSACHSEN
100
AcDbLine
 62
7
  6
CONTINUOUS
 10
293.6412598294
 20
210.0042710307
 11
293.9643442035
 21
210.3796681373
  0
LINE
  5
301
100
AcDbEntity
  8
BEZUGSACHSEN
100
AcDbLine
 62
7
  6
CONTINUOUS
 10
294.2573911138
 20
209.5283153122
 11
294.5804754879
 21
209.9037124188
  0
LINE
  5
302
100
AcDbEntity
  8
BEZUGSACHSEN
100
AcDbLine
 62
7
  6
CONTINUOUS
 10
247.7114796242
 20
200.2326977035
 11
249.3080915091
 21
202.0420722152
  0
LINE
  5
303
100
AcDbEntity
  8
BEZUGSACHSEN
100
AcDbLine
 62
7
  6
CONTINUOUS
 10
248.4293887386
 20
199.5992068386
 11
249.8579362462
 21
201.2181209111
  0
LINE
  5
304
100
AcDbEntity
  8
BEZUGSACHSEN
100
AcDbLine
 62
7
  6
CONTINUOUS
 10
250.4378777222
 20
196.810607062
 11
250.9420709743
 21
197.3819885155
  0
LINE
  5
305
100
AcDbEntity
  8
BEZUGSACHSEN
100
AcDbLine
 62
7
  6
CONTINUOUS
 10
253.0428761114
 20
199.7627444805
 11
253.6311017325
 21
200.4293563578
  0
LINE
  5
306
100
AcDbEntity
  8
BEZUGSACHSEN
100
AcDbLine
 62
7
  6
CONTINUOUS
 10
261.052742108
 20
206.8305186147
 11
261.4260555479
 21
207.2102342534
  0
LINE
  5
307
100
AcDbEntity
  8
BEZUGSACHSEN
100
AcDbLine
 62
7
  6
CONTINUOUS
 10
261.5029591515
 20
205.985528082
 11
261.9883609481
 21
206.4249652205
  0
LINE
  5
308
100
AcDbEntity
  8
BEZUGSACHSEN
100
AcDbLine
 62
7
  6
CONTINUOUS
 10
249.7226703119
 20
207.0038401798
 11
250.319664845
 21
207.477428273
  0
LINE
  5
309
100
AcDbEntity
  8
BEZUGSACHSEN
100
AcDbLine
 62
7
  6
CONTINUOUS
 10
252.7076418386
 20
209.3717797427
 11
253.304636087
 21
209.8453676102
  0
LINE
  5
30A
100
AcDbEntity
  8
0
100
AcDbLine
 62
7
  6
CONTINUOUS
 10
441.2250624099
 20
462.1739554453
 11
441.2250624099
 21
672.1739554453
  0
LINE
  5
30B
100
AcDbEntity
  8
RUNDUNGEN
100
AcDbLine
 62
7
  6
CONTINUOUS
 10
314.1269861985
 20
129.470107868
 11
317.4446212397
 21
135.2164203202
  0
LINE
  5
30C
100
AcDbEntity
  8
BEZUGSACHSEN
100
AcDbLine
 62
7
  6
CONTINUOUS
 10
310.7265523343
 20
194.364306305
 11
310.4235269716
 21
193.9150062402
  0
LINE
  5
30D
100
AcDbEntity
  8
BEZUGSACHSEN
100
AcDbLine
 62
7
  6
CONTINUOUS
 10
305.5121153051
 20
195.3272989313
 11
304.927438992
 21
194.7279027884
  0
LINE
  5
30E
100
AcDbEntity
  8
BEZUGSACHSEN
100
AcDbLine
 62
7
  6
CONTINUOUS
 10
308.8914212773
 20
192.3789956458
 11
308.3067450628
 21
191.7795995555
  0
LINE
  5
30F
100
AcDbEntity
  8
BEZUGSACHSEN
100
AcDbLine
 62
7
  6
CONTINUOUS
 10
296.282885507
 20
208.7113958365
 11
296.8580552425
 21
209.2787672558
  0
LINE
  5
310
100
AcDbEntity
  8
BEZUGSACHSEN
100
AcDbLine
 62
7
  6
CONTINUOUS
 10
296.8966573907
 20
208.2597636017
 11
297.3772517178
 21
208.6986062709
  0
LINE
  5
311
100
AcDbEntity
  8
BEZUGSACHSEN
100
AcDbLine
 62
7
  6
CONTINUOUS
 10
297.9003030138
 20
202.7663772948
 11
298.3808974071
 21
203.2052200541
  0
LINE
  5
312
100
AcDbEntity
  8
BEZUGSACHSEN
100
AcDbLine
 62
7
  6
CONTINUOUS
 10
297.4756814833
 20
203.4750663996
 11
297.8617006669
 21
203.7853806788
  0
LINE
  5
313
100
AcDbEntity
  8
BEZUGSACHSEN
100
AcDbLine
 62
7
  6
CONTINUOUS
 10
255.3807408222
 20
203.1411243018
 11
255.7787371775
 21
203.4568496973
  0
LINE
  5
314
100
AcDbEntity
  8
BEZUGSACHSEN
100
AcDbLine
 62
7
  6
CONTINUOUS
 10
255.9757777877
 20
202.3910340431
 11
256.3737741431
 21
202.7067594386
  0
LINE
  5
315
100
AcDbEntity
  8
BEZUGSACHSEN
100
AcDbLine
 62
7
  6
CONTINUOUS
 10
246.8310286639
 20
204.058478576
 11
247.3708413065
 21
204.4290480672
  0
LINE
  5
316
100
AcDbEntity
  8
BEZUGSACHSEN
100
AcDbLine
 62
7
  6
CONTINUOUS
 10
255.2861587732
 20
211.1713158398
 11
257.976258969
 21
212.6046206046
  0
LINE
  5
317
100
AcDbEntity
  8
BEZUGSACHSEN
100
AcDbLine
 62
7
  6
CONTINUOUS
 10
256.408900813
 20
210.6846515969
 11
258.4264759599
 21
211.7596301705
  0
LINE
  5
318
100
AcDbEntity
  8
BEZUGSACHSEN
100
AcDbLine
 62
7
  6
CONTINUOUS
 10
259.0351669611
 20
205.7555400411
 11
261.052742108
 21
206.8305186147
  0
LINE
  5
319
100
AcDbEntity
  8
BEZUGSACHSEN
100
AcDbLine
 62
7
  6
CONTINUOUS
 10
258.8128589556
 20
204.5522233172
 11
261.5029591515
 21
205.985528082
  0
LINE
  5
31A
100
AcDbEntity
  8
BEZUGSACHSEN
100
AcDbLine
 62
7
  6
CONTINUOUS
 10
305.9515851072
 20
194.8419248102
 11
305.5888322364
 21
194.5047066067
  0
LINE
  5
31B
100
AcDbEntity
  8
BEZUGSACHSEN
100
AcDbLine
 62
7
  6
CONTINUOUS
 10
308.2300281315
 20
192.6021918801
 11
307.8672750635
 21
192.2649735715
  0
LINE
  5
31C
100
AcDbEntity
  8
BEZUGSACHSEN
100
AcDbLine
 62
7
  6
CONTINUOUS
 10
311.0849228515
 20
193.6918048752
 11
310.7221699807
 21
193.3545866717
  0
LINE
  5
31D
100
AcDbEntity
  8
BEZUGSACHSEN
100
AcDbLine
 62
7
  6
CONTINUOUS
 10
306.2938811301
 20
199.4740199212
 11
307.3361383817
 21
200.2111747689
  0
LINE
  5
31E
100
AcDbEntity
  8
BEZUGSACHSEN
100
AcDbLine
 62
7
  6
CONTINUOUS
 10
302.5648773651
 20
195.9032547377
 11
307.6458804177
 21
199.496883878
  0
LINE
  5
31F
100
AcDbEntity
  8
BEZUGSACHSEN
100
AcDbLine
 62
7
  6
CONTINUOUS
 10
309.1281614512
 20
199.6118919004
 11
303.0049015119
 21
195.2811081706
  0
LINE
  5
320
100
AcDbEntity
  8
BEZUGSACHSEN
100
AcDbLine
 62
7
  6
CONTINUOUS
 10
306.4381755452
 20
195.9646990293
 11
305.5121153051
 21
195.3272989313
  0
LINE
  5
321
100
AcDbEntity
  8
BEZUGSACHSEN
100
AcDbLine
 62
7
  6
CONTINUOUS
 10
293.6361326411
 20
209.1201071704
 11
294.2573911138
 21
209.5283153122
  0
LINE
  5
322
100
AcDbEntity
  8
BEZUGSACHSEN
100
AcDbLine
 62
7
  6
CONTINUOUS
 10
296.8580552425
 20
209.2787672558
 11
297.4409480054
 21
209.6423355887
  0
LINE
  5
323
100
AcDbEntity
  8
BEZUGSACHSEN
100
AcDbLine
 62
7
  6
CONTINUOUS
 10
306.4381755452
 20
195.9646990293
 11
307.4239630961
 21
196.4900171608
  0
LINE
  5
324
100
AcDbEntity
  8
BEZUGSACHSEN
100
AcDbLine
 62
7
  6
CONTINUOUS
 10
247.5133183878
 20
203.6257996733
 11
247.8850665329
 21
203.8059085892
  0
LINE
  5
325
100
AcDbEntity
  8
BEZUGSACHSEN
100
AcDbLine
 62
7
  6
CONTINUOUS
 10
297.3772517178
 20
208.6986062709
 11
297.8655672608
 21
208.9336482969
  0
LINE
  5
326
100
AcDbEntity
  8
BEZUGSACHSEN
100
AcDbLine
 62
7
  6
CONTINUOUS
 10
293.2734873241
 20
209.8278631063
 11
293.6412598294
 21
210.0042710307
  0
LINE
  5
327
100
AcDbEntity
  8
BEZUGSACHSEN
100
AcDbLine
 62
7
  6
CONTINUOUS
 10
255.3791099458
 20
202.1213926769
 11
255.9757777877
 21
202.3910340431
  0
LINE
  5
328
100
AcDbEntity
  8
BEZUGSACHSEN
100
AcDbLine
 62
7
  6
CONTINUOUS
 10
254.8835722201
 20
202.9504143865
 11
255.3807408222
 21
203.1411243018
  0
LINE
  5
329
100
AcDbEntity
  8
0
100
AcDbLine
 62
7
  6
CONTINUOUS
 10
263.2250624099
 20
221.4172617092
 11
247.7954989274
 21
216.4038926295
  0
LINE
  5
32A
100
AcDbEntity
  8
KONSTRUKTIONSELEMENTE
100
AcDbLine
 62
7
  6
CONTINUOUS
 10
302.7735073453
 20
41.9616350466
 11
327.9540771949
 21
84.9475565911
  0
LINE
  5
32B
100
AcDbEntity
  8
KONSTRUKTIONSELEMENTE
100
AcDbLine
 62
7
  6
CONTINUOUS
 10
315.8262210446
 20
30.0604684126
 11
316.497664492
 21
31.2066940748
  0
LINE
  5
32C
100
AcDbEntity
  8
KONSTRUKTIONSELEMENTE
100
AcDbLine
 62
7
  6
CONTINUOUS
 10
348.4134627512
 20
85.6903697102
 11
349.2553663024
 21
87.1275889715
  0
LINE
  5
32D
100
AcDbEntity
  8
RUNDUNGEN
100
AcDbLine
 62
7
  6
CONTINUOUS
 10
313.2571512961
 20
101.2163206944
 11
312.283772246
 21
100.0562927145
  0
LINE
  5
32E
100
AcDbEntity
  8
0
100
AcDbLine
 62
7
  6
CONTINUOUS
 10
312.283772246
 20
100.0562927145
 11
304.2553404057
 21
90.4883802259
  0
LINE
  5
32F
100
AcDbEntity
  8
BEZUGSACHSEN
100
AcDbLine
 62
7
  6
CONTINUOUS
 10
307.4409497851
 20
195.7795118284
 11
307.7226033711
 21
195.9296027231
  0
LINE
  5
330
100
AcDbEntity
  8
BEZUGSACHSEN
100
AcDbLine
 62
7
  6
CONTINUOUS
 10
305.9515851072
 20
194.8419248102
 11
306.3740654862
 21
195.0670611522
  0
LINE
  5
331
100
AcDbEntity
  8
BEZUGSACHSEN
100
AcDbLine
 62
7
  6
CONTINUOUS
 10
307.8672750635
 20
192.2649735715
 11
307.4447946845
 21
192.0398372294
  0
LINE
  5
332
100
AcDbEntity
  8
BEZUGSACHSEN
100
AcDbLine
 62
7
  6
CONTINUOUS
 10
308.3067450628
 20
191.7795995555
 11
307.6026109006
 21
191.4043722136
  0
LINE
  5
333
100
AcDbEntity
  8
BEZUGSACHSEN
100
AcDbLine
 62
7
  6
CONTINUOUS
 10
307.4239630961
 20
196.4900171608
 11
308.4694781552
 21
196.9032534309
  0
LINE
  5
334
100
AcDbEntity
  8
BEZUGSACHSEN
100
AcDbLine
 62
7
  6
CONTINUOUS
 10
307.7226033711
 20
195.9296027231
 11
308.6272943713
 21
196.2677884151
  0
LINE
  5
335
100
AcDbEntity
  8
KONSTRUKTIONSELEMENTE
100
AcDbLine
 62
7
  6
CONTINUOUS
 10
238.7250624099
 20
107.1926428678
 11
224.61609867
 21
103.0602230639
  0
LINE
  5
336
100
AcDbEntity
  8
KONSTRUKTIONSELEMENTE
100
AcDbLine
 62
7
  6
CONTINUOUS
 10
238.7250624099
 20
103.6571089619
 11
224.61609867
 21
99.524689158
  0
LINE
  5
337
100
AcDbEntity
  8
KONSTRUKTIONSELEMENTE
100
AcDbLine
 62
7
  6
CONTINUOUS
 10
231.5786841093
 20
92.0734340959
 11
222.0013498395
 21
89.268297834
  0
LINE
  5
338
100
AcDbEntity
  8
KONSTRUKTIONSELEMENTE
100
AcDbLine
 62
7
  6
CONTINUOUS
 10
224.953014714
 20
90.0163002928
 11
232.2924665989
 21
92.1659759797
  0
LINE
  5
339
100
AcDbEntity
  8
KONSTRUKTIONSELEMENTE
100
AcDbLine
 62
7
  6
CONTINUOUS
 10
230.7391882113
 20
81.694319197
 11
238.1302244714
 21
83.8591035976
  0
LINE
  5
33A
100
AcDbEntity
  8
KONSTRUKTIONSELEMENTE
100
AcDbLine
 62
7
  6
CONTINUOUS
 10
230.7391882113
 20
79.2901561409
 11
238.1302244714
 21
81.4549405415
  0
LINE
  5
33B
100
AcDbEntity
  8
KONSTRUKTIONSELEMENTE
100
AcDbLine
 62
7
  6
CONTINUOUS
 10
229.7464643169
 20
76.550220077
 11
239.354811455
 21
79.3644397977
  0
LINE
  5
33C
100
AcDbEntity
  8
KONSTRUKTIONSELEMENTE
100
AcDbLine
 62
7
  6
CONTINUOUS
 10
229.7464643169
 20
75.984534652
 11
239.354811455
 21
78.7987543728
  0
LINE
  5
33D
100
AcDbEntity
  8
KONSTRUKTIONSELEMENTE
100
AcDbLine
 62
7
  6
CONTINUOUS
 10
538.1927662464
 20
8.3495329339
 11
541.7283001523
 21
4.813999028
  0
LINE
  5
33E
100
AcDbEntity
  8
KONSTRUKTIONSELEMENTE
100
AcDbLine
 62
7
  6
CONTINUOUS
 10
564.3557171503
 20
27.4414160259
 11
563.7900317253
 21
28.0071014509
  0
LINE
  5
33F
100
AcDbEntity
  8
KONSTRUKTIONSELEMENTE
100
AcDbLine
 62
7
  6
CONTINUOUS
 10
561.3858686693
 20
30.4112645069
 11
560.8201832443
 21
30.9769499319
  0
LINE
  5
340
100
AcDbEntity
  8
KONSTRUKTIONSELEMENTE
100
AcDbLine
 62
7
  6
CONTINUOUS
 10
612.8988357764
 20
75.984534652
 11
612.3331503514
 21
76.550220077
  0
LINE
  5
341
100
AcDbEntity
  8
KONSTRUKTIONSELEMENTE
100
AcDbLine
 62
7
  6
CONTINUOUS
 10
609.3633018704
 20
79.5200685579
 11
609.9289872954
 21
78.954383133
  0
LINE
  5
342
100
AcDbEntity
  8
0
100
AcDbLine
 62
7
  6
CONTINUOUS
 10
757.2953412609
 20
135.2164203202
 11
768.8101040665
 21
135.2164203202
  0
LINE
  5
343
100
AcDbEntity
  8
KONSTRUKTIONSELEMENTE
100
AcDbLine
 62
7
  6
CONTINUOUS
 10
623.1324933239
 20
90.7276198273
 11
624.1063870458
 21
89.7537261055
  0
LINE
  5
344
100
AcDbEntity
  8
0
100
AcDbLine
 62
7
  6
CONTINUOUS
 10
757.530438819
 20
162.3276494186
 11
768.5750065084
 21
162.3276494186
  0
LINE
  5
345
100
AcDbEntity
  8
BEZUGSACHSEN
100
AcDbLine
 62
7
  6
CONTINUOUS
 10
647.0872105491
 20
117.2439772366
 11
650.622744455
 21
113.7084433307
  0
LINE
  5
346
100
AcDbEntity
  8
KONSTRUKTIONSELEMENTE
100
AcDbLine
 62
7
  6
CONTINUOUS
 10
643.5516766432
 20
121.8401713143
 11
647.0872105491
 21
118.3046374084
  0
LINE
  5
347
100
AcDbEntity
  8
KONSTRUKTIONSELEMENTE
100
AcDbLine
 62
7
  6
CONTINUOUS
 10
643.9052300338
 20
122.1937247049
 11
647.4407639397
 21
118.658190799
  0
LINE
  5
348
100
AcDbEntity
  8
0
100
AcDbLine
 62
7
  6
CONTINUOUS
 10
757.7102450447
 20
192.220261472
 11
768.3952002827
 21
192.220261472
  0
LINE
  5
349
100
AcDbEntity
  8
BEZUGSACHSEN
100
AcDbLine
 62
7
  6
CONTINUOUS
 10
772.3140807433
 20
196.810607062
 11
772.9437080573
 21
196.810607062
  0
LINE
  5
34A
100
AcDbEntity
  8
BEZUGSACHSEN
100
AcDbLine
 62
7
  6
CONTINUOUS
 10
772.3273290968
 20
199.7627444805
 11
772.9540824332
 21
199.7627444805
  0
LINE
  5
34B
100
AcDbEntity
  8
BEZUGSACHSEN
100
AcDbLine
 62
7
  6
CONTINUOUS
 10
770.4829934247
 20
201.7729527624
 11
771.1122815798
 21
201.7729527624
  0
LINE
  5
34C
100
AcDbEntity
  8
BEZUGSACHSEN
100
AcDbLine
 62
7
  6
CONTINUOUS
 10
771.3187831135
 20
202.0420722152
 11
771.9072577507
 21
202.0420722152
  0
LINE
  5
34D
100
AcDbEntity
  8
BEZUGSACHSEN
100
AcDbLine
 62
7
  6
CONTINUOUS
 10
772.2116998013
 20
202.0556973713
 11
772.8365903914
 21
202.0556973713
  0
LINE
  5
34E
100
AcDbEntity
  8
BEZUGSACHSEN
100
AcDbLine
 62
7
  6
CONTINUOUS
 10
772.049507337
 20
202.2400325853
 11
772.6746931198
 21
202.2400325853
  0
LINE
  5
34F
100
AcDbEntity
  8
BEZUGSACHSEN
100
AcDbLine
 62
7
  6
CONTINUOUS
 10
771.3220522261
 20
202.4333447527
 11
771.8655676032
 21
202.4333447527
  0
LINE
  5
350
100
AcDbEntity
  8
BEZUGSACHSEN
100
AcDbLine
 62
7
  6
CONTINUOUS
 10
771.9759950765
 20
202.5822300892
 11
772.5151780565
 21
202.5822300892
  0
LINE
  5
351
100
AcDbEntity
  8
BEZUGSACHSEN
100
AcDbLine
 62
7
  6
CONTINUOUS
 10
771.3236610252
 20
202.8349689496
 11
771.7852319291
 21
202.8349689496
  0
LINE
  5
352
100
AcDbEntity
  8
BEZUGSACHSEN
100
AcDbLine
 62
7
  6
CONTINUOUS
 10
771.8541297894
 20
203.1283737701
 11
772.3183892551
 21
203.1283737701
  0
LINE
  5
353
100
AcDbEntity
  8
BEZUGSACHSEN
100
AcDbLine
 62
7
  6
CONTINUOUS
 10
772.5072620541
 20
203.1411243018
 11
772.7258031407
 21
203.1411243018
  0
LINE
  5
354
100
AcDbEntity
  8
BEZUGSACHSEN
100
AcDbLine
 62
7
  6
CONTINUOUS
 10
771.3234532856
 20
203.2469445335
 11
771.6668977377
 21
203.2469445335
  0
LINE
  5
355
100
AcDbEntity
  8
BEZUGSACHSEN
100
AcDbLine
 62
7
  6
CONTINUOUS
 10
772.3823386488
 20
203.4568496973
 11
772.7255077189
 21
203.4568496973
  0
LINE
  5
356
100
AcDbEntity
  8
BEZUGSACHSEN
100
AcDbLine
 62
7
  6
CONTINUOUS
 10
771.321693766
 20
203.5636902618
 11
771.5498618609
 21
203.5636902618
  0
LINE
  5
357
100
AcDbEntity
  8
BEZUGSACHSEN
100
AcDbLine
 62
7
  6
CONTINUOUS
 10
772.2358652975
 20
203.8975901213
 11
772.684282072
 21
203.8975901213
  0
LINE
  5
358
100
AcDbEntity
  8
BEZUGSACHSEN
100
AcDbLine
 62
7
  6
CONTINUOUS
 10
770.4996538219
 20
204.058478576
 11
771.1271209925
 21
204.058478576
  0
LINE
  5
359
100
AcDbEntity
  8
BEZUGSACHSEN
100
AcDbLine
 62
7
  6
CONTINUOUS
 10
772.0839343585
 20
204.3844141997
 11
772.6033665268
 21
204.3844141997
  0
LINE
  5
35A
100
AcDbEntity
  8
BEZUGSACHSEN
100
AcDbLine
 62
7
  6
CONTINUOUS
 10
770.5349601461
 20
204.4290480672
 11
771.1620599664
 21
204.4290480672
  0
LINE
  5
35B
100
AcDbEntity
  8
BEZUGSACHSEN
100
AcDbLine
 62
7
  6
CONTINUOUS
 10
770.6472033151
 20
204.4932235128
 11
771.2740021533
 21
204.4932235128
  0
LINE
  5
35C
100
AcDbEntity
  8
BEZUGSACHSEN
100
AcDbLine
 62
7
  6
CONTINUOUS
 10
772.6724915056
 20
204.5522233172
 11
772.9338979008
 21
204.5522233172
  0
LINE
  5
35D
100
AcDbEntity
  8
BEZUGSACHSEN
100
AcDbLine
 62
7
  6
CONTINUOUS
 10
771.9176157788
 20
204.9173217572
 11
772.4838544019
 21
204.9173217572
  0
LINE
  5
35E
100
AcDbEntity
  8
BEZUGSACHSEN
100
AcDbLine
 62
7
  6
CONTINUOUS
 10
771.7369115565
 20
205.4963133331
 11
772.3264367467
 21
205.4963133331
  0
LINE
  5
35F
100
AcDbEntity
  8
BEZUGSACHSEN
100
AcDbLine
 62
7
  6
CONTINUOUS
 10
772.4143215708
 20
206.8305186147
 11
772.7216412378
 21
206.8305186147
  0
LINE
  5
360
100
AcDbEntity
  8
BEZUGSACHSEN
100
AcDbLine
 62
7
  6
CONTINUOUS
 10
770.4848266546
 20
207.0038401798
 11
771.1100253038
 21
207.0038401798
  0
LINE
  5
361
100
AcDbEntity
  8
BEZUGSACHSEN
100
AcDbLine
 62
7
  6
CONTINUOUS
 10
772.9222882707
 20
207.025799272
 11
772.9455717267
 21
207.025799272
  0
LINE
  5
362
100
AcDbEntity
  8
BEZUGSACHSEN
100
AcDbLine
 62
7
  6
CONTINUOUS
 10
772.3091676243
 20
207.2102342534
 11
772.6795494383
 21
207.2102342534
  0
LINE
  5
363
100
AcDbEntity
  8
BEZUGSACHSEN
100
AcDbLine
 62
7
  6
CONTINUOUS
 10
772.8589531853
 20
207.3581581014
 11
772.9335740613
 21
207.3581581014
  0
LINE
  5
364
100
AcDbEntity
  8
BEZUGSACHSEN
100
AcDbLine
 62
7
  6
CONTINUOUS
 10
770.4937500062
 20
207.477428273
 11
771.1185571801
 21
207.477428273
  0
LINE
  5
365
100
AcDbEntity
  8
BEZUGSACHSEN
100
AcDbLine
 62
7
  6
CONTINUOUS
 10
772.1815475922
 20
207.6710609256
 11
772.5980042761
 21
207.6710609256
  0
LINE
  5
366
100
AcDbEntity
  8
BEZUGSACHSEN
100
AcDbLine
 62
7
  6
CONTINUOUS
 10
772.031464499
 20
208.2129984342
 11
772.4781003507
 21
208.2129984342
  0
LINE
  5
367
100
AcDbEntity
  8
BEZUGSACHSEN
100
AcDbLine
 62
7
  6
CONTINUOUS
 10
771.8589042643
 20
208.8360461943
 11
772.3205235649
 21
208.8360461943
  0
LINE
  5
368
100
AcDbEntity
  8
BEZUGSACHSEN
100
AcDbLine
 62
7
  6
CONTINUOUS
 10
770.4937500028
 20
209.3717797427
 11
771.1170766077
 21
209.3717797427
  0
LINE
  5
369
100
AcDbEntity
  8
BEZUGSACHSEN
100
AcDbLine
 62
7
  6
CONTINUOUS
 10
770.4848266546
 20
209.8453676102
 11
771.1078064734
 21
209.8453676102
  0
LINE
  5
36A
100
AcDbEntity
  8
BEZUGSACHSEN
100
AcDbLine
 62
7
  6
CONTINUOUS
 10
771.3519336334
 20
210.9485224768
 11
771.7355666944
 21
210.9485224768
  0
LINE
  5
36B
100
AcDbEntity
  8
BEZUGSACHSEN
100
AcDbLine
 62
7
  6
CONTINUOUS
 10
770.4810614775
 20
211.1713158398
 11
771.1030163161
 21
211.1713158398
  0
LINE
  5
36C
100
AcDbEntity
  8
BEZUGSACHSEN
100
AcDbLine
 62
7
  6
CONTINUOUS
 10
771.3560076834
 20
211.4521286288
 11
771.5810132958
 21
211.4521286288
  0
LINE
  5
36D
100
AcDbEntity
  8
BEZUGSACHSEN
100
AcDbLine
 62
7
  6
CONTINUOUS
 10
771.355144253
 20
211.7551819488
 11
771.4665468073
 21
211.7551819488
  0
LINE
  5
36E
100
AcDbEntity
  8
BEZUGSACHSEN
100
AcDbLine
 62
7
  6
CONTINUOUS
 10
770.5001004738
 20
212.6046206046
 11
771.1208828823
 21
212.6046206046
  0
LINE
  5
36F
100
AcDbEntity
  8
BEZUGSACHSEN
100
AcDbLine
 62
7
  6
CONTINUOUS
 10
770.5359065335
 20
212.7623942528
 11
771.1564630843
 21
212.7623942528
  0
LINE
  5
370
100
AcDbEntity
  8
0
100
AcDbLine
 62
7
  6
CONTINUOUS
 10
757.7102450447
 20
216.4038926295
 11
768.3952002827
 21
216.4038926295
  0
LWPOLYLINE
  5
371
100
AcDbEntity
  8
RUNDUNGEN
100
AcDbPolyline
 62
7
  6
CONTINUOUS
 90
3
 70
0
 10
774.8457568959
 20
155.2953142119
 10
774.8957941892
 20
155.276082773
 10
774.9114587473
 20
155.269631229
  0
LINE
  5
372
100
AcDbEntity
  8
0
100
AcDbLine
 62
7
  6
CONTINUOUS
 10
768.3952002827
 20
225.6412177602
 11
757.7102450447
 21
225.6412177602
  0
LINE
  5
373
100
AcDbEntity
  8
KONSTRUKTIONSELEMENTE
100
AcDbLine
 62
7
  6
CONTINUOUS
 10
700.8273259193
 20
179.1158205904
 11
704.3628598252
 21
175.5802866845
  0
LINE
  5
374
100
AcDbEntity
  8
KONSTRUKTIONSELEMENTE
100
AcDbLine
 62
7
  6
CONTINUOUS
 10
701.1808793099
 20
179.469373981
 11
704.7164132158
 21
175.9338400751
  0
LINE
  5
375
100
AcDbEntity
  8
0
100
AcDbLine
 62
7
  6
CONTINUOUS
 10
744.0189943136
 20
100.2753228108
 11
741.4770617703
 21
104.3076534094
  0
LINE
  5
376
100
AcDbEntity
  8
RUNDUNGEN
100
AcDbLine
 62
7
  6
CONTINUOUS
 10
784.2129767015
 20
127.094463521
 11
774.2999382282
 21
144.2643498142
  0
LINE
  5
377
100
AcDbEntity
  8
0
100
AcDbLine
 62
7
  6
CONTINUOUS
 10
704.5527226637
 20
229.6739554453
 11
704.5527226637
 21
304.6739554453
  0
LINE
  5
378
100
AcDbEntity
  8
RUNDUNGEN
100
AcDbLine
 62
7
  6
CONTINUOUS
 10
768.9540687414
 20
133.8562917942
 11
768.8101040665
 21
135.2164203202
  0
LINE
  5
379
100
AcDbEntity
  8
0
100
AcDbLine
 62
7
  6
CONTINUOUS
 10
730.5527226637
 20
229.6739554453
 11
730.5527226637
 21
304.6739554453
  0
LINE
  5
37A
100
AcDbEntity
  8
0
100
AcDbLine
 62
7
  6
CONTINUOUS
 10
740.5527226637
 20
107.5072887786
 11
740.5527226637
 21
122.094463521
  0
LINE
  5
37B
100
AcDbEntity
  8
KONSTRUKTIONSELEMENTE
100
AcDbLine
 62
7
  6
CONTINUOUS
 10
768.3952002827
 20
225.6412177602
 11
772.8234592222
 21
207.5444171387
  0
LINE
  5
37C
100
AcDbEntity
  8
0
100
AcDbLine
 62
7
  6
CONTINUOUS
 10
757.2416000595
 20
170.809077049
 11
757.530438819
 21
162.3276494186
  0
LINE
  5
37D
100
AcDbEntity
  8
0
100
AcDbLine
 62
7
  6
CONTINUOUS
 10
768.5750065084
 20
162.3276494186
 11
768.8101040665
 21
135.2164203202
  0
LINE
  5
37E
100
AcDbEntity
  8
0
100
AcDbLine
 62
7
  6
CONTINUOUS
 10
743.0527226637
 20
817.1102767391
 11
743.0527226637
 21
317.2376341515
  0
LINE
  5
37F
100
AcDbEntity
  8
0
100
AcDbLine
 62
7
  6
CONTINUOUS
 10
748.0527226637
 20
150.6277854131
 11
748.0527226637
 21
140.4438284264
  0
LINE
  5
380
100
AcDbEntity
  8
0
100
AcDbLine
 62
7
  6
CONTINUOUS
 10
753.0527226637
 20
205.6429300001
 11
753.0527226637
 21
157.5558646518
  0
LINE
  5
381
100
AcDbEntity
  8
0
100
AcDbLine
 62
7
  6
CONTINUOUS
 10
757.1090257198
 20
133.0560590811
 11
757.1090257198
 21
132.9005213525
  0
LINE
  5
382
100
AcDbEntity
  8
RUNDUNGEN
100
AcDbLine
 62
7
  6
CONTINUOUS
 10
768.9964196076
 20
133.0560590811
 11
768.9964196076
 21
132.9005213525
  0
LINE
  5
383
100
AcDbEntity
  8
0
100
AcDbLine
 62
7
  6
CONTINUOUS
 10
757.530438819
 20
162.3276494186
 11
757.2953412609
 21
135.2164203202
  0
LINE
  5
384
100
AcDbEntity
  8
BEZUGSACHSEN
100
AcDbLine
 62
7
  6
CONTINUOUS
 10
773.0527226637
 20
205.6429300001
 11
773.0527226637
 21
173.3257572854
  0
LINE
  5
385
100
AcDbEntity
  8
KONSTRUKTIONSELEMENTE
100
AcDbLine
 62
7
  6
CONTINUOUS
 10
773.0527226637
 20
173.3257572854
 11
773.0527226637
 21
157.5558523547
  0
LINE
  5
386
100
AcDbEntity
  8
RUNDUNGEN
100
AcDbLine
 62
7
  6
CONTINUOUS
 10
773.0527226637
 20
173.3257572588
 11
773.0527226637
 21
157.5558646518
  0
LINE
  5
387
100
AcDbEntity
  8
KONSTRUKTIONSELEMENTE
100
AcDbLine
 62
7
  6
CONTINUOUS
 10
778.0527226637
 20
140.4438284264
 11
778.0527226637
 21
150.6277854131
  0
LINE
  5
388
100
AcDbEntity
  8
0
100
AcDbLine
 62
7
  6
CONTINUOUS
 10
783.0527226637
 20
817.1102767391
 11
783.0527226637
 21
317.2376341515
  0
LINE
  5
389
100
AcDbEntity
  8
RUNDUNGEN
100
AcDbLine
 62
7
  6
CONTINUOUS
 10
785.5527226637
 20
107.5072887786
 11
785.5527226637
 21
122.094463521
  0
LINE
  5
38A
100
AcDbEntity
  8
0
100
AcDbLine
 62
7
  6
CONTINUOUS
 10
795.5527226637
 20
304.6739554453
 11
795.5527226637
 21
229.6739554453
  0
LINE
  5
38B
100
AcDbEntity
  8
0
100
AcDbLine
 62
7
  6
CONTINUOUS
 10
768.8638452679
 20
170.809077049
 11
768.5750065084
 21
162.3276494186
  0
LINE
  5
38C
100
AcDbEntity
  8
0
100
AcDbLine
 62
7
  6
CONTINUOUS
 10
757.151376586
 20
133.8562917942
 11
757.2953412609
 21
135.2164203202
  0
LINE
  5
38D
100
AcDbEntity
  8
0
100
AcDbLine
 62
7
  6
CONTINUOUS
 10
821.5527226637
 20
304.6739554453
 11
821.5527226637
 21
229.6739554453
  0
LINE
  5
38E
100
AcDbEntity
  8
0
100
AcDbLine
 62
7
  6
CONTINUOUS
 10
753.2819861052
 20
207.5444171387
 11
757.7102450447
 21
225.6412177602
  0
LINE
  5
38F
100
AcDbEntity
  8
0
100
AcDbLine
 62
7
  6
CONTINUOUS
 10
741.8924686258
 20
127.094463521
 11
751.8055070992
 21
144.2643498142
  0
LINE
  5
390
100
AcDbEntity
  8
KONSTRUKTIONSELEMENTE
100
AcDbLine
 62
7
  6
CONTINUOUS
 10
640.7232495184
 20
119.0117441896
 11
643.5516766432
 21
121.8401713143
  0
LINE
  5
391
100
AcDbEntity
  8
KONSTRUKTIONSELEMENTE
100
AcDbLine
 62
7
  6
CONTINUOUS
 10
643.9052300338
 20
122.1937247049
 11
646.7336571585
 21
125.0221518297
  0
LINE
  5
392
100
AcDbEntity
  8
KONSTRUKTIONSELEMENTE
100
AcDbLine
 62
7
  6
CONTINUOUS
 10
697.9988987945
 20
176.2873934657
 11
700.8273259193
 21
179.1158205904
  0
LINE
  5
393
100
AcDbEntity
  8
KONSTRUKTIONSELEMENTE
100
AcDbLine
 62
7
  6
CONTINUOUS
 10
701.1808793099
 20
179.469373981
 11
704.0093064346
 21
182.2978011058
  0
LINE
  5
394
100
AcDbEntity
  8
KONSTRUKTIONSELEMENTE
100
AcDbLine
 62
7
  6
CONTINUOUS
 10
667.2397538129
 20
145.1746950935
 11
677.8463555307
 21
155.7812968113
  0
LINE
  5
395
100
AcDbEntity
  8
KONSTRUKTIONSELEMENTE
100
AcDbLine
 62
7
  6
CONTINUOUS
 10
740.0717522751
 20
211.642732525
 11
706.8841980878
 21
178.4551783377
  0
LINE
  5
396
100
AcDbEntity
  8
KONSTRUKTIONSELEMENTE
100
AcDbLine
 62
7
  6
CONTINUOUS
 10
670.4217343283
 20
141.9927145782
 11
681.0283360461
 21
152.599316296
  0
LINE
  5
397
100
AcDbEntity
  8
KONSTRUKTIONSELEMENTE
100
AcDbLine
 62
7
  6
CONTINUOUS
 10
644.2587834243
 20
115.4762102837
 11
647.0872105491
 21
118.3046374084
  0
LINE
  5
398
100
AcDbEntity
  8
KONSTRUKTIONSELEMENTE
100
AcDbLine
 62
7
  6
CONTINUOUS
 10
647.4407639397
 20
118.658190799
 11
650.2691910644
 21
121.4866179237
  0
LINE
  5
399
100
AcDbEntity
  8
KONSTRUKTIONSELEMENTE
100
AcDbLine
 62
7
  6
CONTINUOUS
 10
701.5344327005
 20
172.7518595598
 11
704.3628598252
 21
175.5802866845
  0
LINE
  5
39A
100
AcDbEntity
  8
KONSTRUKTIONSELEMENTE
100
AcDbLine
 62
7
  6
CONTINUOUS
 10
704.7164132158
 20
175.9338400751
 11
706.1016244874
 21
177.3190513467
  0
LINE
  5
39B
100
AcDbEntity
  8
BEZUGSACHSEN
100
AcDbLine
 62
7
  6
CONTINUOUS
 10
647.0872105491
 20
117.2439772366
 11
646.2260057691
 21
116.3827724566
  0
LINE
  5
39C
100
AcDbEntity
  8
KONSTRUKTIONSELEMENTE
100
AcDbLine
 62
7
  6
CONTINUOUS
 10
538.1927662464
 20
8.3495329339
 11
646.2260057691
 21
116.3827724566
  0
LINE
  5
39D
100
AcDbEntity
  8
KONSTRUKTIONSELEMENTE
100
AcDbLine
 62
7
  6
CONTINUOUS
 10
701.5344327005
 20
171.3376459974
 11
682.8257477253
 21
152.6289610222
  0
LINE
  5
39E
100
AcDbEntity
  8
KONSTRUKTIONSELEMENTE
100
AcDbLine
 62
7
  6
CONTINUOUS
 10
670.4217343283
 20
140.2249476252
 11
651.7130493531
 21
121.51626265
  0
LINE
  5
39F
100
AcDbEntity
  8
KONSTRUKTIONSELEMENTE
100
AcDbLine
 62
7
  6
CONTINUOUS
 10
561.3858686693
 20
30.4112645069
 11
538.7584516713
 21
7.7838475089
  0
LINE
  5
3A0
100
AcDbEntity
  8
KONSTRUKTIONSELEMENTE
100
AcDbLine
 62
7
  6
CONTINUOUS
 10
609.9289872954
 20
78.954383133
 11
617.051018638
 21
86.0764144756
  0
LINE
  5
3A1
100
AcDbEntity
  8
KONSTRUKTIONSELEMENTE
100
AcDbLine
 62
7
  6
CONTINUOUS
 10
563.7900317253
 20
28.0071014509
 11
541.1626147274
 21
5.3796844529
  0
LINE
  5
3A2
100
AcDbEntity
  8
KONSTRUKTIONSELEMENTE
100
AcDbLine
 62
7
  6
CONTINUOUS
 10
612.3331503514
 20
76.550220077
 11
619.455181694
 21
83.6722514196
  0
LINE
  5
3A3
100
AcDbEntity
  8
KONSTRUKTIONSELEMENTE
100
AcDbLine
 62
7
  6
CONTINUOUS
 10
704.7164132158
 20
168.1556654821
 11
686.0077282406
 21
149.4469805069
  0
LINE
  5
3A4
100
AcDbEntity
  8
KONSTRUKTIONSELEMENTE
100
AcDbLine
 62
7
  6
CONTINUOUS
 10
673.6037148436
 20
137.0429671098
 11
654.8950298684
 21
118.3342821347
  0
LINE
  5
3A5
100
AcDbEntity
  8
BEZUGSACHSEN
100
AcDbLine
 62
7
  6
CONTINUOUS
 10
650.622744455
 20
113.7084433307
 11
649.7615396751
 21
112.8472385507
  0
LINE
  5
3A6
100
AcDbEntity
  8
KONSTRUKTIONSELEMENTE
100
AcDbLine
 62
7
  6
CONTINUOUS
 10
541.7283001523
 20
4.813999028
 11
649.7615396751
 21
112.8472385507
  0
LINE
  5
3A7
100
AcDbEntity
  8
KONSTRUKTIONSELEMENTE
100
AcDbLine
 62
7
  6
CONTINUOUS
 10
710.6978185651
 20
172.722857269
 11
706.1306267782
 21
168.1556654821
  0
LINE
  5
3A8
100
AcDbEntity
  8
KONSTRUKTIONSELEMENTE
100
AcDbLine
 62
7
  6
CONTINUOUS
 10
654.8653851421
 20
116.890423846
 11
648.8549775021
 21
110.8800162059
  0
LINE
  5
3A9
100
AcDbEntity
  8
KONSTRUKTIONSELEMENTE
100
AcDbLine
 62
7
  6
CONTINUOUS
 10
745.0214997434
 20
206.6929850567
 11
711.8339455561
 21
173.5054308694
  0
LINE
  5
3AA
100
AcDbEntity
  8
KONSTRUKTIONSELEMENTE
100
AcDbLine
 62
7
  6
CONTINUOUS
 10
685.9780835144
 20
147.6495688276
 11
675.3714817966
 21
137.0429671098
  0
LINE
  5
3AB
100
AcDbEntity
  8
KONSTRUKTIONSELEMENTE
100
AcDbLine
 62
7
  6
CONTINUOUS
 10
689.1600640297
 20
144.4675883123
 11
678.5534623119
 21
133.8609865945
  0
LINE
  5
3AC
100
AcDbEntity
  8
KONSTRUKTIONSELEMENTE
100
AcDbLine
 62
7
  6
CONTINUOUS
 10
715.6765683242
 20
170.6305392162
 11
709.6661606841
 21
164.6201315761
  0
LINE
  5
3AD
100
AcDbEntity
  8
KONSTRUKTIONSELEMENTE
100
AcDbLine
 62
7
  6
CONTINUOUS
 10
658.4009190481
 20
113.3548899401
 11
652.390511408
 21
107.3444823
  0
LINE
  5
3AE
100
AcDbEntity
  8
RUNDUNGEN
100
AcDbLine
 62
7
  6
CONTINUOUS
 10
782.0864510137
 20
100.2753228108
 11
784.628383557
 21
104.3076534094
  0
ARC
  5
3AF
100
AcDbEntity
  8
KONSTRUKTIONSELEMENTE
100
AcDbCircle
 62
7
  6
CONTINUOUS
 10
259.4797266076
 20
19.6383874262
 40
8.2295991091
100
AcDbArc
 50
71.4716087129
 51
77.9053340862
  0
ARC
  5
3B0
100
AcDbEntity
  8
KONSTRUKTIONSELEMENTE
100
AcDbCircle
 62
7
  6
CONTINUOUS
 10
265.6651177071
 20
22.9062458616
 40
3.280502576
100
AcDbArc
 50
9.1122156591
 51
9.8872067217
  0
ARC
  5
3B1
100
AcDbEntity
  8
KONSTRUKTIONSELEMENTE
100
AcDbCircle
 62
7
  6
CONTINUOUS
 10
265.7204612944
 20
22.9141764925
 40
3.2246015936
100
AcDbArc
 50
0.0312035641
 51
9.1288137427
  0
ARC
  5
3B2
100
AcDbEntity
  8
RUNDUNGEN
100
AcDbCircle
 62
7
  6
CONTINUOUS
 10
235.7250624099
 20
127.970107868
 40
3.0
100
AcDbArc
 50
0.0
 51
30.0
  0
ARC
  5
3B3
100
AcDbEntity
  8
0
100
AcDbCircle
 62
7
  6
CONTINUOUS
 10
249.726872914
 20
91.7739559057
 40
2.0
100
AcDbArc
 50
220.0000172178
 51
270.0000110674
  0
ARC
  5
3B4
100
AcDbEntity
  8
RUNDUNGEN
100
AcDbCircle
 62
7
  6
CONTINUOUS
 10
240.7250624099
 20
102.5018959138
 40
2.0
100
AcDbArc
 50
180.0
 51
220.0
  0
ARC
  5
3B5
100
AcDbEntity
  8
0
100
AcDbCircle
 62
7
  6
CONTINUOUS
 10
240.7250624099
 20
102.5018959138
 40
2.0
100
AcDbArc
 50
180.0
 51
220.0
  0
ARC
  5
3B6
100
AcDbEntity
  8
KONSTRUKTIONSELEMENTE
100
AcDbCircle
 62
7
  6
CONTINUOUS
 10
239.5694516241
 20
80.9445269671
 40
1.2681615075
100
AcDbArc
 50
341.2144804733
 51
346.8145490438
  0
ARC
  5
3B7
100
AcDbEntity
  8
KONSTRUKTIONSELEMENTE
100
AcDbCircle
 62
7
  6
CONTINUOUS
 10
276.2250624099
 20
38.4363166953
 40
56.0
100
AcDbArc
 50
99.0410961486
 51
113.5499984999
  0
ARC
  5
3B8
100
AcDbEntity
  8
KONSTRUKTIONSELEMENTE
100
AcDbCircle
 62
7
  6
CONTINUOUS
 10
276.2250624099
 20
38.4363166953
 40
56.0
100
AcDbArc
 50
66.4500015001
 51
80.9589038514
  0
ARC
  5
3B9
100
AcDbEntity
  8
BEZUGSACHSEN
100
AcDbCircle
 62
7
  6
CONTINUOUS
 10
276.2250624099
 20
177.2739554453
 40
20.0
100
AcDbArc
 50
130.5823106118
 51
49.4176893882
  0
ARC
  5
3BA
100
AcDbEntity
  8
0
100
AcDbCircle
 62
7
  6
CONTINUOUS
 10
276.2250624099
 20
184.1739554453
 40
13.0
100
AcDbArc
 50
180.0
 51
360.0
  0
ARC
  5
3BB
100
AcDbEntity
  8
KONSTRUKTIONSELEMENTE
100
AcDbCircle
 62
7
  6
CONTINUOUS
 10
276.2250624099
 20
133.4739554453
 40
8.8
100
AcDbArc
 50
0.0
 51
180.0
  0
ARC
  5
3BC
100
AcDbEntity
  8
BEZUGSACHSEN
100
AcDbCircle
 62
7
  6
CONTINUOUS
 10
276.2250624099
 20
110.5184623955
 40
7.7701622262
100
AcDbArc
 50
265.5729048645
 51
274.4270951355
  0
ARC
  5
3BD
100
AcDbEntity
  8
KONSTRUKTIONSELEMENTE
100
AcDbCircle
 62
7
  6
CONTINUOUS
 10
292.7336044881
 20
20.4731428978
 40
7.4828140793
100
AcDbArc
 50
111.2384503883
 51
112.1140025065
  0
ARC
  5
3BE
100
AcDbEntity
  8
KONSTRUKTIONSELEMENTE
100
AcDbCircle
 62
7
  6
CONTINUOUS
 10
292.6749079557
 20
20.6164038012
 40
7.3279955906
100
AcDbArc
 50
112.1105000658
 51
113.9508226432
  0
CIRCLE
  5
3BF
100
AcDbEntity
  8
BEZUGSACHSEN
100
AcDbCircle
 62
7
  6
CONTINUOUS
 10
303.2250624099
 20
112.2739554453
 40
3.0
  0
ARC
  5
3C0
100
AcDbEntity
  8
RUNDUNGEN
100
AcDbCircle
 62
7
  6
CONTINUOUS
 10
316.7250624099
 20
127.970107868
 40
3.0
100
AcDbArc
 50
150.0
 51
180.0
  0
ARC
  5
3C1
100
AcDbEntity
  8
KONSTRUKTIONSELEMENTE
100
AcDbCircle
 62
7
  6
CONTINUOUS
 10
276.2250624099
 20
124.9385208849
 40
2.5
100
AcDbArc
 50
0.0
 51
180.0
  0
ARC
  5
3C2
100
AcDbEntity
  8
KONSTRUKTIONSELEMENTE
100
AcDbCircle
 62
7
  6
CONTINUOUS
 10
276.2250624099
 20
164.7037625209
 40
2.5
100
AcDbArc
 50
180.0
 51
360.0
  0
ARC
  5
3C3
100
AcDbEntity
  8
KONSTRUKTIONSELEMENTE
100
AcDbCircle
 62
7
  6
CONTINUOUS
 10
276.2250624099
 20
133.767840844
 40
2.25
100
AcDbArc
 50
180.0
 51
360.0
  0
ARC
  5
3C4
100
AcDbEntity
  8
KONSTRUKTIONSELEMENTE
100
AcDbCircle
 62
7
  6
CONTINUOUS
 10
276.2250624099
 20
155.8744425618
 40
2.25
100
AcDbArc
 50
41.3031628639
 51
138.6968371361
  0
ARC
  5
3C5
100
AcDbEntity
  8
0
100
AcDbCircle
 62
7
  6
CONTINUOUS
 10
302.7232521861
 20
91.7739562398
 40
2.0
100
AcDbArc
 50
269.9999809015
 51
319.9999702881
  0
ARC
  5
3C6
100
AcDbEntity
  8
RUNDUNGEN
100
AcDbCircle
 62
7
  6
CONTINUOUS
 10
311.7250624099
 20
102.5018959138
 40
2.0
100
AcDbArc
 50
320.0
 51
359.9999999998
  0
ARC
  5
3C7
100
AcDbEntity
  8
0
100
AcDbCircle
 62
7
  6
CONTINUOUS
 10
276.2250624099
 20
462.1739554453
 40
165.0
100
AcDbArc
 50
180.0
 51
265.4805467697
  0
ARC
  5
3C8
100
AcDbEntity
  8
0
100
AcDbCircle
 62
7
  6
CONTINUOUS
 10
276.2250624099
 20
462.1739554453
 40
165.0
100
AcDbArc
 50
274.5194532303
 51
360.0
  0
ARC
  5
3C9
100
AcDbEntity
  8
0
100
AcDbCircle
 62
7
  6
CONTINUOUS
 10
276.2250624099
 20
672.1739554453
 40
165.0
100
AcDbArc
 50
0.0
 51
180.0
  0
ARC
  5
3CA
100
AcDbEntity
  8
0
100
AcDbCircle
 62
7
  6
CONTINUOUS
 10
276.2250624099
 20
672.1739554453
 40
125.0
100
AcDbArc
 50
0.0
 51
180.0
  0
ARC
  5
3CB
100
AcDbEntity
  8
0
100
AcDbCircle
 62
7
  6
CONTINUOUS
 10
276.2250624099
 20
462.1739554453
 40
125.0
100
AcDbArc
 50
180.0
 51
264.0297812168
  0
ARC
  5
3CC
100
AcDbEntity
  8
0
100
AcDbCircle
 62
7
  6
CONTINUOUS
 10
276.2250624099
 20
462.1739554453
 40
125.0
100
AcDbArc
 50
275.9702187832
 51
360.0
  0
ARC
  5
3CD
100
AcDbEntity
  8
0
100
AcDbCircle
 62
7
  6
CONTINUOUS
 10
276.2250624099
 20
350.1739554453
 40
13.0
100
AcDbArc
 50
0.0
 51
180.0
  0
ARC
  5
3CE
100
AcDbEntity
  8
BEZUGSACHSEN
100
AcDbCircle
 62
7
  6
CONTINUOUS
 10
451.3790339218
 20
21.423393703
 40
367.7166097858
100
AcDbArc
 50
29.1037086152
 51
29.2715362397
  0
ARC
  5
3CF
100
AcDbEntity
  8
BEZUGSACHSEN
100
AcDbCircle
 62
7
  6
CONTINUOUS
 10
539.3689911483
 20
70.5237143823
 40
267.2657840261
100
AcDbArc
 50
29.0815601877
 51
29.3126957374
  0
ARC
  5
3D0
100
AcDbEntity
  8
BEZUGSACHSEN
100
AcDbCircle
 62
7
  6
CONTINUOUS
 10
529.3646212399
 20
163.7053084177
 40
246.6168624729
100
AcDbArc
 50
9.3795943628
 51
9.4942484532
  0
ARC
  5
3D1
100
AcDbEntity
  8
BEZUGSACHSEN
100
AcDbCircle
 62
7
  6
CONTINUOUS
 10
550.9828019445
 20
168.2177173399
 40
225.0996761983
100
AcDbArc
 50
9.9752838139
 51
10.0944027048
  0
ARC
  5
3D2
100
AcDbEntity
  8
BEZUGSACHSEN
100
AcDbCircle
 62
7
  6
CONTINUOUS
 10
554.5274414141
 20
171.5971219237
 40
219.6465398961
100
AcDbArc
 50
7.9564472385
 51
8.1124262205
  0
ARC
  5
3D3
100
AcDbEntity
  8
BEZUGSACHSEN
100
AcDbCircle
 62
7
  6
CONTINUOUS
 10
595.0937197098
 20
177.5267006007
 40
179.6714176386
100
AcDbArc
 50
8.2236451481
 51
8.4059767174
  0
ARC
  5
3D4
100
AcDbEntity
  8
BEZUGSACHSEN
100
AcDbCircle
 62
7
  6
CONTINUOUS
 10
607.6779921494
 20
184.7412766581
 40
165.1380307708
100
AcDbArc
 50
6.0136656721
 51
6.1501888441
  0
ARC
  5
3D5
100
AcDbEntity
  8
KONSTRUKTIONSELEMENTE
100
AcDbCircle
 62
7
  6
CONTINUOUS
 10
652.5672881033
 20
119.1885208849
 40
8.25
100
AcDbArc
 50
60.8421444573
 51
135.0
  0
ARC
  5
3D6
100
AcDbEntity
  8
KONSTRUKTIONSELEMENTE
100
AcDbCircle
 62
7
  6
CONTINUOUS
 10
652.5672881033
 20
119.1885208849
 40
8.25
100
AcDbArc
 50
315.0
 51
29.1578555427
  0
ARC
  5
3D7
100
AcDbEntity
  8
KONSTRUKTIONSELEMENTE
100
AcDbCircle
 62
7
  6
CONTINUOUS
 10
646.5568804632
 20
113.1781132448
 40
8.25
100
AcDbArc
 50
242.6769957192
 51
315.0
  0
ARC
  5
3D8
100
AcDbEntity
  8
KONSTRUKTIONSELEMENTE
100
AcDbCircle
 62
7
  6
CONTINUOUS
 10
646.5568804632
 20
113.1781132448
 40
8.25
100
AcDbArc
 50
135.0
 51
207.3230042808
  0
ARC
  5
3D9
100
AcDbEntity
  8
KONSTRUKTIONSELEMENTE
100
AcDbCircle
 62
7
  6
CONTINUOUS
 10
652.5672881033
 20
119.1885208849
 40
3.25
100
AcDbArc
 50
88.8837571799
 51
135.0
  0
ARC
  5
3DA
100
AcDbEntity
  8
KONSTRUKTIONSELEMENTE
100
AcDbCircle
 62
7
  6
CONTINUOUS
 10
652.5672881033
 20
119.1885208849
 40
3.25
100
AcDbArc
 50
315.0
 51
1.1162428201
  0
ARC
  5
3DB
100
AcDbEntity
  8
KONSTRUKTIONSELEMENTE
100
AcDbCircle
 62
7
  6
CONTINUOUS
 10
646.5568804632
 20
113.1781132448
 40
3.25
100
AcDbArc
 50
275.4054095575
 51
315.0
  0
ARC
  5
3DC
100
AcDbEntity
  8
KONSTRUKTIONSELEMENTE
100
AcDbCircle
 62
7
  6
CONTINUOUS
 10
646.5568804632
 20
113.1781132448
 40
3.25
100
AcDbArc
 50
135.0
 51
174.5945904425
  0
ARC
  5
3DD
100
AcDbEntity
  8
KONSTRUKTIONSELEMENTE
100
AcDbCircle
 62
7
  6
CONTINUOUS
 10
653.2743948845
 20
119.8956276661
 40
2.25
100
AcDbArc
 50
135.0
 51
315.0
  0
ARC
  5
3DE
100
AcDbEntity
  8
BEZUGSACHSEN
100
AcDbCircle
 62
7
  6
CONTINUOUS
 10
620.1200116715
 20
182.1681623201
 40
154.70609093
100
AcDbArc
 50
9.0207882485
 51
9.216041785
  0
ARC
  5
3DF
100
AcDbEntity
  8
KONSTRUKTIONSELEMENTE
100
AcDbCircle
 62
7
  6
CONTINUOUS
 10
672.8966080624
 20
139.517840844
 40
8.0
100
AcDbArc
 50
241.3642958278
 51
315.0
  0
ARC
  5
3E0
100
AcDbEntity
  8
KONSTRUKTIONSELEMENTE
100
AcDbCircle
 62
7
  6
CONTINUOUS
 10
672.8966080624
 20
139.517840844
 40
8.0
100
AcDbArc
 50
135.0
 51
208.6357041722
  0
ARC
  5
3E1
100
AcDbEntity
  8
KONSTRUKTIONSELEMENTE
100
AcDbCircle
 62
7
  6
CONTINUOUS
 10
683.5032097802
 20
150.1244425618
 40
8.0
100
AcDbArc
 50
61.3642958278
 51
135.0
  0
ARC
  5
3E2
100
AcDbEntity
  8
KONSTRUKTIONSELEMENTE
100
AcDbCircle
 62
7
  6
CONTINUOUS
 10
683.5032097802
 20
150.1244425618
 40
8.0
100
AcDbArc
 50
315.0
 51
28.6357041722
  0
ARC
  5
3E3
100
AcDbEntity
  8
KONSTRUKTIONSELEMENTE
100
AcDbCircle
 62
7
  6
CONTINUOUS
 10
672.8966080624
 20
139.517840844
 40
3.5
100
AcDbArc
 50
265.1538775079
 51
315.0
  0
ARC
  5
3E4
100
AcDbEntity
  8
KONSTRUKTIONSELEMENTE
100
AcDbCircle
 62
7
  6
CONTINUOUS
 10
672.8966080624
 20
139.517840844
 40
3.5
100
AcDbArc
 50
135.0
 51
184.8461224921
  0
ARC
  5
3E5
100
AcDbEntity
  8
KONSTRUKTIONSELEMENTE
100
AcDbCircle
 62
7
  6
CONTINUOUS
 10
683.5032097802
 20
150.1244425618
 40
3.5
100
AcDbArc
 50
85.1538775079
 51
135.0
  0
ARC
  5
3E6
100
AcDbEntity
  8
KONSTRUKTIONSELEMENTE
100
AcDbCircle
 62
7
  6
CONTINUOUS
 10
683.5032097802
 20
150.1244425618
 40
3.5
100
AcDbArc
 50
315.0
 51
4.8461224921
  0
ARC
  5
3E7
100
AcDbEntity
  8
KONSTRUKTIONSELEMENTE
100
AcDbCircle
 62
7
  6
CONTINUOUS
 10
684.3870932567
 20
151.0083260383
 40
2.25
100
AcDbArc
 50
135.0
 51
315.0
  0
ARC
  5
3E8
100
AcDbEntity
  8
KONSTRUKTIONSELEMENTE
100
AcDbCircle
 62
7
  6
CONTINUOUS
 10
672.0127245859
 20
138.6339573675
 40
2.25
100
AcDbArc
 50
315.0
 51
135.0
  0
ARC
  5
3E9
100
AcDbEntity
  8
BEZUGSACHSEN
100
AcDbCircle
 62
7
  6
CONTINUOUS
 10
667.8690428295
 20
193.8711626784
 40
105.2937017334
100
AcDbArc
 50
5.2233028691
 51
5.464179711
  0
ARC
  5
3EA
100
AcDbEntity
  8
BEZUGSACHSEN
100
AcDbCircle
 62
7
  6
CONTINUOUS
 10
679.4392718789
 20
203.5109763836
 40
91.6894837685
100
AcDbArc
 50
358.9138625442
 51
0.342130308
  0
ARC
  5
3EB
100
AcDbEntity
  8
KONSTRUKTIONSELEMENTE
100
AcDbCircle
 62
7
  6
CONTINUOUS
 10
678.9894256913
 20
203.5827210258
 40
91.5114648433
100
AcDbArc
 50
358.8668212899
 51
0.2978754907
  0
ARC
  5
3EC
100
AcDbEntity
  8
BEZUGSACHSEN
100
AcDbCircle
 62
7
  6
CONTINUOUS
 10
682.6022178866
 20
195.6388191954
 40
90.6335758076
100
AcDbArc
 50
4.4726772658
 51
4.8022771823
  0
ARC
  5
3ED
100
AcDbEntity
  8
BEZUGSACHSEN
100
AcDbCircle
 62
7
  6
CONTINUOUS
 10
681.5623144579
 20
202.982795503
 40
89.7616824048
100
AcDbArc
 50
359.3992548995
 51
0.4104395024
  0
ARC
  5
3EE
100
AcDbEntity
  8
BEZUGSACHSEN
100
AcDbCircle
 62
7
  6
CONTINUOUS
 10
687.6252725218
 20
201.3990902001
 40
84.2844378281
100
AcDbArc
 50
359.2070718828
 51
0.4370974531
  0
ARC
  5
3EF
100
AcDbEntity
  8
BEZUGSACHSEN
100
AcDbCircle
 62
7
  6
CONTINUOUS
 10
690.0573011388
 20
200.7656443677
 40
82.086695357
100
AcDbArc
 50
359.1858096308
 51
0.3158261816
  0
ARC
  5
3F0
100
AcDbEntity
  8
BEZUGSACHSEN
100
AcDbCircle
 62
7
  6
CONTINUOUS
 10
694.2009775536
 20
198.3186274375
 40
78.980674325
100
AcDbArc
 50
6.1868867427
 51
6.4640353672
  0
ARC
  5
3F1
100
AcDbEntity
  8
BEZUGSACHSEN
100
AcDbCircle
 62
7
  6
CONTINUOUS
 10
701.6167452716
 20
180.3923306864
 40
76.7531638088
100
AcDbArc
 50
24.6426778303
 51
24.842163179
  0
ARC
  5
3F2
100
AcDbEntity
  8
BEZUGSACHSEN
100
AcDbCircle
 62
7
  6
CONTINUOUS
 10
698.1336358398
 20
198.541368756
 40
74.8304148532
100
AcDbArc
 50
0.9352184119
 51
1.4457383597
  0
ARC
  5
3F3
100
AcDbEntity
  8
BEZUGSACHSEN
100
AcDbCircle
 62
7
  6
CONTINUOUS
 10
698.1960258412
 20
198.5541098004
 40
74.7680132041
100
AcDbArc
 50
358.6638082286
 51
359.101750188
  0
ARC
  5
3F4
100
AcDbEntity
  8
KONSTRUKTIONSELEMENTE
100
AcDbCircle
 62
7
  6
CONTINUOUS
 10
703.8325297393
 20
170.4537625209
 40
8.25
100
AcDbArc
 50
240.8421444573
 51
315.0
  0
ARC
  5
3F5
100
AcDbEntity
  8
KONSTRUKTIONSELEMENTE
100
AcDbCircle
 62
7
  6
CONTINUOUS
 10
703.8325297393
 20
170.4537625209
 40
8.25
100
AcDbArc
 50
135.0
 51
209.1578555427
  0
ARC
  5
3F6
100
AcDbEntity
  8
KONSTRUKTIONSELEMENTE
100
AcDbCircle
 62
7
  6
CONTINUOUS
 10
703.8325297393
 20
170.4537625209
 40
3.25
100
AcDbArc
 50
268.8837571799
 51
315.0
  0
ARC
  5
3F7
100
AcDbEntity
  8
KONSTRUKTIONSELEMENTE
100
AcDbCircle
 62
7
  6
CONTINUOUS
 10
703.8325297393
 20
170.4537625209
 40
3.25
100
AcDbArc
 50
135.0
 51
181.1162428201
  0
ARC
  5
3F8
100
AcDbEntity
  8
KONSTRUKTIONSELEMENTE
100
AcDbCircle
 62
7
  6
CONTINUOUS
 10
703.1254229581
 20
169.7466557397
 40
2.25
100
AcDbArc
 50
315.0
 51
135.0
  0
ARC
  5
3F9
100
AcDbEntity
  8
0
100
AcDbCircle
 62
7
  6
CONTINUOUS
 10
738.0527226637
 20
140.4438284264
 40
10.0
100
AcDbArc
 50
330.0
 51
360.0
  0
ARC
  5
3FA
100
AcDbEntity
  8
0
100
AcDbCircle
 62
7
  6
CONTINUOUS
 10
746.5527226637
 20
107.5072887786
 40
6.0
100
AcDbArc
 50
180.0
 51
212.2268364662
  0
ARC
  5
3FB
100
AcDbEntity
  8
BEZUGSACHSEN
100
AcDbCircle
 62
7
  6
CONTINUOUS
 10
707.8437181624
 20
199.7961403949
 40
65.4056855209
100
AcDbArc
 50
5.4300663805
 51
5.81687832
  0
ARC
  5
3FC
100
AcDbEntity
  8
BEZUGSACHSEN
100
AcDbCircle
 62
7
  6
CONTINUOUS
 10
707.9317912342
 20
208.3718588957
 40
63.1931968604
100
AcDbArc
 50
0.9066424585
 51
1.3361166544
  0
ARC
  5
3FD
100
AcDbEntity
  8
BEZUGSACHSEN
100
AcDbCircle
 62
7
  6
CONTINUOUS
 10
707.9732291525
 20
208.3781453712
 40
63.1517517018
100
AcDbArc
 50
358.7530337392
 51
359.1827774094
  0
ARC
  5
3FE
100
AcDbEntity
  8
KONSTRUKTIONSELEMENTE
100
AcDbCircle
 62
7
  6
CONTINUOUS
 10
707.4857960041
 20
208.4214611259
 40
63.0151201901
100
AcDbArc
 50
0.8640991224
 51
1.2947809349
  0
ARC
  5
3FF
100
AcDbEntity
  8
KONSTRUKTIONSELEMENTE
100
AcDbCircle
 62
7
  6
CONTINUOUS
 10
707.4857960358
 20
208.4277466634
 40
63.0151201584
100
AcDbArc
 50
358.7052190651
 51
359.1359010831
  0
ARC
  5
400
100
AcDbEntity
  8
BEZUGSACHSEN
100
AcDbCircle
 62
7
  6
CONTINUOUS
 10
732.8977705854
 20
161.9233936022
 40
57.3142701949
100
AcDbArc
 50
47.7620915445
 51
47.9656892605
  0
ARC
  5
401
100
AcDbEntity
  8
BEZUGSACHSEN
100
AcDbCircle
 62
7
  6
CONTINUOUS
 10
715.9851685521
 20
209.4444440214
 40
55.404363932
100
AcDbArc
 50
354.4213562312
 51
354.8062766539
  0
ARC
  5
402
100
AcDbEntity
  8
KONSTRUKTIONSELEMENTE
100
AcDbCircle
 62
7
  6
CONTINUOUS
 10
715.4096631393
 20
209.4941910778
 40
55.3575111779
100
AcDbArc
 50
354.3648830388
 51
354.7501651226
  0
ARC
  5
403
100
AcDbEntity
  8
BEZUGSACHSEN
100
AcDbCircle
 62
7
  6
CONTINUOUS
 10
720.1311409845
 20
203.2497747254
 40
52.5947743814
100
AcDbArc
 50
359.8816381434
 51
0.2255842472
  0
ARC
  5
404
100
AcDbEntity
  8
BEZUGSACHSEN
100
AcDbCircle
 62
7
  6
CONTINUOUS
 10
721.8766257367
 20
202.4996844408
 40
51.0835753717
100
AcDbArc
 50
359.8781366833
 51
0.2322577428
  0
ARC
  5
405
100
AcDbEntity
  8
BEZUGSACHSEN
100
AcDbCircle
 62
7
  6
CONTINUOUS
 10
736.9089225469
 20
170.6645368065
 40
47.7095617078
100
AcDbArc
 50
41.1447585714
 51
41.4393910158
  0
ARC
  5
406
100
AcDbEntity
  8
BEZUGSACHSEN
100
AcDbCircle
 62
7
  6
CONTINUOUS
 10
735.0722588826
 20
211.071010819
 40
37.0061170398
100
AcDbArc
 50
348.3935226878
 51
348.6780585162
  0
ARC
  5
407
100
AcDbEntity
  8
BEZUGSACHSEN
100
AcDbCircle
 62
7
  6
CONTINUOUS
 10
735.01434121
 20
212.3379355447
 40
36.1075265347
100
AcDbArc
 50
358.1484741037
 51
0.423182333
  0
ARC
  5
408
100
AcDbEntity
  8
BEZUGSACHSEN
100
AcDbCircle
 62
7
  6
CONTINUOUS
 10
736.154236841
 20
211.4926640286
 40
35.2019197424
100
AcDbArc
 50
358.6847374026
 51
0.4345268652
  0
ARC
  5
409
100
AcDbEntity
  8
BEZUGSACHSEN
100
AcDbCircle
 62
7
  6
CONTINUOUS
 10
742.5616772712
 20
206.5635853235
 40
30.1611452013
100
AcDbArc
 50
358.4648088061
 51
0.5070878628
  0
ARC
  5
40A
100
AcDbEntity
  8
BEZUGSACHSEN
100
AcDbCircle
 62
7
  6
CONTINUOUS
 10
743.5824666223
 20
205.7198746965
 40
29.3746477058
100
AcDbArc
 50
357.721874742
 51
359.8189692269
  0
ARC
  5
40B
100
AcDbEntity
  8
BEZUGSACHSEN
100
AcDbCircle
 62
7
  6
CONTINUOUS
 10
743.6986944132
 20
205.7184954577
 40
29.258416149
100
AcDbArc
 50
359.8514620182
 51
0.5229283329
  0
ARC
  5
40C
100
AcDbEntity
  8
BEZUGSACHSEN
100
AcDbCircle
 62
7
  6
CONTINUOUS
 10
747.5404851247
 20
206.2749810526
 40
25.4161806388
100
AcDbArc
 50
2.0676937504
 51
2.4425493449
  0
ARC
  5
40D
100
AcDbEntity
  8
BEZUGSACHSEN
100
AcDbCircle
 62
7
  6
CONTINUOUS
 10
747.6159680534
 20
206.2777140174
 40
25.3406482513
100
AcDbArc
 50
1.6916834776
 51
2.0676762414
  0
ARC
  5
40E
100
AcDbEntity
  8
KONSTRUKTIONSELEMENTE
100
AcDbCircle
 62
7
  6
CONTINUOUS
 10
709.8429373794
 20
176.464170161
 40
8.25
100
AcDbArc
 50
70.1222068698
 51
135.0
  0
ARC
  5
40F
100
AcDbEntity
  8
KONSTRUKTIONSELEMENTE
100
AcDbCircle
 62
7
  6
CONTINUOUS
 10
709.8429373794
 20
176.464170161
 40
8.25
100
AcDbArc
 50
315.0
 51
19.8777931302
  0
ARC
  5
410
100
AcDbEntity
  8
KONSTRUKTIONSELEMENTE
100
AcDbCircle
 62
7
  6
CONTINUOUS
 10
742.5466260093
 20
209.1678587909
 40
3.5
100
AcDbArc
 50
315.0
 51
135.0
  0
ARC
  5
411
100
AcDbEntity
  8
KONSTRUKTIONSELEMENTE
100
AcDbCircle
 62
7
  6
CONTINUOUS
 10
709.3126072935
 20
175.9338400751
 40
3.5
100
AcDbArc
 50
156.6630838942
 51
293.3369161058
  0
ARC
  5
412
100
AcDbEntity
  8
0
100
AcDbCircle
 62
7
  6
CONTINUOUS
 10
763.0527226637
 20
112.2739554453
 40
22.5
100
AcDbArc
 50
212.2268364662
 51
327.7731635338
  0
ARC
  5
413
100
AcDbEntity
  8
0
100
AcDbCircle
 62
7
  6
CONTINUOUS
 10
750.5527226637
 20
122.094463521
 40
10.0
100
AcDbArc
 50
150.0
 51
180.0
  0
CIRCLE
  5
414
100
AcDbEntity
  8
0
100
AcDbCircle
 62
7
  6
CONTINUOUS
 10
763.0527226637
 20
112.2739554453
 40
9.0
  0
ARC
  5
415
100
AcDbEntity
  8
0
100
AcDbCircle
 62
7
  6
CONTINUOUS
 10
753.0527226637
 20
150.6277854131
 40
5.0
100
AcDbArc
 50
111.9135496435
 51
180.0
  0
ARC
  5
416
100
AcDbEntity
  8
0
100
AcDbCircle
 62
7
  6
CONTINUOUS
 10
750.0527226637
 20
158.0439839002
 40
3.0
100
AcDbArc
 50
292.0243248612
 51
357.6377964176
  0
ARC
  5
417
100
AcDbEntity
  8
RUNDUNGEN
100
AcDbCircle
 62
7
  6
CONTINUOUS
 10
775.5527226637
 20
122.094463521
 40
10.0
100
AcDbArc
 50
0.0
 51
30.0
  0
ARC
  5
418
100
AcDbEntity
  8
RUNDUNGEN
100
AcDbCircle
 62
7
  6
CONTINUOUS
 10
779.5527226637
 20
107.5072887786
 40
6.0
100
AcDbArc
 50
327.7731635338
 51
360.0
  0
ARC
  5
419
100
AcDbEntity
  8
KONSTRUKTIONSELEMENTE
100
AcDbCircle
 62
7
  6
CONTINUOUS
 10
788.0527226637
 20
140.4438284264
 40
10.0
100
AcDbArc
 50
180.0
 51
210.0
  0
ARC
  5
41A
100
AcDbEntity
  8
RUNDUNGEN
100
AcDbCircle
 62
7
  6
CONTINUOUS
 10
773.0527226637
 20
150.6277854131
 40
5.0
100
AcDbArc
 50
0.0
 51
68.0864505433
  0
ARC
  5
41B
100
AcDbEntity
  8
RUNDUNGEN
100
AcDbCircle
 62
7
  6
CONTINUOUS
 10
776.0527226637
 20
158.0439839002
 40
3.0
100
AcDbArc
 50
182.3622035824
 51
247.9756751388
  0
ARC
  5
41C
100
AcDbEntity
  8
BEZUGSACHSEN
100
AcDbCircle
 62
7
  6
CONTINUOUS
 10
766.0554775821
 20
162.8875652531
 40
40.6076916549
100
AcDbArc
 50
80.6037240984
 51
80.7188140712
  0
ARC
  5
41D
100
AcDbEntity
  8
BEZUGSACHSEN
100
AcDbCircle
 62
7
  6
CONTINUOUS
 10
748.3390840656
 20
206.0333417876
 40
24.8889557927
100
AcDbArc
 50
351.1140374909
 51
351.5849818105
  0
ARC
  5
41E
100
AcDbEntity
  8
BEZUGSACHSEN
100
AcDbCircle
 62
7
  6
CONTINUOUS
 10
752.3755945934
 20
207.3780650374
 40
20.7865989587
100
AcDbArc
 50
347.701485479
 51
348.1046884839
  0
ARC
  5
41F
100
AcDbEntity
  8
BEZUGSACHSEN
100
AcDbCircle
 62
7
  6
CONTINUOUS
 10
754.7235125895
 20
199.5836135262
 40
20.6996691763
100
AcDbArc
 50
36.1032729071
 51
36.3673171869
  0
ARC
  5
420
100
AcDbEntity
  8
BEZUGSACHSEN
100
AcDbCircle
 62
7
  6
CONTINUOUS
 10
766.9063772236
 20
209.5505263022
 40
9.5571904302
100
AcDbArc
 50
308.3524767164
 51
308.9828336289
  0
ARC
  5
421
100
AcDbEntity
  8
BEZUGSACHSEN
100
AcDbCircle
 62
7
  6
CONTINUOUS
 10
766.8607022632
 20
205.3008514188
 40
8.6097724996
100
AcDbArc
 50
59.5043560863
 51
60.0700971492
  0
ARC
  5
422
100
AcDbEntity
  8
0
100
AcDbCircle
 62
7
  6
CONTINUOUS
 10
761.0527226637
 20
205.6429300001
 40
8.0
100
AcDbArc
 50
166.25
 51
180.0
  0
ARC
  5
423
100
AcDbEntity
  8
BEZUGSACHSEN
100
AcDbCircle
 62
7
  6
CONTINUOUS
 10
765.0527226637
 20
205.6429300001
 40
8.0
100
AcDbArc
 50
0.0
 51
13.75
  0
ARC
  5
424
100
AcDbEntity
  8
0
100
AcDbCircle
 62
7
  6
CONTINUOUS
 10
763.0527226637
 20
229.6739554453
 40
58.5
100
AcDbArc
 50
279.8434887321
 51
360.0
  0
ARC
  5
425
100
AcDbEntity
  8
0
100
AcDbCircle
 62
7
  6
CONTINUOUS
 10
763.0527226637
 20
229.6739554453
 40
58.5
100
AcDbArc
 50
228.430431428
 51
260.1565112679
  0
ARC
  5
426
100
AcDbEntity
  8
0
100
AcDbCircle
 62
7
  6
CONTINUOUS
 10
763.0527226637
 20
229.6739554453
 40
58.5
100
AcDbArc
 50
180.0
 51
221.569568572
  0
ARC
  5
427
100
AcDbEntity
  8
0
100
AcDbCircle
 62
7
  6
CONTINUOUS
 10
763.0527226637
 20
304.6739554453
 40
58.5
100
AcDbArc
 50
109.9972928819
 51
180.0
  0
ARC
  5
428
100
AcDbEntity
  8
0
100
AcDbCircle
 62
7
  6
CONTINUOUS
 10
763.0527226637
 20
304.6739554453
 40
58.5
100
AcDbArc
 50
0.0
 51
70.0027071181
  0
ARC
  5
429
100
AcDbEntity
  8
KONSTRUKTIONSELEMENTE
100
AcDbCircle
 62
7
  6
CONTINUOUS
 10
734.4896499048
 20
212.3661788649
 40
36.0112399765
100
AcDbArc
 50
358.0985609926
 51
0.3793761388
  0
ARC
  5
42A
100
AcDbEntity
  8
0
100
AcDbCircle
 62
7
  6
CONTINUOUS
 10
763.0527226637
 20
229.6739554453
 40
32.5
100
AcDbArc
 50
287.9272663376
 51
360.0
  0
ARC
  5
42B
100
AcDbEntity
  8
0
100
AcDbCircle
 62
7
  6
CONTINUOUS
 10
763.0527226637
 20
229.6739554453
 40
32.5
100
AcDbArc
 50
231.1828927725
 51
252.0727336624
  0
ARC
  5
42C
100
AcDbEntity
  8
0
100
AcDbCircle
 62
7
  6
CONTINUOUS
 10
763.0527226637
 20
229.6739554453
 40
32.5
100
AcDbArc
 50
180.0
 51
218.8171072275
  0
ARC
  5
42D
100
AcDbEntity
  8
0
100
AcDbCircle
 62
7
  6
CONTINUOUS
 10
763.0527226637
 20
304.6739554453
 40
32.5
100
AcDbArc
 50
127.9910003032
 51
180.0
  0
ARC
  5
42E
100
AcDbEntity
  8
0
100
AcDbCircle
 62
7
  6
CONTINUOUS
 10
763.0527226637
 20
304.6739554453
 40
32.5
100
AcDbArc
 50
0.0
 51
52.0089996968
  0
ARC
  5
42F
100
AcDbEntity
  8
0
100
AcDbCircle
 62
7
  6
CONTINUOUS
 10
763.0527226637
 20
317.1739554453
 40
20.0
100
AcDbArc
 50
180.0
 51
360.0
  0
ARC
  5
430
100
AcDbEntity
  8
KONSTRUKTIONSELEMENTE
100
AcDbCircle
 62
7
  6
CONTINUOUS
 10
760.8715802821
 20
221.4605914532
 40
19.5819912293
100
AcDbArc
 50
299.5697675893
 51
299.948075967
  0
ARC
  5
431
100
AcDbEntity
  8
BEZUGSACHSEN
100
AcDbCircle
 62
7
  6
CONTINUOUS
 10
761.5554533119
 20
221.3157142643
 40
19.4279794798
100
AcDbArc
 50
299.6349896115
 51
300.0155266445
  0
ARC
  5
432
100
AcDbEntity
  8
BEZUGSACHSEN
100
AcDbCircle
 62
7
  6
CONTINUOUS
 10
760.6982511096
 20
215.037971077
 40
10.7029177139
100
AcDbArc
 50
346.8586631967
 51
347.7244895245
  0
ARC
  5
433
100
AcDbEntity
  8
KONSTRUKTIONSELEMENTE
100
AcDbCircle
 62
7
  6
CONTINUOUS
 10
760.0941038292
 20
215.0491672102
 40
10.6892737954
100
AcDbArc
 50
346.7799498629
 51
347.6471484995
  0
ARC
  5
434
100
AcDbEntity
  8
BEZUGSACHSEN
100
AcDbCircle
 62
7
  6
CONTINUOUS
 10
764.7297078237
 20
214.2755086981
 40
7.0870341218
100
AcDbArc
 50
339.2067163461
 51
340.0523179639
  0
ARC
  5
435
100
AcDbEntity
  8
0
100
AcDbCircle
 62
7
  6
CONTINUOUS
 10
763.0527226637
 20
817.1739554453
 40
20.0
100
AcDbArc
 50
0.0
 51
180.0
  0
SPLINE
  5
436
100
AcDbEntity
  8
KONSTRUKTIONSELEMENTE
100
AcDbSpline
 62
7
  6
CONTINUOUS
 70
0
 71
3
 72
10
 73
6
 74
0
 42
0.0000001
 43
0.0000001
 44
0.0000000001
 40
0.0
 40
0.0
 40
0.0
 40
0.0
 40
0.3116645009
 40
0.6060899939
 40
1.0
 40
1.0
 40
1.0
 40
1.0
 10
279.7250624099
 20
134.5680933757
 30
0.0
 10
279.7250624099
 20
134.7652482221
 30
0.0
 10
279.5375338533
 20
135.1365744168
 30
0.0
 10
279.0802145837
 20
135.5704475066
 30
0.0
 10
278.7018132715
 20
135.79785754
 30
0.0
 10
278.4770542982
 20
135.905445671
 30
0.0
  0
SPLINE
  5
437
100
AcDbEntity
  8
KONSTRUKTIONSELEMENTE
100
AcDbSpline
 62
7
  6
CONTINUOUS
 70
0
 71
3
 72
10
 73
6
 74
0
 42
0.0000001
 43
0.0000001
 44
0.0000000001
 40
0.0
 40
0.0
 40
0.0
 40
0.0
 40
0.3939255147
 40
0.6883533687
 40
1.0
 40
1.0
 40
1.0
 40
1.0
 10
273.9733131744
 20
135.9055575991
 30
0.0
 10
273.7485052684
 20
135.7979676984
 30
0.0
 10
273.3700427468
 20
135.5705221302
 30
0.0
 10
272.9126012291
 20
135.1366443868
 30
0.0
 10
272.7250624099
 20
134.7652646796
 30
0.0
 10
272.7250624099
 20
134.5680933757
 30
0.0
  0
SPLINE
  5
438
100
AcDbEntity
  8
KONSTRUKTIONSELEMENTE
100
AcDbSpline
 62
7
  6
CONTINUOUS
 70
0
 71
3
 72
13
 73
9
 74
0
 42
0.0000001
 43
0.0000001
 44
0.0000000001
 40
0.0
 40
0.0
 40
0.0
 40
0.0
 40
0.1194785188
 40
0.2392741704
 40
0.3602835725
 40
0.4830059608
 40
0.7355440041
 40
1.0
 40
1.0
 40
1.0
 40
1.0
 10
284.2250624099
 20
134.5680933757
 30
0.0
 10
284.2250624099
 20
134.9267329869
 30
0.0
 10
284.1489669267
 20
135.6472396159
 30
0.0
 10
283.8133906991
 20
136.6827353716
 30
0.0
 10
283.2774062338
 20
137.6410550508
 30
0.0
 10
282.3197106681
 20
138.7914348117
 30
0.0
 10
280.7333920254
 20
139.930777331
 30
0.0
 10
279.2533385829
 20
140.4583033513
 30
0.0
 10
278.4791747304
 20
140.6338594964
 30
0.0
  0
SPLINE
  5
439
100
AcDbEntity
  8
KONSTRUKTIONSELEMENTE
100
AcDbSpline
 62
7
  6
CONTINUOUS
 70
0
 71
3
 72
13
 73
9
 74
0
 42
0.0000001
 43
0.0000001
 44
0.0000000001
 40
0.0
 40
0.0
 40
0.0
 40
0.0
 40
0.2644681654
 40
0.5169944072
 40
0.6397129492
 40
0.760706397
 40
0.8805228501
 40
1.0
 40
1.0
 40
1.0
 40
1.0
 10
273.9728916311
 20
140.6342907087
 30
0.0
 10
273.1984943046
 20
140.4588106044
 30
0.0
 10
271.718003457
 20
139.9314898758
 30
0.0
 10
270.1311530499
 20
138.7921374123
 30
0.0
 10
269.1731810906
 20
137.6416948635
 30
0.0
 10
268.6368643328
 20
136.683273077
 30
0.0
 10
268.3012499962
 20
135.6475196645
 30
0.0
 10
268.2250624099
 20
134.926807646
 30
0.0
 10
268.2250624099
 20
134.5680933757
 30
0.0
  0
SPLINE
  5
43A
100
AcDbEntity
  8
KONSTRUKTIONSELEMENTE
100
AcDbSpline
 62
7
  6
CONTINUOUS
 70
0
 71
3
 72
9
 73
5
 74
0
 42
0.0000001
 43
0.0000001
 44
0.0000000001
 40
0.0
 40
0.0
 40
0.0
 40
0.0
 40
0.4991894641
 40
1.0
 40
1.0
 40
1.0
 40
1.0
 10
268.2250624099
 20
123.9614916579
 30
0.0
 10
268.2250624099
 20
123.5865133675
 30
0.0
 10
268.3082300357
 20
122.8330289591
 30
0.0
 10
268.5519520285
 20
122.1158844122
 30
0.0
 10
268.7085003462
 20
121.7738083198
 30
0.0
  0
SPLINE
  5
43B
100
AcDbEntity
  8
KONSTRUKTIONSELEMENTE
100
AcDbSpline
 62
7
  6
CONTINUOUS
 70
0
 71
3
 72
9
 73
5
 74
0
 42
0.0000001
 43
0.0000001
 44
0.0000000001
 40
0.0
 40
0.0
 40
0.0
 40
0.0
 40
0.5008476774
 40
1.0
 40
1.0
 40
1.0
 40
1.0
 10
283.7416736606
 20
121.7738058722
 30
0.0
 10
283.8982148467
 20
122.1159127683
 30
0.0
 10
284.1418549009
 20
122.8330751654
 30
0.0
 10
284.2250624099
 20
123.5865441146
 30
0.0
 10
284.2250624099
 20
123.9614916579
 30
0.0
  0
SPLINE
  5
43C
100
AcDbEntity
  8
KONSTRUKTIONSELEMENTE
100
AcDbSpline
 62
7
  6
CONTINUOUS
 70
0
 71
3
 72
10
 73
6
 74
0
 42
0.0000001
 43
0.0000001
 44
0.0000000001
 40
0.0
 40
0.0
 40
0.0
 40
0.0
 40
0.3192646009
 40
0.6086079864
 40
1.0
 40
1.0
 40
1.0
 40
1.0
 10
272.7250624099
 20
123.9614916579
 30
0.0
 10
272.7250624099
 20
123.7897518827
 30
0.0
 10
272.8670781964
 20
123.4689006678
 30
0.0
 10
273.2328842111
 20
123.0755483284
 30
0.0
 10
273.5361720438
 20
122.8625084151
 30
0.0
 10
273.7187083449
 20
122.7575938186
 30
0.0
  0
SPLINE
  5
43D
100
AcDbEntity
  8
KONSTRUKTIONSELEMENTE
100
AcDbSpline
 62
7
  6
CONTINUOUS
 70
0
 71
3
 72
10
 73
6
 74
0
 42
0.0000001
 43
0.0000001
 44
0.0000000001
 40
0.0
 40
0.0
 40
0.0
 40
0.0
 40
0.3914026107
 40
0.6807340322
 40
1.0
 40
1.0
 40
1.0
 40
1.0
 10
278.731508011
 20
122.7576462898
 30
0.0
 10
278.9140352544
 20
122.8625616993
 30
0.0
 10
279.2172748352
 20
123.0756207707
 30
0.0
 10
279.5830955398
 20
123.4689191314
 30
0.0
 10
279.7250624099
 20
123.7897618723
 30
0.0
 10
279.7250624099
 20
123.9614916579
 30
0.0
  0
SPLINE
  5
43E
100
AcDbEntity
  8
KONSTRUKTIONSELEMENTE
100
AcDbSpline
 62
7
  6
CONTINUOUS
 70
0
 71
3
 72
10
 73
6
 74
0
 42
0.0000001
 43
0.0000001
 44
0.0000000001
 40
0.0
 40
0.0
 40
0.0
 40
0.0
 40
0.3192646009
 40
0.6086079864
 40
1.0
 40
1.0
 40
1.0
 40
1.0
 10
279.7250624099
 20
165.6807917479
 30
0.0
 10
279.7250624099
 20
165.8525315231
 30
0.0
 10
279.5830466233
 20
166.173382738
 30
0.0
 10
279.2172406087
 20
166.5667350774
 30
0.0
 10
278.9139527759
 20
166.7797749907
 30
0.0
 10
278.7314164749
 20
166.8846895872
 30
0.0
  0
SPLINE
  5
43F
100
AcDbEntity
  8
KONSTRUKTIONSELEMENTE
100
AcDbSpline
 62
7
  6
CONTINUOUS
 70
0
 71
3
 72
10
 73
6
 74
0
 42
0.0000001
 43
0.0000001
 44
0.0000000001
 40
0.0
 40
0.0
 40
0.0
 40
0.0
 40
0.3914026107
 40
0.6807340322
 40
1.0
 40
1.0
 40
1.0
 40
1.0
 10
273.7186168088
 20
166.884637116
 30
0.0
 10
273.5360895653
 20
166.7797217065
 30
0.0
 10
273.2328499846
 20
166.5666626351
 30
0.0
 10
272.86702928
 20
166.1733642744
 30
0.0
 10
272.7250624099
 20
165.8525215335
 30
0.0
 10
272.7250624099
 20
165.6807917479
 30
0.0
  0
SPLINE
  5
440
100
AcDbEntity
  8
KONSTRUKTIONSELEMENTE
100
AcDbSpline
 62
7
  6
CONTINUOUS
 70
0
 71
3
 72
11
 73
7
 74
0
 42
0.0000001
 43
0.0000001
 44
0.0000000001
 40
0.0
 40
0.0
 40
0.0
 40
0.0
 40
0.24010058
 40
0.4841137023
 40
0.7364993782
 40
1.0
 40
1.0
 40
1.0
 40
1.0
 10
284.2250624099
 20
165.6807917479
 30
0.0
 10
284.2250624099
 20
166.3377918279
 30
0.0
 10
283.9606980181
 20
167.675164867
 30
0.0
 10
282.8593403836
 20
169.4090504845
 30
0.0
 10
281.228818467
 20
170.745680883
 30
0.0
 10
279.9236035127
 20
171.3262026479
 30
0.0
 10
279.2357671544
 20
171.5424586464
 30
0.0
  0
SPLINE
  5
441
100
AcDbEntity
  8
KONSTRUKTIONSELEMENTE
100
AcDbSpline
 62
7
  6
CONTINUOUS
 70
0
 71
3
 72
11
 73
7
 74
0
 42
0.0000001
 43
0.0000001
 44
0.0000000001
 40
0.0
 40
0.0
 40
0.0
 40
0.0
 40
0.2634705937
 40
0.5158307568
 40
0.7598429114
 40
1.0
 40
1.0
 40
1.0
 40
1.0
 10
273.2000113078
 20
171.5379373732
 30
0.0
 10
272.5138360496
 20
171.3210326241
 30
0.0
 10
271.2120195913
 20
170.7396613126
 30
0.0
 10
269.586365006
 20
169.4034885707
 30
0.0
 10
268.4884722402
 20
167.671841789
 30
0.0
 10
268.2250624099
 20
166.336755093
 30
0.0
 10
268.2250624099
 20
165.6807917479
 30
0.0
  0
SPLINE
  5
442
100
AcDbEntity
  8
KONSTRUKTIONSELEMENTE
100
AcDbSpline
 62
7
  6
CONTINUOUS
 70
0
 71
3
 72
9
 73
5
 74
0
 42
0.0000001
 43
0.0000001
 44
0.0000000001
 40
0.0
 40
0.0
 40
0.0
 40
0.0
 40
0.231295784
 40
1.0
 40
1.0
 40
1.0
 40
1.0
 10
258.5058686939
 20
186.5533148839
 30
0.0
 10
258.8070263165
 20
186.1769448962
 30
0.0
 10
260.2014151651
 20
184.6238440053
 30
0.0
 10
261.9198288963
 20
183.3792052207
 30
0.0
 10
263.3163551966
 20
182.5942684036
 30
0.0
  0
SPLINE
  5
443
100
AcDbEntity
  8
KONSTRUKTIONSELEMENTE
100
AcDbSpline
 62
7
  6
CONTINUOUS
 70
0
 71
3
 72
9
 73
5
 74
0
 42
0.0000001
 43
0.0000001
 44
0.0000000001
 40
0.0
 40
0.0
 40
0.0
 40
0.0
 40
0.2693689048
 40
1.0
 40
1.0
 40
1.0
 40
1.0
 10
289.1338939015
 20
182.5943324216
 30
0.0
 10
289.6232466825
 20
182.8693827302
 30
0.0
 10
291.3959684287
 20
183.9633006691
 30
0.0
 10
292.9938527981
 20
185.365305244
 30
0.0
 10
293.945009927
 20
186.5542680653
 30
0.0
  0
SPLINE
  5
444
100
AcDbEntity
  8
KONSTRUKTIONSELEMENTE
100
AcDbSpline
 62
7
  6
CONTINUOUS
 70
0
 71
3
 72
9
 73
5
 74
0
 42
0.0000001
 43
0.0000001
 44
0.0000000001
 40
0.0
 40
0.0
 40
0.0
 40
0.0
 40
0.4853819776
 40
1.0
 40
1.0
 40
1.0
 40
1.0
 10
256.2918882378
 20
178.9249401809
 30
0.0
 10
258.114929981
 20
177.4438131743
 30
0.0
 10
262.3354804441
 20
174.9451507288
 30
0.0
 10
267.0105856468
 20
173.5337723336
 30
0.0
 10
269.4569538588
 20
173.067772833
 30
0.0
  0
SPLINE
  5
445
100
AcDbEntity
  8
KONSTRUKTIONSELEMENTE
100
AcDbSpline
 62
7
  6
CONTINUOUS
 70
0
 71
3
 72
9
 73
5
 74
0
 42
0.0000001
 43
0.0000001
 44
0.0000000001
 40
0.0
 40
0.0
 40
0.0
 40
0.0
 40
0.5146328688
 40
1.0
 40
1.0
 40
1.0
 40
1.0
 10
282.9716980996
 20
173.0636928158
 30
0.0
 10
285.4219730166
 20
173.5288773787
 30
0.0
 10
290.1046762066
 20
174.9399320119
 30
0.0
 10
294.3320636814
 20
177.4413466973
 30
0.0
 10
296.1577346153
 20
178.9245287933
 30
0.0
  0
SPLINE
  5
446
100
AcDbEntity
  8
KONSTRUKTIONSELEMENTE
100
AcDbSpline
 62
7
  6
CONTINUOUS
 70
0
 71
3
 72
12
 73
8
 74
0
 42
0.0000001
 43
0.0000001
 44
0.0000000001
 40
0.0
 40
0.0
 40
0.0
 40
0.0
 40
0.1038096184
 40
0.2125411153
 40
0.4501979882
 40
0.7163641136
 40
1.0
 40
1.0
 40
1.0
 40
1.0
 10
268.8968972443
 20
23.4695381247
 30
0.0
 10
268.8490176498
 20
23.7442440523
 30
0.0
 10
268.6776177314
 20
24.2960610869
 30
0.0
 10
268.0527978076
 20
25.3421953423
 30
0.0
 10
266.7727216726
 20
26.4432531349
 30
0.0
 10
264.7916669454
 20
27.2553596828
 30
0.0
 10
263.3069483985
 20
27.4414160259
 30
0.0
 10
262.5450624099
 20
27.4414160259
 30
0.0
  0
SPLINE
  5
447
100
AcDbEntity
  8
KONSTRUKTIONSELEMENTE
100
AcDbSpline
 62
7
  6
CONTINUOUS
 70
0
 71
3
 72
9
 73
5
 74
0
 42
0.0000001
 43
0.0000001
 44
0.0000000001
 40
0.0
 40
0.0
 40
0.0
 40
0.0
 40
0.2454868499
 40
1.0
 40
1.0
 40
1.0
 40
1.0
 10
240.836368907
 20
80.3666299258
 30
0.0
 10
240.836370978
 20
80.4222125601
 30
0.0
 10
240.8208658366
 20
80.648589324
 30
0.0
 10
240.7400307247
 20
80.8686589201
 30
0.0
 10
240.6536820953
 20
81.0160652508
 30
0.0
  0
SPLINE
  5
448
100
AcDbEntity
  8
KONSTRUKTIONSELEMENTE
100
AcDbSpline
 62
7
  6
CONTINUOUS
 70
0
 71
3
 72
11
 73
7
 74
0
 42
0.0000001
 43
0.0000001
 44
0.0000000001
 40
0.0
 40
0.0
 40
0.0
 40
0.0
 40
0.2187337062
 40
0.4541366386
 40
0.7148275965
 40
1.0
 40
1.0
 40
1.0
 40
1.0
 10
229.2576307593
 20
80.126443644
 30
0.0
 10
229.2576370101
 20
80.2942113689
 30
0.0
 10
229.334532424
 20
80.6458674533
 30
0.0
 10
229.6541877935
 20
81.104810634
 30
0.0
 10
230.1380839412
 20
81.4713098035
 30
0.0
 10
230.5292806934
 20
81.6328387084
 30
0.0
 10
230.7391882113
 20
81.694319197
 30
0.0
  0
SPLINE
  5
449
100
AcDbEntity
  8
KONSTRUKTIONSELEMENTE
100
AcDbSpline
 62
7
  6
CONTINUOUS
 70
0
 71
3
 72
11
 73
7
 74
0
 42
0.0000001
 43
0.0000001
 44
0.0000000001
 40
0.0
 40
0.0
 40
0.0
 40
0.0
 40
0.2187528453
 40
0.4541377748
 40
0.7148402389
 40
1.0
 40
1.0
 40
1.0
 40
1.0
 10
219.6775657747
 20
97.8340503531
 30
0.0
 10
219.6776044216
 20
98.3933228099
 30
0.0
 10
219.9338633688
 20
99.5655178084
 30
0.0
 10
220.9994455093
 20
101.0953412235
 30
0.0
 10
222.6124936104
 20
102.316816964
 30
0.0
 10
223.9164407448
 20
102.8552980022
 30
0.0
 10
224.61609867
 20
103.0602230639
 30
0.0
  0
SPLINE
  5
44A
100
AcDbEntity
  8
KONSTRUKTIONSELEMENTE
100
AcDbSpline
 62
7
  6
CONTINUOUS
 70
0
 71
3
 72
9
 73
5
 74
0
 42
0.0000001
 43
0.0000001
 44
0.0000000001
 40
0.0
 40
0.0
 40
0.0
 40
0.0
 40
0.4910898138
 40
1.0
 40
1.0
 40
1.0
 40
1.0
 10
219.6775661392
 20
94.2984369458
 30
0.0
 10
219.6775469432
 20
93.9270148685
 30
0.0
 10
219.785163959
 20
93.1672104613
 30
0.0
 10
220.09198236
 20
92.4657662695
 30
0.0
 10
220.2865298688
 20
92.1336528979
 30
0.0
  0
SPLINE
  5
44B
100
AcDbEntity
  8
KONSTRUKTIONSELEMENTE
100
AcDbSpline
 62
7
  6
CONTINUOUS
 70
0
 71
3
 72
9
 73
5
 74
0
 42
0.0000001
 43
0.0000001
 44
0.0000000001
 40
0.0
 40
0.0
 40
0.0
 40
0.0
 40
0.4910906792
 40
1.0
 40
1.0
 40
1.0
 40
1.0
 10
302.1645432512
 20
39.7967714973
 30
0.0
 10
302.1645175843
 20
40.1682071148
 30
0.0
 10
302.2721272218
 20
40.9280401199
 30
0.0
 10
302.5789534177
 20
41.6295107176
 30
0.0
 10
302.7735073453
 20
41.9616350466
 30
0.0
  0
SPLINE
  5
44C
100
AcDbEntity
  8
KONSTRUKTIONSELEMENTE
100
AcDbSpline
 62
7
  6
CONTINUOUS
 70
0
 71
3
 72
11
 73
7
 74
0
 42
0.0000001
 43
0.0000001
 44
0.0000000001
 40
0.0
 40
0.0
 40
0.0
 40
0.0
 40
0.2239782306
 40
0.4651644091
 40
0.7245589301
 40
1.0
 40
1.0
 40
1.0
 40
1.0
 10
302.5656365883
 20
41.5637430951
 30
0.0
 10
302.7503792888
 20
41.1668280201
 30
0.0
 10
303.2544187036
 20
40.3953648667
 30
0.0
 10
304.2986368626
 20
39.4224233541
 30
0.0
 10
305.6040480552
 20
38.6320365788
 30
0.0
 10
306.5863869438
 20
38.2574674562
 30
0.0
 10
307.1030761465
 20
38.1061326925
 30
0.0
  0
SPLINE
  5
44D
100
AcDbEntity
  8
KONSTRUKTIONSELEMENTE
100
AcDbSpline
 62
7
  6
CONTINUOUS
 70
0
 71
3
 72
11
 73
7
 74
0
 42
0.0000001
 43
0.0000001
 44
0.0000000001
 40
0.0
 40
0.0
 40
0.0
 40
0.0
 40
0.2094829334
 40
0.4446557434
 40
0.7120095299
 40
1.0
 40
1.0
 40
1.0
 40
1.0
 10
265.7450624099
 20
7.0767407278
 30
0.0
 10
265.7450624099
 20
6.8518429879
 30
0.0
 10
265.8911222968
 20
6.3688131568
 30
0.0
 10
266.4503578508
 20
5.8156911403
 30
0.0
 10
267.2359171471
 20
5.4605215213
 30
0.0
 10
267.8358801544
 20
5.3796844529
 30
0.0
 10
268.1450624099
 20
5.3796844529
 30
0.0
  0
SPLINE
  5
44E
100
AcDbEntity
  8
KONSTRUKTIONSELEMENTE
100
AcDbSpline
 62
7
  6
CONTINUOUS
 70
0
 71
3
 72
9
 73
5
 74
0
 42
0.0000001
 43
0.0000001
 44
0.0000000001
 40
0.0
 40
0.0
 40
0.0
 40
0.0
 40
0.4517053273
 40
1.0
 40
1.0
 40
1.0
 40
1.0
 10
316.558560866
 20
34.9587064208
 30
0.0
 10
316.5585538778
 20
35.0726987427
 30
0.0
 10
316.4351061044
 20
35.3247397406
 30
0.0
 10
316.1974966447
 20
35.4424385995
 30
0.0
 10
316.0647076118
 20
35.4813316068
 30
0.0
  0
SPLINE
  5
44F
100
AcDbEntity
  8
KONSTRUKTIONSELEMENTE
100
AcDbSpline
 62
7
  6
CONTINUOUS
 70
0
 71
3
 72
9
 73
5
 74
0
 42
0.0000001
 43
0.0000001
 44
0.0000000001
 40
0.0
 40
0.0
 40
0.0
 40
0.0
 40
0.5089312496
 40
1.0
 40
1.0
 40
1.0
 40
1.0
 10
349.2553663024
 20
87.1275889715
 30
0.0
 10
349.4499490625
 20
87.4597625207
 30
0.0
 10
349.7568197989
 20
88.1613142475
 30
0.0
 10
349.8643362686
 20
88.9212359644
 30
0.0
 10
349.8643227616
 20
89.2926940341
 30
0.0
  0
SPLINE
  5
450
100
AcDbEntity
  8
KONSTRUKTIONSELEMENTE
100
AcDbSpline
 62
7
  6
CONTINUOUS
 70
0
 71
3
 72
9
 73
5
 74
0
 42
0.0000001
 43
0.0000001
 44
0.0000000001
 40
0.0
 40
0.0
 40
0.0
 40
0.0
 40
0.5358983849
 40
1.0
 40
1.0
 40
1.0
 40
1.0
 10
347.3682123793
 20
85.3842229643
 30
0.0
 10
347.5640815941
 20
85.3268541995
 30
0.0
 10
347.9624356708
 20
85.3203640022
 30
0.0
 10
348.3241225839
 20
85.5378565047
 30
0.0
 10
348.4134627512
 20
85.6903697102
 30
0.0
  0
SPLINE
  5
451
100
AcDbEntity
  8
KONSTRUKTIONSELEMENTE
100
AcDbSpline
 62
7
  6
CONTINUOUS
 70
0
 71
3
 72
9
 73
5
 74
0
 42
0.0000001
 43
0.0000001
 44
0.0000000001
 40
0.0
 40
0.0
 40
0.0
 40
0.0
 40
0.2586509047
 40
1.0
 40
1.0
 40
1.0
 40
1.0
 10
316.497664492
 20
31.2066940748
 30
0.0
 10
316.5075289316
 20
31.2235337266
 30
0.0
 10
316.541822733
 20
31.2907824934
 30
0.0
 10
316.5585642951
 20
31.3672349654
 30
0.0
 10
316.558560866
 20
31.4231725149
 30
0.0
  0
SPLINE
  5
452
100
AcDbEntity
  8
KONSTRUKTIONSELEMENTE
100
AcDbSpline
 62
7
  6
CONTINUOUS
 70
0
 71
3
 72
11
 73
7
 74
0
 42
0.0000001
 43
0.0000001
 44
0.0000000001
 40
0.0
 40
0.0
 40
0.0
 40
0.0
 40
0.2745288198
 40
0.5376308219
 40
0.7805434542
 40
1.0
 40
1.0
 40
1.0
 40
1.0
 10
310.2829438495
 20
27.4414160259
 30
0.0
 10
310.866698117
 20
27.4414160259
 30
0.0
 10
312.0136550889
 20
27.5588227553
 30
0.0
 10
313.6043263703
 20
28.0788657797
 30
0.0
 10
314.9284167428
 20
28.902217104
 30
0.0
 10
315.5903533806
 20
29.657817124
 30
0.0
 10
315.8262210446
 20
30.0604684126
 30
0.0
  0
SPLINE
  5
453
100
AcDbEntity
  8
KONSTRUKTIONSELEMENTE
100
AcDbSpline
 62
7
  6
CONTINUOUS
 70
0
 71
3
 72
12
 73
8
 74
0
 42
0.0000001
 43
0.0000001
 44
0.0000000001
 40
0.0
 40
0.0
 40
0.0
 40
0.0
 40
0.2874378001
 40
0.5543027143
 40
0.7890463209
 40
0.896415877
 40
1.0
 40
1.0
 40
1.0
 40
1.0
 10
289.9050624099
 20
27.4414160259
 30
0.0
 10
289.0806142883
 20
27.4414160259
 30
0.0
 10
287.4807693568
 20
27.224585181
 30
0.0
 10
285.3856944911
 20
26.2826946731
 30
0.0
 10
284.1084217474
 20
25.004866523
 30
0.0
 10
283.5914142942
 20
23.8211908561
 30
0.0
 10
283.5050624099
 20
23.2130394633
 30
0.0
 10
283.5050624099
 20
22.9159326263
 30
0.0
  0
SPLINE
  5
454
100
AcDbEntity
  8
KONSTRUKTIONSELEMENTE
100
AcDbSpline
 62
7
  6
CONTINUOUS
 70
0
 71
3
 72
11
 73
7
 74
0
 42
0.0000001
 43
0.0000001
 44
0.0000000001
 40
0.0
 40
0.0
 40
0.0
 40
0.0
 40
0.2187538164
 40
0.4541436435
 40
0.7148565427
 40
1.0
 40
1.0
 40
1.0
 40
1.0
 10
349.8643227616
 20
92.82822794
 30
0.0
 10
349.8643024256
 20
93.3874860764
 30
0.0
 10
349.6079596705
 20
94.5596583275
 30
0.0
 10
348.5423111985
 20
96.0894011436
 30
0.0
 10
346.9292933452
 20
97.3108114272
 30
0.0
 10
345.6253944031
 20
97.8492519491
 30
0.0
 10
344.9257975012
 20
98.0541591376
 30
0.0
  0
SPLINE
  5
455
100
AcDbEntity
  8
KONSTRUKTIONSELEMENTE
100
AcDbSpline
 62
7
  6
CONTINUOUS
 70
0
 71
3
 72
9
 73
5
 74
0
 42
0.0000001
 43
0.0000001
 44
0.0000000001
 40
0.0
 40
0.0
 40
0.0
 40
0.0
 40
0.2578752243
 40
1.0
 40
1.0
 40
1.0
 40
1.0
 10
238.1302244714
 20
83.8591035976
 30
0.0
 10
238.1919228297
 20
83.8771746283
 30
0.0
 10
238.4288026348
 20
83.9549036819
 30
0.0
 10
238.6560861234
 20
84.0635095685
 30
0.0
 10
238.8124174197
 20
84.1624643624
 30
0.0
  0
SPLINE
  5
456
100
AcDbEntity
  8
KONSTRUKTIONSELEMENTE
100
AcDbSpline
 62
7
  6
CONTINUOUS
 70
0
 71
3
 72
11
 73
7
 74
0
 42
0.0000001
 43
0.0000001
 44
0.0000000001
 40
0.0
 40
0.0
 40
0.0
 40
0.0
 40
0.2879904701
 40
0.5553442566
 40
0.7905170666
 40
1.0
 40
1.0
 40
1.0
 40
1.0
 10
284.3050624099
 20
5.3796844529
 30
0.0
 10
284.6142446654
 20
5.3796844529
 30
0.0
 10
285.2142076726
 20
5.4605215213
 30
0.0
 10
285.999766969
 20
5.8156911403
 30
0.0
 10
286.559002523
 20
6.3688131568
 30
0.0
 10
286.7050624099
 20
6.8518429879
 30
0.0
 10
286.7050624099
 20
7.0767407278
 30
0.0
  0
SPLINE
  5
457
100
AcDbEntity
  8
KONSTRUKTIONSELEMENTE
100
AcDbSpline
 62
7
  6
CONTINUOUS
 70
0
 71
3
 72
11
 73
7
 74
0
 42
0.0000001
 43
0.0000001
 44
0.0000000001
 40
0.0
 40
0.0
 40
0.0
 40
0.0
 40
0.2809363762
 40
0.5390132064
 40
0.7759685789
 40
1.0
 40
1.0
 40
1.0
 40
1.0
 10
289.7000906238
 20
27.3134166591
 30
0.0
 10
289.2613814739
 20
27.1184998721
 30
0.0
 10
288.4530421133
 20
26.6590573532
 30
0.0
 10
287.4784337847
 20
25.7380523069
 30
0.0
 10
286.8518260927
 20
24.6582775677
 30
0.0
 10
286.7050624099
 20
23.8644402456
 30
0.0
 10
286.7050624099
 20
23.4816180513
 30
0.0
  0
SPLINE
  5
458
100
AcDbEntity
  8
KONSTRUKTIONSELEMENTE
100
AcDbSpline
 62
7
  6
CONTINUOUS
 70
0
 71
3
 72
11
 73
7
 74
0
 42
0.0000001
 43
0.0000001
 44
0.0000000001
 40
0.0
 40
0.0
 40
0.0
 40
0.0
 40
0.2764757917
 40
0.5326342242
 40
0.7713875913
 40
1.0
 40
1.0
 40
1.0
 40
1.0
 10
263.4467831446
 20
27.3945272163
 30
0.0
 10
263.7918562686
 20
27.190799426
 30
0.0
 10
264.4225853625
 20
26.7345800579
 30
0.0
 10
265.1671716933
 20
25.8861213056
 30
0.0
 10
265.6368355769
 20
24.9335440899
 30
0.0
 10
265.7450624099
 20
24.2519824745
 30
0.0
 10
265.7450624099
 20
23.9206308867
 30
0.0
  0
SPLINE
  5
459
100
AcDbEntity
  8
KONSTRUKTIONSELEMENTE
100
AcDbSpline
 62
7
  6
CONTINUOUS
 70
0
 71
3
 72
9
 73
5
 74
0
 42
0.0000001
 43
0.0000001
 44
0.0000000001
 40
0.0
 40
0.0
 40
0.0
 40
0.0
 40
0.2584251542
 40
1.0
 40
1.0
 40
1.0
 40
1.0
 10
229.440317571
 20
77.0728452629
 30
0.0
 10
229.4107505962
 20
77.1233192461
 30
0.0
 10
229.3079374095
 20
77.3250930321
 30
0.0
 10
229.257624505
 20
77.554419762
 30
0.0
 10
229.2576307593
 20
77.7222805879
 30
0.0
  0
SPLINE
  5
45A
100
AcDbEntity
  8
KONSTRUKTIONSELEMENTE
100
AcDbSpline
 62
7
  6
CONTINUOUS
 70
0
 71
3
 72
8
 73
4
 74
0
 42
0.0000001
 43
0.0000001
 44
0.0000000001
 40
0.0
 40
0.0
 40
0.0
 40
0.0
 40
1.0
 40
1.0
 40
1.0
 40
1.0
 10
221.8172635983
 20
89.5205269681
 30
0.0
 10
221.8698744107
 20
89.4307146935
 30
0.0
 10
221.9322833104
 20
89.3461692461
 30
0.0
 10
222.0013498395
 20
89.268297834
 30
0.0
  0
SPLINE
  5
45B
100
AcDbEntity
  8
KONSTRUKTIONSELEMENTE
100
AcDbSpline
 62
7
  6
CONTINUOUS
 70
0
 71
3
 72
9
 73
5
 74
0
 42
0.0000001
 43
0.0000001
 44
0.0000000001
 40
0.0
 40
0.0
 40
0.0
 40
0.0
 40
0.4654013423
 40
1.0
 40
1.0
 40
1.0
 40
1.0
 10
256.1367576914
 20
30.9334858748
 30
0.0
 10
256.6185809373
 20
30.1109621445
 30
0.0
 10
258.175819909
 20
28.6476593848
 30
0.0
 10
260.1334492174
 20
27.915113132
 30
0.0
 10
261.2040542062
 20
27.6853120456
 30
0.0
  0
SPLINE
  5
45C
100
AcDbEntity
  8
KONSTRUKTIONSELEMENTE
100
AcDbSpline
 62
7
  6
CONTINUOUS
 70
0
 71
3
 72
11
 73
7
 74
0
 42
0.0000001
 43
0.0000001
 44
0.0000000001
 40
0.0
 40
0.0
 40
0.0
 40
0.0
 40
0.2180723574
 40
0.4659823302
 40
0.7329881953
 40
1.0
 40
1.0
 40
1.0
 40
1.0
 10
327.9540771949
 20
84.9475565911
 30
0.0
 10
328.379494457
 20
85.6737892839
 30
0.0
 10
329.6960581653
 20
86.9922205295
 30
0.0
 10
332.3166399503
 20
88.1682412912
 30
0.0
 10
335.3432909292
 20
88.5804414946
 30
0.0
 10
337.4175838458
 20
88.2986945847
 30
0.0
 10
338.406580914
 20
88.00902405
 30
0.0
  0
SPLINE
  5
45D
100
AcDbEntity
  8
KONSTRUKTIONSELEMENTE
100
AcDbSpline
 62
7
  6
CONTINUOUS
 70
0
 71
3
 72
11
 73
7
 74
0
 42
0.0000001
 43
0.0000001
 44
0.0000000001
 40
0.0
 40
0.0
 40
0.0
 40
0.0
 40
0.2187538164
 40
0.4541436435
 40
0.7148565427
 40
1.0
 40
1.0
 40
1.0
 40
1.0
 10
349.8643227616
 20
89.2926940341
 30
0.0
 10
349.8643024256
 20
89.8519521705
 30
0.0
 10
349.6079596705
 20
91.0241244215
 30
0.0
 10
348.5423111985
 20
92.5538672377
 30
0.0
 10
346.9292933452
 20
93.7752775212
 30
0.0
 10
345.6253944031
 20
94.3137180432
 30
0.0
 10
344.9257975012
 20
94.5186252316
 30
0.0
  0
SPLINE
  5
45E
100
AcDbEntity
  8
KONSTRUKTIONSELEMENTE
100
AcDbSpline
 62
7
  6
CONTINUOUS
 70
0
 71
3
 72
9
 73
5
 74
0
 42
0.0000001
 43
0.0000001
 44
0.0000000001
 40
0.0
 40
0.0
 40
0.0
 40
0.0
 40
0.5320967265
 40
1.0
 40
1.0
 40
1.0
 40
1.0
 10
239.354811455
 20
79.3644397977
 30
0.0
 10
239.6303195494
 20
79.4451342503
 30
0.0
 10
240.1316076413
 20
79.66946262
 30
0.0
 10
240.5259793383
 20
80.0650838166
 30
0.0
 10
240.6535790835
 20
80.2829102069
 30
0.0
  0
SPLINE
  5
45F
100
AcDbEntity
  8
KONSTRUKTIONSELEMENTE
100
AcDbSpline
 62
7
  6
CONTINUOUS
 70
0
 71
3
 72
8
 73
4
 74
0
 42
0.0000001
 43
0.0000001
 44
0.0000000001
 40
0.0
 40
0.0
 40
0.0
 40
0.0
 40
1.0
 40
1.0
 40
1.0
 40
1.0
 10
240.6535790835
 20
80.2829102069
 30
0.0
 10
240.7005419786
 20
80.3630808836
 30
0.0
 10
240.7401601037
 20
80.4481743876
 30
0.0
 10
240.7700590263
 20
80.536145436
 30
0.0
  0
SPLINE
  5
460
100
AcDbEntity
  8
KONSTRUKTIONSELEMENTE
100
AcDbSpline
 62
7
  6
CONTINUOUS
 70
0
 71
3
 72
11
 73
7
 74
0
 42
0.0000001
 43
0.0000001
 44
0.0000000001
 40
0.0
 40
0.0
 40
0.0
 40
0.0
 40
0.2819831575
 40
0.5426850885
 40
0.7803647343
 40
1.0
 40
1.0
 40
1.0
 40
1.0
 10
238.1302244714
 20
81.4549405415
 30
0.0
 10
238.3202010415
 20
81.5105833906
 30
0.0
 10
238.6768449297
 20
81.6537616316
 30
0.0
 10
239.1304835132
 20
81.9706011136
 30
0.0
 10
239.4557972947
 20
82.3651049754
 30
0.0
 10
239.5703870771
 20
82.6736138638
 30
0.0
 10
239.5955476798
 20
82.8257353505
 30
0.0
  0
SPLINE
  5
461
100
AcDbEntity
  8
KONSTRUKTIONSELEMENTE
100
AcDbSpline
 62
7
  6
CONTINUOUS
 70
0
 71
3
 72
9
 73
5
 74
0
 42
0.0000001
 43
0.0000001
 44
0.0000000001
 40
0.0
 40
0.0
 40
0.0
 40
0.0
 40
0.4517053273
 40
1.0
 40
1.0
 40
1.0
 40
1.0
 10
316.558560866
 20
31.4231725149
 30
0.0
 10
316.5585538778
 20
31.5371648367
 30
0.0
 10
316.4351061044
 20
31.7892058347
 30
0.0
 10
316.1974966447
 20
31.9069046936
 30
0.0
 10
316.0647076118
 20
31.9457977008
 30
0.0
  0
SPLINE
  5
462
100
AcDbEntity
  8
KONSTRUKTIONSELEMENTE
100
AcDbSpline
 62
7
  6
CONTINUOUS
 70
0
 71
3
 72
11
 73
7
 74
0
 42
0.0000001
 43
0.0000001
 44
0.0000000001
 40
0.0
 40
0.0
 40
0.0
 40
0.0
 40
0.2187337062
 40
0.4541366386
 40
0.7148275965
 40
1.0
 40
1.0
 40
1.0
 40
1.0
 10
229.2576307593
 20
77.7222805879
 30
0.0
 10
229.2576370101
 20
77.8900483128
 30
0.0
 10
229.334532424
 20
78.2417043972
 30
0.0
 10
229.6541877935
 20
78.7006475779
 30
0.0
 10
230.1380839412
 20
79.0671467475
 30
0.0
 10
230.5292806934
 20
79.2286756524
 30
0.0
 10
230.7391882113
 20
79.2901561409
 30
0.0
  0
SPLINE
  5
463
100
AcDbEntity
  8
KONSTRUKTIONSELEMENTE
100
AcDbSpline
 62
7
  6
CONTINUOUS
 70
0
 71
3
 72
11
 73
7
 74
0
 42
0.0000001
 43
0.0000001
 44
0.0000000001
 40
0.0
 40
0.0
 40
0.0
 40
0.0
 40
0.2851724035
 40
0.5458633614
 40
0.7812662938
 40
1.0
 40
1.0
 40
1.0
 40
1.0
 10
239.354811455
 20
78.7987543728
 30
0.0
 10
239.564718973
 20
78.8602348614
 30
0.0
 10
239.9559157251
 20
79.0217637662
 30
0.0
 10
240.4398118728
 20
79.3882629358
 30
0.0
 10
240.7594672423
 20
79.8472061165
 30
0.0
 10
240.8363626562
 20
80.1988622009
 30
0.0
 10
240.836368907
 20
80.3666299258
 30
0.0
  0
SPLINE
  5
464
100
AcDbEntity
  8
KONSTRUKTIONSELEMENTE
100
AcDbSpline
 62
7
  6
CONTINUOUS
 70
0
 71
3
 72
11
 73
7
 74
0
 42
0.0000001
 43
0.0000001
 44
0.0000000001
 40
0.0
 40
0.0
 40
0.0
 40
0.0
 40
0.2851562407
 40
0.5458562973
 40
0.7812472715
 40
1.0
 40
1.0
 40
1.0
 40
1.0
 10
224.61609867
 20
99.524689158
 30
0.0
 10
223.916442342
 20
99.319764564
 30
0.0
 10
222.612496665
 20
98.7812834243
 30
0.0
 10
220.9994301661
 20
97.5597981317
 30
0.0
 10
219.9338401312
 20
96.0299415703
 30
0.0
 10
219.677595044
 20
94.8577147321
 30
0.0
 10
219.6775661392
 20
94.2984369458
 30
0.0
  0
SPLINE
  5
465
100
AcDbEntity
  8
KONSTRUKTIONSELEMENTE
100
AcDbSpline
 62
7
  6
CONTINUOUS
 70
0
 71
3
 72
11
 73
7
 74
0
 42
0.0000001
 43
0.0000001
 44
0.0000000001
 40
0.0
 40
0.0
 40
0.0
 40
0.0
 40
0.2851597611
 40
0.5458622252
 40
0.7812471547
 40
1.0
 40
1.0
 40
1.0
 40
1.0
 10
307.1030761465
 20
34.5705987865
 30
0.0
 10
306.4034182214
 20
34.7755238483
 30
0.0
 10
305.0994710869
 20
35.3140048864
 30
0.0
 10
303.4864229858
 20
36.5354806269
 30
0.0
 10
302.4208408453
 20
38.0653040421
 30
0.0
 10
302.1645818981
 20
39.2374990406
 30
0.0
 10
302.1645432512
 20
39.7967714973
 30
0.0
  0
SPLINE
  5
466
100
AcDbEntity
  8
KONSTRUKTIONSELEMENTE
100
AcDbSpline
 62
7
  6
CONTINUOUS
 70
0
 71
3
 72
9
 73
5
 74
0
 42
0.0000001
 43
0.0000001
 44
0.0000000001
 40
0.0
 40
0.0
 40
0.0
 40
0.0
 40
0.5050884231
 40
1.0
 40
1.0
 40
1.0
 40
1.0
 10
300.522531597
 20
104.3076534094
 30
0.0
 10
300.1688461278
 20
103.6823844189
 30
0.0
 10
299.5557493481
 20
102.3896666185
 30
0.0
 10
299.2570832867
 20
100.9780454522
 30
0.0
 10
299.2164691512
 20
100.2753228108
 30
0.0
  0
SPLINE
  5
467
100
AcDbEntity
  8
KONSTRUKTIONSELEMENTE
100
AcDbSpline
 62
7
  6
CONTINUOUS
 70
0
 71
3
 72
9
 73
5
 74
0
 42
0.0000001
 43
0.0000001
 44
0.0000000001
 40
0.0
 40
0.0
 40
0.0
 40
0.0
 40
0.5001118291
 40
1.0
 40
1.0
 40
1.0
 40
1.0
 10
251.7603150445
 20
107.5072887786
 30
0.0
 10
252.012220049
 20
108.1757022469
 30
0.0
 10
252.4232632885
 20
109.5506995496
 30
0.0
 10
252.5729504534
 20
110.9823304005
 30
0.0
 10
252.5729504534
 20
111.6963166953
 30
0.0
  0
SPLINE
  5
468
100
AcDbEntity
  8
KONSTRUKTIONSELEMENTE
100
AcDbSpline
 62
7
  6
CONTINUOUS
 70
0
 71
3
 72
9
 73
5
 74
0
 42
0.0000001
 43
0.0000001
 44
0.0000000001
 40
0.0
 40
0.0
 40
0.0
 40
0.0
 40
0.4998905156
 40
1.0
 40
1.0
 40
1.0
 40
1.0
 10
299.8771743663
 20
111.6963166953
 30
0.0
 10
299.8771743663
 20
110.9823270356
 30
0.0
 10
300.0268611246
 20
109.5506959449
 30
0.0
 10
300.4379059461
 20
108.1756991281
 30
0.0
 10
300.6898097752
 20
107.5072887786
 30
0.0
  0
SPLINE
  5
469
100
AcDbEntity
  8
KONSTRUKTIONSELEMENTE
100
AcDbSpline
 62
7
  6
CONTINUOUS
 70
0
 71
3
 72
11
 73
7
 74
0
 42
0.0000001
 43
0.0000001
 44
0.0000000001
 40
0.0
 40
0.0
 40
0.0
 40
0.0
 40
0.2556575941
 40
0.5072684484
 40
0.7547532783
 40
1.0
 40
1.0
 40
1.0
 40
1.0
 10
252.5729504534
 20
122.094463521
 30
0.0
 10
252.5729504534
 20
122.6160571635
 30
0.0
 10
252.752932172
 20
123.6582411396
 30
0.0
 10
253.4741240703
 20
125.0398066914
 30
0.0
 10
254.4851512953
 20
126.1874983701
 30
0.0
 10
255.2785110346
 20
126.8123677781
 30
0.0
 10
255.6917609053
 20
127.094463521
 30
0.0
  0
LINE
  5
46A
100
AcDbEntity
  8
0
100
AcDbLine
 62
7
  6
CONTINUOUS
 10
299.2164691512
 20
100.2753228108
 11
298.5957345128
 21
89.7739903684
  0
SPLINE
  5
46B
100
AcDbEntity
  8
KONSTRUKTIONSELEMENTE
100
AcDbSpline
 62
7
  6
CONTINUOUS
 70
0
 71
3
 72
11
 73
7
 74
0
 42
0.0000001
 43
0.0000001
 44
0.0000000001
 40
0.0
 40
0.0
 40
0.0
 40
0.0
 40
0.2452487878
 40
0.492735829
 40
0.7443459021
 40
1.0
 40
1.0
 40
1.0
 40
1.0
 10
296.7583639145
 20
127.094463521
 30
0.0
 10
297.1716172659
 20
126.812365402
 30
0.0
 10
297.9649836312
 20
126.187490131
 30
0.0
 10
298.9760128108
 20
125.0397901056
 30
0.0
 10
299.6971961175
 20
123.6582249066
 30
0.0
 10
299.8771743663
 20
122.6160500294
 30
0.0
 10
299.8771743663
 20
122.094463521
 30
0.0
  0
LINE
  5
46C
100
AcDbEntity
  8
0
100
AcDbLine
 62
7
  6
CONTINUOUS
 10
253.8543903069
 20
89.7739903684
 11
253.2336556686
 21
100.2753228108
  0
SPLINE
  5
46D
100
AcDbEntity
  8
KONSTRUKTIONSELEMENTE
100
AcDbSpline
 62
7
  6
CONTINUOUS
 70
0
 71
3
 72
9
 73
5
 74
0
 42
0.0000001
 43
0.0000001
 44
0.0000000001
 40
0.0
 40
0.0
 40
0.0
 40
0.0
 40
0.4812541925
 40
1.0
 40
1.0
 40
1.0
 40
1.0
 10
251.9275932227
 20
104.3076534094
 30
0.0
 10
251.6681670181
 20
104.7662845243
 30
0.0
 10
251.3540557463
 20
105.8629036151
 30
0.0
 10
251.5600167603
 20
106.9758103701
 30
0.0
 10
251.7603150445
 20
107.5072887786
 30
0.0
  0
SPLINE
  5
46E
100
AcDbEntity
  8
KONSTRUKTIONSELEMENTE
100
AcDbSpline
 62
7
  6
CONTINUOUS
 70
0
 71
3
 72
9
 73
5
 74
0
 42
0.0000001
 43
0.0000001
 44
0.0000000001
 40
0.0
 40
0.0
 40
0.0
 40
0.0
 40
0.5187552106
 40
1.0
 40
1.0
 40
1.0
 40
1.0
 10
300.6898097752
 20
107.5072887786
 30
0.0
 10
300.890111725
 20
106.975800644
 30
0.0
 10
301.0960712187
 20
105.8628910325
 30
0.0
 10
300.7819527778
 20
104.7662756427
 30
0.0
 10
300.522531597
 20
104.3076534094
 30
0.0
  0
SPLINE
  5
46F
100
AcDbEntity
  8
KONSTRUKTIONSELEMENTE
100
AcDbSpline
 62
7
  6
CONTINUOUS
 70
0
 71
3
 72
9
 73
5
 74
0
 42
0.0000001
 43
0.0000001
 44
0.0000000001
 40
0.0
 40
0.0
 40
0.0
 40
0.0
 40
0.4949126613
 40
1.0
 40
1.0
 40
1.0
 40
1.0
 10
253.2336556686
 20
100.2753228108
 30
0.0
 10
253.1930414429
 20
100.9780470129
 30
0.0
 10
252.8943760433
 20
102.3896685086
 30
0.0
 10
252.2812779431
 20
103.6823857429
 30
0.0
 10
251.9275932227
 20
104.3076534094
 30
0.0
  0
LINE
  5
470
100
AcDbEntity
  8
BEZUGSACHSEN
100
AcDbLine
 62
7
  6
CONTINUOUS
 10
772.9335740613
 20
207.3581581014
 11
772.8789883743
 21
207.5594746455
  0
LINE
  5
471
100
AcDbEntity
  8
BEZUGSACHSEN
100
AcDbLine
 62
7
  6
CONTINUOUS
 10
772.8789883743
 20
207.5594746455
 11
772.8168388802
 21
207.7886775818
  0
LINE
  5
472
100
AcDbEntity
  8
BEZUGSACHSEN
100
AcDbLine
 62
7
  6
CONTINUOUS
 10
772.8168388802
 20
207.7886775818
 11
772.6371360543
 21
208.4513535367
  0
LINE
  5
473
100
AcDbEntity
  8
BEZUGSACHSEN
100
AcDbLine
 62
7
  6
CONTINUOUS
 10
772.6371360543
 20
208.4513535367
 11
772.6334000838
 21
208.4651295326
  0
LINE
  5
474
100
AcDbEntity
  8
BEZUGSACHSEN
100
AcDbLine
 62
7
  6
CONTINUOUS
 10
772.6334000838
 20
208.4651295326
 11
772.4390121991
 21
209.1818687863
  0
LINE
  5
475
100
AcDbEntity
  8
BEZUGSACHSEN
100
AcDbLine
 62
7
  6
CONTINUOUS
 10
772.4390121991
 20
209.1818687863
 11
772.4269242403
 21
209.2264361538
  0
LINE
  5
476
100
AcDbEntity
  8
BEZUGSACHSEN
100
AcDbLine
 62
7
  6
CONTINUOUS
 10
772.4269242403
 20
209.2264361538
 11
772.2731523166
 21
209.7933533055
  0
LINE
  5
477
100
AcDbEntity
  8
BEZUGSACHSEN
100
AcDbLine
 62
7
  6
CONTINUOUS
 10
772.7119963851
 20
205.7555400411
 11
772.6286552951
 21
206.0565186079
  0
LINE
  5
478
100
AcDbEntity
  8
BEZUGSACHSEN
100
AcDbLine
 62
7
  6
CONTINUOUS
 10
772.6286552951
 20
206.0565186079
 11
771.3468819456
 21
210.6846515969
  0
LINE
  5
479
100
AcDbEntity
  8
BEZUGSACHSEN
100
AcDbLine
 62
7
  6
CONTINUOUS
 10
771.2299280816
 20
212.7196146744
 11
771.2678285947
 21
212.6378690845
  0
LINE
  5
47A
100
AcDbEntity
  8
BEZUGSACHSEN
100
AcDbLine
 62
7
  6
CONTINUOUS
 10
771.3796747325
 20
212.395171618
 11
771.5317875128
 21
211.9512869535
  0
LINE
  5
47B
100
AcDbEntity
  8
BEZUGSACHSEN
100
AcDbLine
 62
7
  6
CONTINUOUS
 10
771.5317875128
 20
211.9512869535
 11
771.5459715995
 21
211.903878582
  0
LINE
  5
47C
100
AcDbEntity
  8
BEZUGSACHSEN
100
AcDbLine
 62
7
  6
CONTINUOUS
 10
771.5459715995
 20
211.903878582
 11
771.6765562485
 21
211.467240862
  0
LINE
  5
47D
100
AcDbEntity
  8
BEZUGSACHSEN
100
AcDbLine
 62
7
  6
CONTINUOUS
 10
771.6765562485
 20
211.467240862
 11
771.7245001118
 21
211.306848668
  0
LINE
  5
47E
100
AcDbEntity
  8
BEZUGSACHSEN
100
AcDbLine
 62
7
  6
CONTINUOUS
 10
771.7245001118
 20
211.306848668
 11
771.8173520014
 21
210.9711428616
  0
LINE
  5
47F
100
AcDbEntity
  8
BEZUGSACHSEN
100
AcDbLine
 62
7
  6
CONTINUOUS
 10
771.8173520014
 20
210.9711428616
 11
771.8717066349
 21
210.774615926
  0
LINE
  5
480
100
AcDbEntity
  8
BEZUGSACHSEN
100
AcDbLine
 62
7
  6
CONTINUOUS
 10
771.8717066349
 20
210.774615926
 11
772.3087016186
 21
209.1943723855
  0
LINE
  5
481
100
AcDbEntity
  8
BEZUGSACHSEN
100
AcDbLine
 62
7
  6
CONTINUOUS
 10
772.5056918028
 20
208.4304928864
 11
772.3087016186
 21
209.1943723855
  0
LINE
  5
482
100
AcDbEntity
  8
BEZUGSACHSEN
100
AcDbLine
 62
7
  6
CONTINUOUS
 10
772.6658093381
 20
207.7477235402
 11
772.5056918028
 21
208.4304928864
  0
LINE
  5
483
100
AcDbEntity
  8
BEZUGSACHSEN
100
AcDbLine
 62
7
  6
CONTINUOUS
 10
772.8290732304
 20
206.9455126352
 11
772.7481166105
 21
207.344296395
  0
LINE
  5
484
100
AcDbEntity
  8
BEZUGSACHSEN
100
AcDbLine
 62
7
  6
CONTINUOUS
 10
772.7481166105
 20
207.344296395
 11
772.6658093381
 21
207.7477235402
  0
LINE
  5
485
100
AcDbEntity
  8
BEZUGSACHSEN
100
AcDbLine
 62
7
  6
CONTINUOUS
 10
772.9569677052
 20
205.6270632123
 11
772.9570122403
 21
205.6426437762
  0
LINE
  5
486
100
AcDbEntity
  8
BEZUGSACHSEN
100
AcDbLine
 62
7
  6
CONTINUOUS
 10
772.5127305165
 20
205.2658945961
 11
772.414500399
 21
205.6171766785
  0
LINE
  5
487
100
AcDbEntity
  8
BEZUGSACHSEN
100
AcDbLine
 62
7
  6
CONTINUOUS
 10
772.414500399
 20
205.6171766785
 11
772.3158573181
 21
205.9699012005
  0
LINE
  5
488
100
AcDbEntity
  8
BEZUGSACHSEN
100
AcDbLine
 62
7
  6
CONTINUOUS
 10
772.6724915056
 20
204.6079719225
 11
772.5127305165
 21
205.2658945961
  0
SPLINE
  5
489
100
AcDbEntity
  8
BEZUGSACHSEN
100
AcDbSpline
 62
7
  6
CONTINUOUS
 70
0
 71
3
 72
8
 73
4
 74
0
 42
0.0000001
 43
0.0000001
 44
0.0000000001
 40
0.0
 40
0.0
 40
0.0
 40
0.0
 40
1.0
 40
1.0
 40
1.0
 40
1.0
 10
772.8349433289
 20
203.7921863691
 30
0.0
 10
772.7946510136
 20
203.9955698903
 30
0.0
 10
772.7542056038
 20
204.1989231365
 30
0.0
 10
772.7136140145
 20
204.4022471396
 30
0.0
  0
LINE
  5
48A
100
AcDbEntity
  8
BEZUGSACHSEN
100
AcDbLine
 62
7
  6
CONTINUOUS
 10
772.7136140145
 20
204.4022471396
 11
772.6724915056
 21
204.6079719225
  0
LINE
  5
48B
100
AcDbEntity
  8
BEZUGSACHSEN
100
AcDbLine
 62
7
  6
CONTINUOUS
 10
772.9186864719
 20
202.1213926769
 11
772.9293161455
 21
202.1887863244
  0
LINE
  5
48C
100
AcDbEntity
  8
BEZUGSACHSEN
100
AcDbLine
 62
7
  6
CONTINUOUS
 10
772.0595700491
 20
202.0006661224
 11
772.414281335
 21
201.3705409884
  0
LINE
  5
48D
100
AcDbEntity
  8
BEZUGSACHSEN
100
AcDbLine
 62
7
  6
CONTINUOUS
 10
771.9759950765
 20
202.5927506222
 11
771.8461681742
 21
203.1633012768
  0
LINE
  5
48E
100
AcDbEntity
  8
BEZUGSACHSEN
100
AcDbLine
 62
7
  6
CONTINUOUS
 10
771.8461681742
 20
203.1633012768
 11
771.8148115542
 21
203.3007685922
  0
LINE
  5
48F
100
AcDbEntity
  8
BEZUGSACHSEN
100
AcDbLine
 62
7
  6
CONTINUOUS
 10
771.8148115542
 20
203.3007685922
 11
771.6959632391
 21
203.7127441761
  0
LINE
  5
490
100
AcDbEntity
  8
BEZUGSACHSEN
100
AcDbLine
 62
7
  6
CONTINUOUS
 10
771.5400822323
 20
204.1350717152
 11
771.6959632391
 21
203.7127441761
  0
LINE
  5
491
100
AcDbEntity
  8
BEZUGSACHSEN
100
AcDbLine
 62
7
  6
CONTINUOUS
 10
771.4250293298
 20
204.3565869962
 11
771.5400822323
 21
204.1350717152
  0
LINE
  5
492
100
AcDbEntity
  8
BEZUGSACHSEN
100
AcDbLine
 62
7
  6
CONTINUOUS
 10
772.3281267135
 20
203.6019618633
 11
771.7339204891
 21
205.5058974485
  0
LINE
  5
493
100
AcDbEntity
  8
BEZUGSACHSEN
100
AcDbLine
 62
7
  6
CONTINUOUS
 10
771.7339204891
 20
205.5058974485
 11
771.7283198676
 21
205.5238418294
  0
LINE
  5
494
100
AcDbEntity
  8
BEZUGSACHSEN
100
AcDbLine
 62
7
  6
CONTINUOUS
 10
771.7283198676
 20
205.5238418294
 11
771.2524999558
 21
207.0483109671
  0
LINE
  5
495
100
AcDbEntity
  8
BEZUGSACHSEN
100
AcDbLine
 62
7
  6
CONTINUOUS
 10
771.2524999558
 20
207.0483109671
 11
771.1185571801
 21
207.477428273
  0
LINE
  5
496
100
AcDbEntity
  8
BEZUGSACHSEN
100
AcDbLine
 62
7
  6
CONTINUOUS
 10
772.9548509401
 20
197.3819885155
 11
772.1357086411
 21
199.5992068386
  0
LINE
  5
497
100
AcDbEntity
  8
BEZUGSACHSEN
100
AcDbLine
 62
7
  6
CONTINUOUS
 10
772.3281267135
 20
203.6019618633
 11
772.485432571
 21
203.1808327594
  0
LINE
  5
498
100
AcDbEntity
  8
BEZUGSACHSEN
100
AcDbLine
 62
7
  6
CONTINUOUS
 10
772.485432571
 20
203.1808327594
 11
772.6046763896
 21
202.9636505974
  0
LINE
  5
499
100
AcDbEntity
  8
BEZUGSACHSEN
100
AcDbLine
 62
7
  6
CONTINUOUS
 10
771.9016392478
 20
200.2326977035
 11
771.3164193024
 21
201.8164251617
  0
LINE
  5
49A
100
AcDbEntity
  8
BEZUGSACHSEN
100
AcDbLine
 62
7
  6
CONTINUOUS
 10
771.3164193024
 20
201.8164251617
 11
771.3190629414
 21
202.0416633051
  0
LINE
  5
49B
100
AcDbEntity
  8
BEZUGSACHSEN
100
AcDbLine
 62
7
  6
CONTINUOUS
 10
771.1078064734
 20
209.8453676102
 11
771.243204567
 21
209.4111033077
  0
LINE
  5
49C
100
AcDbEntity
  8
BEZUGSACHSEN
100
AcDbLine
 62
7
  6
CONTINUOUS
 10
771.243204567
 20
209.4111033077
 11
772.3158573181
 21
205.9699012005
  0
SPLINE
  5
49D
100
AcDbEntity
  8
0
100
AcDbSpline
 62
7
  6
CONTINUOUS
 70
0
 71
3
 72
9
 73
5
 74
0
 42
0.0000001
 43
0.0000001
 44
0.0000000001
 40
0.0
 40
0.0
 40
0.0
 40
0.0
 40
0.5000030521
 40
1.0
 40
1.0
 40
1.0
 40
1.0
 10
768.3952002827
 20
192.220261472
 30
0.0
 10
768.6644397621
 20
188.6596452051
 30
0.0
 10
769.0282689497
 20
181.5236036646
 30
0.0
 10
768.9853778562
 20
174.3777457926
 30
0.0
 10
768.8638452679
 20
170.809077049
 30
0.0
  0
SPLINE
  5
49E
100
AcDbEntity
  8
0
100
AcDbSpline
 62
7
  6
CONTINUOUS
 70
0
 71
3
 72
9
 73
5
 74
0
 42
0.0000001
 43
0.0000001
 44
0.0000000001
 40
0.0
 40
0.0
 40
0.0
 40
0.0
 40
0.5000000002
 40
1.0
 40
1.0
 40
1.0
 40
1.0
 10
768.3952002827
 20
216.4038926295
 30
0.0
 10
768.7707221218
 20
212.3861762707
 30
0.0
 10
769.1782092501
 20
204.3120770491
 30
0.0
 10
768.7707221215
 20
196.2379778274
 30
0.0
 10
768.3952002827
 20
192.220261472
 30
0.0
  0
SPLINE
  5
49F
100
AcDbEntity
  8
0
100
AcDbSpline
 62
7
  6
CONTINUOUS
 70
0
 71
3
 72
9
 73
5
 74
0
 42
0.0000001
 43
0.0000001
 44
0.0000000001
 40
0.0
 40
0.0
 40
0.0
 40
0.0
 40
0.5000000002
 40
1.0
 40
1.0
 40
1.0
 40
1.0
 10
768.3952002827
 20
225.6412177602
 30
0.0
 10
768.7639973665
 20
224.1340684748
 30
0.0
 10
769.1849340054
 20
221.0225551942
 30
0.0
 10
768.7639973662
 20
217.9110419137
 30
0.0
 10
768.3952002827
 20
216.4038926295
 30
0.0
  0
SPLINE
  5
4A0
100
AcDbEntity
  8
0
100
AcDbSpline
 62
7
  6
CONTINUOUS
 70
0
 71
3
 72
9
 73
5
 74
0
 42
0.0000001
 43
0.0000001
 44
0.0000000001
 40
0.0
 40
0.0
 40
0.0
 40
0.0
 40
0.5000000002
 40
1.0
 40
1.0
 40
1.0
 40
1.0
 10
757.7102450447
 20
216.4038926295
 30
0.0
 10
757.3347232056
 20
212.3861762707
 30
0.0
 10
756.9272360773
 20
204.3120770491
 30
0.0
 10
757.3347232059
 20
196.2379778274
 30
0.0
 10
757.7102450447
 20
192.220261472
 30
0.0
  0
SPLINE
  5
4A1
100
AcDbEntity
  8
0
100
AcDbSpline
 62
7
  6
CONTINUOUS
 70
0
 71
3
 72
9
 73
5
 74
0
 42
0.0000001
 43
0.0000001
 44
0.0000000001
 40
0.0
 40
0.0
 40
0.0
 40
0.0
 40
0.5000030521
 40
1.0
 40
1.0
 40
1.0
 40
1.0
 10
757.7102450447
 20
192.220261472
 30
0.0
 10
757.4410055653
 20
188.6596452051
 30
0.0
 10
757.0771763776
 20
181.5236036646
 30
0.0
 10
757.1200674712
 20
174.3777457926
 30
0.0
 10
757.2416000595
 20
170.809077049
 30
0.0
  0
LINE
  5
4A2
100
AcDbEntity
  8
BEZUGSACHSEN
100
AcDbLine
 62
7
  6
CONTINUOUS
 10
772.5980042761
 20
207.6710609256
 11
772.4781003507
 21
208.2129984342
  0
LINE
  5
4A3
100
AcDbEntity
  8
BEZUGSACHSEN
100
AcDbLine
 62
7
  6
CONTINUOUS
 10
772.4781003507
 20
208.2129984342
 11
772.3205235649
 21
208.8360461943
  0
LINE
  5
4A4
100
AcDbEntity
  8
BEZUGSACHSEN
100
AcDbLine
 62
7
  6
CONTINUOUS
 10
771.7355666944
 20
210.9485224768
 11
772.1752567221
 21
209.3606880364
  0
LINE
  5
4A5
100
AcDbEntity
  8
BEZUGSACHSEN
100
AcDbLine
 62
7
  6
CONTINUOUS
 10
772.1752567221
 20
209.3606880364
 11
772.2275313185
 21
209.1718972659
  0
LINE
  5
4A6
100
AcDbEntity
  8
BEZUGSACHSEN
100
AcDbLine
 62
7
  6
CONTINUOUS
 10
772.2275313185
 20
209.1718972659
 11
772.3205235649
 21
208.8360461943
  0
LINE
  5
4A7
100
AcDbEntity
  8
BEZUGSACHSEN
100
AcDbLine
 62
7
  6
CONTINUOUS
 10
771.5810132958
 20
211.4521286288
 11
771.6585037653
 21
211.1996941264
  0
LINE
  5
4A8
100
AcDbEntity
  8
BEZUGSACHSEN
100
AcDbLine
 62
7
  6
CONTINUOUS
 10
771.6585037653
 20
211.1996941264
 11
771.7355666944
 21
210.9485224768
  0
LINE
  5
4A9
100
AcDbEntity
  8
BEZUGSACHSEN
100
AcDbLine
 62
7
  6
CONTINUOUS
 10
771.4665468073
 20
211.7551819488
 11
771.49534693
 21
211.6790517625
  0
LINE
  5
4AA
100
AcDbEntity
  8
BEZUGSACHSEN
100
AcDbLine
 62
7
  6
CONTINUOUS
 10
771.49534693
 20
211.6790517625
 11
771.5810132958
 21
211.4521286288
  0
LINE
  5
4AB
100
AcDbEntity
  8
BEZUGSACHSEN
100
AcDbLine
 62
7
  6
CONTINUOUS
 10
771.4479391748
 20
211.7807385726
 11
771.4665468073
 21
211.7551819488
  0
LINE
  5
4AC
100
AcDbEntity
  8
KONSTRUKTIONSELEMENTE
100
AcDbLine
 62
7
  6
CONTINUOUS
 10
770.4810614775
 20
211.1713158398
 11
770.8479224039
 21
209.8453680079
  0
LINE
  5
4AD
100
AcDbEntity
  8
BEZUGSACHSEN
100
AcDbLine
 62
7
  6
CONTINUOUS
 10
772.9338979008
 20
204.5522233172
 11
772.9010180648
 21
204.6711559692
  0
LINE
  5
4AE
100
AcDbEntity
  8
BEZUGSACHSEN
100
AcDbLine
 62
7
  6
CONTINUOUS
 10
772.9010180648
 20
204.6711559692
 11
772.7206888258
 21
205.3233915744
  0
LINE
  5
4AF
100
AcDbEntity
  8
BEZUGSACHSEN
100
AcDbLine
 62
7
  6
CONTINUOUS
 10
772.7206888258
 20
205.3233915744
 11
772.6374869524
 21
205.6242983043
  0
LINE
  5
4B0
100
AcDbEntity
  8
BEZUGSACHSEN
100
AcDbLine
 62
7
  6
CONTINUOUS
 10
772.6374869524
 20
205.6242983043
 11
772.6090674069
 21
205.7270762043
  0
LINE
  5
4B1
100
AcDbEntity
  8
BEZUGSACHSEN
100
AcDbLine
 62
7
  6
CONTINUOUS
 10
772.6090674069
 20
205.7270762043
 11
772.5258617192
 21
206.0279745632
  0
LINE
  5
4B2
100
AcDbEntity
  8
BEZUGSACHSEN
100
AcDbLine
 62
7
  6
CONTINUOUS
 10
772.5258617192
 20
206.0279745632
 11
771.245453549
 21
210.6565847732
  0
LINE
  5
4B3
100
AcDbEntity
  8
BEZUGSACHSEN
100
AcDbLine
 62
7
  6
CONTINUOUS
 10
771.245453549
 20
210.6565847732
 11
771.1030163161
 21
211.1713158398
  0
LINE
  5
4B4
100
AcDbEntity
  8
RUNDUNGEN
100
AcDbLine
 62
7
  6
CONTINUOUS
 10
770.0231731278
 20
129.470107868
 11
771.3508345908
 21
127.970107868
  0
LINE
  5
4B5
100
AcDbEntity
  8
0
100
AcDbLine
 62
7
  6
CONTINUOUS
 10
756.0822721995
 20
129.470107868
 11
754.7546107365
 21
127.970107868
  0
SPLINE
  5
4B6
100
AcDbEntity
  8
0
100
AcDbSpline
 62
7
  6
CONTINUOUS
 70
0
 71
3
 72
9
 73
5
 74
0
 42
0.0000001
 43
0.0000001
 44
0.0000000001
 40
0.0
 40
0.0
 40
0.0
 40
0.0
 40
0.5000000002
 40
1.0
 40
1.0
 40
1.0
 40
1.0
 10
757.7102450447
 20
225.6412177602
 30
0.0
 10
757.3414479608
 20
224.1340684748
 30
0.0
 10
756.920511322
 20
221.0225551942
 30
0.0
 10
757.3414479611
 20
217.9110419137
 30
0.0
 10
757.7102450447
 20
216.4038926295
 30
0.0
  0
LINE
  5
4B7
100
AcDbEntity
  8
BEZUGSACHSEN
100
AcDbLine
 62
7
  6
CONTINUOUS
 10
772.6680173683
 20
200.2777876336
 11
772.9540824332
 21
199.7627444805
  0
LINE
  5
4B8
100
AcDbEntity
  8
KONSTRUKTIONSELEMENTE
100
AcDbLine
 62
7
  6
CONTINUOUS
 10
772.3273290968
 20
199.7627444805
 11
772.1411226143
 21
200.0979226099
  0
LINE
  5
4B9
100
AcDbEntity
  8
KONSTRUKTIONSELEMENTE
100
AcDbLine
 62
7
  6
CONTINUOUS
 10
772.2116998013
 20
202.0556973713
 11
772.1312856587
 21
202.1473272968
  0
LINE
  5
4BA
100
AcDbEntity
  8
KONSTRUKTIONSELEMENTE
100
AcDbLine
 62
7
  6
CONTINUOUS
 10
772.1312856587
 20
202.1473272968
 11
772.0905671441
 21
202.1935455263
  0
LINE
  5
4BB
100
AcDbEntity
  8
KONSTRUKTIONSELEMENTE
100
AcDbLine
 62
7
  6
CONTINUOUS
 10
772.0905671441
 20
202.1935455263
 11
772.049507337
 21
202.2400325853
  0
LINE
  5
4BC
100
AcDbEntity
  8
KONSTRUKTIONSELEMENTE
100
AcDbLine
 62
7
  6
CONTINUOUS
 10
772.049507337
 20
202.2400325853
 11
772.0157668738
 21
202.3124139632
  0
LINE
  5
4BD
100
AcDbEntity
  8
BEZUGSACHSEN
100
AcDbLine
 62
7
  6
CONTINUOUS
 10
772.5151780565
 20
202.5822300892
 11
772.6746931198
 21
202.2400325853
  0
LINE
  5
4BE
100
AcDbEntity
  8
BEZUGSACHSEN
100
AcDbLine
 62
7
  6
CONTINUOUS
 10
772.3183892551
 20
203.1283737701
 11
772.5151780565
 21
202.5822300892
  0
LINE
  5
4BF
100
AcDbEntity
  8
KONSTRUKTIONSELEMENTE
100
AcDbLine
 62
7
  6
CONTINUOUS
 10
770.4848266546
 20
207.0038401798
 11
771.2681629698
 21
204.491402595
  0
LINE
  5
4C0
100
AcDbEntity
  8
BEZUGSACHSEN
100
AcDbLine
 62
7
  6
CONTINUOUS
 10
772.3183892551
 20
203.1283737701
 11
772.1846960239
 21
203.5572476577
  0
LINE
  5
4C1
100
AcDbEntity
  8
BEZUGSACHSEN
100
AcDbLine
 62
7
  6
CONTINUOUS
 10
772.1846960239
 20
203.5572476577
 11
771.1100253038
 21
207.0038401798
  0
LINE
  5
4C2
100
AcDbEntity
  8
BEZUGSACHSEN
100
AcDbLine
 62
7
  6
CONTINUOUS
 10
772.9437080573
 20
196.810607062
 11
772.7595071571
 21
197.309920136
  0
LINE
  5
4C3
100
AcDbEntity
  8
BEZUGSACHSEN
100
AcDbLine
 62
7
  6
CONTINUOUS
 10
772.7595071571
 20
197.309920136
 11
771.9412215564
 21
199.5274215114
  0
LINE
  5
4C4
100
AcDbEntity
  8
BEZUGSACHSEN
100
AcDbLine
 62
7
  6
CONTINUOUS
 10
771.9412215564
 20
199.5274215114
 11
771.7361642874
 21
200.0829750877
  0
LINE
  5
4C5
100
AcDbEntity
  8
BEZUGSACHSEN
100
AcDbLine
 62
7
  6
CONTINUOUS
 10
771.7361642874
 20
200.0829750877
 11
771.7073693578
 21
200.1609841341
  0
LINE
  5
4C6
100
AcDbEntity
  8
BEZUGSACHSEN
100
AcDbLine
 62
7
  6
CONTINUOUS
 10
771.7073693578
 20
200.1609841341
 11
771.1226443097
 21
201.74488532
  0
LINE
  5
4C7
100
AcDbEntity
  8
BEZUGSACHSEN
100
AcDbLine
 62
7
  6
CONTINUOUS
 10
771.1226443097
 20
201.74488532
 11
771.1122815798
 21
201.7729527624
  0
SPLINE
  5
4C8
100
AcDbEntity
  8
KONSTRUKTIONSELEMENTE
100
AcDbSpline
 62
7
  6
CONTINUOUS
 70
0
 71
3
 72
8
 73
4
 74
0
 42
0.0000001
 43
0.0000001
 44
0.0000000001
 40
0.0
 40
0.0
 40
0.0
 40
0.0
 40
1.0
 40
1.0
 40
1.0
 40
1.0
 10
770.4829934247
 20
201.7729527624
 30
0.0
 10
771.0935848789
 20
200.1189220525
 30
0.0
 10
771.7040003376
 20
198.4648263377
 30
0.0
 10
772.3140807433
 20
196.810607062
 30
0.0
  0
LINE
  5
4C9
100
AcDbEntity
  8
BEZUGSACHSEN
100
AcDbLine
 62
7
  6
CONTINUOUS
 10
772.7158191204
 20
203.0934457477
 11
772.7258031407
 21
203.1411243018
  0
LINE
  5
4CA
100
AcDbEntity
  8
BEZUGSACHSEN
100
AcDbLine
 62
7
  6
CONTINUOUS
 10
771.3582201894
 20
203.8059085892
 11
771.4340762498
 21
203.7852055428
  0
LINE
  5
4CB
100
AcDbEntity
  8
BEZUGSACHSEN
100
AcDbLine
 62
7
  6
CONTINUOUS
 10
771.4340762498
 20
203.7852055428
 11
771.4754098017
 21
203.7061581735
  0
LINE
  5
4CC
100
AcDbEntity
  8
BEZUGSACHSEN
100
AcDbLine
 62
7
  6
CONTINUOUS
 10
771.4754098017
 20
203.7061581735
 11
771.4921100837
 21
203.6742107534
  0
LINE
  5
4CD
100
AcDbEntity
  8
BEZUGSACHSEN
100
AcDbLine
 62
7
  6
CONTINUOUS
 10
771.4921100837
 20
203.6742107534
 11
771.5498618609
 21
203.5636902618
  0
LINE
  5
4CE
100
AcDbEntity
  8
BEZUGSACHSEN
100
AcDbLine
 62
7
  6
CONTINUOUS
 10
771.5498618609
 20
203.5636902618
 11
771.6668977377
 21
203.2469445335
  0
LINE
  5
4CF
100
AcDbEntity
  8
BEZUGSACHSEN
100
AcDbLine
 62
7
  6
CONTINUOUS
 10
771.7852319291
 20
202.8349689496
 11
771.6668977377
 21
203.2469445335
  0
LINE
  5
4D0
100
AcDbEntity
  8
BEZUGSACHSEN
100
AcDbLine
 62
7
  6
CONTINUOUS
 10
771.8655676032
 20
202.4333447527
 11
771.7852319291
 21
202.8349689496
  0
LINE
  5
4D1
100
AcDbEntity
  8
BEZUGSACHSEN
100
AcDbLine
 62
7
  6
CONTINUOUS
 10
771.1170766077
 20
209.3717797427
 11
772.1908396076
 21
205.9308920346
  0
LINE
  5
4D2
100
AcDbEntity
  8
BEZUGSACHSEN
100
AcDbLine
 62
7
  6
CONTINUOUS
 10
772.1908396076
 20
205.9308920346
 11
772.3264367467
 21
205.4963133331
  0
LINE
  5
4D3
100
AcDbEntity
  8
KONSTRUKTIONSELEMENTE
100
AcDbLine
 62
7
  6
CONTINUOUS
 10
771.0879564188
 20
207.4678780295
 11
770.4937500028
 21
209.3717797427
  0
LINE
  5
4D4
100
AcDbEntity
  8
BEZUGSACHSEN
100
AcDbLine
 62
7
  6
CONTINUOUS
 10
772.4838544019
 20
204.9173217572
 11
772.3659216639
 21
205.3511090214
  0
LINE
  5
4D5
100
AcDbEntity
  8
BEZUGSACHSEN
100
AcDbLine
 62
7
  6
CONTINUOUS
 10
772.3659216639
 20
205.3511090214
 11
772.3264367467
 21
205.4963133331
  0
LINE
  5
4D6
100
AcDbEntity
  8
BEZUGSACHSEN
100
AcDbLine
 62
7
  6
CONTINUOUS
 10
772.6033665268
 20
204.3844141997
 11
772.4838544019
 21
204.9173217572
  0
ELLIPSE
  5
4D7
100
AcDbEntity
  8
KONSTRUKTIONSELEMENTE
100
AcDbEllipse
 62
7
  6
CONTINUOUS
 10
224.0345744763
 20
89.8871195758
 30
0.0
 11
2.3997778992
 21
0.651132626
 31
0.0
 40
0.0501436764
 41
-2.5950501555
 42
-1.191701908
  0
ELLIPSE
  5
4D8
100
AcDbEntity
  8
KONSTRUKTIONSELEMENTE
100
AcDbEllipse
 62
7
  6
CONTINUOUS
 10
232.8775547497
 20
89.8561232179
 30
0.0
 11
2.2997891192
 21
-1.5015656282
 31
0.0
 40
0.7635480741
 41
7.2755602941
 42
8.8463566209
  0
ELLIPSE
  5
4D9
100
AcDbEntity
  8
KONSTRUKTIONSELEMENTE
100
AcDbEllipse
 62
7
  6
CONTINUOUS
 10
276.2250624099
 20
36.8550564531
 30
0.0
 11
0.0
 21
96.9948452239
 31
0.0
 40
0.5773502692
 41
-0.3754229971
 42
-0.1577968958
  0
ELLIPSE
  5
4DA
100
AcDbEntity
  8
KONSTRUKTIONSELEMENTE
100
AcDbEllipse
 62
7
  6
CONTINUOUS
 10
276.2250624099
 20
36.8550564531
 30
0.0
 11
0.0
 21
96.9948452239
 31
0.0
 40
0.5773502692
 41
0.1577968958
 42
0.3754229971
  0
ELLIPSE
  5
4DB
100
AcDbEntity
  8
RUNDUNGEN
100
AcDbEllipse
 62
7
  6
CONTINUOUS
 10
758.7013852312
 20
133.4561754376
 30
0.0
 11
10.2192634631
 21
-1.4644770085
 31
0.0
 40
0.8513282235
 41
0.121400111
 42
0.2121364471
  0
ELLIPSE
  5
4DC
100
AcDbEntity
  8
0
100
AcDbEllipse
 62
7
  6
CONTINUOUS
 10
767.4040600962
 20
133.4561754376
 30
0.0
 11
10.2192634631
 21
1.4644770085
 31
0.0
 40
0.8513282235
 41
2.9294562065
 42
3.0201925426
  0
ELLIPSE
  5
4DD
100
AcDbEntity
  8
0
100
AcDbEllipse
 62
7
  6
CONTINUOUS
 10
754.0205154069
 20
133.970107868
 30
0.0
 11
-0.9450767383
 21
5.1682589597
 31
0.0
 40
0.5689268959
 41
-2.7216559163
 42
-1.8817824418
  0
ELLIPSE
  5
4DE
100
AcDbEntity
  8
RUNDUNGEN
100
AcDbEllipse
 62
7
  6
CONTINUOUS
 10
772.0849299205
 20
133.970107868
 30
0.0
 11
0.9450767383
 21
5.1682589597
 31
0.0
 40
0.5689268959
 41
-4.4014028654
 42
-3.5615293909
  0
ELLIPSE
  5
4DF
100
AcDbEntity
  8
KONSTRUKTIONSELEMENTE
100
AcDbEllipse
 62
7
  6
CONTINUOUS
 10
623.2658867942
 20
93.9883389067
 30
0.0
 11
-0.0
 21
3.3288956288
 31
0.0
 40
0.1989123674
 41
-4.3485913603
 42
-3.3373776335
  0
ELLIPSE
  5
4E0
100
AcDbEntity
  8
KONSTRUKTIONSELEMENTE
100
AcDbEllipse
 62
7
  6
CONTINUOUS
 10
627.3671061251
 20
89.8871195758
 30
0.0
 11
3.3288956288
 21
0.0
 31
0.0
 40
0.1989123674
 41
-2.9458076736
 42
-1.9345939469
  0
ENDSEC
  0
SECTION
  2
OBJECTS
  0
DICTIONARY
  5
C
100
AcDbDictionary
280
0
281
1
  3
ACAD_GROUP
350
D
  3
ACAD_MLINESTYLE
350
17
  3
ACAD_LAYOUT
350
1A
  3
ACAD_PLOTSETTINGS
350
19
  3
ACAD_PLOTSTYLENAME
350
E
  0
DICTIONARY
  5
D
102
{ACAD_REACTORS
330
C
102
}
100
AcDbDictionary
280
0
281
1
  0
ACDBDICTIONARYWDFLT
  5
E
102
{ACAD_REACTORS
330
C
102
}
100
AcDbDictionary
281
1
  3
Normal
350
F
100
AcDbDictionaryWithDefault
340
F
  0
DICTIONARY
  5
17
102
{ACAD_REACTORS
330
C
102
}
100
AcDbDictionary
280
0
281
1
  3
Standard
350
18
  0
DICTIONARY
  5
19
102
{ACAD_REACTORS
330
C
102
}
100
AcDbDictionary
281
1
  0
DICTIONARY
  5
1A
102
{ACAD_REACTORS
330
C
102
}
100
AcDbDictionary
281
1
  3
Model
350
4E1
  3
Layout1
350
4E2
  0
ACDBPLACEHOLDER
  5
F
102
{ACAD_REACTORS
330
E
102
}
  0
MLINESTYLE
  5
18
102
{ACAD_REACTORS
330
17
102
}
100
AcDbMlineStyle
  2
STANDARD
 70
0
  3

 62
256
 51
90.0
 52
90.0
 71
2
 49
0.5
 62
256
  6
BYLAYER
 49
-0.5
 62
256
  6
BYLAYER
  0
LAYOUT
  5
4E1
102
{ACAD_REACTORS
330
1A
102
}
100
AcDbPlotSettings
  1

  2
none_device
  4
ISO_A0_(1189.00_x_841.00_MM)
  6

 40
0.0
 41
0.0
 42
0.0
 43
0.0
 44
1189.0
 45
841.0
 46
0.0
 47
0.0
 48
0.0
 49
0.0
140
0.0
141
0.0
142
1.0
143
1.0
 70
1024
 72
1
 73
0
 74
0
  7

 75
0
147
1.0
148
0.0
149
0.0
100
AcDbLayout
  1
Model
 70
0
 71
0
 10
0.0
 20
0.0
 11
1189.0
 21
841.0
 12
0.0
 22
0.0
 32
0.0
 14
0.0
 24
0.0
 34
0.0
 15
0.0
 25
0.0
 35
0.0
146
0.0
 13
0.0
 23
0.0
 33
0.0
 16
1.0
 26
0.0
 36
0.0
 17
0.0
 27
1.0
 37
0.0
 76
0
330
20D
345
0
346
0
  0
LAYOUT
  5
4E2
102
{ACAD_REACTORS
330
1A
102
}
100
AcDbPlotSettings
  1

  2
none_device
  4
ISO_A0_(1189.00_x_841.00_MM)
  6

 40
0.0
 41
0.0
 42
0.0
 43
0.0
 44
1189.0
 45
841.0
 46
0.0
 47
0.0
 48
0.0
 49
0.0
140
0.0
141
0.0
142
1.0
143
1.0
 70
0
 72
1
 73
0
 74
0
  7

 75
0
147
1.0
148
0.0
149
0.0
100
AcDbLayout
  1
Layout1
 70
0
 71
1
 10
0.0
 20
0.0
 11
1189.0
 21
841.0
 12
0.0
 22
0.0
 32
0.0
 14
0.0
 24
0.0
 34
0.0
 15
0.0
 25
0.0
 35
0.0
146
0.0
 13
0.0
 23
0.0
 33
0.0
 16
1.0
 26
0.0
 36
0.0
 17
0.0
 27
1.0
 37
0.0
 76
0
330
20E
345
0
346
0
  0
ENDSEC
  0
EOF
