999
DXF file: VSAK-1-16_140_7100691_M31566-P-5.dxf
999
Pro/ENGINEER 2010140 by Parametric Technology Corporation
  0
SECTION
  2
HEADER
  9
$ACADVER
  1
AC1015
  9
$DWGCODEPAGE
  3
ANSI_1252
  9
$EXTMAX
 10
841.0
 20
594.0
 30
0.0
  9
$EXTMIN
 10
0.0
 20
0.0
 30
0.0
  9
$LIMMIN
 10
0.0
 20
0.0
  9
$LIMMAX
 10
841.0
 20
594.0
  9
$VIEWCTR
 10
420.5
 20
297.0
  9
$VIEWSIZE
 40
594.0
  9
$CLAYER
  8
0
  9
$LTSCALE
 40
46.255
  9
$CELTYPE
  6
BYLAYER
  9
$DIMSCALE
 40
1.0
  9
$DIMASZ
 40
3.5
  9
$DIMEXO
 40
5.25625
  9
$DIMDLI
 40
31.958
  9
$DIMEXE
 40
15.138
  9
$DIMCEN
 40
7.569
  9
$DIMLFAC
 40
1.0
  9
$DIMBLK
  1
_FILLED
  9
$DIMTXT
 40
3.5
  9
$DIMTOL
 70
1
  9
$DIMLIM
 70
0
  9
$DIMTFAC
 40
1.0
  9
$DIMTP
 40
0.005
  9
$DIMTM
 40
0.005
  9
$PDMODE
 70
3
  9
$PDSIZE
 40
0.3125
  9
$HANDSEED
  5
4E2
  9
$TILEMODE
 70
1
  9
$MEASUREMENT
 70
1
  9
$INSUNITS
 70
4
  0
ENDSEC
  0
SECTION
  2
CLASSES
  0
CLASS
  1
ACDBDICTIONARYWDFLT
  2
AcDbDictionaryWithDefault
  3
AutoCAD 2000
 90
0
280
0
281
0
  0
CLASS
  1
ACDBPLACEHOLDER
  2
AcDbPlaceHolder
  3
AutoCAD 2000
 90
0
280
0
281
0
  0
CLASS
  1
LAYOUT
  2
AcDbLayout
  3
AutoCAD 2000
 90
0
280
0
281
0
  0
ENDSEC
  0
SECTION
  2
TABLES
  0
TABLE
  2
VPORT
  5
8
100
AcDbSymbolTable
 70
2
  0
VPORT
  5
1F4
100
AcDbSymbolTableRecord
100
AcDbViewportTableRecord
  2
*ACTIVE
 70
0
 10
0.0
 20
0.0
 11
1.0
 21
1.0
 12
420.5
 22
297.0
 13
0.0
 23
0.0
 14
1.0
 24
1.0
 15
0.0
 25
0.0
 16
0.0
 26
0.0
 36
1.0
 17
0.0
 27
0.0
 37
0.0
 40
594.0
 41
1.4158249158
 42
50.0
 43
0.0
 44
0.0
 50
0.0
 51
0.0
 71
0
 72
100
 73
1
 74
1
 75
0
 76
0
 77
0
 78
0
  0
ENDTAB
  0
TABLE
  2
LTYPE
  5
5
100
AcDbSymbolTable
 70
6
  0
LTYPE
  5
14
100
AcDbSymbolTableRecord
100
AcDbLinetypeTableRecord
  2
BYBLOCK
 70
0
  3

 72
65
 73
0
 40
0.0
  0
LTYPE
  5
15
100
AcDbSymbolTableRecord
100
AcDbLinetypeTableRecord
  2
BYLAYER
 70
0
  3

 72
65
 73
0
 40
0.0
  0
LTYPE
  5
16
100
AcDbSymbolTableRecord
100
AcDbLinetypeTableRecord
  2
CONTINUOUS
 70
64
  3
Solid line
 72
65
 73
0
 40
0.0
  0
LTYPE
  5
1F5
100
AcDbSymbolTableRecord
100
AcDbLinetypeTableRecord
  2
CENTER
 70
64
  3
____ _ ____ _ ____ _ ____ _ ____ _ ____ _ ____
 72
65
 73
4
 40
0.6
 49
0.375
 74
0
 49
-0.075
 74
0
 49
0.075
 74
0
 49
-0.075
 74
0
  0
LTYPE
  5
1F6
100
AcDbSymbolTableRecord
100
AcDbLinetypeTableRecord
  2
HIDDEN
 70
64
  3
- - - - - - - - - - - - - - - - - - - -
 72
65
 73
2
 40
0.2
 49
0.1
 74
0
 49
-0.1
 74
0
  0
LTYPE
  5
1F7
100
AcDbSymbolTableRecord
100
AcDbLinetypeTableRecord
  2
PHANTOM
 70
64
  3
_____ _ _ _____ _ _ _____ _ _ _____
 72
65
 73
6
 40
0.8
 49
0.45
 74
0
 49
-0.05
 74
0
 49
0.1
 74
0
 49
-0.05
 74
0
 49
0.1
 74
0
 49
-0.05
 74
0
  0
LTYPE
  5
1F8
100
AcDbSymbolTableRecord
100
AcDbLinetypeTableRecord
  2
DOT
 70
64
  3
. . . . . . . . . . . . . . . . . . . .
 72
65
 73
2
 40
0.2
 49
0.1
 74
0
 49
-0.1
 74
0
  0
LTYPE
  5
1F9
100
AcDbSymbolTableRecord
100
AcDbLinetypeTableRecord
  2
DASHED
 70
64
  3
- - - - - - - - - - - - - - - - - - - -
 72
65
 73
2
 40
0.2
 49
0.1
 74
0
 49
-0.1
 74
0
  0
ENDTAB
  0
TABLE
  2
LAYER
  5
2
100
AcDbSymbolTable
 70
36
  0
LAYER
  5
10
100
AcDbSymbolTableRecord
100
AcDbLayerTableRecord
  2
0
 70
0
 62
7
  6
CONTINUOUS
370
-3
390
F
  0
LAYER
  5
1FA
100
AcDbSymbolTableRecord
100
AcDbLayerTableRecord
  2
DEFAULT_1
 70
0
 62
7
  6
CENTER
370
-3
390
F
  0
LAYER
  5
1FB
100
AcDbSymbolTableRecord
100
AcDbLayerTableRecord
  2
DEFAULT_2
 70
0
 62
8
  6
HIDDEN
370
-3
390
F
  0
LAYER
  5
1FC
100
AcDbSymbolTableRecord
100
AcDbLayerTableRecord
  2
DEFAULT_3
 70
0
 62
7
  6
PHANTOM
370
-3
390
F
  0
LAYER
  5
1FD
100
AcDbSymbolTableRecord
100
AcDbLayerTableRecord
  2
AUSFORMSCHRAEGEN
 70
0
 62
7
  6
CONTINUOUS
370
-3
390
F
  0
LAYER
  5
1FE
100
AcDbSymbolTableRecord
100
AcDbLayerTableRecord
  2
BEZUGSACHSEN
 70
0
 62
7
  6
CONTINUOUS
370
-3
390
F
  0
LAYER
  5
1FF
100
AcDbSymbolTableRecord
100
AcDbLayerTableRecord
  2
BEZUGSEBENEN
 70
0
 62
7
  6
CONTINUOUS
370
-3
390
F
  0
LAYER
  5
200
100
AcDbSymbolTableRecord
100
AcDbLayerTableRecord
  2
BG_STARTBEZUEGE
 70
0
 62
7
  6
CONTINUOUS
370
-3
390
F
  0
LAYER
  5
201
100
AcDbSymbolTableRecord
100
AcDbLayerTableRecord
  2
FASEN
 70
0
 62
7
  6
CONTINUOUS
370
-3
390
F
  0
LAYER
  5
202
100
AcDbSymbolTableRecord
100
AcDbLayerTableRecord
  2
FLAECHEN
 70
0
 62
7
  6
CONTINUOUS
370
-3
390
F
  0
LAYER
  5
203
100
AcDbSymbolTableRecord
100
AcDbLayerTableRecord
  2
HILFEN
 70
0
 62
7
  6
CONTINUOUS
370
-3
390
F
  0
LAYER
  5
204
100
AcDbSymbolTableRecord
100
AcDbLayerTableRecord
  2
KONSTRUKTIONSELEMENTE
 70
0
 62
7
  6
CONTINUOUS
370
-3
390
F
  0
LAYER
  5
205
100
AcDbSymbolTableRecord
100
AcDbLayerTableRecord
  2
NORM
 70
0
 62
7
  6
CONTINUOUS
370
-3
390
F
  0
LAYER
  5
206
100
AcDbSymbolTableRecord
100
AcDbLayerTableRecord
  2
PLATZIERUNG
 70
0
 62
7
  6
CONTINUOUS
370
-3
390
F
  0
LAYER
  5
207
100
AcDbSymbolTableRecord
100
AcDbLayerTableRecord
  2
PLAZIERUNG
 70
0
 62
7
  6
CONTINUOUS
370
-3
390
F
  0
LAYER
  5
208
100
AcDbSymbolTableRecord
100
AcDbLayerTableRecord
  2
RUNDUNGEN
 70
0
 62
7
  6
CONTINUOUS
370
-3
390
F
  0
LAYER
  5
209
100
AcDbSymbolTableRecord
100
AcDbLayerTableRecord
  2
TEIL_STARTBEZUEGE
 70
0
 62
7
  6
CONTINUOUS
370
-3
390
F
  0
LAYER
  5
20A
100
AcDbSymbolTableRecord
100
AcDbLayerTableRecord
  2
T_STARTBEZUEGE
 70
0
 62
7
  6
CONTINUOUS
370
-3
390
F
  0
ENDTAB
  0
TABLE
  2
STYLE
  5
3
100
AcDbSymbolTable
 70
1
  0
STYLE
  5
11
100
AcDbSymbolTableRecord
100
AcDbTextStyleTableRecord
  2
STANDARD
 70
0
 40
0.0
 41
0.7
 50
0.0
 71
0
 42
0.2
  3
txt
  4

  0
STYLE
  5
20B
100
AcDbSymbolTableRecord
100
AcDbTextStyleTableRecord
  2
TEXTSTYLE_1
 70
0
 40
0.0
 41
0.8
 50
0.0
 71
0
 42
0.2
  3
gdt
  4

  0
ENDTAB
  0
TABLE
  2
VIEW
  5
6
100
AcDbSymbolTable
 70
0
  0
ENDTAB
  0
TABLE
  2
UCS
  5
7
100
AcDbSymbolTable
 70
0
  0
ENDTAB
  0
TABLE
  2
APPID
  5
9
100
AcDbSymbolTable
 70
1
  0
APPID
  5
20C
100
AcDbSymbolTableRecord
100
AcDbRegAppTableRecord
  2
ACAD
 70
0
  0
ENDTAB
  0
TABLE
  2
BLOCK_RECORD
  5
1
100
AcDbSymbolTable
 70
0
  0
BLOCK_RECORD
  5
20D
100
AcDbSymbolTableRecord
100
AcDbBlockTableRecord
  2
*Model_Space
  0
BLOCK_RECORD
  5
20E
100
AcDbSymbolTableRecord
100
AcDbBlockTableRecord
  2
*Paper_Space
  0
ENDTAB
  0
TABLE
  2
DIMSTYLE
  5
A
100
AcDbSymbolTable
 70
1
100
AcDbDimStyleTable
 71
0
  0
DIMSTYLE
105
20F
100
AcDbSymbolTableRecord
100
AcDbDimStyleTableRecord
  2
STANDARD
 70
0
  3

  4

 40
1.0
 41
3.5
 42
0.0625
 43
0.38
 44
0.18
 45
0.0
 46
0.0
 47
0.005
 48
0.005
140
3.5
141
0.09
142
0.0
143
25.4
144
1.0
145
0.0
146
1.0
147
0.09
 71
1.0
 72
0.0
 73
0
 74
0
 75
0
 76
0
 77
1
 78
8
170
0
171
2
172
0
173
0
174
0
175
0
176
0
177
0
178
5
270
2
271
3
272
3
273
2
274
2
275
0
280
0
281
0
282
0
283
1
284
8
285
0
286
0
287
3
288
0
340
11
  0
ENDTAB
  0
ENDSEC
  0
SECTION
  2
BLOCKS
  0
BLOCK
  5
20
100
AcDbEntity
  8
0
100
AcDbBlockBegin
  2
*Model_Space
 70
0
 10
0.0
 20
0.0
 30
0.0
  3
*Model_Space
  1

  0
ENDBLK
  5
21
100
AcDbEntity
  8
0
100
AcDbBlockEnd
  0
BLOCK
  5
1C
100
AcDbEntity
  8
0
100
AcDbBlockBegin
  2
*Paper_Space
 70
0
 10
0.0
 20
0.0
 30
0.0
  3
*Paper_Space
  1

  0
ENDBLK
  5
1D
100
AcDbEntity
  8
0
100
AcDbBlockEnd
  0
ENDSEC
  0
SECTION
  2
ENTITIES
  0
MTEXT
  5
210
100
AcDbEntity
  8
0
100
AcDbMText
 62
5
  6
CONTINUOUS
  7
STANDARD
 71
1
 72
1
 10
294.155809679
 20
403.1518375425
 30
0.0
 11
0.0
 21
1.0
 31
0.0
 44
0.9
  1
VSAK 1-16/140
 40
9.0
 41
88.0714285714
  0
MTEXT
  5
211
100
AcDbEntity
  8
0
100
AcDbMText
 62
5
  6
CONTINUOUS
  7
STANDARD
 71
1
 72
1
 10
121.4724674774
 20
437.916641696
 30
0.0
 11
0.0
 21
1.0
 31
0.0
 44
0.9
  1
RUD
 40
9.0
 41
24.0
  0
MTEXT
  5
212
100
AcDbEntity
  8
0
100
AcDbMText
 62
5
  6
CONTINUOUS
  7
STANDARD
 71
1
 72
1
 10
569.9288614275
 20
393.9714402254
 30
0.0
 11
0.0
 21
1.0
 31
0.0
 44
0.9
  1
RUD VSAK 1-16/140
 40
9.0
 41
117.4285714286
  0
LINE
  5
213
100
AcDbEntity
  8
0
100
AcDbLine
 62
7
  6
CONTINUOUS
 10
0.0
 20
0.0
 11
0.0
 21
594.0
  0
LINE
  5
214
100
AcDbEntity
  8
0
100
AcDbLine
 62
7
  6
CONTINUOUS
 10
0.0
 20
0.0
 11
841.0
 21
0.0
  0
LINE
  5
215
100
AcDbEntity
  8
0
100
AcDbLine
 62
7
  6
CONTINUOUS
 10
0.0
 20
594.0
 11
841.0
 21
594.0
  0
LINE
  5
216
100
AcDbEntity
  8
0
100
AcDbLine
 62
7
  6
CONTINUOUS
 10
841.0
 20
0.0
 11
841.0
 21
594.0
  0
LINE
  5
217
100
AcDbEntity
  8
KONSTRUKTIONSELEMENTE
100
AcDbLine
 62
7
  6
CONTINUOUS
 10
205.3276605422
 20
-10.9019054736
 11
219.8876605422
 21
-10.9019054736
  0
LINE
  5
218
100
AcDbEntity
  8
KONSTRUKTIONSELEMENTE
100
AcDbLine
 62
7
  6
CONTINUOUS
 10
204.5276605422
 20
-10.3362200486
 11
205.3276605422
 21
-10.3362200486
  0
LINE
  5
219
100
AcDbEntity
  8
KONSTRUKTIONSELEMENTE
100
AcDbLine
 62
7
  6
CONTINUOUS
 10
219.8876605422
 20
-10.3362200486
 11
220.6876605422
 21
-10.3362200486
  0
LINE
  5
21A
100
AcDbEntity
  8
KONSTRUKTIONSELEMENTE
100
AcDbLine
 62
7
  6
CONTINUOUS
 10
198.9276605422
 20
11.7255115244
 11
198.4774817465
 21
11.7255115244
  0
LINE
  5
21B
100
AcDbEntity
  8
KONSTRUKTIONSELEMENTE
100
AcDbLine
 62
7
  6
CONTINUOUS
 10
226.2876605422
 20
11.7255115244
 11
246.6655419818
 21
11.7255115244
  0
LINE
  5
21C
100
AcDbEntity
  8
KONSTRUKTIONSELEMENTE
100
AcDbLine
 62
7
  6
CONTINUOUS
 10
252.4473057442
 20
16.2298931993
 11
243.4856742788
 21
18.854694285
  0
LINE
  5
21D
100
AcDbEntity
  8
KONSTRUKTIONSELEMENTE
100
AcDbLine
 62
7
  6
CONTINUOUS
 10
252.4473057442
 20
19.7654271052
 11
243.4856742788
 21
22.3902281909
  0
LINE
  5
21E
100
AcDbEntity
  8
KONSTRUKTIONSELEMENTE
100
AcDbLine
 62
7
  6
CONTINUOUS
 10
239.1058496518
 20
74.0580509437
 11
234.9824145593
 21
74.0580509437
  0
LINE
  5
21F
100
AcDbEntity
  8
KONSTRUKTIONSELEMENTE
100
AcDbLine
 62
7
  6
CONTINUOUS
 10
190.2329065251
 20
74.0580509437
 11
186.1094714326
 21
74.0580509437
  0
LINE
  5
220
100
AcDbEntity
  8
0
100
AcDbLine
 62
7
  6
CONTINUOUS
 10
221.4076605422
 20
87.0580509437
 11
203.8076605422
 21
87.0580509437
  0
LINE
  5
221
100
AcDbEntity
  8
0
100
AcDbLine
 62
7
  6
CONTINUOUS
 10
221.4076605422
 20
106.0580509437
 11
203.8076605422
 21
106.0580509437
  0
LINE
  5
222
100
AcDbEntity
  8
KONSTRUKTIONSELEMENTE
100
AcDbLine
 62
7
  6
CONTINUOUS
 10
274.7891790463
 20
72.2931195484
 11
283.7508105116
 21
69.6683184627
  0
LINE
  5
223
100
AcDbEntity
  8
KONSTRUKTIONSELEMENTE
100
AcDbLine
 62
7
  6
CONTINUOUS
 10
250.1076605422
 20
87.9412044603
 11
281.3083956336
 21
78.8027207301
  0
LINE
  5
224
100
AcDbEntity
  8
KONSTRUKTIONSELEMENTE
100
AcDbLine
 62
7
  6
CONTINUOUS
 10
281.3083956336
 20
82.338254636
 11
250.1076605422
 21
91.4767383663
  0
LINE
  5
225
100
AcDbEntity
  8
0
100
AcDbLine
 62
7
  6
CONTINUOUS
 10
184.5773825464
 20
74.7724757244
 11
176.5489507061
 21
84.340388213
  0
LINE
  5
226
100
AcDbEntity
  8
RUNDUNGEN
100
AcDbLine
 62
7
  6
CONTINUOUS
 10
176.5489507061
 20
84.340388213
 11
175.575571656
 21
85.5004161929
  0
LINE
  5
227
100
AcDbEntity
  8
KONSTRUKTIONSELEMENTE
100
AcDbLine
 62
7
  6
CONTINUOUS
 10
156.6691280011
 20
76.4177483963
 11
158.1998617306
 21
73.8046224666
  0
LINE
  5
228
100
AcDbEntity
  8
KONSTRUKTIONSELEMENTE
100
AcDbLine
 62
7
  6
CONTINUOUS
 10
166.1290624492
 20
60.2686301505
 11
192.5193558237
 21
15.2175813733
  0
LINE
  5
229
100
AcDbEntity
  8
KONSTRUKTIONSELEMENTE
100
AcDbLine
 62
7
  6
CONTINUOUS
 10
166.1290624492
 20
60.8343155754
 11
165.8229157033
 21
61.3569407614
  0
LINE
  5
22A
100
AcDbEntity
  8
BEZUGSACHSEN
100
AcDbLine
 62
7
  6
CONTINUOUS
 10
243.3451849296
 20
176.2108782472
 11
243.8273928168
 21
176.3239327279
  0
LINE
  5
22B
100
AcDbEntity
  8
BEZUGSACHSEN
100
AcDbLine
 62
7
  6
CONTINUOUS
 10
243.1616172188
 20
175.5374092763
 11
243.9852090329
 21
175.6884677121
  0
LINE
  5
22C
100
AcDbEntity
  8
KONSTRUKTIONSELEMENTE
100
AcDbLine
 62
7
  6
CONTINUOUS
 10
171.47746376
 20
74.7896540365
 11
177.0362802276
 21
65.3001607492
  0
LINE
  5
22D
100
AcDbEntity
  8
BEZUGSACHSEN
100
AcDbLine
 62
7
  6
CONTINUOUS
 10
233.495420844
 20
186.8374461965
 11
234.2829011461
 21
187.0504727933
  0
LINE
  5
22E
100
AcDbEntity
  8
BEZUGSACHSEN
100
AcDbLine
 62
7
  6
CONTINUOUS
 10
233.8235461377
 20
193.9264310872
 11
234.6110264067
 21
194.139457639
  0
LINE
  5
22F
100
AcDbEntity
  8
BEZUGSACHSEN
100
AcDbLine
 62
7
  6
CONTINUOUS
 10
242.7566636185
 20
179.3511566507
 11
243.2388717029
 21
179.4642112365
  0
LINE
  5
230
100
AcDbEntity
  8
BEZUGSACHSEN
100
AcDbLine
 62
7
  6
CONTINUOUS
 10
245.0098925037
 20
180.5518839135
 11
245.4921007853
 21
180.6649386044
  0
LINE
  5
231
100
AcDbEntity
  8
BEZUGSACHSEN
100
AcDbLine
 62
7
  6
CONTINUOUS
 10
244.8520762875
 20
181.1873489293
 11
245.6756683975
 21
181.3384075228
  0
LINE
  5
232
100
AcDbEntity
  8
BEZUGSACHSEN
100
AcDbLine
 62
7
  6
CONTINUOUS
 10
191.1653660647
 20
186.3397928697
 11
191.7617080781
 21
186.4054881754
  0
LINE
  5
233
100
AcDbEntity
  8
BEZUGSACHSEN
100
AcDbLine
 62
7
  6
CONTINUOUS
 10
229.4223799605
 20
193.3385818661
 11
230.0187307734
 21
193.4042026688
  0
LINE
  5
234
100
AcDbEntity
  8
BEZUGSACHSEN
100
AcDbLine
 62
7
  6
CONTINUOUS
 10
183.7534394389
 20
188.7131435656
 11
184.4485227507
 21
188.7773190113
  0
LINE
  5
235
100
AcDbEntity
  8
BEZUGSACHSEN
100
AcDbLine
 62
7
  6
CONTINUOUS
 10
233.3622433205
 20
187.7279211455
 11
233.8582796156
 21
187.759161898
  0
LINE
  5
236
100
AcDbEntity
  8
BEZUGSACHSEN
100
AcDbLine
 62
7
  6
CONTINUOUS
 10
234.2481653931
 20
193.2177437953
 11
234.744201622
 21
193.2489844578
  0
LINE
  5
237
100
AcDbEntity
  8
BEZUGSACHSEN
100
AcDbLine
 62
7
  6
CONTINUOUS
 10
242.6764792624
 20
183.7581154196
 11
244.02847855
 21
183.7809793765
  0
LINE
  5
238
100
AcDbEntity
  8
BEZUGSACHSEN
100
AcDbLine
 62
7
  6
CONTINUOUS
 10
243.718736514
 20
184.4952702673
 11
245.0707354367
 21
184.518133966
  0
LINE
  5
239
100
AcDbEntity
  8
BEZUGSACHSEN
100
AcDbLine
 62
7
  6
CONTINUOUS
 10
242.8032467016
 20
176.2099107061
 11
243.3451849296
 21
176.2108782472
  0
LINE
  5
23A
100
AcDbEntity
  8
BEZUGSACHSEN
100
AcDbLine
 62
7
  6
CONTINUOUS
 10
245.4921007853
 20
180.6649386044
 11
246.0340389148
 21
180.665906093
  0
LINE
  5
23B
100
AcDbEntity
  8
BEZUGSACHSEN
100
AcDbLine
 62
7
  6
CONTINUOUS
 10
190.7693275267
 20
187.2477460958
 11
191.2661703524
 21
187.2345098849
  0
LINE
  5
23C
100
AcDbEntity
  8
BEZUGSACHSEN
100
AcDbLine
 62
7
  6
CONTINUOUS
 10
242.4191247389
 20
175.5734781755
 11
243.1616172188
 21
175.5374092763
  0
LINE
  5
23D
100
AcDbEntity
  8
BEZUGSACHSEN
100
AcDbLine
 62
7
  6
CONTINUOUS
 10
245.6756683975
 20
181.3384075228
 11
246.4181608281
 21
181.3023385973
  0
LINE
  5
23E
100
AcDbEntity
  8
BEZUGSACHSEN
100
AcDbLine
 62
7
  6
CONTINUOUS
 10
184.2676646653
 20
188.0900040876
 11
184.6750322009
 21
188.0693010413
  0
LINE
  5
23F
100
AcDbEntity
  8
BEZUGSACHSEN
100
AcDbLine
 62
7
  6
CONTINUOUS
 10
232.8970861545
 20
186.8814798365
 11
233.495420844
 21
186.8374461965
  0
LINE
  5
240
100
AcDbEntity
  8
BEZUGSACHSEN
100
AcDbLine
 62
7
  6
CONTINUOUS
 10
243.2388717029
 20
179.4642112365
 11
243.6399830394
 21
179.3901332777
  0
LINE
  5
241
100
AcDbEntity
  8
BEZUGSACHSEN
100
AcDbLine
 62
7
  6
CONTINUOUS
 10
184.4485227507
 20
188.7773190113
 11
185.179225453
 21
188.6406824947
  0
LINE
  5
242
100
AcDbEntity
  8
BEZUGSACHSEN
100
AcDbLine
 62
7
  6
CONTINUOUS
 10
190.3706789798
 20
186.5241280838
 11
191.1653660647
 21
186.3397928697
  0
LINE
  5
243
100
AcDbEntity
  8
BEZUGSACHSEN
100
AcDbLine
 62
7
  6
CONTINUOUS
 10
190.2728106164
 20
187.4649282578
 11
190.7693275267
 21
187.2477460958
  0
LINE
  5
244
100
AcDbEntity
  8
BEZUGSACHSEN
100
AcDbLine
 62
7
  6
CONTINUOUS
 10
186.5054247127
 20
186.2847616209
 11
190.0136998648
 21
184.7134518562
  0
LINE
  5
245
100
AcDbEntity
  8
BEZUGSACHSEN
100
AcDbLine
 62
7
  6
CONTINUOUS
 10
186.2405343785
 20
185.5022164096
 11
189.4254742437
 21
184.046839979
  0
LINE
  5
246
100
AcDbEntity
  8
BEZUGSACHSEN
100
AcDbLine
 62
7
  6
CONTINUOUS
 10
184.6750322009
 20
188.0693010413
 11
185.1180188867
 21
187.8477857602
  0
LINE
  5
247
100
AcDbEntity
  8
BEZUGSACHSEN
100
AcDbLine
 62
7
  6
CONTINUOUS
 10
185.179225453
 20
188.6406824947
 11
185.6222121388
 21
188.4191672136
  0
LINE
  5
248
100
AcDbEntity
  8
BEZUGSACHSEN
100
AcDbLine
 62
7
  6
CONTINUOUS
 10
189.7749894686
 20
186.8663255877
 11
190.3706789798
 21
186.5241280838
  0
LINE
  5
249
100
AcDbEntity
  8
BEZUGSACHSEN
100
AcDbLine
 62
7
  6
CONTINUOUS
 10
186.8204758545
 20
181.0947025605
 11
181.1968537877
 21
186.0570482608
  0
LINE
  5
24A
100
AcDbEntity
  8
RUNDUNGEN
100
AcDbLine
 62
7
  6
CONTINUOUS
 10
174.7057367535
 20
113.7542033664
 11
171.3881017124
 21
119.5005158187
  0
LINE
  5
24B
100
AcDbEntity
  8
0
100
AcDbLine
 62
7
  6
CONTINUOUS
 10
110.6076605422
 20
511.4580509437
 11
110.6076605422
 21
391.4580509437
  0
LINE
  5
24C
100
AcDbEntity
  8
BEZUGSACHSEN
100
AcDbLine
 62
7
  6
CONTINUOUS
 10
194.3588571013
 20
196.8887161031
 11
194.9943312349
 21
197.0464897512
  0
LINE
  5
24D
100
AcDbEntity
  8
BEZUGSACHSEN
100
AcDbLine
 62
7
  6
CONTINUOUS
 10
194.8090740922
 20
196.043725669
 11
195.3324598624
 21
196.1417778296
  0
LINE
  5
24E
100
AcDbEntity
  8
BEZUGSACHSEN
100
AcDbLine
 62
7
  6
CONTINUOUS
 10
229.2436222041
 20
194.1345411303
 11
229.6560854564
 21
194.1119586048
  0
LINE
  5
24F
100
AcDbEntity
  8
BEZUGSACHSEN
100
AcDbLine
 62
7
  6
CONTINUOUS
 10
194.9943312349
 20
197.0464897512
 11
195.5927531702
 21
197.0037101728
  0
LINE
  5
250
100
AcDbEntity
  8
BEZUGSACHSEN
100
AcDbLine
 62
7
  6
CONTINUOUS
 10
234.6110264067
 20
194.139457639
 11
235.20935873
 21
194.095425688
  0
LINE
  5
251
100
AcDbEntity
  8
BEZUGSACHSEN
100
AcDbLine
 62
7
  6
CONTINUOUS
 10
195.3324598624
 20
196.1417778296
 11
195.8187947172
 21
196.0392774472
  0
LINE
  5
252
100
AcDbEntity
  8
0
100
AcDbLine
 62
7
  6
CONTINUOUS
 10
241.0372240247
 20
200.6879881279
 11
225.6076605422
 21
205.7013572077
  0
LINE
  5
253
100
AcDbEntity
  8
BEZUGSACHSEN
100
AcDbLine
 62
7
  6
CONTINUOUS
 10
232.858488482
 20
187.9004797636
 11
233.3622433205
 21
187.7279211455
  0
LINE
  5
254
100
AcDbEntity
  8
BEZUGSACHSEN
100
AcDbLine
 62
7
  6
CONTINUOUS
 10
234.744201622
 20
193.2489844578
 11
235.2479611431
 21
193.0764223941
  0
LINE
  5
255
100
AcDbEntity
  8
BEZUGSACHSEN
100
AcDbLine
 62
7
  6
CONTINUOUS
 10
242.3424078569
 20
176.3960705263
 11
242.8032467016
 21
176.2099107061
  0
LINE
  5
256
100
AcDbEntity
  8
BEZUGSACHSEN
100
AcDbLine
 62
7
  6
CONTINUOUS
 10
243.6399830394
 20
179.3901332777
 11
244.100821884
 21
179.2039734575
  0
LINE
  5
257
100
AcDbEntity
  8
BEZUGSACHSEN
100
AcDbLine
 62
7
  6
CONTINUOUS
 10
243.8235479174
 20
180.0636073268
 11
244.7452256066
 21
179.6912876864
  0
LINE
  5
258
100
AcDbEntity
  8
BEZUGSACHSEN
100
AcDbLine
 62
7
  6
CONTINUOUS
 10
246.0340389148
 20
180.665906093
 11
246.4948777594
 21
180.4797462728
  0
LINE
  5
259
100
AcDbEntity
  8
BEZUGSACHSEN
100
AcDbLine
 62
7
  6
CONTINUOUS
 10
232.2910375547
 20
187.1293093339
 11
232.8970861545
 21
186.8814798365
  0
LINE
  5
25A
100
AcDbEntity
  8
BEZUGSACHSEN
100
AcDbLine
 62
7
  6
CONTINUOUS
 10
235.20935873
 20
194.095425688
 11
235.8154120042
 21
193.8475927338
  0
LINE
  5
25B
100
AcDbEntity
  8
BEZUGSACHSEN
100
AcDbLine
 62
7
  6
CONTINUOUS
 10
195.5927531702
 20
197.0037101728
 11
196.3412474359
 21
196.6792671164
  0
LINE
  5
25C
100
AcDbEntity
  8
BEZUGSACHSEN
100
AcDbLine
 62
7
  6
CONTINUOUS
 10
241.6980013138
 20
175.9087613821
 11
242.4191247389
 21
175.5734781755
  0
LINE
  5
25D
100
AcDbEntity
  8
BEZUGSACHSEN
100
AcDbLine
 62
7
  6
CONTINUOUS
 10
246.4181608281
 20
181.3023385973
 11
247.139281482
 21
180.9670605017
  0
LINE
  5
25E
100
AcDbEntity
  8
BEZUGSACHSEN
100
AcDbLine
 62
7
  6
CONTINUOUS
 10
228.0501947175
 20
189.925065892
 11
228.8502109466
 21
189.5373147696
  0
LINE
  5
25F
100
AcDbEntity
  8
BEZUGSACHSEN
100
AcDbLine
 62
7
  6
CONTINUOUS
 10
226.6545535362
 20
194.3254298445
 11
228.5974534559
 21
193.3837469172
  0
LINE
  5
260
100
AcDbEntity
  8
BEZUGSACHSEN
100
AcDbLine
 62
7
  6
CONTINUOUS
 10
227.0721439768
 20
195.1870111793
 11
229.2436222041
 21
194.1345411303
  0
LINE
  5
261
100
AcDbEntity
  8
BEZUGSACHSEN
100
AcDbLine
 62
7
  6
CONTINUOUS
 10
228.1161202733
 20
197.3409649186
 11
230.2875985005
 21
196.2884948696
  0
LINE
  5
262
100
AcDbEntity
  8
BEZUGSACHSEN
100
AcDbLine
 62
7
  6
CONTINUOUS
 10
227.778382616
 20
198.3913081937
 11
230.5213013806
 21
197.0618728761
  0
LINE
  5
263
100
AcDbEntity
  8
BEZUGSACHSEN
100
AcDbLine
 62
7
  6
CONTINUOUS
 10
195.8187947172
 20
196.0392774472
 11
196.2680788668
 21
195.7362241272
  0
LINE
  5
264
100
AcDbEntity
  8
BEZUGSACHSEN
100
AcDbLine
 62
7
  6
CONTINUOUS
 10
196.3412474359
 20
196.6792671164
 11
196.8655675404
 21
196.2353824519
  0
LINE
  5
265
100
AcDbEntity
  8
BEZUGSACHSEN
100
AcDbLine
 62
7
  6
CONTINUOUS
 10
189.7766206905
 20
187.8860573618
 11
190.2728106164
 21
187.4649282578
  0
LINE
  5
266
100
AcDbEntity
  8
BEZUGSACHSEN
100
AcDbLine
 62
7
  6
CONTINUOUS
 10
187.3246691066
 20
181.6660840139
 11
184.8119868709
 21
183.883302337
  0
LINE
  5
267
100
AcDbEntity
  8
BEZUGSACHSEN
100
AcDbLine
 62
7
  6
CONTINUOUS
 10
184.0940777565
 20
184.516793202
 11
182.2993046352
 21
186.1005206601
  0
LINE
  5
268
100
AcDbEntity
  8
BEZUGSACHSEN
100
AcDbLine
 62
7
  6
CONTINUOUS
 10
185.1180188867
 20
187.8477857602
 11
185.4769737791
 21
187.531040032
  0
LINE
  5
269
100
AcDbEntity
  8
BEZUGSACHSEN
100
AcDbLine
 62
7
  6
CONTINUOUS
 10
185.6222121388
 20
188.4191672136
 11
186.1008185503
 21
187.9968396746
  0
LINE
  5
26A
100
AcDbEntity
  8
BEZUGSACHSEN
100
AcDbLine
 62
7
  6
CONTINUOUS
 10
189.1796261574
 20
187.4124692685
 11
189.7749894686
 21
186.8663255877
  0
LINE
  5
26B
100
AcDbEntity
  8
BEZUGSACHSEN
100
AcDbLine
 62
7
  6
CONTINUOUS
 10
189.1796261574
 20
187.4124692685
 11
186.1052684443
 21
191.2879356782
  0
LINE
  5
26C
100
AcDbEntity
  8
BEZUGSACHSEN
100
AcDbLine
 62
7
  6
CONTINUOUS
 10
189.7766206905
 20
187.8860573618
 11
186.7022629773
 21
191.7615237715
  0
LINE
  5
26D
100
AcDbEntity
  8
BEZUGSACHSEN
100
AcDbLine
 62
7
  6
CONTINUOUS
 10
189.0902399709
 20
193.6558752412
 11
192.164597684
 21
189.7804088315
  0
LINE
  5
26E
100
AcDbEntity
  8
BEZUGSACHSEN
100
AcDbLine
 62
7
  6
CONTINUOUS
 10
185.7518962078
 20
187.1190644481
 11
185.4769737791
 21
187.531040032
  0
LINE
  5
26F
100
AcDbEntity
  8
BEZUGSACHSEN
100
AcDbLine
 62
7
  6
CONTINUOUS
 10
186.375740979
 20
187.5848640907
 11
186.1008185503
 21
187.9968396746
  0
LINE
  5
270
100
AcDbEntity
  8
0
100
AcDbLine
 62
7
  6
CONTINUOUS
 10
142.6076605422
 20
511.4580509437
 11
142.6076605422
 21
391.4580509437
  0
LINE
  5
271
100
AcDbEntity
  8
BEZUGSACHSEN
100
AcDbLine
 62
7
  6
CONTINUOUS
 10
231.3703797291
 20
187.8067576861
 11
232.2910375547
 21
187.1293093339
  0
LINE
  5
272
100
AcDbEntity
  8
BEZUGSACHSEN
100
AcDbLine
 62
7
  6
CONTINUOUS
 10
231.9378306564
 20
188.5779281158
 11
232.858488482
 21
187.9004797636
  0
LINE
  5
273
100
AcDbEntity
  8
BEZUGSACHSEN
100
AcDbLine
 62
7
  6
CONTINUOUS
 10
234.0802422542
 20
189.7751518291
 11
235.0009000798
 21
189.0977034769
  0
LINE
  5
274
100
AcDbEntity
  8
BEZUGSACHSEN
100
AcDbLine
 62
7
  6
CONTINUOUS
 10
234.6476931153
 20
190.5463221688
 11
236.1821228246
 21
189.4172415818
  0
LINE
  5
275
100
AcDbEntity
  8
BEZUGSACHSEN
100
AcDbLine
 62
7
  6
CONTINUOUS
 10
236.4195272325
 20
191.0256293261
 11
237.0332991163
 21
190.5739970913
  0
LINE
  5
276
100
AcDbEntity
  8
BEZUGSACHSEN
100
AcDbLine
 62
7
  6
CONTINUOUS
 10
235.2479611431
 20
193.0764223941
 11
236.1686189687
 21
192.3989740418
  0
LINE
  5
277
100
AcDbEntity
  8
BEZUGSACHSEN
100
AcDbLine
 62
7
  6
CONTINUOUS
 10
235.8154120042
 20
193.8475927338
 11
236.7360698298
 21
193.1701443815
  0
LINE
  5
278
100
AcDbEntity
  8
BEZUGSACHSEN
100
AcDbLine
 62
7
  6
CONTINUOUS
 10
242.0223958053
 20
176.6572757939
 11
242.3424078569
 21
176.3960705263
  0
LINE
  5
279
100
AcDbEntity
  8
BEZUGSACHSEN
100
AcDbLine
 62
7
  6
CONTINUOUS
 10
244.100821884
 20
179.2039734575
 11
244.4208339356
 21
178.9427681899
  0
LINE
  5
27A
100
AcDbEntity
  8
BEZUGSACHSEN
100
AcDbLine
 62
7
  6
CONTINUOUS
 10
246.4948777594
 20
180.4797462728
 11
246.814889811
 21
180.2185410052
  0
LINE
  5
27B
100
AcDbEntity
  8
BEZUGSACHSEN
100
AcDbLine
 62
7
  6
CONTINUOUS
 10
230.5213013806
 20
197.0618728761
 11
231.0231435111
 21
196.6413107185
  0
LINE
  5
27C
100
AcDbEntity
  8
BEZUGSACHSEN
100
AcDbLine
 62
7
  6
CONTINUOUS
 10
196.2680788668
 20
195.7362241272
 11
196.680310608
 21
195.2326179752
  0
LINE
  5
27D
100
AcDbEntity
  8
BEZUGSACHSEN
100
AcDbLine
 62
7
  6
CONTINUOUS
 10
189.6872342193
 20
194.1294631086
 11
192.7615919324
 21
190.2539966989
  0
LINE
  5
27E
100
AcDbEntity
  8
BEZUGSACHSEN
100
AcDbLine
 62
7
  6
CONTINUOUS
 10
196.8655675404
 20
196.2353824519
 11
197.3528356569
 21
195.5909441664
  0
LINE
  5
27F
100
AcDbEntity
  8
BEZUGSACHSEN
100
AcDbLine
 62
7
  6
CONTINUOUS
 10
193.1579567813
 20
189.5499900945
 11
192.7615919324
 21
190.2539966989
  0
LINE
  5
280
100
AcDbEntity
  8
BEZUGSACHSEN
100
AcDbLine
 62
7
  6
CONTINUOUS
 10
195.1954570879
 20
188.8363188156
 11
191.6687569055
 21
195.4554113382
  0
LINE
  5
281
100
AcDbEntity
  8
BEZUGSACHSEN
100
AcDbLine
 62
7
  6
CONTINUOUS
 10
195.4177650934
 20
190.0396355395
 11
192.7914989453
 21
194.9687470954
  0
LINE
  5
282
100
AcDbEntity
  8
BEZUGSACHSEN
100
AcDbLine
 62
7
  6
CONTINUOUS
 10
196.680310608
 20
195.2326179752
 11
197.8058531903
 21
193.1201416928
  0
LINE
  5
283
100
AcDbEntity
  8
BEZUGSACHSEN
100
AcDbLine
 62
7
  6
CONTINUOUS
 10
197.3528356569
 20
195.5909441664
 11
198.4783782393
 21
193.478467884
  0
LINE
  5
284
100
AcDbEntity
  8
BEZUGSACHSEN
100
AcDbLine
 62
7
  6
CONTINUOUS
 10
192.4617897169
 20
189.2014172556
 11
192.164597684
 21
189.7804088315
  0
LINE
  5
285
100
AcDbEntity
  8
0
100
AcDbLine
 62
7
  6
CONTINUOUS
 10
166.6076605422
 20
146.611744917
 11
171.3881017124
 21
119.5005158187
  0
LINE
  5
286
100
AcDbEntity
  8
KONSTRUKTIONSELEMENTE
100
AcDbLine
 62
7
  6
CONTINUOUS
 10
156.0601642612
 20
78.5825327969
 11
156.0601642612
 21
82.1180667029
  0
LINE
  5
287
100
AcDbEntity
  8
KONSTRUKTIONSELEMENTE
100
AcDbLine
 62
7
  6
CONTINUOUS
 10
165.6402265813
 20
62.0063760815
 11
165.6402265813
 21
64.4105391376
  0
LINE
  5
288
100
AcDbEntity
  8
KONSTRUKTIONSELEMENTE
100
AcDbLine
 62
7
  6
CONTINUOUS
 10
166.1290624492
 20
60.2686301505
 11
166.1290624492
 21
60.8343155754
  0
LINE
  5
289
100
AcDbEntity
  8
0
100
AcDbLine
 62
7
  6
CONTINUOUS
 10
166.6076605422
 20
176.5043569704
 11
166.6076605422
 21
146.611744917
  0
LINE
  5
28A
100
AcDbEntity
  8
BEZUGSACHSEN
100
AcDbLine
 62
7
  6
CONTINUOUS
 10
241.2585342336
 20
176.3941303659
 11
241.6980013138
 21
175.9087613821
  0
LINE
  5
28B
100
AcDbEntity
  8
BEZUGSACHSEN
100
AcDbLine
 62
7
  6
CONTINUOUS
 10
244.7452256066
 20
179.6912876864
 11
245.1846954088
 21
179.2059135653
  0
LINE
  5
28C
100
AcDbEntity
  8
BEZUGSACHSEN
100
AcDbLine
 62
7
  6
CONTINUOUS
 10
247.139281482
 20
180.9670605017
 11
247.5787512841
 21
180.4816863806
  0
LINE
  5
28D
100
AcDbEntity
  8
BEZUGSACHSEN
100
AcDbLine
 62
7
  6
CONTINUOUS
 10
230.2875985005
 20
196.2884948696
 11
230.5608649393
 21
195.9787185658
  0
LINE
  5
28E
100
AcDbEntity
  8
BEZUGSACHSEN
100
AcDbLine
 62
7
  6
CONTINUOUS
 10
230.9534767502
 20
188.3116474315
 11
231.3703797291
 21
187.8067576861
  0
LINE
  5
28F
100
AcDbEntity
  8
BEZUGSACHSEN
100
AcDbLine
 62
7
  6
CONTINUOUS
 10
236.7360698298
 20
193.1701443815
 11
237.1529681343
 21
192.665258093
  0
LINE
  5
290
100
AcDbEntity
  8
BEZUGSACHSEN
100
AcDbLine
 62
7
  6
CONTINUOUS
 10
231.6232214223
 20
189.0075469594
 11
231.9378306564
 21
188.5779281158
  0
LINE
  5
291
100
AcDbEntity
  8
BEZUGSACHSEN
100
AcDbLine
 62
7
  6
CONTINUOUS
 10
236.1686189687
 20
192.3989740418
 11
236.4832235201
 21
191.9693586439
  0
LINE
  5
292
100
AcDbEntity
  8
BEZUGSACHSEN
100
AcDbLine
 62
7
  6
CONTINUOUS
 10
238.9474754974
 20
180.1873502362
 11
239.3874996442
 21
179.565203669
  0
LINE
  5
293
100
AcDbEntity
  8
BEZUGSACHSEN
100
AcDbLine
 62
7
  6
CONTINUOUS
 10
245.0707354367
 20
184.518133966
 11
245.5107595836
 21
183.8959873989
  0
LINE
  5
294
100
AcDbEntity
  8
BEZUGSACHSEN
100
AcDbLine
 62
7
  6
CONTINUOUS
 10
198.7414719844
 20
192.7145883849
 11
198.4783782393
 21
193.478467884
  0
LINE
  5
295
100
AcDbEntity
  8
BEZUGSACHSEN
100
AcDbLine
 62
7
  6
CONTINUOUS
 10
186.6022504292
 20
186.8768461207
 11
186.375740979
 21
187.5848640907
  0
LINE
  5
296
100
AcDbEntity
  8
BEZUGSACHSEN
100
AcDbLine
 62
7
  6
CONTINUOUS
 10
197.9939107703
 20
192.4970939327
 11
197.8058531903
 21
193.1201416928
  0
LINE
  5
297
100
AcDbEntity
  8
BEZUGSACHSEN
100
AcDbLine
 62
7
  6
CONTINUOUS
 10
193.3556502218
 20
188.8920674209
 11
193.1579567813
 21
189.5499900945
  0
LINE
  5
298
100
AcDbEntity
  8
BEZUGSACHSEN
100
AcDbLine
 62
7
  6
CONTINUOUS
 10
185.8231347484
 20
186.7174402511
 11
185.7518962078
 21
187.1190644481
  0
LINE
  5
299
100
AcDbEntity
  8
RUNDUNGEN
100
AcDbLine
 62
7
  6
CONTINUOUS
 10
175.1076605422
 20
86.7859914123
 11
175.1076605422
 21
127.9156467788
  0
LINE
  5
29A
100
AcDbEntity
  8
KONSTRUKTIONSELEMENTE
100
AcDbLine
 62
7
  6
CONTINUOUS
 10
188.9555485857
 20
106.3785590194
 11
188.9555485857
 21
95.9804121937
  0
LINE
  5
29B
100
AcDbEntity
  8
BEZUGSACHSEN
100
AcDbLine
 62
7
  6
CONTINUOUS
 10
193.3543451652
 20
188.0762818675
 11
193.3556502218
 21
188.8920674209
  0
LINE
  5
29C
100
AcDbEntity
  8
0
100
AcDbLine
 62
7
  6
CONTINUOUS
 10
258.6076605422
 20
176.5043569704
 11
241.0372240247
 21
200.6879881279
  0
LINE
  5
29D
100
AcDbEntity
  8
BEZUGSACHSEN
100
AcDbLine
 62
7
  6
CONTINUOUS
 10
240.9598912245
 20
176.9545499344
 11
241.2585342336
 21
176.3941303659
  0
LINE
  5
29E
100
AcDbEntity
  8
BEZUGSACHSEN
100
AcDbLine
 62
7
  6
CONTINUOUS
 10
241.6042977799
 20
177.4418590851
 11
242.0223958053
 21
176.6572757939
  0
LINE
  5
29F
100
AcDbEntity
  8
BEZUGSACHSEN
100
AcDbLine
 62
7
  6
CONTINUOUS
 10
244.4208339356
 20
178.9427681899
 11
244.8389319611
 21
178.1581848987
  0
LINE
  5
2A0
100
AcDbEntity
  8
BEZUGSACHSEN
100
AcDbLine
 62
7
  6
CONTINUOUS
 10
245.1846954088
 20
179.2059135653
 11
245.4833384179
 21
178.6454939968
  0
LINE
  5
2A1
100
AcDbEntity
  8
BEZUGSACHSEN
100
AcDbLine
 62
7
  6
CONTINUOUS
 10
246.8061251039
 20
178.1991017386
 11
247.104768113
 21
177.6386821701
  0
LINE
  5
2A2
100
AcDbEntity
  8
BEZUGSACHSEN
100
AcDbLine
 62
7
  6
CONTINUOUS
 10
246.814889811
 20
180.2185410052
 11
247.1732603283
 21
179.5460395753
  0
LINE
  5
2A3
100
AcDbEntity
  8
BEZUGSACHSEN
100
AcDbLine
 62
7
  6
CONTINUOUS
 10
247.5787512841
 20
180.4816863806
 11
247.8176640509
 21
180.0333538043
  0
LINE
  5
2A4
100
AcDbEntity
  8
BEZUGSACHSEN
100
AcDbLine
 62
7
  6
CONTINUOUS
 10
230.7334450258
 20
188.869792976
 11
230.9534767502
 21
188.3116474315
  0
LINE
  5
2A5
100
AcDbEntity
  8
BEZUGSACHSEN
100
AcDbLine
 62
7
  6
CONTINUOUS
 10
231.0231435111
 20
196.6413107185
 11
231.2715022902
 21
195.9889470755
  0
LINE
  5
2A6
100
AcDbEntity
  8
BEZUGSACHSEN
100
AcDbLine
 62
7
  6
CONTINUOUS
 10
192.5603102719
 20
188.6685096981
 11
192.4617897169
 21
189.2014172556
  0
LINE
  5
2A7
100
AcDbEntity
  8
BEZUGSACHSEN
100
AcDbLine
 62
7
  6
CONTINUOUS
 10
198.8174412537
 20
192.0318190386
 11
198.7414719844
 21
192.7145883849
  0
LINE
  5
2A8
100
AcDbEntity
  8
BEZUGSACHSEN
100
AcDbLine
 62
7
  6
CONTINUOUS
 10
197.9948438219
 20
191.9551564241
 11
197.9939107703
 21
192.4970939327
  0
LINE
  5
2A9
100
AcDbEntity
  8
0
100
AcDbLine
 62
7
  6
CONTINUOUS
 10
199.6076605422
 20
334.39965202
 11
199.6076605422
 21
168.5164498674
  0
LINE
  5
2AA
100
AcDbEntity
  8
KONSTRUKTIONSELEMENTE
100
AcDbLine
 62
7
  6
CONTINUOUS
 10
202.1276605422
 20
8.2047263851
 11
202.1276605422
 21
-8.6391637738
  0
LINE
  5
2AB
100
AcDbEntity
  8
0
100
AcDbLine
 62
7
  6
CONTINUOUS
 10
203.8076605422
 20
78.0246615784
 11
203.8076605422
 21
95.9804121937
  0
LINE
  5
2AC
100
AcDbEntity
  8
KONSTRUKTIONSELEMENTE
100
AcDbLine
 62
7
  6
CONTINUOUS
 10
203.8076605422
 20
95.9804121937
 11
203.8076605422
 21
117.7580509437
  0
LINE
  5
2AD
100
AcDbEntity
  8
KONSTRUKTIONSELEMENTE
100
AcDbLine
 62
7
  6
CONTINUOUS
 10
204.6076605422
 20
149.9648872463
 11
204.6076605422
 21
143.2442628241
  0
LINE
  5
2AE
100
AcDbEntity
  8
KONSTRUKTIONSELEMENTE
100
AcDbLine
 62
7
  6
CONTINUOUS
 10
204.6076605422
 20
118.8521888741
 11
204.6076605422
 21
108.2455871563
  0
LINE
  5
2AF
100
AcDbEntity
  8
KONSTRUKTIONSELEMENTE
100
AcDbLine
 62
7
  6
CONTINUOUS
 10
205.3276605422
 20
-10.9019054736
 11
205.3276605422
 21
7.2000281248
  0
LINE
  5
2B0
100
AcDbEntity
  8
KONSTRUKTIONSELEMENTE
100
AcDbLine
 62
7
  6
CONTINUOUS
 10
209.1076605422
 20
149.9648872463
 11
209.1076605422
 21
141.8827429805
  0
LINE
  5
2B1
100
AcDbEntity
  8
KONSTRUKTIONSELEMENTE
100
AcDbLine
 62
7
  6
CONTINUOUS
 10
209.1076605422
 20
118.8521888741
 11
209.1076605422
 21
108.2455871563
  0
LINE
  5
2B2
100
AcDbEntity
  8
KONSTRUKTIONSELEMENTE
100
AcDbLine
 62
7
  6
CONTINUOUS
 10
210.1076605422
 20
155.7076283415
 11
210.1076605422
 21
148.9878580194
  0
LINE
  5
2B3
100
AcDbEntity
  8
KONSTRUKTIONSELEMENTE
100
AcDbLine
 62
7
  6
CONTINUOUS
 10
210.1076605422
 20
109.2226163833
 11
210.1076605422
 21
106.0580509437
  0
LINE
  5
2B4
100
AcDbEntity
  8
KONSTRUKTIONSELEMENTE
100
AcDbLine
 62
7
  6
CONTINUOUS
 10
210.3576605422
 20
126.2581206614
 11
210.3576605422
 21
118.0519363424
  0
LINE
  5
2B5
100
AcDbEntity
  8
KONSTRUKTIONSELEMENTE
100
AcDbLine
 62
7
  6
CONTINUOUS
 10
214.8576605422
 20
126.2581206614
 11
214.8576605422
 21
118.0519363424
  0
LINE
  5
2B6
100
AcDbEntity
  8
KONSTRUKTIONSELEMENTE
100
AcDbLine
 62
7
  6
CONTINUOUS
 10
215.1076605422
 20
155.7076283415
 11
215.1076605422
 21
148.9878580194
  0
LINE
  5
2B7
100
AcDbEntity
  8
KONSTRUKTIONSELEMENTE
100
AcDbLine
 62
7
  6
CONTINUOUS
 10
215.1076605422
 20
109.2226163833
 11
215.1076605422
 21
106.0580509437
  0
LINE
  5
2B8
100
AcDbEntity
  8
BEZUGSACHSEN
100
AcDbLine
 62
7
  6
CONTINUOUS
 10
186.5054247127
 20
186.2847616209
 11
186.6022504292
 21
186.8768461207
  0
LINE
  5
2B9
100
AcDbEntity
  8
BEZUGSACHSEN
100
AcDbLine
 62
7
  6
CONTINUOUS
 10
237.1529681343
 20
192.665258093
 11
237.3730022249
 21
192.1071108595
  0
LINE
  5
2BA
100
AcDbEntity
  8
BEZUGSACHSEN
100
AcDbLine
 62
7
  6
CONTINUOUS
 10
240.8020750207
 20
177.5900149568
 11
240.9598912245
 21
176.9545499344
  0
LINE
  5
2BB
100
AcDbEntity
  8
BEZUGSACHSEN
100
AcDbLine
 62
7
  6
CONTINUOUS
 10
245.4833384179
 20
178.6454939968
 11
245.6411518998
 21
178.0100341118
  0
LINE
  5
2BC
100
AcDbEntity
  8
BEZUGSACHSEN
100
AcDbLine
 62
7
  6
CONTINUOUS
 10
231.5054858337
 20
189.4904199467
 11
231.6232214223
 21
189.0075469594
  0
LINE
  5
2BD
100
AcDbEntity
  8
BEZUGSACHSEN
100
AcDbLine
 62
7
  6
CONTINUOUS
 10
236.4832235201
 20
191.9693586439
 11
236.600959175
 21
191.4864857466
  0
LINE
  5
2BE
100
AcDbEntity
  8
BEZUGSACHSEN
100
AcDbLine
 62
7
  6
CONTINUOUS
 10
230.5608649393
 20
195.9787185658
 11
230.6502438176
 21
195.5807389337
  0
LINE
  5
2BF
100
AcDbEntity
  8
BEZUGSACHSEN
100
AcDbLine
 62
7
  6
CONTINUOUS
 10
241.5659393142
 20
177.8531552474
 11
241.6042977799
 21
177.4418590851
  0
LINE
  5
2C0
100
AcDbEntity
  8
BEZUGSACHSEN
100
AcDbLine
 62
7
  6
CONTINUOUS
 10
244.8389319611
 20
178.1581848987
 11
244.8772904267
 21
177.7468887364
  0
LINE
  5
2C1
100
AcDbEntity
  8
BEZUGSACHSEN
100
AcDbLine
 62
7
  6
CONTINUOUS
 10
247.1732603283
 20
179.5460395753
 11
247.2116187939
 21
179.1347434131
  0
LINE
  5
2C2
100
AcDbEntity
  8
BEZUGSACHSEN
100
AcDbLine
 62
7
  6
CONTINUOUS
 10
231.2715022902
 20
195.9889470755
 11
231.3359735087
 21
195.2483801043
  0
LINE
  5
2C3
100
AcDbEntity
  8
BEZUGSACHSEN
100
AcDbLine
 62
7
  6
CONTINUOUS
 10
230.7025659381
 20
189.6849935888
 11
230.7334450258
 21
188.869792976
  0
LINE
  5
2C4
100
AcDbEntity
  8
BEZUGSACHSEN
100
AcDbLine
 62
7
  6
CONTINUOUS
 10
237.3730022249
 20
192.1071108595
 11
237.4038813457
 21
191.2919102917
  0
LINE
  5
2C5
100
AcDbEntity
  8
KONSTRUKTIONSELEMENTE
100
AcDbLine
 62
7
  6
CONTINUOUS
 10
216.1076605422
 20
108.2455871563
 11
216.1076605422
 21
118.8521888741
  0
LINE
  5
2C6
100
AcDbEntity
  8
KONSTRUKTIONSELEMENTE
100
AcDbLine
 62
7
  6
CONTINUOUS
 10
216.1076605422
 20
141.8827429805
 11
216.1076605422
 21
149.9648872463
  0
LINE
  5
2C7
100
AcDbEntity
  8
KONSTRUKTIONSELEMENTE
100
AcDbLine
 62
7
  6
CONTINUOUS
 10
219.8876605422
 20
-10.9019054736
 11
219.8876605422
 21
7.2000281248
  0
LINE
  5
2C8
100
AcDbEntity
  8
KONSTRUKTIONSELEMENTE
100
AcDbLine
 62
7
  6
CONTINUOUS
 10
220.6076605422
 20
108.2455871563
 11
220.6076605422
 21
118.8521888741
  0
LINE
  5
2C9
100
AcDbEntity
  8
KONSTRUKTIONSELEMENTE
100
AcDbLine
 62
7
  6
CONTINUOUS
 10
220.6076605422
 20
143.2442628241
 11
220.6076605422
 21
149.9648872463
  0
LINE
  5
2CA
100
AcDbEntity
  8
0
100
AcDbLine
 62
7
  6
CONTINUOUS
 10
221.4076605422
 20
95.9804121937
 11
221.4076605422
 21
78.0246615784
  0
LINE
  5
2CB
100
AcDbEntity
  8
KONSTRUKTIONSELEMENTE
100
AcDbLine
 62
7
  6
CONTINUOUS
 10
221.4076605422
 20
95.9804121937
 11
221.4076605422
 21
117.7580509437
  0
LINE
  5
2CC
100
AcDbEntity
  8
KONSTRUKTIONSELEMENTE
100
AcDbLine
 62
7
  6
CONTINUOUS
 10
223.0876605422
 20
-8.6391637738
 11
223.0876605422
 21
7.7657135497
  0
LINE
  5
2CD
100
AcDbEntity
  8
0
100
AcDbLine
 62
7
  6
CONTINUOUS
 10
225.6076605422
 20
334.39965202
 11
225.6076605422
 21
168.5164498674
  0
LINE
  5
2CE
100
AcDbEntity
  8
KONSTRUKTIONSELEMENTE
100
AcDbLine
 62
7
  6
CONTINUOUS
 10
236.2597724986
 20
106.3785590194
 11
236.2597724986
 21
95.9804121937
  0
LINE
  5
2CF
100
AcDbEntity
  8
BEZUGSACHSEN
100
AcDbLine
 62
7
  6
CONTINUOUS
 10
198.6692363355
 20
191.2296081336
 11
198.8174412537
 21
192.0318190386
  0
LINE
  5
2D0
100
AcDbEntity
  8
BEZUGSACHSEN
100
AcDbLine
 62
7
  6
CONTINUOUS
 10
192.4601588492
 20
188.1816856198
 11
192.5603102719
 21
188.6685096981
  0
LINE
  5
2D1
100
AcDbEntity
  8
BEZUGSACHSEN
100
AcDbLine
 62
7
  6
CONTINUOUS
 10
185.6906896414
 20
186.3261677136
 11
185.8231347484
 21
186.7174402511
  0
LINE
  5
2D2
100
AcDbEntity
  8
BEZUGSACHSEN
100
AcDbLine
 62
7
  6
CONTINUOUS
 10
193.1546944679
 20
187.5105263821
 11
193.3543451652
 21
188.0762818675
  0
LINE
  5
2D3
100
AcDbEntity
  8
BEZUGSACHSEN
100
AcDbLine
 62
7
  6
CONTINUOUS
 10
247.8176640509
 20
180.0333538043
 11
247.9754802671
 21
179.3978887885
  0
LINE
  5
2D4
100
AcDbEntity
  8
RUNDUNGEN
100
AcDbLine
 62
7
  6
CONTINUOUS
 10
250.1076605422
 20
127.9156464635
 11
250.1076605422
 21
86.7859914123
  0
LINE
  5
2D5
100
AcDbEntity
  8
KONSTRUKTIONSELEMENTE
100
AcDbLine
 62
7
  6
CONTINUOUS
 10
252.9411589983
 20
19.2428019193
 11
252.9411589983
 21
15.7072680133
  0
LINE
  5
2D6
100
AcDbEntity
  8
0
100
AcDbLine
 62
7
  6
CONTINUOUS
 10
258.6076605422
 20
146.611744917
 11
258.6076605422
 21
176.5043569704
  0
LINE
  5
2D7
100
AcDbEntity
  8
BEZUGSACHSEN
100
AcDbLine
 62
7
  6
CONTINUOUS
 10
231.5846214168
 20
190.0265486206
 11
231.5054858337
 21
189.4904199467
  0
LINE
  5
2D8
100
AcDbEntity
  8
BEZUGSACHSEN
100
AcDbLine
 62
7
  6
CONTINUOUS
 10
229.4223799605
 20
193.3385818661
 11
228.8502109466
 21
189.5373147696
  0
LINE
  5
2D9
100
AcDbEntity
  8
BEZUGSACHSEN
100
AcDbLine
 62
7
  6
CONTINUOUS
 10
228.5974534559
 20
193.3837469172
 11
228.0501947175
 21
189.925065892
  0
LINE
  5
2DA
100
AcDbEntity
  8
BEZUGSACHSEN
100
AcDbLine
 62
7
  6
CONTINUOUS
 10
230.6502438176
 20
195.5807389337
 11
230.5557377511
 21
195.0945547054
  0
LINE
  5
2DB
100
AcDbEntity
  8
BEZUGSACHSEN
100
AcDbLine
 62
7
  6
CONTINUOUS
 10
231.3359735087
 20
195.2483801043
 11
231.2414674422
 21
194.762195876
  0
LINE
  5
2DC
100
AcDbEntity
  8
BEZUGSACHSEN
100
AcDbLine
 62
7
  6
CONTINUOUS
 10
230.8762743896
 20
190.3496524654
 11
230.7025659381
 21
189.6849935888
  0
LINE
  5
2DD
100
AcDbEntity
  8
BEZUGSACHSEN
100
AcDbLine
 62
7
  6
CONTINUOUS
 10
197.8086536802
 20
191.4943297518
 11
197.9948438219
 21
191.9551564241
  0
LINE
  5
2DE
100
AcDbEntity
  8
BEZUGSACHSEN
100
AcDbLine
 62
7
  6
CONTINUOUS
 10
198.3709590804
 20
190.7090607189
 11
198.6692363355
 21
191.2296081336
  0
LINE
  5
2DF
100
AcDbEntity
  8
0
100
AcDbLine
 62
7
  6
CONTINUOUS
 10
184.1780970597
 20
200.6879881279
 11
166.6076605422
 21
176.5043569704
  0
LINE
  5
2E0
100
AcDbEntity
  8
BEZUGSACHSEN
100
AcDbLine
 62
7
  6
CONTINUOUS
 10
240.9259151617
 20
178.3755657562
 11
240.8020750207
 21
177.5900149568
  0
LINE
  5
2E1
100
AcDbEntity
  8
BEZUGSACHSEN
100
AcDbLine
 62
7
  6
CONTINUOUS
 10
245.6411518998
 20
178.0100341118
 11
245.51731453
 21
177.2244782013
  0
LINE
  5
2E2
100
AcDbEntity
  8
BEZUGSACHSEN
100
AcDbLine
 62
7
  6
CONTINUOUS
 10
247.9754802671
 20
179.3978887885
 11
247.8516428972
 21
178.6123328779
  0
LINE
  5
2E3
100
AcDbEntity
  8
BEZUGSACHSEN
100
AcDbLine
 62
7
  6
CONTINUOUS
 10
241.6684076416
 20
178.339496857
 11
241.5659393142
 21
177.8531552474
  0
LINE
  5
2E4
100
AcDbEntity
  8
BEZUGSACHSEN
100
AcDbLine
 62
7
  6
CONTINUOUS
 10
244.8772904267
 20
177.7468887364
 11
244.7748220994
 21
177.2605471268
  0
LINE
  5
2E5
100
AcDbEntity
  8
BEZUGSACHSEN
100
AcDbLine
 62
7
  6
CONTINUOUS
 10
247.2116187939
 20
179.1347434131
 11
247.1091504666
 21
178.6484018034
  0
LINE
  5
2E6
100
AcDbEntity
  8
BEZUGSACHSEN
100
AcDbLine
 62
7
  6
CONTINUOUS
 10
236.600959175
 20
191.4864857466
 11
236.4195272325
 21
191.0256293261
  0
LINE
  5
2E7
100
AcDbEntity
  8
BEZUGSACHSEN
100
AcDbLine
 62
7
  6
CONTINUOUS
 10
231.8606282378
 20
190.6159330709
 11
231.5846214168
 21
190.0265486206
  0
LINE
  5
2E8
100
AcDbEntity
  8
BEZUGSACHSEN
100
AcDbLine
 62
7
  6
CONTINUOUS
 10
225.6076605422
 20
193.9126289903
 11
227.778382616
 21
198.3913081937
  0
LINE
  5
2E9
100
AcDbEntity
  8
BEZUGSACHSEN
100
AcDbLine
 62
7
  6
CONTINUOUS
 10
225.6076605422
 20
192.1654583138
 11
226.6545535362
 21
194.3254298445
  0
LINE
  5
2EA
100
AcDbEntity
  8
BEZUGSACHSEN
100
AcDbLine
 62
7
  6
CONTINUOUS
 10
227.0721439768
 20
195.1870111793
 11
228.1161202733
 21
197.3409649186
  0
LINE
  5
2EB
100
AcDbEntity
  8
BEZUGSACHSEN
100
AcDbLine
 62
7
  6
CONTINUOUS
 10
230.5557377511
 20
195.0945547054
 11
230.3469423358
 21
194.6637636357
  0
LINE
  5
2EC
100
AcDbEntity
  8
BEZUGSACHSEN
100
AcDbLine
 62
7
  6
CONTINUOUS
 10
231.2414674422
 20
194.762195876
 11
230.9630736202
 21
194.1878079172
  0
LINE
  5
2ED
100
AcDbEntity
  8
BEZUGSACHSEN
100
AcDbLine
 62
7
  6
CONTINUOUS
 10
231.2468563541
 20
191.0675653057
 11
230.8762743896
 21
190.3496524654
  0
LINE
  5
2EE
100
AcDbEntity
  8
BEZUGSACHSEN
100
AcDbLine
 62
7
  6
CONTINUOUS
 10
192.1613353098
 20
187.7409451957
 11
192.4601588492
 21
188.1816856198
  0
LINE
  5
2EF
100
AcDbEntity
  8
BEZUGSACHSEN
100
AcDbLine
 62
7
  6
CONTINUOUS
 10
192.7563722754
 20
186.990854937
 11
193.1546944679
 21
187.5105263821
  0
LINE
  5
2F0
100
AcDbEntity
  8
BEZUGSACHSEN
100
AcDbLine
 62
7
  6
CONTINUOUS
 10
181.1968537877
 20
186.0570482608
 11
183.2136267962
 21
188.3425740745
  0
LINE
  5
2F1
100
AcDbEntity
  8
BEZUGSACHSEN
100
AcDbLine
 62
7
  6
CONTINUOUS
 10
182.2993046352
 20
186.1005206601
 11
183.8959165201
 21
187.9098951718
  0
LINE
  5
2F2
100
AcDbEntity
  8
BEZUGSACHSEN
100
AcDbLine
 62
7
  6
CONTINUOUS
 10
184.0940777565
 20
184.516793202
 11
185.6906896414
 21
186.3261677136
  0
LINE
  5
2F3
100
AcDbEntity
  8
BEZUGSACHSEN
100
AcDbLine
 62
7
  6
CONTINUOUS
 10
184.8119868709
 20
183.883302337
 11
186.2405343785
 21
185.5022164096
  0
LINE
  5
2F4
100
AcDbEntity
  8
BEZUGSACHSEN
100
AcDbLine
 62
7
  6
CONTINUOUS
 10
186.8204758545
 20
181.0947025605
 11
187.3246691066
 21
181.6660840139
  0
LINE
  5
2F5
100
AcDbEntity
  8
BEZUGSACHSEN
100
AcDbLine
 62
7
  6
CONTINUOUS
 10
189.4254742437
 20
184.046839979
 11
190.0136998648
 21
184.7134518562
  0
LINE
  5
2F6
100
AcDbEntity
  8
BEZUGSACHSEN
100
AcDbLine
 62
7
  6
CONTINUOUS
 10
197.4353402403
 20
191.1146141131
 11
197.8086536802
 21
191.4943297518
  0
LINE
  5
2F7
100
AcDbEntity
  8
0
100
AcDbLine
 62
7
  6
CONTINUOUS
 10
282.6076605422
 20
391.4580509437
 11
282.6076605422
 21
511.4580509437
  0
LINE
  5
2F8
100
AcDbEntity
  8
KONSTRUKTIONSELEMENTE
100
AcDbLine
 62
7
  6
CONTINUOUS
 10
286.2469281746
 20
77.1120027765
 11
286.2469281746
 21
73.5764688706
  0
LINE
  5
2F9
100
AcDbEntity
  8
0
100
AcDbLine
 62
7
  6
CONTINUOUS
 10
253.827219372
 20
119.5005158187
 11
258.6076605422
 21
146.611744917
  0
LINE
  5
2FA
100
AcDbEntity
  8
BEZUGSACHSEN
100
AcDbLine
 62
7
  6
CONTINUOUS
 10
244.7748220994
 20
177.2605471268
 11
244.6126262638
 21
176.8862873785
  0
LINE
  5
2FB
100
AcDbEntity
  8
BEZUGSACHSEN
100
AcDbLine
 62
7
  6
CONTINUOUS
 10
245.51731453
 20
177.2244782013
 11
245.2740194096
 21
176.6630911443
  0
LINE
  5
2FC
100
AcDbEntity
  8
BEZUGSACHSEN
100
AcDbLine
 62
7
  6
CONTINUOUS
 10
237.4038813457
 20
191.2919102917
 11
237.0332991163
 21
190.5739970913
  0
LINE
  5
2FD
100
AcDbEntity
  8
BEZUGSACHSEN
100
AcDbLine
 62
7
  6
CONTINUOUS
 10
241.3100371243
 20
179.0119982868
 11
240.9259151617
 21
178.3755657562
  0
LINE
  5
2FE
100
AcDbEntity
  8
BEZUGSACHSEN
100
AcDbLine
 62
7
  6
CONTINUOUS
 10
231.2468563541
 20
191.0675653057
 11
232.6654836393
 21
192.995491335
  0
LINE
  5
2FF
100
AcDbEntity
  8
BEZUGSACHSEN
100
AcDbLine
 62
7
  6
CONTINUOUS
 10
231.8606282378
 20
190.6159330709
 11
233.279255523
 21
192.5438591002
  0
LINE
  5
300
100
AcDbEntity
  8
BEZUGSACHSEN
100
AcDbLine
 62
7
  6
CONTINUOUS
 10
234.6476931153
 20
190.5463221688
 11
234.0802422542
 21
189.7751518291
  0
LINE
  5
301
100
AcDbEntity
  8
BEZUGSACHSEN
100
AcDbLine
 62
7
  6
CONTINUOUS
 10
235.0009000798
 20
189.0977034769
 11
234.2442987992
 21
188.0694761773
  0
LINE
  5
302
100
AcDbEntity
  8
BEZUGSACHSEN
100
AcDbLine
 62
7
  6
CONTINUOUS
 10
236.1821228246
 20
189.4172415818
 11
234.7634955394
 21
187.4893155525
  0
LINE
  5
303
100
AcDbEntity
  8
BEZUGSACHSEN
100
AcDbLine
 62
7
  6
CONTINUOUS
 10
230.0238579617
 20
194.2883665292
 11
230.3469423358
 21
194.6637636357
  0
LINE
  5
304
100
AcDbEntity
  8
BEZUGSACHSEN
100
AcDbLine
 62
7
  6
CONTINUOUS
 10
230.6399892461
 20
193.8124108107
 11
230.9630736202
 21
194.1878079172
  0
LINE
  5
305
100
AcDbEntity
  8
BEZUGSACHSEN
100
AcDbLine
 62
7
  6
CONTINUOUS
 10
197.8855572838
 20
190.2696235804
 11
198.3709590804
 21
190.7090607189
  0
LINE
  5
306
100
AcDbEntity
  8
BEZUGSACHSEN
100
AcDbLine
 62
7
  6
CONTINUOUS
 10
186.1052684443
 20
191.2879356782
 11
186.7022629773
 21
191.7615237715
  0
LINE
  5
307
100
AcDbEntity
  8
BEZUGSACHSEN
100
AcDbLine
 62
7
  6
CONTINUOUS
 10
189.0902399709
 20
193.6558752412
 11
189.6872342193
 21
194.1294631086
  0
LINE
  5
308
100
AcDbEntity
  8
BEZUGSACHSEN
100
AcDbLine
 62
7
  6
CONTINUOUS
 10
191.7633389545
 20
187.4252198002
 11
192.1613353098
 21
187.7409451957
  0
LINE
  5
309
100
AcDbEntity
  8
BEZUGSACHSEN
100
AcDbLine
 62
7
  6
CONTINUOUS
 10
192.35837592
 20
186.6751295415
 11
192.7563722754
 21
186.990854937
  0
LINE
  5
30A
100
AcDbEntity
  8
BEZUGSACHSEN
100
AcDbLine
 62
7
  6
CONTINUOUS
 10
183.2136267962
 20
188.3425740745
 11
183.7534394389
 21
188.7131435656
  0
LINE
  5
30B
100
AcDbEntity
  8
BEZUGSACHSEN
100
AcDbLine
 62
7
  6
CONTINUOUS
 10
191.6687569055
 20
195.4554113382
 11
194.3588571013
 21
196.8887161031
  0
LINE
  5
30C
100
AcDbEntity
  8
BEZUGSACHSEN
100
AcDbLine
 62
7
  6
CONTINUOUS
 10
192.7914989453
 20
194.9687470954
 11
194.8090740922
 21
196.043725669
  0
LINE
  5
30D
100
AcDbEntity
  8
BEZUGSACHSEN
100
AcDbLine
 62
7
  6
CONTINUOUS
 10
195.4177650934
 20
190.0396355395
 11
197.4353402403
 21
191.1146141131
  0
LINE
  5
30E
100
AcDbEntity
  8
BEZUGSACHSEN
100
AcDbLine
 62
7
  6
CONTINUOUS
 10
183.8959165201
 20
187.9098951718
 11
184.2676646653
 21
188.0900040876
  0
LINE
  5
30F
100
AcDbEntity
  8
0
100
AcDbLine
 62
7
  6
CONTINUOUS
 10
199.6076605422
 20
205.7013572077
 11
184.1780970597
 21
200.6879881279
  0
LINE
  5
310
100
AcDbEntity
  8
0
100
AcDbLine
 62
7
  6
CONTINUOUS
 10
314.6076605422
 20
391.4580509437
 11
314.6076605422
 21
511.4580509437
  0
LINE
  5
311
100
AcDbEntity
  8
BEZUGSACHSEN
100
AcDbLine
 62
7
  6
CONTINUOUS
 10
247.8516428972
 20
178.6123328779
 11
247.4675209839
 21
177.9759003736
  0
LINE
  5
312
100
AcDbEntity
  8
BEZUGSACHSEN
100
AcDbLine
 62
7
  6
CONTINUOUS
 10
241.9714303687
 20
178.7888021052
 11
241.6684076416
 21
178.339496857
  0
LINE
  5
313
100
AcDbEntity
  8
BEZUGSACHSEN
100
AcDbLine
 62
7
  6
CONTINUOUS
 10
247.1091504666
 20
178.6484018034
 11
246.8061251039
 21
178.1991017386
  0
LINE
  5
314
100
AcDbEntity
  8
BEZUGSACHSEN
100
AcDbLine
 62
7
  6
CONTINUOUS
 10
241.8947134374
 20
179.6113944297
 11
241.3100371243
 21
179.0119982868
  0
LINE
  5
315
100
AcDbEntity
  8
BEZUGSACHSEN
100
AcDbLine
 62
7
  6
CONTINUOUS
 10
245.2740194096
 20
176.6630911443
 11
244.6893431951
 21
176.063695054
  0
LINE
  5
316
100
AcDbEntity
  8
BEZUGSACHSEN
100
AcDbLine
 62
7
  6
CONTINUOUS
 10
232.6654836393
 20
192.995491335
 11
233.2406533749
 21
193.5628627542
  0
LINE
  5
317
100
AcDbEntity
  8
BEZUGSACHSEN
100
AcDbLine
 62
7
  6
CONTINUOUS
 10
242.3341832395
 20
179.1260203086
 11
241.9714303687
 21
178.7888021052
  0
LINE
  5
318
100
AcDbEntity
  8
BEZUGSACHSEN
100
AcDbLine
 62
7
  6
CONTINUOUS
 10
233.279255523
 20
192.5438591002
 11
233.7598498501
 21
192.9827017694
  0
LINE
  5
319
100
AcDbEntity
  8
BEZUGSACHSEN
100
AcDbLine
 62
7
  6
CONTINUOUS
 10
234.2829011461
 20
187.0504727933
 11
234.7634955394
 21
187.4893155525
  0
LINE
  5
31A
100
AcDbEntity
  8
BEZUGSACHSEN
100
AcDbLine
 62
7
  6
CONTINUOUS
 10
233.8582796156
 20
187.759161898
 11
234.2442987992
 21
188.0694761773
  0
LINE
  5
31B
100
AcDbEntity
  8
BEZUGSACHSEN
100
AcDbLine
 62
7
  6
CONTINUOUS
 10
230.0187307734
 20
193.4042026688
 11
230.6399892461
 21
193.8124108107
  0
LINE
  5
31C
100
AcDbEntity
  8
BEZUGSACHSEN
100
AcDbLine
 62
7
  6
CONTINUOUS
 10
233.2406533749
 20
193.5628627542
 11
233.8235461377
 21
193.9264310872
  0
LINE
  5
31D
100
AcDbEntity
  8
BEZUGSACHSEN
100
AcDbLine
 62
7
  6
CONTINUOUS
 10
195.1954570879
 20
188.8363188156
 11
197.8855572838
 21
190.2696235804
  0
LINE
  5
31E
100
AcDbEntity
  8
BEZUGSACHSEN
100
AcDbLine
 62
7
  6
CONTINUOUS
 10
233.7598498501
 20
192.9827017694
 11
234.2481653931
 21
193.2177437953
  0
LINE
  5
31F
100
AcDbEntity
  8
BEZUGSACHSEN
100
AcDbLine
 62
7
  6
CONTINUOUS
 10
229.6560854564
 20
194.1119586048
 11
230.0238579617
 21
194.2883665292
  0
LINE
  5
320
100
AcDbEntity
  8
BEZUGSACHSEN
100
AcDbLine
 62
7
  6
CONTINUOUS
 10
191.7617080781
 20
186.4054881754
 11
192.35837592
 21
186.6751295415
  0
LINE
  5
321
100
AcDbEntity
  8
BEZUGSACHSEN
100
AcDbLine
 62
7
  6
CONTINUOUS
 10
191.2661703524
 20
187.2345098849
 11
191.7633389545
 21
187.4252198002
  0
LINE
  5
322
100
AcDbEntity
  8
RUNDUNGEN
100
AcDbLine
 62
7
  6
CONTINUOUS
 10
250.5095843308
 20
113.7542033664
 11
253.827219372
 21
119.5005158187
  0
LINE
  5
323
100
AcDbEntity
  8
BEZUGSACHSEN
100
AcDbLine
 62
7
  6
CONTINUOUS
 10
244.6126262638
 20
176.8862873785
 11
244.2498731958
 21
176.5490690699
  0
LINE
  5
324
100
AcDbEntity
  8
BEZUGSACHSEN
100
AcDbLine
 62
7
  6
CONTINUOUS
 10
247.4675209839
 20
177.9759003736
 11
247.104768113
 21
177.6386821701
  0
LINE
  5
325
100
AcDbEntity
  8
BEZUGSACHSEN
100
AcDbLine
 62
7
  6
CONTINUOUS
 10
242.6764792624
 20
183.7581154196
 11
243.718736514
 21
184.4952702673
  0
LINE
  5
326
100
AcDbEntity
  8
BEZUGSACHSEN
100
AcDbLine
 62
7
  6
CONTINUOUS
 10
238.9474754974
 20
180.1873502362
 11
244.02847855
 21
183.7809793765
  0
LINE
  5
327
100
AcDbEntity
  8
BEZUGSACHSEN
100
AcDbLine
 62
7
  6
CONTINUOUS
 10
245.5107595836
 20
183.8959873989
 11
239.3874996442
 21
179.565203669
  0
LINE
  5
328
100
AcDbEntity
  8
BEZUGSACHSEN
100
AcDbLine
 62
7
  6
CONTINUOUS
 10
242.8207736775
 20
180.2487945277
 11
241.8947134374
 21
179.6113944297
  0
LINE
  5
329
100
AcDbEntity
  8
BEZUGSACHSEN
100
AcDbLine
 62
7
  6
CONTINUOUS
 10
242.8207736775
 20
180.2487945277
 11
243.8065612284
 21
180.7741126592
  0
LINE
  5
32A
100
AcDbEntity
  8
BEZUGSACHSEN
100
AcDbLine
 62
7
  6
CONTINUOUS
 10
243.8235479174
 20
180.0636073268
 11
244.1052015034
 21
180.2136982215
  0
LINE
  5
32B
100
AcDbEntity
  8
BEZUGSACHSEN
100
AcDbLine
 62
7
  6
CONTINUOUS
 10
242.3341832395
 20
179.1260203086
 11
242.7566636185
 21
179.3511566507
  0
LINE
  5
32C
100
AcDbEntity
  8
BEZUGSACHSEN
100
AcDbLine
 62
7
  6
CONTINUOUS
 10
244.2498731958
 20
176.5490690699
 11
243.8273928168
 21
176.3239327279
  0
LINE
  5
32D
100
AcDbEntity
  8
BEZUGSACHSEN
100
AcDbLine
 62
7
  6
CONTINUOUS
 10
244.6893431951
 20
176.063695054
 11
243.9852090329
 21
175.6884677121
  0
LINE
  5
32E
100
AcDbEntity
  8
BEZUGSACHSEN
100
AcDbLine
 62
7
  6
CONTINUOUS
 10
243.8065612284
 20
180.7741126592
 11
244.8520762875
 21
181.1873489293
  0
LINE
  5
32F
100
AcDbEntity
  8
BEZUGSACHSEN
100
AcDbLine
 62
7
  6
CONTINUOUS
 10
244.1052015034
 20
180.2136982215
 11
245.0098925037
 21
180.5518839135
  0
LINE
  5
330
100
AcDbEntity
  8
KONSTRUKTIONSELEMENTE
100
AcDbLine
 62
7
  6
CONTINUOUS
 10
239.1561054776
 20
26.2457305451
 11
264.3366753273
 21
69.2316520895
  0
LINE
  5
331
100
AcDbEntity
  8
RUNDUNGEN
100
AcDbLine
 62
7
  6
CONTINUOUS
 10
249.6397494284
 20
85.5004161929
 11
248.6663703783
 21
84.340388213
  0
LINE
  5
332
100
AcDbEntity
  8
0
100
AcDbLine
 62
7
  6
CONTINUOUS
 10
248.6663703783
 20
84.340388213
 11
240.637938538
 21
74.7724757244
  0
LINE
  5
333
100
AcDbEntity
  8
KONSTRUKTIONSELEMENTE
100
AcDbLine
 62
7
  6
CONTINUOUS
 10
252.2088191769
 20
14.3445639111
 11
252.8802626243
 21
15.4907895733
  0
LINE
  5
334
100
AcDbEntity
  8
KONSTRUKTIONSELEMENTE
100
AcDbLine
 62
7
  6
CONTINUOUS
 10
284.7960608835
 20
69.9744652086
 11
285.6379644347
 21
71.41168447
  0
LINE
  5
335
100
AcDbEntity
  8
KONSTRUKTIONSELEMENTE
100
AcDbLine
 62
7
  6
CONTINUOUS
 10
175.1076605422
 20
91.4767383663
 11
160.9986968023
 21
87.3443185624
  0
LINE
  5
336
100
AcDbEntity
  8
KONSTRUKTIONSELEMENTE
100
AcDbLine
 62
7
  6
CONTINUOUS
 10
175.1076605422
 20
87.9412044603
 11
160.9986968023
 21
83.8087846564
  0
LINE
  5
337
100
AcDbEntity
  8
KONSTRUKTIONSELEMENTE
100
AcDbLine
 62
7
  6
CONTINUOUS
 10
167.9612822416
 20
76.3575295944
 11
158.3839479718
 21
73.5523933324
  0
LINE
  5
338
100
AcDbEntity
  8
KONSTRUKTIONSELEMENTE
100
AcDbLine
 62
7
  6
CONTINUOUS
 10
161.3356128463
 20
74.3003957913
 11
168.6750647312
 21
76.4500714782
  0
LINE
  5
339
100
AcDbEntity
  8
KONSTRUKTIONSELEMENTE
100
AcDbLine
 62
7
  6
CONTINUOUS
 10
167.1217863436
 20
65.9784146954
 11
174.5128226037
 21
68.143199096
  0
LINE
  5
33A
100
AcDbEntity
  8
KONSTRUKTIONSELEMENTE
100
AcDbLine
 62
7
  6
CONTINUOUS
 10
167.1217863436
 20
63.5742516394
 11
174.5128226037
 21
65.73903604
  0
LINE
  5
33B
100
AcDbEntity
  8
KONSTRUKTIONSELEMENTE
100
AcDbLine
 62
7
  6
CONTINUOUS
 10
166.1290624492
 20
60.8343155754
 11
175.7374095873
 21
63.6485352962
  0
LINE
  5
33C
100
AcDbEntity
  8
KONSTRUKTIONSELEMENTE
100
AcDbLine
 62
7
  6
CONTINUOUS
 10
166.1290624492
 20
60.2686301505
 11
175.7374095873
 21
63.0828498712
  0
LINE
  5
33D
100
AcDbEntity
  8
KONSTRUKTIONSELEMENTE
100
AcDbLine
 62
7
  6
CONTINUOUS
 10
349.5068990927
 20
-7.3663715677
 11
353.0424329987
 21
-10.9019054736
  0
LINE
  5
33E
100
AcDbEntity
  8
KONSTRUKTIONSELEMENTE
100
AcDbLine
 62
7
  6
CONTINUOUS
 10
375.6698499966
 20
11.7255115244
 11
375.1041645717
 21
12.2911969493
  0
LINE
  5
33F
100
AcDbEntity
  8
KONSTRUKTIONSELEMENTE
100
AcDbLine
 62
7
  6
CONTINUOUS
 10
372.7000015156
 20
14.6953600054
 11
372.1343160907
 21
15.2610454303
  0
LINE
  5
340
100
AcDbEntity
  8
KONSTRUKTIONSELEMENTE
100
AcDbLine
 62
7
  6
CONTINUOUS
 10
424.2129686227
 20
60.2686301505
 11
423.6472831978
 21
60.8343155754
  0
LINE
  5
341
100
AcDbEntity
  8
KONSTRUKTIONSELEMENTE
100
AcDbLine
 62
7
  6
CONTINUOUS
 10
420.6774347168
 20
63.8041640564
 11
421.2431201417
 21
63.2384786314
  0
LINE
  5
342
100
AcDbEntity
  8
0
100
AcDbLine
 62
7
  6
CONTINUOUS
 10
568.6094741073
 20
119.5005158187
 11
580.1242369128
 21
119.5005158187
  0
LINE
  5
343
100
AcDbEntity
  8
KONSTRUKTIONSELEMENTE
100
AcDbLine
 62
7
  6
CONTINUOUS
 10
434.4466261703
 20
75.0117153258
 11
435.4205198921
 21
74.037821604
  0
LINE
  5
344
100
AcDbEntity
  8
BEZUGSACHSEN
100
AcDbLine
 62
7
  6
CONTINUOUS
 10
458.4013433955
 20
101.5280727351
 11
461.9368773014
 21
97.9925388291
  0
LINE
  5
345
100
AcDbEntity
  8
KONSTRUKTIONSELEMENTE
100
AcDbLine
 62
7
  6
CONTINUOUS
 10
454.8658094895
 20
106.1242668128
 11
458.4013433955
 21
102.5887329068
  0
LINE
  5
346
100
AcDbEntity
  8
KONSTRUKTIONSELEMENTE
100
AcDbLine
 62
7
  6
CONTINUOUS
 10
455.2193628801
 20
106.4778202034
 11
458.754896786
 21
102.9422862974
  0
LINE
  5
347
100
AcDbEntity
  8
0
100
AcDbLine
 62
7
  6
CONTINUOUS
 10
568.8445716654
 20
146.611744917
 11
579.8891393547
 21
146.611744917
  0
LINE
  5
348
100
AcDbEntity
  8
0
100
AcDbLine
 62
7
  6
CONTINUOUS
 10
569.024377891
 20
176.5043569704
 11
579.709333129
 21
176.5043569704
  0
LINE
  5
349
100
AcDbEntity
  8
BEZUGSACHSEN
100
AcDbLine
 62
7
  6
CONTINUOUS
 10
583.6282135896
 20
181.0947025605
 11
584.2578409037
 21
181.0947025605
  0
LINE
  5
34A
100
AcDbEntity
  8
BEZUGSACHSEN
100
AcDbLine
 62
7
  6
CONTINUOUS
 10
583.6414619432
 20
184.046839979
 11
584.2682152796
 21
184.046839979
  0
LINE
  5
34B
100
AcDbEntity
  8
BEZUGSACHSEN
100
AcDbLine
 62
7
  6
CONTINUOUS
 10
581.7971262711
 20
186.0570482608
 11
582.4264144262
 21
186.0570482608
  0
LINE
  5
34C
100
AcDbEntity
  8
BEZUGSACHSEN
100
AcDbLine
 62
7
  6
CONTINUOUS
 10
582.6329159599
 20
186.3261677136
 11
583.2213905971
 21
186.3261677136
  0
LINE
  5
34D
100
AcDbEntity
  8
BEZUGSACHSEN
100
AcDbLine
 62
7
  6
CONTINUOUS
 10
583.5258326477
 20
186.3397928697
 11
584.1507232378
 21
186.3397928697
  0
LINE
  5
34E
100
AcDbEntity
  8
BEZUGSACHSEN
100
AcDbLine
 62
7
  6
CONTINUOUS
 10
583.3636401833
 20
186.5241280838
 11
583.9888259662
 21
186.5241280838
  0
LINE
  5
34F
100
AcDbEntity
  8
BEZUGSACHSEN
100
AcDbLine
 62
7
  6
CONTINUOUS
 10
582.6361850725
 20
186.7174402511
 11
583.1797004495
 21
186.7174402511
  0
LINE
  5
350
100
AcDbEntity
  8
BEZUGSACHSEN
100
AcDbLine
 62
7
  6
CONTINUOUS
 10
583.2901279229
 20
186.8663255877
 11
583.8293109029
 21
186.8663255877
  0
LINE
  5
351
100
AcDbEntity
  8
BEZUGSACHSEN
100
AcDbLine
 62
7
  6
CONTINUOUS
 10
582.6377938715
 20
187.1190644481
 11
583.0993647755
 21
187.1190644481
  0
LINE
  5
352
100
AcDbEntity
  8
BEZUGSACHSEN
100
AcDbLine
 62
7
  6
CONTINUOUS
 10
583.1682626358
 20
187.4124692685
 11
583.6325221014
 21
187.4124692685
  0
LINE
  5
353
100
AcDbEntity
  8
BEZUGSACHSEN
100
AcDbLine
 62
7
  6
CONTINUOUS
 10
583.8213949004
 20
187.4252198002
 11
584.039935987
 21
187.4252198002
  0
LINE
  5
354
100
AcDbEntity
  8
BEZUGSACHSEN
100
AcDbLine
 62
7
  6
CONTINUOUS
 10
582.637586132
 20
187.531040032
 11
582.9810305841
 21
187.531040032
  0
LINE
  5
355
100
AcDbEntity
  8
BEZUGSACHSEN
100
AcDbLine
 62
7
  6
CONTINUOUS
 10
583.6964714952
 20
187.7409451957
 11
584.0396405652
 21
187.7409451957
  0
LINE
  5
356
100
AcDbEntity
  8
BEZUGSACHSEN
100
AcDbLine
 62
7
  6
CONTINUOUS
 10
582.6358266123
 20
187.8477857602
 11
582.8639947073
 21
187.8477857602
  0
LINE
  5
357
100
AcDbEntity
  8
BEZUGSACHSEN
100
AcDbLine
 62
7
  6
CONTINUOUS
 10
583.5499981438
 20
188.1816856198
 11
583.9984149183
 21
188.1816856198
  0
LINE
  5
358
100
AcDbEntity
  8
BEZUGSACHSEN
100
AcDbLine
 62
7
  6
CONTINUOUS
 10
581.8137866683
 20
188.3425740745
 11
582.4412538389
 21
188.3425740745
  0
LINE
  5
359
100
AcDbEntity
  8
BEZUGSACHSEN
100
AcDbLine
 62
7
  6
CONTINUOUS
 10
583.3980672049
 20
188.6685096981
 11
583.9174993732
 21
188.6685096981
  0
LINE
  5
35A
100
AcDbEntity
  8
BEZUGSACHSEN
100
AcDbLine
 62
7
  6
CONTINUOUS
 10
581.8490929925
 20
188.7131435656
 11
582.4761928127
 21
188.7131435656
  0
LINE
  5
35B
100
AcDbEntity
  8
BEZUGSACHSEN
100
AcDbLine
 62
7
  6
CONTINUOUS
 10
581.9613361614
 20
188.7773190113
 11
582.5881349997
 21
188.7773190113
  0
LINE
  5
35C
100
AcDbEntity
  8
BEZUGSACHSEN
100
AcDbLine
 62
7
  6
CONTINUOUS
 10
583.986624352
 20
188.8363188156
 11
584.2480307471
 21
188.8363188156
  0
LINE
  5
35D
100
AcDbEntity
  8
BEZUGSACHSEN
100
AcDbLine
 62
7
  6
CONTINUOUS
 10
583.2317486251
 20
189.2014172556
 11
583.7979872482
 21
189.2014172556
  0
LINE
  5
35E
100
AcDbEntity
  8
BEZUGSACHSEN
100
AcDbLine
 62
7
  6
CONTINUOUS
 10
583.0510444029
 20
189.7804088315
 11
583.640569593
 21
189.7804088315
  0
LWPOLYLINE
  5
35F
100
AcDbEntity
  8
RUNDUNGEN
100
AcDbPolyline
 62
7
  6
CONTINUOUS
 90
3
 70
0
 10
586.1598897422
 20
139.5794097104
 10
586.2099270355
 20
139.5601782714
 10
586.2255915937
 20
139.5537267274
  0
LINE
  5
360
100
AcDbEntity
  8
BEZUGSACHSEN
100
AcDbLine
 62
7
  6
CONTINUOUS
 10
583.7284544172
 20
191.1146141131
 11
584.0357740842
 21
191.1146141131
  0
LINE
  5
361
100
AcDbEntity
  8
BEZUGSACHSEN
100
AcDbLine
 62
7
  6
CONTINUOUS
 10
581.7989595009
 20
191.2879356782
 11
582.4241581501
 21
191.2879356782
  0
LINE
  5
362
100
AcDbEntity
  8
BEZUGSACHSEN
100
AcDbLine
 62
7
  6
CONTINUOUS
 10
584.2364211171
 20
191.3098947704
 11
584.2597045731
 21
191.3098947704
  0
LINE
  5
363
100
AcDbEntity
  8
BEZUGSACHSEN
100
AcDbLine
 62
7
  6
CONTINUOUS
 10
583.6233004707
 20
191.4943297518
 11
583.9936822846
 21
191.4943297518
  0
LINE
  5
364
100
AcDbEntity
  8
BEZUGSACHSEN
100
AcDbLine
 62
7
  6
CONTINUOUS
 10
584.1730860317
 20
191.6422535998
 11
584.2477069077
 21
191.6422535998
  0
LINE
  5
365
100
AcDbEntity
  8
BEZUGSACHSEN
100
AcDbLine
 62
7
  6
CONTINUOUS
 10
581.8078828526
 20
191.7615237715
 11
582.4326900265
 21
191.7615237715
  0
LINE
  5
366
100
AcDbEntity
  8
BEZUGSACHSEN
100
AcDbLine
 62
7
  6
CONTINUOUS
 10
583.4956804386
 20
191.9551564241
 11
583.9121371225
 21
191.9551564241
  0
LINE
  5
367
100
AcDbEntity
  8
BEZUGSACHSEN
100
AcDbLine
 62
7
  6
CONTINUOUS
 10
583.3455973453
 20
192.4970939327
 11
583.7922331971
 21
192.4970939327
  0
LINE
  5
368
100
AcDbEntity
  8
BEZUGSACHSEN
100
AcDbLine
 62
7
  6
CONTINUOUS
 10
583.1730371106
 20
193.1201416928
 11
583.6346564112
 21
193.1201416928
  0
LINE
  5
369
100
AcDbEntity
  8
BEZUGSACHSEN
100
AcDbLine
 62
7
  6
CONTINUOUS
 10
581.8078828491
 20
193.6558752412
 11
582.4312094541
 21
193.6558752412
  0
LINE
  5
36A
100
AcDbEntity
  8
BEZUGSACHSEN
100
AcDbLine
 62
7
  6
CONTINUOUS
 10
581.7989595009
 20
194.1294631086
 11
582.4219393197
 21
194.1294631086
  0
LINE
  5
36B
100
AcDbEntity
  8
BEZUGSACHSEN
100
AcDbLine
 62
7
  6
CONTINUOUS
 10
582.6660664798
 20
195.2326179752
 11
583.0496995407
 21
195.2326179752
  0
LINE
  5
36C
100
AcDbEntity
  8
BEZUGSACHSEN
100
AcDbLine
 62
7
  6
CONTINUOUS
 10
581.7951943239
 20
195.4554113382
 11
582.4171491625
 21
195.4554113382
  0
LINE
  5
36D
100
AcDbEntity
  8
BEZUGSACHSEN
100
AcDbLine
 62
7
  6
CONTINUOUS
 10
582.6701405297
 20
195.7362241272
 11
582.8951461422
 21
195.7362241272
  0
LINE
  5
36E
100
AcDbEntity
  8
BEZUGSACHSEN
100
AcDbLine
 62
7
  6
CONTINUOUS
 10
582.6692770994
 20
196.0392774472
 11
582.7806796536
 21
196.0392774472
  0
LINE
  5
36F
100
AcDbEntity
  8
BEZUGSACHSEN
100
AcDbLine
 62
7
  6
CONTINUOUS
 10
581.8142333201
 20
196.8887161031
 11
582.4350157286
 21
196.8887161031
  0
LINE
  5
370
100
AcDbEntity
  8
BEZUGSACHSEN
100
AcDbLine
 62
7
  6
CONTINUOUS
 10
581.8500393798
 20
197.0464897512
 11
582.4705959306
 21
197.0464897512
  0
LINE
  5
371
100
AcDbEntity
  8
0
100
AcDbLine
 62
7
  6
CONTINUOUS
 10
569.024377891
 20
200.6879881279
 11
579.709333129
 21
200.6879881279
  0
LINE
  5
372
100
AcDbEntity
  8
0
100
AcDbLine
 62
7
  6
CONTINUOUS
 10
579.709333129
 20
209.9253132587
 11
569.024377891
 21
209.9253132587
  0
LINE
  5
373
100
AcDbEntity
  8
KONSTRUKTIONSELEMENTE
100
AcDbLine
 62
7
  6
CONTINUOUS
 10
512.1414587656
 20
163.3999160889
 11
515.6769926716
 21
159.864382183
  0
LINE
  5
374
100
AcDbEntity
  8
KONSTRUKTIONSELEMENTE
100
AcDbLine
 62
7
  6
CONTINUOUS
 10
512.4950121562
 20
163.7534694795
 11
516.0305460622
 21
160.2179355736
  0
LINE
  5
375
100
AcDbEntity
  8
0
100
AcDbLine
 62
7
  6
CONTINUOUS
 10
555.33312716
 20
84.5594183093
 11
552.7911946167
 21
88.5917489079
  0
LINE
  5
376
100
AcDbEntity
  8
RUNDUNGEN
100
AcDbLine
 62
7
  6
CONTINUOUS
 10
595.5271095479
 20
111.3785590194
 11
585.6140710745
 21
128.5484453127
  0
LINE
  5
377
100
AcDbEntity
  8
0
100
AcDbLine
 62
7
  6
CONTINUOUS
 10
515.86685551
 20
213.9580509437
 11
515.86685551
 21
288.9580509437
  0
LINE
  5
378
100
AcDbEntity
  8
RUNDUNGEN
100
AcDbLine
 62
7
  6
CONTINUOUS
 10
580.2682015878
 20
118.1403872926
 11
580.1242369128
 21
119.5005158187
  0
LINE
  5
379
100
AcDbEntity
  8
0
100
AcDbLine
 62
7
  6
CONTINUOUS
 10
541.86685551
 20
213.9580509437
 11
541.86685551
 21
288.9580509437
  0
LINE
  5
37A
100
AcDbEntity
  8
0
100
AcDbLine
 62
7
  6
CONTINUOUS
 10
551.86685551
 20
91.7913842771
 11
551.86685551
 21
106.3785590194
  0
LINE
  5
37B
100
AcDbEntity
  8
0
100
AcDbLine
 62
7
  6
CONTINUOUS
 10
558.36685551
 20
597.3949425141
 11
558.36685551
 21
305.5211593734
  0
LINE
  5
37C
100
AcDbEntity
  8
0
100
AcDbLine
 62
7
  6
CONTINUOUS
 10
559.36685551
 20
134.9118809115
 11
559.36685551
 21
124.7279239248
  0
LINE
  5
37D
100
AcDbEntity
  8
KONSTRUKTIONSELEMENTE
100
AcDbLine
 62
7
  6
CONTINUOUS
 10
579.709333129
 20
209.9253132587
 11
584.1375920686
 21
191.8285126372
  0
LINE
  5
37E
100
AcDbEntity
  8
0
100
AcDbLine
 62
7
  6
CONTINUOUS
 10
568.5557329059
 20
155.0931725474
 11
568.8445716654
 21
146.611744917
  0
LINE
  5
37F
100
AcDbEntity
  8
0
100
AcDbLine
 62
7
  6
CONTINUOUS
 10
579.8891393547
 20
146.611744917
 11
580.1242369128
 21
119.5005158187
  0
LINE
  5
380
100
AcDbEntity
  8
0
100
AcDbLine
 62
7
  6
CONTINUOUS
 10
564.36685551
 20
189.9270254986
 11
564.36685551
 21
141.8399601503
  0
LINE
  5
381
100
AcDbEntity
  8
0
100
AcDbLine
 62
7
  6
CONTINUOUS
 10
568.4231585661
 20
117.3401545796
 11
568.4231585661
 21
117.184616851
  0
LINE
  5
382
100
AcDbEntity
  8
RUNDUNGEN
100
AcDbLine
 62
7
  6
CONTINUOUS
 10
580.310552454
 20
117.3401545796
 11
580.310552454
 21
117.184616851
  0
LINE
  5
383
100
AcDbEntity
  8
BEZUGSACHSEN
100
AcDbLine
 62
7
  6
CONTINUOUS
 10
584.36685551
 20
189.9270254986
 11
584.36685551
 21
157.6098527839
  0
LINE
  5
384
100
AcDbEntity
  8
KONSTRUKTIONSELEMENTE
100
AcDbLine
 62
7
  6
CONTINUOUS
 10
584.36685551
 20
157.6098527839
 11
584.36685551
 21
141.8399478532
  0
LINE
  5
385
100
AcDbEntity
  8
RUNDUNGEN
100
AcDbLine
 62
7
  6
CONTINUOUS
 10
584.36685551
 20
157.6098527573
 11
584.36685551
 21
141.8399601503
  0
LINE
  5
386
100
AcDbEntity
  8
0
100
AcDbLine
 62
7
  6
CONTINUOUS
 10
568.8445716654
 20
146.611744917
 11
568.6094741073
 21
119.5005158187
  0
LINE
  5
387
100
AcDbEntity
  8
0
100
AcDbLine
 62
7
  6
CONTINUOUS
 10
580.1779781142
 20
155.0931725474
 11
579.8891393547
 21
146.611744917
  0
LINE
  5
388
100
AcDbEntity
  8
KONSTRUKTIONSELEMENTE
100
AcDbLine
 62
7
  6
CONTINUOUS
 10
589.36685551
 20
124.7279239248
 11
589.36685551
 21
134.9118809115
  0
LINE
  5
389
100
AcDbEntity
  8
0
100
AcDbLine
 62
7
  6
CONTINUOUS
 10
590.36685551
 20
597.3949425141
 11
590.36685551
 21
305.5211593734
  0
LINE
  5
38A
100
AcDbEntity
  8
RUNDUNGEN
100
AcDbLine
 62
7
  6
CONTINUOUS
 10
596.86685551
 20
91.7913842771
 11
596.86685551
 21
106.3785590194
  0
LINE
  5
38B
100
AcDbEntity
  8
0
100
AcDbLine
 62
7
  6
CONTINUOUS
 10
606.86685551
 20
288.9580509437
 11
606.86685551
 21
213.9580509437
  0
LINE
  5
38C
100
AcDbEntity
  8
0
100
AcDbLine
 62
7
  6
CONTINUOUS
 10
568.4655094323
 20
118.1403872926
 11
568.6094741073
 21
119.5005158187
  0
LINE
  5
38D
100
AcDbEntity
  8
0
100
AcDbLine
 62
7
  6
CONTINUOUS
 10
564.5961189515
 20
191.8285126372
 11
569.024377891
 21
209.9253132587
  0
LINE
  5
38E
100
AcDbEntity
  8
KONSTRUKTIONSELEMENTE
100
AcDbLine
 62
7
  6
CONTINUOUS
 10
452.0373823648
 20
103.295839688
 11
454.8658094895
 21
106.1242668128
  0
LINE
  5
38F
100
AcDbEntity
  8
KONSTRUKTIONSELEMENTE
100
AcDbLine
 62
7
  6
CONTINUOUS
 10
455.2193628801
 20
106.4778202034
 11
458.0477900049
 21
109.3062473281
  0
LINE
  5
390
100
AcDbEntity
  8
KONSTRUKTIONSELEMENTE
100
AcDbLine
 62
7
  6
CONTINUOUS
 10
509.3130316409
 20
160.5714889641
 11
512.1414587656
 21
163.3999160889
  0
LINE
  5
391
100
AcDbEntity
  8
KONSTRUKTIONSELEMENTE
100
AcDbLine
 62
7
  6
CONTINUOUS
 10
512.4950121562
 20
163.7534694795
 11
515.323439281
 21
166.5818966042
  0
LINE
  5
392
100
AcDbEntity
  8
KONSTRUKTIONSELEMENTE
100
AcDbLine
 62
7
  6
CONTINUOUS
 10
478.5538866593
 20
129.4587905919
 11
489.1604883771
 21
140.0653923097
  0
LINE
  5
393
100
AcDbEntity
  8
KONSTRUKTIONSELEMENTE
100
AcDbLine
 62
7
  6
CONTINUOUS
 10
551.3858851215
 20
195.9268280235
 11
518.1983309341
 21
162.7392738361
  0
LINE
  5
394
100
AcDbEntity
  8
KONSTRUKTIONSELEMENTE
100
AcDbLine
 62
7
  6
CONTINUOUS
 10
481.7358671746
 20
126.2768100766
 11
492.3424688924
 21
136.8834117944
  0
LINE
  5
395
100
AcDbEntity
  8
KONSTRUKTIONSELEMENTE
100
AcDbLine
 62
7
  6
CONTINUOUS
 10
455.5729162707
 20
99.7603057821
 11
458.4013433955
 21
102.5887329068
  0
LINE
  5
396
100
AcDbEntity
  8
KONSTRUKTIONSELEMENTE
100
AcDbLine
 62
7
  6
CONTINUOUS
 10
458.754896786
 20
102.9422862974
 11
461.5833239108
 21
105.7707134222
  0
LINE
  5
397
100
AcDbEntity
  8
KONSTRUKTIONSELEMENTE
100
AcDbLine
 62
7
  6
CONTINUOUS
 10
512.8485655468
 20
157.0359550582
 11
515.6769926716
 21
159.864382183
  0
LINE
  5
398
100
AcDbEntity
  8
KONSTRUKTIONSELEMENTE
100
AcDbLine
 62
7
  6
CONTINUOUS
 10
516.0305460622
 20
160.2179355736
 11
517.4157573337
 21
161.6031468451
  0
LINE
  5
399
100
AcDbEntity
  8
BEZUGSACHSEN
100
AcDbLine
 62
7
  6
CONTINUOUS
 10
458.4013433955
 20
101.5280727351
 11
457.5401386155
 21
100.6668679551
  0
LINE
  5
39A
100
AcDbEntity
  8
KONSTRUKTIONSELEMENTE
100
AcDbLine
 62
7
  6
CONTINUOUS
 10
349.5068990927
 20
-7.3663715677
 11
457.5401386155
 21
100.6668679551
  0
LINE
  5
39B
100
AcDbEntity
  8
KONSTRUKTIONSELEMENTE
100
AcDbLine
 62
7
  6
CONTINUOUS
 10
512.8485655468
 20
155.6217414958
 11
494.1398805716
 21
136.9130565207
  0
LINE
  5
39C
100
AcDbEntity
  8
KONSTRUKTIONSELEMENTE
100
AcDbLine
 62
7
  6
CONTINUOUS
 10
481.7358671746
 20
124.5090431236
 11
463.0271821994
 21
105.8003581485
  0
LINE
  5
39D
100
AcDbEntity
  8
KONSTRUKTIONSELEMENTE
100
AcDbLine
 62
7
  6
CONTINUOUS
 10
372.7000015156
 20
14.6953600054
 11
350.0725845177
 21
-7.9320569926
  0
LINE
  5
39E
100
AcDbEntity
  8
KONSTRUKTIONSELEMENTE
100
AcDbLine
 62
7
  6
CONTINUOUS
 10
421.2431201417
 20
63.2384786314
 11
428.3651514843
 21
70.360509974
  0
LINE
  5
39F
100
AcDbEntity
  8
KONSTRUKTIONSELEMENTE
100
AcDbLine
 62
7
  6
CONTINUOUS
 10
375.1041645717
 20
12.2911969493
 11
352.4767475737
 21
-10.3362200486
  0
LINE
  5
3A0
100
AcDbEntity
  8
KONSTRUKTIONSELEMENTE
100
AcDbLine
 62
7
  6
CONTINUOUS
 10
423.6472831978
 20
60.8343155754
 11
430.7693145404
 21
67.956346918
  0
LINE
  5
3A1
100
AcDbEntity
  8
KONSTRUKTIONSELEMENTE
100
AcDbLine
 62
7
  6
CONTINUOUS
 10
516.0305460622
 20
152.4397609805
 11
497.321861087
 21
133.7310760053
  0
LINE
  5
3A2
100
AcDbEntity
  8
KONSTRUKTIONSELEMENTE
100
AcDbLine
 62
7
  6
CONTINUOUS
 10
484.91784769
 20
121.3270626083
 11
466.2091627148
 21
102.6183776331
  0
LINE
  5
3A3
100
AcDbEntity
  8
BEZUGSACHSEN
100
AcDbLine
 62
7
  6
CONTINUOUS
 10
461.9368773014
 20
97.9925388291
 11
461.0756725214
 21
97.1313340492
  0
LINE
  5
3A4
100
AcDbEntity
  8
KONSTRUKTIONSELEMENTE
100
AcDbLine
 62
7
  6
CONTINUOUS
 10
353.0424329987
 20
-10.9019054736
 11
461.0756725214
 21
97.1313340492
  0
LINE
  5
3A5
100
AcDbEntity
  8
KONSTRUKTIONSELEMENTE
100
AcDbLine
 62
7
  6
CONTINUOUS
 10
522.0119514114
 20
157.0069527674
 11
517.4447596245
 21
152.4397609805
  0
LINE
  5
3A6
100
AcDbEntity
  8
KONSTRUKTIONSELEMENTE
100
AcDbLine
 62
7
  6
CONTINUOUS
 10
466.1795179885
 20
101.1745193445
 11
460.1691103484
 21
95.1641117044
  0
LINE
  5
3A7
100
AcDbEntity
  8
KONSTRUKTIONSELEMENTE
100
AcDbLine
 62
7
  6
CONTINUOUS
 10
556.3356325898
 20
190.9770805552
 11
523.1480784024
 21
157.7895263678
  0
LINE
  5
3A8
100
AcDbEntity
  8
KONSTRUKTIONSELEMENTE
100
AcDbLine
 62
7
  6
CONTINUOUS
 10
497.2922163607
 20
131.9336643261
 11
486.6856146429
 21
121.3270626083
  0
LINE
  5
3A9
100
AcDbEntity
  8
KONSTRUKTIONSELEMENTE
100
AcDbLine
 62
7
  6
CONTINUOUS
 10
500.4741968761
 20
128.7516838107
 11
489.8675951583
 21
118.145082093
  0
LINE
  5
3AA
100
AcDbEntity
  8
KONSTRUKTIONSELEMENTE
100
AcDbLine
 62
7
  6
CONTINUOUS
 10
526.9907011706
 20
154.9146347147
 11
520.9802935305
 21
148.9042270746
  0
LINE
  5
3AB
100
AcDbEntity
  8
KONSTRUKTIONSELEMENTE
100
AcDbLine
 62
7
  6
CONTINUOUS
 10
469.7150518944
 20
97.6389854385
 11
463.7046442544
 21
91.6285777985
  0
LINE
  5
3AC
100
AcDbEntity
  8
0
100
AcDbLine
 62
7
  6
CONTINUOUS
 10
632.86685551
 20
288.9580509437
 11
632.86685551
 21
213.9580509437
  0
LINE
  5
3AD
100
AcDbEntity
  8
0
100
AcDbLine
 62
7
  6
CONTINUOUS
 10
553.2066014722
 20
111.3785590194
 11
563.1196399456
 21
128.5484453127
  0
LINE
  5
3AE
100
AcDbEntity
  8
RUNDUNGEN
100
AcDbLine
 62
7
  6
CONTINUOUS
 10
593.4005838601
 20
84.5594183093
 11
595.9425164034
 21
88.5917489079
  0
ARC
  5
3AF
100
AcDbEntity
  8
KONSTRUKTIONSELEMENTE
100
AcDbCircle
 62
7
  6
CONTINUOUS
 10
195.86232474
 20
3.9224829247
 40
8.2295991091
100
AcDbArc
 50
71.4716087129
 51
77.9053340862
  0
ARC
  5
3B0
100
AcDbEntity
  8
KONSTRUKTIONSELEMENTE
100
AcDbCircle
 62
7
  6
CONTINUOUS
 10
202.0477158395
 20
7.1903413601
 40
3.2805025758
100
AcDbArc
 50
9.1122156591
 51
9.8872067217
  0
ARC
  5
3B1
100
AcDbEntity
  8
KONSTRUKTIONSELEMENTE
100
AcDbCircle
 62
7
  6
CONTINUOUS
 10
202.1030594267
 20
7.1982719909
 40
3.2246015936
100
AcDbArc
 50
0.0312035642
 51
9.1288137427
  0
ARC
  5
3B2
100
AcDbEntity
  8
RUNDUNGEN
100
AcDbCircle
 62
7
  6
CONTINUOUS
 10
172.1076605422
 20
112.2542033664
 40
3.0
100
AcDbArc
 50
0.0
 51
30.0
  0
ARC
  5
3B3
100
AcDbEntity
  8
0
100
AcDbCircle
 62
7
  6
CONTINUOUS
 10
186.1094710463
 20
76.0580514041
 40
2.0
100
AcDbArc
 50
220.0000172178
 51
270.0000110674
  0
ARC
  5
3B4
100
AcDbEntity
  8
RUNDUNGEN
100
AcDbCircle
 62
7
  6
CONTINUOUS
 10
177.1076605422
 20
86.7859914123
 40
2.0
100
AcDbArc
 50
180.0
 51
220.0
  0
ARC
  5
3B5
100
AcDbEntity
  8
KONSTRUKTIONSELEMENTE
100
AcDbCircle
 62
7
  6
CONTINUOUS
 10
175.9520497564
 20
65.2286224656
 40
1.2681615075
100
AcDbArc
 50
341.2144804733
 51
346.8145490438
  0
ARC
  5
3B6
100
AcDbEntity
  8
KONSTRUKTIONSELEMENTE
100
AcDbCircle
 62
7
  6
CONTINUOUS
 10
212.6076605422
 20
22.7204121937
 40
56.0
100
AcDbArc
 50
99.0410961486
 51
113.5499984999
  0
ARC
  5
3B7
100
AcDbEntity
  8
KONSTRUKTIONSELEMENTE
100
AcDbCircle
 62
7
  6
CONTINUOUS
 10
212.6076605422
 20
22.7204121937
 40
56.0
100
AcDbArc
 50
66.4500015001
 51
80.9589038514
  0
ARC
  5
3B8
100
AcDbEntity
  8
BEZUGSACHSEN
100
AcDbCircle
 62
7
  6
CONTINUOUS
 10
212.6076605422
 20
161.5580509437
 40
20.0
100
AcDbArc
 50
130.5823106118
 51
49.4176893882
  0
ARC
  5
3B9
100
AcDbEntity
  8
0
100
AcDbCircle
 62
7
  6
CONTINUOUS
 10
212.6076605422
 20
168.4580509437
 40
13.0
100
AcDbArc
 50
180.0
 51
360.0
  0
ARC
  5
3BA
100
AcDbEntity
  8
KONSTRUKTIONSELEMENTE
100
AcDbCircle
 62
7
  6
CONTINUOUS
 10
212.6076605422
 20
117.7580509437
 40
8.8
100
AcDbArc
 50
0.0
 51
180.0
  0
ARC
  5
3BB
100
AcDbEntity
  8
BEZUGSACHSEN
100
AcDbCircle
 62
7
  6
CONTINUOUS
 10
212.6076605422
 20
94.8025578939
 40
7.7701622262
100
AcDbArc
 50
265.5729048645
 51
274.4270951355
  0
ARC
  5
3BC
100
AcDbEntity
  8
KONSTRUKTIONSELEMENTE
100
AcDbCircle
 62
7
  6
CONTINUOUS
 10
229.1162026201
 20
4.7572383969
 40
7.4828140787
100
AcDbArc
 50
111.2384503882
 51
112.1140025065
  0
ARC
  5
3BD
100
AcDbEntity
  8
KONSTRUKTIONSELEMENTE
100
AcDbCircle
 62
7
  6
CONTINUOUS
 10
229.0575060879
 20
4.9004992998
 40
7.3279955904
100
AcDbArc
 50
112.1105000658
 51
113.9508226432
  0
CIRCLE
  5
3BE
100
AcDbEntity
  8
BEZUGSACHSEN
100
AcDbCircle
 62
7
  6
CONTINUOUS
 10
239.6076605422
 20
96.5580509437
 40
3.0
  0
ARC
  5
3BF
100
AcDbEntity
  8
RUNDUNGEN
100
AcDbCircle
 62
7
  6
CONTINUOUS
 10
253.1076605422
 20
112.2542033664
 40
3.0
100
AcDbArc
 50
150.0
 51
180.0
  0
ARC
  5
3C0
100
AcDbEntity
  8
KONSTRUKTIONSELEMENTE
100
AcDbCircle
 62
7
  6
CONTINUOUS
 10
212.6076605422
 20
109.2226163833
 40
2.5
100
AcDbArc
 50
0.0
 51
180.0
  0
ARC
  5
3C1
100
AcDbEntity
  8
KONSTRUKTIONSELEMENTE
100
AcDbCircle
 62
7
  6
CONTINUOUS
 10
212.6076605422
 20
148.9878580194
 40
2.5
100
AcDbArc
 50
180.0
 51
360.0
  0
ARC
  5
3C2
100
AcDbEntity
  8
KONSTRUKTIONSELEMENTE
100
AcDbCircle
 62
7
  6
CONTINUOUS
 10
212.6076605422
 20
118.0519363424
 40
2.25
100
AcDbArc
 50
180.0
 51
360.0
  0
ARC
  5
3C3
100
AcDbEntity
  8
KONSTRUKTIONSELEMENTE
100
AcDbCircle
 62
7
  6
CONTINUOUS
 10
212.6076605422
 20
140.1585380602
 40
2.25
100
AcDbArc
 50
41.3031628639
 51
138.6968371361
  0
ARC
  5
3C4
100
AcDbEntity
  8
0
100
AcDbCircle
 62
7
  6
CONTINUOUS
 10
239.1058503184
 20
76.0580517382
 40
2.0
100
AcDbArc
 50
269.9999809015
 51
319.9999702881
  0
ARC
  5
3C5
100
AcDbEntity
  8
RUNDUNGEN
100
AcDbCircle
 62
7
  6
CONTINUOUS
 10
248.1076605422
 20
86.7859914123
 40
2.0
100
AcDbArc
 50
320.0
 51
359.9999999998
  0
ARC
  5
3C6
100
AcDbEntity
  8
0
100
AcDbCircle
 62
7
  6
CONTINUOUS
 10
212.6076605422
 20
391.4580509437
 40
102.0
100
AcDbArc
 50
180.0
 51
262.6771102687
  0
ARC
  5
3C7
100
AcDbEntity
  8
0
100
AcDbCircle
 62
7
  6
CONTINUOUS
 10
212.6076605422
 20
391.4580509437
 40
102.0
100
AcDbArc
 50
277.3228897313
 51
360.0
  0
ARC
  5
3C8
100
AcDbEntity
  8
0
100
AcDbCircle
 62
7
  6
CONTINUOUS
 10
212.6076605422
 20
511.4580509437
 40
102.0
100
AcDbArc
 50
0.0
 51
180.0
  0
ARC
  5
3C9
100
AcDbEntity
  8
0
100
AcDbCircle
 62
7
  6
CONTINUOUS
 10
212.6076605422
 20
511.4580509437
 40
70.0
100
AcDbArc
 50
0.0
 51
180.0
  0
ARC
  5
3CA
100
AcDbEntity
  8
0
100
AcDbCircle
 62
7
  6
CONTINUOUS
 10
212.6076605422
 20
391.4580509437
 40
70.0
100
AcDbArc
 50
180.0
 51
259.294917331
  0
ARC
  5
3CB
100
AcDbEntity
  8
0
100
AcDbCircle
 62
7
  6
CONTINUOUS
 10
212.6076605422
 20
391.4580509437
 40
70.0
100
AcDbArc
 50
280.705082669
 51
360.0
  0
ARC
  5
3CC
100
AcDbEntity
  8
0
100
AcDbCircle
 62
7
  6
CONTINUOUS
 10
212.6076605422
 20
334.4580509437
 40
13.0
100
AcDbArc
 50
0.0
 51
180.0
  0
ARC
  5
3CD
100
AcDbEntity
  8
BEZUGSACHSEN
100
AcDbCircle
 62
7
  6
CONTINUOUS
 10
262.6931667107
 20
5.7074891694
 40
367.7166098516
100
AcDbArc
 50
29.1037086153
 51
29.2715362397
  0
ARC
  5
3CE
100
AcDbEntity
  8
BEZUGSACHSEN
100
AcDbCircle
 62
7
  6
CONTINUOUS
 10
350.6831240159
 20
54.8078098926
 40
267.2657840018
100
AcDbArc
 50
29.0815601877
 51
29.3126957374
  0
ARC
  5
3CF
100
AcDbEntity
  8
BEZUGSACHSEN
100
AcDbCircle
 62
7
  6
CONTINUOUS
 10
340.6787539895
 20
147.9894039
 40
246.616862571
100
AcDbArc
 50
9.3795943629
 51
9.4942484532
  0
ARC
  5
3D0
100
AcDbEntity
  8
BEZUGSACHSEN
100
AcDbCircle
 62
7
  6
CONTINUOUS
 10
362.2969348722
 20
152.5018128528
 40
225.0996761157
100
AcDbArc
 50
9.9752838138
 51
10.0944027048
  0
ARC
  5
3D1
100
AcDbEntity
  8
BEZUGSACHSEN
100
AcDbCircle
 62
7
  6
CONTINUOUS
 10
365.8415742857
 20
155.8812174256
 40
219.6465398705
100
AcDbArc
 50
7.9564472385
 51
8.1124262205
  0
ARC
  5
3D2
100
AcDbEntity
  8
BEZUGSACHSEN
100
AcDbCircle
 62
7
  6
CONTINUOUS
 10
406.407852404
 20
161.810796077
 40
179.6714177924
100
AcDbArc
 50
8.2236451482
 51
8.4059767173
  0
ARC
  5
3D3
100
AcDbEntity
  8
BEZUGSACHSEN
100
AcDbCircle
 62
7
  6
CONTINUOUS
 10
418.9921247196
 20
169.0253721271
 40
165.1380310485
100
AcDbArc
 50
6.0136656722
 51
6.1501888439
  0
ARC
  5
3D4
100
AcDbEntity
  8
KONSTRUKTIONSELEMENTE
100
AcDbCircle
 62
7
  6
CONTINUOUS
 10
463.8814209497
 20
103.4726163833
 40
8.25
100
AcDbArc
 50
60.8421444573
 51
135.0
  0
ARC
  5
3D5
100
AcDbEntity
  8
KONSTRUKTIONSELEMENTE
100
AcDbCircle
 62
7
  6
CONTINUOUS
 10
463.8814209497
 20
103.4726163833
 40
8.25
100
AcDbArc
 50
315.0
 51
29.1578555427
  0
ARC
  5
3D6
100
AcDbEntity
  8
KONSTRUKTIONSELEMENTE
100
AcDbCircle
 62
7
  6
CONTINUOUS
 10
457.8710133096
 20
97.4622087432
 40
8.25
100
AcDbArc
 50
242.6769957192
 51
315.0
  0
ARC
  5
3D7
100
AcDbEntity
  8
KONSTRUKTIONSELEMENTE
100
AcDbCircle
 62
7
  6
CONTINUOUS
 10
457.8710133096
 20
97.4622087432
 40
8.25
100
AcDbArc
 50
135.0
 51
207.3230042808
  0
ARC
  5
3D8
100
AcDbEntity
  8
KONSTRUKTIONSELEMENTE
100
AcDbCircle
 62
7
  6
CONTINUOUS
 10
463.8814209497
 20
103.4726163833
 40
3.25
100
AcDbArc
 50
88.8837571799
 51
135.0
  0
ARC
  5
3D9
100
AcDbEntity
  8
KONSTRUKTIONSELEMENTE
100
AcDbCircle
 62
7
  6
CONTINUOUS
 10
463.8814209497
 20
103.4726163833
 40
3.25
100
AcDbArc
 50
315.0
 51
1.1162428201
  0
ARC
  5
3DA
100
AcDbEntity
  8
KONSTRUKTIONSELEMENTE
100
AcDbCircle
 62
7
  6
CONTINUOUS
 10
457.8710133096
 20
97.4622087432
 40
3.25
100
AcDbArc
 50
275.4054095575
 51
315.0
  0
ARC
  5
3DB
100
AcDbEntity
  8
KONSTRUKTIONSELEMENTE
100
AcDbCircle
 62
7
  6
CONTINUOUS
 10
457.8710133096
 20
97.4622087432
 40
3.25
100
AcDbArc
 50
135.0
 51
174.5945904425
  0
ARC
  5
3DC
100
AcDbEntity
  8
KONSTRUKTIONSELEMENTE
100
AcDbCircle
 62
7
  6
CONTINUOUS
 10
464.5885277308
 20
104.1797231645
 40
2.25
100
AcDbArc
 50
135.0
 51
315.0
  0
ARC
  5
3DD
100
AcDbEntity
  8
BEZUGSACHSEN
100
AcDbCircle
 62
7
  6
CONTINUOUS
 10
431.4341445207
 20
166.4522578191
 40
154.7060909271
100
AcDbArc
 50
9.0207882484
 51
9.216041785
  0
ARC
  5
3DE
100
AcDbEntity
  8
KONSTRUKTIONSELEMENTE
100
AcDbCircle
 62
7
  6
CONTINUOUS
 10
484.2107409088
 20
123.8019363424
 40
8.0
100
AcDbArc
 50
241.3642958278
 51
315.0
  0
ARC
  5
3DF
100
AcDbEntity
  8
KONSTRUKTIONSELEMENTE
100
AcDbCircle
 62
7
  6
CONTINUOUS
 10
484.2107409088
 20
123.8019363424
 40
8.0
100
AcDbArc
 50
135.0
 51
208.6357041722
  0
ARC
  5
3E0
100
AcDbEntity
  8
KONSTRUKTIONSELEMENTE
100
AcDbCircle
 62
7
  6
CONTINUOUS
 10
494.8173426266
 20
134.4085380602
 40
8.0
100
AcDbArc
 50
61.3642958278
 51
135.0
  0
ARC
  5
3E1
100
AcDbEntity
  8
KONSTRUKTIONSELEMENTE
100
AcDbCircle
 62
7
  6
CONTINUOUS
 10
494.8173426266
 20
134.4085380602
 40
8.0
100
AcDbArc
 50
315.0
 51
28.6357041722
  0
ARC
  5
3E2
100
AcDbEntity
  8
KONSTRUKTIONSELEMENTE
100
AcDbCircle
 62
7
  6
CONTINUOUS
 10
484.2107409088
 20
123.8019363424
 40
3.5
100
AcDbArc
 50
265.1538775079
 51
315.0
  0
ARC
  5
3E3
100
AcDbEntity
  8
KONSTRUKTIONSELEMENTE
100
AcDbCircle
 62
7
  6
CONTINUOUS
 10
484.2107409088
 20
123.8019363424
 40
3.5
100
AcDbArc
 50
135.0
 51
184.8461224921
  0
ARC
  5
3E4
100
AcDbEntity
  8
KONSTRUKTIONSELEMENTE
100
AcDbCircle
 62
7
  6
CONTINUOUS
 10
494.8173426266
 20
134.4085380602
 40
3.5
100
AcDbArc
 50
85.1538775079
 51
135.0
  0
ARC
  5
3E5
100
AcDbEntity
  8
KONSTRUKTIONSELEMENTE
100
AcDbCircle
 62
7
  6
CONTINUOUS
 10
494.8173426266
 20
134.4085380602
 40
3.5
100
AcDbArc
 50
315.0
 51
4.8461224921
  0
ARC
  5
3E6
100
AcDbEntity
  8
KONSTRUKTIONSELEMENTE
100
AcDbCircle
 62
7
  6
CONTINUOUS
 10
495.701226103
 20
135.2924215367
 40
2.25
100
AcDbArc
 50
135.0
 51
315.0
  0
ARC
  5
3E7
100
AcDbEntity
  8
KONSTRUKTIONSELEMENTE
100
AcDbCircle
 62
7
  6
CONTINUOUS
 10
483.3268574323
 20
122.918052866
 40
2.25
100
AcDbArc
 50
315.0
 51
135.0
  0
ARC
  5
3E8
100
AcDbEntity
  8
BEZUGSACHSEN
100
AcDbCircle
 62
7
  6
CONTINUOUS
 10
479.1831756613
 20
178.1552581755
 40
105.293701748
100
AcDbArc
 50
5.2233028691
 51
5.464179711
  0
ARC
  5
3E9
100
AcDbEntity
  8
BEZUGSACHSEN
100
AcDbCircle
 62
7
  6
CONTINUOUS
 10
490.7534047248
 20
187.795071882
 40
91.6894837689
100
AcDbArc
 50
358.9138625442
 51
0.342130308
  0
ARC
  5
3EA
100
AcDbEntity
  8
KONSTRUKTIONSELEMENTE
100
AcDbCircle
 62
7
  6
CONTINUOUS
 10
490.3035585385
 20
187.8668165242
 40
91.5114648424
100
AcDbArc
 50
358.8668212899
 51
0.2978754907
  0
ARC
  5
3EB
100
AcDbEntity
  8
BEZUGSACHSEN
100
AcDbCircle
 62
7
  6
CONTINUOUS
 10
493.9163507308
 20
179.9229146936
 40
90.6335758098
100
AcDbArc
 50
4.4726772658
 51
4.8022771823
  0
ARC
  5
3EC
100
AcDbEntity
  8
BEZUGSACHSEN
100
AcDbCircle
 62
7
  6
CONTINUOUS
 10
492.8764473043
 20
187.2668910014
 40
89.7616824048
100
AcDbArc
 50
359.3992548995
 51
0.4104395024
  0
ARC
  5
3ED
100
AcDbEntity
  8
BEZUGSACHSEN
100
AcDbCircle
 62
7
  6
CONTINUOUS
 10
498.9394053701
 20
185.6831856986
 40
84.2844378261
100
AcDbArc
 50
359.2070718828
 51
0.4370974531
  0
ARC
  5
3EE
100
AcDbEntity
  8
BEZUGSACHSEN
100
AcDbCircle
 62
7
  6
CONTINUOUS
 10
501.3714339874
 20
185.0497398661
 40
82.0866953547
100
AcDbArc
 50
359.1858096308
 51
0.3158261816
  0
ARC
  5
3EF
100
AcDbEntity
  8
BEZUGSACHSEN
100
AcDbCircle
 62
7
  6
CONTINUOUS
 10
505.515110376
 20
182.6027229333
 40
78.980674349
100
AcDbArc
 50
6.1868867428
 51
6.4640353672
  0
ARC
  5
3F0
100
AcDbEntity
  8
BEZUGSACHSEN
100
AcDbCircle
 62
7
  6
CONTINUOUS
 10
512.9308781254
 20
164.6764261883
 40
76.7531638006
100
AcDbArc
 50
24.6426778303
 51
24.842163179
  0
ARC
  5
3F1
100
AcDbEntity
  8
BEZUGSACHSEN
100
AcDbCircle
 62
7
  6
CONTINUOUS
 10
509.4477686825
 20
182.8254642544
 40
74.8304148568
100
AcDbArc
 50
0.9352184119
 51
1.4457383597
  0
ARC
  5
3F2
100
AcDbEntity
  8
BEZUGSACHSEN
100
AcDbCircle
 62
7
  6
CONTINUOUS
 10
509.5101587003
 20
182.8382052986
 40
74.7680131913
100
AcDbArc
 50
358.6638082285
 51
359.1017501881
  0
ARC
  5
3F3
100
AcDbEntity
  8
KONSTRUKTIONSELEMENTE
100
AcDbCircle
 62
7
  6
CONTINUOUS
 10
515.1466625857
 20
154.7378580194
 40
8.25
100
AcDbArc
 50
240.8421444573
 51
315.0
  0
ARC
  5
3F4
100
AcDbEntity
  8
KONSTRUKTIONSELEMENTE
100
AcDbCircle
 62
7
  6
CONTINUOUS
 10
515.1466625857
 20
154.7378580194
 40
8.25
100
AcDbArc
 50
135.0
 51
209.1578555427
  0
ARC
  5
3F5
100
AcDbEntity
  8
KONSTRUKTIONSELEMENTE
100
AcDbCircle
 62
7
  6
CONTINUOUS
 10
515.1466625857
 20
154.7378580194
 40
3.25
100
AcDbArc
 50
268.8837571799
 51
315.0
  0
ARC
  5
3F6
100
AcDbEntity
  8
KONSTRUKTIONSELEMENTE
100
AcDbCircle
 62
7
  6
CONTINUOUS
 10
515.1466625857
 20
154.7378580194
 40
3.25
100
AcDbArc
 50
135.0
 51
181.1162428201
  0
ARC
  5
3F7
100
AcDbEntity
  8
KONSTRUKTIONSELEMENTE
100
AcDbCircle
 62
7
  6
CONTINUOUS
 10
514.4395558045
 20
154.0307512382
 40
2.25
100
AcDbArc
 50
315.0
 51
135.0
  0
ARC
  5
3F8
100
AcDbEntity
  8
0
100
AcDbCircle
 62
7
  6
CONTINUOUS
 10
549.36685551
 20
124.7279239248
 40
10.0
100
AcDbArc
 50
330.0
 51
360.0
  0
ARC
  5
3F9
100
AcDbEntity
  8
0
100
AcDbCircle
 62
7
  6
CONTINUOUS
 10
557.86685551
 20
91.7913842771
 40
6.0
100
AcDbArc
 50
180.0
 51
212.2268364662
  0
ARC
  5
3FA
100
AcDbEntity
  8
BEZUGSACHSEN
100
AcDbCircle
 62
7
  6
CONTINUOUS
 10
519.1578509978
 20
184.0802358922
 40
65.4056855319
100
AcDbArc
 50
5.4300663805
 51
5.81687832
  0
ARC
  5
3FB
100
AcDbEntity
  8
BEZUGSACHSEN
100
AcDbCircle
 62
7
  6
CONTINUOUS
 10
544.2119034665
 20
146.207489139
 40
57.3142701431
100
AcDbArc
 50
47.7620915444
 51
47.9656892606
  0
ARC
  5
3FC
100
AcDbEntity
  8
BEZUGSACHSEN
100
AcDbCircle
 62
7
  6
CONTINUOUS
 10
531.4452738664
 20
187.5338702239
 40
52.5947743459
100
AcDbArc
 50
359.8816381433
 51
0.2255842473
  0
ARC
  5
3FD
100
AcDbEntity
  8
BEZUGSACHSEN
100
AcDbCircle
 62
7
  6
CONTINUOUS
 10
533.1907585537
 20
186.7837799392
 40
51.0835754011
100
AcDbArc
 50
359.8781366834
 51
0.2322577427
  0
ARC
  5
3FE
100
AcDbEntity
  8
BEZUGSACHSEN
100
AcDbCircle
 62
7
  6
CONTINUOUS
 10
548.2230554158
 20
154.9486323247
 40
47.7095616779
100
AcDbArc
 50
41.1447585713
 51
41.4393910159
  0
ARC
  5
3FF
100
AcDbEntity
  8
BEZUGSACHSEN
100
AcDbCircle
 62
7
  6
CONTINUOUS
 10
554.896599469
 20
190.0039701949
 40
29.3746477054
100
AcDbArc
 50
357.721874742
 51
359.8189692269
  0
ARC
  5
400
100
AcDbEntity
  8
BEZUGSACHSEN
100
AcDbCircle
 62
7
  6
CONTINUOUS
 10
555.0128272605
 20
190.0025909561
 40
29.2584161481
100
AcDbArc
 50
359.8514620182
 51
0.5229283329
  0
ARC
  5
401
100
AcDbEntity
  8
KONSTRUKTIONSELEMENTE
100
AcDbCircle
 62
7
  6
CONTINUOUS
 10
521.1570702258
 20
160.7482656594
 40
8.25
100
AcDbArc
 50
70.1222068698
 51
135.0
  0
ARC
  5
402
100
AcDbEntity
  8
KONSTRUKTIONSELEMENTE
100
AcDbCircle
 62
7
  6
CONTINUOUS
 10
521.1570702258
 20
160.7482656594
 40
8.25
100
AcDbArc
 50
315.0
 51
19.8777931302
  0
ARC
  5
403
100
AcDbEntity
  8
KONSTRUKTIONSELEMENTE
100
AcDbCircle
 62
7
  6
CONTINUOUS
 10
520.6267401399
 20
160.2179355736
 40
3.5
100
AcDbArc
 50
156.6630838942
 51
293.3369161058
  0
ARC
  5
404
100
AcDbEntity
  8
0
100
AcDbCircle
 62
7
  6
CONTINUOUS
 10
574.36685551
 20
96.5580509437
 40
22.5
100
AcDbArc
 50
212.2268364662
 51
327.7731635338
  0
ARC
  5
405
100
AcDbEntity
  8
RUNDUNGEN
100
AcDbCircle
 62
7
  6
CONTINUOUS
 10
586.86685551
 20
106.3785590194
 40
10.0
100
AcDbArc
 50
0.0
 51
30.0
  0
ARC
  5
406
100
AcDbEntity
  8
KONSTRUKTIONSELEMENTE
100
AcDbCircle
 62
7
  6
CONTINUOUS
 10
599.36685551
 20
124.7279239248
 40
10.0
100
AcDbArc
 50
180.0
 51
210.0
  0
ARC
  5
407
100
AcDbEntity
  8
0
100
AcDbCircle
 62
7
  6
CONTINUOUS
 10
561.86685551
 20
106.3785590194
 40
10.0
100
AcDbArc
 50
150.0
 51
180.0
  0
CIRCLE
  5
408
100
AcDbEntity
  8
0
100
AcDbCircle
 62
7
  6
CONTINUOUS
 10
574.36685551
 20
96.5580509437
 40
9.0
  0
ARC
  5
409
100
AcDbEntity
  8
RUNDUNGEN
100
AcDbCircle
 62
7
  6
CONTINUOUS
 10
590.86685551
 20
91.7913842771
 40
6.0
100
AcDbArc
 50
327.7731635338
 51
360.0
  0
ARC
  5
40A
100
AcDbEntity
  8
RUNDUNGEN
100
AcDbCircle
 62
7
  6
CONTINUOUS
 10
584.36685551
 20
134.9118809115
 40
5.0
100
AcDbArc
 50
0.0
 51
68.0864505433
  0
ARC
  5
40B
100
AcDbEntity
  8
0
100
AcDbCircle
 62
7
  6
CONTINUOUS
 10
564.36685551
 20
134.9118809115
 40
5.0
100
AcDbArc
 50
111.9135496435
 51
180.0
  0
ARC
  5
40C
100
AcDbEntity
  8
BEZUGSACHSEN
100
AcDbCircle
 62
7
  6
CONTINUOUS
 10
577.3696104241
 20
147.171660725
 40
40.6076916818
100
AcDbArc
 50
80.6037240984
 51
80.7188140711
  0
ARC
  5
40D
100
AcDbEntity
  8
BEZUGSACHSEN
100
AcDbCircle
 62
7
  6
CONTINUOUS
 10
559.653216908
 20
190.3174372866
 40
24.8889557967
100
AcDbArc
 50
351.1140374909
 51
351.5849818105
  0
ARC
  5
40E
100
AcDbEntity
  8
BEZUGSACHSEN
100
AcDbCircle
 62
7
  6
CONTINUOUS
 10
566.037645393
 20
183.8677089932
 40
20.6996692295
100
AcDbArc
 50
36.1032729074
 51
36.3673171866
  0
ARC
  5
40F
100
AcDbEntity
  8
BEZUGSACHSEN
100
AcDbCircle
 62
7
  6
CONTINUOUS
 10
578.1748351092
 20
189.5849469166
 40
8.6097725003
100
AcDbArc
 50
59.5043560863
 51
60.0700971491
  0
ARC
  5
410
100
AcDbEntity
  8
0
100
AcDbCircle
 62
7
  6
CONTINUOUS
 10
572.36685551
 20
189.9270254986
 40
8.0
100
AcDbArc
 50
166.25
 51
180.0
  0
ARC
  5
411
100
AcDbEntity
  8
BEZUGSACHSEN
100
AcDbCircle
 62
7
  6
CONTINUOUS
 10
576.36685551
 20
189.9270254986
 40
8.0
100
AcDbArc
 50
0.0
 51
13.75
  0
ARC
  5
412
100
AcDbEntity
  8
RUNDUNGEN
100
AcDbCircle
 62
7
  6
CONTINUOUS
 10
587.36685551
 20
142.3280793986
 40
3.0
100
AcDbArc
 50
182.3622035824
 51
247.9756751388
  0
ARC
  5
413
100
AcDbEntity
  8
0
100
AcDbCircle
 62
7
  6
CONTINUOUS
 10
561.36685551
 20
142.3280793986
 40
3.0
100
AcDbArc
 50
292.0243248612
 51
357.6377964176
  0
ARC
  5
414
100
AcDbEntity
  8
BEZUGSACHSEN
100
AcDbCircle
 62
7
  6
CONTINUOUS
 10
519.2459240865
 20
192.6559543943
 40
63.1931968544
100
AcDbArc
 50
0.9066424585
 51
1.3361166544
  0
ARC
  5
415
100
AcDbEntity
  8
BEZUGSACHSEN
100
AcDbCircle
 62
7
  6
CONTINUOUS
 10
519.287361979
 20
192.66224087
 40
63.1517517217
100
AcDbArc
 50
358.7530337393
 51
359.1827774093
  0
ARC
  5
416
100
AcDbEntity
  8
KONSTRUKTIONSELEMENTE
100
AcDbCircle
 62
7
  6
CONTINUOUS
 10
518.7999288618
 20
192.7055566245
 40
63.0151201788
100
AcDbArc
 50
0.8640991224
 51
1.2947809349
  0
ARC
  5
417
100
AcDbEntity
  8
KONSTRUKTIONSELEMENTE
100
AcDbCircle
 62
7
  6
CONTINUOUS
 10
518.7999288836
 20
192.7118421618
 40
63.015120157
100
AcDbArc
 50
358.7052190651
 51
359.1359010831
  0
ARC
  5
418
100
AcDbEntity
  8
BEZUGSACHSEN
100
AcDbCircle
 62
7
  6
CONTINUOUS
 10
527.2993014416
 20
193.7285395157
 40
55.4043638887
100
AcDbArc
 50
354.421356231
 51
354.806276654
  0
ARC
  5
419
100
AcDbEntity
  8
KONSTRUKTIONSELEMENTE
100
AcDbCircle
 62
7
  6
CONTINUOUS
 10
526.7237959764
 20
193.7782865771
 40
55.3575111872
100
AcDbArc
 50
354.3648830388
 51
354.7501651226
  0
ARC
  5
41A
100
AcDbEntity
  8
BEZUGSACHSEN
100
AcDbCircle
 62
7
  6
CONTINUOUS
 10
546.3863917628
 20
195.3551063106
 40
37.0061170054
100
AcDbArc
 50
348.3935226876
 51
348.6780585164
  0
ARC
  5
41B
100
AcDbEntity
  8
BEZUGSACHSEN
100
AcDbCircle
 62
7
  6
CONTINUOUS
 10
546.3284740555
 20
196.6220310432
 40
36.1075265356
100
AcDbArc
 50
358.1484741037
 51
0.423182333
  0
ARC
  5
41C
100
AcDbEntity
  8
KONSTRUKTIONSELEMENTE
100
AcDbCircle
 62
7
  6
CONTINUOUS
 10
545.8037827511
 20
196.6502743633
 40
36.0112399766
100
AcDbArc
 50
358.0985609926
 51
0.3793761388
  0
ARC
  5
41D
100
AcDbEntity
  8
BEZUGSACHSEN
100
AcDbCircle
 62
7
  6
CONTINUOUS
 10
547.4683696872
 20
195.776759527
 40
35.2019197425
100
AcDbArc
 50
358.6847374026
 51
0.4345268652
  0
ARC
  5
41E
100
AcDbEntity
  8
0
100
AcDbCircle
 62
7
  6
CONTINUOUS
 10
574.36685551
 20
213.9580509437
 40
58.5
100
AcDbArc
 50
279.8434887321
 51
360.0
  0
ARC
  5
41F
100
AcDbEntity
  8
0
100
AcDbCircle
 62
7
  6
CONTINUOUS
 10
574.36685551
 20
213.9580509437
 40
58.5
100
AcDbArc
 50
228.430431428
 51
260.1565112679
  0
ARC
  5
420
100
AcDbEntity
  8
0
100
AcDbCircle
 62
7
  6
CONTINUOUS
 10
574.36685551
 20
213.9580509437
 40
58.5
100
AcDbArc
 50
180.0
 51
221.569568572
  0
ARC
  5
421
100
AcDbEntity
  8
0
100
AcDbCircle
 62
7
  6
CONTINUOUS
 10
574.36685551
 20
213.9580509437
 40
32.5
100
AcDbArc
 50
287.9272663376
 51
360.0
  0
ARC
  5
422
100
AcDbEntity
  8
0
100
AcDbCircle
 62
7
  6
CONTINUOUS
 10
574.36685551
 20
213.9580509437
 40
32.5
100
AcDbArc
 50
231.1828927725
 51
252.0727336624
  0
ARC
  5
423
100
AcDbEntity
  8
0
100
AcDbCircle
 62
7
  6
CONTINUOUS
 10
574.36685551
 20
213.9580509437
 40
32.5
100
AcDbArc
 50
180.0
 51
218.8171072275
  0
ARC
  5
424
100
AcDbEntity
  8
BEZUGSACHSEN
100
AcDbCircle
 62
7
  6
CONTINUOUS
 10
553.8758101178
 20
190.847680822
 40
30.161145201
100
AcDbArc
 50
358.4648088061
 51
0.5070878628
  0
ARC
  5
425
100
AcDbEntity
  8
BEZUGSACHSEN
100
AcDbCircle
 62
7
  6
CONTINUOUS
 10
558.8546179897
 20
190.5590765518
 40
25.4161806201
100
AcDbArc
 50
2.0676937502
 51
2.442549345
  0
ARC
  5
426
100
AcDbEntity
  8
BEZUGSACHSEN
100
AcDbCircle
 62
7
  6
CONTINUOUS
 10
558.9301009003
 20
190.5618095159
 40
25.3406482507
100
AcDbArc
 50
1.6916834776
 51
2.0676762414
  0
ARC
  5
427
100
AcDbEntity
  8
BEZUGSACHSEN
100
AcDbCircle
 62
7
  6
CONTINUOUS
 10
563.689727443
 20
191.6621605352
 40
20.7865989553
100
AcDbArc
 50
347.701485479
 51
348.1046884839
  0
ARC
  5
428
100
AcDbEntity
  8
KONSTRUKTIONSELEMENTE
100
AcDbCircle
 62
7
  6
CONTINUOUS
 10
572.1857131306
 20
205.744686948
 40
19.5819912251
100
AcDbArc
 50
299.5697675892
 51
299.9480759671
  0
ARC
  5
429
100
AcDbEntity
  8
BEZUGSACHSEN
100
AcDbCircle
 62
7
  6
CONTINUOUS
 10
572.8695861618
 20
205.5998097565
 40
19.4279794726
100
AcDbArc
 50
299.6349896114
 51
300.0155266446
  0
ARC
  5
42A
100
AcDbEntity
  8
BEZUGSACHSEN
100
AcDbCircle
 62
7
  6
CONTINUOUS
 10
572.0123839518
 20
199.3220665764
 40
10.7029177182
100
AcDbArc
 50
346.8586631968
 51
347.7244895243
  0
ARC
  5
42B
100
AcDbEntity
  8
KONSTRUKTIONSELEMENTE
100
AcDbCircle
 62
7
  6
CONTINUOUS
 10
571.408236675
 20
199.3332627087
 40
10.689273796
100
AcDbArc
 50
346.7799498629
 51
347.6471484995
  0
ARC
  5
42C
100
AcDbEntity
  8
BEZUGSACHSEN
100
AcDbCircle
 62
7
  6
CONTINUOUS
 10
578.2205100708
 20
193.8346217995
 40
9.5571904288
100
AcDbArc
 50
308.3524767163
 51
308.9828336289
  0
ARC
  5
42D
100
AcDbEntity
  8
BEZUGSACHSEN
100
AcDbCircle
 62
7
  6
CONTINUOUS
 10
576.0438406697
 20
198.5596041967
 40
7.0870341222
100
AcDbArc
 50
339.2067163461
 51
340.0523179639
  0
ARC
  5
42E
100
AcDbEntity
  8
KONSTRUKTIONSELEMENTE
100
AcDbCircle
 62
7
  6
CONTINUOUS
 10
553.8607588556
 20
193.4519542893
 40
3.5
100
AcDbArc
 50
315.0
 51
135.0
  0
ARC
  5
42F
100
AcDbEntity
  8
0
100
AcDbCircle
 62
7
  6
CONTINUOUS
 10
574.36685551
 20
288.9580509437
 40
58.5
100
AcDbArc
 50
105.874289038
 51
180.0
  0
ARC
  5
430
100
AcDbEntity
  8
0
100
AcDbCircle
 62
7
  6
CONTINUOUS
 10
574.36685551
 20
288.9580509437
 40
58.5
100
AcDbArc
 50
0.0
 51
74.125710962
  0
ARC
  5
431
100
AcDbEntity
  8
0
100
AcDbCircle
 62
7
  6
CONTINUOUS
 10
574.36685551
 20
288.9580509437
 40
32.5
100
AcDbArc
 50
119.5001646305
 51
180.0
  0
ARC
  5
432
100
AcDbEntity
  8
0
100
AcDbCircle
 62
7
  6
CONTINUOUS
 10
574.36685551
 20
288.9580509437
 40
32.5
100
AcDbArc
 50
0.0
 51
60.4998353695
  0
ARC
  5
433
100
AcDbEntity
  8
0
100
AcDbCircle
 62
7
  6
CONTINUOUS
 10
574.36685551
 20
597.4580509437
 40
16.0
100
AcDbArc
 50
0.0
 51
180.0
  0
ARC
  5
434
100
AcDbEntity
  8
0
100
AcDbCircle
 62
7
  6
CONTINUOUS
 10
574.36685551
 20
305.4580509437
 40
16.0
100
AcDbArc
 50
180.0
 51
360.0
  0
SPLINE
  5
435
100
AcDbEntity
  8
KONSTRUKTIONSELEMENTE
100
AcDbSpline
 62
7
  6
CONTINUOUS
 70
0
 71
3
 72
10
 73
6
 74
0
 42
0.0000001
 43
0.0000001
 44
0.0000000001
 40
0.0
 40
0.0
 40
0.0
 40
0.0
 40
0.3116645009
 40
0.6060899939
 40
1.0
 40
1.0
 40
1.0
 40
1.0
 10
216.1076605422
 20
118.8521888741
 30
0.0
 10
216.1076605422
 20
119.0493437206
 30
0.0
 10
215.9201319857
 20
119.4206699153
 30
0.0
 10
215.462812716
 20
119.854543005
 30
0.0
 10
215.0844114038
 20
120.0819530385
 30
0.0
 10
214.8596524305
 20
120.1895411695
 30
0.0
  0
SPLINE
  5
436
100
AcDbEntity
  8
KONSTRUKTIONSELEMENTE
100
AcDbSpline
 62
7
  6
CONTINUOUS
 70
0
 71
3
 72
10
 73
6
 74
0
 42
0.0000001
 43
0.0000001
 44
0.0000000001
 40
0.0
 40
0.0
 40
0.0
 40
0.0
 40
0.3939255147
 40
0.6883533687
 40
1.0
 40
1.0
 40
1.0
 40
1.0
 10
210.3559113067
 20
120.1896530975
 30
0.0
 10
210.1311034007
 20
120.0820631969
 30
0.0
 10
209.7526408791
 20
119.8546176286
 30
0.0
 10
209.2951993614
 20
119.4207398852
 30
0.0
 10
209.1076605422
 20
119.049360178
 30
0.0
 10
209.1076605422
 20
118.8521888741
 30
0.0
  0
SPLINE
  5
437
100
AcDbEntity
  8
KONSTRUKTIONSELEMENTE
100
AcDbSpline
 62
7
  6
CONTINUOUS
 70
0
 71
3
 72
13
 73
9
 74
0
 42
0.0000001
 43
0.0000001
 44
0.0000000001
 40
0.0
 40
0.0
 40
0.0
 40
0.0
 40
0.1194785188
 40
0.2392741704
 40
0.3602835725
 40
0.4830059608
 40
0.7355440041
 40
1.0
 40
1.0
 40
1.0
 40
1.0
 10
220.6076605422
 20
118.8521888741
 30
0.0
 10
220.6076605422
 20
119.2108284854
 30
0.0
 10
220.531565059
 20
119.9313351144
 30
0.0
 10
220.1959888314
 20
120.9668308701
 30
0.0
 10
219.6600043661
 20
121.9251505492
 30
0.0
 10
218.7023088004
 20
123.0755303101
 30
0.0
 10
217.1159901577
 20
124.2148728294
 30
0.0
 10
215.6359367153
 20
124.7423988497
 30
0.0
 10
214.8617728627
 20
124.9179549948
 30
0.0
  0
SPLINE
  5
438
100
AcDbEntity
  8
KONSTRUKTIONSELEMENTE
100
AcDbSpline
 62
7
  6
CONTINUOUS
 70
0
 71
3
 72
13
 73
9
 74
0
 42
0.0000001
 43
0.0000001
 44
0.0000000001
 40
0.0
 40
0.0
 40
0.0
 40
0.0
 40
0.2644681654
 40
0.5169944072
 40
0.6397129492
 40
0.760706397
 40
0.8805228501
 40
1.0
 40
1.0
 40
1.0
 40
1.0
 10
210.3554897634
 20
124.9183862071
 30
0.0
 10
209.5810924369
 20
124.7429061029
 30
0.0
 10
208.1006015893
 20
124.2155853742
 30
0.0
 10
206.5137511822
 20
123.0762329108
 30
0.0
 10
205.5557792229
 20
121.9257903619
 30
0.0
 10
205.0194624652
 20
120.9673685754
 30
0.0
 10
204.6838481286
 20
119.9316151629
 30
0.0
 10
204.6076605422
 20
119.2109031445
 30
0.0
 10
204.6076605422
 20
118.8521888741
 30
0.0
  0
SPLINE
  5
439
100
AcDbEntity
  8
KONSTRUKTIONSELEMENTE
100
AcDbSpline
 62
7
  6
CONTINUOUS
 70
0
 71
3
 72
9
 73
5
 74
0
 42
0.0000001
 43
0.0000001
 44
0.0000000001
 40
0.0
 40
0.0
 40
0.0
 40
0.0
 40
0.4991894641
 40
1.0
 40
1.0
 40
1.0
 40
1.0
 10
204.6076605422
 20
108.2455871563
 30
0.0
 10
204.6076605422
 20
107.8706088659
 30
0.0
 10
204.690828168
 20
107.1171244575
 30
0.0
 10
204.9345501608
 20
106.3999799107
 30
0.0
 10
205.0910984785
 20
106.0579038183
 30
0.0
  0
SPLINE
  5
43A
100
AcDbEntity
  8
KONSTRUKTIONSELEMENTE
100
AcDbSpline
 62
7
  6
CONTINUOUS
 70
0
 71
3
 72
9
 73
5
 74
0
 42
0.0000001
 43
0.0000001
 44
0.0000000001
 40
0.0
 40
0.0
 40
0.0
 40
0.0
 40
0.5008476774
 40
1.0
 40
1.0
 40
1.0
 40
1.0
 10
220.1242717929
 20
106.0579013707
 30
0.0
 10
220.280812979
 20
106.4000082668
 30
0.0
 10
220.5244530332
 20
107.1171706639
 30
0.0
 10
220.6076605422
 20
107.870639613
 30
0.0
 10
220.6076605422
 20
108.2455871563
 30
0.0
  0
SPLINE
  5
43B
100
AcDbEntity
  8
KONSTRUKTIONSELEMENTE
100
AcDbSpline
 62
7
  6
CONTINUOUS
 70
0
 71
3
 72
10
 73
6
 74
0
 42
0.0000001
 43
0.0000001
 44
0.0000000001
 40
0.0
 40
0.0
 40
0.0
 40
0.0
 40
0.3192646009
 40
0.6086079864
 40
1.0
 40
1.0
 40
1.0
 40
1.0
 10
209.1076605422
 20
108.2455871563
 30
0.0
 10
209.1076605422
 20
108.0738473811
 30
0.0
 10
209.2496763287
 20
107.7529961662
 30
0.0
 10
209.6154823434
 20
107.3596438268
 30
0.0
 10
209.9187701761
 20
107.1466039135
 30
0.0
 10
210.1013064772
 20
107.0416893171
 30
0.0
  0
SPLINE
  5
43C
100
AcDbEntity
  8
KONSTRUKTIONSELEMENTE
100
AcDbSpline
 62
7
  6
CONTINUOUS
 70
0
 71
3
 72
10
 73
6
 74
0
 42
0.0000001
 43
0.0000001
 44
0.0000000001
 40
0.0
 40
0.0
 40
0.0
 40
0.0
 40
0.3914026107
 40
0.6807340322
 40
1.0
 40
1.0
 40
1.0
 40
1.0
 10
215.1141061433
 20
107.0417417882
 30
0.0
 10
215.2966333867
 20
107.1466571977
 30
0.0
 10
215.5998729675
 20
107.3597162692
 30
0.0
 10
215.9656936721
 20
107.7530146298
 30
0.0
 10
216.1076605422
 20
108.0738573707
 30
0.0
 10
216.1076605422
 20
108.2455871563
 30
0.0
  0
SPLINE
  5
43D
100
AcDbEntity
  8
KONSTRUKTIONSELEMENTE
100
AcDbSpline
 62
7
  6
CONTINUOUS
 70
0
 71
3
 72
10
 73
6
 74
0
 42
0.0000001
 43
0.0000001
 44
0.0000000001
 40
0.0
 40
0.0
 40
0.0
 40
0.0
 40
0.3192646009
 40
0.6086079864
 40
1.0
 40
1.0
 40
1.0
 40
1.0
 10
216.1076605422
 20
149.9648872463
 30
0.0
 10
216.1076605422
 20
150.1366270215
 30
0.0
 10
215.9656447556
 20
150.4574782365
 30
0.0
 10
215.599838741
 20
150.8508305759
 30
0.0
 10
215.2965509082
 20
151.0638704892
 30
0.0
 10
215.1140146072
 20
151.1687850856
 30
0.0
  0
SPLINE
  5
43E
100
AcDbEntity
  8
KONSTRUKTIONSELEMENTE
100
AcDbSpline
 62
7
  6
CONTINUOUS
 70
0
 71
3
 72
10
 73
6
 74
0
 42
0.0000001
 43
0.0000001
 44
0.0000000001
 40
0.0
 40
0.0
 40
0.0
 40
0.0
 40
0.3914026107
 40
0.6807340322
 40
1.0
 40
1.0
 40
1.0
 40
1.0
 10
210.1012149411
 20
151.1687326145
 30
0.0
 10
209.9186876977
 20
151.063817205
 30
0.0
 10
209.6154481169
 20
150.8507581335
 30
0.0
 10
209.2496274123
 20
150.4574597729
 30
0.0
 10
209.1076605422
 20
150.136617032
 30
0.0
 10
209.1076605422
 20
149.9648872463
 30
0.0
  0
SPLINE
  5
43F
100
AcDbEntity
  8
KONSTRUKTIONSELEMENTE
100
AcDbSpline
 62
7
  6
CONTINUOUS
 70
0
 71
3
 72
13
 73
9
 74
0
 42
0.0000001
 43
0.0000001
 44
0.0000000001
 40
0.0
 40
0.0
 40
0.0
 40
0.0
 40
0.1202542863
 40
0.2407101775
 40
0.3622135153
 40
0.4851397273
 40
0.7370234437
 40
1.0
 40
1.0
 40
1.0
 40
1.0
 10
220.6076605422
 20
149.9648872463
 30
0.0
 10
220.6076605422
 20
150.2946012468
 30
0.0
 10
220.5434517438
 20
150.9563485367
 30
0.0
 10
220.2595595072
 20
151.9137894966
 30
0.0
 10
219.8032465594
 20
152.8102143898
 30
0.0
 10
218.9837164806
 20
153.9037860832
 30
0.0
 10
217.6110071338
 20
155.0305098611
 30
0.0
 10
216.306201645
 20
155.6102981463
 30
0.0
 10
215.6183652867
 20
155.8265541448
 30
0.0
  0
SPLINE
  5
440
100
AcDbEntity
  8
KONSTRUKTIONSELEMENTE
100
AcDbSpline
 62
7
  6
CONTINUOUS
 70
0
 71
3
 72
13
 73
9
 74
0
 42
0.0000001
 43
0.0000001
 44
0.0000000001
 40
0.0
 40
0.0
 40
0.0
 40
0.0
 40
0.2629481772
 40
0.5148079537
 40
0.6377308964
 40
0.7592358952
 40
0.8797321581
 40
1.0
 40
1.0
 40
1.0
 40
1.0
 10
209.5826094401
 20
155.8220328717
 30
0.0
 10
208.8964341819
 20
155.6051281225
 30
0.0
 10
207.5950197457
 20
155.0244918072
 30
0.0
 10
206.2264563167
 20
153.8981685396
 30
0.0
 10
205.4094645138
 20
152.8059135168
 30
0.0
 10
204.9545819822
 20
151.9107029372
 30
0.0
 10
204.67170362
 20
150.9547162991
 30
0.0
 10
204.6076605422
 20
150.294038615
 30
0.0
 10
204.6076605422
 20
149.9648872463
 30
0.0
  0
SPLINE
  5
441
100
AcDbEntity
  8
KONSTRUKTIONSELEMENTE
100
AcDbSpline
 62
7
  6
CONTINUOUS
 70
0
 71
3
 72
9
 73
5
 74
0
 42
0.0000001
 43
0.0000001
 44
0.0000000001
 40
0.0
 40
0.0
 40
0.0
 40
0.0
 40
0.231295784
 40
1.0
 40
1.0
 40
1.0
 40
1.0
 10
194.8884668262
 20
170.8374103823
 30
0.0
 10
195.1896244488
 20
170.4610403947
 30
0.0
 10
196.5840132974
 20
168.9079395037
 30
0.0
 10
198.3024270286
 20
167.6633007191
 30
0.0
 10
199.6989533289
 20
166.8783639021
 30
0.0
  0
SPLINE
  5
442
100
AcDbEntity
  8
KONSTRUKTIONSELEMENTE
100
AcDbSpline
 62
7
  6
CONTINUOUS
 70
0
 71
3
 72
9
 73
5
 74
0
 42
0.0000001
 43
0.0000001
 44
0.0000000001
 40
0.0
 40
0.0
 40
0.0
 40
0.0
 40
0.2693689048
 40
1.0
 40
1.0
 40
1.0
 40
1.0
 10
225.5164920339
 20
166.87842792
 30
0.0
 10
226.0058448148
 20
167.1534782287
 30
0.0
 10
227.7785665611
 20
168.2473961676
 30
0.0
 10
229.3764509304
 20
169.6494007424
 30
0.0
 10
230.3276080593
 20
170.8383635638
 30
0.0
  0
SPLINE
  5
443
100
AcDbEntity
  8
KONSTRUKTIONSELEMENTE
100
AcDbSpline
 62
7
  6
CONTINUOUS
 70
0
 71
3
 72
9
 73
5
 74
0
 42
0.0000001
 43
0.0000001
 44
0.0000000001
 40
0.0
 40
0.0
 40
0.0
 40
0.0
 40
0.4853819776
 40
1.0
 40
1.0
 40
1.0
 40
1.0
 10
192.6744863701
 20
163.2090356794
 30
0.0
 10
194.4975281133
 20
161.7279086728
 30
0.0
 10
198.7180785765
 20
159.2292462273
 30
0.0
 10
203.3931837791
 20
157.8178678321
 30
0.0
 10
205.8395519911
 20
157.3518683314
 30
0.0
  0
SPLINE
  5
444
100
AcDbEntity
  8
KONSTRUKTIONSELEMENTE
100
AcDbSpline
 62
7
  6
CONTINUOUS
 70
0
 71
3
 72
9
 73
5
 74
0
 42
0.0000001
 43
0.0000001
 44
0.0000000001
 40
0.0
 40
0.0
 40
0.0
 40
0.0
 40
0.5146328688
 40
1.0
 40
1.0
 40
1.0
 40
1.0
 10
219.3542962319
 20
157.3477883143
 30
0.0
 10
221.8045711489
 20
157.8129728771
 30
0.0
 10
226.4872743389
 20
159.2240275103
 30
0.0
 10
230.7146618137
 20
161.7254421958
 30
0.0
 10
232.5403327477
 20
163.2086242918
 30
0.0
  0
SPLINE
  5
445
100
AcDbEntity
  8
KONSTRUKTIONSELEMENTE
100
AcDbSpline
 62
7
  6
CONTINUOUS
 70
0
 71
3
 72
13
 73
9
 74
0
 42
0.0000001
 43
0.0000001
 44
0.0000000001
 40
0.0
 40
0.0
 40
0.0
 40
0.0
 40
0.1037033436
 40
0.212323527
 40
0.3277710209
 40
0.4507608463
 40
0.7166544849
 40
1.0
 40
1.0
 40
1.0
 40
1.0
 10
205.2794953766
 20
7.7536336231
 30
0.0
 10
205.2316157821
 20
8.0283395507
 30
0.0
 10
205.0602619951
 20
8.5801312622
 30
0.0
 10
204.604669194
 20
9.3426809921
 30
0.0
 10
203.9654968593
 20
10.0311039748
 30
0.0
 10
202.8707496671
 20
10.8421535396
 30
0.0
 10
201.1728421837
 20
11.5407726132
 30
0.0
 10
199.6895465308
 20
11.7255115244
 30
0.0
 10
198.9276605422
 20
11.7255115244
 30
0.0
  0
SPLINE
  5
446
100
AcDbEntity
  8
KONSTRUKTIONSELEMENTE
100
AcDbSpline
 62
7
  6
CONTINUOUS
 70
0
 71
3
 72
9
 73
5
 74
0
 42
0.0000001
 43
0.0000001
 44
0.0000000001
 40
0.0
 40
0.0
 40
0.0
 40
0.0
 40
0.2454868499
 40
1.0
 40
1.0
 40
1.0
 40
1.0
 10
177.2189670393
 20
64.6507254242
 30
0.0
 10
177.2189691103
 20
64.7063080585
 30
0.0
 10
177.203463969
 20
64.9326848225
 30
0.0
 10
177.122628857
 20
65.1527544186
 30
0.0
 10
177.0362802276
 20
65.3001607492
 30
0.0
  0
SPLINE
  5
447
100
AcDbEntity
  8
KONSTRUKTIONSELEMENTE
100
AcDbSpline
 62
7
  6
CONTINUOUS
 70
0
 71
3
 72
11
 73
7
 74
0
 42
0.0000001
 43
0.0000001
 44
0.0000000001
 40
0.0
 40
0.0
 40
0.0
 40
0.0
 40
0.2187337062
 40
0.4541366386
 40
0.7148275965
 40
1.0
 40
1.0
 40
1.0
 40
1.0
 10
165.6402288916
 20
64.4105391424
 30
0.0
 10
165.6402351424
 20
64.5783068673
 30
0.0
 10
165.7171305563
 20
64.9299629517
 30
0.0
 10
166.0367859258
 20
65.3889061324
 30
0.0
 10
166.5206820735
 20
65.755405302
 30
0.0
 10
166.9118788257
 20
65.9169342068
 30
0.0
 10
167.1217863436
 20
65.9784146954
 30
0.0
  0
SPLINE
  5
448
100
AcDbEntity
  8
KONSTRUKTIONSELEMENTE
100
AcDbSpline
 62
7
  6
CONTINUOUS
 70
0
 71
3
 72
12
 73
8
 74
0
 42
0.0000001
 43
0.0000001
 44
0.0000000001
 40
0.0
 40
0.0
 40
0.0
 40
0.0
 40
0.1086802535
 40
0.2196404807
 40
0.4547579712
 40
0.715164231
 40
1.0
 40
1.0
 40
1.0
 40
1.0
 10
156.060163907
 20
82.1181458516
 30
0.0
 10
156.0601831293
 20
82.3963182788
 30
0.0
 10
156.1197095664
 20
82.9602156203
 30
0.0
 10
156.4771749245
 20
84.0752555961
 30
0.0
 10
157.3819588421
 20
85.3812795532
 30
0.0
 10
158.9951195627
 20
86.6003078884
 30
0.0
 10
160.2990388772
 20
87.1393935006
 30
0.0
 10
160.9986968023
 20
87.3443185624
 30
0.0
  0
SPLINE
  5
449
100
AcDbEntity
  8
KONSTRUKTIONSELEMENTE
100
AcDbSpline
 62
7
  6
CONTINUOUS
 70
0
 71
3
 72
9
 73
5
 74
0
 42
0.0000001
 43
0.0000001
 44
0.0000000001
 40
0.0
 40
0.0
 40
0.0
 40
0.0
 40
0.4910898138
 40
1.0
 40
1.0
 40
1.0
 40
1.0
 10
156.0601642715
 20
78.5825324443
 30
0.0
 10
156.0601450755
 20
78.2111103669
 30
0.0
 10
156.1677620913
 20
77.4513059597
 30
0.0
 10
156.4745804923
 20
76.7498617679
 30
0.0
 10
156.6691280011
 20
76.4177483963
 30
0.0
  0
SPLINE
  5
44A
100
AcDbEntity
  8
KONSTRUKTIONSELEMENTE
100
AcDbSpline
 62
7
  6
CONTINUOUS
 70
0
 71
3
 72
9
 73
5
 74
0
 42
0.0000001
 43
0.0000001
 44
0.0000000001
 40
0.0
 40
0.0
 40
0.0
 40
0.0
 40
0.4910906792
 40
1.0
 40
1.0
 40
1.0
 40
1.0
 10
238.5471413835
 20
24.0808669958
 30
0.0
 10
238.5471157166
 20
24.4523026133
 30
0.0
 10
238.6547253541
 20
25.2121356184
 30
0.0
 10
238.96155155
 20
25.913606216
 30
0.0
 10
239.1561054776
 20
26.2457305451
 30
0.0
  0
SPLINE
  5
44B
100
AcDbEntity
  8
KONSTRUKTIONSELEMENTE
100
AcDbSpline
 62
7
  6
CONTINUOUS
 70
0
 71
3
 72
11
 73
7
 74
0
 42
0.0000001
 43
0.0000001
 44
0.0000000001
 40
0.0
 40
0.0
 40
0.0
 40
0.0
 40
0.2239782306
 40
0.4651644091
 40
0.7245589301
 40
1.0
 40
1.0
 40
1.0
 40
1.0
 10
238.9482347206
 20
25.8478385935
 30
0.0
 10
239.1329774211
 20
25.4509235185
 30
0.0
 10
239.637016836
 20
24.6794603651
 30
0.0
 10
240.6812349949
 20
23.7065188525
 30
0.0
 10
241.9866461875
 20
22.9161320773
 30
0.0
 10
242.9689850761
 20
22.5415629546
 30
0.0
 10
243.4856742788
 20
22.3902281909
 30
0.0
  0
SPLINE
  5
44C
100
AcDbEntity
  8
KONSTRUKTIONSELEMENTE
100
AcDbSpline
 62
7
  6
CONTINUOUS
 70
0
 71
3
 72
11
 73
7
 74
0
 42
0.0000001
 43
0.0000001
 44
0.0000000001
 40
0.0
 40
0.0
 40
0.0
 40
0.0
 40
0.2094829334
 40
0.4446557434
 40
0.7120095299
 40
1.0
 40
1.0
 40
1.0
 40
1.0
 10
202.1276605422
 20
-8.6391637738
 30
0.0
 10
202.1276605422
 20
-8.8640615136
 30
0.0
 10
202.2737204291
 20
-9.3470913447
 30
0.0
 10
202.8329559831
 20
-9.9002133612
 30
0.0
 10
203.6185152795
 20
-10.2553829802
 30
0.0
 10
204.2184782867
 20
-10.3362200486
 30
0.0
 10
204.5276605422
 20
-10.3362200486
 30
0.0
  0
SPLINE
  5
44D
100
AcDbEntity
  8
KONSTRUKTIONSELEMENTE
100
AcDbSpline
 62
7
  6
CONTINUOUS
 70
0
 71
3
 72
10
 73
6
 74
0
 42
0.0000001
 43
0.0000001
 44
0.0000000001
 40
0.0
 40
0.0
 40
0.0
 40
0.0
 40
0.2197775555
 40
0.45626554
 40
1.0
 40
1.0
 40
1.0
 40
1.0
 10
252.9411589983
 20
19.2428019193
 30
0.0
 10
252.9411555696
 20
19.2987301259
 30
0.0
 10
252.9154814862
 20
19.4160012819
 30
0.0
 10
252.7674579758
 20
19.6286791452
 30
0.0
 10
252.580094777
 20
19.7265340979
 30
0.0
 10
252.4473057442
 20
19.7654271052
 30
0.0
  0
SPLINE
  5
44E
100
AcDbEntity
  8
KONSTRUKTIONSELEMENTE
100
AcDbSpline
 62
7
  6
CONTINUOUS
 70
0
 71
3
 72
9
 73
5
 74
0
 42
0.0000001
 43
0.0000001
 44
0.0000000001
 40
0.0
 40
0.0
 40
0.0
 40
0.0
 40
0.5089312496
 40
1.0
 40
1.0
 40
1.0
 40
1.0
 10
285.6379644347
 20
71.41168447
 30
0.0
 10
285.8325471948
 20
71.7438580191
 30
0.0
 10
286.1394179312
 20
72.445409746
 30
0.0
 10
286.246934401
 20
73.2053314628
 30
0.0
 10
286.2469208939
 20
73.5767895325
 30
0.0
  0
SPLINE
  5
44F
100
AcDbEntity
  8
KONSTRUKTIONSELEMENTE
100
AcDbSpline
 62
7
  6
CONTINUOUS
 70
0
 71
3
 72
9
 73
5
 74
0
 42
0.0000001
 43
0.0000001
 44
0.0000000001
 40
0.0
 40
0.0
 40
0.0
 40
0.0
 40
0.5358983849
 40
1.0
 40
1.0
 40
1.0
 40
1.0
 10
283.7508105116
 20
69.6683184627
 30
0.0
 10
283.9466797264
 20
69.610949698
 30
0.0
 10
284.3450338031
 20
69.6044595006
 30
0.0
 10
284.7067207162
 20
69.8219520031
 30
0.0
 10
284.7960608835
 20
69.9744652086
 30
0.0
  0
SPLINE
  5
450
100
AcDbEntity
  8
KONSTRUKTIONSELEMENTE
100
AcDbSpline
 62
7
  6
CONTINUOUS
 70
0
 71
3
 72
9
 73
5
 74
0
 42
0.0000001
 43
0.0000001
 44
0.0000000001
 40
0.0
 40
0.0
 40
0.0
 40
0.0
 40
0.2586509047
 40
1.0
 40
1.0
 40
1.0
 40
1.0
 10
252.8802626243
 20
15.4907895733
 30
0.0
 10
252.8901270639
 20
15.507629225
 30
0.0
 10
252.9244208654
 20
15.5748779918
 30
0.0
 10
252.9411624275
 20
15.6513304638
 30
0.0
 10
252.9411589983
 20
15.7072680133
 30
0.0
  0
SPLINE
  5
451
100
AcDbEntity
  8
KONSTRUKTIONSELEMENTE
100
AcDbSpline
 62
7
  6
CONTINUOUS
 70
0
 71
3
 72
11
 73
7
 74
0
 42
0.0000001
 43
0.0000001
 44
0.0000000001
 40
0.0
 40
0.0
 40
0.0
 40
0.0
 40
0.2745288198
 40
0.5376308219
 40
0.7805434542
 40
1.0
 40
1.0
 40
1.0
 40
1.0
 10
246.6655419818
 20
11.7255115244
 30
0.0
 10
247.2492962493
 20
11.7255115244
 30
0.0
 10
248.3962532212
 20
11.8429182538
 30
0.0
 10
249.9869245026
 20
12.3629612782
 30
0.0
 10
251.3110148751
 20
13.1863126025
 30
0.0
 10
251.9729515129
 20
13.9419126224
 30
0.0
 10
252.2088191769
 20
14.3445639111
 30
0.0
  0
SPLINE
  5
452
100
AcDbEntity
  8
KONSTRUKTIONSELEMENTE
100
AcDbSpline
 62
7
  6
CONTINUOUS
 70
0
 71
3
 72
13
 73
9
 74
0
 42
0.0000001
 43
0.0000001
 44
0.0000000001
 40
0.0
 40
0.0
 40
0.0
 40
0.0
 40
0.2870570185
 40
0.5535684049
 40
0.675502601
 40
0.7893257806
 40
0.8965530995
 40
1.0
 40
1.0
 40
1.0
 40
1.0
 10
226.2876605422
 20
11.7255115244
 30
0.0
 10
225.4632124206
 20
11.7255115244
 30
0.0
 10
223.8652182813
 20
11.5108405788
 30
0.0
 10
222.062793259
 20
10.695888741
 30
0.0
 10
220.9565699665
 20
9.7563219068
 30
0.0
 10
220.3511824189
 20
8.968257188
 30
0.0
 10
219.9739442019
 20
8.105277596
 30
0.0
 10
219.8876605422
 20
7.4971349617
 30
0.0
 10
219.8876605422
 20
7.2000281248
 30
0.0
  0
SPLINE
  5
453
100
AcDbEntity
  8
KONSTRUKTIONSELEMENTE
100
AcDbSpline
 62
7
  6
CONTINUOUS
 70
0
 71
3
 72
12
 73
8
 74
0
 42
0.0000001
 43
0.0000001
 44
0.0000000001
 40
0.0
 40
0.0
 40
0.0
 40
0.0
 40
0.1086815995
 40
0.219641649
 40
0.4547639717
 40
0.7151805887
 40
1.0
 40
1.0
 40
1.0
 40
1.0
 10
286.2469208939
 20
77.1123234385
 30
0.0
 10
286.2469107791
 20
77.3904910239
 30
0.0
 10
286.1873547985
 20
77.9543744293
 30
0.0
 10
285.8298483827
 20
79.0693797007
 30
0.0
 10
284.9249894986
 20
80.3753400756
 30
0.0
 10
283.3118651795
 20
81.594302212
 30
0.0
 10
282.0079925354
 20
82.1333474476
 30
0.0
 10
281.3083956336
 20
82.338254636
 30
0.0
  0
SPLINE
  5
454
100
AcDbEntity
  8
KONSTRUKTIONSELEMENTE
100
AcDbSpline
 62
7
  6
CONTINUOUS
 70
0
 71
3
 72
9
 73
5
 74
0
 42
0.0000001
 43
0.0000001
 44
0.0000000001
 40
0.0
 40
0.0
 40
0.0
 40
0.0
 40
0.2578752243
 40
1.0
 40
1.0
 40
1.0
 40
1.0
 10
174.5128226037
 20
68.143199096
 30
0.0
 10
174.574520962
 20
68.1612701268
 30
0.0
 10
174.8114007672
 20
68.2389991804
 30
0.0
 10
175.0386842557
 20
68.3476050669
 30
0.0
 10
175.195015552
 20
68.4465598609
 30
0.0
  0
SPLINE
  5
455
100
AcDbEntity
  8
KONSTRUKTIONSELEMENTE
100
AcDbSpline
 62
7
  6
CONTINUOUS
 70
0
 71
3
 72
11
 73
7
 74
0
 42
0.0000001
 43
0.0000001
 44
0.0000000001
 40
0.0
 40
0.0
 40
0.0
 40
0.0
 40
0.2879904701
 40
0.5553442566
 40
0.7905170666
 40
1.0
 40
1.0
 40
1.0
 40
1.0
 10
220.6876605422
 20
-10.3362200486
 30
0.0
 10
220.9968427977
 20
-10.3362200486
 30
0.0
 10
221.5968058049
 20
-10.2553829802
 30
0.0
 10
222.3823651013
 20
-9.9002133612
 30
0.0
 10
222.9416006553
 20
-9.3470913447
 30
0.0
 10
223.0876605422
 20
-8.8640615136
 30
0.0
 10
223.0876605422
 20
-8.6391637738
 30
0.0
  0
SPLINE
  5
456
100
AcDbEntity
  8
KONSTRUKTIONSELEMENTE
100
AcDbSpline
 62
7
  6
CONTINUOUS
 70
0
 71
3
 72
11
 73
7
 74
0
 42
0.0000001
 43
0.0000001
 44
0.0000000001
 40
0.0
 40
0.0
 40
0.0
 40
0.0
 40
0.2809363762
 40
0.5390132064
 40
0.7759685789
 40
1.0
 40
1.0
 40
1.0
 40
1.0
 10
226.0826887561
 20
11.5975121575
 30
0.0
 10
225.6439796062
 20
11.4025953706
 30
0.0
 10
224.8356402456
 20
10.9431528516
 30
0.0
 10
223.861031917
 20
10.0221478054
 30
0.0
 10
223.2344242251
 20
8.9423730661
 30
0.0
 10
223.0876605422
 20
8.148535744
 30
0.0
 10
223.0876605422
 20
7.7657135497
 30
0.0
  0
SPLINE
  5
457
100
AcDbEntity
  8
KONSTRUKTIONSELEMENTE
100
AcDbSpline
 62
7
  6
CONTINUOUS
 70
0
 71
3
 72
11
 73
7
 74
0
 42
0.0000001
 43
0.0000001
 44
0.0000000001
 40
0.0
 40
0.0
 40
0.0
 40
0.0
 40
0.2764757917
 40
0.5326342242
 40
0.7713875913
 40
1.0
 40
1.0
 40
1.0
 40
1.0
 10
199.829381277
 20
11.6786227147
 30
0.0
 10
200.1744544009
 20
11.4748949245
 30
0.0
 10
200.8051834948
 20
11.0186755563
 30
0.0
 10
201.5497698256
 20
10.170216804
 30
0.0
 10
202.0194337092
 20
9.2176395883
 30
0.0
 10
202.1276605422
 20
8.5360779729
 30
0.0
 10
202.1276605422
 20
8.2047263851
 30
0.0
  0
SPLINE
  5
458
100
AcDbEntity
  8
KONSTRUKTIONSELEMENTE
100
AcDbSpline
 62
7
  6
CONTINUOUS
 70
0
 71
3
 72
9
 73
5
 74
0
 42
0.0000001
 43
0.0000001
 44
0.0000000001
 40
0.0
 40
0.0
 40
0.0
 40
0.0
 40
0.2584251542
 40
1.0
 40
1.0
 40
1.0
 40
1.0
 10
165.8229157033
 20
61.3569407614
 30
0.0
 10
165.7933487285
 20
61.4074147445
 30
0.0
 10
165.6905355418
 20
61.6091885306
 30
0.0
 10
165.6402226373
 20
61.8385152605
 30
0.0
 10
165.6402288916
 20
62.0063760864
 30
0.0
  0
SPLINE
  5
459
100
AcDbEntity
  8
KONSTRUKTIONSELEMENTE
100
AcDbSpline
 62
7
  6
CONTINUOUS
 70
0
 71
3
 72
9
 73
5
 74
0
 42
0.0000001
 43
0.0000001
 44
0.0000000001
 40
0.0
 40
0.0
 40
0.0
 40
0.0
 40
0.2449309274
 40
1.0
 40
1.0
 40
1.0
 40
1.0
 10
158.1998617306
 20
73.8046224666
 30
0.0
 10
158.2127594764
 20
73.7826046372
 30
0.0
 10
158.2677470404
 20
73.6940858257
 30
0.0
 10
158.331750497
 20
73.6112451543
 30
0.0
 10
158.3839479718
 20
73.5523933324
 30
0.0
  0
SPLINE
  5
45A
100
AcDbEntity
  8
KONSTRUKTIONSELEMENTE
100
AcDbSpline
 62
7
  6
CONTINUOUS
 70
0
 71
3
 72
11
 73
7
 74
0
 42
0.0000001
 43
0.0000001
 44
0.0000000001
 40
0.0
 40
0.0
 40
0.0
 40
0.0
 40
0.224059501
 40
0.4661297774
 40
0.7258823081
 40
1.0
 40
1.0
 40
1.0
 40
1.0
 10
192.5193558237
 20
15.2175813733
 30
0.0
 10
192.7525620129
 20
14.8194735063
 30
0.0
 10
193.3568282565
 20
14.0578866384
 30
0.0
 10
194.5407208922
 20
13.1278660143
 30
0.0
 10
195.9757283203
 20
12.4046345744
 30
0.0
 10
197.0347591225
 20
12.0878692194
 30
0.0
 10
197.5866523385
 20
11.969407544
 30
0.0
  0
SPLINE
  5
45B
100
AcDbEntity
  8
KONSTRUKTIONSELEMENTE
100
AcDbSpline
 62
7
  6
CONTINUOUS
 70
0
 71
3
 72
12
 73
8
 74
0
 42
0.0000001
 43
0.0000001
 44
0.0000000001
 40
0.0
 40
0.0
 40
0.0
 40
0.0
 40
0.2178893667
 40
0.3388398448
 40
0.4664304398
 40
0.7332122526
 40
1.0
 40
1.0
 40
1.0
 40
1.0
 10
264.3366753273
 20
69.2316520895
 30
0.0
 10
264.7620925893
 20
69.9578847824
 30
0.0
 10
265.7226865375
 20
70.920504283
 30
0.0
 10
267.2892624313
 20
71.8161083318
 30
0.0
 10
269.16192513
 20
72.5168382923
 30
0.0
 10
271.7268551277
 20
72.8641209418
 30
0.0
 10
273.8001819781
 20
72.5827900831
 30
0.0
 10
274.7891790463
 20
72.2931195484
 30
0.0
  0
SPLINE
  5
45C
100
AcDbEntity
  8
KONSTRUKTIONSELEMENTE
100
AcDbSpline
 62
7
  6
CONTINUOUS
 70
0
 71
3
 72
12
 73
8
 74
0
 42
0.0000001
 43
0.0000001
 44
0.0000000001
 40
0.0
 40
0.0
 40
0.0
 40
0.0
 40
0.1086815995
 40
0.219641649
 40
0.4547639717
 40
0.7151805887
 40
1.0
 40
1.0
 40
1.0
 40
1.0
 10
286.2469208939
 20
73.5767895325
 30
0.0
 10
286.2469107791
 20
73.8549571179
 30
0.0
 10
286.1873547985
 20
74.4188405234
 30
0.0
 10
285.8298483827
 20
75.5338457948
 30
0.0
 10
284.9249894986
 20
76.8398061696
 30
0.0
 10
283.3118651795
 20
78.0587683061
 30
0.0
 10
282.0079925354
 20
78.5978135416
 30
0.0
 10
281.3083956336
 20
78.8027207301
 30
0.0
  0
SPLINE
  5
45D
100
AcDbEntity
  8
KONSTRUKTIONSELEMENTE
100
AcDbSpline
 62
7
  6
CONTINUOUS
 70
0
 71
3
 72
9
 73
5
 74
0
 42
0.0000001
 43
0.0000001
 44
0.0000000001
 40
0.0
 40
0.0
 40
0.0
 40
0.0
 40
0.5320967265
 40
1.0
 40
1.0
 40
1.0
 40
1.0
 10
175.7374095873
 20
63.6485352962
 30
0.0
 10
176.0129176817
 20
63.7292297487
 30
0.0
 10
176.5142057736
 20
63.9535581185
 30
0.0
 10
176.9085774706
 20
64.3491793151
 30
0.0
 10
177.0361772158
 20
64.5670057053
 30
0.0
  0
SPLINE
  5
45E
100
AcDbEntity
  8
KONSTRUKTIONSELEMENTE
100
AcDbSpline
 62
7
  6
CONTINUOUS
 70
0
 71
3
 72
8
 73
4
 74
0
 42
0.0000001
 43
0.0000001
 44
0.0000000001
 40
0.0
 40
0.0
 40
0.0
 40
0.0
 40
1.0
 40
1.0
 40
1.0
 40
1.0
 10
177.0361772158
 20
64.5670057053
 30
0.0
 10
177.0831401109
 20
64.6471763821
 30
0.0
 10
177.122758236
 20
64.7322698861
 30
0.0
 10
177.1526571586
 20
64.8202409345
 30
0.0
  0
SPLINE
  5
45F
100
AcDbEntity
  8
KONSTRUKTIONSELEMENTE
100
AcDbSpline
 62
7
  6
CONTINUOUS
 70
0
 71
3
 72
11
 73
7
 74
0
 42
0.0000001
 43
0.0000001
 44
0.0000000001
 40
0.0
 40
0.0
 40
0.0
 40
0.0
 40
0.2819831575
 40
0.5426850885
 40
0.7803647343
 40
1.0
 40
1.0
 40
1.0
 40
1.0
 10
174.5128226037
 20
65.73903604
 30
0.0
 10
174.7027991738
 20
65.7946788891
 30
0.0
 10
175.059443062
 20
65.93785713
 30
0.0
 10
175.5130816455
 20
66.254696612
 30
0.0
 10
175.838395427
 20
66.6492004739
 30
0.0
 10
175.9529852094
 20
66.9577093622
 30
0.0
 10
175.9781458121
 20
67.109830849
 30
0.0
  0
SPLINE
  5
460
100
AcDbEntity
  8
KONSTRUKTIONSELEMENTE
100
AcDbSpline
 62
7
  6
CONTINUOUS
 70
0
 71
3
 72
10
 73
6
 74
0
 42
0.0000001
 43
0.0000001
 44
0.0000000001
 40
0.0
 40
0.0
 40
0.0
 40
0.0
 40
0.2197775555
 40
0.45626554
 40
1.0
 40
1.0
 40
1.0
 40
1.0
 10
252.9411589983
 20
15.7072680133
 30
0.0
 10
252.9411555696
 20
15.76319622
 30
0.0
 10
252.9154814862
 20
15.880467376
 30
0.0
 10
252.7674579758
 20
16.0931452392
 30
0.0
 10
252.580094777
 20
16.191000192
 30
0.0
 10
252.4473057442
 20
16.2298931993
 30
0.0
  0
SPLINE
  5
461
100
AcDbEntity
  8
KONSTRUKTIONSELEMENTE
100
AcDbSpline
 62
7
  6
CONTINUOUS
 70
0
 71
3
 72
11
 73
7
 74
0
 42
0.0000001
 43
0.0000001
 44
0.0000000001
 40
0.0
 40
0.0
 40
0.0
 40
0.0
 40
0.2187337062
 40
0.4541366386
 40
0.7148275965
 40
1.0
 40
1.0
 40
1.0
 40
1.0
 10
165.6402288916
 20
62.0063760864
 30
0.0
 10
165.6402351424
 20
62.1741438113
 30
0.0
 10
165.7171305563
 20
62.5257998957
 30
0.0
 10
166.0367859258
 20
62.9847430764
 30
0.0
 10
166.5206820735
 20
63.3512422459
 30
0.0
 10
166.9118788257
 20
63.5127711508
 30
0.0
 10
167.1217863436
 20
63.5742516394
 30
0.0
  0
SPLINE
  5
462
100
AcDbEntity
  8
KONSTRUKTIONSELEMENTE
100
AcDbSpline
 62
7
  6
CONTINUOUS
 70
0
 71
3
 72
11
 73
7
 74
0
 42
0.0000001
 43
0.0000001
 44
0.0000000001
 40
0.0
 40
0.0
 40
0.0
 40
0.0
 40
0.2851724035
 40
0.5458633614
 40
0.7812662938
 40
1.0
 40
1.0
 40
1.0
 40
1.0
 10
175.7374095873
 20
63.0828498712
 30
0.0
 10
175.9473171053
 20
63.1443303598
 30
0.0
 10
176.3385138575
 20
63.3058592647
 30
0.0
 10
176.8224100051
 20
63.6723584342
 30
0.0
 10
177.1420653746
 20
64.1313016149
 30
0.0
 10
177.2189607885
 20
64.4829576993
 30
0.0
 10
177.2189670393
 20
64.6507254242
 30
0.0
  0
SPLINE
  5
463
100
AcDbEntity
  8
KONSTRUKTIONSELEMENTE
100
AcDbSpline
 62
7
  6
CONTINUOUS
 70
0
 71
3
 72
12
 73
8
 74
0
 42
0.0000001
 43
0.0000001
 44
0.0000000001
 40
0.0
 40
0.0
 40
0.0
 40
0.0
 40
0.2848322201
 40
0.5452360453
 40
0.7803595468
 40
0.891321032
 40
1.0
 40
1.0
 40
1.0
 40
1.0
 10
160.9986968023
 20
83.8087846564
 30
0.0
 10
160.2990404743
 20
83.6038600625
 30
0.0
 10
158.9951231318
 20
83.0647742206
 30
0.0
 10
157.3819419292
 20
81.8457368835
 30
0.0
 10
156.4771540887
 20
80.5396789868
 30
0.0
 10
156.1196887028
 20
79.4246093853
 30
0.0
 10
156.0601786481
 20
78.8607044122
 30
0.0
 10
156.0601642715
 20
78.5825324443
 30
0.0
  0
SPLINE
  5
464
100
AcDbEntity
  8
KONSTRUKTIONSELEMENTE
100
AcDbSpline
 62
7
  6
CONTINUOUS
 70
0
 71
3
 72
12
 73
8
 74
0
 42
0.0000001
 43
0.0000001
 44
0.0000000001
 40
0.0
 40
0.0
 40
0.0
 40
0.0
 40
0.284835769
 40
0.5452420288
 40
0.7803595193
 40
0.8913197465
 40
1.0
 40
1.0
 40
1.0
 40
1.0
 10
243.4856742788
 20
18.854694285
 30
0.0
 10
242.7860163537
 20
19.0596193468
 30
0.0
 10
241.4820970393
 20
19.598704959
 30
0.0
 10
239.8689363186
 20
20.8177332941
 30
0.0
 10
238.9641524011
 20
22.1237572513
 30
0.0
 10
238.6066870429
 20
23.238797227
 30
0.0
 10
238.5471606059
 20
23.8026945686
 30
0.0
 10
238.5471413835
 20
24.0808669958
 30
0.0
  0
SPLINE
  5
465
100
AcDbEntity
  8
KONSTRUKTIONSELEMENTE
100
AcDbSpline
 62
7
  6
CONTINUOUS
 70
0
 71
3
 72
9
 73
5
 74
0
 42
0.0000001
 43
0.0000001
 44
0.0000000001
 40
0.0
 40
0.0
 40
0.0
 40
0.0
 40
0.5050884231
 40
1.0
 40
1.0
 40
1.0
 40
1.0
 10
236.9051297294
 20
88.5917489079
 30
0.0
 10
236.5514442601
 20
87.9664799174
 30
0.0
 10
235.9383474804
 20
86.673762117
 30
0.0
 10
235.639681419
 20
85.2621409507
 30
0.0
 10
235.5990672835
 20
84.5594183093
 30
0.0
  0
SPLINE
  5
466
100
AcDbEntity
  8
KONSTRUKTIONSELEMENTE
100
AcDbSpline
 62
7
  6
CONTINUOUS
 70
0
 71
3
 72
9
 73
5
 74
0
 42
0.0000001
 43
0.0000001
 44
0.0000000001
 40
0.0
 40
0.0
 40
0.0
 40
0.0
 40
0.5001118291
 40
1.0
 40
1.0
 40
1.0
 40
1.0
 10
188.1429131768
 20
91.7913842771
 30
0.0
 10
188.3948181813
 20
92.4597977454
 30
0.0
 10
188.8058614208
 20
93.834795048
 30
0.0
 10
188.9555485857
 20
95.2664258989
 30
0.0
 10
188.9555485857
 20
95.9804121937
 30
0.0
  0
SPLINE
  5
467
100
AcDbEntity
  8
KONSTRUKTIONSELEMENTE
100
AcDbSpline
 62
7
  6
CONTINUOUS
 70
0
 71
3
 72
9
 73
5
 74
0
 42
0.0000001
 43
0.0000001
 44
0.0000000001
 40
0.0
 40
0.0
 40
0.0
 40
0.0
 40
0.4998905156
 40
1.0
 40
1.0
 40
1.0
 40
1.0
 10
236.2597724986
 20
95.9804121937
 30
0.0
 10
236.2597724986
 20
95.2664225341
 30
0.0
 10
236.4094592569
 20
93.8347914433
 30
0.0
 10
236.8205040784
 20
92.4597946266
 30
0.0
 10
237.0724079075
 20
91.7913842771
 30
0.0
  0
SPLINE
  5
468
100
AcDbEntity
  8
KONSTRUKTIONSELEMENTE
100
AcDbSpline
 62
7
  6
CONTINUOUS
 70
0
 71
3
 72
11
 73
7
 74
0
 42
0.0000001
 43
0.0000001
 44
0.0000000001
 40
0.0
 40
0.0
 40
0.0
 40
0.0
 40
0.2556575941
 40
0.5072684484
 40
0.7547532783
 40
1.0
 40
1.0
 40
1.0
 40
1.0
 10
188.9555485857
 20
106.3785590194
 30
0.0
 10
188.9555485857
 20
106.9001526619
 30
0.0
 10
189.1355303043
 20
107.9423366381
 30
0.0
 10
189.8567222026
 20
109.3239021899
 30
0.0
 10
190.8677494276
 20
110.4715938686
 30
0.0
 10
191.6611091669
 20
111.0964632765
 30
0.0
 10
192.0743590376
 20
111.3785590194
 30
0.0
  0
LINE
  5
469
100
AcDbEntity
  8
0
100
AcDbLine
 62
7
  6
CONTINUOUS
 10
235.5990672835
 20
84.5594183093
 11
234.9783326451
 21
74.0580858668
  0
SPLINE
  5
46A
100
AcDbEntity
  8
KONSTRUKTIONSELEMENTE
100
AcDbSpline
 62
7
  6
CONTINUOUS
 70
0
 71
3
 72
11
 73
7
 74
0
 42
0.0000001
 43
0.0000001
 44
0.0000000001
 40
0.0
 40
0.0
 40
0.0
 40
0.0
 40
0.2452487878
 40
0.492735829
 40
0.7443459021
 40
1.0
 40
1.0
 40
1.0
 40
1.0
 10
233.1409620468
 20
111.3785590194
 30
0.0
 10
233.5542153982
 20
111.0964609005
 30
0.0
 10
234.3475817635
 20
110.4715856295
 30
0.0
 10
235.3586109431
 20
109.323885604
 30
0.0
 10
236.0797942498
 20
107.9423204051
 30
0.0
 10
236.2597724986
 20
106.9001455278
 30
0.0
 10
236.2597724986
 20
106.3785590194
 30
0.0
  0
LINE
  5
46B
100
AcDbEntity
  8
0
100
AcDbLine
 62
7
  6
CONTINUOUS
 10
190.2369884393
 20
74.0580858668
 11
189.6162538009
 21
84.5594183093
  0
SPLINE
  5
46C
100
AcDbEntity
  8
KONSTRUKTIONSELEMENTE
100
AcDbSpline
 62
7
  6
CONTINUOUS
 70
0
 71
3
 72
10
 73
6
 74
0
 42
0.0000001
 43
0.0000001
 44
0.0000000001
 40
0.0
 40
0.0
 40
0.0
 40
0.0
 40
0.2358070399
 40
0.4829262636
 40
1.0
 40
1.0
 40
1.0
 40
1.0
 10
188.310191355
 20
88.5917489079
 30
0.0
 10
188.182665512
 20
88.817197681
 30
0.0
 10
187.9731322125
 20
89.3106835471
 30
0.0
 10
187.7878946054
 20
90.4015617364
 30
0.0
 10
187.9426148926
 20
91.2599058685
 30
0.0
 10
188.1429131768
 20
91.7913842771
 30
0.0
  0
SPLINE
  5
46D
100
AcDbEntity
  8
KONSTRUKTIONSELEMENTE
100
AcDbSpline
 62
7
  6
CONTINUOUS
 70
0
 71
3
 72
10
 73
6
 74
0
 42
0.0000001
 43
0.0000001
 44
0.0000000001
 40
0.0
 40
0.0
 40
0.0
 40
0.0
 40
0.517083183
 40
0.7641929314
 40
1.0
 40
1.0
 40
1.0
 40
1.0
 10
237.0724079075
 20
91.7913842771
 30
0.0
 10
237.2727098573
 20
91.2598961424
 30
0.0
 10
237.4274283402
 20
90.4015502477
 30
0.0
 10
237.2421862997
 20
89.3106733293
 30
0.0
 10
237.0326555918
 20
88.8171977154
 30
0.0
 10
236.9051297294
 20
88.5917489079
 30
0.0
  0
SPLINE
  5
46E
100
AcDbEntity
  8
KONSTRUKTIONSELEMENTE
100
AcDbSpline
 62
7
  6
CONTINUOUS
 70
0
 71
3
 72
9
 73
5
 74
0
 42
0.0000001
 43
0.0000001
 44
0.0000000001
 40
0.0
 40
0.0
 40
0.0
 40
0.0
 40
0.4949126613
 40
1.0
 40
1.0
 40
1.0
 40
1.0
 10
189.6162538009
 20
84.5594183093
 30
0.0
 10
189.5756395752
 20
85.2621425113
 30
0.0
 10
189.2769741756
 20
86.673764007
 30
0.0
 10
188.6638760754
 20
87.9664812413
 30
0.0
 10
188.310191355
 20
88.5917489079
 30
0.0
  0
LINE
  5
46F
100
AcDbEntity
  8
BEZUGSACHSEN
100
AcDbLine
 62
7
  6
CONTINUOUS
 10
584.2477069077
 20
191.6422535998
 11
584.1931212207
 21
191.8435701439
  0
LINE
  5
470
100
AcDbEntity
  8
BEZUGSACHSEN
100
AcDbLine
 62
7
  6
CONTINUOUS
 10
584.1931212207
 20
191.8435701439
 11
584.1309717265
 21
192.0727730803
  0
LINE
  5
471
100
AcDbEntity
  8
BEZUGSACHSEN
100
AcDbLine
 62
7
  6
CONTINUOUS
 10
584.1309717265
 20
192.0727730803
 11
583.9512689006
 21
192.7354490351
  0
LINE
  5
472
100
AcDbEntity
  8
BEZUGSACHSEN
100
AcDbLine
 62
7
  6
CONTINUOUS
 10
583.9512689006
 20
192.7354490351
 11
583.9475329302
 21
192.7492250311
  0
LINE
  5
473
100
AcDbEntity
  8
BEZUGSACHSEN
100
AcDbLine
 62
7
  6
CONTINUOUS
 10
583.9475329302
 20
192.7492250311
 11
583.7531450455
 21
193.4659642848
  0
LINE
  5
474
100
AcDbEntity
  8
BEZUGSACHSEN
100
AcDbLine
 62
7
  6
CONTINUOUS
 10
583.7531450455
 20
193.4659642848
 11
583.7410570866
 21
193.5105316522
  0
LINE
  5
475
100
AcDbEntity
  8
BEZUGSACHSEN
100
AcDbLine
 62
7
  6
CONTINUOUS
 10
583.7410570866
 20
193.5105316522
 11
583.587285163
 21
194.0774488039
  0
LINE
  5
476
100
AcDbEntity
  8
BEZUGSACHSEN
100
AcDbLine
 62
7
  6
CONTINUOUS
 10
584.0261292315
 20
190.0396355395
 11
583.9427881414
 21
190.3406141063
  0
LINE
  5
477
100
AcDbEntity
  8
BEZUGSACHSEN
100
AcDbLine
 62
7
  6
CONTINUOUS
 10
583.9427881414
 20
190.3406141063
 11
582.661014792
 21
194.9687470954
  0
LINE
  5
478
100
AcDbEntity
  8
BEZUGSACHSEN
100
AcDbLine
 62
7
  6
CONTINUOUS
 10
582.544060928
 20
197.0037101728
 11
582.581961441
 21
196.9219645829
  0
LINE
  5
479
100
AcDbEntity
  8
BEZUGSACHSEN
100
AcDbLine
 62
7
  6
CONTINUOUS
 10
582.6938075788
 20
196.6792671164
 11
582.8459203592
 21
196.2353824519
  0
LINE
  5
47A
100
AcDbEntity
  8
BEZUGSACHSEN
100
AcDbLine
 62
7
  6
CONTINUOUS
 10
582.8459203592
 20
196.2353824519
 11
582.8601044458
 21
196.1879740804
  0
LINE
  5
47B
100
AcDbEntity
  8
BEZUGSACHSEN
100
AcDbLine
 62
7
  6
CONTINUOUS
 10
582.8601044458
 20
196.1879740804
 11
582.9906890949
 21
195.7513363604
  0
LINE
  5
47C
100
AcDbEntity
  8
BEZUGSACHSEN
100
AcDbLine
 62
7
  6
CONTINUOUS
 10
582.9906890949
 20
195.7513363604
 11
583.0386329582
 21
195.5909441664
  0
LINE
  5
47D
100
AcDbEntity
  8
BEZUGSACHSEN
100
AcDbLine
 62
7
  6
CONTINUOUS
 10
583.0386329582
 20
195.5909441664
 11
583.1314848478
 21
195.25523836
  0
LINE
  5
47E
100
AcDbEntity
  8
BEZUGSACHSEN
100
AcDbLine
 62
7
  6
CONTINUOUS
 10
583.1314848478
 20
195.25523836
 11
583.1858394813
 21
195.0587114244
  0
LINE
  5
47F
100
AcDbEntity
  8
BEZUGSACHSEN
100
AcDbLine
 62
7
  6
CONTINUOUS
 10
583.1858394813
 20
195.0587114244
 11
583.6228344649
 21
193.478467884
  0
LINE
  5
480
100
AcDbEntity
  8
BEZUGSACHSEN
100
AcDbLine
 62
7
  6
CONTINUOUS
 10
583.8198246491
 20
192.7145883849
 11
583.6228344649
 21
193.478467884
  0
LINE
  5
481
100
AcDbEntity
  8
BEZUGSACHSEN
100
AcDbLine
 62
7
  6
CONTINUOUS
 10
583.9799421845
 20
192.0318190386
 11
583.8198246491
 21
192.7145883849
  0
LINE
  5
482
100
AcDbEntity
  8
BEZUGSACHSEN
100
AcDbLine
 62
7
  6
CONTINUOUS
 10
584.1432060768
 20
191.2296081336
 11
584.0622494569
 21
191.6283918934
  0
LINE
  5
483
100
AcDbEntity
  8
BEZUGSACHSEN
100
AcDbLine
 62
7
  6
CONTINUOUS
 10
584.0622494569
 20
191.6283918934
 11
583.9799421845
 21
192.0318190386
  0
LINE
  5
484
100
AcDbEntity
  8
BEZUGSACHSEN
100
AcDbLine
 62
7
  6
CONTINUOUS
 10
584.2711005515
 20
189.9111587107
 11
584.2711450867
 21
189.9267392746
  0
LINE
  5
485
100
AcDbEntity
  8
BEZUGSACHSEN
100
AcDbLine
 62
7
  6
CONTINUOUS
 10
583.8268633629
 20
189.5499900945
 11
583.7286332454
 21
189.901272177
  0
LINE
  5
486
100
AcDbEntity
  8
BEZUGSACHSEN
100
AcDbLine
 62
7
  6
CONTINUOUS
 10
583.7286332454
 20
189.901272177
 11
583.6299901645
 21
190.2539966989
  0
LINE
  5
487
100
AcDbEntity
  8
BEZUGSACHSEN
100
AcDbLine
 62
7
  6
CONTINUOUS
 10
583.986624352
 20
188.8920674209
 11
583.8268633629
 21
189.5499900945
  0
SPLINE
  5
488
100
AcDbEntity
  8
BEZUGSACHSEN
100
AcDbSpline
 62
7
  6
CONTINUOUS
 70
0
 71
3
 72
8
 73
4
 74
0
 42
0.0000001
 43
0.0000001
 44
0.0000000001
 40
0.0
 40
0.0
 40
0.0
 40
0.0
 40
1.0
 40
1.0
 40
1.0
 40
1.0
 10
584.1490761752
 20
188.0762818675
 30
0.0
 10
584.1087838599
 20
188.2796653887
 30
0.0
 10
584.0683384501
 20
188.4830186349
 30
0.0
 10
584.0277468608
 20
188.686342638
 30
0.0
  0
LINE
  5
489
100
AcDbEntity
  8
BEZUGSACHSEN
100
AcDbLine
 62
7
  6
CONTINUOUS
 10
584.0277468608
 20
188.686342638
 11
583.986624352
 21
188.8920674209
  0
LINE
  5
48A
100
AcDbEntity
  8
BEZUGSACHSEN
100
AcDbLine
 62
7
  6
CONTINUOUS
 10
584.2328193182
 20
186.4054881754
 11
584.2434489918
 21
186.4728818228
  0
LINE
  5
48B
100
AcDbEntity
  8
BEZUGSACHSEN
100
AcDbLine
 62
7
  6
CONTINUOUS
 10
583.3737028954
 20
186.2847616209
 11
583.7284141814
 21
185.6546364868
  0
LINE
  5
48C
100
AcDbEntity
  8
BEZUGSACHSEN
100
AcDbLine
 62
7
  6
CONTINUOUS
 10
583.2901279229
 20
186.8768461207
 11
583.1603010206
 21
187.4473967753
  0
LINE
  5
48D
100
AcDbEntity
  8
BEZUGSACHSEN
100
AcDbLine
 62
7
  6
CONTINUOUS
 10
583.1603010206
 20
187.4473967753
 11
583.1289444006
 21
187.5848640907
  0
LINE
  5
48E
100
AcDbEntity
  8
BEZUGSACHSEN
100
AcDbLine
 62
7
  6
CONTINUOUS
 10
583.1289444006
 20
187.5848640907
 11
583.0100960855
 21
187.9968396746
  0
LINE
  5
48F
100
AcDbEntity
  8
BEZUGSACHSEN
100
AcDbLine
 62
7
  6
CONTINUOUS
 10
582.8542150787
 20
188.4191672136
 11
583.0100960855
 21
187.9968396746
  0
LINE
  5
490
100
AcDbEntity
  8
BEZUGSACHSEN
100
AcDbLine
 62
7
  6
CONTINUOUS
 10
582.7391621762
 20
188.6406824947
 11
582.8542150787
 21
188.4191672136
  0
LINE
  5
491
100
AcDbEntity
  8
BEZUGSACHSEN
100
AcDbLine
 62
7
  6
CONTINUOUS
 10
583.6422595598
 20
187.8860573618
 11
583.0480533354
 21
189.7899929469
  0
LINE
  5
492
100
AcDbEntity
  8
BEZUGSACHSEN
100
AcDbLine
 62
7
  6
CONTINUOUS
 10
583.0480533354
 20
189.7899929469
 11
583.042452714
 21
189.8079373278
  0
LINE
  5
493
100
AcDbEntity
  8
BEZUGSACHSEN
100
AcDbLine
 62
7
  6
CONTINUOUS
 10
583.042452714
 20
189.8079373278
 11
582.5666328021
 21
191.3324064656
  0
LINE
  5
494
100
AcDbEntity
  8
BEZUGSACHSEN
100
AcDbLine
 62
7
  6
CONTINUOUS
 10
582.5666328021
 20
191.3324064656
 11
582.4326900265
 21
191.7615237715
  0
LINE
  5
495
100
AcDbEntity
  8
BEZUGSACHSEN
100
AcDbLine
 62
7
  6
CONTINUOUS
 10
584.2689837865
 20
181.6660840139
 11
583.4498414875
 21
183.883302337
  0
LINE
  5
496
100
AcDbEntity
  8
BEZUGSACHSEN
100
AcDbLine
 62
7
  6
CONTINUOUS
 10
583.6422595598
 20
187.8860573618
 11
583.7995654174
 21
187.4649282578
  0
LINE
  5
497
100
AcDbEntity
  8
BEZUGSACHSEN
100
AcDbLine
 62
7
  6
CONTINUOUS
 10
583.7995654174
 20
187.4649282578
 11
583.9188092359
 21
187.2477460958
  0
LINE
  5
498
100
AcDbEntity
  8
BEZUGSACHSEN
100
AcDbLine
 62
7
  6
CONTINUOUS
 10
583.2157720942
 20
184.516793202
 11
582.6305521488
 21
186.1005206601
  0
LINE
  5
499
100
AcDbEntity
  8
BEZUGSACHSEN
100
AcDbLine
 62
7
  6
CONTINUOUS
 10
582.6305521488
 20
186.1005206601
 11
582.6331957877
 21
186.3257588035
  0
LINE
  5
49A
100
AcDbEntity
  8
BEZUGSACHSEN
100
AcDbLine
 62
7
  6
CONTINUOUS
 10
582.4219393197
 20
194.1294631086
 11
582.5573374134
 21
193.6951988062
  0
LINE
  5
49B
100
AcDbEntity
  8
BEZUGSACHSEN
100
AcDbLine
 62
7
  6
CONTINUOUS
 10
582.5573374134
 20
193.6951988062
 11
583.6299901645
 21
190.2539966989
  0
SPLINE
  5
49C
100
AcDbEntity
  8
0
100
AcDbSpline
 62
7
  6
CONTINUOUS
 70
0
 71
3
 72
9
 73
5
 74
0
 42
0.0000001
 43
0.0000001
 44
0.0000000001
 40
0.0
 40
0.0
 40
0.0
 40
0.0
 40
0.5000030521
 40
1.0
 40
1.0
 40
1.0
 40
1.0
 10
579.709333129
 20
176.5043569704
 30
0.0
 10
579.9785726084
 20
172.9437407035
 30
0.0
 10
580.3424017961
 20
165.8076991631
 30
0.0
 10
580.2995107026
 20
158.6618412911
 30
0.0
 10
580.1779781142
 20
155.0931725474
 30
0.0
  0
SPLINE
  5
49D
100
AcDbEntity
  8
0
100
AcDbSpline
 62
7
  6
CONTINUOUS
 70
0
 71
3
 72
9
 73
5
 74
0
 42
0.0000001
 43
0.0000001
 44
0.0000000001
 40
0.0
 40
0.0
 40
0.0
 40
0.0
 40
0.5000000002
 40
1.0
 40
1.0
 40
1.0
 40
1.0
 10
579.709333129
 20
200.6879881279
 30
0.0
 10
580.0848549682
 20
196.6702717692
 30
0.0
 10
580.4923420965
 20
188.5961725475
 30
0.0
 10
580.0848549679
 20
180.5220733259
 30
0.0
 10
579.709333129
 20
176.5043569704
 30
0.0
  0
SPLINE
  5
49E
100
AcDbEntity
  8
0
100
AcDbSpline
 62
7
  6
CONTINUOUS
 70
0
 71
3
 72
11
 73
7
 74
0
 42
0.0000001
 43
0.0000001
 44
0.0000000001
 40
0.0
 40
0.0
 40
0.0
 40
0.0
 40
0.2517094103
 40
0.5000000002
 40
0.7482905901
 40
1.0
 40
1.0
 40
1.0
 40
1.0
 10
579.709333129
 20
209.9253132587
 30
0.0
 10
579.8953326363
 20
209.1651960109
 30
0.0
 10
580.1869448206
 20
207.6343478496
 30
0.0
 10
580.3390778512
 20
205.3066506912
 30
0.0
 10
580.186944825
 20
202.9789535334
 30
0.0
 10
579.8953326359
 20
201.4481053743
 30
0.0
 10
579.709333129
 20
200.6879881279
 30
0.0
  0
SPLINE
  5
49F
100
AcDbEntity
  8
0
100
AcDbSpline
 62
7
  6
CONTINUOUS
 70
0
 71
3
 72
9
 73
5
 74
0
 42
0.0000001
 43
0.0000001
 44
0.0000000001
 40
0.0
 40
0.0
 40
0.0
 40
0.0
 40
0.5000000002
 40
1.0
 40
1.0
 40
1.0
 40
1.0
 10
569.024377891
 20
200.6879881279
 30
0.0
 10
568.6488560519
 20
196.6702717692
 30
0.0
 10
568.2413689236
 20
188.5961725475
 30
0.0
 10
568.6488560522
 20
180.5220733259
 30
0.0
 10
569.024377891
 20
176.5043569704
 30
0.0
  0
SPLINE
  5
4A0
100
AcDbEntity
  8
0
100
AcDbSpline
 62
7
  6
CONTINUOUS
 70
0
 71
3
 72
9
 73
5
 74
0
 42
0.0000001
 43
0.0000001
 44
0.0000000001
 40
0.0
 40
0.0
 40
0.0
 40
0.0
 40
0.5000030521
 40
1.0
 40
1.0
 40
1.0
 40
1.0
 10
569.024377891
 20
176.5043569704
 30
0.0
 10
568.7551384117
 20
172.9437407035
 30
0.0
 10
568.391309224
 20
165.8076991631
 30
0.0
 10
568.4342003175
 20
158.6618412911
 30
0.0
 10
568.5557329059
 20
155.0931725474
 30
0.0
  0
LINE
  5
4A1
100
AcDbEntity
  8
BEZUGSACHSEN
100
AcDbLine
 62
7
  6
CONTINUOUS
 10
583.9121371225
 20
191.9551564241
 11
583.7922331971
 21
192.4970939327
  0
LINE
  5
4A2
100
AcDbEntity
  8
BEZUGSACHSEN
100
AcDbLine
 62
7
  6
CONTINUOUS
 10
583.7922331971
 20
192.4970939327
 11
583.6346564112
 21
193.1201416928
  0
LINE
  5
4A3
100
AcDbEntity
  8
BEZUGSACHSEN
100
AcDbLine
 62
7
  6
CONTINUOUS
 10
583.0496995407
 20
195.2326179752
 11
583.4893895684
 21
193.6447835349
  0
LINE
  5
4A4
100
AcDbEntity
  8
BEZUGSACHSEN
100
AcDbLine
 62
7
  6
CONTINUOUS
 10
583.4893895684
 20
193.6447835349
 11
583.5416641648
 21
193.4559927644
  0
LINE
  5
4A5
100
AcDbEntity
  8
BEZUGSACHSEN
100
AcDbLine
 62
7
  6
CONTINUOUS
 10
583.5416641648
 20
193.4559927644
 11
583.6346564112
 21
193.1201416928
  0
LINE
  5
4A6
100
AcDbEntity
  8
BEZUGSACHSEN
100
AcDbLine
 62
7
  6
CONTINUOUS
 10
582.8951461422
 20
195.7362241272
 11
582.9726366117
 21
195.4837896248
  0
LINE
  5
4A7
100
AcDbEntity
  8
BEZUGSACHSEN
100
AcDbLine
 62
7
  6
CONTINUOUS
 10
582.9726366117
 20
195.4837896248
 11
583.0496995407
 21
195.2326179752
  0
LINE
  5
4A8
100
AcDbEntity
  8
BEZUGSACHSEN
100
AcDbLine
 62
7
  6
CONTINUOUS
 10
582.7806796536
 20
196.0392774472
 11
582.8094797763
 21
195.9631472609
  0
LINE
  5
4A9
100
AcDbEntity
  8
BEZUGSACHSEN
100
AcDbLine
 62
7
  6
CONTINUOUS
 10
582.8094797763
 20
195.9631472609
 11
582.8951461422
 21
195.7362241272
  0
LINE
  5
4AA
100
AcDbEntity
  8
BEZUGSACHSEN
100
AcDbLine
 62
7
  6
CONTINUOUS
 10
582.7620720212
 20
196.0648340711
 11
582.7806796536
 21
196.0392774472
  0
LINE
  5
4AB
100
AcDbEntity
  8
KONSTRUKTIONSELEMENTE
100
AcDbLine
 62
7
  6
CONTINUOUS
 10
581.7951943239
 20
195.4554113382
 11
582.1620552503
 21
194.1294635063
  0
LINE
  5
4AC
100
AcDbEntity
  8
BEZUGSACHSEN
100
AcDbLine
 62
7
  6
CONTINUOUS
 10
584.2480307471
 20
188.8363188156
 11
584.2151509112
 21
188.9552514677
  0
LINE
  5
4AD
100
AcDbEntity
  8
BEZUGSACHSEN
100
AcDbLine
 62
7
  6
CONTINUOUS
 10
584.2151509112
 20
188.9552514677
 11
584.0348216722
 21
189.6074870728
  0
LINE
  5
4AE
100
AcDbEntity
  8
BEZUGSACHSEN
100
AcDbLine
 62
7
  6
CONTINUOUS
 10
584.0348216722
 20
189.6074870728
 11
583.9516197988
 21
189.9083938027
  0
LINE
  5
4AF
100
AcDbEntity
  8
BEZUGSACHSEN
100
AcDbLine
 62
7
  6
CONTINUOUS
 10
583.9516197988
 20
189.9083938027
 11
583.9232002532
 21
190.0111717027
  0
LINE
  5
4B0
100
AcDbEntity
  8
BEZUGSACHSEN
100
AcDbLine
 62
7
  6
CONTINUOUS
 10
583.9232002532
 20
190.0111717027
 11
583.8399945655
 21
190.3120700617
  0
LINE
  5
4B1
100
AcDbEntity
  8
BEZUGSACHSEN
100
AcDbLine
 62
7
  6
CONTINUOUS
 10
583.8399945655
 20
190.3120700617
 11
582.5595863954
 21
194.9406802717
  0
LINE
  5
4B2
100
AcDbEntity
  8
BEZUGSACHSEN
100
AcDbLine
 62
7
  6
CONTINUOUS
 10
582.5595863954
 20
194.9406802717
 11
582.4171491625
 21
195.4554113382
  0
LINE
  5
4B3
100
AcDbEntity
  8
RUNDUNGEN
100
AcDbLine
 62
7
  6
CONTINUOUS
 10
581.3373059742
 20
113.7542033664
 11
582.6649674372
 21
112.2542033664
  0
LINE
  5
4B4
100
AcDbEntity
  8
0
100
AcDbLine
 62
7
  6
CONTINUOUS
 10
567.3964050459
 20
113.7542033664
 11
566.0687435829
 21
112.2542033664
  0
SPLINE
  5
4B5
100
AcDbEntity
  8
0
100
AcDbSpline
 62
7
  6
CONTINUOUS
 70
0
 71
3
 72
11
 73
7
 74
0
 42
0.0000001
 43
0.0000001
 44
0.0000000001
 40
0.0
 40
0.0
 40
0.0
 40
0.0
 40
0.2517094103
 40
0.5000000002
 40
0.7482905901
 40
1.0
 40
1.0
 40
1.0
 40
1.0
 10
569.024377891
 20
209.9253132587
 30
0.0
 10
568.8383783838
 20
209.1651960109
 30
0.0
 10
568.5467661995
 20
207.6343478496
 30
0.0
 10
568.3946331689
 20
205.3066506912
 30
0.0
 10
568.5467661951
 20
202.9789535334
 30
0.0
 10
568.8383783842
 20
201.4481053743
 30
0.0
 10
569.024377891
 20
200.6879881279
 30
0.0
  0
LINE
  5
4B6
100
AcDbEntity
  8
BEZUGSACHSEN
100
AcDbLine
 62
7
  6
CONTINUOUS
 10
583.9821502147
 20
184.561883132
 11
584.2682152796
 21
184.046839979
  0
LINE
  5
4B7
100
AcDbEntity
  8
KONSTRUKTIONSELEMENTE
100
AcDbLine
 62
7
  6
CONTINUOUS
 10
583.6414619432
 20
184.046839979
 11
583.4552554607
 21
184.3820181083
  0
LINE
  5
4B8
100
AcDbEntity
  8
KONSTRUKTIONSELEMENTE
100
AcDbLine
 62
7
  6
CONTINUOUS
 10
583.5258326477
 20
186.3397928697
 11
583.4454185051
 21
186.4314227952
  0
LINE
  5
4B9
100
AcDbEntity
  8
KONSTRUKTIONSELEMENTE
100
AcDbLine
 62
7
  6
CONTINUOUS
 10
583.4454185051
 20
186.4314227952
 11
583.4046999905
 21
186.4776410247
  0
LINE
  5
4BA
100
AcDbEntity
  8
KONSTRUKTIONSELEMENTE
100
AcDbLine
 62
7
  6
CONTINUOUS
 10
583.4046999905
 20
186.4776410247
 11
583.3636401833
 21
186.5241280838
  0
LINE
  5
4BB
100
AcDbEntity
  8
KONSTRUKTIONSELEMENTE
100
AcDbLine
 62
7
  6
CONTINUOUS
 10
583.3636401833
 20
186.5241280838
 11
583.3298997201
 21
186.5965094616
  0
LINE
  5
4BC
100
AcDbEntity
  8
BEZUGSACHSEN
100
AcDbLine
 62
7
  6
CONTINUOUS
 10
583.8293109029
 20
186.8663255877
 11
583.9888259662
 21
186.5241280838
  0
LINE
  5
4BD
100
AcDbEntity
  8
BEZUGSACHSEN
100
AcDbLine
 62
7
  6
CONTINUOUS
 10
583.6325221014
 20
187.4124692685
 11
583.8293109029
 21
186.8663255877
  0
LINE
  5
4BE
100
AcDbEntity
  8
KONSTRUKTIONSELEMENTE
100
AcDbLine
 62
7
  6
CONTINUOUS
 10
581.7989595009
 20
191.2879356782
 11
582.5822958161
 21
188.7754980934
  0
LINE
  5
4BF
100
AcDbEntity
  8
BEZUGSACHSEN
100
AcDbLine
 62
7
  6
CONTINUOUS
 10
583.6325221014
 20
187.4124692685
 11
583.4988288703
 21
187.8413431562
  0
LINE
  5
4C0
100
AcDbEntity
  8
BEZUGSACHSEN
100
AcDbLine
 62
7
  6
CONTINUOUS
 10
583.4988288703
 20
187.8413431562
 11
582.4241581501
 21
191.2879356782
  0
LINE
  5
4C1
100
AcDbEntity
  8
BEZUGSACHSEN
100
AcDbLine
 62
7
  6
CONTINUOUS
 10
584.2578409037
 20
181.0947025605
 11
584.0736400035
 21
181.5940156344
  0
LINE
  5
4C2
100
AcDbEntity
  8
BEZUGSACHSEN
100
AcDbLine
 62
7
  6
CONTINUOUS
 10
584.0736400035
 20
181.5940156344
 11
583.2553544027
 21
183.8115170098
  0
LINE
  5
4C3
100
AcDbEntity
  8
BEZUGSACHSEN
100
AcDbLine
 62
7
  6
CONTINUOUS
 10
583.2553544027
 20
183.8115170098
 11
583.0502971337
 21
184.3670705862
  0
LINE
  5
4C4
100
AcDbEntity
  8
BEZUGSACHSEN
100
AcDbLine
 62
7
  6
CONTINUOUS
 10
583.0502971337
 20
184.3670705862
 11
583.0215022042
 21
184.4450796325
  0
LINE
  5
4C5
100
AcDbEntity
  8
BEZUGSACHSEN
100
AcDbLine
 62
7
  6
CONTINUOUS
 10
583.0215022042
 20
184.4450796325
 11
582.4367771561
 21
186.0289808184
  0
LINE
  5
4C6
100
AcDbEntity
  8
BEZUGSACHSEN
100
AcDbLine
 62
7
  6
CONTINUOUS
 10
582.4367771561
 20
186.0289808184
 11
582.4264144262
 21
186.0570482608
  0
SPLINE
  5
4C7
100
AcDbEntity
  8
KONSTRUKTIONSELEMENTE
100
AcDbSpline
 62
7
  6
CONTINUOUS
 70
0
 71
3
 72
8
 73
4
 74
0
 42
0.0000001
 43
0.0000001
 44
0.0000000001
 40
0.0
 40
0.0
 40
0.0
 40
0.0
 40
1.0
 40
1.0
 40
1.0
 40
1.0
 10
581.7971262711
 20
186.0570482608
 30
0.0
 10
582.4077177253
 20
184.403017551
 30
0.0
 10
583.018133184
 20
182.7489218361
 30
0.0
 10
583.6282135896
 20
181.0947025605
 30
0.0
  0
LINE
  5
4C8
100
AcDbEntity
  8
BEZUGSACHSEN
100
AcDbLine
 62
7
  6
CONTINUOUS
 10
584.0299519668
 20
187.3775412461
 11
584.039935987
 21
187.4252198002
  0
LINE
  5
4C9
100
AcDbEntity
  8
BEZUGSACHSEN
100
AcDbLine
 62
7
  6
CONTINUOUS
 10
582.6723530358
 20
188.0900040876
 11
582.7482090962
 21
188.0693010413
  0
LINE
  5
4CA
100
AcDbEntity
  8
BEZUGSACHSEN
100
AcDbLine
 62
7
  6
CONTINUOUS
 10
582.7482090962
 20
188.0693010413
 11
582.789542648
 21
187.9902536719
  0
LINE
  5
4CB
100
AcDbEntity
  8
BEZUGSACHSEN
100
AcDbLine
 62
7
  6
CONTINUOUS
 10
582.789542648
 20
187.9902536719
 11
582.8062429301
 21
187.9583062519
  0
LINE
  5
4CC
100
AcDbEntity
  8
BEZUGSACHSEN
100
AcDbLine
 62
7
  6
CONTINUOUS
 10
582.8062429301
 20
187.9583062519
 11
582.8639947073
 21
187.8477857602
  0
LINE
  5
4CD
100
AcDbEntity
  8
BEZUGSACHSEN
100
AcDbLine
 62
7
  6
CONTINUOUS
 10
582.8639947073
 20
187.8477857602
 11
582.9810305841
 21
187.531040032
  0
LINE
  5
4CE
100
AcDbEntity
  8
BEZUGSACHSEN
100
AcDbLine
 62
7
  6
CONTINUOUS
 10
583.0993647755
 20
187.1190644481
 11
582.9810305841
 21
187.531040032
  0
LINE
  5
4CF
100
AcDbEntity
  8
BEZUGSACHSEN
100
AcDbLine
 62
7
  6
CONTINUOUS
 10
583.1797004495
 20
186.7174402511
 11
583.0993647755
 21
187.1190644481
  0
LINE
  5
4D0
100
AcDbEntity
  8
BEZUGSACHSEN
100
AcDbLine
 62
7
  6
CONTINUOUS
 10
582.4312094541
 20
193.6558752412
 11
583.504972454
 21
190.214987533
  0
LINE
  5
4D1
100
AcDbEntity
  8
BEZUGSACHSEN
100
AcDbLine
 62
7
  6
CONTINUOUS
 10
583.504972454
 20
190.214987533
 11
583.640569593
 21
189.7804088315
  0
LINE
  5
4D2
100
AcDbEntity
  8
KONSTRUKTIONSELEMENTE
100
AcDbLine
 62
7
  6
CONTINUOUS
 10
582.4020892652
 20
191.751973528
 11
581.8078828491
 21
193.6558752412
  0
LINE
  5
4D3
100
AcDbEntity
  8
BEZUGSACHSEN
100
AcDbLine
 62
7
  6
CONTINUOUS
 10
583.7979872482
 20
189.2014172556
 11
583.6800545103
 21
189.6352045198
  0
LINE
  5
4D4
100
AcDbEntity
  8
BEZUGSACHSEN
100
AcDbLine
 62
7
  6
CONTINUOUS
 10
583.6800545103
 20
189.6352045198
 11
583.640569593
 21
189.7804088315
  0
LINE
  5
4D5
100
AcDbEntity
  8
BEZUGSACHSEN
100
AcDbLine
 62
7
  6
CONTINUOUS
 10
583.9174993732
 20
188.6685096981
 11
583.7979872482
 21
189.2014172556
  0
ELLIPSE
  5
4D6
100
AcDbEntity
  8
KONSTRUKTIONSELEMENTE
100
AcDbEllipse
 62
7
  6
CONTINUOUS
 10
160.4171726086
 20
74.1712150743
 30
0.0
 11
2.3997778992
 21
0.651132626
 31
0.0
 40
0.0501436764
 41
-2.5950501555
 42
-1.191701908
  0
ELLIPSE
  5
4D7
100
AcDbEntity
  8
KONSTRUKTIONSELEMENTE
100
AcDbEllipse
 62
7
  6
CONTINUOUS
 10
169.260152882
 20
74.1402187163
 30
0.0
 11
2.2997891192
 21
-1.5015656282
 31
0.0
 40
0.7635480741
 41
7.2755602941
 42
8.8463566209
  0
ELLIPSE
  5
4D8
100
AcDbEntity
  8
KONSTRUKTIONSELEMENTE
100
AcDbEllipse
 62
7
  6
CONTINUOUS
 10
212.6076605422
 20
21.1391519515
 30
0.0
 11
-0.0
 21
96.9948452239
 31
0.0
 40
0.5773502692
 41
-0.3754229971
 42
-0.1577968958
  0
ELLIPSE
  5
4D9
100
AcDbEntity
  8
KONSTRUKTIONSELEMENTE
100
AcDbEllipse
 62
7
  6
CONTINUOUS
 10
212.6076605422
 20
21.1391519515
 30
0.0
 11
-0.0
 21
96.9948452239
 31
0.0
 40
0.5773502692
 41
0.1577968958
 42
0.3754229971
  0
ELLIPSE
  5
4DA
100
AcDbEntity
  8
RUNDUNGEN
100
AcDbEllipse
 62
7
  6
CONTINUOUS
 10
570.0155180775
 20
117.7402709361
 30
0.0
 11
10.2192634631
 21
-1.4644770085
 31
0.0
 40
0.8513282235
 41
0.121400111
 42
0.2121364471
  0
ELLIPSE
  5
4DB
100
AcDbEntity
  8
0
100
AcDbEllipse
 62
7
  6
CONTINUOUS
 10
578.7181929426
 20
117.7402709361
 30
0.0
 11
10.2192634631
 21
1.4644770085
 31
0.0
 40
0.8513282235
 41
2.9294562065
 42
3.0201925426
  0
ELLIPSE
  5
4DC
100
AcDbEntity
  8
0
100
AcDbEllipse
 62
7
  6
CONTINUOUS
 10
565.3346482532
 20
118.2542033664
 30
0.0
 11
-0.9450767383
 21
5.1682589597
 31
0.0
 40
0.5689268959
 41
-2.7216559163
 42
-1.8817824418
  0
ELLIPSE
  5
4DD
100
AcDbEntity
  8
RUNDUNGEN
100
AcDbEllipse
 62
7
  6
CONTINUOUS
 10
583.3990627669
 20
118.2542033664
 30
0.0
 11
0.9450767383
 21
5.1682589597
 31
0.0
 40
0.5689268959
 41
-4.4014028654
 42
-3.5615293909
  0
ELLIPSE
  5
4DE
100
AcDbEntity
  8
KONSTRUKTIONSELEMENTE
100
AcDbEllipse
 62
7
  6
CONTINUOUS
 10
434.5800196406
 20
78.2724344052
 30
0.0
 11
0.0
 21
3.3288956288
 31
0.0
 40
0.1989123674
 41
-4.3485913603
 42
-3.3373776335
  0
ELLIPSE
  5
4DF
100
AcDbEntity
  8
KONSTRUKTIONSELEMENTE
100
AcDbEllipse
 62
7
  6
CONTINUOUS
 10
438.6812389715
 20
74.1712150743
 30
0.0
 11
3.3288956288
 21
-0.0
 31
0.0
 40
0.1989123674
 41
-2.9458076736
 42
-1.9345939469
  0
ENDSEC
  0
SECTION
  2
OBJECTS
  0
DICTIONARY
  5
C
100
AcDbDictionary
280
0
281
1
  3
ACAD_GROUP
350
D
  3
ACAD_MLINESTYLE
350
17
  3
ACAD_LAYOUT
350
1A
  3
ACAD_PLOTSETTINGS
350
19
  3
ACAD_PLOTSTYLENAME
350
E
  0
DICTIONARY
  5
D
102
{ACAD_REACTORS
330
C
102
}
100
AcDbDictionary
280
0
281
1
  0
ACDBDICTIONARYWDFLT
  5
E
102
{ACAD_REACTORS
330
C
102
}
100
AcDbDictionary
281
1
  3
Normal
350
F
100
AcDbDictionaryWithDefault
340
F
  0
DICTIONARY
  5
17
102
{ACAD_REACTORS
330
C
102
}
100
AcDbDictionary
280
0
281
1
  3
Standard
350
18
  0
DICTIONARY
  5
19
102
{ACAD_REACTORS
330
C
102
}
100
AcDbDictionary
281
1
  0
DICTIONARY
  5
1A
102
{ACAD_REACTORS
330
C
102
}
100
AcDbDictionary
281
1
  3
Model
350
4E0
  3
Layout1
350
4E1
  0
ACDBPLACEHOLDER
  5
F
102
{ACAD_REACTORS
330
E
102
}
  0
MLINESTYLE
  5
18
102
{ACAD_REACTORS
330
17
102
}
100
AcDbMlineStyle
  2
STANDARD
 70
0
  3

 62
256
 51
90.0
 52
90.0
 71
2
 49
0.5
 62
256
  6
BYLAYER
 49
-0.5
 62
256
  6
BYLAYER
  0
LAYOUT
  5
4E0
102
{ACAD_REACTORS
330
1A
102
}
100
AcDbPlotSettings
  1

  2
none_device
  4
ISO_A1_(594.00_x_841.00_MM)
  6

 40
0.0
 41
0.0
 42
0.0
 43
0.0
 44
841.0
 45
594.0
 46
0.0
 47
0.0
 48
0.0
 49
0.0
140
0.0
141
0.0
142
1.0
143
1.0
 70
1024
 72
1
 73
0
 74
0
  7

 75
0
147
1.0
148
0.0
149
0.0
100
AcDbLayout
  1
Model
 70
0
 71
0
 10
0.0
 20
0.0
 11
841.0
 21
594.0
 12
0.0
 22
0.0
 32
0.0
 14
0.0
 24
0.0
 34
0.0
 15
0.0
 25
0.0
 35
0.0
146
0.0
 13
0.0
 23
0.0
 33
0.0
 16
1.0
 26
0.0
 36
0.0
 17
0.0
 27
1.0
 37
0.0
 76
0
330
20D
345
0
346
0
  0
LAYOUT
  5
4E1
102
{ACAD_REACTORS
330
1A
102
}
100
AcDbPlotSettings
  1

  2
none_device
  4
ISO_A1_(594.00_x_841.00_MM)
  6

 40
0.0
 41
0.0
 42
0.0
 43
0.0
 44
841.0
 45
594.0
 46
0.0
 47
0.0
 48
0.0
 49
0.0
140
0.0
141
0.0
142
1.0
143
1.0
 70
0
 72
1
 73
0
 74
0
  7

 75
0
147
1.0
148
0.0
149
0.0
100
AcDbLayout
  1
Layout1
 70
0
 71
1
 10
0.0
 20
0.0
 11
841.0
 21
594.0
 12
0.0
 22
0.0
 32
0.0
 14
0.0
 24
0.0
 34
0.0
 15
0.0
 25
0.0
 35
0.0
146
0.0
 13
0.0
 23
0.0
 33
0.0
 16
1.0
 26
0.0
 36
0.0
 17
0.0
 27
1.0
 37
0.0
 76
0
330
20E
345
0
346
0
  0
ENDSEC
  0
EOF
