999
DXF file: VSAK-1-13_250_7100697_M32082-P-2.dxf
999
Pro/ENGINEER 2010140 by Parametric Technology Corporation
  0
SECTION
  2
HEADER
  9
$ACADVER
  1
AC1015
  9
$DWGCODEPAGE
  3
ANSI_1252
  9
$EXTMAX
 10
1189.0
 20
841.0
 30
0.0
  9
$EXTMIN
 10
0.0
 20
0.0
 30
0.0
  9
$LIMMIN
 10
0.0
 20
0.0
  9
$LIMMAX
 10
1189.0
 20
841.0
  9
$VIEWCTR
 10
594.5
 20
420.5
  9
$VIEWSIZE
 40
841.0
  9
$CLAYER
  8
0
  9
$LTSCALE
 40
65.395
  9
$CELTYPE
  6
BYLAYER
  9
$DIMSCALE
 40
1.0
  9
$DIMASZ
 40
3.5
  9
$DIMEXO
 40
7.43125
  9
$DIMDLI
 40
45.182
  9
$DIMEXE
 40
21.402
  9
$DIMCEN
 40
10.701
  9
$DIMLFAC
 40
1.0
  9
$DIMBLK
  1
_FILLED
  9
$DIMTXT
 40
3.5
  9
$DIMTOL
 70
1
  9
$DIMLIM
 70
0
  9
$DIMTFAC
 40
1.0
  9
$DIMTP
 40
0.005
  9
$DIMTM
 40
0.005
  9
$PDMODE
 70
3
  9
$PDSIZE
 40
0.3125
  9
$HANDSEED
  5
4D4
  9
$TILEMODE
 70
1
  9
$MEASUREMENT
 70
1
  9
$INSUNITS
 70
4
  0
ENDSEC
  0
SECTION
  2
CLASSES
  0
CLASS
  1
ACDBDICTIONARYWDFLT
  2
AcDbDictionaryWithDefault
  3
AutoCAD 2000
 90
0
280
0
281
0
  0
CLASS
  1
ACDBPLACEHOLDER
  2
AcDbPlaceHolder
  3
AutoCAD 2000
 90
0
280
0
281
0
  0
CLASS
  1
LAYOUT
  2
AcDbLayout
  3
AutoCAD 2000
 90
0
280
0
281
0
  0
ENDSEC
  0
SECTION
  2
TABLES
  0
TABLE
  2
VPORT
  5
8
100
AcDbSymbolTable
 70
2
  0
VPORT
  5
1F4
100
AcDbSymbolTableRecord
100
AcDbViewportTableRecord
  2
*ACTIVE
 70
0
 10
0.0
 20
0.0
 11
1.0
 21
1.0
 12
594.5
 22
420.5
 13
0.0
 23
0.0
 14
1.0
 24
1.0
 15
0.0
 25
0.0
 16
0.0
 26
0.0
 36
1.0
 17
0.0
 27
0.0
 37
0.0
 40
841.0
 41
1.4137931034
 42
50.0
 43
0.0
 44
0.0
 50
0.0
 51
0.0
 71
0
 72
100
 73
1
 74
1
 75
0
 76
0
 77
0
 78
0
  0
ENDTAB
  0
TABLE
  2
LTYPE
  5
5
100
AcDbSymbolTable
 70
6
  0
LTYPE
  5
14
100
AcDbSymbolTableRecord
100
AcDbLinetypeTableRecord
  2
BYBLOCK
 70
0
  3

 72
65
 73
0
 40
0.0
  0
LTYPE
  5
15
100
AcDbSymbolTableRecord
100
AcDbLinetypeTableRecord
  2
BYLAYER
 70
0
  3

 72
65
 73
0
 40
0.0
  0
LTYPE
  5
16
100
AcDbSymbolTableRecord
100
AcDbLinetypeTableRecord
  2
CONTINUOUS
 70
64
  3
Solid line
 72
65
 73
0
 40
0.0
  0
LTYPE
  5
1F5
100
AcDbSymbolTableRecord
100
AcDbLinetypeTableRecord
  2
CENTER
 70
64
  3
____ _ ____ _ ____ _ ____ _ ____ _ ____ _ ____
 72
65
 73
4
 40
0.6
 49
0.375
 74
0
 49
-0.075
 74
0
 49
0.075
 74
0
 49
-0.075
 74
0
  0
LTYPE
  5
1F6
100
AcDbSymbolTableRecord
100
AcDbLinetypeTableRecord
  2
HIDDEN
 70
64
  3
- - - - - - - - - - - - - - - - - - - -
 72
65
 73
2
 40
0.2
 49
0.1
 74
0
 49
-0.1
 74
0
  0
LTYPE
  5
1F7
100
AcDbSymbolTableRecord
100
AcDbLinetypeTableRecord
  2
PHANTOM
 70
64
  3
_____ _ _ _____ _ _ _____ _ _ _____
 72
65
 73
6
 40
0.8
 49
0.45
 74
0
 49
-0.05
 74
0
 49
0.1
 74
0
 49
-0.05
 74
0
 49
0.1
 74
0
 49
-0.05
 74
0
  0
LTYPE
  5
1F8
100
AcDbSymbolTableRecord
100
AcDbLinetypeTableRecord
  2
DOT
 70
64
  3
. . . . . . . . . . . . . . . . . . . .
 72
65
 73
2
 40
0.2
 49
0.1
 74
0
 49
-0.1
 74
0
  0
LTYPE
  5
1F9
100
AcDbSymbolTableRecord
100
AcDbLinetypeTableRecord
  2
DASHED
 70
64
  3
- - - - - - - - - - - - - - - - - - - -
 72
65
 73
2
 40
0.2
 49
0.1
 74
0
 49
-0.1
 74
0
  0
ENDTAB
  0
TABLE
  2
LAYER
  5
2
100
AcDbSymbolTable
 70
36
  0
LAYER
  5
10
100
AcDbSymbolTableRecord
100
AcDbLayerTableRecord
  2
0
 70
0
 62
7
  6
CONTINUOUS
370
-3
390
F
  0
LAYER
  5
1FA
100
AcDbSymbolTableRecord
100
AcDbLayerTableRecord
  2
DEFAULT_1
 70
0
 62
7
  6
CENTER
370
-3
390
F
  0
LAYER
  5
1FB
100
AcDbSymbolTableRecord
100
AcDbLayerTableRecord
  2
DEFAULT_2
 70
0
 62
8
  6
HIDDEN
370
-3
390
F
  0
LAYER
  5
1FC
100
AcDbSymbolTableRecord
100
AcDbLayerTableRecord
  2
DEFAULT_3
 70
0
 62
7
  6
PHANTOM
370
-3
390
F
  0
LAYER
  5
1FD
100
AcDbSymbolTableRecord
100
AcDbLayerTableRecord
  2
AUSFORMSCHRAEGEN
 70
0
 62
7
  6
CONTINUOUS
370
-3
390
F
  0
LAYER
  5
1FE
100
AcDbSymbolTableRecord
100
AcDbLayerTableRecord
  2
BEZUGSACHSEN
 70
0
 62
7
  6
CONTINUOUS
370
-3
390
F
  0
LAYER
  5
1FF
100
AcDbSymbolTableRecord
100
AcDbLayerTableRecord
  2
BEZUGSEBENEN
 70
0
 62
7
  6
CONTINUOUS
370
-3
390
F
  0
LAYER
  5
200
100
AcDbSymbolTableRecord
100
AcDbLayerTableRecord
  2
BG_STARTBEZUEGE
 70
0
 62
7
  6
CONTINUOUS
370
-3
390
F
  0
LAYER
  5
201
100
AcDbSymbolTableRecord
100
AcDbLayerTableRecord
  2
FASEN
 70
0
 62
7
  6
CONTINUOUS
370
-3
390
F
  0
LAYER
  5
202
100
AcDbSymbolTableRecord
100
AcDbLayerTableRecord
  2
HILFEN
 70
0
 62
7
  6
CONTINUOUS
370
-3
390
F
  0
LAYER
  5
203
100
AcDbSymbolTableRecord
100
AcDbLayerTableRecord
  2
KONSTRUKTIONSELEMENTE
 70
0
 62
7
  6
CONTINUOUS
370
-3
390
F
  0
LAYER
  5
204
100
AcDbSymbolTableRecord
100
AcDbLayerTableRecord
  2
NORM
 70
0
 62
7
  6
CONTINUOUS
370
-3
390
F
  0
LAYER
  5
205
100
AcDbSymbolTableRecord
100
AcDbLayerTableRecord
  2
PLATZIERUNG
 70
0
 62
7
  6
CONTINUOUS
370
-3
390
F
  0
LAYER
  5
206
100
AcDbSymbolTableRecord
100
AcDbLayerTableRecord
  2
PLAZIERUNG
 70
0
 62
7
  6
CONTINUOUS
370
-3
390
F
  0
LAYER
  5
207
100
AcDbSymbolTableRecord
100
AcDbLayerTableRecord
  2
RUNDUNGEN
 70
0
 62
7
  6
CONTINUOUS
370
-3
390
F
  0
LAYER
  5
208
100
AcDbSymbolTableRecord
100
AcDbLayerTableRecord
  2
TEIL_STARTBEZUEGE
 70
0
 62
7
  6
CONTINUOUS
370
-3
390
F
  0
LAYER
  5
209
100
AcDbSymbolTableRecord
100
AcDbLayerTableRecord
  2
T_STARTBEZUEGE
 70
0
 62
7
  6
CONTINUOUS
370
-3
390
F
  0
ENDTAB
  0
TABLE
  2
STYLE
  5
3
100
AcDbSymbolTable
 70
1
  0
STYLE
  5
11
100
AcDbSymbolTableRecord
100
AcDbTextStyleTableRecord
  2
STANDARD
 70
0
 40
0.0
 41
0.7
 50
0.0
 71
0
 42
0.2
  3
txt
  4

  0
STYLE
  5
20A
100
AcDbSymbolTableRecord
100
AcDbTextStyleTableRecord
  2
TEXTSTYLE_1
 70
0
 40
0.0
 41
0.8
 50
0.0
 71
0
 42
0.2
  3
gdt
  4

  0
ENDTAB
  0
TABLE
  2
VIEW
  5
6
100
AcDbSymbolTable
 70
0
  0
ENDTAB
  0
TABLE
  2
UCS
  5
7
100
AcDbSymbolTable
 70
0
  0
ENDTAB
  0
TABLE
  2
APPID
  5
9
100
AcDbSymbolTable
 70
1
  0
APPID
  5
20B
100
AcDbSymbolTableRecord
100
AcDbRegAppTableRecord
  2
ACAD
 70
0
  0
ENDTAB
  0
TABLE
  2
BLOCK_RECORD
  5
1
100
AcDbSymbolTable
 70
0
  0
BLOCK_RECORD
  5
20C
100
AcDbSymbolTableRecord
100
AcDbBlockTableRecord
  2
*Model_Space
  0
BLOCK_RECORD
  5
20D
100
AcDbSymbolTableRecord
100
AcDbBlockTableRecord
  2
*Paper_Space
  0
ENDTAB
  0
TABLE
  2
DIMSTYLE
  5
A
100
AcDbSymbolTable
 70
1
100
AcDbDimStyleTable
 71
0
  0
DIMSTYLE
105
20E
100
AcDbSymbolTableRecord
100
AcDbDimStyleTableRecord
  2
STANDARD
 70
0
  3

  4

 40
1.0
 41
3.5
 42
0.0625
 43
0.38
 44
0.18
 45
0.0
 46
0.0
 47
0.005
 48
0.005
140
3.5
141
0.09
142
0.0
143
25.4
144
1.0
145
0.0
146
1.0
147
0.09
 71
1.0
 72
0.0
 73
0
 74
0
 75
0
 76
0
 77
1
 78
8
170
0
171
2
172
0
173
0
174
0
175
0
176
0
177
0
178
5
270
2
271
3
272
3
273
2
274
2
275
0
280
0
281
0
282
0
283
1
284
8
285
0
286
0
287
3
288
0
340
11
  0
ENDTAB
  0
ENDSEC
  0
SECTION
  2
BLOCKS
  0
BLOCK
  5
20
100
AcDbEntity
  8
0
100
AcDbBlockBegin
  2
*Model_Space
 70
0
 10
0.0
 20
0.0
 30
0.0
  3
*Model_Space
  1

  0
ENDBLK
  5
21
100
AcDbEntity
  8
0
100
AcDbBlockEnd
  0
BLOCK
  5
1C
100
AcDbEntity
  8
0
100
AcDbBlockBegin
  2
*Paper_Space
 70
0
 10
0.0
 20
0.0
 30
0.0
  3
*Paper_Space
  1

  0
ENDBLK
  5
1D
100
AcDbEntity
  8
0
100
AcDbBlockEnd
  0
ENDSEC
  0
SECTION
  2
ENTITIES
  0
MTEXT
  5
20F
100
AcDbEntity
  8
0
100
AcDbMText
 62
5
  6
CONTINUOUS
  7
STANDARD
 71
1
 72
1
 10
127.5618137727
 20
516.0948724084
 30
0.0
 11
0.0
 21
1.0
 31
0.0
 44
0.9
  1
RUD
 40
12.0
 41
32.0
  0
MTEXT
  5
210
100
AcDbEntity
  8
0
100
AcDbMText
 62
5
  6
CONTINUOUS
  7
STANDARD
 71
1
 72
1
 10
412.7171715607
 20
486.2904860854
 30
0.0
 11
0.0
 21
1.0
 31
0.0
 44
0.9
  1
VSAK 1-13/250
 40
12.0
 41
118.2857142857
  0
MTEXT
  5
211
100
AcDbEntity
  8
0
100
AcDbMText
 62
5
  6
CONTINUOUS
  7
STANDARD
 71
1
 72
1
 10
749.9914895363
 20
461.2438679141
 30
0.0
 11
0.0
 21
1.0
 31
0.0
 44
0.9
  1
RUD VSAK 1-13/250
 40
12.0
 41
157.4285714286
  0
LINE
  5
212
100
AcDbEntity
  8
0
100
AcDbLine
 62
7
  6
CONTINUOUS
 10
0.0
 20
0.0
 11
0.0
 21
841.0
  0
LINE
  5
213
100
AcDbEntity
  8
0
100
AcDbLine
 62
7
  6
CONTINUOUS
 10
0.0
 20
0.0
 11
1189.0
 21
0.0
  0
LINE
  5
214
100
AcDbEntity
  8
0
100
AcDbLine
 62
7
  6
CONTINUOUS
 10
0.0
 20
841.0
 11
1189.0
 21
841.0
  0
LINE
  5
215
100
AcDbEntity
  8
0
100
AcDbLine
 62
7
  6
CONTINUOUS
 10
1189.0
 20
0.0
 11
1189.0
 21
841.0
  0
LINE
  5
216
100
AcDbEntity
  8
KONSTRUKTIONSELEMENTE
100
AcDbLine
 62
7
  6
CONTINUOUS
 10
270.3100624099
 20
28.6454744799
 11
282.1400624099
 21
28.6454744799
  0
LINE
  5
217
100
AcDbEntity
  8
KONSTRUKTIONSELEMENTE
100
AcDbLine
 62
7
  6
CONTINUOUS
 10
269.6600624099
 20
29.1050938877
 11
270.3100624099
 21
29.1050938877
  0
LINE
  5
218
100
AcDbEntity
  8
KONSTRUKTIONSELEMENTE
100
AcDbLine
 62
7
  6
CONTINUOUS
 10
282.1400624099
 20
29.1050938877
 11
282.7900624099
 21
29.1050938877
  0
LINE
  5
219
100
AcDbEntity
  8
KONSTRUKTIONSELEMENTE
100
AcDbLine
 62
7
  6
CONTINUOUS
 10
265.1100624099
 20
47.0302507908
 11
263.5231759696
 21
47.0302507908
  0
LINE
  5
21A
100
AcDbEntity
  8
KONSTRUKTIONSELEMENTE
100
AcDbLine
 62
7
  6
CONTINUOUS
 10
287.3400624099
 20
47.0302507908
 11
305.6290093306
 21
47.0302507908
  0
LINE
  5
21B
100
AcDbEntity
  8
KONSTRUKTIONSELEMENTE
100
AcDbLine
 62
7
  6
CONTINUOUS
 10
311.4300778039
 20
50.6351888012
 11
303.7717770035
 21
53.1603550185
  0
LINE
  5
21C
100
AcDbEntity
  8
KONSTRUKTIONSELEMENTE
100
AcDbLine
 62
7
  6
CONTINUOUS
 10
311.4300778039
 20
54.1707227071
 11
303.7717770035
 21
56.6958889244
  0
LINE
  5
21D
100
AcDbEntity
  8
KONSTRUKTIONSELEMENTE
100
AcDbLine
 62
7
  6
CONTINUOUS
 10
226.8244595488
 20
97.1750120522
 11
226.8455904619
 21
97.1783245721
  0
LINE
  5
21E
100
AcDbEntity
  8
KONSTRUKTIONSELEMENTE
100
AcDbLine
 62
7
  6
CONTINUOUS
 10
299.3210005974
 20
118.4424799933
 11
293.7243329937
 21
118.4424799933
  0
LINE
  5
21F
100
AcDbEntity
  8
KONSTRUKTIONSELEMENTE
100
AcDbLine
 62
7
  6
CONTINUOUS
 10
258.725791826
 20
118.4424799933
 11
253.1291242224
 21
118.4424799933
  0
LINE
  5
220
100
AcDbEntity
  8
0
100
AcDbLine
 62
7
  6
CONTINUOUS
 10
269.1250624099
 20
128.6424799933
 11
283.3250624099
 21
128.6424799933
  0
LINE
  5
221
100
AcDbEntity
  8
KONSTRUKTIONSELEMENTE
100
AcDbLine
 62
7
  6
CONTINUOUS
 10
332.0449387139
 20
96.033646978
 11
339.7032395144
 21
93.5084807607
  0
LINE
  5
222
100
AcDbEntity
  8
KONSTRUKTIONSELEMENTE
100
AcDbLine
 62
7
  6
CONTINUOUS
 10
282.9869545977
 20
118.8022428669
 11
337.9724632719
 21
100.6719091857
  0
LINE
  5
223
100
AcDbEntity
  8
KONSTRUKTIONSELEMENTE
100
AcDbLine
 62
7
  6
CONTINUOUS
 10
337.9724632719
 20
104.2074430916
 11
294.8005747231
 21
118.4424799933
  0
LINE
  5
224
100
AcDbEntity
  8
KONSTRUKTIONSELEMENTE
100
AcDbLine
 62
7
  6
CONTINUOUS
 10
283.3250624099
 20
122.2262927182
 11
282.9869545977
 21
122.3377767728
  0
LINE
  5
225
100
AcDbEntity
  8
0
100
AcDbLine
 62
7
  6
CONTINUOUS
 10
269.1250624099
 20
144.2424799933
 11
283.3250624099
 21
144.2424799933
  0
LINE
  5
226
100
AcDbEntity
  8
BEZUGSACHSEN
100
AcDbLine
 62
7
  6
CONTINUOUS
 10
260.44479099
 20
215.7688880147
 11
260.9510440885
 21
215.9033816402
  0
LINE
  5
227
100
AcDbEntity
  8
BEZUGSACHSEN
100
AcDbLine
 62
7
  6
CONTINUOUS
 10
300.5179262104
 20
201.2979604711
 11
300.7865118687
 21
201.3560347039
  0
LINE
  5
228
100
AcDbEntity
  8
BEZUGSACHSEN
100
AcDbLine
 62
7
  6
CONTINUOUS
 10
302.6297117987
 20
202.9618767164
 11
303.1668857094
 21
203.0780213215
  0
LINE
  5
229
100
AcDbEntity
  8
BEZUGSACHSEN
100
AcDbLine
 62
7
  6
CONTINUOUS
 10
260.8159418834
 20
215.0988598923
 11
261.2333154483
 21
215.1841201839
  0
LINE
  5
22A
100
AcDbEntity
  8
BEZUGSACHSEN
100
AcDbLine
 62
7
  6
CONTINUOUS
 10
288.48460721
 20
214.1004243062
 11
288.9570457579
 21
214.1850627303
  0
LINE
  5
22B
100
AcDbEntity
  8
BEZUGSACHSEN
100
AcDbLine
 62
7
  6
CONTINUOUS
 10
291.9417501076
 20
209.8689062964
 11
292.3354436194
 21
209.924613861
  0
LINE
  5
22C
100
AcDbEntity
  8
BEZUGSACHSEN
100
AcDbLine
 62
7
  6
CONTINUOUS
 10
292.3075830531
 20
214.3025157818
 11
292.7012765177
 21
214.3582232704
  0
LINE
  5
22D
100
AcDbEntity
  8
BEZUGSACHSEN
100
AcDbLine
 62
7
  6
CONTINUOUS
 10
258.0104781915
 20
207.3189106459
 11
258.4872043257
 21
207.3745306236
  0
LINE
  5
22E
100
AcDbEntity
  8
BEZUGSACHSEN
100
AcDbLine
 62
7
  6
CONTINUOUS
 10
299.6128098298
 20
207.3807178666
 11
300.6877748457
 21
207.5017224476
  0
LINE
  5
22F
100
AcDbEntity
  8
BEZUGSACHSEN
100
AcDbLine
 62
7
  6
CONTINUOUS
 10
300.386793393
 20
208.0470179572
 11
301.4617581379
 21
208.1680223049
  0
LINE
  5
230
100
AcDbEntity
  8
BEZUGSACHSEN
100
AcDbLine
 62
7
  6
CONTINUOUS
 10
300.264101965
 20
200.7601549589
 11
300.6953149075
 21
200.8051009945
  0
LINE
  5
231
100
AcDbEntity
  8
BEZUGSACHSEN
100
AcDbLine
 62
7
  6
CONTINUOUS
 10
302.5385149118
 20
202.4109430568
 11
302.9697304485
 21
202.4558852319
  0
LINE
  5
232
100
AcDbEntity
  8
BEZUGSACHSEN
100
AcDbLine
 62
7
  6
CONTINUOUS
 10
302.0187281553
 20
205.2443923188
 11
302.4499410979
 21
205.2893383544
  0
LINE
  5
233
100
AcDbEntity
  8
BEZUGSACHSEN
100
AcDbLine
 62
7
  6
CONTINUOUS
 10
252.0980262634
 20
209.2311313513
 11
252.6542566823
 21
209.2806659047
  0
LINE
  5
234
100
AcDbEntity
  8
BEZUGSACHSEN
100
AcDbLine
 62
7
  6
CONTINUOUS
 10
288.2988678012
 20
214.7260634857
 11
288.6293047578
 21
214.7303526485
  0
LINE
  5
235
100
AcDbEntity
  8
BEZUGSACHSEN
100
AcDbLine
 62
7
  6
CONTINUOUS
 10
291.6232871186
 20
209.1649211155
 11
292.1032451097
 21
209.1669406474
  0
LINE
  5
236
100
AcDbEntity
  8
BEZUGSACHSEN
100
AcDbLine
 62
7
  6
CONTINUOUS
 10
292.5397834664
 20
215.0601876527
 11
293.0197394654
 21
215.062208385
  0
LINE
  5
237
100
AcDbEntity
  8
BEZUGSACHSEN
100
AcDbLine
 62
7
  6
CONTINUOUS
 10
257.6889875985
 20
208.0432228524
 11
258.0865216827
 21
208.0351875575
  0
LINE
  5
238
100
AcDbEntity
  8
BEZUGSACHSEN
100
AcDbLine
 62
7
  6
CONTINUOUS
 10
252.5077856231
 20
208.7312866571
 11
252.833624156
 21
208.7136661388
  0
LINE
  5
239
100
AcDbEntity
  8
BEZUGSACHSEN
100
AcDbLine
 62
7
  6
CONTINUOUS
 10
260.9510440885
 20
215.9033816402
 11
261.4302761357
 21
215.876970578
  0
LINE
  5
23A
100
AcDbEntity
  8
BEZUGSACHSEN
100
AcDbLine
 62
7
  6
CONTINUOUS
 10
300.1926689735
 20
201.3242206761
 11
300.5179262104
 21
201.2979604711
  0
LINE
  5
23B
100
AcDbEntity
  8
BEZUGSACHSEN
100
AcDbLine
 62
7
  6
CONTINUOUS
 10
302.304454636
 20
202.9881369713
 11
302.6297117987
 21
202.9618767164
  0
LINE
  5
23C
100
AcDbEntity
  8
BEZUGSACHSEN
100
AcDbLine
 62
7
  6
CONTINUOUS
 10
302.2158808222
 20
205.8665322688
 11
302.8663951475
 21
205.8140117591
  0
LINE
  5
23D
100
AcDbEntity
  8
BEZUGSACHSEN
100
AcDbLine
 62
7
  6
CONTINUOUS
 10
252.6542566823
 20
209.2806659047
 11
253.2384608388
 21
209.1694592111
  0
LINE
  5
23E
100
AcDbEntity
  8
BEZUGSACHSEN
100
AcDbLine
 62
7
  6
CONTINUOUS
 10
261.2333154483
 20
215.1841201839
 11
261.6236689791
 21
215.1084763512
  0
LINE
  5
23F
100
AcDbEntity
  8
BEZUGSACHSEN
100
AcDbLine
 62
7
  6
CONTINUOUS
 10
257.3737942772
 20
207.4622915892
 11
258.0104781915
 21
207.3189106459
  0
LINE
  5
240
100
AcDbEntity
  8
BEZUGSACHSEN
100
AcDbLine
 62
7
  6
CONTINUOUS
 10
301.9939615546
 20
202.5346621362
 11
302.5385149118
 21
202.4109430568
  0
LINE
  5
241
100
AcDbEntity
  8
BEZUGSACHSEN
100
AcDbLine
 62
7
  6
CONTINUOUS
 10
291.5292500008
 20
209.9752675998
 11
291.9417501076
 21
209.8689062964
  0
LINE
  5
242
100
AcDbEntity
  8
BEZUGSACHSEN
100
AcDbLine
 62
7
  6
CONTINUOUS
 10
292.7012765177
 20
214.3582232704
 11
293.1137805732
 21
214.2518595094
  0
LINE
  5
243
100
AcDbEntity
  8
BEZUGSACHSEN
100
AcDbLine
 62
7
  6
CONTINUOUS
 10
299.8821758549
 20
200.8707458161
 11
300.264101965
 21
200.7601549589
  0
LINE
  5
244
100
AcDbEntity
  8
BEZUGSACHSEN
100
AcDbLine
 62
7
  6
CONTINUOUS
 10
302.4499410979
 20
205.2893383544
 11
302.8318671708
 21
205.1787474722
  0
LINE
  5
245
100
AcDbEntity
  8
BEZUGSACHSEN
100
AcDbLine
 62
7
  6
CONTINUOUS
 10
291.124526446
 20
209.324967937
 11
291.6232871186
 21
209.1649211155
  0
LINE
  5
246
100
AcDbEntity
  8
BEZUGSACHSEN
100
AcDbLine
 62
7
  6
CONTINUOUS
 10
261.4302761357
 20
215.876970578
 11
262.0332251473
 21
215.6272168083
  0
LINE
  5
247
100
AcDbEntity
  8
BEZUGSACHSEN
100
AcDbLine
 62
7
  6
CONTINUOUS
 10
257.290666089
 20
208.2144132164
 11
257.6889875985
 21
208.0432228524
  0
LINE
  5
248
100
AcDbEntity
  8
BEZUGSACHSEN
100
AcDbLine
 62
7
  6
CONTINUOUS
 10
254.2932949678
 20
207.2812875425
 11
257.0958186963
 21
206.0151333422
  0
LINE
  5
249
100
AcDbEntity
  8
BEZUGSACHSEN
100
AcDbLine
 62
7
  6
CONTINUOUS
 10
254.079351096
 20
206.6559427466
 11
256.6235091044
 21
205.483374613
  0
LINE
  5
24A
100
AcDbEntity
  8
BEZUGSACHSEN
100
AcDbLine
 62
7
  6
CONTINUOUS
 10
252.833624156
 20
208.7136661388
 11
253.1874362335
 21
208.535304156
  0
LINE
  5
24B
100
AcDbEntity
  8
BEZUGSACHSEN
100
AcDbLine
 62
7
  6
CONTINUOUS
 10
253.2384608388
 20
209.1694592111
 11
253.5922729162
 21
208.9910972283
  0
LINE
  5
24C
100
AcDbEntity
  8
BEZUGSACHSEN
100
AcDbLine
 62
7
  6
CONTINUOUS
 10
256.8954938251
 20
207.732982479
 11
257.3737942772
 21
207.4622915892
  0
LINE
  5
24D
100
AcDbEntity
  8
RUNDUNGEN
100
AcDbLine
 62
7
  6
CONTINUOUS
 10
244.6929735236
 20
127.3848452425
 11
245.0958164172
 21
126.9047557768
  0
LINE
  5
24E
100
AcDbEntity
  8
0
100
AcDbLine
 62
7
  6
CONTINUOUS
 10
245.0958164172
 20
126.9047557768
 11
251.5970353361
 21
119.156904774
  0
LINE
  5
24F
100
AcDbEntity
  8
RUNDUNGEN
100
AcDbLine
 62
7
  6
CONTINUOUS
 10
243.5231957392
 20
145.2789321196
 11
242.6518642354
 21
146.3173445697
  0
LINE
  5
250
100
AcDbEntity
  8
KONSTRUKTIONSELEMENTE
100
AcDbLine
 62
7
  6
CONTINUOUS
 10
225.4720811112
 20
99.2257524748
 11
226.8244595488
 21
97.1750120522
  0
LINE
  5
251
100
AcDbEntity
  8
KONSTRUKTIONSELEMENTE
100
AcDbLine
 62
7
  6
CONTINUOUS
 10
233.9603688983
 20
86.3541520412
 11
258.1428104092
 21
49.6840093167
  0
LINE
  5
252
100
AcDbEntity
  8
KONSTRUKTIONSELEMENTE
100
AcDbLine
 62
7
  6
CONTINUOUS
 10
233.9603688983
 20
86.8137714489
 11
233.6856670281
 21
87.2303280973
  0
LINE
  5
253
100
AcDbEntity
  8
KONSTRUKTIONSELEMENTE
100
AcDbLine
 62
7
  6
CONTINUOUS
 10
237.415521865
 20
98.5156087502
 11
242.561864273
 21
90.711718869
  0
LINE
  5
254
100
AcDbEntity
  8
BEZUGSACHSEN
100
AcDbLine
 62
7
  6
CONTINUOUS
 10
293.0197394654
 20
215.062208385
 11
293.5185040808
 21
214.9021590964
  0
LINE
  5
255
100
AcDbEntity
  8
0
100
AcDbLine
 62
7
  6
CONTINUOUS
 10
299.401336988
 20
218.3418853065
 11
287.2250624099
 21
222.2981967437
  0
LINE
  5
256
100
AcDbEntity
  8
BEZUGSACHSEN
100
AcDbLine
 62
7
  6
CONTINUOUS
 10
287.5740394981
 20
211.3016288554
 11
288.2335643548
 21
211.0354180757
  0
LINE
  5
257
100
AcDbEntity
  8
BEZUGSACHSEN
100
AcDbLine
 62
7
  6
CONTINUOUS
 10
287.2250624099
 20
214.3334936485
 11
287.8237332969
 21
214.0918459806
  0
LINE
  5
258
100
AcDbEntity
  8
BEZUGSACHSEN
100
AcDbLine
 62
7
  6
CONTINUOUS
 10
287.2250624099
 20
215.159494565
 11
288.2988678012
 21
214.7260634857
  0
LINE
  5
259
100
AcDbEntity
  8
BEZUGSACHSEN
100
AcDbLine
 62
7
  6
CONTINUOUS
 10
287.2254668737
 20
217.2243339838
 11
289.0156103915
 21
216.5017600023
  0
LINE
  5
25A
100
AcDbEntity
  8
BEZUGSACHSEN
100
AcDbLine
 62
7
  6
CONTINUOUS
 10
287.2250624099
 20
217.9128313387
 11
289.1603057827
 21
217.1316892151
  0
LINE
  5
25B
100
AcDbEntity
  8
BEZUGSACHSEN
100
AcDbLine
 62
7
  6
CONTINUOUS
 10
299.4435782498
 20
201.0656711673
 11
299.8821758549
 21
200.8707458161
  0
LINE
  5
25C
100
AcDbEntity
  8
BEZUGSACHSEN
100
AcDbLine
 62
7
  6
CONTINUOUS
 10
299.9733701849
 20
201.4216833611
 11
300.1926689735
 21
201.3242206761
  0
LINE
  5
25D
100
AcDbEntity
  8
BEZUGSACHSEN
100
AcDbLine
 62
7
  6
CONTINUOUS
 10
302.8663951475
 20
205.8140117591
 11
303.3049901307
 21
205.6190902496
  0
LINE
  5
25E
100
AcDbEntity
  8
BEZUGSACHSEN
100
AcDbLine
 62
7
  6
CONTINUOUS
 10
290.3481695597
 20
209.808145058
 11
291.124526446
 21
209.324967937
  0
LINE
  5
25F
100
AcDbEntity
  8
BEZUGSACHSEN
100
AcDbLine
 62
7
  6
CONTINUOUS
 10
290.7528931146
 20
210.4584447208
 11
291.5292500008
 21
209.9752675998
  0
LINE
  5
260
100
AcDbEntity
  8
BEZUGSACHSEN
100
AcDbLine
 62
7
  6
CONTINUOUS
 10
292.387340485
 20
211.5463215156
 11
293.1636973713
 21
211.0631443946
  0
LINE
  5
261
100
AcDbEntity
  8
BEZUGSACHSEN
100
AcDbLine
 62
7
  6
CONTINUOUS
 10
292.7920639926
 20
212.1966211026
 11
294.0859921365
 21
211.3913259009
  0
LINE
  5
262
100
AcDbEntity
  8
BEZUGSACHSEN
100
AcDbLine
 62
7
  6
CONTINUOUS
 10
294.1755061404
 20
212.688893362
 11
294.6930773979
 21
212.3667752814
  0
LINE
  5
263
100
AcDbEntity
  8
BEZUGSACHSEN
100
AcDbLine
 62
7
  6
CONTINUOUS
 10
293.1137805732
 20
214.2518595094
 11
293.8901374595
 21
213.7686823885
  0
LINE
  5
264
100
AcDbEntity
  8
BEZUGSACHSEN
100
AcDbLine
 62
7
  6
CONTINUOUS
 10
261.6236689791
 20
215.1084763512
 11
261.987002649
 21
214.8719280815
  0
LINE
  5
265
100
AcDbEntity
  8
BEZUGSACHSEN
100
AcDbLine
 62
7
  6
CONTINUOUS
 10
301.7525192382
 20
203.3517235957
 11
302.304454636
 21
202.9881369713
  0
LINE
  5
266
100
AcDbEntity
  8
BEZUGSACHSEN
100
AcDbLine
 62
7
  6
CONTINUOUS
 10
262.0332251473
 20
215.6272168083
 11
262.4584171261
 21
215.2789974978
  0
LINE
  5
267
100
AcDbEntity
  8
BEZUGSACHSEN
100
AcDbLine
 62
7
  6
CONTINUOUS
 10
256.8915580045
 20
208.5487594476
 11
257.290666089
 21
208.2144132164
  0
LINE
  5
268
100
AcDbEntity
  8
BEZUGSACHSEN
100
AcDbLine
 62
7
  6
CONTINUOUS
 10
254.5318529743
 20
203.1284438118
 11
250.0458691118
 21
207.1129072368
  0
LINE
  5
269
100
AcDbEntity
  8
BEZUGSACHSEN
100
AcDbLine
 62
7
  6
CONTINUOUS
 10
254.9366896571
 20
203.5842368841
 11
252.9323138603
 21
205.364529078
  0
LINE
  5
26A
100
AcDbEntity
  8
BEZUGSACHSEN
100
AcDbLine
 62
7
  6
CONTINUOUS
 10
252.3596351376
 20
205.8731839227
 11
250.9279380635
 21
207.1448212719
  0
LINE
  5
26B
100
AcDbEntity
  8
BEZUGSACHSEN
100
AcDbLine
 62
7
  6
CONTINUOUS
 10
253.1874362335
 20
208.535304156
 11
253.4737758622
 21
208.2809764962
  0
LINE
  5
26C
100
AcDbEntity
  8
BEZUGSACHSEN
100
AcDbLine
 62
7
  6
CONTINUOUS
 10
253.5922729162
 20
208.9910972283
 11
253.9740589988
 21
208.6519937611
  0
LINE
  5
26D
100
AcDbEntity
  8
BEZUGSACHSEN
100
AcDbLine
 62
7
  6
CONTINUOUS
 10
256.4164061743
 20
208.16682862
 11
256.8954938251
 21
207.732982479
  0
LINE
  5
26E
100
AcDbEntity
  8
0
100
AcDbLine
 62
7
  6
CONTINUOUS
 10
115.2250624099
 20
652.3424799933
 11
115.2250624099
 21
442.3424799933
  0
LINE
  5
26F
100
AcDbEntity
  8
BEZUGSACHSEN
100
AcDbLine
 62
7
  6
CONTINUOUS
 10
293.5185040808
 20
214.9021590964
 11
294.2948609671
 21
214.4189819754
  0
LINE
  5
270
100
AcDbEntity
  8
BEZUGSACHSEN
100
AcDbLine
 62
7
  6
CONTINUOUS
 10
289.1603057827
 20
217.1316892151
 11
289.5836124437
 21
216.8231587882
  0
LINE
  5
271
100
AcDbEntity
  8
BEZUGSACHSEN
100
AcDbLine
 62
7
  6
CONTINUOUS
 10
299.1109416314
 20
201.3317951005
 11
299.4435782498
 21
201.0656711673
  0
LINE
  5
272
100
AcDbEntity
  8
BEZUGSACHSEN
100
AcDbLine
 62
7
  6
CONTINUOUS
 10
299.5840646655
 20
201.7721379278
 11
299.9733701849
 21
201.4216833611
  0
LINE
  5
273
100
AcDbEntity
  8
BEZUGSACHSEN
100
AcDbLine
 62
7
  6
CONTINUOUS
 10
302.8318671708
 20
205.1787474722
 11
303.2211752843
 21
204.8282890451
  0
LINE
  5
274
100
AcDbEntity
  8
BEZUGSACHSEN
100
AcDbLine
 62
7
  6
CONTINUOUS
 10
261.987002649
 20
214.8719280815
 11
262.3233150942
 21
214.4744754371
  0
LINE
  5
275
100
AcDbEntity
  8
BEZUGSACHSEN
100
AcDbLine
 62
7
  6
CONTINUOUS
 10
256.4164061743
 20
208.16682862
 11
253.9370533302
 21
211.251337532
  0
LINE
  5
276
100
AcDbEntity
  8
BEZUGSACHSEN
100
AcDbLine
 62
7
  6
CONTINUOUS
 10
256.8915580045
 20
208.5487594476
 11
254.4122051604
 21
211.6332683597
  0
LINE
  5
277
100
AcDbEntity
  8
BEZUGSACHSEN
100
AcDbLine
 62
7
  6
CONTINUOUS
 10
256.3128115752
 20
213.1609909419
 11
258.7921644193
 21
210.0764820299
  0
LINE
  5
278
100
AcDbEntity
  8
BEZUGSACHSEN
100
AcDbLine
 62
7
  6
CONTINUOUS
 10
256.7879631789
 20
213.5429215875
 11
259.267316023
 21
210.4584126754
  0
LINE
  5
279
100
AcDbEntity
  8
BEZUGSACHSEN
100
AcDbLine
 62
7
  6
CONTINUOUS
 10
262.4584171261
 20
215.2789974978
 11
262.8565882269
 21
214.7698731867
  0
LINE
  5
27A
100
AcDbEntity
  8
0
100
AcDbLine
 62
7
  6
CONTINUOUS
 10
151.2250624099
 20
652.3424799933
 11
151.2250624099
 21
442.3424799933
  0
LINE
  5
27B
100
AcDbEntity
  8
BEZUGSACHSEN
100
AcDbLine
 62
7
  6
CONTINUOUS
 10
289.0156103915
 20
216.5017600023
 11
289.2504816872
 21
216.2692896738
  0
LINE
  5
27C
100
AcDbEntity
  8
BEZUGSACHSEN
100
AcDbLine
 62
7
  6
CONTINUOUS
 10
303.3049901307
 20
205.6190902496
 11
303.8076360647
 21
205.0999705679
  0
LINE
  5
27D
100
AcDbEntity
  8
BEZUGSACHSEN
100
AcDbLine
 62
7
  6
CONTINUOUS
 10
289.984312786
 20
210.184960885
 11
290.3481695597
 21
209.808145058
  0
LINE
  5
27E
100
AcDbEntity
  8
BEZUGSACHSEN
100
AcDbLine
 62
7
  6
CONTINUOUS
 10
294.2948609671
 20
214.4189819754
 11
294.658713798
 21
214.0421686154
  0
LINE
  5
27F
100
AcDbEntity
  8
BEZUGSACHSEN
100
AcDbLine
 62
7
  6
CONTINUOUS
 10
296.9146057544
 20
204.2535101767
 11
297.3123351187
 21
203.7915021494
  0
LINE
  5
280
100
AcDbEntity
  8
BEZUGSACHSEN
100
AcDbLine
 62
7
  6
CONTINUOUS
 10
301.4617581379
 20
208.1680223049
 11
301.8594875021
 21
207.7060142776
  0
LINE
  5
281
100
AcDbEntity
  8
BEZUGSACHSEN
100
AcDbLine
 62
7
  6
CONTINUOUS
 10
290.475296895
 20
210.7815750108
 11
290.7528931146
 21
210.4584447208
  0
LINE
  5
282
100
AcDbEntity
  8
BEZUGSACHSEN
100
AcDbLine
 62
7
  6
CONTINUOUS
 10
293.8901374595
 20
213.7686823885
 11
294.1677297303
 21
213.445554556
  0
LINE
  5
283
100
AcDbEntity
  8
BEZUGSACHSEN
100
AcDbLine
 62
7
  6
CONTINUOUS
 10
253.6926425074
 20
207.9506836342
 11
253.4737758622
 21
208.2809764962
  0
LINE
  5
284
100
AcDbEntity
  8
BEZUGSACHSEN
100
AcDbLine
 62
7
  6
CONTINUOUS
 10
254.192925644
 20
208.3217008991
 11
253.9740589988
 21
208.6519937611
  0
LINE
  5
285
100
AcDbEntity
  8
BEZUGSACHSEN
100
AcDbLine
 62
7
  6
CONTINUOUS
 10
259.5880195038
 20
209.8972560764
 11
259.267316023
 21
210.4584126754
  0
LINE
  5
286
100
AcDbEntity
  8
BEZUGSACHSEN
100
AcDbLine
 62
7
  6
CONTINUOUS
 10
261.2190474705
 20
209.3387427648
 11
258.3116984595
 21
214.5872970161
  0
LINE
  5
287
100
AcDbEntity
  8
BEZUGSACHSEN
100
AcDbLine
 62
7
  6
CONTINUOUS
 10
261.3811696665
 20
210.3041687151
 11
259.2161224854
 21
214.2126666433
  0
LINE
  5
288
100
AcDbEntity
  8
BEZUGSACHSEN
100
AcDbLine
 62
7
  6
CONTINUOUS
 10
262.3233150942
 20
214.4744754371
 11
263.2511924142
 21
212.7994049746
  0
LINE
  5
289
100
AcDbEntity
  8
BEZUGSACHSEN
100
AcDbLine
 62
7
  6
CONTINUOUS
 10
262.8565882269
 20
214.7698731867
 11
263.7844655469
 21
213.0948027243
  0
LINE
  5
28A
100
AcDbEntity
  8
BEZUGSACHSEN
100
AcDbLine
 62
7
  6
CONTINUOUS
 10
259.0328887869
 20
209.6148257049
 11
258.7921644193
 21
210.0764820299
  0
LINE
  5
28B
100
AcDbEntity
  8
0
100
AcDbLine
 62
7
  6
CONTINUOUS
 10
313.7250624099
 20
198.6269686021
 11
299.401336988
 21
218.3418853065
  0
LINE
  5
28C
100
AcDbEntity
  8
BEZUGSACHSEN
100
AcDbLine
 62
7
  6
CONTINUOUS
 10
298.657582567
 20
202.0064516999
 11
299.1109416314
 21
201.3317951005
  0
LINE
  5
28D
100
AcDbEntity
  8
BEZUGSACHSEN
100
AcDbLine
 62
7
  6
CONTINUOUS
 10
299.2440460157
 20
202.2781294122
 11
299.5840646655
 21
201.7721379278
  0
LINE
  5
28E
100
AcDbEntity
  8
BEZUGSACHSEN
100
AcDbLine
 62
7
  6
CONTINUOUS
 10
299.0297497097
 20
203.9703227534
 11
299.3130968551
 21
203.5486657566
  0
LINE
  5
28F
100
AcDbEntity
  8
BEZUGSACHSEN
100
AcDbLine
 62
7
  6
CONTINUOUS
 10
301.102007507
 20
203.404240245
 11
301.3286857421
 21
203.0669138755
  0
LINE
  5
290
100
AcDbEntity
  8
BEZUGSACHSEN
100
AcDbLine
 62
7
  6
CONTINUOUS
 10
301.5258410031
 20
203.6890499651
 11
301.7525192382
 21
203.3517235957
  0
LINE
  5
291
100
AcDbEntity
  8
BEZUGSACHSEN
100
AcDbLine
 62
7
  6
CONTINUOUS
 10
301.7353784158
 20
205.666053176
 11
302.0187281553
 21
205.2443923188
  0
LINE
  5
292
100
AcDbEntity
  8
BEZUGSACHSEN
100
AcDbLine
 62
7
  6
CONTINUOUS
 10
303.2211752843
 20
204.8282890451
 11
303.4478535195
 21
204.4909626756
  0
LINE
  5
293
100
AcDbEntity
  8
BEZUGSACHSEN
100
AcDbLine
 62
7
  6
CONTINUOUS
 10
303.8076360647
 20
205.0999705679
 11
303.9209764793
 21
204.931305453
  0
LINE
  5
294
100
AcDbEntity
  8
BEZUGSACHSEN
100
AcDbLine
 62
7
  6
CONTINUOUS
 10
264.0048794416
 20
212.4872131851
 11
263.7844655469
 21
213.0948027243
  0
LINE
  5
295
100
AcDbEntity
  8
BEZUGSACHSEN
100
AcDbLine
 62
7
  6
CONTINUOUS
 10
254.3722931177
 20
207.7547011332
 11
254.192925644
 21
208.3217008991
  0
LINE
  5
296
100
AcDbEntity
  8
BEZUGSACHSEN
100
AcDbLine
 62
7
  6
CONTINUOUS
 10
289.7741724764
 20
210.6164732392
 11
289.984312786
 21
210.184960885
  0
LINE
  5
297
100
AcDbEntity
  8
BEZUGSACHSEN
100
AcDbLine
 62
7
  6
CONTINUOUS
 10
294.658713798
 20
214.0421686154
 11
294.8688560996
 21
213.610655061
  0
LINE
  5
298
100
AcDbEntity
  8
BEZUGSACHSEN
100
AcDbLine
 62
7
  6
CONTINUOUS
 10
289.5836124437
 20
216.8231587882
 11
289.8171368395
 21
216.3158984839
  0
LINE
  5
299
100
AcDbEntity
  8
BEZUGSACHSEN
100
AcDbLine
 62
7
  6
CONTINUOUS
 10
303.9209764793
 20
204.931305453
 11
304.2117056653
 21
204.2697809112
  0
LINE
  5
29A
100
AcDbEntity
  8
BEZUGSACHSEN
100
AcDbLine
 62
7
  6
CONTINUOUS
 10
301.3286857421
 20
203.0669138755
 11
301.5627460179
 21
202.4897199611
  0
LINE
  5
29B
100
AcDbEntity
  8
BEZUGSACHSEN
100
AcDbLine
 62
7
  6
CONTINUOUS
 10
263.4097478267
 20
212.3034867892
 11
263.2511924142
 21
212.7994049746
  0
LINE
  5
29C
100
AcDbEntity
  8
BEZUGSACHSEN
100
AcDbLine
 62
7
  6
CONTINUOUS
 10
259.7495522956
 20
209.371944817
 11
259.5880195038
 21
209.8972560764
  0
LINE
  5
29D
100
AcDbEntity
  8
BEZUGSACHSEN
100
AcDbLine
 62
7
  6
CONTINUOUS
 10
259.1144424096
 20
209.1890147891
 11
259.0328887869
 21
209.6148257049
  0
LINE
  5
29E
100
AcDbEntity
  8
BEZUGSACHSEN
100
AcDbLine
 62
7
  6
CONTINUOUS
 10
253.7485897897
 20
207.6292009228
 11
253.6926425074
 21
207.9506836342
  0
LINE
  5
29F
100
AcDbEntity
  8
RUNDUNGEN
100
AcDbLine
 62
7
  6
CONTINUOUS
 10
242.6518642354
 20
146.3173445697
 11
238.7250624099
 21
174.2579913846
  0
LINE
  5
2A0
100
AcDbEntity
  8
KONSTRUKTIONSELEMENTE
100
AcDbLine
 62
7
  6
CONTINUOUS
 10
224.8630817269
 20
101.1681880265
 11
224.8630817269
 21
104.7037219324
  0
LINE
  5
2A1
100
AcDbEntity
  8
KONSTRUKTIONSELEMENTE
100
AcDbLine
 62
7
  6
CONTINUOUS
 10
233.5029672128
 20
87.8130587628
 11
233.5029672128
 21
90.4293538532
  0
LINE
  5
2A2
100
AcDbEntity
  8
KONSTRUKTIONSELEMENTE
100
AcDbLine
 62
7
  6
CONTINUOUS
 10
233.9603688983
 20
86.3541520412
 11
233.9603688983
 21
86.8137714489
  0
LINE
  5
2A3
100
AcDbEntity
  8
0
100
AcDbLine
 62
7
  6
CONTINUOUS
 10
238.7250624099
 20
198.6269686021
 11
238.7250624099
 21
174.2579913846
  0
LINE
  5
2A4
100
AcDbEntity
  8
RUNDUNGEN
100
AcDbLine
 62
7
  6
CONTINUOUS
 10
244.2250624099
 20
128.6704204619
 11
244.2250624099
 21
160.5160887793
  0
LINE
  5
2A5
100
AcDbEntity
  8
BEZUGSACHSEN
100
AcDbLine
 62
7
  6
CONTINUOUS
 10
299.0666546502
 20
202.7709926994
 11
299.2440460157
 21
202.2781294122
  0
LINE
  5
2A6
100
AcDbEntity
  8
BEZUGSACHSEN
100
AcDbLine
 62
7
  6
CONTINUOUS
 10
303.4478535195
 20
204.4909626756
 11
303.6252448849
 21
203.9980993884
  0
LINE
  5
2A7
100
AcDbEntity
  8
BEZUGSACHSEN
100
AcDbLine
 62
7
  6
CONTINUOUS
 10
290.3514191493
 20
211.159400656
 11
290.475296895
 21
210.7815750108
  0
LINE
  5
2A8
100
AcDbEntity
  8
BEZUGSACHSEN
100
AcDbLine
 62
7
  6
CONTINUOUS
 10
294.1677297303
 20
213.445554556
 11
294.2916075232
 21
213.0677289867
  0
LINE
  5
2A9
100
AcDbEntity
  8
BEZUGSACHSEN
100
AcDbLine
 62
7
  6
CONTINUOUS
 10
289.2504816872
 20
216.2692896738
 11
289.3433513916
 21
215.9564700841
  0
LINE
  5
2AA
100
AcDbEntity
  8
BEZUGSACHSEN
100
AcDbLine
 62
7
  6
CONTINUOUS
 10
298.5368627152
 20
202.4149805057
 11
298.657582567
 21
202.0064516999
  0
LINE
  5
2AB
100
AcDbEntity
  8
BEZUGSACHSEN
100
AcDbLine
 62
7
  6
CONTINUOUS
 10
264.0745553639
 20
211.9420615876
 11
264.0048794416
 21
212.4872131851
  0
LINE
  5
2AC
100
AcDbEntity
  8
BEZUGSACHSEN
100
AcDbLine
 62
7
  6
CONTINUOUS
 10
263.4175652235
 20
211.8700066236
 11
263.4097478267
 21
212.3034867892
  0
LINE
  5
2AD
100
AcDbEntity
  8
BEZUGSACHSEN
100
AcDbLine
 62
7
  6
CONTINUOUS
 10
259.7527008894
 20
208.7193231343
 11
259.7495522956
 21
209.371944817
  0
LINE
  5
2AE
100
AcDbEntity
  8
KONSTRUKTIONSELEMENTE
100
AcDbLine
 62
7
  6
CONTINUOUS
 10
257.6557355508
 20
143.762988069
 11
257.6557355508
 21
135.9728549933
  0
LINE
  5
2AF
100
AcDbEntity
  8
0
100
AcDbLine
 62
7
  6
CONTINUOUS
 10
265.2250624099
 20
328.3424799933
 11
265.2250624099
 21
191.3424799933
  0
LINE
  5
2B0
100
AcDbEntity
  8
KONSTRUKTIONSELEMENTE
100
AcDbLine
 62
7
  6
CONTINUOUS
 10
267.7100624099
 20
43.8833759926
 11
267.7100624099
 21
30.483952111
  0
LINE
  5
2B1
100
AcDbEntity
  8
0
100
AcDbLine
 62
7
  6
CONTINUOUS
 10
269.1250624099
 20
121.4192139801
 11
269.1250624099
 21
135.9728549933
  0
LINE
  5
2B2
100
AcDbEntity
  8
KONSTRUKTIONSELEMENTE
100
AcDbLine
 62
7
  6
CONTINUOUS
 10
269.1250624099
 20
135.9728549933
 11
269.1250624099
 21
153.8424799933
  0
LINE
  5
2B3
100
AcDbEntity
  8
KONSTRUKTIONSELEMENTE
100
AcDbLine
 62
7
  6
CONTINUOUS
 10
270.3100624099
 20
28.6454744799
 11
270.3100624099
 21
43.3532955286
  0
LINE
  5
2B4
100
AcDbEntity
  8
KONSTRUKTIONSELEMENTE
100
AcDbLine
 62
7
  6
CONTINUOUS
 10
272.7250624099
 20
172.1881510608
 11
272.7250624099
 21
170.84473856
  0
LINE
  5
2B5
100
AcDbEntity
  8
KONSTRUKTIONSELEMENTE
100
AcDbLine
 62
7
  6
CONTINUOUS
 10
273.7250624099
 20
180.6329049176
 11
273.7250624099
 21
171.2111218338
  0
LINE
  5
2B6
100
AcDbEntity
  8
KONSTRUKTIONSELEMENTE
100
AcDbLine
 62
7
  6
CONTINUOUS
 10
273.7250624099
 20
128.6424799933
 11
273.7250624099
 21
113.5819191671
  0
LINE
  5
2B7
100
AcDbEntity
  8
KONSTRUKTIONSELEMENTE
100
AcDbLine
 62
7
  6
CONTINUOUS
 10
273.9750624099
 20
160.5695673183
 11
273.9750624099
 21
144.2424799933
  0
LINE
  5
2B8
100
AcDbEntity
  8
KONSTRUKTIONSELEMENTE
100
AcDbLine
 62
7
  6
CONTINUOUS
 10
278.4750624099
 20
160.5695673183
 11
278.4750624099
 21
144.2424799933
  0
LINE
  5
2B9
100
AcDbEntity
  8
KONSTRUKTIONSELEMENTE
100
AcDbLine
 62
7
  6
CONTINUOUS
 10
278.7250624099
 20
180.6329049176
 11
278.7250624099
 21
171.2111218338
  0
LINE
  5
2BA
100
AcDbEntity
  8
KONSTRUKTIONSELEMENTE
100
AcDbLine
 62
7
  6
CONTINUOUS
 10
278.7250624099
 20
128.6424799933
 11
278.7250624099
 21
113.5819191671
  0
LINE
  5
2BB
100
AcDbEntity
  8
KONSTRUKTIONSELEMENTE
100
AcDbLine
 62
7
  6
CONTINUOUS
 10
279.7250624099
 20
170.84473856
 11
279.7250624099
 21
172.1881510608
  0
LINE
  5
2BC
100
AcDbEntity
  8
BEZUGSACHSEN
100
AcDbLine
 62
7
  6
CONTINUOUS
 10
289.8171368395
 20
216.3158984839
 11
289.9086596439
 21
215.7282889184
  0
LINE
  5
2BD
100
AcDbEntity
  8
BEZUGSACHSEN
100
AcDbLine
 62
7
  6
CONTINUOUS
 10
301.9939615546
 20
202.5346621362
 11
302.065394546
 21
201.970596419
  0
LINE
  5
2BE
100
AcDbEntity
  8
BEZUGSACHSEN
100
AcDbLine
 62
7
  6
CONTINUOUS
 10
289.6989419831
 20
211.264750903
 11
289.7741724764
 21
210.6164732392
  0
LINE
  5
2BF
100
AcDbEntity
  8
BEZUGSACHSEN
100
AcDbLine
 62
7
  6
CONTINUOUS
 10
294.8688560996
 20
213.610655061
 11
294.9440866166
 21
212.9623774351
  0
LINE
  5
2C0
100
AcDbEntity
  8
BEZUGSACHSEN
100
AcDbLine
 62
7
  6
CONTINUOUS
 10
298.5221012559
 20
202.8947117539
 11
298.5368627152
 21
202.4149805057
  0
LINE
  5
2C1
100
AcDbEntity
  8
BEZUGSACHSEN
100
AcDbLine
 62
7
  6
CONTINUOUS
 10
299.0592726096
 20
203.0108602444
 11
299.0666546502
 21
202.7709926994
  0
LINE
  5
2C2
100
AcDbEntity
  8
BEZUGSACHSEN
100
AcDbLine
 62
7
  6
CONTINUOUS
 10
304.2117056653
 20
204.2697809112
 11
304.2264697465
 21
203.7900458213
  0
LINE
  5
2C3
100
AcDbEntity
  8
KONSTRUKTIONSELEMENTE
100
AcDbLine
 62
7
  6
CONTINUOUS
 10
282.1400624099
 20
28.6454744799
 11
282.1400624099
 21
43.3532955286
  0
LINE
  5
2C4
100
AcDbEntity
  8
0
100
AcDbLine
 62
7
  6
CONTINUOUS
 10
283.3250624099
 20
135.9728549933
 11
283.3250624099
 21
121.4192139801
  0
LINE
  5
2C5
100
AcDbEntity
  8
KONSTRUKTIONSELEMENTE
100
AcDbLine
 62
7
  6
CONTINUOUS
 10
283.3250624099
 20
135.9728549933
 11
283.3250624099
 21
153.8424799933
  0
LINE
  5
2C6
100
AcDbEntity
  8
KONSTRUKTIONSELEMENTE
100
AcDbLine
 62
7
  6
CONTINUOUS
 10
284.7400624099
 20
30.483952111
 11
284.7400624099
 21
43.8129149364
  0
LINE
  5
2C7
100
AcDbEntity
  8
0
100
AcDbLine
 62
7
  6
CONTINUOUS
 10
287.2250624099
 20
328.3424799933
 11
287.2250624099
 21
191.3424799933
  0
LINE
  5
2C8
100
AcDbEntity
  8
KONSTRUKTIONSELEMENTE
100
AcDbLine
 62
7
  6
CONTINUOUS
 10
294.794389269
 20
143.762988069
 11
294.794389269
 21
135.9728549933
  0
LINE
  5
2C9
100
AcDbEntity
  8
RUNDUNGEN
100
AcDbLine
 62
7
  6
CONTINUOUS
 10
308.2250624099
 20
160.5160887793
 11
308.2250624099
 21
128.6704204619
  0
LINE
  5
2CA
100
AcDbEntity
  8
BEZUGSACHSEN
100
AcDbLine
 62
7
  6
CONTINUOUS
 10
290.3812578088
 20
211.5919227335
 11
290.3514191493
 21
211.159400656
  0
LINE
  5
2CB
100
AcDbEntity
  8
BEZUGSACHSEN
100
AcDbLine
 62
7
  6
CONTINUOUS
 10
288.48460721
 20
214.1004243062
 11
288.2335643548
 21
211.0354180757
  0
LINE
  5
2CC
100
AcDbEntity
  8
BEZUGSACHSEN
100
AcDbLine
 62
7
  6
CONTINUOUS
 10
287.8237332969
 20
214.0918459806
 11
287.5740394981
 21
211.3016288554
  0
LINE
  5
2CD
100
AcDbEntity
  8
BEZUGSACHSEN
100
AcDbLine
 62
7
  6
CONTINUOUS
 10
254.2932949678
 20
207.2812875425
 11
254.3722931177
 21
207.7547011332
  0
LINE
  5
2CE
100
AcDbEntity
  8
BEZUGSACHSEN
100
AcDbLine
 62
7
  6
CONTINUOUS
 10
263.9664742317
 20
211.2984444883
 11
264.0745553639
 21
211.9420615876
  0
LINE
  5
2CF
100
AcDbEntity
  8
BEZUGSACHSEN
100
AcDbLine
 62
7
  6
CONTINUOUS
 10
259.0368248901
 20
208.7990488486
 11
259.1144424096
 21
209.1890147891
  0
LINE
  5
2D0
100
AcDbEntity
  8
KONSTRUKTIONSELEMENTE
100
AcDbLine
 62
7
  6
CONTINUOUS
 10
311.8053759338
 20
53.7541660588
 11
311.8053759338
 21
50.2186321529
  0
LINE
  5
2D1
100
AcDbEntity
  8
0
100
AcDbLine
 62
7
  6
CONTINUOUS
 10
313.7250624099
 20
174.2579913846
 11
313.7250624099
 21
198.6269686021
  0
LINE
  5
2D2
100
AcDbEntity
  8
BEZUGSACHSEN
100
AcDbLine
 62
7
  6
CONTINUOUS
 10
298.5640087162
 20
203.2901123811
 11
298.5221012559
 21
202.8947117539
  0
LINE
  5
2D3
100
AcDbEntity
  8
BEZUGSACHSEN
100
AcDbLine
 62
7
  6
CONTINUOUS
 10
301.5627460179
 20
202.4897199611
 11
301.5208385947
 21
202.0943193588
  0
LINE
  5
2D4
100
AcDbEntity
  8
BEZUGSACHSEN
100
AcDbLine
 62
7
  6
CONTINUOUS
 10
303.6252448849
 20
203.9980993884
 11
303.5833374618
 21
203.6026987861
  0
LINE
  5
2D5
100
AcDbEntity
  8
BEZUGSACHSEN
100
AcDbLine
 62
7
  6
CONTINUOUS
 10
289.3433513916
 20
215.9564700841
 11
289.2942216612
 21
215.5633003626
  0
LINE
  5
2D6
100
AcDbEntity
  8
BEZUGSACHSEN
100
AcDbLine
 62
7
  6
CONTINUOUS
 10
289.9086596439
 20
215.7282889184
 11
289.8595299135
 21
215.335119197
  0
LINE
  5
2D7
100
AcDbEntity
  8
BEZUGSACHSEN
100
AcDbLine
 62
7
  6
CONTINUOUS
 10
289.7962326333
 20
211.8056575496
 11
289.6989419831
 21
211.264750903
  0
LINE
  5
2D8
100
AcDbEntity
  8
BEZUGSACHSEN
100
AcDbLine
 62
7
  6
CONTINUOUS
 10
253.6416179021
 20
207.3165285792
 11
253.7485897897
 21
207.6292009228
  0
LINE
  5
2D9
100
AcDbEntity
  8
BEZUGSACHSEN
100
AcDbLine
 62
7
  6
CONTINUOUS
 10
259.5958912499
 20
208.2657020084
 11
259.7527008894
 21
208.7193231343
  0
LINE
  5
2DA
100
AcDbEntity
  8
KONSTRUKTIONSELEMENTE
100
AcDbLine
 62
7
  6
CONTINUOUS
 10
341.7254445706
 20
100.0418766082
 11
341.7254445706
 21
96.5063427023
  0
LINE
  5
2DB
100
AcDbEntity
  8
RUNDUNGEN
100
AcDbLine
 62
7
  6
CONTINUOUS
 10
309.7982605844
 20
146.3173445697
 11
313.7250624099
 21
174.2579913846
  0
LINE
  5
2DC
100
AcDbEntity
  8
BEZUGSACHSEN
100
AcDbLine
 62
7
  6
CONTINUOUS
 10
294.2916075232
 20
213.0677289867
 11
294.1755061404
 21
212.688893362
  0
LINE
  5
2DD
100
AcDbEntity
  8
BEZUGSACHSEN
100
AcDbLine
 62
7
  6
CONTINUOUS
 10
299.1578516114
 20
203.3219264089
 11
299.0592726096
 21
203.0108602444
  0
LINE
  5
2DE
100
AcDbEntity
  8
BEZUGSACHSEN
100
AcDbLine
 62
7
  6
CONTINUOUS
 10
290.5648129205
 20
212.079141319
 11
290.3812578088
 21
211.5919227335
  0
LINE
  5
2DF
100
AcDbEntity
  8
BEZUGSACHSEN
100
AcDbLine
 62
7
  6
CONTINUOUS
 10
263.2746456649
 20
211.4989649631
 11
263.4175652235
 21
211.8700066236
  0
LINE
  5
2E0
100
AcDbEntity
  8
BEZUGSACHSEN
100
AcDbLine
 62
7
  6
CONTINUOUS
 10
304.2264697465
 20
203.7900458213
 11
304.0293144855
 21
203.1679097317
  0
LINE
  5
2E1
100
AcDbEntity
  8
BEZUGSACHSEN
100
AcDbLine
 62
7
  6
CONTINUOUS
 10
289.2942216612
 20
215.5633003626
 11
289.1508730361
 21
215.208160794
  0
LINE
  5
2E2
100
AcDbEntity
  8
BEZUGSACHSEN
100
AcDbLine
 62
7
  6
CONTINUOUS
 10
289.8595299135
 20
215.335119197
 11
289.6683984579
 21
214.8615998827
  0
LINE
  5
2E3
100
AcDbEntity
  8
BEZUGSACHSEN
100
AcDbLine
 62
7
  6
CONTINUOUS
 10
290.047241663
 20
212.4012593997
 11
289.7962326333
 21
211.8056575496
  0
LINE
  5
2E4
100
AcDbEntity
  8
BEZUGSACHSEN
100
AcDbLine
 62
7
  6
CONTINUOUS
 10
294.9440866166
 20
212.9623774351
 11
294.6930773979
 21
212.3667752814
  0
LINE
  5
2E5
100
AcDbEntity
  8
BEZUGSACHSEN
100
AcDbLine
 62
7
  6
CONTINUOUS
 10
263.7346761297
 20
210.8781701062
 11
263.9664742317
 21
211.2984444883
  0
LINE
  5
2E6
100
AcDbEntity
  8
BEZUGSACHSEN
100
AcDbLine
 62
7
  6
CONTINUOUS
 10
258.8000361164
 20
208.4449280228
 11
259.0368248901
 21
208.7990488486
  0
LINE
  5
2E7
100
AcDbEntity
  8
0
100
AcDbLine
 62
7
  6
CONTINUOUS
 10
253.0487878318
 20
218.3418853065
 11
238.7250624099
 21
198.6269686021
  0
LINE
  5
2E8
100
AcDbEntity
  8
BEZUGSACHSEN
100
AcDbLine
 62
7
  6
CONTINUOUS
 10
259.2799108514
 20
207.8479263092
 11
259.5958912499
 21
208.2657020084
  0
LINE
  5
2E9
100
AcDbEntity
  8
0
100
AcDbLine
 62
7
  6
CONTINUOUS
 10
401.2250624099
 20
442.3424799933
 11
401.2250624099
 21
652.3424799933
  0
LINE
  5
2EA
100
AcDbEntity
  8
BEZUGSACHSEN
100
AcDbLine
 62
7
  6
CONTINUOUS
 10
298.7685434237
 20
203.6723847861
 11
298.5640087162
 21
203.2901123811
  0
LINE
  5
2EB
100
AcDbEntity
  8
BEZUGSACHSEN
100
AcDbLine
 62
7
  6
CONTINUOUS
 10
302.065394546
 20
201.970596419
 11
301.8608572444
 21
201.5883278744
  0
LINE
  5
2EC
100
AcDbEntity
  8
BEZUGSACHSEN
100
AcDbLine
 62
7
  6
CONTINUOUS
 10
303.5833374618
 20
203.6026987861
 11
303.3788027543
 21
203.2204263811
  0
LINE
  5
2ED
100
AcDbEntity
  8
BEZUGSACHSEN
100
AcDbLine
 62
7
  6
CONTINUOUS
 10
290.047241663
 20
212.4012593997
 11
291.0590505266
 21
214.0270085189
  0
LINE
  5
2EE
100
AcDbEntity
  8
BEZUGSACHSEN
100
AcDbLine
 62
7
  6
CONTINUOUS
 10
290.5648129205
 20
212.079141319
 11
291.5766217841
 21
213.7048904382
  0
LINE
  5
2EF
100
AcDbEntity
  8
BEZUGSACHSEN
100
AcDbLine
 62
7
  6
CONTINUOUS
 10
292.7920639926
 20
212.1966211026
 11
292.387340485
 21
211.5463215156
  0
LINE
  5
2F0
100
AcDbEntity
  8
BEZUGSACHSEN
100
AcDbLine
 62
7
  6
CONTINUOUS
 10
293.1636973713
 20
211.0631443946
 11
292.6240659333
 21
210.1960781269
  0
LINE
  5
2F1
100
AcDbEntity
  8
BEZUGSACHSEN
100
AcDbLine
 62
7
  6
CONTINUOUS
 10
294.0859921365
 20
211.3913259009
 11
293.0741832729
 21
209.7655767817
  0
LINE
  5
2F2
100
AcDbEntity
  8
BEZUGSACHSEN
100
AcDbLine
 62
7
  6
CONTINUOUS
 10
299.3130968551
 20
203.5486657566
 11
299.1578516114
 21
203.3219264089
  0
LINE
  5
2F3
100
AcDbEntity
  8
BEZUGSACHSEN
100
AcDbLine
 62
7
  6
CONTINUOUS
 10
301.5208385947
 20
202.0943193588
 11
301.2103453648
 21
201.640844424
  0
LINE
  5
2F4
100
AcDbEntity
  8
BEZUGSACHSEN
100
AcDbLine
 62
7
  6
CONTINUOUS
 10
288.9133057839
 20
214.8910520414
 11
289.1508730361
 21
215.208160794
  0
LINE
  5
2F5
100
AcDbEntity
  8
BEZUGSACHSEN
100
AcDbLine
 62
7
  6
CONTINUOUS
 10
289.4308312058
 20
214.5444911301
 11
289.6683984579
 21
214.8615998827
  0
LINE
  5
2F6
100
AcDbEntity
  8
BEZUGSACHSEN
100
AcDbLine
 62
7
  6
CONTINUOUS
 10
250.0458691118
 20
207.1129072368
 11
251.6652158429
 21
208.936079526
  0
LINE
  5
2F7
100
AcDbEntity
  8
BEZUGSACHSEN
100
AcDbLine
 62
7
  6
CONTINUOUS
 10
250.9279380635
 20
207.1448212719
 11
252.209920828
 21
208.5881659284
  0
LINE
  5
2F8
100
AcDbEntity
  8
BEZUGSACHSEN
100
AcDbLine
 62
7
  6
CONTINUOUS
 10
252.3596351376
 20
205.8731839227
 11
253.6416179021
 21
207.3165285792
  0
LINE
  5
2F9
100
AcDbEntity
  8
BEZUGSACHSEN
100
AcDbLine
 62
7
  6
CONTINUOUS
 10
252.9323138603
 20
205.364529078
 11
254.079351096
 21
206.6559427466
  0
LINE
  5
2FA
100
AcDbEntity
  8
BEZUGSACHSEN
100
AcDbLine
 62
7
  6
CONTINUOUS
 10
254.5318529743
 20
203.1284438118
 11
254.9366896571
 21
203.5842368841
  0
LINE
  5
2FB
100
AcDbEntity
  8
BEZUGSACHSEN
100
AcDbLine
 62
7
  6
CONTINUOUS
 10
256.6235091044
 20
205.483374613
 11
257.0958186963
 21
206.0151333422
  0
LINE
  5
2FC
100
AcDbEntity
  8
BEZUGSACHSEN
100
AcDbLine
 62
7
  6
CONTINUOUS
 10
262.9809890644
 20
211.1903619641
 11
263.2746456649
 21
211.4989649631
  0
LINE
  5
2FD
100
AcDbEntity
  8
BEZUGSACHSEN
100
AcDbLine
 62
7
  6
CONTINUOUS
 10
263.3521400011
 20
210.5203337635
 11
263.7346761297
 21
210.8781701062
  0
LINE
  5
2FE
100
AcDbEntity
  8
0
100
AcDbLine
 62
7
  6
CONTINUOUS
 10
437.2250624099
 20
442.3424799933
 11
437.2250624099
 21
652.3424799933
  0
LINE
  5
2FF
100
AcDbEntity
  8
BEZUGSACHSEN
100
AcDbLine
 62
7
  6
CONTINUOUS
 10
291.0590505266
 20
214.0270085189
 11
291.4825808653
 21
214.5152396174
  0
LINE
  5
300
100
AcDbEntity
  8
BEZUGSACHSEN
100
AcDbLine
 62
7
  6
CONTINUOUS
 10
299.0297497097
 20
203.9703227534
 11
298.7685434237
 21
203.6723847861
  0
LINE
  5
301
100
AcDbEntity
  8
BEZUGSACHSEN
100
AcDbLine
 62
7
  6
CONTINUOUS
 10
291.5766217841
 20
213.7048904382
 11
291.9326980159
 21
214.0847379686
  0
LINE
  5
302
100
AcDbEntity
  8
BEZUGSACHSEN
100
AcDbLine
 62
7
  6
CONTINUOUS
 10
292.7181069938
 20
209.3857291754
 11
293.0741832729
 21
209.7655767817
  0
LINE
  5
303
100
AcDbEntity
  8
BEZUGSACHSEN
100
AcDbLine
 62
7
  6
CONTINUOUS
 10
301.8608572444
 20
201.5883278744
 11
301.4936951043
 21
201.2191835668
  0
LINE
  5
304
100
AcDbEntity
  8
BEZUGSACHSEN
100
AcDbLine
 62
7
  6
CONTINUOUS
 10
304.0293144855
 20
203.1679097317
 11
303.6621498997
 21
202.7987693843
  0
LINE
  5
305
100
AcDbEntity
  8
BEZUGSACHSEN
100
AcDbLine
 62
7
  6
CONTINUOUS
 10
292.3354436194
 20
209.924613861
 11
292.6240659333
 21
210.1960781269
  0
LINE
  5
306
100
AcDbEntity
  8
BEZUGSACHSEN
100
AcDbLine
 62
7
  6
CONTINUOUS
 10
253.9370533302
 20
211.251337532
 11
254.4122051604
 21
211.6332683597
  0
LINE
  5
307
100
AcDbEntity
  8
BEZUGSACHSEN
100
AcDbLine
 62
7
  6
CONTINUOUS
 10
256.3128115752
 20
213.1609909419
 11
256.7879631789
 21
213.5429215875
  0
LINE
  5
308
100
AcDbEntity
  8
BEZUGSACHSEN
100
AcDbLine
 62
7
  6
CONTINUOUS
 10
258.4832682296
 20
208.1903074711
 11
258.8000361164
 21
208.4449280228
  0
LINE
  5
309
100
AcDbEntity
  8
BEZUGSACHSEN
100
AcDbLine
 62
7
  6
CONTINUOUS
 10
258.9631429645
 20
207.5933057574
 11
259.2799108514
 21
207.8479263092
  0
LINE
  5
30A
100
AcDbEntity
  8
BEZUGSACHSEN
100
AcDbLine
 62
7
  6
CONTINUOUS
 10
288.9570457579
 20
214.1850627303
 11
289.4308312058
 21
214.5444911301
  0
LINE
  5
30B
100
AcDbEntity
  8
BEZUGSACHSEN
100
AcDbLine
 62
7
  6
CONTINUOUS
 10
251.6652158429
 20
208.936079526
 11
252.0980262634
 21
209.2311313513
  0
LINE
  5
30C
100
AcDbEntity
  8
BEZUGSACHSEN
100
AcDbLine
 62
7
  6
CONTINUOUS
 10
258.3116984595
 20
214.5872970161
 11
260.44479099
 21
215.7688880147
  0
LINE
  5
30D
100
AcDbEntity
  8
BEZUGSACHSEN
100
AcDbLine
 62
7
  6
CONTINUOUS
 10
259.2161224854
 20
214.2126666433
 11
260.8159418834
 21
215.0988598923
  0
LINE
  5
30E
100
AcDbEntity
  8
BEZUGSACHSEN
100
AcDbLine
 62
7
  6
CONTINUOUS
 10
299.6128098298
 20
207.3807178666
 11
300.386793393
 21
208.0470179572
  0
LINE
  5
30F
100
AcDbEntity
  8
BEZUGSACHSEN
100
AcDbLine
 62
7
  6
CONTINUOUS
 10
296.9146057544
 20
204.2535101767
 11
300.6877748457
 21
207.5017224476
  0
LINE
  5
310
100
AcDbEntity
  8
BEZUGSACHSEN
100
AcDbLine
 62
7
  6
CONTINUOUS
 10
301.8594875021
 20
207.7060142776
 11
297.3123351187
 21
203.7915021494
  0
LINE
  5
311
100
AcDbEntity
  8
BEZUGSACHSEN
100
AcDbLine
 62
7
  6
CONTINUOUS
 10
291.4825808653
 20
214.5152396174
 11
291.9249216058
 21
214.8413991626
  0
LINE
  5
312
100
AcDbEntity
  8
BEZUGSACHSEN
100
AcDbLine
 62
7
  6
CONTINUOUS
 10
301.102007507
 20
203.404240245
 11
301.5258410031
 21
203.6890499651
  0
LINE
  5
313
100
AcDbEntity
  8
BEZUGSACHSEN
100
AcDbLine
 62
7
  6
CONTINUOUS
 10
303.3788027543
 20
203.2204263811
 11
303.1668857094
 21
203.0780213215
  0
LINE
  5
314
100
AcDbEntity
  8
BEZUGSACHSEN
100
AcDbLine
 62
7
  6
CONTINUOUS
 10
301.2103453648
 20
201.640844424
 11
300.7865118687
 21
201.3560347039
  0
LINE
  5
315
100
AcDbEntity
  8
BEZUGSACHSEN
100
AcDbLine
 62
7
  6
CONTINUOUS
 10
303.6621498997
 20
202.7987693843
 11
303.4502328548
 21
202.6563643248
  0
LINE
  5
316
100
AcDbEntity
  8
BEZUGSACHSEN
100
AcDbLine
 62
7
  6
CONTINUOUS
 10
301.4936951043
 20
201.2191835668
 11
301.0698616082
 21
200.9343738467
  0
LINE
  5
317
100
AcDbEntity
  8
BEZUGSACHSEN
100
AcDbLine
 62
7
  6
CONTINUOUS
 10
291.9326980159
 20
214.0847379686
 11
292.3075830531
 21
214.3025157818
  0
LINE
  5
318
100
AcDbEntity
  8
BEZUGSACHSEN
100
AcDbLine
 62
7
  6
CONTINUOUS
 10
288.6293047578
 20
214.7303526485
 11
288.9133057839
 21
214.8910520414
  0
LINE
  5
319
100
AcDbEntity
  8
BEZUGSACHSEN
100
AcDbLine
 62
7
  6
CONTINUOUS
 10
261.3811696665
 20
210.3041687151
 11
262.9809890644
 21
211.1903619641
  0
LINE
  5
31A
100
AcDbEntity
  8
BEZUGSACHSEN
100
AcDbLine
 62
7
  6
CONTINUOUS
 10
261.2190474705
 20
209.3387427648
 11
263.3521400011
 21
210.5203337635
  0
LINE
  5
31B
100
AcDbEntity
  8
BEZUGSACHSEN
100
AcDbLine
 62
7
  6
CONTINUOUS
 10
252.209920828
 20
208.5881659284
 11
252.5077856231
 21
208.7312866571
  0
LINE
  5
31C
100
AcDbEntity
  8
BEZUGSACHSEN
100
AcDbLine
 62
7
  6
CONTINUOUS
 10
258.4872043257
 20
207.3745306236
 11
258.9631429645
 21
207.5933057574
  0
LINE
  5
31D
100
AcDbEntity
  8
BEZUGSACHSEN
100
AcDbLine
 62
7
  6
CONTINUOUS
 10
258.0865216827
 20
208.0351875575
 11
258.4832682296
 21
208.1903074711
  0
LINE
  5
31E
100
AcDbEntity
  8
BEZUGSACHSEN
100
AcDbLine
 62
7
  6
CONTINUOUS
 10
291.9249216058
 20
214.8413991626
 11
292.5397834664
 21
215.0601876527
  0
LINE
  5
31F
100
AcDbEntity
  8
0
100
AcDbLine
 62
7
  6
CONTINUOUS
 10
265.2250624099
 20
222.2981967437
 11
253.0487878318
 21
218.3418853065
  0
LINE
  5
320
100
AcDbEntity
  8
KONSTRUKTIONSELEMENTE
100
AcDbLine
 62
7
  6
CONTINUOUS
 10
300.627795089
 20
59.2683570536
 11
323.4069193969
 21
93.8105160464
  0
LINE
  5
321
100
AcDbEntity
  8
RUNDUNGEN
100
AcDbLine
 62
7
  6
CONTINUOUS
 10
309.7982605844
 20
146.3173445697
 11
308.9269290805
 21
145.2789321196
  0
LINE
  5
322
100
AcDbEntity
  8
0
100
AcDbLine
 62
7
  6
CONTINUOUS
 10
300.8530894836
 20
119.156904774
 11
307.3543084025
 21
126.9047557768
  0
LINE
  5
323
100
AcDbEntity
  8
RUNDUNGEN
100
AcDbLine
 62
7
  6
CONTINUOUS
 10
307.3543084025
 20
126.9047557768
 11
307.7571512961
 21
127.3848452425
  0
LINE
  5
324
100
AcDbEntity
  8
BEZUGSACHSEN
100
AcDbLine
 62
7
  6
CONTINUOUS
 10
301.7353784158
 20
205.666053176
 11
302.2158808222
 21
205.8665322688
  0
LINE
  5
325
100
AcDbEntity
  8
BEZUGSACHSEN
100
AcDbLine
 62
7
  6
CONTINUOUS
 10
302.9697304485
 20
202.4558852319
 11
303.4502328548
 21
202.6563643248
  0
LINE
  5
326
100
AcDbEntity
  8
BEZUGSACHSEN
100
AcDbLine
 62
7
  6
CONTINUOUS
 10
292.1032451097
 20
209.1669406474
 11
292.7181069938
 21
209.3857291754
  0
LINE
  5
327
100
AcDbEntity
  8
BEZUGSACHSEN
100
AcDbLine
 62
7
  6
CONTINUOUS
 10
300.6953149075
 20
200.8051009945
 11
301.0698616082
 21
200.9343738467
  0
LINE
  5
328
100
AcDbEntity
  8
KONSTRUKTIONSELEMENTE
100
AcDbLine
 62
7
  6
CONTINUOUS
 10
311.5200099464
 20
49.6840093167
 11
311.7444759954
 21
50.0243885977
  0
LINE
  5
329
100
AcDbEntity
  8
KONSTRUKTIONSELEMENTE
100
AcDbLine
 62
7
  6
CONTINUOUS
 10
340.5670414461
 20
93.7307938539
 11
341.1164451863
 21
94.5639071506
  0
LINE
  5
32A
100
AcDbEntity
  8
KONSTRUKTIONSELEMENTE
100
AcDbLine
 62
7
  6
CONTINUOUS
 10
269.463170222
 20
122.3377767728
 11
269.1250624099
 21
122.2262927182
  0
LINE
  5
32B
100
AcDbEntity
  8
KONSTRUKTIONSELEMENTE
100
AcDbLine
 62
7
  6
CONTINUOUS
 10
257.6495500966
 20
118.4424799933
 11
228.6160630256
 21
108.8692884158
  0
LINE
  5
32C
100
AcDbEntity
  8
KONSTRUKTIONSELEMENTE
100
AcDbLine
 62
7
  6
CONTINUOUS
 10
269.463170222
 20
118.8022428669
 11
228.6160630256
 21
105.3337545099
  0
LINE
  5
32D
100
AcDbEntity
  8
KONSTRUKTIONSELEMENTE
100
AcDbLine
 62
7
  6
CONTINUOUS
 10
234.4827603492
 20
99.7001782694
 11
226.8244595488
 21
97.1750120522
  0
LINE
  5
32E
100
AcDbEntity
  8
KONSTRUKTIONSELEMENTE
100
AcDbLine
 62
7
  6
CONTINUOUS
 10
229.436996257
 20
97.890243516
 11
235.1966987078
 21
99.7893862148
  0
LINE
  5
32F
100
AcDbEntity
  8
KONSTRUKTIONSELEMENTE
100
AcDbLine
 62
7
  6
CONTINUOUS
 10
234.6288616025
 20
91.6790237982
 11
240.5198622182
 21
93.6214593499
  0
LINE
  5
330
100
AcDbEntity
  8
KONSTRUKTIONSELEMENTE
100
AcDbLine
 62
7
  6
CONTINUOUS
 10
234.6288616025
 20
89.0627287078
 11
240.5198622182
 21
91.0051642596
  0
LINE
  5
331
100
AcDbEntity
  8
KONSTRUKTIONSELEMENTE
100
AcDbLine
 62
7
  6
CONTINUOUS
 10
233.9603688983
 20
86.8137714489
 11
241.6186696987
 21
89.3389376662
  0
LINE
  5
332
100
AcDbEntity
  8
KONSTRUKTIONSELEMENTE
100
AcDbLine
 62
7
  6
CONTINUOUS
 10
233.9603688983
 20
86.3541520412
 11
241.6186696987
 21
88.8793182584
  0
LINE
  5
333
100
AcDbEntity
  8
KONSTRUKTIONSELEMENTE
100
AcDbLine
 62
7
  6
CONTINUOUS
 10
557.0242416983
 20
32.1810083858
 11
560.5597756043
 21
28.6454744799
  0
LINE
  5
334
100
AcDbEntity
  8
KONSTRUKTIONSELEMENTE
100
AcDbLine
 62
7
  6
CONTINUOUS
 10
629.0893131765
 20
97.1750120522
 11
629.0219150184
 21
97.1783245721
  0
LINE
  5
335
100
AcDbEntity
  8
KONSTRUKTIONSELEMENTE
100
AcDbLine
 62
7
  6
CONTINUOUS
 10
578.9445519151
 20
47.0302507908
 11
578.4849325073
 21
47.4898701985
  0
LINE
  5
336
100
AcDbEntity
  8
KONSTRUKTIONSELEMENTE
100
AcDbLine
 62
7
  6
CONTINUOUS
 10
575.8686374169
 20
50.1061652889
 11
575.4090180092
 21
50.5657846967
  0
LINE
  5
337
100
AcDbEntity
  8
0
100
AcDbLine
 62
7
  6
CONTINUOUS
 10
751.2893152887
 20
146.3173445697
 11
760.1531791348
 21
146.3173445697
  0
LINE
  5
338
100
AcDbEntity
  8
KONSTRUKTIONSELEMENTE
100
AcDbLine
 62
7
  6
CONTINUOUS
 10
618.2684531655
 20
86.3541520412
 11
617.8088337577
 21
86.8137714489
  0
LINE
  5
339
100
AcDbEntity
  8
KONSTRUKTIONSELEMENTE
100
AcDbLine
 62
7
  6
CONTINUOUS
 10
614.7329192596
 20
89.8896859471
 11
615.1925386673
 21
89.4300665393
  0
LINE
  5
33A
100
AcDbEntity
  8
0
100
AcDbLine
 62
7
  6
CONTINUOUS
 10
751.3883042943
 20
174.2579913846
 11
760.0541901292
 21
174.2579913846
  0
LINE
  5
33B
100
AcDbEntity
  8
KONSTRUKTIONSELEMENTE
100
AcDbLine
 62
7
  6
CONTINUOUS
 10
626.006304339
 20
98.6016801359
 11
626.9804473543
 21
97.6275371206
  0
LINE
  5
33C
100
AcDbEntity
  8
0
100
AcDbLine
 62
7
  6
CONTINUOUS
 10
751.5376586913
 20
198.6269686021
 11
759.9048357322
 21
198.6269686021
  0
LINE
  5
33D
100
AcDbEntity
  8
BEZUGSACHSEN
100
AcDbLine
 62
7
  6
CONTINUOUS
 10
762.9121462036
 20
203.1284438118
 11
763.4624762637
 21
203.1284438118
  0
LINE
  5
33E
100
AcDbEntity
  8
BEZUGSACHSEN
100
AcDbLine
 62
7
  6
CONTINUOUS
 10
648.2410164714
 20
123.3977831589
 11
651.7765503773
 21
119.862249253
  0
LINE
  5
33F
100
AcDbEntity
  8
KONSTRUKTIONSELEMENTE
100
AcDbLine
 62
7
  6
CONTINUOUS
 10
644.7054825655
 20
127.9939772366
 11
648.2410164714
 21
124.4584433307
  0
LINE
  5
340
100
AcDbEntity
  8
KONSTRUKTIONSELEMENTE
100
AcDbLine
 62
7
  6
CONTINUOUS
 10
645.059035956
 20
128.3475306272
 11
648.594569862
 21
124.8119967213
  0
LINE
  5
341
100
AcDbEntity
  8
BEZUGSACHSEN
100
AcDbLine
 62
7
  6
CONTINUOUS
 10
762.9223579555
 20
205.483374613
 11
763.4648575568
 21
205.483374613
  0
LINE
  5
342
100
AcDbEntity
  8
BEZUGSACHSEN
100
AcDbLine
 62
7
  6
CONTINUOUS
 10
761.4192349541
 20
207.1129072368
 11
761.9687304078
 21
207.1129072368
  0
LINE
  5
343
100
AcDbEntity
  8
BEZUGSACHSEN
100
AcDbLine
 62
7
  6
CONTINUOUS
 10
762.135330879
 20
207.3165285792
 11
762.6124037202
 21
207.3165285792
  0
LINE
  5
344
100
AcDbEntity
  8
BEZUGSACHSEN
100
AcDbLine
 62
7
  6
CONTINUOUS
 10
762.8280326948
 20
207.3189106459
 11
763.3654395217
 21
207.3189106459
  0
LINE
  5
345
100
AcDbEntity
  8
BEZUGSACHSEN
100
AcDbLine
 62
7
  6
CONTINUOUS
 10
762.7100075333
 20
207.4622915892
 11
763.2343001971
 21
207.4622915892
  0
LINE
  5
346
100
AcDbEntity
  8
BEZUGSACHSEN
100
AcDbLine
 62
7
  6
CONTINUOUS
 10
762.1372852554
 20
207.6292009228
 11
762.578063432
 21
207.6292009228
  0
LINE
  5
347
100
AcDbEntity
  8
BEZUGSACHSEN
100
AcDbLine
 62
7
  6
CONTINUOUS
 10
762.6675507549
 20
207.732982479
 11
763.1046729241
 21
207.732982479
  0
LINE
  5
348
100
AcDbEntity
  8
BEZUGSACHSEN
100
AcDbLine
 62
7
  6
CONTINUOUS
 10
762.1379320006
 20
207.9506836342
 11
762.5123726854
 21
207.9506836342
  0
LINE
  5
349
100
AcDbEntity
  8
BEZUGSACHSEN
100
AcDbLine
 62
7
  6
CONTINUOUS
 10
762.5719466371
 20
208.16682862
 11
762.9444115888
 21
208.16682862
  0
LINE
  5
34A
100
AcDbEntity
  8
BEZUGSACHSEN
100
AcDbLine
 62
7
  6
CONTINUOUS
 10
763.0927686089
 20
208.1903074711
 11
763.2734775411
 21
208.1903074711
  0
LINE
  5
34B
100
AcDbEntity
  8
BEZUGSACHSEN
100
AcDbLine
 62
7
  6
CONTINUOUS
 10
762.1371419224
 20
208.2809764962
 11
762.4158298577
 21
208.2809764962
  0
LINE
  5
34C
100
AcDbEntity
  8
BEZUGSACHSEN
100
AcDbLine
 62
7
  6
CONTINUOUS
 10
762.9908307747
 20
208.4449280228
 11
763.2726630298
 21
208.4449280228
  0
LINE
  5
34D
100
AcDbEntity
  8
BEZUGSACHSEN
100
AcDbLine
 62
7
  6
CONTINUOUS
 10
762.1351489432
 20
208.535304156
 11
762.3204463252
 21
208.535304156
  0
LINE
  5
34E
100
AcDbEntity
  8
BEZUGSACHSEN
100
AcDbLine
 62
7
  6
CONTINUOUS
 10
762.8710331353
 20
208.7990488486
 11
763.2385811436
 21
208.7990488486
  0
LINE
  5
34F
100
AcDbEntity
  8
BEZUGSACHSEN
100
AcDbLine
 62
7
  6
CONTINUOUS
 10
761.4322087328
 20
208.936079526
 11
761.9766867013
 21
208.936079526
  0
LINE
  5
350
100
AcDbEntity
  8
BEZUGSACHSEN
100
AcDbLine
 62
7
  6
CONTINUOUS
 10
762.7463544928
 20
209.1890147891
 11
763.1723334127
 21
209.1890147891
  0
LINE
  5
351
100
AcDbEntity
  8
BEZUGSACHSEN
100
AcDbLine
 62
7
  6
CONTINUOUS
 10
761.4611252835
 20
209.2311313513
 11
762.0045895647
 21
209.2311313513
  0
LINE
  5
352
100
AcDbEntity
  8
BEZUGSACHSEN
100
AcDbLine
 62
7
  6
CONTINUOUS
 10
761.5528020864
 20
209.2806659047
 11
762.0954352738
 21
209.2806659047
  0
LINE
  5
353
100
AcDbEntity
  8
BEZUGSACHSEN
100
AcDbLine
 62
7
  6
CONTINUOUS
 10
763.2282272749
 20
209.3387427648
 11
763.4402797545
 21
209.3387427648
  0
LINE
  5
354
100
AcDbEntity
  8
BEZUGSACHSEN
100
AcDbLine
 62
7
  6
CONTINUOUS
 10
762.610212573
 20
209.6148257049
 11
763.0747578495
 21
209.6148257049
  0
LINE
  5
355
100
AcDbEntity
  8
BEZUGSACHSEN
100
AcDbLine
 62
7
  6
CONTINUOUS
 10
762.4626086869
 20
210.0764820299
 11
762.9463821846
 21
210.0764820299
  0
LINE
  5
356
100
AcDbEntity
  8
BEZUGSACHSEN
100
AcDbLine
 62
7
  6
CONTINUOUS
 10
763.0056623229
 20
211.1903619641
 11
763.2633425579
 21
211.1903619641
  0
LINE
  5
357
100
AcDbEntity
  8
BEZUGSACHSEN
100
AcDbLine
 62
7
  6
CONTINUOUS
 10
761.4206626211
 20
211.251337532
 11
761.9589777459
 21
211.251337532
  0
LINE
  5
358
100
AcDbEntity
  8
BEZUGSACHSEN
100
AcDbLine
 62
7
  6
CONTINUOUS
 10
762.9177800155
 20
211.4989649631
 11
763.2287282498
 21
211.4989649631
  0
LINE
  5
359
100
AcDbEntity
  8
BEZUGSACHSEN
100
AcDbLine
 62
7
  6
CONTINUOUS
 10
761.4276115373
 20
211.6332683597
 11
761.9648394812
 21
211.6332683597
  0
LINE
  5
35A
100
AcDbEntity
  8
BEZUGSACHSEN
100
AcDbLine
 62
7
  6
CONTINUOUS
 10
762.8121151249
 20
211.8700066236
 11
763.1620947255
 21
211.8700066236
  0
LINE
  5
35B
100
AcDbEntity
  8
BEZUGSACHSEN
100
AcDbLine
 62
7
  6
CONTINUOUS
 10
763.3006655283
 20
212.2523840026
 11
763.441473408
 21
212.2523840026
  0
LINE
  5
35C
100
AcDbEntity
  8
BEZUGSACHSEN
100
AcDbLine
 62
7
  6
CONTINUOUS
 10
762.6886679621
 20
212.3034867892
 11
763.0642798744
 21
212.3034867892
  0
LINE
  5
35D
100
AcDbEntity
  8
BEZUGSACHSEN
100
AcDbLine
 62
7
  6
CONTINUOUS
 10
763.2437735739
 20
212.4805651683
 11
763.4318042364
 21
212.4805651683
  0
LINE
  5
35E
100
AcDbEntity
  8
BEZUGSACHSEN
100
AcDbLine
 62
7
  6
CONTINUOUS
 10
762.5474322816
 20
212.7994049746
 11
762.9358079268
 21
212.7994049746
  0
LINE
  5
35F
100
AcDbEntity
  8
BEZUGSACHSEN
100
AcDbLine
 62
7
  6
CONTINUOUS
 10
761.4276115347
 20
213.1609909419
 11
761.960716639
 21
213.1609909419
  0
LINE
  5
360
100
AcDbEntity
  8
BEZUGSACHSEN
100
AcDbLine
 62
7
  6
CONTINUOUS
 10
761.4206626211
 20
213.5429215875
 11
761.9527985671
 21
213.5429215875
  0
LINE
  5
361
100
AcDbEntity
  8
BEZUGSACHSEN
100
AcDbLine
 62
7
  6
CONTINUOUS
 10
762.1488067059
 20
214.4744754371
 11
762.4590214715
 21
214.4744754371
  0
LINE
  5
362
100
AcDbEntity
  8
BEZUGSACHSEN
100
AcDbLine
 62
7
  6
CONTINUOUS
 10
761.4177303836
 20
214.5872970161
 11
761.9470784993
 21
214.5872970161
  0
LINE
  5
363
100
AcDbEntity
  8
BEZUGSACHSEN
100
AcDbLine
 62
7
  6
CONTINUOUS
 10
762.1507460685
 20
214.8719280815
 11
762.3330860238
 21
214.8719280815
  0
LINE
  5
364
100
AcDbEntity
  8
BEZUGSACHSEN
100
AcDbLine
 62
7
  6
CONTINUOUS
 10
762.1495265448
 20
215.1084763512
 11
762.2398767177
 21
215.1084763512
  0
LINE
  5
365
100
AcDbEntity
  8
BEZUGSACHSEN
100
AcDbLine
 62
7
  6
CONTINUOUS
 10
761.4325565227
 20
215.7688880147
 11
761.9585812736
 21
215.7688880147
  0
LINE
  5
366
100
AcDbEntity
  8
BEZUGSACHSEN
100
AcDbLine
 62
7
  6
CONTINUOUS
 10
761.4618620878
 20
215.9033816402
 11
761.9872422637
 21
215.9033816402
  0
LINE
  5
367
100
AcDbEntity
  8
BEZUGSACHSEN
100
AcDbLine
 62
7
  6
CONTINUOUS
 10
761.8565502871
 20
218.0444138778
 11
761.9392606277
 21
218.0444138778
  0
LINE
  5
368
100
AcDbEntity
  8
0
100
AcDbLine
 62
7
  6
CONTINUOUS
 10
751.5376586913
 20
218.3418853065
 11
759.9048357322
 21
218.3418853065
  0
LINE
  5
369
100
AcDbEntity
  8
0
100
AcDbLine
 62
7
  6
CONTINUOUS
 10
759.9048357322
 20
225.8723134023
 11
751.5376586913
 21
225.8723134023
  0
LINE
  5
36A
100
AcDbEntity
  8
KONSTRUKTIONSELEMENTE
100
AcDbLine
 62
7
  6
CONTINUOUS
 10
702.3346852322
 20
185.6231799033
 11
705.8702191381
 21
182.0876459974
  0
LINE
  5
36B
100
AcDbEntity
  8
KONSTRUKTIONSELEMENTE
100
AcDbLine
 62
7
  6
CONTINUOUS
 10
702.6882386227
 20
185.9767332939
 11
706.2237725287
 21
182.441199388
  0
LINE
  5
36C
100
AcDbEntity
  8
0
100
AcDbLine
 62
7
  6
CONTINUOUS
 10
740.3000437733
 20
127.1588123716
 11
738.43757959
 21
130.2525723206
  0
LINE
  5
36D
100
AcDbEntity
  8
KONSTRUKTIONSELEMENTE
100
AcDbLine
 62
7
  6
CONTINUOUS
 10
625.5570917905
 20
100.6431477999
 11
625.5537792706
 21
100.7105459581
  0
LINE
  5
36E
100
AcDbEntity
  8
RUNDUNGEN
100
AcDbLine
 62
7
  6
CONTINUOUS
 10
772.3815012496
 20
148.762988069
 11
763.5249910407
 21
164.1029137285
  0
LINE
  5
36F
100
AcDbEntity
  8
0
100
AcDbLine
 62
7
  6
CONTINUOUS
 10
708.7212472117
 20
227.3424799933
 11
708.7212472117
 21
292.3424799933
  0
LINE
  5
370
100
AcDbEntity
  8
KONSTRUKTIONSELEMENTE
100
AcDbLine
 62
7
  6
CONTINUOUS
 10
759.9048357322
 20
225.8723134023
 11
763.7930215694
 21
210.2776517803
  0
LINE
  5
371
100
AcDbEntity
  8
0
100
AcDbLine
 62
7
  6
CONTINUOUS
 10
730.7212472117
 20
227.3424799933
 11
730.7212472117
 21
292.3424799933
  0
LINE
  5
372
100
AcDbEntity
  8
0
100
AcDbLine
 62
7
  6
CONTINUOUS
 10
737.7212472117
 20
795.2796796141
 11
737.7212472117
 21
299.4052803726
  0
LINE
  5
373
100
AcDbEntity
  8
0
100
AcDbLine
 62
7
  6
CONTINUOUS
 10
737.7212472117
 20
132.8313688822
 11
737.7212472117
 21
143.762988069
  0
LINE
  5
374
100
AcDbEntity
  8
0
100
AcDbLine
 62
7
  6
CONTINUOUS
 10
751.1483830202
 20
181.172198692
 11
751.3883042943
 21
174.2579913846
  0
LINE
  5
375
100
AcDbEntity
  8
0
100
AcDbLine
 62
7
  6
CONTINUOUS
 10
742.7212472117
 20
156.4424799933
 11
742.7212472117
 21
164.1130788418
  0
LINE
  5
376
100
AcDbEntity
  8
0
100
AcDbLine
 62
7
  6
CONTINUOUS
 10
747.4712472117
 20
208.8261204067
 11
747.4712472117
 21
170.8815032133
  0
LINE
  5
377
100
AcDbEntity
  8
0
100
AcDbLine
 62
7
  6
CONTINUOUS
 10
751.3883042943
 20
174.2579913846
 11
751.3883042943
 21
151.3557324657
  0
LINE
  5
378
100
AcDbEntity
  8
RUNDUNGEN
100
AcDbLine
 62
7
  6
CONTINUOUS
 10
760.0541901292
 20
174.2579913846
 11
760.0541901292
 21
151.3557324657
  0
LINE
  5
379
100
AcDbEntity
  8
BEZUGSACHSEN
100
AcDbLine
 62
7
  6
CONTINUOUS
 10
763.9712472117
 20
208.8261204067
 11
763.9712472117
 21
183.3272793462
  0
LINE
  5
37A
100
AcDbEntity
  8
KONSTRUKTIONSELEMENTE
100
AcDbLine
 62
7
  6
CONTINUOUS
 10
763.9712472117
 20
183.3272793462
 11
763.9712472117
 21
170.8814954389
  0
LINE
  5
37B
100
AcDbEntity
  8
RUNDUNGEN
100
AcDbLine
 62
7
  6
CONTINUOUS
 10
763.9712472117
 20
183.3272793223
 11
763.9712472117
 21
170.8815032133
  0
LINE
  5
37C
100
AcDbEntity
  8
KONSTRUKTIONSELEMENTE
100
AcDbLine
 62
7
  6
CONTINUOUS
 10
768.7212472117
 20
156.4424799933
 11
768.7212472117
 21
164.1130788418
  0
LINE
  5
37D
100
AcDbEntity
  8
0
100
AcDbLine
 62
7
  6
CONTINUOUS
 10
773.7212472117
 20
795.2796796141
 11
773.7212472117
 21
299.4052803726
  0
LINE
  5
37E
100
AcDbEntity
  8
RUNDUNGEN
100
AcDbLine
 62
7
  6
CONTINUOUS
 10
773.7212472117
 20
132.8313688822
 11
773.7212472117
 21
143.762988069
  0
LINE
  5
37F
100
AcDbEntity
  8
0
100
AcDbLine
 62
7
  6
CONTINUOUS
 10
780.7212472117
 20
292.3424799933
 11
780.7212472117
 21
227.3424799933
  0
LINE
  5
380
100
AcDbEntity
  8
0
100
AcDbLine
 62
7
  6
CONTINUOUS
 10
760.2941114033
 20
181.172198692
 11
760.0541901292
 21
174.2579913846
  0
LINE
  5
381
100
AcDbEntity
  8
0
100
AcDbLine
 62
7
  6
CONTINUOUS
 10
802.7212472117
 20
292.3424799933
 11
802.7212472117
 21
227.3424799933
  0
LINE
  5
382
100
AcDbEntity
  8
0
100
AcDbLine
 62
7
  6
CONTINUOUS
 10
747.6494728541
 20
210.2776517803
 11
751.5376586913
 21
225.8723134023
  0
LINE
  5
383
100
AcDbEntity
  8
0
100
AcDbLine
 62
7
  6
CONTINUOUS
 10
739.0609931739
 20
148.762988069
 11
747.9175033828
 21
164.1029137285
  0
LINE
  5
384
100
AcDbEntity
  8
KONSTRUKTIONSELEMENTE
100
AcDbLine
 62
7
  6
CONTINUOUS
 10
641.8770554407
 20
125.1655501119
 11
644.7054825655
 21
127.9939772366
  0
LINE
  5
385
100
AcDbEntity
  8
KONSTRUKTIONSELEMENTE
100
AcDbLine
 62
7
  6
CONTINUOUS
 10
645.059035956
 20
128.3475306272
 11
647.8874630808
 21
131.175957752
  0
LINE
  5
386
100
AcDbEntity
  8
KONSTRUKTIONSELEMENTE
100
AcDbLine
 62
7
  6
CONTINUOUS
 10
699.5062581074
 20
182.7947527786
 11
702.3346852322
 21
185.6231799033
  0
LINE
  5
387
100
AcDbEntity
  8
KONSTRUKTIONSELEMENTE
100
AcDbLine
 62
7
  6
CONTINUOUS
 10
702.6882386227
 20
185.9767332939
 11
705.5166657475
 21
188.8051604187
  0
LINE
  5
388
100
AcDbEntity
  8
KONSTRUKTIONSELEMENTE
100
AcDbLine
 62
7
  6
CONTINUOUS
 10
668.7471131258
 20
151.6820544064
 11
679.3537148436
 21
162.2886561242
  0
LINE
  5
389
100
AcDbEntity
  8
KONSTRUKTIONSELEMENTE
100
AcDbLine
 62
7
  6
CONTINUOUS
 10
671.9290936411
 20
148.500073891
 11
682.5356953589
 21
159.1066756088
  0
LINE
  5
38A
100
AcDbEntity
  8
KONSTRUKTIONSELEMENTE
100
AcDbLine
 62
7
  6
CONTINUOUS
 10
645.4125893466
 20
121.6300162059
 11
648.2410164714
 21
124.4584433307
  0
LINE
  5
38B
100
AcDbEntity
  8
KONSTRUKTIONSELEMENTE
100
AcDbLine
 62
7
  6
CONTINUOUS
 10
648.594569862
 20
124.8119967213
 11
651.4229969867
 21
127.640423846
  0
LINE
  5
38C
100
AcDbEntity
  8
KONSTRUKTIONSELEMENTE
100
AcDbLine
 62
7
  6
CONTINUOUS
 10
703.0417920133
 20
179.2592188726
 11
705.8702191381
 21
182.0876459974
  0
LINE
  5
38D
100
AcDbEntity
  8
KONSTRUKTIONSELEMENTE
100
AcDbLine
 62
7
  6
CONTINUOUS
 10
706.2237725287
 20
182.441199388
 11
709.0521996534
 21
185.2696265127
  0
LINE
  5
38E
100
AcDbEntity
  8
KONSTRUKTIONSELEMENTE
100
AcDbLine
 62
7
  6
CONTINUOUS
 10
738.0435776821
 20
213.9074511508
 11
709.0521996534
 21
184.9160731221
  0
LINE
  5
38F
100
AcDbEntity
  8
BEZUGSACHSEN
100
AcDbLine
 62
7
  6
CONTINUOUS
 10
648.2407710439
 20
123.3975377314
 11
647.1810100853
 21
122.3377767728
  0
LINE
  5
390
100
AcDbEntity
  8
KONSTRUKTIONSELEMENTE
100
AcDbLine
 62
7
  6
CONTINUOUS
 10
557.0242416983
 20
32.1810083858
 11
647.1810100853
 21
122.3377767728
  0
LINE
  5
391
100
AcDbEntity
  8
KONSTRUKTIONSELEMENTE
100
AcDbLine
 62
7
  6
CONTINUOUS
 10
703.0417920133
 20
177.8450053103
 11
684.3331070382
 21
159.1363203351
  0
LINE
  5
392
100
AcDbEntity
  8
KONSTRUKTIONSELEMENTE
100
AcDbLine
 62
7
  6
CONTINUOUS
 10
671.9290936411
 20
146.7323069381
 11
653.220408666
 21
128.0236219629
  0
LINE
  5
393
100
AcDbEntity
  8
KONSTRUKTIONSELEMENTE
100
AcDbLine
 62
7
  6
CONTINUOUS
 10
575.8686374169
 20
50.1061652889
 11
557.4838611061
 21
31.7213889781
  0
LINE
  5
394
100
AcDbEntity
  8
KONSTRUKTIONSELEMENTE
100
AcDbLine
 62
7
  6
CONTINUOUS
 10
615.1925386673
 20
89.4300665393
 11
621.2163320885
 21
95.4538599605
  0
LINE
  5
395
100
AcDbEntity
  8
KONSTRUKTIONSELEMENTE
100
AcDbLine
 62
7
  6
CONTINUOUS
 10
578.4849325073
 20
47.4898701985
 11
560.1001561965
 21
29.1050938877
  0
LINE
  5
396
100
AcDbEntity
  8
KONSTRUKTIONSELEMENTE
100
AcDbLine
 62
7
  6
CONTINUOUS
 10
617.8088337577
 20
86.8137714489
 11
623.8326271789
 21
92.8375648701
  0
LINE
  5
397
100
AcDbEntity
  8
KONSTRUKTIONSELEMENTE
100
AcDbLine
 62
7
  6
CONTINUOUS
 10
706.2237725287
 20
174.6630247949
 11
687.5150875535
 21
155.9543398198
  0
LINE
  5
398
100
AcDbEntity
  8
KONSTRUKTIONSELEMENTE
100
AcDbLine
 62
7
  6
CONTINUOUS
 10
675.1110741565
 20
143.5503264227
 11
656.4023891813
 21
124.8416414475
  0
LINE
  5
399
100
AcDbEntity
  8
BEZUGSACHSEN
100
AcDbLine
 62
7
  6
CONTINUOUS
 10
651.7763049498
 20
119.8620038255
 11
650.7165439912
 21
118.8022428669
  0
LINE
  5
39A
100
AcDbEntity
  8
KONSTRUKTIONSELEMENTE
100
AcDbLine
 62
7
  6
CONTINUOUS
 10
560.5597756043
 20
28.6454744799
 11
650.7165439912
 21
118.8022428669
  0
LINE
  5
39B
100
AcDbEntity
  8
KONSTRUKTIONSELEMENTE
100
AcDbLine
 62
7
  6
CONTINUOUS
 10
742.2862183692
 20
209.6648104637
 11
713.3443504677
 21
180.7229425622
  0
LINE
  5
39C
100
AcDbEntity
  8
KONSTRUKTIONSELEMENTE
100
AcDbLine
 62
7
  6
CONTINUOUS
 10
713.6483937311
 20
180.673432435
 11
707.6379860911
 21
174.6630247949
  0
LINE
  5
39D
100
AcDbEntity
  8
KONSTRUKTIONSELEMENTE
100
AcDbLine
 62
7
  6
CONTINUOUS
 10
656.0191910644
 20
123.0442297683
 11
650.0087834243
 21
117.0338221282
  0
LINE
  5
39E
100
AcDbEntity
  8
KONSTRUKTIONSELEMENTE
100
AcDbLine
 62
7
  6
CONTINUOUS
 10
687.4854428272
 20
154.1569281405
 11
676.8788411094
 21
143.5503264227
  0
LINE
  5
39F
100
AcDbEntity
  8
KONSTRUKTIONSELEMENTE
100
AcDbLine
 62
7
  6
CONTINUOUS
 10
690.6674233426
 20
150.9749476252
 11
680.0608216248
 21
140.3683459074
  0
LINE
  5
3A0
100
AcDbEntity
  8
KONSTRUKTIONSELEMENTE
100
AcDbLine
 62
7
  6
CONTINUOUS
 10
717.1839276371
 20
177.1378985291
 11
711.173519997
 21
171.127490889
  0
LINE
  5
3A1
100
AcDbEntity
  8
KONSTRUKTIONSELEMENTE
100
AcDbLine
 62
7
  6
CONTINUOUS
 10
659.5547249704
 20
119.5086958624
 11
653.5443173303
 21
113.4982882223
  0
LINE
  5
3A2
100
AcDbEntity
  8
RUNDUNGEN
100
AcDbLine
 62
7
  6
CONTINUOUS
 10
771.1424506501
 20
127.1588123716
 11
773.0049148335
 21
130.2525723206
  0
ARC
  5
3A3
100
AcDbEntity
  8
KONSTRUKTIONSELEMENTE
100
AcDbCircle
 62
7
  6
CONTINUOUS
 10
262.5211287365
 20
39.892646744
 40
7.2075994746
100
AcDbArc
 50
82.0084828409
 51
84.6969256904
  0
ARC
  5
3A4
100
AcDbEntity
  8
RUNDUNGEN
100
AcDbCircle
 62
7
  6
CONTINUOUS
 10
241.2250624099
 20
143.3505692905
 40
3.0
100
AcDbArc
 50
7.0803074625
 51
40.0
  0
ARC
  5
3A5
100
AcDbEntity
  8
KONSTRUKTIONSELEMENTE
100
AcDbCircle
 62
7
  6
CONTINUOUS
 10
267.6948020871
 20
43.3523430499
 40
2.6152604962
100
AcDbArc
 50
0.0208671421
 51
7.9801551546
  0
ARC
  5
3A6
100
AcDbEntity
  8
KONSTRUKTIONSELEMENTE
100
AcDbCircle
 62
7
  6
CONTINUOUS
 10
239.7875074584
 20
95.8432906163
 40
2.3394182334
100
AcDbArc
 50
288.2431310925
 51
290.8424375544
  0
ARC
  5
3A7
100
AcDbEntity
  8
0
100
AcDbCircle
 62
7
  6
CONTINUOUS
 10
253.1291238573
 20
120.4424804284
 40
2.0
100
AcDbArc
 50
220.0000162712
 51
270.0000104589
  0
ARC
  5
3A8
100
AcDbEntity
  8
RUNDUNGEN
100
AcDbCircle
 62
7
  6
CONTINUOUS
 10
246.2250624099
 20
128.6704204619
 40
2.0
100
AcDbArc
 50
180.0
 51
220.0
  0
ARC
  5
3A9
100
AcDbEntity
  8
0
100
AcDbCircle
 62
7
  6
CONTINUOUS
 10
246.2250624099
 20
128.6704204619
 40
2.0
100
AcDbArc
 50
180.0
 51
220.0
  0
ARC
  5
3AA
100
AcDbEntity
  8
KONSTRUKTIONSELEMENTE
100
AcDbCircle
 62
7
  6
CONTINUOUS
 10
276.2250624099
 20
76.9828549933
 40
45.0
100
AcDbArc
 50
99.0779339621
 51
112.8843724077
  0
ARC
  5
3AB
100
AcDbEntity
  8
KONSTRUKTIONSELEMENTE
100
AcDbCircle
 62
7
  6
CONTINUOUS
 10
276.2250624099
 20
76.9828549933
 40
45.0
100
AcDbArc
 50
67.1156275923
 51
80.9220660379
  0
ARC
  5
3AC
100
AcDbEntity
  8
BEZUGSACHSEN
100
AcDbCircle
 62
7
  6
CONTINUOUS
 10
276.2250624099
 20
186.4424799933
 40
16.0
100
AcDbArc
 50
133.4832507211
 51
46.5167492789
  0
ARC
  5
3AD
100
AcDbEntity
  8
0
100
AcDbCircle
 62
7
  6
CONTINUOUS
 10
276.2250624099
 20
328.3424799933
 40
11.0
100
AcDbArc
 50
0.0
 51
180.0
  0
ARC
  5
3AE
100
AcDbEntity
  8
0
100
AcDbCircle
 62
7
  6
CONTINUOUS
 10
276.2250624099
 20
191.3424799933
 40
11.0
100
AcDbArc
 50
180.0
 51
360.0
  0
ARC
  5
3AF
100
AcDbEntity
  8
KONSTRUKTIONSELEMENTE
100
AcDbCircle
 62
7
  6
CONTINUOUS
 10
276.2250624099
 20
153.8424799933
 40
7.1
100
AcDbArc
 50
0.0
 51
180.0
  0
ARC
  5
3B0
100
AcDbEntity
  8
KONSTRUKTIONSELEMENTE
100
AcDbCircle
 62
7
  6
CONTINUOUS
 10
289.6366804951
 20
41.3704295343
 40
6.0774483605
100
AcDbArc
 50
111.3149175254
 51
112.0930351415
  0
CIRCLE
  5
3B1
100
AcDbEntity
  8
BEZUGSACHSEN
100
AcDbCircle
 62
7
  6
CONTINUOUS
 10
299.2250624099
 20
136.4424799933
 40
3.0
  0
ARC
  5
3B2
100
AcDbEntity
  8
RUNDUNGEN
100
AcDbCircle
 62
7
  6
CONTINUOUS
 10
311.2250624099
 20
143.3505692905
 40
3.0
100
AcDbArc
 50
140.0
 51
175.2760379204
  0
ARC
  5
3B3
100
AcDbEntity
  8
KONSTRUKTIONSELEMENTE
100
AcDbCircle
 62
7
  6
CONTINUOUS
 10
276.2250624099
 20
113.5819191671
 40
2.5
100
AcDbArc
 50
180.0
 51
360.0
  0
ARC
  5
3B4
100
AcDbEntity
  8
KONSTRUKTIONSELEMENTE
100
AcDbCircle
 62
7
  6
CONTINUOUS
 10
276.2250624099
 20
171.2111218338
 40
2.5
100
AcDbArc
 50
180.0
 51
193.090119613
  0
ARC
  5
3B5
100
AcDbEntity
  8
KONSTRUKTIONSELEMENTE
100
AcDbCircle
 62
7
  6
CONTINUOUS
 10
276.2250624099
 20
171.2111218338
 40
2.5
100
AcDbArc
 50
346.909880387
 51
360.0
  0
ARC
  5
3B6
100
AcDbEntity
  8
0
100
AcDbCircle
 62
7
  6
CONTINUOUS
 10
299.3210025244
 20
120.4424822899
 40
2.0
100
AcDbArc
 50
269.9999447949
 51
319.999914116
  0
ARC
  5
3B7
100
AcDbEntity
  8
RUNDUNGEN
100
AcDbCircle
 62
7
  6
CONTINUOUS
 10
306.2250624099
 20
128.6704204619
 40
2.0
100
AcDbArc
 50
320.0
 51
360.0
  0
ARC
  5
3B8
100
AcDbEntity
  8
0
100
AcDbCircle
 62
7
  6
CONTINUOUS
 10
276.2250624099
 20
442.3424799933
 40
161.0
100
AcDbArc
 50
180.0
 51
266.0820200243
  0
ARC
  5
3B9
100
AcDbEntity
  8
0
100
AcDbCircle
 62
7
  6
CONTINUOUS
 10
276.2250624099
 20
442.3424799933
 40
161.0
100
AcDbArc
 50
273.9179799757
 51
360.0
  0
ARC
  5
3BA
100
AcDbEntity
  8
0
100
AcDbCircle
 62
7
  6
CONTINUOUS
 10
276.2250624099
 20
652.3424799933
 40
161.0
100
AcDbArc
 50
0.0
 51
180.0
  0
ARC
  5
3BB
100
AcDbEntity
  8
0
100
AcDbCircle
 62
7
  6
CONTINUOUS
 10
276.2250624099
 20
652.3424799933
 40
125.0
100
AcDbArc
 50
0.0
 51
180.0
  0
ARC
  5
3BC
100
AcDbEntity
  8
0
100
AcDbCircle
 62
7
  6
CONTINUOUS
 10
276.2250624099
 20
442.3424799933
 40
125.0
100
AcDbArc
 50
180.0
 51
264.9510772198
  0
ARC
  5
3BD
100
AcDbEntity
  8
0
100
AcDbCircle
 62
7
  6
CONTINUOUS
 10
276.2250624099
 20
442.3424799933
 40
125.0
100
AcDbArc
 50
275.0489227802
 51
360.0
  0
ARC
  5
3BE
100
AcDbEntity
  8
BEZUGSACHSEN
100
AcDbCircle
 62
7
  6
CONTINUOUS
 10
499.0043511922
 20
57.3249815937
 40
303.1341461175
100
AcDbArc
 50
29.3475079187
 51
29.513153647
  0
ARC
  5
3BF
100
AcDbEntity
  8
BEZUGSACHSEN
100
AcDbCircle
 62
7
  6
CONTINUOUS
 10
567.7769669937
 20
96.0313074221
 40
224.4672573186
100
AcDbArc
 50
29.3390794031
 51
29.5630019154
  0
ARC
  5
3C0
100
AcDbEntity
  8
BEZUGSACHSEN
100
AcDbCircle
 62
7
  6
CONTINUOUS
 10
581.1049315898
 20
181.2371760346
 40
183.4888656443
100
AcDbArc
 50
8.1600272414
 51
8.309394268
  0
ARC
  5
3C1
100
AcDbEntity
  8
BEZUGSACHSEN
100
AcDbCircle
 62
7
  6
CONTINUOUS
 10
613.1916210642
 20
186.0566488255
 40
151.8697129302
100
AcDbArc
 50
8.4089489429
 51
8.5819849585
  0
ARC
  5
3C2
100
AcDbEntity
  8
BEZUGSACHSEN
100
AcDbCircle
 62
7
  6
CONTINUOUS
 10
625.9589538292
 20
192.4663273191
 40
137.4579711933
100
AcDbArc
 50
6.2020246619
 51
6.3331377007
  0
ARC
  5
3C3
100
AcDbEntity
  8
BEZUGSACHSEN
100
AcDbCircle
 62
7
  6
CONTINUOUS
 10
632.7787891703
 20
189.8673050648
 40
132.3186534932
100
AcDbArc
 50
9.1366643627
 51
9.3210355417
  0
ARC
  5
3C4
100
AcDbEntity
  8
KONSTRUKTIONSELEMENTE
100
AcDbCircle
 62
7
  6
CONTINUOUS
 10
653.7210940256
 20
125.3423268072
 40
8.25
100
AcDbArc
 50
60.8421444573
 51
135.0
  0
ARC
  5
3C5
100
AcDbEntity
  8
KONSTRUKTIONSELEMENTE
100
AcDbCircle
 62
7
  6
CONTINUOUS
 10
653.7210940256
 20
125.3423268072
 40
8.25
100
AcDbArc
 50
315.0
 51
29.1578555427
  0
ARC
  5
3C6
100
AcDbEntity
  8
KONSTRUKTIONSELEMENTE
100
AcDbCircle
 62
7
  6
CONTINUOUS
 10
647.7106863855
 20
119.3319191671
 40
8.25
100
AcDbArc
 50
242.6769957192
 51
315.0
  0
ARC
  5
3C7
100
AcDbEntity
  8
KONSTRUKTIONSELEMENTE
100
AcDbCircle
 62
7
  6
CONTINUOUS
 10
647.7106863855
 20
119.3319191671
 40
8.25
100
AcDbArc
 50
135.0
 51
207.3230042808
  0
ARC
  5
3C8
100
AcDbEntity
  8
KONSTRUKTIONSELEMENTE
100
AcDbCircle
 62
7
  6
CONTINUOUS
 10
674.4039673753
 20
146.0252001569
 40
8.0
100
AcDbArc
 50
241.3642958278
 51
315.0
  0
ARC
  5
3C9
100
AcDbEntity
  8
KONSTRUKTIONSELEMENTE
100
AcDbCircle
 62
7
  6
CONTINUOUS
 10
674.4039673753
 20
146.0252001569
 40
8.0
100
AcDbArc
 50
135.0
 51
208.6357041722
  0
ARC
  5
3CA
100
AcDbEntity
  8
KONSTRUKTIONSELEMENTE
100
AcDbCircle
 62
7
  6
CONTINUOUS
 10
674.4039673753
 20
146.0252001569
 40
3.5
100
AcDbArc
 50
265.1538775079
 51
315.0
  0
ARC
  5
3CB
100
AcDbEntity
  8
KONSTRUKTIONSELEMENTE
100
AcDbCircle
 62
7
  6
CONTINUOUS
 10
674.4039673753
 20
146.0252001569
 40
3.5
100
AcDbArc
 50
135.0
 51
184.8461224921
  0
ARC
  5
3CC
100
AcDbEntity
  8
KONSTRUKTIONSELEMENTE
100
AcDbCircle
 62
7
  6
CONTINUOUS
 10
653.7210940256
 20
125.3423268072
 40
3.25
100
AcDbArc
 50
88.8837571799
 51
135.0
  0
ARC
  5
3CD
100
AcDbEntity
  8
KONSTRUKTIONSELEMENTE
100
AcDbCircle
 62
7
  6
CONTINUOUS
 10
653.7210940256
 20
125.3423268072
 40
3.25
100
AcDbArc
 50
315.0
 51
1.1162428201
  0
ARC
  5
3CE
100
AcDbEntity
  8
KONSTRUKTIONSELEMENTE
100
AcDbCircle
 62
7
  6
CONTINUOUS
 10
647.7106863855
 20
119.3319191671
 40
3.25
100
AcDbArc
 50
275.4054095575
 51
315.0
  0
ARC
  5
3CF
100
AcDbEntity
  8
KONSTRUKTIONSELEMENTE
100
AcDbCircle
 62
7
  6
CONTINUOUS
 10
647.7106863855
 20
119.3319191671
 40
3.25
100
AcDbArc
 50
135.0
 51
174.5945904425
  0
ARC
  5
3D0
100
AcDbEntity
  8
KONSTRUKTIONSELEMENTE
100
AcDbCircle
 62
7
  6
CONTINUOUS
 10
673.5200838988
 20
145.1413166804
 40
2.25
100
AcDbArc
 50
315.0
 51
135.0
  0
ARC
  5
3D1
100
AcDbEntity
  8
KONSTRUKTIONSELEMENTE
100
AcDbCircle
 62
7
  6
CONTINUOUS
 10
654.7817541974
 20
126.402986979
 40
2.25
100
AcDbArc
 50
135.0
 51
315.0
  0
ARC
  5
3D2
100
AcDbEntity
  8
BEZUGSACHSEN
100
AcDbCircle
 62
7
  6
CONTINUOUS
 10
674.6298157108
 20
200.0923159964
 40
89.0355013941
100
AcDbArc
 50
5.3829558254
 51
5.6118914209
  0
ARC
  5
3D3
100
AcDbEntity
  8
KONSTRUKTIONSELEMENTE
100
AcDbCircle
 62
7
  6
CONTINUOUS
 10
685.0105690931
 20
156.6318018747
 40
8.0
100
AcDbArc
 50
61.3642958278
 51
135.0
  0
ARC
  5
3D4
100
AcDbEntity
  8
KONSTRUKTIONSELEMENTE
100
AcDbCircle
 62
7
  6
CONTINUOUS
 10
685.0105690931
 20
156.6318018747
 40
8.0
100
AcDbArc
 50
315.0
 51
28.6357041722
  0
ARC
  5
3D5
100
AcDbEntity
  8
KONSTRUKTIONSELEMENTE
100
AcDbCircle
 62
7
  6
CONTINUOUS
 10
685.0105690931
 20
156.6318018747
 40
3.5
100
AcDbArc
 50
85.1538775079
 51
135.0
  0
ARC
  5
3D6
100
AcDbEntity
  8
KONSTRUKTIONSELEMENTE
100
AcDbCircle
 62
7
  6
CONTINUOUS
 10
685.0105690931
 20
156.6318018747
 40
3.5
100
AcDbArc
 50
315.0
 51
4.8461224921
  0
ARC
  5
3D7
100
AcDbEntity
  8
KONSTRUKTIONSELEMENTE
100
AcDbCircle
 62
7
  6
CONTINUOUS
 10
685.8944525696
 20
157.5156853512
 40
2.25
100
AcDbArc
 50
135.0
 51
315.0
  0
ARC
  5
3D8
100
AcDbEntity
  8
BEZUGSACHSEN
100
AcDbCircle
 62
7
  6
CONTINUOUS
 10
686.9081361
 20
201.6528112578
 40
76.805734142
100
AcDbArc
 50
4.6264770113
 51
4.9392200225
  0
ARC
  5
3D9
100
AcDbEntity
  8
BEZUGSACHSEN
100
AcDbCircle
 62
7
  6
CONTINUOUS
 10
686.6982882404
 20
208.3529896957
 40
75.2806566694
100
AcDbArc
 50
359.0561359582
 51
0.4437915647
  0
ARC
  5
3DA
100
AcDbEntity
  8
KONSTRUKTIONSELEMENTE
100
AcDbCircle
 62
7
  6
CONTINUOUS
 10
686.658477552
 20
208.5565405629
 40
74.7746944127
100
AcDbArc
 50
358.8937536058
 51
0.2908213038
  0
ARC
  5
3DB
100
AcDbEntity
  8
BEZUGSACHSEN
100
AcDbCircle
 62
7
  6
CONTINUOUS
 10
688.3381118108
 20
207.9290370267
 40
73.7999806261
100
AcDbArc
 50
359.5240370018
 51
0.5117319273
  0
ARC
  5
3DC
100
AcDbEntity
  8
BEZUGSACHSEN
100
AcDbCircle
 62
7
  6
CONTINUOUS
 10
693.0984539597
 20
206.6574010388
 40
69.5170745962
100
AcDbArc
 50
359.3536367245
 51
0.5432592253
  0
ARC
  5
3DD
100
AcDbEntity
  8
BEZUGSACHSEN
100
AcDbCircle
 62
7
  6
CONTINUOUS
 10
695.3813489784
 20
203.7326532941
 40
68.290427374
100
AcDbArc
 50
6.2695336969
 51
6.530075959
  0
ARC
  5
3DE
100
AcDbEntity
  8
BEZUGSACHSEN
100
AcDbCircle
 62
7
  6
CONTINUOUS
 10
694.9590628917
 20
206.1492615884
 40
67.8474430338
100
AcDbArc
 50
359.3372946509
 51
359.6099354057
  0
ARC
  5
3DF
100
AcDbEntity
  8
BEZUGSACHSEN
100
AcDbCircle
 62
7
  6
CONTINUOUS
 10
695.028616193
 20
206.1487466734
 40
67.7778878389
100
AcDbArc
 50
359.6099703979
 51
0.4287602718
  0
ARC
  5
3E0
100
AcDbEntity
  8
BEZUGSACHSEN
100
AcDbCircle
 62
7
  6
CONTINUOUS
 10
701.2566561365
 20
204.3615486808
 40
62.2183157709
100
AcDbArc
 50
1.0331262368
 51
1.5229370663
  0
ARC
  5
3E1
100
AcDbEntity
  8
BEZUGSACHSEN
100
AcDbCircle
 62
7
  6
CONTINUOUS
 10
701.4726934292
 20
204.3711715386
 40
62.0022382504
100
AcDbArc
 50
358.8515282007
 51
359.2727803651
  0
ARC
  5
3E2
100
AcDbEntity
  8
BEZUGSACHSEN
100
AcDbCircle
 62
7
  6
CONTINUOUS
 10
707.6839037299
 20
189.1823574358
 40
60.5635220218
100
AcDbArc
 50
25.8901195318
 51
26.0867752776
  0
ARC
  5
3E3
100
AcDbEntity
  8
BEZUGSACHSEN
100
AcDbCircle
 62
7
  6
CONTINUOUS
 10
706.8709808896
 20
205.065452118
 40
56.8456243091
100
AcDbArc
 50
5.5065514389
 51
5.8690065192
  0
ARC
  5
3E4
100
AcDbEntity
  8
KONSTRUKTIONSELEMENTE
100
AcDbCircle
 62
7
  6
CONTINUOUS
 10
705.3398890522
 20
176.9611218338
 40
8.25
100
AcDbArc
 50
240.8421444573
 51
315.0
  0
ARC
  5
3E5
100
AcDbEntity
  8
KONSTRUKTIONSELEMENTE
100
AcDbCircle
 62
7
  6
CONTINUOUS
 10
705.3398890522
 20
176.9611218338
 40
8.25
100
AcDbArc
 50
135.0
 51
209.1578555427
  0
ARC
  5
3E6
100
AcDbEntity
  8
KONSTRUKTIONSELEMENTE
100
AcDbCircle
 62
7
  6
CONTINUOUS
 10
705.3398890522
 20
176.9611218338
 40
3.25
100
AcDbArc
 50
268.8837571799
 51
315.0
  0
ARC
  5
3E7
100
AcDbEntity
  8
KONSTRUKTIONSELEMENTE
100
AcDbCircle
 62
7
  6
CONTINUOUS
 10
705.3398890522
 20
176.9611218338
 40
3.25
100
AcDbArc
 50
135.0
 51
181.1162428201
  0
ARC
  5
3E8
100
AcDbEntity
  8
KONSTRUKTIONSELEMENTE
100
AcDbCircle
 62
7
  6
CONTINUOUS
 10
704.632782271
 20
176.2540150526
 40
2.25
100
AcDbArc
 50
315.0
 51
135.0
  0
ARC
  5
3E9
100
AcDbEntity
  8
BEZUGSACHSEN
100
AcDbCircle
 62
7
  6
CONTINUOUS
 10
708.8466030373
 20
212.2508924249
 40
53.1219101972
100
AcDbArc
 50
0.9816543679
 51
1.3936832903
  0
ARC
  5
3EA
100
AcDbEntity
  8
BEZUGSACHSEN
100
AcDbCircle
 62
7
  6
CONTINUOUS
 10
708.9598630932
 20
212.2557590443
 40
53.0086315287
100
AcDbArc
 50
358.914279503
 51
359.3271490364
  0
ARC
  5
3EB
100
AcDbEntity
  8
KONSTRUKTIONSELEMENTE
100
AcDbCircle
 62
7
  6
CONTINUOUS
 10
708.8168511872
 20
212.3948100213
 40
52.616339074
100
AcDbArc
 50
0.8343508009
 51
1.250318239
  0
ARC
  5
3EC
100
AcDbEntity
  8
KONSTRUKTIONSELEMENTE
100
AcDbCircle
 62
7
  6
CONTINUOUS
 10
708.8168512227
 20
212.3994490975
 40
52.6163390385
100
AcDbArc
 50
358.7496817609
 51
359.1656493977
  0
ARC
  5
3ED
100
AcDbEntity
  8
0
100
AcDbCircle
 62
7
  6
CONTINUOUS
 10
737.7212472117
 20
156.4424799933
 40
5.0
100
AcDbArc
 50
330.0
 51
360.0
  0
ARC
  5
3EE
100
AcDbEntity
  8
BEZUGSACHSEN
100
AcDbCircle
 62
7
  6
CONTINUOUS
 10
729.5721726505
 20
173.2323848241
 40
48.5514282029
100
AcDbArc
 50
47.7472394248
 51
47.9427812478
  0
ARC
  5
3EF
100
AcDbEntity
  8
BEZUGSACHSEN
100
AcDbCircle
 62
7
  6
CONTINUOUS
 10
718.6377183923
 20
208.1748327426
 40
44.6357618312
100
AcDbArc
 50
0.019863818
 51
0.3467043785
  0
ARC
  5
3F0
100
AcDbEntity
  8
BEZUGSACHSEN
100
AcDbCircle
 62
7
  6
CONTINUOUS
 10
720.0343278322
 20
207.577830411
 40
43.4301270317
100
AcDbArc
 50
0.0204160594
 51
0.3563299453
  0
ARC
  5
3F1
100
AcDbEntity
  8
BEZUGSACHSEN
100
AcDbCircle
 62
7
  6
CONTINUOUS
 10
734.6531559732
 20
181.189694469
 40
38.821787241
100
AcDbArc
 50
42.303327566
 51
42.5901006247
  0
ARC
  5
3F2
100
AcDbEntity
  8
KONSTRUKTIONSELEMENTE
100
AcDbCircle
 62
7
  6
CONTINUOUS
 10
711.3502966923
 20
182.9715294739
 40
8.25
100
AcDbArc
 50
66.346698243
 51
135.0
  0
ARC
  5
3F3
100
AcDbEntity
  8
KONSTRUKTIONSELEMENTE
100
AcDbCircle
 62
7
  6
CONTINUOUS
 10
711.3502966923
 20
182.9715294739
 40
8.25
100
AcDbArc
 50
315.0
 51
23.653301757
  0
ARC
  5
3F4
100
AcDbEntity
  8
KONSTRUKTIONSELEMENTE
100
AcDbCircle
 62
7
  6
CONTINUOUS
 10
711.3502966923
 20
182.9715294739
 40
3.25
100
AcDbArc
 50
112.8065550031
 51
135.0
  0
ARC
  5
3F5
100
AcDbEntity
  8
KONSTRUKTIONSELEMENTE
100
AcDbCircle
 62
7
  6
CONTINUOUS
 10
711.3502966923
 20
182.9715294739
 40
3.25
100
AcDbArc
 50
315.0
 51
337.1934449969
  0
ARC
  5
3F6
100
AcDbEntity
  8
KONSTRUKTIONSELEMENTE
100
AcDbCircle
 62
7
  6
CONTINUOUS
 10
711.173519997
 20
182.7947527786
 40
3.0
100
AcDbArc
 50
135.0
 51
315.0
  0
ARC
  5
3F7
100
AcDbEntity
  8
0
100
AcDbCircle
 62
7
  6
CONTINUOUS
 10
755.7212472117
 20
136.4424799933
 40
18.0
100
AcDbArc
 50
211.0482219935
 51
328.9517780065
  0
ARC
  5
3F8
100
AcDbEntity
  8
0
100
AcDbCircle
 62
7
  6
CONTINUOUS
 10
747.7212472117
 20
143.762988069
 40
10.0
100
AcDbArc
 50
150.0
 51
180.0
  0
CIRCLE
  5
3F9
100
AcDbEntity
  8
0
100
AcDbCircle
 62
7
  6
CONTINUOUS
 10
755.7212472117
 20
136.4424799933
 40
7.5
  0
ARC
  5
3FA
100
AcDbEntity
  8
0
100
AcDbCircle
 62
7
  6
CONTINUOUS
 10
742.7212472117
 20
132.8313688822
 40
5.0
100
AcDbArc
 50
180.0
 51
211.0482219935
  0
ARC
  5
3FB
100
AcDbEntity
  8
0
100
AcDbCircle
 62
7
  6
CONTINUOUS
 10
747.7212472117
 20
164.1130788418
 40
5.0
100
AcDbArc
 50
113.9694823178
 51
180.0
  0
ARC
  5
3FC
100
AcDbEntity
  8
RUNDUNGEN
100
AcDbCircle
 62
7
  6
CONTINUOUS
 10
763.7212472117
 20
143.762988069
 40
10.0
100
AcDbArc
 50
0.0
 51
30.0
  0
ARC
  5
3FD
100
AcDbEntity
  8
RUNDUNGEN
100
AcDbCircle
 62
7
  6
CONTINUOUS
 10
768.7212472117
 20
132.8313688822
 40
5.0
100
AcDbArc
 50
328.9517780065
 51
360.0
  0
ARC
  5
3FE
100
AcDbEntity
  8
KONSTRUKTIONSELEMENTE
100
AcDbCircle
 62
7
  6
CONTINUOUS
 10
773.7212472117
 20
156.4424799933
 40
5.0
100
AcDbArc
 50
180.0
 51
210.0
  0
ARC
  5
3FF
100
AcDbEntity
  8
KONSTRUKTIONSELEMENTE
100
AcDbCircle
 62
7
  6
CONTINUOUS
 10
763.7212472117
 20
164.1130788418
 40
5.0
100
AcDbArc
 50
0.0
 51
66.0305176822
  0
ARC
  5
400
100
AcDbEntity
  8
RUNDUNGEN
100
AcDbCircle
 62
7
  6
CONTINUOUS
 10
763.7212472117
 20
164.1130788418
 40
5.0
100
AcDbArc
 50
0.0
 51
66.0305176822
  0
ARC
  5
401
100
AcDbEntity
  8
BEZUGSACHSEN
100
AcDbCircle
 62
7
  6
CONTINUOUS
 10
749.5939015067
 20
204.9797774608
 40
16.2021988766
100
AcDbArc
 50
38.7782359714
 51
39.0362692793
  0
ARC
  5
402
100
AcDbEntity
  8
BEZUGSACHSEN
100
AcDbCircle
 62
7
  6
CONTINUOUS
 10
758.72159559
 20
208.4432082775
 40
8.1436254088
100
AcDbArc
 50
65.8997019308
 51
66.358885631
  0
ARC
  5
403
100
AcDbEntity
  8
0
100
AcDbCircle
 62
7
  6
CONTINUOUS
 10
753.4712472117
 20
208.8261204067
 40
6.0
100
AcDbArc
 50
166.0
 51
180.0
  0
ARC
  5
404
100
AcDbEntity
  8
BEZUGSACHSEN
100
AcDbCircle
 62
7
  6
CONTINUOUS
 10
757.9712472117
 20
208.8261204067
 40
6.0
100
AcDbArc
 50
0.0
 51
14.0
  0
ARC
  5
405
100
AcDbEntity
  8
RUNDUNGEN
100
AcDbCircle
 62
7
  6
CONTINUOUS
 10
766.9712472117
 20
171.4231746004
 40
3.0
100
AcDbArc
 50
186.6030517682
 51
246.0305176822
  0
ARC
  5
406
100
AcDbEntity
  8
0
100
AcDbCircle
 62
7
  6
CONTINUOUS
 10
744.4712472117
 20
171.4231746004
 40
3.0
100
AcDbArc
 50
293.9694823178
 51
353.3969482318
  0
ARC
  5
407
100
AcDbEntity
  8
BEZUGSACHSEN
100
AcDbCircle
 62
7
  6
CONTINUOUS
 10
716.9292221832
 20
213.3450348773
 40
45.2627103342
100
AcDbArc
 50
354.410062293
 51
354.7852205869
  0
ARC
  5
408
100
AcDbEntity
  8
KONSTRUKTIONSELEMENTE
100
AcDbCircle
 62
7
  6
CONTINUOUS
 10
716.5317097322
 20
213.4854953013
 40
45.1303888129
100
AcDbArc
 50
354.2144122838
 51
354.5907938849
  0
ARC
  5
409
100
AcDbEntity
  8
BEZUGSACHSEN
100
AcDbCircle
 62
7
  6
CONTINUOUS
 10
730.2504220127
 20
215.4867150772
 40
31.7094147735
100
AcDbArc
 50
358.3746224325
 51
0.5098653478
  0
ARC
  5
40A
100
AcDbEntity
  8
KONSTRUKTIONSELEMENTE
100
AcDbCircle
 62
7
  6
CONTINUOUS
 10
730.0092456929
 20
215.5722868449
 40
31.4239258452
100
AcDbArc
 50
358.2037570356
 51
0.3584686019
  0
ARC
  5
40B
100
AcDbEntity
  8
BEZUGSACHSEN
100
AcDbCircle
 62
7
  6
CONTINUOUS
 10
731.1905605423
 20
214.8165496294
 40
30.9602531486
100
AcDbArc
 50
358.8823689344
 51
0.5224573152
  0
ARC
  5
40C
100
AcDbEntity
  8
BEZUGSACHSEN
100
AcDbCircle
 62
7
  6
CONTINUOUS
 10
732.6234363411
 20
214.7294679817
 40
30.1439342425
100
AcDbArc
 50
348.2446833699
 51
348.5224074136
  0
ARC
  5
40D
100
AcDbEntity
  8
BEZUGSACHSEN
100
AcDbCircle
 62
7
  6
CONTINUOUS
 10
736.5086829317
 20
210.9080615072
 40
26.7561489244
100
AcDbArc
 50
358.7067104944
 51
0.6045311263
  0
ARC
  5
40E
100
AcDbEntity
  8
0
100
AcDbCircle
 62
7
  6
CONTINUOUS
 10
755.7212472117
 20
227.3424799933
 40
47.0
100
AcDbArc
 50
280.1125034942
 51
360.0
  0
ARC
  5
40F
100
AcDbEntity
  8
0
100
AcDbCircle
 62
7
  6
CONTINUOUS
 10
755.7212472117
 20
227.3424799933
 40
47.0
100
AcDbArc
 50
228.6614522173
 51
259.8874965058
  0
ARC
  5
410
100
AcDbEntity
  8
0
100
AcDbCircle
 62
7
  6
CONTINUOUS
 10
755.7212472117
 20
227.3424799933
 40
47.0
100
AcDbArc
 50
180.0
 51
221.3385477827
  0
ARC
  5
411
100
AcDbEntity
  8
BEZUGSACHSEN
100
AcDbCircle
 62
7
  6
CONTINUOUS
 10
737.385745006
 20
210.2382405762
 40
26.0700571015
100
AcDbArc
 50
358.022725492
 51
0.6199857721
  0
ARC
  5
412
100
AcDbEntity
  8
0
100
AcDbCircle
 62
7
  6
CONTINUOUS
 10
755.7212472117
 20
227.3424799933
 40
25.0
100
AcDbArc
 50
289.2779891846
 51
360.0
  0
ARC
  5
413
100
AcDbEntity
  8
0
100
AcDbCircle
 62
7
  6
CONTINUOUS
 10
755.7212472117
 20
227.3424799933
 40
25.0
100
AcDbArc
 50
231.895521053
 51
250.7220108154
  0
ARC
  5
414
100
AcDbEntity
  8
0
100
AcDbCircle
 62
7
  6
CONTINUOUS
 10
755.7212472117
 20
227.3424799933
 40
25.0
100
AcDbArc
 50
180.0
 51
218.104478947
  0
ARC
  5
415
100
AcDbEntity
  8
BEZUGSACHSEN
100
AcDbCircle
 62
7
  6
CONTINUOUS
 10
742.3785060367
 20
210.6503252372
 40
21.3063955133
100
AcDbArc
 50
351.3046476556
 51
351.7507909313
  0
ARC
  5
416
100
AcDbEntity
  8
BEZUGSACHSEN
100
AcDbCircle
 62
7
  6
CONTINUOUS
 10
745.8166960964
 20
211.7628789959
 40
17.8186001436
100
AcDbArc
 50
347.9243931906
 51
348.3066742044
  0
ARC
  5
417
100
AcDbEntity
  8
KONSTRUKTIONSELEMENTE
100
AcDbCircle
 62
7
  6
CONTINUOUS
 10
753.3711458398
 20
224.3133831086
 40
17.1149667096
100
AcDbArc
 50
298.2086946708
 51
298.5575363162
  0
ARC
  5
418
100
AcDbEntity
  8
BEZUGSACHSEN
100
AcDbCircle
 62
7
  6
CONTINUOUS
 10
754.0766225254
 20
223.8789891689
 40
16.6557017271
100
AcDbArc
 50
298.4239049832
 51
298.7798529252
  0
ARC
  5
419
100
AcDbEntity
  8
BEZUGSACHSEN
100
AcDbCircle
 62
7
  6
CONTINUOUS
 10
747.7830424668
 20
211.7031538083
 40
15.668060293
100
AcDbArc
 50
2.0088651568
 51
2.8440461573
  0
ARC
  5
41A
100
AcDbEntity
  8
BEZUGSACHSEN
100
AcDbCircle
 62
7
  6
CONTINUOUS
 10
752.2252609556
 20
217.9133881023
 40
9.9667650238
100
AcDbArc
 50
347.5747859075
 51
348.365314314
  0
ARC
  5
41B
100
AcDbEntity
  8
KONSTRUKTIONSELEMENTE
100
AcDbCircle
 62
7
  6
CONTINUOUS
 10
751.7517010658
 20
217.9487431157
 40
9.923241942
100
AcDbArc
 50
347.3102508346
 51
348.1050305775
  0
ARC
  5
41C
100
AcDbEntity
  8
BEZUGSACHSEN
100
AcDbCircle
 62
7
  6
CONTINUOUS
 10
758.1862956036
 20
213.5443403254
 40
8.0981174613
100
AcDbArc
 50
309.7582069275
 51
310.3696095303
  0
ARC
  5
41D
100
AcDbEntity
  8
BEZUGSACHSEN
100
AcDbCircle
 62
7
  6
CONTINUOUS
 10
755.7796206961
 20
217.342423103
 40
6.7534640298
100
AcDbArc
 50
340.5970771389
 51
341.362196504
  0
ARC
  5
41E
100
AcDbEntity
  8
KONSTRUKTIONSELEMENTE
100
AcDbCircle
 62
7
  6
CONTINUOUS
 10
740.1648980256
 20
211.7861308072
 40
3.0
100
AcDbArc
 50
315.0
 51
135.0
  0
ARC
  5
41F
100
AcDbEntity
  8
0
100
AcDbCircle
 62
7
  6
CONTINUOUS
 10
755.7212472117
 20
292.3424799933
 40
47.0
100
AcDbArc
 50
112.5275042369
 51
180.0
  0
ARC
  5
420
100
AcDbEntity
  8
0
100
AcDbCircle
 62
7
  6
CONTINUOUS
 10
755.7212472117
 20
292.3424799933
 40
47.0
100
AcDbArc
 50
0.0
 51
67.4724957631
  0
ARC
  5
421
100
AcDbEntity
  8
0
100
AcDbCircle
 62
7
  6
CONTINUOUS
 10
755.7212472117
 20
292.3424799933
 40
25.0
100
AcDbArc
 50
136.0731663025
 51
180.0
  0
ARC
  5
422
100
AcDbEntity
  8
0
100
AcDbCircle
 62
7
  6
CONTINUOUS
 10
755.7212472117
 20
292.3424799933
 40
25.0
100
AcDbArc
 50
0.0
 51
43.9268336975
  0
ARC
  5
423
100
AcDbEntity
  8
0
100
AcDbCircle
 62
7
  6
CONTINUOUS
 10
755.7212472117
 20
299.3424799933
 40
18.0
100
AcDbArc
 50
180.0
 51
360.0
  0
ARC
  5
424
100
AcDbEntity
  8
0
100
AcDbCircle
 62
7
  6
CONTINUOUS
 10
755.7212472117
 20
795.3424799933
 40
18.0
100
AcDbArc
 50
0.0
 51
180.0
  0
SPLINE
  5
425
100
AcDbEntity
  8
KONSTRUKTIONSELEMENTE
100
AcDbSpline
 62
7
  6
CONTINUOUS
 70
0
 71
3
 72
9
 73
5
 74
0
 42
0.0000001
 43
0.0000001
 44
0.0000000001
 40
0.0
 40
0.0
 40
0.0
 40
0.0
 40
0.4859207637
 40
1.0
 40
1.0
 40
1.0
 40
1.0
 10
283.1644271734
 20
144.2497506357
 30
0.0
 10
282.6327363814
 20
144.9835499944
 30
0.0
 10
281.1875286763
 20
146.250779877
 30
0.0
 10
279.4141252886
 20
146.9292012689
 30
0.0
 10
278.4791747304
 20
147.1412188092
 30
0.0
  0
SPLINE
  5
426
100
AcDbEntity
  8
KONSTRUKTIONSELEMENTE
100
AcDbSpline
 62
7
  6
CONTINUOUS
 70
0
 71
3
 72
9
 73
5
 74
0
 42
0.0000001
 43
0.0000001
 44
0.0000000001
 40
0.0
 40
0.0
 40
0.0
 40
0.0
 40
0.5141023376
 40
1.0
 40
1.0
 40
1.0
 40
1.0
 10
273.9728916311
 20
147.1416500216
 30
0.0
 10
273.0375074428
 20
146.9296899473
 30
0.0
 10
271.2632406726
 20
146.2513928346
 30
0.0
 10
269.8174920221
 20
144.9836205281
 30
0.0
 10
269.2856012934
 20
144.2495907571
 30
0.0
  0
SPLINE
  5
427
100
AcDbEntity
  8
KONSTRUKTIONSELEMENTE
100
AcDbSpline
 62
7
  6
CONTINUOUS
 70
0
 71
3
 72
9
 73
5
 74
0
 42
0.0000001
 43
0.0000001
 44
0.0000000001
 40
0.0
 40
0.0
 40
0.0
 40
0.0
 40
0.4858085289
 40
1.0
 40
1.0
 40
1.0
 40
1.0
 10
269.1232586675
 20
127.5304088335
 30
0.0
 10
269.621451454
 20
126.7683100901
 30
0.0
 10
271.0241557064
 20
125.4343164134
 30
0.0
 10
272.7877410159
 20
124.7008124484
 30
0.0
 10
273.721638074
 20
124.4630676285
 30
0.0
  0
SPLINE
  5
428
100
AcDbEntity
  8
KONSTRUKTIONSELEMENTE
100
AcDbSpline
 62
7
  6
CONTINUOUS
 70
0
 71
3
 72
10
 73
6
 74
0
 42
0.0000001
 43
0.0000001
 44
0.0000000001
 40
0.0
 40
0.0
 40
0.0
 40
0.0
 40
0.5129092974
 40
0.7594793488
 40
1.0
 40
1.0
 40
1.0
 40
1.0
 10
278.7293902124
 20
124.4633148181
 30
0.0
 10
279.6641200915
 20
124.7013814841
 30
0.0
 10
281.0141332342
 20
125.2677087799
 30
0.0
 10
282.4917031158
 20
126.445222794
 30
0.0
 10
283.0829257254
 20
127.156509748
 30
0.0
 10
283.330091468
 20
127.5353267733
 30
0.0
  0
SPLINE
  5
429
100
AcDbEntity
  8
KONSTRUKTIONSELEMENTE
100
AcDbSpline
 62
7
  6
CONTINUOUS
 70
0
 71
3
 72
10
 73
6
 74
0
 42
0.0000001
 43
0.0000001
 44
0.0000000001
 40
0.0
 40
0.0
 40
0.0
 40
0.0
 40
0.3192646009
 40
0.6086079864
 40
1.0
 40
1.0
 40
1.0
 40
1.0
 10
279.7250624099
 20
172.1881510608
 30
0.0
 10
279.7250624099
 20
172.359890836
 30
0.0
 10
279.5830466233
 20
172.6807420509
 30
0.0
 10
279.2172406087
 20
173.0740943903
 30
0.0
 10
278.9139527759
 20
173.2871343036
 30
0.0
 10
278.7314164749
 20
173.3920489
 30
0.0
  0
SPLINE
  5
42A
100
AcDbEntity
  8
KONSTRUKTIONSELEMENTE
100
AcDbSpline
 62
7
  6
CONTINUOUS
 70
0
 71
3
 72
10
 73
6
 74
0
 42
0.0000001
 43
0.0000001
 44
0.0000000001
 40
0.0
 40
0.0
 40
0.0
 40
0.0
 40
0.3914026107
 40
0.6807340322
 40
1.0
 40
1.0
 40
1.0
 40
1.0
 10
273.7186168088
 20
173.3919964289
 30
0.0
 10
273.5360895653
 20
173.2870810194
 30
0.0
 10
273.2328499846
 20
173.0740219479
 30
0.0
 10
272.86702928
 20
172.6807235873
 30
0.0
 10
272.7250624099
 20
172.3598808464
 30
0.0
 10
272.7250624099
 20
172.1881510608
 30
0.0
  0
SPLINE
  5
42B
100
AcDbEntity
  8
KONSTRUKTIONSELEMENTE
100
AcDbSpline
 62
7
  6
CONTINUOUS
 70
0
 71
3
 72
11
 73
7
 74
0
 42
0.0000001
 43
0.0000001
 44
0.0000000001
 40
0.0
 40
0.0
 40
0.0
 40
0.0
 40
0.2388488055
 40
0.4826650946
 40
0.7357658276
 40
1.0
 40
1.0
 40
1.0
 40
1.0
 10
284.2092483673
 20
172.5902019485
 30
0.0
 10
284.1571894923
 20
173.2517374159
 30
0.0
 10
283.7825944063
 20
174.5794569805
 30
0.0
 10
282.540151999
 20
176.2493422983
 30
0.0
 10
280.7995200964
 20
177.4982852527
 30
0.0
 10
279.4399035472
 20
178.0128270124
 30
0.0
 10
278.7284867458
 20
178.193934403
 30
0.0
  0
SPLINE
  5
42C
100
AcDbEntity
  8
KONSTRUKTIONSELEMENTE
100
AcDbSpline
 62
7
  6
CONTINUOUS
 70
0
 71
3
 72
11
 73
7
 74
0
 42
0.0000001
 43
0.0000001
 44
0.0000000001
 40
0.0
 40
0.0
 40
0.0
 40
0.0
 40
0.2642365791
 40
0.5173197099
 40
0.7611154166
 40
1.0
 40
1.0
 40
1.0
 40
1.0
 10
273.7207346074
 20
178.1936872135
 30
0.0
 10
273.0094090699
 20
178.012519474
 30
0.0
 10
271.6500096492
 20
177.4979622984
 30
0.0
 10
269.9097865431
 20
176.2490597787
 30
0.0
 10
268.6674087566
 20
174.5794136166
 30
0.0
 10
268.2929725687
 20
173.2517571704
 30
0.0
 10
268.240887005
 20
172.5901968593
 30
0.0
  0
SPLINE
  5
42D
100
AcDbEntity
  8
KONSTRUKTIONSELEMENTE
100
AcDbSpline
 62
7
  6
CONTINUOUS
 70
0
 71
3
 72
9
 73
5
 74
0
 42
0.0000001
 43
0.0000001
 44
0.0000000001
 40
0.0
 40
0.0
 40
0.0
 40
0.0
 40
0.4893425855
 40
1.0
 40
1.0
 40
1.0
 40
1.0
 10
270.125205628
 20
157.4641410963
 30
0.0
 10
270.6454549859
 20
156.982152668
 30
0.0
 10
271.8659501606
 20
156.1602378176
 30
0.0
 10
273.249178665
 20
155.6794584036
 30
0.0
 10
273.9709500894
 20
155.5157832223
 30
0.0
  0
SPLINE
  5
42E
100
AcDbEntity
  8
KONSTRUKTIONSELEMENTE
100
AcDbSpline
 62
7
  6
CONTINUOUS
 70
0
 71
3
 72
9
 73
5
 74
0
 42
0.0000001
 43
0.0000001
 44
0.0000000001
 40
0.0
 40
0.0
 40
0.0
 40
0.0
 40
0.5106765564
 40
1.0
 40
1.0
 40
1.0
 40
1.0
 10
278.4772331887
 20
155.51535201
 30
0.0
 10
279.1990607797
 20
155.6789196988
 30
0.0
 10
280.5824038173
 20
156.1593652376
 30
0.0
 10
281.8031020664
 20
156.9809806486
 30
0.0
 10
282.3234739799
 20
157.4628005388
 30
0.0
  0
SPLINE
  5
42F
100
AcDbEntity
  8
KONSTRUKTIONSELEMENTE
100
AcDbSpline
 62
7
  6
CONTINUOUS
 70
0
 71
3
 72
9
 73
5
 74
0
 42
0.0000001
 43
0.0000001
 44
0.0000000001
 40
0.0
 40
0.0
 40
0.0
 40
0.0
 40
0.2404990325
 40
1.0
 40
1.0
 40
1.0
 40
1.0
 10
273.6157672885
 20
160.4392169451
 30
0.0
 10
273.643478604
 20
160.4219664831
 30
0.0
 10
273.7597722833
 20
160.3519643434
 30
0.0
 10
273.8800902728
 20
160.2887050423
 30
0.0
 10
273.9730705216
 20
160.2441970477
 30
0.0
  0
SPLINE
  5
430
100
AcDbEntity
  8
KONSTRUKTIONSELEMENTE
100
AcDbSpline
 62
7
  6
CONTINUOUS
 70
0
 71
3
 72
9
 73
5
 74
0
 42
0.0000001
 43
0.0000001
 44
0.0000000001
 40
0.0
 40
0.0
 40
0.0
 40
0.0
 40
0.2593015787
 40
1.0
 40
1.0
 40
1.0
 40
1.0
 10
278.4768116454
 20
160.2440851196
 30
0.0
 10
278.5085771341
 20
160.2592876356
 30
0.0
 10
278.6303111188
 20
160.3195019518
 30
0.0
 10
278.7489502535
 20
160.3860491949
 30
0.0
 10
278.8343492514
 20
160.4392124173
 30
0.0
  0
SPLINE
  5
431
100
AcDbEntity
  8
KONSTRUKTIONSELEMENTE
100
AcDbSpline
 62
7
  6
CONTINUOUS
 70
0
 71
3
 72
9
 73
5
 74
0
 42
0.0000001
 43
0.0000001
 44
0.0000000001
 40
0.0
 40
0.0
 40
0.0
 40
0.0
 40
0.231757029
 40
1.0
 40
1.0
 40
1.0
 40
1.0
 10
261.092544963
 20
191.5904254132
 30
0.0
 10
261.3872734414
 20
191.2572413083
 30
0.0
 10
262.7399383078
 20
189.8914563093
 30
0.0
 10
264.3738004186
 20
188.820536073
 30
0.0
 10
265.6911687432
 20
188.1580622435
 30
0.0
  0
SPLINE
  5
432
100
AcDbEntity
  8
KONSTRUKTIONSELEMENTE
100
AcDbSpline
 62
7
  6
CONTINUOUS
 70
0
 71
3
 72
9
 73
5
 74
0
 42
0.0000001
 43
0.0000001
 44
0.0000000001
 40
0.0
 40
0.0
 40
0.0
 40
0.0
 40
0.2686941333
 40
1.0
 40
1.0
 40
1.0
 40
1.0
 10
286.7600643478
 20
188.1586142422
 30
0.0
 10
287.2207810757
 20
188.3903320255
 30
0.0
 10
288.8983171638
 20
189.3212319101
 30
0.0
 10
290.4292462011
 20
190.5405395418
 30
0.0
 10
291.3590010637
 20
191.5920378788
 30
0.0
  0
SPLINE
  5
433
100
AcDbEntity
  8
KONSTRUKTIONSELEMENTE
100
AcDbSpline
 62
7
  6
CONTINUOUS
 70
0
 71
3
 72
9
 73
5
 74
0
 42
0.0000001
 43
0.0000001
 44
0.0000000001
 40
0.0
 40
0.0
 40
0.0
 40
0.0
 40
0.4866272252
 40
1.0
 40
1.0
 40
1.0
 40
1.0
 10
260.3797818123
 20
184.3265388962
 30
0.0
 10
262.2848284199
 20
183.0388966354
 30
0.0
 10
266.6186579999
 20
180.9906916152
 30
0.0
 10
271.3047700721
 20
180.0831870712
 30
0.0
 10
273.7230682278
 20
179.8928887537
 30
0.0
  0
SPLINE
  5
434
100
AcDbEntity
  8
KONSTRUKTIONSELEMENTE
100
AcDbSpline
 62
7
  6
CONTINUOUS
 70
0
 71
3
 72
9
 73
5
 74
0
 42
0.0000001
 43
0.0000001
 44
0.0000000001
 40
0.0
 40
0.0
 40
0.0
 40
0.0
 40
0.5133870922
 40
1.0
 40
1.0
 40
1.0
 40
1.0
 10
278.7263830601
 20
179.8928284211
 30
0.0
 10
281.1460028905
 20
180.0831634013
 30
0.0
 10
285.83455469
 20
180.9913429364
 30
0.0
 10
290.1703085453
 20
183.0414697268
 30
0.0
 10
292.075902805
 20
184.3303013061
 30
0.0
  0
SPLINE
  5
435
100
AcDbEntity
  8
BEZUGSACHSEN
100
AcDbSpline
 62
7
  6
CONTINUOUS
 70
0
 71
3
 72
9
 73
5
 74
0
 42
0.0000001
 43
0.0000001
 44
0.0000000001
 40
0.0
 40
0.0
 40
0.0
 40
0.0
 40
0.4734684586
 40
1.0
 40
1.0
 40
1.0
 40
1.0
 10
281.1226780608
 20
114.5570793001
 30
0.0
 10
280.8360324237
 20
114.1605371554
 30
0.0
 10
280.0598100528
 20
113.4431681803
 30
0.0
 10
279.1147613697
 20
112.993084455
 30
0.0
 10
278.5993390986
 20
112.818666756
 30
0.0
  0
SPLINE
  5
436
100
AcDbEntity
  8
BEZUGSACHSEN
100
AcDbSpline
 62
7
  6
CONTINUOUS
 70
0
 71
3
 72
9
 73
5
 74
0
 42
0.0000001
 43
0.0000001
 44
0.0000000001
 40
0.0
 40
0.0
 40
0.0
 40
0.0
 40
0.5265315414
 40
1.0
 40
1.0
 40
1.0
 40
1.0
 10
273.8507857212
 20
112.818666756
 30
0.0
 10
273.3353634501
 20
112.993084455
 30
0.0
 10
272.3903147669
 20
113.4431681803
 30
0.0
 10
271.6140923961
 20
114.1605371554
 30
0.0
 10
271.327446759
 20
114.5570793001
 30
0.0
  0
SPLINE
  5
437
100
AcDbEntity
  8
KONSTRUKTIONSELEMENTE
100
AcDbSpline
 62
7
  6
CONTINUOUS
 70
0
 71
3
 72
12
 73
8
 74
0
 42
0.0000001
 43
0.0000001
 44
0.0000000001
 40
0.0
 40
0.0
 40
0.0
 40
0.0
 40
0.1036816392
 40
0.2121139465
 40
0.449231254
 40
0.7155939928
 40
1.0
 40
1.0
 40
1.0
 40
1.0
 10
270.2847369578
 20
43.7154199404
 30
0.0
 10
270.2529475414
 20
43.9425073815
 30
0.0
 10
270.1260441244
 20
44.4003140484
 30
0.0
 10
269.6333364023
 20
45.2723335805
 30
0.0
 10
268.5921942882
 20
46.1943172083
 30
0.0
 10
266.9638420208
 20
46.8743188523
 30
0.0
 10
265.7390530731
 20
47.0302507908
 30
0.0
 10
265.1100624099
 20
47.0302507908
 30
0.0
  0
SPLINE
  5
438
100
AcDbEntity
  8
KONSTRUKTIONSELEMENTE
100
AcDbSpline
 62
7
  6
CONTINUOUS
 70
0
 71
3
 72
9
 73
5
 74
0
 42
0.0000001
 43
0.0000001
 44
0.0000000001
 40
0.0
 40
0.0
 40
0.0
 40
0.0
 40
0.2444736488
 40
1.0
 40
1.0
 40
1.0
 40
1.0
 10
242.7445623658
 20
90.1286810028
 30
0.0
 10
242.7445761846
 20
90.1788868672
 30
0.0
 10
242.7290257496
 20
90.3842511276
 30
0.0
 10
242.6472825731
 20
90.5821909529
 30
0.0
 10
242.561864273
 20
90.711718869
 30
0.0
  0
SPLINE
  5
439
100
AcDbEntity
  8
KONSTRUKTIONSELEMENTE
100
AcDbSpline
 62
7
  6
CONTINUOUS
 70
0
 71
3
 72
11
 73
7
 74
0
 42
0.0000001
 43
0.0000001
 44
0.0000000001
 40
0.0
 40
0.0
 40
0.0
 40
0.0
 40
0.2200436456
 40
0.4557793627
 40
0.7157728079
 40
1.0
 40
1.0
 40
1.0
 40
1.0
 10
233.5029689354
 20
90.4296610538
 30
0.0
 10
233.5030050414
 20
90.5608396084
 30
0.0
 10
233.5606139694
 20
90.8350125958
 30
0.0
 10
233.8015737902
 20
91.196973437
 30
0.0
 10
234.1689910582
 20
91.4913910402
 30
0.0
 10
234.4679421921
 20
91.6259639525
 30
0.0
 10
234.6288616025
 20
91.6790237982
 30
0.0
  0
SPLINE
  5
43A
100
AcDbEntity
  8
KONSTRUKTIONSELEMENTE
100
AcDbSpline
 62
7
  6
CONTINUOUS
 70
0
 71
3
 72
11
 73
7
 74
0
 42
0.0000001
 43
0.0000001
 44
0.0000000001
 40
0.0
 40
0.0
 40
0.0
 40
0.0
 40
0.2200599668
 40
0.4557760239
 40
0.7157731965
 40
1.0
 40
1.0
 40
1.0
 40
1.0
 10
224.8631006066
 20
104.7037222408
 30
0.0
 10
224.8631479207
 20
105.1410915378
 30
0.0
 10
225.0548147012
 20
106.0552297022
 30
0.0
 10
225.8580345508
 20
107.2621146524
 30
0.0
 10
227.0829139536
 20
108.2436818248
 30
0.0
 10
228.0795737255
 20
108.6923921705
 30
0.0
 10
228.6160630256
 20
108.8692884158
 30
0.0
  0
SPLINE
  5
43B
100
AcDbEntity
  8
KONSTRUKTIONSELEMENTE
100
AcDbSpline
 62
7
  6
CONTINUOUS
 70
0
 71
3
 72
9
 73
5
 74
0
 42
0.0000001
 43
0.0000001
 44
0.0000000001
 40
0.0
 40
0.0
 40
0.0
 40
0.0
 40
0.4891681133
 40
1.0
 40
1.0
 40
1.0
 40
1.0
 10
224.8631008668
 20
101.1680345454
 30
0.0
 10
224.8630812759
 20
100.8325169486
 30
0.0
 10
224.9721655268
 20
100.1428127865
 30
0.0
 10
225.2791891807
 20
99.5182529082
 30
0.0
 10
225.4720811112
 20
99.2257524748
 30
0.0
  0
SPLINE
  5
43C
100
AcDbEntity
  8
KONSTRUKTIONSELEMENTE
100
AcDbSpline
 62
7
  6
CONTINUOUS
 70
0
 71
3
 72
9
 73
5
 74
0
 42
0.0000001
 43
0.0000001
 44
0.0000000001
 40
0.0
 40
0.0
 40
0.0
 40
0.0
 40
0.4891683995
 40
1.0
 40
1.0
 40
1.0
 40
1.0
 10
300.0188145845
 20
57.3259211935
 30
0.0
 10
300.0187782859
 20
57.6614637869
 30
0.0
 10
300.1278481684
 20
58.3512247923
 30
0.0
 10
300.4348890078
 20
58.9758351621
 30
0.0
 10
300.627795089
 20
59.2683570536
 30
0.0
  0
SPLINE
  5
43D
100
AcDbEntity
  8
KONSTRUKTIONSELEMENTE
100
AcDbSpline
 62
7
  6
CONTINUOUS
 70
0
 71
3
 72
9
 73
5
 74
0
 42
0.0000001
 43
0.0000001
 44
0.0000000001
 40
0.0
 40
0.0
 40
0.0
 40
0.0
 40
0.4694103614
 40
1.0
 40
1.0
 40
1.0
 40
1.0
 10
300.5198031367
 20
59.0920031007
 30
0.0
 10
300.8460893977
 20
58.5389880246
 30
0.0
 10
301.8300544777
 20
57.527317378
 30
0.0
 10
303.0824973926
 20
56.923164613
 30
0.0
 10
303.7717770035
 20
56.6958889244
 30
0.0
  0
SPLINE
  5
43E
100
AcDbEntity
  8
KONSTRUKTIONSELEMENTE
100
AcDbSpline
 62
7
  6
CONTINUOUS
 70
0
 71
3
 72
11
 73
7
 74
0
 42
0.0000001
 43
0.0000001
 44
0.0000000001
 40
0.0
 40
0.0
 40
0.0
 40
0.0
 40
0.2094829334
 40
0.4446557434
 40
0.7120095299
 40
1.0
 40
1.0
 40
1.0
 40
1.0
 10
267.7100624099
 20
30.483952111
 30
0.0
 10
267.7100624099
 20
30.3012226974
 30
0.0
 10
267.828736068
 20
29.9087609596
 30
0.0
 10
268.2831149556
 20
29.4593493212
 30
0.0
 10
268.9213818839
 20
29.1707740058
 30
0.0
 10
269.4088518273
 20
29.1050938877
 30
0.0
 10
269.6600624099
 20
29.1050938877
 30
0.0
  0
SPLINE
  5
43F
100
AcDbEntity
  8
KONSTRUKTIONSELEMENTE
100
AcDbSpline
 62
7
  6
CONTINUOUS
 70
0
 71
3
 72
9
 73
5
 74
0
 42
0.0000001
 43
0.0000001
 44
0.0000000001
 40
0.0
 40
0.0
 40
0.0
 40
0.0
 40
0.4535493247
 40
1.0
 40
1.0
 40
1.0
 40
1.0
 10
311.8053738459
 20
53.754110263
 30
0.0
 10
311.8053790718
 20
53.8431545865
 30
0.0
 10
311.7135148541
 20
54.0397908659
 30
0.0
 10
311.5319654346
 20
54.1371273692
 30
0.0
 10
311.4300778039
 20
54.1707227071
 30
0.0
  0
SPLINE
  5
440
100
AcDbEntity
  8
BEZUGSACHSEN
100
AcDbSpline
 62
7
  6
CONTINUOUS
 70
0
 71
3
 72
9
 73
5
 74
0
 42
0.0000001
 43
0.0000001
 44
0.0000000001
 40
0.0
 40
0.0
 40
0.0
 40
0.0
 40
0.2459387646
 40
1.0
 40
1.0
 40
1.0
 40
1.0
 10
282.9869545977
 20
122.3377767728
 30
0.0
 10
282.6472587311
 20
122.4497844556
 30
0.0
 10
281.2537551252
 20
122.8673530694
 30
0.0
 10
279.8165132617
 20
123.1366575046
 30
0.0
 10
278.7266365593
 20
123.2586507887
 30
0.0
  0
SPLINE
  5
441
100
AcDbEntity
  8
BEZUGSACHSEN
100
AcDbSpline
 62
7
  6
CONTINUOUS
 70
0
 71
3
 72
9
 73
5
 74
0
 42
0.0000001
 43
0.0000001
 44
0.0000000001
 40
0.0
 40
0.0
 40
0.0
 40
0.0
 40
0.2536983179
 40
1.0
 40
1.0
 40
1.0
 40
1.0
 10
273.7234882605
 20
123.2586507887
 30
0.0
 10
273.356814108
 20
123.2176078121
 30
0.0
 10
271.9158377935
 20
123.0199160073
 30
0.0
 10
270.4939589273
 20
122.6776580185
 30
0.0
 10
269.463170222
 20
122.3377767728
 30
0.0
  0
SPLINE
  5
442
100
AcDbEntity
  8
BEZUGSACHSEN
100
AcDbSpline
 62
7
  6
CONTINUOUS
 70
0
 71
3
 72
11
 73
7
 74
0
 42
0.0000001
 43
0.0000001
 44
0.0000000001
 40
0.0
 40
0.0
 40
0.0
 40
0.0
 40
0.221185816
 40
0.4572071684
 40
0.716647289
 40
1.0
 40
1.0
 40
1.0
 40
1.0
 10
270.7250624099
 20
112.7911814411
 30
0.0
 10
270.7250624099
 20
113.1493739488
 30
0.0
 10
270.8762776667
 20
113.8962804166
 30
0.0
 10
271.5135992612
 20
114.8913351558
 30
0.0
 10
272.4910932893
 20
115.7125308083
 30
0.0
 10
273.2908660062
 20
116.0983643529
 30
0.0
 10
273.7224161941
 20
116.2543231165
 30
0.0
  0
SPLINE
  5
443
100
AcDbEntity
  8
BEZUGSACHSEN
100
AcDbSpline
 62
7
  6
CONTINUOUS
 70
0
 71
3
 72
11
 73
7
 74
0
 42
0.0000001
 43
0.0000001
 44
0.0000000001
 40
0.0
 40
0.0
 40
0.0
 40
0.0
 40
0.283352711
 40
0.5427928316
 40
0.778814184
 40
1.0
 40
1.0
 40
1.0
 40
1.0
 10
278.7277086257
 20
116.2543231165
 30
0.0
 10
279.1592588136
 20
116.0983643529
 30
0.0
 10
279.9590315304
 20
115.7125308083
 30
0.0
 10
280.9365255585
 20
114.8913351558
 30
0.0
 10
281.5738471531
 20
113.8962804166
 30
0.0
 10
281.7250624099
 20
113.1493739488
 30
0.0
 10
281.7250624099
 20
112.7911814411
 30
0.0
  0
SPLINE
  5
444
100
AcDbEntity
  8
KONSTRUKTIONSELEMENTE
100
AcDbSpline
 62
7
  6
CONTINUOUS
 70
0
 71
3
 72
9
 73
5
 74
0
 42
0.0000001
 43
0.0000001
 44
0.0000000001
 40
0.0
 40
0.0
 40
0.0
 40
0.0
 40
0.5108269807
 40
1.0
 40
1.0
 40
1.0
 40
1.0
 10
341.1164451863
 20
94.5639071506
 30
0.0
 10
341.309342097
 20
94.8564151358
 30
0.0
 10
341.616371674
 20
95.4810042852
 30
0.0
 10
341.725438632
 20
96.1707288417
 30
0.0
 10
341.7254446099
 20
96.5062616891
 30
0.0
  0
SPLINE
  5
445
100
AcDbEntity
  8
KONSTRUKTIONSELEMENTE
100
AcDbSpline
 62
7
  6
CONTINUOUS
 70
0
 71
3
 72
9
 73
5
 74
0
 42
0.0000001
 43
0.0000001
 44
0.0000000001
 40
0.0
 40
0.0
 40
0.0
 40
0.0
 40
0.5322168521
 40
1.0
 40
1.0
 40
1.0
 40
1.0
 10
339.7032395144
 20
93.5084807607
 30
0.0
 10
339.8606536989
 20
93.4565766907
 30
0.0
 10
340.1864682271
 20
93.4431924625
 30
0.0
 10
340.4868385723
 20
93.6091745862
 30
0.0
 10
340.5670414461
 20
93.7307938539
 30
0.0
  0
SPLINE
  5
446
100
AcDbEntity
  8
KONSTRUKTIONSELEMENTE
100
AcDbSpline
 62
7
  6
CONTINUOUS
 70
0
 71
3
 72
9
 73
5
 74
0
 42
0.0000001
 43
0.0000001
 44
0.0000000001
 40
0.0
 40
0.0
 40
0.0
 40
0.0
 40
0.2605100871
 40
1.0
 40
1.0
 40
1.0
 40
1.0
 10
311.7444759954
 20
50.0243885977
 30
0.0
 10
311.754282598
 20
50.0392592847
 30
0.0
 10
311.7883081107
 20
50.0986012041
 30
0.0
 10
311.8053708783
 20
50.1680116621
 30
0.0
 10
311.8053738459
 20
50.2185763571
 30
0.0
  0
SPLINE
  5
447
100
AcDbEntity
  8
KONSTRUKTIONSELEMENTE
100
AcDbSpline
 62
7
  6
CONTINUOUS
 70
0
 71
3
 72
11
 73
7
 74
0
 42
0.0000001
 43
0.0000001
 44
0.0000000001
 40
0.0
 40
0.0
 40
0.0
 40
0.0
 40
0.2729767978
 40
0.5353848362
 40
0.7789285996
 40
1.0
 40
1.0
 40
1.0
 40
1.0
 10
305.6290093306
 20
47.0302507908
 30
0.0
 10
306.2383871104
 20
47.0302507908
 30
0.0
 10
307.4371603991
 20
47.1485734598
 30
0.0
 10
309.1089049827
 20
47.6730738284
 30
0.0
 10
310.5200216891
 20
48.5059945326
 30
0.0
 10
311.2483207688
 20
49.2720211016
 30
0.0
 10
311.5200099464
 20
49.6840093167
 30
0.0
  0
SPLINE
  5
448
100
AcDbEntity
  8
KONSTRUKTIONSELEMENTE
100
AcDbSpline
 62
7
  6
CONTINUOUS
 70
0
 71
3
 72
12
 73
8
 74
0
 42
0.0000001
 43
0.0000001
 44
0.0000000001
 40
0.0
 40
0.0
 40
0.0
 40
0.0
 40
0.2874299875
 40
0.5543031619
 40
0.7890514157
 40
0.8964066692
 40
1.0
 40
1.0
 40
1.0
 40
1.0
 10
287.3400624099
 20
47.0302507908
 30
0.0
 10
286.6702153627
 20
47.0302507908
 30
0.0
 10
285.3703492547
 20
46.8540656547
 30
0.0
 10
283.6680412154
 20
46.0888295332
 30
0.0
 10
282.6303292582
 20
45.0505417311
 30
0.0
 10
282.2101835871
 20
44.0888382651
 30
0.0
 10
282.1400624099
 20
43.5947167086
 30
0.0
 10
282.1400624099
 20
43.3532955286
 30
0.0
  0
SPLINE
  5
449
100
AcDbEntity
  8
KONSTRUKTIONSELEMENTE
100
AcDbSpline
 62
7
  6
CONTINUOUS
 70
0
 71
3
 72
11
 73
7
 74
0
 42
0.0000001
 43
0.0000001
 44
0.0000000001
 40
0.0
 40
0.0
 40
0.0
 40
0.0
 40
0.220058334
 40
0.4557781708
 40
0.71578719
 40
1.0
 40
1.0
 40
1.0
 40
1.0
 10
341.7254446099
 20
100.041795595
 30
0.0
 10
341.725452402
 20
100.4791684523
 30
0.0
 10
341.5337412689
 20
101.3933325425
 30
0.0
 10
340.7305187041
 20
102.6002615544
 30
0.0
 10
339.5056051969
 20
103.5818428783
 30
0.0
 10
338.5089345032
 20
104.0305528042
 30
0.0
 10
337.9724632719
 20
104.2074430916
 30
0.0
  0
SPLINE
  5
44A
100
AcDbEntity
  8
KONSTRUKTIONSELEMENTE
100
AcDbSpline
 62
7
  6
CONTINUOUS
 70
0
 71
3
 72
11
 73
7
 74
0
 42
0.0000001
 43
0.0000001
 44
0.0000000001
 40
0.0
 40
0.0
 40
0.0
 40
0.0
 40
0.2879904701
 40
0.5553442566
 40
0.7905170666
 40
1.0
 40
1.0
 40
1.0
 40
1.0
 10
282.7900624099
 20
29.1050938877
 30
0.0
 10
283.0412729925
 20
29.1050938877
 30
0.0
 10
283.5287429359
 20
29.1707740058
 30
0.0
 10
284.1670098641
 20
29.4593493212
 30
0.0
 10
284.6213887518
 20
29.9087609596
 30
0.0
 10
284.7400624099
 20
30.3012226974
 30
0.0
 10
284.7400624099
 20
30.483952111
 30
0.0
  0
SPLINE
  5
44B
100
AcDbEntity
  8
KONSTRUKTIONSELEMENTE
100
AcDbSpline
 62
7
  6
CONTINUOUS
 70
0
 71
3
 72
11
 73
7
 74
0
 42
0.0000001
 43
0.0000001
 44
0.0000000001
 40
0.0
 40
0.0
 40
0.0
 40
0.0
 40
0.2820767698
 40
0.5407553301
 40
0.7772666753
 40
1.0
 40
1.0
 40
1.0
 40
1.0
 10
287.350881475
 20
47.0016373457
 30
0.0
 10
286.9713489785
 20
46.8475724905
 30
0.0
 10
286.2703009637
 20
46.4770466035
 30
0.0
 10
285.4198069908
 20
45.7150398219
 30
0.0
 10
284.8696650906
 20
44.8087074756
 30
0.0
 10
284.7400624099
 20
44.1363515132
 30
0.0
 10
284.7400624099
 20
43.8129149364
 30
0.0
  0
SPLINE
  5
44C
100
AcDbEntity
  8
KONSTRUKTIONSELEMENTE
100
AcDbSpline
 62
7
  6
CONTINUOUS
 70
0
 71
3
 72
11
 73
7
 74
0
 42
0.0000001
 43
0.0000001
 44
0.0000000001
 40
0.0
 40
0.0
 40
0.0
 40
0.0
 40
0.2814501369
 40
0.5397962415
 40
0.77655066
 40
1.0
 40
1.0
 40
1.0
 40
1.0
 10
265.1976881067
 20
47.0311277554
 30
0.0
 10
265.5644439508
 20
46.8745603077
 30
0.0
 10
266.2409574085
 20
46.5022887397
 30
0.0
 10
267.058915364
 20
45.7476294452
 30
0.0
 10
267.5862313112
 20
44.8572100624
 30
0.0
 10
267.7100624099
 20
44.1999737808
 30
0.0
 10
267.7100624099
 20
43.8833759926
 30
0.0
  0
SPLINE
  5
44D
100
AcDbEntity
  8
KONSTRUKTIONSELEMENTE
100
AcDbSpline
 62
7
  6
CONTINUOUS
 70
0
 71
3
 72
9
 73
5
 74
0
 42
0.0000001
 43
0.0000001
 44
0.0000000001
 40
0.0
 40
0.0
 40
0.0
 40
0.0
 40
0.2603055034
 40
1.0
 40
1.0
 40
1.0
 40
1.0
 10
233.6856670281
 20
87.2303280973
 30
0.0
 10
233.6562486204
 20
87.2749380349
 30
0.0
 10
233.5541618293
 20
87.4531314065
 30
0.0
 10
233.5029271402
 20
87.6615178902
 30
0.0
 10
233.5029689354
 20
87.8133659634
 30
0.0
  0
SPLINE
  5
44E
100
AcDbEntity
  8
KONSTRUKTIONSELEMENTE
100
AcDbSpline
 62
7
  6
CONTINUOUS
 70
0
 71
3
 72
10
 73
6
 74
0
 42
0.0000001
 43
0.0000001
 44
0.0000000001
 40
0.0
 40
0.0
 40
0.0
 40
0.0
 40
0.4635439404
 40
0.7255367567
 40
1.0
 40
1.0
 40
1.0
 40
1.0
 10
258.1428104092
 20
49.6840093167
 30
0.0
 10
258.6389289283
 20
48.9316974835
 30
0.0
 10
259.8051681299
 20
48.0050260475
 30
0.0
 10
261.6216745431
 20
47.3081351961
 30
0.0
 10
262.6559904549
 20
47.1187429263
 30
0.0
 10
263.1872840166
 20
47.069395822
 30
0.0
  0
SPLINE
  5
44F
100
AcDbEntity
  8
KONSTRUKTIONSELEMENTE
100
AcDbSpline
 62
7
  6
CONTINUOUS
 70
0
 71
3
 72
12
 73
8
 74
0
 42
0.0000001
 43
0.0000001
 44
0.0000000001
 40
0.0
 40
0.0
 40
0.0
 40
0.0
 40
0.2199892542
 40
0.4691122488
 40
0.6015677759
 40
0.7360118573
 40
1.0
 40
1.0
 40
1.0
 40
1.0
 10
323.4069193969
 20
93.8105160464
 30
0.0
 10
323.7892474094
 20
94.3902764805
 30
0.0
 10
324.9190386011
 20
95.4230938179
 30
0.0
 10
326.7044485322
 20
96.1516399835
 30
0.0
 10
328.3123263347
 20
96.4407682769
 30
0.0
 10
329.9905337088
 20
96.5050321622
 30
0.0
 10
331.2534787392
 20
96.2946145271
 30
0.0
 10
332.0449387139
 20
96.033646978
 30
0.0
  0
SPLINE
  5
450
100
AcDbEntity
  8
KONSTRUKTIONSELEMENTE
100
AcDbSpline
 62
7
  6
CONTINUOUS
 70
0
 71
3
 72
11
 73
7
 74
0
 42
0.0000001
 43
0.0000001
 44
0.0000000001
 40
0.0
 40
0.0
 40
0.0
 40
0.0
 40
0.220058334
 40
0.4557781708
 40
0.71578719
 40
1.0
 40
1.0
 40
1.0
 40
1.0
 10
341.7254446099
 20
96.5062616891
 30
0.0
 10
341.725452402
 20
96.9436345464
 30
0.0
 10
341.5337412689
 20
97.8577986365
 30
0.0
 10
340.7305187041
 20
99.0647276484
 30
0.0
 10
339.5056051969
 20
100.0463089723
 30
0.0
 10
338.5089345032
 20
100.4950188982
 30
0.0
 10
337.9724632719
 20
100.6719091857
 30
0.0
  0
SPLINE
  5
451
100
AcDbEntity
  8
KONSTRUKTIONSELEMENTE
100
AcDbSpline
 62
7
  6
CONTINUOUS
 70
0
 71
3
 72
9
 73
5
 74
0
 42
0.0000001
 43
0.0000001
 44
0.0000000001
 40
0.0
 40
0.0
 40
0.0
 40
0.0
 40
0.5398499172
 40
1.0
 40
1.0
 40
1.0
 40
1.0
 10
241.6186696987
 20
89.3389376662
 30
0.0
 10
241.8774843532
 20
89.4242764429
 30
0.0
 10
242.3393496533
 20
89.6619603058
 30
0.0
 10
242.64709483
 20
90.1015494881
 30
0.0
 10
242.708737096
 20
90.3255090589
 30
0.0
  0
SPLINE
  5
452
100
AcDbEntity
  8
KONSTRUKTIONSELEMENTE
100
AcDbSpline
 62
7
  6
CONTINUOUS
 70
0
 71
3
 72
11
 73
7
 74
0
 42
0.0000001
 43
0.0000001
 44
0.0000000001
 40
0.0
 40
0.0
 40
0.0
 40
0.0
 40
0.2816064552
 40
0.5417085427
 40
0.7793419382
 40
1.0
 40
1.0
 40
1.0
 40
1.0
 10
240.5198622182
 20
91.0051642596
 30
0.0
 10
240.6672341754
 20
91.0537571129
 30
0.0
 10
240.9428326316
 20
91.1750038125
 30
0.0
 10
241.2902651076
 20
91.4346692401
 30
0.0
 10
241.535826382
 20
91.7523548112
 30
0.0
 10
241.6190339598
 20
91.9972681129
 30
0.0
 10
241.6360800502
 20
92.1176588388
 30
0.0
  0
SPLINE
  5
453
100
AcDbEntity
  8
BEZUGSACHSEN
100
AcDbSpline
 62
7
  6
CONTINUOUS
 70
0
 71
3
 72
9
 73
5
 74
0
 42
0.0000001
 43
0.0000001
 44
0.0000000001
 40
0.0
 40
0.0
 40
0.0
 40
0.0
 40
0.2459387646
 40
1.0
 40
1.0
 40
1.0
 40
1.0
 10
282.9869545977
 20
118.8022428669
 30
0.0
 10
282.6472587311
 20
118.9142505496
 30
0.0
 10
281.2537551252
 20
119.3318191635
 30
0.0
 10
279.8165132617
 20
119.6011235986
 30
0.0
 10
278.7266365593
 20
119.7231168828
 30
0.0
  0
SPLINE
  5
454
100
AcDbEntity
  8
BEZUGSACHSEN
100
AcDbSpline
 62
7
  6
CONTINUOUS
 70
0
 71
3
 72
9
 73
5
 74
0
 42
0.0000001
 43
0.0000001
 44
0.0000000001
 40
0.0
 40
0.0
 40
0.0
 40
0.0
 40
0.2536983179
 40
1.0
 40
1.0
 40
1.0
 40
1.0
 10
273.7234882605
 20
119.7231168828
 30
0.0
 10
273.356814108
 20
119.6820739061
 30
0.0
 10
271.9158377935
 20
119.4843821013
 30
0.0
 10
270.4939589273
 20
119.1421241125
 30
0.0
 10
269.463170222
 20
118.8022428669
 30
0.0
  0
SPLINE
  5
455
100
AcDbEntity
  8
KONSTRUKTIONSELEMENTE
100
AcDbSpline
 62
7
  6
CONTINUOUS
 70
0
 71
3
 72
9
 73
5
 74
0
 42
0.0000001
 43
0.0000001
 44
0.0000000001
 40
0.0
 40
0.0
 40
0.0
 40
0.0
 40
0.4535493247
 40
1.0
 40
1.0
 40
1.0
 40
1.0
 10
311.8053738459
 20
50.2185763571
 30
0.0
 10
311.8053790718
 20
50.3076206805
 30
0.0
 10
311.7135148541
 20
50.50425696
 30
0.0
 10
311.5319654346
 20
50.6015934633
 30
0.0
 10
311.4300778039
 20
50.6351888012
 30
0.0
  0
SPLINE
  5
456
100
AcDbEntity
  8
BEZUGSACHSEN
100
AcDbSpline
 62
7
  6
CONTINUOUS
 70
0
 71
3
 72
19
 73
15
 74
0
 42
0.0000001
 43
0.0000001
 44
0.0000000001
 40
0.0
 40
0.0
 40
0.0
 40
0.0
 40
0.0517234907
 40
0.1053372095
 40
0.1622487312
 40
0.2232163938
 40
0.3564752704
 40
0.5
 40
0.6435247296
 40
0.7767836062
 40
0.8377512688
 40
0.8946627905
 40
0.9482765093
 40
1.0
 40
1.0
 40
1.0
 40
1.0
 10
281.7250624099
 20
112.7911814411
 30
0.0
 10
281.7250624099
 20
112.535855257
 30
0.0
 10
281.6509118286
 20
112.0132323247
 30
0.0
 10
281.3267260298
 20
111.2716109356
 30
0.0
 10
280.8064539373
 20
110.5943625422
 30
0.0
 10
279.8558870678
 20
109.7869195822
 30
0.0
 10
278.3059065759
 20
109.0865979286
 30
0.0
 10
276.2250624099
 20
108.8064206469
 30
0.0
 10
274.1442182439
 20
109.0865979286
 30
0.0
 10
272.5942377519
 20
109.7869195822
 30
0.0
 10
271.6436708824
 20
110.5943625422
 30
0.0
 10
271.1233987899
 20
111.2716109356
 30
0.0
 10
270.7992129911
 20
112.0132323247
 30
0.0
 10
270.7250624099
 20
112.535855257
 30
0.0
 10
270.7250624099
 20
112.7911814411
 30
0.0
  0
SPLINE
  5
457
100
AcDbEntity
  8
KONSTRUKTIONSELEMENTE
100
AcDbSpline
 62
7
  6
CONTINUOUS
 70
0
 71
3
 72
11
 73
7
 74
0
 42
0.0000001
 43
0.0000001
 44
0.0000000001
 40
0.0
 40
0.0
 40
0.0
 40
0.0
 40
0.2200436456
 40
0.4557793627
 40
0.7157728079
 40
1.0
 40
1.0
 40
1.0
 40
1.0
 10
233.5029689354
 20
87.8133659634
 30
0.0
 10
233.5030050414
 20
87.944544518
 30
0.0
 10
233.5606139694
 20
88.2187175055
 30
0.0
 10
233.8015737902
 20
88.5806783466
 30
0.0
 10
234.1689910582
 20
88.8750959498
 30
0.0
 10
234.4679421921
 20
89.0096688621
 30
0.0
 10
234.6288616025
 20
89.0627287078
 30
0.0
  0
SPLINE
  5
458
100
AcDbEntity
  8
KONSTRUKTIONSELEMENTE
100
AcDbSpline
 62
7
  6
CONTINUOUS
 70
0
 71
3
 72
11
 73
7
 74
0
 42
0.0000001
 43
0.0000001
 44
0.0000000001
 40
0.0
 40
0.0
 40
0.0
 40
0.0
 40
0.2842240174
 40
0.5442187073
 40
0.779940343
 40
1.0
 40
1.0
 40
1.0
 40
1.0
 10
228.6160630256
 20
105.3337545099
 30
0.0
 10
228.0795653566
 20
105.1568555051
 30
0.0
 10
227.08289097
 20
104.7081352805
 30
0.0
 10
225.8579837185
 20
103.7265368633
 30
0.0
 10
225.0547636984
 20
102.5195961621
 30
0.0
 10
224.8631264055
 20
101.6054143385
 30
0.0
 10
224.8631008668
 20
101.1680345454
 30
0.0
  0
SPLINE
  5
459
100
AcDbEntity
  8
KONSTRUKTIONSELEMENTE
100
AcDbSpline
 62
7
  6
CONTINUOUS
 70
0
 71
3
 72
11
 73
7
 74
0
 42
0.0000001
 43
0.0000001
 44
0.0000000001
 40
0.0
 40
0.0
 40
0.0
 40
0.0
 40
0.2842271921
 40
0.5442206373
 40
0.7799563544
 40
1.0
 40
1.0
 40
1.0
 40
1.0
 10
241.6186696987
 20
88.8793182584
 30
0.0
 10
241.7795891091
 20
88.9323781041
 30
0.0
 10
242.0785402429
 20
89.0669510164
 30
0.0
 10
242.4459575109
 20
89.3613686196
 30
0.0
 10
242.6869173318
 20
89.7233294608
 30
0.0
 10
242.7445262597
 20
89.9975024483
 30
0.0
 10
242.7445623658
 20
90.1286810028
 30
0.0
  0
SPLINE
  5
45A
100
AcDbEntity
  8
KONSTRUKTIONSELEMENTE
100
AcDbSpline
 62
7
  6
CONTINUOUS
 70
0
 71
3
 72
11
 73
7
 74
0
 42
0.0000001
 43
0.0000001
 44
0.0000000001
 40
0.0
 40
0.0
 40
0.0
 40
0.0
 40
0.2842268035
 40
0.5442239761
 40
0.7799400332
 40
1.0
 40
1.0
 40
1.0
 40
1.0
 10
303.7717770035
 20
53.1603550185
 30
0.0
 10
303.2352877033
 20
53.3372512637
 30
0.0
 10
302.2386279315
 20
53.7859616095
 30
0.0
 10
301.0137485286
 20
54.7675287819
 30
0.0
 10
300.210528679
 20
55.974413732
 30
0.0
 10
300.0188618985
 20
56.8885518965
 30
0.0
 10
300.0188145845
 20
57.3259211935
 30
0.0
  0
SPLINE
  5
45B
100
AcDbEntity
  8
KONSTRUKTIONSELEMENTE
100
AcDbSpline
 62
7
  6
CONTINUOUS
 70
0
 71
3
 72
9
 73
5
 74
0
 42
0.0000001
 43
0.0000001
 44
0.0000000001
 40
0.0
 40
0.0
 40
0.0
 40
0.0
 40
0.4954651683
 40
1.0
 40
1.0
 40
1.0
 40
1.0
 10
258.1895314459
 20
127.1588123716
 30
0.0
 10
258.1569903973
 20
127.6972320183
 30
0.0
 10
257.9325209069
 20
128.7774774443
 30
0.0
 10
257.4736359872
 20
129.7716640833
 30
0.0
 10
257.2082467432
 20
130.2525723206
 30
0.0
  0
SPLINE
  5
45C
100
AcDbEntity
  8
KONSTRUKTIONSELEMENTE
100
AcDbSpline
 62
7
  6
CONTINUOUS
 70
0
 71
3
 72
9
 73
5
 74
0
 42
0.0000001
 43
0.0000001
 44
0.0000000001
 40
0.0
 40
0.0
 40
0.0
 40
0.0
 40
0.5045348317
 40
1.0
 40
1.0
 40
1.0
 40
1.0
 10
295.2418780766
 20
130.2525723206
 30
0.0
 10
294.9764888326
 20
129.7716640833
 30
0.0
 10
294.5176039129
 20
128.7774774443
 30
0.0
 10
294.2931344224
 20
127.6972320183
 30
0.0
 10
294.2605933739
 20
127.1588123716
 30
0.0
  0
LINE
  5
45D
100
AcDbEntity
  8
0
100
AcDbLine
 62
7
  6
CONTINUOUS
 10
258.729360554
 20
118.442510325
 11
258.1895314459
 21
127.1588123716
  0
SPLINE
  5
45E
100
AcDbEntity
  8
KONSTRUKTIONSELEMENTE
100
AcDbSpline
 62
7
  6
CONTINUOUS
 70
0
 71
3
 72
11
 73
7
 74
0
 42
0.0000001
 43
0.0000001
 44
0.0000000001
 40
0.0
 40
0.0
 40
0.0
 40
0.0
 40
0.2552525678
 40
0.5065021805
 40
0.7540277206
 40
1.0
 40
1.0
 40
1.0
 40
1.0
 10
257.6557355508
 20
143.762988069
 30
0.0
 10
257.6557355508
 20
144.2940864603
 30
0.0
 10
257.8480883712
 20
145.3560266936
 30
0.0
 10
258.615539824
 20
146.7481019856
 30
0.0
 10
259.6855812653
 20
147.8853980894
 30
0.0
 10
260.5203906398
 20
148.4917887425
 30
0.0
 10
260.9544171459
 20
148.762988069
 30
0.0
  0
SPLINE
  5
45F
100
AcDbEntity
  8
KONSTRUKTIONSELEMENTE
100
AcDbSpline
 62
7
  6
CONTINUOUS
 70
0
 71
3
 72
11
 73
7
 74
0
 42
0.0000001
 43
0.0000001
 44
0.0000000001
 40
0.0
 40
0.0
 40
0.0
 40
0.0
 40
0.2459741347
 40
0.4935016246
 40
0.7447505661
 40
1.0
 40
1.0
 40
1.0
 40
1.0
 10
291.4957076739
 20
148.762988069
 30
0.0
 10
291.929737455
 20
148.4917866961
 30
0.0
 10
292.7645530912
 20
147.8853910025
 30
0.0
 10
293.834596459
 20
146.7480871773
 30
0.0
 10
294.6020398502
 20
145.3560119089
 30
0.0
 10
294.794389269
 20
144.2940799413
 30
0.0
 10
294.794389269
 20
143.762988069
 30
0.0
  0
LINE
  5
460
100
AcDbEntity
  8
0
100
AcDbLine
 62
7
  6
CONTINUOUS
 10
294.2605933739
 20
127.1588123716
 11
293.7207642657
 21
118.442510325
  0
SPLINE
  5
461
100
AcDbEntity
  8
KONSTRUKTIONSELEMENTE
100
AcDbSpline
 62
7
  6
CONTINUOUS
 70
0
 71
3
 72
9
 73
5
 74
0
 42
0.0000001
 43
0.0000001
 44
0.0000000001
 40
0.0
 40
0.0
 40
0.0
 40
0.0
 40
0.4826289049
 40
1.0
 40
1.0
 40
1.0
 40
1.0
 10
257.2082467432
 20
130.2525723206
 30
0.0
 10
257.002683103
 20
130.6250713956
 30
0.0
 10
256.7524048241
 20
131.5065221667
 30
0.0
 10
256.90995587
 20
132.4029897349
 30
0.0
 10
257.0664859475
 20
132.8313688822
 30
0.0
  0
SPLINE
  5
462
100
AcDbEntity
  8
KONSTRUKTIONSELEMENTE
100
AcDbSpline
 62
7
  6
CONTINUOUS
 70
0
 71
3
 72
9
 73
5
 74
0
 42
0.0000001
 43
0.0000001
 44
0.0000000001
 40
0.0
 40
0.0
 40
0.0
 40
0.0
 40
0.5173710951
 40
1.0
 40
1.0
 40
1.0
 40
1.0
 10
295.3836388723
 20
132.8313688822
 30
0.0
 10
295.5401689498
 20
132.4029897349
 30
0.0
 10
295.6977199957
 20
131.5065221667
 30
0.0
 10
295.4474417168
 20
130.6250713956
 30
0.0
 10
295.2418780766
 20
130.2525723206
 30
0.0
  0
SPLINE
  5
463
100
AcDbEntity
  8
KONSTRUKTIONSELEMENTE
100
AcDbSpline
 62
7
  6
CONTINUOUS
 70
0
 71
3
 72
9
 73
5
 74
0
 42
0.0000001
 43
0.0000001
 44
0.0000000001
 40
0.0
 40
0.0
 40
0.0
 40
0.0
 40
0.5000928141
 40
1.0
 40
1.0
 40
1.0
 40
1.0
 10
257.0664859475
 20
132.8313688822
 30
0.0
 10
257.2500680478
 20
133.333781868
 30
0.0
 10
257.5480260402
 20
134.3661842777
 30
0.0
 10
257.6557355508
 20
135.4381505647
 30
0.0
 10
257.6557355508
 20
135.9728549933
 30
0.0
  0
SPLINE
  5
464
100
AcDbEntity
  8
KONSTRUKTIONSELEMENTE
100
AcDbSpline
 62
7
  6
CONTINUOUS
 70
0
 71
3
 72
9
 73
5
 74
0
 42
0.0000001
 43
0.0000001
 44
0.0000000001
 40
0.0
 40
0.0
 40
0.0
 40
0.0
 40
0.4999071859
 40
1.0
 40
1.0
 40
1.0
 40
1.0
 10
294.794389269
 20
135.9728549933
 30
0.0
 10
294.794389269
 20
135.4381505647
 30
0.0
 10
294.9020987796
 20
134.3661842777
 30
0.0
 10
295.200056772
 20
133.333781868
 30
0.0
 10
295.3836388723
 20
132.8313688822
 30
0.0
  0
LINE
  5
465
100
AcDbEntity
  8
BEZUGSACHSEN
100
AcDbLine
 62
7
  6
CONTINUOUS
 10
763.4318042364
 20
212.4805651683
 11
762.9450919864
 21
214.2954798423
  0
LINE
  5
466
100
AcDbEntity
  8
BEZUGSACHSEN
100
AcDbLine
 62
7
  6
CONTINUOUS
 10
762.9450919864
 20
214.2954798423
 11
762.8227818734
 21
214.7514689894
  0
LINE
  5
467
100
AcDbEntity
  8
BEZUGSACHSEN
100
AcDbLine
 62
7
  6
CONTINUOUS
 10
762.8227818734
 20
214.7514689894
 11
761.9392606277
 21
218.0444138778
  0
LINE
  5
468
100
AcDbEntity
  8
BEZUGSACHSEN
100
AcDbLine
 62
7
  6
CONTINUOUS
 10
763.2580159843
 20
210.3041687151
 11
763.1933419326
 21
210.5312921009
  0
LINE
  5
469
100
AcDbEntity
  8
BEZUGSACHSEN
100
AcDbLine
 62
7
  6
CONTINUOUS
 10
763.1933419326
 20
210.5312921009
 11
762.1449237301
 21
214.2126666433
  0
LINE
  5
46A
100
AcDbEntity
  8
BEZUGSACHSEN
100
AcDbLine
 62
7
  6
CONTINUOUS
 10
762.046924575
 20
215.876970578
 11
762.0777650367
 21
215.8140688308
  0
LINE
  5
46B
100
AcDbEntity
  8
BEZUGSACHSEN
100
AcDbLine
 62
7
  6
CONTINUOUS
 10
762.1688522244
 20
215.6272168083
 11
762.2928028791
 21
215.2789974978
  0
LINE
  5
46C
100
AcDbEntity
  8
BEZUGSACHSEN
100
AcDbLine
 62
7
  6
CONTINUOUS
 10
762.2928028791
 20
215.2789974978
 11
762.3096350537
 21
215.2244638831
  0
LINE
  5
46D
100
AcDbEntity
  8
BEZUGSACHSEN
100
AcDbLine
 62
7
  6
CONTINUOUS
 10
762.3096350537
 20
215.2244638831
 11
762.410992833
 21
214.8959541333
  0
LINE
  5
46E
100
AcDbEntity
  8
BEZUGSACHSEN
100
AcDbLine
 62
7
  6
CONTINUOUS
 10
762.410992833
 20
214.8959541333
 11
762.4498754884
 21
214.7698731867
  0
LINE
  5
46F
100
AcDbEntity
  8
BEZUGSACHSEN
100
AcDbLine
 62
7
  6
CONTINUOUS
 10
762.4498754884
 20
214.7698731867
 11
762.5282662965
 21
214.4941630583
  0
LINE
  5
470
100
AcDbEntity
  8
BEZUGSACHSEN
100
AcDbLine
 62
7
  6
CONTINUOUS
 10
762.5282662965
 20
214.4941630583
 11
762.5698328204
 21
214.3479628979
  0
LINE
  5
471
100
AcDbEntity
  8
BEZUGSACHSEN
100
AcDbLine
 62
7
  6
CONTINUOUS
 10
762.5698328204
 20
214.3479628979
 11
762.9260738886
 21
213.0948027243
  0
LINE
  5
472
100
AcDbEntity
  8
BEZUGSACHSEN
100
AcDbLine
 62
7
  6
CONTINUOUS
 10
763.0866485583
 20
212.4872131851
 11
762.9260738886
 21
213.0948027243
  0
LINE
  5
473
100
AcDbEntity
  8
BEZUGSACHSEN
100
AcDbLine
 62
7
  6
CONTINUOUS
 10
763.217179227
 20
211.9420615876
 11
763.0866485583
 21
212.4872131851
  0
SPLINE
  5
474
100
AcDbEntity
  8
BEZUGSACHSEN
100
AcDbSpline
 62
7
  6
CONTINUOUS
 70
0
 71
3
 72
8
 73
4
 74
0
 42
0.0000001
 43
0.0000001
 44
0.0000000001
 40
0.0
 40
0.0
 40
0.0
 40
0.0
 40
1.0
 40
1.0
 40
1.0
 40
1.0
 10
763.3503493405
 20
211.2984444883
 30
0.0
 10
763.3061592271
 20
211.5130247904
 30
0.0
 10
763.26176534
 20
211.7275632177
 30
0.0
 10
763.217179227
 20
211.9420615876
 30
0.0
  0
LINE
  5
475
100
AcDbEntity
  8
BEZUGSACHSEN
100
AcDbLine
 62
7
  6
CONTINUOUS
 10
763.09791383
 20
209.8972560764
 11
763.0178220063
 21
210.1772870309
  0
LINE
  5
476
100
AcDbEntity
  8
BEZUGSACHSEN
100
AcDbLine
 62
7
  6
CONTINUOUS
 10
763.0178220063
 20
210.1772870309
 11
762.9374099909
 21
210.4584126754
  0
LINE
  5
477
100
AcDbEntity
  8
BEZUGSACHSEN
100
AcDbLine
 62
7
  6
CONTINUOUS
 10
763.2282272749
 20
209.371944817
 11
763.09791383
 21
209.8972560764
  0
SPLINE
  5
478
100
AcDbEntity
  8
BEZUGSACHSEN
100
AcDbSpline
 62
7
  6
CONTINUOUS
 70
0
 71
3
 72
8
 73
4
 74
0
 42
0.0000001
 43
0.0000001
 44
0.0000000001
 40
0.0
 40
0.0
 40
0.0
 40
0.0
 40
1.0
 40
1.0
 40
1.0
 40
1.0
 10
763.3609018731
 20
208.7193231343
 30
0.0
 10
763.3218328336
 20
208.9124275407
 30
0.0
 10
763.2826003928
 20
209.1054989525
 30
0.0
 10
763.2432127749
 20
209.2985386302
 30
0.0
  0
LINE
  5
479
100
AcDbEntity
  8
BEZUGSACHSEN
100
AcDbLine
 62
7
  6
CONTINUOUS
 10
763.2432127749
 20
209.2985386302
 11
763.2282272749
 21
209.371944817
  0
LINE
  5
47A
100
AcDbEntity
  8
BEZUGSACHSEN
100
AcDbLine
 62
7
  6
CONTINUOUS
 10
763.4315748775
 20
207.3745306236
 11
763.4400091076
 21
207.4292108084
  0
LINE
  5
47B
100
AcDbEntity
  8
BEZUGSACHSEN
100
AcDbLine
 62
7
  6
CONTINUOUS
 10
762.7360634786
 20
207.2812875425
 11
763.0216638297
 21
206.7790295907
  0
LINE
  5
47C
100
AcDbEntity
  8
BEZUGSACHSEN
100
AcDbLine
 62
7
  6
CONTINUOUS
 10
762.6675507549
 20
207.7547011332
 11
762.5359398743
 21
208.3217008991
  0
LINE
  5
47D
100
AcDbEntity
  8
BEZUGSACHSEN
100
AcDbLine
 62
7
  6
CONTINUOUS
 10
762.5359398743
 20
208.3217008991
 11
762.4390064875
 21
208.6519937611
  0
LINE
  5
47E
100
AcDbEntity
  8
BEZUGSACHSEN
100
AcDbLine
 62
7
  6
CONTINUOUS
 10
762.3119655125
 20
208.9910972283
 11
762.4390064875
 21
208.6519937611
  0
LINE
  5
47F
100
AcDbEntity
  8
BEZUGSACHSEN
100
AcDbLine
 62
7
  6
CONTINUOUS
 10
762.2182729542
 20
209.1694592111
 11
762.3119655125
 21
208.9910972283
  0
LINE
  5
480
100
AcDbEntity
  8
BEZUGSACHSEN
100
AcDbLine
 62
7
  6
CONTINUOUS
 10
762.9510548487
 20
208.5487594476
 11
762.4614644368
 21
210.0800608671
  0
LINE
  5
481
100
AcDbEntity
  8
BEZUGSACHSEN
100
AcDbLine
 62
7
  6
CONTINUOUS
 10
762.4614644368
 20
210.0800608671
 11
762.4580599011
 21
210.0907089499
  0
LINE
  5
482
100
AcDbEntity
  8
BEZUGSACHSEN
100
AcDbLine
 62
7
  6
CONTINUOUS
 10
762.4580599011
 20
210.0907089499
 11
762.0750901553
 21
211.2884639718
  0
LINE
  5
483
100
AcDbEntity
  8
BEZUGSACHSEN
100
AcDbLine
 62
7
  6
CONTINUOUS
 10
762.0750901553
 20
211.2884639718
 11
761.9648394812
 21
211.6332683597
  0
LINE
  5
484
100
AcDbEntity
  8
BEZUGSACHSEN
100
AcDbLine
 62
7
  6
CONTINUOUS
 10
762.9510548487
 20
208.5487594476
 11
763.079116716
 21
208.2144132164
  0
LINE
  5
485
100
AcDbEntity
  8
BEZUGSACHSEN
100
AcDbLine
 62
7
  6
CONTINUOUS
 10
763.079116716
 20
208.2144132164
 11
763.175948127
 21
208.0432228524
  0
LINE
  5
486
100
AcDbEntity
  8
BEZUGSACHSEN
100
AcDbLine
 62
7
  6
CONTINUOUS
 10
763.175948127
 20
208.0432228524
 11
763.2410132313
 21
208.0351875575
  0
LINE
  5
487
100
AcDbEntity
  8
BEZUGSACHSEN
100
AcDbLine
 62
7
  6
CONTINUOUS
 10
763.469937577
 20
203.5842368841
 11
762.8019676137
 21
205.364529078
  0
LINE
  5
488
100
AcDbEntity
  8
BEZUGSACHSEN
100
AcDbLine
 62
7
  6
CONTINUOUS
 10
762.6111050668
 20
205.8731839227
 11
762.1339258009
 21
207.1448212719
  0
LINE
  5
489
100
AcDbEntity
  8
BEZUGSACHSEN
100
AcDbLine
 62
7
  6
CONTINUOUS
 10
762.1339258009
 20
207.1448212719
 11
762.1355460472
 21
207.3159786767
  0
LINE
  5
48A
100
AcDbEntity
  8
BEZUGSACHSEN
100
AcDbLine
 62
7
  6
CONTINUOUS
 10
761.9527985671
 20
213.5429215875
 11
762.0641943638
 21
213.1940283487
  0
LINE
  5
48B
100
AcDbEntity
  8
BEZUGSACHSEN
100
AcDbLine
 62
7
  6
CONTINUOUS
 10
762.0641943638
 20
213.1940283487
 11
762.9374099909
 21
210.4584126754
  0
SPLINE
  5
48C
100
AcDbEntity
  8
0
100
AcDbSpline
 62
7
  6
CONTINUOUS
 70
0
 71
3
 72
9
 73
5
 74
0
 42
0.0000001
 43
0.0000001
 44
0.0000000001
 40
0.0
 40
0.0
 40
0.0
 40
0.0
 40
0.5000000002
 40
1.0
 40
1.0
 40
1.0
 40
1.0
 10
751.5376586913
 20
225.8723134023
 30
0.0
 10
751.2315602658
 20
224.6446196736
 30
0.0
 10
750.8814340973
 20
222.1070993538
 30
0.0
 10
751.2315602661
 20
219.5695790341
 30
0.0
 10
751.5376586913
 20
218.3418853065
 30
0.0
  0
SPLINE
  5
48D
100
AcDbEntity
  8
0
100
AcDbSpline
 62
7
  6
CONTINUOUS
 70
0
 71
3
 72
9
 73
5
 74
0
 42
0.0000001
 43
0.0000001
 44
0.0000000001
 40
0.0
 40
0.0
 40
0.0
 40
0.0
 40
0.5000000002
 40
1.0
 40
1.0
 40
1.0
 40
1.0
 10
751.5376586913
 20
218.3418853065
 30
0.0
 10
751.2257728511
 20
215.0669714543
 30
0.0
 10
750.887221512
 20
208.4844269529
 30
0.0
 10
751.2257728514
 20
201.9018824514
 30
0.0
 10
751.5376586913
 20
198.6269686021
 30
0.0
  0
SPLINE
  5
48E
100
AcDbEntity
  8
0
100
AcDbSpline
 62
7
  6
CONTINUOUS
 70
0
 71
3
 72
9
 73
5
 74
0
 42
0.0000001
 43
0.0000001
 44
0.0000000001
 40
0.0
 40
0.0
 40
0.0
 40
0.0
 40
0.5000031771
 40
1.0
 40
1.0
 40
1.0
 40
1.0
 10
751.5376586913
 20
198.6269686021
 30
0.0
 10
751.3140362755
 20
195.7245375454
 30
0.0
 10
751.0118058611
 20
189.9071456667
 30
0.0
 10
751.0474329407
 20
184.0814437358
 30
0.0
 10
751.1483830202
 20
181.172198692
 30
0.0
  0
SPLINE
  5
48F
100
AcDbEntity
  8
0
100
AcDbSpline
 62
7
  6
CONTINUOUS
 70
0
 71
3
 72
9
 73
5
 74
0
 42
0.0000001
 43
0.0000001
 44
0.0000000001
 40
0.0
 40
0.0
 40
0.0
 40
0.0
 40
0.5000000002
 40
1.0
 40
1.0
 40
1.0
 40
1.0
 10
759.9048357322
 20
225.8723134023
 30
0.0
 10
760.2109341576
 20
224.6446196736
 30
0.0
 10
760.5610603262
 20
222.1070993538
 30
0.0
 10
760.2109341574
 20
219.5695790341
 30
0.0
 10
759.9048357322
 20
218.3418853065
 30
0.0
  0
LINE
  5
490
100
AcDbEntity
  8
BEZUGSACHSEN
100
AcDbLine
 62
7
  6
CONTINUOUS
 10
763.2287282498
 20
211.4989649631
 11
763.1620947255
 21
211.8700066236
  0
LINE
  5
491
100
AcDbEntity
  8
BEZUGSACHSEN
100
AcDbLine
 62
7
  6
CONTINUOUS
 10
763.1620947255
 20
211.8700066236
 11
763.0642798744
 21
212.3034867892
  0
LINE
  5
492
100
AcDbEntity
  8
BEZUGSACHSEN
100
AcDbLine
 62
7
  6
CONTINUOUS
 10
763.0642798744
 20
212.3034867892
 11
762.9358079268
 21
212.7994049746
  0
LINE
  5
493
100
AcDbEntity
  8
BEZUGSACHSEN
100
AcDbLine
 62
7
  6
CONTINUOUS
 10
762.4590214715
 20
214.4744754371
 11
762.817383891
 21
213.2154853712
  0
LINE
  5
494
100
AcDbEntity
  8
BEZUGSACHSEN
100
AcDbLine
 62
7
  6
CONTINUOUS
 10
762.817383891
 20
213.2154853712
 11
762.8573038655
 21
213.0752294711
  0
LINE
  5
495
100
AcDbEntity
  8
BEZUGSACHSEN
100
AcDbLine
 62
7
  6
CONTINUOUS
 10
762.8573038655
 20
213.0752294711
 11
762.9358079268
 21
212.7994049746
  0
LINE
  5
496
100
AcDbEntity
  8
BEZUGSACHSEN
100
AcDbLine
 62
7
  6
CONTINUOUS
 10
762.3330860238
 20
214.8719280815
 11
762.396220643
 21
214.6727242637
  0
LINE
  5
497
100
AcDbEntity
  8
BEZUGSACHSEN
100
AcDbLine
 62
7
  6
CONTINUOUS
 10
762.396220643
 20
214.6727242637
 11
762.4590214715
 21
214.4744754371
  0
LINE
  5
498
100
AcDbEntity
  8
BEZUGSACHSEN
100
AcDbLine
 62
7
  6
CONTINUOUS
 10
762.2398767177
 20
215.1084763512
 11
762.2633214333
 21
215.0490664581
  0
LINE
  5
499
100
AcDbEntity
  8
BEZUGSACHSEN
100
AcDbLine
 62
7
  6
CONTINUOUS
 10
762.2633214333
 20
215.0490664581
 11
762.2866712147
 21
214.9898384478
  0
LINE
  5
49A
100
AcDbEntity
  8
BEZUGSACHSEN
100
AcDbLine
 62
7
  6
CONTINUOUS
 10
762.2866712147
 20
214.9898384478
 11
762.3330860238
 21
214.8719280815
  0
LINE
  5
49B
100
AcDbEntity
  8
BEZUGSACHSEN
100
AcDbLine
 62
7
  6
CONTINUOUS
 10
762.2247457095
 20
215.1273398854
 11
762.2398767177
 21
215.1084763512
  0
LINE
  5
49C
100
AcDbEntity
  8
0
100
AcDbLine
 62
7
  6
CONTINUOUS
 10
750.6142990807
 20
145.2789321196
 11
748.751689367
 21
143.3505692905
  0
LINE
  5
49D
100
AcDbEntity
  8
RUNDUNGEN
100
AcDbLine
 62
7
  6
CONTINUOUS
 10
760.8281953428
 20
145.2789321196
 11
762.6908050565
 21
143.3505692905
  0
LINE
  5
49E
100
AcDbEntity
  8
KONSTRUKTIONSELEMENTE
100
AcDbLine
 62
7
  6
CONTINUOUS
 10
761.4177303836
 20
214.5872970161
 11
761.7148300013
 21
213.5429218634
  0
LINE
  5
49F
100
AcDbEntity
  8
BEZUGSACHSEN
100
AcDbLine
 62
7
  6
CONTINUOUS
 10
763.4402797545
 20
209.3387427648
 11
763.4156764825
 21
209.4252564966
  0
LINE
  5
4A0
100
AcDbEntity
  8
BEZUGSACHSEN
100
AcDbLine
 62
7
  6
CONTINUOUS
 10
763.4156764825
 20
209.4252564966
 11
763.2677055496
 21
209.945545677
  0
LINE
  5
4A1
100
AcDbEntity
  8
BEZUGSACHSEN
100
AcDbLine
 62
7
  6
CONTINUOUS
 10
763.2677055496
 20
209.945545677
 11
763.1978354598
 21
210.1912034988
  0
LINE
  5
4A2
100
AcDbEntity
  8
BEZUGSACHSEN
100
AcDbLine
 62
7
  6
CONTINUOUS
 10
763.1978354598
 20
210.1912034988
 11
763.1726143403
 21
210.2798764929
  0
LINE
  5
4A3
100
AcDbEntity
  8
BEZUGSACHSEN
100
AcDbLine
 62
7
  6
CONTINUOUS
 10
763.1726143403
 20
210.2798764929
 11
763.1080282406
 21
210.5069438626
  0
LINE
  5
4A4
100
AcDbEntity
  8
BEZUGSACHSEN
100
AcDbLine
 62
7
  6
CONTINUOUS
 10
763.1080282406
 20
210.5069438626
 11
762.0605279084
 21
214.1886492073
  0
LINE
  5
4A5
100
AcDbEntity
  8
BEZUGSACHSEN
100
AcDbLine
 62
7
  6
CONTINUOUS
 10
762.0605279084
 20
214.1886492073
 11
761.9470784993
 21
214.5872970161
  0
LINE
  5
4A6
100
AcDbEntity
  8
KONSTRUKTIONSELEMENTE
100
AcDbLine
 62
7
  6
CONTINUOUS
 10
762.8280326948
 20
207.3189106459
 11
762.7625835434
 21
207.3902027103
  0
LINE
  5
4A7
100
AcDbEntity
  8
KONSTRUKTIONSELEMENTE
100
AcDbLine
 62
7
  6
CONTINUOUS
 10
762.7625835434
 20
207.3902027103
 11
762.7294622017
 21
207.4261475522
  0
LINE
  5
4A8
100
AcDbEntity
  8
KONSTRUKTIONSELEMENTE
100
AcDbLine
 62
7
  6
CONTINUOUS
 10
762.7294622017
 20
207.4261475522
 11
762.712598468
 21
207.4444152907
  0
LINE
  5
4A9
100
AcDbEntity
  8
BEZUGSACHSEN
100
AcDbLine
 62
7
  6
CONTINUOUS
 10
763.2352284926
 20
205.8926564877
 11
763.4648575568
 21
205.483374613
  0
LINE
  5
4AA
100
AcDbEntity
  8
KONSTRUKTIONSELEMENTE
100
AcDbLine
 62
7
  6
CONTINUOUS
 10
762.9223579555
 20
205.483374613
 11
762.8049996541
 21
205.6920665894
  0
LINE
  5
4AB
100
AcDbEntity
  8
BEZUGSACHSEN
100
AcDbLine
 62
7
  6
CONTINUOUS
 10
763.1046729241
 20
207.732982479
 11
763.2343001971
 21
207.4622915892
  0
LINE
  5
4AC
100
AcDbEntity
  8
BEZUGSACHSEN
100
AcDbLine
 62
7
  6
CONTINUOUS
 10
762.9444115888
 20
208.16682862
 11
763.1046729241
 21
207.732982479
  0
LINE
  5
4AD
100
AcDbEntity
  8
KONSTRUKTIONSELEMENTE
100
AcDbLine
 62
7
  6
CONTINUOUS
 10
761.4206626211
 20
211.251337532
 11
762.0500334239
 21
209.2806666211
  0
LINE
  5
4AE
100
AcDbEntity
  8
BEZUGSACHSEN
100
AcDbLine
 62
7
  6
CONTINUOUS
 10
762.9444115888
 20
208.16682862
 11
762.8343225976
 21
208.5114702205
  0
LINE
  5
4AF
100
AcDbEntity
  8
BEZUGSACHSEN
100
AcDbLine
 62
7
  6
CONTINUOUS
 10
762.8343225976
 20
208.5114702205
 11
761.9589777459
 21
211.251337532
  0
SPLINE
  5
4B0
100
AcDbEntity
  8
0
100
AcDbSpline
 62
7
  6
CONTINUOUS
 70
0
 71
3
 72
9
 73
5
 74
0
 42
0.0000001
 43
0.0000001
 44
0.0000000001
 40
0.0
 40
0.0
 40
0.0
 40
0.0
 40
0.5000031771
 40
1.0
 40
1.0
 40
1.0
 40
1.0
 10
759.9048357322
 20
198.6269686021
 30
0.0
 10
760.128458148
 20
195.7245375454
 30
0.0
 10
760.4306885624
 20
189.9071456667
 30
0.0
 10
760.3950614828
 20
184.0814437358
 30
0.0
 10
760.2941114033
 20
181.172198692
 30
0.0
  0
SPLINE
  5
4B1
100
AcDbEntity
  8
0
100
AcDbSpline
 62
7
  6
CONTINUOUS
 70
0
 71
3
 72
9
 73
5
 74
0
 42
0.0000001
 43
0.0000001
 44
0.0000000001
 40
0.0
 40
0.0
 40
0.0
 40
0.0
 40
0.5000000002
 40
1.0
 40
1.0
 40
1.0
 40
1.0
 10
759.9048357322
 20
218.3418853065
 30
0.0
 10
760.2167215724
 20
215.0669714543
 30
0.0
 10
760.5552729114
 20
208.4844269529
 30
0.0
 10
760.2167215721
 20
201.9018824514
 30
0.0
 10
759.9048357322
 20
198.6269686021
 30
0.0
  0
LINE
  5
4B2
100
AcDbEntity
  8
BEZUGSACHSEN
100
AcDbLine
 62
7
  6
CONTINUOUS
 10
763.4624762637
 20
203.1284438118
 11
763.313610758
 21
203.5256454041
  0
LINE
  5
4B3
100
AcDbEntity
  8
BEZUGSACHSEN
100
AcDbLine
 62
7
  6
CONTINUOUS
 10
763.313610758
 20
203.5256454041
 11
762.6461869774
 21
205.3061242244
  0
LINE
  5
4B4
100
AcDbEntity
  8
BEZUGSACHSEN
100
AcDbLine
 62
7
  6
CONTINUOUS
 10
762.6461869774
 20
205.3061242244
 11
762.4763005067
 21
205.7592519117
  0
LINE
  5
4B5
100
AcDbEntity
  8
BEZUGSACHSEN
100
AcDbLine
 62
7
  6
CONTINUOUS
 10
762.4763005067
 20
205.7592519117
 11
762.4554637327
 21
205.8148266512
  0
LINE
  5
4B6
100
AcDbEntity
  8
BEZUGSACHSEN
100
AcDbLine
 62
7
  6
CONTINUOUS
 10
762.4554637327
 20
205.8148266512
 11
761.9786034263
 21
207.0865785998
  0
LINE
  5
4B7
100
AcDbEntity
  8
BEZUGSACHSEN
100
AcDbLine
 62
7
  6
CONTINUOUS
 10
761.9786034263
 20
207.0865785998
 11
761.9687304078
 21
207.1129072368
  0
SPLINE
  5
4B8
100
AcDbEntity
  8
KONSTRUKTIONSELEMENTE
100
AcDbSpline
 62
7
  6
CONTINUOUS
 70
0
 71
3
 72
8
 73
4
 74
0
 42
0.0000001
 43
0.0000001
 44
0.0000000001
 40
0.0
 40
0.0
 40
0.0
 40
0.0
 40
1.0
 40
1.0
 40
1.0
 40
1.0
 10
761.4192349541
 20
207.1129072368
 30
0.0
 10
761.9170325812
 20
205.7848129259
 30
0.0
 10
762.4147048184
 20
204.4566715951
 30
0.0
 10
762.9121462036
 20
203.1284438118
 30
0.0
  0
LINE
  5
4B9
100
AcDbEntity
  8
BEZUGSACHSEN
100
AcDbLine
 62
7
  6
CONTINUOUS
 10
763.2654966039
 20
208.1515257969
 11
763.2734775411
 21
208.1903074711
  0
LINE
  5
4BA
100
AcDbEntity
  8
BEZUGSACHSEN
100
AcDbLine
 62
7
  6
CONTINUOUS
 10
762.1645702464
 20
208.7312866571
 11
762.2261813869
 21
208.7136661388
  0
LINE
  5
4BB
100
AcDbEntity
  8
BEZUGSACHSEN
100
AcDbLine
 62
7
  6
CONTINUOUS
 10
762.2261813869
 20
208.7136661388
 11
762.2581577181
 21
208.653185521
  0
LINE
  5
4BC
100
AcDbEntity
  8
BEZUGSACHSEN
100
AcDbLine
 62
7
  6
CONTINUOUS
 10
762.2581577181
 20
208.653185521
 11
762.2734242731
 21
208.6243018346
  0
LINE
  5
4BD
100
AcDbEntity
  8
BEZUGSACHSEN
100
AcDbLine
 62
7
  6
CONTINUOUS
 10
762.2734242731
 20
208.6243018346
 11
762.3204463252
 21
208.535304156
  0
LINE
  5
4BE
100
AcDbEntity
  8
BEZUGSACHSEN
100
AcDbLine
 62
7
  6
CONTINUOUS
 10
762.3204463252
 20
208.535304156
 11
762.4158298577
 21
208.2809764962
  0
LINE
  5
4BF
100
AcDbEntity
  8
BEZUGSACHSEN
100
AcDbLine
 62
7
  6
CONTINUOUS
 10
762.5123726854
 20
207.9506836342
 11
762.4158298577
 21
208.2809764962
  0
LINE
  5
4C0
100
AcDbEntity
  8
BEZUGSACHSEN
100
AcDbLine
 62
7
  6
CONTINUOUS
 10
762.578063432
 20
207.6292009228
 11
762.5123726854
 21
207.9506836342
  0
LINE
  5
4C1
100
AcDbEntity
  8
BEZUGSACHSEN
100
AcDbLine
 62
7
  6
CONTINUOUS
 10
761.960716639
 20
213.1609909419
 11
762.8348232327
 21
210.4256336965
  0
LINE
  5
4C2
100
AcDbEntity
  8
BEZUGSACHSEN
100
AcDbLine
 62
7
  6
CONTINUOUS
 10
762.8348232327
 20
210.4256336965
 11
762.9463821846
 21
210.0764820299
  0
LINE
  5
4C3
100
AcDbEntity
  8
KONSTRUKTIONSELEMENTE
100
AcDbLine
 62
7
  6
CONTINUOUS
 10
761.9159664026
 20
211.6332683922
 11
761.4276115347
 21
213.1609909419
  0
LINE
  5
4C4
100
AcDbEntity
  8
BEZUGSACHSEN
100
AcDbLine
 62
7
  6
CONTINUOUS
 10
763.0747578495
 20
209.6148257049
 11
762.9785772051
 21
209.9607213804
  0
LINE
  5
4C5
100
AcDbEntity
  8
BEZUGSACHSEN
100
AcDbLine
 62
7
  6
CONTINUOUS
 10
762.9785772051
 20
209.9607213804
 11
762.9463821846
 21
210.0764820299
  0
LINE
  5
4C6
100
AcDbEntity
  8
BEZUGSACHSEN
100
AcDbLine
 62
7
  6
CONTINUOUS
 10
763.1723334127
 20
209.1890147891
 11
763.0747578495
 21
209.6148257049
  0
LINE
  5
4C7
100
AcDbEntity
  8
BEZUGSACHSEN
100
AcDbLine
 62
7
  6
CONTINUOUS
 10
763.2385811436
 20
208.7990488486
 11
763.1723334127
 21
209.1890147891
  0
ELLIPSE
  5
4C8
100
AcDbEntity
  8
KONSTRUKTIONSELEMENTE
100
AcDbEllipse
 62
7
  6
CONTINUOUS
 10
228.6128906466
 20
97.7610552377
 30
0.0
 11
1.9496756155
 21
0.5849900395
 31
0.0
 40
0.0607989098
 41
-2.7235007144
 42
-1.1527043876
  0
ELLIPSE
  5
4C9
100
AcDbEntity
  8
KONSTRUKTIONSELEMENTE
100
AcDbEllipse
 62
7
  6
CONTINUOUS
 10
235.6482216803
 20
97.9328780847
 30
0.0
 11
1.9224508907
 21
-1.19390516
 31
0.0
 40
0.7424978488
 41
7.2982401868
 42
8.8690365136
  0
ELLIPSE
  5
4CA
100
AcDbEntity
  8
KONSTRUKTIONSELEMENTE
100
AcDbEllipse
 62
7
  6
CONTINUOUS
 10
276.2250624099
 20
75.4457173911
 30
0.0
 11
0.0
 21
77.9422863406
 31
0.0
 40
0.5773502692
 41
-0.346223333
 42
-0.1584398369
  0
ELLIPSE
  5
4CB
100
AcDbEntity
  8
KONSTRUKTIONSELEMENTE
100
AcDbEllipse
 62
7
  6
CONTINUOUS
 10
276.2250624099
 20
75.4457173911
 30
0.0
 11
0.0
 21
77.9422863406
 31
0.0
 40
0.5773502692
 41
0.1584398369
 42
0.346223333
  0
ELLIPSE
  5
4CC
100
AcDbEntity
  8
0
100
AcDbEllipse
 62
7
  6
CONTINUOUS
 10
748.2964634063
 20
156.4695670786
 30
0.0
 11
-0.7556199617
 21
21.3458453383
 31
0.0
 40
0.1404528969
 41
-2.0714148455
 42
-1.8176885507
  0
ELLIPSE
  5
4CD
100
AcDbEntity
  8
0
100
AcDbEllipse
 62
7
  6
CONTINUOUS
 10
748.5897396773
 20
148.0177407711
 30
0.0
 11
-0.4144865791
 21
3.5584203432
 31
0.0
 40
0.8362247574
 41
-2.5405585317
 42
-2.1635405839
  0
ELLIPSE
  5
4CE
100
AcDbEntity
  8
RUNDUNGEN
100
AcDbEllipse
 62
7
  6
CONTINUOUS
 10
762.8527547462
 20
148.0177407711
 30
0.0
 11
0.4144865791
 21
3.5584203432
 31
0.0
 40
0.8362247574
 41
-4.1196447232
 42
-3.7426267755
  0
ELLIPSE
  5
4CF
100
AcDbEntity
  8
RUNDUNGEN
100
AcDbEllipse
 62
7
  6
CONTINUOUS
 10
763.1460310172
 20
156.4695670786
 30
0.0
 11
0.7556199617
 21
21.3458453383
 31
0.0
 40
0.1404528969
 41
-4.4654967564
 42
-4.2117704617
  0
ELLIPSE
  5
4D0
100
AcDbEntity
  8
KONSTRUKTIONSELEMENTE
100
AcDbEllipse
 62
7
  6
CONTINUOUS
 10
626.1398224561
 20
101.2258784655
 30
0.0
 11
-0.0
 21
2.6923475556
 31
0.0
 40
0.2216946626
 41
-4.4942228239
 42
-3.3588581838
  0
ELLIPSE
  5
4D1
100
AcDbEntity
  8
KONSTRUKTIONSELEMENTE
100
AcDbEllipse
 62
7
  6
CONTINUOUS
 10
629.6046456839
 20
97.7610552377
 30
0.0
 11
2.6923475556
 21
-0.0
 31
0.0
 40
0.2216946626
 41
-2.9243271234
 42
-1.7889624833
  0
ENDSEC
  0
SECTION
  2
OBJECTS
  0
DICTIONARY
  5
C
100
AcDbDictionary
280
0
281
1
  3
ACAD_GROUP
350
D
  3
ACAD_MLINESTYLE
350
17
  3
ACAD_LAYOUT
350
1A
  3
ACAD_PLOTSETTINGS
350
19
  3
ACAD_PLOTSTYLENAME
350
E
  0
DICTIONARY
  5
D
102
{ACAD_REACTORS
330
C
102
}
100
AcDbDictionary
280
0
281
1
  0
ACDBDICTIONARYWDFLT
  5
E
102
{ACAD_REACTORS
330
C
102
}
100
AcDbDictionary
281
1
  3
Normal
350
F
100
AcDbDictionaryWithDefault
340
F
  0
DICTIONARY
  5
17
102
{ACAD_REACTORS
330
C
102
}
100
AcDbDictionary
280
0
281
1
  3
Standard
350
18
  0
DICTIONARY
  5
19
102
{ACAD_REACTORS
330
C
102
}
100
AcDbDictionary
281
1
  0
DICTIONARY
  5
1A
102
{ACAD_REACTORS
330
C
102
}
100
AcDbDictionary
281
1
  3
Model
350
4D2
  3
Layout1
350
4D3
  0
ACDBPLACEHOLDER
  5
F
102
{ACAD_REACTORS
330
E
102
}
  0
MLINESTYLE
  5
18
102
{ACAD_REACTORS
330
17
102
}
100
AcDbMlineStyle
  2
STANDARD
 70
0
  3

 62
256
 51
90.0
 52
90.0
 71
2
 49
0.5
 62
256
  6
BYLAYER
 49
-0.5
 62
256
  6
BYLAYER
  0
LAYOUT
  5
4D2
102
{ACAD_REACTORS
330
1A
102
}
100
AcDbPlotSettings
  1

  2
none_device
  4
ISO_A0_(1189.00_x_841.00_MM)
  6

 40
0.0
 41
0.0
 42
0.0
 43
0.0
 44
1189.0
 45
841.0
 46
0.0
 47
0.0
 48
0.0
 49
0.0
140
0.0
141
0.0
142
1.0
143
1.0
 70
1024
 72
1
 73
0
 74
0
  7

 75
0
147
1.0
148
0.0
149
0.0
100
AcDbLayout
  1
Model
 70
0
 71
0
 10
0.0
 20
0.0
 11
1189.0
 21
841.0
 12
0.0
 22
0.0
 32
0.0
 14
0.0
 24
0.0
 34
0.0
 15
0.0
 25
0.0
 35
0.0
146
0.0
 13
0.0
 23
0.0
 33
0.0
 16
1.0
 26
0.0
 36
0.0
 17
0.0
 27
1.0
 37
0.0
 76
0
330
20C
345
0
346
0
  0
LAYOUT
  5
4D3
102
{ACAD_REACTORS
330
1A
102
}
100
AcDbPlotSettings
  1

  2
none_device
  4
ISO_A0_(1189.00_x_841.00_MM)
  6

 40
0.0
 41
0.0
 42
0.0
 43
0.0
 44
1189.0
 45
841.0
 46
0.0
 47
0.0
 48
0.0
 49
0.0
140
0.0
141
0.0
142
1.0
143
1.0
 70
0
 72
1
 73
0
 74
0
  7

 75
0
147
1.0
148
0.0
149
0.0
100
AcDbLayout
  1
Layout1
 70
0
 71
1
 10
0.0
 20
0.0
 11
1189.0
 21
841.0
 12
0.0
 22
0.0
 32
0.0
 14
0.0
 24
0.0
 34
0.0
 15
0.0
 25
0.0
 35
0.0
146
0.0
 13
0.0
 23
0.0
 33
0.0
 16
1.0
 26
0.0
 36
0.0
 17
0.0
 27
1.0
 37
0.0
 76
0
330
20D
345
0
346
0
  0
ENDSEC
  0
EOF
