999
DXF file: VSAK-1-13_190_7100694_M32080-P-3.dxf
999
Pro/ENGINEER 2010140 by Parametric Technology Corporation
  0
SECTION
  2
HEADER
  9
$ACADVER
  1
AC1015
  9
$DWGCODEPAGE
  3
ANSI_1252
  9
$EXTMAX
 10
841.0
 20
594.0
 30
0.0
  9
$EXTMIN
 10
0.0
 20
0.0
 30
0.0
  9
$LIMMIN
 10
0.0
 20
0.0
  9
$LIMMAX
 10
841.0
 20
594.0
  9
$VIEWCTR
 10
420.5
 20
297.0
  9
$VIEWSIZE
 40
594.0
  9
$CLAYER
  8
0
  9
$LTSCALE
 40
46.255
  9
$CELTYPE
  6
BYLAYER
  9
$DIMSCALE
 40
1.0
  9
$DIMASZ
 40
3.5
  9
$DIMEXO
 40
5.25625
  9
$DIMDLI
 40
31.958
  9
$DIMEXE
 40
15.138
  9
$DIMCEN
 40
7.569
  9
$DIMLFAC
 40
1.0
  9
$DIMBLK
  1
_FILLED
  9
$DIMTXT
 40
3.5
  9
$DIMTOL
 70
1
  9
$DIMLIM
 70
0
  9
$DIMTFAC
 40
1.0
  9
$DIMTP
 40
0.005
  9
$DIMTM
 40
0.005
  9
$PDMODE
 70
3
  9
$PDSIZE
 40
0.3125
  9
$HANDSEED
  5
4D5
  9
$TILEMODE
 70
1
  9
$MEASUREMENT
 70
1
  9
$INSUNITS
 70
4
  0
ENDSEC
  0
SECTION
  2
CLASSES
  0
CLASS
  1
ACDBDICTIONARYWDFLT
  2
AcDbDictionaryWithDefault
  3
AutoCAD 2000
 90
0
280
0
281
0
  0
CLASS
  1
ACDBPLACEHOLDER
  2
AcDbPlaceHolder
  3
AutoCAD 2000
 90
0
280
0
281
0
  0
CLASS
  1
LAYOUT
  2
AcDbLayout
  3
AutoCAD 2000
 90
0
280
0
281
0
  0
ENDSEC
  0
SECTION
  2
TABLES
  0
TABLE
  2
VPORT
  5
8
100
AcDbSymbolTable
 70
2
  0
VPORT
  5
1F4
100
AcDbSymbolTableRecord
100
AcDbViewportTableRecord
  2
*ACTIVE
 70
0
 10
0.0
 20
0.0
 11
1.0
 21
1.0
 12
420.5
 22
297.0
 13
0.0
 23
0.0
 14
1.0
 24
1.0
 15
0.0
 25
0.0
 16
0.0
 26
0.0
 36
1.0
 17
0.0
 27
0.0
 37
0.0
 40
594.0
 41
1.4158249158
 42
50.0
 43
0.0
 44
0.0
 50
0.0
 51
0.0
 71
0
 72
100
 73
1
 74
1
 75
0
 76
0
 77
0
 78
0
  0
ENDTAB
  0
TABLE
  2
LTYPE
  5
5
100
AcDbSymbolTable
 70
6
  0
LTYPE
  5
14
100
AcDbSymbolTableRecord
100
AcDbLinetypeTableRecord
  2
BYBLOCK
 70
0
  3

 72
65
 73
0
 40
0.0
  0
LTYPE
  5
15
100
AcDbSymbolTableRecord
100
AcDbLinetypeTableRecord
  2
BYLAYER
 70
0
  3

 72
65
 73
0
 40
0.0
  0
LTYPE
  5
16
100
AcDbSymbolTableRecord
100
AcDbLinetypeTableRecord
  2
CONTINUOUS
 70
64
  3
Solid line
 72
65
 73
0
 40
0.0
  0
LTYPE
  5
1F5
100
AcDbSymbolTableRecord
100
AcDbLinetypeTableRecord
  2
CENTER
 70
64
  3
____ _ ____ _ ____ _ ____ _ ____ _ ____ _ ____
 72
65
 73
4
 40
0.6
 49
0.375
 74
0
 49
-0.075
 74
0
 49
0.075
 74
0
 49
-0.075
 74
0
  0
LTYPE
  5
1F6
100
AcDbSymbolTableRecord
100
AcDbLinetypeTableRecord
  2
HIDDEN
 70
64
  3
- - - - - - - - - - - - - - - - - - - -
 72
65
 73
2
 40
0.2
 49
0.1
 74
0
 49
-0.1
 74
0
  0
LTYPE
  5
1F7
100
AcDbSymbolTableRecord
100
AcDbLinetypeTableRecord
  2
PHANTOM
 70
64
  3
_____ _ _ _____ _ _ _____ _ _ _____
 72
65
 73
6
 40
0.8
 49
0.45
 74
0
 49
-0.05
 74
0
 49
0.1
 74
0
 49
-0.05
 74
0
 49
0.1
 74
0
 49
-0.05
 74
0
  0
LTYPE
  5
1F8
100
AcDbSymbolTableRecord
100
AcDbLinetypeTableRecord
  2
DOT
 70
64
  3
. . . . . . . . . . . . . . . . . . . .
 72
65
 73
2
 40
0.2
 49
0.1
 74
0
 49
-0.1
 74
0
  0
LTYPE
  5
1F9
100
AcDbSymbolTableRecord
100
AcDbLinetypeTableRecord
  2
DASHED
 70
64
  3
- - - - - - - - - - - - - - - - - - - -
 72
65
 73
2
 40
0.2
 49
0.1
 74
0
 49
-0.1
 74
0
  0
ENDTAB
  0
TABLE
  2
LAYER
  5
2
100
AcDbSymbolTable
 70
36
  0
LAYER
  5
10
100
AcDbSymbolTableRecord
100
AcDbLayerTableRecord
  2
0
 70
0
 62
7
  6
CONTINUOUS
370
-3
390
F
  0
LAYER
  5
1FA
100
AcDbSymbolTableRecord
100
AcDbLayerTableRecord
  2
DEFAULT_1
 70
0
 62
7
  6
CENTER
370
-3
390
F
  0
LAYER
  5
1FB
100
AcDbSymbolTableRecord
100
AcDbLayerTableRecord
  2
DEFAULT_2
 70
0
 62
8
  6
HIDDEN
370
-3
390
F
  0
LAYER
  5
1FC
100
AcDbSymbolTableRecord
100
AcDbLayerTableRecord
  2
DEFAULT_3
 70
0
 62
7
  6
PHANTOM
370
-3
390
F
  0
LAYER
  5
1FD
100
AcDbSymbolTableRecord
100
AcDbLayerTableRecord
  2
AUSFORMSCHRAEGEN
 70
0
 62
7
  6
CONTINUOUS
370
-3
390
F
  0
LAYER
  5
1FE
100
AcDbSymbolTableRecord
100
AcDbLayerTableRecord
  2
BEZUGSACHSEN
 70
0
 62
7
  6
CONTINUOUS
370
-3
390
F
  0
LAYER
  5
1FF
100
AcDbSymbolTableRecord
100
AcDbLayerTableRecord
  2
BEZUGSEBENEN
 70
0
 62
7
  6
CONTINUOUS
370
-3
390
F
  0
LAYER
  5
200
100
AcDbSymbolTableRecord
100
AcDbLayerTableRecord
  2
BG_STARTBEZUEGE
 70
0
 62
7
  6
CONTINUOUS
370
-3
390
F
  0
LAYER
  5
201
100
AcDbSymbolTableRecord
100
AcDbLayerTableRecord
  2
FASEN
 70
0
 62
7
  6
CONTINUOUS
370
-3
390
F
  0
LAYER
  5
202
100
AcDbSymbolTableRecord
100
AcDbLayerTableRecord
  2
HILFEN
 70
0
 62
7
  6
CONTINUOUS
370
-3
390
F
  0
LAYER
  5
203
100
AcDbSymbolTableRecord
100
AcDbLayerTableRecord
  2
KONSTRUKTIONSELEMENTE
 70
0
 62
7
  6
CONTINUOUS
370
-3
390
F
  0
LAYER
  5
204
100
AcDbSymbolTableRecord
100
AcDbLayerTableRecord
  2
NORM
 70
0
 62
7
  6
CONTINUOUS
370
-3
390
F
  0
LAYER
  5
205
100
AcDbSymbolTableRecord
100
AcDbLayerTableRecord
  2
PLATZIERUNG
 70
0
 62
7
  6
CONTINUOUS
370
-3
390
F
  0
LAYER
  5
206
100
AcDbSymbolTableRecord
100
AcDbLayerTableRecord
  2
PLAZIERUNG
 70
0
 62
7
  6
CONTINUOUS
370
-3
390
F
  0
LAYER
  5
207
100
AcDbSymbolTableRecord
100
AcDbLayerTableRecord
  2
RUNDUNGEN
 70
0
 62
7
  6
CONTINUOUS
370
-3
390
F
  0
LAYER
  5
208
100
AcDbSymbolTableRecord
100
AcDbLayerTableRecord
  2
TEIL_STARTBEZUEGE
 70
0
 62
7
  6
CONTINUOUS
370
-3
390
F
  0
LAYER
  5
209
100
AcDbSymbolTableRecord
100
AcDbLayerTableRecord
  2
T_STARTBEZUEGE
 70
0
 62
7
  6
CONTINUOUS
370
-3
390
F
  0
ENDTAB
  0
TABLE
  2
STYLE
  5
3
100
AcDbSymbolTable
 70
1
  0
STYLE
  5
11
100
AcDbSymbolTableRecord
100
AcDbTextStyleTableRecord
  2
STANDARD
 70
0
 40
0.0
 41
0.7
 50
0.0
 71
0
 42
0.2
  3
txt
  4

  0
STYLE
  5
20A
100
AcDbSymbolTableRecord
100
AcDbTextStyleTableRecord
  2
TEXTSTYLE_1
 70
0
 40
0.0
 41
0.8
 50
0.0
 71
0
 42
0.2
  3
gdt
  4

  0
ENDTAB
  0
TABLE
  2
VIEW
  5
6
100
AcDbSymbolTable
 70
0
  0
ENDTAB
  0
TABLE
  2
UCS
  5
7
100
AcDbSymbolTable
 70
0
  0
ENDTAB
  0
TABLE
  2
APPID
  5
9
100
AcDbSymbolTable
 70
1
  0
APPID
  5
20B
100
AcDbSymbolTableRecord
100
AcDbRegAppTableRecord
  2
ACAD
 70
0
  0
ENDTAB
  0
TABLE
  2
BLOCK_RECORD
  5
1
100
AcDbSymbolTable
 70
0
  0
BLOCK_RECORD
  5
20C
100
AcDbSymbolTableRecord
100
AcDbBlockTableRecord
  2
*Model_Space
  0
BLOCK_RECORD
  5
20D
100
AcDbSymbolTableRecord
100
AcDbBlockTableRecord
  2
*Paper_Space
  0
ENDTAB
  0
TABLE
  2
DIMSTYLE
  5
A
100
AcDbSymbolTable
 70
1
100
AcDbDimStyleTable
 71
0
  0
DIMSTYLE
105
20E
100
AcDbSymbolTableRecord
100
AcDbDimStyleTableRecord
  2
STANDARD
 70
0
  3

  4

 40
1.0
 41
3.5
 42
0.0625
 43
0.38
 44
0.18
 45
0.0
 46
0.0
 47
0.005
 48
0.005
140
3.5
141
0.09
142
0.0
143
25.4
144
1.0
145
0.0
146
1.0
147
0.09
 71
1.0
 72
0.0
 73
0
 74
0
 75
0
 76
0
 77
1
 78
8
170
0
171
2
172
0
173
0
174
0
175
0
176
0
177
0
178
5
270
2
271
3
272
3
273
2
274
2
275
0
280
0
281
0
282
0
283
1
284
8
285
0
286
0
287
3
288
0
340
11
  0
ENDTAB
  0
ENDSEC
  0
SECTION
  2
BLOCKS
  0
BLOCK
  5
20
100
AcDbEntity
  8
0
100
AcDbBlockBegin
  2
*Model_Space
 70
0
 10
0.0
 20
0.0
 30
0.0
  3
*Model_Space
  1

  0
ENDBLK
  5
21
100
AcDbEntity
  8
0
100
AcDbBlockEnd
  0
BLOCK
  5
1C
100
AcDbEntity
  8
0
100
AcDbBlockBegin
  2
*Paper_Space
 70
0
 10
0.0
 20
0.0
 30
0.0
  3
*Paper_Space
  1

  0
ENDBLK
  5
1D
100
AcDbEntity
  8
0
100
AcDbBlockEnd
  0
ENDSEC
  0
SECTION
  2
ENTITIES
  0
MTEXT
  5
20F
100
AcDbEntity
  8
0
100
AcDbMText
 62
5
  6
CONTINUOUS
  7
STANDARD
 71
1
 72
1
 10
318.5807312022
 20
376.2843915092
 30
0.0
 11
0.0
 21
1.0
 31
0.0
 44
0.9
  1
VSAK 1-13/190
 40
9.0
 41
87.4285714286
  0
MTEXT
  5
210
100
AcDbEntity
  8
0
100
AcDbMText
 62
5
  6
CONTINUOUS
  7
STANDARD
 71
1
 72
1
 10
97.473235645
 20
406.0659686083
 30
0.0
 11
0.0
 21
1.0
 31
0.0
 44
0.9
  1
RUD
 40
9.0
 41
24.0
  0
MTEXT
  5
211
100
AcDbEntity
  8
0
100
AcDbMText
 62
5
  6
CONTINUOUS
  7
STANDARD
 71
1
 72
1
 10
575.3903828235
 20
375.1648293031
 30
0.0
 11
0.0
 21
1.0
 31
0.0
 44
0.9
  1
RUD VSAK 1-13/190
 40
9.0
 41
116.7857142857
  0
LINE
  5
212
100
AcDbEntity
  8
0
100
AcDbLine
 62
7
  6
CONTINUOUS
 10
0.0
 20
0.0
 11
0.0
 21
594.0
  0
LINE
  5
213
100
AcDbEntity
  8
0
100
AcDbLine
 62
7
  6
CONTINUOUS
 10
0.0
 20
0.0
 11
841.0
 21
0.0
  0
LINE
  5
214
100
AcDbEntity
  8
0
100
AcDbLine
 62
7
  6
CONTINUOUS
 10
0.0
 20
594.0
 11
841.0
 21
594.0
  0
LINE
  5
215
100
AcDbEntity
  8
0
100
AcDbLine
 62
7
  6
CONTINUOUS
 10
841.0
 20
0.0
 11
841.0
 21
594.0
  0
LINE
  5
216
100
AcDbEntity
  8
KONSTRUKTIONSELEMENTE
100
AcDbLine
 62
7
  6
CONTINUOUS
 10
206.6926605422
 20
-39.6199119038
 11
218.5226605422
 21
-39.6199119038
  0
LINE
  5
217
100
AcDbEntity
  8
KONSTRUKTIONSELEMENTE
100
AcDbLine
 62
7
  6
CONTINUOUS
 10
206.0426605422
 20
-39.160292496
 11
206.6926605422
 21
-39.160292496
  0
LINE
  5
218
100
AcDbEntity
  8
KONSTRUKTIONSELEMENTE
100
AcDbLine
 62
7
  6
CONTINUOUS
 10
218.5226605422
 20
-39.160292496
 11
219.1726605422
 21
-39.160292496
  0
LINE
  5
219
100
AcDbEntity
  8
KONSTRUKTIONSELEMENTE
100
AcDbLine
 62
7
  6
CONTINUOUS
 10
201.4926605422
 20
-21.235135593
 11
199.9057741019
 21
-21.235135593
  0
LINE
  5
21A
100
AcDbEntity
  8
KONSTRUKTIONSELEMENTE
100
AcDbLine
 62
7
  6
CONTINUOUS
 10
223.7226605422
 20
-21.235135593
 11
242.0116074629
 21
-21.235135593
  0
LINE
  5
21B
100
AcDbEntity
  8
KONSTRUKTIONSELEMENTE
100
AcDbLine
 62
7
  6
CONTINUOUS
 10
247.8126759362
 20
-17.6301975825
 11
240.1543751358
 21
-15.1050313653
  0
LINE
  5
21C
100
AcDbEntity
  8
KONSTRUKTIONSELEMENTE
100
AcDbLine
 62
7
  6
CONTINUOUS
 10
247.8126759362
 20
-14.0946636766
 11
240.1543751358
 21
-11.5694974593
  0
LINE
  5
21D
100
AcDbEntity
  8
KONSTRUKTIONSELEMENTE
100
AcDbLine
 62
7
  6
CONTINUOUS
 10
163.2070576811
 20
28.9096256685
 11
163.2281885942
 21
28.9129381884
  0
LINE
  5
21E
100
AcDbEntity
  8
KONSTRUKTIONSELEMENTE
100
AcDbLine
 62
7
  6
CONTINUOUS
 10
235.7035987297
 20
50.1770936096
 11
230.106931126
 21
50.1770936096
  0
LINE
  5
21F
100
AcDbEntity
  8
KONSTRUKTIONSELEMENTE
100
AcDbLine
 62
7
  6
CONTINUOUS
 10
195.1083899583
 20
50.1770936096
 11
189.5117223547
 21
50.1770936096
  0
LINE
  5
220
100
AcDbEntity
  8
KONSTRUKTIONSELEMENTE
100
AcDbLine
 62
7
  6
CONTINUOUS
 10
268.4275368462
 20
27.7682605943
 11
276.0858376467
 21
25.243094377
  0
LINE
  5
221
100
AcDbEntity
  8
0
100
AcDbLine
 62
7
  6
CONTINUOUS
 10
205.5076605422
 20
60.3770936096
 11
219.7076605422
 21
60.3770936096
  0
LINE
  5
222
100
AcDbEntity
  8
0
100
AcDbLine
 62
7
  6
CONTINUOUS
 10
205.5076605422
 20
75.9770936096
 11
219.7076605422
 21
75.9770936096
  0
LINE
  5
223
100
AcDbEntity
  8
KONSTRUKTIONSELEMENTE
100
AcDbLine
 62
7
  6
CONTINUOUS
 10
219.36955273
 20
50.5368564832
 11
274.3550614042
 21
32.4065228019
  0
LINE
  5
224
100
AcDbEntity
  8
KONSTRUKTIONSELEMENTE
100
AcDbLine
 62
7
  6
CONTINUOUS
 10
274.3550614042
 20
35.9420567079
 11
231.1831728555
 21
50.1770936096
  0
LINE
  5
225
100
AcDbEntity
  8
KONSTRUKTIONSELEMENTE
100
AcDbLine
 62
7
  6
CONTINUOUS
 10
219.7076605422
 20
53.9609063344
 11
219.36955273
 21
54.0723903891
  0
LINE
  5
226
100
AcDbEntity
  8
KONSTRUKTIONSELEMENTE
100
AcDbLine
 62
7
  6
CONTINUOUS
 10
161.8546792435
 20
30.960366091
 11
163.2070576811
 21
28.9096256685
  0
LINE
  5
227
100
AcDbEntity
  8
KONSTRUKTIONSELEMENTE
100
AcDbLine
 62
7
  6
CONTINUOUS
 10
170.3429670306
 20
18.0887656574
 11
194.5254085415
 21
-18.581377067
  0
LINE
  5
228
100
AcDbEntity
  8
BEZUGSACHSEN
100
AcDbLine
 62
7
  6
CONTINUOUS
 10
236.9005243427
 20
133.0325740874
 11
237.169110001
 21
133.0906483202
  0
LINE
  5
229
100
AcDbEntity
  8
BEZUGSACHSEN
100
AcDbLine
 62
7
  6
CONTINUOUS
 10
236.6467000973
 20
132.4947685752
 11
237.0779130398
 21
132.5397146107
  0
LINE
  5
22A
100
AcDbEntity
  8
RUNDUNGEN
100
AcDbLine
 62
7
  6
CONTINUOUS
 10
181.075571656
 20
59.1194588588
 11
181.4784145495
 21
58.6393693931
  0
LINE
  5
22B
100
AcDbEntity
  8
0
100
AcDbLine
 62
7
  6
CONTINUOUS
 10
181.4784145495
 20
58.6393693931
 11
187.9796334684
 21
50.8915183902
  0
LINE
  5
22C
100
AcDbEntity
  8
RUNDUNGEN
100
AcDbLine
 62
7
  6
CONTINUOUS
 10
179.9057938715
 20
77.0135457359
 11
179.0344623677
 21
78.0519581859
  0
LINE
  5
22D
100
AcDbEntity
  8
KONSTRUKTIONSELEMENTE
100
AcDbLine
 62
7
  6
CONTINUOUS
 10
170.3429670306
 20
18.5483850652
 11
170.0682651604
 21
18.9649417135
  0
LINE
  5
22E
100
AcDbEntity
  8
KONSTRUKTIONSELEMENTE
100
AcDbLine
 62
7
  6
CONTINUOUS
 10
173.7981199973
 20
30.2502223665
 11
178.9444624054
 21
22.4463324852
  0
LINE
  5
22F
100
AcDbEntity
  8
BEZUGSACHSEN
100
AcDbLine
 62
7
  6
CONTINUOUS
 10
239.012309931
 20
134.6964903327
 11
239.5494838417
 21
134.8126349378
  0
LINE
  5
230
100
AcDbEntity
  8
BEZUGSACHSEN
100
AcDbLine
 62
7
  6
CONTINUOUS
 10
197.1985400157
 20
146.8334735086
 11
197.6159135806
 21
146.9187338001
  0
LINE
  5
231
100
AcDbEntity
  8
BEZUGSACHSEN
100
AcDbLine
 62
7
  6
CONTINUOUS
 10
224.8672053423
 20
145.8350379225
 11
225.3396438902
 21
145.9196763465
  0
LINE
  5
232
100
AcDbEntity
  8
BEZUGSACHSEN
100
AcDbLine
 62
7
  6
CONTINUOUS
 10
228.3243482399
 20
141.6035199127
 11
228.7180417518
 21
141.6592274773
  0
LINE
  5
233
100
AcDbEntity
  8
BEZUGSACHSEN
100
AcDbLine
 62
7
  6
CONTINUOUS
 10
228.6901811854
 20
146.0371293981
 11
229.08387465
 21
146.0928368867
  0
LINE
  5
234
100
AcDbEntity
  8
BEZUGSACHSEN
100
AcDbLine
 62
7
  6
CONTINUOUS
 10
194.3930763238
 20
139.0535242622
 11
194.869802458
 21
139.1091442398
  0
LINE
  5
235
100
AcDbEntity
  8
BEZUGSACHSEN
100
AcDbLine
 62
7
  6
CONTINUOUS
 10
235.9954079622
 20
139.1153314828
 11
237.070372978
 21
139.2363360639
  0
LINE
  5
236
100
AcDbEntity
  8
BEZUGSACHSEN
100
AcDbLine
 62
7
  6
CONTINUOUS
 10
236.7693915253
 20
139.7816315734
 11
237.8443562702
 21
139.9026359212
  0
LINE
  5
237
100
AcDbEntity
  8
BEZUGSACHSEN
100
AcDbLine
 62
7
  6
CONTINUOUS
 10
238.9211130441
 20
134.1455566731
 11
239.3523285808
 21
134.1904988482
  0
LINE
  5
238
100
AcDbEntity
  8
BEZUGSACHSEN
100
AcDbLine
 62
7
  6
CONTINUOUS
 10
238.4013262876
 20
136.9790059351
 11
238.8325392302
 21
137.0239519706
  0
LINE
  5
239
100
AcDbEntity
  8
BEZUGSACHSEN
100
AcDbLine
 62
7
  6
CONTINUOUS
 10
188.4806243957
 20
140.9657449676
 11
189.0368548146
 21
141.015279521
  0
LINE
  5
23A
100
AcDbEntity
  8
BEZUGSACHSEN
100
AcDbLine
 62
7
  6
CONTINUOUS
 10
224.6814659335
 20
146.460677102
 11
225.0119028901
 21
146.4649662648
  0
LINE
  5
23B
100
AcDbEntity
  8
BEZUGSACHSEN
100
AcDbLine
 62
7
  6
CONTINUOUS
 10
228.0058852509
 20
140.8995347317
 11
228.485843242
 21
140.9015542637
  0
LINE
  5
23C
100
AcDbEntity
  8
BEZUGSACHSEN
100
AcDbLine
 62
7
  6
CONTINUOUS
 10
228.9223815987
 20
146.794801269
 11
229.4023375977
 21
146.7968220013
  0
LINE
  5
23D
100
AcDbEntity
  8
BEZUGSACHSEN
100
AcDbLine
 62
7
  6
CONTINUOUS
 10
194.0715857308
 20
139.7778364687
 11
194.469119815
 21
139.7698011738
  0
LINE
  5
23E
100
AcDbEntity
  8
BEZUGSACHSEN
100
AcDbLine
 62
7
  6
CONTINUOUS
 10
188.8903837555
 20
140.4659002734
 11
189.2162222883
 21
140.448279755
  0
LINE
  5
23F
100
AcDbEntity
  8
BEZUGSACHSEN
100
AcDbLine
 62
7
  6
CONTINUOUS
 10
197.3336422208
 20
147.6379952564
 11
197.812874268
 21
147.6115841943
  0
LINE
  5
240
100
AcDbEntity
  8
BEZUGSACHSEN
100
AcDbLine
 62
7
  6
CONTINUOUS
 10
236.5752671058
 20
133.0588342924
 11
236.9005243427
 21
133.0325740874
  0
LINE
  5
241
100
AcDbEntity
  8
BEZUGSACHSEN
100
AcDbLine
 62
7
  6
CONTINUOUS
 10
238.6870527683
 20
134.7227505876
 11
239.012309931
 21
134.6964903327
  0
LINE
  5
242
100
AcDbEntity
  8
BEZUGSACHSEN
100
AcDbLine
 62
7
  6
CONTINUOUS
 10
238.5984789545
 20
137.6011458851
 11
239.2489932798
 21
137.5486253753
  0
LINE
  5
243
100
AcDbEntity
  8
BEZUGSACHSEN
100
AcDbLine
 62
7
  6
CONTINUOUS
 10
189.0368548146
 20
141.015279521
 11
189.6210589711
 21
140.9040728273
  0
LINE
  5
244
100
AcDbEntity
  8
BEZUGSACHSEN
100
AcDbLine
 62
7
  6
CONTINUOUS
 10
197.6159135806
 20
146.9187338001
 11
198.0062671114
 21
146.8430899675
  0
LINE
  5
245
100
AcDbEntity
  8
BEZUGSACHSEN
100
AcDbLine
 62
7
  6
CONTINUOUS
 10
193.7563924095
 20
139.1969052055
 11
194.3930763238
 21
139.0535242622
  0
LINE
  5
246
100
AcDbEntity
  8
BEZUGSACHSEN
100
AcDbLine
 62
7
  6
CONTINUOUS
 10
238.3765596869
 20
134.2692757525
 11
238.9211130441
 21
134.1455566731
  0
LINE
  5
247
100
AcDbEntity
  8
BEZUGSACHSEN
100
AcDbLine
 62
7
  6
CONTINUOUS
 10
227.9118481332
 20
141.7098812161
 11
228.3243482399
 21
141.6035199127
  0
LINE
  5
248
100
AcDbEntity
  8
BEZUGSACHSEN
100
AcDbLine
 62
7
  6
CONTINUOUS
 10
229.08387465
 20
146.0928368867
 11
229.4963787055
 21
145.9864731257
  0
LINE
  5
249
100
AcDbEntity
  8
BEZUGSACHSEN
100
AcDbLine
 62
7
  6
CONTINUOUS
 10
236.2647739872
 20
132.6053594324
 11
236.6467000973
 21
132.4947685752
  0
LINE
  5
24A
100
AcDbEntity
  8
BEZUGSACHSEN
100
AcDbLine
 62
7
  6
CONTINUOUS
 10
238.8325392302
 20
137.0239519706
 11
239.2144653031
 21
136.9133610885
  0
LINE
  5
24B
100
AcDbEntity
  8
BEZUGSACHSEN
100
AcDbLine
 62
7
  6
CONTINUOUS
 10
227.5071245783
 20
141.0595815533
 11
228.0058852509
 21
140.8995347317
  0
LINE
  5
24C
100
AcDbEntity
  8
BEZUGSACHSEN
100
AcDbLine
 62
7
  6
CONTINUOUS
 10
197.812874268
 20
147.6115841943
 11
198.4158232796
 21
147.3618304246
  0
LINE
  5
24D
100
AcDbEntity
  8
BEZUGSACHSEN
100
AcDbLine
 62
7
  6
CONTINUOUS
 10
193.6732642213
 20
139.9490268327
 11
194.0715857308
 21
139.7778364687
  0
LINE
  5
24E
100
AcDbEntity
  8
BEZUGSACHSEN
100
AcDbLine
 62
7
  6
CONTINUOUS
 10
190.6758931001
 20
139.0159011588
 11
193.4784168287
 21
137.7497469585
  0
LINE
  5
24F
100
AcDbEntity
  8
BEZUGSACHSEN
100
AcDbLine
 62
7
  6
CONTINUOUS
 10
190.4619492283
 20
138.3905563629
 11
193.0061072367
 21
137.2179882292
  0
LINE
  5
250
100
AcDbEntity
  8
BEZUGSACHSEN
100
AcDbLine
 62
7
  6
CONTINUOUS
 10
189.2162222883
 20
140.448279755
 11
189.5700343658
 21
140.2699177723
  0
LINE
  5
251
100
AcDbEntity
  8
BEZUGSACHSEN
100
AcDbLine
 62
7
  6
CONTINUOUS
 10
189.6210589711
 20
140.9040728273
 11
189.9748710486
 21
140.7257108446
  0
LINE
  5
252
100
AcDbEntity
  8
BEZUGSACHSEN
100
AcDbLine
 62
7
  6
CONTINUOUS
 10
193.2780919574
 20
139.4675960953
 11
193.7563924095
 21
139.1969052055
  0
LINE
  5
253
100
AcDbEntity
  8
0
100
AcDbLine
 62
7
  6
CONTINUOUS
 10
85.6076605422
 20
504.0770936096
 11
85.6076605422
 21
344.0770936096
  0
LINE
  5
254
100
AcDbEntity
  8
BEZUGSACHSEN
100
AcDbLine
 62
7
  6
CONTINUOUS
 10
196.8273891224
 20
147.503501631
 11
197.3336422208
 21
147.6379952564
  0
LINE
  5
255
100
AcDbEntity
  8
BEZUGSACHSEN
100
AcDbLine
 62
7
  6
CONTINUOUS
 10
229.4023375977
 20
146.7968220013
 11
229.9011022132
 21
146.6367727127
  0
LINE
  5
256
100
AcDbEntity
  8
0
100
AcDbLine
 62
7
  6
CONTINUOUS
 10
235.7839351203
 20
150.0764989228
 11
223.6076605422
 21
154.03281036
  0
LINE
  5
257
100
AcDbEntity
  8
BEZUGSACHSEN
100
AcDbLine
 62
7
  6
CONTINUOUS
 10
223.9566376304
 20
143.0362424717
 11
224.6161624871
 21
142.770031692
  0
LINE
  5
258
100
AcDbEntity
  8
BEZUGSACHSEN
100
AcDbLine
 62
7
  6
CONTINUOUS
 10
223.6076605422
 20
146.0681072648
 11
224.2063314292
 21
145.8264595968
  0
LINE
  5
259
100
AcDbEntity
  8
BEZUGSACHSEN
100
AcDbLine
 62
7
  6
CONTINUOUS
 10
223.6076605422
 20
146.8941081812
 11
224.6814659335
 21
146.460677102
  0
LINE
  5
25A
100
AcDbEntity
  8
BEZUGSACHSEN
100
AcDbLine
 62
7
  6
CONTINUOUS
 10
223.608065006
 20
148.9589476001
 11
225.3982085238
 21
148.2363736186
  0
LINE
  5
25B
100
AcDbEntity
  8
BEZUGSACHSEN
100
AcDbLine
 62
7
  6
CONTINUOUS
 10
223.6076605422
 20
149.647444955
 11
225.542903915
 21
148.8663028314
  0
LINE
  5
25C
100
AcDbEntity
  8
BEZUGSACHSEN
100
AcDbLine
 62
7
  6
CONTINUOUS
 10
235.8261763821
 20
132.8002847836
 11
236.2647739872
 21
132.6053594324
  0
LINE
  5
25D
100
AcDbEntity
  8
BEZUGSACHSEN
100
AcDbLine
 62
7
  6
CONTINUOUS
 10
236.3559683172
 20
133.1562969773
 11
236.5752671058
 21
133.0588342924
  0
LINE
  5
25E
100
AcDbEntity
  8
BEZUGSACHSEN
100
AcDbLine
 62
7
  6
CONTINUOUS
 10
239.2489932798
 20
137.5486253753
 11
239.687588263
 21
137.3537038659
  0
LINE
  5
25F
100
AcDbEntity
  8
BEZUGSACHSEN
100
AcDbLine
 62
7
  6
CONTINUOUS
 10
226.730767692
 20
141.5427586742
 11
227.5071245783
 21
141.0595815533
  0
LINE
  5
260
100
AcDbEntity
  8
BEZUGSACHSEN
100
AcDbLine
 62
7
  6
CONTINUOUS
 10
227.1354912469
 20
142.1930583371
 11
227.9118481332
 21
141.7098812161
  0
LINE
  5
261
100
AcDbEntity
  8
BEZUGSACHSEN
100
AcDbLine
 62
7
  6
CONTINUOUS
 10
228.7699386173
 20
143.2809351319
 11
229.5462955036
 21
142.7977580109
  0
LINE
  5
262
100
AcDbEntity
  8
BEZUGSACHSEN
100
AcDbLine
 62
7
  6
CONTINUOUS
 10
229.174662125
 20
143.9312347189
 11
230.4685902688
 21
143.1259395172
  0
LINE
  5
263
100
AcDbEntity
  8
BEZUGSACHSEN
100
AcDbLine
 62
7
  6
CONTINUOUS
 10
230.5581042727
 20
144.4235069783
 11
231.0756755302
 21
144.1013888977
  0
LINE
  5
264
100
AcDbEntity
  8
BEZUGSACHSEN
100
AcDbLine
 62
7
  6
CONTINUOUS
 10
229.4963787055
 20
145.9864731257
 11
230.2727355918
 21
145.5032960047
  0
LINE
  5
265
100
AcDbEntity
  8
BEZUGSACHSEN
100
AcDbLine
 62
7
  6
CONTINUOUS
 10
229.9011022132
 20
146.6367727127
 11
230.6774590994
 21
146.1535955917
  0
LINE
  5
266
100
AcDbEntity
  8
BEZUGSACHSEN
100
AcDbLine
 62
7
  6
CONTINUOUS
 10
198.0062671114
 20
146.8430899675
 11
198.3696007813
 21
146.6065416978
  0
LINE
  5
267
100
AcDbEntity
  8
BEZUGSACHSEN
100
AcDbLine
 62
7
  6
CONTINUOUS
 10
238.1351173705
 20
135.0863372119
 11
238.6870527683
 21
134.7227505876
  0
LINE
  5
268
100
AcDbEntity
  8
BEZUGSACHSEN
100
AcDbLine
 62
7
  6
CONTINUOUS
 10
198.4158232796
 20
147.3618304246
 11
198.8410152584
 21
147.013611114
  0
LINE
  5
269
100
AcDbEntity
  8
BEZUGSACHSEN
100
AcDbLine
 62
7
  6
CONTINUOUS
 10
193.2741561368
 20
140.2833730639
 11
193.6732642213
 21
139.9490268327
  0
LINE
  5
26A
100
AcDbEntity
  8
BEZUGSACHSEN
100
AcDbLine
 62
7
  6
CONTINUOUS
 10
190.9144511066
 20
134.8630574281
 11
186.4284672441
 21
138.8475208531
  0
LINE
  5
26B
100
AcDbEntity
  8
BEZUGSACHSEN
100
AcDbLine
 62
7
  6
CONTINUOUS
 10
191.3192877894
 20
135.3188505004
 11
189.3149119926
 21
137.0991426943
  0
LINE
  5
26C
100
AcDbEntity
  8
BEZUGSACHSEN
100
AcDbLine
 62
7
  6
CONTINUOUS
 10
188.7422332699
 20
137.6077975389
 11
187.3105361958
 21
138.8794348881
  0
LINE
  5
26D
100
AcDbEntity
  8
BEZUGSACHSEN
100
AcDbLine
 62
7
  6
CONTINUOUS
 10
189.5700343658
 20
140.2699177723
 11
189.8563739945
 21
140.0155901125
  0
LINE
  5
26E
100
AcDbEntity
  8
BEZUGSACHSEN
100
AcDbLine
 62
7
  6
CONTINUOUS
 10
189.9748710486
 20
140.7257108446
 11
190.3566571311
 21
140.3866073773
  0
LINE
  5
26F
100
AcDbEntity
  8
BEZUGSACHSEN
100
AcDbLine
 62
7
  6
CONTINUOUS
 10
192.7990043066
 20
139.9014422362
 11
193.2780919574
 21
139.4675960953
  0
LINE
  5
270
100
AcDbEntity
  8
0
100
AcDbLine
 62
7
  6
CONTINUOUS
 10
117.6076605422
 20
504.0770936096
 11
117.6076605422
 21
344.0770936096
  0
LINE
  5
271
100
AcDbEntity
  8
BEZUGSACHSEN
100
AcDbLine
 62
7
  6
CONTINUOUS
 10
225.542903915
 20
148.8663028314
 11
225.9662105761
 21
148.5577724044
  0
LINE
  5
272
100
AcDbEntity
  8
BEZUGSACHSEN
100
AcDbLine
 62
7
  6
CONTINUOUS
 10
235.4935397637
 20
133.0664087168
 11
235.8261763821
 21
132.8002847836
  0
LINE
  5
273
100
AcDbEntity
  8
BEZUGSACHSEN
100
AcDbLine
 62
7
  6
CONTINUOUS
 10
235.9666627978
 20
133.5067515441
 11
236.3559683172
 21
133.1562969773
  0
LINE
  5
274
100
AcDbEntity
  8
BEZUGSACHSEN
100
AcDbLine
 62
7
  6
CONTINUOUS
 10
239.2144653031
 20
136.9133610885
 11
239.6037734166
 21
136.5629026613
  0
LINE
  5
275
100
AcDbEntity
  8
BEZUGSACHSEN
100
AcDbLine
 62
7
  6
CONTINUOUS
 10
225.3982085238
 20
148.2363736186
 11
225.6330798195
 21
148.0039032901
  0
LINE
  5
276
100
AcDbEntity
  8
BEZUGSACHSEN
100
AcDbLine
 62
7
  6
CONTINUOUS
 10
226.3669109183
 20
141.9195745013
 11
226.730767692
 21
141.5427586742
  0
LINE
  5
277
100
AcDbEntity
  8
BEZUGSACHSEN
100
AcDbLine
 62
7
  6
CONTINUOUS
 10
198.3696007813
 20
146.6065416978
 11
198.7059132266
 21
146.2090890533
  0
LINE
  5
278
100
AcDbEntity
  8
BEZUGSACHSEN
100
AcDbLine
 62
7
  6
CONTINUOUS
 10
192.7990043066
 20
139.9014422362
 11
190.3196514625
 21
142.9859511483
  0
LINE
  5
279
100
AcDbEntity
  8
BEZUGSACHSEN
100
AcDbLine
 62
7
  6
CONTINUOUS
 10
193.2741561368
 20
140.2833730639
 11
190.7948032927
 21
143.367881976
  0
LINE
  5
27A
100
AcDbEntity
  8
BEZUGSACHSEN
100
AcDbLine
 62
7
  6
CONTINUOUS
 10
192.6954097075
 20
144.8956045582
 11
195.1747625516
 21
141.8110956461
  0
LINE
  5
27B
100
AcDbEntity
  8
BEZUGSACHSEN
100
AcDbLine
 62
7
  6
CONTINUOUS
 10
193.1705613112
 20
145.2775352037
 11
195.6499141553
 21
142.1930262917
  0
LINE
  5
27C
100
AcDbEntity
  8
BEZUGSACHSEN
100
AcDbLine
 62
7
  6
CONTINUOUS
 10
198.8410152584
 20
147.013611114
 11
199.2391863592
 21
146.504486803
  0
LINE
  5
27D
100
AcDbEntity
  8
BEZUGSACHSEN
100
AcDbLine
 62
7
  6
CONTINUOUS
 10
190.0752406397
 20
139.6852972505
 11
189.8563739945
 21
140.0155901125
  0
LINE
  5
27E
100
AcDbEntity
  8
BEZUGSACHSEN
100
AcDbLine
 62
7
  6
CONTINUOUS
 10
190.5755237763
 20
140.0563145154
 11
190.3566571311
 21
140.3866073773
  0
LINE
  5
27F
100
AcDbEntity
  8
BEZUGSACHSEN
100
AcDbLine
 62
7
  6
CONTINUOUS
 10
239.687588263
 20
137.3537038659
 11
240.190234197
 21
136.8345841842
  0
LINE
  5
280
100
AcDbEntity
  8
BEZUGSACHSEN
100
AcDbLine
 62
7
  6
CONTINUOUS
 10
230.6774590994
 20
146.1535955917
 11
231.0413119303
 21
145.7767822317
  0
LINE
  5
281
100
AcDbEntity
  8
BEZUGSACHSEN
100
AcDbLine
 62
7
  6
CONTINUOUS
 10
233.2972038868
 20
135.988123793
 11
233.694933251
 21
135.5261157656
  0
LINE
  5
282
100
AcDbEntity
  8
BEZUGSACHSEN
100
AcDbLine
 62
7
  6
CONTINUOUS
 10
237.8443562702
 20
139.9026359212
 11
238.2420856344
 21
139.4406278938
  0
LINE
  5
283
100
AcDbEntity
  8
BEZUGSACHSEN
100
AcDbLine
 62
7
  6
CONTINUOUS
 10
226.8578950273
 20
142.5161886271
 11
227.1354912469
 21
142.1930583371
  0
LINE
  5
284
100
AcDbEntity
  8
BEZUGSACHSEN
100
AcDbLine
 62
7
  6
CONTINUOUS
 10
230.2727355918
 20
145.5032960047
 11
230.5503278626
 21
145.1801681723
  0
LINE
  5
285
100
AcDbEntity
  8
BEZUGSACHSEN
100
AcDbLine
 62
7
  6
CONTINUOUS
 10
235.0401806993
 20
133.7410653162
 11
235.4935397637
 21
133.0664087168
  0
LINE
  5
286
100
AcDbEntity
  8
BEZUGSACHSEN
100
AcDbLine
 62
7
  6
CONTINUOUS
 10
235.626644148
 20
134.0127430285
 11
235.9666627978
 21
133.5067515441
  0
LINE
  5
287
100
AcDbEntity
  8
BEZUGSACHSEN
100
AcDbLine
 62
7
  6
CONTINUOUS
 10
235.412347842
 20
135.7049363696
 11
235.6956949874
 21
135.2832793729
  0
LINE
  5
288
100
AcDbEntity
  8
BEZUGSACHSEN
100
AcDbLine
 62
7
  6
CONTINUOUS
 10
237.4846056393
 20
135.1388538613
 11
237.7112838744
 21
134.8015274918
  0
LINE
  5
289
100
AcDbEntity
  8
BEZUGSACHSEN
100
AcDbLine
 62
7
  6
CONTINUOUS
 10
195.9706176361
 20
141.6318696927
 11
195.6499141553
 21
142.1930262917
  0
LINE
  5
28A
100
AcDbEntity
  8
BEZUGSACHSEN
100
AcDbLine
 62
7
  6
CONTINUOUS
 10
197.6016456028
 20
141.0733563811
 11
194.6942965918
 21
146.3219106323
  0
LINE
  5
28B
100
AcDbEntity
  8
BEZUGSACHSEN
100
AcDbLine
 62
7
  6
CONTINUOUS
 10
197.7637677988
 20
142.0387823314
 11
195.5987206178
 21
145.9472802596
  0
LINE
  5
28C
100
AcDbEntity
  8
BEZUGSACHSEN
100
AcDbLine
 62
7
  6
CONTINUOUS
 10
198.7059132266
 20
146.2090890533
 11
199.6337905465
 21
144.5340185909
  0
LINE
  5
28D
100
AcDbEntity
  8
BEZUGSACHSEN
100
AcDbLine
 62
7
  6
CONTINUOUS
 10
199.2391863592
 20
146.504486803
 11
200.1670636792
 21
144.8294163405
  0
LINE
  5
28E
100
AcDbEntity
  8
BEZUGSACHSEN
100
AcDbLine
 62
7
  6
CONTINUOUS
 10
195.4154869193
 20
141.3494393211
 11
195.1747625516
 21
141.8110956461
  0
LINE
  5
28F
100
AcDbEntity
  8
KONSTRUKTIONSELEMENTE
100
AcDbLine
 62
7
  6
CONTINUOUS
 10
161.2456798592
 20
32.9028016428
 11
161.2456798592
 21
36.4383355487
  0
LINE
  5
290
100
AcDbEntity
  8
0
100
AcDbLine
 62
7
  6
CONTINUOUS
 10
250.1076605422
 20
130.3615822183
 11
235.7839351203
 21
150.0764989228
  0
LINE
  5
291
100
AcDbEntity
  8
BEZUGSACHSEN
100
AcDbLine
 62
7
  6
CONTINUOUS
 10
237.9084391354
 20
135.4236635814
 11
238.1351173705
 21
135.0863372119
  0
LINE
  5
292
100
AcDbEntity
  8
BEZUGSACHSEN
100
AcDbLine
 62
7
  6
CONTINUOUS
 10
238.1179765481
 20
137.4006667923
 11
238.4013262876
 21
136.9790059351
  0
LINE
  5
293
100
AcDbEntity
  8
BEZUGSACHSEN
100
AcDbLine
 62
7
  6
CONTINUOUS
 10
239.6037734166
 20
136.5629026613
 11
239.8304516518
 21
136.2255762919
  0
LINE
  5
294
100
AcDbEntity
  8
BEZUGSACHSEN
100
AcDbLine
 62
7
  6
CONTINUOUS
 10
240.190234197
 20
136.8345841842
 11
240.3035746116
 21
136.6659190693
  0
LINE
  5
295
100
AcDbEntity
  8
BEZUGSACHSEN
100
AcDbLine
 62
7
  6
CONTINUOUS
 10
226.1567706088
 20
142.3510868554
 11
226.3669109183
 21
141.9195745013
  0
LINE
  5
296
100
AcDbEntity
  8
BEZUGSACHSEN
100
AcDbLine
 62
7
  6
CONTINUOUS
 10
231.0413119303
 20
145.7767822317
 11
231.2514542319
 21
145.3452686772
  0
LINE
  5
297
100
AcDbEntity
  8
BEZUGSACHSEN
100
AcDbLine
 62
7
  6
CONTINUOUS
 10
225.9662105761
 20
148.5577724044
 11
226.1997349718
 21
148.0505121002
  0
LINE
  5
298
100
AcDbEntity
  8
BEZUGSACHSEN
100
AcDbLine
 62
7
  6
CONTINUOUS
 10
200.3874775739
 20
144.2218268014
 11
200.1670636792
 21
144.8294163405
  0
LINE
  5
299
100
AcDbEntity
  8
BEZUGSACHSEN
100
AcDbLine
 62
7
  6
CONTINUOUS
 10
199.792345959
 20
144.0381004055
 11
199.6337905465
 21
144.5340185909
  0
LINE
  5
29A
100
AcDbEntity
  8
BEZUGSACHSEN
100
AcDbLine
 62
7
  6
CONTINUOUS
 10
190.75489125
 20
139.4893147494
 11
190.5755237763
 21
140.0563145154
  0
LINE
  5
29B
100
AcDbEntity
  8
BEZUGSACHSEN
100
AcDbLine
 62
7
  6
CONTINUOUS
 10
196.1321504279
 20
141.1065584332
 11
195.9706176361
 21
141.6318696927
  0
LINE
  5
29C
100
AcDbEntity
  8
BEZUGSACHSEN
100
AcDbLine
 62
7
  6
CONTINUOUS
 10
195.4970405419
 20
140.9236284054
 11
195.4154869193
 21
141.3494393211
  0
LINE
  5
29D
100
AcDbEntity
  8
BEZUGSACHSEN
100
AcDbLine
 62
7
  6
CONTINUOUS
 10
190.131187922
 20
139.3638145391
 11
190.0752406397
 21
139.6852972505
  0
LINE
  5
29E
100
AcDbEntity
  8
RUNDUNGEN
100
AcDbLine
 62
7
  6
CONTINUOUS
 10
179.0344623677
 20
78.0519581859
 11
175.1076605422
 21
105.9926050009
  0
LINE
  5
29F
100
AcDbEntity
  8
KONSTRUKTIONSELEMENTE
100
AcDbLine
 62
7
  6
CONTINUOUS
 10
169.8855653452
 20
19.5476723791
 11
169.8855653452
 21
22.1639674695
  0
LINE
  5
2A0
100
AcDbEntity
  8
KONSTRUKTIONSELEMENTE
100
AcDbLine
 62
7
  6
CONTINUOUS
 10
170.3429670306
 20
18.0887656574
 11
170.3429670306
 21
18.5483850652
  0
LINE
  5
2A1
100
AcDbEntity
  8
0
100
AcDbLine
 62
7
  6
CONTINUOUS
 10
175.1076605422
 20
130.3615822183
 11
175.1076605422
 21
105.9926050009
  0
LINE
  5
2A2
100
AcDbEntity
  8
RUNDUNGEN
100
AcDbLine
 62
7
  6
CONTINUOUS
 10
180.6076605422
 20
60.4050340781
 11
180.6076605422
 21
92.2507023956
  0
LINE
  5
2A3
100
AcDbEntity
  8
BEZUGSACHSEN
100
AcDbLine
 62
7
  6
CONTINUOUS
 10
240.3035746116
 20
136.6659190693
 11
240.5943037976
 21
136.0043945275
  0
LINE
  5
2A4
100
AcDbEntity
  8
BEZUGSACHSEN
100
AcDbLine
 62
7
  6
CONTINUOUS
 10
237.7112838744
 20
134.8015274918
 11
237.9453441502
 21
134.2243335774
  0
LINE
  5
2A5
100
AcDbEntity
  8
BEZUGSACHSEN
100
AcDbLine
 62
7
  6
CONTINUOUS
 10
235.4492527825
 20
134.5056063157
 11
235.626644148
 21
134.0127430285
  0
LINE
  5
2A6
100
AcDbEntity
  8
BEZUGSACHSEN
100
AcDbLine
 62
7
  6
CONTINUOUS
 10
239.8304516518
 20
136.2255762919
 11
240.0078430172
 21
135.7327130047
  0
LINE
  5
2A7
100
AcDbEntity
  8
BEZUGSACHSEN
100
AcDbLine
 62
7
  6
CONTINUOUS
 10
226.7340172816
 20
142.8940142723
 11
226.8578950273
 21
142.5161886271
  0
LINE
  5
2A8
100
AcDbEntity
  8
BEZUGSACHSEN
100
AcDbLine
 62
7
  6
CONTINUOUS
 10
230.5503278626
 20
145.1801681723
 11
230.6742056555
 21
144.802342603
  0
LINE
  5
2A9
100
AcDbEntity
  8
BEZUGSACHSEN
100
AcDbLine
 62
7
  6
CONTINUOUS
 10
225.6330798195
 20
148.0039032901
 11
225.7259495239
 21
147.6910837003
  0
LINE
  5
2AA
100
AcDbEntity
  8
BEZUGSACHSEN
100
AcDbLine
 62
7
  6
CONTINUOUS
 10
234.9194608475
 20
134.1495941219
 11
235.0401806993
 21
133.7410653162
  0
LINE
  5
2AB
100
AcDbEntity
  8
BEZUGSACHSEN
100
AcDbLine
 62
7
  6
CONTINUOUS
 10
200.4571534962
 20
143.6766752039
 11
200.3874775739
 21
144.2218268014
  0
LINE
  5
2AC
100
AcDbEntity
  8
BEZUGSACHSEN
100
AcDbLine
 62
7
  6
CONTINUOUS
 10
199.8001633558
 20
143.6046202399
 11
199.792345959
 21
144.0381004055
  0
LINE
  5
2AD
100
AcDbEntity
  8
BEZUGSACHSEN
100
AcDbLine
 62
7
  6
CONTINUOUS
 10
196.1352990217
 20
140.4539367506
 11
196.1321504279
 21
141.1065584332
  0
LINE
  5
2AE
100
AcDbEntity
  8
KONSTRUKTIONSELEMENTE
100
AcDbLine
 62
7
  6
CONTINUOUS
 10
194.0383336831
 20
75.4976016853
 11
194.0383336831
 21
67.7074686096
  0
LINE
  5
2AF
100
AcDbEntity
  8
0
100
AcDbLine
 62
7
  6
CONTINUOUS
 10
201.6076605422
 20
260.0770936096
 11
201.6076605422
 21
123.0770936096
  0
LINE
  5
2B0
100
AcDbEntity
  8
KONSTRUKTIONSELEMENTE
100
AcDbLine
 62
7
  6
CONTINUOUS
 10
204.0926605422
 20
-24.3820103911
 11
204.0926605422
 21
-37.7814342727
  0
LINE
  5
2B1
100
AcDbEntity
  8
0
100
AcDbLine
 62
7
  6
CONTINUOUS
 10
205.5076605422
 20
53.1538275964
 11
205.5076605422
 21
67.7074686096
  0
LINE
  5
2B2
100
AcDbEntity
  8
KONSTRUKTIONSELEMENTE
100
AcDbLine
 62
7
  6
CONTINUOUS
 10
205.5076605422
 20
67.7074686096
 11
205.5076605422
 21
85.5770936096
  0
LINE
  5
2B3
100
AcDbEntity
  8
KONSTRUKTIONSELEMENTE
100
AcDbLine
 62
7
  6
CONTINUOUS
 10
206.6926605422
 20
-39.6199119038
 11
206.6926605422
 21
-24.9120908551
  0
LINE
  5
2B4
100
AcDbEntity
  8
KONSTRUKTIONSELEMENTE
100
AcDbLine
 62
7
  6
CONTINUOUS
 10
209.1076605422
 20
103.9227646771
 11
209.1076605422
 21
102.5793521762
  0
LINE
  5
2B5
100
AcDbEntity
  8
KONSTRUKTIONSELEMENTE
100
AcDbLine
 62
7
  6
CONTINUOUS
 10
210.1076605422
 20
112.3675185339
 11
210.1076605422
 21
102.9457354501
  0
LINE
  5
2B6
100
AcDbEntity
  8
KONSTRUKTIONSELEMENTE
100
AcDbLine
 62
7
  6
CONTINUOUS
 10
210.1076605422
 20
60.3770936096
 11
210.1076605422
 21
45.3165327834
  0
LINE
  5
2B7
100
AcDbEntity
  8
KONSTRUKTIONSELEMENTE
100
AcDbLine
 62
7
  6
CONTINUOUS
 10
210.3576605422
 20
92.3041809345
 11
210.3576605422
 21
75.9770936096
  0
LINE
  5
2B8
100
AcDbEntity
  8
KONSTRUKTIONSELEMENTE
100
AcDbLine
 62
7
  6
CONTINUOUS
 10
214.8576605422
 20
92.3041809345
 11
214.8576605422
 21
75.9770936096
  0
LINE
  5
2B9
100
AcDbEntity
  8
KONSTRUKTIONSELEMENTE
100
AcDbLine
 62
7
  6
CONTINUOUS
 10
215.1076605422
 20
112.3675185339
 11
215.1076605422
 21
102.9457354501
  0
LINE
  5
2BA
100
AcDbEntity
  8
KONSTRUKTIONSELEMENTE
100
AcDbLine
 62
7
  6
CONTINUOUS
 10
215.1076605422
 20
60.3770936096
 11
215.1076605422
 21
45.3165327834
  0
LINE
  5
2BB
100
AcDbEntity
  8
BEZUGSACHSEN
100
AcDbLine
 62
7
  6
CONTINUOUS
 10
226.1997349718
 20
148.0505121002
 11
226.2912577762
 21
147.4629025347
  0
LINE
  5
2BC
100
AcDbEntity
  8
BEZUGSACHSEN
100
AcDbLine
 62
7
  6
CONTINUOUS
 10
226.0815401154
 20
142.9993645193
 11
226.1567706088
 21
142.3510868554
  0
LINE
  5
2BD
100
AcDbEntity
  8
BEZUGSACHSEN
100
AcDbLine
 62
7
  6
CONTINUOUS
 10
231.2514542319
 20
145.3452686772
 11
231.3266847489
 21
144.6969910513
  0
LINE
  5
2BE
100
AcDbEntity
  8
BEZUGSACHSEN
100
AcDbLine
 62
7
  6
CONTINUOUS
 10
234.9046993882
 20
134.6293253702
 11
234.9194608475
 21
134.1495941219
  0
LINE
  5
2BF
100
AcDbEntity
  8
BEZUGSACHSEN
100
AcDbLine
 62
7
  6
CONTINUOUS
 10
235.4418707419
 20
134.7454738607
 11
235.4492527825
 21
134.5056063157
  0
LINE
  5
2C0
100
AcDbEntity
  8
BEZUGSACHSEN
100
AcDbLine
 62
7
  6
CONTINUOUS
 10
240.5943037976
 20
136.0043945275
 11
240.6090678788
 21
135.5246594376
  0
LINE
  5
2C1
100
AcDbEntity
  8
KONSTRUKTIONSELEMENTE
100
AcDbLine
 62
7
  6
CONTINUOUS
 10
216.1076605422
 20
102.5793521762
 11
216.1076605422
 21
103.9227646771
  0
LINE
  5
2C2
100
AcDbEntity
  8
KONSTRUKTIONSELEMENTE
100
AcDbLine
 62
7
  6
CONTINUOUS
 10
218.5226605422
 20
-39.6199119038
 11
218.5226605422
 21
-24.9120908551
  0
LINE
  5
2C3
100
AcDbEntity
  8
0
100
AcDbLine
 62
7
  6
CONTINUOUS
 10
219.7076605422
 20
67.7074686096
 11
219.7076605422
 21
53.1538275964
  0
LINE
  5
2C4
100
AcDbEntity
  8
KONSTRUKTIONSELEMENTE
100
AcDbLine
 62
7
  6
CONTINUOUS
 10
219.7076605422
 20
67.7074686096
 11
219.7076605422
 21
85.5770936096
  0
LINE
  5
2C5
100
AcDbEntity
  8
KONSTRUKTIONSELEMENTE
100
AcDbLine
 62
7
  6
CONTINUOUS
 10
221.1226605422
 20
-37.7814342727
 11
221.1226605422
 21
-24.4524714474
  0
LINE
  5
2C6
100
AcDbEntity
  8
0
100
AcDbLine
 62
7
  6
CONTINUOUS
 10
223.6076605422
 20
260.0770936096
 11
223.6076605422
 21
123.0770936096
  0
LINE
  5
2C7
100
AcDbEntity
  8
KONSTRUKTIONSELEMENTE
100
AcDbLine
 62
7
  6
CONTINUOUS
 10
231.1769874013
 20
75.4976016853
 11
231.1769874013
 21
67.7074686096
  0
LINE
  5
2C8
100
AcDbEntity
  8
BEZUGSACHSEN
100
AcDbLine
 62
7
  6
CONTINUOUS
 10
226.7638559411
 20
143.3265363497
 11
226.7340172816
 21
142.8940142723
  0
LINE
  5
2C9
100
AcDbEntity
  8
BEZUGSACHSEN
100
AcDbLine
 62
7
  6
CONTINUOUS
 10
224.8672053423
 20
145.8350379225
 11
224.6161624871
 21
142.770031692
  0
LINE
  5
2CA
100
AcDbEntity
  8
BEZUGSACHSEN
100
AcDbLine
 62
7
  6
CONTINUOUS
 10
224.2063314292
 20
145.8264595968
 11
223.9566376304
 21
143.0362424717
  0
LINE
  5
2CB
100
AcDbEntity
  8
BEZUGSACHSEN
100
AcDbLine
 62
7
  6
CONTINUOUS
 10
190.6758931001
 20
139.0159011588
 11
190.75489125
 21
139.4893147494
  0
LINE
  5
2CC
100
AcDbEntity
  8
BEZUGSACHSEN
100
AcDbLine
 62
7
  6
CONTINUOUS
 10
200.349072364
 20
143.0330581045
 11
200.4571534962
 21
143.6766752039
  0
LINE
  5
2CD
100
AcDbEntity
  8
BEZUGSACHSEN
100
AcDbLine
 62
7
  6
CONTINUOUS
 10
195.4194230224
 20
140.5336624649
 11
195.4970405419
 21
140.9236284054
  0
LINE
  5
2CE
100
AcDbEntity
  8
BEZUGSACHSEN
100
AcDbLine
 62
7
  6
CONTINUOUS
 10
238.3765596869
 20
134.2692757525
 11
238.4479926783
 21
133.7052100353
  0
LINE
  5
2CF
100
AcDbEntity
  8
RUNDUNGEN
100
AcDbLine
 62
7
  6
CONTINUOUS
 10
244.6076605422
 20
92.2507023956
 11
244.6076605422
 21
60.4050340781
  0
LINE
  5
2D0
100
AcDbEntity
  8
KONSTRUKTIONSELEMENTE
100
AcDbLine
 62
7
  6
CONTINUOUS
 10
248.1879740661
 20
-14.5112203249
 11
248.1879740661
 21
-18.0467542309
  0
LINE
  5
2D1
100
AcDbEntity
  8
0
100
AcDbLine
 62
7
  6
CONTINUOUS
 10
250.1076605422
 20
105.9926050009
 11
250.1076605422
 21
130.3615822183
  0
LINE
  5
2D2
100
AcDbEntity
  8
BEZUGSACHSEN
100
AcDbLine
 62
7
  6
CONTINUOUS
 10
234.9466068485
 20
135.0247259974
 11
234.9046993882
 21
134.6293253702
  0
LINE
  5
2D3
100
AcDbEntity
  8
BEZUGSACHSEN
100
AcDbLine
 62
7
  6
CONTINUOUS
 10
237.9453441502
 20
134.2243335774
 11
237.903436727
 21
133.8289329751
  0
LINE
  5
2D4
100
AcDbEntity
  8
BEZUGSACHSEN
100
AcDbLine
 62
7
  6
CONTINUOUS
 10
240.0078430172
 20
135.7327130047
 11
239.9659355941
 21
135.3373124024
  0
LINE
  5
2D5
100
AcDbEntity
  8
BEZUGSACHSEN
100
AcDbLine
 62
7
  6
CONTINUOUS
 10
225.7259495239
 20
147.6910837003
 11
225.6768197935
 21
147.2979139789
  0
LINE
  5
2D6
100
AcDbEntity
  8
BEZUGSACHSEN
100
AcDbLine
 62
7
  6
CONTINUOUS
 10
226.2912577762
 20
147.4629025347
 11
226.2421280458
 21
147.0697328132
  0
LINE
  5
2D7
100
AcDbEntity
  8
BEZUGSACHSEN
100
AcDbLine
 62
7
  6
CONTINUOUS
 10
226.1788307656
 20
143.5402711659
 11
226.0815401154
 21
142.9993645193
  0
LINE
  5
2D8
100
AcDbEntity
  8
BEZUGSACHSEN
100
AcDbLine
 62
7
  6
CONTINUOUS
 10
190.0242160344
 20
139.0511421955
 11
190.131187922
 21
139.3638145391
  0
LINE
  5
2D9
100
AcDbEntity
  8
BEZUGSACHSEN
100
AcDbLine
 62
7
  6
CONTINUOUS
 10
195.9784893822
 20
140.0003156247
 11
196.1352990217
 21
140.4539367506
  0
LINE
  5
2DA
100
AcDbEntity
  8
BEZUGSACHSEN
100
AcDbLine
 62
7
  6
CONTINUOUS
 10
199.6572437972
 20
143.2335785794
 11
199.8001633558
 21
143.6046202399
  0
LINE
  5
2DB
100
AcDbEntity
  8
KONSTRUKTIONSELEMENTE
100
AcDbLine
 62
7
  6
CONTINUOUS
 10
278.1080427029
 20
31.7764902245
 11
278.1080427029
 21
28.2409563186
  0
LINE
  5
2DC
100
AcDbEntity
  8
RUNDUNGEN
100
AcDbLine
 62
7
  6
CONTINUOUS
 10
246.1808587167
 20
78.0519581859
 11
250.1076605422
 21
105.9926050009
  0
LINE
  5
2DD
100
AcDbEntity
  8
BEZUGSACHSEN
100
AcDbLine
 62
7
  6
CONTINUOUS
 10
230.6742056555
 20
144.802342603
 11
230.5581042727
 21
144.4235069783
  0
LINE
  5
2DE
100
AcDbEntity
  8
BEZUGSACHSEN
100
AcDbLine
 62
7
  6
CONTINUOUS
 10
235.5404497437
 20
135.0565400251
 11
235.4418707419
 21
134.7454738607
  0
LINE
  5
2DF
100
AcDbEntity
  8
BEZUGSACHSEN
100
AcDbLine
 62
7
  6
CONTINUOUS
 10
226.9474110529
 20
143.8137549353
 11
226.7638559411
 21
143.3265363497
  0
LINE
  5
2E0
100
AcDbEntity
  8
BEZUGSACHSEN
100
AcDbLine
 62
7
  6
CONTINUOUS
 10
225.6768197935
 20
147.2979139789
 11
225.5334711684
 21
146.9427744103
  0
LINE
  5
2E1
100
AcDbEntity
  8
BEZUGSACHSEN
100
AcDbLine
 62
7
  6
CONTINUOUS
 10
226.2421280458
 20
147.0697328132
 11
226.0509965903
 21
146.5962134989
  0
LINE
  5
2E2
100
AcDbEntity
  8
BEZUGSACHSEN
100
AcDbLine
 62
7
  6
CONTINUOUS
 10
226.4298397953
 20
144.135873016
 11
226.1788307656
 21
143.5402711659
  0
LINE
  5
2E3
100
AcDbEntity
  8
BEZUGSACHSEN
100
AcDbLine
 62
7
  6
CONTINUOUS
 10
200.117274262
 20
142.6127837224
 11
200.349072364
 21
143.0330581045
  0
LINE
  5
2E4
100
AcDbEntity
  8
BEZUGSACHSEN
100
AcDbLine
 62
7
  6
CONTINUOUS
 10
195.1826342487
 20
140.1795416391
 11
195.4194230224
 21
140.5336624649
  0
LINE
  5
2E5
100
AcDbEntity
  8
0
100
AcDbLine
 62
7
  6
CONTINUOUS
 10
189.4313859641
 20
150.0764989228
 11
175.1076605422
 21
130.3615822183
  0
LINE
  5
2E6
100
AcDbEntity
  8
0
100
AcDbLine
 62
7
  6
CONTINUOUS
 10
307.6076605422
 20
344.0770936096
 11
307.6076605422
 21
504.0770936096
  0
LINE
  5
2E7
100
AcDbEntity
  8
BEZUGSACHSEN
100
AcDbLine
 62
7
  6
CONTINUOUS
 10
240.6090678788
 20
135.5246594376
 11
240.4119126178
 21
134.902523348
  0
LINE
  5
2E8
100
AcDbEntity
  8
BEZUGSACHSEN
100
AcDbLine
 62
7
  6
CONTINUOUS
 10
231.3266847489
 20
144.6969910513
 11
231.0756755302
 21
144.1013888977
  0
LINE
  5
2E9
100
AcDbEntity
  8
BEZUGSACHSEN
100
AcDbLine
 62
7
  6
CONTINUOUS
 10
235.151141556
 20
135.4069984024
 11
234.9466068485
 21
135.0247259974
  0
LINE
  5
2EA
100
AcDbEntity
  8
BEZUGSACHSEN
100
AcDbLine
 62
7
  6
CONTINUOUS
 10
226.4298397953
 20
144.135873016
 11
227.4416486589
 21
145.7616221352
  0
LINE
  5
2EB
100
AcDbEntity
  8
BEZUGSACHSEN
100
AcDbLine
 62
7
  6
CONTINUOUS
 10
226.9474110529
 20
143.8137549353
 11
227.9592199165
 21
145.4395040545
  0
LINE
  5
2EC
100
AcDbEntity
  8
BEZUGSACHSEN
100
AcDbLine
 62
7
  6
CONTINUOUS
 10
229.174662125
 20
143.9312347189
 11
228.7699386173
 21
143.2809351319
  0
LINE
  5
2ED
100
AcDbEntity
  8
BEZUGSACHSEN
100
AcDbLine
 62
7
  6
CONTINUOUS
 10
229.5462955036
 20
142.7977580109
 11
229.0066640656
 21
141.9306917432
  0
LINE
  5
2EE
100
AcDbEntity
  8
BEZUGSACHSEN
100
AcDbLine
 62
7
  6
CONTINUOUS
 10
230.4685902688
 20
143.1259395172
 11
229.4567814052
 21
141.500190398
  0
LINE
  5
2EF
100
AcDbEntity
  8
BEZUGSACHSEN
100
AcDbLine
 62
7
  6
CONTINUOUS
 10
195.6625089837
 20
139.5825399255
 11
195.9784893822
 21
140.0003156247
  0
LINE
  5
2F0
100
AcDbEntity
  8
BEZUGSACHSEN
100
AcDbLine
 62
7
  6
CONTINUOUS
 10
186.4284672441
 20
138.8475208531
 11
188.0478139752
 21
140.6706931423
  0
LINE
  5
2F1
100
AcDbEntity
  8
BEZUGSACHSEN
100
AcDbLine
 62
7
  6
CONTINUOUS
 10
187.3105361958
 20
138.8794348881
 11
188.5925189603
 21
140.3227795447
  0
LINE
  5
2F2
100
AcDbEntity
  8
BEZUGSACHSEN
100
AcDbLine
 62
7
  6
CONTINUOUS
 10
188.7422332699
 20
137.6077975389
 11
190.0242160344
 21
139.0511421955
  0
LINE
  5
2F3
100
AcDbEntity
  8
BEZUGSACHSEN
100
AcDbLine
 62
7
  6
CONTINUOUS
 10
189.3149119926
 20
137.0991426943
 11
190.4619492283
 21
138.3905563629
  0
LINE
  5
2F4
100
AcDbEntity
  8
BEZUGSACHSEN
100
AcDbLine
 62
7
  6
CONTINUOUS
 10
190.9144511066
 20
134.8630574281
 11
191.3192877894
 21
135.3188505004
  0
LINE
  5
2F5
100
AcDbEntity
  8
BEZUGSACHSEN
100
AcDbLine
 62
7
  6
CONTINUOUS
 10
193.0061072367
 20
137.2179882292
 11
193.4784168287
 21
137.7497469585
  0
LINE
  5
2F6
100
AcDbEntity
  8
BEZUGSACHSEN
100
AcDbLine
 62
7
  6
CONTINUOUS
 10
199.3635871967
 20
142.9249755804
 11
199.6572437972
 21
143.2335785794
  0
LINE
  5
2F7
100
AcDbEntity
  8
BEZUGSACHSEN
100
AcDbLine
 62
7
  6
CONTINUOUS
 10
238.4479926783
 20
133.7052100353
 11
238.2434553767
 21
133.3229414906
  0
LINE
  5
2F8
100
AcDbEntity
  8
BEZUGSACHSEN
100
AcDbLine
 62
7
  6
CONTINUOUS
 10
239.9659355941
 20
135.3373124024
 11
239.7614008866
 21
134.9550399973
  0
LINE
  5
2F9
100
AcDbEntity
  8
BEZUGSACHSEN
100
AcDbLine
 62
7
  6
CONTINUOUS
 10
235.6956949874
 20
135.2832793729
 11
235.5404497437
 21
135.0565400251
  0
LINE
  5
2FA
100
AcDbEntity
  8
BEZUGSACHSEN
100
AcDbLine
 62
7
  6
CONTINUOUS
 10
237.903436727
 20
133.8289329751
 11
237.5929434971
 21
133.3754580403
  0
LINE
  5
2FB
100
AcDbEntity
  8
BEZUGSACHSEN
100
AcDbLine
 62
7
  6
CONTINUOUS
 10
225.2959039162
 20
146.6256656577
 11
225.5334711684
 21
146.9427744103
  0
LINE
  5
2FC
100
AcDbEntity
  8
BEZUGSACHSEN
100
AcDbLine
 62
7
  6
CONTINUOUS
 10
225.8134293381
 20
146.2791047464
 11
226.0509965903
 21
146.5962134989
  0
LINE
  5
2FD
100
AcDbEntity
  8
BEZUGSACHSEN
100
AcDbLine
 62
7
  6
CONTINUOUS
 10
227.4416486589
 20
145.7616221352
 11
227.8651789976
 21
146.2498532337
  0
LINE
  5
2FE
100
AcDbEntity
  8
BEZUGSACHSEN
100
AcDbLine
 62
7
  6
CONTINUOUS
 10
235.412347842
 20
135.7049363696
 11
235.151141556
 21
135.4069984024
  0
LINE
  5
2FF
100
AcDbEntity
  8
BEZUGSACHSEN
100
AcDbLine
 62
7
  6
CONTINUOUS
 10
227.9592199165
 20
145.4395040545
 11
228.3152961482
 21
145.8193515849
  0
LINE
  5
300
100
AcDbEntity
  8
BEZUGSACHSEN
100
AcDbLine
 62
7
  6
CONTINUOUS
 10
229.1007051262
 20
141.1203427917
 11
229.4567814052
 21
141.500190398
  0
LINE
  5
301
100
AcDbEntity
  8
BEZUGSACHSEN
100
AcDbLine
 62
7
  6
CONTINUOUS
 10
199.7347381334
 20
142.2549473797
 11
200.117274262
 21
142.6127837224
  0
LINE
  5
302
100
AcDbEntity
  8
BEZUGSACHSEN
100
AcDbLine
 62
7
  6
CONTINUOUS
 10
190.3196514625
 20
142.9859511483
 11
190.7948032927
 21
143.367881976
  0
LINE
  5
303
100
AcDbEntity
  8
BEZUGSACHSEN
100
AcDbLine
 62
7
  6
CONTINUOUS
 10
192.6954097075
 20
144.8956045582
 11
193.1705613112
 21
145.2775352037
  0
LINE
  5
304
100
AcDbEntity
  8
BEZUGSACHSEN
100
AcDbLine
 62
7
  6
CONTINUOUS
 10
194.8658663619
 20
139.9249210873
 11
195.1826342487
 21
140.1795416391
  0
LINE
  5
305
100
AcDbEntity
  8
BEZUGSACHSEN
100
AcDbLine
 62
7
  6
CONTINUOUS
 10
195.3457410969
 20
139.3279193737
 11
195.6625089837
 21
139.5825399255
  0
LINE
  5
306
100
AcDbEntity
  8
BEZUGSACHSEN
100
AcDbLine
 62
7
  6
CONTINUOUS
 10
188.0478139752
 20
140.6706931423
 11
188.4806243957
 21
140.9657449676
  0
LINE
  5
307
100
AcDbEntity
  8
BEZUGSACHSEN
100
AcDbLine
 62
7
  6
CONTINUOUS
 10
194.6942965918
 20
146.3219106323
 11
196.8273891224
 21
147.503501631
  0
LINE
  5
308
100
AcDbEntity
  8
0
100
AcDbLine
 62
7
  6
CONTINUOUS
 10
339.6076605422
 20
344.0770936096
 11
339.6076605422
 21
504.0770936096
  0
LINE
  5
309
100
AcDbEntity
  8
BEZUGSACHSEN
100
AcDbLine
 62
7
  6
CONTINUOUS
 10
238.2434553767
 20
133.3229414906
 11
237.8762932366
 21
132.9537971831
  0
LINE
  5
30A
100
AcDbEntity
  8
BEZUGSACHSEN
100
AcDbLine
 62
7
  6
CONTINUOUS
 10
240.4119126178
 20
134.902523348
 11
240.044748032
 21
134.5333830006
  0
LINE
  5
30B
100
AcDbEntity
  8
BEZUGSACHSEN
100
AcDbLine
 62
7
  6
CONTINUOUS
 10
228.7180417518
 20
141.6592274773
 11
229.0066640656
 21
141.9306917432
  0
LINE
  5
30C
100
AcDbEntity
  8
BEZUGSACHSEN
100
AcDbLine
 62
7
  6
CONTINUOUS
 10
235.9954079622
 20
139.1153314828
 11
236.7693915253
 21
139.7816315734
  0
LINE
  5
30D
100
AcDbEntity
  8
BEZUGSACHSEN
100
AcDbLine
 62
7
  6
CONTINUOUS
 10
233.2972038868
 20
135.988123793
 11
237.070372978
 21
139.2363360639
  0
LINE
  5
30E
100
AcDbEntity
  8
BEZUGSACHSEN
100
AcDbLine
 62
7
  6
CONTINUOUS
 10
238.2420856344
 20
139.4406278938
 11
233.694933251
 21
135.5261157656
  0
LINE
  5
30F
100
AcDbEntity
  8
BEZUGSACHSEN
100
AcDbLine
 62
7
  6
CONTINUOUS
 10
225.3396438902
 20
145.9196763465
 11
225.8134293381
 21
146.2791047464
  0
LINE
  5
310
100
AcDbEntity
  8
BEZUGSACHSEN
100
AcDbLine
 62
7
  6
CONTINUOUS
 10
227.8651789976
 20
146.2498532337
 11
228.3075197381
 21
146.5760127789
  0
LINE
  5
311
100
AcDbEntity
  8
BEZUGSACHSEN
100
AcDbLine
 62
7
  6
CONTINUOUS
 10
228.3152961482
 20
145.8193515849
 11
228.6901811854
 21
146.0371293981
  0
LINE
  5
312
100
AcDbEntity
  8
BEZUGSACHSEN
100
AcDbLine
 62
7
  6
CONTINUOUS
 10
225.0119028901
 20
146.4649662648
 11
225.2959039162
 21
146.6256656577
  0
LINE
  5
313
100
AcDbEntity
  8
BEZUGSACHSEN
100
AcDbLine
 62
7
  6
CONTINUOUS
 10
195.5987206178
 20
145.9472802596
 11
197.1985400157
 21
146.8334735086
  0
LINE
  5
314
100
AcDbEntity
  8
BEZUGSACHSEN
100
AcDbLine
 62
7
  6
CONTINUOUS
 10
197.7637677988
 20
142.0387823314
 11
199.3635871967
 21
142.9249755804
  0
LINE
  5
315
100
AcDbEntity
  8
BEZUGSACHSEN
100
AcDbLine
 62
7
  6
CONTINUOUS
 10
197.6016456028
 20
141.0733563811
 11
199.7347381334
 21
142.2549473797
  0
LINE
  5
316
100
AcDbEntity
  8
BEZUGSACHSEN
100
AcDbLine
 62
7
  6
CONTINUOUS
 10
188.5925189603
 20
140.3227795447
 11
188.8903837555
 21
140.4659002734
  0
LINE
  5
317
100
AcDbEntity
  8
BEZUGSACHSEN
100
AcDbLine
 62
7
  6
CONTINUOUS
 10
194.869802458
 20
139.1091442398
 11
195.3457410969
 21
139.3279193737
  0
LINE
  5
318
100
AcDbEntity
  8
BEZUGSACHSEN
100
AcDbLine
 62
7
  6
CONTINUOUS
 10
194.469119815
 20
139.7698011738
 11
194.8658663619
 21
139.9249210873
  0
LINE
  5
319
100
AcDbEntity
  8
BEZUGSACHSEN
100
AcDbLine
 62
7
  6
CONTINUOUS
 10
228.3075197381
 20
146.5760127789
 11
228.9223815987
 21
146.794801269
  0
LINE
  5
31A
100
AcDbEntity
  8
0
100
AcDbLine
 62
7
  6
CONTINUOUS
 10
201.6076605422
 20
154.03281036
 11
189.4313859641
 21
150.0764989228
  0
LINE
  5
31B
100
AcDbEntity
  8
RUNDUNGEN
100
AcDbLine
 62
7
  6
CONTINUOUS
 10
246.1808587167
 20
78.0519581859
 11
245.3095272128
 21
77.0135457359
  0
LINE
  5
31C
100
AcDbEntity
  8
BEZUGSACHSEN
100
AcDbLine
 62
7
  6
CONTINUOUS
 10
237.4846056393
 20
135.1388538613
 11
237.9084391354
 21
135.4236635814
  0
LINE
  5
31D
100
AcDbEntity
  8
BEZUGSACHSEN
100
AcDbLine
 62
7
  6
CONTINUOUS
 10
239.7614008866
 20
134.9550399973
 11
239.5494838417
 21
134.8126349378
  0
LINE
  5
31E
100
AcDbEntity
  8
BEZUGSACHSEN
100
AcDbLine
 62
7
  6
CONTINUOUS
 10
237.5929434971
 20
133.3754580403
 11
237.169110001
 21
133.0906483202
  0
LINE
  5
31F
100
AcDbEntity
  8
BEZUGSACHSEN
100
AcDbLine
 62
7
  6
CONTINUOUS
 10
240.044748032
 20
134.5333830006
 11
239.8328309871
 21
134.3909779411
  0
LINE
  5
320
100
AcDbEntity
  8
BEZUGSACHSEN
100
AcDbLine
 62
7
  6
CONTINUOUS
 10
237.8762932366
 20
132.9537971831
 11
237.4524597405
 21
132.668987463
  0
LINE
  5
321
100
AcDbEntity
  8
BEZUGSACHSEN
100
AcDbLine
 62
7
  6
CONTINUOUS
 10
238.1179765481
 20
137.4006667923
 11
238.5984789545
 21
137.6011458851
  0
LINE
  5
322
100
AcDbEntity
  8
BEZUGSACHSEN
100
AcDbLine
 62
7
  6
CONTINUOUS
 10
239.3523285808
 20
134.1904988482
 11
239.8328309871
 21
134.3909779411
  0
LINE
  5
323
100
AcDbEntity
  8
BEZUGSACHSEN
100
AcDbLine
 62
7
  6
CONTINUOUS
 10
228.485843242
 20
140.9015542637
 11
229.1007051262
 21
141.1203427917
  0
LINE
  5
324
100
AcDbEntity
  8
BEZUGSACHSEN
100
AcDbLine
 62
7
  6
CONTINUOUS
 10
237.0779130398
 20
132.5397146107
 11
237.4524597405
 21
132.668987463
  0
LINE
  5
325
100
AcDbEntity
  8
KONSTRUKTIONSELEMENTE
100
AcDbLine
 62
7
  6
CONTINUOUS
 10
237.0103932213
 20
-8.9970293301
 11
259.7895175292
 21
25.5451296627
  0
LINE
  5
326
100
AcDbEntity
  8
0
100
AcDbLine
 62
7
  6
CONTINUOUS
 10
237.2356876159
 20
50.8915183902
 11
243.7369065349
 21
58.6393693931
  0
LINE
  5
327
100
AcDbEntity
  8
RUNDUNGEN
100
AcDbLine
 62
7
  6
CONTINUOUS
 10
243.7369065349
 20
58.6393693931
 11
244.1397494284
 21
59.1194588588
  0
LINE
  5
328
100
AcDbEntity
  8
KONSTRUKTIONSELEMENTE
100
AcDbLine
 62
7
  6
CONTINUOUS
 10
247.9026080787
 20
-18.581377067
 11
248.1270741277
 21
-18.240997786
  0
LINE
  5
329
100
AcDbEntity
  8
KONSTRUKTIONSELEMENTE
100
AcDbLine
 62
7
  6
CONTINUOUS
 10
276.9496395784
 20
25.4654074702
 11
277.4990433186
 21
26.2985207668
  0
LINE
  5
32A
100
AcDbEntity
  8
KONSTRUKTIONSELEMENTE
100
AcDbLine
 62
7
  6
CONTINUOUS
 10
205.8457683543
 20
54.0723903891
 11
205.5076605422
 21
53.9609063344
  0
LINE
  5
32B
100
AcDbEntity
  8
KONSTRUKTIONSELEMENTE
100
AcDbLine
 62
7
  6
CONTINUOUS
 10
194.0321482289
 20
50.1770936096
 11
164.9986611579
 21
40.6039020321
  0
LINE
  5
32C
100
AcDbEntity
  8
KONSTRUKTIONSELEMENTE
100
AcDbLine
 62
7
  6
CONTINUOUS
 10
205.8457683543
 20
50.5368564832
 11
164.9986611579
 21
37.0683681261
  0
LINE
  5
32D
100
AcDbEntity
  8
KONSTRUKTIONSELEMENTE
100
AcDbLine
 62
7
  6
CONTINUOUS
 10
170.8653584815
 20
31.4347918857
 11
163.2070576811
 21
28.9096256685
  0
LINE
  5
32E
100
AcDbEntity
  8
KONSTRUKTIONSELEMENTE
100
AcDbLine
 62
7
  6
CONTINUOUS
 10
165.8195943893
 20
29.6248571322
 11
171.5792968401
 21
31.523999831
  0
LINE
  5
32F
100
AcDbEntity
  8
KONSTRUKTIONSELEMENTE
100
AcDbLine
 62
7
  6
CONTINUOUS
 10
171.0114597348
 20
23.4136374145
 11
176.9024603505
 21
25.3560729662
  0
LINE
  5
330
100
AcDbEntity
  8
KONSTRUKTIONSELEMENTE
100
AcDbLine
 62
7
  6
CONTINUOUS
 10
171.0114597348
 20
20.7973423241
 11
176.9024603505
 21
22.7397778758
  0
LINE
  5
331
100
AcDbEntity
  8
KONSTRUKTIONSELEMENTE
100
AcDbLine
 62
7
  6
CONTINUOUS
 10
170.3429670306
 20
18.5483850652
 11
178.001267831
 21
21.0735512825
  0
LINE
  5
332
100
AcDbEntity
  8
KONSTRUKTIONSELEMENTE
100
AcDbLine
 62
7
  6
CONTINUOUS
 10
170.3429670306
 20
18.0887656574
 11
178.001267831
 21
20.6139318747
  0
LINE
  5
333
100
AcDbEntity
  8
KONSTRUKTIONSELEMENTE
100
AcDbLine
 62
7
  6
CONTINUOUS
 10
381.2871656031
 20
-36.0843779979
 11
384.822699509
 21
-39.6199119038
  0
LINE
  5
334
100
AcDbEntity
  8
KONSTRUKTIONSELEMENTE
100
AcDbLine
 62
7
  6
CONTINUOUS
 10
403.2074758199
 20
-21.235135593
 11
402.7478564121
 21
-20.7755161852
  0
LINE
  5
335
100
AcDbEntity
  8
KONSTRUKTIONSELEMENTE
100
AcDbLine
 62
7
  6
CONTINUOUS
 10
400.1315613217
 20
-18.1592210948
 11
399.6719419139
 21
-17.699601687
  0
LINE
  5
336
100
AcDbEntity
  8
KONSTRUKTIONSELEMENTE
100
AcDbLine
 62
7
  6
CONTINUOUS
 10
453.3522370813
 20
28.9096256685
 11
453.2848389231
 21
28.9129381884
  0
LINE
  5
337
100
AcDbEntity
  8
KONSTRUKTIONSELEMENTE
100
AcDbLine
 62
7
  6
CONTINUOUS
 10
442.5313770703
 20
18.0887656574
 11
442.0717576625
 21
18.5483850652
  0
LINE
  5
338
100
AcDbEntity
  8
KONSTRUKTIONSELEMENTE
100
AcDbLine
 62
7
  6
CONTINUOUS
 10
438.9958431643
 20
21.6242995634
 11
439.4554625721
 21
21.1646801556
  0
LINE
  5
339
100
AcDbEntity
  8
0
100
AcDbLine
 62
7
  6
CONTINUOUS
 10
575.5522391934
 20
78.0519581859
 11
584.4161030395
 21
78.0519581859
  0
LINE
  5
33A
100
AcDbEntity
  8
KONSTRUKTIONSELEMENTE
100
AcDbLine
 62
7
  6
CONTINUOUS
 10
450.2692282437
 20
30.3362937522
 11
451.2433712591
 21
29.3621507368
  0
LINE
  5
33B
100
AcDbEntity
  8
0
100
AcDbLine
 62
7
  6
CONTINUOUS
 10
575.6512281991
 20
105.9926050009
 11
584.3171140339
 21
105.9926050009
  0
LINE
  5
33C
100
AcDbEntity
  8
BEZUGSACHSEN
100
AcDbLine
 62
7
  6
CONTINUOUS
 10
472.5039403761
 20
55.1323967752
 11
476.0394742821
 21
51.5968628693
  0
LINE
  5
33D
100
AcDbEntity
  8
KONSTRUKTIONSELEMENTE
100
AcDbLine
 62
7
  6
CONTINUOUS
 10
468.9684064702
 20
59.7285908529
 11
472.5039403761
 21
56.193056947
  0
LINE
  5
33E
100
AcDbEntity
  8
KONSTRUKTIONSELEMENTE
100
AcDbLine
 62
7
  6
CONTINUOUS
 10
469.3219598608
 20
60.0821442435
 11
472.8574937667
 21
56.5466103376
  0
LINE
  5
33F
100
AcDbEntity
  8
0
100
AcDbLine
 62
7
  6
CONTINUOUS
 10
575.8005825961
 20
130.3615822183
 11
584.1677596369
 21
130.3615822183
  0
LINE
  5
340
100
AcDbEntity
  8
BEZUGSACHSEN
100
AcDbLine
 62
7
  6
CONTINUOUS
 10
587.1750701083
 20
134.8630574281
 11
587.7254001684
 21
134.8630574281
  0
LINE
  5
341
100
AcDbEntity
  8
BEZUGSACHSEN
100
AcDbLine
 62
7
  6
CONTINUOUS
 10
587.1852818603
 20
137.2179882292
 11
587.7277814616
 21
137.2179882292
  0
LINE
  5
342
100
AcDbEntity
  8
BEZUGSACHSEN
100
AcDbLine
 62
7
  6
CONTINUOUS
 10
585.6821588589
 20
138.8475208531
 11
586.2316543126
 21
138.8475208531
  0
LINE
  5
343
100
AcDbEntity
  8
BEZUGSACHSEN
100
AcDbLine
 62
7
  6
CONTINUOUS
 10
586.3982547838
 20
139.0511421955
 11
586.875327625
 21
139.0511421955
  0
LINE
  5
344
100
AcDbEntity
  8
BEZUGSACHSEN
100
AcDbLine
 62
7
  6
CONTINUOUS
 10
587.0909565996
 20
139.0535242622
 11
587.6283634264
 21
139.0535242622
  0
LINE
  5
345
100
AcDbEntity
  8
BEZUGSACHSEN
100
AcDbLine
 62
7
  6
CONTINUOUS
 10
586.972931438
 20
139.1969052055
 11
587.4972241019
 21
139.1969052055
  0
LINE
  5
346
100
AcDbEntity
  8
BEZUGSACHSEN
100
AcDbLine
 62
7
  6
CONTINUOUS
 10
586.4002091601
 20
139.3638145391
 11
586.8409873368
 21
139.3638145391
  0
LINE
  5
347
100
AcDbEntity
  8
BEZUGSACHSEN
100
AcDbLine
 62
7
  6
CONTINUOUS
 10
586.9304746596
 20
139.4675960953
 11
587.3675968289
 21
139.4675960953
  0
LINE
  5
348
100
AcDbEntity
  8
BEZUGSACHSEN
100
AcDbLine
 62
7
  6
CONTINUOUS
 10
586.4008559053
 20
139.6852972505
 11
586.7752965901
 21
139.6852972505
  0
LINE
  5
349
100
AcDbEntity
  8
BEZUGSACHSEN
100
AcDbLine
 62
7
  6
CONTINUOUS
 10
586.8348705418
 20
139.9014422362
 11
587.2073354936
 21
139.9014422362
  0
LINE
  5
34A
100
AcDbEntity
  8
BEZUGSACHSEN
100
AcDbLine
 62
7
  6
CONTINUOUS
 10
587.3556925136
 20
139.9249210873
 11
587.5364014459
 21
139.9249210873
  0
LINE
  5
34B
100
AcDbEntity
  8
BEZUGSACHSEN
100
AcDbLine
 62
7
  6
CONTINUOUS
 10
586.4000658272
 20
140.0155901125
 11
586.6787537624
 21
140.0155901125
  0
LINE
  5
34C
100
AcDbEntity
  8
BEZUGSACHSEN
100
AcDbLine
 62
7
  6
CONTINUOUS
 10
587.2537546795
 20
140.1795416391
 11
587.5355869346
 21
140.1795416391
  0
LINE
  5
34D
100
AcDbEntity
  8
BEZUGSACHSEN
100
AcDbLine
 62
7
  6
CONTINUOUS
 10
586.3980728479
 20
140.2699177723
 11
586.5833702299
 21
140.2699177723
  0
LINE
  5
34E
100
AcDbEntity
  8
BEZUGSACHSEN
100
AcDbLine
 62
7
  6
CONTINUOUS
 10
587.13395704
 20
140.5336624649
 11
587.5015050484
 21
140.5336624649
  0
LINE
  5
34F
100
AcDbEntity
  8
BEZUGSACHSEN
100
AcDbLine
 62
7
  6
CONTINUOUS
 10
585.6951326376
 20
140.6706931423
 11
586.239610606
 21
140.6706931423
  0
LINE
  5
350
100
AcDbEntity
  8
BEZUGSACHSEN
100
AcDbLine
 62
7
  6
CONTINUOUS
 10
587.0092783976
 20
140.9236284054
 11
587.4352573175
 21
140.9236284054
  0
LINE
  5
351
100
AcDbEntity
  8
BEZUGSACHSEN
100
AcDbLine
 62
7
  6
CONTINUOUS
 10
585.7240491882
 20
140.9657449676
 11
586.2675134694
 21
140.9657449676
  0
LINE
  5
352
100
AcDbEntity
  8
BEZUGSACHSEN
100
AcDbLine
 62
7
  6
CONTINUOUS
 10
585.8157259912
 20
141.015279521
 11
586.3583591786
 21
141.015279521
  0
LINE
  5
353
100
AcDbEntity
  8
BEZUGSACHSEN
100
AcDbLine
 62
7
  6
CONTINUOUS
 10
587.4911511796
 20
141.0733563811
 11
587.7032036593
 21
141.0733563811
  0
LINE
  5
354
100
AcDbEntity
  8
BEZUGSACHSEN
100
AcDbLine
 62
7
  6
CONTINUOUS
 10
586.8731364778
 20
141.3494393211
 11
587.3376817542
 21
141.3494393211
  0
LINE
  5
355
100
AcDbEntity
  8
BEZUGSACHSEN
100
AcDbLine
 62
7
  6
CONTINUOUS
 10
586.7255325916
 20
141.8110956461
 11
587.2093060894
 21
141.8110956461
  0
LINE
  5
356
100
AcDbEntity
  8
BEZUGSACHSEN
100
AcDbLine
 62
7
  6
CONTINUOUS
 10
587.2685862277
 20
142.9249755804
 11
587.5262664626
 21
142.9249755804
  0
LINE
  5
357
100
AcDbEntity
  8
BEZUGSACHSEN
100
AcDbLine
 62
7
  6
CONTINUOUS
 10
585.6835865259
 20
142.9859511483
 11
586.2219016506
 21
142.9859511483
  0
LINE
  5
358
100
AcDbEntity
  8
BEZUGSACHSEN
100
AcDbLine
 62
7
  6
CONTINUOUS
 10
587.1807039203
 20
143.2335785794
 11
587.4916521545
 21
143.2335785794
  0
LINE
  5
359
100
AcDbEntity
  8
BEZUGSACHSEN
100
AcDbLine
 62
7
  6
CONTINUOUS
 10
585.6905354421
 20
143.367881976
 11
586.2277633859
 21
143.367881976
  0
LINE
  5
35A
100
AcDbEntity
  8
BEZUGSACHSEN
100
AcDbLine
 62
7
  6
CONTINUOUS
 10
587.0750390296
 20
143.6046202399
 11
587.4250186303
 21
143.6046202399
  0
LINE
  5
35B
100
AcDbEntity
  8
BEZUGSACHSEN
100
AcDbLine
 62
7
  6
CONTINUOUS
 10
587.563589433
 20
143.9869976188
 11
587.7043973127
 21
143.9869976188
  0
LINE
  5
35C
100
AcDbEntity
  8
BEZUGSACHSEN
100
AcDbLine
 62
7
  6
CONTINUOUS
 10
586.9515918668
 20
144.0381004055
 11
587.3272037792
 21
144.0381004055
  0
LINE
  5
35D
100
AcDbEntity
  8
BEZUGSACHSEN
100
AcDbLine
 62
7
  6
CONTINUOUS
 10
587.5066974787
 20
144.2151787845
 11
587.6947281412
 21
144.2151787845
  0
LINE
  5
35E
100
AcDbEntity
  8
BEZUGSACHSEN
100
AcDbLine
 62
7
  6
CONTINUOUS
 10
586.8103561863
 20
144.5340185909
 11
587.1987318315
 21
144.5340185909
  0
LINE
  5
35F
100
AcDbEntity
  8
BEZUGSACHSEN
100
AcDbLine
 62
7
  6
CONTINUOUS
 10
585.6905354394
 20
144.8956045582
 11
586.2236405438
 21
144.8956045582
  0
LINE
  5
360
100
AcDbEntity
  8
BEZUGSACHSEN
100
AcDbLine
 62
7
  6
CONTINUOUS
 10
585.6835865259
 20
145.2775352037
 11
586.2157224718
 21
145.2775352037
  0
LINE
  5
361
100
AcDbEntity
  8
BEZUGSACHSEN
100
AcDbLine
 62
7
  6
CONTINUOUS
 10
586.4117306106
 20
146.2090890533
 11
586.7219453762
 21
146.2090890533
  0
LINE
  5
362
100
AcDbEntity
  8
BEZUGSACHSEN
100
AcDbLine
 62
7
  6
CONTINUOUS
 10
585.6806542883
 20
146.3219106323
 11
586.2100024041
 21
146.3219106323
  0
LINE
  5
363
100
AcDbEntity
  8
BEZUGSACHSEN
100
AcDbLine
 62
7
  6
CONTINUOUS
 10
586.4136699732
 20
146.6065416978
 11
586.5960099286
 21
146.6065416978
  0
LINE
  5
364
100
AcDbEntity
  8
BEZUGSACHSEN
100
AcDbLine
 62
7
  6
CONTINUOUS
 10
586.4124504495
 20
146.8430899675
 11
586.5028006224
 21
146.8430899675
  0
LINE
  5
365
100
AcDbEntity
  8
BEZUGSACHSEN
100
AcDbLine
 62
7
  6
CONTINUOUS
 10
585.6954804275
 20
147.503501631
 11
586.2215051783
 21
147.503501631
  0
LINE
  5
366
100
AcDbEntity
  8
BEZUGSACHSEN
100
AcDbLine
 62
7
  6
CONTINUOUS
 10
585.7247859925
 20
147.6379952564
 11
586.2501661685
 21
147.6379952564
  0
LINE
  5
367
100
AcDbEntity
  8
BEZUGSACHSEN
100
AcDbLine
 62
7
  6
CONTINUOUS
 10
586.1194741918
 20
149.7790274941
 11
586.2021845325
 21
149.7790274941
  0
LINE
  5
368
100
AcDbEntity
  8
0
100
AcDbLine
 62
7
  6
CONTINUOUS
 10
575.8005825961
 20
150.0764989228
 11
584.1677596369
 21
150.0764989228
  0
LINE
  5
369
100
AcDbEntity
  8
0
100
AcDbLine
 62
7
  6
CONTINUOUS
 10
584.1677596369
 20
157.6069270185
 11
575.8005825961
 21
157.6069270185
  0
LINE
  5
36A
100
AcDbEntity
  8
KONSTRUKTIONSELEMENTE
100
AcDbLine
 62
7
  6
CONTINUOUS
 10
526.5976091369
 20
117.3577935196
 11
530.1331430428
 21
113.8222596137
  0
LINE
  5
36B
100
AcDbEntity
  8
KONSTRUKTIONSELEMENTE
100
AcDbLine
 62
7
  6
CONTINUOUS
 10
526.9511625275
 20
117.7113469102
 11
530.4866964334
 21
114.1758130043
  0
LINE
  5
36C
100
AcDbEntity
  8
0
100
AcDbLine
 62
7
  6
CONTINUOUS
 10
564.5629676781
 20
58.8934259878
 11
562.7005034947
 21
61.9871859369
  0
LINE
  5
36D
100
AcDbEntity
  8
KONSTRUKTIONSELEMENTE
100
AcDbLine
 62
7
  6
CONTINUOUS
 10
449.8200156953
 20
32.3777614162
 11
449.8167031753
 21
32.4451595744
  0
LINE
  5
36E
100
AcDbEntity
  8
RUNDUNGEN
100
AcDbLine
 62
7
  6
CONTINUOUS
 10
596.6444251543
 20
80.4976016853
 11
587.7879149455
 21
95.8375273448
  0
LINE
  5
36F
100
AcDbEntity
  8
0
100
AcDbLine
 62
7
  6
CONTINUOUS
 10
532.9841711165
 20
159.0770936096
 11
532.9841711165
 21
224.0770936096
  0
LINE
  5
370
100
AcDbEntity
  8
KONSTRUKTIONSELEMENTE
100
AcDbLine
 62
7
  6
CONTINUOUS
 10
584.1677596369
 20
157.6069270185
 11
588.0559454741
 21
142.0122653966
  0
LINE
  5
371
100
AcDbEntity
  8
0
100
AcDbLine
 62
7
  6
CONTINUOUS
 10
575.411306925
 20
112.9068123083
 11
575.6512281991
 21
105.9926050009
  0
LINE
  5
372
100
AcDbEntity
  8
0
100
AcDbLine
 62
7
  6
CONTINUOUS
 10
554.9841711165
 20
159.0770936096
 11
554.9841711165
 21
224.0770936096
  0
LINE
  5
373
100
AcDbEntity
  8
0
100
AcDbLine
 62
7
  6
CONTINUOUS
 10
561.9841711165
 20
64.5659824985
 11
561.9841711165
 21
75.4976016853
  0
LINE
  5
374
100
AcDbEntity
  8
0
100
AcDbLine
 62
7
  6
CONTINUOUS
 10
563.9841711165
 20
615.0151071837
 11
563.9841711165
 21
233.1390800356
  0
LINE
  5
375
100
AcDbEntity
  8
0
100
AcDbLine
 62
7
  6
CONTINUOUS
 10
566.9841711165
 20
88.1770936096
 11
566.9841711165
 21
95.8476924581
  0
LINE
  5
376
100
AcDbEntity
  8
0
100
AcDbLine
 62
7
  6
CONTINUOUS
 10
571.7341711165
 20
140.560734023
 11
571.7341711165
 21
102.6161168296
  0
LINE
  5
377
100
AcDbEntity
  8
0
100
AcDbLine
 62
7
  6
CONTINUOUS
 10
575.6512281991
 20
105.9926050009
 11
575.6512281991
 21
83.090346082
  0
LINE
  5
378
100
AcDbEntity
  8
RUNDUNGEN
100
AcDbLine
 62
7
  6
CONTINUOUS
 10
584.3171140339
 20
105.9926050009
 11
584.3171140339
 21
83.090346082
  0
LINE
  5
379
100
AcDbEntity
  8
BEZUGSACHSEN
100
AcDbLine
 62
7
  6
CONTINUOUS
 10
588.2341711165
 20
140.560734023
 11
588.2341711165
 21
115.0618929625
  0
LINE
  5
37A
100
AcDbEntity
  8
KONSTRUKTIONSELEMENTE
100
AcDbLine
 62
7
  6
CONTINUOUS
 10
588.2341711165
 20
115.0618929625
 11
588.2341711165
 21
102.6161090552
  0
LINE
  5
37B
100
AcDbEntity
  8
RUNDUNGEN
100
AcDbLine
 62
7
  6
CONTINUOUS
 10
588.2341711165
 20
115.0618929385
 11
588.2341711165
 21
102.6161168296
  0
LINE
  5
37C
100
AcDbEntity
  8
KONSTRUKTIONSELEMENTE
100
AcDbLine
 62
7
  6
CONTINUOUS
 10
592.9841711165
 20
88.1770936096
 11
592.9841711165
 21
95.8476924581
  0
LINE
  5
37D
100
AcDbEntity
  8
0
100
AcDbLine
 62
7
  6
CONTINUOUS
 10
595.9841711165
 20
615.0151071837
 11
595.9841711165
 21
233.1390800356
  0
LINE
  5
37E
100
AcDbEntity
  8
RUNDUNGEN
100
AcDbLine
 62
7
  6
CONTINUOUS
 10
597.9841711165
 20
64.5659824985
 11
597.9841711165
 21
75.4976016853
  0
LINE
  5
37F
100
AcDbEntity
  8
0
100
AcDbLine
 62
7
  6
CONTINUOUS
 10
584.557035308
 20
112.9068123083
 11
584.3171140339
 21
105.9926050009
  0
LINE
  5
380
100
AcDbEntity
  8
0
100
AcDbLine
 62
7
  6
CONTINUOUS
 10
604.9841711165
 20
224.0770936096
 11
604.9841711165
 21
159.0770936096
  0
LINE
  5
381
100
AcDbEntity
  8
0
100
AcDbLine
 62
7
  6
CONTINUOUS
 10
571.9123967588
 20
142.0122653966
 11
575.8005825961
 21
157.6069270185
  0
LINE
  5
382
100
AcDbEntity
  8
0
100
AcDbLine
 62
7
  6
CONTINUOUS
 10
626.9841711165
 20
224.0770936096
 11
626.9841711165
 21
159.0770936096
  0
LINE
  5
383
100
AcDbEntity
  8
KONSTRUKTIONSELEMENTE
100
AcDbLine
 62
7
  6
CONTINUOUS
 10
466.1399793455
 20
56.9001637282
 11
468.9684064702
 21
59.7285908529
  0
LINE
  5
384
100
AcDbEntity
  8
KONSTRUKTIONSELEMENTE
100
AcDbLine
 62
7
  6
CONTINUOUS
 10
469.3219598608
 20
60.0821442435
 11
472.1503869855
 21
62.9105713682
  0
LINE
  5
385
100
AcDbEntity
  8
KONSTRUKTIONSELEMENTE
100
AcDbLine
 62
7
  6
CONTINUOUS
 10
523.7691820122
 20
114.5293663949
 11
526.5976091369
 21
117.3577935196
  0
LINE
  5
386
100
AcDbEntity
  8
KONSTRUKTIONSELEMENTE
100
AcDbLine
 62
7
  6
CONTINUOUS
 10
526.9511625275
 20
117.7113469102
 11
529.7795896522
 21
120.5397740349
  0
LINE
  5
387
100
AcDbEntity
  8
KONSTRUKTIONSELEMENTE
100
AcDbLine
 62
7
  6
CONTINUOUS
 10
493.0100370305
 20
83.4166680226
 11
503.6166387483
 21
94.0232697404
  0
LINE
  5
388
100
AcDbEntity
  8
0
100
AcDbLine
 62
7
  6
CONTINUOUS
 10
563.3239170786
 20
80.4976016853
 11
572.1804272875
 21
95.8375273448
  0
LINE
  5
389
100
AcDbEntity
  8
KONSTRUKTIONSELEMENTE
100
AcDbLine
 62
7
  6
CONTINUOUS
 10
496.1920175459
 20
80.2346875073
 11
506.7986192637
 21
90.8412892251
  0
LINE
  5
38A
100
AcDbEntity
  8
KONSTRUKTIONSELEMENTE
100
AcDbLine
 62
7
  6
CONTINUOUS
 10
469.6755132514
 20
53.3646298222
 11
472.5039403761
 21
56.193056947
  0
LINE
  5
38B
100
AcDbEntity
  8
KONSTRUKTIONSELEMENTE
100
AcDbLine
 62
7
  6
CONTINUOUS
 10
472.8574937667
 20
56.5466103376
 11
475.6859208915
 21
59.3750374623
  0
LINE
  5
38C
100
AcDbEntity
  8
KONSTRUKTIONSELEMENTE
100
AcDbLine
 62
7
  6
CONTINUOUS
 10
527.3047159181
 20
110.9938324889
 11
530.1331430428
 21
113.8222596137
  0
LINE
  5
38D
100
AcDbEntity
  8
KONSTRUKTIONSELEMENTE
100
AcDbLine
 62
7
  6
CONTINUOUS
 10
530.4866964334
 20
114.1758130043
 11
533.3151235582
 21
117.004240129
  0
LINE
  5
38E
100
AcDbEntity
  8
KONSTRUKTIONSELEMENTE
100
AcDbLine
 62
7
  6
CONTINUOUS
 10
562.3065015868
 20
145.6420647671
 11
533.3151235582
 21
116.6506867384
  0
LINE
  5
38F
100
AcDbEntity
  8
BEZUGSACHSEN
100
AcDbLine
 62
7
  6
CONTINUOUS
 10
472.5036949486
 20
55.1321513477
 11
471.44393399
 21
54.0723903891
  0
LINE
  5
390
100
AcDbEntity
  8
KONSTRUKTIONSELEMENTE
100
AcDbLine
 62
7
  6
CONTINUOUS
 10
381.2871656031
 20
-36.0843779979
 11
471.44393399
 21
54.0723903891
  0
LINE
  5
391
100
AcDbEntity
  8
KONSTRUKTIONSELEMENTE
100
AcDbLine
 62
7
  6
CONTINUOUS
 10
527.3047159181
 20
109.5796189266
 11
508.5960309429
 21
90.8709339514
  0
LINE
  5
392
100
AcDbEntity
  8
KONSTRUKTIONSELEMENTE
100
AcDbLine
 62
7
  6
CONTINUOUS
 10
496.1920175459
 20
78.4669205543
 11
477.4833325707
 21
59.7582355792
  0
LINE
  5
393
100
AcDbEntity
  8
KONSTRUKTIONSELEMENTE
100
AcDbLine
 62
7
  6
CONTINUOUS
 10
400.1315613217
 20
-18.1592210948
 11
381.7467850108
 21
-36.5439974056
  0
LINE
  5
394
100
AcDbEntity
  8
KONSTRUKTIONSELEMENTE
100
AcDbLine
 62
7
  6
CONTINUOUS
 10
439.4554625721
 20
21.1646801556
 11
445.4792559932
 21
27.1884735767
  0
LINE
  5
395
100
AcDbEntity
  8
KONSTRUKTIONSELEMENTE
100
AcDbLine
 62
7
  6
CONTINUOUS
 10
402.7478564121
 20
-20.7755161852
 11
384.3630801012
 21
-39.160292496
  0
LINE
  5
396
100
AcDbEntity
  8
KONSTRUKTIONSELEMENTE
100
AcDbLine
 62
7
  6
CONTINUOUS
 10
442.0717576625
 20
18.5483850652
 11
448.0955510836
 21
24.5721784864
  0
LINE
  5
397
100
AcDbEntity
  8
KONSTRUKTIONSELEMENTE
100
AcDbLine
 62
7
  6
CONTINUOUS
 10
530.4866964334
 20
106.3976384112
 11
511.7780114583
 21
87.688953436
  0
LINE
  5
398
100
AcDbEntity
  8
KONSTRUKTIONSELEMENTE
100
AcDbLine
 62
7
  6
CONTINUOUS
 10
499.3739980612
 20
75.284940039
 11
480.665313086
 21
56.5762550638
  0
LINE
  5
399
100
AcDbEntity
  8
BEZUGSACHSEN
100
AcDbLine
 62
7
  6
CONTINUOUS
 10
476.0392288546
 20
51.5966174417
 11
474.979467896
 21
50.5368564832
  0
LINE
  5
39A
100
AcDbEntity
  8
KONSTRUKTIONSELEMENTE
100
AcDbLine
 62
7
  6
CONTINUOUS
 10
384.822699509
 20
-39.6199119038
 11
474.979467896
 21
50.5368564832
  0
LINE
  5
39B
100
AcDbEntity
  8
KONSTRUKTIONSELEMENTE
100
AcDbLine
 62
7
  6
CONTINUOUS
 10
566.5491422739
 20
141.3994240799
 11
537.6072743725
 21
112.4575561785
  0
LINE
  5
39C
100
AcDbEntity
  8
KONSTRUKTIONSELEMENTE
100
AcDbLine
 62
7
  6
CONTINUOUS
 10
537.9113176359
 20
112.4080460513
 11
531.9009099958
 21
106.3976384112
  0
LINE
  5
39D
100
AcDbEntity
  8
KONSTRUKTIONSELEMENTE
100
AcDbLine
 62
7
  6
CONTINUOUS
 10
480.2821149692
 20
54.7788433846
 11
474.2717073291
 21
48.7684357445
  0
LINE
  5
39E
100
AcDbEntity
  8
KONSTRUKTIONSELEMENTE
100
AcDbLine
 62
7
  6
CONTINUOUS
 10
511.748366732
 20
85.8915417568
 11
501.1417650142
 21
75.284940039
  0
LINE
  5
39F
100
AcDbEntity
  8
KONSTRUKTIONSELEMENTE
100
AcDbLine
 62
7
  6
CONTINUOUS
 10
514.9303472473
 20
82.7095612415
 11
504.3237455295
 21
72.1029595237
  0
LINE
  5
3A0
100
AcDbEntity
  8
KONSTRUKTIONSELEMENTE
100
AcDbLine
 62
7
  6
CONTINUOUS
 10
541.4468515418
 20
108.8725121454
 11
535.4364439017
 21
102.8621045053
  0
LINE
  5
3A1
100
AcDbEntity
  8
KONSTRUKTIONSELEMENTE
100
AcDbLine
 62
7
  6
CONTINUOUS
 10
483.8176488751
 20
51.2433094787
 11
477.807241235
 21
45.2329018386
  0
LINE
  5
3A2
100
AcDbEntity
  8
RUNDUNGEN
100
AcDbLine
 62
7
  6
CONTINUOUS
 10
595.4053745549
 20
58.8934259878
 11
597.2678387383
 21
61.9871859369
  0
ARC
  5
3A3
100
AcDbEntity
  8
KONSTRUKTIONSELEMENTE
100
AcDbCircle
 62
7
  6
CONTINUOUS
 10
198.9037268688
 20
-28.3727396397
 40
7.2075994746
100
AcDbArc
 50
82.0084828409
 51
84.6969256904
  0
ARC
  5
3A4
100
AcDbEntity
  8
RUNDUNGEN
100
AcDbCircle
 62
7
  6
CONTINUOUS
 10
177.6076605422
 20
75.0851829068
 40
3.0
100
AcDbArc
 50
7.0803074625
 51
40.0
  0
ARC
  5
3A5
100
AcDbEntity
  8
KONSTRUKTIONSELEMENTE
100
AcDbCircle
 62
7
  6
CONTINUOUS
 10
204.0774002194
 20
-24.9130433339
 40
2.6152604962
100
AcDbArc
 50
0.0208671421
 51
7.9801551546
  0
ARC
  5
3A6
100
AcDbEntity
  8
KONSTRUKTIONSELEMENTE
100
AcDbCircle
 62
7
  6
CONTINUOUS
 10
176.1701055907
 20
27.5779042326
 40
2.3394182334
100
AcDbArc
 50
288.2431310925
 51
290.8424375544
  0
ARC
  5
3A7
100
AcDbEntity
  8
0
100
AcDbCircle
 62
7
  6
CONTINUOUS
 10
189.5117219896
 20
52.1770940447
 40
2.0
100
AcDbArc
 50
220.0000162712
 51
270.0000104589
  0
ARC
  5
3A8
100
AcDbEntity
  8
RUNDUNGEN
100
AcDbCircle
 62
7
  6
CONTINUOUS
 10
182.6076605422
 20
60.4050340781
 40
2.0
100
AcDbArc
 50
180.0
 51
220.0
  0
ARC
  5
3A9
100
AcDbEntity
  8
0
100
AcDbCircle
 62
7
  6
CONTINUOUS
 10
182.6076605422
 20
60.4050340781
 40
2.0
100
AcDbArc
 50
180.0
 51
220.0
  0
ARC
  5
3AA
100
AcDbEntity
  8
KONSTRUKTIONSELEMENTE
100
AcDbCircle
 62
7
  6
CONTINUOUS
 10
212.6076605422
 20
8.7174686096
 40
45.0
100
AcDbArc
 50
99.0779339621
 51
112.8843724077
  0
ARC
  5
3AB
100
AcDbEntity
  8
KONSTRUKTIONSELEMENTE
100
AcDbCircle
 62
7
  6
CONTINUOUS
 10
212.6076605422
 20
8.7174686096
 40
45.0
100
AcDbArc
 50
67.1156275923
 51
80.9220660379
  0
ARC
  5
3AC
100
AcDbEntity
  8
BEZUGSACHSEN
100
AcDbCircle
 62
7
  6
CONTINUOUS
 10
212.6076605422
 20
118.1770936096
 40
16.0
100
AcDbArc
 50
133.4832507211
 51
46.5167492789
  0
ARC
  5
3AD
100
AcDbEntity
  8
0
100
AcDbCircle
 62
7
  6
CONTINUOUS
 10
212.6076605422
 20
123.0770936096
 40
11.0
100
AcDbArc
 50
180.0
 51
360.0
  0
ARC
  5
3AE
100
AcDbEntity
  8
KONSTRUKTIONSELEMENTE
100
AcDbCircle
 62
7
  6
CONTINUOUS
 10
212.6076605422
 20
85.5770936096
 40
7.1
100
AcDbArc
 50
0.0
 51
180.0
  0
ARC
  5
3AF
100
AcDbEntity
  8
KONSTRUKTIONSELEMENTE
100
AcDbCircle
 62
7
  6
CONTINUOUS
 10
226.0192786272
 20
-26.8949568489
 40
6.07744836
100
AcDbArc
 50
111.3149175254
 51
112.0930351415
  0
CIRCLE
  5
3B0
100
AcDbEntity
  8
BEZUGSACHSEN
100
AcDbCircle
 62
7
  6
CONTINUOUS
 10
235.6076605422
 20
68.1770936096
 40
3.0
  0
ARC
  5
3B1
100
AcDbEntity
  8
RUNDUNGEN
100
AcDbCircle
 62
7
  6
CONTINUOUS
 10
247.6076605422
 20
75.0851829068
 40
3.0
100
AcDbArc
 50
140.0
 51
175.2760379204
  0
ARC
  5
3B2
100
AcDbEntity
  8
KONSTRUKTIONSELEMENTE
100
AcDbCircle
 62
7
  6
CONTINUOUS
 10
212.6076605422
 20
45.3165327834
 40
2.5
100
AcDbArc
 50
180.0
 51
360.0
  0
ARC
  5
3B3
100
AcDbEntity
  8
KONSTRUKTIONSELEMENTE
100
AcDbCircle
 62
7
  6
CONTINUOUS
 10
212.6076605422
 20
102.9457354501
 40
2.5
100
AcDbArc
 50
180.0
 51
193.090119613
  0
ARC
  5
3B4
100
AcDbEntity
  8
KONSTRUKTIONSELEMENTE
100
AcDbCircle
 62
7
  6
CONTINUOUS
 10
212.6076605422
 20
102.9457354501
 40
2.5
100
AcDbArc
 50
346.909880387
 51
360.0
  0
ARC
  5
3B5
100
AcDbEntity
  8
0
100
AcDbCircle
 62
7
  6
CONTINUOUS
 10
235.7036006567
 20
52.1770959061
 40
2.0
100
AcDbArc
 50
269.9999447949
 51
319.999914116
  0
ARC
  5
3B6
100
AcDbEntity
  8
RUNDUNGEN
100
AcDbCircle
 62
7
  6
CONTINUOUS
 10
242.6076605422
 20
60.4050340781
 40
2.0
100
AcDbArc
 50
320.0
 51
360.0
  0
ARC
  5
3B7
100
AcDbEntity
  8
0
100
AcDbCircle
 62
7
  6
CONTINUOUS
 10
242.6076605422
 20
60.4050340781
 40
2.0
100
AcDbArc
 50
320.0
 51
359.200548064
  0
ARC
  5
3B8
100
AcDbEntity
  8
0
100
AcDbCircle
 62
7
  6
CONTINUOUS
 10
212.6076605422
 20
344.0770936096
 40
127.0
100
AcDbArc
 50
180.0
 51
265.0303544948
  0
ARC
  5
3B9
100
AcDbEntity
  8
0
100
AcDbCircle
 62
7
  6
CONTINUOUS
 10
212.6076605422
 20
344.0770936096
 40
127.0
100
AcDbArc
 50
274.9696455052
 51
360.0
  0
ARC
  5
3BA
100
AcDbEntity
  8
0
100
AcDbCircle
 62
7
  6
CONTINUOUS
 10
212.6076605422
 20
504.0770936096
 40
127.0
100
AcDbArc
 50
0.0
 51
180.0
  0
ARC
  5
3BB
100
AcDbEntity
  8
0
100
AcDbCircle
 62
7
  6
CONTINUOUS
 10
212.6076605422
 20
504.0770936096
 40
95.0
100
AcDbArc
 50
0.0
 51
180.0
  0
ARC
  5
3BC
100
AcDbEntity
  8
0
100
AcDbCircle
 62
7
  6
CONTINUOUS
 10
212.6076605422
 20
344.0770936096
 40
95.0
100
AcDbArc
 50
180.0
 51
263.3499960903
  0
ARC
  5
3BD
100
AcDbEntity
  8
0
100
AcDbCircle
 62
7
  6
CONTINUOUS
 10
212.6076605422
 20
344.0770936096
 40
95.0
100
AcDbArc
 50
276.6500039097
 51
360.0
  0
ARC
  5
3BE
100
AcDbEntity
  8
0
100
AcDbCircle
 62
7
  6
CONTINUOUS
 10
212.6076605422
 20
260.0770936096
 40
11.0
100
AcDbArc
 50
0.0
 51
180.0
  0
ARC
  5
3BF
100
AcDbEntity
  8
BEZUGSACHSEN
100
AcDbCircle
 62
7
  6
CONTINUOUS
 10
323.2672750792
 20
-10.9404048
 40
303.1341461379
100
AcDbArc
 50
29.3475079187
 51
29.513153647
  0
ARC
  5
3C0
100
AcDbEntity
  8
BEZUGSACHSEN
100
AcDbCircle
 62
7
  6
CONTINUOUS
 10
392.0398908577
 20
27.7659210154
 40
224.4672573654
100
AcDbArc
 50
29.3390794032
 51
29.5630019154
  0
ARC
  5
3C1
100
AcDbEntity
  8
BEZUGSACHSEN
100
AcDbCircle
 62
7
  6
CONTINUOUS
 10
405.3678557013
 20
112.9717896808
 40
183.4888654354
100
AcDbArc
 50
8.1600272413
 51
8.3093942681
  0
ARC
  5
3C2
100
AcDbEntity
  8
BEZUGSACHSEN
100
AcDbCircle
 62
7
  6
CONTINUOUS
 10
437.454545034
 20
117.7912624515
 40
151.8697128644
100
AcDbArc
 50
8.4089489429
 51
8.5819849586
  0
ARC
  5
3C3
100
AcDbEntity
  8
BEZUGSACHSEN
100
AcDbCircle
 62
7
  6
CONTINUOUS
 10
450.2218779789
 20
124.2009409623
 40
137.4579709469
100
AcDbArc
 50
6.2020246618
 51
6.3331377008
  0
ARC
  5
3C4
100
AcDbEntity
  8
BEZUGSACHSEN
100
AcDbCircle
 62
7
  6
CONTINUOUS
 10
457.0417131022
 20
121.6019186855
 40
132.3186534658
100
AcDbArc
 50
9.1366643627
 51
9.3210355417
  0
ARC
  5
3C5
100
AcDbEntity
  8
KONSTRUKTIONSELEMENTE
100
AcDbCircle
 62
7
  6
CONTINUOUS
 10
477.9840179303
 20
57.0769404234
 40
8.25
100
AcDbArc
 50
60.8421444573
 51
135.0
  0
ARC
  5
3C6
100
AcDbEntity
  8
KONSTRUKTIONSELEMENTE
100
AcDbCircle
 62
7
  6
CONTINUOUS
 10
477.9840179303
 20
57.0769404234
 40
8.25
100
AcDbArc
 50
315.0
 51
29.1578555427
  0
ARC
  5
3C7
100
AcDbEntity
  8
KONSTRUKTIONSELEMENTE
100
AcDbCircle
 62
7
  6
CONTINUOUS
 10
471.9736102902
 20
51.0665327834
 40
8.25
100
AcDbArc
 50
242.6769957192
 51
315.0
  0
ARC
  5
3C8
100
AcDbEntity
  8
KONSTRUKTIONSELEMENTE
100
AcDbCircle
 62
7
  6
CONTINUOUS
 10
471.9736102902
 20
51.0665327834
 40
8.25
100
AcDbArc
 50
135.0
 51
207.3230042808
  0
ARC
  5
3C9
100
AcDbEntity
  8
KONSTRUKTIONSELEMENTE
100
AcDbCircle
 62
7
  6
CONTINUOUS
 10
498.66689128
 20
77.7598137732
 40
8.0
100
AcDbArc
 50
241.3642958278
 51
315.0
  0
ARC
  5
3CA
100
AcDbEntity
  8
KONSTRUKTIONSELEMENTE
100
AcDbCircle
 62
7
  6
CONTINUOUS
 10
498.66689128
 20
77.7598137732
 40
8.0
100
AcDbArc
 50
135.0
 51
208.6357041722
  0
ARC
  5
3CB
100
AcDbEntity
  8
KONSTRUKTIONSELEMENTE
100
AcDbCircle
 62
7
  6
CONTINUOUS
 10
498.66689128
 20
77.7598137732
 40
3.5
100
AcDbArc
 50
265.1538775079
 51
315.0
  0
ARC
  5
3CC
100
AcDbEntity
  8
KONSTRUKTIONSELEMENTE
100
AcDbCircle
 62
7
  6
CONTINUOUS
 10
498.66689128
 20
77.7598137732
 40
3.5
100
AcDbArc
 50
135.0
 51
184.8461224921
  0
ARC
  5
3CD
100
AcDbEntity
  8
KONSTRUKTIONSELEMENTE
100
AcDbCircle
 62
7
  6
CONTINUOUS
 10
477.9840179303
 20
57.0769404234
 40
3.25
100
AcDbArc
 50
88.8837571799
 51
135.0
  0
ARC
  5
3CE
100
AcDbEntity
  8
KONSTRUKTIONSELEMENTE
100
AcDbCircle
 62
7
  6
CONTINUOUS
 10
477.9840179303
 20
57.0769404234
 40
3.25
100
AcDbArc
 50
315.0
 51
1.1162428201
  0
ARC
  5
3CF
100
AcDbEntity
  8
KONSTRUKTIONSELEMENTE
100
AcDbCircle
 62
7
  6
CONTINUOUS
 10
471.9736102902
 20
51.0665327834
 40
3.25
100
AcDbArc
 50
275.4054095575
 51
315.0
  0
ARC
  5
3D0
100
AcDbEntity
  8
KONSTRUKTIONSELEMENTE
100
AcDbCircle
 62
7
  6
CONTINUOUS
 10
471.9736102902
 20
51.0665327834
 40
3.25
100
AcDbArc
 50
135.0
 51
174.5945904425
  0
ARC
  5
3D1
100
AcDbEntity
  8
KONSTRUKTIONSELEMENTE
100
AcDbCircle
 62
7
  6
CONTINUOUS
 10
497.7830078036
 20
76.8759302967
 40
2.25
100
AcDbArc
 50
315.0
 51
135.0
  0
ARC
  5
3D2
100
AcDbEntity
  8
KONSTRUKTIONSELEMENTE
100
AcDbCircle
 62
7
  6
CONTINUOUS
 10
479.0446781021
 20
58.1376005952
 40
2.25
100
AcDbArc
 50
135.0
 51
315.0
  0
ARC
  5
3D3
100
AcDbEntity
  8
BEZUGSACHSEN
100
AcDbCircle
 62
7
  6
CONTINUOUS
 10
498.8927396364
 20
131.8269296147
 40
89.0355013731
100
AcDbArc
 50
5.3829558254
 51
5.611891421
  0
ARC
  5
3D4
100
AcDbEntity
  8
KONSTRUKTIONSELEMENTE
100
AcDbCircle
 62
7
  6
CONTINUOUS
 10
509.2734929978
 20
88.366415491
 40
8.0
100
AcDbArc
 50
61.3642958278
 51
135.0
  0
ARC
  5
3D5
100
AcDbEntity
  8
KONSTRUKTIONSELEMENTE
100
AcDbCircle
 62
7
  6
CONTINUOUS
 10
509.2734929978
 20
88.366415491
 40
8.0
100
AcDbArc
 50
315.0
 51
28.6357041722
  0
ARC
  5
3D6
100
AcDbEntity
  8
KONSTRUKTIONSELEMENTE
100
AcDbCircle
 62
7
  6
CONTINUOUS
 10
509.2734929978
 20
88.366415491
 40
3.5
100
AcDbArc
 50
85.1538775079
 51
135.0
  0
ARC
  5
3D7
100
AcDbEntity
  8
KONSTRUKTIONSELEMENTE
100
AcDbCircle
 62
7
  6
CONTINUOUS
 10
509.2734929978
 20
88.366415491
 40
3.5
100
AcDbArc
 50
315.0
 51
4.8461224921
  0
ARC
  5
3D8
100
AcDbEntity
  8
KONSTRUKTIONSELEMENTE
100
AcDbCircle
 62
7
  6
CONTINUOUS
 10
510.1573764743
 20
89.2502989674
 40
2.25
100
AcDbArc
 50
135.0
 51
315.0
  0
ARC
  5
3D9
100
AcDbEntity
  8
BEZUGSACHSEN
100
AcDbCircle
 62
7
  6
CONTINUOUS
 10
511.1710599844
 20
133.3874248723
 40
76.8057341624
100
AcDbArc
 50
4.6264770114
 51
4.9392200225
  0
ARC
  5
3DA
100
AcDbEntity
  8
BEZUGSACHSEN
100
AcDbCircle
 62
7
  6
CONTINUOUS
 10
510.961212148
 20
140.087603312
 40
75.2806566666
100
AcDbArc
 50
359.0561359582
 51
0.4437915647
  0
ARC
  5
3DB
100
AcDbEntity
  8
KONSTRUKTIONSELEMENTE
100
AcDbCircle
 62
7
  6
CONTINUOUS
 10
510.9214014568
 20
140.2911541792
 40
74.7746944127
100
AcDbArc
 50
358.8937536058
 51
0.2908213038
  0
ARC
  5
3DC
100
AcDbEntity
  8
BEZUGSACHSEN
100
AcDbCircle
 62
7
  6
CONTINUOUS
 10
512.6010357186
 20
139.663650643
 40
73.7999806231
100
AcDbArc
 50
359.5240370018
 51
0.5117319273
  0
ARC
  5
3DD
100
AcDbEntity
  8
BEZUGSACHSEN
100
AcDbCircle
 62
7
  6
CONTINUOUS
 10
517.3613778637
 20
138.3920146551
 40
69.517074597
100
AcDbArc
 50
359.3536367245
 51
0.5432592253
  0
ARC
  5
3DE
100
AcDbEntity
  8
BEZUGSACHSEN
100
AcDbCircle
 62
7
  6
CONTINUOUS
 10
519.6442729287
 20
135.4672669154
 40
68.2904273282
100
AcDbArc
 50
6.2695336968
 51
6.5300759591
  0
ARC
  5
3DF
100
AcDbEntity
  8
BEZUGSACHSEN
100
AcDbCircle
 62
7
  6
CONTINUOUS
 10
519.2219867563
 20
137.883875205
 40
67.847443074
100
AcDbArc
 50
359.337294651
 51
359.6099354056
  0
ARC
  5
3E0
100
AcDbEntity
  8
BEZUGSACHSEN
100
AcDbCircle
 62
7
  6
CONTINUOUS
 10
519.2915400983
 20
137.8833602897
 40
67.7778878383
100
AcDbArc
 50
359.6099703979
 51
0.4287602718
  0
ARC
  5
3E1
100
AcDbEntity
  8
BEZUGSACHSEN
100
AcDbCircle
 62
7
  6
CONTINUOUS
 10
525.5195800353
 20
136.0961622969
 40
62.2183157769
100
AcDbArc
 50
1.0331262369
 51
1.5229370663
  0
ARC
  5
3E2
100
AcDbEntity
  8
BEZUGSACHSEN
100
AcDbCircle
 62
7
  6
CONTINUOUS
 10
525.7356173557
 20
136.1057851545
 40
62.0022382287
100
AcDbArc
 50
358.8515282006
 51
359.2727803652
  0
ARC
  5
3E3
100
AcDbEntity
  8
BEZUGSACHSEN
100
AcDbCircle
 62
7
  6
CONTINUOUS
 10
531.946827708
 20
120.9169710878
 40
60.5635219402
100
AcDbArc
 50
25.8901195317
 51
26.0867752777
  0
ARC
  5
3E4
100
AcDbEntity
  8
BEZUGSACHSEN
100
AcDbCircle
 62
7
  6
CONTINUOUS
 10
531.1339047899
 20
136.8000657339
 40
56.8456243135
100
AcDbArc
 50
5.5065514389
 51
5.8690065191
  0
ARC
  5
3E5
100
AcDbEntity
  8
KONSTRUKTIONSELEMENTE
100
AcDbCircle
 62
7
  6
CONTINUOUS
 10
529.602812957
 20
108.6957354501
 40
8.25
100
AcDbArc
 50
240.8421444573
 51
315.0
  0
ARC
  5
3E6
100
AcDbEntity
  8
KONSTRUKTIONSELEMENTE
100
AcDbCircle
 62
7
  6
CONTINUOUS
 10
529.602812957
 20
108.6957354501
 40
8.25
100
AcDbArc
 50
135.0
 51
209.1578555427
  0
ARC
  5
3E7
100
AcDbEntity
  8
KONSTRUKTIONSELEMENTE
100
AcDbCircle
 62
7
  6
CONTINUOUS
 10
529.602812957
 20
108.6957354501
 40
3.25
100
AcDbArc
 50
268.8837571799
 51
315.0
  0
ARC
  5
3E8
100
AcDbEntity
  8
KONSTRUKTIONSELEMENTE
100
AcDbCircle
 62
7
  6
CONTINUOUS
 10
529.602812957
 20
108.6957354501
 40
3.25
100
AcDbArc
 50
135.0
 51
181.1162428201
  0
ARC
  5
3E9
100
AcDbEntity
  8
KONSTRUKTIONSELEMENTE
100
AcDbCircle
 62
7
  6
CONTINUOUS
 10
528.8957061758
 20
107.9886286689
 40
2.25
100
AcDbArc
 50
315.0
 51
135.0
  0
ARC
  5
3EA
100
AcDbEntity
  8
BEZUGSACHSEN
100
AcDbCircle
 62
7
  6
CONTINUOUS
 10
533.1095269385
 20
143.9855060411
 40
53.1219102008
100
AcDbArc
 50
0.9816543679
 51
1.3936832903
  0
ARC
  5
3EB
100
AcDbEntity
  8
BEZUGSACHSEN
100
AcDbCircle
 62
7
  6
CONTINUOUS
 10
533.2227869916
 20
143.9903726607
 40
53.008631535
100
AcDbArc
 50
358.914279503
 51
359.3271490363
  0
ARC
  5
3EC
100
AcDbEntity
  8
KONSTRUKTIONSELEMENTE
100
AcDbCircle
 62
7
  6
CONTINUOUS
 10
533.0797750956
 20
144.1294236376
 40
52.6163390702
100
AcDbArc
 50
0.8343508009
 51
1.250318239
  0
ARC
  5
3ED
100
AcDbEntity
  8
KONSTRUKTIONSELEMENTE
100
AcDbCircle
 62
7
  6
CONTINUOUS
 10
533.0797751449
 20
144.1340627135
 40
52.6163390209
100
AcDbArc
 50
358.7496817608
 51
359.1656493977
  0
ARC
  5
3EE
100
AcDbEntity
  8
0
100
AcDbCircle
 62
7
  6
CONTINUOUS
 10
561.9841711165
 20
88.1770936096
 40
5.0
100
AcDbArc
 50
330.0
 51
360.0
  0
ARC
  5
3EF
100
AcDbEntity
  8
BEZUGSACHSEN
100
AcDbCircle
 62
7
  6
CONTINUOUS
 10
553.8350965586
 20
104.9669984441
 40
48.5514281978
100
AcDbArc
 50
47.7472394249
 51
47.9427812478
  0
ARC
  5
3F0
100
AcDbEntity
  8
BEZUGSACHSEN
100
AcDbCircle
 62
7
  6
CONTINUOUS
 10
542.9006422934
 20
139.9094463589
 40
44.6357618349
100
AcDbArc
 50
0.019863818
 51
0.3467043785
  0
ARC
  5
3F1
100
AcDbEntity
  8
BEZUGSACHSEN
100
AcDbCircle
 62
7
  6
CONTINUOUS
 10
544.29725175
 20
139.3124440273
 40
43.4301270187
100
AcDbArc
 50
0.0204160594
 51
0.3563299453
  0
ARC
  5
3F2
100
AcDbEntity
  8
BEZUGSACHSEN
100
AcDbCircle
 62
7
  6
CONTINUOUS
 10
558.9160798809
 20
112.924308088
 40
38.8217872371
100
AcDbArc
 50
42.303327566
 51
42.5901006247
  0
ARC
  5
3F3
100
AcDbEntity
  8
BEZUGSACHSEN
100
AcDbCircle
 62
7
  6
CONTINUOUS
 10
561.6486689107
 20
141.9728541925
 40
26.0700571016
100
AcDbArc
 50
358.022725492
 51
0.6199857721
  0
ARC
  5
3F4
100
AcDbEntity
  8
KONSTRUKTIONSELEMENTE
100
AcDbCircle
 62
7
  6
CONTINUOUS
 10
535.613220597
 20
114.7061430902
 40
8.25
100
AcDbArc
 50
66.346698243
 51
135.0
  0
ARC
  5
3F5
100
AcDbEntity
  8
KONSTRUKTIONSELEMENTE
100
AcDbCircle
 62
7
  6
CONTINUOUS
 10
535.613220597
 20
114.7061430902
 40
8.25
100
AcDbArc
 50
315.0
 51
23.653301757
  0
ARC
  5
3F6
100
AcDbEntity
  8
KONSTRUKTIONSELEMENTE
100
AcDbCircle
 62
7
  6
CONTINUOUS
 10
535.613220597
 20
114.7061430902
 40
3.25
100
AcDbArc
 50
112.8065550031
 51
135.0
  0
ARC
  5
3F7
100
AcDbEntity
  8
KONSTRUKTIONSELEMENTE
100
AcDbCircle
 62
7
  6
CONTINUOUS
 10
535.613220597
 20
114.7061430902
 40
3.25
100
AcDbArc
 50
315.0
 51
337.1934449969
  0
ARC
  5
3F8
100
AcDbEntity
  8
KONSTRUKTIONSELEMENTE
100
AcDbCircle
 62
7
  6
CONTINUOUS
 10
535.4364439017
 20
114.5293663949
 40
3.0
100
AcDbArc
 50
135.0
 51
315.0
  0
ARC
  5
3F9
100
AcDbEntity
  8
0
100
AcDbCircle
 62
7
  6
CONTINUOUS
 10
579.9841711165
 20
68.1770936096
 40
18.0
100
AcDbArc
 50
211.0482219935
 51
328.9517780065
  0
ARC
  5
3FA
100
AcDbEntity
  8
0
100
AcDbCircle
 62
7
  6
CONTINUOUS
 10
571.9841711165
 20
75.4976016853
 40
10.0
100
AcDbArc
 50
150.0
 51
180.0
  0
CIRCLE
  5
3FB
100
AcDbEntity
  8
0
100
AcDbCircle
 62
7
  6
CONTINUOUS
 10
579.9841711165
 20
68.1770936096
 40
7.5
  0
ARC
  5
3FC
100
AcDbEntity
  8
0
100
AcDbCircle
 62
7
  6
CONTINUOUS
 10
566.9841711165
 20
64.5659824985
 40
5.0
100
AcDbArc
 50
180.0
 51
211.0482219935
  0
ARC
  5
3FD
100
AcDbEntity
  8
0
100
AcDbCircle
 62
7
  6
CONTINUOUS
 10
571.9841711165
 20
95.8476924581
 40
5.0
100
AcDbArc
 50
113.9694823178
 51
180.0
  0
ARC
  5
3FE
100
AcDbEntity
  8
0
100
AcDbCircle
 62
7
  6
CONTINUOUS
 10
568.7341711165
 20
103.1577882167
 40
3.0
100
AcDbArc
 50
293.9694823178
 51
353.3969482318
  0
ARC
  5
3FF
100
AcDbEntity
  8
RUNDUNGEN
100
AcDbCircle
 62
7
  6
CONTINUOUS
 10
587.9841711165
 20
75.4976016853
 40
10.0
100
AcDbArc
 50
0.0
 51
30.0
  0
ARC
  5
400
100
AcDbEntity
  8
RUNDUNGEN
100
AcDbCircle
 62
7
  6
CONTINUOUS
 10
592.9841711165
 20
64.5659824985
 40
5.0
100
AcDbArc
 50
328.9517780065
 51
360.0
  0
ARC
  5
401
100
AcDbEntity
  8
KONSTRUKTIONSELEMENTE
100
AcDbCircle
 62
7
  6
CONTINUOUS
 10
597.9841711165
 20
88.1770936096
 40
5.0
100
AcDbArc
 50
180.0
 51
210.0
  0
ARC
  5
402
100
AcDbEntity
  8
KONSTRUKTIONSELEMENTE
100
AcDbCircle
 62
7
  6
CONTINUOUS
 10
587.9841711165
 20
95.8476924581
 40
5.0
100
AcDbArc
 50
0.0
 51
66.0305176822
  0
ARC
  5
403
100
AcDbEntity
  8
RUNDUNGEN
100
AcDbCircle
 62
7
  6
CONTINUOUS
 10
587.9841711165
 20
95.8476924581
 40
5.0
100
AcDbArc
 50
0.0
 51
66.0305176822
  0
ARC
  5
404
100
AcDbEntity
  8
RUNDUNGEN
100
AcDbCircle
 62
7
  6
CONTINUOUS
 10
591.2341711165
 20
103.1577882167
 40
3.0
100
AcDbArc
 50
186.6030517682
 51
246.0305176822
  0
ARC
  5
405
100
AcDbEntity
  8
BEZUGSACHSEN
100
AcDbCircle
 62
7
  6
CONTINUOUS
 10
573.8568254398
 20
136.7143910999
 40
16.2021988402
100
AcDbArc
 50
38.7782359713
 51
39.0362692797
  0
ARC
  5
406
100
AcDbEntity
  8
BEZUGSACHSEN
100
AcDbCircle
 62
7
  6
CONTINUOUS
 10
582.9845194908
 20
140.1778218847
 40
8.1436254187
100
AcDbArc
 50
65.8997019311
 51
66.3588856308
  0
ARC
  5
407
100
AcDbEntity
  8
0
100
AcDbCircle
 62
7
  6
CONTINUOUS
 10
577.7341711165
 20
140.560734023
 40
6.0
100
AcDbArc
 50
166.0
 51
180.0
  0
ARC
  5
408
100
AcDbEntity
  8
BEZUGSACHSEN
100
AcDbCircle
 62
7
  6
CONTINUOUS
 10
582.2341711165
 20
140.560734023
 40
6.0
100
AcDbArc
 50
0.0
 51
14.0
  0
ARC
  5
409
100
AcDbEntity
  8
0
100
AcDbCircle
 62
7
  6
CONTINUOUS
 10
579.9841711165
 20
159.0770936096
 40
47.0
100
AcDbArc
 50
280.1125034942
 51
360.0
  0
ARC
  5
40A
100
AcDbEntity
  8
0
100
AcDbCircle
 62
7
  6
CONTINUOUS
 10
579.9841711165
 20
159.0770936096
 40
47.0
100
AcDbArc
 50
228.6614522173
 51
259.8874965058
  0
ARC
  5
40B
100
AcDbEntity
  8
0
100
AcDbCircle
 62
7
  6
CONTINUOUS
 10
579.9841711165
 20
159.0770936096
 40
47.0
100
AcDbArc
 50
180.0
 51
221.3385477827
  0
ARC
  5
40C
100
AcDbEntity
  8
0
100
AcDbCircle
 62
7
  6
CONTINUOUS
 10
579.9841711165
 20
224.0770936096
 40
47.0
100
AcDbArc
 50
109.912965759
 51
180.0
  0
ARC
  5
40D
100
AcDbEntity
  8
0
100
AcDbCircle
 62
7
  6
CONTINUOUS
 10
579.9841711165
 20
224.0770936096
 40
47.0
100
AcDbArc
 50
0.0
 51
70.087034241
  0
ARC
  5
40E
100
AcDbEntity
  8
BEZUGSACHSEN
100
AcDbCircle
 62
7
  6
CONTINUOUS
 10
541.1921461052
 20
145.0796484919
 40
45.2627103168
100
AcDbArc
 50
354.4100622929
 51
354.7852205869
  0
ARC
  5
40F
100
AcDbEntity
  8
KONSTRUKTIONSELEMENTE
100
AcDbCircle
 62
7
  6
CONTINUOUS
 10
540.7946336551
 20
145.2201089158
 40
45.1303887946
100
AcDbArc
 50
354.2144122837
 51
354.590793885
  0
ARC
  5
410
100
AcDbEntity
  8
BEZUGSACHSEN
100
AcDbCircle
 62
7
  6
CONTINUOUS
 10
554.5133459167
 20
147.2213286935
 40
31.7094147743
100
AcDbArc
 50
358.3746224325
 51
0.5098653478
  0
ARC
  5
411
100
AcDbEntity
  8
KONSTRUKTIONSELEMENTE
100
AcDbCircle
 62
7
  6
CONTINUOUS
 10
554.2721695971
 20
147.3069004612
 40
31.4239258458
100
AcDbArc
 50
358.2037570356
 51
0.3584686019
  0
ARC
  5
412
100
AcDbEntity
  8
BEZUGSACHSEN
100
AcDbCircle
 62
7
  6
CONTINUOUS
 10
555.4534844479
 20
146.5511632456
 40
30.9602531478
100
AcDbArc
 50
358.8823689344
 51
0.5224573153
  0
ARC
  5
413
100
AcDbEntity
  8
BEZUGSACHSEN
100
AcDbCircle
 62
7
  6
CONTINUOUS
 10
556.8863602229
 20
146.4640816027
 40
30.1439342659
100
AcDbArc
 50
348.24468337
 51
348.5224074134
  0
ARC
  5
414
100
AcDbEntity
  8
BEZUGSACHSEN
100
AcDbCircle
 62
7
  6
CONTINUOUS
 10
560.7716068369
 20
142.6426751235
 40
26.7561489239
100
AcDbArc
 50
358.7067104944
 51
0.6045311263
  0
ARC
  5
415
100
AcDbEntity
  8
0
100
AcDbCircle
 62
7
  6
CONTINUOUS
 10
579.9841711165
 20
159.0770936096
 40
25.0
100
AcDbArc
 50
289.2779891846
 51
360.0
  0
ARC
  5
416
100
AcDbEntity
  8
0
100
AcDbCircle
 62
7
  6
CONTINUOUS
 10
579.9841711165
 20
159.0770936096
 40
25.0
100
AcDbArc
 50
231.895521053
 51
250.7220108154
  0
ARC
  5
417
100
AcDbEntity
  8
0
100
AcDbCircle
 62
7
  6
CONTINUOUS
 10
579.9841711165
 20
159.0770936096
 40
25.0
100
AcDbArc
 50
180.0
 51
218.104478947
  0
ARC
  5
418
100
AcDbEntity
  8
0
100
AcDbCircle
 62
7
  6
CONTINUOUS
 10
579.9841711165
 20
224.0770936096
 40
25.0
100
AcDbArc
 50
129.7967959179
 51
180.0
  0
ARC
  5
419
100
AcDbEntity
  8
0
100
AcDbCircle
 62
7
  6
CONTINUOUS
 10
579.9841711165
 20
224.0770936096
 40
25.0
100
AcDbArc
 50
0.0
 51
50.2032040821
  0
ARC
  5
41A
100
AcDbEntity
  8
BEZUGSACHSEN
100
AcDbCircle
 62
7
  6
CONTINUOUS
 10
566.6414299475
 20
142.3849388525
 40
21.3063955071
100
AcDbArc
 50
351.3046476556
 51
351.7507909314
  0
ARC
  5
41B
100
AcDbEntity
  8
BEZUGSACHSEN
100
AcDbCircle
 62
7
  6
CONTINUOUS
 10
570.0796200141
 20
143.4974926094
 40
17.8186001304
100
AcDbArc
 50
347.9243931905
 51
348.3066742045
  0
ARC
  5
41C
100
AcDbEntity
  8
KONSTRUKTIONSELEMENTE
100
AcDbCircle
 62
7
  6
CONTINUOUS
 10
577.6340697471
 20
156.0479967202
 40
17.1149667042
100
AcDbArc
 50
298.2086946707
 51
298.5575363162
  0
ARC
  5
41D
100
AcDbEntity
  8
BEZUGSACHSEN
100
AcDbCircle
 62
7
  6
CONTINUOUS
 10
578.3395464326
 20
155.6136027807
 40
16.655701722
100
AcDbArc
 50
298.4239049832
 51
298.7798529253
  0
ARC
  5
41E
100
AcDbEntity
  8
0
100
AcDbCircle
 62
7
  6
CONTINUOUS
 10
579.9841711165
 20
233.0770936096
 40
16.0
100
AcDbArc
 50
180.0
 51
360.0
  0
ARC
  5
41F
100
AcDbEntity
  8
BEZUGSACHSEN
100
AcDbCircle
 62
7
  6
CONTINUOUS
 10
572.0459663748
 20
143.4377674247
 40
15.6680602898
100
AcDbArc
 50
2.0088651568
 51
2.8440461574
  0
ARC
  5
420
100
AcDbEntity
  8
BEZUGSACHSEN
100
AcDbCircle
 62
7
  6
CONTINUOUS
 10
576.488184865
 20
149.6480017175
 40
9.966765019
100
AcDbArc
 50
347.5747859074
 51
348.3653143142
  0
ARC
  5
421
100
AcDbEntity
  8
KONSTRUKTIONSELEMENTE
100
AcDbCircle
 62
7
  6
CONTINUOUS
 10
576.0146249738
 20
149.6833567312
 40
9.9232419386
100
AcDbArc
 50
347.3102508344
 51
348.1050305776
  0
ARC
  5
422
100
AcDbEntity
  8
BEZUGSACHSEN
100
AcDbCircle
 62
7
  6
CONTINUOUS
 10
582.449219511
 20
145.2789539385
 40
8.0981174572
100
AcDbArc
 50
309.7582069273
 51
310.3696095304
  0
ARC
  5
423
100
AcDbEntity
  8
BEZUGSACHSEN
100
AcDbCircle
 62
7
  6
CONTINUOUS
 10
580.0425445973
 20
149.0770367205
 40
6.7534640335
100
AcDbArc
 50
340.5970771391
 51
341.3621965038
  0
ARC
  5
424
100
AcDbEntity
  8
KONSTRUKTIONSELEMENTE
100
AcDbCircle
 62
7
  6
CONTINUOUS
 10
564.4278219304
 20
143.5207444235
 40
3.0
100
AcDbArc
 50
315.0
 51
135.0
  0
ARC
  5
425
100
AcDbEntity
  8
0
100
AcDbCircle
 62
7
  6
CONTINUOUS
 10
579.9841711165
 20
615.0770936096
 40
16.0
100
AcDbArc
 50
0.0
 51
180.0
  0
SPLINE
  5
426
100
AcDbEntity
  8
KONSTRUKTIONSELEMENTE
100
AcDbSpline
 62
7
  6
CONTINUOUS
 70
0
 71
3
 72
10
 73
6
 74
0
 42
0.0000001
 43
0.0000001
 44
0.0000000001
 40
0.0
 40
0.0
 40
0.0
 40
0.0
 40
0.2404326244
 40
0.4871466718
 40
1.0
 40
1.0
 40
1.0
 40
1.0
 10
219.5470253057
 20
75.984364252
 30
0.0
 10
219.2833169058
 20
76.3483146113
 30
0.0
 10
218.6646930551
 20
77.0277943988
 30
0.0
 10
217.1529202471
 20
78.1409970177
 30
0.0
 10
215.7967234209
 20
78.6638148852
 30
0.0
 10
214.8617728627
 20
78.8758324255
 30
0.0
  0
SPLINE
  5
427
100
AcDbEntity
  8
KONSTRUKTIONSELEMENTE
100
AcDbSpline
 62
7
  6
CONTINUOUS
 70
0
 71
3
 72
10
 73
6
 74
0
 42
0.0000001
 43
0.0000001
 44
0.0000000001
 40
0.0
 40
0.0
 40
0.0
 40
0.0
 40
0.5128755823
 40
0.7595782525
 40
1.0
 40
1.0
 40
1.0
 40
1.0
 10
210.3554897634
 20
78.8762636378
 30
0.0
 10
209.4201055751
 20
78.6643035635
 30
0.0
 10
208.0632518515
 20
78.1415480578
 30
0.0
 10
206.5508038392
 20
77.0280135315
 30
0.0
 10
205.9320080054
 20
76.3482704134
 30
0.0
 10
205.6681994258
 20
75.9842043733
 30
0.0
  0
SPLINE
  5
428
100
AcDbEntity
  8
KONSTRUKTIONSELEMENTE
100
AcDbSpline
 62
7
  6
CONTINUOUS
 70
0
 71
3
 72
10
 73
6
 74
0
 42
0.0000001
 43
0.0000001
 44
0.0000000001
 40
0.0
 40
0.0
 40
0.0
 40
0.0
 40
0.2405304887
 40
0.4871178604
 40
1.0
 40
1.0
 40
1.0
 40
1.0
 10
205.5058567998
 20
59.2650224498
 30
0.0
 10
205.753148606
 20
58.8867336029
 30
0.0
 10
206.3445263133
 20
58.1765673314
 30
0.0
 10
207.8214629406
 20
57.0009452642
 30
0.0
 10
209.1703391482
 20
56.4354260647
 30
0.0
 10
210.1042362063
 20
56.1976812448
 30
0.0
  0
SPLINE
  5
429
100
AcDbEntity
  8
KONSTRUKTIONSELEMENTE
100
AcDbSpline
 62
7
  6
CONTINUOUS
 70
0
 71
3
 72
10
 73
6
 74
0
 42
0.0000001
 43
0.0000001
 44
0.0000000001
 40
0.0
 40
0.0
 40
0.0
 40
0.0
 40
0.5129092974
 40
0.7594793488
 40
1.0
 40
1.0
 40
1.0
 40
1.0
 10
215.1119883447
 20
56.1979284344
 30
0.0
 10
216.0467182238
 20
56.4359951004
 30
0.0
 10
217.3967313665
 20
57.0023223962
 30
0.0
 10
218.8743012481
 20
58.1798364103
 30
0.0
 10
219.4655238577
 20
58.8911233643
 30
0.0
 10
219.7126896003
 20
59.2699403896
 30
0.0
  0
SPLINE
  5
42A
100
AcDbEntity
  8
KONSTRUKTIONSELEMENTE
100
AcDbSpline
 62
7
  6
CONTINUOUS
 70
0
 71
3
 72
10
 73
6
 74
0
 42
0.0000001
 43
0.0000001
 44
0.0000000001
 40
0.0
 40
0.0
 40
0.0
 40
0.0
 40
0.3192646009
 40
0.6086079864
 40
1.0
 40
1.0
 40
1.0
 40
1.0
 10
216.1076605422
 20
103.9227646771
 30
0.0
 10
216.1076605422
 20
104.0945044523
 30
0.0
 10
215.9656447556
 20
104.4153556672
 30
0.0
 10
215.599838741
 20
104.8087080066
 30
0.0
 10
215.2965509082
 20
105.0217479199
 30
0.0
 10
215.1140146072
 20
105.1266625163
 30
0.0
  0
SPLINE
  5
42B
100
AcDbEntity
  8
KONSTRUKTIONSELEMENTE
100
AcDbSpline
 62
7
  6
CONTINUOUS
 70
0
 71
3
 72
10
 73
6
 74
0
 42
0.0000001
 43
0.0000001
 44
0.0000000001
 40
0.0
 40
0.0
 40
0.0
 40
0.0
 40
0.3914026107
 40
0.6807340322
 40
1.0
 40
1.0
 40
1.0
 40
1.0
 10
210.1012149411
 20
105.1266100452
 30
0.0
 10
209.9186876977
 20
105.0216946357
 30
0.0
 10
209.6154481169
 20
104.8086355642
 30
0.0
 10
209.2496274123
 20
104.4153372036
 30
0.0
 10
209.1076605422
 20
104.0944944627
 30
0.0
 10
209.1076605422
 20
103.9227646771
 30
0.0
  0
SPLINE
  5
42C
100
AcDbEntity
  8
KONSTRUKTIONSELEMENTE
100
AcDbSpline
 62
7
  6
CONTINUOUS
 70
0
 71
3
 72
13
 73
9
 74
0
 42
0.0000001
 43
0.0000001
 44
0.0000000001
 40
0.0
 40
0.0
 40
0.0
 40
0.0
 40
0.1194170292
 40
0.2394581772
 40
0.3607170904
 40
0.4836657514
 40
0.7362769235
 40
1.0
 40
1.0
 40
1.0
 40
1.0
 10
220.5918464996
 20
104.3248155648
 30
0.0
 10
220.5657682273
 20
104.6562038649
 30
0.0
 10
220.4485275838
 20
105.3173803817
 30
0.0
 10
220.0868052905
 20
106.2599151141
 30
0.0
 10
219.5578504999
 20
107.1311322627
 30
0.0
 10
218.6480274817
 20
108.1800800096
 30
0.0
 10
217.181682399
 20
109.2335930591
 30
0.0
 10
215.8225016796
 20
109.7474406286
 30
0.0
 10
215.1110848781
 20
109.9285480193
 30
0.0
  0
SPLINE
  5
42D
100
AcDbEntity
  8
KONSTRUKTIONSELEMENTE
100
AcDbSpline
 62
7
  6
CONTINUOUS
 70
0
 71
3
 72
13
 73
9
 74
0
 42
0.0000001
 43
0.0000001
 44
0.0000000001
 40
0.0
 40
0.0
 40
0.0
 40
0.0
 40
0.263725901
 40
0.5163199094
 40
0.6392650208
 40
0.7605061008
 40
0.88055945
 40
1.0
 40
1.0
 40
1.0
 40
1.0
 10
210.1033327397
 20
109.9283008297
 30
0.0
 10
209.3920072022
 20
109.7471330903
 30
0.0
 10
208.0330611389
 20
109.2332588894
 30
0.0
 10
206.5669713627
 20
108.1798021728
 30
0.0
 10
205.6574299751
 20
107.1309714445
 30
0.0
 10
205.1284314232
 20
106.2599429004
 30
0.0
 10
204.7668310896
 20
105.3174188234
 30
0.0
 10
204.6495779678
 20
104.6562263201
 30
0.0
 10
204.6234851373
 20
104.3248104756
 30
0.0
  0
SPLINE
  5
42E
100
AcDbEntity
  8
KONSTRUKTIONSELEMENTE
100
AcDbSpline
 62
7
  6
CONTINUOUS
 70
0
 71
3
 72
9
 73
5
 74
0
 42
0.0000001
 43
0.0000001
 44
0.0000000001
 40
0.0
 40
0.0
 40
0.0
 40
0.0
 40
0.4893425855
 40
1.0
 40
1.0
 40
1.0
 40
1.0
 10
206.5078037604
 20
89.1987547126
 30
0.0
 10
207.0280531182
 20
88.7167662843
 30
0.0
 10
208.2485482929
 20
87.8948514339
 30
0.0
 10
209.6317767974
 20
87.4140720198
 30
0.0
 10
210.3535482217
 20
87.2503968386
 30
0.0
  0
SPLINE
  5
42F
100
AcDbEntity
  8
KONSTRUKTIONSELEMENTE
100
AcDbSpline
 62
7
  6
CONTINUOUS
 70
0
 71
3
 72
9
 73
5
 74
0
 42
0.0000001
 43
0.0000001
 44
0.0000000001
 40
0.0
 40
0.0
 40
0.0
 40
0.0
 40
0.5106765564
 40
1.0
 40
1.0
 40
1.0
 40
1.0
 10
214.859831321
 20
87.2499656263
 30
0.0
 10
215.581658912
 20
87.4135333151
 30
0.0
 10
216.9650019497
 20
87.8939788538
 30
0.0
 10
218.1857001987
 20
88.7155942649
 30
0.0
 10
218.7060721122
 20
89.197414155
 30
0.0
  0
SPLINE
  5
430
100
AcDbEntity
  8
KONSTRUKTIONSELEMENTE
100
AcDbSpline
 62
7
  6
CONTINUOUS
 70
0
 71
3
 72
9
 73
5
 74
0
 42
0.0000001
 43
0.0000001
 44
0.0000000001
 40
0.0
 40
0.0
 40
0.0
 40
0.0
 40
0.2404990325
 40
1.0
 40
1.0
 40
1.0
 40
1.0
 10
209.9983654209
 20
92.1738305614
 30
0.0
 10
210.0260767363
 20
92.1565800994
 30
0.0
 10
210.1423704156
 20
92.0865779597
 30
0.0
 10
210.2626884051
 20
92.0233186586
 30
0.0
 10
210.3556686539
 20
91.9788106639
 30
0.0
  0
SPLINE
  5
431
100
AcDbEntity
  8
KONSTRUKTIONSELEMENTE
100
AcDbSpline
 62
7
  6
CONTINUOUS
 70
0
 71
3
 72
9
 73
5
 74
0
 42
0.0000001
 43
0.0000001
 44
0.0000000001
 40
0.0
 40
0.0
 40
0.0
 40
0.0
 40
0.2593015787
 40
1.0
 40
1.0
 40
1.0
 40
1.0
 10
214.8594097777
 20
91.9786987359
 30
0.0
 10
214.8911752664
 20
91.9939012518
 30
0.0
 10
215.0129092511
 20
92.0541155681
 30
0.0
 10
215.1315483858
 20
92.1206628112
 30
0.0
 10
215.2169473837
 20
92.1738260336
 30
0.0
  0
SPLINE
  5
432
100
AcDbEntity
  8
KONSTRUKTIONSELEMENTE
100
AcDbSpline
 62
7
  6
CONTINUOUS
 70
0
 71
3
 72
9
 73
5
 74
0
 42
0.0000001
 43
0.0000001
 44
0.0000000001
 40
0.0
 40
0.0
 40
0.0
 40
0.0
 40
0.231757029
 40
1.0
 40
1.0
 40
1.0
 40
1.0
 10
197.4751430953
 20
123.3250390295
 30
0.0
 10
197.7698715737
 20
122.9918549246
 30
0.0
 10
199.1225364401
 20
121.6260699255
 30
0.0
 10
200.7563985509
 20
120.5551496892
 30
0.0
 10
202.0737668755
 20
119.8926758598
 30
0.0
  0
SPLINE
  5
433
100
AcDbEntity
  8
KONSTRUKTIONSELEMENTE
100
AcDbSpline
 62
7
  6
CONTINUOUS
 70
0
 71
3
 72
9
 73
5
 74
0
 42
0.0000001
 43
0.0000001
 44
0.0000000001
 40
0.0
 40
0.0
 40
0.0
 40
0.0
 40
0.2686941333
 40
1.0
 40
1.0
 40
1.0
 40
1.0
 10
223.1426624801
 20
119.8932278585
 30
0.0
 10
223.6033792081
 20
120.1249456418
 30
0.0
 10
225.2809152961
 20
121.0558455263
 30
0.0
 10
226.8118443334
 20
122.2751531581
 30
0.0
 10
227.741599196
 20
123.3266514951
 30
0.0
  0
SPLINE
  5
434
100
AcDbEntity
  8
KONSTRUKTIONSELEMENTE
100
AcDbSpline
 62
7
  6
CONTINUOUS
 70
0
 71
3
 72
9
 73
5
 74
0
 42
0.0000001
 43
0.0000001
 44
0.0000000001
 40
0.0
 40
0.0
 40
0.0
 40
0.0
 40
0.4866272252
 40
1.0
 40
1.0
 40
1.0
 40
1.0
 10
196.7623799446
 20
116.0611525125
 30
0.0
 10
198.6674265522
 20
114.7735102516
 30
0.0
 10
203.0012561322
 20
112.7253052315
 30
0.0
 10
207.6873682044
 20
111.8178006875
 30
0.0
 10
210.1056663601
 20
111.62750237
 30
0.0
  0
SPLINE
  5
435
100
AcDbEntity
  8
KONSTRUKTIONSELEMENTE
100
AcDbSpline
 62
7
  6
CONTINUOUS
 70
0
 71
3
 72
9
 73
5
 74
0
 42
0.0000001
 43
0.0000001
 44
0.0000000001
 40
0.0
 40
0.0
 40
0.0
 40
0.0
 40
0.5133870922
 40
1.0
 40
1.0
 40
1.0
 40
1.0
 10
215.1089811924
 20
111.6274420374
 30
0.0
 10
217.5286010228
 20
111.8177770176
 30
0.0
 10
222.2171528223
 20
112.7259565527
 30
0.0
 10
226.5529066776
 20
114.776083343
 30
0.0
 10
228.4585009373
 20
116.0649149223
 30
0.0
  0
SPLINE
  5
436
100
AcDbEntity
  8
BEZUGSACHSEN
100
AcDbSpline
 62
7
  6
CONTINUOUS
 70
0
 71
3
 72
9
 73
5
 74
0
 42
0.0000001
 43
0.0000001
 44
0.0000000001
 40
0.0
 40
0.0
 40
0.0
 40
0.0
 40
0.4734684586
 40
1.0
 40
1.0
 40
1.0
 40
1.0
 10
217.5052761931
 20
46.2916929164
 30
0.0
 10
217.218630556
 20
45.8951507717
 30
0.0
 10
216.4424081852
 20
45.1777817966
 30
0.0
 10
215.497359502
 20
44.7276980713
 30
0.0
 10
214.9819372309
 20
44.5532803722
 30
0.0
  0
SPLINE
  5
437
100
AcDbEntity
  8
BEZUGSACHSEN
100
AcDbSpline
 62
7
  6
CONTINUOUS
 70
0
 71
3
 72
9
 73
5
 74
0
 42
0.0000001
 43
0.0000001
 44
0.0000000001
 40
0.0
 40
0.0
 40
0.0
 40
0.0
 40
0.5265315414
 40
1.0
 40
1.0
 40
1.0
 40
1.0
 10
210.2333838535
 20
44.5532803722
 30
0.0
 10
209.7179615824
 20
44.7276980713
 30
0.0
 10
208.7729128992
 20
45.1777817966
 30
0.0
 10
207.9966905284
 20
45.8951507717
 30
0.0
 10
207.7100448913
 20
46.2916929164
 30
0.0
  0
SPLINE
  5
438
100
AcDbEntity
  8
KONSTRUKTIONSELEMENTE
100
AcDbSpline
 62
7
  6
CONTINUOUS
 70
0
 71
3
 72
13
 73
9
 74
0
 42
0.0000001
 43
0.0000001
 44
0.0000000001
 40
0.0
 40
0.0
 40
0.0
 40
0.0
 40
0.1035698708
 40
0.2118852886
 40
0.327021228
 40
0.4498249804
 40
0.7159005812
 40
1.0
 40
1.0
 40
1.0
 40
1.0
 10
206.6673350902
 20
-24.5499664434
 30
0.0
 10
206.6355456737
 20
-24.3228790022
 30
0.0
 10
206.5086822223
 20
-23.8650911802
 30
0.0
 10
206.1494342145
 20
-23.2295231217
 30
0.0
 10
205.634340682
 20
-22.6545084866
 30
0.0
 10
204.7418853961
 20
-21.9754963598
 30
0.0
 10
203.3452172102
 20
-21.3898849421
 30
0.0
 10
202.1216512054
 20
-21.235135593
 30
0.0
 10
201.4926605422
 20
-21.235135593
 30
0.0
  0
SPLINE
  5
439
100
AcDbEntity
  8
KONSTRUKTIONSELEMENTE
100
AcDbSpline
 62
7
  6
CONTINUOUS
 70
0
 71
3
 72
9
 73
5
 74
0
 42
0.0000001
 43
0.0000001
 44
0.0000000001
 40
0.0
 40
0.0
 40
0.0
 40
0.0
 40
0.4892987036
 40
1.0
 40
1.0
 40
1.0
 40
1.0
 10
179.1271604981
 20
21.8632946191
 30
0.0
 10
179.1271882255
 20
21.9640326082
 30
0.0
 10
179.0944584432
 20
22.1710610515
 30
0.0
 10
179.0023472786
 20
22.3585561306
 30
0.0
 10
178.9444624054
 20
22.4463324852
 30
0.0
  0
SPLINE
  5
43A
100
AcDbEntity
  8
KONSTRUKTIONSELEMENTE
100
AcDbSpline
 62
7
  6
CONTINUOUS
 70
0
 71
3
 72
11
 73
7
 74
0
 42
0.0000001
 43
0.0000001
 44
0.0000000001
 40
0.0
 40
0.0
 40
0.0
 40
0.0
 40
0.2200436456
 40
0.4557793627
 40
0.7157728079
 40
1.0
 40
1.0
 40
1.0
 40
1.0
 10
169.8855670677
 20
22.1642746701
 30
0.0
 10
169.8856031737
 20
22.2954532246
 30
0.0
 10
169.9432121017
 20
22.5696262121
 30
0.0
 10
170.1841719226
 20
22.9315870533
 30
0.0
 10
170.5515891905
 20
23.2260046565
 30
0.0
 10
170.8505403244
 20
23.3605775688
 30
0.0
 10
171.0114597348
 20
23.4136374145
 30
0.0
  0
SPLINE
  5
43B
100
AcDbEntity
  8
KONSTRUKTIONSELEMENTE
100
AcDbSpline
 62
7
  6
CONTINUOUS
 70
0
 71
3
 72
11
 73
7
 74
0
 42
0.0000001
 43
0.0000001
 44
0.0000000001
 40
0.0
 40
0.0
 40
0.0
 40
0.0
 40
0.2200599668
 40
0.4557760239
 40
0.7157731965
 40
1.0
 40
1.0
 40
1.0
 40
1.0
 10
161.2456987389
 20
36.4383358571
 30
0.0
 10
161.245746053
 20
36.8757051541
 30
0.0
 10
161.4374128335
 20
37.7898433185
 30
0.0
 10
162.2406326831
 20
38.9967282687
 30
0.0
 10
163.4655120859
 20
39.9782954411
 30
0.0
 10
164.4621718578
 20
40.4270057868
 30
0.0
 10
164.9986611579
 20
40.6039020321
 30
0.0
  0
SPLINE
  5
43C
100
AcDbEntity
  8
KONSTRUKTIONSELEMENTE
100
AcDbSpline
 62
7
  6
CONTINUOUS
 70
0
 71
3
 72
9
 73
5
 74
0
 42
0.0000001
 43
0.0000001
 44
0.0000000001
 40
0.0
 40
0.0
 40
0.0
 40
0.0
 40
0.4891681133
 40
1.0
 40
1.0
 40
1.0
 40
1.0
 10
161.2456989991
 20
32.9026481617
 30
0.0
 10
161.2456794082
 20
32.5671305648
 30
0.0
 10
161.3547636591
 20
31.8774264028
 30
0.0
 10
161.661787313
 20
31.2528665244
 30
0.0
 10
161.8546792435
 20
30.960366091
 30
0.0
  0
SPLINE
  5
43D
100
AcDbEntity
  8
KONSTRUKTIONSELEMENTE
100
AcDbSpline
 62
7
  6
CONTINUOUS
 70
0
 71
3
 72
9
 73
5
 74
0
 42
0.0000001
 43
0.0000001
 44
0.0000000001
 40
0.0
 40
0.0
 40
0.0
 40
0.0
 40
0.4891683995
 40
1.0
 40
1.0
 40
1.0
 40
1.0
 10
236.4014127168
 20
-10.9394651903
 30
0.0
 10
236.4013764182
 20
-10.6039225968
 30
0.0
 10
236.5104463007
 20
-9.9141615914
 30
0.0
 10
236.8174871401
 20
-9.2895512216
 30
0.0
 10
237.0103932213
 20
-8.9970293301
 30
0.0
  0
SPLINE
  5
43E
100
AcDbEntity
  8
KONSTRUKTIONSELEMENTE
100
AcDbSpline
 62
7
  6
CONTINUOUS
 70
0
 71
3
 72
9
 73
5
 74
0
 42
0.0000001
 43
0.0000001
 44
0.0000000001
 40
0.0
 40
0.0
 40
0.0
 40
0.0
 40
0.4694103614
 40
1.0
 40
1.0
 40
1.0
 40
1.0
 10
236.902401269
 20
-9.173383283
 30
0.0
 10
237.22868753
 20
-9.7263983591
 30
0.0
 10
238.21265261
 20
-10.7380690057
 30
0.0
 10
239.4650955249
 20
-11.3422217708
 30
0.0
 10
240.1543751358
 20
-11.5694974593
 30
0.0
  0
SPLINE
  5
43F
100
AcDbEntity
  8
KONSTRUKTIONSELEMENTE
100
AcDbSpline
 62
7
  6
CONTINUOUS
 70
0
 71
3
 72
11
 73
7
 74
0
 42
0.0000001
 43
0.0000001
 44
0.0000000001
 40
0.0
 40
0.0
 40
0.0
 40
0.0
 40
0.2094829334
 40
0.4446557434
 40
0.7120095299
 40
1.0
 40
1.0
 40
1.0
 40
1.0
 10
204.0926605422
 20
-37.7814342727
 30
0.0
 10
204.0926605422
 20
-37.9641636863
 30
0.0
 10
204.2113342003
 20
-38.3566254241
 30
0.0
 10
204.6657130879
 20
-38.8060370625
 30
0.0
 10
205.3039800162
 20
-39.094612378
 30
0.0
 10
205.7914499596
 20
-39.160292496
 30
0.0
 10
206.0426605422
 20
-39.160292496
 30
0.0
  0
SPLINE
  5
440
100
AcDbEntity
  8
KONSTRUKTIONSELEMENTE
100
AcDbSpline
 62
7
  6
CONTINUOUS
 70
0
 71
3
 72
10
 73
6
 74
0
 42
0.0000001
 43
0.0000001
 44
0.0000000001
 40
0.0
 40
0.0
 40
0.0
 40
0.0
 40
0.2210513433
 40
0.4578290806
 40
1.0
 40
1.0
 40
1.0
 40
1.0
 10
248.1879719782
 20
-14.5112761207
 30
0.0
 10
248.1879745453
 20
-14.4675350288
 30
0.0
 10
248.1687821718
 20
-14.3760723838
 30
0.0
 10
248.057332754
 20
-14.2084393508
 30
0.0
 10
247.914563567
 20
-14.1282590145
 30
0.0
 10
247.8126759362
 20
-14.0946636766
 30
0.0
  0
SPLINE
  5
441
100
AcDbEntity
  8
BEZUGSACHSEN
100
AcDbSpline
 62
7
  6
CONTINUOUS
 70
0
 71
3
 72
9
 73
5
 74
0
 42
0.0000001
 43
0.0000001
 44
0.0000000001
 40
0.0
 40
0.0
 40
0.0
 40
0.0
 40
0.2459387646
 40
1.0
 40
1.0
 40
1.0
 40
1.0
 10
219.36955273
 20
54.0723903891
 30
0.0
 10
219.0298568634
 20
54.1843980719
 30
0.0
 10
217.6363532575
 20
54.6019666857
 30
0.0
 10
216.199111394
 20
54.8712711208
 30
0.0
 10
215.1092346916
 20
54.993264405
 30
0.0
  0
SPLINE
  5
442
100
AcDbEntity
  8
BEZUGSACHSEN
100
AcDbSpline
 62
7
  6
CONTINUOUS
 70
0
 71
3
 72
9
 73
5
 74
0
 42
0.0000001
 43
0.0000001
 44
0.0000000001
 40
0.0
 40
0.0
 40
0.0
 40
0.0
 40
0.2536983179
 40
1.0
 40
1.0
 40
1.0
 40
1.0
 10
210.1060863928
 20
54.993264405
 30
0.0
 10
209.7394122403
 20
54.9522214283
 30
0.0
 10
208.2984359258
 20
54.7545296236
 30
0.0
 10
206.8765570596
 20
54.4122716347
 30
0.0
 10
205.8457683543
 20
54.0723903891
 30
0.0
  0
SPLINE
  5
443
100
AcDbEntity
  8
BEZUGSACHSEN
100
AcDbSpline
 62
7
  6
CONTINUOUS
 70
0
 71
3
 72
11
 73
7
 74
0
 42
0.0000001
 43
0.0000001
 44
0.0000000001
 40
0.0
 40
0.0
 40
0.0
 40
0.0
 40
0.221185816
 40
0.4572071684
 40
0.716647289
 40
1.0
 40
1.0
 40
1.0
 40
1.0
 10
207.1076605422
 20
44.5257950574
 30
0.0
 10
207.1076605422
 20
44.8839875651
 30
0.0
 10
207.258875799
 20
45.6308940328
 30
0.0
 10
207.8961973935
 20
46.625948772
 30
0.0
 10
208.8736914216
 20
47.4471444246
 30
0.0
 10
209.6734641385
 20
47.8329779691
 30
0.0
 10
210.1050143264
 20
47.9889367327
 30
0.0
  0
SPLINE
  5
444
100
AcDbEntity
  8
BEZUGSACHSEN
100
AcDbSpline
 62
7
  6
CONTINUOUS
 70
0
 71
3
 72
11
 73
7
 74
0
 42
0.0000001
 43
0.0000001
 44
0.0000000001
 40
0.0
 40
0.0
 40
0.0
 40
0.0
 40
0.283352711
 40
0.5427928316
 40
0.778814184
 40
1.0
 40
1.0
 40
1.0
 40
1.0
 10
215.110306758
 20
47.9889367327
 30
0.0
 10
215.5418569459
 20
47.8329779691
 30
0.0
 10
216.3416296627
 20
47.4471444246
 30
0.0
 10
217.3191236908
 20
46.625948772
 30
0.0
 10
217.9564452854
 20
45.6308940328
 30
0.0
 10
218.1076605422
 20
44.8839875651
 30
0.0
 10
218.1076605422
 20
44.5257950574
 30
0.0
  0
SPLINE
  5
445
100
AcDbEntity
  8
KONSTRUKTIONSELEMENTE
100
AcDbSpline
 62
7
  6
CONTINUOUS
 70
0
 71
3
 72
9
 73
5
 74
0
 42
0.0000001
 43
0.0000001
 44
0.0000000001
 40
0.0
 40
0.0
 40
0.0
 40
0.0
 40
0.5108269807
 40
1.0
 40
1.0
 40
1.0
 40
1.0
 10
277.4990433186
 20
26.2985207668
 30
0.0
 10
277.6919402293
 20
26.591028752
 30
0.0
 10
277.9989698063
 20
27.2156179015
 30
0.0
 10
278.1080367643
 20
27.905342458
 30
0.0
 10
278.1080427422
 20
28.2408753053
 30
0.0
  0
SPLINE
  5
446
100
AcDbEntity
  8
KONSTRUKTIONSELEMENTE
100
AcDbSpline
 62
7
  6
CONTINUOUS
 70
0
 71
3
 72
9
 73
5
 74
0
 42
0.0000001
 43
0.0000001
 44
0.0000000001
 40
0.0
 40
0.0
 40
0.0
 40
0.0
 40
0.5322168521
 40
1.0
 40
1.0
 40
1.0
 40
1.0
 10
276.0858376467
 20
25.243094377
 30
0.0
 10
276.2432518312
 20
25.191190307
 30
0.0
 10
276.5690663594
 20
25.1778060787
 30
0.0
 10
276.8694367046
 20
25.3437882025
 30
0.0
 10
276.9496395784
 20
25.4654074702
 30
0.0
  0
SPLINE
  5
447
100
AcDbEntity
  8
KONSTRUKTIONSELEMENTE
100
AcDbSpline
 62
7
  6
CONTINUOUS
 70
0
 71
3
 72
9
 73
5
 74
0
 42
0.0000001
 43
0.0000001
 44
0.0000000001
 40
0.0
 40
0.0
 40
0.0
 40
0.0
 40
0.2605100871
 40
1.0
 40
1.0
 40
1.0
 40
1.0
 10
248.1270741277
 20
-18.240997786
 30
0.0
 10
248.1368807303
 20
-18.226127099
 30
0.0
 10
248.170906243
 20
-18.1667851796
 30
0.0
 10
248.1879690106
 20
-18.0973747216
 30
0.0
 10
248.1879719782
 20
-18.0468100266
 30
0.0
  0
SPLINE
  5
448
100
AcDbEntity
  8
KONSTRUKTIONSELEMENTE
100
AcDbSpline
 62
7
  6
CONTINUOUS
 70
0
 71
3
 72
11
 73
7
 74
0
 42
0.0000001
 43
0.0000001
 44
0.0000000001
 40
0.0
 40
0.0
 40
0.0
 40
0.0
 40
0.2729767978
 40
0.5353848362
 40
0.7789285996
 40
1.0
 40
1.0
 40
1.0
 40
1.0
 10
242.0116074629
 20
-21.235135593
 30
0.0
 10
242.6209852427
 20
-21.235135593
 30
0.0
 10
243.8197585314
 20
-21.116812924
 30
0.0
 10
245.4915031151
 20
-20.5923125553
 30
0.0
 10
246.9026198214
 20
-19.7593918511
 30
0.0
 10
247.6309189011
 20
-18.9933652822
 30
0.0
 10
247.9026080787
 20
-18.581377067
 30
0.0
  0
SPLINE
  5
449
100
AcDbEntity
  8
KONSTRUKTIONSELEMENTE
100
AcDbSpline
 62
7
  6
CONTINUOUS
 70
0
 71
3
 72
13
 73
9
 74
0
 42
0.0000001
 43
0.0000001
 44
0.0000000001
 40
0.0
 40
0.0
 40
0.0
 40
0.0
 40
0.2870489256
 40
0.5535682914
 40
0.6755020148
 40
0.789331082
 40
0.8965440086
 40
1.0
 40
1.0
 40
1.0
 40
1.0
 10
223.7226605422
 20
-21.235135593
 30
0.0
 10
223.052813495
 20
-21.235135593
 30
0.0
 10
221.7544368742
 20
-21.4095547859
 30
0.0
 10
220.2899741626
 20
-22.0716948863
 30
0.0
 10
219.3910899621
 20
-22.8350703063
 30
0.0
 10
218.8993040886
 20
-23.4754146976
 30
0.0
 10
218.5927224314
 20
-24.1765528267
 30
0.0
 10
218.5226605422
 20
-24.6706696751
 30
0.0
 10
218.5226605422
 20
-24.9120908551
 30
0.0
  0
SPLINE
  5
44A
100
AcDbEntity
  8
KONSTRUKTIONSELEMENTE
100
AcDbSpline
 62
7
  6
CONTINUOUS
 70
0
 71
3
 72
11
 73
7
 74
0
 42
0.0000001
 43
0.0000001
 44
0.0000000001
 40
0.0
 40
0.0
 40
0.0
 40
0.0
 40
0.220058334
 40
0.4557781708
 40
0.71578719
 40
1.0
 40
1.0
 40
1.0
 40
1.0
 10
278.1080427422
 20
31.7764092113
 30
0.0
 10
278.1080505344
 20
32.2137820686
 30
0.0
 10
277.9163394012
 20
33.1279461587
 30
0.0
 10
277.1131168364
 20
34.3348751706
 30
0.0
 10
275.8882033292
 20
35.3164564945
 30
0.0
 10
274.8915326355
 20
35.7651664204
 30
0.0
 10
274.3550614042
 20
35.9420567079
 30
0.0
  0
SPLINE
  5
44B
100
AcDbEntity
  8
KONSTRUKTIONSELEMENTE
100
AcDbSpline
 62
7
  6
CONTINUOUS
 70
0
 71
3
 72
11
 73
7
 74
0
 42
0.0000001
 43
0.0000001
 44
0.0000000001
 40
0.0
 40
0.0
 40
0.0
 40
0.0
 40
0.2879904701
 40
0.5553442566
 40
0.7905170666
 40
1.0
 40
1.0
 40
1.0
 40
1.0
 10
219.1726605422
 20
-39.160292496
 30
0.0
 10
219.4238711248
 20
-39.160292496
 30
0.0
 10
219.9113410682
 20
-39.094612378
 30
0.0
 10
220.5496079964
 20
-38.8060370625
 30
0.0
 10
221.0039868841
 20
-38.3566254241
 30
0.0
 10
221.1226605422
 20
-37.9641636863
 30
0.0
 10
221.1226605422
 20
-37.7814342727
 30
0.0
  0
SPLINE
  5
44C
100
AcDbEntity
  8
KONSTRUKTIONSELEMENTE
100
AcDbSpline
 62
7
  6
CONTINUOUS
 70
0
 71
3
 72
11
 73
7
 74
0
 42
0.0000001
 43
0.0000001
 44
0.0000000001
 40
0.0
 40
0.0
 40
0.0
 40
0.0
 40
0.2820767698
 40
0.5407553301
 40
0.7772666753
 40
1.0
 40
1.0
 40
1.0
 40
1.0
 10
223.7334796073
 20
-21.263749038
 30
0.0
 10
223.3539471109
 20
-21.4178138932
 30
0.0
 10
222.6528990961
 20
-21.7883397802
 30
0.0
 10
221.8024051231
 20
-22.5503465618
 30
0.0
 10
221.2522632229
 20
-23.4566789081
 30
0.0
 10
221.1226605422
 20
-24.1290348705
 30
0.0
 10
221.1226605422
 20
-24.4524714474
 30
0.0
  0
SPLINE
  5
44D
100
AcDbEntity
  8
KONSTRUKTIONSELEMENTE
100
AcDbSpline
 62
7
  6
CONTINUOUS
 70
0
 71
3
 72
11
 73
7
 74
0
 42
0.0000001
 43
0.0000001
 44
0.0000000001
 40
0.0
 40
0.0
 40
0.0
 40
0.0
 40
0.2814501369
 40
0.5397962415
 40
0.77655066
 40
1.0
 40
1.0
 40
1.0
 40
1.0
 10
201.580286239
 20
-21.2342586284
 30
0.0
 10
201.9470420831
 20
-21.390826076
 30
0.0
 10
202.6235555408
 20
-21.763097644
 30
0.0
 10
203.4415134963
 20
-22.5177569386
 30
0.0
 10
203.9688294435
 20
-23.4081763213
 30
0.0
 10
204.0926605422
 20
-24.0654126029
 30
0.0
 10
204.0926605422
 20
-24.3820103911
 30
0.0
  0
SPLINE
  5
44E
100
AcDbEntity
  8
KONSTRUKTIONSELEMENTE
100
AcDbSpline
 62
7
  6
CONTINUOUS
 70
0
 71
3
 72
9
 73
5
 74
0
 42
0.0000001
 43
0.0000001
 44
0.0000000001
 40
0.0
 40
0.0
 40
0.0
 40
0.0
 40
0.5107012964
 40
1.0
 40
1.0
 40
1.0
 40
1.0
 10
170.0682651604
 20
18.9649417135
 30
0.0
 10
170.0103802872
 20
19.0527180682
 30
0.0
 10
169.9182691226
 20
19.2402131473
 30
0.0
 10
169.8855393402
 20
19.4472415905
 30
0.0
 10
169.8855670677
 20
19.5479795797
 30
0.0
  0
SPLINE
  5
44F
100
AcDbEntity
  8
KONSTRUKTIONSELEMENTE
100
AcDbSpline
 62
7
  6
CONTINUOUS
 70
0
 71
3
 72
11
 73
7
 74
0
 42
0.0000001
 43
0.0000001
 44
0.0000000001
 40
0.0
 40
0.0
 40
0.0
 40
0.0
 40
0.2226749471
 40
0.4655437771
 40
0.726559919
 40
1.0
 40
1.0
 40
1.0
 40
1.0
 10
194.5254085415
 20
-18.581377067
 30
0.0
 10
194.7646232644
 20
-18.9441211689
 30
0.0
 10
195.3860115488
 20
-19.6257257471
 30
0.0
 10
196.5816984651
 20
-20.4088459798
 30
0.0
 10
198.0059051723
 20
-20.958695744
 30
0.0
 10
199.0385885872
 20
-21.1466434574
 30
0.0
 10
199.5698821489
 20
-21.1959905617
 30
0.0
  0
SPLINE
  5
450
100
AcDbEntity
  8
KONSTRUKTIONSELEMENTE
100
AcDbSpline
 62
7
  6
CONTINUOUS
 70
0
 71
3
 72
13
 73
9
 74
0
 42
0.0000001
 43
0.0000001
 44
0.0000000001
 40
0.0
 40
0.0
 40
0.0
 40
0.0
 40
0.2198121251
 40
0.3415455497
 40
0.4695397045
 40
0.6018885822
 40
0.736224413
 40
1.0
 40
1.0
 40
1.0
 40
1.0
 10
259.7895175292
 20
25.5451296627
 30
0.0
 10
260.1718455418
 20
26.1248900968
 30
0.0
 10
260.9974521084
 20
26.8799213991
 30
0.0
 10
262.3138913362
 20
27.568196165
 30
0.0
 10
263.4634210383
 20
27.9545457842
 30
0.0
 10
264.6951227599
 20
28.175251212
 30
0.0
 10
266.3730144813
 20
28.2397231222
 30
0.0
 10
267.6360768715
 20
28.0292281434
 30
0.0
 10
268.4275368462
 20
27.7682605943
 30
0.0
  0
SPLINE
  5
451
100
AcDbEntity
  8
KONSTRUKTIONSELEMENTE
100
AcDbSpline
 62
7
  6
CONTINUOUS
 70
0
 71
3
 72
11
 73
7
 74
0
 42
0.0000001
 43
0.0000001
 44
0.0000000001
 40
0.0
 40
0.0
 40
0.0
 40
0.0
 40
0.220058334
 40
0.4557781708
 40
0.71578719
 40
1.0
 40
1.0
 40
1.0
 40
1.0
 10
278.1080427422
 20
28.2408753053
 30
0.0
 10
278.1080505344
 20
28.6782481626
 30
0.0
 10
277.9163394012
 20
29.5924122528
 30
0.0
 10
277.1131168364
 20
30.7993412647
 30
0.0
 10
275.8882033292
 20
31.7809225886
 30
0.0
 10
274.8915326355
 20
32.2296325145
 30
0.0
 10
274.3550614042
 20
32.4065228019
 30
0.0
  0
SPLINE
  5
452
100
AcDbEntity
  8
KONSTRUKTIONSELEMENTE
100
AcDbSpline
 62
7
  6
CONTINUOUS
 70
0
 71
3
 72
9
 73
5
 74
0
 42
0.0000001
 43
0.0000001
 44
0.0000000001
 40
0.0
 40
0.0
 40
0.0
 40
0.0
 40
0.5398499172
 40
1.0
 40
1.0
 40
1.0
 40
1.0
 10
178.001267831
 20
21.0735512825
 30
0.0
 10
178.2600824855
 20
21.1588900592
 30
0.0
 10
178.7219477856
 20
21.396573922
 30
0.0
 10
179.0296929623
 20
21.8361631044
 30
0.0
 10
179.0913352284
 20
22.0601226751
 30
0.0
  0
SPLINE
  5
453
100
AcDbEntity
  8
KONSTRUKTIONSELEMENTE
100
AcDbSpline
 62
7
  6
CONTINUOUS
 70
0
 71
3
 72
11
 73
7
 74
0
 42
0.0000001
 43
0.0000001
 44
0.0000000001
 40
0.0
 40
0.0
 40
0.0
 40
0.0
 40
0.2816064552
 40
0.5417085427
 40
0.7793419382
 40
1.0
 40
1.0
 40
1.0
 40
1.0
 10
176.9024603505
 20
22.7397778758
 30
0.0
 10
177.0498323077
 20
22.7883707292
 30
0.0
 10
177.325430764
 20
22.9096174288
 30
0.0
 10
177.6728632399
 20
23.1692828564
 30
0.0
 10
177.9184245143
 20
23.4869684274
 30
0.0
 10
178.0016320921
 20
23.7318817292
 30
0.0
 10
178.0186781825
 20
23.852272455
 30
0.0
  0
SPLINE
  5
454
100
AcDbEntity
  8
BEZUGSACHSEN
100
AcDbSpline
 62
7
  6
CONTINUOUS
 70
0
 71
3
 72
9
 73
5
 74
0
 42
0.0000001
 43
0.0000001
 44
0.0000000001
 40
0.0
 40
0.0
 40
0.0
 40
0.0
 40
0.2459387646
 40
1.0
 40
1.0
 40
1.0
 40
1.0
 10
219.36955273
 20
50.5368564832
 30
0.0
 10
219.0298568634
 20
50.6488641659
 30
0.0
 10
217.6363532575
 20
51.0664327797
 30
0.0
 10
216.199111394
 20
51.3357372149
 30
0.0
 10
215.1092346916
 20
51.4577304991
 30
0.0
  0
SPLINE
  5
455
100
AcDbEntity
  8
BEZUGSACHSEN
100
AcDbSpline
 62
7
  6
CONTINUOUS
 70
0
 71
3
 72
9
 73
5
 74
0
 42
0.0000001
 43
0.0000001
 44
0.0000000001
 40
0.0
 40
0.0
 40
0.0
 40
0.0
 40
0.2536983179
 40
1.0
 40
1.0
 40
1.0
 40
1.0
 10
210.1060863928
 20
51.4577304991
 30
0.0
 10
209.7394122403
 20
51.4166875224
 30
0.0
 10
208.2984359258
 20
51.2189957176
 30
0.0
 10
206.8765570596
 20
50.8767377288
 30
0.0
 10
205.8457683543
 20
50.5368564832
 30
0.0
  0
SPLINE
  5
456
100
AcDbEntity
  8
KONSTRUKTIONSELEMENTE
100
AcDbSpline
 62
7
  6
CONTINUOUS
 70
0
 71
3
 72
10
 73
6
 74
0
 42
0.0000001
 43
0.0000001
 44
0.0000000001
 40
0.0
 40
0.0
 40
0.0
 40
0.0
 40
0.2210513433
 40
0.4578290806
 40
1.0
 40
1.0
 40
1.0
 40
1.0
 10
248.1879719782
 20
-18.0468100266
 30
0.0
 10
248.1879745453
 20
-18.0030689348
 30
0.0
 10
248.1687821718
 20
-17.9116062898
 30
0.0
 10
248.057332754
 20
-17.7439732568
 30
0.0
 10
247.914563567
 20
-17.6637929204
 30
0.0
 10
247.8126759362
 20
-17.6301975825
 30
0.0
  0
SPLINE
  5
457
100
AcDbEntity
  8
BEZUGSACHSEN
100
AcDbSpline
 62
7
  6
CONTINUOUS
 70
0
 71
3
 72
19
 73
15
 74
0
 42
0.0000001
 43
0.0000001
 44
0.0000000001
 40
0.0
 40
0.0
 40
0.0
 40
0.0
 40
0.0517234907
 40
0.1053372095
 40
0.1622487312
 40
0.2232163938
 40
0.3564752704
 40
0.5
 40
0.6435247296
 40
0.7767836062
 40
0.8377512688
 40
0.8946627905
 40
0.9482765093
 40
1.0
 40
1.0
 40
1.0
 40
1.0
 10
218.1076605422
 20
44.5257950574
 30
0.0
 10
218.1076605422
 20
44.2704688733
 30
0.0
 10
218.033509961
 20
43.747845941
 30
0.0
 10
217.7093241621
 20
43.0062245519
 30
0.0
 10
217.1890520696
 20
42.3289761585
 30
0.0
 10
216.2384852001
 20
41.5215331984
 30
0.0
 10
214.6885047082
 20
40.8212115449
 30
0.0
 10
212.6076605422
 20
40.5410342632
 30
0.0
 10
210.5268163762
 20
40.8212115449
 30
0.0
 10
208.9768358842
 20
41.5215331984
 30
0.0
 10
208.0262690147
 20
42.3289761585
 30
0.0
 10
207.5059969223
 20
43.0062245519
 30
0.0
 10
207.1818111234
 20
43.747845941
 30
0.0
 10
207.1076605422
 20
44.2704688733
 30
0.0
 10
207.1076605422
 20
44.5257950574
 30
0.0
  0
SPLINE
  5
458
100
AcDbEntity
  8
KONSTRUKTIONSELEMENTE
100
AcDbSpline
 62
7
  6
CONTINUOUS
 70
0
 71
3
 72
11
 73
7
 74
0
 42
0.0000001
 43
0.0000001
 44
0.0000000001
 40
0.0
 40
0.0
 40
0.0
 40
0.0
 40
0.2200436456
 40
0.4557793627
 40
0.7157728079
 40
1.0
 40
1.0
 40
1.0
 40
1.0
 10
169.8855670677
 20
19.5479795797
 30
0.0
 10
169.8856031737
 20
19.6791581342
 30
0.0
 10
169.9432121017
 20
19.9533311217
 30
0.0
 10
170.1841719226
 20
20.3152919629
 30
0.0
 10
170.5515891905
 20
20.6097095661
 30
0.0
 10
170.8505403244
 20
20.7442824784
 30
0.0
 10
171.0114597348
 20
20.7973423241
 30
0.0
  0
SPLINE
  5
459
100
AcDbEntity
  8
KONSTRUKTIONSELEMENTE
100
AcDbSpline
 62
7
  6
CONTINUOUS
 70
0
 71
3
 72
11
 73
7
 74
0
 42
0.0000001
 43
0.0000001
 44
0.0000000001
 40
0.0
 40
0.0
 40
0.0
 40
0.0
 40
0.2842240174
 40
0.5442187073
 40
0.779940343
 40
1.0
 40
1.0
 40
1.0
 40
1.0
 10
164.9986611579
 20
37.0683681261
 30
0.0
 10
164.4621634889
 20
36.8914691214
 30
0.0
 10
163.4654891024
 20
36.4427488968
 30
0.0
 10
162.2405818508
 20
35.4611504796
 30
0.0
 10
161.4373618307
 20
34.2542097784
 30
0.0
 10
161.2457245378
 20
33.3400279548
 30
0.0
 10
161.2456989991
 20
32.9026481617
 30
0.0
  0
SPLINE
  5
45A
100
AcDbEntity
  8
KONSTRUKTIONSELEMENTE
100
AcDbSpline
 62
7
  6
CONTINUOUS
 70
0
 71
3
 72
11
 73
7
 74
0
 42
0.0000001
 43
0.0000001
 44
0.0000000001
 40
0.0
 40
0.0
 40
0.0
 40
0.0
 40
0.2842271921
 40
0.5442206373
 40
0.7799563544
 40
1.0
 40
1.0
 40
1.0
 40
1.0
 10
178.001267831
 20
20.6139318747
 30
0.0
 10
178.1621872414
 20
20.6669917204
 30
0.0
 10
178.4611383752
 20
20.8015646327
 30
0.0
 10
178.8285556432
 20
21.0959822359
 30
0.0
 10
179.0695154641
 20
21.4579430771
 30
0.0
 10
179.127124392
 20
21.7321160645
 30
0.0
 10
179.1271604981
 20
21.8632946191
 30
0.0
  0
SPLINE
  5
45B
100
AcDbEntity
  8
KONSTRUKTIONSELEMENTE
100
AcDbSpline
 62
7
  6
CONTINUOUS
 70
0
 71
3
 72
11
 73
7
 74
0
 42
0.0000001
 43
0.0000001
 44
0.0000000001
 40
0.0
 40
0.0
 40
0.0
 40
0.0
 40
0.2842268035
 40
0.5442239761
 40
0.7799400332
 40
1.0
 40
1.0
 40
1.0
 40
1.0
 10
240.1543751358
 20
-15.1050313653
 30
0.0
 10
239.6178858356
 20
-14.92813512
 30
0.0
 10
238.6212260638
 20
-14.4794247742
 30
0.0
 10
237.3963466609
 20
-13.4978576019
 30
0.0
 10
236.5931268113
 20
-12.2909726517
 30
0.0
 10
236.4014600309
 20
-11.3768344873
 30
0.0
 10
236.4014127168
 20
-10.9394651903
 30
0.0
  0
SPLINE
  5
45C
100
AcDbEntity
  8
KONSTRUKTIONSELEMENTE
100
AcDbSpline
 62
7
  6
CONTINUOUS
 70
0
 71
3
 72
9
 73
5
 74
0
 42
0.0000001
 43
0.0000001
 44
0.0000000001
 40
0.0
 40
0.0
 40
0.0
 40
0.0
 40
0.4954651683
 40
1.0
 40
1.0
 40
1.0
 40
1.0
 10
194.5721295782
 20
58.8934259878
 30
0.0
 10
194.5395885296
 20
59.4318456346
 30
0.0
 10
194.3151190392
 20
60.5120910606
 30
0.0
 10
193.8562341195
 20
61.5062776996
 30
0.0
 10
193.5908448755
 20
61.9871859369
 30
0.0
  0
SPLINE
  5
45D
100
AcDbEntity
  8
KONSTRUKTIONSELEMENTE
100
AcDbSpline
 62
7
  6
CONTINUOUS
 70
0
 71
3
 72
9
 73
5
 74
0
 42
0.0000001
 43
0.0000001
 44
0.0000000001
 40
0.0
 40
0.0
 40
0.0
 40
0.0
 40
0.5045348317
 40
1.0
 40
1.0
 40
1.0
 40
1.0
 10
231.6244762089
 20
61.9871859369
 30
0.0
 10
231.3590869649
 20
61.5062776996
 30
0.0
 10
230.9002020452
 20
60.5120910606
 30
0.0
 10
230.6757325548
 20
59.4318456346
 30
0.0
 10
230.6431915062
 20
58.8934259878
 30
0.0
  0
LINE
  5
45E
100
AcDbEntity
  8
0
100
AcDbLine
 62
7
  6
CONTINUOUS
 10
195.1119586863
 20
50.1771239413
 11
194.5721295782
 21
58.8934259878
  0
SPLINE
  5
45F
100
AcDbEntity
  8
KONSTRUKTIONSELEMENTE
100
AcDbSpline
 62
7
  6
CONTINUOUS
 70
0
 71
3
 72
11
 73
7
 74
0
 42
0.0000001
 43
0.0000001
 44
0.0000000001
 40
0.0
 40
0.0
 40
0.0
 40
0.0
 40
0.2552525678
 40
0.5065021805
 40
0.7540277206
 40
1.0
 40
1.0
 40
1.0
 40
1.0
 10
194.0383336831
 20
75.4976016853
 30
0.0
 10
194.0383336831
 20
76.0287000766
 30
0.0
 10
194.2306865035
 20
77.0906403099
 30
0.0
 10
194.9981379563
 20
78.4827156018
 30
0.0
 10
196.0681793976
 20
79.6200117056
 30
0.0
 10
196.9029887721
 20
80.2264023588
 30
0.0
 10
197.3370152782
 20
80.4976016853
 30
0.0
  0
SPLINE
  5
460
100
AcDbEntity
  8
KONSTRUKTIONSELEMENTE
100
AcDbSpline
 62
7
  6
CONTINUOUS
 70
0
 71
3
 72
11
 73
7
 74
0
 42
0.0000001
 43
0.0000001
 44
0.0000000001
 40
0.0
 40
0.0
 40
0.0
 40
0.0
 40
0.2459741347
 40
0.4935016246
 40
0.7447505661
 40
1.0
 40
1.0
 40
1.0
 40
1.0
 10
227.8783058062
 20
80.4976016853
 30
0.0
 10
228.3123355874
 20
80.2264003124
 30
0.0
 10
229.1471512235
 20
79.6200046187
 30
0.0
 10
230.2171945914
 20
78.4827007936
 30
0.0
 10
230.9846379825
 20
77.0906255251
 30
0.0
 10
231.1769874013
 20
76.0286935576
 30
0.0
 10
231.1769874013
 20
75.4976016853
 30
0.0
  0
LINE
  5
461
100
AcDbEntity
  8
0
100
AcDbLine
 62
7
  6
CONTINUOUS
 10
230.6431915062
 20
58.8934259878
 11
230.1033623981
 21
50.1771239413
  0
SPLINE
  5
462
100
AcDbEntity
  8
KONSTRUKTIONSELEMENTE
100
AcDbSpline
 62
7
  6
CONTINUOUS
 70
0
 71
3
 72
10
 73
6
 74
0
 42
0.0000001
 43
0.0000001
 44
0.0000000001
 40
0.0
 40
0.0
 40
0.0
 40
0.0
 40
0.2367614757
 40
0.4842046481
 40
1.0
 40
1.0
 40
1.0
 40
1.0
 10
193.5908448755
 20
61.9871859369
 30
0.0
 10
193.4896942094
 20
62.1704796824
 30
0.0
 10
193.3234498643
 20
62.5697021816
 30
0.0
 10
193.1742544668
 20
63.4474136758
 30
0.0
 10
193.2925540023
 20
64.1376033512
 30
0.0
 10
193.4490840798
 20
64.5659824985
 30
0.0
  0
SPLINE
  5
463
100
AcDbEntity
  8
KONSTRUKTIONSELEMENTE
100
AcDbSpline
 62
7
  6
CONTINUOUS
 70
0
 71
3
 72
10
 73
6
 74
0
 42
0.0000001
 43
0.0000001
 44
0.0000000001
 40
0.0
 40
0.0
 40
0.0
 40
0.0
 40
0.5157953519
 40
0.7632385243
 40
1.0
 40
1.0
 40
1.0
 40
1.0
 10
231.7662370046
 20
64.5659824985
 30
0.0
 10
231.9227670821
 20
64.1376033512
 30
0.0
 10
232.0410666176
 20
63.4474136758
 30
0.0
 10
231.89187122
 20
62.5697021816
 30
0.0
 10
231.725626875
 20
62.1704796824
 30
0.0
 10
231.6244762089
 20
61.9871859369
 30
0.0
  0
SPLINE
  5
464
100
AcDbEntity
  8
KONSTRUKTIONSELEMENTE
100
AcDbSpline
 62
7
  6
CONTINUOUS
 70
0
 71
3
 72
9
 73
5
 74
0
 42
0.0000001
 43
0.0000001
 44
0.0000000001
 40
0.0
 40
0.0
 40
0.0
 40
0.0
 40
0.5000928141
 40
1.0
 40
1.0
 40
1.0
 40
1.0
 10
193.4490840798
 20
64.5659824985
 30
0.0
 10
193.6326661801
 20
65.0683954842
 30
0.0
 10
193.9306241725
 20
66.100797894
 30
0.0
 10
194.0383336831
 20
67.172764181
 30
0.0
 10
194.0383336831
 20
67.7074686096
 30
0.0
  0
SPLINE
  5
465
100
AcDbEntity
  8
KONSTRUKTIONSELEMENTE
100
AcDbSpline
 62
7
  6
CONTINUOUS
 70
0
 71
3
 72
9
 73
5
 74
0
 42
0.0000001
 43
0.0000001
 44
0.0000000001
 40
0.0
 40
0.0
 40
0.0
 40
0.0
 40
0.4999071859
 40
1.0
 40
1.0
 40
1.0
 40
1.0
 10
231.1769874013
 20
67.7074686096
 30
0.0
 10
231.1769874013
 20
67.172764181
 30
0.0
 10
231.2846969119
 20
66.100797894
 30
0.0
 10
231.5826549043
 20
65.0683954842
 30
0.0
 10
231.7662370046
 20
64.5659824985
 30
0.0
  0
LINE
  5
466
100
AcDbEntity
  8
BEZUGSACHSEN
100
AcDbLine
 62
7
  6
CONTINUOUS
 10
587.6947281412
 20
144.2151787845
 11
587.2080158912
 21
146.0300934585
  0
LINE
  5
467
100
AcDbEntity
  8
BEZUGSACHSEN
100
AcDbLine
 62
7
  6
CONTINUOUS
 10
587.2080158912
 20
146.0300934585
 11
587.0857057781
 21
146.4860826056
  0
LINE
  5
468
100
AcDbEntity
  8
BEZUGSACHSEN
100
AcDbLine
 62
7
  6
CONTINUOUS
 10
587.0857057781
 20
146.4860826056
 11
586.2021845325
 21
149.7790274941
  0
LINE
  5
469
100
AcDbEntity
  8
BEZUGSACHSEN
100
AcDbLine
 62
7
  6
CONTINUOUS
 10
587.520939889
 20
142.0387823314
 11
587.4562658374
 21
142.2659057172
  0
LINE
  5
46A
100
AcDbEntity
  8
BEZUGSACHSEN
100
AcDbLine
 62
7
  6
CONTINUOUS
 10
587.4562658374
 20
142.2659057172
 11
586.4078476349
 21
145.9472802596
  0
LINE
  5
46B
100
AcDbEntity
  8
BEZUGSACHSEN
100
AcDbLine
 62
7
  6
CONTINUOUS
 10
586.3098484797
 20
147.6115841943
 11
586.3406889414
 21
147.5486824471
  0
LINE
  5
46C
100
AcDbEntity
  8
BEZUGSACHSEN
100
AcDbLine
 62
7
  6
CONTINUOUS
 10
586.4317761292
 20
147.3618304246
 11
586.5557267839
 21
147.013611114
  0
LINE
  5
46D
100
AcDbEntity
  8
BEZUGSACHSEN
100
AcDbLine
 62
7
  6
CONTINUOUS
 10
586.5557267839
 20
147.013611114
 11
586.5725589584
 21
146.9590774994
  0
LINE
  5
46E
100
AcDbEntity
  8
BEZUGSACHSEN
100
AcDbLine
 62
7
  6
CONTINUOUS
 10
586.5725589584
 20
146.9590774994
 11
586.6739167377
 21
146.6305677496
  0
LINE
  5
46F
100
AcDbEntity
  8
BEZUGSACHSEN
100
AcDbLine
 62
7
  6
CONTINUOUS
 10
586.6739167377
 20
146.6305677496
 11
586.7127993932
 21
146.504486803
  0
LINE
  5
470
100
AcDbEntity
  8
BEZUGSACHSEN
100
AcDbLine
 62
7
  6
CONTINUOUS
 10
586.7127993932
 20
146.504486803
 11
586.7911902012
 21
146.2287766745
  0
LINE
  5
471
100
AcDbEntity
  8
BEZUGSACHSEN
100
AcDbLine
 62
7
  6
CONTINUOUS
 10
586.7911902012
 20
146.2287766745
 11
586.8327567252
 21
146.0825765142
  0
LINE
  5
472
100
AcDbEntity
  8
BEZUGSACHSEN
100
AcDbLine
 62
7
  6
CONTINUOUS
 10
586.8327567252
 20
146.0825765142
 11
587.1889977934
 21
144.8294163405
  0
LINE
  5
473
100
AcDbEntity
  8
BEZUGSACHSEN
100
AcDbLine
 62
7
  6
CONTINUOUS
 10
587.349572463
 20
144.2218268014
 11
587.1889977934
 21
144.8294163405
  0
LINE
  5
474
100
AcDbEntity
  8
BEZUGSACHSEN
100
AcDbLine
 62
7
  6
CONTINUOUS
 10
587.4801031317
 20
143.6766752039
 11
587.349572463
 21
144.2218268014
  0
SPLINE
  5
475
100
AcDbEntity
  8
BEZUGSACHSEN
100
AcDbSpline
 62
7
  6
CONTINUOUS
 70
0
 71
3
 72
8
 73
4
 74
0
 42
0.0000001
 43
0.0000001
 44
0.0000000001
 40
0.0
 40
0.0
 40
0.0
 40
0.0
 40
1.0
 40
1.0
 40
1.0
 40
1.0
 10
587.6132732453
 20
143.0330581045
 30
0.0
 10
587.5690831319
 20
143.2476384067
 30
0.0
 10
587.5246892448
 20
143.4621768339
 30
0.0
 10
587.4801031317
 20
143.6766752039
 30
0.0
  0
LINE
  5
476
100
AcDbEntity
  8
BEZUGSACHSEN
100
AcDbLine
 62
7
  6
CONTINUOUS
 10
587.3608377348
 20
141.6318696927
 11
587.280745911
 21
141.9119006472
  0
LINE
  5
477
100
AcDbEntity
  8
BEZUGSACHSEN
100
AcDbLine
 62
7
  6
CONTINUOUS
 10
587.280745911
 20
141.9119006472
 11
587.2003338956
 21
142.1930262917
  0
LINE
  5
478
100
AcDbEntity
  8
BEZUGSACHSEN
100
AcDbLine
 62
7
  6
CONTINUOUS
 10
587.4911511796
 20
141.1065584332
 11
587.3608377348
 21
141.6318696927
  0
SPLINE
  5
479
100
AcDbEntity
  8
BEZUGSACHSEN
100
AcDbSpline
 62
7
  6
CONTINUOUS
 70
0
 71
3
 72
8
 73
4
 74
0
 42
0.0000001
 43
0.0000001
 44
0.0000000001
 40
0.0
 40
0.0
 40
0.0
 40
0.0
 40
1.0
 40
1.0
 40
1.0
 40
1.0
 10
587.6238257778
 20
140.4539367506
 30
0.0
 10
587.5847567384
 20
140.647041157
 30
0.0
 10
587.5455242976
 20
140.8401125688
 30
0.0
 10
587.5061366797
 20
141.0331522464
 30
0.0
  0
LINE
  5
47A
100
AcDbEntity
  8
BEZUGSACHSEN
100
AcDbLine
 62
7
  6
CONTINUOUS
 10
587.5061366797
 20
141.0331522464
 11
587.4911511796
 21
141.1065584332
  0
LINE
  5
47B
100
AcDbEntity
  8
BEZUGSACHSEN
100
AcDbLine
 62
7
  6
CONTINUOUS
 10
587.6944987823
 20
139.1091442398
 11
587.7029330123
 21
139.1638244247
  0
LINE
  5
47C
100
AcDbEntity
  8
BEZUGSACHSEN
100
AcDbLine
 62
7
  6
CONTINUOUS
 10
586.9989873833
 20
139.0159011588
 11
587.2845877345
 21
138.513643207
  0
LINE
  5
47D
100
AcDbEntity
  8
BEZUGSACHSEN
100
AcDbLine
 62
7
  6
CONTINUOUS
 10
586.9304746596
 20
139.4893147494
 11
586.7988637791
 21
140.0563145154
  0
LINE
  5
47E
100
AcDbEntity
  8
BEZUGSACHSEN
100
AcDbLine
 62
7
  6
CONTINUOUS
 10
586.7988637791
 20
140.0563145154
 11
586.7019303922
 21
140.3866073773
  0
LINE
  5
47F
100
AcDbEntity
  8
BEZUGSACHSEN
100
AcDbLine
 62
7
  6
CONTINUOUS
 10
586.5748894172
 20
140.7257108446
 11
586.7019303922
 21
140.3866073773
  0
LINE
  5
480
100
AcDbEntity
  8
BEZUGSACHSEN
100
AcDbLine
 62
7
  6
CONTINUOUS
 10
586.4811968589
 20
140.9040728273
 11
586.5748894172
 21
140.7257108446
  0
LINE
  5
481
100
AcDbEntity
  8
BEZUGSACHSEN
100
AcDbLine
 62
7
  6
CONTINUOUS
 10
587.2139787535
 20
140.2833730639
 11
586.7243883415
 21
141.8146744834
  0
LINE
  5
482
100
AcDbEntity
  8
BEZUGSACHSEN
100
AcDbLine
 62
7
  6
CONTINUOUS
 10
586.7243883415
 20
141.8146744834
 11
586.7209838058
 21
141.8253225661
  0
LINE
  5
483
100
AcDbEntity
  8
BEZUGSACHSEN
100
AcDbLine
 62
7
  6
CONTINUOUS
 10
586.7209838058
 20
141.8253225661
 11
586.33801406
 21
143.023077588
  0
LINE
  5
484
100
AcDbEntity
  8
BEZUGSACHSEN
100
AcDbLine
 62
7
  6
CONTINUOUS
 10
586.33801406
 20
143.023077588
 11
586.2277633859
 21
143.367881976
  0
LINE
  5
485
100
AcDbEntity
  8
BEZUGSACHSEN
100
AcDbLine
 62
7
  6
CONTINUOUS
 10
587.2139787535
 20
140.2833730639
 11
587.3420406208
 21
139.9490268327
  0
LINE
  5
486
100
AcDbEntity
  8
BEZUGSACHSEN
100
AcDbLine
 62
7
  6
CONTINUOUS
 10
587.3420406208
 20
139.9490268327
 11
587.4388720317
 21
139.7778364687
  0
LINE
  5
487
100
AcDbEntity
  8
BEZUGSACHSEN
100
AcDbLine
 62
7
  6
CONTINUOUS
 10
587.4388720317
 20
139.7778364687
 11
587.5039371361
 21
139.7698011738
  0
LINE
  5
488
100
AcDbEntity
  8
BEZUGSACHSEN
100
AcDbLine
 62
7
  6
CONTINUOUS
 10
587.7328614817
 20
135.3188505004
 11
587.0648915184
 21
137.0991426943
  0
LINE
  5
489
100
AcDbEntity
  8
BEZUGSACHSEN
100
AcDbLine
 62
7
  6
CONTINUOUS
 10
586.8740289716
 20
137.6077975389
 11
586.3968497056
 21
138.8794348881
  0
LINE
  5
48A
100
AcDbEntity
  8
BEZUGSACHSEN
100
AcDbLine
 62
7
  6
CONTINUOUS
 10
586.3968497056
 20
138.8794348881
 11
586.398469952
 21
139.050592293
  0
LINE
  5
48B
100
AcDbEntity
  8
BEZUGSACHSEN
100
AcDbLine
 62
7
  6
CONTINUOUS
 10
586.2157224718
 20
145.2775352037
 11
586.3271182685
 21
144.928641965
  0
LINE
  5
48C
100
AcDbEntity
  8
BEZUGSACHSEN
100
AcDbLine
 62
7
  6
CONTINUOUS
 10
586.3271182685
 20
144.928641965
 11
587.2003338956
 21
142.1930262917
  0
SPLINE
  5
48D
100
AcDbEntity
  8
0
100
AcDbSpline
 62
7
  6
CONTINUOUS
 70
0
 71
3
 72
11
 73
7
 74
0
 42
0.0000001
 43
0.0000001
 44
0.0000000001
 40
0.0
 40
0.0
 40
0.0
 40
0.0
 40
0.2517733154
 40
0.5000000002
 40
0.7482266851
 40
1.0
 40
1.0
 40
1.0
 40
1.0
 10
575.8005825961
 20
157.6069270185
 30
0.0
 10
575.6461549722
 20
156.9875516491
 30
0.0
 10
575.4039206015
 20
155.7398592629
 30
0.0
 10
575.2774710183
 20
153.8417129688
 30
0.0
 10
575.4039205978
 20
151.9435666754
 30
0.0
 10
575.6461549725
 20
150.695874291
 30
0.0
 10
575.8005825961
 20
150.0764989228
 30
0.0
  0
SPLINE
  5
48E
100
AcDbEntity
  8
0
100
AcDbSpline
 62
7
  6
CONTINUOUS
 70
0
 71
3
 72
9
 73
5
 74
0
 42
0.0000001
 43
0.0000001
 44
0.0000000001
 40
0.0
 40
0.0
 40
0.0
 40
0.0
 40
0.5000000002
 40
1.0
 40
1.0
 40
1.0
 40
1.0
 10
575.8005825961
 20
150.0764989228
 30
0.0
 10
575.4886967559
 20
146.8015850706
 30
0.0
 10
575.1501454168
 20
140.2190405691
 30
0.0
 10
575.4886967561
 20
133.6364960677
 30
0.0
 10
575.8005825961
 20
130.3615822183
 30
0.0
  0
SPLINE
  5
48F
100
AcDbEntity
  8
0
100
AcDbSpline
 62
7
  6
CONTINUOUS
 70
0
 71
3
 72
9
 73
5
 74
0
 42
0.0000001
 43
0.0000001
 44
0.0000000001
 40
0.0
 40
0.0
 40
0.0
 40
0.0
 40
0.5000031771
 40
1.0
 40
1.0
 40
1.0
 40
1.0
 10
575.8005825961
 20
130.3615822183
 30
0.0
 10
575.5769601803
 20
127.4591511616
 30
0.0
 10
575.2747297658
 20
121.641759283
 30
0.0
 10
575.3103568454
 20
115.8160573521
 30
0.0
 10
575.411306925
 20
112.9068123083
 30
0.0
  0
SPLINE
  5
490
100
AcDbEntity
  8
0
100
AcDbSpline
 62
7
  6
CONTINUOUS
 70
0
 71
3
 72
11
 73
7
 74
0
 42
0.0000001
 43
0.0000001
 44
0.0000000001
 40
0.0
 40
0.0
 40
0.0
 40
0.0
 40
0.2517733154
 40
0.5000000002
 40
0.7482266851
 40
1.0
 40
1.0
 40
1.0
 40
1.0
 10
584.1677596369
 20
157.6069270185
 30
0.0
 10
584.3221872608
 20
156.9875516491
 30
0.0
 10
584.5644216315
 20
155.7398592629
 30
0.0
 10
584.6908712147
 20
153.8417129688
 30
0.0
 10
584.5644216352
 20
151.9435666754
 30
0.0
 10
584.3221872605
 20
150.695874291
 30
0.0
 10
584.1677596369
 20
150.0764989228
 30
0.0
  0
LINE
  5
491
100
AcDbEntity
  8
BEZUGSACHSEN
100
AcDbLine
 62
7
  6
CONTINUOUS
 10
587.4916521545
 20
143.2335785794
 11
587.4250186303
 21
143.6046202399
  0
LINE
  5
492
100
AcDbEntity
  8
BEZUGSACHSEN
100
AcDbLine
 62
7
  6
CONTINUOUS
 10
587.4250186303
 20
143.6046202399
 11
587.3272037792
 21
144.0381004055
  0
LINE
  5
493
100
AcDbEntity
  8
BEZUGSACHSEN
100
AcDbLine
 62
7
  6
CONTINUOUS
 10
587.3272037792
 20
144.0381004055
 11
587.1987318315
 21
144.5340185909
  0
LINE
  5
494
100
AcDbEntity
  8
BEZUGSACHSEN
100
AcDbLine
 62
7
  6
CONTINUOUS
 10
586.7219453762
 20
146.2090890533
 11
587.0803077958
 21
144.9500989875
  0
LINE
  5
495
100
AcDbEntity
  8
BEZUGSACHSEN
100
AcDbLine
 62
7
  6
CONTINUOUS
 10
587.0803077958
 20
144.9500989875
 11
587.1202277703
 21
144.8098430874
  0
LINE
  5
496
100
AcDbEntity
  8
BEZUGSACHSEN
100
AcDbLine
 62
7
  6
CONTINUOUS
 10
587.1202277703
 20
144.8098430874
 11
587.1987318315
 21
144.5340185909
  0
LINE
  5
497
100
AcDbEntity
  8
BEZUGSACHSEN
100
AcDbLine
 62
7
  6
CONTINUOUS
 10
586.5960099286
 20
146.6065416978
 11
586.6591445477
 21
146.40733788
  0
LINE
  5
498
100
AcDbEntity
  8
BEZUGSACHSEN
100
AcDbLine
 62
7
  6
CONTINUOUS
 10
586.6591445477
 20
146.40733788
 11
586.7219453762
 21
146.2090890533
  0
LINE
  5
499
100
AcDbEntity
  8
BEZUGSACHSEN
100
AcDbLine
 62
7
  6
CONTINUOUS
 10
586.5028006224
 20
146.8430899675
 11
586.526245338
 21
146.7836800743
  0
LINE
  5
49A
100
AcDbEntity
  8
BEZUGSACHSEN
100
AcDbLine
 62
7
  6
CONTINUOUS
 10
586.526245338
 20
146.7836800743
 11
586.5495951195
 21
146.7244520641
  0
LINE
  5
49B
100
AcDbEntity
  8
BEZUGSACHSEN
100
AcDbLine
 62
7
  6
CONTINUOUS
 10
586.5495951195
 20
146.7244520641
 11
586.5960099286
 21
146.6065416978
  0
LINE
  5
49C
100
AcDbEntity
  8
BEZUGSACHSEN
100
AcDbLine
 62
7
  6
CONTINUOUS
 10
586.4876696142
 20
146.8619535017
 11
586.5028006224
 21
146.8430899675
  0
LINE
  5
49D
100
AcDbEntity
  8
0
100
AcDbLine
 62
7
  6
CONTINUOUS
 10
574.8772229855
 20
77.0135457359
 11
573.0146132717
 21
75.0851829068
  0
LINE
  5
49E
100
AcDbEntity
  8
RUNDUNGEN
100
AcDbLine
 62
7
  6
CONTINUOUS
 10
585.0911192475
 20
77.0135457359
 11
586.9537289613
 21
75.0851829068
  0
LINE
  5
49F
100
AcDbEntity
  8
KONSTRUKTIONSELEMENTE
100
AcDbLine
 62
7
  6
CONTINUOUS
 10
585.6806542883
 20
146.3219106323
 11
585.9777539061
 21
145.2775354796
  0
LINE
  5
4A0
100
AcDbEntity
  8
BEZUGSACHSEN
100
AcDbLine
 62
7
  6
CONTINUOUS
 10
587.7032036593
 20
141.0733563811
 11
587.6786003872
 21
141.1598701129
  0
LINE
  5
4A1
100
AcDbEntity
  8
BEZUGSACHSEN
100
AcDbLine
 62
7
  6
CONTINUOUS
 10
587.6786003872
 20
141.1598701129
 11
587.5306294543
 21
141.6801592933
  0
LINE
  5
4A2
100
AcDbEntity
  8
BEZUGSACHSEN
100
AcDbLine
 62
7
  6
CONTINUOUS
 10
587.5306294543
 20
141.6801592933
 11
587.4607593645
 21
141.9258171151
  0
LINE
  5
4A3
100
AcDbEntity
  8
BEZUGSACHSEN
100
AcDbLine
 62
7
  6
CONTINUOUS
 10
587.4607593645
 20
141.9258171151
 11
587.435538245
 21
142.0144901091
  0
LINE
  5
4A4
100
AcDbEntity
  8
BEZUGSACHSEN
100
AcDbLine
 62
7
  6
CONTINUOUS
 10
587.435538245
 20
142.0144901091
 11
587.3709521454
 21
142.2415574789
  0
LINE
  5
4A5
100
AcDbEntity
  8
BEZUGSACHSEN
100
AcDbLine
 62
7
  6
CONTINUOUS
 10
587.3709521454
 20
142.2415574789
 11
586.3234518132
 21
145.9232628236
  0
LINE
  5
4A6
100
AcDbEntity
  8
BEZUGSACHSEN
100
AcDbLine
 62
7
  6
CONTINUOUS
 10
586.3234518132
 20
145.9232628236
 11
586.2100024041
 21
146.3219106323
  0
LINE
  5
4A7
100
AcDbEntity
  8
KONSTRUKTIONSELEMENTE
100
AcDbLine
 62
7
  6
CONTINUOUS
 10
587.0909565996
 20
139.0535242622
 11
587.0255074482
 21
139.1248163265
  0
LINE
  5
4A8
100
AcDbEntity
  8
KONSTRUKTIONSELEMENTE
100
AcDbLine
 62
7
  6
CONTINUOUS
 10
587.0255074482
 20
139.1248163265
 11
586.9923861065
 21
139.1607611685
  0
LINE
  5
4A9
100
AcDbEntity
  8
KONSTRUKTIONSELEMENTE
100
AcDbLine
 62
7
  6
CONTINUOUS
 10
586.9923861065
 20
139.1607611685
 11
586.9755223728
 21
139.179028907
  0
LINE
  5
4AA
100
AcDbEntity
  8
BEZUGSACHSEN
100
AcDbLine
 62
7
  6
CONTINUOUS
 10
587.4981523974
 20
137.627270104
 11
587.7277814616
 21
137.2179882292
  0
LINE
  5
4AB
100
AcDbEntity
  8
KONSTRUKTIONSELEMENTE
100
AcDbLine
 62
7
  6
CONTINUOUS
 10
587.1852818603
 20
137.2179882292
 11
587.0679235588
 21
137.4266802057
  0
LINE
  5
4AC
100
AcDbEntity
  8
BEZUGSACHSEN
100
AcDbLine
 62
7
  6
CONTINUOUS
 10
587.3675968289
 20
139.4675960953
 11
587.4972241019
 21
139.1969052055
  0
LINE
  5
4AD
100
AcDbEntity
  8
BEZUGSACHSEN
100
AcDbLine
 62
7
  6
CONTINUOUS
 10
587.2073354936
 20
139.9014422362
 11
587.3675968289
 21
139.4675960953
  0
LINE
  5
4AE
100
AcDbEntity
  8
KONSTRUKTIONSELEMENTE
100
AcDbLine
 62
7
  6
CONTINUOUS
 10
585.6835865259
 20
142.9859511483
 11
586.3129573287
 21
141.0152802374
  0
LINE
  5
4AF
100
AcDbEntity
  8
BEZUGSACHSEN
100
AcDbLine
 62
7
  6
CONTINUOUS
 10
587.2073354936
 20
139.9014422362
 11
587.0972465023
 21
140.2460838368
  0
LINE
  5
4B0
100
AcDbEntity
  8
BEZUGSACHSEN
100
AcDbLine
 62
7
  6
CONTINUOUS
 10
587.0972465023
 20
140.2460838368
 11
586.2219016506
 21
142.9859511483
  0
SPLINE
  5
4B1
100
AcDbEntity
  8
0
100
AcDbSpline
 62
7
  6
CONTINUOUS
 70
0
 71
3
 72
9
 73
5
 74
0
 42
0.0000001
 43
0.0000001
 44
0.0000000001
 40
0.0
 40
0.0
 40
0.0
 40
0.0
 40
0.5000031771
 40
1.0
 40
1.0
 40
1.0
 40
1.0
 10
584.1677596369
 20
130.3615822183
 30
0.0
 10
584.3913820527
 20
127.4591511616
 30
0.0
 10
584.6936124671
 20
121.641759283
 30
0.0
 10
584.6579853875
 20
115.8160573521
 30
0.0
 10
584.557035308
 20
112.9068123083
 30
0.0
  0
SPLINE
  5
4B2
100
AcDbEntity
  8
0
100
AcDbSpline
 62
7
  6
CONTINUOUS
 70
0
 71
3
 72
9
 73
5
 74
0
 42
0.0000001
 43
0.0000001
 44
0.0000000001
 40
0.0
 40
0.0
 40
0.0
 40
0.0
 40
0.5000000002
 40
1.0
 40
1.0
 40
1.0
 40
1.0
 10
584.1677596369
 20
150.0764989228
 30
0.0
 10
584.4796454771
 20
146.8015850706
 30
0.0
 10
584.8181968162
 20
140.2190405691
 30
0.0
 10
584.4796454769
 20
133.6364960677
 30
0.0
 10
584.1677596369
 20
130.3615822183
 30
0.0
  0
LINE
  5
4B3
100
AcDbEntity
  8
BEZUGSACHSEN
100
AcDbLine
 62
7
  6
CONTINUOUS
 10
587.7254001684
 20
134.8630574281
 11
587.5765346628
 21
135.2602590204
  0
LINE
  5
4B4
100
AcDbEntity
  8
BEZUGSACHSEN
100
AcDbLine
 62
7
  6
CONTINUOUS
 10
587.5765346628
 20
135.2602590204
 11
586.9091108822
 21
137.0407378407
  0
LINE
  5
4B5
100
AcDbEntity
  8
BEZUGSACHSEN
100
AcDbLine
 62
7
  6
CONTINUOUS
 10
586.9091108822
 20
137.0407378407
 11
586.7392244114
 21
137.493865528
  0
LINE
  5
4B6
100
AcDbEntity
  8
BEZUGSACHSEN
100
AcDbLine
 62
7
  6
CONTINUOUS
 10
586.7392244114
 20
137.493865528
 11
586.7183876375
 21
137.5494402674
  0
LINE
  5
4B7
100
AcDbEntity
  8
BEZUGSACHSEN
100
AcDbLine
 62
7
  6
CONTINUOUS
 10
586.7183876375
 20
137.5494402674
 11
586.241527331
 21
138.8211922161
  0
LINE
  5
4B8
100
AcDbEntity
  8
BEZUGSACHSEN
100
AcDbLine
 62
7
  6
CONTINUOUS
 10
586.241527331
 20
138.8211922161
 11
586.2316543126
 21
138.8475208531
  0
SPLINE
  5
4B9
100
AcDbEntity
  8
KONSTRUKTIONSELEMENTE
100
AcDbSpline
 62
7
  6
CONTINUOUS
 70
0
 71
3
 72
8
 73
4
 74
0
 42
0.0000001
 43
0.0000001
 44
0.0000000001
 40
0.0
 40
0.0
 40
0.0
 40
0.0
 40
1.0
 40
1.0
 40
1.0
 40
1.0
 10
585.6821588589
 20
138.8475208531
 30
0.0
 10
586.1799564859
 20
137.5194265422
 30
0.0
 10
586.6776287231
 20
136.1912852113
 30
0.0
 10
587.1750701083
 20
134.8630574281
 30
0.0
  0
LINE
  5
4BA
100
AcDbEntity
  8
BEZUGSACHSEN
100
AcDbLine
 62
7
  6
CONTINUOUS
 10
587.5284205086
 20
139.8861394131
 11
587.5364014459
 21
139.9249210873
  0
LINE
  5
4BB
100
AcDbEntity
  8
BEZUGSACHSEN
100
AcDbLine
 62
7
  6
CONTINUOUS
 10
586.4274941512
 20
140.4659002734
 11
586.4891052916
 21
140.448279755
  0
LINE
  5
4BC
100
AcDbEntity
  8
BEZUGSACHSEN
100
AcDbLine
 62
7
  6
CONTINUOUS
 10
586.4891052916
 20
140.448279755
 11
586.5210816228
 21
140.3877991372
  0
LINE
  5
4BD
100
AcDbEntity
  8
BEZUGSACHSEN
100
AcDbLine
 62
7
  6
CONTINUOUS
 10
586.5210816228
 20
140.3877991372
 11
586.5363481779
 21
140.3589154509
  0
LINE
  5
4BE
100
AcDbEntity
  8
BEZUGSACHSEN
100
AcDbLine
 62
7
  6
CONTINUOUS
 10
586.5363481779
 20
140.3589154509
 11
586.5833702299
 21
140.2699177723
  0
LINE
  5
4BF
100
AcDbEntity
  8
BEZUGSACHSEN
100
AcDbLine
 62
7
  6
CONTINUOUS
 10
586.5833702299
 20
140.2699177723
 11
586.6787537624
 21
140.0155901125
  0
LINE
  5
4C0
100
AcDbEntity
  8
BEZUGSACHSEN
100
AcDbLine
 62
7
  6
CONTINUOUS
 10
586.7752965901
 20
139.6852972505
 11
586.6787537624
 21
140.0155901125
  0
LINE
  5
4C1
100
AcDbEntity
  8
BEZUGSACHSEN
100
AcDbLine
 62
7
  6
CONTINUOUS
 10
586.8409873368
 20
139.3638145391
 11
586.7752965901
 21
139.6852972505
  0
LINE
  5
4C2
100
AcDbEntity
  8
BEZUGSACHSEN
100
AcDbLine
 62
7
  6
CONTINUOUS
 10
586.2236405438
 20
144.8956045582
 11
587.0977471374
 21
142.1602473128
  0
LINE
  5
4C3
100
AcDbEntity
  8
BEZUGSACHSEN
100
AcDbLine
 62
7
  6
CONTINUOUS
 10
587.0977471374
 20
142.1602473128
 11
587.2093060894
 21
141.8110956461
  0
LINE
  5
4C4
100
AcDbEntity
  8
KONSTRUKTIONSELEMENTE
100
AcDbLine
 62
7
  6
CONTINUOUS
 10
586.1788903073
 20
143.3678820085
 11
585.6905354394
 21
144.8956045582
  0
LINE
  5
4C5
100
AcDbEntity
  8
BEZUGSACHSEN
100
AcDbLine
 62
7
  6
CONTINUOUS
 10
587.3376817542
 20
141.3494393211
 11
587.2415011099
 21
141.6953349967
  0
LINE
  5
4C6
100
AcDbEntity
  8
BEZUGSACHSEN
100
AcDbLine
 62
7
  6
CONTINUOUS
 10
587.2415011099
 20
141.6953349967
 11
587.2093060894
 21
141.8110956461
  0
LINE
  5
4C7
100
AcDbEntity
  8
BEZUGSACHSEN
100
AcDbLine
 62
7
  6
CONTINUOUS
 10
587.4352573175
 20
140.9236284054
 11
587.3376817542
 21
141.3494393211
  0
LINE
  5
4C8
100
AcDbEntity
  8
BEZUGSACHSEN
100
AcDbLine
 62
7
  6
CONTINUOUS
 10
587.5015050484
 20
140.5336624649
 11
587.4352573175
 21
140.9236284054
  0
ELLIPSE
  5
4C9
100
AcDbEntity
  8
KONSTRUKTIONSELEMENTE
100
AcDbEllipse
 62
7
  6
CONTINUOUS
 10
164.9954887789
 20
29.4956688539
 30
0.0
 11
1.9496756155
 21
0.5849900395
 31
0.0
 40
0.0607989098
 41
-2.7235007144
 42
-1.1527043876
  0
ELLIPSE
  5
4CA
100
AcDbEntity
  8
KONSTRUKTIONSELEMENTE
100
AcDbEllipse
 62
7
  6
CONTINUOUS
 10
172.0308198126
 20
29.667491701
 30
0.0
 11
1.9224508907
 21
-1.19390516
 31
0.0
 40
0.7424978488
 41
7.2982401868
 42
8.8690365136
  0
ELLIPSE
  5
4CB
100
AcDbEntity
  8
KONSTRUKTIONSELEMENTE
100
AcDbEllipse
 62
7
  6
CONTINUOUS
 10
212.6076605422
 20
7.1803310074
 30
0.0
 11
0.0
 21
77.9422863406
 31
0.0
 40
0.5773502692
 41
-0.346223333
 42
-0.1584398369
  0
ELLIPSE
  5
4CC
100
AcDbEntity
  8
KONSTRUKTIONSELEMENTE
100
AcDbEllipse
 62
7
  6
CONTINUOUS
 10
212.6076605422
 20
7.1803310074
 30
0.0
 11
0.0
 21
77.9422863406
 31
0.0
 40
0.5773502692
 41
0.1584398369
 42
0.346223333
  0
ELLIPSE
  5
4CD
100
AcDbEntity
  8
0
100
AcDbEllipse
 62
7
  6
CONTINUOUS
 10
572.559387311
 20
88.2041806949
 30
0.0
 11
-0.7556199617
 21
21.3458453383
 31
0.0
 40
0.1404528969
 41
-2.0714148455
 42
-1.8176885507
  0
ELLIPSE
  5
4CE
100
AcDbEntity
  8
0
100
AcDbEllipse
 62
7
  6
CONTINUOUS
 10
572.852663582
 20
79.7523543874
 30
0.0
 11
-0.4144865791
 21
3.5584203432
 31
0.0
 40
0.8362247574
 41
-2.5405585317
 42
-2.1635405839
  0
ELLIPSE
  5
4CF
100
AcDbEntity
  8
RUNDUNGEN
100
AcDbEllipse
 62
7
  6
CONTINUOUS
 10
587.115678651
 20
79.7523543874
 30
0.0
 11
0.4144865791
 21
3.5584203432
 31
0.0
 40
0.8362247574
 41
-4.1196447232
 42
-3.7426267755
  0
ELLIPSE
  5
4D0
100
AcDbEntity
  8
RUNDUNGEN
100
AcDbEllipse
 62
7
  6
CONTINUOUS
 10
587.408954922
 20
88.2041806949
 30
0.0
 11
0.7556199617
 21
21.3458453383
 31
0.0
 40
0.1404528969
 41
-4.4654967564
 42
-4.2117704617
  0
ELLIPSE
  5
4D1
100
AcDbEntity
  8
KONSTRUKTIONSELEMENTE
100
AcDbEllipse
 62
7
  6
CONTINUOUS
 10
450.4027463608
 20
32.9604920817
 30
0.0
 11
0.0
 21
2.6923475556
 31
0.0
 40
0.2216946626
 41
-4.4942228239
 42
-3.3588581838
  0
ELLIPSE
  5
4D2
100
AcDbEntity
  8
KONSTRUKTIONSELEMENTE
100
AcDbEllipse
 62
7
  6
CONTINUOUS
 10
453.8675695886
 20
29.4956688539
 30
0.0
 11
2.6923475556
 21
0.0
 31
0.0
 40
0.2216946626
 41
-2.9243271234
 42
-1.7889624833
  0
ENDSEC
  0
SECTION
  2
OBJECTS
  0
DICTIONARY
  5
C
100
AcDbDictionary
280
0
281
1
  3
ACAD_GROUP
350
D
  3
ACAD_MLINESTYLE
350
17
  3
ACAD_LAYOUT
350
1A
  3
ACAD_PLOTSETTINGS
350
19
  3
ACAD_PLOTSTYLENAME
350
E
  0
DICTIONARY
  5
D
102
{ACAD_REACTORS
330
C
102
}
100
AcDbDictionary
280
0
281
1
  0
ACDBDICTIONARYWDFLT
  5
E
102
{ACAD_REACTORS
330
C
102
}
100
AcDbDictionary
281
1
  3
Normal
350
F
100
AcDbDictionaryWithDefault
340
F
  0
DICTIONARY
  5
17
102
{ACAD_REACTORS
330
C
102
}
100
AcDbDictionary
280
0
281
1
  3
Standard
350
18
  0
DICTIONARY
  5
19
102
{ACAD_REACTORS
330
C
102
}
100
AcDbDictionary
281
1
  0
DICTIONARY
  5
1A
102
{ACAD_REACTORS
330
C
102
}
100
AcDbDictionary
281
1
  3
Model
350
4D3
  3
Layout1
350
4D4
  0
ACDBPLACEHOLDER
  5
F
102
{ACAD_REACTORS
330
E
102
}
  0
MLINESTYLE
  5
18
102
{ACAD_REACTORS
330
17
102
}
100
AcDbMlineStyle
  2
STANDARD
 70
0
  3

 62
256
 51
90.0
 52
90.0
 71
2
 49
0.5
 62
256
  6
BYLAYER
 49
-0.5
 62
256
  6
BYLAYER
  0
LAYOUT
  5
4D3
102
{ACAD_REACTORS
330
1A
102
}
100
AcDbPlotSettings
  1

  2
none_device
  4
ISO_A1_(594.00_x_841.00_MM)
  6

 40
0.0
 41
0.0
 42
0.0
 43
0.0
 44
841.0
 45
594.0
 46
0.0
 47
0.0
 48
0.0
 49
0.0
140
0.0
141
0.0
142
1.0
143
1.0
 70
1024
 72
1
 73
0
 74
0
  7

 75
0
147
1.0
148
0.0
149
0.0
100
AcDbLayout
  1
Model
 70
0
 71
0
 10
0.0
 20
0.0
 11
841.0
 21
594.0
 12
0.0
 22
0.0
 32
0.0
 14
0.0
 24
0.0
 34
0.0
 15
0.0
 25
0.0
 35
0.0
146
0.0
 13
0.0
 23
0.0
 33
0.0
 16
1.0
 26
0.0
 36
0.0
 17
0.0
 27
1.0
 37
0.0
 76
0
330
20C
345
0
346
0
  0
LAYOUT
  5
4D4
102
{ACAD_REACTORS
330
1A
102
}
100
AcDbPlotSettings
  1

  2
none_device
  4
ISO_A1_(594.00_x_841.00_MM)
  6

 40
0.0
 41
0.0
 42
0.0
 43
0.0
 44
841.0
 45
594.0
 46
0.0
 47
0.0
 48
0.0
 49
0.0
140
0.0
141
0.0
142
1.0
143
1.0
 70
0
 72
1
 73
0
 74
0
  7

 75
0
147
1.0
148
0.0
149
0.0
100
AcDbLayout
  1
Layout1
 70
0
 71
1
 10
0.0
 20
0.0
 11
841.0
 21
594.0
 12
0.0
 22
0.0
 32
0.0
 14
0.0
 24
0.0
 34
0.0
 15
0.0
 25
0.0
 35
0.0
146
0.0
 13
0.0
 23
0.0
 33
0.0
 16
1.0
 26
0.0
 36
0.0
 17
0.0
 27
1.0
 37
0.0
 76
0
330
20D
345
0
346
0
  0
ENDSEC
  0
EOF
