999
DXF file: VSAK-1-10_250_7100696_M32082-P-1.dxf
999
Pro/ENGINEER 2010140 by Parametric Technology Corporation
  0
SECTION
  2
HEADER
  9
$ACADVER
  1
AC1015
  9
$DWGCODEPAGE
  3
ANSI_1252
  9
$EXTMAX
 10
1189.0
 20
841.0
 30
0.0
  9
$EXTMIN
 10
0.0
 20
0.0
 30
0.0
  9
$LIMMIN
 10
0.0
 20
0.0
  9
$LIMMAX
 10
1189.0
 20
841.0
  9
$VIEWCTR
 10
594.5
 20
420.5
  9
$VIEWSIZE
 40
841.0
  9
$CLAYER
  8
0
  9
$LTSCALE
 40
65.395
  9
$CELTYPE
  6
BYLAYER
  9
$DIMSCALE
 40
1.0
  9
$DIMASZ
 40
3.5
  9
$DIMEXO
 40
7.43125
  9
$DIMDLI
 40
45.182
  9
$DIMEXE
 40
21.402
  9
$DIMCEN
 40
10.701
  9
$DIMLFAC
 40
1.0
  9
$DIMBLK
  1
_FILLED
  9
$DIMTXT
 40
3.5
  9
$DIMTOL
 70
1
  9
$DIMLIM
 70
0
  9
$DIMTFAC
 40
1.0
  9
$DIMTP
 40
0.005
  9
$DIMTM
 40
0.005
  9
$PDMODE
 70
3
  9
$PDSIZE
 40
0.3125
  9
$HANDSEED
  5
4D3
  9
$TILEMODE
 70
1
  9
$MEASUREMENT
 70
1
  9
$INSUNITS
 70
4
  0
ENDSEC
  0
SECTION
  2
CLASSES
  0
CLASS
  1
ACDBDICTIONARYWDFLT
  2
AcDbDictionaryWithDefault
  3
AutoCAD 2000
 90
0
280
0
281
0
  0
CLASS
  1
ACDBPLACEHOLDER
  2
AcDbPlaceHolder
  3
AutoCAD 2000
 90
0
280
0
281
0
  0
CLASS
  1
LAYOUT
  2
AcDbLayout
  3
AutoCAD 2000
 90
0
280
0
281
0
  0
ENDSEC
  0
SECTION
  2
TABLES
  0
TABLE
  2
VPORT
  5
8
100
AcDbSymbolTable
 70
2
  0
VPORT
  5
1F4
100
AcDbSymbolTableRecord
100
AcDbViewportTableRecord
  2
*ACTIVE
 70
0
 10
0.0
 20
0.0
 11
1.0
 21
1.0
 12
594.5
 22
420.5
 13
0.0
 23
0.0
 14
1.0
 24
1.0
 15
0.0
 25
0.0
 16
0.0
 26
0.0
 36
1.0
 17
0.0
 27
0.0
 37
0.0
 40
841.0
 41
1.4137931034
 42
50.0
 43
0.0
 44
0.0
 50
0.0
 51
0.0
 71
0
 72
100
 73
1
 74
1
 75
0
 76
0
 77
0
 78
0
  0
ENDTAB
  0
TABLE
  2
LTYPE
  5
5
100
AcDbSymbolTable
 70
6
  0
LTYPE
  5
14
100
AcDbSymbolTableRecord
100
AcDbLinetypeTableRecord
  2
BYBLOCK
 70
0
  3

 72
65
 73
0
 40
0.0
  0
LTYPE
  5
15
100
AcDbSymbolTableRecord
100
AcDbLinetypeTableRecord
  2
BYLAYER
 70
0
  3

 72
65
 73
0
 40
0.0
  0
LTYPE
  5
16
100
AcDbSymbolTableRecord
100
AcDbLinetypeTableRecord
  2
CONTINUOUS
 70
64
  3
Solid line
 72
65
 73
0
 40
0.0
  0
LTYPE
  5
1F5
100
AcDbSymbolTableRecord
100
AcDbLinetypeTableRecord
  2
CENTER
 70
64
  3
____ _ ____ _ ____ _ ____ _ ____ _ ____ _ ____
 72
65
 73
4
 40
0.6
 49
0.375
 74
0
 49
-0.075
 74
0
 49
0.075
 74
0
 49
-0.075
 74
0
  0
LTYPE
  5
1F6
100
AcDbSymbolTableRecord
100
AcDbLinetypeTableRecord
  2
HIDDEN
 70
64
  3
- - - - - - - - - - - - - - - - - - - -
 72
65
 73
2
 40
0.2
 49
0.1
 74
0
 49
-0.1
 74
0
  0
LTYPE
  5
1F7
100
AcDbSymbolTableRecord
100
AcDbLinetypeTableRecord
  2
PHANTOM
 70
64
  3
_____ _ _ _____ _ _ _____ _ _ _____
 72
65
 73
6
 40
0.8
 49
0.45
 74
0
 49
-0.05
 74
0
 49
0.1
 74
0
 49
-0.05
 74
0
 49
0.1
 74
0
 49
-0.05
 74
0
  0
LTYPE
  5
1F8
100
AcDbSymbolTableRecord
100
AcDbLinetypeTableRecord
  2
DOT
 70
64
  3
. . . . . . . . . . . . . . . . . . . .
 72
65
 73
2
 40
0.2
 49
0.1
 74
0
 49
-0.1
 74
0
  0
LTYPE
  5
1F9
100
AcDbSymbolTableRecord
100
AcDbLinetypeTableRecord
  2
DASHED
 70
64
  3
- - - - - - - - - - - - - - - - - - - -
 72
65
 73
2
 40
0.2
 49
0.1
 74
0
 49
-0.1
 74
0
  0
ENDTAB
  0
TABLE
  2
LAYER
  5
2
100
AcDbSymbolTable
 70
36
  0
LAYER
  5
10
100
AcDbSymbolTableRecord
100
AcDbLayerTableRecord
  2
0
 70
0
 62
7
  6
CONTINUOUS
370
-3
390
F
  0
LAYER
  5
1FA
100
AcDbSymbolTableRecord
100
AcDbLayerTableRecord
  2
DEFAULT_1
 70
0
 62
7
  6
CENTER
370
-3
390
F
  0
LAYER
  5
1FB
100
AcDbSymbolTableRecord
100
AcDbLayerTableRecord
  2
DEFAULT_2
 70
0
 62
8
  6
HIDDEN
370
-3
390
F
  0
LAYER
  5
1FC
100
AcDbSymbolTableRecord
100
AcDbLayerTableRecord
  2
DEFAULT_3
 70
0
 62
7
  6
PHANTOM
370
-3
390
F
  0
LAYER
  5
1FD
100
AcDbSymbolTableRecord
100
AcDbLayerTableRecord
  2
AUSFORMSCHRAEGEN
 70
0
 62
7
  6
CONTINUOUS
370
-3
390
F
  0
LAYER
  5
1FE
100
AcDbSymbolTableRecord
100
AcDbLayerTableRecord
  2
BEZUGSACHSEN
 70
0
 62
7
  6
CONTINUOUS
370
-3
390
F
  0
LAYER
  5
1FF
100
AcDbSymbolTableRecord
100
AcDbLayerTableRecord
  2
BEZUGSEBENEN
 70
0
 62
7
  6
CONTINUOUS
370
-3
390
F
  0
LAYER
  5
200
100
AcDbSymbolTableRecord
100
AcDbLayerTableRecord
  2
BG_STARTBEZUEGE
 70
0
 62
7
  6
CONTINUOUS
370
-3
390
F
  0
LAYER
  5
201
100
AcDbSymbolTableRecord
100
AcDbLayerTableRecord
  2
FASEN
 70
0
 62
7
  6
CONTINUOUS
370
-3
390
F
  0
LAYER
  5
202
100
AcDbSymbolTableRecord
100
AcDbLayerTableRecord
  2
FLAECHEN
 70
0
 62
7
  6
CONTINUOUS
370
-3
390
F
  0
LAYER
  5
203
100
AcDbSymbolTableRecord
100
AcDbLayerTableRecord
  2
HILFEN
 70
0
 62
7
  6
CONTINUOUS
370
-3
390
F
  0
LAYER
  5
204
100
AcDbSymbolTableRecord
100
AcDbLayerTableRecord
  2
KONSTRUKTIONSELEMENTE
 70
0
 62
7
  6
CONTINUOUS
370
-3
390
F
  0
LAYER
  5
205
100
AcDbSymbolTableRecord
100
AcDbLayerTableRecord
  2
NORM
 70
0
 62
7
  6
CONTINUOUS
370
-3
390
F
  0
LAYER
  5
206
100
AcDbSymbolTableRecord
100
AcDbLayerTableRecord
  2
PLATZIERUNG
 70
0
 62
7
  6
CONTINUOUS
370
-3
390
F
  0
LAYER
  5
207
100
AcDbSymbolTableRecord
100
AcDbLayerTableRecord
  2
PLAZIERUNG
 70
0
 62
7
  6
CONTINUOUS
370
-3
390
F
  0
LAYER
  5
208
100
AcDbSymbolTableRecord
100
AcDbLayerTableRecord
  2
RUNDUNGEN
 70
0
 62
7
  6
CONTINUOUS
370
-3
390
F
  0
LAYER
  5
209
100
AcDbSymbolTableRecord
100
AcDbLayerTableRecord
  2
TEIL_STARTBEZUEGE
 70
0
 62
7
  6
CONTINUOUS
370
-3
390
F
  0
LAYER
  5
20A
100
AcDbSymbolTableRecord
100
AcDbLayerTableRecord
  2
T_STARTBEZUEGE
 70
0
 62
7
  6
CONTINUOUS
370
-3
390
F
  0
ENDTAB
  0
TABLE
  2
STYLE
  5
3
100
AcDbSymbolTable
 70
1
  0
STYLE
  5
11
100
AcDbSymbolTableRecord
100
AcDbTextStyleTableRecord
  2
STANDARD
 70
0
 40
0.0
 41
0.7
 50
0.0
 71
0
 42
0.2
  3
txt
  4

  0
STYLE
  5
20B
100
AcDbSymbolTableRecord
100
AcDbTextStyleTableRecord
  2
TEXTSTYLE_1
 70
0
 40
0.0
 41
0.8
 50
0.0
 71
0
 42
0.2
  3
gdt
  4

  0
ENDTAB
  0
TABLE
  2
VIEW
  5
6
100
AcDbSymbolTable
 70
0
  0
ENDTAB
  0
TABLE
  2
UCS
  5
7
100
AcDbSymbolTable
 70
0
  0
ENDTAB
  0
TABLE
  2
APPID
  5
9
100
AcDbSymbolTable
 70
1
  0
APPID
  5
20C
100
AcDbSymbolTableRecord
100
AcDbRegAppTableRecord
  2
ACAD
 70
0
  0
ENDTAB
  0
TABLE
  2
BLOCK_RECORD
  5
1
100
AcDbSymbolTable
 70
0
  0
BLOCK_RECORD
  5
20D
100
AcDbSymbolTableRecord
100
AcDbBlockTableRecord
  2
*Model_Space
  0
BLOCK_RECORD
  5
20E
100
AcDbSymbolTableRecord
100
AcDbBlockTableRecord
  2
*Paper_Space
  0
ENDTAB
  0
TABLE
  2
DIMSTYLE
  5
A
100
AcDbSymbolTable
 70
1
100
AcDbDimStyleTable
 71
0
  0
DIMSTYLE
105
20F
100
AcDbSymbolTableRecord
100
AcDbDimStyleTableRecord
  2
STANDARD
 70
0
  3

  4

 40
1.0
 41
3.5
 42
0.0625
 43
0.38
 44
0.18
 45
0.0
 46
0.0
 47
0.005
 48
0.005
140
3.5
141
0.09
142
0.0
143
25.4
144
1.0
145
0.0
146
1.0
147
0.09
 71
1.0
 72
0.0
 73
0
 74
0
 75
0
 76
0
 77
1
 78
8
170
0
171
2
172
0
173
0
174
0
175
0
176
0
177
0
178
5
270
2
271
3
272
3
273
2
274
2
275
0
280
0
281
0
282
0
283
1
284
8
285
0
286
0
287
3
288
0
340
11
  0
ENDTAB
  0
ENDSEC
  0
SECTION
  2
BLOCKS
  0
BLOCK
  5
20
100
AcDbEntity
  8
0
100
AcDbBlockBegin
  2
*Model_Space
 70
0
 10
0.0
 20
0.0
 30
0.0
  3
*Model_Space
  1

  0
ENDBLK
  5
21
100
AcDbEntity
  8
0
100
AcDbBlockEnd
  0
BLOCK
  5
1C
100
AcDbEntity
  8
0
100
AcDbBlockBegin
  2
*Paper_Space
 70
0
 10
0.0
 20
0.0
 30
0.0
  3
*Paper_Space
  1

  0
ENDBLK
  5
1D
100
AcDbEntity
  8
0
100
AcDbBlockEnd
  0
ENDSEC
  0
SECTION
  2
ENTITIES
  0
MTEXT
  5
210
100
AcDbEntity
  8
0
100
AcDbMText
 62
5
  6
CONTINUOUS
  7
STANDARD
 71
1
 72
1
 10
126.72492639
 20
502.9711660659
 30
0.0
 11
0.0
 21
1.0
 31
0.0
 44
0.9
  1
RUD
 40
12.0
 41
32.0
  0
MTEXT
  5
211
100
AcDbEntity
  8
0
100
AcDbMText
 62
5
  6
CONTINUOUS
  7
STANDARD
 71
1
 72
1
 10
413.5540589434
 20
453.5154107968
 30
0.0
 11
0.0
 21
1.0
 31
0.0
 44
0.9
  1
VSAK 1-10/250
 40
12.0
 41
119.1428571429
  0
MTEXT
  5
212
100
AcDbEntity
  8
0
100
AcDbMText
 62
5
  6
CONTINUOUS
  7
STANDARD
 71
1
 72
1
 10
741.22340071
 20
436.4478827662
 30
0.0
 11
0.0
 21
1.0
 31
0.0
 44
0.9
  1
RUD VSAK 1-10/250
 40
12.0
 41
158.2857142857
  0
LINE
  5
213
100
AcDbEntity
  8
0
100
AcDbLine
 62
7
  6
CONTINUOUS
 10
0.0
 20
0.0
 11
0.0
 21
841.0
  0
LINE
  5
214
100
AcDbEntity
  8
0
100
AcDbLine
 62
7
  6
CONTINUOUS
 10
0.0
 20
0.0
 11
1189.0
 21
0.0
  0
LINE
  5
215
100
AcDbEntity
  8
0
100
AcDbLine
 62
7
  6
CONTINUOUS
 10
0.0
 20
841.0
 11
1189.0
 21
841.0
  0
LINE
  5
216
100
AcDbEntity
  8
0
100
AcDbLine
 62
7
  6
CONTINUOUS
 10
1189.0
 20
0.0
 11
1189.0
 21
841.0
  0
LINE
  5
217
100
AcDbEntity
  8
KONSTRUKTIONSELEMENTE
100
AcDbLine
 62
7
  6
CONTINUOUS
 10
271.6750624099
 20
53.8733965413
 11
280.7750624099
 21
53.8733965413
  0
LINE
  5
218
100
AcDbEntity
  8
KONSTRUKTIONSELEMENTE
100
AcDbLine
 62
7
  6
CONTINUOUS
 10
271.1750624099
 20
54.2269499319
 11
271.6750624099
 21
54.2269499319
  0
LINE
  5
219
100
AcDbEntity
  8
KONSTRUKTIONSELEMENTE
100
AcDbLine
 62
7
  6
CONTINUOUS
 10
280.7750624099
 20
54.2269499319
 11
281.2750624099
 21
54.2269499319
  0
LINE
  5
21A
100
AcDbEntity
  8
KONSTRUKTIONSELEMENTE
100
AcDbLine
 62
7
  6
CONTINUOUS
 10
267.6750624099
 20
68.015532165
 11
266.6244441965
 21
68.015532165
  0
LINE
  5
21B
100
AcDbEntity
  8
KONSTRUKTIONSELEMENTE
100
AcDbLine
 62
7
  6
CONTINUOUS
 10
284.7750624099
 20
68.015532165
 11
298.5858026086
 21
68.015532165
  0
LINE
  5
21C
100
AcDbEntity
  8
KONSTRUKTIONSELEMENTE
100
AcDbLine
 62
7
  6
CONTINUOUS
 10
303.1357427798
 20
70.9213670193
 11
297.2447421641
 21
72.863802571
  0
LINE
  5
21D
100
AcDbEntity
  8
KONSTRUKTIONSELEMENTE
100
AcDbLine
 62
7
  6
CONTINUOUS
 10
303.1357427798
 20
74.4569009252
 11
297.2447421641
 21
76.3993364769
  0
LINE
  5
21E
100
AcDbEntity
  8
KONSTRUKTIONSELEMENTE
100
AcDbLine
 62
7
  6
CONTINUOUS
 10
238.1833902421
 20
107.0416592495
 11
238.3946993729
 21
107.0747844491
  0
LINE
  5
21F
100
AcDbEntity
  8
KONSTRUKTIONSELEMENTE
100
AcDbLine
 62
7
  6
CONTINUOUS
 10
293.9991998597
 20
141.214557932
 11
290.4785676995
 21
141.214557932
  0
LINE
  5
220
100
AcDbEntity
  8
KONSTRUKTIONSELEMENTE
100
AcDbLine
 62
7
  6
CONTINUOUS
 10
261.9715571202
 20
141.214557932
 11
258.45092496
 21
141.214557932
  0
LINE
  5
221
100
AcDbEntity
  8
0
100
AcDbLine
 62
7
  6
CONTINUOUS
 10
270.6250624099
 20
149.164557932
 11
281.8250624099
 21
149.164557932
  0
LINE
  5
222
100
AcDbEntity
  8
KONSTRUKTIONSELEMENTE
100
AcDbLine
 62
7
  6
CONTINUOUS
 10
319.0095826437
 20
105.8679062469
 11
324.9005832595
 21
103.9254706951
  0
LINE
  5
223
100
AcDbEntity
  8
KONSTRUKTIONSELEMENTE
100
AcDbLine
 62
7
  6
CONTINUOUS
 10
282.9869545977
 20
122.8169614926
 11
323.5692169191
 21
109.4358002528
  0
LINE
  5
224
100
AcDbEntity
  8
KONSTRUKTIONSELEMENTE
100
AcDbLine
 62
7
  6
CONTINUOUS
 10
323.5692169191
 20
112.9713341587
 11
282.9869545977
 21
126.3524953986
  0
LINE
  5
225
100
AcDbEntity
  8
0
100
AcDbLine
 62
7
  6
CONTINUOUS
 10
270.6250624099
 20
161.264557932
 11
281.8250624099
 21
161.264557932
  0
LINE
  5
226
100
AcDbEntity
  8
KONSTRUKTIONSELEMENTE
100
AcDbLine
 62
7
  6
CONTINUOUS
 10
297.1388527251
 20
202.8149644946
 11
297.4618835818
 21
202.8816826878
  0
LINE
  5
227
100
AcDbEntity
  8
KONSTRUKTIONSELEMENTE
100
AcDbLine
 62
7
  6
CONTINUOUS
 10
298.0183651909
 20
206.3173278231
 11
298.3413963148
 21
206.3840461483
  0
LINE
  5
228
100
AcDbEntity
  8
KONSTRUKTIONSELEMENTE
100
AcDbLine
 62
7
  6
CONTINUOUS
 10
296.6835256048
 20
202.7758129169
 11
297.1388527251
 21
202.8149644946
  0
LINE
  5
229
100
AcDbEntity
  8
KONSTRUKTIONSELEMENTE
100
AcDbLine
 62
7
  6
CONTINUOUS
 10
298.3413963148
 20
206.3840461483
 11
298.7967233682
 21
206.423197693
  0
LINE
  5
22A
100
AcDbEntity
  8
KONSTRUKTIONSELEMENTE
100
AcDbLine
 62
7
  6
CONTINUOUS
 10
290.6896095041
 20
210.8828746631
 11
291.0177097824
 21
210.8938099689
  0
LINE
  5
22B
100
AcDbEntity
  8
KONSTRUKTIONSELEMENTE
100
AcDbLine
 62
7
  6
CONTINUOUS
 10
296.7386818066
 20
208.0947860574
 11
297.6356188306
 21
208.0874473538
  0
LINE
  5
22C
100
AcDbEntity
  8
KONSTRUKTIONSELEMENTE
100
AcDbLine
 62
7
  6
CONTINUOUS
 10
297.4491110486
 20
208.563401325
 11
298.3460478239
 21
208.5560624573
  0
LINE
  5
22D
100
AcDbEntity
  8
KONSTRUKTIONSELEMENTE
100
AcDbLine
 62
7
  6
CONTINUOUS
 10
296.5573324124
 20
203.2711841046
 11
297.2772502357
 21
203.2552058053
  0
LINE
  5
22E
100
AcDbEntity
  8
KONSTRUKTIONSELEMENTE
100
AcDbLine
 62
7
  6
CONTINUOUS
 10
298.2030002274
 20
205.9438012858
 11
298.9229165607
 21
205.9278265053
  0
LINE
  5
22F
100
AcDbEntity
  8
KONSTRUKTIONSELEMENTE
100
AcDbLine
 62
7
  6
CONTINUOUS
 10
255.3204460816
 20
209.5926101379
 11
255.8129050289
 21
209.5600286607
  0
LINE
  5
230
100
AcDbEntity
  8
KONSTRUKTIONSELEMENTE
100
AcDbLine
 62
7
  6
CONTINUOUS
 10
259.409450454
 20
208.580423277
 11
259.9468939236
 21
208.5226061919
  0
LINE
  5
231
100
AcDbEntity
  8
KONSTRUKTIONSELEMENTE
100
AcDbLine
 62
7
  6
CONTINUOUS
 10
290.750890475
 20
210.2904776573
 11
291.2766389736
 21
210.4160809165
  0
LINE
  5
232
100
AcDbEntity
  8
KONSTRUKTIONSELEMENTE
100
AcDbLine
 62
7
  6
CONTINUOUS
 10
291.1787376666
 20
214.9791883202
 11
291.7044891278
 21
215.104789176
  0
LINE
  5
233
100
AcDbEntity
  8
KONSTRUKTIONSELEMENTE
100
AcDbLine
 62
7
  6
CONTINUOUS
 10
259.9468939236
 20
208.5226061919
 11
260.3318369832
 21
208.6131567947
  0
LINE
  5
234
100
AcDbEntity
  8
KONSTRUKTIONSELEMENTE
100
AcDbLine
 62
7
  6
CONTINUOUS
 10
254.8690904687
 20
209.4964582372
 11
255.3204460816
 21
209.5926101379
  0
LINE
  5
235
100
AcDbEntity
  8
KONSTRUKTIONSELEMENTE
100
AcDbLine
 62
7
  6
CONTINUOUS
 10
259.6056129544
 20
209.0871674403
 11
259.9324453883
 21
209.1179884347
  0
LINE
  5
236
100
AcDbEntity
  8
KONSTRUKTIONSELEMENTE
100
AcDbLine
 62
7
  6
CONTINUOUS
 10
288.2627081953
 20
214.6826458649
 11
288.6569989027
 21
214.7128856291
  0
LINE
  5
237
100
AcDbEntity
  8
KONSTRUKTIONSELEMENTE
100
AcDbLine
 62
7
  6
CONTINUOUS
 10
255.262061564
 20
209.1284207721
 11
255.5317229244
 21
209.1465838347
  0
LINE
  5
238
100
AcDbEntity
  8
KONSTRUKTIONSELEMENTE
100
AcDbLine
 62
7
  6
CONTINUOUS
 10
261.4814258347
 20
215.8691396762
 11
261.8763254922
 21
215.8899843758
  0
LINE
  5
239
100
AcDbEntity
  8
KONSTRUKTIONSELEMENTE
100
AcDbLine
 62
7
  6
CONTINUOUS
 10
291.4376669041
 20
214.5014593261
 11
291.7657671361
 21
214.5123945735
  0
LINE
  5
23A
100
AcDbEntity
  8
KONSTRUKTIONSELEMENTE
100
AcDbLine
 62
7
  6
CONTINUOUS
 10
261.7849530685
 20
215.3014779411
 11
262.1120705233
 21
215.2738462088
  0
LINE
  5
23B
100
AcDbEntity
  8
KONSTRUKTIONSELEMENTE
100
AcDbLine
 62
7
  6
CONTINUOUS
 10
288.1696930246
 20
215.215129059
 11
288.4403053209
 21
215.1909150022
  0
LINE
  5
23C
100
AcDbEntity
  8
KONSTRUKTIONSELEMENTE
100
AcDbLine
 62
7
  6
CONTINUOUS
 10
290.3575627385
 20
210.3314099427
 11
290.750890475
 21
210.2904776573
  0
LINE
  5
23D
100
AcDbEntity
  8
KONSTRUKTIONSELEMENTE
100
AcDbLine
 62
7
  6
CONTINUOUS
 10
291.7044891278
 20
215.104789176
 11
292.0978138611
 21
215.063859243
  0
LINE
  5
23E
100
AcDbEntity
  8
KONSTRUKTIONSELEMENTE
100
AcDbLine
 62
7
  6
CONTINUOUS
 10
296.286640362
 20
202.8585060061
 11
296.6835256048
 21
202.7758129169
  0
LINE
  5
23F
100
AcDbEntity
  8
KONSTRUKTIONSELEMENTE
100
AcDbLine
 62
7
  6
CONTINUOUS
 10
298.7967233682
 20
206.423197693
 11
299.1936085776
 21
206.3405045873
  0
LINE
  5
240
100
AcDbEntity
  8
KONSTRUKTIONSELEMENTE
100
AcDbLine
 62
7
  6
CONTINUOUS
 10
261.8763254922
 20
215.8899843758
 11
262.3949952206
 21
215.7377674926
  0
LINE
  5
241
100
AcDbEntity
  8
KONSTRUKTIONSELEMENTE
100
AcDbLine
 62
7
  6
CONTINUOUS
 10
259.2606405325
 20
209.1902592978
 11
259.6056129544
 21
209.0871674403
  0
LINE
  5
242
100
AcDbEntity
  8
KONSTRUKTIONSELEMENTE
100
AcDbLine
 62
7
  6
CONTINUOUS
 10
256.8923311118
 20
208.1204607013
 11
259.3373449115
 21
207.3646304044
  0
LINE
  5
243
100
AcDbEntity
  8
KONSTRUKTIONSELEMENTE
100
AcDbLine
 62
7
  6
CONTINUOUS
 10
256.7870828878
 20
207.5873638317
 11
259.0092990337
 21
206.882277976
  0
LINE
  5
244
100
AcDbEntity
  8
0
100
AcDbLine
 62
7
  6
CONTINUOUS
 10
294.6115735752
 20
219.2714194804
 11
285.2250624099
 21
222.321281837
  0
LINE
  5
245
100
AcDbEntity
  8
KONSTRUKTIONSELEMENTE
100
AcDbLine
 62
7
  6
CONTINUOUS
 10
255.5317229244
 20
209.1465838347
 11
255.8424874851
 21
209.0360133224
  0
LINE
  5
246
100
AcDbEntity
  8
KONSTRUKTIONSELEMENTE
100
AcDbLine
 62
7
  6
CONTINUOUS
 10
255.8129050289
 20
209.5600286607
 11
256.1236695895
 21
209.4494581484
  0
LINE
  5
247
100
AcDbEntity
  8
KONSTRUKTIONSELEMENTE
100
AcDbLine
 62
7
  6
CONTINUOUS
 10
290.3624966418
 20
211.0070711776
 11
290.6896095041
 21
210.8828746631
  0
LINE
  5
248
100
AcDbEntity
  8
KONSTRUKTIONSELEMENTE
100
AcDbLine
 62
7
  6
CONTINUOUS
 10
291.7657671361
 20
214.5123945735
 11
292.0928829841
 21
214.3881956848
  0
LINE
  5
249
100
AcDbEntity
  8
KONSTRUKTIONSELEMENTE
100
AcDbLine
 62
7
  6
CONTINUOUS
 10
258.9882277772
 20
208.7576990272
 11
259.409450454
 21
208.580423277
  0
LINE
  5
24A
100
AcDbEntity
  8
KONSTRUKTIONSELEMENTE
100
AcDbLine
 62
7
  6
CONTINUOUS
 10
296.2558153782
 20
203.4010179213
 11
296.5573324124
 21
203.2711841046
  0
LINE
  5
24B
100
AcDbEntity
  8
KONSTRUKTIONSELEMENTE
100
AcDbLine
 62
7
  6
CONTINUOUS
 10
298.9229165607
 20
205.9278265053
 11
299.2244335949
 21
205.7979926887
  0
LINE
  5
24C
100
AcDbEntity
  8
KONSTRUKTIONSELEMENTE
100
AcDbLine
 62
7
  6
CONTINUOUS
 10
289.9652253691
 20
210.5074716303
 11
290.3575627385
 21
210.3314099427
  0
LINE
  5
24D
100
AcDbEntity
  8
KONSTRUKTIONSELEMENTE
100
AcDbLine
 62
7
  6
CONTINUOUS
 10
295.8159024653
 20
203.0906069786
 11
296.286640362
 21
202.8585060061
  0
LINE
  5
24E
100
AcDbEntity
  8
KONSTRUKTIONSELEMENTE
100
AcDbLine
 62
7
  6
CONTINUOUS
 10
262.1120705233
 20
215.2738462088
 11
262.433290984
 21
215.1112070108
  0
LINE
  5
24F
100
AcDbEntity
  8
KONSTRUKTIONSELEMENTE
100
AcDbLine
 62
7
  6
CONTINUOUS
 10
258.8975287344
 20
209.4272647428
 11
259.2606405325
 21
209.1902592978
  0
LINE
  5
250
100
AcDbEntity
  8
KONSTRUKTIONSELEMENTE
100
AcDbLine
 62
7
  6
CONTINUOUS
 10
257.5565248721
 20
204.7461464407
 11
253.4220766121
 21
207.557967485
  0
LINE
  5
251
100
AcDbEntity
  8
KONSTRUKTIONSELEMENTE
100
AcDbLine
 62
7
  6
CONTINUOUS
 10
257.8377069765
 20
205.1595912667
 11
255.990400281
 21
206.4159368575
  0
LINE
  5
252
100
AcDbEntity
  8
KONSTRUKTIONSELEMENTE
100
AcDbLine
 62
7
  6
CONTINUOUS
 10
255.4625984384
 20
206.7748926927
 11
254.1430935854
 21
207.6722824483
  0
LINE
  5
253
100
AcDbEntity
  8
KONSTRUKTIONSELEMENTE
100
AcDbLine
 62
7
  6
CONTINUOUS
 10
255.8424874851
 20
209.0360133224
 11
256.1063886528
 21
208.8565352372
  0
LINE
  5
254
100
AcDbEntity
  8
KONSTRUKTIONSELEMENTE
100
AcDbLine
 62
7
  6
CONTINUOUS
 10
256.1236695895
 20
209.4494581484
 11
256.475537731
 21
209.2101540907
  0
LINE
  5
255
100
AcDbEntity
  8
BEZUGSACHSEN
100
AcDbLine
 62
7
  6
CONTINUOUS
 10
256.9188360738
 20
141.9289827126
 11
252.1692155199
 21
147.5893600711
  0
LINE
  5
256
100
AcDbEntity
  8
RUNDUNGEN
100
AcDbLine
 62
7
  6
CONTINUOUS
 10
252.1692155199
 20
147.5893600711
 11
251.6929735236
 21
148.1569231811
  0
LINE
  5
257
100
AcDbEntity
  8
KONSTRUKTIONSELEMENTE
100
AcDbLine
 62
7
  6
CONTINUOUS
 10
237.3381537186
 20
108.3233720136
 11
238.1833902421
 21
107.0416592495
  0
LINE
  5
258
100
AcDbEntity
  8
KONSTRUKTIONSELEMENTE
100
AcDbLine
 62
7
  6
CONTINUOUS
 10
243.8676058625
 20
98.4221409108
 11
262.5733183035
 21
70.0568848773
  0
LINE
  5
259
100
AcDbEntity
  8
KONSTRUKTIONSELEMENTE
100
AcDbLine
 62
7
  6
CONTINUOUS
 10
243.8676058625
 20
98.7756943014
 11
243.6562967316
 21
99.0961224925
  0
LINE
  5
25A
100
AcDbEntity
  8
KONSTRUKTIONSELEMENTE
100
AcDbLine
 62
7
  6
CONTINUOUS
 10
246.3303612545
 20
108.0728874788
 11
250.4841407662
 21
101.7741153938
  0
LINE
  5
25B
100
AcDbEntity
  8
0
100
AcDbLine
 62
7
  6
CONTINUOUS
 10
115.2250624099
 20
627.114557932
 11
115.2250624099
 21
417.114557932
  0
LINE
  5
25C
100
AcDbEntity
  8
KONSTRUKTIONSELEMENTE
100
AcDbLine
 62
7
  6
CONTINUOUS
 10
292.0978138611
 20
215.063859243
 11
292.4901542105
 21
214.8877951738
  0
LINE
  5
25D
100
AcDbEntity
  8
KONSTRUKTIONSELEMENTE
100
AcDbLine
 62
7
  6
CONTINUOUS
 10
299.1936085776
 20
206.3405045873
 11
299.6643481397
 21
206.1084001827
  0
LINE
  5
25E
100
AcDbEntity
  8
KONSTRUKTIONSELEMENTE
100
AcDbLine
 62
7
  6
CONTINUOUS
 10
285.2250624099
 20
213.5335618194
 11
285.4180776961
 21
213.430222124
  0
LINE
  5
25F
100
AcDbEntity
  8
KONSTRUKTIONSELEMENTE
100
AcDbLine
 62
7
  6
CONTINUOUS
 10
287.2547361281
 20
212.4468817538
 11
287.7690030449
 21
212.1715450817
  0
LINE
  5
260
100
AcDbEntity
  8
KONSTRUKTIONSELEMENTE
100
AcDbLine
 62
7
  6
CONTINUOUS
 10
286.4725539856
 20
215.3997464386
 11
287.7214836027
 21
214.7310739786
  0
LINE
  5
261
100
AcDbEntity
  8
KONSTRUKTIONSELEMENTE
100
AcDbLine
 62
7
  6
CONTINUOUS
 10
286.7738328853
 20
215.9624675963
 11
288.1696930246
 21
215.215129059
  0
LINE
  5
262
100
AcDbEntity
  8
KONSTRUKTIONSELEMENTE
100
AcDbLine
 62
7
  6
CONTINUOUS
 10
287.5270302752
 20
217.3692707532
 11
288.9228904145
 21
216.6219322159
  0
LINE
  5
263
100
AcDbEntity
  8
KONSTRUKTIONSELEMENTE
100
AcDbLine
 62
7
  6
CONTINUOUS
 10
287.3372977322
 20
218.0742068842
 11
289.1004909031
 21
217.1301995526
  0
LINE
  5
264
100
AcDbEntity
  8
KONSTRUKTIONSELEMENTE
100
AcDbLine
 62
7
  6
CONTINUOUS
 10
262.3949952206
 20
215.7377674926
 11
262.7781005433
 21
215.4885977455
  0
LINE
  5
265
100
AcDbEntity
  8
KONSTRUKTIONSELEMENTE
100
AcDbLine
 62
7
  6
CONTINUOUS
 10
258.5488652787
 20
209.0688878001
 11
258.9882277772
 21
208.7576990272
  0
LINE
  5
266
100
AcDbEntity
  8
KONSTRUKTIONSELEMENTE
100
AcDbLine
 62
7
  6
CONTINUOUS
 10
262.433290984
 20
215.1112070108
 11
262.7486133283
 21
214.8135602771
  0
LINE
  5
267
100
AcDbEntity
  8
KONSTRUKTIONSELEMENTE
100
AcDbLine
 62
7
  6
CONTINUOUS
 10
258.5488652787
 20
209.0688878001
 11
256.1851035538
 21
211.3685818749
  0
LINE
  5
268
100
AcDbEntity
  8
KONSTRUKTIONSELEMENTE
100
AcDbLine
 62
7
  6
CONTINUOUS
 10
258.8975287344
 20
209.4272647428
 11
256.5337670096
 21
211.7269588175
  0
LINE
  5
269
100
AcDbEntity
  8
KONSTRUKTIONSELEMENTE
100
AcDbLine
 62
7
  6
CONTINUOUS
 10
257.9284201676
 20
213.1604659047
 11
260.2921818924
 21
210.8607718299
  0
LINE
  5
26A
100
AcDbEntity
  8
KONSTRUKTIONSELEMENTE
100
AcDbLine
 62
7
  6
CONTINUOUS
 10
258.2770834571
 20
213.5188426764
 11
260.6408451819
 21
211.2191486017
  0
LINE
  5
26B
100
AcDbEntity
  8
KONSTRUKTIONSELEMENTE
100
AcDbLine
 62
7
  6
CONTINUOUS
 10
289.3781958995
 20
210.974265377
 11
289.9652253691
 21
210.5074716303
  0
LINE
  5
26C
100
AcDbEntity
  8
KONSTRUKTIONSELEMENTE
100
AcDbLine
 62
7
  6
CONTINUOUS
 10
289.7754671723
 20
211.4738649243
 11
290.3624966418
 21
211.0070711776
  0
LINE
  5
26D
100
AcDbEntity
  8
KONSTRUKTIONSELEMENTE
100
AcDbLine
 62
7
  6
CONTINUOUS
 10
291.2242354887
 20
212.2246710482
 11
291.8112649582
 21
211.7578773015
  0
LINE
  5
26E
100
AcDbEntity
  8
KONSTRUKTIONSELEMENTE
100
AcDbLine
 62
7
  6
CONTINUOUS
 10
291.6215067151
 20
212.7242705371
 11
292.5998891643
 21
211.9462809594
  0
LINE
  5
26F
100
AcDbEntity
  8
KONSTRUKTIONSELEMENTE
100
AcDbLine
 62
7
  6
CONTINUOUS
 10
292.8044430242
 20
213.006876024
 11
293.1957960039
 21
212.6956801929
  0
LINE
  5
270
100
AcDbEntity
  8
KONSTRUKTIONSELEMENTE
100
AcDbLine
 62
7
  6
CONTINUOUS
 10
292.0928829841
 20
214.3881956848
 11
292.6799124537
 21
213.9214019382
  0
LINE
  5
271
100
AcDbEntity
  8
KONSTRUKTIONSELEMENTE
100
AcDbLine
 62
7
  6
CONTINUOUS
 10
292.4901542105
 20
214.8877951738
 11
293.07718368
 21
214.4210014271
  0
LINE
  5
272
100
AcDbEntity
  8
KONSTRUKTIONSELEMENTE
100
AcDbLine
 62
7
  6
CONTINUOUS
 10
289.1004909031
 20
217.1301995526
 11
289.4176107848
 21
216.8397438988
  0
LINE
  5
273
100
AcDbEntity
  8
KONSTRUKTIONSELEMENTE
100
AcDbLine
 62
7
  6
CONTINUOUS
 10
262.7781005433
 20
215.4885977455
 11
263.1553080964
 21
215.104419978
  0
LINE
  5
274
100
AcDbEntity
  8
KONSTRUKTIONSELEMENTE
100
AcDbLine
 62
7
  6
CONTINUOUS
 10
256.3234259348
 20
208.6081499143
 11
256.1063886528
 21
208.8565352372
  0
LINE
  5
275
100
AcDbEntity
  8
KONSTRUKTIONSELEMENTE
100
AcDbLine
 62
7
  6
CONTINUOUS
 10
256.692575013
 20
208.9617687678
 11
256.475537731
 21
209.2101540907
  0
LINE
  5
276
100
AcDbEntity
  8
KONSTRUKTIONSELEMENTE
100
AcDbLine
 62
7
  6
CONTINUOUS
 10
260.9639863623
 20
210.788500677
 11
260.6408451819
 21
211.2191486017
  0
LINE
  5
277
100
AcDbEntity
  8
KONSTRUKTIONSELEMENTE
100
AcDbLine
 62
7
  6
CONTINUOUS
 10
262.3624461713
 20
210.4829007142
 11
259.4538491618
 21
214.5498483947
  0
LINE
  5
278
100
AcDbEntity
  8
KONSTRUKTIONSELEMENTE
100
AcDbLine
 62
7
  6
CONTINUOUS
 10
262.3978306838
 20
211.2929452241
 11
260.2318541421
 21
214.3215233473
  0
LINE
  5
279
100
AcDbEntity
  8
KONSTRUKTIONSELEMENTE
100
AcDbLine
 62
7
  6
CONTINUOUS
 10
262.7486133283
 20
214.8135602771
 11
263.6768889457
 21
213.5155982849
  0
LINE
  5
27A
100
AcDbEntity
  8
KONSTRUKTIONSELEMENTE
100
AcDbLine
 62
7
  6
CONTINUOUS
 10
263.1553080964
 20
215.104419978
 11
264.0835837137
 21
213.8064579859
  0
LINE
  5
27B
100
AcDbEntity
  8
KONSTRUKTIONSELEMENTE
100
AcDbLine
 62
7
  6
CONTINUOUS
 10
260.5390727049
 20
210.5043075749
 11
260.2921818924
 21
210.8607718299
  0
LINE
  5
27C
100
AcDbEntity
  8
0
100
AcDbLine
 62
7
  6
CONTINUOUS
 10
151.2250624099
 20
627.114557932
 11
151.2250624099
 21
417.114557932
  0
LINE
  5
27D
100
AcDbEntity
  8
KONSTRUKTIONSELEMENTE
100
AcDbLine
 62
7
  6
CONTINUOUS
 10
295.9758138569
 20
203.7274003279
 11
296.2558153782
 21
203.4010179213
  0
LINE
  5
27E
100
AcDbEntity
  8
KONSTRUKTIONSELEMENTE
100
AcDbLine
 62
7
  6
CONTINUOUS
 10
299.2244335949
 20
205.7979926887
 11
299.5044368066
 21
205.4716068623
  0
LINE
  5
27F
100
AcDbEntity
  8
KONSTRUKTIONSELEMENTE
100
AcDbLine
 62
7
  6
CONTINUOUS
 10
288.9228904145
 20
216.6219322159
 11
289.0930764109
 21
216.4101444399
  0
LINE
  5
280
100
AcDbEntity
  8
KONSTRUKTIONSELEMENTE
100
AcDbLine
 62
7
  6
CONTINUOUS
 10
295.4989729141
 20
203.4916967404
 11
295.8159024653
 21
203.0906069786
  0
LINE
  5
281
100
AcDbEntity
  8
KONSTRUKTIONSELEMENTE
100
AcDbLine
 62
7
  6
CONTINUOUS
 10
299.6643481397
 20
206.1084001827
 11
299.9812776825
 21
205.7073104168
  0
LINE
  5
282
100
AcDbEntity
  8
KONSTRUKTIONSELEMENTE
100
AcDbLine
 62
7
  6
CONTINUOUS
 10
289.1182792981
 20
211.3168626164
 11
289.3781958995
 21
210.974265377
  0
LINE
  5
283
100
AcDbEntity
  8
KONSTRUKTIONSELEMENTE
100
AcDbLine
 62
7
  6
CONTINUOUS
 10
293.07718368
 20
214.4210014271
 11
293.3370973015
 21
214.0784065692
  0
LINE
  5
284
100
AcDbEntity
  8
0
100
AcDbLine
 62
7
  6
CONTINUOUS
 10
305.9750624099
 20
203.6309188949
 11
294.6115735752
 21
219.2714194804
  0
LINE
  5
285
100
AcDbEntity
  8
KONSTRUKTIONSELEMENTE
100
AcDbLine
 62
7
  6
CONTINUOUS
 10
289.5807750664
 20
211.764596976
 11
289.7754671723
 21
211.4738649243
  0
LINE
  5
286
100
AcDbEntity
  8
KONSTRUKTIONSELEMENTE
100
AcDbLine
 62
7
  6
CONTINUOUS
 10
294.172276991
 20
205.802948396
 11
294.4475883972
 21
205.3855713127
  0
LINE
  5
287
100
AcDbEntity
  8
KONSTRUKTIONSELEMENTE
100
AcDbLine
 62
7
  6
CONTINUOUS
 10
264.3252266878
 20
213.325327597
 11
264.0835837137
 21
213.8064579859
  0
LINE
  5
288
100
AcDbEntity
  8
KONSTRUKTIONSELEMENTE
100
AcDbLine
 62
7
  6
CONTINUOUS
 10
256.9038518558
 20
208.5157424647
 11
256.692575013
 21
208.9617687678
  0
LINE
  5
289
100
AcDbEntity
  8
KONSTRUKTIONSELEMENTE
100
AcDbLine
 62
7
  6
CONTINUOUS
 10
292.6799124537
 20
213.9214019382
 11
292.8746015738
 21
213.6306722607
  0
LINE
  5
28A
100
AcDbEntity
  8
KONSTRUKTIONSELEMENTE
100
AcDbLine
 62
7
  6
CONTINUOUS
 10
298.3460478239
 20
208.5560624573
 11
298.62135923
 21
208.1386853741
  0
LINE
  5
28B
100
AcDbEntity
  8
KONSTRUKTIONSELEMENTE
100
AcDbLine
 62
7
  6
CONTINUOUS
 10
263.8566468844
 20
213.1209986874
 11
263.6768889457
 21
213.5155982849
  0
LINE
  5
28C
100
AcDbEntity
  8
KONSTRUKTIONSELEMENTE
100
AcDbLine
 62
7
  6
CONTINUOUS
 10
261.1527669016
 20
210.3723071359
 11
260.9639863623
 21
210.788500677
  0
LINE
  5
28D
100
AcDbEntity
  8
KONSTRUKTIONSELEMENTE
100
AcDbLine
 62
7
  6
CONTINUOUS
 10
260.6516028229
 20
210.1622977556
 11
260.5390727049
 21
210.5043075749
  0
LINE
  5
28E
100
AcDbEntity
  8
KONSTRUKTIONSELEMENTE
100
AcDbLine
 62
7
  6
CONTINUOUS
 10
256.4056324695
 20
208.3506829616
 11
256.3234259348
 21
208.6081499143
  0
LINE
  5
28F
100
AcDbEntity
  8
RUNDUNGEN
100
AcDbLine
 62
7
  6
CONTINUOUS
 10
251.1359495887
 20
165.6043995388
 11
246.4750624099
 21
184.298196969
  0
LINE
  5
290
100
AcDbEntity
  8
KONSTRUKTIONSELEMENTE
100
AcDbLine
 62
7
  6
CONTINUOUS
 10
288.9898020664
 20
211.6908588973
 11
289.1182792981
 21
211.3168626164
  0
LINE
  5
291
100
AcDbEntity
  8
KONSTRUKTIONSELEMENTE
100
AcDbLine
 62
7
  6
CONTINUOUS
 10
293.3370973015
 20
214.0784065692
 11
293.4655775364
 21
213.704407936
  0
LINE
  5
292
100
AcDbEntity
  8
KONSTRUKTIONSELEMENTE
100
AcDbLine
 62
7
  6
CONTINUOUS
 10
289.4176107848
 20
216.8397438988
 11
289.5608357424
 21
216.4010493648
  0
LINE
  5
293
100
AcDbEntity
  8
KONSTRUKTIONSELEMENTE
100
AcDbLine
 62
7
  6
CONTINUOUS
 10
264.4372016914
 20
212.8822509522
 11
264.3252266878
 21
213.325327597
  0
LINE
  5
294
100
AcDbEntity
  8
KONSTRUKTIONSELEMENTE
100
AcDbLine
 62
7
  6
CONTINUOUS
 10
236.8696926538
 20
109.8175532073
 11
236.8696926538
 21
113.3530871132
  0
LINE
  5
295
100
AcDbEntity
  8
KONSTRUKTIONSELEMENTE
100
AcDbLine
 62
7
  6
CONTINUOUS
 10
243.5157584122
 20
99.5443768506
 11
243.5157584122
 21
102.3728039753
  0
LINE
  5
296
100
AcDbEntity
  8
KONSTRUKTIONSELEMENTE
100
AcDbLine
 62
7
  6
CONTINUOUS
 10
243.8676058625
 20
98.4221409108
 11
243.8676058625
 21
98.7756943014
  0
LINE
  5
297
100
AcDbEntity
  8
0
100
AcDbLine
 62
7
  6
CONTINUOUS
 10
246.4750624099
 20
203.6309188949
 11
246.4750624099
 21
184.298196969
  0
LINE
  5
298
100
AcDbEntity
  8
RUNDUNGEN
100
AcDbLine
 62
7
  6
CONTINUOUS
 10
251.2250624099
 20
149.4424984005
 11
251.2250624099
 21
176.9608680644
  0
LINE
  5
299
100
AcDbEntity
  8
KONSTRUKTIONSELEMENTE
100
AcDbLine
 62
7
  6
CONTINUOUS
 10
295.37277973
 20
203.9870679323
 11
295.4989729141
 21
203.4916967404
  0
LINE
  5
29A
100
AcDbEntity
  8
KONSTRUKTIONSELEMENTE
100
AcDbLine
 62
7
  6
CONTINUOUS
 10
299.9812776825
 20
205.7073104168
 11
300.107470875
 21
205.211939229
  0
LINE
  5
29B
100
AcDbEntity
  8
KONSTRUKTIONSELEMENTE
100
AcDbLine
 62
7
  6
CONTINUOUS
 10
295.8865469956
 20
204.1480675761
 11
295.9758138569
 21
203.7274003279
  0
LINE
  5
29C
100
AcDbEntity
  8
KONSTRUKTIONSELEMENTE
100
AcDbLine
 62
7
  6
CONTINUOUS
 10
289.517522365
 20
212.0867281128
 11
289.5807750664
 21
211.764596976
  0
LINE
  5
29D
100
AcDbEntity
  8
KONSTRUKTIONSELEMENTE
100
AcDbLine
 62
7
  6
CONTINUOUS
 10
292.8746015738
 20
213.6306722607
 11
292.9378543215
 21
213.3085411821
  0
LINE
  5
29E
100
AcDbEntity
  8
KONSTRUKTIONSELEMENTE
100
AcDbLine
 62
7
  6
CONTINUOUS
 10
263.9067368093
 20
212.7644528947
 11
263.8566468844
 21
213.1209986874
  0
LINE
  5
29F
100
AcDbEntity
  8
KONSTRUKTIONSELEMENTE
100
AcDbLine
 62
7
  6
CONTINUOUS
 10
261.225326096
 20
209.836654469
 11
261.1527669016
 21
210.3723071359
  0
LINE
  5
2A0
100
AcDbEntity
  8
KONSTRUKTIONSELEMENTE
100
AcDbLine
 62
7
  6
CONTINUOUS
 10
261.9715571202
 20
161.8748119698
 11
261.9715571202
 21
155.214557932
  0
LINE
  5
2A1
100
AcDbEntity
  8
BEZUGSACHSEN
100
AcDbLine
 62
7
  6
CONTINUOUS
 10
261.9715571202
 20
141.214557932
 11
261.9715571202
 21
147.8183315169
  0
LINE
  5
2A2
100
AcDbEntity
  8
0
100
AcDbLine
 62
7
  6
CONTINUOUS
 10
267.2250624099
 20
301.0573330564
 11
267.2250624099
 21
198.1717828076
  0
LINE
  5
2A3
100
AcDbEntity
  8
KONSTRUKTIONSELEMENTE
100
AcDbLine
 62
7
  6
CONTINUOUS
 10
268.2250624099
 20
143.2400405172
 11
268.2250624099
 21
133.7764628154
  0
LINE
  5
2A4
100
AcDbEntity
  8
KONSTRUKTIONSELEMENTE
100
AcDbLine
 62
7
  6
CONTINUOUS
 10
269.6750624099
 20
65.6214798503
 11
269.6750624099
 21
55.2876101036
  0
LINE
  5
2A5
100
AcDbEntity
  8
BEZUGSACHSEN
100
AcDbLine
 62
7
  6
CONTINUOUS
 10
270.6250624099
 20
155.214557932
 11
270.6250624099
 21
143.7182410437
  0
LINE
  5
2A6
100
AcDbEntity
  8
KONSTRUKTIONSELEMENTE
100
AcDbLine
 62
7
  6
CONTINUOUS
 10
270.6250624099
 20
155.214557932
 11
270.6250624099
 21
168.614557932
  0
LINE
  5
2A7
100
AcDbEntity
  8
KONSTRUKTIONSELEMENTE
100
AcDbLine
 62
7
  6
CONTINUOUS
 10
271.6750624099
 20
53.8733965413
 11
271.6750624099
 21
65.1871050403
  0
LINE
  5
2A8
100
AcDbEntity
  8
KONSTRUKTIONSELEMENTE
100
AcDbLine
 62
7
  6
CONTINUOUS
 10
272.7250624099
 20
172.9763953775
 11
272.7250624099
 21
164.8891611876
  0
LINE
  5
2A9
100
AcDbEntity
  8
KONSTRUKTIONSELEMENTE
100
AcDbLine
 62
7
  6
CONTINUOUS
 10
272.7250624099
 20
144.3830645331
 11
272.7250624099
 21
133.7764628154
  0
LINE
  5
2AA
100
AcDbEntity
  8
KONSTRUKTIONSELEMENTE
100
AcDbLine
 62
7
  6
CONTINUOUS
 10
273.7250624099
 20
189.4750244844
 11
273.7250624099
 21
180.9565523041
  0
LINE
  5
2AB
100
AcDbEntity
  8
KONSTRUKTIONSELEMENTE
100
AcDbLine
 62
7
  6
CONTINUOUS
 10
273.7250624099
 20
134.7534920423
 11
273.7250624099
 21
117.2430844023
  0
LINE
  5
2AC
100
AcDbEntity
  8
KONSTRUKTIONSELEMENTE
100
AcDbLine
 62
7
  6
CONTINUOUS
 10
273.9750624099
 20
165.6894137193
 11
273.9750624099
 21
161.264557932
  0
LINE
  5
2AD
100
AcDbEntity
  8
KONSTRUKTIONSELEMENTE
100
AcDbLine
 62
7
  6
CONTINUOUS
 10
273.9750624099
 20
149.164557932
 11
273.9750624099
 21
143.5828120015
  0
LINE
  5
2AE
100
AcDbEntity
  8
KONSTRUKTIONSELEMENTE
100
AcDbLine
 62
7
  6
CONTINUOUS
 10
278.4750624099
 20
165.6894137193
 11
278.4750624099
 21
161.264557932
  0
LINE
  5
2AF
100
AcDbEntity
  8
KONSTRUKTIONSELEMENTE
100
AcDbLine
 62
7
  6
CONTINUOUS
 10
278.4750624099
 20
149.164557932
 11
278.4750624099
 21
143.5828120015
  0
LINE
  5
2B0
100
AcDbEntity
  8
KONSTRUKTIONSELEMENTE
100
AcDbLine
 62
7
  6
CONTINUOUS
 10
278.7250624099
 20
189.4750244844
 11
278.7250624099
 21
180.9565523041
  0
LINE
  5
2B1
100
AcDbEntity
  8
KONSTRUKTIONSELEMENTE
100
AcDbLine
 62
7
  6
CONTINUOUS
 10
278.7250624099
 20
134.7534920423
 11
278.7250624099
 21
117.2430844023
  0
LINE
  5
2B2
100
AcDbEntity
  8
KONSTRUKTIONSELEMENTE
100
AcDbLine
 62
7
  6
CONTINUOUS
 10
279.7250624099
 20
133.7764628154
 11
279.7250624099
 21
144.3830645331
  0
LINE
  5
2B3
100
AcDbEntity
  8
KONSTRUKTIONSELEMENTE
100
AcDbLine
 62
7
  6
CONTINUOUS
 10
279.7250624099
 20
164.8891611876
 11
279.7250624099
 21
172.9763953775
  0
LINE
  5
2B4
100
AcDbEntity
  8
KONSTRUKTIONSELEMENTE
100
AcDbLine
 62
7
  6
CONTINUOUS
 10
256.8923311118
 20
208.1204607013
 11
256.9038518558
 21
208.5157424647
  0
LINE
  5
2B5
100
AcDbEntity
  8
KONSTRUKTIONSELEMENTE
100
AcDbLine
 62
7
  6
CONTINUOUS
 10
264.4136122678
 20
212.3422214739
 11
264.4372016914
 21
212.8822509522
  0
LINE
  5
2B6
100
AcDbEntity
  8
KONSTRUKTIONSELEMENTE
100
AcDbLine
 62
7
  6
CONTINUOUS
 10
260.6297719673
 20
209.8347419782
 11
260.6516028229
 21
210.1622977556
  0
LINE
  5
2B7
100
AcDbEntity
  8
KONSTRUKTIONSELEMENTE
100
AcDbLine
 62
7
  6
CONTINUOUS
 10
299.5044368066
 20
205.4716068623
 11
299.5937019775
 21
205.0509430338
  0
LINE
  5
2B8
100
AcDbEntity
  8
KONSTRUKTIONSELEMENTE
100
AcDbLine
 62
7
  6
CONTINUOUS
 10
289.0930764109
 20
216.4101444399
 11
289.1395839963
 21
216.1439028428
  0
LINE
  5
2B9
100
AcDbEntity
  8
KONSTRUKTIONSELEMENTE
100
AcDbLine
 62
7
  6
CONTINUOUS
 10
289.5608357424
 20
216.4010493648
 11
289.580382289
 21
215.9079010099
  0
LINE
  5
2BA
100
AcDbEntity
  8
KONSTRUKTIONSELEMENTE
100
AcDbLine
 62
7
  6
CONTINUOUS
 10
280.7750624099
 20
53.8733965413
 11
280.7750624099
 21
65.1871050403
  0
LINE
  5
2BB
100
AcDbEntity
  8
BEZUGSACHSEN
100
AcDbLine
 62
7
  6
CONTINUOUS
 10
281.8250624099
 20
143.7182410437
 11
281.8250624099
 21
155.214557932
  0
LINE
  5
2BC
100
AcDbEntity
  8
KONSTRUKTIONSELEMENTE
100
AcDbLine
 62
7
  6
CONTINUOUS
 10
281.8250624099
 20
155.214557932
 11
281.8250624099
 21
168.614557932
  0
LINE
  5
2BD
100
AcDbEntity
  8
KONSTRUKTIONSELEMENTE
100
AcDbLine
 62
7
  6
CONTINUOUS
 10
282.7750624099
 20
55.2876101036
 11
282.7750624099
 21
65.5406584308
  0
LINE
  5
2BE
100
AcDbEntity
  8
KONSTRUKTIONSELEMENTE
100
AcDbLine
 62
7
  6
CONTINUOUS
 10
284.2250624099
 20
133.7764628154
 11
284.2250624099
 21
143.2400405172
  0
LINE
  5
2BF
100
AcDbEntity
  8
0
100
AcDbLine
 62
7
  6
CONTINUOUS
 10
285.2250624099
 20
301.0573330564
 11
285.2250624099
 21
198.1717828076
  0
LINE
  5
2C0
100
AcDbEntity
  8
KONSTRUKTIONSELEMENTE
100
AcDbLine
 62
7
  6
CONTINUOUS
 10
290.4785676995
 20
161.8748119698
 11
290.4785676995
 21
155.214557932
  0
LINE
  5
2C1
100
AcDbEntity
  8
BEZUGSACHSEN
100
AcDbLine
 62
7
  6
CONTINUOUS
 10
290.4785676995
 20
147.8183315169
 11
290.4785676995
 21
141.214557932
  0
LINE
  5
2C2
100
AcDbEntity
  8
RUNDUNGEN
100
AcDbLine
 62
7
  6
CONTINUOUS
 10
301.2250624099
 20
149.4424984005
 11
301.2250624099
 21
176.9608680644
  0
LINE
  5
2C3
100
AcDbEntity
  8
KONSTRUKTIONSELEMENTE
100
AcDbLine
 62
7
  6
CONTINUOUS
 10
303.424433649
 20
74.1364727342
 11
303.424433649
 21
70.6009388282
  0
LINE
  5
2C4
100
AcDbEntity
  8
0
100
AcDbLine
 62
7
  6
CONTINUOUS
 10
305.9750624099
 20
184.298196969
 11
305.9750624099
 21
203.6309188949
  0
LINE
  5
2C5
100
AcDbEntity
  8
KONSTRUKTIONSELEMENTE
100
AcDbLine
 62
7
  6
CONTINUOUS
 10
288.9937455969
 20
212.2313907226
 11
288.9898020664
 21
211.6908588973
  0
LINE
  5
2C6
100
AcDbEntity
  8
KONSTRUKTIONSELEMENTE
100
AcDbLine
 62
7
  6
CONTINUOUS
 10
293.4655775364
 20
213.704407936
 11
293.4616310433
 21
213.163878514
  0
LINE
  5
2C7
100
AcDbEntity
  8
KONSTRUKTIONSELEMENTE
100
AcDbLine
 62
7
  6
CONTINUOUS
 10
256.353008391
 20
208.084134576
 11
256.4056324695
 21
208.3506829616
  0
LINE
  5
2C8
100
AcDbEntity
  8
KONSTRUKTIONSELEMENTE
100
AcDbLine
 62
7
  6
CONTINUOUS
 10
261.1453845479
 20
209.4493691482
 11
261.225326096
 21
209.836654469
  0
LINE
  5
2C9
100
AcDbEntity
  8
KONSTRUKTIONSELEMENTE
100
AcDbLine
 62
7
  6
CONTINUOUS
 10
326.4561256104
 20
109.7670522484
 11
326.4561256104
 21
106.2315183425
  0
LINE
  5
2CA
100
AcDbEntity
  8
KONSTRUKTIONSELEMENTE
100
AcDbLine
 62
7
  6
CONTINUOUS
 10
289.5857089755
 20
212.4402582182
 11
289.517522365
 21
212.0867281128
  0
LINE
  5
2CB
100
AcDbEntity
  8
KONSTRUKTIONSELEMENTE
100
AcDbLine
 62
7
  6
CONTINUOUS
 10
288.2627081953
 20
214.6826458649
 11
287.7690030449
 21
212.1715450817
  0
LINE
  5
2CC
100
AcDbEntity
  8
KONSTRUKTIONSELEMENTE
100
AcDbLine
 62
7
  6
CONTINUOUS
 10
287.7214836027
 20
214.7310739786
 11
287.2547361281
 21
212.4468817538
  0
LINE
  5
2CD
100
AcDbEntity
  8
KONSTRUKTIONSELEMENTE
100
AcDbLine
 62
7
  6
CONTINUOUS
 10
263.8271595394
 20
212.4459614008
 11
263.9067368093
 21
212.7644528947
  0
LINE
  5
2CE
100
AcDbEntity
  8
KONSTRUKTIONSELEMENTE
100
AcDbLine
 62
7
  6
CONTINUOUS
 10
295.4742492441
 20
204.5020166146
 11
295.37277973
 21
203.9870679323
  0
LINE
  5
2CF
100
AcDbEntity
  8
KONSTRUKTIONSELEMENTE
100
AcDbLine
 62
7
  6
CONTINUOUS
 10
300.107470875
 20
205.211939229
 11
300.0059996955
 21
204.6969939788
  0
LINE
  5
2D0
100
AcDbEntity
  8
KONSTRUKTIONSELEMENTE
100
AcDbLine
 62
7
  6
CONTINUOUS
 10
289.1395839963
 20
216.1439028428
 11
289.0624098075
 21
215.8232092254
  0
LINE
  5
2D1
100
AcDbEntity
  8
KONSTRUKTIONSELEMENTE
100
AcDbLine
 62
7
  6
CONTINUOUS
 10
289.580382289
 20
215.9079010099
 11
289.5032081003
 21
215.5872073925
  0
LINE
  5
2D2
100
AcDbEntity
  8
KONSTRUKTIONSELEMENTE
100
AcDbLine
 62
7
  6
CONTINUOUS
 10
295.9665026621
 20
204.4664642363
 11
295.8865469956
 21
204.1480675761
  0
LINE
  5
2D3
100
AcDbEntity
  8
KONSTRUKTIONSELEMENTE
100
AcDbLine
 62
7
  6
CONTINUOUS
 10
299.5937019775
 20
205.0509430338
 11
299.5137463109
 21
204.7325463736
  0
LINE
  5
2D4
100
AcDbEntity
  8
KONSTRUKTIONSELEMENTE
100
AcDbLine
 62
7
  6
CONTINUOUS
 10
289.1281441248
 20
212.6681874678
 11
288.9937455969
 21
212.2313907226
  0
LINE
  5
2D5
100
AcDbEntity
  8
KONSTRUKTIONSELEMENTE
100
AcDbLine
 62
7
  6
CONTINUOUS
 10
264.266252768
 20
211.975253586
 11
264.4136122678
 21
212.3422214739
  0
LINE
  5
2D6
100
AcDbEntity
  8
KONSTRUKTIONSELEMENTE
100
AcDbLine
 62
7
  6
CONTINUOUS
 10
260.4735800313
 20
209.5216403467
 11
260.6297719673
 21
209.8347419782
  0
LINE
  5
2D7
100
AcDbEntity
  8
RUNDUNGEN
100
AcDbLine
 62
7
  6
CONTINUOUS
 10
301.3141752311
 20
165.6043995388
 11
305.9750624099
 21
184.298196969
  0
LINE
  5
2D8
100
AcDbEntity
  8
KONSTRUKTIONSELEMENTE
100
AcDbLine
 62
7
  6
CONTINUOUS
 10
292.9378543215
 20
213.3085411821
 11
292.8044430242
 21
213.006876024
  0
LINE
  5
2D9
100
AcDbEntity
  8
KONSTRUKTIONSELEMENTE
100
AcDbLine
 62
7
  6
CONTINUOUS
 10
289.7853289726
 20
212.8251920989
 11
289.5857089755
 21
212.4402582182
  0
LINE
  5
2DA
100
AcDbEntity
  8
KONSTRUKTIONSELEMENTE
100
AcDbLine
 62
7
  6
CONTINUOUS
 10
285.2250624099
 20
214.1290268297
 11
287.3372977322
 21
218.0742068842
  0
LINE
  5
2DB
100
AcDbEntity
  8
KONSTRUKTIONSELEMENTE
100
AcDbLine
 62
7
  6
CONTINUOUS
 10
285.4180776961
 20
213.430222124
 11
286.4725539856
 21
215.3997464386
  0
LINE
  5
2DC
100
AcDbEntity
  8
KONSTRUKTIONSELEMENTE
100
AcDbLine
 62
7
  6
CONTINUOUS
 10
286.7738328853
 20
215.9624675963
 11
287.5270302752
 21
217.3692707532
  0
LINE
  5
2DD
100
AcDbEntity
  8
KONSTRUKTIONSELEMENTE
100
AcDbLine
 62
7
  6
CONTINUOUS
 10
289.0624098075
 20
215.8232092254
 11
288.911770217
 21
215.5418483838
  0
LINE
  5
2DE
100
AcDbEntity
  8
KONSTRUKTIONSELEMENTE
100
AcDbLine
 62
7
  6
CONTINUOUS
 10
289.5032081003
 20
215.5872073925
 11
289.3023553598
 21
215.2120596913
  0
LINE
  5
2DF
100
AcDbEntity
  8
KONSTRUKTIONSELEMENTE
100
AcDbLine
 62
7
  6
CONTINUOUS
 10
260.9310822921
 20
209.0765382761
 11
261.1453845479
 21
209.4493691482
  0
LINE
  5
2E0
100
AcDbEntity
  8
KONSTRUKTIONSELEMENTE
100
AcDbLine
 62
7
  6
CONTINUOUS
 10
253.4220766121
 20
207.557967485
 11
254.5468050298
 21
209.211746789
  0
LINE
  5
2E1
100
AcDbEntity
  8
KONSTRUKTIONSELEMENTE
100
AcDbLine
 62
7
  6
CONTINUOUS
 10
254.1430935854
 20
207.6722824483
 11
255.0335035381
 21
208.9815243316
  0
LINE
  5
2E2
100
AcDbEntity
  8
KONSTRUKTIONSELEMENTE
100
AcDbLine
 62
7
  6
CONTINUOUS
 10
255.4625984384
 20
206.7748926927
 11
256.353008391
 21
208.084134576
  0
LINE
  5
2E3
100
AcDbEntity
  8
KONSTRUKTIONSELEMENTE
100
AcDbLine
 62
7
  6
CONTINUOUS
 10
255.990400281
 20
206.4159368575
 11
256.7870828878
 21
207.5873638317
  0
LINE
  5
2E4
100
AcDbEntity
  8
KONSTRUKTIONSELEMENTE
100
AcDbLine
 62
7
  6
CONTINUOUS
 10
257.5565248721
 20
204.7461464407
 11
257.8377069765
 21
205.1595912667
  0
LINE
  5
2E5
100
AcDbEntity
  8
KONSTRUKTIONSELEMENTE
100
AcDbLine
 62
7
  6
CONTINUOUS
 10
259.0092990337
 20
206.882277976
 11
259.3373449115
 21
207.3646304044
  0
LINE
  5
2E6
100
AcDbEntity
  8
0
100
AcDbLine
 62
7
  6
CONTINUOUS
 10
257.8385512446
 20
219.2714194804
 11
246.4750624099
 21
203.6309188949
  0
LINE
  5
2E7
100
AcDbEntity
  8
0
100
AcDbLine
 62
7
  6
CONTINUOUS
 10
401.2250624099
 20
417.114557932
 11
401.2250624099
 21
627.114557932
  0
LINE
  5
2E8
100
AcDbEntity
  8
KONSTRUKTIONSELEMENTE
100
AcDbLine
 62
7
  6
CONTINUOUS
 10
295.6495731193
 20
204.8675540022
 11
295.4742492441
 21
204.5020166146
  0
LINE
  5
2E9
100
AcDbEntity
  8
KONSTRUKTIONSELEMENTE
100
AcDbLine
 62
7
  6
CONTINUOUS
 10
300.0059996955
 20
204.6969939788
 11
299.8306758537
 21
204.3314566077
  0
LINE
  5
2EA
100
AcDbEntity
  8
KONSTRUKTIONSELEMENTE
100
AcDbLine
 62
7
  6
CONTINUOUS
 10
289.393975993
 20
213.13638793
 11
289.1281441248
 21
212.6681874678
  0
LINE
  5
2EB
100
AcDbEntity
  8
KONSTRUKTIONSELEMENTE
100
AcDbLine
 62
7
  6
CONTINUOUS
 10
293.4616310433
 20
213.163878514
 11
293.1957960039
 21
212.6956801929
  0
LINE
  5
2EC
100
AcDbEntity
  8
KONSTRUKTIONSELEMENTE
100
AcDbLine
 62
7
  6
CONTINUOUS
 10
263.6179149879
 20
212.165524327
 11
263.8271595394
 21
212.4459614008
  0
LINE
  5
2ED
100
AcDbEntity
  8
KONSTRUKTIONSELEMENTE
100
AcDbLine
 62
7
  6
CONTINUOUS
 10
263.9892252436
 20
211.646339518
 11
264.266252768
 21
211.975253586
  0
LINE
  5
2EE
100
AcDbEntity
  8
KONSTRUKTIONSELEMENTE
100
AcDbLine
 62
7
  6
CONTINUOUS
 10
256.1851035538
 20
211.3685818749
 11
256.5337670096
 21
211.7269588175
  0
LINE
  5
2EF
100
AcDbEntity
  8
KONSTRUKTIONSELEMENTE
100
AcDbLine
 62
7
  6
CONTINUOUS
 10
257.9284201676
 20
213.1604659047
 11
258.2770834571
 21
213.5188426764
  0
LINE
  5
2F0
100
AcDbEntity
  8
KONSTRUKTIONSELEMENTE
100
AcDbLine
 62
7
  6
CONTINUOUS
 10
260.2411377275
 20
209.2827223849
 11
260.4735800313
 21
209.5216403467
  0
LINE
  5
2F1
100
AcDbEntity
  8
KONSTRUKTIONSELEMENTE
100
AcDbLine
 62
7
  6
CONTINUOUS
 10
260.6986399882
 20
208.8376203143
 11
260.9310822921
 21
209.0765382761
  0
LINE
  5
2F2
100
AcDbEntity
  8
0
100
AcDbLine
 62
7
  6
CONTINUOUS
 10
437.2250624099
 20
417.114557932
 11
437.2250624099
 21
627.114557932
  0
LINE
  5
2F3
100
AcDbEntity
  8
KONSTRUKTIONSELEMENTE
100
AcDbLine
 62
7
  6
CONTINUOUS
 10
296.3910047651
 20
205.0481277127
 11
295.9665026621
 21
204.4664642363
  0
LINE
  5
2F4
100
AcDbEntity
  8
KONSTRUKTIONSELEMENTE
100
AcDbLine
 62
7
  6
CONTINUOUS
 10
299.5137463109
 20
204.7325463736
 11
299.0892456979
 21
204.1508793784
  0
LINE
  5
2F5
100
AcDbEntity
  8
KONSTRUKTIONSELEMENTE
100
AcDbLine
 62
7
  6
CONTINUOUS
 10
289.393975993
 20
213.13638793
 11
290.3871541517
 21
214.385386769
  0
LINE
  5
2F6
100
AcDbEntity
  8
KONSTRUKTIONSELEMENTE
100
AcDbLine
 62
7
  6
CONTINUOUS
 10
289.7853289726
 20
212.8251920989
 11
290.7785071313
 21
214.0741909379
  0
LINE
  5
2F7
100
AcDbEntity
  8
KONSTRUKTIONSELEMENTE
100
AcDbLine
 62
7
  6
CONTINUOUS
 10
291.6215067151
 20
212.7242705371
 11
291.2242354887
 21
212.2246710482
  0
LINE
  5
2F8
100
AcDbEntity
  8
KONSTRUKTIONSELEMENTE
100
AcDbLine
 62
7
  6
CONTINUOUS
 10
291.8112649582
 20
211.7578773015
 11
291.281569897
 21
211.0917445329
  0
LINE
  5
2F9
100
AcDbEntity
  8
KONSTRUKTIONSELEMENTE
100
AcDbLine
 62
7
  6
CONTINUOUS
 10
292.5998891643
 20
211.9462809594
 11
291.6067110056
 21
210.6972821203
  0
LINE
  5
2FA
100
AcDbEntity
  8
KONSTRUKTIONSELEMENTE
100
AcDbLine
 62
7
  6
CONTINUOUS
 10
295.9571915342
 20
205.2055281777
 11
295.6495731193
 21
204.8675540022
  0
LINE
  5
2FB
100
AcDbEntity
  8
KONSTRUKTIONSELEMENTE
100
AcDbLine
 62
7
  6
CONTINUOUS
 10
299.8306758537
 20
204.3314566077
 11
299.5230575056
 21
203.9934824652
  0
LINE
  5
2FC
100
AcDbEntity
  8
KONSTRUKTIONSELEMENTE
100
AcDbLine
 62
7
  6
CONTINUOUS
 10
288.6876655061
 20
215.2998208436
 11
288.911770217
 21
215.5418483838
  0
LINE
  5
2FD
100
AcDbEntity
  8
KONSTRUKTIONSELEMENTE
100
AcDbLine
 62
7
  6
CONTINUOUS
 10
289.0782506489
 20
214.9700321511
 11
289.3023553598
 21
215.2120596913
  0
LINE
  5
2FE
100
AcDbEntity
  8
KONSTRUKTIONSELEMENTE
100
AcDbLine
 62
7
  6
CONTINUOUS
 10
290.3871541517
 20
214.385386769
 11
290.7834411796
 21
214.7498523551
  0
LINE
  5
2FF
100
AcDbEntity
  8
KONSTRUKTIONSELEMENTE
100
AcDbLine
 62
7
  6
CONTINUOUS
 10
254.5468050298
 20
209.211746789
 11
254.8690904687
 21
209.4964582372
  0
LINE
  5
300
100
AcDbEntity
  8
KONSTRUKTIONSELEMENTE
100
AcDbLine
 62
7
  6
CONTINUOUS
 10
259.4538491618
 20
214.5498483947
 11
261.080628234
 21
215.7132871985
  0
LINE
  5
301
100
AcDbEntity
  8
KONSTRUKTIONSELEMENTE
100
AcDbLine
 62
7
  6
CONTINUOUS
 10
260.2318541421
 20
214.3215233473
 11
261.4519384463
 21
215.1941024502
  0
LINE
  5
302
100
AcDbEntity
  8
KONSTRUKTIONSELEMENTE
100
AcDbLine
 62
7
  6
CONTINUOUS
 10
262.3978306838
 20
211.2929452241
 11
263.6179149879
 21
212.165524327
  0
LINE
  5
303
100
AcDbEntity
  8
KONSTRUKTIONSELEMENTE
100
AcDbLine
 62
7
  6
CONTINUOUS
 10
262.3624461713
 20
210.4829007142
 11
263.9892252436
 21
211.646339518
  0
LINE
  5
304
100
AcDbEntity
  8
KONSTRUKTIONSELEMENTE
100
AcDbLine
 62
7
  6
CONTINUOUS
 10
296.2063697286
 20
205.42165425
 11
295.9571915342
 21
205.2055281777
  0
LINE
  5
305
100
AcDbEntity
  8
KONSTRUKTIONSELEMENTE
100
AcDbLine
 62
7
  6
CONTINUOUS
 10
299.5230575056
 20
203.9934824652
 11
299.273879044
 21
203.7773562609
  0
LINE
  5
306
100
AcDbEntity
  8
KONSTRUKTIONSELEMENTE
100
AcDbLine
 62
7
  6
CONTINUOUS
 10
290.7785071313
 20
214.0741909379
 11
291.1085821027
 21
214.3553897092
  0
LINE
  5
307
100
AcDbEntity
  8
KONSTRUKTIONSELEMENTE
100
AcDbLine
 62
7
  6
CONTINUOUS
 10
291.2766389736
 20
210.4160809165
 11
291.6067110056
 21
210.6972821203
  0
LINE
  5
308
100
AcDbEntity
  8
KONSTRUKTIONSELEMENTE
100
AcDbLine
 62
7
  6
CONTINUOUS
 10
291.0177097824
 20
210.8938099689
 11
291.281569897
 21
211.0917445329
  0
LINE
  5
309
100
AcDbEntity
  8
KONSTRUKTIONSELEMENTE
100
AcDbLine
 62
7
  6
CONTINUOUS
 10
296.646284407
 20
205.7320618101
 11
296.2063697286
 21
205.42165425
  0
LINE
  5
30A
100
AcDbEntity
  8
KONSTRUKTIONSELEMENTE
100
AcDbLine
 62
7
  6
CONTINUOUS
 10
296.7386818066
 20
208.0947860574
 11
297.4491110486
 21
208.563401325
  0
LINE
  5
30B
100
AcDbEntity
  8
KONSTRUKTIONSELEMENTE
100
AcDbLine
 62
7
  6
CONTINUOUS
 10
294.172276991
 20
205.802948396
 11
297.6356188306
 21
208.0874473538
  0
LINE
  5
30C
100
AcDbEntity
  8
KONSTRUKTIONSELEMENTE
100
AcDbLine
 62
7
  6
CONTINUOUS
 10
298.62135923
 20
208.1386853741
 11
294.4475883972
 21
205.3855713127
  0
LINE
  5
30D
100
AcDbEntity
  8
KONSTRUKTIONSELEMENTE
100
AcDbLine
 62
7
  6
CONTINUOUS
 10
255.0335035381
 20
208.9815243316
 11
255.262061564
 21
209.1284207721
  0
LINE
  5
30E
100
AcDbEntity
  8
KONSTRUKTIONSELEMENTE
100
AcDbLine
 62
7
  6
CONTINUOUS
 10
260.3318369832
 20
208.6131567947
 11
260.6986399882
 21
208.8376203143
  0
LINE
  5
30F
100
AcDbEntity
  8
KONSTRUKTIONSELEMENTE
100
AcDbLine
 62
7
  6
CONTINUOUS
 10
288.6569989027
 20
214.7128856291
 11
289.0782506489
 21
214.9700321511
  0
LINE
  5
310
100
AcDbEntity
  8
KONSTRUKTIONSELEMENTE
100
AcDbLine
 62
7
  6
CONTINUOUS
 10
290.7834411796
 20
214.7498523551
 11
291.1787376666
 21
214.9791883202
  0
LINE
  5
311
100
AcDbEntity
  8
KONSTRUKTIONSELEMENTE
100
AcDbLine
 62
7
  6
CONTINUOUS
 10
259.9324453883
 20
209.1179884347
 11
260.2411377275
 21
209.2827223849
  0
LINE
  5
312
100
AcDbEntity
  8
KONSTRUKTIONSELEMENTE
100
AcDbLine
 62
7
  6
CONTINUOUS
 10
261.080628234
 20
215.7132871985
 11
261.4814258347
 21
215.8691396762
  0
LINE
  5
313
100
AcDbEntity
  8
0
100
AcDbLine
 62
7
  6
CONTINUOUS
 10
267.2250624099
 20
222.321281837
 11
257.8385512446
 21
219.2714194804
  0
LINE
  5
314
100
AcDbEntity
  8
KONSTRUKTIONSELEMENTE
100
AcDbLine
 62
7
  6
CONTINUOUS
 10
294.8262945376
 20
77.5622656749
 11
312.3649523999
 21
104.1578055302
  0
LINE
  5
315
100
AcDbEntity
  8
KONSTRUKTIONSELEMENTE
100
AcDbLine
 62
7
  6
CONTINUOUS
 10
303.1173415438
 20
70.0568848773
 11
303.3775875425
 21
70.4515207089
  0
LINE
  5
316
100
AcDbEntity
  8
KONSTRUKTIONSELEMENTE
100
AcDbLine
 62
7
  6
CONTINUOUS
 10
325.5650462839
 20
104.0964807668
 11
325.9876645456
 21
104.7373371488
  0
LINE
  5
317
100
AcDbEntity
  8
RUNDUNGEN
100
AcDbLine
 62
7
  6
CONTINUOUS
 10
300.7571512961
 20
148.1569231811
 11
300.2809092998
 21
147.5893600711
  0
LINE
  5
318
100
AcDbEntity
  8
BEZUGSACHSEN
100
AcDbLine
 62
7
  6
CONTINUOUS
 10
300.2809092998
 20
147.5893600711
 11
295.531288746
 21
141.9289827126
  0
LINE
  5
319
100
AcDbEntity
  8
KONSTRUKTIONSELEMENTE
100
AcDbLine
 62
7
  6
CONTINUOUS
 10
299.273879044
 20
203.7773562609
 11
298.8339661896
 21
203.4669453471
  0
LINE
  5
31A
100
AcDbEntity
  8
KONSTRUKTIONSELEMENTE
100
AcDbLine
 62
7
  6
CONTINUOUS
 10
296.9262859283
 20
205.4056794034
 11
296.3910047651
 21
205.0481277127
  0
LINE
  5
31B
100
AcDbEntity
  8
KONSTRUKTIONSELEMENTE
100
AcDbLine
 62
7
  6
CONTINUOUS
 10
299.0892456979
 20
204.1508793784
 11
298.5539629779
 21
203.7933311735
  0
LINE
  5
31C
100
AcDbEntity
  8
KONSTRUKTIONSELEMENTE
100
AcDbLine
 62
7
  6
CONTINUOUS
 10
296.646284407
 20
205.7320618101
 11
297.5045979838
 21
206.1563282082
  0
LINE
  5
31D
100
AcDbEntity
  8
KONSTRUKTIONSELEMENTE
100
AcDbLine
 62
7
  6
CONTINUOUS
 10
296.9262859283
 20
205.4056794034
 11
297.5938631547
 21
205.7356643797
  0
LINE
  5
31E
100
AcDbEntity
  8
KONSTRUKTIONSELEMENTE
100
AcDbLine
 62
7
  6
CONTINUOUS
 10
298.5539629779
 20
203.7933311735
 11
297.8863857516
 21
203.4633461972
  0
LINE
  5
31F
100
AcDbEntity
  8
KONSTRUKTIONSELEMENTE
100
AcDbLine
 62
7
  6
CONTINUOUS
 10
298.8339661896
 20
203.4669453471
 11
297.9756526129
 21
203.042678949
  0
LINE
  5
320
100
AcDbEntity
  8
KONSTRUKTIONSELEMENTE
100
AcDbLine
 62
7
  6
CONTINUOUS
 10
291.1085821027
 20
214.3553897092
 11
291.4376669041
 21
214.5014593261
  0
LINE
  5
321
100
AcDbEntity
  8
KONSTRUKTIONSELEMENTE
100
AcDbLine
 62
7
  6
CONTINUOUS
 10
288.4403053209
 20
215.1909150022
 11
288.6876655061
 21
215.2998208436
  0
LINE
  5
322
100
AcDbEntity
  8
KONSTRUKTIONSELEMENTE
100
AcDbLine
 62
7
  6
CONTINUOUS
 10
297.5938631547
 20
205.7356643797
 11
298.2030002274
 21
205.9438012858
  0
LINE
  5
323
100
AcDbEntity
  8
KONSTRUKTIONSELEMENTE
100
AcDbLine
 62
7
  6
CONTINUOUS
 10
297.2772502357
 20
203.2552058053
 11
297.8863857516
 21
203.4633461972
  0
LINE
  5
324
100
AcDbEntity
  8
KONSTRUKTIONSELEMENTE
100
AcDbLine
 62
7
  6
CONTINUOUS
 10
261.4519384463
 20
215.1941024502
 11
261.7849530685
 21
215.3014779411
  0
LINE
  5
325
100
AcDbEntity
  8
KONSTRUKTIONSELEMENTE
100
AcDbLine
 62
7
  6
CONTINUOUS
 10
297.5045979838
 20
206.1563282082
 11
298.0183651909
 21
206.3173278231
  0
LINE
  5
326
100
AcDbEntity
  8
KONSTRUKTIONSELEMENTE
100
AcDbLine
 62
7
  6
CONTINUOUS
 10
297.4618835818
 20
202.8816826878
 11
297.9756526129
 21
203.042678949
  0
LINE
  5
327
100
AcDbEntity
  8
KONSTRUKTIONSELEMENTE
100
AcDbLine
 62
7
  6
CONTINUOUS
 10
269.463170222
 20
126.3524953986
 11
239.7566013451
 21
116.5573690235
  0
LINE
  5
328
100
AcDbEntity
  8
KONSTRUKTIONSELEMENTE
100
AcDbLine
 62
7
  6
CONTINUOUS
 10
269.463170222
 20
122.8169614926
 11
239.7566013451
 21
113.0218351175
  0
LINE
  5
329
100
AcDbEntity
  8
KONSTRUKTIONSELEMENTE
100
AcDbLine
 62
7
  6
CONTINUOUS
 10
244.0743908578
 20
108.9840948012
 11
238.1833902421
 21
107.0416592495
  0
LINE
  5
32A
100
AcDbEntity
  8
KONSTRUKTIONSELEMENTE
100
AcDbLine
 62
7
  6
CONTINUOUS
 10
240.3880884461
 20
107.6224144059
 11
244.7092328046
 21
109.0472223415
  0
LINE
  5
32B
100
AcDbEntity
  8
KONSTRUKTIONSELEMENTE
100
AcDbLine
 62
7
  6
CONTINUOUS
 10
244.3818310195
 20
103.3340885484
 11
248.5492316383
 21
104.7082026672
  0
LINE
  5
32C
100
AcDbEntity
  8
KONSTRUKTIONSELEMENTE
100
AcDbLine
 62
7
  6
CONTINUOUS
 10
244.3818310196
 20
100.5056614236
 11
248.9133699547
 21
101.9998426173
  0
LINE
  5
32D
100
AcDbEntity
  8
KONSTRUKTIONSELEMENTE
100
AcDbLine
 62
7
  6
CONTINUOUS
 10
243.8676058625
 20
98.7756943014
 11
249.7586064782
 21
100.7181298532
  0
LINE
  5
32E
100
AcDbEntity
  8
KONSTRUKTIONSELEMENTE
100
AcDbLine
 62
7
  6
CONTINUOUS
 10
243.8676058625
 20
98.4221409108
 11
249.7586064782
 21
100.3645764626
  0
LINE
  5
32F
100
AcDbEntity
  8
KONSTRUKTIONSELEMENTE
100
AcDbLine
 62
7
  6
CONTINUOUS
 10
574.2521637597
 20
57.4089304472
 11
577.7876976656
 21
53.8733965413
  0
LINE
  5
330
100
AcDbEntity
  8
KONSTRUKTIONSELEMENTE
100
AcDbLine
 62
7
  6
CONTINUOUS
 10
630.9559603738
 20
107.0416592495
 11
630.2819787922
 21
107.0747844491
  0
LINE
  5
331
100
AcDbEntity
  8
KONSTRUKTIONSELEMENTE
100
AcDbLine
 62
7
  6
CONTINUOUS
 10
591.9298332893
 20
68.015532165
 11
591.5762798987
 21
68.3690855556
  0
LINE
  5
332
100
AcDbEntity
  8
KONSTRUKTIONSELEMENTE
100
AcDbLine
 62
7
  6
CONTINUOUS
 10
588.747852774
 20
71.1975126803
 11
588.3942993834
 21
71.5510660709
  0
LINE
  5
333
100
AcDbEntity
  8
KONSTRUKTIONSELEMENTE
100
AcDbLine
 62
7
  6
CONTINUOUS
 10
622.3364420352
 20
98.4221409108
 11
621.9828886446
 21
98.7756943014
  0
LINE
  5
334
100
AcDbEntity
  8
KONSTRUKTIONSELEMENTE
100
AcDbLine
 62
7
  6
CONTINUOUS
 10
618.8009081293
 20
101.9576748168
 11
619.1544615198
 21
101.6041214262
  0
LINE
  5
335
100
AcDbEntity
  8
KONSTRUKTIONSELEMENTE
100
AcDbLine
 62
7
  6
CONTINUOUS
 10
627.7991031688
 20
108.3328484451
 11
628.7116156635
 21
107.4203359504
  0
LINE
  5
336
100
AcDbEntity
  8
BEZUGSACHSEN
100
AcDbLine
 62
7
  6
CONTINUOUS
 10
739.9163308577
 20
179.7427093981
 11
739.6749624292
 21
179.6763961406
  0
LINE
  5
337
100
AcDbEntity
  8
BEZUGSACHSEN
100
AcDbLine
 62
7
  6
CONTINUOUS
 10
739.6749624292
 20
179.6763961406
 11
739.589282956
 21
179.6606653961
  0
LINE
  5
338
100
AcDbEntity
  8
BEZUGSACHSEN
100
AcDbLine
 62
7
  6
CONTINUOUS
 10
739.5892829986
 20
179.6606651306
 11
739.1804562203
 21
179.5959093894
  0
LINE
  5
339
100
AcDbEntity
  8
BEZUGSACHSEN
100
AcDbLine
 62
7
  6
CONTINUOUS
 10
745.1652846943
 20
184.298196969
 11
749.8213656065
 21
184.298196969
  0
LINE
  5
33A
100
AcDbEntity
  8
KONSTRUKTIONSELEMENTE
100
AcDbLine
 62
7
  6
CONTINUOUS
 10
755.4014088581
 20
179.6600210703
 11
755.8061940805
 21
179.5959093894
  0
LINE
  5
33B
100
AcDbEntity
  8
RUNDUNGEN
100
AcDbLine
 62
7
  6
CONTINUOUS
 10
755.6722194842
 20
179.6171288808
 11
755.3972523343
 21
179.6606835855
  0
LINE
  5
33C
100
AcDbEntity
  8
BEZUGSACHSEN
100
AcDbLine
 62
7
  6
CONTINUOUS
 10
644.2557350971
 20
127.4125017847
 11
647.7912690031
 21
123.8769678787
  0
LINE
  5
33D
100
AcDbEntity
  8
KONSTRUKTIONSELEMENTE
100
AcDbLine
 62
7
  6
CONTINUOUS
 10
640.3666478006
 20
131.6551424718
 11
643.9021817066
 21
128.1196085659
  0
LINE
  5
33E
100
AcDbEntity
  8
KONSTRUKTIONSELEMENTE
100
AcDbLine
 62
7
  6
CONTINUOUS
 10
640.7202011912
 20
132.0086958624
 11
644.2557350971
 21
128.4731619565
  0
LINE
  5
33F
100
AcDbEntity
  8
BEZUGSACHSEN
100
AcDbLine
 62
7
  6
CONTINUOUS
 10
745.2659635372
 20
203.6309188949
 11
749.7206867636
 21
203.6309188949
  0
LINE
  5
340
100
AcDbEntity
  8
KONSTRUKTIONSELEMENTE
100
AcDbLine
 62
7
  6
CONTINUOUS
 10
752.9361900004
 20
204.7461464407
 11
753.4628243021
 21
204.7461464407
  0
LINE
  5
341
100
AcDbEntity
  8
KONSTRUKTIONSELEMENTE
100
AcDbLine
 62
7
  6
CONTINUOUS
 10
752.9477581905
 20
206.882277976
 11
753.4743924922
 21
206.882277976
  0
LINE
  5
342
100
AcDbEntity
  8
KONSTRUKTIONSELEMENTE
100
AcDbLine
 62
7
  6
CONTINUOUS
 10
751.2862231481
 20
207.557967485
 11
751.8128574498
 21
207.557967485
  0
LINE
  5
343
100
AcDbEntity
  8
KONSTRUKTIONSELEMENTE
100
AcDbLine
 62
7
  6
CONTINUOUS
 10
752.0038129551
 20
208.084134576
 11
752.5304472567
 21
208.084134576
  0
LINE
  5
344
100
AcDbEntity
  8
KONSTRUKTIONSELEMENTE
100
AcDbLine
 62
7
  6
CONTINUOUS
 10
752.0038933829
 20
208.3506829616
 11
752.493161515
 21
208.3506829616
  0
LINE
  5
345
100
AcDbEntity
  8
KONSTRUKTIONSELEMENTE
100
AcDbLine
 62
7
  6
CONTINUOUS
 10
752.8435313432
 20
208.5226061919
 11
753.3701656449
 21
208.5226061919
  0
LINE
  5
346
100
AcDbEntity
  8
KONSTRUKTIONSELEMENTE
100
AcDbLine
 62
7
  6
CONTINUOUS
 10
752.6975594774
 20
208.580423277
 11
753.224193779
 21
208.580423277
  0
LINE
  5
347
100
AcDbEntity
  8
KONSTRUKTIONSELEMENTE
100
AcDbLine
 62
7
  6
CONTINUOUS
 10
752.0042648875
 20
208.6081499143
 11
752.4209693838
 21
208.6081499143
  0
LINE
  5
348
100
AcDbEntity
  8
KONSTRUKTIONSELEMENTE
100
AcDbLine
 62
7
  6
CONTINUOUS
 10
752.5538094744
 20
208.7576990272
 11
753.0804437761
 21
208.7576990272
  0
LINE
  5
349
100
AcDbEntity
  8
KONSTRUKTIONSELEMENTE
100
AcDbLine
 62
7
  6
CONTINUOUS
 10
752.0033903171
 20
208.8565352372
 11
752.3144374262
 21
208.8565352372
  0
LINE
  5
34A
100
AcDbEntity
  8
KONSTRUKTIONSELEMENTE
100
AcDbLine
 62
7
  6
CONTINUOUS
 10
752.0152047673
 20
209.0360133224
 11
752.2089720764
 21
209.0360133224
  0
LINE
  5
34B
100
AcDbEntity
  8
KONSTRUKTIONSELEMENTE
100
AcDbLine
 62
7
  6
CONTINUOUS
 10
752.402157195
 20
209.0688878001
 11
752.9031355026
 21
209.0688878001
  0
LINE
  5
34C
100
AcDbEntity
  8
KONSTRUKTIONSELEMENTE
100
AcDbLine
 62
7
  6
CONTINUOUS
 10
753.1291878027
 20
209.1179884347
 11
753.233941529
 21
209.1179884347
  0
LINE
  5
34D
100
AcDbEntity
  8
KONSTRUKTIONSELEMENTE
100
AcDbLine
 62
7
  6
CONTINUOUS
 10
751.3007692154
 20
209.211746789
 11
751.8274035171
 21
209.211746789
  0
LINE
  5
34E
100
AcDbEntity
  8
KONSTRUKTIONSELEMENTE
100
AcDbLine
 62
7
  6
CONTINUOUS
 10
752.9984907695
 20
209.2827223849
 11
753.2707750457
 21
209.2827223849
  0
LINE
  5
34F
100
AcDbEntity
  8
KONSTRUKTIONSELEMENTE
100
AcDbLine
 62
7
  6
CONTINUOUS
 10
751.3326855989
 20
209.4964582372
 11
751.8593199006
 21
209.4964582372
  0
LINE
  5
350
100
AcDbEntity
  8
KONSTRUKTIONSELEMENTE
100
AcDbLine
 62
7
  6
CONTINUOUS
 10
752.8673115605
 20
209.5216403467
 11
753.2707750463
 21
209.5216403467
  0
LINE
  5
351
100
AcDbEntity
  8
KONSTRUKTIONSELEMENTE
100
AcDbLine
 62
7
  6
CONTINUOUS
 10
751.4339561637
 20
209.5926101379
 11
751.9605904654
 21
209.5926101379
  0
LINE
  5
352
100
AcDbEntity
  8
KONSTRUKTIONSELEMENTE
100
AcDbLine
 62
7
  6
CONTINUOUS
 10
752.718950744
 20
209.8347419782
 11
753.2339415272
 21
209.8347419782
  0
LINE
  5
353
100
AcDbEntity
  8
KONSTRUKTIONSELEMENTE
100
AcDbLine
 62
7
  6
CONTINUOUS
 10
752.6346590809
 20
210.1622977556
 11
753.1612933826
 21
210.1622977556
  0
LINE
  5
354
100
AcDbEntity
  8
KONSTRUKTIONSELEMENTE
100
AcDbLine
 62
7
  6
CONTINUOUS
 10
753.1860237019
 20
210.4829007142
 11
753.4607472212
 21
210.4829007142
  0
LINE
  5
355
100
AcDbEntity
  8
KONSTRUKTIONSELEMENTE
100
AcDbLine
 62
7
  6
CONTINUOUS
 10
752.5271532947
 20
210.5043075749
 11
753.0537875964
 21
210.5043075749
  0
LINE
  5
356
100
AcDbEntity
  8
KONSTRUKTIONSELEMENTE
100
AcDbLine
 62
7
  6
CONTINUOUS
 10
752.3853964144
 20
210.8607718299
 11
752.9120307161
 21
210.8607718299
  0
LINE
  5
357
100
AcDbEntity
  8
KONSTRUKTIONSELEMENTE
100
AcDbLine
 62
7
  6
CONTINUOUS
 10
751.2878237646
 20
211.3685818749
 11
751.8144580663
 21
211.3685818749
  0
LINE
  5
358
100
AcDbEntity
  8
KONSTRUKTIONSELEMENTE
100
AcDbLine
 62
7
  6
CONTINUOUS
 10
751.2956147257
 20
211.7269588175
 11
751.8222490274
 21
211.7269588175
  0
LINE
  5
359
100
AcDbEntity
  8
KONSTRUKTIONSELEMENTE
100
AcDbLine
 62
7
  6
CONTINUOUS
 10
752.9065041434
 20
212.165524327
 11
753.2701526415
 21
212.165524327
  0
LINE
  5
35A
100
AcDbEntity
  8
KONSTRUKTIONSELEMENTE
100
AcDbLine
 62
7
  6
CONTINUOUS
 10
752.7926209404
 20
212.4459614008
 11
753.2324966038
 21
212.4459614008
  0
LINE
  5
35B
100
AcDbEntity
  8
KONSTRUKTIONSELEMENTE
100
AcDbLine
 62
7
  6
CONTINUOUS
 10
752.6632841484
 20
212.7644528947
 11
753.1592494661
 21
212.7644528947
  0
LINE
  5
35C
100
AcDbEntity
  8
KONSTRUKTIONSELEMENTE
100
AcDbLine
 62
7
  6
CONTINUOUS
 10
752.5247356196
 20
213.1209986874
 11
753.0513699212
 21
213.1209986874
  0
LINE
  5
35D
100
AcDbEntity
  8
KONSTRUKTIONSELEMENTE
100
AcDbLine
 62
7
  6
CONTINUOUS
 10
751.2956147228
 20
213.1604659047
 11
751.8222490244
 21
213.1604659047
  0
LINE
  5
35E
100
AcDbEntity
  8
KONSTRUKTIONSELEMENTE
100
AcDbLine
 62
7
  6
CONTINUOUS
 10
752.3828256328
 20
213.5155982849
 11
752.9094599345
 21
213.5155982849
  0
LINE
  5
35F
100
AcDbEntity
  8
KONSTRUKTIONSELEMENTE
100
AcDbLine
 62
7
  6
CONTINUOUS
 10
751.2878237646
 20
213.5188426764
 11
751.8144580663
 21
213.5188426764
  0
LINE
  5
360
100
AcDbEntity
  8
KONSTRUKTIONSELEMENTE
100
AcDbLine
 62
7
  6
CONTINUOUS
 10
751.2845363302
 20
214.5498483947
 11
751.8111706319
 21
214.5498483947
  0
LINE
  5
361
100
AcDbEntity
  8
KONSTRUKTIONSELEMENTE
100
AcDbLine
 62
7
  6
CONTINUOUS
 10
752.0387542661
 20
214.8135602771
 11
752.3823407226
 21
214.8135602771
  0
LINE
  5
362
100
AcDbEntity
  8
KONSTRUKTIONSELEMENTE
100
AcDbLine
 62
7
  6
CONTINUOUS
 10
752.0388732782
 20
215.1112070108
 11
752.2429903019
 21
215.1112070108
  0
LINE
  5
363
100
AcDbEntity
  8
KONSTRUKTIONSELEMENTE
100
AcDbLine
 62
7
  6
CONTINUOUS
 10
752.071913482
 20
215.2738462088
 11
752.1396940485
 21
215.2738462088
  0
LINE
  5
364
100
AcDbEntity
  8
KONSTRUKTIONSELEMENTE
100
AcDbLine
 62
7
  6
CONTINUOUS
 10
751.3011591733
 20
215.7132871985
 11
751.827793475
 21
215.7132871985
  0
LINE
  5
365
100
AcDbEntity
  8
KONSTRUKTIONSELEMENTE
100
AcDbLine
 62
7
  6
CONTINUOUS
 10
751.3335118704
 20
215.8691396762
 11
751.8601461721
 21
215.8691396762
  0
LINE
  5
366
100
AcDbEntity
  8
KONSTRUKTIONSELEMENTE
100
AcDbLine
 62
7
  6
CONTINUOUS
 10
751.3999915284
 20
215.8899843758
 11
751.9266258301
 21
215.8899843758
  0
LINE
  5
367
100
AcDbEntity
  8
BEZUGSACHSEN
100
AcDbLine
 62
7
  6
CONTINUOUS
 10
745.2659635372
 20
219.2714194804
 11
749.7206867636
 21
219.2714194804
  0
LINE
  5
368
100
AcDbEntity
  8
RUNDUNGEN
100
AcDbLine
 62
7
  6
CONTINUOUS
 10
755.3972523769
 20
179.6606838509
 11
755.3258292792
 21
179.6735258493
  0
LINE
  5
369
100
AcDbEntity
  8
RUNDUNGEN
100
AcDbLine
 62
7
  6
CONTINUOUS
 10
755.3258292792
 20
179.6735258493
 11
755.0843271377
 21
179.7379363777
  0
LINE
  5
36A
100
AcDbEntity
  8
BEZUGSACHSEN
100
AcDbLine
 62
7
  6
CONTINUOUS
 10
749.7206867636
 20
225.2455591031
 11
745.2659635372
 21
225.2455591031
  0
LWPOLYLINE
  5
36B
100
AcDbEntity
  8
RUNDUNGEN
100
AcDbPolyline
 62
7
  6
CONTINUOUS
 90
8
 70
0
 10
755.0843271377
 20
179.7379363777
 10
754.8475031133
 20
179.8352805671
 10
754.6222308906
 20
179.964679108
 10
754.4145644931
 20
180.1238333844
 10
754.2289582779
 20
180.3100477878
 10
754.0696245218
 20
180.5194867096
 10
753.9396379063
 20
180.7481307616
 10
753.8414173764
 20
180.9914456268
  0
LINE
  5
36C
100
AcDbEntity
  8
KONSTRUKTIONSELEMENTE
100
AcDbLine
 62
7
  6
CONTINUOUS
 10
697.6422970767
 20
188.9307917479
 11
701.1778309827
 21
185.395257842
  0
LINE
  5
36D
100
AcDbEntity
  8
KONSTRUKTIONSELEMENTE
100
AcDbLine
 62
7
  6
CONTINUOUS
 10
697.9958504673
 20
189.2843451385
 11
701.5313843733
 21
185.7488112326
  0
LINE
  5
36E
100
AcDbEntity
  8
BEZUGSACHSEN
100
AcDbLine
 62
7
  6
CONTINUOUS
 10
735.6065326976
 20
147.8183315169
 11
734.2480421315
 21
150.0016199266
  0
LINE
  5
36F
100
AcDbEntity
  8
KONSTRUKTIONSELEMENTE
100
AcDbLine
 62
7
  6
CONTINUOUS
 10
627.4535516675
 20
109.9032115738
 11
627.4204264679
 21
110.5771931554
  0
LINE
  5
370
100
AcDbEntity
  8
RUNDUNGEN
100
AcDbLine
 62
7
  6
CONTINUOUS
 10
760.8234521693
 20
164.3748119698
 11
752.2971734175
 21
179.1427599674
  0
LINE
  5
371
100
AcDbEntity
  8
KONSTRUKTIONSELEMENTE
100
AcDbLine
 62
7
  6
CONTINUOUS
 10
749.7206867636
 20
225.2455591031
 11
753.4904523164
 21
213.8468465127
  0
LINE
  5
372
100
AcDbEntity
  8
RUNDUNGEN
100
AcDbLine
 62
7
  6
CONTINUOUS
 10
753.8414173764
 20
180.9914456268
 11
753.7766590988
 21
181.2442281405
  0
LINE
  5
373
100
AcDbEntity
  8
BEZUGSACHSEN
100
AcDbLine
 62
7
  6
CONTINUOUS
 10
744.9114135984
 20
188.7188302559
 11
745.1652846943
 21
184.298196969
  0
LINE
  5
374
100
AcDbEntity
  8
0
100
AcDbLine
 62
7
  6
CONTINUOUS
 10
709.4933251504
 20
227.114557932
 11
709.4933251504
 21
272.114557932
  0
LINE
  5
375
100
AcDbEntity
  8
0
100
AcDbLine
 62
7
  6
CONTINUOUS
 10
727.4933251504
 20
227.114557932
 11
727.4933251504
 21
272.114557932
  0
LINE
  5
376
100
AcDbEntity
  8
0
100
AcDbLine
 62
7
  6
CONTINUOUS
 10
729.4933251504
 20
770.0517575527
 11
729.4933251504
 21
274.1773583112
  0
LINE
  5
377
100
AcDbEntity
  8
BEZUGSACHSEN
100
AcDbLine
 62
7
  6
CONTINUOUS
 10
733.4933251504
 20
152.6431293605
 11
733.4933251504
 21
161.8748119698
  0
LINE
  5
378
100
AcDbEntity
  8
RUNDUNGEN
100
AcDbLine
 62
7
  6
CONTINUOUS
 10
749.8213656065
 20
184.298196969
 11
750.1425817018
 21
170.7881032919
  0
LINE
  5
379
100
AcDbEntity
  8
BEZUGSACHSEN
100
AcDbLine
 62
7
  6
CONTINUOUS
 10
737.4933251504
 20
171.4825071244
 11
737.4933251504
 21
177.6205327082
  0
LINE
  5
37A
100
AcDbEntity
  8
BEZUGSACHSEN
100
AcDbLine
 62
7
  6
CONTINUOUS
 10
741.2433251504
 20
212.2768835609
 11
741.2433251504
 21
181.1204709613
  0
LINE
  5
37B
100
AcDbEntity
  8
BEZUGSACHSEN
100
AcDbLine
 62
7
  6
CONTINUOUS
 10
753.7433251504
 20
212.2768835609
 11
753.7433251504
 21
190.7846559577
  0
LINE
  5
37C
100
AcDbEntity
  8
KONSTRUKTIONSELEMENTE
100
AcDbLine
 62
7
  6
CONTINUOUS
 10
753.7433251504
 20
190.7846559577
 11
753.7433251504
 21
181.1204665675
  0
LINE
  5
37D
100
AcDbEntity
  8
RUNDUNGEN
100
AcDbLine
 62
7
  6
CONTINUOUS
 10
753.7433251504
 20
190.7846559429
 11
753.7433251504
 21
181.1204709613
  0
LINE
  5
37E
100
AcDbEntity
  8
KONSTRUKTIONSELEMENTE
100
AcDbLine
 62
7
  6
CONTINUOUS
 10
757.4933251504
 20
171.4825071244
 11
757.4933251504
 21
177.6205327082
  0
LINE
  5
37F
100
AcDbEntity
  8
BEZUGSACHSEN
100
AcDbLine
 62
7
  6
CONTINUOUS
 10
745.1652846943
 20
184.298196969
 11
744.844068599
 21
170.7881032919
  0
LINE
  5
380
100
AcDbEntity
  8
RUNDUNGEN
100
AcDbLine
 62
7
  6
CONTINUOUS
 10
761.4933251504
 20
152.6431293605
 11
761.4933251504
 21
161.8748119698
  0
LINE
  5
381
100
AcDbEntity
  8
0
100
AcDbLine
 62
7
  6
CONTINUOUS
 10
765.4933251504
 20
770.0517575527
 11
765.4933251504
 21
274.1773583112
  0
LINE
  5
382
100
AcDbEntity
  8
0
100
AcDbLine
 62
7
  6
CONTINUOUS
 10
767.4933251504
 20
272.114557932
 11
767.4933251504
 21
227.114557932
  0
LINE
  5
383
100
AcDbEntity
  8
0
100
AcDbLine
 62
7
  6
CONTINUOUS
 10
750.0752367024
 20
188.7188302559
 11
749.8213656065
 21
184.298196969
  0
LINE
  5
384
100
AcDbEntity
  8
0
100
AcDbLine
 62
7
  6
CONTINUOUS
 10
785.4933251504
 20
272.114557932
 11
785.4933251504
 21
227.114557932
  0
LWPOLYLINE
  5
385
100
AcDbEntity
  8
BEZUGSACHSEN
100
AcDbPolyline
 62
7
  6
CONTINUOUS
 90
9
 70
0
 10
741.2125832493
 20
181.2584083293
 10
741.1497383742
 20
181.0053493898
 10
741.0533864158
 20
180.7614446468
 10
740.9251790783
 20
180.5319349977
 10
740.767485499
 20
180.3213663196
 10
740.5833470757
 20
180.133793194
 10
740.3769096351
 20
179.9730651186
 10
740.1525783198
 20
179.841919748
 10
739.9163308577
 20
179.7427093981
  0
LINE
  5
386
100
AcDbEntity
  8
BEZUGSACHSEN
100
AcDbLine
 62
7
  6
CONTINUOUS
 10
741.4961979844
 20
213.8468465127
 11
745.2659635372
 21
225.2455591031
  0
LINE
  5
387
100
AcDbEntity
  8
BEZUGSACHSEN
100
AcDbLine
 62
7
  6
CONTINUOUS
 10
734.1631981315
 20
164.3748119698
 11
742.6894768832
 21
179.1427599674
  0
LINE
  5
388
100
AcDbEntity
  8
KONSTRUKTIONSELEMENTE
100
AcDbLine
 62
7
  6
CONTINUOUS
 10
637.5382206759
 20
128.826715347
 11
640.3666478006
 21
131.6551424718
  0
LINE
  5
389
100
AcDbEntity
  8
KONSTRUKTIONSELEMENTE
100
AcDbLine
 62
7
  6
CONTINUOUS
 10
640.7202011912
 20
132.0086958624
 11
643.548628316
 21
134.8371229871
  0
LINE
  5
38A
100
AcDbEntity
  8
KONSTRUKTIONSELEMENTE
100
AcDbLine
 62
7
  6
CONTINUOUS
 10
694.813869952
 20
186.1023646232
 11
697.6422970767
 21
188.9307917479
  0
LINE
  5
38B
100
AcDbEntity
  8
KONSTRUKTIONSELEMENTE
100
AcDbLine
 62
7
  6
CONTINUOUS
 10
697.9958504673
 20
189.2843451385
 11
700.8242775921
 21
192.1127722632
  0
LINE
  5
38C
100
AcDbEntity
  8
KONSTRUKTIONSELEMENTE
100
AcDbLine
 62
7
  6
CONTINUOUS
 10
664.0547249704
 20
154.9896662509
 11
674.6613266882
 21
165.5962679687
  0
LINE
  5
38D
100
AcDbEntity
  8
KONSTRUKTIONSELEMENTE
100
AcDbLine
 62
7
  6
CONTINUOUS
 10
667.2367054857
 20
151.8076857356
 11
677.8433072035
 21
162.4142874534
  0
LINE
  5
38E
100
AcDbEntity
  8
KONSTRUKTIONSELEMENTE
100
AcDbLine
 62
7
  6
CONTINUOUS
 10
641.0737545818
 20
125.2911814411
 11
643.9021817066
 21
128.1196085659
  0
LINE
  5
38F
100
AcDbEntity
  8
KONSTRUKTIONSELEMENTE
100
AcDbLine
 62
7
  6
CONTINUOUS
 10
644.2557350971
 20
128.4731619565
 11
647.0841622219
 21
131.3015890812
  0
LINE
  5
390
100
AcDbEntity
  8
KONSTRUKTIONSELEMENTE
100
AcDbLine
 62
7
  6
CONTINUOUS
 10
698.3494038579
 20
182.5668307172
 11
701.1778309827
 21
185.395257842
  0
LINE
  5
391
100
AcDbEntity
  8
KONSTRUKTIONSELEMENTE
100
AcDbLine
 62
7
  6
CONTINUOUS
 10
701.5313843733
 20
185.7488112326
 11
704.359811498
 21
188.5772383573
  0
LINE
  5
392
100
AcDbEntity
  8
KONSTRUKTIONSELEMENTE
100
AcDbLine
 62
7
  6
CONTINUOUS
 10
733.3511895267
 20
217.2150629954
 11
704.359811498
 21
188.2236849667
  0
LINE
  5
393
100
AcDbEntity
  8
BEZUGSACHSEN
100
AcDbLine
 62
7
  6
CONTINUOUS
 10
644.2554896696
 20
127.4122563572
 11
643.1957287111
 21
126.3524953986
  0
LINE
  5
394
100
AcDbEntity
  8
KONSTRUKTIONSELEMENTE
100
AcDbLine
 62
7
  6
CONTINUOUS
 10
574.2521637597
 20
57.4089304472
 11
643.1957287111
 21
126.3524953986
  0
LINE
  5
395
100
AcDbEntity
  8
KONSTRUKTIONSELEMENTE
100
AcDbLine
 62
7
  6
CONTINUOUS
 10
698.3494038579
 20
181.1526171548
 11
679.6407188827
 21
162.4439321797
  0
LINE
  5
396
100
AcDbEntity
  8
KONSTRUKTIONSELEMENTE
100
AcDbLine
 62
7
  6
CONTINUOUS
 10
667.2367054857
 20
150.0399187826
 11
648.5280205105
 21
131.3312338075
  0
LINE
  5
397
100
AcDbEntity
  8
KONSTRUKTIONSELEMENTE
100
AcDbLine
 62
7
  6
CONTINUOUS
 10
588.747852774
 20
71.1975126803
 11
574.6057171503
 21
57.0553770566
  0
LINE
  5
398
100
AcDbEntity
  8
KONSTRUKTIONSELEMENTE
100
AcDbLine
 62
7
  6
CONTINUOUS
 10
619.1544615198
 20
101.6041214262
 11
623.7881487669
 21
106.2378086732
  0
LINE
  5
399
100
AcDbEntity
  8
KONSTRUKTIONSELEMENTE
100
AcDbLine
 62
7
  6
CONTINUOUS
 10
591.5762798987
 20
68.3690855556
 11
577.434144275
 21
54.2269499319
  0
LINE
  5
39A
100
AcDbEntity
  8
KONSTRUKTIONSELEMENTE
100
AcDbLine
 62
7
  6
CONTINUOUS
 10
621.9828886446
 20
98.7756943014
 11
626.6165758916
 21
103.4093815485
  0
LINE
  5
39B
100
AcDbEntity
  8
KONSTRUKTIONSELEMENTE
100
AcDbLine
 62
7
  6
CONTINUOUS
 10
701.5313843733
 20
177.9706366395
 11
682.8226993981
 21
159.2619516643
  0
LINE
  5
39C
100
AcDbEntity
  8
KONSTRUKTIONSELEMENTE
100
AcDbLine
 62
7
  6
CONTINUOUS
 10
670.418686001
 20
146.8579382673
 11
651.7100010259
 21
128.1492532921
  0
LINE
  5
39D
100
AcDbEntity
  8
BEZUGSACHSEN
100
AcDbLine
 62
7
  6
CONTINUOUS
 10
647.7910235756
 20
123.8767224512
 11
646.731262617
 21
122.8169614926
  0
LINE
  5
39E
100
AcDbEntity
  8
KONSTRUKTIONSELEMENTE
100
AcDbLine
 62
7
  6
CONTINUOUS
 10
577.7876976656
 20
53.8733965413
 11
646.731262617
 21
122.8169614926
  0
LINE
  5
39F
100
AcDbEntity
  8
KONSTRUKTIONSELEMENTE
100
AcDbLine
 62
7
  6
CONTINUOUS
 10
737.5938302138
 20
212.9724223082
 11
708.6519623123
 21
184.0305544068
  0
LINE
  5
3A0
100
AcDbEntity
  8
KONSTRUKTIONSELEMENTE
100
AcDbLine
 62
7
  6
CONTINUOUS
 10
708.9560055757
 20
183.9810442796
 11
702.9455979356
 21
177.9706366395
  0
LINE
  5
3A1
100
AcDbEntity
  8
KONSTRUKTIONSELEMENTE
100
AcDbLine
 62
7
  6
CONTINUOUS
 10
651.6803562996
 20
126.7053950035
 11
645.6699486595
 21
120.6949873634
  0
LINE
  5
3A2
100
AcDbEntity
  8
KONSTRUKTIONSELEMENTE
100
AcDbLine
 62
7
  6
CONTINUOUS
 10
682.7930546718
 20
157.4645399851
 11
672.186452954
 21
146.8579382673
  0
LINE
  5
3A3
100
AcDbEntity
  8
KONSTRUKTIONSELEMENTE
100
AcDbLine
 62
7
  6
CONTINUOUS
 10
685.9750351872
 20
154.2825594698
 11
675.3684334694
 21
143.675957752
  0
LINE
  5
3A4
100
AcDbEntity
  8
KONSTRUKTIONSELEMENTE
100
AcDbLine
 62
7
  6
CONTINUOUS
 10
712.4915394816
 20
180.4455103737
 11
706.4811318416
 21
174.4351027336
  0
LINE
  5
3A5
100
AcDbEntity
  8
KONSTRUKTIONSELEMENTE
100
AcDbLine
 62
7
  6
CONTINUOUS
 10
655.2158902055
 20
123.1698610976
 11
649.2054825655
 21
117.1594534575
  0
LINE
  5
3A6
100
AcDbEntity
  8
RUNDUNGEN
100
AcDbLine
 62
7
  6
CONTINUOUS
 10
759.3801176032
 20
147.8183315169
 11
760.7386081692
 21
150.0016199266
  0
ARC
  5
3A7
100
AcDbEntity
  8
KONSTRUKTIONSELEMENTE
100
AcDbCircle
 62
7
  6
CONTINUOUS
 10
276.04904962
 20
172.3484719438
 40
9.4443260734
100
AcDbArc
 50
104.2723032266
 51
110.4100277385
  0
ARC
  5
3A8
100
AcDbEntity
  8
KONSTRUKTIONSELEMENTE
100
AcDbCircle
 62
7
  6
CONTINUOUS
 10
275.2165661777
 20
142.9347759325
 40
7.5451076753
100
AcDbArc
 50
124.2419775659
 51
126.1203175817
  0
ARC
  5
3A9
100
AcDbEntity
  8
KONSTRUKTIONSELEMENTE
100
AcDbCircle
 62
7
  6
CONTINUOUS
 10
275.1214638101
 20
143.0654493894
 40
7.3834909419
100
AcDbArc
 50
126.1219307632
 51
127.5764647571
  0
ARC
  5
3AA
100
AcDbEntity
  8
KONSTRUKTIONSELEMENTE
100
AcDbCircle
 62
7
  6
CONTINUOUS
 10
265.6904870814
 20
62.6057097369
 40
5.4898501433
100
AcDbArc
 50
80.2049516589
 51
83.5150100898
  0
ARC
  5
3AB
100
AcDbEntity
  8
RUNDUNGEN
100
AcDbCircle
 62
7
  6
CONTINUOUS
 10
248.2250624099
 20
164.878633852
 40
3.0
100
AcDbArc
 50
0.0
 51
14.0
  0
ARC
  5
3AC
100
AcDbEntity
  8
KONSTRUKTIONSELEMENTE
100
AcDbCircle
 62
7
  6
CONTINUOUS
 10
269.6633237001
 20
65.1863723643
 40
2.0117388432
100
AcDbArc
 50
0.0208671421
 51
7.9801551546
  0
ARC
  5
3AD
100
AcDbEntity
  8
BEZUGSACHSEN
100
AcDbCircle
 62
7
  6
CONTINUOUS
 10
258.4509243977
 20
143.2145586022
 40
2.0
100
AcDbArc
 50
220.0000250634
 51
270.0000161105
  0
ARC
  5
3AE
100
AcDbEntity
  8
RUNDUNGEN
100
AcDbCircle
 62
7
  6
CONTINUOUS
 10
253.2250624099
 20
149.4424984005
 40
2.0
100
AcDbArc
 50
180.0
 51
220.0
  0
ARC
  5
3AF
100
AcDbEntity
  8
KONSTRUKTIONSELEMENTE
100
AcDbCircle
 62
7
  6
CONTINUOUS
 10
276.2250624099
 20
108.1564638103
 40
36.0
100
AcDbArc
 50
98.9490180653
 51
113.3240322405
  0
ARC
  5
3B0
100
AcDbEntity
  8
KONSTRUKTIONSELEMENTE
100
AcDbCircle
 62
7
  6
CONTINUOUS
 10
276.2250624099
 20
108.1564638103
 40
36.0
100
AcDbArc
 50
66.6759677595
 51
81.0509819347
  0
ARC
  5
3B1
100
AcDbEntity
  8
BEZUGSACHSEN
100
AcDbCircle
 62
7
  6
CONTINUOUS
 10
276.2250624099
 20
193.964557932
 40
13.25
100
AcDbArc
 50
132.844678999
 51
47.155321001
  0
ARC
  5
3B2
100
AcDbEntity
  8
KONSTRUKTIONSELEMENTE
100
AcDbCircle
 62
7
  6
CONTINUOUS
 10
276.430500308
 20
172.4436265201
 40
9.3448730038
100
AcDbArc
 50
69.5234235979
 51
75.7644531001
  0
ARC
  5
3B3
100
AcDbEntity
  8
0
100
AcDbCircle
 62
7
  6
CONTINUOUS
 10
276.2250624099
 20
301.114557932
 40
9.0
100
AcDbArc
 50
0.0
 51
180.0
  0
ARC
  5
3B4
100
AcDbEntity
  8
0
100
AcDbCircle
 62
7
  6
CONTINUOUS
 10
276.2250624099
 20
198.114557932
 40
9.0
100
AcDbArc
 50
180.0
 51
360.0
  0
ARC
  5
3B5
100
AcDbEntity
  8
KONSTRUKTIONSELEMENTE
100
AcDbCircle
 62
7
  6
CONTINUOUS
 10
277.2420591127
 20
142.946698731
 40
7.5304602268
100
AcDbArc
 50
53.6440041601
 51
55.6848988335
  0
ARC
  5
3B6
100
AcDbEntity
  8
KONSTRUKTIONSELEMENTE
100
AcDbCircle
 62
7
  6
CONTINUOUS
 10
277.3371758564
 20
143.0765553861
 40
7.3694950111
100
AcDbArc
 50
52.3884586972
 51
53.6410739396
  0
ARC
  5
3B7
100
AcDbEntity
  8
KONSTRUKTIONSELEMENTE
100
AcDbCircle
 62
7
  6
CONTINUOUS
 10
276.2250624099
 20
168.614557932
 40
5.6
100
AcDbArc
 50
0.0
 51
180.0
  0
ARC
  5
3B8
100
AcDbEntity
  8
KONSTRUKTIONSELEMENTE
100
AcDbCircle
 62
7
  6
CONTINUOUS
 10
286.5416917063
 20
63.661823506
 40
4.6749602776
100
AcDbArc
 50
111.3149175255
 51
112.0930351415
  0
ARC
  5
3B9
100
AcDbEntity
  8
RUNDUNGEN
100
AcDbCircle
 62
7
  6
CONTINUOUS
 10
304.2250624099
 20
164.878633852
 40
3.0
100
AcDbArc
 50
166.0
 51
180.0
  0
ARC
  5
3BA
100
AcDbEntity
  8
KONSTRUKTIONSELEMENTE
100
AcDbCircle
 62
7
  6
CONTINUOUS
 10
276.2250624099
 20
134.7534920423
 40
2.5
100
AcDbArc
 50
0.0
 51
180.0
  0
ARC
  5
3BB
100
AcDbEntity
  8
KONSTRUKTIONSELEMENTE
100
AcDbCircle
 62
7
  6
CONTINUOUS
 10
276.2250624099
 20
117.2430844023
 40
2.5
100
AcDbArc
 50
180.0
 51
360.0
  0
ARC
  5
3BC
100
AcDbEntity
  8
KONSTRUKTIONSELEMENTE
100
AcDbCircle
 62
7
  6
CONTINUOUS
 10
276.2250624099
 20
174.5187336784
 40
2.5
100
AcDbArc
 50
199.3908042463
 51
340.6091957537
  0
CIRCLE
  5
3BD
100
AcDbEntity
  8
BEZUGSACHSEN
100
AcDbCircle
 62
7
  6
CONTINUOUS
 10
293.9250624099
 20
155.214557932
 40
2.5
  0
ARC
  5
3BE
100
AcDbEntity
  8
KONSTRUKTIONSELEMENTE
100
AcDbCircle
 62
7
  6
CONTINUOUS
 10
276.2250624099
 20
143.5828120015
 40
2.25
100
AcDbArc
 50
180.0
 51
360.0
  0
ARC
  5
3BF
100
AcDbEntity
  8
KONSTRUKTIONSELEMENTE
100
AcDbCircle
 62
7
  6
CONTINUOUS
 10
276.2250624099
 20
165.6894137193
 40
2.25
100
AcDbArc
 50
0.0
 51
180.0
  0
ARC
  5
3C0
100
AcDbEntity
  8
BEZUGSACHSEN
100
AcDbCircle
 62
7
  6
CONTINUOUS
 10
293.9992022672
 20
143.2145608011
 40
2.0
100
AcDbArc
 50
269.9999310313
 51
319.9998927033
  0
ARC
  5
3C1
100
AcDbEntity
  8
RUNDUNGEN
100
AcDbCircle
 62
7
  6
CONTINUOUS
 10
299.2250624099
 20
149.4424984005
 40
2.0
100
AcDbArc
 50
320.0
 51
359.9755144818
  0
ARC
  5
3C2
100
AcDbEntity
  8
0
100
AcDbCircle
 62
7
  6
CONTINUOUS
 10
276.2250624099
 20
417.114557932
 40
161.0
100
AcDbArc
 50
180.0
 51
266.795217075
  0
ARC
  5
3C3
100
AcDbEntity
  8
0
100
AcDbCircle
 62
7
  6
CONTINUOUS
 10
276.2250624099
 20
417.114557932
 40
161.0
100
AcDbArc
 50
273.204782925
 51
360.0
  0
ARC
  5
3C4
100
AcDbEntity
  8
0
100
AcDbCircle
 62
7
  6
CONTINUOUS
 10
276.2250624099
 20
627.114557932
 40
161.0
100
AcDbArc
 50
0.0
 51
180.0
  0
ARC
  5
3C5
100
AcDbEntity
  8
0
100
AcDbCircle
 62
7
  6
CONTINUOUS
 10
276.2250624099
 20
627.114557932
 40
125.0
100
AcDbArc
 50
0.0
 51
180.0
  0
ARC
  5
3C6
100
AcDbEntity
  8
0
100
AcDbCircle
 62
7
  6
CONTINUOUS
 10
276.2250624099
 20
417.114557932
 40
125.0
100
AcDbArc
 50
180.0
 51
265.8706822275
  0
ARC
  5
3C7
100
AcDbEntity
  8
0
100
AcDbCircle
 62
7
  6
CONTINUOUS
 10
276.2250624099
 20
417.114557932
 40
125.0
100
AcDbArc
 50
274.1293177725
 51
360.0
  0
ARC
  5
3C8
100
AcDbEntity
  8
KONSTRUKTIONSELEMENTE
100
AcDbCircle
 62
7
  6
CONTINUOUS
 10
534.04850903
 20
153.034955298
 40
227.1964655376
100
AcDbArc
 50
15.1317550948
 51
15.2728816291
  0
ARC
  5
3C9
100
AcDbEntity
  8
KONSTRUKTIONSELEMENTE
100
AcDbCircle
 62
7
  6
CONTINUOUS
 10
542.1835811214
 20
152.5734547744
 40
218.81235688
100
AcDbArc
 50
15.170959669
 51
15.3163345801
  0
ARC
  5
3CA
100
AcDbEntity
  8
KONSTRUKTIONSELEMENTE
100
AcDbCircle
 62
7
  6
CONTINUOUS
 10
621.9474141787
 20
71.0808888431
 40
189.0538635276
100
AcDbArc
 50
45.9160450668
 51
46.2240508138
  0
ARC
  5
3CB
100
AcDbEntity
  8
KONSTRUKTIONSELEMENTE
100
AcDbCircle
 62
7
  6
CONTINUOUS
 10
646.5312756422
 20
95.7235369351
 40
154.5900703468
100
AcDbArc
 50
46.2343507007
 51
46.6408465847
  0
ARC
  5
3CC
100
AcDbEntity
  8
0
100
AcDbCircle
 62
7
  6
CONTINUOUS
 10
624.5106945585
 20
181.5738827032
 40
131.2747034282
100
AcDbArc
 50
12.4525381241
 51
12.5784113136
  0
ARC
  5
3CD
100
AcDbEntity
  8
KONSTRUKTIONSELEMENTE
100
AcDbCircle
 62
7
  6
CONTINUOUS
 10
625.3187444866
 20
181.6364407845
 40
130.9864184721
100
AcDbArc
 50
12.4317510099
 51
12.5785114004
  0
ARC
  5
3CE
100
AcDbEntity
  8
KONSTRUKTIONSELEMENTE
100
AcDbCircle
 62
7
  6
CONTINUOUS
 10
630.1901141654
 20
184.316163546
 40
126.21692994
100
AcDbArc
 50
12.8775791987
 51
13.0259316692
  0
ARC
  5
3CF
100
AcDbEntity
  8
KONSTRUKTIONSELEMENTE
100
AcDbCircle
 62
7
  6
CONTINUOUS
 10
640.5427363878
 20
187.0841043768
 40
114.0816423173
100
AcDbArc
 50
10.6260005665
 51
10.8280558523
  0
ARC
  5
3D0
100
AcDbEntity
  8
KONSTRUKTIONSELEMENTE
100
AcDbCircle
 62
7
  6
CONTINUOUS
 10
649.3822592607
 20
129.0034920423
 40
8.25
100
AcDbArc
 50
60.8421444573
 51
135.0
  0
ARC
  5
3D1
100
AcDbEntity
  8
KONSTRUKTIONSELEMENTE
100
AcDbCircle
 62
7
  6
CONTINUOUS
 10
649.3822592607
 20
129.0034920423
 40
8.25
100
AcDbArc
 50
315.0
 51
29.1578555427
  0
ARC
  5
3D2
100
AcDbEntity
  8
KONSTRUKTIONSELEMENTE
100
AcDbCircle
 62
7
  6
CONTINUOUS
 10
643.3718516207
 20
122.9930844023
 40
8.25
100
AcDbArc
 50
242.6769957192
 51
315.0
  0
ARC
  5
3D3
100
AcDbEntity
  8
KONSTRUKTIONSELEMENTE
100
AcDbCircle
 62
7
  6
CONTINUOUS
 10
643.3718516207
 20
122.9930844023
 40
8.25
100
AcDbArc
 50
135.0
 51
207.3230042808
  0
ARC
  5
3D4
100
AcDbEntity
  8
KONSTRUKTIONSELEMENTE
100
AcDbCircle
 62
7
  6
CONTINUOUS
 10
649.3822592607
 20
129.0034920423
 40
3.25
100
AcDbArc
 50
88.8837571799
 51
135.0
  0
ARC
  5
3D5
100
AcDbEntity
  8
KONSTRUKTIONSELEMENTE
100
AcDbCircle
 62
7
  6
CONTINUOUS
 10
649.3822592607
 20
129.0034920423
 40
3.25
100
AcDbArc
 50
315.0
 51
1.1162428201
  0
ARC
  5
3D6
100
AcDbEntity
  8
KONSTRUKTIONSELEMENTE
100
AcDbCircle
 62
7
  6
CONTINUOUS
 10
643.3718516207
 20
122.9930844023
 40
3.25
100
AcDbArc
 50
275.4054095575
 51
315.0
  0
ARC
  5
3D7
100
AcDbEntity
  8
KONSTRUKTIONSELEMENTE
100
AcDbCircle
 62
7
  6
CONTINUOUS
 10
643.3718516207
 20
122.9930844023
 40
3.25
100
AcDbArc
 50
135.0
 51
174.5945904425
  0
ARC
  5
3D8
100
AcDbEntity
  8
KONSTRUKTIONSELEMENTE
100
AcDbCircle
 62
7
  6
CONTINUOUS
 10
669.7115792199
 20
149.3328120015
 40
8.0
100
AcDbArc
 50
241.3642958278
 51
315.0
  0
ARC
  5
3D9
100
AcDbEntity
  8
KONSTRUKTIONSELEMENTE
100
AcDbCircle
 62
7
  6
CONTINUOUS
 10
669.7115792199
 20
149.3328120015
 40
8.0
100
AcDbArc
 50
135.0
 51
208.6357041722
  0
ARC
  5
3DA
100
AcDbEntity
  8
KONSTRUKTIONSELEMENTE
100
AcDbCircle
 62
7
  6
CONTINUOUS
 10
669.7115792199
 20
149.3328120015
 40
3.5
100
AcDbArc
 50
265.1538775079
 51
315.0
  0
ARC
  5
3DB
100
AcDbEntity
  8
KONSTRUKTIONSELEMENTE
100
AcDbCircle
 62
7
  6
CONTINUOUS
 10
669.7115792199
 20
149.3328120015
 40
3.5
100
AcDbArc
 50
135.0
 51
184.8461224921
  0
ARC
  5
3DC
100
AcDbEntity
  8
KONSTRUKTIONSELEMENTE
100
AcDbCircle
 62
7
  6
CONTINUOUS
 10
668.8276957434
 20
148.448928525
 40
2.25
100
AcDbArc
 50
315.0
 51
135.0
  0
ARC
  5
3DD
100
AcDbEntity
  8
KONSTRUKTIONSELEMENTE
100
AcDbCircle
 62
7
  6
CONTINUOUS
 10
650.0893660419
 20
129.7105988235
 40
2.25
100
AcDbArc
 50
135.0
 51
315.0
  0
ARC
  5
3DE
100
AcDbEntity
  8
KONSTRUKTIONSELEMENTE
100
AcDbCircle
 62
7
  6
CONTINUOUS
 10
657.1760025184
 20
191.2241499528
 40
97.9782748603
100
AcDbArc
 50
10.7201901069
 51
10.9507782969
  0
ARC
  5
3DF
100
AcDbEntity
  8
KONSTRUKTIONSELEMENTE
100
AcDbCircle
 62
7
  6
CONTINUOUS
 10
665.6283208725
 20
194.2308816271
 40
89.5891127364
100
AcDbArc
 50
11.4237658477
 51
11.6633015948
  0
ARC
  5
3E0
100
AcDbEntity
  8
KONSTRUKTIONSELEMENTE
100
AcDbCircle
 62
7
  6
CONTINUOUS
 10
664.9307527032
 20
195.9662579436
 40
88.433870321
100
AcDbArc
 50
7.8758796989
 51
8.0502562957
  0
ARC
  5
3E1
100
AcDbEntity
  8
KONSTRUKTIONSELEMENTE
100
AcDbCircle
 62
7
  6
CONTINUOUS
 10
680.3181809377
 20
159.9394137193
 40
8.0
100
AcDbArc
 50
61.3642958278
 51
135.0
  0
ARC
  5
3E2
100
AcDbEntity
  8
KONSTRUKTIONSELEMENTE
100
AcDbCircle
 62
7
  6
CONTINUOUS
 10
680.3181809377
 20
159.9394137193
 40
8.0
100
AcDbArc
 50
315.0
 51
28.6357041722
  0
ARC
  5
3E3
100
AcDbEntity
  8
KONSTRUKTIONSELEMENTE
100
AcDbCircle
 62
7
  6
CONTINUOUS
 10
680.3181809377
 20
159.9394137193
 40
3.5
100
AcDbArc
 50
85.1538775079
 51
135.0
  0
ARC
  5
3E4
100
AcDbEntity
  8
KONSTRUKTIONSELEMENTE
100
AcDbCircle
 62
7
  6
CONTINUOUS
 10
680.3181809377
 20
159.9394137193
 40
3.5
100
AcDbArc
 50
315.0
 51
4.8461224921
  0
ARC
  5
3E5
100
AcDbEntity
  8
KONSTRUKTIONSELEMENTE
100
AcDbCircle
 62
7
  6
CONTINUOUS
 10
681.2020644141
 20
160.8232971957
 40
2.25
100
AcDbArc
 50
135.0
 51
315.0
  0
ARC
  5
3E6
100
AcDbEntity
  8
KONSTRUKTIONSELEMENTE
100
AcDbCircle
 62
7
  6
CONTINUOUS
 10
706.6579085369
 20
186.2791413185
 40
8.25
100
AcDbArc
 50
66.346698243
 51
135.0
  0
ARC
  5
3E7
100
AcDbEntity
  8
KONSTRUKTIONSELEMENTE
100
AcDbCircle
 62
7
  6
CONTINUOUS
 10
706.6579085369
 20
186.2791413185
 40
8.25
100
AcDbArc
 50
315.0
 51
23.653301757
  0
ARC
  5
3E8
100
AcDbEntity
  8
KONSTRUKTIONSELEMENTE
100
AcDbCircle
 62
7
  6
CONTINUOUS
 10
700.6475008968
 20
180.2687336784
 40
8.25
100
AcDbArc
 50
240.8421444573
 51
315.0
  0
ARC
  5
3E9
100
AcDbEntity
  8
KONSTRUKTIONSELEMENTE
100
AcDbCircle
 62
7
  6
CONTINUOUS
 10
700.6475008968
 20
180.2687336784
 40
8.25
100
AcDbArc
 50
135.0
 51
209.1578555427
  0
ARC
  5
3EA
100
AcDbEntity
  8
KONSTRUKTIONSELEMENTE
100
AcDbCircle
 62
7
  6
CONTINUOUS
 10
706.6579085369
 20
186.2791413185
 40
3.25
100
AcDbArc
 50
112.8065550031
 51
135.0
  0
ARC
  5
3EB
100
AcDbEntity
  8
KONSTRUKTIONSELEMENTE
100
AcDbCircle
 62
7
  6
CONTINUOUS
 10
706.6579085369
 20
186.2791413185
 40
3.25
100
AcDbArc
 50
315.0
 51
337.1934449969
  0
ARC
  5
3EC
100
AcDbEntity
  8
KONSTRUKTIONSELEMENTE
100
AcDbCircle
 62
7
  6
CONTINUOUS
 10
700.6475008968
 20
180.2687336784
 40
3.25
100
AcDbArc
 50
268.8837571799
 51
315.0
  0
ARC
  5
3ED
100
AcDbEntity
  8
KONSTRUKTIONSELEMENTE
100
AcDbCircle
 62
7
  6
CONTINUOUS
 10
700.6475008968
 20
180.2687336784
 40
3.25
100
AcDbArc
 50
135.0
 51
181.1162428201
  0
ARC
  5
3EE
100
AcDbEntity
  8
KONSTRUKTIONSELEMENTE
100
AcDbCircle
 62
7
  6
CONTINUOUS
 10
706.4811318416
 20
186.1023646232
 40
3.0
100
AcDbArc
 50
135.0
 51
315.0
  0
ARC
  5
3EF
100
AcDbEntity
  8
KONSTRUKTIONSELEMENTE
100
AcDbCircle
 62
7
  6
CONTINUOUS
 10
699.9403941156
 20
179.5616268972
 40
2.25
100
AcDbArc
 50
315.0
 51
135.0
  0
ARC
  5
3F0
100
AcDbEntity
  8
KONSTRUKTIONSELEMENTE
100
AcDbCircle
 62
7
  6
CONTINUOUS
 10
692.6293665816
 20
202.5464553405
 40
61.0412452892
100
AcDbArc
 50
6.5615233708
 51
6.8574401783
  0
ARC
  5
3F1
100
AcDbEntity
  8
0
100
AcDbCircle
 62
7
  6
CONTINUOUS
 10
696.419791379
 20
208.8675071495
 40
54.8820574433
100
AcDbArc
 50
358.6327368
 51
0.359381713
  0
ARC
  5
3F2
100
AcDbEntity
  8
KONSTRUKTIONSELEMENTE
100
AcDbCircle
 62
7
  6
CONTINUOUS
 10
696.9464256807
 20
208.8675071495
 40
54.8820574433
100
AcDbArc
 50
358.6327368
 51
0.359381713
  0
ARC
  5
3F3
100
AcDbEntity
  8
KONSTRUKTIONSELEMENTE
100
AcDbCircle
 62
7
  6
CONTINUOUS
 10
698.2737958809
 20
208.5681237784
 40
53.7306035583
100
AcDbArc
 50
359.0446728256
 51
0.4408351866
  0
ARC
  5
3F4
100
AcDbEntity
  8
KONSTRUKTIONSELEMENTE
100
AcDbCircle
 62
7
  6
CONTINUOUS
 10
700.2563112841
 20
203.9009118131
 40
53.4766001673
100
AcDbArc
 50
5.553951868
 51
5.9554336497
  0
ARC
  5
3F5
100
AcDbEntity
  8
KONSTRUKTIONSELEMENTE
100
AcDbCircle
 62
7
  6
CONTINUOUS
 10
702.097880963
 20
207.6707399842
 40
50.4342605583
100
AcDbArc
 50
358.9822202641
 51
0.4696416752
  0
ARC
  5
3F6
100
AcDbEntity
  8
0
100
AcDbCircle
 62
7
  6
CONTINUOUS
 10
701.6012117413
 20
207.6706573203
 40
50.4042971636
100
AcDbArc
 50
0.097911701
 51
0.4700148345
  0
ARC
  5
3F7
100
AcDbEntity
  8
KONSTRUKTIONSELEMENTE
100
AcDbCircle
 62
7
  6
CONTINUOUS
 10
704.1596237141
 20
205.7138935115
 40
49.5324902636
100
AcDbArc
 50
7.4840670455
 51
7.8113691506
  0
ARC
  5
3F8
100
AcDbEntity
  8
KONSTRUKTIONSELEMENTE
100
AcDbCircle
 62
7
  6
CONTINUOUS
 10
703.6257433692
 20
207.3118346634
 40
49.1174955165
100
AcDbArc
 50
358.954873222
 51
0.3214077002
  0
ARC
  5
3F9
100
AcDbEntity
  8
0
100
AcDbCircle
 62
7
  6
CONTINUOUS
 10
735.8884850215
 20
165.929064107
 40
45.844120922
100
AcDbArc
 50
68.2941737997
 51
68.490398173
  0
ARC
  5
3FA
100
AcDbEntity
  8
KONSTRUKTIONSELEMENTE
100
AcDbCircle
 62
7
  6
CONTINUOUS
 10
736.4151193357
 20
165.9290641386
 40
45.844120888
100
AcDbArc
 50
68.2941737996
 51
68.4903981731
  0
ARC
  5
3FB
100
AcDbEntity
  8
BEZUGSACHSEN
100
AcDbCircle
 62
7
  6
CONTINUOUS
 10
738.4933251504
 20
161.8748119698
 40
5.0
100
AcDbArc
 50
150.0
 51
180.0
  0
ARC
  5
3FC
100
AcDbEntity
  8
BEZUGSACHSEN
100
AcDbCircle
 62
7
  6
CONTINUOUS
 10
738.4933251504
 20
152.6431293605
 40
5.0
100
AcDbArc
 50
180.0
 51
211.8907918018
  0
ARC
  5
3FD
100
AcDbEntity
  8
BEZUGSACHSEN
100
AcDbCircle
 62
7
  6
CONTINUOUS
 10
732.4933251504
 20
171.4825071244
 40
5.0
100
AcDbArc
 50
330.0
 51
360.0
  0
ARC
  5
3FE
100
AcDbEntity
  8
KONSTRUKTIONSELEMENTE
100
AcDbCircle
 62
7
  6
CONTINUOUS
 10
725.8986006072
 20
192.6243965512
 40
34.9105381486
100
AcDbArc
 50
41.4582650474
 51
41.7924723832
  0
ARC
  5
3FF
100
AcDbEntity
  8
BEZUGSACHSEN
100
AcDbCircle
 62
7
  6
CONTINUOUS
 10
739.4933251504
 20
177.6205327082
 40
2.0
100
AcDbArc
 50
99.0
 51
180.0
  0
ARC
  5
400
100
AcDbEntity
  8
BEZUGSACHSEN
100
AcDbCircle
 62
7
  6
CONTINUOUS
 10
747.4933251504
 20
155.214557932
 40
14.0
100
AcDbArc
 50
211.8907918018
 51
328.1092081982
  0
CIRCLE
  5
401
100
AcDbEntity
  8
0
100
AcDbCircle
 62
7
  6
CONTINUOUS
 10
747.4933251504
 20
155.214557932
 40
5.75
  0
ARC
  5
402
100
AcDbEntity
  8
RUNDUNGEN
100
AcDbCircle
 62
7
  6
CONTINUOUS
 10
756.4933251504
 20
161.8748119698
 40
5.0
100
AcDbArc
 50
0.0
 51
30.0
  0
ARC
  5
403
100
AcDbEntity
  8
RUNDUNGEN
100
AcDbCircle
 62
7
  6
CONTINUOUS
 10
756.4933251504
 20
152.6431293605
 40
5.0
100
AcDbArc
 50
328.1092081982
 51
360.0
  0
ARC
  5
404
100
AcDbEntity
  8
KONSTRUKTIONSELEMENTE
100
AcDbCircle
 62
7
  6
CONTINUOUS
 10
762.4933251504
 20
171.4825071244
 40
5.0
100
AcDbArc
 50
180.0
 51
210.0
  0
ARC
  5
405
100
AcDbEntity
  8
KONSTRUKTIONSELEMENTE
100
AcDbCircle
 62
7
  6
CONTINUOUS
 10
745.7404739534
 20
199.6732423413
 40
16.8620542779
100
AcDbArc
 50
67.7587730102
 51
67.9457407441
  0
ARC
  5
406
100
AcDbEntity
  8
RUNDUNGEN
100
AcDbCircle
 62
7
  6
CONTINUOUS
 10
764.8341019601
 20
186.3810299112
 40
14.4764335753
100
AcDbArc
 50
208.8852859717
 51
210.0002435559
  0
ARC
  5
407
100
AcDbEntity
  8
KONSTRUKTIONSELEMENTE
100
AcDbCircle
 62
7
  6
CONTINUOUS
 10
755.4933251504
 20
177.6205327082
 40
2.0
100
AcDbArc
 50
0.0
 51
81.0
  0
ARC
  5
408
100
AcDbEntity
  8
KONSTRUKTIONSELEMENTE
100
AcDbCircle
 62
7
  6
CONTINUOUS
 10
708.7303507617
 20
206.0603113891
 40
44.7517733565
100
AcDbArc
 50
358.3172302345
 51
358.8467284614
  0
ARC
  5
409
100
AcDbEntity
  8
KONSTRUKTIONSELEMENTE
100
AcDbCircle
 62
7
  6
CONTINUOUS
 10
708.747357807
 20
206.0509107585
 40
44.7347605692
100
AcDbArc
 50
1.0648671092
 51
1.6828393283
  0
ARC
  5
40A
100
AcDbEntity
  8
KONSTRUKTIONSELEMENTE
100
AcDbCircle
 62
7
  6
CONTINUOUS
 10
711.7166851489
 20
206.9076913671
 40
42.032506119
100
AcDbArc
 50
6.4731562984
 51
6.9245921445
  0
ARC
  5
40B
100
AcDbEntity
  8
KONSTRUKTIONSELEMENTE
100
AcDbCircle
 62
7
  6
CONTINUOUS
 10
710.4944682003
 20
212.4412906543
 40
41.3340378004
100
AcDbArc
 50
0.9969455703
 51
1.4938336929
  0
ARC
  5
40C
100
AcDbEntity
  8
0
100
AcDbCircle
 62
7
  6
CONTINUOUS
 10
709.9678339058
 20
212.4412906544
 40
41.3340377933
100
AcDbArc
 50
0.9969455703
 51
1.4938336929
  0
ARC
  5
40D
100
AcDbEntity
  8
KONSTRUKTIONSELEMENTE
100
AcDbCircle
 62
7
  6
CONTINUOUS
 10
710.4944682247
 20
212.4461338965
 40
41.334037776
100
AcDbArc
 50
358.506166307
 51
359.0030546668
  0
ARC
  5
40E
100
AcDbEntity
  8
0
100
AcDbCircle
 62
7
  6
CONTINUOUS
 10
709.9678339374
 20
212.4461338962
 40
41.3340377617
100
AcDbArc
 50
358.506166307
 51
359.0030546669
  0
ARC
  5
40F
100
AcDbEntity
  8
0
100
AcDbCircle
 62
7
  6
CONTINUOUS
 10
713.9297251748
 20
213.5452156824
 40
37.6214551199
100
AcDbArc
 50
353.3856405663
 51
353.8219602644
  0
ARC
  5
410
100
AcDbEntity
  8
KONSTRUKTIONSELEMENTE
100
AcDbCircle
 62
7
  6
CONTINUOUS
 10
714.4563594764
 20
213.5452156824
 40
37.6214551199
100
AcDbArc
 50
353.3856405663
 51
353.8219602644
  0
ARC
  5
411
100
AcDbEntity
  8
KONSTRUKTIONSELEMENTE
100
AcDbCircle
 62
7
  6
CONTINUOUS
 10
718.8802344483
 20
209.4021814512
 40
34.3907480734
100
AcDbArc
 50
359.8009780399
 51
0.1990216754
  0
ARC
  5
412
100
AcDbEntity
  8
KONSTRUKTIONSELEMENTE
100
AcDbCircle
 62
7
  6
CONTINUOUS
 10
720.0828202402
 20
208.9570793806
 40
33.3992592192
100
AcDbArc
 50
359.7950698585
 51
0.2049298484
  0
ARC
  5
413
100
AcDbEntity
  8
KONSTRUKTIONSELEMENTE
100
AcDbCircle
 62
7
  6
CONTINUOUS
 10
724.1354693767
 20
215.3529752644
 40
28.5864305013
100
AcDbArc
 50
347.1215335982
 51
347.4233750845
  0
ARC
  5
414
100
AcDbEntity
  8
KONSTRUKTIONSELEMENTE
100
AcDbCircle
 62
7
  6
CONTINUOUS
 10
724.6505507541
 20
215.5197488338
 40
27.1779318383
100
AcDbArc
 50
357.954847911
 51
0.4080157851
  0
ARC
  5
415
100
AcDbEntity
  8
0
100
AcDbCircle
 62
7
  6
CONTINUOUS
 10
724.1239164525
 20
215.5197488338
 40
27.1779318383
100
AcDbArc
 50
357.954847911
 51
0.4080157851
  0
ARC
  5
416
100
AcDbEntity
  8
KONSTRUKTIONSELEMENTE
100
AcDbCircle
 62
7
  6
CONTINUOUS
 10
725.547268123
 20
215.0002954282
 40
26.4923140715
100
AcDbArc
 50
358.531837133
 51
0.4191564172
  0
ARC
  5
417
100
AcDbEntity
  8
0
100
AcDbCircle
 62
7
  6
CONTINUOUS
 10
747.4933251504
 20
227.114557932
 40
38.0
100
AcDbArc
 50
279.4721988504
 51
360.0
  0
ARC
  5
418
100
AcDbEntity
  8
0
100
AcDbCircle
 62
7
  6
CONTINUOUS
 10
747.4933251504
 20
227.114557932
 40
38.0
100
AcDbArc
 50
229.5294312019
 51
260.5278011496
  0
ARC
  5
419
100
AcDbEntity
  8
0
100
AcDbCircle
 62
7
  6
CONTINUOUS
 10
747.4933251504
 20
227.114557932
 40
38.0
100
AcDbArc
 50
180.0
 51
220.4705687981
  0
ARC
  5
41A
100
AcDbEntity
  8
KONSTRUKTIONSELEMENTE
100
AcDbCircle
 62
7
  6
CONTINUOUS
 10
730.5834666984
 20
211.9717535105
 40
22.6875134427
100
AcDbArc
 50
358.2854597459
 51
0.4893610307
  0
ARC
  5
41B
100
AcDbEntity
  8
KONSTRUKTIONSELEMENTE
100
AcDbCircle
 62
7
  6
CONTINUOUS
 10
731.4057307358
 20
211.4529913787
 40
22.0763409121
100
AcDbArc
 50
357.4814665034
 51
0.5018120544
  0
ARC
  5
41C
100
AcDbEntity
  8
0
100
AcDbCircle
 62
7
  6
CONTINUOUS
 10
747.4933251504
 20
227.114557932
 40
20.0
100
AcDbArc
 50
288.2219531704
 51
360.0
  0
ARC
  5
41D
100
AcDbEntity
  8
0
100
AcDbCircle
 62
7
  6
CONTINUOUS
 10
747.4933251504
 20
227.114557932
 40
20.0
100
AcDbArc
 50
233.6293497976
 51
251.7780468296
  0
ARC
  5
41E
100
AcDbEntity
  8
0
100
AcDbCircle
 62
7
  6
CONTINUOUS
 10
747.4933251504
 20
227.114557932
 40
20.0
100
AcDbArc
 50
180.0
 51
216.3706502024
  0
ARC
  5
41F
100
AcDbEntity
  8
KONSTRUKTIONSELEMENTE
100
AcDbCircle
 62
7
  6
CONTINUOUS
 10
733.8363469634
 20
212.0107067621
 40
19.9001228367
100
AcDbArc
 50
350.1697286686
 51
350.8249916995
  0
ARC
  5
420
100
AcDbEntity
  8
0
100
AcDbCircle
 62
7
  6
CONTINUOUS
 10
738.3974917606
 20
223.2216663136
 40
18.8600258848
100
AcDbArc
 50
313.3026797557
 51
313.7269170439
  0
ARC
  5
421
100
AcDbEntity
  8
KONSTRUKTIONSELEMENTE
100
AcDbCircle
 62
7
  6
CONTINUOUS
 10
738.9241260623
 20
223.2216663136
 40
18.8600258848
100
AcDbArc
 50
313.3026797557
 51
313.7269170439
  0
ARC
  5
422
100
AcDbEntity
  8
KONSTRUKTIONSELEMENTE
100
AcDbCircle
 62
7
  6
CONTINUOUS
 10
746.1235530307
 20
225.7768501314
 40
18.112848965
100
AcDbArc
 50
292.8642818005
 51
293.1139134124
  0
ARC
  5
423
100
AcDbEntity
  8
0
100
AcDbCircle
 62
7
  6
CONTINUOUS
 10
739.7604213962
 20
218.1902599454
 40
11.8035597354
100
AcDbArc
 50
347.8864591579
 51
348.6591181715
  0
ARC
  5
424
100
AcDbEntity
  8
KONSTRUKTIONSELEMENTE
100
AcDbCircle
 62
7
  6
CONTINUOUS
 10
740.2870557036
 20
218.1902599442
 40
11.8035597296
100
AcDbArc
 50
347.8864591577
 51
348.6591181717
  0
ARC
  5
425
100
AcDbEntity
  8
0
100
AcDbCircle
 62
7
  6
CONTINUOUS
 10
748.0384314953
 20
226.4945189834
 40
11.1245781988
100
AcDbArc
 50
287.2294024152
 51
287.5882348996
  0
ARC
  5
426
100
AcDbEntity
  8
KONSTRUKTIONSELEMENTE
100
AcDbCircle
 62
7
  6
CONTINUOUS
 10
748.5650657994
 20
226.4945189755
 40
11.1245781905
100
AcDbArc
 50
287.2294024151
 51
287.5882348997
  0
ARC
  5
427
100
AcDbEntity
  8
KONSTRUKTIONSELEMENTE
100
AcDbCircle
 62
7
  6
CONTINUOUS
 10
744.9321597635
 20
215.50580863
 40
10.9528562278
100
AcDbArc
 50
320.3892103767
 51
321.0013726741
  0
ARC
  5
428
100
AcDbEntity
  8
KONSTRUKTIONSELEMENTE
100
AcDbCircle
 62
7
  6
CONTINUOUS
 10
743.2946194547
 20
217.9435427661
 40
9.1663186166
100
AcDbArc
 50
342.5453800023
 51
343.2476108207
  0
ARC
  5
429
100
AcDbEntity
  8
BEZUGSACHSEN
100
AcDbCircle
 62
7
  6
CONTINUOUS
 10
746.2433251504
 20
212.2768835609
 40
5.0
100
AcDbArc
 50
161.6999918899
 51
180.0
  0
ARC
  5
42A
100
AcDbEntity
  8
BEZUGSACHSEN
100
AcDbCircle
 62
7
  6
CONTINUOUS
 10
748.7433251504
 20
212.2768835609
 40
5.0
100
AcDbArc
 50
0.0
 51
18.3000081101
  0
ARC
  5
42B
100
AcDbEntity
  8
KONSTRUKTIONSELEMENTE
100
AcDbCircle
 62
7
  6
CONTINUOUS
 10
735.4725098702
 20
215.0937426518
 40
3.0
100
AcDbArc
 50
315.0
 51
135.0
  0
ARC
  5
42C
100
AcDbEntity
  8
0
100
AcDbCircle
 62
7
  6
CONTINUOUS
 10
747.4933251504
 20
272.114557932
 40
38.0
100
AcDbArc
 50
118.2797354618
 51
180.0
  0
ARC
  5
42D
100
AcDbEntity
  8
0
100
AcDbCircle
 62
7
  6
CONTINUOUS
 10
747.4933251504
 20
272.114557932
 40
38.0
100
AcDbArc
 50
0.0
 51
61.7202645382
  0
ARC
  5
42E
100
AcDbEntity
  8
0
100
AcDbCircle
 62
7
  6
CONTINUOUS
 10
747.4933251504
 20
272.114557932
 40
20.0
100
AcDbArc
 50
154.2213714107
 51
180.0
  0
ARC
  5
42F
100
AcDbEntity
  8
0
100
AcDbCircle
 62
7
  6
CONTINUOUS
 10
747.4933251504
 20
272.114557932
 40
20.0
100
AcDbArc
 50
0.0
 51
25.7786285893
  0
ARC
  5
430
100
AcDbEntity
  8
0
100
AcDbCircle
 62
7
  6
CONTINUOUS
 10
747.4933251504
 20
274.114557932
 40
18.0
100
AcDbArc
 50
180.0
 51
360.0
  0
ARC
  5
431
100
AcDbEntity
  8
0
100
AcDbCircle
 62
7
  6
CONTINUOUS
 10
747.4933251504
 20
770.114557932
 40
18.0
100
AcDbArc
 50
0.0
 51
180.0
  0
SPLINE
  5
432
100
AcDbEntity
  8
KONSTRUKTIONSELEMENTE
100
AcDbSpline
 62
7
  6
CONTINUOUS
 70
0
 71
3
 72
10
 73
6
 74
0
 42
0.0000001
 43
0.0000001
 44
0.0000000001
 40
0.0
 40
0.0
 40
0.0
 40
0.0
 40
0.3116645009
 40
0.6060899939
 40
1.0
 40
1.0
 40
1.0
 40
1.0
 10
279.7250624099
 20
144.3830645331
 30
0.0
 10
279.7250624099
 20
144.5802193796
 30
0.0
 10
279.5375338533
 20
144.9515455743
 30
0.0
 10
279.0802145837
 20
145.385418664
 30
0.0
 10
278.7018132715
 20
145.6128286975
 30
0.0
 10
278.4770542982
 20
145.7204168285
 30
0.0
  0
SPLINE
  5
433
100
AcDbEntity
  8
KONSTRUKTIONSELEMENTE
100
AcDbSpline
 62
7
  6
CONTINUOUS
 70
0
 71
3
 72
10
 73
6
 74
0
 42
0.0000001
 43
0.0000001
 44
0.0000000001
 40
0.0
 40
0.0
 40
0.0
 40
0.0
 40
0.3939255147
 40
0.6883533687
 40
1.0
 40
1.0
 40
1.0
 40
1.0
 10
273.9733131744
 20
145.7205287565
 30
0.0
 10
273.7485052684
 20
145.6129388559
 30
0.0
 10
273.3700427468
 20
145.3854932876
 30
0.0
 10
272.9126012291
 20
144.9516155442
 30
0.0
 10
272.7250624099
 20
144.580235837
 30
0.0
 10
272.7250624099
 20
144.3830645331
 30
0.0
  0
SPLINE
  5
434
100
AcDbEntity
  8
KONSTRUKTIONSELEMENTE
100
AcDbSpline
 62
7
  6
CONTINUOUS
 70
0
 71
3
 72
13
 73
9
 74
0
 42
0.0000001
 43
0.0000001
 44
0.0000000001
 40
0.0
 40
0.0
 40
0.0
 40
0.0
 40
0.1197290731
 40
0.2397365246
 40
0.3609040964
 40
0.4836831257
 40
0.7359942557
 40
1.0
 40
1.0
 40
1.0
 40
1.0
 10
268.2250624099
 20
133.7764628154
 30
0.0
 10
268.2250624099
 20
133.4272491132
 30
0.0
 10
268.2971660317
 20
132.7259080772
 30
0.0
 10
268.6154513664
 20
131.7156898291
 30
0.0
 10
269.1248349081
 20
130.7771116104
 30
0.0
 10
270.0366354366
 20
129.6443371037
 30
0.0
 10
271.5525267022
 20
128.5071936876
 30
0.0
 10
272.9754135523
 20
127.9606479637
 30
0.0
 10
273.721638074
 20
127.7706794731
 30
0.0
  0
SPLINE
  5
435
100
AcDbEntity
  8
KONSTRUKTIONSELEMENTE
100
AcDbSpline
 62
7
  6
CONTINUOUS
 70
0
 71
3
 72
13
 73
9
 74
0
 42
0.0000001
 43
0.0000001
 44
0.0000000001
 40
0.0
 40
0.0
 40
0.0
 40
0.0
 40
0.2640112835
 40
0.5163080567
 40
0.6390830379
 40
0.7602378991
 40
0.8802701562
 40
1.0
 40
1.0
 40
1.0
 40
1.0
 10
278.7293902124
 20
127.7709266627
 30
0.0
 10
279.4755300347
 20
127.960961264
 30
0.0
 10
280.8982064761
 20
128.5075278951
 30
0.0
 10
282.4137965432
 20
129.6446732361
 30
0.0
 10
283.3253868206
 20
130.7772887447
 30
0.0
 10
283.8347777364
 20
131.7157660313
 30
0.0
 10
284.1529144555
 20
132.7259541344
 30
0.0
 10
284.2250624099
 20
133.4272840179
 30
0.0
 10
284.2250624099
 20
133.7764628154
 30
0.0
  0
SPLINE
  5
436
100
AcDbEntity
  8
KONSTRUKTIONSELEMENTE
100
AcDbSpline
 62
7
  6
CONTINUOUS
 70
0
 71
3
 72
10
 73
6
 74
0
 42
0.0000001
 43
0.0000001
 44
0.0000000001
 40
0.0
 40
0.0
 40
0.0
 40
0.0
 40
0.3192646009
 40
0.6086079864
 40
1.0
 40
1.0
 40
1.0
 40
1.0
 10
272.7250624099
 20
133.7764628154
 30
0.0
 10
272.7250624099
 20
133.6047230402
 30
0.0
 10
272.8670781964
 20
133.2838718252
 30
0.0
 10
273.2328842111
 20
132.8905194858
 30
0.0
 10
273.5361720438
 20
132.6774795725
 30
0.0
 10
273.7187083449
 20
132.5725649761
 30
0.0
  0
SPLINE
  5
437
100
AcDbEntity
  8
KONSTRUKTIONSELEMENTE
100
AcDbSpline
 62
7
  6
CONTINUOUS
 70
0
 71
3
 72
10
 73
6
 74
0
 42
0.0000001
 43
0.0000001
 44
0.0000000001
 40
0.0
 40
0.0
 40
0.0
 40
0.0
 40
0.3914026107
 40
0.6807340322
 40
1.0
 40
1.0
 40
1.0
 40
1.0
 10
278.731508011
 20
132.5726174472
 30
0.0
 10
278.9140352544
 20
132.6775328567
 30
0.0
 10
279.2172748352
 20
132.8905919282
 30
0.0
 10
279.5830955398
 20
133.2838902888
 30
0.0
 10
279.7250624099
 20
133.6047330297
 30
0.0
 10
279.7250624099
 20
133.7764628154
 30
0.0
  0
SPLINE
  5
438
100
AcDbEntity
  8
KONSTRUKTIONSELEMENTE
100
AcDbSpline
 62
7
  6
CONTINUOUS
 70
0
 71
3
 72
10
 73
6
 74
0
 42
0.0000001
 43
0.0000001
 44
0.0000000001
 40
0.0
 40
0.0
 40
0.0
 40
0.0
 40
0.3116645009
 40
0.6060899939
 40
1.0
 40
1.0
 40
1.0
 40
1.0
 10
272.7250624099
 20
164.8891611876
 30
0.0
 10
272.7250624099
 20
164.6920063411
 30
0.0
 10
272.9125909664
 20
164.3206801464
 30
0.0
 10
273.3699102361
 20
163.8868070567
 30
0.0
 10
273.7483115483
 20
163.6593970232
 30
0.0
 10
273.9730705216
 20
163.5518088922
 30
0.0
  0
SPLINE
  5
439
100
AcDbEntity
  8
KONSTRUKTIONSELEMENTE
100
AcDbSpline
 62
7
  6
CONTINUOUS
 70
0
 71
3
 72
10
 73
6
 74
0
 42
0.0000001
 43
0.0000001
 44
0.0000000001
 40
0.0
 40
0.0
 40
0.0
 40
0.0
 40
0.3939255147
 40
0.6883533687
 40
1.0
 40
1.0
 40
1.0
 40
1.0
 10
278.4768116454
 20
163.5516969642
 30
0.0
 10
278.7016195513
 20
163.6592868648
 30
0.0
 10
279.080082073
 20
163.8867324331
 30
0.0
 10
279.5375235907
 20
164.3206101765
 30
0.0
 10
279.7250624099
 20
164.6919898837
 30
0.0
 10
279.7250624099
 20
164.8891611876
 30
0.0
  0
SPLINE
  5
43A
100
AcDbEntity
  8
KONSTRUKTIONSELEMENTE
100
AcDbSpline
 62
7
  6
CONTINUOUS
 70
0
 71
3
 72
9
 73
5
 74
0
 42
0.0000001
 43
0.0000001
 44
0.0000000001
 40
0.0
 40
0.0
 40
0.0
 40
0.0
 40
0.4741296724
 40
1.0
 40
1.0
 40
1.0
 40
1.0
 10
263.0087398588
 20
193.1300398032
 30
0.0
 10
264.4550018273
 20
192.0266479762
 30
0.0
 10
267.9234213193
 20
190.2368148184
 30
0.0
 10
271.7145385693
 20
189.4186294172
 30
0.0
 10
273.7226954095
 20
189.2234363941
 30
0.0
  0
SPLINE
  5
43B
100
AcDbEntity
  8
KONSTRUKTIONSELEMENTE
100
AcDbSpline
 62
7
  6
CONTINUOUS
 70
0
 71
3
 72
9
 73
5
 74
0
 42
0.0000001
 43
0.0000001
 44
0.0000000001
 40
0.0
 40
0.0
 40
0.0
 40
0.0
 40
0.5258549163
 40
1.0
 40
1.0
 40
1.0
 40
1.0
 10
278.7270892368
 20
189.2233966197
 30
0.0
 10
280.7347596663
 20
189.4185209905
 30
0.0
 10
284.5250718037
 20
190.2363766502
 30
0.0
 10
287.992937137
 20
192.0253776662
 30
0.0
 10
289.4391305642
 20
193.1283151209
 30
0.0
  0
SPLINE
  5
43C
100
AcDbEntity
  8
KONSTRUKTIONSELEMENTE
100
AcDbSpline
 62
7
  6
CONTINUOUS
 70
0
 71
3
 72
9
 73
5
 74
0
 42
0.0000001
 43
0.0000001
 44
0.0000000001
 40
0.0
 40
0.0
 40
0.0
 40
0.0
 40
0.2468599944
 40
1.0
 40
1.0
 40
1.0
 40
1.0
 10
266.9523988736
 20
184.5046694971
 30
0.0
 10
267.4940407873
 20
184.3334128448
 30
0.0
 10
269.7085877564
 20
183.7054749546
 30
0.0
 10
271.9952930588
 20
183.3364609665
 30
0.0
 10
273.7230682278
 20
183.2005005983
 30
0.0
  0
SPLINE
  5
43D
100
AcDbEntity
  8
KONSTRUKTIONSELEMENTE
100
AcDbSpline
 62
7
  6
CONTINUOUS
 70
0
 71
3
 72
9
 73
5
 74
0
 42
0.0000001
 43
0.0000001
 44
0.0000000001
 40
0.0
 40
0.0
 40
0.0
 40
0.0
 40
0.253011464
 40
1.0
 40
1.0
 40
1.0
 40
1.0
 10
278.7263830601
 20
183.2004402657
 30
0.0
 10
279.308320336
 20
183.2462173
 30
0.0
 10
281.6027794269
 20
183.49047284
 30
0.0
 10
283.8714221072
 20
183.9893856272
 30
0.0
 10
285.5143415333
 20
184.5099328465
 30
0.0
  0
SPLINE
  5
43E
100
AcDbEntity
  8
BEZUGSACHSEN
100
AcDbSpline
 62
7
  6
CONTINUOUS
 70
0
 71
3
 72
9
 73
5
 74
0
 42
0.0000001
 43
0.0000001
 44
0.0000000001
 40
0.0
 40
0.0
 40
0.0
 40
0.0
 40
0.4740637035
 40
1.0
 40
1.0
 40
1.0
 40
1.0
 10
281.1226780608
 20
118.5717979259
 30
0.0
 10
280.8448917858
 20
118.1875117167
 30
0.0
 10
280.0986556401
 20
117.4894907588
 30
0.0
 10
279.1900430088
 20
117.0424752074
 30
0.0
 10
278.694348236
 20
116.8663373095
 30
0.0
  0
SPLINE
  5
43F
100
AcDbEntity
  8
BEZUGSACHSEN
100
AcDbSpline
 62
7
  6
CONTINUOUS
 70
0
 71
3
 72
9
 73
5
 74
0
 42
0.0000001
 43
0.0000001
 44
0.0000000001
 40
0.0
 40
0.0
 40
0.0
 40
0.0
 40
0.5259362965
 40
1.0
 40
1.0
 40
1.0
 40
1.0
 10
273.7557765838
 20
116.8663373095
 30
0.0
 10
273.260081811
 20
117.0424752074
 30
0.0
 10
272.3514691796
 20
117.4894907588
 30
0.0
 10
271.605233034
 20
118.1875117167
 30
0.0
 10
271.327446759
 20
118.5717979259
 30
0.0
  0
SPLINE
  5
440
100
AcDbEntity
  8
KONSTRUKTIONSELEMENTE
100
AcDbSpline
 62
7
  6
CONTINUOUS
 70
0
 71
3
 72
12
 73
8
 74
0
 42
0.0000001
 43
0.0000001
 44
0.0000000001
 40
0.0
 40
0.0
 40
0.0
 40
0.0
 40
0.1036816392
 40
0.2121139465
 40
0.449231254
 40
0.7155939928
 40
1.0
 40
1.0
 40
1.0
 40
1.0
 10
271.6555812929
 20
65.4656622801
 30
0.0
 10
271.6311278957
 20
65.6403449271
 30
0.0
 10
271.5335098826
 20
65.9925039017
 30
0.0
 10
271.1545039425
 20
66.6632881571
 30
0.0
 10
270.3536253932
 20
67.3725063323
 30
0.0
 10
269.101046726
 20
67.8955845201
 30
0.0
 10
268.1589013816
 20
68.015532165
 30
0.0
 10
267.6750624099
 20
68.015532165
 30
0.0
  0
SPLINE
  5
441
100
AcDbEntity
  8
KONSTRUKTIONSELEMENTE
100
AcDbSpline
 62
7
  6
CONTINUOUS
 70
0
 71
3
 72
9
 73
5
 74
0
 42
0.0000001
 43
0.0000001
 44
0.0000000001
 40
0.0
 40
0.0
 40
0.0
 40
0.0
 40
0.2444736488
 40
1.0
 40
1.0
 40
1.0
 40
1.0
 10
250.6246777606
 20
101.3256247275
 30
0.0
 10
250.6246883904
 20
101.3642446232
 30
0.0
 10
250.6127265174
 20
101.5222171312
 30
0.0
 10
250.5498471508
 20
101.6744785353
 30
0.0
 10
250.4841407662
 20
101.7741153938
 30
0.0
  0
SPLINE
  5
442
100
AcDbEntity
  8
KONSTRUKTIONSELEMENTE
100
AcDbSpline
 62
7
  6
CONTINUOUS
 70
0
 71
3
 72
11
 73
7
 74
0
 42
0.0000001
 43
0.0000001
 44
0.0000000001
 40
0.0
 40
0.0
 40
0.0
 40
0.0
 40
0.2200436456
 40
0.4557793627
 40
0.7157728079
 40
1.0
 40
1.0
 40
1.0
 40
1.0
 10
243.5157597372
 20
102.3730402835
 30
0.0
 10
243.5157875111
 20
102.4739468639
 30
0.0
 10
243.560102071
 20
102.684849162
 30
0.0
 10
243.7454557794
 20
102.9632805782
 30
0.0
 10
244.0280844471
 20
103.1897556576
 30
0.0
 10
244.2580468577
 20
103.2932732825
 30
0.0
 10
244.3818310196
 20
103.3340885484
 30
0.0
  0
SPLINE
  5
443
100
AcDbEntity
  8
KONSTRUKTIONSELEMENTE
100
AcDbSpline
 62
7
  6
CONTINUOUS
 70
0
 71
3
 72
11
 73
7
 74
0
 42
0.0000001
 43
0.0000001
 44
0.0000000001
 40
0.0
 40
0.0
 40
0.0
 40
0.0
 40
0.2200599668
 40
0.4557760239
 40
0.7157731965
 40
1.0
 40
1.0
 40
1.0
 40
1.0
 10
236.8697071766
 20
113.3530873504
 30
0.0
 10
236.8697435721
 20
113.6895252712
 30
0.0
 10
237.017179557
 20
114.3927084746
 30
0.0
 10
237.6350409798
 20
115.3210815132
 30
0.0
 10
238.5772559051
 20
116.0761331842
 30
0.0
 10
239.343917268
 20
116.4212949887
 30
0.0
 10
239.7566013451
 20
116.5573690235
 30
0.0
  0
SPLINE
  5
444
100
AcDbEntity
  8
KONSTRUKTIONSELEMENTE
100
AcDbSpline
 62
7
  6
CONTINUOUS
 70
0
 71
3
 72
9
 73
5
 74
0
 42
0.0000001
 43
0.0000001
 44
0.0000000001
 40
0.0
 40
0.0
 40
0.0
 40
0.0
 40
0.4891681133
 40
1.0
 40
1.0
 40
1.0
 40
1.0
 10
236.8697073768
 20
109.8174351449
 30
0.0
 10
236.8696923068
 20
109.5593446858
 30
0.0
 10
236.953603269
 20
109.0288030227
 30
0.0
 10
237.1897753105
 20
108.548372347
 30
0.0
 10
237.3381537186
 20
108.3233720136
 30
0.0
  0
SPLINE
  5
445
100
AcDbEntity
  8
KONSTRUKTIONSELEMENTE
100
AcDbSpline
 62
7
  6
CONTINUOUS
 70
0
 71
3
 72
9
 73
5
 74
0
 42
0.0000001
 43
0.0000001
 44
0.0000000001
 40
0.0
 40
0.0
 40
0.0
 40
0.0
 40
0.4891683995
 40
1.0
 40
1.0
 40
1.0
 40
1.0
 10
294.3578479956
 20
76.0680842441
 30
0.0
 10
294.3578200736
 20
76.3261939314
 30
0.0
 10
294.4417199833
 20
76.8567793201
 30
0.0
 10
294.6779052444
 20
77.3372488354
 30
0.0
 10
294.8262945376
 20
77.5622656749
 30
0.0
  0
SPLINE
  5
446
100
AcDbEntity
  8
KONSTRUKTIONSELEMENTE
100
AcDbSpline
 62
7
  6
CONTINUOUS
 70
0
 71
3
 72
9
 73
5
 74
0
 42
0.0000001
 43
0.0000001
 44
0.0000000001
 40
0.0
 40
0.0
 40
0.0
 40
0.0
 40
0.2325067105
 40
1.0
 40
1.0
 40
1.0
 40
1.0
 10
295.0143561558
 20
77.8523091199
 30
0.0
 10
295.1448850138
 20
77.6904255315
 30
0.0
 10
295.7689116484
 20
77.0446140996
 30
0.0
 10
296.5928268207
 20
76.6142920715
 30
0.0
 10
297.2447421641
 20
76.3993364769
 30
0.0
  0
SPLINE
  5
447
100
AcDbEntity
  8
KONSTRUKTIONSELEMENTE
100
AcDbSpline
 62
7
  6
CONTINUOUS
 70
0
 71
3
 72
11
 73
7
 74
0
 42
0.0000001
 43
0.0000001
 44
0.0000000001
 40
0.0
 40
0.0
 40
0.0
 40
0.0
 40
0.2094829334
 40
0.4446557434
 40
0.7120095299
 40
1.0
 40
1.0
 40
1.0
 40
1.0
 10
269.6750624099
 20
55.2876101036
 30
0.0
 10
269.6750624099
 20
55.1470490163
 30
0.0
 10
269.7663498392
 20
54.8451553718
 30
0.0
 10
270.1158720605
 20
54.4994541115
 30
0.0
 10
270.6068466207
 20
54.2774730996
 30
0.0
 10
270.9818235002
 20
54.2269499319
 30
0.0
 10
271.1750624099
 20
54.2269499319
 30
0.0
  0
SPLINE
  5
448
100
AcDbEntity
  8
KONSTRUKTIONSELEMENTE
100
AcDbSpline
 62
7
  6
CONTINUOUS
 70
0
 71
3
 72
9
 73
5
 74
0
 42
0.0000001
 43
0.0000001
 44
0.0000000001
 40
0.0
 40
0.0
 40
0.0
 40
0.0
 40
0.4535493247
 40
1.0
 40
1.0
 40
1.0
 40
1.0
 10
303.4244320429
 20
74.1364298143
 30
0.0
 10
303.4244360628
 20
74.2049254478
 30
0.0
 10
303.35377128
 20
74.3561841243
 30
0.0
 10
303.2141178804
 20
74.4310583576
 30
0.0
 10
303.1357427798
 20
74.4569009252
 30
0.0
  0
SPLINE
  5
449
100
AcDbEntity
  8
BEZUGSACHSEN
100
AcDbSpline
 62
7
  6
CONTINUOUS
 70
0
 71
3
 72
9
 73
5
 74
0
 42
0.0000001
 43
0.0000001
 44
0.0000000001
 40
0.0
 40
0.0
 40
0.0
 40
0.0
 40
0.2459387646
 40
1.0
 40
1.0
 40
1.0
 40
1.0
 10
282.9869545977
 20
126.3524953986
 30
0.0
 10
282.6472587311
 20
126.4645030813
 30
0.0
 10
281.2537551252
 20
126.8820716952
 30
0.0
 10
279.8165132617
 20
127.1513761303
 30
0.0
 10
278.7266365593
 20
127.2733694145
 30
0.0
  0
SPLINE
  5
44A
100
AcDbEntity
  8
BEZUGSACHSEN
100
AcDbSpline
 62
7
  6
CONTINUOUS
 70
0
 71
3
 72
9
 73
5
 74
0
 42
0.0000001
 43
0.0000001
 44
0.0000000001
 40
0.0
 40
0.0
 40
0.0
 40
0.0
 40
0.2536983179
 40
1.0
 40
1.0
 40
1.0
 40
1.0
 10
273.7234882605
 20
127.2733694145
 30
0.0
 10
273.356814108
 20
127.2323264378
 30
0.0
 10
271.9158377935
 20
127.034634633
 30
0.0
 10
270.4939589273
 20
126.6923766442
 30
0.0
 10
269.463170222
 20
126.3524953986
 30
0.0
  0
SPLINE
  5
44B
100
AcDbEntity
  8
BEZUGSACHSEN
100
AcDbSpline
 62
7
  6
CONTINUOUS
 70
0
 71
3
 72
11
 73
7
 74
0
 42
0.0000001
 43
0.0000001
 44
0.0000000001
 40
0.0
 40
0.0
 40
0.0
 40
0.0
 40
0.221185816
 40
0.4572071684
 40
0.716647289
 40
1.0
 40
1.0
 40
1.0
 40
1.0
 10
270.7250624099
 20
116.8059000669
 30
0.0
 10
270.7250624099
 20
117.1640925745
 30
0.0
 10
270.8762776667
 20
117.9109990423
 30
0.0
 10
271.5135992612
 20
118.9060537815
 30
0.0
 10
272.4910932893
 20
119.7272494341
 30
0.0
 10
273.2908660062
 20
120.1130829786
 30
0.0
 10
273.7224161941
 20
120.2690417422
 30
0.0
  0
SPLINE
  5
44C
100
AcDbEntity
  8
BEZUGSACHSEN
100
AcDbSpline
 62
7
  6
CONTINUOUS
 70
0
 71
3
 72
11
 73
7
 74
0
 42
0.0000001
 43
0.0000001
 44
0.0000000001
 40
0.0
 40
0.0
 40
0.0
 40
0.0
 40
0.283352711
 40
0.5427928316
 40
0.778814184
 40
1.0
 40
1.0
 40
1.0
 40
1.0
 10
278.7277086257
 20
120.2690417422
 30
0.0
 10
279.1592588136
 20
120.1130829786
 30
0.0
 10
279.9590315304
 20
119.7272494341
 30
0.0
 10
280.9365255585
 20
118.9060537815
 30
0.0
 10
281.5738471531
 20
117.9109990423
 30
0.0
 10
281.7250624099
 20
117.1640925745
 30
0.0
 10
281.7250624099
 20
116.8059000669
 30
0.0
  0
SPLINE
  5
44D
100
AcDbEntity
  8
KONSTRUKTIONSELEMENTE
100
AcDbSpline
 62
7
  6
CONTINUOUS
 70
0
 71
3
 72
9
 73
5
 74
0
 42
0.0000001
 43
0.0000001
 44
0.0000000001
 40
0.0
 40
0.0
 40
0.0
 40
0.0
 40
0.5108269807
 40
1.0
 40
1.0
 40
1.0
 40
1.0
 10
325.9876645456
 20
104.7373371488
 30
0.0
 10
326.1360467846
 20
104.9623432913
 30
0.0
 10
326.3722233823
 20
105.4427964832
 30
0.0
 10
326.4561210423
 20
105.9733538344
 30
0.0
 10
326.4561256406
 20
106.2314560247
 30
0.0
  0
SPLINE
  5
44E
100
AcDbEntity
  8
KONSTRUKTIONSELEMENTE
100
AcDbSpline
 62
7
  6
CONTINUOUS
 70
0
 71
3
 72
9
 73
5
 74
0
 42
0.0000001
 43
0.0000001
 44
0.0000000001
 40
0.0
 40
0.0
 40
0.0
 40
0.0
 40
0.5322168521
 40
1.0
 40
1.0
 40
1.0
 40
1.0
 10
324.9005832595
 20
103.9254706951
 30
0.0
 10
325.0216710938
 20
103.8855444874
 30
0.0
 10
325.2722976539
 20
103.8752489272
 30
0.0
 10
325.5033517656
 20
104.002927484
 30
0.0
 10
325.5650462839
 20
104.0964807668
 30
0.0
  0
SPLINE
  5
44F
100
AcDbEntity
  8
KONSTRUKTIONSELEMENTE
100
AcDbSpline
 62
7
  6
CONTINUOUS
 70
0
 71
3
 72
9
 73
5
 74
0
 42
0.0000001
 43
0.0000001
 44
0.0000000001
 40
0.0
 40
0.0
 40
0.0
 40
0.0
 40
0.2605100871
 40
1.0
 40
1.0
 40
1.0
 40
1.0
 10
303.3775875425
 20
70.4515207089
 30
0.0
 10
303.385131083
 20
70.4629596989
 30
0.0
 10
303.4113045543
 20
70.5086073292
 30
0.0
 10
303.4244297601
 20
70.5619999892
 30
0.0
 10
303.4244320429
 20
70.6008959084
 30
0.0
  0
SPLINE
  5
450
100
AcDbEntity
  8
KONSTRUKTIONSELEMENTE
100
AcDbSpline
 62
7
  6
CONTINUOUS
 70
0
 71
3
 72
11
 73
7
 74
0
 42
0.0000001
 43
0.0000001
 44
0.0000000001
 40
0.0
 40
0.0
 40
0.0
 40
0.0
 40
0.2729767978
 40
0.5353848362
 40
0.7789285996
 40
1.0
 40
1.0
 40
1.0
 40
1.0
 10
298.5858026086
 20
68.015532165
 30
0.0
 10
299.0545547469
 20
68.015532165
 30
0.0
 10
299.9766880459
 20
68.1065496027
 30
0.0
 10
301.2626454179
 20
68.5100114248
 30
0.0
 10
302.3481198074
 20
69.1507196587
 30
0.0
 10
302.9083498688
 20
69.7399708656
 30
0.0
 10
303.1173415438
 20
70.0568848773
 30
0.0
  0
SPLINE
  5
451
100
AcDbEntity
  8
KONSTRUKTIONSELEMENTE
100
AcDbSpline
 62
7
  6
CONTINUOUS
 70
0
 71
3
 72
12
 73
8
 74
0
 42
0.0000001
 43
0.0000001
 44
0.0000000001
 40
0.0
 40
0.0
 40
0.0
 40
0.0
 40
0.2874299875
 40
0.5543031619
 40
0.7890514157
 40
0.8964066692
 40
1.0
 40
1.0
 40
1.0
 40
1.0
 10
284.7750624099
 20
68.015532165
 30
0.0
 10
284.2597954505
 20
68.015532165
 30
0.0
 10
283.2598984443
 20
67.8800051373
 30
0.0
 10
281.9504307218
 20
67.2913619669
 30
0.0
 10
281.1521907547
 20
66.4926790422
 30
0.0
 10
280.829001777
 20
65.7529071453
 30
0.0
 10
280.7750624099
 20
65.3728136403
 30
0.0
 10
280.7750624099
 20
65.1871050403
 30
0.0
  0
SPLINE
  5
452
100
AcDbEntity
  8
KONSTRUKTIONSELEMENTE
100
AcDbSpline
 62
7
  6
CONTINUOUS
 70
0
 71
3
 72
11
 73
7
 74
0
 42
0.0000001
 43
0.0000001
 44
0.0000000001
 40
0.0
 40
0.0
 40
0.0
 40
0.0
 40
0.220058334
 40
0.4557781708
 40
0.71578719
 40
1.0
 40
1.0
 40
1.0
 40
1.0
 10
326.4561256406
 20
109.7669899306
 30
0.0
 10
326.4561316346
 20
110.1034305901
 30
0.0
 10
326.3086615322
 20
110.8066337363
 30
0.0
 10
325.6907980208
 20
111.7350406685
 30
0.0
 10
324.7485568614
 20
112.4901032254
 30
0.0
 10
323.9818870971
 20
112.8352647068
 30
0.0
 10
323.5692169191
 20
112.9713341587
 30
0.0
  0
SPLINE
  5
453
100
AcDbEntity
  8
KONSTRUKTIONSELEMENTE
100
AcDbSpline
 62
7
  6
CONTINUOUS
 70
0
 71
3
 72
11
 73
7
 74
0
 42
0.0000001
 43
0.0000001
 44
0.0000000001
 40
0.0
 40
0.0
 40
0.0
 40
0.0
 40
0.2879904701
 40
0.5553442566
 40
0.7905170666
 40
1.0
 40
1.0
 40
1.0
 40
1.0
 10
281.2750624099
 20
54.2269499319
 30
0.0
 10
281.4683013196
 20
54.2269499319
 30
0.0
 10
281.8432781991
 20
54.2774730996
 30
0.0
 10
282.3342527593
 20
54.4994541115
 30
0.0
 10
282.6837749806
 20
54.8451553718
 30
0.0
 10
282.7750624099
 20
55.1470490163
 30
0.0
 10
282.7750624099
 20
55.2876101036
 30
0.0
  0
SPLINE
  5
454
100
AcDbEntity
  8
KONSTRUKTIONSELEMENTE
100
AcDbSpline
 62
7
  6
CONTINUOUS
 70
0
 71
3
 72
11
 73
7
 74
0
 42
0.0000001
 43
0.0000001
 44
0.0000000001
 40
0.0
 40
0.0
 40
0.0
 40
0.0
 40
0.2820767698
 40
0.5407553301
 40
0.7772666753
 40
1.0
 40
1.0
 40
1.0
 40
1.0
 10
284.7833847676
 20
67.9935218226
 30
0.0
 10
284.4914366935
 20
67.8750103956
 30
0.0
 10
283.9521689898
 20
67.5899904825
 30
0.0
 10
283.2979428567
 20
67.0038314198
 30
0.0
 10
282.8747567797
 20
66.3066526918
 30
0.0
 10
282.7750624099
 20
65.7894557976
 30
0.0
 10
282.7750624099
 20
65.5406584308
 30
0.0
  0
SPLINE
  5
455
100
AcDbEntity
  8
KONSTRUKTIONSELEMENTE
100
AcDbSpline
 62
7
  6
CONTINUOUS
 70
0
 71
3
 72
11
 73
7
 74
0
 42
0.0000001
 43
0.0000001
 44
0.0000000001
 40
0.0
 40
0.0
 40
0.0
 40
0.0
 40
0.2808713938
 40
0.5389210953
 40
0.7759033082
 40
1.0
 40
1.0
 40
1.0
 40
1.0
 10
267.8095280927
 20
68.0135562049
 30
0.0
 10
268.0828812545
 20
67.8916020451
 30
0.0
 10
268.5864818598
 20
67.6043644553
 30
0.0
 10
269.1935242439
 20
67.0292781871
 30
0.0
 10
269.5836855107
 20
66.3554656586
 30
0.0
 10
269.6750624099
 20
65.8602990623
 30
0.0
 10
269.6750624099
 20
65.6214798503
 30
0.0
  0
SPLINE
  5
456
100
AcDbEntity
  8
KONSTRUKTIONSELEMENTE
100
AcDbSpline
 62
7
  6
CONTINUOUS
 70
0
 71
3
 72
9
 73
5
 74
0
 42
0.0000001
 43
0.0000001
 44
0.0000000001
 40
0.0
 40
0.0
 40
0.0
 40
0.0
 40
0.2603055034
 40
1.0
 40
1.0
 40
1.0
 40
1.0
 10
243.6562967316
 20
99.0961224925
 30
0.0
 10
243.6336671872
 20
99.1304378291
 30
0.0
 10
243.5551388864
 20
99.2675096534
 30
0.0
 10
243.5157275871
 20
99.4278069485
 30
0.0
 10
243.5157597372
 20
99.5446131587
 30
0.0
  0
SPLINE
  5
457
100
AcDbEntity
  8
KONSTRUKTIONSELEMENTE
100
AcDbSpline
 62
7
  6
CONTINUOUS
 70
0
 71
3
 72
10
 73
6
 74
0
 42
0.0000001
 43
0.0000001
 44
0.0000000001
 40
0.0
 40
0.0
 40
0.0
 40
0.0
 40
0.4639899091
 40
0.7256227002
 40
1.0
 40
1.0
 40
1.0
 40
1.0
 10
262.5733183035
 20
70.0568848773
 30
0.0
 10
262.9432314959
 20
69.4959502192
 30
0.0
 10
263.8035522264
 20
68.7994948192
 30
0.0
 10
265.148924529
 20
68.2603752346
 30
0.0
 10
265.9157356107
 20
68.1053524051
 30
0.0
 10
266.3105267782
 20
68.0604329536
 30
0.0
  0
SPLINE
  5
458
100
AcDbEntity
  8
KONSTRUKTIONSELEMENTE
100
AcDbSpline
 62
7
  6
CONTINUOUS
 70
0
 71
3
 72
12
 73
8
 74
0
 42
0.0000001
 43
0.0000001
 44
0.0000000001
 40
0.0
 40
0.0
 40
0.0
 40
0.0
 40
0.2199892542
 40
0.4691122488
 40
0.6015677759
 40
0.7360118573
 40
1.0
 40
1.0
 40
1.0
 40
1.0
 10
312.3649523999
 20
104.1578055302
 30
0.0
 10
312.6590508711
 20
104.603775095
 30
0.0
 10
313.5281210185
 20
105.3982499699
 30
0.0
 10
314.9015132732
 20
105.9586700972
 30
0.0
 10
316.138342352
 20
106.1810764768
 30
0.0
 10
317.4292711014
 20
106.2305102347
 30
0.0
 10
318.4007672786
 20
106.0686505154
 30
0.0
 10
319.0095826437
 20
105.8679062469
 30
0.0
  0
SPLINE
  5
459
100
AcDbEntity
  8
KONSTRUKTIONSELEMENTE
100
AcDbSpline
 62
7
  6
CONTINUOUS
 70
0
 71
3
 72
11
 73
7
 74
0
 42
0.0000001
 43
0.0000001
 44
0.0000000001
 40
0.0
 40
0.0
 40
0.0
 40
0.0
 40
0.220058334
 40
0.4557781708
 40
0.71578719
 40
1.0
 40
1.0
 40
1.0
 40
1.0
 10
326.4561256406
 20
106.2314560247
 30
0.0
 10
326.4561316346
 20
106.5678966841
 30
0.0
 10
326.3086615322
 20
107.2710998304
 30
0.0
 10
325.6907980208
 20
108.1995067626
 30
0.0
 10
324.7485568614
 20
108.9545693194
 30
0.0
 10
323.9818870971
 20
109.2997308009
 30
0.0
 10
323.5692169191
 20
109.4358002528
 30
0.0
  0
SPLINE
  5
45A
100
AcDbEntity
  8
KONSTRUKTIONSELEMENTE
100
AcDbSpline
 62
7
  6
CONTINUOUS
 70
0
 71
3
 72
9
 73
5
 74
0
 42
0.0000001
 43
0.0000001
 44
0.0000000001
 40
0.0
 40
0.0
 40
0.0
 40
0.0
 40
0.5398499172
 40
1.0
 40
1.0
 40
1.0
 40
1.0
 10
249.7586064782
 20
100.7181298532
 30
0.0
 10
249.957694674
 20
100.783775066
 30
0.0
 10
250.312975674
 20
100.9666088067
 30
0.0
 10
250.549702733
 20
101.3047543316
 30
0.0
 10
250.5971198608
 20
101.4770309245
 30
0.0
  0
SPLINE
  5
45B
100
AcDbEntity
  8
KONSTRUKTIONSELEMENTE
100
AcDbSpline
 62
7
  6
CONTINUOUS
 70
0
 71
3
 72
11
 73
7
 74
0
 42
0.0000001
 43
0.0000001
 44
0.0000000001
 40
0.0
 40
0.0
 40
0.0
 40
0.0
 40
0.2816064552
 40
0.5417085427
 40
0.7793419382
 40
1.0
 40
1.0
 40
1.0
 40
1.0
 10
248.9133699547
 20
101.9998426173
 30
0.0
 10
249.0267329988
 20
102.0372217353
 30
0.0
 10
249.2387318112
 20
102.1304884273
 30
0.0
 10
249.505987562
 20
102.3302310639
 30
0.0
 10
249.69488085
 20
102.5746045801
 30
0.0
 10
249.7588866791
 20
102.7629994276
 30
0.0
 10
249.7719990563
 20
102.8556076782
 30
0.0
  0
SPLINE
  5
45C
100
AcDbEntity
  8
BEZUGSACHSEN
100
AcDbSpline
 62
7
  6
CONTINUOUS
 70
0
 71
3
 72
9
 73
5
 74
0
 42
0.0000001
 43
0.0000001
 44
0.0000000001
 40
0.0
 40
0.0
 40
0.0
 40
0.0
 40
0.2459387646
 40
1.0
 40
1.0
 40
1.0
 40
1.0
 10
282.9869545977
 20
122.8169614926
 30
0.0
 10
282.6472587311
 20
122.9289691754
 30
0.0
 10
281.2537551252
 20
123.3465377892
 30
0.0
 10
279.8165132617
 20
123.6158422244
 30
0.0
 10
278.7266365593
 20
123.7378355086
 30
0.0
  0
SPLINE
  5
45D
100
AcDbEntity
  8
BEZUGSACHSEN
100
AcDbSpline
 62
7
  6
CONTINUOUS
 70
0
 71
3
 72
9
 73
5
 74
0
 42
0.0000001
 43
0.0000001
 44
0.0000000001
 40
0.0
 40
0.0
 40
0.0
 40
0.0
 40
0.2536983179
 40
1.0
 40
1.0
 40
1.0
 40
1.0
 10
273.7234882605
 20
123.7378355086
 30
0.0
 10
273.356814108
 20
123.6967925319
 30
0.0
 10
271.9158377935
 20
123.4991007271
 30
0.0
 10
270.4939589273
 20
123.1568427383
 30
0.0
 10
269.463170222
 20
122.8169614926
 30
0.0
  0
SPLINE
  5
45E
100
AcDbEntity
  8
KONSTRUKTIONSELEMENTE
100
AcDbSpline
 62
7
  6
CONTINUOUS
 70
0
 71
3
 72
9
 73
5
 74
0
 42
0.0000001
 43
0.0000001
 44
0.0000000001
 40
0.0
 40
0.0
 40
0.0
 40
0.0
 40
0.4535493247
 40
1.0
 40
1.0
 40
1.0
 40
1.0
 10
303.4244320429
 20
70.6008959084
 30
0.0
 10
303.4244360628
 20
70.6693915418
 30
0.0
 10
303.35377128
 20
70.8206502183
 30
0.0
 10
303.2141178804
 20
70.8955244516
 30
0.0
 10
303.1357427798
 20
70.9213670193
 30
0.0
  0
SPLINE
  5
45F
100
AcDbEntity
  8
BEZUGSACHSEN
100
AcDbSpline
 62
7
  6
CONTINUOUS
 70
0
 71
3
 72
19
 73
15
 74
0
 42
0.0000001
 43
0.0000001
 44
0.0000000001
 40
0.0
 40
0.0
 40
0.0
 40
0.0
 40
0.0517234907
 40
0.1053372095
 40
0.1622487312
 40
0.2232163938
 40
0.3564752704
 40
0.5
 40
0.6435247296
 40
0.7767836062
 40
0.8377512688
 40
0.8946627905
 40
0.9482765093
 40
1.0
 40
1.0
 40
1.0
 40
1.0
 10
281.7250624099
 20
116.8059000669
 30
0.0
 10
281.7250624099
 20
116.5505738827
 30
0.0
 10
281.6509118286
 20
116.0279509505
 30
0.0
 10
281.3267260298
 20
115.2863295614
 30
0.0
 10
280.8064539373
 20
114.609081168
 30
0.0
 10
279.8558870678
 20
113.8016382079
 30
0.0
 10
278.3059065759
 20
113.1013165544
 30
0.0
 10
276.2250624099
 20
112.8211392726
 30
0.0
 10
274.1442182439
 20
113.1013165544
 30
0.0
 10
272.5942377519
 20
113.8016382079
 30
0.0
 10
271.6436708824
 20
114.609081168
 30
0.0
 10
271.1233987899
 20
115.2863295614
 30
0.0
 10
270.7992129911
 20
116.0279509505
 30
0.0
 10
270.7250624099
 20
116.5505738827
 30
0.0
 10
270.7250624099
 20
116.8059000669
 30
0.0
  0
SPLINE
  5
460
100
AcDbEntity
  8
KONSTRUKTIONSELEMENTE
100
AcDbSpline
 62
7
  6
CONTINUOUS
 70
0
 71
3
 72
11
 73
7
 74
0
 42
0.0000001
 43
0.0000001
 44
0.0000000001
 40
0.0
 40
0.0
 40
0.0
 40
0.0
 40
0.2200436456
 40
0.4557793627
 40
0.7157728079
 40
1.0
 40
1.0
 40
1.0
 40
1.0
 10
243.5157597372
 20
99.5446131587
 30
0.0
 10
243.5157875111
 20
99.6455197392
 30
0.0
 10
243.560102071
 20
99.8564220372
 30
0.0
 10
243.7454557794
 20
100.1348534535
 30
0.0
 10
244.0280844471
 20
100.3613285329
 30
0.0
 10
244.2580468577
 20
100.4648461577
 30
0.0
 10
244.3818310196
 20
100.5056614236
 30
0.0
  0
SPLINE
  5
461
100
AcDbEntity
  8
KONSTRUKTIONSELEMENTE
100
AcDbSpline
 62
7
  6
CONTINUOUS
 70
0
 71
3
 72
11
 73
7
 74
0
 42
0.0000001
 43
0.0000001
 44
0.0000000001
 40
0.0
 40
0.0
 40
0.0
 40
0.0
 40
0.2842240174
 40
0.5442187073
 40
0.779940343
 40
1.0
 40
1.0
 40
1.0
 40
1.0
 10
239.7566013451
 20
113.0218351175
 30
0.0
 10
239.3439108304
 20
112.8857589601
 30
0.0
 10
238.5772382254
 20
112.5405895565
 30
0.0
 10
237.635001878
 20
111.7855138509
 30
0.0
 10
237.0171403241
 20
110.857097927
 30
0.0
 10
236.8697270219
 20
110.1538811396
 30
0.0
 10
236.8697073768
 20
109.8174351449
 30
0.0
  0
SPLINE
  5
462
100
AcDbEntity
  8
KONSTRUKTIONSELEMENTE
100
AcDbSpline
 62
7
  6
CONTINUOUS
 70
0
 71
3
 72
11
 73
7
 74
0
 42
0.0000001
 43
0.0000001
 44
0.0000000001
 40
0.0
 40
0.0
 40
0.0
 40
0.0
 40
0.2842271921
 40
0.5442206373
 40
0.7799563544
 40
1.0
 40
1.0
 40
1.0
 40
1.0
 10
249.7586064782
 20
100.3645764626
 30
0.0
 10
249.88239064
 20
100.4053917285
 30
0.0
 10
250.1123530507
 20
100.5089093533
 30
0.0
 10
250.3949817184
 20
100.7353844328
 30
0.0
 10
250.5803354267
 20
101.013815849
 30
0.0
 10
250.6246499867
 20
101.2247181471
 30
0.0
 10
250.6246777606
 20
101.3256247275
 30
0.0
  0
SPLINE
  5
463
100
AcDbEntity
  8
KONSTRUKTIONSELEMENTE
100
AcDbSpline
 62
7
  6
CONTINUOUS
 70
0
 71
3
 72
11
 73
7
 74
0
 42
0.0000001
 43
0.0000001
 44
0.0000000001
 40
0.0
 40
0.0
 40
0.0
 40
0.0
 40
0.2842268035
 40
0.5442239761
 40
0.7799400332
 40
1.0
 40
1.0
 40
1.0
 40
1.0
 10
297.2447421641
 20
72.863802571
 30
0.0
 10
296.8320580871
 20
72.9998766058
 30
0.0
 10
296.0653967241
 20
73.3450384102
 30
0.0
 10
295.1231817988
 20
74.1000900813
 30
0.0
 10
294.5053203761
 20
75.0284631199
 30
0.0
 10
294.3578843911
 20
75.7316463233
 30
0.0
 10
294.3578479956
 20
76.0680842441
 30
0.0
  0
SPLINE
  5
464
100
AcDbEntity
  8
KONSTRUKTIONSELEMENTE
100
AcDbSpline
 62
7
  6
CONTINUOUS
 70
0
 71
3
 72
9
 73
5
 74
0
 42
0.0000001
 43
0.0000001
 44
0.0000000001
 40
0.0
 40
0.0
 40
0.0
 40
0.0
 40
0.5037350338
 40
1.0
 40
1.0
 40
1.0
 40
1.0
 10
291.0099027051
 20
150.0016199266
 30
0.0
 10
290.8477434844
 20
149.6583283783
 30
0.0
 10
290.5792550733
 20
148.9486165447
 30
0.0
 10
290.4785676995
 20
148.1923652746
 30
0.0
 10
290.4785676995
 20
147.8183315169
 30
0.0
  0
SPLINE
  5
465
100
AcDbEntity
  8
KONSTRUKTIONSELEMENTE
100
AcDbSpline
 62
7
  6
CONTINUOUS
 70
0
 71
3
 72
9
 73
5
 74
0
 42
0.0000001
 43
0.0000001
 44
0.0000000001
 40
0.0
 40
0.0
 40
0.0
 40
0.0
 40
0.500127309
 40
1.0
 40
1.0
 40
1.0
 40
1.0
 10
261.4402221147
 20
152.6431293605
 30
0.0
 10
261.6039265773
 20
153.0513033603
 30
0.0
 10
261.8727560381
 20
153.8933720095
 30
0.0
 10
261.9715571202
 20
154.7750032849
 30
0.0
 10
261.9715571202
 20
155.214557932
 30
0.0
  0
SPLINE
  5
466
100
AcDbEntity
  8
KONSTRUKTIONSELEMENTE
100
AcDbSpline
 62
7
  6
CONTINUOUS
 70
0
 71
3
 72
9
 73
5
 74
0
 42
0.0000001
 43
0.0000001
 44
0.0000000001
 40
0.0
 40
0.0
 40
0.0
 40
0.0
 40
0.499872691
 40
1.0
 40
1.0
 40
1.0
 40
1.0
 10
290.4785676995
 20
155.214557932
 30
0.0
 10
290.4785676995
 20
154.7750032849
 30
0.0
 10
290.5773687817
 20
153.8933720095
 30
0.0
 10
290.8461982424
 20
153.0513033603
 30
0.0
 10
291.0099027051
 20
152.6431293605
 30
0.0
  0
SPLINE
  5
467
100
AcDbEntity
  8
KONSTRUKTIONSELEMENTE
100
AcDbSpline
 62
7
  6
CONTINUOUS
 70
0
 71
3
 72
9
 73
5
 74
0
 42
0.0000001
 43
0.0000001
 44
0.0000000001
 40
0.0
 40
0.0
 40
0.0
 40
0.0
 40
0.4962649662
 40
1.0
 40
1.0
 40
1.0
 40
1.0
 10
261.9715571202
 20
147.8183315169
 30
0.0
 10
261.9715571202
 20
148.1923652746
 30
0.0
 10
261.8708697464
 20
148.9486165447
 30
0.0
 10
261.6023813354
 20
149.6583283783
 30
0.0
 10
261.4402221147
 20
150.0016199266
 30
0.0
  0
SPLINE
  5
468
100
AcDbEntity
  8
KONSTRUKTIONSELEMENTE
100
AcDbSpline
 62
7
  6
CONTINUOUS
 70
0
 71
3
 72
11
 73
7
 74
0
 42
0.0000001
 43
0.0000001
 44
0.0000000001
 40
0.0
 40
0.0
 40
0.0
 40
0.0
 40
0.2551631889
 40
0.5065184691
 40
0.7542163689
 40
1.0
 40
1.0
 40
1.0
 40
1.0
 10
261.9715571202
 20
161.8748119698
 30
0.0
 10
261.9715571202
 20
162.1406727644
 30
0.0
 10
262.073677781
 20
162.6725142761
 30
0.0
 10
262.469650793
 20
163.3628733742
 30
0.0
 10
263.0083508953
 20
163.9287046356
 30
0.0
 10
263.4233220886
 20
164.2357962583
 30
0.0
 10
263.6383934655
 20
164.3748119698
 30
0.0
  0
SPLINE
  5
469
100
AcDbEntity
  8
KONSTRUKTIONSELEMENTE
100
AcDbSpline
 62
7
  6
CONTINUOUS
 70
0
 71
3
 72
11
 73
7
 74
0
 42
0.0000001
 43
0.0000001
 44
0.0000000001
 40
0.0
 40
0.0
 40
0.0
 40
0.0
 40
0.2457861969
 40
0.4934867763
 40
0.7448413997
 40
1.0
 40
1.0
 40
1.0
 40
1.0
 10
288.8117313542
 20
164.3748119698
 30
0.0
 10
289.0268049745
 20
164.2357948083
 30
0.0
 10
289.4417804433
 20
163.9286996791
 30
0.0
 10
289.9804821691
 20
163.3628630078
 30
0.0
 10
290.3764495532
 20
162.6725037639
 30
0.0
 10
290.4785676995
 20
162.1406679811
 30
0.0
 10
290.4785676995
 20
161.8748119698
 30
0.0
  0
SPLINE
  5
46A
100
AcDbEntity
  8
KONSTRUKTIONSELEMENTE
100
AcDbSpline
 62
7
  6
CONTINUOUS
 70
0
 71
3
 72
9
 73
5
 74
0
 42
0.0000001
 43
0.0000001
 44
0.0000000001
 40
0.0
 40
0.0
 40
0.0
 40
0.0
 40
0.4808351629
 40
1.0
 40
1.0
 40
1.0
 40
1.0
 10
261.4402221147
 20
150.0016199266
 30
0.0
 10
261.2554672855
 20
150.3927464445
 30
0.0
 10
261.0667203047
 20
151.3075126766
 30
0.0
 10
261.2663663784
 20
152.2096445912
 30
0.0
 10
261.4402221147
 20
152.6431293605
 30
0.0
  0
SPLINE
  5
46B
100
AcDbEntity
  8
KONSTRUKTIONSELEMENTE
100
AcDbSpline
 62
7
  6
CONTINUOUS
 70
0
 71
3
 72
9
 73
5
 74
0
 42
0.0000001
 43
0.0000001
 44
0.0000000001
 40
0.0
 40
0.0
 40
0.0
 40
0.0
 40
0.5191648371
 40
1.0
 40
1.0
 40
1.0
 40
1.0
 10
291.0099027051
 20
152.6431293605
 30
0.0
 10
291.1837584413
 20
152.2096445912
 30
0.0
 10
291.383404515
 20
151.3075126766
 30
0.0
 10
291.1946575343
 20
150.3927464445
 30
0.0
 10
291.0099027051
 20
150.0016199266
 30
0.0
  0
LINE
  5
46C
100
AcDbEntity
  8
KONSTRUKTIONSELEMENTE
100
AcDbLine
 62
7
  6
CONTINUOUS
 10
753.2608229271
 20
211.2929452241
 11
752.030885197
 21
214.3215233473
  0
LINE
  5
46D
100
AcDbEntity
  8
KONSTRUKTIONSELEMENTE
100
AcDbLine
 62
7
  6
CONTINUOUS
 10
752.0618908734
 20
215.7377674926
 11
752.1991477704
 21
215.4885977455
  0
LINE
  5
46E
100
AcDbEntity
  8
KONSTRUKTIONSELEMENTE
100
AcDbLine
 62
7
  6
CONTINUOUS
 10
752.1991477704
 20
215.4885977455
 11
752.3483136913
 21
215.158825273
  0
LINE
  5
46F
100
AcDbEntity
  8
KONSTRUKTIONSELEMENTE
100
AcDbLine
 62
7
  6
CONTINUOUS
 10
752.3483136913
 20
215.158825273
 11
752.3729098412
 21
215.104419978
  0
LINE
  5
470
100
AcDbEntity
  8
KONSTRUKTIONSELEMENTE
100
AcDbLine
 62
7
  6
CONTINUOUS
 10
752.3729098412
 20
215.104419978
 11
752.4755611251
 21
214.8513762858
  0
LINE
  5
471
100
AcDbEntity
  8
KONSTRUKTIONSELEMENTE
100
AcDbLine
 62
7
  6
CONTINUOUS
 10
752.4755611251
 20
214.8513762858
 11
752.505558779
 21
214.7774268749
  0
LINE
  5
472
100
AcDbEntity
  8
KONSTRUKTIONSELEMENTE
100
AcDbLine
 62
7
  6
CONTINUOUS
 10
752.505558779
 20
214.7774268749
 11
752.8993828405
 21
213.8064579859
  0
LINE
  5
473
100
AcDbEntity
  8
KONSTRUKTIONSELEMENTE
100
AcDbLine
 62
7
  6
CONTINUOUS
 10
753.0768046928
 20
213.325327597
 11
752.8993828405
 21
213.8064579859
  0
LINE
  5
474
100
AcDbEntity
  8
KONSTRUKTIONSELEMENTE
100
AcDbLine
 62
7
  6
CONTINUOUS
 10
753.2208958758
 20
212.8822509522
 11
753.0768046928
 21
213.325327597
  0
LINE
  5
475
100
AcDbEntity
  8
KONSTRUKTIONSELEMENTE
100
AcDbLine
 62
7
  6
CONTINUOUS
 10
753.0804437761
 20
210.788500677
 11
753.0305936223
 21
210.9095858469
  0
LINE
  5
476
100
AcDbEntity
  8
KONSTRUKTIONSELEMENTE
100
AcDbLine
 62
7
  6
CONTINUOUS
 10
753.0305936223
 20
210.9095858469
 11
752.9031355026
 21
211.2191486017
  0
LINE
  5
477
100
AcDbEntity
  8
KONSTRUKTIONSELEMENTE
100
AcDbLine
 62
7
  6
CONTINUOUS
 10
753.2241937746
 20
210.3723071359
 11
753.0804437761
 21
210.788500677
  0
LINE
  5
478
100
AcDbEntity
  8
KONSTRUKTIONSELEMENTE
100
AcDbLine
 62
7
  6
CONTINUOUS
 10
752.9120307195
 20
209.4272647428
 11
752.2607406234
 21
210.8016978879
  0
LINE
  5
479
100
AcDbEntity
  8
KONSTRUKTIONSELEMENTE
100
AcDbLine
 62
7
  6
CONTINUOUS
 10
752.2607406234
 20
210.8016978879
 11
751.959512955
 21
211.4373258434
  0
LINE
  5
47A
100
AcDbEntity
  8
KONSTRUKTIONSELEMENTE
100
AcDbLine
 62
7
  6
CONTINUOUS
 10
751.959512955
 20
211.4373258434
 11
751.8222490274
 21
211.7269588175
  0
LINE
  5
47B
100
AcDbEntity
  8
KONSTRUKTIONSELEMENTE
100
AcDbLine
 62
7
  6
CONTINUOUS
 10
752.9120307195
 20
209.4272647428
 11
753.0537875932
 21
209.1902592978
  0
LINE
  5
47C
100
AcDbEntity
  8
KONSTRUKTIONSELEMENTE
100
AcDbLine
 62
7
  6
CONTINUOUS
 10
753.0537875932
 20
209.1902592978
 11
753.1612933852
 21
209.0871674403
  0
LINE
  5
47D
100
AcDbEntity
  8
KONSTRUKTIONSELEMENTE
100
AcDbLine
 62
7
  6
CONTINUOUS
 10
751.8144580663
 20
213.5188426764
 11
751.9544988377
 21
213.2230836185
  0
LINE
  5
47E
100
AcDbEntity
  8
KONSTRUKTIONSELEMENTE
100
AcDbLine
 62
7
  6
CONTINUOUS
 10
751.9544988377
 20
213.2230836185
 11
752.9031355026
 21
211.2191486017
  0
LINE
  5
47F
100
AcDbEntity
  8
KONSTRUKTIONSELEMENTE
100
AcDbLine
 62
7
  6
CONTINUOUS
 10
752.0359878338
 20
209.1284207721
 11
752.1045337692
 21
209.1465838347
  0
LINE
  5
480
100
AcDbEntity
  8
KONSTRUKTIONSELEMENTE
100
AcDbLine
 62
7
  6
CONTINUOUS
 10
752.5241845722
 20
206.7748926927
 11
751.9969308141
 21
207.6722824483
  0
LINE
  5
481
100
AcDbEntity
  8
KONSTRUKTIONSELEMENTE
100
AcDbLine
 62
7
  6
CONTINUOUS
 10
753.4730587912
 20
205.1595912667
 11
752.7350676664
 21
206.4159368575
  0
LINE
  5
482
100
AcDbEntity
  8
KONSTRUKTIONSELEMENTE
100
AcDbLine
 62
7
  6
CONTINUOUS
 10
751.9605904654
 20
209.5926101379
 11
752.0970203675
 21
209.5600286607
  0
LINE
  5
483
100
AcDbEntity
  8
KONSTRUKTIONSELEMENTE
100
AcDbLine
 62
7
  6
CONTINUOUS
 10
752.0970203675
 20
209.5600286607
 11
752.2008220739
 21
209.4494581484
  0
LINE
  5
484
100
AcDbEntity
  8
KONSTRUKTIONSELEMENTE
100
AcDbLine
 62
7
  6
CONTINUOUS
 10
752.2008220739
 20
209.4494581484
 11
752.3413031381
 21
209.2101540907
  0
LINE
  5
485
100
AcDbEntity
  8
KONSTRUKTIONSELEMENTE
100
AcDbLine
 62
7
  6
CONTINUOUS
 10
752.4482901092
 20
208.9617687678
 11
752.3681248223
 21
209.1478958036
  0
LINE
  5
486
100
AcDbEntity
  8
KONSTRUKTIONSELEMENTE
100
AcDbLine
 62
7
  6
CONTINUOUS
 10
752.3681248223
 20
209.1478958036
 11
752.3413031381
 21
209.2101540907
  0
LINE
  5
487
100
AcDbEntity
  8
KONSTRUKTIONSELEMENTE
100
AcDbLine
 62
7
  6
CONTINUOUS
 10
752.5931982462
 20
208.5157424647
 11
752.4482901092
 21
208.9617687678
  0
SPLINE
  5
488
100
AcDbEntity
  8
0
100
AcDbSpline
 62
7
  6
CONTINUOUS
 70
0
 71
3
 72
9
 73
5
 74
0
 42
0.0000001
 43
0.0000001
 44
0.0000000001
 40
0.0
 40
0.0
 40
0.0
 40
0.0
 40
0.5000059437
 40
1.0
 40
1.0
 40
1.0
 40
1.0
 10
749.7206867636
 20
203.6309188949
 30
0.0
 10
749.9736487144
 20
201.15569608
 30
0.0
 10
750.3036803182
 20
196.1847944254
 30
0.0
 10
750.2178874197
 20
191.2027936507
 30
0.0
 10
750.0752367024
 20
188.7188302559
 30
0.0
  0
SPLINE
  5
489
100
AcDbEntity
  8
0
100
AcDbSpline
 62
7
  6
CONTINUOUS
 70
0
 71
3
 72
9
 73
5
 74
0
 42
0.0000001
 43
0.0000001
 44
0.0000000001
 40
0.0
 40
0.0
 40
0.0
 40
0.0
 40
0.5000000005
 40
1.0
 40
1.0
 40
1.0
 40
1.0
 10
749.7206867636
 20
219.2714194804
 30
0.0
 10
750.0480676072
 20
216.6798073403
 30
0.0
 10
750.4059668556
 20
211.4511691849
 30
0.0
 10
750.0480676065
 20
206.2225310296
 30
0.0
 10
749.7206867636
 20
203.6309188949
 30
0.0
  0
LINE
  5
48A
100
AcDbEntity
  8
0
100
AcDbLine
 62
7
  6
CONTINUOUS
 10
752.9477581905
 20
206.882277976
 11
752.7425578634
 21
207.0807353371
  0
SPLINE
  5
48B
100
AcDbEntity
  8
BEZUGSACHSEN
100
AcDbSpline
 62
7
  6
CONTINUOUS
 70
0
 71
3
 72
11
 73
7
 74
0
 42
0.0000001
 43
0.0000001
 44
0.0000000001
 40
0.0
 40
0.0
 40
0.0
 40
0.0
 40
0.2530704919
 40
0.5000000005
 40
0.7469295092
 40
1.0
 40
1.0
 40
1.0
 40
1.0
 10
745.2659635372
 20
225.2455591031
 30
0.0
 10
745.1049435258
 20
224.7586797986
 30
0.0
 10
744.8498999056
 20
223.7735724087
 30
0.0
 10
744.7150539796
 20
222.2584892886
 30
0.0
 10
744.8498999014
 20
220.7434061695
 30
0.0
 10
745.1049435265
 20
219.7582987829
 30
0.0
 10
745.2659635372
 20
219.2714194804
 30
0.0
  0
LINE
  5
48C
100
AcDbEntity
  8
KONSTRUKTIONSELEMENTE
100
AcDbLine
 62
7
  6
CONTINUOUS
 10
753.1592494661
 20
212.7644528947
 11
753.0513699212
 21
213.1209986874
  0
LINE
  5
48D
100
AcDbEntity
  8
KONSTRUKTIONSELEMENTE
100
AcDbLine
 62
7
  6
CONTINUOUS
 10
753.0513699212
 20
213.1209986874
 11
752.9094599345
 21
213.5155982849
  0
LINE
  5
48E
100
AcDbEntity
  8
KONSTRUKTIONSELEMENTE
100
AcDbLine
 62
7
  6
CONTINUOUS
 10
752.3823407226
 20
214.8135602771
 11
752.7785429911
 21
213.8379834407
  0
LINE
  5
48F
100
AcDbEntity
  8
KONSTRUKTIONSELEMENTE
100
AcDbLine
 62
7
  6
CONTINUOUS
 10
752.7785429911
 20
213.8379834407
 11
752.8066397018
 21
213.768795958
  0
LINE
  5
490
100
AcDbEntity
  8
KONSTRUKTIONSELEMENTE
100
AcDbLine
 62
7
  6
CONTINUOUS
 10
752.8066397018
 20
213.768795958
 11
752.9094599345
 21
213.5155982849
  0
LINE
  5
491
100
AcDbEntity
  8
KONSTRUKTIONSELEMENTE
100
AcDbLine
 62
7
  6
CONTINUOUS
 10
752.2429903019
 20
215.1112070108
 11
752.2779689548
 21
215.0365217301
  0
LINE
  5
492
100
AcDbEntity
  8
KONSTRUKTIONSELEMENTE
100
AcDbLine
 62
7
  6
CONTINUOUS
 10
752.2779689548
 20
215.0365217301
 11
752.3823407226
 21
214.8135602771
  0
LINE
  5
493
100
AcDbEntity
  8
KONSTRUKTIONSELEMENTE
100
AcDbLine
 62
7
  6
CONTINUOUS
 10
752.1396940485
 20
215.2738462088
 11
752.1656783242
 21
215.2329958059
  0
LINE
  5
494
100
AcDbEntity
  8
KONSTRUKTIONSELEMENTE
100
AcDbLine
 62
7
  6
CONTINUOUS
 10
752.1656783242
 20
215.2329958059
 11
752.2429903019
 21
215.1112070108
  0
LINE
  5
495
100
AcDbEntity
  8
KONSTRUKTIONSELEMENTE
100
AcDbLine
 62
7
  6
CONTINUOUS
 10
752.1228777797
 20
215.2807339997
 11
752.1396940485
 21
215.2738462088
  0
SPLINE
  5
496
100
AcDbEntity
  8
0
100
AcDbSpline
 62
7
  6
CONTINUOUS
 70
0
 71
3
 72
8
 73
4
 74
0
 42
0.0000001
 43
0.0000001
 44
0.0000000001
 40
0.0
 40
0.0
 40
0.0
 40
0.0
 40
1.0
 40
1.0
 40
1.0
 40
1.0
 10
751.2862231481
 20
207.557967485
 30
0.0
 10
751.8363812152
 20
206.620793061
 30
0.0
 10
752.386409377
 20
205.6835423368
 30
0.0
 10
752.9361900004
 20
204.7461464407
 30
0.0
  0
LINE
  5
497
100
AcDbEntity
  8
0
100
AcDbLine
 62
7
  6
CONTINUOUS
 10
752.0054353077
 20
207.7567922522
 11
752.0055088573
 21
207.6722695798
  0
LINE
  5
498
100
AcDbEntity
  8
0
100
AcDbLine
 62
7
  6
CONTINUOUS
 10
752.0055088573
 20
207.6722695798
 11
752.0055073048
 21
207.658067535
  0
LINE
  5
499
100
AcDbEntity
  8
KONSTRUKTIONSELEMENTE
100
AcDbLine
 62
7
  6
CONTINUOUS
 10
753.4607472212
 20
210.4829007142
 11
753.3006613173
 21
210.8777810905
  0
LINE
  5
49A
100
AcDbEntity
  8
KONSTRUKTIONSELEMENTE
100
AcDbLine
 62
7
  6
CONTINUOUS
 10
753.3006613173
 20
210.8777810905
 11
753.150474474
 21
211.2481982605
  0
LINE
  5
49B
100
AcDbEntity
  8
KONSTRUKTIONSELEMENTE
100
AcDbLine
 62
7
  6
CONTINUOUS
 10
753.150474474
 20
211.2481982605
 11
753.1256650393
 21
211.3093835985
  0
LINE
  5
49C
100
AcDbEntity
  8
KONSTRUKTIONSELEMENTE
100
AcDbLine
 62
7
  6
CONTINUOUS
 10
753.1256650393
 20
211.3093835985
 11
751.9217845056
 21
214.2772534413
  0
LINE
  5
49D
100
AcDbEntity
  8
KONSTRUKTIONSELEMENTE
100
AcDbLine
 62
7
  6
CONTINUOUS
 10
751.9217845056
 20
214.2772534413
 11
751.8111706319
 21
214.5498483947
  0
LINE
  5
49E
100
AcDbEntity
  8
0
100
AcDbLine
 62
7
  6
CONTINUOUS
 10
752.3853964144
 20
210.8607718299
 11
751.9469524716
 21
211.7860513927
  0
LINE
  5
49F
100
AcDbEntity
  8
0
100
AcDbLine
 62
7
  6
CONTINUOUS
 10
751.9469524716
 20
211.7860513927
 11
751.2956147228
 21
213.1604659047
  0
LINE
  5
4A0
100
AcDbEntity
  8
0
100
AcDbLine
 62
7
  6
CONTINUOUS
 10
752.3853964144
 20
210.8607718299
 11
752.5271532947
 21
210.5043075749
  0
LINE
  5
4A1
100
AcDbEntity
  8
0
100
AcDbLine
 62
7
  6
CONTINUOUS
 10
752.5271532947
 20
210.5043075749
 11
752.6346590809
 21
210.1622977556
  0
LINE
  5
4A2
100
AcDbEntity
  8
KONSTRUKTIONSELEMENTE
100
AcDbLine
 62
7
  6
CONTINUOUS
 10
753.0804437761
 20
208.7576990272
 11
753.224193779
 21
208.580423277
  0
LINE
  5
4A3
100
AcDbEntity
  8
KONSTRUKTIONSELEMENTE
100
AcDbLine
 62
7
  6
CONTINUOUS
 10
752.9031355026
 20
209.0688878001
 11
753.0804437761
 21
208.7576990272
  0
LINE
  5
4A4
100
AcDbEntity
  8
KONSTRUKTIONSELEMENTE
100
AcDbLine
 62
7
  6
CONTINUOUS
 10
752.9031355026
 20
209.0688878001
 11
752.766188902
 21
209.3582346632
  0
LINE
  5
4A5
100
AcDbEntity
  8
KONSTRUKTIONSELEMENTE
100
AcDbLine
 62
7
  6
CONTINUOUS
 10
752.766188902
 20
209.3582346632
 11
751.8144580663
 21
211.3685818749
  0
LINE
  5
4A6
100
AcDbEntity
  8
0
100
AcDbLine
 62
7
  6
CONTINUOUS
 10
751.2878237646
 20
211.3685818749
 11
752.0978609627
 21
209.6575897784
  0
LINE
  5
4A7
100
AcDbEntity
  8
0
100
AcDbLine
 62
7
  6
CONTINUOUS
 10
752.0978609627
 20
209.6575897784
 11
752.1084026512
 21
209.6353191587
  0
LINE
  5
4A8
100
AcDbEntity
  8
0
100
AcDbLine
 62
7
  6
CONTINUOUS
 10
752.1084026512
 20
209.6353191587
 11
752.135434698
 21
209.5782100906
  0
LINE
  5
4A9
100
AcDbEntity
  8
0
100
AcDbLine
 62
7
  6
CONTINUOUS
 10
752.135434698
 20
209.5782100906
 11
752.1918468709
 21
209.459028823
  0
LINE
  5
4AA
100
AcDbEntity
  8
0
100
AcDbLine
 62
7
  6
CONTINUOUS
 10
752.5538094744
 20
208.7576990272
 11
752.5096232934
 21
208.8352547569
  0
LINE
  5
4AB
100
AcDbEntity
  8
0
100
AcDbLine
 62
7
  6
CONTINUOUS
 10
752.5096232934
 20
208.8352547569
 11
752.4626123863
 21
208.9177641765
  0
LINE
  5
4AC
100
AcDbEntity
  8
KONSTRUKTIONSELEMENTE
100
AcDbLine
 62
7
  6
CONTINUOUS
 10
753.233941529
 20
209.1179884347
 11
753.2525646961
 21
209.200362004
  0
LINE
  5
4AD
100
AcDbEntity
  8
KONSTRUKTIONSELEMENTE
100
AcDbLine
 62
7
  6
CONTINUOUS
 10
753.2525646961
 20
209.200362004
 11
753.2707750457
 21
209.2827223849
  0
LINE
  5
4AE
100
AcDbEntity
  8
0
100
AcDbLine
 62
7
  6
CONTINUOUS
 10
752.6975594774
 20
208.580423277
 11
752.68783767
 21
208.5924239249
  0
LINE
  5
4AF
100
AcDbEntity
  8
0
100
AcDbLine
 62
7
  6
CONTINUOUS
 10
752.68783767
 20
208.5924239249
 11
752.5899559865
 21
208.7131561501
  0
LINE
  5
4B0
100
AcDbEntity
  8
0
100
AcDbLine
 62
7
  6
CONTINUOUS
 10
752.5899559865
 20
208.7131561501
 11
752.5538094744
 21
208.7576990272
  0
LINE
  5
4B1
100
AcDbEntity
  8
KONSTRUKTIONSELEMENTE
100
AcDbLine
 62
7
  6
CONTINUOUS
 10
753.1612933826
 20
210.1622977556
 11
753.0537875964
 21
210.5043075749
  0
LINE
  5
4B2
100
AcDbEntity
  8
KONSTRUKTIONSELEMENTE
100
AcDbLine
 62
7
  6
CONTINUOUS
 10
753.0537875964
 20
210.5043075749
 11
752.9475879799
 21
210.7713734501
  0
LINE
  5
4B3
100
AcDbEntity
  8
KONSTRUKTIONSELEMENTE
100
AcDbLine
 62
7
  6
CONTINUOUS
 10
752.9475879799
 20
210.7713734501
 11
752.9120307161
 21
210.8607718299
  0
LINE
  5
4B4
100
AcDbEntity
  8
KONSTRUKTIONSELEMENTE
100
AcDbLine
 62
7
  6
CONTINUOUS
 10
751.8222490244
 20
213.1604659047
 11
752.7717245021
 21
211.1568799793
  0
LINE
  5
4B5
100
AcDbEntity
  8
KONSTRUKTIONSELEMENTE
100
AcDbLine
 62
7
  6
CONTINUOUS
 10
752.7717245021
 20
211.1568799793
 11
752.9120307161
 21
210.8607718299
  0
LINE
  5
4B6
100
AcDbEntity
  8
KONSTRUKTIONSELEMENTE
100
AcDbLine
 62
7
  6
CONTINUOUS
 10
752.493161515
 20
208.3506829616
 11
752.4209693838
 21
208.6081499143
  0
LINE
  5
4B7
100
AcDbEntity
  8
KONSTRUKTIONSELEMENTE
100
AcDbLine
 62
7
  6
CONTINUOUS
 10
752.4209693838
 20
208.6081499143
 11
752.3144374262
 21
208.8565352372
  0
LINE
  5
4B8
100
AcDbEntity
  8
KONSTRUKTIONSELEMENTE
100
AcDbLine
 62
7
  6
CONTINUOUS
 10
752.2089720764
 20
209.0360133224
 11
752.3144374262
 21
208.8565352372
  0
LINE
  5
4B9
100
AcDbEntity
  8
KONSTRUKTIONSELEMENTE
100
AcDbLine
 62
7
  6
CONTINUOUS
 10
752.1045337692
 20
209.1465838347
 11
752.1307353556
 21
209.1188554624
  0
LINE
  5
4BA
100
AcDbEntity
  8
KONSTRUKTIONSELEMENTE
100
AcDbLine
 62
7
  6
CONTINUOUS
 10
752.1307353556
 20
209.1188554624
 11
752.2089720764
 21
209.0360133224
  0
LINE
  5
4BB
100
AcDbEntity
  8
0
100
AcDbLine
 62
7
  6
CONTINUOUS
 10
751.2845363302
 20
214.5498483947
 11
751.7028676525
 21
213.5188437377
  0
LINE
  5
4BC
100
AcDbEntity
  8
KONSTRUKTIONSELEMENTE
100
AcDbLine
 62
7
  6
CONTINUOUS
 10
753.4628243021
 20
204.7461464407
 11
753.2850183917
 21
205.0492920111
  0
LINE
  5
4BD
100
AcDbEntity
  8
KONSTRUKTIONSELEMENTE
100
AcDbLine
 62
7
  6
CONTINUOUS
 10
753.2850183917
 20
205.0492920111
 11
752.547703057
 21
206.3059803669
  0
LINE
  5
4BE
100
AcDbEntity
  8
KONSTRUKTIONSELEMENTE
100
AcDbLine
 62
7
  6
CONTINUOUS
 10
752.547703057
 20
206.3059803669
 11
752.336991338
 21
206.6650231085
  0
LINE
  5
4BF
100
AcDbEntity
  8
KONSTRUKTIONSELEMENTE
100
AcDbLine
 62
7
  6
CONTINUOUS
 10
752.336991338
 20
206.6650231085
 11
751.8128574498
 21
207.557967485
  0
SPLINE
  5
4C0
100
AcDbEntity
  8
BEZUGSACHSEN
100
AcDbSpline
 62
7
  6
CONTINUOUS
 70
0
 71
3
 72
9
 73
5
 74
0
 42
0.0000001
 43
0.0000001
 44
0.0000000001
 40
0.0
 40
0.0
 40
0.0
 40
0.0
 40
0.2478797211
 40
1.0
 40
1.0
 40
1.0
 40
1.0
 10
743.8279686553
 20
165.6043995388
 30
0.0
 10
743.7827978724
 20
165.544247797
 30
0.0
 10
743.600183784
 20
165.3018720774
 30
0.0
 10
743.4164832512
 20
165.0603180278
 30
0.0
 10
743.2783282011
 20
164.878633852
 30
0.0
  0
SPLINE
  5
4C1
100
AcDbEntity
  8
RUNDUNGEN
100
AcDbSpline
 62
7
  6
CONTINUOUS
 70
0
 71
3
 72
9
 73
5
 74
0
 42
0.0000001
 43
0.0000001
 44
0.0000000001
 40
0.0
 40
0.0
 40
0.0
 40
0.0
 40
0.2478797211
 40
1.0
 40
1.0
 40
1.0
 40
1.0
 10
751.1586816455
 20
165.6043995388
 30
0.0
 10
751.2038524284
 20
165.544247797
 30
0.0
 10
751.3864665167
 20
165.3018720774
 30
0.0
 10
751.5701670496
 20
165.0603180278
 30
0.0
 10
751.7083220997
 20
164.878633852
 30
0.0
  0
SPLINE
  5
4C2
100
AcDbEntity
  8
0
100
AcDbSpline
 62
7
  6
CONTINUOUS
 70
0
 71
3
 72
11
 73
7
 74
0
 42
0.0000001
 43
0.0000001
 44
0.0000000001
 40
0.0
 40
0.0
 40
0.0
 40
0.0
 40
0.2530704919
 40
0.5000000005
 40
0.7469295092
 40
1.0
 40
1.0
 40
1.0
 40
1.0
 10
749.7206867636
 20
225.2455591031
 30
0.0
 10
749.8817067749
 20
224.7586797986
 30
0.0
 10
750.1367503952
 20
223.7735724087
 30
0.0
 10
750.2715963211
 20
222.2584892886
 30
0.0
 10
750.1367503993
 20
220.7434061695
 30
0.0
 10
749.8817067742
 20
219.7582987829
 30
0.0
 10
749.7206867636
 20
219.2714194804
 30
0.0
  0
LINE
  5
4C3
100
AcDbEntity
  8
0
100
AcDbLine
 62
7
  6
CONTINUOUS
 10
752.3828256328
 20
213.5155982849
 11
752.1204479622
 21
214.1616943827
  0
LINE
  5
4C4
100
AcDbEntity
  8
0
100
AcDbLine
 62
7
  6
CONTINUOUS
 10
752.1204479622
 20
214.1616943827
 11
752.0321259179
 21
214.3791728125
  0
LINE
  5
4C5
100
AcDbEntity
  8
0
100
AcDbLine
 62
7
  6
CONTINUOUS
 10
752.3828256328
 20
213.5155982849
 11
752.5247356196
 21
213.1209986874
  0
LINE
  5
4C6
100
AcDbEntity
  8
0
100
AcDbLine
 62
7
  6
CONTINUOUS
 10
752.5247356196
 20
213.1209986874
 11
752.5430945821
 21
213.0604003869
  0
SPLINE
  5
4C7
100
AcDbEntity
  8
BEZUGSACHSEN
100
AcDbSpline
 62
7
  6
CONTINUOUS
 70
0
 71
3
 72
9
 73
5
 74
0
 42
0.0000001
 43
0.0000001
 44
0.0000000001
 40
0.0
 40
0.0
 40
0.0
 40
0.0
 40
0.5000059437
 40
1.0
 40
1.0
 40
1.0
 40
1.0
 10
745.2659635372
 20
203.6309188949
 30
0.0
 10
745.0130015864
 20
201.15569608
 30
0.0
 10
744.6829699826
 20
196.1847944254
 30
0.0
 10
744.7687628811
 20
191.2027936507
 30
0.0
 10
744.9114135984
 20
188.7188302559
 30
0.0
  0
SPLINE
  5
4C8
100
AcDbEntity
  8
BEZUGSACHSEN
100
AcDbSpline
 62
7
  6
CONTINUOUS
 70
0
 71
3
 72
9
 73
5
 74
0
 42
0.0000001
 43
0.0000001
 44
0.0000000001
 40
0.0
 40
0.0
 40
0.0
 40
0.0
 40
0.5000000005
 40
1.0
 40
1.0
 40
1.0
 40
1.0
 10
745.2659635372
 20
219.2714194804
 30
0.0
 10
744.9385826936
 20
216.6798073403
 30
0.0
 10
744.5806834452
 20
211.4511691849
 30
0.0
 10
744.9385826943
 20
206.2225310296
 30
0.0
 10
745.2659635372
 20
203.6309188949
 30
0.0
  0
ELLIPSE
  5
4C9
100
AcDbEntity
  8
KONSTRUKTIONSELEMENTE
100
AcDbEllipse
 62
7
  6
CONTINUOUS
 10
239.7541610535
 20
107.5230388072
 30
0.0
 11
1.4997504735
 21
0.4499923381
 31
0.0
 40
0.0607989098
 41
-2.7235007144
 42
-1.1527043876
  0
ELLIPSE
  5
4CA
100
AcDbEntity
  8
KONSTRUKTIONSELEMENTE
100
AcDbEllipse
 62
7
  6
CONTINUOUS
 10
244.970899574
 20
107.6246331207
 30
0.0
 11
1.4788083775
 21
-0.9183885846
 31
0.0
 40
0.7424978488
 41
7.2982401868
 42
8.8690365136
  0
ELLIPSE
  5
4CB
100
AcDbEntity
  8
KONSTRUKTIONSELEMENTE
100
AcDbEllipse
 62
7
  6
CONTINUOUS
 10
276.2250624099
 20
105.9562593118
 30
0.0
 11
0.0
 21
62.3538290725
 31
0.0
 40
0.5773502692
 41
-0.3571758222
 42
-0.1561898301
  0
ELLIPSE
  5
4CC
100
AcDbEntity
  8
KONSTRUKTIONSELEMENTE
100
AcDbEllipse
 62
7
  6
CONTINUOUS
 10
276.2250624099
 20
105.9562593118
 30
0.0
 11
-0.0
 21
62.3538290725
 31
0.0
 40
0.5773502692
 41
0.1561898301
 42
0.3571758222
  0
ELLIPSE
  5
4CD
100
AcDbEntity
  8
RUNDUNGEN
100
AcDbEllipse
 62
7
  6
CONTINUOUS
 10
752.1901438019
 20
173.2685494018
 30
0.0
 11
0.4911388899
 21
8.0206306137
 31
0.0
 40
0.2488636556
 41
-4.3827759479
 42
-3.4259921791
  0
ELLIPSE
  5
4CE
100
AcDbEntity
  8
BEZUGSACHSEN
100
AcDbEllipse
 62
7
  6
CONTINUOUS
 10
742.7965064988
 20
173.2685494018
 30
0.0
 11
-0.4911388899
 21
8.0206306137
 31
0.0
 40
0.2488636556
 41
-2.857193128
 42
-1.9004093593
  0
ELLIPSE
  5
4CF
100
AcDbEntity
  8
KONSTRUKTIONSELEMENTE
100
AcDbEllipse
 62
7
  6
CONTINUOUS
 10
627.9018060256
 20
110.3514659319
 30
0.0
 11
0.0
 21
2.0710365812
 31
0.0
 40
0.2216946626
 41
-4.4942228239
 42
-3.3588599535
  0
ELLIPSE
  5
4D0
100
AcDbEntity
  8
KONSTRUKTIONSELEMENTE
100
AcDbEllipse
 62
7
  6
CONTINUOUS
 10
630.7302331503
 20
107.5230388072
 30
0.0
 11
2.0710365812
 21
0.0
 31
0.0
 40
0.2216946626
 41
-2.9243253536
 42
-1.7889624833
  0
ENDSEC
  0
SECTION
  2
OBJECTS
  0
DICTIONARY
  5
C
100
AcDbDictionary
280
0
281
1
  3
ACAD_GROUP
350
D
  3
ACAD_MLINESTYLE
350
17
  3
ACAD_LAYOUT
350
1A
  3
ACAD_PLOTSETTINGS
350
19
  3
ACAD_PLOTSTYLENAME
350
E
  0
DICTIONARY
  5
D
102
{ACAD_REACTORS
330
C
102
}
100
AcDbDictionary
280
0
281
1
  0
ACDBDICTIONARYWDFLT
  5
E
102
{ACAD_REACTORS
330
C
102
}
100
AcDbDictionary
281
1
  3
Normal
350
F
100
AcDbDictionaryWithDefault
340
F
  0
DICTIONARY
  5
17
102
{ACAD_REACTORS
330
C
102
}
100
AcDbDictionary
280
0
281
1
  3
Standard
350
18
  0
DICTIONARY
  5
19
102
{ACAD_REACTORS
330
C
102
}
100
AcDbDictionary
281
1
  0
DICTIONARY
  5
1A
102
{ACAD_REACTORS
330
C
102
}
100
AcDbDictionary
281
1
  3
Model
350
4D1
  3
Layout1
350
4D2
  0
ACDBPLACEHOLDER
  5
F
102
{ACAD_REACTORS
330
E
102
}
  0
MLINESTYLE
  5
18
102
{ACAD_REACTORS
330
17
102
}
100
AcDbMlineStyle
  2
STANDARD
 70
0
  3

 62
256
 51
90.0
 52
90.0
 71
2
 49
0.5
 62
256
  6
BYLAYER
 49
-0.5
 62
256
  6
BYLAYER
  0
LAYOUT
  5
4D1
102
{ACAD_REACTORS
330
1A
102
}
100
AcDbPlotSettings
  1

  2
none_device
  4
ISO_A0_(1189.00_x_841.00_MM)
  6

 40
0.0
 41
0.0
 42
0.0
 43
0.0
 44
1189.0
 45
841.0
 46
0.0
 47
0.0
 48
0.0
 49
0.0
140
0.0
141
0.0
142
1.0
143
1.0
 70
1024
 72
1
 73
0
 74
0
  7

 75
0
147
1.0
148
0.0
149
0.0
100
AcDbLayout
  1
Model
 70
0
 71
0
 10
0.0
 20
0.0
 11
1189.0
 21
841.0
 12
0.0
 22
0.0
 32
0.0
 14
0.0
 24
0.0
 34
0.0
 15
0.0
 25
0.0
 35
0.0
146
0.0
 13
0.0
 23
0.0
 33
0.0
 16
1.0
 26
0.0
 36
0.0
 17
0.0
 27
1.0
 37
0.0
 76
0
330
20D
345
0
346
0
  0
LAYOUT
  5
4D2
102
{ACAD_REACTORS
330
1A
102
}
100
AcDbPlotSettings
  1

  2
none_device
  4
ISO_A0_(1189.00_x_841.00_MM)
  6

 40
0.0
 41
0.0
 42
0.0
 43
0.0
 44
1189.0
 45
841.0
 46
0.0
 47
0.0
 48
0.0
 49
0.0
140
0.0
141
0.0
142
1.0
143
1.0
 70
0
 72
1
 73
0
 74
0
  7

 75
0
147
1.0
148
0.0
149
0.0
100
AcDbLayout
  1
Layout1
 70
0
 71
1
 10
0.0
 20
0.0
 11
1189.0
 21
841.0
 12
0.0
 22
0.0
 32
0.0
 14
0.0
 24
0.0
 34
0.0
 15
0.0
 25
0.0
 35
0.0
146
0.0
 13
0.0
 23
0.0
 33
0.0
 16
1.0
 26
0.0
 36
0.0
 17
0.0
 27
1.0
 37
0.0
 76
0
330
20E
345
0
346
0
  0
ENDSEC
  0
EOF
