999
DXF file: VSAK-1-10_190_7100693_M32080-P-2.dxf
999
Pro/ENGINEER 2010140 by Parametric Technology Corporation
  0
SECTION
  2
HEADER
  9
$ACADVER
  1
AC1015
  9
$DWGCODEPAGE
  3
ANSI_1252
  9
$EXTMAX
 10
841.0
 20
594.0
 30
0.0
  9
$EXTMIN
 10
0.0
 20
0.0
 30
0.0
  9
$LIMMIN
 10
0.0
 20
0.0
  9
$LIMMAX
 10
841.0
 20
594.0
  9
$VIEWCTR
 10
420.5
 20
297.0
  9
$VIEWSIZE
 40
594.0
  9
$CLAYER
  8
0
  9
$LTSCALE
 40
46.255
  9
$CELTYPE
  6
BYLAYER
  9
$DIMSCALE
 40
1.0
  9
$DIMASZ
 40
3.5
  9
$DIMEXO
 40
5.25625
  9
$DIMDLI
 40
31.958
  9
$DIMEXE
 40
15.138
  9
$DIMCEN
 40
7.569
  9
$DIMLFAC
 40
1.0
  9
$DIMBLK
  1
_FILLED
  9
$DIMTXT
 40
3.5
  9
$DIMTOL
 70
1
  9
$DIMLIM
 70
0
  9
$DIMTFAC
 40
1.0
  9
$DIMTP
 40
0.005
  9
$DIMTM
 40
0.005
  9
$PDMODE
 70
3
  9
$PDSIZE
 40
0.3125
  9
$HANDSEED
  5
4D3
  9
$TILEMODE
 70
1
  9
$MEASUREMENT
 70
1
  9
$INSUNITS
 70
4
  0
ENDSEC
  0
SECTION
  2
CLASSES
  0
CLASS
  1
ACDBDICTIONARYWDFLT
  2
AcDbDictionaryWithDefault
  3
AutoCAD 2000
 90
0
280
0
281
0
  0
CLASS
  1
ACDBPLACEHOLDER
  2
AcDbPlaceHolder
  3
AutoCAD 2000
 90
0
280
0
281
0
  0
CLASS
  1
LAYOUT
  2
AcDbLayout
  3
AutoCAD 2000
 90
0
280
0
281
0
  0
ENDSEC
  0
SECTION
  2
TABLES
  0
TABLE
  2
VPORT
  5
8
100
AcDbSymbolTable
 70
2
  0
VPORT
  5
1F4
100
AcDbSymbolTableRecord
100
AcDbViewportTableRecord
  2
*ACTIVE
 70
0
 10
0.0
 20
0.0
 11
1.0
 21
1.0
 12
420.5
 22
297.0
 13
0.0
 23
0.0
 14
1.0
 24
1.0
 15
0.0
 25
0.0
 16
0.0
 26
0.0
 36
1.0
 17
0.0
 27
0.0
 37
0.0
 40
594.0
 41
1.4158249158
 42
50.0
 43
0.0
 44
0.0
 50
0.0
 51
0.0
 71
0
 72
100
 73
1
 74
1
 75
0
 76
0
 77
0
 78
0
  0
ENDTAB
  0
TABLE
  2
LTYPE
  5
5
100
AcDbSymbolTable
 70
6
  0
LTYPE
  5
14
100
AcDbSymbolTableRecord
100
AcDbLinetypeTableRecord
  2
BYBLOCK
 70
0
  3

 72
65
 73
0
 40
0.0
  0
LTYPE
  5
15
100
AcDbSymbolTableRecord
100
AcDbLinetypeTableRecord
  2
BYLAYER
 70
0
  3

 72
65
 73
0
 40
0.0
  0
LTYPE
  5
16
100
AcDbSymbolTableRecord
100
AcDbLinetypeTableRecord
  2
CONTINUOUS
 70
64
  3
Solid line
 72
65
 73
0
 40
0.0
  0
LTYPE
  5
1F5
100
AcDbSymbolTableRecord
100
AcDbLinetypeTableRecord
  2
CENTER
 70
64
  3
____ _ ____ _ ____ _ ____ _ ____ _ ____ _ ____
 72
65
 73
4
 40
0.6
 49
0.375
 74
0
 49
-0.075
 74
0
 49
0.075
 74
0
 49
-0.075
 74
0
  0
LTYPE
  5
1F6
100
AcDbSymbolTableRecord
100
AcDbLinetypeTableRecord
  2
HIDDEN
 70
64
  3
- - - - - - - - - - - - - - - - - - - -
 72
65
 73
2
 40
0.2
 49
0.1
 74
0
 49
-0.1
 74
0
  0
LTYPE
  5
1F7
100
AcDbSymbolTableRecord
100
AcDbLinetypeTableRecord
  2
PHANTOM
 70
64
  3
_____ _ _ _____ _ _ _____ _ _ _____
 72
65
 73
6
 40
0.8
 49
0.45
 74
0
 49
-0.05
 74
0
 49
0.1
 74
0
 49
-0.05
 74
0
 49
0.1
 74
0
 49
-0.05
 74
0
  0
LTYPE
  5
1F8
100
AcDbSymbolTableRecord
100
AcDbLinetypeTableRecord
  2
DOT
 70
64
  3
. . . . . . . . . . . . . . . . . . . .
 72
65
 73
2
 40
0.2
 49
0.1
 74
0
 49
-0.1
 74
0
  0
LTYPE
  5
1F9
100
AcDbSymbolTableRecord
100
AcDbLinetypeTableRecord
  2
DASHED
 70
64
  3
- - - - - - - - - - - - - - - - - - - -
 72
65
 73
2
 40
0.2
 49
0.1
 74
0
 49
-0.1
 74
0
  0
ENDTAB
  0
TABLE
  2
LAYER
  5
2
100
AcDbSymbolTable
 70
36
  0
LAYER
  5
10
100
AcDbSymbolTableRecord
100
AcDbLayerTableRecord
  2
0
 70
0
 62
7
  6
CONTINUOUS
370
-3
390
F
  0
LAYER
  5
1FA
100
AcDbSymbolTableRecord
100
AcDbLayerTableRecord
  2
DEFAULT_1
 70
0
 62
7
  6
CENTER
370
-3
390
F
  0
LAYER
  5
1FB
100
AcDbSymbolTableRecord
100
AcDbLayerTableRecord
  2
DEFAULT_2
 70
0
 62
8
  6
HIDDEN
370
-3
390
F
  0
LAYER
  5
1FC
100
AcDbSymbolTableRecord
100
AcDbLayerTableRecord
  2
DEFAULT_3
 70
0
 62
7
  6
PHANTOM
370
-3
390
F
  0
LAYER
  5
1FD
100
AcDbSymbolTableRecord
100
AcDbLayerTableRecord
  2
AUSFORMSCHRAEGEN
 70
0
 62
7
  6
CONTINUOUS
370
-3
390
F
  0
LAYER
  5
1FE
100
AcDbSymbolTableRecord
100
AcDbLayerTableRecord
  2
BEZUGSACHSEN
 70
0
 62
7
  6
CONTINUOUS
370
-3
390
F
  0
LAYER
  5
1FF
100
AcDbSymbolTableRecord
100
AcDbLayerTableRecord
  2
BEZUGSEBENEN
 70
0
 62
7
  6
CONTINUOUS
370
-3
390
F
  0
LAYER
  5
200
100
AcDbSymbolTableRecord
100
AcDbLayerTableRecord
  2
BG_STARTBEZUEGE
 70
0
 62
7
  6
CONTINUOUS
370
-3
390
F
  0
LAYER
  5
201
100
AcDbSymbolTableRecord
100
AcDbLayerTableRecord
  2
FASEN
 70
0
 62
7
  6
CONTINUOUS
370
-3
390
F
  0
LAYER
  5
202
100
AcDbSymbolTableRecord
100
AcDbLayerTableRecord
  2
FLAECHEN
 70
0
 62
7
  6
CONTINUOUS
370
-3
390
F
  0
LAYER
  5
203
100
AcDbSymbolTableRecord
100
AcDbLayerTableRecord
  2
HILFEN
 70
0
 62
7
  6
CONTINUOUS
370
-3
390
F
  0
LAYER
  5
204
100
AcDbSymbolTableRecord
100
AcDbLayerTableRecord
  2
KONSTRUKTIONSELEMENTE
 70
0
 62
7
  6
CONTINUOUS
370
-3
390
F
  0
LAYER
  5
205
100
AcDbSymbolTableRecord
100
AcDbLayerTableRecord
  2
NORM
 70
0
 62
7
  6
CONTINUOUS
370
-3
390
F
  0
LAYER
  5
206
100
AcDbSymbolTableRecord
100
AcDbLayerTableRecord
  2
PLATZIERUNG
 70
0
 62
7
  6
CONTINUOUS
370
-3
390
F
  0
LAYER
  5
207
100
AcDbSymbolTableRecord
100
AcDbLayerTableRecord
  2
PLAZIERUNG
 70
0
 62
7
  6
CONTINUOUS
370
-3
390
F
  0
LAYER
  5
208
100
AcDbSymbolTableRecord
100
AcDbLayerTableRecord
  2
RUNDUNGEN
 70
0
 62
7
  6
CONTINUOUS
370
-3
390
F
  0
LAYER
  5
209
100
AcDbSymbolTableRecord
100
AcDbLayerTableRecord
  2
TEIL_STARTBEZUEGE
 70
0
 62
7
  6
CONTINUOUS
370
-3
390
F
  0
LAYER
  5
20A
100
AcDbSymbolTableRecord
100
AcDbLayerTableRecord
  2
T_STARTBEZUEGE
 70
0
 62
7
  6
CONTINUOUS
370
-3
390
F
  0
ENDTAB
  0
TABLE
  2
STYLE
  5
3
100
AcDbSymbolTable
 70
1
  0
STYLE
  5
11
100
AcDbSymbolTableRecord
100
AcDbTextStyleTableRecord
  2
STANDARD
 70
0
 40
0.0
 41
0.7
 50
0.0
 71
0
 42
0.2
  3
txt
  4

  0
STYLE
  5
20B
100
AcDbSymbolTableRecord
100
AcDbTextStyleTableRecord
  2
TEXTSTYLE_1
 70
0
 40
0.0
 41
0.8
 50
0.0
 71
0
 42
0.2
  3
gdt
  4

  0
ENDTAB
  0
TABLE
  2
VIEW
  5
6
100
AcDbSymbolTable
 70
0
  0
ENDTAB
  0
TABLE
  2
UCS
  5
7
100
AcDbSymbolTable
 70
0
  0
ENDTAB
  0
TABLE
  2
APPID
  5
9
100
AcDbSymbolTable
 70
1
  0
APPID
  5
20C
100
AcDbSymbolTableRecord
100
AcDbRegAppTableRecord
  2
ACAD
 70
0
  0
ENDTAB
  0
TABLE
  2
BLOCK_RECORD
  5
1
100
AcDbSymbolTable
 70
0
  0
BLOCK_RECORD
  5
20D
100
AcDbSymbolTableRecord
100
AcDbBlockTableRecord
  2
*Model_Space
  0
BLOCK_RECORD
  5
20E
100
AcDbSymbolTableRecord
100
AcDbBlockTableRecord
  2
*Paper_Space
  0
ENDTAB
  0
TABLE
  2
DIMSTYLE
  5
A
100
AcDbSymbolTable
 70
1
100
AcDbDimStyleTable
 71
0
  0
DIMSTYLE
105
20F
100
AcDbSymbolTableRecord
100
AcDbDimStyleTableRecord
  2
STANDARD
 70
0
  3

  4

 40
1.0
 41
3.5
 42
0.0625
 43
0.38
 44
0.18
 45
0.0
 46
0.0
 47
0.005
 48
0.005
140
3.5
141
0.09
142
0.0
143
25.4
144
1.0
145
0.0
146
1.0
147
0.09
 71
1.0
 72
0.0
 73
0
 74
0
 75
0
 76
0
 77
1
 78
8
170
0
171
2
172
0
173
0
174
0
175
0
176
0
177
0
178
5
270
2
271
3
272
3
273
2
274
2
275
0
280
0
281
0
282
0
283
1
284
8
285
0
286
0
287
3
288
0
340
11
  0
ENDTAB
  0
ENDSEC
  0
SECTION
  2
BLOCKS
  0
BLOCK
  5
20
100
AcDbEntity
  8
0
100
AcDbBlockBegin
  2
*Model_Space
 70
0
 10
0.0
 20
0.0
 30
0.0
  3
*Model_Space
  1

  0
ENDBLK
  5
21
100
AcDbEntity
  8
0
100
AcDbBlockEnd
  0
BLOCK
  5
1C
100
AcDbEntity
  8
0
100
AcDbBlockBegin
  2
*Paper_Space
 70
0
 10
0.0
 20
0.0
 30
0.0
  3
*Paper_Space
  1

  0
ENDBLK
  5
1D
100
AcDbEntity
  8
0
100
AcDbBlockEnd
  0
ENDSEC
  0
SECTION
  2
ENTITIES
  0
MTEXT
  5
210
100
AcDbEntity
  8
0
100
AcDbMText
 62
5
  6
CONTINUOUS
  7
STANDARD
 71
1
 72
1
 10
315.7400731011
 20
369.3527749299
 30
0.0
 11
0.0
 21
1.0
 31
0.0
 44
0.9
  1
VSAK 1-10/190
 40
9.0
 41
88.0714285714
  0
MTEXT
  5
211
100
AcDbEntity
  8
0
100
AcDbMText
 62
5
  6
CONTINUOUS
  7
STANDARD
 71
1
 72
1
 10
101.7101265147
 20
391.5604181165
 30
0.0
 11
0.0
 21
1.0
 31
0.0
 44
0.9
  1
RUD
 40
9.0
 41
24.0
  0
MTEXT
  5
212
100
AcDbEntity
  8
0
100
AcDbMText
 62
5
  6
CONTINUOUS
  7
STANDARD
 71
1
 72
1
 10
553.7507654924
 20
361.0459259777
 30
0.0
 11
0.0
 21
1.0
 31
0.0
 44
0.9
  1
RUD VSAK 1-10/190
 40
9.0
 41
117.4285714286
  0
LINE
  5
213
100
AcDbEntity
  8
0
100
AcDbLine
 62
7
  6
CONTINUOUS
 10
0.0
 20
0.0
 11
0.0
 21
594.0
  0
LINE
  5
214
100
AcDbEntity
  8
0
100
AcDbLine
 62
7
  6
CONTINUOUS
 10
0.0
 20
0.0
 11
841.0
 21
0.0
  0
LINE
  5
215
100
AcDbEntity
  8
0
100
AcDbLine
 62
7
  6
CONTINUOUS
 10
0.0
 20
594.0
 11
841.0
 21
594.0
  0
LINE
  5
216
100
AcDbEntity
  8
0
100
AcDbLine
 62
7
  6
CONTINUOUS
 10
841.0
 20
0.0
 11
841.0
 21
594.0
  0
LINE
  5
217
100
AcDbEntity
  8
KONSTRUKTIONSELEMENTE
100
AcDbLine
 62
7
  6
CONTINUOUS
 10
208.0576605422
 20
-5.8021452867
 11
217.1576605422
 21
-5.8021452867
  0
LINE
  5
218
100
AcDbEntity
  8
KONSTRUKTIONSELEMENTE
100
AcDbLine
 62
7
  6
CONTINUOUS
 10
207.5576605422
 20
-5.4485918961
 11
208.0576605422
 21
-5.4485918961
  0
LINE
  5
219
100
AcDbEntity
  8
KONSTRUKTIONSELEMENTE
100
AcDbLine
 62
7
  6
CONTINUOUS
 10
217.1576605422
 20
-5.4485918961
 11
217.6576605422
 21
-5.4485918961
  0
LINE
  5
21A
100
AcDbEntity
  8
KONSTRUKTIONSELEMENTE
100
AcDbLine
 62
7
  6
CONTINUOUS
 10
204.0576605422
 20
8.339990337
 11
203.0070423288
 21
8.339990337
  0
LINE
  5
21B
100
AcDbEntity
  8
KONSTRUKTIONSELEMENTE
100
AcDbLine
 62
7
  6
CONTINUOUS
 10
221.1576605422
 20
8.339990337
 11
234.9684007409
 21
8.339990337
  0
LINE
  5
21C
100
AcDbEntity
  8
KONSTRUKTIONSELEMENTE
100
AcDbLine
 62
7
  6
CONTINUOUS
 10
239.5183409122
 20
11.2458251913
 11
233.6273402964
 21
13.188260743
  0
LINE
  5
21D
100
AcDbEntity
  8
KONSTRUKTIONSELEMENTE
100
AcDbLine
 62
7
  6
CONTINUOUS
 10
239.5183409122
 20
14.7813590972
 11
233.6273402964
 21
16.723794649
  0
LINE
  5
21E
100
AcDbEntity
  8
KONSTRUKTIONSELEMENTE
100
AcDbLine
 62
7
  6
CONTINUOUS
 10
174.5659883744
 20
47.3661174215
 11
174.7772975052
 21
47.3992426211
  0
LINE
  5
21F
100
AcDbEntity
  8
KONSTRUKTIONSELEMENTE
100
AcDbLine
 62
7
  6
CONTINUOUS
 10
230.3817979921
 20
81.539016104
 11
226.8611658318
 21
81.539016104
  0
LINE
  5
220
100
AcDbEntity
  8
KONSTRUKTIONSELEMENTE
100
AcDbLine
 62
7
  6
CONTINUOUS
 10
198.3541552526
 20
81.539016104
 11
194.8335230923
 21
81.539016104
  0
LINE
  5
221
100
AcDbEntity
  8
KONSTRUKTIONSELEMENTE
100
AcDbLine
 62
7
  6
CONTINUOUS
 10
255.3921807761
 20
46.1923644189
 11
261.2831813918
 21
44.2499288672
  0
LINE
  5
222
100
AcDbEntity
  8
KONSTRUKTIONSELEMENTE
100
AcDbLine
 62
7
  6
CONTINUOUS
 10
219.36955273
 20
63.1414196647
 11
259.9518150514
 21
49.7602584248
  0
LINE
  5
223
100
AcDbEntity
  8
KONSTRUKTIONSELEMENTE
100
AcDbLine
 62
7
  6
CONTINUOUS
 10
259.9518150514
 20
53.2957923308
 11
219.36955273
 21
66.6769535706
  0
LINE
  5
224
100
AcDbEntity
  8
0
100
AcDbLine
 62
7
  6
CONTINUOUS
 10
207.0076605422
 20
89.489016104
 11
218.2076605422
 21
89.489016104
  0
LINE
  5
225
100
AcDbEntity
  8
0
100
AcDbLine
 62
7
  6
CONTINUOUS
 10
207.0076605422
 20
101.589016104
 11
218.2076605422
 21
101.589016104
  0
LINE
  5
226
100
AcDbEntity
  8
KONSTRUKTIONSELEMENTE
100
AcDbLine
 62
7
  6
CONTINUOUS
 10
233.5214508574
 20
143.1394226667
 11
233.8444817141
 21
143.2061408598
  0
LINE
  5
227
100
AcDbEntity
  8
KONSTRUKTIONSELEMENTE
100
AcDbLine
 62
7
  6
CONTINUOUS
 10
234.4009633232
 20
146.6417859951
 11
234.7239944471
 21
146.7085043203
  0
LINE
  5
228
100
AcDbEntity
  8
KONSTRUKTIONSELEMENTE
100
AcDbLine
 62
7
  6
CONTINUOUS
 10
233.0661237371
 20
143.1002710889
 11
233.5214508574
 21
143.1394226667
  0
LINE
  5
229
100
AcDbEntity
  8
KONSTRUKTIONSELEMENTE
100
AcDbLine
 62
7
  6
CONTINUOUS
 10
234.7239944471
 20
146.7085043203
 11
235.1793215005
 21
146.7476558651
  0
LINE
  5
22A
100
AcDbEntity
  8
KONSTRUKTIONSELEMENTE
100
AcDbLine
 62
7
  6
CONTINUOUS
 10
233.1212799389
 20
148.4192442295
 11
234.0182169629
 21
148.4119055259
  0
LINE
  5
22B
100
AcDbEntity
  8
KONSTRUKTIONSELEMENTE
100
AcDbLine
 62
7
  6
CONTINUOUS
 10
233.831709181
 20
148.8878594971
 11
234.7286459562
 21
148.8805206294
  0
LINE
  5
22C
100
AcDbEntity
  8
KONSTRUKTIONSELEMENTE
100
AcDbLine
 62
7
  6
CONTINUOUS
 10
232.9399305447
 20
143.5956422767
 11
233.659848368
 21
143.5796639774
  0
LINE
  5
22D
100
AcDbEntity
  8
KONSTRUKTIONSELEMENTE
100
AcDbLine
 62
7
  6
CONTINUOUS
 10
234.5855983597
 20
146.2682594579
 11
235.305514693
 21
146.2522846773
  0
LINE
  5
22E
100
AcDbEntity
  8
KONSTRUKTIONSELEMENTE
100
AcDbLine
 62
7
  6
CONTINUOUS
 10
191.7030442139
 20
149.9170683099
 11
192.1955031612
 21
149.8844868328
  0
LINE
  5
22F
100
AcDbEntity
  8
KONSTRUKTIONSELEMENTE
100
AcDbLine
 62
7
  6
CONTINUOUS
 10
195.7920485864
 20
148.904881449
 11
196.3294920559
 21
148.847064364
  0
LINE
  5
230
100
AcDbEntity
  8
KONSTRUKTIONSELEMENTE
100
AcDbLine
 62
7
  6
CONTINUOUS
 10
193.2749292441
 20
148.4449188734
 11
195.7199430439
 21
147.6890885765
  0
LINE
  5
231
100
AcDbEntity
  8
KONSTRUKTIONSELEMENTE
100
AcDbLine
 62
7
  6
CONTINUOUS
 10
193.1696810202
 20
147.9118220037
 11
195.391897166
 21
147.206736148
  0
LINE
  5
232
100
AcDbEntity
  8
BEZUGSACHSEN
100
AcDbLine
 62
7
  6
CONTINUOUS
 10
193.3014342061
 20
82.2534408846
 11
188.5518136523
 21
87.9138182431
  0
LINE
  5
233
100
AcDbEntity
  8
RUNDUNGEN
100
AcDbLine
 62
7
  6
CONTINUOUS
 10
188.5518136523
 20
87.9138182431
 11
188.075571656
 21
88.4813813532
  0
LINE
  5
234
100
AcDbEntity
  8
KONSTRUKTIONSELEMENTE
100
AcDbLine
 62
7
  6
CONTINUOUS
 10
173.7207518509
 20
48.6478301857
 11
174.5659883744
 21
47.3661174215
  0
LINE
  5
235
100
AcDbEntity
  8
KONSTRUKTIONSELEMENTE
100
AcDbLine
 62
7
  6
CONTINUOUS
 10
180.2502039948
 20
38.7465990829
 11
198.9559164358
 21
10.3813430493
  0
LINE
  5
236
100
AcDbEntity
  8
KONSTRUKTIONSELEMENTE
100
AcDbLine
 62
7
  6
CONTINUOUS
 10
180.2502039948
 20
39.1001524735
 11
180.0388948639
 21
39.4205806645
  0
LINE
  5
237
100
AcDbEntity
  8
KONSTRUKTIONSELEMENTE
100
AcDbLine
 62
7
  6
CONTINUOUS
 10
182.7129593869
 20
48.3973456508
 11
186.8667388985
 21
42.0985735658
  0
LINE
  5
238
100
AcDbEntity
  8
KONSTRUKTIONSELEMENTE
100
AcDbLine
 62
7
  6
CONTINUOUS
 10
227.1334886073
 20
150.6149358294
 11
227.6592371059
 21
150.7405390885
  0
LINE
  5
239
100
AcDbEntity
  8
KONSTRUKTIONSELEMENTE
100
AcDbLine
 62
7
  6
CONTINUOUS
 10
227.5613357989
 20
155.3036464922
 11
228.0870872601
 21
155.429247348
  0
LINE
  5
23A
100
AcDbEntity
  8
KONSTRUKTIONSELEMENTE
100
AcDbLine
 62
7
  6
CONTINUOUS
 10
196.3294920559
 20
148.847064364
 11
196.7144351156
 21
148.9376149667
  0
LINE
  5
23B
100
AcDbEntity
  8
KONSTRUKTIONSELEMENTE
100
AcDbLine
 62
7
  6
CONTINUOUS
 10
191.251688601
 20
149.8209164093
 11
191.7030442139
 21
149.9170683099
  0
LINE
  5
23C
100
AcDbEntity
  8
KONSTRUKTIONSELEMENTE
100
AcDbLine
 62
7
  6
CONTINUOUS
 10
195.9882110867
 20
149.4116256123
 11
196.3150435206
 21
149.4424466067
  0
LINE
  5
23D
100
AcDbEntity
  8
KONSTRUKTIONSELEMENTE
100
AcDbLine
 62
7
  6
CONTINUOUS
 10
224.6453063276
 20
155.007104037
 11
225.039597035
 21
155.0373438011
  0
LINE
  5
23E
100
AcDbEntity
  8
KONSTRUKTIONSELEMENTE
100
AcDbLine
 62
7
  6
CONTINUOUS
 10
191.6446596964
 20
149.4528789441
 11
191.9143210567
 21
149.4710420068
  0
LINE
  5
23F
100
AcDbEntity
  8
KONSTRUKTIONSELEMENTE
100
AcDbLine
 62
7
  6
CONTINUOUS
 10
197.864023967
 20
156.1935978482
 11
198.2589236246
 21
156.2144425478
  0
LINE
  5
240
100
AcDbEntity
  8
KONSTRUKTIONSELEMENTE
100
AcDbLine
 62
7
  6
CONTINUOUS
 10
227.0722076364
 20
151.2073328352
 11
227.4003079147
 21
151.2182681409
  0
LINE
  5
241
100
AcDbEntity
  8
KONSTRUKTIONSELEMENTE
100
AcDbLine
 62
7
  6
CONTINUOUS
 10
227.8202650364
 20
154.8259174982
 11
228.1483652684
 21
154.8368527456
  0
LINE
  5
242
100
AcDbEntity
  8
KONSTRUKTIONSELEMENTE
100
AcDbLine
 62
7
  6
CONTINUOUS
 10
198.1675512008
 20
155.6259361132
 11
198.4946686556
 21
155.5983043809
  0
LINE
  5
243
100
AcDbEntity
  8
KONSTRUKTIONSELEMENTE
100
AcDbLine
 62
7
  6
CONTINUOUS
 10
224.5522911569
 20
155.539587231
 11
224.8229034532
 21
155.5153731742
  0
LINE
  5
244
100
AcDbEntity
  8
KONSTRUKTIONSELEMENTE
100
AcDbLine
 62
7
  6
CONTINUOUS
 10
226.7401608708
 20
150.6558681147
 11
227.1334886073
 21
150.6149358294
  0
LINE
  5
245
100
AcDbEntity
  8
KONSTRUKTIONSELEMENTE
100
AcDbLine
 62
7
  6
CONTINUOUS
 10
228.0870872601
 20
155.429247348
 11
228.4804119934
 21
155.388317415
  0
LINE
  5
246
100
AcDbEntity
  8
KONSTRUKTIONSELEMENTE
100
AcDbLine
 62
7
  6
CONTINUOUS
 10
232.6692384943
 20
143.1829641782
 11
233.0661237371
 21
143.1002710889
  0
LINE
  5
247
100
AcDbEntity
  8
KONSTRUKTIONSELEMENTE
100
AcDbLine
 62
7
  6
CONTINUOUS
 10
235.1793215005
 20
146.7476558651
 11
235.5762067099
 21
146.6649627593
  0
LINE
  5
248
100
AcDbEntity
  8
KONSTRUKTIONSELEMENTE
100
AcDbLine
 62
7
  6
CONTINUOUS
 10
198.2589236246
 20
156.2144425478
 11
198.7775933529
 21
156.0622256646
  0
LINE
  5
249
100
AcDbEntity
  8
KONSTRUKTIONSELEMENTE
100
AcDbLine
 62
7
  6
CONTINUOUS
 10
195.6432386649
 20
149.5147174699
 11
195.9882110867
 21
149.4116256123
  0
LINE
  5
24A
100
AcDbEntity
  8
KONSTRUKTIONSELEMENTE
100
AcDbLine
 62
7
  6
CONTINUOUS
 10
191.9143210567
 20
149.4710420068
 11
192.2250856174
 21
149.3604714945
  0
LINE
  5
24B
100
AcDbEntity
  8
KONSTRUKTIONSELEMENTE
100
AcDbLine
 62
7
  6
CONTINUOUS
 10
192.1955031612
 20
149.8844868328
 11
192.5062677218
 21
149.7739163205
  0
LINE
  5
24C
100
AcDbEntity
  8
KONSTRUKTIONSELEMENTE
100
AcDbLine
 62
7
  6
CONTINUOUS
 10
226.7450947741
 20
151.3315293497
 11
227.0722076364
 21
151.2073328352
  0
LINE
  5
24D
100
AcDbEntity
  8
KONSTRUKTIONSELEMENTE
100
AcDbLine
 62
7
  6
CONTINUOUS
 10
228.1483652684
 20
154.8368527456
 11
228.4754811165
 21
154.7126538569
  0
LINE
  5
24E
100
AcDbEntity
  8
KONSTRUKTIONSELEMENTE
100
AcDbLine
 62
7
  6
CONTINUOUS
 10
195.3708259095
 20
149.0821571992
 11
195.7920485864
 21
148.904881449
  0
LINE
  5
24F
100
AcDbEntity
  8
KONSTRUKTIONSELEMENTE
100
AcDbLine
 62
7
  6
CONTINUOUS
 10
232.6384135105
 20
143.7254760933
 11
232.9399305447
 21
143.5956422767
  0
LINE
  5
250
100
AcDbEntity
  8
KONSTRUKTIONSELEMENTE
100
AcDbLine
 62
7
  6
CONTINUOUS
 10
235.305514693
 20
146.2522846773
 11
235.6070317272
 21
146.1224508607
  0
LINE
  5
251
100
AcDbEntity
  8
KONSTRUKTIONSELEMENTE
100
AcDbLine
 62
7
  6
CONTINUOUS
 10
226.3478235014
 20
150.8319298024
 11
226.7401608708
 21
150.6558681147
  0
LINE
  5
252
100
AcDbEntity
  8
KONSTRUKTIONSELEMENTE
100
AcDbLine
 62
7
  6
CONTINUOUS
 10
232.1985005976
 20
143.4150651506
 11
232.6692384943
 21
143.1829641782
  0
LINE
  5
253
100
AcDbEntity
  8
KONSTRUKTIONSELEMENTE
100
AcDbLine
 62
7
  6
CONTINUOUS
 10
198.4946686556
 20
155.5983043809
 11
198.8158891163
 21
155.4356651828
  0
LINE
  5
254
100
AcDbEntity
  8
KONSTRUKTIONSELEMENTE
100
AcDbLine
 62
7
  6
CONTINUOUS
 10
198.7775933529
 20
156.0622256646
 11
199.1606986756
 21
155.8130559176
  0
LINE
  5
255
100
AcDbEntity
  8
KONSTRUKTIONSELEMENTE
100
AcDbLine
 62
7
  6
CONTINUOUS
 10
195.2801268667
 20
149.7517229148
 11
195.6432386649
 21
149.5147174699
  0
LINE
  5
256
100
AcDbEntity
  8
KONSTRUKTIONSELEMENTE
100
AcDbLine
 62
7
  6
CONTINUOUS
 10
193.9391230044
 20
145.0706046127
 11
189.8046747444
 21
147.8824256571
  0
LINE
  5
257
100
AcDbEntity
  8
KONSTRUKTIONSELEMENTE
100
AcDbLine
 62
7
  6
CONTINUOUS
 10
194.2203051089
 20
145.4840494387
 11
192.3729984133
 21
146.7403950296
  0
LINE
  5
258
100
AcDbEntity
  8
KONSTRUKTIONSELEMENTE
100
AcDbLine
 62
7
  6
CONTINUOUS
 10
191.8451965707
 20
147.0993508648
 11
190.5256917177
 21
147.9967406204
  0
LINE
  5
259
100
AcDbEntity
  8
KONSTRUKTIONSELEMENTE
100
AcDbLine
 62
7
  6
CONTINUOUS
 10
192.2250856174
 20
149.3604714945
 11
192.4889867852
 21
149.1809934093
  0
LINE
  5
25A
100
AcDbEntity
  8
KONSTRUKTIONSELEMENTE
100
AcDbLine
 62
7
  6
CONTINUOUS
 10
192.5062677218
 20
149.7739163205
 11
192.8581358634
 21
149.5346122627
  0
LINE
  5
25B
100
AcDbEntity
  8
KONSTRUKTIONSELEMENTE
100
AcDbLine
 62
7
  6
CONTINUOUS
 10
194.931463411
 20
149.3933459722
 11
195.3708259095
 21
149.0821571992
  0
LINE
  5
25C
100
AcDbEntity
  8
0
100
AcDbLine
 62
7
  6
CONTINUOUS
 10
91.6076605422
 20
487.439016104
 11
91.6076605422
 21
327.439016104
  0
LINE
  5
25D
100
AcDbEntity
  8
0
100
AcDbLine
 62
7
  6
CONTINUOUS
 10
230.9941717075
 20
159.5958776525
 11
221.6076605422
 21
162.645740009
  0
LINE
  5
25E
100
AcDbEntity
  8
KONSTRUKTIONSELEMENTE
100
AcDbLine
 62
7
  6
CONTINUOUS
 10
228.4804119934
 20
155.388317415
 11
228.8727523428
 21
155.2122533458
  0
LINE
  5
25F
100
AcDbEntity
  8
KONSTRUKTIONSELEMENTE
100
AcDbLine
 62
7
  6
CONTINUOUS
 10
235.5762067099
 20
146.6649627593
 11
236.046946272
 21
146.4328583548
  0
LINE
  5
260
100
AcDbEntity
  8
KONSTRUKTIONSELEMENTE
100
AcDbLine
 62
7
  6
CONTINUOUS
 10
221.6076605422
 20
153.8580199915
 11
221.8006758284
 21
153.754680296
  0
LINE
  5
261
100
AcDbEntity
  8
KONSTRUKTIONSELEMENTE
100
AcDbLine
 62
7
  6
CONTINUOUS
 10
223.6373342604
 20
152.7713399259
 11
224.1516011773
 21
152.4960032538
  0
LINE
  5
262
100
AcDbEntity
  8
KONSTRUKTIONSELEMENTE
100
AcDbLine
 62
7
  6
CONTINUOUS
 10
222.8551521179
 20
155.7242046107
 11
224.104081735
 21
155.0555321506
  0
LINE
  5
263
100
AcDbEntity
  8
KONSTRUKTIONSELEMENTE
100
AcDbLine
 62
7
  6
CONTINUOUS
 10
223.1564310176
 20
156.2869257683
 11
224.5522911569
 21
155.539587231
  0
LINE
  5
264
100
AcDbEntity
  8
KONSTRUKTIONSELEMENTE
100
AcDbLine
 62
7
  6
CONTINUOUS
 10
223.9096284075
 20
157.6937289253
 11
225.3054885468
 21
156.946390388
  0
LINE
  5
265
100
AcDbEntity
  8
KONSTRUKTIONSELEMENTE
100
AcDbLine
 62
7
  6
CONTINUOUS
 10
223.7198958645
 20
158.3986650562
 11
225.4830890354
 21
157.4546577247
  0
LINE
  5
266
100
AcDbEntity
  8
KONSTRUKTIONSELEMENTE
100
AcDbLine
 62
7
  6
CONTINUOUS
 10
225.7607940318
 20
151.298723549
 11
226.3478235014
 21
150.8319298024
  0
LINE
  5
267
100
AcDbEntity
  8
KONSTRUKTIONSELEMENTE
100
AcDbLine
 62
7
  6
CONTINUOUS
 10
226.1580653046
 20
151.7983230963
 11
226.7450947741
 21
151.3315293497
  0
LINE
  5
268
100
AcDbEntity
  8
KONSTRUKTIONSELEMENTE
100
AcDbLine
 62
7
  6
CONTINUOUS
 10
227.606833621
 20
152.5491292202
 11
228.1938630905
 21
152.0823354736
  0
LINE
  5
269
100
AcDbEntity
  8
KONSTRUKTIONSELEMENTE
100
AcDbLine
 62
7
  6
CONTINUOUS
 10
198.8158891163
 20
155.4356651828
 11
199.1312114606
 21
155.1380184491
  0
LINE
  5
26A
100
AcDbEntity
  8
KONSTRUKTIONSELEMENTE
100
AcDbLine
 62
7
  6
CONTINUOUS
 10
194.931463411
 20
149.3933459722
 11
192.5677016861
 21
151.6930400469
  0
LINE
  5
26B
100
AcDbEntity
  8
KONSTRUKTIONSELEMENTE
100
AcDbLine
 62
7
  6
CONTINUOUS
 10
195.2801268667
 20
149.7517229148
 11
192.9163651419
 21
152.0514169896
  0
LINE
  5
26C
100
AcDbEntity
  8
KONSTRUKTIONSELEMENTE
100
AcDbLine
 62
7
  6
CONTINUOUS
 10
194.3110182999
 20
153.4849240767
 11
196.6747800247
 21
151.185230002
  0
LINE
  5
26D
100
AcDbEntity
  8
KONSTRUKTIONSELEMENTE
100
AcDbLine
 62
7
  6
CONTINUOUS
 10
194.6596815894
 20
153.8433008485
 11
197.0234433143
 21
151.5436067738
  0
LINE
  5
26E
100
AcDbEntity
  8
KONSTRUKTIONSELEMENTE
100
AcDbLine
 62
7
  6
CONTINUOUS
 10
199.1606986756
 20
155.8130559176
 11
199.5379062287
 21
155.4288781501
  0
LINE
  5
26F
100
AcDbEntity
  8
KONSTRUKTIONSELEMENTE
100
AcDbLine
 62
7
  6
CONTINUOUS
 10
192.7060240671
 20
148.9326080864
 11
192.4889867852
 21
149.1809934093
  0
LINE
  5
270
100
AcDbEntity
  8
KONSTRUKTIONSELEMENTE
100
AcDbLine
 62
7
  6
CONTINUOUS
 10
193.0751731453
 20
149.2862269399
 11
192.8581358634
 21
149.5346122627
  0
LINE
  5
271
100
AcDbEntity
  8
0
100
AcDbLine
 62
7
  6
CONTINUOUS
 10
117.6076605422
 20
487.439016104
 11
117.6076605422
 21
327.439016104
  0
LINE
  5
272
100
AcDbEntity
  8
KONSTRUKTIONSELEMENTE
100
AcDbLine
 62
7
  6
CONTINUOUS
 10
228.0041048474
 20
153.0487287092
 11
228.9824872966
 21
152.2707391314
  0
LINE
  5
273
100
AcDbEntity
  8
KONSTRUKTIONSELEMENTE
100
AcDbLine
 62
7
  6
CONTINUOUS
 10
229.1870411565
 20
153.331334196
 11
229.5783941362
 21
153.0201383649
  0
LINE
  5
274
100
AcDbEntity
  8
KONSTRUKTIONSELEMENTE
100
AcDbLine
 62
7
  6
CONTINUOUS
 10
228.4754811165
 20
154.7126538569
 11
229.062510586
 21
154.2458601102
  0
LINE
  5
275
100
AcDbEntity
  8
KONSTRUKTIONSELEMENTE
100
AcDbLine
 62
7
  6
CONTINUOUS
 10
228.8727523428
 20
155.2122533458
 11
229.4597818124
 21
154.7454595992
  0
LINE
  5
276
100
AcDbEntity
  8
KONSTRUKTIONSELEMENTE
100
AcDbLine
 62
7
  6
CONTINUOUS
 10
225.4830890354
 20
157.4546577247
 11
225.8002089171
 21
157.1642020708
  0
LINE
  5
277
100
AcDbEntity
  8
KONSTRUKTIONSELEMENTE
100
AcDbLine
 62
7
  6
CONTINUOUS
 10
232.3584119892
 20
144.0518585
 11
232.6384135105
 21
143.7254760933
  0
LINE
  5
278
100
AcDbEntity
  8
KONSTRUKTIONSELEMENTE
100
AcDbLine
 62
7
  6
CONTINUOUS
 10
197.3465844946
 20
151.112958849
 11
197.0234433143
 21
151.5436067738
  0
LINE
  5
279
100
AcDbEntity
  8
KONSTRUKTIONSELEMENTE
100
AcDbLine
 62
7
  6
CONTINUOUS
 10
198.7450443037
 20
150.8073588862
 11
195.8364472941
 21
154.8743065668
  0
LINE
  5
27A
100
AcDbEntity
  8
KONSTRUKTIONSELEMENTE
100
AcDbLine
 62
7
  6
CONTINUOUS
 10
198.7804288161
 20
151.6174033962
 11
196.6144522745
 21
154.6459815193
  0
LINE
  5
27B
100
AcDbEntity
  8
KONSTRUKTIONSELEMENTE
100
AcDbLine
 62
7
  6
CONTINUOUS
 10
199.1312114606
 20
155.1380184491
 11
200.059487078
 21
153.840056457
  0
LINE
  5
27C
100
AcDbEntity
  8
KONSTRUKTIONSELEMENTE
100
AcDbLine
 62
7
  6
CONTINUOUS
 10
199.5379062287
 20
155.4288781501
 11
200.466181846
 21
154.1309161579
  0
LINE
  5
27D
100
AcDbEntity
  8
KONSTRUKTIONSELEMENTE
100
AcDbLine
 62
7
  6
CONTINUOUS
 10
196.9216708372
 20
150.828765747
 11
196.6747800247
 21
151.185230002
  0
LINE
  5
27E
100
AcDbEntity
  8
KONSTRUKTIONSELEMENTE
100
AcDbLine
 62
7
  6
CONTINUOUS
 10
235.6070317272
 20
146.1224508607
 11
235.8870349389
 21
145.7960650343
  0
LINE
  5
27F
100
AcDbEntity
  8
KONSTRUKTIONSELEMENTE
100
AcDbLine
 62
7
  6
CONTINUOUS
 10
225.3054885468
 20
156.946390388
 11
225.4756745432
 21
156.7346026119
  0
LINE
  5
280
100
AcDbEntity
  8
KONSTRUKTIONSELEMENTE
100
AcDbLine
 62
7
  6
CONTINUOUS
 10
231.8815710464
 20
143.8161549124
 11
232.1985005976
 21
143.4150651506
  0
LINE
  5
281
100
AcDbEntity
  8
KONSTRUKTIONSELEMENTE
100
AcDbLine
 62
7
  6
CONTINUOUS
 10
236.046946272
 20
146.4328583548
 11
236.3638758148
 21
146.0317685888
  0
LINE
  5
282
100
AcDbEntity
  8
KONSTRUKTIONSELEMENTE
100
AcDbLine
 62
7
  6
CONTINUOUS
 10
225.5008774304
 20
151.6413207885
 11
225.7607940318
 21
151.298723549
  0
LINE
  5
283
100
AcDbEntity
  8
KONSTRUKTIONSELEMENTE
100
AcDbLine
 62
7
  6
CONTINUOUS
 10
229.4597818124
 20
154.7454595992
 11
229.7196954338
 21
154.4028647413
  0
LINE
  5
284
100
AcDbEntity
  8
0
100
AcDbLine
 62
7
  6
CONTINUOUS
 10
242.3576605422
 20
143.9553770669
 11
230.9941717075
 21
159.5958776525
  0
LINE
  5
285
100
AcDbEntity
  8
KONSTRUKTIONSELEMENTE
100
AcDbLine
 62
7
  6
CONTINUOUS
 10
225.9633731987
 20
152.089055148
 11
226.1580653046
 21
151.7983230963
  0
LINE
  5
286
100
AcDbEntity
  8
KONSTRUKTIONSELEMENTE
100
AcDbLine
 62
7
  6
CONTINUOUS
 10
229.062510586
 20
154.2458601102
 11
229.2571997061
 21
153.9551304327
  0
LINE
  5
287
100
AcDbEntity
  8
KONSTRUKTIONSELEMENTE
100
AcDbLine
 62
7
  6
CONTINUOUS
 10
230.5548751234
 20
146.127406568
 11
230.8301865295
 21
145.7100294847
  0
LINE
  5
288
100
AcDbEntity
  8
KONSTRUKTIONSELEMENTE
100
AcDbLine
 62
7
  6
CONTINUOUS
 10
234.7286459562
 20
148.8805206294
 11
235.0039573623
 21
148.4631435461
  0
LINE
  5
289
100
AcDbEntity
  8
KONSTRUKTIONSELEMENTE
100
AcDbLine
 62
7
  6
CONTINUOUS
 10
200.7078248202
 20
153.649785769
 11
200.466181846
 21
154.1309161579
  0
LINE
  5
28A
100
AcDbEntity
  8
KONSTRUKTIONSELEMENTE
100
AcDbLine
 62
7
  6
CONTINUOUS
 10
193.2864499881
 20
148.8402006367
 11
193.0751731453
 21
149.2862269399
  0
LINE
  5
28B
100
AcDbEntity
  8
KONSTRUKTIONSELEMENTE
100
AcDbLine
 62
7
  6
CONTINUOUS
 10
200.2392450167
 20
153.4454568595
 11
200.059487078
 21
153.840056457
  0
LINE
  5
28C
100
AcDbEntity
  8
KONSTRUKTIONSELEMENTE
100
AcDbLine
 62
7
  6
CONTINUOUS
 10
197.5353650339
 20
150.6967653079
 11
197.3465844946
 21
151.112958849
  0
LINE
  5
28D
100
AcDbEntity
  8
KONSTRUKTIONSELEMENTE
100
AcDbLine
 62
7
  6
CONTINUOUS
 10
192.7882306018
 20
148.6751411336
 11
192.7060240671
 21
148.9326080864
  0
LINE
  5
28E
100
AcDbEntity
  8
RUNDUNGEN
100
AcDbLine
 62
7
  6
CONTINUOUS
 10
187.518547721
 20
105.9288577109
 11
182.8576605422
 21
124.6226551411
  0
LINE
  5
28F
100
AcDbEntity
  8
KONSTRUKTIONSELEMENTE
100
AcDbLine
 62
7
  6
CONTINUOUS
 10
197.0342009552
 20
150.4867559277
 11
196.9216708372
 21
150.828765747
  0
LINE
  5
290
100
AcDbEntity
  8
KONSTRUKTIONSELEMENTE
100
AcDbLine
 62
7
  6
CONTINUOUS
 10
200.8197998238
 20
153.2067091243
 11
200.7078248202
 21
153.649785769
  0
LINE
  5
291
100
AcDbEntity
  8
KONSTRUKTIONSELEMENTE
100
AcDbLine
 62
7
  6
CONTINUOUS
 10
173.2522907861
 20
50.1420113793
 11
173.2522907861
 21
53.6775452852
  0
LINE
  5
292
100
AcDbEntity
  8
KONSTRUKTIONSELEMENTE
100
AcDbLine
 62
7
  6
CONTINUOUS
 10
179.8983565445
 20
39.8688350226
 11
179.8983565445
 21
42.6972621474
  0
LINE
  5
293
100
AcDbEntity
  8
KONSTRUKTIONSELEMENTE
100
AcDbLine
 62
7
  6
CONTINUOUS
 10
180.2502039948
 20
38.7465990829
 11
180.2502039948
 21
39.1001524735
  0
LINE
  5
294
100
AcDbEntity
  8
0
100
AcDbLine
 62
7
  6
CONTINUOUS
 10
182.8576605422
 20
143.9553770669
 11
182.8576605422
 21
124.6226551411
  0
LINE
  5
295
100
AcDbEntity
  8
RUNDUNGEN
100
AcDbLine
 62
7
  6
CONTINUOUS
 10
187.6076605422
 20
89.7669565726
 11
187.6076605422
 21
117.2853262364
  0
LINE
  5
296
100
AcDbEntity
  8
KONSTRUKTIONSELEMENTE
100
AcDbLine
 62
7
  6
CONTINUOUS
 10
225.3724001987
 20
152.0153170693
 11
225.5008774304
 21
151.6413207885
  0
LINE
  5
297
100
AcDbEntity
  8
KONSTRUKTIONSELEMENTE
100
AcDbLine
 62
7
  6
CONTINUOUS
 10
229.7196954338
 20
154.4028647413
 11
229.8481756687
 21
154.0288661081
  0
LINE
  5
298
100
AcDbEntity
  8
KONSTRUKTIONSELEMENTE
100
AcDbLine
 62
7
  6
CONTINUOUS
 10
225.8002089171
 20
157.1642020708
 11
225.9434338747
 21
156.7255075369
  0
LINE
  5
299
100
AcDbEntity
  8
KONSTRUKTIONSELEMENTE
100
AcDbLine
 62
7
  6
CONTINUOUS
 10
231.7553778623
 20
144.3115261043
 11
231.8815710464
 21
143.8161549124
  0
LINE
  5
29A
100
AcDbEntity
  8
KONSTRUKTIONSELEMENTE
100
AcDbLine
 62
7
  6
CONTINUOUS
 10
200.2893349416
 20
153.0889110667
 11
200.2392450167
 21
153.4454568595
  0
LINE
  5
29B
100
AcDbEntity
  8
KONSTRUKTIONSELEMENTE
100
AcDbLine
 62
7
  6
CONTINUOUS
 10
197.6079242283
 20
150.1611126411
 11
197.5353650339
 21
150.6967653079
  0
LINE
  5
29C
100
AcDbEntity
  8
KONSTRUKTIONSELEMENTE
100
AcDbLine
 62
7
  6
CONTINUOUS
 10
198.3541552526
 20
102.1992701419
 11
198.3541552526
 21
95.539016104
  0
LINE
  5
29D
100
AcDbEntity
  8
BEZUGSACHSEN
100
AcDbLine
 62
7
  6
CONTINUOUS
 10
198.3541552526
 20
81.539016104
 11
198.3541552526
 21
88.1427896889
  0
LINE
  5
29E
100
AcDbEntity
  8
0
100
AcDbLine
 62
7
  6
CONTINUOUS
 10
203.6076605422
 20
241.3817912284
 11
203.6076605422
 21
138.4962409796
  0
LINE
  5
29F
100
AcDbEntity
  8
KONSTRUKTIONSELEMENTE
100
AcDbLine
 62
7
  6
CONTINUOUS
 10
204.6076605422
 20
83.5644986893
 11
204.6076605422
 21
74.1009209874
  0
LINE
  5
2A0
100
AcDbEntity
  8
KONSTRUKTIONSELEMENTE
100
AcDbLine
 62
7
  6
CONTINUOUS
 10
206.0576605422
 20
5.9459380224
 11
206.0576605422
 21
-4.3879317243
  0
LINE
  5
2A1
100
AcDbEntity
  8
BEZUGSACHSEN
100
AcDbLine
 62
7
  6
CONTINUOUS
 10
207.0076605422
 20
95.539016104
 11
207.0076605422
 21
84.0426992158
  0
LINE
  5
2A2
100
AcDbEntity
  8
KONSTRUKTIONSELEMENTE
100
AcDbLine
 62
7
  6
CONTINUOUS
 10
207.0076605422
 20
95.539016104
 11
207.0076605422
 21
108.939016104
  0
LINE
  5
2A3
100
AcDbEntity
  8
KONSTRUKTIONSELEMENTE
100
AcDbLine
 62
7
  6
CONTINUOUS
 10
208.0576605422
 20
-5.8021452867
 11
208.0576605422
 21
5.5115632123
  0
LINE
  5
2A4
100
AcDbEntity
  8
KONSTRUKTIONSELEMENTE
100
AcDbLine
 62
7
  6
CONTINUOUS
 10
209.1076605422
 20
113.3008535495
 11
209.1076605422
 21
105.2136193596
  0
LINE
  5
2A5
100
AcDbEntity
  8
KONSTRUKTIONSELEMENTE
100
AcDbLine
 62
7
  6
CONTINUOUS
 10
209.1076605422
 20
84.7075227052
 11
209.1076605422
 21
74.1009209874
  0
LINE
  5
2A6
100
AcDbEntity
  8
KONSTRUKTIONSELEMENTE
100
AcDbLine
 62
7
  6
CONTINUOUS
 10
210.1076605422
 20
129.7994826565
 11
210.1076605422
 21
121.2810104761
  0
LINE
  5
2A7
100
AcDbEntity
  8
KONSTRUKTIONSELEMENTE
100
AcDbLine
 62
7
  6
CONTINUOUS
 10
210.1076605422
 20
75.0779502144
 11
210.1076605422
 21
57.5675425743
  0
LINE
  5
2A8
100
AcDbEntity
  8
KONSTRUKTIONSELEMENTE
100
AcDbLine
 62
7
  6
CONTINUOUS
 10
210.3576605422
 20
106.0138718913
 11
210.3576605422
 21
101.589016104
  0
LINE
  5
2A9
100
AcDbEntity
  8
KONSTRUKTIONSELEMENTE
100
AcDbLine
 62
7
  6
CONTINUOUS
 10
210.3576605422
 20
89.489016104
 11
210.3576605422
 21
83.9072701735
  0
LINE
  5
2AA
100
AcDbEntity
  8
KONSTRUKTIONSELEMENTE
100
AcDbLine
 62
7
  6
CONTINUOUS
 10
214.8576605422
 20
106.0138718913
 11
214.8576605422
 21
101.589016104
  0
LINE
  5
2AB
100
AcDbEntity
  8
KONSTRUKTIONSELEMENTE
100
AcDbLine
 62
7
  6
CONTINUOUS
 10
214.8576605422
 20
89.489016104
 11
214.8576605422
 21
83.9072701735
  0
LINE
  5
2AC
100
AcDbEntity
  8
KONSTRUKTIONSELEMENTE
100
AcDbLine
 62
7
  6
CONTINUOUS
 10
215.1076605422
 20
129.7994826565
 11
215.1076605422
 21
121.2810104761
  0
LINE
  5
2AD
100
AcDbEntity
  8
KONSTRUKTIONSELEMENTE
100
AcDbLine
 62
7
  6
CONTINUOUS
 10
215.1076605422
 20
75.0779502144
 11
215.1076605422
 21
57.5675425743
  0
LINE
  5
2AE
100
AcDbEntity
  8
KONSTRUKTIONSELEMENTE
100
AcDbLine
 62
7
  6
CONTINUOUS
 10
193.2749292441
 20
148.4449188734
 11
193.2864499881
 21
148.8402006367
  0
LINE
  5
2AF
100
AcDbEntity
  8
KONSTRUKTIONSELEMENTE
100
AcDbLine
 62
7
  6
CONTINUOUS
 10
200.7962104001
 20
152.666679646
 11
200.8197998238
 21
153.2067091243
  0
LINE
  5
2B0
100
AcDbEntity
  8
KONSTRUKTIONSELEMENTE
100
AcDbLine
 62
7
  6
CONTINUOUS
 10
197.0123700996
 20
150.1592001503
 11
197.0342009552
 21
150.4867559277
  0
LINE
  5
2B1
100
AcDbEntity
  8
KONSTRUKTIONSELEMENTE
100
AcDbLine
 62
7
  6
CONTINUOUS
 10
236.3638758148
 20
146.0317685888
 11
236.4900690073
 21
145.5363974011
  0
LINE
  5
2B2
100
AcDbEntity
  8
KONSTRUKTIONSELEMENTE
100
AcDbLine
 62
7
  6
CONTINUOUS
 10
232.2691451279
 20
144.4725257481
 11
232.3584119892
 21
144.0518585
  0
LINE
  5
2B3
100
AcDbEntity
  8
KONSTRUKTIONSELEMENTE
100
AcDbLine
 62
7
  6
CONTINUOUS
 10
235.8870349389
 20
145.7960650343
 11
235.9763001098
 21
145.3754012059
  0
LINE
  5
2B4
100
AcDbEntity
  8
KONSTRUKTIONSELEMENTE
100
AcDbLine
 62
7
  6
CONTINUOUS
 10
225.9001204973
 20
152.4111862849
 11
225.9633731987
 21
152.089055148
  0
LINE
  5
2B5
100
AcDbEntity
  8
KONSTRUKTIONSELEMENTE
100
AcDbLine
 62
7
  6
CONTINUOUS
 10
229.2571997061
 20
153.9551304327
 11
229.3204524538
 21
153.6329993542
  0
LINE
  5
2B6
100
AcDbEntity
  8
KONSTRUKTIONSELEMENTE
100
AcDbLine
 62
7
  6
CONTINUOUS
 10
225.4756745432
 20
156.7346026119
 11
225.5221821286
 21
156.4683610149
  0
LINE
  5
2B7
100
AcDbEntity
  8
KONSTRUKTIONSELEMENTE
100
AcDbLine
 62
7
  6
CONTINUOUS
 10
225.9434338747
 20
156.7255075369
 11
225.9629804213
 21
156.232359182
  0
LINE
  5
2B8
100
AcDbEntity
  8
KONSTRUKTIONSELEMENTE
100
AcDbLine
 62
7
  6
CONTINUOUS
 10
216.1076605422
 20
74.1009209874
 11
216.1076605422
 21
84.7075227052
  0
LINE
  5
2B9
100
AcDbEntity
  8
KONSTRUKTIONSELEMENTE
100
AcDbLine
 62
7
  6
CONTINUOUS
 10
216.1076605422
 20
105.2136193596
 11
216.1076605422
 21
113.3008535495
  0
LINE
  5
2BA
100
AcDbEntity
  8
KONSTRUKTIONSELEMENTE
100
AcDbLine
 62
7
  6
CONTINUOUS
 10
217.1576605422
 20
-5.8021452867
 11
217.1576605422
 21
5.5115632123
  0
LINE
  5
2BB
100
AcDbEntity
  8
BEZUGSACHSEN
100
AcDbLine
 62
7
  6
CONTINUOUS
 10
218.2076605422
 20
84.0426992158
 11
218.2076605422
 21
95.539016104
  0
LINE
  5
2BC
100
AcDbEntity
  8
KONSTRUKTIONSELEMENTE
100
AcDbLine
 62
7
  6
CONTINUOUS
 10
218.2076605422
 20
95.539016104
 11
218.2076605422
 21
108.939016104
  0
LINE
  5
2BD
100
AcDbEntity
  8
KONSTRUKTIONSELEMENTE
100
AcDbLine
 62
7
  6
CONTINUOUS
 10
219.1576605422
 20
-4.3879317243
 11
219.1576605422
 21
5.8651166029
  0
LINE
  5
2BE
100
AcDbEntity
  8
KONSTRUKTIONSELEMENTE
100
AcDbLine
 62
7
  6
CONTINUOUS
 10
220.6076605422
 20
74.1009209874
 11
220.6076605422
 21
83.5644986893
  0
LINE
  5
2BF
100
AcDbEntity
  8
0
100
AcDbLine
 62
7
  6
CONTINUOUS
 10
221.6076605422
 20
241.3817912284
 11
221.6076605422
 21
138.4962409796
  0
LINE
  5
2C0
100
AcDbEntity
  8
KONSTRUKTIONSELEMENTE
100
AcDbLine
 62
7
  6
CONTINUOUS
 10
226.8611658318
 20
102.1992701419
 11
226.8611658318
 21
95.539016104
  0
LINE
  5
2C1
100
AcDbEntity
  8
BEZUGSACHSEN
100
AcDbLine
 62
7
  6
CONTINUOUS
 10
226.8611658318
 20
88.1427896889
 11
226.8611658318
 21
81.539016104
  0
LINE
  5
2C2
100
AcDbEntity
  8
KONSTRUKTIONSELEMENTE
100
AcDbLine
 62
7
  6
CONTINUOUS
 10
225.3763437292
 20
152.5558488947
 11
225.3724001987
 21
152.0153170693
  0
LINE
  5
2C3
100
AcDbEntity
  8
KONSTRUKTIONSELEMENTE
100
AcDbLine
 62
7
  6
CONTINUOUS
 10
229.8481756687
 20
154.0288661081
 11
229.8442291756
 21
153.4883366861
  0
LINE
  5
2C4
100
AcDbEntity
  8
KONSTRUKTIONSELEMENTE
100
AcDbLine
 62
7
  6
CONTINUOUS
 10
192.7356065233
 20
148.4085927481
 11
192.7882306018
 21
148.6751411336
  0
LINE
  5
2C5
100
AcDbEntity
  8
KONSTRUKTIONSELEMENTE
100
AcDbLine
 62
7
  6
CONTINUOUS
 10
197.5279826802
 20
149.7738273203
 11
197.6079242283
 21
150.1611126411
  0
LINE
  5
2C6
100
AcDbEntity
  8
KONSTRUKTIONSELEMENTE
100
AcDbLine
 62
7
  6
CONTINUOUS
 10
200.2097576717
 20
152.7704195728
 11
200.2893349416
 21
153.0889110667
  0
LINE
  5
2C7
100
AcDbEntity
  8
RUNDUNGEN
100
AcDbLine
 62
7
  6
CONTINUOUS
 10
237.6076605422
 20
89.7669565726
 11
237.6076605422
 21
117.2853262364
  0
LINE
  5
2C8
100
AcDbEntity
  8
KONSTRUKTIONSELEMENTE
100
AcDbLine
 62
7
  6
CONTINUOUS
 10
239.8070317813
 20
14.4609309062
 11
239.8070317813
 21
10.9253970003
  0
LINE
  5
2C9
100
AcDbEntity
  8
0
100
AcDbLine
 62
7
  6
CONTINUOUS
 10
242.3576605422
 20
124.6226551411
 11
242.3576605422
 21
143.9553770669
  0
LINE
  5
2CA
100
AcDbEntity
  8
KONSTRUKTIONSELEMENTE
100
AcDbLine
 62
7
  6
CONTINUOUS
 10
225.9683071078
 20
152.7647163902
 11
225.9001204973
 21
152.4111862849
  0
LINE
  5
2CB
100
AcDbEntity
  8
KONSTRUKTIONSELEMENTE
100
AcDbLine
 62
7
  6
CONTINUOUS
 10
224.6453063276
 20
155.007104037
 11
224.1516011773
 21
152.4960032538
  0
LINE
  5
2CC
100
AcDbEntity
  8
KONSTRUKTIONSELEMENTE
100
AcDbLine
 62
7
  6
CONTINUOUS
 10
224.104081735
 20
155.0555321506
 11
223.6373342604
 21
152.7713399259
  0
LINE
  5
2CD
100
AcDbEntity
  8
KONSTRUKTIONSELEMENTE
100
AcDbLine
 62
7
  6
CONTINUOUS
 10
225.5221821286
 20
156.4683610149
 11
225.4450079399
 21
156.1476673974
  0
LINE
  5
2CE
100
AcDbEntity
  8
KONSTRUKTIONSELEMENTE
100
AcDbLine
 62
7
  6
CONTINUOUS
 10
225.9629804213
 20
156.232359182
 11
225.8858062326
 21
155.9116655645
  0
LINE
  5
2CF
100
AcDbEntity
  8
KONSTRUKTIONSELEMENTE
100
AcDbLine
 62
7
  6
CONTINUOUS
 10
200.6488509004
 20
152.2997117581
 11
200.7962104001
 21
152.666679646
  0
LINE
  5
2D0
100
AcDbEntity
  8
KONSTRUKTIONSELEMENTE
100
AcDbLine
 62
7
  6
CONTINUOUS
 10
262.8387237427
 20
50.0915104205
 11
262.8387237427
 21
46.5559765145
  0
LINE
  5
2D1
100
AcDbEntity
  8
KONSTRUKTIONSELEMENTE
100
AcDbLine
 62
7
  6
CONTINUOUS
 10
231.8568473765
 20
144.8264747867
 11
231.7553778623
 21
144.3115261043
  0
LINE
  5
2D2
100
AcDbEntity
  8
KONSTRUKTIONSELEMENTE
100
AcDbLine
 62
7
  6
CONTINUOUS
 10
236.4900690073
 20
145.5363974011
 11
236.3885978278
 21
145.0214521508
  0
LINE
  5
2D3
100
AcDbEntity
  8
KONSTRUKTIONSELEMENTE
100
AcDbLine
 62
7
  6
CONTINUOUS
 10
232.3491007944
 20
144.7909224083
 11
232.2691451279
 21
144.4725257481
  0
LINE
  5
2D4
100
AcDbEntity
  8
KONSTRUKTIONSELEMENTE
100
AcDbLine
 62
7
  6
CONTINUOUS
 10
235.9763001098
 20
145.3754012059
 11
235.8963444432
 21
145.0570045457
  0
LINE
  5
2D5
100
AcDbEntity
  8
KONSTRUKTIONSELEMENTE
100
AcDbLine
 62
7
  6
CONTINUOUS
 10
225.5107422571
 20
152.9926456398
 11
225.3763437292
 21
152.5558488947
  0
LINE
  5
2D6
100
AcDbEntity
  8
KONSTRUKTIONSELEMENTE
100
AcDbLine
 62
7
  6
CONTINUOUS
 10
196.8561781637
 20
149.8460985187
 11
197.0123700996
 21
150.1592001503
  0
LINE
  5
2D7
100
AcDbEntity
  8
KONSTRUKTIONSELEMENTE
100
AcDbLine
 62
7
  6
CONTINUOUS
 10
197.3136804244
 20
149.4009964481
 11
197.5279826802
 21
149.7738273203
  0
LINE
  5
2D8
100
AcDbEntity
  8
KONSTRUKTIONSELEMENTE
100
AcDbLine
 62
7
  6
CONTINUOUS
 10
189.8046747444
 20
147.8824256571
 11
190.9294031621
 21
149.5362049611
  0
LINE
  5
2D9
100
AcDbEntity
  8
KONSTRUKTIONSELEMENTE
100
AcDbLine
 62
7
  6
CONTINUOUS
 10
190.5256917177
 20
147.9967406204
 11
191.4161016704
 21
149.3059825037
  0
LINE
  5
2DA
100
AcDbEntity
  8
0
100
AcDbLine
 62
7
  6
CONTINUOUS
 10
194.2211493769
 20
159.5958776525
 11
182.8576605422
 21
143.9553770669
  0
LINE
  5
2DB
100
AcDbEntity
  8
RUNDUNGEN
100
AcDbLine
 62
7
  6
CONTINUOUS
 10
237.6967733634
 20
105.9288577109
 11
242.3576605422
 21
124.6226551411
  0
LINE
  5
2DC
100
AcDbEntity
  8
KONSTRUKTIONSELEMENTE
100
AcDbLine
 62
7
  6
CONTINUOUS
 10
229.3204524538
 20
153.6329993542
 11
229.1870411565
 21
153.331334196
  0
LINE
  5
2DD
100
AcDbEntity
  8
KONSTRUKTIONSELEMENTE
100
AcDbLine
 62
7
  6
CONTINUOUS
 10
232.0321712516
 20
145.1920121743
 11
231.8568473765
 21
144.8264747867
  0
LINE
  5
2DE
100
AcDbEntity
  8
KONSTRUKTIONSELEMENTE
100
AcDbLine
 62
7
  6
CONTINUOUS
 10
236.3885978278
 20
145.0214521508
 11
236.2132739861
 21
144.6559147797
  0
LINE
  5
2DF
100
AcDbEntity
  8
KONSTRUKTIONSELEMENTE
100
AcDbLine
 62
7
  6
CONTINUOUS
 10
226.167927105
 20
153.1496502709
 11
225.9683071078
 21
152.7647163902
  0
LINE
  5
2E0
100
AcDbEntity
  8
KONSTRUKTIONSELEMENTE
100
AcDbLine
 62
7
  6
CONTINUOUS
 10
221.6076605422
 20
154.4534850018
 11
223.7198958645
 21
158.3986650562
  0
LINE
  5
2E1
100
AcDbEntity
  8
KONSTRUKTIONSELEMENTE
100
AcDbLine
 62
7
  6
CONTINUOUS
 10
221.8006758284
 20
153.754680296
 11
222.8551521179
 21
155.7242046107
  0
LINE
  5
2E2
100
AcDbEntity
  8
KONSTRUKTIONSELEMENTE
100
AcDbLine
 62
7
  6
CONTINUOUS
 10
223.1564310176
 20
156.2869257683
 11
223.9096284075
 21
157.6937289253
  0
LINE
  5
2E3
100
AcDbEntity
  8
KONSTRUKTIONSELEMENTE
100
AcDbLine
 62
7
  6
CONTINUOUS
 10
225.4450079399
 20
156.1476673974
 11
225.2943683493
 21
155.8663065558
  0
LINE
  5
2E4
100
AcDbEntity
  8
KONSTRUKTIONSELEMENTE
100
AcDbLine
 62
7
  6
CONTINUOUS
 10
225.8858062326
 20
155.9116655645
 11
225.6849534921
 21
155.5365178633
  0
LINE
  5
2E5
100
AcDbEntity
  8
KONSTRUKTIONSELEMENTE
100
AcDbLine
 62
7
  6
CONTINUOUS
 10
225.7765741253
 20
153.460846102
 11
225.5107422571
 21
152.9926456398
  0
LINE
  5
2E6
100
AcDbEntity
  8
KONSTRUKTIONSELEMENTE
100
AcDbLine
 62
7
  6
CONTINUOUS
 10
229.8442291756
 20
153.4883366861
 11
229.5783941362
 21
153.0201383649
  0
LINE
  5
2E7
100
AcDbEntity
  8
KONSTRUKTIONSELEMENTE
100
AcDbLine
 62
7
  6
CONTINUOUS
 10
191.8451965707
 20
147.0993508648
 11
192.7356065233
 21
148.4085927481
  0
LINE
  5
2E8
100
AcDbEntity
  8
KONSTRUKTIONSELEMENTE
100
AcDbLine
 62
7
  6
CONTINUOUS
 10
192.3729984133
 20
146.7403950296
 11
193.1696810202
 21
147.9118220037
  0
LINE
  5
2E9
100
AcDbEntity
  8
KONSTRUKTIONSELEMENTE
100
AcDbLine
 62
7
  6
CONTINUOUS
 10
193.9391230044
 20
145.0706046127
 11
194.2203051089
 21
145.4840494387
  0
LINE
  5
2EA
100
AcDbEntity
  8
KONSTRUKTIONSELEMENTE
100
AcDbLine
 62
7
  6
CONTINUOUS
 10
195.391897166
 20
147.206736148
 11
195.7199430439
 21
147.6890885765
  0
LINE
  5
2EB
100
AcDbEntity
  8
KONSTRUKTIONSELEMENTE
100
AcDbLine
 62
7
  6
CONTINUOUS
 10
200.0005131203
 20
152.4899824991
 11
200.2097576717
 21
152.7704195728
  0
LINE
  5
2EC
100
AcDbEntity
  8
KONSTRUKTIONSELEMENTE
100
AcDbLine
 62
7
  6
CONTINUOUS
 10
200.3718233759
 20
151.9707976901
 11
200.6488509004
 21
152.2997117581
  0
LINE
  5
2ED
100
AcDbEntity
  8
KONSTRUKTIONSELEMENTE
100
AcDbLine
 62
7
  6
CONTINUOUS
 10
192.5677016861
 20
151.6930400469
 11
192.9163651419
 21
152.0514169896
  0
LINE
  5
2EE
100
AcDbEntity
  8
KONSTRUKTIONSELEMENTE
100
AcDbLine
 62
7
  6
CONTINUOUS
 10
194.3110182999
 20
153.4849240767
 11
194.6596815894
 21
153.8433008485
  0
LINE
  5
2EF
100
AcDbEntity
  8
0
100
AcDbLine
 62
7
  6
CONTINUOUS
 10
307.6076605422
 20
327.439016104
 11
307.6076605422
 21
487.439016104
  0
LINE
  5
2F0
100
AcDbEntity
  8
KONSTRUKTIONSELEMENTE
100
AcDbLine
 62
7
  6
CONTINUOUS
 10
232.7736028974
 20
145.3725858847
 11
232.3491007944
 21
144.7909224083
  0
LINE
  5
2F1
100
AcDbEntity
  8
KONSTRUKTIONSELEMENTE
100
AcDbLine
 62
7
  6
CONTINUOUS
 10
235.8963444432
 20
145.0570045457
 11
235.4718438302
 21
144.4753375505
  0
LINE
  5
2F2
100
AcDbEntity
  8
KONSTRUKTIONSELEMENTE
100
AcDbLine
 62
7
  6
CONTINUOUS
 10
225.7765741253
 20
153.460846102
 11
226.769752284
 21
154.7098449411
  0
LINE
  5
2F3
100
AcDbEntity
  8
KONSTRUKTIONSELEMENTE
100
AcDbLine
 62
7
  6
CONTINUOUS
 10
226.167927105
 20
153.1496502709
 11
227.1611052637
 21
154.39864911
  0
LINE
  5
2F4
100
AcDbEntity
  8
KONSTRUKTIONSELEMENTE
100
AcDbLine
 62
7
  6
CONTINUOUS
 10
228.0041048474
 20
153.0487287092
 11
227.606833621
 21
152.5491292202
  0
LINE
  5
2F5
100
AcDbEntity
  8
KONSTRUKTIONSELEMENTE
100
AcDbLine
 62
7
  6
CONTINUOUS
 10
228.1938630905
 20
152.0823354736
 11
227.6641680293
 21
151.416202705
  0
LINE
  5
2F6
100
AcDbEntity
  8
KONSTRUKTIONSELEMENTE
100
AcDbLine
 62
7
  6
CONTINUOUS
 10
228.9824872966
 20
152.2707391314
 11
227.9893091379
 21
151.0217402924
  0
LINE
  5
2F7
100
AcDbEntity
  8
KONSTRUKTIONSELEMENTE
100
AcDbLine
 62
7
  6
CONTINUOUS
 10
225.0702636384
 20
155.6242790156
 11
225.2943683493
 21
155.8663065558
  0
LINE
  5
2F8
100
AcDbEntity
  8
KONSTRUKTIONSELEMENTE
100
AcDbLine
 62
7
  6
CONTINUOUS
 10
225.4608487812
 20
155.2944903231
 11
225.6849534921
 21
155.5365178633
  0
LINE
  5
2F9
100
AcDbEntity
  8
KONSTRUKTIONSELEMENTE
100
AcDbLine
 62
7
  6
CONTINUOUS
 10
196.6237358598
 20
149.6071805569
 11
196.8561781637
 21
149.8460985187
  0
LINE
  5
2FA
100
AcDbEntity
  8
KONSTRUKTIONSELEMENTE
100
AcDbLine
 62
7
  6
CONTINUOUS
 10
197.0812381205
 20
149.1620784863
 11
197.3136804244
 21
149.4009964481
  0
LINE
  5
2FB
100
AcDbEntity
  8
KONSTRUKTIONSELEMENTE
100
AcDbLine
 62
7
  6
CONTINUOUS
 10
190.9294031621
 20
149.5362049611
 11
191.251688601
 21
149.8209164093
  0
LINE
  5
2FC
100
AcDbEntity
  8
KONSTRUKTIONSELEMENTE
100
AcDbLine
 62
7
  6
CONTINUOUS
 10
195.8364472941
 20
154.8743065668
 11
197.4632263663
 21
156.0377453706
  0
LINE
  5
2FD
100
AcDbEntity
  8
KONSTRUKTIONSELEMENTE
100
AcDbLine
 62
7
  6
CONTINUOUS
 10
196.6144522745
 20
154.6459815193
 11
197.8345365786
 21
155.5185606222
  0
LINE
  5
2FE
100
AcDbEntity
  8
0
100
AcDbLine
 62
7
  6
CONTINUOUS
 10
333.6076605422
 20
327.439016104
 11
333.6076605422
 21
487.439016104
  0
LINE
  5
2FF
100
AcDbEntity
  8
KONSTRUKTIONSELEMENTE
100
AcDbLine
 62
7
  6
CONTINUOUS
 10
232.3397896665
 20
145.5299863498
 11
232.0321712516
 21
145.1920121743
  0
LINE
  5
300
100
AcDbEntity
  8
KONSTRUKTIONSELEMENTE
100
AcDbLine
 62
7
  6
CONTINUOUS
 10
236.2132739861
 20
144.6559147797
 11
235.905655638
 21
144.3179406373
  0
LINE
  5
301
100
AcDbEntity
  8
KONSTRUKTIONSELEMENTE
100
AcDbLine
 62
7
  6
CONTINUOUS
 10
226.769752284
 20
154.7098449411
 11
227.1660393119
 21
155.0743105271
  0
LINE
  5
302
100
AcDbEntity
  8
KONSTRUKTIONSELEMENTE
100
AcDbLine
 62
7
  6
CONTINUOUS
 10
232.5889678609
 20
145.746112422
 11
232.3397896665
 21
145.5299863498
  0
LINE
  5
303
100
AcDbEntity
  8
KONSTRUKTIONSELEMENTE
100
AcDbLine
 62
7
  6
CONTINUOUS
 10
235.905655638
 20
144.3179406373
 11
235.6564771764
 21
144.1018144329
  0
LINE
  5
304
100
AcDbEntity
  8
KONSTRUKTIONSELEMENTE
100
AcDbLine
 62
7
  6
CONTINUOUS
 10
227.1611052637
 20
154.39864911
 11
227.4911802351
 21
154.6798478813
  0
LINE
  5
305
100
AcDbEntity
  8
KONSTRUKTIONSELEMENTE
100
AcDbLine
 62
7
  6
CONTINUOUS
 10
227.6592371059
 20
150.7405390885
 11
227.9893091379
 21
151.0217402924
  0
LINE
  5
306
100
AcDbEntity
  8
KONSTRUKTIONSELEMENTE
100
AcDbLine
 62
7
  6
CONTINUOUS
 10
227.4003079147
 20
151.2182681409
 11
227.6641680293
 21
151.416202705
  0
LINE
  5
307
100
AcDbEntity
  8
KONSTRUKTIONSELEMENTE
100
AcDbLine
 62
7
  6
CONTINUOUS
 10
198.7804288161
 20
151.6174033962
 11
200.0005131203
 21
152.4899824991
  0
LINE
  5
308
100
AcDbEntity
  8
KONSTRUKTIONSELEMENTE
100
AcDbLine
 62
7
  6
CONTINUOUS
 10
198.7450443037
 20
150.8073588862
 11
200.3718233759
 21
151.9707976901
  0
LINE
  5
309
100
AcDbEntity
  8
KONSTRUKTIONSELEMENTE
100
AcDbLine
 62
7
  6
CONTINUOUS
 10
191.4161016704
 20
149.3059825037
 11
191.6446596964
 21
149.4528789441
  0
LINE
  5
30A
100
AcDbEntity
  8
KONSTRUKTIONSELEMENTE
100
AcDbLine
 62
7
  6
CONTINUOUS
 10
196.7144351156
 20
148.9376149667
 11
197.0812381205
 21
149.1620784863
  0
LINE
  5
30B
100
AcDbEntity
  8
KONSTRUKTIONSELEMENTE
100
AcDbLine
 62
7
  6
CONTINUOUS
 10
225.039597035
 20
155.0373438011
 11
225.4608487812
 21
155.2944903231
  0
LINE
  5
30C
100
AcDbEntity
  8
KONSTRUKTIONSELEMENTE
100
AcDbLine
 62
7
  6
CONTINUOUS
 10
227.1660393119
 20
155.0743105271
 11
227.5613357989
 21
155.3036464922
  0
LINE
  5
30D
100
AcDbEntity
  8
KONSTRUKTIONSELEMENTE
100
AcDbLine
 62
7
  6
CONTINUOUS
 10
196.3150435206
 20
149.4424466067
 11
196.6237358598
 21
149.6071805569
  0
LINE
  5
30E
100
AcDbEntity
  8
KONSTRUKTIONSELEMENTE
100
AcDbLine
 62
7
  6
CONTINUOUS
 10
197.4632263663
 20
156.0377453706
 11
197.864023967
 21
156.1935978482
  0
LINE
  5
30F
100
AcDbEntity
  8
0
100
AcDbLine
 62
7
  6
CONTINUOUS
 10
203.6076605422
 20
162.645740009
 11
194.2211493769
 21
159.5958776525
  0
LINE
  5
310
100
AcDbEntity
  8
KONSTRUKTIONSELEMENTE
100
AcDbLine
 62
7
  6
CONTINUOUS
 10
197.8345365786
 20
155.5185606222
 11
198.1675512008
 21
155.6259361132
  0
LINE
  5
311
100
AcDbEntity
  8
RUNDUNGEN
100
AcDbLine
 62
7
  6
CONTINUOUS
 10
237.1397494284
 20
88.4813813532
 11
236.6635074321
 21
87.9138182431
  0
LINE
  5
312
100
AcDbEntity
  8
BEZUGSACHSEN
100
AcDbLine
 62
7
  6
CONTINUOUS
 10
236.6635074321
 20
87.9138182431
 11
231.9138868783
 21
82.2534408846
  0
LINE
  5
313
100
AcDbEntity
  8
KONSTRUKTIONSELEMENTE
100
AcDbLine
 62
7
  6
CONTINUOUS
 10
235.6564771764
 20
144.1018144329
 11
235.2165643219
 21
143.7914035191
  0
LINE
  5
314
100
AcDbEntity
  8
KONSTRUKTIONSELEMENTE
100
AcDbLine
 62
7
  6
CONTINUOUS
 10
233.0288825393
 20
146.0565199821
 11
232.5889678609
 21
145.746112422
  0
LINE
  5
315
100
AcDbEntity
  8
KONSTRUKTIONSELEMENTE
100
AcDbLine
 62
7
  6
CONTINUOUS
 10
233.3088840607
 20
145.7301375755
 11
232.7736028974
 21
145.3725858847
  0
LINE
  5
316
100
AcDbEntity
  8
KONSTRUKTIONSELEMENTE
100
AcDbLine
 62
7
  6
CONTINUOUS
 10
235.4718438302
 20
144.4753375505
 11
234.9365611102
 21
144.1177893455
  0
LINE
  5
317
100
AcDbEntity
  8
KONSTRUKTIONSELEMENTE
100
AcDbLine
 62
7
  6
CONTINUOUS
 10
233.1212799389
 20
148.4192442295
 11
233.831709181
 21
148.8878594971
  0
LINE
  5
318
100
AcDbEntity
  8
KONSTRUKTIONSELEMENTE
100
AcDbLine
 62
7
  6
CONTINUOUS
 10
230.5548751234
 20
146.127406568
 11
234.0182169629
 21
148.4119055259
  0
LINE
  5
319
100
AcDbEntity
  8
KONSTRUKTIONSELEMENTE
100
AcDbLine
 62
7
  6
CONTINUOUS
 10
235.0039573623
 20
148.4631435461
 11
230.8301865295
 21
145.7100294847
  0
LINE
  5
31A
100
AcDbEntity
  8
KONSTRUKTIONSELEMENTE
100
AcDbLine
 62
7
  6
CONTINUOUS
 10
233.0288825393
 20
146.0565199821
 11
233.8871961161
 21
146.4807863802
  0
LINE
  5
31B
100
AcDbEntity
  8
KONSTRUKTIONSELEMENTE
100
AcDbLine
 62
7
  6
CONTINUOUS
 10
233.3088840607
 20
145.7301375755
 11
233.976461287
 21
146.0601225518
  0
LINE
  5
31C
100
AcDbEntity
  8
KONSTRUKTIONSELEMENTE
100
AcDbLine
 62
7
  6
CONTINUOUS
 10
234.9365611102
 20
144.1177893455
 11
234.2689838839
 21
143.7878043692
  0
LINE
  5
31D
100
AcDbEntity
  8
KONSTRUKTIONSELEMENTE
100
AcDbLine
 62
7
  6
CONTINUOUS
 10
235.2165643219
 20
143.7914035191
 11
234.3582507452
 21
143.3671371211
  0
LINE
  5
31E
100
AcDbEntity
  8
KONSTRUKTIONSELEMENTE
100
AcDbLine
 62
7
  6
CONTINUOUS
 10
227.4911802351
 20
154.6798478813
 11
227.8202650364
 21
154.8259174982
  0
LINE
  5
31F
100
AcDbEntity
  8
KONSTRUKTIONSELEMENTE
100
AcDbLine
 62
7
  6
CONTINUOUS
 10
224.8229034532
 20
155.5153731742
 11
225.0702636384
 21
155.6242790156
  0
LINE
  5
320
100
AcDbEntity
  8
KONSTRUKTIONSELEMENTE
100
AcDbLine
 62
7
  6
CONTINUOUS
 10
233.976461287
 20
146.0601225518
 11
234.5855983597
 21
146.2682594579
  0
LINE
  5
321
100
AcDbEntity
  8
KONSTRUKTIONSELEMENTE
100
AcDbLine
 62
7
  6
CONTINUOUS
 10
233.659848368
 20
143.5796639774
 11
234.2689838839
 21
143.7878043692
  0
LINE
  5
322
100
AcDbEntity
  8
KONSTRUKTIONSELEMENTE
100
AcDbLine
 62
7
  6
CONTINUOUS
 10
233.8871961161
 20
146.4807863802
 11
234.4009633232
 21
146.6417859951
  0
LINE
  5
323
100
AcDbEntity
  8
KONSTRUKTIONSELEMENTE
100
AcDbLine
 62
7
  6
CONTINUOUS
 10
231.2088926699
 20
17.886723847
 11
248.7475505322
 21
44.4822637023
  0
LINE
  5
324
100
AcDbEntity
  8
KONSTRUKTIONSELEMENTE
100
AcDbLine
 62
7
  6
CONTINUOUS
 10
233.8444817141
 20
143.2061408598
 11
234.3582507452
 21
143.3671371211
  0
LINE
  5
325
100
AcDbEntity
  8
KONSTRUKTIONSELEMENTE
100
AcDbLine
 62
7
  6
CONTINUOUS
 10
239.4999396761
 20
10.3813430493
 11
239.7601856748
 21
10.7759788809
  0
LINE
  5
326
100
AcDbEntity
  8
KONSTRUKTIONSELEMENTE
100
AcDbLine
 62
7
  6
CONTINUOUS
 10
261.9476444162
 20
44.4209389388
 11
262.3702626779
 21
45.0617953209
  0
LINE
  5
327
100
AcDbEntity
  8
KONSTRUKTIONSELEMENTE
100
AcDbLine
 62
7
  6
CONTINUOUS
 10
205.8457683543
 20
66.6769535706
 11
176.1391994774
 21
56.8818271955
  0
LINE
  5
328
100
AcDbEntity
  8
KONSTRUKTIONSELEMENTE
100
AcDbLine
 62
7
  6
CONTINUOUS
 10
205.8457683543
 20
63.1414196647
 11
176.1391994774
 21
53.3462932896
  0
LINE
  5
329
100
AcDbEntity
  8
KONSTRUKTIONSELEMENTE
100
AcDbLine
 62
7
  6
CONTINUOUS
 10
180.4569889901
 20
49.3085529733
 11
174.5659883744
 21
47.3661174215
  0
LINE
  5
32A
100
AcDbEntity
  8
KONSTRUKTIONSELEMENTE
100
AcDbLine
 62
7
  6
CONTINUOUS
 10
176.7706865784
 20
47.9468725779
 11
181.0918309369
 21
49.3716805136
  0
LINE
  5
32B
100
AcDbEntity
  8
KONSTRUKTIONSELEMENTE
100
AcDbLine
 62
7
  6
CONTINUOUS
 10
180.7644291519
 20
43.6585467204
 11
184.9318297706
 21
45.0326608393
  0
LINE
  5
32C
100
AcDbEntity
  8
KONSTRUKTIONSELEMENTE
100
AcDbLine
 62
7
  6
CONTINUOUS
 10
180.7644291519
 20
40.8301195957
 11
185.295968087
 21
42.3243007893
  0
LINE
  5
32D
100
AcDbEntity
  8
KONSTRUKTIONSELEMENTE
100
AcDbLine
 62
7
  6
CONTINUOUS
 10
180.2502039948
 20
39.1001524735
 11
186.1412046105
 21
41.0425880252
  0
LINE
  5
32E
100
AcDbEntity
  8
KONSTRUKTIONSELEMENTE
100
AcDbLine
 62
7
  6
CONTINUOUS
 10
180.2502039948
 20
38.7465990829
 11
186.1412046105
 21
40.6890346346
  0
LINE
  5
32F
100
AcDbEntity
  8
KONSTRUKTIONSELEMENTE
100
AcDbLine
 62
7
  6
CONTINUOUS
 10
385.566296606
 20
-2.2666113808
 11
389.101830512
 21
-5.8021452867
  0
LINE
  5
330
100
AcDbEntity
  8
KONSTRUKTIONSELEMENTE
100
AcDbLine
 62
7
  6
CONTINUOUS
 10
403.2439661357
 20
8.339990337
 11
402.8904127451
 21
8.6935437276
  0
LINE
  5
331
100
AcDbEntity
  8
KONSTRUKTIONSELEMENTE
100
AcDbLine
 62
7
  6
CONTINUOUS
 10
400.0619856204
 20
11.5219708524
 11
399.7084322298
 21
11.875524243
  0
LINE
  5
332
100
AcDbEntity
  8
KONSTRUKTIONSELEMENTE
100
AcDbLine
 62
7
  6
CONTINUOUS
 10
442.2700932202
 20
47.3661174215
 11
441.5961116386
 21
47.3992426211
  0
LINE
  5
333
100
AcDbEntity
  8
KONSTRUKTIONSELEMENTE
100
AcDbLine
 62
7
  6
CONTINUOUS
 10
433.6505748815
 20
38.7465990829
 11
433.2970214909
 21
39.1001524735
  0
LINE
  5
334
100
AcDbEntity
  8
KONSTRUKTIONSELEMENTE
100
AcDbLine
 62
7
  6
CONTINUOUS
 10
430.1150409756
 20
42.2821329888
 11
430.4685943662
 21
41.9285795982
  0
LINE
  5
335
100
AcDbEntity
  8
KONSTRUKTIONSELEMENTE
100
AcDbLine
 62
7
  6
CONTINUOUS
 10
439.1132360151
 20
48.6573066172
 11
440.0257485099
 21
47.7447941224
  0
LINE
  5
336
100
AcDbEntity
  8
BEZUGSACHSEN
100
AcDbLine
 62
7
  6
CONTINUOUS
 10
551.2304637041
 20
120.0671675702
 11
550.9890952756
 21
120.0008543126
  0
LINE
  5
337
100
AcDbEntity
  8
BEZUGSACHSEN
100
AcDbLine
 62
7
  6
CONTINUOUS
 10
550.9890952756
 20
120.0008543126
 11
550.9034158024
 21
119.9851235681
  0
LINE
  5
338
100
AcDbEntity
  8
BEZUGSACHSEN
100
AcDbLine
 62
7
  6
CONTINUOUS
 10
550.903415845
 20
119.9851233027
 11
550.4945890667
 21
119.9203675614
  0
LINE
  5
339
100
AcDbEntity
  8
BEZUGSACHSEN
100
AcDbLine
 62
7
  6
CONTINUOUS
 10
556.4794175407
 20
124.6226551411
 11
561.1354984528
 21
124.6226551411
  0
LINE
  5
33A
100
AcDbEntity
  8
BEZUGSACHSEN
100
AcDbLine
 62
7
  6
CONTINUOUS
 10
455.5698679435
 20
67.7369599567
 11
459.1054018494
 21
64.2014260508
  0
LINE
  5
33B
100
AcDbEntity
  8
KONSTRUKTIONSELEMENTE
100
AcDbLine
 62
7
  6
CONTINUOUS
 10
451.680780647
 20
71.9796006438
 11
455.2163145529
 21
68.4440667379
  0
LINE
  5
33C
100
AcDbEntity
  8
KONSTRUKTIONSELEMENTE
100
AcDbLine
 62
7
  6
CONTINUOUS
 10
452.0343340376
 20
72.3331540344
 11
455.5698679435
 21
68.7976201285
  0
LINE
  5
33D
100
AcDbEntity
  8
BEZUGSACHSEN
100
AcDbLine
 62
7
  6
CONTINUOUS
 10
556.5800963835
 20
143.9553770669
 11
561.03481961
 21
143.9553770669
  0
LINE
  5
33E
100
AcDbEntity
  8
KONSTRUKTIONSELEMENTE
100
AcDbLine
 62
7
  6
CONTINUOUS
 10
564.2503228468
 20
145.0706046127
 11
564.7769571484
 21
145.0706046127
  0
LINE
  5
33F
100
AcDbEntity
  8
KONSTRUKTIONSELEMENTE
100
AcDbLine
 62
7
  6
CONTINUOUS
 10
564.2618910369
 20
147.206736148
 11
564.7885253385
 21
147.206736148
  0
LINE
  5
340
100
AcDbEntity
  8
KONSTRUKTIONSELEMENTE
100
AcDbLine
 62
7
  6
CONTINUOUS
 10
562.6003559945
 20
147.8824256571
 11
563.1269902962
 21
147.8824256571
  0
LINE
  5
341
100
AcDbEntity
  8
KONSTRUKTIONSELEMENTE
100
AcDbLine
 62
7
  6
CONTINUOUS
 10
563.3179458014
 20
148.4085927481
 11
563.8445801031
 21
148.4085927481
  0
LINE
  5
342
100
AcDbEntity
  8
KONSTRUKTIONSELEMENTE
100
AcDbLine
 62
7
  6
CONTINUOUS
 10
563.3180262292
 20
148.6751411336
 11
563.8072943614
 21
148.6751411336
  0
LINE
  5
343
100
AcDbEntity
  8
KONSTRUKTIONSELEMENTE
100
AcDbLine
 62
7
  6
CONTINUOUS
 10
564.1576641896
 20
148.847064364
 11
564.6842984912
 21
148.847064364
  0
LINE
  5
344
100
AcDbEntity
  8
KONSTRUKTIONSELEMENTE
100
AcDbLine
 62
7
  6
CONTINUOUS
 10
564.0116923237
 20
148.904881449
 11
564.5383266254
 21
148.904881449
  0
LINE
  5
345
100
AcDbEntity
  8
KONSTRUKTIONSELEMENTE
100
AcDbLine
 62
7
  6
CONTINUOUS
 10
563.3183977338
 20
148.9326080864
 11
563.7351022302
 21
148.9326080864
  0
LINE
  5
346
100
AcDbEntity
  8
KONSTRUKTIONSELEMENTE
100
AcDbLine
 62
7
  6
CONTINUOUS
 10
563.8679423207
 20
149.0821571992
 11
564.3945766224
 21
149.0821571992
  0
LINE
  5
347
100
AcDbEntity
  8
KONSTRUKTIONSELEMENTE
100
AcDbLine
 62
7
  6
CONTINUOUS
 10
563.3175231635
 20
149.1809934093
 11
563.6285702725
 21
149.1809934093
  0
LINE
  5
348
100
AcDbEntity
  8
KONSTRUKTIONSELEMENTE
100
AcDbLine
 62
7
  6
CONTINUOUS
 10
563.3293376137
 20
149.3604714945
 11
563.5231049228
 21
149.3604714945
  0
LINE
  5
349
100
AcDbEntity
  8
KONSTRUKTIONSELEMENTE
100
AcDbLine
 62
7
  6
CONTINUOUS
 10
563.7162900413
 20
149.3933459722
 11
564.2172683489
 21
149.3933459722
  0
LINE
  5
34A
100
AcDbEntity
  8
KONSTRUKTIONSELEMENTE
100
AcDbLine
 62
7
  6
CONTINUOUS
 10
564.443320649
 20
149.4424466067
 11
564.5480743754
 21
149.4424466067
  0
LINE
  5
34B
100
AcDbEntity
  8
KONSTRUKTIONSELEMENTE
100
AcDbLine
 62
7
  6
CONTINUOUS
 10
562.6149020618
 20
149.5362049611
 11
563.1415363634
 21
149.5362049611
  0
LINE
  5
34C
100
AcDbEntity
  8
KONSTRUKTIONSELEMENTE
100
AcDbLine
 62
7
  6
CONTINUOUS
 10
564.3126236159
 20
149.6071805569
 11
564.5849078921
 21
149.6071805569
  0
LINE
  5
34D
100
AcDbEntity
  8
KONSTRUKTIONSELEMENTE
100
AcDbLine
 62
7
  6
CONTINUOUS
 10
562.6468184452
 20
149.8209164093
 11
563.1734527469
 21
149.8209164093
  0
LINE
  5
34E
100
AcDbEntity
  8
KONSTRUKTIONSELEMENTE
100
AcDbLine
 62
7
  6
CONTINUOUS
 10
564.1814444069
 20
149.8460985187
 11
564.5849078927
 21
149.8460985187
  0
LINE
  5
34F
100
AcDbEntity
  8
KONSTRUKTIONSELEMENTE
100
AcDbLine
 62
7
  6
CONTINUOUS
 10
562.7480890101
 20
149.9170683099
 11
563.2747233117
 21
149.9170683099
  0
LINE
  5
350
100
AcDbEntity
  8
KONSTRUKTIONSELEMENTE
100
AcDbLine
 62
7
  6
CONTINUOUS
 10
564.0330835904
 20
150.1592001503
 11
564.5480743736
 21
150.1592001503
  0
LINE
  5
351
100
AcDbEntity
  8
KONSTRUKTIONSELEMENTE
100
AcDbLine
 62
7
  6
CONTINUOUS
 10
563.9487919273
 20
150.4867559277
 11
564.4754262289
 21
150.4867559277
  0
LINE
  5
352
100
AcDbEntity
  8
KONSTRUKTIONSELEMENTE
100
AcDbLine
 62
7
  6
CONTINUOUS
 10
564.5001565482
 20
150.8073588862
 11
564.7748800676
 21
150.8073588862
  0
LINE
  5
353
100
AcDbEntity
  8
KONSTRUKTIONSELEMENTE
100
AcDbLine
 62
7
  6
CONTINUOUS
 10
563.8412861411
 20
150.828765747
 11
564.3679204427
 21
150.828765747
  0
LINE
  5
354
100
AcDbEntity
  8
KONSTRUKTIONSELEMENTE
100
AcDbLine
 62
7
  6
CONTINUOUS
 10
563.6995292608
 20
151.185230002
 11
564.2261635625
 21
151.185230002
  0
LINE
  5
355
100
AcDbEntity
  8
KONSTRUKTIONSELEMENTE
100
AcDbLine
 62
7
  6
CONTINUOUS
 10
562.601956611
 20
151.6930400469
 11
563.1285909127
 21
151.6930400469
  0
LINE
  5
356
100
AcDbEntity
  8
KONSTRUKTIONSELEMENTE
100
AcDbLine
 62
7
  6
CONTINUOUS
 10
562.6097475721
 20
152.0514169896
 11
563.1363818738
 21
152.0514169896
  0
LINE
  5
357
100
AcDbEntity
  8
KONSTRUKTIONSELEMENTE
100
AcDbLine
 62
7
  6
CONTINUOUS
 10
564.2206369898
 20
152.4899824991
 11
564.5842854879
 21
152.4899824991
  0
LINE
  5
358
100
AcDbEntity
  8
KONSTRUKTIONSELEMENTE
100
AcDbLine
 62
7
  6
CONTINUOUS
 10
566.7155417045
 20
119.9844792423
 11
567.1203269268
 21
119.9203675614
  0
LINE
  5
359
100
AcDbEntity
  8
RUNDUNGEN
100
AcDbLine
 62
7
  6
CONTINUOUS
 10
566.9863523306
 20
119.9415870529
 11
566.7113851807
 21
119.9851417576
  0
LINE
  5
35A
100
AcDbEntity
  8
RUNDUNGEN
100
AcDbLine
 62
7
  6
CONTINUOUS
 10
566.7113852233
 20
119.985142023
 11
566.6399621256
 21
119.9979840213
  0
LINE
  5
35B
100
AcDbEntity
  8
RUNDUNGEN
100
AcDbLine
 62
7
  6
CONTINUOUS
 10
566.6399621256
 20
119.9979840213
 11
566.3984599841
 21
120.0623945497
  0
LINE
  5
35C
100
AcDbEntity
  8
KONSTRUKTIONSELEMENTE
100
AcDbLine
 62
7
  6
CONTINUOUS
 10
564.1067537867
 20
152.7704195728
 11
564.5466294501
 21
152.7704195728
  0
LINE
  5
35D
100
AcDbEntity
  8
KONSTRUKTIONSELEMENTE
100
AcDbLine
 62
7
  6
CONTINUOUS
 10
563.9774169948
 20
153.0889110667
 11
564.4733823124
 21
153.0889110667
  0
LINE
  5
35E
100
AcDbEntity
  8
KONSTRUKTIONSELEMENTE
100
AcDbLine
 62
7
  6
CONTINUOUS
 10
563.8388684659
 20
153.4454568595
 11
564.3655027676
 21
153.4454568595
  0
LINE
  5
35F
100
AcDbEntity
  8
KONSTRUKTIONSELEMENTE
100
AcDbLine
 62
7
  6
CONTINUOUS
 10
562.6097475691
 20
153.4849240767
 11
563.1363818708
 21
153.4849240767
  0
LINE
  5
360
100
AcDbEntity
  8
KONSTRUKTIONSELEMENTE
100
AcDbLine
 62
7
  6
CONTINUOUS
 10
563.6969584792
 20
153.840056457
 11
564.2235927809
 21
153.840056457
  0
LINE
  5
361
100
AcDbEntity
  8
KONSTRUKTIONSELEMENTE
100
AcDbLine
 62
7
  6
CONTINUOUS
 10
562.601956611
 20
153.8433008485
 11
563.1285909127
 21
153.8433008485
  0
LINE
  5
362
100
AcDbEntity
  8
KONSTRUKTIONSELEMENTE
100
AcDbLine
 62
7
  6
CONTINUOUS
 10
562.5986691766
 20
154.8743065668
 11
563.1253034783
 21
154.8743065668
  0
LINE
  5
363
100
AcDbEntity
  8
KONSTRUKTIONSELEMENTE
100
AcDbLine
 62
7
  6
CONTINUOUS
 10
563.3528871125
 20
155.1380184491
 11
563.696473569
 21
155.1380184491
  0
LINE
  5
364
100
AcDbEntity
  8
KONSTRUKTIONSELEMENTE
100
AcDbLine
 62
7
  6
CONTINUOUS
 10
563.3530061246
 20
155.4356651828
 11
563.5571231482
 21
155.4356651828
  0
LINE
  5
365
100
AcDbEntity
  8
KONSTRUKTIONSELEMENTE
100
AcDbLine
 62
7
  6
CONTINUOUS
 10
563.3860463284
 20
155.5983043809
 11
563.4538268949
 21
155.5983043809
  0
LINE
  5
366
100
AcDbEntity
  8
KONSTRUKTIONSELEMENTE
100
AcDbLine
 62
7
  6
CONTINUOUS
 10
562.6152920197
 20
156.0377453706
 11
563.1419263213
 21
156.0377453706
  0
LINE
  5
367
100
AcDbEntity
  8
KONSTRUKTIONSELEMENTE
100
AcDbLine
 62
7
  6
CONTINUOUS
 10
562.6476447168
 20
156.1935978482
 11
563.1742790184
 21
156.1935978482
  0
LINE
  5
368
100
AcDbEntity
  8
KONSTRUKTIONSELEMENTE
100
AcDbLine
 62
7
  6
CONTINUOUS
 10
562.7141243748
 20
156.2144425478
 11
563.2407586764
 21
156.2144425478
  0
LINE
  5
369
100
AcDbEntity
  8
BEZUGSACHSEN
100
AcDbLine
 62
7
  6
CONTINUOUS
 10
556.5800963835
 20
159.5958776525
 11
561.03481961
 21
159.5958776525
  0
LINE
  5
36A
100
AcDbEntity
  8
BEZUGSACHSEN
100
AcDbLine
 62
7
  6
CONTINUOUS
 10
561.03481961
 20
165.5700172751
 11
556.5800963835
 21
165.5700172751
  0
LWPOLYLINE
  5
36B
100
AcDbEntity
  8
RUNDUNGEN
100
AcDbPolyline
 62
7
  6
CONTINUOUS
 90
8
 70
0
 10
566.3984599841
 20
120.0623945497
 10
566.1616359596
 20
120.1597387392
 10
565.936363737
 20
120.28913728
 10
565.7286973395
 20
120.4482915565
 10
565.5430911243
 20
120.6345059599
 10
565.3837573681
 20
120.8439448816
 10
565.2537707527
 20
121.0725889337
 10
565.1555502227
 20
121.3159037989
  0
LINE
  5
36C
100
AcDbEntity
  8
KONSTRUKTIONSELEMENTE
100
AcDbLine
 62
7
  6
CONTINUOUS
 10
508.9564299231
 20
129.2552499199
 11
512.491963829
 21
125.719716014
  0
LINE
  5
36D
100
AcDbEntity
  8
KONSTRUKTIONSELEMENTE
100
AcDbLine
 62
7
  6
CONTINUOUS
 10
509.3099833137
 20
129.6088033105
 11
512.8455172196
 21
126.0732694046
  0
LINE
  5
36E
100
AcDbEntity
  8
KONSTRUKTIONSELEMENTE
100
AcDbLine
 62
7
  6
CONTINUOUS
 10
438.7676845138
 20
50.2276697459
 11
438.7345593143
 21
50.9016513275
  0
LINE
  5
36F
100
AcDbEntity
  8
BEZUGSACHSEN
100
AcDbLine
 62
7
  6
CONTINUOUS
 10
546.9206655439
 20
88.1427896889
 11
545.5621749779
 21
90.3260780986
  0
LINE
  5
370
100
AcDbEntity
  8
RUNDUNGEN
100
AcDbLine
 62
7
  6
CONTINUOUS
 10
572.1375850157
 20
104.6992701419
 11
563.6113062639
 21
119.4672181394
  0
LINE
  5
371
100
AcDbEntity
  8
KONSTRUKTIONSELEMENTE
100
AcDbLine
 62
7
  6
CONTINUOUS
 10
561.03481961
 20
165.5700172751
 11
564.8045851627
 21
154.1713046847
  0
LINE
  5
372
100
AcDbEntity
  8
0
100
AcDbLine
 62
7
  6
CONTINUOUS
 10
520.8074579967
 20
167.439016104
 11
520.8074579967
 21
212.439016104
  0
LINE
  5
373
100
AcDbEntity
  8
RUNDUNGEN
100
AcDbLine
 62
7
  6
CONTINUOUS
 10
565.1555502227
 20
121.3159037989
 11
565.0907919451
 21
121.5686863125
  0
LINE
  5
374
100
AcDbEntity
  8
BEZUGSACHSEN
100
AcDbLine
 62
7
  6
CONTINUOUS
 10
556.2255464447
 20
129.0432884279
 11
556.4794175407
 21
124.6226551411
  0
LINE
  5
375
100
AcDbEntity
  8
RUNDUNGEN
100
AcDbLine
 62
7
  6
CONTINUOUS
 10
561.1354984528
 20
124.6226551411
 11
561.4567145482
 21
111.112561464
  0
LINE
  5
376
100
AcDbEntity
  8
0
100
AcDbLine
 62
7
  6
CONTINUOUS
 10
538.8074579967
 20
167.439016104
 11
538.8074579967
 21
212.439016104
  0
LINE
  5
377
100
AcDbEntity
  8
BEZUGSACHSEN
100
AcDbLine
 62
7
  6
CONTINUOUS
 10
544.8074579967
 20
92.9675875326
 11
544.8074579967
 21
102.1992701419
  0
LINE
  5
378
100
AcDbEntity
  8
0
100
AcDbLine
 62
7
  6
CONTINUOUS
 10
545.8074579967
 20
595.439016104
 11
545.8074579967
 21
219.439016104
  0
LINE
  5
379
100
AcDbEntity
  8
BEZUGSACHSEN
100
AcDbLine
 62
7
  6
CONTINUOUS
 10
548.8074579967
 20
111.8069652965
 11
548.8074579967
 21
117.9449908803
  0
LINE
  5
37A
100
AcDbEntity
  8
BEZUGSACHSEN
100
AcDbLine
 62
7
  6
CONTINUOUS
 10
552.5574579967
 20
152.601341733
 11
552.5574579967
 21
121.4449291333
  0
LINE
  5
37B
100
AcDbEntity
  8
BEZUGSACHSEN
100
AcDbLine
 62
7
  6
CONTINUOUS
 10
565.0574579967
 20
152.601341733
 11
565.0574579967
 21
131.1091141297
  0
LINE
  5
37C
100
AcDbEntity
  8
KONSTRUKTIONSELEMENTE
100
AcDbLine
 62
7
  6
CONTINUOUS
 10
565.0574579967
 20
131.1091141297
 11
565.0574579967
 21
121.4449247396
  0
LINE
  5
37D
100
AcDbEntity
  8
RUNDUNGEN
100
AcDbLine
 62
7
  6
CONTINUOUS
 10
565.0574579967
 20
131.1091141149
 11
565.0574579967
 21
121.4449291333
  0
LINE
  5
37E
100
AcDbEntity
  8
KONSTRUKTIONSELEMENTE
100
AcDbLine
 62
7
  6
CONTINUOUS
 10
568.8074579967
 20
111.8069652965
 11
568.8074579967
 21
117.9449908803
  0
LINE
  5
37F
100
AcDbEntity
  8
0
100
AcDbLine
 62
7
  6
CONTINUOUS
 10
571.8074579967
 20
595.439016104
 11
571.8074579967
 21
219.439016104
  0
LINE
  5
380
100
AcDbEntity
  8
RUNDUNGEN
100
AcDbLine
 62
7
  6
CONTINUOUS
 10
572.8074579967
 20
92.9675875326
 11
572.8074579967
 21
102.1992701419
  0
LINE
  5
381
100
AcDbEntity
  8
0
100
AcDbLine
 62
7
  6
CONTINUOUS
 10
578.8074579967
 20
212.439016104
 11
578.8074579967
 21
167.439016104
  0
LINE
  5
382
100
AcDbEntity
  8
BEZUGSACHSEN
100
AcDbLine
 62
7
  6
CONTINUOUS
 10
556.4794175407
 20
124.6226551411
 11
556.1582014453
 21
111.112561464
  0
LINE
  5
383
100
AcDbEntity
  8
0
100
AcDbLine
 62
7
  6
CONTINUOUS
 10
561.3893695487
 20
129.0432884279
 11
561.1354984528
 21
124.6226551411
  0
LINE
  5
384
100
AcDbEntity
  8
0
100
AcDbLine
 62
7
  6
CONTINUOUS
 10
596.8074579967
 20
212.439016104
 11
596.8074579967
 21
167.439016104
  0
LWPOLYLINE
  5
385
100
AcDbEntity
  8
BEZUGSACHSEN
100
AcDbPolyline
 62
7
  6
CONTINUOUS
 90
9
 70
0
 10
552.5267160956
 20
121.5828665014
 10
552.4638712206
 20
121.3298075619
 10
552.3675192622
 20
121.0859028188
 10
552.2393119247
 20
120.8563931697
 10
552.0816183453
 20
120.6458244917
 10
551.8974799221
 20
120.458251366
 10
551.6910424814
 20
120.2975232906
 10
551.4667111662
 20
120.1663779201
 10
551.2304637041
 20
120.0671675702
  0
LINE
  5
386
100
AcDbEntity
  8
BEZUGSACHSEN
100
AcDbLine
 62
7
  6
CONTINUOUS
 10
552.8103308308
 20
154.1713046847
 11
556.5800963835
 21
165.5700172751
  0
LINE
  5
387
100
AcDbEntity
  8
BEZUGSACHSEN
100
AcDbLine
 62
7
  6
CONTINUOUS
 10
545.4773309778
 20
104.6992701419
 11
554.0036097296
 21
119.4672181394
  0
LINE
  5
388
100
AcDbEntity
  8
KONSTRUKTIONSELEMENTE
100
AcDbLine
 62
7
  6
CONTINUOUS
 10
448.8523535222
 20
69.1511735191
 11
451.680780647
 21
71.9796006438
  0
LINE
  5
389
100
AcDbEntity
  8
KONSTRUKTIONSELEMENTE
100
AcDbLine
 62
7
  6
CONTINUOUS
 10
452.0343340376
 20
72.3331540344
 11
454.8627611623
 21
75.1615811592
  0
LINE
  5
38A
100
AcDbEntity
  8
KONSTRUKTIONSELEMENTE
100
AcDbLine
 62
7
  6
CONTINUOUS
 10
506.1280027983
 20
126.4268227952
 11
508.9564299231
 21
129.2552499199
  0
LINE
  5
38B
100
AcDbEntity
  8
KONSTRUKTIONSELEMENTE
100
AcDbLine
 62
7
  6
CONTINUOUS
 10
509.3099833137
 20
129.6088033105
 11
512.1384104384
 21
132.4372304353
  0
LINE
  5
38C
100
AcDbEntity
  8
KONSTRUKTIONSELEMENTE
100
AcDbLine
 62
7
  6
CONTINUOUS
 10
475.3688578167
 20
95.314124423
 11
485.9754595345
 21
105.9207261408
  0
LINE
  5
38D
100
AcDbEntity
  8
KONSTRUKTIONSELEMENTE
100
AcDbLine
 62
7
  6
CONTINUOUS
 10
478.5508383321
 20
92.1321439077
 11
489.1574400499
 21
102.7387456255
  0
LINE
  5
38E
100
AcDbEntity
  8
KONSTRUKTIONSELEMENTE
100
AcDbLine
 62
7
  6
CONTINUOUS
 10
452.3878874282
 20
65.6156396132
 11
455.2163145529
 21
68.4440667379
  0
LINE
  5
38F
100
AcDbEntity
  8
KONSTRUKTIONSELEMENTE
100
AcDbLine
 62
7
  6
CONTINUOUS
 10
455.5698679435
 20
68.7976201285
 11
458.3982950683
 21
71.6260472532
  0
LINE
  5
390
100
AcDbEntity
  8
KONSTRUKTIONSELEMENTE
100
AcDbLine
 62
7
  6
CONTINUOUS
 10
509.6635367043
 20
122.8912888893
 11
512.491963829
 21
125.719716014
  0
LINE
  5
391
100
AcDbEntity
  8
KONSTRUKTIONSELEMENTE
100
AcDbLine
 62
7
  6
CONTINUOUS
 10
512.8455172196
 20
126.0732694046
 11
515.6739443444
 21
128.9016965294
  0
LINE
  5
392
100
AcDbEntity
  8
KONSTRUKTIONSELEMENTE
100
AcDbLine
 62
7
  6
CONTINUOUS
 10
544.665322373
 20
157.5395211674
 11
515.6739443444
 21
128.5481431388
  0
LINE
  5
393
100
AcDbEntity
  8
BEZUGSACHSEN
100
AcDbLine
 62
7
  6
CONTINUOUS
 10
455.569622516
 20
67.7367145292
 11
454.5098615574
 21
66.6769535706
  0
LINE
  5
394
100
AcDbEntity
  8
KONSTRUKTIONSELEMENTE
100
AcDbLine
 62
7
  6
CONTINUOUS
 10
385.566296606
 20
-2.2666113808
 11
454.5098615574
 21
66.6769535706
  0
LINE
  5
395
100
AcDbEntity
  8
KONSTRUKTIONSELEMENTE
100
AcDbLine
 62
7
  6
CONTINUOUS
 10
509.6635367043
 20
121.4770753269
 11
490.9548517291
 21
102.7683903517
  0
LINE
  5
396
100
AcDbEntity
  8
KONSTRUKTIONSELEMENTE
100
AcDbLine
 62
7
  6
CONTINUOUS
 10
478.5508383321
 20
90.3643769547
 11
459.8421533569
 21
71.6556919795
  0
LINE
  5
397
100
AcDbEntity
  8
KONSTRUKTIONSELEMENTE
100
AcDbLine
 62
7
  6
CONTINUOUS
 10
400.0619856204
 20
11.5219708524
 11
385.9198499966
 21
-2.6201647713
  0
LINE
  5
398
100
AcDbEntity
  8
KONSTRUKTIONSELEMENTE
100
AcDbLine
 62
7
  6
CONTINUOUS
 10
430.4685943662
 20
41.9285795982
 11
435.1022816132
 21
46.5622668453
  0
LINE
  5
399
100
AcDbEntity
  8
KONSTRUKTIONSELEMENTE
100
AcDbLine
 62
7
  6
CONTINUOUS
 10
402.8904127451
 20
8.6935437276
 11
388.7482771214
 21
-5.4485918961
  0
LINE
  5
39A
100
AcDbEntity
  8
KONSTRUKTIONSELEMENTE
100
AcDbLine
 62
7
  6
CONTINUOUS
 10
433.2970214909
 20
39.1001524735
 11
437.930708738
 21
43.7338397205
  0
LINE
  5
39B
100
AcDbEntity
  8
KONSTRUKTIONSELEMENTE
100
AcDbLine
 62
7
  6
CONTINUOUS
 10
512.8455172196
 20
118.2950948116
 11
494.1368322444
 21
99.5864098364
  0
LINE
  5
39C
100
AcDbEntity
  8
KONSTRUKTIONSELEMENTE
100
AcDbLine
 62
7
  6
CONTINUOUS
 10
481.7328188474
 20
87.1823964393
 11
463.0241338722
 21
68.4737114642
  0
LINE
  5
39D
100
AcDbEntity
  8
BEZUGSACHSEN
100
AcDbLine
 62
7
  6
CONTINUOUS
 10
459.1051564219
 20
64.2011806233
 11
458.0453954633
 21
63.1414196647
  0
LINE
  5
39E
100
AcDbEntity
  8
KONSTRUKTIONSELEMENTE
100
AcDbLine
 62
7
  6
CONTINUOUS
 10
389.101830512
 20
-5.8021452867
 11
458.0453954633
 21
63.1414196647
  0
LINE
  5
39F
100
AcDbEntity
  8
KONSTRUKTIONSELEMENTE
100
AcDbLine
 62
7
  6
CONTINUOUS
 10
548.9079630601
 20
153.2968804803
 11
519.9660951587
 21
124.3550125788
  0
LINE
  5
3A0
100
AcDbEntity
  8
KONSTRUKTIONSELEMENTE
100
AcDbLine
 62
7
  6
CONTINUOUS
 10
520.2701384221
 20
124.3055024516
 11
514.259730782
 21
118.2950948116
  0
LINE
  5
3A1
100
AcDbEntity
  8
KONSTRUKTIONSELEMENTE
100
AcDbLine
 62
7
  6
CONTINUOUS
 10
462.994489146
 20
67.0298531755
 11
456.9840815059
 21
61.0194455354
  0
LINE
  5
3A2
100
AcDbEntity
  8
KONSTRUKTIONSELEMENTE
100
AcDbLine
 62
7
  6
CONTINUOUS
 10
494.1071875182
 20
97.7889981571
 11
483.5005858004
 21
87.1823964393
  0
LINE
  5
3A3
100
AcDbEntity
  8
KONSTRUKTIONSELEMENTE
100
AcDbLine
 62
7
  6
CONTINUOUS
 10
497.2891680335
 20
94.6070176418
 11
486.6825663157
 21
84.000415924
  0
LINE
  5
3A4
100
AcDbEntity
  8
KONSTRUKTIONSELEMENTE
100
AcDbLine
 62
7
  6
CONTINUOUS
 10
523.805672328
 20
120.7699685457
 11
517.7952646879
 21
114.7595609056
  0
LINE
  5
3A5
100
AcDbEntity
  8
KONSTRUKTIONSELEMENTE
100
AcDbLine
 62
7
  6
CONTINUOUS
 10
466.5300230519
 20
63.4943192696
 11
460.5196154118
 21
57.4839116295
  0
LINE
  5
3A6
100
AcDbEntity
  8
RUNDUNGEN
100
AcDbLine
 62
7
  6
CONTINUOUS
 10
570.6942504496
 20
88.1427896889
 11
572.0527410156
 21
90.3260780986
  0
ARC
  5
3A7
100
AcDbEntity
  8
KONSTRUKTIONSELEMENTE
100
AcDbCircle
 62
7
  6
CONTINUOUS
 10
212.4316477523
 20
112.6729301158
 40
9.4443260734
100
AcDbArc
 50
104.2723032266
 51
110.4100277385
  0
ARC
  5
3A8
100
AcDbEntity
  8
KONSTRUKTIONSELEMENTE
100
AcDbCircle
 62
7
  6
CONTINUOUS
 10
211.5991643099
 20
83.2592341048
 40
7.545107675
100
AcDbArc
 50
124.2419775659
 51
126.1203175817
  0
ARC
  5
3A9
100
AcDbEntity
  8
KONSTRUKTIONSELEMENTE
100
AcDbCircle
 62
7
  6
CONTINUOUS
 10
211.5040619424
 20
83.3899075615
 40
7.3834909419
100
AcDbArc
 50
126.1219307631
 51
127.5764647571
  0
ARC
  5
3AA
100
AcDbEntity
  8
KONSTRUKTIONSELEMENTE
100
AcDbCircle
 62
7
  6
CONTINUOUS
 10
202.0730852137
 20
2.930167909
 40
5.4898501433
100
AcDbArc
 50
80.2049516589
 51
83.5150100898
  0
ARC
  5
3AB
100
AcDbEntity
  8
RUNDUNGEN
100
AcDbCircle
 62
7
  6
CONTINUOUS
 10
184.6076605422
 20
105.2030920241
 40
3.0
100
AcDbArc
 50
0.0
 51
14.0
  0
ARC
  5
3AC
100
AcDbEntity
  8
KONSTRUKTIONSELEMENTE
100
AcDbCircle
 62
7
  6
CONTINUOUS
 10
206.0459218324
 20
5.5108305364
 40
2.0117388432
100
AcDbArc
 50
0.0208671421
 51
7.9801551546
  0
ARC
  5
3AD
100
AcDbEntity
  8
BEZUGSACHSEN
100
AcDbCircle
 62
7
  6
CONTINUOUS
 10
194.83352253
 20
83.5390167742
 40
2.0
100
AcDbArc
 50
220.0000250634
 51
270.0000161105
  0
ARC
  5
3AE
100
AcDbEntity
  8
RUNDUNGEN
100
AcDbCircle
 62
7
  6
CONTINUOUS
 10
189.6076605422
 20
89.7669565726
 40
2.0
100
AcDbArc
 50
180.0
 51
220.0
  0
ARC
  5
3AF
100
AcDbEntity
  8
KONSTRUKTIONSELEMENTE
100
AcDbCircle
 62
7
  6
CONTINUOUS
 10
212.6076605422
 20
48.4809219823
 40
36.0
100
AcDbArc
 50
98.9490180653
 51
113.3240322405
  0
ARC
  5
3B0
100
AcDbEntity
  8
KONSTRUKTIONSELEMENTE
100
AcDbCircle
 62
7
  6
CONTINUOUS
 10
212.6076605422
 20
48.4809219823
 40
36.0
100
AcDbArc
 50
66.6759677595
 51
81.0509819347
  0
ARC
  5
3B1
100
AcDbEntity
  8
BEZUGSACHSEN
100
AcDbCircle
 62
7
  6
CONTINUOUS
 10
212.6076605422
 20
134.289016104
 40
13.25
100
AcDbArc
 50
132.844678999
 51
47.155321001
  0
ARC
  5
3B2
100
AcDbEntity
  8
KONSTRUKTIONSELEMENTE
100
AcDbCircle
 62
7
  6
CONTINUOUS
 10
212.8130984403
 20
112.7680846922
 40
9.3448730038
100
AcDbArc
 50
69.5234235979
 51
75.7644531001
  0
ARC
  5
3B3
100
AcDbEntity
  8
0
100
AcDbCircle
 62
7
  6
CONTINUOUS
 10
212.6076605422
 20
241.439016104
 40
9.0
100
AcDbArc
 50
0.0
 51
180.0
  0
ARC
  5
3B4
100
AcDbEntity
  8
0
100
AcDbCircle
 62
7
  6
CONTINUOUS
 10
212.6076605422
 20
138.439016104
 40
9.0
100
AcDbArc
 50
180.0
 51
360.0
  0
ARC
  5
3B5
100
AcDbEntity
  8
KONSTRUKTIONSELEMENTE
100
AcDbCircle
 62
7
  6
CONTINUOUS
 10
213.6246572451
 20
83.2711569031
 40
7.5304602267
100
AcDbArc
 50
53.6440041601
 51
55.6848988335
  0
ARC
  5
3B6
100
AcDbEntity
  8
KONSTRUKTIONSELEMENTE
100
AcDbCircle
 62
7
  6
CONTINUOUS
 10
213.7197739889
 20
83.4010135584
 40
7.3694950108
100
AcDbArc
 50
52.3884586971
 51
53.6410739396
  0
ARC
  5
3B7
100
AcDbEntity
  8
KONSTRUKTIONSELEMENTE
100
AcDbCircle
 62
7
  6
CONTINUOUS
 10
212.6076605422
 20
108.939016104
 40
5.6
100
AcDbArc
 50
0.0
 51
180.0
  0
ARC
  5
3B8
100
AcDbEntity
  8
KONSTRUKTIONSELEMENTE
100
AcDbCircle
 62
7
  6
CONTINUOUS
 10
222.9242898381
 20
3.9862816791
 40
4.6749602764
100
AcDbArc
 50
111.3149175254
 51
112.0930351416
  0
ARC
  5
3B9
100
AcDbEntity
  8
RUNDUNGEN
100
AcDbCircle
 62
7
  6
CONTINUOUS
 10
240.6076605422
 20
105.2030920241
 40
3.0
100
AcDbArc
 50
166.0
 51
180.0
  0
ARC
  5
3BA
100
AcDbEntity
  8
KONSTRUKTIONSELEMENTE
100
AcDbCircle
 62
7
  6
CONTINUOUS
 10
212.6076605422
 20
75.0779502144
 40
2.5
100
AcDbArc
 50
0.0
 51
180.0
  0
ARC
  5
3BB
100
AcDbEntity
  8
KONSTRUKTIONSELEMENTE
100
AcDbCircle
 62
7
  6
CONTINUOUS
 10
212.6076605422
 20
57.5675425743
 40
2.5
100
AcDbArc
 50
180.0
 51
360.0
  0
ARC
  5
3BC
100
AcDbEntity
  8
KONSTRUKTIONSELEMENTE
100
AcDbCircle
 62
7
  6
CONTINUOUS
 10
212.6076605422
 20
114.8431918504
 40
2.5
100
AcDbArc
 50
199.3908042464
 51
340.6091957536
  0
CIRCLE
  5
3BD
100
AcDbEntity
  8
BEZUGSACHSEN
100
AcDbCircle
 62
7
  6
CONTINUOUS
 10
230.3076605422
 20
95.539016104
 40
2.5
  0
ARC
  5
3BE
100
AcDbEntity
  8
KONSTRUKTIONSELEMENTE
100
AcDbCircle
 62
7
  6
CONTINUOUS
 10
212.6076605422
 20
83.9072701735
 40
2.25
100
AcDbArc
 50
180.0
 51
360.0
  0
ARC
  5
3BF
100
AcDbEntity
  8
KONSTRUKTIONSELEMENTE
100
AcDbCircle
 62
7
  6
CONTINUOUS
 10
212.6076605422
 20
106.0138718913
 40
2.25
100
AcDbArc
 50
0.0
 51
180.0
  0
ARC
  5
3C0
100
AcDbEntity
  8
BEZUGSACHSEN
100
AcDbCircle
 62
7
  6
CONTINUOUS
 10
230.3818003995
 20
83.5390189731
 40
2.0
100
AcDbArc
 50
269.9999310313
 51
319.9998927033
  0
ARC
  5
3C1
100
AcDbEntity
  8
RUNDUNGEN
100
AcDbCircle
 62
7
  6
CONTINUOUS
 10
235.6076605422
 20
89.7669565726
 40
2.0
100
AcDbArc
 50
320.0
 51
359.9755144818
  0
ARC
  5
3C2
100
AcDbEntity
  8
0
100
AcDbCircle
 62
7
  6
CONTINUOUS
 10
212.6076605422
 20
327.439016104
 40
121.0
100
AcDbArc
 50
180.0
 51
265.7342709218
  0
ARC
  5
3C3
100
AcDbEntity
  8
0
100
AcDbCircle
 62
7
  6
CONTINUOUS
 10
212.6076605422
 20
327.439016104
 40
121.0
100
AcDbArc
 50
274.2657290782
 51
360.0
  0
ARC
  5
3C4
100
AcDbEntity
  8
0
100
AcDbCircle
 62
7
  6
CONTINUOUS
 10
212.6076605422
 20
487.439016104
 40
121.0
100
AcDbArc
 50
0.0
 51
180.0
  0
ARC
  5
3C5
100
AcDbEntity
  8
0
100
AcDbCircle
 62
7
  6
CONTINUOUS
 10
212.6076605422
 20
487.439016104
 40
95.0
100
AcDbArc
 50
0.0
 51
180.0
  0
ARC
  5
3C6
100
AcDbEntity
  8
0
100
AcDbCircle
 62
7
  6
CONTINUOUS
 10
212.6076605422
 20
327.439016104
 40
95.0
100
AcDbArc
 50
180.0
 51
264.5629732949
  0
ARC
  5
3C7
100
AcDbEntity
  8
0
100
AcDbCircle
 62
7
  6
CONTINUOUS
 10
212.6076605422
 20
327.439016104
 40
95.0
100
AcDbArc
 50
275.4370267051
 51
360.0
  0
ARC
  5
3C8
100
AcDbEntity
  8
KONSTRUKTIONSELEMENTE
100
AcDbCircle
 62
7
  6
CONTINUOUS
 10
345.3626420396
 20
93.3594135144
 40
227.1964653685
100
AcDbArc
 50
15.1317550947
 51
15.2728816292
  0
ARC
  5
3C9
100
AcDbEntity
  8
KONSTRUKTIONSELEMENTE
100
AcDbCircle
 62
7
  6
CONTINUOUS
 10
353.4977139433
 20
92.8979129398
 40
218.8123569053
100
AcDbArc
 50
15.170959669
 51
15.3163345801
  0
ARC
  5
3CA
100
AcDbEntity
  8
KONSTRUKTIONSELEMENTE
100
AcDbCircle
 62
7
  6
CONTINUOUS
 10
433.2615470137
 20
11.4053470033
 40
189.053863544
100
AcDbArc
 50
45.9160450668
 51
46.2240508138
  0
ARC
  5
3CB
100
AcDbEntity
  8
KONSTRUKTIONSELEMENTE
100
AcDbCircle
 62
7
  6
CONTINUOUS
 10
457.8454084894
 20
36.0479951081
 40
154.5900703455
100
AcDbArc
 50
46.2343507007
 51
46.6408465847
  0
ARC
  5
3CC
100
AcDbEntity
  8
0
100
AcDbCircle
 62
7
  6
CONTINUOUS
 10
435.8248277372
 20
121.898340949
 40
131.2747030877
100
AcDbArc
 50
12.452538124
 51
12.5784113138
  0
ARC
  5
3CD
100
AcDbEntity
  8
KONSTRUKTIONSELEMENTE
100
AcDbCircle
 62
7
  6
CONTINUOUS
 10
436.6328772318
 20
121.9608989341
 40
130.9864185758
100
AcDbArc
 50
12.4317510099
 51
12.5785114004
  0
ARC
  5
3CE
100
AcDbEntity
  8
KONSTRUKTIONSELEMENTE
100
AcDbCircle
 62
7
  6
CONTINUOUS
 10
441.5042467988
 20
124.6406216691
 40
126.2169301584
100
AcDbArc
 50
12.8775791988
 51
13.0259316691
  0
ARC
  5
3CF
100
AcDbEntity
  8
KONSTRUKTIONSELEMENTE
100
AcDbCircle
 62
7
  6
CONTINUOUS
 10
451.856869236
 20
127.4085625492
 40
114.0816423154
100
AcDbArc
 50
10.6260005665
 51
10.8280558523
  0
ARC
  5
3D0
100
AcDbEntity
  8
KONSTRUKTIONSELEMENTE
100
AcDbCircle
 62
7
  6
CONTINUOUS
 10
460.6963921071
 20
69.3279502144
 40
8.25
100
AcDbArc
 50
60.8421444573
 51
135.0
  0
ARC
  5
3D1
100
AcDbEntity
  8
KONSTRUKTIONSELEMENTE
100
AcDbCircle
 62
7
  6
CONTINUOUS
 10
460.6963921071
 20
69.3279502144
 40
8.25
100
AcDbArc
 50
315.0
 51
29.1578555427
  0
ARC
  5
3D2
100
AcDbEntity
  8
KONSTRUKTIONSELEMENTE
100
AcDbCircle
 62
7
  6
CONTINUOUS
 10
454.685984467
 20
63.3175425743
 40
8.25
100
AcDbArc
 50
242.6769957192
 51
315.0
  0
ARC
  5
3D3
100
AcDbEntity
  8
KONSTRUKTIONSELEMENTE
100
AcDbCircle
 62
7
  6
CONTINUOUS
 10
454.685984467
 20
63.3175425743
 40
8.25
100
AcDbArc
 50
135.0
 51
207.3230042808
  0
ARC
  5
3D4
100
AcDbEntity
  8
KONSTRUKTIONSELEMENTE
100
AcDbCircle
 62
7
  6
CONTINUOUS
 10
460.6963921071
 20
69.3279502144
 40
3.25
100
AcDbArc
 50
88.8837571799
 51
135.0
  0
ARC
  5
3D5
100
AcDbEntity
  8
KONSTRUKTIONSELEMENTE
100
AcDbCircle
 62
7
  6
CONTINUOUS
 10
460.6963921071
 20
69.3279502144
 40
3.25
100
AcDbArc
 50
315.0
 51
1.1162428201
  0
ARC
  5
3D6
100
AcDbEntity
  8
KONSTRUKTIONSELEMENTE
100
AcDbCircle
 62
7
  6
CONTINUOUS
 10
454.685984467
 20
63.3175425743
 40
3.25
100
AcDbArc
 50
275.4054095575
 51
315.0
  0
ARC
  5
3D7
100
AcDbEntity
  8
KONSTRUKTIONSELEMENTE
100
AcDbCircle
 62
7
  6
CONTINUOUS
 10
454.685984467
 20
63.3175425743
 40
3.25
100
AcDbArc
 50
135.0
 51
174.5945904425
  0
ARC
  5
3D8
100
AcDbEntity
  8
KONSTRUKTIONSELEMENTE
100
AcDbCircle
 62
7
  6
CONTINUOUS
 10
481.0257120662
 20
89.6572701735
 40
8.0
100
AcDbArc
 50
241.3642958278
 51
315.0
  0
ARC
  5
3D9
100
AcDbEntity
  8
KONSTRUKTIONSELEMENTE
100
AcDbCircle
 62
7
  6
CONTINUOUS
 10
481.0257120662
 20
89.6572701735
 40
8.0
100
AcDbArc
 50
135.0
 51
208.6357041722
  0
ARC
  5
3DA
100
AcDbEntity
  8
KONSTRUKTIONSELEMENTE
100
AcDbCircle
 62
7
  6
CONTINUOUS
 10
481.0257120662
 20
89.6572701735
 40
3.5
100
AcDbArc
 50
265.1538775079
 51
315.0
  0
ARC
  5
3DB
100
AcDbEntity
  8
KONSTRUKTIONSELEMENTE
100
AcDbCircle
 62
7
  6
CONTINUOUS
 10
481.0257120662
 20
89.6572701735
 40
3.5
100
AcDbArc
 50
135.0
 51
184.8461224921
  0
ARC
  5
3DC
100
AcDbEntity
  8
KONSTRUKTIONSELEMENTE
100
AcDbCircle
 62
7
  6
CONTINUOUS
 10
480.1418285897
 20
88.773386697
 40
2.25
100
AcDbArc
 50
315.0
 51
135.0
  0
ARC
  5
3DD
100
AcDbEntity
  8
KONSTRUKTIONSELEMENTE
100
AcDbCircle
 62
7
  6
CONTINUOUS
 10
461.4034988883
 20
70.0350569956
 40
2.25
100
AcDbArc
 50
135.0
 51
315.0
  0
ARC
  5
3DE
100
AcDbEntity
  8
KONSTRUKTIONSELEMENTE
100
AcDbCircle
 62
7
  6
CONTINUOUS
 10
468.4901354003
 20
131.5486081316
 40
97.9782748242
100
AcDbArc
 50
10.7201901069
 51
10.950778297
  0
ARC
  5
3DF
100
AcDbEntity
  8
KONSTRUKTIONSELEMENTE
100
AcDbCircle
 62
7
  6
CONTINUOUS
 10
476.9424537083
 20
134.555339797
 40
89.5891127471
100
AcDbArc
 50
11.4237658477
 51
11.6633015948
  0
ARC
  5
3E0
100
AcDbEntity
  8
KONSTRUKTIONSELEMENTE
100
AcDbCircle
 62
7
  6
CONTINUOUS
 10
476.2448854893
 20
136.2907161072
 40
88.4338703819
100
AcDbArc
 50
7.8758796989
 51
8.0502562956
  0
ARC
  5
3E1
100
AcDbEntity
  8
KONSTRUKTIONSELEMENTE
100
AcDbCircle
 62
7
  6
CONTINUOUS
 10
491.632313784
 20
100.2638718913
 40
8.0
100
AcDbArc
 50
61.3642958278
 51
135.0
  0
ARC
  5
3E2
100
AcDbEntity
  8
KONSTRUKTIONSELEMENTE
100
AcDbCircle
 62
7
  6
CONTINUOUS
 10
491.632313784
 20
100.2638718913
 40
8.0
100
AcDbArc
 50
315.0
 51
28.6357041722
  0
ARC
  5
3E3
100
AcDbEntity
  8
KONSTRUKTIONSELEMENTE
100
AcDbCircle
 62
7
  6
CONTINUOUS
 10
491.632313784
 20
100.2638718913
 40
3.5
100
AcDbArc
 50
85.1538775079
 51
135.0
  0
ARC
  5
3E4
100
AcDbEntity
  8
KONSTRUKTIONSELEMENTE
100
AcDbCircle
 62
7
  6
CONTINUOUS
 10
491.632313784
 20
100.2638718913
 40
3.5
100
AcDbArc
 50
315.0
 51
4.8461224921
  0
ARC
  5
3E5
100
AcDbEntity
  8
KONSTRUKTIONSELEMENTE
100
AcDbCircle
 62
7
  6
CONTINUOUS
 10
492.5161972605
 20
101.1477553678
 40
2.25
100
AcDbArc
 50
135.0
 51
315.0
  0
ARC
  5
3E6
100
AcDbEntity
  8
KONSTRUKTIONSELEMENTE
100
AcDbCircle
 62
7
  6
CONTINUOUS
 10
503.9434994759
 20
142.8709135182
 40
61.041245241
100
AcDbArc
 50
6.5615233707
 51
6.8574401785
  0
ARC
  5
3E7
100
AcDbEntity
  8
KONSTRUKTIONSELEMENTE
100
AcDbCircle
 62
7
  6
CONTINUOUS
 10
511.5704441496
 20
144.225369987
 40
53.4766001481
100
AcDbArc
 50
5.5539518679
 51
5.9554336497
  0
ARC
  5
3E8
100
AcDbEntity
  8
KONSTRUKTIONSELEMENTE
100
AcDbCircle
 62
7
  6
CONTINUOUS
 10
517.9720413832
 20
126.6035994905
 40
8.25
100
AcDbArc
 50
66.346698243
 51
135.0
  0
ARC
  5
3E9
100
AcDbEntity
  8
KONSTRUKTIONSELEMENTE
100
AcDbCircle
 62
7
  6
CONTINUOUS
 10
517.9720413832
 20
126.6035994905
 40
8.25
100
AcDbArc
 50
315.0
 51
23.653301757
  0
ARC
  5
3EA
100
AcDbEntity
  8
KONSTRUKTIONSELEMENTE
100
AcDbCircle
 62
7
  6
CONTINUOUS
 10
511.9616337431
 20
120.5931918504
 40
8.25
100
AcDbArc
 50
240.8421444573
 51
315.0
  0
ARC
  5
3EB
100
AcDbEntity
  8
KONSTRUKTIONSELEMENTE
100
AcDbCircle
 62
7
  6
CONTINUOUS
 10
511.9616337431
 20
120.5931918504
 40
8.25
100
AcDbArc
 50
135.0
 51
209.1578555427
  0
ARC
  5
3EC
100
AcDbEntity
  8
KONSTRUKTIONSELEMENTE
100
AcDbCircle
 62
7
  6
CONTINUOUS
 10
517.9720413832
 20
126.6035994905
 40
3.25
100
AcDbArc
 50
112.8065550031
 51
135.0
  0
ARC
  5
3ED
100
AcDbEntity
  8
KONSTRUKTIONSELEMENTE
100
AcDbCircle
 62
7
  6
CONTINUOUS
 10
517.9720413832
 20
126.6035994905
 40
3.25
100
AcDbArc
 50
315.0
 51
337.1934449969
  0
ARC
  5
3EE
100
AcDbEntity
  8
KONSTRUKTIONSELEMENTE
100
AcDbCircle
 62
7
  6
CONTINUOUS
 10
511.9616337431
 20
120.5931918504
 40
3.25
100
AcDbArc
 50
268.8837571799
 51
315.0
  0
ARC
  5
3EF
100
AcDbEntity
  8
KONSTRUKTIONSELEMENTE
100
AcDbCircle
 62
7
  6
CONTINUOUS
 10
511.9616337431
 20
120.5931918504
 40
3.25
100
AcDbArc
 50
135.0
 51
181.1162428201
  0
ARC
  5
3F0
100
AcDbEntity
  8
KONSTRUKTIONSELEMENTE
100
AcDbCircle
 62
7
  6
CONTINUOUS
 10
517.7952646879
 20
126.4268227952
 40
3.0
100
AcDbArc
 50
135.0
 51
315.0
  0
ARC
  5
3F1
100
AcDbEntity
  8
KONSTRUKTIONSELEMENTE
100
AcDbCircle
 62
7
  6
CONTINUOUS
 10
511.2545269619
 20
119.8860850692
 40
2.25
100
AcDbArc
 50
315.0
 51
135.0
  0
ARC
  5
3F2
100
AcDbEntity
  8
0
100
AcDbCircle
 62
7
  6
CONTINUOUS
 10
507.733924225
 20
149.1919653215
 40
54.8820574436
100
AcDbArc
 50
358.6327368
 51
0.359381713
  0
ARC
  5
3F3
100
AcDbEntity
  8
KONSTRUKTIONSELEMENTE
100
AcDbCircle
 62
7
  6
CONTINUOUS
 10
508.2605585263
 20
149.1919653215
 40
54.8820574441
100
AcDbArc
 50
358.6327368
 51
0.359381713
  0
ARC
  5
3F4
100
AcDbEntity
  8
KONSTRUKTIONSELEMENTE
100
AcDbCircle
 62
7
  6
CONTINUOUS
 10
509.5879287265
 20
148.8925819505
 40
53.7306035591
100
AcDbArc
 50
359.0446728256
 51
0.4408351865
  0
ARC
  5
3F5
100
AcDbEntity
  8
KONSTRUKTIONSELEMENTE
100
AcDbCircle
 62
7
  6
CONTINUOUS
 10
513.4120138094
 20
147.9951981562
 40
50.4342605583
100
AcDbArc
 50
358.9822202641
 51
0.4696416752
  0
ARC
  5
3F6
100
AcDbEntity
  8
0
100
AcDbCircle
 62
7
  6
CONTINUOUS
 10
512.9153446079
 20
147.9951154924
 40
50.4042971433
100
AcDbArc
 50
0.0979117009
 51
0.4700148345
  0
ARC
  5
3F7
100
AcDbEntity
  8
KONSTRUKTIONSELEMENTE
100
AcDbCircle
 62
7
  6
CONTINUOUS
 10
515.4737565559
 20
146.038351683
 40
49.5324902682
100
AcDbArc
 50
7.4840670455
 51
7.8113691506
  0
ARC
  5
3F8
100
AcDbEntity
  8
KONSTRUKTIONSELEMENTE
100
AcDbCircle
 62
7
  6
CONTINUOUS
 10
514.9398762154
 20
147.6362928354
 40
49.1174955166
100
AcDbArc
 50
358.954873222
 51
0.3214077002
  0
ARC
  5
3F9
100
AcDbEntity
  8
0
100
AcDbCircle
 62
7
  6
CONTINUOUS
 10
547.2026178793
 20
106.2535223078
 40
45.844120891
100
AcDbArc
 50
68.2941737996
 51
68.4903981731
  0
ARC
  5
3FA
100
AcDbEntity
  8
KONSTRUKTIONSELEMENTE
100
AcDbCircle
 62
7
  6
CONTINUOUS
 10
547.7292521898
 20
106.2535223301
 40
45.844120867
100
AcDbArc
 50
68.2941737996
 51
68.4903981731
  0
ARC
  5
3FB
100
AcDbEntity
  8
BEZUGSACHSEN
100
AcDbCircle
 62
7
  6
CONTINUOUS
 10
549.8074579967
 20
102.1992701419
 40
5.0
100
AcDbArc
 50
150.0
 51
180.0
  0
ARC
  5
3FC
100
AcDbEntity
  8
BEZUGSACHSEN
100
AcDbCircle
 62
7
  6
CONTINUOUS
 10
549.8074579967
 20
92.9675875326
 40
5.0
100
AcDbArc
 50
180.0
 51
211.8907918018
  0
ARC
  5
3FD
100
AcDbEntity
  8
BEZUGSACHSEN
100
AcDbCircle
 62
7
  6
CONTINUOUS
 10
543.8074579967
 20
111.8069652965
 40
5.0
100
AcDbArc
 50
330.0
 51
360.0
  0
ARC
  5
3FE
100
AcDbEntity
  8
KONSTRUKTIONSELEMENTE
100
AcDbCircle
 62
7
  6
CONTINUOUS
 10
537.2127334605
 20
132.9488547294
 40
34.9105381394
100
AcDbArc
 50
41.4582650473
 51
41.7924723832
  0
ARC
  5
3FF
100
AcDbEntity
  8
BEZUGSACHSEN
100
AcDbCircle
 62
7
  6
CONTINUOUS
 10
550.8074579967
 20
117.9449908803
 40
2.0
100
AcDbArc
 50
99.0
 51
180.0
  0
ARC
  5
400
100
AcDbEntity
  8
BEZUGSACHSEN
100
AcDbCircle
 62
7
  6
CONTINUOUS
 10
558.8074579967
 20
95.539016104
 40
14.0
100
AcDbArc
 50
211.8907918018
 51
328.1092081982
  0
CIRCLE
  5
401
100
AcDbEntity
  8
0
100
AcDbCircle
 62
7
  6
CONTINUOUS
 10
558.8074579967
 20
95.539016104
 40
5.75
  0
ARC
  5
402
100
AcDbEntity
  8
RUNDUNGEN
100
AcDbCircle
 62
7
  6
CONTINUOUS
 10
567.8074579967
 20
102.1992701419
 40
5.0
100
AcDbArc
 50
0.0
 51
30.0
  0
ARC
  5
403
100
AcDbEntity
  8
RUNDUNGEN
100
AcDbCircle
 62
7
  6
CONTINUOUS
 10
567.8074579967
 20
92.9675875326
 40
5.0
100
AcDbArc
 50
328.1092081982
 51
360.0
  0
ARC
  5
404
100
AcDbEntity
  8
KONSTRUKTIONSELEMENTE
100
AcDbCircle
 62
7
  6
CONTINUOUS
 10
573.8074579967
 20
111.8069652965
 40
5.0
100
AcDbArc
 50
180.0
 51
210.0
  0
ARC
  5
405
100
AcDbEntity
  8
KONSTRUKTIONSELEMENTE
100
AcDbCircle
 62
7
  6
CONTINUOUS
 10
557.0546068044
 20
139.9977005249
 40
16.8620542653
100
AcDbArc
 50
67.7587730101
 51
67.9457407441
  0
ARC
  5
406
100
AcDbEntity
  8
RUNDUNGEN
100
AcDbCircle
 62
7
  6
CONTINUOUS
 10
576.1482348065
 20
126.7054880833
 40
14.4764335754
100
AcDbArc
 50
208.8852859717
 51
210.0002435559
  0
ARC
  5
407
100
AcDbEntity
  8
KONSTRUKTIONSELEMENTE
100
AcDbCircle
 62
7
  6
CONTINUOUS
 10
566.8074579967
 20
117.9449908803
 40
2.0
100
AcDbArc
 50
0.0
 51
81.0
  0
ARC
  5
408
100
AcDbEntity
  8
KONSTRUKTIONSELEMENTE
100
AcDbCircle
 62
7
  6
CONTINUOUS
 10
520.0444836211
 20
146.3847695608
 40
44.7517733434
100
AcDbArc
 50
358.3172302345
 51
358.8467284615
  0
ARC
  5
409
100
AcDbEntity
  8
KONSTRUKTIONSELEMENTE
100
AcDbCircle
 62
7
  6
CONTINUOUS
 10
520.0614906604
 20
146.3753689307
 40
44.7347605621
100
AcDbArc
 50
1.0648671091
 51
1.6828393284
  0
ARC
  5
40A
100
AcDbEntity
  8
KONSTRUKTIONSELEMENTE
100
AcDbCircle
 62
7
  6
CONTINUOUS
 10
523.0308180036
 20
147.2321495401
 40
42.0325061106
100
AcDbArc
 50
6.4731562984
 51
6.9245921445
  0
ARC
  5
40B
100
AcDbEntity
  8
KONSTRUKTIONSELEMENTE
100
AcDbCircle
 62
7
  6
CONTINUOUS
 10
521.8086010391
 20
152.7657488261
 40
41.334037808
100
AcDbArc
 50
0.9969455704
 51
1.4938336928
  0
ARC
  5
40C
100
AcDbEntity
  8
0
100
AcDbCircle
 62
7
  6
CONTINUOUS
 10
521.2819667476
 20
152.7657488263
 40
41.3340377979
100
AcDbArc
 50
0.9969455703
 51
1.4938336929
  0
ARC
  5
40D
100
AcDbEntity
  8
0
100
AcDbCircle
 62
7
  6
CONTINUOUS
 10
521.2819667688
 20
152.7705920685
 40
41.3340377766
100
AcDbArc
 50
358.5061663071
 51
359.0030546668
  0
ARC
  5
40E
100
AcDbEntity
  8
KONSTRUKTIONSELEMENTE
100
AcDbCircle
 62
7
  6
CONTINUOUS
 10
521.8086010806
 20
152.7705920683
 40
41.3340377664
100
AcDbArc
 50
358.506166307
 51
359.0030546669
  0
ARC
  5
40F
100
AcDbEntity
  8
0
100
AcDbCircle
 62
7
  6
CONTINUOUS
 10
525.2438580196
 20
153.8696738546
 40
37.6214551215
100
AcDbArc
 50
353.3856405663
 51
353.8219602644
  0
ARC
  5
410
100
AcDbEntity
  8
KONSTRUKTIONSELEMENTE
100
AcDbCircle
 62
7
  6
CONTINUOUS
 10
525.7704923343
 20
153.8696738532
 40
37.6214551084
100
AcDbArc
 50
353.3856405663
 51
353.8219602645
  0
ARC
  5
411
100
AcDbEntity
  8
KONSTRUKTIONSELEMENTE
100
AcDbCircle
 62
7
  6
CONTINUOUS
 10
530.1943672758
 20
149.7266396233
 40
34.3907480923
100
AcDbArc
 50
359.8009780401
 51
0.1990216753
  0
ARC
  5
412
100
AcDbEntity
  8
KONSTRUKTIONSELEMENTE
100
AcDbCircle
 62
7
  6
CONTINUOUS
 10
531.3969530954
 20
149.2815375527
 40
33.3992592104
100
AcDbArc
 50
359.7950698584
 51
0.2049298484
  0
ARC
  5
413
100
AcDbEntity
  8
KONSTRUKTIONSELEMENTE
100
AcDbCircle
 62
7
  6
CONTINUOUS
 10
535.4496022381
 20
155.677433433
 40
28.5864304858
100
AcDbArc
 50
347.1215335981
 51
347.4233750846
  0
ARC
  5
414
100
AcDbEntity
  8
KONSTRUKTIONSELEMENTE
100
AcDbCircle
 62
7
  6
CONTINUOUS
 10
535.9646836002
 20
155.8442070059
 40
27.1779318386
100
AcDbArc
 50
357.954847911
 51
0.4080157851
  0
ARC
  5
415
100
AcDbEntity
  8
0
100
AcDbCircle
 62
7
  6
CONTINUOUS
 10
535.4380492985
 20
155.8442070059
 40
27.1779318386
100
AcDbArc
 50
357.954847911
 51
0.4080157851
  0
ARC
  5
416
100
AcDbEntity
  8
KONSTRUKTIONSELEMENTE
100
AcDbCircle
 62
7
  6
CONTINUOUS
 10
536.8614009698
 20
155.3247536002
 40
26.4923140711
100
AcDbArc
 50
358.531837133
 51
0.4191564172
  0
ARC
  5
417
100
AcDbEntity
  8
0
100
AcDbCircle
 62
7
  6
CONTINUOUS
 10
558.8074579967
 20
167.439016104
 40
38.0
100
AcDbArc
 50
279.4721988504
 51
360.0
  0
ARC
  5
418
100
AcDbEntity
  8
0
100
AcDbCircle
 62
7
  6
CONTINUOUS
 10
558.8074579967
 20
167.439016104
 40
38.0
100
AcDbArc
 50
229.5294312019
 51
260.5278011496
  0
ARC
  5
419
100
AcDbEntity
  8
0
100
AcDbCircle
 62
7
  6
CONTINUOUS
 10
558.8074579967
 20
167.439016104
 40
38.0
100
AcDbArc
 50
180.0
 51
220.4705687981
  0
ARC
  5
41A
100
AcDbEntity
  8
KONSTRUKTIONSELEMENTE
100
AcDbCircle
 62
7
  6
CONTINUOUS
 10
541.8975995448
 20
152.2962116825
 40
22.6875134426
100
AcDbArc
 50
358.2854597459
 51
0.4893610307
  0
ARC
  5
41B
100
AcDbEntity
  8
KONSTRUKTIONSELEMENTE
100
AcDbCircle
 62
7
  6
CONTINUOUS
 10
542.7198635822
 20
151.7774495508
 40
22.0763409121
100
AcDbArc
 50
357.4814665034
 51
0.5018120544
  0
ARC
  5
41C
100
AcDbEntity
  8
0
100
AcDbCircle
 62
7
  6
CONTINUOUS
 10
558.8074579967
 20
167.439016104
 40
20.0
100
AcDbArc
 50
288.2219531704
 51
360.0
  0
ARC
  5
41D
100
AcDbEntity
  8
0
100
AcDbCircle
 62
7
  6
CONTINUOUS
 10
558.8074579967
 20
167.439016104
 40
20.0
100
AcDbArc
 50
233.6293497976
 51
251.7780468296
  0
ARC
  5
41E
100
AcDbEntity
  8
0
100
AcDbCircle
 62
7
  6
CONTINUOUS
 10
558.8074579967
 20
167.439016104
 40
20.0
100
AcDbArc
 50
180.0
 51
216.3706502024
  0
ARC
  5
41F
100
AcDbEntity
  8
KONSTRUKTIONSELEMENTE
100
AcDbCircle
 62
7
  6
CONTINUOUS
 10
545.1504798138
 20
152.3351649335
 40
19.9001228326
100
AcDbArc
 50
350.1697286685
 51
350.8249916996
  0
ARC
  5
420
100
AcDbEntity
  8
KONSTRUKTIONSELEMENTE
100
AcDbCircle
 62
7
  6
CONTINUOUS
 10
550.238258898
 20
163.5461244968
 40
18.8600259002
100
AcDbArc
 50
313.3026797559
 51
313.7269170438
  0
ARC
  5
421
100
AcDbEntity
  8
0
100
AcDbCircle
 62
7
  6
CONTINUOUS
 10
549.7116245997
 20
163.5461244934
 40
18.8600258954
100
AcDbArc
 50
313.3026797558
 51
313.7269170438
  0
ARC
  5
422
100
AcDbEntity
  8
KONSTRUKTIONSELEMENTE
100
AcDbCircle
 62
7
  6
CONTINUOUS
 10
557.4376858717
 20
166.101308316
 40
18.1128489787
100
AcDbArc
 50
292.8642818006
 51
293.1139134123
  0
ARC
  5
423
100
AcDbEntity
  8
KONSTRUKTIONSELEMENTE
100
AcDbCircle
 62
7
  6
CONTINUOUS
 10
551.601188549
 20
158.5147181165
 40
11.8035597306
100
AcDbArc
 50
347.8864591578
 51
348.6591181717
  0
ARC
  5
424
100
AcDbEntity
  8
0
100
AcDbCircle
 62
7
  6
CONTINUOUS
 10
551.0745542493
 20
158.5147181161
 40
11.8035597286
100
AcDbArc
 50
347.8864591577
 51
348.6591181717
  0
ARC
  5
425
100
AcDbEntity
  8
KONSTRUKTIONSELEMENTE
100
AcDbCircle
 62
7
  6
CONTINUOUS
 10
559.8791986445
 20
166.8189771515
 40
11.1245781947
100
AcDbArc
 50
287.2294024152
 51
287.5882348997
  0
ARC
  5
426
100
AcDbEntity
  8
0
100
AcDbCircle
 62
7
  6
CONTINUOUS
 10
559.3525643429
 20
166.8189771515
 40
11.1245781947
100
AcDbArc
 50
287.2294024152
 51
287.5882348997
  0
ARC
  5
427
100
AcDbEntity
  8
KONSTRUKTIONSELEMENTE
100
AcDbCircle
 62
7
  6
CONTINUOUS
 10
556.2462926075
 20
155.8302668039
 40
10.9528562307
100
AcDbArc
 50
320.3892103768
 51
321.001372674
  0
ARC
  5
428
100
AcDbEntity
  8
KONSTRUKTIONSELEMENTE
100
AcDbCircle
 62
7
  6
CONTINUOUS
 10
554.6087522927
 20
158.2680009407
 40
9.1663186254
100
AcDbArc
 50
342.5453800026
 51
343.2476108204
  0
ARC
  5
429
100
AcDbEntity
  8
BEZUGSACHSEN
100
AcDbCircle
 62
7
  6
CONTINUOUS
 10
557.5574579967
 20
152.601341733
 40
5.0
100
AcDbArc
 50
161.6999918899
 51
180.0
  0
ARC
  5
42A
100
AcDbEntity
  8
BEZUGSACHSEN
100
AcDbCircle
 62
7
  6
CONTINUOUS
 10
560.0574579967
 20
152.601341733
 40
5.0
100
AcDbArc
 50
0.0
 51
18.3000081101
  0
ARC
  5
42B
100
AcDbEntity
  8
KONSTRUKTIONSELEMENTE
100
AcDbCircle
 62
7
  6
CONTINUOUS
 10
546.7866427166
 20
155.4182008238
 40
3.0
100
AcDbArc
 50
315.0
 51
135.0
  0
ARC
  5
42C
100
AcDbEntity
  8
0
100
AcDbCircle
 62
7
  6
CONTINUOUS
 10
558.8074579967
 20
212.439016104
 40
38.0
100
AcDbArc
 50
110.0100756937
 51
180.0
  0
ARC
  5
42D
100
AcDbEntity
  8
0
100
AcDbCircle
 62
7
  6
CONTINUOUS
 10
558.8074579967
 20
212.439016104
 40
38.0
100
AcDbArc
 50
0.0
 51
69.9899243063
  0
ARC
  5
42E
100
AcDbEntity
  8
0
100
AcDbCircle
 62
7
  6
CONTINUOUS
 10
558.8074579967
 20
212.439016104
 40
20.0
100
AcDbArc
 50
130.5513412993
 51
180.0
  0
ARC
  5
42F
100
AcDbEntity
  8
0
100
AcDbCircle
 62
7
  6
CONTINUOUS
 10
558.8074579967
 20
212.439016104
 40
20.0
100
AcDbArc
 50
0.0
 51
49.4486587007
  0
ARC
  5
430
100
AcDbEntity
  8
0
100
AcDbCircle
 62
7
  6
CONTINUOUS
 10
558.8074579967
 20
219.439016104
 40
13.0
100
AcDbArc
 50
180.0
 51
360.0
  0
ARC
  5
431
100
AcDbEntity
  8
0
100
AcDbCircle
 62
7
  6
CONTINUOUS
 10
558.8074579967
 20
595.439016104
 40
13.0
100
AcDbArc
 50
0.0
 51
180.0
  0
SPLINE
  5
432
100
AcDbEntity
  8
KONSTRUKTIONSELEMENTE
100
AcDbSpline
 62
7
  6
CONTINUOUS
 70
0
 71
3
 72
10
 73
6
 74
0
 42
0.0000001
 43
0.0000001
 44
0.0000000001
 40
0.0
 40
0.0
 40
0.0
 40
0.0
 40
0.3116645009
 40
0.6060899939
 40
1.0
 40
1.0
 40
1.0
 40
1.0
 10
216.1076605422
 20
84.7075227052
 30
0.0
 10
216.1076605422
 20
84.9046775516
 30
0.0
 10
215.9201319857
 20
85.2760037463
 30
0.0
 10
215.462812716
 20
85.7098768361
 30
0.0
 10
215.0844114038
 20
85.9372868695
 30
0.0
 10
214.8596524305
 20
86.0448750005
 30
0.0
  0
SPLINE
  5
433
100
AcDbEntity
  8
KONSTRUKTIONSELEMENTE
100
AcDbSpline
 62
7
  6
CONTINUOUS
 70
0
 71
3
 72
10
 73
6
 74
0
 42
0.0000001
 43
0.0000001
 44
0.0000000001
 40
0.0
 40
0.0
 40
0.0
 40
0.0
 40
0.3939255147
 40
0.6883533687
 40
1.0
 40
1.0
 40
1.0
 40
1.0
 10
210.3559113067
 20
86.0449869286
 30
0.0
 10
210.1311034007
 20
85.9373970279
 30
0.0
 10
209.7526408791
 20
85.7099514597
 30
0.0
 10
209.2951993614
 20
85.2760737163
 30
0.0
 10
209.1076605422
 20
84.9046940091
 30
0.0
 10
209.1076605422
 20
84.7075227052
 30
0.0
  0
SPLINE
  5
434
100
AcDbEntity
  8
KONSTRUKTIONSELEMENTE
100
AcDbSpline
 62
7
  6
CONTINUOUS
 70
0
 71
3
 72
13
 73
9
 74
0
 42
0.0000001
 43
0.0000001
 44
0.0000000001
 40
0.0
 40
0.0
 40
0.0
 40
0.0
 40
0.1197290731
 40
0.2397365246
 40
0.3609040964
 40
0.4836831257
 40
0.7359942557
 40
1.0
 40
1.0
 40
1.0
 40
1.0
 10
204.6076605422
 20
74.1009209874
 30
0.0
 10
204.6076605422
 20
73.7517072853
 30
0.0
 10
204.679764164
 20
73.0503662493
 30
0.0
 10
204.9980494987
 20
72.0401480011
 30
0.0
 10
205.5074330404
 20
71.1015697825
 30
0.0
 10
206.419233569
 20
69.9687952758
 30
0.0
 10
207.9351248346
 20
68.8316518597
 30
0.0
 10
209.3580116846
 20
68.2851061358
 30
0.0
 10
210.1042362063
 20
68.0951376452
 30
0.0
  0
SPLINE
  5
435
100
AcDbEntity
  8
KONSTRUKTIONSELEMENTE
100
AcDbSpline
 62
7
  6
CONTINUOUS
 70
0
 71
3
 72
13
 73
9
 74
0
 42
0.0000001
 43
0.0000001
 44
0.0000000001
 40
0.0
 40
0.0
 40
0.0
 40
0.0
 40
0.2640112835
 40
0.5163080567
 40
0.6390830379
 40
0.7602378991
 40
0.8802701562
 40
1.0
 40
1.0
 40
1.0
 40
1.0
 10
215.1119883447
 20
68.0953848347
 30
0.0
 10
215.858128167
 20
68.285419436
 30
0.0
 10
217.2808046084
 20
68.8319860672
 30
0.0
 10
218.7963946755
 20
69.9691314081
 30
0.0
 10
219.7079849529
 20
71.1017469168
 30
0.0
 10
220.2173758688
 20
72.0402242033
 30
0.0
 10
220.5355125878
 20
73.0504123065
 30
0.0
 10
220.6076605422
 20
73.75174219
 30
0.0
 10
220.6076605422
 20
74.1009209874
 30
0.0
  0
SPLINE
  5
436
100
AcDbEntity
  8
KONSTRUKTIONSELEMENTE
100
AcDbSpline
 62
7
  6
CONTINUOUS
 70
0
 71
3
 72
10
 73
6
 74
0
 42
0.0000001
 43
0.0000001
 44
0.0000000001
 40
0.0
 40
0.0
 40
0.0
 40
0.0
 40
0.3192646009
 40
0.6086079864
 40
1.0
 40
1.0
 40
1.0
 40
1.0
 10
209.1076605422
 20
74.1009209874
 30
0.0
 10
209.1076605422
 20
73.9291812122
 30
0.0
 10
209.2496763287
 20
73.6083299973
 30
0.0
 10
209.6154823434
 20
73.2149776579
 30
0.0
 10
209.9187701761
 20
73.0019377446
 30
0.0
 10
210.1013064772
 20
72.8970231481
 30
0.0
  0
SPLINE
  5
437
100
AcDbEntity
  8
KONSTRUKTIONSELEMENTE
100
AcDbSpline
 62
7
  6
CONTINUOUS
 70
0
 71
3
 72
10
 73
6
 74
0
 42
0.0000001
 43
0.0000001
 44
0.0000000001
 40
0.0
 40
0.0
 40
0.0
 40
0.0
 40
0.3914026107
 40
0.6807340322
 40
1.0
 40
1.0
 40
1.0
 40
1.0
 10
215.1141061433
 20
72.8970756193
 30
0.0
 10
215.2966333867
 20
73.0019910288
 30
0.0
 10
215.5998729675
 20
73.2150501002
 30
0.0
 10
215.9656936721
 20
73.6083484609
 30
0.0
 10
216.1076605422
 20
73.9291912018
 30
0.0
 10
216.1076605422
 20
74.1009209874
 30
0.0
  0
SPLINE
  5
438
100
AcDbEntity
  8
KONSTRUKTIONSELEMENTE
100
AcDbSpline
 62
7
  6
CONTINUOUS
 70
0
 71
3
 72
10
 73
6
 74
0
 42
0.0000001
 43
0.0000001
 44
0.0000000001
 40
0.0
 40
0.0
 40
0.0
 40
0.0
 40
0.3116645009
 40
0.6060899939
 40
1.0
 40
1.0
 40
1.0
 40
1.0
 10
209.1076605422
 20
105.2136193596
 30
0.0
 10
209.1076605422
 20
105.0164645132
 30
0.0
 10
209.2951890987
 20
104.6451383185
 30
0.0
 10
209.7525083684
 20
104.2112652287
 30
0.0
 10
210.1309096806
 20
103.9838551953
 30
0.0
 10
210.3556686539
 20
103.8762670643
 30
0.0
  0
SPLINE
  5
439
100
AcDbEntity
  8
KONSTRUKTIONSELEMENTE
100
AcDbSpline
 62
7
  6
CONTINUOUS
 70
0
 71
3
 72
10
 73
6
 74
0
 42
0.0000001
 43
0.0000001
 44
0.0000000001
 40
0.0
 40
0.0
 40
0.0
 40
0.0
 40
0.3939255147
 40
0.6883533687
 40
1.0
 40
1.0
 40
1.0
 40
1.0
 10
214.8594097777
 20
103.8761551362
 30
0.0
 10
215.0842176837
 20
103.9837450369
 30
0.0
 10
215.4626802053
 20
104.2111906051
 30
0.0
 10
215.920121723
 20
104.6450683485
 30
0.0
 10
216.1076605422
 20
105.0164480557
 30
0.0
 10
216.1076605422
 20
105.2136193596
 30
0.0
  0
SPLINE
  5
43A
100
AcDbEntity
  8
KONSTRUKTIONSELEMENTE
100
AcDbSpline
 62
7
  6
CONTINUOUS
 70
0
 71
3
 72
9
 73
5
 74
0
 42
0.0000001
 43
0.0000001
 44
0.0000000001
 40
0.0
 40
0.0
 40
0.0
 40
0.0
 40
0.4741296724
 40
1.0
 40
1.0
 40
1.0
 40
1.0
 10
199.3913379911
 20
133.4544979752
 30
0.0
 10
200.8375999596
 20
132.3511061482
 30
0.0
 10
204.3060194516
 20
130.5612729904
 30
0.0
 10
208.0971367017
 20
129.7430875892
 30
0.0
 10
210.1052935418
 20
129.5478945662
 30
0.0
  0
SPLINE
  5
43B
100
AcDbEntity
  8
KONSTRUKTIONSELEMENTE
100
AcDbSpline
 62
7
  6
CONTINUOUS
 70
0
 71
3
 72
9
 73
5
 74
0
 42
0.0000001
 43
0.0000001
 44
0.0000000001
 40
0.0
 40
0.0
 40
0.0
 40
0.0
 40
0.5258549163
 40
1.0
 40
1.0
 40
1.0
 40
1.0
 10
215.1096873691
 20
129.5478547917
 30
0.0
 10
217.1173577986
 20
129.7429791626
 30
0.0
 10
220.907669936
 20
130.5608348223
 30
0.0
 10
224.3755352693
 20
132.3498358383
 30
0.0
 10
225.8217286965
 20
133.4527732929
 30
0.0
  0
SPLINE
  5
43C
100
AcDbEntity
  8
KONSTRUKTIONSELEMENTE
100
AcDbSpline
 62
7
  6
CONTINUOUS
 70
0
 71
3
 72
9
 73
5
 74
0
 42
0.0000001
 43
0.0000001
 44
0.0000000001
 40
0.0
 40
0.0
 40
0.0
 40
0.0
 40
0.2468599944
 40
1.0
 40
1.0
 40
1.0
 40
1.0
 10
203.3349970059
 20
124.8291276692
 30
0.0
 10
203.8766389196
 20
124.6578710169
 30
0.0
 10
206.0911858887
 20
124.0299331266
 30
0.0
 10
208.3778911911
 20
123.6609191386
 30
0.0
 10
210.1056663601
 20
123.5249587703
 30
0.0
  0
SPLINE
  5
43D
100
AcDbEntity
  8
KONSTRUKTIONSELEMENTE
100
AcDbSpline
 62
7
  6
CONTINUOUS
 70
0
 71
3
 72
9
 73
5
 74
0
 42
0.0000001
 43
0.0000001
 44
0.0000000001
 40
0.0
 40
0.0
 40
0.0
 40
0.0
 40
0.253011464
 40
1.0
 40
1.0
 40
1.0
 40
1.0
 10
215.1089811924
 20
123.5248984378
 30
0.0
 10
215.6909184683
 20
123.570675472
 30
0.0
 10
217.9853775592
 20
123.8149310121
 30
0.0
 10
220.2540202395
 20
124.3138437992
 30
0.0
 10
221.8969396656
 20
124.8343910186
 30
0.0
  0
SPLINE
  5
43E
100
AcDbEntity
  8
BEZUGSACHSEN
100
AcDbSpline
 62
7
  6
CONTINUOUS
 70
0
 71
3
 72
9
 73
5
 74
0
 42
0.0000001
 43
0.0000001
 44
0.0000000001
 40
0.0
 40
0.0
 40
0.0
 40
0.0
 40
0.4740637035
 40
1.0
 40
1.0
 40
1.0
 40
1.0
 10
217.5052761931
 20
58.8962560979
 30
0.0
 10
217.2274899181
 20
58.5119698888
 30
0.0
 10
216.4812537724
 20
57.8139489309
 30
0.0
 10
215.5726411411
 20
57.3669333794
 30
0.0
 10
215.0769463683
 20
57.1907954815
 30
0.0
  0
SPLINE
  5
43F
100
AcDbEntity
  8
BEZUGSACHSEN
100
AcDbSpline
 62
7
  6
CONTINUOUS
 70
0
 71
3
 72
9
 73
5
 74
0
 42
0.0000001
 43
0.0000001
 44
0.0000000001
 40
0.0
 40
0.0
 40
0.0
 40
0.0
 40
0.5259362965
 40
1.0
 40
1.0
 40
1.0
 40
1.0
 10
210.1383747161
 20
57.1907954815
 30
0.0
 10
209.6426799433
 20
57.3669333794
 30
0.0
 10
208.734067312
 20
57.8139489309
 30
0.0
 10
207.9878311663
 20
58.5119698888
 30
0.0
 10
207.7100448913
 20
58.8962560979
 30
0.0
  0
SPLINE
  5
440
100
AcDbEntity
  8
KONSTRUKTIONSELEMENTE
100
AcDbSpline
 62
7
  6
CONTINUOUS
 70
0
 71
3
 72
13
 73
9
 74
0
 42
0.0000001
 43
0.0000001
 44
0.0000000001
 40
0.0
 40
0.0
 40
0.0
 40
0.0
 40
0.1035698708
 40
0.2118852886
 40
0.327021228
 40
0.4498249804
 40
0.7159005812
 40
1.0
 40
1.0
 40
1.0
 40
1.0
 10
208.0381794252
 20
5.7901204521
 30
0.0
 10
208.013726028
 20
5.9648030991
 30
0.0
 10
207.9161387576
 20
6.3169475776
 30
0.0
 10
207.6397941363
 20
6.8058460842
 30
0.0
 10
207.243568342
 20
7.2481650342
 30
0.0
 10
206.557064276
 20
7.7704820549
 30
0.0
 10
205.482704133
 20
8.2209523761
 30
0.0
 10
204.5414995139
 20
8.339990337
 30
0.0
 10
204.0576605422
 20
8.339990337
 30
0.0
  0
SPLINE
  5
441
100
AcDbEntity
  8
KONSTRUKTIONSELEMENTE
100
AcDbSpline
 62
7
  6
CONTINUOUS
 70
0
 71
3
 72
9
 73
5
 74
0
 42
0.0000001
 43
0.0000001
 44
0.0000000001
 40
0.0
 40
0.0
 40
0.0
 40
0.0
 40
0.4892987036
 40
1.0
 40
1.0
 40
1.0
 40
1.0
 10
187.0072758929
 20
41.6500828996
 30
0.0
 10
187.0072972217
 20
41.7275736604
 30
0.0
 10
186.9821204661
 20
41.8868263091
 30
0.0
 10
186.911265724
 20
42.031053293
 30
0.0
 10
186.8667388985
 20
42.0985735658
 30
0.0
  0
SPLINE
  5
442
100
AcDbEntity
  8
KONSTRUKTIONSELEMENTE
100
AcDbSpline
 62
7
  6
CONTINUOUS
 70
0
 71
3
 72
11
 73
7
 74
0
 42
0.0000001
 43
0.0000001
 44
0.0000000001
 40
0.0
 40
0.0
 40
0.0
 40
0.0
 40
0.2200436456
 40
0.4557793627
 40
0.7157728079
 40
1.0
 40
1.0
 40
1.0
 40
1.0
 10
179.8983578695
 20
42.6974984555
 30
0.0
 10
179.8983856434
 20
42.7984050359
 30
0.0
 10
179.9427002034
 20
43.009307334
 30
0.0
 10
180.1280539117
 20
43.2877387503
 30
0.0
 10
180.4106825794
 20
43.5142138297
 30
0.0
 10
180.6406449901
 20
43.6177314545
 30
0.0
 10
180.7644291519
 20
43.6585467204
 30
0.0
  0
SPLINE
  5
443
100
AcDbEntity
  8
KONSTRUKTIONSELEMENTE
100
AcDbSpline
 62
7
  6
CONTINUOUS
 70
0
 71
3
 72
11
 73
7
 74
0
 42
0.0000001
 43
0.0000001
 44
0.0000000001
 40
0.0
 40
0.0
 40
0.0
 40
0.0
 40
0.2200599668
 40
0.4557760239
 40
0.7157731965
 40
1.0
 40
1.0
 40
1.0
 40
1.0
 10
173.2523053089
 20
53.6775455224
 30
0.0
 10
173.2523417044
 20
54.0139834432
 30
0.0
 10
173.3997776893
 20
54.7171666466
 30
0.0
 10
174.0176391121
 20
55.6455396852
 30
0.0
 10
174.9598540374
 20
56.4005913563
 30
0.0
 10
175.7265154003
 20
56.7457531607
 30
0.0
 10
176.1391994774
 20
56.8818271955
 30
0.0
  0
SPLINE
  5
444
100
AcDbEntity
  8
KONSTRUKTIONSELEMENTE
100
AcDbSpline
 62
7
  6
CONTINUOUS
 70
0
 71
3
 72
9
 73
5
 74
0
 42
0.0000001
 43
0.0000001
 44
0.0000000001
 40
0.0
 40
0.0
 40
0.0
 40
0.0
 40
0.4891681133
 40
1.0
 40
1.0
 40
1.0
 40
1.0
 10
173.2523055091
 20
50.1418933169
 30
0.0
 10
173.2522904391
 20
49.8838028578
 30
0.0
 10
173.3362014013
 20
49.3532611947
 30
0.0
 10
173.5723734428
 20
48.872830519
 30
0.0
 10
173.7207518509
 20
48.6478301857
 30
0.0
  0
SPLINE
  5
445
100
AcDbEntity
  8
KONSTRUKTIONSELEMENTE
100
AcDbSpline
 62
7
  6
CONTINUOUS
 70
0
 71
3
 72
9
 73
5
 74
0
 42
0.0000001
 43
0.0000001
 44
0.0000000001
 40
0.0
 40
0.0
 40
0.0
 40
0.0
 40
0.4891683995
 40
1.0
 40
1.0
 40
1.0
 40
1.0
 10
230.740446128
 20
16.3925424161
 30
0.0
 10
230.740418206
 20
16.6506521034
 30
0.0
 10
230.8243181156
 20
17.1812374922
 30
0.0
 10
231.0605033767
 20
17.6617070074
 30
0.0
 10
231.2088926699
 20
17.886723847
 30
0.0
  0
SPLINE
  5
446
100
AcDbEntity
  8
KONSTRUKTIONSELEMENTE
100
AcDbSpline
 62
7
  6
CONTINUOUS
 70
0
 71
3
 72
9
 73
5
 74
0
 42
0.0000001
 43
0.0000001
 44
0.0000000001
 40
0.0
 40
0.0
 40
0.0
 40
0.0
 40
0.4753722117
 40
1.0
 40
1.0
 40
1.0
 40
1.0
 10
231.3969542881
 20
18.1767672919
 30
0.0
 10
231.6643940231
 20
17.8450850522
 30
0.0
 10
232.357069157
 20
17.2494068665
 30
0.0
 10
233.1807708543
 20
16.8710416817
 30
0.0
 10
233.6273402964
 20
16.723794649
 30
0.0
  0
SPLINE
  5
447
100
AcDbEntity
  8
KONSTRUKTIONSELEMENTE
100
AcDbSpline
 62
7
  6
CONTINUOUS
 70
0
 71
3
 72
11
 73
7
 74
0
 42
0.0000001
 43
0.0000001
 44
0.0000000001
 40
0.0
 40
0.0
 40
0.0
 40
0.0
 40
0.2094829334
 40
0.4446557434
 40
0.7120095299
 40
1.0
 40
1.0
 40
1.0
 40
1.0
 10
206.0576605422
 20
-4.3879317243
 30
0.0
 10
206.0576605422
 20
-4.5284928117
 30
0.0
 10
206.1489479715
 20
-4.8303864561
 30
0.0
 10
206.4984701928
 20
-5.1760877165
 30
0.0
 10
206.989444753
 20
-5.3980687283
 30
0.0
 10
207.3644216325
 20
-5.4485918961
 30
0.0
 10
207.5576605422
 20
-5.4485918961
 30
0.0
  0
SPLINE
  5
448
100
AcDbEntity
  8
KONSTRUKTIONSELEMENTE
100
AcDbSpline
 62
7
  6
CONTINUOUS
 70
0
 71
3
 72
10
 73
6
 74
0
 42
0.0000001
 43
0.0000001
 44
0.0000000001
 40
0.0
 40
0.0
 40
0.0
 40
0.0
 40
0.2210513433
 40
0.4578290806
 40
1.0
 40
1.0
 40
1.0
 40
1.0
 10
239.8070301752
 20
14.4608879864
 30
0.0
 10
239.8070321499
 20
14.4945349801
 30
0.0
 10
239.7922687857
 20
14.5648908609
 30
0.0
 10
239.7065384643
 20
14.6938393478
 30
0.0
 10
239.5967160127
 20
14.7555165296
 30
0.0
 10
239.5183409122
 20
14.7813590972
 30
0.0
  0
SPLINE
  5
449
100
AcDbEntity
  8
BEZUGSACHSEN
100
AcDbSpline
 62
7
  6
CONTINUOUS
 70
0
 71
3
 72
9
 73
5
 74
0
 42
0.0000001
 43
0.0000001
 44
0.0000000001
 40
0.0
 40
0.0
 40
0.0
 40
0.0
 40
0.2459387646
 40
1.0
 40
1.0
 40
1.0
 40
1.0
 10
219.36955273
 20
66.6769535706
 30
0.0
 10
219.0298568634
 20
66.7889612534
 30
0.0
 10
217.6363532575
 20
67.2065298672
 30
0.0
 10
216.199111394
 20
67.4758343024
 30
0.0
 10
215.1092346916
 20
67.5978275865
 30
0.0
  0
SPLINE
  5
44A
100
AcDbEntity
  8
BEZUGSACHSEN
100
AcDbSpline
 62
7
  6
CONTINUOUS
 70
0
 71
3
 72
9
 73
5
 74
0
 42
0.0000001
 43
0.0000001
 44
0.0000000001
 40
0.0
 40
0.0
 40
0.0
 40
0.0
 40
0.2536983179
 40
1.0
 40
1.0
 40
1.0
 40
1.0
 10
210.1060863928
 20
67.5978275865
 30
0.0
 10
209.7394122403
 20
67.5567846099
 30
0.0
 10
208.2984359258
 20
67.3590928051
 30
0.0
 10
206.8765570596
 20
67.0168348163
 30
0.0
 10
205.8457683543
 20
66.6769535706
 30
0.0
  0
SPLINE
  5
44B
100
AcDbEntity
  8
BEZUGSACHSEN
100
AcDbSpline
 62
7
  6
CONTINUOUS
 70
0
 71
3
 72
11
 73
7
 74
0
 42
0.0000001
 43
0.0000001
 44
0.0000000001
 40
0.0
 40
0.0
 40
0.0
 40
0.0
 40
0.221185816
 40
0.4572071684
 40
0.716647289
 40
1.0
 40
1.0
 40
1.0
 40
1.0
 10
207.1076605422
 20
57.1303582389
 30
0.0
 10
207.1076605422
 20
57.4885507466
 30
0.0
 10
207.258875799
 20
58.2354572144
 30
0.0
 10
207.8961973935
 20
59.2305119536
 30
0.0
 10
208.8736914216
 20
60.0517076061
 30
0.0
 10
209.6734641385
 20
60.4375411507
 30
0.0
 10
210.1050143264
 20
60.5934999143
 30
0.0
  0
SPLINE
  5
44C
100
AcDbEntity
  8
BEZUGSACHSEN
100
AcDbSpline
 62
7
  6
CONTINUOUS
 70
0
 71
3
 72
11
 73
7
 74
0
 42
0.0000001
 43
0.0000001
 44
0.0000000001
 40
0.0
 40
0.0
 40
0.0
 40
0.0
 40
0.283352711
 40
0.5427928316
 40
0.778814184
 40
1.0
 40
1.0
 40
1.0
 40
1.0
 10
215.110306758
 20
60.5934999143
 30
0.0
 10
215.5418569459
 20
60.4375411507
 30
0.0
 10
216.3416296627
 20
60.0517076061
 30
0.0
 10
217.3191236908
 20
59.2305119536
 30
0.0
 10
217.9564452854
 20
58.2354572144
 30
0.0
 10
218.1076605422
 20
57.4885507466
 30
0.0
 10
218.1076605422
 20
57.1303582389
 30
0.0
  0
SPLINE
  5
44D
100
AcDbEntity
  8
KONSTRUKTIONSELEMENTE
100
AcDbSpline
 62
7
  6
CONTINUOUS
 70
0
 71
3
 72
9
 73
5
 74
0
 42
0.0000001
 43
0.0000001
 44
0.0000000001
 40
0.0
 40
0.0
 40
0.0
 40
0.0
 40
0.5108269807
 40
1.0
 40
1.0
 40
1.0
 40
1.0
 10
262.3702626779
 20
45.0617953209
 30
0.0
 10
262.5186449169
 20
45.2868014634
 30
0.0
 10
262.7548215146
 20
45.7672546553
 30
0.0
 10
262.8387191746
 20
46.2978120065
 30
0.0
 10
262.8387237729
 20
46.5559141967
 30
0.0
  0
SPLINE
  5
44E
100
AcDbEntity
  8
KONSTRUKTIONSELEMENTE
100
AcDbSpline
 62
7
  6
CONTINUOUS
 70
0
 71
3
 72
9
 73
5
 74
0
 42
0.0000001
 43
0.0000001
 44
0.0000000001
 40
0.0
 40
0.0
 40
0.0
 40
0.0
 40
0.5322168521
 40
1.0
 40
1.0
 40
1.0
 40
1.0
 10
261.2831813918
 20
44.2499288672
 30
0.0
 10
261.4042692261
 20
44.2100026595
 30
0.0
 10
261.6548957862
 20
44.1997070993
 30
0.0
 10
261.8859498979
 20
44.327385656
 30
0.0
 10
261.9476444162
 20
44.4209389388
 30
0.0
  0
SPLINE
  5
44F
100
AcDbEntity
  8
KONSTRUKTIONSELEMENTE
100
AcDbSpline
 62
7
  6
CONTINUOUS
 70
0
 71
3
 72
9
 73
5
 74
0
 42
0.0000001
 43
0.0000001
 44
0.0000000001
 40
0.0
 40
0.0
 40
0.0
 40
0.0
 40
0.2605100871
 40
1.0
 40
1.0
 40
1.0
 40
1.0
 10
239.7601856748
 20
10.7759788809
 30
0.0
 10
239.7677292153
 20
10.7874178709
 30
0.0
 10
239.7939026866
 20
10.8330655012
 30
0.0
 10
239.8070278924
 20
10.8864581612
 30
0.0
 10
239.8070301752
 20
10.9253540804
 30
0.0
  0
SPLINE
  5
450
100
AcDbEntity
  8
KONSTRUKTIONSELEMENTE
100
AcDbSpline
 62
7
  6
CONTINUOUS
 70
0
 71
3
 72
11
 73
7
 74
0
 42
0.0000001
 43
0.0000001
 44
0.0000000001
 40
0.0
 40
0.0
 40
0.0
 40
0.0
 40
0.2729767978
 40
0.5353848362
 40
0.7789285996
 40
1.0
 40
1.0
 40
1.0
 40
1.0
 10
234.9684007409
 20
8.339990337
 30
0.0
 10
235.4371528792
 20
8.339990337
 30
0.0
 10
236.3592861782
 20
8.4310077747
 30
0.0
 10
237.6452435503
 20
8.8344695968
 30
0.0
 10
238.7307179397
 20
9.4751778308
 30
0.0
 10
239.2909480011
 20
10.0644290377
 30
0.0
 10
239.4999396761
 20
10.3813430493
 30
0.0
  0
SPLINE
  5
451
100
AcDbEntity
  8
KONSTRUKTIONSELEMENTE
100
AcDbSpline
 62
7
  6
CONTINUOUS
 70
0
 71
3
 72
13
 73
9
 74
0
 42
0.0000001
 43
0.0000001
 44
0.0000000001
 40
0.0
 40
0.0
 40
0.0
 40
0.0
 40
0.2870489256
 40
0.5535682914
 40
0.6755020148
 40
0.789331082
 40
0.8965440086
 40
1.0
 40
1.0
 40
1.0
 40
1.0
 10
221.1576605422
 20
8.339990337
 30
0.0
 10
220.6423935828
 20
8.339990337
 30
0.0
 10
219.6436423361
 20
8.2058217271
 30
0.0
 10
218.5171325579
 20
7.6964831883
 30
0.0
 10
217.8256831729
 20
7.1092713268
 30
0.0
 10
217.4473863471
 20
6.6166987181
 30
0.0
 10
217.2115543031
 20
6.0773616957
 30
0.0
 10
217.1576605422
 20
5.6972718123
 30
0.0
 10
217.1576605422
 20
5.5115632123
 30
0.0
  0
SPLINE
  5
452
100
AcDbEntity
  8
KONSTRUKTIONSELEMENTE
100
AcDbSpline
 62
7
  6
CONTINUOUS
 70
0
 71
3
 72
11
 73
7
 74
0
 42
0.0000001
 43
0.0000001
 44
0.0000000001
 40
0.0
 40
0.0
 40
0.0
 40
0.0
 40
0.220058334
 40
0.4557781708
 40
0.71578719
 40
1.0
 40
1.0
 40
1.0
 40
1.0
 10
262.8387237729
 20
50.0914481026
 30
0.0
 10
262.8387297669
 20
50.4278887621
 30
0.0
 10
262.6912596645
 20
51.1310919084
 30
0.0
 10
262.0733961531
 20
52.0594988406
 30
0.0
 10
261.1311549937
 20
52.8145613974
 30
0.0
 10
260.3644852294
 20
53.1597228789
 30
0.0
 10
259.9518150514
 20
53.2957923308
 30
0.0
  0
SPLINE
  5
453
100
AcDbEntity
  8
KONSTRUKTIONSELEMENTE
100
AcDbSpline
 62
7
  6
CONTINUOUS
 70
0
 71
3
 72
11
 73
7
 74
0
 42
0.0000001
 43
0.0000001
 44
0.0000000001
 40
0.0
 40
0.0
 40
0.0
 40
0.0
 40
0.2879904701
 40
0.5553442566
 40
0.7905170666
 40
1.0
 40
1.0
 40
1.0
 40
1.0
 10
217.6576605422
 20
-5.4485918961
 30
0.0
 10
217.8508994519
 20
-5.4485918961
 30
0.0
 10
218.2258763314
 20
-5.3980687283
 30
0.0
 10
218.7168508916
 20
-5.1760877165
 30
0.0
 10
219.0663731129
 20
-4.8303864561
 30
0.0
 10
219.1576605422
 20
-4.5284928117
 30
0.0
 10
219.1576605422
 20
-4.3879317243
 30
0.0
  0
SPLINE
  5
454
100
AcDbEntity
  8
KONSTRUKTIONSELEMENTE
100
AcDbSpline
 62
7
  6
CONTINUOUS
 70
0
 71
3
 72
11
 73
7
 74
0
 42
0.0000001
 43
0.0000001
 44
0.0000000001
 40
0.0
 40
0.0
 40
0.0
 40
0.0
 40
0.2820767698
 40
0.5407553301
 40
0.7772666753
 40
1.0
 40
1.0
 40
1.0
 40
1.0
 10
221.1659828999
 20
8.3179799947
 30
0.0
 10
220.8740348258
 20
8.1994685676
 30
0.0
 10
220.3347671221
 20
7.9144486545
 30
0.0
 10
219.680540989
 20
7.3282895918
 30
0.0
 10
219.257354912
 20
6.6311108639
 30
0.0
 10
219.1576605422
 20
6.1139139697
 30
0.0
 10
219.1576605422
 20
5.8651166029
 30
0.0
  0
SPLINE
  5
455
100
AcDbEntity
  8
KONSTRUKTIONSELEMENTE
100
AcDbSpline
 62
7
  6
CONTINUOUS
 70
0
 71
3
 72
11
 73
7
 74
0
 42
0.0000001
 43
0.0000001
 44
0.0000000001
 40
0.0
 40
0.0
 40
0.0
 40
0.0
 40
0.2808713938
 40
0.5389210953
 40
0.7759033082
 40
1.0
 40
1.0
 40
1.0
 40
1.0
 10
204.192126225
 20
8.3380143769
 30
0.0
 10
204.4654793868
 20
8.2160602172
 30
0.0
 10
204.9690799921
 20
7.9288226273
 30
0.0
 10
205.5761223762
 20
7.3537363591
 30
0.0
 10
205.966283643
 20
6.6799238307
 30
0.0
 10
206.0576605422
 20
6.1847572344
 30
0.0
 10
206.0576605422
 20
5.9459380224
 30
0.0
  0
SPLINE
  5
456
100
AcDbEntity
  8
KONSTRUKTIONSELEMENTE
100
AcDbSpline
 62
7
  6
CONTINUOUS
 70
0
 71
3
 72
9
 73
5
 74
0
 42
0.0000001
 43
0.0000001
 44
0.0000000001
 40
0.0
 40
0.0
 40
0.0
 40
0.0
 40
0.5107012964
 40
1.0
 40
1.0
 40
1.0
 40
1.0
 10
180.0388948639
 20
39.4205806645
 30
0.0
 10
179.9943680384
 20
39.4881009373
 30
0.0
 10
179.9235132963
 20
39.6323279212
 30
0.0
 10
179.8983365407
 20
39.7915805699
 30
0.0
 10
179.8983578695
 20
39.8690713308
 30
0.0
  0
SPLINE
  5
457
100
AcDbEntity
  8
KONSTRUKTIONSELEMENTE
100
AcDbSpline
 62
7
  6
CONTINUOUS
 70
0
 71
3
 72
11
 73
7
 74
0
 42
0.0000001
 43
0.0000001
 44
0.0000000001
 40
0.0
 40
0.0
 40
0.0
 40
0.0
 40
0.2231088723
 40
0.4658949299
 40
0.7265978581
 40
1.0
 40
1.0
 40
1.0
 40
1.0
 10
198.9559164358
 20
10.3813430493
 30
0.0
 10
199.1344230821
 20
10.1106563946
 30
0.0
 10
199.5948427386
 20
9.600897444
 30
0.0
 10
200.4789197891
 20
9.0084767985
 30
0.0
 10
201.5326584787
 20
8.5838074792
 30
0.0
 10
202.298333743
 20
8.4298105771
 30
0.0
 10
202.6931249106
 20
8.3848911256
 30
0.0
  0
SPLINE
  5
458
100
AcDbEntity
  8
KONSTRUKTIONSELEMENTE
100
AcDbSpline
 62
7
  6
CONTINUOUS
 70
0
 71
3
 72
13
 73
9
 74
0
 42
0.0000001
 43
0.0000001
 44
0.0000000001
 40
0.0
 40
0.0
 40
0.0
 40
0.0
 40
0.2198121251
 40
0.3415455497
 40
0.4695397045
 40
0.6018885822
 40
0.736224413
 40
1.0
 40
1.0
 40
1.0
 40
1.0
 10
248.7475505322
 20
44.4822637023
 30
0.0
 10
249.0416490034
 20
44.928233267
 30
0.0
 10
249.6767309777
 20
45.5090265765
 30
0.0
 10
250.6893765376
 20
46.0384687041
 30
0.0
 10
251.5736301546
 20
46.3356607188
 30
0.0
 10
252.5210930173
 20
46.5054341249
 30
0.0
 10
253.8117789569
 20
46.5550279019
 30
0.0
 10
254.7833654109
 20
46.3931086875
 30
0.0
 10
255.3921807761
 20
46.1923644189
 30
0.0
  0
SPLINE
  5
459
100
AcDbEntity
  8
KONSTRUKTIONSELEMENTE
100
AcDbSpline
 62
7
  6
CONTINUOUS
 70
0
 71
3
 72
11
 73
7
 74
0
 42
0.0000001
 43
0.0000001
 44
0.0000000001
 40
0.0
 40
0.0
 40
0.0
 40
0.0
 40
0.220058334
 40
0.4557781708
 40
0.71578719
 40
1.0
 40
1.0
 40
1.0
 40
1.0
 10
262.8387237729
 20
46.5559141967
 30
0.0
 10
262.8387297669
 20
46.8923548562
 30
0.0
 10
262.6912596645
 20
47.5955580024
 30
0.0
 10
262.0733961531
 20
48.5239649347
 30
0.0
 10
261.1311549937
 20
49.2790274915
 30
0.0
 10
260.3644852294
 20
49.6241889729
 30
0.0
 10
259.9518150514
 20
49.7602584248
 30
0.0
  0
SPLINE
  5
45A
100
AcDbEntity
  8
KONSTRUKTIONSELEMENTE
100
AcDbSpline
 62
7
  6
CONTINUOUS
 70
0
 71
3
 72
9
 73
5
 74
0
 42
0.0000001
 43
0.0000001
 44
0.0000000001
 40
0.0
 40
0.0
 40
0.0
 40
0.0
 40
0.5398499172
 40
1.0
 40
1.0
 40
1.0
 40
1.0
 10
186.1412046105
 20
41.0425880252
 30
0.0
 10
186.3402928063
 20
41.1082332381
 30
0.0
 10
186.6955738063
 20
41.2910669787
 30
0.0
 10
186.9323008653
 20
41.6292125036
 30
0.0
 10
186.9797179931
 20
41.8014890965
 30
0.0
  0
SPLINE
  5
45B
100
AcDbEntity
  8
KONSTRUKTIONSELEMENTE
100
AcDbSpline
 62
7
  6
CONTINUOUS
 70
0
 71
3
 72
11
 73
7
 74
0
 42
0.0000001
 43
0.0000001
 44
0.0000000001
 40
0.0
 40
0.0
 40
0.0
 40
0.0
 40
0.2816064552
 40
0.5417085427
 40
0.7793419382
 40
1.0
 40
1.0
 40
1.0
 40
1.0
 10
185.295968087
 20
42.3243007893
 30
0.0
 10
185.4093311311
 20
42.3616799073
 30
0.0
 10
185.6213299435
 20
42.4549465993
 30
0.0
 10
185.8885856943
 20
42.6546892359
 30
0.0
 10
186.0774789823
 20
42.8990627521
 30
0.0
 10
186.1414848114
 20
43.0874575996
 30
0.0
 10
186.1545971886
 20
43.1800658503
 30
0.0
  0
SPLINE
  5
45C
100
AcDbEntity
  8
BEZUGSACHSEN
100
AcDbSpline
 62
7
  6
CONTINUOUS
 70
0
 71
3
 72
9
 73
5
 74
0
 42
0.0000001
 43
0.0000001
 44
0.0000000001
 40
0.0
 40
0.0
 40
0.0
 40
0.0
 40
0.2459387646
 40
1.0
 40
1.0
 40
1.0
 40
1.0
 10
219.36955273
 20
63.1414196647
 30
0.0
 10
219.0298568634
 20
63.2534273474
 30
0.0
 10
217.6363532575
 20
63.6709959613
 30
0.0
 10
216.199111394
 20
63.9403003964
 30
0.0
 10
215.1092346916
 20
64.0622936806
 30
0.0
  0
SPLINE
  5
45D
100
AcDbEntity
  8
BEZUGSACHSEN
100
AcDbSpline
 62
7
  6
CONTINUOUS
 70
0
 71
3
 72
9
 73
5
 74
0
 42
0.0000001
 43
0.0000001
 44
0.0000000001
 40
0.0
 40
0.0
 40
0.0
 40
0.0
 40
0.2536983179
 40
1.0
 40
1.0
 40
1.0
 40
1.0
 10
210.1060863928
 20
64.0622936806
 30
0.0
 10
209.7394122403
 20
64.0212507039
 30
0.0
 10
208.2984359258
 20
63.8235588992
 30
0.0
 10
206.8765570596
 20
63.4813009103
 30
0.0
 10
205.8457683543
 20
63.1414196647
 30
0.0
  0
SPLINE
  5
45E
100
AcDbEntity
  8
KONSTRUKTIONSELEMENTE
100
AcDbSpline
 62
7
  6
CONTINUOUS
 70
0
 71
3
 72
10
 73
6
 74
0
 42
0.0000001
 43
0.0000001
 44
0.0000000001
 40
0.0
 40
0.0
 40
0.0
 40
0.0
 40
0.2210513433
 40
0.4578290806
 40
1.0
 40
1.0
 40
1.0
 40
1.0
 10
239.8070301752
 20
10.9253540804
 30
0.0
 10
239.8070321499
 20
10.9590010742
 30
0.0
 10
239.7922687857
 20
11.029356955
 30
0.0
 10
239.7065384643
 20
11.1583054419
 30
0.0
 10
239.5967160127
 20
11.2199826237
 30
0.0
 10
239.5183409122
 20
11.2458251913
 30
0.0
  0
SPLINE
  5
45F
100
AcDbEntity
  8
BEZUGSACHSEN
100
AcDbSpline
 62
7
  6
CONTINUOUS
 70
0
 71
3
 72
19
 73
15
 74
0
 42
0.0000001
 43
0.0000001
 44
0.0000000001
 40
0.0
 40
0.0
 40
0.0
 40
0.0
 40
0.0517234907
 40
0.1053372095
 40
0.1622487312
 40
0.2232163938
 40
0.3564752704
 40
0.5
 40
0.6435247296
 40
0.7767836062
 40
0.8377512688
 40
0.8946627905
 40
0.9482765093
 40
1.0
 40
1.0
 40
1.0
 40
1.0
 10
218.1076605422
 20
57.1303582389
 30
0.0
 10
218.1076605422
 20
56.8750320548
 30
0.0
 10
218.033509961
 20
56.3524091225
 30
0.0
 10
217.7093241621
 20
55.6107877334
 30
0.0
 10
217.1890520696
 20
54.93353934
 30
0.0
 10
216.2384852001
 20
54.12609638
 30
0.0
 10
214.6885047082
 20
53.4257747264
 30
0.0
 10
212.6076605422
 20
53.1455974447
 30
0.0
 10
210.5268163762
 20
53.4257747264
 30
0.0
 10
208.9768358842
 20
54.12609638
 30
0.0
 10
208.0262690147
 20
54.93353934
 30
0.0
 10
207.5059969223
 20
55.6107877334
 30
0.0
 10
207.1818111234
 20
56.3524091225
 30
0.0
 10
207.1076605422
 20
56.8750320548
 30
0.0
 10
207.1076605422
 20
57.1303582389
 30
0.0
  0
SPLINE
  5
460
100
AcDbEntity
  8
KONSTRUKTIONSELEMENTE
100
AcDbSpline
 62
7
  6
CONTINUOUS
 70
0
 71
3
 72
11
 73
7
 74
0
 42
0.0000001
 43
0.0000001
 44
0.0000000001
 40
0.0
 40
0.0
 40
0.0
 40
0.0
 40
0.2200436456
 40
0.4557793627
 40
0.7157728079
 40
1.0
 40
1.0
 40
1.0
 40
1.0
 10
179.8983578695
 20
39.8690713308
 30
0.0
 10
179.8983856434
 20
39.9699779112
 30
0.0
 10
179.9427002034
 20
40.1808802093
 30
0.0
 10
180.1280539117
 20
40.4593116255
 30
0.0
 10
180.4106825794
 20
40.6857867049
 30
0.0
 10
180.6406449901
 20
40.7893043298
 30
0.0
 10
180.7644291519
 20
40.8301195957
 30
0.0
  0
SPLINE
  5
461
100
AcDbEntity
  8
KONSTRUKTIONSELEMENTE
100
AcDbSpline
 62
7
  6
CONTINUOUS
 70
0
 71
3
 72
11
 73
7
 74
0
 42
0.0000001
 43
0.0000001
 44
0.0000000001
 40
0.0
 40
0.0
 40
0.0
 40
0.0
 40
0.2842240174
 40
0.5442187073
 40
0.779940343
 40
1.0
 40
1.0
 40
1.0
 40
1.0
 10
176.1391994774
 20
53.3462932896
 30
0.0
 10
175.7265089627
 20
53.2102171321
 30
0.0
 10
174.9598363577
 20
52.8650477286
 30
0.0
 10
174.0176000103
 20
52.109972023
 30
0.0
 10
173.3997384564
 20
51.181556099
 30
0.0
 10
173.2523251542
 20
50.4783393116
 30
0.0
 10
173.2523055091
 20
50.1418933169
 30
0.0
  0
SPLINE
  5
462
100
AcDbEntity
  8
KONSTRUKTIONSELEMENTE
100
AcDbSpline
 62
7
  6
CONTINUOUS
 70
0
 71
3
 72
11
 73
7
 74
0
 42
0.0000001
 43
0.0000001
 44
0.0000000001
 40
0.0
 40
0.0
 40
0.0
 40
0.0
 40
0.2842271921
 40
0.5442206373
 40
0.7799563544
 40
1.0
 40
1.0
 40
1.0
 40
1.0
 10
186.1412046105
 20
40.6890346346
 30
0.0
 10
186.2649887723
 20
40.7298499005
 30
0.0
 10
186.494951183
 20
40.8333675254
 30
0.0
 10
186.7775798507
 20
41.0598426048
 30
0.0
 10
186.962933559
 20
41.3382740211
 30
0.0
 10
187.007248119
 20
41.5491763191
 30
0.0
 10
187.0072758929
 20
41.6500828996
 30
0.0
  0
SPLINE
  5
463
100
AcDbEntity
  8
KONSTRUKTIONSELEMENTE
100
AcDbSpline
 62
7
  6
CONTINUOUS
 70
0
 71
3
 72
11
 73
7
 74
0
 42
0.0000001
 43
0.0000001
 44
0.0000000001
 40
0.0
 40
0.0
 40
0.0
 40
0.0
 40
0.2842268035
 40
0.5442239761
 40
0.7799400332
 40
1.0
 40
1.0
 40
1.0
 40
1.0
 10
233.6273402964
 20
13.188260743
 30
0.0
 10
233.2146562194
 20
13.3243347779
 30
0.0
 10
232.4479948564
 20
13.6694965823
 30
0.0
 10
231.5057799311
 20
14.4245482534
 30
0.0
 10
230.8879185084
 20
15.352921292
 30
0.0
 10
230.7404825234
 20
16.0561044953
 30
0.0
 10
230.740446128
 20
16.3925424161
 30
0.0
  0
SPLINE
  5
464
100
AcDbEntity
  8
KONSTRUKTIONSELEMENTE
100
AcDbSpline
 62
7
  6
CONTINUOUS
 70
0
 71
3
 72
9
 73
5
 74
0
 42
0.0000001
 43
0.0000001
 44
0.0000000001
 40
0.0
 40
0.0
 40
0.0
 40
0.0
 40
0.5037350338
 40
1.0
 40
1.0
 40
1.0
 40
1.0
 10
227.3925008374
 20
90.3260780986
 30
0.0
 10
227.2303416167
 20
89.9827865503
 30
0.0
 10
226.9618532057
 20
89.2730747167
 30
0.0
 10
226.8611658318
 20
88.5168234467
 30
0.0
 10
226.8611658318
 20
88.1427896889
 30
0.0
  0
SPLINE
  5
465
100
AcDbEntity
  8
KONSTRUKTIONSELEMENTE
100
AcDbSpline
 62
7
  6
CONTINUOUS
 70
0
 71
3
 72
9
 73
5
 74
0
 42
0.0000001
 43
0.0000001
 44
0.0000000001
 40
0.0
 40
0.0
 40
0.0
 40
0.0
 40
0.500127309
 40
1.0
 40
1.0
 40
1.0
 40
1.0
 10
197.822820247
 20
92.9675875326
 30
0.0
 10
197.9865247096
 20
93.3757615324
 30
0.0
 10
198.2553541704
 20
94.2178301815
 30
0.0
 10
198.3541552526
 20
95.099461457
 30
0.0
 10
198.3541552526
 20
95.539016104
 30
0.0
  0
SPLINE
  5
466
100
AcDbEntity
  8
KONSTRUKTIONSELEMENTE
100
AcDbSpline
 62
7
  6
CONTINUOUS
 70
0
 71
3
 72
9
 73
5
 74
0
 42
0.0000001
 43
0.0000001
 44
0.0000000001
 40
0.0
 40
0.0
 40
0.0
 40
0.0
 40
0.499872691
 40
1.0
 40
1.0
 40
1.0
 40
1.0
 10
226.8611658318
 20
95.539016104
 30
0.0
 10
226.8611658318
 20
95.099461457
 30
0.0
 10
226.959966914
 20
94.2178301815
 30
0.0
 10
227.2287963748
 20
93.3757615324
 30
0.0
 10
227.3925008374
 20
92.9675875326
 30
0.0
  0
SPLINE
  5
467
100
AcDbEntity
  8
KONSTRUKTIONSELEMENTE
100
AcDbSpline
 62
7
  6
CONTINUOUS
 70
0
 71
3
 72
9
 73
5
 74
0
 42
0.0000001
 43
0.0000001
 44
0.0000000001
 40
0.0
 40
0.0
 40
0.0
 40
0.0
 40
0.4962649662
 40
1.0
 40
1.0
 40
1.0
 40
1.0
 10
198.3541552526
 20
88.1427896889
 30
0.0
 10
198.3541552526
 20
88.5168234467
 30
0.0
 10
198.2534678787
 20
89.2730747167
 30
0.0
 10
197.9849794677
 20
89.9827865503
 30
0.0
 10
197.822820247
 20
90.3260780986
 30
0.0
  0
SPLINE
  5
468
100
AcDbEntity
  8
KONSTRUKTIONSELEMENTE
100
AcDbSpline
 62
7
  6
CONTINUOUS
 70
0
 71
3
 72
11
 73
7
 74
0
 42
0.0000001
 43
0.0000001
 44
0.0000000001
 40
0.0
 40
0.0
 40
0.0
 40
0.0
 40
0.2551631889
 40
0.5065184691
 40
0.7542163689
 40
1.0
 40
1.0
 40
1.0
 40
1.0
 10
198.3541552526
 20
102.1992701419
 30
0.0
 10
198.3541552526
 20
102.4651309364
 30
0.0
 10
198.4562759133
 20
102.9969724481
 30
0.0
 10
198.8522489253
 20
103.6873315463
 30
0.0
 10
199.3909490276
 20
104.2531628076
 30
0.0
 10
199.8059202209
 20
104.5602544303
 30
0.0
 10
200.0209915978
 20
104.6992701419
 30
0.0
  0
SPLINE
  5
469
100
AcDbEntity
  8
KONSTRUKTIONSELEMENTE
100
AcDbSpline
 62
7
  6
CONTINUOUS
 70
0
 71
3
 72
11
 73
7
 74
0
 42
0.0000001
 43
0.0000001
 44
0.0000000001
 40
0.0
 40
0.0
 40
0.0
 40
0.0
 40
0.2457861969
 40
0.4934867763
 40
0.7448413997
 40
1.0
 40
1.0
 40
1.0
 40
1.0
 10
225.1943294865
 20
104.6992701419
 30
0.0
 10
225.4094031068
 20
104.5602529803
 30
0.0
 10
225.8243785756
 20
104.2531578511
 30
0.0
 10
226.3630803014
 20
103.6873211798
 30
0.0
 10
226.7590476855
 20
102.9969619359
 30
0.0
 10
226.8611658318
 20
102.4651261532
 30
0.0
 10
226.8611658318
 20
102.1992701419
 30
0.0
  0
SPLINE
  5
46A
100
AcDbEntity
  8
KONSTRUKTIONSELEMENTE
100
AcDbSpline
 62
7
  6
CONTINUOUS
 70
0
 71
3
 72
10
 73
6
 74
0
 42
0.0000001
 43
0.0000001
 44
0.0000000001
 40
0.0
 40
0.0
 40
0.0
 40
0.0
 40
0.2350471841
 40
0.4823710211
 40
1.0
 40
1.0
 40
1.0
 40
1.0
 10
197.822820247
 20
90.3260780986
 30
0.0
 10
197.732238369
 20
90.5178402012
 30
0.0
 10
197.5912864803
 20
90.9343956568
 30
0.0
 10
197.4978054682
 20
91.8374955861
 30
0.0
 10
197.6489645107
 20
92.5341027632
 30
0.0
 10
197.822820247
 20
92.9675875326
 30
0.0
  0
SPLINE
  5
46B
100
AcDbEntity
  8
KONSTRUKTIONSELEMENTE
100
AcDbSpline
 62
7
  6
CONTINUOUS
 70
0
 71
3
 72
10
 73
6
 74
0
 42
0.0000001
 43
0.0000001
 44
0.0000000001
 40
0.0
 40
0.0
 40
0.0
 40
0.0
 40
0.5176289789
 40
0.7649528159
 40
1.0
 40
1.0
 40
1.0
 40
1.0
 10
227.3925008374
 20
92.9675875326
 30
0.0
 10
227.5663565736
 20
92.5341027632
 30
0.0
 10
227.7175156162
 20
91.8374955861
 30
0.0
 10
227.6240346041
 20
90.9343956568
 30
0.0
 10
227.4830827154
 20
90.5178402012
 30
0.0
 10
227.3925008374
 20
90.3260780986
 30
0.0
  0
LINE
  5
46C
100
AcDbEntity
  8
KONSTRUKTIONSELEMENTE
100
AcDbLine
 62
7
  6
CONTINUOUS
 10
564.5749557734
 20
151.6174033962
 11
563.3450180434
 21
154.6459815193
  0
LINE
  5
46D
100
AcDbEntity
  8
KONSTRUKTIONSELEMENTE
100
AcDbLine
 62
7
  6
CONTINUOUS
 10
563.3760237197
 20
156.0622256646
 11
563.5132806168
 21
155.8130559176
  0
LINE
  5
46E
100
AcDbEntity
  8
KONSTRUKTIONSELEMENTE
100
AcDbLine
 62
7
  6
CONTINUOUS
 10
563.5132806168
 20
155.8130559176
 11
563.6624465377
 21
155.4832834451
  0
LINE
  5
46F
100
AcDbEntity
  8
KONSTRUKTIONSELEMENTE
100
AcDbLine
 62
7
  6
CONTINUOUS
 10
563.6624465377
 20
155.4832834451
 11
563.6870426876
 21
155.4288781501
  0
LINE
  5
470
100
AcDbEntity
  8
KONSTRUKTIONSELEMENTE
100
AcDbLine
 62
7
  6
CONTINUOUS
 10
563.6870426876
 20
155.4288781501
 11
563.7896939714
 21
155.1758344579
  0
LINE
  5
471
100
AcDbEntity
  8
KONSTRUKTIONSELEMENTE
100
AcDbLine
 62
7
  6
CONTINUOUS
 10
563.7896939714
 20
155.1758344579
 11
563.8196916254
 21
155.1018850469
  0
LINE
  5
472
100
AcDbEntity
  8
KONSTRUKTIONSELEMENTE
100
AcDbLine
 62
7
  6
CONTINUOUS
 10
563.8196916254
 20
155.1018850469
 11
564.2135156869
 21
154.1309161579
  0
LINE
  5
473
100
AcDbEntity
  8
KONSTRUKTIONSELEMENTE
100
AcDbLine
 62
7
  6
CONTINUOUS
 10
564.3909375392
 20
153.649785769
 11
564.2135156869
 21
154.1309161579
  0
LINE
  5
474
100
AcDbEntity
  8
KONSTRUKTIONSELEMENTE
100
AcDbLine
 62
7
  6
CONTINUOUS
 10
564.5350287221
 20
153.2067091243
 11
564.3909375392
 21
153.649785769
  0
LINE
  5
475
100
AcDbEntity
  8
KONSTRUKTIONSELEMENTE
100
AcDbLine
 62
7
  6
CONTINUOUS
 10
564.3945766224
 20
151.112958849
 11
564.3447264687
 21
151.2340440189
  0
LINE
  5
476
100
AcDbEntity
  8
KONSTRUKTIONSELEMENTE
100
AcDbLine
 62
7
  6
CONTINUOUS
 10
564.3447264687
 20
151.2340440189
 11
564.2172683489
 21
151.5436067738
  0
LINE
  5
477
100
AcDbEntity
  8
KONSTRUKTIONSELEMENTE
100
AcDbLine
 62
7
  6
CONTINUOUS
 10
564.538326621
 20
150.6967653079
 11
564.3945766224
 21
151.112958849
  0
LINE
  5
478
100
AcDbEntity
  8
KONSTRUKTIONSELEMENTE
100
AcDbLine
 62
7
  6
CONTINUOUS
 10
564.2261635658
 20
149.7517229148
 11
563.5748734697
 21
151.12615606
  0
LINE
  5
479
100
AcDbEntity
  8
KONSTRUKTIONSELEMENTE
100
AcDbLine
 62
7
  6
CONTINUOUS
 10
563.5748734697
 20
151.12615606
 11
563.2736458014
 21
151.7617840155
  0
LINE
  5
47A
100
AcDbEntity
  8
KONSTRUKTIONSELEMENTE
100
AcDbLine
 62
7
  6
CONTINUOUS
 10
563.2736458014
 20
151.7617840155
 11
563.1363818738
 21
152.0514169896
  0
LINE
  5
47B
100
AcDbEntity
  8
KONSTRUKTIONSELEMENTE
100
AcDbLine
 62
7
  6
CONTINUOUS
 10
564.2261635658
 20
149.7517229148
 11
564.3679204396
 21
149.5147174699
  0
LINE
  5
47C
100
AcDbEntity
  8
KONSTRUKTIONSELEMENTE
100
AcDbLine
 62
7
  6
CONTINUOUS
 10
564.3679204396
 20
149.5147174699
 11
564.4754262316
 21
149.4116256123
  0
LINE
  5
47D
100
AcDbEntity
  8
KONSTRUKTIONSELEMENTE
100
AcDbLine
 62
7
  6
CONTINUOUS
 10
563.1285909127
 20
153.8433008485
 11
563.2686316841
 21
153.5475417905
  0
LINE
  5
47E
100
AcDbEntity
  8
KONSTRUKTIONSELEMENTE
100
AcDbLine
 62
7
  6
CONTINUOUS
 10
563.2686316841
 20
153.5475417905
 11
564.2172683489
 21
151.5436067738
  0
LINE
  5
47F
100
AcDbEntity
  8
KONSTRUKTIONSELEMENTE
100
AcDbLine
 62
7
  6
CONTINUOUS
 10
563.3501206802
 20
149.4528789441
 11
563.4186666155
 21
149.4710420068
  0
LINE
  5
480
100
AcDbEntity
  8
KONSTRUKTIONSELEMENTE
100
AcDbLine
 62
7
  6
CONTINUOUS
 10
563.8383174186
 20
147.0993508648
 11
563.3110636605
 21
147.9967406204
  0
LINE
  5
481
100
AcDbEntity
  8
KONSTRUKTIONSELEMENTE
100
AcDbLine
 62
7
  6
CONTINUOUS
 10
564.7871916376
 20
145.4840494387
 11
564.0492005128
 21
146.7403950296
  0
LINE
  5
482
100
AcDbEntity
  8
KONSTRUKTIONSELEMENTE
100
AcDbLine
 62
7
  6
CONTINUOUS
 10
563.2747233117
 20
149.9170683099
 11
563.4111532139
 21
149.8844868328
  0
LINE
  5
483
100
AcDbEntity
  8
KONSTRUKTIONSELEMENTE
100
AcDbLine
 62
7
  6
CONTINUOUS
 10
563.4111532139
 20
149.8844868328
 11
563.5149549203
 21
149.7739163205
  0
LINE
  5
484
100
AcDbEntity
  8
KONSTRUKTIONSELEMENTE
100
AcDbLine
 62
7
  6
CONTINUOUS
 10
563.5149549203
 20
149.7739163205
 11
563.6554359844
 21
149.5346122627
  0
LINE
  5
485
100
AcDbEntity
  8
KONSTRUKTIONSELEMENTE
100
AcDbLine
 62
7
  6
CONTINUOUS
 10
563.7624229556
 20
149.2862269399
 11
563.6822576686
 21
149.4723539756
  0
LINE
  5
486
100
AcDbEntity
  8
KONSTRUKTIONSELEMENTE
100
AcDbLine
 62
7
  6
CONTINUOUS
 10
563.6822576686
 20
149.4723539756
 11
563.6554359844
 21
149.5346122627
  0
LINE
  5
487
100
AcDbEntity
  8
KONSTRUKTIONSELEMENTE
100
AcDbLine
 62
7
  6
CONTINUOUS
 10
563.9073310925
 20
148.8402006367
 11
563.7624229556
 21
149.2862269399
  0
SPLINE
  5
488
100
AcDbEntity
  8
0
100
AcDbSpline
 62
7
  6
CONTINUOUS
 70
0
 71
3
 72
9
 73
5
 74
0
 42
0.0000001
 43
0.0000001
 44
0.0000000001
 40
0.0
 40
0.0
 40
0.0
 40
0.0
 40
0.5000059437
 40
1.0
 40
1.0
 40
1.0
 40
1.0
 10
561.03481961
 20
143.9553770669
 30
0.0
 10
561.2877815607
 20
141.480154252
 30
0.0
 10
561.6178131646
 20
136.5092525975
 30
0.0
 10
561.532020266
 20
131.5272518228
 30
0.0
 10
561.3893695487
 20
129.0432884279
 30
0.0
  0
SPLINE
  5
489
100
AcDbEntity
  8
0
100
AcDbSpline
 62
7
  6
CONTINUOUS
 70
0
 71
3
 72
9
 73
5
 74
0
 42
0.0000001
 43
0.0000001
 44
0.0000000001
 40
0.0
 40
0.0
 40
0.0
 40
0.0
 40
0.5000000005
 40
1.0
 40
1.0
 40
1.0
 40
1.0
 10
561.03481961
 20
159.5958776525
 30
0.0
 10
561.3622004535
 20
157.0042655124
 30
0.0
 10
561.720099702
 20
151.7756273569
 30
0.0
 10
561.3622004528
 20
146.5469892016
 30
0.0
 10
561.03481961
 20
143.9553770669
 30
0.0
  0
LINE
  5
48A
100
AcDbEntity
  8
0
100
AcDbLine
 62
7
  6
CONTINUOUS
 10
564.2618910369
 20
147.206736148
 11
564.0566907097
 21
147.4051935092
  0
SPLINE
  5
48B
100
AcDbEntity
  8
BEZUGSACHSEN
100
AcDbSpline
 62
7
  6
CONTINUOUS
 70
0
 71
3
 72
11
 73
7
 74
0
 42
0.0000001
 43
0.0000001
 44
0.0000000001
 40
0.0
 40
0.0
 40
0.0
 40
0.0
 40
0.2530704919
 40
0.5000000005
 40
0.7469295092
 40
1.0
 40
1.0
 40
1.0
 40
1.0
 10
556.5800963835
 20
165.5700172751
 30
0.0
 10
556.4190763722
 20
165.0831379707
 30
0.0
 10
556.164032752
 20
164.0980305808
 30
0.0
 10
556.029186826
 20
162.5829474606
 30
0.0
 10
556.1640327478
 20
161.0678643416
 30
0.0
 10
556.4190763729
 20
160.0827569549
 30
0.0
 10
556.5800963835
 20
159.5958776525
 30
0.0
  0
LINE
  5
48C
100
AcDbEntity
  8
KONSTRUKTIONSELEMENTE
100
AcDbLine
 62
7
  6
CONTINUOUS
 10
564.4733823124
 20
153.0889110667
 11
564.3655027676
 21
153.4454568595
  0
LINE
  5
48D
100
AcDbEntity
  8
KONSTRUKTIONSELEMENTE
100
AcDbLine
 62
7
  6
CONTINUOUS
 10
564.3655027676
 20
153.4454568595
 11
564.2235927809
 21
153.840056457
  0
LINE
  5
48E
100
AcDbEntity
  8
KONSTRUKTIONSELEMENTE
100
AcDbLine
 62
7
  6
CONTINUOUS
 10
563.696473569
 20
155.1380184491
 11
564.0926758374
 21
154.1624416128
  0
LINE
  5
48F
100
AcDbEntity
  8
KONSTRUKTIONSELEMENTE
100
AcDbLine
 62
7
  6
CONTINUOUS
 10
564.0926758374
 20
154.1624416128
 11
564.1207725482
 21
154.09325413
  0
LINE
  5
490
100
AcDbEntity
  8
KONSTRUKTIONSELEMENTE
100
AcDbLine
 62
7
  6
CONTINUOUS
 10
564.1207725482
 20
154.09325413
 11
564.2235927809
 21
153.840056457
  0
LINE
  5
491
100
AcDbEntity
  8
KONSTRUKTIONSELEMENTE
100
AcDbLine
 62
7
  6
CONTINUOUS
 10
563.5571231482
 20
155.4356651828
 11
563.5921018011
 21
155.3609799021
  0
LINE
  5
492
100
AcDbEntity
  8
KONSTRUKTIONSELEMENTE
100
AcDbLine
 62
7
  6
CONTINUOUS
 10
563.5921018011
 20
155.3609799021
 11
563.696473569
 21
155.1380184491
  0
LINE
  5
493
100
AcDbEntity
  8
KONSTRUKTIONSELEMENTE
100
AcDbLine
 62
7
  6
CONTINUOUS
 10
563.4538268949
 20
155.5983043809
 11
563.4798111705
 21
155.5574539779
  0
LINE
  5
494
100
AcDbEntity
  8
KONSTRUKTIONSELEMENTE
100
AcDbLine
 62
7
  6
CONTINUOUS
 10
563.4798111705
 20
155.5574539779
 11
563.5571231482
 21
155.4356651828
  0
LINE
  5
495
100
AcDbEntity
  8
KONSTRUKTIONSELEMENTE
100
AcDbLine
 62
7
  6
CONTINUOUS
 10
563.437010626
 20
155.6051921717
 11
563.4538268949
 21
155.5983043809
  0
SPLINE
  5
496
100
AcDbEntity
  8
0
100
AcDbSpline
 62
7
  6
CONTINUOUS
 70
0
 71
3
 72
8
 73
4
 74
0
 42
0.0000001
 43
0.0000001
 44
0.0000000001
 40
0.0
 40
0.0
 40
0.0
 40
0.0
 40
1.0
 40
1.0
 40
1.0
 40
1.0
 10
562.6003559945
 20
147.8824256571
 30
0.0
 10
563.1505140616
 20
146.945251233
 30
0.0
 10
563.7005422233
 20
146.0080005088
 30
0.0
 10
564.2503228468
 20
145.0706046127
 30
0.0
  0
LINE
  5
497
100
AcDbEntity
  8
0
100
AcDbLine
 62
7
  6
CONTINUOUS
 10
563.319568154
 20
148.0812504243
 11
563.3196417037
 21
147.9967277518
  0
LINE
  5
498
100
AcDbEntity
  8
0
100
AcDbLine
 62
7
  6
CONTINUOUS
 10
563.3196417037
 20
147.9967277518
 11
563.3196401511
 21
147.9825257071
  0
LINE
  5
499
100
AcDbEntity
  8
KONSTRUKTIONSELEMENTE
100
AcDbLine
 62
7
  6
CONTINUOUS
 10
564.7748800676
 20
150.8073588862
 11
564.6147941636
 21
151.2022392625
  0
LINE
  5
49A
100
AcDbEntity
  8
KONSTRUKTIONSELEMENTE
100
AcDbLine
 62
7
  6
CONTINUOUS
 10
564.6147941636
 20
151.2022392625
 11
564.4646073204
 21
151.5726564326
  0
LINE
  5
49B
100
AcDbEntity
  8
KONSTRUKTIONSELEMENTE
100
AcDbLine
 62
7
  6
CONTINUOUS
 10
564.4646073204
 20
151.5726564326
 11
564.4397978857
 21
151.6338417705
  0
LINE
  5
49C
100
AcDbEntity
  8
KONSTRUKTIONSELEMENTE
100
AcDbLine
 62
7
  6
CONTINUOUS
 10
564.4397978857
 20
151.6338417705
 11
563.235917352
 21
154.6017116134
  0
LINE
  5
49D
100
AcDbEntity
  8
KONSTRUKTIONSELEMENTE
100
AcDbLine
 62
7
  6
CONTINUOUS
 10
563.235917352
 20
154.6017116134
 11
563.1253034783
 21
154.8743065668
  0
LINE
  5
49E
100
AcDbEntity
  8
0
100
AcDbLine
 62
7
  6
CONTINUOUS
 10
563.6995292608
 20
151.185230002
 11
563.2610853179
 21
152.1105095648
  0
LINE
  5
49F
100
AcDbEntity
  8
0
100
AcDbLine
 62
7
  6
CONTINUOUS
 10
563.2610853179
 20
152.1105095648
 11
562.6097475691
 21
153.4849240767
  0
LINE
  5
4A0
100
AcDbEntity
  8
0
100
AcDbLine
 62
7
  6
CONTINUOUS
 10
563.6995292608
 20
151.185230002
 11
563.8412861411
 21
150.828765747
  0
LINE
  5
4A1
100
AcDbEntity
  8
0
100
AcDbLine
 62
7
  6
CONTINUOUS
 10
563.8412861411
 20
150.828765747
 11
563.9487919273
 21
150.4867559277
  0
LINE
  5
4A2
100
AcDbEntity
  8
KONSTRUKTIONSELEMENTE
100
AcDbLine
 62
7
  6
CONTINUOUS
 10
564.3945766224
 20
149.0821571992
 11
564.5383266254
 21
148.904881449
  0
LINE
  5
4A3
100
AcDbEntity
  8
KONSTRUKTIONSELEMENTE
100
AcDbLine
 62
7
  6
CONTINUOUS
 10
564.2172683489
 20
149.3933459722
 11
564.3945766224
 21
149.0821571992
  0
LINE
  5
4A4
100
AcDbEntity
  8
KONSTRUKTIONSELEMENTE
100
AcDbLine
 62
7
  6
CONTINUOUS
 10
564.2172683489
 20
149.3933459722
 11
564.0803217484
 21
149.6826928352
  0
LINE
  5
4A5
100
AcDbEntity
  8
KONSTRUKTIONSELEMENTE
100
AcDbLine
 62
7
  6
CONTINUOUS
 10
564.0803217484
 20
149.6826928352
 11
563.1285909127
 21
151.6930400469
  0
LINE
  5
4A6
100
AcDbEntity
  8
0
100
AcDbLine
 62
7
  6
CONTINUOUS
 10
562.601956611
 20
151.6930400469
 11
563.4119938091
 21
149.9820479504
  0
LINE
  5
4A7
100
AcDbEntity
  8
0
100
AcDbLine
 62
7
  6
CONTINUOUS
 10
563.4119938091
 20
149.9820479504
 11
563.4225354976
 21
149.9597773308
  0
LINE
  5
4A8
100
AcDbEntity
  8
0
100
AcDbLine
 62
7
  6
CONTINUOUS
 10
563.4225354976
 20
149.9597773308
 11
563.4495675444
 21
149.9026682626
  0
LINE
  5
4A9
100
AcDbEntity
  8
0
100
AcDbLine
 62
7
  6
CONTINUOUS
 10
563.4495675444
 20
149.9026682626
 11
563.5059797172
 21
149.783486995
  0
LINE
  5
4AA
100
AcDbEntity
  8
0
100
AcDbLine
 62
7
  6
CONTINUOUS
 10
563.8679423207
 20
149.0821571992
 11
563.8237561398
 21
149.159712929
  0
LINE
  5
4AB
100
AcDbEntity
  8
0
100
AcDbLine
 62
7
  6
CONTINUOUS
 10
563.8237561398
 20
149.159712929
 11
563.7767452327
 21
149.2422223485
  0
LINE
  5
4AC
100
AcDbEntity
  8
KONSTRUKTIONSELEMENTE
100
AcDbLine
 62
7
  6
CONTINUOUS
 10
564.5480743754
 20
149.4424466067
 11
564.5666975425
 21
149.5248201761
  0
LINE
  5
4AD
100
AcDbEntity
  8
KONSTRUKTIONSELEMENTE
100
AcDbLine
 62
7
  6
CONTINUOUS
 10
564.5666975425
 20
149.5248201761
 11
564.5849078921
 21
149.6071805569
  0
LINE
  5
4AE
100
AcDbEntity
  8
0
100
AcDbLine
 62
7
  6
CONTINUOUS
 10
564.0116923237
 20
148.904881449
 11
564.0019705164
 21
148.9168820969
  0
LINE
  5
4AF
100
AcDbEntity
  8
0
100
AcDbLine
 62
7
  6
CONTINUOUS
 10
564.0019705164
 20
148.9168820969
 11
563.9040888329
 21
149.0376143221
  0
LINE
  5
4B0
100
AcDbEntity
  8
0
100
AcDbLine
 62
7
  6
CONTINUOUS
 10
563.9040888329
 20
149.0376143221
 11
563.8679423207
 21
149.0821571992
  0
LINE
  5
4B1
100
AcDbEntity
  8
KONSTRUKTIONSELEMENTE
100
AcDbLine
 62
7
  6
CONTINUOUS
 10
564.4754262289
 20
150.4867559277
 11
564.3679204427
 21
150.828765747
  0
LINE
  5
4B2
100
AcDbEntity
  8
KONSTRUKTIONSELEMENTE
100
AcDbLine
 62
7
  6
CONTINUOUS
 10
564.3679204427
 20
150.828765747
 11
564.2617208263
 21
151.0958316221
  0
LINE
  5
4B3
100
AcDbEntity
  8
KONSTRUKTIONSELEMENTE
100
AcDbLine
 62
7
  6
CONTINUOUS
 10
564.2617208263
 20
151.0958316221
 11
564.2261635625
 21
151.185230002
  0
LINE
  5
4B4
100
AcDbEntity
  8
KONSTRUKTIONSELEMENTE
100
AcDbLine
 62
7
  6
CONTINUOUS
 10
563.1363818708
 20
153.4849240767
 11
564.0858573484
 21
151.4813381513
  0
LINE
  5
4B5
100
AcDbEntity
  8
KONSTRUKTIONSELEMENTE
100
AcDbLine
 62
7
  6
CONTINUOUS
 10
564.0858573484
 20
151.4813381513
 11
564.2261635625
 21
151.185230002
  0
LINE
  5
4B6
100
AcDbEntity
  8
KONSTRUKTIONSELEMENTE
100
AcDbLine
 62
7
  6
CONTINUOUS
 10
563.8072943614
 20
148.6751411336
 11
563.7351022302
 21
148.9326080864
  0
LINE
  5
4B7
100
AcDbEntity
  8
KONSTRUKTIONSELEMENTE
100
AcDbLine
 62
7
  6
CONTINUOUS
 10
563.7351022302
 20
148.9326080864
 11
563.6285702725
 21
149.1809934093
  0
LINE
  5
4B8
100
AcDbEntity
  8
KONSTRUKTIONSELEMENTE
100
AcDbLine
 62
7
  6
CONTINUOUS
 10
563.5231049228
 20
149.3604714945
 11
563.6285702725
 21
149.1809934093
  0
LINE
  5
4B9
100
AcDbEntity
  8
KONSTRUKTIONSELEMENTE
100
AcDbLine
 62
7
  6
CONTINUOUS
 10
563.4186666155
 20
149.4710420068
 11
563.444868202
 21
149.4433136344
  0
LINE
  5
4BA
100
AcDbEntity
  8
KONSTRUKTIONSELEMENTE
100
AcDbLine
 62
7
  6
CONTINUOUS
 10
563.444868202
 20
149.4433136344
 11
563.5231049228
 21
149.3604714945
  0
LINE
  5
4BB
100
AcDbEntity
  8
0
100
AcDbLine
 62
7
  6
CONTINUOUS
 10
562.5986691766
 20
154.8743065668
 11
563.0170004989
 21
153.8433019097
  0
LINE
  5
4BC
100
AcDbEntity
  8
KONSTRUKTIONSELEMENTE
100
AcDbLine
 62
7
  6
CONTINUOUS
 10
564.7769571484
 20
145.0706046127
 11
564.5991512381
 21
145.3737501831
  0
LINE
  5
4BD
100
AcDbEntity
  8
KONSTRUKTIONSELEMENTE
100
AcDbLine
 62
7
  6
CONTINUOUS
 10
564.5991512381
 20
145.3737501831
 11
563.8618359034
 21
146.6304385389
  0
LINE
  5
4BE
100
AcDbEntity
  8
KONSTRUKTIONSELEMENTE
100
AcDbLine
 62
7
  6
CONTINUOUS
 10
563.8618359034
 20
146.6304385389
 11
563.6511241844
 21
146.9894812805
  0
LINE
  5
4BF
100
AcDbEntity
  8
KONSTRUKTIONSELEMENTE
100
AcDbLine
 62
7
  6
CONTINUOUS
 10
563.6511241844
 20
146.9894812805
 11
563.1269902962
 21
147.8824256571
  0
SPLINE
  5
4C0
100
AcDbEntity
  8
BEZUGSACHSEN
100
AcDbSpline
 62
7
  6
CONTINUOUS
 70
0
 71
3
 72
9
 73
5
 74
0
 42
0.0000001
 43
0.0000001
 44
0.0000000001
 40
0.0
 40
0.0
 40
0.0
 40
0.0
 40
0.2478797211
 40
1.0
 40
1.0
 40
1.0
 40
1.0
 10
555.1421015016
 20
105.9288577109
 30
0.0
 10
555.0969307187
 20
105.868705969
 30
0.0
 10
554.9143166304
 20
105.6263302494
 30
0.0
 10
554.7306160976
 20
105.3847761999
 30
0.0
 10
554.5924610474
 20
105.2030920241
 30
0.0
  0
SPLINE
  5
4C1
100
AcDbEntity
  8
RUNDUNGEN
100
AcDbSpline
 62
7
  6
CONTINUOUS
 70
0
 71
3
 72
9
 73
5
 74
0
 42
0.0000001
 43
0.0000001
 44
0.0000000001
 40
0.0
 40
0.0
 40
0.0
 40
0.0
 40
0.2478797211
 40
1.0
 40
1.0
 40
1.0
 40
1.0
 10
562.4728144918
 20
105.9288577109
 30
0.0
 10
562.5179852748
 20
105.868705969
 30
0.0
 10
562.7005993631
 20
105.6263302494
 30
0.0
 10
562.8842998959
 20
105.3847761999
 30
0.0
 10
563.022454946
 20
105.2030920241
 30
0.0
  0
SPLINE
  5
4C2
100
AcDbEntity
  8
0
100
AcDbSpline
 62
7
  6
CONTINUOUS
 70
0
 71
3
 72
11
 73
7
 74
0
 42
0.0000001
 43
0.0000001
 44
0.0000000001
 40
0.0
 40
0.0
 40
0.0
 40
0.0
 40
0.2530704919
 40
0.5000000005
 40
0.7469295092
 40
1.0
 40
1.0
 40
1.0
 40
1.0
 10
561.03481961
 20
165.5700172751
 30
0.0
 10
561.1958396213
 20
165.0831379707
 30
0.0
 10
561.4508832415
 20
164.0980305808
 30
0.0
 10
561.5857291675
 20
162.5829474606
 30
0.0
 10
561.4508832457
 20
161.0678643416
 30
0.0
 10
561.1958396206
 20
160.0827569549
 30
0.0
 10
561.03481961
 20
159.5958776525
 30
0.0
  0
LINE
  5
4C3
100
AcDbEntity
  8
0
100
AcDbLine
 62
7
  6
CONTINUOUS
 10
563.6969584792
 20
153.840056457
 11
563.4345808086
 21
154.4861525548
  0
LINE
  5
4C4
100
AcDbEntity
  8
0
100
AcDbLine
 62
7
  6
CONTINUOUS
 10
563.4345808086
 20
154.4861525548
 11
563.3462587643
 21
154.7036309845
  0
LINE
  5
4C5
100
AcDbEntity
  8
0
100
AcDbLine
 62
7
  6
CONTINUOUS
 10
563.6969584792
 20
153.840056457
 11
563.8388684659
 21
153.4454568595
  0
LINE
  5
4C6
100
AcDbEntity
  8
0
100
AcDbLine
 62
7
  6
CONTINUOUS
 10
563.8388684659
 20
153.4454568595
 11
563.8572274285
 21
153.384858559
  0
SPLINE
  5
4C7
100
AcDbEntity
  8
BEZUGSACHSEN
100
AcDbSpline
 62
7
  6
CONTINUOUS
 70
0
 71
3
 72
9
 73
5
 74
0
 42
0.0000001
 43
0.0000001
 44
0.0000000001
 40
0.0
 40
0.0
 40
0.0
 40
0.0
 40
0.5000059437
 40
1.0
 40
1.0
 40
1.0
 40
1.0
 10
556.5800963835
 20
143.9553770669
 30
0.0
 10
556.3271344328
 20
141.480154252
 30
0.0
 10
555.9971028289
 20
136.5092525975
 30
0.0
 10
556.0828957274
 20
131.5272518228
 30
0.0
 10
556.2255464447
 20
129.0432884279
 30
0.0
  0
SPLINE
  5
4C8
100
AcDbEntity
  8
BEZUGSACHSEN
100
AcDbSpline
 62
7
  6
CONTINUOUS
 70
0
 71
3
 72
9
 73
5
 74
0
 42
0.0000001
 43
0.0000001
 44
0.0000000001
 40
0.0
 40
0.0
 40
0.0
 40
0.0
 40
0.5000000005
 40
1.0
 40
1.0
 40
1.0
 40
1.0
 10
556.5800963835
 20
159.5958776525
 30
0.0
 10
556.2527155399
 20
157.0042655124
 30
0.0
 10
555.8948162915
 20
151.7756273569
 30
0.0
 10
556.2527155406
 20
146.5469892016
 30
0.0
 10
556.5800963835
 20
143.9553770669
 30
0.0
  0
ELLIPSE
  5
4C9
100
AcDbEntity
  8
KONSTRUKTIONSELEMENTE
100
AcDbEllipse
 62
7
  6
CONTINUOUS
 10
176.1367591858
 20
47.8474969792
 30
0.0
 11
1.4997504735
 21
0.4499923381
 31
0.0
 40
0.0607989098
 41
-2.7235007144
 42
-1.1527043876
  0
ELLIPSE
  5
4CA
100
AcDbEntity
  8
KONSTRUKTIONSELEMENTE
100
AcDbEllipse
 62
7
  6
CONTINUOUS
 10
181.3534977063
 20
47.9490912927
 30
0.0
 11
1.4788083775
 21
-0.9183885846
 31
0.0
 40
0.7424978488
 41
7.2982401868
 42
8.8690365136
  0
ELLIPSE
  5
4CB
100
AcDbEntity
  8
KONSTRUKTIONSELEMENTE
100
AcDbEllipse
 62
7
  6
CONTINUOUS
 10
212.6076605422
 20
46.2807174839
 30
0.0
 11
0.0
 21
62.3538290725
 31
0.0
 40
0.5773502692
 41
-0.3571758222
 42
-0.1561898301
  0
ELLIPSE
  5
4CC
100
AcDbEntity
  8
KONSTRUKTIONSELEMENTE
100
AcDbEllipse
 62
7
  6
CONTINUOUS
 10
212.6076605422
 20
46.2807174839
 30
0.0
 11
-0.0
 21
62.3538290725
 31
0.0
 40
0.5773502692
 41
0.1561898301
 42
0.3571758222
  0
ELLIPSE
  5
4CD
100
AcDbEntity
  8
RUNDUNGEN
100
AcDbEllipse
 62
7
  6
CONTINUOUS
 10
563.5042766483
 20
113.5930075739
 30
0.0
 11
0.4911388899
 21
8.0206306137
 31
0.0
 40
0.2488636556
 41
-4.3827759479
 42
-3.4259921791
  0
ELLIPSE
  5
4CE
100
AcDbEntity
  8
BEZUGSACHSEN
100
AcDbEllipse
 62
7
  6
CONTINUOUS
 10
554.1106393452
 20
113.5930075739
 30
0.0
 11
-0.4911388899
 21
8.0206306137
 31
0.0
 40
0.2488636556
 41
-2.857193128
 42
-1.9004093593
  0
ELLIPSE
  5
4CF
100
AcDbEntity
  8
KONSTRUKTIONSELEMENTE
100
AcDbEllipse
 62
7
  6
CONTINUOUS
 10
439.2159388719
 20
50.6759241039
 30
0.0
 11
0.0
 21
2.0710365812
 31
0.0
 40
0.2216946626
 41
-4.4942228239
 42
-3.3588599535
  0
ELLIPSE
  5
4D0
100
AcDbEntity
  8
KONSTRUKTIONSELEMENTE
100
AcDbEllipse
 62
7
  6
CONTINUOUS
 10
442.0443659967
 20
47.8474969792
 30
0.0
 11
2.0710365812
 21
0.0
 31
0.0
 40
0.2216946626
 41
-2.9243253536
 42
-1.7889624833
  0
ENDSEC
  0
SECTION
  2
OBJECTS
  0
DICTIONARY
  5
C
100
AcDbDictionary
280
0
281
1
  3
ACAD_GROUP
350
D
  3
ACAD_MLINESTYLE
350
17
  3
ACAD_LAYOUT
350
1A
  3
ACAD_PLOTSETTINGS
350
19
  3
ACAD_PLOTSTYLENAME
350
E
  0
DICTIONARY
  5
D
102
{ACAD_REACTORS
330
C
102
}
100
AcDbDictionary
280
0
281
1
  0
ACDBDICTIONARYWDFLT
  5
E
102
{ACAD_REACTORS
330
C
102
}
100
AcDbDictionary
281
1
  3
Normal
350
F
100
AcDbDictionaryWithDefault
340
F
  0
DICTIONARY
  5
17
102
{ACAD_REACTORS
330
C
102
}
100
AcDbDictionary
280
0
281
1
  3
Standard
350
18
  0
DICTIONARY
  5
19
102
{ACAD_REACTORS
330
C
102
}
100
AcDbDictionary
281
1
  0
DICTIONARY
  5
1A
102
{ACAD_REACTORS
330
C
102
}
100
AcDbDictionary
281
1
  3
Model
350
4D1
  3
Layout1
350
4D2
  0
ACDBPLACEHOLDER
  5
F
102
{ACAD_REACTORS
330
E
102
}
  0
MLINESTYLE
  5
18
102
{ACAD_REACTORS
330
17
102
}
100
AcDbMlineStyle
  2
STANDARD
 70
0
  3

 62
256
 51
90.0
 52
90.0
 71
2
 49
0.5
 62
256
  6
BYLAYER
 49
-0.5
 62
256
  6
BYLAYER
  0
LAYOUT
  5
4D1
102
{ACAD_REACTORS
330
1A
102
}
100
AcDbPlotSettings
  1

  2
none_device
  4
ISO_A1_(594.00_x_841.00_MM)
  6

 40
0.0
 41
0.0
 42
0.0
 43
0.0
 44
841.0
 45
594.0
 46
0.0
 47
0.0
 48
0.0
 49
0.0
140
0.0
141
0.0
142
1.0
143
1.0
 70
1024
 72
1
 73
0
 74
0
  7

 75
0
147
1.0
148
0.0
149
0.0
100
AcDbLayout
  1
Model
 70
0
 71
0
 10
0.0
 20
0.0
 11
841.0
 21
594.0
 12
0.0
 22
0.0
 32
0.0
 14
0.0
 24
0.0
 34
0.0
 15
0.0
 25
0.0
 35
0.0
146
0.0
 13
0.0
 23
0.0
 33
0.0
 16
1.0
 26
0.0
 36
0.0
 17
0.0
 27
1.0
 37
0.0
 76
0
330
20D
345
0
346
0
  0
LAYOUT
  5
4D2
102
{ACAD_REACTORS
330
1A
102
}
100
AcDbPlotSettings
  1

  2
none_device
  4
ISO_A1_(594.00_x_841.00_MM)
  6

 40
0.0
 41
0.0
 42
0.0
 43
0.0
 44
841.0
 45
594.0
 46
0.0
 47
0.0
 48
0.0
 49
0.0
140
0.0
141
0.0
142
1.0
143
1.0
 70
0
 72
1
 73
0
 74
0
  7

 75
0
147
1.0
148
0.0
149
0.0
100
AcDbLayout
  1
Layout1
 70
0
 71
1
 10
0.0
 20
0.0
 11
841.0
 21
594.0
 12
0.0
 22
0.0
 32
0.0
 14
0.0
 24
0.0
 34
0.0
 15
0.0
 25
0.0
 35
0.0
146
0.0
 13
0.0
 23
0.0
 33
0.0
 16
1.0
 26
0.0
 36
0.0
 17
0.0
 27
1.0
 37
0.0
 76
0
330
20E
345
0
346
0
  0
ENDSEC
  0
EOF
