999
DXF file: VSAK-1-10_140_7100689_M31566-P-3.dxf
999
Pro/ENGINEER 2010140 by Parametric Technology Corporation
  0
SECTION
  2
HEADER
  9
$ACADVER
  1
AC1015
  9
$DWGCODEPAGE
  3
ANSI_1252
  9
$EXTMAX
 10
841.0
 20
594.0
 30
0.0
  9
$EXTMIN
 10
0.0
 20
0.0
 30
0.0
  9
$LIMMIN
 10
0.0
 20
0.0
  9
$LIMMAX
 10
841.0
 20
594.0
  9
$VIEWCTR
 10
420.5
 20
297.0
  9
$VIEWSIZE
 40
594.0
  9
$CLAYER
  8
0
  9
$LTSCALE
 40
46.255
  9
$CELTYPE
  6
BYLAYER
  9
$DIMSCALE
 40
1.0
  9
$DIMASZ
 40
3.5
  9
$DIMEXO
 40
5.25625
  9
$DIMDLI
 40
31.958
  9
$DIMEXE
 40
15.138
  9
$DIMCEN
 40
7.569
  9
$DIMLFAC
 40
1.0
  9
$DIMBLK
  1
_FILLED
  9
$DIMTXT
 40
3.5
  9
$DIMTOL
 70
1
  9
$DIMLIM
 70
0
  9
$DIMTFAC
 40
1.0
  9
$DIMTP
 40
0.005
  9
$DIMTM
 40
0.005
  9
$PDMODE
 70
3
  9
$PDSIZE
 40
0.3125
  9
$HANDSEED
  5
4D3
  9
$TILEMODE
 70
1
  9
$MEASUREMENT
 70
1
  9
$INSUNITS
 70
4
  0
ENDSEC
  0
SECTION
  2
CLASSES
  0
CLASS
  1
ACDBDICTIONARYWDFLT
  2
AcDbDictionaryWithDefault
  3
AutoCAD 2000
 90
0
280
0
281
0
  0
CLASS
  1
ACDBPLACEHOLDER
  2
AcDbPlaceHolder
  3
AutoCAD 2000
 90
0
280
0
281
0
  0
CLASS
  1
LAYOUT
  2
AcDbLayout
  3
AutoCAD 2000
 90
0
280
0
281
0
  0
ENDSEC
  0
SECTION
  2
TABLES
  0
TABLE
  2
VPORT
  5
8
100
AcDbSymbolTable
 70
2
  0
VPORT
  5
1F4
100
AcDbSymbolTableRecord
100
AcDbViewportTableRecord
  2
*ACTIVE
 70
0
 10
0.0
 20
0.0
 11
1.0
 21
1.0
 12
420.5
 22
297.0
 13
0.0
 23
0.0
 14
1.0
 24
1.0
 15
0.0
 25
0.0
 16
0.0
 26
0.0
 36
1.0
 17
0.0
 27
0.0
 37
0.0
 40
594.0
 41
1.4158249158
 42
50.0
 43
0.0
 44
0.0
 50
0.0
 51
0.0
 71
0
 72
100
 73
1
 74
1
 75
0
 76
0
 77
0
 78
0
  0
ENDTAB
  0
TABLE
  2
LTYPE
  5
5
100
AcDbSymbolTable
 70
6
  0
LTYPE
  5
14
100
AcDbSymbolTableRecord
100
AcDbLinetypeTableRecord
  2
BYBLOCK
 70
0
  3

 72
65
 73
0
 40
0.0
  0
LTYPE
  5
15
100
AcDbSymbolTableRecord
100
AcDbLinetypeTableRecord
  2
BYLAYER
 70
0
  3

 72
65
 73
0
 40
0.0
  0
LTYPE
  5
16
100
AcDbSymbolTableRecord
100
AcDbLinetypeTableRecord
  2
CONTINUOUS
 70
64
  3
Solid line
 72
65
 73
0
 40
0.0
  0
LTYPE
  5
1F5
100
AcDbSymbolTableRecord
100
AcDbLinetypeTableRecord
  2
CENTER
 70
64
  3
____ _ ____ _ ____ _ ____ _ ____ _ ____ _ ____
 72
65
 73
4
 40
0.6
 49
0.375
 74
0
 49
-0.075
 74
0
 49
0.075
 74
0
 49
-0.075
 74
0
  0
LTYPE
  5
1F6
100
AcDbSymbolTableRecord
100
AcDbLinetypeTableRecord
  2
HIDDEN
 70
64
  3
- - - - - - - - - - - - - - - - - - - -
 72
65
 73
2
 40
0.2
 49
0.1
 74
0
 49
-0.1
 74
0
  0
LTYPE
  5
1F7
100
AcDbSymbolTableRecord
100
AcDbLinetypeTableRecord
  2
PHANTOM
 70
64
  3
_____ _ _ _____ _ _ _____ _ _ _____
 72
65
 73
6
 40
0.8
 49
0.45
 74
0
 49
-0.05
 74
0
 49
0.1
 74
0
 49
-0.05
 74
0
 49
0.1
 74
0
 49
-0.05
 74
0
  0
LTYPE
  5
1F8
100
AcDbSymbolTableRecord
100
AcDbLinetypeTableRecord
  2
DOT
 70
64
  3
. . . . . . . . . . . . . . . . . . . .
 72
65
 73
2
 40
0.2
 49
0.1
 74
0
 49
-0.1
 74
0
  0
LTYPE
  5
1F9
100
AcDbSymbolTableRecord
100
AcDbLinetypeTableRecord
  2
DASHED
 70
64
  3
- - - - - - - - - - - - - - - - - - - -
 72
65
 73
2
 40
0.2
 49
0.1
 74
0
 49
-0.1
 74
0
  0
ENDTAB
  0
TABLE
  2
LAYER
  5
2
100
AcDbSymbolTable
 70
36
  0
LAYER
  5
10
100
AcDbSymbolTableRecord
100
AcDbLayerTableRecord
  2
0
 70
0
 62
7
  6
CONTINUOUS
370
-3
390
F
  0
LAYER
  5
1FA
100
AcDbSymbolTableRecord
100
AcDbLayerTableRecord
  2
DEFAULT_1
 70
0
 62
7
  6
CENTER
370
-3
390
F
  0
LAYER
  5
1FB
100
AcDbSymbolTableRecord
100
AcDbLayerTableRecord
  2
DEFAULT_2
 70
0
 62
8
  6
HIDDEN
370
-3
390
F
  0
LAYER
  5
1FC
100
AcDbSymbolTableRecord
100
AcDbLayerTableRecord
  2
DEFAULT_3
 70
0
 62
7
  6
PHANTOM
370
-3
390
F
  0
LAYER
  5
1FD
100
AcDbSymbolTableRecord
100
AcDbLayerTableRecord
  2
AUSFORMSCHRAEGEN
 70
0
 62
7
  6
CONTINUOUS
370
-3
390
F
  0
LAYER
  5
1FE
100
AcDbSymbolTableRecord
100
AcDbLayerTableRecord
  2
BEZUGSACHSEN
 70
0
 62
7
  6
CONTINUOUS
370
-3
390
F
  0
LAYER
  5
1FF
100
AcDbSymbolTableRecord
100
AcDbLayerTableRecord
  2
BEZUGSEBENEN
 70
0
 62
7
  6
CONTINUOUS
370
-3
390
F
  0
LAYER
  5
200
100
AcDbSymbolTableRecord
100
AcDbLayerTableRecord
  2
BG_STARTBEZUEGE
 70
0
 62
7
  6
CONTINUOUS
370
-3
390
F
  0
LAYER
  5
201
100
AcDbSymbolTableRecord
100
AcDbLayerTableRecord
  2
FASEN
 70
0
 62
7
  6
CONTINUOUS
370
-3
390
F
  0
LAYER
  5
202
100
AcDbSymbolTableRecord
100
AcDbLayerTableRecord
  2
FLAECHEN
 70
0
 62
7
  6
CONTINUOUS
370
-3
390
F
  0
LAYER
  5
203
100
AcDbSymbolTableRecord
100
AcDbLayerTableRecord
  2
HILFEN
 70
0
 62
7
  6
CONTINUOUS
370
-3
390
F
  0
LAYER
  5
204
100
AcDbSymbolTableRecord
100
AcDbLayerTableRecord
  2
KONSTRUKTIONSELEMENTE
 70
0
 62
7
  6
CONTINUOUS
370
-3
390
F
  0
LAYER
  5
205
100
AcDbSymbolTableRecord
100
AcDbLayerTableRecord
  2
NORM
 70
0
 62
7
  6
CONTINUOUS
370
-3
390
F
  0
LAYER
  5
206
100
AcDbSymbolTableRecord
100
AcDbLayerTableRecord
  2
PLATZIERUNG
 70
0
 62
7
  6
CONTINUOUS
370
-3
390
F
  0
LAYER
  5
207
100
AcDbSymbolTableRecord
100
AcDbLayerTableRecord
  2
PLAZIERUNG
 70
0
 62
7
  6
CONTINUOUS
370
-3
390
F
  0
LAYER
  5
208
100
AcDbSymbolTableRecord
100
AcDbLayerTableRecord
  2
RUNDUNGEN
 70
0
 62
7
  6
CONTINUOUS
370
-3
390
F
  0
LAYER
  5
209
100
AcDbSymbolTableRecord
100
AcDbLayerTableRecord
  2
TEIL_STARTBEZUEGE
 70
0
 62
7
  6
CONTINUOUS
370
-3
390
F
  0
LAYER
  5
20A
100
AcDbSymbolTableRecord
100
AcDbLayerTableRecord
  2
T_STARTBEZUEGE
 70
0
 62
7
  6
CONTINUOUS
370
-3
390
F
  0
ENDTAB
  0
TABLE
  2
STYLE
  5
3
100
AcDbSymbolTable
 70
1
  0
STYLE
  5
11
100
AcDbSymbolTableRecord
100
AcDbTextStyleTableRecord
  2
STANDARD
 70
0
 40
0.0
 41
0.7
 50
0.0
 71
0
 42
0.2
  3
txt
  4

  0
STYLE
  5
20B
100
AcDbSymbolTableRecord
100
AcDbTextStyleTableRecord
  2
TEXTSTYLE_1
 70
0
 40
0.0
 41
0.8
 50
0.0
 71
0
 42
0.2
  3
gdt
  4

  0
ENDTAB
  0
TABLE
  2
VIEW
  5
6
100
AcDbSymbolTable
 70
0
  0
ENDTAB
  0
TABLE
  2
UCS
  5
7
100
AcDbSymbolTable
 70
0
  0
ENDTAB
  0
TABLE
  2
APPID
  5
9
100
AcDbSymbolTable
 70
1
  0
APPID
  5
20C
100
AcDbSymbolTableRecord
100
AcDbRegAppTableRecord
  2
ACAD
 70
0
  0
ENDTAB
  0
TABLE
  2
BLOCK_RECORD
  5
1
100
AcDbSymbolTable
 70
0
  0
BLOCK_RECORD
  5
20D
100
AcDbSymbolTableRecord
100
AcDbBlockTableRecord
  2
*Model_Space
  0
BLOCK_RECORD
  5
20E
100
AcDbSymbolTableRecord
100
AcDbBlockTableRecord
  2
*Paper_Space
  0
ENDTAB
  0
TABLE
  2
DIMSTYLE
  5
A
100
AcDbSymbolTable
 70
1
100
AcDbDimStyleTable
 71
0
  0
DIMSTYLE
105
20F
100
AcDbSymbolTableRecord
100
AcDbDimStyleTableRecord
  2
STANDARD
 70
0
  3

  4

 40
1.0
 41
3.5
 42
0.0625
 43
0.38
 44
0.18
 45
0.0
 46
0.0
 47
0.005
 48
0.005
140
3.5
141
0.09
142
0.0
143
25.4
144
1.0
145
0.0
146
1.0
147
0.09
 71
1.0
 72
0.0
 73
0
 74
0
 75
0
 76
0
 77
1
 78
8
170
0
171
2
172
0
173
0
174
0
175
0
176
0
177
0
178
5
270
2
271
3
272
3
273
2
274
2
275
0
280
0
281
0
282
0
283
1
284
8
285
0
286
0
287
3
288
0
340
11
  0
ENDTAB
  0
ENDSEC
  0
SECTION
  2
BLOCKS
  0
BLOCK
  5
20
100
AcDbEntity
  8
0
100
AcDbBlockBegin
  2
*Model_Space
 70
0
 10
0.0
 20
0.0
 30
0.0
  3
*Model_Space
  1

  0
ENDBLK
  5
21
100
AcDbEntity
  8
0
100
AcDbBlockEnd
  0
BLOCK
  5
1C
100
AcDbEntity
  8
0
100
AcDbBlockBegin
  2
*Paper_Space
 70
0
 10
0.0
 20
0.0
 30
0.0
  3
*Paper_Space
  1

  0
ENDBLK
  5
1D
100
AcDbEntity
  8
0
100
AcDbBlockEnd
  0
ENDSEC
  0
SECTION
  2
ENTITIES
  0
MTEXT
  5
210
100
AcDbEntity
  8
0
100
AcDbMText
 62
5
  6
CONTINUOUS
  7
STANDARD
 71
1
 72
1
 10
291.3699354827
 20
361.6375090761
 30
0.0
 11
0.0
 21
1.0
 31
0.0
 44
0.9
  1
VSAK 1-10/140
 40
9.0
 41
88.0714285714
  0
MTEXT
  5
211
100
AcDbEntity
  8
0
100
AcDbMText
 62
5
  6
CONTINUOUS
  7
STANDARD
 71
1
 72
1
 10
124.5244939111
 20
390.3152795018
 30
0.0
 11
0.0
 21
1.0
 31
0.0
 44
0.9
  1
RUD
 40
9.0
 41
24.0
  0
MTEXT
  5
212
100
AcDbEntity
  8
0
100
AcDbMText
 62
5
  6
CONTINUOUS
  7
STANDARD
 71
1
 72
1
 10
553.7507654924
 20
351.6364648533
 30
0.0
 11
0.0
 21
1.0
 31
0.0
 44
0.9
  1
RUD VSAK 1-10/140
 40
9.0
 41
117.4285714286
  0
LINE
  5
213
100
AcDbEntity
  8
0
100
AcDbLine
 62
7
  6
CONTINUOUS
 10
0.0
 20
0.0
 11
0.0
 21
594.0
  0
LINE
  5
214
100
AcDbEntity
  8
0
100
AcDbLine
 62
7
  6
CONTINUOUS
 10
0.0
 20
0.0
 11
841.0
 21
0.0
  0
LINE
  5
215
100
AcDbEntity
  8
0
100
AcDbLine
 62
7
  6
CONTINUOUS
 10
0.0
 20
594.0
 11
841.0
 21
594.0
  0
LINE
  5
216
100
AcDbEntity
  8
0
100
AcDbLine
 62
7
  6
CONTINUOUS
 10
841.0
 20
0.0
 11
841.0
 21
594.0
  0
LINE
  5
217
100
AcDbEntity
  8
KONSTRUKTIONSELEMENTE
100
AcDbLine
 62
7
  6
CONTINUOUS
 10
208.0576605422
 20
39.1574920397
 11
217.1576605422
 21
39.1574920397
  0
LINE
  5
218
100
AcDbEntity
  8
KONSTRUKTIONSELEMENTE
100
AcDbLine
 62
7
  6
CONTINUOUS
 10
207.5576605422
 20
39.5110454303
 11
208.0576605422
 21
39.5110454303
  0
LINE
  5
219
100
AcDbEntity
  8
KONSTRUKTIONSELEMENTE
100
AcDbLine
 62
7
  6
CONTINUOUS
 10
217.1576605422
 20
39.5110454303
 11
217.6576605422
 21
39.5110454303
  0
LINE
  5
21A
100
AcDbEntity
  8
KONSTRUKTIONSELEMENTE
100
AcDbLine
 62
7
  6
CONTINUOUS
 10
204.0576605422
 20
53.2996276634
 11
203.0070423288
 21
53.2996276634
  0
LINE
  5
21B
100
AcDbEntity
  8
KONSTRUKTIONSELEMENTE
100
AcDbLine
 62
7
  6
CONTINUOUS
 10
221.1576605422
 20
53.2996276634
 11
234.9684007409
 21
53.2996276634
  0
LINE
  5
21C
100
AcDbEntity
  8
KONSTRUKTIONSELEMENTE
100
AcDbLine
 62
7
  6
CONTINUOUS
 10
239.5183409122
 20
56.2054625177
 11
233.6273402964
 21
58.1478980694
  0
LINE
  5
21D
100
AcDbEntity
  8
KONSTRUKTIONSELEMENTE
100
AcDbLine
 62
7
  6
CONTINUOUS
 10
239.5183409122
 20
59.7409964236
 11
233.6273402964
 21
61.6834319754
  0
LINE
  5
21E
100
AcDbEntity
  8
KONSTRUKTIONSELEMENTE
100
AcDbLine
 62
7
  6
CONTINUOUS
 10
174.5659883744
 20
92.3257547479
 11
174.7772975052
 21
92.3588799475
  0
LINE
  5
21F
100
AcDbEntity
  8
KONSTRUKTIONSELEMENTE
100
AcDbLine
 62
7
  6
CONTINUOUS
 10
255.3921807761
 20
91.1520017453
 11
261.2831813918
 21
89.2095661936
  0
LINE
  5
220
100
AcDbEntity
  8
KONSTRUKTIONSELEMENTE
100
AcDbLine
 62
7
  6
CONTINUOUS
 10
230.3817979921
 20
126.4986534304
 11
226.8611658318
 21
126.4986534304
  0
LINE
  5
221
100
AcDbEntity
  8
KONSTRUKTIONSELEMENTE
100
AcDbLine
 62
7
  6
CONTINUOUS
 10
198.3541552526
 20
126.4986534304
 11
194.8335230923
 21
126.4986534304
  0
LINE
  5
222
100
AcDbEntity
  8
0
100
AcDbLine
 62
7
  6
CONTINUOUS
 10
207.0076605422
 20
134.4486534304
 11
218.2076605422
 21
134.4486534304
  0
LINE
  5
223
100
AcDbEntity
  8
KONSTRUKTIONSELEMENTE
100
AcDbLine
 62
7
  6
CONTINUOUS
 10
219.36955273
 20
108.1010569911
 11
259.9518150514
 21
94.7198957512
  0
LINE
  5
224
100
AcDbEntity
  8
KONSTRUKTIONSELEMENTE
100
AcDbLine
 62
7
  6
CONTINUOUS
 10
259.9518150514
 20
98.2554296572
 11
219.36955273
 21
111.636590897
  0
LINE
  5
225
100
AcDbEntity
  8
0
100
AcDbLine
 62
7
  6
CONTINUOUS
 10
207.0076605422
 20
146.5486534304
 11
218.2076605422
 21
146.5486534304
  0
LINE
  5
226
100
AcDbEntity
  8
KONSTRUKTIONSELEMENTE
100
AcDbLine
 62
7
  6
CONTINUOUS
 10
173.7207518509
 20
93.6074675121
 11
174.5659883744
 21
92.3257547479
  0
LINE
  5
227
100
AcDbEntity
  8
KONSTRUKTIONSELEMENTE
100
AcDbLine
 62
7
  6
CONTINUOUS
 10
180.2502039948
 20
83.7062364093
 11
198.9559164358
 21
55.3409803757
  0
LINE
  5
228
100
AcDbEntity
  8
KONSTRUKTIONSELEMENTE
100
AcDbLine
 62
7
  6
CONTINUOUS
 10
180.2502039948
 20
84.0597897999
 11
180.0388948639
 21
84.3802179909
  0
LINE
  5
229
100
AcDbEntity
  8
KONSTRUKTIONSELEMENTE
100
AcDbLine
 62
7
  6
CONTINUOUS
 10
182.7129593869
 20
93.3569829772
 11
186.8667388985
 21
87.0582108922
  0
LINE
  5
22A
100
AcDbEntity
  8
KONSTRUKTIONSELEMENTE
100
AcDbLine
 62
7
  6
CONTINUOUS
 10
233.5214508574
 20
188.0990599931
 11
233.8444817141
 21
188.1657781862
  0
LINE
  5
22B
100
AcDbEntity
  8
KONSTRUKTIONSELEMENTE
100
AcDbLine
 62
7
  6
CONTINUOUS
 10
234.4009633232
 20
191.6014233215
 11
234.7239944471
 21
191.6681416467
  0
LINE
  5
22C
100
AcDbEntity
  8
KONSTRUKTIONSELEMENTE
100
AcDbLine
 62
7
  6
CONTINUOUS
 10
233.0661237371
 20
188.0599084153
 11
233.5214508574
 21
188.0990599931
  0
LINE
  5
22D
100
AcDbEntity
  8
KONSTRUKTIONSELEMENTE
100
AcDbLine
 62
7
  6
CONTINUOUS
 10
234.7239944471
 20
191.6681416467
 11
235.1793215005
 21
191.7072931915
  0
LINE
  5
22E
100
AcDbEntity
  8
KONSTRUKTIONSELEMENTE
100
AcDbLine
 62
7
  6
CONTINUOUS
 10
232.9399305447
 20
188.5552796031
 11
233.659848368
 21
188.5393013038
  0
LINE
  5
22F
100
AcDbEntity
  8
KONSTRUKTIONSELEMENTE
100
AcDbLine
 62
7
  6
CONTINUOUS
 10
234.5855983597
 20
191.2278967843
 11
235.305514693
 21
191.2119220037
  0
LINE
  5
230
100
AcDbEntity
  8
KONSTRUKTIONSELEMENTE
100
AcDbLine
 62
7
  6
CONTINUOUS
 10
193.1696810202
 20
192.8714593301
 11
195.391897166
 21
192.1663734744
  0
LINE
  5
231
100
AcDbEntity
  8
BEZUGSACHSEN
100
AcDbLine
 62
7
  6
CONTINUOUS
 10
193.3014342061
 20
127.213078211
 11
188.5518136523
 21
132.8734555695
  0
LINE
  5
232
100
AcDbEntity
  8
RUNDUNGEN
100
AcDbLine
 62
7
  6
CONTINUOUS
 10
188.5518136523
 20
132.8734555695
 11
188.075571656
 21
133.4410186796
  0
LINE
  5
233
100
AcDbEntity
  8
0
100
AcDbLine
 62
7
  6
CONTINUOUS
 10
116.6076605422
 20
467.3986534304
 11
116.6076605422
 21
347.3986534304
  0
LINE
  5
234
100
AcDbEntity
  8
KONSTRUKTIONSELEMENTE
100
AcDbLine
 62
7
  6
CONTINUOUS
 10
227.1334886073
 20
195.5745731558
 11
227.6592371059
 21
195.7001764149
  0
LINE
  5
235
100
AcDbEntity
  8
KONSTRUKTIONSELEMENTE
100
AcDbLine
 62
7
  6
CONTINUOUS
 10
227.5613357989
 20
200.2632838186
 11
228.0870872601
 21
200.3888846744
  0
LINE
  5
236
100
AcDbEntity
  8
KONSTRUKTIONSELEMENTE
100
AcDbLine
 62
7
  6
CONTINUOUS
 10
196.3294920559
 20
193.8067016904
 11
196.7144351156
 21
193.8972522931
  0
LINE
  5
237
100
AcDbEntity
  8
KONSTRUKTIONSELEMENTE
100
AcDbLine
 62
7
  6
CONTINUOUS
 10
191.251688601
 20
194.7805537357
 11
191.7030442139
 21
194.8767056363
  0
LINE
  5
238
100
AcDbEntity
  8
KONSTRUKTIONSELEMENTE
100
AcDbLine
 62
7
  6
CONTINUOUS
 10
195.9882110867
 20
194.3712629387
 11
196.3150435206
 21
194.4020839331
  0
LINE
  5
239
100
AcDbEntity
  8
KONSTRUKTIONSELEMENTE
100
AcDbLine
 62
7
  6
CONTINUOUS
 10
224.6453063276
 20
199.9667413634
 11
225.039597035
 21
199.9969811275
  0
LINE
  5
23A
100
AcDbEntity
  8
KONSTRUKTIONSELEMENTE
100
AcDbLine
 62
7
  6
CONTINUOUS
 10
191.6446596964
 20
194.4125162705
 11
191.9143210567
 21
194.4306793332
  0
LINE
  5
23B
100
AcDbEntity
  8
KONSTRUKTIONSELEMENTE
100
AcDbLine
 62
7
  6
CONTINUOUS
 10
197.864023967
 20
201.1532351746
 11
198.2589236246
 21
201.1740798742
  0
LINE
  5
23C
100
AcDbEntity
  8
KONSTRUKTIONSELEMENTE
100
AcDbLine
 62
7
  6
CONTINUOUS
 10
227.0722076364
 20
196.1669701616
 11
227.4003079147
 21
196.1779054673
  0
LINE
  5
23D
100
AcDbEntity
  8
KONSTRUKTIONSELEMENTE
100
AcDbLine
 62
7
  6
CONTINUOUS
 10
227.8202650364
 20
199.7855548246
 11
228.1483652684
 21
199.796490072
  0
LINE
  5
23E
100
AcDbEntity
  8
KONSTRUKTIONSELEMENTE
100
AcDbLine
 62
7
  6
CONTINUOUS
 10
233.1212799389
 20
193.3788815559
 11
234.0182169629
 21
193.3715428523
  0
LINE
  5
23F
100
AcDbEntity
  8
KONSTRUKTIONSELEMENTE
100
AcDbLine
 62
7
  6
CONTINUOUS
 10
233.831709181
 20
193.8474968235
 11
234.7286459562
 21
193.8401579558
  0
LINE
  5
240
100
AcDbEntity
  8
KONSTRUKTIONSELEMENTE
100
AcDbLine
 62
7
  6
CONTINUOUS
 10
191.7030442139
 20
194.8767056363
 11
192.1955031612
 21
194.8441241592
  0
LINE
  5
241
100
AcDbEntity
  8
KONSTRUKTIONSELEMENTE
100
AcDbLine
 62
7
  6
CONTINUOUS
 10
198.1675512008
 20
200.5855734396
 11
198.4946686556
 21
200.5579417073
  0
LINE
  5
242
100
AcDbEntity
  8
KONSTRUKTIONSELEMENTE
100
AcDbLine
 62
7
  6
CONTINUOUS
 10
224.5522911569
 20
200.4992245574
 11
224.8229034532
 21
200.4750105006
  0
LINE
  5
243
100
AcDbEntity
  8
KONSTRUKTIONSELEMENTE
100
AcDbLine
 62
7
  6
CONTINUOUS
 10
226.7401608708
 20
195.6155054411
 11
227.1334886073
 21
195.5745731558
  0
LINE
  5
244
100
AcDbEntity
  8
KONSTRUKTIONSELEMENTE
100
AcDbLine
 62
7
  6
CONTINUOUS
 10
228.0870872601
 20
200.3888846744
 11
228.4804119934
 21
200.3479547414
  0
LINE
  5
245
100
AcDbEntity
  8
KONSTRUKTIONSELEMENTE
100
AcDbLine
 62
7
  6
CONTINUOUS
 10
195.7920485864
 20
193.8645187754
 11
196.3294920559
 21
193.8067016904
  0
LINE
  5
246
100
AcDbEntity
  8
KONSTRUKTIONSELEMENTE
100
AcDbLine
 62
7
  6
CONTINUOUS
 10
232.6692384943
 20
188.1426015046
 11
233.0661237371
 21
188.0599084153
  0
LINE
  5
247
100
AcDbEntity
  8
KONSTRUKTIONSELEMENTE
100
AcDbLine
 62
7
  6
CONTINUOUS
 10
235.1793215005
 20
191.7072931915
 11
235.5762067099
 21
191.6246000857
  0
LINE
  5
248
100
AcDbEntity
  8
KONSTRUKTIONSELEMENTE
100
AcDbLine
 62
7
  6
CONTINUOUS
 10
198.2589236246
 20
201.1740798742
 11
198.7775933529
 21
201.021862991
  0
LINE
  5
249
100
AcDbEntity
  8
KONSTRUKTIONSELEMENTE
100
AcDbLine
 62
7
  6
CONTINUOUS
 10
195.6432386649
 20
194.4743547963
 11
195.9882110867
 21
194.3712629387
  0
LINE
  5
24A
100
AcDbEntity
  8
KONSTRUKTIONSELEMENTE
100
AcDbLine
 62
7
  6
CONTINUOUS
 10
193.2749292441
 20
193.4045561998
 11
195.7199430439
 21
192.6487259029
  0
LINE
  5
24B
100
AcDbEntity
  8
KONSTRUKTIONSELEMENTE
100
AcDbLine
 62
7
  6
CONTINUOUS
 10
191.9143210567
 20
194.4306793332
 11
192.2250856174
 21
194.3201088209
  0
LINE
  5
24C
100
AcDbEntity
  8
KONSTRUKTIONSELEMENTE
100
AcDbLine
 62
7
  6
CONTINUOUS
 10
192.1955031612
 20
194.8441241592
 11
192.5062677218
 21
194.7335536469
  0
LINE
  5
24D
100
AcDbEntity
  8
KONSTRUKTIONSELEMENTE
100
AcDbLine
 62
7
  6
CONTINUOUS
 10
226.7450947741
 20
196.2911666761
 11
227.0722076364
 21
196.1669701616
  0
LINE
  5
24E
100
AcDbEntity
  8
KONSTRUKTIONSELEMENTE
100
AcDbLine
 62
7
  6
CONTINUOUS
 10
195.3708259095
 20
194.0417945256
 11
195.7920485864
 21
193.8645187754
  0
LINE
  5
24F
100
AcDbEntity
  8
KONSTRUKTIONSELEMENTE
100
AcDbLine
 62
7
  6
CONTINUOUS
 10
232.6384135105
 20
188.6851134197
 11
232.9399305447
 21
188.5552796031
  0
LINE
  5
250
100
AcDbEntity
  8
KONSTRUKTIONSELEMENTE
100
AcDbLine
 62
7
  6
CONTINUOUS
 10
235.305514693
 20
191.2119220037
 11
235.6070317272
 21
191.0820881871
  0
LINE
  5
251
100
AcDbEntity
  8
KONSTRUKTIONSELEMENTE
100
AcDbLine
 62
7
  6
CONTINUOUS
 10
226.3478235014
 20
195.7915671288
 11
226.7401608708
 21
195.6155054411
  0
LINE
  5
252
100
AcDbEntity
  8
KONSTRUKTIONSELEMENTE
100
AcDbLine
 62
7
  6
CONTINUOUS
 10
232.1985005976
 20
188.374702477
 11
232.6692384943
 21
188.1426015046
  0
LINE
  5
253
100
AcDbEntity
  8
KONSTRUKTIONSELEMENTE
100
AcDbLine
 62
7
  6
CONTINUOUS
 10
198.4946686556
 20
200.5579417073
 11
198.8158891163
 21
200.3953025092
  0
LINE
  5
254
100
AcDbEntity
  8
KONSTRUKTIONSELEMENTE
100
AcDbLine
 62
7
  6
CONTINUOUS
 10
198.7775933529
 20
201.021862991
 11
199.1606986756
 21
200.772693244
  0
LINE
  5
255
100
AcDbEntity
  8
KONSTRUKTIONSELEMENTE
100
AcDbLine
 62
7
  6
CONTINUOUS
 10
195.2801268667
 20
194.7113602412
 11
195.6432386649
 21
194.4743547963
  0
LINE
  5
256
100
AcDbEntity
  8
KONSTRUKTIONSELEMENTE
100
AcDbLine
 62
7
  6
CONTINUOUS
 10
193.9391230044
 20
190.0302419391
 11
189.8046747444
 21
192.8420629835
  0
LINE
  5
257
100
AcDbEntity
  8
KONSTRUKTIONSELEMENTE
100
AcDbLine
 62
7
  6
CONTINUOUS
 10
194.2203051089
 20
190.4436867651
 11
192.3729984133
 21
191.700032356
  0
LINE
  5
258
100
AcDbEntity
  8
KONSTRUKTIONSELEMENTE
100
AcDbLine
 62
7
  6
CONTINUOUS
 10
191.8451965707
 20
192.0589881912
 11
190.5256917177
 21
192.9563779468
  0
LINE
  5
259
100
AcDbEntity
  8
KONSTRUKTIONSELEMENTE
100
AcDbLine
 62
7
  6
CONTINUOUS
 10
192.2250856174
 20
194.3201088209
 11
192.4889867852
 21
194.1406307357
  0
LINE
  5
25A
100
AcDbEntity
  8
KONSTRUKTIONSELEMENTE
100
AcDbLine
 62
7
  6
CONTINUOUS
 10
192.5062677218
 20
194.7335536469
 11
192.8581358634
 21
194.4942495891
  0
LINE
  5
25B
100
AcDbEntity
  8
KONSTRUKTIONSELEMENTE
100
AcDbLine
 62
7
  6
CONTINUOUS
 10
194.931463411
 20
194.3529832986
 11
195.3708259095
 21
194.0417945256
  0
LINE
  5
25C
100
AcDbEntity
  8
0
100
AcDbLine
 62
7
  6
CONTINUOUS
 10
230.9941717075
 20
204.5555149789
 11
221.6076605422
 21
207.6053773354
  0
LINE
  5
25D
100
AcDbEntity
  8
KONSTRUKTIONSELEMENTE
100
AcDbLine
 62
7
  6
CONTINUOUS
 10
228.1483652684
 20
199.796490072
 11
228.4754811165
 21
199.6722911833
  0
LINE
  5
25E
100
AcDbEntity
  8
KONSTRUKTIONSELEMENTE
100
AcDbLine
 62
7
  6
CONTINUOUS
 10
228.4804119934
 20
200.3479547414
 11
228.8727523428
 21
200.1718906722
  0
LINE
  5
25F
100
AcDbEntity
  8
KONSTRUKTIONSELEMENTE
100
AcDbLine
 62
7
  6
CONTINUOUS
 10
235.5762067099
 20
191.6246000857
 11
236.046946272
 21
191.3924956812
  0
LINE
  5
260
100
AcDbEntity
  8
KONSTRUKTIONSELEMENTE
100
AcDbLine
 62
7
  6
CONTINUOUS
 10
221.6076605422
 20
198.8176573179
 11
221.8006758284
 21
198.7143176224
  0
LINE
  5
261
100
AcDbEntity
  8
KONSTRUKTIONSELEMENTE
100
AcDbLine
 62
7
  6
CONTINUOUS
 10
223.6373342604
 20
197.7309772523
 11
224.1516011773
 21
197.4556405802
  0
LINE
  5
262
100
AcDbEntity
  8
KONSTRUKTIONSELEMENTE
100
AcDbLine
 62
7
  6
CONTINUOUS
 10
222.8551521179
 20
200.6838419371
 11
224.104081735
 21
200.015169477
  0
LINE
  5
263
100
AcDbEntity
  8
KONSTRUKTIONSELEMENTE
100
AcDbLine
 62
7
  6
CONTINUOUS
 10
223.1564310176
 20
201.2465630947
 11
224.5522911569
 21
200.4992245574
  0
LINE
  5
264
100
AcDbEntity
  8
KONSTRUKTIONSELEMENTE
100
AcDbLine
 62
7
  6
CONTINUOUS
 10
223.9096284075
 20
202.6533662517
 11
225.3054885468
 21
201.9060277144
  0
LINE
  5
265
100
AcDbEntity
  8
KONSTRUKTIONSELEMENTE
100
AcDbLine
 62
7
  6
CONTINUOUS
 10
223.7198958645
 20
203.3583023826
 11
225.4830890354
 21
202.4142950511
  0
LINE
  5
266
100
AcDbEntity
  8
KONSTRUKTIONSELEMENTE
100
AcDbLine
 62
7
  6
CONTINUOUS
 10
225.7607940318
 20
196.2583608754
 11
226.3478235014
 21
195.7915671288
  0
LINE
  5
267
100
AcDbEntity
  8
KONSTRUKTIONSELEMENTE
100
AcDbLine
 62
7
  6
CONTINUOUS
 10
226.1580653046
 20
196.7579604227
 11
226.7450947741
 21
196.2911666761
  0
LINE
  5
268
100
AcDbEntity
  8
KONSTRUKTIONSELEMENTE
100
AcDbLine
 62
7
  6
CONTINUOUS
 10
198.8158891163
 20
200.3953025092
 11
199.1312114606
 21
200.0976557755
  0
LINE
  5
269
100
AcDbEntity
  8
KONSTRUKTIONSELEMENTE
100
AcDbLine
 62
7
  6
CONTINUOUS
 10
194.931463411
 20
194.3529832986
 11
192.5677016861
 21
196.6526773733
  0
LINE
  5
26A
100
AcDbEntity
  8
KONSTRUKTIONSELEMENTE
100
AcDbLine
 62
7
  6
CONTINUOUS
 10
195.2801268667
 20
194.7113602412
 11
192.9163651419
 21
197.011054316
  0
LINE
  5
26B
100
AcDbEntity
  8
KONSTRUKTIONSELEMENTE
100
AcDbLine
 62
7
  6
CONTINUOUS
 10
194.3110182999
 20
198.4445614031
 11
196.6747800247
 21
196.1448673284
  0
LINE
  5
26C
100
AcDbEntity
  8
KONSTRUKTIONSELEMENTE
100
AcDbLine
 62
7
  6
CONTINUOUS
 10
194.6596815894
 20
198.8029381749
 11
197.0234433143
 21
196.5032441002
  0
LINE
  5
26D
100
AcDbEntity
  8
KONSTRUKTIONSELEMENTE
100
AcDbLine
 62
7
  6
CONTINUOUS
 10
199.1606986756
 20
200.772693244
 11
199.5379062287
 21
200.3885154765
  0
LINE
  5
26E
100
AcDbEntity
  8
KONSTRUKTIONSELEMENTE
100
AcDbLine
 62
7
  6
CONTINUOUS
 10
192.7060240671
 20
193.8922454128
 11
192.4889867852
 21
194.1406307357
  0
LINE
  5
26F
100
AcDbEntity
  8
KONSTRUKTIONSELEMENTE
100
AcDbLine
 62
7
  6
CONTINUOUS
 10
193.0751731453
 20
194.2458642663
 11
192.8581358634
 21
194.4942495891
  0
LINE
  5
270
100
AcDbEntity
  8
KONSTRUKTIONSELEMENTE
100
AcDbLine
 62
7
  6
CONTINUOUS
 10
197.3465844946
 20
196.0725961754
 11
197.0234433143
 21
196.5032441002
  0
LINE
  5
271
100
AcDbEntity
  8
KONSTRUKTIONSELEMENTE
100
AcDbLine
 62
7
  6
CONTINUOUS
 10
198.7450443037
 20
195.7669962126
 11
195.8364472941
 21
199.8339438932
  0
LINE
  5
272
100
AcDbEntity
  8
KONSTRUKTIONSELEMENTE
100
AcDbLine
 62
7
  6
CONTINUOUS
 10
198.7804288161
 20
196.5770407226
 11
196.6144522745
 21
199.6056188457
  0
LINE
  5
273
100
AcDbEntity
  8
KONSTRUKTIONSELEMENTE
100
AcDbLine
 62
7
  6
CONTINUOUS
 10
196.9216708372
 20
195.7884030734
 11
196.6747800247
 21
196.1448673284
  0
LINE
  5
274
100
AcDbEntity
  8
0
100
AcDbLine
 62
7
  6
CONTINUOUS
 10
142.6076605422
 20
467.3986534304
 11
142.6076605422
 21
347.3986534304
  0
LINE
  5
275
100
AcDbEntity
  8
KONSTRUKTIONSELEMENTE
100
AcDbLine
 62
7
  6
CONTINUOUS
 10
227.606833621
 20
197.5087665466
 11
228.1938630905
 21
197.0419728
  0
LINE
  5
276
100
AcDbEntity
  8
KONSTRUKTIONSELEMENTE
100
AcDbLine
 62
7
  6
CONTINUOUS
 10
228.0041048474
 20
198.0083660356
 11
228.9824872966
 21
197.2303764578
  0
LINE
  5
277
100
AcDbEntity
  8
KONSTRUKTIONSELEMENTE
100
AcDbLine
 62
7
  6
CONTINUOUS
 10
229.1870411565
 20
198.2909715224
 11
229.5783941362
 21
197.9797756913
  0
LINE
  5
278
100
AcDbEntity
  8
KONSTRUKTIONSELEMENTE
100
AcDbLine
 62
7
  6
CONTINUOUS
 10
228.4754811165
 20
199.6722911833
 11
229.062510586
 21
199.2054974366
  0
LINE
  5
279
100
AcDbEntity
  8
KONSTRUKTIONSELEMENTE
100
AcDbLine
 62
7
  6
CONTINUOUS
 10
228.8727523428
 20
200.1718906722
 11
229.4597818124
 21
199.7050969256
  0
LINE
  5
27A
100
AcDbEntity
  8
KONSTRUKTIONSELEMENTE
100
AcDbLine
 62
7
  6
CONTINUOUS
 10
225.4830890354
 20
202.4142950511
 11
225.8002089171
 21
202.1238393972
  0
LINE
  5
27B
100
AcDbEntity
  8
KONSTRUKTIONSELEMENTE
100
AcDbLine
 62
7
  6
CONTINUOUS
 10
232.3584119892
 20
189.0114958264
 11
232.6384135105
 21
188.6851134197
  0
LINE
  5
27C
100
AcDbEntity
  8
KONSTRUKTIONSELEMENTE
100
AcDbLine
 62
7
  6
CONTINUOUS
 10
235.6070317272
 20
191.0820881871
 11
235.8870349389
 21
190.7557023607
  0
LINE
  5
27D
100
AcDbEntity
  8
KONSTRUKTIONSELEMENTE
100
AcDbLine
 62
7
  6
CONTINUOUS
 10
231.8815710464
 20
188.7757922388
 11
232.1985005976
 21
188.374702477
  0
LINE
  5
27E
100
AcDbEntity
  8
KONSTRUKTIONSELEMENTE
100
AcDbLine
 62
7
  6
CONTINUOUS
 10
199.1312114606
 20
200.0976557755
 11
200.059487078
 21
198.7996937834
  0
LINE
  5
27F
100
AcDbEntity
  8
KONSTRUKTIONSELEMENTE
100
AcDbLine
 62
7
  6
CONTINUOUS
 10
199.5379062287
 20
200.3885154765
 11
200.466181846
 21
199.0905534843
  0
LINE
  5
280
100
AcDbEntity
  8
KONSTRUKTIONSELEMENTE
100
AcDbLine
 62
7
  6
CONTINUOUS
 10
200.7078248202
 20
198.6094230954
 11
200.466181846
 21
199.0905534843
  0
LINE
  5
281
100
AcDbEntity
  8
KONSTRUKTIONSELEMENTE
100
AcDbLine
 62
7
  6
CONTINUOUS
 10
193.2864499881
 20
193.7998379631
 11
193.0751731453
 21
194.2458642663
  0
LINE
  5
282
100
AcDbEntity
  8
KONSTRUKTIONSELEMENTE
100
AcDbLine
 62
7
  6
CONTINUOUS
 10
200.2392450167
 20
198.4050941859
 11
200.059487078
 21
198.7996937834
  0
LINE
  5
283
100
AcDbEntity
  8
KONSTRUKTIONSELEMENTE
100
AcDbLine
 62
7
  6
CONTINUOUS
 10
197.5353650339
 20
195.6564026343
 11
197.3465844946
 21
196.0725961754
  0
LINE
  5
284
100
AcDbEntity
  8
RUNDUNGEN
100
AcDbLine
 62
7
  6
CONTINUOUS
 10
187.518547721
 20
150.8884950373
 11
182.8576605422
 21
169.5822924675
  0
LINE
  5
285
100
AcDbEntity
  8
KONSTRUKTIONSELEMENTE
100
AcDbLine
 62
7
  6
CONTINUOUS
 10
173.2522907861
 20
95.1016487057
 11
173.2522907861
 21
98.6371826116
  0
LINE
  5
286
100
AcDbEntity
  8
KONSTRUKTIONSELEMENTE
100
AcDbLine
 62
7
  6
CONTINUOUS
 10
225.3054885468
 20
201.9060277144
 11
225.4756745432
 21
201.6942399383
  0
LINE
  5
287
100
AcDbEntity
  8
KONSTRUKTIONSELEMENTE
100
AcDbLine
 62
7
  6
CONTINUOUS
 10
236.046946272
 20
191.3924956812
 11
236.3638758148
 21
190.9914059152
  0
LINE
  5
288
100
AcDbEntity
  8
KONSTRUKTIONSELEMENTE
100
AcDbLine
 62
7
  6
CONTINUOUS
 10
225.5008774304
 20
196.6009581149
 11
225.7607940318
 21
196.2583608754
  0
LINE
  5
289
100
AcDbEntity
  8
KONSTRUKTIONSELEMENTE
100
AcDbLine
 62
7
  6
CONTINUOUS
 10
229.4597818124
 20
199.7050969256
 11
229.7196954338
 21
199.3625020677
  0
LINE
  5
28A
100
AcDbEntity
  8
0
100
AcDbLine
 62
7
  6
CONTINUOUS
 10
242.3576605422
 20
188.9150143933
 11
230.9941717075
 21
204.5555149789
  0
LINE
  5
28B
100
AcDbEntity
  8
KONSTRUKTIONSELEMENTE
100
AcDbLine
 62
7
  6
CONTINUOUS
 10
225.9633731987
 20
197.0486924744
 11
226.1580653046
 21
196.7579604227
  0
LINE
  5
28C
100
AcDbEntity
  8
KONSTRUKTIONSELEMENTE
100
AcDbLine
 62
7
  6
CONTINUOUS
 10
229.062510586
 20
199.2054974366
 11
229.2571997061
 21
198.9147677591
  0
LINE
  5
28D
100
AcDbEntity
  8
KONSTRUKTIONSELEMENTE
100
AcDbLine
 62
7
  6
CONTINUOUS
 10
230.5548751234
 20
191.0870438944
 11
230.8301865295
 21
190.6696668111
  0
LINE
  5
28E
100
AcDbEntity
  8
KONSTRUKTIONSELEMENTE
100
AcDbLine
 62
7
  6
CONTINUOUS
 10
234.7286459562
 20
193.8401579558
 11
235.0039573623
 21
193.4227808725
  0
LINE
  5
28F
100
AcDbEntity
  8
KONSTRUKTIONSELEMENTE
100
AcDbLine
 62
7
  6
CONTINUOUS
 10
197.0342009552
 20
195.4463932541
 11
196.9216708372
 21
195.7884030734
  0
LINE
  5
290
100
AcDbEntity
  8
KONSTRUKTIONSELEMENTE
100
AcDbLine
 62
7
  6
CONTINUOUS
 10
192.7882306018
 20
193.63477846
 11
192.7060240671
 21
193.8922454128
  0
LINE
  5
291
100
AcDbEntity
  8
KONSTRUKTIONSELEMENTE
100
AcDbLine
 62
7
  6
CONTINUOUS
 10
200.8197998238
 20
198.1663464507
 11
200.7078248202
 21
198.6094230954
  0
LINE
  5
292
100
AcDbEntity
  8
KONSTRUKTIONSELEMENTE
100
AcDbLine
 62
7
  6
CONTINUOUS
 10
179.8983565445
 20
84.828472349
 11
179.8983565445
 21
87.6568994738
  0
LINE
  5
293
100
AcDbEntity
  8
KONSTRUKTIONSELEMENTE
100
AcDbLine
 62
7
  6
CONTINUOUS
 10
180.2502039948
 20
83.7062364093
 11
180.2502039948
 21
84.0597897999
  0
LINE
  5
294
100
AcDbEntity
  8
0
100
AcDbLine
 62
7
  6
CONTINUOUS
 10
182.8576605422
 20
188.9150143933
 11
182.8576605422
 21
169.5822924675
  0
LINE
  5
295
100
AcDbEntity
  8
RUNDUNGEN
100
AcDbLine
 62
7
  6
CONTINUOUS
 10
187.6076605422
 20
134.726593899
 11
187.6076605422
 21
162.2449635628
  0
LINE
  5
296
100
AcDbEntity
  8
KONSTRUKTIONSELEMENTE
100
AcDbLine
 62
7
  6
CONTINUOUS
 10
193.2749292441
 20
193.4045561998
 11
193.2864499881
 21
193.7998379631
  0
LINE
  5
297
100
AcDbEntity
  8
KONSTRUKTIONSELEMENTE
100
AcDbLine
 62
7
  6
CONTINUOUS
 10
225.3724001987
 20
196.9749543957
 11
225.5008774304
 21
196.6009581149
  0
LINE
  5
298
100
AcDbEntity
  8
KONSTRUKTIONSELEMENTE
100
AcDbLine
 62
7
  6
CONTINUOUS
 10
229.7196954338
 20
199.3625020677
 11
229.8481756687
 21
198.9885034345
  0
LINE
  5
299
100
AcDbEntity
  8
KONSTRUKTIONSELEMENTE
100
AcDbLine
 62
7
  6
CONTINUOUS
 10
225.8002089171
 20
202.1238393972
 11
225.9434338747
 21
201.6851448633
  0
LINE
  5
29A
100
AcDbEntity
  8
KONSTRUKTIONSELEMENTE
100
AcDbLine
 62
7
  6
CONTINUOUS
 10
200.2893349416
 20
198.0485483931
 11
200.2392450167
 21
198.4050941859
  0
LINE
  5
29B
100
AcDbEntity
  8
KONSTRUKTIONSELEMENTE
100
AcDbLine
 62
7
  6
CONTINUOUS
 10
197.6079242283
 20
195.1207499675
 11
197.5353650339
 21
195.6564026343
  0
LINE
  5
29C
100
AcDbEntity
  8
KONSTRUKTIONSELEMENTE
100
AcDbLine
 62
7
  6
CONTINUOUS
 10
198.3541552526
 20
147.1589074683
 11
198.3541552526
 21
140.4986534304
  0
LINE
  5
29D
100
AcDbEntity
  8
BEZUGSACHSEN
100
AcDbLine
 62
7
  6
CONTINUOUS
 10
198.3541552526
 20
126.4986534304
 11
198.3541552526
 21
133.1024270153
  0
LINE
  5
29E
100
AcDbEntity
  8
0
100
AcDbLine
 62
7
  6
CONTINUOUS
 10
203.6076605422
 20
286.3414285548
 11
203.6076605422
 21
183.455878306
  0
LINE
  5
29F
100
AcDbEntity
  8
KONSTRUKTIONSELEMENTE
100
AcDbLine
 62
7
  6
CONTINUOUS
 10
204.6076605422
 20
128.5241360157
 11
204.6076605422
 21
119.0605583138
  0
LINE
  5
2A0
100
AcDbEntity
  8
KONSTRUKTIONSELEMENTE
100
AcDbLine
 62
7
  6
CONTINUOUS
 10
206.0576605422
 20
50.9055753488
 11
206.0576605422
 21
40.5717056021
  0
LINE
  5
2A1
100
AcDbEntity
  8
BEZUGSACHSEN
100
AcDbLine
 62
7
  6
CONTINUOUS
 10
207.0076605422
 20
140.4986534304
 11
207.0076605422
 21
129.0023365422
  0
LINE
  5
2A2
100
AcDbEntity
  8
KONSTRUKTIONSELEMENTE
100
AcDbLine
 62
7
  6
CONTINUOUS
 10
207.0076605422
 20
140.4986534304
 11
207.0076605422
 21
153.8986534304
  0
LINE
  5
2A3
100
AcDbEntity
  8
KONSTRUKTIONSELEMENTE
100
AcDbLine
 62
7
  6
CONTINUOUS
 10
208.0576605422
 20
39.1574920397
 11
208.0576605422
 21
50.4712005387
  0
LINE
  5
2A4
100
AcDbEntity
  8
KONSTRUKTIONSELEMENTE
100
AcDbLine
 62
7
  6
CONTINUOUS
 10
209.1076605422
 20
158.2604908759
 11
209.1076605422
 21
150.173256686
  0
LINE
  5
2A5
100
AcDbEntity
  8
KONSTRUKTIONSELEMENTE
100
AcDbLine
 62
7
  6
CONTINUOUS
 10
209.1076605422
 20
129.6671600316
 11
209.1076605422
 21
119.0605583138
  0
LINE
  5
2A6
100
AcDbEntity
  8
KONSTRUKTIONSELEMENTE
100
AcDbLine
 62
7
  6
CONTINUOUS
 10
210.1076605422
 20
174.7591199829
 11
210.1076605422
 21
166.2406478025
  0
LINE
  5
2A7
100
AcDbEntity
  8
KONSTRUKTIONSELEMENTE
100
AcDbLine
 62
7
  6
CONTINUOUS
 10
210.1076605422
 20
120.0375875408
 11
210.1076605422
 21
102.5271799007
  0
LINE
  5
2A8
100
AcDbEntity
  8
KONSTRUKTIONSELEMENTE
100
AcDbLine
 62
7
  6
CONTINUOUS
 10
210.3576605422
 20
150.9735092177
 11
210.3576605422
 21
146.5486534304
  0
LINE
  5
2A9
100
AcDbEntity
  8
KONSTRUKTIONSELEMENTE
100
AcDbLine
 62
7
  6
CONTINUOUS
 10
210.3576605422
 20
134.4486534304
 11
210.3576605422
 21
128.8669074999
  0
LINE
  5
2AA
100
AcDbEntity
  8
KONSTRUKTIONSELEMENTE
100
AcDbLine
 62
7
  6
CONTINUOUS
 10
214.8576605422
 20
150.9735092177
 11
214.8576605422
 21
146.5486534304
  0
LINE
  5
2AB
100
AcDbEntity
  8
KONSTRUKTIONSELEMENTE
100
AcDbLine
 62
7
  6
CONTINUOUS
 10
214.8576605422
 20
134.4486534304
 11
214.8576605422
 21
128.8669074999
  0
LINE
  5
2AC
100
AcDbEntity
  8
KONSTRUKTIONSELEMENTE
100
AcDbLine
 62
7
  6
CONTINUOUS
 10
200.7962104001
 20
197.6263169724
 11
200.8197998238
 21
198.1663464507
  0
LINE
  5
2AD
100
AcDbEntity
  8
KONSTRUKTIONSELEMENTE
100
AcDbLine
 62
7
  6
CONTINUOUS
 10
197.0123700996
 20
195.1188374767
 11
197.0342009552
 21
195.4463932541
  0
LINE
  5
2AE
100
AcDbEntity
  8
KONSTRUKTIONSELEMENTE
100
AcDbLine
 62
7
  6
CONTINUOUS
 10
192.7356065233
 20
193.3682300745
 11
192.7882306018
 21
193.63477846
  0
LINE
  5
2AF
100
AcDbEntity
  8
KONSTRUKTIONSELEMENTE
100
AcDbLine
 62
7
  6
CONTINUOUS
 10
231.7553778623
 20
189.2711634307
 11
231.8815710464
 21
188.7757922388
  0
LINE
  5
2B0
100
AcDbEntity
  8
KONSTRUKTIONSELEMENTE
100
AcDbLine
 62
7
  6
CONTINUOUS
 10
236.3638758148
 20
190.9914059152
 11
236.4900690073
 21
190.4960347275
  0
LINE
  5
2B1
100
AcDbEntity
  8
KONSTRUKTIONSELEMENTE
100
AcDbLine
 62
7
  6
CONTINUOUS
 10
232.2691451279
 20
189.4321630745
 11
232.3584119892
 21
189.0114958264
  0
LINE
  5
2B2
100
AcDbEntity
  8
KONSTRUKTIONSELEMENTE
100
AcDbLine
 62
7
  6
CONTINUOUS
 10
235.8870349389
 20
190.7557023607
 11
235.9763001098
 21
190.3350385323
  0
LINE
  5
2B3
100
AcDbEntity
  8
KONSTRUKTIONSELEMENTE
100
AcDbLine
 62
7
  6
CONTINUOUS
 10
225.9001204973
 20
197.3708236113
 11
225.9633731987
 21
197.0486924744
  0
LINE
  5
2B4
100
AcDbEntity
  8
KONSTRUKTIONSELEMENTE
100
AcDbLine
 62
7
  6
CONTINUOUS
 10
229.2571997061
 20
198.9147677591
 11
229.3204524538
 21
198.5926366806
  0
LINE
  5
2B5
100
AcDbEntity
  8
KONSTRUKTIONSELEMENTE
100
AcDbLine
 62
7
  6
CONTINUOUS
 10
225.4756745432
 20
201.6942399383
 11
225.5221821286
 21
201.4279983413
  0
LINE
  5
2B6
100
AcDbEntity
  8
KONSTRUKTIONSELEMENTE
100
AcDbLine
 62
7
  6
CONTINUOUS
 10
225.9434338747
 20
201.6851448633
 11
225.9629804213
 21
201.1919965084
  0
LINE
  5
2B7
100
AcDbEntity
  8
KONSTRUKTIONSELEMENTE
100
AcDbLine
 62
7
  6
CONTINUOUS
 10
215.1076605422
 20
174.7591199829
 11
215.1076605422
 21
166.2406478025
  0
LINE
  5
2B8
100
AcDbEntity
  8
KONSTRUKTIONSELEMENTE
100
AcDbLine
 62
7
  6
CONTINUOUS
 10
215.1076605422
 20
120.0375875408
 11
215.1076605422
 21
102.5271799007
  0
LINE
  5
2B9
100
AcDbEntity
  8
KONSTRUKTIONSELEMENTE
100
AcDbLine
 62
7
  6
CONTINUOUS
 10
216.1076605422
 20
119.0605583138
 11
216.1076605422
 21
129.6671600316
  0
LINE
  5
2BA
100
AcDbEntity
  8
KONSTRUKTIONSELEMENTE
100
AcDbLine
 62
7
  6
CONTINUOUS
 10
216.1076605422
 20
150.173256686
 11
216.1076605422
 21
158.2604908759
  0
LINE
  5
2BB
100
AcDbEntity
  8
KONSTRUKTIONSELEMENTE
100
AcDbLine
 62
7
  6
CONTINUOUS
 10
217.1576605422
 20
39.1574920397
 11
217.1576605422
 21
50.4712005387
  0
LINE
  5
2BC
100
AcDbEntity
  8
BEZUGSACHSEN
100
AcDbLine
 62
7
  6
CONTINUOUS
 10
218.2076605422
 20
129.0023365422
 11
218.2076605422
 21
140.4986534304
  0
LINE
  5
2BD
100
AcDbEntity
  8
KONSTRUKTIONSELEMENTE
100
AcDbLine
 62
7
  6
CONTINUOUS
 10
218.2076605422
 20
140.4986534304
 11
218.2076605422
 21
153.8986534304
  0
LINE
  5
2BE
100
AcDbEntity
  8
KONSTRUKTIONSELEMENTE
100
AcDbLine
 62
7
  6
CONTINUOUS
 10
219.1576605422
 20
40.5717056021
 11
219.1576605422
 21
50.8247539293
  0
LINE
  5
2BF
100
AcDbEntity
  8
KONSTRUKTIONSELEMENTE
100
AcDbLine
 62
7
  6
CONTINUOUS
 10
220.6076605422
 20
119.0605583138
 11
220.6076605422
 21
128.5241360157
  0
LINE
  5
2C0
100
AcDbEntity
  8
0
100
AcDbLine
 62
7
  6
CONTINUOUS
 10
221.6076605422
 20
286.3414285548
 11
221.6076605422
 21
183.455878306
  0
LINE
  5
2C1
100
AcDbEntity
  8
KONSTRUKTIONSELEMENTE
100
AcDbLine
 62
7
  6
CONTINUOUS
 10
226.8611658318
 20
147.1589074683
 11
226.8611658318
 21
140.4986534304
  0
LINE
  5
2C2
100
AcDbEntity
  8
BEZUGSACHSEN
100
AcDbLine
 62
7
  6
CONTINUOUS
 10
226.8611658318
 20
133.1024270153
 11
226.8611658318
 21
126.4986534304
  0
LINE
  5
2C3
100
AcDbEntity
  8
KONSTRUKTIONSELEMENTE
100
AcDbLine
 62
7
  6
CONTINUOUS
 10
225.3763437292
 20
197.5154862211
 11
225.3724001987
 21
196.9749543957
  0
LINE
  5
2C4
100
AcDbEntity
  8
KONSTRUKTIONSELEMENTE
100
AcDbLine
 62
7
  6
CONTINUOUS
 10
229.8481756687
 20
198.9885034345
 11
229.8442291756
 21
198.4479740125
  0
LINE
  5
2C5
100
AcDbEntity
  8
KONSTRUKTIONSELEMENTE
100
AcDbLine
 62
7
  6
CONTINUOUS
 10
197.5279826802
 20
194.7334646467
 11
197.6079242283
 21
195.1207499675
  0
LINE
  5
2C6
100
AcDbEntity
  8
KONSTRUKTIONSELEMENTE
100
AcDbLine
 62
7
  6
CONTINUOUS
 10
200.2097576717
 20
197.7300568992
 11
200.2893349416
 21
198.0485483931
  0
LINE
  5
2C7
100
AcDbEntity
  8
RUNDUNGEN
100
AcDbLine
 62
7
  6
CONTINUOUS
 10
237.6076605422
 20
134.726593899
 11
237.6076605422
 21
162.2449635628
  0
LINE
  5
2C8
100
AcDbEntity
  8
KONSTRUKTIONSELEMENTE
100
AcDbLine
 62
7
  6
CONTINUOUS
 10
239.8070317813
 20
59.4205682326
 11
239.8070317813
 21
55.8850343267
  0
LINE
  5
2C9
100
AcDbEntity
  8
0
100
AcDbLine
 62
7
  6
CONTINUOUS
 10
242.3576605422
 20
169.5822924675
 11
242.3576605422
 21
188.9150143933
  0
LINE
  5
2CA
100
AcDbEntity
  8
KONSTRUKTIONSELEMENTE
100
AcDbLine
 62
7
  6
CONTINUOUS
 10
225.9683071078
 20
197.7243537166
 11
225.9001204973
 21
197.3708236113
  0
LINE
  5
2CB
100
AcDbEntity
  8
KONSTRUKTIONSELEMENTE
100
AcDbLine
 62
7
  6
CONTINUOUS
 10
224.6453063276
 20
199.9667413634
 11
224.1516011773
 21
197.4556405802
  0
LINE
  5
2CC
100
AcDbEntity
  8
KONSTRUKTIONSELEMENTE
100
AcDbLine
 62
7
  6
CONTINUOUS
 10
224.104081735
 20
200.015169477
 11
223.6373342604
 21
197.7309772523
  0
LINE
  5
2CD
100
AcDbEntity
  8
KONSTRUKTIONSELEMENTE
100
AcDbLine
 62
7
  6
CONTINUOUS
 10
225.5221821286
 20
201.4279983413
 11
225.4450079399
 21
201.1073047238
  0
LINE
  5
2CE
100
AcDbEntity
  8
KONSTRUKTIONSELEMENTE
100
AcDbLine
 62
7
  6
CONTINUOUS
 10
225.9629804213
 20
201.1919965084
 11
225.8858062326
 21
200.8713028909
  0
LINE
  5
2CF
100
AcDbEntity
  8
KONSTRUKTIONSELEMENTE
100
AcDbLine
 62
7
  6
CONTINUOUS
 10
200.6488509004
 20
197.2593490845
 11
200.7962104001
 21
197.6263169724
  0
LINE
  5
2D0
100
AcDbEntity
  8
KONSTRUKTIONSELEMENTE
100
AcDbLine
 62
7
  6
CONTINUOUS
 10
196.8561781637
 20
194.8057358451
 11
197.0123700996
 21
195.1188374767
  0
LINE
  5
2D1
100
AcDbEntity
  8
KONSTRUKTIONSELEMENTE
100
AcDbLine
 62
7
  6
CONTINUOUS
 10
262.8387237427
 20
95.0511477469
 11
262.8387237427
 21
91.5156138409
  0
LINE
  5
2D2
100
AcDbEntity
  8
KONSTRUKTIONSELEMENTE
100
AcDbLine
 62
7
  6
CONTINUOUS
 10
231.8568473765
 20
189.7861121131
 11
231.7553778623
 21
189.2711634307
  0
LINE
  5
2D3
100
AcDbEntity
  8
KONSTRUKTIONSELEMENTE
100
AcDbLine
 62
7
  6
CONTINUOUS
 10
236.4900690073
 20
190.4960347275
 11
236.3885978278
 21
189.9810894772
  0
LINE
  5
2D4
100
AcDbEntity
  8
KONSTRUKTIONSELEMENTE
100
AcDbLine
 62
7
  6
CONTINUOUS
 10
232.3491007944
 20
189.7505597347
 11
232.2691451279
 21
189.4321630745
  0
LINE
  5
2D5
100
AcDbEntity
  8
KONSTRUKTIONSELEMENTE
100
AcDbLine
 62
7
  6
CONTINUOUS
 10
235.9763001098
 20
190.3350385323
 11
235.8963444432
 21
190.0166418721
  0
LINE
  5
2D6
100
AcDbEntity
  8
KONSTRUKTIONSELEMENTE
100
AcDbLine
 62
7
  6
CONTINUOUS
 10
225.5107422571
 20
197.9522829662
 11
225.3763437292
 21
197.5154862211
  0
LINE
  5
2D7
100
AcDbEntity
  8
KONSTRUKTIONSELEMENTE
100
AcDbLine
 62
7
  6
CONTINUOUS
 10
229.3204524538
 20
198.5926366806
 11
229.1870411565
 21
198.2909715224
  0
LINE
  5
2D8
100
AcDbEntity
  8
KONSTRUKTIONSELEMENTE
100
AcDbLine
 62
7
  6
CONTINUOUS
 10
221.6076605422
 20
199.4131223282
 11
223.7198958645
 21
203.3583023826
  0
LINE
  5
2D9
100
AcDbEntity
  8
KONSTRUKTIONSELEMENTE
100
AcDbLine
 62
7
  6
CONTINUOUS
 10
221.8006758284
 20
198.7143176224
 11
222.8551521179
 21
200.6838419371
  0
LINE
  5
2DA
100
AcDbEntity
  8
KONSTRUKTIONSELEMENTE
100
AcDbLine
 62
7
  6
CONTINUOUS
 10
223.1564310176
 20
201.2465630947
 11
223.9096284075
 21
202.6533662517
  0
LINE
  5
2DB
100
AcDbEntity
  8
KONSTRUKTIONSELEMENTE
100
AcDbLine
 62
7
  6
CONTINUOUS
 10
197.3136804244
 20
194.3606337745
 11
197.5279826802
 21
194.7334646467
  0
LINE
  5
2DC
100
AcDbEntity
  8
KONSTRUKTIONSELEMENTE
100
AcDbLine
 62
7
  6
CONTINUOUS
 10
189.8046747444
 20
192.8420629835
 11
190.9294031621
 21
194.4958422875
  0
LINE
  5
2DD
100
AcDbEntity
  8
KONSTRUKTIONSELEMENTE
100
AcDbLine
 62
7
  6
CONTINUOUS
 10
190.5256917177
 20
192.9563779468
 11
191.4161016704
 21
194.2656198301
  0
LINE
  5
2DE
100
AcDbEntity
  8
KONSTRUKTIONSELEMENTE
100
AcDbLine
 62
7
  6
CONTINUOUS
 10
191.8451965707
 20
192.0589881912
 11
192.7356065233
 21
193.3682300745
  0
LINE
  5
2DF
100
AcDbEntity
  8
KONSTRUKTIONSELEMENTE
100
AcDbLine
 62
7
  6
CONTINUOUS
 10
192.3729984133
 20
191.700032356
 11
193.1696810202
 21
192.8714593301
  0
LINE
  5
2E0
100
AcDbEntity
  8
KONSTRUKTIONSELEMENTE
100
AcDbLine
 62
7
  6
CONTINUOUS
 10
193.9391230044
 20
190.0302419391
 11
194.2203051089
 21
190.4436867651
  0
LINE
  5
2E1
100
AcDbEntity
  8
KONSTRUKTIONSELEMENTE
100
AcDbLine
 62
7
  6
CONTINUOUS
 10
195.391897166
 20
192.1663734744
 11
195.7199430439
 21
192.6487259029
  0
LINE
  5
2E2
100
AcDbEntity
  8
0
100
AcDbLine
 62
7
  6
CONTINUOUS
 10
194.2211493769
 20
204.5555149789
 11
182.8576605422
 21
188.9150143933
  0
LINE
  5
2E3
100
AcDbEntity
  8
KONSTRUKTIONSELEMENTE
100
AcDbLine
 62
7
  6
CONTINUOUS
 10
200.0005131203
 20
197.4496198255
 11
200.2097576717
 21
197.7300568992
  0
LINE
  5
2E4
100
AcDbEntity
  8
KONSTRUKTIONSELEMENTE
100
AcDbLine
 62
7
  6
CONTINUOUS
 10
200.3718233759
 20
196.9304350165
 11
200.6488509004
 21
197.2593490845
  0
LINE
  5
2E5
100
AcDbEntity
  8
0
100
AcDbLine
 62
7
  6
CONTINUOUS
 10
282.6076605422
 20
347.3986534304
 11
282.6076605422
 21
467.3986534304
  0
LINE
  5
2E6
100
AcDbEntity
  8
RUNDUNGEN
100
AcDbLine
 62
7
  6
CONTINUOUS
 10
237.6967733634
 20
150.8884950373
 11
242.3576605422
 21
169.5822924675
  0
LINE
  5
2E7
100
AcDbEntity
  8
KONSTRUKTIONSELEMENTE
100
AcDbLine
 62
7
  6
CONTINUOUS
 10
232.0321712516
 20
190.1516495007
 11
231.8568473765
 21
189.7861121131
  0
LINE
  5
2E8
100
AcDbEntity
  8
KONSTRUKTIONSELEMENTE
100
AcDbLine
 62
7
  6
CONTINUOUS
 10
236.3885978278
 20
189.9810894772
 11
236.2132739861
 21
189.6155521061
  0
LINE
  5
2E9
100
AcDbEntity
  8
KONSTRUKTIONSELEMENTE
100
AcDbLine
 62
7
  6
CONTINUOUS
 10
226.167927105
 20
198.1092875973
 11
225.9683071078
 21
197.7243537166
  0
LINE
  5
2EA
100
AcDbEntity
  8
KONSTRUKTIONSELEMENTE
100
AcDbLine
 62
7
  6
CONTINUOUS
 10
225.4450079399
 20
201.1073047238
 11
225.2943683493
 21
200.8259438822
  0
LINE
  5
2EB
100
AcDbEntity
  8
KONSTRUKTIONSELEMENTE
100
AcDbLine
 62
7
  6
CONTINUOUS
 10
225.8858062326
 20
200.8713028909
 11
225.6849534921
 21
200.4961551897
  0
LINE
  5
2EC
100
AcDbEntity
  8
KONSTRUKTIONSELEMENTE
100
AcDbLine
 62
7
  6
CONTINUOUS
 10
225.7765741253
 20
198.4204834284
 11
225.5107422571
 21
197.9522829662
  0
LINE
  5
2ED
100
AcDbEntity
  8
KONSTRUKTIONSELEMENTE
100
AcDbLine
 62
7
  6
CONTINUOUS
 10
229.8442291756
 20
198.4479740125
 11
229.5783941362
 21
197.9797756913
  0
LINE
  5
2EE
100
AcDbEntity
  8
KONSTRUKTIONSELEMENTE
100
AcDbLine
 62
7
  6
CONTINUOUS
 10
225.7765741253
 20
198.4204834284
 11
226.769752284
 21
199.6694822675
  0
LINE
  5
2EF
100
AcDbEntity
  8
KONSTRUKTIONSELEMENTE
100
AcDbLine
 62
7
  6
CONTINUOUS
 10
226.167927105
 20
198.1092875973
 11
227.1611052637
 21
199.3582864364
  0
LINE
  5
2F0
100
AcDbEntity
  8
KONSTRUKTIONSELEMENTE
100
AcDbLine
 62
7
  6
CONTINUOUS
 10
228.0041048474
 20
198.0083660356
 11
227.606833621
 21
197.5087665466
  0
LINE
  5
2F1
100
AcDbEntity
  8
KONSTRUKTIONSELEMENTE
100
AcDbLine
 62
7
  6
CONTINUOUS
 10
192.5677016861
 20
196.6526773733
 11
192.9163651419
 21
197.011054316
  0
LINE
  5
2F2
100
AcDbEntity
  8
KONSTRUKTIONSELEMENTE
100
AcDbLine
 62
7
  6
CONTINUOUS
 10
194.3110182999
 20
198.4445614031
 11
194.6596815894
 21
198.8029381749
  0
LINE
  5
2F3
100
AcDbEntity
  8
KONSTRUKTIONSELEMENTE
100
AcDbLine
 62
7
  6
CONTINUOUS
 10
196.6237358598
 20
194.5668178833
 11
196.8561781637
 21
194.8057358451
  0
LINE
  5
2F4
100
AcDbEntity
  8
KONSTRUKTIONSELEMENTE
100
AcDbLine
 62
7
  6
CONTINUOUS
 10
197.0812381205
 20
194.1217158127
 11
197.3136804244
 21
194.3606337745
  0
LINE
  5
2F5
100
AcDbEntity
  8
KONSTRUKTIONSELEMENTE
100
AcDbLine
 62
7
  6
CONTINUOUS
 10
190.9294031621
 20
194.4958422875
 11
191.251688601
 21
194.7805537357
  0
LINE
  5
2F6
100
AcDbEntity
  8
KONSTRUKTIONSELEMENTE
100
AcDbLine
 62
7
  6
CONTINUOUS
 10
195.8364472941
 20
199.8339438932
 11
197.4632263663
 21
200.997382697
  0
LINE
  5
2F7
100
AcDbEntity
  8
KONSTRUKTIONSELEMENTE
100
AcDbLine
 62
7
  6
CONTINUOUS
 10
196.6144522745
 20
199.6056188457
 11
197.8345365786
 21
200.4781979486
  0
LINE
  5
2F8
100
AcDbEntity
  8
KONSTRUKTIONSELEMENTE
100
AcDbLine
 62
7
  6
CONTINUOUS
 10
232.7736028974
 20
190.3322232111
 11
232.3491007944
 21
189.7505597347
  0
LINE
  5
2F9
100
AcDbEntity
  8
KONSTRUKTIONSELEMENTE
100
AcDbLine
 62
7
  6
CONTINUOUS
 10
235.8963444432
 20
190.0166418721
 11
235.4718438302
 21
189.4349748769
  0
LINE
  5
2FA
100
AcDbEntity
  8
KONSTRUKTIONSELEMENTE
100
AcDbLine
 62
7
  6
CONTINUOUS
 10
228.1938630905
 20
197.0419728
 11
227.6641680293
 21
196.3758400314
  0
LINE
  5
2FB
100
AcDbEntity
  8
KONSTRUKTIONSELEMENTE
100
AcDbLine
 62
7
  6
CONTINUOUS
 10
228.9824872966
 20
197.2303764578
 11
227.9893091379
 21
195.9813776188
  0
LINE
  5
2FC
100
AcDbEntity
  8
KONSTRUKTIONSELEMENTE
100
AcDbLine
 62
7
  6
CONTINUOUS
 10
232.3397896665
 20
190.4896236762
 11
232.0321712516
 21
190.1516495007
  0
LINE
  5
2FD
100
AcDbEntity
  8
KONSTRUKTIONSELEMENTE
100
AcDbLine
 62
7
  6
CONTINUOUS
 10
236.2132739861
 20
189.6155521061
 11
235.905655638
 21
189.2775779637
  0
LINE
  5
2FE
100
AcDbEntity
  8
KONSTRUKTIONSELEMENTE
100
AcDbLine
 62
7
  6
CONTINUOUS
 10
225.0702636384
 20
200.583916342
 11
225.2943683493
 21
200.8259438822
  0
LINE
  5
2FF
100
AcDbEntity
  8
KONSTRUKTIONSELEMENTE
100
AcDbLine
 62
7
  6
CONTINUOUS
 10
225.4608487812
 20
200.2541276495
 11
225.6849534921
 21
200.4961551897
  0
LINE
  5
300
100
AcDbEntity
  8
KONSTRUKTIONSELEMENTE
100
AcDbLine
 62
7
  6
CONTINUOUS
 10
226.769752284
 20
199.6694822675
 11
227.1660393119
 21
200.0339478535
  0
LINE
  5
301
100
AcDbEntity
  8
KONSTRUKTIONSELEMENTE
100
AcDbLine
 62
7
  6
CONTINUOUS
 10
227.1611052637
 20
199.3582864364
 11
227.4911802351
 21
199.6394852077
  0
LINE
  5
302
100
AcDbEntity
  8
KONSTRUKTIONSELEMENTE
100
AcDbLine
 62
7
  6
CONTINUOUS
 10
227.6592371059
 20
195.7001764149
 11
227.9893091379
 21
195.9813776188
  0
LINE
  5
303
100
AcDbEntity
  8
KONSTRUKTIONSELEMENTE
100
AcDbLine
 62
7
  6
CONTINUOUS
 10
227.4003079147
 20
196.1779054673
 11
227.6641680293
 21
196.3758400314
  0
LINE
  5
304
100
AcDbEntity
  8
KONSTRUKTIONSELEMENTE
100
AcDbLine
 62
7
  6
CONTINUOUS
 10
198.7804288161
 20
196.5770407226
 11
200.0005131203
 21
197.4496198255
  0
LINE
  5
305
100
AcDbEntity
  8
KONSTRUKTIONSELEMENTE
100
AcDbLine
 62
7
  6
CONTINUOUS
 10
198.7450443037
 20
195.7669962126
 11
200.3718233759
 21
196.9304350165
  0
LINE
  5
306
100
AcDbEntity
  8
KONSTRUKTIONSELEMENTE
100
AcDbLine
 62
7
  6
CONTINUOUS
 10
191.4161016704
 20
194.2656198301
 11
191.6446596964
 21
194.4125162705
  0
LINE
  5
307
100
AcDbEntity
  8
KONSTRUKTIONSELEMENTE
100
AcDbLine
 62
7
  6
CONTINUOUS
 10
196.7144351156
 20
193.8972522931
 11
197.0812381205
 21
194.1217158127
  0
LINE
  5
308
100
AcDbEntity
  8
KONSTRUKTIONSELEMENTE
100
AcDbLine
 62
7
  6
CONTINUOUS
 10
225.039597035
 20
199.9969811275
 11
225.4608487812
 21
200.2541276495
  0
LINE
  5
309
100
AcDbEntity
  8
KONSTRUKTIONSELEMENTE
100
AcDbLine
 62
7
  6
CONTINUOUS
 10
227.1660393119
 20
200.0339478535
 11
227.5613357989
 21
200.2632838186
  0
LINE
  5
30A
100
AcDbEntity
  8
KONSTRUKTIONSELEMENTE
100
AcDbLine
 62
7
  6
CONTINUOUS
 10
196.3150435206
 20
194.4020839331
 11
196.6237358598
 21
194.5668178833
  0
LINE
  5
30B
100
AcDbEntity
  8
KONSTRUKTIONSELEMENTE
100
AcDbLine
 62
7
  6
CONTINUOUS
 10
197.4632263663
 20
200.997382697
 11
197.864023967
 21
201.1532351746
  0
LINE
  5
30C
100
AcDbEntity
  8
0
100
AcDbLine
 62
7
  6
CONTINUOUS
 10
203.6076605422
 20
207.6053773354
 11
194.2211493769
 21
204.5555149789
  0
LINE
  5
30D
100
AcDbEntity
  8
KONSTRUKTIONSELEMENTE
100
AcDbLine
 62
7
  6
CONTINUOUS
 10
197.8345365786
 20
200.4781979486
 11
198.1675512008
 21
200.5855734396
  0
LINE
  5
30E
100
AcDbEntity
  8
0
100
AcDbLine
 62
7
  6
CONTINUOUS
 10
308.6076605422
 20
347.3986534304
 11
308.6076605422
 21
467.3986534304
  0
LINE
  5
30F
100
AcDbEntity
  8
KONSTRUKTIONSELEMENTE
100
AcDbLine
 62
7
  6
CONTINUOUS
 10
232.5889678609
 20
190.7057497484
 11
232.3397896665
 21
190.4896236762
  0
LINE
  5
310
100
AcDbEntity
  8
KONSTRUKTIONSELEMENTE
100
AcDbLine
 62
7
  6
CONTINUOUS
 10
235.905655638
 20
189.2775779637
 11
235.6564771764
 21
189.0614517593
  0
LINE
  5
311
100
AcDbEntity
  8
KONSTRUKTIONSELEMENTE
100
AcDbLine
 62
7
  6
CONTINUOUS
 10
235.6564771764
 20
189.0614517593
 11
235.2165643219
 21
188.7510408455
  0
LINE
  5
312
100
AcDbEntity
  8
KONSTRUKTIONSELEMENTE
100
AcDbLine
 62
7
  6
CONTINUOUS
 10
233.0288825393
 20
191.0161573085
 11
232.5889678609
 21
190.7057497484
  0
LINE
  5
313
100
AcDbEntity
  8
KONSTRUKTIONSELEMENTE
100
AcDbLine
 62
7
  6
CONTINUOUS
 10
233.3088840607
 20
190.6897749019
 11
232.7736028974
 21
190.3322232111
  0
LINE
  5
314
100
AcDbEntity
  8
KONSTRUKTIONSELEMENTE
100
AcDbLine
 62
7
  6
CONTINUOUS
 10
235.4718438302
 20
189.4349748769
 11
234.9365611102
 21
189.0774266719
  0
LINE
  5
315
100
AcDbEntity
  8
KONSTRUKTIONSELEMENTE
100
AcDbLine
 62
7
  6
CONTINUOUS
 10
233.1212799389
 20
193.3788815559
 11
233.831709181
 21
193.8474968235
  0
LINE
  5
316
100
AcDbEntity
  8
KONSTRUKTIONSELEMENTE
100
AcDbLine
 62
7
  6
CONTINUOUS
 10
230.5548751234
 20
191.0870438944
 11
234.0182169629
 21
193.3715428523
  0
LINE
  5
317
100
AcDbEntity
  8
KONSTRUKTIONSELEMENTE
100
AcDbLine
 62
7
  6
CONTINUOUS
 10
235.0039573623
 20
193.4227808725
 11
230.8301865295
 21
190.6696668111
  0
LINE
  5
318
100
AcDbEntity
  8
KONSTRUKTIONSELEMENTE
100
AcDbLine
 62
7
  6
CONTINUOUS
 10
233.0288825393
 20
191.0161573085
 11
233.8871961161
 21
191.4404237066
  0
LINE
  5
319
100
AcDbEntity
  8
KONSTRUKTIONSELEMENTE
100
AcDbLine
 62
7
  6
CONTINUOUS
 10
233.3088840607
 20
190.6897749019
 11
233.976461287
 21
191.0197598782
  0
LINE
  5
31A
100
AcDbEntity
  8
KONSTRUKTIONSELEMENTE
100
AcDbLine
 62
7
  6
CONTINUOUS
 10
234.9365611102
 20
189.0774266719
 11
234.2689838839
 21
188.7474416956
  0
LINE
  5
31B
100
AcDbEntity
  8
KONSTRUKTIONSELEMENTE
100
AcDbLine
 62
7
  6
CONTINUOUS
 10
235.2165643219
 20
188.7510408455
 11
234.3582507452
 21
188.3267744475
  0
LINE
  5
31C
100
AcDbEntity
  8
KONSTRUKTIONSELEMENTE
100
AcDbLine
 62
7
  6
CONTINUOUS
 10
227.4911802351
 20
199.6394852077
 11
227.8202650364
 21
199.7855548246
  0
LINE
  5
31D
100
AcDbEntity
  8
KONSTRUKTIONSELEMENTE
100
AcDbLine
 62
7
  6
CONTINUOUS
 10
224.8229034532
 20
200.4750105006
 11
225.0702636384
 21
200.583916342
  0
LINE
  5
31E
100
AcDbEntity
  8
KONSTRUKTIONSELEMENTE
100
AcDbLine
 62
7
  6
CONTINUOUS
 10
233.976461287
 20
191.0197598782
 11
234.5855983597
 21
191.2278967843
  0
LINE
  5
31F
100
AcDbEntity
  8
KONSTRUKTIONSELEMENTE
100
AcDbLine
 62
7
  6
CONTINUOUS
 10
233.659848368
 20
188.5393013038
 11
234.2689838839
 21
188.7474416956
  0
LINE
  5
320
100
AcDbEntity
  8
KONSTRUKTIONSELEMENTE
100
AcDbLine
 62
7
  6
CONTINUOUS
 10
233.8871961161
 20
191.4404237066
 11
234.4009633232
 21
191.6014233215
  0
LINE
  5
321
100
AcDbEntity
  8
RUNDUNGEN
100
AcDbLine
 62
7
  6
CONTINUOUS
 10
237.1397494284
 20
133.4410186796
 11
236.6635074321
 21
132.8734555695
  0
LINE
  5
322
100
AcDbEntity
  8
BEZUGSACHSEN
100
AcDbLine
 62
7
  6
CONTINUOUS
 10
236.6635074321
 20
132.8734555695
 11
231.9138868783
 21
127.213078211
  0
LINE
  5
323
100
AcDbEntity
  8
KONSTRUKTIONSELEMENTE
100
AcDbLine
 62
7
  6
CONTINUOUS
 10
233.8444817141
 20
188.1657781862
 11
234.3582507452
 21
188.3267744475
  0
LINE
  5
324
100
AcDbEntity
  8
KONSTRUKTIONSELEMENTE
100
AcDbLine
 62
7
  6
CONTINUOUS
 10
231.2088926699
 20
62.8463611734
 11
248.7475505322
 21
89.4419010287
  0
LINE
  5
325
100
AcDbEntity
  8
KONSTRUKTIONSELEMENTE
100
AcDbLine
 62
7
  6
CONTINUOUS
 10
239.4999396761
 20
55.3409803757
 11
239.7601856748
 21
55.7356162073
  0
LINE
  5
326
100
AcDbEntity
  8
KONSTRUKTIONSELEMENTE
100
AcDbLine
 62
7
  6
CONTINUOUS
 10
261.9476444162
 20
89.3805762652
 11
262.3702626779
 21
90.0214326473
  0
LINE
  5
327
100
AcDbEntity
  8
KONSTRUKTIONSELEMENTE
100
AcDbLine
 62
7
  6
CONTINUOUS
 10
205.8457683543
 20
111.636590897
 11
176.1391994774
 21
101.8414645219
  0
LINE
  5
328
100
AcDbEntity
  8
KONSTRUKTIONSELEMENTE
100
AcDbLine
 62
7
  6
CONTINUOUS
 10
205.8457683543
 20
108.1010569911
 11
176.1391994774
 21
98.305930616
  0
LINE
  5
329
100
AcDbEntity
  8
KONSTRUKTIONSELEMENTE
100
AcDbLine
 62
7
  6
CONTINUOUS
 10
180.4569889901
 20
94.2681902997
 11
174.5659883744
 21
92.3257547479
  0
LINE
  5
32A
100
AcDbEntity
  8
KONSTRUKTIONSELEMENTE
100
AcDbLine
 62
7
  6
CONTINUOUS
 10
176.7706865784
 20
92.9065099043
 11
181.0918309369
 21
94.33131784
  0
LINE
  5
32B
100
AcDbEntity
  8
KONSTRUKTIONSELEMENTE
100
AcDbLine
 62
7
  6
CONTINUOUS
 10
180.7644291519
 20
88.6181840468
 11
184.9318297706
 21
89.9922981657
  0
LINE
  5
32C
100
AcDbEntity
  8
KONSTRUKTIONSELEMENTE
100
AcDbLine
 62
7
  6
CONTINUOUS
 10
180.7644291519
 20
85.7897569221
 11
185.295968087
 21
87.2839381157
  0
LINE
  5
32D
100
AcDbEntity
  8
KONSTRUKTIONSELEMENTE
100
AcDbLine
 62
7
  6
CONTINUOUS
 10
180.2502039948
 20
84.0597897999
 11
186.1412046105
 21
86.0022253516
  0
LINE
  5
32E
100
AcDbEntity
  8
KONSTRUKTIONSELEMENTE
100
AcDbLine
 62
7
  6
CONTINUOUS
 10
180.2502039948
 20
83.7062364093
 11
186.1412046105
 21
85.648671961
  0
LINE
  5
32F
100
AcDbEntity
  8
KONSTRUKTIONSELEMENTE
100
AcDbLine
 62
7
  6
CONTINUOUS
 10
385.566296606
 20
42.6930259456
 11
389.101830512
 21
39.1574920397
  0
LINE
  5
330
100
AcDbEntity
  8
KONSTRUKTIONSELEMENTE
100
AcDbLine
 62
7
  6
CONTINUOUS
 10
403.2439661357
 20
53.2996276634
 11
402.8904127451
 21
53.653181054
  0
LINE
  5
331
100
AcDbEntity
  8
KONSTRUKTIONSELEMENTE
100
AcDbLine
 62
7
  6
CONTINUOUS
 10
400.0619856204
 20
56.4816081788
 11
399.7084322298
 21
56.8351615694
  0
LINE
  5
332
100
AcDbEntity
  8
KONSTRUKTIONSELEMENTE
100
AcDbLine
 62
7
  6
CONTINUOUS
 10
442.2700932202
 20
92.3257547479
 11
441.5961116386
 21
92.3588799475
  0
LINE
  5
333
100
AcDbEntity
  8
KONSTRUKTIONSELEMENTE
100
AcDbLine
 62
7
  6
CONTINUOUS
 10
433.6505748815
 20
83.7062364093
 11
433.2970214909
 21
84.0597897999
  0
LINE
  5
334
100
AcDbEntity
  8
KONSTRUKTIONSELEMENTE
100
AcDbLine
 62
7
  6
CONTINUOUS
 10
430.1150409756
 20
87.2417703152
 11
430.4685943662
 21
86.8882169246
  0
LINE
  5
335
100
AcDbEntity
  8
KONSTRUKTIONSELEMENTE
100
AcDbLine
 62
7
  6
CONTINUOUS
 10
439.1132360151
 20
93.6169439436
 11
440.0257485099
 21
92.7044314488
  0
LINE
  5
336
100
AcDbEntity
  8
BEZUGSACHSEN
100
AcDbLine
 62
7
  6
CONTINUOUS
 10
455.5698679435
 20
112.6965972831
 11
459.1054018494
 21
109.1610633772
  0
LINE
  5
337
100
AcDbEntity
  8
KONSTRUKTIONSELEMENTE
100
AcDbLine
 62
7
  6
CONTINUOUS
 10
451.680780647
 20
116.9392379702
 11
455.2163145529
 21
113.4037040643
  0
LINE
  5
338
100
AcDbEntity
  8
KONSTRUKTIONSELEMENTE
100
AcDbLine
 62
7
  6
CONTINUOUS
 10
452.0343340376
 20
117.2927913608
 11
455.5698679435
 21
113.7572574549
  0
LINE
  5
339
100
AcDbEntity
  8
BEZUGSACHSEN
100
AcDbLine
 62
7
  6
CONTINUOUS
 10
551.2304637041
 20
165.0268048966
 11
550.9890952756
 21
164.960491639
  0
LINE
  5
33A
100
AcDbEntity
  8
BEZUGSACHSEN
100
AcDbLine
 62
7
  6
CONTINUOUS
 10
550.9890952756
 20
164.960491639
 11
550.9034158024
 21
164.9447608945
  0
LINE
  5
33B
100
AcDbEntity
  8
BEZUGSACHSEN
100
AcDbLine
 62
7
  6
CONTINUOUS
 10
550.903415845
 20
164.9447606291
 11
550.4945890667
 21
164.8800048878
  0
LINE
  5
33C
100
AcDbEntity
  8
BEZUGSACHSEN
100
AcDbLine
 62
7
  6
CONTINUOUS
 10
556.4794175407
 20
169.5822924675
 11
561.1354984528
 21
169.5822924675
  0
LINE
  5
33D
100
AcDbEntity
  8
BEZUGSACHSEN
100
AcDbLine
 62
7
  6
CONTINUOUS
 10
556.5800963835
 20
188.9150143933
 11
561.03481961
 21
188.9150143933
  0
LINE
  5
33E
100
AcDbEntity
  8
KONSTRUKTIONSELEMENTE
100
AcDbLine
 62
7
  6
CONTINUOUS
 10
564.2503228468
 20
190.0302419391
 11
564.7769571484
 21
190.0302419391
  0
LINE
  5
33F
100
AcDbEntity
  8
KONSTRUKTIONSELEMENTE
100
AcDbLine
 62
7
  6
CONTINUOUS
 10
566.7155417045
 20
164.9441165687
 11
567.1203269268
 21
164.8800048878
  0
LINE
  5
340
100
AcDbEntity
  8
RUNDUNGEN
100
AcDbLine
 62
7
  6
CONTINUOUS
 10
566.9863523306
 20
164.9012243793
 11
566.7113851807
 21
164.944779084
  0
LINE
  5
341
100
AcDbEntity
  8
RUNDUNGEN
100
AcDbLine
 62
7
  6
CONTINUOUS
 10
566.7113852233
 20
164.9447793494
 11
566.6399621256
 21
164.9576213477
  0
LINE
  5
342
100
AcDbEntity
  8
RUNDUNGEN
100
AcDbLine
 62
7
  6
CONTINUOUS
 10
566.6399621256
 20
164.9576213477
 11
566.3984599841
 21
165.0220318761
  0
LINE
  5
343
100
AcDbEntity
  8
KONSTRUKTIONSELEMENTE
100
AcDbLine
 62
7
  6
CONTINUOUS
 10
564.2618910369
 20
192.1663734744
 11
564.7885253385
 21
192.1663734744
  0
LINE
  5
344
100
AcDbEntity
  8
KONSTRUKTIONSELEMENTE
100
AcDbLine
 62
7
  6
CONTINUOUS
 10
562.6003559945
 20
192.8420629835
 11
563.1269902962
 21
192.8420629835
  0
LINE
  5
345
100
AcDbEntity
  8
KONSTRUKTIONSELEMENTE
100
AcDbLine
 62
7
  6
CONTINUOUS
 10
563.3179458014
 20
193.3682300745
 11
563.8445801031
 21
193.3682300745
  0
LINE
  5
346
100
AcDbEntity
  8
KONSTRUKTIONSELEMENTE
100
AcDbLine
 62
7
  6
CONTINUOUS
 10
563.3180262292
 20
193.63477846
 11
563.8072943614
 21
193.63477846
  0
LINE
  5
347
100
AcDbEntity
  8
KONSTRUKTIONSELEMENTE
100
AcDbLine
 62
7
  6
CONTINUOUS
 10
564.1576641896
 20
193.8067016904
 11
564.6842984912
 21
193.8067016904
  0
LINE
  5
348
100
AcDbEntity
  8
KONSTRUKTIONSELEMENTE
100
AcDbLine
 62
7
  6
CONTINUOUS
 10
564.0116923237
 20
193.8645187754
 11
564.5383266254
 21
193.8645187754
  0
LINE
  5
349
100
AcDbEntity
  8
KONSTRUKTIONSELEMENTE
100
AcDbLine
 62
7
  6
CONTINUOUS
 10
563.3183977338
 20
193.8922454128
 11
563.7351022302
 21
193.8922454128
  0
LINE
  5
34A
100
AcDbEntity
  8
KONSTRUKTIONSELEMENTE
100
AcDbLine
 62
7
  6
CONTINUOUS
 10
563.8679423207
 20
194.0417945256
 11
564.3945766224
 21
194.0417945256
  0
LINE
  5
34B
100
AcDbEntity
  8
KONSTRUKTIONSELEMENTE
100
AcDbLine
 62
7
  6
CONTINUOUS
 10
563.3175231635
 20
194.1406307357
 11
563.6285702725
 21
194.1406307357
  0
LINE
  5
34C
100
AcDbEntity
  8
KONSTRUKTIONSELEMENTE
100
AcDbLine
 62
7
  6
CONTINUOUS
 10
563.3293376137
 20
194.3201088209
 11
563.5231049228
 21
194.3201088209
  0
LINE
  5
34D
100
AcDbEntity
  8
KONSTRUKTIONSELEMENTE
100
AcDbLine
 62
7
  6
CONTINUOUS
 10
563.7162900413
 20
194.3529832986
 11
564.2172683489
 21
194.3529832986
  0
LINE
  5
34E
100
AcDbEntity
  8
KONSTRUKTIONSELEMENTE
100
AcDbLine
 62
7
  6
CONTINUOUS
 10
564.443320649
 20
194.4020839331
 11
564.5480743754
 21
194.4020839331
  0
LINE
  5
34F
100
AcDbEntity
  8
KONSTRUKTIONSELEMENTE
100
AcDbLine
 62
7
  6
CONTINUOUS
 10
562.6149020618
 20
194.4958422875
 11
563.1415363634
 21
194.4958422875
  0
LINE
  5
350
100
AcDbEntity
  8
KONSTRUKTIONSELEMENTE
100
AcDbLine
 62
7
  6
CONTINUOUS
 10
564.3126236159
 20
194.5668178833
 11
564.5849078921
 21
194.5668178833
  0
LINE
  5
351
100
AcDbEntity
  8
KONSTRUKTIONSELEMENTE
100
AcDbLine
 62
7
  6
CONTINUOUS
 10
562.6468184452
 20
194.7805537357
 11
563.1734527469
 21
194.7805537357
  0
LINE
  5
352
100
AcDbEntity
  8
KONSTRUKTIONSELEMENTE
100
AcDbLine
 62
7
  6
CONTINUOUS
 10
564.1814444069
 20
194.8057358451
 11
564.5849078927
 21
194.8057358451
  0
LINE
  5
353
100
AcDbEntity
  8
KONSTRUKTIONSELEMENTE
100
AcDbLine
 62
7
  6
CONTINUOUS
 10
562.7480890101
 20
194.8767056363
 11
563.2747233117
 21
194.8767056363
  0
LINE
  5
354
100
AcDbEntity
  8
KONSTRUKTIONSELEMENTE
100
AcDbLine
 62
7
  6
CONTINUOUS
 10
564.0330835904
 20
195.1188374767
 11
564.5480743736
 21
195.1188374767
  0
LINE
  5
355
100
AcDbEntity
  8
KONSTRUKTIONSELEMENTE
100
AcDbLine
 62
7
  6
CONTINUOUS
 10
563.9487919273
 20
195.4463932541
 11
564.4754262289
 21
195.4463932541
  0
LINE
  5
356
100
AcDbEntity
  8
KONSTRUKTIONSELEMENTE
100
AcDbLine
 62
7
  6
CONTINUOUS
 10
564.5001565482
 20
195.7669962126
 11
564.7748800676
 21
195.7669962126
  0
LINE
  5
357
100
AcDbEntity
  8
KONSTRUKTIONSELEMENTE
100
AcDbLine
 62
7
  6
CONTINUOUS
 10
563.8412861411
 20
195.7884030734
 11
564.3679204427
 21
195.7884030734
  0
LINE
  5
358
100
AcDbEntity
  8
KONSTRUKTIONSELEMENTE
100
AcDbLine
 62
7
  6
CONTINUOUS
 10
563.6995292608
 20
196.1448673284
 11
564.2261635625
 21
196.1448673284
  0
LINE
  5
359
100
AcDbEntity
  8
KONSTRUKTIONSELEMENTE
100
AcDbLine
 62
7
  6
CONTINUOUS
 10
562.601956611
 20
196.6526773733
 11
563.1285909127
 21
196.6526773733
  0
LINE
  5
35A
100
AcDbEntity
  8
KONSTRUKTIONSELEMENTE
100
AcDbLine
 62
7
  6
CONTINUOUS
 10
562.6097475721
 20
197.011054316
 11
563.1363818738
 21
197.011054316
  0
LINE
  5
35B
100
AcDbEntity
  8
KONSTRUKTIONSELEMENTE
100
AcDbLine
 62
7
  6
CONTINUOUS
 10
564.2206369898
 20
197.4496198255
 11
564.5842854879
 21
197.4496198255
  0
LINE
  5
35C
100
AcDbEntity
  8
KONSTRUKTIONSELEMENTE
100
AcDbLine
 62
7
  6
CONTINUOUS
 10
564.1067537867
 20
197.7300568992
 11
564.5466294501
 21
197.7300568992
  0
LINE
  5
35D
100
AcDbEntity
  8
KONSTRUKTIONSELEMENTE
100
AcDbLine
 62
7
  6
CONTINUOUS
 10
563.9774169948
 20
198.0485483931
 11
564.4733823124
 21
198.0485483931
  0
LINE
  5
35E
100
AcDbEntity
  8
KONSTRUKTIONSELEMENTE
100
AcDbLine
 62
7
  6
CONTINUOUS
 10
563.8388684659
 20
198.4050941859
 11
564.3655027676
 21
198.4050941859
  0
LINE
  5
35F
100
AcDbEntity
  8
KONSTRUKTIONSELEMENTE
100
AcDbLine
 62
7
  6
CONTINUOUS
 10
562.6097475691
 20
198.4445614031
 11
563.1363818708
 21
198.4445614031
  0
LINE
  5
360
100
AcDbEntity
  8
KONSTRUKTIONSELEMENTE
100
AcDbLine
 62
7
  6
CONTINUOUS
 10
563.6969584792
 20
198.7996937834
 11
564.2235927809
 21
198.7996937834
  0
LINE
  5
361
100
AcDbEntity
  8
KONSTRUKTIONSELEMENTE
100
AcDbLine
 62
7
  6
CONTINUOUS
 10
562.601956611
 20
198.8029381749
 11
563.1285909127
 21
198.8029381749
  0
LINE
  5
362
100
AcDbEntity
  8
KONSTRUKTIONSELEMENTE
100
AcDbLine
 62
7
  6
CONTINUOUS
 10
562.5986691766
 20
199.8339438932
 11
563.1253034783
 21
199.8339438932
  0
LINE
  5
363
100
AcDbEntity
  8
KONSTRUKTIONSELEMENTE
100
AcDbLine
 62
7
  6
CONTINUOUS
 10
563.3528871125
 20
200.0976557755
 11
563.696473569
 21
200.0976557755
  0
LINE
  5
364
100
AcDbEntity
  8
KONSTRUKTIONSELEMENTE
100
AcDbLine
 62
7
  6
CONTINUOUS
 10
563.3530061246
 20
200.3953025092
 11
563.5571231482
 21
200.3953025092
  0
LINE
  5
365
100
AcDbEntity
  8
KONSTRUKTIONSELEMENTE
100
AcDbLine
 62
7
  6
CONTINUOUS
 10
563.3860463284
 20
200.5579417073
 11
563.4538268949
 21
200.5579417073
  0
LINE
  5
366
100
AcDbEntity
  8
KONSTRUKTIONSELEMENTE
100
AcDbLine
 62
7
  6
CONTINUOUS
 10
562.6152920197
 20
200.997382697
 11
563.1419263213
 21
200.997382697
  0
LINE
  5
367
100
AcDbEntity
  8
KONSTRUKTIONSELEMENTE
100
AcDbLine
 62
7
  6
CONTINUOUS
 10
562.6476447168
 20
201.1532351746
 11
563.1742790184
 21
201.1532351746
  0
LINE
  5
368
100
AcDbEntity
  8
KONSTRUKTIONSELEMENTE
100
AcDbLine
 62
7
  6
CONTINUOUS
 10
562.7141243748
 20
201.1740798742
 11
563.2407586764
 21
201.1740798742
  0
LINE
  5
369
100
AcDbEntity
  8
BEZUGSACHSEN
100
AcDbLine
 62
7
  6
CONTINUOUS
 10
556.5800963835
 20
204.5555149789
 11
561.03481961
 21
204.5555149789
  0
LWPOLYLINE
  5
36A
100
AcDbEntity
  8
RUNDUNGEN
100
AcDbPolyline
 62
7
  6
CONTINUOUS
 90
8
 70
0
 10
566.3984599841
 20
165.0220318761
 10
566.1616359596
 20
165.1193760656
 10
565.936363737
 20
165.2487746064
 10
565.7286973395
 20
165.4079288829
 10
565.5430911243
 20
165.5941432863
 10
565.3837573681
 20
165.803582208
 10
565.2537707527
 20
166.0322262601
 10
565.1555502227
 20
166.2755411253
  0
LINE
  5
36B
100
AcDbEntity
  8
BEZUGSACHSEN
100
AcDbLine
 62
7
  6
CONTINUOUS
 10
561.03481961
 20
210.5296546015
 11
556.5800963835
 21
210.5296546015
  0
LINE
  5
36C
100
AcDbEntity
  8
KONSTRUKTIONSELEMENTE
100
AcDbLine
 62
7
  6
CONTINUOUS
 10
508.9564299231
 20
174.2148872463
 11
512.491963829
 21
170.6793533404
  0
LINE
  5
36D
100
AcDbEntity
  8
KONSTRUKTIONSELEMENTE
100
AcDbLine
 62
7
  6
CONTINUOUS
 10
509.3099833137
 20
174.5684406369
 11
512.8455172196
 21
171.032906731
  0
LINE
  5
36E
100
AcDbEntity
  8
KONSTRUKTIONSELEMENTE
100
AcDbLine
 62
7
  6
CONTINUOUS
 10
438.7676845138
 20
95.1873070723
 11
438.7345593143
 21
95.8612886539
  0
LINE
  5
36F
100
AcDbEntity
  8
BEZUGSACHSEN
100
AcDbLine
 62
7
  6
CONTINUOUS
 10
546.9206655439
 20
133.1024270153
 11
545.5621749779
 21
135.285715425
  0
LINE
  5
370
100
AcDbEntity
  8
RUNDUNGEN
100
AcDbLine
 62
7
  6
CONTINUOUS
 10
572.1375850157
 20
149.6589074683
 11
563.6113062639
 21
164.4268554658
  0
LINE
  5
371
100
AcDbEntity
  8
0
100
AcDbLine
 62
7
  6
CONTINUOUS
 10
520.8074579967
 20
212.3986534304
 11
520.8074579967
 21
257.3986534304
  0
LINE
  5
372
100
AcDbEntity
  8
KONSTRUKTIONSELEMENTE
100
AcDbLine
 62
7
  6
CONTINUOUS
 10
561.03481961
 20
210.5296546015
 11
564.8045851627
 21
199.1309420111
  0
LINE
  5
373
100
AcDbEntity
  8
RUNDUNGEN
100
AcDbLine
 62
7
  6
CONTINUOUS
 10
565.1555502227
 20
166.2755411253
 11
565.0907919451
 21
166.5283236389
  0
LINE
  5
374
100
AcDbEntity
  8
BEZUGSACHSEN
100
AcDbLine
 62
7
  6
CONTINUOUS
 10
556.2255464447
 20
174.0029257543
 11
556.4794175407
 21
169.5822924675
  0
LINE
  5
375
100
AcDbEntity
  8
0
100
AcDbLine
 62
7
  6
CONTINUOUS
 10
538.8074579967
 20
212.3986534304
 11
538.8074579967
 21
257.3986534304
  0
LINE
  5
376
100
AcDbEntity
  8
BEZUGSACHSEN
100
AcDbLine
 62
7
  6
CONTINUOUS
 10
544.8074579967
 20
137.927224859
 11
544.8074579967
 21
147.1589074683
  0
LINE
  5
377
100
AcDbEntity
  8
0
100
AcDbLine
 62
7
  6
CONTINUOUS
 10
545.8074579967
 20
550.3377464576
 11
545.8074579967
 21
264.4595604032
  0
LINE
  5
378
100
AcDbEntity
  8
BEZUGSACHSEN
100
AcDbLine
 62
7
  6
CONTINUOUS
 10
548.8074579967
 20
156.7666026229
 11
548.8074579967
 21
162.9046282067
  0
LINE
  5
379
100
AcDbEntity
  8
RUNDUNGEN
100
AcDbLine
 62
7
  6
CONTINUOUS
 10
561.1354984528
 20
169.5822924675
 11
561.4567145482
 21
156.0721987904
  0
LINE
  5
37A
100
AcDbEntity
  8
BEZUGSACHSEN
100
AcDbLine
 62
7
  6
CONTINUOUS
 10
552.5574579967
 20
197.5609790594
 11
552.5574579967
 21
166.4045664597
  0
LINE
  5
37B
100
AcDbEntity
  8
BEZUGSACHSEN
100
AcDbLine
 62
7
  6
CONTINUOUS
 10
565.0574579967
 20
197.5609790594
 11
565.0574579967
 21
176.0687514561
  0
LINE
  5
37C
100
AcDbEntity
  8
KONSTRUKTIONSELEMENTE
100
AcDbLine
 62
7
  6
CONTINUOUS
 10
565.0574579967
 20
176.0687514561
 11
565.0574579967
 21
166.404562066
  0
LINE
  5
37D
100
AcDbEntity
  8
RUNDUNGEN
100
AcDbLine
 62
7
  6
CONTINUOUS
 10
565.0574579967
 20
176.0687514413
 11
565.0574579967
 21
166.4045664597
  0
LINE
  5
37E
100
AcDbEntity
  8
KONSTRUKTIONSELEMENTE
100
AcDbLine
 62
7
  6
CONTINUOUS
 10
568.8074579967
 20
156.7666026229
 11
568.8074579967
 21
162.9046282067
  0
LINE
  5
37F
100
AcDbEntity
  8
BEZUGSACHSEN
100
AcDbLine
 62
7
  6
CONTINUOUS
 10
556.4794175407
 20
169.5822924675
 11
556.1582014453
 21
156.0721987904
  0
LINE
  5
380
100
AcDbEntity
  8
0
100
AcDbLine
 62
7
  6
CONTINUOUS
 10
561.3893695487
 20
174.0029257543
 11
561.1354984528
 21
169.5822924675
  0
LINE
  5
381
100
AcDbEntity
  8
0
100
AcDbLine
 62
7
  6
CONTINUOUS
 10
571.8074579967
 20
550.3377464576
 11
571.8074579967
 21
264.4595604032
  0
LINE
  5
382
100
AcDbEntity
  8
RUNDUNGEN
100
AcDbLine
 62
7
  6
CONTINUOUS
 10
572.8074579967
 20
137.927224859
 11
572.8074579967
 21
147.1589074683
  0
LINE
  5
383
100
AcDbEntity
  8
0
100
AcDbLine
 62
7
  6
CONTINUOUS
 10
578.8074579967
 20
257.3986534304
 11
578.8074579967
 21
212.3986534304
  0
LWPOLYLINE
  5
384
100
AcDbEntity
  8
BEZUGSACHSEN
100
AcDbPolyline
 62
7
  6
CONTINUOUS
 90
9
 70
0
 10
552.5267160956
 20
166.5425038278
 10
552.4638712206
 20
166.2894448883
 10
552.3675192622
 20
166.0455401452
 10
552.2393119247
 20
165.8160304961
 10
552.0816183453
 20
165.6054618181
 10
551.8974799221
 20
165.4178886924
 10
551.6910424814
 20
165.257160617
 10
551.4667111662
 20
165.1260152465
 10
551.2304637041
 20
165.0268048966
  0
LINE
  5
385
100
AcDbEntity
  8
BEZUGSACHSEN
100
AcDbLine
 62
7
  6
CONTINUOUS
 10
552.8103308308
 20
199.1309420111
 11
556.5800963835
 21
210.5296546015
  0
LINE
  5
386
100
AcDbEntity
  8
0
100
AcDbLine
 62
7
  6
CONTINUOUS
 10
596.8074579967
 20
257.3986534304
 11
596.8074579967
 21
212.3986534304
  0
LINE
  5
387
100
AcDbEntity
  8
KONSTRUKTIONSELEMENTE
100
AcDbLine
 62
7
  6
CONTINUOUS
 10
448.8523535222
 20
114.1108108455
 11
451.680780647
 21
116.9392379702
  0
LINE
  5
388
100
AcDbEntity
  8
KONSTRUKTIONSELEMENTE
100
AcDbLine
 62
7
  6
CONTINUOUS
 10
452.0343340376
 20
117.2927913608
 11
454.8627611623
 21
120.1212184856
  0
LINE
  5
389
100
AcDbEntity
  8
KONSTRUKTIONSELEMENTE
100
AcDbLine
 62
7
  6
CONTINUOUS
 10
506.1280027983
 20
171.3864601216
 11
508.9564299231
 21
174.2148872463
  0
LINE
  5
38A
100
AcDbEntity
  8
KONSTRUKTIONSELEMENTE
100
AcDbLine
 62
7
  6
CONTINUOUS
 10
509.3099833137
 20
174.5684406369
 11
512.1384104384
 21
177.3968677617
  0
LINE
  5
38B
100
AcDbEntity
  8
KONSTRUKTIONSELEMENTE
100
AcDbLine
 62
7
  6
CONTINUOUS
 10
475.3688578167
 20
140.2737617494
 11
485.9754595345
 21
150.8803634672
  0
LINE
  5
38C
100
AcDbEntity
  8
KONSTRUKTIONSELEMENTE
100
AcDbLine
 62
7
  6
CONTINUOUS
 10
478.5508383321
 20
137.0917812341
 11
489.1574400499
 21
147.6983829519
  0
LINE
  5
38D
100
AcDbEntity
  8
KONSTRUKTIONSELEMENTE
100
AcDbLine
 62
7
  6
CONTINUOUS
 10
452.3878874282
 20
110.5752769396
 11
455.2163145529
 21
113.4037040643
  0
LINE
  5
38E
100
AcDbEntity
  8
KONSTRUKTIONSELEMENTE
100
AcDbLine
 62
7
  6
CONTINUOUS
 10
455.5698679435
 20
113.7572574549
 11
458.3982950683
 21
116.5856845796
  0
LINE
  5
38F
100
AcDbEntity
  8
KONSTRUKTIONSELEMENTE
100
AcDbLine
 62
7
  6
CONTINUOUS
 10
509.6635367043
 20
167.8509262157
 11
512.491963829
 21
170.6793533404
  0
LINE
  5
390
100
AcDbEntity
  8
KONSTRUKTIONSELEMENTE
100
AcDbLine
 62
7
  6
CONTINUOUS
 10
512.8455172196
 20
171.032906731
 11
515.6739443444
 21
173.8613338558
  0
LINE
  5
391
100
AcDbEntity
  8
KONSTRUKTIONSELEMENTE
100
AcDbLine
 62
7
  6
CONTINUOUS
 10
544.665322373
 20
202.4991584938
 11
515.6739443444
 21
173.5077804652
  0
LINE
  5
392
100
AcDbEntity
  8
BEZUGSACHSEN
100
AcDbLine
 62
7
  6
CONTINUOUS
 10
455.569622516
 20
112.6963518556
 11
454.5098615574
 21
111.636590897
  0
LINE
  5
393
100
AcDbEntity
  8
KONSTRUKTIONSELEMENTE
100
AcDbLine
 62
7
  6
CONTINUOUS
 10
385.566296606
 20
42.6930259456
 11
454.5098615574
 21
111.636590897
  0
LINE
  5
394
100
AcDbEntity
  8
KONSTRUKTIONSELEMENTE
100
AcDbLine
 62
7
  6
CONTINUOUS
 10
509.6635367043
 20
166.4367126533
 11
490.9548517291
 21
147.7280276781
  0
LINE
  5
395
100
AcDbEntity
  8
KONSTRUKTIONSELEMENTE
100
AcDbLine
 62
7
  6
CONTINUOUS
 10
478.5508383321
 20
135.3240142811
 11
459.8421533569
 21
116.6153293059
  0
LINE
  5
396
100
AcDbEntity
  8
KONSTRUKTIONSELEMENTE
100
AcDbLine
 62
7
  6
CONTINUOUS
 10
400.0619856204
 20
56.4816081788
 11
385.9198499966
 21
42.3394725551
  0
LINE
  5
397
100
AcDbEntity
  8
KONSTRUKTIONSELEMENTE
100
AcDbLine
 62
7
  6
CONTINUOUS
 10
430.4685943662
 20
86.8882169246
 11
435.1022816132
 21
91.5219041717
  0
LINE
  5
398
100
AcDbEntity
  8
KONSTRUKTIONSELEMENTE
100
AcDbLine
 62
7
  6
CONTINUOUS
 10
402.8904127451
 20
53.653181054
 11
388.7482771214
 21
39.5110454303
  0
LINE
  5
399
100
AcDbEntity
  8
KONSTRUKTIONSELEMENTE
100
AcDbLine
 62
7
  6
CONTINUOUS
 10
433.2970214909
 20
84.0597897999
 11
437.930708738
 21
88.6934770469
  0
LINE
  5
39A
100
AcDbEntity
  8
KONSTRUKTIONSELEMENTE
100
AcDbLine
 62
7
  6
CONTINUOUS
 10
512.8455172196
 20
163.254732138
 11
494.1368322444
 21
144.5460471628
  0
LINE
  5
39B
100
AcDbEntity
  8
KONSTRUKTIONSELEMENTE
100
AcDbLine
 62
7
  6
CONTINUOUS
 10
481.7328188474
 20
132.1420337657
 11
463.0241338722
 21
113.4333487906
  0
LINE
  5
39C
100
AcDbEntity
  8
BEZUGSACHSEN
100
AcDbLine
 62
7
  6
CONTINUOUS
 10
459.1051564219
 20
109.1608179497
 11
458.0453954633
 21
108.1010569911
  0
LINE
  5
39D
100
AcDbEntity
  8
KONSTRUKTIONSELEMENTE
100
AcDbLine
 62
7
  6
CONTINUOUS
 10
389.101830512
 20
39.1574920397
 11
458.0453954633
 21
108.1010569911
  0
LINE
  5
39E
100
AcDbEntity
  8
KONSTRUKTIONSELEMENTE
100
AcDbLine
 62
7
  6
CONTINUOUS
 10
548.9079630601
 20
198.2565178067
 11
519.9660951587
 21
169.3146499052
  0
LINE
  5
39F
100
AcDbEntity
  8
KONSTRUKTIONSELEMENTE
100
AcDbLine
 62
7
  6
CONTINUOUS
 10
520.2701384221
 20
169.265139778
 11
514.259730782
 21
163.254732138
  0
LINE
  5
3A0
100
AcDbEntity
  8
KONSTRUKTIONSELEMENTE
100
AcDbLine
 62
7
  6
CONTINUOUS
 10
462.994489146
 20
111.9894905019
 11
456.9840815059
 21
105.9790828618
  0
LINE
  5
3A1
100
AcDbEntity
  8
KONSTRUKTIONSELEMENTE
100
AcDbLine
 62
7
  6
CONTINUOUS
 10
494.1071875182
 20
142.7486354835
 11
483.5005858004
 21
132.1420337657
  0
LINE
  5
3A2
100
AcDbEntity
  8
BEZUGSACHSEN
100
AcDbLine
 62
7
  6
CONTINUOUS
 10
545.4773309778
 20
149.6589074683
 11
554.0036097296
 21
164.4268554658
  0
LINE
  5
3A3
100
AcDbEntity
  8
KONSTRUKTIONSELEMENTE
100
AcDbLine
 62
7
  6
CONTINUOUS
 10
497.2891680335
 20
139.5666549682
 11
486.6825663157
 21
128.9600532504
  0
LINE
  5
3A4
100
AcDbEntity
  8
KONSTRUKTIONSELEMENTE
100
AcDbLine
 62
7
  6
CONTINUOUS
 10
523.805672328
 20
165.7296058721
 11
517.7952646879
 21
159.719198232
  0
LINE
  5
3A5
100
AcDbEntity
  8
KONSTRUKTIONSELEMENTE
100
AcDbLine
 62
7
  6
CONTINUOUS
 10
466.5300230519
 20
108.453956596
 11
460.5196154118
 21
102.4435489559
  0
LINE
  5
3A6
100
AcDbEntity
  8
RUNDUNGEN
100
AcDbLine
 62
7
  6
CONTINUOUS
 10
570.6942504496
 20
133.1024270153
 11
572.0527410156
 21
135.285715425
  0
ARC
  5
3A7
100
AcDbEntity
  8
KONSTRUKTIONSELEMENTE
100
AcDbCircle
 62
7
  6
CONTINUOUS
 10
212.4316477523
 20
157.6325674423
 40
9.4443260734
100
AcDbArc
 50
104.2723032266
 51
110.4100277385
  0
ARC
  5
3A8
100
AcDbEntity
  8
KONSTRUKTIONSELEMENTE
100
AcDbCircle
 62
7
  6
CONTINUOUS
 10
211.59916431
 20
128.218871431
 40
7.5451076752
100
AcDbArc
 50
124.2419775659
 51
126.1203175817
  0
ARC
  5
3A9
100
AcDbEntity
  8
KONSTRUKTIONSELEMENTE
100
AcDbCircle
 62
7
  6
CONTINUOUS
 10
211.5040619423
 20
128.349544888
 40
7.3834909417
100
AcDbArc
 50
126.1219307631
 51
127.5764647571
  0
ARC
  5
3AA
100
AcDbEntity
  8
KONSTRUKTIONSELEMENTE
100
AcDbCircle
 62
7
  6
CONTINUOUS
 10
202.0730852137
 20
47.8898052354
 40
5.4898501433
100
AcDbArc
 50
80.2049516589
 51
83.5150100898
  0
ARC
  5
3AB
100
AcDbEntity
  8
RUNDUNGEN
100
AcDbCircle
 62
7
  6
CONTINUOUS
 10
184.6076605422
 20
150.1627293505
 40
3.0
100
AcDbArc
 50
0.0
 51
14.0
  0
ARC
  5
3AC
100
AcDbEntity
  8
KONSTRUKTIONSELEMENTE
100
AcDbCircle
 62
7
  6
CONTINUOUS
 10
206.0459218324
 20
50.4704678628
 40
2.0117388432
100
AcDbArc
 50
0.0208671421
 51
7.9801551546
  0
ARC
  5
3AD
100
AcDbEntity
  8
BEZUGSACHSEN
100
AcDbCircle
 62
7
  6
CONTINUOUS
 10
194.83352253
 20
128.4986541006
 40
2.0
100
AcDbArc
 50
220.0000250634
 51
270.0000161105
  0
ARC
  5
3AE
100
AcDbEntity
  8
RUNDUNGEN
100
AcDbCircle
 62
7
  6
CONTINUOUS
 10
189.6076605422
 20
134.726593899
 40
2.0
100
AcDbArc
 50
180.0
 51
220.0
  0
ARC
  5
3AF
100
AcDbEntity
  8
KONSTRUKTIONSELEMENTE
100
AcDbCircle
 62
7
  6
CONTINUOUS
 10
212.6076605422
 20
93.4405593087
 40
36.0
100
AcDbArc
 50
98.9490180653
 51
113.3240322405
  0
ARC
  5
3B0
100
AcDbEntity
  8
KONSTRUKTIONSELEMENTE
100
AcDbCircle
 62
7
  6
CONTINUOUS
 10
212.6076605422
 20
93.4405593087
 40
36.0
100
AcDbArc
 50
66.6759677595
 51
81.0509819347
  0
ARC
  5
3B1
100
AcDbEntity
  8
BEZUGSACHSEN
100
AcDbCircle
 62
7
  6
CONTINUOUS
 10
212.6076605422
 20
179.2486534304
 40
13.25
100
AcDbArc
 50
132.844678999
 51
47.155321001
  0
ARC
  5
3B2
100
AcDbEntity
  8
KONSTRUKTIONSELEMENTE
100
AcDbCircle
 62
7
  6
CONTINUOUS
 10
212.8130984403
 20
157.7277220185
 40
9.3448730039
100
AcDbArc
 50
69.523423598
 51
75.7644531001
  0
ARC
  5
3B3
100
AcDbEntity
  8
0
100
AcDbCircle
 62
7
  6
CONTINUOUS
 10
212.6076605422
 20
183.3986534304
 40
9.0
100
AcDbArc
 50
180.0
 51
360.0
  0
ARC
  5
3B4
100
AcDbEntity
  8
KONSTRUKTIONSELEMENTE
100
AcDbCircle
 62
7
  6
CONTINUOUS
 10
213.6246572449
 20
128.2307942293
 40
7.530460227
100
AcDbArc
 50
53.6440041601
 51
55.6848988334
  0
ARC
  5
3B5
100
AcDbEntity
  8
KONSTRUKTIONSELEMENTE
100
AcDbCircle
 62
7
  6
CONTINUOUS
 10
213.719773989
 20
128.3606508849
 40
7.3694950107
100
AcDbArc
 50
52.3884586971
 51
53.6410739396
  0
ARC
  5
3B6
100
AcDbEntity
  8
KONSTRUKTIONSELEMENTE
100
AcDbCircle
 62
7
  6
CONTINUOUS
 10
212.6076605422
 20
153.8986534304
 40
5.6
100
AcDbArc
 50
0.0
 51
180.0
  0
ARC
  5
3B7
100
AcDbEntity
  8
KONSTRUKTIONSELEMENTE
100
AcDbCircle
 62
7
  6
CONTINUOUS
 10
222.9242898388
 20
48.9459190038
 40
4.6749602783
100
AcDbArc
 50
111.3149175255
 51
112.0930351414
  0
ARC
  5
3B8
100
AcDbEntity
  8
RUNDUNGEN
100
AcDbCircle
 62
7
  6
CONTINUOUS
 10
240.6076605422
 20
150.1627293505
 40
3.0
100
AcDbArc
 50
166.0
 51
180.0
  0
ARC
  5
3B9
100
AcDbEntity
  8
KONSTRUKTIONSELEMENTE
100
AcDbCircle
 62
7
  6
CONTINUOUS
 10
212.6076605422
 20
120.0375875408
 40
2.5
100
AcDbArc
 50
0.0
 51
180.0
  0
ARC
  5
3BA
100
AcDbEntity
  8
KONSTRUKTIONSELEMENTE
100
AcDbCircle
 62
7
  6
CONTINUOUS
 10
212.6076605422
 20
102.5271799007
 40
2.5
100
AcDbArc
 50
180.0
 51
360.0
  0
ARC
  5
3BB
100
AcDbEntity
  8
KONSTRUKTIONSELEMENTE
100
AcDbCircle
 62
7
  6
CONTINUOUS
 10
212.6076605422
 20
159.8028291768
 40
2.5
100
AcDbArc
 50
199.3908042464
 51
340.6091957537
  0
CIRCLE
  5
3BC
100
AcDbEntity
  8
BEZUGSACHSEN
100
AcDbCircle
 62
7
  6
CONTINUOUS
 10
230.3076605422
 20
140.4986534304
 40
2.5
  0
ARC
  5
3BD
100
AcDbEntity
  8
KONSTRUKTIONSELEMENTE
100
AcDbCircle
 62
7
  6
CONTINUOUS
 10
212.6076605422
 20
128.8669074999
 40
2.25
100
AcDbArc
 50
180.0
 51
360.0
  0
ARC
  5
3BE
100
AcDbEntity
  8
KONSTRUKTIONSELEMENTE
100
AcDbCircle
 62
7
  6
CONTINUOUS
 10
212.6076605422
 20
150.9735092177
 40
2.25
100
AcDbArc
 50
0.0
 51
180.0
  0
ARC
  5
3BF
100
AcDbEntity
  8
BEZUGSACHSEN
100
AcDbCircle
 62
7
  6
CONTINUOUS
 10
230.3818003995
 20
128.4986562995
 40
2.0
100
AcDbArc
 50
269.9999310313
 51
319.9998927033
  0
ARC
  5
3C0
100
AcDbEntity
  8
RUNDUNGEN
100
AcDbCircle
 62
7
  6
CONTINUOUS
 10
235.6076605422
 20
134.726593899
 40
2.0
100
AcDbArc
 50
320.0
 51
359.9755144818
  0
ARC
  5
3C1
100
AcDbEntity
  8
0
100
AcDbCircle
 62
7
  6
CONTINUOUS
 10
212.6076605422
 20
347.3986534304
 40
96.0
100
AcDbArc
 50
180.0
 51
264.6196478263
  0
ARC
  5
3C2
100
AcDbEntity
  8
0
100
AcDbCircle
 62
7
  6
CONTINUOUS
 10
212.6076605422
 20
347.3986534304
 40
96.0
100
AcDbArc
 50
275.3803521737
 51
360.0
  0
ARC
  5
3C3
100
AcDbEntity
  8
0
100
AcDbCircle
 62
7
  6
CONTINUOUS
 10
212.6076605422
 20
467.3986534304
 40
96.0
100
AcDbArc
 50
0.0
 51
180.0
  0
ARC
  5
3C4
100
AcDbEntity
  8
0
100
AcDbCircle
 62
7
  6
CONTINUOUS
 10
212.6076605422
 20
467.3986534304
 40
70.0
100
AcDbArc
 50
0.0
 51
180.0
  0
ARC
  5
3C5
100
AcDbEntity
  8
0
100
AcDbCircle
 62
7
  6
CONTINUOUS
 10
212.6076605422
 20
347.3986534304
 40
70.0
100
AcDbArc
 50
180.0
 51
262.6122309054
  0
ARC
  5
3C6
100
AcDbEntity
  8
0
100
AcDbCircle
 62
7
  6
CONTINUOUS
 10
212.6076605422
 20
347.3986534304
 40
70.0
100
AcDbArc
 50
277.3877690946
 51
360.0
  0
ARC
  5
3C7
100
AcDbEntity
  8
0
100
AcDbCircle
 62
7
  6
CONTINUOUS
 10
212.6076605422
 20
286.3986534304
 40
9.0
100
AcDbArc
 50
0.0
 51
180.0
  0
ARC
  5
3C8
100
AcDbEntity
  8
KONSTRUKTIONSELEMENTE
100
AcDbCircle
 62
7
  6
CONTINUOUS
 10
345.3626420316
 20
138.3190508386
 40
227.1964653767
100
AcDbArc
 50
15.1317550947
 51
15.2728816292
  0
ARC
  5
3C9
100
AcDbEntity
  8
KONSTRUKTIONSELEMENTE
100
AcDbCircle
 62
7
  6
CONTINUOUS
 10
353.4977139508
 20
137.8575502683
 40
218.8123568975
100
AcDbArc
 50
15.1709596689
 51
15.3163345801
  0
ARC
  5
3CA
100
AcDbEntity
  8
KONSTRUKTIONSELEMENTE
100
AcDbCircle
 62
7
  6
CONTINUOUS
 10
433.2615470137
 20
56.3649843297
 40
189.053863544
100
AcDbArc
 50
45.9160450668
 51
46.2240508138
  0
ARC
  5
3CB
100
AcDbEntity
  8
KONSTRUKTIONSELEMENTE
100
AcDbCircle
 62
7
  6
CONTINUOUS
 10
457.8454084913
 20
81.0076324365
 40
154.5900703428
100
AcDbArc
 50
46.2343507007
 51
46.6408465847
  0
ARC
  5
3CC
100
AcDbEntity
  8
0
100
AcDbCircle
 62
7
  6
CONTINUOUS
 10
435.8248277204
 20
166.8579782717
 40
131.2747031049
100
AcDbArc
 50
12.452538124
 51
12.5784113138
  0
ARC
  5
3CD
100
AcDbEntity
  8
KONSTRUKTIONSELEMENTE
100
AcDbCircle
 62
7
  6
CONTINUOUS
 10
436.6328772256
 20
166.9205362592
 40
130.9864185821
100
AcDbArc
 50
12.4317510099
 51
12.5785114004
  0
ARC
  5
3CE
100
AcDbEntity
  8
KONSTRUKTIONSELEMENTE
100
AcDbCircle
 62
7
  6
CONTINUOUS
 10
441.5042468144
 20
169.6002589991
 40
126.2169301424
100
AcDbArc
 50
12.8775791988
 51
13.0259316691
  0
ARC
  5
3CF
100
AcDbEntity
  8
KONSTRUKTIONSELEMENTE
100
AcDbCircle
 62
7
  6
CONTINUOUS
 10
451.8568692374
 20
172.3681998759
 40
114.081642314
100
AcDbArc
 50
10.6260005665
 51
10.8280558523
  0
ARC
  5
3D0
100
AcDbEntity
  8
KONSTRUKTIONSELEMENTE
100
AcDbCircle
 62
7
  6
CONTINUOUS
 10
460.6963921071
 20
114.2875875408
 40
8.25
100
AcDbArc
 50
60.8421444573
 51
135.0
  0
ARC
  5
3D1
100
AcDbEntity
  8
KONSTRUKTIONSELEMENTE
100
AcDbCircle
 62
7
  6
CONTINUOUS
 10
460.6963921071
 20
114.2875875408
 40
8.25
100
AcDbArc
 50
315.0
 51
29.1578555427
  0
ARC
  5
3D2
100
AcDbEntity
  8
KONSTRUKTIONSELEMENTE
100
AcDbCircle
 62
7
  6
CONTINUOUS
 10
454.685984467
 20
108.2771799007
 40
8.25
100
AcDbArc
 50
242.6769957192
 51
315.0
  0
ARC
  5
3D3
100
AcDbEntity
  8
KONSTRUKTIONSELEMENTE
100
AcDbCircle
 62
7
  6
CONTINUOUS
 10
454.685984467
 20
108.2771799007
 40
8.25
100
AcDbArc
 50
135.0
 51
207.3230042808
  0
ARC
  5
3D4
100
AcDbEntity
  8
KONSTRUKTIONSELEMENTE
100
AcDbCircle
 62
7
  6
CONTINUOUS
 10
460.6963921071
 20
114.2875875408
 40
3.25
100
AcDbArc
 50
88.8837571799
 51
135.0
  0
ARC
  5
3D5
100
AcDbEntity
  8
KONSTRUKTIONSELEMENTE
100
AcDbCircle
 62
7
  6
CONTINUOUS
 10
460.6963921071
 20
114.2875875408
 40
3.25
100
AcDbArc
 50
315.0
 51
1.1162428201
  0
ARC
  5
3D6
100
AcDbEntity
  8
KONSTRUKTIONSELEMENTE
100
AcDbCircle
 62
7
  6
CONTINUOUS
 10
454.685984467
 20
108.2771799007
 40
3.25
100
AcDbArc
 50
275.4054095575
 51
315.0
  0
ARC
  5
3D7
100
AcDbEntity
  8
KONSTRUKTIONSELEMENTE
100
AcDbCircle
 62
7
  6
CONTINUOUS
 10
454.685984467
 20
108.2771799007
 40
3.25
100
AcDbArc
 50
135.0
 51
174.5945904425
  0
ARC
  5
3D8
100
AcDbEntity
  8
KONSTRUKTIONSELEMENTE
100
AcDbCircle
 62
7
  6
CONTINUOUS
 10
481.0257120662
 20
134.6169074999
 40
8.0
100
AcDbArc
 50
241.3642958278
 51
315.0
  0
ARC
  5
3D9
100
AcDbEntity
  8
KONSTRUKTIONSELEMENTE
100
AcDbCircle
 62
7
  6
CONTINUOUS
 10
481.0257120662
 20
134.6169074999
 40
8.0
100
AcDbArc
 50
135.0
 51
208.6357041722
  0
ARC
  5
3DA
100
AcDbEntity
  8
KONSTRUKTIONSELEMENTE
100
AcDbCircle
 62
7
  6
CONTINUOUS
 10
481.0257120662
 20
134.6169074999
 40
3.5
100
AcDbArc
 50
265.1538775079
 51
315.0
  0
ARC
  5
3DB
100
AcDbEntity
  8
KONSTRUKTIONSELEMENTE
100
AcDbCircle
 62
7
  6
CONTINUOUS
 10
481.0257120662
 20
134.6169074999
 40
3.5
100
AcDbArc
 50
135.0
 51
184.8461224921
  0
ARC
  5
3DC
100
AcDbEntity
  8
KONSTRUKTIONSELEMENTE
100
AcDbCircle
 62
7
  6
CONTINUOUS
 10
480.1418285897
 20
133.7330240234
 40
2.25
100
AcDbArc
 50
315.0
 51
135.0
  0
ARC
  5
3DD
100
AcDbEntity
  8
KONSTRUKTIONSELEMENTE
100
AcDbCircle
 62
7
  6
CONTINUOUS
 10
461.4034988883
 20
114.994694322
 40
2.25
100
AcDbArc
 50
135.0
 51
315.0
  0
ARC
  5
3DE
100
AcDbEntity
  8
KONSTRUKTIONSELEMENTE
100
AcDbCircle
 62
7
  6
CONTINUOUS
 10
468.4901353992
 20
176.5082454578
 40
97.9782748253
100
AcDbArc
 50
10.7201901069
 51
10.950778297
  0
ARC
  5
3DF
100
AcDbEntity
  8
KONSTRUKTIONSELEMENTE
100
AcDbCircle
 62
7
  6
CONTINUOUS
 10
476.9424537105
 20
179.5149771238
 40
89.589112745
100
AcDbArc
 50
11.4237658477
 51
11.6633015948
  0
ARC
  5
3E0
100
AcDbEntity
  8
KONSTRUKTIONSELEMENTE
100
AcDbCircle
 62
7
  6
CONTINUOUS
 10
476.2448854935
 20
181.2503534342
 40
88.4338703776
100
AcDbArc
 50
7.8758796989
 51
8.0502562956
  0
ARC
  5
3E1
100
AcDbEntity
  8
KONSTRUKTIONSELEMENTE
100
AcDbCircle
 62
7
  6
CONTINUOUS
 10
491.632313784
 20
145.2235092177
 40
8.0
100
AcDbArc
 50
61.3642958278
 51
135.0
  0
ARC
  5
3E2
100
AcDbEntity
  8
KONSTRUKTIONSELEMENTE
100
AcDbCircle
 62
7
  6
CONTINUOUS
 10
491.632313784
 20
145.2235092177
 40
8.0
100
AcDbArc
 50
315.0
 51
28.6357041722
  0
ARC
  5
3E3
100
AcDbEntity
  8
KONSTRUKTIONSELEMENTE
100
AcDbCircle
 62
7
  6
CONTINUOUS
 10
491.632313784
 20
145.2235092177
 40
3.5
100
AcDbArc
 50
85.1538775079
 51
135.0
  0
ARC
  5
3E4
100
AcDbEntity
  8
KONSTRUKTIONSELEMENTE
100
AcDbCircle
 62
7
  6
CONTINUOUS
 10
491.632313784
 20
145.2235092177
 40
3.5
100
AcDbArc
 50
315.0
 51
4.8461224921
  0
ARC
  5
3E5
100
AcDbEntity
  8
KONSTRUKTIONSELEMENTE
100
AcDbCircle
 62
7
  6
CONTINUOUS
 10
492.5161972605
 20
146.1073926942
 40
2.25
100
AcDbArc
 50
135.0
 51
315.0
  0
ARC
  5
3E6
100
AcDbEntity
  8
KONSTRUKTIONSELEMENTE
100
AcDbCircle
 62
7
  6
CONTINUOUS
 10
503.9434994767
 20
187.8305508447
 40
61.0412452401
100
AcDbArc
 50
6.5615233707
 51
6.8574401785
  0
ARC
  5
3E7
100
AcDbEntity
  8
KONSTRUKTIONSELEMENTE
100
AcDbCircle
 62
7
  6
CONTINUOUS
 10
511.5704441504
 20
189.1850073135
 40
53.4766001473
100
AcDbArc
 50
5.5539518679
 51
5.9554336497
  0
ARC
  5
3E8
100
AcDbEntity
  8
KONSTRUKTIONSELEMENTE
100
AcDbCircle
 62
7
  6
CONTINUOUS
 10
517.9720413832
 20
171.5632368169
 40
8.25
100
AcDbArc
 50
66.346698243
 51
135.0
  0
ARC
  5
3E9
100
AcDbEntity
  8
KONSTRUKTIONSELEMENTE
100
AcDbCircle
 62
7
  6
CONTINUOUS
 10
517.9720413832
 20
171.5632368169
 40
8.25
100
AcDbArc
 50
315.0
 51
23.653301757
  0
ARC
  5
3EA
100
AcDbEntity
  8
KONSTRUKTIONSELEMENTE
100
AcDbCircle
 62
7
  6
CONTINUOUS
 10
511.9616337431
 20
165.5528291768
 40
8.25
100
AcDbArc
 50
240.8421444573
 51
315.0
  0
ARC
  5
3EB
100
AcDbEntity
  8
KONSTRUKTIONSELEMENTE
100
AcDbCircle
 62
7
  6
CONTINUOUS
 10
511.9616337431
 20
165.5528291768
 40
8.25
100
AcDbArc
 50
135.0
 51
209.1578555427
  0
ARC
  5
3EC
100
AcDbEntity
  8
KONSTRUKTIONSELEMENTE
100
AcDbCircle
 62
7
  6
CONTINUOUS
 10
517.9720413832
 20
171.5632368169
 40
3.25
100
AcDbArc
 50
112.8065550031
 51
135.0
  0
ARC
  5
3ED
100
AcDbEntity
  8
KONSTRUKTIONSELEMENTE
100
AcDbCircle
 62
7
  6
CONTINUOUS
 10
517.9720413832
 20
171.5632368169
 40
3.25
100
AcDbArc
 50
315.0
 51
337.1934449969
  0
ARC
  5
3EE
100
AcDbEntity
  8
KONSTRUKTIONSELEMENTE
100
AcDbCircle
 62
7
  6
CONTINUOUS
 10
511.9616337431
 20
165.5528291768
 40
3.25
100
AcDbArc
 50
268.8837571799
 51
315.0
  0
ARC
  5
3EF
100
AcDbEntity
  8
KONSTRUKTIONSELEMENTE
100
AcDbCircle
 62
7
  6
CONTINUOUS
 10
511.9616337431
 20
165.5528291768
 40
3.25
100
AcDbArc
 50
135.0
 51
181.1162428201
  0
ARC
  5
3F0
100
AcDbEntity
  8
KONSTRUKTIONSELEMENTE
100
AcDbCircle
 62
7
  6
CONTINUOUS
 10
517.7952646879
 20
171.3864601216
 40
3.0
100
AcDbArc
 50
135.0
 51
315.0
  0
ARC
  5
3F1
100
AcDbEntity
  8
KONSTRUKTIONSELEMENTE
100
AcDbCircle
 62
7
  6
CONTINUOUS
 10
511.2545269619
 20
164.8457223956
 40
2.25
100
AcDbArc
 50
315.0
 51
135.0
  0
ARC
  5
3F2
100
AcDbEntity
  8
0
100
AcDbCircle
 62
7
  6
CONTINUOUS
 10
507.733924225
 20
194.1516026479
 40
54.8820574436
100
AcDbArc
 50
358.6327368
 51
0.359381713
  0
ARC
  5
3F3
100
AcDbEntity
  8
KONSTRUKTIONSELEMENTE
100
AcDbCircle
 62
7
  6
CONTINUOUS
 10
508.2605585263
 20
194.1516026479
 40
54.8820574441
100
AcDbArc
 50
358.6327368
 51
0.359381713
  0
ARC
  5
3F4
100
AcDbEntity
  8
KONSTRUKTIONSELEMENTE
100
AcDbCircle
 62
7
  6
CONTINUOUS
 10
509.5879287265
 20
193.8522192769
 40
53.7306035591
100
AcDbArc
 50
359.0446728256
 51
0.4408351865
  0
ARC
  5
3F5
100
AcDbEntity
  8
KONSTRUKTIONSELEMENTE
100
AcDbCircle
 62
7
  6
CONTINUOUS
 10
513.4120138094
 20
192.9548354826
 40
50.4342605583
100
AcDbArc
 50
358.9822202641
 51
0.4696416752
  0
ARC
  5
3F6
100
AcDbEntity
  8
0
100
AcDbCircle
 62
7
  6
CONTINUOUS
 10
512.9153446079
 20
192.9547528188
 40
50.4042971434
100
AcDbArc
 50
0.0979117009
 51
0.4700148345
  0
ARC
  5
3F7
100
AcDbEntity
  8
KONSTRUKTIONSELEMENTE
100
AcDbCircle
 62
7
  6
CONTINUOUS
 10
515.4737565567
 20
190.9979890095
 40
49.5324902674
100
AcDbArc
 50
7.4840670455
 51
7.8113691506
  0
ARC
  5
3F8
100
AcDbEntity
  8
KONSTRUKTIONSELEMENTE
100
AcDbCircle
 62
7
  6
CONTINUOUS
 10
514.9398762154
 20
192.5959301618
 40
49.1174955166
100
AcDbArc
 50
358.954873222
 51
0.3214077002
  0
ARC
  5
3F9
100
AcDbEntity
  8
0
100
AcDbCircle
 62
7
  6
CONTINUOUS
 10
547.2026178848
 20
151.2131596483
 40
45.8441208759
100
AcDbArc
 50
68.2941737996
 51
68.4903981731
  0
ARC
  5
3FA
100
AcDbEntity
  8
KONSTRUKTIONSELEMENTE
100
AcDbCircle
 62
7
  6
CONTINUOUS
 10
547.7292521954
 20
151.2131596706
 40
45.8441208519
100
AcDbArc
 50
68.2941737995
 51
68.4903981731
  0
ARC
  5
3FB
100
AcDbEntity
  8
BEZUGSACHSEN
100
AcDbCircle
 62
7
  6
CONTINUOUS
 10
549.8074579967
 20
147.1589074683
 40
5.0
100
AcDbArc
 50
150.0
 51
180.0
  0
ARC
  5
3FC
100
AcDbEntity
  8
BEZUGSACHSEN
100
AcDbCircle
 62
7
  6
CONTINUOUS
 10
549.8074579967
 20
137.927224859
 40
5.0
100
AcDbArc
 50
180.0
 51
211.8907918018
  0
ARC
  5
3FD
100
AcDbEntity
  8
BEZUGSACHSEN
100
AcDbCircle
 62
7
  6
CONTINUOUS
 10
543.8074579967
 20
156.7666026229
 40
5.0
100
AcDbArc
 50
330.0
 51
360.0
  0
ARC
  5
3FE
100
AcDbEntity
  8
KONSTRUKTIONSELEMENTE
100
AcDbCircle
 62
7
  6
CONTINUOUS
 10
537.2127334688
 20
177.9084920632
 40
34.9105381282
100
AcDbArc
 50
41.4582650473
 51
41.7924723833
  0
ARC
  5
3FF
100
AcDbEntity
  8
BEZUGSACHSEN
100
AcDbCircle
 62
7
  6
CONTINUOUS
 10
550.8074579967
 20
162.9046282067
 40
2.0
100
AcDbArc
 50
99.0
 51
180.0
  0
ARC
  5
400
100
AcDbEntity
  8
BEZUGSACHSEN
100
AcDbCircle
 62
7
  6
CONTINUOUS
 10
558.8074579967
 20
140.4986534304
 40
14.0
100
AcDbArc
 50
211.8907918018
 51
328.1092081982
  0
CIRCLE
  5
401
100
AcDbEntity
  8
0
100
AcDbCircle
 62
7
  6
CONTINUOUS
 10
558.8074579967
 20
140.4986534304
 40
5.75
  0
ARC
  5
402
100
AcDbEntity
  8
RUNDUNGEN
100
AcDbCircle
 62
7
  6
CONTINUOUS
 10
567.8074579967
 20
147.1589074683
 40
5.0
100
AcDbArc
 50
0.0
 51
30.0
  0
ARC
  5
403
100
AcDbEntity
  8
RUNDUNGEN
100
AcDbCircle
 62
7
  6
CONTINUOUS
 10
567.8074579967
 20
137.927224859
 40
5.0
100
AcDbArc
 50
328.1092081982
 51
360.0
  0
ARC
  5
404
100
AcDbEntity
  8
KONSTRUKTIONSELEMENTE
100
AcDbCircle
 62
7
  6
CONTINUOUS
 10
573.8074579967
 20
156.7666026229
 40
5.0
100
AcDbArc
 50
180.0
 51
210.0
  0
ARC
  5
405
100
AcDbEntity
  8
KONSTRUKTIONSELEMENTE
100
AcDbCircle
 62
7
  6
CONTINUOUS
 10
557.0546068107
 20
184.9573378667
 40
16.8620542487
100
AcDbArc
 50
67.75877301
 51
67.9457407442
  0
ARC
  5
406
100
AcDbEntity
  8
RUNDUNGEN
100
AcDbCircle
 62
7
  6
CONTINUOUS
 10
576.1482348063
 20
171.6651254096
 40
14.4764335751
100
AcDbArc
 50
208.8852859717
 51
210.0002435559
  0
ARC
  5
407
100
AcDbEntity
  8
KONSTRUKTIONSELEMENTE
100
AcDbCircle
 62
7
  6
CONTINUOUS
 10
566.8074579967
 20
162.9046282067
 40
2.0
100
AcDbArc
 50
0.0
 51
81.0
  0
ARC
  5
408
100
AcDbEntity
  8
KONSTRUKTIONSELEMENTE
100
AcDbCircle
 62
7
  6
CONTINUOUS
 10
520.0444836211
 20
191.3444068872
 40
44.7517733434
100
AcDbArc
 50
358.3172302345
 51
358.8467284615
  0
ARC
  5
409
100
AcDbEntity
  8
KONSTRUKTIONSELEMENTE
100
AcDbCircle
 62
7
  6
CONTINUOUS
 10
520.0614906604
 20
191.3350062571
 40
44.7347605621
100
AcDbArc
 50
1.0648671091
 51
1.6828393284
  0
ARC
  5
40A
100
AcDbEntity
  8
KONSTRUKTIONSELEMENTE
100
AcDbCircle
 62
7
  6
CONTINUOUS
 10
523.0308180036
 20
192.1917868665
 40
42.0325061106
100
AcDbArc
 50
6.4731562984
 51
6.9245921445
  0
ARC
  5
40B
100
AcDbEntity
  8
KONSTRUKTIONSELEMENTE
100
AcDbCircle
 62
7
  6
CONTINUOUS
 10
521.8086010391
 20
197.7253861525
 40
41.334037808
100
AcDbArc
 50
0.9969455704
 51
1.4938336928
  0
ARC
  5
40C
100
AcDbEntity
  8
0
100
AcDbCircle
 62
7
  6
CONTINUOUS
 10
521.2819667476
 20
197.7253861527
 40
41.3340377979
100
AcDbArc
 50
0.9969455703
 51
1.4938336929
  0
ARC
  5
40D
100
AcDbEntity
  8
0
100
AcDbCircle
 62
7
  6
CONTINUOUS
 10
521.2819667689
 20
197.7302293949
 40
41.3340377766
100
AcDbArc
 50
358.5061663071
 51
359.0030546668
  0
ARC
  5
40E
100
AcDbEntity
  8
KONSTRUKTIONSELEMENTE
100
AcDbCircle
 62
7
  6
CONTINUOUS
 10
521.8086010807
 20
197.7302293947
 40
41.3340377664
100
AcDbArc
 50
358.506166307
 51
359.0030546669
  0
ARC
  5
40F
100
AcDbEntity
  8
0
100
AcDbCircle
 62
7
  6
CONTINUOUS
 10
525.2438580192
 20
198.8293111811
 40
37.6214551218
100
AcDbArc
 50
353.3856405663
 51
353.8219602644
  0
ARC
  5
410
100
AcDbEntity
  8
KONSTRUKTIONSELEMENTE
100
AcDbCircle
 62
7
  6
CONTINUOUS
 10
525.7704923339
 20
198.8293111796
 40
37.6214551087
100
AcDbArc
 50
353.3856405663
 51
353.8219602645
  0
ARC
  5
411
100
AcDbEntity
  8
KONSTRUKTIONSELEMENTE
100
AcDbCircle
 62
7
  6
CONTINUOUS
 10
530.1943672758
 20
194.6862769497
 40
34.3907480923
100
AcDbArc
 50
359.8009780401
 51
0.1990216753
  0
ARC
  5
412
100
AcDbEntity
  8
KONSTRUKTIONSELEMENTE
100
AcDbCircle
 62
7
  6
CONTINUOUS
 10
531.3969530954
 20
194.2411748791
 40
33.3992592104
100
AcDbArc
 50
359.7950698584
 51
0.2049298484
  0
ARC
  5
413
100
AcDbEntity
  8
KONSTRUKTIONSELEMENTE
100
AcDbCircle
 62
7
  6
CONTINUOUS
 10
535.4496022403
 20
200.6370707589
 40
28.5864304835
100
AcDbArc
 50
347.1215335981
 51
347.4233750847
  0
ARC
  5
414
100
AcDbEntity
  8
KONSTRUKTIONSELEMENTE
100
AcDbCircle
 62
7
  6
CONTINUOUS
 10
535.9646836002
 20
200.8038443323
 40
27.1779318386
100
AcDbArc
 50
357.954847911
 51
0.4080157851
  0
ARC
  5
415
100
AcDbEntity
  8
0
100
AcDbCircle
 62
7
  6
CONTINUOUS
 10
535.4380492985
 20
200.8038443323
 40
27.1779318386
100
AcDbArc
 50
357.954847911
 51
0.4080157851
  0
ARC
  5
416
100
AcDbEntity
  8
KONSTRUKTIONSELEMENTE
100
AcDbCircle
 62
7
  6
CONTINUOUS
 10
536.8614009698
 20
200.2843909266
 40
26.4923140711
100
AcDbArc
 50
358.531837133
 51
0.4191564172
  0
ARC
  5
417
100
AcDbEntity
  8
0
100
AcDbCircle
 62
7
  6
CONTINUOUS
 10
558.8074579967
 20
212.3986534304
 40
38.0
100
AcDbArc
 50
279.4721988504
 51
360.0
  0
ARC
  5
418
100
AcDbEntity
  8
0
100
AcDbCircle
 62
7
  6
CONTINUOUS
 10
558.8074579967
 20
212.3986534304
 40
38.0
100
AcDbArc
 50
229.5294312019
 51
260.5278011496
  0
ARC
  5
419
100
AcDbEntity
  8
0
100
AcDbCircle
 62
7
  6
CONTINUOUS
 10
558.8074579967
 20
212.3986534304
 40
38.0
100
AcDbArc
 50
180.0
 51
220.4705687981
  0
ARC
  5
41A
100
AcDbEntity
  8
KONSTRUKTIONSELEMENTE
100
AcDbCircle
 62
7
  6
CONTINUOUS
 10
541.8975995448
 20
197.2558490089
 40
22.6875134426
100
AcDbArc
 50
358.2854597459
 51
0.4893610307
  0
ARC
  5
41B
100
AcDbEntity
  8
KONSTRUKTIONSELEMENTE
100
AcDbCircle
 62
7
  6
CONTINUOUS
 10
542.7198635822
 20
196.7370868772
 40
22.0763409121
100
AcDbArc
 50
357.4814665034
 51
0.5018120544
  0
ARC
  5
41C
100
AcDbEntity
  8
0
100
AcDbCircle
 62
7
  6
CONTINUOUS
 10
558.8074579967
 20
212.3986534304
 40
20.0
100
AcDbArc
 50
288.2219531704
 51
360.0
  0
ARC
  5
41D
100
AcDbEntity
  8
0
100
AcDbCircle
 62
7
  6
CONTINUOUS
 10
558.8074579967
 20
212.3986534304
 40
20.0
100
AcDbArc
 50
233.6293497976
 51
251.7780468296
  0
ARC
  5
41E
100
AcDbEntity
  8
0
100
AcDbCircle
 62
7
  6
CONTINUOUS
 10
558.8074579967
 20
212.3986534304
 40
20.0
100
AcDbArc
 50
180.0
 51
216.3706502024
  0
ARC
  5
41F
100
AcDbEntity
  8
KONSTRUKTIONSELEMENTE
100
AcDbCircle
 62
7
  6
CONTINUOUS
 10
545.1504798132
 20
197.29480226
 40
19.9001228332
100
AcDbArc
 50
350.1697286685
 51
350.8249916996
  0
ARC
  5
420
100
AcDbEntity
  8
KONSTRUKTIONSELEMENTE
100
AcDbCircle
 62
7
  6
CONTINUOUS
 10
550.2382588989
 20
208.5057618223
 40
18.8600258989
100
AcDbArc
 50
313.3026797559
 51
313.7269170438
  0
ARC
  5
421
100
AcDbEntity
  8
0
100
AcDbCircle
 62
7
  6
CONTINUOUS
 10
549.7116246005
 20
208.5057618188
 40
18.8600258941
100
AcDbArc
 50
313.3026797558
 51
313.7269170438
  0
ARC
  5
422
100
AcDbEntity
  8
KONSTRUKTIONSELEMENTE
100
AcDbCircle
 62
7
  6
CONTINUOUS
 10
557.4376858772
 20
211.0609456296
 40
18.1128489647
100
AcDbArc
 50
292.8642818005
 51
293.1139134124
  0
ARC
  5
423
100
AcDbEntity
  8
KONSTRUKTIONSELEMENTE
100
AcDbCircle
 62
7
  6
CONTINUOUS
 10
551.6011885486
 20
203.474355443
 40
11.8035597309
100
AcDbArc
 50
347.8864591578
 51
348.6591181717
  0
ARC
  5
424
100
AcDbEntity
  8
0
100
AcDbCircle
 62
7
  6
CONTINUOUS
 10
551.074554249
 20
203.4743554426
 40
11.8035597289
100
AcDbArc
 50
347.8864591577
 51
348.6591181717
  0
ARC
  5
425
100
AcDbEntity
  8
KONSTRUKTIONSELEMENTE
100
AcDbCircle
 62
7
  6
CONTINUOUS
 10
559.8791986452
 20
211.7786144757
 40
11.1245781923
100
AcDbArc
 50
287.2294024151
 51
287.5882348997
  0
ARC
  5
426
100
AcDbEntity
  8
0
100
AcDbCircle
 62
7
  6
CONTINUOUS
 10
559.3525643436
 20
211.7786144757
 40
11.1245781923
100
AcDbArc
 50
287.2294024151
 51
287.5882348997
  0
ARC
  5
427
100
AcDbEntity
  8
KONSTRUKTIONSELEMENTE
100
AcDbCircle
 62
7
  6
CONTINUOUS
 10
556.2462926084
 20
200.7899041297
 40
10.9528562297
100
AcDbArc
 50
320.3892103768
 51
321.0013726741
  0
ARC
  5
428
100
AcDbEntity
  8
KONSTRUKTIONSELEMENTE
100
AcDbCircle
 62
7
  6
CONTINUOUS
 10
554.608752293
 20
203.227638267
 40
9.166318625
100
AcDbArc
 50
342.5453800026
 51
343.2476108204
  0
ARC
  5
429
100
AcDbEntity
  8
BEZUGSACHSEN
100
AcDbCircle
 62
7
  6
CONTINUOUS
 10
557.5574579967
 20
197.5609790594
 40
5.0
100
AcDbArc
 50
161.6999918899
 51
180.0
  0
ARC
  5
42A
100
AcDbEntity
  8
BEZUGSACHSEN
100
AcDbCircle
 62
7
  6
CONTINUOUS
 10
560.0574579967
 20
197.5609790594
 40
5.0
100
AcDbArc
 50
0.0
 51
18.3000081101
  0
ARC
  5
42B
100
AcDbEntity
  8
KONSTRUKTIONSELEMENTE
100
AcDbCircle
 62
7
  6
CONTINUOUS
 10
546.7866427166
 20
200.3778381502
 40
3.0
100
AcDbArc
 50
315.0
 51
135.0
  0
ARC
  5
42C
100
AcDbEntity
  8
0
100
AcDbCircle
 62
7
  6
CONTINUOUS
 10
558.8074579967
 20
257.3986534304
 40
38.0
100
AcDbArc
 50
110.0100756937
 51
180.0
  0
ARC
  5
42D
100
AcDbEntity
  8
0
100
AcDbCircle
 62
7
  6
CONTINUOUS
 10
558.8074579967
 20
257.3986534304
 40
38.0
100
AcDbArc
 50
0.0
 51
69.9899243063
  0
ARC
  5
42E
100
AcDbEntity
  8
0
100
AcDbCircle
 62
7
  6
CONTINUOUS
 10
558.8074579967
 20
257.3986534304
 40
20.0
100
AcDbArc
 50
130.5513412993
 51
180.0
  0
ARC
  5
42F
100
AcDbEntity
  8
0
100
AcDbCircle
 62
7
  6
CONTINUOUS
 10
558.8074579967
 20
257.3986534304
 40
20.0
100
AcDbArc
 50
0.0
 51
49.4486587007
  0
ARC
  5
430
100
AcDbEntity
  8
0
100
AcDbCircle
 62
7
  6
CONTINUOUS
 10
558.8074579967
 20
264.3986534304
 40
13.0
100
AcDbArc
 50
180.0
 51
360.0
  0
ARC
  5
431
100
AcDbEntity
  8
0
100
AcDbCircle
 62
7
  6
CONTINUOUS
 10
558.8074579967
 20
550.3986534304
 40
13.0
100
AcDbArc
 50
0.0
 51
180.0
  0
SPLINE
  5
432
100
AcDbEntity
  8
KONSTRUKTIONSELEMENTE
100
AcDbSpline
 62
7
  6
CONTINUOUS
 70
0
 71
3
 72
10
 73
6
 74
0
 42
0.0000001
 43
0.0000001
 44
0.0000000001
 40
0.0
 40
0.0
 40
0.0
 40
0.0
 40
0.3116645009
 40
0.6060899939
 40
1.0
 40
1.0
 40
1.0
 40
1.0
 10
216.1076605422
 20
129.6671600316
 30
0.0
 10
216.1076605422
 20
129.864314878
 30
0.0
 10
215.9201319857
 20
130.2356410727
 30
0.0
 10
215.462812716
 20
130.6695141625
 30
0.0
 10
215.0844114038
 20
130.8969241959
 30
0.0
 10
214.8596524305
 20
131.0045123269
 30
0.0
  0
SPLINE
  5
433
100
AcDbEntity
  8
KONSTRUKTIONSELEMENTE
100
AcDbSpline
 62
7
  6
CONTINUOUS
 70
0
 71
3
 72
10
 73
6
 74
0
 42
0.0000001
 43
0.0000001
 44
0.0000000001
 40
0.0
 40
0.0
 40
0.0
 40
0.0
 40
0.3939255147
 40
0.6883533687
 40
1.0
 40
1.0
 40
1.0
 40
1.0
 10
210.3559113067
 20
131.004624255
 30
0.0
 10
210.1311034007
 20
130.8970343543
 30
0.0
 10
209.7526408791
 20
130.6695887861
 30
0.0
 10
209.2951993614
 20
130.2357110427
 30
0.0
 10
209.1076605422
 20
129.8643313355
 30
0.0
 10
209.1076605422
 20
129.6671600316
 30
0.0
  0
SPLINE
  5
434
100
AcDbEntity
  8
KONSTRUKTIONSELEMENTE
100
AcDbSpline
 62
7
  6
CONTINUOUS
 70
0
 71
3
 72
13
 73
9
 74
0
 42
0.0000001
 43
0.0000001
 44
0.0000000001
 40
0.0
 40
0.0
 40
0.0
 40
0.0
 40
0.1197290731
 40
0.2397365246
 40
0.3609040964
 40
0.4836831257
 40
0.7359942557
 40
1.0
 40
1.0
 40
1.0
 40
1.0
 10
204.6076605422
 20
119.0605583138
 30
0.0
 10
204.6076605422
 20
118.7113446117
 30
0.0
 10
204.679764164
 20
118.0100035757
 30
0.0
 10
204.9980494987
 20
116.9997853275
 30
0.0
 10
205.5074330404
 20
116.0612071089
 30
0.0
 10
206.419233569
 20
114.9284326022
 30
0.0
 10
207.9351248346
 20
113.7912891861
 30
0.0
 10
209.3580116846
 20
113.2447434622
 30
0.0
 10
210.1042362063
 20
113.0547749716
 30
0.0
  0
SPLINE
  5
435
100
AcDbEntity
  8
KONSTRUKTIONSELEMENTE
100
AcDbSpline
 62
7
  6
CONTINUOUS
 70
0
 71
3
 72
13
 73
9
 74
0
 42
0.0000001
 43
0.0000001
 44
0.0000000001
 40
0.0
 40
0.0
 40
0.0
 40
0.0
 40
0.2640112835
 40
0.5163080567
 40
0.6390830379
 40
0.7602378991
 40
0.8802701562
 40
1.0
 40
1.0
 40
1.0
 40
1.0
 10
215.1119883447
 20
113.0550221611
 30
0.0
 10
215.858128167
 20
113.2450567624
 30
0.0
 10
217.2808046084
 20
113.7916233936
 30
0.0
 10
218.7963946755
 20
114.9287687345
 30
0.0
 10
219.7079849529
 20
116.0613842432
 30
0.0
 10
220.2173758688
 20
116.9998615297
 30
0.0
 10
220.5355125878
 20
118.0100496329
 30
0.0
 10
220.6076605422
 20
118.7113795164
 30
0.0
 10
220.6076605422
 20
119.0605583138
 30
0.0
  0
SPLINE
  5
436
100
AcDbEntity
  8
KONSTRUKTIONSELEMENTE
100
AcDbSpline
 62
7
  6
CONTINUOUS
 70
0
 71
3
 72
10
 73
6
 74
0
 42
0.0000001
 43
0.0000001
 44
0.0000000001
 40
0.0
 40
0.0
 40
0.0
 40
0.0
 40
0.3192646009
 40
0.6086079864
 40
1.0
 40
1.0
 40
1.0
 40
1.0
 10
209.1076605422
 20
119.0605583138
 30
0.0
 10
209.1076605422
 20
118.8888185386
 30
0.0
 10
209.2496763287
 20
118.5679673237
 30
0.0
 10
209.6154823434
 20
118.1746149843
 30
0.0
 10
209.9187701761
 20
117.961575071
 30
0.0
 10
210.1013064772
 20
117.8566604745
 30
0.0
  0
SPLINE
  5
437
100
AcDbEntity
  8
KONSTRUKTIONSELEMENTE
100
AcDbSpline
 62
7
  6
CONTINUOUS
 70
0
 71
3
 72
10
 73
6
 74
0
 42
0.0000001
 43
0.0000001
 44
0.0000000001
 40
0.0
 40
0.0
 40
0.0
 40
0.0
 40
0.3914026107
 40
0.6807340322
 40
1.0
 40
1.0
 40
1.0
 40
1.0
 10
215.1141061433
 20
117.8567129457
 30
0.0
 10
215.2966333867
 20
117.9616283552
 30
0.0
 10
215.5998729675
 20
118.1746874266
 30
0.0
 10
215.9656936721
 20
118.5679857873
 30
0.0
 10
216.1076605422
 20
118.8888285282
 30
0.0
 10
216.1076605422
 20
119.0605583138
 30
0.0
  0
SPLINE
  5
438
100
AcDbEntity
  8
KONSTRUKTIONSELEMENTE
100
AcDbSpline
 62
7
  6
CONTINUOUS
 70
0
 71
3
 72
10
 73
6
 74
0
 42
0.0000001
 43
0.0000001
 44
0.0000000001
 40
0.0
 40
0.0
 40
0.0
 40
0.0
 40
0.3116645009
 40
0.6060899939
 40
1.0
 40
1.0
 40
1.0
 40
1.0
 10
209.1076605422
 20
150.173256686
 30
0.0
 10
209.1076605422
 20
149.9761018396
 30
0.0
 10
209.2951890987
 20
149.6047756449
 30
0.0
 10
209.7525083684
 20
149.1709025551
 30
0.0
 10
210.1309096806
 20
148.9434925217
 30
0.0
 10
210.3556686539
 20
148.8359043907
 30
0.0
  0
SPLINE
  5
439
100
AcDbEntity
  8
KONSTRUKTIONSELEMENTE
100
AcDbSpline
 62
7
  6
CONTINUOUS
 70
0
 71
3
 72
10
 73
6
 74
0
 42
0.0000001
 43
0.0000001
 44
0.0000000001
 40
0.0
 40
0.0
 40
0.0
 40
0.0
 40
0.3939255147
 40
0.6883533687
 40
1.0
 40
1.0
 40
1.0
 40
1.0
 10
214.8594097777
 20
148.8357924626
 30
0.0
 10
215.0842176837
 20
148.9433823633
 30
0.0
 10
215.4626802053
 20
149.1708279315
 30
0.0
 10
215.920121723
 20
149.6047056749
 30
0.0
 10
216.1076605422
 20
149.9760853821
 30
0.0
 10
216.1076605422
 20
150.173256686
 30
0.0
  0
SPLINE
  5
43A
100
AcDbEntity
  8
KONSTRUKTIONSELEMENTE
100
AcDbSpline
 62
7
  6
CONTINUOUS
 70
0
 71
3
 72
9
 73
5
 74
0
 42
0.0000001
 43
0.0000001
 44
0.0000000001
 40
0.0
 40
0.0
 40
0.0
 40
0.0
 40
0.4741296724
 40
1.0
 40
1.0
 40
1.0
 40
1.0
 10
199.3913379911
 20
178.4141353016
 30
0.0
 10
200.8375999596
 20
177.3107434746
 30
0.0
 10
204.3060194516
 20
175.5209103168
 30
0.0
 10
208.0971367017
 20
174.7027249156
 30
0.0
 10
210.1052935418
 20
174.5075318926
 30
0.0
  0
SPLINE
  5
43B
100
AcDbEntity
  8
KONSTRUKTIONSELEMENTE
100
AcDbSpline
 62
7
  6
CONTINUOUS
 70
0
 71
3
 72
9
 73
5
 74
0
 42
0.0000001
 43
0.0000001
 44
0.0000000001
 40
0.0
 40
0.0
 40
0.0
 40
0.0
 40
0.5258549163
 40
1.0
 40
1.0
 40
1.0
 40
1.0
 10
215.1096873691
 20
174.5074921181
 30
0.0
 10
217.1173577986
 20
174.702616489
 30
0.0
 10
220.907669936
 20
175.5204721487
 30
0.0
 10
224.3755352693
 20
177.3094731647
 30
0.0
 10
225.8217286965
 20
178.4124106193
 30
0.0
  0
SPLINE
  5
43C
100
AcDbEntity
  8
KONSTRUKTIONSELEMENTE
100
AcDbSpline
 62
7
  6
CONTINUOUS
 70
0
 71
3
 72
9
 73
5
 74
0
 42
0.0000001
 43
0.0000001
 44
0.0000000001
 40
0.0
 40
0.0
 40
0.0
 40
0.0
 40
0.2468599944
 40
1.0
 40
1.0
 40
1.0
 40
1.0
 10
203.3349970059
 20
169.7887649956
 30
0.0
 10
203.8766389196
 20
169.6175083433
 30
0.0
 10
206.0911858887
 20
168.989570453
 30
0.0
 10
208.3778911911
 20
168.620556465
 30
0.0
 10
210.1056663601
 20
168.4845960967
 30
0.0
  0
SPLINE
  5
43D
100
AcDbEntity
  8
KONSTRUKTIONSELEMENTE
100
AcDbSpline
 62
7
  6
CONTINUOUS
 70
0
 71
3
 72
9
 73
5
 74
0
 42
0.0000001
 43
0.0000001
 44
0.0000000001
 40
0.0
 40
0.0
 40
0.0
 40
0.0
 40
0.253011464
 40
1.0
 40
1.0
 40
1.0
 40
1.0
 10
215.1089811924
 20
168.4845357642
 30
0.0
 10
215.6909184683
 20
168.5303127984
 30
0.0
 10
217.9853775592
 20
168.7745683385
 30
0.0
 10
220.2540202395
 20
169.2734811256
 30
0.0
 10
221.8969396656
 20
169.794028345
 30
0.0
  0
SPLINE
  5
43E
100
AcDbEntity
  8
BEZUGSACHSEN
100
AcDbSpline
 62
7
  6
CONTINUOUS
 70
0
 71
3
 72
9
 73
5
 74
0
 42
0.0000001
 43
0.0000001
 44
0.0000000001
 40
0.0
 40
0.0
 40
0.0
 40
0.0
 40
0.4740637035
 40
1.0
 40
1.0
 40
1.0
 40
1.0
 10
217.5052761931
 20
103.8558934243
 30
0.0
 10
217.2274899181
 20
103.4716072152
 30
0.0
 10
216.4812537724
 20
102.7735862573
 30
0.0
 10
215.5726411411
 20
102.3265707058
 30
0.0
 10
215.0769463683
 20
102.1504328079
 30
0.0
  0
SPLINE
  5
43F
100
AcDbEntity
  8
BEZUGSACHSEN
100
AcDbSpline
 62
7
  6
CONTINUOUS
 70
0
 71
3
 72
9
 73
5
 74
0
 42
0.0000001
 43
0.0000001
 44
0.0000000001
 40
0.0
 40
0.0
 40
0.0
 40
0.0
 40
0.5259362965
 40
1.0
 40
1.0
 40
1.0
 40
1.0
 10
210.1383747161
 20
102.1504328079
 30
0.0
 10
209.6426799433
 20
102.3265707058
 30
0.0
 10
208.734067312
 20
102.7735862573
 30
0.0
 10
207.9878311663
 20
103.4716072152
 30
0.0
 10
207.7100448913
 20
103.8558934243
 30
0.0
  0
SPLINE
  5
440
100
AcDbEntity
  8
KONSTRUKTIONSELEMENTE
100
AcDbSpline
 62
7
  6
CONTINUOUS
 70
0
 71
3
 72
13
 73
9
 74
0
 42
0.0000001
 43
0.0000001
 44
0.0000000001
 40
0.0
 40
0.0
 40
0.0
 40
0.0
 40
0.1035698708
 40
0.2118852886
 40
0.327021228
 40
0.4498249804
 40
0.7159005812
 40
1.0
 40
1.0
 40
1.0
 40
1.0
 10
208.0381794252
 20
50.7497577785
 30
0.0
 10
208.013726028
 20
50.9244404255
 30
0.0
 10
207.9161387576
 20
51.276584904
 30
0.0
 10
207.6397941363
 20
51.7654834106
 30
0.0
 10
207.243568342
 20
52.2078023606
 30
0.0
 10
206.557064276
 20
52.7301193813
 30
0.0
 10
205.482704133
 20
53.1805897025
 30
0.0
 10
204.5414995139
 20
53.2996276634
 30
0.0
 10
204.0576605422
 20
53.2996276634
 30
0.0
  0
SPLINE
  5
441
100
AcDbEntity
  8
KONSTRUKTIONSELEMENTE
100
AcDbSpline
 62
7
  6
CONTINUOUS
 70
0
 71
3
 72
9
 73
5
 74
0
 42
0.0000001
 43
0.0000001
 44
0.0000000001
 40
0.0
 40
0.0
 40
0.0
 40
0.0
 40
0.4892987036
 40
1.0
 40
1.0
 40
1.0
 40
1.0
 10
187.0072758929
 20
86.609720226
 30
0.0
 10
187.0072972217
 20
86.6872109868
 30
0.0
 10
186.9821204661
 20
86.8464636355
 30
0.0
 10
186.911265724
 20
86.9906906194
 30
0.0
 10
186.8667388985
 20
87.0582108922
 30
0.0
  0
SPLINE
  5
442
100
AcDbEntity
  8
KONSTRUKTIONSELEMENTE
100
AcDbSpline
 62
7
  6
CONTINUOUS
 70
0
 71
3
 72
11
 73
7
 74
0
 42
0.0000001
 43
0.0000001
 44
0.0000000001
 40
0.0
 40
0.0
 40
0.0
 40
0.0
 40
0.2200436456
 40
0.4557793627
 40
0.7157728079
 40
1.0
 40
1.0
 40
1.0
 40
1.0
 10
179.8983578695
 20
87.6571357819
 30
0.0
 10
179.8983856434
 20
87.7580423623
 30
0.0
 10
179.9427002034
 20
87.9689446604
 30
0.0
 10
180.1280539117
 20
88.2473760767
 30
0.0
 10
180.4106825794
 20
88.4738511561
 30
0.0
 10
180.6406449901
 20
88.5773687809
 30
0.0
 10
180.7644291519
 20
88.6181840468
 30
0.0
  0
SPLINE
  5
443
100
AcDbEntity
  8
KONSTRUKTIONSELEMENTE
100
AcDbSpline
 62
7
  6
CONTINUOUS
 70
0
 71
3
 72
11
 73
7
 74
0
 42
0.0000001
 43
0.0000001
 44
0.0000000001
 40
0.0
 40
0.0
 40
0.0
 40
0.0
 40
0.2200599668
 40
0.4557760239
 40
0.7157731965
 40
1.0
 40
1.0
 40
1.0
 40
1.0
 10
173.2523053089
 20
98.6371828488
 30
0.0
 10
173.2523417044
 20
98.9736207696
 30
0.0
 10
173.3997776893
 20
99.676803973
 30
0.0
 10
174.0176391121
 20
100.6051770116
 30
0.0
 10
174.9598540374
 20
101.3602286827
 30
0.0
 10
175.7265154003
 20
101.7053904871
 30
0.0
 10
176.1391994774
 20
101.8414645219
 30
0.0
  0
SPLINE
  5
444
100
AcDbEntity
  8
KONSTRUKTIONSELEMENTE
100
AcDbSpline
 62
7
  6
CONTINUOUS
 70
0
 71
3
 72
9
 73
5
 74
0
 42
0.0000001
 43
0.0000001
 44
0.0000000001
 40
0.0
 40
0.0
 40
0.0
 40
0.0
 40
0.4891681133
 40
1.0
 40
1.0
 40
1.0
 40
1.0
 10
173.2523055091
 20
95.1015306433
 30
0.0
 10
173.2522904391
 20
94.8434401842
 30
0.0
 10
173.3362014013
 20
94.3128985211
 30
0.0
 10
173.5723734428
 20
93.8324678454
 30
0.0
 10
173.7207518509
 20
93.6074675121
 30
0.0
  0
SPLINE
  5
445
100
AcDbEntity
  8
KONSTRUKTIONSELEMENTE
100
AcDbSpline
 62
7
  6
CONTINUOUS
 70
0
 71
3
 72
9
 73
5
 74
0
 42
0.0000001
 43
0.0000001
 44
0.0000000001
 40
0.0
 40
0.0
 40
0.0
 40
0.0
 40
0.4891683995
 40
1.0
 40
1.0
 40
1.0
 40
1.0
 10
230.740446128
 20
61.3521797425
 30
0.0
 10
230.740418206
 20
61.6102894298
 30
0.0
 10
230.8243181156
 20
62.1408748186
 30
0.0
 10
231.0605033767
 20
62.6213443338
 30
0.0
 10
231.2088926699
 20
62.8463611734
 30
0.0
  0
SPLINE
  5
446
100
AcDbEntity
  8
KONSTRUKTIONSELEMENTE
100
AcDbSpline
 62
7
  6
CONTINUOUS
 70
0
 71
3
 72
9
 73
5
 74
0
 42
0.0000001
 43
0.0000001
 44
0.0000000001
 40
0.0
 40
0.0
 40
0.0
 40
0.0
 40
0.4753722117
 40
1.0
 40
1.0
 40
1.0
 40
1.0
 10
231.3969542881
 20
63.1364046183
 30
0.0
 10
231.6643940231
 20
62.8047223786
 30
0.0
 10
232.357069157
 20
62.2090441929
 30
0.0
 10
233.1807708543
 20
61.8306790081
 30
0.0
 10
233.6273402964
 20
61.6834319754
 30
0.0
  0
SPLINE
  5
447
100
AcDbEntity
  8
KONSTRUKTIONSELEMENTE
100
AcDbSpline
 62
7
  6
CONTINUOUS
 70
0
 71
3
 72
11
 73
7
 74
0
 42
0.0000001
 43
0.0000001
 44
0.0000000001
 40
0.0
 40
0.0
 40
0.0
 40
0.0
 40
0.2094829334
 40
0.4446557434
 40
0.7120095299
 40
1.0
 40
1.0
 40
1.0
 40
1.0
 10
206.0576605422
 20
40.5717056021
 30
0.0
 10
206.0576605422
 20
40.4311445147
 30
0.0
 10
206.1489479715
 20
40.1292508703
 30
0.0
 10
206.4984701928
 20
39.7835496099
 30
0.0
 10
206.989444753
 20
39.5615685981
 30
0.0
 10
207.3644216325
 20
39.5110454303
 30
0.0
 10
207.5576605422
 20
39.5110454303
 30
0.0
  0
SPLINE
  5
448
100
AcDbEntity
  8
KONSTRUKTIONSELEMENTE
100
AcDbSpline
 62
7
  6
CONTINUOUS
 70
0
 71
3
 72
10
 73
6
 74
0
 42
0.0000001
 43
0.0000001
 44
0.0000000001
 40
0.0
 40
0.0
 40
0.0
 40
0.0
 40
0.2210513433
 40
0.4578290806
 40
1.0
 40
1.0
 40
1.0
 40
1.0
 10
239.8070301752
 20
59.4205253128
 30
0.0
 10
239.8070321499
 20
59.4541723065
 30
0.0
 10
239.7922687857
 20
59.5245281873
 30
0.0
 10
239.7065384643
 20
59.6534766742
 30
0.0
 10
239.5967160127
 20
59.715153856
 30
0.0
 10
239.5183409122
 20
59.7409964236
 30
0.0
  0
SPLINE
  5
449
100
AcDbEntity
  8
BEZUGSACHSEN
100
AcDbSpline
 62
7
  6
CONTINUOUS
 70
0
 71
3
 72
9
 73
5
 74
0
 42
0.0000001
 43
0.0000001
 44
0.0000000001
 40
0.0
 40
0.0
 40
0.0
 40
0.0
 40
0.2459387646
 40
1.0
 40
1.0
 40
1.0
 40
1.0
 10
219.36955273
 20
111.636590897
 30
0.0
 10
219.0298568634
 20
111.7485985798
 30
0.0
 10
217.6363532575
 20
112.1661671936
 30
0.0
 10
216.199111394
 20
112.4354716288
 30
0.0
 10
215.1092346916
 20
112.5574649129
 30
0.0
  0
SPLINE
  5
44A
100
AcDbEntity
  8
BEZUGSACHSEN
100
AcDbSpline
 62
7
  6
CONTINUOUS
 70
0
 71
3
 72
9
 73
5
 74
0
 42
0.0000001
 43
0.0000001
 44
0.0000000001
 40
0.0
 40
0.0
 40
0.0
 40
0.0
 40
0.2536983179
 40
1.0
 40
1.0
 40
1.0
 40
1.0
 10
210.1060863928
 20
112.5574649129
 30
0.0
 10
209.7394122403
 20
112.5164219363
 30
0.0
 10
208.2984359258
 20
112.3187301315
 30
0.0
 10
206.8765570596
 20
111.9764721427
 30
0.0
 10
205.8457683543
 20
111.636590897
 30
0.0
  0
SPLINE
  5
44B
100
AcDbEntity
  8
BEZUGSACHSEN
100
AcDbSpline
 62
7
  6
CONTINUOUS
 70
0
 71
3
 72
11
 73
7
 74
0
 42
0.0000001
 43
0.0000001
 44
0.0000000001
 40
0.0
 40
0.0
 40
0.0
 40
0.0
 40
0.221185816
 40
0.4572071684
 40
0.716647289
 40
1.0
 40
1.0
 40
1.0
 40
1.0
 10
207.1076605422
 20
102.0899955653
 30
0.0
 10
207.1076605422
 20
102.448188073
 30
0.0
 10
207.258875799
 20
103.1950945408
 30
0.0
 10
207.8961973935
 20
104.19014928
 30
0.0
 10
208.8736914216
 20
105.0113449325
 30
0.0
 10
209.6734641385
 20
105.3971784771
 30
0.0
 10
210.1050143264
 20
105.5531372407
 30
0.0
  0
SPLINE
  5
44C
100
AcDbEntity
  8
BEZUGSACHSEN
100
AcDbSpline
 62
7
  6
CONTINUOUS
 70
0
 71
3
 72
11
 73
7
 74
0
 42
0.0000001
 43
0.0000001
 44
0.0000000001
 40
0.0
 40
0.0
 40
0.0
 40
0.0
 40
0.283352711
 40
0.5427928316
 40
0.778814184
 40
1.0
 40
1.0
 40
1.0
 40
1.0
 10
215.110306758
 20
105.5531372407
 30
0.0
 10
215.5418569459
 20
105.3971784771
 30
0.0
 10
216.3416296627
 20
105.0113449325
 30
0.0
 10
217.3191236908
 20
104.19014928
 30
0.0
 10
217.9564452854
 20
103.1950945408
 30
0.0
 10
218.1076605422
 20
102.448188073
 30
0.0
 10
218.1076605422
 20
102.0899955653
 30
0.0
  0
SPLINE
  5
44D
100
AcDbEntity
  8
KONSTRUKTIONSELEMENTE
100
AcDbSpline
 62
7
  6
CONTINUOUS
 70
0
 71
3
 72
9
 73
5
 74
0
 42
0.0000001
 43
0.0000001
 44
0.0000000001
 40
0.0
 40
0.0
 40
0.0
 40
0.0
 40
0.5108269807
 40
1.0
 40
1.0
 40
1.0
 40
1.0
 10
262.3702626779
 20
90.0214326473
 30
0.0
 10
262.5186449169
 20
90.2464387898
 30
0.0
 10
262.7548215146
 20
90.7268919817
 30
0.0
 10
262.8387191746
 20
91.2574493329
 30
0.0
 10
262.8387237729
 20
91.5155515231
 30
0.0
  0
SPLINE
  5
44E
100
AcDbEntity
  8
KONSTRUKTIONSELEMENTE
100
AcDbSpline
 62
7
  6
CONTINUOUS
 70
0
 71
3
 72
9
 73
5
 74
0
 42
0.0000001
 43
0.0000001
 44
0.0000000001
 40
0.0
 40
0.0
 40
0.0
 40
0.0
 40
0.5322168521
 40
1.0
 40
1.0
 40
1.0
 40
1.0
 10
261.2831813918
 20
89.2095661936
 30
0.0
 10
261.4042692261
 20
89.1696399859
 30
0.0
 10
261.6548957862
 20
89.1593444257
 30
0.0
 10
261.8859498979
 20
89.2870229824
 30
0.0
 10
261.9476444162
 20
89.3805762652
 30
0.0
  0
SPLINE
  5
44F
100
AcDbEntity
  8
KONSTRUKTIONSELEMENTE
100
AcDbSpline
 62
7
  6
CONTINUOUS
 70
0
 71
3
 72
9
 73
5
 74
0
 42
0.0000001
 43
0.0000001
 44
0.0000000001
 40
0.0
 40
0.0
 40
0.0
 40
0.0
 40
0.2605100871
 40
1.0
 40
1.0
 40
1.0
 40
1.0
 10
239.7601856748
 20
55.7356162073
 30
0.0
 10
239.7677292153
 20
55.7470551973
 30
0.0
 10
239.7939026866
 20
55.7927028276
 30
0.0
 10
239.8070278924
 20
55.8460954876
 30
0.0
 10
239.8070301752
 20
55.8849914068
 30
0.0
  0
SPLINE
  5
450
100
AcDbEntity
  8
KONSTRUKTIONSELEMENTE
100
AcDbSpline
 62
7
  6
CONTINUOUS
 70
0
 71
3
 72
11
 73
7
 74
0
 42
0.0000001
 43
0.0000001
 44
0.0000000001
 40
0.0
 40
0.0
 40
0.0
 40
0.0
 40
0.2729767978
 40
0.5353848362
 40
0.7789285996
 40
1.0
 40
1.0
 40
1.0
 40
1.0
 10
234.9684007409
 20
53.2996276634
 30
0.0
 10
235.4371528792
 20
53.2996276634
 30
0.0
 10
236.3592861782
 20
53.3906451011
 30
0.0
 10
237.6452435503
 20
53.7941069232
 30
0.0
 10
238.7307179397
 20
54.4348151572
 30
0.0
 10
239.2909480011
 20
55.0240663641
 30
0.0
 10
239.4999396761
 20
55.3409803757
 30
0.0
  0
SPLINE
  5
451
100
AcDbEntity
  8
KONSTRUKTIONSELEMENTE
100
AcDbSpline
 62
7
  6
CONTINUOUS
 70
0
 71
3
 72
13
 73
9
 74
0
 42
0.0000001
 43
0.0000001
 44
0.0000000001
 40
0.0
 40
0.0
 40
0.0
 40
0.0
 40
0.2870489256
 40
0.5535682914
 40
0.6755020148
 40
0.789331082
 40
0.8965440086
 40
1.0
 40
1.0
 40
1.0
 40
1.0
 10
221.1576605422
 20
53.2996276634
 30
0.0
 10
220.6423935828
 20
53.2996276634
 30
0.0
 10
219.6436423361
 20
53.1654590535
 30
0.0
 10
218.5171325579
 20
52.6561205147
 30
0.0
 10
217.8256831729
 20
52.0689086532
 30
0.0
 10
217.4473863471
 20
51.5763360445
 30
0.0
 10
217.2115543031
 20
51.0369990221
 30
0.0
 10
217.1576605422
 20
50.6569091387
 30
0.0
 10
217.1576605422
 20
50.4712005387
 30
0.0
  0
SPLINE
  5
452
100
AcDbEntity
  8
KONSTRUKTIONSELEMENTE
100
AcDbSpline
 62
7
  6
CONTINUOUS
 70
0
 71
3
 72
11
 73
7
 74
0
 42
0.0000001
 43
0.0000001
 44
0.0000000001
 40
0.0
 40
0.0
 40
0.0
 40
0.0
 40
0.220058334
 40
0.4557781708
 40
0.71578719
 40
1.0
 40
1.0
 40
1.0
 40
1.0
 10
262.8387237729
 20
95.051085429
 30
0.0
 10
262.8387297669
 20
95.3875260885
 30
0.0
 10
262.6912596645
 20
96.0907292348
 30
0.0
 10
262.0733961531
 20
97.019136167
 30
0.0
 10
261.1311549937
 20
97.7741987238
 30
0.0
 10
260.3644852294
 20
98.1193602053
 30
0.0
 10
259.9518150514
 20
98.2554296572
 30
0.0
  0
SPLINE
  5
453
100
AcDbEntity
  8
KONSTRUKTIONSELEMENTE
100
AcDbSpline
 62
7
  6
CONTINUOUS
 70
0
 71
3
 72
11
 73
7
 74
0
 42
0.0000001
 43
0.0000001
 44
0.0000000001
 40
0.0
 40
0.0
 40
0.0
 40
0.0
 40
0.2879904701
 40
0.5553442566
 40
0.7905170666
 40
1.0
 40
1.0
 40
1.0
 40
1.0
 10
217.6576605422
 20
39.5110454303
 30
0.0
 10
217.8508994519
 20
39.5110454303
 30
0.0
 10
218.2258763314
 20
39.5615685981
 30
0.0
 10
218.7168508916
 20
39.7835496099
 30
0.0
 10
219.0663731129
 20
40.1292508703
 30
0.0
 10
219.1576605422
 20
40.4311445147
 30
0.0
 10
219.1576605422
 20
40.5717056021
 30
0.0
  0
SPLINE
  5
454
100
AcDbEntity
  8
KONSTRUKTIONSELEMENTE
100
AcDbSpline
 62
7
  6
CONTINUOUS
 70
0
 71
3
 72
11
 73
7
 74
0
 42
0.0000001
 43
0.0000001
 44
0.0000000001
 40
0.0
 40
0.0
 40
0.0
 40
0.0
 40
0.2820767698
 40
0.5407553301
 40
0.7772666753
 40
1.0
 40
1.0
 40
1.0
 40
1.0
 10
221.1659828999
 20
53.2776173211
 30
0.0
 10
220.8740348258
 20
53.159105894
 30
0.0
 10
220.3347671221
 20
52.8740859809
 30
0.0
 10
219.680540989
 20
52.2879269182
 30
0.0
 10
219.257354912
 20
51.5907481903
 30
0.0
 10
219.1576605422
 20
51.0735512961
 30
0.0
 10
219.1576605422
 20
50.8247539293
 30
0.0
  0
SPLINE
  5
455
100
AcDbEntity
  8
KONSTRUKTIONSELEMENTE
100
AcDbSpline
 62
7
  6
CONTINUOUS
 70
0
 71
3
 72
11
 73
7
 74
0
 42
0.0000001
 43
0.0000001
 44
0.0000000001
 40
0.0
 40
0.0
 40
0.0
 40
0.0
 40
0.2808713938
 40
0.5389210953
 40
0.7759033082
 40
1.0
 40
1.0
 40
1.0
 40
1.0
 10
204.192126225
 20
53.2976517033
 30
0.0
 10
204.4654793868
 20
53.1756975436
 30
0.0
 10
204.9690799921
 20
52.8884599537
 30
0.0
 10
205.5761223762
 20
52.3133736855
 30
0.0
 10
205.966283643
 20
51.6395611571
 30
0.0
 10
206.0576605422
 20
51.1443945608
 30
0.0
 10
206.0576605422
 20
50.9055753488
 30
0.0
  0
SPLINE
  5
456
100
AcDbEntity
  8
KONSTRUKTIONSELEMENTE
100
AcDbSpline
 62
7
  6
CONTINUOUS
 70
0
 71
3
 72
9
 73
5
 74
0
 42
0.0000001
 43
0.0000001
 44
0.0000000001
 40
0.0
 40
0.0
 40
0.0
 40
0.0
 40
0.5107012964
 40
1.0
 40
1.0
 40
1.0
 40
1.0
 10
180.0388948639
 20
84.3802179909
 30
0.0
 10
179.9943680384
 20
84.4477382637
 30
0.0
 10
179.9235132963
 20
84.5919652476
 30
0.0
 10
179.8983365407
 20
84.7512178963
 30
0.0
 10
179.8983578695
 20
84.8287086572
 30
0.0
  0
SPLINE
  5
457
100
AcDbEntity
  8
KONSTRUKTIONSELEMENTE
100
AcDbSpline
 62
7
  6
CONTINUOUS
 70
0
 71
3
 72
11
 73
7
 74
0
 42
0.0000001
 43
0.0000001
 44
0.0000000001
 40
0.0
 40
0.0
 40
0.0
 40
0.0
 40
0.2231088723
 40
0.4658949299
 40
0.7265978581
 40
1.0
 40
1.0
 40
1.0
 40
1.0
 10
198.9559164358
 20
55.3409803757
 30
0.0
 10
199.1344230821
 20
55.070293721
 30
0.0
 10
199.5948427386
 20
54.5605347704
 30
0.0
 10
200.4789197891
 20
53.9681141249
 30
0.0
 10
201.5326584787
 20
53.5434448056
 30
0.0
 10
202.298333743
 20
53.3894479035
 30
0.0
 10
202.6931249106
 20
53.344528452
 30
0.0
  0
SPLINE
  5
458
100
AcDbEntity
  8
KONSTRUKTIONSELEMENTE
100
AcDbSpline
 62
7
  6
CONTINUOUS
 70
0
 71
3
 72
13
 73
9
 74
0
 42
0.0000001
 43
0.0000001
 44
0.0000000001
 40
0.0
 40
0.0
 40
0.0
 40
0.0
 40
0.2198121251
 40
0.3415455497
 40
0.4695397045
 40
0.6018885822
 40
0.736224413
 40
1.0
 40
1.0
 40
1.0
 40
1.0
 10
248.7475505322
 20
89.4419010287
 30
0.0
 10
249.0416490034
 20
89.8878705934
 30
0.0
 10
249.6767309777
 20
90.4686639029
 30
0.0
 10
250.6893765376
 20
90.9981060305
 30
0.0
 10
251.5736301546
 20
91.2952980452
 30
0.0
 10
252.5210930173
 20
91.4650714513
 30
0.0
 10
253.8117789569
 20
91.5146652283
 30
0.0
 10
254.7833654109
 20
91.3527460139
 30
0.0
 10
255.3921807761
 20
91.1520017453
 30
0.0
  0
SPLINE
  5
459
100
AcDbEntity
  8
KONSTRUKTIONSELEMENTE
100
AcDbSpline
 62
7
  6
CONTINUOUS
 70
0
 71
3
 72
11
 73
7
 74
0
 42
0.0000001
 43
0.0000001
 44
0.0000000001
 40
0.0
 40
0.0
 40
0.0
 40
0.0
 40
0.220058334
 40
0.4557781708
 40
0.71578719
 40
1.0
 40
1.0
 40
1.0
 40
1.0
 10
262.8387237729
 20
91.5155515231
 30
0.0
 10
262.8387297669
 20
91.8519921826
 30
0.0
 10
262.6912596645
 20
92.5551953288
 30
0.0
 10
262.0733961531
 20
93.4836022611
 30
0.0
 10
261.1311549937
 20
94.2386648179
 30
0.0
 10
260.3644852294
 20
94.5838262993
 30
0.0
 10
259.9518150514
 20
94.7198957512
 30
0.0
  0
SPLINE
  5
45A
100
AcDbEntity
  8
KONSTRUKTIONSELEMENTE
100
AcDbSpline
 62
7
  6
CONTINUOUS
 70
0
 71
3
 72
9
 73
5
 74
0
 42
0.0000001
 43
0.0000001
 44
0.0000000001
 40
0.0
 40
0.0
 40
0.0
 40
0.0
 40
0.5398499172
 40
1.0
 40
1.0
 40
1.0
 40
1.0
 10
186.1412046105
 20
86.0022253516
 30
0.0
 10
186.3402928063
 20
86.0678705645
 30
0.0
 10
186.6955738063
 20
86.2507043051
 30
0.0
 10
186.9323008653
 20
86.58884983
 30
0.0
 10
186.9797179931
 20
86.7611264229
 30
0.0
  0
SPLINE
  5
45B
100
AcDbEntity
  8
KONSTRUKTIONSELEMENTE
100
AcDbSpline
 62
7
  6
CONTINUOUS
 70
0
 71
3
 72
11
 73
7
 74
0
 42
0.0000001
 43
0.0000001
 44
0.0000000001
 40
0.0
 40
0.0
 40
0.0
 40
0.0
 40
0.2816064552
 40
0.5417085427
 40
0.7793419382
 40
1.0
 40
1.0
 40
1.0
 40
1.0
 10
185.295968087
 20
87.2839381157
 30
0.0
 10
185.4093311311
 20
87.3213172337
 30
0.0
 10
185.6213299435
 20
87.4145839257
 30
0.0
 10
185.8885856943
 20
87.6143265623
 30
0.0
 10
186.0774789823
 20
87.8587000785
 30
0.0
 10
186.1414848114
 20
88.047094926
 30
0.0
 10
186.1545971886
 20
88.1397031767
 30
0.0
  0
SPLINE
  5
45C
100
AcDbEntity
  8
BEZUGSACHSEN
100
AcDbSpline
 62
7
  6
CONTINUOUS
 70
0
 71
3
 72
9
 73
5
 74
0
 42
0.0000001
 43
0.0000001
 44
0.0000000001
 40
0.0
 40
0.0
 40
0.0
 40
0.0
 40
0.2459387646
 40
1.0
 40
1.0
 40
1.0
 40
1.0
 10
219.36955273
 20
108.1010569911
 30
0.0
 10
219.0298568634
 20
108.2130646738
 30
0.0
 10
217.6363532575
 20
108.6306332877
 30
0.0
 10
216.199111394
 20
108.8999377228
 30
0.0
 10
215.1092346916
 20
109.021931007
 30
0.0
  0
SPLINE
  5
45D
100
AcDbEntity
  8
BEZUGSACHSEN
100
AcDbSpline
 62
7
  6
CONTINUOUS
 70
0
 71
3
 72
9
 73
5
 74
0
 42
0.0000001
 43
0.0000001
 44
0.0000000001
 40
0.0
 40
0.0
 40
0.0
 40
0.0
 40
0.2536983179
 40
1.0
 40
1.0
 40
1.0
 40
1.0
 10
210.1060863928
 20
109.021931007
 30
0.0
 10
209.7394122403
 20
108.9808880303
 30
0.0
 10
208.2984359258
 20
108.7831962256
 30
0.0
 10
206.8765570596
 20
108.4409382367
 30
0.0
 10
205.8457683543
 20
108.1010569911
 30
0.0
  0
SPLINE
  5
45E
100
AcDbEntity
  8
KONSTRUKTIONSELEMENTE
100
AcDbSpline
 62
7
  6
CONTINUOUS
 70
0
 71
3
 72
10
 73
6
 74
0
 42
0.0000001
 43
0.0000001
 44
0.0000000001
 40
0.0
 40
0.0
 40
0.0
 40
0.0
 40
0.2210513433
 40
0.4578290806
 40
1.0
 40
1.0
 40
1.0
 40
1.0
 10
239.8070301752
 20
55.8849914068
 30
0.0
 10
239.8070321499
 20
55.9186384006
 30
0.0
 10
239.7922687857
 20
55.9889942814
 30
0.0
 10
239.7065384643
 20
56.1179427683
 30
0.0
 10
239.5967160127
 20
56.1796199501
 30
0.0
 10
239.5183409122
 20
56.2054625177
 30
0.0
  0
SPLINE
  5
45F
100
AcDbEntity
  8
BEZUGSACHSEN
100
AcDbSpline
 62
7
  6
CONTINUOUS
 70
0
 71
3
 72
19
 73
15
 74
0
 42
0.0000001
 43
0.0000001
 44
0.0000000001
 40
0.0
 40
0.0
 40
0.0
 40
0.0
 40
0.0517234907
 40
0.1053372095
 40
0.1622487312
 40
0.2232163938
 40
0.3564752704
 40
0.5
 40
0.6435247296
 40
0.7767836062
 40
0.8377512688
 40
0.8946627905
 40
0.9482765093
 40
1.0
 40
1.0
 40
1.0
 40
1.0
 10
218.1076605422
 20
102.0899955653
 30
0.0
 10
218.1076605422
 20
101.8346693812
 30
0.0
 10
218.033509961
 20
101.3120464489
 30
0.0
 10
217.7093241621
 20
100.5704250598
 30
0.0
 10
217.1890520696
 20
99.8931766664
 30
0.0
 10
216.2384852001
 20
99.0857337064
 30
0.0
 10
214.6885047082
 20
98.3854120528
 30
0.0
 10
212.6076605422
 20
98.1052347711
 30
0.0
 10
210.5268163762
 20
98.3854120528
 30
0.0
 10
208.9768358842
 20
99.0857337064
 30
0.0
 10
208.0262690147
 20
99.8931766664
 30
0.0
 10
207.5059969223
 20
100.5704250598
 30
0.0
 10
207.1818111234
 20
101.3120464489
 30
0.0
 10
207.1076605422
 20
101.8346693812
 30
0.0
 10
207.1076605422
 20
102.0899955653
 30
0.0
  0
SPLINE
  5
460
100
AcDbEntity
  8
KONSTRUKTIONSELEMENTE
100
AcDbSpline
 62
7
  6
CONTINUOUS
 70
0
 71
3
 72
11
 73
7
 74
0
 42
0.0000001
 43
0.0000001
 44
0.0000000001
 40
0.0
 40
0.0
 40
0.0
 40
0.0
 40
0.2200436456
 40
0.4557793627
 40
0.7157728079
 40
1.0
 40
1.0
 40
1.0
 40
1.0
 10
179.8983578695
 20
84.8287086572
 30
0.0
 10
179.8983856434
 20
84.9296152376
 30
0.0
 10
179.9427002034
 20
85.1405175357
 30
0.0
 10
180.1280539117
 20
85.4189489519
 30
0.0
 10
180.4106825794
 20
85.6454240313
 30
0.0
 10
180.6406449901
 20
85.7489416562
 30
0.0
 10
180.7644291519
 20
85.7897569221
 30
0.0
  0
SPLINE
  5
461
100
AcDbEntity
  8
KONSTRUKTIONSELEMENTE
100
AcDbSpline
 62
7
  6
CONTINUOUS
 70
0
 71
3
 72
11
 73
7
 74
0
 42
0.0000001
 43
0.0000001
 44
0.0000000001
 40
0.0
 40
0.0
 40
0.0
 40
0.0
 40
0.2842240174
 40
0.5442187073
 40
0.779940343
 40
1.0
 40
1.0
 40
1.0
 40
1.0
 10
176.1391994774
 20
98.305930616
 30
0.0
 10
175.7265089627
 20
98.1698544585
 30
0.0
 10
174.9598363577
 20
97.8246850549
 30
0.0
 10
174.0176000103
 20
97.0696093494
 30
0.0
 10
173.3997384564
 20
96.1411934254
 30
0.0
 10
173.2523251542
 20
95.437976638
 30
0.0
 10
173.2523055091
 20
95.1015306433
 30
0.0
  0
SPLINE
  5
462
100
AcDbEntity
  8
KONSTRUKTIONSELEMENTE
100
AcDbSpline
 62
7
  6
CONTINUOUS
 70
0
 71
3
 72
11
 73
7
 74
0
 42
0.0000001
 43
0.0000001
 44
0.0000000001
 40
0.0
 40
0.0
 40
0.0
 40
0.0
 40
0.2842271921
 40
0.5442206373
 40
0.7799563544
 40
1.0
 40
1.0
 40
1.0
 40
1.0
 10
186.1412046105
 20
85.648671961
 30
0.0
 10
186.2649887723
 20
85.6894872269
 30
0.0
 10
186.494951183
 20
85.7930048518
 30
0.0
 10
186.7775798507
 20
86.0194799312
 30
0.0
 10
186.962933559
 20
86.2979113475
 30
0.0
 10
187.007248119
 20
86.5088136455
 30
0.0
 10
187.0072758929
 20
86.609720226
 30
0.0
  0
SPLINE
  5
463
100
AcDbEntity
  8
KONSTRUKTIONSELEMENTE
100
AcDbSpline
 62
7
  6
CONTINUOUS
 70
0
 71
3
 72
11
 73
7
 74
0
 42
0.0000001
 43
0.0000001
 44
0.0000000001
 40
0.0
 40
0.0
 40
0.0
 40
0.0
 40
0.2842268035
 40
0.5442239761
 40
0.7799400332
 40
1.0
 40
1.0
 40
1.0
 40
1.0
 10
233.6273402964
 20
58.1478980694
 30
0.0
 10
233.2146562194
 20
58.2839721043
 30
0.0
 10
232.4479948564
 20
58.6291339087
 30
0.0
 10
231.5057799311
 20
59.3841855798
 30
0.0
 10
230.8879185084
 20
60.3125586184
 30
0.0
 10
230.7404825234
 20
61.0157418217
 30
0.0
 10
230.740446128
 20
61.3521797425
 30
0.0
  0
SPLINE
  5
464
100
AcDbEntity
  8
KONSTRUKTIONSELEMENTE
100
AcDbSpline
 62
7
  6
CONTINUOUS
 70
0
 71
3
 72
9
 73
5
 74
0
 42
0.0000001
 43
0.0000001
 44
0.0000000001
 40
0.0
 40
0.0
 40
0.0
 40
0.0
 40
0.5037350338
 40
1.0
 40
1.0
 40
1.0
 40
1.0
 10
227.3925008374
 20
135.285715425
 30
0.0
 10
227.2303416167
 20
134.9424238767
 30
0.0
 10
226.9618532057
 20
134.2327120431
 30
0.0
 10
226.8611658318
 20
133.4764607731
 30
0.0
 10
226.8611658318
 20
133.1024270153
 30
0.0
  0
SPLINE
  5
465
100
AcDbEntity
  8
KONSTRUKTIONSELEMENTE
100
AcDbSpline
 62
7
  6
CONTINUOUS
 70
0
 71
3
 72
9
 73
5
 74
0
 42
0.0000001
 43
0.0000001
 44
0.0000000001
 40
0.0
 40
0.0
 40
0.0
 40
0.0
 40
0.500127309
 40
1.0
 40
1.0
 40
1.0
 40
1.0
 10
197.822820247
 20
137.927224859
 30
0.0
 10
197.9865247096
 20
138.3353988588
 30
0.0
 10
198.2553541704
 20
139.1774675079
 30
0.0
 10
198.3541552526
 20
140.0590987834
 30
0.0
 10
198.3541552526
 20
140.4986534304
 30
0.0
  0
SPLINE
  5
466
100
AcDbEntity
  8
KONSTRUKTIONSELEMENTE
100
AcDbSpline
 62
7
  6
CONTINUOUS
 70
0
 71
3
 72
9
 73
5
 74
0
 42
0.0000001
 43
0.0000001
 44
0.0000000001
 40
0.0
 40
0.0
 40
0.0
 40
0.0
 40
0.499872691
 40
1.0
 40
1.0
 40
1.0
 40
1.0
 10
226.8611658318
 20
140.4986534304
 30
0.0
 10
226.8611658318
 20
140.0590987834
 30
0.0
 10
226.959966914
 20
139.1774675079
 30
0.0
 10
227.2287963748
 20
138.3353988588
 30
0.0
 10
227.3925008374
 20
137.927224859
 30
0.0
  0
SPLINE
  5
467
100
AcDbEntity
  8
KONSTRUKTIONSELEMENTE
100
AcDbSpline
 62
7
  6
CONTINUOUS
 70
0
 71
3
 72
9
 73
5
 74
0
 42
0.0000001
 43
0.0000001
 44
0.0000000001
 40
0.0
 40
0.0
 40
0.0
 40
0.0
 40
0.4962649662
 40
1.0
 40
1.0
 40
1.0
 40
1.0
 10
198.3541552526
 20
133.1024270153
 30
0.0
 10
198.3541552526
 20
133.4764607731
 30
0.0
 10
198.2534678787
 20
134.2327120431
 30
0.0
 10
197.9849794677
 20
134.9424238767
 30
0.0
 10
197.822820247
 20
135.285715425
 30
0.0
  0
SPLINE
  5
468
100
AcDbEntity
  8
KONSTRUKTIONSELEMENTE
100
AcDbSpline
 62
7
  6
CONTINUOUS
 70
0
 71
3
 72
11
 73
7
 74
0
 42
0.0000001
 43
0.0000001
 44
0.0000000001
 40
0.0
 40
0.0
 40
0.0
 40
0.0
 40
0.2551631889
 40
0.5065184691
 40
0.7542163689
 40
1.0
 40
1.0
 40
1.0
 40
1.0
 10
198.3541552526
 20
147.1589074683
 30
0.0
 10
198.3541552526
 20
147.4247682628
 30
0.0
 10
198.4562759133
 20
147.9566097745
 30
0.0
 10
198.8522489253
 20
148.6469688726
 30
0.0
 10
199.3909490276
 20
149.212800134
 30
0.0
 10
199.8059202209
 20
149.5198917567
 30
0.0
 10
200.0209915978
 20
149.6589074683
 30
0.0
  0
SPLINE
  5
469
100
AcDbEntity
  8
KONSTRUKTIONSELEMENTE
100
AcDbSpline
 62
7
  6
CONTINUOUS
 70
0
 71
3
 72
11
 73
7
 74
0
 42
0.0000001
 43
0.0000001
 44
0.0000000001
 40
0.0
 40
0.0
 40
0.0
 40
0.0
 40
0.2457861969
 40
0.4934867763
 40
0.7448413997
 40
1.0
 40
1.0
 40
1.0
 40
1.0
 10
225.1943294865
 20
149.6589074683
 30
0.0
 10
225.4094031068
 20
149.5198903067
 30
0.0
 10
225.8243785756
 20
149.2127951775
 30
0.0
 10
226.3630803014
 20
148.6469585062
 30
0.0
 10
226.7590476855
 20
147.9565992623
 30
0.0
 10
226.8611658318
 20
147.4247634796
 30
0.0
 10
226.8611658318
 20
147.1589074683
 30
0.0
  0
SPLINE
  5
46A
100
AcDbEntity
  8
KONSTRUKTIONSELEMENTE
100
AcDbSpline
 62
7
  6
CONTINUOUS
 70
0
 71
3
 72
10
 73
6
 74
0
 42
0.0000001
 43
0.0000001
 44
0.0000000001
 40
0.0
 40
0.0
 40
0.0
 40
0.0
 40
0.2350471841
 40
0.4823710211
 40
1.0
 40
1.0
 40
1.0
 40
1.0
 10
197.822820247
 20
135.285715425
 30
0.0
 10
197.732238369
 20
135.4774775276
 30
0.0
 10
197.5912864803
 20
135.8940329832
 30
0.0
 10
197.4978054682
 20
136.7971329125
 30
0.0
 10
197.6489645107
 20
137.4937400896
 30
0.0
 10
197.822820247
 20
137.927224859
 30
0.0
  0
SPLINE
  5
46B
100
AcDbEntity
  8
KONSTRUKTIONSELEMENTE
100
AcDbSpline
 62
7
  6
CONTINUOUS
 70
0
 71
3
 72
10
 73
6
 74
0
 42
0.0000001
 43
0.0000001
 44
0.0000000001
 40
0.0
 40
0.0
 40
0.0
 40
0.0
 40
0.5176289789
 40
0.7649528159
 40
1.0
 40
1.0
 40
1.0
 40
1.0
 10
227.3925008374
 20
137.927224859
 30
0.0
 10
227.5663565736
 20
137.4937400896
 30
0.0
 10
227.7175156162
 20
136.7971329125
 30
0.0
 10
227.6240346041
 20
135.8940329832
 30
0.0
 10
227.4830827154
 20
135.4774775276
 30
0.0
 10
227.3925008374
 20
135.285715425
 30
0.0
  0
LINE
  5
46C
100
AcDbEntity
  8
KONSTRUKTIONSELEMENTE
100
AcDbLine
 62
7
  6
CONTINUOUS
 10
564.5749557734
 20
196.5770407226
 11
563.3450180434
 21
199.6056188457
  0
LINE
  5
46D
100
AcDbEntity
  8
KONSTRUKTIONSELEMENTE
100
AcDbLine
 62
7
  6
CONTINUOUS
 10
563.3760237197
 20
201.021862991
 11
563.5132806168
 21
200.772693244
  0
LINE
  5
46E
100
AcDbEntity
  8
KONSTRUKTIONSELEMENTE
100
AcDbLine
 62
7
  6
CONTINUOUS
 10
563.5132806168
 20
200.772693244
 11
563.6624465377
 21
200.4429207715
  0
LINE
  5
46F
100
AcDbEntity
  8
KONSTRUKTIONSELEMENTE
100
AcDbLine
 62
7
  6
CONTINUOUS
 10
563.6624465377
 20
200.4429207715
 11
563.6870426876
 21
200.3885154765
  0
LINE
  5
470
100
AcDbEntity
  8
KONSTRUKTIONSELEMENTE
100
AcDbLine
 62
7
  6
CONTINUOUS
 10
563.6870426876
 20
200.3885154765
 11
563.7896939714
 21
200.1354717843
  0
LINE
  5
471
100
AcDbEntity
  8
KONSTRUKTIONSELEMENTE
100
AcDbLine
 62
7
  6
CONTINUOUS
 10
563.7896939714
 20
200.1354717843
 11
563.8196916254
 21
200.0615223733
  0
LINE
  5
472
100
AcDbEntity
  8
KONSTRUKTIONSELEMENTE
100
AcDbLine
 62
7
  6
CONTINUOUS
 10
563.8196916254
 20
200.0615223733
 11
564.2135156869
 21
199.0905534843
  0
LINE
  5
473
100
AcDbEntity
  8
KONSTRUKTIONSELEMENTE
100
AcDbLine
 62
7
  6
CONTINUOUS
 10
564.3909375392
 20
198.6094230954
 11
564.2135156869
 21
199.0905534843
  0
LINE
  5
474
100
AcDbEntity
  8
KONSTRUKTIONSELEMENTE
100
AcDbLine
 62
7
  6
CONTINUOUS
 10
564.5350287221
 20
198.1663464507
 11
564.3909375392
 21
198.6094230954
  0
LINE
  5
475
100
AcDbEntity
  8
KONSTRUKTIONSELEMENTE
100
AcDbLine
 62
7
  6
CONTINUOUS
 10
564.3945766224
 20
196.0725961754
 11
564.3447264687
 21
196.1936813453
  0
LINE
  5
476
100
AcDbEntity
  8
KONSTRUKTIONSELEMENTE
100
AcDbLine
 62
7
  6
CONTINUOUS
 10
564.3447264687
 20
196.1936813453
 11
564.2172683489
 21
196.5032441002
  0
LINE
  5
477
100
AcDbEntity
  8
KONSTRUKTIONSELEMENTE
100
AcDbLine
 62
7
  6
CONTINUOUS
 10
564.538326621
 20
195.6564026343
 11
564.3945766224
 21
196.0725961754
  0
LINE
  5
478
100
AcDbEntity
  8
KONSTRUKTIONSELEMENTE
100
AcDbLine
 62
7
  6
CONTINUOUS
 10
564.2261635658
 20
194.7113602412
 11
563.5748734697
 21
196.0857933864
  0
LINE
  5
479
100
AcDbEntity
  8
KONSTRUKTIONSELEMENTE
100
AcDbLine
 62
7
  6
CONTINUOUS
 10
563.5748734697
 20
196.0857933864
 11
563.2736458014
 21
196.7214213419
  0
LINE
  5
47A
100
AcDbEntity
  8
KONSTRUKTIONSELEMENTE
100
AcDbLine
 62
7
  6
CONTINUOUS
 10
563.2736458014
 20
196.7214213419
 11
563.1363818738
 21
197.011054316
  0
LINE
  5
47B
100
AcDbEntity
  8
KONSTRUKTIONSELEMENTE
100
AcDbLine
 62
7
  6
CONTINUOUS
 10
564.2261635658
 20
194.7113602412
 11
564.3679204396
 21
194.4743547963
  0
LINE
  5
47C
100
AcDbEntity
  8
KONSTRUKTIONSELEMENTE
100
AcDbLine
 62
7
  6
CONTINUOUS
 10
564.3679204396
 20
194.4743547963
 11
564.4754262316
 21
194.3712629387
  0
LINE
  5
47D
100
AcDbEntity
  8
KONSTRUKTIONSELEMENTE
100
AcDbLine
 62
7
  6
CONTINUOUS
 10
563.1285909127
 20
198.8029381749
 11
563.2686316841
 21
198.5071791169
  0
LINE
  5
47E
100
AcDbEntity
  8
KONSTRUKTIONSELEMENTE
100
AcDbLine
 62
7
  6
CONTINUOUS
 10
563.2686316841
 20
198.5071791169
 11
564.2172683489
 21
196.5032441002
  0
LINE
  5
47F
100
AcDbEntity
  8
KONSTRUKTIONSELEMENTE
100
AcDbLine
 62
7
  6
CONTINUOUS
 10
563.3501206802
 20
194.4125162705
 11
563.4186666155
 21
194.4306793332
  0
LINE
  5
480
100
AcDbEntity
  8
KONSTRUKTIONSELEMENTE
100
AcDbLine
 62
7
  6
CONTINUOUS
 10
563.8383174186
 20
192.0589881912
 11
563.3110636605
 21
192.9563779468
  0
LINE
  5
481
100
AcDbEntity
  8
KONSTRUKTIONSELEMENTE
100
AcDbLine
 62
7
  6
CONTINUOUS
 10
564.7871916376
 20
190.4436867651
 11
564.0492005128
 21
191.700032356
  0
LINE
  5
482
100
AcDbEntity
  8
KONSTRUKTIONSELEMENTE
100
AcDbLine
 62
7
  6
CONTINUOUS
 10
563.2747233117
 20
194.8767056363
 11
563.4111532139
 21
194.8441241592
  0
LINE
  5
483
100
AcDbEntity
  8
KONSTRUKTIONSELEMENTE
100
AcDbLine
 62
7
  6
CONTINUOUS
 10
563.4111532139
 20
194.8441241592
 11
563.5149549203
 21
194.7335536469
  0
LINE
  5
484
100
AcDbEntity
  8
KONSTRUKTIONSELEMENTE
100
AcDbLine
 62
7
  6
CONTINUOUS
 10
563.5149549203
 20
194.7335536469
 11
563.6554359844
 21
194.4942495891
  0
LINE
  5
485
100
AcDbEntity
  8
KONSTRUKTIONSELEMENTE
100
AcDbLine
 62
7
  6
CONTINUOUS
 10
563.7624229556
 20
194.2458642663
 11
563.6822576686
 21
194.431991302
  0
LINE
  5
486
100
AcDbEntity
  8
KONSTRUKTIONSELEMENTE
100
AcDbLine
 62
7
  6
CONTINUOUS
 10
563.6822576686
 20
194.431991302
 11
563.6554359844
 21
194.4942495891
  0
LINE
  5
487
100
AcDbEntity
  8
KONSTRUKTIONSELEMENTE
100
AcDbLine
 62
7
  6
CONTINUOUS
 10
563.9073310925
 20
193.7998379631
 11
563.7624229556
 21
194.2458642663
  0
SPLINE
  5
488
100
AcDbEntity
  8
0
100
AcDbSpline
 62
7
  6
CONTINUOUS
 70
0
 71
3
 72
9
 73
5
 74
0
 42
0.0000001
 43
0.0000001
 44
0.0000000001
 40
0.0
 40
0.0
 40
0.0
 40
0.0
 40
0.5000059437
 40
1.0
 40
1.0
 40
1.0
 40
1.0
 10
561.03481961
 20
188.9150143933
 30
0.0
 10
561.2877815607
 20
186.4397915784
 30
0.0
 10
561.6178131646
 20
181.4688899239
 30
0.0
 10
561.532020266
 20
176.4868891492
 30
0.0
 10
561.3893695487
 20
174.0029257543
 30
0.0
  0
SPLINE
  5
489
100
AcDbEntity
  8
0
100
AcDbSpline
 62
7
  6
CONTINUOUS
 70
0
 71
3
 72
9
 73
5
 74
0
 42
0.0000001
 43
0.0000001
 44
0.0000000001
 40
0.0
 40
0.0
 40
0.0
 40
0.0
 40
0.5000000005
 40
1.0
 40
1.0
 40
1.0
 40
1.0
 10
561.03481961
 20
204.5555149789
 30
0.0
 10
561.3622004535
 20
201.9639028388
 30
0.0
 10
561.720099702
 20
196.7352646833
 30
0.0
 10
561.3622004528
 20
191.506626528
 30
0.0
 10
561.03481961
 20
188.9150143933
 30
0.0
  0
LINE
  5
48A
100
AcDbEntity
  8
0
100
AcDbLine
 62
7
  6
CONTINUOUS
 10
564.2618910369
 20
192.1663734744
 11
564.0566907097
 21
192.3648308356
  0
SPLINE
  5
48B
100
AcDbEntity
  8
BEZUGSACHSEN
100
AcDbSpline
 62
7
  6
CONTINUOUS
 70
0
 71
3
 72
11
 73
7
 74
0
 42
0.0000001
 43
0.0000001
 44
0.0000000001
 40
0.0
 40
0.0
 40
0.0
 40
0.0
 40
0.2530704919
 40
0.5000000005
 40
0.7469295092
 40
1.0
 40
1.0
 40
1.0
 40
1.0
 10
556.5800963835
 20
210.5296546015
 30
0.0
 10
556.4190763722
 20
210.0427752971
 30
0.0
 10
556.164032752
 20
209.0576679072
 30
0.0
 10
556.029186826
 20
207.542584787
 30
0.0
 10
556.1640327478
 20
206.027501668
 30
0.0
 10
556.4190763729
 20
205.0423942813
 30
0.0
 10
556.5800963835
 20
204.5555149789
 30
0.0
  0
LINE
  5
48C
100
AcDbEntity
  8
KONSTRUKTIONSELEMENTE
100
AcDbLine
 62
7
  6
CONTINUOUS
 10
564.4733823124
 20
198.0485483931
 11
564.3655027676
 21
198.4050941859
  0
LINE
  5
48D
100
AcDbEntity
  8
KONSTRUKTIONSELEMENTE
100
AcDbLine
 62
7
  6
CONTINUOUS
 10
564.3655027676
 20
198.4050941859
 11
564.2235927809
 21
198.7996937834
  0
LINE
  5
48E
100
AcDbEntity
  8
KONSTRUKTIONSELEMENTE
100
AcDbLine
 62
7
  6
CONTINUOUS
 10
563.696473569
 20
200.0976557755
 11
564.0926758374
 21
199.1220789392
  0
LINE
  5
48F
100
AcDbEntity
  8
KONSTRUKTIONSELEMENTE
100
AcDbLine
 62
7
  6
CONTINUOUS
 10
564.0926758374
 20
199.1220789392
 11
564.1207725482
 21
199.0528914564
  0
LINE
  5
490
100
AcDbEntity
  8
KONSTRUKTIONSELEMENTE
100
AcDbLine
 62
7
  6
CONTINUOUS
 10
564.1207725482
 20
199.0528914564
 11
564.2235927809
 21
198.7996937834
  0
LINE
  5
491
100
AcDbEntity
  8
KONSTRUKTIONSELEMENTE
100
AcDbLine
 62
7
  6
CONTINUOUS
 10
563.5571231482
 20
200.3953025092
 11
563.5921018011
 21
200.3206172285
  0
LINE
  5
492
100
AcDbEntity
  8
KONSTRUKTIONSELEMENTE
100
AcDbLine
 62
7
  6
CONTINUOUS
 10
563.5921018011
 20
200.3206172285
 11
563.696473569
 21
200.0976557755
  0
LINE
  5
493
100
AcDbEntity
  8
KONSTRUKTIONSELEMENTE
100
AcDbLine
 62
7
  6
CONTINUOUS
 10
563.4538268949
 20
200.5579417073
 11
563.4798111705
 21
200.5170913043
  0
LINE
  5
494
100
AcDbEntity
  8
KONSTRUKTIONSELEMENTE
100
AcDbLine
 62
7
  6
CONTINUOUS
 10
563.4798111705
 20
200.5170913043
 11
563.5571231482
 21
200.3953025092
  0
LINE
  5
495
100
AcDbEntity
  8
KONSTRUKTIONSELEMENTE
100
AcDbLine
 62
7
  6
CONTINUOUS
 10
563.437010626
 20
200.5648294981
 11
563.4538268949
 21
200.5579417073
  0
SPLINE
  5
496
100
AcDbEntity
  8
0
100
AcDbSpline
 62
7
  6
CONTINUOUS
 70
0
 71
3
 72
8
 73
4
 74
0
 42
0.0000001
 43
0.0000001
 44
0.0000000001
 40
0.0
 40
0.0
 40
0.0
 40
0.0
 40
1.0
 40
1.0
 40
1.0
 40
1.0
 10
562.6003559945
 20
192.8420629835
 30
0.0
 10
563.1505140616
 20
191.9048885594
 30
0.0
 10
563.7005422233
 20
190.9676378352
 30
0.0
 10
564.2503228468
 20
190.0302419391
 30
0.0
  0
LINE
  5
497
100
AcDbEntity
  8
0
100
AcDbLine
 62
7
  6
CONTINUOUS
 10
563.319568154
 20
193.0408877507
 11
563.3196417037
 21
192.9563650782
  0
LINE
  5
498
100
AcDbEntity
  8
0
100
AcDbLine
 62
7
  6
CONTINUOUS
 10
563.3196417037
 20
192.9563650782
 11
563.3196401511
 21
192.9421630335
  0
LINE
  5
499
100
AcDbEntity
  8
KONSTRUKTIONSELEMENTE
100
AcDbLine
 62
7
  6
CONTINUOUS
 10
564.7748800676
 20
195.7669962126
 11
564.6147941636
 21
196.1618765889
  0
LINE
  5
49A
100
AcDbEntity
  8
KONSTRUKTIONSELEMENTE
100
AcDbLine
 62
7
  6
CONTINUOUS
 10
564.6147941636
 20
196.1618765889
 11
564.4646073204
 21
196.532293759
  0
LINE
  5
49B
100
AcDbEntity
  8
KONSTRUKTIONSELEMENTE
100
AcDbLine
 62
7
  6
CONTINUOUS
 10
564.4646073204
 20
196.532293759
 11
564.4397978857
 21
196.5934790969
  0
LINE
  5
49C
100
AcDbEntity
  8
KONSTRUKTIONSELEMENTE
100
AcDbLine
 62
7
  6
CONTINUOUS
 10
564.4397978857
 20
196.5934790969
 11
563.235917352
 21
199.5613489398
  0
LINE
  5
49D
100
AcDbEntity
  8
KONSTRUKTIONSELEMENTE
100
AcDbLine
 62
7
  6
CONTINUOUS
 10
563.235917352
 20
199.5613489398
 11
563.1253034783
 21
199.8339438932
  0
LINE
  5
49E
100
AcDbEntity
  8
0
100
AcDbLine
 62
7
  6
CONTINUOUS
 10
563.6995292608
 20
196.1448673284
 11
563.2610853179
 21
197.0701468912
  0
LINE
  5
49F
100
AcDbEntity
  8
0
100
AcDbLine
 62
7
  6
CONTINUOUS
 10
563.2610853179
 20
197.0701468912
 11
562.6097475691
 21
198.4445614031
  0
LINE
  5
4A0
100
AcDbEntity
  8
0
100
AcDbLine
 62
7
  6
CONTINUOUS
 10
563.6995292608
 20
196.1448673284
 11
563.8412861411
 21
195.7884030734
  0
LINE
  5
4A1
100
AcDbEntity
  8
0
100
AcDbLine
 62
7
  6
CONTINUOUS
 10
563.8412861411
 20
195.7884030734
 11
563.9487919273
 21
195.4463932541
  0
LINE
  5
4A2
100
AcDbEntity
  8
KONSTRUKTIONSELEMENTE
100
AcDbLine
 62
7
  6
CONTINUOUS
 10
564.3945766224
 20
194.0417945256
 11
564.5383266254
 21
193.8645187754
  0
LINE
  5
4A3
100
AcDbEntity
  8
KONSTRUKTIONSELEMENTE
100
AcDbLine
 62
7
  6
CONTINUOUS
 10
564.2172683489
 20
194.3529832986
 11
564.3945766224
 21
194.0417945256
  0
LINE
  5
4A4
100
AcDbEntity
  8
KONSTRUKTIONSELEMENTE
100
AcDbLine
 62
7
  6
CONTINUOUS
 10
564.2172683489
 20
194.3529832986
 11
564.0803217484
 21
194.6423301616
  0
LINE
  5
4A5
100
AcDbEntity
  8
KONSTRUKTIONSELEMENTE
100
AcDbLine
 62
7
  6
CONTINUOUS
 10
564.0803217484
 20
194.6423301616
 11
563.1285909127
 21
196.6526773733
  0
LINE
  5
4A6
100
AcDbEntity
  8
0
100
AcDbLine
 62
7
  6
CONTINUOUS
 10
562.601956611
 20
196.6526773733
 11
563.4119938091
 21
194.9416852768
  0
LINE
  5
4A7
100
AcDbEntity
  8
0
100
AcDbLine
 62
7
  6
CONTINUOUS
 10
563.4119938091
 20
194.9416852768
 11
563.4225354976
 21
194.9194146572
  0
LINE
  5
4A8
100
AcDbEntity
  8
0
100
AcDbLine
 62
7
  6
CONTINUOUS
 10
563.4225354976
 20
194.9194146572
 11
563.4495675444
 21
194.862305589
  0
LINE
  5
4A9
100
AcDbEntity
  8
0
100
AcDbLine
 62
7
  6
CONTINUOUS
 10
563.4495675444
 20
194.862305589
 11
563.5059797172
 21
194.7431243214
  0
LINE
  5
4AA
100
AcDbEntity
  8
0
100
AcDbLine
 62
7
  6
CONTINUOUS
 10
563.8679423207
 20
194.0417945256
 11
563.8237561398
 21
194.1193502554
  0
LINE
  5
4AB
100
AcDbEntity
  8
0
100
AcDbLine
 62
7
  6
CONTINUOUS
 10
563.8237561398
 20
194.1193502554
 11
563.7767452327
 21
194.2018596749
  0
LINE
  5
4AC
100
AcDbEntity
  8
KONSTRUKTIONSELEMENTE
100
AcDbLine
 62
7
  6
CONTINUOUS
 10
564.5480743754
 20
194.4020839331
 11
564.5666975425
 21
194.4844575025
  0
LINE
  5
4AD
100
AcDbEntity
  8
KONSTRUKTIONSELEMENTE
100
AcDbLine
 62
7
  6
CONTINUOUS
 10
564.5666975425
 20
194.4844575025
 11
564.5849078921
 21
194.5668178833
  0
LINE
  5
4AE
100
AcDbEntity
  8
0
100
AcDbLine
 62
7
  6
CONTINUOUS
 10
564.0116923237
 20
193.8645187754
 11
564.0019705164
 21
193.8765194233
  0
LINE
  5
4AF
100
AcDbEntity
  8
0
100
AcDbLine
 62
7
  6
CONTINUOUS
 10
564.0019705164
 20
193.8765194233
 11
563.9040888329
 21
193.9972516485
  0
LINE
  5
4B0
100
AcDbEntity
  8
0
100
AcDbLine
 62
7
  6
CONTINUOUS
 10
563.9040888329
 20
193.9972516485
 11
563.8679423207
 21
194.0417945256
  0
LINE
  5
4B1
100
AcDbEntity
  8
KONSTRUKTIONSELEMENTE
100
AcDbLine
 62
7
  6
CONTINUOUS
 10
564.4754262289
 20
195.4463932541
 11
564.3679204427
 21
195.7884030734
  0
LINE
  5
4B2
100
AcDbEntity
  8
KONSTRUKTIONSELEMENTE
100
AcDbLine
 62
7
  6
CONTINUOUS
 10
564.3679204427
 20
195.7884030734
 11
564.2617208263
 21
196.0554689485
  0
LINE
  5
4B3
100
AcDbEntity
  8
KONSTRUKTIONSELEMENTE
100
AcDbLine
 62
7
  6
CONTINUOUS
 10
564.2617208263
 20
196.0554689485
 11
564.2261635625
 21
196.1448673284
  0
LINE
  5
4B4
100
AcDbEntity
  8
KONSTRUKTIONSELEMENTE
100
AcDbLine
 62
7
  6
CONTINUOUS
 10
563.1363818708
 20
198.4445614031
 11
564.0858573484
 21
196.4409754777
  0
LINE
  5
4B5
100
AcDbEntity
  8
KONSTRUKTIONSELEMENTE
100
AcDbLine
 62
7
  6
CONTINUOUS
 10
564.0858573484
 20
196.4409754777
 11
564.2261635625
 21
196.1448673284
  0
LINE
  5
4B6
100
AcDbEntity
  8
KONSTRUKTIONSELEMENTE
100
AcDbLine
 62
7
  6
CONTINUOUS
 10
563.8072943614
 20
193.63477846
 11
563.7351022302
 21
193.8922454128
  0
LINE
  5
4B7
100
AcDbEntity
  8
KONSTRUKTIONSELEMENTE
100
AcDbLine
 62
7
  6
CONTINUOUS
 10
563.7351022302
 20
193.8922454128
 11
563.6285702725
 21
194.1406307357
  0
LINE
  5
4B8
100
AcDbEntity
  8
KONSTRUKTIONSELEMENTE
100
AcDbLine
 62
7
  6
CONTINUOUS
 10
563.5231049228
 20
194.3201088209
 11
563.6285702725
 21
194.1406307357
  0
LINE
  5
4B9
100
AcDbEntity
  8
KONSTRUKTIONSELEMENTE
100
AcDbLine
 62
7
  6
CONTINUOUS
 10
563.4186666155
 20
194.4306793332
 11
563.444868202
 21
194.4029509608
  0
LINE
  5
4BA
100
AcDbEntity
  8
KONSTRUKTIONSELEMENTE
100
AcDbLine
 62
7
  6
CONTINUOUS
 10
563.444868202
 20
194.4029509608
 11
563.5231049228
 21
194.3201088209
  0
LINE
  5
4BB
100
AcDbEntity
  8
0
100
AcDbLine
 62
7
  6
CONTINUOUS
 10
562.5986691766
 20
199.8339438932
 11
563.0170004989
 21
198.8029392361
  0
LINE
  5
4BC
100
AcDbEntity
  8
KONSTRUKTIONSELEMENTE
100
AcDbLine
 62
7
  6
CONTINUOUS
 10
564.7769571484
 20
190.0302419391
 11
564.5991512381
 21
190.3333875095
  0
LINE
  5
4BD
100
AcDbEntity
  8
KONSTRUKTIONSELEMENTE
100
AcDbLine
 62
7
  6
CONTINUOUS
 10
564.5991512381
 20
190.3333875095
 11
563.8618359034
 21
191.5900758653
  0
LINE
  5
4BE
100
AcDbEntity
  8
KONSTRUKTIONSELEMENTE
100
AcDbLine
 62
7
  6
CONTINUOUS
 10
563.8618359034
 20
191.5900758653
 11
563.6511241844
 21
191.9491186069
  0
LINE
  5
4BF
100
AcDbEntity
  8
KONSTRUKTIONSELEMENTE
100
AcDbLine
 62
7
  6
CONTINUOUS
 10
563.6511241844
 20
191.9491186069
 11
563.1269902962
 21
192.8420629835
  0
SPLINE
  5
4C0
100
AcDbEntity
  8
BEZUGSACHSEN
100
AcDbSpline
 62
7
  6
CONTINUOUS
 70
0
 71
3
 72
9
 73
5
 74
0
 42
0.0000001
 43
0.0000001
 44
0.0000000001
 40
0.0
 40
0.0
 40
0.0
 40
0.0
 40
0.2478797211
 40
1.0
 40
1.0
 40
1.0
 40
1.0
 10
555.1421015016
 20
150.8884950373
 30
0.0
 10
555.0969307187
 20
150.8283432954
 30
0.0
 10
554.9143166304
 20
150.5859675758
 30
0.0
 10
554.7306160976
 20
150.3444135263
 30
0.0
 10
554.5924610474
 20
150.1627293505
 30
0.0
  0
SPLINE
  5
4C1
100
AcDbEntity
  8
RUNDUNGEN
100
AcDbSpline
 62
7
  6
CONTINUOUS
 70
0
 71
3
 72
9
 73
5
 74
0
 42
0.0000001
 43
0.0000001
 44
0.0000000001
 40
0.0
 40
0.0
 40
0.0
 40
0.0
 40
0.2478797211
 40
1.0
 40
1.0
 40
1.0
 40
1.0
 10
562.4728144918
 20
150.8884950373
 30
0.0
 10
562.5179852748
 20
150.8283432954
 30
0.0
 10
562.7005993631
 20
150.5859675758
 30
0.0
 10
562.8842998959
 20
150.3444135263
 30
0.0
 10
563.022454946
 20
150.1627293505
 30
0.0
  0
SPLINE
  5
4C2
100
AcDbEntity
  8
0
100
AcDbSpline
 62
7
  6
CONTINUOUS
 70
0
 71
3
 72
11
 73
7
 74
0
 42
0.0000001
 43
0.0000001
 44
0.0000000001
 40
0.0
 40
0.0
 40
0.0
 40
0.0
 40
0.2530704919
 40
0.5000000005
 40
0.7469295092
 40
1.0
 40
1.0
 40
1.0
 40
1.0
 10
561.03481961
 20
210.5296546015
 30
0.0
 10
561.1958396213
 20
210.0427752971
 30
0.0
 10
561.4508832415
 20
209.0576679072
 30
0.0
 10
561.5857291675
 20
207.542584787
 30
0.0
 10
561.4508832457
 20
206.027501668
 30
0.0
 10
561.1958396206
 20
205.0423942813
 30
0.0
 10
561.03481961
 20
204.5555149789
 30
0.0
  0
LINE
  5
4C3
100
AcDbEntity
  8
0
100
AcDbLine
 62
7
  6
CONTINUOUS
 10
563.6969584792
 20
198.7996937834
 11
563.4345808086
 21
199.4457898812
  0
LINE
  5
4C4
100
AcDbEntity
  8
0
100
AcDbLine
 62
7
  6
CONTINUOUS
 10
563.4345808086
 20
199.4457898812
 11
563.3462587643
 21
199.6632683109
  0
LINE
  5
4C5
100
AcDbEntity
  8
0
100
AcDbLine
 62
7
  6
CONTINUOUS
 10
563.6969584792
 20
198.7996937834
 11
563.8388684659
 21
198.4050941859
  0
LINE
  5
4C6
100
AcDbEntity
  8
0
100
AcDbLine
 62
7
  6
CONTINUOUS
 10
563.8388684659
 20
198.4050941859
 11
563.8572274285
 21
198.3444958854
  0
SPLINE
  5
4C7
100
AcDbEntity
  8
BEZUGSACHSEN
100
AcDbSpline
 62
7
  6
CONTINUOUS
 70
0
 71
3
 72
9
 73
5
 74
0
 42
0.0000001
 43
0.0000001
 44
0.0000000001
 40
0.0
 40
0.0
 40
0.0
 40
0.0
 40
0.5000059437
 40
1.0
 40
1.0
 40
1.0
 40
1.0
 10
556.5800963835
 20
188.9150143933
 30
0.0
 10
556.3271344328
 20
186.4397915784
 30
0.0
 10
555.9971028289
 20
181.4688899239
 30
0.0
 10
556.0828957274
 20
176.4868891492
 30
0.0
 10
556.2255464447
 20
174.0029257543
 30
0.0
  0
SPLINE
  5
4C8
100
AcDbEntity
  8
BEZUGSACHSEN
100
AcDbSpline
 62
7
  6
CONTINUOUS
 70
0
 71
3
 72
9
 73
5
 74
0
 42
0.0000001
 43
0.0000001
 44
0.0000000001
 40
0.0
 40
0.0
 40
0.0
 40
0.0
 40
0.5000000005
 40
1.0
 40
1.0
 40
1.0
 40
1.0
 10
556.5800963835
 20
204.5555149789
 30
0.0
 10
556.2527155399
 20
201.9639028388
 30
0.0
 10
555.8948162915
 20
196.7352646833
 30
0.0
 10
556.2527155406
 20
191.506626528
 30
0.0
 10
556.5800963835
 20
188.9150143933
 30
0.0
  0
ELLIPSE
  5
4C9
100
AcDbEntity
  8
KONSTRUKTIONSELEMENTE
100
AcDbEllipse
 62
7
  6
CONTINUOUS
 10
176.1367591858
 20
92.8071343056
 30
0.0
 11
1.4997504735
 21
0.4499923381
 31
0.0
 40
0.0607989098
 41
-2.7235007144
 42
-1.1527043876
  0
ELLIPSE
  5
4CA
100
AcDbEntity
  8
KONSTRUKTIONSELEMENTE
100
AcDbEllipse
 62
7
  6
CONTINUOUS
 10
181.3534977063
 20
92.9087286191
 30
0.0
 11
1.4788083775
 21
-0.9183885846
 31
0.0
 40
0.7424978488
 41
7.2982401868
 42
8.8690365136
  0
ELLIPSE
  5
4CB
100
AcDbEntity
  8
KONSTRUKTIONSELEMENTE
100
AcDbEllipse
 62
7
  6
CONTINUOUS
 10
212.6076605422
 20
91.2403548103
 30
0.0
 11
-0.0
 21
62.3538290725
 31
0.0
 40
0.5773502692
 41
-0.3571758222
 42
-0.1561898301
  0
ELLIPSE
  5
4CC
100
AcDbEntity
  8
KONSTRUKTIONSELEMENTE
100
AcDbEllipse
 62
7
  6
CONTINUOUS
 10
212.6076605422
 20
91.2403548103
 30
0.0
 11
-0.0
 21
62.3538290725
 31
0.0
 40
0.5773502692
 41
0.1561898301
 42
0.3571758222
  0
ELLIPSE
  5
4CD
100
AcDbEntity
  8
RUNDUNGEN
100
AcDbEllipse
 62
7
  6
CONTINUOUS
 10
563.5042766483
 20
158.5526449003
 30
0.0
 11
0.4911388899
 21
8.0206306137
 31
0.0
 40
0.2488636556
 41
-4.3827759479
 42
-3.4259921791
  0
ELLIPSE
  5
4CE
100
AcDbEntity
  8
BEZUGSACHSEN
100
AcDbEllipse
 62
7
  6
CONTINUOUS
 10
554.1106393452
 20
158.5526449003
 30
0.0
 11
-0.4911388899
 21
8.0206306137
 31
0.0
 40
0.2488636556
 41
-2.857193128
 42
-1.9004093593
  0
ELLIPSE
  5
4CF
100
AcDbEntity
  8
KONSTRUKTIONSELEMENTE
100
AcDbEllipse
 62
7
  6
CONTINUOUS
 10
439.2159388719
 20
95.6355614303
 30
0.0
 11
-0.0
 21
2.0710365812
 31
0.0
 40
0.2216946626
 41
-4.4942228239
 42
-3.3588599535
  0
ELLIPSE
  5
4D0
100
AcDbEntity
  8
KONSTRUKTIONSELEMENTE
100
AcDbEllipse
 62
7
  6
CONTINUOUS
 10
442.0443659967
 20
92.8071343056
 30
0.0
 11
2.0710365812
 21
0.0
 31
0.0
 40
0.2216946626
 41
-2.9243253536
 42
-1.7889624833
  0
ENDSEC
  0
SECTION
  2
OBJECTS
  0
DICTIONARY
  5
C
100
AcDbDictionary
280
0
281
1
  3
ACAD_GROUP
350
D
  3
ACAD_MLINESTYLE
350
17
  3
ACAD_LAYOUT
350
1A
  3
ACAD_PLOTSETTINGS
350
19
  3
ACAD_PLOTSTYLENAME
350
E
  0
DICTIONARY
  5
D
102
{ACAD_REACTORS
330
C
102
}
100
AcDbDictionary
280
0
281
1
  0
ACDBDICTIONARYWDFLT
  5
E
102
{ACAD_REACTORS
330
C
102
}
100
AcDbDictionary
281
1
  3
Normal
350
F
100
AcDbDictionaryWithDefault
340
F
  0
DICTIONARY
  5
17
102
{ACAD_REACTORS
330
C
102
}
100
AcDbDictionary
280
0
281
1
  3
Standard
350
18
  0
DICTIONARY
  5
19
102
{ACAD_REACTORS
330
C
102
}
100
AcDbDictionary
281
1
  0
DICTIONARY
  5
1A
102
{ACAD_REACTORS
330
C
102
}
100
AcDbDictionary
281
1
  3
Model
350
4D1
  3
Layout1
350
4D2
  0
ACDBPLACEHOLDER
  5
F
102
{ACAD_REACTORS
330
E
102
}
  0
MLINESTYLE
  5
18
102
{ACAD_REACTORS
330
17
102
}
100
AcDbMlineStyle
  2
STANDARD
 70
0
  3

 62
256
 51
90.0
 52
90.0
 71
2
 49
0.5
 62
256
  6
BYLAYER
 49
-0.5
 62
256
  6
BYLAYER
  0
LAYOUT
  5
4D1
102
{ACAD_REACTORS
330
1A
102
}
100
AcDbPlotSettings
  1

  2
none_device
  4
ISO_A1_(594.00_x_841.00_MM)
  6

 40
0.0
 41
0.0
 42
0.0
 43
0.0
 44
841.0
 45
594.0
 46
0.0
 47
0.0
 48
0.0
 49
0.0
140
0.0
141
0.0
142
1.0
143
1.0
 70
1024
 72
1
 73
0
 74
0
  7

 75
0
147
1.0
148
0.0
149
0.0
100
AcDbLayout
  1
Model
 70
0
 71
0
 10
0.0
 20
0.0
 11
841.0
 21
594.0
 12
0.0
 22
0.0
 32
0.0
 14
0.0
 24
0.0
 34
0.0
 15
0.0
 25
0.0
 35
0.0
146
0.0
 13
0.0
 23
0.0
 33
0.0
 16
1.0
 26
0.0
 36
0.0
 17
0.0
 27
1.0
 37
0.0
 76
0
330
20D
345
0
346
0
  0
LAYOUT
  5
4D2
102
{ACAD_REACTORS
330
1A
102
}
100
AcDbPlotSettings
  1

  2
none_device
  4
ISO_A1_(594.00_x_841.00_MM)
  6

 40
0.0
 41
0.0
 42
0.0
 43
0.0
 44
841.0
 45
594.0
 46
0.0
 47
0.0
 48
0.0
 49
0.0
140
0.0
141
0.0
142
1.0
143
1.0
 70
0
 72
1
 73
0
 74
0
  7

 75
0
147
1.0
148
0.0
149
0.0
100
AcDbLayout
  1
Layout1
 70
0
 71
1
 10
0.0
 20
0.0
 11
841.0
 21
594.0
 12
0.0
 22
0.0
 32
0.0
 14
0.0
 24
0.0
 34
0.0
 15
0.0
 25
0.0
 35
0.0
146
0.0
 13
0.0
 23
0.0
 33
0.0
 16
1.0
 26
0.0
 36
0.0
 17
0.0
 27
1.0
 37
0.0
 76
0
330
20E
345
0
346
0
  0
ENDSEC
  0
EOF
