999
DXF file: 001-m33898-p99.dxf
999
Pro/ENGINEER 2011490 by Parametric Technology Corporation
  0
SECTION
  2
HEADER
  9
$ACADVER
  1
AC1015
  9
$DWGCODEPAGE
  3
ANSI_1252
  9
$EXTMAX
 10
1189.0
 20
841.0
 30
0.0
  9
$EXTMIN
 10
0.0
 20
0.0
 30
0.0
  9
$LIMMIN
 10
0.0
 20
0.0
  9
$LIMMAX
 10
1189.0
 20
841.0
  9
$VIEWCTR
 10
594.5
 20
420.5
  9
$VIEWSIZE
 40
841.0
  9
$CLAYER
  8
0
  9
$LTSCALE
 40
65.395
  9
$CELTYPE
  6
BYLAYER
  9
$DIMSCALE
 40
1.0
  9
$DIMASZ
 40
3.5
  9
$DIMEXO
 40
7.43125
  9
$DIMDLI
 40
45.182
  9
$DIMEXE
 40
21.402
  9
$DIMCEN
 40
10.701
  9
$DIMLFAC
 40
1.0
  9
$DIMBLK
  1
_FILLED
  9
$DIMTXT
 40
3.5
  9
$DIMTOL
 70
1
  9
$DIMLIM
 70
0
  9
$DIMTFAC
 40
1.0
  9
$DIMTP
 40
0.005
  9
$DIMTM
 40
0.005
  9
$PDMODE
 70
3
  9
$PDSIZE
 40
0.3125
  9
$HANDSEED
  5
3BB
  9
$TILEMODE
 70
1
  9
$MEASUREMENT
 70
1
  9
$INSUNITS
 70
4
  0
ENDSEC
  0
SECTION
  2
CLASSES
  0
CLASS
  1
ACDBDICTIONARYWDFLT
  2
AcDbDictionaryWithDefault
  3
AutoCAD 2000
 90
0
280
0
281
0
  0
CLASS
  1
ACDBPLACEHOLDER
  2
AcDbPlaceHolder
  3
AutoCAD 2000
 90
0
280
0
281
0
  0
CLASS
  1
LAYOUT
  2
AcDbLayout
  3
AutoCAD 2000
 90
0
280
0
281
0
  0
ENDSEC
  0
SECTION
  2
TABLES
  0
TABLE
  2
VPORT
  5
8
100
AcDbSymbolTable
 70
2
  0
VPORT
  5
1F4
100
AcDbSymbolTableRecord
100
AcDbViewportTableRecord
  2
*ACTIVE
 70
0
 10
0.0
 20
0.0
 11
1.0
 21
1.0
 12
594.5
 22
420.5
 13
0.0
 23
0.0
 14
1.0
 24
1.0
 15
0.0
 25
0.0
 16
0.0
 26
0.0
 36
1.0
 17
0.0
 27
0.0
 37
0.0
 40
841.0
 41
1.4137931034
 42
50.0
 43
0.0
 44
0.0
 50
0.0
 51
0.0
 71
0
 72
100
 73
1
 74
1
 75
0
 76
0
 77
0
 78
0
  0
ENDTAB
  0
TABLE
  2
LTYPE
  5
5
100
AcDbSymbolTable
 70
6
  0
LTYPE
  5
14
100
AcDbSymbolTableRecord
100
AcDbLinetypeTableRecord
  2
BYBLOCK
 70
0
  3

 72
65
 73
0
 40
0.0
  0
LTYPE
  5
15
100
AcDbSymbolTableRecord
100
AcDbLinetypeTableRecord
  2
BYLAYER
 70
0
  3

 72
65
 73
0
 40
0.0
  0
LTYPE
  5
16
100
AcDbSymbolTableRecord
100
AcDbLinetypeTableRecord
  2
CONTINUOUS
 70
64
  3
Solid line
 72
65
 73
0
 40
0.0
  0
LTYPE
  5
1F5
100
AcDbSymbolTableRecord
100
AcDbLinetypeTableRecord
  2
CENTER
 70
64
  3
____ _ ____ _ ____ _ ____ _ ____ _ ____ _ ____
 72
65
 73
4
 40
0.6
 49
0.375
 74
0
 49
-0.075
 74
0
 49
0.075
 74
0
 49
-0.075
 74
0
  0
LTYPE
  5
1F6
100
AcDbSymbolTableRecord
100
AcDbLinetypeTableRecord
  2
HIDDEN
 70
64
  3
- - - - - - - - - - - - - - - - - - - -
 72
65
 73
2
 40
0.2
 49
0.1
 74
0
 49
-0.1
 74
0
  0
LTYPE
  5
1F7
100
AcDbSymbolTableRecord
100
AcDbLinetypeTableRecord
  2
PHANTOM
 70
64
  3
_____ _ _ _____ _ _ _____ _ _ _____
 72
65
 73
6
 40
0.8
 49
0.45
 74
0
 49
-0.05
 74
0
 49
0.1
 74
0
 49
-0.05
 74
0
 49
0.1
 74
0
 49
-0.05
 74
0
  0
LTYPE
  5
1F8
100
AcDbSymbolTableRecord
100
AcDbLinetypeTableRecord
  2
DOT
 70
64
  3
. . . . . . . . . . . . . . . . . . . .
 72
65
 73
2
 40
0.2
 49
0.1
 74
0
 49
-0.1
 74
0
  0
LTYPE
  5
1F9
100
AcDbSymbolTableRecord
100
AcDbLinetypeTableRecord
  2
DASHED
 70
64
  3
- - - - - - - - - - - - - - - - - - - -
 72
65
 73
2
 40
0.2
 49
0.1
 74
0
 49
-0.1
 74
0
  0
ENDTAB
  0
TABLE
  2
LAYER
  5
2
100
AcDbSymbolTable
 70
36
  0
LAYER
  5
10
100
AcDbSymbolTableRecord
100
AcDbLayerTableRecord
  2
0
 70
0
 62
7
  6
CONTINUOUS
370
-3
390
F
  0
LAYER
  5
1FA
100
AcDbSymbolTableRecord
100
AcDbLayerTableRecord
  2
DEFAULT_1
 70
0
 62
7
  6
CENTER
370
-3
390
F
  0
LAYER
  5
1FB
100
AcDbSymbolTableRecord
100
AcDbLayerTableRecord
  2
DEFAULT_2
 70
0
 62
8
  6
HIDDEN
370
-3
390
F
  0
LAYER
  5
1FC
100
AcDbSymbolTableRecord
100
AcDbLayerTableRecord
  2
DEFAULT_3
 70
0
 62
7
  6
PHANTOM
370
-3
390
F
  0
LAYER
  5
1FD
100
AcDbSymbolTableRecord
100
AcDbLayerTableRecord
  2
001-M31048-V51
 70
0
 62
7
  6
CONTINUOUS
370
-3
390
F
  0
LAYER
  5
1FE
100
AcDbSymbolTableRecord
100
AcDbLayerTableRecord
  2
001-M31048-V59
 70
0
 62
7
  6
CONTINUOUS
370
-3
390
F
  0
LAYER
  5
1FF
100
AcDbSymbolTableRecord
100
AcDbLayerTableRecord
  2
001-M31048-V90
 70
0
 62
7
  6
CONTINUOUS
370
-3
390
F
  0
LAYER
  5
200
100
AcDbSymbolTableRecord
100
AcDbLayerTableRecord
  2
001-M31048-V91
 70
0
 62
7
  6
CONTINUOUS
370
-3
390
F
  0
LAYER
  5
201
100
AcDbSymbolTableRecord
100
AcDbLayerTableRecord
  2
001-M34096-P-01
 70
0
 62
7
  6
CONTINUOUS
370
-3
390
F
  0
LAYER
  5
202
100
AcDbSymbolTableRecord
100
AcDbLayerTableRecord
  2
001-M34096-P-02
 70
0
 62
7
  6
CONTINUOUS
370
-3
390
F
  0
LAYER
  5
203
100
AcDbSymbolTableRecord
100
AcDbLayerTableRecord
  2
001-M34096-P-03
 70
0
 62
7
  6
CONTINUOUS
370
-3
390
F
  0
LAYER
  5
204
100
AcDbSymbolTableRecord
100
AcDbLayerTableRecord
  2
001-M34096-P-04
 70
0
 62
7
  6
CONTINUOUS
370
-3
390
F
  0
LAYER
  5
205
100
AcDbSymbolTableRecord
100
AcDbLayerTableRecord
  2
001-M34097-P-01
 70
0
 62
7
  6
CONTINUOUS
370
-3
390
F
  0
LAYER
  5
206
100
AcDbSymbolTableRecord
100
AcDbLayerTableRecord
  2
001-M34097-P-01_1
 70
0
 62
7
  6
CONTINUOUS
370
-3
390
F
  0
LAYER
  5
207
100
AcDbSymbolTableRecord
100
AcDbLayerTableRecord
  2
001-M34097-P-02
 70
0
 62
7
  6
CONTINUOUS
370
-3
390
F
  0
LAYER
  5
208
100
AcDbSymbolTableRecord
100
AcDbLayerTableRecord
  2
001-M34097-P-02_1
 70
0
 62
7
  6
CONTINUOUS
370
-3
390
F
  0
LAYER
  5
209
100
AcDbSymbolTableRecord
100
AcDbLayerTableRecord
  2
001-M34097-P-03
 70
0
 62
7
  6
CONTINUOUS
370
-3
390
F
  0
LAYER
  5
20A
100
AcDbSymbolTableRecord
100
AcDbLayerTableRecord
  2
001-M34097-P-04
 70
0
 62
7
  6
CONTINUOUS
370
-3
390
F
  0
LAYER
  5
20B
100
AcDbSymbolTableRecord
100
AcDbLayerTableRecord
  2
001-M34097-P-05
 70
0
 62
7
  6
CONTINUOUS
370
-3
390
F
  0
LAYER
  5
20C
100
AcDbSymbolTableRecord
100
AcDbLayerTableRecord
  2
001-M34100-P-1
 70
0
 62
7
  6
CONTINUOUS
370
-3
390
F
  0
LAYER
  5
20D
100
AcDbSymbolTableRecord
100
AcDbLayerTableRecord
  2
001-M34100-P-2
 70
0
 62
7
  6
CONTINUOUS
370
-3
390
F
  0
LAYER
  5
20E
100
AcDbSymbolTableRecord
100
AcDbLayerTableRecord
  2
001-M34100-P-3
 70
0
 62
7
  6
CONTINUOUS
370
-3
390
F
  0
LAYER
  5
20F
100
AcDbSymbolTableRecord
100
AcDbLayerTableRecord
  2
001-M34100-P-5
 70
0
 62
7
  6
CONTINUOUS
370
-3
390
F
  0
LAYER
  5
210
100
AcDbSymbolTableRecord
100
AcDbLayerTableRecord
  2
001-M34101-P-1
 70
0
 62
7
  6
CONTINUOUS
370
-3
390
F
  0
LAYER
  5
211
100
AcDbSymbolTableRecord
100
AcDbLayerTableRecord
  2
001-M34101-P-2
 70
0
 62
7
  6
CONTINUOUS
370
-3
390
F
  0
LAYER
  5
212
100
AcDbSymbolTableRecord
100
AcDbLayerTableRecord
  2
001-M34101-P-3
 70
0
 62
7
  6
CONTINUOUS
370
-3
390
F
  0
LAYER
  5
213
100
AcDbSymbolTableRecord
100
AcDbLayerTableRecord
  2
001-M34101-P-4
 70
0
 62
7
  6
CONTINUOUS
370
-3
390
F
  0
LAYER
  5
214
100
AcDbSymbolTableRecord
100
AcDbLayerTableRecord
  2
001-M34101-P-6
 70
0
 62
7
  6
CONTINUOUS
370
-3
390
F
  0
LAYER
  5
215
100
AcDbSymbolTableRecord
100
AcDbLayerTableRecord
  2
BEZUGSACHSEN
 70
0
 62
7
  6
CONTINUOUS
370
-3
390
F
  0
LAYER
  5
216
100
AcDbSymbolTableRecord
100
AcDbLayerTableRecord
  2
BEZUGSEBENEN
 70
0
 62
7
  6
CONTINUOUS
370
-3
390
F
  0
LAYER
  5
217
100
AcDbSymbolTableRecord
100
AcDbLayerTableRecord
  2
COLOR28
 70
0
 62
7
  6
CONTINUOUS
370
-3
390
F
  0
LAYER
  5
218
100
AcDbSymbolTableRecord
100
AcDbLayerTableRecord
  2
COLOR34
 70
0
 62
7
  6
CONTINUOUS
370
-3
390
F
  0
LAYER
  5
219
100
AcDbSymbolTableRecord
100
AcDbLayerTableRecord
  2
COLOR38
 70
0
 62
7
  6
CONTINUOUS
370
-3
390
F
  0
LAYER
  5
21A
100
AcDbSymbolTableRecord
100
AcDbLayerTableRecord
  2
COLOR39
 70
0
 62
7
  6
CONTINUOUS
370
-3
390
F
  0
LAYER
  5
21B
100
AcDbSymbolTableRecord
100
AcDbLayerTableRecord
  2
COLOR9
 70
0
 62
7
  6
CONTINUOUS
370
-3
390
F
  0
LAYER
  5
21C
100
AcDbSymbolTableRecord
100
AcDbLayerTableRecord
  2
FLAECHEN
 70
0
 62
7
  6
CONTINUOUS
370
-3
390
F
  0
LAYER
  5
21D
100
AcDbSymbolTableRecord
100
AcDbLayerTableRecord
  2
HILFEN
 70
0
 62
7
  6
CONTINUOUS
370
-3
390
F
  0
LAYER
  5
21E
100
AcDbSymbolTableRecord
100
AcDbLayerTableRecord
  2
INTF_BLANK
 70
0
 62
7
  6
CONTINUOUS
370
-3
390
F
  0
LAYER
  5
21F
100
AcDbSymbolTableRecord
100
AcDbLayerTableRecord
  2
KURVEN
 70
0
 62
7
  6
CONTINUOUS
370
-3
390
F
  0
LAYER
  5
220
100
AcDbSymbolTableRecord
100
AcDbLayerTableRecord
  2
PLATZIERUNG
 70
0
 62
7
  6
CONTINUOUS
370
-3
390
F
  0
LAYER
  5
221
100
AcDbSymbolTableRecord
100
AcDbLayerTableRecord
  2
RUNDUNGEN
 70
0
 62
7
  6
CONTINUOUS
370
-3
390
F
  0
LAYER
  5
222
100
AcDbSymbolTableRecord
100
AcDbLayerTableRecord
  2
T_STARTBEZUEGE
 70
0
 62
7
  6
CONTINUOUS
370
-3
390
F
  0
LAYER
  5
223
100
AcDbSymbolTableRecord
100
AcDbLayerTableRecord
  2
_BLACK_HOLE
 70
0
 62
7
  6
CONTINUOUS
370
-3
390
F
  0
LAYER
  5
224
100
AcDbSymbolTableRecord
100
AcDbLayerTableRecord
  2
___SHELL
 70
0
 62
7
  6
CONTINUOUS
370
-3
390
F
  0
ENDTAB
  0
TABLE
  2
STYLE
  5
3
100
AcDbSymbolTable
 70
1
  0
STYLE
  5
11
100
AcDbSymbolTableRecord
100
AcDbTextStyleTableRecord
  2
STANDARD
 70
0
 40
0.0
 41
0.7
 50
0.0
 71
0
 42
0.2
  3
txt
  4

  0
STYLE
  5
225
100
AcDbSymbolTableRecord
100
AcDbTextStyleTableRecord
  2
TEXTSTYLE_1
 70
0
 40
0.0
 41
0.8
 50
0.0
 71
0
 42
0.2
  3
gdt
  4

  0
ENDTAB
  0
TABLE
  2
VIEW
  5
6
100
AcDbSymbolTable
 70
0
  0
ENDTAB
  0
TABLE
  2
UCS
  5
7
100
AcDbSymbolTable
 70
0
  0
ENDTAB
  0
TABLE
  2
APPID
  5
9
100
AcDbSymbolTable
 70
1
  0
APPID
  5
226
100
AcDbSymbolTableRecord
100
AcDbRegAppTableRecord
  2
ACAD
 70
0
  0
ENDTAB
  0
TABLE
  2
BLOCK_RECORD
  5
1
100
AcDbSymbolTable
 70
0
  0
BLOCK_RECORD
  5
227
100
AcDbSymbolTableRecord
100
AcDbBlockTableRecord
  2
*Model_Space
  0
BLOCK_RECORD
  5
228
100
AcDbSymbolTableRecord
100
AcDbBlockTableRecord
  2
*Paper_Space
  0
ENDTAB
  0
TABLE
  2
DIMSTYLE
  5
A
100
AcDbSymbolTable
 70
1
100
AcDbDimStyleTable
 71
0
  0
DIMSTYLE
105
229
100
AcDbSymbolTableRecord
100
AcDbDimStyleTableRecord
  2
STANDARD
 70
0
  3

  4

 40
1.0
 41
3.5
 42
0.0625
 43
0.38
 44
0.18
 45
0.0
 46
0.0
 47
0.005
 48
0.005
140
3.5
141
0.09
142
0.0
143
25.4
144
1.0
145
0.0
146
1.0
147
0.09
 71
1.0
 72
0.0
 73
0
 74
0
 75
0
 76
0
 77
1
 78
8
170
0
171
2
172
0
173
0
174
0
175
0
176
0
177
0
178
5
270
2
271
3
272
3
273
2
274
2
275
0
280
0
281
0
282
0
283
1
284
8
285
0
286
0
287
3
288
0
340
11
  0
ENDTAB
  0
ENDSEC
  0
SECTION
  2
BLOCKS
  0
BLOCK
  5
20
100
AcDbEntity
  8
0
100
AcDbBlockBegin
  2
*Model_Space
 70
0
 10
0.0
 20
0.0
 30
0.0
  3
*Model_Space
  1

  0
ENDBLK
  5
21
100
AcDbEntity
  8
0
100
AcDbBlockEnd
  0
BLOCK
  5
1C
100
AcDbEntity
  8
0
100
AcDbBlockBegin
  2
*Paper_Space
 70
0
 10
0.0
 20
0.0
 30
0.0
  3
*Paper_Space
  1

  0
ENDBLK
  5
1D
100
AcDbEntity
  8
0
100
AcDbBlockEnd
  0
ENDSEC
  0
SECTION
  2
ENTITIES
  0
MTEXT
  5
22A
100
AcDbEntity
  8
0
100
AcDbMText
 62
5
  6
CONTINUOUS
  7
STANDARD
 71
1
 72
1
 10
309.2936579712
 20
363.5037262109
 30
0.0
 11
1.0
 21
0.0
 31
0.0
 44
0.9
  1
RUD VAK 1/2-28
 40
15.0
 41
166.7857142857
  0
MTEXT
  5
22B
100
AcDbEntity
  8
0
100
AcDbMText
 62
5
  6
CONTINUOUS
  7
STANDARD
 71
1
 72
1
 10
878.7831207998
 20
521.3639432425
 30
0.0
 11
0.0
 21
1.0
 31
0.0
 44
0.9
  1
RUD VAK 1/2-28
 40
15.0
 41
166.7857142857
  0
LINE
  5
22C
100
AcDbEntity
  8
0
100
AcDbLine
 62
7
  6
CONTINUOUS
 10
0.0
 20
0.0
 11
0.0
 21
841.0
  0
LINE
  5
22D
100
AcDbEntity
  8
0
100
AcDbLine
 62
7
  6
CONTINUOUS
 10
0.0
 20
0.0
 11
1189.0
 21
0.0
  0
LINE
  5
22E
100
AcDbEntity
  8
0
100
AcDbLine
 62
7
  6
CONTINUOUS
 10
0.0
 20
841.0
 11
1189.0
 21
841.0
  0
LINE
  5
22F
100
AcDbEntity
  8
0
100
AcDbLine
 62
7
  6
CONTINUOUS
 10
1189.0
 20
0.0
 11
1189.0
 21
841.0
  0
LINE
  5
230
100
AcDbEntity
  8
RUNDUNGEN
100
AcDbLine
 62
7
  6
CONTINUOUS
 10
320.3365045909
 20
264.2811056731
 11
458.5529910032
 21
264.2811056731
  0
LINE
  5
231
100
AcDbEntity
  8
0
100
AcDbLine
 62
7
  6
CONTINUOUS
 10
347.3582695083
 20
765.5071575775
 11
348.878005908
 21
765.9905374427
  0
LINE
  5
232
100
AcDbEntity
  8
0
100
AcDbLine
 62
7
  6
CONTINUOUS
 10
282.1392297166
 20
754.2629260559
 11
280.3506211243
 21
753.700338904
  0
LINE
  5
233
100
AcDbEntity
  8
0
100
AcDbLine
 62
7
  6
CONTINUOUS
 10
272.0037813111
 20
751.0749322847
 11
270.2151727188
 21
750.5123451328
  0
LINE
  5
234
100
AcDbEntity
  8
0
100
AcDbLine
 62
7
  6
CONTINUOUS
 10
279.4854929888
 20
737.7037088439
 11
281.8703043031
 21
738.4538250017
  0
LINE
  5
235
100
AcDbEntity
  8
0
100
AcDbLine
 62
7
  6
CONTINUOUS
 10
346.4939061212
 20
764.7728509237
 11
347.3582695083
 21
765.5071575775
  0
LINE
  5
236
100
AcDbEntity
  8
0
100
AcDbLine
 62
7
  6
CONTINUOUS
 10
346.8779655614
 20
767.0606588933
 11
345.7028763224
 21
766.2931450914
  0
LINE
  5
237
100
AcDbEntity
  8
0
100
AcDbLine
 62
7
  6
CONTINUOUS
 10
382.8678879062
 20
769.4109566775
 11
381.3166385497
 21
768.4353909924
  0
LINE
  5
238
100
AcDbEntity
  8
0
100
AcDbLine
 62
7
  6
CONTINUOUS
 10
368.2590071518
 20
768.8747976743
 11
367.0421740778
 21
768.1753483009
  0
LINE
  5
239
100
AcDbEntity
  8
0
100
AcDbLine
 62
7
  6
CONTINUOUS
 10
382.0121626825
 20
762.3792451912
 11
381.3909215406
 21
762.0528443909
  0
LINE
  5
23A
100
AcDbEntity
  8
0
100
AcDbLine
 62
7
  6
CONTINUOUS
 10
382.0307334277
 20
760.7836087643
 11
383.2732228637
 21
761.4364104482
  0
LINE
  5
23B
100
AcDbEntity
  8
0
100
AcDbLine
 62
7
  6
CONTINUOUS
 10
388.2617442009
 20
762.4519806737
 11
388.8829853429
 21
762.7783814741
  0
LINE
  5
23C
100
AcDbEntity
  8
0
100
AcDbLine
 62
7
  6
CONTINUOUS
 10
307.0432431544
 20
754.4617518261
 11
311.1828438346
 21
761.6223638791
  0
LINE
  5
23D
100
AcDbEntity
  8
0
100
AcDbLine
 62
7
  6
CONTINUOUS
 10
308.7451381931
 20
761.0677494488
 11
303.6698936357
 21
752.3850454599
  0
LINE
  5
23E
100
AcDbEntity
  8
0
100
AcDbLine
 62
7
  6
CONTINUOUS
 10
304.2363081346
 20
749.895474789
 11
305.8736856924
 21
752.5591363111
  0
LINE
  5
23F
100
AcDbEntity
  8
0
100
AcDbLine
 62
7
  6
CONTINUOUS
 10
353.0137434823
 20
762.5809262734
 11
345.1611465941
 21
753.7175656608
  0
LINE
  5
240
100
AcDbEntity
  8
0
100
AcDbLine
 62
7
  6
CONTINUOUS
 10
381.9601645858
 20
766.8470280805
 11
383.1989398728
 21
767.8189570498
  0
LINE
  5
241
100
AcDbEntity
  8
0
100
AcDbLine
 62
7
  6
CONTINUOUS
 10
381.3909215406
 20
762.0528443909
 11
380.1521462536
 21
761.0809154216
  0
LINE
  5
242
100
AcDbEntity
  8
0
100
AcDbLine
 62
7
  6
CONTINUOUS
 10
388.2394593067
 20
764.366744386
 11
387.0006840197
 21
763.3948154167
  0
LINE
  5
243
100
AcDbEntity
  8
0
100
AcDbLine
 62
7
  6
CONTINUOUS
 10
367.7454710206
 20
766.6125316419
 11
368.6501926974
 21
767.2964972947
  0
LINE
  5
244
100
AcDbEntity
  8
0
100
AcDbLine
 62
7
  6
CONTINUOUS
 10
387.7222071954
 20
755.1047786458
 11
389.273463703
 21
756.080344498
  0
LINE
  5
245
100
AcDbEntity
  8
0
100
AcDbLine
 62
7
  6
CONTINUOUS
 10
388.3211705931
 20
757.3459434372
 11
387.078681157
 21
756.6931417533
  0
LINE
  5
246
100
AcDbEntity
  8
RUNDUNGEN
100
AcDbLine
 62
7
  6
CONTINUOUS
 10
209.8516828988
 20
432.9064912456
 11
275.0211152391
 21
293.1501925861
  0
LINE
  5
247
100
AcDbEntity
  8
RUNDUNGEN
100
AcDbLine
 62
7
  6
CONTINUOUS
 10
167.1033461184
 20
603.6012529393
 11
209.2118035064
 21
434.713454907
  0
LINE
  5
248
100
AcDbEntity
  8
0
100
AcDbLine
 62
7
  6
CONTINUOUS
 10
331.2627187668
 20
765.2705177185
 11
329.7544467008
 21
762.7741860291
  0
LINE
  5
249
100
AcDbEntity
  8
0
100
AcDbLine
 62
7
  6
CONTINUOUS
 10
330.1479563462
 20
760.2515009613
 11
331.6562282745
 21
762.747833534
  0
LINE
  5
24A
100
AcDbEntity
  8
0
100
AcDbLine
 62
7
  6
CONTINUOUS
 10
345.7028763224
 20
766.2931450914
 11
344.5956083644
 21
764.8909468399
  0
LINE
  5
24B
100
AcDbEntity
  8
0
100
AcDbLine
 62
7
  6
CONTINUOUS
 10
367.0421740778
 20
768.1753483009
 11
365.8569606621
 21
766.8383847911
  0
LINE
  5
24C
100
AcDbEntity
  8
0
100
AcDbLine
 62
7
  6
CONTINUOUS
 10
347.6469889705
 20
753.9832266455
 11
354.6691437803
 21
761.7949395196
  0
LINE
  5
24D
100
AcDbEntity
  8
0
100
AcDbLine
 62
7
  6
CONTINUOUS
 10
381.3166385497
 20
768.4353909924
 11
380.3903444842
 21
767.4670988222
  0
LINE
  5
24E
100
AcDbEntity
  8
0
100
AcDbLine
 62
7
  6
CONTINUOUS
 10
388.8829853429
 20
762.7783814741
 11
389.8092794083
 21
763.7466736443
  0
LINE
  5
24F
100
AcDbEntity
  8
0
100
AcDbLine
 62
7
  6
CONTINUOUS
 10
374.1301124841
 20
764.0533977515
 11
365.7861998356
 21
755.6509242496
  0
LINE
  5
250
100
AcDbEntity
  8
0
100
AcDbLine
 62
7
  6
CONTINUOUS
 10
368.283126731
 20
755.7747957872
 11
375.7381382475
 21
763.1745470998
  0
LINE
  5
251
100
AcDbEntity
  8
0
100
AcDbLine
 62
7
  6
CONTINUOUS
 10
437.5072134601
 20
758.6780760415
 11
438.8640787549
 21
759.4768931816
  0
LINE
  5
252
100
AcDbEntity
  8
0
100
AcDbLine
 62
7
  6
CONTINUOUS
 10
345.9741898948
 20
763.7544103332
 11
346.4939061212
 21
764.7728509237
  0
LINE
  5
253
100
AcDbEntity
  8
0
100
AcDbLine
 62
7
  6
CONTINUOUS
 10
354.6691437803
 20
761.7949395196
 11
355.1888600067
 21
762.8133801101
  0
LINE
  5
254
100
AcDbEntity
  8
0
100
AcDbLine
 62
7
  6
CONTINUOUS
 10
367.1686812856
 20
765.6252931733
 11
367.7454710206
 21
766.6125316419
  0
LINE
  5
255
100
AcDbEntity
  8
0
100
AcDbLine
 62
7
  6
CONTINUOUS
 10
381.1081535164
 20
759.4961888618
 11
382.0307334277
 21
760.7836087643
  0
LINE
  5
256
100
AcDbEntity
  8
0
100
AcDbLine
 62
7
  6
CONTINUOUS
 10
389.273463703
 20
756.080344498
 11
390.1997577672
 21
757.04863678
  0
LINE
  5
257
100
AcDbEntity
  8
0
100
AcDbLine
 62
7
  6
CONTINUOUS
 10
438.1269841422
 20
761.1745380978
 11
437.4292097733
 21
760.6167316026
  0
LINE
  5
258
100
AcDbEntity
  8
0
100
AcDbLine
 62
7
  6
CONTINUOUS
 10
280.3506211243
 20
753.700338904
 11
280.1033413429
 21
739.9054309455
  0
LINE
  5
259
100
AcDbEntity
  8
0
100
AcDbLine
 62
7
  6
CONTINUOUS
 10
340.3292887239
 20
763.3562254807
 11
337.3824161063
 21
754.9016502301
  0
LINE
  5
25A
100
AcDbEntity
  8
0
100
AcDbLine
 62
7
  6
CONTINUOUS
 10
338.3975821453
 20
754.3959148844
 11
341.3444548837
 21
762.8504892491
  0
LINE
  5
25B
100
AcDbEntity
  8
0
100
AcDbLine
 62
7
  6
CONTINUOUS
 10
353.4995526242
 20
763.9167094688
 11
353.0137434823
 21
762.5809262734
  0
LINE
  5
25C
100
AcDbEntity
  8
0
100
AcDbLine
 62
7
  6
CONTINUOUS
 10
375.7381382475
 20
763.1745470998
 11
376.3149279825
 21
764.1617855684
  0
LINE
  5
25D
100
AcDbEntity
  8
0
100
AcDbLine
 62
7
  6
CONTINUOUS
 10
381.3463517523
 20
765.8823718154
 11
381.9601645858
 21
766.8470280805
  0
LINE
  5
25E
100
AcDbEntity
  8
0
100
AcDbLine
 62
7
  6
CONTINUOUS
 10
388.8532721507
 20
765.3313997571
 11
388.2394593067
 21
764.366744386
  0
LINE
  5
25F
100
AcDbEntity
  8
0
100
AcDbLine
 62
7
  6
CONTINUOUS
 10
389.2437505069
 20
758.6333631163
 11
388.3211705931
 21
757.3459434372
  0
LINE
  5
260
100
AcDbEntity
  8
0
100
AcDbLine
 62
7
  6
CONTINUOUS
 10
438.8640787549
 20
759.4768931816
 11
439.9494521503
 21
760.6303953053
  0
LINE
  5
261
100
AcDbEntity
  8
0
100
AcDbLine
 62
7
  6
CONTINUOUS
 10
281.8703043031
 20
738.4538250017
 11
282.1392297166
 21
754.2629260559
  0
LINE
  5
262
100
AcDbEntity
  8
0
100
AcDbLine
 62
7
  6
CONTINUOUS
 10
291.0309274874
 20
746.4803191409
 11
291.503199647
 21
755.5324004677
  0
LINE
  5
263
100
AcDbEntity
  8
0
100
AcDbLine
 62
7
  6
CONTINUOUS
 10
290.8516380093
 20
741.1432408068
 11
291.0615373612
 21
745.1663880744
  0
LINE
  5
264
100
AcDbEntity
  8
0
100
AcDbLine
 62
7
  6
CONTINUOUS
 10
289.9639667695
 20
756.4395694021
 11
289.0412876425
 21
740.6551255034
  0
LINE
  5
265
100
AcDbEntity
  8
0
100
AcDbLine
 62
7
  6
CONTINUOUS
 10
380.3903444842
 20
767.4670988222
 11
379.7839599487
 21
765.8641879864
  0
LINE
  5
266
100
AcDbEntity
  8
0
100
AcDbLine
 62
7
  6
CONTINUOUS
 10
380.1521462536
 20
761.0809154216
 11
379.5457617129
 21
759.4780050327
  0
LINE
  5
267
100
AcDbEntity
  8
0
100
AcDbLine
 62
7
  6
CONTINUOUS
 10
374.691095962
 20
765.3593934655
 11
374.1301124841
 21
764.0533977515
  0
LINE
  5
268
100
AcDbEntity
  8
0
100
AcDbLine
 62
7
  6
CONTINUOUS
 10
389.8092794083
 20
763.7466736443
 11
390.4193781032
 21
765.0304563007
  0
LINE
  5
269
100
AcDbEntity
  8
0
100
AcDbLine
 62
7
  6
CONTINUOUS
 10
495.3426067426
 20
746.9705937044
 11
488.0461301846
 21
741.1694543772
  0
LINE
  5
26A
100
AcDbEntity
  8
0
100
AcDbLine
 62
7
  6
CONTINUOUS
 10
502.5469913108
 20
752.4661596611
 11
496.6085539209
 21
747.9224236779
  0
LINE
  5
26B
100
AcDbEntity
  8
0
100
AcDbLine
 62
7
  6
CONTINUOUS
 10
489.8413981981
 20
740.628494342
 11
495.7798492848
 21
745.1722261979
  0
LINE
  5
26C
100
AcDbEntity
  8
0
100
AcDbLine
 62
7
  6
CONTINUOUS
 10
497.1378747561
 20
746.4296336692
 11
504.3422593243
 21
751.9251996258
  0
LINE
  5
26D
100
AcDbEntity
  8
0
100
AcDbLine
 62
7
  6
CONTINUOUS
 10
264.132918746
 20
627.7934424993
 11
271.1492861113
 21
599.6523300479
  0
LINE
  5
26E
100
AcDbEntity
  8
RUNDUNGEN
100
AcDbLine
 62
7
  6
CONTINUOUS
 10
264.132918746
 20
627.7934424993
 11
308.9266692155
 21
448.1355221749
  0
LINE
  5
26F
100
AcDbEntity
  8
0
100
AcDbLine
 62
7
  6
CONTINUOUS
 10
344.5956083644
 20
764.8909468399
 11
344.4205321865
 21
763.5883715527
  0
LINE
  5
270
100
AcDbEntity
  8
0
100
AcDbLine
 62
7
  6
CONTINUOUS
 10
365.8569606621
 20
766.8383847911
 11
365.6080957251
 21
765.5478731523
  0
LINE
  5
271
100
AcDbEntity
  8
0
100
AcDbLine
 62
7
  6
CONTINUOUS
 10
390.1997577672
 20
757.04863678
 11
390.8061423104
 21
758.6515469453
  0
LINE
  5
272
100
AcDbEntity
  8
0
100
AcDbLine
 62
7
  6
CONTINUOUS
 10
355.1888600067
 20
762.8133801101
 11
355.3639361845
 21
764.1159553973
  0
LINE
  5
273
100
AcDbEntity
  8
0
100
AcDbLine
 62
7
  6
CONTINUOUS
 10
376.3149279825
 20
764.1617855684
 11
376.5637929195
 21
765.4522972073
  0
LINE
  5
274
100
AcDbEntity
  8
0
100
AcDbLine
 62
7
  6
CONTINUOUS
 10
415.8278071107
 20
753.8219010023
 11
421.8558805406
 21
768.4390923549
  0
LINE
  5
275
100
AcDbEntity
  8
0
100
AcDbLine
 62
7
  6
CONTINUOUS
 10
419.9853936186
 20
768.5691064876
 11
414.7135867061
 21
755.8188622633
  0
LINE
  5
276
100
AcDbEntity
  8
0
100
AcDbLine
 62
7
  6
CONTINUOUS
 10
438.5532808112
 20
762.0870278419
 11
438.1269841422
 21
761.1745380978
  0
LINE
  5
277
100
AcDbEntity
  8
0
100
AcDbLine
 62
7
  6
CONTINUOUS
 10
439.9494521503
 20
760.6303953053
 11
440.3757488193
 21
761.5428850495
  0
LINE
  5
278
100
AcDbEntity
  8
0
100
AcDbLine
 62
7
  6
CONTINUOUS
 10
471.4208567153
 20
760.8026657247
 11
464.0850157859
 21
748.6440410543
  0
LINE
  5
279
100
AcDbEntity
  8
0
100
AcDbLine
 62
7
  6
CONTINUOUS
 10
464.9813466532
 20
746.8259332438
 11
471.6841848659
 21
757.4867696992
  0
LINE
  5
27A
100
AcDbEntity
  8
0
100
AcDbLine
 62
7
  6
CONTINUOUS
 10
478.1283621382
 20
749.0409399472
 11
482.9952059978
 21
756.6879686634
  0
LINE
  5
27B
100
AcDbEntity
  8
0
100
AcDbLine
 62
7
  6
CONTINUOUS
 10
475.3451969537
 20
744.4834671627
 11
477.5082340134
 21
747.8821476335
  0
LINE
  5
27C
100
AcDbEntity
  8
0
100
AcDbLine
 62
7
  6
CONTINUOUS
 10
482.1018911255
 20
758.235291735
 11
473.5290875266
 21
744.9496983809
  0
LINE
  5
27D
100
AcDbEntity
  8
0
100
AcDbLine
 62
7
  6
CONTINUOUS
 10
345.1611465941
 20
753.7175656608
 11
345.3307176006
 21
752.1308562147
  0
LINE
  5
27E
100
AcDbEntity
  8
0
100
AcDbLine
 62
7
  6
CONTINUOUS
 10
568.8106949237
 20
538.7527962867
 11
570.2005716451
 21
539.0503949251
  0
LINE
  5
27F
100
AcDbEntity
  8
0
100
AcDbLine
 62
7
  6
CONTINUOUS
 10
300.2131736789
 20
759.1266001329
 11
303.5408586739
 21
744.5003732587
  0
LINE
  5
280
100
AcDbEntity
  8
0
100
AcDbLine
 62
7
  6
CONTINUOUS
 10
305.3691370332
 20
744.9163338831
 11
304.2363081346
 21
749.895474789
  0
LINE
  5
281
100
AcDbEntity
  8
0
100
AcDbLine
 62
7
  6
CONTINUOUS
 10
303.6698936357
 20
752.3850454599
 11
302.0414520382
 21
759.5425607572
  0
LINE
  5
282
100
AcDbEntity
  8
0
100
AcDbLine
 62
7
  6
CONTINUOUS
 10
329.7544467008
 20
762.7741860291
 11
330.1479563462
 21
760.2515009613
  0
LINE
  5
283
100
AcDbEntity
  8
0
100
AcDbLine
 62
7
  6
CONTINUOUS
 10
331.6562282745
 20
762.747833534
 11
333.5745873998
 21
750.449746368
  0
LINE
  5
284
100
AcDbEntity
  8
0
100
AcDbLine
 62
7
  6
CONTINUOUS
 10
353.4317241361
 20
764.5513940473
 11
353.4995526242
 21
763.9167094688
  0
LINE
  5
285
100
AcDbEntity
  8
0
100
AcDbLine
 62
7
  6
CONTINUOUS
 10
356.5170189625
 20
753.3263317859
 11
356.3474479559
 21
754.913041232
  0
LINE
  5
286
100
AcDbEntity
  8
0
100
AcDbLine
 62
7
  6
CONTINUOUS
 10
355.3639361845
 20
764.1159553973
 11
355.2961076964
 21
764.7506399758
  0
LINE
  5
287
100
AcDbEntity
  8
0
100
AcDbLine
 62
7
  6
CONTINUOUS
 10
358.4672375368
 20
760.509170842
 11
358.5908771941
 21
758.9182229669
  0
LINE
  5
288
100
AcDbEntity
  8
0
100
AcDbLine
 62
7
  6
CONTINUOUS
 10
362.9527228726
 20
759.2572014547
 11
362.8290832153
 21
760.8481493297
  0
LINE
  5
289
100
AcDbEntity
  8
0
100
AcDbLine
 62
7
  6
CONTINUOUS
 10
365.7861998356
 20
755.6509242496
 11
365.8652668515
 21
754.0571395717
  0
LINE
  5
28A
100
AcDbEntity
  8
0
100
AcDbLine
 62
7
  6
CONTINUOUS
 10
374.6594691157
 20
765.9969081404
 11
374.691095962
 21
765.3593934655
  0
LINE
  5
28B
100
AcDbEntity
  8
0
100
AcDbLine
 62
7
  6
CONTINUOUS
 10
377.1014485967
 20
754.6145620222
 11
377.0223815808
 21
756.2083467002
  0
LINE
  5
28C
100
AcDbEntity
  8
0
100
AcDbLine
 62
7
  6
CONTINUOUS
 10
376.5637929195
 20
765.4522972073
 11
376.5321660733
 21
766.0898118821
  0
LINE
  5
28D
100
AcDbEntity
  8
0
100
AcDbLine
 62
7
  6
CONTINUOUS
 10
379.5457617129
 20
759.4780050327
 11
379.5569041599
 21
758.5206231766
  0
LINE
  5
28E
100
AcDbEntity
  8
0
100
AcDbLine
 62
7
  6
CONTINUOUS
 10
379.7839599487
 20
765.8641879864
 11
379.7951023958
 21
764.9068061302
  0
LINE
  5
28F
100
AcDbEntity
  8
0
100
AcDbLine
 62
7
  6
CONTINUOUS
 10
381.1192959635
 20
758.5388070056
 11
381.1081535164
 21
759.4961888618
  0
LINE
  5
290
100
AcDbEntity
  8
0
100
AcDbLine
 62
7
  6
CONTINUOUS
 10
381.3537800503
 20
765.2441172446
 11
381.3463517523
 21
765.8823718154
  0
LINE
  5
291
100
AcDbEntity
  8
0
100
AcDbLine
 62
7
  6
CONTINUOUS
 10
388.8458438526
 20
765.9696543278
 11
388.8532721507
 21
765.3313997571
  0
LINE
  5
292
100
AcDbEntity
  8
0
100
AcDbLine
 62
7
  6
CONTINUOUS
 10
389.2326080598
 20
759.5907449724
 11
389.2437505069
 21
758.6333631163
  0
LINE
  5
293
100
AcDbEntity
  8
0
100
AcDbLine
 62
7
  6
CONTINUOUS
 10
567.2682218277
 20
565.5468519681
 11
565.878345107
 21
565.2492524082
  0
LINE
  5
294
100
AcDbEntity
  8
0
100
AcDbLine
 62
7
  6
CONTINUOUS
 10
571.536646957
 20
535.1745392778
 11
563.7338580845
 21
534.2213922115
  0
LINE
  5
295
100
AcDbEntity
  8
0
100
AcDbLine
 62
7
  6
CONTINUOUS
 10
563.8995920459
 20
532.2476690781
 11
571.0074426662
 21
533.0520167983
  0
LINE
  5
296
100
AcDbEntity
  8
0
100
AcDbLine
 62
7
  6
CONTINUOUS
 10
558.8547567469
 20
535.7599552557
 11
559.8593637029
 21
535.8315450617
  0
LINE
  5
297
100
AcDbEntity
  8
0
100
AcDbLine
 62
7
  6
CONTINUOUS
 10
560.3129672571
 20
537.6508495485
 11
559.3083603012
 21
537.5792597424
  0
LINE
  5
298
100
AcDbEntity
  8
0
100
AcDbLine
 62
7
  6
CONTINUOUS
 10
335.4271838186
 20
750.7387299471
 11
333.1153151857
 21
765.5595012976
  0
LINE
  5
299
100
AcDbEntity
  8
0
100
AcDbLine
 62
7
  6
CONTINUOUS
 10
390.4193781032
 20
765.0304563007
 11
390.4082356562
 21
765.9878381568
  0
LINE
  5
29A
100
AcDbEntity
  8
0
100
AcDbLine
 62
7
  6
CONTINUOUS
 10
390.8061423104
 20
758.6515469453
 11
390.7949998634
 21
759.6089288014
  0
LINE
  5
29B
100
AcDbEntity
  8
0
100
AcDbLine
 62
7
  6
CONTINUOUS
 10
424.7412915814
 20
768.1285253838
 11
423.3017002073
 21
753.1977659699
  0
LINE
  5
29C
100
AcDbEntity
  8
0
100
AcDbLine
 62
7
  6
CONTINUOUS
 10
425.168045134
 20
753.0178170481
 11
426.6076365081
 21
767.948576462
  0
LINE
  5
29D
100
AcDbEntity
  8
0
100
AcDbLine
 62
7
  6
CONTINUOUS
 10
429.4790159202
 20
767.6967823338
 11
427.6602265051
 21
752.8074571286
  0
LINE
  5
29E
100
AcDbEntity
  8
0
100
AcDbLine
 62
7
  6
CONTINUOUS
 10
429.5213921557
 20
752.5801084518
 11
430.334042757
 21
759.2327857655
  0
LINE
  5
29F
100
AcDbEntity
  8
0
100
AcDbLine
 62
7
  6
CONTINUOUS
 10
430.5662286121
 20
761.1335504587
 11
431.1466933582
 21
765.8854630792
  0
LINE
  5
2A0
100
AcDbEntity
  8
0
100
AcDbLine
 62
7
  6
CONTINUOUS
 10
438.6693738472
 20
763.0374110759
 11
438.5532808112
 21
762.0870278419
  0
LINE
  5
2A1
100
AcDbEntity
  8
0
100
AcDbLine
 62
7
  6
CONTINUOUS
 10
440.3757488193
 20
761.5428850495
 11
440.5305394978
 21
762.8100623991
  0
LINE
  5
2A2
100
AcDbEntity
  8
0
100
AcDbLine
 62
7
  6
CONTINUOUS
 10
459.4921996574
 20
763.3011246585
 11
456.4171732774
 21
748.6197005871
  0
LINE
  5
2A3
100
AcDbEntity
  8
0
100
AcDbLine
 62
7
  6
CONTINUOUS
 10
458.2523512863
 20
748.2353222896
 11
460.6731168124
 21
759.7930394841
  0
LINE
  5
2A4
100
AcDbEntity
  8
0
100
AcDbLine
 62
7
  6
CONTINUOUS
 10
566.0440791765
 20
563.2755297086
 11
567.1242879529
 21
563.6503381586
  0
LINE
  5
2A5
100
AcDbEntity
  8
0
100
AcDbLine
 62
7
  6
CONTINUOUS
 10
568.9546294498
 20
540.6493090124
 11
567.6403538982
 21
540.6549291802
  0
LINE
  5
2A6
100
AcDbEntity
  8
0
100
AcDbLine
 62
7
  6
CONTINUOUS
 10
567.1867501277
 20
538.835623826
 11
568.8106949237
 21
538.7527962867
  0
LINE
  5
2A7
100
AcDbEntity
  8
0
100
AcDbLine
 62
7
  6
CONTINUOUS
 10
471.6841848659
 20
757.4867696992
 11
469.2634193398
 21
745.9290525047
  0
LINE
  5
2A8
100
AcDbEntity
  8
0
100
AcDbLine
 62
7
  6
CONTINUOUS
 10
471.0985973487
 20
745.5446742072
 11
474.1736237287
 21
760.2260982785
  0
LINE
  5
2A9
100
AcDbEntity
  8
0
100
AcDbLine
 62
7
  6
CONTINUOUS
 10
507.0872793537
 20
750.9834386391
 11
502.3773740202
 21
736.7420625908
  0
LINE
  5
2AA
100
AcDbEntity
  8
0
100
AcDbLine
 62
7
  6
CONTINUOUS
 10
504.1575460262
 20
736.1533244241
 11
508.8674513597
 21
750.3947004724
  0
LINE
  5
2AB
100
AcDbEntity
  8
0
100
AcDbLine
 62
7
  6
CONTINUOUS
 10
570.0348373586
 20
541.0241176787
 11
568.9546294498
 21
540.6493090124
  0
LINE
  5
2AC
100
AcDbEntity
  8
0
100
AcDbLine
 62
7
  6
CONTINUOUS
 10
567.1242879529
 20
563.6503381586
 11
568.4385635044
 21
563.6447179908
  0
LINE
  5
2AD
100
AcDbEntity
  8
0
100
AcDbLine
 62
7
  6
CONTINUOUS
 10
568.8921670587
 20
565.4640224775
 11
567.2682218277
 21
565.5468519681
  0
LINE
  5
2AE
100
AcDbEntity
  8
0
100
AcDbLine
 62
7
  6
CONTINUOUS
 10
554.1093884805
 20
527.2811056731
 11
568.6638243746
 21
523.6522772392
  0
LINE
  5
2AF
100
AcDbEntity
  8
0
100
AcDbLine
 62
7
  6
CONTINUOUS
 10
569.1174279289
 20
525.4715817259
 11
562.6143820116
 21
527.0929731769
  0
LINE
  5
2B0
100
AcDbEntity
  8
0
100
AcDbLine
 62
7
  6
CONTINUOUS
 10
560.7563691402
 20
527.5562278154
 11
556.1113360942
 21
528.7143646278
  0
LINE
  5
2B1
100
AcDbEntity
  8
0
100
AcDbLine
 62
7
  6
CONTINUOUS
 10
559.8593637029
 20
535.8315450617
 11
560.7883710061
 21
535.5999175262
  0
LINE
  5
2B2
100
AcDbEntity
  8
0
100
AcDbLine
 62
7
  6
CONTINUOUS
 10
280.1033413429
 20
739.9054309455
 11
272.0037813111
 21
751.0749322847
  0
LINE
  5
2B3
100
AcDbEntity
  8
0
100
AcDbLine
 62
7
  6
CONTINUOUS
 10
270.2151727188
 20
750.5123451328
 11
279.4854929888
 21
737.7037088439
  0
LINE
  5
2B4
100
AcDbEntity
  8
0
100
AcDbLine
 62
7
  6
CONTINUOUS
 10
301.1102906634
 20
743.9092276808
 11
292.3777666831
 21
757.0903896513
  0
LINE
  5
2B5
100
AcDbEntity
  8
0
100
AcDbLine
 62
7
  6
CONTINUOUS
 10
297.0960380084
 20
746.7934389304
 11
299.2999402966
 21
743.4211123775
  0
LINE
  5
2B6
100
AcDbEntity
  8
0
100
AcDbLine
 62
7
  6
CONTINUOUS
 10
291.503199647
 20
755.5324004677
 11
296.4619785879
 21
747.9446650509
  0
LINE
  5
2B7
100
AcDbEntity
  8
0
100
AcDbLine
 62
7
  6
CONTINUOUS
 10
355.2961076964
 20
764.7506399758
 11
354.8497179461
 21
765.9867994468
  0
LINE
  5
2B8
100
AcDbEntity
  8
0
100
AcDbLine
 62
7
  6
CONTINUOUS
 10
565.878345107
 20
565.2492524082
 11
564.3372677783
 21
564.3452203326
  0
LINE
  5
2B9
100
AcDbEntity
  8
0
100
AcDbLine
 62
7
  6
CONTINUOUS
 10
559.3083603012
 20
537.5792597424
 11
557.8428832765
 21
536.9784439247
  0
LINE
  5
2BA
100
AcDbEntity
  8
0
100
AcDbLine
 62
7
  6
CONTINUOUS
 10
561.5516433722
 20
537.3420129066
 11
560.3129672571
 21
537.6508495485
  0
LINE
  5
2BB
100
AcDbEntity
  8
0
100
AcDbLine
 62
7
  6
CONTINUOUS
 10
557.5870156576
 20
541.2291064492
 11
567.1867501277
 21
538.835623826
  0
LINE
  5
2BC
100
AcDbEntity
  8
0
100
AcDbLine
 62
7
  6
CONTINUOUS
 10
567.6403538982
 20
540.6549291802
 11
558.0406194282
 21
543.0484118035
  0
LINE
  5
2BD
100
AcDbEntity
  8
0
100
AcDbLine
 62
7
  6
CONTINUOUS
 10
559.8550336452
 20
550.3256297505
 11
569.4547681152
 21
547.9321471273
  0
LINE
  5
2BE
100
AcDbEntity
  8
0
100
AcDbLine
 62
7
  6
CONTINUOUS
 10
569.9083716695
 20
549.7514516141
 11
560.3086371994
 21
552.1449342373
  0
LINE
  5
2BF
100
AcDbEntity
  8
0
100
AcDbLine
 62
7
  6
CONTINUOUS
 10
560.9134417942
 20
554.5706729747
 11
575.4678776884
 21
550.9418445407
  0
LINE
  5
2C0
100
AcDbEntity
  8
0
100
AcDbLine
 62
7
  6
CONTINUOUS
 10
574.0634681544
 20
553.22440372
 11
563.2250582199
 21
555.9267228229
  0
LINE
  5
2C1
100
AcDbEntity
  8
0
100
AcDbLine
 62
7
  6
CONTINUOUS
 10
376.5321660733
 20
766.0898118821
 11
376.1567939286
 21
767.3493553708
  0
LINE
  5
2C2
100
AcDbEntity
  8
0
100
AcDbLine
 62
7
  6
CONTINUOUS
 10
565.1979397756
 20
562.520295678
 11
566.0440791765
 21
563.2755297086
  0
LINE
  5
2C3
100
AcDbEntity
  8
0
100
AcDbLine
 62
7
  6
CONTINUOUS
 10
558.0842178663
 20
535.3079383504
 11
558.8547567469
 21
535.7599552557
  0
LINE
  5
2C4
100
AcDbEntity
  8
0
100
AcDbLine
 62
7
  6
CONTINUOUS
 10
570.2005716451
 20
539.0503949251
 11
571.7416490822
 21
539.9544269735
  0
LINE
  5
2C5
100
AcDbEntity
  8
0
100
AcDbLine
 62
7
  6
CONTINUOUS
 10
568.4385635044
 20
563.6447179908
 11
573.0835961166
 21
562.4865812864
  0
LINE
  5
2C6
100
AcDbEntity
  8
0
100
AcDbLine
 62
7
  6
CONTINUOUS
 10
573.5371996709
 20
564.3058857732
 11
568.8921670587
 21
565.4640224775
  0
LINE
  5
2C7
100
AcDbEntity
  8
0
100
AcDbLine
 62
7
  6
CONTINUOUS
 10
379.5569041599
 20
758.5206231766
 11
380.2004301987
 21
756.9322600412
  0
LINE
  5
2C8
100
AcDbEntity
  8
0
100
AcDbLine
 62
7
  6
CONTINUOUS
 10
390.7949998634
 20
759.6089288014
 11
390.1514738221
 21
761.1972921603
  0
LINE
  5
2C9
100
AcDbEntity
  8
0
100
AcDbLine
 62
7
  6
CONTINUOUS
 10
390.4082356562
 20
765.9878381568
 11
389.7647096096
 21
767.5762019628
  0
LINE
  5
2CA
100
AcDbEntity
  8
0
100
AcDbLine
 62
7
  6
CONTINUOUS
 10
414.7135867061
 20
755.8188622633
 11
411.2564594063
 21
769.1758387762
  0
LINE
  5
2CB
100
AcDbEntity
  8
0
100
AcDbLine
 62
7
  6
CONTINUOUS
 10
409.3859724843
 20
769.3058529089
 11
413.3338197912
 21
753.9952535098
  0
LINE
  5
2CC
100
AcDbEntity
  8
0
100
AcDbLine
 62
7
  6
CONTINUOUS
 10
438.4752630332
 20
764.0256860251
 11
438.6693738472
 21
763.0374110759
  0
LINE
  5
2CD
100
AcDbEntity
  8
0
100
AcDbLine
 62
7
  6
CONTINUOUS
 10
440.5305394978
 20
762.8100623991
 11
440.3364286839
 21
763.7983373482
  0
LINE
  5
2CE
100
AcDbEntity
  8
0
100
AcDbLine
 62
7
  6
CONTINUOUS
 10
485.6364790887
 20
741.8414914455
 11
484.5233749803
 21
757.6136489251
  0
LINE
  5
2CF
100
AcDbEntity
  8
0
100
AcDbLine
 62
7
  6
CONTINUOUS
 10
483.5619367224
 20
746.3280423873
 11
483.8203696616
 21
742.3077226637
  0
LINE
  5
2D0
100
AcDbEntity
  8
0
100
AcDbLine
 62
7
  6
CONTINUOUS
 10
482.9952059978
 20
756.6879686634
 11
483.5766904195
 21
747.6422462927
  0
LINE
  5
2D1
100
AcDbEntity
  8
RUNDUNGEN
100
AcDbLine
 62
7
  6
CONTINUOUS
 10
469.9628272138
 20
448.1355255245
 11
514.7565768481
 21
627.7934424993
  0
LINE
  5
2D2
100
AcDbEntity
  8
0
100
AcDbLine
 62
7
  6
CONTINUOUS
 10
507.7402094828
 20
599.6523300479
 11
514.7565768481
 21
627.7934424993
  0
LINE
  5
2D3
100
AcDbEntity
  8
0
100
AcDbLine
 62
7
  6
CONTINUOUS
 10
564.3372677783
 20
564.3452203326
 11
563.4155280734
 21
563.2867700443
  0
LINE
  5
2D4
100
AcDbEntity
  8
0
100
AcDbLine
 62
7
  6
CONTINUOUS
 10
570.8809769764
 20
541.7793516552
 11
570.0348373586
 21
541.0241176787
  0
LINE
  5
2D5
100
AcDbEntity
  8
0
100
AcDbLine
 62
7
  6
CONTINUOUS
 10
557.8428832765
 20
536.9784439247
 11
556.6114745434
 21
535.9972018753
  0
LINE
  5
2D6
100
AcDbEntity
  8
0
100
AcDbLine
 62
7
  6
CONTINUOUS
 10
571.3811149924
 20
549.0621880892
 11
569.9083716695
 21
549.7514516141
  0
LINE
  5
2D7
100
AcDbEntity
  8
0
100
AcDbLine
 62
7
  6
CONTINUOUS
 10
575.0099434264
 20
563.6166239833
 11
573.5371996709
 21
564.3058857732
  0
LINE
  5
2D8
100
AcDbEntity
  8
0
100
AcDbLine
 62
7
  6
CONTINUOUS
 10
569.4547681152
 20
547.9321471273
 11
570.6178426262
 21
547.3200927088
  0
LINE
  5
2D9
100
AcDbEntity
  8
0
100
AcDbLine
 62
7
  6
CONTINUOUS
 10
573.0835961166
 20
562.4865812864
 11
574.2466710602
 21
561.874528603
  0
LINE
  5
2DA
100
AcDbEntity
  8
0
100
AcDbLine
 62
7
  6
CONTINUOUS
 10
560.7883710061
 20
535.5999175262
 11
561.6417769215
 21
535.0650730817
  0
LINE
  5
2DB
100
AcDbEntity
  8
0
100
AcDbLine
 62
7
  6
CONTINUOUS
 10
562.4050492876
 20
536.807168462
 11
561.5516433722
 21
537.3420129066
  0
LINE
  5
2DC
100
AcDbEntity
  8
0
100
AcDbLine
 62
7
  6
CONTINUOUS
 10
305.8736856924
 20
752.5591363111
 11
312.0728231881
 21
746.4415225747
  0
LINE
  5
2DD
100
AcDbEntity
  8
0
100
AcDbLine
 62
7
  6
CONTINUOUS
 10
314.5105288295
 20
746.996137005
 11
307.0432431544
 21
754.4617518261
  0
LINE
  5
2DE
100
AcDbEntity
  8
0
100
AcDbLine
 62
7
  6
CONTINUOUS
 10
379.7951023958
 20
764.9068061302
 11
380.4349142829
 21
763.6375705037
  0
LINE
  5
2DF
100
AcDbEntity
  8
0
100
AcDbLine
 62
7
  6
CONTINUOUS
 10
460.6731168124
 20
759.7930394841
 11
462.5344379742
 21
747.338438618
  0
LINE
  5
2E0
100
AcDbEntity
  8
0
100
AcDbLine
 62
7
  6
CONTINUOUS
 10
464.0850157859
 20
748.6440410543
 11
462.2449666708
 21
762.7245572122
  0
LINE
  5
2E1
100
AcDbEntity
  8
0
100
AcDbLine
 62
7
  6
CONTINUOUS
 10
563.4155280734
 20
563.2867700443
 11
562.7278560112
 21
561.8478909217
  0
LINE
  5
2E2
100
AcDbEntity
  8
0
100
AcDbLine
 62
7
  6
CONTINUOUS
 10
564.5858688826
 20
561.3846362833
 11
565.1979397756
 21
562.520295678
  0
LINE
  5
2E3
100
AcDbEntity
  8
0
100
AcDbLine
 62
7
  6
CONTINUOUS
 10
557.5477472773
 20
534.4754952134
 11
558.0842178663
 21
535.3079383504
  0
LINE
  5
2E4
100
AcDbEntity
  8
0
100
AcDbLine
 62
7
  6
CONTINUOUS
 10
571.7416490822
 20
539.9544269735
 11
572.663389301
 21
541.0128789766
  0
LINE
  5
2E5
100
AcDbEntity
  8
0
100
AcDbLine
 62
7
  6
CONTINUOUS
 10
572.4685894163
 20
548.1469173589
 11
571.3811149924
 21
549.0621880892
  0
LINE
  5
2E6
100
AcDbEntity
  8
0
100
AcDbLine
 62
7
  6
CONTINUOUS
 10
563.4169227581
 20
535.588679793
 11
562.4050492876
 21
536.807168462
  0
LINE
  5
2E7
100
AcDbEntity
  8
0
100
AcDbLine
 62
7
  6
CONTINUOUS
 10
352.7085156183
 20
765.4370037654
 11
353.4317241361
 21
764.5513940473
  0
LINE
  5
2E8
100
AcDbEntity
  8
0
100
AcDbLine
 62
7
  6
CONTINUOUS
 10
382.0715890747
 20
757.2732079547
 11
381.1192959635
 21
758.5388070056
  0
LINE
  5
2E9
100
AcDbEntity
  8
0
100
AcDbLine
 62
7
  6
CONTINUOUS
 10
388.280314946
 20
760.8563442469
 11
389.2326080598
 21
759.5907449724
  0
LINE
  5
2EA
100
AcDbEntity
  8
0
100
AcDbLine
 62
7
  6
CONTINUOUS
 10
373.9877918311
 20
766.922210663
 11
374.6594691157
 21
765.9969081404
  0
LINE
  5
2EB
100
AcDbEntity
  8
0
100
AcDbLine
 62
7
  6
CONTINUOUS
 10
381.9898777884
 20
764.2940089035
 11
381.3537800503
 21
765.2441172446
  0
LINE
  5
2EC
100
AcDbEntity
  8
0
100
AcDbLine
 62
7
  6
CONTINUOUS
 10
388.2097461041
 20
766.919763563
 11
388.8458438526
 21
765.9696543278
  0
LINE
  5
2ED
100
AcDbEntity
  8
0
100
AcDbLine
 62
7
  6
CONTINUOUS
 10
562.7278560112
 20
561.8478909217
 11
560.9134417942
 21
554.5706729747
  0
LINE
  5
2EE
100
AcDbEntity
  8
0
100
AcDbLine
 62
7
  6
CONTINUOUS
 10
560.3086371994
 20
552.1449342373
 11
559.8550336452
 21
550.3256297505
  0
LINE
  5
2EF
100
AcDbEntity
  8
0
100
AcDbLine
 62
7
  6
CONTINUOUS
 10
558.0406194282
 20
543.0484118035
 11
557.5870156576
 21
541.2291064492
  0
LINE
  5
2F0
100
AcDbEntity
  8
0
100
AcDbLine
 62
7
  6
CONTINUOUS
 10
555.9238026975
 20
534.5583236202
 11
554.1093884805
 21
527.2811056731
  0
LINE
  5
2F1
100
AcDbEntity
  8
0
100
AcDbLine
 62
7
  6
CONTINUOUS
 10
556.1113360942
 20
528.7143646278
 11
557.5477472773
 21
534.4754952134
  0
LINE
  5
2F2
100
AcDbEntity
  8
0
100
AcDbLine
 62
7
  6
CONTINUOUS
 10
563.2250582199
 20
555.9267228229
 11
564.5858688826
 21
561.3846362833
  0
LINE
  5
2F3
100
AcDbEntity
  8
0
100
AcDbLine
 62
7
  6
CONTINUOUS
 10
556.6114745434
 20
535.9972018753
 11
555.9238026975
 21
534.5583236202
  0
LINE
  5
2F4
100
AcDbEntity
  8
0
100
AcDbLine
 62
7
  6
CONTINUOUS
 10
572.663389301
 20
541.0128789766
 11
573.3510609577
 21
542.4517563574
  0
LINE
  5
2F5
100
AcDbEntity
  8
0
100
AcDbLine
 62
7
  6
CONTINUOUS
 10
571.4930478694
 20
542.91501105
 11
570.8809769764
 21
541.7793516552
  0
LINE
  5
2F6
100
AcDbEntity
  8
0
100
AcDbLine
 62
7
  6
CONTINUOUS
 10
354.8497179461
 20
765.9867994468
 11
353.4711364156
 21
767.1233359536
  0
LINE
  5
2F7
100
AcDbEntity
  8
0
100
AcDbLine
 62
7
  6
CONTINUOUS
 10
576.0974174177
 20
562.701351518
 11
575.0099434264
 21
563.6166239833
  0
LINE
  5
2F8
100
AcDbEntity
  8
0
100
AcDbLine
 62
7
  6
CONTINUOUS
 10
380.2004301987
 20
756.9322600412
 11
381.1490091596
 21
755.9857883874
  0
LINE
  5
2F9
100
AcDbEntity
  8
0
100
AcDbLine
 62
7
  6
CONTINUOUS
 10
380.4349142829
 20
763.6375705037
 11
381.3834932425
 21
762.6910989616
  0
LINE
  5
2FA
100
AcDbEntity
  8
0
100
AcDbLine
 62
7
  6
CONTINUOUS
 10
570.6178426262
 20
547.3200927088
 11
571.3956480214
 21
546.482031139
  0
LINE
  5
2FB
100
AcDbEntity
  8
0
100
AcDbLine
 62
7
  6
CONTINUOUS
 10
574.2466710602
 20
561.874528603
 11
575.0244760228
 21
561.0364652981
  0
LINE
  5
2FC
100
AcDbEntity
  8
0
100
AcDbLine
 62
7
  6
CONTINUOUS
 10
561.6417769215
 20
535.0650730817
 11
562.1099132884
 21
534.3042197508
  0
LINE
  5
2FD
100
AcDbEntity
  8
0
100
AcDbLine
 62
7
  6
CONTINUOUS
 10
440.3364286839
 20
763.7983373482
 11
439.5606364286
 21
765.1791881488
  0
LINE
  5
2FE
100
AcDbEntity
  8
0
100
AcDbLine
 62
7
  6
CONTINUOUS
 10
562.1099132884
 20
534.3042197508
 11
562.1927803232
 21
533.317358401
  0
LINE
  5
2FF
100
AcDbEntity
  8
0
100
AcDbLine
 62
7
  6
CONTINUOUS
 10
571.7881840849
 20
545.4179606287
 11
571.7954503831
 21
544.1278812861
  0
LINE
  5
300
100
AcDbEntity
  8
0
100
AcDbLine
 62
7
  6
CONTINUOUS
 10
575.4170120863
 20
559.9723947879
 11
575.4242788171
 21
558.6823171803
  0
LINE
  5
301
100
AcDbEntity
  8
0
100
AcDbLine
 62
7
  6
CONTINUOUS
 10
573.6534634714
 20
543.6646265936
 11
573.7217974501
 21
545.2579222007
  0
LINE
  5
302
100
AcDbEntity
  8
0
100
AcDbLine
 62
7
  6
CONTINUOUS
 10
577.2822919054
 20
558.2190624877
 11
577.3506263166
 21
559.8123598299
  0
LINE
  5
303
100
AcDbEntity
  8
0
100
AcDbLine
 62
7
  6
CONTINUOUS
 10
562.1927803232
 20
533.317358401
 11
560.7563691402
 21
527.5562278154
  0
LINE
  5
304
100
AcDbEntity
  8
0
100
AcDbLine
 62
7
  6
CONTINUOUS
 10
562.6143820116
 20
527.0929731769
 11
563.8995920459
 21
532.2476690781
  0
LINE
  5
305
100
AcDbEntity
  8
0
100
AcDbLine
 62
7
  6
CONTINUOUS
 10
575.4242788171
 20
558.6823171803
 11
574.0634681544
 21
553.22440372
  0
LINE
  5
306
100
AcDbEntity
  8
0
100
AcDbLine
 62
7
  6
CONTINUOUS
 10
571.7954503831
 20
544.1278812861
 11
571.4930478694
 21
542.91501105
  0
LINE
  5
307
100
AcDbEntity
  8
0
100
AcDbLine
 62
7
  6
CONTINUOUS
 10
568.6638243746
 20
523.6522772392
 11
569.1174279289
 21
525.4715817259
  0
LINE
  5
308
100
AcDbEntity
  8
0
100
AcDbLine
 62
7
  6
CONTINUOUS
 10
571.0074426662
 20
533.0520167983
 11
571.536646957
 21
535.1745392778
  0
LINE
  5
309
100
AcDbEntity
  8
0
100
AcDbLine
 62
7
  6
CONTINUOUS
 10
573.3510609577
 20
542.4517563574
 11
573.6534634714
 21
543.6646265936
  0
LINE
  5
30A
100
AcDbEntity
  8
0
100
AcDbLine
 62
7
  6
CONTINUOUS
 10
575.4678776884
 20
550.9418445407
 11
577.2822919054
 21
558.2190624877
  0
LINE
  5
30B
100
AcDbEntity
  8
0
100
AcDbLine
 62
7
  6
CONTINUOUS
 10
337.3824161063
 20
754.9016502301
 11
338.3975821453
 21
754.3959148844
  0
LINE
  5
30C
100
AcDbEntity
  8
0
100
AcDbLine
 62
7
  6
CONTINUOUS
 10
341.3444548837
 20
762.8504892491
 11
340.3292887239
 21
763.3562254807
  0
LINE
  5
30D
100
AcDbEntity
  8
0
100
AcDbLine
 62
7
  6
CONTINUOUS
 10
383.2509379696
 20
763.3511741605
 11
381.9898777884
 21
764.2940089035
  0
LINE
  5
30E
100
AcDbEntity
  8
0
100
AcDbLine
 62
7
  6
CONTINUOUS
 10
390.1514738221
 20
761.1972921603
 11
388.8904136409
 21
762.1401269033
  0
LINE
  5
30F
100
AcDbEntity
  8
0
100
AcDbLine
 62
7
  6
CONTINUOUS
 10
376.1567939286
 20
767.3493553708
 11
374.8450733051
 21
768.5624469886
  0
LINE
  5
310
100
AcDbEntity
  8
0
100
AcDbLine
 62
7
  6
CONTINUOUS
 10
389.7647096096
 20
767.5762019628
 11
388.81613065
 21
768.5226735048
  0
LINE
  5
311
100
AcDbEntity
  8
0
100
AcDbLine
 62
7
  6
CONTINUOUS
 10
437.9322792344
 20
764.7350559921
 11
438.4752630332
 21
764.0256860251
  0
LINE
  5
312
100
AcDbEntity
  8
0
100
AcDbLine
 62
7
  6
CONTINUOUS
 10
573.4048622586
 20
546.62521067
 11
572.4685894163
 21
548.1469173589
  0
LINE
  5
313
100
AcDbEntity
  8
0
100
AcDbLine
 62
7
  6
CONTINUOUS
 10
577.0336906926
 20
561.1796465642
 11
576.0974174177
 21
562.701351518
  0
LINE
  5
314
100
AcDbEntity
  8
0
100
AcDbLine
 62
7
  6
CONTINUOUS
 10
571.3956480214
 20
546.482031139
 11
571.7881840849
 21
545.4179606287
  0
LINE
  5
315
100
AcDbEntity
  8
0
100
AcDbLine
 62
7
  6
CONTINUOUS
 10
575.0244760228
 20
561.0364652981
 11
575.4170120863
 21
559.9723947879
  0
LINE
  5
316
100
AcDbEntity
  8
0
100
AcDbLine
 62
7
  6
CONTINUOUS
 10
492.3738104667
 20
755.5315984851
 11
495.3426067426
 21
746.9705937044
  0
LINE
  5
317
100
AcDbEntity
  8
0
100
AcDbLine
 62
7
  6
CONTINUOUS
 10
495.7798492848
 20
745.1722261979
 11
498.2193110288
 21
738.1040155532
  0
LINE
  5
318
100
AcDbEntity
  8
0
100
AcDbLine
 62
7
  6
CONTINUOUS
 10
496.6085539209
 20
747.9224236779
 11
494.1690784802
 21
754.9906384499
  0
LINE
  5
319
100
AcDbEntity
  8
0
100
AcDbLine
 62
7
  6
CONTINUOUS
 10
500.0145790423
 20
737.5630555179
 11
497.1378747561
 21
746.4296336692
  0
LINE
  5
31A
100
AcDbEntity
  8
0
100
AcDbLine
 62
7
  6
CONTINUOUS
 10
563.7338580845
 20
534.2213922115
 11
563.4169227581
 21
535.588679793
  0
LINE
  5
31B
100
AcDbEntity
  8
0
100
AcDbLine
 62
7
  6
CONTINUOUS
 10
573.7217974501
 20
545.2579222007
 11
573.4048622586
 21
546.62521067
  0
LINE
  5
31C
100
AcDbEntity
  8
RUNDUNGEN
100
AcDbLine
 62
7
  6
CONTINUOUS
 10
569.6776920877
 20
434.713454907
 11
611.7861494757
 21
603.6012529393
  0
LINE
  5
31D
100
AcDbEntity
  8
RUNDUNGEN
100
AcDbLine
 62
7
  6
CONTINUOUS
 10
503.868380355
 20
293.1501925861
 11
569.0378126953
 21
432.9064912456
  0
LINE
  5
31E
100
AcDbEntity
  8
0
100
AcDbLine
 62
7
  6
CONTINUOUS
 10
353.4711364156
 20
767.1233359536
 11
352.1603903903
 21
767.6251895308
  0
LINE
  5
31F
100
AcDbEntity
  8
0
100
AcDbLine
 62
7
  6
CONTINUOUS
 10
383.3289351068
 20
756.6495004971
 11
382.0715890747
 21
757.2732079547
  0
LINE
  5
320
100
AcDbEntity
  8
0
100
AcDbLine
 62
7
  6
CONTINUOUS
 10
381.3834932425
 20
762.6910989616
 11
382.0121626825
 21
762.3792451912
  0
LINE
  5
321
100
AcDbEntity
  8
0
100
AcDbLine
 62
7
  6
CONTINUOUS
 10
387.0229689139
 20
761.4800517045
 11
388.280314946
 21
760.8563442469
  0
LINE
  5
322
100
AcDbEntity
  8
0
100
AcDbLine
 62
7
  6
CONTINUOUS
 10
388.8904136409
 20
762.1401269033
 11
388.2617442009
 21
762.4519806737
  0
LINE
  5
323
100
AcDbEntity
  8
0
100
AcDbLine
 62
7
  6
CONTINUOUS
 10
351.708495445
 20
765.9720644907
 11
352.7085156183
 21
765.4370037654
  0
LINE
  5
324
100
AcDbEntity
  8
0
100
AcDbLine
 62
7
  6
CONTINUOUS
 10
381.1490091596
 20
755.9857883874
 11
382.7225505632
 21
755.0465903597
  0
LINE
  5
325
100
AcDbEntity
  8
0
100
AcDbLine
 62
7
  6
CONTINUOUS
 10
388.81613065
 20
768.5226735048
 11
387.2425963994
 21
769.461871532
  0
LINE
  5
326
100
AcDbEntity
  8
0
100
AcDbLine
 62
7
  6
CONTINUOUS
 10
373.0198165504
 20
767.513272574
 11
373.9877918311
 21
766.922210663
  0
LINE
  5
327
100
AcDbEntity
  8
0
100
AcDbLine
 62
7
  6
CONTINUOUS
 10
386.948685923
 20
767.862598306
 11
388.2097461041
 21
766.919763563
  0
LINE
  5
328
100
AcDbEntity
  8
0
100
AcDbLine
 62
7
  6
CONTINUOUS
 10
439.5606364286
 20
765.1791881488
 11
438.4359569889
 21
766.2811357018
  0
LINE
  5
329
100
AcDbEntity
  8
0
100
AcDbLine
 62
7
  6
CONTINUOUS
 10
577.3506263166
 20
559.8123598299
 11
577.0336906926
 21
561.1796465642
  0
LINE
  5
32A
100
AcDbEntity
  8
0
100
AcDbLine
 62
7
  6
CONTINUOUS
 10
289.0412876425
 20
740.6551255034
 11
290.8516380093
 21
741.1432408068
  0
LINE
  5
32B
100
AcDbEntity
  8
0
100
AcDbLine
 62
7
  6
CONTINUOUS
 10
299.2999402966
 20
743.4211123775
 11
301.1102906634
 21
743.9092276808
  0
LINE
  5
32C
100
AcDbEntity
  8
0
100
AcDbLine
 62
7
  6
CONTINUOUS
 10
387.078681157
 20
756.6931417533
 11
385.832477572
 21
756.3594673548
  0
LINE
  5
32D
100
AcDbEntity
  8
0
100
AcDbLine
 62
7
  6
CONTINUOUS
 10
383.2732228637
 20
761.4364104482
 11
384.5194264488
 21
761.7700848468
  0
LINE
  5
32E
100
AcDbEntity
  8
0
100
AcDbLine
 62
7
  6
CONTINUOUS
 10
387.0006840197
 20
763.3948154167
 11
385.7544804347
 21
763.0611410182
  0
LINE
  5
32F
100
AcDbEntity
  8
0
100
AcDbLine
 62
7
  6
CONTINUOUS
 10
383.1989398728
 20
767.8189570498
 11
384.4451434579
 21
768.1526314483
  0
LINE
  5
330
100
AcDbEntity
  8
0
100
AcDbLine
 62
7
  6
CONTINUOUS
 10
303.5408586739
 20
744.5003732587
 11
305.3691370332
 21
744.9163338831
  0
LINE
  5
331
100
AcDbEntity
  8
0
100
AcDbLine
 62
7
  6
CONTINUOUS
 10
312.0728231881
 20
746.4415225747
 11
314.5105288295
 21
746.996137005
  0
LINE
  5
332
100
AcDbEntity
  8
0
100
AcDbLine
 62
7
  6
CONTINUOUS
 10
386.1635295412
 20
754.7674675035
 11
387.7222071954
 21
755.1047786458
  0
LINE
  5
333
100
AcDbEntity
  8
0
100
AcDbLine
 62
7
  6
CONTINUOUS
 10
437.4292097733
 20
760.6167316026
 11
436.4599293055
 21
760.4136118255
  0
LINE
  5
334
100
AcDbEntity
  8
0
100
AcDbLine
 62
7
  6
CONTINUOUS
 10
333.5745873998
 20
750.449746368
 11
335.4271838186
 21
750.7387299471
  0
LINE
  5
335
100
AcDbEntity
  8
0
100
AcDbLine
 62
7
  6
CONTINUOUS
 10
345.3307176006
 20
752.1308562147
 11
356.5170189625
 21
753.3263317859
  0
LINE
  5
336
100
AcDbEntity
  8
0
100
AcDbLine
 62
7
  6
CONTINUOUS
 10
356.3474479559
 20
754.913041232
 11
347.6469889705
 21
753.9832266455
  0
LINE
  5
337
100
AcDbEntity
  8
0
100
AcDbLine
 62
7
  6
CONTINUOUS
 10
435.9175397089
 20
758.5507397348
 11
437.5072134601
 21
758.6780760415
  0
LINE
  5
338
100
AcDbEntity
  8
0
100
AcDbLine
 62
7
  6
CONTINUOUS
 10
358.5908771941
 20
758.9182229669
 11
362.9527228726
 21
759.2572014547
  0
LINE
  5
339
100
AcDbEntity
  8
0
100
AcDbLine
 62
7
  6
CONTINUOUS
 10
362.8290832153
 20
760.8481493297
 11
358.4672375368
 21
760.509170842
  0
LINE
  5
33A
100
AcDbEntity
  8
0
100
AcDbLine
 62
7
  6
CONTINUOUS
 10
365.8652668515
 20
754.0571395717
 11
377.1014485967
 21
754.6145620222
  0
LINE
  5
33B
100
AcDbEntity
  8
0
100
AcDbLine
 62
7
  6
CONTINUOUS
 10
377.0223815808
 20
756.2083467002
 11
368.283126731
 21
755.7747957872
  0
LINE
  5
33C
100
AcDbEntity
  8
0
100
AcDbLine
 62
7
  6
CONTINUOUS
 10
384.2886565161
 20
754.7456468754
 11
386.1635295412
 21
754.7674675035
  0
LINE
  5
33D
100
AcDbEntity
  8
0
100
AcDbLine
 62
7
  6
CONTINUOUS
 10
385.832477572
 20
756.3594673548
 11
384.58256699
 21
756.3449203249
  0
LINE
  5
33E
100
AcDbEntity
  8
0
100
AcDbLine
 62
7
  6
CONTINUOUS
 10
384.5194264488
 20
761.7700848468
 11
385.7693370308
 21
761.7846318767
  0
LINE
  5
33F
100
AcDbEntity
  8
0
100
AcDbLine
 62
7
  6
CONTINUOUS
 10
385.7544804347
 20
763.0611410182
 11
384.5045698527
 21
763.0465939883
  0
LINE
  5
340
100
AcDbEntity
  8
0
100
AcDbLine
 62
7
  6
CONTINUOUS
 10
413.3338197912
 20
753.9952535098
 11
415.8278071107
 21
753.8219010023
  0
LINE
  5
341
100
AcDbEntity
  8
0
100
AcDbLine
 62
7
  6
CONTINUOUS
 10
350.1209306522
 20
766.1233683151
 11
351.708495445
 21
765.9720644907
  0
LINE
  5
342
100
AcDbEntity
  8
0
100
AcDbLine
 62
7
  6
CONTINUOUS
 10
423.3017002073
 20
753.1977659699
 11
425.168045134
 21
753.0178170481
  0
LINE
  5
343
100
AcDbEntity
  8
0
100
AcDbLine
 62
7
  6
CONTINUOUS
 10
427.6602265051
 20
752.8074571286
 11
429.5213921557
 21
752.5801084518
  0
LINE
  5
344
100
AcDbEntity
  8
0
100
AcDbLine
 62
7
  6
CONTINUOUS
 10
430.334042757
 20
759.2327857655
 11
435.9175397089
 21
758.5507397348
  0
LINE
  5
345
100
AcDbEntity
  8
0
100
AcDbLine
 62
7
  6
CONTINUOUS
 10
371.4434247328
 20
767.7546097983
 11
373.0198165504
 21
767.513272574
  0
LINE
  5
346
100
AcDbEntity
  8
0
100
AcDbLine
 62
7
  6
CONTINUOUS
 10
382.7225505632
 20
755.0465903597
 11
384.2886565161
 21
754.7456468754
  0
LINE
  5
347
100
AcDbEntity
  8
0
100
AcDbLine
 62
7
  6
CONTINUOUS
 10
456.4171732774
 20
748.6197005871
 11
458.2523512863
 21
748.2353222896
  0
LINE
  5
348
100
AcDbEntity
  8
0
100
AcDbLine
 62
7
  6
CONTINUOUS
 10
462.5344379742
 20
747.338438618
 11
464.9813466532
 21
746.8259332438
  0
LINE
  5
349
100
AcDbEntity
  8
0
100
AcDbLine
 62
7
  6
CONTINUOUS
 10
469.2634193398
 20
745.9290525047
 11
471.0985973487
 21
745.5446742072
  0
LINE
  5
34A
100
AcDbEntity
  8
0
100
AcDbLine
 62
7
  6
CONTINUOUS
 10
384.58256699
 20
756.3449203249
 11
383.3289351068
 21
756.6495004971
  0
LINE
  5
34B
100
AcDbEntity
  8
0
100
AcDbLine
 62
7
  6
CONTINUOUS
 10
385.7693370308
 20
761.7846318767
 11
387.0229689139
 21
761.4800517045
  0
LINE
  5
34C
100
AcDbEntity
  8
0
100
AcDbLine
 62
7
  6
CONTINUOUS
 10
384.5045698527
 20
763.0465939883
 11
383.2509379696
 21
763.3511741605
  0
LINE
  5
34D
100
AcDbEntity
  8
0
100
AcDbLine
 62
7
  6
CONTINUOUS
 10
385.6950540399
 20
768.1671784782
 11
386.948685923
 21
767.862598306
  0
LINE
  5
34E
100
AcDbEntity
  8
0
100
AcDbLine
 62
7
  6
CONTINUOUS
 10
473.5290875266
 20
744.9496983809
 11
475.3451969537
 21
744.4834671627
  0
LINE
  5
34F
100
AcDbEntity
  8
0
100
AcDbLine
 62
7
  6
CONTINUOUS
 10
483.8203696616
 20
742.3077226637
 11
485.6364790887
 21
741.8414914455
  0
LINE
  5
350
100
AcDbEntity
  8
0
100
AcDbLine
 62
7
  6
CONTINUOUS
 10
477.5082340134
 20
747.8821476335
 11
483.5619367224
 21
746.3280423873
  0
LINE
  5
351
100
AcDbEntity
  8
0
100
AcDbLine
 62
7
  6
CONTINUOUS
 10
488.0461301846
 20
741.1694543772
 11
489.8413981981
 21
740.628494342
  0
LINE
  5
352
100
AcDbEntity
  8
0
100
AcDbLine
 62
7
  6
CONTINUOUS
 10
498.2193110288
 20
738.1040155532
 11
500.0145790423
 21
737.5630555179
  0
LINE
  5
353
100
AcDbEntity
  8
0
100
AcDbLine
 62
7
  6
CONTINUOUS
 10
502.3773740202
 20
736.7420625908
 11
504.1575460262
 21
736.1533244241
  0
LINE
  5
354
100
AcDbEntity
  8
0
100
AcDbLine
 62
7
  6
CONTINUOUS
 10
374.8450733051
 20
768.5624469886
 11
373.5649866273
 21
769.1380251789
  0
LINE
  5
355
100
AcDbEntity
  8
0
100
AcDbLine
 62
7
  6
CONTINUOUS
 10
437.0403940516
 20
765.165524446
 11
437.9322792344
 21
764.7350559921
  0
LINE
  5
356
100
AcDbEntity
  8
0
100
AcDbLine
 62
7
  6
CONTINUOUS
 10
291.0615373612
 20
745.1663880744
 11
297.0960380084
 21
746.7934389304
  0
LINE
  5
357
100
AcDbEntity
  8
0
100
AcDbLine
 62
7
  6
CONTINUOUS
 10
296.4619785879
 20
747.9446650509
 11
291.0309274874
 21
746.4803191409
  0
LINE
  5
358
100
AcDbEntity
  8
0
100
AcDbLine
 62
7
  6
CONTINUOUS
 10
292.3777666831
 20
757.0903896513
 11
289.9639667695
 21
756.4395694021
  0
LINE
  5
359
100
AcDbEntity
  8
0
100
AcDbLine
 62
7
  6
CONTINUOUS
 10
349.0191678893
 20
767.6104545747
 11
346.8779655614
 21
767.0606588933
  0
LINE
  5
35A
100
AcDbEntity
  8
0
100
AcDbLine
 62
7
  6
CONTINUOUS
 10
368.6501926974
 20
767.2964972947
 11
370.1949577132
 21
767.6926738523
  0
LINE
  5
35B
100
AcDbEntity
  8
0
100
AcDbLine
 62
7
  6
CONTINUOUS
 10
311.1828438346
 20
761.6223638791
 11
308.7451381931
 21
761.0677494488
  0
LINE
  5
35C
100
AcDbEntity
  8
0
100
AcDbLine
 62
7
  6
CONTINUOUS
 10
302.0414520382
 20
759.5425607572
 11
300.2131736789
 21
759.1266001329
  0
LINE
  5
35D
100
AcDbEntity
  8
0
100
AcDbLine
 62
7
  6
CONTINUOUS
 10
384.4265727128
 20
769.7482678752
 11
382.8678879062
 21
769.4109566775
  0
LINE
  5
35E
100
AcDbEntity
  8
0
100
AcDbLine
 62
7
  6
CONTINUOUS
 10
370.4280092492
 20
769.3019423821
 11
368.2590071518
 21
768.8747976743
  0
LINE
  5
35F
100
AcDbEntity
  8
0
100
AcDbLine
 62
7
  6
CONTINUOUS
 10
333.1153151857
 20
765.5595012976
 11
331.2627187668
 21
765.2705177185
  0
LINE
  5
360
100
AcDbEntity
  8
0
100
AcDbLine
 62
7
  6
CONTINUOUS
 10
344.4205321865
 20
763.5883715527
 11
345.9741898948
 21
763.7544103332
  0
LINE
  5
361
100
AcDbEntity
  8
0
100
AcDbLine
 62
7
  6
CONTINUOUS
 10
348.878005908
 20
765.9905374427
 11
350.1209306522
 21
766.1233683151
  0
LINE
  5
362
100
AcDbEntity
  8
0
100
AcDbLine
 62
7
  6
CONTINUOUS
 10
350.2620926335
 20
767.7432854471
 11
349.0191678893
 21
767.6104545747
  0
LINE
  5
363
100
AcDbEntity
  8
0
100
AcDbLine
 62
7
  6
CONTINUOUS
 10
365.6080957251
 20
765.5478731523
 11
367.1686812856
 21
765.6252931733
  0
LINE
  5
364
100
AcDbEntity
  8
0
100
AcDbLine
 62
7
  6
CONTINUOUS
 10
370.1949577132
 20
767.6926738523
 11
371.4434247328
 21
767.7546097983
  0
LINE
  5
365
100
AcDbEntity
  8
0
100
AcDbLine
 62
7
  6
CONTINUOUS
 10
371.6764762688
 20
769.3638783281
 11
370.4280092492
 21
769.3019423821
  0
LINE
  5
366
100
AcDbEntity
  8
0
100
AcDbLine
 62
7
  6
CONTINUOUS
 10
384.4451434579
 20
768.1526314483
 11
385.6950540399
 21
768.1671784782
  0
LINE
  5
367
100
AcDbEntity
  8
0
100
AcDbLine
 62
7
  6
CONTINUOUS
 10
385.6764832948
 20
769.7628149051
 11
384.4265727128
 21
769.7482678752
  0
LINE
  5
368
100
AcDbEntity
  8
0
100
AcDbLine
 62
7
  6
CONTINUOUS
 10
352.1603903903
 20
767.6251895308
 11
350.2620926335
 21
767.7432854471
  0
LINE
  5
369
100
AcDbEntity
  8
0
100
AcDbLine
 62
7
  6
CONTINUOUS
 10
421.8558805406
 20
768.4390923549
 11
419.9853936186
 21
768.5691064876
  0
LINE
  5
36A
100
AcDbEntity
  8
0
100
AcDbLine
 62
7
  6
CONTINUOUS
 10
411.2564594063
 20
769.1758387762
 11
409.3859724843
 21
769.3058529089
  0
LINE
  5
36B
100
AcDbEntity
  8
0
100
AcDbLine
 62
7
  6
CONTINUOUS
 10
426.6076365081
 20
767.948576462
 11
424.7412915814
 21
768.1285253838
  0
LINE
  5
36C
100
AcDbEntity
  8
0
100
AcDbLine
 62
7
  6
CONTINUOUS
 10
373.5649866273
 20
769.1380251789
 11
371.6764762688
 21
769.3638783281
  0
LINE
  5
36D
100
AcDbEntity
  8
0
100
AcDbLine
 62
7
  6
CONTINUOUS
 10
436.4599293055
 20
760.4136118255
 11
430.5662286121
 21
761.1335504587
  0
LINE
  5
36E
100
AcDbEntity
  8
0
100
AcDbLine
 62
7
  6
CONTINUOUS
 10
431.1466933582
 20
765.8854630792
 11
437.0403940516
 21
765.165524446
  0
LINE
  5
36F
100
AcDbEntity
  8
0
100
AcDbLine
 62
7
  6
CONTINUOUS
 10
436.9236785227
 20
766.7873876262
 11
429.4790159202
 21
767.6967823338
  0
LINE
  5
370
100
AcDbEntity
  8
0
100
AcDbLine
 62
7
  6
CONTINUOUS
 10
387.2425963994
 20
769.461871532
 11
385.6764832948
 21
769.7628149051
  0
LINE
  5
371
100
AcDbEntity
  8
0
100
AcDbLine
 62
7
  6
CONTINUOUS
 10
474.1736237287
 20
760.2260982785
 11
471.4208567153
 21
760.8026657247
  0
LINE
  5
372
100
AcDbEntity
  8
0
100
AcDbLine
 62
7
  6
CONTINUOUS
 10
462.2449666708
 20
762.7245572122
 11
459.4921996574
 21
763.3011246585
  0
LINE
  5
373
100
AcDbEntity
  8
0
100
AcDbLine
 62
7
  6
CONTINUOUS
 10
483.5766904195
 20
747.6422462927
 11
478.1283621382
 21
749.0409399472
  0
LINE
  5
374
100
AcDbEntity
  8
0
100
AcDbLine
 62
7
  6
CONTINUOUS
 10
484.5233749803
 20
757.6136489251
 11
482.1018911255
 21
758.235291735
  0
LINE
  5
375
100
AcDbEntity
  8
0
100
AcDbLine
 62
7
  6
CONTINUOUS
 10
504.3422593243
 20
751.9251996258
 11
502.5469913108
 21
752.4661596611
  0
LINE
  5
376
100
AcDbEntity
  8
0
100
AcDbLine
 62
7
  6
CONTINUOUS
 10
494.1690784802
 20
754.9906384499
 11
492.3738104667
 21
755.5315984851
  0
LINE
  5
377
100
AcDbEntity
  8
0
100
AcDbLine
 62
7
  6
CONTINUOUS
 10
508.8674513597
 20
750.3947004724
 11
507.0872793537
 21
750.9834386391
  0
LINE
  5
378
100
AcDbEntity
  8
0
100
AcDbLine
 62
7
  6
CONTINUOUS
 10
438.4359569889
 20
766.2811357018
 11
436.9236785227
 21
766.7873876262
  0
LINE
  5
379
100
AcDbEntity
  8
RUNDUNGEN
100
AcDbLine
 62
7
  6
CONTINUOUS
 10
941.2376199824
 20
264.2811056731
 11
919.3081280581
 21
264.2811056731
  0
LINE
  5
37A
100
AcDbEntity
  8
RUNDUNGEN
100
AcDbLine
 62
7
  6
CONTINUOUS
 10
853.1671119068
 20
264.2811056731
 11
840.2376199824
 21
264.2811056731
  0
LINE
  5
37B
100
AcDbEntity
  8
0
100
AcDbLine
 62
7
  6
CONTINUOUS
 10
840.2376199824
 20
264.2811056731
 11
853.1671119068
 21
264.2811056731
  0
LINE
  5
37C
100
AcDbEntity
  8
0
100
AcDbLine
 62
7
  6
CONTINUOUS
 10
919.3081280581
 20
264.2811056731
 11
941.2376199824
 21
264.2811056731
  0
LINE
  5
37D
100
AcDbEntity
  8
0
100
AcDbLine
 62
7
  6
CONTINUOUS
 10
870.4876199824
 20
289.5311056731
 11
901.9876199824
 21
289.5311056731
  0
LINE
  5
37E
100
AcDbEntity
  8
0
100
AcDbLine
 62
7
  6
CONTINUOUS
 10
901.9876199824
 20
274.2811056731
 11
919.3081280581
 21
264.2811056731
  0
LINE
  5
37F
100
AcDbEntity
  8
0
100
AcDbLine
 62
7
  6
CONTINUOUS
 10
901.9876199824
 20
329.0311056731
 11
870.4876199824
 21
329.0311056731
  0
LINE
  5
380
100
AcDbEntity
  8
RUNDUNGEN
100
AcDbLine
 62
7
  6
CONTINUOUS
 10
830.2376199824
 20
274.2811056731
 11
830.2376199824
 21
357.2896721128
  0
LINE
  5
381
100
AcDbEntity
  8
RUNDUNGEN
100
AcDbLine
 62
7
  6
CONTINUOUS
 10
847.9876199825
 20
430.7430145094
 11
847.9876200082
 21
430.7425485861
  0
LINE
  5
382
100
AcDbEntity
  8
0
100
AcDbLine
 62
7
  6
CONTINUOUS
 10
847.9876199824
 20
717.2811056731
 11
847.9876199824
 21
430.7459828726
  0
LINE
  5
383
100
AcDbEntity
  8
0
100
AcDbLine
 62
7
  6
CONTINUOUS
 10
853.1671119068
 20
264.2811056731
 11
853.1671119068
 21
293.1501925861
  0
LINE
  5
384
100
AcDbEntity
  8
0
100
AcDbLine
 62
7
  6
CONTINUOUS
 10
861.7376199824
 20
777.2810679458
 11
861.7376199824
 21
607.2300813733
  0
LINE
  5
385
100
AcDbEntity
  8
RUNDUNGEN
100
AcDbLine
 62
7
  6
CONTINUOUS
 10
861.7376199824
 20
466.6036264226
 11
861.7376199824
 21
607.2300813733
  0
LINE
  5
386
100
AcDbEntity
  8
0
100
AcDbLine
 62
7
  6
CONTINUOUS
 10
870.4876199824
 20
274.2811056731
 11
870.4876199824
 21
345.5311056731
  0
LINE
  5
387
100
AcDbEntity
  8
RUNDUNGEN
100
AcDbLine
 62
7
  6
CONTINUOUS
 10
836.2683579039
 20
391.4916864454
 11
859.3253248139
 21
454.8401823918
  0
LINE
  5
388
100
AcDbEntity
  8
RUNDUNGEN
100
AcDbLine
 62
7
  6
CONTINUOUS
 10
913.1499424527
 20
454.840107381
 11
936.206882061
 21
391.4916864454
  0
LWPOLYLINE
  5
389
100
AcDbEntity
  8
RUNDUNGEN
100
AcDbPolyline
 62
7
  6
CONTINUOUS
 90
11
 70
0
 10
926.8997101252
 20
417.0629359262
 10
926.4401441917
 20
418.3985602655
 10
926.0280701925
 20
419.7494051749
 10
925.6640003566
 20
421.113713903
 10
925.3483202898
 20
422.4899818836
 10
925.0813808209
 20
423.8767126114
 10
924.8635494687
 20
425.2720655723
 10
924.6951089932
 20
426.6742584666
 10
924.5762711395
 20
428.08154871
 10
924.5071870504
 20
429.4921713473
 10
924.4876195833
 20
430.7431469963
  0
LINE
  5
38A
100
AcDbEntity
  8
0
100
AcDbLine
 62
7
  6
CONTINUOUS
 10
901.9876199824
 20
274.2811056731
 11
901.9876199824
 21
345.5311056731
  0
LINE
  5
38B
100
AcDbEntity
  8
0
100
AcDbLine
 62
7
  6
CONTINUOUS
 10
910.7376199824
 20
777.2810679458
 11
910.7376199824
 21
607.2300813733
  0
LINE
  5
38C
100
AcDbEntity
  8
RUNDUNGEN
100
AcDbLine
 62
7
  6
CONTINUOUS
 10
910.7376199824
 20
607.2300813733
 11
910.7376199824
 21
466.6036241726
  0
LINE
  5
38D
100
AcDbEntity
  8
0
100
AcDbLine
 62
7
  6
CONTINUOUS
 10
919.3081280581
 20
264.2811056731
 11
919.3081280581
 21
293.1501925861
  0
LINE
  5
38E
100
AcDbEntity
  8
0
100
AcDbLine
 62
7
  6
CONTINUOUS
 10
924.4876199824
 20
717.2811056731
 11
924.4876199824
 21
430.7559562913
  0
LINE
  5
38F
100
AcDbEntity
  8
RUNDUNGEN
100
AcDbLine
 62
7
  6
CONTINUOUS
 10
924.4876189856
 20
430.7399972428
 11
924.487619982
 21
430.7427571621
  0
LINE
  5
390
100
AcDbEntity
  8
RUNDUNGEN
100
AcDbLine
 62
7
  6
CONTINUOUS
 10
951.2376199824
 20
350.272976342
 11
951.2376199824
 21
274.2811056731
  0
LINE
  5
391
100
AcDbEntity
  8
0
100
AcDbLine
 62
7
  6
CONTINUOUS
 10
853.1671119068
 20
264.2811056731
 11
870.4876199824
 21
274.2811056731
  0
LINE
  5
392
100
AcDbEntity
  8
0
100
AcDbLine
 62
7
  6
CONTINUOUS
 10
876.7376199824
 20
792.2811056731
 11
895.7376199824
 21
792.2811056731
  0
ARC
  5
393
100
AcDbEntity
  8
0
100
AcDbCircle
 62
7
  6
CONTINUOUS
 10
389.4447477971
 20
392.2811056731
 40
400.0
100
AcDbArc
 50
70.5677306819
 51
109.4322693181
  0
ARC
  5
394
100
AcDbEntity
  8
0
100
AcDbCircle
 62
7
  6
CONTINUOUS
 10
389.4447477971
 20
392.2811056731
 40
300.0
100
AcDbArc
 50
70.5677306819
 51
109.4322693181
  0
ARC
  5
395
100
AcDbEntity
  8
RUNDUNGEN
100
AcDbCircle
 62
7
  6
CONTINUOUS
 10
389.4447477971
 20
612.2811056731
 40
200.0
100
AcDbArc
 50
254.8905678029
 51
285.1094368308
  0
ARC
  5
396
100
AcDbEntity
  8
0
100
AcDbCircle
 62
7
  6
CONTINUOUS
 10
475.9447477971
 20
637.4703183233
 40
140.0
100
AcDbArc
 50
346.0
 51
70.5677306819
  0
ARC
  5
397
100
AcDbEntity
  8
0
100
AcDbCircle
 62
7
  6
CONTINUOUS
 10
302.9447477971
 20
637.4703183233
 40
140.0
100
AcDbArc
 50
109.4322693181
 51
194.0
  0
ARC
  5
398
100
AcDbEntity
  8
RUNDUNGEN
100
AcDbCircle
 62
7
  6
CONTINUOUS
 10
469.4447477971
 20
455.9486326518
 40
100.0
100
AcDbArc
 50
334.9999939824
 51
347.0843237638
  0
ARC
  5
399
100
AcDbEntity
  8
RUNDUNGEN
100
AcDbCircle
 62
7
  6
CONTINUOUS
 10
309.4447477971
 20
455.9486326518
 40
100.0
100
AcDbArc
 50
192.9156762135
 51
205.0000606158
  0
ARC
  5
39A
100
AcDbEntity
  8
RUNDUNGEN
100
AcDbCircle
 62
7
  6
CONTINUOUS
 10
320.3365045909
 20
314.2811056731
 40
50.0
100
AcDbArc
 50
205.0
 51
270.0
  0
ARC
  5
39B
100
AcDbEntity
  8
RUNDUNGEN
100
AcDbCircle
 62
7
  6
CONTINUOUS
 10
458.5529910032
 20
314.2811056731
 40
50.0
100
AcDbArc
 50
270.0
 51
335.0
  0
ARC
  5
39C
100
AcDbEntity
  8
0
100
AcDbCircle
 62
7
  6
CONTINUOUS
 10
475.9447477971
 20
637.4703183233
 40
40.0
100
AcDbArc
 50
346.0
 51
70.5677306819
  0
ARC
  5
39D
100
AcDbEntity
  8
0
100
AcDbCircle
 62
7
  6
CONTINUOUS
 10
302.9447477971
 20
637.4703183233
 40
40.0
100
AcDbArc
 50
109.4322693181
 51
194.0
  0
ARC
  5
39E
100
AcDbEntity
  8
RUNDUNGEN
100
AcDbCircle
 62
7
  6
CONTINUOUS
 10
347.7385044097
 20
457.8123733597
 40
40.0
100
AcDbArc
 50
194.0000207037
 51
254.8907048145
  0
ARC
  5
39F
100
AcDbEntity
  8
RUNDUNGEN
100
AcDbCircle
 62
7
  6
CONTINUOUS
 10
431.1509911844
 20
457.8123733597
 40
40.0
100
AcDbArc
 50
285.1093183541
 51
346.0000413184
  0
CIRCLE
  5
3A0
100
AcDbEntity
  8
BEZUGSACHSEN
100
AcDbCircle
 62
7
  6
CONTINUOUS
 10
319.4447477971
 20
309.2811056731
 40
15.0
  0
CIRCLE
  5
3A1
100
AcDbEntity
  8
BEZUGSACHSEN
100
AcDbCircle
 62
7
  6
CONTINUOUS
 10
459.4447477971
 20
309.2811056731
 40
15.0
  0
CIRCLE
  5
3A2
100
AcDbEntity
  8
BEZUGSACHSEN
100
AcDbCircle
 62
7
  6
CONTINUOUS
 10
389.4447477971
 20
309.2811056731
 40
15.0
  0
ARC
  5
3A3
100
AcDbEntity
  8
RUNDUNGEN
100
AcDbCircle
 62
7
  6
CONTINUOUS
 10
559.9747325452
 20
437.132668974
 40
10.0
100
AcDbArc
 50
335.0000309078
 51
346.0000303389
  0
ARC
  5
3A4
100
AcDbEntity
  8
RUNDUNGEN
100
AcDbCircle
 62
7
  6
CONTINUOUS
 10
218.9147607692
 20
437.132673863
 40
10.0
100
AcDbArc
 50
194.0
 51
205.0
  0
ARC
  5
3A5
100
AcDbEntity
  8
RUNDUNGEN
100
AcDbCircle
 62
7
  6
CONTINUOUS
 10
842.2376199824
 20
357.2896721128
 40
100.0
100
AcDbArc
 50
5.2036220844
 51
20.0000586006
  0
ARC
  5
3A6
100
AcDbEntity
  8
RUNDUNGEN
100
AcDbCircle
 62
7
  6
CONTINUOUS
 10
930.2376199824
 20
357.2896721128
 40
100.0
100
AcDbArc
 50
159.9999634129
 51
180.0000355077
  0
ARC
  5
3A7
100
AcDbEntity
  8
RUNDUNGEN
100
AcDbCircle
 62
7
  6
CONTINUOUS
 10
950.7376199824
 20
468.5209881248
 40
40.0
100
AcDbArc
 50
179.9998631584
 51
200.0001143407
  0
ARC
  5
3A8
100
AcDbEntity
  8
RUNDUNGEN
100
AcDbCircle
 62
7
  6
CONTINUOUS
 10
821.7376199824
 20
468.5209881248
 40
40.0
100
AcDbArc
 50
339.9998851341
 51
0.000136633
  0
ARC
  5
3A9
100
AcDbEntity
  8
RUNDUNGEN
100
AcDbCircle
 62
7
  6
CONTINUOUS
 10
807.9876200372
 20
430.7431737577
 40
39.9999999664
100
AcDbArc
 50
340.027757286
 51
359.9999848122
  0
ARC
  5
3AA
100
AcDbEntity
  8
0
100
AcDbCircle
 62
7
  6
CONTINUOUS
 10
831.7376199824
 20
753.6601862003
 40
30.0
100
AcDbArc
 50
318.5903778907
 51
360.0
  0
ARC
  5
3AB
100
AcDbEntity
  8
0
100
AcDbCircle
 62
7
  6
CONTINUOUS
 10
940.7376199824
 20
753.6601862003
 40
30.0
100
AcDbArc
 50
180.6375292993
 51
221.4096221093
  0
ARC
  5
3AC
100
AcDbEntity
  8
0
100
AcDbCircle
 62
7
  6
CONTINUOUS
 10
872.9876199824
 20
717.2811056731
 40
25.0
100
AcDbArc
 50
138.5903778907
 51
180.0
  0
ARC
  5
3AD
100
AcDbEntity
  8
0
100
AcDbCircle
 62
7
  6
CONTINUOUS
 10
899.4876199824
 20
717.2811056731
 40
25.0
100
AcDbArc
 50
0.0
 51
41.4096221093
  0
ARC
  5
3AE
100
AcDbEntity
  8
0
100
AcDbCircle
 62
7
  6
CONTINUOUS
 10
828.96630633
 20
293.1269528597
 40
24.2008167352
100
AcDbArc
 50
0.055020393
 51
9.484483259
  0
ARC
  5
3AF
100
AcDbEntity
  8
0
100
AcDbCircle
 62
7
  6
CONTINUOUS
 10
943.508933635
 20
293.1269528597
 40
24.2008167352
100
AcDbArc
 50
170.515516741
 51
179.944979607
  0
ARC
  5
3B0
100
AcDbEntity
  8
0
100
AcDbCircle
 62
7
  6
CONTINUOUS
 10
886.2376199824
 20
345.5311056731
 40
15.75
100
AcDbArc
 50
0.0
 51
180.0
  0
ARC
  5
3B1
100
AcDbEntity
  8
0
100
AcDbCircle
 62
7
  6
CONTINUOUS
 10
876.7376199824
 20
777.2811056731
 40
15.0
100
AcDbArc
 50
90.0
 51
180.0
  0
ARC
  5
3B2
100
AcDbEntity
  8
0
100
AcDbCircle
 62
7
  6
CONTINUOUS
 10
895.7376199824
 20
777.2811056731
 40
15.0
100
AcDbArc
 50
0.0
 51
90.0
  0
ARC
  5
3B3
100
AcDbEntity
  8
RUNDUNGEN
100
AcDbCircle
 62
7
  6
CONTINUOUS
 10
840.2376199824
 20
274.2811056731
 40
10.0
100
AcDbArc
 50
180.0
 51
270.0
  0
ARC
  5
3B4
100
AcDbEntity
  8
RUNDUNGEN
100
AcDbCircle
 62
7
  6
CONTINUOUS
 10
941.2376199824
 20
274.2811056731
 40
10.0
100
AcDbArc
 50
270.0
 51
360.0
  0
ARC
  5
3B5
100
AcDbEntity
  8
RUNDUNGEN
100
AcDbCircle
 62
7
  6
CONTINUOUS
 10
941.2376199824
 20
350.272976342
 40
10.0
100
AcDbArc
 50
0.0
 51
58.1743743101
  0
ARC
  5
3B6
100
AcDbEntity
  8
RUNDUNGEN
100
AcDbCircle
 62
7
  6
CONTINUOUS
 10
951.7842759422
 20
367.2661528569
 40
10.0
100
AcDbArc
 50
185.2034590298
 51
238.1747874203
  0
SPLINE
  5
3B7
100
AcDbEntity
  8
0
100
AcDbSpline
 62
7
  6
CONTINUOUS
 70
0
 71
3
 72
14
 73
10
 74
0
 42
0.0000001
 43
0.0000001
 44
0.0000000001
 40
0.0
 40
0.0
 40
0.0
 40
0.0
 40
0.2558609925
 40
0.3827825763
 40
0.5087136214
 40
0.6333744664
 40
0.7565603767
 40
0.8784658457
 40
1.0
 40
1.0
 40
1.0
 40
1.0
 10
901.9876199824
 20
327.857524717
 30
0.0
 10
904.3823340922
 20
325.8000566269
 30
0.0
 10
907.8673725554
 20
322.5985345174
 30
0.0
 10
912.1041123597
 20
317.9608325144
 30
0.0
 10
914.9658943361
 20
314.2767056671
 30
0.0
 10
917.3850966524
 20
310.3352373089
 30
0.0
 10
919.1612073784
 20
306.1060175542
 30
0.0
 10
920.035086016
 20
301.6286799631
 30
0.0
 10
919.8853313989
 20
298.5940616526
 30
0.0
 10
919.6389356932
 20
297.1147754377
 30
0.0
  0
SPLINE
  5
3B8
100
AcDbEntity
  8
0
100
AcDbSpline
 62
7
  6
CONTINUOUS
 70
0
 71
3
 72
14
 73
10
 74
0
 42
0.0000001
 43
0.0000001
 44
0.0000000001
 40
0.0
 40
0.0
 40
0.0
 40
0.0
 40
0.2558609925
 40
0.3827825763
 40
0.5087136214
 40
0.6333744664
 40
0.7565603767
 40
0.8784658457
 40
1.0
 40
1.0
 40
1.0
 40
1.0
 10
870.4876199824
 20
327.857524717
 30
0.0
 10
868.0929058727
 20
325.8000566269
 30
0.0
 10
864.6078674095
 20
322.5985345174
 30
0.0
 10
860.3711276052
 20
317.9608325144
 30
0.0
 10
857.5093456288
 20
314.2767056671
 30
0.0
 10
855.0901433125
 20
310.3352373089
 30
0.0
 10
853.3140325865
 20
306.1060175542
 30
0.0
 10
852.4401539489
 20
301.6286799631
 30
0.0
 10
852.589908566
 20
298.5940616526
 30
0.0
 10
852.8363042717
 20
297.1147754377
 30
0.0
  0
ENDSEC
  0
SECTION
  2
OBJECTS
  0
DICTIONARY
  5
C
100
AcDbDictionary
280
0
281
1
  3
ACAD_GROUP
350
D
  3
ACAD_MLINESTYLE
350
17
  3
ACAD_LAYOUT
350
1A
  3
ACAD_PLOTSETTINGS
350
19
  3
ACAD_PLOTSTYLENAME
350
E
  0
DICTIONARY
  5
D
102
{ACAD_REACTORS
330
C
102
}
100
AcDbDictionary
280
0
281
1
  0
ACDBDICTIONARYWDFLT
  5
E
102
{ACAD_REACTORS
330
C
102
}
100
AcDbDictionary
281
1
  3
Normal
350
F
100
AcDbDictionaryWithDefault
340
F
  0
DICTIONARY
  5
17
102
{ACAD_REACTORS
330
C
102
}
100
AcDbDictionary
280
0
281
1
  3
Standard
350
18
  0
DICTIONARY
  5
19
102
{ACAD_REACTORS
330
C
102
}
100
AcDbDictionary
281
1
  0
DICTIONARY
  5
1A
102
{ACAD_REACTORS
330
C
102
}
100
AcDbDictionary
281
1
  3
Model
350
3B9
  3
Layout1
350
3BA
  0
ACDBPLACEHOLDER
  5
F
102
{ACAD_REACTORS
330
E
102
}
  0
MLINESTYLE
  5
18
102
{ACAD_REACTORS
330
17
102
}
100
AcDbMlineStyle
  2
STANDARD
 70
0
  3

 62
256
 51
90.0
 52
90.0
 71
2
 49
0.5
 62
256
  6
BYLAYER
 49
-0.5
 62
256
  6
BYLAYER
  0
LAYOUT
  5
3B9
102
{ACAD_REACTORS
330
1A
102
}
100
AcDbPlotSettings
  1

  2
none_device
  4
ISO_A0_(1189.00_x_841.00_MM)
  6

 40
0.0
 41
0.0
 42
0.0
 43
0.0
 44
1189.0
 45
841.0
 46
0.0
 47
0.0
 48
0.0
 49
0.0
140
0.0
141
0.0
142
1.0
143
1.0
 70
1024
 72
1
 73
0
 74
0
  7

 75
0
147
1.0
148
0.0
149
0.0
100
AcDbLayout
  1
Model
 70
0
 71
0
 10
0.0
 20
0.0
 11
1189.0
 21
841.0
 12
0.0
 22
0.0
 32
0.0
 14
0.0
 24
0.0
 34
0.0
 15
0.0
 25
0.0
 35
0.0
146
0.0
 13
0.0
 23
0.0
 33
0.0
 16
1.0
 26
0.0
 36
0.0
 17
0.0
 27
1.0
 37
0.0
 76
0
330
227
345
0
346
0
  0
LAYOUT
  5
3BA
102
{ACAD_REACTORS
330
1A
102
}
100
AcDbPlotSettings
  1

  2
none_device
  4
ISO_A0_(1189.00_x_841.00_MM)
  6

 40
0.0
 41
0.0
 42
0.0
 43
0.0
 44
1189.0
 45
841.0
 46
0.0
 47
0.0
 48
0.0
 49
0.0
140
0.0
141
0.0
142
1.0
143
1.0
 70
0
 72
1
 73
0
 74
0
  7

 75
0
147
1.0
148
0.0
149
0.0
100
AcDbLayout
  1
Layout1
 70
0
 71
1
 10
0.0
 20
0.0
 11
1189.0
 21
841.0
 12
0.0
 22
0.0
 32
0.0
 14
0.0
 24
0.0
 34
0.0
 15
0.0
 25
0.0
 35
0.0
146
0.0
 13
0.0
 23
0.0
 33
0.0
 16
1.0
 26
0.0
 36
0.0
 17
0.0
 27
1.0
 37
0.0
 76
0
330
228
345
0
346
0
  0
ENDSEC
  0
EOF
