999
DXF file: VAK-1-8_7100682_M34474-P-2.dxf
999
Pro/ENGINEER 2010140 by Parametric Technology Corporation
  0
SECTION
  2
HEADER
  9
$ACADVER
  1
AC1015
  9
$DWGCODEPAGE
  3
ANSI_1252
  9
$EXTMAX
 10
420.0
 20
297.0
 30
0.0
  9
$EXTMIN
 10
0.0
 20
0.0
 30
0.0
  9
$LIMMIN
 10
0.0
 20
0.0
  9
$LIMMAX
 10
420.0
 20
297.0
  9
$VIEWCTR
 10
210.0
 20
148.5
  9
$VIEWSIZE
 40
297.0
  9
$CLAYER
  8
0
  9
$LTSCALE
 40
23.1
  9
$CELTYPE
  6
BYLAYER
  9
$DIMSCALE
 40
1.0
  9
$DIMASZ
 40
3.5
  9
$DIMEXO
 40
2.625
  9
$DIMDLI
 40
15.96
  9
$DIMEXE
 40
7.56
  9
$DIMCEN
 40
3.78
  9
$DIMLFAC
 40
1.0
  9
$DIMBLK
  1
_FILLED
  9
$DIMTXT
 40
3.5
  9
$DIMTOL
 70
1
  9
$DIMLIM
 70
0
  9
$DIMTFAC
 40
1.0
  9
$DIMTP
 40
0.005
  9
$DIMTM
 40
0.005
  9
$PDMODE
 70
3
  9
$PDSIZE
 40
0.3125
  9
$HANDSEED
  5
4D3
  9
$TILEMODE
 70
1
  9
$MEASUREMENT
 70
1
  9
$INSUNITS
 70
4
  0
ENDSEC
  0
SECTION
  2
CLASSES
  0
CLASS
  1
ACDBDICTIONARYWDFLT
  2
AcDbDictionaryWithDefault
  3
AutoCAD 2000
 90
0
280
0
281
0
  0
CLASS
  1
ACDBPLACEHOLDER
  2
AcDbPlaceHolder
  3
AutoCAD 2000
 90
0
280
0
281
0
  0
CLASS
  1
LAYOUT
  2
AcDbLayout
  3
AutoCAD 2000
 90
0
280
0
281
0
  0
ENDSEC
  0
SECTION
  2
TABLES
  0
TABLE
  2
VPORT
  5
8
100
AcDbSymbolTable
 70
2
  0
VPORT
  5
1F4
100
AcDbSymbolTableRecord
100
AcDbViewportTableRecord
  2
*ACTIVE
 70
0
 10
0.0
 20
0.0
 11
1.0
 21
1.0
 12
210.0
 22
148.5
 13
0.0
 23
0.0
 14
1.0
 24
1.0
 15
0.0
 25
0.0
 16
0.0
 26
0.0
 36
1.0
 17
0.0
 27
0.0
 37
0.0
 40
297.0
 41
1.4141414141
 42
50.0
 43
0.0
 44
0.0
 50
0.0
 51
0.0
 71
0
 72
100
 73
1
 74
1
 75
0
 76
0
 77
0
 78
0
  0
ENDTAB
  0
TABLE
  2
LTYPE
  5
5
100
AcDbSymbolTable
 70
6
  0
LTYPE
  5
14
100
AcDbSymbolTableRecord
100
AcDbLinetypeTableRecord
  2
BYBLOCK
 70
0
  3

 72
65
 73
0
 40
0.0
  0
LTYPE
  5
15
100
AcDbSymbolTableRecord
100
AcDbLinetypeTableRecord
  2
BYLAYER
 70
0
  3

 72
65
 73
0
 40
0.0
  0
LTYPE
  5
16
100
AcDbSymbolTableRecord
100
AcDbLinetypeTableRecord
  2
CONTINUOUS
 70
64
  3
Solid line
 72
65
 73
0
 40
0.0
  0
LTYPE
  5
1F5
100
AcDbSymbolTableRecord
100
AcDbLinetypeTableRecord
  2
CENTER
 70
64
  3
____ _ ____ _ ____ _ ____ _ ____ _ ____ _ ____
 72
65
 73
4
 40
0.6
 49
0.375
 74
0
 49
-0.075
 74
0
 49
0.075
 74
0
 49
-0.075
 74
0
  0
LTYPE
  5
1F6
100
AcDbSymbolTableRecord
100
AcDbLinetypeTableRecord
  2
HIDDEN
 70
64
  3
- - - - - - - - - - - - - - - - - - - -
 72
65
 73
2
 40
0.2
 49
0.1
 74
0
 49
-0.1
 74
0
  0
LTYPE
  5
1F7
100
AcDbSymbolTableRecord
100
AcDbLinetypeTableRecord
  2
PHANTOM
 70
64
  3
_____ _ _ _____ _ _ _____ _ _ _____
 72
65
 73
6
 40
0.8
 49
0.45
 74
0
 49
-0.05
 74
0
 49
0.1
 74
0
 49
-0.05
 74
0
 49
0.1
 74
0
 49
-0.05
 74
0
  0
LTYPE
  5
1F8
100
AcDbSymbolTableRecord
100
AcDbLinetypeTableRecord
  2
DOT
 70
64
  3
. . . . . . . . . . . . . . . . . . . .
 72
65
 73
2
 40
0.2
 49
0.1
 74
0
 49
-0.1
 74
0
  0
LTYPE
  5
1F9
100
AcDbSymbolTableRecord
100
AcDbLinetypeTableRecord
  2
DASHED
 70
64
  3
- - - - - - - - - - - - - - - - - - - -
 72
65
 73
2
 40
0.2
 49
0.1
 74
0
 49
-0.1
 74
0
  0
ENDTAB
  0
TABLE
  2
LAYER
  5
2
100
AcDbSymbolTable
 70
36
  0
LAYER
  5
10
100
AcDbSymbolTableRecord
100
AcDbLayerTableRecord
  2
0
 70
0
 62
7
  6
CONTINUOUS
370
-3
390
F
  0
LAYER
  5
1FA
100
AcDbSymbolTableRecord
100
AcDbLayerTableRecord
  2
DEFAULT_1
 70
0
 62
7
  6
CENTER
370
-3
390
F
  0
LAYER
  5
1FB
100
AcDbSymbolTableRecord
100
AcDbLayerTableRecord
  2
DEFAULT_2
 70
0
 62
8
  6
HIDDEN
370
-3
390
F
  0
LAYER
  5
1FC
100
AcDbSymbolTableRecord
100
AcDbLayerTableRecord
  2
DEFAULT_3
 70
0
 62
7
  6
PHANTOM
370
-3
390
F
  0
LAYER
  5
1FD
100
AcDbSymbolTableRecord
100
AcDbLayerTableRecord
  2
AUSFORMSCHRAEGEN
 70
0
 62
7
  6
CONTINUOUS
370
-3
390
F
  0
LAYER
  5
1FE
100
AcDbSymbolTableRecord
100
AcDbLayerTableRecord
  2
BEZUGSACHSEN
 70
0
 62
7
  6
CONTINUOUS
370
-3
390
F
  0
LAYER
  5
1FF
100
AcDbSymbolTableRecord
100
AcDbLayerTableRecord
  2
BEZUGSEBENEN
 70
0
 62
7
  6
CONTINUOUS
370
-3
390
F
  0
LAYER
  5
200
100
AcDbSymbolTableRecord
100
AcDbLayerTableRecord
  2
BG_STARTBEZUEGE
 70
0
 62
7
  6
CONTINUOUS
370
-3
390
F
  0
LAYER
  5
201
100
AcDbSymbolTableRecord
100
AcDbLayerTableRecord
  2
FASEN
 70
0
 62
7
  6
CONTINUOUS
370
-3
390
F
  0
LAYER
  5
202
100
AcDbSymbolTableRecord
100
AcDbLayerTableRecord
  2
HILFEN
 70
0
 62
7
  6
CONTINUOUS
370
-3
390
F
  0
LAYER
  5
203
100
AcDbSymbolTableRecord
100
AcDbLayerTableRecord
  2
KONSTRUKTIONSELEMENTE
 70
0
 62
7
  6
CONTINUOUS
370
-3
390
F
  0
LAYER
  5
204
100
AcDbSymbolTableRecord
100
AcDbLayerTableRecord
  2
PLATZIERUNG
 70
0
 62
7
  6
CONTINUOUS
370
-3
390
F
  0
LAYER
  5
205
100
AcDbSymbolTableRecord
100
AcDbLayerTableRecord
  2
PLAZIERUNG
 70
0
 62
7
  6
CONTINUOUS
370
-3
390
F
  0
LAYER
  5
206
100
AcDbSymbolTableRecord
100
AcDbLayerTableRecord
  2
RUNDUNGEN
 70
0
 62
7
  6
CONTINUOUS
370
-3
390
F
  0
LAYER
  5
207
100
AcDbSymbolTableRecord
100
AcDbLayerTableRecord
  2
TEIL_STARTBEZUEGE
 70
0
 62
7
  6
CONTINUOUS
370
-3
390
F
  0
LAYER
  5
208
100
AcDbSymbolTableRecord
100
AcDbLayerTableRecord
  2
T_STARTBEZUEGE
 70
0
 62
7
  6
CONTINUOUS
370
-3
390
F
  0
LAYER
  5
209
100
AcDbSymbolTableRecord
100
AcDbLayerTableRecord
  2
ZEICHNUNGSBEMASSUNGEN
 70
0
 62
7
  6
CONTINUOUS
370
-3
390
F
  0
ENDTAB
  0
TABLE
  2
STYLE
  5
3
100
AcDbSymbolTable
 70
1
  0
STYLE
  5
11
100
AcDbSymbolTableRecord
100
AcDbTextStyleTableRecord
  2
STANDARD
 70
0
 40
0.0
 41
0.7
 50
0.0
 71
0
 42
0.2
  3
txt
  4

  0
STYLE
  5
20A
100
AcDbSymbolTableRecord
100
AcDbTextStyleTableRecord
  2
TEXTSTYLE_1
 70
0
 40
0.0
 41
0.8
 50
0.0
 71
0
 42
0.2
  3
gdt
  4

  0
ENDTAB
  0
TABLE
  2
VIEW
  5
6
100
AcDbSymbolTable
 70
0
  0
ENDTAB
  0
TABLE
  2
UCS
  5
7
100
AcDbSymbolTable
 70
0
  0
ENDTAB
  0
TABLE
  2
APPID
  5
9
100
AcDbSymbolTable
 70
1
  0
APPID
  5
20B
100
AcDbSymbolTableRecord
100
AcDbRegAppTableRecord
  2
ACAD
 70
0
  0
ENDTAB
  0
TABLE
  2
BLOCK_RECORD
  5
1
100
AcDbSymbolTable
 70
0
  0
BLOCK_RECORD
  5
20C
100
AcDbSymbolTableRecord
100
AcDbBlockTableRecord
  2
*Model_Space
  0
BLOCK_RECORD
  5
20D
100
AcDbSymbolTableRecord
100
AcDbBlockTableRecord
  2
*Paper_Space
  0
ENDTAB
  0
TABLE
  2
DIMSTYLE
  5
A
100
AcDbSymbolTable
 70
1
100
AcDbDimStyleTable
 71
0
  0
DIMSTYLE
105
20E
100
AcDbSymbolTableRecord
100
AcDbDimStyleTableRecord
  2
STANDARD
 70
0
  3

  4

 40
1.0
 41
3.5
 42
0.0625
 43
0.38
 44
0.18
 45
0.0
 46
0.0
 47
0.005
 48
0.005
140
3.5
141
0.09
142
0.0
143
25.4
144
1.0
145
0.0
146
1.0
147
0.09
 71
1.0
 72
0.0
 73
0
 74
0
 75
0
 76
0
 77
1
 78
8
170
0
171
2
172
0
173
0
174
0
175
0
176
0
177
0
178
5
270
2
271
3
272
3
273
2
274
2
275
0
280
0
281
0
282
0
283
1
284
8
285
0
286
0
287
3
288
0
340
11
  0
ENDTAB
  0
ENDSEC
  0
SECTION
  2
BLOCKS
  0
BLOCK
  5
20
100
AcDbEntity
  8
0
100
AcDbBlockBegin
  2
*Model_Space
 70
0
 10
0.0
 20
0.0
 30
0.0
  3
*Model_Space
  1

  0
ENDBLK
  5
21
100
AcDbEntity
  8
0
100
AcDbBlockEnd
  0
BLOCK
  5
1C
100
AcDbEntity
  8
0
100
AcDbBlockBegin
  2
*Paper_Space
 70
0
 10
0.0
 20
0.0
 30
0.0
  3
*Paper_Space
  1

  0
ENDBLK
  5
1D
100
AcDbEntity
  8
0
100
AcDbBlockEnd
  0
ENDSEC
  0
SECTION
  2
ENTITIES
  0
MTEXT
  5
20F
100
AcDbEntity
  8
0
100
AcDbMText
 62
5
  6
CONTINUOUS
  7
STANDARD
 71
1
 72
1
 10
370.177919708
 20
189.2856313869
 30
0.0
 11
0.0
 21
1.0
 31
0.0
 44
0.9
  1
RUD VAK-1-8
 40
5.0
 41
43.5714285714
  0
MTEXT
  5
210
100
AcDbEntity
  8
0
100
AcDbMText
 62
5
  6
CONTINUOUS
  7
STANDARD
 71
1
 72
1
 10
70.6960768816
 20
194.2260441289
 30
0.0
 11
0.0
 21
1.0
 31
0.0
 44
0.9
  1
RUD VAK-1-8
 40
5.0
 41
43.5714285714
  0
LINE
  5
211
100
AcDbEntity
  8
0
100
AcDbLine
 62
7
  6
CONTINUOUS
 10
0.0
 20
0.0
 11
0.0
 21
297.0
  0
LINE
  5
212
100
AcDbEntity
  8
0
100
AcDbLine
 62
7
  6
CONTINUOUS
 10
0.0
 20
0.0
 11
420.0
 21
0.0
  0
LINE
  5
213
100
AcDbEntity
  8
0
100
AcDbLine
 62
7
  6
CONTINUOUS
 10
0.0
 20
297.0
 11
420.0
 21
297.0
  0
LINE
  5
214
100
AcDbEntity
  8
0
100
AcDbLine
 62
7
  6
CONTINUOUS
 10
420.0
 20
0.0
 11
420.0
 21
297.0
  0
LINE
  5
215
100
AcDbEntity
  8
KONSTRUKTIONSELEMENTE
100
AcDbLine
 62
7
  6
CONTINUOUS
 10
166.710217702
 20
22.8949761723
 11
169.5386448267
 21
20.0665490476
  0
LINE
  5
216
100
AcDbEntity
  8
KONSTRUKTIONSELEMENTE
100
AcDbLine
 62
7
  6
CONTINUOUS
 10
180.8523533257
 20
31.3802575466
 11
178.0239262009
 21
34.2086846713
  0
LINE
  5
217
100
AcDbEntity
  8
BEZUGSACHSEN
100
AcDbLine
 62
7
  6
CONTINUOUS
 10
223.9858669781
 20
80.1706254485
 11
226.8142941028
 21
77.3421983237
  0
LINE
  5
218
100
AcDbEntity
  8
KONSTRUKTIONSELEMENTE
100
AcDbLine
 62
7
  6
CONTINUOUS
 10
220.4503330721
 20
85.4739263074
 11
223.9858669781
 21
81.9383924014
  0
LINE
  5
219
100
AcDbEntity
  8
KONSTRUKTIONSELEMENTE
100
AcDbLine
 62
7
  6
CONTINUOUS
 10
220.8038864627
 20
85.827479698
 11
224.3394203687
 21
82.291945792
  0
LINE
  5
21A
100
AcDbEntity
  8
0
100
AcDbLine
 62
7
  6
CONTINUOUS
 10
331.5932746865
 20
126.9182960282
 11
337.702881781
 21
126.9182960282
  0
LINE
  5
21B
100
AcDbEntity
  8
0
100
AcDbLine
 62
7
  6
CONTINUOUS
 10
331.6740369265
 20
139.1314171736
 11
337.622119541
 21
139.1314171736
  0
LINE
  5
21C
100
AcDbEntity
  8
KONSTRUKTIONSELEMENTE
100
AcDbLine
 62
7
  6
CONTINUOUS
 10
277.7259823482
 20
142.7495755835
 11
281.2615162542
 21
139.2140416775
  0
LINE
  5
21D
100
AcDbEntity
  8
KONSTRUKTIONSELEMENTE
100
AcDbLine
 62
7
  6
CONTINUOUS
 10
278.0795357388
 20
143.1031289741
 11
281.6150696448
 21
139.5675950681
  0
LINE
  5
21E
100
AcDbEntity
  8
KONSTRUKTIONSELEMENTE
100
AcDbLine
 62
7
  6
CONTINUOUS
 10
217.6219059474
 20
82.6454991826
 11
220.4503330721
 21
85.4739263074
  0
LINE
  5
21F
100
AcDbEntity
  8
KONSTRUKTIONSELEMENTE
100
AcDbLine
 62
7
  6
CONTINUOUS
 10
220.8038864627
 20
85.827479698
 11
223.6323135875
 21
88.6559068227
  0
LINE
  5
220
100
AcDbEntity
  8
KONSTRUKTIONSELEMENTE
100
AcDbLine
 62
7
  6
CONTINUOUS
 10
274.8975552235
 20
139.9211484587
 11
277.7259823482
 21
142.7495755835
  0
LINE
  5
221
100
AcDbEntity
  8
KONSTRUKTIONSELEMENTE
100
AcDbLine
 62
7
  6
CONTINUOUS
 10
278.0795357388
 20
143.1031289741
 11
280.9079628636
 21
145.9315560988
  0
LINE
  5
222
100
AcDbEntity
  8
KONSTRUKTIONSELEMENTE
100
AcDbLine
 62
7
  6
CONTINUOUS
 10
244.1384102419
 20
108.8084500865
 11
254.7450119597
 21
119.4150518043
  0
LINE
  5
223
100
AcDbEntity
  8
0
100
AcDbLine
 62
7
  6
CONTINUOUS
 10
331.7214501667
 20
155.3774019852
 11
337.5747063008
 21
155.3774019852
  0
LINE
  5
224
100
AcDbEntity
  8
BEZUGSACHSEN
100
AcDbLine
 62
7
  6
CONTINUOUS
 10
339.456849374
 20
156.428378849
 11
339.6841441387
 21
156.428378849
  0
LINE
  5
225
100
AcDbEntity
  8
BEZUGSACHSEN
100
AcDbLine
 62
7
  6
CONTINUOUS
 10
339.4625744028
 20
158.0547886183
 11
339.7080953719
 21
158.0547886183
  0
LINE
  5
226
100
AcDbEntity
  8
BEZUGSACHSEN
100
AcDbLine
 62
7
  6
CONTINUOUS
 10
338.7173872712
 20
158.9584288787
 11
338.9476843974
 21
158.9584288787
  0
LINE
  5
227
100
AcDbEntity
  8
BEZUGSACHSEN
100
AcDbLine
 62
7
  6
CONTINUOUS
 10
339.6480782338
 20
159.1158851329
 11
339.6688447369
 21
159.1158851329
  0
LINE
  5
228
100
AcDbEntity
  8
BEZUGSACHSEN
100
AcDbLine
 62
7
  6
CONTINUOUS
 10
339.6480782338
 20
159.1602396647
 11
339.7049072274
 21
159.1602396647
  0
LINE
  5
229
100
AcDbEntity
  8
BEZUGSACHSEN
100
AcDbLine
 62
7
  6
CONTINUOUS
 10
339.0396613341
 20
159.1934325944
 11
339.2817478022
 21
159.1934325944
  0
LINE
  5
22A
100
AcDbEntity
  8
BEZUGSACHSEN
100
AcDbLine
 62
7
  6
CONTINUOUS
 10
339.4159111652
 20
159.3077172455
 11
339.6733702686
 21
159.3077172455
  0
LINE
  5
22B
100
AcDbEntity
  8
BEZUGSACHSEN
100
AcDbLine
 62
7
  6
CONTINUOUS
 10
339.6733702686
 20
159.31332121
 11
339.7252711297
 21
159.31332121
  0
LINE
  5
22C
100
AcDbEntity
  8
BEZUGSACHSEN
100
AcDbLine
 62
7
  6
CONTINUOUS
 10
339.3502333098
 20
159.3950587433
 11
339.6058755397
 21
159.3950587433
  0
LINE
  5
22D
100
AcDbEntity
  8
BEZUGSACHSEN
100
AcDbLine
 62
7
  6
CONTINUOUS
 10
339.0398360256
 20
159.4046579383
 11
339.2664240186
 21
159.4046579383
  0
LINE
  5
22E
100
AcDbEntity
  8
BEZUGSACHSEN
100
AcDbLine
 62
7
  6
CONTINUOUS
 10
339.3026408944
 20
159.5693043737
 11
339.5405200058
 21
159.5693043737
  0
LINE
  5
22F
100
AcDbEntity
  8
BEZUGSACHSEN
100
AcDbLine
 62
7
  6
CONTINUOUS
 10
339.0423510974
 20
159.6172493447
 11
339.2349373433
 21
159.6172493447
  0
LINE
  5
230
100
AcDbEntity
  8
BEZUGSACHSEN
100
AcDbLine
 62
7
  6
CONTINUOUS
 10
339.0441670047
 20
159.8312066633
 11
339.1875765648
 21
159.8312066633
  0
LINE
  5
231
100
AcDbEntity
  8
BEZUGSACHSEN
100
AcDbLine
 62
7
  6
CONTINUOUS
 10
339.2497548789
 20
159.8522895613
 11
339.4607607284
 21
159.8522895613
  0
LINE
  5
232
100
AcDbEntity
  8
BEZUGSACHSEN
100
AcDbLine
 62
7
  6
CONTINUOUS
 10
339.5319049276
 20
159.8946491519
 11
339.6335821138
 21
159.8946491519
  0
LINE
  5
233
100
AcDbEntity
  8
BEZUGSACHSEN
100
AcDbLine
 62
7
  6
CONTINUOUS
 10
339.0451791132
 20
159.99269935
 11
339.1402565152
 21
159.99269935
  0
LINE
  5
234
100
AcDbEntity
  8
BEZUGSACHSEN
100
AcDbLine
 62
7
  6
CONTINUOUS
 10
339.4810679031
 20
160.0684578686
 11
339.6354676079
 21
160.0684578686
  0
LINE
  5
235
100
AcDbEntity
  8
BEZUGSACHSEN
100
AcDbLine
 62
7
  6
CONTINUOUS
 10
339.0613717379
 20
160.101727103
 11
339.0929756226
 21
160.101727103
  0
LINE
  5
236
100
AcDbEntity
  8
BEZUGSACHSEN
100
AcDbLine
 62
7
  6
CONTINUOUS
 10
338.7244940673
 20
160.2175848679
 11
338.9660979362
 21
160.2175848679
  0
LINE
  5
237
100
AcDbEntity
  8
BEZUGSACHSEN
100
AcDbLine
 62
7
  6
CONTINUOUS
 10
339.4211436448
 20
160.3075540712
 11
339.6207248982
 21
160.3075540712
  0
LINE
  5
238
100
AcDbEntity
  8
BEZUGSACHSEN
100
AcDbLine
 62
7
  6
CONTINUOUS
 10
338.7386710817
 20
160.4260782371
 11
338.9825550884
 21
160.4260782371
  0
LINE
  5
239
100
AcDbEntity
  8
BEZUGSACHSEN
100
AcDbLine
 62
7
  6
CONTINUOUS
 10
338.7838982059
 20
160.4744449827
 11
339.0296330416
 21
160.4744449827
  0
LINE
  5
23A
100
AcDbEntity
  8
BEZUGSACHSEN
100
AcDbLine
 62
7
  6
CONTINUOUS
 10
339.3583160852
 20
160.5684855639
 11
339.5893867996
 21
160.5684855639
  0
LINE
  5
23B
100
AcDbEntity
  8
BEZUGSACHSEN
100
AcDbLine
 62
7
  6
CONTINUOUS
 10
339.619913623
 20
160.6926235754
 11
339.7305055677
 21
160.6926235754
  0
LINE
  5
23C
100
AcDbEntity
  8
BEZUGSACHSEN
100
AcDbLine
 62
7
  6
CONTINUOUS
 10
339.2902176945
 20
160.8512522552
 11
339.5419424672
 21
160.8512522552
  0
LINE
  5
23D
100
AcDbEntity
  8
BEZUGSACHSEN
100
AcDbLine
 62
7
  6
CONTINUOUS
 10
339.2104945771
 20
161.1558544397
 11
339.4787140116
 21
161.1558544397
  0
LINE
  5
23E
100
AcDbEntity
  8
BEZUGSACHSEN
100
AcDbLine
 62
7
  6
CONTINUOUS
 10
339.7342356058
 20
161.7595532867
 11
339.7489188785
 21
161.7595532867
  0
LINE
  5
23F
100
AcDbEntity
  8
BEZUGSACHSEN
100
AcDbLine
 62
7
  6
CONTINUOUS
 10
338.7181692003
 20
161.8762018946
 11
338.974250486
 21
161.8762018946
  0
LINE
  5
240
100
AcDbEntity
  8
BEZUGSACHSEN
100
AcDbLine
 62
7
  6
CONTINUOUS
 10
339.5203201056
 20
161.9232882568
 11
339.6553412958
 21
161.9232882568
  0
LINE
  5
241
100
AcDbEntity
  8
BEZUGSACHSEN
100
AcDbLine
 62
7
  6
CONTINUOUS
 10
339.7017293664
 20
161.9558592316
 11
339.7457907479
 21
161.9558592316
  0
LINE
  5
242
100
AcDbEntity
  8
BEZUGSACHSEN
100
AcDbLine
 62
7
  6
CONTINUOUS
 10
339.4770902518
 20
162.1283989039
 11
339.6397005488
 21
162.1283989039
  0
LINE
  5
243
100
AcDbEntity
  8
BEZUGSACHSEN
100
AcDbLine
 62
7
  6
CONTINUOUS
 10
338.721975527
 20
162.1369149697
 11
338.9805006941
 21
162.1369149697
  0
LINE
  5
244
100
AcDbEntity
  8
BEZUGSACHSEN
100
AcDbLine
 62
7
  6
CONTINUOUS
 10
339.4250160185
 20
162.3754552359
 11
339.6076948914
 21
162.3754552359
  0
LINE
  5
245
100
AcDbEntity
  8
BEZUGSACHSEN
100
AcDbLine
 62
7
  6
CONTINUOUS
 10
339.3640980096
 20
162.6644571486
 11
339.5598200489
 21
162.6644571486
  0
LINE
  5
246
100
AcDbEntity
  8
BEZUGSACHSEN
100
AcDbLine
 62
7
  6
CONTINUOUS
 10
339.294321645
 20
162.9954043206
 11
339.4963956877
 21
162.9954043206
  0
LINE
  5
247
100
AcDbEntity
  8
BEZUGSACHSEN
100
AcDbLine
 62
7
  6
CONTINUOUS
 10
338.7219755255
 20
163.179766773
 11
338.9897696805
 21
163.179766773
  0
LINE
  5
248
100
AcDbEntity
  8
BEZUGSACHSEN
100
AcDbLine
 62
7
  6
CONTINUOUS
 10
338.7181692003
 20
163.4404797238
 11
338.9881387425
 21
163.4404797238
  0
LINE
  5
249
100
AcDbEntity
  8
BEZUGSACHSEN
100
AcDbLine
 62
7
  6
CONTINUOUS
 10
339.0979763913
 20
164.1140828394
 11
339.2598920519
 21
164.1140828394
  0
LINE
  5
24A
100
AcDbEntity
  8
BEZUGSACHSEN
100
AcDbLine
 62
7
  6
CONTINUOUS
 10
338.7165632543
 20
164.1978163582
 11
338.9932115806
 21
164.1978163582
  0
LINE
  5
24B
100
AcDbEntity
  8
BEZUGSACHSEN
100
AcDbLine
 62
7
  6
CONTINUOUS
 10
339.1022133539
 20
164.379764155
 11
339.1971429039
 21
164.379764155
  0
LINE
  5
24C
100
AcDbEntity
  8
BEZUGSACHSEN
100
AcDbLine
 62
7
  6
CONTINUOUS
 10
339.1032967943
 20
164.538233817
 11
339.1503303803
 21
164.538233817
  0
LINE
  5
24D
100
AcDbEntity
  8
BEZUGSACHSEN
100
AcDbLine
 62
7
  6
CONTINUOUS
 10
339.5810418167
 20
159.7863467114
 11
339.6151001503
 21
159.7861281695
  0
LINE
  5
24E
100
AcDbEntity
  8
0
100
AcDbLine
 62
7
  6
CONTINUOUS
 10
288.6480782338
 20
188.0044095794
 11
288.6480782338
 21
238.0044095794
  0
LINE
  5
24F
100
AcDbEntity
  8
KONSTRUKTIONSELEMENTE
100
AcDbLine
 62
7
  6
CONTINUOUS
 10
247.3203907572
 20
105.6264695712
 11
257.926992475
 21
116.233071289
  0
LINE
  5
250
100
AcDbEntity
  8
KONSTRUKTIONSELEMENTE
100
AcDbLine
 62
7
  6
CONTINUOUS
 10
221.1574398533
 20
79.1099652767
 11
223.9858669781
 21
81.9383924014
  0
LINE
  5
251
100
AcDbEntity
  8
KONSTRUKTIONSELEMENTE
100
AcDbLine
 62
7
  6
CONTINUOUS
 10
224.3394203687
 20
82.291945792
 11
227.1678474934
 21
85.1203729168
  0
LINE
  5
252
100
AcDbEntity
  8
KONSTRUKTIONSELEMENTE
100
AcDbLine
 62
7
  6
CONTINUOUS
 10
278.4330891294
 20
136.3856145528
 11
281.2615162542
 21
139.2140416775
  0
LINE
  5
253
100
AcDbEntity
  8
KONSTRUKTIONSELEMENTE
100
AcDbLine
 62
7
  6
CONTINUOUS
 10
281.6150696448
 20
139.5675950681
 11
284.4434967695
 21
142.3960221929
  0
LINE
  5
254
100
AcDbEntity
  8
KONSTRUKTIONSELEMENTE
100
AcDbLine
 62
7
  6
CONTINUOUS
 10
313.4348747982
 20
171.0338468309
 11
284.4434967695
 21
142.0424688023
  0
LINE
  5
255
100
AcDbEntity
  8
KONSTRUKTIONSELEMENTE
100
AcDbLine
 62
7
  6
CONTINUOUS
 10
278.4330891294
 20
134.9714009904
 11
259.7244041542
 21
116.2627160152
  0
LINE
  5
256
100
AcDbEntity
  8
KONSTRUKTIONSELEMENTE
100
AcDbLine
 62
7
  6
CONTINUOUS
 10
247.3203907572
 20
103.8587026182
 11
228.611705782
 21
85.150017643
  0
LINE
  5
257
100
AcDbEntity
  8
BEZUGSACHSEN
100
AcDbLine
 62
7
  6
CONTINUOUS
 10
223.9856215505
 20
80.1703800209
 11
222.925860592
 21
79.1106190624
  0
LINE
  5
258
100
AcDbEntity
  8
KONSTRUKTIONSELEMENTE
100
AcDbLine
 62
7
  6
CONTINUOUS
 10
166.710217702
 20
22.8949761723
 11
222.925860592
 21
79.1106190624
  0
LINE
  5
259
100
AcDbEntity
  8
BEZUGSACHSEN
100
AcDbLine
 62
7
  6
CONTINUOUS
 10
226.8140486753
 20
77.3419528962
 11
225.7542877167
 21
76.2821919376
  0
LINE
  5
25A
100
AcDbEntity
  8
KONSTRUKTIONSELEMENTE
100
AcDbLine
 62
7
  6
CONTINUOUS
 10
169.5386448267
 20
20.0665490476
 11
225.7542877167
 21
76.2821919376
  0
LINE
  5
25B
100
AcDbEntity
  8
KONSTRUKTIONSELEMENTE
100
AcDbLine
 62
7
  6
CONTINUOUS
 10
281.6150696448
 20
131.7894204751
 11
262.9063846696
 21
113.0807354999
  0
LINE
  5
25C
100
AcDbEntity
  8
KONSTRUKTIONSELEMENTE
100
AcDbLine
 62
7
  6
CONTINUOUS
 10
250.5023712726
 20
100.6767221029
 11
231.7936862974
 21
81.9680371277
  0
LINE
  5
25D
100
AcDbEntity
  8
KONSTRUKTIONSELEMENTE
100
AcDbLine
 62
7
  6
CONTINUOUS
 10
317.6775154853
 20
166.7912061438
 11
288.7356475838
 21
137.8493382424
  0
LINE
  5
25E
100
AcDbEntity
  8
KONSTRUKTIONSELEMENTE
100
AcDbLine
 62
7
  6
CONTINUOUS
 10
289.0396908472
 20
137.7998281152
 11
283.0292832071
 21
131.7894204751
  0
LINE
  5
25F
100
AcDbEntity
  8
KONSTRUKTIONSELEMENTE
100
AcDbLine
 62
7
  6
CONTINUOUS
 10
231.7640415711
 20
80.5241788391
 11
225.753633931
 21
74.513771199
  0
LINE
  5
260
100
AcDbEntity
  8
KONSTRUKTIONSELEMENTE
100
AcDbLine
 62
7
  6
CONTINUOUS
 10
262.8767399433
 20
111.2833238207
 11
252.2701382255
 21
100.6767221029
  0
LINE
  5
261
100
AcDbEntity
  8
BEZUGSACHSEN
100
AcDbLine
 62
7
  6
CONTINUOUS
 10
338.7246846141
 20
164.9810096216
 11
339.0086596988
 21
164.9810096216
  0
LINE
  5
262
100
AcDbEntity
  8
BEZUGSACHSEN
100
AcDbLine
 62
7
  6
CONTINUOUS
 10
338.7390748957
 20
165.0695964484
 11
339.0244579645
 21
165.0695964484
  0
LINE
  5
263
100
AcDbEntity
  8
0
100
AcDbLine
 62
7
  6
CONTINUOUS
 10
331.7214501667
 20
168.5206797882
 11
337.5747063008
 21
168.5206797882
  0
LINE
  5
264
100
AcDbEntity
  8
0
100
AcDbLine
 62
7
  6
CONTINUOUS
 10
337.5747063008
 20
173.5409651854
 11
331.7214501667
 21
173.5409651854
  0
LINE
  5
265
100
AcDbEntity
  8
0
100
AcDbLine
 62
7
  6
CONTINUOUS
 10
325.1312140587
 20
110.0050932622
 11
323.8602477871
 21
112.0212585615
  0
LINE
  5
266
100
AcDbEntity
  8
0
100
AcDbLine
 62
7
  6
CONTINUOUS
 10
304.6480782338
 20
188.0044095794
 11
304.6480782338
 21
238.0044095794
  0
LINE
  5
267
100
AcDbEntity
  8
KONSTRUKTIONSELEMENTE
100
AcDbLine
 62
7
  6
CONTINUOUS
 10
266.0587204587
 20
108.1013433053
 11
255.4521187409
 21
97.4947415875
  0
LINE
  5
268
100
AcDbEntity
  8
KONSTRUKTIONSELEMENTE
100
AcDbLine
 62
7
  6
CONTINUOUS
 10
292.5752247532
 20
134.2642942092
 11
286.5648171131
 21
128.2538865691
  0
LINE
  5
269
100
AcDbEntity
  8
KONSTRUKTIONSELEMENTE
100
AcDbLine
 62
7
  6
CONTINUOUS
 10
235.299575477
 20
76.9886449331
 11
229.289167837
 21
70.978237293
  0
LINE
  5
26A
100
AcDbEntity
  8
0
100
AcDbLine
 62
7
  6
CONTINUOUS
 10
331.5544800173
 20
142.8462350617
 11
331.6740369265
 21
139.1314171736
  0
LINE
  5
26B
100
AcDbEntity
  8
0
100
AcDbLine
 62
7
  6
CONTINUOUS
 10
323.3980782338
 20
113.6210762461
 11
323.3980782338
 21
120.9505620021
  0
LINE
  5
26C
100
AcDbEntity
  8
0
100
AcDbLine
 62
7
  6
CONTINUOUS
 10
326.6480782338
 20
128.1874222813
 11
326.6480782338
 21
133.4926928573
  0
LINE
  5
26D
100
AcDbEntity
  8
0
100
AcDbLine
 62
7
  6
CONTINUOUS
 10
329.6480782338
 20
162.0324464913
 11
329.6480782338
 21
137.1669274714
  0
LINE
  5
26E
100
AcDbEntity
  8
0
100
AcDbLine
 62
7
  6
CONTINUOUS
 10
331.6740369265
 20
139.1314171736
 11
331.5932746865
 21
126.9182960282
  0
LINE
  5
26F
100
AcDbEntity
  8
0
100
AcDbLine
 62
7
  6
CONTINUOUS
 10
329.7066860573
 20
162.6702708306
 11
331.7214501667
 21
173.5409651854
  0
LINE
  5
270
100
AcDbEntity
  8
RUNDUNGEN
100
AcDbLine
 62
7
  6
CONTINUOUS
 10
345.4961544451
 20
122.4505620021
 11
340.6098286201
 21
130.9139265933
  0
LINE
  5
271
100
AcDbEntity
  8
RUNDUNGEN
100
AcDbLine
 62
7
  6
CONTINUOUS
 10
337.7996087225
 20
125.5968194142
 11
337.702881781
 21
126.9182960282
  0
LINE
  5
272
100
AcDbEntity
  8
0
100
AcDbLine
 62
7
  6
CONTINUOUS
 10
337.622119541
 20
139.1314171736
 11
337.702881781
 21
126.9182960282
  0
LINE
  5
273
100
AcDbEntity
  8
BEZUGSACHSEN
100
AcDbLine
 62
7
  6
CONTINUOUS
 10
339.6480782338
 20
160.6926235754
 11
339.6480782338
 21
160.5078182177
  0
LINE
  5
274
100
AcDbEntity
  8
BEZUGSACHSEN
100
AcDbLine
 62
7
  6
CONTINUOUS
 10
339.6480782338
 20
159.3077172455
 11
339.6480782338
 21
158.5460723401
  0
LINE
  5
275
100
AcDbEntity
  8
BEZUGSACHSEN
100
AcDbLine
 62
7
  6
CONTINUOUS
 10
339.6480782338
 20
158.0547886183
 11
339.6480782338
 21
156.896774412
  0
LINE
  5
276
100
AcDbEntity
  8
BEZUGSACHSEN
100
AcDbLine
 62
7
  6
CONTINUOUS
 10
339.6480782338
 20
156.428378849
 11
339.6480782338
 21
144.6882304002
  0
LINE
  5
277
100
AcDbEntity
  8
KONSTRUKTIONSELEMENTE
100
AcDbLine
 62
7
  6
CONTINUOUS
 10
339.6480782338
 20
144.6882304002
 11
339.6480782338
 21
137.1669274714
  0
LINE
  5
278
100
AcDbEntity
  8
RUNDUNGEN
100
AcDbLine
 62
7
  6
CONTINUOUS
 10
339.6480782338
 20
144.6882303903
 11
339.6480782338
 21
137.1669274714
  0
LINE
  5
279
100
AcDbEntity
  8
KONSTRUKTIONSELEMENTE
100
AcDbLine
 62
7
  6
CONTINUOUS
 10
342.6480782338
 20
128.1874222813
 11
342.6480782338
 21
133.4926928573
  0
LINE
  5
27A
100
AcDbEntity
  8
0
100
AcDbLine
 62
7
  6
CONTINUOUS
 10
337.7416764502
 20
142.8462350617
 11
337.622119541
 21
139.1314171736
  0
LINE
  5
27B
100
AcDbEntity
  8
0
100
AcDbLine
 62
7
  6
CONTINUOUS
 10
331.496547745
 20
125.5968194142
 11
331.5932746865
 21
126.9182960282
  0
LINE
  5
27C
100
AcDbEntity
  8
0
100
AcDbLine
 62
7
  6
CONTINUOUS
 10
323.8000020224
 20
122.4505620021
 11
328.6863278474
 21
130.9139265933
  0
LINE
  5
27D
100
AcDbEntity
  8
KONSTRUKTIONSELEMENTE
100
AcDbLine
 62
7
  6
CONTINUOUS
 10
337.5747063008
 20
173.5409651854
 11
339.4908394504
 21
163.2024358685
  0
LINE
  5
27E
100
AcDbEntity
  8
RUNDUNGEN
100
AcDbLine
 62
7
  6
CONTINUOUS
 10
345.8980782338
 20
113.6210762461
 11
345.8980782338
 21
120.9505620021
  0
LINE
  5
27F
100
AcDbEntity
  8
0
100
AcDbLine
 62
7
  6
CONTINUOUS
 10
364.6480782338
 20
238.0044095794
 11
364.6480782338
 21
188.0044095794
  0
LINE
  5
280
100
AcDbEntity
  8
RUNDUNGEN
100
AcDbLine
 62
7
  6
CONTINUOUS
 10
344.1649424088
 20
110.0050932622
 11
345.4359086804
 21
112.0212585615
  0
LINE
  5
281
100
AcDbEntity
  8
0
100
AcDbLine
 62
7
  6
CONTINUOUS
 10
380.6480782338
 20
238.0044095794
 11
380.6480782338
 21
188.0044095794
  0
LINE
  5
282
100
AcDbEntity
  8
KONSTRUKTIONSELEMENTE
100
AcDbLine
 62
7
  6
CONTINUOUS
 10
69.6126900954
 20
20.0665490476
 11
76.8926900954
 21
20.0665490476
  0
LINE
  5
283
100
AcDbEntity
  8
KONSTRUKTIONSELEMENTE
100
AcDbLine
 62
7
  6
CONTINUOUS
 10
69.2126900954
 20
20.3493917601
 11
69.6126900954
 21
20.3493917601
  0
LINE
  5
284
100
AcDbEntity
  8
KONSTRUKTIONSELEMENTE
100
AcDbLine
 62
7
  6
CONTINUOUS
 10
76.8926900954
 20
20.3493917601
 11
77.2926900954
 21
20.3493917601
  0
LINE
  5
285
100
AcDbEntity
  8
KONSTRUKTIONSELEMENTE
100
AcDbLine
 62
7
  6
CONTINUOUS
 10
62.4456001935
 20
31.3802575466
 11
66.4126900954
 21
31.3802575466
  0
LINE
  5
286
100
AcDbEntity
  8
KONSTRUKTIONSELEMENTE
100
AcDbLine
 62
7
  6
CONTINUOUS
 10
80.0926900954
 20
31.3802575466
 11
95.093559187
 21
31.3802575466
  0
LINE
  5
287
100
AcDbEntity
  8
KONSTRUKTIONSELEMENTE
100
AcDbLine
 62
7
  6
CONTINUOUS
 10
98.7169720277
 20
33.6798453175
 11
93.6416484203
 21
35.3533282543
  0
LINE
  5
288
100
AcDbEntity
  8
KONSTRUKTIONSELEMENTE
100
AcDbLine
 62
7
  6
CONTINUOUS
 10
98.7169720277
 20
36.5082724422
 11
93.6416484203
 21
38.1817553791
  0
LINE
  5
289
100
AcDbEntity
  8
KONSTRUKTIONSELEMENTE
100
AcDbLine
 62
7
  6
CONTINUOUS
 10
39.1193523612
 20
62.8878705118
 11
39.2883996659
 21
62.9143706714
  0
LINE
  5
28A
100
AcDbEntity
  8
KONSTRUKTIONSELEMENTE
100
AcDbLine
 62
7
  6
CONTINUOUS
 10
111.053520804
 20
61.756611195
 11
116.1288444114
 21
60.0831282581
  0
LINE
  5
28B
100
AcDbEntity
  8
KONSTRUKTIONSELEMENTE
100
AcDbLine
 62
7
  6
CONTINUOUS
 10
38.4431631424
 20
63.913240723
 11
39.1193523612
 21
62.8878705118
  0
LINE
  5
28C
100
AcDbEntity
  8
KONSTRUKTIONSELEMENTE
100
AcDbLine
 62
7
  6
CONTINUOUS
 10
43.6667248575
 20
55.9922558408
 11
58.8203690454
 21
33.0133397164
  0
LINE
  5
28D
100
AcDbEntity
  8
KONSTRUKTIONSELEMENTE
100
AcDbLine
 62
7
  6
CONTINUOUS
 10
43.6667248575
 20
56.2750985533
 11
43.4976775528
 21
56.5314411061
  0
LINE
  5
28E
100
AcDbEntity
  8
KONSTRUKTIONSELEMENTE
100
AcDbLine
 62
7
  6
CONTINUOUS
 10
45.6369291712
 20
63.7128530952
 11
48.9599527805
 21
58.6738354272
  0
LINE
  5
28F
100
AcDbEntity
  8
KONSTRUKTIONSELEMENTE
100
AcDbLine
 62
7
  6
CONTINUOUS
 10
80.0145822833
 20
76.2821919376
 11
115.1905368177
 21
64.6836488189
  0
LINE
  5
290
100
AcDbEntity
  8
KONSTRUKTIONSELEMENTE
100
AcDbLine
 62
7
  6
CONTINUOUS
 10
115.1905368177
 20
67.5120759436
 11
80.0145822833
 21
79.1106190624
  0
LINE
  5
291
100
AcDbEntity
  8
KONSTRUKTIONSELEMENTE
100
AcDbLine
 62
7
  6
CONTINUOUS
 10
87.2854769921
 20
104.7544095794
 11
84.1601834269
 21
104.7544095794
  0
LINE
  5
292
100
AcDbEntity
  8
KONSTRUKTIONSELEMENTE
100
AcDbLine
 62
7
  6
CONTINUOUS
 10
62.345196764
 20
104.7544095794
 11
59.2199031988
 21
104.7544095794
  0
LINE
  5
293
100
AcDbEntity
  8
0
100
AcDbLine
 62
7
  6
CONTINUOUS
 10
57.6878143126
 20
105.46883436
 11
54.0652292139
 21
109.7860631659
  0
LINE
  5
294
100
AcDbEntity
  8
RUNDUNGEN
100
AcDbLine
 62
7
  6
CONTINUOUS
 10
54.0652292139
 20
109.7860631659
 11
53.7206012092
 21
110.1967748286
  0
LINE
  5
295
100
AcDbEntity
  8
KONSTRUKTIONSELEMENTE
100
AcDbLine
 62
7
  6
CONTINUOUS
 10
38.0683942906
 20
65.108585678
 11
38.0683942906
 21
67.9370128027
  0
LINE
  5
296
100
AcDbEntity
  8
0
100
AcDbLine
 62
7
  6
CONTINUOUS
 10
77.8026900954
 20
111.2044095794
 11
68.7026900954
 21
111.2044095794
  0
LINE
  5
297
100
AcDbEntity
  8
RUNDUNGEN
100
AcDbLine
 62
7
  6
CONTINUOUS
 10
52.984740903
 20
123.2185111945
 11
50.8486691334
 21
126.9182960282
  0
LINE
  5
298
100
AcDbEntity
  8
KONSTRUKTIONSELEMENTE
100
AcDbLine
 62
7
  6
CONTINUOUS
 10
43.3852468973
 20
56.8900445926
 11
43.3852468973
 21
59.1527862924
  0
LINE
  5
299
100
AcDbEntity
  8
KONSTRUKTIONSELEMENTE
100
AcDbLine
 62
7
  6
CONTINUOUS
 10
43.6667248575
 20
55.9922558408
 11
43.6667248575
 21
56.2750985533
  0
LINE
  5
29A
100
AcDbEntity
  8
0
100
AcDbLine
 62
7
  6
CONTINUOUS
 10
48.2526900954
 20
155.3774019852
 11
48.2526900954
 21
139.1314171736
  0
LINE
  5
29B
100
AcDbEntity
  8
0
100
AcDbLine
 62
7
  6
CONTINUOUS
 10
77.8026900954
 20
120.8044095794
 11
68.7026900954
 21
120.8044095794
  0
LINE
  5
29C
100
AcDbEntity
  8
0
100
AcDbLine
 62
7
  6
CONTINUOUS
 10
48.2526900954
 20
139.1314171736
 11
50.8486691334
 21
126.9182960282
  0
LINE
  5
29D
100
AcDbEntity
  8
RUNDUNGEN
100
AcDbLine
 62
7
  6
CONTINUOUS
 10
53.2526900954
 20
111.4823500479
 11
53.2526900954
 21
130.1196280615
  0
LINE
  5
29E
100
AcDbEntity
  8
BEZUGSACHSEN
100
AcDbLine
 62
7
  6
CONTINUOUS
 10
59.7102209512
 20
159.1879686449
 11
59.7497577594
 21
159.5054896169
  0
LINE
  5
29F
100
AcDbEntity
  8
BEZUGSACHSEN
100
AcDbLine
 62
7
  6
CONTINUOUS
 10
59.2751690997
 20
159.1934325944
 11
59.3377813132
 21
159.4046579383
  0
LINE
  5
2A0
100
AcDbEntity
  8
0
100
AcDbLine
 62
7
  6
CONTINUOUS
 10
57.8018403767
 20
168.5206797882
 11
48.2526900954
 21
155.3774019852
  0
LINE
  5
2A1
100
AcDbEntity
  8
BEZUGSACHSEN
100
AcDbLine
 62
7
  6
CONTINUOUS
 10
56.8856911618
 20
158.9584288787
 11
57.9139420976
 21
160.2175848679
  0
LINE
  5
2A2
100
AcDbEntity
  8
BEZUGSACHSEN
100
AcDbLine
 62
7
  6
CONTINUOUS
 10
57.4723496631
 20
159.0040636496
 11
58.286381613
 21
160.0008954244
  0
LINE
  5
2A3
100
AcDbEntity
  8
BEZUGSACHSEN
100
AcDbLine
 62
7
  6
CONTINUOUS
 10
58.4611371497
 20
158.1966008196
 11
59.2751690997
 21
159.1934325944
  0
LINE
  5
2A4
100
AcDbEntity
  8
BEZUGSACHSEN
100
AcDbLine
 62
7
  6
CONTINUOUS
 10
58.8566520705
 20
157.873615748
 11
59.5849964629
 21
158.765517882
  0
LINE
  5
2A5
100
AcDbEntity
  8
BEZUGSACHSEN
100
AcDbLine
 62
7
  6
CONTINUOUS
 10
59.4361728069
 20
161.8762018946
 11
59.7479454997
 21
162.1369149697
  0
LINE
  5
2A6
100
AcDbEntity
  8
BEZUGSACHSEN
100
AcDbLine
 62
7
  6
CONTINUOUS
 10
60.9950356762
 20
163.179766773
 11
61.3068082204
 21
163.4404797238
  0
LINE
  5
2A7
100
AcDbEntity
  8
BEZUGSACHSEN
100
AcDbLine
 62
7
  6
CONTINUOUS
 10
57.9139420976
 20
160.2175848679
 11
58.1940802369
 21
160.4260782371
  0
LINE
  5
2A8
100
AcDbEntity
  8
BEZUGSACHSEN
100
AcDbLine
 62
7
  6
CONTINUOUS
 10
62.3916300202
 20
164.1978163582
 11
63.8161938496
 21
164.9810096216
  0
LINE
  5
2A9
100
AcDbEntity
  8
BEZUGSACHSEN
100
AcDbLine
 62
7
  6
CONTINUOUS
 10
62.9937807049
 20
163.9461433083
 11
64.062203577
 21
164.5335382559
  0
LINE
  5
2AA
100
AcDbEntity
  8
0
100
AcDbLine
 62
7
  6
CONTINUOUS
 10
65.2526900954
 20
170.9416076155
 11
57.8018403767
 21
168.5206797882
  0
LINE
  5
2AB
100
AcDbEntity
  8
BEZUGSACHSEN
100
AcDbLine
 62
7
  6
CONTINUOUS
 10
63.3452637962
 20
160.2636648147
 11
63.3347313278
 21
160.6986234974
  0
LINE
  5
2AC
100
AcDbEntity
  8
KONSTRUKTIONSELEMENTE
100
AcDbLine
 62
7
  6
CONTINUOUS
 10
61.6876565892
 20
120.9505620021
 11
61.6876565892
 21
115.7154095794
  0
LINE
  5
2AD
100
AcDbEntity
  8
0
100
AcDbLine
 62
7
  6
CONTINUOUS
 10
65.2526900954
 20
276.0044095794
 11
65.2526900954
 21
150.0044095794
  0
LINE
  5
2AE
100
AcDbEntity
  8
KONSTRUKTIONSELEMENTE
100
AcDbLine
 62
7
  6
CONTINUOUS
 10
65.2526900954
 20
98.2018483687
 11
65.2526900954
 21
87.5952466509
  0
LINE
  5
2AF
100
AcDbEntity
  8
KONSTRUKTIONSELEMENTE
100
AcDbLine
 62
7
  6
CONTINUOUS
 10
68.0126900954
 20
29.4003585593
 11
68.0126900954
 21
21.1979198975
  0
LINE
  5
2B0
100
AcDbEntity
  8
0
100
AcDbLine
 62
7
  6
CONTINUOUS
 10
68.7026900954
 20
106.5932488
 11
68.7026900954
 21
115.7154095794
  0
LINE
  5
2B1
100
AcDbEntity
  8
KONSTRUKTIONSELEMENTE
100
AcDbLine
 62
7
  6
CONTINUOUS
 10
68.7026900954
 20
115.7154095794
 11
68.7026900954
 21
126.2044095794
  0
LINE
  5
2B2
100
AcDbEntity
  8
KONSTRUKTIONSELEMENTE
100
AcDbLine
 62
7
  6
CONTINUOUS
 10
69.6126900954
 20
20.0665490476
 11
69.6126900954
 21
29.1175158468
  0
LINE
  5
2B3
100
AcDbEntity
  8
KONSTRUKTIONSELEMENTE
100
AcDbLine
 62
7
  6
CONTINUOUS
 10
69.7526900954
 20
129.103067531
 11
69.7526900954
 21
120.8044095794
  0
LINE
  5
2B4
100
AcDbEntity
  8
KONSTRUKTIONSELEMENTE
100
AcDbLine
 62
7
  6
CONTINUOUS
 10
69.7526900954
 20
98.2018483687
 11
69.7526900954
 21
87.5952466509
  0
LINE
  5
2B5
100
AcDbEntity
  8
BEZUGSACHSEN
100
AcDbLine
 62
7
  6
CONTINUOUS
 10
62.8670725116
 20
160.3075540712
 11
62.9137682898
 21
160.5684855639
  0
LINE
  5
2B6
100
AcDbEntity
  8
BEZUGSACHSEN
100
AcDbLine
 62
7
  6
CONTINUOUS
 10
63.2466058043
 20
159.9592811092
 11
63.3452637962
 21
160.2636648147
  0
LINE
  5
2B7
100
AcDbEntity
  8
BEZUGSACHSEN
100
AcDbLine
 62
7
  6
CONTINUOUS
 10
62.7138192775
 20
160.0684578686
 11
62.8670725116
 21
160.3075540712
  0
LINE
  5
2B8
100
AcDbEntity
  8
BEZUGSACHSEN
100
AcDbLine
 62
7
  6
CONTINUOUS
 10
63.0413906825
 20
159.6767329083
 11
63.2466058043
 21
159.9592811092
  0
LINE
  5
2B9
100
AcDbEntity
  8
BEZUGSACHSEN
100
AcDbLine
 62
7
  6
CONTINUOUS
 10
59.983891744
 20
156.428378849
 11
60.2409544779
 21
156.7431678463
  0
LINE
  5
2BA
100
AcDbEntity
  8
BEZUGSACHSEN
100
AcDbLine
 62
7
  6
CONTINUOUS
 10
61.3120491618
 20
158.0547886183
 11
61.6119557665
 21
158.4220425486
  0
LINE
  5
2BB
100
AcDbEntity
  8
BEZUGSACHSEN
100
AcDbLine
 62
7
  6
CONTINUOUS
 10
62.5059708156
 20
159.8946491519
 11
62.7138192775
 21
160.0684578686
  0
LINE
  5
2BC
100
AcDbEntity
  8
BEZUGSACHSEN
100
AcDbLine
 62
7
  6
CONTINUOUS
 10
62.8335422207
 20
159.5029241915
 11
63.0413906825
 21
159.6767329083
  0
LINE
  5
2BD
100
AcDbEntity
  8
BEZUGSACHSEN
100
AcDbLine
 62
7
  6
CONTINUOUS
 10
64.4288376486
 20
161.3358933092
 11
65.2526900954
 21
161.7888289188
  0
LINE
  5
2BE
100
AcDbEntity
  8
BEZUGSACHSEN
100
AcDbLine
 62
7
  6
CONTINUOUS
 10
64.3187064473
 20
160.6926235754
 11
65.2526900954
 21
161.206106851
  0
LINE
  5
2BF
100
AcDbEntity
  8
BEZUGSACHSEN
100
AcDbLine
 62
7
  6
CONTINUOUS
 10
58.286381613
 20
160.0008954244
 11
58.4808321335
 21
160.1044590777
  0
LINE
  5
2C0
100
AcDbEntity
  8
BEZUGSACHSEN
100
AcDbLine
 62
7
  6
CONTINUOUS
 10
62.5191366337
 20
159.3509509735
 11
62.8335422207
 21
159.5029241915
  0
LINE
  5
2C1
100
AcDbEntity
  8
BEZUGSACHSEN
100
AcDbLine
 62
7
  6
CONTINUOUS
 10
82.7044366323
 20
163.1263253449
 11
82.9052724924
 21
163.2099303199
  0
LINE
  5
2C2
100
AcDbEntity
  8
BEZUGSACHSEN
100
AcDbLine
 62
7
  6
CONTINUOUS
 10
62.2435274233
 20
159.7861281695
 11
62.5059708156
 21
159.8946491519
  0
LINE
  5
2C3
100
AcDbEntity
  8
BEZUGSACHSEN
100
AcDbLine
 62
7
  6
CONTINUOUS
 10
59.2916306251
 20
159.6172493447
 11
59.1367169128
 21
159.8312066633
  0
LINE
  5
2C4
100
AcDbEntity
  8
BEZUGSACHSEN
100
AcDbLine
 62
7
  6
CONTINUOUS
 10
59.6146125125
 20
159.8782074967
 11
59.4596988002
 21
160.0921648154
  0
LINE
  5
2C5
100
AcDbEntity
  8
BEZUGSACHSEN
100
AcDbLine
 62
7
  6
CONTINUOUS
 10
62.8539066887
 20
160.8512522552
 11
62.6874879673
 21
161.1558544397
  0
LINE
  5
2C6
100
AcDbEntity
  8
BEZUGSACHSEN
100
AcDbLine
 62
7
  6
CONTINUOUS
 10
59.7497577594
 20
159.5054896169
 11
59.6146125125
 21
159.8782074967
  0
LINE
  5
2C7
100
AcDbEntity
  8
BEZUGSACHSEN
100
AcDbLine
 62
7
  6
CONTINUOUS
 10
63.3347313278
 20
160.6986234974
 11
63.2202744606
 21
161.0466777203
  0
LINE
  5
2C8
100
AcDbEntity
  8
BEZUGSACHSEN
100
AcDbLine
 62
7
  6
CONTINUOUS
 10
59.3377813132
 20
159.4046579383
 11
59.2916306251
 21
159.6172493447
  0
LINE
  5
2C9
100
AcDbEntity
  8
BEZUGSACHSEN
100
AcDbLine
 62
7
  6
CONTINUOUS
 10
62.9137682898
 20
160.5684855639
 11
62.8539066887
 21
160.8512522552
  0
LINE
  5
2CA
100
AcDbEntity
  8
KONSTRUKTIONSELEMENTE
100
AcDbLine
 62
7
  6
CONTINUOUS
 10
70.7526900954
 20
142.4124072896
 11
70.7526900954
 21
136.5544454965
  0
LINE
  5
2CB
100
AcDbEntity
  8
KONSTRUKTIONSELEMENTE
100
AcDbLine
 62
7
  6
CONTINUOUS
 10
70.7526900954
 20
130.0002176898
 11
70.7526900954
 21
128.3375175139
  0
LINE
  5
2CC
100
AcDbEntity
  8
KONSTRUKTIONSELEMENTE
100
AcDbLine
 62
7
  6
CONTINUOUS
 10
70.7526900954
 20
88.5722758779
 11
70.7526900954
 21
71.0618682378
  0
LINE
  5
2CD
100
AcDbEntity
  8
KONSTRUKTIONSELEMENTE
100
AcDbLine
 62
7
  6
CONTINUOUS
 10
71.0026900954
 20
111.2044095794
 11
71.0026900954
 21
97.401595837
  0
LINE
  5
2CE
100
AcDbEntity
  8
KONSTRUKTIONSELEMENTE
100
AcDbLine
 62
7
  6
CONTINUOUS
 10
75.5026900954
 20
111.2044095794
 11
75.5026900954
 21
97.401595837
  0
LINE
  5
2CF
100
AcDbEntity
  8
KONSTRUKTIONSELEMENTE
100
AcDbLine
 62
7
  6
CONTINUOUS
 10
75.7526900954
 20
142.4124072896
 11
75.7526900954
 21
136.5544454965
  0
LINE
  5
2D0
100
AcDbEntity
  8
KONSTRUKTIONSELEMENTE
100
AcDbLine
 62
7
  6
CONTINUOUS
 10
75.7526900954
 20
130.0002176898
 11
75.7526900954
 21
128.3375175139
  0
LINE
  5
2D1
100
AcDbEntity
  8
KONSTRUKTIONSELEMENTE
100
AcDbLine
 62
7
  6
CONTINUOUS
 10
75.7526900954
 20
88.5722758779
 11
75.7526900954
 21
71.0618682378
  0
LINE
  5
2D2
100
AcDbEntity
  8
KONSTRUKTIONSELEMENTE
100
AcDbLine
 62
7
  6
CONTINUOUS
 10
76.7526900954
 20
87.5952466509
 11
76.7526900954
 21
98.2018483687
  0
LINE
  5
2D3
100
AcDbEntity
  8
KONSTRUKTIONSELEMENTE
100
AcDbLine
 62
7
  6
CONTINUOUS
 10
76.7526900954
 20
120.8044095794
 11
76.7526900954
 21
129.103067531
  0
LINE
  5
2D4
100
AcDbEntity
  8
KONSTRUKTIONSELEMENTE
100
AcDbLine
 62
7
  6
CONTINUOUS
 10
76.8926900954
 20
20.0665490476
 11
76.8926900954
 21
29.1175158468
  0
LINE
  5
2D5
100
AcDbEntity
  8
0
100
AcDbLine
 62
7
  6
CONTINUOUS
 10
77.8026900954
 20
115.7154095794
 11
77.8026900954
 21
106.5932488
  0
LINE
  5
2D6
100
AcDbEntity
  8
KONSTRUKTIONSELEMENTE
100
AcDbLine
 62
7
  6
CONTINUOUS
 10
77.8026900954
 20
115.7154095794
 11
77.8026900954
 21
126.2044095794
  0
LINE
  5
2D7
100
AcDbEntity
  8
KONSTRUKTIONSELEMENTE
100
AcDbLine
 62
7
  6
CONTINUOUS
 10
78.4926900954
 20
21.1979198975
 11
78.4926900954
 21
29.4003585593
  0
LINE
  5
2D8
100
AcDbEntity
  8
BEZUGSACHSEN
100
AcDbLine
 62
7
  6
CONTINUOUS
 10
83.7892163649
 20
161.1839025532
 11
83.6217218956
 21
160.8798908317
  0
LINE
  5
2D9
100
AcDbEntity
  8
BEZUGSACHSEN
100
AcDbLine
 62
7
  6
CONTINUOUS
 10
81.2526900954
 20
164.4211851297
 11
81.8248002768
 21
165.458300596
  0
LINE
  5
2DA
100
AcDbEntity
  8
BEZUGSACHSEN
100
AcDbLine
 62
7
  6
CONTINUOUS
 10
81.3585031138
 20
163.7715940393
 11
81.9751220669
 21
164.8893945503
  0
LINE
  5
2DB
100
AcDbEntity
  8
BEZUGSACHSEN
100
AcDbLine
 62
7
  6
CONTINUOUS
 10
83.211230829
 20
163.6243327424
 11
83.0879069463
 21
163.4007724732
  0
LINE
  5
2DC
100
AcDbEntity
  8
BEZUGSACHSEN
100
AcDbLine
 62
7
  6
CONTINUOUS
 10
83.5670922318
 20
163.4280267974
 11
83.4026604265
 21
163.1299465081
  0
LINE
  5
2DD
100
AcDbEntity
  8
BEZUGSACHSEN
100
AcDbLine
 62
7
  6
CONTINUOUS
 10
83.4783666395
 20
161.4457151011
 11
83.2560466786
 21
161.0766091389
  0
LINE
  5
2DE
100
AcDbEntity
  8
BEZUGSACHSEN
100
AcDbLine
 62
7
  6
CONTINUOUS
 10
83.4783666395
 20
161.4457151011
 11
84.3007490902
 21
162.4221288023
  0
LINE
  5
2DF
100
AcDbEntity
  8
BEZUGSACHSEN
100
AcDbLine
 62
7
  6
CONTINUOUS
 10
83.7892163649
 20
161.1839025532
 11
84.6115988156
 21
162.1603162544
  0
LINE
  5
2E0
100
AcDbEntity
  8
BEZUGSACHSEN
100
AcDbLine
 62
7
  6
CONTINUOUS
 10
85.2700193479
 20
161.0494084061
 11
84.9410663984
 21
160.658842962
  0
LINE
  5
2E1
100
AcDbEntity
  8
BEZUGSACHSEN
100
AcDbLine
 62
7
  6
CONTINUOUS
 10
85.4073409864
 20
160.2661241402
 11
84.9687369769
 21
159.7453701236
  0
LINE
  5
2E2
100
AcDbEntity
  8
BEZUGSACHSEN
100
AcDbLine
 62
7
  6
CONTINUOUS
 10
86.0471436613
 20
160.3948770363
 11
85.2247612106
 21
159.418463335
  0
LINE
  5
2E3
100
AcDbEntity
  8
BEZUGSACHSEN
100
AcDbLine
 62
7
  6
CONTINUOUS
 10
82.9052724924
 20
163.2099303199
 11
83.0879069463
 21
163.4007724732
  0
LINE
  5
2E4
100
AcDbEntity
  8
BEZUGSACHSEN
100
AcDbLine
 62
7
  6
CONTINUOUS
 10
83.2200259726
 20
162.9391043547
 11
83.4026604265
 21
163.1299465081
  0
LINE
  5
2E5
100
AcDbEntity
  8
BEZUGSACHSEN
100
AcDbLine
 62
7
  6
CONTINUOUS
 10
84.3007490902
 20
162.4221288023
 11
84.6266841988
 21
162.7039654292
  0
LINE
  5
2E6
100
AcDbEntity
  8
BEZUGSACHSEN
100
AcDbLine
 62
7
  6
CONTINUOUS
 10
84.6115988156
 20
162.1603162544
 11
84.882708279
 21
162.3770584583
  0
LINE
  5
2E7
100
AcDbEntity
  8
BEZUGSACHSEN
100
AcDbLine
 62
7
  6
CONTINUOUS
 10
84.9536517088
 20
159.2017210856
 11
85.2247612106
 21
159.418463335
  0
LINE
  5
2E8
100
AcDbEntity
  8
BEZUGSACHSEN
100
AcDbLine
 62
7
  6
CONTINUOUS
 10
84.7524530051
 20
159.5937221604
 11
84.9687369769
 21
159.7453701236
  0
LINE
  5
2E9
100
AcDbEntity
  8
BEZUGSACHSEN
100
AcDbLine
 62
7
  6
CONTINUOUS
 10
82.8776635812
 20
162.7391772466
 11
83.2200259726
 21
162.9391043547
  0
LINE
  5
2EA
100
AcDbEntity
  8
BEZUGSACHSEN
100
AcDbLine
 62
7
  6
CONTINUOUS
 10
84.6266841988
 20
162.7039654292
 11
84.9496035308
 21
162.8770708768
  0
LINE
  5
2EB
100
AcDbEntity
  8
BEZUGSACHSEN
100
AcDbLine
 62
7
  6
CONTINUOUS
 10
87.8856605436
 20
156.1884118873
 11
88.1124849427
 21
156.3056234237
  0
LINE
  5
2EC
100
AcDbEntity
  8
BEZUGSACHSEN
100
AcDbLine
 62
7
  6
CONTINUOUS
 10
89.4289189248
 20
156.9096468438
 11
89.6557433239
 21
157.0268583802
  0
LINE
  5
2ED
100
AcDbEntity
  8
BEZUGSACHSEN
100
AcDbLine
 62
7
  6
CONTINUOUS
 10
84.882708279
 20
162.3770584583
 11
85.1508010872
 21
162.4850708462
  0
LINE
  5
2EE
100
AcDbEntity
  8
BEZUGSACHSEN
100
AcDbLine
 62
7
  6
CONTINUOUS
 10
88.5648863909
 20
153.9470674056
 11
89.0051197623
 21
154.0220665571
  0
LINE
  5
2EF
100
AcDbEntity
  8
BEZUGSACHSEN
100
AcDbLine
 62
7
  6
CONTINUOUS
 10
59.7102209512
 20
159.1879686449
 11
61.6119557665
 21
158.4220425486
  0
LINE
  5
2F0
100
AcDbEntity
  8
BEZUGSACHSEN
100
AcDbLine
 62
7
  6
CONTINUOUS
 10
59.5849964629
 20
158.765517882
 11
61.3120491618
 21
158.0547886183
  0
LINE
  5
2F1
100
AcDbEntity
  8
BEZUGSACHSEN
100
AcDbLine
 62
7
  6
CONTINUOUS
 10
58.6983580593
 20
160.101727103
 11
58.9389592678
 21
159.99269935
  0
LINE
  5
2F2
100
AcDbEntity
  8
BEZUGSACHSEN
100
AcDbLine
 62
7
  6
CONTINUOUS
 10
58.9554207932
 20
160.4165161003
 11
59.1960220017
 21
160.3074883473
  0
LINE
  5
2F3
100
AcDbEntity
  8
BEZUGSACHSEN
100
AcDbLine
 62
7
  6
CONTINUOUS
 10
61.4535634268
 20
159.5693043737
 11
61.7758686071
 21
159.3950587433
  0
LINE
  5
2F4
100
AcDbEntity
  8
BEZUGSACHSEN
100
AcDbLine
 62
7
  6
CONTINUOUS
 10
61.4403977908
 20
160.1130026364
 11
61.7107405944
 21
159.895304686
  0
LINE
  5
2F5
100
AcDbEntity
  8
BEZUGSACHSEN
100
AcDbLine
 62
7
  6
CONTINUOUS
 10
59.983891744
 20
156.428378849
 11
56.8856911618
 21
158.9584288787
  0
LINE
  5
2F6
100
AcDbEntity
  8
BEZUGSACHSEN
100
AcDbLine
 62
7
  6
CONTINUOUS
 10
60.2409544779
 20
156.7431678463
 11
58.8566520705
 21
157.873615748
  0
LINE
  5
2F7
100
AcDbEntity
  8
BEZUGSACHSEN
100
AcDbLine
 62
7
  6
CONTINUOUS
 10
58.4611371497
 20
158.1966008196
 11
57.4723496631
 21
159.0040636496
  0
LINE
  5
2F8
100
AcDbEntity
  8
BEZUGSACHSEN
100
AcDbLine
 62
7
  6
CONTINUOUS
 10
58.9389592678
 20
159.99269935
 11
59.1367169128
 21
159.8312066633
  0
LINE
  5
2F9
100
AcDbEntity
  8
BEZUGSACHSEN
100
AcDbLine
 62
7
  6
CONTINUOUS
 10
59.1960220017
 20
160.3074883473
 11
59.4596988002
 21
160.0921648154
  0
LINE
  5
2FA
100
AcDbEntity
  8
BEZUGSACHSEN
100
AcDbLine
 62
7
  6
CONTINUOUS
 10
61.128625098
 20
159.8522895613
 11
61.4535634268
 21
159.5693043737
  0
LINE
  5
2FB
100
AcDbEntity
  8
BEZUGSACHSEN
100
AcDbLine
 62
7
  6
CONTINUOUS
 10
64.8424248552
 20
164.379764155
 11
65.0657879399
 21
164.1140828394
  0
LINE
  5
2FC
100
AcDbEntity
  8
BEZUGSACHSEN
100
AcDbLine
 62
7
  6
CONTINUOUS
 10
61.128625098
 20
159.8522895613
 11
59.4361728069
 21
161.8762018946
  0
LINE
  5
2FD
100
AcDbEntity
  8
BEZUGSACHSEN
100
AcDbLine
 62
7
  6
CONTINUOUS
 10
61.4403977908
 20
160.1130026364
 11
59.7479454997
 21
162.1369149697
  0
LINE
  5
2FE
100
AcDbEntity
  8
BEZUGSACHSEN
100
AcDbLine
 62
7
  6
CONTINUOUS
 10
60.9950356762
 20
163.179766773
 11
62.6874879673
 21
161.1558544397
  0
LINE
  5
2FF
100
AcDbEntity
  8
BEZUGSACHSEN
100
AcDbLine
 62
7
  6
CONTINUOUS
 10
61.3068082204
 20
163.4404797238
 11
62.9992605115
 21
161.4165673905
  0
LINE
  5
300
100
AcDbEntity
  8
BEZUGSACHSEN
100
AcDbLine
 62
7
  6
CONTINUOUS
 10
65.1575640765
 20
164.6501412408
 11
65.2526900954
 21
164.5277059361
  0
LINE
  5
301
100
AcDbEntity
  8
BEZUGSACHSEN
100
AcDbLine
 62
7
  6
CONTINUOUS
 10
63.2202744606
 20
161.0466777203
 11
62.9992605115
 21
161.4165673905
  0
LINE
  5
302
100
AcDbEntity
  8
BEZUGSACHSEN
100
AcDbLine
 62
7
  6
CONTINUOUS
 10
64.3187064473
 20
160.6926235754
 11
62.3916300202
 21
164.1978163582
  0
LINE
  5
303
100
AcDbEntity
  8
BEZUGSACHSEN
100
AcDbLine
 62
7
  6
CONTINUOUS
 10
64.4288376486
 20
161.3358933092
 11
62.9937807049
 21
163.9461433083
  0
LINE
  5
304
100
AcDbEntity
  8
BEZUGSACHSEN
100
AcDbLine
 62
7
  6
CONTINUOUS
 10
65.0657879399
 20
164.1140828394
 11
65.2526900954
 21
163.7741232624
  0
LINE
  5
305
100
AcDbEntity
  8
BEZUGSACHSEN
100
AcDbLine
 62
7
  6
CONTINUOUS
 10
83.6176063018
 20
164.080537818
 11
83.6311053131
 21
163.6843047649
  0
LINE
  5
306
100
AcDbEntity
  8
0
100
AcDbLine
 62
7
  6
CONTINUOUS
 10
81.2526900954
 20
276.0044095794
 11
81.2526900954
 21
150.0044095794
  0
LINE
  5
307
100
AcDbEntity
  8
KONSTRUKTIONSELEMENTE
100
AcDbLine
 62
7
  6
CONTINUOUS
 10
81.2526900954
 20
87.5952466509
 11
81.2526900954
 21
98.2018483687
  0
LINE
  5
308
100
AcDbEntity
  8
KONSTRUKTIONSELEMENTE
100
AcDbLine
 62
7
  6
CONTINUOUS
 10
84.8177236017
 20
120.9505620021
 11
84.8177236017
 21
115.7154095794
  0
LINE
  5
309
100
AcDbEntity
  8
BEZUGSACHSEN
100
AcDbLine
 62
7
  6
CONTINUOUS
 10
83.1403620395
 20
160.7289606155
 11
83.1282924136
 21
160.2940425973
  0
LINE
  5
30A
100
AcDbEntity
  8
BEZUGSACHSEN
100
AcDbLine
 62
7
  6
CONTINUOUS
 10
86.7749628068
 20
161.7847493423
 11
86.7628932002
 21
161.3498313469
  0
LINE
  5
30B
100
AcDbEntity
  8
BEZUGSACHSEN
100
AcDbLine
 62
7
  6
CONTINUOUS
 10
87.8319971483
 20
155.5507188198
 11
87.8051647654
 21
155.2318736771
  0
LINE
  5
30C
100
AcDbEntity
  8
BEZUGSACHSEN
100
AcDbLine
 62
7
  6
CONTINUOUS
 10
87.4362763216
 20
155.5749655351
 11
87.3649314007
 21
155.156874529
  0
LINE
  5
30D
100
AcDbEntity
  8
BEZUGSACHSEN
100
AcDbLine
 62
7
  6
CONTINUOUS
 10
82.5582063484
 20
162.721008086
 11
82.1465161193
 21
160.7125884964
  0
LINE
  5
30E
100
AcDbEntity
  8
BEZUGSACHSEN
100
AcDbLine
 62
7
  6
CONTINUOUS
 10
82.1201291006
 20
162.7682739906
 11
81.7313453877
 21
160.9416115996
  0
LINE
  5
30F
100
AcDbEntity
  8
BEZUGSACHSEN
100
AcDbLine
 62
7
  6
CONTINUOUS
 10
83.6217218956
 20
160.8798908317
 11
83.5608616006
 21
160.5973375933
  0
LINE
  5
310
100
AcDbEntity
  8
BEZUGSACHSEN
100
AcDbLine
 62
7
  6
CONTINUOUS
 10
83.2752439103
 20
163.8806107099
 11
83.211230829
 21
163.6243327424
  0
LINE
  5
311
100
AcDbEntity
  8
BEZUGSACHSEN
100
AcDbLine
 62
7
  6
CONTINUOUS
 10
83.6311053131
 20
163.6843047649
 11
83.5670922318
 21
163.4280267974
  0
LINE
  5
312
100
AcDbEntity
  8
BEZUGSACHSEN
100
AcDbLine
 62
7
  6
CONTINUOUS
 10
89.4953762336
 20
156.4102701689
 11
89.3929357177
 21
156.052354514
  0
LINE
  5
313
100
AcDbEntity
  8
BEZUGSACHSEN
100
AcDbLine
 62
7
  6
CONTINUOUS
 10
83.2560466786
 20
161.0766091389
 11
83.1403620395
 21
160.7289606155
  0
LINE
  5
314
100
AcDbEntity
  8
BEZUGSACHSEN
100
AcDbLine
 62
7
  6
CONTINUOUS
 10
87.5698124789
 20
155.8727058627
 11
87.4362763216
 21
155.5749655351
  0
LINE
  5
315
100
AcDbEntity
  8
BEZUGSACHSEN
100
AcDbLine
 62
7
  6
CONTINUOUS
 10
89.188679046
 20
156.6330113587
 11
89.0551429152
 21
156.3352710448
  0
LINE
  5
316
100
AcDbEntity
  8
BEZUGSACHSEN
100
AcDbLine
 62
7
  6
CONTINUOUS
 10
86.3423924916
 20
161.4814554134
 11
86.2297233603
 21
161.2425377502
  0
LINE
  5
317
100
AcDbEntity
  8
BEZUGSACHSEN
100
AcDbLine
 62
7
  6
CONTINUOUS
 10
86.7628932002
 20
161.3498313469
 11
86.5405730856
 21
160.9807252023
  0
LINE
  5
318
100
AcDbEntity
  8
BEZUGSACHSEN
100
AcDbLine
 62
7
  6
CONTINUOUS
 10
88.0411414651
 20
155.8875296733
 11
87.8319971483
 21
155.5507188198
  0
LINE
  5
319
100
AcDbEntity
  8
BEZUGSACHSEN
100
AcDbLine
 62
7
  6
CONTINUOUS
 10
89.2856076095
 20
154.7769711884
 11
89.0764632398
 21
154.4401603076
  0
LINE
  5
31A
100
AcDbEntity
  8
BEZUGSACHSEN
100
AcDbLine
 62
7
  6
CONTINUOUS
 10
89.6600079793
 20
156.6478351418
 11
89.4953762336
 21
156.4102701689
  0
LINE
  5
31B
100
AcDbEntity
  8
BEZUGSACHSEN
100
AcDbLine
 62
7
  6
CONTINUOUS
 10
90.7221623487
 20
155.5193110283
 11
90.5575303911
 21
155.2817459459
  0
LINE
  5
31C
100
AcDbEntity
  8
BEZUGSACHSEN
100
AcDbLine
 62
7
  6
CONTINUOUS
 10
89.4289189248
 20
156.9096468438
 11
89.188679046
 21
156.6330113587
  0
LINE
  5
31D
100
AcDbEntity
  8
BEZUGSACHSEN
100
AcDbLine
 62
7
  6
CONTINUOUS
 10
87.8856605436
 20
156.1884118873
 11
87.5698124789
 21
155.8727058627
  0
LINE
  5
31E
100
AcDbEntity
  8
BEZUGSACHSEN
100
AcDbLine
 62
7
  6
CONTINUOUS
 10
89.547792279
 20
154.4549841454
 11
89.2319441613
 21
154.1392780935
  0
LINE
  5
31F
100
AcDbEntity
  8
BEZUGSACHSEN
100
AcDbLine
 62
7
  6
CONTINUOUS
 10
91.0288595363
 20
155.2965698385
 11
90.7130113127
 21
154.9808637318
  0
LINE
  5
320
100
AcDbEntity
  8
BEZUGSACHSEN
100
AcDbLine
 62
7
  6
CONTINUOUS
 10
88.0411414651
 20
155.8875296733
 11
88.2679658642
 21
156.0047412097
  0
LINE
  5
321
100
AcDbEntity
  8
BEZUGSACHSEN
100
AcDbLine
 62
7
  6
CONTINUOUS
 10
89.8112242454
 20
156.7259761661
 11
89.6600079793
 21
156.6478351418
  0
LINE
  5
322
100
AcDbEntity
  8
BEZUGSACHSEN
100
AcDbLine
 62
7
  6
CONTINUOUS
 10
90.5575303911
 20
155.2817459459
 11
90.4063141251
 21
155.2036049217
  0
LINE
  5
323
100
AcDbEntity
  8
BEZUGSACHSEN
100
AcDbLine
 62
7
  6
CONTINUOUS
 10
89.0764632398
 20
154.4401603076
 11
88.8496388407
 21
154.3229487712
  0
LINE
  5
324
100
AcDbEntity
  8
BEZUGSACHSEN
100
AcDbLine
 62
7
  6
CONTINUOUS
 10
90.7130113127
 20
154.9808637318
 11
90.4861869136
 21
154.8636521954
  0
LINE
  5
325
100
AcDbEntity
  8
BEZUGSACHSEN
100
AcDbLine
 62
7
  6
CONTINUOUS
 10
89.2319441613
 20
154.1392780935
 11
89.0051197623
 21
154.0220665571
  0
LINE
  5
326
100
AcDbEntity
  8
BEZUGSACHSEN
100
AcDbLine
 62
7
  6
CONTINUOUS
 10
84.5271173636
 20
159.1158851329
 11
84.9536517088
 21
159.2017210856
  0
LINE
  5
327
100
AcDbEntity
  8
BEZUGSACHSEN
100
AcDbLine
 62
7
  6
CONTINUOUS
 10
84.9496035308
 20
162.8770708768
 11
85.3761378569
 21
162.9629068067
  0
LINE
  5
328
100
AcDbEntity
  8
BEZUGSACHSEN
100
AcDbLine
 62
7
  6
CONTINUOUS
 10
88.1124849427
 20
156.3056234237
 11
88.552718367
 21
156.3806226026
  0
LINE
  5
329
100
AcDbEntity
  8
BEZUGSACHSEN
100
AcDbLine
 62
7
  6
CONTINUOUS
 10
89.6557433239
 20
157.0268583802
 11
90.0959768541
 21
157.1018576137
  0
LINE
  5
32A
100
AcDbEntity
  8
BEZUGSACHSEN
100
AcDbLine
 62
7
  6
CONTINUOUS
 10
62.202097702
 20
159.3077172455
 11
62.5191366337
 21
159.3509509735
  0
LINE
  5
32B
100
AcDbEntity
  8
BEZUGSACHSEN
100
AcDbLine
 62
7
  6
CONTINUOUS
 10
90.1215617282
 20
154.8277235835
 11
90.4861869136
 21
154.8636521954
  0
LINE
  5
32C
100
AcDbEntity
  8
BEZUGSACHSEN
100
AcDbLine
 62
7
  6
CONTINUOUS
 10
61.9784506574
 20
159.7863467114
 11
62.2435274233
 21
159.7861281695
  0
LINE
  5
32D
100
AcDbEntity
  8
BEZUGSACHSEN
100
AcDbLine
 62
7
  6
CONTINUOUS
 10
84.4873771208
 20
159.5944399075
 11
84.7524530051
 21
159.5937221604
  0
LINE
  5
32E
100
AcDbEntity
  8
BEZUGSACHSEN
100
AcDbLine
 62
7
  6
CONTINUOUS
 10
90.1172970727
 20
155.2067468218
 11
90.4063141251
 21
155.2036049217
  0
LINE
  5
32F
100
AcDbEntity
  8
BEZUGSACHSEN
100
AcDbLine
 62
7
  6
CONTINUOUS
 10
89.8112242454
 20
156.7259761661
 11
90.1002415095
 21
156.7228343754
  0
LINE
  5
330
100
AcDbEntity
  8
BEZUGSACHSEN
100
AcDbLine
 62
7
  6
CONTINUOUS
 10
58.4808321335
 20
160.1044590777
 11
58.6983580593
 21
160.101727103
  0
LINE
  5
331
100
AcDbEntity
  8
BEZUGSACHSEN
100
AcDbLine
 62
7
  6
CONTINUOUS
 10
88.4539179875
 20
154.3471954728
 11
88.8496388407
 21
154.3229487712
  0
LINE
  5
332
100
AcDbEntity
  8
BEZUGSACHSEN
100
AcDbLine
 62
7
  6
CONTINUOUS
 10
88.2679658642
 20
156.0047412097
 11
88.6636867704
 21
155.9804945354
  0
LINE
  5
333
100
AcDbEntity
  8
BEZUGSACHSEN
100
AcDbLine
 62
7
  6
CONTINUOUS
 10
84.2102316347
 20
159.1602396647
 11
84.5271173636
 21
159.1158851329
  0
LINE
  5
334
100
AcDbEntity
  8
BEZUGSACHSEN
100
AcDbLine
 62
7
  6
CONTINUOUS
 10
58.5632128124
 20
160.4744449827
 11
58.9554207932
 21
160.4165161003
  0
LINE
  5
335
100
AcDbEntity
  8
BEZUGSACHSEN
100
AcDbLine
 62
7
  6
CONTINUOUS
 10
64.3406322767
 20
164.589491781
 11
64.6007059978
 21
164.538233817
  0
LINE
  5
336
100
AcDbEntity
  8
BEZUGSACHSEN
100
AcDbLine
 62
7
  6
CONTINUOUS
 10
88.2447736972
 20
154.0103846331
 11
88.5648863909
 21
153.9470674056
  0
LINE
  5
337
100
AcDbEntity
  8
BEZUGSACHSEN
100
AcDbLine
 62
7
  6
CONTINUOUS
 10
89.801449061
 20
154.8910408246
 11
90.1215617282
 21
154.8277235835
  0
LINE
  5
338
100
AcDbEntity
  8
BEZUGSACHSEN
100
AcDbLine
 62
7
  6
CONTINUOUS
 10
90.0959768541
 20
157.1018576137
 11
90.4160895213
 21
157.0385403726
  0
LINE
  5
339
100
AcDbEntity
  8
BEZUGSACHSEN
100
AcDbLine
 62
7
  6
CONTINUOUS
 10
61.7758686071
 20
159.3950587433
 11
62.202097702
 21
159.3077172455
  0
LINE
  5
33A
100
AcDbEntity
  8
BEZUGSACHSEN
100
AcDbLine
 62
7
  6
CONTINUOUS
 10
89.7660887906
 20
155.3302394039
 11
90.1172970727
 21
155.2067468218
  0
LINE
  5
33B
100
AcDbEntity
  8
BEZUGSACHSEN
100
AcDbLine
 62
7
  6
CONTINUOUS
 10
88.552718367
 20
156.3806226026
 11
88.9039266492
 21
156.2571300205
  0
LINE
  5
33C
100
AcDbEntity
  8
BEZUGSACHSEN
100
AcDbLine
 62
7
  6
CONTINUOUS
 10
90.1002415095
 20
156.7228343754
 11
90.4514497917
 21
156.5993417933
  0
LINE
  5
33D
100
AcDbEntity
  8
BEZUGSACHSEN
100
AcDbLine
 62
7
  6
CONTINUOUS
 10
61.7107405944
 20
159.895304686
 11
61.9784506574
 21
159.7863467114
  0
LINE
  5
33E
100
AcDbEntity
  8
BEZUGSACHSEN
100
AcDbLine
 62
7
  6
CONTINUOUS
 10
84.2253192695
 20
159.7038866996
 11
84.4873771208
 21
159.5944399075
  0
LINE
  5
33F
100
AcDbEntity
  8
BEZUGSACHSEN
100
AcDbLine
 62
7
  6
CONTINUOUS
 10
64.4734101493
 20
165.0509714125
 11
64.8748437127
 21
164.8831892548
  0
LINE
  5
340
100
AcDbEntity
  8
BEZUGSACHSEN
100
AcDbLine
 62
7
  6
CONTINUOUS
 10
87.8624697802
 20
154.1940525458
 11
88.2447736972
 21
154.0103846331
  0
LINE
  5
341
100
AcDbEntity
  8
BEZUGSACHSEN
100
AcDbLine
 62
7
  6
CONTINUOUS
 10
90.4160895213
 20
157.0385403726
 11
90.7983948419
 21
156.8548696949
  0
LINE
  5
342
100
AcDbEntity
  8
BEZUGSACHSEN
100
AcDbLine
 62
7
  6
CONTINUOUS
 10
83.8963662815
 20
159.31332121
 11
84.2102316347
 21
159.1602396647
  0
LINE
  5
343
100
AcDbEntity
  8
BEZUGSACHSEN
100
AcDbLine
 62
7
  6
CONTINUOUS
 10
81.7313453877
 20
160.9416115996
 11
82.1465161193
 21
160.7125884964
  0
LINE
  5
344
100
AcDbEntity
  8
BEZUGSACHSEN
100
AcDbLine
 62
7
  6
CONTINUOUS
 10
88.1783178383
 20
154.509758567
 11
88.4539179875
 21
154.3471954728
  0
LINE
  5
345
100
AcDbEntity
  8
BEZUGSACHSEN
100
AcDbLine
 62
7
  6
CONTINUOUS
 10
89.6636482746
 20
154.972323749
 11
89.801449061
 21
154.8910408246
  0
LINE
  5
346
100
AcDbEntity
  8
BEZUGSACHSEN
100
AcDbLine
 62
7
  6
CONTINUOUS
 10
88.6636867704
 20
155.9804945354
 11
88.9392869196
 21
155.8179314412
  0
LINE
  5
347
100
AcDbEntity
  8
BEZUGSACHSEN
100
AcDbLine
 62
7
  6
CONTINUOUS
 10
88.9039266492
 20
156.2571300205
 11
89.0417274355
 21
156.1758470961
  0
LINE
  5
348
100
AcDbEntity
  8
BEZUGSACHSEN
100
AcDbLine
 62
7
  6
CONTINUOUS
 10
64.6007059978
 20
164.538233817
 11
64.8424248552
 21
164.379764155
  0
LINE
  5
349
100
AcDbEntity
  8
BEZUGSACHSEN
100
AcDbLine
 62
7
  6
CONTINUOUS
 10
64.8748437127
 20
164.8831892548
 11
65.1575640765
 21
164.6501412408
  0
LINE
  5
34A
100
AcDbEntity
  8
BEZUGSACHSEN
100
AcDbLine
 62
7
  6
CONTINUOUS
 10
83.4300916935
 20
159.7060400318
 11
83.8963662815
 21
159.31332121
  0
LINE
  5
34B
100
AcDbEntity
  8
BEZUGSACHSEN
100
AcDbLine
 62
7
  6
CONTINUOUS
 10
83.7590446814
 20
160.0966055215
 11
84.2253192695
 21
159.7038866996
  0
LINE
  5
34C
100
AcDbEntity
  8
BEZUGSACHSEN
100
AcDbLine
 62
7
  6
CONTINUOUS
 10
87.9783258222
 20
154.7113921734
 11
88.1783178383
 21
154.509758567
  0
LINE
  5
34D
100
AcDbEntity
  8
BEZUGSACHSEN
100
AcDbLine
 62
7
  6
CONTINUOUS
 10
87.631380719
 20
154.4558642444
 11
87.8624697802
 21
154.1940525458
  0
LINE
  5
34E
100
AcDbEntity
  8
BEZUGSACHSEN
100
AcDbLine
 62
7
  6
CONTINUOUS
 10
83.2258749616
 20
159.9893120673
 11
83.4300916935
 21
159.7060400318
  0
LINE
  5
34F
100
AcDbEntity
  8
BEZUGSACHSEN
100
AcDbLine
 62
7
  6
CONTINUOUS
 10
83.6066354417
 20
160.3362427924
 11
83.7590446814
 21
160.0966055215
  0
LINE
  5
350
100
AcDbEntity
  8
BEZUGSACHSEN
100
AcDbLine
 62
7
  6
CONTINUOUS
 10
87.4448041826
 20
154.8169217994
 11
87.631380719
 21
154.4558642444
  0
LINE
  5
351
100
AcDbEntity
  8
BEZUGSACHSEN
100
AcDbLine
 62
7
  6
CONTINUOUS
 10
87.8539405156
 20
154.9520990465
 11
87.9783258222
 21
154.7113921734
  0
LINE
  5
352
100
AcDbEntity
  8
BEZUGSACHSEN
100
AcDbLine
 62
7
  6
CONTINUOUS
 10
83.5036886817
 20
164.434968758
 11
83.6176063018
 21
164.080537818
  0
LINE
  5
353
100
AcDbEntity
  8
BEZUGSACHSEN
100
AcDbLine
 62
7
  6
CONTINUOUS
 10
83.1282924136
 20
160.2940425973
 11
83.2258749616
 21
159.9893120673
  0
LINE
  5
354
100
AcDbEntity
  8
BEZUGSACHSEN
100
AcDbLine
 62
7
  6
CONTINUOUS
 10
87.3649314007
 20
155.156874529
 11
87.4448041826
 21
154.8169217994
  0
LINE
  5
355
100
AcDbEntity
  8
BEZUGSACHSEN
100
AcDbLine
 62
7
  6
CONTINUOUS
 10
83.5608616006
 20
160.5973375933
 11
83.6066354417
 21
160.3362427924
  0
LINE
  5
356
100
AcDbEntity
  8
BEZUGSACHSEN
100
AcDbLine
 62
7
  6
CONTINUOUS
 10
86.2966186121
 20
161.7425501687
 11
86.3423924916
 21
161.4814554134
  0
LINE
  5
357
100
AcDbEntity
  8
BEZUGSACHSEN
100
AcDbLine
 62
7
  6
CONTINUOUS
 10
83.2388397403
 20
164.0950858156
 11
83.2752439103
 21
163.8806107099
  0
LINE
  5
358
100
AcDbEntity
  8
RUNDUNGEN
100
AcDbLine
 62
7
  6
CONTINUOUS
 10
93.2526900954
 20
111.4823500479
 11
93.2526900954
 21
130.1196280615
  0
LINE
  5
359
100
AcDbEntity
  8
BEZUGSACHSEN
100
AcDbLine
 62
7
  6
CONTINUOUS
 10
89.0551429152
 20
156.3352710448
 11
89.0417274355
 21
156.1758470961
  0
LINE
  5
35A
100
AcDbEntity
  8
BEZUGSACHSEN
100
AcDbLine
 62
7
  6
CONTINUOUS
 10
89.3124399924
 20
155.0958163311
 11
89.2856076095
 21
154.7769711884
  0
LINE
  5
35B
100
AcDbEntity
  8
BEZUGSACHSEN
100
AcDbLine
 62
7
  6
CONTINUOUS
 10
89.6636482746
 20
154.972323749
 11
89.6502327949
 21
154.8128998003
  0
LINE
  5
35C
100
AcDbEntity
  8
BEZUGSACHSEN
100
AcDbLine
 62
7
  6
CONTINUOUS
 10
91.2337391446
 20
156.0124039029
 11
91.1623956671
 21
155.5943101524
  0
LINE
  5
35D
100
AcDbEntity
  8
BEZUGSACHSEN
100
AcDbLine
 62
7
  6
CONTINUOUS
 10
89.6502327949
 20
154.8128998003
 11
89.547792279
 21
154.4549841454
  0
LINE
  5
35E
100
AcDbEntity
  8
BEZUGSACHSEN
100
AcDbLine
 62
7
  6
CONTINUOUS
 10
90.8246028646
 20
155.8772266832
 11
90.7221623487
 21
155.5193110283
  0
LINE
  5
35F
100
AcDbEntity
  8
BEZUGSACHSEN
100
AcDbLine
 62
7
  6
CONTINUOUS
 10
91.1623956671
 20
155.5943101524
 11
91.0288595363
 21
155.2965698385
  0
LINE
  5
360
100
AcDbEntity
  8
BEZUGSACHSEN
100
AcDbLine
 62
7
  6
CONTINUOUS
 10
63.8161938496
 20
164.9810096216
 11
64.1539798284
 21
165.0695964484
  0
LINE
  5
361
100
AcDbEntity
  8
BEZUGSACHSEN
100
AcDbLine
 62
7
  6
CONTINUOUS
 10
64.062203577
 20
164.5335382559
 11
64.3406322767
 21
164.589491781
  0
LINE
  5
362
100
AcDbEntity
  8
BEZUGSACHSEN
100
AcDbLine
 62
7
  6
CONTINUOUS
 10
58.1940802369
 20
160.4260782371
 11
58.5632128124
 21
160.4744449827
  0
LINE
  5
363
100
AcDbEntity
  8
BEZUGSACHSEN
100
AcDbLine
 62
7
  6
CONTINUOUS
 10
82.5582063484
 20
162.721008086
 11
82.8776635812
 21
162.7391772466
  0
LINE
  5
364
100
AcDbEntity
  8
BEZUGSACHSEN
100
AcDbLine
 62
7
  6
CONTINUOUS
 10
85.1508010872
 20
162.4850708462
 11
85.4158769331
 21
162.4843530536
  0
LINE
  5
365
100
AcDbEntity
  8
BEZUGSACHSEN
100
AcDbLine
 62
7
  6
CONTINUOUS
 10
64.1539798284
 20
165.0695964484
 11
64.4734101493
 21
165.0509714125
  0
LINE
  5
366
100
AcDbEntity
  8
BEZUGSACHSEN
100
AcDbLine
 62
7
  6
CONTINUOUS
 10
82.4853980084
 20
163.1499582973
 11
82.7044366323
 21
163.1263253449
  0
LINE
  5
367
100
AcDbEntity
  8
BEZUGSACHSEN
100
AcDbLine
 62
7
  6
CONTINUOUS
 10
85.3761378569
 20
162.9629068067
 11
85.6930223856
 21
162.9185532565
  0
LINE
  5
368
100
AcDbEntity
  8
0
100
AcDbLine
 62
7
  6
CONTINUOUS
 10
88.7035398142
 20
168.5206797882
 11
81.2526900954
 21
170.9416076155
  0
LINE
  5
369
100
AcDbEntity
  8
BEZUGSACHSEN
100
AcDbLine
 62
7
  6
CONTINUOUS
 10
85.4158769331
 20
162.4843530536
 11
85.677937156
 21
162.374904264
  0
LINE
  5
36A
100
AcDbEntity
  8
BEZUGSACHSEN
100
AcDbLine
 62
7
  6
CONTINUOUS
 10
85.6930223856
 20
162.9185532565
 11
86.0068901055
 21
162.7654697081
  0
LINE
  5
36B
100
AcDbEntity
  8
BEZUGSACHSEN
100
AcDbLine
 62
7
  6
CONTINUOUS
 10
81.2526900954
 20
163.2467845352
 11
82.1201291006
 21
162.7682739906
  0
LINE
  5
36C
100
AcDbEntity
  8
BEZUGSACHSEN
100
AcDbLine
 62
7
  6
CONTINUOUS
 10
81.3585031138
 20
163.7715940393
 11
82.4853980084
 21
163.1499582973
  0
LINE
  5
36D
100
AcDbEntity
  8
BEZUGSACHSEN
100
AcDbLine
 62
7
  6
CONTINUOUS
 10
81.9751220669
 20
164.8893945503
 11
83.1020169614
 21
164.2677588082
  0
LINE
  5
36E
100
AcDbEntity
  8
BEZUGSACHSEN
100
AcDbLine
 62
7
  6
CONTINUOUS
 10
81.8248002768
 20
165.458300596
 11
83.2482458878
 21
164.6730768161
  0
LINE
  5
36F
100
AcDbEntity
  8
BEZUGSACHSEN
100
AcDbLine
 62
7
  6
CONTINUOUS
 10
84.9410663984
 20
160.658842962
 11
85.4073409864
 21
160.2661241402
  0
LINE
  5
370
100
AcDbEntity
  8
BEZUGSACHSEN
100
AcDbLine
 62
7
  6
CONTINUOUS
 10
85.2700193479
 20
161.0494084061
 11
86.0471436613
 21
160.3948770363
  0
LINE
  5
371
100
AcDbEntity
  8
BEZUGSACHSEN
100
AcDbLine
 62
7
  6
CONTINUOUS
 10
86.2297233603
 20
161.2425377502
 11
86.5405730856
 21
160.9807252023
  0
LINE
  5
372
100
AcDbEntity
  8
BEZUGSACHSEN
100
AcDbLine
 62
7
  6
CONTINUOUS
 10
85.677937156
 20
162.374904264
 11
86.144211744
 21
161.9821854422
  0
LINE
  5
373
100
AcDbEntity
  8
BEZUGSACHSEN
100
AcDbLine
 62
7
  6
CONTINUOUS
 10
86.0068901055
 20
162.7654697081
 11
86.4731646936
 21
162.3727508862
  0
LINE
  5
374
100
AcDbEntity
  8
BEZUGSACHSEN
100
AcDbLine
 62
7
  6
CONTINUOUS
 10
83.2482458878
 20
164.6730768161
 11
83.5036886817
 21
164.434968758
  0
LINE
  5
375
100
AcDbEntity
  8
BEZUGSACHSEN
100
AcDbLine
 62
7
  6
CONTINUOUS
 10
88.9392869196
 20
155.8179314412
 11
89.1392789357
 21
155.6162978348
  0
LINE
  5
376
100
AcDbEntity
  8
BEZUGSACHSEN
100
AcDbLine
 62
7
  6
CONTINUOUS
 10
89.5660967744
 20
155.5318730102
 11
89.7660887906
 21
155.3302394039
  0
LINE
  5
377
100
AcDbEntity
  8
BEZUGSACHSEN
100
AcDbLine
 62
7
  6
CONTINUOUS
 10
90.4514497917
 20
156.5993417933
 11
90.6514418079
 21
156.397708187
  0
LINE
  5
378
100
AcDbEntity
  8
BEZUGSACHSEN
100
AcDbLine
 62
7
  6
CONTINUOUS
 10
90.7983948419
 20
156.8548696949
 11
91.029482473
 21
156.5930607476
  0
LINE
  5
379
100
AcDbEntity
  8
BEZUGSACHSEN
100
AcDbLine
 62
7
  6
CONTINUOUS
 10
83.1020169614
 20
164.2677588082
 11
83.2388397403
 21
164.0950858156
  0
LINE
  5
37A
100
AcDbEntity
  8
0
100
AcDbLine
 62
7
  6
CONTINUOUS
 10
98.2526900954
 20
155.3774019852
 11
88.7035398142
 21
168.5206797882
  0
LINE
  5
37B
100
AcDbEntity
  8
BEZUGSACHSEN
100
AcDbLine
 62
7
  6
CONTINUOUS
 10
86.4731646936
 20
162.3727508862
 11
86.6773790587
 21
162.0894808539
  0
LINE
  5
37C
100
AcDbEntity
  8
BEZUGSACHSEN
100
AcDbLine
 62
7
  6
CONTINUOUS
 10
86.144211744
 20
161.9821854422
 11
86.2966186121
 21
161.7425501687
  0
LINE
  5
37D
100
AcDbEntity
  8
BEZUGSACHSEN
100
AcDbLine
 62
7
  6
CONTINUOUS
 10
89.1392789357
 20
155.6162978348
 11
89.2636642423
 21
155.3755909617
  0
LINE
  5
37E
100
AcDbEntity
  8
BEZUGSACHSEN
100
AcDbLine
 62
7
  6
CONTINUOUS
 10
89.4417114678
 20
155.7725798834
 11
89.5660967744
 21
155.5318730102
  0
LINE
  5
37F
100
AcDbEntity
  8
BEZUGSACHSEN
100
AcDbLine
 62
7
  6
CONTINUOUS
 10
90.6514418079
 20
156.397708187
 11
90.7758271145
 21
156.1570013138
  0
LINE
  5
380
100
AcDbEntity
  8
BEZUGSACHSEN
100
AcDbLine
 62
7
  6
CONTINUOUS
 10
91.029482473
 20
156.5930607476
 11
91.1538677796
 21
156.3523538745
  0
LINE
  5
381
100
AcDbEntity
  8
BEZUGSACHSEN
100
AcDbLine
 62
7
  6
CONTINUOUS
 10
86.6773790587
 20
162.0894808539
 11
86.7749628068
 21
161.7847493423
  0
LINE
  5
382
100
AcDbEntity
  8
BEZUGSACHSEN
100
AcDbLine
 62
7
  6
CONTINUOUS
 10
91.1538677796
 20
156.3523538745
 11
91.2337391446
 21
156.0124039029
  0
LINE
  5
383
100
AcDbEntity
  8
BEZUGSACHSEN
100
AcDbLine
 62
7
  6
CONTINUOUS
 10
87.8051647654
 20
155.2318736771
 11
87.8539405156
 21
154.9520990465
  0
LINE
  5
384
100
AcDbEntity
  8
BEZUGSACHSEN
100
AcDbLine
 62
7
  6
CONTINUOUS
 10
89.2636642423
 20
155.3755909617
 11
89.3124399924
 21
155.0958163311
  0
LINE
  5
385
100
AcDbEntity
  8
BEZUGSACHSEN
100
AcDbLine
 62
7
  6
CONTINUOUS
 10
89.3929357177
 20
156.052354514
 11
89.4417114678
 21
155.7725798834
  0
LINE
  5
386
100
AcDbEntity
  8
BEZUGSACHSEN
100
AcDbLine
 62
7
  6
CONTINUOUS
 10
90.7758271145
 20
156.1570013138
 11
90.8246028646
 21
155.8772266832
  0
LINE
  5
387
100
AcDbEntity
  8
0
100
AcDbLine
 62
7
  6
CONTINUOUS
 10
98.2526900954
 20
139.1314171736
 11
98.2526900954
 21
155.3774019852
  0
LINE
  5
388
100
AcDbEntity
  8
KONSTRUKTIONSELEMENTE
100
AcDbLine
 62
7
  6
CONTINUOUS
 10
98.947924723
 20
36.2519298894
 11
98.947924723
 21
33.4235027646
  0
LINE
  5
389
100
AcDbEntity
  8
0
100
AcDbLine
 62
7
  6
CONTINUOUS
 10
95.6567110575
 20
126.9182960282
 11
98.2526900954
 21
139.1314171736
  0
LINE
  5
38A
100
AcDbEntity
  8
RUNDUNGEN
100
AcDbLine
 62
7
  6
CONTINUOUS
 10
93.5206392879
 20
123.2185111945
 11
95.6567110575
 21
126.9182960282
  0
LINE
  5
38B
100
AcDbEntity
  8
KONSTRUKTIONSELEMENTE
100
AcDbLine
 62
7
  6
CONTINUOUS
 10
117.5000637707
 20
64.9486504154
 11
117.5000637707
 21
62.1202232907
  0
LINE
  5
38C
100
AcDbEntity
  8
RUNDUNGEN
100
AcDbLine
 62
7
  6
CONTINUOUS
 10
92.7847789817
 20
110.1967748286
 11
92.440150977
 21
109.7860631659
  0
LINE
  5
38D
100
AcDbEntity
  8
0
100
AcDbLine
 62
7
  6
CONTINUOUS
 10
92.440150977
 20
109.7860631659
 11
88.8175658783
 21
105.46883436
  0
LINE
  5
38E
100
AcDbEntity
  8
KONSTRUKTIONSELEMENTE
100
AcDbLine
 62
7
  6
CONTINUOUS
 10
91.7068903191
 20
39.1120987375
 11
105.7378166089
 21
60.3885306217
  0
LINE
  5
38F
100
AcDbEntity
  8
KONSTRUKTIONSELEMENTE
100
AcDbLine
 62
7
  6
CONTINUOUS
 10
66.4907979076
 20
79.1106190624
 11
40.3779212436
 21
70.5004383309
  0
LINE
  5
390
100
AcDbEntity
  8
KONSTRUKTIONSELEMENTE
100
AcDbLine
 62
7
  6
CONTINUOUS
 10
66.4907979076
 20
76.2821919376
 11
40.3779212436
 21
67.6720112062
  0
LINE
  5
391
100
AcDbEntity
  8
KONSTRUKTIONSELEMENTE
100
AcDbLine
 62
7
  6
CONTINUOUS
 10
43.8321528538
 20
64.4418189531
 11
39.1193523612
 21
62.8878705118
  0
LINE
  5
392
100
AcDbEntity
  8
KONSTRUKTIONSELEMENTE
100
AcDbLine
 62
7
  6
CONTINUOUS
 10
40.8831109244
 20
63.3524746368
 11
44.3407953838
 21
64.4925745381
  0
LINE
  5
393
100
AcDbEntity
  8
KONSTRUKTIONSELEMENTE
100
AcDbLine
 62
7
  6
CONTINUOUS
 10
98.7187903351
 20
33.0133397164
 11
98.9104478378
 21
33.3039682691
  0
LINE
  5
394
100
AcDbEntity
  8
KONSTRUKTIONSELEMENTE
100
AcDbLine
 62
7
  6
CONTINUOUS
 10
116.6604148309
 20
60.2199363155
 11
117.1252949188
 21
60.9248783357
  0
LINE
  5
395
100
AcDbEntity
  8
KONSTRUKTIONSELEMENTE
100
AcDbLine
 62
7
  6
CONTINUOUS
 10
44.0781049832
 20
59.9218139509
 11
47.4120254782
 21
61.0211052459
  0
LINE
  5
396
100
AcDbEntity
  8
KONSTRUKTIONSELEMENTE
100
AcDbLine
 62
7
  6
CONTINUOUS
 10
44.0781049832
 20
57.6590722511
 11
47.7033361313
 21
58.854417206
  0
LINE
  5
397
100
AcDbEntity
  8
KONSTRUKTIONSELEMENTE
100
AcDbLine
 62
7
  6
CONTINUOUS
 10
43.6667248575
 20
56.2750985533
 11
48.3795253501
 21
57.8290469947
  0
LINE
  5
398
100
AcDbEntity
  8
KONSTRUKTIONSELEMENTE
100
AcDbLine
 62
7
  6
CONTINUOUS
 10
43.6667248575
 20
55.9922558408
 11
48.3795253501
 21
57.5462042822
  0
ARC
  5
399
100
AcDbEntity
  8
BEZUGSACHSEN
100
AcDbCircle
 62
7
  6
CONTINUOUS
 10
197.2741211321
 20
91.761977451
 40
157.2592410916
100
AcDbArc
 50
25.080201137
 51
25.2447474755
  0
ARC
  5
39A
100
AcDbEntity
  8
KONSTRUKTIONSELEMENTE
100
AcDbCircle
 62
7
  6
CONTINUOUS
 10
223.4555368922
 20
76.8118682378
 40
8.25
100
AcDbArc
 50
239.0415598584
 51
315.0
  0
ARC
  5
39B
100
AcDbEntity
  8
KONSTRUKTIONSELEMENTE
100
AcDbCircle
 62
7
  6
CONTINUOUS
 10
223.4555368922
 20
76.8118682378
 40
8.25
100
AcDbArc
 50
135.0
 51
210.9584401416
  0
ARC
  5
39C
100
AcDbEntity
  8
KONSTRUKTIONSELEMENTE
100
AcDbCircle
 62
7
  6
CONTINUOUS
 10
223.4555368922
 20
76.8118682378
 40
3.25
100
AcDbArc
 50
263.0817221346
 51
315.0
  0
ARC
  5
39D
100
AcDbEntity
  8
KONSTRUKTIONSELEMENTE
100
AcDbCircle
 62
7
  6
CONTINUOUS
 10
223.4555368922
 20
76.8118682378
 40
3.25
100
AcDbArc
 50
135.0
 51
186.9182778654
  0
ARC
  5
39E
100
AcDbEntity
  8
BEZUGSACHSEN
100
AcDbCircle
 62
7
  6
CONTINUOUS
 10
207.2181667102
 20
146.1112651167
 40
132.7727062672
100
AcDbArc
 50
5.6521897656
 51
5.7898964304
  0
ARC
  5
39F
100
AcDbEntity
  8
KONSTRUKTIONSELEMENTE
100
AcDbCircle
 62
7
  6
CONTINUOUS
 10
229.4659445323
 20
82.8222758779
 40
8.25
100
AcDbArc
 50
60.8421444573
 51
135.0
  0
ARC
  5
3A0
100
AcDbEntity
  8
KONSTRUKTIONSELEMENTE
100
AcDbCircle
 62
7
  6
CONTINUOUS
 10
229.4659445323
 20
82.8222758779
 40
8.25
100
AcDbArc
 50
315.0
 51
29.1578555427
  0
ARC
  5
3A1
100
AcDbEntity
  8
KONSTRUKTIONSELEMENTE
100
AcDbCircle
 62
7
  6
CONTINUOUS
 10
249.7952644914
 20
103.151595837
 40
8.0
100
AcDbArc
 50
241.3642958278
 51
315.0
  0
ARC
  5
3A2
100
AcDbEntity
  8
KONSTRUKTIONSELEMENTE
100
AcDbCircle
 62
7
  6
CONTINUOUS
 10
249.7952644914
 20
103.151595837
 40
8.0
100
AcDbArc
 50
135.0
 51
208.6357041722
  0
ARC
  5
3A3
100
AcDbEntity
  8
KONSTRUKTIONSELEMENTE
100
AcDbCircle
 62
7
  6
CONTINUOUS
 10
260.4018662092
 20
113.7581975548
 40
8.0
100
AcDbArc
 50
61.3642958278
 51
135.0
  0
ARC
  5
3A4
100
AcDbEntity
  8
KONSTRUKTIONSELEMENTE
100
AcDbCircle
 62
7
  6
CONTINUOUS
 10
260.4018662092
 20
113.7581975548
 40
8.0
100
AcDbArc
 50
315.0
 51
28.6357041722
  0
ARC
  5
3A5
100
AcDbEntity
  8
KONSTRUKTIONSELEMENTE
100
AcDbCircle
 62
7
  6
CONTINUOUS
 10
249.7952644914
 20
103.151595837
 40
3.5
100
AcDbArc
 50
265.1538775079
 51
315.0
  0
ARC
  5
3A6
100
AcDbEntity
  8
KONSTRUKTIONSELEMENTE
100
AcDbCircle
 62
7
  6
CONTINUOUS
 10
249.7952644914
 20
103.151595837
 40
3.5
100
AcDbArc
 50
135.0
 51
184.8461224921
  0
ARC
  5
3A7
100
AcDbEntity
  8
KONSTRUKTIONSELEMENTE
100
AcDbCircle
 62
7
  6
CONTINUOUS
 10
260.4018662092
 20
113.7581975548
 40
3.5
100
AcDbArc
 50
85.1538775079
 51
135.0
  0
ARC
  5
3A8
100
AcDbEntity
  8
KONSTRUKTIONSELEMENTE
100
AcDbCircle
 62
7
  6
CONTINUOUS
 10
260.4018662092
 20
113.7581975548
 40
3.5
100
AcDbArc
 50
315.0
 51
4.8461224921
  0
ARC
  5
3A9
100
AcDbEntity
  8
KONSTRUKTIONSELEMENTE
100
AcDbCircle
 62
7
  6
CONTINUOUS
 10
229.4659445323
 20
82.8222758779
 40
3.25
100
AcDbArc
 50
88.8837571799
 51
135.0
  0
ARC
  5
3AA
100
AcDbEntity
  8
KONSTRUKTIONSELEMENTE
100
AcDbCircle
 62
7
  6
CONTINUOUS
 10
229.4659445323
 20
82.8222758779
 40
3.25
100
AcDbArc
 50
315.0
 51
1.1162428201
  0
ARC
  5
3AB
100
AcDbEntity
  8
KONSTRUKTIONSELEMENTE
100
AcDbCircle
 62
7
  6
CONTINUOUS
 10
248.9113810149
 20
102.2677123605
 40
2.25
100
AcDbArc
 50
315.0
 51
135.0
  0
ARC
  5
3AC
100
AcDbEntity
  8
KONSTRUKTIONSELEMENTE
100
AcDbCircle
 62
7
  6
CONTINUOUS
 10
230.1730513134
 20
83.5293826591
 40
2.25
100
AcDbArc
 50
135.0
 51
315.0
  0
ARC
  5
3AD
100
AcDbEntity
  8
BEZUGSACHSEN
100
AcDbCircle
 62
7
  6
CONTINUOUS
 10
232.6514664457
 20
149.0023438189
 40
107.6232260821
100
AcDbArc
 50
5.8433097494
 51
6.0062259473
  0
ARC
  5
3AE
100
AcDbEntity
  8
BEZUGSACHSEN
100
AcDbCircle
 62
7
  6
CONTINUOUS
 10
235.7827906759
 20
151.7910531544
 40
103.7633333485
100
AcDbArc
 50
4.0909024439
 51
4.2078428736
  0
ARC
  5
3AF
100
AcDbEntity
  8
BEZUGSACHSEN
100
AcDbCircle
 62
7
  6
CONTINUOUS
 10
247.9148190777
 20
151.1835340007
 40
92.4212460196
100
AcDbArc
 50
6.5422088698
 51
6.6730119384
  0
ARC
  5
3B0
100
AcDbEntity
  8
KONSTRUKTIONSELEMENTE
100
AcDbCircle
 62
7
  6
CONTINUOUS
 10
261.2857496857
 20
114.6420810313
 40
2.25
100
AcDbArc
 50
135.0
 51
315.0
  0
ARC
  5
3B1
100
AcDbEntity
  8
KONSTRUKTIONSELEMENTE
100
AcDbCircle
 62
7
  6
CONTINUOUS
 10
280.7311861683
 20
134.0875175139
 40
8.25
100
AcDbArc
 50
240.8421444573
 51
315.0
  0
ARC
  5
3B2
100
AcDbEntity
  8
KONSTRUKTIONSELEMENTE
100
AcDbCircle
 62
7
  6
CONTINUOUS
 10
280.7311861683
 20
134.0875175139
 40
8.25
100
AcDbArc
 50
135.0
 51
209.1578555427
  0
ARC
  5
3B3
100
AcDbEntity
  8
KONSTRUKTIONSELEMENTE
100
AcDbCircle
 62
7
  6
CONTINUOUS
 10
280.7311861683
 20
134.0875175139
 40
3.25
100
AcDbArc
 50
268.8837571799
 51
315.0
  0
ARC
  5
3B4
100
AcDbEntity
  8
KONSTRUKTIONSELEMENTE
100
AcDbCircle
 62
7
  6
CONTINUOUS
 10
280.7311861683
 20
134.0875175139
 40
3.25
100
AcDbArc
 50
135.0
 51
181.1162428201
  0
ARC
  5
3B5
100
AcDbEntity
  8
KONSTRUKTIONSELEMENTE
100
AcDbCircle
 62
7
  6
CONTINUOUS
 10
280.0240793871
 20
133.3804107327
 40
2.25
100
AcDbArc
 50
315.0
 51
135.0
  0
ARC
  5
3B6
100
AcDbEntity
  8
BEZUGSACHSEN
100
AcDbCircle
 62
7
  6
CONTINUOUS
 10
273.2957732049
 20
156.0979444059
 40
66.4584082765
100
AcDbArc
 50
3.4251379637
 51
3.6316615384
  0
ARC
  5
3B7
100
AcDbEntity
  8
BEZUGSACHSEN
100
AcDbCircle
 62
7
  6
CONTINUOUS
 10
282.2177813977
 20
156.8503501561
 40
57.5816941804
100
AcDbArc
 50
2.8134792342
 51
3.0949988956
  0
ARC
  5
3B8
100
AcDbEntity
  8
BEZUGSACHSEN
100
AcDbCircle
 62
7
  6
CONTINUOUS
 10
298.2735165939
 20
149.9948349796
 40
43.4722259182
100
AcDbArc
 50
20.0280221327
 51
20.2041340129
  0
ARC
  5
3B9
100
AcDbEntity
  8
KONSTRUKTIONSELEMENTE
100
AcDbCircle
 62
7
  6
CONTINUOUS
 10
286.7415938084
 20
140.097925154
 40
8.25
100
AcDbArc
 50
66.346698243
 51
135.0
  0
ARC
  5
3BA
100
AcDbEntity
  8
KONSTRUKTIONSELEMENTE
100
AcDbCircle
 62
7
  6
CONTINUOUS
 10
286.7415938084
 20
140.097925154
 40
8.25
100
AcDbArc
 50
315.0
 51
23.653301757
  0
ARC
  5
3BB
100
AcDbEntity
  8
KONSTRUKTIONSELEMENTE
100
AcDbCircle
 62
7
  6
CONTINUOUS
 10
286.7415938084
 20
140.097925154
 40
3.25
100
AcDbArc
 50
112.8065550031
 51
135.0
  0
ARC
  5
3BC
100
AcDbEntity
  8
KONSTRUKTIONSELEMENTE
100
AcDbCircle
 62
7
  6
CONTINUOUS
 10
286.7415938084
 20
140.097925154
 40
3.25
100
AcDbArc
 50
315.0
 51
337.1934449969
  0
ARC
  5
3BD
100
AcDbEntity
  8
KONSTRUKTIONSELEMENTE
100
AcDbCircle
 62
7
  6
CONTINUOUS
 10
286.5648171131
 20
139.9211484587
 40
3.0
100
AcDbArc
 50
135.0
 51
315.0
  0
ARC
  5
3BE
100
AcDbEntity
  8
0
100
AcDbCircle
 62
7
  6
CONTINUOUS
 10
326.3980782338
 20
120.9505620021
 40
3.0
100
AcDbArc
 50
150.0
 51
180.0
  0
ARC
  5
3BF
100
AcDbEntity
  8
0
100
AcDbCircle
 62
7
  6
CONTINUOUS
 10
326.3980782338
 20
113.6210762461
 40
3.0
100
AcDbArc
 50
180.0
 51
212.2268364662
  0
ARC
  5
3C0
100
AcDbEntity
  8
0
100
AcDbCircle
 62
7
  6
CONTINUOUS
 10
323.6480782338
 20
128.1874222813
 40
3.0
100
AcDbArc
 50
330.0
 51
360.0
  0
ARC
  5
3C1
100
AcDbEntity
  8
0
100
AcDbCircle
 62
7
  6
CONTINUOUS
 10
328.3980782338
 20
133.4926928573
 40
1.75
100
AcDbArc
 50
100.9007810051
 51
180.0
  0
ARC
  5
3C2
100
AcDbEntity
  8
0
100
AcDbCircle
 62
7
  6
CONTINUOUS
 10
334.6480782338
 20
116.0044095794
 40
11.25
100
AcDbArc
 50
212.2268364662
 51
327.7731635338
  0
CIRCLE
  5
3C3
100
AcDbEntity
  8
0
100
AcDbCircle
 62
7
  6
CONTINUOUS
 10
334.6480782338
 20
116.0044095794
 40
4.5
  0
ARC
  5
3C4
100
AcDbEntity
  8
RUNDUNGEN
100
AcDbCircle
 62
7
  6
CONTINUOUS
 10
342.8980782338
 20
120.9505620021
 40
3.0
100
AcDbArc
 50
0.0
 51
30.0
  0
ARC
  5
3C5
100
AcDbEntity
  8
RUNDUNGEN
100
AcDbCircle
 62
7
  6
CONTINUOUS
 10
342.8980782338
 20
113.6210762461
 40
3.0
100
AcDbArc
 50
327.7731635338
 51
360.0
  0
ARC
  5
3C6
100
AcDbEntity
  8
KONSTRUKTIONSELEMENTE
100
AcDbCircle
 62
7
  6
CONTINUOUS
 10
345.6480782338
 20
128.1874222813
 40
3.0
100
AcDbArc
 50
180.0
 51
210.0
  0
ARC
  5
3C7
100
AcDbEntity
  8
RUNDUNGEN
100
AcDbCircle
 62
7
  6
CONTINUOUS
 10
340.8980782338
 20
133.4926928573
 40
1.75
100
AcDbArc
 50
0.0
 51
79.0992189949
  0
ARC
  5
3C8
100
AcDbEntity
  8
BEZUGSACHSEN
100
AcDbCircle
 62
7
  6
CONTINUOUS
 10
322.0697542784
 20
142.1342137718
 40
24.9800233893
100
AcDbArc
 50
47.0439736732
 51
47.2393158521
  0
ARC
  5
3C9
100
AcDbEntity
  8
BEZUGSACHSEN
100
AcDbCircle
 62
7
  6
CONTINUOUS
 10
321.2464104954
 20
145.1376990134
 40
23.2452632418
100
AcDbArc
 50
37.559671078
 51
37.8317437147
  0
ARC
  5
3CA
100
AcDbEntity
  8
KONSTRUKTIONSELEMENTE
100
AcDbCircle
 62
7
  6
CONTINUOUS
 10
322.6722397094
 20
146.7854065424
 40
20.9083428124
100
AcDbArc
 50
36.7921974252
 51
37.0916611295
  0
ARC
  5
3CB
100
AcDbEntity
  8
RUNDUNGEN
100
AcDbCircle
 62
7
  6
CONTINUOUS
 10
341.6480782338
 20
137.1669274714
 40
2.0
100
AcDbArc
 50
180.0
 51
258.4630409672
  0
ARC
  5
3CC
100
AcDbEntity
  8
0
100
AcDbCircle
 62
7
  6
CONTINUOUS
 10
327.6480782338
 20
137.1669274714
 40
2.0
100
AcDbArc
 50
281.5369590328
 51
360.0
  0
ARC
  5
3CD
100
AcDbEntity
  8
KONSTRUKTIONSELEMENTE
100
AcDbCircle
 62
7
  6
CONTINUOUS
 10
273.6125026578
 20
159.955485089
 40
65.1125189315
100
AcDbArc
 50
359.1226058136
 51
0.2306353976
  0
ARC
  5
3CE
100
AcDbEntity
  8
BEZUGSACHSEN
100
AcDbCircle
 62
7
  6
CONTINUOUS
 10
275.4388343266
 20
160.5168768571
 40
63.5279686234
100
AcDbArc
 50
358.5942970915
 51
359.7300680058
  0
ARC
  5
3CF
100
AcDbEntity
  8
BEZUGSACHSEN
100
AcDbCircle
 62
7
  6
CONTINUOUS
 10
277.0450936138
 20
160.246023806
 40
62.0005700769
100
AcDbArc
 50
358.8522067633
 51
359.7734721103
  0
ARC
  5
3D0
100
AcDbEntity
  8
BEZUGSACHSEN
100
AcDbCircle
 62
7
  6
CONTINUOUS
 10
281.3935550173
 20
159.4388551916
 40
57.888713029
100
AcDbArc
 50
358.7703752113
 51
359.7570904515
  0
ARC
  5
3D1
100
AcDbEntity
  8
BEZUGSACHSEN
100
AcDbCircle
 62
7
  6
CONTINUOUS
 10
283.1004840118
 20
159.1165523027
 40
56.2764302165
100
AcDbArc
 50
358.7344469148
 51
359.6426048858
  0
ARC
  5
3D2
100
AcDbEntity
  8
BEZUGSACHSEN
100
AcDbCircle
 62
7
  6
CONTINUOUS
 10
288.4759605525
 20
158.0031761939
 40
51.2323926133
100
AcDbArc
 50
358.2385469105
 51
358.590726753
  0
ARC
  5
3D3
100
AcDbEntity
  8
BEZUGSACHSEN
100
AcDbCircle
 62
7
  6
CONTINUOUS
 10
289.5201664346
 20
157.983020727
 40
50.1879802507
100
AcDbArc
 50
0.0819319418
 51
0.5012040367
  0
ARC
  5
3D4
100
AcDbEntity
  8
BEZUGSACHSEN
100
AcDbCircle
 62
7
  6
CONTINUOUS
 10
290.6354349919
 20
158.2883278356
 40
49.154492687
100
AcDbArc
 50
4.2408774656
 51
4.4207158792
  0
ARC
  5
3D5
100
AcDbEntity
  8
KONSTRUKTIONSELEMENTE
100
AcDbCircle
 62
7
  6
CONTINUOUS
 10
293.9525447929
 20
162.6565317452
 40
44.772488238
100
AcDbArc
 50
0.6696040897
 51
1.0032769625
  0
ARC
  5
3D6
100
AcDbEntity
  8
KONSTRUKTIONSELEMENTE
100
AcDbCircle
 62
7
  6
CONTINUOUS
 10
293.9525448147
 20
162.6601498729
 40
44.7724882162
100
AcDbArc
 50
358.9967230375
 51
359.3303960695
  0
ARC
  5
3D7
100
AcDbEntity
  8
BEZUGSACHSEN
100
AcDbCircle
 62
7
  6
CONTINUOUS
 10
295.5017665215
 20
163.04882147
 40
43.4882961119
100
AcDbArc
 50
358.4548878043
 51
358.7984761847
  0
ARC
  5
3D8
100
AcDbEntity
  8
BEZUGSACHSEN
100
AcDbCircle
 62
7
  6
CONTINUOUS
 10
295.9542970064
 20
163.0409120054
 40
43.0356966823
100
AcDbArc
 50
0.1848652762
 51
0.531974026
  0
ARC
  5
3D9
100
AcDbEntity
  8
BEZUGSACHSEN
100
AcDbCircle
 62
7
  6
CONTINUOUS
 10
298.873454756
 20
158.8888245243
 40
40.9583025362
100
AcDbArc
 50
3.6213041829
 51
3.9546082293
  0
ARC
  5
3DA
100
AcDbEntity
  8
KONSTRUKTIONSELEMENTE
100
AcDbCircle
 62
7
  6
CONTINUOUS
 10
298.0497084744
 20
163.0880946581
 40
40.7759489097
100
AcDbArc
 50
355.9632026175
 51
356.2568411046
  0
ARC
  5
3DB
100
AcDbEntity
  8
BEZUGSACHSEN
100
AcDbCircle
 62
7
  6
CONTINUOUS
 10
298.7290374556
 20
163.4985409639
 40
40.3706045164
100
AcDbArc
 50
355.3383781163
 51
355.6352020099
  0
ARC
  5
3DC
100
AcDbEntity
  8
BEZUGSACHSEN
100
AcDbCircle
 62
7
  6
CONTINUOUS
 10
304.3016482249
 20
160.3648480499
 40
35.335062464
100
AcDbArc
 50
359.2375503073
 51
359.5193978889
  0
ARC
  5
3DD
100
AcDbEntity
  8
0
100
AcDbCircle
 62
7
  6
CONTINUOUS
 10
334.6480782338
 20
188.0044095794
 40
46.0
100
AcDbArc
 50
276.2405918846
 51
360.0
  0
ARC
  5
3DE
100
AcDbEntity
  8
0
100
AcDbCircle
 62
7
  6
CONTINUOUS
 10
334.6480782338
 20
188.0044095794
 40
46.0
100
AcDbArc
 50
228.7402970296
 51
263.7594081154
  0
ARC
  5
3DF
100
AcDbEntity
  8
0
100
AcDbCircle
 62
7
  6
CONTINUOUS
 10
334.6480782338
 20
188.0044095794
 40
46.0
100
AcDbArc
 50
180.0
 51
221.2597029704
  0
ARC
  5
3E0
100
AcDbEntity
  8
BEZUGSACHSEN
100
AcDbCircle
 62
7
  6
CONTINUOUS
 10
305.5273388808
 20
159.9731626724
 40
34.2040132592
100
AcDbArc
 50
359.2122699486
 51
359.5034387663
  0
ARC
  5
3E1
100
AcDbEntity
  8
0
100
AcDbCircle
 62
7
  6
CONTINUOUS
 10
334.6480782338
 20
188.0044095794
 40
30.0
100
AcDbArc
 50
279.7032729239
 51
360.0
  0
ARC
  5
3E2
100
AcDbEntity
  8
0
100
AcDbCircle
 62
7
  6
CONTINUOUS
 10
334.6480782338
 20
188.0044095794
 40
30.0
100
AcDbArc
 50
230.7403077435
 51
260.40185397
  0
ARC
  5
3E3
100
AcDbEntity
  8
0
100
AcDbCircle
 62
7
  6
CONTINUOUS
 10
334.6480782338
 20
188.0044095794
 40
30.0
100
AcDbArc
 50
180.0
 51
219.2596922565
  0
ARC
  5
3E4
100
AcDbEntity
  8
BEZUGSACHSEN
100
AcDbCircle
 62
7
  6
CONTINUOUS
 10
311.4790368511
 20
164.3640286002
 40
27.9093018602
100
AcDbArc
 50
351.0059102799
 51
351.2211021974
  0
ARC
  5
3E5
100
AcDbEntity
  8
KONSTRUKTIONSELEMENTE
100
AcDbCircle
 62
7
  6
CONTINUOUS
 10
313.5220672547
 20
164.8507106226
 40
25.2029541838
100
AcDbArc
 50
358.5155600861
 51
0.2962198765
  0
ARC
  5
3E6
100
AcDbEntity
  8
BEZUGSACHSEN
100
AcDbCircle
 62
7
  6
CONTINUOUS
 10
314.7473759148
 20
165.0678030297
 40
24.2614390327
100
AcDbArc
 50
357.9450001623
 51
359.7950283752
  0
ARC
  5
3E7
100
AcDbEntity
  8
BEZUGSACHSEN
100
AcDbCircle
 62
7
  6
CONTINUOUS
 10
315.5309357232
 20
164.6196390369
 40
23.5725183171
100
AcDbArc
 50
358.3627665812
 51
359.7907214551
  0
ARC
  5
3E8
100
AcDbEntity
  8
BEZUGSACHSEN
100
AcDbCircle
 62
7
  6
CONTINUOUS
 10
319.7970511886
 20
162.0097098104
 40
19.8584781559
100
AcDbArc
 50
358.055528058
 51
359.7506553185
  0
ARC
  5
3E9
100
AcDbEntity
  8
BEZUGSACHSEN
100
AcDbCircle
 62
7
  6
CONTINUOUS
 10
320.4626008352
 20
161.5634769891
 40
19.2875747167
100
AcDbArc
 50
357.4121581034
 51
359.739595361
  0
ARC
  5
3EA
100
AcDbEntity
  8
BEZUGSACHSEN
100
AcDbCircle
 62
7
  6
CONTINUOUS
 10
322.1027136603
 20
161.6769469232
 40
17.7589782317
100
AcDbArc
 50
352.4740177118
 51
352.9683136993
  0
ARC
  5
3EB
100
AcDbEntity
  8
BEZUGSACHSEN
100
AcDbCircle
 62
7
  6
CONTINUOUS
 10
324.8395987511
 20
162.3584104327
 40
14.9977357504
100
AcDbArc
 50
350.1242948433
 51
350.4397721381
  0
ARC
  5
3EC
100
AcDbEntity
  8
BEZUGSACHSEN
100
AcDbCircle
 62
7
  6
CONTINUOUS
 10
330.5086891017
 20
159.3218467674
 40
10.0939915272
100
AcDbArc
 50
31.2013318062
 51
31.4570635528
  0
ARC
  5
3ED
100
AcDbEntity
  8
BEZUGSACHSEN
100
AcDbCircle
 62
7
  6
CONTINUOUS
 10
332.6093710488
 20
166.6765359322
 40
8.9266845021
100
AcDbArc
 50
315.5570088404
 51
315.9902302235
  0
ARC
  5
3EE
100
AcDbEntity
  8
KONSTRUKTIONSELEMENTE
100
AcDbCircle
 62
7
  6
CONTINUOUS
 10
332.8108130975
 20
166.0144713108
 40
8.1467562519
100
AcDbArc
 50
316.6884206664
 51
317.1541308402
  0
ARC
  5
3EF
100
AcDbEntity
  8
KONSTRUKTIONSELEMENTE
100
AcDbCircle
 62
7
  6
CONTINUOUS
 10
331.2175056551
 20
166.2459581093
 40
7.6130040457
100
AcDbArc
 50
350.4355878681
 51
351.1110390025
  0
ARC
  5
3F0
100
AcDbEntity
  8
BEZUGSACHSEN
100
AcDbCircle
 62
7
  6
CONTINUOUS
 10
331.6933367487
 20
166.3313009178
 40
7.4389002177
100
AcDbArc
 50
349.5418319393
 51
350.2349133922
  0
ARC
  5
3F1
100
AcDbEntity
  8
BEZUGSACHSEN
100
AcDbCircle
 62
7
  6
CONTINUOUS
 10
335.4227340906
 20
162.6050266548
 40
5.4957769406
100
AcDbArc
 50
320.5891491502
 51
321.1851200694
  0
ARC
  5
3F2
100
AcDbEntity
  8
BEZUGSACHSEN
100
AcDbCircle
 62
7
  6
CONTINUOUS
 10
335.7209247725
 20
162.5744028418
 40
5.1276759048
100
AcDbArc
 50
320.4263597969
 51
321.0502928431
  0
ARC
  5
3F3
100
AcDbEntity
  8
BEZUGSACHSEN
100
AcDbCircle
 62
7
  6
CONTINUOUS
 10
334.4518651357
 20
165.8842775129
 40
4.8435847278
100
AcDbArc
 50
343.8071174408
 51
344.4951631466
  0
ARC
  5
3F4
100
AcDbEntity
  8
0
100
AcDbCircle
 62
7
  6
CONTINUOUS
 10
333.1480782338
 20
162.0324464913
 40
3.5
100
AcDbArc
 50
169.5
 51
180.0
  0
ARC
  5
3F5
100
AcDbEntity
  8
BEZUGSACHSEN
100
AcDbCircle
 62
7
  6
CONTINUOUS
 10
337.2595717766
 20
162.1199708683
 40
3.4373120776
100
AcDbArc
 50
58.5067067538
 51
59.106125993
  0
ARC
  5
3F6
100
AcDbEntity
  8
KONSTRUKTIONSELEMENTE
100
AcDbCircle
 62
7
  6
CONTINUOUS
 10
315.5561951417
 20
168.9125264874
 40
3.0
100
AcDbArc
 50
315.0
 51
135.0
  0
ARC
  5
3F7
100
AcDbEntity
  8
0
100
AcDbCircle
 62
7
  6
CONTINUOUS
 10
334.6480782338
 20
238.0044095794
 40
46.0
100
AcDbArc
 50
0.0
 51
180.0
  0
ARC
  5
3F8
100
AcDbEntity
  8
0
100
AcDbCircle
 62
7
  6
CONTINUOUS
 10
334.6480782338
 20
238.0044095794
 40
30.0
100
AcDbArc
 50
0.0
 51
180.0
  0
ARC
  5
3F9
100
AcDbEntity
  8
KONSTRUKTIONSELEMENTE
100
AcDbCircle
 62
7
  6
CONTINUOUS
 10
73.2837451797
 20
168.4384659019
 40
31.5162016635
100
AcDbArc
 50
274.4955009784
 51
278.2891217444
  0
ARC
  5
3FA
100
AcDbEntity
  8
KONSTRUKTIONSELEMENTE
100
AcDbCircle
 62
7
  6
CONTINUOUS
 10
73.2110820429
 20
168.3460158539
 40
31.423201641
100
AcDbArc
 50
261.686107092
 51
265.5092361145
  0
ARC
  5
3FB
100
AcDbEntity
  8
KONSTRUKTIONSELEMENTE
100
AcDbCircle
 62
7
  6
CONTINUOUS
 10
73.2526900954
 20
78.9654095794
 40
28.0
100
AcDbArc
 50
99.3520350576
 51
112.9267093509
  0
ARC
  5
3FC
100
AcDbEntity
  8
KONSTRUKTIONSELEMENTE
100
AcDbCircle
 62
7
  6
CONTINUOUS
 10
73.2526900954
 20
78.9654095794
 40
28.0
100
AcDbArc
 50
67.0732906491
 51
80.6479649424
  0
ARC
  5
3FD
100
AcDbEntity
  8
BEZUGSACHSEN
100
AcDbCircle
 62
7
  6
CONTINUOUS
 10
73.2526900954
 20
147.2544095794
 40
11.0
100
AcDbArc
 50
136.7212007008
 51
43.2787992992
  0
ARC
  5
3FE
100
AcDbEntity
  8
0
100
AcDbCircle
 62
7
  6
CONTINUOUS
 10
73.2526900954
 20
276.0044095794
 40
8.0
100
AcDbArc
 50
0.0
 51
180.0
  0
ARC
  5
3FF
100
AcDbEntity
  8
0
100
AcDbCircle
 62
7
  6
CONTINUOUS
 10
73.2526900954
 20
150.0044095794
 40
8.0
100
AcDbArc
 50
180.0
 51
360.0
  0
ARC
  5
400
100
AcDbEntity
  8
KONSTRUKTIONSELEMENTE
100
AcDbCircle
 62
7
  6
CONTINUOUS
 10
73.2526900954
 20
126.2044095794
 40
4.55
100
AcDbArc
 50
0.0
 51
180.0
  0
ARC
  5
401
100
AcDbEntity
  8
KONSTRUKTIONSELEMENTE
100
AcDbCircle
 62
7
  6
CONTINUOUS
 10
81.5059935324
 20
27.8972906198
 40
3.7399682216
100
AcDbArc
 50
111.3149175254
 51
112.0930351416
  0
ARC
  5
402
100
AcDbEntity
  8
KONSTRUKTIONSELEMENTE
100
AcDbCircle
 62
7
  6
CONTINUOUS
 10
64.9993866586
 20
27.8972906201
 40
3.7399682213
100
AcDbArc
 50
67.9069648584
 51
68.6850824746
  0
ARC
  5
403
100
AcDbEntity
  8
KONSTRUKTIONSELEMENTE
100
AcDbCircle
 62
7
  6
CONTINUOUS
 10
73.2526900954
 20
88.5722758779
 40
2.5
100
AcDbArc
 50
0.0
 51
180.0
  0
ARC
  5
404
100
AcDbEntity
  8
KONSTRUKTIONSELEMENTE
100
AcDbCircle
 62
7
  6
CONTINUOUS
 10
73.2526900954
 20
71.0618682378
 40
2.5
100
AcDbArc
 50
180.0
 51
360.0
  0
ARC
  5
405
100
AcDbEntity
  8
KONSTRUKTIONSELEMENTE
100
AcDbCircle
 62
7
  6
CONTINUOUS
 10
73.2526900954
 20
128.3375175139
 40
2.5
100
AcDbArc
 50
180.0
 51
360.0
  0
ARC
  5
406
100
AcDbEntity
  8
KONSTRUKTIONSELEMENTE
100
AcDbCircle
 62
7
  6
CONTINUOUS
 10
73.2526900954
 20
97.401595837
 40
2.25
100
AcDbArc
 50
180.0
 51
360.0
  0
ARC
  5
407
100
AcDbEntity
  8
KONSTRUKTIONSELEMENTE
100
AcDbCircle
 62
7
  6
CONTINUOUS
 10
73.2526900954
 20
119.5081975548
 40
2.25
100
AcDbArc
 50
35.3291902089
 51
144.6708097911
  0
ARC
  5
408
100
AcDbEntity
  8
RUNDUNGEN
100
AcDbCircle
 62
7
  6
CONTINUOUS
 10
95.2526900954
 20
122.2185111945
 40
2.0
100
AcDbArc
 50
150.0
 51
180.0
  0
ARC
  5
409
100
AcDbEntity
  8
0
100
AcDbCircle
 62
7
  6
CONTINUOUS
 10
59.2199022652
 20
106.7544106921
 40
2.0
100
AcDbArc
 50
220.0000416102
 51
270.0000267465
  0
ARC
  5
40A
100
AcDbEntity
  8
RUNDUNGEN
100
AcDbCircle
 62
7
  6
CONTINUOUS
 10
55.2526900954
 20
111.4823500479
 40
2.0
100
AcDbArc
 50
180.0
 51
220.0
  0
ARC
  5
40B
100
AcDbEntity
  8
0
100
AcDbCircle
 62
7
  6
CONTINUOUS
 10
87.285477519
 20
106.7544102074
 40
2.0
100
AcDbArc
 50
269.9999849045
 51
319.9999765155
  0
ARC
  5
40C
100
AcDbEntity
  8
RUNDUNGEN
100
AcDbCircle
 62
7
  6
CONTINUOUS
 10
91.2526900954
 20
111.4823500479
 40
2.0
100
AcDbArc
 50
320.0
 51
360.0
  0
ARC
  5
40D
100
AcDbEntity
  8
RUNDUNGEN
100
AcDbCircle
 62
7
  6
CONTINUOUS
 10
51.2526900954
 20
122.2185111945
 40
2.0
100
AcDbArc
 50
0.0
 51
30.0
  0
CIRCLE
  5
40E
100
AcDbEntity
  8
BEZUGSACHSEN
100
AcDbCircle
 62
7
  6
CONTINUOUS
 10
87.9526900954
 20
116.0044095794
 40
1.75
  0
ARC
  5
40F
100
AcDbEntity
  8
KONSTRUKTIONSELEMENTE
100
AcDbCircle
 62
7
  6
CONTINUOUS
 10
68.0032991276
 20
29.116929706
 40
1.6093910746
100
AcDbArc
 50
0.0208671421
 51
7.9801551546
  0
LINE
  5
410
100
AcDbEntity
  8
BEZUGSACHSEN
100
AcDbLine
 62
7
  6
CONTINUOUS
 10
339.7252711297
 20
159.31332121
 11
339.7203029695
 21
159.2750436462
  0
LINE
  5
411
100
AcDbEntity
  8
BEZUGSACHSEN
100
AcDbLine
 62
7
  6
CONTINUOUS
 10
339.7203029695
 20
159.2750436462
 11
339.7152526209
 21
159.2367708752
  0
LINE
  5
412
100
AcDbEntity
  8
BEZUGSACHSEN
100
AcDbLine
 62
7
  6
CONTINUOUS
 10
339.7152526209
 20
159.2367708752
 11
339.7049072274
 21
159.1602396647
  0
LINE
  5
413
100
AcDbEntity
  8
BEZUGSACHSEN
100
AcDbLine
 62
7
  6
CONTINUOUS
 10
339.7269136968
 20
159.411474169
 11
339.7252711297
 21
159.31332121
  0
LINE
  5
414
100
AcDbEntity
  8
BEZUGSACHSEN
100
AcDbLine
 62
7
  6
CONTINUOUS
 10
339.7151814193
 20
159.9893120673
 11
339.7190564395
 21
159.9185229953
  0
LINE
  5
415
100
AcDbEntity
  8
BEZUGSACHSEN
100
AcDbLine
 62
7
  6
CONTINUOUS
 10
339.7190564395
 20
159.9185229953
 11
339.7228461573
 21
159.8477146419
  0
LINE
  5
416
100
AcDbEntity
  8
BEZUGSACHSEN
100
AcDbLine
 62
7
  6
CONTINUOUS
 10
339.7228461573
 20
159.8477146419
 11
339.7265501576
 21
159.7768869919
  0
LINE
  5
417
100
AcDbEntity
  8
BEZUGSACHSEN
100
AcDbLine
 62
7
  6
CONTINUOUS
 10
339.7265501576
 20
159.7768869919
 11
339.7301680327
 21
159.7060400318
  0
LINE
  5
418
100
AcDbEntity
  8
BEZUGSACHSEN
100
AcDbLine
 62
7
  6
CONTINUOUS
 10
339.6832740419
 20
160.2940425973
 11
339.6913525488
 21
160.2176650477
  0
LINE
  5
419
100
AcDbEntity
  8
BEZUGSACHSEN
100
AcDbLine
 62
7
  6
CONTINUOUS
 10
339.6913525488
 20
160.2176650477
 11
339.6993633952
 21
160.1414174538
  0
LINE
  5
41A
100
AcDbEntity
  8
BEZUGSACHSEN
100
AcDbLine
 62
7
  6
CONTINUOUS
 10
339.6993633952
 20
160.1414174538
 11
339.7073064089
 21
160.065299799
  0
LINE
  5
41B
100
AcDbEntity
  8
BEZUGSACHSEN
100
AcDbLine
 62
7
  6
CONTINUOUS
 10
339.7073064089
 20
160.065299799
 11
339.7151814193
 21
159.9893120673
  0
LINE
  5
41C
100
AcDbEntity
  8
BEZUGSACHSEN
100
AcDbLine
 62
7
  6
CONTINUOUS
 10
339.6480823289
 20
160.5327858939
 11
339.6674351661
 21
160.4017026966
  0
LINE
  5
41D
100
AcDbEntity
  8
BEZUGSACHSEN
100
AcDbLine
 62
7
  6
CONTINUOUS
 10
339.6674351661
 20
160.4017026966
 11
339.6832740419
 21
160.2940425973
  0
LINE
  5
41E
100
AcDbEntity
  8
BEZUGSACHSEN
100
AcDbLine
 62
7
  6
CONTINUOUS
 10
339.7457907479
 20
161.9558592316
 11
339.7476046406
 21
161.8577177059
  0
LINE
  5
41F
100
AcDbEntity
  8
BEZUGSACHSEN
100
AcDbLine
 62
7
  6
CONTINUOUS
 10
339.7476046406
 20
161.8577177059
 11
339.7489188785
 21
161.7595532867
  0
LINE
  5
420
100
AcDbEntity
  8
BEZUGSACHSEN
100
AcDbLine
 62
7
  6
CONTINUOUS
 10
339.7457907479
 20
161.9558592316
 11
339.736341939
 21
162.0005658565
  0
LINE
  5
421
100
AcDbEntity
  8
BEZUGSACHSEN
100
AcDbLine
 62
7
  6
CONTINUOUS
 10
339.736341939
 20
162.0005658565
 11
339.7261176392
 21
162.0489411837
  0
LINE
  5
422
100
AcDbEntity
  8
BEZUGSACHSEN
100
AcDbLine
 62
7
  6
CONTINUOUS
 10
339.7261176392
 20
162.0489411837
 11
339.6468022998
 21
162.4241973098
  0
LINE
  5
423
100
AcDbEntity
  8
BEZUGSACHSEN
100
AcDbLine
 62
7
  6
CONTINUOUS
 10
339.6468022998
 20
162.4241973098
 11
339.6256663763
 21
162.5241905065
  0
LINE
  5
424
100
AcDbEntity
  8
BEZUGSACHSEN
100
AcDbLine
 62
7
  6
CONTINUOUS
 10
339.6256663763
 20
162.5241905065
 11
339.5945606645
 21
162.6713467606
  0
LINE
  5
425
100
AcDbEntity
  8
BEZUGSACHSEN
100
AcDbLine
 62
7
  6
CONTINUOUS
 10
339.5945606645
 20
162.6713467606
 11
339.584113556
 21
162.7207694524
  0
LINE
  5
426
100
AcDbEntity
  8
BEZUGSACHSEN
100
AcDbLine
 62
7
  6
CONTINUOUS
 10
339.6440944442
 20
161.3358933092
 11
339.6207099289
 21
161.446886061
  0
LINE
  5
427
100
AcDbEntity
  8
BEZUGSACHSEN
100
AcDbLine
 62
7
  6
CONTINUOUS
 10
339.6207099289
 20
161.446886061
 11
339.5096141884
 21
161.9741035576
  0
LINE
  5
428
100
AcDbEntity
  8
BEZUGSACHSEN
100
AcDbLine
 62
7
  6
CONTINUOUS
 10
339.5096141884
 20
161.9741035576
 11
339.0938307769
 21
163.9461433083
  0
LINE
  5
429
100
AcDbEntity
  8
BEZUGSACHSEN
100
AcDbLine
 62
7
  6
CONTINUOUS
 10
339.0552193278
 20
165.0509714125
 11
339.0708141286
 21
165.0086599468
  0
LINE
  5
42A
100
AcDbEntity
  8
BEZUGSACHSEN
100
AcDbLine
 62
7
  6
CONTINUOUS
 10
339.1167698098
 20
164.8831892548
 11
339.1787628653
 21
164.6501412408
  0
LINE
  5
42B
100
AcDbEntity
  8
BEZUGSACHSEN
100
AcDbLine
 62
7
  6
CONTINUOUS
 10
339.1787628653
 20
164.6501412408
 11
339.1890138428
 21
164.6055412014
  0
LINE
  5
42C
100
AcDbEntity
  8
BEZUGSACHSEN
100
AcDbLine
 62
7
  6
CONTINUOUS
 10
339.1890138428
 20
164.6055412014
 11
339.1984048112
 21
164.5646778208
  0
LINE
  5
42D
100
AcDbEntity
  8
BEZUGSACHSEN
100
AcDbLine
 62
7
  6
CONTINUOUS
 10
339.1984048112
 20
164.5646778208
 11
339.2386946283
 21
164.3893066579
  0
LINE
  5
42E
100
AcDbEntity
  8
BEZUGSACHSEN
100
AcDbLine
 62
7
  6
CONTINUOUS
 10
339.2386946283
 20
164.3893066579
 11
339.256934842
 21
164.3098811552
  0
LINE
  5
42F
100
AcDbEntity
  8
BEZUGSACHSEN
100
AcDbLine
 62
7
  6
CONTINUOUS
 10
339.256934842
 20
164.3098811552
 11
339.2966528283
 21
164.1218476888
  0
LINE
  5
430
100
AcDbEntity
  8
BEZUGSACHSEN
100
AcDbLine
 62
7
  6
CONTINUOUS
 10
339.2966528283
 20
164.1218476888
 11
339.3164403458
 21
164.0281671187
  0
LINE
  5
431
100
AcDbEntity
  8
BEZUGSACHSEN
100
AcDbLine
 62
7
  6
CONTINUOUS
 10
339.3164403458
 20
164.0281671187
 11
339.493211848
 21
163.1912026364
  0
LINE
  5
432
100
AcDbEntity
  8
BEZUGSACHSEN
100
AcDbLine
 62
7
  6
CONTINUOUS
 10
339.5726347917
 20
162.7856769035
 11
339.493211848
 21
163.1912026364
  0
LINE
  5
433
100
AcDbEntity
  8
BEZUGSACHSEN
100
AcDbLine
 62
7
  6
CONTINUOUS
 10
339.6368620983
 20
162.4220963777
 11
339.6048979563
 21
162.6031559299
  0
LINE
  5
434
100
AcDbEntity
  8
BEZUGSACHSEN
100
AcDbLine
 62
7
  6
CONTINUOUS
 10
339.6048979563
 20
162.6031559299
 11
339.5726347917
 21
162.7856769035
  0
LINE
  5
435
100
AcDbEntity
  8
BEZUGSACHSEN
100
AcDbLine
 62
7
  6
CONTINUOUS
 10
339.7017293664
 20
161.9932500216
 11
339.6857473962
 21
162.0993972627
  0
LINE
  5
436
100
AcDbEntity
  8
BEZUGSACHSEN
100
AcDbLine
 62
7
  6
CONTINUOUS
 10
339.6857473962
 20
162.0993972627
 11
339.6368620983
 21
162.4220963777
  0
LINE
  5
437
100
AcDbEntity
  8
BEZUGSACHSEN
100
AcDbLine
 62
7
  6
CONTINUOUS
 10
339.7099568892
 20
161.9231517778
 11
339.7017293664
 21
161.9932500216
  0
LINE
  5
438
100
AcDbEntity
  8
BEZUGSACHSEN
100
AcDbLine
 62
7
  6
CONTINUOUS
 10
339.5560908126
 20
161.0466777203
 11
339.516564528
 21
161.231145479
  0
LINE
  5
439
100
AcDbEntity
  8
BEZUGSACHSEN
100
AcDbLine
 62
7
  6
CONTINUOUS
 10
339.516564528
 20
161.231145479
 11
339.4768260363
 21
161.4165673905
  0
LINE
  5
43A
100
AcDbEntity
  8
BEZUGSACHSEN
100
AcDbLine
 62
7
  6
CONTINUOUS
 10
339.619913623
 20
160.6986234974
 11
339.5560908126
 21
161.0466777203
  0
LINE
  5
43B
100
AcDbEntity
  8
BEZUGSACHSEN
100
AcDbLine
 62
7
  6
CONTINUOUS
 10
339.6838981743
 20
160.2636648147
 11
339.6231499435
 21
160.6767556358
  0
LINE
  5
43C
100
AcDbEntity
  8
BEZUGSACHSEN
100
AcDbLine
 62
7
  6
CONTINUOUS
 10
339.6231499435
 20
160.6767556358
 11
339.619913623
 21
160.6986234974
  0
LINE
  5
43D
100
AcDbEntity
  8
BEZUGSACHSEN
100
AcDbLine
 62
7
  6
CONTINUOUS
 10
339.3453454221
 20
159.1879686449
 11
339.5141999635
 21
158.830814348
  0
LINE
  5
43E
100
AcDbEntity
  8
BEZUGSACHSEN
100
AcDbLine
 62
7
  6
CONTINUOUS
 10
339.3135348333
 20
159.5054896169
 11
339.2658595442
 21
159.7843161635
  0
LINE
  5
43F
100
AcDbEntity
  8
BEZUGSACHSEN
100
AcDbLine
 62
7
  6
CONTINUOUS
 10
339.2658595442
 20
159.7843161635
 11
339.2497548789
 21
159.8782074967
  0
LINE
  5
440
100
AcDbEntity
  8
BEZUGSACHSEN
100
AcDbLine
 62
7
  6
CONTINUOUS
 10
339.4679880932
 20
160.1130026364
 11
339.227353168
 21
161.1122775883
  0
LINE
  5
441
100
AcDbEntity
  8
BEZUGSACHSEN
100
AcDbLine
 62
7
  6
CONTINUOUS
 10
339.227353168
 20
161.1122775883
 11
339.2165079702
 21
161.1573029155
  0
LINE
  5
442
100
AcDbEntity
  8
BEZUGSACHSEN
100
AcDbLine
 62
7
  6
CONTINUOUS
 10
339.2165079702
 20
161.1573029155
 11
339.0395305313
 21
161.8919304167
  0
LINE
  5
443
100
AcDbEntity
  8
BEZUGSACHSEN
100
AcDbLine
 62
7
  6
CONTINUOUS
 10
339.0395305313
 20
161.8919304167
 11
338.9805006941
 21
162.1369149697
  0
LINE
  5
444
100
AcDbEntity
  8
BEZUGSACHSEN
100
AcDbLine
 62
7
  6
CONTINUOUS
 10
339.2497548789
 20
159.8782074967
 11
339.2259962342
 21
159.9849599579
  0
LINE
  5
445
100
AcDbEntity
  8
BEZUGSACHSEN
100
AcDbLine
 62
7
  6
CONTINUOUS
 10
339.2259962342
 20
159.9849599579
 11
339.2021273078
 21
160.0921648154
  0
LINE
  5
446
100
AcDbEntity
  8
BEZUGSACHSEN
100
AcDbLine
 62
7
  6
CONTINUOUS
 10
339.4679880932
 20
160.1130026364
 11
339.5319049276
 21
159.895304686
  0
LINE
  5
447
100
AcDbEntity
  8
BEZUGSACHSEN
100
AcDbLine
 62
7
  6
CONTINUOUS
 10
339.5319049276
 20
159.895304686
 11
339.5810418167
 21
159.7863467114
  0
LINE
  5
448
100
AcDbEntity
  8
BEZUGSACHSEN
100
AcDbLine
 62
7
  6
CONTINUOUS
 10
339.1390563483
 20
160.3074883473
 11
339.2021273078
 21
160.0921648154
  0
LINE
  5
449
100
AcDbEntity
  8
BEZUGSACHSEN
100
AcDbLine
 62
7
  6
CONTINUOUS
 10
339.0920628792
 20
160.4165161003
 11
339.1390563483
 21
160.3074883473
  0
LINE
  5
44A
100
AcDbEntity
  8
BEZUGSACHSEN
100
AcDbLine
 62
7
  6
CONTINUOUS
 10
339.6928565131
 20
156.7431678463
 11
339.3631866365
 21
157.873615748
  0
LINE
  5
44B
100
AcDbEntity
  8
BEZUGSACHSEN
100
AcDbLine
 62
7
  6
CONTINUOUS
 10
339.2689375234
 20
158.1966008196
 11
339.0332233229
 21
159.0040636496
  0
LINE
  5
44C
100
AcDbEntity
  8
BEZUGSACHSEN
100
AcDbLine
 62
7
  6
CONTINUOUS
 10
338.9881387425
 20
163.4404797238
 11
339.0477154516
 21
163.1937590313
  0
LINE
  5
44D
100
AcDbEntity
  8
BEZUGSACHSEN
100
AcDbLine
 62
7
  6
CONTINUOUS
 10
339.0477154516
 20
163.1937590313
 11
339.4768260363
 21
161.4165673905
  0
SPLINE
  5
44E
100
AcDbEntity
  8
0
100
AcDbSpline
 62
7
  6
CONTINUOUS
 70
0
 71
3
 72
9
 73
5
 74
0
 42
0.0000001
 43
0.0000001
 44
0.0000000001
 40
0.0
 40
0.0
 40
0.0
 40
0.0
 40
0.5000019527
 40
1.0
 40
1.0
 40
1.0
 40
1.0
 10
337.5747063008
 20
155.3774019852
 30
0.0
 10
337.6941684816
 20
153.2915612055
 30
0.0
 10
337.8491848139
 20
149.1144303385
 30
0.0
 10
337.8088813947
 20
144.9343965207
 30
0.0
 10
337.7416764502
 20
142.8462350617
 30
0.0
  0
SPLINE
  5
44F
100
AcDbEntity
  8
0
100
AcDbSpline
 62
7
  6
CONTINUOUS
 70
0
 71
3
 72
11
 73
7
 74
0
 42
0.0000001
 43
0.0000001
 44
0.0000000001
 40
0.0
 40
0.0
 40
0.0
 40
0.0
 40
0.2500561064
 40
0.5000000001
 40
0.7499438939
 40
1.0
 40
1.0
 40
1.0
 40
1.0
 10
337.5747063008
 20
168.5206797882
 30
0.0
 10
337.65213113
 20
167.427003955
 30
0.0
 10
337.7720250211
 20
165.2374567211
 30
0.0
 10
337.8337158058
 20
161.9490408853
 30
0.0
 10
337.7720250226
 20
158.6606250504
 30
0.0
 10
337.6521311299
 20
156.4710778173
 30
0.0
 10
337.5747063008
 20
155.3774019852
 30
0.0
  0
SPLINE
  5
450
100
AcDbEntity
  8
0
100
AcDbSpline
 62
7
  6
CONTINUOUS
 70
0
 71
3
 72
11
 73
7
 74
0
 42
0.0000001
 43
0.0000001
 44
0.0000000001
 40
0.0
 40
0.0
 40
0.0
 40
0.0
 40
0.2500561064
 40
0.5000000001
 40
0.7499438939
 40
1.0
 40
1.0
 40
1.0
 40
1.0
 10
331.7214501667
 20
168.5206797882
 30
0.0
 10
331.6440253376
 20
167.427003955
 30
0.0
 10
331.5241314464
 20
165.2374567211
 30
0.0
 10
331.4624406617
 20
161.9490408853
 30
0.0
 10
331.5241314449
 20
158.6606250504
 30
0.0
 10
331.6440253376
 20
156.4710778173
 30
0.0
 10
331.7214501667
 20
155.3774019852
 30
0.0
  0
SPLINE
  5
451
100
AcDbEntity
  8
0
100
AcDbSpline
 62
7
  6
CONTINUOUS
 70
0
 71
3
 72
9
 73
5
 74
0
 42
0.0000001
 43
0.0000001
 44
0.0000000001
 40
0.0
 40
0.0
 40
0.0
 40
0.0
 40
0.5000019527
 40
1.0
 40
1.0
 40
1.0
 40
1.0
 10
331.7214501667
 20
155.3774019852
 30
0.0
 10
331.6019879859
 20
153.2915612055
 30
0.0
 10
331.4469716536
 20
149.1144303385
 30
0.0
 10
331.4872750729
 20
144.9343965207
 30
0.0
 10
331.5544800173
 20
142.8462350617
 30
0.0
  0
LINE
  5
452
100
AcDbEntity
  8
BEZUGSACHSEN
100
AcDbLine
 62
7
  6
CONTINUOUS
 10
339.6436905318
 20
162.0771324294
 11
339.6397005488
 21
162.1283989039
  0
LINE
  5
453
100
AcDbEntity
  8
BEZUGSACHSEN
100
AcDbLine
 62
7
  6
CONTINUOUS
 10
339.6397005488
 20
162.1283989039
 11
339.6076948914
 21
162.3754552359
  0
LINE
  5
454
100
AcDbEntity
  8
BEZUGSACHSEN
100
AcDbLine
 62
7
  6
CONTINUOUS
 10
339.6076948914
 20
162.3754552359
 11
339.5598200489
 21
162.6644571486
  0
LINE
  5
455
100
AcDbEntity
  8
BEZUGSACHSEN
100
AcDbLine
 62
7
  6
CONTINUOUS
 10
339.5598200489
 20
162.6644571486
 11
339.4963956877
 21
162.9954043206
  0
LINE
  5
456
100
AcDbEntity
  8
BEZUGSACHSEN
100
AcDbLine
 62
7
  6
CONTINUOUS
 10
339.2598920519
 20
164.1140828394
 11
339.4375942049
 21
163.273546006
  0
LINE
  5
457
100
AcDbEntity
  8
BEZUGSACHSEN
100
AcDbLine
 62
7
  6
CONTINUOUS
 10
339.4375942049
 20
163.273546006
 11
339.4566370486
 21
163.1834704088
  0
LINE
  5
458
100
AcDbEntity
  8
BEZUGSACHSEN
100
AcDbLine
 62
7
  6
CONTINUOUS
 10
339.4566370486
 20
163.1834704088
 11
339.4963956877
 21
162.9954043206
  0
LINE
  5
459
100
AcDbEntity
  8
BEZUGSACHSEN
100
AcDbLine
 62
7
  6
CONTINUOUS
 10
339.1971429039
 20
164.379764155
 11
339.2286076428
 21
164.2465734875
  0
LINE
  5
45A
100
AcDbEntity
  8
BEZUGSACHSEN
100
AcDbLine
 62
7
  6
CONTINUOUS
 10
339.2286076428
 20
164.2465734875
 11
339.2598920519
 21
164.1140828394
  0
LINE
  5
45B
100
AcDbEntity
  8
BEZUGSACHSEN
100
AcDbLine
 62
7
  6
CONTINUOUS
 10
339.1503303803
 20
164.538233817
 11
339.1738442603
 21
164.4587189516
  0
LINE
  5
45C
100
AcDbEntity
  8
BEZUGSACHSEN
100
AcDbLine
 62
7
  6
CONTINUOUS
 10
339.1738442603
 20
164.4587189516
 11
339.1971429039
 21
164.379764155
  0
LINE
  5
45D
100
AcDbEntity
  8
BEZUGSACHSEN
100
AcDbLine
 62
7
  6
CONTINUOUS
 10
339.1426071501
 20
164.5510077026
 11
339.1503303803
 21
164.538233817
  0
LINE
  5
45E
100
AcDbEntity
  8
KONSTRUKTIONSELEMENTE
100
AcDbLine
 62
7
  6
CONTINUOUS
 10
338.7165632543
 20
164.1978163582
 11
338.8696209897
 21
163.4724311654
  0
LINE
  5
45F
100
AcDbEntity
  8
KONSTRUKTIONSELEMENTE
100
AcDbLine
 62
7
  6
CONTINUOUS
 10
338.8696209897
 20
163.4724311654
 11
338.8763620392
 21
163.4404799681
  0
LINE
  5
460
100
AcDbEntity
  8
BEZUGSACHSEN
100
AcDbLine
 62
7
  6
CONTINUOUS
 10
339.7305055677
 20
160.6926235754
 11
339.7246242838
 21
160.7206236103
  0
LINE
  5
461
100
AcDbEntity
  8
BEZUGSACHSEN
100
AcDbLine
 62
7
  6
CONTINUOUS
 10
339.7246242838
 20
160.7206236103
 11
339.6518965345
 21
161.0668065405
  0
LINE
  5
462
100
AcDbEntity
  8
BEZUGSACHSEN
100
AcDbLine
 62
7
  6
CONTINUOUS
 10
339.6518965345
 20
161.0668065405
 11
339.5974113852
 21
161.3260800221
  0
LINE
  5
463
100
AcDbEntity
  8
BEZUGSACHSEN
100
AcDbLine
 62
7
  6
CONTINUOUS
 10
339.5974113852
 20
161.3260800221
 11
339.5740952812
 21
161.4370135676
  0
LINE
  5
464
100
AcDbEntity
  8
BEZUGSACHSEN
100
AcDbLine
 62
7
  6
CONTINUOUS
 10
339.5740952812
 20
161.4370135676
 11
339.1456810713
 21
163.4736380062
  0
LINE
  5
465
100
AcDbEntity
  8
BEZUGSACHSEN
100
AcDbLine
 62
7
  6
CONTINUOUS
 10
339.1456810713
 20
163.4736380062
 11
339.0482277266
 21
163.9365413362
  0
LINE
  5
466
100
AcDbEntity
  8
BEZUGSACHSEN
100
AcDbLine
 62
7
  6
CONTINUOUS
 10
339.0482277266
 20
163.9365413362
 11
338.9932115806
 21
164.1978163582
  0
LINE
  5
467
100
AcDbEntity
  8
KONSTRUKTIONSELEMENTE
100
AcDbLine
 62
7
  6
CONTINUOUS
 10
339.3502333098
 20
159.3950587433
 11
339.3151148274
 21
159.4898667984
  0
LINE
  5
468
100
AcDbEntity
  8
BEZUGSACHSEN
100
AcDbLine
 62
7
  6
CONTINUOUS
 10
339.5405200058
 20
159.5693043737
 11
339.6058755397
 21
159.3950587433
  0
LINE
  5
469
100
AcDbEntity
  8
RUNDUNGEN
100
AcDbLine
 62
7
  6
CONTINUOUS
 10
338.6910947108
 20
123.2185111945
 11
339.6594286874
 21
122.2185111945
  0
LINE
  5
46A
100
AcDbEntity
  8
0
100
AcDbLine
 62
7
  6
CONTINUOUS
 10
330.6050617567
 20
123.2185111945
 11
329.6367277801
 21
122.2185111945
  0
SPLINE
  5
46B
100
AcDbEntity
  8
0
100
AcDbSpline
 62
7
  6
CONTINUOUS
 70
0
 71
3
 72
11
 73
7
 74
0
 42
0.0000001
 43
0.0000001
 44
0.0000000001
 40
0.0
 40
0.0
 40
0.0
 40
0.0
 40
0.2509893126
 40
0.5000000001
 40
0.7490106877
 40
1.0
 40
1.0
 40
1.0
 40
1.0
 10
337.5747063008
 20
173.5409651854
 30
0.0
 10
337.6516740138
 20
173.125684568
 30
0.0
 10
337.7716513078
 20
172.2916394355
 30
0.0
 10
337.833825157
 20
171.0308224863
 30
0.0
 10
337.7716513092
 20
169.7700055372
 30
0.0
 10
337.6516740137
 20
168.9359604052
 30
0.0
 10
337.5747063008
 20
168.5206797882
 30
0.0
  0
SPLINE
  5
46C
100
AcDbEntity
  8
BEZUGSACHSEN
100
AcDbSpline
 62
7
  6
CONTINUOUS
 70
0
 71
3
 72
8
 73
4
 74
0
 42
0.0000001
 43
0.0000001
 44
0.0000000001
 40
0.0
 40
0.0
 40
0.0
 40
0.0
 40
1.0
 40
1.0
 40
1.0
 40
1.0
 10
339.3758193973
 20
158.765517882
 30
0.0
 10
339.4397213717
 20
158.6294342966
 30
0.0
 10
339.5035053217
 20
158.4932951995
 30
0.0
 10
339.5671468466
 20
158.3570896165
 30
0.0
  0
LINE
  5
46D
100
AcDbEntity
  8
BEZUGSACHSEN
100
AcDbLine
 62
7
  6
CONTINUOUS
 10
339.5671468466
 20
158.3570896165
 11
339.7080953719
 21
158.0547886183
  0
LINE
  5
46E
100
AcDbEntity
  8
KONSTRUKTIONSELEMENTE
100
AcDbLine
 62
7
  6
CONTINUOUS
 10
339.4625744028
 20
158.0547886183
 11
339.37502555
 21
158.2454540581
  0
LINE
  5
46F
100
AcDbEntity
  8
KONSTRUKTIONSELEMENTE
100
AcDbLine
 62
7
  6
CONTINUOUS
 10
339.37502555
 20
158.2454540581
 11
339.3702605646
 21
158.2558118991
  0
LINE
  5
470
100
AcDbEntity
  8
BEZUGSACHSEN
100
AcDbLine
 62
7
  6
CONTINUOUS
 10
339.4607607284
 20
159.8522895613
 11
339.5405200058
 21
159.5693043737
  0
LINE
  5
471
100
AcDbEntity
  8
KONSTRUKTIONSELEMENTE
100
AcDbLine
 62
7
  6
CONTINUOUS
 10
338.7181692003
 20
161.8762018946
 11
339.0546942759
 21
160.4804863215
  0
LINE
  5
472
100
AcDbEntity
  8
KONSTRUKTIONSELEMENTE
100
AcDbLine
 62
7
  6
CONTINUOUS
 10
339.0546942759
 20
160.4804863215
 11
339.0637758919
 21
160.4428131177
  0
LINE
  5
473
100
AcDbEntity
  8
BEZUGSACHSEN
100
AcDbLine
 62
7
  6
CONTINUOUS
 10
339.4607607284
 20
159.8522895613
 11
339.4019447597
 21
160.0971353551
  0
LINE
  5
474
100
AcDbEntity
  8
BEZUGSACHSEN
100
AcDbLine
 62
7
  6
CONTINUOUS
 10
339.4019447597
 20
160.0971353551
 11
338.974250486
 21
161.8762018946
  0
SPLINE
  5
475
100
AcDbEntity
  8
0
100
AcDbSpline
 62
7
  6
CONTINUOUS
 70
0
 71
3
 72
11
 73
7
 74
0
 42
0.0000001
 43
0.0000001
 44
0.0000000001
 40
0.0
 40
0.0
 40
0.0
 40
0.0
 40
0.2509893126
 40
0.5000000001
 40
0.7490106877
 40
1.0
 40
1.0
 40
1.0
 40
1.0
 10
331.7214501667
 20
173.5409651854
 30
0.0
 10
331.6444824537
 20
173.125684568
 30
0.0
 10
331.5245051598
 20
172.2916394355
 30
0.0
 10
331.4623313105
 20
171.0308224863
 30
0.0
 10
331.5245051583
 20
169.7700055372
 30
0.0
 10
331.6444824538
 20
168.9359604052
 30
0.0
 10
331.7214501667
 20
168.5206797882
 30
0.0
  0
LINE
  5
476
100
AcDbEntity
  8
BEZUGSACHSEN
100
AcDbLine
 62
7
  6
CONTINUOUS
 10
339.6290393908
 20
159.8675223977
 11
339.6335821138
 21
159.8946491519
  0
LINE
  5
477
100
AcDbEntity
  8
BEZUGSACHSEN
100
AcDbLine
 62
7
  6
CONTINUOUS
 10
339.6841441387
 20
156.428378849
 11
339.6004553963
 21
156.7163059653
  0
LINE
  5
478
100
AcDbEntity
  8
BEZUGSACHSEN
100
AcDbLine
 62
7
  6
CONTINUOUS
 10
339.6004553963
 20
156.7163059653
 11
339.5663388443
 21
156.8336448871
  0
LINE
  5
479
100
AcDbEntity
  8
BEZUGSACHSEN
100
AcDbLine
 62
7
  6
CONTINUOUS
 10
339.5663388443
 20
156.8336448871
 11
339.271498161
 21
157.8469175483
  0
LINE
  5
47A
100
AcDbEntity
  8
BEZUGSACHSEN
100
AcDbLine
 62
7
  6
CONTINUOUS
 10
339.271498161
 20
157.8469175483
 11
339.1774287506
 21
158.1699438313
  0
LINE
  5
47B
100
AcDbEntity
  8
BEZUGSACHSEN
100
AcDbLine
 62
7
  6
CONTINUOUS
 10
339.1774287506
 20
158.1699438313
 11
338.9476843974
 21
158.9584288787
  0
LINE
  5
47C
100
AcDbEntity
  8
KONSTRUKTIONSELEMENTE
100
AcDbLine
 62
7
  6
CONTINUOUS
 10
338.7173872712
 20
158.9584288787
 11
339.456849374
 21
156.428378849
  0
LINE
  5
47D
100
AcDbEntity
  8
KONSTRUKTIONSELEMENTE
100
AcDbLine
 62
7
  6
CONTINUOUS
 10
339.0396613341
 20
159.1934325944
 11
339.0403618143
 21
159.0040862712
  0
LINE
  5
47E
100
AcDbEntity
  8
KONSTRUKTIONSELEMENTE
100
AcDbLine
 62
7
  6
CONTINUOUS
 10
339.0403618143
 20
159.0040862712
 11
339.0404082775
 21
158.9796749788
  0
LINE
  5
47F
100
AcDbEntity
  8
BEZUGSACHSEN
100
AcDbLine
 62
7
  6
CONTINUOUS
 10
339.6207248982
 20
160.3075540712
 11
339.5893867996
 21
160.5684855639
  0
LINE
  5
480
100
AcDbEntity
  8
BEZUGSACHSEN
100
AcDbLine
 62
7
  6
CONTINUOUS
 10
339.0613717379
 20
160.1044590777
 11
339.0929756226
 21
160.101727103
  0
LINE
  5
481
100
AcDbEntity
  8
BEZUGSACHSEN
100
AcDbLine
 62
7
  6
CONTINUOUS
 10
339.5893867996
 20
160.5684855639
 11
339.5419424672
 21
160.8512522552
  0
LINE
  5
482
100
AcDbEntity
  8
BEZUGSACHSEN
100
AcDbLine
 62
7
  6
CONTINUOUS
 10
339.0929756226
 20
160.101727103
 11
339.1222210319
 21
160.0343011161
  0
LINE
  5
483
100
AcDbEntity
  8
BEZUGSACHSEN
100
AcDbLine
 62
7
  6
CONTINUOUS
 10
339.1222210319
 20
160.0343011161
 11
339.128479162
 21
160.0198675187
  0
LINE
  5
484
100
AcDbEntity
  8
BEZUGSACHSEN
100
AcDbLine
 62
7
  6
CONTINUOUS
 10
339.128479162
 20
160.0198675187
 11
339.1402565152
 21
159.99269935
  0
LINE
  5
485
100
AcDbEntity
  8
BEZUGSACHSEN
100
AcDbLine
 62
7
  6
CONTINUOUS
 10
339.1402565152
 20
159.99269935
 11
339.1875765648
 21
159.8312066633
  0
LINE
  5
486
100
AcDbEntity
  8
BEZUGSACHSEN
100
AcDbLine
 62
7
  6
CONTINUOUS
 10
339.2349373433
 20
159.6172493447
 11
339.1875765648
 21
159.8312066633
  0
LINE
  5
487
100
AcDbEntity
  8
BEZUGSACHSEN
100
AcDbLine
 62
7
  6
CONTINUOUS
 10
339.2664240186
 20
159.4046579383
 11
339.2349373433
 21
159.6172493447
  0
LINE
  5
488
100
AcDbEntity
  8
KONSTRUKTIONSELEMENTE
100
AcDbLine
 62
7
  6
CONTINUOUS
 10
339.0372033903
 20
159.2246473626
 11
339.0396613341
 21
159.1934325944
  0
LINE
  5
489
100
AcDbEntity
  8
BEZUGSACHSEN
100
AcDbLine
 62
7
  6
CONTINUOUS
 10
338.9897696805
 20
163.179766773
 11
339.4190996292
 21
161.4026217292
  0
LINE
  5
48A
100
AcDbEntity
  8
BEZUGSACHSEN
100
AcDbLine
 62
7
  6
CONTINUOUS
 10
339.4190996292
 20
161.4026217292
 11
339.4787140116
 21
161.1558544397
  0
LINE
  5
48B
100
AcDbEntity
  8
KONSTRUKTIONSELEMENTE
100
AcDbLine
 62
7
  6
CONTINUOUS
 10
338.9740825531
 20
162.1353658325
 11
338.968506341
 21
162.158467782
  0
LINE
  5
48C
100
AcDbEntity
  8
KONSTRUKTIONSELEMENTE
100
AcDbLine
 62
7
  6
CONTINUOUS
 10
338.968506341
 20
162.158467782
 11
338.7219755255
 21
163.179766773
  0
LINE
  5
48D
100
AcDbEntity
  8
BEZUGSACHSEN
100
AcDbLine
 62
7
  6
CONTINUOUS
 10
339.5419424672
 20
160.8512522552
 11
339.4945865228
 21
161.0794094871
  0
LINE
  5
48E
100
AcDbEntity
  8
BEZUGSACHSEN
100
AcDbLine
 62
7
  6
CONTINUOUS
 10
339.4945865228
 20
161.0794094871
 11
339.4787140116
 21
161.1558544397
  0
SPLINE
  5
48F
100
AcDbEntity
  8
KONSTRUKTIONSELEMENTE
100
AcDbSpline
 62
7
  6
CONTINUOUS
 70
0
 71
3
 72
14
 73
10
 74
0
 42
0.0000001
 43
0.0000001
 44
0.0000000001
 40
0.0
 40
0.0
 40
0.0
 40
0.0
 40
0.0551359094
 40
0.1223699656
 40
0.2074507274
 40
0.3149057254
 40
0.4478676734
 40
0.6082995934
 40
1.0
 40
1.0
 40
1.0
 40
1.0
 10
76.7526900954
 20
98.2018483687
 30
0.0
 10
76.7526900954
 20
98.2369233665
 30
0.0
 10
76.7465990317
 20
98.3149434357
 30
0.0
 10
76.7124496261
 20
98.4431357627
 30
0.0
 10
76.6437163323
 20
98.5941417884
 30
0.0
 10
76.5308229578
 20
98.7685953107
 30
0.0
 10
76.3621908782
 20
98.9610112228
 30
0.0
 10
76.0345777692
 20
99.2497837857
 30
0.0
 10
75.729440957
 20
99.431612533
 30
0.0
 10
75.5046819837
 20
99.539200664
 30
0.0
  0
SPLINE
  5
490
100
AcDbEntity
  8
KONSTRUKTIONSELEMENTE
100
AcDbSpline
 62
7
  6
CONTINUOUS
 70
0
 71
3
 72
14
 73
10
 74
0
 42
0.0000001
 43
0.0000001
 44
0.0000000001
 40
0.0
 40
0.0
 40
0.0
 40
0.0
 40
0.3917172299
 40
0.5521555057
 40
0.6851138818
 40
0.7925516428
 40
0.877642207
 40
0.9448879032
 40
1.0
 40
1.0
 40
1.0
 40
1.0
 10
71.0009408599
 20
99.5393125921
 30
0.0
 10
70.776132954
 20
99.4317226915
 30
0.0
 10
70.4709314933
 20
99.2498733049
 30
0.0
 10
70.1432588454
 20
98.9610613533
 30
0.0
 10
69.9745798153
 20
98.7686529619
 30
0.0
 10
69.8616661935
 20
98.5941837208
 30
0.0
 10
69.7929519006
 20
98.443140912
 30
0.0
 10
69.7587966367
 20
98.3149351466
 30
0.0
 10
69.7526900954
 20
98.2369130296
 30
0.0
 10
69.7526900954
 20
98.2018483687
 30
0.0
  0
SPLINE
  5
491
100
AcDbEntity
  8
KONSTRUKTIONSELEMENTE
100
AcDbSpline
 62
7
  6
CONTINUOUS
 70
0
 71
3
 72
14
 73
10
 74
0
 42
0.0000001
 43
0.0000001
 44
0.0000000001
 40
0.0
 40
0.0
 40
0.0
 40
0.0
 40
0.1193894076
 40
0.2390957115
 40
0.3600148606
 40
0.4826457182
 40
0.6077304619
 40
0.7357412445
 40
1.0
 40
1.0
 40
1.0
 40
1.0
 10
81.2526900954
 20
98.2018483687
 30
0.0
 10
81.2526900954
 20
98.5604879799
 30
0.0
 10
81.1765996441
 20
99.2809921157
 30
0.0
 10
80.8410006466
 20
100.3164991538
 30
0.0
 10
80.3051009383
 20
101.2747768363
 30
0.0
 10
79.5928599945
 20
102.1300895886
 30
0.0
 10
78.7318886254
 20
102.8676803232
 30
0.0
 10
77.4076118288
 20
103.6893075372
 30
0.0
 10
76.2809662685
 20
104.0920583443
 30
0.0
 10
75.5068024159
 20
104.2676144894
 30
0.0
  0
SPLINE
  5
492
100
AcDbEntity
  8
KONSTRUKTIONSELEMENTE
100
AcDbSpline
 62
7
  6
CONTINUOUS
 70
0
 71
3
 72
14
 73
10
 74
0
 42
0.0000001
 43
0.0000001
 44
0.0000000001
 40
0.0
 40
0.0
 40
0.0
 40
0.0
 40
0.2642708626
 40
0.3922805637
 40
0.5173547468
 40
0.6399817364
 40
0.7608849187
 40
0.8806119843
 40
1.0
 40
1.0
 40
1.0
 40
1.0
 10
71.0005193166
 20
104.2680457017
 30
0.0
 10
70.2261219901
 20
104.0925655974
 30
0.0
 10
69.0991112393
 20
103.6899582074
 30
0.0
 10
67.7744047647
 20
102.8683648455
 30
0.0
 10
66.9131750629
 20
102.1307599834
 30
0.0
 10
66.2007417305
 20
101.2754167066
 30
0.0
 10
65.6645097689
 20
100.3170368465
 30
0.0
 10
65.3288726468
 20
99.281272168
 30
0.0
 10
65.2526900954
 20
98.560562639
 30
0.0
 10
65.2526900954
 20
98.2018483687
 30
0.0
  0
SPLINE
  5
493
100
AcDbEntity
  8
KONSTRUKTIONSELEMENTE
100
AcDbSpline
 62
7
  6
CONTINUOUS
 70
0
 71
3
 72
14
 73
10
 74
0
 42
0.0000001
 43
0.0000001
 44
0.0000000001
 40
0.0
 40
0.0
 40
0.0
 40
0.0
 40
0.1196424727
 40
0.2395631224
 40
0.3606430533
 40
0.4833332762
 40
0.6083558391
 40
0.7361852119
 40
1.0
 40
1.0
 40
1.0
 40
1.0
 10
65.2526900954
 20
87.5952466509
 30
0.0
 10
65.2526900954
 20
87.2460329488
 30
0.0
 10
65.3247887954
 20
86.5446943122
 30
0.0
 10
65.6430963929
 20
85.534465211
 30
0.0
 10
66.1523971317
 20
84.5959273588
 30
0.0
 10
66.8308051421
 20
83.7533457617
 30
0.0
 10
67.6528712369
 20
83.0211032696
 30
0.0
 10
68.9203687765
 20
82.1964296238
 30
0.0
 10
70.0030412379
 20
81.7794317993
 30
0.0
 10
70.7492657595
 20
81.5894633087
 30
0.0
  0
SPLINE
  5
494
100
AcDbEntity
  8
KONSTRUKTIONSELEMENTE
100
AcDbSpline
 62
7
  6
CONTINUOUS
 70
0
 71
3
 72
14
 73
10
 74
0
 42
0.0000001
 43
0.0000001
 44
0.0000000001
 40
0.0
 40
0.0
 40
0.0
 40
0.0
 40
0.2638203492
 40
0.3916464215
 40
0.5166578653
 40
0.6393440549
 40
0.7604112963
 40
0.8803567455
 40
1.0
 40
1.0
 40
1.0
 40
1.0
 10
75.7570178979
 20
81.5897104982
 30
0.0
 10
76.5031577203
 20
81.7797450995
 30
0.0
 10
77.5856911355
 20
82.1967708285
 30
0.0
 10
78.8529625824
 20
83.0214526455
 30
0.0
 10
79.6748357599
 20
83.7536531318
 30
0.0
 10
80.3530803044
 20
84.5961041944
 30
0.0
 10
80.8623879865
 20
85.5345414896
 30
0.0
 10
81.1805470894
 20
86.5447403475
 30
0.0
 10
81.2526900954
 20
87.2460678535
 30
0.0
 10
81.2526900954
 20
87.5952466509
 30
0.0
  0
SPLINE
  5
495
100
AcDbEntity
  8
KONSTRUKTIONSELEMENTE
100
AcDbSpline
 62
7
  6
CONTINUOUS
 70
0
 71
3
 72
12
 73
8
 74
0
 42
0.0000001
 43
0.0000001
 44
0.0000000001
 40
0.0
 40
0.0
 40
0.0
 40
0.0
 40
0.1282453638
 40
0.2146169864
 40
0.321985829
 40
0.6101725692
 40
1.0
 40
1.0
 40
1.0
 40
1.0
 10
69.7526900954
 20
87.5952466509
 30
0.0
 10
69.7526900954
 20
87.5259836411
 30
0.0
 10
69.7723530811
 20
87.4094397915
 30
0.0
 10
69.8390429749
 20
87.2484162676
 30
0.0
 10
69.9702078656
 20
87.0226050935
 30
0.0
 10
70.261502326
 20
86.7076306502
 30
0.0
 10
70.5637997294
 20
86.4962634081
 30
0.0
 10
70.7463360304
 20
86.3913488117
 30
0.0
  0
SPLINE
  5
496
100
AcDbEntity
  8
KONSTRUKTIONSELEMENTE
100
AcDbSpline
 62
7
  6
CONTINUOUS
 70
0
 71
3
 72
12
 73
8
 74
0
 42
0.0000001
 43
0.0000001
 44
0.0000000001
 40
0.0
 40
0.0
 40
0.0
 40
0.0
 40
0.3898396094
 40
0.6780156338
 40
0.7853729626
 40
0.8717632718
 40
1.0
 40
1.0
 40
1.0
 40
1.0
 10
75.7591356965
 20
86.3914012828
 30
0.0
 10
75.94166294
 20
86.4963166923
 30
0.0
 10
76.2439107037
 20
86.70770603
 30
0.0
 10
76.5352156798
 20
87.0226239476
 30
0.0
 10
76.6663538381
 20
87.2484324096
 30
0.0
 10
76.7329996452
 20
87.409458144
 30
0.0
 10
76.7526900954
 20
87.5259929185
 30
0.0
 10
76.7526900954
 20
87.5952466509
 30
0.0
  0
SPLINE
  5
497
100
AcDbEntity
  8
KONSTRUKTIONSELEMENTE
100
AcDbSpline
 62
7
  6
CONTINUOUS
 70
0
 71
3
 72
9
 73
5
 74
0
 42
0.0000001
 43
0.0000001
 44
0.0000000001
 40
0.0
 40
0.0
 40
0.0
 40
0.0
 40
0.239310929
 40
1.0
 40
1.0
 40
1.0
 40
1.0
 10
62.4031909226
 20
145.4469046398
 30
0.0
 10
62.8876598466
 20
145.1917043333
 30
0.0
 10
64.9586955375
 20
144.2147197557
 30
0.0
 10
67.188073208
 20
143.5866220806
 30
0.0
 10
68.9032797694
 20
143.2906581777
 30
0.0
  0
SPLINE
  5
498
100
AcDbEntity
  8
KONSTRUKTIONSELEMENTE
100
AcDbSpline
 62
7
  6
CONTINUOUS
 70
0
 71
3
 72
9
 73
5
 74
0
 42
0.0000001
 43
0.0000001
 44
0.0000000001
 40
0.0
 40
0.0
 40
0.0
 40
0.0
 40
0.2600385855
 40
1.0
 40
1.0
 40
1.0
 40
1.0
 10
77.5920257242
 20
143.288924682
 30
0.0
 10
78.1790857198
 20
143.3899678109
 30
0.0
 10
80.4212044318
 20
143.8593743734
 30
0.0
 10
82.6009937145
 20
144.6562768928
 30
0.0
 10
84.1007973723
 20
145.4461657646
 30
0.0
  0
SPLINE
  5
499
100
AcDbEntity
  8
KONSTRUKTIONSELEMENTE
100
AcDbSpline
 62
7
  6
CONTINUOUS
 70
0
 71
3
 72
11
 73
7
 74
0
 42
0.0000001
 43
0.0000001
 44
0.0000000001
 40
0.0
 40
0.0
 40
0.0
 40
0.0
 40
0.2405829781
 40
0.4863764782
 40
0.7391091079
 40
1.0
 40
1.0
 40
1.0
 40
1.0
 10
96.1955917645
 20
158.233999246
 30
0.0
 10
95.9537244598
 20
159.0517670098
 30
0.0
 10
95.3108304958
 20
160.6631460577
 30
0.0
 10
93.9295023112
 20
162.9028189395
 30
0.0
 10
92.1646084123
 20
164.9488827304
 30
0.0
 10
90.782720381
 20
166.144694183
 30
0.0
 10
90.0454317451
 20
166.7029112906
 30
0.0
  0
SPLINE
  5
49A
100
AcDbEntity
  8
KONSTRUKTIONSELEMENTE
100
AcDbSpline
 62
7
  6
CONTINUOUS
 70
0
 71
3
 72
11
 73
7
 74
0
 42
0.0000001
 43
0.0000001
 44
0.0000000001
 40
0.0
 40
0.0
 40
0.0
 40
0.0
 40
0.2608898883
 40
0.5136223683
 40
0.7594159398
 40
1.0
 40
1.0
 40
1.0
 40
1.0
 10
56.4591651868
 20
166.7023223286
 30
0.0
 10
55.721867442
 20
166.1440434117
 30
0.0
 10
54.3399693727
 20
164.948102608
 30
0.0
 10
52.5751261071
 20
162.9018104415
 30
0.0
 10
51.1939161791
 20
160.661898801
 30
0.0
 10
50.5511350695
 20
159.0503699603
 30
0.0
 10
50.3093484959
 20
158.2325280394
 30
0.0
  0
SPLINE
  5
49B
100
AcDbEntity
  8
BEZUGSACHSEN
100
AcDbSpline
 62
7
  6
CONTINUOUS
 70
0
 71
3
 72
11
 73
7
 74
0
 42
0.0000001
 43
0.0000001
 44
0.0000000001
 40
0.0
 40
0.0
 40
0.0
 40
0.0
 40
0.2247459803
 40
0.4666479017
 40
0.7259253114
 40
1.0
 40
1.0
 40
1.0
 40
1.0
 10
78.3755459618
 20
71.6842177057
 30
0.0
 10
78.2306211093
 20
71.4219412519
 30
0.0
 10
77.8543455999
 20
70.9170414922
 30
0.0
 10
77.1103059456
 20
70.2876148316
 30
0.0
 10
76.201679082
 20
69.7830418648
 30
0.0
 10
75.5264716786
 20
69.5483407452
 30
0.0
 10
75.1731040583
 20
69.4552521749
 30
0.0
  0
SPLINE
  5
49C
100
AcDbEntity
  8
BEZUGSACHSEN
100
AcDbSpline
 62
7
  6
CONTINUOUS
 70
0
 71
3
 72
11
 73
7
 74
0
 42
0.0000001
 43
0.0000001
 44
0.0000000001
 40
0.0
 40
0.0
 40
0.0
 40
0.0
 40
0.2740746886
 40
0.5333520983
 40
0.7752540197
 40
1.0
 40
1.0
 40
1.0
 40
1.0
 10
71.3322761325
 20
69.4552521749
 30
0.0
 10
70.9789085123
 20
69.5483407452
 30
0.0
 10
70.3037011089
 20
69.7830418648
 30
0.0
 10
69.3950742453
 20
70.2876148316
 30
0.0
 10
68.651034591
 20
70.9170414922
 30
0.0
 10
68.2747590816
 20
71.4219412519
 30
0.0
 10
68.1298342291
 20
71.6842177057
 30
0.0
  0
SPLINE
  5
49D
100
AcDbEntity
  8
KONSTRUKTIONSELEMENTE
100
AcDbSpline
 62
7
  6
CONTINUOUS
 70
0
 71
3
 72
13
 73
9
 74
0
 42
0.0000001
 43
0.0000001
 44
0.0000000001
 40
0.0
 40
0.0
 40
0.0
 40
0.0
 40
0.1035698708
 40
0.2118852886
 40
0.327021228
 40
0.4498249804
 40
0.7159005812
 40
1.0
 40
1.0
 40
1.0
 40
1.0
 10
69.5971052019
 20
29.3403616386
 30
0.0
 10
69.5775424841
 20
29.4801077563
 30
0.0
 10
69.4994726678
 20
29.761823339
 30
0.0
 10
69.2783969707
 20
30.1529421443
 30
0.0
 10
68.9614163353
 20
30.5067973043
 30
0.0
 10
68.4122130825
 20
30.9246509209
 30
0.0
 10
67.5527249681
 20
31.2850271779
 30
0.0
 10
66.7997612728
 20
31.3802575466
 30
0.0
 10
66.4126900954
 20
31.3802575466
 30
0.0
  0
SPLINE
  5
49E
100
AcDbEntity
  8
KONSTRUKTIONSELEMENTE
100
AcDbSpline
 62
7
  6
CONTINUOUS
 70
0
 71
3
 72
9
 73
5
 74
0
 42
0.0000001
 43
0.0000001
 44
0.0000000001
 40
0.0
 40
0.0
 40
0.0
 40
0.0
 40
0.4892987036
 40
1.0
 40
1.0
 40
1.0
 40
1.0
 10
49.072382376
 20
58.3150428942
 30
0.0
 10
49.072399439
 20
58.3770355029
 30
0.0
 10
49.0522580345
 20
58.5044376218
 30
0.0
 10
48.9955742409
 20
58.6198192089
 30
0.0
 10
48.9599527805
 20
58.6738354272
 30
0.0
  0
SPLINE
  5
49F
100
AcDbEntity
  8
KONSTRUKTIONSELEMENTE
100
AcDbSpline
 62
7
  6
CONTINUOUS
 70
0
 71
3
 72
11
 73
7
 74
0
 42
0.0000001
 43
0.0000001
 44
0.0000000001
 40
0.0
 40
0.0
 40
0.0
 40
0.0
 40
0.2200436456
 40
0.4557793627
 40
0.7157728079
 40
1.0
 40
1.0
 40
1.0
 40
1.0
 10
43.3852479573
 20
59.1529753389
 30
0.0
 10
43.3852701764
 20
59.2337006033
 30
0.0
 10
43.4207218244
 20
59.4024224417
 30
0.0
 10
43.5690047911
 20
59.6251675747
 30
0.0
 10
43.7951077252
 20
59.8063476383
 30
0.0
 10
43.9790776537
 20
59.8891617381
 30
0.0
 10
44.0781049832
 20
59.9218139509
 30
0.0
  0
SPLINE
  5
4A0
100
AcDbEntity
  8
KONSTRUKTIONSELEMENTE
100
AcDbSpline
 62
7
  6
CONTINUOUS
 70
0
 71
3
 72
12
 73
8
 74
0
 42
0.0000001
 43
0.0000001
 44
0.0000000001
 40
0.0
 40
0.0
 40
0.0
 40
0.0
 40
0.1093790685
 40
0.2208897874
 40
0.4563550533
 40
0.7160756008
 40
1.0
 40
1.0
 40
1.0
 40
1.0
 10
38.0684059088
 20
67.9370129925
 30
0.0
 10
38.0684203963
 20
68.0709345279
 30
0.0
 10
38.0959181546
 20
68.3421637783
 30
0.0
 10
38.2613807552
 20
68.8791028389
 30
0.0
 10
38.6806274622
 20
69.5122209928
 30
0.0
 10
39.4344597815
 20
70.115183649
 30
0.0
 10
40.047773982
 20
70.3915791031
 30
0.0
 10
40.3779212436
 20
70.5004383309
 30
0.0
  0
SPLINE
  5
4A1
100
AcDbEntity
  8
KONSTRUKTIONSELEMENTE
100
AcDbSpline
 62
7
  6
CONTINUOUS
 70
0
 71
3
 72
9
 73
5
 74
0
 42
0.0000001
 43
0.0000001
 44
0.0000000001
 40
0.0
 40
0.0
 40
0.0
 40
0.0
 40
0.4891681133
 40
1.0
 40
1.0
 40
1.0
 40
1.0
 10
38.068406069
 20
65.1084912281
 30
0.0
 10
38.068394013
 20
64.9020188608
 30
0.0
 10
38.1355227828
 20
64.4775855303
 30
0.0
 10
38.3244604159
 20
64.0932409898
 30
0.0
 10
38.4431631424
 20
63.913240723
 30
0.0
  0
SPLINE
  5
4A2
100
AcDbEntity
  8
KONSTRUKTIONSELEMENTE
100
AcDbSpline
 62
7
  6
CONTINUOUS
 70
0
 71
3
 72
9
 73
5
 74
0
 42
0.0000001
 43
0.0000001
 44
0.0000000001
 40
0.0
 40
0.0
 40
0.0
 40
0.0
 40
0.4891681133
 40
1.0
 40
1.0
 40
1.0
 40
1.0
 10
91.3321332457
 20
37.9168482325
 30
0.0
 10
91.3321211897
 20
38.1233205997
 30
0.0
 10
91.3992499595
 20
38.5477539302
 30
0.0
 10
91.5881875926
 20
38.9320984708
 30
0.0
 10
91.7068903191
 20
39.1120987375
 30
0.0
  0
SPLINE
  5
4A3
100
AcDbEntity
  8
KONSTRUKTIONSELEMENTE
100
AcDbSpline
 62
7
  6
CONTINUOUS
 70
0
 71
3
 72
9
 73
5
 74
0
 42
0.0000001
 43
0.0000001
 44
0.0000000001
 40
0.0
 40
0.0
 40
0.0
 40
0.0
 40
0.4753722117
 40
1.0
 40
1.0
 40
1.0
 40
1.0
 10
91.8573396136
 20
39.3441334934
 30
0.0
 10
92.0712914016
 20
39.0787877017
 30
0.0
 10
92.6254315087
 20
38.6022451531
 30
0.0
 10
93.2843928666
 20
38.2995530053
 30
0.0
 10
93.6416484203
 20
38.1817553791
 30
0.0
  0
SPLINE
  5
4A4
100
AcDbEntity
  8
KONSTRUKTIONSELEMENTE
100
AcDbSpline
 62
7
  6
CONTINUOUS
 70
0
 71
3
 72
13
 73
9
 74
0
 42
0.0000001
 43
0.0000001
 44
0.0000000001
 40
0.0
 40
0.0
 40
0.0
 40
0.0
 40
0.1034245124
 40
0.2106827955
 40
0.3244923156
 40
0.4464288307
 40
0.7129290176
 40
1.0
 40
1.0
 40
1.0
 40
1.0
 10
68.0126900954
 20
21.1979198975
 30
0.0
 10
68.0126900954
 20
21.1422245713
 30
0.0
 10
68.0288949155
 20
21.028199553
 30
0.0
 10
68.0995894892
 20
20.8663791715
 30
0.0
 10
68.2131190363
 20
20.7186164595
 30
0.0
 10
68.4205119144
 20
20.5424419751
 30
0.0
 10
68.758477453
 20
20.3896506067
 30
0.0
 10
69.0580989677
 20
20.3493917601
 30
0.0
 10
69.2126900954
 20
20.3493917601
 30
0.0
  0
SPLINE
  5
4A5
100
AcDbEntity
  8
BEZUGSACHSEN
100
AcDbSpline
 62
7
  6
CONTINUOUS
 70
0
 71
3
 72
9
 73
5
 74
0
 42
0.0000001
 43
0.0000001
 44
0.0000000001
 40
0.0
 40
0.0
 40
0.0
 40
0.0
 40
0.2459387646
 40
1.0
 40
1.0
 40
1.0
 40
1.0
 10
80.0145822833
 20
79.1106190624
 30
0.0
 10
79.6748864167
 20
79.2226267451
 30
0.0
 10
78.2813828108
 20
79.6401953589
 30
0.0
 10
76.8441409473
 20
79.9094997941
 30
0.0
 10
75.7542642448
 20
80.0314930783
 30
0.0
  0
SPLINE
  5
4A6
100
AcDbEntity
  8
BEZUGSACHSEN
100
AcDbSpline
 62
7
  6
CONTINUOUS
 70
0
 71
3
 72
9
 73
5
 74
0
 42
0.0000001
 43
0.0000001
 44
0.0000000001
 40
0.0
 40
0.0
 40
0.0
 40
0.0
 40
0.2536983179
 40
1.0
 40
1.0
 40
1.0
 40
1.0
 10
70.7511159461
 20
80.0314930783
 30
0.0
 10
70.3844417936
 20
79.9904501016
 30
0.0
 10
68.9434654791
 20
79.7927582968
 30
0.0
 10
67.5215866128
 20
79.450500308
 30
0.0
 10
66.4907979076
 20
79.1106190624
 30
0.0
  0
SPLINE
  5
4A7
100
AcDbEntity
  8
KONSTRUKTIONSELEMENTE
100
AcDbSpline
 62
7
  6
CONTINUOUS
 70
0
 71
3
 72
11
 73
7
 74
0
 42
0.0000001
 43
0.0000001
 44
0.0000000001
 40
0.0
 40
0.0
 40
0.0
 40
0.0
 40
0.2200606194
 40
0.4557771489
 40
0.7157721538
 40
1.0
 40
1.0
 40
1.0
 40
1.0
 10
98.9479234381
 20
36.2518955535
 30
0.0
 10
98.9479250179
 20
36.2788131485
 30
0.0
 10
98.9361378433
 20
36.3350754527
 30
0.0
 10
98.8867100831
 20
36.4093566061
 30
0.0
 10
98.8113283451
 20
36.4697695783
 30
0.0
 10
98.7499899188
 20
36.4973854759
 30
0.0
 10
98.7169720277
 20
36.5082724422
 30
0.0
  0
SPLINE
  5
4A8
100
AcDbEntity
  8
BEZUGSACHSEN
100
AcDbSpline
 62
7
  6
CONTINUOUS
 70
0
 71
3
 72
13
 73
9
 74
0
 42
0.0000001
 43
0.0000001
 44
0.0000000001
 40
0.0
 40
0.0
 40
0.0
 40
0.0
 40
0.1098518367
 40
0.2217756836
 40
0.3374258074
 40
0.4581943947
 40
0.7171595847
 40
1.0
 40
1.0
 40
1.0
 40
1.0
 10
67.7526900954
 20
70.2711305118
 30
0.0
 10
67.7526900954
 20
70.4493810572
 30
0.0
 10
67.7881438328
 20
70.8101777969
 30
0.0
 10
67.9454335656
 20
71.3377980189
 30
0.0
 10
68.2035558661
 20
71.8439829074
 30
0.0
 10
68.6849622595
 20
72.4917416228
 30
0.0
 10
69.5195227035
 20
73.1932502668
 30
0.0
 10
70.3191233544
 20
73.5786041064
 30
0.0
 10
70.7507752531
 20
73.7345252034
 30
0.0
  0
SPLINE
  5
4A9
100
AcDbEntity
  8
BEZUGSACHSEN
100
AcDbSpline
 62
7
  6
CONTINUOUS
 70
0
 71
3
 72
13
 73
9
 74
0
 42
0.0000001
 43
0.0000001
 44
0.0000000001
 40
0.0
 40
0.0
 40
0.0
 40
0.0
 40
0.2828404153
 40
0.5418056053
 40
0.6625741926
 40
0.7782243164
 40
0.8901481633
 40
1.0
 40
1.0
 40
1.0
 40
1.0
 10
75.7546049378
 20
73.7345252034
 30
0.0
 10
76.1862568365
 20
73.5786041064
 30
0.0
 10
76.9858574874
 20
73.1932502668
 30
0.0
 10
77.8204179314
 20
72.4917416228
 30
0.0
 10
78.3018243248
 20
71.8439829074
 30
0.0
 10
78.5599466253
 20
71.3377980189
 30
0.0
 10
78.7172363581
 20
70.8101777969
 30
0.0
 10
78.7526900954
 20
70.4493810572
 30
0.0
 10
78.7526900954
 20
70.2711305118
 30
0.0
  0
SPLINE
  5
4AA
100
AcDbEntity
  8
KONSTRUKTIONSELEMENTE
100
AcDbSpline
 62
7
  6
CONTINUOUS
 70
0
 71
3
 72
9
 73
5
 74
0
 42
0.0000001
 43
0.0000001
 44
0.0000000001
 40
0.0
 40
0.0
 40
0.0
 40
0.0
 40
0.5108269807
 40
1.0
 40
1.0
 40
1.0
 40
1.0
 10
117.1252949188
 20
60.9248783357
 30
0.0
 10
117.2440007099
 20
61.1048832496
 30
0.0
 10
117.432941988
 20
61.4892458028
 30
0.0
 10
117.5000601161
 20
61.9136916833
 30
0.0
 10
117.5000637949
 20
62.1201734354
 30
0.0
  0
SPLINE
  5
4AB
100
AcDbEntity
  8
KONSTRUKTIONSELEMENTE
100
AcDbSpline
 62
7
  6
CONTINUOUS
 70
0
 71
3
 72
10
 73
6
 74
0
 42
0.0000001
 43
0.0000001
 44
0.0000000001
 40
0.0
 40
0.0
 40
0.0
 40
0.0
 40
0.2661924468
 40
0.53465928
 40
1.0
 40
1.0
 40
1.0
 40
1.0
 10
116.1288444114
 20
60.0831282581
 30
0.0
 10
116.1775491391
 20
60.067068882
 30
0.0
 10
116.2812003916
 20
60.0500927718
 30
0.0
 10
116.4726838582
 20
60.0691399141
 30
0.0
 10
116.6110592163
 20
60.1450936892
 30
0.0
 10
116.6604148309
 20
60.2199363155
 30
0.0
  0
SPLINE
  5
4AC
100
AcDbEntity
  8
KONSTRUKTIONSELEMENTE
100
AcDbSpline
 62
7
  6
CONTINUOUS
 70
0
 71
3
 72
9
 73
5
 74
0
 42
0.0000001
 43
0.0000001
 44
0.0000000001
 40
0.0
 40
0.0
 40
0.0
 40
0.0
 40
0.2605100871
 40
1.0
 40
1.0
 40
1.0
 40
1.0
 10
98.9104478378
 20
33.3039682691
 30
0.0
 10
98.9164826702
 20
33.3131194612
 30
0.0
 10
98.9374214473
 20
33.3496375654
 30
0.0
 10
98.9479216119
 20
33.3923516934
 30
0.0
 10
98.9479234381
 20
33.4234684288
 30
0.0
  0
SPLINE
  5
4AD
100
AcDbEntity
  8
KONSTRUKTIONSELEMENTE
100
AcDbSpline
 62
7
  6
CONTINUOUS
 70
0
 71
3
 72
11
 73
7
 74
0
 42
0.0000001
 43
0.0000001
 44
0.0000000001
 40
0.0
 40
0.0
 40
0.0
 40
0.0
 40
0.2729767978
 40
0.5353848362
 40
0.7789285996
 40
1.0
 40
1.0
 40
1.0
 40
1.0
 10
95.093559187
 20
31.3802575466
 30
0.0
 10
95.4685608976
 20
31.3802575466
 30
0.0
 10
96.2062675368
 20
31.4530714967
 30
0.0
 10
97.2350334345
 20
31.7758409544
 30
0.0
 10
98.103412946
 20
32.2884075416
 30
0.0
 10
98.5515969951
 20
32.7598085071
 30
0.0
 10
98.7187903351
 20
33.0133397164
 30
0.0
  0
SPLINE
  5
4AE
100
AcDbEntity
  8
KONSTRUKTIONSELEMENTE
100
AcDbSpline
 62
7
  6
CONTINUOUS
 70
0
 71
3
 72
13
 73
9
 74
0
 42
0.0000001
 43
0.0000001
 44
0.0000000001
 40
0.0
 40
0.0
 40
0.0
 40
0.0
 40
0.2870489256
 40
0.5535682914
 40
0.6755020148
 40
0.789331082
 40
0.8965440086
 40
1.0
 40
1.0
 40
1.0
 40
1.0
 10
80.0926900954
 20
31.3802575466
 30
0.0
 10
79.6804765279
 20
31.3802575466
 30
0.0
 10
78.8814755306
 20
31.2729226587
 30
0.0
 10
77.980267708
 20
30.8654518276
 30
0.0
 10
77.4271082
 20
30.3956823384
 30
0.0
 10
77.1244707394
 20
30.0016242514
 30
0.0
 10
76.9358051042
 20
29.5701546335
 30
0.0
 10
76.8926900954
 20
29.2660827268
 30
0.0
 10
76.8926900954
 20
29.1175158468
 30
0.0
  0
SPLINE
  5
4AF
100
AcDbEntity
  8
KONSTRUKTIONSELEMENTE
100
AcDbSpline
 62
7
  6
CONTINUOUS
 70
0
 71
3
 72
12
 73
8
 74
0
 42
0.0000001
 43
0.0000001
 44
0.0000000001
 40
0.0
 40
0.0
 40
0.0
 40
0.0
 40
0.1093780659
 40
0.2208877298
 40
0.4563569003
 40
0.716089424
 40
1.0
 40
1.0
 40
1.0
 40
1.0
 10
117.5000637949
 20
64.9486005601
 30
0.0
 10
117.5000661809
 20
65.0825228786
 30
0.0
 10
117.4725363282
 20
65.3537516755
 30
0.0
 10
117.3071234797
 20
65.8907129557
 30
0.0
 10
116.887837073
 20
66.5238526915
 30
0.0
 10
116.1339971938
 20
67.1268255799
 30
0.0
 10
115.5206729601
 20
67.4032203821
 30
0.0
 10
115.1905368177
 20
67.5120759436
 30
0.0
  0
SPLINE
  5
4B0
100
AcDbEntity
  8
KONSTRUKTIONSELEMENTE
100
AcDbSpline
 62
7
  6
CONTINUOUS
 70
0
 71
3
 72
13
 73
9
 74
0
 42
0.0000001
 43
0.0000001
 44
0.0000000001
 40
0.0
 40
0.0
 40
0.0
 40
0.0
 40
0.2870709824
 40
0.5535711693
 40
0.6755076844
 40
0.7893172045
 40
0.8965754876
 40
1.0
 40
1.0
 40
1.0
 40
1.0
 10
77.2926900954
 20
20.3493917601
 30
0.0
 10
77.4472812232
 20
20.3493917601
 30
0.0
 10
77.7469027379
 20
20.3896506067
 30
0.0
 10
78.0848682765
 20
20.5424419751
 30
0.0
 10
78.2922611546
 20
20.7186164595
 30
0.0
 10
78.4057907016
 20
20.8663791715
 30
0.0
 10
78.4764852754
 20
21.028199553
 30
0.0
 10
78.4926900954
 20
21.1422245713
 30
0.0
 10
78.4926900954
 20
21.1979198975
 30
0.0
  0
SPLINE
  5
4B1
100
AcDbEntity
  8
KONSTRUKTIONSELEMENTE
100
AcDbSpline
 62
7
  6
CONTINUOUS
 70
0
 71
3
 72
11
 73
7
 74
0
 42
0.0000001
 43
0.0000001
 44
0.0000000001
 40
0.0
 40
0.0
 40
0.0
 40
0.0
 40
0.2820767698
 40
0.5407553301
 40
0.7772666753
 40
1.0
 40
1.0
 40
1.0
 40
1.0
 10
80.0993479816
 20
31.3626492727
 30
0.0
 10
79.8657895223
 20
31.2678401311
 30
0.0
 10
79.4343753594
 20
31.0398242006
 30
0.0
 10
78.9109944529
 20
30.5708969504
 30
0.0
 10
78.5724455913
 20
30.013153968
 30
0.0
 10
78.4926900954
 20
29.5993964527
 30
0.0
 10
78.4926900954
 20
29.4003585593
 30
0.0
  0
SPLINE
  5
4B2
100
AcDbEntity
  8
KONSTRUKTIONSELEMENTE
100
AcDbSpline
 62
7
  6
CONTINUOUS
 70
0
 71
3
 72
11
 73
7
 74
0
 42
0.0000001
 43
0.0000001
 44
0.0000000001
 40
0.0
 40
0.0
 40
0.0
 40
0.0
 40
0.2820767698
 40
0.5407553301
 40
0.7772666753
 40
1.0
 40
1.0
 40
1.0
 40
1.0
 10
66.4060322092
 20
31.3626492727
 30
0.0
 10
66.6395906686
 20
31.2678401311
 30
0.0
 10
67.0710048315
 20
31.0398242006
 30
0.0
 10
67.594385738
 20
30.5708969504
 30
0.0
 10
67.9329345996
 20
30.013153968
 30
0.0
 10
68.0126900954
 20
29.5993964527
 30
0.0
 10
68.0126900954
 20
29.4003585593
 30
0.0
  0
SPLINE
  5
4B3
100
AcDbEntity
  8
KONSTRUKTIONSELEMENTE
100
AcDbSpline
 62
7
  6
CONTINUOUS
 70
0
 71
3
 72
9
 73
5
 74
0
 42
0.0000001
 43
0.0000001
 44
0.0000000001
 40
0.0
 40
0.0
 40
0.0
 40
0.0
 40
0.5107012964
 40
1.0
 40
1.0
 40
1.0
 40
1.0
 10
43.4976775528
 20
56.5314411061
 30
0.0
 10
43.4620560924
 20
56.5854573244
 30
0.0
 10
43.4053722988
 20
56.7008389115
 30
0.0
 10
43.3852308942
 20
56.8282410304
 30
0.0
 10
43.3852479573
 20
56.8902336391
 30
0.0
  0
SPLINE
  5
4B4
100
AcDbEntity
  8
KONSTRUKTIONSELEMENTE
100
AcDbSpline
 62
7
  6
CONTINUOUS
 70
0
 71
3
 72
11
 73
7
 74
0
 42
0.0000001
 43
0.0000001
 44
0.0000000001
 40
0.0
 40
0.0
 40
0.0
 40
0.0
 40
0.2210800583
 40
0.4646152767
 40
0.7270135498
 40
1.0
 40
1.0
 40
1.0
 40
1.0
 10
58.8203690454
 20
33.0133397164
 30
0.0
 10
58.9875688959
 20
32.7597986345
 30
0.0
 10
59.4357592682
 20
32.2884026985
 30
0.0
 10
60.3041252604
 20
31.7758425623
 30
0.0
 10
61.3328793312
 20
31.4530772354
 30
0.0
 10
62.0705853066
 20
31.3802575466
 30
0.0
 10
62.4456001935
 20
31.3802575466
 30
0.0
  0
SPLINE
  5
4B5
100
AcDbEntity
  8
KONSTRUKTIONSELEMENTE
100
AcDbSpline
 62
7
  6
CONTINUOUS
 70
0
 71
3
 72
13
 73
9
 74
0
 42
0.0000001
 43
0.0000001
 44
0.0000000001
 40
0.0
 40
0.0
 40
0.0
 40
0.0
 40
0.1066301469
 40
0.2208685385
 40
0.342539988
 40
0.4704689804
 40
0.7363587024
 40
1.0
 40
1.0
 40
1.0
 40
1.0
 10
105.7378166089
 20
60.3885306217
 30
0.0
 10
105.8520077136
 20
60.561689486
 30
0.0
 10
106.1329400969
 20
60.8922653004
 30
0.0
 10
106.6618141568
 20
61.303683788
 30
0.0
 10
107.2917111258
 20
61.6339510012
 30
0.0
 10
108.2457097196
 20
61.9538885688
 30
0.0
 10
109.534731192
 20
62.0893830806
 30
0.0
 10
110.5664685119
 20
61.9172066099
 30
0.0
 10
111.053520804
 20
61.756611195
 30
0.0
  0
SPLINE
  5
4B6
100
AcDbEntity
  8
KONSTRUKTIONSELEMENTE
100
AcDbSpline
 62
7
  6
CONTINUOUS
 70
0
 71
3
 72
11
 73
7
 74
0
 42
0.0000001
 43
0.0000001
 44
0.0000000001
 40
0.0
 40
0.0
 40
0.0
 40
0.0
 40
0.2200606194
 40
0.4557771489
 40
0.7157721538
 40
1.0
 40
1.0
 40
1.0
 40
1.0
 10
98.9479234381
 20
33.4234684288
 30
0.0
 10
98.9479250179
 20
33.4503860238
 30
0.0
 10
98.9361378433
 20
33.506648328
 30
0.0
 10
98.8867100831
 20
33.5809294814
 30
0.0
 10
98.8113283451
 20
33.6413424536
 30
0.0
 10
98.7499899188
 20
33.6689583511
 30
0.0
 10
98.7169720277
 20
33.6798453175
 30
0.0
  0
SPLINE
  5
4B7
100
AcDbEntity
  8
BEZUGSACHSEN
100
AcDbSpline
 62
7
  6
CONTINUOUS
 70
0
 71
3
 72
9
 73
5
 74
0
 42
0.0000001
 43
0.0000001
 44
0.0000000001
 40
0.0
 40
0.0
 40
0.0
 40
0.0
 40
0.2459387646
 40
1.0
 40
1.0
 40
1.0
 40
1.0
 10
80.0145822833
 20
76.2821919376
 30
0.0
 10
79.6748864167
 20
76.3941996204
 30
0.0
 10
78.2813828108
 20
76.8117682342
 30
0.0
 10
76.8441409473
 20
77.0810726694
 30
0.0
 10
75.7542642448
 20
77.2030659535
 30
0.0
  0
SPLINE
  5
4B8
100
AcDbEntity
  8
BEZUGSACHSEN
100
AcDbSpline
 62
7
  6
CONTINUOUS
 70
0
 71
3
 72
9
 73
5
 74
0
 42
0.0000001
 43
0.0000001
 44
0.0000000001
 40
0.0
 40
0.0
 40
0.0
 40
0.0
 40
0.2536983179
 40
1.0
 40
1.0
 40
1.0
 40
1.0
 10
70.7511159461
 20
77.2030659535
 30
0.0
 10
70.3844417936
 20
77.1620229769
 30
0.0
 10
68.9434654791
 20
76.9643311721
 30
0.0
 10
67.5215866128
 20
76.6220731833
 30
0.0
 10
66.4907979076
 20
76.2821919376
 30
0.0
  0
SPLINE
  5
4B9
100
AcDbEntity
  8
KONSTRUKTIONSELEMENTE
100
AcDbSpline
 62
7
  6
CONTINUOUS
 70
0
 71
3
 72
11
 73
7
 74
0
 42
0.0000001
 43
0.0000001
 44
0.0000000001
 40
0.0
 40
0.0
 40
0.0
 40
0.0
 40
0.2787093695
 40
0.5386731691
 40
0.7779105289
 40
1.0
 40
1.0
 40
1.0
 40
1.0
 10
48.3795253501
 20
57.8290469947
 30
0.0
 10
48.4623740057
 20
57.8563646245
 30
0.0
 10
48.6183155511
 20
57.9235480034
 30
0.0
 10
48.819415571
 20
58.0642470097
 30
0.0
 10
48.9699621407
 20
58.2357457082
 30
0.0
 10
49.0318890822
 20
58.3691460398
 30
0.0
 10
49.0503360562
 20
58.4361678517
 30
0.0
  0
SPLINE
  5
4BA
100
AcDbEntity
  8
KONSTRUKTIONSELEMENTE
100
AcDbSpline
 62
7
  6
CONTINUOUS
 70
0
 71
3
 72
11
 73
7
 74
0
 42
0.0000001
 43
0.0000001
 44
0.0000000001
 40
0.0
 40
0.0
 40
0.0
 40
0.0
 40
0.2816064552
 40
0.5417085427
 40
0.7793419382
 40
1.0
 40
1.0
 40
1.0
 40
1.0
 10
47.7033361313
 20
58.854417206
 30
0.0
 10
47.7940265665
 20
58.8843205004
 30
0.0
 10
47.9636256165
 20
58.958933854
 30
0.0
 10
48.1774302171
 20
59.1187279633
 30
0.0
 10
48.3285448475
 20
59.3142267762
 30
0.0
 10
48.3797495108
 20
59.4649426542
 30
0.0
 10
48.3902394126
 20
59.5390292547
 30
0.0
  0
SPLINE
  5
4BB
100
AcDbEntity
  8
BEZUGSACHSEN
100
AcDbSpline
 62
7
  6
CONTINUOUS
 70
0
 71
3
 72
21
 73
17
 74
0
 42
0.0000001
 43
0.0000001
 44
0.0000000001
 40
0.0
 40
0.0
 40
0.0
 40
0.0
 40
0.051690646
 40
0.1052584033
 40
0.1621318424
 40
0.2230546836
 40
0.3562181476
 40
0.4274219852
 40
0.5
 40
0.5725780148
 40
0.6437818524
 40
0.7769453164
 40
0.8378681576
 40
0.8947415967
 40
0.948309354
 40
1.0
 40
1.0
 40
1.0
 40
1.0
 10
78.7526900954
 20
70.2711305118
 30
0.0
 10
78.7526900954
 20
70.0157811868
 30
0.0
 10
78.6785821939
 20
69.4931564571
 30
0.0
 10
78.3543319712
 20
68.7515734469
 30
0.0
 10
77.8340982875
 20
68.0742644712
 30
0.0
 10
76.8837831037
 20
67.2669706709
 30
0.0
 10
75.6633324452
 20
66.7156436229
 30
0.0
 10
74.3227391474
 20
66.4311977495
 30
0.0
 10
73.2526900954
 20
66.3572310541
 30
0.0
 10
72.1826410435
 20
66.4311977495
 30
0.0
 10
70.8420477457
 20
66.7156436229
 30
0.0
 10
69.6215970872
 20
67.2669706709
 30
0.0
 10
68.6712819034
 20
68.0742644712
 30
0.0
 10
68.1510482197
 20
68.7515734469
 30
0.0
 10
67.826797997
 20
69.4931564571
 30
0.0
 10
67.7526900954
 20
70.0157811868
 30
0.0
 10
67.7526900954
 20
70.2711305118
 30
0.0
  0
SPLINE
  5
4BC
100
AcDbEntity
  8
KONSTRUKTIONSELEMENTE
100
AcDbSpline
 62
7
  6
CONTINUOUS
 70
0
 71
3
 72
11
 73
7
 74
0
 42
0.0000001
 43
0.0000001
 44
0.0000000001
 40
0.0
 40
0.0
 40
0.0
 40
0.0
 40
0.2200436456
 40
0.4557793627
 40
0.7157728079
 40
1.0
 40
1.0
 40
1.0
 40
1.0
 10
43.3852479573
 20
56.8902336391
 30
0.0
 10
43.3852701764
 20
56.9709589035
 30
0.0
 10
43.4207218244
 20
57.1396807419
 30
0.0
 10
43.5690047911
 20
57.3624258749
 30
0.0
 10
43.7951077252
 20
57.5436059385
 30
0.0
 10
43.9790776537
 20
57.6264200383
 30
0.0
 10
44.0781049832
 20
57.6590722511
 30
0.0
  0
SPLINE
  5
4BD
100
AcDbEntity
  8
KONSTRUKTIONSELEMENTE
100
AcDbSpline
 62
7
  6
CONTINUOUS
 70
0
 71
3
 72
12
 73
8
 74
0
 42
0.0000001
 43
0.0000001
 44
0.0000000001
 40
0.0
 40
0.0
 40
0.0
 40
0.0
 40
0.1093780659
 40
0.2208877298
 40
0.4563569003
 40
0.716089424
 40
1.0
 40
1.0
 40
1.0
 40
1.0
 10
117.5000637949
 20
62.1201734354
 30
0.0
 10
117.5000661809
 20
62.2540957538
 30
0.0
 10
117.4725363282
 20
62.5253245508
 30
0.0
 10
117.3071234797
 20
63.0622858309
 30
0.0
 10
116.887837073
 20
63.6954255668
 30
0.0
 10
116.1339971938
 20
64.2983984551
 30
0.0
 10
115.5206729601
 20
64.5747932574
 30
0.0
 10
115.1905368177
 20
64.6836488189
 30
0.0
  0
SPLINE
  5
4BE
100
AcDbEntity
  8
KONSTRUKTIONSELEMENTE
100
AcDbSpline
 62
7
  6
CONTINUOUS
 70
0
 71
3
 72
11
 73
7
 74
0
 42
0.0000001
 43
0.0000001
 44
0.0000000001
 40
0.0
 40
0.0
 40
0.0
 40
0.0
 40
0.2842271921
 40
0.5442206373
 40
0.7799563544
 40
1.0
 40
1.0
 40
1.0
 40
1.0
 10
48.3795253501
 20
57.5462042822
 30
0.0
 10
48.4785526796
 20
57.578856495
 30
0.0
 10
48.6625226081
 20
57.6616705948
 30
0.0
 10
48.8886255422
 20
57.8428506584
 30
0.0
 10
49.0369085089
 20
58.0655957914
 30
0.0
 10
49.0723601569
 20
58.2343176298
 30
0.0
 10
49.072382376
 20
58.3150428942
 30
0.0
  0
SPLINE
  5
4BF
100
AcDbEntity
  8
KONSTRUKTIONSELEMENTE
100
AcDbSpline
 62
7
  6
CONTINUOUS
 70
0
 71
3
 72
12
 73
8
 74
0
 42
0.0000001
 43
0.0000001
 44
0.0000000001
 40
0.0
 40
0.0
 40
0.0
 40
0.0
 40
0.2839215899
 40
0.5436396333
 40
0.7791104503
 40
0.8906217948
 40
1.0
 40
1.0
 40
1.0
 40
1.0
 10
40.3779212436
 20
67.6720112062
 30
0.0
 10
40.0477688319
 20
67.5631502802
 30
0.0
 10
39.4344456592
 20
67.2867487175
 30
0.0
 10
38.6805961146
 20
66.6837669636
 30
0.0
 10
38.2613486158
 20
66.0506178496
 30
0.0
 10
38.0958997519
 20
65.5136524371
 30
0.0
 10
38.0684138888
 20
65.2424151213
 30
0.0
 10
38.068406069
 20
65.1084912281
 30
0.0
  0
SPLINE
  5
4C0
100
AcDbEntity
  8
KONSTRUKTIONSELEMENTE
100
AcDbSpline
 62
7
  6
CONTINUOUS
 70
0
 71
3
 72
12
 73
8
 74
0
 42
0.0000001
 43
0.0000001
 44
0.0000000001
 40
0.0
 40
0.0
 40
0.0
 40
0.0
 40
0.2839215899
 40
0.5436396333
 40
0.7791104503
 40
0.8906217948
 40
1.0
 40
1.0
 40
1.0
 40
1.0
 10
93.6416484203
 20
35.3533282543
 30
0.0
 10
93.3114960086
 20
35.4621891803
 30
0.0
 10
92.698172836
 20
35.7385907431
 30
0.0
 10
91.9443232913
 20
36.3415724969
 30
0.0
 10
91.5250757925
 20
36.9747216109
 30
0.0
 10
91.3596269286
 20
37.5116870235
 30
0.0
 10
91.3321410655
 20
37.7829243392
 30
0.0
 10
91.3321332457
 20
37.9168482325
 30
0.0
  0
SPLINE
  5
4C1
100
AcDbEntity
  8
KONSTRUKTIONSELEMENTE
100
AcDbSpline
 62
7
  6
CONTINUOUS
 70
0
 71
3
 72
10
 73
6
 74
0
 42
0.0000001
 43
0.0000001
 44
0.0000000001
 40
0.0
 40
0.0
 40
0.0
 40
0.0
 40
0.504716325
 40
0.7533413314
 40
1.0
 40
1.0
 40
1.0
 40
1.0
 10
85.1489026747
 20
112.0212585615
 30
0.0
 10
84.9679827645
 20
111.7095675511
 30
0.0
 10
84.7307860577
 20
111.2216665619
 30
0.0
 10
84.5363690575
 20
110.5328501933
 30
0.0
 10
84.4883249197
 20
110.1809091738
 30
0.0
 10
84.4778631025
 20
110.0050932622
 30
0.0
  0
SPLINE
  5
4C2
100
AcDbEntity
  8
KONSTRUKTIONSELEMENTE
100
AcDbSpline
 62
7
  6
CONTINUOUS
 70
0
 71
3
 72
9
 73
5
 74
0
 42
0.0000001
 43
0.0000001
 44
0.0000000001
 40
0.0
 40
0.0
 40
0.0
 40
0.0
 40
0.5001151744
 40
1.0
 40
1.0
 40
1.0
 40
1.0
 10
61.2706164603
 20
113.6210762461
 30
0.0
 10
61.399527001
 20
113.954571344
 30
0.0
 10
61.6105040378
 20
114.6413601261
 30
0.0
 10
61.6876565892
 20
115.3580313851
 30
0.0
 10
61.6876565892
 20
115.7154095794
 30
0.0
  0
SPLINE
  5
4C3
100
AcDbEntity
  8
KONSTRUKTIONSELEMENTE
100
AcDbSpline
 62
7
  6
CONTINUOUS
 70
0
 71
3
 72
9
 73
5
 74
0
 42
0.0000001
 43
0.0000001
 44
0.0000000001
 40
0.0
 40
0.0
 40
0.0
 40
0.0
 40
0.4998848256
 40
1.0
 40
1.0
 40
1.0
 40
1.0
 10
84.8177236017
 20
115.7154095794
 30
0.0
 10
84.8177236017
 20
115.3580313851
 30
0.0
 10
84.8948761531
 20
114.6413601261
 30
0.0
 10
85.1058531898
 20
113.954571344
 30
0.0
 10
85.2347637306
 20
113.6210762461
 30
0.0
  0
SPLINE
  5
4C4
100
AcDbEntity
  8
KONSTRUKTIONSELEMENTE
100
AcDbSpline
 62
7
  6
CONTINUOUS
 70
0
 71
3
 72
11
 73
7
 74
0
 42
0.0000001
 43
0.0000001
 44
0.0000000001
 40
0.0
 40
0.0
 40
0.0
 40
0.0
 40
0.2557279993
 40
0.5074851301
 40
0.7550583766
 40
1.0
 40
1.0
 40
1.0
 40
1.0
 10
61.6876565892
 20
120.9505620021
 30
0.0
 10
61.6876565892
 20
121.1065754424
 30
0.0
 10
61.7430610923
 20
121.4183356501
 30
0.0
 10
61.9612162584
 20
121.8301065435
 30
0.0
 10
62.262233528
 20
122.1739230429
 30
0.0
 10
62.4965149073
 20
122.3639615451
 30
0.0
 10
62.6182957052
 20
122.4505620021
 30
0.0
  0
LINE
  5
4C5
100
AcDbEntity
  8
0
100
AcDbLine
 62
7
  6
CONTINUOUS
 10
84.4778631025
 20
110.0050932622
 11
84.1580791358
 21
104.7544270547
  0
SPLINE
  5
4C6
100
AcDbEntity
  8
KONSTRUKTIONSELEMENTE
100
AcDbSpline
 62
7
  6
CONTINUOUS
 70
0
 71
3
 72
11
 73
7
 74
0
 42
0.0000001
 43
0.0000001
 44
0.0000000001
 40
0.0
 40
0.0
 40
0.0
 40
0.0
 40
0.2449450505
 40
0.4925219357
 40
0.7442781348
 40
1.0
 40
1.0
 40
1.0
 40
1.0
 10
83.8870844857
 20
122.4505620021
 30
0.0
 10
84.0088669955
 20
122.3639603277
 30
0.0
 10
84.2431517435
 20
122.1739190427
 30
0.0
 10
84.5441702929
 20
121.8300983629
 30
0.0
 10
84.7623210589
 20
121.4183274474
 30
0.0
 10
84.8177236017
 20
121.1065717105
 30
0.0
 10
84.8177236017
 20
120.9505620021
 30
0.0
  0
SPLINE
  5
4C7
100
AcDbEntity
  8
KONSTRUKTIONSELEMENTE
100
AcDbSpline
 62
7
  6
CONTINUOUS
 70
0
 71
3
 72
11
 73
7
 74
0
 42
0.0000001
 43
0.0000001
 44
0.0000000001
 40
0.0
 40
0.0
 40
0.0
 40
0.0
 40
0.2352663816
 40
0.4816794108
 40
0.7381789078
 40
1.0
 40
1.0
 40
1.0
 40
1.0
 10
61.3564775162
 20
112.0212585615
 30
0.0
 10
61.291326021
 20
112.1335023458
 30
0.0
 10
61.1838109543
 20
112.3795722751
 30
0.0
 10
61.1135222193
 20
112.7845498149
 30
0.0
 10
61.1400212372
 20
113.2091170463
 30
0.0
 10
61.2185426041
 20
113.4863597546
 30
0.0
 10
61.2706164603
 20
113.6210762461
 30
0.0
  0
LINE
  5
4C8
100
AcDbEntity
  8
0
100
AcDbLine
 62
7
  6
CONTINUOUS
 10
62.3473010551
 20
104.7544270547
 11
62.0275170884
 21
110.0050932622
  0
SPLINE
  5
4C9
100
AcDbEntity
  8
KONSTRUKTIONSELEMENTE
100
AcDbSpline
 62
7
  6
CONTINUOUS
 70
0
 71
3
 72
11
 73
7
 74
0
 42
0.0000001
 43
0.0000001
 44
0.0000000001
 40
0.0
 40
0.0
 40
0.0
 40
0.0
 40
0.2618210922
 40
0.5183205892
 40
0.7647336184
 40
1.0
 40
1.0
 40
1.0
 40
1.0
 10
85.2347637306
 20
113.6210762461
 30
0.0
 10
85.2868375868
 20
113.4863597546
 30
0.0
 10
85.3653589537
 20
113.2091170463
 30
0.0
 10
85.3918579716
 20
112.7845498149
 30
0.0
 10
85.3215692365
 20
112.3795722751
 30
0.0
 10
85.2140541699
 20
112.1335023458
 30
0.0
 10
85.1489026747
 20
112.0212585615
 30
0.0
  0
SPLINE
  5
4CA
100
AcDbEntity
  8
KONSTRUKTIONSELEMENTE
100
AcDbSpline
 62
7
  6
CONTINUOUS
 70
0
 71
3
 72
10
 73
6
 74
0
 42
0.0000001
 43
0.0000001
 44
0.0000000001
 40
0.0
 40
0.0
 40
0.0
 40
0.0
 40
0.2466586686
 40
0.495283675
 40
1.0
 40
1.0
 40
1.0
 40
1.0
 10
62.0275170884
 20
110.0050932622
 30
0.0
 10
62.0170552712
 20
110.1809091738
 30
0.0
 10
61.9690111334
 20
110.5328501933
 30
0.0
 10
61.7745941332
 20
111.2216665619
 30
0.0
 10
61.5373974264
 20
111.7095675511
 30
0.0
 10
61.3564775162
 20
112.0212585615
 30
0.0
  0
ELLIPSE
  5
4CB
100
AcDbEntity
  8
0
100
AcDbEllipse
 62
7
  6
CONTINUOUS
 10
329.5079926305
 20
126.2185111945
 30
0.0
 11
-0.1671239375
 21
3.4627603303
 31
0.0
 40
0.5767533335
 41
-2.6458226605
 42
-1.7790696948
  0
ELLIPSE
  5
4CC
100
AcDbEntity
  8
RUNDUNGEN
100
AcDbEllipse
 62
7
  6
CONTINUOUS
 10
339.788163837
 20
126.2185111945
 30
0.0
 11
0.1671239375
 21
3.4627603303
 31
0.0
 40
0.5767533335
 41
-4.5041156123
 42
-3.6373626467
  0
ELLIPSE
  5
4CD
100
AcDbEntity
  8
KONSTRUKTIONSELEMENTE
100
AcDbEllipse
 62
7
  6
CONTINUOUS
 10
40.3759690103
 20
63.2729741579
 30
0.0
 11
1.1998003788
 21
0.3599938705
 31
0.0
 40
0.0607989098
 41
-2.7235007144
 42
-1.1527043876
  0
ELLIPSE
  5
4CE
100
AcDbEntity
  8
KONSTRUKTIONSELEMENTE
100
AcDbEllipse
 62
7
  6
CONTINUOUS
 10
44.5493598267
 20
63.3542496087
 30
0.0
 11
1.183046702
 21
-0.7347108677
 31
0.0
 40
0.7424978488
 41
7.2982401868
 42
8.8690365136
  0
ELLIPSE
  5
4CF
100
AcDbEntity
  8
KONSTRUKTIONSELEMENTE
100
AcDbEllipse
 62
7
  6
CONTINUOUS
 10
73.2526900954
 20
77.5871139864
 30
0.0
 11
0.0
 21
48.4974226119
 31
0.0
 40
0.5773502692
 41
-0.3895798701
 42
-0.1632238035
  0
ELLIPSE
  5
4D0
100
AcDbEntity
  8
KONSTRUKTIONSELEMENTE
100
AcDbEllipse
 62
7
  6
CONTINUOUS
 10
73.2526900954
 20
77.5871139864
 30
0.0
 11
-0.0
 21
48.4974226119
 31
0.0
 40
0.5773502692
 41
0.1632238035
 42
0.3895798701
  0
ENDSEC
  0
SECTION
  2
OBJECTS
  0
DICTIONARY
  5
C
100
AcDbDictionary
280
0
281
1
  3
ACAD_GROUP
350
D
  3
ACAD_MLINESTYLE
350
17
  3
ACAD_LAYOUT
350
1A
  3
ACAD_PLOTSETTINGS
350
19
  3
ACAD_PLOTSTYLENAME
350
E
  0
DICTIONARY
  5
D
102
{ACAD_REACTORS
330
C
102
}
100
AcDbDictionary
280
0
281
1
  0
ACDBDICTIONARYWDFLT
  5
E
102
{ACAD_REACTORS
330
C
102
}
100
AcDbDictionary
281
1
  3
Normal
350
F
100
AcDbDictionaryWithDefault
340
F
  0
DICTIONARY
  5
17
102
{ACAD_REACTORS
330
C
102
}
100
AcDbDictionary
280
0
281
1
  3
Standard
350
18
  0
DICTIONARY
  5
19
102
{ACAD_REACTORS
330
C
102
}
100
AcDbDictionary
281
1
  0
DICTIONARY
  5
1A
102
{ACAD_REACTORS
330
C
102
}
100
AcDbDictionary
281
1
  3
Model
350
4D1
  3
Layout1
350
4D2
  0
ACDBPLACEHOLDER
  5
F
102
{ACAD_REACTORS
330
E
102
}
  0
MLINESTYLE
  5
18
102
{ACAD_REACTORS
330
17
102
}
100
AcDbMlineStyle
  2
STANDARD
 70
0
  3

 62
256
 51
90.0
 52
90.0
 71
2
 49
0.5
 62
256
  6
BYLAYER
 49
-0.5
 62
256
  6
BYLAYER
  0
LAYOUT
  5
4D1
102
{ACAD_REACTORS
330
1A
102
}
100
AcDbPlotSettings
  1

  2
none_device
  4
ISO_A3_(420.00_x_297.00_MM)
  6

 40
0.0
 41
0.0
 42
0.0
 43
0.0
 44
420.0
 45
297.0
 46
0.0
 47
0.0
 48
0.0
 49
0.0
140
0.0
141
0.0
142
1.0
143
1.0
 70
1024
 72
1
 73
0
 74
0
  7

 75
0
147
1.0
148
0.0
149
0.0
100
AcDbLayout
  1
Model
 70
0
 71
0
 10
0.0
 20
0.0
 11
420.0
 21
297.0
 12
0.0
 22
0.0
 32
0.0
 14
0.0
 24
0.0
 34
0.0
 15
0.0
 25
0.0
 35
0.0
146
0.0
 13
0.0
 23
0.0
 33
0.0
 16
1.0
 26
0.0
 36
0.0
 17
0.0
 27
1.0
 37
0.0
 76
0
330
20C
345
0
346
0
  0
LAYOUT
  5
4D2
102
{ACAD_REACTORS
330
1A
102
}
100
AcDbPlotSettings
  1

  2
none_device
  4
ISO_A3_(420.00_x_297.00_MM)
  6

 40
0.0
 41
0.0
 42
0.0
 43
0.0
 44
420.0
 45
297.0
 46
0.0
 47
0.0
 48
0.0
 49
0.0
140
0.0
141
0.0
142
1.0
143
1.0
 70
0
 72
1
 73
0
 74
0
  7

 75
0
147
1.0
148
0.0
149
0.0
100
AcDbLayout
  1
Layout1
 70
0
 71
1
 10
0.0
 20
0.0
 11
420.0
 21
297.0
 12
0.0
 22
0.0
 32
0.0
 14
0.0
 24
0.0
 34
0.0
 15
0.0
 25
0.0
 35
0.0
146
0.0
 13
0.0
 23
0.0
 33
0.0
 16
1.0
 26
0.0
 36
0.0
 17
0.0
 27
1.0
 37
0.0
 76
0
330
20D
345
0
346
0
  0
ENDSEC
  0
EOF
