999
DXF file: VAK-1-6_7100681_M34474-P-1.dxf
999
Pro/ENGINEER 2010140 by Parametric Technology Corporation
  0
SECTION
  2
HEADER
  9
$ACADVER
  1
AC1015
  9
$DWGCODEPAGE
  3
ANSI_1252
  9
$EXTMAX
 10
420.0
 20
297.0
 30
0.0
  9
$EXTMIN
 10
0.0
 20
0.0
 30
0.0
  9
$LIMMIN
 10
0.0
 20
0.0
  9
$LIMMAX
 10
420.0
 20
297.0
  9
$VIEWCTR
 10
210.0
 20
148.5
  9
$VIEWSIZE
 40
297.0
  9
$CLAYER
  8
0
  9
$LTSCALE
 40
23.1
  9
$CELTYPE
  6
BYLAYER
  9
$DIMSCALE
 40
1.0
  9
$DIMASZ
 40
3.5
  9
$DIMEXO
 40
2.625
  9
$DIMDLI
 40
15.96
  9
$DIMEXE
 40
7.56
  9
$DIMCEN
 40
3.78
  9
$DIMLFAC
 40
1.0
  9
$DIMBLK
  1
_FILLED
  9
$DIMTXT
 40
3.5
  9
$DIMTOL
 70
1
  9
$DIMLIM
 70
0
  9
$DIMTFAC
 40
1.0
  9
$DIMTP
 40
0.005
  9
$DIMTM
 40
0.005
  9
$PDMODE
 70
3
  9
$PDSIZE
 40
0.3125
  9
$HANDSEED
  5
4E4
  9
$TILEMODE
 70
1
  9
$MEASUREMENT
 70
1
  9
$INSUNITS
 70
4
  0
ENDSEC
  0
SECTION
  2
CLASSES
  0
CLASS
  1
ACDBDICTIONARYWDFLT
  2
AcDbDictionaryWithDefault
  3
AutoCAD 2000
 90
0
280
0
281
0
  0
CLASS
  1
ACDBPLACEHOLDER
  2
AcDbPlaceHolder
  3
AutoCAD 2000
 90
0
280
0
281
0
  0
CLASS
  1
LAYOUT
  2
AcDbLayout
  3
AutoCAD 2000
 90
0
280
0
281
0
  0
ENDSEC
  0
SECTION
  2
TABLES
  0
TABLE
  2
VPORT
  5
8
100
AcDbSymbolTable
 70
2
  0
VPORT
  5
1F4
100
AcDbSymbolTableRecord
100
AcDbViewportTableRecord
  2
*ACTIVE
 70
0
 10
0.0
 20
0.0
 11
1.0
 21
1.0
 12
210.0
 22
148.5
 13
0.0
 23
0.0
 14
1.0
 24
1.0
 15
0.0
 25
0.0
 16
0.0
 26
0.0
 36
1.0
 17
0.0
 27
0.0
 37
0.0
 40
297.0
 41
1.4141414141
 42
50.0
 43
0.0
 44
0.0
 50
0.0
 51
0.0
 71
0
 72
100
 73
1
 74
1
 75
0
 76
0
 77
0
 78
0
  0
ENDTAB
  0
TABLE
  2
LTYPE
  5
5
100
AcDbSymbolTable
 70
6
  0
LTYPE
  5
14
100
AcDbSymbolTableRecord
100
AcDbLinetypeTableRecord
  2
BYBLOCK
 70
0
  3

 72
65
 73
0
 40
0.0
  0
LTYPE
  5
15
100
AcDbSymbolTableRecord
100
AcDbLinetypeTableRecord
  2
BYLAYER
 70
0
  3

 72
65
 73
0
 40
0.0
  0
LTYPE
  5
16
100
AcDbSymbolTableRecord
100
AcDbLinetypeTableRecord
  2
CONTINUOUS
 70
64
  3
Solid line
 72
65
 73
0
 40
0.0
  0
LTYPE
  5
1F5
100
AcDbSymbolTableRecord
100
AcDbLinetypeTableRecord
  2
CENTER
 70
64
  3
____ _ ____ _ ____ _ ____ _ ____ _ ____ _ ____
 72
65
 73
4
 40
0.6
 49
0.375
 74
0
 49
-0.075
 74
0
 49
0.075
 74
0
 49
-0.075
 74
0
  0
LTYPE
  5
1F6
100
AcDbSymbolTableRecord
100
AcDbLinetypeTableRecord
  2
HIDDEN
 70
64
  3
- - - - - - - - - - - - - - - - - - - -
 72
65
 73
2
 40
0.2
 49
0.1
 74
0
 49
-0.1
 74
0
  0
LTYPE
  5
1F7
100
AcDbSymbolTableRecord
100
AcDbLinetypeTableRecord
  2
PHANTOM
 70
64
  3
_____ _ _ _____ _ _ _____ _ _ _____
 72
65
 73
6
 40
0.8
 49
0.45
 74
0
 49
-0.05
 74
0
 49
0.1
 74
0
 49
-0.05
 74
0
 49
0.1
 74
0
 49
-0.05
 74
0
  0
LTYPE
  5
1F8
100
AcDbSymbolTableRecord
100
AcDbLinetypeTableRecord
  2
DOT
 70
64
  3
. . . . . . . . . . . . . . . . . . . .
 72
65
 73
2
 40
0.2
 49
0.1
 74
0
 49
-0.1
 74
0
  0
LTYPE
  5
1F9
100
AcDbSymbolTableRecord
100
AcDbLinetypeTableRecord
  2
DASHED
 70
64
  3
- - - - - - - - - - - - - - - - - - - -
 72
65
 73
2
 40
0.2
 49
0.1
 74
0
 49
-0.1
 74
0
  0
ENDTAB
  0
TABLE
  2
LAYER
  5
2
100
AcDbSymbolTable
 70
36
  0
LAYER
  5
10
100
AcDbSymbolTableRecord
100
AcDbLayerTableRecord
  2
0
 70
0
 62
7
  6
CONTINUOUS
370
-3
390
F
  0
LAYER
  5
1FA
100
AcDbSymbolTableRecord
100
AcDbLayerTableRecord
  2
DEFAULT_1
 70
0
 62
7
  6
CENTER
370
-3
390
F
  0
LAYER
  5
1FB
100
AcDbSymbolTableRecord
100
AcDbLayerTableRecord
  2
DEFAULT_2
 70
0
 62
8
  6
HIDDEN
370
-3
390
F
  0
LAYER
  5
1FC
100
AcDbSymbolTableRecord
100
AcDbLayerTableRecord
  2
DEFAULT_3
 70
0
 62
7
  6
PHANTOM
370
-3
390
F
  0
LAYER
  5
1FD
100
AcDbSymbolTableRecord
100
AcDbLayerTableRecord
  2
AUSFORMSCHRAEGEN
 70
0
 62
7
  6
CONTINUOUS
370
-3
390
F
  0
LAYER
  5
1FE
100
AcDbSymbolTableRecord
100
AcDbLayerTableRecord
  2
BEZUGSACHSEN
 70
0
 62
7
  6
CONTINUOUS
370
-3
390
F
  0
LAYER
  5
1FF
100
AcDbSymbolTableRecord
100
AcDbLayerTableRecord
  2
BEZUGSEBENEN
 70
0
 62
7
  6
CONTINUOUS
370
-3
390
F
  0
LAYER
  5
200
100
AcDbSymbolTableRecord
100
AcDbLayerTableRecord
  2
BG_STARTBEZUEGE
 70
0
 62
7
  6
CONTINUOUS
370
-3
390
F
  0
LAYER
  5
201
100
AcDbSymbolTableRecord
100
AcDbLayerTableRecord
  2
FASEN
 70
0
 62
7
  6
CONTINUOUS
370
-3
390
F
  0
LAYER
  5
202
100
AcDbSymbolTableRecord
100
AcDbLayerTableRecord
  2
FLAECHEN
 70
0
 62
7
  6
CONTINUOUS
370
-3
390
F
  0
LAYER
  5
203
100
AcDbSymbolTableRecord
100
AcDbLayerTableRecord
  2
HILFEN
 70
0
 62
7
  6
CONTINUOUS
370
-3
390
F
  0
LAYER
  5
204
100
AcDbSymbolTableRecord
100
AcDbLayerTableRecord
  2
KONSTRUKTIONSELEMENTE
 70
0
 62
7
  6
CONTINUOUS
370
-3
390
F
  0
LAYER
  5
205
100
AcDbSymbolTableRecord
100
AcDbLayerTableRecord
  2
PLATZIERUNG
 70
0
 62
7
  6
CONTINUOUS
370
-3
390
F
  0
LAYER
  5
206
100
AcDbSymbolTableRecord
100
AcDbLayerTableRecord
  2
PLAZIERUNG
 70
0
 62
7
  6
CONTINUOUS
370
-3
390
F
  0
LAYER
  5
207
100
AcDbSymbolTableRecord
100
AcDbLayerTableRecord
  2
RUNDUNGEN
 70
0
 62
7
  6
CONTINUOUS
370
-3
390
F
  0
LAYER
  5
208
100
AcDbSymbolTableRecord
100
AcDbLayerTableRecord
  2
TEIL_STARTBEZUEGE
 70
0
 62
7
  6
CONTINUOUS
370
-3
390
F
  0
LAYER
  5
209
100
AcDbSymbolTableRecord
100
AcDbLayerTableRecord
  2
T_STARTBEZUEGE
 70
0
 62
7
  6
CONTINUOUS
370
-3
390
F
  0
LAYER
  5
20A
100
AcDbSymbolTableRecord
100
AcDbLayerTableRecord
  2
ZEICHNUNGSBEMASSUNGEN
 70
0
 62
7
  6
CONTINUOUS
370
-3
390
F
  0
ENDTAB
  0
TABLE
  2
STYLE
  5
3
100
AcDbSymbolTable
 70
1
  0
STYLE
  5
11
100
AcDbSymbolTableRecord
100
AcDbTextStyleTableRecord
  2
STANDARD
 70
0
 40
0.0
 41
0.7
 50
0.0
 71
0
 42
0.2
  3
txt
  4

  0
STYLE
  5
20B
100
AcDbSymbolTableRecord
100
AcDbTextStyleTableRecord
  2
TEXTSTYLE_1
 70
0
 40
0.0
 41
0.8
 50
0.0
 71
0
 42
0.2
  3
gdt
  4

  0
ENDTAB
  0
TABLE
  2
VIEW
  5
6
100
AcDbSymbolTable
 70
0
  0
ENDTAB
  0
TABLE
  2
UCS
  5
7
100
AcDbSymbolTable
 70
0
  0
ENDTAB
  0
TABLE
  2
APPID
  5
9
100
AcDbSymbolTable
 70
1
  0
APPID
  5
20C
100
AcDbSymbolTableRecord
100
AcDbRegAppTableRecord
  2
ACAD
 70
0
  0
ENDTAB
  0
TABLE
  2
BLOCK_RECORD
  5
1
100
AcDbSymbolTable
 70
0
  0
BLOCK_RECORD
  5
20D
100
AcDbSymbolTableRecord
100
AcDbBlockTableRecord
  2
*Model_Space
  0
BLOCK_RECORD
  5
20E
100
AcDbSymbolTableRecord
100
AcDbBlockTableRecord
  2
*Paper_Space
  0
ENDTAB
  0
TABLE
  2
DIMSTYLE
  5
A
100
AcDbSymbolTable
 70
1
100
AcDbDimStyleTable
 71
0
  0
DIMSTYLE
105
20F
100
AcDbSymbolTableRecord
100
AcDbDimStyleTableRecord
  2
STANDARD
 70
0
  3

  4

 40
1.0
 41
3.5
 42
0.0625
 43
0.38
 44
0.18
 45
0.0
 46
0.0
 47
0.005
 48
0.005
140
3.5
141
0.09
142
0.0
143
25.4
144
1.0
145
0.0
146
1.0
147
0.09
 71
1.0
 72
0.0
 73
0
 74
0
 75
0
 76
0
 77
1
 78
8
170
0
171
2
172
0
173
0
174
0
175
0
176
0
177
0
178
5
270
2
271
3
272
3
273
2
274
2
275
0
280
0
281
0
282
0
283
1
284
8
285
0
286
0
287
3
288
0
340
11
  0
ENDTAB
  0
ENDSEC
  0
SECTION
  2
BLOCKS
  0
BLOCK
  5
20
100
AcDbEntity
  8
0
100
AcDbBlockBegin
  2
*Model_Space
 70
0
 10
0.0
 20
0.0
 30
0.0
  3
*Model_Space
  1

  0
ENDBLK
  5
21
100
AcDbEntity
  8
0
100
AcDbBlockEnd
  0
BLOCK
  5
1C
100
AcDbEntity
  8
0
100
AcDbBlockBegin
  2
*Paper_Space
 70
0
 10
0.0
 20
0.0
 30
0.0
  3
*Paper_Space
  1

  0
ENDBLK
  5
1D
100
AcDbEntity
  8
0
100
AcDbBlockEnd
  0
ENDSEC
  0
SECTION
  2
ENTITIES
  0
MTEXT
  5
210
100
AcDbEntity
  8
0
100
AcDbMText
 62
5
  6
CONTINUOUS
  7
STANDARD
 71
1
 72
1
 10
368.4271608759
 20
183.2341864234
 30
0.0
 11
0.0
 21
1.0
 31
0.0
 44
0.9
  1
RUD VAK-1-6
 40
5.0
 41
43.5714285714
  0
MTEXT
  5
211
100
AcDbEntity
  8
0
100
AcDbMText
 62
5
  6
CONTINUOUS
  7
STANDARD
 71
1
 72
1
 10
82.2421534464
 20
188.602989097
 30
0.0
 11
0.0
 21
1.0
 31
0.0
 44
0.9
  1
RUD VAK-1-6
 40
5.0
 41
43.5714285714
  0
LINE
  5
212
100
AcDbEntity
  8
0
100
AcDbLine
 62
7
  6
CONTINUOUS
 10
0.0
 20
0.0
 11
0.0
 21
297.0
  0
LINE
  5
213
100
AcDbEntity
  8
0
100
AcDbLine
 62
7
  6
CONTINUOUS
 10
0.0
 20
0.0
 11
420.0
 21
0.0
  0
LINE
  5
214
100
AcDbEntity
  8
0
100
AcDbLine
 62
7
  6
CONTINUOUS
 10
0.0
 20
297.0
 11
420.0
 21
297.0
  0
LINE
  5
215
100
AcDbEntity
  8
0
100
AcDbLine
 62
7
  6
CONTINUOUS
 10
420.0
 20
0.0
 11
420.0
 21
297.0
  0
LINE
  5
216
100
AcDbEntity
  8
KONSTRUKTIONSELEMENTE
100
AcDbLine
 62
7
  6
CONTINUOUS
 10
181.1609134031
 20
29.8338281455
 11
183.2822337467
 21
27.7125078019
  0
LINE
  5
217
100
AcDbEntity
  8
KONSTRUKTIONSELEMENTE
100
AcDbLine
 62
7
  6
CONTINUOUS
 10
191.7675151209
 20
36.1977891762
 11
189.6461947774
 21
38.3191095197
  0
LINE
  5
218
100
AcDbEntity
  8
BEZUGSACHSEN
100
AcDbLine
 62
7
  6
CONTINUOUS
 10
223.5873202743
 20
72.2602350167
 11
225.7086406179
 21
70.1389146731
  0
LINE
  5
219
100
AcDbEntity
  8
KONSTRUKTIONSELEMENTE
100
AcDbLine
 62
7
  6
CONTINUOUS
 10
220.405339759
 20
78.6241960473
 11
223.9408736649
 21
75.0886621414
  0
LINE
  5
21A
100
AcDbEntity
  8
KONSTRUKTIONSELEMENTE
100
AcDbLine
 62
7
  6
CONTINUOUS
 10
220.7588931496
 20
78.9777494379
 11
224.2944270555
 21
75.442215532
  0
LINE
  5
21B
100
AcDbEntity
  8
0
100
AcDbLine
 62
7
  6
CONTINUOUS
 10
332.9602502528
 20
125.6685869216
 11
336.2459195884
 21
125.6685869216
  0
LINE
  5
21C
100
AcDbEntity
  8
0
100
AcDbLine
 62
7
  6
CONTINUOUS
 10
336.1381464855
 20
137.1436649391
 11
333.0680233557
 21
137.1436649391
  0
LINE
  5
21D
100
AcDbEntity
  8
KONSTRUKTIONSELEMENTE
100
AcDbLine
 62
7
  6
CONTINUOUS
 10
277.6809890351
 20
135.8998453235
 11
281.216522941
 21
132.3643114175
  0
LINE
  5
21E
100
AcDbEntity
  8
KONSTRUKTIONSELEMENTE
100
AcDbLine
 62
7
  6
CONTINUOUS
 10
278.0345424257
 20
136.253398714
 11
281.5700763316
 21
132.7178648081
  0
LINE
  5
21F
100
AcDbEntity
  8
0
100
AcDbLine
 62
7
  6
CONTINUOUS
 10
336.1184510396
 20
149.1656936997
 11
333.0877188016
 21
149.1656936997
  0
LINE
  5
220
100
AcDbEntity
  8
KONSTRUKTIONSELEMENTE
100
AcDbLine
 62
7
  6
CONTINUOUS
 10
337.9318179237
 20
149.6780180459
 11
338.7596529841
 21
149.6780180459
  0
LINE
  5
221
100
AcDbEntity
  8
KONSTRUKTIONSELEMENTE
100
AcDbLine
 62
7
  6
CONTINUOUS
 10
338.4116496031
 20
150.9607861069
 11
338.7655541972
 21
150.9607861069
  0
LINE
  5
222
100
AcDbEntity
  8
KONSTRUKTIONSELEMENTE
100
AcDbLine
 62
7
  6
CONTINUOUS
 10
337.135464641
 20
151.4183874395
 11
337.9632997014
 21
151.4183874395
  0
LINE
  5
223
100
AcDbEntity
  8
KONSTRUKTIONSELEMENTE
100
AcDbLine
 62
7
  6
CONTINUOUS
 10
338.0548779006
 20
151.7122950674
 11
338.3100506565
 21
151.7122950674
  0
LINE
  5
224
100
AcDbEntity
  8
KONSTRUKTIONSELEMENTE
100
AcDbLine
 62
7
  6
CONTINUOUS
 10
338.0558749204
 20
151.8734630475
 11
338.2919971529
 21
151.8734630475
  0
LINE
  5
225
100
AcDbEntity
  8
KONSTRUKTIONSELEMENTE
100
AcDbLine
 62
7
  6
CONTINUOUS
 10
338.3530849206
 20
151.9224462198
 11
338.7128856093
 21
151.9224462198
  0
LINE
  5
226
100
AcDbEntity
  8
KONSTRUKTIONSELEMENTE
100
AcDbLine
 62
7
  6
CONTINUOUS
 10
338.3401434214
 20
151.9443329875
 11
338.7152781866
 21
151.9443329875
  0
LINE
  5
227
100
AcDbEntity
  8
KONSTRUKTIONSELEMENTE
100
AcDbLine
 62
7
  6
CONTINUOUS
 10
338.7337008192
 20
151.969820648
 11
338.749504274
 21
151.969820648
  0
LINE
  5
228
100
AcDbEntity
  8
KONSTRUKTIONSELEMENTE
100
AcDbLine
 62
7
  6
CONTINUOUS
 10
338.3401434214
 20
151.9860137697
 11
338.6446730997
 21
151.9860137697
  0
LINE
  5
229
100
AcDbEntity
  8
KONSTRUKTIONSELEMENTE
100
AcDbLine
 62
7
  6
CONTINUOUS
 10
338.0561206787
 20
152.0302805825
 11
338.2571009339
 21
152.0302805825
  0
LINE
  5
22A
100
AcDbEntity
  8
KONSTRUKTIONSELEMENTE
100
AcDbLine
 62
7
  6
CONTINUOUS
 10
338.3069443816
 20
152.0984594788
 11
338.575202416
 21
152.0984594788
  0
LINE
  5
22B
100
AcDbEntity
  8
KONSTRUKTIONSELEMENTE
100
AcDbLine
 62
7
  6
CONTINUOUS
 10
338.0557553753
 20
152.182747554
 11
338.205650227
 21
152.182747554
  0
LINE
  5
22C
100
AcDbEntity
  8
KONSTRUKTIONSELEMENTE
100
AcDbLine
 62
7
  6
CONTINUOUS
 10
338.252950097
 20
152.2920903595
 11
338.4895773263
 21
152.2920903595
  0
LINE
  5
22D
100
AcDbEntity
  8
KONSTRUKTIONSELEMENTE
100
AcDbLine
 62
7
  6
CONTINUOUS
 10
338.0553477951
 20
152.2938350526
 11
338.1547419645
 21
152.2938350526
  0
LINE
  5
22E
100
AcDbEntity
  8
KONSTRUKTIONSELEMENTE
100
AcDbLine
 62
7
  6
CONTINUOUS
 10
217.5769126342
 20
75.7957689226
 11
220.405339759
 21
78.6241960473
  0
LINE
  5
22F
100
AcDbEntity
  8
KONSTRUKTIONSELEMENTE
100
AcDbLine
 62
7
  6
CONTINUOUS
 10
220.7588931496
 20
78.9777494379
 11
223.5873202743
 21
81.8061765627
  0
LINE
  5
230
100
AcDbEntity
  8
KONSTRUKTIONSELEMENTE
100
AcDbLine
 62
7
  6
CONTINUOUS
 10
274.8525619103
 20
133.0714181987
 11
277.6809890351
 21
135.8998453235
  0
LINE
  5
231
100
AcDbEntity
  8
KONSTRUKTIONSELEMENTE
100
AcDbLine
 62
7
  6
CONTINUOUS
 10
278.0345424257
 20
136.253398714
 11
280.8629695504
 21
139.0818258388
  0
LINE
  5
232
100
AcDbEntity
  8
KONSTRUKTIONSELEMENTE
100
AcDbLine
 62
7
  6
CONTINUOUS
 10
254.7000186465
 20
112.5653215443
 11
244.0934169287
 21
101.9587198265
  0
LINE
  5
233
100
AcDbEntity
  8
KONSTRUKTIONSELEMENTE
100
AcDbLine
 62
7
  6
CONTINUOUS
 10
338.6031904998
 20
152.3044566277
 11
338.6145114084
 21
152.3044566277
  0
LINE
  5
234
100
AcDbEntity
  8
KONSTRUKTIONSELEMENTE
100
AcDbLine
 62
7
  6
CONTINUOUS
 10
338.5423640444
 20
152.4001839543
 11
338.667467398
 21
152.4001839543
  0
LINE
  5
235
100
AcDbEntity
  8
KONSTRUKTIONSELEMENTE
100
AcDbLine
 62
7
  6
CONTINUOUS
 10
337.1428523915
 20
152.4114982269
 11
337.9706874519
 21
152.4114982269
  0
LINE
  5
236
100
AcDbEntity
  8
KONSTRUKTIONSELEMENTE
100
AcDbLine
 62
7
  6
CONTINUOUS
 10
338.7575497833
 20
152.413322327
 11
338.7691421479
 21
152.413322327
  0
LINE
  5
237
100
AcDbEntity
  8
KONSTRUKTIONSELEMENTE
100
AcDbLine
 62
7
  6
CONTINUOUS
 10
338.4802792281
 20
152.5417141809
 11
338.6674673983
 21
152.5417141809
  0
LINE
  5
238
100
AcDbEntity
  8
KONSTRUKTIONSELEMENTE
100
AcDbLine
 62
7
  6
CONTINUOUS
 10
337.1581769563
 20
152.5813672154
 11
337.9860120167
 21
152.5813672154
  0
LINE
  5
239
100
AcDbEntity
  8
KONSTRUKTIONSELEMENTE
100
AcDbLine
 62
7
  6
CONTINUOUS
 10
338.7289520281
 20
152.6345288827
 11
338.7505338163
 21
152.6345288827
  0
LINE
  5
23A
100
AcDbEntity
  8
KONSTRUKTIONSELEMENTE
100
AcDbLine
 62
7
  6
CONTINUOUS
 10
337.2069544124
 20
152.6357982457
 11
338.0347894728
 21
152.6357982457
  0
LINE
  5
23B
100
AcDbEntity
  8
KONSTRUKTIONSELEMENTE
100
AcDbLine
 62
7
  6
CONTINUOUS
 10
338.4108833337
 20
152.7290471051
 11
338.6496421065
 21
152.7290471051
  0
LINE
  5
23C
100
AcDbEntity
  8
KONSTRUKTIONSELEMENTE
100
AcDbLine
 62
7
  6
CONTINUOUS
 10
338.6839975898
 20
152.8670323646
 11
338.7143330491
 21
152.8670323646
  0
LINE
  5
23D
100
AcDbEntity
  8
KONSTRUKTIONSELEMENTE
100
AcDbLine
 62
7
  6
CONTINUOUS
 10
338.3376244225
 20
152.9268001517
 11
338.6145114071
 21
152.9268001517
  0
LINE
  5
23E
100
AcDbEntity
  8
KONSTRUKTIONSELEMENTE
100
AcDbLine
 62
7
  6
CONTINUOUS
 10
338.6307897058
 20
153.0982881423
 11
338.7585934979
 21
153.0982881423
  0
LINE
  5
23F
100
AcDbEntity
  8
KONSTRUKTIONSELEMENTE
100
AcDbLine
 62
7
  6
CONTINUOUS
 10
338.2605026048
 20
153.1349732565
 11
338.5625634544
 21
153.1349732565
  0
LINE
  5
240
100
AcDbEntity
  8
KONSTRUKTIONSELEMENTE
100
AcDbLine
 62
7
  6
CONTINUOUS
 10
338.1795175037
 20
153.3535666541
 11
338.494107246
 21
153.3535666541
  0
LINE
  5
241
100
AcDbEntity
  8
KONSTRUKTIONSELEMENTE
100
AcDbLine
 62
7
  6
CONTINUOUS
 10
337.1362775292
 20
153.7119741771
 11
337.9641125896
 21
153.7119741771
  0
LINE
  5
242
100
AcDbEntity
  8
KONSTRUKTIONSELEMENTE
100
AcDbLine
 62
7
  6
CONTINUOUS
 10
337.1402343948
 20
153.924269517
 11
337.9680694552
 21
153.924269517
  0
LINE
  5
243
100
AcDbEntity
  8
KONSTRUKTIONSELEMENTE
100
AcDbLine
 62
7
  6
CONTINUOUS
 10
338.5014634272
 20
154.0908600219
 11
338.667150065
 21
154.0908600219
  0
LINE
  5
244
100
AcDbEntity
  8
KONSTRUKTIONSELEMENTE
100
AcDbLine
 62
7
  6
CONTINUOUS
 10
338.7270461424
 20
154.1056275012
 11
338.7648737991
 21
154.1056275012
  0
LINE
  5
245
100
AcDbEntity
  8
KONSTRUKTIONSELEMENTE
100
AcDbLine
 62
7
  6
CONTINUOUS
 10
338.4487378902
 20
154.2562885553
 11
338.6489055098
 21
154.2562885553
  0
LINE
  5
246
100
AcDbEntity
  8
KONSTRUKTIONSELEMENTE
100
AcDbLine
 62
7
  6
CONTINUOUS
 10
338.6950657182
 20
154.2706625145
 11
338.7596529767
 21
154.2706625145
  0
LINE
  5
247
100
AcDbEntity
  8
KONSTRUKTIONSELEMENTE
100
AcDbLine
 62
7
  6
CONTINUOUS
 10
338.3879897981
 20
154.4468790373
 11
338.6134697096
 21
154.4468790373
  0
LINE
  5
248
100
AcDbEntity
  8
KONSTRUKTIONSELEMENTE
100
AcDbLine
 62
7
  6
CONTINUOUS
 10
338.3192183569
 20
154.6626313933
 11
338.5613316871
 21
154.6626313933
  0
LINE
  5
249
100
AcDbEntity
  8
KONSTRUKTIONSELEMENTE
100
AcDbLine
 62
7
  6
CONTINUOUS
 10
337.1402343932
 20
154.7734504717
 11
337.9680694536
 21
154.7734504717
  0
LINE
  5
24A
100
AcDbEntity
  8
KONSTRUKTIONSELEMENTE
100
AcDbLine
 62
7
  6
CONTINUOUS
 10
338.242423525
 20
154.9035453397
 11
338.4927980241
 21
154.9035453397
  0
LINE
  5
24B
100
AcDbEntity
  8
KONSTRUKTIONSELEMENTE
100
AcDbLine
 62
7
  6
CONTINUOUS
 10
337.1362775292
 20
154.9857457104
 11
337.9641125896
 21
154.9857457104
  0
LINE
  5
24C
100
AcDbEntity
  8
KONSTRUKTIONSELEMENTE
100
AcDbLine
 62
7
  6
CONTINUOUS
 10
337.1346079863
 20
155.5994015027
 11
337.9624430467
 21
155.5994015027
  0
LINE
  5
24D
100
AcDbEntity
  8
KONSTRUKTIONSELEMENTE
100
AcDbLine
 62
7
  6
CONTINUOUS
 10
338.0725810759
 20
155.7017729873
 11
338.2383649833
 21
155.7017729873
  0
LINE
  5
24E
100
AcDbEntity
  8
KONSTRUKTIONSELEMENTE
100
AcDbLine
 62
7
  6
CONTINUOUS
 10
338.073048023
 20
155.8865804132
 11
338.1711334112
 21
155.8865804132
  0
LINE
  5
24F
100
AcDbEntity
  8
KONSTRUKTIONSELEMENTE
100
AcDbLine
 62
7
  6
CONTINUOUS
 10
338.0827584951
 20
155.9901192355
 11
338.1213277272
 21
155.9901192355
  0
LINE
  5
250
100
AcDbEntity
  8
KONSTRUKTIONSELEMENTE
100
AcDbLine
 62
7
  6
CONTINUOUS
 10
337.1430504581
 20
156.2726823158
 11
337.9708855185
 21
156.2726823158
  0
LINE
  5
251
100
AcDbEntity
  8
KONSTRUKTIONSELEMENTE
100
AcDbLine
 62
7
  6
CONTINUOUS
 10
337.1585966561
 20
156.3597340874
 11
337.9864317165
 21
156.3597340874
  0
LINE
  5
252
100
AcDbEntity
  8
KONSTRUKTIONSELEMENTE
100
AcDbLine
 62
7
  6
CONTINUOUS
 10
337.1905898133
 20
156.3655171061
 11
338.0184248737
 21
156.3655171061
  0
LINE
  5
253
100
AcDbEntity
  8
KONSTRUKTIONSELEMENTE
100
AcDbLine
 62
7
  6
CONTINUOUS
 10
337.665393322
 20
156.7928939692
 11
337.9632996955
 21
156.7928939692
  0
LINE
  5
254
100
AcDbEntity
  8
0
100
AcDbLine
 62
7
  6
CONTINUOUS
 10
336.1184510396
 20
158.8917192739
 11
333.0877188016
 21
158.8917192739
  0
LINE
  5
255
100
AcDbEntity
  8
0
100
AcDbLine
 62
7
  6
CONTINUOUS
 10
333.0877188016
 20
162.6067304678
 11
336.1184510396
 21
162.6067304678
  0
LINE
  5
256
100
AcDbEntity
  8
0
100
AcDbLine
 62
7
  6
CONTINUOUS
 10
291.6030849206
 20
181.1546793194
 11
291.6030849206
 21
231.1546793194
  0
LINE
  5
257
100
AcDbEntity
  8
KONSTRUKTIONSELEMENTE
100
AcDbLine
 62
7
  6
CONTINUOUS
 10
257.8819991619
 20
109.383341029
 11
247.2753974441
 21
98.7767393112
  0
LINE
  5
258
100
AcDbEntity
  8
KONSTRUKTIONSELEMENTE
100
AcDbLine
 62
7
  6
CONTINUOUS
 10
221.1124465402
 20
72.2602350167
 11
223.9408736649
 21
75.0886621414
  0
LINE
  5
259
100
AcDbEntity
  8
KONSTRUKTIONSELEMENTE
100
AcDbLine
 62
7
  6
CONTINUOUS
 10
224.2944270555
 20
75.442215532
 11
227.1228541802
 21
78.2706426568
  0
LINE
  5
25A
100
AcDbEntity
  8
KONSTRUKTIONSELEMENTE
100
AcDbLine
 62
7
  6
CONTINUOUS
 10
278.3880958163
 20
129.5358842928
 11
281.216522941
 21
132.3643114175
  0
LINE
  5
25B
100
AcDbEntity
  8
KONSTRUKTIONSELEMENTE
100
AcDbLine
 62
7
  6
CONTINUOUS
 10
281.5700763316
 20
132.7178648081
 11
284.3985034564
 21
135.5462919329
  0
LINE
  5
25C
100
AcDbEntity
  8
KONSTRUKTIONSELEMENTE
100
AcDbLine
 62
7
  6
CONTINUOUS
 10
313.389881485
 20
164.1841165709
 11
284.3985034564
 21
135.1927385423
  0
LINE
  5
25D
100
AcDbEntity
  8
KONSTRUKTIONSELEMENTE
100
AcDbLine
 62
7
  6
CONTINUOUS
 10
228.5370677426
 20
78.2706426568
 11
247.2457527178
 21
96.9793276319
  0
LINE
  5
25E
100
AcDbEntity
  8
KONSTRUKTIONSELEMENTE
100
AcDbLine
 62
7
  6
CONTINUOUS
 10
259.6497661148
 20
109.383341029
 11
278.35845109
 21
128.0920260041
  0
LINE
  5
25F
100
AcDbEntity
  8
BEZUGSACHSEN
100
AcDbLine
 62
7
  6
CONTINUOUS
 10
223.5871362037
 20
72.260050946
 11
222.7923154847
 21
71.4652302271
  0
LINE
  5
260
100
AcDbEntity
  8
KONSTRUKTIONSELEMENTE
100
AcDbLine
 62
7
  6
CONTINUOUS
 10
181.1609134031
 20
29.8338281455
 11
222.7923154847
 21
71.4652302271
  0
LINE
  5
261
100
AcDbEntity
  8
BEZUGSACHSEN
100
AcDbLine
 62
7
  6
CONTINUOUS
 10
225.7084565472
 20
70.1387306025
 11
224.9136358283
 21
69.3439098835
  0
LINE
  5
262
100
AcDbEntity
  8
KONSTRUKTIONSELEMENTE
100
AcDbLine
 62
7
  6
CONTINUOUS
 10
183.2822337467
 20
27.7125078019
 11
224.9136358283
 21
69.3439098835
  0
LINE
  5
263
100
AcDbEntity
  8
KONSTRUKTIONSELEMENTE
100
AcDbLine
 62
7
  6
CONTINUOUS
 10
231.719048258
 20
75.0886621414
 11
250.4277332331
 21
93.7973471166
  0
LINE
  5
264
100
AcDbEntity
  8
KONSTRUKTIONSELEMENTE
100
AcDbLine
 62
7
  6
CONTINUOUS
 10
262.8317466302
 20
106.2013605136
 11
281.5404316053
 21
124.9100454888
  0
LINE
  5
265
100
AcDbEntity
  8
KONSTRUKTIONSELEMENTE
100
AcDbLine
 62
7
  6
CONTINUOUS
 10
317.6325221721
 20
159.9414758838
 11
288.6906542707
 21
130.9996079824
  0
LINE
  5
266
100
AcDbEntity
  8
KONSTRUKTIONSELEMENTE
100
AcDbLine
 62
7
  6
CONTINUOUS
 10
288.9946975341
 20
130.9500978551
 11
282.984289894
 21
124.9396902151
  0
LINE
  5
267
100
AcDbEntity
  8
KONSTRUKTIONSELEMENTE
100
AcDbLine
 62
7
  6
CONTINUOUS
 10
231.719048258
 20
73.674448579
 11
225.7086406179
 21
67.664040939
  0
LINE
  5
268
100
AcDbEntity
  8
KONSTRUKTIONSELEMENTE
100
AcDbLine
 62
7
  6
CONTINUOUS
 10
252.2251449124
 20
93.8269918429
 11
262.8317466302
 21
104.4335935607
  0
LINE
  5
269
100
AcDbEntity
  8
RUNDUNGEN
100
AcDbLine
 62
7
  6
CONTINUOUS
 10
338.509016933
 20
135.6714803553
 11
342.2502377933
 21
133.0518493069
  0
LINE
  5
26A
100
AcDbEntity
  8
0
100
AcDbLine
 62
7
  6
CONTINUOUS
 10
327.4565881053
 20
114.8527684914
 11
326.1030849206
 21
116.9546793194
  0
LINE
  5
26B
100
AcDbEntity
  8
0
100
AcDbLine
 62
7
  6
CONTINUOUS
 10
304.6030849206
 20
181.1546793194
 11
304.6030849206
 21
231.1546793194
  0
LINE
  5
26C
100
AcDbEntity
  8
KONSTRUKTIONSELEMENTE
100
AcDbLine
 62
7
  6
CONTINUOUS
 10
255.4071254277
 20
90.6450113275
 11
266.0137271455
 21
101.2516130453
  0
LINE
  5
26D
100
AcDbEntity
  8
KONSTRUKTIONSELEMENTE
100
AcDbLine
 62
7
  6
CONTINUOUS
 10
292.53023144
 20
127.4145639492
 11
286.5198237999
 21
121.4041563091
  0
LINE
  5
26E
100
AcDbEntity
  8
KONSTRUKTIONSELEMENTE
100
AcDbLine
 62
7
  6
CONTINUOUS
 10
235.2545821639
 20
70.1389146731
 11
229.2441745238
 21
64.128507033
  0
LINE
  5
26F
100
AcDbEntity
  8
0
100
AcDbLine
 62
7
  6
CONTINUOUS
 10
330.6971529082
 20
135.6714803553
 11
326.9559320479
 21
133.0518493069
  0
LINE
  5
270
100
AcDbEntity
  8
0
100
AcDbLine
 62
7
  6
CONTINUOUS
 10
332.9638787434
 20
138.8836177836
 11
333.0680233557
 21
137.1436649391
  0
LINE
  5
271
100
AcDbEntity
  8
0
100
AcDbLine
 62
7
  6
CONTINUOUS
 10
326.1030849206
 20
131.4135452183
 11
326.1030849206
 21
116.9546793194
  0
LINE
  5
272
100
AcDbEntity
  8
0
100
AcDbLine
 62
7
  6
CONTINUOUS
 10
330.8530849206
 20
153.8814469177
 11
330.8530849206
 21
136.821799227
  0
LINE
  5
273
100
AcDbEntity
  8
0
100
AcDbLine
 62
7
  6
CONTINUOUS
 10
333.0680233557
 20
128.2151449892
 11
333.0680233557
 21
137.1436649391
  0
LINE
  5
274
100
AcDbEntity
  8
0
100
AcDbLine
 62
7
  6
CONTINUOUS
 10
330.9371447223
 20
154.5242789006
 11
333.0877188016
 21
162.6067304678
  0
LINE
  5
275
100
AcDbEntity
  8
0
100
AcDbLine
 62
7
  6
CONTINUOUS
 10
334.6030849206
 20
116.1829828076
 11
334.6030849206
 21
116.9546793194
  0
LINE
  5
276
100
AcDbEntity
  8
0
100
AcDbLine
 62
7
  6
CONTINUOUS
 10
334.6030849206
 20
121.9546793194
 11
334.6030849206
 21
122.8774930292
  0
LINE
  5
277
100
AcDbEntity
  8
RUNDUNGEN
100
AcDbLine
 62
7
  6
CONTINUOUS
 10
336.1381464855
 20
128.2151449892
 11
336.1381464855
 21
137.1436649391
  0
LINE
  5
278
100
AcDbEntity
  8
BEZUGSACHSEN
100
AcDbLine
 62
7
  6
CONTINUOUS
 10
338.3530849206
 20
151.9443329875
 11
338.3530849206
 21
151.8843263366
  0
LINE
  5
279
100
AcDbEntity
  8
BEZUGSACHSEN
100
AcDbLine
 62
7
  6
CONTINUOUS
 10
338.3530849206
 20
149.6780180459
 11
338.3530849206
 21
140.7416816385
  0
LINE
  5
27A
100
AcDbEntity
  8
RUNDUNGEN
100
AcDbLine
 62
7
  6
CONTINUOUS
 10
338.3530849206
 20
140.7416816329
 11
338.3530849206
 21
136.821799227
  0
LINE
  5
27B
100
AcDbEntity
  8
KONSTRUKTIONSELEMENTE
100
AcDbLine
 62
7
  6
CONTINUOUS
 10
338.3530849206
 20
140.7416816385
 11
338.3530849206
 21
136.821799227
  0
LINE
  5
27C
100
AcDbEntity
  8
RUNDUNGEN
100
AcDbLine
 62
7
  6
CONTINUOUS
 10
343.1030849206
 20
131.4135452183
 11
343.1030849206
 21
116.9546793194
  0
LINE
  5
27D
100
AcDbEntity
  8
0
100
AcDbLine
 62
7
  6
CONTINUOUS
 10
336.2422910978
 20
138.8836177836
 11
336.1381464855
 21
137.1436649391
  0
LINE
  5
27E
100
AcDbEntity
  8
KONSTRUKTIONSELEMENTE
100
AcDbLine
 62
7
  6
CONTINUOUS
 10
336.1184510396
 20
162.6067304678
 11
337.7791095128
 21
156.3655171061
  0
LINE
  5
27F
100
AcDbEntity
  8
RUNDUNGEN
100
AcDbLine
 62
7
  6
CONTINUOUS
 10
341.7495817359
 20
114.8527684914
 11
343.1030849206
 21
116.9546793194
  0
LINE
  5
280
100
AcDbEntity
  8
0
100
AcDbLine
 62
7
  6
CONTINUOUS
 10
364.6030849206
 20
231.1546793194
 11
364.6030849206
 21
181.1546793194
  0
LINE
  5
281
100
AcDbEntity
  8
0
100
AcDbLine
 62
7
  6
CONTINUOUS
 10
377.6030849206
 20
231.1546793194
 11
377.6030849206
 21
181.1546793194
  0
LINE
  5
282
100
AcDbEntity
  8
KONSTRUKTIONSELEMENTE
100
AcDbLine
 62
7
  6
CONTINUOUS
 10
82.2404265954
 20
27.7125078019
 11
87.7004265954
 21
27.7125078019
  0
LINE
  5
283
100
AcDbEntity
  8
KONSTRUKTIONSELEMENTE
100
AcDbLine
 62
7
  6
CONTINUOUS
 10
81.9404265954
 20
27.9246398363
 11
82.2404265954
 21
27.9246398363
  0
LINE
  5
284
100
AcDbEntity
  8
KONSTRUKTIONSELEMENTE
100
AcDbLine
 62
7
  6
CONTINUOUS
 10
87.7004265954
 20
27.9246398363
 11
88.0004265954
 21
27.9246398363
  0
LINE
  5
285
100
AcDbEntity
  8
KONSTRUKTIONSELEMENTE
100
AcDbLine
 62
7
  6
CONTINUOUS
 10
76.3631980713
 20
36.1977891762
 11
79.8404265954
 21
36.1977891762
  0
LINE
  5
286
100
AcDbEntity
  8
KONSTRUKTIONSELEMENTE
100
AcDbLine
 62
7
  6
CONTINUOUS
 10
90.1004265954
 20
36.1977891762
 11
102.1590463968
 21
36.1977891762
  0
LINE
  5
287
100
AcDbEntity
  8
KONSTRUKTIONSELEMENTE
100
AcDbLine
 62
7
  6
CONTINUOUS
 10
103.8355732599
 20
37.6445445603
 11
100.4822344479
 21
38.7502386436
  0
LINE
  5
288
100
AcDbEntity
  8
KONSTRUKTIONSELEMENTE
100
AcDbLine
 62
7
  6
CONTINUOUS
 10
103.8355732599
 20
39.7658649039
 11
100.4822344479
 21
40.8715589872
  0
LINE
  5
289
100
AcDbEntity
  8
KONSTRUKTIONSELEMENTE
100
AcDbLine
 62
7
  6
CONTINUOUS
 10
59.2454232947
 20
59.2569526507
 11
59.3722087732
 21
59.2768277705
  0
LINE
  5
28A
100
AcDbEntity
  8
KONSTRUKTIONSELEMENTE
100
AcDbLine
 62
7
  6
CONTINUOUS
 10
113.5411387357
 20
58.5527008492
 11
117.0757391051
 21
57.3872395181
  0
LINE
  5
28B
100
AcDbEntity
  8
KONSTRUKTIONSELEMENTE
100
AcDbLine
 62
7
  6
CONTINUOUS
 10
90.0418457363
 20
69.3439098835
 11
116.2769193009
 21
60.6934372527
  0
LINE
  5
28C
100
AcDbEntity
  8
KONSTRUKTIONSELEMENTE
100
AcDbLine
 62
7
  6
CONTINUOUS
 10
116.2769193009
 20
62.8147575963
 11
90.0418457363
 21
71.4652302271
  0
LINE
  5
28D
100
AcDbEntity
  8
KONSTRUKTIONSELEMENTE
100
AcDbLine
 62
7
  6
CONTINUOUS
 10
58.7382813806
 20
60.0259803092
 11
59.2454232947
 21
59.2569526507
  0
LINE
  5
28E
100
AcDbEntity
  8
KONSTRUKTIONSELEMENTE
100
AcDbLine
 62
7
  6
CONTINUOUS
 10
62.6559526669
 20
54.0852416475
 11
73.6442747102
 21
37.4226008035
  0
LINE
  5
28F
100
AcDbEntity
  8
KONSTRUKTIONSELEMENTE
100
AcDbLine
 62
7
  6
CONTINUOUS
 10
62.6559526669
 20
54.2973736819
 11
62.5291671884
 21
54.4896305965
  0
LINE
  5
290
100
AcDbEntity
  8
KONSTRUKTIONSELEMENTE
100
AcDbLine
 62
7
  6
CONTINUOUS
 10
64.1336059022
 20
59.8756895883
 11
66.6258736091
 21
56.0964263373
  0
LINE
  5
291
100
AcDbEntity
  8
KONSTRUKTIONSELEMENTE
100
AcDbLine
 62
7
  6
CONTINUOUS
 10
95.2618629388
 20
110.9546793194
 11
93.0629624622
 21
110.9546793194
  0
LINE
  5
292
100
AcDbEntity
  8
KONSTRUKTIONSELEMENTE
100
AcDbLine
 62
7
  6
CONTINUOUS
 10
76.8778907286
 20
110.9546793194
 11
74.678990252
 21
110.9546793194
  0
LINE
  5
293
100
AcDbEntity
  8
0
100
AcDbLine
 62
7
  6
CONTINUOUS
 10
88.4704265954
 20
115.8546793194
 11
81.4704265954
 21
115.8546793194
  0
LINE
  5
294
100
AcDbEntity
  8
RUNDUNGEN
100
AcDbLine
 62
7
  6
CONTINUOUS
 10
97.8566640172
 20
116.9546793194
 11
94.3218153725
 21
116.9546793194
  0
LINE
  5
295
100
AcDbEntity
  8
RUNDUNGEN
100
AcDbLine
 62
7
  6
CONTINUOUS
 10
75.6190378183
 20
116.9546793194
 11
72.0841891735
 21
116.9546793194
  0
LINE
  5
296
100
AcDbEntity
  8
0
100
AcDbLine
 62
7
  6
CONTINUOUS
 10
70.4386423652
 20
114.8966814936
 11
70.535508929
 21
114.7812404182
  0
LINE
  5
297
100
AcDbEntity
  8
RUNDUNGEN
100
AcDbLine
 62
7
  6
CONTINUOUS
 10
70.6456362231
 20
114.6499958198
 11
70.535508929
 21
114.7812404182
  0
LINE
  5
298
100
AcDbEntity
  8
0
100
AcDbLine
 62
7
  6
CONTINUOUS
 10
73.1469013657
 20
111.6691041
 11
70.6456362231
 21
114.6499958198
  0
LINE
  5
299
100
AcDbEntity
  8
KONSTRUKTIONSELEMENTE
100
AcDbLine
 62
7
  6
CONTINUOUS
 10
58.4572047417
 20
60.9224890254
 11
58.4572047417
 21
63.043809369
  0
LINE
  5
29A
100
AcDbEntity
  8
KONSTRUKTIONSELEMENTE
100
AcDbLine
 62
7
  6
CONTINUOUS
 10
62.4448441967
 20
54.7585832114
 11
62.4448441967
 21
56.4556394862
  0
LINE
  5
29B
100
AcDbEntity
  8
KONSTRUKTIONSELEMENTE
100
AcDbLine
 62
7
  6
CONTINUOUS
 10
62.6559526669
 20
54.0852416475
 11
62.6559526669
 21
54.2973736819
  0
LINE
  5
29C
100
AcDbEntity
  8
0
100
AcDbLine
 62
7
  6
CONTINUOUS
 10
88.4704265954
 20
123.0546793194
 11
81.4704265954
 21
123.0546793194
  0
LINE
  5
29D
100
AcDbEntity
  8
RUNDUNGEN
100
AcDbLine
 62
7
  6
CONTINUOUS
 10
69.1196571003
 20
125.6685869216
 11
66.4704265954
 21
137.1436649391
  0
LINE
  5
29E
100
AcDbEntity
  8
0
100
AcDbLine
 62
7
  6
CONTINUOUS
 10
66.4704265954
 20
149.1656936997
 11
66.4704265954
 21
137.1436649391
  0
LINE
  5
29F
100
AcDbEntity
  8
0
100
AcDbLine
 62
7
  6
CONTINUOUS
 10
69.9704265954
 20
116.1829828076
 11
69.9704265954
 21
116.9546793194
  0
LINE
  5
2A0
100
AcDbEntity
  8
0
100
AcDbLine
 62
7
  6
CONTINUOUS
 10
69.9704265954
 20
121.9546793194
 11
69.9704265954
 21
122.8774930292
  0
LINE
  5
2A1
100
AcDbEntity
  8
0
100
AcDbLine
 62
7
  6
CONTINUOUS
 10
73.5367978035
 20
158.8917192739
 11
66.4704265954
 21
149.1656936997
  0
LINE
  5
2A2
100
AcDbEntity
  8
KONSTRUKTIONSELEMENTE
100
AcDbLine
 62
7
  6
CONTINUOUS
 10
76.4623995113
 20
152.7227489301
 11
76.4303916206
 21
153.0474899631
  0
LINE
  5
2A3
100
AcDbEntity
  8
KONSTRUKTIONSELEMENTE
100
AcDbLine
 62
7
  6
CONTINUOUS
 10
78.1401983034
 20
154.6626313933
 11
78.1612330905
 21
154.4468790373
  0
LINE
  5
2A4
100
AcDbEntity
  8
KONSTRUKTIONSELEMENTE
100
AcDbLine
 62
7
  6
CONTINUOUS
 10
76.2378612918
 20
119.1816793194
 11
76.2378612918
 21
122.8525610124
  0
LINE
  5
2A5
100
AcDbEntity
  8
KONSTRUKTIONSELEMENTE
100
AcDbLine
 62
7
  6
CONTINUOUS
 10
76.9704265954
 20
80.7455163909
 11
76.9704265954
 21
91.3521181087
  0
LINE
  5
2A6
100
AcDbEntity
  8
0
100
AcDbLine
 62
7
  6
CONTINUOUS
 10
78.4704265954
 20
267.5929270963
 11
78.4704265954
 21
144.7164315425
  0
LINE
  5
2A7
100
AcDbEntity
  8
KONSTRUKTIONSELEMENTE
100
AcDbLine
 62
7
  6
CONTINUOUS
 10
73.8062798569
 20
151.7296970845
 11
73.8201828882
 21
151.9692737728
  0
LINE
  5
2A8
100
AcDbEntity
  8
KONSTRUKTIONSELEMENTE
100
AcDbLine
 62
7
  6
CONTINUOUS
 10
78.4574258442
 20
154.1836947936
 11
78.4704265954
 21
154.3323743891
  0
LINE
  5
2A9
100
AcDbEntity
  8
KONSTRUKTIONSELEMENTE
100
AcDbLine
 62
7
  6
CONTINUOUS
 10
76.1227539116
 20
152.9268001517
 11
76.1023037018
 21
152.7290471051
  0
LINE
  5
2AA
100
AcDbEntity
  8
KONSTRUKTIONSELEMENTE
100
AcDbLine
 62
7
  6
CONTINUOUS
 10
73.5168524727
 20
151.8734630475
 11
73.4804295815
 21
151.7122950674
  0
LINE
  5
2AB
100
AcDbEntity
  8
KONSTRUKTIONSELEMENTE
100
AcDbLine
 62
7
  6
CONTINUOUS
 10
76.4054949993
 20
152.4896132963
 11
76.4623995113
 21
152.7227489301
  0
LINE
  5
2AC
100
AcDbEntity
  8
KONSTRUKTIONSELEMENTE
100
AcDbLine
 62
7
  6
CONTINUOUS
 10
78.1612330905
 20
154.4468790373
 11
78.104666787
 21
154.2562885553
  0
LINE
  5
2AD
100
AcDbEntity
  8
KONSTRUKTIONSELEMENTE
100
AcDbLine
 62
7
  6
CONTINUOUS
 10
78.3585059105
 20
153.9650510747
 11
78.4574258442
 21
154.1836947936
  0
LINE
  5
2AE
100
AcDbEntity
  8
KONSTRUKTIONSELEMENTE
100
AcDbLine
 62
7
  6
CONTINUOUS
 10
76.1023037018
 20
152.7290471051
 11
76.0009429789
 21
152.5417141809
  0
LINE
  5
2AF
100
AcDbEntity
  8
KONSTRUKTIONSELEMENTE
100
AcDbLine
 62
7
  6
CONTINUOUS
 10
76.2676802061
 20
152.2668979633
 11
76.4054949993
 21
152.4896132963
  0
LINE
  5
2B0
100
AcDbEntity
  8
KONSTRUKTIONSELEMENTE
100
AcDbLine
 62
7
  6
CONTINUOUS
 10
72.4111342369
 20
152.4114982269
 11
71.7038215606
 21
151.4183874395
  0
LINE
  5
2B1
100
AcDbEntity
  8
KONSTRUKTIONSELEMENTE
100
AcDbLine
 62
7
  6
CONTINUOUS
 10
72.1406056961
 20
151.4815194782
 11
72.7005615367
 21
152.2677321455
  0
LINE
  5
2B2
100
AcDbEntity
  8
KONSTRUKTIONSELEMENTE
100
AcDbLine
 62
7
  6
CONTINUOUS
 10
73.4804295815
 20
151.7122950674
 11
72.9204737409
 21
150.9260824002
  0
LINE
  5
2B3
100
AcDbEntity
  8
KONSTRUKTIONSELEMENTE
100
AcDbLine
 62
7
  6
CONTINUOUS
 10
73.2324209006
 20
150.7039076105
 11
73.7334340322
 21
151.4073610652
  0
LINE
  5
2B4
100
AcDbEntity
  8
KONSTRUKTIONSELEMENTE
100
AcDbLine
 62
7
  6
CONTINUOUS
 10
74.147407936
 20
149.6780180459
 11
74.3242361051
 21
149.9262957428
  0
LINE
  5
2B5
100
AcDbEntity
  8
KONSTRUKTIONSELEMENTE
100
AcDbLine
 62
7
  6
CONTINUOUS
 10
75.0610201147
 20
150.9607861069
 11
75.2673197015
 21
151.2504434988
  0
LINE
  5
2B6
100
AcDbEntity
  8
KONSTRUKTIONSELEMENTE
100
AcDbLine
 62
7
  6
CONTINUOUS
 10
78.104666787
 20
154.2562885553
 11
77.9704993437
 21
154.0908600219
  0
LINE
  5
2B7
100
AcDbEntity
  8
KONSTRUKTIONSELEMENTE
100
AcDbLine
 62
7
  6
CONTINUOUS
 10
78.1819843708
 20
153.7715689554
 11
78.3585059105
 21
153.9650510747
  0
LINE
  5
2B8
100
AcDbEntity
  8
KONSTRUKTIONSELEMENTE
100
AcDbLine
 62
7
  6
CONTINUOUS
 10
74.7615060682
 20
154.9857457104
 11
74.542780789
 21
154.7734504717
  0
LINE
  5
2B9
100
AcDbEntity
  8
KONSTRUKTIONSELEMENTE
100
AcDbLine
 62
7
  6
CONTINUOUS
 10
73.6678796722
 20
153.924269517
 11
73.4491542887
 21
153.7119741771
  0
LINE
  5
2BA
100
AcDbEntity
  8
KONSTRUKTIONSELEMENTE
100
AcDbLine
 62
7
  6
CONTINUOUS
 10
76.0009429789
 20
152.5417141809
 11
75.8551260565
 21
152.4001839543
  0
LINE
  5
2BB
100
AcDbEntity
  8
KONSTRUKTIONSELEMENTE
100
AcDbLine
 62
7
  6
CONTINUOUS
 10
76.1218632838
 20
152.1253677367
 11
76.2676802061
 21
152.2668979633
  0
LINE
  5
2BC
100
AcDbEntity
  8
KONSTRUKTIONSELEMENTE
100
AcDbLine
 62
7
  6
CONTINUOUS
 10
72.6104822658
 20
152.5813672154
 11
72.4111342369
 21
152.4114982269
  0
LINE
  5
2BD
100
AcDbEntity
  8
KONSTRUKTIONSELEMENTE
100
AcDbLine
 62
7
  6
CONTINUOUS
 10
76.525351654
 20
156.2726823158
 11
75.5088610221
 21
155.5994015027
  0
LINE
  5
2BE
100
AcDbEntity
  8
KONSTRUKTIONSELEMENTE
100
AcDbLine
 62
7
  6
CONTINUOUS
 10
75.9744686826
 20
155.4484306767
 11
76.7368366565
 21
155.9533912866
  0
LINE
  5
2BF
100
AcDbEntity
  8
KONSTRUKTIONSELEMENTE
100
AcDbLine
 62
7
  6
CONTINUOUS
 10
77.9704993437
 20
154.0908600219
 11
77.2081313698
 21
153.5858994121
  0
LINE
  5
2C0
100
AcDbEntity
  8
KONSTRUKTIONSELEMENTE
100
AcDbLine
 62
7
  6
CONTINUOUS
 10
77.165493739
 20
153.0982881423
 11
78.1819843708
 21
153.7715689554
  0
LINE
  5
2C1
100
AcDbEntity
  8
KONSTRUKTIONSELEMENTE
100
AcDbLine
 62
7
  6
CONTINUOUS
 10
72.7005615367
 20
152.2677321455
 11
72.8409668145
 21
152.3548418623
  0
LINE
  5
2C2
100
AcDbEntity
  8
KONSTRUKTIONSELEMENTE
100
AcDbLine
 62
7
  6
CONTINUOUS
 10
76.7723681976
 20
156.3597340874
 11
76.525351654
 21
156.2726823158
  0
LINE
  5
2C3
100
AcDbEntity
  8
0
100
AcDbLine
 62
7
  6
CONTINUOUS
 10
78.4704265954
 20
160.4947524423
 11
73.5367978035
 21
158.8917192739
  0
LINE
  5
2C4
100
AcDbEntity
  8
KONSTRUKTIONSELEMENTE
100
AcDbLine
 62
7
  6
CONTINUOUS
 10
76.7368366565
 20
155.9533912866
 11
76.9414991006
 21
156.0123894769
  0
LINE
  5
2C5
100
AcDbEntity
  8
KONSTRUKTIONSELEMENTE
100
AcDbLine
 62
7
  6
CONTINUOUS
 10
71.7038215606
 20
151.4183874395
 11
74.147407936
 21
149.6780180459
  0
LINE
  5
2C6
100
AcDbEntity
  8
KONSTRUKTIONSELEMENTE
100
AcDbLine
 62
7
  6
CONTINUOUS
 10
74.3242361051
 20
149.9262957428
 11
73.2324209006
 21
150.7039076105
  0
LINE
  5
2C7
100
AcDbEntity
  8
KONSTRUKTIONSELEMENTE
100
AcDbLine
 62
7
  6
CONTINUOUS
 10
72.9204737409
 20
150.9260824002
 11
72.1406056961
 21
151.4815194782
  0
LINE
  5
2C8
100
AcDbEntity
  8
KONSTRUKTIONSELEMENTE
100
AcDbLine
 62
7
  6
CONTINUOUS
 10
73.1893368654
 20
152.2938350526
 11
73.3453105909
 21
152.182747554
  0
LINE
  5
2C9
100
AcDbEntity
  8
KONSTRUKTIONSELEMENTE
100
AcDbLine
 62
7
  6
CONTINUOUS
 10
73.4491542887
 20
153.7119741771
 11
74.8272966554
 21
152.2920903595
  0
LINE
  5
2CA
100
AcDbEntity
  8
KONSTRUKTIONSELEMENTE
100
AcDbLine
 62
7
  6
CONTINUOUS
 10
75.0460220389
 20
152.5043856994
 11
73.6678796722
 21
153.924269517
  0
LINE
  5
2CB
100
AcDbEntity
  8
KONSTRUKTIONSELEMENTE
100
AcDbLine
 62
7
  6
CONTINUOUS
 10
73.3453105909
 20
152.182747554
 11
73.4718128373
 21
152.0302805825
  0
LINE
  5
2CC
100
AcDbEntity
  8
KONSTRUKTIONSELEMENTE
100
AcDbLine
 62
7
  6
CONTINUOUS
 10
73.7006321997
 20
152.2415291477
 11
73.5741299532
 21
152.3939961192
  0
LINE
  5
2CD
100
AcDbEntity
  8
KONSTRUKTIONSELEMENTE
100
AcDbLine
 62
7
  6
CONTINUOUS
 10
76.325475149
 20
153.3014657976
 11
76.1396484349
 21
153.5658618928
  0
LINE
  5
2CE
100
AcDbEntity
  8
KONSTRUKTIONSELEMENTE
100
AcDbLine
 62
7
  6
CONTINUOUS
 10
75.5088610221
 20
155.5994015027
 11
77.165493739
 21
153.0982881423
  0
LINE
  5
2CF
100
AcDbEntity
  8
KONSTRUKTIONSELEMENTE
100
AcDbLine
 62
7
  6
CONTINUOUS
 10
77.2081313698
 20
153.5858994121
 11
75.9744686826
 21
155.4484306767
  0
LINE
  5
2D0
100
AcDbEntity
  8
KONSTRUKTIONSELEMENTE
100
AcDbLine
 62
7
  6
CONTINUOUS
 10
75.9209231557
 20
153.3535666541
 11
76.0622936704
 21
153.1349732565
  0
LINE
  5
2D1
100
AcDbEntity
  8
KONSTRUKTIONSELEMENTE
100
AcDbLine
 62
7
  6
CONTINUOUS
 10
73.8201828882
 20
151.9692737728
 11
73.7006321997
 21
152.2415291477
  0
LINE
  5
2D2
100
AcDbEntity
  8
KONSTRUKTIONSELEMENTE
100
AcDbLine
 62
7
  6
CONTINUOUS
 10
76.4303916206
 20
153.0474899631
 11
76.325475149
 21
153.3014657976
  0
LINE
  5
2D3
100
AcDbEntity
  8
KONSTRUKTIONSELEMENTE
100
AcDbLine
 62
7
  6
CONTINUOUS
 10
78.0415619166
 20
154.9035453397
 11
78.1401983034
 21
154.6626313933
  0
LINE
  5
2D4
100
AcDbEntity
  8
KONSTRUKTIONSELEMENTE
100
AcDbLine
 62
7
  6
CONTINUOUS
 10
76.0622936704
 20
153.1349732565
 11
76.1227539116
 21
152.9268001517
  0
LINE
  5
2D5
100
AcDbEntity
  8
KONSTRUKTIONSELEMENTE
100
AcDbLine
 62
7
  6
CONTINUOUS
 10
73.4718128373
 20
152.0302805825
 11
73.5168524727
 21
151.8734630475
  0
LINE
  5
2D6
100
AcDbEntity
  8
KONSTRUKTIONSELEMENTE
100
AcDbLine
 62
7
  6
CONTINUOUS
 10
78.4704265954
 20
154.5824794736
 11
78.4295684618
 21
154.7777364251
  0
LINE
  5
2D7
100
AcDbEntity
  8
KONSTRUKTIONSELEMENTE
100
AcDbLine
 62
7
  6
CONTINUOUS
 10
81.0404265954
 20
34.7128649357
 11
81.0404265954
 21
28.5610359393
  0
LINE
  5
2D8
100
AcDbEntity
  8
0
100
AcDbLine
 62
7
  6
CONTINUOUS
 10
81.4704265954
 20
119.1816793194
 11
81.4704265954
 21
112.2483171598
  0
LINE
  5
2D9
100
AcDbEntity
  8
KONSTRUKTIONSELEMENTE
100
AcDbLine
 62
7
  6
CONTINUOUS
 10
81.4704265954
 20
80.7455163909
 11
81.4704265954
 21
91.3521181087
  0
LINE
  5
2DA
100
AcDbEntity
  8
KONSTRUKTIONSELEMENTE
100
AcDbLine
 62
7
  6
CONTINUOUS
 10
81.4704265954
 20
111.8582147631
 11
81.4704265954
 21
112.2481959295
  0
LINE
  5
2DB
100
AcDbEntity
  8
KONSTRUKTIONSELEMENTE
100
AcDbLine
 62
7
  6
CONTINUOUS
 10
81.4704265954
 20
119.1816793194
 11
81.4704265954
 21
127.1546793194
  0
LINE
  5
2DC
100
AcDbEntity
  8
KONSTRUKTIONSELEMENTE
100
AcDbLine
 62
7
  6
CONTINUOUS
 10
82.2404265954
 20
27.7125078019
 11
82.2404265954
 21
34.5007329013
  0
LINE
  5
2DD
100
AcDbEntity
  8
KONSTRUKTIONSELEMENTE
100
AcDbLine
 62
7
  6
CONTINUOUS
 10
82.4704265954
 20
138.6606931189
 11
82.4704265954
 21
135.5615496585
  0
LINE
  5
2DE
100
AcDbEntity
  8
KONSTRUKTIONSELEMENTE
100
AcDbLine
 62
7
  6
CONTINUOUS
 10
82.4704265954
 20
129.6018107932
 11
82.4704265954
 21
123.0546793194
  0
LINE
  5
2DF
100
AcDbEntity
  8
KONSTRUKTIONSELEMENTE
100
AcDbLine
 62
7
  6
CONTINUOUS
 10
82.4704265954
 20
81.7225456179
 11
82.4704265954
 21
64.2121379778
  0
LINE
  5
2E0
100
AcDbEntity
  8
KONSTRUKTIONSELEMENTE
100
AcDbLine
 62
7
  6
CONTINUOUS
 10
82.7204265954
 20
90.6010576241
 11
82.7204265954
 21
112.6092752477
  0
LINE
  5
2E1
100
AcDbEntity
  8
KONSTRUKTIONSELEMENTE
100
AcDbLine
 62
7
  6
CONTINUOUS
 10
87.2204265954
 20
90.6010576241
 11
87.2204265954
 21
112.6092752477
  0
LINE
  5
2E2
100
AcDbEntity
  8
KONSTRUKTIONSELEMENTE
100
AcDbLine
 62
7
  6
CONTINUOUS
 10
87.4704265954
 20
138.6606931189
 11
87.4704265954
 21
135.5615496585
  0
LINE
  5
2E3
100
AcDbEntity
  8
KONSTRUKTIONSELEMENTE
100
AcDbLine
 62
7
  6
CONTINUOUS
 10
87.4704265954
 20
129.6018107932
 11
87.4704265954
 21
123.0546793194
  0
LINE
  5
2E4
100
AcDbEntity
  8
KONSTRUKTIONSELEMENTE
100
AcDbLine
 62
7
  6
CONTINUOUS
 10
87.4704265954
 20
81.7225456179
 11
87.4704265954
 21
64.2121379778
  0
LINE
  5
2E5
100
AcDbEntity
  8
KONSTRUKTIONSELEMENTE
100
AcDbLine
 62
7
  6
CONTINUOUS
 10
87.7004265954
 20
27.7125078019
 11
87.7004265954
 21
34.5007329013
  0
LINE
  5
2E6
100
AcDbEntity
  8
KONSTRUKTIONSELEMENTE
100
AcDbLine
 62
7
  6
CONTINUOUS
 10
88.4704265954
 20
112.2483171598
 11
88.4704265954
 21
111.8582147631
  0
LINE
  5
2E7
100
AcDbEntity
  8
KONSTRUKTIONSELEMENTE
100
AcDbLine
 62
7
  6
CONTINUOUS
 10
88.4704265954
 20
91.3521181087
 11
88.4704265954
 21
80.7455163909
  0
LINE
  5
2E8
100
AcDbEntity
  8
0
100
AcDbLine
 62
7
  6
CONTINUOUS
 10
88.4704265954
 20
112.2483171598
 11
88.4704265954
 21
119.1816793194
  0
LINE
  5
2E9
100
AcDbEntity
  8
KONSTRUKTIONSELEMENTE
100
AcDbLine
 62
7
  6
CONTINUOUS
 10
88.4704265954
 20
119.1816793194
 11
88.4704265954
 21
127.1546793194
  0
LINE
  5
2EA
100
AcDbEntity
  8
KONSTRUKTIONSELEMENTE
100
AcDbLine
 62
7
  6
CONTINUOUS
 10
88.9004265954
 20
28.5610359393
 11
88.9004265954
 21
34.7128649357
  0
LINE
  5
2EB
100
AcDbEntity
  8
KONSTRUKTIONSELEMENTE
100
AcDbLine
 62
7
  6
CONTINUOUS
 10
92.6052666663
 20
156.7928939692
 11
91.4704265954
 21
155.0307007732
  0
LINE
  5
2EC
100
AcDbEntity
  8
KONSTRUKTIONSELEMENTE
100
AcDbLine
 62
7
  6
CONTINUOUS
 10
91.4704265954
 20
154.4677292301
 11
91.962986418
 21
155.2325819969
  0
LINE
  5
2ED
100
AcDbEntity
  8
KONSTRUKTIONSELEMENTE
100
AcDbLine
 62
7
  6
CONTINUOUS
 10
92.1703437615
 20
155.5545689528
 11
92.688737217
 21
156.3595364927
  0
LINE
  5
2EE
100
AcDbEntity
  8
KONSTRUKTIONSELEMENTE
100
AcDbLine
 62
7
  6
CONTINUOUS
 10
93.4454851903
 20
155.1889104394
 11
93.2990957808
 21
155.0554223773
  0
LINE
  5
2EF
100
AcDbEntity
  8
KONSTRUKTIONSELEMENTE
100
AcDbLine
 62
7
  6
CONTINUOUS
 10
93.5208045605
 20
154.8367228714
 11
93.66719397
 21
154.9702109334
  0
LINE
  5
2F0
100
AcDbEntity
  8
KONSTRUKTIONSELEMENTE
100
AcDbLine
 62
7
  6
CONTINUOUS
 10
94.5483596378
 20
154.6042683447
 11
94.2917406757
 21
154.4078406661
  0
LINE
  5
2F1
100
AcDbEntity
  8
KONSTRUKTIONSELEMENTE
100
AcDbLine
 62
7
  6
CONTINUOUS
 10
94.5127579469
 20
154.1979326339
 11
94.7254204852
 21
154.3480775251
  0
LINE
  5
2F2
100
AcDbEntity
  8
KONSTRUKTIONSELEMENTE
100
AcDbLine
 62
7
  6
CONTINUOUS
 10
75.8951360841
 20
151.9942578069
 11
76.1218632838
 21
152.1253677367
  0
LINE
  5
2F3
100
AcDbEntity
  8
KONSTRUKTIONSELEMENTE
100
AcDbLine
 62
7
  6
CONTINUOUS
 10
75.8551260565
 20
152.4001839543
 11
75.6648531434
 21
152.3044566277
  0
LINE
  5
2F4
100
AcDbEntity
  8
KONSTRUKTIONSELEMENTE
100
AcDbLine
 62
7
  6
CONTINUOUS
 10
93.2544321631
 20
154.7045824075
 11
93.5208045605
 21
154.8367228714
  0
LINE
  5
2F5
100
AcDbEntity
  8
KONSTRUKTIONSELEMENTE
100
AcDbLine
 62
7
  6
CONTINUOUS
 10
94.7978561397
 20
154.7194306992
 11
94.5483596378
 21
154.6042683447
  0
LINE
  5
2F6
100
AcDbEntity
  8
KONSTRUKTIONSELEMENTE
100
AcDbLine
 62
7
  6
CONTINUOUS
 10
93.2990957808
 20
155.0554223773
 11
93.1445532357
 21
155.0031054829
  0
LINE
  5
2F7
100
AcDbEntity
  8
KONSTRUKTIONSELEMENTE
100
AcDbLine
 62
7
  6
CONTINUOUS
 10
94.7254204852
 20
154.3480775251
 11
94.9309608097
 21
154.4169573515
  0
LINE
  5
2F8
100
AcDbEntity
  8
KONSTRUKTIONSELEMENTE
100
AcDbLine
 62
7
  6
CONTINUOUS
 10
97.4898101356
 20
148.2319714632
 11
97.2947180808
 21
148.1975039118
  0
LINE
  5
2F9
100
AcDbEntity
  8
KONSTRUKTIONSELEMENTE
100
AcDbLine
 62
7
  6
CONTINUOUS
 10
97.1292535787
 20
149.4647270272
 11
97.3243457145
 21
149.4991946162
  0
LINE
  5
2FA
100
AcDbEntity
  8
KONSTRUKTIONSELEMENTE
100
AcDbLine
 62
7
  6
CONTINUOUS
 10
98.0557670214
 20
149.8943532128
 11
98.2508592384
 21
149.9288208394
  0
LINE
  5
2FB
100
AcDbEntity
  8
KONSTRUKTIONSELEMENTE
100
AcDbLine
 62
7
  6
CONTINUOUS
 10
94.3133964789
 20
151.9224462198
 11
94.636565982
 21
151.9676387126
  0
LINE
  5
2FC
100
AcDbEntity
  8
KONSTRUKTIONSELEMENTE
100
AcDbLine
 62
7
  6
CONTINUOUS
 10
97.206480961
 20
147.9325974752
 11
97.5387590042
 21
147.9746788528
  0
LINE
  5
2FD
100
AcDbEntity
  8
KONSTRUKTIONSELEMENTE
100
AcDbLine
 62
7
  6
CONTINUOUS
 10
98.3390963177
 20
150.1937272573
 11
98.0068181528
 21
150.1516458232
  0
LINE
  5
2FE
100
AcDbEntity
  8
KONSTRUKTIONSELEMENTE
100
AcDbLine
 62
7
  6
CONTINUOUS
 10
97.2947180808
 20
148.1975039118
 11
97.0782542078
 21
148.2091258026
  0
LINE
  5
2FF
100
AcDbEntity
  8
KONSTRUKTIONSELEMENTE
100
AcDbLine
 62
7
  6
CONTINUOUS
 10
98.2508592384
 20
149.9288208394
 11
98.4673230709
 21
149.9171989298
  0
LINE
  5
300
100
AcDbEntity
  8
KONSTRUKTIONSELEMENTE
100
AcDbLine
 62
7
  6
CONTINUOUS
 10
73.1807201212
 20
152.6118205676
 11
72.8843412636
 21
152.6357982457
  0
LINE
  5
301
100
AcDbEntity
  8
KONSTRUKTIONSELEMENTE
100
AcDbLine
 62
7
  6
CONTINUOUS
 10
96.9107392237
 20
147.9634550925
 11
97.206480961
 21
147.9325974752
  0
LINE
  5
302
100
AcDbEntity
  8
KONSTRUKTIONSELEMENTE
100
AcDbLine
 62
7
  6
CONTINUOUS
 10
98.6348380347
 20
150.1628696305
 11
98.3390963177
 21
150.1937272573
  0
LINE
  5
303
100
AcDbEntity
  8
KONSTRUKTIONSELEMENTE
100
AcDbLine
 62
7
  6
CONTINUOUS
 10
75.3367652246
 20
151.9860137697
 11
75.6604067513
 21
151.9443329875
  0
LINE
  5
304
100
AcDbEntity
  8
KONSTRUKTIONSELEMENTE
100
AcDbLine
 62
7
  6
CONTINUOUS
 10
97.3243457145
 20
149.4991946162
 11
97.4829024619
 21
149.4607210723
  0
LINE
  5
305
100
AcDbEntity
  8
KONSTRUKTIONSELEMENTE
100
AcDbLine
 62
7
  6
CONTINUOUS
 10
75.466578074
 20
152.2899144356
 11
75.2603009105
 21
152.3565573139
  0
LINE
  5
306
100
AcDbEntity
  8
KONSTRUKTIONSELEMENTE
100
AcDbLine
 62
7
  6
CONTINUOUS
 10
75.2673197015
 20
151.2504434988
 11
73.8062798569
 21
151.7296970845
  0
LINE
  5
307
100
AcDbEntity
  8
KONSTRUKTIONSELEMENTE
100
AcDbLine
 62
7
  6
CONTINUOUS
 10
73.7334340322
 20
151.4073610652
 11
75.0610201147
 21
150.9607861069
  0
LINE
  5
308
100
AcDbEntity
  8
KONSTRUKTIONSELEMENTE
100
AcDbLine
 62
7
  6
CONTINUOUS
 10
73.0038919522
 20
152.3635428708
 11
73.1893368654
 21
152.2938350526
  0
LINE
  5
309
100
AcDbEntity
  8
KONSTRUKTIONSELEMENTE
100
AcDbLine
 62
7
  6
CONTINUOUS
 10
73.3661650345
 20
152.5421127495
 11
73.1807201212
 21
152.6118205676
  0
LINE
  5
30A
100
AcDbEntity
  8
KONSTRUKTIONSELEMENTE
100
AcDbLine
 62
7
  6
CONTINUOUS
 10
75.0860319349
 20
152.0984594788
 11
75.3367652246
 21
151.9860137697
  0
LINE
  5
30B
100
AcDbEntity
  8
KONSTRUKTIONSELEMENTE
100
AcDbLine
 62
7
  6
CONTINUOUS
 10
77.1390554304
 20
155.9901192355
 11
77.3295057446
 21
155.8865804132
  0
LINE
  5
30C
100
AcDbEntity
  8
KONSTRUKTIONSELEMENTE
100
AcDbLine
 62
7
  6
CONTINUOUS
 10
75.2603009105
 20
152.3565573139
 11
75.0460220389
 21
152.5043856994
  0
LINE
  5
30D
100
AcDbEntity
  8
KONSTRUKTIONSELEMENTE
100
AcDbLine
 62
7
  6
CONTINUOUS
 10
77.5483808034
 20
156.1081159371
 11
77.3226830876
 21
156.2648697818
  0
LINE
  5
30E
100
AcDbEntity
  8
KONSTRUKTIONSELEMENTE
100
AcDbLine
 62
7
  6
CONTINUOUS
 10
73.5741299532
 20
152.3939961192
 11
73.3661650345
 21
152.5421127495
  0
LINE
  5
30F
100
AcDbEntity
  8
KONSTRUKTIONSELEMENTE
100
AcDbLine
 62
7
  6
CONTINUOUS
 10
74.8272966554
 20
152.2920903595
 11
75.0860319349
 21
152.0984594788
  0
LINE
  5
310
100
AcDbEntity
  8
KONSTRUKTIONSELEMENTE
100
AcDbLine
 62
7
  6
CONTINUOUS
 10
77.3295057446
 20
155.8865804132
 11
77.512849361
 21
155.7017729873
  0
LINE
  5
311
100
AcDbEntity
  8
KONSTRUKTIONSELEMENTE
100
AcDbLine
 62
7
  6
CONTINUOUS
 10
74.542780789
 20
154.7734504717
 11
75.9209231557
 21
153.3535666541
  0
LINE
  5
312
100
AcDbEntity
  8
KONSTRUKTIONSELEMENTE
100
AcDbLine
 62
7
  6
CONTINUOUS
 10
76.1396484349
 20
153.5658618928
 11
74.7615060682
 21
154.9857457104
  0
LINE
  5
313
100
AcDbEntity
  8
KONSTRUKTIONSELEMENTE
100
AcDbLine
 62
7
  6
CONTINUOUS
 10
77.766972019
 20
155.8700931906
 11
77.5483808034
 21
156.1081159371
  0
LINE
  5
314
100
AcDbEntity
  8
KONSTRUKTIONSELEMENTE
100
AcDbLine
 62
7
  6
CONTINUOUS
 10
77.512849361
 20
155.7017729873
 11
78.0415619166
 21
154.9035453397
  0
LINE
  5
315
100
AcDbEntity
  8
KONSTRUKTIONSELEMENTE
100
AcDbLine
 62
7
  6
CONTINUOUS
 10
78.2956845745
 20
155.071865543
 11
77.766972019
 21
155.8700931906
  0
LINE
  5
316
100
AcDbEntity
  8
KONSTRUKTIONSELEMENTE
100
AcDbLine
 62
7
  6
CONTINUOUS
 10
78.4295684618
 20
154.7777364251
 11
78.2956845745
 21
155.071865543
  0
LINE
  5
317
100
AcDbEntity
  8
KONSTRUKTIONSELEMENTE
100
AcDbLine
 62
7
  6
CONTINUOUS
 10
93.5938275766
 20
155.7007440375
 11
93.6101318928
 21
155.5384029614
  0
LINE
  5
318
100
AcDbEntity
  8
KONSTRUKTIONSELEMENTE
100
AcDbLine
 62
7
  6
CONTINUOUS
 10
96.6267086467
 20
148.7277149061
 11
96.6205023552
 21
148.8928307041
  0
LINE
  5
319
100
AcDbEntity
  8
0
100
AcDbLine
 62
7
  6
CONTINUOUS
 10
91.4704265954
 20
267.5929270963
 11
91.4704265954
 21
144.7164315425
  0
LINE
  5
31A
100
AcDbEntity
  8
KONSTRUKTIONSELEMENTE
100
AcDbLine
 62
7
  6
CONTINUOUS
 10
92.9704265954
 20
91.3521181087
 11
92.9704265954
 21
80.7455163909
  0
LINE
  5
31B
100
AcDbEntity
  8
KONSTRUKTIONSELEMENTE
100
AcDbLine
 62
7
  6
CONTINUOUS
 10
93.7029918989
 20
119.1816793194
 11
93.7029918989
 21
122.8525610124
  0
LINE
  5
31C
100
AcDbEntity
  8
KONSTRUKTIONSELEMENTE
100
AcDbLine
 62
7
  6
CONTINUOUS
 10
93.8664002297
 20
155.3733679481
 11
93.8765042903
 21
155.6705434253
  0
LINE
  5
31D
100
AcDbEntity
  8
KONSTRUKTIONSELEMENTE
100
AcDbLine
 62
7
  6
CONTINUOUS
 10
93.3472980048
 20
153.1921027675
 11
93.3188187587
 21
152.8670323646
  0
LINE
  5
31E
100
AcDbEntity
  8
KONSTRUKTIONSELEMENTE
100
AcDbLine
 62
7
  6
CONTINUOUS
 10
96.0871241169
 20
153.4949666443
 11
96.1156050339
 21
153.8200354295
  0
LINE
  5
31F
100
AcDbEntity
  8
KONSTRUKTIONSELEMENTE
100
AcDbLine
 62
7
  6
CONTINUOUS
 10
96.3764614115
 20
149.1156557537
 11
96.3095960948
 21
148.8046598678
  0
LINE
  5
320
100
AcDbEntity
  8
KONSTRUKTIONSELEMENTE
100
AcDbLine
 62
7
  6
CONTINUOUS
 10
96.6205023552
 20
148.8928307041
 11
96.6722031488
 21
149.0847981364
  0
LINE
  5
321
100
AcDbEntity
  8
KONSTRUKTIONSELEMENTE
100
AcDbLine
 62
7
  6
CONTINUOUS
 10
92.6040007343
 20
153.2254403437
 11
93.0144681424
 21
154.7072763447
  0
LINE
  5
322
100
AcDbEntity
  8
KONSTRUKTIONSELEMENTE
100
AcDbLine
 62
7
  6
CONTINUOUS
 10
93.6562279079
 20
153.0747600832
 11
93.7144255101
 21
153.2835763327
  0
LINE
  5
323
100
AcDbEntity
  8
KONSTRUKTIONSELEMENTE
100
AcDbLine
 62
7
  6
CONTINUOUS
 10
92.689080691
 20
154.7649823728
 11
92.3050197045
 21
153.417982032
  0
LINE
  5
324
100
AcDbEntity
  8
KONSTRUKTIONSELEMENTE
100
AcDbLine
 62
7
  6
CONTINUOUS
 10
93.6101318928
 20
155.5384029614
 11
93.5491639589
 21
155.3499040677
  0
LINE
  5
325
100
AcDbEntity
  8
KONSTRUKTIONSELEMENTE
100
AcDbLine
 62
7
  6
CONTINUOUS
 10
93.8054322958
 20
155.1848690543
 11
93.8664002297
 21
155.3733679481
  0
LINE
  5
326
100
AcDbEntity
  8
KONSTRUKTIONSELEMENTE
100
AcDbLine
 62
7
  6
CONTINUOUS
 10
93.4494519384
 20
153.4472017072
 11
93.3472980048
 21
153.1921027675
  0
LINE
  5
327
100
AcDbEntity
  8
KONSTRUKTIONSELEMENTE
100
AcDbLine
 62
7
  6
CONTINUOUS
 10
95.7781942445
 20
153.612309361
 11
95.6831608694
 21
153.43847712
  0
LINE
  5
328
100
AcDbEntity
  8
KONSTRUKTIONSELEMENTE
100
AcDbLine
 62
7
  6
CONTINUOUS
 10
93.7144255101
 20
153.2835763327
 11
93.8534133765
 21
153.5036927033
  0
LINE
  5
329
100
AcDbEntity
  8
KONSTRUKTIONSELEMENTE
100
AcDbLine
 62
7
  6
CONTINUOUS
 10
93.5491639589
 20
155.3499040677
 11
93.4454851903
 21
155.1889104394
  0
LINE
  5
32A
100
AcDbEntity
  8
KONSTRUKTIONSELEMENTE
100
AcDbLine
 62
7
  6
CONTINUOUS
 10
93.66719397
 20
154.9702109334
 11
93.8054322958
 21
155.1848690543
  0
LINE
  5
32B
100
AcDbEntity
  8
KONSTRUKTIONSELEMENTE
100
AcDbLine
 62
7
  6
CONTINUOUS
 10
96.5439763956
 20
149.3613264638
 11
96.3764614115
 21
149.1156557537
  0
LINE
  5
32C
100
AcDbEntity
  8
KONSTRUKTIONSELEMENTE
100
AcDbLine
 62
7
  6
CONTINUOUS
 10
93.6323961053
 20
153.7136007355
 11
93.4494519384
 21
153.4472017072
  0
LINE
  5
32D
100
AcDbEntity
  8
KONSTRUKTIONSELEMENTE
100
AcDbLine
 62
7
  6
CONTINUOUS
 10
95.9041781406
 20
153.2285690878
 11
96.0871241169
 21
153.4949666443
  0
LINE
  5
32E
100
AcDbEntity
  8
KONSTRUKTIONSELEMENTE
100
AcDbLine
 62
7
  6
CONTINUOUS
 10
96.6722031488
 20
149.0847981364
 11
96.8031818675
 21
149.2575298703
  0
LINE
  5
32F
100
AcDbEntity
  8
KONSTRUKTIONSELEMENTE
100
AcDbLine
 62
7
  6
CONTINUOUS
 10
98.8520033304
 20
149.0876139474
 11
98.7210246523
 21
148.9148822322
  0
LINE
  5
330
100
AcDbEntity
  8
KONSTRUKTIONSELEMENTE
100
AcDbLine
 62
7
  6
CONTINUOUS
 10
94.2917406757
 20
154.4078406661
 11
93.6323961053
 21
153.7136007355
  0
LINE
  5
331
100
AcDbEntity
  8
KONSTRUKTIONSELEMENTE
100
AcDbLine
 62
7
  6
CONTINUOUS
 10
93.8534133765
 20
153.5036927033
 11
94.5127579469
 21
154.1979326339
  0
LINE
  5
332
100
AcDbEntity
  8
KONSTRUKTIONSELEMENTE
100
AcDbLine
 62
7
  6
CONTINUOUS
 10
94.9560282574
 20
153.3367952488
 11
94.6922904539
 21
153.0590993025
  0
LINE
  5
333
100
AcDbEntity
  8
KONSTRUKTIONSELEMENTE
100
AcDbLine
 62
7
  6
CONTINUOUS
 10
95.0238163606
 20
152.7442372542
 11
94.6721658944
 21
152.3739759276
  0
LINE
  5
334
100
AcDbEntity
  8
KONSTRUKTIONSELEMENTE
100
AcDbLine
 62
7
  6
CONTINUOUS
 10
94.8492268649
 20
152.1177852377
 11
95.5085714353
 21
152.8120251683
  0
LINE
  5
335
100
AcDbEntity
  8
KONSTRUKTIONSELEMENTE
100
AcDbLine
 62
7
  6
CONTINUOUS
 10
96.7907692845
 20
149.5877614663
 11
96.5439763956
 21
149.3613264638
  0
LINE
  5
336
100
AcDbEntity
  8
KONSTRUKTIONSELEMENTE
100
AcDbLine
 62
7
  6
CONTINUOUS
 10
97.8282945108
 20
148.1089370617
 11
98.0750873592
 21
148.3353720453
  0
LINE
  5
337
100
AcDbEntity
  8
KONSTRUKTIONSELEMENTE
100
AcDbLine
 62
7
  6
CONTINUOUS
 10
96.8031818675
 20
149.2575298703
 11
96.9555323234
 21
149.3841721244
  0
LINE
  5
338
100
AcDbEntity
  8
KONSTRUKTIONSELEMENTE
100
AcDbLine
 62
7
  6
CONTINUOUS
 10
97.8158819278
 20
148.4391686577
 11
97.6635313909
 21
148.312526366
  0
LINE
  5
339
100
AcDbEntity
  8
KONSTRUKTIONSELEMENTE
100
AcDbLine
 62
7
  6
CONTINUOUS
 10
98.8278796277
 20
148.6844433658
 11
98.9802300836
 21
148.8110856199
  0
LINE
  5
33A
100
AcDbEntity
  8
KONSTRUKTIONSELEMENTE
100
AcDbLine
 62
7
  6
CONTINUOUS
 10
94.636565982
 20
151.9676387126
 11
94.8492268649
 21
152.1177852377
  0
LINE
  5
33B
100
AcDbEntity
  8
KONSTRUKTIONSELEMENTE
100
AcDbLine
 62
7
  6
CONTINUOUS
 10
94.6721658944
 20
152.3739759276
 11
94.5034613428
 21
152.2701120926
  0
LINE
  5
33C
100
AcDbEntity
  8
KONSTRUKTIONSELEMENTE
100
AcDbLine
 62
7
  6
CONTINUOUS
 10
97.1747481619
 20
149.821810295
 11
96.7907692845
 21
149.5877614663
  0
LINE
  5
33D
100
AcDbEntity
  8
KONSTRUKTIONSELEMENTE
100
AcDbLine
 62
7
  6
CONTINUOUS
 10
97.5800977576
 20
150.0097717348
 11
97.1747481619
 21
149.821810295
  0
LINE
  5
33E
100
AcDbEntity
  8
KONSTRUKTIONSELEMENTE
100
AcDbLine
 62
7
  6
CONTINUOUS
 10
97.5711395412
 20
149.7256274901
 11
97.6869537114
 21
149.7793307586
  0
LINE
  5
33F
100
AcDbEntity
  8
KONSTRUKTIONSELEMENTE
100
AcDbLine
 62
7
  6
CONTINUOUS
 10
96.9555323234
 20
149.3841721244
 11
97.1292535787
 21
149.4647270272
  0
LINE
  5
340
100
AcDbEntity
  8
KONSTRUKTIONSELEMENTE
100
AcDbLine
 62
7
  6
CONTINUOUS
 10
97.6635313909
 20
148.312526366
 11
97.4898101356
 21
148.2319714632
  0
LINE
  5
341
100
AcDbEntity
  8
KONSTRUKTIONSELEMENTE
100
AcDbLine
 62
7
  6
CONTINUOUS
 10
97.5387590042
 20
147.9746788528
 11
97.8282945108
 21
148.1089370617
  0
LINE
  5
342
100
AcDbEntity
  8
KONSTRUKTIONSELEMENTE
100
AcDbLine
 62
7
  6
CONTINUOUS
 10
98.0068181528
 20
150.1516458232
 11
97.5800977576
 21
150.0097717348
  0
LINE
  5
343
100
AcDbEntity
  8
KONSTRUKTIONSELEMENTE
100
AcDbLine
 62
7
  6
CONTINUOUS
 10
97.6869537114
 20
149.7793307586
 11
98.0557670214
 21
149.8943532128
  0
LINE
  5
344
100
AcDbEntity
  8
KONSTRUKTIONSELEMENTE
100
AcDbLine
 62
7
  6
CONTINUOUS
 10
75.6604067513
 20
151.9443329875
 11
75.8951360841
 21
151.9942578069
  0
LINE
  5
345
100
AcDbEntity
  8
KONSTRUKTIONSELEMENTE
100
AcDbLine
 62
7
  6
CONTINUOUS
 10
72.8843412636
 20
152.6357982457
 11
72.6104822658
 21
152.5813672154
  0
LINE
  5
346
100
AcDbEntity
  8
KONSTRUKTIONSELEMENTE
100
AcDbLine
 62
7
  6
CONTINUOUS
 10
95.1210273136
 20
154.7646215743
 11
94.7978561397
 21
154.7194306992
  0
LINE
  5
347
100
AcDbEntity
  8
KONSTRUKTIONSELEMENTE
100
AcDbLine
 62
7
  6
CONTINUOUS
 10
75.6648531434
 20
152.3044566277
 11
75.466578074
 21
152.2899144356
  0
LINE
  5
348
100
AcDbEntity
  8
KONSTRUKTIONSELEMENTE
100
AcDbLine
 62
7
  6
CONTINUOUS
 10
72.8409668145
 20
152.3548418623
 11
73.0038919522
 21
152.3635428708
  0
LINE
  5
349
100
AcDbEntity
  8
KONSTRUKTIONSELEMENTE
100
AcDbLine
 62
7
  6
CONTINUOUS
 10
77.0122781422
 20
156.3655171061
 11
76.7723681976
 21
156.3597340874
  0
LINE
  5
34A
100
AcDbEntity
  8
KONSTRUKTIONSELEMENTE
100
AcDbLine
 62
7
  6
CONTINUOUS
 10
93.0144681424
 20
154.7072763447
 11
93.2544321631
 21
154.7045824075
  0
LINE
  5
34B
100
AcDbEntity
  8
KONSTRUKTIONSELEMENTE
100
AcDbLine
 62
7
  6
CONTINUOUS
 10
94.5034613428
 20
152.2701120926
 11
94.3050400753
 21
152.2825007609
  0
LINE
  5
34C
100
AcDbEntity
  8
KONSTRUKTIONSELEMENTE
100
AcDbLine
 62
7
  6
CONTINUOUS
 10
94.9309608097
 20
154.4169573515
 11
95.1293820464
 21
154.4045686509
  0
LINE
  5
34D
100
AcDbEntity
  8
KONSTRUKTIONSELEMENTE
100
AcDbLine
 62
7
  6
CONTINUOUS
 10
76.9414991006
 20
156.0123894769
 11
77.1390554304
 21
155.9901192355
  0
LINE
  5
34E
100
AcDbEntity
  8
KONSTRUKTIONSELEMENTE
100
AcDbLine
 62
7
  6
CONTINUOUS
 10
93.1445532357
 20
155.0031054829
 11
92.98185951
 21
155.0319584969
  0
LINE
  5
34F
100
AcDbEntity
  8
KONSTRUKTIONSELEMENTE
100
AcDbLine
 62
7
  6
CONTINUOUS
 10
94.0781378946
 20
151.969820648
 11
94.3133964789
 21
151.9224462198
  0
LINE
  5
350
100
AcDbEntity
  8
KONSTRUKTIONSELEMENTE
100
AcDbLine
 62
7
  6
CONTINUOUS
 10
95.3562842002
 20
154.7172487354
 11
95.1210273136
 21
154.7646215743
  0
LINE
  5
351
100
AcDbEntity
  8
KONSTRUKTIONSELEMENTE
100
AcDbLine
 62
7
  6
CONTINUOUS
 10
77.3226830876
 20
156.2648697818
 11
77.0122781422
 21
156.3655171061
  0
LINE
  5
352
100
AcDbEntity
  8
KONSTRUKTIONSELEMENTE
100
AcDbLine
 62
7
  6
CONTINUOUS
 10
97.0782542078
 20
148.2091258026
 11
96.898326661
 21
148.2936866979
  0
LINE
  5
353
100
AcDbEntity
  8
KONSTRUKTIONSELEMENTE
100
AcDbLine
 62
7
  6
CONTINUOUS
 10
97.4829024619
 20
149.4607210723
 11
97.6628300087
 21
149.3761601771
  0
LINE
  5
354
100
AcDbEntity
  8
KONSTRUKTIONSELEMENTE
100
AcDbLine
 62
7
  6
CONTINUOUS
 10
97.9309946348
 20
149.5565056996
 11
97.5711395412
 21
149.7256274901
  0
LINE
  5
355
100
AcDbEntity
  8
KONSTRUKTIONSELEMENTE
100
AcDbLine
 62
7
  6
CONTINUOUS
 10
98.4673230709
 20
149.9171989298
 11
98.6472506177
 21
149.8326380345
  0
LINE
  5
356
100
AcDbEntity
  8
KONSTRUKTIONSELEMENTE
100
AcDbLine
 62
7
  6
CONTINUOUS
 10
94.3050400753
 20
152.2825007609
 11
94.1137394893
 21
152.3761562575
  0
LINE
  5
357
100
AcDbEntity
  8
KONSTRUKTIONSELEMENTE
100
AcDbLine
 62
7
  6
CONTINUOUS
 10
95.1293820464
 20
154.4045686509
 11
95.3206843186
 21
154.3109115528
  0
LINE
  5
358
100
AcDbEntity
  8
KONSTRUKTIONSELEMENTE
100
AcDbLine
 62
7
  6
CONTINUOUS
 10
96.6301629777
 20
148.1133390491
 11
96.9107392237
 21
147.9634550925
  0
LINE
  5
359
100
AcDbEntity
  8
KONSTRUKTIONSELEMENTE
100
AcDbLine
 62
7
  6
CONTINUOUS
 10
98.9154152437
 20
150.0129835571
 11
98.6348380347
 21
150.1628696305
  0
LINE
  5
35A
100
AcDbEntity
  8
KONSTRUKTIONSELEMENTE
100
AcDbLine
 62
7
  6
CONTINUOUS
 10
93.850001655
 20
152.0984602787
 11
94.0781378946
 21
151.969820648
  0
LINE
  5
35B
100
AcDbEntity
  8
KONSTRUKTIONSELEMENTE
100
AcDbLine
 62
7
  6
CONTINUOUS
 10
95.5844221221
 20
154.5886074992
 11
95.3562842002
 21
154.7172487354
  0
LINE
  5
35C
100
AcDbEntity
  8
KONSTRUKTIONSELEMENTE
100
AcDbLine
 62
7
  6
CONTINUOUS
 10
92.3050197045
 20
153.417982032
 11
92.6040007343
 21
153.2254403437
  0
LINE
  5
35D
100
AcDbEntity
  8
KONSTRUKTIONSELEMENTE
100
AcDbLine
 62
7
  6
CONTINUOUS
 10
91.962986418
 20
155.2325819969
 11
92.689080691
 21
154.7649823728
  0
LINE
  5
35E
100
AcDbEntity
  8
KONSTRUKTIONSELEMENTE
100
AcDbLine
 62
7
  6
CONTINUOUS
 10
92.98185951
 20
155.0319584969
 11
92.1703437615
 21
155.5545689528
  0
LINE
  5
35F
100
AcDbEntity
  8
KONSTRUKTIONSELEMENTE
100
AcDbLine
 62
7
  6
CONTINUOUS
 10
92.688737217
 20
156.3595364927
 11
93.5002529654
 21
155.8369260368
  0
LINE
  5
360
100
AcDbEntity
  8
KONSTRUKTIONSELEMENTE
100
AcDbLine
 62
7
  6
CONTINUOUS
 10
93.6303400139
 20
156.1327539159
 11
92.6052666663
 21
156.7928939692
  0
LINE
  5
361
100
AcDbEntity
  8
KONSTRUKTIONSELEMENTE
100
AcDbLine
 62
7
  6
CONTINUOUS
 10
96.898326661
 20
148.2936866979
 11
96.7763061993
 21
148.4050992273
  0
LINE
  5
362
100
AcDbEntity
  8
KONSTRUKTIONSELEMENTE
100
AcDbLine
 62
7
  6
CONTINUOUS
 10
97.6628300087
 20
149.3761601771
 11
97.7848504704
 21
149.2647476476
  0
LINE
  5
363
100
AcDbEntity
  8
KONSTRUKTIONSELEMENTE
100
AcDbLine
 62
7
  6
CONTINUOUS
 10
98.6472506177
 20
149.8326380345
 11
98.7692710794
 21
149.7212255051
  0
LINE
  5
364
100
AcDbEntity
  8
KONSTRUKTIONSELEMENTE
100
AcDbLine
 62
7
  6
CONTINUOUS
 10
93.5184757483
 20
152.413322327
 11
93.850001655
 21
152.0984602787
  0
LINE
  5
365
100
AcDbEntity
  8
KONSTRUKTIONSELEMENTE
100
AcDbLine
 62
7
  6
CONTINUOUS
 10
94.1137394893
 20
152.3761562575
 11
93.7822135826
 21
152.6910183057
  0
LINE
  5
366
100
AcDbEntity
  8
KONSTRUKTIONSELEMENTE
100
AcDbLine
 62
7
  6
CONTINUOUS
 10
94.6922904539
 20
153.0590993025
 11
95.0238163606
 21
152.7442372542
  0
LINE
  5
367
100
AcDbEntity
  8
KONSTRUKTIONSELEMENTE
100
AcDbLine
 62
7
  6
CONTINUOUS
 10
95.5085714353
 20
152.8120251683
 11
94.9560282574
 21
153.3367952488
  0
LINE
  5
368
100
AcDbEntity
  8
KONSTRUKTIONSELEMENTE
100
AcDbLine
 62
7
  6
CONTINUOUS
 10
95.6831608694
 20
153.43847712
 11
95.9041781406
 21
153.2285690878
  0
LINE
  5
369
100
AcDbEntity
  8
KONSTRUKTIONSELEMENTE
100
AcDbLine
 62
7
  6
CONTINUOUS
 10
95.3206843186
 20
154.3109115528
 11
95.6522102254
 21
153.9960495046
  0
LINE
  5
36A
100
AcDbEntity
  8
KONSTRUKTIONSELEMENTE
100
AcDbLine
 62
7
  6
CONTINUOUS
 10
95.9159480289
 20
154.2737454509
 11
95.5844221221
 21
154.5886074992
  0
LINE
  5
36B
100
AcDbEntity
  8
KONSTRUKTIONSELEMENTE
100
AcDbLine
 62
7
  6
CONTINUOUS
 10
93.8093380558
 20
155.9415598257
 11
93.6303400139
 21
156.1327539159
  0
LINE
  5
36C
100
AcDbEntity
  8
KONSTRUKTIONSELEMENTE
100
AcDbLine
 62
7
  6
CONTINUOUS
 10
96.4653999338
 20
148.3169283886
 11
96.6301629777
 21
148.1133390491
  0
LINE
  5
36D
100
AcDbEntity
  8
KONSTRUKTIONSELEMENTE
100
AcDbLine
 62
7
  6
CONTINUOUS
 10
98.0957566953
 20
149.3529184675
 11
97.9309946348
 21
149.5565056996
  0
LINE
  5
36E
100
AcDbEntity
  8
KONSTRUKTIONSELEMENTE
100
AcDbLine
 62
7
  6
CONTINUOUS
 10
99.0801773043
 20
149.809396325
 11
98.9154152437
 21
150.0129835571
  0
LINE
  5
36F
100
AcDbEntity
  8
KONSTRUKTIONSELEMENTE
100
AcDbLine
 62
7
  6
CONTINUOUS
 10
93.5002529654
 20
155.8369260368
 11
93.5938275766
 21
155.7007440375
  0
LINE
  5
370
100
AcDbEntity
  8
KONSTRUKTIONSELEMENTE
100
AcDbLine
 62
7
  6
CONTINUOUS
 10
93.3782504313
 20
152.6345288827
 11
93.5184757483
 21
152.413322327
  0
LINE
  5
371
100
AcDbEntity
  8
KONSTRUKTIONSELEMENTE
100
AcDbLine
 62
7
  6
CONTINUOUS
 10
96.0561716634
 20
154.0525405007
 11
95.9159480289
 21
154.2737454509
  0
LINE
  5
372
100
AcDbEntity
  8
KONSTRUKTIONSELEMENTE
100
AcDbLine
 62
7
  6
CONTINUOUS
 10
93.7822135826
 20
152.6910183057
 11
93.6788239116
 21
152.8772407192
  0
LINE
  5
373
100
AcDbEntity
  8
KONSTRUKTIONSELEMENTE
100
AcDbLine
 62
7
  6
CONTINUOUS
 10
95.6522102254
 20
153.9960495046
 11
95.7555982101
 21
153.8098286926
  0
LINE
  5
374
100
AcDbEntity
  8
KONSTRUKTIONSELEMENTE
100
AcDbLine
 62
7
  6
CONTINUOUS
 10
96.35854398
 20
148.5473693648
 11
96.4653999338
 21
148.3169283886
  0
LINE
  5
375
100
AcDbEntity
  8
KONSTRUKTIONSELEMENTE
100
AcDbLine
 62
7
  6
CONTINUOUS
 10
96.7763061993
 20
148.4050992273
 11
96.6267086467
 21
148.7277149061
  0
LINE
  5
376
100
AcDbEntity
  8
KONSTRUKTIONSELEMENTE
100
AcDbLine
 62
7
  6
CONTINUOUS
 10
97.7848504704
 20
149.2647476476
 11
97.934448023
 21
148.9421319688
  0
LINE
  5
377
100
AcDbEntity
  8
KONSTRUKTIONSELEMENTE
100
AcDbLine
 62
7
  6
CONTINUOUS
 10
98.2026126491
 20
149.1224774914
 11
98.0957566953
 21
149.3529184675
  0
LINE
  5
378
100
AcDbEntity
  8
KONSTRUKTIONSELEMENTE
100
AcDbLine
 62
7
  6
CONTINUOUS
 10
98.7210246523
 20
148.9148822322
 11
98.8278796277
 21
148.6844433658
  0
LINE
  5
379
100
AcDbEntity
  8
KONSTRUKTIONSELEMENTE
100
AcDbLine
 62
7
  6
CONTINUOUS
 10
98.7692710794
 20
149.7212255051
 11
98.8974978325
 21
149.4446971776
  0
LINE
  5
37A
100
AcDbEntity
  8
KONSTRUKTIONSELEMENTE
100
AcDbLine
 62
7
  6
CONTINUOUS
 10
99.1656624586
 20
149.6250427002
 11
99.0801773043
 21
149.809396325
  0
LINE
  5
37B
100
AcDbEntity
  8
KONSTRUKTIONSELEMENTE
100
AcDbLine
 62
7
  6
CONTINUOUS
 10
93.3188187587
 20
152.8670323646
 11
93.3782504313
 21
152.6345288827
  0
LINE
  5
37C
100
AcDbEntity
  8
KONSTRUKTIONSELEMENTE
100
AcDbLine
 62
7
  6
CONTINUOUS
 10
96.1156050339
 20
153.8200354295
 11
96.0561716634
 21
154.0525405007
  0
LINE
  5
37D
100
AcDbEntity
  8
KONSTRUKTIONSELEMENTE
100
AcDbLine
 62
7
  6
CONTINUOUS
 10
93.8765042903
 20
155.6705434253
 11
93.8093380558
 21
155.9415598257
  0
LINE
  5
37E
100
AcDbEntity
  8
KONSTRUKTIONSELEMENTE
100
AcDbLine
 62
7
  6
CONTINUOUS
 10
96.3095960948
 20
148.8046598678
 11
96.35854398
 21
148.5473693648
  0
LINE
  5
37F
100
AcDbEntity
  8
KONSTRUKTIONSELEMENTE
100
AcDbLine
 62
7
  6
CONTINUOUS
 10
98.2515615177
 20
148.865184881
 11
98.2026126491
 21
149.1224774914
  0
LINE
  5
380
100
AcDbEntity
  8
KONSTRUKTIONSELEMENTE
100
AcDbLine
 62
7
  6
CONTINUOUS
 10
93.6788239116
 20
152.8772407192
 11
93.6562279079
 21
153.0747600832
  0
LINE
  5
381
100
AcDbEntity
  8
KONSTRUKTIONSELEMENTE
100
AcDbLine
 62
7
  6
CONTINUOUS
 10
95.7555982101
 20
153.8098286926
 11
95.7781942445
 21
153.612309361
  0
LINE
  5
382
100
AcDbEntity
  8
KONSTRUKTIONSELEMENTE
100
AcDbLine
 62
7
  6
CONTINUOUS
 10
97.934448023
 20
148.9421319688
 11
97.9406543145
 21
148.7770161708
  0
LINE
  5
383
100
AcDbEntity
  8
KONSTRUKTIONSELEMENTE
100
AcDbLine
 62
7
  6
CONTINUOUS
 10
98.8974978325
 20
149.4446971776
 11
98.903704124
 21
149.2795813796
  0
LINE
  5
384
100
AcDbEntity
  8
0
100
AcDbLine
 62
7
  6
CONTINUOUS
 10
103.4704265954
 20
137.1436649391
 11
103.4704265954
 21
149.1656936997
  0
LINE
  5
385
100
AcDbEntity
  8
KONSTRUKTIONSELEMENTE
100
AcDbLine
 62
7
  6
CONTINUOUS
 10
104.1242641291
 20
39.4454367129
 11
104.1242641291
 21
37.3241163693
  0
LINE
  5
386
100
AcDbEntity
  8
KONSTRUKTIONSELEMENTE
100
AcDbLine
 62
7
  6
CONTINUOUS
 10
98.1846952379
 20
148.5541911118
 11
98.2515615177
 21
148.865184881
  0
LINE
  5
387
100
AcDbEntity
  8
KONSTRUKTIONSELEMENTE
100
AcDbLine
 62
7
  6
CONTINUOUS
 10
99.1477450474
 20
149.0567563206
 11
99.214610349
 21
149.3677521995
  0
LINE
  5
388
100
AcDbEntity
  8
RUNDUNGEN
100
AcDbLine
 62
7
  6
CONTINUOUS
 10
100.8211960905
 20
125.6685869216
 11
103.4704265954
 21
137.1436649391
  0
LINE
  5
389
100
AcDbEntity
  8
KONSTRUKTIONSELEMENTE
100
AcDbLine
 62
7
  6
CONTINUOUS
 10
97.9406543145
 20
148.7770161708
 11
97.8889535209
 21
148.5850487386
  0
LINE
  5
38A
100
AcDbEntity
  8
KONSTRUKTIONSELEMENTE
100
AcDbLine
 62
7
  6
CONTINUOUS
 10
98.903704124
 20
149.2795813796
 11
98.8520033304
 21
149.0876139474
  0
LINE
  5
38B
100
AcDbEntity
  8
KONSTRUKTIONSELEMENTE
100
AcDbLine
 62
7
  6
CONTINUOUS
 10
97.8889535209
 20
148.5850487386
 11
97.8158819278
 21
148.4391686577
  0
LINE
  5
38C
100
AcDbEntity
  8
KONSTRUKTIONSELEMENTE
100
AcDbLine
 62
7
  6
CONTINUOUS
 10
98.0750873592
 20
148.3353720453
 11
98.1846952379
 21
148.5541911118
  0
LINE
  5
38D
100
AcDbEntity
  8
KONSTRUKTIONSELEMENTE
100
AcDbLine
 62
7
  6
CONTINUOUS
 10
98.9802300836
 20
148.8110856199
 11
99.1477450474
 21
149.0567563206
  0
LINE
  5
38E
100
AcDbEntity
  8
0
100
AcDbLine
 62
7
  6
CONTINUOUS
 10
96.4040553872
 20
158.8917192739
 11
91.4704265954
 21
160.4947524423
  0
LINE
  5
38F
100
AcDbEntity
  8
0
100
AcDbLine
 62
7
  6
CONTINUOUS
 10
103.4704265954
 20
149.1656936997
 11
96.4040553872
 21
158.8917192739
  0
LINE
  5
390
100
AcDbEntity
  8
KONSTRUKTIONSELEMENTE
100
AcDbLine
 62
7
  6
CONTINUOUS
 10
99.214610349
 20
149.3677521995
 11
99.1656624586
 21
149.6250427002
  0
LINE
  5
391
100
AcDbEntity
  8
KONSTRUKTIONSELEMENTE
100
AcDbLine
 62
7
  6
CONTINUOUS
 10
118.0090645157
 20
60.8921884501
 11
118.0090645157
 21
58.7708681065
  0
LINE
  5
392
100
AcDbEntity
  8
0
100
AcDbLine
 62
7
  6
CONTINUOUS
 10
99.2952169676
 20
114.6499958198
 11
96.793951825
 21
111.6691041
  0
LINE
  5
393
100
AcDbEntity
  8
RUNDUNGEN
100
AcDbLine
 62
7
  6
CONTINUOUS
 10
99.2952169676
 20
114.6499958198
 11
99.5022108255
 21
114.8966814936
  0
LINE
  5
394
100
AcDbEntity
  8
0
100
AcDbLine
 62
7
  6
CONTINUOUS
 10
99.4053442618
 20
114.7812404182
 11
99.5022108255
 21
114.8966814936
  0
LINE
  5
395
100
AcDbEntity
  8
KONSTRUKTIONSELEMENTE
100
AcDbLine
 62
7
  6
CONTINUOUS
 10
99.031165872
 20
41.569316506
 11
109.5543605894
 21
57.5266404192
  0
LINE
  5
396
100
AcDbEntity
  8
KONSTRUKTIONSELEMENTE
100
AcDbLine
 62
7
  6
CONTINUOUS
 10
103.9716619708
 20
37.0143302611
 11
104.0774180226
 21
37.1746982499
  0
LINE
  5
397
100
AcDbEntity
  8
KONSTRUKTIONSELEMENTE
100
AcDbLine
 62
7
  6
CONTINUOUS
 10
117.4744169198
 20
57.4898455611
 11
117.7279878768
 21
57.8743593903
  0
LINE
  5
398
100
AcDbEntity
  8
KONSTRUKTIONSELEMENTE
100
AcDbLine
 62
7
  6
CONTINUOUS
 10
79.8990074545
 20
71.4652302271
 11
60.1893499565
 21
64.9663785151
  0
LINE
  5
399
100
AcDbEntity
  8
KONSTRUKTIONSELEMENTE
100
AcDbLine
 62
7
  6
CONTINUOUS
 10
79.8990074545
 20
69.3439098835
 11
60.1893499565
 21
62.8450581716
  0
LINE
  5
39A
100
AcDbEntity
  8
KONSTRUKTIONSELEMENTE
100
AcDbLine
 62
7
  6
CONTINUOUS
 10
62.7800236641
 20
60.4224139818
 11
59.2454232947
 21
59.2569526507
  0
LINE
  5
39B
100
AcDbEntity
  8
KONSTRUKTIONSELEMENTE
100
AcDbLine
 62
7
  6
CONTINUOUS
 10
60.5682422171
 20
59.6054057445
 11
63.1614958167
 21
60.4604774574
  0
LINE
  5
39C
100
AcDbEntity
  8
KONSTRUKTIONSELEMENTE
100
AcDbLine
 62
7
  6
CONTINUOUS
 10
62.9644877612
 20
57.0324102301
 11
65.4649281324
 21
57.8568787014
  0
LINE
  5
39D
100
AcDbEntity
  8
KONSTRUKTIONSELEMENTE
100
AcDbLine
 62
7
  6
CONTINUOUS
 10
62.9644877612
 20
55.3353539552
 11
65.6834111223
 21
56.2318626714
  0
LINE
  5
39E
100
AcDbEntity
  8
KONSTRUKTIONSELEMENTE
100
AcDbLine
 62
7
  6
CONTINUOUS
 10
62.6559526669
 20
54.2973736819
 11
66.1905530364
 21
55.4628350129
  0
LINE
  5
39F
100
AcDbEntity
  8
KONSTRUKTIONSELEMENTE
100
AcDbLine
 62
7
  6
CONTINUOUS
 10
62.6559526669
 20
54.0852416475
 11
66.1905530364
 21
55.2507029786
  0
ARC
  5
3A0
100
AcDbEntity
  8
KONSTRUKTIONSELEMENTE
100
AcDbCircle
 62
7
  6
CONTINUOUS
 10
223.410543579
 20
69.9621379778
 40
8.25
100
AcDbArc
 50
235.4985296401
 51
315.0
  0
ARC
  5
3A1
100
AcDbEntity
  8
KONSTRUKTIONSELEMENTE
100
AcDbCircle
 62
7
  6
CONTINUOUS
 10
223.410543579
 20
69.9621379778
 40
8.25
100
AcDbArc
 50
135.0
 51
214.5014703599
  0
ARC
  5
3A2
100
AcDbEntity
  8
KONSTRUKTIONSELEMENTE
100
AcDbCircle
 62
7
  6
CONTINUOUS
 10
223.410543579
 20
69.9621379778
 40
3.25
100
AcDbArc
 50
252.5077303474
 51
315.0
  0
ARC
  5
3A3
100
AcDbEntity
  8
KONSTRUKTIONSELEMENTE
100
AcDbCircle
 62
7
  6
CONTINUOUS
 10
223.410543579
 20
69.9621379778
 40
3.25
100
AcDbArc
 50
135.0
 51
197.4922696526
  0
ARC
  5
3A4
100
AcDbEntity
  8
KONSTRUKTIONSELEMENTE
100
AcDbCircle
 62
7
  6
CONTINUOUS
 10
186.0598265065
 20
121.0129219183
 40
156.2164977819
100
AcDbArc
 50
12.259428145
 51
12.3814667239
  0
ARC
  5
3A5
100
AcDbEntity
  8
KONSTRUKTIONSELEMENTE
100
AcDbCircle
 62
7
  6
CONTINUOUS
 10
189.827784107
 20
120.5217238524
 40
152.3298785855
100
AcDbArc
 50
12.2038268713
 51
12.3288252543
  0
ARC
  5
3A6
100
AcDbEntity
  8
KONSTRUKTIONSELEMENTE
100
AcDbCircle
 62
7
  6
CONTINUOUS
 10
258.1495947822
 20
87.5761135716
 40
102.5502297647
100
AcDbArc
 50
38.1763642059
 51
38.4944520674
  0
ARC
  5
3A7
100
AcDbEntity
  8
KONSTRUKTIONSELEMENTE
100
AcDbCircle
 62
7
  6
CONTINUOUS
 10
229.4209512191
 20
75.9725456179
 40
8.25
100
AcDbArc
 50
60.8421444573
 51
135.0
  0
ARC
  5
3A8
100
AcDbEntity
  8
KONSTRUKTIONSELEMENTE
100
AcDbCircle
 62
7
  6
CONTINUOUS
 10
229.4209512191
 20
75.9725456179
 40
8.25
100
AcDbArc
 50
315.0
 51
29.1578555427
  0
ARC
  5
3A9
100
AcDbEntity
  8
KONSTRUKTIONSELEMENTE
100
AcDbCircle
 62
7
  6
CONTINUOUS
 10
249.7502711782
 20
96.301865577
 40
8.0
100
AcDbArc
 50
135.0
 51
208.6357041722
  0
ARC
  5
3AA
100
AcDbEntity
  8
KONSTRUKTIONSELEMENTE
100
AcDbCircle
 62
7
  6
CONTINUOUS
 10
249.7502711782
 20
96.301865577
 40
8.0
100
AcDbArc
 50
241.3642958278
 51
315.0
  0
ARC
  5
3AB
100
AcDbEntity
  8
KONSTRUKTIONSELEMENTE
100
AcDbCircle
 62
7
  6
CONTINUOUS
 10
249.7502711782
 20
96.301865577
 40
3.5
100
AcDbArc
 50
135.0
 51
184.8461224921
  0
ARC
  5
3AC
100
AcDbEntity
  8
KONSTRUKTIONSELEMENTE
100
AcDbCircle
 62
7
  6
CONTINUOUS
 10
249.7502711782
 20
96.301865577
 40
3.5
100
AcDbArc
 50
265.1538775079
 51
315.0
  0
ARC
  5
3AD
100
AcDbEntity
  8
KONSTRUKTIONSELEMENTE
100
AcDbCircle
 62
7
  6
CONTINUOUS
 10
229.4209512191
 20
75.9725456179
 40
3.25
100
AcDbArc
 50
88.8837571799
 51
135.0
  0
ARC
  5
3AE
100
AcDbEntity
  8
KONSTRUKTIONSELEMENTE
100
AcDbCircle
 62
7
  6
CONTINUOUS
 10
229.4209512191
 20
75.9725456179
 40
3.25
100
AcDbArc
 50
315.0
 51
1.1162428201
  0
ARC
  5
3AF
100
AcDbEntity
  8
KONSTRUKTIONSELEMENTE
100
AcDbCircle
 62
7
  6
CONTINUOUS
 10
248.8663877017
 20
95.4179821005
 40
2.25
100
AcDbArc
 50
315.0
 51
135.0
  0
ARC
  5
3B0
100
AcDbEntity
  8
KONSTRUKTIONSELEMENTE
100
AcDbCircle
 62
7
  6
CONTINUOUS
 10
230.1280580003
 20
76.6796523991
 40
2.25
100
AcDbArc
 50
135.0
 51
315.0
  0
ARC
  5
3B1
100
AcDbEntity
  8
KONSTRUKTIONSELEMENTE
100
AcDbCircle
 62
7
  6
CONTINUOUS
 10
248.6221942398
 20
136.8377268481
 40
91.4192289888
100
AcDbArc
 50
10.0105248714
 51
10.1364044979
  0
ARC
  5
3B2
100
AcDbEntity
  8
KONSTRUKTIONSELEMENTE
100
AcDbCircle
 62
7
  6
CONTINUOUS
 10
253.5876441212
 20
138.539744783
 40
86.5010285324
100
AcDbArc
 50
10.4683288087
 51
10.5967339199
  0
ARC
  5
3B3
100
AcDbEntity
  8
KONSTRUKTIONSELEMENTE
100
AcDbCircle
 62
7
  6
CONTINUOUS
 10
258.3559327064
 20
139.7392995464
 40
80.9138197917
100
AcDbArc
 50
8.5218904147
 51
8.6934694244
  0
ARC
  5
3B4
100
AcDbEntity
  8
KONSTRUKTIONSELEMENTE
100
AcDbCircle
 62
7
  6
CONTINUOUS
 10
260.356872896
 20
106.9084672948
 40
8.0
100
AcDbArc
 50
315.0
 51
28.6357041722
  0
ARC
  5
3B5
100
AcDbEntity
  8
KONSTRUKTIONSELEMENTE
100
AcDbCircle
 62
7
  6
CONTINUOUS
 10
260.356872896
 20
106.9084672948
 40
8.0
100
AcDbArc
 50
61.3642958278
 51
135.0
  0
ARC
  5
3B6
100
AcDbEntity
  8
KONSTRUKTIONSELEMENTE
100
AcDbCircle
 62
7
  6
CONTINUOUS
 10
260.356872896
 20
106.9084672948
 40
3.5
100
AcDbArc
 50
315.0
 51
4.8461224921
  0
ARC
  5
3B7
100
AcDbEntity
  8
KONSTRUKTIONSELEMENTE
100
AcDbCircle
 62
7
  6
CONTINUOUS
 10
260.356872896
 20
106.9084672948
 40
3.5
100
AcDbArc
 50
85.1538775079
 51
135.0
  0
ARC
  5
3B8
100
AcDbEntity
  8
KONSTRUKTIONSELEMENTE
100
AcDbCircle
 62
7
  6
CONTINUOUS
 10
261.2407563725
 20
107.7923507713
 40
2.25
100
AcDbArc
 50
135.0
 51
315.0
  0
ARC
  5
3B9
100
AcDbEntity
  8
KONSTRUKTIONSELEMENTE
100
AcDbCircle
 62
7
  6
CONTINUOUS
 10
275.1892778785
 20
100.8080579335
 40
81.1518752254
100
AcDbArc
 50
38.4316091382
 51
38.8648628016
  0
ARC
  5
3BA
100
AcDbEntity
  8
KONSTRUKTIONSELEMENTE
100
AcDbCircle
 62
7
  6
CONTINUOUS
 10
270.9015193
 20
142.1893290991
 40
68.6483139802
100
AcDbArc
 50
8.784467693
 51
8.9153937283
  0
ARC
  5
3BB
100
AcDbEntity
  8
KONSTRUKTIONSELEMENTE
100
AcDbCircle
 62
7
  6
CONTINUOUS
 10
271.1407001812
 20
142.2019189721
 40
68.388679296
100
AcDbArc
 50
8.6518340426
 51
8.8494546441
  0
ARC
  5
3BC
100
AcDbEntity
  8
KONSTRUKTIONSELEMENTE
100
AcDbCircle
 62
7
  6
CONTINUOUS
 10
275.7634335999
 20
144.7876252153
 40
62.9287720981
100
AcDbArc
 50
6.3176101956
 51
6.4652692258
  0
ARC
  5
3BD
100
AcDbEntity
  8
KONSTRUKTIONSELEMENTE
100
AcDbCircle
 62
7
  6
CONTINUOUS
 10
278.3816582824
 20
144.053257753
 40
61.1769250045
100
AcDbArc
 50
9.3240763523
 51
9.531652952
  0
ARC
  5
3BE
100
AcDbEntity
  8
KONSTRUKTIONSELEMENTE
100
AcDbCircle
 62
7
  6
CONTINUOUS
 10
296.281760398
 20
148.6031010638
 40
42.5683078264
100
AcDbArc
 50
5.3088587916
 51
5.5621428968
  0
ARC
  5
3BF
100
AcDbEntity
  8
KONSTRUKTIONSELEMENTE
100
AcDbCircle
 62
7
  6
CONTINUOUS
 10
301.663320058
 20
149.3462324156
 40
37.2208141045
100
AcDbArc
 50
4.5005468164
 51
4.8445268979
  0
ARC
  5
3C0
100
AcDbEntity
  8
KONSTRUKTIONSELEMENTE
100
AcDbCircle
 62
7
  6
CONTINUOUS
 10
302.0246768493
 20
149.4335979707
 40
36.8650852153
100
AcDbArc
 50
4.693657137
 51
4.9236656564
  0
ARC
  5
3C1
100
AcDbEntity
  8
KONSTRUKTIONSELEMENTE
100
AcDbCircle
 62
7
  6
CONTINUOUS
 10
305.3308016834
 20
150.4980268749
 40
33.5293986442
100
AcDbArc
 50
6.1513231519
 51
6.4357253786
  0
ARC
  5
3C2
100
AcDbEntity
  8
KONSTRUKTIONSELEMENTE
100
AcDbCircle
 62
7
  6
CONTINUOUS
 10
286.6966004952
 20
133.248194894
 40
8.25
100
AcDbArc
 50
66.346698243
 51
135.0
  0
ARC
  5
3C3
100
AcDbEntity
  8
KONSTRUKTIONSELEMENTE
100
AcDbCircle
 62
7
  6
CONTINUOUS
 10
286.6966004952
 20
133.248194894
 40
8.25
100
AcDbArc
 50
315.0
 51
23.653301757
  0
ARC
  5
3C4
100
AcDbEntity
  8
KONSTRUKTIONSELEMENTE
100
AcDbCircle
 62
7
  6
CONTINUOUS
 10
280.6861928551
 20
127.2377872539
 40
8.25
100
AcDbArc
 50
240.8421444573
 51
315.0
  0
ARC
  5
3C5
100
AcDbEntity
  8
KONSTRUKTIONSELEMENTE
100
AcDbCircle
 62
7
  6
CONTINUOUS
 10
280.6861928551
 20
127.2377872539
 40
8.25
100
AcDbArc
 50
135.0
 51
209.1578555427
  0
ARC
  5
3C6
100
AcDbEntity
  8
KONSTRUKTIONSELEMENTE
100
AcDbCircle
 62
7
  6
CONTINUOUS
 10
286.6966004952
 20
133.248194894
 40
3.25
100
AcDbArc
 50
112.8065550031
 51
135.0
  0
ARC
  5
3C7
100
AcDbEntity
  8
KONSTRUKTIONSELEMENTE
100
AcDbCircle
 62
7
  6
CONTINUOUS
 10
286.6966004952
 20
133.248194894
 40
3.25
100
AcDbArc
 50
315.0
 51
337.1934449969
  0
ARC
  5
3C8
100
AcDbEntity
  8
KONSTRUKTIONSELEMENTE
100
AcDbCircle
 62
7
  6
CONTINUOUS
 10
280.6861928551
 20
127.2377872539
 40
3.25
100
AcDbArc
 50
268.8837571799
 51
315.0
  0
ARC
  5
3C9
100
AcDbEntity
  8
KONSTRUKTIONSELEMENTE
100
AcDbCircle
 62
7
  6
CONTINUOUS
 10
280.6861928551
 20
127.2377872539
 40
3.25
100
AcDbArc
 50
135.0
 51
181.1162428201
  0
ARC
  5
3CA
100
AcDbEntity
  8
KONSTRUKTIONSELEMENTE
100
AcDbCircle
 62
7
  6
CONTINUOUS
 10
286.5198237999
 20
133.0714181987
 40
3.0
100
AcDbArc
 50
135.0
 51
315.0
  0
ARC
  5
3CB
100
AcDbEntity
  8
KONSTRUKTIONSELEMENTE
100
AcDbCircle
 62
7
  6
CONTINUOUS
 10
279.9790860739
 20
126.5306804727
 40
2.25
100
AcDbArc
 50
315.0
 51
135.0
  0
ARC
  5
3CC
100
AcDbEntity
  8
KONSTRUKTIONSELEMENTE
100
AcDbCircle
 62
7
  6
CONTINUOUS
 10
327.8167629417
 20
124.5154115878
 40
29.919294978
100
AcDbArc
 50
69.896495469
 51
70.0305148303
  0
ARC
  5
3CD
100
AcDbEntity
  8
0
100
AcDbCircle
 62
7
  6
CONTINUOUS
 10
334.6030849206
 20
119.4546793194
 40
8.5
100
AcDbArc
 50
212.7790806681
 51
327.2209193319
  0
CIRCLE
  5
3CE
100
AcDbEntity
  8
0
100
AcDbCircle
 62
7
  6
CONTINUOUS
 10
334.6030849206
 20
119.4546793194
 40
2.5
  0
ARC
  5
3CF
100
AcDbEntity
  8
KONSTRUKTIONSELEMENTE
100
AcDbCircle
 62
7
  6
CONTINUOUS
 10
307.1320498008
 20
150.4672816947
 40
31.637449648
100
AcDbArc
 50
358.5704862912
 51
359.020220565
  0
ARC
  5
3D0
100
AcDbEntity
  8
KONSTRUKTIONSELEMENTE
100
AcDbCircle
 62
7
  6
CONTINUOUS
 10
307.1444816377
 20
150.4614562865
 40
31.625014784
100
AcDbArc
 50
0.9046851147
 51
1.4295749237
  0
ARC
  5
3D1
100
AcDbEntity
  8
KONSTRUKTIONSELEMENTE
100
AcDbCircle
 62
7
  6
CONTINUOUS
 10
320.2827217129
 20
144.812509437
 40
21.1666519038
100
AcDbArc
 50
32.7556068803
 51
33.0801543923
  0
ARC
  5
3D2
100
AcDbEntity
  8
KONSTRUKTIONSELEMENTE
100
AcDbCircle
 62
7
  6
CONTINUOUS
 10
329.620429461
 20
136.6187712306
 40
17.8210301752
100
AcDbArc
 50
59.3132804114
 51
59.5768839792
  0
ARC
  5
3D3
100
AcDbEntity
  8
RUNDUNGEN
100
AcDbCircle
 62
7
  6
CONTINUOUS
 10
340.3530849206
 20
136.821799227
 40
2.0
100
AcDbArc
 50
180.0
 51
235.0
  0
ARC
  5
3D4
100
AcDbEntity
  8
RUNDUNGEN
100
AcDbCircle
 62
7
  6
CONTINUOUS
 10
341.1030849206
 20
131.4135452183
 40
2.0
100
AcDbArc
 50
0.0
 51
55.0
  0
ARC
  5
3D5
100
AcDbEntity
  8
0
100
AcDbCircle
 62
7
  6
CONTINUOUS
 10
328.8530849206
 20
136.821799227
 40
2.0
100
AcDbArc
 50
305.0
 51
360.0
  0
ARC
  5
3D6
100
AcDbEntity
  8
0
100
AcDbCircle
 62
7
  6
CONTINUOUS
 10
328.1030849206
 20
131.4135452183
 40
2.0
100
AcDbArc
 50
125.0
 51
180.0
  0
ARC
  5
3D7
100
AcDbEntity
  8
KONSTRUKTIONSELEMENTE
100
AcDbCircle
 62
7
  6
CONTINUOUS
 10
299.0054161161
 20
152.2047779826
 40
38.9658196825
100
AcDbArc
 50
358.8436039928
 51
0.3039651981
  0
ARC
  5
3D8
100
AcDbEntity
  8
KONSTRUKTIONSELEMENTE
100
AcDbCircle
 62
7
  6
CONTINUOUS
 10
298.177581056
 20
152.2047779826
 40
38.9658196823
100
AcDbArc
 50
358.8436039928
 51
0.3039651981
  0
ARC
  5
3D9
100
AcDbEntity
  8
KONSTRUKTIONSELEMENTE
100
AcDbCircle
 62
7
  6
CONTINUOUS
 10
299.9234475663
 20
152.0194800129
 40
38.1327083248
100
AcDbArc
 50
359.1916679396
 51
0.3730104824
  0
ARC
  5
3DA
100
AcDbEntity
  8
KONSTRUKTIONSELEMENTE
100
AcDbCircle
 62
7
  6
CONTINUOUS
 10
302.5635134629
 20
151.4640464507
 40
35.747399188
100
AcDbArc
 50
359.1377209566
 51
0.3978950262
  0
ARC
  5
3DB
100
AcDbEntity
  8
KONSTRUKTIONSELEMENTE
100
AcDbCircle
 62
7
  6
CONTINUOUS
 10
303.618152709
 20
151.2419027074
 40
34.7946629131
100
AcDbArc
 50
359.1140573227
 51
0.2724584899
  0
ARC
  5
3DC
100
AcDbEntity
  8
KONSTRUKTIONSELEMENTE
100
AcDbCircle
 62
7
  6
CONTINUOUS
 10
308.584937485
 20
154.3474071606
 40
28.5584750016
100
AcDbArc
 50
0.8547861589
 51
1.2807809575
  0
ARC
  5
3DD
100
AcDbEntity
  8
KONSTRUKTIONSELEMENTE
100
AcDbCircle
 62
7
  6
CONTINUOUS
 10
309.4127725454
 20
154.3474071606
 40
28.5584750016
100
AcDbArc
 50
0.8547861589
 51
1.2807809575
  0
ARC
  5
3DE
100
AcDbEntity
  8
KONSTRUKTIONSELEMENTE
100
AcDbCircle
 62
7
  6
CONTINUOUS
 10
309.4127725657
 20
154.3503127265
 40
28.5584749814
100
AcDbArc
 50
358.7192190424
 51
359.1452140444
  0
ARC
  5
3DF
100
AcDbEntity
  8
KONSTRUKTIONSELEMENTE
100
AcDbCircle
 62
7
  6
CONTINUOUS
 10
308.5849375122
 20
154.3503127263
 40
28.5584749745
100
AcDbArc
 50
358.7192190423
 51
359.1452140445
  0
ARC
  5
3E0
100
AcDbEntity
  8
KONSTRUKTIONSELEMENTE
100
AcDbCircle
 62
7
  6
CONTINUOUS
 10
310.5576395911
 20
151.1362865852
 40
28.3342164921
100
AcDbArc
 50
5.336625257
 51
5.7297056791
  0
ARC
  5
3E1
100
AcDbEntity
  8
KONSTRUKTIONSELEMENTE
100
AcDbCircle
 62
7
  6
CONTINUOUS
 10
311.0680289941
 20
154.8494386682
 40
26.1885465195
100
AcDbArc
 50
354.6584954321
 51
355.0316478161
  0
ARC
  5
3E2
100
AcDbEntity
  8
KONSTRUKTIONSELEMENTE
100
AcDbCircle
 62
7
  6
CONTINUOUS
 10
311.8958640589
 20
154.8494386678
 40
26.188546515
100
AcDbArc
 50
354.658495432
 51
355.0316478161
  0
ARC
  5
3E3
100
AcDbEntity
  8
KONSTRUKTIONSELEMENTE
100
AcDbCircle
 62
7
  6
CONTINUOUS
 10
314.9976290948
 20
152.4709491182
 40
23.6699440855
100
AcDbArc
 50
359.8287046537
 51
0.1712951012
  0
ARC
  5
3E4
100
AcDbEntity
  8
KONSTRUKTIONSELEMENTE
100
AcDbCircle
 62
7
  6
CONTINUOUS
 10
315.7977073847
 20
152.1961329006
 40
22.9717685542
100
AcDbArc
 50
359.8234984985
 51
0.176501249
  0
ARC
  5
3E5
100
AcDbEntity
  8
KONSTRUKTIONSELEMENTE
100
AcDbCircle
 62
7
  6
CONTINUOUS
 10
316.3115946805
 20
152.2908769543
 40
22.457881259
100
AcDbArc
 50
359.8849633929
 51
0.1785064089
  0
ARC
  5
3E6
100
AcDbEntity
  8
KONSTRUKTIONSELEMENTE
100
AcDbCircle
 62
7
  6
CONTINUOUS
 10
315.5112018286
 20
162.0627962274
 40
3.0
100
AcDbArc
 50
315.0
 51
135.0
  0
ARC
  5
3E7
100
AcDbEntity
  8
0
100
AcDbCircle
 62
7
  6
CONTINUOUS
 10
334.6030849206
 20
181.1546793194
 40
43.0
100
AcDbArc
 50
275.0052018289
 51
360.0
  0
ARC
  5
3E8
100
AcDbEntity
  8
0
100
AcDbCircle
 62
7
  6
CONTINUOUS
 10
334.6030849206
 20
181.1546793194
 40
43.0
100
AcDbArc
 50
229.0018945946
 51
264.9947981711
  0
ARC
  5
3E9
100
AcDbEntity
  8
0
100
AcDbCircle
 62
7
  6
CONTINUOUS
 10
334.6030849206
 20
181.1546793194
 40
43.0
100
AcDbArc
 50
180.0
 51
220.9981054054
  0
ARC
  5
3EA
100
AcDbEntity
  8
0
100
AcDbCircle
 62
7
  6
CONTINUOUS
 10
334.6030849206
 20
181.1546793194
 40
30.0
100
AcDbArc
 50
277.6886241813
 51
360.0
  0
ARC
  5
3EB
100
AcDbEntity
  8
0
100
AcDbCircle
 62
7
  6
CONTINUOUS
 10
334.6030849206
 20
181.1546793194
 40
30.0
100
AcDbArc
 50
230.7403077435
 51
262.8191811444
  0
ARC
  5
3EC
100
AcDbEntity
  8
0
100
AcDbCircle
 62
7
  6
CONTINUOUS
 10
334.6030849206
 20
181.1546793194
 40
30.0
100
AcDbArc
 50
180.0
 51
219.2596922565
  0
ARC
  5
3ED
100
AcDbEntity
  8
KONSTRUKTIONSELEMENTE
100
AcDbCircle
 62
7
  6
CONTINUOUS
 10
319.0930405591
 20
155.7881381292
 40
19.2863255703
100
AcDbArc
 50
349.4826195344
 51
349.7457156905
  0
ARC
  5
3EE
100
AcDbEntity
  8
KONSTRUKTIONSELEMENTE
100
AcDbCircle
 62
7
  6
CONTINUOUS
 10
319.2244541521
 20
156.1606756769
 40
17.9189463715
100
AcDbArc
 50
358.2050338446
 51
0.3581432381
  0
ARC
  5
3EF
100
AcDbEntity
  8
KONSTRUKTIONSELEMENTE
100
AcDbCircle
 62
7
  6
CONTINUOUS
 10
320.0522892123
 20
156.1606756769
 40
17.9189463716
100
AcDbArc
 50
358.2050338446
 51
0.3581432381
  0
ARC
  5
3F0
100
AcDbEntity
  8
KONSTRUKTIONSELEMENTE
100
AcDbCircle
 62
7
  6
CONTINUOUS
 10
320.6142911929
 20
155.8412331641
 40
17.4588484743
100
AcDbArc
 50
358.7108070785
 51
0.3680787577
  0
ARC
  5
3F1
100
AcDbEntity
  8
KONSTRUKTIONSELEMENTE
100
AcDbCircle
 62
7
  6
CONTINUOUS
 10
323.7656574768
 20
153.9787225503
 40
14.9019145135
100
AcDbArc
 50
358.489474937
 51
0.4311569819
  0
ARC
  5
3F2
100
AcDbEntity
  8
KONSTRUKTIONSELEMENTE
100
AcDbCircle
 62
7
  6
CONTINUOUS
 10
324.2789723359
 20
153.6596719935
 40
14.4904996747
100
AcDbArc
 50
357.7797192916
 51
0.4424476396
  0
ARC
  5
3F3
100
AcDbEntity
  8
KONSTRUKTIONSELEMENTE
100
AcDbCircle
 62
7
  6
CONTINUOUS
 10
324.7720938741
 20
153.7455554799
 40
13.9974121554
100
AcDbArc
 50
1.5867079163
 51
2.1499315734
  0
ARC
  5
3F4
100
AcDbEntity
  8
KONSTRUKTIONSELEMENTE
100
AcDbCircle
 62
7
  6
CONTINUOUS
 10
325.7432954001
 20
153.8670652419
 40
13.141995663
100
AcDbArc
 50
351.8071418171
 51
352.3842332691
  0
ARC
  5
3F5
100
AcDbEntity
  8
KONSTRUKTIONSELEMENTE
100
AcDbCircle
 62
7
  6
CONTINUOUS
 10
326.1124455202
 20
153.9166341303
 40
12.7861376867
100
AcDbArc
 50
351.4364230858
 51
351.7277982366
  0
ARC
  5
3F6
100
AcDbEntity
  8
KONSTRUKTIONSELEMENTE
100
AcDbCircle
 62
7
  6
CONTINUOUS
 10
327.3120564372
 20
154.4651404953
 40
11.5416378216
100
AcDbArc
 50
349.2101245802
 51
349.6935106532
  0
ARC
  5
3F7
100
AcDbEntity
  8
KONSTRUKTIONSELEMENTE
100
AcDbCircle
 62
7
  6
CONTINUOUS
 10
331.0166003049
 20
158.8759598599
 40
9.3911978026
100
AcDbArc
 50
317.9124671615
 51
318.3583838834
  0
ARC
  5
3F8
100
AcDbEntity
  8
KONSTRUKTIONSELEMENTE
100
AcDbCircle
 62
7
  6
CONTINUOUS
 10
330.188765248
 20
158.8759598568
 40
9.3911977979
100
AcDbArc
 50
317.9124671614
 51
318.3583838835
  0
ARC
  5
3F9
100
AcDbEntity
  8
KONSTRUKTIONSELEMENTE
100
AcDbCircle
 62
7
  6
CONTINUOUS
 10
335.4067420099
 20
160.0888763248
 40
8.4328874689
100
AcDbArc
 50
292.3577198066
 51
292.6160510761
  0
ARC
  5
3FA
100
AcDbEntity
  8
KONSTRUKTIONSELEMENTE
100
AcDbCircle
 62
7
  6
CONTINUOUS
 10
335.7489569385
 20
164.249614726
 40
8.0148175665
100
AcDbArc
 50
280.129826281
 51
280.3622432831
  0
ARC
  5
3FB
100
AcDbEntity
  8
KONSTRUKTIONSELEMENTE
100
AcDbCircle
 62
7
  6
CONTINUOUS
 10
336.5767919989
 20
164.249614726
 40
8.0148175665
100
AcDbArc
 50
280.129826281
 51
280.3622432831
  0
ARC
  5
3FC
100
AcDbEntity
  8
KONSTRUKTIONSELEMENTE
100
AcDbCircle
 62
7
  6
CONTINUOUS
 10
330.1297733054
 20
157.5700670931
 40
7.1322691818
100
AcDbArc
 50
349.5193466224
 51
350.22972969
  0
ARC
  5
3FD
100
AcDbEntity
  8
KONSTRUKTIONSELEMENTE
100
AcDbCircle
 62
7
  6
CONTINUOUS
 10
330.9576083658
 20
157.5700670931
 40
7.1322691818
100
AcDbArc
 50
349.5193466224
 51
350.22972969
  0
ARC
  5
3FE
100
AcDbEntity
  8
KONSTRUKTIONSELEMENTE
100
AcDbCircle
 62
7
  6
CONTINUOUS
 10
334.4664318014
 20
150.6661948121
 40
6.4577424916
100
AcDbArc
 50
55.5882961091
 51
55.880923143
  0
ARC
  5
3FF
100
AcDbEntity
  8
KONSTRUKTIONSELEMENTE
100
AcDbCircle
 62
7
  6
CONTINUOUS
 10
334.1410941232
 20
155.2700914212
 40
5.6554247413
100
AcDbArc
 50
323.9801717963
 51
324.6030755895
  0
ARC
  5
400
100
AcDbEntity
  8
KONSTRUKTIONSELEMENTE
100
AcDbCircle
 62
7
  6
CONTINUOUS
 10
334.3308637035
 20
155.3475853392
 40
5.5618053544
100
AcDbArc
 50
322.1943110743
 51
322.6044283868
  0
ARC
  5
401
100
AcDbEntity
  8
KONSTRUKTIONSELEMENTE
100
AcDbCircle
 62
7
  6
CONTINUOUS
 10
332.982193607
 20
157.3565026801
 40
5.2804152616
100
AcDbArc
 50
344.5902664925
 51
345.2532629709
  0
ARC
  5
402
100
AcDbEntity
  8
0
100
AcDbCircle
 62
7
  6
CONTINUOUS
 10
333.3530849206
 20
153.8814469177
 40
2.5
100
AcDbArc
 50
165.1
 51
180.0
  0
ARC
  5
403
100
AcDbEntity
  8
0
100
AcDbCircle
 62
7
  6
CONTINUOUS
 10
334.6030849206
 20
231.1546793194
 40
43.0
100
AcDbArc
 50
0.0
 51
180.0
  0
ARC
  5
404
100
AcDbEntity
  8
0
100
AcDbCircle
 62
7
  6
CONTINUOUS
 10
334.6030849206
 20
231.1546793194
 40
30.0
100
AcDbArc
 50
0.0
 51
180.0
  0
ARC
  5
405
100
AcDbEntity
  8
0
100
AcDbCircle
 62
7
  6
CONTINUOUS
 10
84.9704265954
 20
91.0349924939
 40
21.5
100
AcDbArc
 50
67.8893166331
 51
80.6310844215
  0
ARC
  5
406
100
AcDbEntity
  8
0
100
AcDbCircle
 62
7
  6
CONTINUOUS
 10
84.9704265954
 20
91.0349924939
 40
21.5
100
AcDbArc
 50
99.3689155785
 51
112.1106833669
  0
ARC
  5
407
100
AcDbEntity
  8
KONSTRUKTIONSELEMENTE
100
AcDbCircle
 62
7
  6
CONTINUOUS
 10
85.1371140426
 20
119.28372216
 40
9.4793851007
100
AcDbArc
 50
70.4293559172
 51
75.723441893
  0
ARC
  5
408
100
AcDbEntity
  8
KONSTRUKTIONSELEMENTE
100
AcDbCircle
 62
7
  6
CONTINUOUS
 10
84.7787342448
 20
119.3669366458
 40
9.3925921885
100
AcDbArc
 50
104.2482030647
 51
109.5989335255
  0
ARC
  5
409
100
AcDbEntity
  8
BEZUGSACHSEN
100
AcDbCircle
 62
7
  6
CONTINUOUS
 10
84.9704265954
 20
143.1546793194
 40
8.0
100
AcDbArc
 50
144.3537330883
 51
35.6462669117
  0
ARC
  5
40A
100
AcDbEntity
  8
0
100
AcDbCircle
 62
7
  6
CONTINUOUS
 10
84.9704265954
 20
144.6546793194
 40
6.5
100
AcDbArc
 50
180.0
 51
360.0
  0
ARC
  5
40B
100
AcDbEntity
  8
KONSTRUKTIONSELEMENTE
100
AcDbCircle
 62
7
  6
CONTINUOUS
 10
82.1660288979
 20
111.8662698975
 40
5.1960534503
100
AcDbArc
 50
189.3932101826
 51
189.7005836041
  0
ARC
  5
40C
100
AcDbEntity
  8
RUNDUNGEN
100
AcDbCircle
 62
7
  6
CONTINUOUS
 10
64.858979708
 20
122.7471508556
 40
5.16605851
100
AcDbArc
 50
0.5677272864
 51
34.4374225461
  0
ARC
  5
40D
100
AcDbEntity
  8
0
100
AcDbCircle
 62
7
  6
CONTINUOUS
 10
64.9669338063
 20
122.8774509779
 40
5.0034930261
100
AcDbArc
 50
0.0004815348
 51
33.6193368649
  0
ARC
  5
40E
100
AcDbEntity
  8
KONSTRUKTIONSELEMENTE
100
AcDbCircle
 62
7
  6
CONTINUOUS
 10
84.9704265954
 20
127.1546793194
 40
3.5
100
AcDbArc
 50
0.0
 51
180.0
  0
ARC
  5
40F
100
AcDbEntity
  8
KONSTRUKTIONSELEMENTE
100
AcDbCircle
 62
7
  6
CONTINUOUS
 10
78.7804490178
 20
33.5855639814
 40
2.8049761659
100
AcDbArc
 50
67.9069648584
 51
68.6850824746
  0
ARC
  5
410
100
AcDbEntity
  8
KONSTRUKTIONSELEMENTE
100
AcDbCircle
 62
7
  6
CONTINUOUS
 10
84.9704265954
 20
81.7225456179
 40
2.5
100
AcDbArc
 50
0.0
 51
180.0
  0
ARC
  5
411
100
AcDbEntity
  8
KONSTRUKTIONSELEMENTE
100
AcDbCircle
 62
7
  6
CONTINUOUS
 10
84.9704265954
 20
64.2121379778
 40
2.5
100
AcDbArc
 50
180.0
 51
360.0
  0
ARC
  5
412
100
AcDbEntity
  8
KONSTRUKTIONSELEMENTE
100
AcDbCircle
 62
7
  6
CONTINUOUS
 10
84.9704265954
 20
90.551865577
 40
2.25
100
AcDbArc
 50
180.0
 51
360.0
  0
ARC
  5
413
100
AcDbEntity
  8
KONSTRUKTIONSELEMENTE
100
AcDbCircle
 62
7
  6
CONTINUOUS
 10
84.9704265954
 20
112.6584672948
 40
2.25
100
AcDbArc
 50
0.0
 51
180.0
  0
ARC
  5
414
100
AcDbEntity
  8
0
100
AcDbCircle
 62
7
  6
CONTINUOUS
 10
71.9713841874
 20
116.1829683169
 40
2.0009575921
100
AcDbArc
 50
179.99958507
 51
220.0035913308
  0
ARC
  5
415
100
AcDbEntity
  8
0
100
AcDbCircle
 62
7
  6
CONTINUOUS
 10
74.6789892395
 20
112.954680526
 40
2.0
100
AcDbArc
 50
220.0000451247
 51
270.0000290055
  0
ARC
  5
416
100
AcDbEntity
  8
KONSTRUKTIONSELEMENTE
100
AcDbCircle
 62
7
  6
CONTINUOUS
 10
81.0333833695
 20
34.5002932957
 40
1.2070433059
100
AcDbArc
 50
0.0208671421
 51
7.9801551546
  0
ARC
  5
417
100
AcDbEntity
  8
KONSTRUKTIONSELEMENTE
100
AcDbCircle
 62
7
  6
CONTINUOUS
 10
85.0308095643
 20
161.3372106141
 40
25.2630283468
100
AcDbArc
 50
275.546231498
 51
279.7595498148
  0
ARC
  5
418
100
AcDbEntity
  8
KONSTRUKTIONSELEMENTE
100
AcDbCircle
 62
7
  6
CONTINUOUS
 10
84.893451129
 20
161.2145909494
 40
25.1393727355
100
AcDbArc
 50
260.2062147292
 51
264.4636173765
  0
ARC
  5
419
100
AcDbEntity
  8
0
100
AcDbCircle
 62
7
  6
CONTINUOUS
 10
84.9704265954
 20
267.6546793194
 40
6.5
100
AcDbArc
 50
0.0
 51
180.0
  0
ARC
  5
41A
100
AcDbEntity
  8
0
100
AcDbCircle
 62
7
  6
CONTINUOUS
 10
109.1859519414
 20
122.3950443136
 40
9.2476105514
100
AcDbArc
 50
177.2024308967
 51
177.4891159538
  0
ARC
  5
41B
100
AcDbEntity
  8
KONSTRUKTIONSELEMENTE
100
AcDbCircle
 62
7
  6
CONTINUOUS
 10
87.7779974877
 20
111.8657331838
 40
5.1928566681
100
AcDbArc
 50
350.3028576971
 51
350.6069919907
  0
ARC
  5
41C
100
AcDbEntity
  8
RUNDUNGEN
100
AcDbCircle
 62
7
  6
CONTINUOUS
 10
105.0818244181
 20
122.7471623144
 40
5.1660115643
100
AcDbArc
 50
145.5623745369
 51
178.8879274832
  0
ARC
  5
41D
100
AcDbEntity
  8
RUNDUNGEN
100
AcDbCircle
 62
7
  6
CONTINUOUS
 10
105.0694471623
 20
122.7475778867
 40
5.1536285773
100
AcDbArc
 50
178.8898761129
 51
179.4356511551
  0
ARC
  5
41E
100
AcDbEntity
  8
0
100
AcDbCircle
 62
7
  6
CONTINUOUS
 10
104.9747820986
 20
122.8773061779
 40
5.0043612832
100
AcDbArc
 50
146.3806802082
 51
177.9688101783
  0
ARC
  5
41F
100
AcDbEntity
  8
KONSTRUKTIONSELEMENTE
100
AcDbCircle
 62
7
  6
CONTINUOUS
 10
91.1604041729
 20
33.5855639814
 40
2.8049761659
100
AcDbArc
 50
111.3149175254
 51
112.0930351416
  0
ARC
  5
420
100
AcDbEntity
  8
0
100
AcDbCircle
 62
7
  6
CONTINUOUS
 10
97.9692721182
 20
116.1830460852
 40
2.0011584002
100
AcDbArc
 50
319.9983267928
 51
350.5556831093
  0
ARC
  5
421
100
AcDbEntity
  8
0
100
AcDbCircle
 62
7
  6
CONTINUOUS
 10
95.2618651998
 20
112.954682014
 40
2.0
100
AcDbArc
 50
269.9999352266
 51
319.9998992299
  0
CIRCLE
  5
422
100
AcDbEntity
  8
BEZUGSACHSEN
100
AcDbCircle
 62
7
  6
CONTINUOUS
 10
95.9704265954
 20
119.4546793194
 40
1.0
  0
LINE
  5
423
100
AcDbEntity
  8
KONSTRUKTIONSELEMENTE
100
AcDbLine
 62
7
  6
CONTINUOUS
 10
338.7648738042
 20
149.9262957428
 11
338.4086561332
 21
150.7039076105
  0
LINE
  5
424
100
AcDbEntity
  8
KONSTRUKTIONSELEMENTE
100
AcDbLine
 62
7
  6
CONTINUOUS
 10
338.1505991112
 20
152.5421127495
 11
338.1005372691
 21
152.6118205676
  0
LINE
  5
425
100
AcDbEntity
  8
KONSTRUKTIONSELEMENTE
100
AcDbLine
 62
7
  6
CONTINUOUS
 10
338.2184044912
 20
152.3939961192
 11
338.1505991112
 21
152.5421127495
  0
LINE
  5
426
100
AcDbEntity
  8
KONSTRUKTIONSELEMENTE
100
AcDbLine
 62
7
  6
CONTINUOUS
 10
338.2700855081
 20
152.2415291477
 11
338.2184044912
 21
152.3939961192
  0
LINE
  5
427
100
AcDbEntity
  8
KONSTRUKTIONSELEMENTE
100
AcDbLine
 62
7
  6
CONTINUOUS
 10
338.3401434214
 20
151.9692737728
 11
338.2700855081
 21
152.2415291477
  0
LINE
  5
428
100
AcDbEntity
  8
KONSTRUKTIONSELEMENTE
100
AcDbLine
 62
7
  6
CONTINUOUS
 10
338.0713131556
 20
152.3548418623
 11
338.1043556196
 21
152.3635428708
  0
LINE
  5
429
100
AcDbEntity
  8
KONSTRUKTIONSELEMENTE
100
AcDbLine
 62
7
  6
CONTINUOUS
 10
338.3068645004
 20
150.9260824002
 11
338.0523610395
 21
151.4815194782
  0
LINE
  5
42A
100
AcDbEntity
  8
KONSTRUKTIONSELEMENTE
100
AcDbLine
 62
7
  6
CONTINUOUS
 10
338.4895773263
 20
153.5658618928
 11
338.4035571693
 21
153.7983552052
  0
LINE
  5
42B
100
AcDbEntity
  8
KONSTRUKTIONSELEMENTE
100
AcDbLine
 62
7
  6
CONTINUOUS
 10
338.4035571693
 20
153.7983552052
 11
338.3704363264
 21
153.8878672007
  0
LINE
  5
42C
100
AcDbEntity
  8
KONSTRUKTIONSELEMENTE
100
AcDbLine
 62
7
  6
CONTINUOUS
 10
338.3704363264
 20
153.8878672007
 11
338.1510763123
 21
154.4806266698
  0
LINE
  5
42D
100
AcDbEntity
  8
KONSTRUKTIONSELEMENTE
100
AcDbLine
 62
7
  6
CONTINUOUS
 10
338.1510763123
 20
154.4806266698
 11
338.0532393102
 21
154.7449628752
  0
LINE
  5
42E
100
AcDbEntity
  8
KONSTRUKTIONSELEMENTE
100
AcDbLine
 62
7
  6
CONTINUOUS
 10
338.0532393102
 20
154.7449628752
 11
338.0337024702
 21
154.7977447608
  0
LINE
  5
42F
100
AcDbEntity
  8
KONSTRUKTIONSELEMENTE
100
AcDbLine
 62
7
  6
CONTINUOUS
 10
338.0337024702
 20
154.7977447608
 11
337.9641125896
 21
154.9857457104
  0
LINE
  5
430
100
AcDbEntity
  8
KONSTRUKTIONSELEMENTE
100
AcDbLine
 62
7
  6
CONTINUOUS
 10
338.575202416
 20
153.3014657976
 11
338.5467424745
 21
153.3893513524
  0
LINE
  5
431
100
AcDbEntity
  8
KONSTRUKTIONSELEMENTE
100
AcDbLine
 62
7
  6
CONTINUOUS
 10
338.5467424745
 20
153.3893513524
 11
338.4895773263
 21
153.5658618928
  0
LINE
  5
432
100
AcDbEntity
  8
KONSTRUKTIONSELEMENTE
100
AcDbLine
 62
7
  6
CONTINUOUS
 10
338.6446730974
 20
153.0474899631
 11
338.575202416
 21
153.3014657976
  0
LINE
  5
433
100
AcDbEntity
  8
KONSTRUKTIONSELEMENTE
100
AcDbLine
 62
7
  6
CONTINUOUS
 10
338.4941072477
 20
152.5043856994
 11
338.057006434
 21
153.6842329555
  0
LINE
  5
434
100
AcDbEntity
  8
KONSTRUKTIONSELEMENTE
100
AcDbLine
 62
7
  6
CONTINUOUS
 10
338.057006434
 20
153.6842329555
 11
338.0367556794
 21
153.7388894701
  0
LINE
  5
435
100
AcDbEntity
  8
KONSTRUKTIONSELEMENTE
100
AcDbLine
 62
7
  6
CONTINUOUS
 10
338.0367556794
 20
153.7388894701
 11
337.9680694552
 21
153.924269517
  0
LINE
  5
436
100
AcDbEntity
  8
KONSTRUKTIONSELEMENTE
100
AcDbLine
 62
7
  6
CONTINUOUS
 10
338.5625634528
 20
152.3565573139
 11
338.4941072477
 21
152.5043856994
  0
LINE
  5
437
100
AcDbEntity
  8
KONSTRUKTIONSELEMENTE
100
AcDbLine
 62
7
  6
CONTINUOUS
 10
338.6145114084
 20
152.2899144356
 11
338.5625634528
 21
152.3565573139
  0
LINE
  5
438
100
AcDbEntity
  8
KONSTRUKTIONSELEMENTE
100
AcDbLine
 62
7
  6
CONTINUOUS
 10
338.1497480571
 20
156.1081159371
 11
338.083581112
 21
156.2648697818
  0
LINE
  5
439
100
AcDbEntity
  8
KONSTRUKTIONSELEMENTE
100
AcDbLine
 62
7
  6
CONTINUOUS
 10
338.2335691101
 20
155.8700931906
 11
338.2196770031
 21
155.9095604798
  0
LINE
  5
43A
100
AcDbEntity
  8
KONSTRUKTIONSELEMENTE
100
AcDbLine
 62
7
  6
CONTINUOUS
 10
338.2196770031
 20
155.9095604798
 11
338.1497480571
 21
156.1081159371
  0
LINE
  5
43B
100
AcDbEntity
  8
KONSTRUKTIONSELEMENTE
100
AcDbLine
 62
7
  6
CONTINUOUS
 10
338.4876663921
 20
155.071865543
 11
338.3188917123
 21
155.602089519
  0
LINE
  5
43C
100
AcDbEntity
  8
KONSTRUKTIONSELEMENTE
100
AcDbLine
 62
7
  6
CONTINUOUS
 10
338.3188917123
 20
155.602089519
 11
338.2763081734
 21
155.7358507905
  0
LINE
  5
43D
100
AcDbEntity
  8
KONSTRUKTIONSELEMENTE
100
AcDbLine
 62
7
  6
CONTINUOUS
 10
338.2763081734
 20
155.7358507905
 11
338.2335691101
 21
155.8700931906
  0
LINE
  5
43E
100
AcDbEntity
  8
KONSTRUKTIONSELEMENTE
100
AcDbLine
 62
7
  6
CONTINUOUS
 10
338.573348345
 20
154.7777364251
 11
338.4876663921
 21
155.071865543
  0
LINE
  5
43F
100
AcDbEntity
  8
KONSTRUKTIONSELEMENTE
100
AcDbLine
 62
7
  6
CONTINUOUS
 10
338.6429920815
 20
154.5087688602
 11
338.573348345
 21
154.7777364251
  0
LINE
  5
440
100
AcDbEntity
  8
KONSTRUKTIONSELEMENTE
100
AcDbLine
 62
7
  6
CONTINUOUS
 10
338.6623935674
 20
153.5858994121
 11
338.0687203229
 21
155.4484306767
  0
LINE
  5
441
100
AcDbEntity
  8
KONSTRUKTIONSELEMENTE
100
AcDbLine
 62
7
  6
CONTINUOUS
 10
338.7641389416
 20
154.1331401523
 11
338.7648737991
 21
154.1056275012
  0
LINE
  5
442
100
AcDbEntity
  8
KONSTRUKTIONSELEMENTE
100
AcDbLine
 62
7
  6
CONTINUOUS
 10
337.9632996955
 20
156.7928939692
 11
338.0910449626
 21
156.3884547518
  0
LINE
  5
443
100
AcDbEntity
  8
KONSTRUKTIONSELEMENTE
100
AcDbLine
 62
7
  6
CONTINUOUS
 10
338.0910449626
 20
156.3884547518
 11
338.0958408769
 21
156.373269985
  0
LINE
  5
444
100
AcDbEntity
  8
KONSTRUKTIONSELEMENTE
100
AcDbLine
 62
7
  6
CONTINUOUS
 10
338.0958408769
 20
156.373269985
 11
338.0997639878
 21
156.360848623
  0
LINE
  5
445
100
AcDbEntity
  8
KONSTRUKTIONSELEMENTE
100
AcDbLine
 62
7
  6
CONTINUOUS
 10
338.0997639878
 20
156.360848623
 11
338.1258600748
 21
156.278221865
  0
LINE
  5
446
100
AcDbEntity
  8
KONSTRUKTIONSELEMENTE
100
AcDbLine
 62
7
  6
CONTINUOUS
 10
338.1258600748
 20
156.278221865
 11
338.1768768822
 21
156.1166833394
  0
LINE
  5
447
100
AcDbEntity
  8
KONSTRUKTIONSELEMENTE
100
AcDbLine
 62
7
  6
CONTINUOUS
 10
338.1768768822
 20
156.1166833394
 11
338.234740407
 21
155.9334547387
  0
LINE
  5
448
100
AcDbEntity
  8
KONSTRUKTIONSELEMENTE
100
AcDbLine
 62
7
  6
CONTINUOUS
 10
338.234740407
 20
155.9334547387
 11
338.252828693
 21
155.8761745883
  0
LINE
  5
449
100
AcDbEntity
  8
KONSTRUKTIONSELEMENTE
100
AcDbLine
 62
7
  6
CONTINUOUS
 10
338.252828693
 20
155.8761745883
 11
338.4517447319
 21
155.2461853627
  0
LINE
  5
44A
100
AcDbEntity
  8
KONSTRUKTIONSELEMENTE
100
AcDbLine
 62
7
  6
CONTINUOUS
 10
338.4517447319
 20
155.2461853627
 11
338.5002244541
 21
155.092620201
  0
LINE
  5
44B
100
AcDbEntity
  8
KONSTRUKTIONSELEMENTE
100
AcDbLine
 62
7
  6
CONTINUOUS
 10
338.5002244541
 20
155.092620201
 11
338.5050446852
 21
155.077350999
  0
LINE
  5
44C
100
AcDbEntity
  8
KONSTRUKTIONSELEMENTE
100
AcDbLine
 62
7
  6
CONTINUOUS
 10
338.5050446852
 20
155.077350999
 11
338.5972408627
 21
154.7852778817
  0
LINE
  5
44D
100
AcDbEntity
  8
KONSTRUKTIONSELEMENTE
100
AcDbLine
 62
7
  6
CONTINUOUS
 10
338.5972408627
 20
154.7852778817
 11
338.6306965404
 21
154.6792819487
  0
LINE
  5
44E
100
AcDbEntity
  8
KONSTRUKTIONSELEMENTE
100
AcDbLine
 62
7
  6
CONTINUOUS
 10
338.6306965404
 20
154.6792819487
 11
338.6807514477
 21
154.5206851168
  0
LINE
  5
44F
100
AcDbEntity
  8
KONSTRUKTIONSELEMENTE
100
AcDbLine
 62
7
  6
CONTINUOUS
 10
338.6807514477
 20
154.5206851168
 11
338.7596529767
 21
154.2706625145
  0
LINE
  5
450
100
AcDbEntity
  8
KONSTRUKTIONSELEMENTE
100
AcDbLine
 62
7
  6
CONTINUOUS
 10
338.7252135922
 20
151.9382792725
 11
338.7190648468
 21
151.9303680116
  0
LINE
  5
451
100
AcDbEntity
  8
KONSTRUKTIONSELEMENTE
100
AcDbLine
 62
7
  6
CONTINUOUS
 10
338.7190648468
 20
151.9303680116
 11
338.7128856093
 21
151.9224462198
  0
LINE
  5
452
100
AcDbEntity
  8
KONSTRUKTIONSELEMENTE
100
AcDbLine
 62
7
  6
CONTINUOUS
 10
338.7686517128
 20
152.0984602787
 11
338.7655525225
 21
152.0770145691
  0
LINE
  5
453
100
AcDbEntity
  8
KONSTRUKTIONSELEMENTE
100
AcDbLine
 62
7
  6
CONTINUOUS
 10
338.7560336429
 20
152.0126918188
 11
338.7527872304
 21
151.9912552019
  0
LINE
  5
454
100
AcDbEntity
  8
KONSTRUKTIONSELEMENTE
100
AcDbLine
 62
7
  6
CONTINUOUS
 10
338.7527872304
 20
151.9912552019
 11
338.749504274
 21
151.969820648
  0
LINE
  5
455
100
AcDbEntity
  8
KONSTRUKTIONSELEMENTE
100
AcDbLine
 62
7
  6
CONTINUOUS
 10
338.7691421479
 20
152.413322327
 11
338.7693669459
 21
152.360844922
  0
LINE
  5
456
100
AcDbEntity
  8
KONSTRUKTIONSELEMENTE
100
AcDbLine
 62
7
  6
CONTINUOUS
 10
338.7505338163
 20
152.6345288827
 11
338.7537273301
 21
152.5976710905
  0
LINE
  5
457
100
AcDbEntity
  8
KONSTRUKTIONSELEMENTE
100
AcDbLine
 62
7
  6
CONTINUOUS
 10
338.7661332178
 20
152.4502006718
 11
338.7691421479
 21
152.413322327
  0
LINE
  5
458
100
AcDbEntity
  8
KONSTRUKTIONSELEMENTE
100
AcDbLine
 62
7
  6
CONTINUOUS
 10
338.7143330491
 20
152.8670323646
 11
338.7204424657
 21
152.8281576519
  0
LINE
  5
459
100
AcDbEntity
  8
KONSTRUKTIONSELEMENTE
100
AcDbLine
 62
7
  6
CONTINUOUS
 10
338.7445760666
 20
152.673157641
 11
338.7505338163
 21
152.6345288827
  0
LINE
  5
45A
100
AcDbEntity
  8
KONSTRUKTIONSELEMENTE
100
AcDbLine
 62
7
  6
CONTINUOUS
 10
338.6639683282
 20
153.098288568
 11
338.690971523
 21
152.9745127051
  0
LINE
  5
45B
100
AcDbEntity
  8
KONSTRUKTIONSELEMENTE
100
AcDbLine
 62
7
  6
CONTINUOUS
 10
338.690971523
 20
152.9745127051
 11
338.7143330491
 21
152.8670323646
  0
SPLINE
  5
45C
100
AcDbEntity
  8
0
100
AcDbSpline
 62
7
  6
CONTINUOUS
 70
0
 71
3
 72
11
 73
7
 74
0
 42
0.0000001
 43
0.0000001
 44
0.0000000001
 40
0.0
 40
0.0
 40
0.0
 40
0.0
 40
0.2501153763
 40
0.5000000002
 40
0.7498846243
 40
1.0
 40
1.0
 40
1.0
 40
1.0
 10
333.0877188016
 20
158.8917192739
 30
0.0
 10
333.0055913356
 20
158.0836429039
 30
0.0
 10
332.878185106
 20
156.4641704439
 30
0.0
 10
332.8125139183
 20
154.028706484
 30
0.0
 10
332.8781851041
 20
151.5932425259
 30
0.0
 10
333.0055913358
 20
149.9737700677
 30
0.0
 10
333.0877188016
 20
149.1656936997
 30
0.0
  0
SPLINE
  5
45D
100
AcDbEntity
  8
0
100
AcDbSpline
 62
7
  6
CONTINUOUS
 70
0
 71
3
 72
11
 73
7
 74
0
 42
0.0000001
 43
0.0000001
 44
0.0000000001
 40
0.0
 40
0.0
 40
0.0
 40
0.0
 40
0.2500007761
 40
0.5000003897
 40
0.7499997461
 40
1.0
 40
1.0
 40
1.0
 40
1.0
 10
333.0877188016
 20
149.1656936997
 30
0.0
 10
333.017441405
 20
148.3109773641
 30
0.0
 10
332.9038916199
 20
146.5991694764
 30
0.0
 10
332.8239781586
 20
144.0270617181
 30
0.0
 10
332.839426079
 20
141.4537397358
 30
0.0
 10
332.9126389964
 20
139.7396845699
 30
0.0
 10
332.9638787434
 20
138.8836177836
 30
0.0
  0
LINE
  5
45E
100
AcDbEntity
  8
KONSTRUKTIONSELEMENTE
100
AcDbLine
 62
7
  6
CONTINUOUS
 10
337.1346079863
 20
155.5994015027
 11
337.3300235253
 21
154.9857461729
  0
LINE
  5
45F
100
AcDbEntity
  8
KONSTRUKTIONSELEMENTE
100
AcDbLine
 62
7
  6
CONTINUOUS
 10
337.1362775292
 20
153.7119741771
 11
337.5345707431
 21
152.6357983857
  0
SPLINE
  5
460
100
AcDbEntity
  8
0
100
AcDbSpline
 62
7
  6
CONTINUOUS
 70
0
 71
3
 72
10
 73
6
 74
0
 42
0.0000001
 43
0.0000001
 44
0.0000000001
 40
0.0
 40
0.0
 40
0.0
 40
0.0
 40
0.5197649714
 40
0.7678605243
 40
1.0
 40
1.0
 40
1.0
 40
1.0
 10
331.4889162499
 20
122.7983389957
 30
0.0
 10
331.763725787
 20
123.2853481424
 30
0.0
 10
332.1693827524
 20
124.0052748214
 30
0.0
 10
332.6583259393
 20
124.963742538
 30
0.0
 10
332.8697410546
 20
125.4358146903
 30
0.0
 10
332.9602502528
 20
125.6685869216
 30
0.0
  0
SPLINE
  5
461
100
AcDbEntity
  8
0
100
AcDbSpline
 62
7
  6
CONTINUOUS
 70
0
 71
3
 72
13
 73
9
 74
0
 42
0.0000001
 43
0.0000001
 44
0.0000000001
 40
0.0
 40
0.0
 40
0.0
 40
0.0
 40
0.3768862323
 40
0.7001627069
 40
0.8261459541
 40
0.9208373056
 40
0.9798022726
 40
1.0
 40
1.0
 40
1.0
 40
1.0
 10
328.0681801077
 20
117.5429146135
 30
0.0
 10
327.8209552231
 20
117.4701810223
 30
0.0
 10
327.3617830175
 20
117.3346749794
 30
0.0
 10
326.820315419
 20
117.1737130603
 30
0.0
 10
326.4640396218
 20
117.0668970647
 30
0.0
 10
326.2811334177
 20
117.0112141145
 30
0.0
 10
326.1673038478
 20
116.9768576716
 30
0.0
 10
326.1160953409
 20
116.9593205942
 30
0.0
 10
326.1030849206
 20
116.9546793194
 30
0.0
  0
LINE
  5
462
100
AcDbEntity
  8
KONSTRUKTIONSELEMENTE
100
AcDbLine
 62
7
  6
CONTINUOUS
 10
337.4548535789
 20
153.9242697059
 11
337.1402343932
 21
154.7734504717
  0
LINE
  5
463
100
AcDbEntity
  8
KONSTRUKTIONSELEMENTE
100
AcDbLine
 62
7
  6
CONTINUOUS
 10
337.9632997014
 20
151.4183874395
 11
338.2091198566
 21
150.8813453183
  0
LINE
  5
464
100
AcDbEntity
  8
KONSTRUKTIONSELEMENTE
100
AcDbLine
 62
7
  6
CONTINUOUS
 10
338.2091198566
 20
150.8813453183
 11
338.3108144885
 21
150.6591323254
  0
LINE
  5
465
100
AcDbEntity
  8
KONSTRUKTIONSELEMENTE
100
AcDbLine
 62
7
  6
CONTINUOUS
 10
338.3108144885
 20
150.6591323254
 11
338.6666489627
 21
149.8813693667
  0
LINE
  5
466
100
AcDbEntity
  8
KONSTRUKTIONSELEMENTE
100
AcDbLine
 62
7
  6
CONTINUOUS
 10
338.6666489627
 20
149.8813693667
 11
338.7596529841
 21
149.6780180459
  0
LINE
  5
467
100
AcDbEntity
  8
0
100
AcDbLine
 62
7
  6
CONTINUOUS
 10
334.6030803192
 20
124.2868382323
 11
334.6030849206
 21
122.8774930291
  0
LINE
  5
468
100
AcDbEntity
  8
KONSTRUKTIONSELEMENTE
100
AcDbLine
 62
7
  6
CONTINUOUS
 10
338.2571009339
 20
152.0302805825
 11
338.2919971529
 21
151.8734630475
  0
LINE
  5
469
100
AcDbEntity
  8
KONSTRUKTIONSELEMENTE
100
AcDbLine
 62
7
  6
CONTINUOUS
 10
338.205650227
 20
152.182747554
 11
338.2571009339
 21
152.0302805825
  0
LINE
  5
46A
100
AcDbEntity
  8
KONSTRUKTIONSELEMENTE
100
AcDbLine
 62
7
  6
CONTINUOUS
 10
338.1547419645
 20
152.2938350526
 11
338.205650227
 21
152.182747554
  0
LINE
  5
46B
100
AcDbEntity
  8
KONSTRUKTIONSELEMENTE
100
AcDbLine
 62
7
  6
CONTINUOUS
 10
338.1043556196
 20
152.3635428708
 11
338.1212073669
 21
152.3402382774
  0
LINE
  5
46C
100
AcDbEntity
  8
KONSTRUKTIONSELEMENTE
100
AcDbLine
 62
7
  6
CONTINUOUS
 10
338.1212073669
 20
152.3402382774
 11
338.1296121319
 21
152.3286117276
  0
LINE
  5
46D
100
AcDbEntity
  8
KONSTRUKTIONSELEMENTE
100
AcDbLine
 62
7
  6
CONTINUOUS
 10
338.1296121319
 20
152.3286117276
 11
338.1547419645
 21
152.2938350526
  0
LINE
  5
46E
100
AcDbEntity
  8
KONSTRUKTIONSELEMENTE
100
AcDbLine
 62
7
  6
CONTINUOUS
 10
338.575202416
 20
152.0984594788
 11
338.6446730997
 21
151.9860137697
  0
LINE
  5
46F
100
AcDbEntity
  8
KONSTRUKTIONSELEMENTE
100
AcDbLine
 62
7
  6
CONTINUOUS
 10
338.4895773263
 20
152.2920903595
 11
338.575202416
 21
152.0984594788
  0
LINE
  5
470
100
AcDbEntity
  8
KONSTRUKTIONSELEMENTE
100
AcDbLine
 62
7
  6
CONTINUOUS
 10
337.9641125896
 20
153.7119741771
 11
338.4035235899
 21
152.524674425
  0
LINE
  5
471
100
AcDbEntity
  8
KONSTRUKTIONSELEMENTE
100
AcDbLine
 62
7
  6
CONTINUOUS
 10
338.4035235899
 20
152.524674425
 11
338.4210341589
 21
152.4773491906
  0
LINE
  5
472
100
AcDbEntity
  8
KONSTRUKTIONSELEMENTE
100
AcDbLine
 62
7
  6
CONTINUOUS
 10
338.4210341589
 20
152.4773491906
 11
338.4895773263
 21
152.2920903595
  0
LINE
  5
473
100
AcDbEntity
  8
KONSTRUKTIONSELEMENTE
100
AcDbLine
 62
7
  6
CONTINUOUS
 10
338.5625634544
 20
153.1349732565
 11
338.6145114071
 21
152.9268001517
  0
LINE
  5
474
100
AcDbEntity
  8
KONSTRUKTIONSELEMENTE
100
AcDbLine
 62
7
  6
CONTINUOUS
 10
338.494107246
 20
153.3535666541
 11
338.5169949704
 21
153.2804929001
  0
LINE
  5
475
100
AcDbEntity
  8
KONSTRUKTIONSELEMENTE
100
AcDbLine
 62
7
  6
CONTINUOUS
 10
338.5169949704
 20
153.2804929001
 11
338.5625634544
 21
153.1349732565
  0
LINE
  5
476
100
AcDbEntity
  8
KONSTRUKTIONSELEMENTE
100
AcDbLine
 62
7
  6
CONTINUOUS
 10
337.9680694536
 20
154.7734504717
 11
338.3051343979
 21
153.8636824937
  0
LINE
  5
477
100
AcDbEntity
  8
KONSTRUKTIONSELEMENTE
100
AcDbLine
 62
7
  6
CONTINUOUS
 10
338.3051343979
 20
153.8636824937
 11
338.3207511924
 21
153.8215281389
  0
LINE
  5
478
100
AcDbEntity
  8
KONSTRUKTIONSELEMENTE
100
AcDbLine
 62
7
  6
CONTINUOUS
 10
338.3207511924
 20
153.8215281389
 11
338.4076792365
 21
153.5868777153
  0
LINE
  5
479
100
AcDbEntity
  8
KONSTRUKTIONSELEMENTE
100
AcDbLine
 62
7
  6
CONTINUOUS
 10
338.4076792365
 20
153.5868777153
 11
338.42440771
 21
153.5417202953
  0
LINE
  5
47A
100
AcDbEntity
  8
KONSTRUKTIONSELEMENTE
100
AcDbLine
 62
7
  6
CONTINUOUS
 10
338.42440771
 20
153.5417202953
 11
338.494107246
 21
153.3535666541
  0
SPLINE
  5
47B
100
AcDbEntity
  8
RUNDUNGEN
100
AcDbSpline
 62
7
  6
CONTINUOUS
 70
0
 71
3
 72
10
 73
6
 74
0
 42
0.0000001
 43
0.0000001
 44
0.0000000001
 40
0.0
 40
0.0
 40
0.0
 40
0.0
 40
0.5197649714
 40
0.7678605243
 40
1.0
 40
1.0
 40
1.0
 40
1.0
 10
337.7172535913
 20
122.7983389957
 30
0.0
 10
337.4424440542
 20
123.2853481424
 30
0.0
 10
337.0367870888
 20
124.0052748214
 30
0.0
 10
336.5478439019
 20
124.963742538
 30
0.0
 10
336.3364287866
 20
125.4358146903
 30
0.0
 10
336.2459195884
 20
125.6685869216
 30
0.0
  0
SPLINE
  5
47C
100
AcDbEntity
  8
RUNDUNGEN
100
AcDbSpline
 62
7
  6
CONTINUOUS
 70
0
 71
3
 72
13
 73
9
 74
0
 42
0.0000001
 43
0.0000001
 44
0.0000000001
 40
0.0
 40
0.0
 40
0.0
 40
0.0
 40
0.3768862323
 40
0.7001627069
 40
0.8261459541
 40
0.9208373056
 40
0.9798022726
 40
1.0
 40
1.0
 40
1.0
 40
1.0
 10
341.1379897335
 20
117.5429146135
 30
0.0
 10
341.3852146181
 20
117.4701810223
 30
0.0
 10
341.8443868237
 20
117.3346749794
 30
0.0
 10
342.3858544222
 20
117.1737130603
 30
0.0
 10
342.7421302194
 20
117.0668970647
 30
0.0
 10
342.9250364235
 20
117.0112141145
 30
0.0
 10
343.0388659934
 20
116.9768576716
 30
0.0
 10
343.0900745003
 20
116.9593205942
 30
0.0
 10
343.1030849206
 20
116.9546793194
 30
0.0
  0
LINE
  5
47D
100
AcDbEntity
  8
KONSTRUKTIONSELEMENTE
100
AcDbLine
 62
7
  6
CONTINUOUS
 10
337.9624430467
 20
155.5994015027
 11
338.0158815813
 21
155.4316036074
  0
LINE
  5
47E
100
AcDbEntity
  8
KONSTRUKTIONSELEMENTE
100
AcDbLine
 62
7
  6
CONTINUOUS
 10
338.0158815813
 20
155.4316036074
 11
338.5987710291
 21
153.6006100297
  0
LINE
  5
47F
100
AcDbEntity
  8
KONSTRUKTIONSELEMENTE
100
AcDbLine
 62
7
  6
CONTINUOUS
 10
338.5987710291
 20
153.6006100297
 11
338.608871932
 21
153.5688671054
  0
LINE
  5
480
100
AcDbEntity
  8
KONSTRUKTIONSELEMENTE
100
AcDbLine
 62
7
  6
CONTINUOUS
 10
338.608871932
 20
153.5688671054
 11
338.6830387428
 21
153.3357747469
  0
LINE
  5
481
100
AcDbEntity
  8
KONSTRUKTIONSELEMENTE
100
AcDbLine
 62
7
  6
CONTINUOUS
 10
338.6830387428
 20
153.3357747469
 11
338.7585934979
 21
153.0982881423
  0
LINE
  5
482
100
AcDbEntity
  8
KONSTRUKTIONSELEMENTE
100
AcDbLine
 62
7
  6
CONTINUOUS
 10
338.5613316871
 20
154.6626313933
 11
338.6134697096
 21
154.4468790373
  0
LINE
  5
483
100
AcDbEntity
  8
KONSTRUKTIONSELEMENTE
100
AcDbLine
 62
7
  6
CONTINUOUS
 10
338.4927980241
 20
154.9035453397
 11
338.5613316871
 21
154.6626313933
  0
LINE
  5
484
100
AcDbEntity
  8
KONSTRUKTIONSELEMENTE
100
AcDbLine
 62
7
  6
CONTINUOUS
 10
338.2383649833
 20
155.7017729873
 11
338.4085032207
 21
155.1680171584
  0
LINE
  5
485
100
AcDbEntity
  8
KONSTRUKTIONSELEMENTE
100
AcDbLine
 62
7
  6
CONTINUOUS
 10
338.4085032207
 20
155.1680171584
 11
338.4507153243
 21
155.0355802718
  0
LINE
  5
486
100
AcDbEntity
  8
KONSTRUKTIONSELEMENTE
100
AcDbLine
 62
7
  6
CONTINUOUS
 10
338.4507153243
 20
155.0355802718
 11
338.4927980241
 21
154.9035453397
  0
LINE
  5
487
100
AcDbEntity
  8
KONSTRUKTIONSELEMENTE
100
AcDbLine
 62
7
  6
CONTINUOUS
 10
338.1711334112
 20
155.8865804132
 11
338.1936287444
 21
155.8247664495
  0
LINE
  5
488
100
AcDbEntity
  8
KONSTRUKTIONSELEMENTE
100
AcDbLine
 62
7
  6
CONTINUOUS
 10
338.1936287444
 20
155.8247664495
 11
338.2383649833
 21
155.7017729873
  0
LINE
  5
489
100
AcDbEntity
  8
KONSTRUKTIONSELEMENTE
100
AcDbLine
 62
7
  6
CONTINUOUS
 10
338.1213277272
 20
155.9901192355
 11
338.1296904813
 21
155.9727650192
  0
LINE
  5
48A
100
AcDbEntity
  8
KONSTRUKTIONSELEMENTE
100
AcDbLine
 62
7
  6
CONTINUOUS
 10
338.1296904813
 20
155.9727650192
 11
338.1380284924
 21
155.9554499348
  0
LINE
  5
48B
100
AcDbEntity
  8
KONSTRUKTIONSELEMENTE
100
AcDbLine
 62
7
  6
CONTINUOUS
 10
338.1380284924
 20
155.9554499348
 11
338.1711334112
 21
155.8865804132
  0
LINE
  5
48C
100
AcDbEntity
  8
KONSTRUKTIONSELEMENTE
100
AcDbLine
 62
7
  6
CONTINUOUS
 10
338.1159315835
 20
155.9938199329
 11
338.1213277272
 21
155.9901192355
  0
LINE
  5
48D
100
AcDbEntity
  8
0
100
AcDbLine
 62
7
  6
CONTINUOUS
 10
334.6030849206
 20
116.1829828076
 11
334.6030849206
 21
114.8966814936
  0
LINE
  5
48E
100
AcDbEntity
  8
KONSTRUKTIONSELEMENTE
100
AcDbLine
 62
7
  6
CONTINUOUS
 10
337.135464641
 20
151.4183874395
 11
337.9318179237
 21
149.6780180459
  0
SPLINE
  5
48F
100
AcDbEntity
  8
0
100
AcDbSpline
 62
7
  6
CONTINUOUS
 70
0
 71
3
 72
11
 73
7
 74
0
 42
0.0000001
 43
0.0000001
 44
0.0000000001
 40
0.0
 40
0.0
 40
0.0
 40
0.0
 40
0.2500007761
 40
0.5000003897
 40
0.7499997461
 40
1.0
 40
1.0
 40
1.0
 40
1.0
 10
336.1184510396
 20
149.1656936997
 30
0.0
 10
336.1887284362
 20
148.3109773641
 30
0.0
 10
336.3022782213
 20
146.5991694764
 30
0.0
 10
336.3821916826
 20
144.0270617181
 30
0.0
 10
336.3667437621
 20
141.4537397358
 30
0.0
 10
336.2935308448
 20
139.7396845699
 30
0.0
 10
336.2422910978
 20
138.8836177836
 30
0.0
  0
SPLINE
  5
490
100
AcDbEntity
  8
0
100
AcDbSpline
 62
7
  6
CONTINUOUS
 70
0
 71
3
 72
11
 73
7
 74
0
 42
0.0000001
 43
0.0000001
 44
0.0000000001
 40
0.0
 40
0.0
 40
0.0
 40
0.0
 40
0.2501153763
 40
0.5000000002
 40
0.7498846243
 40
1.0
 40
1.0
 40
1.0
 40
1.0
 10
336.1184510396
 20
158.8917192739
 30
0.0
 10
336.2005785056
 20
158.0836429039
 30
0.0
 10
336.3279847352
 20
156.4641704439
 30
0.0
 10
336.3936559229
 20
154.028706484
 30
0.0
 10
336.3279847371
 20
151.5932425259
 30
0.0
 10
336.2005785054
 20
149.9737700677
 30
0.0
 10
336.1184510396
 20
149.1656936997
 30
0.0
  0
SPLINE
  5
491
100
AcDbEntity
  8
0
100
AcDbSpline
 62
7
  6
CONTINUOUS
 70
0
 71
3
 72
11
 73
7
 74
0
 42
0.0000001
 43
0.0000001
 44
0.0000000001
 40
0.0
 40
0.0
 40
0.0
 40
0.0
 40
0.2520136566
 40
0.5000000002
 40
0.747986344
 40
1.0
 40
1.0
 40
1.0
 40
1.0
 10
333.0877188016
 20
162.6067304678
 30
0.0
 10
333.0065561474
 20
162.3016987891
 30
0.0
 10
332.8790076848
 20
161.6866981737
 30
0.0
 10
332.8122721836
 20
160.7492248699
 30
0.0
 10
332.879007683
 20
159.8117515663
 30
0.0
 10
333.0065561476
 20
159.1967509519
 30
0.0
 10
333.0877188016
 20
158.8917192739
 30
0.0
  0
SPLINE
  5
492
100
AcDbEntity
  8
0
100
AcDbSpline
 62
7
  6
CONTINUOUS
 70
0
 71
3
 72
11
 73
7
 74
0
 42
0.0000001
 43
0.0000001
 44
0.0000000001
 40
0.0
 40
0.0
 40
0.0
 40
0.0
 40
0.2520136566
 40
0.5000000002
 40
0.747986344
 40
1.0
 40
1.0
 40
1.0
 40
1.0
 10
336.1184510396
 20
162.6067304678
 30
0.0
 10
336.1996136938
 20
162.3016987891
 30
0.0
 10
336.3271621564
 20
161.6866981737
 30
0.0
 10
336.3938976575
 20
160.7492248699
 30
0.0
 10
336.3271621582
 20
159.8117515663
 30
0.0
 10
336.1996136936
 20
159.1967509519
 30
0.0
 10
336.1184510396
 20
158.8917192739
 30
0.0
  0
SPLINE
  5
493
100
AcDbEntity
  8
KONSTRUKTIONSELEMENTE
100
AcDbSpline
 62
7
  6
CONTINUOUS
 70
0
 71
3
 72
14
 73
10
 74
0
 42
0.0000001
 43
0.0000001
 44
0.0000000001
 40
0.0
 40
0.0
 40
0.0
 40
0.0
 40
0.1193894076
 40
0.2390957115
 40
0.3600148606
 40
0.4826457182
 40
0.6077304619
 40
0.7357412445
 40
1.0
 40
1.0
 40
1.0
 40
1.0
 10
76.9704265954
 20
91.3521181087
 30
0.0
 10
76.9704265954
 20
91.7107577199
 30
0.0
 10
77.0465170468
 20
92.4312618557
 30
0.0
 10
77.3821160442
 20
93.4667688937
 30
0.0
 10
77.9180157526
 20
94.4250465763
 30
0.0
 10
78.6302566963
 20
95.2803593286
 30
0.0
 10
79.4912280654
 20
96.0179500632
 30
0.0
 10
80.815504862
 20
96.8395772772
 30
0.0
 10
81.9421504223
 20
97.2423280843
 30
0.0
 10
82.7163142749
 20
97.4178842294
 30
0.0
  0
SPLINE
  5
494
100
AcDbEntity
  8
KONSTRUKTIONSELEMENTE
100
AcDbSpline
 62
7
  6
CONTINUOUS
 70
0
 71
3
 72
14
 73
10
 74
0
 42
0.0000001
 43
0.0000001
 44
0.0000000001
 40
0.0
 40
0.0
 40
0.0
 40
0.0
 40
0.2642708626
 40
0.3922805637
 40
0.5173547468
 40
0.6399817364
 40
0.7608849187
 40
0.8806119843
 40
1.0
 40
1.0
 40
1.0
 40
1.0
 10
87.2225973742
 20
97.4183154417
 30
0.0
 10
87.9969947007
 20
97.2428353374
 30
0.0
 10
89.1240054515
 20
96.8402279474
 30
0.0
 10
90.4487119261
 20
96.0186345855
 30
0.0
 10
91.3099416279
 20
95.2810297234
 30
0.0
 10
92.0223749603
 20
94.4256864466
 30
0.0
 10
92.5586069219
 20
93.4673065865
 30
0.0
 10
92.894244044
 20
92.431541908
 30
0.0
 10
92.9704265954
 20
91.710832379
 30
0.0
 10
92.9704265954
 20
91.3521181087
 30
0.0
  0
SPLINE
  5
495
100
AcDbEntity
  8
KONSTRUKTIONSELEMENTE
100
AcDbSpline
 62
7
  6
CONTINUOUS
 70
0
 71
3
 72
14
 73
10
 74
0
 42
0.0000001
 43
0.0000001
 44
0.0000000001
 40
0.0
 40
0.0
 40
0.0
 40
0.0
 40
0.0551359094
 40
0.1223699656
 40
0.2074507274
 40
0.3149057254
 40
0.4478676734
 40
0.6082995934
 40
1.0
 40
1.0
 40
1.0
 40
1.0
 10
81.4704265954
 20
91.3521181087
 30
0.0
 10
81.4704265954
 20
91.3871931065
 30
0.0
 10
81.4765176591
 20
91.4652131757
 30
0.0
 10
81.5106670647
 20
91.5934055026
 30
0.0
 10
81.5794003585
 20
91.7444115283
 30
0.0
 10
81.692293733
 20
91.9188650507
 30
0.0
 10
81.8609258126
 20
92.1112809628
 30
0.0
 10
82.1885389217
 20
92.4000535257
 30
0.0
 10
82.4936757338
 20
92.581882273
 30
0.0
 10
82.7184347071
 20
92.689470404
 30
0.0
  0
SPLINE
  5
496
100
AcDbEntity
  8
KONSTRUKTIONSELEMENTE
100
AcDbSpline
 62
7
  6
CONTINUOUS
 70
0
 71
3
 72
14
 73
10
 74
0
 42
0.0000001
 43
0.0000001
 44
0.0000000001
 40
0.0
 40
0.0
 40
0.0
 40
0.0
 40
0.3917172299
 40
0.5521555057
 40
0.6851138818
 40
0.7925516428
 40
0.877642207
 40
0.9448879032
 40
1.0
 40
1.0
 40
1.0
 40
1.0
 10
87.2221758309
 20
92.6895823321
 30
0.0
 10
87.4469837368
 20
92.5819924314
 30
0.0
 10
87.7521851975
 20
92.4001430449
 30
0.0
 10
88.0798578454
 20
92.1113310932
 30
0.0
 10
88.2485368755
 20
91.9189227019
 30
0.0
 10
88.3614504973
 20
91.7444534608
 30
0.0
 10
88.4301647902
 20
91.593410652
 30
0.0
 10
88.4643200541
 20
91.4652048866
 30
0.0
 10
88.4704265954
 20
91.3871827695
 30
0.0
 10
88.4704265954
 20
91.3521181087
 30
0.0
  0
SPLINE
  5
497
100
AcDbEntity
  8
KONSTRUKTIONSELEMENTE
100
AcDbSpline
 62
7
  6
CONTINUOUS
 70
0
 71
3
 72
12
 73
8
 74
0
 42
0.0000001
 43
0.0000001
 44
0.0000000001
 40
0.0
 40
0.0
 40
0.0
 40
0.0
 40
0.1282453638
 40
0.2146169864
 40
0.321985829
 40
0.6101725692
 40
1.0
 40
1.0
 40
1.0
 40
1.0
 10
88.4704265954
 20
80.7455163909
 30
0.0
 10
88.4704265954
 20
80.6762533811
 30
0.0
 10
88.4507636097
 20
80.5597095314
 30
0.0
 10
88.384073716
 20
80.3986860076
 30
0.0
 10
88.2529088252
 20
80.1728748335
 30
0.0
 10
87.9616143648
 20
79.8579003902
 30
0.0
 10
87.6593169614
 20
79.6465331481
 30
0.0
 10
87.4767806604
 20
79.5416185516
 30
0.0
  0
SPLINE
  5
498
100
AcDbEntity
  8
KONSTRUKTIONSELEMENTE
100
AcDbSpline
 62
7
  6
CONTINUOUS
 70
0
 71
3
 72
12
 73
8
 74
0
 42
0.0000001
 43
0.0000001
 44
0.0000000001
 40
0.0
 40
0.0
 40
0.0
 40
0.0
 40
0.3898396094
 40
0.6780156338
 40
0.7853729626
 40
0.8717632718
 40
1.0
 40
1.0
 40
1.0
 40
1.0
 10
82.4639809943
 20
79.5416710228
 30
0.0
 10
82.2814537508
 20
79.6465864323
 30
0.0
 10
81.9792059871
 20
79.85797577
 30
0.0
 10
81.687901011
 20
80.1728936876
 30
0.0
 10
81.5567628527
 20
80.3987021495
 30
0.0
 10
81.4901170456
 20
80.559727884
 30
0.0
 10
81.4704265954
 20
80.6762626585
 30
0.0
 10
81.4704265954
 20
80.7455163909
 30
0.0
  0
SPLINE
  5
499
100
AcDbEntity
  8
KONSTRUKTIONSELEMENTE
100
AcDbSpline
 62
7
  6
CONTINUOUS
 70
0
 71
3
 72
14
 73
10
 74
0
 42
0.0000001
 43
0.0000001
 44
0.0000000001
 40
0.0
 40
0.0
 40
0.0
 40
0.0
 40
0.1196424727
 40
0.2395631224
 40
0.3606430533
 40
0.4833332762
 40
0.6083558391
 40
0.7361852119
 40
1.0
 40
1.0
 40
1.0
 40
1.0
 10
92.9704265954
 20
80.7455163909
 30
0.0
 10
92.9704265954
 20
80.3963026888
 30
0.0
 10
92.8983278954
 20
79.6949640522
 30
0.0
 10
92.5800202979
 20
78.6847349509
 30
0.0
 10
92.0707195591
 20
77.7461970987
 30
0.0
 10
91.3923115487
 20
76.9036155016
 30
0.0
 10
90.5702454539
 20
76.1713730095
 30
0.0
 10
89.3027479143
 20
75.3466993637
 30
0.0
 10
88.2200754529
 20
74.9297015393
 30
0.0
 10
87.4738509313
 20
74.7397330487
 30
0.0
  0
SPLINE
  5
49A
100
AcDbEntity
  8
KONSTRUKTIONSELEMENTE
100
AcDbSpline
 62
7
  6
CONTINUOUS
 70
0
 71
3
 72
14
 73
10
 74
0
 42
0.0000001
 43
0.0000001
 44
0.0000000001
 40
0.0
 40
0.0
 40
0.0
 40
0.0
 40
0.2638203492
 40
0.3916464215
 40
0.5166578653
 40
0.6393440549
 40
0.7604112963
 40
0.8803567455
 40
1.0
 40
1.0
 40
1.0
 40
1.0
 10
82.4660987929
 20
74.7399802382
 30
0.0
 10
81.7199589705
 20
74.9300148395
 30
0.0
 10
80.6374255553
 20
75.3470405685
 30
0.0
 10
79.3701541085
 20
76.1717223855
 30
0.0
 10
78.5482809309
 20
76.9039228718
 30
0.0
 10
77.8700363865
 20
77.7463739344
 30
0.0
 10
77.3607287043
 20
78.6848112295
 30
0.0
 10
77.0425696014
 20
79.6950100875
 30
0.0
 10
76.9704265954
 20
80.3963375935
 30
0.0
 10
76.9704265954
 20
80.7455163909
 30
0.0
  0
SPLINE
  5
49B
100
AcDbEntity
  8
KONSTRUKTIONSELEMENTE
100
AcDbSpline
 62
7
  6
CONTINUOUS
 70
0
 71
3
 72
9
 73
5
 74
0
 42
0.0000001
 43
0.0000001
 44
0.0000000001
 40
0.0
 40
0.0
 40
0.0
 40
0.0
 40
0.4403711995
 40
1.0
 40
1.0
 40
1.0
 40
1.0
 10
81.7151468827
 20
123.0519565167
 30
0.0
 10
81.8037181629
 20
123.1642590283
 30
0.0
 10
82.036925613
 20
123.3939485096
 30
0.0
 10
82.3064869867
 20
123.5781404254
 30
0.0
 10
82.4640725304
 20
123.6687143202
 30
0.0
  0
SPLINE
  5
49C
100
AcDbEntity
  8
KONSTRUKTIONSELEMENTE
100
AcDbSpline
 62
7
  6
CONTINUOUS
 70
0
 71
3
 72
9
 73
5
 74
0
 42
0.0000001
 43
0.0000001
 44
0.0000000001
 40
0.0
 40
0.0
 40
0.0
 40
0.0
 40
0.5596284139
 40
1.0
 40
1.0
 40
1.0
 40
1.0
 10
87.4768721965
 20
123.668661849
 30
0.0
 10
87.6344409549
 20
123.5780924058
 30
0.0
 10
87.90395912
 20
123.3938914402
 30
0.0
 10
88.1371540975
 20
123.1642359879
 30
0.0
 10
88.225724647
 20
123.0519494221
 30
0.0
  0
SPLINE
  5
49D
100
AcDbEntity
  8
KONSTRUKTIONSELEMENTE
100
AcDbSpline
 62
7
  6
CONTINUOUS
 70
0
 71
3
 72
14
 73
10
 74
0
 42
0.0000001
 43
0.0000001
 44
0.0000000001
 40
0.0
 40
0.0
 40
0.0
 40
0.0
 40
0.0551359094
 40
0.1223699656
 40
0.2074507274
 40
0.3149057254
 40
0.4478676734
 40
0.6082995934
 40
1.0
 40
1.0
 40
1.0
 40
1.0
 10
88.4704265954
 20
111.8582147631
 30
0.0
 10
88.4704265954
 20
111.8231397654
 30
0.0
 10
88.4643355316
 20
111.7451196962
 30
0.0
 10
88.4301861261
 20
111.6169273692
 30
0.0
 10
88.3614528322
 20
111.4659213435
 30
0.0
 10
88.2485594577
 20
111.2914678211
 30
0.0
 10
88.0799273781
 20
111.099051909
 30
0.0
 10
87.7523142691
 20
110.8102793461
 30
0.0
 10
87.447177457
 20
110.6284505988
 30
0.0
 10
87.2224184837
 20
110.5208624678
 30
0.0
  0
SPLINE
  5
49E
100
AcDbEntity
  8
KONSTRUKTIONSELEMENTE
100
AcDbSpline
 62
7
  6
CONTINUOUS
 70
0
 71
3
 72
14
 73
10
 74
0
 42
0.0000001
 43
0.0000001
 44
0.0000000001
 40
0.0
 40
0.0
 40
0.0
 40
0.0
 40
0.3917172299
 40
0.5521555057
 40
0.6851138818
 40
0.7925516428
 40
0.877642207
 40
0.9448879032
 40
1.0
 40
1.0
 40
1.0
 40
1.0
 10
82.7186773599
 20
110.5207505397
 30
0.0
 10
82.4938694539
 20
110.6283404404
 30
0.0
 10
82.1886679932
 20
110.8101898269
 30
0.0
 10
81.8609953453
 20
111.0990017786
 30
0.0
 10
81.6923163153
 20
111.2914101699
 30
0.0
 10
81.5794026934
 20
111.465879411
 30
0.0
 10
81.5106884006
 20
111.6169222198
 30
0.0
 10
81.4765331366
 20
111.7451279852
 30
0.0
 10
81.4704265954
 20
111.8231501023
 30
0.0
 10
81.4704265954
 20
111.8582147631
 30
0.0
  0
SPLINE
  5
49F
100
AcDbEntity
  8
KONSTRUKTIONSELEMENTE
100
AcDbSpline
 62
7
  6
CONTINUOUS
 70
0
 71
3
 72
13
 73
9
 74
0
 42
0.0000001
 43
0.0000001
 44
0.0000000001
 40
0.0
 40
0.0
 40
0.0
 40
0.0
 40
0.1189713417
 40
0.2388786128
 40
0.3600905317
 40
0.4831945375
 40
0.7362969402
 40
1.0
 40
1.0
 40
1.0
 40
1.0
 10
92.8966579523
 20
110.991047284
 30
0.0
 10
92.8422796619
 20
110.6728251199
 30
0.0
 10
92.672483911
 20
110.04272787
 30
0.0
 10
92.2510580297
 20
109.155901369
 30
0.0
 10
91.67921138
 20
108.3441622335
 30
0.0
 10
90.7342387816
 20
107.3736829588
 30
0.0
 10
89.2619181244
 20
106.4110888266
 30
0.0
 10
87.9223924377
 20
105.9506999916
 30
0.0
 10
87.2245389159
 20
105.7924486425
 30
0.0
  0
SPLINE
  5
4A0
100
AcDbEntity
  8
KONSTRUKTIONSELEMENTE
100
AcDbSpline
 62
7
  6
CONTINUOUS
 70
0
 71
3
 72
13
 73
9
 74
0
 42
0.0000001
 43
0.0000001
 44
0.0000000001
 40
0.0
 40
0.0
 40
0.0
 40
0.0
 40
0.2637144538
 40
0.5168073563
 40
0.6399039014
 40
0.7611012554
 40
0.8810027155
 40
1.0
 40
1.0
 40
1.0
 40
1.0
 10
82.7182558166
 20
105.7920174301
 30
0.0
 10
82.0202041467
 20
105.9501974439
 30
0.0
 10
80.6803100965
 20
106.4103969187
 30
0.0
 10
79.207500131
 20
107.3729121743
 30
0.0
 10
78.2623127065
 20
108.3434396412
 30
0.0
 10
77.6901602012
 20
109.1551177425
 30
0.0
 10
77.2685584717
 20
110.0421120491
 30
0.0
 10
77.0986903101
 20
110.6723844318
 30
0.0
 10
77.0442699042
 20
110.9907379061
 30
0.0
  0
SPLINE
  5
4A1
100
AcDbEntity
  8
BEZUGSACHSEN
100
AcDbSpline
 62
7
  6
CONTINUOUS
 70
0
 71
3
 72
9
 73
5
 74
0
 42
0.0000001
 43
0.0000001
 44
0.0000000001
 40
0.0
 40
0.0
 40
0.0
 40
0.0
 40
0.4777750451
 40
1.0
 40
1.0
 40
1.0
 40
1.0
 10
88.6777881941
 20
65.5414282037
 30
0.0
 10
88.5451439973
 20
65.3098857223
 30
0.0
 10
88.1863588135
 20
64.8699014189
 30
0.0
 10
87.7275716382
 20
64.5413409273
 30
0.0
 10
87.4738849972
 20
64.3974130616
 30
0.0
  0
SPLINE
  5
4A2
100
AcDbEntity
  8
BEZUGSACHSEN
100
AcDbSpline
 62
7
  6
CONTINUOUS
 70
0
 71
3
 72
9
 73
5
 74
0
 42
0.0000001
 43
0.0000001
 44
0.0000000001
 40
0.0
 40
0.0
 40
0.0
 40
0.0
 40
0.5222249549
 40
1.0
 40
1.0
 40
1.0
 40
1.0
 10
82.4669681935
 20
64.3974130616
 30
0.0
 10
82.2132815525
 20
64.5413409273
 30
0.0
 10
81.7544943772
 20
64.8699014189
 30
0.0
 10
81.3957091934
 20
65.3098857223
 30
0.0
 10
81.2630649967
 20
65.5414282037
 30
0.0
  0
SPLINE
  5
4A3
100
AcDbEntity
  8
KONSTRUKTIONSELEMENTE
100
AcDbSpline
 62
7
  6
CONTINUOUS
 70
0
 71
3
 72
13
 73
9
 74
0
 42
0.0000001
 43
0.0000001
 44
0.0000000001
 40
0.0
 40
0.0
 40
0.0
 40
0.0
 40
0.1035698708
 40
0.2118852886
 40
0.327021228
 40
0.4498249804
 40
0.7159005812
 40
1.0
 40
1.0
 40
1.0
 40
1.0
 10
82.2287379252
 20
34.6678672452
 30
0.0
 10
82.2140658868
 20
34.7726768334
 30
0.0
 10
82.1555135246
 20
34.9839635205
 30
0.0
 10
81.9897067518
 20
35.2773026244
 30
0.0
 10
81.7519712753
 20
35.5426939945
 30
0.0
 10
81.3400688357
 20
35.8560842069
 30
0.0
 10
80.6954527499
 20
36.1263663996
 30
0.0
 10
80.1307299784
 20
36.1977891762
 30
0.0
 10
79.8404265954
 20
36.1977891762
 30
0.0
  0
SPLINE
  5
4A4
100
AcDbEntity
  8
KONSTRUKTIONSELEMENTE
100
AcDbSpline
 62
7
  6
CONTINUOUS
 70
0
 71
3
 72
9
 73
5
 74
0
 42
0.0000001
 43
0.0000001
 44
0.0000000001
 40
0.0
 40
0.0
 40
0.0
 40
0.0
 40
0.4892987036
 40
1.0
 40
1.0
 40
1.0
 40
1.0
 10
66.7101958058
 20
55.8273319375
 30
0.0
 10
66.7102086031
 20
55.8738263941
 30
0.0
 10
66.6951025497
 20
55.9693779833
 30
0.0
 10
66.6525897045
 20
56.0559141736
 30
0.0
 10
66.6258736091
 20
56.0964263373
 30
0.0
  0
SPLINE
  5
4A5
100
AcDbEntity
  8
KONSTRUKTIONSELEMENTE
100
AcDbSpline
 62
7
  6
CONTINUOUS
 70
0
 71
3
 72
11
 73
7
 74
0
 42
0.0000001
 43
0.0000001
 44
0.0000000001
 40
0.0
 40
0.0
 40
0.0
 40
0.0
 40
0.2200436456
 40
0.4557793627
 40
0.7157728079
 40
1.0
 40
1.0
 40
1.0
 40
1.0
 10
62.4448449918
 20
56.4557812711
 30
0.0
 10
62.4448616561
 20
56.5163252194
 30
0.0
 10
62.4714503921
 20
56.6428665982
 30
0.0
 10
62.5826626171
 20
56.809925448
 30
0.0
 10
62.7522398177
 20
56.9458104956
 30
0.0
 10
62.8902172641
 20
57.0079210705
 30
0.0
 10
62.9644877612
 20
57.0324102301
 30
0.0
  0
SPLINE
  5
4A6
100
AcDbEntity
  8
KONSTRUKTIONSELEMENTE
100
AcDbSpline
 62
7
  6
CONTINUOUS
 70
0
 71
3
 72
12
 73
8
 74
0
 42
0.0000001
 43
0.0000001
 44
0.0000000001
 40
0.0
 40
0.0
 40
0.0
 40
0.0
 40
0.1093790685
 40
0.2208897874
 40
0.4563550533
 40
0.7160756008
 40
1.0
 40
1.0
 40
1.0
 40
1.0
 10
58.4572134554
 20
63.0438095113
 30
0.0
 10
58.457224321
 20
63.1442506629
 30
0.0
 10
58.4778476397
 20
63.3476726006
 30
0.0
 10
58.6019445902
 20
63.7503768961
 30
0.0
 10
58.9163796204
 20
64.2252155115
 30
0.0
 10
59.4817538599
 20
64.6774375037
 30
0.0
 10
59.9417395103
 20
64.8847340942
 30
0.0
 10
60.1893499565
 20
64.9663785151
 30
0.0
  0
SPLINE
  5
4A7
100
AcDbEntity
  8
KONSTRUKTIONSELEMENTE
100
AcDbSpline
 62
7
  6
CONTINUOUS
 70
0
 71
3
 72
9
 73
5
 74
0
 42
0.0000001
 43
0.0000001
 44
0.0000000001
 40
0.0
 40
0.0
 40
0.0
 40
0.0
 40
0.4891681133
 40
1.0
 40
1.0
 40
1.0
 40
1.0
 10
58.4572135755
 20
60.922418188
 30
0.0
 10
58.4572045335
 20
60.7675639125
 30
0.0
 10
58.5075511109
 20
60.4492389146
 30
0.0
 10
58.6492543357
 20
60.1609805092
 30
0.0
 10
58.7382813806
 20
60.0259803092
 30
0.0
  0
SPLINE
  5
4A8
100
AcDbEntity
  8
KONSTRUKTIONSELEMENTE
100
AcDbSpline
 62
7
  6
CONTINUOUS
 70
0
 71
3
 72
9
 73
5
 74
0
 42
0.0000001
 43
0.0000001
 44
0.0000000001
 40
0.0
 40
0.0
 40
0.0
 40
0.0
 40
0.4891681133
 40
1.0
 40
1.0
 40
1.0
 40
1.0
 10
98.7500980669
 20
40.6728786272
 30
0.0
 10
98.7500890249
 20
40.8277329027
 30
0.0
 10
98.8004356023
 20
41.1460579006
 30
0.0
 10
98.9421388272
 20
41.434316306
 30
0.0
 10
99.031165872
 20
41.569316506
 30
0.0
  0
SPLINE
  5
4A9
100
AcDbEntity
  8
KONSTRUKTIONSELEMENTE
100
AcDbSpline
 62
7
  6
CONTINUOUS
 70
0
 71
3
 72
9
 73
5
 74
0
 42
0.0000001
 43
0.0000001
 44
0.0000000001
 40
0.0
 40
0.0
 40
0.0
 40
0.0
 40
0.4753722117
 40
1.0
 40
1.0
 40
1.0
 40
1.0
 10
99.1440028429
 20
41.743342573
 30
0.0
 10
99.3044666839
 20
41.5443332292
 30
0.0
 10
99.7200717642
 20
41.1869263177
 30
0.0
 10
100.2142927827
 20
40.9599072068
 30
0.0
 10
100.4822344479
 20
40.8715589872
 30
0.0
  0
SPLINE
  5
4AA
100
AcDbEntity
  8
KONSTRUKTIONSELEMENTE
100
AcDbSpline
 62
7
  6
CONTINUOUS
 70
0
 71
3
 72
13
 73
9
 74
0
 42
0.0000001
 43
0.0000001
 44
0.0000000001
 40
0.0
 40
0.0
 40
0.0
 40
0.0
 40
0.1034245124
 40
0.2106827955
 40
0.3244923156
 40
0.4464288307
 40
0.7129290176
 40
1.0
 40
1.0
 40
1.0
 40
1.0
 10
81.0404265954
 20
28.5610359393
 30
0.0
 10
81.0404265954
 20
28.5192644447
 30
0.0
 10
81.0525802104
 20
28.433745681
 30
0.0
 10
81.1056011407
 20
28.3123803948
 30
0.0
 10
81.190748301
 20
28.2015583608
 30
0.0
 10
81.3462929596
 20
28.0694274976
 30
0.0
 10
81.5997671135
 20
27.9548339712
 30
0.0
 10
81.8244832496
 20
27.9246398363
 30
0.0
 10
81.9404265954
 20
27.9246398363
 30
0.0
  0
SPLINE
  5
4AB
100
AcDbEntity
  8
BEZUGSACHSEN
100
AcDbSpline
 62
7
  6
CONTINUOUS
 70
0
 71
3
 72
9
 73
5
 74
0
 42
0.0000001
 43
0.0000001
 44
0.0000000001
 40
0.0
 40
0.0
 40
0.0
 40
0.0
 40
0.2464269631
 40
1.0
 40
1.0
 40
1.0
 40
1.0
 10
90.0418457363
 20
71.4652302271
 30
0.0
 10
89.83766857
 20
71.5325534227
 30
0.0
 10
89.0031918422
 20
71.7875291374
 30
0.0
 10
88.1471069731
 20
71.9710231051
 30
0.0
 10
87.4971621116
 20
72.0700070468
 30
0.0
  0
LINE
  5
4AC
100
AcDbEntity
  8
BEZUGSACHSEN
100
AcDbLine
 62
7
  6
CONTINUOUS
 10
87.4971621116
 20
72.0700070468
 11
87.4727601398
 21
72.0737045918
  0
LINE
  5
4AD
100
AcDbEntity
  8
BEZUGSACHSEN
100
AcDbLine
 62
7
  6
CONTINUOUS
 10
82.4680930509
 20
72.0737045918
 11
82.4436910791
 21
72.0700070468
  0
SPLINE
  5
4AE
100
AcDbEntity
  8
BEZUGSACHSEN
100
AcDbSpline
 62
7
  6
CONTINUOUS
 70
0
 71
3
 72
9
 73
5
 74
0
 42
0.0000001
 43
0.0000001
 44
0.0000000001
 40
0.0
 40
0.0
 40
0.0
 40
0.0
 40
0.2533122656
 40
1.0
 40
1.0
 40
1.0
 40
1.0
 10
82.4436910791
 20
72.0700070468
 30
0.0
 10
82.2252155208
 20
72.0367341137
 30
0.0
 10
81.3655171666
 20
71.8879537494
 30
0.0
 10
80.5176694517
 20
71.6692212188
 30
0.0
 10
79.8990074545
 20
71.4652302271
 30
0.0
  0
SPLINE
  5
4AF
100
AcDbEntity
  8
KONSTRUKTIONSELEMENTE
100
AcDbSpline
 62
7
  6
CONTINUOUS
 70
0
 71
3
 72
11
 73
7
 74
0
 42
0.0000001
 43
0.0000001
 44
0.0000000001
 40
0.0
 40
0.0
 40
0.0
 40
0.0
 40
0.2200606194
 40
0.4557771489
 40
0.7157721538
 40
1.0
 40
1.0
 40
1.0
 40
1.0
 10
104.124262523
 20
39.445393793
 30
0.0
 10
104.1242644977
 20
39.4790407868
 30
0.0
 10
104.1095305294
 20
39.549368667
 30
0.0
 10
104.0477458292
 20
39.6422201088
 30
0.0
 10
103.9535186567
 20
39.717736324
 30
0.0
 10
103.8768456237
 20
39.752256196
 30
0.0
 10
103.8355732599
 20
39.7658649039
 30
0.0
  0
SPLINE
  5
4B0
100
AcDbEntity
  8
BEZUGSACHSEN
100
AcDbSpline
 62
7
  6
CONTINUOUS
 70
0
 71
3
 72
11
 73
7
 74
0
 42
0.0000001
 43
0.0000001
 44
0.0000000001
 40
0.0
 40
0.0
 40
0.0
 40
0.0
 40
0.2279319373
 40
0.4664024631
 40
0.722818209
 40
1.0
 40
1.0
 40
1.0
 40
1.0
 10
80.9704265954
 20
64.4820604236
 30
0.0
 10
80.9704265954
 20
64.6937812924
 30
0.0
 10
81.0412803343
 20
65.1297726005
 30
0.0
 10
81.3480985062
 20
65.7369491445
 30
0.0
 10
81.8332883946
 20
66.2746673663
 30
0.0
 10
82.2430305543
 20
66.5609782131
 30
0.0
 10
82.4669681935
 20
66.6880281292
 30
0.0
  0
SPLINE
  5
4B1
100
AcDbEntity
  8
BEZUGSACHSEN
100
AcDbSpline
 62
7
  6
CONTINUOUS
 70
0
 71
3
 72
11
 73
7
 74
0
 42
0.0000001
 43
0.0000001
 44
0.0000000001
 40
0.0
 40
0.0
 40
0.0
 40
0.0
 40
0.277181791
 40
0.5335975369
 40
0.7720680627
 40
1.0
 40
1.0
 40
1.0
 40
1.0
 10
87.4738849972
 20
66.6880281292
 30
0.0
 10
87.6978226365
 20
66.5609782131
 30
0.0
 10
88.1075647961
 20
66.2746673663
 30
0.0
 10
88.5927546846
 20
65.7369491445
 30
0.0
 10
88.8995728564
 20
65.1297726005
 30
0.0
 10
88.9704265954
 20
64.6937812924
 30
0.0
 10
88.9704265954
 20
64.4820604236
 30
0.0
  0
SPLINE
  5
4B2
100
AcDbEntity
  8
KONSTRUKTIONSELEMENTE
100
AcDbSpline
 62
7
  6
CONTINUOUS
 70
0
 71
3
 72
9
 73
5
 74
0
 42
0.0000001
 43
0.0000001
 44
0.0000000001
 40
0.0
 40
0.0
 40
0.0
 40
0.0
 40
0.5108269807
 40
1.0
 40
1.0
 40
1.0
 40
1.0
 10
117.7279878768
 20
57.8743593903
 30
0.0
 10
117.8170172201
 20
58.0093630757
 30
0.0
 10
117.9587231787
 20
58.2976349906
 30
0.0
 10
118.0090617748
 20
58.6159694011
 30
0.0
 10
118.0090645338
 20
58.7708307151
 30
0.0
  0
SPLINE
  5
4B3
100
AcDbEntity
  8
KONSTRUKTIONSELEMENTE
100
AcDbSpline
 62
7
  6
CONTINUOUS
 70
0
 71
3
 72
10
 73
6
 74
0
 42
0.0000001
 43
0.0000001
 44
0.0000000001
 40
0.0
 40
0.0
 40
0.0
 40
0.0
 40
0.2661924468
 40
0.53465928
 40
1.0
 40
1.0
 40
1.0
 40
1.0
 10
117.0757391051
 20
57.3872395181
 30
0.0
 10
117.1122676509
 20
57.375194986
 30
0.0
 10
117.1900060903
 20
57.3624629033
 30
0.0
 10
117.3336186902
 20
57.3767482601
 30
0.0
 10
117.4374002088
 20
57.4337135914
 30
0.0
 10
117.4744169198
 20
57.4898455611
 30
0.0
  0
SPLINE
  5
4B4
100
AcDbEntity
  8
KONSTRUKTIONSELEMENTE
100
AcDbSpline
 62
7
  6
CONTINUOUS
 70
0
 71
3
 72
9
 73
5
 74
0
 42
0.0000001
 43
0.0000001
 44
0.0000000001
 40
0.0
 40
0.0
 40
0.0
 40
0.0
 40
0.5108373317
 40
1.0
 40
1.0
 40
1.0
 40
1.0
 10
104.0774180226
 20
37.1746982499
 30
0.0
 10
104.0922531377
 20
37.19719415
 30
0.0
 10
104.1158668
 20
37.2452269965
 30
0.0
 10
104.1242610086
 20
37.298269707
 30
0.0
 10
104.124262523
 20
37.3240734495
 30
0.0
  0
SPLINE
  5
4B5
100
AcDbEntity
  8
KONSTRUKTIONSELEMENTE
100
AcDbSpline
 62
7
  6
CONTINUOUS
 70
0
 71
3
 72
11
 73
7
 74
0
 42
0.0000001
 43
0.0000001
 44
0.0000000001
 40
0.0
 40
0.0
 40
0.0
 40
0.0
 40
0.2729767978
 40
0.5353848362
 40
0.7789285996
 40
1.0
 40
1.0
 40
1.0
 40
1.0
 10
102.1590463968
 20
36.1977891762
 30
0.0
 10
102.3465472521
 20
36.1977891762
 30
0.0
 10
102.7154005717
 20
36.2341961512
 30
0.0
 10
103.2297835205
 20
36.3955808801
 30
0.0
 10
103.6639732763
 20
36.6518641736
 30
0.0
 10
103.8880653008
 20
36.8875646564
 30
0.0
 10
103.9716619708
 20
37.0143302611
 30
0.0
  0
SPLINE
  5
4B6
100
AcDbEntity
  8
KONSTRUKTIONSELEMENTE
100
AcDbSpline
 62
7
  6
CONTINUOUS
 70
0
 71
3
 72
13
 73
9
 74
0
 42
0.0000001
 43
0.0000001
 44
0.0000000001
 40
0.0
 40
0.0
 40
0.0
 40
0.0
 40
0.2870489256
 40
0.5535682914
 40
0.6755020148
 40
0.789331082
 40
0.8965440086
 40
1.0
 40
1.0
 40
1.0
 40
1.0
 10
90.1004265954
 20
36.1977891762
 30
0.0
 10
89.7912664197
 20
36.1977891762
 30
0.0
 10
89.1920156717
 20
36.1172880102
 30
0.0
 10
88.5161098048
 20
35.8116848869
 30
0.0
 10
88.1012401738
 20
35.45935777
 30
0.0
 10
87.8742620783
 20
35.1638142048
 30
0.0
 10
87.7327628519
 20
34.8402119914
 30
0.0
 10
87.7004265954
 20
34.6121580613
 30
0.0
 10
87.7004265954
 20
34.5007329013
 30
0.0
  0
SPLINE
  5
4B7
100
AcDbEntity
  8
KONSTRUKTIONSELEMENTE
100
AcDbSpline
 62
7
  6
CONTINUOUS
 70
0
 71
3
 72
12
 73
8
 74
0
 42
0.0000001
 43
0.0000001
 44
0.0000000001
 40
0.0
 40
0.0
 40
0.0
 40
0.0
 40
0.1093780659
 40
0.2208877298
 40
0.4563569003
 40
0.716089424
 40
1.0
 40
1.0
 40
1.0
 40
1.0
 10
118.0090645338
 20
60.8921510587
 30
0.0
 10
118.0090663233
 20
60.9925927975
 30
0.0
 10
117.9884189338
 20
61.1960143952
 30
0.0
 10
117.8643592975
 20
61.5987353553
 30
0.0
 10
117.5498944924
 20
62.0735901572
 30
0.0
 10
116.984514583
 20
62.5258198234
 30
0.0
 10
116.5245214077
 20
62.7331159251
 30
0.0
 10
116.2769193009
 20
62.8147575963
 30
0.0
  0
SPLINE
  5
4B8
100
AcDbEntity
  8
KONSTRUKTIONSELEMENTE
100
AcDbSpline
 62
7
  6
CONTINUOUS
 70
0
 71
3
 72
13
 73
9
 74
0
 42
0.0000001
 43
0.0000001
 44
0.0000000001
 40
0.0
 40
0.0
 40
0.0
 40
0.0
 40
0.2870709824
 40
0.5535711693
 40
0.6755076844
 40
0.7893172045
 40
0.8965754876
 40
1.0
 40
1.0
 40
1.0
 40
1.0
 10
88.0004265954
 20
27.9246398363
 30
0.0
 10
88.1163699412
 20
27.9246398363
 30
0.0
 10
88.3410860772
 20
27.9548339712
 30
0.0
 10
88.5945602312
 20
28.0694274976
 30
0.0
 10
88.7501048897
 20
28.2015583608
 30
0.0
 10
88.83525205
 20
28.3123803948
 30
0.0
 10
88.8882729803
 20
28.433745681
 30
0.0
 10
88.9004265954
 20
28.5192644447
 30
0.0
 10
88.9004265954
 20
28.5610359393
 30
0.0
  0
SPLINE
  5
4B9
100
AcDbEntity
  8
KONSTRUKTIONSELEMENTE
100
AcDbSpline
 62
7
  6
CONTINUOUS
 70
0
 71
3
 72
11
 73
7
 74
0
 42
0.0000001
 43
0.0000001
 44
0.0000000001
 40
0.0
 40
0.0
 40
0.0
 40
0.0
 40
0.2820767698
 40
0.5407553301
 40
0.7772666753
 40
1.0
 40
1.0
 40
1.0
 40
1.0
 10
90.10542001
 20
36.1845829707
 30
0.0
 10
89.9302511655
 20
36.1134761145
 30
0.0
 10
89.6066905433
 20
35.9424641666
 30
0.0
 10
89.2141548635
 20
35.590768729
 30
0.0
 10
88.9602432172
 20
35.1724614922
 30
0.0
 10
88.9004265954
 20
34.8621433557
 30
0.0
 10
88.9004265954
 20
34.7128649357
 30
0.0
  0
SPLINE
  5
4BA
100
AcDbEntity
  8
KONSTRUKTIONSELEMENTE
100
AcDbSpline
 62
7
  6
CONTINUOUS
 70
0
 71
3
 72
11
 73
7
 74
0
 42
0.0000001
 43
0.0000001
 44
0.0000000001
 40
0.0
 40
0.0
 40
0.0
 40
0.0
 40
0.2820767698
 40
0.5407553301
 40
0.7772666753
 40
1.0
 40
1.0
 40
1.0
 40
1.0
 10
79.8354331807
 20
36.1845829707
 30
0.0
 10
80.0106020252
 20
36.1134761145
 30
0.0
 10
80.3341626474
 20
35.9424641666
 30
0.0
 10
80.7266983273
 20
35.590768729
 30
0.0
 10
80.9806099735
 20
35.1724614922
 30
0.0
 10
81.0404265954
 20
34.8621433557
 30
0.0
 10
81.0404265954
 20
34.7128649357
 30
0.0
  0
SPLINE
  5
4BB
100
AcDbEntity
  8
KONSTRUKTIONSELEMENTE
100
AcDbSpline
 62
7
  6
CONTINUOUS
 70
0
 71
3
 72
9
 73
5
 74
0
 42
0.0000001
 43
0.0000001
 44
0.0000000001
 40
0.0
 40
0.0
 40
0.0
 40
0.0
 40
0.5107012964
 40
1.0
 40
1.0
 40
1.0
 40
1.0
 10
62.5291671884
 20
54.4896305965
 30
0.0
 10
62.5024510931
 20
54.5301427602
 30
0.0
 10
62.4599382478
 20
54.6166789505
 30
0.0
 10
62.4448321945
 20
54.7122305397
 30
0.0
 10
62.4448449918
 20
54.7587249963
 30
0.0
  0
SPLINE
  5
4BC
100
AcDbEntity
  8
KONSTRUKTIONSELEMENTE
100
AcDbSpline
 62
7
  6
CONTINUOUS
 70
0
 71
3
 72
11
 73
7
 74
0
 42
0.0000001
 43
0.0000001
 44
0.0000000001
 40
0.0
 40
0.0
 40
0.0
 40
0.0
 40
0.2210800583
 40
0.4646152767
 40
0.7270135498
 40
1.0
 40
1.0
 40
1.0
 40
1.0
 10
73.6442747102
 20
37.4226008035
 30
0.0
 10
73.7696745981
 20
37.2324449921
 30
0.0
 10
74.1058173773
 20
36.8788980401
 30
0.0
 10
74.7570918715
 20
36.4944779379
 30
0.0
 10
75.5286574246
 20
36.2524039427
 30
0.0
 10
76.0819369061
 20
36.1977891762
 30
0.0
 10
76.3631980713
 20
36.1977891762
 30
0.0
  0
SPLINE
  5
4BD
100
AcDbEntity
  8
KONSTRUKTIONSELEMENTE
100
AcDbSpline
 62
7
  6
CONTINUOUS
 70
0
 71
3
 72
13
 73
9
 74
0
 42
0.0000001
 43
0.0000001
 44
0.0000000001
 40
0.0
 40
0.0
 40
0.0
 40
0.0
 40
0.1066301469
 40
0.2208685385
 40
0.342539988
 40
0.4704689804
 40
0.7363587024
 40
1.0
 40
1.0
 40
1.0
 40
1.0
 10
109.5543605894
 20
57.5266404192
 30
0.0
 10
109.6400039179
 20
57.6565095674
 30
0.0
 10
109.8507032053
 20
57.9044414282
 30
0.0
 10
110.2473587503
 20
58.2130052939
 30
0.0
 10
110.719781477
 20
58.4607057038
 30
0.0
 10
111.4352804223
 20
58.7006588795
 30
0.0
 10
112.4020465267
 20
58.8022797633
 30
0.0
 10
113.1758495166
 20
58.6731474103
 30
0.0
 10
113.5411387357
 20
58.5527008492
 30
0.0
  0
SPLINE
  5
4BE
100
AcDbEntity
  8
KONSTRUKTIONSELEMENTE
100
AcDbSpline
 62
7
  6
CONTINUOUS
 70
0
 71
3
 72
11
 73
7
 74
0
 42
0.0000001
 43
0.0000001
 44
0.0000000001
 40
0.0
 40
0.0
 40
0.0
 40
0.0
 40
0.2200606194
 40
0.4557771489
 40
0.7157721538
 40
1.0
 40
1.0
 40
1.0
 40
1.0
 10
104.124262523
 20
37.3240734495
 30
0.0
 10
104.1242644977
 20
37.3577204432
 30
0.0
 10
104.1095305294
 20
37.4280483235
 30
0.0
 10
104.0477458292
 20
37.5208997652
 30
0.0
 10
103.9535186567
 20
37.5964159805
 30
0.0
 10
103.8768456237
 20
37.6309358524
 30
0.0
 10
103.8355732599
 20
37.6445445603
 30
0.0
  0
SPLINE
  5
4BF
100
AcDbEntity
  8
BEZUGSACHSEN
100
AcDbSpline
 62
7
  6
CONTINUOUS
 70
0
 71
3
 72
9
 73
5
 74
0
 42
0.0000001
 43
0.0000001
 44
0.0000000001
 40
0.0
 40
0.0
 40
0.0
 40
0.0
 40
0.2464061737
 40
1.0
 40
1.0
 40
1.0
 40
1.0
 10
90.0418457363
 20
69.3439098835
 30
0.0
 10
89.835763444
 20
69.411861255
 30
0.0
 10
88.9933743859
 20
69.6690669324
 30
0.0
 10
88.1289924524
 20
69.8534523565
 30
0.0
 10
87.4727601398
 20
69.9523842482
 30
0.0
  0
SPLINE
  5
4C0
100
AcDbEntity
  8
BEZUGSACHSEN
100
AcDbSpline
 62
7
  6
CONTINUOUS
 70
0
 71
3
 72
9
 73
5
 74
0
 42
0.0000001
 43
0.0000001
 44
0.0000000001
 40
0.0
 40
0.0
 40
0.0
 40
0.0
 40
0.2533289355
 40
1.0
 40
1.0
 40
1.0
 40
1.0
 10
82.4680930509
 20
69.9523842482
 30
0.0
 10
82.2474956203
 20
69.9191275483
 30
0.0
 10
81.3795029324
 20
69.7700999906
 30
0.0
 10
80.5234806266
 20
69.5498169899
 30
0.0
 10
79.8990074545
 20
69.3439098835
 30
0.0
  0
SPLINE
  5
4C1
100
AcDbEntity
  8
KONSTRUKTIONSELEMENTE
100
AcDbSpline
 62
7
  6
CONTINUOUS
 70
0
 71
3
 72
11
 73
7
 74
0
 42
0.0000001
 43
0.0000001
 44
0.0000000001
 40
0.0
 40
0.0
 40
0.0
 40
0.0
 40
0.2787093695
 40
0.5386731691
 40
0.7779105289
 40
1.0
 40
1.0
 40
1.0
 40
1.0
 10
66.1905530364
 20
55.4628350129
 30
0.0
 10
66.2526895281
 20
55.4833232353
 30
0.0
 10
66.3696456871
 20
55.5337107695
 30
0.0
 10
66.5204707021
 20
55.6392350242
 30
0.0
 10
66.6333806293
 20
55.767859048
 30
0.0
 10
66.6798258355
 20
55.8679092968
 30
0.0
 10
66.6936610659
 20
55.9181756557
 30
0.0
  0
SPLINE
  5
4C2
100
AcDbEntity
  8
KONSTRUKTIONSELEMENTE
100
AcDbSpline
 62
7
  6
CONTINUOUS
 70
0
 71
3
 72
11
 73
7
 74
0
 42
0.0000001
 43
0.0000001
 44
0.0000000001
 40
0.0
 40
0.0
 40
0.0
 40
0.0
 40
0.2816064552
 40
0.5417085427
 40
0.7793419382
 40
1.0
 40
1.0
 40
1.0
 40
1.0
 10
65.6834111223
 20
56.2318626714
 30
0.0
 10
65.7514289487
 20
56.2542901422
 30
0.0
 10
65.8786282362
 20
56.3102501574
 30
0.0
 10
66.0389816866
 20
56.4300957394
 30
0.0
 10
66.1523176594
 20
56.5767198491
 30
0.0
 10
66.1907211569
 20
56.6897567576
 30
0.0
 10
66.1985885832
 20
56.745321708
 30
0.0
  0
SPLINE
  5
4C3
100
AcDbEntity
  8
BEZUGSACHSEN
100
AcDbSpline
 62
7
  6
CONTINUOUS
 70
0
 71
3
 72
14
 73
10
 74
0
 42
0.0000001
 43
0.0000001
 44
0.0000000001
 40
0.0
 40
0.0
 40
0.0
 40
0.0
 40
0.1033647152
 40
0.2104897847
 40
0.3242139267
 40
0.4460354431
 40
0.5760515967
 40
0.7132071311
 40
1.0
 40
1.0
 40
1.0
 40
1.0
 10
88.9704265954
 20
64.4820604236
 30
0.0
 10
88.9704265954
 20
64.2964219904
 30
0.0
 10
88.9165595019
 20
63.9164710722
 30
0.0
 10
88.6809125871
 20
63.3772804702
 30
0.0
 10
88.3028383831
 20
62.8848952104
 30
0.0
 10
87.7994551873
 20
62.456952322
 30
0.0
 10
87.190289717
 20
62.107554536
 30
0.0
 10
86.2557255744
 20
61.7577454299
 30
0.0
 10
85.4876366576
 20
61.6538427501
 30
0.0
 10
84.972569452
 20
61.6536479987
 30
0.0
  0
SPLINE
  5
4C4
100
AcDbEntity
  8
BEZUGSACHSEN
100
AcDbSpline
 62
7
  6
CONTINUOUS
 70
0
 71
3
 72
14
 73
10
 74
0
 42
0.0000001
 43
0.0000001
 44
0.0000000001
 40
0.0
 40
0.0
 40
0.0
 40
0.0
 40
0.2867853362
 40
0.4239492606
 40
0.5539750265
 40
0.6758029641
 40
0.7895274487
 40
0.8966460615
 40
1.0
 40
1.0
 40
1.0
 40
1.0
 10
84.972569452
 20
61.6536479987
 30
0.0
 10
84.4571081871
 20
61.6534530983
 30
0.0
 10
83.6883284662
 20
61.7569337083
 30
0.0
 10
82.7528015425
 20
62.1064799739
 30
0.0
 10
82.1429265539
 20
62.4558508308
 30
0.0
 10
81.6389152177
 20
62.8839120213
 30
0.0
 10
81.2603428342
 20
63.3765407299
 30
0.0
 10
81.0243704732
 20
63.9160716226
 30
0.0
 10
80.9704265954
 20
64.2962944553
 30
0.0
 10
80.9704265954
 20
64.4820604236
 30
0.0
  0
SPLINE
  5
4C5
100
AcDbEntity
  8
KONSTRUKTIONSELEMENTE
100
AcDbSpline
 62
7
  6
CONTINUOUS
 70
0
 71
3
 72
11
 73
7
 74
0
 42
0.0000001
 43
0.0000001
 44
0.0000000001
 40
0.0
 40
0.0
 40
0.0
 40
0.0
 40
0.2200436456
 40
0.4557793627
 40
0.7157728079
 40
1.0
 40
1.0
 40
1.0
 40
1.0
 10
62.4448449918
 20
54.7587249963
 30
0.0
 10
62.4448616561
 20
54.8192689445
 30
0.0
 10
62.4714503921
 20
54.9458103234
 30
0.0
 10
62.5826626171
 20
55.1128691731
 30
0.0
 10
62.7522398177
 20
55.2487542208
 30
0.0
 10
62.8902172641
 20
55.3108647957
 30
0.0
 10
62.9644877612
 20
55.3353539552
 30
0.0
  0
SPLINE
  5
4C6
100
AcDbEntity
  8
KONSTRUKTIONSELEMENTE
100
AcDbSpline
 62
7
  6
CONTINUOUS
 70
0
 71
3
 72
12
 73
8
 74
0
 42
0.0000001
 43
0.0000001
 44
0.0000000001
 40
0.0
 40
0.0
 40
0.0
 40
0.0
 40
0.1093780659
 40
0.2208877298
 40
0.4563569003
 40
0.716089424
 40
1.0
 40
1.0
 40
1.0
 40
1.0
 10
118.0090645338
 20
58.7708307151
 30
0.0
 10
118.0090663233
 20
58.8712724539
 30
0.0
 10
117.9884189338
 20
59.0746940516
 30
0.0
 10
117.8643592975
 20
59.4774150118
 30
0.0
 10
117.5498944924
 20
59.9522698136
 30
0.0
 10
116.984514583
 20
60.4044994799
 30
0.0
 10
116.5245214077
 20
60.6117955816
 30
0.0
 10
116.2769193009
 20
60.6934372527
 30
0.0
  0
SPLINE
  5
4C7
100
AcDbEntity
  8
KONSTRUKTIONSELEMENTE
100
AcDbSpline
 62
7
  6
CONTINUOUS
 70
0
 71
3
 72
11
 73
7
 74
0
 42
0.0000001
 43
0.0000001
 44
0.0000000001
 40
0.0
 40
0.0
 40
0.0
 40
0.0
 40
0.2842271921
 40
0.5442206373
 40
0.7799563544
 40
1.0
 40
1.0
 40
1.0
 40
1.0
 10
66.1905530364
 20
55.2507029786
 30
0.0
 10
66.2648235334
 20
55.2751921381
 30
0.0
 10
66.4028009799
 20
55.337302713
 30
0.0
 10
66.5723781805
 20
55.4731877607
 30
0.0
 10
66.6835904055
 20
55.6402466104
 30
0.0
 10
66.7101791415
 20
55.7667879893
 30
0.0
 10
66.7101958058
 20
55.8273319375
 30
0.0
  0
SPLINE
  5
4C8
100
AcDbEntity
  8
KONSTRUKTIONSELEMENTE
100
AcDbSpline
 62
7
  6
CONTINUOUS
 70
0
 71
3
 72
12
 73
8
 74
0
 42
0.0000001
 43
0.0000001
 44
0.0000000001
 40
0.0
 40
0.0
 40
0.0
 40
0.0
 40
0.2839215899
 40
0.5436396333
 40
0.7791104503
 40
0.8906217948
 40
1.0
 40
1.0
 40
1.0
 40
1.0
 10
60.1893499565
 20
62.8450581716
 30
0.0
 10
59.9417356477
 20
62.7634124771
 30
0.0
 10
59.4817432682
 20
62.556111305
 30
0.0
 10
58.9163561097
 20
62.1038749897
 30
0.0
 10
58.6019204856
 20
61.6290131541
 30
0.0
 10
58.4778338377
 20
61.2262890947
 30
0.0
 10
58.4572194404
 20
61.0228611079
 30
0.0
 10
58.4572135755
 20
60.922418188
 30
0.0
  0
SPLINE
  5
4C9
100
AcDbEntity
  8
KONSTRUKTIONSELEMENTE
100
AcDbSpline
 62
7
  6
CONTINUOUS
 70
0
 71
3
 72
12
 73
8
 74
0
 42
0.0000001
 43
0.0000001
 44
0.0000000001
 40
0.0
 40
0.0
 40
0.0
 40
0.0
 40
0.2839215899
 40
0.5436396333
 40
0.7791104503
 40
0.8906217948
 40
1.0
 40
1.0
 40
1.0
 40
1.0
 10
100.4822344479
 20
38.7502386436
 30
0.0
 10
100.2346201391
 20
38.8318843381
 30
0.0
 10
99.7746277596
 20
39.0391855102
 30
0.0
 10
99.2092406012
 20
39.4914218255
 30
0.0
 10
98.8948049771
 20
39.9662836611
 30
0.0
 10
98.7707183291
 20
40.3690077205
 30
0.0
 10
98.7501039318
 20
40.5724357073
 30
0.0
 10
98.7500980669
 20
40.6728786272
 30
0.0
  0
SPLINE
  5
4CA
100
AcDbEntity
  8
KONSTRUKTIONSELEMENTE
100
AcDbSpline
 62
7
  6
CONTINUOUS
 70
0
 71
3
 72
13
 73
9
 74
0
 42
0.0000001
 43
0.0000001
 44
0.0000000001
 40
0.0
 40
0.0
 40
0.0
 40
0.0
 40
0.1211755699
 40
0.2426655313
 40
0.3649583937
 40
0.4884251943
 40
0.7399094779
 40
1.0
 40
1.0
 40
1.0
 40
1.0
 10
61.4704265954
 20
147.567107213
 30
0.0
 10
61.4704265954
 20
147.0655416066
 30
0.0
 10
61.5277420246
 20
146.0601884806
 30
0.0
 10
61.7836134703
 20
144.5683457761
 30
0.0
 10
62.2063682323
 20
143.1049114743
 30
0.0
 10
62.9879788127
 20
141.1972076982
 30
0.0
 10
64.3634400925
 20
138.9353016834
 30
0.0
 10
65.7942875164
 20
137.357037211
 30
0.0
 10
66.5812003558
 20
136.6223644346
 30
0.0
  0
SPLINE
  5
4CB
100
AcDbEntity
  8
KONSTRUKTIONSELEMENTE
100
AcDbSpline
 62
7
  6
CONTINUOUS
 70
0
 71
3
 72
11
 73
7
 74
0
 42
0.0000001
 43
0.0000001
 44
0.0000000001
 40
0.0
 40
0.0
 40
0.0
 40
0.0
 40
0.2602735062
 40
0.5119409408
 40
0.7575298773
 40
1.0
 40
1.0
 40
1.0
 40
1.0
 10
103.3635892518
 20
136.6260418126
 30
0.0
 10
104.1499303256
 20
137.3605840028
 30
0.0
 10
105.5798687732
 20
138.9389189415
 30
0.0
 10
107.2174226928
 20
141.6324280748
 30
0.0
 10
108.2382790257
 20
144.5397149138
 30
0.0
 10
108.4704265954
 20
146.5646614325
 30
0.0
 10
108.4704265954
 20
147.567107213
 30
0.0
  0
SPLINE
  5
4CC
100
AcDbEntity
  8
KONSTRUKTIONSELEMENTE
100
AcDbSpline
 62
7
  6
CONTINUOUS
 70
0
 71
3
 72
14
 73
10
 74
0
 42
0.0000001
 43
0.0000001
 44
0.0000000001
 40
0.0
 40
0.0
 40
0.0
 40
0.0
 40
0.1136224095
 40
0.2286339739
 40
0.3463591029
 40
0.4679405873
 40
0.5941509574
 40
0.725263091
 40
1.0
 40
1.0
 40
1.0
 40
1.0
 10
108.4704265954
 20
147.567107213
 30
0.0
 10
108.4704265954
 20
148.5443454519
 30
0.0
 10
108.2500085712
 20
150.5174480941
 30
0.0
 10
107.2797721225
 20
153.3564472437
 30
0.0
 10
105.719871354
 20
155.9973299285
 30
0.0
 10
103.6364012293
 20
158.3730595678
 30
0.0
 10
101.0977011707
 20
160.4391475004
 30
0.0
 10
97.1442428584
 20
162.768202981
 30
0.0
 10
93.7875708388
 20
163.8979627709
 30
0.0
 10
91.4759477796
 20
164.3877628376
 30
0.0
  0
SPLINE
  5
4CD
100
AcDbEntity
  8
KONSTRUKTIONSELEMENTE
100
AcDbSpline
 62
7
  6
CONTINUOUS
 70
0
 71
3
 72
14
 73
10
 74
0
 42
0.0000001
 43
0.0000001
 44
0.0000000001
 40
0.0
 40
0.0
 40
0.0
 40
0.0
 40
0.2747387362
 40
0.4058506222
 40
0.532059952
 40
0.6536403689
 40
0.7713644135
 40
0.8863759398
 40
1.0
 40
1.0
 40
1.0
 40
1.0
 10
78.4659182953
 20
164.3879855777
 30
0.0
 10
76.1541688746
 20
163.8982488505
 30
0.0
 10
72.7973134741
 20
162.7685322895
 30
0.0
 10
68.843632461
 20
160.4394847055
 30
0.0
 10
66.3047903785
 20
158.3733947295
 30
0.0
 10
64.2212010777
 20
155.9976372706
 30
0.0
 10
62.6611883678
 20
153.3566991785
 30
0.0
 10
61.6908678479
 20
150.5175950864
 30
0.0
 10
61.4704265954
 20
148.5443988446
 30
0.0
 10
61.4704265954
 20
147.567107213
 30
0.0
  0
SPLINE
  5
4CE
100
AcDbEntity
  8
0
100
AcDbSpline
 62
7
  6
CONTINUOUS
 70
0
 71
3
 72
16
 73
12
 74
0
 42
0.0000001
 43
0.0000001
 44
0.0000000001
 40
0.0
 40
0.0
 40
0.0
 40
0.0
 40
0.0053856784
 40
0.01748088
 40
0.0648812273
 40
0.1437684625
 40
0.2539641457
 40
0.3951229258
 40
0.5668172007
 40
0.7686204844
 40
1.0
 40
1.0
 40
1.0
 40
1.0
 10
99.9433058926
 20
115.8546779987
 30
0.0
 10
99.9427689667
 20
115.8546779987
 30
0.0
 10
99.9417275896
 20
115.8566534294
 30
0.0
 10
99.9411872284
 20
115.8626342751
 30
0.0
 10
99.9409390167
 20
115.8769105364
 30
0.0
 10
99.9420526197
 20
115.9001921494
 30
0.0
 10
99.9436265826
 20
115.9331961822
 30
0.0
 10
99.9455412032
 20
115.9752833582
 30
0.0
 10
99.9469881517
 20
116.0265918339
 30
0.0
 10
99.9473364956
 20
116.0868945467
 30
0.0
 10
99.9463008438
 20
116.1300790426
 30
0.0
 10
99.9453753353
 20
116.1531278784
 30
0.0
  0
SPLINE
  5
4CF
100
AcDbEntity
  8
0
100
AcDbSpline
 62
7
  6
CONTINUOUS
 70
0
 71
3
 72
11
 73
7
 74
0
 42
0.0000001
 43
0.0000001
 44
0.0000000001
 40
0.0
 40
0.0
 40
0.0
 40
0.0
 40
0.3160601619
 40
0.6042233606
 40
0.8390981755
 40
1.0
 40
1.0
 40
1.0
 40
1.0
 10
99.9075883616
 20
119.4546793194
 30
0.0
 10
99.9075883616
 20
119.8071787078
 30
0.0
 10
99.9093057365
 20
120.481063346
 30
0.0
 10
99.9166421462
 20
121.4168878737
 30
0.0
 10
99.9283260585
 20
122.1795796273
 30
0.0
 10
99.9393475276
 20
122.6208946701
 30
0.0
 10
99.947219859
 20
122.8001744398
 30
0.0
  0
SPLINE
  5
4D0
100
AcDbEntity
  8
0
100
AcDbSpline
 62
7
  6
CONTINUOUS
 70
0
 71
3
 72
11
 73
7
 74
0
 42
0.0000001
 43
0.0000001
 44
0.0000000001
 40
0.0
 40
0.0
 40
0.0
 40
0.0
 40
0.3932532929
 40
0.6919061664
 40
0.8943356919
 40
1.0
 40
1.0
 40
1.0
 40
1.0
 10
99.9493611958
 20
122.8463960749
 30
0.0
 10
99.9506890757
 20
122.8734628687
 30
0.0
 10
99.9536668534
 20
122.9210165276
 30
0.0
 10
99.9589265467
 20
122.9825544434
 30
0.0
 10
99.9647207445
 20
123.0237461449
 30
0.0
 10
99.9680940041
 20
123.0450261592
 30
0.0
 10
99.9710322558
 20
123.0516883985
 30
0.0
  0
SPLINE
  5
4D1
100
AcDbEntity
  8
0
100
AcDbSpline
 62
7
  6
CONTINUOUS
 70
0
 71
3
 72
9
 73
5
 74
0
 42
0.0000001
 43
0.0000001
 44
0.0000000001
 40
0.0
 40
0.0
 40
0.0
 40
0.0
 40
0.3669052708
 40
1.0
 40
1.0
 40
1.0
 40
1.0
 10
99.9710322558
 20
123.0516883985
 30
0.0
 10
99.9712289327
 20
123.0521343469
 30
0.0
 10
99.971777757
 20
123.0532531157
 30
0.0
 10
99.972724151
 20
123.0546793194
 30
0.0
 10
99.9735651468
 20
123.0546793194
 30
0.0
  0
LINE
  5
4D2
100
AcDbEntity
  8
0
100
AcDbLine
 62
7
  6
CONTINUOUS
 10
93.3700108255
 20
114.8527684914
 11
93.0609210496
 21
110.9546921452
  0
SPLINE
  5
4D3
100
AcDbEntity
  8
KONSTRUKTIONSELEMENTE
100
AcDbSpline
 62
7
  6
CONTINUOUS
 70
0
 71
3
 72
11
 73
7
 74
0
 42
0.0000001
 43
0.0000001
 44
0.0000000001
 40
0.0
 40
0.0
 40
0.0
 40
0.0
 40
0.2499628622
 40
0.4999540474
 40
0.7499781604
 40
1.0
 40
1.0
 40
1.0
 40
1.0
 10
93.7029918989
 20
119.1816793194
 30
0.0
 10
93.7029918989
 20
118.987275051
 30
0.0
 10
93.7334402609
 20
118.5978288993
 30
0.0
 10
93.8638310701
 20
118.0275489972
 30
0.0
 10
94.0634386197
 20
117.478181358
 30
0.0
 10
94.2314691374
 20
117.1268664664
 30
0.0
 10
94.3218153725
 20
116.9546793194
 30
0.0
  0
SPLINE
  5
4D4
100
AcDbEntity
  8
KONSTRUKTIONSELEMENTE
100
AcDbSpline
 62
7
  6
CONTINUOUS
 70
0
 71
3
 72
11
 73
7
 74
0
 42
0.0000001
 43
0.0000001
 44
0.0000000001
 40
0.0
 40
0.0
 40
0.0
 40
0.0
 40
0.2558252066
 40
0.507988463
 40
0.755860403
 40
1.0
 40
1.0
 40
1.0
 40
1.0
 10
94.3218153725
 20
116.9546793194
 30
0.0
 10
94.2007067128
 20
116.7963458582
 30
0.0
 10
93.9704698744
 20
116.4737949695
 30
0.0
 10
93.6758012741
 20
115.9623062776
 30
0.0
 10
93.4581439292
 20
115.422220913
 30
0.0
 10
93.3846131959
 20
115.0424426095
 30
0.0
 10
93.3700108255
 20
114.8527684914
 30
0.0
  0
SPLINE
  5
4D5
100
AcDbEntity
  8
KONSTRUKTIONSELEMENTE
100
AcDbSpline
 62
7
  6
CONTINUOUS
 70
0
 71
3
 72
11
 73
7
 74
0
 42
0.0000001
 43
0.0000001
 44
0.0000000001
 40
0.0
 40
0.0
 40
0.0
 40
0.0
 40
0.2500218396
 40
0.5000459526
 40
0.7500371378
 40
1.0
 40
1.0
 40
1.0
 40
1.0
 10
75.6190378183
 20
116.9546793194
 30
0.0
 10
75.7093840533
 20
117.1268664664
 30
0.0
 10
75.877414571
 20
117.478181358
 30
0.0
 10
76.0770221206
 20
118.0275489972
 30
0.0
 10
76.2074129298
 20
118.5978288993
 30
0.0
 10
76.2378612918
 20
118.987275051
 30
0.0
 10
76.2378612918
 20
119.1816793194
 30
0.0
  0
SPLINE
  5
4D6
100
AcDbEntity
  8
KONSTRUKTIONSELEMENTE
100
AcDbSpline
 62
7
  6
CONTINUOUS
 70
0
 71
3
 72
21
 73
17
 74
0
 42
0.0000001
 43
0.0000001
 44
0.0000000001
 40
0.0
 40
0.0
 40
0.0
 40
0.0
 40
0.0312763683
 40
0.062569617
 40
0.0938594131
 40
0.1251304747
 40
0.187615212
 40
0.2501081482
 40
0.3126033635
 40
0.3750989257
 40
0.4375943914
 40
0.5000888936
 40
0.6250610047
 40
0.7500376457
 40
0.8750181697
 40
1.0
 40
1.0
 40
1.0
 40
1.0
 10
76.2378612918
 20
122.8525610124
 30
0.0
 10
76.2378612918
 20
122.918208964
 30
0.0
 10
76.2528681214
 20
123.049932178
 30
0.0
 10
76.3150266216
 20
123.2380382887
 30
0.0
 10
76.4079674786
 20
123.4125840332
 30
0.0
 10
76.5606925123
 20
123.6266942185
 30
0.0
 10
76.7897273837
 20
123.8636480452
 30
0.0
 10
77.0961540782
 20
124.1113360014
 30
0.0
 10
77.4223924257
 20
124.3320653328
 30
0.0
 10
77.761858054
 20
124.53151559
 30
0.0
 10
78.1109620452
 20
124.7134539124
 30
0.0
 10
78.5862278632
 20
124.9359836003
 30
0.0
 10
79.1951124023
 20
125.1810426322
 30
0.0
 10
79.9419079744
 20
125.4304862811
 30
0.0
 10
80.7009030831
 20
125.6397523363
 30
0.0
 10
81.2131526828
 20
125.7542649746
 30
0.0
 10
81.4704265954
 20
125.805532521
 30
0.0
  0
SPLINE
  5
4D7
100
AcDbEntity
  8
KONSTRUKTIONSELEMENTE
100
AcDbSpline
 62
7
  6
CONTINUOUS
 70
0
 71
3
 72
21
 73
17
 74
0
 42
0.0000001
 43
0.0000001
 44
0.0000000001
 40
0.0
 40
0.0
 40
0.0
 40
0.0
 40
0.1249818079
 40
0.2499623095
 40
0.3749389294
 40
0.4999110205
 40
0.5624055122
 40
0.624900966
 40
0.687396515
 40
0.74989171
 40
0.8123846246
 40
0.8748693181
 40
0.9061403343
 40
0.9374302321
 40
0.9687235855
 40
1.0
 40
1.0
 40
1.0
 40
1.0
 10
88.4704265954
 20
125.805532521
 30
0.0
 10
88.7277004613
 20
125.7542649839
 30
0.0
 10
89.2399499684
 20
125.6397523684
 30
0.0
 10
89.9989449449
 20
125.4304863598
 30
0.0
 10
90.7457403949
 20
125.1810427726
 30
0.0
 10
91.3546248439
 20
124.9359838098
 30
0.0
 10
91.8298905903
 20
124.7134541831
 30
0.0
 10
92.1789945315
 20
124.5315159251
 30
0.0
 10
92.5184600805
 20
124.3320657322
 30
0.0
 10
92.8446984082
 20
124.1113365567
 30
0.0
 10
93.1511249247
 20
123.8636487386
 30
0.0
 10
93.3801601273
 20
123.626695454
 30
0.0
 10
93.5328847056
 20
123.4125849775
 30
0.0
 10
93.6258266594
 20
123.2380393887
 30
0.0
 10
93.6879844846
 20
123.0499324885
 30
0.0
 10
93.7029918989
 20
122.9182090609
 30
0.0
 10
93.7029918989
 20
122.8525610124
 30
0.0
  0
LINE
  5
4D8
100
AcDbEntity
  8
0
100
AcDbLine
 62
7
  6
CONTINUOUS
 10
76.8799321411
 20
110.9546921452
 11
76.5708423652
 21
114.8527684914
  0
SPLINE
  5
4D9
100
AcDbEntity
  8
KONSTRUKTIONSELEMENTE
100
AcDbSpline
 62
7
  6
CONTINUOUS
 70
0
 71
3
 72
11
 73
7
 74
0
 42
0.0000001
 43
0.0000001
 44
0.0000000001
 40
0.0
 40
0.0
 40
0.0
 40
0.0
 40
0.2441398041
 40
0.4920116447
 40
0.744174815
 40
1.0
 40
1.0
 40
1.0
 40
1.0
 10
76.5708423652
 20
114.8527684914
 30
0.0
 10
76.5562399824
 20
115.0424427712
 30
0.0
 10
76.4827093095
 20
115.4222211841
 30
0.0
 10
76.2650517544
 20
115.9623064893
 30
0.0
 10
75.9703832581
 20
116.4737950458
 30
0.0
 10
75.7401464682
 20
116.796345871
 30
0.0
 10
75.6190378183
 20
116.9546793194
 30
0.0
  0
SPLINE
  5
4DA
100
AcDbEntity
  8
RUNDUNGEN
100
AcDbSpline
 62
7
  6
CONTINUOUS
 70
0
 71
3
 72
17
 73
13
 74
0
 42
0.0000001
 43
0.0000001
 44
0.0000000001
 40
0.0
 40
0.0
 40
0.0
 40
0.0
 40
0.0262441388
 40
0.0552559651
 40
0.0886514677
 40
0.1274227546
 40
0.2227973039
 40
0.3424646063
 40
0.4845128643
 40
0.6451226142
 40
0.8191201485
 40
1.0
 40
1.0
 40
1.0
 40
1.0
 10
99.8563594076
 20
117.5429146135
 30
0.0
 10
99.855228211
 20
117.5238486188
 30
0.0
 10
99.8459401236
 20
117.4839272598
 30
0.0
 10
99.8136462552
 20
117.4273240387
 30
0.0
 10
99.7637686995
 20
117.3725508445
 30
0.0
 10
99.6677322801
 20
117.2967937122
 30
0.0
 10
99.5025677553
 20
117.211131748
 30
0.0
 10
99.2569252942
 20
117.1250963791
 30
0.0
 10
98.9576603336
 20
117.0530830707
 30
0.0
 10
98.6148061135
 20
116.9985165829
 30
0.0
 10
98.2410485637
 20
116.9638681441
 30
0.0
 10
97.9827428074
 20
116.9546793194
 30
0.0
 10
97.8511050794
 20
116.9546793194
 30
0.0
  0
SPLINE
  5
4DB
100
AcDbEntity
  8
RUNDUNGEN
100
AcDbSpline
 62
7
  6
CONTINUOUS
 70
0
 71
3
 72
17
 73
13
 74
0
 42
0.0000001
 43
0.0000001
 44
0.0000000001
 40
0.0
 40
0.0
 40
0.0
 40
0.0
 40
0.0262639486
 40
0.0552898815
 40
0.0886909261
 40
0.1274589115
 40
0.222804019
 40
0.3424228945
 40
0.4844225186
 40
0.6450067736
 40
0.8190263141
 40
1.0
 40
1.0
 40
1.0
 40
1.0
 10
70.0844937832
 20
117.5429146135
 30
0.0
 10
70.0856229541
 20
117.5238827603
 30
0.0
 10
70.0948802708
 20
117.4840380694
 30
0.0
 10
70.1270647388
 20
117.4275315767
 30
0.0
 10
70.1767754462
 20
117.3728455186
 30
0.0
 10
70.2724853377
 20
117.2972087484
 30
0.0
 10
70.4371051673
 20
117.2116511742
 30
0.0
 10
70.6819740415
 20
117.1256864667
 30
0.0
 10
70.9803371083
 20
117.0536534226
 30
0.0
 10
71.322249759
 20
116.9990161766
 30
0.0
 10
71.6950924062
 20
116.9642067658
 30
0.0
 10
71.952818165
 20
116.9546793194
 30
0.0
 10
72.0841891735
 20
116.9546793194
 30
0.0
  0
ELLIPSE
  5
4DC
100
AcDbEntity
  8
0
100
AcDbEllipse
 62
7
  6
CONTINUOUS
 10
330.9984357046
 20
130.3752369352
 30
0.0
 11
-0.5477953176
 21
8.6228211114
 31
0.0
 40
0.2314525424
 41
-2.1628157657
 42
-1.8386768464
  0
ELLIPSE
  5
4DD
100
AcDbEntity
  8
RUNDUNGEN
100
AcDbEllipse
 62
7
  6
CONTINUOUS
 10
338.2077341365
 20
130.3752369352
 30
0.0
 11
0.5477953176
 21
8.6228211114
 31
0.0
 40
0.2314525424
 41
-4.4445084607
 42
-4.1203695415
  0
ELLIPSE
  5
4DE
100
AcDbEntity
  8
KONSTRUKTIONSELEMENTE
100
AcDbEllipse
 62
7
  6
CONTINUOUS
 10
60.1878857815
 20
59.5457803853
 30
0.0
 11
0.8998502841
 21
0.2699954029
 31
0.0
 40
0.0607989098
 41
-2.7235007144
 42
-1.1527043876
  0
ELLIPSE
  5
4DF
100
AcDbEntity
  8
KONSTRUKTIONSELEMENTE
100
AcDbEllipse
 62
7
  6
CONTINUOUS
 10
63.3179288938
 20
59.6067369734
 30
0.0
 11
0.8872850265
 21
-0.5510331508
 31
0.0
 40
0.7424978488
 41
7.2982401868
 42
8.8690365136
  0
ELLIPSE
  5
4E0
100
AcDbEntity
  8
0
100
AcDbEllipse
 62
7
  6
CONTINUOUS
 10
99.9704265954
 20
119.4546793194
 30
0.0
 11
-0.0
 21
3.6
 31
0.0
 40
0.0174550649
 41
-4.7123889804
 42
-3.5516508528
  0
ELLIPSE
  5
4E1
100
AcDbEntity
  8
0
100
AcDbEllipse
 62
7
  6
CONTINUOUS
 10
69.9704265954
 20
119.4546793194
 30
0.0
 11
-0.0
 21
2.5
 31
0.0
 40
0.0174550649
 41
-3.1415926536
 42
-0.0
  0
ENDSEC
  0
SECTION
  2
OBJECTS
  0
DICTIONARY
  5
C
100
AcDbDictionary
280
0
281
1
  3
ACAD_GROUP
350
D
  3
ACAD_MLINESTYLE
350
17
  3
ACAD_LAYOUT
350
1A
  3
ACAD_PLOTSETTINGS
350
19
  3
ACAD_PLOTSTYLENAME
350
E
  0
DICTIONARY
  5
D
102
{ACAD_REACTORS
330
C
102
}
100
AcDbDictionary
280
0
281
1
  0
ACDBDICTIONARYWDFLT
  5
E
102
{ACAD_REACTORS
330
C
102
}
100
AcDbDictionary
281
1
  3
Normal
350
F
100
AcDbDictionaryWithDefault
340
F
  0
DICTIONARY
  5
17
102
{ACAD_REACTORS
330
C
102
}
100
AcDbDictionary
280
0
281
1
  3
Standard
350
18
  0
DICTIONARY
  5
19
102
{ACAD_REACTORS
330
C
102
}
100
AcDbDictionary
281
1
  0
DICTIONARY
  5
1A
102
{ACAD_REACTORS
330
C
102
}
100
AcDbDictionary
281
1
  3
Model
350
4E2
  3
Layout1
350
4E3
  0
ACDBPLACEHOLDER
  5
F
102
{ACAD_REACTORS
330
E
102
}
  0
MLINESTYLE
  5
18
102
{ACAD_REACTORS
330
17
102
}
100
AcDbMlineStyle
  2
STANDARD
 70
0
  3

 62
256
 51
90.0
 52
90.0
 71
2
 49
0.5
 62
256
  6
BYLAYER
 49
-0.5
 62
256
  6
BYLAYER
  0
LAYOUT
  5
4E2
102
{ACAD_REACTORS
330
1A
102
}
100
AcDbPlotSettings
  1

  2
none_device
  4
ISO_A3_(420.00_x_297.00_MM)
  6

 40
0.0
 41
0.0
 42
0.0
 43
0.0
 44
420.0
 45
297.0
 46
0.0
 47
0.0
 48
0.0
 49
0.0
140
0.0
141
0.0
142
1.0
143
1.0
 70
1024
 72
1
 73
0
 74
0
  7

 75
0
147
1.0
148
0.0
149
0.0
100
AcDbLayout
  1
Model
 70
0
 71
0
 10
0.0
 20
0.0
 11
420.0
 21
297.0
 12
0.0
 22
0.0
 32
0.0
 14
0.0
 24
0.0
 34
0.0
 15
0.0
 25
0.0
 35
0.0
146
0.0
 13
0.0
 23
0.0
 33
0.0
 16
1.0
 26
0.0
 36
0.0
 17
0.0
 27
1.0
 37
0.0
 76
0
330
20D
345
0
346
0
  0
LAYOUT
  5
4E3
102
{ACAD_REACTORS
330
1A
102
}
100
AcDbPlotSettings
  1

  2
none_device
  4
ISO_A3_(420.00_x_297.00_MM)
  6

 40
0.0
 41
0.0
 42
0.0
 43
0.0
 44
420.0
 45
297.0
 46
0.0
 47
0.0
 48
0.0
 49
0.0
140
0.0
141
0.0
142
1.0
143
1.0
 70
0
 72
1
 73
0
 74
0
  7

 75
0
147
1.0
148
0.0
149
0.0
100
AcDbLayout
  1
Layout1
 70
0
 71
1
 10
0.0
 20
0.0
 11
420.0
 21
297.0
 12
0.0
 22
0.0
 32
0.0
 14
0.0
 24
0.0
 34
0.0
 15
0.0
 25
0.0
 35
0.0
146
0.0
 13
0.0
 23
0.0
 33
0.0
 16
1.0
 26
0.0
 36
0.0
 17
0.0
 27
1.0
 37
0.0
 76
0
330
20E
345
0
346
0
  0
ENDSEC
  0
EOF
