999
DXF file: VAK-1-22_7100686_M31163-P-7.dxf
999
Pro/ENGINEER 2010140 by Parametric Technology Corporation
  0
SECTION
  2
HEADER
  9
$ACADVER
  1
AC1015
  9
$DWGCODEPAGE
  3
ANSI_1252
  9
$EXTMAX
 10
1189.0
 20
841.0
 30
0.0
  9
$EXTMIN
 10
0.0
 20
0.0
 30
0.0
  9
$LIMMIN
 10
0.0
 20
0.0
  9
$LIMMAX
 10
1189.0
 20
841.0
  9
$VIEWCTR
 10
594.5
 20
420.5
  9
$VIEWSIZE
 40
841.0
  9
$CLAYER
  8
0
  9
$LTSCALE
 40
65.395
  9
$CELTYPE
  6
BYLAYER
  9
$DIMSCALE
 40
1.0
  9
$DIMASZ
 40
3.5
  9
$DIMEXO
 40
7.43125
  9
$DIMDLI
 40
45.182
  9
$DIMEXE
 40
21.402
  9
$DIMCEN
 40
10.701
  9
$DIMLFAC
 40
1.0
  9
$DIMBLK
  1
_FILLED
  9
$DIMTXT
 40
3.5
  9
$DIMTOL
 70
1
  9
$DIMLIM
 70
0
  9
$DIMTFAC
 40
1.0
  9
$DIMTP
 40
0.005
  9
$DIMTM
 40
0.005
  9
$PDMODE
 70
3
  9
$PDSIZE
 40
0.3125
  9
$HANDSEED
  5
554
  9
$TILEMODE
 70
1
  9
$MEASUREMENT
 70
1
  9
$INSUNITS
 70
4
  0
ENDSEC
  0
SECTION
  2
CLASSES
  0
CLASS
  1
ACDBDICTIONARYWDFLT
  2
AcDbDictionaryWithDefault
  3
AutoCAD 2000
 90
0
280
0
281
0
  0
CLASS
  1
ACDBPLACEHOLDER
  2
AcDbPlaceHolder
  3
AutoCAD 2000
 90
0
280
0
281
0
  0
CLASS
  1
LAYOUT
  2
AcDbLayout
  3
AutoCAD 2000
 90
0
280
0
281
0
  0
ENDSEC
  0
SECTION
  2
TABLES
  0
TABLE
  2
VPORT
  5
8
100
AcDbSymbolTable
 70
2
  0
VPORT
  5
1F4
100
AcDbSymbolTableRecord
100
AcDbViewportTableRecord
  2
*ACTIVE
 70
0
 10
0.0
 20
0.0
 11
1.0
 21
1.0
 12
594.5
 22
420.5
 13
0.0
 23
0.0
 14
1.0
 24
1.0
 15
0.0
 25
0.0
 16
0.0
 26
0.0
 36
1.0
 17
0.0
 27
0.0
 37
0.0
 40
841.0
 41
1.4137931034
 42
50.0
 43
0.0
 44
0.0
 50
0.0
 51
0.0
 71
0
 72
100
 73
1
 74
1
 75
0
 76
0
 77
0
 78
0
  0
ENDTAB
  0
TABLE
  2
LTYPE
  5
5
100
AcDbSymbolTable
 70
6
  0
LTYPE
  5
14
100
AcDbSymbolTableRecord
100
AcDbLinetypeTableRecord
  2
BYBLOCK
 70
0
  3

 72
65
 73
0
 40
0.0
  0
LTYPE
  5
15
100
AcDbSymbolTableRecord
100
AcDbLinetypeTableRecord
  2
BYLAYER
 70
0
  3

 72
65
 73
0
 40
0.0
  0
LTYPE
  5
16
100
AcDbSymbolTableRecord
100
AcDbLinetypeTableRecord
  2
CONTINUOUS
 70
64
  3
Solid line
 72
65
 73
0
 40
0.0
  0
LTYPE
  5
1F5
100
AcDbSymbolTableRecord
100
AcDbLinetypeTableRecord
  2
CENTER
 70
64
  3
____ _ ____ _ ____ _ ____ _ ____ _ ____ _ ____
 72
65
 73
4
 40
0.6
 49
0.375
 74
0
 49
-0.075
 74
0
 49
0.075
 74
0
 49
-0.075
 74
0
  0
LTYPE
  5
1F6
100
AcDbSymbolTableRecord
100
AcDbLinetypeTableRecord
  2
HIDDEN
 70
64
  3
- - - - - - - - - - - - - - - - - - - -
 72
65
 73
2
 40
0.2
 49
0.1
 74
0
 49
-0.1
 74
0
  0
LTYPE
  5
1F7
100
AcDbSymbolTableRecord
100
AcDbLinetypeTableRecord
  2
PHANTOM
 70
64
  3
_____ _ _ _____ _ _ _____ _ _ _____
 72
65
 73
6
 40
0.8
 49
0.45
 74
0
 49
-0.05
 74
0
 49
0.1
 74
0
 49
-0.05
 74
0
 49
0.1
 74
0
 49
-0.05
 74
0
  0
LTYPE
  5
1F8
100
AcDbSymbolTableRecord
100
AcDbLinetypeTableRecord
  2
DOT
 70
64
  3
. . . . . . . . . . . . . . . . . . . .
 72
65
 73
2
 40
0.2
 49
0.1
 74
0
 49
-0.1
 74
0
  0
LTYPE
  5
1F9
100
AcDbSymbolTableRecord
100
AcDbLinetypeTableRecord
  2
DASHED
 70
64
  3
- - - - - - - - - - - - - - - - - - - -
 72
65
 73
2
 40
0.2
 49
0.1
 74
0
 49
-0.1
 74
0
  0
ENDTAB
  0
TABLE
  2
LAYER
  5
2
100
AcDbSymbolTable
 70
36
  0
LAYER
  5
10
100
AcDbSymbolTableRecord
100
AcDbLayerTableRecord
  2
0
 70
0
 62
7
  6
CONTINUOUS
370
-3
390
F
  0
LAYER
  5
1FA
100
AcDbSymbolTableRecord
100
AcDbLayerTableRecord
  2
DEFAULT_1
 70
0
 62
7
  6
CENTER
370
-3
390
F
  0
LAYER
  5
1FB
100
AcDbSymbolTableRecord
100
AcDbLayerTableRecord
  2
DEFAULT_2
 70
0
 62
8
  6
HIDDEN
370
-3
390
F
  0
LAYER
  5
1FC
100
AcDbSymbolTableRecord
100
AcDbLayerTableRecord
  2
DEFAULT_3
 70
0
 62
7
  6
PHANTOM
370
-3
390
F
  0
LAYER
  5
1FD
100
AcDbSymbolTableRecord
100
AcDbLayerTableRecord
  2
BEZUGSACHSEN
 70
0
 62
7
  6
CONTINUOUS
370
-3
390
F
  0
LAYER
  5
1FE
100
AcDbSymbolTableRecord
100
AcDbLayerTableRecord
  2
BEZUGSEBENEN
 70
0
 62
7
  6
CONTINUOUS
370
-3
390
F
  0
LAYER
  5
1FF
100
AcDbSymbolTableRecord
100
AcDbLayerTableRecord
  2
BG_STARTBEZUEGE
 70
0
 62
7
  6
CONTINUOUS
370
-3
390
F
  0
LAYER
  5
200
100
AcDbSymbolTableRecord
100
AcDbLayerTableRecord
  2
FASEN
 70
0
 62
7
  6
CONTINUOUS
370
-3
390
F
  0
LAYER
  5
201
100
AcDbSymbolTableRecord
100
AcDbLayerTableRecord
  2
HILFEN
 70
0
 62
7
  6
CONTINUOUS
370
-3
390
F
  0
LAYER
  5
202
100
AcDbSymbolTableRecord
100
AcDbLayerTableRecord
  2
KONSTRUKTIONSELEMENTE
 70
0
 62
7
  6
CONTINUOUS
370
-3
390
F
  0
LAYER
  5
203
100
AcDbSymbolTableRecord
100
AcDbLayerTableRecord
  2
PLATZIERUNG
 70
0
 62
7
  6
CONTINUOUS
370
-3
390
F
  0
LAYER
  5
204
100
AcDbSymbolTableRecord
100
AcDbLayerTableRecord
  2
RUNDUNGEN
 70
0
 62
7
  6
CONTINUOUS
370
-3
390
F
  0
LAYER
  5
205
100
AcDbSymbolTableRecord
100
AcDbLayerTableRecord
  2
TEIL_STARTBEZUEGE
 70
0
 62
7
  6
CONTINUOUS
370
-3
390
F
  0
LAYER
  5
206
100
AcDbSymbolTableRecord
100
AcDbLayerTableRecord
  2
T_STARTBEZUEGE
 70
0
 62
7
  6
CONTINUOUS
370
-3
390
F
  0
ENDTAB
  0
TABLE
  2
STYLE
  5
3
100
AcDbSymbolTable
 70
1
  0
STYLE
  5
11
100
AcDbSymbolTableRecord
100
AcDbTextStyleTableRecord
  2
STANDARD
 70
0
 40
0.0
 41
0.7
 50
0.0
 71
0
 42
0.2
  3
txt
  4

  0
STYLE
  5
207
100
AcDbSymbolTableRecord
100
AcDbTextStyleTableRecord
  2
TEXTSTYLE_1
 70
0
 40
0.0
 41
0.8
 50
0.0
 71
0
 42
0.2
  3
gdt
  4

  0
ENDTAB
  0
TABLE
  2
VIEW
  5
6
100
AcDbSymbolTable
 70
0
  0
ENDTAB
  0
TABLE
  2
UCS
  5
7
100
AcDbSymbolTable
 70
0
  0
ENDTAB
  0
TABLE
  2
APPID
  5
9
100
AcDbSymbolTable
 70
1
  0
APPID
  5
208
100
AcDbSymbolTableRecord
100
AcDbRegAppTableRecord
  2
ACAD
 70
0
  0
ENDTAB
  0
TABLE
  2
BLOCK_RECORD
  5
1
100
AcDbSymbolTable
 70
0
  0
BLOCK_RECORD
  5
209
100
AcDbSymbolTableRecord
100
AcDbBlockTableRecord
  2
*Model_Space
  0
BLOCK_RECORD
  5
20A
100
AcDbSymbolTableRecord
100
AcDbBlockTableRecord
  2
*Paper_Space
  0
ENDTAB
  0
TABLE
  2
DIMSTYLE
  5
A
100
AcDbSymbolTable
 70
1
100
AcDbDimStyleTable
 71
0
  0
DIMSTYLE
105
20B
100
AcDbSymbolTableRecord
100
AcDbDimStyleTableRecord
  2
STANDARD
 70
0
  3

  4

 40
1.0
 41
3.5
 42
0.0625
 43
0.38
 44
0.18
 45
0.0
 46
0.0
 47
0.005
 48
0.005
140
3.5
141
0.09
142
0.0
143
25.4
144
1.0
145
0.0
146
1.0
147
0.09
 71
1.0
 72
0.0
 73
0
 74
0
 75
0
 76
0
 77
1
 78
8
170
0
171
2
172
0
173
0
174
0
175
0
176
0
177
0
178
5
270
2
271
3
272
3
273
2
274
2
275
0
280
0
281
0
282
0
283
1
284
8
285
0
286
0
287
3
288
0
340
11
  0
ENDTAB
  0
ENDSEC
  0
SECTION
  2
BLOCKS
  0
BLOCK
  5
20
100
AcDbEntity
  8
0
100
AcDbBlockBegin
  2
*Model_Space
 70
0
 10
0.0
 20
0.0
 30
0.0
  3
*Model_Space
  1

  0
ENDBLK
  5
21
100
AcDbEntity
  8
0
100
AcDbBlockEnd
  0
BLOCK
  5
1C
100
AcDbEntity
  8
0
100
AcDbBlockBegin
  2
*Paper_Space
 70
0
 10
0.0
 20
0.0
 30
0.0
  3
*Paper_Space
  1

  0
ENDBLK
  5
1D
100
AcDbEntity
  8
0
100
AcDbBlockEnd
  0
ENDSEC
  0
SECTION
  2
ENTITIES
  0
MTEXT
  5
20C
100
AcDbEntity
  8
0
100
AcDbMText
 62
5
  6
CONTINUOUS
  7
STANDARD
 71
1
 72
1
 10
1032.8418294813
 20
468.0872257083
 30
0.0
 11
0.0
 21
1.0
 31
0.0
 44
0.9
  1
RUD VAK-1-22
 40
10.0
 41
95.0
  0
MTEXT
  5
20D
100
AcDbEntity
  8
0
100
AcDbMText
 62
5
  6
CONTINUOUS
  7
STANDARD
 71
1
 72
1
 10
263.6983110723
 20
481.9027082627
 30
0.0
 11
0.0
 21
1.0
 31
0.0
 44
0.9
  1
RUD VAK-1-22
 40
10.0
 41
95.0
  0
LINE
  5
20E
100
AcDbEntity
  8
0
100
AcDbLine
 62
7
  6
CONTINUOUS
 10
0.0
 20
0.0
 11
0.0
 21
841.0
  0
LINE
  5
20F
100
AcDbEntity
  8
0
100
AcDbLine
 62
7
  6
CONTINUOUS
 10
0.0
 20
0.0
 11
1189.0
 21
0.0
  0
LINE
  5
210
100
AcDbEntity
  8
0
100
AcDbLine
 62
7
  6
CONTINUOUS
 10
0.0
 20
841.0
 11
1189.0
 21
841.0
  0
LINE
  5
211
100
AcDbEntity
  8
0
100
AcDbLine
 62
7
  6
CONTINUOUS
 10
1189.0
 20
0.0
 11
1189.0
 21
841.0
  0
LINE
  5
212
100
AcDbEntity
  8
KONSTRUKTIONSELEMENTE
100
AcDbLine
 62
7
  6
CONTINUOUS
 10
598.8995943418
 20
117.9888483417
 11
602.4351282477
 21
114.4533144357
  0
LINE
  5
213
100
AcDbEntity
  8
KONSTRUKTIONSELEMENTE
100
AcDbLine
 62
7
  6
CONTINUOUS
 10
633.5478266199
 20
145.5660128079
 11
632.7700091606
 21
146.3438302672
  0
LINE
  5
214
100
AcDbEntity
  8
KONSTRUKTIONSELEMENTE
100
AcDbLine
 62
7
  6
CONTINUOUS
 10
630.7901101733
 20
148.3237292546
 11
630.012292714
 21
149.1015467139
  0
LINE
  5
215
100
AcDbEntity
  8
KONSTRUKTIONSELEMENTE
100
AcDbLine
 62
7
  6
CONTINUOUS
 10
705.0572141771
 20
217.0754003651
 11
704.2793967178
 21
217.8532178244
  0
LINE
  5
216
100
AcDbEntity
  8
KONSTRUKTIONSELEMENTE
100
AcDbLine
 62
7
  6
CONTINUOUS
 10
701.5216802712
 20
220.6109342711
 11
702.2994977305
 21
219.8331168118
  0
LINE
  5
217
100
AcDbEntity
  8
KONSTRUKTIONSELEMENTE
100
AcDbLine
 62
7
  6
CONTINUOUS
 10
720.3553553587
 20
236.8714725201
 11
721.3177524261
 21
235.9090754527
  0
LINE
  5
218
100
AcDbEntity
  8
BEZUGSACHSEN
100
AcDbLine
 62
7
  6
CONTINUOUS
 10
931.5829272499
 20
268.5188832272
 11
919.5829272499
 21
268.5188832272
  0
LINE
  5
219
100
AcDbEntity
  8
BEZUGSACHSEN
100
AcDbLine
 62
7
  6
CONTINUOUS
 10
748.0991251721
 20
267.188379172
 11
751.6346590781
 21
263.6528452661
  0
LINE
  5
21A
100
AcDbEntity
  8
KONSTRUKTIONSELEMENTE
100
AcDbLine
 62
7
  6
CONTINUOUS
 10
743.9979058412
 20
275.8857925806
 11
748.9476533095
 21
270.9360451123
  0
LINE
  5
21B
100
AcDbEntity
  8
KONSTRUKTIONSELEMENTE
100
AcDbLine
 62
7
  6
CONTINUOUS
 10
744.3514592318
 20
276.2393459712
 11
749.3012067001
 21
271.2895985029
  0
LINE
  5
21C
100
AcDbEntity
  8
BEZUGSACHSEN
100
AcDbLine
 62
7
  6
CONTINUOUS
 10
917.9532849295
 20
279.1161605753
 11
933.2125695704
 21
279.1161605753
  0
LINE
  5
21D
100
AcDbEntity
  8
BEZUGSACHSEN
100
AcDbLine
 62
7
  6
CONTINUOUS
 10
918.1969179856
 20
304.9916261775
 11
932.9689365143
 21
304.9916261775
  0
LINE
  5
21E
100
AcDbEntity
  8
BEZUGSACHSEN
100
AcDbLine
 62
7
  6
CONTINUOUS
 10
918.663264304
 20
345.2816685104
 11
932.5025901959
 21
345.2816685104
  0
LINE
  5
21F
100
AcDbEntity
  8
BEZUGSACHSEN
100
AcDbLine
 62
7
  6
CONTINUOUS
 10
938.6922409713
 20
348.2825435245
 11
939.4619951871
 21
348.2825435245
  0
LINE
  5
220
100
AcDbEntity
  8
KONSTRUKTIONSELEMENTE
100
AcDbLine
 62
7
  6
CONTINUOUS
 10
797.0309144302
 20
328.9188011696
 11
801.9806618985
 21
323.9690537013
  0
LINE
  5
221
100
AcDbEntity
  8
KONSTRUKTIONSELEMENTE
100
AcDbLine
 62
7
  6
CONTINUOUS
 10
797.3844678208
 20
329.2723545602
 11
802.3342152891
 21
324.3226070919
  0
LINE
  5
222
100
AcDbEntity
  8
BEZUGSACHSEN
100
AcDbLine
 62
7
  6
CONTINUOUS
 10
938.7142076674
 20
352.6297172062
 11
939.4344965751
 21
352.6297172062
  0
LINE
  5
223
100
AcDbEntity
  8
BEZUGSACHSEN
100
AcDbLine
 62
7
  6
CONTINUOUS
 10
935.3769429817
 20
353.9551354151
 11
936.313054997
 21
353.9551354151
  0
LINE
  5
224
100
AcDbEntity
  8
BEZUGSACHSEN
100
AcDbLine
 62
7
  6
CONTINUOUS
 10
936.8172509639
 20
355.0470516764
 11
937.6459419339
 21
355.0470516764
  0
LINE
  5
225
100
AcDbEntity
  8
BEZUGSACHSEN
100
AcDbLine
 62
7
  6
CONTINUOUS
 10
936.7425527097
 20
355.5884393467
 11
937.5711039411
 21
355.5884393467
  0
LINE
  5
226
100
AcDbEntity
  8
BEZUGSACHSEN
100
AcDbLine
 62
7
  6
CONTINUOUS
 10
938.5046728389
 20
355.9732786611
 11
939.203668754
 21
355.9732786611
  0
LINE
  5
227
100
AcDbEntity
  8
BEZUGSACHSEN
100
AcDbLine
 62
7
  6
CONTINUOUS
 10
938.2119788056
 20
356.0757414283
 11
938.9313086882
 21
356.0757414283
  0
LINE
  5
228
100
AcDbEntity
  8
BEZUGSACHSEN
100
AcDbLine
 62
7
  6
CONTINUOUS
 10
936.6508498784
 20
356.1102891674
 11
937.4311953749
 21
356.1102891674
  0
LINE
  5
229
100
AcDbEntity
  8
BEZUGSACHSEN
100
AcDbLine
 62
7
  6
CONTINUOUS
 10
937.9234957843
 20
356.4238377957
 11
938.6600983184
 21
356.4238377957
  0
LINE
  5
22A
100
AcDbEntity
  8
BEZUGSACHSEN
100
AcDbLine
 62
7
  6
CONTINUOUS
 10
936.6445830772
 20
356.6126007373
 11
937.2272173594
 21
356.6126007373
  0
LINE
  5
22B
100
AcDbEntity
  8
BEZUGSACHSEN
100
AcDbLine
 62
7
  6
CONTINUOUS
 10
936.6647335119
 20
356.9746813657
 11
937.0264907184
 21
356.9746813657
  0
LINE
  5
22C
100
AcDbEntity
  8
BEZUGSACHSEN
100
AcDbLine
 62
7
  6
CONTINUOUS
 10
937.5674136283
 20
357.0431836375
 11
938.3232788884
 21
357.0431836375
  0
LINE
  5
22D
100
AcDbEntity
  8
BEZUGSACHSEN
100
AcDbLine
 62
7
  6
CONTINUOUS
 10
938.730084981
 20
357.1810950306
 11
938.9367207856
 21
357.1810950306
  0
LINE
  5
22E
100
AcDbEntity
  8
BEZUGSACHSEN
100
AcDbLine
 62
7
  6
CONTINUOUS
 10
935.4048503872
 20
357.3206893367
 11
936.3085424636
 21
357.3206893367
  0
LINE
  5
22F
100
AcDbEntity
  8
BEZUGSACHSEN
100
AcDbLine
 62
7
  6
CONTINUOUS
 10
938.4777520842
 20
357.5239302011
 11
939.0014273057
 21
357.5239302011
  0
LINE
  5
230
100
AcDbEntity
  8
BEZUGSACHSEN
100
AcDbLine
 62
7
  6
CONTINUOUS
 10
935.4692635806
 20
357.9011531073
 11
936.3633116825
 21
357.9011531073
  0
LINE
  5
231
100
AcDbEntity
  8
BEZUGSACHSEN
100
AcDbLine
 62
7
  6
CONTINUOUS
 10
938.3043387467
 20
358.015198703
 11
938.996173052
 21
358.015198703
  0
LINE
  5
232
100
AcDbEntity
  8
BEZUGSACHSEN
100
AcDbLine
 62
7
  6
CONTINUOUS
 10
935.673101462
 20
358.0999983369
 11
936.5514254599
 21
358.0999983369
  0
LINE
  5
233
100
AcDbEntity
  8
BEZUGSACHSEN
100
AcDbLine
 62
7
  6
CONTINUOUS
 10
938.2305208071
 20
358.6548998335
 11
938.9210306758
 21
358.6548998335
  0
LINE
  5
234
100
AcDbEntity
  8
BEZUGSACHSEN
100
AcDbLine
 62
7
  6
CONTINUOUS
 10
938.084819006
 20
359.3202163954
 11
938.7791528059
 21
359.3202163954
  0
LINE
  5
235
100
AcDbEntity
  8
BEZUGSACHSEN
100
AcDbLine
 62
7
  6
CONTINUOUS
 10
937.8690509827
 20
360.0111481808
 11
938.5722305049
 21
360.0111481808
  0
LINE
  5
236
100
AcDbEntity
  8
BEZUGSACHSEN
100
AcDbLine
 62
7
  6
CONTINUOUS
 10
938.8066284079
 20
360.0207428398
 11
939.3294060626
 21
360.0207428398
  0
LINE
  5
237
100
AcDbEntity
  8
BEZUGSACHSEN
100
AcDbLine
 62
7
  6
CONTINUOUS
 10
937.5843721197
 20
360.7276959963
 11
938.3013064593
 21
360.7276959963
  0
LINE
  5
238
100
AcDbEntity
  8
BEZUGSACHSEN
100
AcDbLine
 62
7
  6
CONTINUOUS
 10
935.3800140489
 20
361.6445957476
 11
936.2462257274
 21
361.6445957476
  0
LINE
  5
239
100
AcDbEntity
  8
BEZUGSACHSEN
100
AcDbLine
 62
7
  6
CONTINUOUS
 10
935.3949616894
 20
362.3814985004
 11
936.2534626099
 21
362.3814985004
  0
LINE
  5
23A
100
AcDbEntity
  8
BEZUGSACHSEN
100
AcDbLine
 62
7
  6
CONTINUOUS
 10
938.3031552247
 20
363.4943743363
 11
938.9366038706
 21
363.4943743363
  0
LINE
  5
23B
100
AcDbEntity
  8
BEZUGSACHSEN
100
AcDbLine
 62
7
  6
CONTINUOUS
 10
938.2277724585
 20
364.0733125114
 11
938.8609514879
 21
364.0733125114
  0
LINE
  5
23C
100
AcDbEntity
  8
BEZUGSACHSEN
100
AcDbLine
 62
7
  6
CONTINUOUS
 10
938.0809292327
 20
364.723296676
 11
938.7187130236
 21
364.723296676
  0
LINE
  5
23D
100
AcDbEntity
  8
BEZUGSACHSEN
100
AcDbLine
 62
7
  6
CONTINUOUS
 10
935.3949616837
 20
365.3291081064
 11
936.2268065073
 21
365.3291081064
  0
LINE
  5
23E
100
AcDbEntity
  8
BEZUGSACHSEN
100
AcDbLine
 62
7
  6
CONTINUOUS
 10
937.8644463846
 20
365.4443265883
 11
938.5115734935
 21
365.4443265883
  0
LINE
  5
23F
100
AcDbEntity
  8
BEZUGSACHSEN
100
AcDbLine
 62
7
  6
CONTINUOUS
 10
935.3800140489
 20
366.0660105079
 11
936.2062726398
 21
366.0660105079
  0
LINE
  5
240
100
AcDbEntity
  8
BEZUGSACHSEN
100
AcDbLine
 62
7
  6
CONTINUOUS
 10
937.5794711924
 20
366.2364012067
 11
938.240568702
 21
366.2364012067
  0
LINE
  5
241
100
AcDbEntity
  8
BEZUGSACHSEN
100
AcDbLine
 62
7
  6
CONTINUOUS
 10
935.3737064687
 20
368.1340763845
 11
936.1817661909
 21
368.1340763845
  0
LINE
  5
242
100
AcDbEntity
  8
BEZUGSACHSEN
100
AcDbLine
 62
7
  6
CONTINUOUS
 10
938.6922409878
 20
368.3578393407
 11
939.2421412284
 21
368.3578393407
  0
LINE
  5
243
100
AcDbEntity
  8
BEZUGSACHSEN
100
AcDbLine
 62
7
  6
CONTINUOUS
 10
936.598123882
 20
368.8257629094
 11
937.2370333903
 21
368.8257629094
  0
LINE
  5
244
100
AcDbEntity
  8
BEZUGSACHSEN
100
AcDbLine
 62
7
  6
CONTINUOUS
 10
936.5914085351
 20
369.4146810701
 11
936.9725143538
 21
369.4146810701
  0
LINE
  5
245
100
AcDbEntity
  8
BEZUGSACHSEN
100
AcDbLine
 62
7
  6
CONTINUOUS
 10
938.8562197913
 20
369.8885812405
 11
939.2456402985
 21
369.8885812405
  0
LINE
  5
246
100
AcDbEntity
  8
BEZUGSACHSEN
100
AcDbLine
 62
7
  6
CONTINUOUS
 10
935.4055984861
 20
370.5719631757
 11
936.1893433711
 21
370.5719631757
  0
LINE
  5
247
100
AcDbEntity
  8
BEZUGSACHSEN
100
AcDbLine
 62
7
  6
CONTINUOUS
 10
939.0005166077
 20
370.8676693171
 11
939.247224621
 21
370.8676693171
  0
LINE
  5
248
100
AcDbEntity
  8
BEZUGSACHSEN
100
AcDbLine
 62
7
  6
CONTINUOUS
 10
935.4708484691
 20
370.9072325473
 11
936.2467372487
 21
370.9072325473
  0
LINE
  5
249
100
AcDbEntity
  8
BEZUGSACHSEN
100
AcDbLine
 62
7
  6
CONTINUOUS
 10
935.6047561006
 20
370.9682984302
 11
936.37013829
 21
370.9682984302
  0
LINE
  5
24A
100
AcDbEntity
  8
BEZUGSACHSEN
100
AcDbLine
 62
7
  6
CONTINUOUS
 10
938.9628067686
 20
370.9756365824
 11
939.1757921353
 21
370.9756365824
  0
LINE
  5
24B
100
AcDbEntity
  8
BEZUGSACHSEN
100
AcDbLine
 62
7
  6
CONTINUOUS
 10
938.8428188995
 20
371.3190428809
 11
939.0349765135
 21
371.3190428809
  0
LINE
  5
24C
100
AcDbEntity
  8
BEZUGSACHSEN
100
AcDbLine
 62
7
  6
CONTINUOUS
 10
938.572311726
 20
372.0908375791
 11
938.7574856149
 21
372.0908375791
  0
LINE
  5
24D
100
AcDbEntity
  8
BEZUGSACHSEN
100
AcDbLine
 62
7
  6
CONTINUOUS
 10
938.7514979295
 20
372.3440415046
 11
938.8413458207
 21
372.3440415046
  0
LINE
  5
24E
100
AcDbEntity
  8
BEZUGSACHSEN
100
AcDbLine
 62
7
  6
CONTINUOUS
 10
938.6366954918
 20
372.6432171044
 11
938.7680311655
 21
372.6432171044
  0
LINE
  5
24F
100
AcDbEntity
  8
BEZUGSACHSEN
100
AcDbLine
 62
7
  6
CONTINUOUS
 10
938.2862565899
 20
372.9051224492
 11
938.4839424068
 21
372.9051224492
  0
LINE
  5
250
100
AcDbEntity
  8
BEZUGSACHSEN
100
AcDbLine
 62
7
  6
CONTINUOUS
 10
938.4701094222
 20
373.1353412668
 11
938.6274925929
 21
373.1353412668
  0
LINE
  5
251
100
AcDbEntity
  8
BEZUGSACHSEN
100
AcDbLine
 62
7
  6
CONTINUOUS
 10
938.2535695698
 20
373.7991686436
 11
938.4240824833
 21
373.7991686436
  0
LINE
  5
252
100
AcDbEntity
  8
BEZUGSACHSEN
100
AcDbLine
 62
7
  6
CONTINUOUS
 10
937.9165111742
 20
373.9548471375
 11
938.1462256597
 21
373.9548471375
  0
LINE
  5
253
100
AcDbEntity
  8
BEZUGSACHSEN
100
AcDbLine
 62
7
  6
CONTINUOUS
 10
937.1432592478
 20
375.1677282044
 11
937.449610177
 21
375.1677282044
  0
LINE
  5
254
100
AcDbEntity
  8
BEZUGSACHSEN
100
AcDbLine
 62
7
  6
CONTINUOUS
 10
937.7745121421
 20
375.3215121691
 11
937.9040864397
 21
375.3215121691
  0
LINE
  5
255
100
AcDbEntity
  8
BEZUGSACHSEN
100
AcDbLine
 62
7
  6
CONTINUOUS
 10
937.0281821768
 20
375.5223614786
 11
937.3774543234
 21
375.5223614786
  0
LINE
  5
256
100
AcDbEntity
  8
BEZUGSACHSEN
100
AcDbLine
 62
7
  6
CONTINUOUS
 10
936.8621198024
 20
376.0341126149
 11
937.2392492774
 21
376.0341126149
  0
LINE
  5
257
100
AcDbEntity
  8
BEZUGSACHSEN
100
AcDbLine
 62
7
  6
CONTINUOUS
 10
937.3725775728
 20
376.6066758532
 11
937.5019142525
 21
376.6066758532
  0
LINE
  5
258
100
AcDbEntity
  8
BEZUGSACHSEN
100
AcDbLine
 62
7
  6
CONTINUOUS
 10
936.6450703883
 20
376.7029827436
 11
937.0359891741
 21
376.7029827436
  0
LINE
  5
259
100
AcDbEntity
  8
BEZUGSACHSEN
100
AcDbLine
 62
7
  6
CONTINUOUS
 10
937.2729075457
 20
376.925356442
 11
937.4689392164
 21
376.925356442
  0
LINE
  5
25A
100
AcDbEntity
  8
0
100
AcDbLine
 62
7
  6
CONTINUOUS
 10
790.5829272499
 20
441.1366473439
 11
790.5829272499
 21
601.1366473439
  0
LINE
  5
25B
100
AcDbEntity
  8
BEZUGSACHSEN
100
AcDbLine
 62
7
  6
CONTINUOUS
 10
936.9640565323
 20
377.1677566478
 11
937.1423344455
 21
377.1677566478
  0
LINE
  5
25C
100
AcDbEntity
  8
BEZUGSACHSEN
100
AcDbLine
 62
7
  6
CONTINUOUS
 10
936.4425778598
 20
377.3224743152
 11
936.835077712
 21
377.3224743152
  0
LINE
  5
25D
100
AcDbEntity
  8
BEZUGSACHSEN
100
AcDbLine
 62
7
  6
CONTINUOUS
 10
918.663264304
 20
377.8769974617
 11
932.5025901959
 21
377.8769974617
  0
LINE
  5
25E
100
AcDbEntity
  8
BEZUGSACHSEN
100
AcDbLine
 62
7
  6
CONTINUOUS
 10
936.4499899932
 20
377.8925861728
 11
936.6364342001
 21
377.8925861728
  0
LINE
  5
25F
100
AcDbEntity
  8
BEZUGSACHSEN
100
AcDbLine
 62
7
  6
CONTINUOUS
 10
935.3769429953
 20
378.0631993903
 11
936.0954756968
 21
378.0631993903
  0
LINE
  5
260
100
AcDbEntity
  8
BEZUGSACHSEN
100
AcDbLine
 62
7
  6
CONTINUOUS
 10
936.4443823136
 20
378.2068230273
 11
936.5065113681
 21
378.2068230273
  0
LINE
  5
261
100
AcDbEntity
  8
BEZUGSACHSEN
100
AcDbLine
 62
7
  6
CONTINUOUS
 10
936.5933197019
 20
378.259972033
 11
936.8104915832
 21
378.259972033
  0
LINE
  5
262
100
AcDbEntity
  8
BEZUGSACHSEN
100
AcDbLine
 62
7
  6
CONTINUOUS
 10
936.7317423708
 20
378.7256297327
 11
936.8838749201
 21
378.7256297327
  0
LINE
  5
263
100
AcDbEntity
  8
BEZUGSACHSEN
100
AcDbLine
 62
7
  6
CONTINUOUS
 10
936.2286928538
 20
379.1592388918
 11
936.547801756
 21
379.1592388918
  0
LINE
  5
264
100
AcDbEntity
  8
BEZUGSACHSEN
100
AcDbLine
 62
7
  6
CONTINUOUS
 10
935.4048503836
 20
379.2482896017
 11
936.1105835964
 21
379.2482896017
  0
LINE
  5
265
100
AcDbEntity
  8
BEZUGSACHSEN
100
AcDbLine
 62
7
  6
CONTINUOUS
 10
935.4692635878
 20
379.2886860213
 11
936.1696124314
 21
379.2886860213
  0
LINE
  5
266
100
AcDbEntity
  8
BEZUGSACHSEN
100
AcDbLine
 62
7
  6
CONTINUOUS
 10
936.5630175622
 20
379.3469666401
 11
936.6852113012
 21
379.3469666401
  0
LINE
  5
267
100
AcDbEntity
  8
BEZUGSACHSEN
100
AcDbLine
 62
7
  6
CONTINUOUS
 10
936.4986561588
 20
379.711618417
 11
936.5570189759
 21
379.711618417
  0
LINE
  5
268
100
AcDbEntity
  8
BEZUGSACHSEN
100
AcDbLine
 62
7
  6
CONTINUOUS
 10
935.6058275078
 20
380.1009958474
 11
936.2881242997
 21
380.1009958474
  0
LINE
  5
269
100
AcDbEntity
  8
BEZUGSACHSEN
100
AcDbLine
 62
7
  6
CONTINUOUS
 10
935.4715783993
 20
380.6143653945
 11
936.1598077637
 21
380.6143653945
  0
LINE
  5
26A
100
AcDbEntity
  8
BEZUGSACHSEN
100
AcDbLine
 62
7
  6
CONTINUOUS
 10
935.405910196
 20
380.9347860427
 11
936.0964247935
 21
380.9347860427
  0
LINE
  5
26B
100
AcDbEntity
  8
BEZUGSACHSEN
100
AcDbLine
 62
7
  6
CONTINUOUS
 10
935.4044140227
 20
381.125994396
 11
936.0933311254
 21
381.125994396
  0
LINE
  5
26C
100
AcDbEntity
  8
BEZUGSACHSEN
100
AcDbLine
 62
7
  6
CONTINUOUS
 10
932.5025901959
 20
390.3273052467
 11
918.663264304
 21
390.3273052467
  0
LINE
  5
26D
100
AcDbEntity
  8
BEZUGSACHSEN
100
AcDbLine
 62
7
  6
CONTINUOUS
 10
899.4025049851
 20
225.5358795896
 11
895.3602784975
 21
231.910717061
  0
LINE
  5
26E
100
AcDbEntity
  8
0
100
AcDbLine
 62
7
  6
CONTINUOUS
 10
835.5829272499
 20
441.1366473439
 11
835.5829272499
 21
601.1366473439
  0
LWPOLYLINE
  5
26F
100
AcDbEntity
  8
BEZUGSACHSEN
100
AcDbPolyline
 62
7
  6
CONTINUOUS
 90
4
 70
0
 10
909.2627778745
 20
352.3655506977
 10
909.6581456994
 20
351.8915906068
 10
910.1164234508
 20
351.4676114489
 10
910.5829272499
 20
351.1351073702
  0
LINE
  5
270
100
AcDbEntity
  8
BEZUGSACHSEN
100
AcDbLine
 62
7
  6
CONTINUOUS
 10
908.9280620084
 20
352.8950460105
 11
909.2627778745
 21
352.3655506977
  0
LINE
  5
271
100
AcDbEntity
  8
RUNDUNGEN
100
AcDbLine
 62
7
  6
CONTINUOUS
 10
955.2431812878
 20
262.4571554196
 11
949.2624191743
 21
272.8161392682
  0
LINE
  5
272
100
AcDbEntity
  8
KONSTRUKTIONSELEMENTE
100
AcDbLine
 62
7
  6
CONTINUOUS
 10
739.9673971885
 20
271.8552839279
 11
743.9979058412
 21
275.8857925806
  0
LINE
  5
273
100
AcDbEntity
  8
KONSTRUKTIONSELEMENTE
100
AcDbLine
 62
7
  6
CONTINUOUS
 10
744.3514592318
 20
276.2393459712
 11
748.3819678846
 21
280.269854624
  0
LINE
  5
274
100
AcDbEntity
  8
KONSTRUKTIONSELEMENTE
100
AcDbLine
 62
7
  6
CONTINUOUS
 10
793.0004057775
 20
324.8882925168
 11
797.0309144302
 21
328.9188011696
  0
LINE
  5
275
100
AcDbEntity
  8
KONSTRUKTIONSELEMENTE
100
AcDbLine
 62
7
  6
CONTINUOUS
 10
797.3844678208
 20
329.2723545602
 11
801.4149764736
 21
333.302863213
  0
LINE
  5
276
100
AcDbEntity
  8
KONSTRUKTIONSELEMENTE
100
AcDbLine
 62
7
  6
CONTINUOUS
 10
775.1813148916
 20
305.1600133217
 11
767.8274043672
 21
297.8061027974
  0
LINE
  5
277
100
AcDbEntity
  8
KONSTRUKTIONSELEMENTE
100
AcDbLine
 62
7
  6
CONTINUOUS
 10
744.9171446568
 20
266.9055364596
 11
748.9476533095
 21
270.9360451123
  0
LINE
  5
278
100
AcDbEntity
  8
KONSTRUKTIONSELEMENTE
100
AcDbLine
 62
7
  6
CONTINUOUS
 10
749.3012067001
 20
271.2895985029
 11
753.3317153529
 21
275.3201071557
  0
LINE
  5
279
100
AcDbEntity
  8
KONSTRUKTIONSELEMENTE
100
AcDbLine
 62
7
  6
CONTINUOUS
 10
797.9501532458
 20
319.9385450485
 11
801.9806618985
 21
323.9690537013
  0
LINE
  5
27A
100
AcDbEntity
  8
KONSTRUKTIONSELEMENTE
100
AcDbLine
 62
7
  6
CONTINUOUS
 10
802.3342152891
 20
324.3226070919
 11
806.3647239419
 21
328.3531157447
  0
LINE
  5
27B
100
AcDbEntity
  8
KONSTRUKTIONSELEMENTE
100
AcDbLine
 62
7
  6
CONTINUOUS
 10
861.9433169432
 20
383.1538912866
 11
806.7889880106
 21
327.9995623541
  0
LINE
  5
27C
100
AcDbEntity
  8
KONSTRUKTIONSELEMENTE
100
AcDbLine
 62
7
  6
CONTINUOUS
 10
779.7067982912
 20
300.6345299222
 11
772.3528877668
 21
293.2806193978
  0
LINE
  5
27D
100
AcDbEntity
  8
KONSTRUKTIONSELEMENTE
100
AcDbLine
 62
7
  6
CONTINUOUS
 10
755.0994823059
 20
275.1786857994
 11
772.3167985348
 21
292.3960020284
  0
LINE
  5
27E
100
AcDbEntity
  8
KONSTRUKTIONSELEMENTE
100
AcDbLine
 62
7
  6
CONTINUOUS
 10
780.5553264286
 20
300.6345299222
 11
797.7726426576
 21
317.8518461511
  0
LINE
  5
27F
100
AcDbEntity
  8
BEZUGSACHSEN
100
AcDbLine
 62
7
  6
CONTINUOUS
 10
748.0983308747
 20
267.1875848746
 11
747.2339184416
 21
266.3231724415
  0
LINE
  5
280
100
AcDbEntity
  8
KONSTRUKTIONSELEMENTE
100
AcDbLine
 62
7
  6
CONTINUOUS
 10
598.8995943418
 20
117.9888483417
 11
747.2339184416
 21
266.3231724415
  0
LINE
  5
281
100
AcDbEntity
  8
BEZUGSACHSEN
100
AcDbLine
 62
7
  6
CONTINUOUS
 10
908.6750663782
 20
353.4451570598
 11
908.9348139465
 21
352.8826349313
  0
LINE
  5
282
100
AcDbEntity
  8
BEZUGSACHSEN
100
AcDbLine
 62
7
  6
CONTINUOUS
 10
908.4974533058
 20
354.0205845817
 11
908.6792946103
 21
353.4341398059
  0
LINE
  5
283
100
AcDbEntity
  8
BEZUGSACHSEN
100
AcDbLine
 62
7
  6
CONTINUOUS
 10
917.5905289726
 20
282.6237804404
 11
917.9532849295
 21
279.1161605753
  0
LINE
  5
284
100
AcDbEntity
  8
BEZUGSACHSEN
100
AcDbLine
 62
7
  6
CONTINUOUS
 10
908.3747669547
 20
355.0649838051
 11
908.3984259429
 21
354.6043332047
  0
LINE
  5
285
100
AcDbEntity
  8
BEZUGSACHSEN
100
AcDbLine
 62
7
  6
CONTINUOUS
 10
894.5829272499
 20
234.5882602471
 11
894.5829272499
 21
257.4571554196
  0
LINE
  5
286
100
AcDbEntity
  8
BEZUGSACHSEN
100
AcDbLine
 62
7
  6
CONTINUOUS
 10
904.5829272499
 20
282.8161392682
 11
904.5829272499
 21
291.5401706698
  0
LINE
  5
287
100
AcDbEntity
  8
BEZUGSACHSEN
100
AcDbLine
 62
7
  6
CONTINUOUS
 10
908.3747524552
 20
355.0649578861
 11
908.3747523135
 21
358.1008810395
  0
LINE
  5
288
100
AcDbEntity
  8
BEZUGSACHSEN
100
AcDbLine
 62
7
  6
CONTINUOUS
 10
910.5829272499
 20
358.9884230672
 11
910.5829272499
 21
300.7053220597
  0
LINE
  5
289
100
AcDbEntity
  8
KONSTRUKTIONSELEMENTE
100
AcDbLine
 62
7
  6
CONTINUOUS
 10
630.7901101733
 20
148.3237292546
 11
599.6774118011
 21
117.2110308824
  0
LINE
  5
28A
100
AcDbEntity
  8
KONSTRUKTIONSELEMENTE
100
AcDbLine
 62
7
  6
CONTINUOUS
 10
702.2994977305
 20
219.8331168118
 11
711.3234772877
 21
228.857096369
  0
LINE
  5
28B
100
AcDbEntity
  8
KONSTRUKTIONSELEMENTE
100
AcDbLine
 62
7
  6
CONTINUOUS
 10
632.7700091606
 20
146.3438302672
 11
601.6573107884
 21
115.231131895
  0
LINE
  5
28C
100
AcDbEntity
  8
KONSTRUKTIONSELEMENTE
100
AcDbLine
 62
7
  6
CONTINUOUS
 10
704.2793967178
 20
217.8532178244
 11
713.3033762751
 21
226.8771973817
  0
LINE
  5
28D
100
AcDbEntity
  8
BEZUGSACHSEN
100
AcDbLine
 62
7
  6
CONTINUOUS
 10
751.6338647806
 20
263.6520509687
 11
750.7694523475
 21
262.7876385355
  0
LINE
  5
28E
100
AcDbEntity
  8
KONSTRUKTIONSELEMENTE
100
AcDbLine
 62
7
  6
CONTINUOUS
 10
602.4351282477
 20
114.4533144357
 11
750.7694523475
 21
262.7876385355
  0
LINE
  5
28F
100
AcDbEntity
  8
KONSTRUKTIONSELEMENTE
100
AcDbLine
 62
7
  6
CONTINUOUS
 10
759.6249657055
 20
270.6532023998
 11
776.8422819344
 21
287.8705186288
  0
LINE
  5
290
100
AcDbEntity
  8
KONSTRUKTIONSELEMENTE
100
AcDbLine
 62
7
  6
CONTINUOUS
 10
785.0808098282
 20
296.1090465226
 11
802.2981260572
 21
313.3263627515
  0
LINE
  5
291
100
AcDbEntity
  8
KONSTRUKTIONSELEMENTE
100
AcDbLine
 62
7
  6
CONTINUOUS
 10
777.7268993038
 20
287.9066078608
 11
785.0808098282
 21
295.2605183851
  0
LINE
  5
292
100
AcDbEntity
  8
KONSTRUKTIONSELEMENTE
100
AcDbLine
 62
7
  6
CONTINUOUS
 10
867.6001711927
 20
377.4970370371
 11
812.4458422601
 21
322.3427081046
  0
LINE
  5
293
100
AcDbEntity
  8
KONSTRUKTIONSELEMENTE
100
AcDbLine
 62
7
  6
CONTINUOUS
 10
812.7993956507
 20
321.9184440359
 11
804.3848249546
 21
313.5038733397
  0
LINE
  5
294
100
AcDbEntity
  8
KONSTRUKTIONSELEMENTE
100
AcDbLine
 62
7
  6
CONTINUOUS
 10
759.7663870617
 20
268.8854354469
 11
751.3518163656
 21
260.4708647508
  0
LINE
  5
295
100
AcDbEntity
  8
KONSTRUKTIONSELEMENTE
100
AcDbLine
 62
7
  6
CONTINUOUS
 10
782.2523827034
 20
283.3811244612
 11
789.6062932278
 21
290.7350349855
  0
LINE
  5
296
100
AcDbEntity
  8
KONSTRUKTIONSELEMENTE
100
AcDbLine
 62
7
  6
CONTINUOUS
 10
817.749143119
 20
316.9686965676
 11
809.3345724229
 21
308.5541258714
  0
LINE
  5
297
100
AcDbEntity
  8
KONSTRUKTIONSELEMENTE
100
AcDbLine
 62
7
  6
CONTINUOUS
 10
764.71613453
 20
263.9356879786
 11
756.3015638339
 21
255.5211172824
  0
LINE
  5
298
100
AcDbEntity
  8
BEZUGSACHSEN
100
AcDbLine
 62
7
  6
CONTINUOUS
 10
908.3982179925
 20
354.608382088
 11
908.4996563985
 21
354.0113609245
  0
LINE
  5
299
100
AcDbEntity
  8
BEZUGSACHSEN
100
AcDbLine
 62
7
  6
CONTINUOUS
 10
919.5829272499
 20
268.5188832272
 11
917.9532849295
 21
279.1161605753
  0
LINE
  5
29A
100
AcDbEntity
  8
RUNDUNGEN
100
AcDbLine
 62
7
  6
CONTINUOUS
 10
933.6624029759
 20
285.1685418407
 11
932.9689365143
 21
304.9916261775
  0
LINE
  5
29B
100
AcDbEntity
  8
BEZUGSACHSEN
100
AcDbLine
 62
7
  6
CONTINUOUS
 10
917.7305716672
 20
318.6201847574
 11
918.1969179856
 21
304.9916261775
  0
LINE
  5
29C
100
AcDbEntity
  8
BEZUGSACHSEN
100
AcDbLine
 62
7
  6
CONTINUOUS
 10
919.5829272499
 20
268.5188832272
 11
919.5829272499
 21
265.9604820403
  0
LINE
  5
29D
100
AcDbEntity
  8
RUNDUNGEN
100
AcDbLine
 62
7
  6
CONTINUOUS
 10
931.5829272499
 20
268.5188832272
 11
931.5829272499
 21
265.9604820403
  0
LINE
  5
29E
100
AcDbEntity
  8
BEZUGSACHSEN
100
AcDbLine
 62
7
  6
CONTINUOUS
 10
917.503451524
 20
285.1685418407
 11
918.1969179856
 21
304.9916261775
  0
LINE
  5
29F
100
AcDbEntity
  8
BEZUGSACHSEN
100
AcDbLine
 62
7
  6
CONTINUOUS
 10
908.6228876332
 20
359.6564459081
 11
918.663264304
 21
390.3273052467
  0
LINE
  5
2A0
100
AcDbEntity
  8
0
100
AcDbLine
 62
7
  6
CONTINUOUS
 10
932.5025901959
 20
390.3273052467
 11
935.5147205632
 21
381.125994396
  0
LINE
  5
2A1
100
AcDbEntity
  8
0
100
AcDbLine
 62
7
  6
CONTINUOUS
 10
939.1984446653
 20
369.8731313331
 11
942.5429668667
 21
359.6564459081
  0
LINE
  5
2A2
100
AcDbEntity
  8
BEZUGSACHSEN
100
AcDbLine
 62
7
  6
CONTINUOUS
 10
940.5829272499
 20
358.9884230672
 11
940.5829272499
 21
321.1025743044
  0
LINE
  5
2A3
100
AcDbEntity
  8
RUNDUNGEN
100
AcDbLine
 62
7
  6
CONTINUOUS
 10
940.5829272499
 20
321.102574263
 11
940.5829272499
 21
300.7053220597
  0
LINE
  5
2A4
100
AcDbEntity
  8
0
100
AcDbLine
 62
7
  6
CONTINUOUS
 10
940.5829272499
 20
321.1025743044
 11
940.5829272499
 21
300.7053220597
  0
LINE
  5
2A5
100
AcDbEntity
  8
0
100
AcDbLine
 62
7
  6
CONTINUOUS
 10
942.7911021864
 20
355.0660756288
 11
942.7911021864
 21
358.1008810395
  0
LINE
  5
2A6
100
AcDbEntity
  8
RUNDUNGEN
100
AcDbLine
 62
7
  6
CONTINUOUS
 10
946.5829272499
 20
282.8161392682
 11
946.5829272499
 21
291.5401706698
  0
LINE
  5
2A7
100
AcDbEntity
  8
RUNDUNGEN
100
AcDbLine
 62
7
  6
CONTINUOUS
 10
956.5829272499
 20
234.5882602471
 11
956.5829272499
 21
257.4571554196
  0
LINE
  5
2A8
100
AcDbEntity
  8
RUNDUNGEN
100
AcDbLine
 62
7
  6
CONTINUOUS
 10
942.7911021452
 20
355.0654472689
 11
942.7911021864
 21
355.06601624
  0
LINE
  5
2A9
100
AcDbEntity
  8
RUNDUNGEN
100
AcDbLine
 62
7
  6
CONTINUOUS
 10
940.5828826616
 20
358.9515789841
 11
940.5829266699
 21
358.9840307776
  0
LINE
  5
2AA
100
AcDbEntity
  8
0
100
AcDbLine
 62
7
  6
CONTINUOUS
 10
933.4352828327
 20
318.6201847574
 11
932.9689365143
 21
304.9916261775
  0
LINE
  5
2AB
100
AcDbEntity
  8
RUNDUNGEN
100
AcDbLine
 62
7
  6
CONTINUOUS
 10
942.7596257881
 20
354.5338681249
 11
942.7910876457
 21
355.0654740319
  0
LINE
  5
2AC
100
AcDbEntity
  8
RUNDUNGEN
100
AcDbLine
 62
7
  6
CONTINUOUS
 10
933.5753255273
 20
282.6237804404
 11
933.2125695704
 21
279.1161605753
  0
LINE
  5
2AD
100
AcDbEntity
  8
0
100
AcDbLine
 62
7
  6
CONTINUOUS
 10
931.5829272499
 20
268.5188832272
 11
933.2125695704
 21
279.1161605753
  0
LINE
  5
2AE
100
AcDbEntity
  8
RUNDUNGEN
100
AcDbLine
 62
7
  6
CONTINUOUS
 10
942.650829687
 20
353.949240202
 11
942.7604593198
 21
354.540938161
  0
LINE
  5
2AF
100
AcDbEntity
  8
RUNDUNGEN
100
AcDbLine
 62
7
  6
CONTINUOUS
 10
942.4656613828
 20
353.380885504
 11
942.6531509654
 21
353.9583877743
  0
LWPOLYLINE
  5
2B0
100
AcDbEntity
  8
RUNDUNGEN
100
AcDbPolyline
 62
7
  6
CONTINUOUS
 90
5
 70
0
 10
940.5829272499
 20
351.1365482112
 10
941.0252041629
 20
351.4480352397
 10
941.4818016696
 20
351.8645407849
 10
941.8770234333
 20
352.3301844284
 10
942.2134361929
 20
352.8506909093
  0
LINE
  5
2B1
100
AcDbEntity
  8
RUNDUNGEN
100
AcDbLine
 62
7
  6
CONTINUOUS
 10
942.2065840329
 20
352.838415501
 11
942.4700050006
 21
353.3917949542
  0
LINE
  5
2B2
100
AcDbEntity
  8
BEZUGSACHSEN
100
AcDbLine
 62
7
  6
CONTINUOUS
 10
895.9226732121
 20
262.4571554196
 11
901.9034353256
 21
272.8161392682
  0
LINE
  5
2B3
100
AcDbEntity
  8
0
100
AcDbLine
 62
7
  6
CONTINUOUS
 10
1015.5829272499
 20
601.1366473439
 11
1015.5829272499
 21
441.1366473439
  0
LINE
  5
2B4
100
AcDbEntity
  8
0
100
AcDbLine
 62
7
  6
CONTINUOUS
 10
1060.5829272499
 20
601.1366473439
 11
1060.5829272499
 21
441.1366473439
  0
LINE
  5
2B5
100
AcDbEntity
  8
RUNDUNGEN
100
AcDbLine
 62
7
  6
CONTINUOUS
 10
951.7633495148
 20
225.5358795896
 11
955.8055760023
 21
231.910717061
  0
LINE
  5
2B6
100
AcDbEntity
  8
RUNDUNGEN
100
AcDbLine
 62
7
  6
CONTINUOUS
 10
950.7505934534
 20
224.0372391251
 11
951.7633495148
 21
225.5358795896
  0
LINE
  5
2B7
100
AcDbEntity
  8
KONSTRUKTIONSELEMENTE
100
AcDbLine
 62
7
  6
CONTINUOUS
 10
258.9253155005
 20
114.4533144357
 11
278.9453155005
 21
114.4533144357
  0
LINE
  5
2B8
100
AcDbEntity
  8
KONSTRUKTIONSELEMENTE
100
AcDbLine
 62
7
  6
CONTINUOUS
 10
257.8253155005
 20
115.231131895
 11
258.9253155005
 21
115.231131895
  0
LINE
  5
2B9
100
AcDbEntity
  8
KONSTRUKTIONSELEMENTE
100
AcDbLine
 62
7
  6
CONTINUOUS
 10
278.9453155005
 20
115.231131895
 11
280.0453155005
 21
115.231131895
  0
LINE
  5
2BA
100
AcDbEntity
  8
KONSTRUKTIONSELEMENTE
100
AcDbLine
 62
7
  6
CONTINUOUS
 10
250.1253155005
 20
145.5660128079
 11
247.694057406
 21
145.5660128079
  0
LINE
  5
2BB
100
AcDbEntity
  8
KONSTRUKTIONSELEMENTE
100
AcDbLine
 62
7
  6
CONTINUOUS
 10
287.7453155005
 20
145.5660128079
 11
316.9402945598
 21
145.5660128079
  0
LINE
  5
2BC
100
AcDbEntity
  8
KONSTRUKTIONSELEMENTE
100
AcDbLine
 62
7
  6
CONTINUOUS
 10
328.5664768805
 20
155.9920455825
 11
314.9663686975
 21
159.1167101573
  0
LINE
  5
2BD
100
AcDbEntity
  8
KONSTRUKTIONSELEMENTE
100
AcDbLine
 62
7
  6
CONTINUOUS
 10
328.5664768805
 20
159.5275794884
 11
314.9663686975
 21
162.6522440633
  0
LINE
  5
2BE
100
AcDbEntity
  8
0
100
AcDbLine
 62
7
  6
CONTINUOUS
 10
305.8563823733
 20
211.1366473439
 11
299.1947676788
 21
211.1366473439
  0
LINE
  5
2BF
100
AcDbEntity
  8
0
100
AcDbLine
 62
7
  6
CONTINUOUS
 10
238.6758633222
 20
211.1366473439
 11
232.0142486278
 21
211.1366473439
  0
LINE
  5
2C0
100
AcDbEntity
  8
0
100
AcDbLine
 62
7
  6
CONTINUOUS
 10
281.2853155005
 20
228.3866473439
 11
256.5853155005
 21
228.3866473439
  0
LINE
  5
2C1
100
AcDbEntity
  8
KONSTRUKTIONSELEMENTE
100
AcDbLine
 62
7
  6
CONTINUOUS
 10
207.8379900774
 20
217.0754003651
 11
221.4380982605
 21
220.2000649399
  0
LINE
  5
2C2
100
AcDbEntity
  8
KONSTRUKTIONSELEMENTE
100
AcDbLine
 62
7
  6
CONTINUOUS
 10
207.8379900774
 20
217.8532178244
 11
221.4380982605
 21
220.9778823992
  0
LINE
  5
2C3
100
AcDbEntity
  8
KONSTRUKTIONSELEMENTE
100
AcDbLine
 62
7
  6
CONTINUOUS
 10
209.616801806
 20
221.5332877174
 11
219.1114897148
 21
223.7147199942
  0
LINE
  5
2C4
100
AcDbEntity
  8
KONSTRUKTIONSELEMENTE
100
AcDbLine
 62
7
  6
CONTINUOUS
 10
209.616801806
 20
223.5131867047
 11
218.1676085177
 21
225.4777595198
  0
LINE
  5
2C5
100
AcDbEntity
  8
KONSTRUKTIONSELEMENTE
100
AcDbLine
 62
7
  6
CONTINUOUS
 10
214.2722996546
 20
238.7693598961
 11
214.4887545818
 21
238.80679656
  0
LINE
  5
2C6
100
AcDbEntity
  8
0
100
AcDbLine
 62
7
  6
CONTINUOUS
 10
281.2853155005
 20
255.8866473439
 11
256.5853155005
 21
255.8866473439
  0
LINE
  5
2C7
100
AcDbEntity
  8
KONSTRUKTIONSELEMENTE
100
AcDbLine
 62
7
  6
CONTINUOUS
 10
349.9779941602
 20
235.3107915628
 11
363.5781023432
 21
232.186126988
  0
LINE
  5
2C8
100
AcDbEntity
  8
BEZUGSACHSEN
100
AcDbLine
 62
7
  6
CONTINUOUS
 10
219.1050932849
 20
223.7425604668
 11
228.1840264122
 21
212.9227092955
  0
LINE
  5
2C9
100
AcDbEntity
  8
KONSTRUKTIONSELEMENTE
100
AcDbLine
 62
7
  6
CONTINUOUS
 10
203.1923384929
 20
236.1509278842
 11
214.7906828036
 21
238.8156813631
  0
LINE
  5
2CA
100
AcDbEntity
  8
KONSTRUKTIONSELEMENTE
100
AcDbLine
 62
7
  6
CONTINUOUS
 10
214.2722996546
 20
238.7693598961
 11
199.6896072628
 21
235.4189437297
  0
LINE
  5
2CB
100
AcDbEntity
  8
KONSTRUKTIONSELEMENTE
100
AcDbLine
 62
7
  6
CONTINUOUS
 10
261.2098906411
 20
262.7876385355
 11
256.5853155005
 21
261.7251288907
  0
LINE
  5
2CC
100
AcDbEntity
  8
KONSTRUKTIONSELEMENTE
100
AcDbLine
 62
7
  6
CONTINUOUS
 10
217.9353155005
 20
252.8451785115
 11
204.3969371798
 21
249.7346965529
  0
LINE
  5
2CD
100
AcDbEntity
  8
KONSTRUKTIONSELEMENTE
100
AcDbLine
 62
7
  6
CONTINUOUS
 10
261.2098906411
 20
266.3231724415
 11
256.5853155005
 21
265.2606627966
  0
LINE
  5
2CE
100
AcDbEntity
  8
KONSTRUKTIONSELEMENTE
100
AcDbLine
 62
7
  6
CONTINUOUS
 10
217.9353155005
 20
256.3807124175
 11
204.3969371798
 21
253.2702304588
  0
LINE
  5
2CF
100
AcDbEntity
  8
KONSTRUKTIONSELEMENTE
100
AcDbLine
 62
7
  6
CONTINUOUS
 10
276.6607403599
 20
262.7876385355
 11
281.2853155005
 21
261.7251288907
  0
LINE
  5
2D0
100
AcDbEntity
  8
KONSTRUKTIONSELEMENTE
100
AcDbLine
 62
7
  6
CONTINUOUS
 10
319.9353155005
 20
252.8451785115
 11
358.5815858515
 21
243.9660850301
  0
LINE
  5
2D1
100
AcDbEntity
  8
KONSTRUKTIONSELEMENTE
100
AcDbLine
 62
7
  6
CONTINUOUS
 10
358.5815858515
 20
247.5016189361
 11
319.9353155005
 21
256.3807124175
  0
LINE
  5
2D2
100
AcDbEntity
  8
KONSTRUKTIONSELEMENTE
100
AcDbLine
 62
7
  6
CONTINUOUS
 10
281.2853155005
 20
265.2606627966
 11
276.6607403599
 21
266.3231724415
  0
LINE
  5
2D3
100
AcDbEntity
  8
KONSTRUKTIONSELEMENTE
100
AcDbLine
 62
7
  6
CONTINUOUS
 10
197.3345024386
 20
239.9336247868
 11
199.0340959077
 21
236.234882971
  0
LINE
  5
2D4
100
AcDbEntity
  8
KONSTRUKTIONSELEMENTE
100
AcDbLine
 62
7
  6
CONTINUOUS
 10
207.8379900774
 20
217.0754003651
 11
238.2273174819
 21
150.9405992665
  0
LINE
  5
2D5
100
AcDbEntity
  8
KONSTRUKTIONSELEMENTE
100
AcDbLine
 62
7
  6
CONTINUOUS
 10
207.8379900774
 20
217.8532178244
 11
207.4980713836
 21
218.5929661876
  0
LINE
  5
2D6
100
AcDbEntity
  8
RUNDUNGEN
100
AcDbLine
 62
7
  6
CONTINUOUS
 10
217.2654425194
 20
260.7938293433
 11
212.80538058
 21
268.5188832272
  0
LINE
  5
2D7
100
AcDbEntity
  8
KONSTRUKTIONSELEMENTE
100
AcDbLine
 62
7
  6
CONTINUOUS
 10
217.0484447361
 20
237.304262888
 11
217.9353155005
 21
235.3742095892
  0
LINE
  5
2D8
100
AcDbEntity
  8
KONSTRUKTIONSELEMENTE
100
AcDbLine
 62
7
  6
CONTINUOUS
 10
196.7961241179
 20
242.3372129213
 11
196.7961241179
 21
245.8727468272
  0
LINE
  5
2D9
100
AcDbEntity
  8
BEZUGSACHSEN
100
AcDbLine
 62
7
  6
CONTINUOUS
 10
317.04765903
 20
343.4103520116
 11
318.0573319694
 21
343.5686698253
  0
LINE
  5
2DA
100
AcDbEntity
  8
BEZUGSACHSEN
100
AcDbLine
 62
7
  6
CONTINUOUS
 10
316.4728296374
 20
345.2527856771
 11
317.4825034002
 21
345.4111018738
  0
LINE
  5
2DB
100
AcDbEntity
  8
BEZUGSACHSEN
100
AcDbLine
 62
7
  6
CONTINUOUS
 10
227.2709169541
 20
354.0424283359
 11
231.7866578857
 21
352.6297172062
  0
LINE
  5
2DC
100
AcDbEntity
  8
BEZUGSACHSEN
100
AcDbLine
 62
7
  6
CONTINUOUS
 10
224.710380408
 20
357.1965303763
 11
225.3419799288
 21
356.9746813657
  0
LINE
  5
2DD
100
AcDbEntity
  8
BEZUGSACHSEN
100
AcDbLine
 62
7
  6
CONTINUOUS
 10
231.5023856835
 20
357.7800863903
 11
232.2458083848
 21
357.3091724744
  0
LINE
  5
2DE
100
AcDbEntity
  8
BEZUGSACHSEN
100
AcDbLine
 62
7
  6
CONTINUOUS
 10
228.8558188324
 20
348.2825435245
 11
220.4419340285
 21
353.9551354151
  0
LINE
  5
2DF
100
AcDbEntity
  8
BEZUGSACHSEN
100
AcDbLine
 62
7
  6
CONTINUOUS
 10
229.4230780215
 20
349.1239320049
 11
225.6636826302
 21
351.658494375
  0
LINE
  5
2E0
100
AcDbEntity
  8
BEZUGSACHSEN
100
AcDbLine
 62
7
  6
CONTINUOUS
 10
224.5895698045
 20
352.3826549555
 11
221.9042872389
 21
354.193056745
  0
LINE
  5
2E1
100
AcDbEntity
  8
BEZUGSACHSEN
100
AcDbLine
 62
7
  6
CONTINUOUS
 10
225.3419799288
 20
356.9746813657
 11
225.8790368431
 21
356.6126007373
  0
LINE
  5
2E2
100
AcDbEntity
  8
BEZUGSACHSEN
100
AcDbLine
 62
7
  6
CONTINUOUS
 10
225.9092391179
 20
357.8160698461
 11
226.6253148365
 21
357.3332957876
  0
LINE
  5
2E3
100
AcDbEntity
  8
BEZUGSACHSEN
100
AcDbLine
 62
7
  6
CONTINUOUS
 10
230.8047519133
 20
357.0431836375
 11
231.7049630062
 21
356.4238377957
  0
LINE
  5
2E4
100
AcDbEntity
  8
BEZUGSACHSEN
100
AcDbLine
 62
7
  6
CONTINUOUS
 10
230.8047519133
 20
357.0431836375
 11
225.944331739
 21
361.6445957476
  0
LINE
  5
2E5
100
AcDbEntity
  8
BEZUGSACHSEN
100
AcDbLine
 62
7
  6
CONTINUOUS
 10
231.5023856835
 20
357.7800863903
 11
226.6419655092
 21
362.3814985004
  0
LINE
  5
2E6
100
AcDbEntity
  8
BEZUGSACHSEN
100
AcDbLine
 62
7
  6
CONTINUOUS
 10
226.321550148
 20
356.1102891674
 11
225.8790368431
 21
356.6126007373
  0
LINE
  5
2E7
100
AcDbEntity
  8
BEZUGSACHSEN
100
AcDbLine
 62
7
  6
CONTINUOUS
 10
227.0678281413
 20
356.8309842177
 11
226.6253148365
 21
357.3332957876
  0
LINE
  5
2E8
100
AcDbEntity
  8
RUNDUNGEN
100
AcDbLine
 62
7
  6
CONTINUOUS
 10
212.4353155005
 20
279.1161605753
 11
206.9353155005
 21
304.9916261775
  0
LINE
  5
2E9
100
AcDbEntity
  8
0
100
AcDbLine
 62
7
  6
CONTINUOUS
 10
212.80538058
 20
268.5188832272
 11
212.4353155005
 21
279.1161605753
  0
LINE
  5
2EA
100
AcDbEntity
  8
0
100
AcDbLine
 62
7
  6
CONTINUOUS
 10
206.9353155005
 20
345.2816685104
 11
206.9353155005
 21
304.9916261775
  0
LINE
  5
2EB
100
AcDbEntity
  8
KONSTRUKTIONSELEMENTE
100
AcDbLine
 62
7
  6
CONTINUOUS
 10
207.3365578874
 20
219.3140426279
 11
207.3365578874
 21
221.2939416153
  0
LINE
  5
2EC
100
AcDbEntity
  8
KONSTRUKTIONSELEMENTE
100
AcDbLine
 62
7
  6
CONTINUOUS
 10
207.8379900774
 20
217.0754003651
 11
207.8379900774
 21
217.8532178244
  0
LINE
  5
2ED
100
AcDbEntity
  8
RUNDUNGEN
100
AcDbLine
 62
7
  6
CONTINUOUS
 10
217.9353155005
 20
226.9564985152
 11
217.9353155005
 21
286.7974680963
  0
LINE
  5
2EE
100
AcDbEntity
  8
BEZUGSACHSEN
100
AcDbLine
 62
7
  6
CONTINUOUS
 10
232.9487164865
 20
357.1095091909
 11
233.6111087677
 21
357.1810950306
  0
LINE
  5
2EF
100
AcDbEntity
  8
BEZUGSACHSEN
100
AcDbLine
 62
7
  6
CONTINUOUS
 10
224.1632563129
 20
357.157454276
 11
224.710380408
 21
357.1965303763
  0
LINE
  5
2F0
100
AcDbEntity
  8
BEZUGSACHSEN
100
AcDbLine
 62
7
  6
CONTINUOUS
 10
224.2779347854
 20
358.0999983369
 11
225.277639597
 21
358.0379188567
  0
LINE
  5
2F1
100
AcDbEntity
  8
BEZUGSACHSEN
100
AcDbLine
 62
7
  6
CONTINUOUS
 10
232.5646586113
 20
356.0757414283
 11
233.6568980863
 21
355.9732786611
  0
LINE
  5
2F2
100
AcDbEntity
  8
BEZUGSACHSEN
100
AcDbLine
 62
7
  6
CONTINUOUS
 10
315.4615883629
 20
343.6702277537
 11
317.04765903
 21
343.4103520116
  0
LINE
  5
2F3
100
AcDbEntity
  8
BEZUGSACHSEN
100
AcDbLine
 62
7
  6
CONTINUOUS
 10
237.2565499062
 20
370.9682984302
 11
238.3161375488
 21
370.6841161184
  0
LINE
  5
2F4
100
AcDbEntity
  8
BEZUGSACHSEN
100
AcDbLine
 62
7
  6
CONTINUOUS
 10
232.2458083848
 20
357.3091724744
 11
232.9487164865
 21
357.1095091909
  0
LINE
  5
2F5
100
AcDbEntity
  8
BEZUGSACHSEN
100
AcDbLine
 62
7
  6
CONTINUOUS
 10
227.4801386699
 20
355.1252038771
 11
232.4484604532
 21
353.6113373674
  0
LINE
  5
2F6
100
AcDbEntity
  8
BEZUGSACHSEN
100
AcDbLine
 62
7
  6
CONTINUOUS
 10
315.6078434323
 20
345.5240111326
 11
316.4728296374
 21
345.2527856771
  0
LINE
  5
2F7
100
AcDbEntity
  8
BEZUGSACHSEN
100
AcDbLine
 62
7
  6
CONTINUOUS
 10
225.277639597
 20
358.0379188567
 11
225.9092391179
 21
357.8160698461
  0
LINE
  5
2F8
100
AcDbEntity
  8
BEZUGSACHSEN
100
AcDbLine
 62
7
  6
CONTINUOUS
 10
231.7049630062
 20
356.4238377957
 11
232.5646586113
 21
356.0757414283
  0
LINE
  5
2F9
100
AcDbEntity
  8
BEZUGSACHSEN
100
AcDbLine
 62
7
  6
CONTINUOUS
 10
237.7641538221
 20
369.7293962258
 11
238.4236235943
 21
369.4146810701
  0
LINE
  5
2FA
100
AcDbEntity
  8
BEZUGSACHSEN
100
AcDbLine
 62
7
  6
CONTINUOUS
 10
238.3161375488
 20
370.6841161184
 11
239.1052817716
 21
370.1967773489
  0
LINE
  5
2FB
100
AcDbEntity
  8
BEZUGSACHSEN
100
AcDbLine
 62
7
  6
CONTINUOUS
 10
238.4236235943
 20
369.4146810701
 11
239.0775445596
 21
368.8257629094
  0
LINE
  5
2FC
100
AcDbEntity
  8
BEZUGSACHSEN
100
AcDbLine
 62
7
  6
CONTINUOUS
 10
229.4324992594
 20
365.3291081064
 11
234.2929194337
 21
360.7276959963
  0
LINE
  5
2FD
100
AcDbEntity
  8
BEZUGSACHSEN
100
AcDbLine
 62
7
  6
CONTINUOUS
 10
230.1301326969
 20
366.0660105079
 11
234.9905528713
 21
361.4645983978
  0
LINE
  5
2FE
100
AcDbEntity
  8
BEZUGSACHSEN
100
AcDbLine
 62
7
  6
CONTINUOUS
 10
239.1052817716
 20
370.1967773489
 11
239.8888779141
 21
369.4352346072
  0
LINE
  5
2FF
100
AcDbEntity
  8
BEZUGSACHSEN
100
AcDbLine
 62
7
  6
CONTINUOUS
 10
235.6582190414
 20
360.5996179537
 11
234.9905528713
 21
361.4645983978
  0
LINE
  5
300
100
AcDbEntity
  8
BEZUGSACHSEN
100
AcDbLine
 62
7
  6
CONTINUOUS
 10
238.4999089932
 20
360.0207428398
 11
232.4051920151
 21
368.1340763845
  0
LINE
  5
301
100
AcDbEntity
  8
BEZUGSACHSEN
100
AcDbLine
 62
7
  6
CONTINUOUS
 10
238.5331933737
 20
361.6659592429
 11
233.9945742527
 21
367.7078034979
  0
LINE
  5
302
100
AcDbEntity
  8
BEZUGSACHSEN
100
AcDbLine
 62
7
  6
CONTINUOUS
 10
239.0775445596
 20
368.8257629094
 11
241.0226669492
 21
366.2364012067
  0
LINE
  5
303
100
AcDbEntity
  8
BEZUGSACHSEN
100
AcDbLine
 62
7
  6
CONTINUOUS
 10
239.8888779141
 20
369.4352346072
 11
241.8340003037
 21
366.8458729045
  0
LINE
  5
304
100
AcDbEntity
  8
BEZUGSACHSEN
100
AcDbLine
 62
7
  6
CONTINUOUS
 10
234.8037978776
 20
360.0111481808
 11
234.2929194337
 21
360.7276959963
  0
LINE
  5
305
100
AcDbEntity
  8
BEZUGSACHSEN
100
AcDbLine
 62
7
  6
CONTINUOUS
 10
242.3471526631
 20
365.8811741887
 11
241.8340003037
 21
366.8458729045
  0
LINE
  5
306
100
AcDbEntity
  8
BEZUGSACHSEN
100
AcDbLine
 62
7
  6
CONTINUOUS
 10
241.4061444948
 20
365.4443265883
 11
241.0226669492
 21
366.2364012067
  0
LINE
  5
307
100
AcDbEntity
  8
BEZUGSACHSEN
100
AcDbLine
 62
7
  6
CONTINUOUS
 10
227.5002737638
 20
355.9275162571
 11
227.0678281413
 21
356.8309842177
  0
LINE
  5
308
100
AcDbEntity
  8
BEZUGSACHSEN
100
AcDbLine
 62
7
  6
CONTINUOUS
 10
236.0528257991
 20
359.7602534358
 11
235.6582190414
 21
360.5996179537
  0
LINE
  5
309
100
AcDbEntity
  8
BEZUGSACHSEN
100
AcDbLine
 62
7
  6
CONTINUOUS
 10
235.0416167991
 20
359.3202163954
 11
234.8037978776
 21
360.0111481808
  0
LINE
  5
30A
100
AcDbEntity
  8
BEZUGSACHSEN
100
AcDbLine
 62
7
  6
CONTINUOUS
 10
226.49050127
 20
355.5884393467
 11
226.321550148
 21
356.1102891674
  0
LINE
  5
30B
100
AcDbEntity
  8
0
100
AcDbLine
 62
7
  6
CONTINUOUS
 10
236.8924826699
 20
241.3826473439
 11
236.8924826699
 21
257.4571554196
  0
LINE
  5
30C
100
AcDbEntity
  8
BEZUGSACHSEN
100
AcDbLine
 62
7
  6
CONTINUOUS
 10
227.4801386699
 20
355.1252038771
 11
227.5002737638
 21
355.9275162571
  0
LINE
  5
30D
100
AcDbEntity
  8
BEZUGSACHSEN
100
AcDbLine
 62
7
  6
CONTINUOUS
 10
235.0063756428
 20
358.6548998335
 11
235.0416167991
 21
359.3202163954
  0
LINE
  5
30E
100
AcDbEntity
  8
BEZUGSACHSEN
100
AcDbLine
 62
7
  6
CONTINUOUS
 10
226.3858904797
 20
355.0470516764
 11
226.49050127
 21
355.5884393467
  0
LINE
  5
30F
100
AcDbEntity
  8
BEZUGSACHSEN
100
AcDbLine
 62
7
  6
CONTINUOUS
 10
233.6568980863
 20
355.9732786611
 11
234.4355627602
 21
356.1676818669
  0
LINE
  5
310
100
AcDbEntity
  8
BEZUGSACHSEN
100
AcDbLine
 62
7
  6
CONTINUOUS
 10
223.36270567
 20
357.9011531073
 11
224.2779347854
 21
358.0999983369
  0
LINE
  5
311
100
AcDbEntity
  8
BEZUGSACHSEN
100
AcDbLine
 62
7
  6
CONTINUOUS
 10
236.4563118914
 20
370.9072325473
 11
237.2565499062
 21
370.9682984302
  0
LINE
  5
312
100
AcDbEntity
  8
BEZUGSACHSEN
100
AcDbLine
 62
7
  6
CONTINUOUS
 10
237.0991375171
 20
369.7699085717
 11
237.7641538221
 21
369.7293962258
  0
LINE
  5
313
100
AcDbEntity
  8
BEZUGSACHSEN
100
AcDbLine
 62
7
  6
CONTINUOUS
 10
314.0202060768
 20
344.3596435311
 11
315.4615883629
 21
343.6702277537
  0
LINE
  5
314
100
AcDbEntity
  8
BEZUGSACHSEN
100
AcDbLine
 62
7
  6
CONTINUOUS
 10
291.7369409858
 20
369.4750561242
 11
293.814120724
 21
368.3385805995
  0
LINE
  5
315
100
AcDbEntity
  8
BEZUGSACHSEN
100
AcDbLine
 62
7
  6
CONTINUOUS
 10
292.2550904397
 20
370.4220976782
 11
294.3322701779
 21
369.2856221535
  0
LINE
  5
316
100
AcDbEntity
  8
BEZUGSACHSEN
100
AcDbLine
 62
7
  6
CONTINUOUS
 10
292.8826854241
 20
359.3884945814
 11
294.9167229199
 21
357.8724386906
  0
LINE
  5
317
100
AcDbEntity
  8
BEZUGSACHSEN
100
AcDbLine
 62
7
  6
CONTINUOUS
 10
242.595407042
 20
364.9875200581
 11
242.3471526631
 21
365.8811741887
  0
LINE
  5
318
100
AcDbEntity
  8
BEZUGSACHSEN
100
AcDbLine
 62
7
  6
CONTINUOUS
 10
241.524723969
 20
364.723296676
 11
241.4061444948
 21
365.4443265883
  0
LINE
  5
319
100
AcDbEntity
  8
BEZUGSACHSEN
100
AcDbLine
 62
7
  6
CONTINUOUS
 10
236.2148875791
 20
358.6752543675
 11
236.0528257991
 21
359.7602534358
  0
LINE
  5
31A
100
AcDbEntity
  8
0
100
AcDbLine
 62
7
  6
CONTINUOUS
 10
246.4353155005
 20
713.5738232636
 11
246.4353155005
 21
328.6994714243
  0
LINE
  5
31B
100
AcDbEntity
  8
KONSTRUKTIONSELEMENTE
100
AcDbLine
 62
7
  6
CONTINUOUS
 10
254.5253155005
 20
140.2790114196
 11
254.5253155005
 21
117.564584273
  0
LINE
  5
31C
100
AcDbEntity
  8
BEZUGSACHSEN
100
AcDbLine
 62
7
  6
CONTINUOUS
 10
256.5853155005
 20
241.3826473439
 11
256.5853155005
 21
216.1211311058
  0
LINE
  5
31D
100
AcDbEntity
  8
0
100
AcDbLine
 62
7
  6
CONTINUOUS
 10
256.5853155005
 20
241.3826473439
 11
256.5853155005
 21
269.7866473439
  0
LINE
  5
31E
100
AcDbEntity
  8
KONSTRUKTIONSELEMENTE
100
AcDbLine
 62
7
  6
CONTINUOUS
 10
258.7353155005
 20
303.3215356907
 11
258.7353155005
 21
308.5881199183
  0
LINE
  5
31F
100
AcDbEntity
  8
KONSTRUKTIONSELEMENTE
100
AcDbLine
 62
7
  6
CONTINUOUS
 10
258.9253155005
 20
114.4533144357
 11
258.9253155005
 21
139.3434731335
  0
LINE
  5
320
100
AcDbEntity
  8
BEZUGSACHSEN
100
AcDbLine
 62
7
  6
CONTINUOUS
 10
242.5732179557
 20
363.8907095304
 11
242.595407042
 21
364.9875200581
  0
LINE
  5
321
100
AcDbEntity
  8
BEZUGSACHSEN
100
AcDbLine
 62
7
  6
CONTINUOUS
 10
236.0633738927
 20
357.8871205694
 11
236.2148875791
 21
358.6752543675
  0
LINE
  5
322
100
AcDbEntity
  8
BEZUGSACHSEN
100
AcDbLine
 62
7
  6
CONTINUOUS
 10
241.3784070103
 20
364.0733125114
 11
241.524723969
 21
364.723296676
  0
LINE
  5
323
100
AcDbEntity
  8
0
100
AcDbLine
 62
7
  6
CONTINUOUS
 10
307.253422803
 20
377.8769974617
 11
291.4353155005
 21
383.0166120814
  0
LINE
  5
324
100
AcDbEntity
  8
BEZUGSACHSEN
100
AcDbLine
 62
7
  6
CONTINUOUS
 10
297.9109459557
 20
374.6248323365
 11
299.4364741685
 21
373.4877903506
  0
LINE
  5
325
100
AcDbEntity
  8
BEZUGSACHSEN
100
AcDbLine
 62
7
  6
CONTINUOUS
 10
306.5556055857
 20
368.1815945973
 11
308.0811337985
 21
367.0445526115
  0
LINE
  5
326
100
AcDbEntity
  8
BEZUGSACHSEN
100
AcDbLine
 62
7
  6
CONTINUOUS
 10
314.8875439613
 20
346.2247798572
 11
315.6078434323
 21
345.5240111326
  0
LINE
  5
327
100
AcDbEntity
  8
BEZUGSACHSEN
100
AcDbLine
 62
7
  6
CONTINUOUS
 10
300.4118217296
 20
352.6173899345
 11
301.630194277
 21
351.1559970574
  0
LINE
  5
328
100
AcDbEntity
  8
BEZUGSACHSEN
100
AcDbLine
 62
7
  6
CONTINUOUS
 10
313.0120998258
 20
345.625569061
 11
314.0202060768
 21
344.3596435311
  0
LINE
  5
329
100
AcDbEntity
  8
BEZUGSACHSEN
100
AcDbLine
 62
7
  6
CONTINUOUS
 10
291.4353155005
 20
376.1761278945
 11
291.5100423599
 21
376.0725495529
  0
LINE
  5
32A
100
AcDbEntity
  8
KONSTRUKTIONSELEMENTE
100
AcDbLine
 62
7
  6
CONTINUOUS
 10
265.1353155005
 20
277.8656915679
 11
265.1353155005
 21
281.5302805265
  0
LINE
  5
32B
100
AcDbEntity
  8
KONSTRUKTIONSELEMENTE
100
AcDbLine
 62
7
  6
CONTINUOUS
 10
265.1353155005
 20
303.3215356907
 11
265.1353155005
 21
306.4665254269
  0
LINE
  5
32C
100
AcDbEntity
  8
KONSTRUKTIONSELEMENTE
100
AcDbLine
 62
7
  6
CONTINUOUS
 10
265.4353155005
 20
280.1380845128
 11
265.4353155005
 21
255.8866473439
  0
LINE
  5
32D
100
AcDbEntity
  8
KONSTRUKTIONSELEMENTE
100
AcDbLine
 62
7
  6
CONTINUOUS
 10
265.7353155005
 20
299.3554605374
 11
265.7353155005
 21
304.8876381833
  0
LINE
  5
32E
100
AcDbEntity
  8
KONSTRUKTIONSELEMENTE
100
AcDbLine
 62
7
  6
CONTINUOUS
 10
272.1353155005
 20
299.3554605374
 11
272.1353155005
 21
304.8876381833
  0
LINE
  5
32F
100
AcDbEntity
  8
KONSTRUKTIONSELEMENTE
100
AcDbLine
 62
7
  6
CONTINUOUS
 10
272.4353155005
 20
280.1380845128
 11
272.4353155005
 21
255.8866473439
  0
LINE
  5
330
100
AcDbEntity
  8
KONSTRUKTIONSELEMENTE
100
AcDbLine
 62
7
  6
CONTINUOUS
 10
272.7353155005
 20
306.4665254269
 11
272.7353155005
 21
303.3215356907
  0
LINE
  5
331
100
AcDbEntity
  8
KONSTRUKTIONSELEMENTE
100
AcDbLine
 62
7
  6
CONTINUOUS
 10
272.7353155005
 20
281.5302805374
 11
272.7353155005
 21
277.8656915679
  0
LINE
  5
332
100
AcDbEntity
  8
KONSTRUKTIONSELEMENTE
100
AcDbLine
 62
7
  6
CONTINUOUS
 10
278.9453155005
 20
114.4533144357
 11
278.9453155005
 21
139.3434731335
  0
LINE
  5
333
100
AcDbEntity
  8
KONSTRUKTIONSELEMENTE
100
AcDbLine
 62
7
  6
CONTINUOUS
 10
279.1353155005
 20
308.5881199183
 11
279.1353155005
 21
303.3215356907
  0
LINE
  5
334
100
AcDbEntity
  8
BEZUGSACHSEN
100
AcDbLine
 62
7
  6
CONTINUOUS
 10
281.2853155005
 20
216.1211311058
 11
281.2853155005
 21
241.3826473439
  0
LINE
  5
335
100
AcDbEntity
  8
0
100
AcDbLine
 62
7
  6
CONTINUOUS
 10
281.2853155005
 20
241.3826473439
 11
281.2853155005
 21
269.7866473439
  0
LINE
  5
336
100
AcDbEntity
  8
KONSTRUKTIONSELEMENTE
100
AcDbLine
 62
7
  6
CONTINUOUS
 10
283.3453155005
 20
117.564584273
 11
283.3453155005
 21
140.1212905928
  0
LINE
  5
337
100
AcDbEntity
  8
BEZUGSACHSEN
100
AcDbLine
 62
7
  6
CONTINUOUS
 10
242.2916792304
 20
363.1391472126
 11
242.5732179557
 21
363.8907095304
  0
LINE
  5
338
100
AcDbEntity
  8
BEZUGSACHSEN
100
AcDbLine
 62
7
  6
CONTINUOUS
 10
234.6980741889
 20
358.015198703
 11
235.0063756428
 21
358.6548998335
  0
LINE
  5
339
100
AcDbEntity
  8
BEZUGSACHSEN
100
AcDbLine
 62
7
  6
CONTINUOUS
 10
235.6388006566
 20
357.1246028275
 11
236.0633738927
 21
357.8871205694
  0
LINE
  5
33A
100
AcDbEntity
  8
BEZUGSACHSEN
100
AcDbLine
 62
7
  6
CONTINUOUS
 10
220.4419340285
 20
353.9551354151
 11
222.7109707847
 21
357.3206893367
  0
LINE
  5
33B
100
AcDbEntity
  8
BEZUGSACHSEN
100
AcDbLine
 62
7
  6
CONTINUOUS
 10
221.9042872389
 20
354.193056745
 11
223.7006079141
 21
356.8574534659
  0
LINE
  5
33C
100
AcDbEntity
  8
BEZUGSACHSEN
100
AcDbLine
 62
7
  6
CONTINUOUS
 10
224.5895698045
 20
352.3826549555
 11
226.3858904797
 21
355.0470516764
  0
LINE
  5
33D
100
AcDbEntity
  8
BEZUGSACHSEN
100
AcDbLine
 62
7
  6
CONTINUOUS
 10
225.6636826302
 20
351.658494375
 11
227.2709169541
 21
354.0424283359
  0
LINE
  5
33E
100
AcDbEntity
  8
BEZUGSACHSEN
100
AcDbLine
 62
7
  6
CONTINUOUS
 10
228.8558188324
 20
348.2825435245
 11
229.4230780215
 21
349.1239320049
  0
LINE
  5
33F
100
AcDbEntity
  8
BEZUGSACHSEN
100
AcDbLine
 62
7
  6
CONTINUOUS
 10
231.7866578857
 20
352.6297172062
 11
232.4484604532
 21
353.6113373674
  0
LINE
  5
340
100
AcDbEntity
  8
BEZUGSACHSEN
100
AcDbLine
 62
7
  6
CONTINUOUS
 10
240.9671934371
 20
363.4943743363
 11
241.3784070103
 21
364.0733125114
  0
LINE
  5
341
100
AcDbEntity
  8
0
100
AcDbLine
 62
7
  6
CONTINUOUS
 10
230.617208198
 20
377.8769974617
 11
206.9353155005
 21
345.2816685104
  0
LINE
  5
342
100
AcDbEntity
  8
BEZUGSACHSEN
100
AcDbLine
 62
7
  6
CONTINUOUS
 10
312.1029647468
 20
362.3643703138
 11
313.3213372942
 21
360.9029774366
  0
LINE
  5
343
100
AcDbEntity
  8
0
100
AcDbLine
 62
7
  6
CONTINUOUS
 10
330.9353155005
 20
345.2816685104
 11
307.253422803
 21
377.8769974617
  0
LINE
  5
344
100
AcDbEntity
  8
BEZUGSACHSEN
100
AcDbLine
 62
7
  6
CONTINUOUS
 10
303.4980316345
 20
349.321175182
 11
304.3614503278
 21
347.6257079999
  0
LINE
  5
345
100
AcDbEntity
  8
BEZUGSACHSEN
100
AcDbLine
 62
7
  6
CONTINUOUS
 10
310.4218437456
 20
350.7119706073
 11
313.0120998258
 21
345.625569061
  0
LINE
  5
346
100
AcDbEntity
  8
BEZUGSACHSEN
100
AcDbLine
 62
7
  6
CONTINUOUS
 10
312.1533844911
 20
351.5937598061
 11
314.8875439613
 21
346.2247798572
  0
LINE
  5
347
100
AcDbEntity
  8
BEZUGSACHSEN
100
AcDbLine
 62
7
  6
CONTINUOUS
 10
316.4822371634
 20
353.7982332147
 11
319.2163966336
 21
348.4292532658
  0
LINE
  5
348
100
AcDbEntity
  8
BEZUGSACHSEN
100
AcDbLine
 62
7
  6
CONTINUOUS
 10
317.0617690912
 20
356.2285247292
 11
320.5154438648
 21
349.4466560008
  0
LINE
  5
349
100
AcDbEntity
  8
BEZUGSACHSEN
100
AcDbLine
 62
7
  6
CONTINUOUS
 10
291.5100423599
 20
376.0725495529
 11
291.8203578793
 21
375.0203199115
  0
LINE
  5
34A
100
AcDbEntity
  8
0
100
AcDbLine
 62
7
  6
CONTINUOUS
 10
291.4353155005
 20
713.5738232636
 11
291.4353155005
 21
328.6994714243
  0
LINE
  5
34B
100
AcDbEntity
  8
0
100
AcDbLine
 62
7
  6
CONTINUOUS
 10
300.9781483312
 20
241.3826473439
 11
300.9781483312
 21
257.4571554196
  0
LINE
  5
34C
100
AcDbEntity
  8
BEZUGSACHSEN
100
AcDbLine
 62
7
  6
CONTINUOUS
 10
291.8203578793
 20
375.0203199115
 11
291.6590698091
 21
374.1552041091
  0
LINE
  5
34D
100
AcDbEntity
  8
BEZUGSACHSEN
100
AcDbLine
 62
7
  6
CONTINUOUS
 10
241.745242411
 20
362.4586296311
 11
242.2916792304
 21
363.1391472126
  0
LINE
  5
34E
100
AcDbEntity
  8
BEZUGSACHSEN
100
AcDbLine
 62
7
  6
CONTINUOUS
 10
225.944331739
 20
361.6445957476
 11
226.6419655092
 21
362.3814985004
  0
LINE
  5
34F
100
AcDbEntity
  8
BEZUGSACHSEN
100
AcDbLine
 62
7
  6
CONTINUOUS
 10
229.4324992594
 20
365.3291081064
 11
230.1301326969
 21
366.0660105079
  0
LINE
  5
350
100
AcDbEntity
  8
BEZUGSACHSEN
100
AcDbLine
 62
7
  6
CONTINUOUS
 10
234.2329850088
 20
357.5239302011
 11
234.6980741889
 21
358.015198703
  0
LINE
  5
351
100
AcDbEntity
  8
BEZUGSACHSEN
100
AcDbLine
 62
7
  6
CONTINUOUS
 10
235.1737114764
 20
356.6333343256
 11
235.6388006566
 21
357.1246028275
  0
LINE
  5
352
100
AcDbEntity
  8
BEZUGSACHSEN
100
AcDbLine
 62
7
  6
CONTINUOUS
 10
222.7109707847
 20
357.3206893367
 11
223.36270567
 21
357.9011531073
  0
LINE
  5
353
100
AcDbEntity
  8
BEZUGSACHSEN
100
AcDbLine
 62
7
  6
CONTINUOUS
 10
232.4051920151
 20
368.1340763845
 11
235.6505254329
 21
370.5719631757
  0
LINE
  5
354
100
AcDbEntity
  8
BEZUGSACHSEN
100
AcDbLine
 62
7
  6
CONTINUOUS
 10
233.9945742527
 20
367.7078034979
 11
236.4285743161
 21
369.5362185914
  0
LINE
  5
355
100
AcDbEntity
  8
BEZUGSACHSEN
100
AcDbLine
 62
7
  6
CONTINUOUS
 10
320.5154438648
 20
349.4466560008
 11
320.9463698673
 21
347.8868007379
  0
LINE
  5
356
100
AcDbEntity
  8
RUNDUNGEN
100
AcDbLine
 62
7
  6
CONTINUOUS
 10
319.9353155005
 20
286.7974644874
 11
319.9353155005
 21
226.9564985152
  0
LINE
  5
357
100
AcDbEntity
  8
BEZUGSACHSEN
100
AcDbLine
 62
7
  6
CONTINUOUS
 10
299.4364741685
 20
373.4877903506
 11
295.0609383558
 21
360.1884530276
  0
LINE
  5
358
100
AcDbEntity
  8
BEZUGSACHSEN
100
AcDbLine
 62
7
  6
CONTINUOUS
 10
297.9109459557
 20
374.6248323365
 11
292.8826854241
 21
359.3884945814
  0
LINE
  5
359
100
AcDbEntity
  8
BEZUGSACHSEN
100
AcDbLine
 62
7
  6
CONTINUOUS
 10
291.6590698091
 20
374.1552041091
 11
291.4998213546
 21
373.7538327132
  0
LINE
  5
35A
100
AcDbEntity
  8
BEZUGSACHSEN
100
AcDbLine
 62
7
  6
CONTINUOUS
 10
291.7369409858
 20
369.4750561242
 11
292.2550904397
 21
370.4220976782
  0
LINE
  5
35B
100
AcDbEntity
  8
BEZUGSACHSEN
100
AcDbLine
 62
7
  6
CONTINUOUS
 10
294.3322701779
 20
369.2856221535
 11
293.814120724
 21
368.3385805995
  0
LINE
  5
35C
100
AcDbEntity
  8
BEZUGSACHSEN
100
AcDbLine
 62
7
  6
CONTINUOUS
 10
291.4353155005
 20
373.6534384468
 11
291.4998213546
 21
373.7538327132
  0
LINE
  5
35D
100
AcDbEntity
  8
BEZUGSACHSEN
100
AcDbLine
 62
7
  6
CONTINUOUS
 10
238.5331933737
 20
361.6659592429
 11
240.9671934371
 21
363.4943743363
  0
LINE
  5
35E
100
AcDbEntity
  8
BEZUGSACHSEN
100
AcDbLine
 62
7
  6
CONTINUOUS
 10
238.4999089932
 20
360.0207428398
 11
241.745242411
 21
362.4586296311
  0
LINE
  5
35F
100
AcDbEntity
  8
BEZUGSACHSEN
100
AcDbLine
 62
7
  6
CONTINUOUS
 10
223.7006079141
 20
356.8574534659
 11
224.1632563129
 21
357.157454276
  0
LINE
  5
360
100
AcDbEntity
  8
BEZUGSACHSEN
100
AcDbLine
 62
7
  6
CONTINUOUS
 10
234.4355627602
 20
356.1676818669
 11
235.1737114764
 21
356.6333343256
  0
LINE
  5
361
100
AcDbEntity
  8
BEZUGSACHSEN
100
AcDbLine
 62
7
  6
CONTINUOUS
 10
233.6111087677
 20
357.1810950306
 11
234.2329850088
 21
357.5239302011
  0
LINE
  5
362
100
AcDbEntity
  8
BEZUGSACHSEN
100
AcDbLine
 62
7
  6
CONTINUOUS
 10
235.6505254329
 20
370.5719631757
 11
236.4563118914
 21
370.9072325473
  0
LINE
  5
363
100
AcDbEntity
  8
BEZUGSACHSEN
100
AcDbLine
 62
7
  6
CONTINUOUS
 10
236.4285743161
 20
369.5362185914
 11
237.0991375171
 21
369.7699085717
  0
LINE
  5
364
100
AcDbEntity
  8
0
100
AcDbLine
 62
7
  6
CONTINUOUS
 10
246.4353155005
 20
383.0166120814
 11
230.617208198
 21
377.8769974617
  0
LINE
  5
365
100
AcDbEntity
  8
BEZUGSACHSEN
100
AcDbLine
 62
7
  6
CONTINUOUS
 10
319.2163966336
 20
348.4292532658
 11
319.359515856
 21
347.4345548083
  0
LINE
  5
366
100
AcDbEntity
  8
KONSTRUKTIONSELEMENTE
100
AcDbLine
 62
7
  6
CONTINUOUS
 10
329.3265581867
 20
158.7878311253
 11
329.3265581867
 21
155.2522972193
  0
LINE
  5
367
100
AcDbEntity
  8
0
100
AcDbLine
 62
7
  6
CONTINUOUS
 10
330.9353155005
 20
304.9916261775
 11
330.9353155005
 21
345.2816685104
  0
LINE
  5
368
100
AcDbEntity
  8
0
100
AcDbLine
 62
7
  6
CONTINUOUS
 10
325.065250421
 20
268.5188832272
 11
325.4353155005
 21
279.1161605753
  0
LINE
  5
369
100
AcDbEntity
  8
BEZUGSACHSEN
100
AcDbLine
 62
7
  6
CONTINUOUS
 10
320.9463698673
 20
347.8868007379
 11
320.6562114079
 21
346.3155957618
  0
LINE
  5
36A
100
AcDbEntity
  8
BEZUGSACHSEN
100
AcDbLine
 62
7
  6
CONTINUOUS
 10
319.359515856
 20
347.4345548083
 11
319.0701415642
 21
346.575469887
  0
LINE
  5
36B
100
AcDbEntity
  8
BEZUGSACHSEN
100
AcDbLine
 62
7
  6
CONTINUOUS
 10
294.9167229199
 20
357.8724386906
 11
308.0811337985
 21
367.0445526115
  0
LINE
  5
36C
100
AcDbEntity
  8
BEZUGSACHSEN
100
AcDbLine
 62
7
  6
CONTINUOUS
 10
295.0609383558
 20
360.1884530276
 11
306.5556055857
 21
368.1815945973
  0
LINE
  5
36D
100
AcDbEntity
  8
KONSTRUKTIONSELEMENTE
100
AcDbLine
 62
7
  6
CONTINUOUS
 10
366.1823989133
 20
240.1041353045
 11
366.1823989133
 21
236.5686013985
  0
LINE
  5
36E
100
AcDbEntity
  8
RUNDUNGEN
100
AcDbLine
 62
7
  6
CONTINUOUS
 10
325.4353155005
 20
279.1161605753
 11
330.9353155005
 21
304.9916261775
  0
LINE
  5
36F
100
AcDbEntity
  8
BEZUGSACHSEN
100
AcDbLine
 62
7
  6
CONTINUOUS
 10
320.6562114079
 20
346.3155957618
 11
319.933561081
 21
344.880001088
  0
LINE
  5
370
100
AcDbEntity
  8
BEZUGSACHSEN
100
AcDbLine
 62
7
  6
CONTINUOUS
 10
319.0701415642
 20
346.575469887
 11
318.3482745814
 21
345.8519968849
  0
LINE
  5
371
100
AcDbEntity
  8
BEZUGSACHSEN
100
AcDbLine
 62
7
  6
CONTINUOUS
 10
319.933561081
 20
344.880001088
 11
319.2116932748
 21
344.1565297028
  0
LINE
  5
372
100
AcDbEntity
  8
BEZUGSACHSEN
100
AcDbLine
 62
7
  6
CONTINUOUS
 10
300.4118217296
 20
352.6173899345
 11
312.1029647468
 21
362.3643703138
  0
LINE
  5
373
100
AcDbEntity
  8
BEZUGSACHSEN
100
AcDbLine
 62
7
  6
CONTINUOUS
 10
301.630194277
 20
351.1559970574
 11
313.3213372942
 21
360.9029774366
  0
LINE
  5
374
100
AcDbEntity
  8
BEZUGSACHSEN
100
AcDbLine
 62
7
  6
CONTINUOUS
 10
303.4980316345
 20
349.321175182
 11
317.0617690912
 21
356.2285247292
  0
LINE
  5
375
100
AcDbEntity
  8
BEZUGSACHSEN
100
AcDbLine
 62
7
  6
CONTINUOUS
 10
304.3614503278
 20
347.6257079999
 11
310.4218437456
 21
350.7119706073
  0
LINE
  5
376
100
AcDbEntity
  8
BEZUGSACHSEN
100
AcDbLine
 62
7
  6
CONTINUOUS
 10
312.1533844911
 20
351.5937598061
 11
316.4822371634
 21
353.7982332147
  0
LINE
  5
377
100
AcDbEntity
  8
BEZUGSACHSEN
100
AcDbLine
 62
7
  6
CONTINUOUS
 10
318.3482745814
 20
345.8519968849
 11
317.4825034002
 21
345.4111018738
  0
LINE
  5
378
100
AcDbEntity
  8
BEZUGSACHSEN
100
AcDbLine
 62
7
  6
CONTINUOUS
 10
319.2116932748
 20
344.1565297028
 11
318.0573319694
 21
343.5686698253
  0
LINE
  5
379
100
AcDbEntity
  8
KONSTRUKTIONSELEMENTE
100
AcDbLine
 62
7
  6
CONTINUOUS
 10
307.9039339564
 20
168.9177819234
 11
336.1171855428
 21
230.3168960657
  0
LINE
  5
37A
100
AcDbEntity
  8
RUNDUNGEN
100
AcDbLine
 62
7
  6
CONTINUOUS
 10
325.065250421
 20
268.5188832272
 11
320.6051884816
 21
260.7938293433
  0
LINE
  5
37B
100
AcDbEntity
  8
KONSTRUKTIONSELEMENTE
100
AcDbLine
 62
7
  6
CONTINUOUS
 10
327.401916239
 20
150.9405992665
 11
329.2727203547
 21
155.0119384059
  0
LINE
  5
37C
100
AcDbEntity
  8
KONSTRUKTIONSELEMENTE
100
AcDbLine
 62
7
  6
CONTINUOUS
 10
364.964183205
 20
232.6855165377
 11
365.6440205926
 21
234.1650132641
  0
LINE
  5
37D
100
AcDbEntity
  8
BEZUGSACHSEN
100
AcDbLine
 62
7
  6
CONTINUOUS
 10
309.6866045889
 20
212.9227092955
 11
318.7655377161
 21
223.7425604668
  0
ARC
  5
37E
100
AcDbEntity
  8
BEZUGSACHSEN
100
AcDbCircle
 62
7
  6
CONTINUOUS
 10
-251.4512160008
 20
-48.2300163834
 40
1261.9755167354
100
AcDbArc
 50
19.3641196945
 51
19.490143244
  0
ARC
  5
37F
100
AcDbEntity
  8
BEZUGSACHSEN
100
AcDbCircle
 62
7
  6
CONTINUOUS
 10
-40.9271040538
 20
28.4865299237
 40
1038.0189225158
100
AcDbArc
 50
19.2220890897
 51
19.3907378297
  0
ARC
  5
380
100
AcDbEntity
  8
BEZUGSACHSEN
100
AcDbCircle
 62
7
  6
CONTINUOUS
 10
401.4552483459
 20
225.885345108
 40
555.0874180419
100
AcDbArc
 50
14.3958158904
 51
14.5127286338
  0
ARC
  5
381
100
AcDbEntity
  8
BEZUGSACHSEN
100
AcDbCircle
 62
7
  6
CONTINUOUS
 10
418.1856478766
 20
223.7137465146
 40
538.1857394994
100
AcDbArc
 50
14.5231551649
 51
14.6425103139
  0
ARC
  5
382
100
AcDbEntity
  8
BEZUGSACHSEN
100
AcDbCircle
 62
7
  6
CONTINUOUS
 10
697.4548904156
 20
117.2591117644
 40
337.5699212061
100
AcDbArc
 50
44.2067801668
 51
44.5422381428
  0
ARC
  5
383
100
AcDbEntity
  8
BEZUGSACHSEN
100
AcDbCircle
 62
7
  6
CONTINUOUS
 10
738.2663307886
 20
155.7455065784
 40
282.1470786453
100
AcDbArc
 50
44.5302810889
 51
44.9631328825
  0
ARC
  5
384
100
AcDbEntity
  8
KONSTRUKTIONSELEMENTE
100
AcDbCircle
 62
7
  6
CONTINUOUS
 10
756.5490512073
 20
272.1027713013
 40
11.55
100
AcDbArc
 50
61.1105804865
 51
135.0
  0
ARC
  5
385
100
AcDbEntity
  8
KONSTRUKTIONSELEMENTE
100
AcDbCircle
 62
7
  6
CONTINUOUS
 10
756.5490512073
 20
272.1027713013
 40
11.55
100
AcDbArc
 50
315.0
 51
28.8894195135
  0
ARC
  5
386
100
AcDbEntity
  8
KONSTRUKTIONSELEMENTE
100
AcDbCircle
 62
7
  6
CONTINUOUS
 10
748.1344805112
 20
263.6882006052
 40
11.55
100
AcDbArc
 50
237.5041463713
 51
315.0
  0
ARC
  5
387
100
AcDbEntity
  8
KONSTRUKTIONSELEMENTE
100
AcDbCircle
 62
7
  6
CONTINUOUS
 10
748.1344805112
 20
263.6882006052
 40
11.55
100
AcDbArc
 50
135.0
 51
212.4958536287
  0
ARC
  5
388
100
AcDbEntity
  8
KONSTRUKTIONSELEMENTE
100
AcDbCircle
 62
7
  6
CONTINUOUS
 10
756.5490512073
 20
272.1027713013
 40
4.55
100
AcDbArc
 50
89.7094363532
 51
135.0
  0
ARC
  5
389
100
AcDbEntity
  8
KONSTRUKTIONSELEMENTE
100
AcDbCircle
 62
7
  6
CONTINUOUS
 10
756.5490512073
 20
272.1027713013
 40
4.55
100
AcDbArc
 50
315.0
 51
0.2905636468
  0
ARC
  5
38A
100
AcDbEntity
  8
KONSTRUKTIONSELEMENTE
100
AcDbCircle
 62
7
  6
CONTINUOUS
 10
748.1344805112
 20
263.6882006052
 40
4.55
100
AcDbArc
 50
258.4100243465
 51
315.0
  0
ARC
  5
38B
100
AcDbEntity
  8
KONSTRUKTIONSELEMENTE
100
AcDbCircle
 62
7
  6
CONTINUOUS
 10
748.1344805112
 20
263.6882006052
 40
4.55
100
AcDbArc
 50
135.0
 51
191.5899756535
  0
ARC
  5
38C
100
AcDbEntity
  8
KONSTRUKTIONSELEMENTE
100
AcDbCircle
 62
7
  6
CONTINUOUS
 10
757.3622240057
 20
272.9159440996
 40
3.2
100
AcDbArc
 50
135.0
 51
315.0
  0
ARC
  5
38D
100
AcDbEntity
  8
RUNDUNGEN
100
AcDbCircle
 62
7
  6
CONTINUOUS
 10
925.5829272499
 20
242.1366473439
 40
31.0
100
AcDbArc
 50
324.2780864737
 51
327.6215874859
  0
ARC
  5
38E
100
AcDbEntity
  8
BEZUGSACHSEN
100
AcDbCircle
 62
7
  6
CONTINUOUS
 10
925.5829272499
 20
242.1366473439
 40
31.0
100
AcDbArc
 50
212.3784125141
 51
327.6215874859
  0
CIRCLE
  5
38F
100
AcDbEntity
  8
0
100
AcDbCircle
 62
7
  6
CONTINUOUS
 10
925.5829272499
 20
242.1366473439
 40
13.25
  0
ARC
  5
390
100
AcDbEntity
  8
0
100
AcDbCircle
 62
7
  6
CONTINUOUS
 10
951.5829272499
 20
234.5882602471
 40
5.0
100
AcDbArc
 50
350.1839129356
 51
360.0
  0
ARC
  5
391
100
AcDbEntity
  8
0
100
AcDbCircle
 62
7
  6
CONTINUOUS
 10
951.5829272499
 20
234.5882602471
 40
5.0
100
AcDbArc
 50
337.4621234002
 51
348.6428120378
  0
ARC
  5
392
100
AcDbEntity
  8
0
100
AcDbCircle
 62
7
  6
CONTINUOUS
 10
951.5829272499
 20
234.5882602471
 40
5.0
100
AcDbArc
 50
327.6215874859
 51
333.8050739216
  0
ARC
  5
393
100
AcDbEntity
  8
RUNDUNGEN
100
AcDbCircle
 62
7
  6
CONTINUOUS
 10
951.5829272499
 20
234.5882602471
 40
5.0
100
AcDbArc
 50
327.6215874859
 51
360.0
  0
ARC
  5
394
100
AcDbEntity
  8
BEZUGSACHSEN
100
AcDbCircle
 62
7
  6
CONTINUOUS
 10
899.5829272499
 20
234.5882602471
 40
5.0
100
AcDbArc
 50
180.0
 51
212.3784125141
  0
ARC
  5
395
100
AcDbEntity
  8
0
100
AcDbCircle
 62
7
  6
CONTINUOUS
 10
903.973138995
 20
257.8001570233
 40
104.069153171
100
AcDbArc
 50
70.6211248288
 51
70.7918576447
  0
ARC
  5
396
100
AcDbEntity
  8
BEZUGSACHSEN
100
AcDbCircle
 62
7
  6
CONTINUOUS
 10
908.6592682882
 20
275.1952962339
 40
86.3599608895
100
AcDbArc
 50
69.2870013811
 51
69.4800636017
  0
ARC
  5
397
100
AcDbEntity
  8
RUNDUNGEN
100
AcDbCircle
 62
7
  6
CONTINUOUS
 10
946.5829272499
 20
257.4571554196
 40
10.0
100
AcDbArc
 50
0.0
 51
30.0
  0
ARC
  5
398
100
AcDbEntity
  8
0
100
AcDbCircle
 62
7
  6
CONTINUOUS
 10
946.5829272499
 20
257.4571554196
 40
10.0
100
AcDbArc
 50
15.2481577479
 51
19.4603255754
  0
ARC
  5
399
100
AcDbEntity
  8
0
100
AcDbCircle
 62
7
  6
CONTINUOUS
 10
946.5829272499
 20
257.4571554196
 40
10.0
100
AcDbArc
 50
9.5952458584
 51
14.9297393119
  0
ARC
  5
39A
100
AcDbEntity
  8
0
100
AcDbCircle
 62
7
  6
CONTINUOUS
 10
946.5829272499
 20
257.4571554196
 40
10.0
100
AcDbArc
 50
0.0
 51
5.2454243806
  0
ARC
  5
39B
100
AcDbEntity
  8
BEZUGSACHSEN
100
AcDbCircle
 62
7
  6
CONTINUOUS
 10
904.5829272499
 20
257.4571554196
 40
10.0
100
AcDbArc
 50
150.0
 51
180.0
  0
ARC
  5
39C
100
AcDbEntity
  8
BEZUGSACHSEN
100
AcDbCircle
 62
7
  6
CONTINUOUS
 10
587.2173533742
 20
283.3412908124
 40
362.2331343665
100
AcDbArc
 50
15.3767838945
 51
15.4929600742
  0
ARC
  5
39D
100
AcDbEntity
  8
0
100
AcDbCircle
 62
7
  6
CONTINUOUS
 10
615.5552328377
 20
286.9455599192
 40
333.332144252
100
AcDbArc
 50
16.1007522845
 51
16.2284143709
  0
ARC
  5
39E
100
AcDbEntity
  8
BEZUGSACHSEN
100
AcDbCircle
 62
7
  6
CONTINUOUS
 10
627.524016541
 20
292.5976875963
 40
318.3263352295
100
AcDbArc
 50
11.9767135113
 51
12.09915689
  0
ARC
  5
39F
100
AcDbEntity
  8
BEZUGSACHSEN
100
AcDbCircle
 62
7
  6
CONTINUOUS
 10
638.4273856672
 20
298.6688676999
 40
307.4704357704
100
AcDbArc
 50
12.2816719309
 51
12.405659917
  0
ARC
  5
3A0
100
AcDbEntity
  8
0
100
AcDbCircle
 62
7
  6
CONTINUOUS
 10
661.9203229097
 20
298.4926278741
 40
282.7840597159
100
AcDbArc
 50
12.2835505192
 51
12.4215471117
  0
ARC
  5
3A1
100
AcDbEntity
  8
BEZUGSACHSEN
100
AcDbCircle
 62
7
  6
CONTINUOUS
 10
676.9052026653
 20
277.5087426528
 40
278.4104717258
100
AcDbArc
 50
19.6911364888
 51
19.8599229818
  0
ARC
  5
3A2
100
AcDbEntity
  8
0
100
AcDbCircle
 62
7
  6
CONTINUOUS
 10
670.2755905889
 20
303.8796282715
 40
274.6300263828
100
AcDbArc
 50
12.6609338408
 51
12.7999569238
  0
ARC
  5
3A3
100
AcDbEntity
  8
BEZUGSACHSEN
100
AcDbCircle
 62
7
  6
CONTINUOUS
 10
669.4688263628
 20
306.1916082474
 40
272.8576224851
100
AcDbArc
 50
10.331171682
 51
10.5024678676
  0
ARC
  5
3A4
100
AcDbEntity
  8
BEZUGSACHSEN
100
AcDbCircle
 62
7
  6
CONTINUOUS
 10
702.9219138111
 20
302.6252417626
 40
246.0632363479
100
AcDbArc
 50
18.3038223417
 51
18.4932155372
  0
ARC
  5
3A5
100
AcDbEntity
  8
BEZUGSACHSEN
100
AcDbCircle
 62
7
  6
CONTINUOUS
 10
705.4955379253
 20
315.0137461413
 40
237.7228189936
100
AcDbArc
 50
10.3901626611
 51
10.5833449017
  0
ARC
  5
3A6
100
AcDbEntity
  8
BEZUGSACHSEN
100
AcDbCircle
 62
7
  6
CONTINUOUS
 10
724.2450544787
 20
321.652672124
 40
218.9807453172
100
AcDbArc
 50
10.920841235
 51
11.1211806181
  0
ARC
  5
3A7
100
AcDbEntity
  8
BEZUGSACHSEN
100
AcDbCircle
 62
7
  6
CONTINUOUS
 10
729.8781891957
 20
326.6024236285
 40
209.7058319234
100
AcDbArc
 50
7.7956651812
 51
7.9449895985
  0
ARC
  5
3A8
100
AcDbEntity
  8
0
100
AcDbCircle
 62
7
  6
CONTINUOUS
 10
748.0399655582
 20
329.2762515633
 40
190.5282068977
100
AcDbArc
 50
7.7736409883
 51
7.9379899223
  0
ARC
  5
3A9
100
AcDbEntity
  8
KONSTRUKTIONSELEMENTE
100
AcDbCircle
 62
7
  6
CONTINUOUS
 10
775.0398935353
 20
290.5936136293
 40
10.2
100
AcDbArc
 50
135.0
 51
206.7018290247
  0
ARC
  5
3AA
100
AcDbEntity
  8
KONSTRUKTIONSELEMENTE
100
AcDbCircle
 62
7
  6
CONTINUOUS
 10
775.0398935353
 20
290.5936136293
 40
10.2
100
AcDbArc
 50
243.2981709753
 51
315.0
  0
ARC
  5
3AB
100
AcDbEntity
  8
KONSTRUKTIONSELEMENTE
100
AcDbCircle
 62
7
  6
CONTINUOUS
 10
775.0398935353
 20
290.5936136293
 40
3.8
100
AcDbArc
 50
135.0
 51
167.6253590191
  0
ARC
  5
3AC
100
AcDbEntity
  8
KONSTRUKTIONSELEMENTE
100
AcDbCircle
 62
7
  6
CONTINUOUS
 10
775.0398935353
 20
290.5936136293
 40
3.8
100
AcDbArc
 50
282.3746409809
 51
315.0
  0
ARC
  5
3AD
100
AcDbEntity
  8
KONSTRUKTIONSELEMENTE
100
AcDbCircle
 62
7
  6
CONTINUOUS
 10
774.6156294666
 20
290.1693495606
 40
3.2
100
AcDbArc
 50
315.0
 51
135.0
  0
ARC
  5
3AE
100
AcDbEntity
  8
BEZUGSACHSEN
100
AcDbCircle
 62
7
  6
CONTINUOUS
 10
839.9241012872
 20
335.0270362412
 40
105.638133242
100
AcDbArc
 50
20.6504849757
 51
20.8619917016
  0
ARC
  5
3AF
100
AcDbEntity
  8
KONSTRUKTIONSELEMENTE
100
AcDbCircle
 62
7
  6
CONTINUOUS
 10
809.5820597963
 20
325.1357798903
 40
11.55
100
AcDbArc
 50
65.2810606849
 51
135.0
  0
ARC
  5
3B0
100
AcDbEntity
  8
KONSTRUKTIONSELEMENTE
100
AcDbCircle
 62
7
  6
CONTINUOUS
 10
809.5820597963
 20
325.1357798903
 40
11.55
100
AcDbArc
 50
315.0
 51
24.7189393151
  0
ARC
  5
3B1
100
AcDbEntity
  8
KONSTRUKTIONSELEMENTE
100
AcDbCircle
 62
7
  6
CONTINUOUS
 10
801.1674891002
 20
316.7212091941
 40
11.55
100
AcDbArc
 50
241.1105804865
 51
315.0
  0
ARC
  5
3B2
100
AcDbEntity
  8
KONSTRUKTIONSELEMENTE
100
AcDbCircle
 62
7
  6
CONTINUOUS
 10
801.1674891002
 20
316.7212091941
 40
11.55
100
AcDbArc
 50
135.0
 51
208.8894195135
  0
ARC
  5
3B3
100
AcDbEntity
  8
KONSTRUKTIONSELEMENTE
100
AcDbCircle
 62
7
  6
CONTINUOUS
 10
782.3938040597
 20
297.9475241536
 40
10.2
100
AcDbArc
 50
315.0
 51
26.7018290247
  0
ARC
  5
3B4
100
AcDbEntity
  8
KONSTRUKTIONSELEMENTE
100
AcDbCircle
 62
7
  6
CONTINUOUS
 10
782.3938040597
 20
297.9475241536
 40
10.2
100
AcDbArc
 50
63.2981709753
 51
135.0
  0
ARC
  5
3B5
100
AcDbEntity
  8
KONSTRUKTIONSELEMENTE
100
AcDbCircle
 62
7
  6
CONTINUOUS
 10
809.5820597963
 20
325.1357798903
 40
4.55
100
AcDbArc
 50
106.6976500586
 51
135.0
  0
ARC
  5
3B6
100
AcDbEntity
  8
KONSTRUKTIONSELEMENTE
100
AcDbCircle
 62
7
  6
CONTINUOUS
 10
809.5820597963
 20
325.1357798903
 40
4.55
100
AcDbArc
 50
315.0
 51
343.3023499414
  0
ARC
  5
3B7
100
AcDbEntity
  8
KONSTRUKTIONSELEMENTE
100
AcDbCircle
 62
7
  6
CONTINUOUS
 10
801.1674891002
 20
316.7212091941
 40
4.55
100
AcDbArc
 50
269.7094363532
 51
315.0
  0
ARC
  5
3B8
100
AcDbEntity
  8
KONSTRUKTIONSELEMENTE
100
AcDbCircle
 62
7
  6
CONTINUOUS
 10
801.1674891002
 20
316.7212091941
 40
4.55
100
AcDbArc
 50
135.0
 51
180.2905636468
  0
ARC
  5
3B9
100
AcDbEntity
  8
KONSTRUKTIONSELEMENTE
100
AcDbCircle
 62
7
  6
CONTINUOUS
 10
809.6174151354
 20
325.1711352293
 40
4.0
100
AcDbArc
 50
135.0
 51
315.0
  0
ARC
  5
3BA
100
AcDbEntity
  8
KONSTRUKTIONSELEMENTE
100
AcDbCircle
 62
7
  6
CONTINUOUS
 10
782.3938040597
 20
297.9475241536
 40
3.8
100
AcDbArc
 50
315.0
 51
347.6253590191
  0
ARC
  5
3BB
100
AcDbEntity
  8
KONSTRUKTIONSELEMENTE
100
AcDbCircle
 62
7
  6
CONTINUOUS
 10
782.3938040597
 20
297.9475241536
 40
3.8
100
AcDbArc
 50
102.3746409809
 51
135.0
  0
ARC
  5
3BC
100
AcDbEntity
  8
KONSTRUKTIONSELEMENTE
100
AcDbCircle
 62
7
  6
CONTINUOUS
 10
800.0714735893
 20
315.6251936833
 40
3.2
100
AcDbArc
 50
315.0
 51
135.0
  0
ARC
  5
3BD
100
AcDbEntity
  8
KONSTRUKTIONSELEMENTE
100
AcDbCircle
 62
7
  6
CONTINUOUS
 10
782.8180681284
 20
298.3717882224
 40
3.2
100
AcDbArc
 50
135.0
 51
315.0
  0
ARC
  5
3BE
100
AcDbEntity
  8
BEZUGSACHSEN
100
AcDbCircle
 62
7
  6
CONTINUOUS
 10
781.178045281
 20
337.9646942709
 40
160.7484209992
100
AcDbArc
 50
13.1515027398
 51
13.3750710231
  0
ARC
  5
3BF
100
AcDbEntity
  8
BEZUGSACHSEN
100
AcDbCircle
 62
7
  6
CONTINUOUS
 10
792.7802553506
 20
341.1642365484
 40
147.183727072
100
AcDbArc
 50
6.5741696469
 51
6.8249052538
  0
ARC
  5
3C0
100
AcDbEntity
  8
0
100
AcDbCircle
 62
7
  6
CONTINUOUS
 10
805.3439138679
 20
342.9964175298
 40
133.8059728557
100
AcDbArc
 50
6.4446297664
 51
6.7203680655
  0
ARC
  5
3C1
100
AcDbEntity
  8
BEZUGSACHSEN
100
AcDbCircle
 62
7
  6
CONTINUOUS
 10
810.8065731164
 20
344.3698485476
 40
129.2226405665
100
AcDbArc
 50
5.6645293351
 51
6.0043816316
  0
ARC
  5
3C2
100
AcDbEntity
  8
BEZUGSACHSEN
100
AcDbCircle
 62
7
  6
CONTINUOUS
 10
809.4531154572
 20
355.4678216406
 40
126.868957904
100
AcDbArc
 50
359.3168337506
 51
0.8368104777
  0
ARC
  5
3C3
100
AcDbEntity
  8
BEZUGSACHSEN
100
AcDbCircle
 62
7
  6
CONTINUOUS
 10
812.1733139342
 20
354.8641940795
 40
124.4839618843
100
AcDbArc
 50
359.6910965682
 51
0.9174694421
  0
ARC
  5
3C4
100
AcDbEntity
  8
BEZUGSACHSEN
100
AcDbCircle
 62
7
  6
CONTINUOUS
 10
818.0932673833
 20
347.9976591843
 40
121.8329190075
100
AcDbArc
 50
7.3076159212
 51
7.5821948743
  0
ARC
  5
3C5
100
AcDbEntity
  8
0
100
AcDbCircle
 62
7
  6
CONTINUOUS
 10
816.9440417105
 20
356.6200818728
 40
118.4628804442
100
AcDbArc
 50
358.7109627444
 51
0.338857916
  0
ARC
  5
3C6
100
AcDbEntity
  8
BEZUGSACHSEN
100
AcDbCircle
 62
7
  6
CONTINUOUS
 10
820.3431219569
 20
353.0537708469
 40
117.3197542745
100
AcDbArc
 50
359.6722434505
 51
0.9735110248
  0
ARC
  5
3C7
100
AcDbEntity
  8
BEZUGSACHSEN
100
AcDbCircle
 62
7
  6
CONTINUOUS
 10
823.6418120178
 20
352.3297003231
 40
114.4233053888
100
AcDbArc
 50
359.6639016114
 51
0.8576552745
  0
ARC
  5
3C8
100
AcDbEntity
  8
BEZUGSACHSEN
100
AcDbCircle
 62
7
  6
CONTINUOUS
 10
826.543313259
 20
352.9430404038
 40
113.0551993242
100
AcDbArc
 50
13.8994393972
 51
14.1676166367
  0
ARC
  5
3C9
100
AcDbEntity
  8
0
100
AcDbCircle
 62
7
  6
CONTINUOUS
 10
828.4619419267
 20
349.4864735439
 40
110.7308151483
100
AcDbArc
 50
7.2676232688
 51
7.5697140999
  0
ARC
  5
3CA
100
AcDbEntity
  8
0
100
AcDbCircle
 62
7
  6
CONTINUOUS
 10
827.5810750853
 20
354.2056037402
 40
109.2394166738
100
AcDbArc
 50
0.091938979
 51
0.4413415382
  0
ARC
  5
3CB
100
AcDbEntity
  8
BEZUGSACHSEN
100
AcDbCircle
 62
7
  6
CONTINUOUS
 10
835.9607124155
 20
342.7012416651
 40
107.1174943624
100
AcDbArc
 50
15.528950257
 51
15.8141470288
  0
ARC
  5
3CC
100
AcDbEntity
  8
BEZUGSACHSEN
100
AcDbCircle
 62
7
  6
CONTINUOUS
 10
833.8660302137
 20
349.7677501402
 40
105.6072532802
100
AcDbArc
 50
1.5529114424
 51
2.0857466333
  0
ARC
  5
3CD
100
AcDbEntity
  8
BEZUGSACHSEN
100
AcDbCircle
 62
7
  6
CONTINUOUS
 10
837.2492206896
 20
344.5951014833
 40
105.3337959158
100
AcDbArc
 50
19.3164008336
 51
19.4742505409
  0
ARC
  5
3CE
100
AcDbEntity
  8
0
100
AcDbCircle
 62
7
  6
CONTINUOUS
 10
834.4859648034
 20
353.9318046036
 40
104.4512001066
100
AcDbArc
 50
14.5094618515
 51
14.8005360535
  0
ARC
  5
3CF
100
AcDbEntity
  8
BEZUGSACHSEN
100
AcDbCircle
 62
7
  6
CONTINUOUS
 10
835.0241986179
 20
349.7962171246
 40
104.4487652392
100
AcDbArc
 50
359.1696393476
 51
359.6312128165
  0
ARC
  5
3D0
100
AcDbEntity
  8
BEZUGSACHSEN
100
AcDbCircle
 62
7
  6
CONTINUOUS
 10
836.0422204938
 20
350.8772141062
 40
103.9435951158
100
AcDbArc
 50
6.3971899976
 51
6.7747974133
  0
ARC
  5
3D1
100
AcDbEntity
  8
BEZUGSACHSEN
100
AcDbCircle
 62
7
  6
CONTINUOUS
 10
837.9060201623
 20
362.9581257343
 40
98.349370028
100
AcDbArc
 50
1.3814063611
 51
1.8108741342
  0
ARC
  5
3D2
100
AcDbEntity
  8
BEZUGSACHSEN
100
AcDbCircle
 62
7
  6
CONTINUOUS
 10
838.5539628145
 20
362.9724866359
 40
97.7012872343
100
AcDbArc
 50
359.221249911
 51
359.6534197925
  0
ARC
  5
3D3
100
AcDbEntity
  8
BEZUGSACHSEN
100
AcDbCircle
 62
7
  6
CONTINUOUS
 10
846.7604981485
 20
356.9002244254
 40
92.5106303883
100
AcDbArc
 50
11.3886899991
 51
11.6128299208
  0
ARC
  5
3D4
100
AcDbEntity
  8
0
100
AcDbCircle
 62
7
  6
CONTINUOUS
 10
844.3441668758
 20
363.8507987169
 40
91.0627950032
100
AcDbArc
 50
0.9301780121
 51
1.3939261109
  0
ARC
  5
3D5
100
AcDbEntity
  8
0
100
AcDbCircle
 62
7
  6
CONTINUOUS
 10
844.3441669282
 20
363.8598075374
 40
91.0627949508
100
AcDbArc
 50
358.606073889
 51
359.0698222092
  0
ARC
  5
3D6
100
AcDbEntity
  8
BEZUGSACHSEN
100
AcDbCircle
 62
7
  6
CONTINUOUS
 10
856.1526514771
 20
342.6808484239
 40
87.9934532447
100
AcDbArc
 50
24.2823493972
 51
24.584140857
  0
ARC
  5
3D7
100
AcDbEntity
  8
BEZUGSACHSEN
100
AcDbCircle
 62
7
  6
CONTINUOUS
 10
850.6062525845
 20
365.6998796621
 40
86.1109361291
100
AcDbArc
 50
354.4158878525
 51
354.8038281703
  0
ARC
  5
3D8
100
AcDbEntity
  8
BEZUGSACHSEN
100
AcDbCircle
 62
7
  6
CONTINUOUS
 10
856.3385570435
 20
356.8854900846
 40
82.6653356962
100
AcDbArc
 50
0.4425106062
 51
0.7830313674
  0
ARC
  5
3D9
100
AcDbEntity
  8
0
100
AcDbCircle
 62
7
  6
CONTINUOUS
 10
854.405061002
 20
366.6029202039
 40
81.5299067234
100
AcDbArc
 50
353.4626646708
 51
353.8730949162
  0
ARC
  5
3DA
100
AcDbEntity
  8
BEZUGSACHSEN
100
AcDbCircle
 62
7
  6
CONTINUOUS
 10
858.9383096979
 20
355.9948578013
 40
80.4678235706
100
AcDbArc
 50
0.4546213927
 51
0.8044426425
  0
ARC
  5
3DB
100
AcDbEntity
  8
BEZUGSACHSEN
100
AcDbCircle
 62
7
  6
CONTINUOUS
 10
869.1495799893
 20
369.5613738618
 40
67.0473800014
100
AcDbArc
 50
358.7802014121
 51
0.8636384478
  0
ARC
  5
3DC
100
AcDbEntity
  8
BEZUGSACHSEN
100
AcDbCircle
 62
7
  6
CONTINUOUS
 10
871.0850496609
 20
368.5255968421
 40
65.5141542667
100
AcDbArc
 50
359.2847755637
 51
0.8838801067
  0
ARC
  5
3DD
100
AcDbEntity
  8
BEZUGSACHSEN
100
AcDbCircle
 62
7
  6
CONTINUOUS
 10
873.4147279657
 20
369.5544189684
 40
64.4888706769
100
AcDbArc
 50
348.6450716319
 51
348.9168032509
  0
ARC
  5
3DE
100
AcDbEntity
  8
0
100
AcDbCircle
 62
7
  6
CONTINUOUS
 10
873.2184183377
 20
370.1663332162
 40
62.188503041
100
AcDbArc
 50
358.127298966
 51
0.3737193916
  0
ARC
  5
3DF
100
AcDbEntity
  8
KONSTRUKTIONSELEMENTE
100
AcDbCircle
 62
7
  6
CONTINUOUS
 10
864.7717440679
 20
380.3254641619
 40
4.0
100
AcDbArc
 50
315.0
 51
135.0
  0
ARC
  5
3E0
100
AcDbEntity
  8
BEZUGSACHSEN
100
AcDbCircle
 62
7
  6
CONTINUOUS
 10
884.5829272499
 20
282.8161392682
 40
20.0
100
AcDbArc
 50
330.0
 51
360.0
  0
ARC
  5
3E1
100
AcDbEntity
  8
BEZUGSACHSEN
100
AcDbCircle
 62
7
  6
CONTINUOUS
 10
909.5829272499
 20
291.5401706698
 40
5.0
100
AcDbArc
 50
109.4804088396
 51
180.0
  0
ARC
  5
3E2
100
AcDbEntity
  8
BEZUGSACHSEN
100
AcDbCircle
 62
7
  6
CONTINUOUS
 10
905.5829272499
 20
300.7053220597
 40
5.0
100
AcDbArc
 50
293.5781784782
 51
360.0
  0
ARC
  5
3E3
100
AcDbEntity
  8
BEZUGSACHSEN
100
AcDbCircle
 62
7
  6
CONTINUOUS
 10
886.5292519512
 20
326.0767524819
 40
67.0773050194
100
AcDbArc
 50
41.683418563
 51
42.0092742787
  0
ARC
  5
3E4
100
AcDbEntity
  8
BEZUGSACHSEN
100
AcDbCircle
 62
7
  6
CONTINUOUS
 10
925.1659618084
 20
333.6666829411
 40
37.8859585591
100
AcDbArc
 50
72.2023810609
 51
72.3534624636
  0
ARC
  5
3E5
100
AcDbEntity
  8
RUNDUNGEN
100
AcDbCircle
 62
7
  6
CONTINUOUS
 10
966.5829272499
 20
282.8161392682
 40
20.0
100
AcDbArc
 50
180.0
 51
210.0
  0
ARC
  5
3E6
100
AcDbEntity
  8
RUNDUNGEN
100
AcDbCircle
 62
7
  6
CONTINUOUS
 10
941.5829272499
 20
291.5401706698
 40
5.0
100
AcDbArc
 50
0.0
 51
70.5121248894
  0
ARC
  5
3E7
100
AcDbEntity
  8
RUNDUNGEN
100
AcDbCircle
 62
7
  6
CONTINUOUS
 10
945.5829272499
 20
300.7053220597
 40
5.0
100
AcDbArc
 50
180.0
 51
246.4218215218
  0
ARC
  5
3E8
100
AcDbEntity
  8
BEZUGSACHSEN
100
AcDbCircle
 62
7
  6
CONTINUOUS
 10
882.2051208427
 20
362.483750693
 40
56.7404840188
100
AcDbArc
 50
359.1741765724
 51
1.0205681625
  0
ARC
  5
3E9
100
AcDbEntity
  8
BEZUGSACHSEN
100
AcDbCircle
 62
7
  6
CONTINUOUS
 10
884.0760287275
 20
361.4480529305
 40
55.2718094604
100
AcDbArc
 50
358.5202594806
 51
1.0476408665
  0
ARC
  5
3EA
100
AcDbEntity
  8
BEZUGSACHSEN
100
AcDbCircle
 62
7
  6
CONTINUOUS
 10
884.8244702055
 20
362.0660689054
 40
54.7158168161
100
AcDbArc
 50
19.8826356763
 51
20.1695498331
  0
ARC
  5
3EB
100
AcDbEntity
  8
BEZUGSACHSEN
100
AcDbCircle
 62
7
  6
CONTINUOUS
 10
890.242988458
 20
351.1110483563
 40
52.811183864
100
AcDbArc
 50
22.0950112509
 51
22.4976859505
  0
ARC
  5
3EC
100
AcDbEntity
  8
BEZUGSACHSEN
100
AcDbCircle
 62
7
  6
CONTINUOUS
 10
892.3862663085
 20
362.909990935
 40
47.4344400812
100
AcDbArc
 50
351.8283293423
 51
352.3961628706
  0
ARC
  5
3ED
100
AcDbEntity
  8
BEZUGSACHSEN
100
AcDbCircle
 62
7
  6
CONTINUOUS
 10
897.42632473
 20
365.1934304178
 40
42.2765951686
100
AcDbArc
 50
349.0751231013
 51
349.4298168248
  0
ARC
  5
3EE
100
AcDbEntity
  8
0
100
AcDbCircle
 62
7
  6
CONTINUOUS
 10
907.325510685
 20
386.9554463918
 40
40.4502507448
100
AcDbArc
 50
314.0879808215
 51
314.4913327206
  0
ARC
  5
3EF
100
AcDbEntity
  8
BEZUGSACHSEN
100
AcDbCircle
 62
7
  6
CONTINUOUS
 10
899.5372958841
 20
371.5416314954
 40
37.8402123303
100
AcDbArc
 50
11.9092932456
 51
12.372654618
  0
ARC
  5
3F0
100
AcDbEntity
  8
BEZUGSACHSEN
100
AcDbCircle
 62
7
  6
CONTINUOUS
 10
909.5842018516
 20
383.4234280217
 40
36.9933404837
100
AcDbArc
 50
316.3765884007
 51
316.8005406862
  0
ARC
  5
3F1
100
AcDbEntity
  8
BEZUGSACHSEN
100
AcDbCircle
 62
7
  6
CONTINUOUS
 10
906.7225710445
 20
375.7888492891
 40
29.9250158241
100
AcDbArc
 50
349.9602164041
 51
350.6114795861
  0
ARC
  5
3F2
100
AcDbEntity
  8
0
100
AcDbCircle
 62
7
  6
CONTINUOUS
 10
907.685474301
 20
376.1408261448
 40
28.2739724765
100
AcDbArc
 50
348.6407117349
 51
349.3328696993
  0
ARC
  5
3F3
100
AcDbEntity
  8
BEZUGSACHSEN
100
AcDbCircle
 62
7
  6
CONTINUOUS
 10
908.5086301499
 20
375.3111167413
 40
28.1551428643
100
AcDbArc
 50
10.856979113
 51
11.5216744959
  0
ARC
  5
3F4
100
AcDbEntity
  8
0
100
AcDbCircle
 62
7
  6
CONTINUOUS
 10
909.9716668393
 20
375.5552578347
 40
25.9969240271
100
AcDbArc
 50
11.2215961541
 51
11.9424683728
  0
ARC
  5
3F5
100
AcDbEntity
  8
BEZUGSACHSEN
100
AcDbCircle
 62
7
  6
CONTINUOUS
 10
915.3722336355
 20
365.5988105558
 40
24.4877211981
100
AcDbArc
 50
12.8836313326
 51
13.6539140485
  0
ARC
  5
3F6
100
AcDbEntity
  8
BEZUGSACHSEN
100
AcDbCircle
 62
7
  6
CONTINUOUS
 10
920.2533816125
 20
369.3181238404
 40
23.1775381696
100
AcDbArc
 50
324.8466863208
 51
325.4323624383
  0
ARC
  5
3F7
100
AcDbEntity
  8
RUNDUNGEN
100
AcDbCircle
 62
7
  6
CONTINUOUS
 10
925.0962830387
 20
358.9764975724
 40
15.4866456448
100
AcDbArc
 50
0.0278733342
 51
15.9408327858
  0
ARC
  5
3F8
100
AcDbEntity
  8
RUNDUNGEN
100
AcDbCircle
 62
7
  6
CONTINUOUS
 10
925.5658510786
 20
358.9881686007
 40
15.0170762416
100
AcDbArc
 50
359.5355034404
 51
359.8603995367
  0
ARC
  5
3F9
100
AcDbEntity
  8
BEZUGSACHSEN
100
AcDbCircle
 62
7
  6
CONTINUOUS
 10
925.9704102136
 20
369.1449955319
 40
13.296039016
100
AcDbArc
 50
3.2059595048
 51
4.6990429724
  0
ARC
  5
3FA
100
AcDbEntity
  8
BEZUGSACHSEN
100
AcDbCircle
 62
7
  6
CONTINUOUS
 10
926.0586799988
 20
369.1562249014
 40
13.2076140728
100
AcDbArc
 50
356.5344211757
 51
357.8212650337
  0
ARC
  5
3FB
100
AcDbEntity
  8
BEZUGSACHSEN
100
AcDbCircle
 62
7
  6
CONTINUOUS
 10
931.2497094288
 20
368.1157963658
 40
8.6015147285
100
AcDbArc
 50
27.9914770859
 51
28.970701319
  0
ARC
  5
3FC
100
AcDbEntity
  8
BEZUGSACHSEN
100
AcDbCircle
 62
7
  6
CONTINUOUS
 10
913.3747523135
 20
358.1008810395
 40
5.0
100
AcDbArc
 50
161.8736837465
 51
180.0
  0
ARC
  5
3FD
100
AcDbEntity
  8
0
100
AcDbCircle
 62
7
  6
CONTINUOUS
 10
937.7911021864
 20
358.1008810395
 40
5.0
100
AcDbArc
 50
0.0
 51
18.1263162535
  0
ARC
  5
3FE
100
AcDbEntity
  8
BEZUGSACHSEN
100
AcDbCircle
 62
7
  6
CONTINUOUS
 10
935.5603808274
 20
368.506021547
 40
4.3783783925
100
AcDbArc
 50
32.6420337789
 51
34.3362002571
  0
ARC
  5
3FF
100
AcDbEntity
  8
BEZUGSACHSEN
100
AcDbCircle
 62
7
  6
CONTINUOUS
 10
924.6419001074
 20
383.8265306002
 40
30.2377435487
100
AcDbArc
 50
297.9245176996
 51
298.2127974892
  0
ARC
  5
400
100
AcDbEntity
  8
BEZUGSACHSEN
100
AcDbCircle
 62
7
  6
CONTINUOUS
 10
914.0780660998
 20
375.3883791463
 40
23.261521248
100
AcDbArc
 50
345.4289030273
 51
346.022847414
  0
ARC
  5
401
100
AcDbEntity
  8
0
100
AcDbCircle
 62
7
  6
CONTINUOUS
 10
927.7786786105
 20
387.9522721766
 40
18.7003436626
100
AcDbArc
 50
294.2889401664
 51
294.739867288
  0
ARC
  5
402
100
AcDbEntity
  8
BEZUGSACHSEN
100
AcDbCircle
 62
7
  6
CONTINUOUS
 10
929.1140976315
 20
385.4759826005
 40
16.2210673515
100
AcDbArc
 50
296.0856708517
 51
296.5719970874
  0
ARC
  5
403
100
AcDbEntity
  8
BEZUGSACHSEN
100
AcDbCircle
 62
7
  6
CONTINUOUS
 10
920.180685378
 20
378.8587275063
 40
15.9346608333
100
AcDbArc
 50
357.1383539498
 51
1.40087625
  0
ARC
  5
404
100
AcDbEntity
  8
BEZUGSACHSEN
100
AcDbCircle
 62
7
  6
CONTINUOUS
 10
920.8288823747
 20
377.826117239
 40
15.6216714131
100
AcDbArc
 50
358.1690226321
 51
1.6105812605
  0
ARC
  5
405
100
AcDbEntity
  8
BEZUGSACHSEN
100
AcDbCircle
 62
7
  6
CONTINUOUS
 10
922.7225451759
 20
374.7286625637
 40
14.7336085934
100
AcDbArc
 50
358.0586167143
 51
1.7076830085
  0
ARC
  5
406
100
AcDbEntity
  8
0
100
AcDbCircle
 62
7
  6
CONTINUOUS
 10
920.6922325856
 20
379.0018796027
 40
14.7146811164
100
AcDbArc
 50
356.3424991462
 51
0.959511986
  0
ARC
  5
407
100
AcDbEntity
  8
BEZUGSACHSEN
100
AcDbCircle
 62
7
  6
CONTINUOUS
 10
923.4825545892
 20
373.4896942298
 40
14.3758410496
100
AcDbArc
 50
358.0102284096
 51
1.356387776
  0
ARC
  5
408
100
AcDbEntity
  8
BEZUGSACHSEN
100
AcDbCircle
 62
7
  6
CONTINUOUS
 10
928.4980266099
 20
375.9534135142
 40
8.8922135628
100
AcDbArc
 50
25.0013725892
 51
25.9235136434
  0
ARC
  5
409
100
AcDbEntity
  8
BEZUGSACHSEN
100
AcDbCircle
 62
7
  6
CONTINUOUS
 10
931.4447161906
 20
372.8804400556
 40
7.3479334497
100
AcDbArc
 50
46.4590130052
 51
47.1236849489
  0
ARC
  5
40A
100
AcDbEntity
  8
BEZUGSACHSEN
100
AcDbCircle
 62
7
  6
CONTINUOUS
 10
932.0473915805
 20
370.1470531353
 40
7.2084732856
100
AcDbArc
 50
3.2570144584
 51
5.7197167148
  0
ARC
  5
40B
100
AcDbEntity
  8
BEZUGSACHSEN
100
AcDbCircle
 62
7
  6
CONTINUOUS
 10
932.1092124443
 20
370.153444091
 40
7.1465305195
100
AcDbArc
 50
356.6860958398
 51
357.8737586726
  0
ARC
  5
40C
100
AcDbEntity
  8
BEZUGSACHSEN
100
AcDbCircle
 62
7
  6
CONTINUOUS
 10
932.1268130009
 20
370.1517211674
 40
7.1289149402
100
AcDbArc
 50
0.6258187331
 51
3.2558236611
  0
ARC
  5
40D
100
AcDbEntity
  8
BEZUGSACHSEN
100
AcDbCircle
 62
7
  6
CONTINUOUS
 10
932.1425624946
 20
370.1522857121
 40
7.1131602305
100
AcDbArc
 50
357.9879439527
 51
0.6226572733
  0
ARC
  5
40E
100
AcDbEntity
  8
BEZUGSACHSEN
100
AcDbCircle
 62
7
  6
CONTINUOUS
 10
932.1991821537
 20
378.8940739577
 40
4.4884145372
100
AcDbArc
 50
28.2427372493
 51
29.8190561304
  0
ARC
  5
40F
100
AcDbEntity
  8
BEZUGSACHSEN
100
AcDbCircle
 62
7
  6
CONTINUOUS
 10
933.1462820001
 20
380.9826832187
 40
2.9505315861
100
AcDbArc
 50
359.0698535155
 51
2.7840263302
  0
ARC
  5
410
100
AcDbEntity
  8
BEZUGSACHSEN
100
AcDbCircle
 62
7
  6
CONTINUOUS
 10
933.6142669625
 20
379.6975182855
 40
2.8847868302
100
AcDbArc
 50
359.0486782139
 51
2.8475512844
  0
ARC
  5
411
100
AcDbEntity
  8
BEZUGSACHSEN
100
AcDbCircle
 62
7
  6
CONTINUOUS
 10
934.7299804029
 20
376.4809001242
 40
2.7747859017
100
AcDbArc
 50
2.5979980923
 51
9.2171582902
  0
ARC
  5
412
100
AcDbEntity
  8
0
100
AcDbCircle
 62
7
  6
CONTINUOUS
 10
932.6890498366
 20
381.0091370957
 40
2.7178775343
100
AcDbArc
 50
358.4324043281
 51
2.4642371299
  0
ARC
  5
413
100
AcDbEntity
  8
BEZUGSACHSEN
100
AcDbCircle
 62
7
  6
CONTINUOUS
 10
935.2225133408
 20
375.1976979736
 40
2.6844299655
100
AcDbArc
 50
2.6435960641
 51
6.7392889422
  0
ARC
  5
414
100
AcDbEntity
  8
0
100
AcDbCircle
 62
7
  6
CONTINUOUS
 10
934.0644737579
 20
381.4571095906
 40
2.5836979781
100
AcDbArc
 50
301.2506019896
 51
302.9367491444
  0
ARC
  5
415
100
AcDbEntity
  8
BEZUGSACHSEN
100
AcDbCircle
 62
7
  6
CONTINUOUS
 10
936.3466095168
 20
372.2007498305
 40
2.4988466973
100
AcDbArc
 50
358.9012564193
 51
2.1900385781
  0
ARC
  5
416
100
AcDbEntity
  8
BEZUGSACHSEN
100
AcDbCircle
 62
7
  6
CONTINUOUS
 10
936.8120349337
 20
370.9155538176
 40
2.4356604317
100
AcDbArc
 50
358.8735061293
 51
3.3734580713
  0
ARC
  5
417
100
AcDbEntity
  8
BEZUGSACHSEN
100
AcDbCircle
 62
7
  6
CONTINUOUS
 10
934.8272311108
 20
381.1869004984
 40
2.3249098501
100
AcDbArc
 50
303.5043962568
 51
305.2672267153
  0
ARC
  5
418
100
AcDbEntity
  8
0
100
AcDbCircle
 62
7
  6
CONTINUOUS
 10
925.5829272499
 20
601.1366473439
 40
135.0
100
AcDbArc
 50
0.0
 51
180.0
  0
ARC
  5
419
100
AcDbEntity
  8
0
100
AcDbCircle
 62
7
  6
CONTINUOUS
 10
925.5829272499
 20
441.1366473439
 40
135.0
100
AcDbArc
 50
276.3802110501
 51
360.0
  0
ARC
  5
41A
100
AcDbEntity
  8
0
100
AcDbCircle
 62
7
  6
CONTINUOUS
 10
925.5829272499
 20
441.1366473439
 40
135.0
100
AcDbArc
 50
226.6979557727
 51
263.6197889499
  0
ARC
  5
41B
100
AcDbEntity
  8
0
100
AcDbCircle
 62
7
  6
CONTINUOUS
 10
925.5829272499
 20
441.1366473439
 40
135.0
100
AcDbArc
 50
180.0
 51
223.3020442273
  0
ARC
  5
41C
100
AcDbEntity
  8
0
100
AcDbCircle
 62
7
  6
CONTINUOUS
 10
925.5829272499
 20
601.1366473439
 40
90.0
100
AcDbArc
 50
0.0
 51
180.0
  0
ARC
  5
41D
100
AcDbEntity
  8
0
100
AcDbCircle
 62
7
  6
CONTINUOUS
 10
925.5829272499
 20
441.1366473439
 40
90.0
100
AcDbArc
 50
280.5757798124
 51
360.0
  0
ARC
  5
41E
100
AcDbEntity
  8
0
100
AcDbCircle
 62
7
  6
CONTINUOUS
 10
925.5829272499
 20
441.1366473439
 40
90.0
100
AcDbArc
 50
227.5476600627
 51
259.4251478556
  0
ARC
  5
41F
100
AcDbEntity
  8
0
100
AcDbCircle
 62
7
  6
CONTINUOUS
 10
925.5829272499
 20
441.1366473439
 40
90.0
100
AcDbArc
 50
180.0
 51
222.4523399373
  0
ARC
  5
420
100
AcDbEntity
  8
KONSTRUKTIONSELEMENTE
100
AcDbCircle
 62
7
  6
CONTINUOUS
 10
265.1309795677
 20
367.6247202959
 40
45.814023141
100
AcDbArc
 50
241.1844036045
 51
246.1833683465
  0
ARC
  5
421
100
AcDbEntity
  8
KONSTRUKTIONSELEMENTE
100
AcDbCircle
 62
7
  6
CONTINUOUS
 10
263.5905418433
 20
364.8602642239
 40
34.6491228956
100
AcDbArc
 50
237.7809927827
 51
240.3145238408
  0
ARC
  5
422
100
AcDbEntity
  8
BEZUGSACHSEN
100
AcDbCircle
 62
7
  6
CONTINUOUS
 10
268.8370222802
 20
232.9478187978
 40
34.235761535
100
AcDbArc
 50
95.7096704505
 51
102.8725206806
  0
ARC
  5
423
100
AcDbEntity
  8
BEZUGSACHSEN
100
AcDbCircle
 62
7
  6
CONTINUOUS
 10
268.8370222802
 20
229.4122848919
 40
34.235761535
100
AcDbArc
 50
95.7096704505
 51
102.8725206806
  0
ARC
  5
424
100
AcDbEntity
  8
KONSTRUKTIONSELEMENTE
100
AcDbCircle
 62
7
  6
CONTINUOUS
 10
245.7537128902
 20
133.6037311606
 40
12.1186269457
100
AcDbArc
 50
80.7865697041
 51
83.8952734692
  0
ARC
  5
425
100
AcDbEntity
  8
BEZUGSACHSEN
100
AcDbCircle
 62
7
  6
CONTINUOUS
 10
232.0142399003
 20
216.1366577449
 40
5.0
100
AcDbArc
 50
220.0001555872
 51
270.0001000089
  0
ARC
  5
426
100
AcDbEntity
  8
RUNDUNGEN
100
AcDbCircle
 62
7
  6
CONTINUOUS
 10
222.9353155005
 20
226.9564985152
 40
5.0
100
AcDbArc
 50
180.0
 51
220.0
  0
ARC
  5
427
100
AcDbEntity
  8
RUNDUNGEN
100
AcDbCircle
 62
7
  6
CONTINUOUS
 10
212.9353155005
 20
258.2938293433
 40
5.0
100
AcDbArc
 50
0.0
 51
30.0
  0
ARC
  5
428
100
AcDbEntity
  8
KONSTRUKTIONSELEMENTE
100
AcDbCircle
 62
7
  6
CONTINUOUS
 10
254.4153915358
 20
139.3301538323
 40
4.5106910403
100
AcDbArc
 50
9.1122156589
 51
9.8872067218
  0
ARC
  5
429
100
AcDbEntity
  8
KONSTRUKTIONSELEMENTE
100
AcDbCircle
 62
7
  6
CONTINUOUS
 10
254.4914889668
 20
139.3410584495
 40
4.4338271913
100
AcDbArc
 50
0.0312035642
 51
9.1288137427
  0
ARC
  5
42A
100
AcDbEntity
  8
KONSTRUKTIONSELEMENTE
100
AcDbCircle
 62
7
  6
CONTINUOUS
 10
220.5117623807
 20
224.2468065823
 40
4.1514113362
100
AcDbArc
 50
282.8933853082
 51
290.262664446
  0
ARC
  5
42B
100
AcDbEntity
  8
0
100
AcDbCircle
 62
7
  6
CONTINUOUS
 10
268.9353155005
 20
137.0801449024
 40
80.0
100
AcDbArc
 50
67.7750981556
 51
81.1194498884
  0
ARC
  5
42C
100
AcDbEntity
  8
0
100
AcDbCircle
 62
7
  6
CONTINUOUS
 10
268.9353155005
 20
137.0801449024
 40
80.0
100
AcDbArc
 50
98.8805501116
 51
112.2249018444
  0
ARC
  5
42D
100
AcDbEntity
  8
KONSTRUKTIONSELEMENTE
100
AcDbCircle
 62
7
  6
CONTINUOUS
 10
272.4666523834
 20
368.1767253284
 40
46.4292689161
100
AcDbArc
 50
293.8510282428
 51
298.7843094294
  0
ARC
  5
42E
100
AcDbEntity
  8
KONSTRUKTIONSELEMENTE
100
AcDbCircle
 62
7
  6
CONTINUOUS
 10
274.1294551193
 20
365.1115352758
 40
34.9420141897
100
AcDbArc
 50
299.7015286162
 51
302.2042682059
  0
ARC
  5
42F
100
AcDbEntity
  8
BEZUGSACHSEN
100
AcDbCircle
 62
7
  6
CONTINUOUS
 10
269.0957054507
 20
233.3273908065
 40
33.8519033272
100
AcDbArc
 50
77.0868144446
 51
84.3309944243
  0
ARC
  5
430
100
AcDbEntity
  8
BEZUGSACHSEN
100
AcDbCircle
 62
7
  6
CONTINUOUS
 10
269.0957054507
 20
229.7918569006
 40
33.8519033272
100
AcDbArc
 50
77.0868144446
 51
84.3309944243
  0
ARC
  5
431
100
AcDbEntity
  8
BEZUGSACHSEN
100
AcDbCircle
 62
7
  6
CONTINUOUS
 10
268.9353155005
 20
325.1366473439
 40
26.0
100
AcDbArc
 50
149.9325585394
 51
30.0674414606
  0
ARC
  5
432
100
AcDbEntity
  8
0
100
AcDbCircle
 62
7
  6
CONTINUOUS
 10
268.9353155005
 20
328.6366473439
 40
22.5
100
AcDbArc
 50
180.0
 51
360.0
  0
ARC
  5
433
100
AcDbEntity
  8
0
100
AcDbCircle
 62
7
  6
CONTINUOUS
 10
268.9353155005
 20
269.7866473439
 40
12.35
100
AcDbArc
 50
178.6532229189
 51
180.0
  0
ARC
  5
434
100
AcDbEntity
  8
0
100
AcDbCircle
 62
7
  6
CONTINUOUS
 10
268.9353155005
 20
269.7866473439
 40
12.35
100
AcDbArc
 50
0.0
 51
1.3467770811
  0
ARC
  5
435
100
AcDbEntity
  8
RUNDUNGEN
100
AcDbCircle
 62
7
  6
CONTINUOUS
 10
268.9353155005
 20
269.7866473439
 40
12.35
100
AcDbArc
 50
1.3467770811
 51
178.6532229189
  0
ARC
  5
436
100
AcDbEntity
  8
KONSTRUKTIONSELEMENTE
100
AcDbCircle
 62
7
  6
CONTINUOUS
 10
291.6345608579
 20
135.9846372572
 40
10.2888693587
100
AcDbArc
 50
111.2384503883
 51
112.1140025065
  0
ARC
  5
437
100
AcDbEntity
  8
KONSTRUKTIONSELEMENTE
100
AcDbCircle
 62
7
  6
CONTINUOUS
 10
291.553853126
 20
136.1816209989
 40
10.0759939371
100
AcDbArc
 50
112.1105000658
 51
113.9508226432
  0
ARC
  5
438
100
AcDbEntity
  8
RUNDUNGEN
100
AcDbCircle
 62
7
  6
CONTINUOUS
 10
324.9353155005
 20
258.2938293433
 40
5.0
100
AcDbArc
 50
150.0
 51
180.0
  0
ARC
  5
439
100
AcDbEntity
  8
RUNDUNGEN
100
AcDbCircle
 62
7
  6
CONTINUOUS
 10
314.9353155005
 20
226.9564985152
 40
5.0
100
AcDbArc
 50
320.0
 51
360.0
  0
ARC
  5
43A
100
AcDbEntity
  8
BEZUGSACHSEN
100
AcDbCircle
 62
7
  6
CONTINUOUS
 10
305.8563862327
 20
216.1366519434
 40
5.0
100
AcDbArc
 50
269.9999557743
 51
319.9999311969
  0
CIRCLE
  5
43B
100
AcDbEntity
  8
BEZUGSACHSEN
100
AcDbCircle
 62
7
  6
CONTINUOUS
 10
308.1353155005
 20
242.1366473439
 40
4.0
  0
ARC
  5
43C
100
AcDbEntity
  8
KONSTRUKTIONSELEMENTE
100
AcDbCircle
 62
7
  6
CONTINUOUS
 10
268.9353155005
 20
280.1527713013
 40
3.5
100
AcDbArc
 50
153.3909851653
 51
180.0
  0
ARC
  5
43D
100
AcDbEntity
  8
KONSTRUKTIONSELEMENTE
100
AcDbCircle
 62
7
  6
CONTINUOUS
 10
268.9353155005
 20
280.1527713013
 40
3.5
100
AcDbArc
 50
0.0
 51
26.6090148648
  0
ARC
  5
43E
100
AcDbEntity
  8
KONSTRUKTIONSELEMENTE
100
AcDbCircle
 62
7
  6
CONTINUOUS
 10
268.9353155005
 20
308.6712091941
 40
3.5
100
AcDbArc
 50
223.0368482102
 51
316.9631517898
  0
ARC
  5
43F
100
AcDbEntity
  8
KONSTRUKTIONSELEMENTE
100
AcDbCircle
 62
7
  6
CONTINUOUS
 10
268.9353155005
 20
304.9475241536
 40
3.2
100
AcDbArc
 50
154.3817858912
 51
180.0
  0
ARC
  5
440
100
AcDbEntity
  8
KONSTRUKTIONSELEMENTE
100
AcDbCircle
 62
7
  6
CONTINUOUS
 10
268.9353155005
 20
283.5936136293
 40
3.2
100
AcDbArc
 50
213.2626954582
 51
326.7373044507
  0
ARC
  5
441
100
AcDbEntity
  8
KONSTRUKTIONSELEMENTE
100
AcDbCircle
 62
7
  6
CONTINUOUS
 10
268.9353155005
 20
304.9475241536
 40
3.2
100
AcDbArc
 50
0.0
 51
25.6182141088
  0
ARC
  5
442
100
AcDbEntity
  8
0
100
AcDbCircle
 62
7
  6
CONTINUOUS
 10
268.9353155005
 20
713.6366473439
 40
22.5
100
AcDbArc
 50
0.0
 51
180.0
  0
LINE
  5
443
100
AcDbEntity
  8
BEZUGSACHSEN
100
AcDbLine
 62
7
  6
CONTINUOUS
 10
938.7433732387
 20
372.8344254577
 11
938.6757793519
 21
373.0533414097
  0
LINE
  5
444
100
AcDbEntity
  8
BEZUGSACHSEN
100
AcDbLine
 62
7
  6
CONTINUOUS
 10
939.0238883343
 20
371.8926679408
 11
938.8846546472
 21
372.3611393391
  0
LINE
  5
445
100
AcDbEntity
  8
BEZUGSACHSEN
100
AcDbLine
 62
7
  6
CONTINUOUS
 10
938.8846546472
 20
372.3611393391
 11
938.8142700161
 21
372.5971805821
  0
LINE
  5
446
100
AcDbEntity
  8
BEZUGSACHSEN
100
AcDbLine
 62
7
  6
CONTINUOUS
 10
938.8142700161
 20
372.5971805821
 11
938.7861451792
 21
372.691357045
  0
LINE
  5
447
100
AcDbEntity
  8
BEZUGSACHSEN
100
AcDbLine
 62
7
  6
CONTINUOUS
 10
938.7861451792
 20
372.691357045
 11
938.7433732387
 21
372.8344254577
  0
LINE
  5
448
100
AcDbEntity
  8
BEZUGSACHSEN
100
AcDbLine
 62
7
  6
CONTINUOUS
 10
936.1532542105
 20
381.0180276358
 11
936.1849162068
 21
380.932048774
  0
LINE
  5
449
100
AcDbEntity
  8
BEZUGSACHSEN
100
AcDbLine
 62
7
  6
CONTINUOUS
 10
936.5354646538
 20
379.9028267703
 11
936.6186641958
 21
379.6393507386
  0
LINE
  5
44A
100
AcDbEntity
  8
BEZUGSACHSEN
100
AcDbLine
 62
7
  6
CONTINUOUS
 10
936.6186641958
 20
379.6393507386
 11
936.7016248798
 21
379.3765712824
  0
LINE
  5
44B
100
AcDbEntity
  8
BEZUGSACHSEN
100
AcDbLine
 62
7
  6
CONTINUOUS
 10
936.7016248798
 20
379.3765712824
 11
936.7843465965
 21
379.1144883698
  0
LINE
  5
44C
100
AcDbEntity
  8
BEZUGSACHSEN
100
AcDbLine
 62
7
  6
CONTINUOUS
 10
936.7843465965
 20
379.1144883698
 11
936.817147736
 21
379.0105493272
  0
LINE
  5
44D
100
AcDbEntity
  8
BEZUGSACHSEN
100
AcDbLine
 62
7
  6
CONTINUOUS
 10
936.817147736
 20
379.0105493272
 11
936.8496254878
 21
378.907625484
  0
LINE
  5
44E
100
AcDbEntity
  8
BEZUGSACHSEN
100
AcDbLine
 62
7
  6
CONTINUOUS
 10
936.8496254878
 20
378.907625484
 11
936.8668292341
 21
378.8531019682
  0
LINE
  5
44F
100
AcDbEntity
  8
BEZUGSACHSEN
100
AcDbLine
 62
7
  6
CONTINUOUS
 10
936.6933872981
 20
378.8583232326
 11
936.6610183613
 21
378.9810332387
  0
LINE
  5
450
100
AcDbEntity
  8
BEZUGSACHSEN
100
AcDbLine
 62
7
  6
CONTINUOUS
 10
936.6610183613
 20
378.9810332387
 11
936.5958334598
 21
379.2270952401
  0
LINE
  5
451
100
AcDbEntity
  8
BEZUGSACHSEN
100
AcDbLine
 62
7
  6
CONTINUOUS
 10
936.5958334598
 20
379.2270952401
 11
936.5630175622
 21
379.3504472451
  0
LINE
  5
452
100
AcDbEntity
  8
BEZUGSACHSEN
100
AcDbLine
 62
7
  6
CONTINUOUS
 10
936.8911409352
 20
378.1732497212
 11
936.8419842741
 21
378.3437742348
  0
LINE
  5
453
100
AcDbEntity
  8
BEZUGSACHSEN
100
AcDbLine
 62
7
  6
CONTINUOUS
 10
936.8419842741
 20
378.3437742348
 11
936.7926397842
 21
378.5147946587
  0
LINE
  5
454
100
AcDbEntity
  8
BEZUGSACHSEN
100
AcDbLine
 62
7
  6
CONTINUOUS
 10
936.7926397842
 20
378.5147946587
 11
936.6933872981
 21
378.8583232326
  0
LINE
  5
455
100
AcDbEntity
  8
BEZUGSACHSEN
100
AcDbLine
 62
7
  6
CONTINUOUS
 10
937.1572268375
 20
377.2952288833
 11
937.0245126106
 21
377.7332479709
  0
LINE
  5
456
100
AcDbEntity
  8
BEZUGSACHSEN
100
AcDbLine
 62
7
  6
CONTINUOUS
 10
937.0245126106
 20
377.7332479709
 11
936.9579089223
 21
377.9530010036
  0
LINE
  5
457
100
AcDbEntity
  8
BEZUGSACHSEN
100
AcDbLine
 62
7
  6
CONTINUOUS
 10
936.9579089223
 20
377.9530010036
 11
936.8911409352
 21
378.1732497212
  0
LINE
  5
458
100
AcDbEntity
  8
BEZUGSACHSEN
100
AcDbLine
 62
7
  6
CONTINUOUS
 10
938.1620560437
 20
374.0823193731
 11
937.9916430858
 21
374.6272310839
  0
LINE
  5
459
100
AcDbEntity
  8
BEZUGSACHSEN
100
AcDbLine
 62
7
  6
CONTINUOUS
 10
937.9916430858
 20
374.6272310839
 11
937.9122446407
 21
374.8811120298
  0
LINE
  5
45A
100
AcDbEntity
  8
BEZUGSACHSEN
100
AcDbLine
 62
7
  6
CONTINUOUS
 10
937.9122446407
 20
374.8811120298
 11
937.8049011491
 21
375.2243456868
  0
LINE
  5
45B
100
AcDbEntity
  8
BEZUGSACHSEN
100
AcDbLine
 62
7
  6
CONTINUOUS
 10
937.8049011491
 20
375.2243456868
 11
937.5027242052
 21
376.1905457215
  0
LINE
  5
45C
100
AcDbEntity
  8
BEZUGSACHSEN
100
AcDbLine
 62
7
  6
CONTINUOUS
 10
937.5027242052
 20
376.1905457215
 11
937.4098298502
 21
376.4875667273
  0
LINE
  5
45D
100
AcDbEntity
  8
BEZUGSACHSEN
100
AcDbLine
 62
7
  6
CONTINUOUS
 10
937.4098298502
 20
376.4875667273
 11
937.2939901751
 21
376.8579498008
  0
LINE
  5
45E
100
AcDbEntity
  8
BEZUGSACHSEN
100
AcDbLine
 62
7
  6
CONTINUOUS
 10
937.2939901751
 20
376.8579498008
 11
937.1572268375
 21
377.2952288833
  0
LINE
  5
45F
100
AcDbEntity
  8
BEZUGSACHSEN
100
AcDbLine
 62
7
  6
CONTINUOUS
 10
938.1620560437
 20
374.0823193731
 11
938.4320627428
 21
373.2467886321
  0
LINE
  5
460
100
AcDbEntity
  8
BEZUGSACHSEN
100
AcDbLine
 62
7
  6
CONTINUOUS
 10
938.4320627428
 20
373.2467886321
 11
938.6366954918
 21
372.6466978594
  0
SPLINE
  5
461
100
AcDbEntity
  8
BEZUGSACHSEN
100
AcDbSpline
 62
7
  6
CONTINUOUS
 70
0
 71
3
 72
8
 73
4
 74
0
 42
0.0000001
 43
0.0000001
 44
0.0000000001
 40
0.0
 40
0.0
 40
0.0
 40
0.0
 40
1.0
 40
1.0
 40
1.0
 40
1.0
 10
937.7552807406
 20
355.9275162571
 30
0.0
 10
937.6623574842
 20
356.2287260809
 30
0.0
 10
937.5692568751
 20
356.5298812428
 30
0.0
 10
937.4759879735
 20
356.8309842177
 30
0.0
  0
LINE
  5
462
100
AcDbEntity
  8
BEZUGSACHSEN
100
AcDbLine
 62
7
  6
CONTINUOUS
 10
937.4759879735
 20
356.8309842177
 11
937.32258546
 21
357.2074297275
  0
LINE
  5
463
100
AcDbEntity
  8
BEZUGSACHSEN
100
AcDbLine
 62
7
  6
CONTINUOUS
 10
937.32258546
 20
357.2074297275
 11
937.2712849808
 21
357.3332957876
  0
LINE
  5
464
100
AcDbEntity
  8
BEZUGSACHSEN
100
AcDbLine
 62
7
  6
CONTINUOUS
 10
937.0040091451
 20
357.8160698461
 11
937.2712849808
 21
357.3332957876
  0
LINE
  5
465
100
AcDbEntity
  8
BEZUGSACHSEN
100
AcDbLine
 62
7
  6
CONTINUOUS
 10
936.8076345882
 20
358.0379188567
 11
937.0040091451
 21
357.8160698461
  0
LINE
  5
466
100
AcDbEntity
  8
BEZUGSACHSEN
100
AcDbLine
 62
7
  6
CONTINUOUS
 10
936.5514254599
 20
358.0999983369
 11
936.8076345882
 21
358.0379188567
  0
LINE
  5
467
100
AcDbEntity
  8
BEZUGSACHSEN
100
AcDbLine
 62
7
  6
CONTINUOUS
 10
939.470800251
 20
349.1239320049
 11
938.063148746
 21
351.658494375
  0
LINE
  5
468
100
AcDbEntity
  8
BEZUGSACHSEN
100
AcDbLine
 62
7
  6
CONTINUOUS
 10
937.6609566901
 20
352.3826549555
 11
936.6554666353
 21
354.193056745
  0
LINE
  5
469
100
AcDbEntity
  8
BEZUGSACHSEN
100
AcDbLine
 62
7
  6
CONTINUOUS
 10
937.4689392164
 20
376.925356442
 11
937.6810611162
 21
376.2461463082
  0
LINE
  5
46A
100
AcDbEntity
  8
BEZUGSACHSEN
100
AcDbLine
 62
7
  6
CONTINUOUS
 10
937.6810611162
 20
376.2461463082
 11
937.7215705162
 21
376.1164316418
  0
LINE
  5
46B
100
AcDbEntity
  8
BEZUGSACHSEN
100
AcDbLine
 62
7
  6
CONTINUOUS
 10
937.7215705162
 20
376.1164316418
 11
937.9081726074
 21
375.5188967316
  0
LINE
  5
46C
100
AcDbEntity
  8
BEZUGSACHSEN
100
AcDbLine
 62
7
  6
CONTINUOUS
 10
936.7008220749
 20
357.157454276
 11
936.8289024581
 21
357.1965303763
  0
LINE
  5
46D
100
AcDbEntity
  8
BEZUGSACHSEN
100
AcDbLine
 62
7
  6
CONTINUOUS
 10
936.2062726398
 20
366.0660105079
 11
936.4856631289
 21
365.445690373
  0
SPLINE
  5
46E
100
AcDbEntity
  8
BEZUGSACHSEN
100
AcDbSpline
 62
7
  6
CONTINUOUS
 70
0
 71
3
 72
8
 73
4
 74
0
 42
0.0000001
 43
0.0000001
 44
0.0000000001
 40
0.0
 40
0.0
 40
0.0
 40
0.0
 40
1.0
 40
1.0
 40
1.0
 40
1.0
 10
936.4856631289
 20
365.445690373
 30
0.0
 10
937.0832952389
 20
364.1187316677
 30
0.0
 10
937.6807856219
 20
362.7917091149
 30
0.0
 10
938.2780800961
 20
361.4645983978
 30
0.0
  0
LINE
  5
46F
100
AcDbEntity
  8
BEZUGSACHSEN
100
AcDbLine
 62
7
  6
CONTINUOUS
 10
938.6003605024
 20
357.3091724744
 11
938.802475729
 21
357.1095091909
  0
LINE
  5
470
100
AcDbEntity
  8
BEZUGSACHSEN
100
AcDbLine
 62
7
  6
CONTINUOUS
 10
938.3314689792
 20
357.7800863903
 11
938.6003605024
 21
357.3091724744
  0
LINE
  5
471
100
AcDbEntity
  8
BEZUGSACHSEN
100
AcDbLine
 62
7
  6
CONTINUOUS
 10
938.3314689792
 20
357.7800863903
 11
937.0992650577
 21
360.5086198908
  0
LINE
  5
472
100
AcDbEntity
  8
BEZUGSACHSEN
100
AcDbLine
 62
7
  6
CONTINUOUS
 10
937.0992650577
 20
360.5086198908
 11
936.5286525753
 21
361.7721415024
  0
LINE
  5
473
100
AcDbEntity
  8
BEZUGSACHSEN
100
AcDbLine
 62
7
  6
CONTINUOUS
 10
936.5286525753
 20
361.7721415024
 11
936.2534626099
 21
362.3814985004
  0
LINE
  5
474
100
AcDbEntity
  8
BEZUGSACHSEN
100
AcDbLine
 62
7
  6
CONTINUOUS
 10
937.4476967974
 20
374.2295314103
 11
936.4425778598
 21
377.3269869545
  0
LINE
  5
475
100
AcDbEntity
  8
BEZUGSACHSEN
100
AcDbLine
 62
7
  6
CONTINUOUS
 10
938.892127724
 20
359.7602534358
 11
938.6857404324
 21
360.3888414414
  0
LINE
  5
476
100
AcDbEntity
  8
BEZUGSACHSEN
100
AcDbLine
 62
7
  6
CONTINUOUS
 10
938.6857404324
 20
360.3888414414
 11
938.6164784964
 21
360.5996179537
  0
LINE
  5
477
100
AcDbEntity
  8
BEZUGSACHSEN
100
AcDbLine
 62
7
  6
CONTINUOUS
 10
938.6164784964
 20
360.5996179537
 11
938.5311911345
 21
360.817630393
  0
LINE
  5
478
100
AcDbEntity
  8
BEZUGSACHSEN
100
AcDbLine
 62
7
  6
CONTINUOUS
 10
938.5311911345
 20
360.817630393
 11
938.2780800961
 21
361.4645983978
  0
LINE
  5
479
100
AcDbEntity
  8
BEZUGSACHSEN
100
AcDbLine
 62
7
  6
CONTINUOUS
 10
939.2567462216
 20
368.6541118935
 11
937.8497276008
 21
372.990549424
  0
LINE
  5
47A
100
AcDbEntity
  8
BEZUGSACHSEN
100
AcDbLine
 62
7
  6
CONTINUOUS
 10
938.8309331257
 20
364.9875200581
 11
938.5550953011
 21
365.8811741887
  0
LINE
  5
47B
100
AcDbEntity
  8
BEZUGSACHSEN
100
AcDbLine
 62
7
  6
CONTINUOUS
 10
938.5550953011
 20
365.8811741887
 11
938.3861571952
 21
366.3627160062
  0
LINE
  5
47C
100
AcDbEntity
  8
BEZUGSACHSEN
100
AcDbLine
 62
7
  6
CONTINUOUS
 10
938.3861571952
 20
366.3627160062
 11
938.2166434342
 21
366.8458729045
  0
LINE
  5
47D
100
AcDbEntity
  8
BEZUGSACHSEN
100
AcDbLine
 62
7
  6
CONTINUOUS
 10
937.2145299652
 20
369.4352346072
 11
937.4226339821
 21
368.8976037294
  0
LINE
  5
47E
100
AcDbEntity
  8
BEZUGSACHSEN
100
AcDbLine
 62
7
  6
CONTINUOUS
 10
937.4226339821
 20
368.8976037294
 11
937.4670478957
 21
368.7828558495
  0
LINE
  5
47F
100
AcDbEntity
  8
BEZUGSACHSEN
100
AcDbLine
 62
7
  6
CONTINUOUS
 10
937.4670478957
 20
368.7828558495
 11
938.2166434342
 21
366.8458729045
  0
SPLINE
  5
480
100
AcDbEntity
  8
BEZUGSACHSEN
100
AcDbSpline
 62
7
  6
CONTINUOUS
 70
0
 71
3
 72
8
 73
4
 74
0
 42
0.0000001
 43
0.0000001
 44
0.0000000001
 40
0.0
 40
0.0
 40
0.0
 40
0.0
 40
1.0
 40
1.0
 40
1.0
 40
1.0
 10
936.3613243502
 20
378.8667104401
 30
0.0
 10
936.4319392372
 20
378.6825707991
 30
0.0
 10
936.5023955567
 20
378.4983702654
 30
0.0
 10
936.5726870017
 20
378.3141069147
 30
0.0
  0
LINE
  5
481
100
AcDbEntity
  8
BEZUGSACHSEN
100
AcDbLine
 62
7
  6
CONTINUOUS
 10
936.5726870017
 20
378.3141069147
 11
936.600004411
 21
378.2424715488
  0
LINE
  5
482
100
AcDbEntity
  8
BEZUGSACHSEN
100
AcDbLine
 62
7
  6
CONTINUOUS
 10
936.600004411
 20
378.2424715488
 11
936.6204366053
 21
378.1888587257
  0
LINE
  5
483
100
AcDbEntity
  8
BEZUGSACHSEN
100
AcDbLine
 62
7
  6
CONTINUOUS
 10
936.8844778241
 20
370.1967773489
 11
937.1837857858
 21
369.5062075377
  0
LINE
  5
484
100
AcDbEntity
  8
BEZUGSACHSEN
100
AcDbLine
 62
7
  6
CONTINUOUS
 10
937.1837857858
 20
369.5062075377
 11
937.2145299652
 21
369.4352346072
  0
LINE
  5
485
100
AcDbEntity
  8
BEZUGSACHSEN
100
AcDbLine
 62
7
  6
CONTINUOUS
 10
936.6204366053
 20
378.1888587257
 11
936.6699826349
 21
378.0459039566
  0
LINE
  5
486
100
AcDbEntity
  8
BEZUGSACHSEN
100
AcDbLine
 62
7
  6
CONTINUOUS
 10
936.6699826349
 20
378.0459039566
 11
936.8179387559
 21
377.618746868
  0
LINE
  5
487
100
AcDbEntity
  8
BEZUGSACHSEN
100
AcDbLine
 62
7
  6
CONTINUOUS
 10
936.8179387559
 20
377.618746868
 11
937.0855497059
 21
376.7927582987
  0
LINE
  5
488
100
AcDbEntity
  8
BEZUGSACHSEN
100
AcDbLine
 62
7
  6
CONTINUOUS
 10
936.6246405421
 20
370.6841161184
 11
936.8844778241
 21
370.1967773489
  0
LINE
  5
489
100
AcDbEntity
  8
BEZUGSACHSEN
100
AcDbLine
 62
7
  6
CONTINUOUS
 10
937.2895912873
 20
376.12388817
 11
937.0855497059
 21
376.7927582987
  0
SPLINE
  5
48A
100
AcDbEntity
  8
BEZUGSACHSEN
100
AcDbSpline
 62
7
  6
CONTINUOUS
 70
0
 71
3
 72
8
 73
4
 74
0
 42
0.0000001
 43
0.0000001
 44
0.0000000001
 40
0.0
 40
0.0
 40
0.0
 40
0.0
 40
1.0
 40
1.0
 40
1.0
 40
1.0
 10
937.5664254447
 20
375.1497639027
 30
0.0
 10
937.4743348459
 20
375.4745252054
 30
0.0
 10
937.3820536166
 20
375.7992325067
 30
0.0
 10
937.2895912873
 20
376.12388817
 30
0.0
  0
LINE
  5
48B
100
AcDbEntity
  8
BEZUGSACHSEN
100
AcDbLine
 62
7
  6
CONTINUOUS
 10
937.7103307627
 20
374.5392544953
 11
937.9489320514
 21
373.8633367437
  0
LINE
  5
48C
100
AcDbEntity
  8
BEZUGSACHSEN
100
AcDbLine
 62
7
  6
CONTINUOUS
 10
937.9489320514
 20
373.8633367437
 11
938.1003076325
 21
373.4338537772
  0
LINE
  5
48D
100
AcDbEntity
  8
BEZUGSACHSEN
100
AcDbLine
 62
7
  6
CONTINUOUS
 10
938.1003076325
 20
373.4338537772
 11
938.2115873283
 21
373.1177916216
  0
LINE
  5
48E
100
AcDbEntity
  8
BEZUGSACHSEN
100
AcDbLine
 62
7
  6
CONTINUOUS
 10
938.9397112073
 20
361.6659592429
 11
938.3596990813
 21
363.1600153982
  0
LINE
  5
48F
100
AcDbEntity
  8
BEZUGSACHSEN
100
AcDbLine
 62
7
  6
CONTINUOUS
 10
938.3596990813
 20
363.1600153982
 11
938.2394898773
 21
363.4696577601
  0
LINE
  5
490
100
AcDbEntity
  8
BEZUGSACHSEN
100
AcDbLine
 62
7
  6
CONTINUOUS
 10
938.2394898773
 20
363.4696577601
 11
936.5940995954
 21
367.7078034979
  0
LINE
  5
491
100
AcDbEntity
  8
BEZUGSACHSEN
100
AcDbLine
 62
7
  6
CONTINUOUS
 10
918.0826976355
 20
260.7938293433
 11
915.9586288291
 21
258.2938293433
  0
LINE
  5
492
100
AcDbEntity
  8
RUNDUNGEN
100
AcDbLine
 62
7
  6
CONTINUOUS
 10
933.0831568644
 20
260.7938293433
 11
935.2072256708
 21
258.2938293433
  0
SPLINE
  5
493
100
AcDbEntity
  8
BEZUGSACHSEN
100
AcDbSpline
 62
7
  6
CONTINUOUS
 70
0
 71
3
 72
11
 73
7
 74
0
 42
0.0000001
 43
0.0000001
 44
0.0000000001
 40
0.0
 40
0.0
 40
0.0
 40
0.0
 40
0.2530106614
 40
0.5000000005
 40
0.7469893397
 40
1.0
 40
1.0
 40
1.0
 40
1.0
 10
918.663264304
 20
390.3273052467
 30
0.0
 10
918.3309637659
 20
389.312209559
 30
0.0
 10
917.8048517943
 20
387.2587415711
 30
0.0
 10
917.5268559303
 20
384.1021513473
 30
0.0
 10
917.8048517849
 20
380.9455611258
 30
0.0
 10
918.3309637674
 20
378.892093145
 30
0.0
 10
918.663264304
 20
377.8769974617
 30
0.0
  0
SPLINE
  5
494
100
AcDbEntity
  8
BEZUGSACHSEN
100
AcDbSpline
 62
7
  6
CONTINUOUS
 70
0
 71
3
 72
9
 73
5
 74
0
 42
0.0000001
 43
0.0000001
 44
0.0000000001
 40
0.0
 40
0.0
 40
0.0
 40
0.0
 40
0.5000000005
 40
1.0
 40
1.0
 40
1.0
 40
1.0
 10
918.663264304
 20
377.8769974617
 30
0.0
 10
917.9878439597
 20
372.4753609441
 30
0.0
 10
917.2497045627
 20
361.57933298
 30
0.0
 10
917.9878439612
 20
350.6833050162
 30
0.0
 10
918.663264304
 20
345.2816685104
 30
0.0
  0
SPLINE
  5
495
100
AcDbEntity
  8
BEZUGSACHSEN
100
AcDbSpline
 62
7
  6
CONTINUOUS
 70
0
 71
3
 72
9
 73
5
 74
0
 42
0.0000001
 43
0.0000001
 44
0.0000000001
 40
0.0
 40
0.0
 40
0.0
 40
0.0
 40
0.5000053871
 40
1.0
 40
1.0
 40
1.0
 40
1.0
 10
918.663264304
 20
345.2816685104
 30
0.0
 10
918.2154972435
 20
340.855318869
 30
0.0
 10
917.5861596293
 20
331.9727437971
 30
0.0
 10
917.5784287626
 20
323.0664265437
 30
0.0
 10
917.7305716672
 20
318.6201847574
 30
0.0
  0
LINE
  5
496
100
AcDbEntity
  8
BEZUGSACHSEN
100
AcDbLine
 62
7
  6
CONTINUOUS
 10
938.4839424068
 20
372.9051224492
 11
938.7574856149
 21
372.0908375791
  0
LINE
  5
497
100
AcDbEntity
  8
BEZUGSACHSEN
100
AcDbLine
 62
7
  6
CONTINUOUS
 10
938.1462256597
 20
373.9548471375
 11
938.4839424068
 21
372.9051224492
  0
LINE
  5
498
100
AcDbEntity
  8
BEZUGSACHSEN
100
AcDbLine
 62
7
  6
CONTINUOUS
 10
938.1462256597
 20
373.9548471375
 11
937.9411125615
 21
374.6113578682
  0
LINE
  5
499
100
AcDbEntity
  8
BEZUGSACHSEN
100
AcDbLine
 62
7
  6
CONTINUOUS
 10
937.9411125615
 20
374.6113578682
 11
937.8969553096
 21
374.7526892218
  0
LINE
  5
49A
100
AcDbEntity
  8
BEZUGSACHSEN
100
AcDbLine
 62
7
  6
CONTINUOUS
 10
937.8969553096
 20
374.7526892218
 11
937.6465497284
 21
375.5541214211
  0
LINE
  5
49B
100
AcDbEntity
  8
BEZUGSACHSEN
100
AcDbLine
 62
7
  6
CONTINUOUS
 10
937.6465497284
 20
375.5541214211
 11
937.4526038434
 21
376.1748236549
  0
LINE
  5
49C
100
AcDbEntity
  8
BEZUGSACHSEN
100
AcDbLine
 62
7
  6
CONTINUOUS
 10
937.4526038434
 20
376.1748236549
 11
937.395009317
 21
376.3591438584
  0
LINE
  5
49D
100
AcDbEntity
  8
BEZUGSACHSEN
100
AcDbLine
 62
7
  6
CONTINUOUS
 10
937.395009317
 20
376.3591438584
 11
937.2440396903
 21
376.8422831945
  0
LINE
  5
49E
100
AcDbEntity
  8
BEZUGSACHSEN
100
AcDbLine
 62
7
  6
CONTINUOUS
 10
937.2440396903
 20
376.8422831945
 11
937.1423344455
 21
377.1677566478
  0
LINE
  5
49F
100
AcDbEntity
  8
BEZUGSACHSEN
100
AcDbLine
 62
7
  6
CONTINUOUS
 10
937.1423344455
 20
377.1677566478
 11
937.0597353719
 21
377.4397104466
  0
LINE
  5
4A0
100
AcDbEntity
  8
BEZUGSACHSEN
100
AcDbLine
 62
7
  6
CONTINUOUS
 10
937.0597353719
 20
377.4397104466
 11
936.8938138326
 21
377.9858181064
  0
LINE
  5
4A1
100
AcDbEntity
  8
BEZUGSACHSEN
100
AcDbLine
 62
7
  6
CONTINUOUS
 10
936.8938138326
 20
377.9858181064
 11
936.8104915832
 21
378.259972033
  0
LINE
  5
4A2
100
AcDbEntity
  8
BEZUGSACHSEN
100
AcDbLine
 62
7
  6
CONTINUOUS
 10
936.8104915832
 20
378.259972033
 11
936.7452218192
 21
378.4836670451
  0
LINE
  5
4A3
100
AcDbEntity
  8
BEZUGSACHSEN
100
AcDbLine
 62
7
  6
CONTINUOUS
 10
936.7452218192
 20
378.4836670451
 11
936.6119193758
 21
378.9399963076
  0
LINE
  5
4A4
100
AcDbEntity
  8
BEZUGSACHSEN
100
AcDbLine
 62
7
  6
CONTINUOUS
 10
936.6119193758
 20
378.9399963076
 11
936.547801756
 21
379.1592388918
  0
LINE
  5
4A5
100
AcDbEntity
  8
0
100
AcDbLine
 62
7
  6
CONTINUOUS
 10
935.8125947233
 20
379.3876528731
 11
935.8411424924
 21
379.288690665
  0
LINE
  5
4A6
100
AcDbEntity
  8
BEZUGSACHSEN
100
AcDbLine
 62
7
  6
CONTINUOUS
 10
936.547801756
 20
379.1592388918
 11
936.4836020606
 21
379.3930016849
  0
LINE
  5
4A7
100
AcDbEntity
  8
BEZUGSACHSEN
100
AcDbLine
 62
7
  6
CONTINUOUS
 10
936.6852113012
 20
379.3469666401
 11
936.7350413118
 21
379.1911824299
  0
LINE
  5
4A8
100
AcDbEntity
  8
BEZUGSACHSEN
100
AcDbLine
 62
7
  6
CONTINUOUS
 10
936.7350413118
 20
379.1911824299
 11
936.7847619417
 21
379.0356982149
  0
LINE
  5
4A9
100
AcDbEntity
  8
BEZUGSACHSEN
100
AcDbLine
 62
7
  6
CONTINUOUS
 10
936.7847619417
 20
379.0356982149
 11
936.8343731561
 21
378.8805139858
  0
LINE
  5
4AA
100
AcDbEntity
  8
BEZUGSACHSEN
100
AcDbLine
 62
7
  6
CONTINUOUS
 10
936.8343731561
 20
378.8805139858
 11
936.8838749201
 21
378.7256297327
  0
LINE
  5
4AB
100
AcDbEntity
  8
BEZUGSACHSEN
100
AcDbLine
 62
7
  6
CONTINUOUS
 10
936.653387883
 20
379.4378927981
 11
936.6708027279
 21
379.3881684237
  0
LINE
  5
4AC
100
AcDbEntity
  8
BEZUGSACHSEN
100
AcDbLine
 62
7
  6
CONTINUOUS
 10
936.6708027279
 20
379.3881684237
 11
936.6852113012
 21
379.3469666401
  0
LINE
  5
4AD
100
AcDbEntity
  8
0
100
AcDbLine
 62
7
  6
CONTINUOUS
 10
938.7142076674
 20
352.6297172062
 11
938.0610794379
 21
353.2586774751
  0
LINE
  5
4AE
100
AcDbEntity
  8
BEZUGSACHSEN
100
AcDbLine
 62
7
  6
CONTINUOUS
 10
938.843630995
 20
372.2962409507
 11
938.8413458207
 21
372.3440415046
  0
LINE
  5
4AF
100
AcDbEntity
  8
BEZUGSACHSEN
100
AcDbLine
 62
7
  6
CONTINUOUS
 10
938.8413458207
 20
372.3440415046
 11
938.8050439072
 21
372.4936211223
  0
LINE
  5
4B0
100
AcDbEntity
  8
BEZUGSACHSEN
100
AcDbLine
 62
7
  6
CONTINUOUS
 10
938.8050439072
 20
372.4936211223
 11
938.7866260894
 21
372.5684170546
  0
LINE
  5
4B1
100
AcDbEntity
  8
BEZUGSACHSEN
100
AcDbLine
 62
7
  6
CONTINUOUS
 10
938.7866260894
 20
372.5684170546
 11
938.7680311655
 21
372.6432171044
  0
LINE
  5
4B2
100
AcDbEntity
  8
BEZUGSACHSEN
100
AcDbLine
 62
7
  6
CONTINUOUS
 10
938.7680311655
 20
372.6432171044
 11
938.7331694906
 21
372.7657833874
  0
LINE
  5
4B3
100
AcDbEntity
  8
BEZUGSACHSEN
100
AcDbLine
 62
7
  6
CONTINUOUS
 10
938.7331694906
 20
372.7657833874
 11
938.6981258797
 21
372.8886595155
  0
LINE
  5
4B4
100
AcDbEntity
  8
BEZUGSACHSEN
100
AcDbLine
 62
7
  6
CONTINUOUS
 10
938.6981258797
 20
372.8886595155
 11
938.662900268
 21
373.0118454786
  0
LINE
  5
4B5
100
AcDbEntity
  8
BEZUGSACHSEN
100
AcDbLine
 62
7
  6
CONTINUOUS
 10
938.662900268
 20
373.0118454786
 11
938.6274925929
 21
373.1353412668
  0
SPLINE
  5
4B6
100
AcDbEntity
  8
0
100
AcDbSpline
 62
7
  6
CONTINUOUS
 70
0
 71
3
 72
9
 73
5
 74
0
 42
0.0000001
 43
0.0000001
 44
0.0000000001
 40
0.0
 40
0.0
 40
0.0
 40
0.0
 40
0.5000053871
 40
1.0
 40
1.0
 40
1.0
 40
1.0
 10
932.5025901959
 20
345.2816685104
 30
0.0
 10
932.9503572564
 20
340.855318869
 30
0.0
 10
933.5796948706
 20
331.9727437971
 30
0.0
 10
933.5874257373
 20
323.0664265437
 30
0.0
 10
933.4352828327
 20
318.6201847574
 30
0.0
  0
LINE
  5
4B7
100
AcDbEntity
  8
BEZUGSACHSEN
100
AcDbLine
 62
7
  6
CONTINUOUS
 10
938.6274925929
 20
373.1353412668
 11
938.5259775781
 21
373.4666827326
  0
LINE
  5
4B8
100
AcDbEntity
  8
BEZUGSACHSEN
100
AcDbLine
 62
7
  6
CONTINUOUS
 10
938.5259775781
 20
373.4666827326
 11
938.4750775252
 21
373.6327826278
  0
LINE
  5
4B9
100
AcDbEntity
  8
BEZUGSACHSEN
100
AcDbLine
 62
7
  6
CONTINUOUS
 10
938.4750775252
 20
373.6327826278
 11
938.4240824833
 21
373.7991686436
  0
SPLINE
  5
4BA
100
AcDbEntity
  8
0
100
AcDbSpline
 62
7
  6
CONTINUOUS
 70
0
 71
3
 72
9
 73
5
 74
0
 42
0.0000001
 43
0.0000001
 44
0.0000000001
 40
0.0
 40
0.0
 40
0.0
 40
0.0
 40
0.5000000005
 40
1.0
 40
1.0
 40
1.0
 40
1.0
 10
932.5025901959
 20
377.8769974617
 30
0.0
 10
933.1780105401
 20
372.4753609441
 30
0.0
 10
933.9161499372
 20
361.57933298
 30
0.0
 10
933.1780105387
 20
350.6833050162
 30
0.0
 10
932.5025901959
 20
345.2816685104
 30
0.0
  0
LINE
  5
4BB
100
AcDbEntity
  8
BEZUGSACHSEN
100
AcDbLine
 62
7
  6
CONTINUOUS
 10
937.8883950024
 20
375.5127205224
 11
937.9442471451
 21
375.3340675075
  0
LINE
  5
4BC
100
AcDbEntity
  8
BEZUGSACHSEN
100
AcDbLine
 62
7
  6
CONTINUOUS
 10
937.9442471451
 20
375.3340675075
 11
938.1497760315
 21
374.6766344409
  0
LINE
  5
4BD
100
AcDbEntity
  8
BEZUGSACHSEN
100
AcDbLine
 62
7
  6
CONTINUOUS
 10
938.1497760315
 20
374.6766344409
 11
938.2905967079
 21
374.2261744812
  0
LINE
  5
4BE
100
AcDbEntity
  8
BEZUGSACHSEN
100
AcDbLine
 62
7
  6
CONTINUOUS
 10
938.2905967079
 20
374.2261744812
 11
938.4240824833
 21
373.7991686436
  0
SPLINE
  5
4BF
100
AcDbEntity
  8
0
100
AcDbSpline
 62
7
  6
CONTINUOUS
 70
0
 71
3
 72
11
 73
7
 74
0
 42
0.0000001
 43
0.0000001
 44
0.0000000001
 40
0.0
 40
0.0
 40
0.0
 40
0.0
 40
0.2530106614
 40
0.5000000005
 40
0.7469893397
 40
1.0
 40
1.0
 40
1.0
 40
1.0
 10
932.5025901959
 20
390.3273052467
 30
0.0
 10
932.834890734
 20
389.312209559
 30
0.0
 10
933.3610027056
 20
387.2587415711
 30
0.0
 10
933.6389985696
 20
384.1021513473
 30
0.0
 10
933.361002715
 20
380.9455611258
 30
0.0
 10
932.8348907325
 20
378.892093145
 30
0.0
 10
932.5025901959
 20
377.8769974617
 30
0.0
  0
LINE
  5
4C0
100
AcDbEntity
  8
BEZUGSACHSEN
100
AcDbLine
 62
7
  6
CONTINUOUS
 10
939.4619951871
 20
348.2825435245
 11
939.1070505276
 21
348.9220246891
  0
LINE
  5
4C1
100
AcDbEntity
  8
BEZUGSACHSEN
100
AcDbLine
 62
7
  6
CONTINUOUS
 10
939.1070505276
 20
348.9220246891
 11
937.6999662174
 21
351.4568790706
  0
LINE
  5
4C2
100
AcDbEntity
  8
BEZUGSACHSEN
100
AcDbLine
 62
7
  6
CONTINUOUS
 10
937.6999662174
 20
351.4568790706
 11
937.2979161703
 21
352.1811190624
  0
LINE
  5
4C3
100
AcDbEntity
  8
BEZUGSACHSEN
100
AcDbLine
 62
7
  6
CONTINUOUS
 10
937.2979161703
 20
352.1811190624
 11
936.313054997
 21
353.9551354151
  0
SPLINE
  5
4C4
100
AcDbEntity
  8
0
100
AcDbSpline
 62
7
  6
CONTINUOUS
 70
0
 71
3
 72
8
 73
4
 74
0
 42
0.0000001
 43
0.0000001
 44
0.0000000001
 40
0.0
 40
0.0
 40
0.0
 40
0.0
 40
1.0
 40
1.0
 40
1.0
 40
1.0
 10
935.3769429817
 20
353.9551354151
 30
0.0
 10
936.4823358888
 20
352.0644430608
 30
0.0
 10
937.587499566
 20
350.1736166286
 30
0.0
 10
938.6922409713
 20
348.2825435245
 30
0.0
  0
LINE
  5
4C5
100
AcDbEntity
  8
0
100
AcDbLine
 62
7
  6
CONTINUOUS
 10
936.8203511208
 20
354.3808933726
 11
936.8204909678
 21
354.1928190863
  0
LINE
  5
4C6
100
AcDbEntity
  8
0
100
AcDbLine
 62
7
  6
CONTINUOUS
 10
936.8204909678
 20
354.1928190863
 11
936.8200568587
 21
353.8974383415
  0
LINE
  5
4C7
100
AcDbEntity
  8
BEZUGSACHSEN
100
AcDbLine
 62
7
  6
CONTINUOUS
 10
937.5019142525
 20
376.6066758532
 11
937.6026058487
 21
376.2849112297
  0
LINE
  5
4C8
100
AcDbEntity
  8
BEZUGSACHSEN
100
AcDbLine
 62
7
  6
CONTINUOUS
 10
937.6026058487
 20
376.2849112297
 11
937.703198414
 21
375.9634624084
  0
LINE
  5
4C9
100
AcDbEntity
  8
BEZUGSACHSEN
100
AcDbLine
 62
7
  6
CONTINUOUS
 10
937.703198414
 20
375.9634624084
 11
937.9040864397
 21
375.3215121691
  0
LINE
  5
4CA
100
AcDbEntity
  8
BEZUGSACHSEN
100
AcDbLine
 62
7
  6
CONTINUOUS
 10
936.8289024581
 20
357.1965303763
 11
936.878471102
 21
357.1409009916
  0
LINE
  5
4CB
100
AcDbEntity
  8
BEZUGSACHSEN
100
AcDbLine
 62
7
  6
CONTINUOUS
 10
936.878471102
 20
357.1409009916
 11
936.9143299674
 21
357.1006470998
  0
LINE
  5
4CC
100
AcDbEntity
  8
BEZUGSACHSEN
100
AcDbLine
 62
7
  6
CONTINUOUS
 10
936.9143299674
 20
357.1006470998
 11
937.0264907184
 21
356.9746813657
  0
LINE
  5
4CD
100
AcDbEntity
  8
BEZUGSACHSEN
100
AcDbLine
 62
7
  6
CONTINUOUS
 10
937.0264907184
 20
356.9746813657
 11
937.2272173594
 21
356.6126007373
  0
LINE
  5
4CE
100
AcDbEntity
  8
BEZUGSACHSEN
100
AcDbLine
 62
7
  6
CONTINUOUS
 10
937.4311953749
 20
356.1102891674
 11
937.2272173594
 21
356.6126007373
  0
LINE
  5
4CF
100
AcDbEntity
  8
BEZUGSACHSEN
100
AcDbLine
 62
7
  6
CONTINUOUS
 10
937.5711039411
 20
355.5884393467
 11
937.4311953749
 21
356.1102891674
  0
LINE
  5
4D0
100
AcDbEntity
  8
0
100
AcDbLine
 62
7
  6
CONTINUOUS
 10
936.6524272268
 20
355.9134064691
 11
936.7425527097
 21
355.5884393467
  0
LINE
  5
4D1
100
AcDbEntity
  8
BEZUGSACHSEN
100
AcDbLine
 62
7
  6
CONTINUOUS
 10
936.2268065073
 20
365.3291081064
 11
938.0213184744
 21
361.3488576515
  0
LINE
  5
4D2
100
AcDbEntity
  8
BEZUGSACHSEN
100
AcDbLine
 62
7
  6
CONTINUOUS
 10
938.0213184744
 20
361.3488576515
 11
938.3013064593
 21
360.7276959963
  0
LINE
  5
4D3
100
AcDbEntity
  8
0
100
AcDbLine
 62
7
  6
CONTINUOUS
 10
937.5843721197
 20
360.7276959963
 11
936.6970883448
 21
362.5925755737
  0
LINE
  5
4D4
100
AcDbEntity
  8
0
100
AcDbLine
 62
7
  6
CONTINUOUS
 10
936.6970883448
 20
362.5925755737
 11
935.3949616837
 21
365.3291081064
  0
LINE
  5
4D5
100
AcDbEntity
  8
BEZUGSACHSEN
100
AcDbLine
 62
7
  6
CONTINUOUS
 10
938.5722305049
 20
360.0111481808
 11
938.3692299042
 21
360.5480701091
  0
LINE
  5
4D6
100
AcDbEntity
  8
BEZUGSACHSEN
100
AcDbLine
 62
7
  6
CONTINUOUS
 10
938.3692299042
 20
360.5480701091
 11
938.3013064593
 21
360.7276959963
  0
LINE
  5
4D7
100
AcDbEntity
  8
0
100
AcDbLine
 62
7
  6
CONTINUOUS
 10
937.5843721197
 20
360.7276959963
 11
937.8690509827
 21
360.0111481808
  0
LINE
  5
4D8
100
AcDbEntity
  8
BEZUGSACHSEN
100
AcDbLine
 62
7
  6
CONTINUOUS
 10
938.7791528059
 20
359.3202163954
 11
938.5722305049
 21
360.0111481808
  0
LINE
  5
4D9
100
AcDbEntity
  8
0
100
AcDbLine
 62
7
  6
CONTINUOUS
 10
937.8690509827
 20
360.0111481808
 11
938.084819006
 21
359.3202163954
  0
LINE
  5
4DA
100
AcDbEntity
  8
0
100
AcDbLine
 62
7
  6
CONTINUOUS
 10
938.3043387467
 20
358.015198703
 11
938.304701371
 21
357.8394131769
  0
LINE
  5
4DB
100
AcDbEntity
  8
BEZUGSACHSEN
100
AcDbLine
 62
7
  6
CONTINUOUS
 10
938.9855260153
 20
357.4382200679
 11
939.0014273057
 21
357.5239302011
  0
LINE
  5
4DC
100
AcDbEntity
  8
BEZUGSACHSEN
100
AcDbLine
 62
7
  6
CONTINUOUS
 10
937.3774543234
 20
375.5223614786
 11
937.2392492774
 21
376.0341126149
  0
LINE
  5
4DD
100
AcDbEntity
  8
BEZUGSACHSEN
100
AcDbLine
 62
7
  6
CONTINUOUS
 10
937.2392492774
 20
376.0341126149
 11
937.0359891741
 21
376.7029827436
  0
LINE
  5
4DE
100
AcDbEntity
  8
BEZUGSACHSEN
100
AcDbLine
 62
7
  6
CONTINUOUS
 10
938.3232788884
 20
357.0431836375
 11
938.0483477327
 21
357.6522931688
  0
LINE
  5
4DF
100
AcDbEntity
  8
BEZUGSACHSEN
100
AcDbLine
 62
7
  6
CONTINUOUS
 10
938.0483477327
 20
357.6522931688
 11
936.2462257274
 21
361.6445957476
  0
LINE
  5
4E0
100
AcDbEntity
  8
0
100
AcDbLine
 62
7
  6
CONTINUOUS
 10
935.3800140489
 20
361.6445957476
 11
936.9704388679
 21
358.2991756358
  0
LINE
  5
4E1
100
AcDbEntity
  8
0
100
AcDbLine
 62
7
  6
CONTINUOUS
 10
936.9704388679
 20
358.2991756358
 11
937.0280435963
 21
358.1779864893
  0
LINE
  5
4E2
100
AcDbEntity
  8
0
100
AcDbLine
 62
7
  6
CONTINUOUS
 10
937.0280435963
 20
358.1779864893
 11
937.0417334531
 21
358.1491854776
  0
LINE
  5
4E3
100
AcDbEntity
  8
0
100
AcDbLine
 62
7
  6
CONTINUOUS
 10
937.0417334531
 20
358.1491854776
 11
937.1639391181
 21
357.8920828999
  0
LINE
  5
4E4
100
AcDbEntity
  8
0
100
AcDbLine
 62
7
  6
CONTINUOUS
 10
937.1639391181
 20
357.8920828999
 11
937.4003699532
 21
357.3946482026
  0
LINE
  5
4E5
100
AcDbEntity
  8
0
100
AcDbLine
 62
7
  6
CONTINUOUS
 10
937.4003699532
 20
357.3946482026
 11
937.5674136283
 21
357.0431836375
  0
LINE
  5
4E6
100
AcDbEntity
  8
BEZUGSACHSEN
100
AcDbLine
 62
7
  6
CONTINUOUS
 10
938.3232788884
 20
357.0431836375
 11
938.6600983184
 21
356.4238377957
  0
LINE
  5
4E7
100
AcDbEntity
  8
0
100
AcDbLine
 62
7
  6
CONTINUOUS
 10
937.9234957843
 20
356.4238377957
 11
937.8347450254
 21
356.5782167682
  0
LINE
  5
4E8
100
AcDbEntity
  8
0
100
AcDbLine
 62
7
  6
CONTINUOUS
 10
937.8347450254
 20
356.5782167682
 11
937.6363938728
 21
356.9232136315
  0
LINE
  5
4E9
100
AcDbEntity
  8
0
100
AcDbLine
 62
7
  6
CONTINUOUS
 10
937.6363938728
 20
356.9232136315
 11
937.5674136283
 21
357.0431836375
  0
LINE
  5
4EA
100
AcDbEntity
  8
BEZUGSACHSEN
100
AcDbLine
 62
7
  6
CONTINUOUS
 10
938.6600983184
 20
356.4238377957
 11
938.9313086882
 21
356.0757414283
  0
LINE
  5
4EB
100
AcDbEntity
  8
0
100
AcDbLine
 62
7
  6
CONTINUOUS
 10
938.2119788056
 20
356.0757414283
 11
937.9960123948
 21
356.3364002447
  0
LINE
  5
4EC
100
AcDbEntity
  8
0
100
AcDbLine
 62
7
  6
CONTINUOUS
 10
937.9960123948
 20
356.3364002447
 11
937.9234957843
 21
356.4238377957
  0
LINE
  5
4ED
100
AcDbEntity
  8
BEZUGSACHSEN
100
AcDbLine
 62
7
  6
CONTINUOUS
 10
936.835077712
 20
377.3224743152
 11
937.0359891741
 21
376.7029827436
  0
LINE
  5
4EE
100
AcDbEntity
  8
BEZUGSACHSEN
100
AcDbLine
 62
7
  6
CONTINUOUS
 10
936.6364342001
 20
377.8925861728
 11
936.6862589548
 21
377.7496458988
  0
LINE
  5
4EF
100
AcDbEntity
  8
BEZUGSACHSEN
100
AcDbLine
 62
7
  6
CONTINUOUS
 10
936.6862589548
 20
377.7496458988
 11
936.791215723
 21
377.4484127993
  0
LINE
  5
4F0
100
AcDbEntity
  8
BEZUGSACHSEN
100
AcDbLine
 62
7
  6
CONTINUOUS
 10
936.791215723
 20
377.4484127993
 11
936.835077712
 21
377.3224743152
  0
LINE
  5
4F1
100
AcDbEntity
  8
BEZUGSACHSEN
100
AcDbLine
 62
7
  6
CONTINUOUS
 10
936.5065113681
 20
378.2068230273
 11
936.6041351483
 21
377.970862833
  0
LINE
  5
4F2
100
AcDbEntity
  8
BEZUGSACHSEN
100
AcDbLine
 62
7
  6
CONTINUOUS
 10
936.6041351483
 20
377.970862833
 11
936.6364342001
 21
377.8925861728
  0
LINE
  5
4F3
100
AcDbEntity
  8
BEZUGSACHSEN
100
AcDbLine
 62
7
  6
CONTINUOUS
 10
939.3294060626
 20
360.0207428398
 11
939.040997848
 21
360.7642873686
  0
LINE
  5
4F4
100
AcDbEntity
  8
BEZUGSACHSEN
100
AcDbLine
 62
7
  6
CONTINUOUS
 10
939.040997848
 20
360.7642873686
 11
938.7237356188
 21
361.5821808846
  0
LINE
  5
4F5
100
AcDbEntity
  8
BEZUGSACHSEN
100
AcDbLine
 62
7
  6
CONTINUOUS
 10
938.7237356188
 20
361.5821808846
 11
938.7050945195
 21
361.6302358992
  0
LINE
  5
4F6
100
AcDbEntity
  8
BEZUGSACHSEN
100
AcDbLine
 62
7
  6
CONTINUOUS
 10
938.7050945195
 20
361.6302358992
 11
938.5577098389
 21
362.0101751526
  0
LINE
  5
4F7
100
AcDbEntity
  8
BEZUGSACHSEN
100
AcDbLine
 62
7
  6
CONTINUOUS
 10
938.5577098389
 20
362.0101751526
 11
936.3794837336
 21
367.62452855
  0
LINE
  5
4F8
100
AcDbEntity
  8
BEZUGSACHSEN
100
AcDbLine
 62
7
  6
CONTINUOUS
 10
936.3794837336
 20
367.62452855
 11
936.1817661909
 21
368.1340763845
  0
LINE
  5
4F9
100
AcDbEntity
  8
0
100
AcDbLine
 62
7
  6
CONTINUOUS
 10
935.3737064687
 20
368.1340763845
 11
936.2170470387
 21
366.0704147238
  0
SPLINE
  5
4FA
100
AcDbEntity
  8
0
100
AcDbSpline
 62
7
  6
CONTINUOUS
 70
0
 71
3
 72
8
 73
4
 74
0
 42
0.0000001
 43
0.0000001
 44
0.0000000001
 40
0.0
 40
0.0
 40
0.0
 40
0.0
 40
1.0
 40
1.0
 40
1.0
 40
1.0
 10
935.3769429953
 20
378.0631993903
 30
0.0
 10
936.4823950537
 20
374.828199885
 30
0.0
 10
937.5875716203
 20
371.5931061984
 30
0.0
 10
938.6922409878
 20
368.3578393407
 30
0.0
  0
LINE
  5
4FB
100
AcDbEntity
  8
BEZUGSACHSEN
100
AcDbLine
 62
7
  6
CONTINUOUS
 10
939.2421412284
 20
368.3578393407
 11
939.1566295079
 21
368.6216583386
  0
LINE
  5
4FC
100
AcDbEntity
  8
BEZUGSACHSEN
100
AcDbLine
 62
7
  6
CONTINUOUS
 10
939.1566295079
 20
368.6216583386
 11
937.750734778
 21
372.9584560078
  0
LINE
  5
4FD
100
AcDbEntity
  8
BEZUGSACHSEN
100
AcDbLine
 62
7
  6
CONTINUOUS
 10
937.750734778
 20
372.9584560078
 11
937.6903772719
 21
373.1446178184
  0
LINE
  5
4FE
100
AcDbEntity
  8
BEZUGSACHSEN
100
AcDbLine
 62
7
  6
CONTINUOUS
 10
937.6903772719
 20
373.1446178184
 11
937.504900373
 21
373.7166765239
  0
LINE
  5
4FF
100
AcDbEntity
  8
BEZUGSACHSEN
100
AcDbLine
 62
7
  6
CONTINUOUS
 10
937.504900373
 20
373.7166765239
 11
937.3489914956
 21
374.197526958
  0
LINE
  5
500
100
AcDbEntity
  8
BEZUGSACHSEN
100
AcDbLine
 62
7
  6
CONTINUOUS
 10
937.3489914956
 20
374.197526958
 11
936.3445328539
 21
377.2951926711
  0
LINE
  5
501
100
AcDbEntity
  8
BEZUGSACHSEN
100
AcDbLine
 62
7
  6
CONTINUOUS
 10
936.3445328539
 20
377.2951926711
 11
936.0954756968
 21
378.0631993903
  0
LINE
  5
502
100
AcDbEntity
  8
BEZUGSACHSEN
100
AcDbLine
 62
7
  6
CONTINUOUS
 10
937.8543674905
 20
373.829987947
 11
938.1181756559
 21
373.0856588315
  0
LINE
  5
503
100
AcDbEntity
  8
BEZUGSACHSEN
100
AcDbLine
 62
7
  6
CONTINUOUS
 10
938.1181756559
 20
373.0856588315
 11
938.2117190957
 21
372.8214124197
  0
LINE
  5
504
100
AcDbEntity
  8
BEZUGSACHSEN
100
AcDbLine
 62
7
  6
CONTINUOUS
 10
939.1349541183
 20
370.2037016182
 11
939.2456402985
 21
369.8885812405
  0
LINE
  5
505
100
AcDbEntity
  8
BEZUGSACHSEN
100
AcDbLine
 62
7
  6
CONTINUOUS
 10
936.7460223832
 20
369.7394989253
 11
936.7774438883
 21
369.7293962258
  0
LINE
  5
506
100
AcDbEntity
  8
BEZUGSACHSEN
100
AcDbLine
 62
7
  6
CONTINUOUS
 10
936.7774438883
 20
369.7293962258
 11
936.8122629022
 21
369.6733130459
  0
LINE
  5
507
100
AcDbEntity
  8
BEZUGSACHSEN
100
AcDbLine
 62
7
  6
CONTINUOUS
 10
936.8122629022
 20
369.6733130459
 11
936.8264985709
 21
369.6503722223
  0
LINE
  5
508
100
AcDbEntity
  8
BEZUGSACHSEN
100
AcDbLine
 62
7
  6
CONTINUOUS
 10
936.8264985709
 20
369.6503722223
 11
936.9725143538
 21
369.4146810701
  0
LINE
  5
509
100
AcDbEntity
  8
BEZUGSACHSEN
100
AcDbLine
 62
7
  6
CONTINUOUS
 10
936.9725143538
 20
369.4146810701
 11
937.0389025431
 21
369.266933768
  0
LINE
  5
50A
100
AcDbEntity
  8
BEZUGSACHSEN
100
AcDbLine
 62
7
  6
CONTINUOUS
 10
937.0389025431
 20
369.266933768
 11
937.2370333903
 21
368.8257629094
  0
LINE
  5
50B
100
AcDbEntity
  8
BEZUGSACHSEN
100
AcDbLine
 62
7
  6
CONTINUOUS
 10
937.2370333903
 20
368.8257629094
 11
937.991429759
 21
366.8793014456
  0
LINE
  5
50C
100
AcDbEntity
  8
BEZUGSACHSEN
100
AcDbLine
 62
7
  6
CONTINUOUS
 10
937.991429759
 20
366.8793014456
 11
938.0320991722
 21
366.7743574202
  0
LINE
  5
50D
100
AcDbEntity
  8
BEZUGSACHSEN
100
AcDbLine
 62
7
  6
CONTINUOUS
 10
938.0320991722
 20
366.7743574202
 11
938.240568702
 21
366.2364012067
  0
LINE
  5
50E
100
AcDbEntity
  8
0
100
AcDbLine
 62
7
  6
CONTINUOUS
 10
937.5794711924
 20
366.2364012067
 11
936.9227170382
 21
367.8422092079
  0
LINE
  5
50F
100
AcDbEntity
  8
0
100
AcDbLine
 62
7
  6
CONTINUOUS
 10
936.9227170382
 20
367.8422092079
 11
936.5990786669
 21
368.6334775416
  0
LINE
  5
510
100
AcDbEntity
  8
BEZUGSACHSEN
100
AcDbLine
 62
7
  6
CONTINUOUS
 10
938.5115734935
 20
365.4443265883
 11
938.3085101773
 21
366.0378476992
  0
LINE
  5
511
100
AcDbEntity
  8
BEZUGSACHSEN
100
AcDbLine
 62
7
  6
CONTINUOUS
 10
938.3085101773
 20
366.0378476992
 11
938.240568702
 21
366.2364012067
  0
LINE
  5
512
100
AcDbEntity
  8
0
100
AcDbLine
 62
7
  6
CONTINUOUS
 10
937.5794711924
 20
366.2364012067
 11
937.8644463846
 21
365.4443265883
  0
LINE
  5
513
100
AcDbEntity
  8
BEZUGSACHSEN
100
AcDbLine
 62
7
  6
CONTINUOUS
 10
938.7187130236
 20
364.723296676
 11
938.5115734935
 21
365.4443265883
  0
LINE
  5
514
100
AcDbEntity
  8
0
100
AcDbLine
 62
7
  6
CONTINUOUS
 10
937.8644463846
 20
365.4443265883
 11
938.0809292327
 21
364.723296676
  0
LINE
  5
515
100
AcDbEntity
  8
0
100
AcDbLine
 62
7
  6
CONTINUOUS
 10
938.3031552247
 20
363.4943743363
 11
938.3042874787
 21
363.3039981925
  0
SPLINE
  5
516
100
AcDbEntity
  8
KONSTRUKTIONSELEMENTE
100
AcDbSpline
 62
7
  6
CONTINUOUS
 70
0
 71
3
 72
9
 73
5
 74
0
 42
0.0000001
 43
0.0000001
 44
0.0000000001
 40
0.0
 40
0.0
 40
0.0
 40
0.0
 40
0.2752644152
 40
1.0
 40
1.0
 40
1.0
 40
1.0
 10
272.7353155005
 20
277.8656915679
 30
0.0
 10
272.7353155005
 20
277.8087937051
 30
0.0
 10
272.6749873354
 20
277.6050032215
 30
0.0
 10
272.5453282715
 20
277.4379997939
 30
0.0
 10
272.4432281238
 20
277.3283776657
 30
0.0
  0
SPLINE
  5
517
100
AcDbEntity
  8
KONSTRUKTIONSELEMENTE
100
AcDbSpline
 62
7
  6
CONTINUOUS
 70
0
 71
3
 72
9
 73
5
 74
0
 42
0.0000001
 43
0.0000001
 44
0.0000000001
 40
0.0
 40
0.0
 40
0.0
 40
0.0
 40
0.7247302759
 40
1.0
 40
1.0
 40
1.0
 40
1.0
 10
265.4273754628
 20
277.3284075687
 30
0.0
 10
265.3252931814
 20
277.4380315316
 30
0.0
 10
265.1956363491
 20
277.6050173722
 30
0.0
 10
265.1353155005
 20
277.8087963058
 30
0.0
 10
265.1353155005
 20
277.8656915679
 30
0.0
  0
SPLINE
  5
518
100
AcDbEntity
  8
KONSTRUKTIONSELEMENTE
100
AcDbSpline
 62
7
  6
CONTINUOUS
 70
0
 71
3
 72
11
 73
7
 74
0
 42
0.0000001
 43
0.0000001
 44
0.0000000001
 40
0.0
 40
0.0
 40
0.0
 40
0.0
 40
0.2408202235
 40
0.4857692881
 40
0.7382288044
 40
1.0
 40
1.0
 40
1.0
 40
1.0
 10
279.0583318181
 20
276.8523941478
 30
0.0
 10
278.9387370212
 20
276.0679941944
 30
0.0
 10
278.408822537
 20
274.5179392648
 30
0.0
 10
276.8980971012
 20
272.5652363695
 30
0.0
 10
274.8518013373
 20
271.0780312884
 30
0.0
 10
273.2652833186
 20
270.436145981
 30
0.0
 10
272.4359503378
 20
270.1992828463
 30
0.0
  0
SPLINE
  5
519
100
AcDbEntity
  8
KONSTRUKTIONSELEMENTE
100
AcDbSpline
 62
7
  6
CONTINUOUS
 70
0
 71
3
 72
11
 73
7
 74
0
 42
0.0000001
 43
0.0000001
 44
0.0000000001
 40
0.0
 40
0.0
 40
0.0
 40
0.0
 40
0.2617688774
 40
0.5142071701
 40
0.7591375536
 40
1.0
 40
1.0
 40
1.0
 40
1.0
 10
265.4298797188
 20
270.2006753971
 30
0.0
 10
264.6010485144
 20
270.4377334229
 30
0.0
 10
263.0156249546
 20
271.0798980751
 30
0.0
 10
260.9709759766
 20
272.5669524129
 30
0.0
 10
259.4612440415
 20
274.5188960035
 30
0.0
 10
258.9318664473
 20
276.0683550122
 30
0.0
 10
258.8123139974
 20
276.8525100504
 30
0.0
  0
SPLINE
  5
51A
100
AcDbEntity
  8
KONSTRUKTIONSELEMENTE
100
AcDbSpline
 62
7
  6
CONTINUOUS
 70
0
 71
3
 72
10
 73
6
 74
0
 42
0.0000001
 43
0.0000001
 44
0.0000000001
 40
0.0
 40
0.0
 40
0.0
 40
0.0
 40
0.2488347756
 40
0.5438407514
 40
1.0
 40
1.0
 40
1.0
 40
1.0
 10
272.7353155005
 20
303.3215356907
 30
0.0
 10
272.7353155005
 20
303.2364914293
 30
0.0
 10
272.6614267735
 20
303.0557270481
 30
0.0
 10
272.4590205294
 20
302.7818469224
 30
0.0
 10
272.2660744143
 20
302.6078700564
 30
0.0
 10
272.1428747346
 20
302.5123340363
 30
0.0
  0
SPLINE
  5
51B
100
AcDbEntity
  8
KONSTRUKTIONSELEMENTE
100
AcDbSpline
 62
7
  6
CONTINUOUS
 70
0
 71
3
 72
10
 73
6
 74
0
 42
0.0000001
 43
0.0000001
 44
0.0000000001
 40
0.0
 40
0.0
 40
0.0
 40
0.0
 40
0.4561635586
 40
0.7511952336
 40
1.0
 40
1.0
 40
1.0
 40
1.0
 10
265.7279520809
 20
302.5121693596
 30
0.0
 10
265.6047082181
 20
302.6077132888
 30
0.0
 10
265.4117093567
 20
302.7817454901
 30
0.0
 10
265.2092396262
 20
303.0556779208
 30
0.0
 10
265.1353155005
 20
303.236480801
 30
0.0
 10
265.1353155005
 20
303.3215356907
 30
0.0
  0
SPLINE
  5
51C
100
AcDbEntity
  8
KONSTRUKTIONSELEMENTE
100
AcDbSpline
 62
7
  6
CONTINUOUS
 70
0
 71
3
 72
9
 73
5
 74
0
 42
0.0000001
 43
0.0000001
 44
0.0000000001
 40
0.0
 40
0.0
 40
0.0
 40
0.0
 40
0.2506798846
 40
1.0
 40
1.0
 40
1.0
 40
1.0
 10
279.1353155005
 20
303.3215356907
 30
0.0
 10
279.1353155005
 20
303.1312977847
 30
0.0
 10
279.1030979472
 20
302.372677747
 30
0.0
 10
278.9407581933
 20
301.6201775662
 30
0.0
 10
278.7533284677
 20
301.0833043974
 30
0.0
  0
SPLINE
  5
51D
100
AcDbEntity
  8
KONSTRUKTIONSELEMENTE
100
AcDbSpline
 62
7
  6
CONTINUOUS
 70
0
 71
3
 72
9
 73
5
 74
0
 42
0.0000001
 43
0.0000001
 44
0.0000000001
 40
0.0
 40
0.0
 40
0.0
 40
0.0
 40
0.2506756262
 40
1.0
 40
1.0
 40
1.0
 40
1.0
 10
259.117147445
 20
301.0836831112
 30
0.0
 10
259.0544835283
 20
301.2632583382
 30
0.0
 10
258.8337021785
 20
301.9894656554
 30
0.0
 10
258.7353155005
 20
302.7530020208
 30
0.0
 10
258.7353155005
 20
303.3215356907
 30
0.0
  0
SPLINE
  5
51E
100
AcDbEntity
  8
BEZUGSACHSEN
100
AcDbSpline
 62
7
  6
CONTINUOUS
 70
0
 71
3
 72
9
 73
5
 74
0
 42
0.0000001
 43
0.0000001
 44
0.0000000001
 40
0.0
 40
0.0
 40
0.0
 40
0.0
 40
0.2374333836
 40
1.0
 40
1.0
 40
1.0
 40
1.0
 10
273.8313507236
 20
258.3454763162
 30
0.0
 10
273.7449733528
 20
258.2261253108
 30
0.0
 10
273.3507875588
 20
257.7455135905
 30
0.0
 10
272.8487343034
 20
257.3590017814
 30
0.0
 10
272.440242472
 20
257.1201916386
 30
0.0
  0
SPLINE
  5
51F
100
AcDbEntity
  8
BEZUGSACHSEN
100
AcDbSpline
 62
7
  6
CONTINUOUS
 70
0
 71
3
 72
9
 73
5
 74
0
 42
0.0000001
 43
0.0000001
 44
0.0000000001
 40
0.0
 40
0.0
 40
0.0
 40
0.0
 40
0.2639635848
 40
1.0
 40
1.0
 40
1.0
 40
1.0
 10
265.430388529
 20
257.1201916386
 30
0.0
 10
265.2890297559
 20
257.2028319907
 30
0.0
 10
264.7680864779
 20
257.5391938005
 30
0.0
 10
264.306969362
 20
257.9755997956
 30
0.0
 10
264.0392802774
 20
258.3454763162
 30
0.0
  0
SPLINE
  5
520
100
AcDbEntity
  8
KONSTRUKTIONSELEMENTE
100
AcDbSpline
 62
7
  6
CONTINUOUS
 70
0
 71
3
 72
12
 73
8
 74
0
 42
0.0000001
 43
0.0000001
 44
0.0000000001
 40
0.0
 40
0.0
 40
0.0
 40
0.0
 40
0.1038096184
 40
0.2125411153
 40
0.4501979882
 40
0.7163641136
 40
1.0
 40
1.0
 40
1.0
 40
1.0
 10
258.8590883979
 20
140.1046806937
 30
0.0
 10
258.7932539554
 20
140.4824013441
 30
0.0
 10
258.5575790677
 20
141.2411497668
 30
0.0
 10
257.6984516724
 20
142.6795843679
 30
0.0
 10
255.9383469868
 20
144.1935388327
 30
0.0
 10
253.2143967369
 20
145.3101853362
 30
0.0
 10
251.1729087349
 20
145.5660128079
 30
0.0
 10
250.1253155005
 20
145.5660128079
 30
0.0
  0
SPLINE
  5
521
100
AcDbEntity
  8
KONSTRUKTIONSELEMENTE
100
AcDbSpline
 62
7
  6
CONTINUOUS
 70
0
 71
3
 72
11
 73
7
 74
0
 42
0.0000001
 43
0.0000001
 44
0.0000000001
 40
0.0
 40
0.0
 40
0.0
 40
0.0
 40
0.2165107186
 40
0.451460212
 40
0.7134365312
 40
1.0
 40
1.0
 40
1.0
 40
1.0
 10
207.3365479189
 20
221.2932695795
 30
0.0
 10
207.3364587368
 20
221.5396094656
 30
0.0
 10
207.4581546108
 20
222.0586207298
 30
0.0
 10
207.9575076183
 20
222.7210748523
 30
0.0
 10
208.7031356606
 20
223.2315680396
 30
0.0
 10
209.29903681
 20
223.4401792689
 30
0.0
 10
209.616801806
 20
223.5131867047
 30
0.0
  0
SPLINE
  5
522
100
AcDbEntity
  8
KONSTRUKTIONSELEMENTE
100
AcDbSpline
 62
7
  6
CONTINUOUS
 70
0
 71
3
 72
11
 73
7
 74
0
 42
0.0000001
 43
0.0000001
 44
0.0000000001
 40
0.0
 40
0.0
 40
0.0
 40
0.0
 40
0.2165219707
 40
0.4514695353
 40
0.7134663306
 40
1.0
 40
1.0
 40
1.0
 40
1.0
 10
196.7961301143
 20
245.8735667085
 30
0.0
 10
196.7962458891
 20
246.6945318441
 30
0.0
 10
197.2024600855
 20
248.4239615484
 30
0.0
 10
198.8672498077
 20
250.6311641715
 30
0.0
 10
201.3523475381
 20
252.3317684933
 30
0.0
 10
203.3381022133
 20
253.0269600329
 30
0.0
 10
204.3969371798
 20
253.2702304588
 30
0.0
  0
SPLINE
  5
523
100
AcDbEntity
  8
KONSTRUKTIONSELEMENTE
100
AcDbSpline
 62
7
  6
CONTINUOUS
 70
0
 71
3
 72
9
 73
5
 74
0
 42
0.0000001
 43
0.0000001
 44
0.0000000001
 40
0.0
 40
0.0
 40
0.0
 40
0.0
 40
0.24703719
 40
1.0
 40
1.0
 40
1.0
 40
1.0
 10
196.7961301143
 20
242.3380328026
 30
0.0
 10
196.7961013736
 20
242.1342315442
 30
0.0
 10
196.8413277229
 20
241.3095026468
 30
0.0
 10
197.0751377141
 20
240.4980675019
 30
0.0
 10
197.3345024386
 20
239.9336247868
 30
0.0
  0
SPLINE
  5
524
100
AcDbEntity
  8
KONSTRUKTIONSELEMENTE
100
AcDbSpline
 62
7
  6
CONTINUOUS
 70
0
 71
3
 72
9
 73
5
 74
0
 42
0.0000001
 43
0.0000001
 44
0.0000000001
 40
0.0
 40
0.0
 40
0.0
 40
0.0
 40
0.24703719
 40
1.0
 40
1.0
 40
1.0
 40
1.0
 10
307.365561632
 20
166.5133739076
 30
0.0
 10
307.3655328914
 20
166.717175166
 30
0.0
 10
307.4107592407
 20
167.5419040634
 30
0.0
 10
307.6445692319
 20
168.3533392083
 30
0.0
 10
307.9039339564
 20
168.9177819234
 30
0.0
  0
SPLINE
  5
525
100
AcDbEntity
  8
KONSTRUKTIONSELEMENTE
100
AcDbSpline
 62
7
  6
CONTINUOUS
 70
0
 71
3
 72
11
 73
7
 74
0
 42
0.0000001
 43
0.0000001
 44
0.0000000001
 40
0.0
 40
0.0
 40
0.0
 40
0.0
 40
0.2197559531
 40
0.4591847907
 40
0.7203727702
 40
1.0
 40
1.0
 40
1.0
 40
1.0
 10
307.6507704533
 20
168.2900761559
 30
0.0
 10
307.8704354898
 20
167.6210607829
 30
0.0
 10
308.5866425381
 20
166.3004495297
 30
0.0
 10
310.2568144132
 20
164.66891744
 30
0.0
 10
312.434403191
 20
163.3984869661
 30
0.0
 10
314.0931219841
 20
162.852875046
 30
0.0
 10
314.9663686975
 20
162.6522440633
 30
0.0
  0
SPLINE
  5
526
100
AcDbEntity
  8
KONSTRUKTIONSELEMENTE
100
AcDbSpline
 62
7
  6
CONTINUOUS
 70
0
 71
3
 72
11
 73
7
 74
0
 42
0.0000001
 43
0.0000001
 44
0.0000000001
 40
0.0
 40
0.0
 40
0.0
 40
0.0
 40
0.2094829334
 40
0.4446557434
 40
0.7120095299
 40
1.0
 40
1.0
 40
1.0
 40
1.0
 10
254.5253155005
 20
117.564584273
 30
0.0
 10
254.5253155005
 20
117.2553498807
 30
0.0
 10
254.726147845
 20
116.5911838629
 30
0.0
 10
255.4950967318
 20
115.8306410902
 30
0.0
 10
256.5752407643
 20
115.3422828641
 30
0.0
 10
257.4001898992
 20
115.231131895
 30
0.0
 10
257.8253155005
 20
115.231131895
 30
0.0
  0
SPLINE
  5
527
100
AcDbEntity
  8
KONSTRUKTIONSELEMENTE
100
AcDbSpline
 62
7
  6
CONTINUOUS
 70
0
 71
3
 72
10
 73
6
 74
0
 42
0.0000001
 43
0.0000001
 44
0.0000000001
 40
0.0
 40
0.0
 40
0.0
 40
0.0
 40
0.2176045202
 40
0.4537200981
 40
1.0
 40
1.0
 40
1.0
 40
1.0
 10
329.3265580478
 20
158.7878784005
 30
0.0
 10
329.326551376
 20
158.8699779319
 30
0.0
 10
329.285856753
 20
159.0430057516
 30
0.0
 10
329.0542497287
 20
159.3503027697
 30
0.0
 10
328.7673481648
 20
159.4814287242
 30
0.0
 10
328.5664768805
 20
159.5275794884
 30
0.0
  0
SPLINE
  5
528
100
AcDbEntity
  8
BEZUGSACHSEN
100
AcDbSpline
 62
7
  6
CONTINUOUS
 70
0
 71
3
 72
10
 73
6
 74
0
 42
0.0000001
 43
0.0000001
 44
0.0000000001
 40
0.0
 40
0.0
 40
0.0
 40
0.0
 40
0.2291435722
 40
0.4687569581
 40
1.0
 40
1.0
 40
1.0
 40
1.0
 10
263.4353155005
 20
256.5817774542
 30
0.0
 10
263.4353155005
 20
256.8679732455
 30
0.0
 10
263.5298325465
 20
257.457203644
 30
0.0
 10
264.0900418656
 20
258.5894488718
 30
0.0
 10
264.8575804133
 20
259.2440253929
 30
0.0
 10
265.430388529
 20
259.5788971758
 30
0.0
  0
SPLINE
  5
529
100
AcDbEntity
  8
BEZUGSACHSEN
100
AcDbSpline
 62
7
  6
CONTINUOUS
 70
0
 71
3
 72
10
 73
6
 74
0
 42
0.0000001
 43
0.0000001
 44
0.0000000001
 40
0.0
 40
0.0
 40
0.0
 40
0.0
 40
0.5312430419
 40
0.7708564278
 40
1.0
 40
1.0
 40
1.0
 40
1.0
 10
272.440242472
 20
259.5788971758
 30
0.0
 10
273.0130505877
 20
259.2440253929
 30
0.0
 10
273.7805891354
 20
258.5894488718
 30
0.0
 10
274.3407984545
 20
257.457203644
 30
0.0
 10
274.4353155005
 20
256.8679732455
 30
0.0
 10
274.4353155005
 20
256.5817774542
 30
0.0
  0
SPLINE
  5
52A
100
AcDbEntity
  8
KONSTRUKTIONSELEMENTE
100
AcDbSpline
 62
7
  6
CONTINUOUS
 70
0
 71
3
 72
9
 73
5
 74
0
 42
0.0000001
 43
0.0000001
 44
0.0000000001
 40
0.0
 40
0.0
 40
0.0
 40
0.0
 40
0.2557501763
 40
1.0
 40
1.0
 40
1.0
 40
1.0
 10
365.6440205926
 20
234.1650132641
 30
0.0
 10
365.7320629341
 20
234.3566154891
 30
0.0
 10
366.0389980063
 20
235.1222343929
 30
0.0
 10
366.1823711378
 20
235.9545593021
 30
0.0
 10
366.1823898363
 20
236.568182158
 30
0.0
  0
SPLINE
  5
52B
100
AcDbEntity
  8
KONSTRUKTIONSELEMENTE
100
AcDbSpline
 62
7
  6
CONTINUOUS
 70
0
 71
3
 72
9
 73
5
 74
0
 42
0.0000001
 43
0.0000001
 44
0.0000000001
 40
0.0
 40
0.0
 40
0.0
 40
0.0
 40
0.5421687125
 40
1.0
 40
1.0
 40
1.0
 40
1.0
 10
363.5781023432
 20
232.186126988
 30
0.0
 10
363.8511896795
 20
232.123384375
 30
0.0
 10
364.3912317351
 20
232.1383165872
 30
0.0
 10
364.8653880681
 20
232.4705135323
 30
0.0
 10
364.964183205
 20
232.6855165377
 30
0.0
  0
SPLINE
  5
52C
100
AcDbEntity
  8
KONSTRUKTIONSELEMENTE
100
AcDbSpline
 62
7
  6
CONTINUOUS
 70
0
 71
3
 72
8
 73
4
 74
0
 42
0.0000001
 43
0.0000001
 44
0.0000000001
 40
0.0
 40
0.0
 40
0.0
 40
0.0
 40
1.0
 40
1.0
 40
1.0
 40
1.0
 10
329.2727203547
 20
155.0119384059
 30
0.0
 10
329.307008421
 20
155.0865578412
 30
0.0
 10
329.3265647213
 20
155.1702242681
 30
0.0
 10
329.3265580478
 20
155.2523444945
 30
0.0
  0
SPLINE
  5
52D
100
AcDbEntity
  8
KONSTRUKTIONSELEMENTE
100
AcDbSpline
 62
7
  6
CONTINUOUS
 70
0
 71
3
 72
11
 73
7
 74
0
 42
0.0000001
 43
0.0000001
 44
0.0000000001
 40
0.0
 40
0.0
 40
0.0
 40
0.0
 40
0.2773556544
 40
0.5416273378
 40
0.7832845041
 40
1.0
 40
1.0
 40
1.0
 40
1.0
 10
316.9402945598
 20
145.5660128079
 30
0.0
 10
318.0804956141
 20
145.5660128079
 30
0.0
 10
320.3155148202
 20
145.8094530473
 30
0.0
 10
323.3830370014
 20
146.886234316
 30
0.0
 10
325.8693078394
 20
148.5821291584
 30
0.0
 10
327.0299296907
 20
150.1310632062
 30
0.0
 10
327.401916239
 20
150.9405992665
 30
0.0
  0
SPLINE
  5
52E
100
AcDbEntity
  8
KONSTRUKTIONSELEMENTE
100
AcDbSpline
 62
7
  6
CONTINUOUS
 70
0
 71
3
 72
12
 73
8
 74
0
 42
0.0000001
 43
0.0000001
 44
0.0000000001
 40
0.0
 40
0.0
 40
0.0
 40
0.0
 40
0.2874378001
 40
0.5543027143
 40
0.7890463209
 40
0.896415877
 40
1.0
 40
1.0
 40
1.0
 40
1.0
 10
287.7453155005
 20
145.5660128079
 30
0.0
 10
286.6116993333
 20
145.5660128079
 30
0.0
 10
284.4119125525
 20
145.2678703961
 30
0.0
 10
281.5311846122
 20
143.9727709478
 30
0.0
 10
279.7749345896
 20
142.2157572414
 30
0.0
 10
279.0640493415
 20
140.5882031994
 30
0.0
 10
278.9453155005
 20
139.7519950343
 30
0.0
 10
278.9453155005
 20
139.3434731335
 30
0.0
  0
SPLINE
  5
52F
100
AcDbEntity
  8
KONSTRUKTIONSELEMENTE
100
AcDbSpline
 62
7
  6
CONTINUOUS
 70
0
 71
3
 72
11
 73
7
 74
0
 42
0.0000001
 43
0.0000001
 44
0.0000000001
 40
0.0
 40
0.0
 40
0.0
 40
0.0
 40
0.2165288793
 40
0.4514682974
 40
0.7134745108
 40
1.0
 40
1.0
 40
1.0
 40
1.0
 10
366.1823898363
 20
240.1037160639
 30
0.0
 10
366.1824148566
 20
240.9247951361
 30
0.0
 10
365.776554437
 20
242.6545093005
 30
0.0
 10
364.111751182
 20
244.8621626929
 30
0.0
 10
361.6264723117
 20
246.5630396228
 30
0.0
 10
359.6405037369
 20
247.2583294593
 30
0.0
 10
358.5815858515
 20
247.5016189361
 30
0.0
  0
SPLINE
  5
530
100
AcDbEntity
  8
KONSTRUKTIONSELEMENTE
100
AcDbSpline
 62
7
  6
CONTINUOUS
 70
0
 71
3
 72
11
 73
7
 74
0
 42
0.0000001
 43
0.0000001
 44
0.0000000001
 40
0.0
 40
0.0
 40
0.0
 40
0.0
 40
0.2879904701
 40
0.5553442566
 40
0.7905170666
 40
1.0
 40
1.0
 40
1.0
 40
1.0
 10
280.0453155005
 20
115.231131895
 30
0.0
 10
280.4704411018
 20
115.231131895
 30
0.0
 10
281.2953902368
 20
115.3422828641
 30
0.0
 10
282.3755342692
 20
115.8306410902
 30
0.0
 10
283.144483156
 20
116.5911838629
 30
0.0
 10
283.3453155005
 20
117.2553498807
 30
0.0
 10
283.3453155005
 20
117.564584273
 30
0.0
  0
SPLINE
  5
531
100
AcDbEntity
  8
KONSTRUKTIONSELEMENTE
100
AcDbSpline
 62
7
  6
CONTINUOUS
 70
0
 71
3
 72
11
 73
7
 74
0
 42
0.0000001
 43
0.0000001
 44
0.0000000001
 40
0.0
 40
0.0
 40
0.0
 40
0.0
 40
0.2809363762
 40
0.5390132064
 40
0.7759685789
 40
1.0
 40
1.0
 40
1.0
 40
1.0
 10
287.4634792947
 20
145.3900136785
 30
0.0
 10
286.8602542136
 20
145.1220030964
 30
0.0
 10
285.7487875927
 20
144.4902696329
 30
0.0
 10
284.4087011409
 20
143.2238876943
 30
0.0
 10
283.5471155645
 20
141.7391974278
 30
0.0
 10
283.3453155005
 20
140.64767111
 30
0.0
 10
283.3453155005
 20
140.1212905928
 30
0.0
  0
SPLINE
  5
532
100
AcDbEntity
  8
KONSTRUKTIONSELEMENTE
100
AcDbSpline
 62
7
  6
CONTINUOUS
 70
0
 71
3
 72
11
 73
7
 74
0
 42
0.0000001
 43
0.0000001
 44
0.0000000001
 40
0.0
 40
0.0
 40
0.0
 40
0.0
 40
0.2810583778
 40
0.5392023193
 40
0.7761107168
 40
1.0
 40
1.0
 40
1.0
 40
1.0
 10
250.3742351859
 20
145.5623610038
 30
0.0
 10
250.9817599779
 20
145.2950826313
 30
0.0
 10
252.1014467916
 20
144.6636997149
 30
0.0
 10
253.4524361553
 20
143.3946242517
 30
0.0
 10
254.3215854744
 20
141.9043888475
 30
0.0
 10
254.5253155005
 20
140.8077263902
 30
0.0
 10
254.5253155005
 20
140.2790114196
 30
0.0
  0
SPLINE
  5
533
100
AcDbEntity
  8
KONSTRUKTIONSELEMENTE
100
AcDbSpline
 62
7
  6
CONTINUOUS
 70
0
 71
3
 72
9
 73
5
 74
0
 42
0.0000001
 43
0.0000001
 44
0.0000000001
 40
0.0
 40
0.0
 40
0.0
 40
0.0
 40
0.2553805419
 40
1.0
 40
1.0
 40
1.0
 40
1.0
 10
207.4980713836
 20
218.5929661876
 30
0.0
 10
207.4717164823
 20
218.6503210654
 30
0.0
 10
207.3798062724
 20
218.8798720906
 30
0.0
 10
207.3366145471
 20
219.1293293789
 30
0.0
 10
207.3365479189
 20
219.3133705922
 30
0.0
  0
SPLINE
  5
534
100
AcDbEntity
  8
KONSTRUKTIONSELEMENTE
100
AcDbSpline
 62
7
  6
CONTINUOUS
 70
0
 71
3
 72
9
 73
5
 74
0
 42
0.0000001
 43
0.0000001
 44
0.0000000001
 40
0.0
 40
0.0
 40
0.0
 40
0.0
 40
0.2381299476
 40
1.0
 40
1.0
 40
1.0
 40
1.0
 10
199.0340959077
 20
236.234882971
 30
0.0
 10
199.0689630563
 20
236.1590033074
 30
0.0
 10
199.2364501432
 20
235.8500519555
 30
0.0
 10
199.4817668164
 20
235.5868218683
 30
0.0
 10
199.6896072628
 20
235.4189437297
 30
0.0
  0
SPLINE
  5
535
100
AcDbEntity
  8
KONSTRUKTIONSELEMENTE
100
AcDbSpline
 62
7
  6
CONTINUOUS
 70
0
 71
3
 72
12
 73
8
 74
0
 42
0.0000001
 43
0.0000001
 44
0.0000000001
 40
0.0
 40
0.0
 40
0.0
 40
0.0
 40
0.214597601
 40
0.3340131511
 40
0.4606650373
 40
0.7282666641
 40
1.0
 40
1.0
 40
1.0
 40
1.0
 10
336.1171855428
 20
230.3168960657
 30
0.0
 10
336.5873070137
 20
231.3399983396
 30
0.0
 10
337.7621788272
 20
232.7409979068
 30
0.0
 10
339.7747427623
 20
234.0872249087
 30
0.0
 10
342.246237109
 20
235.1944951807
 30
0.0
 10
345.7266685981
 20
235.8616869683
 30
0.0
 10
348.5884730322
 20
235.6300381001
 30
0.0
 10
349.9779941602
 20
235.3107915628
 30
0.0
  0
SPLINE
  5
536
100
AcDbEntity
  8
KONSTRUKTIONSELEMENTE
100
AcDbSpline
 62
7
  6
CONTINUOUS
 70
0
 71
3
 72
11
 73
7
 74
0
 42
0.0000001
 43
0.0000001
 44
0.0000000001
 40
0.0
 40
0.0
 40
0.0
 40
0.0
 40
0.2188416256
 40
0.4597745413
 40
0.7222209482
 40
1.0
 40
1.0
 40
1.0
 40
1.0
 10
238.2273174819
 20
150.9405992665
 30
0.0
 10
238.5530759489
 20
150.2316671097
 30
0.0
 10
239.5216069881
 20
148.8656400287
 30
0.0
 10
241.5850054249
 20
147.2782170132
 30
0.0
 10
244.1562579758
 20
146.1498082935
 30
0.0
 10
246.0577941472
 20
145.7590405438
 30
0.0
 10
247.0424815719
 20
145.6536354895
 30
0.0
  0
SPLINE
  5
537
100
AcDbEntity
  8
KONSTRUKTIONSELEMENTE
100
AcDbSpline
 62
7
  6
CONTINUOUS
 70
0
 71
3
 72
11
 73
7
 74
0
 42
0.0000001
 43
0.0000001
 44
0.0000000001
 40
0.0
 40
0.0
 40
0.0
 40
0.0
 40
0.2165288793
 40
0.4514682974
 40
0.7134745108
 40
1.0
 40
1.0
 40
1.0
 40
1.0
 10
366.1823898363
 20
236.568182158
 30
0.0
 10
366.1824148566
 20
237.3892612301
 30
0.0
 10
365.776554437
 20
239.1189753946
 30
0.0
 10
364.111751182
 20
241.326628787
 30
0.0
 10
361.6264723117
 20
243.0275057169
 30
0.0
 10
359.6405037369
 20
243.7227955533
 30
0.0
 10
358.5815858515
 20
243.9660850301
 30
0.0
  0
SPLINE
  5
538
100
AcDbEntity
  8
KONSTRUKTIONSELEMENTE
100
AcDbSpline
 62
7
  6
CONTINUOUS
 70
0
 71
3
 72
10
 73
6
 74
0
 42
0.0000001
 43
0.0000001
 44
0.0000000001
 40
0.0
 40
0.0
 40
0.0
 40
0.0
 40
0.2176045202
 40
0.4537200981
 40
1.0
 40
1.0
 40
1.0
 40
1.0
 10
329.3265580478
 20
155.2523444945
 30
0.0
 10
329.326551376
 20
155.3344440259
 30
0.0
 10
329.285856753
 20
155.5074718457
 30
0.0
 10
329.0542497287
 20
155.8147688638
 30
0.0
 10
328.7673481648
 20
155.9458948183
 30
0.0
 10
328.5664768805
 20
155.9920455825
 30
0.0
  0
SPLINE
  5
539
100
AcDbEntity
  8
BEZUGSACHSEN
100
AcDbSpline
 62
7
  6
CONTINUOUS
 70
0
 71
3
 72
8
 73
4
 74
0
 42
0.0000001
 43
0.0000001
 44
0.0000000001
 40
0.0
 40
0.0
 40
0.0
 40
0.0
 40
1.0
 40
1.0
 40
1.0
 40
1.0
 10
274.4353155005
 20
256.5817774542
 30
0.0
 10
274.4353155005
 20
256.3477177606
 30
0.0
 10
274.4044840577
 20
256.1119615934
 30
0.0
 10
274.3461884529
 20
255.8852777549
 30
0.0
  0
SPLINE
  5
53A
100
AcDbEntity
  8
BEZUGSACHSEN
100
AcDbSpline
 62
7
  6
CONTINUOUS
 70
0
 71
3
 72
8
 73
4
 74
0
 42
0.0000001
 43
0.0000001
 44
0.0000000001
 40
0.0
 40
0.0
 40
0.0
 40
0.0
 40
1.0
 40
1.0
 40
1.0
 40
1.0
 10
263.5244425482
 20
255.8852777549
 30
0.0
 10
263.4661469433
 20
256.1119615934
 30
0.0
 10
263.4353155005
 20
256.3477177606
 30
0.0
 10
263.4353155005
 20
256.5817774542
 30
0.0
  0
SPLINE
  5
53B
100
AcDbEntity
  8
KONSTRUKTIONSELEMENTE
100
AcDbSpline
 62
7
  6
CONTINUOUS
 70
0
 71
3
 72
11
 73
7
 74
0
 42
0.0000001
 43
0.0000001
 44
0.0000000001
 40
0.0
 40
0.0
 40
0.0
 40
0.0
 40
0.2165107186
 40
0.451460212
 40
0.7134365312
 40
1.0
 40
1.0
 40
1.0
 40
1.0
 10
207.3365479189
 20
219.3133705922
 30
0.0
 10
207.3364587368
 20
219.5597104783
 30
0.0
 10
207.4581546108
 20
220.0787217425
 30
0.0
 10
207.9575076183
 20
220.7411758649
 30
0.0
 10
208.7031356606
 20
221.2516690523
 30
0.0
 10
209.29903681
 20
221.4602802816
 30
0.0
 10
209.616801806
 20
221.5332877174
 30
0.0
  0
SPLINE
  5
53C
100
AcDbEntity
  8
KONSTRUKTIONSELEMENTE
100
AcDbSpline
 62
7
  6
CONTINUOUS
 70
0
 71
3
 72
11
 73
7
 74
0
 42
0.0000001
 43
0.0000001
 44
0.0000000001
 40
0.0
 40
0.0
 40
0.0
 40
0.0
 40
0.2865336694
 40
0.5485304647
 40
0.7834780293
 40
1.0
 40
1.0
 40
1.0
 40
1.0
 10
314.9663686975
 20
159.1167101573
 30
0.0
 10
313.9075337311
 20
159.3599805832
 30
0.0
 10
311.9217790558
 20
160.0551721228
 30
0.0
 10
309.4366813255
 20
161.7557764446
 30
0.0
 10
307.7718916032
 20
163.9629790677
 30
0.0
 10
307.3656774069
 20
165.692408772
 30
0.0
 10
307.365561632
 20
166.5133739076
 30
0.0
  0
SPLINE
  5
53D
100
AcDbEntity
  8
KONSTRUKTIONSELEMENTE
100
AcDbSpline
 62
7
  6
CONTINUOUS
 70
0
 71
3
 72
11
 73
7
 74
0
 42
0.0000001
 43
0.0000001
 44
0.0000000001
 40
0.0
 40
0.0
 40
0.0
 40
0.0
 40
0.2865336694
 40
0.5485304647
 40
0.7834780293
 40
1.0
 40
1.0
 40
1.0
 40
1.0
 10
204.3969371798
 20
249.7346965529
 30
0.0
 10
203.3381022133
 20
249.4914261269
 30
0.0
 10
201.3523475381
 20
248.7962345873
 30
0.0
 10
198.8672498077
 20
247.0956302656
 30
0.0
 10
197.2024600855
 20
244.8884276424
 30
0.0
 10
196.7962458891
 20
243.1589979382
 30
0.0
 10
196.7961301143
 20
242.3380328026
 30
0.0
  0
SPLINE
  5
53E
100
AcDbEntity
  8
0
100
AcDbSpline
 62
7
  6
CONTINUOUS
 70
0
 71
3
 72
9
 73
5
 74
0
 42
0.0000001
 43
0.0000001
 44
0.0000000001
 40
0.0
 40
0.0
 40
0.0
 40
0.0
 40
0.5183802924
 40
1.0
 40
1.0
 40
1.0
 40
1.0
 10
302.6114176755
 20
234.5882602471
 30
0.0
 10
302.812448055
 20
234.1525014917
 30
0.0
 10
303.0404645081
 20
233.2075004301
 30
0.0
 10
302.7201547035
 20
232.2823789676
 30
0.0
 10
302.4738591689
 20
231.910717061
 30
0.0
  0
SPLINE
  5
53F
100
AcDbEntity
  8
0
100
AcDbSpline
 62
7
  6
CONTINUOUS
 70
0
 71
3
 72
9
 73
5
 74
0
 42
0.0000001
 43
0.0000001
 44
0.0000000001
 40
0.0
 40
0.0
 40
0.0
 40
0.0
 40
0.4816197076
 40
1.0
 40
1.0
 40
1.0
 40
1.0
 10
235.3967718322
 20
231.910717061
 30
0.0
 10
235.1504762975
 20
232.2823789676
 30
0.0
 10
234.8301664929
 20
233.2075004301
 30
0.0
 10
235.058182946
 20
234.1525014917
 30
0.0
 10
235.2592133255
 20
234.5882602471
 30
0.0
  0
LINE
  5
540
100
AcDbEntity
  8
BEZUGSACHSEN
100
AcDbLine
 62
7
  6
CONTINUOUS
 10
300.0538235516
 20
225.5358795896
 11
299.1947676788
 21
211.1366473439
  0
SPLINE
  5
541
100
AcDbEntity
  8
0
100
AcDbSpline
 62
7
  6
CONTINUOUS
 70
0
 71
3
 72
11
 73
7
 74
0
 42
0.0000001
 43
0.0000001
 44
0.0000000001
 40
0.0
 40
0.0
 40
0.0
 40
0.0
 40
0.2554166893
 40
0.5069641095
 40
0.7546082035
 40
1.0
 40
1.0
 40
1.0
 40
1.0
 10
236.8924826699
 20
257.4571554196
 30
0.0
 10
236.8924826699
 20
257.9851226022
 30
0.0
 10
237.0908598002
 20
259.0409001922
 30
0.0
 10
237.8625701735
 20
260.4185939419
 30
0.0
 10
238.9158386308
 20
261.5546711405
 30
0.0
 10
239.7292288102
 20
262.1754176096
 30
0.0
 10
240.1510358804
 20
262.4571554196
 30
0.0
  0
SPLINE
  5
542
100
AcDbEntity
  8
0
100
AcDbSpline
 62
7
  6
CONTINUOUS
 70
0
 71
3
 72
11
 73
7
 74
0
 42
0.0000001
 43
0.0000001
 44
0.0000000001
 40
0.0
 40
0.0
 40
0.0
 40
0.0
 40
0.245391792
 40
0.4930358813
 40
0.7445833006
 40
1.0
 40
1.0
 40
1.0
 40
1.0
 10
297.7195951206
 20
262.4571554196
 30
0.0
 10
298.1414021834
 20
262.1754176147
 30
0.0
 10
298.9547923511
 20
261.5546711598
 30
0.0
 10
300.0080607906
 20
260.4185939761
 30
0.0
 10
300.7797712068
 20
259.040900238
 30
0.0
 10
300.9781483312
 20
257.9851226232
 30
0.0
 10
300.9781483312
 20
257.4571554196
 30
0.0
  0
LINE
  5
543
100
AcDbEntity
  8
BEZUGSACHSEN
100
AcDbLine
 62
7
  6
CONTINUOUS
 10
238.6758633222
 20
211.1366473439
 11
237.8168074378
 21
225.5358797782
  0
SPLINE
  5
544
100
AcDbEntity
  8
0
100
AcDbSpline
 62
7
  6
CONTINUOUS
 70
0
 71
3
 72
9
 73
5
 74
0
 42
0.0000001
 43
0.0000001
 44
0.0000000001
 40
0.0
 40
0.0
 40
0.0
 40
0.0
 40
0.5068383231
 40
1.0
 40
1.0
 40
1.0
 40
1.0
 10
302.4738591689
 20
231.910717061
 30
0.0
 10
301.8318963011
 20
230.9419900243
 30
0.0
 10
300.6942869258
 20
228.9346802556
 30
0.0
 10
300.1196943506
 20
226.664731127
 30
0.0
 10
300.0538235516
 20
225.5358795896
 30
0.0
  0
SPLINE
  5
545
100
AcDbEntity
  8
0
100
AcDbSpline
 62
7
  6
CONTINUOUS
 70
0
 71
3
 72
9
 73
5
 74
0
 42
0.0000001
 43
0.0000001
 44
0.0000000001
 40
0.0
 40
0.0
 40
0.0
 40
0.0
 40
0.493161726
 40
1.0
 40
1.0
 40
1.0
 40
1.0
 10
237.8168074253
 20
225.5358797782
 30
0.0
 10
237.7509366196
 20
226.6647313968
 30
0.0
 10
237.1763439866
 20
228.9346804559
 30
0.0
 10
236.0387346201
 20
230.9419901449
 30
0.0
 10
235.3967718322
 20
231.910717061
 30
0.0
  0
SPLINE
  5
546
100
AcDbEntity
  8
0
100
AcDbSpline
 62
7
  6
CONTINUOUS
 70
0
 71
3
 72
9
 73
5
 74
0
 42
0.0000001
 43
0.0000001
 44
0.0000000001
 40
0.0
 40
0.0
 40
0.0
 40
0.0
 40
0.4997850418
 40
1.0
 40
1.0
 40
1.0
 40
1.0
 10
300.9781483312
 20
241.3826473439
 30
0.0
 10
300.9781483312
 20
240.2114942111
 30
0.0
 10
301.2939915212
 20
237.8605007356
 30
0.0
 10
302.1203935171
 20
235.6526171698
 30
0.0
 10
302.6114176755
 20
234.5882602471
 30
0.0
  0
SPLINE
  5
547
100
AcDbEntity
  8
0
100
AcDbSpline
 62
7
  6
CONTINUOUS
 70
0
 71
3
 72
9
 73
5
 74
0
 42
0.0000001
 43
0.0000001
 44
0.0000000001
 40
0.0
 40
0.0
 40
0.0
 40
0.0
 40
0.5002149582
 40
1.0
 40
1.0
 40
1.0
 40
1.0
 10
235.2592133255
 20
234.5882602471
 30
0.0
 10
235.7502374839
 20
235.6526171698
 30
0.0
 10
236.5766394799
 20
237.8605007356
 30
0.0
 10
236.8924826699
 20
240.2114942111
 30
0.0
 10
236.8924826699
 20
241.3826473439
 30
0.0
  0
ELLIPSE
  5
548
100
AcDbEntity
  8
BEZUGSACHSEN
100
AcDbEllipse
 62
7
  6
CONTINUOUS
 10
938.5033104298
 20
283.8961611406
 30
0.0
 11
20.5470809849
 21
-4.7252501947
 31
0.0
 40
0.9293161211
 41
-2.9637318929
 42
-2.8342734606
  0
ELLIPSE
  5
549
100
AcDbEntity
  8
RUNDUNGEN
100
AcDbEllipse
 62
7
  6
CONTINUOUS
 10
912.6625440701
 20
283.8961611406
 30
0.0
 11
20.5470809849
 21
4.7252501947
 31
0.0
 40
0.9293161211
 41
-0.307319193
 42
-0.1778607607
  0
ELLIPSE
  5
54A
100
AcDbEntity
  8
BEZUGSACHSEN
100
AcDbEllipse
 62
7
  6
CONTINUOUS
 10
914.3218346721
 20
268.2938293433
 30
0.0
 11
-2.0932808554
 21
8.5798153171
 31
0.0
 40
0.5625674239
 41
-2.7543953279
 42
-1.9800006766
  0
ELLIPSE
  5
54B
100
AcDbEntity
  8
RUNDUNGEN
100
AcDbEllipse
 62
7
  6
CONTINUOUS
 10
936.8440198278
 20
268.2938293433
 30
0.0
 11
2.0932808554
 21
8.5798153171
 31
0.0
 40
0.5625674239
 41
-4.3031846306
 42
-3.5287899793
  0
ELLIPSE
  5
54C
100
AcDbEntity
  8
KONSTRUKTIONSELEMENTE
100
AcDbEllipse
 62
7
  6
CONTINUOUS
 10
720.4830005018
 20
241.4107321328
 30
0.0
 11
0.0
 21
4.609447414
 31
0.0
 40
0.1583844403
 41
-4.1503956982
 42
-3.2973220173
  0
ELLIPSE
  5
54D
100
AcDbEntity
  8
KONSTRUKTIONSELEMENTE
100
AcDbEllipse
 62
7
  6
CONTINUOUS
 10
725.8570120388
 20
236.0367205958
 30
0.0
 11
4.609447414
 21
0.0
 31
0.0
 40
0.1583844403
 41
-2.9858632899
 42
-2.132789609
  0
ELLIPSE
  5
54E
100
AcDbEntity
  8
KONSTRUKTIONSELEMENTE
100
AcDbEllipse
 62
7
  6
CONTINUOUS
 10
215.1463317035
 20
236.8672468635
 30
0.0
 11
-1.8159852916
 21
1.2949601975
 31
0.0
 40
0.8040646284
 41
-2.1902533329
 42
-0.7307217434
  0
ELLIPSE
  5
54F
100
AcDbEntity
  8
KONSTRUKTIONSELEMENTE
100
AcDbEllipse
 62
7
  6
CONTINUOUS
 10
202.1725824115
 20
236.0367205958
 30
0.0
 11
3.2999138614
 21
0.7218827969
 31
0.0
 40
0.0330294486
 41
-2.4297450715
 42
-1.2638623942
  0
ELLIPSE
  5
550
100
AcDbEntity
  8
0
100
AcDbEllipse
 62
7
  6
CONTINUOUS
 10
268.9353155005
 20
133.1729887933
 30
0.0
 11
-0.0
 21
138.5640646055
 31
0.0
 40
0.5773502692
 41
0.1549516761
 42
0.3680572752
  0
ELLIPSE
  5
551
100
AcDbEntity
  8
0
100
AcDbEllipse
 62
7
  6
CONTINUOUS
 10
268.9353155005
 20
133.1729887933
 30
0.0
 11
-0.0
 21
138.5640646055
 31
0.0
 40
0.5773502692
 41
-0.3680572752
 42
-0.1549516761
  0
ENDSEC
  0
SECTION
  2
OBJECTS
  0
DICTIONARY
  5
C
100
AcDbDictionary
280
0
281
1
  3
ACAD_GROUP
350
D
  3
ACAD_MLINESTYLE
350
17
  3
ACAD_LAYOUT
350
1A
  3
ACAD_PLOTSETTINGS
350
19
  3
ACAD_PLOTSTYLENAME
350
E
  0
DICTIONARY
  5
D
102
{ACAD_REACTORS
330
C
102
}
100
AcDbDictionary
280
0
281
1
  0
ACDBDICTIONARYWDFLT
  5
E
102
{ACAD_REACTORS
330
C
102
}
100
AcDbDictionary
281
1
  3
Normal
350
F
100
AcDbDictionaryWithDefault
340
F
  0
DICTIONARY
  5
17
102
{ACAD_REACTORS
330
C
102
}
100
AcDbDictionary
280
0
281
1
  3
Standard
350
18
  0
DICTIONARY
  5
19
102
{ACAD_REACTORS
330
C
102
}
100
AcDbDictionary
281
1
  0
DICTIONARY
  5
1A
102
{ACAD_REACTORS
330
C
102
}
100
AcDbDictionary
281
1
  3
Model
350
552
  3
Layout1
350
553
  0
ACDBPLACEHOLDER
  5
F
102
{ACAD_REACTORS
330
E
102
}
  0
MLINESTYLE
  5
18
102
{ACAD_REACTORS
330
17
102
}
100
AcDbMlineStyle
  2
STANDARD
 70
0
  3

 62
256
 51
90.0
 52
90.0
 71
2
 49
0.5
 62
256
  6
BYLAYER
 49
-0.5
 62
256
  6
BYLAYER
  0
LAYOUT
  5
552
102
{ACAD_REACTORS
330
1A
102
}
100
AcDbPlotSettings
  1

  2
none_device
  4
ISO_A0_(1189.00_x_841.00_MM)
  6

 40
0.0
 41
0.0
 42
0.0
 43
0.0
 44
1189.0
 45
841.0
 46
0.0
 47
0.0
 48
0.0
 49
0.0
140
0.0
141
0.0
142
1.0
143
1.0
 70
1024
 72
1
 73
0
 74
0
  7

 75
0
147
1.0
148
0.0
149
0.0
100
AcDbLayout
  1
Model
 70
0
 71
0
 10
0.0
 20
0.0
 11
1189.0
 21
841.0
 12
0.0
 22
0.0
 32
0.0
 14
0.0
 24
0.0
 34
0.0
 15
0.0
 25
0.0
 35
0.0
146
0.0
 13
0.0
 23
0.0
 33
0.0
 16
1.0
 26
0.0
 36
0.0
 17
0.0
 27
1.0
 37
0.0
 76
0
330
209
345
0
346
0
  0
LAYOUT
  5
553
102
{ACAD_REACTORS
330
1A
102
}
100
AcDbPlotSettings
  1

  2
none_device
  4
ISO_A0_(1189.00_x_841.00_MM)
  6

 40
0.0
 41
0.0
 42
0.0
 43
0.0
 44
1189.0
 45
841.0
 46
0.0
 47
0.0
 48
0.0
 49
0.0
140
0.0
141
0.0
142
1.0
143
1.0
 70
0
 72
1
 73
0
 74
0
  7

 75
0
147
1.0
148
0.0
149
0.0
100
AcDbLayout
  1
Layout1
 70
0
 71
1
 10
0.0
 20
0.0
 11
1189.0
 21
841.0
 12
0.0
 22
0.0
 32
0.0
 14
0.0
 24
0.0
 34
0.0
 15
0.0
 25
0.0
 35
0.0
146
0.0
 13
0.0
 23
0.0
 33
0.0
 16
1.0
 26
0.0
 36
0.0
 17
0.0
 27
1.0
 37
0.0
 76
0
330
20A
345
0
346
0
  0
ENDSEC
  0
EOF
