999
DXF file: VAK-1-20_7104089_M31163-P-6.dxf
999
Pro/ENGINEER 2010140 by Parametric Technology Corporation
  0
SECTION
  2
HEADER
  9
$ACADVER
  1
AC1015
  9
$DWGCODEPAGE
  3
ANSI_1252
  9
$EXTMAX
 10
841.0
 20
594.0
 30
0.0
  9
$EXTMIN
 10
0.0
 20
0.0
 30
0.0
  9
$LIMMIN
 10
0.0
 20
0.0
  9
$LIMMAX
 10
841.0
 20
594.0
  9
$VIEWCTR
 10
420.5
 20
297.0
  9
$VIEWSIZE
 40
594.0
  9
$CLAYER
  8
0
  9
$LTSCALE
 40
46.255
  9
$CELTYPE
  6
BYLAYER
  9
$DIMSCALE
 40
1.0
  9
$DIMASZ
 40
3.5
  9
$DIMEXO
 40
5.25625
  9
$DIMDLI
 40
31.958
  9
$DIMEXE
 40
15.138
  9
$DIMCEN
 40
7.569
  9
$DIMLFAC
 40
1.0
  9
$DIMBLK
  1
_FILLED
  9
$DIMTXT
 40
3.5
  9
$DIMTOL
 70
1
  9
$DIMLIM
 70
0
  9
$DIMTFAC
 40
1.0
  9
$DIMTP
 40
0.005
  9
$DIMTM
 40
0.005
  9
$PDMODE
 70
3
  9
$PDSIZE
 40
0.3125
  9
$HANDSEED
  5
593
  9
$TILEMODE
 70
1
  9
$MEASUREMENT
 70
1
  9
$INSUNITS
 70
4
  0
ENDSEC
  0
SECTION
  2
CLASSES
  0
CLASS
  1
ACDBDICTIONARYWDFLT
  2
AcDbDictionaryWithDefault
  3
AutoCAD 2000
 90
0
280
0
281
0
  0
CLASS
  1
ACDBPLACEHOLDER
  2
AcDbPlaceHolder
  3
AutoCAD 2000
 90
0
280
0
281
0
  0
CLASS
  1
LAYOUT
  2
AcDbLayout
  3
AutoCAD 2000
 90
0
280
0
281
0
  0
ENDSEC
  0
SECTION
  2
TABLES
  0
TABLE
  2
VPORT
  5
8
100
AcDbSymbolTable
 70
2
  0
VPORT
  5
1F4
100
AcDbSymbolTableRecord
100
AcDbViewportTableRecord
  2
*ACTIVE
 70
0
 10
0.0
 20
0.0
 11
1.0
 21
1.0
 12
420.5
 22
297.0
 13
0.0
 23
0.0
 14
1.0
 24
1.0
 15
0.0
 25
0.0
 16
0.0
 26
0.0
 36
1.0
 17
0.0
 27
0.0
 37
0.0
 40
594.0
 41
1.4158249158
 42
50.0
 43
0.0
 44
0.0
 50
0.0
 51
0.0
 71
0
 72
100
 73
1
 74
1
 75
0
 76
0
 77
0
 78
0
  0
ENDTAB
  0
TABLE
  2
LTYPE
  5
5
100
AcDbSymbolTable
 70
6
  0
LTYPE
  5
14
100
AcDbSymbolTableRecord
100
AcDbLinetypeTableRecord
  2
BYBLOCK
 70
0
  3

 72
65
 73
0
 40
0.0
  0
LTYPE
  5
15
100
AcDbSymbolTableRecord
100
AcDbLinetypeTableRecord
  2
BYLAYER
 70
0
  3

 72
65
 73
0
 40
0.0
  0
LTYPE
  5
16
100
AcDbSymbolTableRecord
100
AcDbLinetypeTableRecord
  2
CONTINUOUS
 70
64
  3
Solid line
 72
65
 73
0
 40
0.0
  0
LTYPE
  5
1F5
100
AcDbSymbolTableRecord
100
AcDbLinetypeTableRecord
  2
CENTER
 70
64
  3
____ _ ____ _ ____ _ ____ _ ____ _ ____ _ ____
 72
65
 73
4
 40
0.6
 49
0.375
 74
0
 49
-0.075
 74
0
 49
0.075
 74
0
 49
-0.075
 74
0
  0
LTYPE
  5
1F6
100
AcDbSymbolTableRecord
100
AcDbLinetypeTableRecord
  2
HIDDEN
 70
64
  3
- - - - - - - - - - - - - - - - - - - -
 72
65
 73
2
 40
0.2
 49
0.1
 74
0
 49
-0.1
 74
0
  0
LTYPE
  5
1F7
100
AcDbSymbolTableRecord
100
AcDbLinetypeTableRecord
  2
PHANTOM
 70
64
  3
_____ _ _ _____ _ _ _____ _ _ _____
 72
65
 73
6
 40
0.8
 49
0.45
 74
0
 49
-0.05
 74
0
 49
0.1
 74
0
 49
-0.05
 74
0
 49
0.1
 74
0
 49
-0.05
 74
0
  0
LTYPE
  5
1F8
100
AcDbSymbolTableRecord
100
AcDbLinetypeTableRecord
  2
DOT
 70
64
  3
. . . . . . . . . . . . . . . . . . . .
 72
65
 73
2
 40
0.2
 49
0.1
 74
0
 49
-0.1
 74
0
  0
LTYPE
  5
1F9
100
AcDbSymbolTableRecord
100
AcDbLinetypeTableRecord
  2
DASHED
 70
64
  3
- - - - - - - - - - - - - - - - - - - -
 72
65
 73
2
 40
0.2
 49
0.1
 74
0
 49
-0.1
 74
0
  0
ENDTAB
  0
TABLE
  2
LAYER
  5
2
100
AcDbSymbolTable
 70
36
  0
LAYER
  5
10
100
AcDbSymbolTableRecord
100
AcDbLayerTableRecord
  2
0
 70
0
 62
7
  6
CONTINUOUS
370
-3
390
F
  0
LAYER
  5
1FA
100
AcDbSymbolTableRecord
100
AcDbLayerTableRecord
  2
DEFAULT_1
 70
0
 62
7
  6
CENTER
370
-3
390
F
  0
LAYER
  5
1FB
100
AcDbSymbolTableRecord
100
AcDbLayerTableRecord
  2
DEFAULT_2
 70
0
 62
8
  6
HIDDEN
370
-3
390
F
  0
LAYER
  5
1FC
100
AcDbSymbolTableRecord
100
AcDbLayerTableRecord
  2
DEFAULT_3
 70
0
 62
7
  6
PHANTOM
370
-3
390
F
  0
LAYER
  5
1FD
100
AcDbSymbolTableRecord
100
AcDbLayerTableRecord
  2
BEZUGSACHSEN
 70
0
 62
7
  6
CONTINUOUS
370
-3
390
F
  0
LAYER
  5
1FE
100
AcDbSymbolTableRecord
100
AcDbLayerTableRecord
  2
BEZUGSEBENEN
 70
0
 62
7
  6
CONTINUOUS
370
-3
390
F
  0
LAYER
  5
1FF
100
AcDbSymbolTableRecord
100
AcDbLayerTableRecord
  2
BG_STARTBEZUEGE
 70
0
 62
7
  6
CONTINUOUS
370
-3
390
F
  0
LAYER
  5
200
100
AcDbSymbolTableRecord
100
AcDbLayerTableRecord
  2
FASEN
 70
0
 62
7
  6
CONTINUOUS
370
-3
390
F
  0
LAYER
  5
201
100
AcDbSymbolTableRecord
100
AcDbLayerTableRecord
  2
HILFEN
 70
0
 62
7
  6
CONTINUOUS
370
-3
390
F
  0
LAYER
  5
202
100
AcDbSymbolTableRecord
100
AcDbLayerTableRecord
  2
KONSTRUKTIONSELEMENTE
 70
0
 62
7
  6
CONTINUOUS
370
-3
390
F
  0
LAYER
  5
203
100
AcDbSymbolTableRecord
100
AcDbLayerTableRecord
  2
PLATZIERUNG
 70
0
 62
7
  6
CONTINUOUS
370
-3
390
F
  0
LAYER
  5
204
100
AcDbSymbolTableRecord
100
AcDbLayerTableRecord
  2
RUNDUNGEN
 70
0
 62
7
  6
CONTINUOUS
370
-3
390
F
  0
LAYER
  5
205
100
AcDbSymbolTableRecord
100
AcDbLayerTableRecord
  2
TEIL_STARTBEZUEGE
 70
0
 62
7
  6
CONTINUOUS
370
-3
390
F
  0
LAYER
  5
206
100
AcDbSymbolTableRecord
100
AcDbLayerTableRecord
  2
T_STARTBEZUEGE
 70
0
 62
7
  6
CONTINUOUS
370
-3
390
F
  0
ENDTAB
  0
TABLE
  2
STYLE
  5
3
100
AcDbSymbolTable
 70
1
  0
STYLE
  5
11
100
AcDbSymbolTableRecord
100
AcDbTextStyleTableRecord
  2
STANDARD
 70
0
 40
0.0
 41
0.7
 50
0.0
 71
0
 42
0.2
  3
txt
  4

  0
STYLE
  5
207
100
AcDbSymbolTableRecord
100
AcDbTextStyleTableRecord
  2
TEXTSTYLE_1
 70
0
 40
0.0
 41
0.8
 50
0.0
 71
0
 42
0.2
  3
gdt
  4

  0
ENDTAB
  0
TABLE
  2
VIEW
  5
6
100
AcDbSymbolTable
 70
0
  0
ENDTAB
  0
TABLE
  2
UCS
  5
7
100
AcDbSymbolTable
 70
0
  0
ENDTAB
  0
TABLE
  2
APPID
  5
9
100
AcDbSymbolTable
 70
1
  0
APPID
  5
208
100
AcDbSymbolTableRecord
100
AcDbRegAppTableRecord
  2
ACAD
 70
0
  0
ENDTAB
  0
TABLE
  2
BLOCK_RECORD
  5
1
100
AcDbSymbolTable
 70
0
  0
BLOCK_RECORD
  5
209
100
AcDbSymbolTableRecord
100
AcDbBlockTableRecord
  2
*Model_Space
  0
BLOCK_RECORD
  5
20A
100
AcDbSymbolTableRecord
100
AcDbBlockTableRecord
  2
*Paper_Space
  0
ENDTAB
  0
TABLE
  2
DIMSTYLE
  5
A
100
AcDbSymbolTable
 70
1
100
AcDbDimStyleTable
 71
0
  0
DIMSTYLE
105
20B
100
AcDbSymbolTableRecord
100
AcDbDimStyleTableRecord
  2
STANDARD
 70
0
  3

  4

 40
1.0
 41
3.5
 42
0.0625
 43
0.38
 44
0.18
 45
0.0
 46
0.0
 47
0.005
 48
0.005
140
3.5
141
0.09
142
0.0
143
25.4
144
1.0
145
0.0
146
1.0
147
0.09
 71
1.0
 72
0.0
 73
0
 74
0
 75
0
 76
0
 77
1
 78
8
170
0
171
2
172
0
173
0
174
0
175
0
176
0
177
0
178
5
270
2
271
3
272
3
273
2
274
2
275
0
280
0
281
0
282
0
283
1
284
8
285
0
286
0
287
3
288
0
340
11
  0
ENDTAB
  0
ENDSEC
  0
SECTION
  2
BLOCKS
  0
BLOCK
  5
20
100
AcDbEntity
  8
0
100
AcDbBlockBegin
  2
*Model_Space
 70
0
 10
0.0
 20
0.0
 30
0.0
  3
*Model_Space
  1

  0
ENDBLK
  5
21
100
AcDbEntity
  8
0
100
AcDbBlockEnd
  0
BLOCK
  5
1C
100
AcDbEntity
  8
0
100
AcDbBlockBegin
  2
*Paper_Space
 70
0
 10
0.0
 20
0.0
 30
0.0
  3
*Paper_Space
  1

  0
ENDBLK
  5
1D
100
AcDbEntity
  8
0
100
AcDbBlockEnd
  0
ENDSEC
  0
SECTION
  2
ENTITIES
  0
MTEXT
  5
20C
100
AcDbEntity
  8
0
100
AcDbMText
 62
5
  6
CONTINUOUS
  7
STANDARD
 71
1
 72
1
 10
798.094983486
 20
320.1404052195
 30
0.0
 11
0.0
 21
1.0
 31
0.0
 44
0.9
  1
RUD VAK-1-20
 40
10.0
 41
95.0
  0
MTEXT
  5
20D
100
AcDbEntity
  8
0
100
AcDbMText
 62
5
  6
CONTINUOUS
  7
STANDARD
 71
1
 72
1
 10
189.7182984173
 20
340.414392622
 30
0.0
 11
0.0
 21
1.0
 31
0.0
 44
0.9
  1
RUD VAK-1-20
 40
10.0
 41
95.0
  0
LINE
  5
20E
100
AcDbEntity
  8
0
100
AcDbLine
 62
7
  6
CONTINUOUS
 10
0.0
 20
0.0
 11
0.0
 21
594.0
  0
LINE
  5
20F
100
AcDbEntity
  8
0
100
AcDbLine
 62
7
  6
CONTINUOUS
 10
0.0
 20
0.0
 11
841.0
 21
0.0
  0
LINE
  5
210
100
AcDbEntity
  8
0
100
AcDbLine
 62
7
  6
CONTINUOUS
 10
0.0
 20
594.0
 11
841.0
 21
594.0
  0
LINE
  5
211
100
AcDbEntity
  8
0
100
AcDbLine
 62
7
  6
CONTINUOUS
 10
841.0
 20
0.0
 11
841.0
 21
594.0
  0
LINE
  5
212
100
AcDbEntity
  8
KONSTRUKTIONSELEMENTE
100
AcDbLine
 62
7
  6
CONTINUOUS
 10
382.6586689948
 20
-16.042926807
 11
386.1942029007
 21
-19.578460713
  0
LINE
  5
213
100
AcDbEntity
  8
KONSTRUKTIONSELEMENTE
100
AcDbLine
 62
7
  6
CONTINUOUS
 10
414.4784741482
 20
8.7058105345
 11
413.771367367
 21
9.4129173157
  0
LINE
  5
214
100
AcDbEntity
  8
KONSTRUKTIONSELEMENTE
100
AcDbLine
 62
7
  6
CONTINUOUS
 10
411.6500470234
 20
11.5342376592
 11
410.9429402423
 21
12.2413444404
  0
LINE
  5
215
100
AcDbEntity
  8
KONSTRUKTIONSELEMENTE
100
AcDbLine
 62
7
  6
CONTINUOUS
 10
477.1609983833
 20
71.3883347696
 11
476.4538916021
 21
72.0954415507
  0
LINE
  5
216
100
AcDbEntity
  8
KONSTRUKTIONSELEMENTE
100
AcDbLine
 62
7
  6
CONTINUOUS
 10
473.6254644773
 20
74.9238686755
 11
474.3325712585
 21
74.2167618943
  0
LINE
  5
217
100
AcDbEntity
  8
KONSTRUKTIONSELEMENTE
100
AcDbLine
 62
7
  6
CONTINUOUS
 10
490.7402846848
 20
89.4438793692
 11
491.681009077
 21
88.503154977
  0
LINE
  5
218
100
AcDbEntity
  8
BEZUGSACHSEN
100
AcDbLine
 62
7
  6
CONTINUOUS
 10
515.5947438579
 20
116.893148056
 11
519.1302777638
 21
113.3576141501
  0
LINE
  5
219
100
AcDbEntity
  8
KONSTRUKTIONSELEMENTE
100
AcDbLine
 62
7
  6
CONTINUOUS
 10
511.8470779176
 20
125.9441148552
 11
516.7968253859
 21
120.9943673869
  0
LINE
  5
21A
100
AcDbEntity
  8
KONSTRUKTIONSELEMENTE
100
AcDbLine
 62
7
  6
CONTINUOUS
 10
512.2006313082
 20
126.2976682458
 11
517.1503787765
 21
121.3479207775
  0
LINE
  5
21B
100
AcDbEntity
  8
BEZUGSACHSEN
100
AcDbLine
 62
7
  6
CONTINUOUS
 10
698.4320993263
 20
118.8498928706
 11
688.4320993263
 21
118.8498928706
  0
LINE
  5
21C
100
AcDbEntity
  8
BEZUGSACHSEN
100
AcDbLine
 62
7
  6
CONTINUOUS
 10
687.6151210055
 20
127.7245175072
 11
699.249077647
 21
127.7245175072
  0
LINE
  5
21D
100
AcDbEntity
  8
BEZUGSACHSEN
100
AcDbLine
 62
7
  6
CONTINUOUS
 10
687.6151210055
 20
159.8107649755
 11
699.249077647
 21
159.8107649755
  0
LINE
  5
21E
100
AcDbEntity
  8
KONSTRUKTIONSELEMENTE
100
AcDbLine
 62
7
  6
CONTINUOUS
 10
564.8800865066
 20
178.9771234442
 11
569.8298339749
 21
174.0273759759
  0
LINE
  5
21F
100
AcDbEntity
  8
KONSTRUKTIONSELEMENTE
100
AcDbLine
 62
7
  6
CONTINUOUS
 10
565.2336398972
 20
179.3306768348
 11
570.1833873655
 21
174.3809293665
  0
LINE
  5
220
100
AcDbEntity
  8
BEZUGSACHSEN
100
AcDbLine
 62
7
  6
CONTINUOUS
 10
688.0326627583
 20
194.9401513925
 11
698.8315358942
 21
194.9401513925
  0
LINE
  5
221
100
AcDbEntity
  8
BEZUGSACHSEN
100
AcDbLine
 62
7
  6
CONTINUOUS
 10
706.8729445757
 20
196.4871585142
 11
707.5923524434
 21
196.4871585142
  0
LINE
  5
222
100
AcDbEntity
  8
BEZUGSACHSEN
100
AcDbLine
 62
7
  6
CONTINUOUS
 10
706.887820071
 20
199.98870584
 11
707.6373680969
 21
199.98870584
  0
LINE
  5
223
100
AcDbEntity
  8
BEZUGSACHSEN
100
AcDbLine
 62
7
  6
CONTINUOUS
 10
703.8300307991
 20
200.9039773079
 11
704.5293461024
 21
200.9039773079
  0
LINE
  5
224
100
AcDbEntity
  8
BEZUGSACHSEN
100
AcDbLine
 62
7
  6
CONTINUOUS
 10
705.159496031
 20
201.8483083774
 11
705.8772245787
 21
201.8483083774
  0
LINE
  5
225
100
AcDbEntity
  8
BEZUGSACHSEN
100
AcDbLine
 62
7
  6
CONTINUOUS
 10
705.0907787775
 20
202.2811426632
 11
705.810780775
 21
202.2811426632
  0
LINE
  5
226
100
AcDbEntity
  8
BEZUGSACHSEN
100
AcDbLine
 62
7
  6
CONTINUOUS
 10
706.7178125045
 20
202.6846153142
 11
707.4615137122
 21
202.6846153142
  0
LINE
  5
227
100
AcDbEntity
  8
BEZUGSACHSEN
100
AcDbLine
 62
7
  6
CONTINUOUS
 10
704.9571559298
 20
202.6949987704
 11
705.6786256609
 21
202.6949987704
  0
LINE
  5
228
100
AcDbEntity
  8
BEZUGSACHSEN
100
AcDbLine
 62
7
  6
CONTINUOUS
 10
706.4506488765
 20
202.734881989
 11
707.1889107418
 21
202.734881989
  0
LINE
  5
229
100
AcDbEntity
  8
BEZUGSACHSEN
100
AcDbLine
 62
7
  6
CONTINUOUS
 10
706.1844467371
 20
202.9870426187
 11
706.9213848311
 21
202.9870426187
  0
LINE
  5
22A
100
AcDbEntity
  8
BEZUGSACHSEN
100
AcDbLine
 62
7
  6
CONTINUOUS
 10
704.8971495312
 20
203.0898763759
 11
705.4816794688
 21
203.0898763759
  0
LINE
  5
22B
100
AcDbEntity
  8
BEZUGSACHSEN
100
AcDbLine
 62
7
  6
CONTINUOUS
 10
704.927199025
 20
203.3718012095
 11
705.285701958
 21
203.3718012095
  0
LINE
  5
22C
100
AcDbEntity
  8
BEZUGSACHSEN
100
AcDbLine
 62
7
  6
CONTINUOUS
 10
705.8554418712
 20
203.4536640315
 11
706.5919096595
 21
203.4536640315
  0
LINE
  5
22D
100
AcDbEntity
  8
BEZUGSACHSEN
100
AcDbLine
 62
7
  6
CONTINUOUS
 10
703.8536849232
 20
203.6148527403
 11
704.5705179001
 21
203.6148527403
  0
LINE
  5
22E
100
AcDbEntity
  8
BEZUGSACHSEN
100
AcDbLine
 62
7
  6
CONTINUOUS
 10
706.9651275523
 20
203.6434067729
 11
707.2112430498
 21
203.6434067729
  0
LINE
  5
22F
100
AcDbEntity
  8
BEZUGSACHSEN
100
AcDbLine
 62
7
  6
CONTINUOUS
 10
706.7043951307
 20
203.93368142
 11
707.282207524
 21
203.93368142
  0
LINE
  5
230
100
AcDbEntity
  8
BEZUGSACHSEN
100
AcDbLine
 62
7
  6
CONTINUOUS
 10
703.9137169579
 20
204.0856437063
 11
704.6341283142
 21
204.0856437063
  0
LINE
  5
231
100
AcDbEntity
  8
BEZUGSACHSEN
100
AcDbLine
 62
7
  6
CONTINUOUS
 10
704.1028068191
 20
204.2555316004
 11
704.82613454
 21
204.2555316004
  0
LINE
  5
232
100
AcDbEntity
  8
BEZUGSACHSEN
100
AcDbLine
 62
7
  6
CONTINUOUS
 10
706.5339994894
 20
204.3374704053
 11
707.2852180214
 21
204.3374704053
  0
LINE
  5
233
100
AcDbEntity
  8
BEZUGSACHSEN
100
AcDbLine
 62
7
  6
CONTINUOUS
 10
706.4660527469
 20
204.8547731514
 11
707.2202370379
 21
204.8547731514
  0
LINE
  5
234
100
AcDbEntity
  8
BEZUGSACHSEN
100
AcDbLine
 62
7
  6
CONTINUOUS
 10
706.3317583392
 20
205.384642347
 11
707.0881048404
 21
205.384642347
  0
LINE
  5
235
100
AcDbEntity
  8
BEZUGSACHSEN
100
AcDbLine
 62
7
  6
CONTINUOUS
 10
707.4238352176
 20
205.7851074796
 11
708.4317048076
 21
205.7851074796
  0
LINE
  5
236
100
AcDbEntity
  8
BEZUGSACHSEN
100
AcDbLine
 62
7
  6
CONTINUOUS
 10
706.1326210285
 20
205.927077833
 11
706.8903390894
 21
205.927077833
  0
LINE
  5
237
100
AcDbEntity
  8
BEZUGSACHSEN
100
AcDbLine
 62
7
  6
CONTINUOUS
 10
707.098202216
 20
206.0436519575
 11
707.6615826498
 21
206.0436519575
  0
LINE
  5
238
100
AcDbEntity
  8
BEZUGSACHSEN
100
AcDbLine
 62
7
  6
CONTINUOUS
 10
705.8696036215
 20
206.4820802666
 11
706.6279269019
 21
206.4820802666
  0
LINE
  5
239
100
AcDbEntity
  8
BEZUGSACHSEN
100
AcDbLine
 62
7
  6
CONTINUOUS
 10
707.693433654
 20
206.9476190302
 11
708.4318855754
 21
206.9476190302
  0
LINE
  5
23A
100
AcDbEntity
  8
BEZUGSACHSEN
100
AcDbLine
 62
7
  6
CONTINUOUS
 10
703.8326341396
 20
206.9725910906
 11
704.570722604
 21
206.9725910906
  0
LINE
  5
23B
100
AcDbEntity
  8
BEZUGSACHSEN
100
AcDbLine
 62
7
  6
CONTINUOUS
 10
703.8453040914
 20
207.5782745686
 11
704.5873990237
 21
207.5782745686
  0
LINE
  5
23C
100
AcDbEntity
  8
BEZUGSACHSEN
100
AcDbLine
 62
7
  6
CONTINUOUS
 10
706.5330170134
 20
208.9053271635
 11
707.3183157359
 21
208.9053271635
  0
LINE
  5
23D
100
AcDbEntity
  8
BEZUGSACHSEN
100
AcDbLine
 62
7
  6
CONTINUOUS
 10
706.4637697924
 20
209.382272686
 11
707.2515784962
 21
209.382272686
  0
LINE
  5
23E
100
AcDbEntity
  8
RUNDUNGEN
100
AcDbLine
 62
7
  6
CONTINUOUS
 10
710.9124078747
 20
146.6243370201
 11
710.6777066124
 21
146.7035140879
  0
LINE
  5
23F
100
AcDbEntity
  8
RUNDUNGEN
100
AcDbLine
 62
7
  6
CONTINUOUS
 10
710.6777066124
 20
146.7035140879
 11
710.1479487317
 21
146.9328409143
  0
LINE
  5
240
100
AcDbEntity
  8
BEZUGSACHSEN
100
AcDbLine
 62
7
  6
CONTINUOUS
 10
706.328523266
 20
209.9037528104
 11
707.1181477796
 21
209.9037528104
  0
LINE
  5
241
100
AcDbEntity
  8
BEZUGSACHSEN
100
AcDbLine
 62
7
  6
CONTINUOUS
 10
703.8453040865
 20
210.0010073257
 11
704.6029051762
 21
210.0010073257
  0
LINE
  5
242
100
AcDbEntity
  8
BEZUGSACHSEN
100
AcDbLine
 62
7
  6
CONTINUOUS
 10
706.1287846935
 20
210.4697673533
 11
706.9195485978
 21
210.4697673533
  0
LINE
  5
243
100
AcDbEntity
  8
BEZUGSACHSEN
100
AcDbLine
 62
7
  6
CONTINUOUS
 10
703.8326341396
 20
210.6066905149
 11
704.5939661685
 21
210.6066905149
  0
LINE
  5
244
100
AcDbEntity
  8
BEZUGSACHSEN
100
AcDbLine
 62
7
  6
CONTINUOUS
 10
705.8655112576
 20
211.0803154167
 11
706.6567630983
 21
211.0803154167
  0
LINE
  5
245
100
AcDbEntity
  8
BEZUGSACHSEN
100
AcDbLine
 62
7
  6
CONTINUOUS
 10
703.8272871234
 20
212.2014288837
 11
704.5987628931
 21
212.2014288837
  0
LINE
  5
246
100
AcDbEntity
  8
BEZUGSACHSEN
100
AcDbLine
 62
7
  6
CONTINUOUS
 10
705.0294351417
 20
213.0455633211
 11
705.6771316668
 21
213.0455633211
  0
LINE
  5
247
100
AcDbEntity
  8
BEZUGSACHSEN
100
AcDbLine
 62
7
  6
CONTINUOUS
 10
706.8729445869
 20
213.3862621302
 11
707.7187316612
 21
213.3862621302
  0
LINE
  5
248
100
AcDbEntity
  8
BEZUGSACHSEN
100
AcDbLine
 62
7
  6
CONTINUOUS
 10
705.0314662471
 20
213.4831473755
 11
705.4173189521
 21
213.4831473755
  0
LINE
  5
249
100
AcDbEntity
  8
BEZUGSACHSEN
100
AcDbLine
 62
7
  6
CONTINUOUS
 10
703.8543189153
 20
214.2770049096
 11
704.639434958
 21
214.2770049096
  0
LINE
  5
24A
100
AcDbEntity
  8
BEZUGSACHSEN
100
AcDbLine
 62
7
  6
CONTINUOUS
 10
703.9150596058
 20
214.5784003968
 11
704.702903075
 21
214.5784003968
  0
LINE
  5
24B
100
AcDbEntity
  8
BEZUGSACHSEN
100
AcDbLine
 62
7
  6
CONTINUOUS
 10
704.0394367938
 20
214.6622963751
 11
704.8294655197
 21
214.6622963751
  0
LINE
  5
24C
100
AcDbEntity
  8
BEZUGSACHSEN
100
AcDbLine
 62
7
  6
CONTINUOUS
 10
707.2123752431
 20
214.9672304584
 11
707.7472313014
 21
214.9672304584
  0
LINE
  5
24D
100
AcDbEntity
  8
BEZUGSACHSEN
100
AcDbLine
 62
7
  6
CONTINUOUS
 10
707.3416066011
 20
216.1701158032
 11
707.6350644442
 21
216.1701158032
  0
LINE
  5
24E
100
AcDbEntity
  8
BEZUGSACHSEN
100
AcDbLine
 62
7
  6
CONTINUOUS
 10
707.3382784273
 20
216.1772479097
 11
707.6992837074
 21
216.1772479097
  0
LINE
  5
24F
100
AcDbEntity
  8
BEZUGSACHSEN
100
AcDbLine
 62
7
  6
CONTINUOUS
 10
707.24279405
 20
216.3815477028
 11
707.5621169938
 21
216.3815477028
  0
LINE
  5
250
100
AcDbEntity
  8
BEZUGSACHSEN
100
AcDbLine
 62
7
  6
CONTINUOUS
 10
707.7492011748
 20
216.5437772594
 11
707.7694923643
 21
216.5437772594
  0
LINE
  5
251
100
AcDbEntity
  8
BEZUGSACHSEN
100
AcDbLine
 62
7
  6
CONTINUOUS
 10
707.6720505106
 20
216.8778160313
 11
707.7073243948
 21
216.8778160313
  0
LINE
  5
252
100
AcDbEntity
  8
BEZUGSACHSEN
100
AcDbLine
 62
7
  6
CONTINUOUS
 10
706.9923330676
 20
216.9168390868
 11
707.2904534732
 21
216.9168390868
  0
LINE
  5
253
100
AcDbEntity
  8
BEZUGSACHSEN
100
AcDbLine
 62
7
  6
CONTINUOUS
 10
707.5640478451
 20
217.1947493205
 11
707.7488222801
 21
217.1947493205
  0
LINE
  5
254
100
AcDbEntity
  8
BEZUGSACHSEN
100
AcDbLine
 62
7
  6
CONTINUOUS
 10
707.1747343191
 20
217.4481429091
 11
707.3810800083
 21
217.4481429091
  0
LINE
  5
255
100
AcDbEntity
  8
BEZUGSACHSEN
100
AcDbLine
 62
7
  6
CONTINUOUS
 10
707.4688068438
 20
217.5144798382
 11
707.7510757167
 21
217.5144798382
  0
LINE
  5
256
100
AcDbEntity
  8
BEZUGSACHSEN
100
AcDbLine
 62
7
  6
CONTINUOUS
 10
706.7116018602
 20
217.5154749922
 11
707.0233404868
 21
217.5154749922
  0
LINE
  5
257
100
AcDbEntity
  8
BEZUGSACHSEN
100
AcDbLine
 62
7
  6
CONTINUOUS
 10
707.0350701084
 20
217.7403294368
 11
707.3117085128
 21
217.7403294368
  0
LINE
  5
258
100
AcDbEntity
  8
BEZUGSACHSEN
100
AcDbLine
 62
7
  6
CONTINUOUS
 10
706.8512348642
 20
218.1663385494
 11
707.1763402381
 21
218.1663385494
  0
LINE
  5
259
100
AcDbEntity
  8
BEZUGSACHSEN
100
AcDbLine
 62
7
  6
CONTINUOUS
 10
706.3376065071
 20
218.3112798892
 11
706.6940055811
 21
218.3112798892
  0
LINE
  5
25A
100
AcDbEntity
  8
BEZUGSACHSEN
100
AcDbLine
 62
7
  6
CONTINUOUS
 10
707.1642364274
 20
218.3637127832
 11
707.4299571694
 21
218.3637127832
  0
LINE
  5
25B
100
AcDbEntity
  8
BEZUGSACHSEN
100
AcDbLine
 62
7
  6
CONTINUOUS
 10
706.6350384959
 20
218.6944977833
 11
706.9785590901
 21
218.6944977833
  0
LINE
  5
25C
100
AcDbEntity
  8
BEZUGSACHSEN
100
AcDbLine
 62
7
  6
CONTINUOUS
 10
705.576778504
 20
218.9188956132
 11
705.994779766
 21
218.9188956132
  0
LINE
  5
25D
100
AcDbEntity
  8
BEZUGSACHSEN
100
AcDbLine
 62
7
  6
CONTINUOUS
 10
705.4481713931
 20
219.2295835664
 11
705.9270529424
 21
219.2295835664
  0
LINE
  5
25E
100
AcDbEntity
  8
BEZUGSACHSEN
100
AcDbLine
 62
7
  6
CONTINUOUS
 10
705.2753969448
 20
219.6469632205
 11
705.7940583824
 21
219.6469632205
  0
LINE
  5
25F
100
AcDbEntity
  8
BEZUGSACHSEN
100
AcDbLine
 62
7
  6
CONTINUOUS
 10
706.2252917389
 20
219.7334069855
 11
706.4669790283
 21
219.7334069855
  0
LINE
  5
260
100
AcDbEntity
  8
BEZUGSACHSEN
100
AcDbLine
 62
7
  6
CONTINUOUS
 10
705.0584521035
 20
220.1710357429
 11
705.5967215305
 21
220.1710357429
  0
LINE
  5
261
100
AcDbEntity
  8
BEZUGSACHSEN
100
AcDbLine
 62
7
  6
CONTINUOUS
 10
705.0096873723
 20
220.6441093522
 11
705.4007820311
 21
220.6441093522
  0
LINE
  5
262
100
AcDbEntity
  8
BEZUGSACHSEN
100
AcDbLine
 62
7
  6
CONTINUOUS
 10
705.8336428407
 20
220.72637954
 11
706.0749644485
 21
220.72637954
  0
LINE
  5
263
100
AcDbEntity
  8
BEZUGSACHSEN
100
AcDbLine
 62
7
  6
CONTINUOUS
 10
705.4541837666
 20
220.7937115072
 11
705.7158504793
 21
220.7937115072
  0
LINE
  5
264
100
AcDbEntity
  8
BEZUGSACHSEN
100
AcDbLine
 62
7
  6
CONTINUOUS
 10
703.8300308106
 20
220.7977426382
 11
704.6566572815
 21
220.7977426382
  0
LINE
  5
265
100
AcDbEntity
  8
BEZUGSACHSEN
100
AcDbLine
 62
7
  6
CONTINUOUS
 10
705.0155854692
 20
221.0661831648
 11
705.2061955616
 21
221.0661831648
  0
LINE
  5
266
100
AcDbEntity
  8
BEZUGSACHSEN
100
AcDbLine
 62
7
  6
CONTINUOUS
 10
705.6508709725
 20
221.2014702659
 11
706.0504857856
 21
221.2014702659
  0
LINE
  5
267
100
AcDbEntity
  8
BEZUGSACHSEN
100
AcDbLine
 62
7
  6
CONTINUOUS
 10
705.0459958997
 20
221.6528613313
 11
705.3927877016
 21
221.6528613313
  0
LINE
  5
268
100
AcDbEntity
  8
BEZUGSACHSEN
100
AcDbLine
 62
7
  6
CONTINUOUS
 10
703.8536849202
 20
222.0217178169
 11
704.6885405182
 21
222.0217178169
  0
LINE
  5
269
100
AcDbEntity
  8
BEZUGSACHSEN
100
AcDbLine
 62
7
  6
CONTINUOUS
 10
703.9137169639
 20
222.1190212009
 11
704.7501392568
 21
222.1190212009
  0
LINE
  5
26A
100
AcDbEntity
  8
BEZUGSACHSEN
100
AcDbLine
 62
7
  6
CONTINUOUS
 10
705.2445971209
 20
222.3611979109
 11
705.8142077328
 21
222.3611979109
  0
LINE
  5
26B
100
AcDbEntity
  8
BEZUGSACHSEN
100
AcDbLine
 62
7
  6
CONTINUOUS
 10
704.2931782678
 20
222.3781889477
 11
705.1373977439
 21
222.3781889477
  0
LINE
  5
26C
100
AcDbEntity
  8
BEZUGSACHSEN
100
AcDbLine
 62
7
  6
CONTINUOUS
 10
705.2032900768
 20
222.5008928073
 11
705.4767576395
 21
222.5008928073
  0
LINE
  5
26D
100
AcDbEntity
  8
BEZUGSACHSEN
100
AcDbLine
 62
7
  6
CONTINUOUS
 10
705.0938440978
 20
222.9657065914
 11
705.282568422
 21
222.9657065914
  0
LINE
  5
26E
100
AcDbEntity
  8
BEZUGSACHSEN
100
AcDbLine
 62
7
  6
CONTINUOUS
 10
705.3282922908
 20
223.022821433
 11
705.5495547202
 21
223.022821433
  0
LINE
  5
26F
100
AcDbEntity
  8
BEZUGSACHSEN
100
AcDbLine
 62
7
  6
CONTINUOUS
 10
704.0403437107
 20
223.1668610276
 11
704.8855798498
 21
223.1668610276
  0
LINE
  5
270
100
AcDbEntity
  8
BEZUGSACHSEN
100
AcDbLine
 62
7
  6
CONTINUOUS
 10
705.0944017951
 20
223.2016792977
 11
705.1561698943
 21
223.2016792977
  0
LINE
  5
271
100
AcDbEntity
  8
BEZUGSACHSEN
100
AcDbLine
 62
7
  6
CONTINUOUS
 10
705.1901112011
 20
223.3625150392
 11
705.4189603388
 21
223.3625150392
  0
LINE
  5
272
100
AcDbEntity
  8
BEZUGSACHSEN
100
AcDbLine
 62
7
  6
CONTINUOUS
 10
705.0978092717
 20
223.5756687177
 11
705.4203864906
 21
223.5756687177
  0
LINE
  5
273
100
AcDbEntity
  8
BEZUGSACHSEN
100
AcDbLine
 62
7
  6
CONTINUOUS
 10
705.0769559918
 20
223.6200756663
 11
705.4098954206
 21
223.6200756663
  0
LINE
  5
274
100
AcDbEntity
  8
BEZUGSACHSEN
100
AcDbLine
 62
7
  6
CONTINUOUS
 10
703.9156779634
 20
223.624542981
 11
704.761849654
 21
223.624542981
  0
LINE
  5
275
100
AcDbEntity
  8
BEZUGSACHSEN
100
AcDbLine
 62
7
  6
CONTINUOUS
 10
703.8545830789
 20
223.9484017404
 11
704.7018495808
 21
223.9484017404
  0
LINE
  5
276
100
AcDbEntity
  8
BEZUGSACHSEN
100
AcDbLine
 62
7
  6
CONTINUOUS
 10
703.8533151149
 20
224.233456176
 11
704.7023957029
 21
224.233456176
  0
LINE
  5
277
100
AcDbEntity
  8
BEZUGSACHSEN
100
AcDbLine
 62
7
  6
CONTINUOUS
 10
704.2943498016
 20
224.2905806594
 11
705.1511932329
 21
224.2905806594
  0
LINE
  5
278
100
AcDbEntity
  8
BEZUGSACHSEN
100
AcDbLine
 62
7
  6
CONTINUOUS
 10
704.0412151528
 20
224.9344412393
 11
704.8979582496
 21
224.9344412393
  0
LINE
  5
279
100
AcDbEntity
  8
BEZUGSACHSEN
100
AcDbLine
 62
7
  6
CONTINUOUS
 10
703.9162610241
 20
225.2386086889
 11
704.7728673374
 21
225.2386086889
  0
LINE
  5
27A
100
AcDbEntity
  8
BEZUGSACHSEN
100
AcDbLine
 62
7
  6
CONTINUOUS
 10
703.8933273258
 20
225.3462855667
 11
704.7116549167
 21
225.3462855667
  0
LINE
  5
27B
100
AcDbEntity
  8
BEZUGSACHSEN
100
AcDbLine
 62
7
  6
CONTINUOUS
 10
688.0326627583
 20
226.4840181196
 11
698.8315358942
 21
226.4840181196
  0
LINE
  5
27C
100
AcDbEntity
  8
RUNDUNGEN
100
AcDbLine
 62
7
  6
CONTINUOUS
 10
710.154822596
 20
146.9294263968
 11
709.6374292172
 21
147.2293003542
  0
LINE
  5
27D
100
AcDbEntity
  8
BEZUGSACHSEN
100
AcDbLine
 62
7
  6
CONTINUOUS
 10
668.5879512604
 20
80.2570032084
 11
665.185236409
 21
85.732954467
  0
LINE
  5
27E
100
AcDbEntity
  8
0
100
AcDbLine
 62
7
  6
CONTINUOUS
 10
563.4320993263
 20
291.1949696185
 11
563.4320993263
 21
451.1949696185
  0
LINE
  5
27F
100
AcDbEntity
  8
BEZUGSACHSEN
100
AcDbLine
 62
7
  6
CONTINUOUS
 10
698.8315358942
 20
238.5327030728
 11
688.0326627583
 21
238.5327030728
  0
LWPOLYLINE
  5
280
100
AcDbEntity
  8
RUNDUNGEN
100
AcDbPolyline
 62
7
  6
CONTINUOUS
 90
8
 70
0
 10
709.6480970885
 20
147.2222929656
 10
709.1653879303
 20
147.5845120237
 10
708.7450703885
 20
147.9866662575
 10
708.3835452645
 20
148.4233487426
 10
708.0862706576
 20
148.8778376902
 10
707.8504403138
 20
149.3404039874
 10
707.6727285489
 20
149.8009243265
 10
707.5491559405
 20
150.2471459062
  0
LWPOLYLINE
  5
281
100
AcDbEntity
  8
RUNDUNGEN
100
AcDbPolyline
 62
7
  6
CONTINUOUS
 90
7
 70
0
 10
709.1795535512
 20
147.5725662025
 10
708.7623211723
 20
147.9682567122
 10
708.4023725576
 20
148.3979885413
 10
708.1046020882
 20
148.8464681964
 10
707.8667469214
 20
149.3042253316
 10
707.6858273343
 20
149.761736493
 10
707.5584993364
 20
150.2066997359
  0
LINE
  5
282
100
AcDbEntity
  8
0
100
AcDbLine
 62
7
  6
CONTINUOUS
 10
603.4320993263
 20
291.1949696185
 11
603.4320993263
 21
451.1949696185
  0
LINE
  5
283
100
AcDbEntity
  8
RUNDUNGEN
100
AcDbLine
 62
7
  6
CONTINUOUS
 10
720.4224803831
 20
115.925731732
 11
710.8848523396
 21
132.4453880871
  0
LINE
  5
284
100
AcDbEntity
  8
KONSTRUKTIONSELEMENTE
100
AcDbLine
 62
7
  6
CONTINUOUS
 10
507.8165692648
 20
121.9136062024
 11
511.8470779176
 21
125.9441148552
  0
LINE
  5
285
100
AcDbEntity
  8
KONSTRUKTIONSELEMENTE
100
AcDbLine
 62
7
  6
CONTINUOUS
 10
512.2006313082
 20
126.2976682458
 11
516.2311399609
 21
130.3281768986
  0
LINE
  5
286
100
AcDbEntity
  8
KONSTRUKTIONSELEMENTE
100
AcDbLine
 62
7
  6
CONTINUOUS
 10
560.8495778538
 20
174.9466147914
 11
564.8800865066
 21
178.9771234442
  0
LINE
  5
287
100
AcDbEntity
  8
KONSTRUKTIONSELEMENTE
100
AcDbLine
 62
7
  6
CONTINUOUS
 10
565.2336398972
 20
179.3306768348
 11
569.2641485499
 21
183.3611854876
  0
LINE
  5
288
100
AcDbEntity
  8
KONSTRUKTIONSELEMENTE
100
AcDbLine
 62
7
  6
CONTINUOUS
 10
543.0304869679
 20
155.2183355963
 11
535.6765764436
 21
147.864425072
  0
LINE
  5
289
100
AcDbEntity
  8
KONSTRUKTIONSELEMENTE
100
AcDbLine
 62
7
  6
CONTINUOUS
 10
512.7663167331
 20
116.9638587341
 11
516.7968253859
 21
120.9943673869
  0
LINE
  5
28A
100
AcDbEntity
  8
KONSTRUKTIONSELEMENTE
100
AcDbLine
 62
7
  6
CONTINUOUS
 10
517.1503787765
 20
121.3479207775
 11
521.1808874292
 21
125.3784294303
  0
LINE
  5
28B
100
AcDbEntity
  8
KONSTRUKTIONSELEMENTE
100
AcDbLine
 62
7
  6
CONTINUOUS
 10
565.7993253221
 20
169.9968673231
 11
569.8298339749
 21
174.0273759759
  0
LINE
  5
28C
100
AcDbEntity
  8
KONSTRUKTIONSELEMENTE
100
AcDbLine
 62
7
  6
CONTINUOUS
 10
570.1833873655
 20
174.3809293665
 11
574.2138960182
 21
178.4114380193
  0
LINE
  5
28D
100
AcDbEntity
  8
KONSTRUKTIONSELEMENTE
100
AcDbLine
 62
7
  6
CONTINUOUS
 10
629.7924890195
 20
233.2122135612
 11
574.6381600869
 21
178.0578846287
  0
LINE
  5
28E
100
AcDbEntity
  8
KONSTRUKTIONSELEMENTE
100
AcDbLine
 62
7
  6
CONTINUOUS
 10
547.5559703675
 20
150.6928521967
 11
540.2020598432
 21
143.3389416724
  0
LINE
  5
28F
100
AcDbEntity
  8
BEZUGSACHSEN
100
AcDbLine
 62
7
  6
CONTINUOUS
 10
687.5524812128
 20
160.4852894479
 11
687.6151210055
 21
159.8107649755
  0
LINE
  5
290
100
AcDbEntity
  8
BEZUGSACHSEN
100
AcDbLine
 62
7
  6
CONTINUOUS
 10
687.8184747968
 20
123.5664604618
 11
687.6151210055
 21
127.7245175072
  0
LINE
  5
291
100
AcDbEntity
  8
BEZUGSACHSEN
100
AcDbLine
 62
7
  6
CONTINUOUS
 10
664.4320993263
 20
88.3719230841
 11
664.4320993263
 21
108.425731732
  0
LINE
  5
292
100
AcDbEntity
  8
BEZUGSACHSEN
100
AcDbLine
 62
7
  6
CONTINUOUS
 10
672.4320993263
 20
141.8484929444
 11
672.4320993263
 21
130.3206139655
  0
LINE
  5
293
100
AcDbEntity
  8
BEZUGSACHSEN
100
AcDbLine
 62
7
  6
CONTINUOUS
 10
679.4320993263
 20
213.9034007866
 11
679.4320993263
 21
150.63650575
  0
LINE
  5
294
100
AcDbEntity
  8
KONSTRUKTIONSELEMENTE
100
AcDbLine
 62
7
  6
CONTINUOUS
 10
522.9486543822
 20
125.237008074
 11
540.1659706112
 21
142.454324303
  0
LINE
  5
295
100
AcDbEntity
  8
KONSTRUKTIONSELEMENTE
100
AcDbLine
 62
7
  6
CONTINUOUS
 10
548.4044985049
 20
150.6928521967
 11
565.6218147339
 21
167.9101684257
  0
LINE
  5
296
100
AcDbEntity
  8
BEZUGSACHSEN
100
AcDbLine
 62
7
  6
CONTINUOUS
 10
515.5939495604
 20
116.8923537586
 11
514.7295371273
 21
116.0279413255
  0
LINE
  5
297
100
AcDbEntity
  8
KONSTRUKTIONSELEMENTE
100
AcDbLine
 62
7
  6
CONTINUOUS
 10
382.6586689948
 20
-16.042926807
 11
514.7295371273
 21
116.0279413255
  0
LINE
  5
298
100
AcDbEntity
  8
KONSTRUKTIONSELEMENTE
100
AcDbLine
 62
7
  6
CONTINUOUS
 10
411.6500470234
 20
11.5342376592
 11
383.365775776
 21
-16.7500335882
  0
LINE
  5
299
100
AcDbEntity
  8
KONSTRUKTIONSELEMENTE
100
AcDbLine
 62
7
  6
CONTINUOUS
 10
474.3325712585
 20
74.2167618943
 11
482.645443044
 21
82.5296336798
  0
LINE
  5
29A
100
AcDbEntity
  8
KONSTRUKTIONSELEMENTE
100
AcDbLine
 62
7
  6
CONTINUOUS
 10
413.771367367
 20
9.4129173157
 11
385.4870961195
 21
-18.8713539318
  0
LINE
  5
29B
100
AcDbEntity
  8
KONSTRUKTIONSELEMENTE
100
AcDbLine
 62
7
  6
CONTINUOUS
 10
476.4538916021
 20
72.0954415507
 11
484.7667633875
 21
80.4083133362
  0
LINE
  5
29C
100
AcDbEntity
  8
BEZUGSACHSEN
100
AcDbLine
 62
7
  6
CONTINUOUS
 10
519.1294834664
 20
113.3568198527
 11
518.2650710332
 21
112.4924074195
  0
LINE
  5
29D
100
AcDbEntity
  8
KONSTRUKTIONSELEMENTE
100
AcDbLine
 62
7
  6
CONTINUOUS
 10
386.1942029007
 20
-19.578460713
 11
518.2650710332
 21
112.4924074195
  0
LINE
  5
29E
100
AcDbEntity
  8
KONSTRUKTIONSELEMENTE
100
AcDbLine
 62
7
  6
CONTINUOUS
 10
527.4741377818
 20
120.7115246744
 11
544.6914540108
 21
137.9288409034
  0
LINE
  5
29F
100
AcDbEntity
  8
KONSTRUKTIONSELEMENTE
100
AcDbLine
 62
7
  6
CONTINUOUS
 10
552.9299819045
 20
146.1673687971
 11
570.1472981335
 21
163.3846850261
  0
LINE
  5
2A0
100
AcDbEntity
  8
KONSTRUKTIONSELEMENTE
100
AcDbLine
 62
7
  6
CONTINUOUS
 10
545.5760713802
 20
137.9649301354
 11
552.9299819045
 21
145.3188406597
  0
LINE
  5
2A1
100
AcDbEntity
  8
KONSTRUKTIONSELEMENTE
100
AcDbLine
 62
7
  6
CONTINUOUS
 10
635.449343269
 20
227.5553593117
 11
580.2950143364
 21
172.4010303792
  0
LINE
  5
2A2
100
AcDbEntity
  8
KONSTRUKTIONSELEMENTE
100
AcDbLine
 62
7
  6
CONTINUOUS
 10
580.648567727
 20
171.9767663105
 11
572.2339970309
 21
163.5621956143
  0
LINE
  5
2A3
100
AcDbEntity
  8
KONSTRUKTIONSELEMENTE
100
AcDbLine
 62
7
  6
CONTINUOUS
 10
527.615559138
 20
118.9437577215
 11
519.2009884419
 21
110.5291870253
  0
LINE
  5
2A4
100
AcDbEntity
  8
KONSTRUKTIONSELEMENTE
100
AcDbLine
 62
7
  6
CONTINUOUS
 10
550.1015547798
 20
133.4394467358
 11
557.4554653041
 21
140.7933572601
  0
LINE
  5
2A5
100
AcDbEntity
  8
KONSTRUKTIONSELEMENTE
100
AcDbLine
 62
7
  6
CONTINUOUS
 10
585.5983151953
 20
167.0270188422
 11
577.1837444992
 21
158.612448146
  0
LINE
  5
2A6
100
AcDbEntity
  8
KONSTRUKTIONSELEMENTE
100
AcDbLine
 62
7
  6
CONTINUOUS
 10
532.5653066063
 20
113.9940102532
 11
524.1507359102
 21
105.579439557
  0
LINE
  5
2A7
100
AcDbEntity
  8
0
100
AcDbLine
 62
7
  6
CONTINUOUS
 10
698.8315358942
 20
238.5327030728
 11
704.320502506
 21
224.233456176
  0
LINE
  5
2A8
100
AcDbEntity
  8
RUNDUNGEN
100
AcDbLine
 62
7
  6
CONTINUOUS
 10
707.5584993364
 20
150.2066997359
 11
707.5003354199
 21
150.4926047715
  0
LINE
  5
2A9
100
AcDbEntity
  8
BEZUGSACHSEN
100
AcDbLine
 62
7
  6
CONTINUOUS
 10
688.4320993263
 20
118.8498928706
 11
688.0254958977
 21
121.5127081055
  0
LINE
  5
2AA
100
AcDbEntity
  8
RUNDUNGEN
100
AcDbLine
 62
7
  6
CONTINUOUS
 10
707.4770351276
 20
150.6424124713
 11
707.4545808166
 21
150.856997917
  0
LINE
  5
2AB
100
AcDbEntity
  8
BEZUGSACHSEN
100
AcDbLine
 62
7
  6
CONTINUOUS
 10
687.6151210055
 20
159.8107649755
 11
687.6151210055
 21
127.7245175072
  0
LINE
  5
2AC
100
AcDbEntity
  8
BEZUGSACHSEN
100
AcDbLine
 62
7
  6
CONTINUOUS
 10
688.4320993263
 20
118.8498928706
 11
688.4320993263
 21
116.2442540525
  0
LINE
  5
2AD
100
AcDbEntity
  8
RUNDUNGEN
100
AcDbLine
 62
7
  6
CONTINUOUS
 10
698.4320993263
 20
118.8498928706
 11
698.4320993263
 21
116.2442540525
  0
LINE
  5
2AE
100
AcDbEntity
  8
0
100
AcDbLine
 62
7
  6
CONTINUOUS
 10
699.249077647
 20
159.8107649755
 11
699.249077647
 21
127.7245175072
  0
LWPOLYLINE
  5
2AF
100
AcDbEntity
  8
BEZUGSACHSEN
100
AcDbPolyline
 62
7
  6
CONTINUOUS
 90
3
 70
0
 10
679.4233424817
 20
151.0029930524
 10
679.3937458093
 20
150.6912834547
 10
679.3661358142
 20
150.5057595454
  0
LINE
  5
2B0
100
AcDbEntity
  8
BEZUGSACHSEN
100
AcDbLine
 62
7
  6
CONTINUOUS
 10
679.4110870558
 20
150.873919965
 11
679.3890823558
 21
150.6563544134
  0
LINE
  5
2B1
100
AcDbEntity
  8
BEZUGSACHSEN
100
AcDbLine
 62
7
  6
CONTINUOUS
 10
679.3890823558
 20
150.6563544134
 11
679.3649087952
 21
150.498709843
  0
LINE
  5
2B2
100
AcDbEntity
  8
BEZUGSACHSEN
100
AcDbLine
 62
7
  6
CONTINUOUS
 10
679.3635934453
 20
150.4909838099
 11
679.3661164623
 21
150.5057628223
  0
LWPOLYLINE
  5
2B3
100
AcDbEntity
  8
BEZUGSACHSEN
100
AcDbPolyline
 62
7
  6
CONTINUOUS
 90
8
 70
0
 10
679.3635934453
 20
150.4909838099
 10
679.3063781283
 20
150.2095900899
 10
679.1800245352
 20
149.7666309046
 10
679.0006098888
 20
149.3111851374
 10
678.7647792108
 20
148.8553024118
 10
678.4694979092
 20
148.4083074875
 10
678.1123530238
 20
147.9794491065
 10
677.6981323179
 20
147.5839885376
  0
LINE
  5
2B4
100
AcDbEntity
  8
BEZUGSACHSEN
100
AcDbLine
 62
7
  6
CONTINUOUS
 10
680.2291342083
 20
218.2038161811
 11
688.0326627583
 21
238.5327030728
  0
LINE
  5
2B5
100
AcDbEntity
  8
RUNDUNGEN
100
AcDbLine
 62
7
  6
CONTINUOUS
 10
707.5003356094
 20
150.4926048052
 11
707.498080289
 21
150.5057740622
  0
LINE
  5
2B6
100
AcDbEntity
  8
RUNDUNGEN
100
AcDbLine
 62
7
  6
CONTINUOUS
 10
707.4992858475
 20
150.4987333407
 11
707.4770351276
 21
150.6424124713
  0
LWPOLYLINE
  5
2B7
100
AcDbEntity
  8
RUNDUNGEN
100
AcDbPolyline
 62
7
  6
CONTINUOUS
 90
3
 70
0
 10
707.498060937
 20
150.5057707854
 10
707.4722626128
 20
150.6773726192
 10
707.4420289699
 20
150.9845092385
  0
LINE
  5
2B8
100
AcDbEntity
  8
BEZUGSACHSEN
100
AcDbLine
 62
7
  6
CONTINUOUS
 10
707.4320993263
 20
213.3862621302
 11
707.4320993263
 21
209.5351274824
  0
LINE
  5
2B9
100
AcDbEntity
  8
BEZUGSACHSEN
100
AcDbLine
 62
7
  6
CONTINUOUS
 10
707.4320993263
 20
206.0436519575
 11
707.4320993263
 21
205.0543575206
  0
LINE
  5
2BA
100
AcDbEntity
  8
BEZUGSACHSEN
100
AcDbLine
 62
7
  6
CONTINUOUS
 10
707.4320993263
 20
202.6846153142
 11
707.4320993263
 21
200.9283767795
  0
LINE
  5
2BB
100
AcDbEntity
  8
BEZUGSACHSEN
100
AcDbLine
 62
7
  6
CONTINUOUS
 10
707.4320993263
 20
199.98870584
 11
707.4320993263
 21
197.4265794714
  0
LINE
  5
2BC
100
AcDbEntity
  8
BEZUGSACHSEN
100
AcDbLine
 62
7
  6
CONTINUOUS
 10
707.4320993263
 20
196.4871585142
 11
707.4320993263
 21
166.1410330485
  0
LINE
  5
2BD
100
AcDbEntity
  8
RUNDUNGEN
100
AcDbLine
 62
7
  6
CONTINUOUS
 10
707.4320993263
 20
166.1410329928
 11
707.4320993263
 21
150.63650575
  0
LINE
  5
2BE
100
AcDbEntity
  8
RUNDUNGEN
100
AcDbLine
 62
7
  6
CONTINUOUS
 10
714.4320993263
 20
130.3206139655
 11
714.4320993263
 21
141.8484929444
  0
LINE
  5
2BF
100
AcDbEntity
  8
RUNDUNGEN
100
AcDbLine
 62
7
  6
CONTINUOUS
 10
722.4320993263
 20
88.3719230841
 11
722.4320993263
 21
108.425731732
  0
LINE
  5
2C0
100
AcDbEntity
  8
RUNDUNGEN
100
AcDbLine
 62
7
  6
CONTINUOUS
 10
699.0457238558
 20
123.5664604618
 11
699.249077647
 21
127.7245175072
  0
LINE
  5
2C1
100
AcDbEntity
  8
0
100
AcDbLine
 62
7
  6
CONTINUOUS
 10
699.3117174398
 20
160.4852894479
 11
699.249077647
 21
159.8107649755
  0
LINE
  5
2C2
100
AcDbEntity
  8
RUNDUNGEN
100
AcDbLine
 62
7
  6
CONTINUOUS
 10
698.4320993263
 20
118.8498928706
 11
698.8387027548
 21
121.5127081055
  0
LWPOLYLINE
  5
2C3
100
AcDbEntity
  8
BEZUGSACHSEN
100
AcDbPolyline
 62
7
  6
CONTINUOUS
 90
7
 70
0
 10
679.3156909002
 20
150.2500167291
 10
679.1930688896
 20
149.8057933938
 10
679.016836827
 20
149.3473366582
 10
678.783008843
 20
148.8866464396
 10
678.4882064586
 20
148.433644553
 10
678.1294697046
 20
147.9978285281
 10
677.7121630798
 20
147.5959057523
  0
LINE
  5
2C4
100
AcDbEntity
  8
BEZUGSACHSEN
100
AcDbLine
 62
7
  6
CONTINUOUS
 10
666.4417182695
 20
115.925731732
 11
675.979346313
 21
132.4453880871
  0
LINE
  5
2C5
100
AcDbEntity
  8
BEZUGSACHSEN
100
AcDbLine
 62
7
  6
CONTINUOUS
 10
677.7121630798
 20
147.5959057523
 11
677.2325954652
 21
147.2332174075
  0
LINE
  5
2C6
100
AcDbEntity
  8
BEZUGSACHSEN
100
AcDbLine
 62
7
  6
CONTINUOUS
 10
676.7357448535
 20
146.9427155963
 11
676.209152994
 21
146.7118591728
  0
LINE
  5
2C7
100
AcDbEntity
  8
BEZUGSACHSEN
100
AcDbLine
 62
7
  6
CONTINUOUS
 10
676.209152994
 20
146.7118591728
 11
675.9518447161
 21
146.6243201997
  0
LINE
  5
2C8
100
AcDbEntity
  8
BEZUGSACHSEN
100
AcDbLine
 62
7
  6
CONTINUOUS
 10
677.2431732474
 20
147.2402256396
 11
676.7289050756
 21
146.9392806405
  0
LINE
  5
2C9
100
AcDbEntity
  8
0
100
AcDbLine
 62
7
  6
CONTINUOUS
 10
783.4320993263
 20
451.1949696185
 11
783.4320993263
 21
291.1949696185
  0
LINE
  5
2CA
100
AcDbEntity
  8
0
100
AcDbLine
 62
7
  6
CONTINUOUS
 10
823.4320993263
 20
451.1949696185
 11
823.4320993263
 21
291.1949696185
  0
LINE
  5
2CB
100
AcDbEntity
  8
RUNDUNGEN
100
AcDbLine
 62
7
  6
CONTINUOUS
 10
718.2762473922
 20
80.2570032084
 11
721.6789622435
 21
85.732954467
  0
LINE
  5
2CC
100
AcDbEntity
  8
RUNDUNGEN
100
AcDbLine
 62
7
  6
CONTINUOUS
 10
717.3125402119
 20
78.8045272588
 11
718.2762473922
 21
80.2570032085
  0
LINE
  5
2CD
100
AcDbEntity
  8
KONSTRUKTIONSELEMENTE
100
AcDbLine
 62
7
  6
CONTINUOUS
 10
186.1167208819
 20
-19.578460713
 11
204.3167208819
 21
-19.578460713
  0
LINE
  5
2CE
100
AcDbEntity
  8
KONSTRUKTIONSELEMENTE
100
AcDbLine
 62
7
  6
CONTINUOUS
 10
185.1167208819
 20
-18.8713539318
 11
186.1167208819
 21
-18.8713539318
  0
LINE
  5
2CF
100
AcDbEntity
  8
KONSTRUKTIONSELEMENTE
100
AcDbLine
 62
7
  6
CONTINUOUS
 10
204.3167208819
 20
-18.8713539318
 11
205.3167208819
 21
-18.8713539318
  0
LINE
  5
2D0
100
AcDbEntity
  8
KONSTRUKTIONSELEMENTE
100
AcDbLine
 62
7
  6
CONTINUOUS
 10
178.1167208819
 20
8.7058105345
 11
175.6099833842
 21
8.7058105345
  0
LINE
  5
2D1
100
AcDbEntity
  8
KONSTRUKTIONSELEMENTE
100
AcDbLine
 62
7
  6
CONTINUOUS
 10
212.3167208819
 20
8.7058105345
 11
237.2034868434
 21
8.7058105345
  0
LINE
  5
2D2
100
AcDbEntity
  8
KONSTRUKTIONSELEMENTE
100
AcDbLine
 62
7
  6
CONTINUOUS
 10
246.5339193822
 20
15.48803005
 11
236.0722977029
 21
17.8916181845
  0
LINE
  5
2D3
100
AcDbEntity
  8
KONSTRUKTIONSELEMENTE
100
AcDbLine
 62
7
  6
CONTINUOUS
 10
246.5339193822
 20
19.0235639559
 11
236.0722977029
 21
21.4271520904
  0
LINE
  5
2D4
100
AcDbEntity
  8
0
100
AcDbLine
 62
7
  6
CONTINUOUS
 10
228.9095027021
 20
66.4449696185
 11
220.1874832903
 21
66.4449696185
  0
LINE
  5
2D5
100
AcDbEntity
  8
0
100
AcDbLine
 62
7
  6
CONTINUOUS
 10
170.2459584734
 20
66.4449696185
 11
161.5239390616
 21
66.4449696185
  0
LINE
  5
2D6
100
AcDbEntity
  8
KONSTRUKTIONSELEMENTE
100
AcDbLine
 62
7
  6
CONTINUOUS
 10
140.2937125529
 20
71.3883347696
 11
153.1329755229
 21
74.3381929346
  0
LINE
  5
2D7
100
AcDbEntity
  8
KONSTRUKTIONSELEMENTE
100
AcDbLine
 62
7
  6
CONTINUOUS
 10
140.2937125529
 20
72.0954415507
 11
152.9447663007
 21
75.0020580973
  0
LINE
  5
2D8
100
AcDbEntity
  8
KONSTRUKTIONSELEMENTE
100
AcDbLine
 62
7
  6
CONTINUOUS
 10
141.9108141243
 20
75.4409596353
 11
150.8526307753
 21
77.4953681258
  0
LINE
  5
2D9
100
AcDbEntity
  8
KONSTRUKTIONSELEMENTE
100
AcDbLine
 62
7
  6
CONTINUOUS
 10
141.9108141243
 20
77.5622799788
 11
149.4873073503
 21
79.303001425
  0
LINE
  5
2DA
100
AcDbEntity
  8
0
100
AcDbLine
 62
7
  6
CONTINUOUS
 10
206.4667208819
 20
83.4449696185
 11
183.9667208819
 21
83.4449696185
  0
LINE
  5
2DB
100
AcDbEntity
  8
KONSTRUKTIONSELEMENTE
100
AcDbLine
 62
7
  6
CONTINUOUS
 10
136.1321963295
 20
88.7237885902
 11
147.7795690061
 21
91.3998064793
  0
LINE
  5
2DC
100
AcDbEntity
  8
KONSTRUKTIONSELEMENTE
100
AcDbLine
 62
7
  6
CONTINUOUS
 10
147.4023687944
 20
91.3859222045
 11
132.8241682929
 21
88.036538063
  0
LINE
  5
2DD
100
AcDbEntity
  8
KONSTRUKTIONSELEMENTE
100
AcDbLine
 62
7
  6
CONTINUOUS
 10
147.4023687944
 20
91.3859222045
 11
147.5109924723
 21
91.4045715971
  0
LINE
  5
2DE
100
AcDbEntity
  8
0
100
AcDbLine
 62
7
  6
CONTINUOUS
 10
206.4667208819
 20
107.9449696185
 11
183.9667208819
 21
107.9449696185
  0
LINE
  5
2DF
100
AcDbEntity
  8
KONSTRUKTIONSELEMENTE
100
AcDbLine
 62
7
  6
CONTINUOUS
 10
268.2100651179
 20
87.8314634287
 11
278.6716867972
 21
85.4278752942
  0
LINE
  5
2E0
100
AcDbEntity
  8
KONSTRUKTIONSELEMENTE
100
AcDbLine
 62
7
  6
CONTINUOUS
 10
202.9421457412
 20
112.4924074195
 11
206.4667208819
 21
111.6826259873
  0
LINE
  5
2E1
100
AcDbEntity
  8
KONSTRUKTIONSELEMENTE
100
AcDbLine
 62
7
  6
CONTINUOUS
 10
241.2167208819
 20
103.6987119983
 11
274.1293990774
 21
96.1369280598
  0
LINE
  5
2E2
100
AcDbEntity
  8
BEZUGSACHSEN
100
AcDbLine
 62
7
  6
CONTINUOUS
 10
149.9185875525
 20
78.6085174922
 11
159.2258057323
 21
67.5166067894
  0
LINE
  5
2E3
100
AcDbEntity
  8
KONSTRUKTIONSELEMENTE
100
AcDbLine
 62
7
  6
CONTINUOUS
 10
187.4912960225
 20
112.4924074195
 11
183.9667208819
 21
111.6826259873
  0
LINE
  5
2E4
100
AcDbEntity
  8
KONSTRUKTIONSELEMENTE
100
AcDbLine
 62
7
  6
CONTINUOUS
 10
149.2167208819
 20
103.6987119983
 11
137.2272860448
 21
100.9441043287
  0
LINE
  5
2E5
100
AcDbEntity
  8
KONSTRUKTIONSELEMENTE
100
AcDbLine
 62
7
  6
CONTINUOUS
 10
187.4912960225
 20
116.0279413255
 11
183.9667208819
 21
115.2181598932
  0
LINE
  5
2E6
100
AcDbEntity
  8
KONSTRUKTIONSELEMENTE
100
AcDbLine
 62
7
  6
CONTINUOUS
 10
149.2167208819
 20
107.2342459042
 11
137.2272860448
 21
104.4796382347
  0
LINE
  5
2E7
100
AcDbEntity
  8
KONSTRUKTIONSELEMENTE
100
AcDbLine
 62
7
  6
CONTINUOUS
 10
274.1293990774
 20
99.6724619657
 11
241.2167208819
 21
107.2342459042
  0
LINE
  5
2E8
100
AcDbEntity
  8
KONSTRUKTIONSELEMENTE
100
AcDbLine
 62
7
  6
CONTINUOUS
 10
206.4667208819
 20
115.2181598932
 11
202.9421457412
 21
116.0279413255
  0
LINE
  5
2E9
100
AcDbEntity
  8
KONSTRUKTIONSELEMENTE
100
AcDbLine
 62
7
  6
CONTINUOUS
 10
130.8068908256
 20
92.0340390869
 11
132.3519757975
 21
88.671546527
  0
LINE
  5
2EA
100
AcDbEntity
  8
KONSTRUKTIONSELEMENTE
100
AcDbLine
 62
7
  6
CONTINUOUS
 10
140.2937125529
 20
71.3883347696
 11
166.8515586906
 21
13.5917982241
  0
LINE
  5
2EB
100
AcDbEntity
  8
KONSTRUKTIONSELEMENTE
100
AcDbLine
 62
7
  6
CONTINUOUS
 10
140.2937125529
 20
72.0954415507
 11
139.9846955586
 21
72.7679400627
  0
LINE
  5
2EC
100
AcDbEntity
  8
RUNDUNGEN
100
AcDbLine
 62
7
  6
CONTINUOUS
 10
148.5468479008
 20
111.432013674
 11
144.2641333499
 21
118.8498928706
  0
LINE
  5
2ED
100
AcDbEntity
  8
KONSTRUKTIONSELEMENTE
100
AcDbLine
 62
7
  6
CONTINUOUS
 10
148.7904413352
 20
90.6533737005
 11
149.2167208819
 21
89.7256824536
  0
LINE
  5
2EE
100
AcDbEntity
  8
BEZUGSACHSEN
100
AcDbLine
 62
7
  6
CONTINUOUS
 10
236.1616074562
 20
195.5497771215
 11
236.9448058924
 21
195.7389606387
  0
LINE
  5
2EF
100
AcDbEntity
  8
BEZUGSACHSEN
100
AcDbLine
 62
7
  6
CONTINUOUS
 10
235.591714429
 20
196.9605974791
 11
236.374913616
 21
197.1497797786
  0
LINE
  5
2F0
100
AcDbEntity
  8
BEZUGSACHSEN
100
AcDbLine
 62
7
  6
CONTINUOUS
 10
161.6772699713
 20
202.734881989
 11
162.545988784
 21
202.6846153142
  0
LINE
  5
2F1
100
AcDbEntity
  8
BEZUGSACHSEN
100
AcDbLine
 62
7
  6
CONTINUOUS
 10
234.8986681437
 20
195.6522079525
 11
236.1616074562
 21
195.5497771215
  0
LINE
  5
2F2
100
AcDbEntity
  8
BEZUGSACHSEN
100
AcDbLine
 62
7
  6
CONTINUOUS
 10
161.4044776354
 20
203.7062392798
 11
161.9656720937
 21
203.5675927792
  0
LINE
  5
2F3
100
AcDbEntity
  8
BEZUGSACHSEN
100
AcDbLine
 62
7
  6
CONTINUOUS
 10
157.6819113879
 20
201.9242217379
 11
161.6192055496
 21
200.7793780565
  0
LINE
  5
2F4
100
AcDbEntity
  8
BEZUGSACHSEN
100
AcDbLine
 62
7
  6
CONTINUOUS
 10
157.5169843659
 20
201.0585530047
 11
161.0956454965
 21
199.98870584
  0
LINE
  5
2F5
100
AcDbEntity
  8
BEZUGSACHSEN
100
AcDbLine
 62
7
  6
CONTINUOUS
 10
155.4859954126
 20
203.5407727444
 11
155.9865476978
 21
203.3718012095
  0
LINE
  5
2F6
100
AcDbEntity
  8
BEZUGSACHSEN
100
AcDbLine
 62
7
  6
CONTINUOUS
 10
155.9347610501
 20
204.2184916025
 11
156.4353133353
 21
204.0495200676
  0
LINE
  5
2F7
100
AcDbEntity
  8
BEZUGSACHSEN
100
AcDbLine
 62
7
  6
CONTINUOUS
 10
160.9892411253
 20
202.9870426187
 11
161.6772699713
 21
202.734881989
  0
LINE
  5
2F8
100
AcDbEntity
  8
BEZUGSACHSEN
100
AcDbLine
 62
7
  6
CONTINUOUS
 10
160.80679453
 20
204.0593475096
 11
161.4044776354
 21
203.7062392798
  0
LINE
  5
2F9
100
AcDbEntity
  8
BEZUGSACHSEN
100
AcDbLine
 62
7
  6
CONTINUOUS
 10
160.2647229457
 20
203.4536640315
 11
160.9892411253
 21
202.9870426187
  0
LINE
  5
2FA
100
AcDbEntity
  8
BEZUGSACHSEN
100
AcDbLine
 62
7
  6
CONTINUOUS
 10
158.7770231075
 20
196.4871585142
 11
152.1068123355
 21
200.9039773079
  0
LINE
  5
2FB
100
AcDbEntity
  8
BEZUGSACHSEN
100
AcDbLine
 62
7
  6
CONTINUOUS
 10
159.225788745
 20
197.1648773723
 11
156.245481762
 21
199.1383496273
  0
LINE
  5
2FC
100
AcDbEntity
  8
BEZUGSACHSEN
100
AcDbLine
 62
7
  6
CONTINUOUS
 10
155.3939655947
 20
199.7021987678
 11
153.265174779
 21
201.1118218823
  0
LINE
  5
2FD
100
AcDbEntity
  8
BEZUGSACHSEN
100
AcDbLine
 62
7
  6
CONTINUOUS
 10
155.9865476978
 20
203.3718012095
 11
156.412306179
 21
203.0898763759
  0
LINE
  5
2FE
100
AcDbEntity
  8
BEZUGSACHSEN
100
AcDbLine
 62
7
  6
CONTINUOUS
 10
156.4353133353
 20
204.0495200676
 11
157.0029911777
 21
203.6736203773
  0
LINE
  5
2FF
100
AcDbEntity
  8
BEZUGSACHSEN
100
AcDbLine
 62
7
  6
CONTINUOUS
 10
160.2647229457
 20
203.4536640315
 11
156.3328511376
 21
206.9725910906
  0
LINE
  5
300
100
AcDbEntity
  8
BEZUGSACHSEN
100
AcDbLine
 62
7
  6
CONTINUOUS
 10
160.80679453
 20
204.0593475096
 11
156.8749227218
 21
207.5782745686
  0
LINE
  5
301
100
AcDbEntity
  8
BEZUGSACHSEN
100
AcDbLine
 62
7
  6
CONTINUOUS
 10
159.0432080251
 20
210.0010073257
 11
162.9750798332
 21
206.4820802666
  0
LINE
  5
302
100
AcDbEntity
  8
BEZUGSACHSEN
100
AcDbLine
 62
7
  6
CONTINUOUS
 10
159.5852793509
 20
210.6066905149
 11
163.517151159
 21
207.0877634559
  0
LINE
  5
303
100
AcDbEntity
  8
BEZUGSACHSEN
100
AcDbLine
 62
7
  6
CONTINUOUS
 10
156.763270061
 20
202.6949987704
 11
156.412306179
 21
203.0898763759
  0
LINE
  5
304
100
AcDbEntity
  8
BEZUGSACHSEN
100
AcDbLine
 62
7
  6
CONTINUOUS
 10
157.3539550597
 20
203.2787427718
 11
157.0029911777
 21
203.6736203773
  0
LINE
  5
305
100
AcDbEntity
  8
0
100
AcDbLine
 62
7
  6
CONTINUOUS
 10
135.2167208819
 20
159.8107649755
 11
143.2167208819
 21
127.7245175072
  0
LINE
  5
306
100
AcDbEntity
  8
RUNDUNGEN
100
AcDbLine
 62
7
  6
CONTINUOUS
 10
144.2641333499
 20
118.8498928706
 11
143.2167208819
 21
127.7245175072
  0
LINE
  5
307
100
AcDbEntity
  8
KONSTRUKTIONSELEMENTE
100
AcDbLine
 62
7
  6
CONTINUOUS
 10
130.3174559886
 20
94.2191192091
 11
130.3174559886
 21
97.754653115
  0
LINE
  5
308
100
AcDbEntity
  8
0
100
AcDbLine
 62
7
  6
CONTINUOUS
 10
135.2167208819
 20
194.9401513925
 11
135.2167208819
 21
159.8107649755
  0
LINE
  5
309
100
AcDbEntity
  8
KONSTRUKTIONSELEMENTE
100
AcDbLine
 62
7
  6
CONTINUOUS
 10
139.8378651074
 20
73.4234640994
 11
139.8378651074
 21
75.5447844429
  0
LINE
  5
30A
100
AcDbEntity
  8
KONSTRUKTIONSELEMENTE
100
AcDbLine
 62
7
  6
CONTINUOUS
 10
140.2937125529
 20
71.3883347696
 11
140.2937125529
 21
72.0954415507
  0
LINE
  5
30B
100
AcDbEntity
  8
BEZUGSACHSEN
100
AcDbLine
 62
7
  6
CONTINUOUS
 10
154.4177656825
 20
204.0856437063
 11
155.1427007865
 21
204.2555316004
  0
LINE
  5
30C
100
AcDbEntity
  8
BEZUGSACHSEN
100
AcDbLine
 62
7
  6
CONTINUOUS
 10
161.9656720937
 20
203.5675927792
 11
162.49037696
 21
203.6434067729
  0
LINE
  5
30D
100
AcDbEntity
  8
BEZUGSACHSEN
100
AcDbLine
 62
7
  6
CONTINUOUS
 10
164.3449075972
 20
214.5784003968
 11
164.9793301318
 21
214.6622963751
  0
LINE
  5
30E
100
AcDbEntity
  8
BEZUGSACHSEN
100
AcDbLine
 62
7
  6
CONTINUOUS
 10
155.052568073
 20
203.5028160641
 11
155.4859954126
 21
203.5407727444
  0
LINE
  5
30F
100
AcDbEntity
  8
BEZUGSACHSEN
100
AcDbLine
 62
7
  6
CONTINUOUS
 10
164.8925927452
 20
213.7058183142
 11
165.4227400735
 21
213.703232288
  0
LINE
  5
310
100
AcDbEntity
  8
BEZUGSACHSEN
100
AcDbLine
 62
7
  6
CONTINUOUS
 10
155.1427007865
 20
204.2555316004
 11
155.9347610501
 21
204.2184916025
  0
LINE
  5
311
100
AcDbEntity
  8
BEZUGSACHSEN
100
AcDbLine
 62
7
  6
CONTINUOUS
 10
164.9793301318
 20
214.6622963751
 11
165.8310731822
 21
214.4841593239
  0
LINE
  5
312
100
AcDbEntity
  8
BEZUGSACHSEN
100
AcDbLine
 62
7
  6
CONTINUOUS
 10
234.8946434046
 20
197.1182138461
 11
235.591714429
 21
196.9605974791
  0
LINE
  5
313
100
AcDbEntity
  8
BEZUGSACHSEN
100
AcDbLine
 62
7
  6
CONTINUOUS
 10
233.7218577445
 20
196.1014362324
 11
234.8986681437
 21
195.6522079525
  0
LINE
  5
314
100
AcDbEntity
  8
BEZUGSACHSEN
100
AcDbLine
 62
7
  6
CONTINUOUS
 10
165.4227400735
 20
213.703232288
 11
165.9572727577
 21
213.4831473755
  0
LINE
  5
315
100
AcDbEntity
  8
BEZUGSACHSEN
100
AcDbLine
 62
7
  6
CONTINUOUS
 10
165.8310731822
 20
214.4841593239
 11
166.47426582
 21
214.1330582638
  0
LINE
  5
316
100
AcDbEntity
  8
BEZUGSACHSEN
100
AcDbLine
 62
7
  6
CONTINUOUS
 10
165.9572727577
 20
213.4831473755
 11
166.4961889958
 21
213.0455633211
  0
LINE
  5
317
100
AcDbEntity
  8
BEZUGSACHSEN
100
AcDbLine
 62
7
  6
CONTINUOUS
 10
166.47426582
 20
214.1330582638
 11
167.1218426205
 21
213.5644573276
  0
LINE
  5
318
100
AcDbEntity
  8
BEZUGSACHSEN
100
AcDbLine
 62
7
  6
CONTINUOUS
 10
166.3192871545
 20
206.0436519575
 11
161.2122544223
 21
212.2014288837
  0
LINE
  5
319
100
AcDbEntity
  8
BEZUGSACHSEN
100
AcDbLine
 62
7
  6
CONTINUOUS
 10
166.2929791554
 20
207.3486451441
 11
162.4898695946
 21
211.9342238018
  0
LINE
  5
31A
100
AcDbEntity
  8
BEZUGSACHSEN
100
AcDbLine
 62
7
  6
CONTINUOUS
 10
166.4961889958
 20
213.0455633211
 11
168.1260930172
 21
211.0803154167
  0
LINE
  5
31B
100
AcDbEntity
  8
BEZUGSACHSEN
100
AcDbLine
 62
7
  6
CONTINUOUS
 10
167.1218426205
 20
213.5644573276
 11
168.7517466418
 21
211.5992094232
  0
LINE
  5
31C
100
AcDbEntity
  8
BEZUGSACHSEN
100
AcDbLine
 62
7
  6
CONTINUOUS
 10
164.060978552
 20
206.4192472616
 11
163.517151159
 21
207.0877634559
  0
LINE
  5
31D
100
AcDbEntity
  8
BEZUGSACHSEN
100
AcDbLine
 62
7
  6
CONTINUOUS
 10
163.392072669
 20
205.927077833
 11
162.9750798332
 21
206.4820802666
  0
LINE
  5
31E
100
AcDbEntity
  8
BEZUGSACHSEN
100
AcDbLine
 62
7
  6
CONTINUOUS
 10
169.1907727252
 20
210.8576448451
 11
168.7517466418
 21
211.5992094232
  0
LINE
  5
31F
100
AcDbEntity
  8
BEZUGSACHSEN
100
AcDbLine
 62
7
  6
CONTINUOUS
 10
168.4564588426
 20
210.4697673533
 11
168.1260930172
 21
211.0803154167
  0
LINE
  5
320
100
AcDbEntity
  8
BEZUGSACHSEN
100
AcDbLine
 62
7
  6
CONTINUOUS
 10
164.3876266003
 20
205.7632979353
 11
164.060978552
 21
206.4192472616
  0
LINE
  5
321
100
AcDbEntity
  8
BEZUGSACHSEN
100
AcDbLine
 62
7
  6
CONTINUOUS
 10
157.6972496858
 20
202.5639839157
 11
157.3539550597
 21
203.2787427718
  0
LINE
  5
322
100
AcDbEntity
  8
BEZUGSACHSEN
100
AcDbLine
 62
7
  6
CONTINUOUS
 10
163.5918860711
 20
205.384642347
 11
163.392072669
 21
205.927077833
  0
LINE
  5
323
100
AcDbEntity
  8
BEZUGSACHSEN
100
AcDbLine
 62
7
  6
CONTINUOUS
 10
156.8975201663
 20
202.2811426632
 11
156.763270061
 21
202.6949987704
  0
LINE
  5
324
100
AcDbEntity
  8
RUNDUNGEN
100
AcDbLine
 62
7
  6
CONTINUOUS
 10
149.2167208819
 20
80.5368803213
 11
149.2167208819
 21
136.0127036013
  0
LINE
  5
325
100
AcDbEntity
  8
0
100
AcDbLine
 62
7
  6
CONTINUOUS
 10
166.3144763997
 20
108.425731732
 11
166.3144763997
 21
93.6469696185
  0
LINE
  5
326
100
AcDbEntity
  8
BEZUGSACHSEN
100
AcDbLine
 62
7
  6
CONTINUOUS
 10
157.6819113879
 20
201.9242217379
 11
157.6972496858
 21
202.5639839157
  0
LINE
  5
327
100
AcDbEntity
  8
BEZUGSACHSEN
100
AcDbLine
 62
7
  6
CONTINUOUS
 10
163.5745196116
 20
204.8547731514
 11
163.5918860711
 21
205.384642347
  0
LINE
  5
328
100
AcDbEntity
  8
0
100
AcDbLine
 62
7
  6
CONTINUOUS
 10
232.2987602069
 20
226.4840181196
 11
215.2167208819
 21
232.0343091481
  0
LINE
  5
329
100
AcDbEntity
  8
BEZUGSACHSEN
100
AcDbLine
 62
7
  6
CONTINUOUS
 10
218.1181626446
 20
205.7851074796
 11
216.4907209658
 21
206.9476190302
  0
LINE
  5
32A
100
AcDbEntity
  8
BEZUGSACHSEN
100
AcDbLine
 62
7
  6
CONTINUOUS
 10
220.2109070364
 20
219.0372929941
 11
221.4314883683
 21
218.1654092791
  0
LINE
  5
32B
100
AcDbEntity
  8
BEZUGSACHSEN
100
AcDbLine
 62
7
  6
CONTINUOUS
 10
227.1275343896
 20
214.0966187481
 11
228.3481157215
 21
213.2247350332
  0
LINE
  5
32C
100
AcDbEntity
  8
BEZUGSACHSEN
100
AcDbLine
 62
7
  6
CONTINUOUS
 10
234.2836997919
 20
197.6226300972
 11
234.8946434046
 21
197.1182138461
  0
LINE
  5
32D
100
AcDbEntity
  8
BEZUGSACHSEN
100
AcDbLine
 62
7
  6
CONTINUOUS
 10
223.6187252452
 20
200.7014271719
 11
222.600029041
 21
201.8024530769
  0
LINE
  5
32E
100
AcDbEntity
  8
BEZUGSACHSEN
100
AcDbLine
 62
7
  6
CONTINUOUS
 10
175.2167208819
 20
217.826542528
 11
174.0093810242
 21
220.7977426382
  0
LINE
  5
32F
100
AcDbEntity
  8
BEZUGSACHSEN
100
AcDbLine
 62
7
  6
CONTINUOUS
 10
175.2167208819
 20
219.9857152286
 11
175.0828025787
 21
220.3152811537
  0
LINE
  5
330
100
AcDbEntity
  8
BEZUGSACHSEN
100
AcDbLine
 62
7
  6
CONTINUOUS
 10
169.4168622271
 20
210.1606136957
 11
169.1907727252
 21
210.8576448451
  0
LINE
  5
331
100
AcDbEntity
  8
BEZUGSACHSEN
100
AcDbLine
 62
7
  6
CONTINUOUS
 10
168.5738880105
 20
209.9037528104
 11
168.4564588426
 21
210.4697673533
  0
LINE
  5
332
100
AcDbEntity
  8
BEZUGSACHSEN
100
AcDbLine
 62
7
  6
CONTINUOUS
 10
164.5335838176
 20
204.9054538673
 11
164.3876266003
 21
205.7632979353
  0
LINE
  5
333
100
AcDbEntity
  8
BEZUGSACHSEN
100
AcDbLine
 62
7
  6
CONTINUOUS
 10
169.4344012783
 20
209.2906185832
 11
169.4168622271
 21
210.1606136957
  0
LINE
  5
334
100
AcDbEntity
  8
0
100
AcDbLine
 62
7
  6
CONTINUOUS
 10
175.2167208819
 20
561.1335416288
 11
175.2167208819
 21
181.2563976082
  0
LINE
  5
335
100
AcDbEntity
  8
KONSTRUKTIONSELEMENTE
100
AcDbLine
 62
7
  6
CONTINUOUS
 10
182.1167208819
 20
3.8554823363
 11
182.1167208819
 21
-16.7500335882
  0
LINE
  5
336
100
AcDbEntity
  8
BEZUGSACHSEN
100
AcDbLine
 62
7
  6
CONTINUOUS
 10
183.9667208819
 20
93.6469696185
 11
183.9667208819
 21
70.4452208228
  0
LINE
  5
337
100
AcDbEntity
  8
0
100
AcDbLine
 62
7
  6
CONTINUOUS
 10
183.9667208819
 20
93.6469696185
 11
183.9667208819
 21
123.1949696185
  0
LINE
  5
338
100
AcDbEntity
  8
KONSTRUKTIONSELEMENTE
100
AcDbLine
 62
7
  6
CONTINUOUS
 10
185.0167208819
 20
153.3798579653
 11
185.0167208819
 21
160.7337684896
  0
LINE
  5
339
100
AcDbEntity
  8
KONSTRUKTIONSELEMENTE
100
AcDbLine
 62
7
  6
CONTINUOUS
 10
186.1167208819
 20
-19.578460713
 11
186.1167208819
 21
3.048956285
  0
LINE
  5
33A
100
AcDbEntity
  8
BEZUGSACHSEN
100
AcDbLine
 62
7
  6
CONTINUOUS
 10
164.4258719092
 20
204.2746373307
 11
164.5335838176
 21
204.9054538673
  0
LINE
  5
33B
100
AcDbEntity
  8
BEZUGSACHSEN
100
AcDbLine
 62
7
  6
CONTINUOUS
 10
168.4783817901
 20
209.382272686
 11
168.5738880105
 21
209.9037528104
  0
LINE
  5
33C
100
AcDbEntity
  8
BEZUGSACHSEN
100
AcDbLine
 62
7
  6
CONTINUOUS
 10
156.8150567088
 20
201.8483083774
 11
156.8975201663
 21
202.2811426632
  0
LINE
  5
33D
100
AcDbEntity
  8
BEZUGSACHSEN
100
AcDbLine
 62
7
  6
CONTINUOUS
 10
232.848505656
 20
197.0314611599
 11
233.7218577445
 21
196.1014362324
  0
LINE
  5
33E
100
AcDbEntity
  8
BEZUGSACHSEN
100
AcDbLine
 62
7
  6
CONTINUOUS
 10
231.4082362814
 20
209.9520227103
 11
232.4269324856
 21
208.8509968053
  0
LINE
  5
33F
100
AcDbEntity
  8
BEZUGSACHSEN
100
AcDbLine
 62
7
  6
CONTINUOUS
 10
225.9228686259
 20
198.0480251025
 11
225.1356446998
 21
199.3248486965
  0
LINE
  5
340
100
AcDbEntity
  8
BEZUGSACHSEN
100
AcDbLine
 62
7
  6
CONTINUOUS
 10
230.4868338778
 20
200.861931942
 11
232.848505656
 21
197.0314611599
  0
LINE
  5
341
100
AcDbEntity
  8
BEZUGSACHSEN
100
AcDbLine
 62
7
  6
CONTINUOUS
 10
231.7908237758
 20
201.6659052174
 11
234.2836997919
 21
197.6226300972
  0
LINE
  5
342
100
AcDbEntity
  8
KONSTRUKTIONSELEMENTE
100
AcDbLine
 62
7
  6
CONTINUOUS
 10
191.4167208819
 20
127.9240138425
 11
191.4167208819
 21
133.7691115154
  0
LINE
  5
343
100
AcDbEntity
  8
KONSTRUKTIONSELEMENTE
100
AcDbLine
 62
7
  6
CONTINUOUS
 10
191.4167208819
 20
153.3798579653
 11
191.4167208819
 21
160.7337684896
  0
LINE
  5
344
100
AcDbEntity
  8
KONSTRUKTIONSELEMENTE
100
AcDbLine
 62
7
  6
CONTINUOUS
 10
191.7167208819
 20
161.510021177
 11
191.7167208819
 21
158.7442182572
  0
LINE
  5
345
100
AcDbEntity
  8
KONSTRUKTIONSELEMENTE
100
AcDbLine
 62
7
  6
CONTINUOUS
 10
191.7167208819
 20
130.1964067874
 11
191.7167208819
 21
107.9449696185
  0
LINE
  5
346
100
AcDbEntity
  8
KONSTRUKTIONSELEMENTE
100
AcDbLine
 62
7
  6
CONTINUOUS
 10
192.0167208819
 20
133.7118218743
 11
192.0167208819
 21
133.9767398238
  0
LINE
  5
347
100
AcDbEntity
  8
KONSTRUKTIONSELEMENTE
100
AcDbLine
 62
7
  6
CONTINUOUS
 10
192.0167208819
 20
149.6668156832
 11
192.0167208819
 21
154.9459604578
  0
LINE
  5
348
100
AcDbEntity
  8
KONSTRUKTIONSELEMENTE
100
AcDbLine
 62
7
  6
CONTINUOUS
 10
198.4167208819
 20
133.7118218743
 11
198.4167208819
 21
133.9767398238
  0
LINE
  5
349
100
AcDbEntity
  8
KONSTRUKTIONSELEMENTE
100
AcDbLine
 62
7
  6
CONTINUOUS
 10
198.4167208819
 20
149.6668156832
 11
198.4167208819
 21
154.9459604578
  0
LINE
  5
34A
100
AcDbEntity
  8
KONSTRUKTIONSELEMENTE
100
AcDbLine
 62
7
  6
CONTINUOUS
 10
198.7167208819
 20
161.510021177
 11
198.7167208819
 21
158.7442182572
  0
LINE
  5
34B
100
AcDbEntity
  8
KONSTRUKTIONSELEMENTE
100
AcDbLine
 62
7
  6
CONTINUOUS
 10
198.7167208819
 20
130.1964067874
 11
198.7167208819
 21
107.9449696185
  0
LINE
  5
34C
100
AcDbEntity
  8
KONSTRUKTIONSELEMENTE
100
AcDbLine
 62
7
  6
CONTINUOUS
 10
199.0167208819
 20
160.7337684896
 11
199.0167208819
 21
153.3798579653
  0
LINE
  5
34D
100
AcDbEntity
  8
KONSTRUKTIONSELEMENTE
100
AcDbLine
 62
7
  6
CONTINUOUS
 10
199.0167208819
 20
133.7691115154
 11
199.0167208819
 21
127.9240138425
  0
LINE
  5
34E
100
AcDbEntity
  8
KONSTRUKTIONSELEMENTE
100
AcDbLine
 62
7
  6
CONTINUOUS
 10
204.3167208819
 20
-19.578460713
 11
204.3167208819
 21
3.048956285
  0
LINE
  5
34F
100
AcDbEntity
  8
KONSTRUKTIONSELEMENTE
100
AcDbLine
 62
7
  6
CONTINUOUS
 10
205.4167208819
 20
160.7337684896
 11
205.4167208819
 21
153.3798579653
  0
LINE
  5
350
100
AcDbEntity
  8
BEZUGSACHSEN
100
AcDbLine
 62
7
  6
CONTINUOUS
 10
206.4667208819
 20
70.4452208228
 11
206.4667208819
 21
93.6469696185
  0
LINE
  5
351
100
AcDbEntity
  8
0
100
AcDbLine
 62
7
  6
CONTINUOUS
 10
206.4667208819
 20
93.6469696185
 11
206.4667208819
 21
123.1949696185
  0
LINE
  5
352
100
AcDbEntity
  8
KONSTRUKTIONSELEMENTE
100
AcDbLine
 62
7
  6
CONTINUOUS
 10
208.3167208819
 20
-16.7500335882
 11
208.3167208819
 21
3.7560630662
  0
LINE
  5
353
100
AcDbEntity
  8
BEZUGSACHSEN
100
AcDbLine
 62
7
  6
CONTINUOUS
 10
169.234619804
 20
208.6826565116
 11
169.4344012783
 21
209.2906185832
  0
LINE
  5
354
100
AcDbEntity
  8
BEZUGSACHSEN
100
AcDbLine
 62
7
  6
CONTINUOUS
 10
163.3399731127
 20
204.3374704053
 11
163.5745196116
 21
204.8547731514
  0
LINE
  5
355
100
AcDbEntity
  8
BEZUGSACHSEN
100
AcDbLine
 62
7
  6
CONTINUOUS
 10
164.1009805451
 20
203.6563877616
 11
164.4258719092
 21
204.2746373307
  0
LINE
  5
356
100
AcDbEntity
  8
BEZUGSACHSEN
100
AcDbLine
 62
7
  6
CONTINUOUS
 10
152.1068123355
 20
200.9039773079
 11
153.9018748854
 21
203.6148527403
  0
LINE
  5
357
100
AcDbEntity
  8
BEZUGSACHSEN
100
AcDbLine
 62
7
  6
CONTINUOUS
 10
153.265174779
 20
201.1118218823
 11
154.686265893
 21
203.2579314918
  0
LINE
  5
358
100
AcDbEntity
  8
0
100
AcDbLine
 62
7
  6
CONTINUOUS
 10
158.1346815569
 20
226.4840181196
 11
135.2167208819
 21
194.9401513925
  0
LINE
  5
359
100
AcDbEntity
  8
0
100
AcDbLine
 62
7
  6
CONTINUOUS
 10
255.2167208819
 20
194.9401513925
 11
232.2987602069
 21
226.4840181196
  0
LINE
  5
35A
100
AcDbEntity
  8
BEZUGSACHSEN
100
AcDbLine
 62
7
  6
CONTINUOUS
 10
235.0507991297
 20
203.6758387814
 11
237.5436751458
 21
199.6325636612
  0
LINE
  5
35B
100
AcDbEntity
  8
BEZUGSACHSEN
100
AcDbLine
 62
7
  6
CONTINUOUS
 10
235.350233452
 20
205.622640105
 11
238.4991291562
 21
200.5153457289
  0
LINE
  5
35C
100
AcDbEntity
  8
0
100
AcDbLine
 62
7
  6
CONTINUOUS
 10
215.2167208819
 20
561.1335416288
 11
215.2167208819
 21
181.2563976082
  0
LINE
  5
35D
100
AcDbEntity
  8
0
100
AcDbLine
 62
7
  6
CONTINUOUS
 10
224.118965364
 20
108.425731732
 11
224.118965364
 21
93.6469696185
  0
LINE
  5
35E
100
AcDbEntity
  8
BEZUGSACHSEN
100
AcDbLine
 62
7
  6
CONTINUOUS
 10
168.1699400294
 20
208.9053271635
 11
168.4783817901
 21
209.382272686
  0
LINE
  5
35F
100
AcDbEntity
  8
BEZUGSACHSEN
100
AcDbLine
 62
7
  6
CONTINUOUS
 10
155.3939655947
 20
199.7021987678
 11
156.8150567088
 21
201.8483083774
  0
LINE
  5
360
100
AcDbEntity
  8
BEZUGSACHSEN
100
AcDbLine
 62
7
  6
CONTINUOUS
 10
156.245481762
 20
199.1383496273
 11
157.5169843659
 21
201.0585530047
  0
LINE
  5
361
100
AcDbEntity
  8
BEZUGSACHSEN
100
AcDbLine
 62
7
  6
CONTINUOUS
 10
158.7770231075
 20
196.4871585142
 11
159.225788745
 21
197.1648773723
  0
LINE
  5
362
100
AcDbEntity
  8
BEZUGSACHSEN
100
AcDbLine
 62
7
  6
CONTINUOUS
 10
161.0956454965
 20
199.98870584
 11
161.6192055496
 21
200.7793780565
  0
LINE
  5
363
100
AcDbEntity
  8
BEZUGSACHSEN
100
AcDbLine
 62
7
  6
CONTINUOUS
 10
169.234619804
 20
208.6826565116
 11
168.8219016532
 21
208.1192279834
  0
LINE
  5
364
100
AcDbEntity
  8
BEZUGSACHSEN
100
AcDbLine
 62
7
  6
CONTINUOUS
 10
156.3328511376
 20
206.9725910906
 11
156.8749227218
 21
207.5782745686
  0
LINE
  5
365
100
AcDbEntity
  8
BEZUGSACHSEN
100
AcDbLine
 62
7
  6
CONTINUOUS
 10
159.0432080251
 20
210.0010073257
 11
159.5852793509
 21
210.6066905149
  0
LINE
  5
366
100
AcDbEntity
  8
BEZUGSACHSEN
100
AcDbLine
 62
7
  6
CONTINUOUS
 10
162.9785920565
 20
203.93368142
 11
163.3399731127
 21
204.3374704053
  0
LINE
  5
367
100
AcDbEntity
  8
BEZUGSACHSEN
100
AcDbLine
 62
7
  6
CONTINUOUS
 10
164.1009805451
 20
203.6563877616
 11
163.7395994889
 21
203.2525987762
  0
LINE
  5
368
100
AcDbEntity
  8
BEZUGSACHSEN
100
AcDbLine
 62
7
  6
CONTINUOUS
 10
153.9018748854
 20
203.6148527403
 11
154.4177656825
 21
204.0856437063
  0
LINE
  5
369
100
AcDbEntity
  8
BEZUGSACHSEN
100
AcDbLine
 62
7
  6
CONTINUOUS
 10
238.4991291562
 20
200.5153457289
 11
238.9378179454
 21
199.3173297096
  0
LINE
  5
36A
100
AcDbEntity
  8
BEZUGSACHSEN
100
AcDbLine
 62
7
  6
CONTINUOUS
 10
237.5436751458
 20
199.6325636612
 11
237.7199554591
 21
198.8601563183
  0
LINE
  5
36B
100
AcDbEntity
  8
RUNDUNGEN
100
AcDbLine
 62
7
  6
CONTINUOUS
 10
241.2167208819
 20
136.0127043311
 11
241.2167208819
 21
80.5368803213
  0
LINE
  5
36C
100
AcDbEntity
  8
KONSTRUKTIONSELEMENTE
100
AcDbLine
 62
7
  6
CONTINUOUS
 10
247.2249023878
 20
18.351065444
 11
247.2249023878
 21
14.815531538
  0
LINE
  5
36D
100
AcDbEntity
  8
BEZUGSACHSEN
100
AcDbLine
 62
7
  6
CONTINUOUS
 10
238.9378179454
 20
199.3173297096
 11
238.8106384466
 21
198.0641281543
  0
LINE
  5
36E
100
AcDbEntity
  8
BEZUGSACHSEN
100
AcDbLine
 62
7
  6
CONTINUOUS
 10
221.4314883683
 20
218.1654092791
 11
218.1948760897
 21
207.6129145031
  0
LINE
  5
36F
100
AcDbEntity
  8
BEZUGSACHSEN
100
AcDbLine
 62
7
  6
CONTINUOUS
 10
216.4907209658
 20
206.9476190302
 11
220.2109070364
 21
219.0372929941
  0
LINE
  5
370
100
AcDbEntity
  8
BEZUGSACHSEN
100
AcDbLine
 62
7
  6
CONTINUOUS
 10
161.2122544223
 20
212.2014288837
 11
163.714868921
 21
214.2770049096
  0
LINE
  5
371
100
AcDbEntity
  8
BEZUGSACHSEN
100
AcDbLine
 62
7
  6
CONTINUOUS
 10
162.4898695946
 20
211.9342238018
 11
164.3668304686
 21
213.4909058212
  0
LINE
  5
372
100
AcDbEntity
  8
BEZUGSACHSEN
100
AcDbLine
 62
7
  6
CONTINUOUS
 10
166.2929791554
 20
207.3486451441
 11
168.1699400294
 21
208.9053271635
  0
LINE
  5
373
100
AcDbEntity
  8
BEZUGSACHSEN
100
AcDbLine
 62
7
  6
CONTINUOUS
 10
168.8219016532
 20
208.1192279834
 11
166.3192871545
 21
206.0436519575
  0
LINE
  5
374
100
AcDbEntity
  8
BEZUGSACHSEN
100
AcDbLine
 62
7
  6
CONTINUOUS
 10
163.161038988
 20
202.8613767483
 11
163.7395994889
 21
203.2525987762
  0
LINE
  5
375
100
AcDbEntity
  8
BEZUGSACHSEN
100
AcDbLine
 62
7
  6
CONTINUOUS
 10
154.686265893
 20
203.2579314918
 11
155.052568073
 21
203.5028160641
  0
LINE
  5
376
100
AcDbEntity
  8
BEZUGSACHSEN
100
AcDbLine
 62
7
  6
CONTINUOUS
 10
163.714868921
 20
214.2770049096
 11
164.3449075972
 21
214.5784003968
  0
LINE
  5
377
100
AcDbEntity
  8
BEZUGSACHSEN
100
AcDbLine
 62
7
  6
CONTINUOUS
 10
174.0093810242
 20
220.7977426382
 11
175.2167208819
 21
221.2883422201
  0
LINE
  5
378
100
AcDbEntity
  8
0
100
AcDbLine
 62
7
  6
CONTINUOUS
 10
175.2167208819
 20
232.0343091481
 11
158.1346815569
 21
226.4840181196
  0
LINE
  5
379
100
AcDbEntity
  8
0
100
AcDbLine
 62
7
  6
CONTINUOUS
 10
255.2167208819
 20
159.8107649755
 11
255.2167208819
 21
194.9401513925
  0
LINE
  5
37A
100
AcDbEntity
  8
RUNDUNGEN
100
AcDbLine
 62
7
  6
CONTINUOUS
 10
246.1693084139
 20
118.8498928706
 11
247.2167208819
 21
127.7245175072
  0
LINE
  5
37B
100
AcDbEntity
  8
BEZUGSACHSEN
100
AcDbLine
 62
7
  6
CONTINUOUS
 10
237.7199554591
 20
198.8601563183
 11
237.5476998849
 21
198.1665577677
  0
LINE
  5
37C
100
AcDbEntity
  8
BEZUGSACHSEN
100
AcDbLine
 62
7
  6
CONTINUOUS
 10
238.8106384466
 20
198.0641281543
 11
238.3349245617
 21
196.889732956
  0
LINE
  5
37D
100
AcDbEntity
  8
BEZUGSACHSEN
100
AcDbLine
 62
7
  6
CONTINUOUS
 10
162.49037696
 20
203.6434067729
 11
162.9785920565
 21
203.93368142
  0
LINE
  5
37E
100
AcDbEntity
  8
BEZUGSACHSEN
100
AcDbLine
 62
7
  6
CONTINUOUS
 10
164.3668304686
 20
213.4909058212
 11
164.8925927452
 21
213.7058183142
  0
LINE
  5
37F
100
AcDbEntity
  8
BEZUGSACHSEN
100
AcDbLine
 62
7
  6
CONTINUOUS
 10
175.0828025787
 20
220.3152811537
 11
175.2167208819
 21
220.3696985268
  0
LINE
  5
380
100
AcDbEntity
  8
BEZUGSACHSEN
100
AcDbLine
 62
7
  6
CONTINUOUS
 10
162.545988784
 20
202.6846153142
 11
163.161038988
 21
202.8613767483
  0
LINE
  5
381
100
AcDbEntity
  8
KONSTRUKTIONSELEMENTE
100
AcDbLine
 62
7
  6
CONTINUOUS
 10
281.0392291337
 20
92.9474768461
 11
281.0392291337
 21
89.4119429402
  0
LINE
  5
382
100
AcDbEntity
  8
0
100
AcDbLine
 62
7
  6
CONTINUOUS
 10
247.2167208819
 20
127.7245175072
 11
255.2167208819
 21
159.8107649755
  0
LINE
  5
383
100
AcDbEntity
  8
BEZUGSACHSEN
100
AcDbLine
 62
7
  6
CONTINUOUS
 10
237.5476998849
 20
198.1665577677
 11
237.0269091738
 21
197.5517667917
  0
LINE
  5
384
100
AcDbEntity
  8
BEZUGSACHSEN
100
AcDbLine
 62
7
  6
CONTINUOUS
 10
238.3349245617
 20
196.889732956
 11
237.8141330999
 21
196.2749431977
  0
LINE
  5
385
100
AcDbEntity
  8
BEZUGSACHSEN
100
AcDbLine
 62
7
  6
CONTINUOUS
 10
222.600029041
 20
201.8024530769
 11
231.4082362814
 21
209.9520227103
  0
LINE
  5
386
100
AcDbEntity
  8
BEZUGSACHSEN
100
AcDbLine
 62
7
  6
CONTINUOUS
 10
232.4269324856
 20
208.8509968053
 11
223.6187252452
 21
200.7014271719
  0
LINE
  5
387
100
AcDbEntity
  8
BEZUGSACHSEN
100
AcDbLine
 62
7
  6
CONTINUOUS
 10
218.1181626446
 20
205.7851074796
 11
228.3481157215
 21
213.2247350332
  0
LINE
  5
388
100
AcDbEntity
  8
BEZUGSACHSEN
100
AcDbLine
 62
7
  6
CONTINUOUS
 10
218.1948760897
 20
207.6129145031
 11
227.1275343896
 21
214.0966187481
  0
LINE
  5
389
100
AcDbEntity
  8
BEZUGSACHSEN
100
AcDbLine
 62
7
  6
CONTINUOUS
 10
225.1356446998
 20
199.3248486965
 11
235.350233452
 21
205.622640105
  0
LINE
  5
38A
100
AcDbEntity
  8
BEZUGSACHSEN
100
AcDbLine
 62
7
  6
CONTINUOUS
 10
225.9228686259
 20
198.0480251025
 11
230.4868338778
 21
200.861931942
  0
LINE
  5
38B
100
AcDbEntity
  8
BEZUGSACHSEN
100
AcDbLine
 62
7
  6
CONTINUOUS
 10
231.7908237758
 20
201.6659052174
 11
235.0507991297
 21
203.6758387814
  0
LINE
  5
38C
100
AcDbEntity
  8
BEZUGSACHSEN
100
AcDbLine
 62
7
  6
CONTINUOUS
 10
237.0269091738
 20
197.5517667917
 11
236.374913616
 21
197.1497797786
  0
LINE
  5
38D
100
AcDbEntity
  8
BEZUGSACHSEN
100
AcDbLine
 62
7
  6
CONTINUOUS
 10
237.8141330999
 20
196.2749431977
 11
236.9448058924
 21
195.7389606387
  0
LINE
  5
38E
100
AcDbEntity
  8
RUNDUNGEN
100
AcDbLine
 62
7
  6
CONTINUOUS
 10
246.1693084139
 20
118.8498928706
 11
241.8865938629
 21
111.432013674
  0
LINE
  5
38F
100
AcDbEntity
  8
KONSTRUKTIONSELEMENTE
100
AcDbLine
 62
7
  6
CONTINUOUS
 10
229.6519024837
 20
26.8016834263
 11
255.6093300112
 21
83.2915584313
  0
LINE
  5
390
100
AcDbEntity
  8
KONSTRUKTIONSELEMENTE
100
AcDbLine
 62
7
  6
CONTINUOUS
 10
246.7140520064
 20
13.5917982241
 11
247.1759589041
 21
14.5970235258
  0
LINE
  5
391
100
AcDbEntity
  8
KONSTRUKTIONSELEMENTE
100
AcDbLine
 62
7
  6
CONTINUOUS
 10
279.9317603079
 20
85.881865794
 11
280.5497942966
 21
87.2268628179
  0
LINE
  5
392
100
AcDbEntity
  8
BEZUGSACHSEN
100
AcDbLine
 62
7
  6
CONTINUOUS
 10
231.2076360315
 20
67.5166067894
 11
240.5148542112
 21
78.6085174922
  0
ARC
  5
393
100
AcDbEntity
  8
BEZUGSACHSEN
100
AcDbCircle
 62
7
  6
CONTINUOUS
 10
4.4264403312
 20
-112.163304145
 40
775.8174039313
100
AcDbArc
 50
24.9861441167
 51
25.1236231297
  0
ARC
  5
394
100
AcDbEntity
  8
BEZUGSACHSEN
100
AcDbCircle
 62
7
  6
CONTINUOUS
 10
366.4583761086
 20
104.4740532964
 40
356.7925370047
100
AcDbArc
 50
17.0840682834
 51
17.2302838169
  0
ARC
  5
395
100
AcDbEntity
  8
BEZUGSACHSEN
100
AcDbCircle
 62
7
  6
CONTINUOUS
 10
434.6753215159
 20
-147.6698629151
 40
442.0121709892
100
AcDbArc
 50
51.862981086
 51
52.088110011
  0
ARC
  5
396
100
AcDbEntity
  8
BEZUGSACHSEN
100
AcDbCircle
 62
7
  6
CONTINUOUS
 10
382.3985439961
 20
104.2386345199
 40
340.3096120003
100
AcDbArc
 50
17.2060854353
 51
17.3573437198
  0
ARC
  5
397
100
AcDbEntity
  8
0
100
AcDbCircle
 62
7
  6
CONTINUOUS
 10
432.3668090724
 20
135.6381858656
 40
285.4256092197
100
AcDbArc
 50
17.6918206165
 51
17.8580735889
  0
ARC
  5
398
100
AcDbEntity
  8
BEZUGSACHSEN
100
AcDbCircle
 62
7
  6
CONTINUOUS
 10
440.6417171423
 20
138.3609668104
 40
277.519114067
100
AcDbArc
 50
17.6224835927
 51
17.7934091407
  0
ARC
  5
399
100
AcDbEntity
  8
BEZUGSACHSEN
100
AcDbCircle
 62
7
  6
CONTINUOUS
 10
506.8642864714
 20
115.6628879439
 40
224.7440070784
100
AcDbArc
 50
28.0572912712
 51
28.1954017734
  0
ARC
  5
39A
100
AcDbEntity
  8
KONSTRUKTIONSELEMENTE
100
AcDbCircle
 62
7
  6
CONTINUOUS
 10
524.3982232836
 20
122.1610935759
 40
11.55
100
AcDbArc
 50
61.1105804865
 51
135.0
  0
ARC
  5
39B
100
AcDbEntity
  8
KONSTRUKTIONSELEMENTE
100
AcDbCircle
 62
7
  6
CONTINUOUS
 10
524.3982232836
 20
122.1610935759
 40
11.55
100
AcDbArc
 50
315.0
 51
28.8894195135
  0
ARC
  5
39C
100
AcDbEntity
  8
KONSTRUKTIONSELEMENTE
100
AcDbCircle
 62
7
  6
CONTINUOUS
 10
515.9836525875
 20
113.7465228797
 40
11.55
100
AcDbArc
 50
237.5041463713
 51
315.0
  0
ARC
  5
39D
100
AcDbEntity
  8
KONSTRUKTIONSELEMENTE
100
AcDbCircle
 62
7
  6
CONTINUOUS
 10
515.9836525875
 20
113.7465228797
 40
11.55
100
AcDbArc
 50
135.0
 51
212.4958536287
  0
ARC
  5
39E
100
AcDbEntity
  8
KONSTRUKTIONSELEMENTE
100
AcDbCircle
 62
7
  6
CONTINUOUS
 10
524.3982232836
 20
122.1610935759
 40
4.55
100
AcDbArc
 50
89.7094363532
 51
135.0
  0
ARC
  5
39F
100
AcDbEntity
  8
KONSTRUKTIONSELEMENTE
100
AcDbCircle
 62
7
  6
CONTINUOUS
 10
524.3982232836
 20
122.1610935759
 40
4.55
100
AcDbArc
 50
315.0
 51
0.2905636468
  0
ARC
  5
3A0
100
AcDbEntity
  8
KONSTRUKTIONSELEMENTE
100
AcDbCircle
 62
7
  6
CONTINUOUS
 10
515.9836525875
 20
113.7465228797
 40
4.55
100
AcDbArc
 50
258.4100243465
 51
315.0
  0
ARC
  5
3A1
100
AcDbEntity
  8
KONSTRUKTIONSELEMENTE
100
AcDbCircle
 62
7
  6
CONTINUOUS
 10
515.9836525875
 20
113.7465228797
 40
4.55
100
AcDbArc
 50
135.0
 51
191.5899756535
  0
ARC
  5
3A2
100
AcDbEntity
  8
KONSTRUKTIONSELEMENTE
100
AcDbCircle
 62
7
  6
CONTINUOUS
 10
525.211396082
 20
122.9742663742
 40
3.2
100
AcDbArc
 50
135.0
 51
315.0
  0
ARC
  5
3A3
100
AcDbEntity
  8
0
100
AcDbCircle
 62
7
  6
CONTINUOUS
 10
493.6199746221
 20
151.1912651467
 40
219.5067768077
100
AcDbArc
 50
14.1506992873
 51
14.2933790761
  0
ARC
  5
3A4
100
AcDbEntity
  8
BEZUGSACHSEN
100
AcDbCircle
 62
7
  6
CONTINUOUS
 10
517.7421395793
 20
150.9529857887
 40
201.247499892
100
AcDbArc
 50
21.37158133
 51
21.5685589978
  0
ARC
  5
3A5
100
AcDbEntity
  8
BEZUGSACHSEN
100
AcDbCircle
 62
7
  6
CONTINUOUS
 10
553.2561465919
 20
138.4069427259
 40
172.888320956
100
AcDbArc
 50
26.8085933413
 51
27.0075287939
  0
ARC
  5
3A6
100
AcDbEntity
  8
KONSTRUKTIONSELEMENTE
100
AcDbCircle
 62
7
  6
CONTINUOUS
 10
542.8890656117
 20
140.6519359039
 40
10.2
100
AcDbArc
 50
135.0
 51
206.7018290247
  0
ARC
  5
3A7
100
AcDbEntity
  8
KONSTRUKTIONSELEMENTE
100
AcDbCircle
 62
7
  6
CONTINUOUS
 10
542.8890656117
 20
140.6519359039
 40
10.2
100
AcDbArc
 50
243.2981709753
 51
315.0
  0
ARC
  5
3A8
100
AcDbEntity
  8
KONSTRUKTIONSELEMENTE
100
AcDbCircle
 62
7
  6
CONTINUOUS
 10
550.242976136
 20
148.0058464282
 40
10.2
100
AcDbArc
 50
315.0
 51
26.7018290247
  0
ARC
  5
3A9
100
AcDbEntity
  8
KONSTRUKTIONSELEMENTE
100
AcDbCircle
 62
7
  6
CONTINUOUS
 10
550.242976136
 20
148.0058464282
 40
10.2
100
AcDbArc
 50
63.2981709753
 51
135.0
  0
ARC
  5
3AA
100
AcDbEntity
  8
KONSTRUKTIONSELEMENTE
100
AcDbCircle
 62
7
  6
CONTINUOUS
 10
542.8890656117
 20
140.6519359039
 40
3.8
100
AcDbArc
 50
135.0
 51
167.6253590191
  0
ARC
  5
3AB
100
AcDbEntity
  8
KONSTRUKTIONSELEMENTE
100
AcDbCircle
 62
7
  6
CONTINUOUS
 10
542.8890656117
 20
140.6519359039
 40
3.8
100
AcDbArc
 50
282.3746409809
 51
315.0
  0
ARC
  5
3AC
100
AcDbEntity
  8
KONSTRUKTIONSELEMENTE
100
AcDbCircle
 62
7
  6
CONTINUOUS
 10
550.242976136
 20
148.0058464282
 40
3.8
100
AcDbArc
 50
315.0
 51
347.6253590191
  0
ARC
  5
3AD
100
AcDbEntity
  8
KONSTRUKTIONSELEMENTE
100
AcDbCircle
 62
7
  6
CONTINUOUS
 10
550.242976136
 20
148.0058464282
 40
3.8
100
AcDbArc
 50
102.3746409809
 51
135.0
  0
ARC
  5
3AE
100
AcDbEntity
  8
KONSTRUKTIONSELEMENTE
100
AcDbCircle
 62
7
  6
CONTINUOUS
 10
550.6672402047
 20
148.4301104969
 40
3.2
100
AcDbArc
 50
135.0
 51
315.0
  0
ARC
  5
3AF
100
AcDbEntity
  8
KONSTRUKTIONSELEMENTE
100
AcDbCircle
 62
7
  6
CONTINUOUS
 10
542.464801543
 20
140.2276718352
 40
3.2
100
AcDbArc
 50
315.0
 51
135.0
  0
ARC
  5
3B0
100
AcDbEntity
  8
BEZUGSACHSEN
100
AcDbCircle
 62
7
  6
CONTINUOUS
 10
679.4320993263
 20
108.425731732
 40
15.0
100
AcDbArc
 50
150.0
 51
180.0
  0
ARC
  5
3B1
100
AcDbEntity
  8
BEZUGSACHSEN
100
AcDbCircle
 62
7
  6
CONTINUOUS
 10
669.4320993263
 20
88.3719230841
 40
5.0
100
AcDbArc
 50
180.0
 51
211.8565064565
  0
ARC
  5
3B2
100
AcDbEntity
  8
BEZUGSACHSEN
100
AcDbCircle
 62
7
  6
CONTINUOUS
 10
657.4320993263
 20
130.3206139655
 40
15.0
100
AcDbArc
 50
330.6489713793
 51
360.0
  0
ARC
  5
3B3
100
AcDbEntity
  8
BEZUGSACHSEN
100
AcDbCircle
 62
7
  6
CONTINUOUS
 10
677.4320993263
 20
141.8484929444
 40
5.0
100
AcDbArc
 50
107.0348021631
 51
180.0
  0
ARC
  5
3B4
100
AcDbEntity
  8
BEZUGSACHSEN
100
AcDbCircle
 62
7
  6
CONTINUOUS
 10
693.4320993263
 20
95.6949696185
 40
29.25
100
AcDbArc
 50
211.8565064565
 51
324.7285400078
  0
ARC
  5
3B5
100
AcDbEntity
  8
RUNDUNGEN
100
AcDbCircle
 62
7
  6
CONTINUOUS
 10
693.4320993263
 20
95.6949696185
 40
29.25
100
AcDbArc
 50
324.7285400078
 51
328.1434935435
  0
ARC
  5
3B6
100
AcDbEntity
  8
RUNDUNGEN
100
AcDbCircle
 62
7
  6
CONTINUOUS
 10
707.4320993263
 20
108.425731732
 40
15.0
100
AcDbArc
 50
0.0
 51
30.0
  0
CIRCLE
  5
3B7
100
AcDbEntity
  8
0
100
AcDbCircle
 62
7
  6
CONTINUOUS
 10
693.4320993263
 20
95.6949696185
 40
11.75
  0
ARC
  5
3B8
100
AcDbEntity
  8
RUNDUNGEN
100
AcDbCircle
 62
7
  6
CONTINUOUS
 10
717.4320993263
 20
88.3719230841
 40
5.0
100
AcDbArc
 50
328.1434935435
 51
360.0
  0
ARC
  5
3B9
100
AcDbEntity
  8
RUNDUNGEN
100
AcDbCircle
 62
7
  6
CONTINUOUS
 10
729.4320993263
 20
130.3206139655
 40
15.0
100
AcDbArc
 50
180.0
 51
209.3510356842
  0
ARC
  5
3BA
100
AcDbEntity
  8
RUNDUNGEN
100
AcDbCircle
 62
7
  6
CONTINUOUS
 10
709.4320993263
 20
141.8484929444
 40
5.0
100
AcDbArc
 50
0.0
 51
72.7786396825
  0
ARC
  5
3BB
100
AcDbEntity
  8
0
100
AcDbCircle
 62
7
  6
CONTINUOUS
 10
497.3868444695
 20
155.4361872659
 40
215.9243868456
100
AcDbArc
 50
14.4679174276
 51
14.6108708485
  0
ARC
  5
3BC
100
AcDbEntity
  8
BEZUGSACHSEN
100
AcDbCircle
 62
7
  6
CONTINUOUS
 10
502.5691143297
 20
154.1028278707
 40
210.8502833185
100
AcDbArc
 50
13.9279375751
 51
14.0763318524
  0
ARC
  5
3BD
100
AcDbEntity
  8
BEZUGSACHSEN
100
AcDbCircle
 62
7
  6
CONTINUOUS
 10
505.8875477167
 20
158.1372241516
 40
207.7824051527
100
AcDbArc
 50
14.2780893703
 51
14.4265195342
  0
ARC
  5
3BE
100
AcDbEntity
  8
BEZUGSACHSEN
100
AcDbCircle
 62
7
  6
CONTINUOUS
 10
528.3460830466
 20
164.7635081361
 40
181.6327219934
100
AcDbArc
 50
11.8056521762
 51
12.0119034053
  0
ARC
  5
3BF
100
AcDbEntity
  8
BEZUGSACHSEN
100
AcDbCircle
 62
7
  6
CONTINUOUS
 10
543.6034956073
 20
154.3025009687
 40
175.9099239887
100
AcDbArc
 50
22.3937106237
 51
22.7614441707
  0
ARC
  5
3C0
100
AcDbEntity
  8
BEZUGSACHSEN
100
AcDbCircle
 62
7
  6
CONTINUOUS
 10
550.5019549222
 20
171.3127962641
 40
160.5304576814
100
AcDbArc
 50
11.8488621734
 51
12.0790096096
  0
ARC
  5
3C1
100
AcDbEntity
  8
BEZUGSACHSEN
100
AcDbCircle
 62
7
  6
CONTINUOUS
 10
565.4319338398
 20
163.252739823
 40
152.3178476482
100
AcDbArc
 50
21.3911516893
 51
22.3961981545
  0
ARC
  5
3C2
100
AcDbEntity
  8
BEZUGSACHSEN
100
AcDbCircle
 62
7
  6
CONTINUOUS
 10
559.0433415107
 20
175.8956530468
 40
152.1735368819
100
AcDbArc
 50
12.5110087753
 51
12.6769172621
  0
ARC
  5
3C3
100
AcDbEntity
  8
BEZUGSACHSEN
100
AcDbCircle
 62
7
  6
CONTINUOUS
 10
569.2126113361
 20
159.7375374706
 40
150.1336024479
100
AcDbArc
 50
25.1263879292
 51
25.3522323603
  0
ARC
  5
3C4
100
AcDbEntity
  8
BEZUGSACHSEN
100
AcDbCircle
 62
7
  6
CONTINUOUS
 10
565.8105837137
 20
173.0115703566
 40
148.4022580968
100
AcDbArc
 50
17.5418387442
 51
17.7144181965
  0
ARC
  5
3C5
100
AcDbEntity
  8
BEZUGSACHSEN
100
AcDbCircle
 62
7
  6
CONTINUOUS
 10
563.2306996576
 20
180.4496332477
 40
148.0693350339
100
AcDbArc
 50
16.3925336289
 51
16.5644396967
  0
ARC
  5
3C6
100
AcDbEntity
  8
0
100
AcDbCircle
 62
7
  6
CONTINUOUS
 10
561.0003198928
 20
179.1833088955
 40
145.9300183868
100
AcDbArc
 50
8.935017451
 51
9.1070874636
  0
ARC
  5
3C7
100
AcDbEntity
  8
BEZUGSACHSEN
100
AcDbCircle
 62
7
  6
CONTINUOUS
 10
565.1933059785
 20
180.4736279663
 40
142.2984255549
100
AcDbArc
 50
8.6391103675
 51
8.8154305623
  0
ARC
  5
3C8
100
AcDbEntity
  8
BEZUGSACHSEN
100
AcDbCircle
 62
7
  6
CONTINUOUS
 10
585.7197574611
 20
187.0565212149
 40
124.5646535585
100
AcDbArc
 50
14.6174319648
 51
14.8644603336
  0
ARC
  5
3C9
100
AcDbEntity
  8
0
100
AcDbCircle
 62
7
  6
CONTINUOUS
 10
601.5436319326
 20
190.8102968576
 40
105.8582150989
100
AcDbArc
 50
7.341659114
 51
7.624054525
  0
ARC
  5
3CA
100
AcDbEntity
  8
KONSTRUKTIONSELEMENTE
100
AcDbCircle
 62
7
  6
CONTINUOUS
 10
577.4312318726
 20
175.1941021649
 40
11.55
100
AcDbArc
 50
65.2810606849
 51
135.0
  0
ARC
  5
3CB
100
AcDbEntity
  8
KONSTRUKTIONSELEMENTE
100
AcDbCircle
 62
7
  6
CONTINUOUS
 10
577.4312318726
 20
175.1941021649
 40
11.55
100
AcDbArc
 50
315.0
 51
24.7189393151
  0
ARC
  5
3CC
100
AcDbEntity
  8
KONSTRUKTIONSELEMENTE
100
AcDbCircle
 62
7
  6
CONTINUOUS
 10
569.0166611765
 20
166.7795314687
 40
11.55
100
AcDbArc
 50
241.1105804865
 51
315.0
  0
ARC
  5
3CD
100
AcDbEntity
  8
KONSTRUKTIONSELEMENTE
100
AcDbCircle
 62
7
  6
CONTINUOUS
 10
569.0166611765
 20
166.7795314687
 40
11.55
100
AcDbArc
 50
135.0
 51
208.8894195135
  0
ARC
  5
3CE
100
AcDbEntity
  8
KONSTRUKTIONSELEMENTE
100
AcDbCircle
 62
7
  6
CONTINUOUS
 10
577.4312318726
 20
175.1941021649
 40
4.55
100
AcDbArc
 50
106.6976500586
 51
135.0
  0
ARC
  5
3CF
100
AcDbEntity
  8
KONSTRUKTIONSELEMENTE
100
AcDbCircle
 62
7
  6
CONTINUOUS
 10
577.4312318726
 20
175.1941021649
 40
4.55
100
AcDbArc
 50
315.0
 51
343.3023499414
  0
ARC
  5
3D0
100
AcDbEntity
  8
KONSTRUKTIONSELEMENTE
100
AcDbCircle
 62
7
  6
CONTINUOUS
 10
569.0166611765
 20
166.7795314687
 40
4.55
100
AcDbArc
 50
269.7094363532
 51
315.0
  0
ARC
  5
3D1
100
AcDbEntity
  8
KONSTRUKTIONSELEMENTE
100
AcDbCircle
 62
7
  6
CONTINUOUS
 10
569.0166611765
 20
166.7795314687
 40
4.55
100
AcDbArc
 50
135.0
 51
180.2905636468
  0
ARC
  5
3D2
100
AcDbEntity
  8
KONSTRUKTIONSELEMENTE
100
AcDbCircle
 62
7
  6
CONTINUOUS
 10
577.4665872117
 20
175.2294575039
 40
4.0
100
AcDbArc
 50
135.0
 51
315.0
  0
ARC
  5
3D3
100
AcDbEntity
  8
KONSTRUKTIONSELEMENTE
100
AcDbCircle
 62
7
  6
CONTINUOUS
 10
567.9206456657
 20
165.6835159579
 40
3.2
100
AcDbArc
 50
315.0
 51
135.0
  0
ARC
  5
3D4
100
AcDbEntity
  8
BEZUGSACHSEN
100
AcDbCircle
 62
7
  6
CONTINUOUS
 10
604.735535972
 20
191.7184249413
 40
103.3231706678
100
AcDbArc
 50
7.0151511939
 51
7.3042656414
  0
ARC
  5
3D5
100
AcDbEntity
  8
0
100
AcDbCircle
 62
7
  6
CONTINUOUS
 10
608.2022284409
 20
197.3078053846
 40
99.2654778722
100
AcDbArc
 50
15.0999707685
 51
15.3737685254
  0
ARC
  5
3D6
100
AcDbEntity
  8
BEZUGSACHSEN
100
AcDbCircle
 62
7
  6
CONTINUOUS
 10
611.1652188407
 20
198.0759708059
 40
97.0209195988
100
AcDbArc
 50
14.9877900831
 51
15.267777412
  0
ARC
  5
3D7
100
AcDbEntity
  8
BEZUGSACHSEN
100
AcDbCircle
 62
7
  6
CONTINUOUS
 10
618.6667811162
 20
190.162754942
 40
92.9285914956
100
AcDbArc
 50
16.787343878
 51
16.9278038592
  0
ARC
  5
3D8
100
AcDbEntity
  8
BEZUGSACHSEN
100
AcDbCircle
 62
7
  6
CONTINUOUS
 10
616.0679381619
 20
194.2916616465
 40
92.0867123933
100
AcDbArc
 50
6.0893695057
 51
6.2235765117
  0
ARC
  5
3D9
100
AcDbEntity
  8
0
100
AcDbCircle
 62
7
  6
CONTINUOUS
 10
616.5608612789
 20
196.0858638213
 40
90.880842029
100
AcDbArc
 50
8.1090686407
 51
8.4129117727
  0
ARC
  5
3DA
100
AcDbEntity
  8
0
100
AcDbCircle
 62
7
  6
CONTINUOUS
 10
613.1825912856
 20
203.0504751815
 40
90.6728500902
100
AcDbArc
 50
358.643510613
 51
0.356630027
  0
ARC
  5
3DB
100
AcDbEntity
  8
BEZUGSACHSEN
100
AcDbCircle
 62
7
  6
CONTINUOUS
 10
614.603466948
 20
203.6254894729
 40
89.9670515809
100
AcDbArc
 50
358.2665325885
 51
359.9932259658
  0
ARC
  5
3DC
100
AcDbEntity
  8
BEZUGSACHSEN
100
AcDbCircle
 62
7
  6
CONTINUOUS
 10
619.5170322617
 20
196.862757128
 40
88.6232975734
100
AcDbArc
 50
7.809793845
 51
8.1211479234
  0
ARC
  5
3DD
100
AcDbEntity
  8
BEZUGSACHSEN
100
AcDbCircle
 62
7
  6
CONTINUOUS
 10
616.580918084
 20
203.1544422342
 40
88.3162920817
100
AcDbArc
 50
358.6747183434
 51
0.0671393568
  0
ARC
  5
3DE
100
AcDbEntity
  8
0
100
AcDbCircle
 62
7
  6
CONTINUOUS
 10
620.7644706588
 20
201.1705893815
 40
84.3977464783
100
AcDbArc
 50
359.6794117971
 51
0.4600935108
  0
ARC
  5
3DF
100
AcDbEntity
  8
BEZUGSACHSEN
100
AcDbCircle
 62
7
  6
CONTINUOUS
 10
622.177581106
 20
201.7448989879
 40
83.6997073529
100
AcDbArc
 50
358.6015515896
 51
0.0707878591
  0
ARC
  5
3E0
100
AcDbEntity
  8
BEZUGSACHSEN
100
AcDbCircle
 62
7
  6
CONTINUOUS
 10
624.4004277597
 20
201.1813864516
 40
81.8688945849
100
AcDbArc
 50
358.5700363853
 51
359.9140352296
  0
ARC
  5
3E1
100
AcDbEntity
  8
BEZUGSACHSEN
100
AcDbCircle
 62
7
  6
CONTINUOUS
 10
631.7574389852
 20
202.8986339155
 40
75.9462411911
100
AcDbArc
 50
12.1775690318
 51
12.4174645608
  0
ARC
  5
3E2
100
AcDbEntity
  8
BEZUGSACHSEN
100
AcDbCircle
 62
7
  6
CONTINUOUS
 10
631.7522052195
 20
199.2204340242
 40
75.8893848042
100
AcDbArc
 50
357.93595601
 51
358.4478840232
  0
ARC
  5
3E3
100
AcDbEntity
  8
BEZUGSACHSEN
100
AcDbCircle
 62
7
  6
CONTINUOUS
 10
632.2459159015
 20
199.2052422018
 40
75.3955229401
100
AcDbArc
 50
0.5953930157
 51
1.1963295846
  0
ARC
  5
3E4
100
AcDbEntity
  8
0
100
AcDbCircle
 62
7
  6
CONTINUOUS
 10
631.3010977255
 20
208.7864698674
 40
72.5543725615
100
AcDbArc
 50
0.9591581916
 51
1.4375688229
  0
ARC
  5
3E5
100
AcDbEntity
  8
0
100
AcDbCircle
 62
7
  6
CONTINUOUS
 10
631.3010977817
 20
208.7928117368
 40
72.5543725052
100
AcDbArc
 50
358.562431177
 51
359.0408420367
  0
ARC
  5
3E6
100
AcDbEntity
  8
BEZUGSACHSEN
100
AcDbCircle
 62
7
  6
CONTINUOUS
 10
632.6859348733
 20
209.2548824702
 40
71.9210091769
100
AcDbArc
 50
358.181510215
 51
358.664211465
  0
ARC
  5
3E7
100
AcDbEntity
  8
BEZUGSACHSEN
100
AcDbCircle
 62
7
  6
CONTINUOUS
 10
632.9635919563
 20
209.2466222506
 40
71.6432850689
100
AcDbArc
 50
0.6033207391
 51
1.0877621356
  0
ARC
  5
3E8
100
AcDbEntity
  8
BEZUGSACHSEN
100
AcDbCircle
 62
7
  6
CONTINUOUS
 10
641.4285182114
 20
212.3859087981
 40
63.7482827146
100
AcDbArc
 50
352.0916498299
 51
352.518633935
  0
ARC
  5
3E9
100
AcDbEntity
  8
0
100
AcDbCircle
 62
7
  6
CONTINUOUS
 10
640.6537337682
 20
211.9128999147
 40
63.7423831757
100
AcDbArc
 50
352.5199482735
 51
352.9465531252
  0
ARC
  5
3EA
100
AcDbEntity
  8
BEZUGSACHSEN
100
AcDbCircle
 62
7
  6
CONTINUOUS
 10
646.1131512107
 20
203.9115726002
 40
61.5639981336
100
AcDbArc
 50
359.3867009764
 51
359.7625063907
  0
ARC
  5
3EB
100
AcDbEntity
  8
BEZUGSACHSEN
100
AcDbCircle
 62
7
  6
CONTINUOUS
 10
645.8258256468
 20
204.5937825847
 40
61.4599268384
100
AcDbArc
 50
359.3846114059
 51
359.7610532677
  0
ARC
  5
3EC
100
AcDbEntity
  8
BEZUGSACHSEN
100
AcDbCircle
 62
7
  6
CONTINUOUS
 10
654.5207199734
 20
186.9840181664
 40
60.8266561269
100
AcDbArc
 50
29.7876382387
 51
30.0440824004
  0
ARC
  5
3ED
100
AcDbEntity
  8
BEZUGSACHSEN
100
AcDbCircle
 62
7
  6
CONTINUOUS
 10
653.2926050503
 20
195.2689563641
 40
58.9072692358
100
AcDbArc
 50
28.1105493042
 51
28.306055089
  0
ARC
  5
3EE
100
AcDbEntity
  8
BEZUGSACHSEN
100
AcDbCircle
 62
7
  6
CONTINUOUS
 10
653.0122835119
 20
198.2347009053
 40
54.9325442988
100
AcDbArc
 50
5.6641528775
 51
6.0875437208
  0
ARC
  5
3EF
100
AcDbEntity
  8
0
100
AcDbCircle
 62
7
  6
CONTINUOUS
 10
650.6790223642
 20
213.9315828574
 40
53.1764184549
100
AcDbArc
 50
358.1354889681
 51
0.3721831124
  0
ARC
  5
3F0
100
AcDbEntity
  8
BEZUGSACHSEN
100
AcDbCircle
 62
7
  6
CONTINUOUS
 10
652.0737463042
 20
214.2688722614
 40
52.5656892829
100
AcDbArc
 50
357.7459376503
 51
0.0088644594
  0
ARC
  5
3F1
100
AcDbEntity
  8
BEZUGSACHSEN
100
AcDbCircle
 62
7
  6
CONTINUOUS
 10
653.617425019
 20
213.4818790803
 40
51.4140420205
100
AcDbArc
 50
358.275033257
 51
0.010059395
  0
ARC
  5
3F2
100
AcDbEntity
  8
KONSTRUKTIONSELEMENTE
100
AcDbCircle
 62
7
  6
CONTINUOUS
 10
632.6209161442
 20
230.3837864365
 40
4.0
100
AcDbArc
 50
315.0
 51
135.0
  0
ARC
  5
3F3
100
AcDbEntity
  8
BEZUGSACHSEN
100
AcDbCircle
 62
7
  6
CONTINUOUS
 10
666.3747104855
 20
159.3928340505
 40
67.3311343317
100
AcDbArc
 50
54.9064777051
 51
55.1710167566
  0
ARC
  5
3F4
100
AcDbEntity
  8
BEZUGSACHSEN
100
AcDbCircle
 62
7
  6
CONTINUOUS
 10
660.059705202
 20
190.3041340443
 40
54.858198483
100
AcDbArc
 50
35.1026272404
 51
35.4468656563
  0
ARC
  5
3F5
100
AcDbEntity
  8
BEZUGSACHSEN
100
AcDbCircle
 62
7
  6
CONTINUOUS
 10
656.0601505304
 20
216.2087334549
 40
50.5250011667
100
AcDbArc
 50
345.1479104316
 51
345.4350205163
  0
ARC
  5
3F6
100
AcDbEntity
  8
BEZUGSACHSEN
100
AcDbCircle
 62
7
  6
CONTINUOUS
 10
659.4538921604
 20
206.4230689561
 40
49.0696856168
100
AcDbArc
 50
22.1632349438
 51
22.5472557003
  0
ARC
  5
3F7
100
AcDbEntity
  8
BEZUGSACHSEN
100
AcDbCircle
 62
7
  6
CONTINUOUS
 10
662.4014082539
 20
203.1310045543
 40
45.580752648
100
AcDbArc
 50
6.2828654038
 51
6.6405087437
  0
ARC
  5
3F8
100
AcDbEntity
  8
BEZUGSACHSEN
100
AcDbCircle
 62
7
  6
CONTINUOUS
 10
662.3559442227
 20
208.1006943341
 40
45.3524500503
100
AcDbArc
 50
357.8358397078
 51
0.0234143891
  0
ARC
  5
3F9
100
AcDbEntity
  8
BEZUGSACHSEN
100
AcDbCircle
 62
7
  6
CONTINUOUS
 10
662.2163333064
 20
208.8965082822
 40
45.1019832917
100
AcDbArc
 50
358.0332695594
 51
0.0112031588
  0
ARC
  5
3FA
100
AcDbEntity
  8
BEZUGSACHSEN
100
AcDbCircle
 62
7
  6
CONTINUOUS
 10
664.7411716563
 20
208.0185722545
 40
42.9658235115
100
AcDbArc
 50
357.3654762886
 51
357.8251592497
  0
ARC
  5
3FB
100
AcDbEntity
  8
BEZUGSACHSEN
100
AcDbCircle
 62
7
  6
CONTINUOUS
 10
669.475707577
 20
210.1753620523
 40
38.820693042
100
AcDbArc
 50
349.1403246923
 51
349.4090332783
  0
ARC
  5
3FC
100
AcDbEntity
  8
BEZUGSACHSEN
100
AcDbCircle
 62
7
  6
CONTINUOUS
 10
667.5381063675
 20
214.927793226
 40
38.4041192526
100
AcDbArc
 50
11.6201498826
 51
12.065548788
  0
ARC
  5
3FD
100
AcDbEntity
  8
BEZUGSACHSEN
100
AcDbCircle
 62
7
  6
CONTINUOUS
 10
672.829812096
 20
212.2027234695
 40
35.4308438616
100
AcDbArc
 50
346.0202989106
 51
346.382842452
  0
ARC
  5
3FE
100
AcDbEntity
  8
0
100
AcDbCircle
 62
7
  6
CONTINUOUS
 10
673.3394779075
 20
218.0241359621
 40
31.0848607627
100
AcDbArc
 50
10.379376504
 51
10.9868464601
  0
ARC
  5
3FF
100
AcDbEntity
  8
BEZUGSACHSEN
100
AcDbCircle
 62
7
  6
CONTINUOUS
 10
674.7696989578
 20
218.2354993459
 40
30.4724612509
100
AcDbArc
 50
10.186313411
 51
10.8056133947
  0
ARC
  5
400
100
AcDbEntity
  8
BEZUGSACHSEN
100
AcDbCircle
 62
7
  6
CONTINUOUS
 10
680.8341739831
 20
209.5358437119
 40
28.0784481067
100
AcDbArc
 50
31.1803959703
 51
31.5467568165
  0
ARC
  5
401
100
AcDbEntity
  8
0
100
AcDbCircle
 62
7
  6
CONTINUOUS
 10
677.3173503423
 20
219.7818588392
 40
27.1019209251
100
AcDbArc
 50
348.2807228095
 51
348.9307127928
  0
ARC
  5
402
100
AcDbEntity
  8
BEZUGSACHSEN
100
AcDbCircle
 62
7
  6
CONTINUOUS
 10
678.2198278964
 20
219.997848474
 40
27.031901309
100
AcDbArc
 50
347.7819300083
 51
348.4347703492
  0
ARC
  5
403
100
AcDbEntity
  8
BEZUGSACHSEN
100
AcDbCircle
 62
7
  6
CONTINUOUS
 10
683.7257363701
 20
200.0537830546
 40
28.8923681903
100
AcDbArc
 50
34.1540669058
 51
34.4108880315
  0
ARC
  5
404
100
AcDbEntity
  8
BEZUGSACHSEN
100
AcDbCircle
 62
7
  6
CONTINUOUS
 10
687.1604524879
 20
206.8678450477
 40
20.8293098221
100
AcDbArc
 50
349.4111766451
 51
350.0048193469
  0
ARC
  5
405
100
AcDbEntity
  8
BEZUGSACHSEN
100
AcDbCircle
 62
7
  6
CONTINUOUS
 10
687.5766730292
 20
218.5402500105
 40
25.4324210528
100
AcDbArc
 50
321.4320881428
 51
321.9396192317
  0
ARC
  5
406
100
AcDbEntity
  8
BEZUGSACHSEN
100
AcDbCircle
 62
7
  6
CONTINUOUS
 10
683.6084812275
 20
219.997853832
 40
22.3893872084
100
AcDbArc
 50
343.1045359108
 51
343.6784559721
  0
ARC
  5
407
100
AcDbEntity
  8
0
100
AcDbCircle
 62
7
  6
CONTINUOUS
 10
685.3508037758
 20
221.7670817724
 40
18.504633208
100
AcDbArc
 50
356.9972669912
 51
0.7884528688
  0
ARC
  5
408
100
AcDbEntity
  8
BEZUGSACHSEN
100
AcDbCircle
 62
7
  6
CONTINUOUS
 10
686.4502064709
 20
221.8844039485
 40
18.2388509485
100
AcDbArc
 50
356.5843242626
 51
0.4313637671
  0
ARC
  5
409
100
AcDbEntity
  8
BEZUGSACHSEN
100
AcDbCircle
 62
7
  6
CONTINUOUS
 10
687.1222002956
 20
221.0953973311
 40
17.8935535083
100
AcDbArc
 50
357.5012489072
 51
0.6047621117
  0
ARC
  5
40A
100
AcDbEntity
  8
BEZUGSACHSEN
100
AcDbCircle
 62
7
  6
CONTINUOUS
 10
689.0431898113
 20
218.7300553228
 40
16.95264176
100
AcDbArc
 50
357.3623847263
 51
0.6382471574
  0
ARC
  5
40B
100
AcDbEntity
  8
BEZUGSACHSEN
100
AcDbCircle
 62
7
  6
CONTINUOUS
 10
689.8091929536
 20
217.7840290368
 40
16.5786721527
100
AcDbArc
 50
357.3024284729
 51
0.2997103973
  0
ARC
  5
40C
100
AcDbEntity
  8
BEZUGSACHSEN
100
AcDbCircle
 62
7
  6
CONTINUOUS
 10
691.6190682654
 20
214.4866582592
 40
16.1353154257
100
AcDbArc
 50
2.0242100849
 51
2.9754900196
  0
ARC
  5
40D
100
AcDbEntity
  8
BEZUGSACHSEN
100
AcDbCircle
 62
7
  6
CONTINUOUS
 10
691.8814137529
 20
214.4446441973
 40
15.872648504
100
AcDbArc
 50
356.4530080659
 51
357.2830726747
  0
ARC
  5
40E
100
AcDbEntity
  8
BEZUGSACHSEN
100
AcDbCircle
 62
7
  6
CONTINUOUS
 10
692.5561414299
 20
213.5281578479
 40
15.4894646118
100
AcDbArc
 50
10.8925611358
 51
11.505348929
  0
ARC
  5
40F
100
AcDbEntity
  8
BEZUGSACHSEN
100
AcDbCircle
 62
7
  6
CONTINUOUS
 10
693.0438222573
 20
212.6010838752
 40
15.2406075289
100
AcDbArc
 50
15.9103235804
 51
16.7855374651
  0
ARC
  5
410
100
AcDbEntity
  8
BEZUGSACHSEN
100
AcDbCircle
 62
7
  6
CONTINUOUS
 10
693.0826059442
 20
213.6353197382
 40
14.9522043811
100
AcDbArc
 50
11.5053478396
 51
12.1370386676
  0
ARC
  5
411
100
AcDbEntity
  8
BEZUGSACHSEN
100
AcDbCircle
 62
7
  6
CONTINUOUS
 10
693.5017115416
 20
212.6595328509
 40
14.818682449
100
AcDbArc
 50
16.5385142687
 51
16.7779772883
  0
ARC
  5
412
100
AcDbEntity
  8
BEZUGSACHSEN
100
AcDbCircle
 62
7
  6
CONTINUOUS
 10
693.6061410821
 20
212.6910962903
 40
14.709587197
100
AcDbArc
 50
16.7776860457
 51
17.258539356
  0
ARC
  5
413
100
AcDbEntity
  8
BEZUGSACHSEN
100
AcDbCircle
 62
7
  6
CONTINUOUS
 10
693.7080596754
 20
212.7226803687
 40
14.6028869256
100
AcDbArc
 50
17.2588358929
 51
17.5002090526
  0
ARC
  5
414
100
AcDbEntity
  8
BEZUGSACHSEN
100
AcDbCircle
 62
7
  6
CONTINUOUS
 10
694.5013466329
 20
214.2481005625
 40
13.4652715366
100
AcDbArc
 50
10.1788992972
 51
10.9017831039
  0
ARC
  5
415
100
AcDbEntity
  8
BEZUGSACHSEN
100
AcDbCircle
 62
7
  6
CONTINUOUS
 10
691.4320993263
 20
213.9034007866
 40
12.0
100
AcDbArc
 50
159.0
 51
180.0
  0
ARC
  5
416
100
AcDbEntity
  8
BEZUGSACHSEN
100
AcDbCircle
 62
7
  6
CONTINUOUS
 10
695.4320993263
 20
213.9034007866
 40
12.0
100
AcDbArc
 50
2.7811707557
 51
5.0908512802
  0
ARC
  5
417
100
AcDbEntity
  8
BEZUGSACHSEN
100
AcDbCircle
 62
7
  6
CONTINUOUS
 10
696.5385146378
 20
206.8866363242
 40
11.8935272796
100
AcDbArc
 50
0.2937788683
 51
21.0940913041
  0
ARC
  5
418
100
AcDbEntity
  8
BEZUGSACHSEN
100
AcDbCircle
 62
7
  6
CONTINUOUS
 10
700.3939478205
 20
202.4972511167
 40
8.0867468697
100
AcDbArc
 50
26.0110708732
 51
26.4362706273
  0
ARC
  5
419
100
AcDbEntity
  8
0
100
AcDbCircle
 62
7
  6
CONTINUOUS
 10
705.3195148865
 20
195.6482092617
 40
7.1739979344
100
AcDbArc
 50
78.76042251
 51
79.4334493323
  0
ARC
  5
41A
100
AcDbEntity
  8
BEZUGSACHSEN
100
AcDbCircle
 62
7
  6
CONTINUOUS
 10
701.7935489178
 20
201.298700524
 40
6.710445239
100
AcDbArc
 50
27.0838162698
 51
29.4819396839
  0
ARC
  5
41B
100
AcDbEntity
  8
BEZUGSACHSEN
100
AcDbCircle
 62
7
  6
CONTINUOUS
 10
701.9420614378
 20
201.3750252177
 40
6.5434682641
100
AcDbArc
 50
25.3272114487
 51
27.0808543894
  0
ARC
  5
41C
100
AcDbEntity
  8
BEZUGSACHSEN
100
AcDbCircle
 62
7
  6
CONTINUOUS
 10
702.0121172209
 20
201.4085643473
 40
6.4657986784
100
AcDbArc
 50
25.0903557709
 51
25.3241421873
  0
ARC
  5
41D
100
AcDbEntity
  8
BEZUGSACHSEN
100
AcDbCircle
 62
7
  6
CONTINUOUS
 10
702.1359581445
 20
201.4651958736
 40
6.3296290516
100
AcDbArc
 50
21.6448441199
 51
25.1014588098
  0
ARC
  5
41E
100
AcDbEntity
  8
0
100
AcDbCircle
 62
7
  6
CONTINUOUS
 10
702.4339825433
 20
193.9432130981
 40
5.1162527503
100
AcDbArc
 50
29.816791485
 51
34.8024527005
  0
ARC
  5
41F
100
AcDbEntity
  8
BEZUGSACHSEN
100
AcDbCircle
 62
7
  6
CONTINUOUS
 10
696.4446112923
 20
213.5318975205
 40
11.9873725102
100
AcDbArc
 50
19.4042723556
 51
21.0096433051
  0
ARC
  5
420
100
AcDbEntity
  8
BEZUGSACHSEN
100
AcDbCircle
 62
7
  6
CONTINUOUS
 10
697.7943072771
 20
209.52718703
 40
10.6483172373
100
AcDbArc
 50
21.2483828561
 51
22.4578538448
  0
ARC
  5
421
100
AcDbEntity
  8
BEZUGSACHSEN
100
AcDbCircle
 62
7
  6
CONTINUOUS
 10
697.8153770342
 20
209.8820908883
 40
10.6273460264
100
AcDbArc
 50
21.0096145835
 51
22.4816791233
  0
ARC
  5
422
100
AcDbEntity
  8
0
100
AcDbCircle
 62
7
  6
CONTINUOUS
 10
696.8302503828
 20
209.9617941975
 40
10.6104989279
100
AcDbArc
 50
18.8289122477
 51
22.4718851892
  0
ARC
  5
423
100
AcDbEntity
  8
BEZUGSACHSEN
100
AcDbCircle
 62
7
  6
CONTINUOUS
 10
703.7039742032
 20
215.4865904159
 40
8.8036643573
100
AcDbArc
 50
83.0909030789
 51
83.4880888189
  0
ARC
  5
424
100
AcDbEntity
  8
BEZUGSACHSEN
100
AcDbCircle
 62
7
  6
CONTINUOUS
 10
699.7028704702
 20
211.8448476379
 40
8.7511768507
100
AcDbArc
 50
23.4275639716
 51
24.985522685
  0
ARC
  5
425
100
AcDbEntity
  8
BEZUGSACHSEN
100
AcDbCircle
 62
7
  6
CONTINUOUS
 10
699.7538710846
 20
211.5271205415
 40
8.7021930452
100
AcDbArc
 50
23.2856389789
 51
25.0882191142
  0
ARC
  5
426
100
AcDbEntity
  8
0
100
AcDbCircle
 62
7
  6
CONTINUOUS
 10
696.7327223802
 20
224.0592526953
 40
7.1227233378
100
AcDbArc
 50
359.108269691
 51
1.4014470419
  0
ARC
  5
427
100
AcDbEntity
  8
BEZUGSACHSEN
100
AcDbCircle
 62
7
  6
CONTINUOUS
 10
697.6952751748
 20
224.1043530421
 40
7.0083097616
100
AcDbArc
 50
358.7249295086
 51
1.0555302745
  0
ARC
  5
428
100
AcDbEntity
  8
BEZUGSACHSEN
100
AcDbCircle
 62
7
  6
CONTINUOUS
 10
698.2326728424
 20
223.11138055
 40
6.862943379
100
AcDbArc
 50
358.6979166755
 51
1.0778899168
  0
ARC
  5
429
100
AcDbEntity
  8
BEZUGSACHSEN
100
AcDbCircle
 62
7
  6
CONTINUOUS
 10
698.7018522552
 20
222.1150728921
 40
6.7858824019
100
AcDbArc
 50
3.2593815903
 51
4.8680271231
  0
ARC
  5
42A
100
AcDbEntity
  8
BEZUGSACHSEN
100
AcDbCircle
 62
7
  6
CONTINUOUS
 10
699.5355525215
 20
220.627617649
 40
6.5401576634
100
AcDbArc
 50
0.8652474306
 51
5.03377292
  0
ARC
  5
42B
100
AcDbEntity
  8
BEZUGSACHSEN
100
AcDbCircle
 62
7
  6
CONTINUOUS
 10
701.2876856457
 20
216.3260634285
 40
6.4801369202
100
AcDbArc
 50
359.2511853474
 51
1.1416062498
  0
ARC
  5
42C
100
AcDbEntity
  8
BEZUGSACHSEN
100
AcDbCircle
 62
7
  6
CONTINUOUS
 10
700.0949688708
 20
219.6354753003
 40
6.3727626712
100
AcDbArc
 50
0.8805118593
 51
3.4454003432
  0
ARC
  5
42D
100
AcDbEntity
  8
BEZUGSACHSEN
100
AcDbCircle
 62
7
  6
CONTINUOUS
 10
701.3680581041
 20
217.3190464815
 40
6.0144079197
100
AcDbArc
 50
358.5141118689
 51
0.5509453154
  0
ARC
  5
42E
100
AcDbEntity
  8
BEZUGSACHSEN
100
AcDbCircle
 62
7
  6
CONTINUOUS
 10
707.125585312
 20
210.4999523179
 40
5.7062084685
100
AcDbArc
 50
83.556599819
 51
84.2297714742
  0
ARC
  5
42F
100
AcDbEntity
  8
BEZUGSACHSEN
100
AcDbCircle
 62
7
  6
CONTINUOUS
 10
704.9098650321
 20
212.7931850631
 40
5.019941676
100
AcDbArc
 50
60.5178194096
 51
61.4306568963
  0
ARC
  5
430
100
AcDbEntity
  8
BEZUGSACHSEN
100
AcDbCircle
 62
7
  6
CONTINUOUS
 10
703.8391733301
 20
213.6991704447
 40
4.5870818662
100
AcDbArc
 50
32.6992710188
 51
34.1554233614
  0
ARC
  5
431
100
AcDbEntity
  8
BEZUGSACHSEN
100
AcDbCircle
 62
7
  6
CONTINUOUS
 10
701.0437468806
 20
224.3972350663
 40
4.3505864964
100
AcDbArc
 50
326.9054481794
 51
328.4221415857
  0
ARC
  5
432
100
AcDbEntity
  8
0
100
AcDbCircle
 62
7
  6
CONTINUOUS
 10
700.2144542777
 20
224.3341384262
 40
4.3117616752
100
AcDbArc
 50
327.5675234471
 51
329.0868398248
  0
ARC
  5
433
100
AcDbEntity
  8
BEZUGSACHSEN
100
AcDbCircle
 62
7
  6
CONTINUOUS
 10
702.8787420637
 20
219.6450691663
 40
4.2232870078
100
AcDbArc
 50
57.3670751066
 51
58.356714715
  0
ARC
  5
434
100
AcDbEntity
  8
BEZUGSACHSEN
100
AcDbCircle
 62
7
  6
CONTINUOUS
 10
702.5690609276
 20
224.0570208444
 40
2.5005824374
100
AcDbArc
 50
28.1983283097
 51
31.0366167343
  0
ARC
  5
435
100
AcDbEntity
  8
BEZUGSACHSEN
100
AcDbCircle
 62
7
  6
CONTINUOUS
 10
704.8543774311
 20
223.4653927127
 40
0.576651587
100
AcDbArc
 50
11.0248700832
 51
15.5597626571
  0
ARC
  5
436
100
AcDbEntity
  8
BEZUGSACHSEN
100
AcDbCircle
 62
7
  6
CONTINUOUS
 10
707.2312300697
 20
217.3528502392
 40
0.5443928949
100
AcDbArc
 50
11.4789082116
 51
17.271432921
  0
ARC
  5
437
100
AcDbEntity
  8
BEZUGSACHSEN
100
AcDbCircle
 62
7
  6
CONTINUOUS
 10
707.2512335171
 20
217.3570895011
 40
0.523945941
100
AcDbArc
 50
5.564614579
 51
11.4599200859
  0
ARC
  5
438
100
AcDbEntity
  8
BEZUGSACHSEN
100
AcDbCircle
 62
7
  6
CONTINUOUS
 10
707.2607854838
 20
217.3580884631
 40
0.5143421251
100
AcDbArc
 50
359.611343495
 51
5.5570377396
  0
ARC
  5
439
100
AcDbEntity
  8
0
100
AcDbCircle
 62
7
  6
CONTINUOUS
 10
693.4320993263
 20
291.1949696185
 40
130.0
100
AcDbArc
 50
276.1830273109
 51
360.0
  0
ARC
  5
43A
100
AcDbEntity
  8
0
100
AcDbCircle
 62
7
  6
CONTINUOUS
 10
693.4320993263
 20
291.1949696185
 40
130.0
100
AcDbArc
 50
226.763261764
 51
263.8169726891
  0
ARC
  5
43B
100
AcDbEntity
  8
0
100
AcDbCircle
 62
7
  6
CONTINUOUS
 10
693.4320993263
 20
291.1949696185
 40
130.0
100
AcDbArc
 50
180.0
 51
223.236738236
  0
ARC
  5
43C
100
AcDbEntity
  8
0
100
AcDbCircle
 62
7
  6
CONTINUOUS
 10
693.4320993263
 20
291.1949696185
 40
90.0
100
AcDbArc
 50
278.950263418
 51
360.0
  0
ARC
  5
43D
100
AcDbEntity
  8
0
100
AcDbCircle
 62
7
  6
CONTINUOUS
 10
693.4320993263
 20
291.1949696185
 40
90.0
100
AcDbArc
 50
227.547622153
 51
261.049736582
  0
ARC
  5
43E
100
AcDbEntity
  8
0
100
AcDbCircle
 62
7
  6
CONTINUOUS
 10
693.4320993263
 20
291.1949696185
 40
90.0
100
AcDbArc
 50
180.0
 51
222.452377847
  0
ARC
  5
43F
100
AcDbEntity
  8
BEZUGSACHSEN
100
AcDbCircle
 62
7
  6
CONTINUOUS
 10
677.0784838508
 20
235.4223052444
 40
41.7288856566
100
AcDbArc
 50
311.3265252054
 51
311.6785414343
  0
ARC
  5
440
100
AcDbEntity
  8
0
100
AcDbCircle
 62
7
  6
CONTINUOUS
 10
677.2263739446
 20
233.9795596268
 40
40.0731891191
100
AcDbArc
 50
311.7564033189
 51
312.1198514337
  0
ARC
  5
441
100
AcDbEntity
  8
BEZUGSACHSEN
100
AcDbCircle
 62
7
  6
CONTINUOUS
 10
689.5373472825
 20
235.3082364259
 40
36.2633151896
100
AcDbArc
 50
298.9215779449
 51
299.168306614
  0
ARC
  5
442
100
AcDbEntity
  8
BEZUGSACHSEN
100
AcDbCircle
 62
7
  6
CONTINUOUS
 10
694.9764866526
 20
229.3887328968
 40
17.7186095725
100
AcDbArc
 50
303.294179304
 51
303.7851910012
  0
ARC
  5
443
100
AcDbEntity
  8
0
100
AcDbCircle
 62
7
  6
CONTINUOUS
 10
694.4124197836
 20
228.8003661378
 40
17.1045161618
100
AcDbArc
 50
303.7495157208
 51
304.2520709625
  0
ARC
  5
444
100
AcDbEntity
  8
0
100
AcDbCircle
 62
7
  6
CONTINUOUS
 10
693.4320993263
 20
451.1949696185
 40
130.0
100
AcDbArc
 50
0.0
 51
180.0
  0
ARC
  5
445
100
AcDbEntity
  8
0
100
AcDbCircle
 62
7
  6
CONTINUOUS
 10
693.4320993263
 20
451.1949696185
 40
90.0
100
AcDbArc
 50
0.0
 51
180.0
  0
ARC
  5
446
100
AcDbEntity
  8
BEZUGSACHSEN
100
AcDbCircle
 62
7
  6
CONTINUOUS
 10
-355.3483708302
 20
170.4545016069
 40
584.8428897751
100
AcDbArc
 50
349.7559271976
 51
351.1281381441
  0
ARC
  5
447
100
AcDbEntity
  8
KONSTRUKTIONSELEMENTE
100
AcDbCircle
 62
7
  6
CONTINUOUS
 10
174.1316866804
 20
-2.3024689124
 40
11.1070958187
100
AcDbArc
 50
82.3515341598
 51
84.9226131091
  0
ARC
  5
448
100
AcDbEntity
  8
KONSTRUKTIONSELEMENTE
100
AcDbCircle
 62
7
  6
CONTINUOUS
 10
191.8066217064
 20
153.387535945
 40
6.7899051656
100
AcDbArc
 50
180.0647897016
 51
196.9850234053
  0
ARC
  5
449
100
AcDbEntity
  8
RUNDUNGEN
100
AcDbCircle
 62
7
  6
CONTINUOUS
 10
144.2167208819
 20
108.932013674
 40
5.0
100
AcDbArc
 50
0.0
 51
30.0
  0
ARC
  5
44A
100
AcDbEntity
  8
KONSTRUKTIONSELEMENTE
100
AcDbCircle
 62
7
  6
CONTINUOUS
 10
182.0167900053
 20
3.0368478294
 40
4.1006282181
100
AcDbArc
 50
9.1122156589
 51
9.8872067219
  0
ARC
  5
44B
100
AcDbEntity
  8
KONSTRUKTIONSELEMENTE
100
AcDbCircle
 62
7
  6
CONTINUOUS
 10
182.0859694876
 20
3.0467611177
 40
4.0307519921
100
AcDbArc
 50
0.0312035642
 51
9.1288137427
  0
ARC
  5
44C
100
AcDbEntity
  8
KONSTRUKTIONSELEMENTE
100
AcDbCircle
 62
7
  6
CONTINUOUS
 10
152.2762563972
 20
78.0715780563
 40
3.8304219255
100
AcDbArc
 50
282.9242006355
 51
287.5724052646
  0
ARC
  5
44D
100
AcDbEntity
  8
BEZUGSACHSEN
100
AcDbCircle
 62
7
  6
CONTINUOUS
 10
161.5239391064
 20
69.4449695652
 40
3.0
100
AcDbArc
 50
219.9999986699
 51
269.9999991452
  0
ARC
  5
44E
100
AcDbEntity
  8
RUNDUNGEN
100
AcDbCircle
 62
7
  6
CONTINUOUS
 10
152.2167208819
 20
80.5368803213
 40
3.0
100
AcDbArc
 50
180.0
 51
220.0
  0
ARC
  5
44F
100
AcDbEntity
  8
BEZUGSACHSEN
100
AcDbCircle
 62
7
  6
CONTINUOUS
 10
740.0661690901
 20
169.4892918351
 40
579.0467746483
100
AcDbArc
 50
188.8647211814
 51
190.2153652053
  0
ARC
  5
450
100
AcDbEntity
  8
0
100
AcDbCircle
 62
7
  6
CONTINUOUS
 10
195.2167208819
 20
6.4261806862
 40
65.0
100
AcDbArc
 50
99.9667663002
 51
112.5919479374
  0
ARC
  5
451
100
AcDbEntity
  8
0
100
AcDbCircle
 62
7
  6
CONTINUOUS
 10
195.2167208819
 20
6.4261806862
 40
65.0
100
AcDbArc
 50
67.4080520626
 51
80.0332336998
  0
ARC
  5
452
100
AcDbEntity
  8
BEZUGSACHSEN
100
AcDbCircle
 62
7
  6
CONTINUOUS
 10
195.1184276616
 20
79.1170537759
 40
34.235761535
100
AcDbArc
 50
95.7096704505
 51
102.8725206806
  0
ARC
  5
453
100
AcDbEntity
  8
BEZUGSACHSEN
100
AcDbCircle
 62
7
  6
CONTINUOUS
 10
195.1173840048
 20
82.6586362046
 40
34.2296325158
100
AcDbArc
 50
95.751555451
 51
102.8730731863
  0
ARC
  5
454
100
AcDbEntity
  8
BEZUGSACHSEN
100
AcDbCircle
 62
7
  6
CONTINUOUS
 10
195.3771108321
 20
79.4966257846
 40
33.8519033272
100
AcDbArc
 50
77.0868144446
 51
84.3309944243
  0
ARC
  5
455
100
AcDbEntity
  8
BEZUGSACHSEN
100
AcDbCircle
 62
7
  6
CONTINUOUS
 10
195.3781813719
 20
83.0374919087
 40
33.8464667241
100
AcDbArc
 50
77.0865636563
 51
84.2888077064
  0
ARC
  5
456
100
AcDbEntity
  8
BEZUGSACHSEN
100
AcDbCircle
 62
7
  6
CONTINUOUS
 10
195.2167208819
 20
175.4449696185
 40
26.0
100
AcDbArc
 50
140.3023969865
 51
39.6976030135
  0
ARC
  5
457
100
AcDbEntity
  8
0
100
AcDbCircle
 62
7
  6
CONTINUOUS
 10
195.2167208819
 20
181.1949696185
 40
20.0
100
AcDbArc
 50
180.0
 51
360.0
  0
ARC
  5
458
100
AcDbEntity
  8
0
100
AcDbCircle
 62
7
  6
CONTINUOUS
 10
195.2167208819
 20
123.1949696185
 40
11.25
100
AcDbArc
 50
0.0
 51
180.0
  0
ARC
  5
459
100
AcDbEntity
  8
KONSTRUKTIONSELEMENTE
100
AcDbCircle
 62
7
  6
CONTINUOUS
 10
215.8523984793
 20
-0.004530875
 40
9.3535175985
100
AcDbArc
 50
111.2384503882
 51
112.1140025065
  0
ARC
  5
45A
100
AcDbEntity
  8
KONSTRUKTIONSELEMENTE
100
AcDbCircle
 62
7
  6
CONTINUOUS
 10
215.7790278141
 20
0.1745452536
 40
9.1599944882
100
AcDbArc
 50
112.1105000658
 51
113.9508226432
  0
ARC
  5
45B
100
AcDbEntity
  8
KONSTRUKTIONSELEMENTE
100
AcDbCircle
 62
7
  6
CONTINUOUS
 10
198.6624560594
 20
153.3822012422
 40
6.754265229
100
AcDbArc
 50
342.9767550904
 51
359.9801222075
  0
ARC
  5
45C
100
AcDbEntity
  8
RUNDUNGEN
100
AcDbCircle
 62
7
  6
CONTINUOUS
 10
246.2167208819
 20
108.932013674
 40
5.0
100
AcDbArc
 50
150.0
 51
180.0
  0
ARC
  5
45D
100
AcDbEntity
  8
BEZUGSACHSEN
100
AcDbCircle
 62
7
  6
CONTINUOUS
 10
197.1149256426
 20
110.2202755715
 40
3.7008213089
100
AcDbArc
 50
322.0213971299
 51
324.1080417419
  0
ARC
  5
45E
100
AcDbEntity
  8
BEZUGSACHSEN
100
AcDbCircle
 62
7
  6
CONTINUOUS
 10
193.3185161211
 20
110.2202755715
 40
3.7008213089
100
AcDbArc
 50
215.8919582581
 51
217.9786028701
  0
ARC
  5
45F
100
AcDbEntity
  8
KONSTRUKTIONSELEMENTE
100
AcDbCircle
 62
7
  6
CONTINUOUS
 10
195.2167208819
 20
130.2110935759
 40
3.5
100
AcDbArc
 50
144.93427076
 51
180.0
  0
ARC
  5
460
100
AcDbEntity
  8
KONSTRUKTIONSELEMENTE
100
AcDbCircle
 62
7
  6
CONTINUOUS
 10
195.2167208819
 20
130.2110935759
 40
3.5
100
AcDbArc
 50
0.0
 51
35.06572924
  0
ARC
  5
461
100
AcDbEntity
  8
KONSTRUKTIONSELEMENTE
100
AcDbCircle
 62
7
  6
CONTINUOUS
 10
195.2167208819
 20
158.7295314687
 40
3.5
100
AcDbArc
 50
180.0
 51
360.0
  0
ARC
  5
462
100
AcDbEntity
  8
KONSTRUKTIONSELEMENTE
100
AcDbCircle
 62
7
  6
CONTINUOUS
 10
195.2167208819
 20
155.0058464282
 40
3.2
100
AcDbArc
 50
150.0615456812
 51
180.0
  0
ARC
  5
463
100
AcDbEntity
  8
KONSTRUKTIONSELEMENTE
100
AcDbCircle
 62
7
  6
CONTINUOUS
 10
195.2167208819
 20
133.6519359039
 40
3.2
100
AcDbArc
 50
180.0
 51
360.0
  0
ARC
  5
464
100
AcDbEntity
  8
KONSTRUKTIONSELEMENTE
100
AcDbCircle
 62
7
  6
CONTINUOUS
 10
195.2167208819
 20
155.0058464282
 40
3.2
100
AcDbArc
 50
0.0
 51
29.9384543188
  0
CIRCLE
  5
465
100
AcDbEntity
  8
BEZUGSACHSEN
100
AcDbCircle
 62
7
  6
CONTINUOUS
 10
230.9167208819
 20
95.6949696185
 40
3.0
  0
ARC
  5
466
100
AcDbEntity
  8
BEZUGSACHSEN
100
AcDbCircle
 62
7
  6
CONTINUOUS
 10
238.2167208819
 20
80.5368803213
 40
3.0
100
AcDbArc
 50
320.0
 51
360.0
  0
ARC
  5
467
100
AcDbEntity
  8
RUNDUNGEN
100
AcDbCircle
 62
7
  6
CONTINUOUS
 10
238.2167208819
 20
80.5368803213
 40
3.0
100
AcDbArc
 50
320.0
 51
360.0
  0
ARC
  5
468
100
AcDbEntity
  8
BEZUGSACHSEN
100
AcDbCircle
 62
7
  6
CONTINUOUS
 10
228.9095036551
 20
69.4449707543
 40
3.0
100
AcDbArc
 50
269.9999817986
 51
319.9999716836
  0
ARC
  5
469
100
AcDbEntity
  8
KONSTRUKTIONSELEMENTE
100
AcDbCircle
 62
7
  6
CONTINUOUS
 10
193.1134305205
 20
159.9614905793
 40
1.9204151671
100
AcDbArc
 50
137.0052288834
 51
139.4576183351
  0
ARC
  5
46A
100
AcDbEntity
  8
KONSTRUKTIONSELEMENTE
100
AcDbCircle
 62
7
  6
CONTINUOUS
 10
197.3216625267
 20
159.9631714843
 40
1.9180607948
100
AcDbArc
 50
40.4852452525
 51
42.9904712433
  0
ARC
  5
46B
100
AcDbEntity
  8
KONSTRUKTIONSELEMENTE
100
AcDbCircle
 62
7
  6
CONTINUOUS
 10
192.9190318991
 20
160.1278977084
 40
1.6645203723
100
AcDbArc
 50
139.4609188041
 51
141.8338826568
  0
ARC
  5
46C
100
AcDbEntity
  8
KONSTRUKTIONSELEMENTE
100
AcDbCircle
 62
7
  6
CONTINUOUS
 10
197.5156690581
 20
160.1290034112
 40
1.662837893
100
AcDbArc
 50
38.1653304638
 51
40.4794514378
  0
ARC
  5
46D
100
AcDbEntity
  8
0
100
AcDbCircle
 62
7
  6
CONTINUOUS
 10
195.2167208819
 20
561.1949696185
 40
20.0
100
AcDbArc
 50
0.0
 51
180.0
  0
SPLINE
  5
46E
100
AcDbEntity
  8
BEZUGSACHSEN
100
AcDbSpline
 62
7
  6
CONTINUOUS
 70
0
 71
3
 72
9
 73
5
 74
0
 42
0.0000001
 43
0.0000001
 44
0.0000000001
 40
0.0
 40
0.0
 40
0.0
 40
0.0
 40
0.2473791937
 40
1.0
 40
1.0
 40
1.0
 40
1.0
 10
708.3772374233
 20
202.458978117
 30
0.0
 10
708.361211187
 20
202.5724485143
 30
0.0
 10
708.2824735944
 20
203.029095784
 30
0.0
 10
708.147804142
 20
203.4758041328
 30
0.0
 10
708.0192728881
 20
203.7998931898
 30
0.0
  0
LINE
  5
46F
100
AcDbEntity
  8
BEZUGSACHSEN
100
AcDbLine
 62
7
  6
CONTINUOUS
 10
707.6350644442
 20
204.6012407068
 11
707.4874550157
 21
204.8623923136
  0
LINE
  5
470
100
AcDbEntity
  8
BEZUGSACHSEN
100
AcDbLine
 62
7
  6
CONTINUOUS
 10
708.4317048076
 20
205.7851074796
 11
708.4318855754
 21
206.9476190302
  0
LINE
  5
471
100
AcDbEntity
  8
BEZUGSACHSEN
100
AcDbLine
 62
7
  6
CONTINUOUS
 10
707.4322275441
 20
211.6917088657
 11
707.6350644442
 21
211.1671238599
  0
LINE
  5
472
100
AcDbEntity
  8
BEZUGSACHSEN
100
AcDbLine
 62
7
  6
CONTINUOUS
 10
707.7694923643
 20
216.5437772594
 11
707.7546849943
 21
216.6277139412
  0
LINE
  5
473
100
AcDbEntity
  8
BEZUGSACHSEN
100
AcDbLine
 62
7
  6
CONTINUOUS
 10
707.7236080896
 20
216.7947335404
 11
707.7073243948
 21
216.8778160313
  0
LINE
  5
474
100
AcDbEntity
  8
BEZUGSACHSEN
100
AcDbLine
 62
7
  6
CONTINUOUS
 10
707.6095403708
 20
217.1947506669
 11
707.6221764927
 21
217.1547520479
  0
LINE
  5
475
100
AcDbEntity
  8
BEZUGSACHSEN
100
AcDbLine
 62
7
  6
CONTINUOUS
 10
707.6221764927
 20
217.1547520479
 11
707.6350644443
 21
217.1139039717
  0
LINE
  5
476
100
AcDbEntity
  8
BEZUGSACHSEN
100
AcDbLine
 62
7
  6
CONTINUOUS
 10
707.4299571694
 20
218.3637127832
 11
707.2569329752
 21
218.8080845924
  0
LINE
  5
477
100
AcDbEntity
  8
BEZUGSACHSEN
100
AcDbLine
 62
7
  6
CONTINUOUS
 10
706.2606469028
 20
221.287214829
 11
706.2476754749
 21
221.3187088062
  0
LINE
  5
478
100
AcDbEntity
  8
BEZUGSACHSEN
100
AcDbLine
 62
7
  6
CONTINUOUS
 10
705.8142077328
 20
222.3611979109
 11
705.6160400302
 21
222.856729179
  0
LINE
  5
479
100
AcDbEntity
  8
BEZUGSACHSEN
100
AcDbLine
 62
7
  6
CONTINUOUS
 10
705.6160400302
 20
222.856729179
 11
705.5495547202
 21
223.022821433
  0
LINE
  5
47A
100
AcDbEntity
  8
BEZUGSACHSEN
100
AcDbLine
 62
7
  6
CONTINUOUS
 10
705.4189603388
 20
223.3625150392
 11
705.5495547202
 21
223.022821433
  0
LINE
  5
47B
100
AcDbEntity
  8
BEZUGSACHSEN
100
AcDbLine
 62
7
  6
CONTINUOUS
 10
705.3412104193
 20
223.5756700579
 11
705.3710779324
 21
223.4938224964
  0
LINE
  5
47C
100
AcDbEntity
  8
BEZUGSACHSEN
100
AcDbLine
 62
7
  6
CONTINUOUS
 10
705.3710779324
 20
223.4938224964
 11
705.4189603388
 21
223.3625150392
  0
LINE
  5
47D
100
AcDbEntity
  8
BEZUGSACHSEN
100
AcDbLine
 62
7
  6
CONTINUOUS
 10
705.4098954206
 20
223.6200756663
 11
705.3454427296
 21
223.787178589
  0
LINE
  5
47E
100
AcDbEntity
  8
BEZUGSACHSEN
100
AcDbLine
 62
7
  6
CONTINUOUS
 10
705.3454427296
 20
223.787178589
 11
705.1511932329
 21
224.2905806594
  0
SPLINE
  5
47F
100
AcDbEntity
  8
BEZUGSACHSEN
100
AcDbSpline
 62
7
  6
CONTINUOUS
 70
0
 71
3
 72
8
 73
4
 74
0
 42
0.0000001
 43
0.0000001
 44
0.0000000001
 40
0.0
 40
0.0
 40
0.0
 40
0.0
 40
1.0
 40
1.0
 40
1.0
 40
1.0
 10
707.7488222801
 20
217.1947493205
 30
0.0
 10
707.7655161367
 20
217.2461035102
 30
0.0
 10
707.7747406759
 20
217.3006014147
 30
0.0
 10
707.7751157756
 20
217.3545995346
 30
0.0
  0
LINE
  5
480
100
AcDbEntity
  8
BEZUGSACHSEN
100
AcDbLine
 62
7
  6
CONTINUOUS
 10
707.6350644442
 20
217.8296711246
 11
707.5255791304
 21
218.1147428559
  0
LINE
  5
481
100
AcDbEntity
  8
BEZUGSACHSEN
100
AcDbLine
 62
7
  6
CONTINUOUS
 10
707.5255791304
 20
218.1147428559
 11
707.4812988622
 21
218.2300355347
  0
LINE
  5
482
100
AcDbEntity
  8
BEZUGSACHSEN
100
AcDbLine
 62
7
  6
CONTINUOUS
 10
707.4812988622
 20
218.2300355347
 11
707.4299571694
 21
218.3637127832
  0
LINE
  5
483
100
AcDbEntity
  8
BEZUGSACHSEN
100
AcDbLine
 62
7
  6
CONTINUOUS
 10
707.2929146796
 20
218.0253838723
 11
707.2271281259
 21
218.1983608819
  0
LINE
  5
484
100
AcDbEntity
  8
BEZUGSACHSEN
100
AcDbLine
 62
7
  6
CONTINUOUS
 10
707.2271281259
 20
218.1983608819
 11
707.0290720905
 21
218.7190386479
  0
LINE
  5
485
100
AcDbEntity
  8
BEZUGSACHSEN
100
AcDbLine
 62
7
  6
CONTINUOUS
 10
707.5640478451
 20
217.2367110095
 11
707.5480963393
 21
217.2833026189
  0
LINE
  5
486
100
AcDbEntity
  8
BEZUGSACHSEN
100
AcDbLine
 62
7
  6
CONTINUOUS
 10
707.5480963393
 20
217.2833026189
 11
707.4969697835
 21
217.4324697726
  0
LINE
  5
487
100
AcDbEntity
  8
BEZUGSACHSEN
100
AcDbLine
 62
7
  6
CONTINUOUS
 10
707.4969697835
 20
217.4324697726
 11
707.4294217229
 21
217.6291682142
  0
LINE
  5
488
100
AcDbEntity
  8
BEZUGSACHSEN
100
AcDbLine
 62
7
  6
CONTINUOUS
 10
707.4294217229
 20
217.6291682142
 11
707.3614034306
 21
217.8268062689
  0
LINE
  5
489
100
AcDbEntity
  8
BEZUGSACHSEN
100
AcDbLine
 62
7
  6
CONTINUOUS
 10
707.3614034306
 20
217.8268062689
 11
707.2929146796
 21
218.0253838723
  0
LINE
  5
48A
100
AcDbEntity
  8
BEZUGSACHSEN
100
AcDbLine
 62
7
  6
CONTINUOUS
 10
707.5690000195
 20
217.2204450028
 11
707.5640478451
 21
217.2367110095
  0
LINE
  5
48B
100
AcDbEntity
  8
BEZUGSACHSEN
100
AcDbLine
 62
7
  6
CONTINUOUS
 10
707.7672691503
 20
216.2413751079
 11
707.7659454733
 21
216.1701158032
  0
LINE
  5
48C
100
AcDbEntity
  8
BEZUGSACHSEN
100
AcDbLine
 62
7
  6
CONTINUOUS
 10
704.8564503459
 20
224.0730197249
 11
704.8872343599
 21
224.0220243344
  0
LINE
  5
48D
100
AcDbEntity
  8
BEZUGSACHSEN
100
AcDbLine
 62
7
  6
CONTINUOUS
 10
705.1395717223
 20
223.4867337333
 11
705.2207998901
 21
223.2870865791
  0
LINE
  5
48E
100
AcDbEntity
  8
BEZUGSACHSEN
100
AcDbLine
 62
7
  6
CONTINUOUS
 10
705.2207998901
 20
223.2870865791
 11
705.3185368822
 21
223.0468114754
  0
LINE
  5
48F
100
AcDbEntity
  8
BEZUGSACHSEN
100
AcDbLine
 62
7
  6
CONTINUOUS
 10
705.3185368822
 20
223.0468114754
 11
705.3826424495
 21
222.8891842917
  0
LINE
  5
490
100
AcDbEntity
  8
BEZUGSACHSEN
100
AcDbLine
 62
7
  6
CONTINUOUS
 10
705.3826424495
 20
222.8891842917
 11
705.4291991594
 21
222.7746918413
  0
LINE
  5
491
100
AcDbEntity
  8
BEZUGSACHSEN
100
AcDbLine
 62
7
  6
CONTINUOUS
 10
705.4291991594
 20
222.7746918413
 11
705.4632566658
 21
222.6909290976
  0
LINE
  5
492
100
AcDbEntity
  8
BEZUGSACHSEN
100
AcDbLine
 62
7
  6
CONTINUOUS
 10
705.4731718557
 20
221.6774017323
 11
705.2811286202
 21
222.2372343866
  0
LINE
  5
493
100
AcDbEntity
  8
BEZUGSACHSEN
100
AcDbLine
 62
7
  6
CONTINUOUS
 10
705.732129672
 20
220.9837477976
 11
705.7012583517
 21
221.0664719251
  0
LINE
  5
494
100
AcDbEntity
  8
BEZUGSACHSEN
100
AcDbLine
 62
7
  6
CONTINUOUS
 10
705.7012583517
 20
221.0664719251
 11
705.6029484868
 21
221.3298508268
  0
LINE
  5
495
100
AcDbEntity
  8
BEZUGSACHSEN
100
AcDbLine
 62
7
  6
CONTINUOUS
 10
705.6029484868
 20
221.3298508268
 11
705.4731718557
 21
221.6774017323
  0
LINE
  5
496
100
AcDbEntity
  8
BEZUGSACHSEN
100
AcDbLine
 62
7
  6
CONTINUOUS
 10
706.7112282187
 20
218.5013161796
 11
706.6526240328
 21
218.6499108251
  0
LINE
  5
497
100
AcDbEntity
  8
BEZUGSACHSEN
100
AcDbLine
 62
7
  6
CONTINUOUS
 10
706.6526240328
 20
218.6499108251
 11
706.4569607511
 21
219.1460197633
  0
LINE
  5
498
100
AcDbEntity
  8
BEZUGSACHSEN
100
AcDbLine
 62
7
  6
CONTINUOUS
 10
706.4569607511
 20
219.1460197633
 11
706.2234135931
 21
219.7381689518
  0
LINE
  5
499
100
AcDbEntity
  8
BEZUGSACHSEN
100
AcDbLine
 62
7
  6
CONTINUOUS
 10
706.2234135931
 20
219.7381689518
 11
706.1534763501
 21
219.9154888179
  0
LINE
  5
49A
100
AcDbEntity
  8
BEZUGSACHSEN
100
AcDbLine
 62
7
  6
CONTINUOUS
 10
706.1534763501
 20
219.9154888179
 11
705.9782052006
 21
220.3598675804
  0
LINE
  5
49B
100
AcDbEntity
  8
BEZUGSACHSEN
100
AcDbLine
 62
7
  6
CONTINUOUS
 10
705.9782052006
 20
220.3598675804
 11
705.9479255732
 21
220.4366370275
  0
LINE
  5
49C
100
AcDbEntity
  8
BEZUGSACHSEN
100
AcDbLine
 62
7
  6
CONTINUOUS
 10
705.9479255732
 20
220.4366370275
 11
705.7948029549
 21
220.8248525391
  0
LINE
  5
49D
100
AcDbEntity
  8
BEZUGSACHSEN
100
AcDbLine
 62
7
  6
CONTINUOUS
 10
705.7948029549
 20
220.8248525391
 11
705.732129672
 21
220.9837477976
  0
LINE
  5
49E
100
AcDbEntity
  8
BEZUGSACHSEN
100
AcDbLine
 62
7
  6
CONTINUOUS
 10
706.7112282187
 20
218.5013161796
 11
706.9746491752
 21
217.8710067084
  0
LINE
  5
49F
100
AcDbEntity
  8
BEZUGSACHSEN
100
AcDbLine
 62
7
  6
CONTINUOUS
 10
706.9746491752
 20
217.8710067084
 11
707.1249605599
 21
217.545728772
  0
LINE
  5
4A0
100
AcDbEntity
  8
BEZUGSACHSEN
100
AcDbLine
 62
7
  6
CONTINUOUS
 10
707.1249605599
 20
217.545728772
 11
707.1747343191
 21
217.4378663445
  0
LINE
  5
4A1
100
AcDbEntity
  8
BEZUGSACHSEN
100
AcDbLine
 62
7
  6
CONTINUOUS
 10
706.0504857856
 20
221.2014702659
 11
706.5086984837
 21
220.0391519249
  0
LINE
  5
4A2
100
AcDbEntity
  8
BEZUGSACHSEN
100
AcDbLine
 62
7
  6
CONTINUOUS
 10
706.5086984837
 20
220.0391519249
 11
706.5416736017
 21
219.9555025229
  0
LINE
  5
4A3
100
AcDbEntity
  8
BEZUGSACHSEN
100
AcDbLine
 62
7
  6
CONTINUOUS
 10
706.5416736017
 20
219.9555025229
 11
706.6074033099
 21
219.7887616671
  0
LINE
  5
4A4
100
AcDbEntity
  8
BEZUGSACHSEN
100
AcDbLine
 62
7
  6
CONTINUOUS
 10
706.6074033099
 20
219.7887616671
 11
707.0290720905
 21
218.7190386479
  0
LINE
  5
4A5
100
AcDbEntity
  8
BEZUGSACHSEN
100
AcDbLine
 62
7
  6
CONTINUOUS
 10
706.1367663327
 20
201.9242217379
 11
706.8944099863
 21
201.3429077842
  0
LINE
  5
4A6
100
AcDbEntity
  8
BEZUGSACHSEN
100
AcDbLine
 62
7
  6
CONTINUOUS
 10
706.8944099863
 20
201.3429077842
 11
707.6250043526
 21
200.7793780565
  0
SPLINE
  5
4A7
100
AcDbEntity
  8
BEZUGSACHSEN
100
AcDbSpline
 62
7
  6
CONTINUOUS
 70
0
 71
3
 72
8
 73
4
 74
0
 42
0.0000001
 43
0.0000001
 44
0.0000000001
 40
0.0
 40
0.0
 40
0.0
 40
0.0
 40
1.0
 40
1.0
 40
1.0
 40
1.0
 10
706.0018449277
 20
202.5639839157
 30
0.0
 10
705.913360061
 20
202.8023046205
 30
0.0
 10
705.8246900581
 20
203.0405566616
 30
0.0
 10
705.7358435224
 20
203.2787427718
 30
0.0
  0
LINE
  5
4A8
100
AcDbEntity
  8
BEZUGSACHSEN
100
AcDbLine
 62
7
  6
CONTINUOUS
 10
705.7358435224
 20
203.2787427718
 11
705.5876477388
 21
203.5746741569
  0
LINE
  5
4A9
100
AcDbEntity
  8
BEZUGSACHSEN
100
AcDbLine
 62
7
  6
CONTINUOUS
 10
705.5876477388
 20
203.5746741569
 11
705.5380836552
 21
203.6736203773
  0
LINE
  5
4AA
100
AcDbEntity
  8
BEZUGSACHSEN
100
AcDbLine
 62
7
  6
CONTINUOUS
 10
705.9778714891
 20
217.9499148743
 11
704.9987401147
 21
220.3152811537
  0
LINE
  5
4AB
100
AcDbEntity
  8
BEZUGSACHSEN
100
AcDbLine
 62
7
  6
CONTINUOUS
 10
705.2769078572
 20
204.0495200676
 11
705.5380836552
 21
203.6736203773
  0
LINE
  5
4AC
100
AcDbEntity
  8
BEZUGSACHSEN
100
AcDbLine
 62
7
  6
CONTINUOUS
 10
705.0828380358
 20
204.2184916025
 11
705.2769078572
 21
204.0495200676
  0
LINE
  5
4AD
100
AcDbEntity
  8
BEZUGSACHSEN
100
AcDbLine
 62
7
  6
CONTINUOUS
 10
707.6350644443
 20
213.9458604109
 11
707.6206927369
 21
213.9805888822
  0
LINE
  5
4AE
100
AcDbEntity
  8
BEZUGSACHSEN
100
AcDbLine
 62
7
  6
CONTINUOUS
 10
707.6206927369
 20
213.9805888822
 11
706.3694937934
 21
217.0037685393
  0
LINE
  5
4AF
100
AcDbEntity
  8
BEZUGSACHSEN
100
AcDbLine
 62
7
  6
CONTINUOUS
 10
704.82613454
 20
204.2555316004
 11
705.0828380358
 21
204.2184916025
  0
LINE
  5
4B0
100
AcDbEntity
  8
BEZUGSACHSEN
100
AcDbLine
 62
7
  6
CONTINUOUS
 10
707.6137462848
 20
197.1648773723
 11
706.2438264005
 21
199.1383496273
  0
LINE
  5
4B1
100
AcDbEntity
  8
BEZUGSACHSEN
100
AcDbLine
 62
7
  6
CONTINUOUS
 10
705.8523585886
 20
199.7021987678
 11
704.8735856684
 21
201.1118218823
  0
LINE
  5
4B2
100
AcDbEntity
  8
BEZUGSACHSEN
100
AcDbLine
 62
7
  6
CONTINUOUS
 10
704.9614327851
 20
203.5028160641
 11
705.0906627008
 21
203.5407727444
  0
LINE
  5
4B3
100
AcDbEntity
  8
BEZUGSACHSEN
100
AcDbLine
 62
7
  6
CONTINUOUS
 10
704.5939661685
 20
210.6066905149
 11
704.8579683564
 21
210.1477188743
  0
LINE
  5
4B4
100
AcDbEntity
  8
BEZUGSACHSEN
100
AcDbLine
 62
7
  6
CONTINUOUS
 10
704.8579683564
 20
210.1477188743
 11
706.6179212333
 21
207.0877634559
  0
LINE
  5
4B5
100
AcDbEntity
  8
BEZUGSACHSEN
100
AcDbLine
 62
7
  6
CONTINUOUS
 10
705.1958647274
 20
221.3721769595
 11
705.3894491559
 21
220.9501031469
  0
LINE
  5
4B6
100
AcDbEntity
  8
BEZUGSACHSEN
100
AcDbLine
 62
7
  6
CONTINUOUS
 10
706.8741792363
 20
203.7062392798
 11
707.0747236381
 21
203.5675927792
  0
LINE
  5
4B7
100
AcDbEntity
  8
BEZUGSACHSEN
100
AcDbLine
 62
7
  6
CONTINUOUS
 10
705.3894491559
 20
220.9501031469
 11
705.6505363381
 21
220.3193384817
  0
LINE
  5
4B8
100
AcDbEntity
  8
BEZUGSACHSEN
100
AcDbLine
 62
7
  6
CONTINUOUS
 10
705.8486644874
 20
219.7952659594
 11
705.6505363381
 21
220.3193384817
  0
LINE
  5
4B9
100
AcDbEntity
  8
BEZUGSACHSEN
100
AcDbLine
 62
7
  6
CONTINUOUS
 10
706.6105712122
 20
204.0593475096
 11
706.8741792363
 21
203.7062392798
  0
SPLINE
  5
4BA
100
AcDbEntity
  8
BEZUGSACHSEN
100
AcDbSpline
 62
7
  6
CONTINUOUS
 70
0
 71
3
 72
8
 73
4
 74
0
 42
0.0000001
 43
0.0000001
 44
0.0000000001
 40
0.0
 40
0.0
 40
0.0
 40
0.0
 40
1.0
 40
1.0
 40
1.0
 40
1.0
 10
706.1159033203
 20
219.0115048387
 30
0.0
 10
706.0270051687
 20
219.2728203474
 30
0.0
 10
705.9379226983
 20
219.5340732178
 30
0.0
 10
705.8486644874
 20
219.7952659594
 30
0.0
  0
LINE
  5
4BB
100
AcDbEntity
  8
BEZUGSACHSEN
100
AcDbLine
 62
7
  6
CONTINUOUS
 10
706.6105712122
 20
204.0593475096
 11
704.8449897524
 21
207.1302924945
  0
LINE
  5
4BC
100
AcDbEntity
  8
BEZUGSACHSEN
100
AcDbLine
 62
7
  6
CONTINUOUS
 10
704.8449897524
 20
207.1302924945
 11
704.5873990237
 21
207.5782745686
  0
LINE
  5
4BD
100
AcDbEntity
  8
BEZUGSACHSEN
100
AcDbLine
 62
7
  6
CONTINUOUS
 10
706.2525564749
 20
218.4921264748
 11
706.4022439681
 21
218.1740510206
  0
LINE
  5
4BE
100
AcDbEntity
  8
BEZUGSACHSEN
100
AcDbLine
 62
7
  6
CONTINUOUS
 10
706.4022439681
 20
218.1740510206
 11
706.5163881656
 21
217.9312874456
  0
LINE
  5
4BF
100
AcDbEntity
  8
BEZUGSACHSEN
100
AcDbLine
 62
7
  6
CONTINUOUS
 10
706.5163881656
 20
217.9312874456
 11
706.6071473815
 21
217.7381233356
  0
LINE
  5
4C0
100
AcDbEntity
  8
BEZUGSACHSEN
100
AcDbLine
 62
7
  6
CONTINUOUS
 10
706.6071473815
 20
217.7381233356
 11
706.8467264284
 21
217.2276276092
  0
LINE
  5
4C1
100
AcDbEntity
  8
BEZUGSACHSEN
100
AcDbLine
 62
7
  6
CONTINUOUS
 10
707.2113743126
 20
205.7632979353
 11
706.9464365909
 21
206.4192472616
  0
LINE
  5
4C2
100
AcDbEntity
  8
BEZUGSACHSEN
100
AcDbLine
 62
7
  6
CONTINUOUS
 10
707.2917480749
 20
207.3486451441
 11
706.5198878939
 21
208.8987879063
  0
LINE
  5
4C3
100
AcDbEntity
  8
BEZUGSACHSEN
100
AcDbLine
 62
7
  6
CONTINUOUS
 10
706.5198878939
 20
208.8987879063
 11
705.5193401978
 21
210.9079010172
  0
LINE
  5
4C4
100
AcDbEntity
  8
BEZUGSACHSEN
100
AcDbLine
 62
7
  6
CONTINUOUS
 10
705.5193401978
 20
210.9079010172
 11
705.0081681546
 21
211.9342238018
  0
LINE
  5
4C5
100
AcDbEntity
  8
BEZUGSACHSEN
100
AcDbLine
 62
7
  6
CONTINUOUS
 10
706.9464365909
 20
206.4192472616
 11
706.8596203896
 21
206.5959327714
  0
LINE
  5
4C6
100
AcDbEntity
  8
BEZUGSACHSEN
100
AcDbLine
 62
7
  6
CONTINUOUS
 10
706.8596203896
 20
206.5959327714
 11
706.7002932779
 21
206.9201565852
  0
LINE
  5
4C7
100
AcDbEntity
  8
BEZUGSACHSEN
100
AcDbLine
 62
7
  6
CONTINUOUS
 10
706.7002932779
 20
206.9201565852
 11
706.6179212333
 21
207.0877634559
  0
LINE
  5
4C8
100
AcDbEntity
  8
BEZUGSACHSEN
100
AcDbLine
 62
7
  6
CONTINUOUS
 10
707.6427724507
 20
208.6826565116
 11
707.6597715294
 21
208.5425460591
  0
LINE
  5
4C9
100
AcDbEntity
  8
BEZUGSACHSEN
100
AcDbLine
 62
7
  6
CONTINUOUS
 10
707.6597715294
 20
208.5425460591
 11
707.6763712786
 21
208.4019375905
  0
LINE
  5
4CA
100
AcDbEntity
  8
BEZUGSACHSEN
100
AcDbLine
 62
7
  6
CONTINUOUS
 10
707.6350644443
 20
208.7176689369
 11
707.6034268398
 21
208.8605794715
  0
LINE
  5
4CB
100
AcDbEntity
  8
BEZUGSACHSEN
100
AcDbLine
 62
7
  6
CONTINUOUS
 10
707.6350644443
 20
208.7176689369
 11
707.6427724507
 21
208.6826565116
  0
LINE
  5
4CC
100
AcDbEntity
  8
BEZUGSACHSEN
100
AcDbLine
 62
7
  6
CONTINUOUS
 10
707.2387532039
 20
210.1606136957
 11
706.9730284445
 21
210.8576448451
  0
LINE
  5
4CD
100
AcDbEntity
  8
BEZUGSACHSEN
100
AcDbLine
 62
7
  6
CONTINUOUS
 10
706.9730284445
 20
210.8576448451
 11
706.8089280603
 21
211.2277440456
  0
LINE
  5
4CE
100
AcDbEntity
  8
BEZUGSACHSEN
100
AcDbLine
 62
7
  6
CONTINUOUS
 10
706.8089280603
 20
211.2277440456
 11
706.6442024274
 21
211.5992094232
  0
LINE
  5
4CF
100
AcDbEntity
  8
BEZUGSACHSEN
100
AcDbLine
 62
7
  6
CONTINUOUS
 10
705.6652574975
 20
213.5644573276
 11
705.8747147301
 21
213.1439896798
  0
LINE
  5
4D0
100
AcDbEntity
  8
BEZUGSACHSEN
100
AcDbLine
 62
7
  6
CONTINUOUS
 10
705.8747147301
 20
213.1439896798
 11
705.9113049378
 21
213.0705368049
  0
LINE
  5
4D1
100
AcDbEntity
  8
BEZUGSACHSEN
100
AcDbLine
 62
7
  6
CONTINUOUS
 10
705.9113049378
 20
213.0705368049
 11
706.6442024274
 21
211.5992094232
  0
LINE
  5
4D2
100
AcDbEntity
  8
BEZUGSACHSEN
100
AcDbLine
 62
7
  6
CONTINUOUS
 10
705.3412289159
 20
214.1330582638
 11
705.639477205
 21
213.6097121251
  0
LINE
  5
4D3
100
AcDbEntity
  8
BEZUGSACHSEN
100
AcDbLine
 62
7
  6
CONTINUOUS
 10
705.639477205
 20
213.6097121251
 11
705.6652574975
 21
213.5644573276
  0
LINE
  5
4D4
100
AcDbEntity
  8
BEZUGSACHSEN
100
AcDbLine
 62
7
  6
CONTINUOUS
 10
705.0842381241
 20
214.4841593239
 11
705.3412289159
 21
214.1330582638
  0
LINE
  5
4D5
100
AcDbEntity
  8
BEZUGSACHSEN
100
AcDbLine
 62
7
  6
CONTINUOUS
 10
687.0614954272
 20
111.432013674
 11
684.9956945333
 21
108.932013674
  0
LINE
  5
4D6
100
AcDbEntity
  8
RUNDUNGEN
100
AcDbLine
 62
7
  6
CONTINUOUS
 10
699.8027032254
 20
111.432013674
 11
701.8685041193
 21
108.932013674
  0
SPLINE
  5
4D7
100
AcDbEntity
  8
BEZUGSACHSEN
100
AcDbSpline
 62
7
  6
CONTINUOUS
 70
0
 71
3
 72
11
 73
7
 74
0
 42
0.0000001
 43
0.0000001
 44
0.0000000001
 40
0.0
 40
0.0
 40
0.0
 40
0.0
 40
0.2540845274
 40
0.5000000008
 40
0.7459154741
 40
1.0
 40
1.0
 40
1.0
 40
1.0
 10
688.0326627583
 20
238.5327030728
 30
0.0
 10
687.6583462849
 20
237.5575753212
 30
0.0
 10
687.0612465947
 20
235.5787585937
 30
0.0
 10
686.7422130903
 20
232.5083605861
 30
0.0
 10
687.0612465843
 20
229.437962582
 30
0.0
 10
687.6583462873
 20
227.4591458651
 30
0.0
 10
688.0326627583
 20
226.4840181196
 30
0.0
  0
SPLINE
  5
4D8
100
AcDbEntity
  8
0
100
AcDbSpline
 62
7
  6
CONTINUOUS
 70
0
 71
3
 72
11
 73
7
 74
0
 42
0.0000001
 43
0.0000001
 44
0.0000000001
 40
0.0
 40
0.0
 40
0.0
 40
0.0
 40
0.2540845274
 40
0.5000000008
 40
0.7459154741
 40
1.0
 40
1.0
 40
1.0
 40
1.0
 10
698.8315358942
 20
238.5327030728
 30
0.0
 10
699.2058523676
 20
237.5575753212
 30
0.0
 10
699.8029520578
 20
235.5787585937
 30
0.0
 10
700.1219855622
 20
232.5083605861
 30
0.0
 10
699.8029520683
 20
229.437962582
 30
0.0
 10
699.2058523653
 20
227.4591458651
 30
0.0
 10
698.8315358942
 20
226.4840181196
 30
0.0
  0
SPLINE
  5
4D9
100
AcDbEntity
  8
0
100
AcDbSpline
 62
7
  6
CONTINUOUS
 70
0
 71
3
 72
9
 73
5
 74
0
 42
0.0000001
 43
0.0000001
 44
0.0000000001
 40
0.0
 40
0.0
 40
0.0
 40
0.0
 40
0.2593208895
 40
1.0
 40
1.0
 40
1.0
 40
1.0
 10
706.6350644442
 20
200.2089437888
 30
0.0
 10
706.65783163
 20
200.1910039228
 30
0.0
 10
706.7448139213
 20
200.1208047087
 30
0.0
 10
706.8284454633
 20
200.0464024319
 30
0.0
 10
706.887820071
 20
199.98870584
 30
0.0
  0
LINE
  5
4DA
100
AcDbEntity
  8
BEZUGSACHSEN
100
AcDbLine
 62
7
  6
CONTINUOUS
 10
707.0233404868
 20
217.5154749922
 11
707.0904373873
 21
217.3652011422
  0
LINE
  5
4DB
100
AcDbEntity
  8
BEZUGSACHSEN
100
AcDbLine
 62
7
  6
CONTINUOUS
 10
707.0904373873
 20
217.3652011422
 11
707.2904534732
 21
216.9168390868
  0
LINE
  5
4DC
100
AcDbEntity
  8
BEZUGSACHSEN
100
AcDbLine
 62
7
  6
CONTINUOUS
 10
706.6940055811
 20
218.3112798892
 11
707.0233404868
 21
217.5154749922
  0
LINE
  5
4DD
100
AcDbEntity
  8
BEZUGSACHSEN
100
AcDbLine
 62
7
  6
CONTINUOUS
 10
706.6940055811
 20
218.3112798892
 11
706.6315083473
 21
218.469906675
  0
LINE
  5
4DE
100
AcDbEntity
  8
BEZUGSACHSEN
100
AcDbLine
 62
7
  6
CONTINUOUS
 10
706.6315083473
 20
218.469906675
 11
706.5730089814
 21
218.6183841184
  0
LINE
  5
4DF
100
AcDbEntity
  8
BEZUGSACHSEN
100
AcDbLine
 62
7
  6
CONTINUOUS
 10
706.5730089814
 20
218.6183841184
 11
706.4510065757
 21
218.9280321284
  0
LINE
  5
4E0
100
AcDbEntity
  8
BEZUGSACHSEN
100
AcDbLine
 62
7
  6
CONTINUOUS
 10
706.4510065757
 20
218.9280321284
 11
706.3775040568
 21
219.1145807578
  0
LINE
  5
4E1
100
AcDbEntity
  8
BEZUGSACHSEN
100
AcDbLine
 62
7
  6
CONTINUOUS
 10
706.3775040568
 20
219.1145807578
 11
706.206980818
 21
219.5473547221
  0
LINE
  5
4E2
100
AcDbEntity
  8
BEZUGSACHSEN
100
AcDbLine
 62
7
  6
CONTINUOUS
 10
706.206980818
 20
219.5473547221
 11
705.9619286728
 21
220.1692478063
  0
LINE
  5
4E3
100
AcDbEntity
  8
BEZUGSACHSEN
100
AcDbLine
 62
7
  6
CONTINUOUS
 10
705.9619286728
 20
220.1692478063
 11
705.8688793709
 21
220.4053794893
  0
LINE
  5
4E4
100
AcDbEntity
  8
BEZUGSACHSEN
100
AcDbLine
 62
7
  6
CONTINUOUS
 10
705.8688793709
 20
220.4053794893
 11
705.7158504793
 21
220.7937115072
  0
LINE
  5
4E5
100
AcDbEntity
  8
BEZUGSACHSEN
100
AcDbLine
 62
7
  6
CONTINUOUS
 10
705.7158504793
 20
220.7937115072
 11
705.6239219976
 21
221.0382614693
  0
LINE
  5
4E6
100
AcDbEntity
  8
BEZUGSACHSEN
100
AcDbLine
 62
7
  6
CONTINUOUS
 10
705.6239219976
 20
221.0382614693
 11
705.5547509138
 21
221.222231357
  0
LINE
  5
4E7
100
AcDbEntity
  8
BEZUGSACHSEN
100
AcDbLine
 62
7
  6
CONTINUOUS
 10
705.5547509138
 20
221.222231357
 11
705.4608724732
 21
221.4718591464
  0
LINE
  5
4E8
100
AcDbEntity
  8
BEZUGSACHSEN
100
AcDbLine
 62
7
  6
CONTINUOUS
 10
705.4608724732
 20
221.4718591464
 11
705.3927877016
 21
221.6528613313
  0
LINE
  5
4E9
100
AcDbEntity
  8
0
100
AcDbLine
 62
7
  6
CONTINUOUS
 10
704.2931782678
 20
222.3781889477
 11
704.3847186338
 21
222.1190229098
  0
SPLINE
  5
4EA
100
AcDbEntity
  8
0
100
AcDbSpline
 62
7
  6
CONTINUOUS
 70
0
 71
3
 72
9
 73
5
 74
0
 42
0.0000001
 43
0.0000001
 44
0.0000000001
 40
0.0
 40
0.0
 40
0.0
 40
0.0
 40
0.5000071001
 40
1.0
 40
1.0
 40
1.0
 40
1.0
 10
698.8315358942
 20
194.9401513925
 30
0.0
 10
699.509026253
 20
189.2287414789
 30
0.0
 10
700.3239928382
 20
177.730817737
 30
0.0
 10
699.8435232871
 20
166.2119376871
 30
0.0
 10
699.3117174398
 20
160.4852894479
 30
0.0
  0
LINE
  5
4EB
100
AcDbEntity
  8
BEZUGSACHSEN
100
AcDbLine
 62
7
  6
CONTINUOUS
 10
705.3927877016
 20
221.6528613313
 11
705.3293061423
 21
221.8333560169
  0
LINE
  5
4EC
100
AcDbEntity
  8
BEZUGSACHSEN
100
AcDbLine
 62
7
  6
CONTINUOUS
 10
705.3293061423
 20
221.8333560169
 11
705.1373977439
 21
222.3781889477
  0
SPLINE
  5
4ED
100
AcDbEntity
  8
0
100
AcDbSpline
 62
7
  6
CONTINUOUS
 70
0
 71
3
 72
11
 73
7
 74
0
 42
0.0000001
 43
0.0000001
 44
0.0000000001
 40
0.0
 40
0.0
 40
0.0
 40
0.0
 40
0.2502389943
 40
0.5000000009
 40
0.7497610074
 40
1.0
 40
1.0
 40
1.0
 40
1.0
 10
698.8315358942
 20
226.4840181196
 30
0.0
 10
699.2145778392
 20
223.8715909591
 30
0.0
 10
699.8110208832
 20
218.6247311393
 30
0.0
 10
700.1195997689
 20
210.7120847281
 30
0.0
 10
699.8110208942
 20
202.7994383345
 30
0.0
 10
699.2145778365
 20
197.5525785345
 30
0.0
 10
698.8315358942
 20
194.9401513925
 30
0.0
  0
LINE
  5
4EE
100
AcDbEntity
  8
BEZUGSACHSEN
100
AcDbLine
 62
7
  6
CONTINUOUS
 10
705.282568422
 20
222.9657065914
 11
705.3312597594
 21
222.8492004577
  0
LINE
  5
4EF
100
AcDbEntity
  8
BEZUGSACHSEN
100
AcDbLine
 62
7
  6
CONTINUOUS
 10
705.3312597594
 20
222.8492004577
 11
705.3712291267
 21
222.7535428948
  0
LINE
  5
4F0
100
AcDbEntity
  8
BEZUGSACHSEN
100
AcDbLine
 62
7
  6
CONTINUOUS
 10
705.3712291267
 20
222.7535428948
 11
705.428354397
 21
222.6167935749
  0
LINE
  5
4F1
100
AcDbEntity
  8
BEZUGSACHSEN
100
AcDbLine
 62
7
  6
CONTINUOUS
 10
705.428354397
 20
222.6167935749
 11
705.4767576395
 21
222.5008928073
  0
SPLINE
  5
4F2
100
AcDbEntity
  8
BEZUGSACHSEN
100
AcDbSpline
 62
7
  6
CONTINUOUS
 70
0
 71
3
 72
11
 73
7
 74
0
 42
0.0000001
 43
0.0000001
 44
0.0000000001
 40
0.0
 40
0.0
 40
0.0
 40
0.0
 40
0.2502389943
 40
0.5000000009
 40
0.7497610074
 40
1.0
 40
1.0
 40
1.0
 40
1.0
 10
688.0326627583
 20
226.4840181196
 30
0.0
 10
687.6496208134
 20
223.8715909591
 30
0.0
 10
687.0531777693
 20
218.6247311393
 30
0.0
 10
686.7445988837
 20
210.7120847281
 30
0.0
 10
687.0531777584
 20
202.7994383345
 30
0.0
 10
687.6496208161
 20
197.5525785345
 30
0.0
 10
688.0326627583
 20
194.9401513925
 30
0.0
  0
SPLINE
  5
4F3
100
AcDbEntity
  8
BEZUGSACHSEN
100
AcDbSpline
 62
7
  6
CONTINUOUS
 70
0
 71
3
 72
9
 73
5
 74
0
 42
0.0000001
 43
0.0000001
 44
0.0000000001
 40
0.0
 40
0.0
 40
0.0
 40
0.0
 40
0.5000071001
 40
1.0
 40
1.0
 40
1.0
 40
1.0
 10
688.0326627583
 20
194.9401513925
 30
0.0
 10
687.3551723995
 20
189.2287414789
 30
0.0
 10
686.5402058143
 20
177.730817737
 30
0.0
 10
687.0206753655
 20
166.2119376871
 30
0.0
 10
687.5524812128
 20
160.4852894479
 30
0.0
  0
LINE
  5
4F4
100
AcDbEntity
  8
BEZUGSACHSEN
100
AcDbLine
 62
7
  6
CONTINUOUS
 10
705.2511803657
 20
223.0245471524
 11
705.282568422
 21
222.9657065914
  0
LINE
  5
4F5
100
AcDbEntity
  8
BEZUGSACHSEN
100
AcDbLine
 62
7
  6
CONTINUOUS
 10
707.3821879685
 20
217.3768789926
 11
707.3810800083
 21
217.4481429091
  0
LINE
  5
4F6
100
AcDbEntity
  8
BEZUGSACHSEN
100
AcDbLine
 62
7
  6
CONTINUOUS
 10
707.3810800083
 20
217.4481429091
 11
707.346725509
 21
217.5942259136
  0
LINE
  5
4F7
100
AcDbEntity
  8
BEZUGSACHSEN
100
AcDbLine
 62
7
  6
CONTINUOUS
 10
707.346725509
 20
217.5942259136
 11
707.3292995802
 21
217.667275095
  0
LINE
  5
4F8
100
AcDbEntity
  8
BEZUGSACHSEN
100
AcDbLine
 62
7
  6
CONTINUOUS
 10
707.3292995802
 20
217.667275095
 11
707.3117085128
 21
217.7403294368
  0
LINE
  5
4F9
100
AcDbEntity
  8
BEZUGSACHSEN
100
AcDbLine
 62
7
  6
CONTINUOUS
 10
707.1763402381
 20
218.1663385494
 11
706.9785590901
 21
218.6944977833
  0
LINE
  5
4FA
100
AcDbEntity
  8
BEZUGSACHSEN
100
AcDbLine
 62
7
  6
CONTINUOUS
 10
706.4562129075
 20
220.0184614211
 11
706.5871327148
 21
219.6866311118
  0
LINE
  5
4FB
100
AcDbEntity
  8
BEZUGSACHSEN
100
AcDbLine
 62
7
  6
CONTINUOUS
 10
706.5871327148
 20
219.6866311118
 11
706.8483058283
 21
219.0246493012
  0
LINE
  5
4FC
100
AcDbEntity
  8
BEZUGSACHSEN
100
AcDbLine
 62
7
  6
CONTINUOUS
 10
706.8483058283
 20
219.0246493012
 11
706.9785590901
 21
218.6944977833
  0
LINE
  5
4FD
100
AcDbEntity
  8
BEZUGSACHSEN
100
AcDbLine
 62
7
  6
CONTINUOUS
 10
706.0749644485
 20
220.72637954
 11
706.4669790283
 21
219.7334069855
  0
LINE
  5
4FE
100
AcDbEntity
  8
BEZUGSACHSEN
100
AcDbLine
 62
7
  6
CONTINUOUS
 10
705.9270529424
 20
219.2295835664
 11
705.7940583824
 21
219.6469632205
  0
LINE
  5
4FF
100
AcDbEntity
  8
BEZUGSACHSEN
100
AcDbLine
 62
7
  6
CONTINUOUS
 10
705.7940583824
 20
219.6469632205
 11
705.5967215305
 21
220.1710357429
  0
LINE
  5
500
100
AcDbEntity
  8
BEZUGSACHSEN
100
AcDbLine
 62
7
  6
CONTINUOUS
 10
705.4007820311
 20
220.6441093522
 11
705.5967215305
 21
220.1710357429
  0
LINE
  5
501
100
AcDbEntity
  8
0
100
AcDbLine
 62
7
  6
CONTINUOUS
 10
706.6350644442
 20
200.2089437888
 11
706.266337173
 21
200.4991232215
  0
LINE
  5
502
100
AcDbEntity
  8
BEZUGSACHSEN
100
AcDbLine
 62
7
  6
CONTINUOUS
 10
705.2061955616
 20
221.0661831648
 11
705.4007820311
 21
220.6441093522
  0
LINE
  5
503
100
AcDbEntity
  8
BEZUGSACHSEN
100
AcDbLine
 62
7
  6
CONTINUOUS
 10
705.077809653
 20
221.2795677341
 11
705.1422203698
 21
221.1726420282
  0
LINE
  5
504
100
AcDbEntity
  8
BEZUGSACHSEN
100
AcDbLine
 62
7
  6
CONTINUOUS
 10
705.1422203698
 20
221.1726420282
 11
705.1742623823
 21
221.1193542378
  0
LINE
  5
505
100
AcDbEntity
  8
BEZUGSACHSEN
100
AcDbLine
 62
7
  6
CONTINUOUS
 10
705.1742623823
 20
221.1193542378
 11
705.2061955616
 21
221.0661831648
  0
LINE
  5
506
100
AcDbEntity
  8
BEZUGSACHSEN
100
AcDbLine
 62
7
  6
CONTINUOUS
 10
705.0147570535
 20
221.2842618926
 11
705.077809653
 21
221.2795677341
  0
LINE
  5
507
100
AcDbEntity
  8
BEZUGSACHSEN
100
AcDbLine
 62
7
  6
CONTINUOUS
 10
707.5923524434
 20
196.4871585142
 11
707.2819890887
 21
196.9348941526
  0
LINE
  5
508
100
AcDbEntity
  8
BEZUGSACHSEN
100
AcDbLine
 62
7
  6
CONTINUOUS
 10
707.2819890887
 20
196.9348941526
 11
705.9131649658
 21
198.9090168654
  0
LINE
  5
509
100
AcDbEntity
  8
BEZUGSACHSEN
100
AcDbLine
 62
7
  6
CONTINUOUS
 10
705.9131649658
 20
198.9090168654
 11
705.5219805865
 21
199.473034011
  0
LINE
  5
50A
100
AcDbEntity
  8
BEZUGSACHSEN
100
AcDbLine
 62
7
  6
CONTINUOUS
 10
705.5219805865
 20
199.473034011
 11
704.5293461024
 21
200.9039773079
  0
SPLINE
  5
50B
100
AcDbEntity
  8
0
100
AcDbSpline
 62
7
  6
CONTINUOUS
 70
0
 71
3
 72
8
 73
4
 74
0
 42
0.0000001
 43
0.0000001
 44
0.0000000001
 40
0.0
 40
0.0
 40
0.0
 40
0.0
 40
1.0
 40
1.0
 40
1.0
 40
1.0
 10
703.8300307991
 20
200.9039773079
 30
0.0
 10
704.7651849432
 20
199.5571867044
 30
0.0
 10
705.7002206245
 20
198.2103138262
 30
0.0
 10
706.6350644443
 20
196.8633077997
 30
0.0
  0
SPLINE
  5
50C
100
AcDbEntity
  8
0
100
AcDbSpline
 62
7
  6
CONTINUOUS
 70
0
 71
3
 72
8
 73
4
 74
0
 42
0.0000001
 43
0.0000001
 44
0.0000000001
 40
0.0
 40
0.0
 40
0.0
 40
0.0
 40
1.0
 40
1.0
 40
1.0
 40
1.0
 10
703.8300308106
 20
220.7977426382
 30
0.0
 10
704.7652228878
 20
218.5377184761
 30
0.0
 10
705.7002650314
 20
216.2776322572
 30
0.0
 10
706.6350644444
 20
214.0174456515
 30
0.0
  0
LINE
  5
50D
100
AcDbEntity
  8
BEZUGSACHSEN
100
AcDbLine
 62
7
  6
CONTINUOUS
 10
707.6350644442
 20
213.594883966
 11
707.6154515535
 21
213.6423328947
  0
LINE
  5
50E
100
AcDbEntity
  8
BEZUGSACHSEN
100
AcDbLine
 62
7
  6
CONTINUOUS
 10
707.6154515535
 20
213.6423328947
 11
707.5111589913
 21
213.8946403427
  0
LINE
  5
50F
100
AcDbEntity
  8
BEZUGSACHSEN
100
AcDbLine
 62
7
  6
CONTINUOUS
 10
707.5111589913
 20
213.8946403427
 11
707.49683202
 21
213.9292999358
  0
LINE
  5
510
100
AcDbEntity
  8
BEZUGSACHSEN
100
AcDbLine
 62
7
  6
CONTINUOUS
 10
707.49683202
 20
213.9292999358
 11
706.2467283552
 21
216.9530068884
  0
LINE
  5
511
100
AcDbEntity
  8
BEZUGSACHSEN
100
AcDbLine
 62
7
  6
CONTINUOUS
 10
706.2467283552
 20
216.9530068884
 11
705.8554268925
 21
217.8992798818
  0
LINE
  5
512
100
AcDbEntity
  8
BEZUGSACHSEN
100
AcDbLine
 62
7
  6
CONTINUOUS
 10
705.8554268925
 20
217.8992798818
 11
704.877038077
 21
220.2649427575
  0
LINE
  5
513
100
AcDbEntity
  8
BEZUGSACHSEN
100
AcDbLine
 62
7
  6
CONTINUOUS
 10
704.877038077
 20
220.2649427575
 11
704.6566572815
 21
220.7977426382
  0
LINE
  5
514
100
AcDbEntity
  8
BEZUGSACHSEN
100
AcDbLine
 62
7
  6
CONTINUOUS
 10
705.0906627008
 20
203.5407727444
 11
705.1395603035
 21
203.4984240969
  0
LINE
  5
515
100
AcDbEntity
  8
BEZUGSACHSEN
100
AcDbLine
 62
7
  6
CONTINUOUS
 10
705.1395603035
 20
203.4984240969
 11
705.285701958
 21
203.3718012095
  0
LINE
  5
516
100
AcDbEntity
  8
BEZUGSACHSEN
100
AcDbLine
 62
7
  6
CONTINUOUS
 10
705.285701958
 20
203.3718012095
 11
705.4816794688
 21
203.0898763759
  0
LINE
  5
517
100
AcDbEntity
  8
BEZUGSACHSEN
100
AcDbLine
 62
7
  6
CONTINUOUS
 10
705.6786256609
 20
202.6949987704
 11
705.4816794688
 21
203.0898763759
  0
LINE
  5
518
100
AcDbEntity
  8
0
100
AcDbLine
 62
7
  6
CONTINUOUS
 10
704.8963273151
 20
202.8165692578
 11
704.9571559298
 21
202.6949987704
  0
LINE
  5
519
100
AcDbEntity
  8
BEZUGSACHSEN
100
AcDbLine
 62
7
  6
CONTINUOUS
 10
705.810780775
 20
202.2811426632
 11
705.6786256609
 21
202.6949987704
  0
LINE
  5
51A
100
AcDbEntity
  8
0
100
AcDbLine
 62
7
  6
CONTINUOUS
 10
704.9571559298
 20
202.6949987704
 11
705.0907787775
 21
202.2811426632
  0
LINE
  5
51B
100
AcDbEntity
  8
BEZUGSACHSEN
100
AcDbLine
 62
7
  6
CONTINUOUS
 10
704.6029051762
 20
210.0010073257
 11
706.3636022838
 21
206.9414142513
  0
LINE
  5
51C
100
AcDbEntity
  8
BEZUGSACHSEN
100
AcDbLine
 62
7
  6
CONTINUOUS
 10
706.3636022838
 20
206.9414142513
 11
706.6279269019
 21
206.4820802666
  0
LINE
  5
51D
100
AcDbEntity
  8
0
100
AcDbLine
 62
7
  6
CONTINUOUS
 10
705.8696036215
 20
206.4820802666
 11
703.8453040865
 21
210.0010073257
  0
LINE
  5
51E
100
AcDbEntity
  8
BEZUGSACHSEN
100
AcDbLine
 62
7
  6
CONTINUOUS
 10
706.8903390894
 20
205.927077833
 11
706.6937233599
 21
206.342945874
  0
LINE
  5
51F
100
AcDbEntity
  8
BEZUGSACHSEN
100
AcDbLine
 62
7
  6
CONTINUOUS
 10
706.6937233599
 20
206.342945874
 11
706.6279269019
 21
206.4820802666
  0
LINE
  5
520
100
AcDbEntity
  8
0
100
AcDbLine
 62
7
  6
CONTINUOUS
 10
705.8696036215
 20
206.4820802666
 11
706.1326210285
 21
205.927077833
  0
LINE
  5
521
100
AcDbEntity
  8
BEZUGSACHSEN
100
AcDbLine
 62
7
  6
CONTINUOUS
 10
707.0881048404
 20
205.384642347
 11
706.8903390894
 21
205.927077833
  0
LINE
  5
522
100
AcDbEntity
  8
0
100
AcDbLine
 62
7
  6
CONTINUOUS
 10
706.1326210285
 20
205.927077833
 11
706.3317583392
 21
205.384642347
  0
LINE
  5
523
100
AcDbEntity
  8
0
100
AcDbLine
 62
7
  6
CONTINUOUS
 10
706.5339994894
 20
204.3374704053
 11
706.5343013659
 21
204.192052665
  0
LINE
  5
524
100
AcDbEntity
  8
BEZUGSACHSEN
100
AcDbLine
 62
7
  6
CONTINUOUS
 10
707.2647141526
 20
203.8611278732
 11
707.282207524
 21
203.93368142
  0
LINE
  5
525
100
AcDbEntity
  8
BEZUGSACHSEN
100
AcDbLine
 62
7
  6
CONTINUOUS
 10
706.5919096595
 20
203.4536640315
 11
706.3349802451
 21
203.9010809251
  0
LINE
  5
526
100
AcDbEntity
  8
BEZUGSACHSEN
100
AcDbLine
 62
7
  6
CONTINUOUS
 10
706.3349802451
 20
203.9010809251
 11
704.570722604
 21
206.9725910906
  0
LINE
  5
527
100
AcDbEntity
  8
0
100
AcDbLine
 62
7
  6
CONTINUOUS
 10
703.8326341396
 20
206.9725910906
 11
705.2533884388
 21
204.5011224918
  0
LINE
  5
528
100
AcDbEntity
  8
0
100
AcDbLine
 62
7
  6
CONTINUOUS
 10
705.2533884388
 20
204.5011224918
 11
705.3331431957
 21
204.3623702643
  0
LINE
  5
529
100
AcDbEntity
  8
0
100
AcDbLine
 62
7
  6
CONTINUOUS
 10
705.3331431957
 20
204.3623702643
 11
705.3554450942
 21
204.3235705347
  0
LINE
  5
52A
100
AcDbEntity
  8
0
100
AcDbLine
 62
7
  6
CONTINUOUS
 10
705.3554450942
 20
204.3235705347
 11
705.4543462709
 21
204.1515055408
  0
LINE
  5
52B
100
AcDbEntity
  8
0
100
AcDbLine
 62
7
  6
CONTINUOUS
 10
705.4543462709
 20
204.1515055408
 11
705.6816079476
 21
203.7561127054
  0
LINE
  5
52C
100
AcDbEntity
  8
0
100
AcDbLine
 62
7
  6
CONTINUOUS
 10
705.6816079476
 20
203.7561127054
 11
705.8554418712
 21
203.4536640315
  0
LINE
  5
52D
100
AcDbEntity
  8
BEZUGSACHSEN
100
AcDbLine
 62
7
  6
CONTINUOUS
 10
706.5919096595
 20
203.4536640315
 11
706.9213848311
 21
202.9870426187
  0
LINE
  5
52E
100
AcDbEntity
  8
0
100
AcDbLine
 62
7
  6
CONTINUOUS
 10
706.1844467371
 20
202.9870426187
 11
706.1024219186
 21
203.1033861826
  0
LINE
  5
52F
100
AcDbEntity
  8
0
100
AcDbLine
 62
7
  6
CONTINUOUS
 10
706.1024219186
 20
203.1033861826
 11
705.8981061853
 21
203.393159582
  0
LINE
  5
530
100
AcDbEntity
  8
0
100
AcDbLine
 62
7
  6
CONTINUOUS
 10
705.8981061853
 20
203.393159582
 11
705.8554418712
 21
203.4536640315
  0
LINE
  5
531
100
AcDbEntity
  8
BEZUGSACHSEN
100
AcDbLine
 62
7
  6
CONTINUOUS
 10
706.9213848311
 20
202.9870426187
 11
707.1889107418
 21
202.734881989
  0
LINE
  5
532
100
AcDbEntity
  8
0
100
AcDbLine
 62
7
  6
CONTINUOUS
 10
706.4506488765
 20
202.734881989
 11
706.2513231177
 21
202.9237375926
  0
LINE
  5
533
100
AcDbEntity
  8
0
100
AcDbLine
 62
7
  6
CONTINUOUS
 10
706.2513231177
 20
202.9237375926
 11
706.1844467371
 21
202.9870426187
  0
LINE
  5
534
100
AcDbEntity
  8
BEZUGSACHSEN
100
AcDbLine
 62
7
  6
CONTINUOUS
 10
707.1889107418
 20
202.734881989
 11
707.4615137122
 21
202.6846153142
  0
LINE
  5
535
100
AcDbEntity
  8
0
100
AcDbLine
 62
7
  6
CONTINUOUS
 10
706.6350645541
 20
202.7005546472
 11
706.4506488765
 21
202.734881989
  0
LINE
  5
536
100
AcDbEntity
  8
BEZUGSACHSEN
100
AcDbLine
 62
7
  6
CONTINUOUS
 10
706.3876382885
 20
217.8707505684
 11
706.7062519579
 21
217.1948579189
  0
LINE
  5
537
100
AcDbEntity
  8
BEZUGSACHSEN
100
AcDbLine
 62
7
  6
CONTINUOUS
 10
706.7062519579
 20
217.1948579189
 11
706.7188361017
 21
217.1681369365
  0
SPLINE
  5
538
100
AcDbEntity
  8
BEZUGSACHSEN
100
AcDbSpline
 62
7
  6
CONTINUOUS
 70
0
 71
3
 72
8
 73
4
 74
0
 42
0.0000001
 43
0.0000001
 44
0.0000000001
 40
0.0
 40
0.0
 40
0.0
 40
0.0
 40
1.0
 40
1.0
 40
1.0
 40
1.0
 10
706.7188361017
 20
217.1681369365
 30
0.0
 10
706.922862292
 20
216.7348946992
 30
0.0
 10
707.1265874648
 20
216.3015105445
 30
0.0
 10
707.3299752164
 20
215.8679682224
 30
0.0
  0
LINE
  5
539
100
AcDbEntity
  8
BEZUGSACHSEN
100
AcDbLine
 62
7
  6
CONTINUOUS
 10
707.3299752164
 20
215.8679682224
 11
707.6114409026
 21
215.2674225684
  0
LINE
  5
53A
100
AcDbEntity
  8
BEZUGSACHSEN
100
AcDbLine
 62
7
  6
CONTINUOUS
 10
707.6114409026
 20
215.2674225684
 11
707.6350644443
 21
215.2169653924
  0
LINE
  5
53B
100
AcDbEntity
  8
BEZUGSACHSEN
100
AcDbLine
 62
7
  6
CONTINUOUS
 10
707.6350644443
 20
206.0974879112
 11
707.3702904602
 21
206.630001612
  0
LINE
  5
53C
100
AcDbEntity
  8
BEZUGSACHSEN
100
AcDbLine
 62
7
  6
CONTINUOUS
 10
707.3702904602
 20
206.630001612
 11
707.0682138574
 21
207.2374758267
  0
LINE
  5
53D
100
AcDbEntity
  8
BEZUGSACHSEN
100
AcDbLine
 62
7
  6
CONTINUOUS
 10
707.0682138574
 20
207.2374758267
 11
707.0386206706
 21
207.2969840859
  0
SPLINE
  5
53E
100
AcDbEntity
  8
BEZUGSACHSEN
100
AcDbSpline
 62
7
  6
CONTINUOUS
 70
0
 71
3
 72
8
 73
4
 74
0
 42
0.0000001
 43
0.0000001
 44
0.0000000001
 40
0.0
 40
0.0
 40
0.0
 40
0.0
 40
1.0
 40
1.0
 40
1.0
 40
1.0
 10
707.0386206706
 20
207.2969840859
 30
0.0
 10
706.2881503395
 20
208.806079952
 30
0.0
 10
705.5374515654
 20
210.315062223
 30
0.0
 10
704.7865975877
 20
211.8239672415
 30
0.0
  0
LINE
  5
53F
100
AcDbEntity
  8
BEZUGSACHSEN
100
AcDbLine
 62
7
  6
CONTINUOUS
 10
704.7865975877
 20
211.8239672415
 11
704.5987628931
 21
212.2014288837
  0
LINE
  5
540
100
AcDbEntity
  8
0
100
AcDbLine
 62
7
  6
CONTINUOUS
 10
703.8272871234
 20
212.2014288837
 11
704.6159303445
 21
210.617626116
  0
LINE
  5
541
100
AcDbEntity
  8
0
100
AcDbLine
 62
7
  6
CONTINUOUS
 10
704.6159303445
 20
210.617626116
 11
704.7771561635
 21
210.293816533
  0
LINE
  5
542
100
AcDbEntity
  8
0
100
AcDbLine
 62
7
  6
CONTINUOUS
 10
706.1287846935
 20
210.4697673533
 11
706.328523266
 21
209.9037528104
  0
LINE
  5
543
100
AcDbEntity
  8
BEZUGSACHSEN
100
AcDbLine
 62
7
  6
CONTINUOUS
 10
707.1181477796
 20
209.9037528104
 11
706.9195485978
 21
210.4697673533
  0
LINE
  5
544
100
AcDbEntity
  8
0
100
AcDbLine
 62
7
  6
CONTINUOUS
 10
705.8655112576
 20
211.0803154167
 11
706.1287846935
 21
210.4697673533
  0
LINE
  5
545
100
AcDbEntity
  8
BEZUGSACHSEN
100
AcDbLine
 62
7
  6
CONTINUOUS
 10
706.9195485978
 20
210.4697673533
 11
706.7226482004
 21
210.9272651986
  0
LINE
  5
546
100
AcDbEntity
  8
BEZUGSACHSEN
100
AcDbLine
 62
7
  6
CONTINUOUS
 10
706.7226482004
 20
210.9272651986
 11
706.6567630983
 21
211.0803154167
  0
LINE
  5
547
100
AcDbEntity
  8
0
100
AcDbLine
 62
7
  6
CONTINUOUS
 10
705.8655112576
 20
211.0803154167
 11
705.3775357467
 21
212.0596564457
  0
LINE
  5
548
100
AcDbEntity
  8
0
100
AcDbLine
 62
7
  6
CONTINUOUS
 10
705.3775357467
 20
212.0596564457
 11
705.3541369231
 21
212.1066154601
  0
LINE
  5
549
100
AcDbEntity
  8
0
100
AcDbLine
 62
7
  6
CONTINUOUS
 10
705.3541369231
 20
212.1066154601
 11
705.0262941097
 21
212.7645511279
  0
LINE
  5
54A
100
AcDbEntity
  8
BEZUGSACHSEN
100
AcDbLine
 62
7
  6
CONTINUOUS
 10
705.6771316668
 20
213.0455633211
 11
706.4128949942
 21
211.5695510968
  0
LINE
  5
54B
100
AcDbEntity
  8
BEZUGSACHSEN
100
AcDbLine
 62
7
  6
CONTINUOUS
 10
706.4128949942
 20
211.5695510968
 11
706.4470884101
 21
211.5009544195
  0
LINE
  5
54C
100
AcDbEntity
  8
BEZUGSACHSEN
100
AcDbLine
 62
7
  6
CONTINUOUS
 10
706.4470884101
 20
211.5009544195
 11
706.6567630983
 21
211.0803154167
  0
LINE
  5
54D
100
AcDbEntity
  8
BEZUGSACHSEN
100
AcDbLine
 62
7
  6
CONTINUOUS
 10
705.4173189521
 20
213.4831473755
 11
705.482482119
 21
213.3734283422
  0
LINE
  5
54E
100
AcDbEntity
  8
BEZUGSACHSEN
100
AcDbLine
 62
7
  6
CONTINUOUS
 10
705.482482119
 20
213.3734283422
 11
705.6771316668
 21
213.0455633211
  0
LINE
  5
54F
100
AcDbEntity
  8
BEZUGSACHSEN
100
AcDbLine
 62
7
  6
CONTINUOUS
 10
705.0955691784
 20
213.7058183142
 11
705.2237580272
 21
213.703232288
  0
LINE
  5
550
100
AcDbEntity
  8
BEZUGSACHSEN
100
AcDbLine
 62
7
  6
CONTINUOUS
 10
705.2237580272
 20
213.703232288
 11
705.2723972603
 21
213.6479966333
  0
LINE
  5
551
100
AcDbEntity
  8
BEZUGSACHSEN
100
AcDbLine
 62
7
  6
CONTINUOUS
 10
705.2723972603
 20
213.6479966333
 11
705.4173189521
 21
213.4831473755
  0
SPLINE
  5
552
100
AcDbEntity
  8
KONSTRUKTIONSELEMENTE
100
AcDbSpline
 62
7
  6
CONTINUOUS
 70
0
 71
3
 72
9
 73
5
 74
0
 42
0.0000001
 43
0.0000001
 44
0.0000000001
 40
0.0
 40
0.0
 40
0.0
 40
0.0
 40
0.2752644152
 40
1.0
 40
1.0
 40
1.0
 40
1.0
 10
199.0167208819
 20
127.9240138425
 30
0.0
 10
199.0167208819
 20
127.8671159797
 30
0.0
 10
198.9563927167
 20
127.6633254961
 30
0.0
 10
198.8267336528
 20
127.4963220685
 30
0.0
 10
198.7246335051
 20
127.3866999403
 30
0.0
  0
SPLINE
  5
553
100
AcDbEntity
  8
KONSTRUKTIONSELEMENTE
100
AcDbSpline
 62
7
  6
CONTINUOUS
 70
0
 71
3
 72
9
 73
5
 74
0
 42
0.0000001
 43
0.0000001
 44
0.0000000001
 40
0.0
 40
0.0
 40
0.0
 40
0.0
 40
0.7247302759
 40
1.0
 40
1.0
 40
1.0
 40
1.0
 10
191.7087808442
 20
127.3867298433
 30
0.0
 10
191.6066985627
 20
127.4963538062
 30
0.0
 10
191.4770417304
 20
127.6633396467
 30
0.0
 10
191.4167208819
 20
127.8671185804
 30
0.0
 10
191.4167208819
 20
127.9240138425
 30
0.0
  0
SPLINE
  5
554
100
AcDbEntity
  8
KONSTRUKTIONSELEMENTE
100
AcDbSpline
 62
7
  6
CONTINUOUS
 70
0
 71
3
 72
13
 73
9
 74
0
 42
0.0000001
 43
0.0000001
 44
0.0000000001
 40
0.0
 40
0.0
 40
0.0
 40
0.0
 40
0.1208023438
 40
0.2417405165
 40
0.3635818662
 40
0.4866533049
 40
0.7381983824
 40
1.0
 40
1.0
 40
1.0
 40
1.0
 10
205.4167208819
 20
127.9240138425
 30
0.0
 10
205.4167208819
 20
127.4846891105
 30
0.0
 10
205.3295657833
 20
126.6030903367
 30
0.0
 10
204.9443051331
 20
125.3302277081
 30
0.0
 10
204.3264943549
 20
124.1433723795
 30
0.0
 10
203.2204616387
 20
122.706233767
 30
0.0
 10
201.3768151572
 20
121.2458745772
 30
0.0
 10
199.6328487706
 20
120.5190761573
 30
0.0
 10
198.7173557191
 20
120.2576051209
 30
0.0
  0
SPLINE
  5
555
100
AcDbEntity
  8
KONSTRUKTIONSELEMENTE
100
AcDbSpline
 62
7
  6
CONTINUOUS
 70
0
 71
3
 72
13
 73
9
 74
0
 42
0.0000001
 43
0.0000001
 44
0.0000000001
 40
0.0
 40
0.0
 40
0.0
 40
0.0
 40
0.2618007603
 40
0.5133270374
 40
0.6363939503
 40
0.7582240297
 40
0.8791948111
 40
1.0
 40
1.0
 40
1.0
 40
1.0
 10
191.7112851001
 20
120.2589976716
 30
0.0
 10
190.7963106366
 20
120.5206939481
 30
0.0
 10
189.0534808449
 20
121.2478055987
 30
0.0
 10
187.2112820628
 20
122.7080755697
 30
0.0
 10
186.1061420413
 20
124.1446806333
 30
0.0
 10
185.4887046758
 20
125.3311171829
 30
0.0
 10
185.1038874589
 20
126.6035691717
 30
0.0
 10
185.0167208819
 20
127.4848788468
 30
0.0
 10
185.0167208819
 20
127.9240138425
 30
0.0
  0
SPLINE
  5
556
100
AcDbEntity
  8
KONSTRUKTIONSELEMENTE
100
AcDbSpline
 62
7
  6
CONTINUOUS
 70
0
 71
3
 72
9
 73
5
 74
0
 42
0.0000001
 43
0.0000001
 44
0.0000000001
 40
0.0
 40
0.0
 40
0.0
 40
0.0
 40
0.4993814108
 40
1.0
 40
1.0
 40
1.0
 40
1.0
 10
185.0167208819
 20
160.7337684896
 30
0.0
 10
185.0167208819
 20
161.2307458538
 30
0.0
 10
185.1283975998
 20
162.2290917857
 30
0.0
 10
185.4558054196
 20
163.1779069707
 30
0.0
 10
185.6659123193
 20
163.629644601
 30
0.0
  0
SPLINE
  5
557
100
AcDbEntity
  8
KONSTRUKTIONSELEMENTE
100
AcDbSpline
 62
7
  6
CONTINUOUS
 70
0
 71
3
 72
9
 73
5
 74
0
 42
0.0000001
 43
0.0000001
 44
0.0000000001
 40
0.0
 40
0.0
 40
0.0
 40
0.0
 40
0.5006541649
 40
1.0
 40
1.0
 40
1.0
 40
1.0
 10
204.7676993958
 20
163.6294530867
 30
0.0
 10
204.977769125
 20
163.1777035931
 30
0.0
 10
205.3049969688
 20
162.2289187293
 30
0.0
 10
205.4167208819
 20
161.2306702327
 30
0.0
 10
205.4167208819
 20
160.7337684896
 30
0.0
  0
SPLINE
  5
558
100
AcDbEntity
  8
KONSTRUKTIONSELEMENTE
100
AcDbSpline
 62
7
  6
CONTINUOUS
 70
0
 71
3
 72
9
 73
5
 74
0
 42
0.0000001
 43
0.0000001
 44
0.0000000001
 40
0.0
 40
0.0
 40
0.0
 40
0.0
 40
0.2925670556
 40
1.0
 40
1.0
 40
1.0
 40
1.0
 10
191.4167208819
 20
160.7337684896
 30
0.0
 10
191.4167208819
 20
160.7796393101
 30
0.0
 10
191.4544791932
 20
160.9352372759
 30
0.0
 10
191.5418491196
 20
161.069240299
 30
0.0
 10
191.610348597
 20
161.1564773527
 30
0.0
  0
SPLINE
  5
559
100
AcDbEntity
  8
KONSTRUKTIONSELEMENTE
100
AcDbSpline
 62
7
  6
CONTINUOUS
 70
0
 71
3
 72
9
 73
5
 74
0
 42
0.0000001
 43
0.0000001
 44
0.0000000001
 40
0.0
 40
0.0
 40
0.0
 40
0.0
 40
0.7073947347
 40
1.0
 40
1.0
 40
1.0
 40
1.0
 10
198.8230436689
 20
161.1565254233
 30
0.0
 10
198.8915501581
 20
161.0692810925
 30
0.0
 10
198.9789599394
 20
160.9352751427
 30
0.0
 10
199.0167208819
 20
160.7796519376
 30
0.0
 10
199.0167208819
 20
160.7337684896
 30
0.0
  0
SPLINE
  5
55A
100
AcDbEntity
  8
KONSTRUKTIONSELEMENTE
100
AcDbSpline
 62
7
  6
CONTINUOUS
 70
0
 71
3
 72
10
 73
6
 74
0
 42
0.0000001
 43
0.0000001
 44
0.0000000001
 40
0.0
 40
0.0
 40
0.0
 40
0.0
 40
0.2488347756
 40
0.5438407514
 40
1.0
 40
1.0
 40
1.0
 40
1.0
 10
199.0167208819
 20
153.3798579653
 30
0.0
 10
199.0167208819
 20
153.2948137039
 30
0.0
 10
198.9428321548
 20
153.1140493227
 30
0.0
 10
198.7404259107
 20
152.840169197
 30
0.0
 10
198.5474797957
 20
152.666192331
 30
0.0
 10
198.424280116
 20
152.5706563109
 30
0.0
  0
SPLINE
  5
55B
100
AcDbEntity
  8
KONSTRUKTIONSELEMENTE
100
AcDbSpline
 62
7
  6
CONTINUOUS
 70
0
 71
3
 72
10
 73
6
 74
0
 42
0.0000001
 43
0.0000001
 44
0.0000000001
 40
0.0
 40
0.0
 40
0.0
 40
0.0
 40
0.4561635586
 40
0.7511952336
 40
1.0
 40
1.0
 40
1.0
 40
1.0
 10
192.0093574622
 20
152.5704916342
 30
0.0
 10
191.8861135994
 20
152.6660355634
 30
0.0
 10
191.6931147381
 20
152.8400677647
 30
0.0
 10
191.4906450076
 20
153.1140001954
 30
0.0
 10
191.4167208819
 20
153.2948030755
 30
0.0
 10
191.4167208819
 20
153.3798579653
 30
0.0
  0
SPLINE
  5
55C
100
AcDbEntity
  8
KONSTRUKTIONSELEMENTE
100
AcDbSpline
 62
7
  6
CONTINUOUS
 70
0
 71
3
 72
9
 73
5
 74
0
 42
0.0000001
 43
0.0000001
 44
0.0000000001
 40
0.0
 40
0.0
 40
0.0
 40
0.0
 40
0.2450750885
 40
1.0
 40
1.0
 40
1.0
 40
1.0
 10
171.3183094581
 20
185.6555820404
 30
0.0
 10
171.6246060476
 20
185.46131369
 30
0.0
 10
172.8871056493
 20
184.6887493575
 30
0.0
 10
174.1983164283
 20
183.996337296
 30
0.0
 10
175.2078263791
 20
183.51757936
 30
0.0
  0
SPLINE
  5
55D
100
AcDbEntity
  8
KONSTRUKTIONSELEMENTE
100
AcDbSpline
 62
7
  6
CONTINUOUS
 70
0
 71
3
 72
9
 73
5
 74
0
 42
0.0000001
 43
0.0000001
 44
0.0000000001
 40
0.0
 40
0.0
 40
0.0
 40
0.0
 40
0.2549283023
 40
1.0
 40
1.0
 40
1.0
 40
1.0
 10
215.224049378
 20
183.516839997
 30
0.0
 10
215.5651357617
 20
183.6785794963
 30
0.0
 10
216.8937688646
 20
184.3324530498
 30
0.0
 10
218.1840017932
 20
185.0649947125
 30
0.0
 10
219.1156814732
 20
185.6559310282
 30
0.0
  0
SPLINE
  5
55E
100
AcDbEntity
  8
KONSTRUKTIONSELEMENTE
100
AcDbSpline
 62
7
  6
CONTINUOUS
 70
0
 71
3
 72
9
 73
5
 74
0
 42
0.0000001
 43
0.0000001
 44
0.0000000001
 40
0.0
 40
0.0
 40
0.0
 40
0.0
 40
0.2460040855
 40
1.0
 40
1.0
 40
1.0
 40
1.0
 10
169.3110550614
 20
177.5525637256
 30
0.0
 10
169.8695222182
 20
177.2447728914
 30
0.0
 10
172.1665200224
 20
176.0427052747
 30
0.0
 10
174.5642156832
 20
175.0350768166
 30
0.0
 10
176.4063985447
 20
174.3822504312
 30
0.0
  0
SPLINE
  5
55F
100
AcDbEntity
  8
KONSTRUKTIONSELEMENTE
100
AcDbSpline
 62
7
  6
CONTINUOUS
 70
0
 71
3
 72
9
 73
5
 74
0
 42
0.0000001
 43
0.0000001
 44
0.0000000001
 40
0.0
 40
0.0
 40
0.0
 40
0.0
 40
0.2540654208
 40
1.0
 40
1.0
 40
1.0
 40
1.0
 10
214.0262068898
 20
174.3819570946
 30
0.0
 10
214.6471407674
 20
174.6019904653
 30
0.0
 10
217.0740453952
 20
175.5151795285
 30
0.0
 10
219.4299501913
 20
176.6197146476
 30
0.0
 10
221.1238216916
 20
177.5533516865
 30
0.0
  0
SPLINE
  5
560
100
AcDbEntity
  8
KONSTRUKTIONSELEMENTE
100
AcDbSpline
 62
7
  6
CONTINUOUS
 70
0
 71
3
 72
13
 73
9
 74
0
 42
0.0000001
 43
0.0000001
 44
0.0000000001
 40
0.0
 40
0.0
 40
0.0
 40
0.0
 40
0.1037033436
 40
0.212323527
 40
0.3277710209
 40
0.4507608463
 40
0.7166544849
 40
1.0
 40
1.0
 40
1.0
 40
1.0
 10
186.0565144249
 20
3.7409631579
 30
0.0
 10
185.9966649317
 20
4.0843455674
 30
0.0
 10
185.7824726981
 20
4.7740852067
 30
0.0
 10
185.2129816967
 20
5.7272723692
 30
0.0
 10
184.4140162783
 20
6.5878010975
 30
0.0
 10
183.045582288
 20
7.6016130535
 30
0.0
 10
180.9231979337
 20
8.4748868955
 30
0.0
 10
179.0690783677
 20
8.7058105345
 30
0.0
 10
178.1167208819
 20
8.7058105345
 30
0.0
  0
SPLINE
  5
561
100
AcDbEntity
  8
KONSTRUKTIONSELEMENTE
100
AcDbSpline
 62
7
  6
CONTINUOUS
 70
0
 71
3
 72
11
 73
7
 74
0
 42
0.0000001
 43
0.0000001
 44
0.0000000001
 40
0.0
 40
0.0
 40
0.0
 40
0.0
 40
0.2165107186
 40
0.451460212
 40
0.7134365312
 40
1.0
 40
1.0
 40
1.0
 40
1.0
 10
139.8378560452
 20
75.5441735013
 30
0.0
 10
139.8377749706
 20
75.7681188524
 30
0.0
 10
139.9484075833
 20
76.2399472743
 30
0.0
 10
140.4023648628
 20
76.8421782948
 30
0.0
 10
141.0802085376
 20
77.3062630105
 30
0.0
 10
141.6219368553
 20
77.4959095826
 30
0.0
 10
141.9108141243
 20
77.5622799788
 30
0.0
  0
SPLINE
  5
562
100
AcDbEntity
  8
KONSTRUKTIONSELEMENTE
100
AcDbSpline
 62
7
  6
CONTINUOUS
 70
0
 71
3
 72
12
 73
8
 74
0
 42
0.0000001
 43
0.0000001
 44
0.0000000001
 40
0.0
 40
0.0
 40
0.0
 40
0.0
 40
0.1074774995
 40
0.2175181345
 40
0.4521669718
 40
0.7138306477
 40
1.0
 40
1.0
 40
1.0
 40
1.0
 10
130.3174614398
 20
97.7553984617
 30
0.0
 10
130.3175137504
 20
98.1263354596
 30
0.0
 10
130.4026087195
 20
98.8796113975
 30
0.0
 10
130.9127470191
 20
100.3656579141
 30
0.0
 10
132.2001738027
 20
102.0833519062
 30
0.0
 10
134.4595179731
 20
103.6255487168
 30
0.0
 10
136.2647088026
 20
104.258483302
 30
0.0
 10
137.2272860448
 20
104.4796382347
 30
0.0
  0
SPLINE
  5
563
100
AcDbEntity
  8
KONSTRUKTIONSELEMENTE
100
AcDbSpline
 62
7
  6
CONTINUOUS
 70
0
 71
3
 72
9
 73
5
 74
0
 42
0.0000001
 43
0.0000001
 44
0.0000000001
 40
0.0
 40
0.0
 40
0.0
 40
0.0
 40
0.4942226469
 40
1.0
 40
1.0
 40
1.0
 40
1.0
 10
130.3174614398
 20
94.2198645558
 30
0.0
 10
130.3174090945
 20
93.8486815975
 30
0.0
 10
130.4021200289
 20
93.0953604907
 30
0.0
 10
130.6482855514
 20
92.3792039576
 30
0.0
 10
130.8068908256
 20
92.0340390869
 30
0.0
  0
SPLINE
  5
564
100
AcDbEntity
  8
KONSTRUKTIONSELEMENTE
100
AcDbSpline
 62
7
  6
CONTINUOUS
 70
0
 71
3
 72
9
 73
5
 74
0
 42
0.0000001
 43
0.0000001
 44
0.0000000001
 40
0.0
 40
0.0
 40
0.0
 40
0.0
 40
0.4942237741
 40
1.0
 40
1.0
 40
1.0
 40
1.0
 10
229.1624727281
 20
24.615733191
 30
0.0
 10
229.1624108761
 20
24.9869373994
 30
0.0
 10
229.2471154154
 20
25.7403019795
 30
0.0
 10
229.4932888441
 20
26.4565003503
 30
0.0
 10
229.6519024837
 20
26.8016834263
 30
0.0
  0
SPLINE
  5
565
100
AcDbEntity
  8
KONSTRUKTIONSELEMENTE
100
AcDbSpline
 62
7
  6
CONTINUOUS
 70
0
 71
3
 72
11
 73
7
 74
0
 42
0.0000001
 43
0.0000001
 44
0.0000000001
 40
0.0
 40
0.0
 40
0.0
 40
0.0
 40
0.2203815833
 40
0.4602540562
 40
0.7212311482
 40
1.0
 40
1.0
 40
1.0
 40
1.0
 10
229.4821791247
 20
26.378460802
 30
0.0
 10
229.6984115348
 20
25.7882418268
 30
0.0
 10
230.3685155837
 20
24.6297264057
 30
0.0
 10
231.8786030303
 20
23.2006684221
 30
0.0
 10
233.8233252731
 20
22.0865590412
 30
0.0
 10
235.2973712008
 20
21.6051937175
 30
0.0
 10
236.0722977029
 20
21.4271520904
 30
0.0
  0
SPLINE
  5
566
100
AcDbEntity
  8
KONSTRUKTIONSELEMENTE
100
AcDbSpline
 62
7
  6
CONTINUOUS
 70
0
 71
3
 72
11
 73
7
 74
0
 42
0.0000001
 43
0.0000001
 44
0.0000000001
 40
0.0
 40
0.0
 40
0.0
 40
0.0
 40
0.2094829334
 40
0.4446557434
 40
0.7120095299
 40
1.0
 40
1.0
 40
1.0
 40
1.0
 10
182.1167208819
 20
-16.7500335882
 30
0.0
 10
182.1167208819
 20
-17.031155763
 30
0.0
 10
182.2992957405
 20
-17.6349430519
 30
0.0
 10
182.998340183
 20
-18.3263455725
 30
0.0
 10
183.9802893035
 20
-18.7703075963
 30
0.0
 10
184.7302430625
 20
-18.8713539318
 30
0.0
 10
185.1167208819
 20
-18.8713539318
 30
0.0
  0
SPLINE
  5
567
100
AcDbEntity
  8
KONSTRUKTIONSELEMENTE
100
AcDbSpline
 62
7
  6
CONTINUOUS
 70
0
 71
3
 72
11
 73
7
 74
0
 42
0.0000001
 43
0.0000001
 44
0.0000000001
 40
0.0
 40
0.0
 40
0.0
 40
0.0
 40
0.216523381
 40
0.4514658501
 40
0.7134640841
 40
1.0
 40
1.0
 40
1.0
 40
1.0
 10
247.2249022615
 20
18.3511084214
 30
0.0
 10
247.2248961962
 20
18.425744359
 30
0.0
 10
247.1879751813
 20
18.5829712814
 30
0.0
 10
247.0366327103
 20
18.7836366564
 30
0.0
 10
246.810710699
 20
18.9382457598
 30
0.0
 10
246.6301807719
 20
19.0014476205
 30
0.0
 10
246.5339193822
 20
19.0235639559
 30
0.0
  0
LINE
  5
568
100
AcDbEntity
  8
BEZUGSACHSEN
100
AcDbLine
 62
7
  6
CONTINUOUS
 10
198.7463828708
 20
116.715949836
 11
198.7210511039
 21
116.7184984992
  0
LINE
  5
569
100
AcDbEntity
  8
BEZUGSACHSEN
100
AcDbLine
 62
7
  6
CONTINUOUS
 10
191.7123906598
 20
116.7184984992
 11
191.687058893
 21
116.715949836
  0
SPLINE
  5
56A
100
AcDbEntity
  8
BEZUGSACHSEN
100
AcDbSpline
 62
7
  6
CONTINUOUS
 70
0
 71
3
 72
9
 73
5
 74
0
 42
0.0000001
 43
0.0000001
 44
0.0000000001
 40
0.0
 40
0.0
 40
0.0
 40
0.0
 40
0.2365762186
 40
1.0
 40
1.0
 40
1.0
 40
1.0
 10
190.2441564383
 20
107.9484118855
 30
0.0
 10
190.3314627771
 20
108.0790393581
 30
0.0
 10
190.7372933784
 20
108.6065692463
 30
0.0
 10
191.2727787527
 20
109.026801464
 30
0.0
 10
191.7104084737
 20
109.2828146295
 30
0.0
  0
SPLINE
  5
56B
100
AcDbEntity
  8
BEZUGSACHSEN
100
AcDbSpline
 62
7
  6
CONTINUOUS
 70
0
 71
3
 72
9
 73
5
 74
0
 42
0.0000001
 43
0.0000001
 44
0.0000000001
 40
0.0
 40
0.0
 40
0.0
 40
0.0
 40
0.2651721197
 40
1.0
 40
1.0
 40
1.0
 40
1.0
 10
198.72303329
 20
109.2828146295
 30
0.0
 10
198.8749873482
 20
109.1939215823
 30
0.0
 10
199.4313266421
 20
108.8322777375
 30
0.0
 10
199.9182014818
 20
108.354006689
 30
0.0
 10
200.1892853254
 20
107.9484118855
 30
0.0
  0
SPLINE
  5
56C
100
AcDbEntity
  8
KONSTRUKTIONSELEMENTE
100
AcDbSpline
 62
7
  6
CONTINUOUS
 70
0
 71
3
 72
9
 73
5
 74
0
 42
0.0000001
 43
0.0000001
 44
0.0000000001
 40
0.0
 40
0.0
 40
0.0
 40
0.0
 40
0.5058761677
 40
1.0
 40
1.0
 40
1.0
 40
1.0
 10
280.5497942966
 20
87.2268628179
 30
0.0
 10
280.708352458
 20
87.5719251592
 30
0.0
 10
280.9544984837
 20
88.287693461
 30
0.0
 10
281.039209616
 20
89.0406362409
 30
0.0
 10
281.0392208829
 20
89.4115622842
 30
0.0
  0
SPLINE
  5
56D
100
AcDbEntity
  8
KONSTRUKTIONSELEMENTE
100
AcDbSpline
 62
7
  6
CONTINUOUS
 70
0
 71
3
 72
10
 73
6
 74
0
 42
0.0000001
 43
0.0000001
 44
0.0000000001
 40
0.0
 40
0.0
 40
0.0
 40
0.0
 40
0.2743904107
 40
0.5446140331
 40
1.0
 40
1.0
 40
1.0
 40
1.0
 10
278.6716867972
 20
85.4278752942
 30
0.0
 10
278.7980059427
 20
85.3988531016
 30
0.0
 10
279.0594653373
 20
85.3787443891
 30
0.0
 10
279.5228895765
 20
85.4637519732
 30
0.0
 10
279.8419465471
 20
85.6864085163
 30
0.0
 10
279.9317603079
 20
85.881865794
 30
0.0
  0
SPLINE
  5
56E
100
AcDbEntity
  8
KONSTRUKTIONSELEMENTE
100
AcDbSpline
 62
7
  6
CONTINUOUS
 70
0
 71
3
 72
8
 73
4
 74
0
 42
0.0000001
 43
0.0000001
 44
0.0000000001
 40
0.0
 40
0.0
 40
0.0
 40
0.0
 40
1.0
 40
1.0
 40
1.0
 40
1.0
 10
247.1759589041
 20
14.5970235258
 30
0.0
 10
247.2071298736
 20
14.6648593761
 30
0.0
 10
247.2249083283
 20
14.7409197642
 30
0.0
 10
247.2249022615
 20
14.8155745155
 30
0.0
  0
SPLINE
  5
56F
100
AcDbEntity
  8
KONSTRUKTIONSELEMENTE
100
AcDbSpline
 62
7
  6
CONTINUOUS
 70
0
 71
3
 72
11
 73
7
 74
0
 42
0.0000001
 43
0.0000001
 44
0.0000000001
 40
0.0
 40
0.0
 40
0.0
 40
0.0
 40
0.2773556544
 40
0.5416273378
 40
0.7832845041
 40
1.0
 40
1.0
 40
1.0
 40
1.0
 10
237.2034868434
 20
8.7058105345
 30
0.0
 10
238.2400332564
 20
8.7058105345
 30
0.0
 10
240.2718688984
 20
8.927119843
 30
0.0
 10
243.0605254267
 20
9.9060119055
 30
0.0
 10
245.320771643
 20
11.4477344895
 30
0.0
 10
246.375882417
 20
12.8558563511
 30
0.0
 10
246.7140520064
 20
13.5917982241
 30
0.0
  0
SPLINE
  5
570
100
AcDbEntity
  8
KONSTRUKTIONSELEMENTE
100
AcDbSpline
 62
7
  6
CONTINUOUS
 70
0
 71
3
 72
13
 73
9
 74
0
 42
0.0000001
 43
0.0000001
 44
0.0000000001
 40
0.0
 40
0.0
 40
0.0
 40
0.0
 40
0.2870570185
 40
0.5535684049
 40
0.675502601
 40
0.7893257806
 40
0.8965530995
 40
1.0
 40
1.0
 40
1.0
 40
1.0
 10
212.3167208819
 20
8.7058105345
 30
0.0
 10
211.2861607298
 20
8.7058105345
 30
0.0
 10
209.2886680558
 20
8.4374718525
 30
0.0
 10
207.0356367778
 20
7.4187820552
 30
0.0
 10
205.6528576623
 20
6.2443235125
 30
0.0
 10
204.8961232278
 20
5.259242614
 30
0.0
 10
204.4245754565
 20
4.180518124
 30
0.0
 10
204.3167208819
 20
3.4203398312
 30
0.0
 10
204.3167208819
 20
3.048956285
 30
0.0
  0
SPLINE
  5
571
100
AcDbEntity
  8
KONSTRUKTIONSELEMENTE
100
AcDbSpline
 62
7
  6
CONTINUOUS
 70
0
 71
3
 72
12
 73
8
 74
0
 42
0.0000001
 43
0.0000001
 44
0.0000000001
 40
0.0
 40
0.0
 40
0.0
 40
0.0
 40
0.1074881141
 40
0.2175261613
 40
0.4521665155
 40
0.7138392227
 40
1.0
 40
1.0
 40
1.0
 40
1.0
 10
281.0392208829
 20
92.9470961901
 30
0.0
 10
281.0392321524
 20
93.3181099861
 30
0.0
 10
280.9543841629
 20
94.0715276478
 30
0.0
 10
280.4442946807
 20
95.5577857904
 30
0.0
 10
279.1569733245
 20
97.2758276256
 30
0.0
 10
276.897427811
 20
98.818263744
 30
0.0
 10
275.0920516788
 20
99.4512897191
 30
0.0
 10
274.1293990774
 20
99.6724619657
 30
0.0
  0
SPLINE
  5
572
100
AcDbEntity
  8
KONSTRUKTIONSELEMENTE
100
AcDbSpline
 62
7
  6
CONTINUOUS
 70
0
 71
3
 72
11
 73
7
 74
0
 42
0.0000001
 43
0.0000001
 44
0.0000000001
 40
0.0
 40
0.0
 40
0.0
 40
0.0
 40
0.2879904701
 40
0.5553442566
 40
0.7905170666
 40
1.0
 40
1.0
 40
1.0
 40
1.0
 10
205.3167208819
 20
-18.8713539318
 30
0.0
 10
205.7031987012
 20
-18.8713539318
 30
0.0
 10
206.4531524603
 20
-18.7703075963
 30
0.0
 10
207.4351015807
 20
-18.3263455725
 30
0.0
 10
208.1341460233
 20
-17.6349430519
 30
0.0
 10
208.3167208819
 20
-17.031155763
 30
0.0
 10
208.3167208819
 20
-16.7500335882
 30
0.0
  0
SPLINE
  5
573
100
AcDbEntity
  8
KONSTRUKTIONSELEMENTE
100
AcDbSpline
 62
7
  6
CONTINUOUS
 70
0
 71
3
 72
11
 73
7
 74
0
 42
0.0000001
 43
0.0000001
 44
0.0000000001
 40
0.0
 40
0.0
 40
0.0
 40
0.0
 40
0.2809363762
 40
0.5390132064
 40
0.7759685789
 40
1.0
 40
1.0
 40
1.0
 40
1.0
 10
212.0605061493
 20
8.5458113259
 30
0.0
 10
211.5121197119
 20
8.3021653422
 30
0.0
 10
210.5016955111
 20
7.7278621935
 30
0.0
 10
209.2834351004
 20
6.5766058857
 30
0.0
 10
208.5001754855
 20
5.2268874616
 30
0.0
 10
208.3167208819
 20
4.234590809
 30
0.0
 10
208.3167208819
 20
3.7560630662
 30
0.0
  0
SPLINE
  5
574
100
AcDbEntity
  8
KONSTRUKTIONSELEMENTE
100
AcDbSpline
 62
7
  6
CONTINUOUS
 70
0
 71
3
 72
11
 73
7
 74
0
 42
0.0000001
 43
0.0000001
 44
0.0000000001
 40
0.0
 40
0.0
 40
0.0
 40
0.0
 40
0.2815407437
 40
0.5399344635
 40
0.7766533827
 40
1.0
 40
1.0
 40
1.0
 40
1.0
 10
178.2299648915
 20
8.7073512326
 30
0.0
 10
178.7970112882
 20
8.4669976926
 30
0.0
 10
179.8431871356
 20
7.8946094318
 30
0.0
 10
181.108708426
 20
6.7319244424
 30
0.0
 10
181.9249558508
 20
5.3585228704
 30
0.0
 10
182.1167208819
 20
4.3440627991
 30
0.0
 10
182.1167208819
 20
3.8554823363
 30
0.0
  0
SPLINE
  5
575
100
AcDbEntity
  8
KONSTRUKTIONSELEMENTE
100
AcDbSpline
 62
7
  6
CONTINUOUS
 70
0
 71
3
 72
9
 73
5
 74
0
 42
0.0000001
 43
0.0000001
 44
0.0000000001
 40
0.0
 40
0.0
 40
0.0
 40
0.0
 40
0.2553805419
 40
1.0
 40
1.0
 40
1.0
 40
1.0
 10
139.9846955586
 20
72.7679400627
 30
0.0
 10
139.9607365573
 20
72.8200808607
 30
0.0
 10
139.877181821
 20
73.0287636109
 30
0.0
 10
139.8379166163
 20
73.2555429639
 30
0.0
 10
139.8378560452
 20
73.4228531578
 30
0.0
  0
SPLINE
  5
576
100
AcDbEntity
  8
KONSTRUKTIONSELEMENTE
100
AcDbSpline
 62
7
  6
CONTINUOUS
 70
0
 71
3
 72
9
 73
5
 74
0
 42
0.0000001
 43
0.0000001
 44
0.0000000001
 40
0.0
 40
0.0
 40
0.0
 40
0.0
 40
0.2401439602
 40
1.0
 40
1.0
 40
1.0
 40
1.0
 10
132.3519757975
 20
88.671546527
 30
0.0
 10
132.378523989
 20
88.6137710014
 30
0.0
 10
132.5023783928
 20
88.3793319714
 30
0.0
 10
132.6762906765
 20
88.1729519895
 30
0.0
 10
132.8241682929
 20
88.036538063
 30
0.0
  0
SPLINE
  5
577
100
AcDbEntity
  8
KONSTRUKTIONSELEMENTE
100
AcDbSpline
 62
7
  6
CONTINUOUS
 70
0
 71
3
 72
13
 73
9
 74
0
 42
0.0000001
 43
0.0000001
 44
0.0000000001
 40
0.0
 40
0.0
 40
0.0
 40
0.0
 40
0.1042188595
 40
0.2156595174
 40
0.3349136097
 40
0.4613942541
 40
0.7286340657
 40
1.0
 40
1.0
 40
1.0
 40
1.0
 10
255.6093300112
 20
83.2915584313
 30
0.0
 10
255.8171687256
 20
83.7438676204
 30
0.0
 10
256.3716912233
 20
84.6258902305
 30
0.0
 10
257.5108491885
 20
85.7641641959
 30
0.0
 10
258.9352542835
 20
86.7205037451
 30
0.0
 10
261.1806466437
 20
87.7248757735
 30
0.0
 10
264.3454293373
 20
88.3326012775
 30
0.0
 10
266.9468640925
 20
88.1216875535
 30
0.0
 10
268.2100651179
 20
87.8314634287
 30
0.0
  0
SPLINE
  5
578
100
AcDbEntity
  8
KONSTRUKTIONSELEMENTE
100
AcDbSpline
 62
7
  6
CONTINUOUS
 70
0
 71
3
 72
11
 73
7
 74
0
 42
0.0000001
 43
0.0000001
 44
0.0000000001
 40
0.0
 40
0.0
 40
0.0
 40
0.0
 40
0.218430057
 40
0.4594392003
 40
0.7221962123
 40
1.0
 40
1.0
 40
1.0
 40
1.0
 10
166.8515586906
 20
13.5917982241
 30
0.0
 10
167.154711532
 20
12.9320615804
 30
0.0
 10
168.0634546409
 20
11.6622231523
 30
0.0
 10
170.0021569164
 20
10.200516128
 30
0.0
 10
172.4147826119
 20
9.1789582461
 30
0.0
 10
174.1948954458
 20
8.8428141192
 30
0.0
 10
175.1146777582
 20
8.7610434623
 30
0.0
  0
SPLINE
  5
579
100
AcDbEntity
  8
KONSTRUKTIONSELEMENTE
100
AcDbSpline
 62
7
  6
CONTINUOUS
 70
0
 71
3
 72
12
 73
8
 74
0
 42
0.0000001
 43
0.0000001
 44
0.0000000001
 40
0.0
 40
0.0
 40
0.0
 40
0.0
 40
0.1074881141
 40
0.2175261613
 40
0.4521665155
 40
0.7138392227
 40
1.0
 40
1.0
 40
1.0
 40
1.0
 10
281.0392208829
 20
89.4115622842
 30
0.0
 10
281.0392321524
 20
89.7825760801
 30
0.0
 10
280.9543841629
 20
90.5359937419
 30
0.0
 10
280.4442946807
 20
92.0222518845
 30
0.0
 10
279.1569733245
 20
93.7402937197
 30
0.0
 10
276.897427811
 20
95.2827298381
 30
0.0
 10
275.0920516788
 20
95.9157558131
 30
0.0
 10
274.1293990774
 20
96.1369280598
 30
0.0
  0
SPLINE
  5
57A
100
AcDbEntity
  8
KONSTRUKTIONSELEMENTE
100
AcDbSpline
 62
7
  6
CONTINUOUS
 70
0
 71
3
 72
11
 73
7
 74
0
 42
0.0000001
 43
0.0000001
 44
0.0000000001
 40
0.0
 40
0.0
 40
0.0
 40
0.0
 40
0.216523381
 40
0.4514658501
 40
0.7134640841
 40
1.0
 40
1.0
 40
1.0
 40
1.0
 10
247.2249022615
 20
14.8155745155
 30
0.0
 10
247.2248961962
 20
14.8902104531
 30
0.0
 10
247.1879751813
 20
15.0474373754
 30
0.0
 10
247.0366327103
 20
15.2481027504
 30
0.0
 10
246.810710699
 20
15.4027118539
 30
0.0
 10
246.6301807719
 20
15.4659137146
 30
0.0
 10
246.5339193822
 20
15.48803005
 30
0.0
  0
SPLINE
  5
57B
100
AcDbEntity
  8
KONSTRUKTIONSELEMENTE
100
AcDbSpline
 62
7
  6
CONTINUOUS
 70
0
 71
3
 72
11
 73
7
 74
0
 42
0.0000001
 43
0.0000001
 44
0.0000000001
 40
0.0
 40
0.0
 40
0.0
 40
0.0
 40
0.2165107186
 40
0.451460212
 40
0.7134365312
 40
1.0
 40
1.0
 40
1.0
 40
1.0
 10
139.8378560452
 20
73.4228531578
 30
0.0
 10
139.8377749706
 20
73.6467985088
 30
0.0
 10
139.9484075833
 20
74.1186269308
 30
0.0
 10
140.4023648628
 20
74.7208579512
 30
0.0
 10
141.0802085376
 20
75.184942667
 30
0.0
 10
141.6219368553
 20
75.374589239
 30
0.0
 10
141.9108141243
 20
75.4409596353
 30
0.0
  0
SPLINE
  5
57C
100
AcDbEntity
  8
KONSTRUKTIONSELEMENTE
100
AcDbSpline
 62
7
  6
CONTINUOUS
 70
0
 71
3
 72
12
 73
8
 74
0
 42
0.0000001
 43
0.0000001
 44
0.0000000001
 40
0.0
 40
0.0
 40
0.0
 40
0.0
 40
0.2861713906
 40
0.5478364696
 40
0.7824814287
 40
0.8925216461
 40
1.0
 40
1.0
 40
1.0
 40
1.0
 10
236.0722977029
 20
17.8916181845
 30
0.0
 10
235.1097249668
 20
18.1127720818
 30
0.0
 10
233.3045436336
 20
18.7457020524
 30
0.0
 10
231.0452258986
 20
20.2878750813
 30
0.0
 10
229.7578013184
 20
22.0055228742
 30
0.0
 10
229.2476500406
 20
23.4915318619
 30
0.0
 10
229.1625345353
 20
24.2447976247
 30
0.0
 10
229.1624727281
 20
24.615733191
 30
0.0
  0
SPLINE
  5
57D
100
AcDbEntity
  8
KONSTRUKTIONSELEMENTE
100
AcDbSpline
 62
7
  6
CONTINUOUS
 70
0
 71
3
 72
12
 73
8
 74
0
 42
0.0000001
 43
0.0000001
 44
0.0000000001
 40
0.0
 40
0.0
 40
0.0
 40
0.0
 40
0.2861693523
 40
0.5478330282
 40
0.7824818655
 40
0.8925225005
 40
1.0
 40
1.0
 40
1.0
 40
1.0
 10
137.2272860448
 20
100.9441043287
 30
0.0
 10
136.2647088026
 20
100.7229493961
 30
0.0
 10
134.4595179731
 20
100.0900148109
 30
0.0
 10
132.2001738027
 20
98.5478180003
 30
0.0
 10
130.9127470191
 20
96.8301240081
 30
0.0
 10
130.4026087195
 20
95.3440774916
 30
0.0
 10
130.3175137504
 20
94.5908015536
 30
0.0
 10
130.3174614398
 20
94.2198645558
 30
0.0
  0
SPLINE
  5
57E
100
AcDbEntity
  8
0
100
AcDbSpline
 62
7
  6
CONTINUOUS
 70
0
 71
3
 72
11
 73
7
 74
0
 42
0.0000001
 43
0.0000001
 44
0.0000000001
 40
0.0
 40
0.0
 40
0.0
 40
0.0
 40
0.2449026047
 40
0.4922101403
 40
0.7439897683
 40
1.0
 40
1.0
 40
1.0
 40
1.0
 10
219.6564010588
 20
115.925731732
 30
0.0
 10
220.26130451
 20
115.5005971791
 30
0.0
 10
221.4173115156
 20
114.554603998
 30
0.0
 10
222.86603082
 20
112.8157686769
 30
0.0
 10
223.8736304998
 20
110.7414502051
 30
0.0
 10
224.118965364
 20
109.1986216299
 30
0.0
 10
224.118965364
 20
108.425731732
 30
0.0
  0
SPLINE
  5
57F
100
AcDbEntity
  8
0
100
AcDbSpline
 62
7
  6
CONTINUOUS
 70
0
 71
3
 72
9
 73
5
 74
0
 42
0.0000001
 43
0.0000001
 44
0.0000000001
 40
0.0
 40
0.0
 40
0.0
 40
0.0
 40
0.4826336521
 40
1.0
 40
1.0
 40
1.0
 40
1.0
 10
165.6500932909
 20
85.732954467
 30
0.0
 10
165.4128141019
 20
86.1018150386
 30
0.0
 10
165.0885992963
 20
86.9918704305
 30
0.0
 10
165.2212436525
 20
87.9276567999
 30
0.0
 10
165.3750926174
 20
88.3719230841
 30
0.0
  0
SPLINE
  5
580
100
AcDbEntity
  8
0
100
AcDbSpline
 62
7
  6
CONTINUOUS
 70
0
 71
3
 72
9
 73
5
 74
0
 42
0.0000001
 43
0.0000001
 44
0.0000000001
 40
0.0
 40
0.0
 40
0.0
 40
0.0
 40
0.5173663479
 40
1.0
 40
1.0
 40
1.0
 40
1.0
 10
225.0583491464
 20
88.3719230841
 30
0.0
 10
225.2121981113
 20
87.9276567999
 30
0.0
 10
225.3448424674
 20
86.9918704305
 30
0.0
 10
225.0206276619
 20
86.1018150386
 30
0.0
 10
224.7833484728
 20
85.732954467
 30
0.0
  0
SPLINE
  5
581
100
AcDbEntity
  8
0
100
AcDbSpline
 62
7
  6
CONTINUOUS
 70
0
 71
3
 72
9
 73
5
 74
0
 42
0.0000001
 43
0.0000001
 44
0.0000000001
 40
0.0
 40
0.0
 40
0.0
 40
0.0
 40
0.4944707573
 40
1.0
 40
1.0
 40
1.0
 40
1.0
 10
167.9361437488
 20
80.2570032084
 30
0.0
 10
167.7836923089
 20
81.2284445751
 30
0.0
 10
167.1746808458
 20
83.1489286412
 30
0.0
 10
166.1939796564
 20
84.8874600243
 30
0.0
 10
165.6500932909
 20
85.732954467
 30
0.0
  0
SPLINE
  5
582
100
AcDbEntity
  8
0
100
AcDbSpline
 62
7
  6
CONTINUOUS
 70
0
 71
3
 72
9
 73
5
 74
0
 42
0.0000001
 43
0.0000001
 44
0.0000000001
 40
0.0
 40
0.0
 40
0.0
 40
0.0
 40
0.5055292427
 40
1.0
 40
1.0
 40
1.0
 40
1.0
 10
224.7833484728
 20
85.732954467
 30
0.0
 10
224.2394621073
 20
84.8874600243
 30
0.0
 10
223.2587609179
 20
83.1489286412
 30
0.0
 10
222.6497494548
 20
81.2284445751
 30
0.0
 10
222.4972980149
 20
80.2570032084
 30
0.0
  0
SPLINE
  5
583
100
AcDbEntity
  8
0
100
AcDbSpline
 62
7
  6
CONTINUOUS
 70
0
 71
3
 72
9
 73
5
 74
0
 42
0.0000001
 43
0.0000001
 44
0.0000000001
 40
0.0
 40
0.0
 40
0.0
 40
0.0
 40
0.5000819919
 40
1.0
 40
1.0
 40
1.0
 40
1.0
 10
165.3750926174
 20
88.3719230841
 30
0.0
 10
165.668400536
 20
89.2189019325
 30
0.0
 10
166.1433445123
 20
90.9549903885
 30
0.0
 10
166.3144763997
 20
92.7509361941
 30
0.0
 10
166.3144763997
 20
93.6469696185
 30
0.0
  0
SPLINE
  5
584
100
AcDbEntity
  8
0
100
AcDbSpline
 62
7
  6
CONTINUOUS
 70
0
 71
3
 72
9
 73
5
 74
0
 42
0.0000001
 43
0.0000001
 44
0.0000000001
 40
0.0
 40
0.0
 40
0.0
 40
0.0
 40
0.4999180081
 40
1.0
 40
1.0
 40
1.0
 40
1.0
 10
224.118965364
 20
93.6469696185
 30
0.0
 10
224.118965364
 20
92.7509361941
 30
0.0
 10
224.2900972514
 20
90.9549903885
 30
0.0
 10
224.7650412277
 20
89.2189019325
 30
0.0
 10
225.0583491464
 20
88.3719230841
 30
0.0
  0
LINE
  5
585
100
AcDbEntity
  8
BEZUGSACHSEN
100
AcDbLine
 62
7
  6
CONTINUOUS
 10
170.2618445582
 20
66.4450207287
 11
170.1983957608
 21
66.7961170312
  0
SPLINE
  5
586
100
AcDbEntity
  8
0
100
AcDbSpline
 62
7
  6
CONTINUOUS
 70
0
 71
3
 72
11
 73
7
 74
0
 42
0.0000001
 43
0.0000001
 44
0.0000000001
 40
0.0
 40
0.0
 40
0.0
 40
0.0
 40
0.255989082
 40
0.5077658608
 40
0.7550832605
 40
1.0
 40
1.0
 40
1.0
 40
1.0
 10
166.3144763997
 20
108.425731732
 30
0.0
 10
166.3144763997
 20
109.1985575317
 30
0.0
 10
166.5597930378
 20
110.741307916
 30
0.0
 10
167.567307404
 20
112.8156185712
 30
0.0
 10
169.016047295
 20
114.554523585
 30
0.0
 10
170.172102535
 20
115.5005727783
 30
0.0
 10
170.7770407049
 20
115.925731732
 30
0.0
  0
ELLIPSE
  5
587
100
AcDbEntity
  8
RUNDUNGEN
100
AcDbEllipse
 62
7
  6
CONTINUOUS
 10
703.7878242945
 20
118.932013674
 30
0.0
 11
2.4415210557
 21
8.5526760869
 31
0.0
 40
0.5573507153
 41
-4.2390381249
 42
-3.5074078107
  0
ELLIPSE
  5
588
100
AcDbEntity
  8
BEZUGSACHSEN
100
AcDbEllipse
 62
7
  6
CONTINUOUS
 10
683.0763743581
 20
118.932013674
 30
0.0
 11
-2.4415210557
 21
8.5526760869
 31
0.0
 40
0.5573507153
 41
-2.7757774965
 42
-2.0441471822
  0
ELLIPSE
  5
589
100
AcDbEntity
  8
BEZUGSACHSEN
100
AcDbEllipse
 62
7
  6
CONTINUOUS
 10
709.2915950397
 20
122.5395842837
 30
0.0
 11
18.5701735795
 21
-12.0398819833
 31
0.0
 40
0.8993801471
 41
-2.566886172
 42
-2.4670944126
  0
ELLIPSE
  5
58A
100
AcDbEntity
  8
RUNDUNGEN
100
AcDbEllipse
 62
7
  6
CONTINUOUS
 10
677.5726036129
 20
122.5395842837
 30
0.0
 11
18.5701735795
 21
12.0398819833
 31
0.0
 40
0.8993801471
 41
-0.674498241
 42
-0.5747064816
  0
ELLIPSE
  5
58B
100
AcDbEntity
  8
KONSTRUKTIONSELEMENTE
100
AcDbEllipse
 62
7
  6
CONTINUOUS
 10
490.8570934903
 20
93.5697112508
 30
0.0
 11
-0.0
 21
4.19040674
 31
0.0
 40
0.1583844403
 41
-4.2154724383
 42
-3.2972706863
  0
ELLIPSE
  5
58C
100
AcDbEntity
  8
KONSTRUKTIONSELEMENTE
100
AcDbEllipse
 62
7
  6
CONTINUOUS
 10
495.8068409586
 20
88.6199637825
 30
0.0
 11
4.19040674
 21
0.0
 31
0.0
 40
0.1583844403
 41
-2.9859146209
 42
-2.0677128689
  0
ELLIPSE
  5
58D
100
AcDbEntity
  8
KONSTRUKTIONSELEMENTE
100
AcDbEllipse
 62
7
  6
CONTINUOUS
 10
147.8393848189
 20
90.4348656883
 30
0.0
 11
-0.9079926458
 21
0.6474800987
 31
0.0
 40
0.8040646284
 41
-2.1902533329
 42
-0.7310952967
  0
ELLIPSE
  5
58E
100
AcDbEntity
  8
KONSTRUKTIONSELEMENTE
100
AcDbEllipse
 62
7
  6
CONTINUOUS
 10
135.2051453464
 20
88.6199637825
 30
0.0
 11
2.9999216922
 21
0.656257088
 31
0.0
 40
0.0330294486
 41
-2.4948218116
 42
-1.2638623942
  0
ELLIPSE
  5
58F
100
AcDbEntity
  8
0
100
AcDbEllipse
 62
7
  6
CONTINUOUS
 10
195.2167208819
 20
11.6036051311
 30
0.0
 11
0.0
 21
112.583302492
 31
0.0
 40
0.5773502692
 41
-0.3854704199
 42
-0.1739528877
  0
ELLIPSE
  5
590
100
AcDbEntity
  8
0
100
AcDbEllipse
 62
7
  6
CONTINUOUS
 10
195.2167208819
 20
11.6036051311
 30
0.0
 11
-0.0
 21
112.583302492
 31
0.0
 40
0.5773502692
 41
0.1739528877
 42
0.3854704199
  0
ENDSEC
  0
SECTION
  2
OBJECTS
  0
DICTIONARY
  5
C
100
AcDbDictionary
280
0
281
1
  3
ACAD_GROUP
350
D
  3
ACAD_MLINESTYLE
350
17
  3
ACAD_LAYOUT
350
1A
  3
ACAD_PLOTSETTINGS
350
19
  3
ACAD_PLOTSTYLENAME
350
E
  0
DICTIONARY
  5
D
102
{ACAD_REACTORS
330
C
102
}
100
AcDbDictionary
280
0
281
1
  0
ACDBDICTIONARYWDFLT
  5
E
102
{ACAD_REACTORS
330
C
102
}
100
AcDbDictionary
281
1
  3
Normal
350
F
100
AcDbDictionaryWithDefault
340
F
  0
DICTIONARY
  5
17
102
{ACAD_REACTORS
330
C
102
}
100
AcDbDictionary
280
0
281
1
  3
Standard
350
18
  0
DICTIONARY
  5
19
102
{ACAD_REACTORS
330
C
102
}
100
AcDbDictionary
281
1
  0
DICTIONARY
  5
1A
102
{ACAD_REACTORS
330
C
102
}
100
AcDbDictionary
281
1
  3
Model
350
591
  3
Layout1
350
592
  0
ACDBPLACEHOLDER
  5
F
102
{ACAD_REACTORS
330
E
102
}
  0
MLINESTYLE
  5
18
102
{ACAD_REACTORS
330
17
102
}
100
AcDbMlineStyle
  2
STANDARD
 70
0
  3

 62
256
 51
90.0
 52
90.0
 71
2
 49
0.5
 62
256
  6
BYLAYER
 49
-0.5
 62
256
  6
BYLAYER
  0
LAYOUT
  5
591
102
{ACAD_REACTORS
330
1A
102
}
100
AcDbPlotSettings
  1

  2
none_device
  4
ISO_A1_(594.00_x_841.00_MM)
  6

 40
0.0
 41
0.0
 42
0.0
 43
0.0
 44
841.0
 45
594.0
 46
0.0
 47
0.0
 48
0.0
 49
0.0
140
0.0
141
0.0
142
1.0
143
1.0
 70
1024
 72
1
 73
0
 74
0
  7

 75
0
147
1.0
148
0.0
149
0.0
100
AcDbLayout
  1
Model
 70
0
 71
0
 10
0.0
 20
0.0
 11
841.0
 21
594.0
 12
0.0
 22
0.0
 32
0.0
 14
0.0
 24
0.0
 34
0.0
 15
0.0
 25
0.0
 35
0.0
146
0.0
 13
0.0
 23
0.0
 33
0.0
 16
1.0
 26
0.0
 36
0.0
 17
0.0
 27
1.0
 37
0.0
 76
0
330
209
345
0
346
0
  0
LAYOUT
  5
592
102
{ACAD_REACTORS
330
1A
102
}
100
AcDbPlotSettings
  1

  2
none_device
  4
ISO_A1_(594.00_x_841.00_MM)
  6

 40
0.0
 41
0.0
 42
0.0
 43
0.0
 44
841.0
 45
594.0
 46
0.0
 47
0.0
 48
0.0
 49
0.0
140
0.0
141
0.0
142
1.0
143
1.0
 70
0
 72
1
 73
0
 74
0
  7

 75
0
147
1.0
148
0.0
149
0.0
100
AcDbLayout
  1
Layout1
 70
0
 71
1
 10
0.0
 20
0.0
 11
841.0
 21
594.0
 12
0.0
 22
0.0
 32
0.0
 14
0.0
 24
0.0
 34
0.0
 15
0.0
 25
0.0
 35
0.0
146
0.0
 13
0.0
 23
0.0
 33
0.0
 16
1.0
 26
0.0
 36
0.0
 17
0.0
 27
1.0
 37
0.0
 76
0
330
20A
345
0
346
0
  0
ENDSEC
  0
EOF
