999
DXF file: VAK-1-16_7100685_M34474-P-5.dxf
999
Pro/ENGINEER 2010140 by Parametric Technology Corporation
  0
SECTION
  2
HEADER
  9
$ACADVER
  1
AC1015
  9
$DWGCODEPAGE
  3
ANSI_1252
  9
$EXTMAX
 10
594.0
 20
420.0
 30
0.0
  9
$EXTMIN
 10
0.0
 20
0.0
 30
0.0
  9
$LIMMIN
 10
0.0
 20
0.0
  9
$LIMMAX
 10
594.0
 20
420.0
  9
$VIEWCTR
 10
297.0
 20
210.0
  9
$VIEWSIZE
 40
420.0
  9
$CLAYER
  8
0
  9
$LTSCALE
 40
32.67
  9
$CELTYPE
  6
BYLAYER
  9
$DIMSCALE
 40
1.0
  9
$DIMASZ
 40
3.5
  9
$DIMEXO
 40
3.7125
  9
$DIMDLI
 40
22.572
  9
$DIMEXE
 40
10.692
  9
$DIMCEN
 40
5.346
  9
$DIMLFAC
 40
1.0
  9
$DIMBLK
  1
_FILLED
  9
$DIMTXT
 40
3.5
  9
$DIMTOL
 70
1
  9
$DIMLIM
 70
0
  9
$DIMTFAC
 40
1.0
  9
$DIMTP
 40
0.005
  9
$DIMTM
 40
0.005
  9
$PDMODE
 70
3
  9
$PDSIZE
 40
0.3125
  9
$HANDSEED
  5
4D6
  9
$TILEMODE
 70
1
  9
$MEASUREMENT
 70
1
  9
$INSUNITS
 70
4
  0
ENDSEC
  0
SECTION
  2
CLASSES
  0
CLASS
  1
ACDBDICTIONARYWDFLT
  2
AcDbDictionaryWithDefault
  3
AutoCAD 2000
 90
0
280
0
281
0
  0
CLASS
  1
ACDBPLACEHOLDER
  2
AcDbPlaceHolder
  3
AutoCAD 2000
 90
0
280
0
281
0
  0
CLASS
  1
LAYOUT
  2
AcDbLayout
  3
AutoCAD 2000
 90
0
280
0
281
0
  0
ENDSEC
  0
SECTION
  2
TABLES
  0
TABLE
  2
VPORT
  5
8
100
AcDbSymbolTable
 70
2
  0
VPORT
  5
1F4
100
AcDbSymbolTableRecord
100
AcDbViewportTableRecord
  2
*ACTIVE
 70
0
 10
0.0
 20
0.0
 11
1.0
 21
1.0
 12
297.0
 22
210.0
 13
0.0
 23
0.0
 14
1.0
 24
1.0
 15
0.0
 25
0.0
 16
0.0
 26
0.0
 36
1.0
 17
0.0
 27
0.0
 37
0.0
 40
420.0
 41
1.4142857143
 42
50.0
 43
0.0
 44
0.0
 50
0.0
 51
0.0
 71
0
 72
100
 73
1
 74
1
 75
0
 76
0
 77
0
 78
0
  0
ENDTAB
  0
TABLE
  2
LTYPE
  5
5
100
AcDbSymbolTable
 70
6
  0
LTYPE
  5
14
100
AcDbSymbolTableRecord
100
AcDbLinetypeTableRecord
  2
BYBLOCK
 70
0
  3

 72
65
 73
0
 40
0.0
  0
LTYPE
  5
15
100
AcDbSymbolTableRecord
100
AcDbLinetypeTableRecord
  2
BYLAYER
 70
0
  3

 72
65
 73
0
 40
0.0
  0
LTYPE
  5
16
100
AcDbSymbolTableRecord
100
AcDbLinetypeTableRecord
  2
CONTINUOUS
 70
64
  3
Solid line
 72
65
 73
0
 40
0.0
  0
LTYPE
  5
1F5
100
AcDbSymbolTableRecord
100
AcDbLinetypeTableRecord
  2
CENTER
 70
64
  3
____ _ ____ _ ____ _ ____ _ ____ _ ____ _ ____
 72
65
 73
4
 40
0.6
 49
0.375
 74
0
 49
-0.075
 74
0
 49
0.075
 74
0
 49
-0.075
 74
0
  0
LTYPE
  5
1F6
100
AcDbSymbolTableRecord
100
AcDbLinetypeTableRecord
  2
HIDDEN
 70
64
  3
- - - - - - - - - - - - - - - - - - - -
 72
65
 73
2
 40
0.2
 49
0.1
 74
0
 49
-0.1
 74
0
  0
LTYPE
  5
1F7
100
AcDbSymbolTableRecord
100
AcDbLinetypeTableRecord
  2
PHANTOM
 70
64
  3
_____ _ _ _____ _ _ _____ _ _ _____
 72
65
 73
6
 40
0.8
 49
0.45
 74
0
 49
-0.05
 74
0
 49
0.1
 74
0
 49
-0.05
 74
0
 49
0.1
 74
0
 49
-0.05
 74
0
  0
LTYPE
  5
1F8
100
AcDbSymbolTableRecord
100
AcDbLinetypeTableRecord
  2
DOT
 70
64
  3
. . . . . . . . . . . . . . . . . . . .
 72
65
 73
2
 40
0.2
 49
0.1
 74
0
 49
-0.1
 74
0
  0
LTYPE
  5
1F9
100
AcDbSymbolTableRecord
100
AcDbLinetypeTableRecord
  2
DASHED
 70
64
  3
- - - - - - - - - - - - - - - - - - - -
 72
65
 73
2
 40
0.2
 49
0.1
 74
0
 49
-0.1
 74
0
  0
ENDTAB
  0
TABLE
  2
LAYER
  5
2
100
AcDbSymbolTable
 70
36
  0
LAYER
  5
10
100
AcDbSymbolTableRecord
100
AcDbLayerTableRecord
  2
0
 70
0
 62
7
  6
CONTINUOUS
370
-3
390
F
  0
LAYER
  5
1FA
100
AcDbSymbolTableRecord
100
AcDbLayerTableRecord
  2
DEFAULT_1
 70
0
 62
7
  6
CENTER
370
-3
390
F
  0
LAYER
  5
1FB
100
AcDbSymbolTableRecord
100
AcDbLayerTableRecord
  2
DEFAULT_2
 70
0
 62
8
  6
HIDDEN
370
-3
390
F
  0
LAYER
  5
1FC
100
AcDbSymbolTableRecord
100
AcDbLayerTableRecord
  2
DEFAULT_3
 70
0
 62
7
  6
PHANTOM
370
-3
390
F
  0
LAYER
  5
1FD
100
AcDbSymbolTableRecord
100
AcDbLayerTableRecord
  2
AUSFORMSCHRAEGEN
 70
0
 62
7
  6
CONTINUOUS
370
-3
390
F
  0
LAYER
  5
1FE
100
AcDbSymbolTableRecord
100
AcDbLayerTableRecord
  2
BEZUGSACHSEN
 70
0
 62
7
  6
CONTINUOUS
370
-3
390
F
  0
LAYER
  5
1FF
100
AcDbSymbolTableRecord
100
AcDbLayerTableRecord
  2
BEZUGSEBENEN
 70
0
 62
7
  6
CONTINUOUS
370
-3
390
F
  0
LAYER
  5
200
100
AcDbSymbolTableRecord
100
AcDbLayerTableRecord
  2
BG_STARTBEZUEGE
 70
0
 62
7
  6
CONTINUOUS
370
-3
390
F
  0
LAYER
  5
201
100
AcDbSymbolTableRecord
100
AcDbLayerTableRecord
  2
FASEN
 70
0
 62
7
  6
CONTINUOUS
370
-3
390
F
  0
LAYER
  5
202
100
AcDbSymbolTableRecord
100
AcDbLayerTableRecord
  2
FLAECHEN
 70
0
 62
7
  6
CONTINUOUS
370
-3
390
F
  0
LAYER
  5
203
100
AcDbSymbolTableRecord
100
AcDbLayerTableRecord
  2
HILFEN
 70
0
 62
7
  6
CONTINUOUS
370
-3
390
F
  0
LAYER
  5
204
100
AcDbSymbolTableRecord
100
AcDbLayerTableRecord
  2
KONSTRUKTIONSELEMENTE
 70
0
 62
7
  6
CONTINUOUS
370
-3
390
F
  0
LAYER
  5
205
100
AcDbSymbolTableRecord
100
AcDbLayerTableRecord
  2
PLATZIERUNG
 70
0
 62
7
  6
CONTINUOUS
370
-3
390
F
  0
LAYER
  5
206
100
AcDbSymbolTableRecord
100
AcDbLayerTableRecord
  2
PLAZIERUNG
 70
0
 62
7
  6
CONTINUOUS
370
-3
390
F
  0
LAYER
  5
207
100
AcDbSymbolTableRecord
100
AcDbLayerTableRecord
  2
RUNDUNGEN
 70
0
 62
7
  6
CONTINUOUS
370
-3
390
F
  0
LAYER
  5
208
100
AcDbSymbolTableRecord
100
AcDbLayerTableRecord
  2
TEIL_STARTBEZUEGE
 70
0
 62
7
  6
CONTINUOUS
370
-3
390
F
  0
LAYER
  5
209
100
AcDbSymbolTableRecord
100
AcDbLayerTableRecord
  2
T_STARTBEZUEGE
 70
0
 62
7
  6
CONTINUOUS
370
-3
390
F
  0
ENDTAB
  0
TABLE
  2
STYLE
  5
3
100
AcDbSymbolTable
 70
1
  0
STYLE
  5
11
100
AcDbSymbolTableRecord
100
AcDbTextStyleTableRecord
  2
STANDARD
 70
0
 40
0.0
 41
0.7
 50
0.0
 71
0
 42
0.2
  3
txt
  4

  0
STYLE
  5
20A
100
AcDbSymbolTableRecord
100
AcDbTextStyleTableRecord
  2
TEXTSTYLE_1
 70
0
 40
0.0
 41
0.8
 50
0.0
 71
0
 42
0.2
  3
gdt
  4

  0
ENDTAB
  0
TABLE
  2
VIEW
  5
6
100
AcDbSymbolTable
 70
0
  0
ENDTAB
  0
TABLE
  2
UCS
  5
7
100
AcDbSymbolTable
 70
0
  0
ENDTAB
  0
TABLE
  2
APPID
  5
9
100
AcDbSymbolTable
 70
1
  0
APPID
  5
20B
100
AcDbSymbolTableRecord
100
AcDbRegAppTableRecord
  2
ACAD
 70
0
  0
ENDTAB
  0
TABLE
  2
BLOCK_RECORD
  5
1
100
AcDbSymbolTable
 70
0
  0
BLOCK_RECORD
  5
20C
100
AcDbSymbolTableRecord
100
AcDbBlockTableRecord
  2
*Model_Space
  0
BLOCK_RECORD
  5
20D
100
AcDbSymbolTableRecord
100
AcDbBlockTableRecord
  2
*Paper_Space
  0
ENDTAB
  0
TABLE
  2
DIMSTYLE
  5
A
100
AcDbSymbolTable
 70
1
100
AcDbDimStyleTable
 71
0
  0
DIMSTYLE
105
20E
100
AcDbSymbolTableRecord
100
AcDbDimStyleTableRecord
  2
STANDARD
 70
0
  3

  4

 40
1.0
 41
3.5
 42
0.0625
 43
0.38
 44
0.18
 45
0.0
 46
0.0
 47
0.005
 48
0.005
140
3.5
141
0.09
142
0.0
143
25.4
144
1.0
145
0.0
146
1.0
147
0.09
 71
1.0
 72
0.0
 73
0
 74
0
 75
0
 76
0
 77
1
 78
8
170
0
171
2
172
0
173
0
174
0
175
0
176
0
177
0
178
5
270
2
271
3
272
3
273
2
274
2
275
0
280
0
281
0
282
0
283
1
284
8
285
0
286
0
287
3
288
0
340
11
  0
ENDTAB
  0
ENDSEC
  0
SECTION
  2
BLOCKS
  0
BLOCK
  5
20
100
AcDbEntity
  8
0
100
AcDbBlockBegin
  2
*Model_Space
 70
0
 10
0.0
 20
0.0
 30
0.0
  3
*Model_Space
  1

  0
ENDBLK
  5
21
100
AcDbEntity
  8
0
100
AcDbBlockEnd
  0
BLOCK
  5
1C
100
AcDbEntity
  8
0
100
AcDbBlockBegin
  2
*Paper_Space
 70
0
 10
0.0
 20
0.0
 30
0.0
  3
*Paper_Space
  1

  0
ENDBLK
  5
1D
100
AcDbEntity
  8
0
100
AcDbBlockEnd
  0
ENDSEC
  0
SECTION
  2
ENTITIES
  0
MTEXT
  5
20F
100
AcDbEntity
  8
0
100
AcDbMText
 62
5
  6
CONTINUOUS
  7
STANDARD
 71
1
 72
1
 10
552.0201194702
 20
249.7621104259
 30
0.0
 11
0.0
 21
1.0
 31
0.0
 44
0.9
  1
RUD VAK-1-16
 40
7.0
 41
65.0
  0
MTEXT
  5
210
100
AcDbEntity
  8
0
100
AcDbMText
 62
5
  6
CONTINUOUS
  7
STANDARD
 71
1
 72
1
 10
111.8946618165
 20
253.6005891247
 30
0.0
 11
0.0
 21
1.0
 31
0.0
 44
0.9
  1
RUD VAK-1-16
 40
7.0
 41
65.0
  0
LINE
  5
211
100
AcDbEntity
  8
0
100
AcDbLine
 62
7
  6
CONTINUOUS
 10
0.0
 20
0.0
 11
0.0
 21
420.0
  0
LINE
  5
212
100
AcDbEntity
  8
0
100
AcDbLine
 62
7
  6
CONTINUOUS
 10
0.0
 20
0.0
 11
594.0
 21
0.0
  0
LINE
  5
213
100
AcDbEntity
  8
0
100
AcDbLine
 62
7
  6
CONTINUOUS
 10
0.0
 20
420.0
 11
594.0
 21
420.0
  0
LINE
  5
214
100
AcDbEntity
  8
0
100
AcDbLine
 62
7
  6
CONTINUOUS
 10
594.0
 20
0.0
 11
594.0
 21
420.0
  0
LINE
  5
215
100
AcDbEntity
  8
KONSTRUKTIONSELEMENTE
100
AcDbLine
 62
7
  6
CONTINUOUS
 10
254.8457145867
 20
9.4507039288
 11
258.3812484926
 21
5.9151700228
  0
LINE
  5
216
100
AcDbEntity
  8
KONSTRUKTIONSELEMENTE
100
AcDbLine
 62
7
  6
CONTINUOUS
 10
281.0086654906
 20
28.5425870208
 11
280.4429800657
 21
29.1082724458
  0
LINE
  5
217
100
AcDbEntity
  8
KONSTRUKTIONSELEMENTE
100
AcDbLine
 62
7
  6
CONTINUOUS
 10
278.0388170096
 20
31.5124355018
 11
277.4731315847
 21
32.0781209267
  0
LINE
  5
218
100
AcDbEntity
  8
KONSTRUKTIONSELEMENTE
100
AcDbLine
 62
7
  6
CONTINUOUS
 10
329.5517841167
 20
77.0857056469
 11
328.9860986917
 21
77.6513910718
  0
LINE
  5
219
100
AcDbEntity
  8
KONSTRUKTIONSELEMENTE
100
AcDbLine
 62
7
  6
CONTINUOUS
 10
326.0162502108
 20
80.6212395528
 11
326.5819356357
 21
80.0555541279
  0
LINE
  5
21A
100
AcDbEntity
  8
KONSTRUKTIONSELEMENTE
100
AcDbLine
 62
7
  6
CONTINUOUS
 10
339.7854416643
 20
91.8287908222
 11
340.7593353861
 21
90.8548971004
  0
LINE
  5
21B
100
AcDbEntity
  8
BEZUGSACHSEN
100
AcDbLine
 62
7
  6
CONTINUOUS
 10
363.7401588894
 20
118.3451482315
 11
367.2756927954
 21
114.8096143256
  0
LINE
  5
21C
100
AcDbEntity
  8
KONSTRUKTIONSELEMENTE
100
AcDbLine
 62
7
  6
CONTINUOUS
 10
360.2046249835
 20
122.9413423092
 11
363.7401588894
 21
119.4058084033
  0
LINE
  5
21D
100
AcDbEntity
  8
KONSTRUKTIONSELEMENTE
100
AcDbLine
 62
7
  6
CONTINUOUS
 10
360.5581783741
 20
123.2948956998
 11
364.09371228
 21
119.7593617939
  0
LINE
  5
21E
100
AcDbEntity
  8
0
100
AcDbLine
 62
7
  6
CONTINUOUS
 10
486.322658272
 20
131.0919599859
 11
497.8374210776
 21
131.0919599859
  0
LINE
  5
21F
100
AcDbEntity
  8
0
100
AcDbLine
 62
7
  6
CONTINUOUS
 10
486.5577558301
 20
158.2031890842
 11
497.6023235195
 21
158.2031890842
  0
LWPOLYLINE
  5
220
100
AcDbEntity
  8
RUNDUNGEN
100
AcDbPolyline
 62
7
  6
CONTINUOUS
 90
3
 70
0
 10
503.8730739327
 20
151.1708538678
 10
503.923111203
 20
151.1516224375
 10
503.9387757584
 20
151.1451708946
  0
LINE
  5
221
100
AcDbEntity
  8
0
100
AcDbLine
 62
7
  6
CONTINUOUS
 10
486.7375620558
 20
188.0958011376
 11
497.4225172938
 21
188.0958011376
  0
LINE
  5
222
100
AcDbEntity
  8
BEZUGSACHSEN
100
AcDbLine
 62
7
  6
CONTINUOUS
 10
501.3413977544
 20
192.6861467277
 11
501.9710250684
 21
192.6861467277
  0
LINE
  5
223
100
AcDbEntity
  8
BEZUGSACHSEN
100
AcDbLine
 62
7
  6
CONTINUOUS
 10
501.3546461079
 20
195.6382841462
 11
501.9813994443
 21
195.6382841462
  0
LINE
  5
224
100
AcDbEntity
  8
BEZUGSACHSEN
100
AcDbLine
 62
7
  6
CONTINUOUS
 10
499.5103104358
 20
197.648492428
 11
500.1395985909
 21
197.648492428
  0
LINE
  5
225
100
AcDbEntity
  8
BEZUGSACHSEN
100
AcDbLine
 62
7
  6
CONTINUOUS
 10
500.3461001246
 20
197.9176118808
 11
500.9345747618
 21
197.9176118808
  0
LINE
  5
226
100
AcDbEntity
  8
BEZUGSACHSEN
100
AcDbLine
 62
7
  6
CONTINUOUS
 10
501.2390168124
 20
197.9312370369
 11
501.8639074025
 21
197.9312370369
  0
LINE
  5
227
100
AcDbEntity
  8
BEZUGSACHSEN
100
AcDbLine
 62
7
  6
CONTINUOUS
 10
501.0768243481
 20
198.115572251
 11
501.7020101309
 21
198.115572251
  0
LINE
  5
228
100
AcDbEntity
  8
BEZUGSACHSEN
100
AcDbLine
 62
7
  6
CONTINUOUS
 10
500.3493692372
 20
198.3088844183
 11
500.8928846143
 21
198.3088844183
  0
LINE
  5
229
100
AcDbEntity
  8
BEZUGSACHSEN
100
AcDbLine
 62
7
  6
CONTINUOUS
 10
501.0033120876
 20
198.4577697549
 11
501.5424950676
 21
198.4577697549
  0
LINE
  5
22A
100
AcDbEntity
  8
BEZUGSACHSEN
100
AcDbLine
 62
7
  6
CONTINUOUS
 10
500.3509780363
 20
198.7105086153
 11
500.8125489402
 21
198.7105086153
  0
LINE
  5
22B
100
AcDbEntity
  8
BEZUGSACHSEN
100
AcDbLine
 62
7
  6
CONTINUOUS
 10
500.8814468005
 20
199.0039134357
 11
501.3457062662
 21
199.0039134357
  0
LINE
  5
22C
100
AcDbEntity
  8
BEZUGSACHSEN
100
AcDbLine
 62
7
  6
CONTINUOUS
 10
501.5345790652
 20
199.0166639674
 11
501.7531201518
 21
199.0166639674
  0
LINE
  5
22D
100
AcDbEntity
  8
BEZUGSACHSEN
100
AcDbLine
 62
7
  6
CONTINUOUS
 10
500.3507702967
 20
199.1224841992
 11
500.6942147488
 21
199.1224841992
  0
LINE
  5
22E
100
AcDbEntity
  8
BEZUGSACHSEN
100
AcDbLine
 62
7
  6
CONTINUOUS
 10
501.4096556599
 20
199.3323893629
 11
501.75282473
 21
199.3323893629
  0
LINE
  5
22F
100
AcDbEntity
  8
BEZUGSACHSEN
100
AcDbLine
 62
7
  6
CONTINUOUS
 10
500.3490107771
 20
199.4392299274
 11
500.577178872
 21
199.4392299274
  0
LINE
  5
230
100
AcDbEntity
  8
BEZUGSACHSEN
100
AcDbLine
 62
7
  6
CONTINUOUS
 10
501.2631823086
 20
199.773129787
 11
501.7115990831
 21
199.773129787
  0
LINE
  5
231
100
AcDbEntity
  8
BEZUGSACHSEN
100
AcDbLine
 62
7
  6
CONTINUOUS
 10
499.526970833
 20
199.9340182417
 11
500.1544380036
 21
199.9340182417
  0
LINE
  5
232
100
AcDbEntity
  8
BEZUGSACHSEN
100
AcDbLine
 62
7
  6
CONTINUOUS
 10
501.1112513696
 20
200.2599538653
 11
501.6306835379
 21
200.2599538653
  0
LINE
  5
233
100
AcDbEntity
  8
BEZUGSACHSEN
100
AcDbLine
 62
7
  6
CONTINUOUS
 10
499.5622771572
 20
200.3045877328
 11
500.1893769775
 21
200.3045877328
  0
LINE
  5
234
100
AcDbEntity
  8
BEZUGSACHSEN
100
AcDbLine
 62
7
  6
CONTINUOUS
 10
499.6745203262
 20
200.3687631785
 11
500.3013191644
 21
200.3687631785
  0
LINE
  5
235
100
AcDbEntity
  8
BEZUGSACHSEN
100
AcDbLine
 62
7
  6
CONTINUOUS
 10
501.6998085167
 20
200.4277629828
 11
501.9612149119
 21
200.4277629828
  0
LINE
  5
236
100
AcDbEntity
  8
BEZUGSACHSEN
100
AcDbLine
 62
7
  6
CONTINUOUS
 10
500.9449327899
 20
200.7928614228
 11
501.511171413
 21
200.7928614228
  0
LINE
  5
237
100
AcDbEntity
  8
BEZUGSACHSEN
100
AcDbLine
 62
7
  6
CONTINUOUS
 10
500.7642285676
 20
201.3718529987
 11
501.3537537578
 21
201.3718529987
  0
LINE
  5
238
100
AcDbEntity
  8
BEZUGSACHSEN
100
AcDbLine
 62
7
  6
CONTINUOUS
 10
501.4416385819
 20
202.7060582803
 11
501.748958249
 21
202.7060582803
  0
LINE
  5
239
100
AcDbEntity
  8
BEZUGSACHSEN
100
AcDbLine
 62
7
  6
CONTINUOUS
 10
499.5121436657
 20
202.8793798454
 11
500.1373423149
 21
202.8793798454
  0
LINE
  5
23A
100
AcDbEntity
  8
BEZUGSACHSEN
100
AcDbLine
 62
7
  6
CONTINUOUS
 10
501.9496052818
 20
202.9013389376
 11
501.9728887378
 21
202.9013389376
  0
LINE
  5
23B
100
AcDbEntity
  8
BEZUGSACHSEN
100
AcDbLine
 62
7
  6
CONTINUOUS
 10
501.3364846354
 20
203.085773919
 11
501.7068664494
 21
203.085773919
  0
LINE
  5
23C
100
AcDbEntity
  8
BEZUGSACHSEN
100
AcDbLine
 62
7
  6
CONTINUOUS
 10
501.8862701964
 20
203.233697767
 11
501.9608910724
 21
203.233697767
  0
LINE
  5
23D
100
AcDbEntity
  8
BEZUGSACHSEN
100
AcDbLine
 62
7
  6
CONTINUOUS
 10
499.5210670173
 20
203.3529679387
 11
500.1458741912
 21
203.3529679387
  0
LINE
  5
23E
100
AcDbEntity
  8
BEZUGSACHSEN
100
AcDbLine
 62
7
  6
CONTINUOUS
 10
501.2088646033
 20
203.5466005913
 11
501.6253212872
 21
203.5466005913
  0
LINE
  5
23F
100
AcDbEntity
  8
BEZUGSACHSEN
100
AcDbLine
 62
7
  6
CONTINUOUS
 10
501.0587815101
 20
204.0885380999
 11
501.5054173618
 21
204.0885380999
  0
LINE
  5
240
100
AcDbEntity
  8
BEZUGSACHSEN
100
AcDbLine
 62
7
  6
CONTINUOUS
 10
500.8862212754
 20
204.71158586
 11
501.347840576
 21
204.71158586
  0
LINE
  5
241
100
AcDbEntity
  8
KONSTRUKTIONSELEMENTE
100
AcDbLine
 62
7
  6
CONTINUOUS
 10
417.4802742596
 20
180.2169915853
 11
421.0158081655
 21
176.6814576794
  0
LINE
  5
242
100
AcDbEntity
  8
KONSTRUKTIONSELEMENTE
100
AcDbLine
 62
7
  6
CONTINUOUS
 10
417.8338276502
 20
180.5705449759
 11
421.3693615561
 21
177.03501107
  0
LINE
  5
243
100
AcDbEntity
  8
0
100
AcDbLine
 62
7
  6
CONTINUOUS
 10
473.0463113247
 20
96.1508624765
 11
470.5043787814
 21
100.1831930751
  0
LINE
  5
244
100
AcDbEntity
  8
0
100
AcDbLine
 62
7
  6
CONTINUOUS
 10
416.0800396748
 20
243.1494951109
 11
416.0800396748
 21
323.1494951109
  0
LINE
  5
245
100
AcDbEntity
  8
BEZUGSACHSEN
100
AcDbLine
 62
7
  6
CONTINUOUS
 10
499.5210670139
 20
205.2473194084
 11
500.1443936188
 21
205.2473194084
  0
LINE
  5
246
100
AcDbEntity
  8
BEZUGSACHSEN
100
AcDbLine
 62
7
  6
CONTINUOUS
 10
499.5121436657
 20
205.7209072758
 11
500.1351234845
 21
205.7209072758
  0
LINE
  5
247
100
AcDbEntity
  8
BEZUGSACHSEN
100
AcDbLine
 62
7
  6
CONTINUOUS
 10
500.3792506445
 20
206.8240621424
 11
500.7628837055
 21
206.8240621424
  0
LINE
  5
248
100
AcDbEntity
  8
BEZUGSACHSEN
100
AcDbLine
 62
7
  6
CONTINUOUS
 10
499.5083784886
 20
207.0468555054
 11
500.1303333272
 21
207.0468555054
  0
LINE
  5
249
100
AcDbEntity
  8
BEZUGSACHSEN
100
AcDbLine
 62
7
  6
CONTINUOUS
 10
500.3833246945
 20
207.3276682944
 11
500.6083303069
 21
207.3276682944
  0
LINE
  5
24A
100
AcDbEntity
  8
BEZUGSACHSEN
100
AcDbLine
 62
7
  6
CONTINUOUS
 10
500.3824612641
 20
207.6307216144
 11
500.4938638184
 21
207.6307216144
  0
LINE
  5
24B
100
AcDbEntity
  8
BEZUGSACHSEN
100
AcDbLine
 62
7
  6
CONTINUOUS
 10
499.5274174849
 20
208.4801602703
 11
500.1481998934
 21
208.4801602703
  0
LINE
  5
24C
100
AcDbEntity
  8
BEZUGSACHSEN
100
AcDbLine
 62
7
  6
CONTINUOUS
 10
499.5632235446
 20
208.6379339184
 11
500.1837800954
 21
208.6379339184
  0
LINE
  5
24D
100
AcDbEntity
  8
0
100
AcDbLine
 62
7
  6
CONTINUOUS
 10
486.7375620558
 20
212.2794322951
 11
497.4225172938
 21
212.2794322951
  0
LINE
  5
24E
100
AcDbEntity
  8
0
100
AcDbLine
 62
7
  6
CONTINUOUS
 10
442.0800396748
 20
243.1494951109
 11
442.0800396748
 21
323.1494951109
  0
LINE
  5
24F
100
AcDbEntity
  8
KONSTRUKTIONSELEMENTE
100
AcDbLine
 62
7
  6
CONTINUOUS
 10
357.3761978588
 20
120.1129151845
 11
360.2046249835
 21
122.9413423092
  0
LINE
  5
250
100
AcDbEntity
  8
KONSTRUKTIONSELEMENTE
100
AcDbLine
 62
7
  6
CONTINUOUS
 10
360.5581783741
 20
123.2948956998
 11
363.3866054988
 21
126.1233228246
  0
LINE
  5
251
100
AcDbEntity
  8
KONSTRUKTIONSELEMENTE
100
AcDbLine
 62
7
  6
CONTINUOUS
 10
414.6518471349
 20
177.3885644606
 11
417.4802742596
 21
180.2169915853
  0
LINE
  5
252
100
AcDbEntity
  8
KONSTRUKTIONSELEMENTE
100
AcDbLine
 62
7
  6
CONTINUOUS
 10
417.8338276502
 20
180.5705449759
 11
420.662254775
 21
183.3989721007
  0
LINE
  5
253
100
AcDbEntity
  8
KONSTRUKTIONSELEMENTE
100
AcDbLine
 62
7
  6
CONTINUOUS
 10
383.8927021532
 20
146.2758660884
 11
394.499303871
 21
156.8824678062
  0
LINE
  5
254
100
AcDbEntity
  8
KONSTRUKTIONSELEMENTE
100
AcDbLine
 62
7
  6
CONTINUOUS
 10
456.7247006155
 20
212.7439035199
 11
423.5371464281
 21
179.5563493325
  0
LINE
  5
255
100
AcDbEntity
  8
KONSTRUKTIONSELEMENTE
100
AcDbLine
 62
7
  6
CONTINUOUS
 10
387.0746826686
 20
143.093885573
 11
397.6812843864
 21
153.7004872908
  0
LINE
  5
256
100
AcDbEntity
  8
KONSTRUKTIONSELEMENTE
100
AcDbLine
 62
7
  6
CONTINUOUS
 10
360.9117317647
 20
116.5773812785
 11
363.7401588894
 21
119.4058084033
  0
LINE
  5
257
100
AcDbEntity
  8
KONSTRUKTIONSELEMENTE
100
AcDbLine
 62
7
  6
CONTINUOUS
 10
364.09371228
 20
119.7593617939
 11
366.9221394048
 21
122.5877889186
  0
LINE
  5
258
100
AcDbEntity
  8
KONSTRUKTIONSELEMENTE
100
AcDbLine
 62
7
  6
CONTINUOUS
 10
418.1873810408
 20
173.8530305546
 11
421.0158081655
 21
176.6814576794
  0
LINE
  5
259
100
AcDbEntity
  8
KONSTRUKTIONSELEMENTE
100
AcDbLine
 62
7
  6
CONTINUOUS
 10
421.3693615561
 20
177.03501107
 11
422.7545728277
 21
178.4202223416
  0
LINE
  5
25A
100
AcDbEntity
  8
BEZUGSACHSEN
100
AcDbLine
 62
7
  6
CONTINUOUS
 10
363.7401588894
 20
118.3451482315
 11
362.8789541095
 21
117.4839434515
  0
LINE
  5
25B
100
AcDbEntity
  8
KONSTRUKTIONSELEMENTE
100
AcDbLine
 62
7
  6
CONTINUOUS
 10
254.8457145867
 20
9.4507039288
 11
362.8789541095
 21
117.4839434515
  0
LINE
  5
25C
100
AcDbEntity
  8
KONSTRUKTIONSELEMENTE
100
AcDbLine
 62
7
  6
CONTINUOUS
 10
418.1873810408
 20
172.4388169923
 11
399.4786960656
 21
153.7301320171
  0
LINE
  5
25D
100
AcDbEntity
  8
KONSTRUKTIONSELEMENTE
100
AcDbLine
 62
7
  6
CONTINUOUS
 10
387.0746826686
 20
141.3261186201
 11
368.3659976934
 21
122.6174336449
  0
LINE
  5
25E
100
AcDbEntity
  8
KONSTRUKTIONSELEMENTE
100
AcDbLine
 62
7
  6
CONTINUOUS
 10
278.0388170096
 20
31.5124355018
 11
255.4114000117
 21
8.8850185038
  0
LINE
  5
25F
100
AcDbEntity
  8
KONSTRUKTIONSELEMENTE
100
AcDbLine
 62
7
  6
CONTINUOUS
 10
326.5819356357
 20
80.0555541279
 11
333.7039669783
 21
87.1775854705
  0
LINE
  5
260
100
AcDbEntity
  8
KONSTRUKTIONSELEMENTE
100
AcDbLine
 62
7
  6
CONTINUOUS
 10
280.4429800657
 20
29.1082724458
 11
257.8155630677
 21
6.4808554478
  0
LINE
  5
261
100
AcDbEntity
  8
KONSTRUKTIONSELEMENTE
100
AcDbLine
 62
7
  6
CONTINUOUS
 10
328.9860986917
 20
77.6513910718
 11
336.1081300343
 21
84.7734224144
  0
LINE
  5
262
100
AcDbEntity
  8
KONSTRUKTIONSELEMENTE
100
AcDbLine
 62
7
  6
CONTINUOUS
 10
421.3693615561
 20
169.2568364769
 11
402.660676581
 21
150.5481515018
  0
LINE
  5
263
100
AcDbEntity
  8
KONSTRUKTIONSELEMENTE
100
AcDbLine
 62
7
  6
CONTINUOUS
 10
390.2566631839
 20
138.1441381047
 11
371.5479782087
 21
119.4354531295
  0
LINE
  5
264
100
AcDbEntity
  8
BEZUGSACHSEN
100
AcDbLine
 62
7
  6
CONTINUOUS
 10
367.2756927954
 20
114.8096143256
 11
366.4144880154
 21
113.9484095456
  0
LINE
  5
265
100
AcDbEntity
  8
KONSTRUKTIONSELEMENTE
100
AcDbLine
 62
7
  6
CONTINUOUS
 10
258.3812484926
 20
5.9151700228
 11
366.4144880154
 21
113.9484095456
  0
LINE
  5
266
100
AcDbEntity
  8
KONSTRUKTIONSELEMENTE
100
AcDbLine
 62
7
  6
CONTINUOUS
 10
427.3507669054
 20
173.8240282639
 11
422.7835751185
 21
169.2568364769
  0
LINE
  5
267
100
AcDbEntity
  8
KONSTRUKTIONSELEMENTE
100
AcDbLine
 62
7
  6
CONTINUOUS
 10
371.5183334825
 20
117.9915948409
 11
365.5079258424
 21
111.9811872008
  0
LINE
  5
268
100
AcDbEntity
  8
KONSTRUKTIONSELEMENTE
100
AcDbLine
 62
7
  6
CONTINUOUS
 10
461.6744480838
 20
207.7941560516
 11
428.4868938964
 21
174.6066018642
  0
LINE
  5
269
100
AcDbEntity
  8
KONSTRUKTIONSELEMENTE
100
AcDbLine
 62
7
  6
CONTINUOUS
 10
402.6310318547
 20
148.7507398225
 11
392.0244301369
 21
138.1441381047
  0
LINE
  5
26A
100
AcDbEntity
  8
0
100
AcDbLine
 62
7
  6
CONTINUOUS
 10
497.4225172938
 20
221.5167574259
 11
486.7375620558
 21
221.5167574259
  0
LINE
  5
26B
100
AcDbEntity
  8
KONSTRUKTIONSELEMENTE
100
AcDbLine
 62
7
  6
CONTINUOUS
 10
405.81301237
 20
145.5687593072
 11
395.2064106522
 21
134.9621575894
  0
LINE
  5
26C
100
AcDbEntity
  8
KONSTRUKTIONSELEMENTE
100
AcDbLine
 62
7
  6
CONTINUOUS
 10
432.3295166645
 20
171.7317102111
 11
426.3191090244
 21
165.721302571
  0
LINE
  5
26D
100
AcDbEntity
  8
KONSTRUKTIONSELEMENTE
100
AcDbLine
 62
7
  6
CONTINUOUS
 10
375.0538673884
 20
114.456060935
 11
369.0434597483
 21
108.4456532949
  0
LINE
  5
26E
100
AcDbEntity
  8
RUNDUNGEN
100
AcDbLine
 62
7
  6
CONTINUOUS
 10
513.2402937126
 20
122.9700031866
 11
503.3272552393
 21
140.1398894799
  0
LINE
  5
26F
100
AcDbEntity
  8
0
100
AcDbLine
 62
7
  6
CONTINUOUS
 10
469.5800396748
 20
103.3828284443
 11
469.5800396748
 21
117.9700031866
  0
LINE
  5
270
100
AcDbEntity
  8
0
100
AcDbLine
 62
7
  6
CONTINUOUS
 10
477.0800396748
 20
146.5033250787
 11
477.0800396748
 21
136.319368092
  0
LINE
  5
271
100
AcDbEntity
  8
0
100
AcDbLine
 62
7
  6
CONTINUOUS
 10
482.3093031163
 20
203.4199568044
 11
486.7375620558
 21
221.5167574259
  0
LINE
  5
272
100
AcDbEntity
  8
RUNDUNGEN
100
AcDbLine
 62
7
  6
CONTINUOUS
 10
497.9813857525
 20
129.7318314598
 11
497.8374210776
 21
131.0919599859
  0
LINE
  5
273
100
AcDbEntity
  8
0
100
AcDbLine
 62
7
  6
CONTINUOUS
 10
486.2689170706
 20
166.6846167146
 11
486.5577558301
 21
158.2031890842
  0
LINE
  5
274
100
AcDbEntity
  8
0
100
AcDbLine
 62
7
  6
CONTINUOUS
 10
497.6023235195
 20
158.2031890842
 11
497.8374210776
 21
131.0919599859
  0
LINE
  5
275
100
AcDbEntity
  8
0
100
AcDbLine
 62
7
  6
CONTINUOUS
 10
482.0800396748
 20
201.5184696658
 11
482.0800396748
 21
153.4314043175
  0
LINE
  5
276
100
AcDbEntity
  8
0
100
AcDbLine
 62
7
  6
CONTINUOUS
 10
486.1363427309
 20
128.9315987468
 11
486.1363427309
 21
128.7760610182
  0
LINE
  5
277
100
AcDbEntity
  8
0
100
AcDbLine
 62
7
  6
CONTINUOUS
 10
486.5577558301
 20
158.2031890842
 11
486.322658272
 21
131.0919599859
  0
LINE
  5
278
100
AcDbEntity
  8
0
100
AcDbLine
 62
7
  6
CONTINUOUS
 10
486.1786935971
 20
129.7318314598
 11
486.322658272
 21
131.0919599859
  0
LINE
  5
279
100
AcDbEntity
  8
RUNDUNGEN
100
AcDbLine
 62
7
  6
CONTINUOUS
 10
498.0237366187
 20
128.9315987468
 11
498.0237366187
 21
128.7760610182
  0
LINE
  5
27A
100
AcDbEntity
  8
BEZUGSACHSEN
100
AcDbLine
 62
7
  6
CONTINUOUS
 10
502.0800396748
 20
201.5184696658
 11
502.0800396748
 21
169.2012969511
  0
LINE
  5
27B
100
AcDbEntity
  8
KONSTRUKTIONSELEMENTE
100
AcDbLine
 62
7
  6
CONTINUOUS
 10
502.0800396748
 20
169.2012969511
 11
502.0800396748
 21
153.4313920204
  0
LINE
  5
27C
100
AcDbEntity
  8
RUNDUNGEN
100
AcDbLine
 62
7
  6
CONTINUOUS
 10
502.0800396748
 20
169.2012969245
 11
502.0800396748
 21
153.4314043175
  0
LINE
  5
27D
100
AcDbEntity
  8
KONSTRUKTIONSELEMENTE
100
AcDbLine
 62
7
  6
CONTINUOUS
 10
507.0800396748
 20
136.319368092
 11
507.0800396748
 21
146.5033250787
  0
LINE
  5
27E
100
AcDbEntity
  8
0
100
AcDbLine
 62
7
  6
CONTINUOUS
 10
497.891162279
 20
166.6846167146
 11
497.6023235195
 21
158.2031890842
  0
LINE
  5
27F
100
AcDbEntity
  8
0
100
AcDbLine
 62
7
  6
CONTINUOUS
 10
470.9197856369
 20
122.9700031866
 11
480.8328241103
 21
140.1398894799
  0
LINE
  5
280
100
AcDbEntity
  8
KONSTRUKTIONSELEMENTE
100
AcDbLine
 62
7
  6
CONTINUOUS
 10
497.4225172938
 20
221.5167574259
 11
501.8507762333
 21
203.4199568044
  0
LINE
  5
281
100
AcDbEntity
  8
RUNDUNGEN
100
AcDbLine
 62
7
  6
CONTINUOUS
 10
514.5800396748
 20
103.3828284443
 11
514.5800396748
 21
117.9700031866
  0
LINE
  5
282
100
AcDbEntity
  8
0
100
AcDbLine
 62
7
  6
CONTINUOUS
 10
542.0800396748
 20
323.1494951109
 11
542.0800396748
 21
243.1494951109
  0
LINE
  5
283
100
AcDbEntity
  8
RUNDUNGEN
100
AcDbLine
 62
7
  6
CONTINUOUS
 10
511.1137680248
 20
96.1508624765
 11
513.6557005681
 21
100.1831930751
  0
LINE
  5
284
100
AcDbEntity
  8
0
100
AcDbLine
 62
7
  6
CONTINUOUS
 10
568.0800396748
 20
323.1494951109
 11
568.0800396748
 21
243.1494951109
  0
LINE
  5
285
100
AcDbEntity
  8
KONSTRUKTIONSELEMENTE
100
AcDbLine
 62
7
  6
CONTINUOUS
 10
108.1319264283
 20
5.9151700228
 11
122.6919264283
 21
5.9151700228
  0
LINE
  5
286
100
AcDbEntity
  8
KONSTRUKTIONSELEMENTE
100
AcDbLine
 62
7
  6
CONTINUOUS
 10
107.3319264283
 20
6.4808554478
 11
108.1319264283
 21
6.4808554478
  0
LINE
  5
287
100
AcDbEntity
  8
KONSTRUKTIONSELEMENTE
100
AcDbLine
 62
7
  6
CONTINUOUS
 10
122.6919264283
 20
6.4808554478
 11
123.4919264283
 21
6.4808554478
  0
LINE
  5
288
100
AcDbEntity
  8
KONSTRUKTIONSELEMENTE
100
AcDbLine
 62
7
  6
CONTINUOUS
 10
101.7319264283
 20
28.5425870208
 11
101.2817476326
 21
28.5425870208
  0
LINE
  5
289
100
AcDbEntity
  8
KONSTRUKTIONSELEMENTE
100
AcDbLine
 62
7
  6
CONTINUOUS
 10
129.0919264283
 20
28.5425870208
 11
149.4698078679
 21
28.5425870208
  0
LINE
  5
28A
100
AcDbEntity
  8
KONSTRUKTIONSELEMENTE
100
AcDbLine
 62
7
  6
CONTINUOUS
 10
155.2515716303
 20
33.0469686957
 11
146.2899401649
 21
35.6717697814
  0
LINE
  5
28B
100
AcDbEntity
  8
KONSTRUKTIONSELEMENTE
100
AcDbLine
 62
7
  6
CONTINUOUS
 10
155.2515716303
 20
36.5825026017
 11
146.2899401649
 21
39.2073036874
  0
LINE
  5
28C
100
AcDbEntity
  8
KONSTRUKTIONSELEMENTE
100
AcDbLine
 62
7
  6
CONTINUOUS
 10
141.9101155379
 20
85.6494951109
 11
137.7866804454
 21
85.6494951109
  0
LINE
  5
28D
100
AcDbEntity
  8
KONSTRUKTIONSELEMENTE
100
AcDbLine
 62
7
  6
CONTINUOUS
 10
93.0371724112
 20
85.6494951109
 11
88.9137373187
 21
85.6494951109
  0
LINE
  5
28E
100
AcDbEntity
  8
KONSTRUKTIONSELEMENTE
100
AcDbLine
 62
7
  6
CONTINUOUS
 10
59.4733938872
 20
93.2348238928
 11
61.0041276167
 21
90.621697963
  0
LINE
  5
28F
100
AcDbEntity
  8
KONSTRUKTIONSELEMENTE
100
AcDbLine
 62
7
  6
CONTINUOUS
 10
68.9333283353
 20
77.0857056469
 11
95.3236217098
 21
32.0346568697
  0
LINE
  5
290
100
AcDbEntity
  8
KONSTRUKTIONSELEMENTE
100
AcDbLine
 62
7
  6
CONTINUOUS
 10
68.9333283353
 20
77.6513910718
 11
68.6271815894
 21
78.1740162578
  0
LINE
  5
291
100
AcDbEntity
  8
0
100
AcDbLine
 62
7
  6
CONTINUOUS
 10
124.2119264283
 20
98.6494951109
 11
106.6119264283
 21
98.6494951109
  0
LINE
  5
292
100
AcDbEntity
  8
0
100
AcDbLine
 62
7
  6
CONTINUOUS
 10
87.3816484325
 20
86.3639198916
 11
79.3532165922
 21
95.9318323802
  0
LINE
  5
293
100
AcDbEntity
  8
RUNDUNGEN
100
AcDbLine
 62
7
  6
CONTINUOUS
 10
79.3532165922
 20
95.9318323802
 11
78.3798375421
 21
97.0918603601
  0
LINE
  5
294
100
AcDbEntity
  8
KONSTRUKTIONSELEMENTE
100
AcDbLine
 62
7
  6
CONTINUOUS
 10
74.2817296461
 20
91.606729533
 11
79.8405461138
 21
82.1172362457
  0
LINE
  5
295
100
AcDbEntity
  8
0
100
AcDbLine
 62
7
  6
CONTINUOUS
 10
124.2119264283
 20
117.6494951109
 11
106.6119264283
 21
117.6494951109
  0
LINE
  5
296
100
AcDbEntity
  8
KONSTRUKTIONSELEMENTE
100
AcDbLine
 62
7
  6
CONTINUOUS
 10
177.5934449324
 20
89.1101950449
 11
186.5550763977
 21
86.4853939592
  0
LINE
  5
297
100
AcDbEntity
  8
KONSTRUKTIONSELEMENTE
100
AcDbLine
 62
7
  6
CONTINUOUS
 10
152.9119264283
 20
104.7582799568
 11
184.1126615197
 21
95.6197962265
  0
LINE
  5
298
100
AcDbEntity
  8
KONSTRUKTIONSELEMENTE
100
AcDbLine
 62
7
  6
CONTINUOUS
 10
184.1126615197
 20
99.1553301324
 11
152.9119264283
 21
108.2938138627
  0
LINE
  5
299
100
AcDbEntity
  8
RUNDUNGEN
100
AcDbLine
 62
7
  6
CONTINUOUS
 10
77.5100026397
 20
125.3456475336
 11
74.1923675985
 21
131.0919599859
  0
LINE
  5
29A
100
AcDbEntity
  8
KONSTRUKTIONSELEMENTE
100
AcDbLine
 62
7
  6
CONTINUOUS
 10
58.8644301473
 20
95.3996082934
 11
58.8644301473
 21
98.9351421993
  0
LINE
  5
29B
100
AcDbEntity
  8
KONSTRUKTIONSELEMENTE
100
AcDbLine
 62
7
  6
CONTINUOUS
 10
68.4444924674
 20
78.823451578
 11
68.4444924674
 21
81.227614634
  0
LINE
  5
29C
100
AcDbEntity
  8
KONSTRUKTIONSELEMENTE
100
AcDbLine
 62
7
  6
CONTINUOUS
 10
68.9333283353
 20
77.0857056469
 11
68.9333283353
 21
77.6513910718
  0
LINE
  5
29D
100
AcDbEntity
  8
0
100
AcDbLine
 62
7
  6
CONTINUOUS
 10
69.4119264283
 20
188.0958011376
 11
69.4119264283
 21
158.2031890842
  0
LINE
  5
29E
100
AcDbEntity
  8
0
100
AcDbLine
 62
7
  6
CONTINUOUS
 10
69.4119264283
 20
158.2031890842
 11
74.1923675985
 21
131.0919599859
  0
LINE
  5
29F
100
AcDbEntity
  8
RUNDUNGEN
100
AcDbLine
 62
7
  6
CONTINUOUS
 10
77.9119264283
 20
98.3774355795
 11
77.9119264283
 21
139.507090946
  0
LINE
  5
2A0
100
AcDbEntity
  8
KONSTRUKTIONSELEMENTE
100
AcDbLine
 62
7
  6
CONTINUOUS
 10
91.7598144719
 20
117.9700031866
 11
91.7598144719
 21
107.5718563609
  0
LINE
  5
2A1
100
AcDbEntity
  8
BEZUGSACHSEN
100
AcDbLine
 62
7
  6
CONTINUOUS
 10
96.1586110513
 20
199.6677260347
 11
96.1599161079
 21
200.4835115881
  0
LINE
  5
2A2
100
AcDbEntity
  8
BEZUGSACHSEN
100
AcDbLine
 62
7
  6
CONTINUOUS
 10
89.3096905988
 20
197.8762057881
 11
89.4065163153
 21
198.4682902879
  0
LINE
  5
2A3
100
AcDbEntity
  8
BEZUGSACHSEN
100
AcDbLine
 62
7
  6
CONTINUOUS
 10
95.2644247353
 20
199.773129787
 11
95.364576158
 21
200.2599538653
  0
LINE
  5
2A4
100
AcDbEntity
  8
BEZUGSACHSEN
100
AcDbLine
 62
7
  6
CONTINUOUS
 10
88.4949555275
 20
197.9176118808
 11
88.6274006345
 21
198.3088844183
  0
LINE
  5
2A5
100
AcDbEntity
  8
0
100
AcDbLine
 62
7
  6
CONTINUOUS
 10
86.9823629458
 20
212.2794322951
 11
69.4119264283
 21
188.0958011376
  0
LINE
  5
2A6
100
AcDbEntity
  8
BEZUGSACHSEN
100
AcDbLine
 62
7
  6
CONTINUOUS
 10
84.0011196738
 20
197.648492428
 11
86.0178926823
 21
199.9340182417
  0
LINE
  5
2A7
100
AcDbEntity
  8
BEZUGSACHSEN
100
AcDbLine
 62
7
  6
CONTINUOUS
 10
85.1035705213
 20
197.6919648273
 11
86.7001824062
 21
199.501339339
  0
LINE
  5
2A8
100
AcDbEntity
  8
BEZUGSACHSEN
100
AcDbLine
 62
7
  6
CONTINUOUS
 10
89.6247417406
 20
192.6861467277
 11
84.0011196738
 21
197.648492428
  0
LINE
  5
2A9
100
AcDbEntity
  8
BEZUGSACHSEN
100
AcDbLine
 62
7
  6
CONTINUOUS
 10
90.1289349927
 20
193.2575281811
 11
87.616252757
 21
195.4747465042
  0
LINE
  5
2AA
100
AcDbEntity
  8
BEZUGSACHSEN
100
AcDbLine
 62
7
  6
CONTINUOUS
 10
86.8983436426
 20
196.1082373692
 11
85.1035705213
 21
197.6919648273
  0
LINE
  5
2AB
100
AcDbEntity
  8
BEZUGSACHSEN
100
AcDbLine
 62
7
  6
CONTINUOUS
 10
87.9222847728
 20
199.4392299274
 11
88.2812396652
 21
199.1224841992
  0
LINE
  5
2AC
100
AcDbEntity
  8
BEZUGSACHSEN
100
AcDbLine
 62
7
  6
CONTINUOUS
 10
91.9838920435
 20
199.0039134357
 11
88.9095343304
 21
202.8793798454
  0
LINE
  5
2AD
100
AcDbEntity
  8
BEZUGSACHSEN
100
AcDbLine
 62
7
  6
CONTINUOUS
 10
92.5808865766
 20
199.477501529
 11
89.5065288634
 21
203.3529679387
  0
LINE
  5
2AE
100
AcDbEntity
  8
BEZUGSACHSEN
100
AcDbLine
 62
7
  6
CONTINUOUS
 10
88.5561620939
 20
198.7105086153
 11
88.2812396652
 21
199.1224841992
  0
LINE
  5
2AF
100
AcDbEntity
  8
BEZUGSACHSEN
100
AcDbLine
 62
7
  6
CONTINUOUS
 10
89.1800068651
 20
199.1763082579
 11
88.9050844364
 21
199.5882838418
  0
LINE
  5
2B0
100
AcDbEntity
  8
BEZUGSACHSEN
100
AcDbLine
 62
7
  6
CONTINUOUS
 10
95.266055603
 20
200.7928614228
 11
94.9688635701
 21
201.3718529987
  0
LINE
  5
2B1
100
AcDbEntity
  8
BEZUGSACHSEN
100
AcDbLine
 62
7
  6
CONTINUOUS
 10
89.4065163153
 20
198.4682902879
 11
89.1800068651
 21
199.1763082579
  0
LINE
  5
2B2
100
AcDbEntity
  8
BEZUGSACHSEN
100
AcDbLine
 62
7
  6
CONTINUOUS
 10
96.1599161079
 20
200.4835115881
 11
95.9622226674
 21
201.1414342617
  0
LINE
  5
2B3
100
AcDbEntity
  8
BEZUGSACHSEN
100
AcDbLine
 62
7
  6
CONTINUOUS
 10
95.364576158
 20
200.2599538653
 11
95.266055603
 21
200.7928614228
  0
LINE
  5
2B4
100
AcDbEntity
  8
BEZUGSACHSEN
100
AcDbLine
 62
7
  6
CONTINUOUS
 10
88.6274006345
 20
198.3088844183
 11
88.5561620939
 21
198.7105086153
  0
LINE
  5
2B5
100
AcDbEntity
  8
BEZUGSACHSEN
100
AcDbLine
 62
7
  6
CONTINUOUS
 10
100.799109708
 20
203.5466005913
 11
100.7981766564
 21
204.0885380999
  0
LINE
  5
2B6
100
AcDbEntity
  8
0
100
AcDbLine
 62
7
  6
CONTINUOUS
 10
102.4119264283
 20
386.086058303
 11
102.4119264283
 21
180.2129319188
  0
LINE
  5
2B7
100
AcDbEntity
  8
KONSTRUKTIONSELEMENTE
100
AcDbLine
 62
7
  6
CONTINUOUS
 10
104.9319264283
 20
25.0218018815
 11
104.9319264283
 21
8.1779117226
  0
LINE
  5
2B8
100
AcDbEntity
  8
0
100
AcDbLine
 62
7
  6
CONTINUOUS
 10
106.6119264283
 20
89.6161057456
 11
106.6119264283
 21
107.5718563609
  0
LINE
  5
2B9
100
AcDbEntity
  8
KONSTRUKTIONSELEMENTE
100
AcDbLine
 62
7
  6
CONTINUOUS
 10
106.6119264283
 20
107.5718563609
 11
106.6119264283
 21
129.3494951109
  0
LINE
  5
2BA
100
AcDbEntity
  8
KONSTRUKTIONSELEMENTE
100
AcDbLine
 62
7
  6
CONTINUOUS
 10
107.4119264283
 20
166.7819627428
 11
107.4119264283
 21
156.175361025
  0
LINE
  5
2BB
100
AcDbEntity
  8
KONSTRUKTIONSELEMENTE
100
AcDbLine
 62
7
  6
CONTINUOUS
 10
107.4119264283
 20
133.0087143562
 11
107.4119264283
 21
125.0626626528
  0
LINE
  5
2BC
100
AcDbEntity
  8
KONSTRUKTIONSELEMENTE
100
AcDbLine
 62
7
  6
CONTINUOUS
 10
108.1319264283
 20
5.9151700228
 11
108.1319264283
 21
24.0171036212
  0
LINE
  5
2BD
100
AcDbEntity
  8
KONSTRUKTIONSELEMENTE
100
AcDbLine
 62
7
  6
CONTINUOUS
 10
111.9119264283
 20
166.7819627428
 11
111.9119264283
 21
156.175361025
  0
LINE
  5
2BE
100
AcDbEntity
  8
KONSTRUKTIONSELEMENTE
100
AcDbLine
 62
7
  6
CONTINUOUS
 10
111.9119264283
 20
135.6692643706
 11
111.9119264283
 21
125.0626626528
  0
LINE
  5
2BF
100
AcDbEntity
  8
BEZUGSACHSEN
100
AcDbLine
 62
7
  6
CONTINUOUS
 10
101.4735022216
 20
202.8210523008
 11
101.6217071398
 21
203.6232632058
  0
LINE
  5
2C0
100
AcDbEntity
  8
BEZUGSACHSEN
100
AcDbLine
 62
7
  6
CONTINUOUS
 10
95.958960354
 20
199.1019705493
 11
96.1586110513
 21
199.6677260347
  0
LINE
  5
2C1
100
AcDbEntity
  8
BEZUGSACHSEN
100
AcDbLine
 62
7
  6
CONTINUOUS
 10
100.6129195664
 20
203.085773919
 11
100.799109708
 21
203.5466005913
  0
LINE
  5
2C2
100
AcDbEntity
  8
BEZUGSACHSEN
100
AcDbLine
 62
7
  6
CONTINUOUS
 10
101.1752249666
 20
202.3005048861
 11
101.4735022216
 21
202.8210523008
  0
LINE
  5
2C3
100
AcDbEntity
  8
BEZUGSACHSEN
100
AcDbLine
 62
7
  6
CONTINUOUS
 10
94.965601196
 20
199.3323893629
 11
95.2644247353
 21
199.773129787
  0
LINE
  5
2C4
100
AcDbEntity
  8
BEZUGSACHSEN
100
AcDbLine
 62
7
  6
CONTINUOUS
 10
95.5606381615
 20
198.5822991042
 11
95.958960354
 21
199.1019705493
  0
LINE
  5
2C5
100
AcDbEntity
  8
BEZUGSACHSEN
100
AcDbLine
 62
7
  6
CONTINUOUS
 10
86.8983436426
 20
196.1082373692
 11
88.4949555275
 21
197.9176118808
  0
LINE
  5
2C6
100
AcDbEntity
  8
BEZUGSACHSEN
100
AcDbLine
 62
7
  6
CONTINUOUS
 10
87.616252757
 20
195.4747465042
 11
89.0448002646
 21
197.0936605768
  0
LINE
  5
2C7
100
AcDbEntity
  8
BEZUGSACHSEN
100
AcDbLine
 62
7
  6
CONTINUOUS
 10
89.6247417406
 20
192.6861467277
 11
90.1289349927
 21
193.2575281811
  0
LINE
  5
2C8
100
AcDbEntity
  8
BEZUGSACHSEN
100
AcDbLine
 62
7
  6
CONTINUOUS
 10
92.2297401298
 20
195.6382841462
 11
92.8179657509
 21
196.3048960234
  0
LINE
  5
2C9
100
AcDbEntity
  8
BEZUGSACHSEN
100
AcDbLine
 62
7
  6
CONTINUOUS
 10
100.2396061264
 20
202.7060582803
 11
100.6129195664
 21
203.085773919
  0
LINE
  5
2CA
100
AcDbEntity
  8
BEZUGSACHSEN
100
AcDbLine
 62
7
  6
CONTINUOUS
 10
100.6898231699
 20
201.8610677476
 11
101.1752249666
 21
202.3005048861
  0
LINE
  5
2CB
100
AcDbEntity
  8
BEZUGSACHSEN
100
AcDbLine
 62
7
  6
CONTINUOUS
 10
88.9095343304
 20
202.8793798454
 11
89.5065288634
 21
203.3529679387
  0
LINE
  5
2CC
100
AcDbEntity
  8
BEZUGSACHSEN
100
AcDbLine
 62
7
  6
CONTINUOUS
 10
91.894505857
 20
205.2473194084
 11
92.4915001054
 21
205.7209072758
  0
LINE
  5
2CD
100
AcDbEntity
  8
BEZUGSACHSEN
100
AcDbLine
 62
7
  6
CONTINUOUS
 10
94.5676048406
 20
199.0166639674
 11
94.965601196
 21
199.3323893629
  0
LINE
  5
2CE
100
AcDbEntity
  8
BEZUGSACHSEN
100
AcDbLine
 62
7
  6
CONTINUOUS
 10
95.1626418061
 20
198.2665737087
 11
95.5606381615
 21
198.5822991042
  0
LINE
  5
2CF
100
AcDbEntity
  8
BEZUGSACHSEN
100
AcDbLine
 62
7
  6
CONTINUOUS
 10
86.0178926823
 20
199.9340182417
 11
86.557705325
 21
200.3045877328
  0
LINE
  5
2D0
100
AcDbEntity
  8
BEZUGSACHSEN
100
AcDbLine
 62
7
  6
CONTINUOUS
 10
94.4730227916
 20
207.0468555054
 11
97.1631229874
 21
208.4801602703
  0
LINE
  5
2D1
100
AcDbEntity
  8
BEZUGSACHSEN
100
AcDbLine
 62
7
  6
CONTINUOUS
 10
95.5957648315
 20
206.5601912626
 11
97.6133399783
 21
207.6351698362
  0
LINE
  5
2D2
100
AcDbEntity
  8
BEZUGSACHSEN
100
AcDbLine
 62
7
  6
CONTINUOUS
 10
86.7001824062
 20
199.501339339
 11
87.0719305514
 21
199.6814482548
  0
LINE
  5
2D3
100
AcDbEntity
  8
0
100
AcDbLine
 62
7
  6
CONTINUOUS
 10
102.4119264283
 20
217.2928013749
 11
86.9823629458
 21
212.2794322951
  0
LINE
  5
2D4
100
AcDbEntity
  8
BEZUGSACHSEN
100
AcDbLine
 62
7
  6
CONTINUOUS
 10
146.1494508158
 20
187.8023224144
 11
146.6316587029
 21
187.9153768951
  0
LINE
  5
2D5
100
AcDbEntity
  8
BEZUGSACHSEN
100
AcDbLine
 62
7
  6
CONTINUOUS
 10
145.5609295046
 20
190.9426008179
 11
146.043137589
 21
191.0556554037
  0
LINE
  5
2D6
100
AcDbEntity
  8
BEZUGSACHSEN
100
AcDbLine
 62
7
  6
CONTINUOUS
 10
147.8141583898
 20
192.1433280807
 11
148.2963666714
 21
192.2563827716
  0
LINE
  5
2D7
100
AcDbEntity
  8
BEZUGSACHSEN
100
AcDbLine
 62
7
  6
CONTINUOUS
 10
145.965883105
 20
187.1288534435
 11
146.789474919
 21
187.2799118793
  0
LINE
  5
2D8
100
AcDbEntity
  8
BEZUGSACHSEN
100
AcDbLine
 62
7
  6
CONTINUOUS
 10
147.6563421737
 20
192.7787930965
 11
148.4799342836
 21
192.92985169
  0
LINE
  5
2D9
100
AcDbEntity
  8
BEZUGSACHSEN
100
AcDbLine
 62
7
  6
CONTINUOUS
 10
145.6075125877
 20
187.8013548733
 11
146.1494508158
 21
187.8023224144
  0
LINE
  5
2DA
100
AcDbEntity
  8
BEZUGSACHSEN
100
AcDbLine
 62
7
  6
CONTINUOUS
 10
145.223390625
 20
187.1649223427
 11
145.965883105
 21
187.1288534435
  0
LINE
  5
2DB
100
AcDbEntity
  8
BEZUGSACHSEN
100
AcDbLine
 62
7
  6
CONTINUOUS
 10
93.0770765025
 20
199.056372425
 11
93.5735934129
 21
198.839190263
  0
LINE
  5
2DC
100
AcDbEntity
  8
BEZUGSACHSEN
100
AcDbLine
 62
7
  6
CONTINUOUS
 10
89.3096905988
 20
197.8762057881
 11
92.8179657509
 21
196.3048960234
  0
LINE
  5
2DD
100
AcDbEntity
  8
BEZUGSACHSEN
100
AcDbLine
 62
7
  6
CONTINUOUS
 10
89.0448002646
 20
197.0936605768
 11
92.2297401298
 21
195.6382841462
  0
LINE
  5
2DE
100
AcDbEntity
  8
BEZUGSACHSEN
100
AcDbLine
 62
7
  6
CONTINUOUS
 10
87.479298087
 20
199.6607452085
 11
87.9222847728
 21
199.4392299274
  0
LINE
  5
2DF
100
AcDbEntity
  8
BEZUGSACHSEN
100
AcDbLine
 62
7
  6
CONTINUOUS
 10
87.9834913392
 20
200.2321266619
 11
88.4264780249
 21
200.0106113808
  0
LINE
  5
2E0
100
AcDbEntity
  8
BEZUGSACHSEN
100
AcDbLine
 62
7
  6
CONTINUOUS
 10
92.5792553548
 20
198.4577697549
 11
93.1749448659
 21
198.115572251
  0
LINE
  5
2E1
100
AcDbEntity
  8
BEZUGSACHSEN
100
AcDbLine
 62
7
  6
CONTINUOUS
 10
92.5808865766
 20
199.477501529
 11
93.0770765025
 21
199.056372425
  0
LINE
  5
2E2
100
AcDbEntity
  8
BEZUGSACHSEN
100
AcDbLine
 62
7
  6
CONTINUOUS
 10
88.4264780249
 20
200.0106113808
 11
88.9050844364
 21
199.5882838418
  0
LINE
  5
2E3
100
AcDbEntity
  8
BEZUGSACHSEN
100
AcDbLine
 62
7
  6
CONTINUOUS
 10
91.9838920435
 20
199.0039134357
 11
92.5792553548
 21
198.4577697549
  0
LINE
  5
2E4
100
AcDbEntity
  8
BEZUGSACHSEN
100
AcDbLine
 62
7
  6
CONTINUOUS
 10
99.0723447529
 20
207.3276682944
 11
99.4845764941
 21
206.8240621424
  0
LINE
  5
2E5
100
AcDbEntity
  8
BEZUGSACHSEN
100
AcDbLine
 62
7
  6
CONTINUOUS
 10
91.894505857
 20
205.2473194084
 11
94.9688635701
 21
201.3718529987
  0
LINE
  5
2E6
100
AcDbEntity
  8
BEZUGSACHSEN
100
AcDbLine
 62
7
  6
CONTINUOUS
 10
92.4915001054
 20
205.7209072758
 11
95.5658578185
 21
201.8454408661
  0
LINE
  5
2E7
100
AcDbEntity
  8
BEZUGSACHSEN
100
AcDbLine
 62
7
  6
CONTINUOUS
 10
99.6698334265
 20
207.8268266191
 11
100.157101543
 21
207.1823883336
  0
LINE
  5
2E8
100
AcDbEntity
  8
BEZUGSACHSEN
100
AcDbLine
 62
7
  6
CONTINUOUS
 10
95.9622226674
 20
201.1414342617
 11
95.5658578185
 21
201.8454408661
  0
LINE
  5
2E9
100
AcDbEntity
  8
BEZUGSACHSEN
100
AcDbLine
 62
7
  6
CONTINUOUS
 10
97.999722974
 20
200.4277629828
 11
94.4730227916
 21
207.0468555054
  0
LINE
  5
2EA
100
AcDbEntity
  8
BEZUGSACHSEN
100
AcDbLine
 62
7
  6
CONTINUOUS
 10
98.2220309796
 20
201.6310797067
 11
95.5957648315
 21
206.5601912626
  0
LINE
  5
2EB
100
AcDbEntity
  8
BEZUGSACHSEN
100
AcDbLine
 62
7
  6
CONTINUOUS
 10
99.4845764941
 20
206.8240621424
 11
100.6101190764
 21
204.71158586
  0
LINE
  5
2EC
100
AcDbEntity
  8
BEZUGSACHSEN
100
AcDbLine
 62
7
  6
CONTINUOUS
 10
100.157101543
 20
207.1823883336
 11
101.2826441254
 21
205.0699120512
  0
LINE
  5
2ED
100
AcDbEntity
  8
BEZUGSACHSEN
100
AcDbLine
 62
7
  6
CONTINUOUS
 10
101.5457378706
 20
204.3060325521
 11
101.2826441254
 21
205.0699120512
  0
LINE
  5
2EE
100
AcDbEntity
  8
BEZUGSACHSEN
100
AcDbLine
 62
7
  6
CONTINUOUS
 10
100.7981766564
 20
204.0885380999
 11
100.6101190764
 21
204.71158586
  0
LINE
  5
2EF
100
AcDbEntity
  8
BEZUGSACHSEN
100
AcDbLine
 62
7
  6
CONTINUOUS
 10
101.6217071398
 20
203.6232632058
 11
101.5457378706
 21
204.3060325521
  0
LINE
  5
2F0
100
AcDbEntity
  8
KONSTRUKTIONSELEMENTE
100
AcDbLine
 62
7
  6
CONTINUOUS
 10
112.9119264283
 20
167.3964138303
 11
112.9119264283
 21
165.8049335158
  0
LINE
  5
2F1
100
AcDbEntity
  8
KONSTRUKTIONSELEMENTE
100
AcDbLine
 62
7
  6
CONTINUOUS
 10
112.9119264283
 20
126.0396918798
 11
112.9119264283
 21
117.6494951109
  0
LINE
  5
2F2
100
AcDbEntity
  8
KONSTRUKTIONSELEMENTE
100
AcDbLine
 62
7
  6
CONTINUOUS
 10
113.1619264283
 20
156.9756135567
 11
113.1619264283
 21
153.2887671633
  0
LINE
  5
2F3
100
AcDbEntity
  8
KONSTRUKTIONSELEMENTE
100
AcDbLine
 62
7
  6
CONTINUOUS
 10
113.1619264283
 20
137.8495648286
 11
113.1619264283
 21
134.8690118389
  0
LINE
  5
2F4
100
AcDbEntity
  8
KONSTRUKTIONSELEMENTE
100
AcDbLine
 62
7
  6
CONTINUOUS
 10
117.6619264283
 20
156.9756135567
 11
117.6619264283
 21
153.2887671633
  0
LINE
  5
2F5
100
AcDbEntity
  8
KONSTRUKTIONSELEMENTE
100
AcDbLine
 62
7
  6
CONTINUOUS
 10
117.6619264283
 20
137.8495648286
 11
117.6619264283
 21
134.8690118389
  0
LINE
  5
2F6
100
AcDbEntity
  8
KONSTRUKTIONSELEMENTE
100
AcDbLine
 62
7
  6
CONTINUOUS
 10
117.9119264283
 20
167.3964138303
 11
117.9119264283
 21
165.8049335158
  0
LINE
  5
2F7
100
AcDbEntity
  8
KONSTRUKTIONSELEMENTE
100
AcDbLine
 62
7
  6
CONTINUOUS
 10
117.9119264283
 20
126.0396918798
 11
117.9119264283
 21
117.6494951109
  0
LINE
  5
2F8
100
AcDbEntity
  8
KONSTRUKTIONSELEMENTE
100
AcDbLine
 62
7
  6
CONTINUOUS
 10
118.9119264283
 20
125.0626626528
 11
118.9119264283
 21
135.6692643706
  0
LINE
  5
2F9
100
AcDbEntity
  8
KONSTRUKTIONSELEMENTE
100
AcDbLine
 62
7
  6
CONTINUOUS
 10
118.9119264283
 20
156.175361025
 11
118.9119264283
 21
166.7819627428
  0
LINE
  5
2FA
100
AcDbEntity
  8
KONSTRUKTIONSELEMENTE
100
AcDbLine
 62
7
  6
CONTINUOUS
 10
122.6919264283
 20
5.9151700228
 11
122.6919264283
 21
24.0171036212
  0
LINE
  5
2FB
100
AcDbEntity
  8
KONSTRUKTIONSELEMENTE
100
AcDbLine
 62
7
  6
CONTINUOUS
 10
123.4119264283
 20
125.0626626528
 11
123.4119264283
 21
133.0086659886
  0
LINE
  5
2FC
100
AcDbEntity
  8
KONSTRUKTIONSELEMENTE
100
AcDbLine
 62
7
  6
CONTINUOUS
 10
123.4119264283
 20
156.175361025
 11
123.4119264283
 21
166.7819627428
  0
LINE
  5
2FD
100
AcDbEntity
  8
0
100
AcDbLine
 62
7
  6
CONTINUOUS
 10
124.2119264283
 20
107.5718563609
 11
124.2119264283
 21
89.6161057456
  0
LINE
  5
2FE
100
AcDbEntity
  8
KONSTRUKTIONSELEMENTE
100
AcDbLine
 62
7
  6
CONTINUOUS
 10
124.2119264283
 20
107.5718563609
 11
124.2119264283
 21
129.3494951109
  0
LINE
  5
2FF
100
AcDbEntity
  8
BEZUGSACHSEN
100
AcDbLine
 62
7
  6
CONTINUOUS
 10
98.2220309796
 20
201.6310797067
 11
100.2396061264
 21
202.7060582803
  0
LINE
  5
300
100
AcDbEntity
  8
BEZUGSACHSEN
100
AcDbLine
 62
7
  6
CONTINUOUS
 10
97.999722974
 20
200.4277629828
 11
100.6898231699
 21
201.8610677476
  0
LINE
  5
301
100
AcDbEntity
  8
BEZUGSACHSEN
100
AcDbLine
 62
7
  6
CONTINUOUS
 10
132.4603513425
 20
205.703402772
 11
132.8281238478
 21
205.8798106964
  0
LINE
  5
302
100
AcDbEntity
  8
BEZUGSACHSEN
100
AcDbLine
 62
7
  6
CONTINUOUS
 10
94.5659739642
 20
197.9969323426
 11
95.1626418061
 21
198.2665737087
  0
LINE
  5
303
100
AcDbEntity
  8
BEZUGSACHSEN
100
AcDbLine
 62
7
  6
CONTINUOUS
 10
94.0704362385
 20
198.8259540521
 11
94.5676048406
 21
199.0166639674
  0
LINE
  5
304
100
AcDbEntity
  8
BEZUGSACHSEN
100
AcDbLine
 62
7
  6
CONTINUOUS
 10
136.2996867301
 20
198.4288903637
 11
137.0871670322
 21
198.6419169605
  0
LINE
  5
305
100
AcDbEntity
  8
BEZUGSACHSEN
100
AcDbLine
 62
7
  6
CONTINUOUS
 10
136.6278120238
 20
205.5178752544
 11
137.4152922928
 21
205.7309018062
  0
LINE
  5
306
100
AcDbEntity
  8
BEZUGSACHSEN
100
AcDbLine
 62
7
  6
CONTINUOUS
 10
93.9696319508
 20
197.9312370369
 11
94.5659739642
 21
197.9969323426
  0
LINE
  5
307
100
AcDbEntity
  8
BEZUGSACHSEN
100
AcDbLine
 62
7
  6
CONTINUOUS
 10
132.2266458466
 20
204.9300260333
 11
132.8229966596
 21
204.995646836
  0
LINE
  5
308
100
AcDbEntity
  8
BEZUGSACHSEN
100
AcDbLine
 62
7
  6
CONTINUOUS
 10
86.557705325
 20
200.3045877328
 11
87.2527886368
 21
200.3687631785
  0
LINE
  5
309
100
AcDbEntity
  8
BEZUGSACHSEN
100
AcDbLine
 62
7
  6
CONTINUOUS
 10
136.1665092066
 20
199.3193653127
 11
136.6625455017
 21
199.3506060652
  0
LINE
  5
30A
100
AcDbEntity
  8
BEZUGSACHSEN
100
AcDbLine
 62
7
  6
CONTINUOUS
 10
137.0524312792
 20
204.8091879625
 11
137.5484675081
 21
204.840428625
  0
LINE
  5
30B
100
AcDbEntity
  8
BEZUGSACHSEN
100
AcDbLine
 62
7
  6
CONTINUOUS
 10
145.4807451485
 20
195.3495595868
 11
146.8327444361
 21
195.3724235437
  0
LINE
  5
30C
100
AcDbEntity
  8
BEZUGSACHSEN
100
AcDbLine
 62
7
  6
CONTINUOUS
 10
146.5230024002
 20
196.0867144345
 11
147.8750013229
 21
196.1095781332
  0
LINE
  5
30D
100
AcDbEntity
  8
BEZUGSACHSEN
100
AcDbLine
 62
7
  6
CONTINUOUS
 10
148.2963666714
 20
192.2563827716
 11
148.8383048009
 21
192.2573502602
  0
LINE
  5
30E
100
AcDbEntity
  8
BEZUGSACHSEN
100
AcDbLine
 62
7
  6
CONTINUOUS
 10
93.5735934129
 20
198.839190263
 11
94.0704362385
 21
198.8259540521
  0
LINE
  5
30F
100
AcDbEntity
  8
BEZUGSACHSEN
100
AcDbLine
 62
7
  6
CONTINUOUS
 10
148.4799342836
 20
192.92985169
 11
149.2224267142
 21
192.8937827645
  0
LINE
  5
310
100
AcDbEntity
  8
BEZUGSACHSEN
100
AcDbLine
 62
7
  6
CONTINUOUS
 10
87.0719305514
 20
199.6814482548
 11
87.479298087
 21
199.6607452085
  0
LINE
  5
311
100
AcDbEntity
  8
BEZUGSACHSEN
100
AcDbLine
 62
7
  6
CONTINUOUS
 10
135.7013520406
 20
198.4729240037
 11
136.2996867301
 21
198.4288903637
  0
LINE
  5
312
100
AcDbEntity
  8
BEZUGSACHSEN
100
AcDbLine
 62
7
  6
CONTINUOUS
 10
146.043137589
 20
191.0556554037
 11
146.4442489255
 21
190.9815774449
  0
LINE
  5
313
100
AcDbEntity
  8
BEZUGSACHSEN
100
AcDbLine
 62
7
  6
CONTINUOUS
 10
87.2527886368
 20
200.3687631785
 11
87.9834913392
 21
200.2321266619
  0
LINE
  5
314
100
AcDbEntity
  8
BEZUGSACHSEN
100
AcDbLine
 62
7
  6
CONTINUOUS
 10
98.1367257486
 20
207.7332219968
 11
98.6230606033
 21
207.6307216144
  0
LINE
  5
315
100
AcDbEntity
  8
BEZUGSACHSEN
100
AcDbLine
 62
7
  6
CONTINUOUS
 10
93.1749448659
 20
198.115572251
 11
93.9696319508
 21
197.9312370369
  0
LINE
  5
316
100
AcDbEntity
  8
BEZUGSACHSEN
100
AcDbLine
 62
7
  6
CONTINUOUS
 10
135.6627543681
 20
199.4919239308
 11
136.1665092066
 21
199.3193653127
  0
LINE
  5
317
100
AcDbEntity
  8
BEZUGSACHSEN
100
AcDbLine
 62
7
  6
CONTINUOUS
 10
145.1466737431
 20
187.9875146935
 11
145.6075125877
 21
187.8013548733
  0
LINE
  5
318
100
AcDbEntity
  8
BEZUGSACHSEN
100
AcDbLine
 62
7
  6
CONTINUOUS
 10
146.4442489255
 20
190.9815774449
 11
146.9050877701
 21
190.7954176247
  0
LINE
  5
319
100
AcDbEntity
  8
BEZUGSACHSEN
100
AcDbLine
 62
7
  6
CONTINUOUS
 10
146.6278138035
 20
191.655051494
 11
147.5494914928
 21
191.2827318536
  0
LINE
  5
31A
100
AcDbEntity
  8
BEZUGSACHSEN
100
AcDbLine
 62
7
  6
CONTINUOUS
 10
148.8383048009
 20
192.2573502602
 11
149.2991436455
 21
192.07119044
  0
LINE
  5
31B
100
AcDbEntity
  8
BEZUGSACHSEN
100
AcDbLine
 62
7
  6
CONTINUOUS
 10
135.0953034408
 20
198.7207535011
 11
135.7013520406
 21
198.4729240037
  0
LINE
  5
31C
100
AcDbEntity
  8
BEZUGSACHSEN
100
AcDbLine
 62
7
  6
CONTINUOUS
 10
98.3970190563
 20
208.59515434
 11
99.145513322
 21
208.2707112836
  0
LINE
  5
31D
100
AcDbEntity
  8
BEZUGSACHSEN
100
AcDbLine
 62
7
  6
CONTINUOUS
 10
144.5022672
 20
187.5002055493
 11
145.223390625
 21
187.1649223427
  0
LINE
  5
31E
100
AcDbEntity
  8
BEZUGSACHSEN
100
AcDbLine
 62
7
  6
CONTINUOUS
 10
98.6230606033
 20
207.6307216144
 11
99.0723447529
 21
207.3276682944
  0
LINE
  5
31F
100
AcDbEntity
  8
BEZUGSACHSEN
100
AcDbLine
 62
7
  6
CONTINUOUS
 10
99.145513322
 20
208.2707112836
 11
99.6698334265
 21
207.8268266191
  0
LINE
  5
320
100
AcDbEntity
  8
BEZUGSACHSEN
100
AcDbLine
 62
7
  6
CONTINUOUS
 10
134.0757681763
 20
207.5803912427
 11
134.1402393948
 21
206.8398242715
  0
LINE
  5
321
100
AcDbEntity
  8
BEZUGSACHSEN
100
AcDbLine
 62
7
  6
CONTINUOUS
 10
133.5068318242
 20
201.276437756
 11
133.5377109119
 21
200.4612371432
  0
LINE
  5
322
100
AcDbEntity
  8
KONSTRUKTIONSELEMENTE
100
AcDbLine
 62
7
  6
CONTINUOUS
 10
125.8919264283
 20
8.1779117226
 11
125.8919264283
 21
24.5827890462
  0
LINE
  5
323
100
AcDbEntity
  8
0
100
AcDbLine
 62
7
  6
CONTINUOUS
 10
128.4119264283
 20
386.086058303
 11
128.4119264283
 21
180.2129319188
  0
LINE
  5
324
100
AcDbEntity
  8
KONSTRUKTIONSELEMENTE
100
AcDbLine
 62
7
  6
CONTINUOUS
 10
139.0640383847
 20
117.9700031866
 11
139.0640383847
 21
107.5718563609
  0
LINE
  5
325
100
AcDbEntity
  8
BEZUGSACHSEN
100
AcDbLine
 62
7
  6
CONTINUOUS
 10
134.3888873029
 20
201.6179927878
 11
134.3097517198
 21
201.0818641139
  0
LINE
  5
326
100
AcDbEntity
  8
BEZUGSACHSEN
100
AcDbLine
 62
7
  6
CONTINUOUS
 10
132.2266458466
 20
204.9300260333
 11
131.6544768328
 21
201.1287589368
  0
LINE
  5
327
100
AcDbEntity
  8
BEZUGSACHSEN
100
AcDbLine
 62
7
  6
CONTINUOUS
 10
131.401719342
 20
204.9751910844
 11
130.8544606037
 21
201.5165100592
  0
LINE
  5
328
100
AcDbEntity
  8
BEZUGSACHSEN
100
AcDbLine
 62
7
  6
CONTINUOUS
 10
133.4545097037
 20
207.1721831009
 11
133.3600036372
 21
206.6859988726
  0
LINE
  5
329
100
AcDbEntity
  8
BEZUGSACHSEN
100
AcDbLine
 62
7
  6
CONTINUOUS
 10
134.1402393948
 20
206.8398242715
 11
134.0457333283
 21
206.3536400432
  0
LINE
  5
32A
100
AcDbEntity
  8
BEZUGSACHSEN
100
AcDbLine
 62
7
  6
CONTINUOUS
 10
133.6805402757
 20
201.9410966326
 11
133.5068318242
 21
201.276437756
  0
LINE
  5
32B
100
AcDbEntity
  8
BEZUGSACHSEN
100
AcDbLine
 62
7
  6
CONTINUOUS
 10
139.4052250611
 20
203.0779299138
 11
139.2237931186
 21
202.6170734933
  0
LINE
  5
32C
100
AcDbEntity
  8
BEZUGSACHSEN
100
AcDbLine
 62
7
  6
CONTINUOUS
 10
134.6648941239
 20
202.2073772381
 11
134.3888873029
 21
201.6179927878
  0
LINE
  5
32D
100
AcDbEntity
  8
BEZUGSACHSEN
100
AcDbLine
 62
7
  6
CONTINUOUS
 10
128.4119264283
 20
205.5040731575
 11
130.5826485021
 21
209.9827523609
  0
LINE
  5
32E
100
AcDbEntity
  8
BEZUGSACHSEN
100
AcDbLine
 62
7
  6
CONTINUOUS
 10
128.4119264283
 20
203.756902481
 11
129.4588194223
 21
205.9168740117
  0
LINE
  5
32F
100
AcDbEntity
  8
BEZUGSACHSEN
100
AcDbLine
 62
7
  6
CONTINUOUS
 10
129.8764098629
 20
206.7784553465
 11
130.9203861594
 21
208.9324090858
  0
LINE
  5
330
100
AcDbEntity
  8
BEZUGSACHSEN
100
AcDbLine
 62
7
  6
CONTINUOUS
 10
133.3600036372
 20
206.6859988726
 11
133.1512082219
 21
206.2552078029
  0
LINE
  5
331
100
AcDbEntity
  8
BEZUGSACHSEN
100
AcDbLine
 62
7
  6
CONTINUOUS
 10
134.0457333283
 20
206.3536400432
 11
133.7673395063
 21
205.7792520844
  0
LINE
  5
332
100
AcDbEntity
  8
BEZUGSACHSEN
100
AcDbLine
 62
7
  6
CONTINUOUS
 10
134.0511222402
 20
202.6590094729
 11
133.6805402757
 21
201.9410966326
  0
LINE
  5
333
100
AcDbEntity
  8
BEZUGSACHSEN
100
AcDbLine
 62
7
  6
CONTINUOUS
 10
140.2081472318
 20
202.8833544589
 11
139.8375650024
 21
202.1654412585
  0
LINE
  5
334
100
AcDbEntity
  8
BEZUGSACHSEN
100
AcDbLine
 62
7
  6
CONTINUOUS
 10
134.0511222402
 20
202.6590094729
 11
135.4697495254
 21
204.5869355022
  0
LINE
  5
335
100
AcDbEntity
  8
BEZUGSACHSEN
100
AcDbLine
 62
7
  6
CONTINUOUS
 10
134.6648941239
 20
202.2073772381
 11
136.0835214091
 21
204.1353032674
  0
LINE
  5
336
100
AcDbEntity
  8
BEZUGSACHSEN
100
AcDbLine
 62
7
  6
CONTINUOUS
 10
137.4519590014
 20
202.137766336
 11
136.8845081403
 21
201.3665959963
  0
LINE
  5
337
100
AcDbEntity
  8
BEZUGSACHSEN
100
AcDbLine
 62
7
  6
CONTINUOUS
 10
137.8051659659
 20
200.6891476441
 11
137.0485646853
 21
199.6609203445
  0
LINE
  5
338
100
AcDbEntity
  8
BEZUGSACHSEN
100
AcDbLine
 62
7
  6
CONTINUOUS
 10
138.9863887107
 20
201.008685749
 11
137.5677614255
 21
199.0807597197
  0
LINE
  5
339
100
AcDbEntity
  8
BEZUGSACHSEN
100
AcDbLine
 62
7
  6
CONTINUOUS
 10
132.8281238478
 20
205.8798106964
 11
133.1512082219
 21
206.2552078029
  0
LINE
  5
33A
100
AcDbEntity
  8
BEZUGSACHSEN
100
AcDbLine
 62
7
  6
CONTINUOUS
 10
133.4442551322
 20
205.4038549779
 11
133.7673395063
 21
205.7792520844
  0
LINE
  5
33B
100
AcDbEntity
  8
BEZUGSACHSEN
100
AcDbLine
 62
7
  6
CONTINUOUS
 10
135.4697495254
 20
204.5869355022
 11
136.044919261
 21
205.1543069214
  0
LINE
  5
33C
100
AcDbEntity
  8
BEZUGSACHSEN
100
AcDbLine
 62
7
  6
CONTINUOUS
 10
136.0835214091
 20
204.1353032674
 11
136.5641157362
 21
204.5741459366
  0
LINE
  5
33D
100
AcDbEntity
  8
BEZUGSACHSEN
100
AcDbLine
 62
7
  6
CONTINUOUS
 10
137.0871670322
 20
198.6419169605
 11
137.5677614255
 21
199.0807597197
  0
LINE
  5
33E
100
AcDbEntity
  8
BEZUGSACHSEN
100
AcDbLine
 62
7
  6
CONTINUOUS
 10
136.6625455017
 20
199.3506060652
 11
137.0485646853
 21
199.6609203445
  0
LINE
  5
33F
100
AcDbEntity
  8
BEZUGSACHSEN
100
AcDbLine
 62
7
  6
CONTINUOUS
 10
132.8229966596
 20
204.995646836
 11
133.4442551322
 21
205.4038549779
  0
LINE
  5
340
100
AcDbEntity
  8
BEZUGSACHSEN
100
AcDbLine
 62
7
  6
CONTINUOUS
 10
136.044919261
 20
205.1543069214
 11
136.6278120238
 21
205.5178752544
  0
LINE
  5
341
100
AcDbEntity
  8
BEZUGSACHSEN
100
AcDbLine
 62
7
  6
CONTINUOUS
 10
136.5641157362
 20
204.5741459366
 11
137.0524312792
 21
204.8091879625
  0
LINE
  5
342
100
AcDbEntity
  8
BEZUGSACHSEN
100
AcDbLine
 62
7
  6
CONTINUOUS
 10
97.1631229874
 20
208.4801602703
 11
97.798597121
 21
208.6379339184
  0
LINE
  5
343
100
AcDbEntity
  8
BEZUGSACHSEN
100
AcDbLine
 62
7
  6
CONTINUOUS
 10
97.6133399783
 20
207.6351698362
 11
98.1367257486
 21
207.7332219968
  0
LINE
  5
344
100
AcDbEntity
  8
BEZUGSACHSEN
100
AcDbLine
 62
7
  6
CONTINUOUS
 10
132.0478880902
 20
205.7259852975
 11
132.4603513425
 21
205.703402772
  0
LINE
  5
345
100
AcDbEntity
  8
BEZUGSACHSEN
100
AcDbLine
 62
7
  6
CONTINUOUS
 10
97.798597121
 20
208.6379339184
 11
98.3970190563
 21
208.59515434
  0
LINE
  5
346
100
AcDbEntity
  8
BEZUGSACHSEN
100
AcDbLine
 62
7
  6
CONTINUOUS
 10
137.4152922928
 20
205.7309018062
 11
138.0136246161
 21
205.6868698552
  0
LINE
  5
347
100
AcDbEntity
  8
0
100
AcDbLine
 62
7
  6
CONTINUOUS
 10
143.8414899108
 20
212.2794322951
 11
128.4119264283
 21
217.2928013749
  0
LINE
  5
348
100
AcDbEntity
  8
BEZUGSACHSEN
100
AcDbLine
 62
7
  6
CONTINUOUS
 10
137.5484675081
 20
204.840428625
 11
138.0522270292
 21
204.6678665613
  0
LINE
  5
349
100
AcDbEntity
  8
BEZUGSACHSEN
100
AcDbLine
 62
7
  6
CONTINUOUS
 10
138.0136246161
 20
205.6868698552
 11
138.6196778903
 21
205.439036901
  0
LINE
  5
34A
100
AcDbEntity
  8
BEZUGSACHSEN
100
AcDbLine
 62
7
  6
CONTINUOUS
 10
149.2224267142
 20
192.8937827645
 11
149.9435473682
 21
192.5585046689
  0
LINE
  5
34B
100
AcDbEntity
  8
BEZUGSACHSEN
100
AcDbLine
 62
7
  6
CONTINUOUS
 10
130.8544606037
 20
201.5165100592
 11
131.6544768328
 21
201.1287589368
  0
LINE
  5
34C
100
AcDbEntity
  8
BEZUGSACHSEN
100
AcDbLine
 62
7
  6
CONTINUOUS
 10
129.4588194223
 20
205.9168740117
 11
131.401719342
 21
204.9751910844
  0
LINE
  5
34D
100
AcDbEntity
  8
BEZUGSACHSEN
100
AcDbLine
 62
7
  6
CONTINUOUS
 10
129.8764098629
 20
206.7784553465
 11
132.0478880902
 21
205.7259852975
  0
LINE
  5
34E
100
AcDbEntity
  8
BEZUGSACHSEN
100
AcDbLine
 62
7
  6
CONTINUOUS
 10
130.9203861594
 20
208.9324090858
 11
133.0918643867
 21
207.8799390368
  0
LINE
  5
34F
100
AcDbEntity
  8
BEZUGSACHSEN
100
AcDbLine
 62
7
  6
CONTINUOUS
 10
130.5826485021
 20
209.9827523609
 11
133.3255672667
 21
208.6533170433
  0
LINE
  5
350
100
AcDbEntity
  8
BEZUGSACHSEN
100
AcDbLine
 62
7
  6
CONTINUOUS
 10
134.1746456152
 20
199.3982018533
 11
135.0953034408
 21
198.7207535011
  0
LINE
  5
351
100
AcDbEntity
  8
BEZUGSACHSEN
100
AcDbLine
 62
7
  6
CONTINUOUS
 10
134.7420965425
 20
200.169372283
 11
135.6627543681
 21
199.4919239308
  0
LINE
  5
352
100
AcDbEntity
  8
BEZUGSACHSEN
100
AcDbLine
 62
7
  6
CONTINUOUS
 10
136.8845081403
 20
201.3665959963
 11
137.8051659659
 21
200.6891476441
  0
LINE
  5
353
100
AcDbEntity
  8
BEZUGSACHSEN
100
AcDbLine
 62
7
  6
CONTINUOUS
 10
137.4519590014
 20
202.137766336
 11
138.9863887107
 21
201.008685749
  0
LINE
  5
354
100
AcDbEntity
  8
BEZUGSACHSEN
100
AcDbLine
 62
7
  6
CONTINUOUS
 10
139.2237931186
 20
202.6170734933
 11
139.8375650024
 21
202.1654412585
  0
LINE
  5
355
100
AcDbEntity
  8
BEZUGSACHSEN
100
AcDbLine
 62
7
  6
CONTINUOUS
 10
138.0522270292
 20
204.6678665613
 11
138.9728848548
 21
203.990418209
  0
LINE
  5
356
100
AcDbEntity
  8
BEZUGSACHSEN
100
AcDbLine
 62
7
  6
CONTINUOUS
 10
138.6196778903
 20
205.439036901
 11
139.5403357159
 21
204.7615885487
  0
LINE
  5
357
100
AcDbEntity
  8
BEZUGSACHSEN
100
AcDbLine
 62
7
  6
CONTINUOUS
 10
144.8266616914
 20
188.2487199611
 11
145.1466737431
 21
187.9875146935
  0
LINE
  5
358
100
AcDbEntity
  8
BEZUGSACHSEN
100
AcDbLine
 62
7
  6
CONTINUOUS
 10
146.9050877701
 20
190.7954176247
 11
147.2250998217
 21
190.5342123571
  0
LINE
  5
359
100
AcDbEntity
  8
BEZUGSACHSEN
100
AcDbLine
 62
7
  6
CONTINUOUS
 10
149.2991436455
 20
192.07119044
 11
149.6191556971
 21
191.8099851724
  0
LINE
  5
35A
100
AcDbEntity
  8
BEZUGSACHSEN
100
AcDbLine
 62
7
  6
CONTINUOUS
 10
133.3255672667
 20
208.6533170433
 11
133.8274093973
 21
208.2327548857
  0
LINE
  5
35B
100
AcDbEntity
  8
BEZUGSACHSEN
100
AcDbLine
 62
7
  6
CONTINUOUS
 10
144.0628001197
 20
187.9855745331
 11
144.5022672
 21
187.5002055493
  0
LINE
  5
35C
100
AcDbEntity
  8
BEZUGSACHSEN
100
AcDbLine
 62
7
  6
CONTINUOUS
 10
147.5494914928
 20
191.2827318536
 11
147.9889612949
 21
190.7973577325
  0
LINE
  5
35D
100
AcDbEntity
  8
BEZUGSACHSEN
100
AcDbLine
 62
7
  6
CONTINUOUS
 10
149.9435473682
 20
192.5585046689
 11
150.3830171703
 21
192.0731305478
  0
LINE
  5
35E
100
AcDbEntity
  8
BEZUGSACHSEN
100
AcDbLine
 62
7
  6
CONTINUOUS
 10
133.0918643867
 20
207.8799390368
 11
133.3651308255
 21
207.570162733
  0
LINE
  5
35F
100
AcDbEntity
  8
BEZUGSACHSEN
100
AcDbLine
 62
7
  6
CONTINUOUS
 10
133.7577426363
 20
199.9030915987
 11
134.1746456152
 21
199.3982018533
  0
LINE
  5
360
100
AcDbEntity
  8
BEZUGSACHSEN
100
AcDbLine
 62
7
  6
CONTINUOUS
 10
139.5403357159
 20
204.7615885487
 11
139.9572340204
 21
204.2567022602
  0
LINE
  5
361
100
AcDbEntity
  8
BEZUGSACHSEN
100
AcDbLine
 62
7
  6
CONTINUOUS
 10
134.4274873084
 20
200.5989911266
 11
134.7420965425
 21
200.169372283
  0
LINE
  5
362
100
AcDbEntity
  8
BEZUGSACHSEN
100
AcDbLine
 62
7
  6
CONTINUOUS
 10
138.9728848548
 20
203.990418209
 11
139.2874894062
 21
203.5608028111
  0
LINE
  5
363
100
AcDbEntity
  8
BEZUGSACHSEN
100
AcDbLine
 62
7
  6
CONTINUOUS
 10
141.7517413835
 20
191.7787944034
 11
142.1917655303
 21
191.1566478362
  0
LINE
  5
364
100
AcDbEntity
  8
BEZUGSACHSEN
100
AcDbLine
 62
7
  6
CONTINUOUS
 10
143.7641571106
 20
188.5459941016
 11
144.0628001197
 21
187.9855745331
  0
LINE
  5
365
100
AcDbEntity
  8
BEZUGSACHSEN
100
AcDbLine
 62
7
  6
CONTINUOUS
 10
144.408563666
 20
189.0333032523
 11
144.8266616914
 21
188.2487199611
  0
LINE
  5
366
100
AcDbEntity
  8
BEZUGSACHSEN
100
AcDbLine
 62
7
  6
CONTINUOUS
 10
147.2250998217
 20
190.5342123571
 11
147.6431978472
 21
189.7496290659
  0
LINE
  5
367
100
AcDbEntity
  8
BEZUGSACHSEN
100
AcDbLine
 62
7
  6
CONTINUOUS
 10
133.5377109119
 20
200.4612371432
 11
133.7577426363
 21
199.9030915987
  0
LINE
  5
368
100
AcDbEntity
  8
BEZUGSACHSEN
100
AcDbLine
 62
7
  6
CONTINUOUS
 10
139.9572340204
 20
204.2567022602
 11
140.177268111
 21
203.6985550267
  0
LINE
  5
369
100
AcDbEntity
  8
BEZUGSACHSEN
100
AcDbLine
 62
7
  6
CONTINUOUS
 10
133.8274093973
 20
208.2327548857
 11
134.0757681763
 21
207.5803912427
  0
LINE
  5
36A
100
AcDbEntity
  8
BEZUGSACHSEN
100
AcDbLine
 62
7
  6
CONTINUOUS
 10
134.3097517198
 20
201.0818641139
 11
134.4274873084
 21
200.5989911266
  0
LINE
  5
36B
100
AcDbEntity
  8
BEZUGSACHSEN
100
AcDbLine
 62
7
  6
CONTINUOUS
 10
139.2874894062
 20
203.5608028111
 11
139.4052250611
 21
203.0779299138
  0
LINE
  5
36C
100
AcDbEntity
  8
BEZUGSACHSEN
100
AcDbLine
 62
7
  6
CONTINUOUS
 10
133.3651308255
 20
207.570162733
 11
133.4545097037
 21
207.1721831009
  0
LINE
  5
36D
100
AcDbEntity
  8
BEZUGSACHSEN
100
AcDbLine
 62
7
  6
CONTINUOUS
 10
144.3702052004
 20
189.4445994146
 11
144.408563666
 21
189.0333032523
  0
LINE
  5
36E
100
AcDbEntity
  8
BEZUGSACHSEN
100
AcDbLine
 62
7
  6
CONTINUOUS
 10
147.6431978472
 20
189.7496290659
 11
147.6815563128
 21
189.3383329036
  0
LINE
  5
36F
100
AcDbEntity
  8
BEZUGSACHSEN
100
AcDbLine
 62
7
  6
CONTINUOUS
 10
149.9775262144
 20
191.1374837425
 11
150.01588468
 21
190.7261875803
  0
LINE
  5
370
100
AcDbEntity
  8
BEZUGSACHSEN
100
AcDbLine
 62
7
  6
CONTINUOUS
 10
140.177268111
 20
203.6985550267
 11
140.2081472318
 21
202.8833544589
  0
LINE
  5
371
100
AcDbEntity
  8
RUNDUNGEN
100
AcDbLine
 62
7
  6
CONTINUOUS
 10
152.9119264283
 20
139.5070906307
 11
152.9119264283
 21
98.3774355795
  0
LINE
  5
372
100
AcDbEntity
  8
BEZUGSACHSEN
100
AcDbLine
 62
7
  6
CONTINUOUS
 10
143.7301810478
 20
189.9670099234
 11
143.6063409068
 21
189.181459124
  0
LINE
  5
373
100
AcDbEntity
  8
BEZUGSACHSEN
100
AcDbLine
 62
7
  6
CONTINUOUS
 10
148.4454177859
 20
189.601478279
 11
148.3215804161
 21
188.8159223685
  0
LINE
  5
374
100
AcDbEntity
  8
BEZUGSACHSEN
100
AcDbLine
 62
7
  6
CONTINUOUS
 10
150.7797461532
 20
190.9893329557
 11
150.6559087833
 21
190.2037770451
  0
LINE
  5
375
100
AcDbEntity
  8
BEZUGSACHSEN
100
AcDbLine
 62
7
  6
CONTINUOUS
 10
144.4726735277
 20
189.9309410242
 11
144.3702052004
 21
189.4445994146
  0
LINE
  5
376
100
AcDbEntity
  8
BEZUGSACHSEN
100
AcDbLine
 62
7
  6
CONTINUOUS
 10
147.6815563128
 20
189.3383329036
 11
147.5790879855
 21
188.851991294
  0
LINE
  5
377
100
AcDbEntity
  8
BEZUGSACHSEN
100
AcDbLine
 62
7
  6
CONTINUOUS
 10
150.01588468
 20
190.7261875803
 11
149.9134163527
 21
190.2398459706
  0
LINE
  5
378
100
AcDbEntity
  8
BEZUGSACHSEN
100
AcDbLine
 62
7
  6
CONTINUOUS
 10
147.5790879855
 20
188.851991294
 11
147.41689215
 21
188.4777315457
  0
LINE
  5
379
100
AcDbEntity
  8
BEZUGSACHSEN
100
AcDbLine
 62
7
  6
CONTINUOUS
 10
148.3215804161
 20
188.8159223685
 11
148.0782852957
 21
188.2545353115
  0
LINE
  5
37A
100
AcDbEntity
  8
BEZUGSACHSEN
100
AcDbLine
 62
7
  6
CONTINUOUS
 10
144.1143030104
 20
190.603442454
 11
143.7301810478
 21
189.9670099234
  0
LINE
  5
37B
100
AcDbEntity
  8
BEZUGSACHSEN
100
AcDbLine
 62
7
  6
CONTINUOUS
 10
150.6559087833
 20
190.2037770451
 11
150.27178687
 21
189.5673445408
  0
LINE
  5
37C
100
AcDbEntity
  8
BEZUGSACHSEN
100
AcDbLine
 62
7
  6
CONTINUOUS
 10
144.7756962548
 20
190.3802462724
 11
144.4726735277
 21
189.9309410242
  0
LINE
  5
37D
100
AcDbEntity
  8
BEZUGSACHSEN
100
AcDbLine
 62
7
  6
CONTINUOUS
 10
149.9134163527
 20
190.2398459706
 11
149.61039099
 21
189.7905459058
  0
LINE
  5
37E
100
AcDbEntity
  8
BEZUGSACHSEN
100
AcDbLine
 62
7
  6
CONTINUOUS
 10
144.6989793236
 20
191.2028385969
 11
144.1143030104
 21
190.603442454
  0
LINE
  5
37F
100
AcDbEntity
  8
BEZUGSACHSEN
100
AcDbLine
 62
7
  6
CONTINUOUS
 10
148.0782852957
 20
188.2545353115
 11
147.4936090812
 21
187.6551392212
  0
LINE
  5
380
100
AcDbEntity
  8
BEZUGSACHSEN
100
AcDbLine
 62
7
  6
CONTINUOUS
 10
145.1384491257
 20
190.7174644758
 11
144.7756962548
 21
190.3802462724
  0
LINE
  5
381
100
AcDbEntity
  8
BEZUGSACHSEN
100
AcDbLine
 62
7
  6
CONTINUOUS
 10
147.41689215
 20
188.4777315457
 11
147.0541390819
 21
188.1405132371
  0
LINE
  5
382
100
AcDbEntity
  8
BEZUGSACHSEN
100
AcDbLine
 62
7
  6
CONTINUOUS
 10
150.27178687
 20
189.5673445408
 11
149.9090339991
 21
189.2301263373
  0
LINE
  5
383
100
AcDbEntity
  8
BEZUGSACHSEN
100
AcDbLine
 62
7
  6
CONTINUOUS
 10
145.4807451485
 20
195.3495595868
 11
146.5230024002
 21
196.0867144345
  0
LINE
  5
384
100
AcDbEntity
  8
BEZUGSACHSEN
100
AcDbLine
 62
7
  6
CONTINUOUS
 10
141.7517413835
 20
191.7787944034
 11
146.8327444361
 21
195.3724235437
  0
LINE
  5
385
100
AcDbEntity
  8
BEZUGSACHSEN
100
AcDbLine
 62
7
  6
CONTINUOUS
 10
148.3150254697
 20
195.4874315661
 11
142.1917655303
 21
191.1566478362
  0
LINE
  5
386
100
AcDbEntity
  8
BEZUGSACHSEN
100
AcDbLine
 62
7
  6
CONTINUOUS
 10
145.6250395636
 20
191.8402386949
 11
144.6989793236
 21
191.2028385969
  0
LINE
  5
387
100
AcDbEntity
  8
BEZUGSACHSEN
100
AcDbLine
 62
7
  6
CONTINUOUS
 10
145.6250395636
 20
191.8402386949
 11
146.6108271145
 21
192.3655568264
  0
LINE
  5
388
100
AcDbEntity
  8
BEZUGSACHSEN
100
AcDbLine
 62
7
  6
CONTINUOUS
 10
146.6278138035
 20
191.655051494
 11
146.9094673895
 21
191.8051423887
  0
LINE
  5
389
100
AcDbEntity
  8
BEZUGSACHSEN
100
AcDbLine
 62
7
  6
CONTINUOUS
 10
145.1384491257
 20
190.7174644758
 11
145.5609295046
 21
190.9426008179
  0
LINE
  5
38A
100
AcDbEntity
  8
BEZUGSACHSEN
100
AcDbLine
 62
7
  6
CONTINUOUS
 10
147.0541390819
 20
188.1405132371
 11
146.6316587029
 21
187.9153768951
  0
LINE
  5
38B
100
AcDbEntity
  8
BEZUGSACHSEN
100
AcDbLine
 62
7
  6
CONTINUOUS
 10
147.4936090812
 20
187.6551392212
 11
146.789474919
 21
187.2799118793
  0
LINE
  5
38C
100
AcDbEntity
  8
BEZUGSACHSEN
100
AcDbLine
 62
7
  6
CONTINUOUS
 10
146.6108271145
 20
192.3655568264
 11
147.6563421737
 21
192.7787930965
  0
LINE
  5
38D
100
AcDbEntity
  8
BEZUGSACHSEN
100
AcDbLine
 62
7
  6
CONTINUOUS
 10
146.9094673895
 20
191.8051423887
 11
147.8141583898
 21
192.1433280807
  0
LINE
  5
38E
100
AcDbEntity
  8
0
100
AcDbLine
 62
7
  6
CONTINUOUS
 10
161.4119264283
 20
188.0958011376
 11
143.8414899108
 21
212.2794322951
  0
LINE
  5
38F
100
AcDbEntity
  8
BEZUGSACHSEN
100
AcDbLine
 62
7
  6
CONTINUOUS
 10
147.8750013229
 20
196.1095781332
 11
148.3150254697
 21
195.4874315661
  0
LINE
  5
390
100
AcDbEntity
  8
BEZUGSACHSEN
100
AcDbLine
 62
7
  6
CONTINUOUS
 10
147.9889612949
 20
190.7973577325
 11
148.287604304
 21
190.236938164
  0
LINE
  5
391
100
AcDbEntity
  8
BEZUGSACHSEN
100
AcDbLine
 62
7
  6
CONTINUOUS
 10
149.61039099
 20
189.7905459058
 11
149.9090339991
 21
189.2301263373
  0
LINE
  5
392
100
AcDbEntity
  8
BEZUGSACHSEN
100
AcDbLine
 62
7
  6
CONTINUOUS
 10
149.6191556971
 20
191.8099851724
 11
149.9775262144
 21
191.1374837425
  0
LINE
  5
393
100
AcDbEntity
  8
BEZUGSACHSEN
100
AcDbLine
 62
7
  6
CONTINUOUS
 10
150.3830171703
 20
192.0731305478
 11
150.6219299371
 21
191.6247979715
  0
LINE
  5
394
100
AcDbEntity
  8
BEZUGSACHSEN
100
AcDbLine
 62
7
  6
CONTINUOUS
 10
143.6063409068
 20
189.181459124
 11
143.7641571106
 21
188.5459941016
  0
LINE
  5
395
100
AcDbEntity
  8
BEZUGSACHSEN
100
AcDbLine
 62
7
  6
CONTINUOUS
 10
148.287604304
 20
190.236938164
 11
148.4454177859
 21
189.601478279
  0
LINE
  5
396
100
AcDbEntity
  8
BEZUGSACHSEN
100
AcDbLine
 62
7
  6
CONTINUOUS
 10
150.6219299371
 20
191.6247979715
 11
150.7797461532
 21
190.9893329557
  0
LINE
  5
397
100
AcDbEntity
  8
KONSTRUKTIONSELEMENTE
100
AcDbLine
 62
7
  6
CONTINUOUS
 10
155.7454248844
 20
36.0598774157
 11
155.7454248844
 21
32.5243435098
  0
LINE
  5
398
100
AcDbEntity
  8
0
100
AcDbLine
 62
7
  6
CONTINUOUS
 10
161.4119264283
 20
158.2031890842
 11
161.4119264283
 21
188.0958011376
  0
LINE
  5
399
100
AcDbEntity
  8
0
100
AcDbLine
 62
7
  6
CONTINUOUS
 10
156.6314852581
 20
131.0919599859
 11
161.4119264283
 21
158.2031890842
  0
LINE
  5
39A
100
AcDbEntity
  8
KONSTRUKTIONSELEMENTE
100
AcDbLine
 62
7
  6
CONTINUOUS
 10
189.0511940608
 20
93.9290782729
 11
189.0511940608
 21
90.393544367
  0
LINE
  5
39B
100
AcDbEntity
  8
RUNDUNGEN
100
AcDbLine
 62
7
  6
CONTINUOUS
 10
153.313850217
 20
125.3456475336
 11
156.6314852581
 21
131.0919599859
  0
LINE
  5
39C
100
AcDbEntity
  8
KONSTRUKTIONSELEMENTE
100
AcDbLine
 62
7
  6
CONTINUOUS
 10
77.9119264283
 20
108.2938138627
 11
63.8029626884
 21
104.1613940588
  0
LINE
  5
39D
100
AcDbEntity
  8
KONSTRUKTIONSELEMENTE
100
AcDbLine
 62
7
  6
CONTINUOUS
 10
77.9119264283
 20
104.7582799568
 11
63.8029626884
 21
100.6258601529
  0
LINE
  5
39E
100
AcDbEntity
  8
KONSTRUKTIONSELEMENTE
100
AcDbLine
 62
7
  6
CONTINUOUS
 10
141.9603713637
 20
43.0628060415
 11
167.1409412134
 21
86.0487275859
  0
LINE
  5
39F
100
AcDbEntity
  8
RUNDUNGEN
100
AcDbLine
 62
7
  6
CONTINUOUS
 10
152.4440153145
 20
97.0918603601
 11
151.4706362644
 21
95.9318323802
  0
LINE
  5
3A0
100
AcDbEntity
  8
0
100
AcDbLine
 62
7
  6
CONTINUOUS
 10
151.4706362644
 20
95.9318323802
 11
143.4422044241
 21
86.3639198916
  0
LINE
  5
3A1
100
AcDbEntity
  8
KONSTRUKTIONSELEMENTE
100
AcDbLine
 62
7
  6
CONTINUOUS
 10
70.7655481277
 20
93.1746050908
 11
61.1882138579
 21
90.3694688289
  0
LINE
  5
3A2
100
AcDbEntity
  8
KONSTRUKTIONSELEMENTE
100
AcDbLine
 62
7
  6
CONTINUOUS
 10
64.1398787324
 20
91.1174712877
 11
71.4793306173
 21
93.2671469746
  0
LINE
  5
3A3
100
AcDbEntity
  8
KONSTRUKTIONSELEMENTE
100
AcDbLine
 62
7
  6
CONTINUOUS
 10
69.9260522297
 20
82.7954901919
 11
77.3170884898
 21
84.9602745924
  0
LINE
  5
3A4
100
AcDbEntity
  8
KONSTRUKTIONSELEMENTE
100
AcDbLine
 62
7
  6
CONTINUOUS
 10
69.9260522297
 20
80.3913271358
 11
77.3170884898
 21
82.5561115364
  0
LINE
  5
3A5
100
AcDbEntity
  8
KONSTRUKTIONSELEMENTE
100
AcDbLine
 62
7
  6
CONTINUOUS
 10
68.9333283353
 20
77.6513910718
 11
78.5416754734
 21
80.4656107926
  0
LINE
  5
3A6
100
AcDbEntity
  8
KONSTRUKTIONSELEMENTE
100
AcDbLine
 62
7
  6
CONTINUOUS
 10
68.9333283353
 20
77.0857056469
 11
78.5416754734
 21
79.8999253677
  0
LINE
  5
3A7
100
AcDbEntity
  8
KONSTRUKTIONSELEMENTE
100
AcDbLine
 62
7
  6
CONTINUOUS
 10
155.013085063
 20
31.1616394075
 11
155.6845285104
 21
32.3078650697
  0
LINE
  5
3A8
100
AcDbEntity
  8
KONSTRUKTIONSELEMENTE
100
AcDbLine
 62
7
  6
CONTINUOUS
 10
187.6003267696
 20
86.7915407051
 11
188.4422303208
 21
88.2287599664
  0
ARC
  5
3A9
100
AcDbEntity
  8
BEZUGSACHSEN
100
AcDbCircle
 62
7
  6
CONTINUOUS
 10
180.4063508336
 20
17.2989333132
 40
367.7166098995
100
AcDbArc
 50
29.1037086153
 51
29.2715362397
  0
ARC
  5
3AA
100
AcDbEntity
  8
BEZUGSACHSEN
100
AcDbCircle
 62
7
  6
CONTINUOUS
 10
268.3963081925
 20
66.3992540664
 40
267.2657839882
100
AcDbArc
 50
29.0815601877
 51
29.3126957374
  0
ARC
  5
3AB
100
AcDbEntity
  8
BEZUGSACHSEN
100
AcDbCircle
 62
7
  6
CONTINUOUS
 10
258.3919381901
 20
159.5808480732
 40
246.6168625346
100
AcDbArc
 50
9.3795943628
 51
9.4942484532
  0
ARC
  5
3AC
100
AcDbEntity
  8
BEZUGSACHSEN
100
AcDbCircle
 62
7
  6
CONTINUOUS
 10
280.0101188438
 20
164.0932569858
 40
225.0996763118
100
AcDbArc
 50
9.9752838139
 51
10.0944027048
  0
ARC
  5
3AD
100
AcDbEntity
  8
BEZUGSACHSEN
100
AcDbCircle
 62
7
  6
CONTINUOUS
 10
283.5547584716
 20
167.4726615959
 40
219.6465398492
100
AcDbArc
 50
7.9564472385
 51
8.1124262205
  0
ARC
  5
3AE
100
AcDbEntity
  8
BEZUGSACHSEN
100
AcDbCircle
 62
7
  6
CONTINUOUS
 10
324.1210366375
 20
173.4022402542
 40
179.6714177229
100
AcDbArc
 50
8.2236451481
 51
8.4059767173
  0
ARC
  5
3AF
100
AcDbEntity
  8
BEZUGSACHSEN
100
AcDbCircle
 62
7
  6
CONTINUOUS
 10
336.7053090413
 20
180.616816311
 40
165.1380308907
100
AcDbArc
 50
6.0136656721
 51
6.150188844
  0
ARC
  5
3B0
100
AcDbEntity
  8
KONSTRUKTIONSELEMENTE
100
AcDbCircle
 62
7
  6
CONTINUOUS
 10
369.2202364436
 20
120.2896918798
 40
8.25
100
AcDbArc
 50
60.8421444573
 51
135.0
  0
ARC
  5
3B1
100
AcDbEntity
  8
KONSTRUKTIONSELEMENTE
100
AcDbCircle
 62
7
  6
CONTINUOUS
 10
369.2202364436
 20
120.2896918798
 40
8.25
100
AcDbArc
 50
315.0
 51
29.1578555427
  0
ARC
  5
3B2
100
AcDbEntity
  8
KONSTRUKTIONSELEMENTE
100
AcDbCircle
 62
7
  6
CONTINUOUS
 10
363.2098288035
 20
114.2792842397
 40
8.25
100
AcDbArc
 50
242.6769957192
 51
315.0
  0
ARC
  5
3B3
100
AcDbEntity
  8
KONSTRUKTIONSELEMENTE
100
AcDbCircle
 62
7
  6
CONTINUOUS
 10
363.2098288035
 20
114.2792842397
 40
8.25
100
AcDbArc
 50
135.0
 51
207.3230042808
  0
ARC
  5
3B4
100
AcDbEntity
  8
KONSTRUKTIONSELEMENTE
100
AcDbCircle
 62
7
  6
CONTINUOUS
 10
369.2202364436
 20
120.2896918798
 40
3.25
100
AcDbArc
 50
88.8837571799
 51
135.0
  0
ARC
  5
3B5
100
AcDbEntity
  8
KONSTRUKTIONSELEMENTE
100
AcDbCircle
 62
7
  6
CONTINUOUS
 10
369.2202364436
 20
120.2896918798
 40
3.25
100
AcDbArc
 50
315.0
 51
1.1162428201
  0
ARC
  5
3B6
100
AcDbEntity
  8
KONSTRUKTIONSELEMENTE
100
AcDbCircle
 62
7
  6
CONTINUOUS
 10
363.2098288035
 20
114.2792842397
 40
3.25
100
AcDbArc
 50
275.4863577938
 51
315.0
  0
ARC
  5
3B7
100
AcDbEntity
  8
KONSTRUKTIONSELEMENTE
100
AcDbCircle
 62
7
  6
CONTINUOUS
 10
363.2098288035
 20
114.2792842397
 40
3.25
100
AcDbArc
 50
135.0
 51
174.5136422062
  0
ARC
  5
3B8
100
AcDbEntity
  8
KONSTRUKTIONSELEMENTE
100
AcDbCircle
 62
7
  6
CONTINUOUS
 10
369.9273432248
 20
120.996798661
 40
2.25
100
AcDbArc
 50
135.0
 51
315.0
  0
ARC
  5
3B9
100
AcDbEntity
  8
KONSTRUKTIONSELEMENTE
100
AcDbCircle
 62
7
  6
CONTINUOUS
 10
389.5495564027
 20
140.6190118389
 40
8.0
100
AcDbArc
 50
241.3642958278
 51
315.0
  0
ARC
  5
3BA
100
AcDbEntity
  8
KONSTRUKTIONSELEMENTE
100
AcDbCircle
 62
7
  6
CONTINUOUS
 10
389.5495564027
 20
140.6190118389
 40
8.0
100
AcDbArc
 50
135.0
 51
208.6357041722
  0
ARC
  5
3BB
100
AcDbEntity
  8
KONSTRUKTIONSELEMENTE
100
AcDbCircle
 62
7
  6
CONTINUOUS
 10
400.1561581205
 20
151.2256135567
 40
8.0
100
AcDbArc
 50
61.3642958278
 51
135.0
  0
ARC
  5
3BC
100
AcDbEntity
  8
KONSTRUKTIONSELEMENTE
100
AcDbCircle
 62
7
  6
CONTINUOUS
 10
400.1561581205
 20
151.2256135567
 40
8.0
100
AcDbArc
 50
315.0
 51
28.6357041722
  0
ARC
  5
3BD
100
AcDbEntity
  8
KONSTRUKTIONSELEMENTE
100
AcDbCircle
 62
7
  6
CONTINUOUS
 10
389.5495564027
 20
140.6190118389
 40
3.5
100
AcDbArc
 50
265.1538775079
 51
315.0
  0
ARC
  5
3BE
100
AcDbEntity
  8
KONSTRUKTIONSELEMENTE
100
AcDbCircle
 62
7
  6
CONTINUOUS
 10
389.5495564027
 20
140.6190118389
 40
3.5
100
AcDbArc
 50
135.0
 51
184.8461224921
  0
ARC
  5
3BF
100
AcDbEntity
  8
KONSTRUKTIONSELEMENTE
100
AcDbCircle
 62
7
  6
CONTINUOUS
 10
400.1561581205
 20
151.2256135567
 40
3.5
100
AcDbArc
 50
85.1538775079
 51
135.0
  0
ARC
  5
3C0
100
AcDbEntity
  8
KONSTRUKTIONSELEMENTE
100
AcDbCircle
 62
7
  6
CONTINUOUS
 10
400.1561581205
 20
151.2256135567
 40
3.5
100
AcDbArc
 50
315.0
 51
4.8461224921
  0
ARC
  5
3C1
100
AcDbEntity
  8
KONSTRUKTIONSELEMENTE
100
AcDbCircle
 62
7
  6
CONTINUOUS
 10
401.040041597
 20
152.1094970332
 40
2.25
100
AcDbArc
 50
135.0
 51
315.0
  0
ARC
  5
3C2
100
AcDbEntity
  8
KONSTRUKTIONSELEMENTE
100
AcDbCircle
 62
7
  6
CONTINUOUS
 10
388.6656729263
 20
139.7351283624
 40
2.25
100
AcDbArc
 50
315.0
 51
135.0
  0
ARC
  5
3C3
100
AcDbEntity
  8
0
100
AcDbCircle
 62
7
  6
CONTINUOUS
 10
492.0800396748
 20
108.1494951109
 40
22.5
100
AcDbArc
 50
212.2268364662
 51
327.7731635338
  0
ARC
  5
3C4
100
AcDbEntity
  8
RUNDUNGEN
100
AcDbCircle
 62
7
  6
CONTINUOUS
 10
504.5800396748
 20
117.9700031866
 40
10.0
100
AcDbArc
 50
0.0
 51
30.0
  0
ARC
  5
3C5
100
AcDbEntity
  8
0
100
AcDbCircle
 62
7
  6
CONTINUOUS
 10
479.5800396748
 20
117.9700031866
 40
10.0
100
AcDbArc
 50
150.0
 51
180.0
  0
CIRCLE
  5
3C6
100
AcDbEntity
  8
0
100
AcDbCircle
 62
7
  6
CONTINUOUS
 10
492.0800396748
 20
108.1494951109
 40
9.0
  0
ARC
  5
3C7
100
AcDbEntity
  8
RUNDUNGEN
100
AcDbCircle
 62
7
  6
CONTINUOUS
 10
508.5800396748
 20
103.3828284443
 40
6.0
100
AcDbArc
 50
327.7731635338
 51
360.0
  0
ARC
  5
3C8
100
AcDbEntity
  8
0
100
AcDbCircle
 62
7
  6
CONTINUOUS
 10
475.5800396748
 20
103.3828284443
 40
6.0
100
AcDbArc
 50
180.0
 51
212.2268364662
  0
ARC
  5
3C9
100
AcDbEntity
  8
BEZUGSACHSEN
100
AcDbCircle
 62
7
  6
CONTINUOUS
 10
461.9250876008
 20
157.7989332726
 40
57.3142701885
100
AcDbArc
 50
47.7620915445
 51
47.9656892605
  0
ARC
  5
3CA
100
AcDbEntity
  8
BEZUGSACHSEN
100
AcDbCircle
 62
7
  6
CONTINUOUS
 10
465.9362395734
 20
166.5400764857
 40
47.7095616873
100
AcDbArc
 50
41.1447585713
 51
41.4393910159
  0
ARC
  5
3CB
100
AcDbEntity
  8
BEZUGSACHSEN
100
AcDbCircle
 62
7
  6
CONTINUOUS
 10
495.0827945814
 20
158.763104847
 40
40.6076917276
100
AcDbArc
 50
80.6037240985
 51
80.7188140711
  0
ARC
  5
3CC
100
AcDbEntity
  8
KONSTRUKTIONSELEMENTE
100
AcDbCircle
 62
7
  6
CONTINUOUS
 10
517.0800396748
 20
136.319368092
 40
10.0
100
AcDbArc
 50
180.0
 51
210.0
  0
ARC
  5
3CD
100
AcDbEntity
  8
0
100
AcDbCircle
 62
7
  6
CONTINUOUS
 10
467.0800396748
 20
136.319368092
 40
10.0
100
AcDbArc
 50
330.0
 51
360.0
  0
ARC
  5
3CE
100
AcDbEntity
  8
RUNDUNGEN
100
AcDbCircle
 62
7
  6
CONTINUOUS
 10
502.0800396748
 20
146.5033250787
 40
5.0
100
AcDbArc
 50
0.0
 51
68.0864505434
  0
ARC
  5
3CF
100
AcDbEntity
  8
0
100
AcDbCircle
 62
7
  6
CONTINUOUS
 10
482.0800396748
 20
146.5033250787
 40
5.0
100
AcDbArc
 50
111.9135496437
 51
180.0
  0
ARC
  5
3D0
100
AcDbEntity
  8
RUNDUNGEN
100
AcDbCircle
 62
7
  6
CONTINUOUS
 10
505.0800396748
 20
153.9195235658
 40
3.0
100
AcDbArc
 50
184.032915624
 51
247.9756751388
  0
ARC
  5
3D1
100
AcDbEntity
  8
0
100
AcDbCircle
 62
7
  6
CONTINUOUS
 10
479.0800396748
 20
153.9195235658
 40
3.0
100
AcDbArc
 50
292.0243248612
 51
355.967084376
  0
ARC
  5
3D2
100
AcDbEntity
  8
BEZUGSACHSEN
100
AcDbCircle
 62
7
  6
CONTINUOUS
 10
349.1473287746
 20
178.0437020005
 40
154.7060908368
100
AcDbArc
 50
9.0207882484
 51
9.2160417851
  0
ARC
  5
3D3
100
AcDbEntity
  8
BEZUGSACHSEN
100
AcDbCircle
 62
7
  6
CONTINUOUS
 10
396.8963598168
 20
189.7467023418
 40
105.2937017573
100
AcDbArc
 50
5.2233028691
 51
5.464179711
  0
ARC
  5
3D4
100
AcDbEntity
  8
BEZUGSACHSEN
100
AcDbCircle
 62
7
  6
CONTINUOUS
 10
408.4665888891
 20
199.3865160492
 40
91.6894837693
100
AcDbArc
 50
358.9138625442
 51
0.342130308
  0
ARC
  5
3D5
100
AcDbEntity
  8
KONSTRUKTIONSELEMENTE
100
AcDbCircle
 62
7
  6
CONTINUOUS
 10
408.0167427033
 20
199.4582606914
 40
91.5114648423
100
AcDbArc
 50
358.8668212899
 51
0.2978754907
  0
ARC
  5
3D6
100
AcDbEntity
  8
BEZUGSACHSEN
100
AcDbCircle
 62
7
  6
CONTINUOUS
 10
411.6295349235
 20
191.5143588631
 40
90.6335757818
100
AcDbArc
 50
4.4726772657
 51
4.8022771823
  0
ARC
  5
3D7
100
AcDbEntity
  8
BEZUGSACHSEN
100
AcDbCircle
 62
7
  6
CONTINUOUS
 10
410.5896314668
 20
198.8583351686
 40
89.761682407
100
AcDbArc
 50
359.3992548995
 51
0.4104395024
  0
ARC
  5
3D8
100
AcDbEntity
  8
BEZUGSACHSEN
100
AcDbCircle
 62
7
  6
CONTINUOUS
 10
416.6525895337
 20
197.2746298658
 40
84.2844378273
100
AcDbArc
 50
359.2070718828
 51
0.4370974531
  0
ARC
  5
3D9
100
AcDbEntity
  8
BEZUGSACHSEN
100
AcDbCircle
 62
7
  6
CONTINUOUS
 10
419.0846181521
 20
196.6411840333
 40
82.0866953548
100
AcDbArc
 50
359.1858096308
 51
0.3158261816
  0
ARC
  5
3DA
100
AcDbEntity
  8
KONSTRUKTIONSELEMENTE
100
AcDbCircle
 62
7
  6
CONTINUOUS
 10
420.4854780797
 20
171.5549335158
 40
8.25
100
AcDbArc
 50
240.8421444573
 51
315.0
  0
ARC
  5
3DB
100
AcDbEntity
  8
KONSTRUKTIONSELEMENTE
100
AcDbCircle
 62
7
  6
CONTINUOUS
 10
420.4854780797
 20
171.5549335158
 40
8.25
100
AcDbArc
 50
135.0
 51
209.1578555427
  0
ARC
  5
3DC
100
AcDbEntity
  8
KONSTRUKTIONSELEMENTE
100
AcDbCircle
 62
7
  6
CONTINUOUS
 10
420.4854780797
 20
171.5549335158
 40
3.25
100
AcDbArc
 50
268.8837571799
 51
315.0
  0
ARC
  5
3DD
100
AcDbEntity
  8
KONSTRUKTIONSELEMENTE
100
AcDbCircle
 62
7
  6
CONTINUOUS
 10
420.4854780797
 20
171.5549335158
 40
3.25
100
AcDbArc
 50
135.0
 51
181.1162428201
  0
ARC
  5
3DE
100
AcDbEntity
  8
KONSTRUKTIONSELEMENTE
100
AcDbCircle
 62
7
  6
CONTINUOUS
 10
419.7783712985
 20
170.8478267346
 40
2.25
100
AcDbArc
 50
315.0
 51
135.0
  0
ARC
  5
3DF
100
AcDbEntity
  8
BEZUGSACHSEN
100
AcDbCircle
 62
7
  6
CONTINUOUS
 10
423.2282945132
 20
194.1941670974
 40
78.9806743768
100
AcDbArc
 50
6.1868867428
 51
6.4640353671
  0
ARC
  5
3E0
100
AcDbEntity
  8
BEZUGSACHSEN
100
AcDbCircle
 62
7
  6
CONTINUOUS
 10
430.6440623131
 20
176.267870366
 40
76.7531637754
100
AcDbArc
 50
24.6426778303
 51
24.8421631791
  0
ARC
  5
3E1
100
AcDbEntity
  8
BEZUGSACHSEN
100
AcDbCircle
 62
7
  6
CONTINUOUS
 10
427.1609528466
 20
194.4169084216
 40
74.8304148575
100
AcDbArc
 50
0.9352184119
 51
1.4457383597
  0
ARC
  5
3E2
100
AcDbEntity
  8
BEZUGSACHSEN
100
AcDbCircle
 62
7
  6
CONTINUOUS
 10
427.2233428595
 20
194.4296494659
 40
74.7680131968
100
AcDbArc
 50
358.6638082286
 51
359.1017501881
  0
ARC
  5
3E3
100
AcDbEntity
  8
BEZUGSACHSEN
100
AcDbCircle
 62
7
  6
CONTINUOUS
 10
436.8710351592
 20
195.6716800591
 40
65.4056855352
100
AcDbArc
 50
5.4300663805
 51
5.81687832
  0
ARC
  5
3E4
100
AcDbEntity
  8
BEZUGSACHSEN
100
AcDbCircle
 62
7
  6
CONTINUOUS
 10
436.9591082606
 20
204.2473985617
 40
63.1931968451
100
AcDbArc
 50
0.9066424585
 51
1.3361166544
  0
ARC
  5
3E5
100
AcDbEntity
  8
BEZUGSACHSEN
100
AcDbCircle
 62
7
  6
CONTINUOUS
 10
437.0005461434
 20
204.2536850372
 40
63.151751722
100
AcDbArc
 50
358.7530337393
 51
359.1827774093
  0
ARC
  5
3E6
100
AcDbEntity
  8
KONSTRUKTIONSELEMENTE
100
AcDbCircle
 62
7
  6
CONTINUOUS
 10
436.5131130057
 20
204.2970007913
 40
63.0151201997
100
AcDbArc
 50
0.8640991224
 51
1.2947809348
  0
ARC
  5
3E7
100
AcDbEntity
  8
KONSTRUKTIONSELEMENTE
100
AcDbCircle
 62
7
  6
CONTINUOUS
 10
436.5131130537
 20
204.3032863289
 40
63.0151201516
100
AcDbArc
 50
358.705219065
 51
359.1359010831
  0
ARC
  5
3E8
100
AcDbEntity
  8
BEZUGSACHSEN
100
AcDbCircle
 62
7
  6
CONTINUOUS
 10
445.0124855871
 20
205.3199836847
 40
55.4043639081
100
AcDbArc
 50
354.4213562311
 51
354.806276654
  0
ARC
  5
3E9
100
AcDbEntity
  8
KONSTRUKTIONSELEMENTE
100
AcDbCircle
 62
7
  6
CONTINUOUS
 10
444.4369801495
 20
205.3697307435
 40
55.3575111788
100
AcDbArc
 50
354.3648830388
 51
354.7501651226
  0
ARC
  5
3EA
100
AcDbEntity
  8
BEZUGSACHSEN
100
AcDbCircle
 62
7
  6
CONTINUOUS
 10
449.1584580137
 20
199.125314391
 40
52.5947743634
100
AcDbArc
 50
359.8816381434
 51
0.2255842473
  0
ARC
  5
3EB
100
AcDbEntity
  8
BEZUGSACHSEN
100
AcDbCircle
 62
7
  6
CONTINUOUS
 10
450.9039427015
 20
198.3752241064
 40
51.083575418
100
AcDbArc
 50
359.8781366834
 51
0.2322577426
  0
ARC
  5
3EC
100
AcDbEntity
  8
KONSTRUKTIONSELEMENTE
100
AcDbCircle
 62
7
  6
CONTINUOUS
 10
426.4958857197
 20
177.5653411559
 40
8.25
100
AcDbArc
 50
70.1568492871
 51
135.0
  0
ARC
  5
3ED
100
AcDbEntity
  8
KONSTRUKTIONSELEMENTE
100
AcDbCircle
 62
7
  6
CONTINUOUS
 10
426.4958857197
 20
177.5653411559
 40
8.25
100
AcDbArc
 50
315.0
 51
19.8431507129
  0
ARC
  5
3EE
100
AcDbEntity
  8
KONSTRUKTIONSELEMENTE
100
AcDbCircle
 62
7
  6
CONTINUOUS
 10
425.9655556338
 20
177.03501107
 40
3.5
100
AcDbArc
 50
156.6630838942
 51
293.3369161058
  0
ARC
  5
3EF
100
AcDbEntity
  8
KONSTRUKTIONSELEMENTE
100
AcDbCircle
 62
7
  6
CONTINUOUS
 10
459.1995743496
 20
210.2690297858
 40
3.5
100
AcDbArc
 50
315.0
 51
135.0
  0
ARC
  5
3F0
100
AcDbEntity
  8
BEZUGSACHSEN
100
AcDbCircle
 62
7
  6
CONTINUOUS
 10
464.0995759144
 20
206.9465504804
 40
37.0061170188
100
AcDbArc
 50
348.3935226877
 51
348.6780585163
  0
ARC
  5
3F1
100
AcDbEntity
  8
BEZUGSACHSEN
100
AcDbCircle
 62
7
  6
CONTINUOUS
 10
464.04165822
 20
208.2134752104
 40
36.1075265358
100
AcDbArc
 50
358.1484741037
 51
0.4231823329
  0
ARC
  5
3F2
100
AcDbEntity
  8
KONSTRUKTIONSELEMENTE
100
AcDbCircle
 62
7
  6
CONTINUOUS
 10
463.5169669161
 20
208.2417185305
 40
36.0112399763
100
AcDbArc
 50
358.0985609926
 51
0.3793761388
  0
ARC
  5
3F3
100
AcDbEntity
  8
BEZUGSACHSEN
100
AcDbCircle
 62
7
  6
CONTINUOUS
 10
465.1815538521
 20
207.3682036942
 40
35.2019197424
100
AcDbArc
 50
358.6847374026
 51
0.4345268652
  0
ARC
  5
3F4
100
AcDbEntity
  8
BEZUGSACHSEN
100
AcDbCircle
 62
7
  6
CONTINUOUS
 10
471.5889942822
 20
202.4391249892
 40
30.1611452013
100
AcDbArc
 50
358.4648088061
 51
0.5070878628
  0
ARC
  5
3F5
100
AcDbEntity
  8
BEZUGSACHSEN
100
AcDbCircle
 62
7
  6
CONTINUOUS
 10
472.6097836337
 20
201.5954143621
 40
29.3746477055
100
AcDbArc
 50
357.721874742
 51
359.8189692269
  0
ARC
  5
3F6
100
AcDbEntity
  8
BEZUGSACHSEN
100
AcDbCircle
 62
7
  6
CONTINUOUS
 10
472.7260114231
 20
201.5940351233
 40
29.2584161502
100
AcDbArc
 50
359.8514620182
 51
0.5229283328
  0
ARC
  5
3F7
100
AcDbEntity
  8
BEZUGSACHSEN
100
AcDbCircle
 62
7
  6
CONTINUOUS
 10
476.5678021444
 20
202.1505207186
 40
25.4161806302
100
AcDbArc
 50
2.0676937503
 51
2.442549345
  0
ARC
  5
3F8
100
AcDbEntity
  8
BEZUGSACHSEN
100
AcDbCircle
 62
7
  6
CONTINUOUS
 10
476.6432850846
 20
202.1532536837
 40
25.3406482312
100
AcDbArc
 50
1.6916834774
 51
2.0676762415
  0
ARC
  5
3F9
100
AcDbEntity
  8
BEZUGSACHSEN
100
AcDbCircle
 62
7
  6
CONTINUOUS
 10
477.3664010738
 20
201.9088814536
 40
24.8889557956
100
AcDbArc
 50
351.1140374909
 51
351.5849818105
  0
ARC
  5
3FA
100
AcDbEntity
  8
BEZUGSACHSEN
100
AcDbCircle
 62
7
  6
CONTINUOUS
 10
481.4029116114
 20
203.2536047016
 40
20.7865989516
100
AcDbArc
 50
347.7014854789
 51
348.104688484
  0
ARC
  5
3FB
100
AcDbEntity
  8
BEZUGSACHSEN
100
AcDbCircle
 62
7
  6
CONTINUOUS
 10
483.7508295984
 20
195.4591531902
 40
20.699669179
100
AcDbArc
 50
36.1032729071
 51
36.3673171869
  0
ARC
  5
3FC
100
AcDbEntity
  8
BEZUGSACHSEN
100
AcDbCircle
 62
7
  6
CONTINUOUS
 10
495.9336942339
 20
205.4260659688
 40
9.5571904315
100
AcDbArc
 50
308.3524767164
 51
308.9828336288
  0
ARC
  5
3FD
100
AcDbEntity
  8
BEZUGSACHSEN
100
AcDbCircle
 62
7
  6
CONTINUOUS
 10
495.8880192765
 20
201.1763910883
 40
8.6097724951
100
AcDbArc
 50
59.5043560862
 51
60.0700971493
  0
ARC
  5
3FE
100
AcDbEntity
  8
0
100
AcDbCircle
 62
7
  6
CONTINUOUS
 10
490.0800396748
 20
201.5184696658
 40
8.0
100
AcDbArc
 50
166.25
 51
180.0
  0
ARC
  5
3FF
100
AcDbEntity
  8
BEZUGSACHSEN
100
AcDbCircle
 62
7
  6
CONTINUOUS
 10
494.0800396748
 20
201.5184696658
 40
8.0
100
AcDbArc
 50
0.0
 51
13.75
  0
ARC
  5
400
100
AcDbEntity
  8
0
100
AcDbCircle
 62
7
  6
CONTINUOUS
 10
492.0800396748
 20
243.1494951109
 40
76.0
100
AcDbArc
 50
277.5610335504
 51
360.0
  0
ARC
  5
401
100
AcDbEntity
  8
0
100
AcDbCircle
 62
7
  6
CONTINUOUS
 10
492.0800396748
 20
243.1494951109
 40
76.0
100
AcDbArc
 50
227.6397248456
 51
262.4389664496
  0
ARC
  5
402
100
AcDbEntity
  8
0
100
AcDbCircle
 62
7
  6
CONTINUOUS
 10
492.0800396748
 20
243.1494951109
 40
76.0
100
AcDbArc
 50
180.0
 51
222.3602751544
  0
ARC
  5
403
100
AcDbEntity
  8
0
100
AcDbCircle
 62
7
  6
CONTINUOUS
 10
492.0800396748
 20
243.1494951109
 40
50.0
100
AcDbArc
 50
281.539412204
 51
360.0
  0
ARC
  5
404
100
AcDbEntity
  8
0
100
AcDbCircle
 62
7
  6
CONTINUOUS
 10
492.0800396748
 20
243.1494951109
 40
50.0
100
AcDbArc
 50
229.0140852861
 51
258.460587796
  0
ARC
  5
405
100
AcDbEntity
  8
0
100
AcDbCircle
 62
7
  6
CONTINUOUS
 10
492.0800396748
 20
243.1494951109
 40
50.0
100
AcDbArc
 50
180.0
 51
220.9859147139
  0
ARC
  5
406
100
AcDbEntity
  8
KONSTRUKTIONSELEMENTE
100
AcDbCircle
 62
7
  6
CONTINUOUS
 10
489.8988972956
 20
217.3361311146
 40
19.5819912245
100
AcDbArc
 50
299.5697675892
 51
299.948075967
  0
ARC
  5
407
100
AcDbEntity
  8
BEZUGSACHSEN
100
AcDbCircle
 62
7
  6
CONTINUOUS
 10
490.5827703308
 20
217.1912539164
 40
19.4279794642
100
AcDbArc
 50
299.6349896114
 51
300.0155266447
  0
ARC
  5
408
100
AcDbEntity
  8
BEZUGSACHSEN
100
AcDbCircle
 62
7
  6
CONTINUOUS
 10
489.7255681185
 20
210.9135107432
 40
10.7029177161
100
AcDbArc
 50
346.8586631968
 51
347.7244895244
  0
ARC
  5
409
100
AcDbEntity
  8
KONSTRUKTIONSELEMENTE
100
AcDbCircle
 62
7
  6
CONTINUOUS
 10
489.1214208383
 20
210.9247068763
 40
10.6892737975
100
AcDbArc
 50
346.779949863
 51
347.6471484994
  0
ARC
  5
40A
100
AcDbEntity
  8
BEZUGSACHSEN
100
AcDbCircle
 62
7
  6
CONTINUOUS
 10
493.7570248309
 20
210.1510483652
 40
7.087034126
100
AcDbArc
 50
339.2067163464
 51
340.0523179637
  0
ARC
  5
40B
100
AcDbEntity
  8
0
100
AcDbCircle
 62
7
  6
CONTINUOUS
 10
492.0800396748
 20
323.1494951109
 40
76.0
100
AcDbArc
 50
0.0
 51
180.0
  0
ARC
  5
40C
100
AcDbEntity
  8
0
100
AcDbCircle
 62
7
  6
CONTINUOUS
 10
492.0800396748
 20
323.1494951109
 40
50.0
100
AcDbArc
 50
0.0
 51
180.0
  0
ARC
  5
40D
100
AcDbEntity
  8
BEZUGSACHSEN
100
AcDbCircle
 62
7
  6
CONTINUOUS
 10
115.3135642955
 20
96.6683657522
 40
21.6713122013
100
AcDbArc
 50
96.37044149
 51
104.3623757182
  0
ARC
  5
40E
100
AcDbEntity
  8
KONSTRUKTIONSELEMENTE
100
AcDbCircle
 62
7
  6
CONTINUOUS
 10
98.6665906261
 20
20.7395584211
 40
8.2295991091
100
AcDbArc
 50
71.4716087129
 51
77.9053340862
  0
ARC
  5
40F
100
AcDbEntity
  8
KONSTRUKTIONSELEMENTE
100
AcDbCircle
 62
7
  6
CONTINUOUS
 10
112.5783016698
 20
156.1771016002
 40
5.1663755347
100
AcDbArc
 50
180.0193032065
 51
196.1866904412
  0
ARC
  5
410
100
AcDbEntity
  8
KONSTRUKTIONSELEMENTE
100
AcDbCircle
 62
7
  6
CONTINUOUS
 10
104.8519817267
 20
24.0074168567
 40
3.2805025747
100
AcDbArc
 50
9.1122156589
 51
9.8872067218
  0
ARC
  5
411
100
AcDbEntity
  8
KONSTRUKTIONSELEMENTE
100
AcDbCircle
 62
7
  6
CONTINUOUS
 10
104.9073253129
 20
24.0153474874
 40
3.2246015936
100
AcDbArc
 50
0.0312035642
 51
9.1288137427
  0
ARC
  5
412
100
AcDbEntity
  8
RUNDUNGEN
100
AcDbCircle
 62
7
  6
CONTINUOUS
 10
74.9119264283
 20
123.8456475336
 40
3.0
100
AcDbArc
 50
0.0
 51
30.0
  0
ARC
  5
413
100
AcDbEntity
  8
0
100
AcDbCircle
 62
7
  6
CONTINUOUS
 10
88.9137369324
 20
87.6494955713
 40
2.0
100
AcDbArc
 50
220.0000172178
 51
270.0000110674
  0
ARC
  5
414
100
AcDbEntity
  8
RUNDUNGEN
100
AcDbCircle
 62
7
  6
CONTINUOUS
 10
79.9119264283
 20
98.3774355795
 40
2.0
100
AcDbArc
 50
180.0
 51
220.0
  0
ARC
  5
415
100
AcDbEntity
  8
0
100
AcDbCircle
 62
7
  6
CONTINUOUS
 10
79.9119264283
 20
98.3774355795
 40
2.0
100
AcDbArc
 50
180.0
 51
220.0
  0
ARC
  5
416
100
AcDbEntity
  8
KONSTRUKTIONSELEMENTE
100
AcDbCircle
 62
7
  6
CONTINUOUS
 10
78.7563156425
 20
82.045697962
 40
1.2681615075
100
AcDbArc
 50
341.2144804733
 51
346.8145490438
  0
ARC
  5
417
100
AcDbEntity
  8
KONSTRUKTIONSELEMENTE
100
AcDbCircle
 62
7
  6
CONTINUOUS
 10
115.4119264283
 20
34.3118563609
 40
56.0
100
AcDbArc
 50
99.0410961486
 51
113.5499984999
  0
ARC
  5
418
100
AcDbEntity
  8
KONSTRUKTIONSELEMENTE
100
AcDbCircle
 62
7
  6
CONTINUOUS
 10
115.4119264283
 20
34.3118563609
 40
56.0
100
AcDbArc
 50
66.4500015001
 51
80.9589038514
  0
ARC
  5
419
100
AcDbEntity
  8
BEZUGSACHSEN
100
AcDbCircle
 62
7
  6
CONTINUOUS
 10
115.5508623648
 20
96.8901673311
 40
21.4463840217
100
AcDbArc
 50
75.595645697
 51
83.6715370947
  0
ARC
  5
41A
100
AcDbEntity
  8
BEZUGSACHSEN
100
AcDbCircle
 62
7
  6
CONTINUOUS
 10
115.4119264283
 20
173.1494951109
 40
20.0
100
AcDbArc
 50
130.5823106118
 51
49.4176893882
  0
ARC
  5
41B
100
AcDbEntity
  8
0
100
AcDbCircle
 62
7
  6
CONTINUOUS
 10
115.4119264283
 20
180.1494951109
 40
13.0
100
AcDbArc
 50
180.0
 51
360.0
  0
ARC
  5
41C
100
AcDbEntity
  8
KONSTRUKTIONSELEMENTE
100
AcDbCircle
 62
7
  6
CONTINUOUS
 10
115.4119264283
 20
129.3494951109
 40
8.8
100
AcDbArc
 50
0.0
 51
180.0
  0
ARC
  5
41D
100
AcDbEntity
  8
KONSTRUKTIONSELEMENTE
100
AcDbCircle
 62
7
  6
CONTINUOUS
 10
131.9204685064
 20
21.574313893
 40
7.482814079
100
AcDbArc
 50
111.2384503883
 51
112.1140025065
  0
ARC
  5
41E
100
AcDbEntity
  8
KONSTRUKTIONSELEMENTE
100
AcDbCircle
 62
7
  6
CONTINUOUS
 10
131.8617719741
 20
21.7175747961
 40
7.3279955906
100
AcDbArc
 50
112.1105000658
 51
113.9508226432
  0
ARC
  5
41F
100
AcDbEntity
  8
KONSTRUKTIONSELEMENTE
100
AcDbCircle
 62
7
  6
CONTINUOUS
 10
118.2173637894
 20
156.181130634
 40
5.194565843
100
AcDbArc
 50
343.8665707686
 51
359.9363615126
  0
CIRCLE
  5
420
100
AcDbEntity
  8
BEZUGSACHSEN
100
AcDbCircle
 62
7
  6
CONTINUOUS
 10
142.4119264283
 20
108.1494951109
 40
3.0
  0
ARC
  5
421
100
AcDbEntity
  8
RUNDUNGEN
100
AcDbCircle
 62
7
  6
CONTINUOUS
 10
155.9119264283
 20
123.8456475336
 40
3.0
100
AcDbArc
 50
150.0
 51
180.0
  0
ARC
  5
422
100
AcDbEntity
  8
KONSTRUKTIONSELEMENTE
100
AcDbCircle
 62
7
  6
CONTINUOUS
 10
115.4119264283
 20
126.0396918798
 40
2.5
100
AcDbArc
 50
0.0
 51
180.0
  0
ARC
  5
423
100
AcDbEntity
  8
KONSTRUKTIONSELEMENTE
100
AcDbCircle
 62
7
  6
CONTINUOUS
 10
115.4119264283
 20
165.8049335158
 40
2.5
100
AcDbArc
 50
180.0
 51
360.0
  0
ARC
  5
424
100
AcDbEntity
  8
KONSTRUKTIONSELEMENTE
100
AcDbCircle
 62
7
  6
CONTINUOUS
 10
115.4119264283
 20
134.8690118389
 40
2.25
100
AcDbArc
 50
180.0
 51
360.0
  0
ARC
  5
425
100
AcDbEntity
  8
KONSTRUKTIONSELEMENTE
100
AcDbCircle
 62
7
  6
CONTINUOUS
 10
115.4119264283
 20
156.9756135567
 40
2.25
100
AcDbArc
 50
0.0
 51
180.0
  0
ARC
  5
426
100
AcDbEntity
  8
0
100
AcDbCircle
 62
7
  6
CONTINUOUS
 10
141.9101162045
 20
87.6494959054
 40
2.0
100
AcDbArc
 50
269.9999809015
 51
319.9999702881
  0
ARC
  5
427
100
AcDbEntity
  8
RUNDUNGEN
100
AcDbCircle
 62
7
  6
CONTINUOUS
 10
150.9119264283
 20
98.3774355795
 40
2.0
100
AcDbArc
 50
320.0
 51
359.9999999998
  0
ARC
  5
428
100
AcDbEntity
  8
0
100
AcDbCircle
 62
7
  6
CONTINUOUS
 10
115.4119264283
 20
386.1494951109
 40
13.0
100
AcDbArc
 50
0.0
 51
180.0
  0
LINE
  5
429
100
AcDbEntity
  8
BEZUGSACHSEN
100
AcDbLine
 62
7
  6
CONTINUOUS
 10
501.9608910724
 20
203.233697767
 11
501.9063053854
 21
203.4350143111
  0
LINE
  5
42A
100
AcDbEntity
  8
BEZUGSACHSEN
100
AcDbLine
 62
7
  6
CONTINUOUS
 10
501.9063053854
 20
203.4350143111
 11
501.8441558913
 21
203.6642172475
  0
LINE
  5
42B
100
AcDbEntity
  8
BEZUGSACHSEN
100
AcDbLine
 62
7
  6
CONTINUOUS
 10
501.8441558913
 20
203.6642172475
 11
501.6644530654
 21
204.3268932023
  0
LINE
  5
42C
100
AcDbEntity
  8
BEZUGSACHSEN
100
AcDbLine
 62
7
  6
CONTINUOUS
 10
501.6644530654
 20
204.3268932023
 11
501.6607170949
 21
204.3406691983
  0
LINE
  5
42D
100
AcDbEntity
  8
BEZUGSACHSEN
100
AcDbLine
 62
7
  6
CONTINUOUS
 10
501.6607170949
 20
204.3406691983
 11
501.4663292102
 21
205.057408452
  0
LINE
  5
42E
100
AcDbEntity
  8
BEZUGSACHSEN
100
AcDbLine
 62
7
  6
CONTINUOUS
 10
501.4663292102
 20
205.057408452
 11
501.4542412514
 21
205.1019758194
  0
LINE
  5
42F
100
AcDbEntity
  8
BEZUGSACHSEN
100
AcDbLine
 62
7
  6
CONTINUOUS
 10
501.4542412514
 20
205.1019758194
 11
501.3004693277
 21
205.6688929711
  0
LINE
  5
430
100
AcDbEntity
  8
BEZUGSACHSEN
100
AcDbLine
 62
7
  6
CONTINUOUS
 10
501.7393133963
 20
201.6310797067
 11
501.6559723062
 21
201.9320582735
  0
LINE
  5
431
100
AcDbEntity
  8
BEZUGSACHSEN
100
AcDbLine
 62
7
  6
CONTINUOUS
 10
501.6559723062
 20
201.9320582735
 11
500.3741989567
 21
206.5601912626
  0
LINE
  5
432
100
AcDbEntity
  8
BEZUGSACHSEN
100
AcDbLine
 62
7
  6
CONTINUOUS
 10
500.2572450927
 20
208.59515434
 11
500.2951456058
 21
208.5134087501
  0
LINE
  5
433
100
AcDbEntity
  8
BEZUGSACHSEN
100
AcDbLine
 62
7
  6
CONTINUOUS
 10
500.4069917436
 20
208.2707112836
 11
500.5591045239
 21
207.8268266191
  0
LINE
  5
434
100
AcDbEntity
  8
BEZUGSACHSEN
100
AcDbLine
 62
7
  6
CONTINUOUS
 10
500.5591045239
 20
207.8268266191
 11
500.5732886106
 21
207.7794182476
  0
LINE
  5
435
100
AcDbEntity
  8
BEZUGSACHSEN
100
AcDbLine
 62
7
  6
CONTINUOUS
 10
500.5732886106
 20
207.7794182476
 11
500.7038732596
 21
207.3427805276
  0
LINE
  5
436
100
AcDbEntity
  8
BEZUGSACHSEN
100
AcDbLine
 62
7
  6
CONTINUOUS
 10
500.7038732596
 20
207.3427805276
 11
500.7518171229
 21
207.1823883336
  0
LINE
  5
437
100
AcDbEntity
  8
BEZUGSACHSEN
100
AcDbLine
 62
7
  6
CONTINUOUS
 10
500.7518171229
 20
207.1823883336
 11
500.8446690125
 21
206.8466825272
  0
LINE
  5
438
100
AcDbEntity
  8
BEZUGSACHSEN
100
AcDbLine
 62
7
  6
CONTINUOUS
 10
500.8446690125
 20
206.8466825272
 11
500.899023646
 21
206.6501555916
  0
LINE
  5
439
100
AcDbEntity
  8
BEZUGSACHSEN
100
AcDbLine
 62
7
  6
CONTINUOUS
 10
500.899023646
 20
206.6501555916
 11
501.3360186297
 21
205.0699120512
  0
LINE
  5
43A
100
AcDbEntity
  8
BEZUGSACHSEN
100
AcDbLine
 62
7
  6
CONTINUOUS
 10
501.5330088139
 20
204.3060325521
 11
501.3360186297
 21
205.0699120512
  0
LINE
  5
43B
100
AcDbEntity
  8
BEZUGSACHSEN
100
AcDbLine
 62
7
  6
CONTINUOUS
 10
501.6931263492
 20
203.6232632058
 11
501.5330088139
 21
204.3060325521
  0
LINE
  5
43C
100
AcDbEntity
  8
BEZUGSACHSEN
100
AcDbLine
 62
7
  6
CONTINUOUS
 10
501.8563902415
 20
202.8210523008
 11
501.7754336216
 21
203.2198360606
  0
LINE
  5
43D
100
AcDbEntity
  8
BEZUGSACHSEN
100
AcDbLine
 62
7
  6
CONTINUOUS
 10
501.7754336216
 20
203.2198360606
 11
501.6931263492
 21
203.6232632058
  0
LINE
  5
43E
100
AcDbEntity
  8
BEZUGSACHSEN
100
AcDbLine
 62
7
  6
CONTINUOUS
 10
501.9842847163
 20
201.5026028779
 11
501.9843292514
 21
201.5181834418
  0
LINE
  5
43F
100
AcDbEntity
  8
BEZUGSACHSEN
100
AcDbLine
 62
7
  6
CONTINUOUS
 10
501.5400475276
 20
201.1414342617
 11
501.4418174101
 21
201.4927163442
  0
LINE
  5
440
100
AcDbEntity
  8
BEZUGSACHSEN
100
AcDbLine
 62
7
  6
CONTINUOUS
 10
501.4418174101
 20
201.4927163442
 11
501.3431743292
 21
201.8454408661
  0
LINE
  5
441
100
AcDbEntity
  8
BEZUGSACHSEN
100
AcDbLine
 62
7
  6
CONTINUOUS
 10
501.6998085167
 20
200.4835115881
 11
501.5400475276
 21
201.1414342617
  0
LINE
  5
442
100
AcDbEntity
  8
BEZUGSACHSEN
100
AcDbLine
 62
7
  6
CONTINUOUS
 10
501.0868870602
 20
197.8762057881
 11
501.4415983461
 21
197.246080654
  0
SPLINE
  5
443
100
AcDbEntity
  8
BEZUGSACHSEN
100
AcDbSpline
 62
7
  6
CONTINUOUS
 70
0
 71
3
 72
8
 73
4
 74
0
 42
0.0000001
 43
0.0000001
 44
0.0000000001
 40
0.0
 40
0.0
 40
0.0
 40
0.0
 40
1.0
 40
1.0
 40
1.0
 40
1.0
 10
501.86226034
 20
199.6677260347
 30
0.0
 10
501.8219680247
 20
199.8711095559
 30
0.0
 10
501.7815226149
 20
200.0744628021
 30
0.0
 10
501.7409310256
 20
200.2777868052
 30
0.0
  0
LINE
  5
444
100
AcDbEntity
  8
BEZUGSACHSEN
100
AcDbLine
 62
7
  6
CONTINUOUS
 10
501.7409310256
 20
200.2777868052
 11
501.6998085167
 21
200.4835115881
  0
LINE
  5
445
100
AcDbEntity
  8
BEZUGSACHSEN
100
AcDbLine
 62
7
  6
CONTINUOUS
 10
501.0033120876
 20
198.4682902879
 11
500.8734851853
 21
199.0388409425
  0
LINE
  5
446
100
AcDbEntity
  8
BEZUGSACHSEN
100
AcDbLine
 62
7
  6
CONTINUOUS
 10
500.8734851853
 20
199.0388409425
 11
500.8421285653
 21
199.1763082579
  0
LINE
  5
447
100
AcDbEntity
  8
BEZUGSACHSEN
100
AcDbLine
 62
7
  6
CONTINUOUS
 10
501.946003483
 20
197.9969323426
 11
501.9566331566
 21
198.06432599
  0
LINE
  5
448
100
AcDbEntity
  8
BEZUGSACHSEN
100
AcDbLine
 62
7
  6
CONTINUOUS
 10
500.8421285653
 20
199.1763082579
 11
500.7232802502
 21
199.5882838418
  0
LINE
  5
449
100
AcDbEntity
  8
BEZUGSACHSEN
100
AcDbLine
 62
7
  6
CONTINUOUS
 10
500.5673992434
 20
200.0106113808
 11
500.7232802502
 21
199.5882838418
  0
LINE
  5
44A
100
AcDbEntity
  8
BEZUGSACHSEN
100
AcDbLine
 62
7
  6
CONTINUOUS
 10
500.4523463409
 20
200.2321266619
 11
500.5673992434
 21
200.0106113808
  0
LINE
  5
44B
100
AcDbEntity
  8
BEZUGSACHSEN
100
AcDbLine
 62
7
  6
CONTINUOUS
 10
501.9821679512
 20
193.2575281811
 11
501.1630256522
 21
195.4747465042
  0
LINE
  5
44C
100
AcDbEntity
  8
BEZUGSACHSEN
100
AcDbLine
 62
7
  6
CONTINUOUS
 10
500.9289562589
 20
196.1082373692
 11
500.3437363135
 21
197.6919648273
  0
LINE
  5
44D
100
AcDbEntity
  8
BEZUGSACHSEN
100
AcDbLine
 62
7
  6
CONTINUOUS
 10
500.3437363135
 20
197.6919648273
 11
500.3463799525
 21
197.9172029707
  0
LINE
  5
44E
100
AcDbEntity
  8
BEZUGSACHSEN
100
AcDbLine
 62
7
  6
CONTINUOUS
 10
501.3554437246
 20
199.477501529
 11
500.7612375002
 21
201.3814371141
  0
LINE
  5
44F
100
AcDbEntity
  8
BEZUGSACHSEN
100
AcDbLine
 62
7
  6
CONTINUOUS
 10
500.7612375002
 20
201.3814371141
 11
500.7556368787
 21
201.399381495
  0
LINE
  5
450
100
AcDbEntity
  8
BEZUGSACHSEN
100
AcDbLine
 62
7
  6
CONTINUOUS
 10
500.7556368787
 20
201.399381495
 11
500.2798169669
 21
202.9238506328
  0
LINE
  5
451
100
AcDbEntity
  8
BEZUGSACHSEN
100
AcDbLine
 62
7
  6
CONTINUOUS
 10
500.2798169669
 20
202.9238506328
 11
500.1458741912
 21
203.3529679387
  0
LINE
  5
452
100
AcDbEntity
  8
BEZUGSACHSEN
100
AcDbLine
 62
7
  6
CONTINUOUS
 10
501.3554437246
 20
199.477501529
 11
501.5127495821
 21
199.056372425
  0
LINE
  5
453
100
AcDbEntity
  8
BEZUGSACHSEN
100
AcDbLine
 62
7
  6
CONTINUOUS
 10
500.1351234845
 20
205.7209072758
 11
500.2705215781
 21
205.2866429734
  0
LINE
  5
454
100
AcDbEntity
  8
BEZUGSACHSEN
100
AcDbLine
 62
7
  6
CONTINUOUS
 10
500.2705215781
 20
205.2866429734
 11
501.3431743292
 21
201.8454408661
  0
LINE
  5
455
100
AcDbEntity
  8
BEZUGSACHSEN
100
AcDbLine
 62
7
  6
CONTINUOUS
 10
501.5127495821
 20
199.056372425
 11
501.6319934007
 21
198.839190263
  0
SPLINE
  5
456
100
AcDbEntity
  8
0
100
AcDbSpline
 62
7
  6
CONTINUOUS
 70
0
 71
3
 72
11
 73
7
 74
0
 42
0.0000001
 43
0.0000001
 44
0.0000000001
 40
0.0
 40
0.0
 40
0.0
 40
0.0
 40
0.2517094103
 40
0.5000000002
 40
0.7482905901
 40
1.0
 40
1.0
 40
1.0
 40
1.0
 10
497.4225172938
 20
221.5167574259
 30
0.0
 10
497.608516801
 20
220.7566401781
 30
0.0
 10
497.9001289853
 20
219.2257920168
 30
0.0
 10
498.0522620159
 20
216.8980948584
 30
0.0
 10
497.9001289897
 20
214.5703977006
 30
0.0
 10
497.6085168006
 20
213.0395495415
 30
0.0
 10
497.4225172938
 20
212.2794322951
 30
0.0
  0
SPLINE
  5
457
100
AcDbEntity
  8
0
100
AcDbSpline
 62
7
  6
CONTINUOUS
 70
0
 71
3
 72
9
 73
5
 74
0
 42
0.0000001
 43
0.0000001
 44
0.0000000001
 40
0.0
 40
0.0
 40
0.0
 40
0.0
 40
0.5000030521
 40
1.0
 40
1.0
 40
1.0
 40
1.0
 10
497.4225172938
 20
188.0958011376
 30
0.0
 10
497.6917567732
 20
184.5351848707
 30
0.0
 10
498.0555859608
 20
177.3991433303
 30
0.0
 10
498.0126948673
 20
170.2532854583
 30
0.0
 10
497.891162279
 20
166.6846167146
 30
0.0
  0
SPLINE
  5
458
100
AcDbEntity
  8
0
100
AcDbSpline
 62
7
  6
CONTINUOUS
 70
0
 71
3
 72
9
 73
5
 74
0
 42
0.0000001
 43
0.0000001
 44
0.0000000001
 40
0.0
 40
0.0
 40
0.0
 40
0.0
 40
0.5000000002
 40
1.0
 40
1.0
 40
1.0
 40
1.0
 10
497.4225172938
 20
212.2794322951
 30
0.0
 10
497.7980391329
 20
208.2617159364
 30
0.0
 10
498.2055262612
 20
200.1876167147
 30
0.0
 10
497.7980391326
 20
192.1135174931
 30
0.0
 10
497.4225172938
 20
188.0958011376
 30
0.0
  0
SPLINE
  5
459
100
AcDbEntity
  8
0
100
AcDbSpline
 62
7
  6
CONTINUOUS
 70
0
 71
3
 72
9
 73
5
 74
0
 42
0.0000001
 43
0.0000001
 44
0.0000000001
 40
0.0
 40
0.0
 40
0.0
 40
0.0
 40
0.5000000002
 40
1.0
 40
1.0
 40
1.0
 40
1.0
 10
486.7375620558
 20
212.2794322951
 30
0.0
 10
486.3620402167
 20
208.2617159364
 30
0.0
 10
485.9545530884
 20
200.1876167147
 30
0.0
 10
486.362040217
 20
192.1135174931
 30
0.0
 10
486.7375620558
 20
188.0958011376
 30
0.0
  0
SPLINE
  5
45A
100
AcDbEntity
  8
0
100
AcDbSpline
 62
7
  6
CONTINUOUS
 70
0
 71
3
 72
9
 73
5
 74
0
 42
0.0000001
 43
0.0000001
 44
0.0000000001
 40
0.0
 40
0.0
 40
0.0
 40
0.0
 40
0.5000030521
 40
1.0
 40
1.0
 40
1.0
 40
1.0
 10
486.7375620558
 20
188.0958011376
 30
0.0
 10
486.4683225764
 20
184.5351848707
 30
0.0
 10
486.1044933887
 20
177.3991433303
 30
0.0
 10
486.1473844823
 20
170.2532854583
 30
0.0
 10
486.2689170706
 20
166.6846167146
 30
0.0
  0
LINE
  5
45B
100
AcDbEntity
  8
BEZUGSACHSEN
100
AcDbLine
 62
7
  6
CONTINUOUS
 10
501.6253212872
 20
203.5466005913
 11
501.5054173618
 21
204.0885380999
  0
LINE
  5
45C
100
AcDbEntity
  8
BEZUGSACHSEN
100
AcDbLine
 62
7
  6
CONTINUOUS
 10
501.5054173618
 20
204.0885380999
 11
501.347840576
 21
204.71158586
  0
LINE
  5
45D
100
AcDbEntity
  8
BEZUGSACHSEN
100
AcDbLine
 62
7
  6
CONTINUOUS
 10
500.7628837055
 20
206.8240621424
 11
501.2025737332
 21
205.2362277021
  0
LINE
  5
45E
100
AcDbEntity
  8
BEZUGSACHSEN
100
AcDbLine
 62
7
  6
CONTINUOUS
 10
501.2025737332
 20
205.2362277021
 11
501.2548483296
 21
205.0474369316
  0
LINE
  5
45F
100
AcDbEntity
  8
BEZUGSACHSEN
100
AcDbLine
 62
7
  6
CONTINUOUS
 10
501.2548483296
 20
205.0474369316
 11
501.347840576
 21
204.71158586
  0
LINE
  5
460
100
AcDbEntity
  8
BEZUGSACHSEN
100
AcDbLine
 62
7
  6
CONTINUOUS
 10
500.6083303069
 20
207.3276682944
 11
500.6858207764
 21
207.075233792
  0
LINE
  5
461
100
AcDbEntity
  8
BEZUGSACHSEN
100
AcDbLine
 62
7
  6
CONTINUOUS
 10
500.6858207764
 20
207.075233792
 11
500.7628837055
 21
206.8240621424
  0
LINE
  5
462
100
AcDbEntity
  8
BEZUGSACHSEN
100
AcDbLine
 62
7
  6
CONTINUOUS
 10
500.4938638184
 20
207.6307216144
 11
500.5226639411
 21
207.5545914281
  0
LINE
  5
463
100
AcDbEntity
  8
BEZUGSACHSEN
100
AcDbLine
 62
7
  6
CONTINUOUS
 10
500.5226639411
 20
207.5545914281
 11
500.6083303069
 21
207.3276682944
  0
LINE
  5
464
100
AcDbEntity
  8
BEZUGSACHSEN
100
AcDbLine
 62
7
  6
CONTINUOUS
 10
500.4752561859
 20
207.6562782383
 11
500.4938638184
 21
207.6307216144
  0
LINE
  5
465
100
AcDbEntity
  8
RUNDUNGEN
100
AcDbLine
 62
7
  6
CONTINUOUS
 10
499.0504901389
 20
125.3456475336
 11
500.3781516019
 21
123.8456475336
  0
LINE
  5
466
100
AcDbEntity
  8
0
100
AcDbLine
 62
7
  6
CONTINUOUS
 10
485.1095892106
 20
125.3456475336
 11
483.7819277476
 21
123.8456475336
  0
LINE
  5
467
100
AcDbEntity
  8
KONSTRUKTIONSELEMENTE
100
AcDbLine
 62
7
  6
CONTINUOUS
 10
499.5083784886
 20
207.0468555054
 11
499.875239415
 21
205.7209076735
  0
LINE
  5
468
100
AcDbEntity
  8
BEZUGSACHSEN
100
AcDbLine
 62
7
  6
CONTINUOUS
 10
501.9612149119
 20
200.4277629828
 11
501.9283350759
 21
200.5466956349
  0
LINE
  5
469
100
AcDbEntity
  8
BEZUGSACHSEN
100
AcDbLine
 62
7
  6
CONTINUOUS
 10
501.9283350759
 20
200.5466956349
 11
501.7480058369
 21
201.19893124
  0
LINE
  5
46A
100
AcDbEntity
  8
BEZUGSACHSEN
100
AcDbLine
 62
7
  6
CONTINUOUS
 10
501.7480058369
 20
201.19893124
 11
501.6648039635
 21
201.4998379699
  0
LINE
  5
46B
100
AcDbEntity
  8
BEZUGSACHSEN
100
AcDbLine
 62
7
  6
CONTINUOUS
 10
501.6648039635
 20
201.4998379699
 11
501.636384418
 21
201.6026158699
  0
LINE
  5
46C
100
AcDbEntity
  8
BEZUGSACHSEN
100
AcDbLine
 62
7
  6
CONTINUOUS
 10
501.636384418
 20
201.6026158699
 11
501.5531787303
 21
201.9035142289
  0
LINE
  5
46D
100
AcDbEntity
  8
BEZUGSACHSEN
100
AcDbLine
 62
7
  6
CONTINUOUS
 10
501.5531787303
 20
201.9035142289
 11
500.2727705601
 21
206.5321244389
  0
LINE
  5
46E
100
AcDbEntity
  8
BEZUGSACHSEN
100
AcDbLine
 62
7
  6
CONTINUOUS
 10
500.2727705601
 20
206.5321244389
 11
500.1303333272
 21
207.0468555054
  0
LINE
  5
46F
100
AcDbEntity
  8
BEZUGSACHSEN
100
AcDbLine
 62
7
  6
CONTINUOUS
 10
501.6953343794
 20
196.1533272992
 11
501.9813994443
 21
195.6382841462
  0
LINE
  5
470
100
AcDbEntity
  8
KONSTRUKTIONSELEMENTE
100
AcDbLine
 62
7
  6
CONTINUOUS
 10
501.3546461079
 20
195.6382841462
 11
501.1684396254
 21
195.9734622755
  0
SPLINE
  5
471
100
AcDbEntity
  8
0
100
AcDbSpline
 62
7
  6
CONTINUOUS
 70
0
 71
3
 72
11
 73
7
 74
0
 42
0.0000001
 43
0.0000001
 44
0.0000000001
 40
0.0
 40
0.0
 40
0.0
 40
0.0
 40
0.2517094103
 40
0.5000000002
 40
0.7482905901
 40
1.0
 40
1.0
 40
1.0
 40
1.0
 10
486.7375620558
 20
221.5167574259
 30
0.0
 10
486.5515625486
 20
220.7566401781
 30
0.0
 10
486.2599503643
 20
219.2257920168
 30
0.0
 10
486.1078173336
 20
216.8980948584
 30
0.0
 10
486.2599503599
 20
214.5703977006
 30
0.0
 10
486.5515625489
 20
213.0395495415
 30
0.0
 10
486.7375620558
 20
212.2794322951
 30
0.0
  0
LINE
  5
472
100
AcDbEntity
  8
KONSTRUKTIONSELEMENTE
100
AcDbLine
 62
7
  6
CONTINUOUS
 10
501.2390168124
 20
197.9312370369
 11
501.1586026698
 21
198.0228669624
  0
LINE
  5
473
100
AcDbEntity
  8
KONSTRUKTIONSELEMENTE
100
AcDbLine
 62
7
  6
CONTINUOUS
 10
501.1586026698
 20
198.0228669624
 11
501.1178841552
 21
198.0690851919
  0
LINE
  5
474
100
AcDbEntity
  8
KONSTRUKTIONSELEMENTE
100
AcDbLine
 62
7
  6
CONTINUOUS
 10
501.1178841552
 20
198.0690851919
 11
501.0768243481
 21
198.115572251
  0
LINE
  5
475
100
AcDbEntity
  8
KONSTRUKTIONSELEMENTE
100
AcDbLine
 62
7
  6
CONTINUOUS
 10
501.0768243481
 20
198.115572251
 11
501.0430838849
 21
198.1879536288
  0
LINE
  5
476
100
AcDbEntity
  8
BEZUGSACHSEN
100
AcDbLine
 62
7
  6
CONTINUOUS
 10
501.5424950676
 20
198.4577697549
 11
501.7020101309
 21
198.115572251
  0
LINE
  5
477
100
AcDbEntity
  8
BEZUGSACHSEN
100
AcDbLine
 62
7
  6
CONTINUOUS
 10
501.9710250684
 20
192.6861467277
 11
501.7868241682
 21
193.1854598016
  0
LINE
  5
478
100
AcDbEntity
  8
BEZUGSACHSEN
100
AcDbLine
 62
7
  6
CONTINUOUS
 10
501.7868241682
 20
193.1854598016
 11
500.9685385675
 21
195.402961177
  0
LINE
  5
479
100
AcDbEntity
  8
BEZUGSACHSEN
100
AcDbLine
 62
7
  6
CONTINUOUS
 10
500.9685385675
 20
195.402961177
 11
500.7634812985
 21
195.9585147534
  0
LINE
  5
47A
100
AcDbEntity
  8
BEZUGSACHSEN
100
AcDbLine
 62
7
  6
CONTINUOUS
 10
500.7634812985
 20
195.9585147534
 11
500.7346863689
 21
196.0365237997
  0
LINE
  5
47B
100
AcDbEntity
  8
BEZUGSACHSEN
100
AcDbLine
 62
7
  6
CONTINUOUS
 10
500.7346863689
 20
196.0365237997
 11
500.1499613208
 21
197.6204249856
  0
LINE
  5
47C
100
AcDbEntity
  8
BEZUGSACHSEN
100
AcDbLine
 62
7
  6
CONTINUOUS
 10
500.1499613208
 20
197.6204249856
 11
500.1395985909
 21
197.648492428
  0
SPLINE
  5
47D
100
AcDbEntity
  8
KONSTRUKTIONSELEMENTE
100
AcDbSpline
 62
7
  6
CONTINUOUS
 70
0
 71
3
 72
8
 73
4
 74
0
 42
0.0000001
 43
0.0000001
 44
0.0000000001
 40
0.0
 40
0.0
 40
0.0
 40
0.0
 40
1.0
 40
1.0
 40
1.0
 40
1.0
 10
499.5103104358
 20
197.648492428
 30
0.0
 10
500.12090189
 20
195.9944617182
 30
0.0
 10
500.7313173488
 20
194.3403660033
 30
0.0
 10
501.3413977544
 20
192.6861467277
 30
0.0
  0
LINE
  5
47E
100
AcDbEntity
  8
BEZUGSACHSEN
100
AcDbLine
 62
7
  6
CONTINUOUS
 10
501.3457062662
 20
199.0039134357
 11
501.5424950676
 21
198.4577697549
  0
LINE
  5
47F
100
AcDbEntity
  8
KONSTRUKTIONSELEMENTE
100
AcDbLine
 62
7
  6
CONTINUOUS
 10
499.5121436657
 20
202.8793798454
 11
500.2954799809
 21
200.3669422606
  0
LINE
  5
480
100
AcDbEntity
  8
BEZUGSACHSEN
100
AcDbLine
 62
7
  6
CONTINUOUS
 10
501.3457062662
 20
199.0039134357
 11
501.212013035
 21
199.4327873234
  0
LINE
  5
481
100
AcDbEntity
  8
BEZUGSACHSEN
100
AcDbLine
 62
7
  6
CONTINUOUS
 10
501.212013035
 20
199.4327873234
 11
500.1373423149
 21
202.8793798454
  0
LINE
  5
482
100
AcDbEntity
  8
BEZUGSACHSEN
100
AcDbLine
 62
7
  6
CONTINUOUS
 10
500.3855372005
 20
199.6814482548
 11
500.4613932609
 21
199.6607452085
  0
LINE
  5
483
100
AcDbEntity
  8
BEZUGSACHSEN
100
AcDbLine
 62
7
  6
CONTINUOUS
 10
500.4613932609
 20
199.6607452085
 11
500.5027268128
 21
199.5816978391
  0
LINE
  5
484
100
AcDbEntity
  8
BEZUGSACHSEN
100
AcDbLine
 62
7
  6
CONTINUOUS
 10
500.5027268128
 20
199.5816978391
 11
500.5194270948
 21
199.5497504191
  0
LINE
  5
485
100
AcDbEntity
  8
BEZUGSACHSEN
100
AcDbLine
 62
7
  6
CONTINUOUS
 10
500.5194270948
 20
199.5497504191
 11
500.577178872
 21
199.4392299274
  0
LINE
  5
486
100
AcDbEntity
  8
BEZUGSACHSEN
100
AcDbLine
 62
7
  6
CONTINUOUS
 10
500.577178872
 20
199.4392299274
 11
500.6942147488
 21
199.1224841992
  0
LINE
  5
487
100
AcDbEntity
  8
BEZUGSACHSEN
100
AcDbLine
 62
7
  6
CONTINUOUS
 10
500.8125489402
 20
198.7105086153
 11
500.6942147488
 21
199.1224841992
  0
LINE
  5
488
100
AcDbEntity
  8
BEZUGSACHSEN
100
AcDbLine
 62
7
  6
CONTINUOUS
 10
500.8928846143
 20
198.3088844183
 11
500.8125489402
 21
198.7105086153
  0
LINE
  5
489
100
AcDbEntity
  8
BEZUGSACHSEN
100
AcDbLine
 62
7
  6
CONTINUOUS
 10
500.1443936188
 20
205.2473194084
 11
501.2181566187
 21
201.8064317002
  0
LINE
  5
48A
100
AcDbEntity
  8
BEZUGSACHSEN
100
AcDbLine
 62
7
  6
CONTINUOUS
 10
501.2181566187
 20
201.8064317002
 11
501.3537537578
 21
201.3718529987
  0
LINE
  5
48B
100
AcDbEntity
  8
KONSTRUKTIONSELEMENTE
100
AcDbLine
 62
7
  6
CONTINUOUS
 10
500.1152734299
 20
203.3434176952
 11
499.5210670139
 21
205.2473194084
  0
LINE
  5
48C
100
AcDbEntity
  8
BEZUGSACHSEN
100
AcDbLine
 62
7
  6
CONTINUOUS
 10
501.511171413
 20
200.7928614228
 11
501.393238675
 21
201.226648687
  0
LINE
  5
48D
100
AcDbEntity
  8
BEZUGSACHSEN
100
AcDbLine
 62
7
  6
CONTINUOUS
 10
501.393238675
 20
201.226648687
 11
501.3537537578
 21
201.3718529987
  0
LINE
  5
48E
100
AcDbEntity
  8
BEZUGSACHSEN
100
AcDbLine
 62
7
  6
CONTINUOUS
 10
501.6306835379
 20
200.2599538653
 11
501.511171413
 21
200.7928614228
  0
LINE
  5
48F
100
AcDbEntity
  8
BEZUGSACHSEN
100
AcDbLine
 62
7
  6
CONTINUOUS
 10
501.7431361315
 20
198.9689854133
 11
501.7531201518
 21
199.0166639674
  0
SPLINE
  5
490
100
AcDbEntity
  8
KONSTRUKTIONSELEMENTE
100
AcDbSpline
 62
7
  6
CONTINUOUS
 70
0
 71
3
 72
11
 73
7
 74
0
 42
0.0000001
 43
0.0000001
 44
0.0000000001
 40
0.0
 40
0.0
 40
0.0
 40
0.0
 40
0.3114703232
 40
0.4450990083
 40
0.6063354134
 40
1.0
 40
1.0
 40
1.0
 40
1.0
 10
118.9119264283
 20
135.6692643706
 30
0.0
 10
118.9119264283
 20
135.866419217
 30
0.0
 10
118.7732158927
 20
136.141514104
 30
0.0
 10
118.5218480462
 20
136.4278660984
 30
0.0
 10
118.1934793718
 20
136.7176461046
 30
0.0
 10
117.8886772899
 20
136.8990285349
 30
0.0
 10
117.6639183166
 20
137.0066166659
 30
0.0
  0
SPLINE
  5
491
100
AcDbEntity
  8
KONSTRUKTIONSELEMENTE
100
AcDbSpline
 62
7
  6
CONTINUOUS
 70
0
 71
3
 72
11
 73
7
 74
0
 42
0.0000001
 43
0.0000001
 44
0.0000000001
 40
0.0
 40
0.0
 40
0.0
 40
0.0
 40
0.3936803283
 40
0.5549226436
 40
0.6885473432
 40
1.0
 40
1.0
 40
1.0
 40
1.0
 10
113.1601771928
 20
137.0067285939
 30
0.0
 10
112.9353692868
 20
136.8991386933
 30
0.0
 10
112.6305023782
 20
136.7177355756
 30
0.0
 10
112.3020745783
 20
136.4279163044
 30
0.0
 10
112.0506312015
 20
136.1415711581
 30
0.0
 10
111.9119264283
 20
135.8664356744
 30
0.0
 10
111.9119264283
 20
135.6692643706
 30
0.0
  0
SPLINE
  5
492
100
AcDbEntity
  8
KONSTRUKTIONSELEMENTE
100
AcDbSpline
 62
7
  6
CONTINUOUS
 70
0
 71
3
 72
13
 73
9
 74
0
 42
0.0000001
 43
0.0000001
 44
0.0000000001
 40
0.0
 40
0.0
 40
0.0
 40
0.0
 40
0.1197290731
 40
0.2397365246
 40
0.3609040964
 40
0.4836831257
 40
0.7359942557
 40
1.0
 40
1.0
 40
1.0
 40
1.0
 10
107.4119264283
 20
125.0626626528
 30
0.0
 10
107.4119264283
 20
124.7134489507
 30
0.0
 10
107.4840300501
 20
124.0121079147
 30
0.0
 10
107.8023153849
 20
123.0018896665
 30
0.0
 10
108.3116989265
 20
122.0633114479
 30
0.0
 10
109.2234994551
 20
120.9305369412
 30
0.0
 10
110.7393907207
 20
119.7933935251
 30
0.0
 10
112.1622775707
 20
119.2468478011
 30
0.0
 10
112.9085020924
 20
119.0568793105
 30
0.0
  0
SPLINE
  5
493
100
AcDbEntity
  8
KONSTRUKTIONSELEMENTE
100
AcDbSpline
 62
7
  6
CONTINUOUS
 70
0
 71
3
 72
13
 73
9
 74
0
 42
0.0000001
 43
0.0000001
 44
0.0000000001
 40
0.0
 40
0.0
 40
0.0
 40
0.0
 40
0.2640112835
 40
0.5163080567
 40
0.6390830379
 40
0.7602378991
 40
0.8802701562
 40
1.0
 40
1.0
 40
1.0
 40
1.0
 10
117.9162542308
 20
119.0571265001
 30
0.0
 10
118.6623940531
 20
119.2471611014
 30
0.0
 10
120.0850704945
 20
119.7937277326
 30
0.0
 10
121.6006605616
 20
120.9308730735
 30
0.0
 10
122.512250839
 20
122.0634885821
 30
0.0
 10
123.0216417549
 20
123.0019658687
 30
0.0
 10
123.3397784739
 20
124.0121539718
 30
0.0
 10
123.4119264283
 20
124.7134838553
 30
0.0
 10
123.4119264283
 20
125.0626626528
 30
0.0
  0
SPLINE
  5
494
100
AcDbEntity
  8
KONSTRUKTIONSELEMENTE
100
AcDbSpline
 62
7
  6
CONTINUOUS
 70
0
 71
3
 72
12
 73
8
 74
0
 42
0.0000001
 43
0.0000001
 44
0.0000000001
 40
0.0
 40
0.0
 40
0.0
 40
0.0
 40
0.1282453638
 40
0.2146169864
 40
0.321985829
 40
0.6101725692
 40
1.0
 40
1.0
 40
1.0
 40
1.0
 10
111.9119264283
 20
125.0626626528
 30
0.0
 10
111.9119264283
 20
124.993399643
 30
0.0
 10
111.931589414
 20
124.8768557933
 30
0.0
 10
111.9982793077
 20
124.7158322694
 30
0.0
 10
112.1294441985
 20
124.4900210954
 30
0.0
 10
112.4207386589
 20
124.1750466521
 30
0.0
 10
112.7230360623
 20
123.96367941
 30
0.0
 10
112.9055723633
 20
123.8587648135
 30
0.0
  0
SPLINE
  5
495
100
AcDbEntity
  8
KONSTRUKTIONSELEMENTE
100
AcDbSpline
 62
7
  6
CONTINUOUS
 70
0
 71
3
 72
12
 73
8
 74
0
 42
0.0000001
 43
0.0000001
 44
0.0000000001
 40
0.0
 40
0.0
 40
0.0
 40
0.0
 40
0.3898396094
 40
0.6780156338
 40
0.7853729626
 40
0.8717632718
 40
1.0
 40
1.0
 40
1.0
 40
1.0
 10
117.9183720294
 20
123.8588172846
 30
0.0
 10
118.1008992728
 20
123.9637326942
 30
0.0
 10
118.4031470365
 20
124.1751220319
 30
0.0
 10
118.6944520127
 20
124.4900399495
 30
0.0
 10
118.825590171
 20
124.7158484114
 30
0.0
 10
118.8922359781
 20
124.8768741458
 30
0.0
 10
118.9119264283
 20
124.9934089204
 30
0.0
 10
118.9119264283
 20
125.0626626528
 30
0.0
  0
SPLINE
  5
496
100
AcDbEntity
  8
KONSTRUKTIONSELEMENTE
100
AcDbSpline
 62
7
  6
CONTINUOUS
 70
0
 71
3
 72
11
 73
7
 74
0
 42
0.0000001
 43
0.0000001
 44
0.0000000001
 40
0.0
 40
0.0
 40
0.0
 40
0.0
 40
0.1569742783
 40
0.3613904432
 40
0.6372953888
 40
1.0
 40
1.0
 40
1.0
 40
1.0
 10
118.9119264283
 20
166.7819627428
 30
0.0
 10
118.9119264283
 20
166.8272514263
 30
0.0
 10
118.9010418037
 20
166.9318738274
 30
0.0
 10
118.8397809711
 20
167.1067496644
 30
0.0
 10
118.7164825458
 20
167.3178881234
 30
0.0
 10
118.5954338443
 20
167.4583170272
 30
0.0
 10
118.521564193
 20
167.5324361113
 30
0.0
  0
SPLINE
  5
497
100
AcDbEntity
  8
KONSTRUKTIONSELEMENTE
100
AcDbSpline
 62
7
  6
CONTINUOUS
 70
0
 71
3
 72
11
 73
7
 74
0
 42
0.0000001
 43
0.0000001
 44
0.0000000001
 40
0.0
 40
0.0
 40
0.0
 40
0.0
 40
0.3626955022
 40
0.6385855328
 40
0.8430590503
 40
1.0
 40
1.0
 40
1.0
 40
1.0
 10
112.3022367084
 20
167.5323728764
 30
0.0
 10
112.2283749802
 20
167.4582638379
 30
0.0
 10
112.107324295
 20
167.3178682784
 30
0.0
 10
111.9840592789
 20
167.1067215469
 30
0.0
 10
111.9228342357
 20
166.931853541
 30
0.0
 10
111.9119264283
 20
166.8272374488
 30
0.0
 10
111.9119264283
 20
166.7819627428
 30
0.0
  0
SPLINE
  5
498
100
AcDbEntity
  8
KONSTRUKTIONSELEMENTE
100
AcDbSpline
 62
7
  6
CONTINUOUS
 70
0
 71
3
 72
9
 73
5
 74
0
 42
0.0000001
 43
0.0000001
 44
0.0000000001
 40
0.0
 40
0.0
 40
0.0
 40
0.0
 40
0.4984004057
 40
1.0
 40
1.0
 40
1.0
 40
1.0
 10
123.4119264283
 20
166.7819627428
 30
0.0
 10
123.4119264283
 20
167.2354807747
 30
0.0
 10
123.2894901032
 20
168.1495195618
 30
0.0
 10
122.9349883387
 20
168.9991600577
 30
0.0
 10
122.7106623947
 20
169.3966590093
 30
0.0
  0
SPLINE
  5
499
100
AcDbEntity
  8
KONSTRUKTIONSELEMENTE
100
AcDbSpline
 62
7
  6
CONTINUOUS
 70
0
 71
3
 72
9
 73
5
 74
0
 42
0.0000001
 43
0.0000001
 44
0.0000000001
 40
0.0
 40
0.0
 40
0.0
 40
0.0
 40
0.5015982698
 40
1.0
 40
1.0
 40
1.0
 40
1.0
 10
108.1132879963
 20
169.3969310858
 30
0.0
 10
107.8889008035
 20
168.9994130812
 30
0.0
 10
107.5344370314
 20
168.1496475665
 30
0.0
 10
107.4119264283
 20
167.2355295776
 30
0.0
 10
107.4119264283
 20
166.7819627428
 30
0.0
  0
SPLINE
  5
49A
100
AcDbEntity
  8
KONSTRUKTIONSELEMENTE
100
AcDbSpline
 62
7
  6
CONTINUOUS
 70
0
 71
3
 72
11
 73
7
 74
0
 42
0.0000001
 43
0.0000001
 44
0.0000000001
 40
0.0
 40
0.0
 40
0.0
 40
0.0
 40
0.3114703232
 40
0.4450990083
 40
0.6063354134
 40
1.0
 40
1.0
 40
1.0
 40
1.0
 10
111.9119264283
 20
156.175361025
 30
0.0
 10
111.9119264283
 20
155.9782061785
 30
0.0
 10
112.0506369639
 20
155.7031112916
 30
0.0
 10
112.3020048104
 20
155.4167592972
 30
0.0
 10
112.6303734848
 20
155.126979291
 30
0.0
 10
112.9351755667
 20
154.9455968607
 30
0.0
 10
113.15993454
 20
154.8380087297
 30
0.0
  0
SPLINE
  5
49B
100
AcDbEntity
  8
KONSTRUKTIONSELEMENTE
100
AcDbSpline
 62
7
  6
CONTINUOUS
 70
0
 71
3
 72
11
 73
7
 74
0
 42
0.0000001
 43
0.0000001
 44
0.0000000001
 40
0.0
 40
0.0
 40
0.0
 40
0.0
 40
0.3936803283
 40
0.5549226436
 40
0.6885473432
 40
1.0
 40
1.0
 40
1.0
 40
1.0
 10
117.6636756638
 20
154.8378968016
 30
0.0
 10
117.8884835698
 20
154.9454867023
 30
0.0
 10
118.1933504784
 20
155.12688982
 30
0.0
 10
118.5217782783
 20
155.4167090912
 30
0.0
 10
118.7732216551
 20
155.7030542374
 30
0.0
 10
118.9119264283
 20
155.9781897211
 30
0.0
 10
118.9119264283
 20
156.175361025
 30
0.0
  0
SPLINE
  5
49C
100
AcDbEntity
  8
KONSTRUKTIONSELEMENTE
100
AcDbSpline
 62
7
  6
CONTINUOUS
 70
0
 71
3
 72
9
 73
5
 74
0
 42
0.0000001
 43
0.0000001
 44
0.0000000001
 40
0.0
 40
0.0
 40
0.0
 40
0.0
 40
0.2415334731
 40
1.0
 40
1.0
 40
1.0
 40
1.0
 10
99.7531457669
 20
185.5737115421
 30
0.0
 10
99.9522794139
 20
185.4082937944
 30
0.0
 10
100.7929458559
 20
184.7430622673
 30
0.0
 10
101.6944683338
 20
184.1557475991
 30
0.0
 10
102.4008314077
 20
183.7533746415
 30
0.0
  0
SPLINE
  5
49D
100
AcDbEntity
  8
KONSTRUKTIONSELEMENTE
100
AcDbSpline
 62
7
  6
CONTINUOUS
 70
0
 71
3
 72
9
 73
5
 74
0
 42
0.0000001
 43
0.0000001
 44
0.0000000001
 40
0.0
 40
0.0
 40
0.0
 40
0.0
 40
0.2585096799
 40
1.0
 40
1.0
 40
1.0
 40
1.0
 10
128.4224779248
 20
183.7530590806
 30
0.0
 10
128.6631576726
 20
183.8901504696
 30
0.0
 10
129.5831974731
 20
184.4393598964
 30
0.0
 10
130.4583197256
 20
185.0650894895
 30
0.0
 10
131.0694950043
 20
185.5727013096
 30
0.0
  0
SPLINE
  5
49E
100
AcDbEntity
  8
KONSTRUKTIONSELEMENTE
100
AcDbSpline
 62
7
  6
CONTINUOUS
 70
0
 71
3
 72
9
 73
5
 74
0
 42
0.0000001
 43
0.0000001
 44
0.0000000001
 40
0.0
 40
0.0
 40
0.0
 40
0.0
 40
0.2436925527
 40
1.0
 40
1.0
 40
1.0
 40
1.0
 10
96.3990217694
 20
179.3148202033
 30
0.0
 10
96.904891507
 20
178.9428231604
 30
0.0
 10
99.0386676858
 20
177.4957178301
 30
0.0
 10
101.3808168582
 20
176.364156493
 30
0.0
 10
103.2062910193
 20
175.6819763664
 30
0.0
  0
SPLINE
  5
49F
100
AcDbEntity
  8
KONSTRUKTIONSELEMENTE
100
AcDbSpline
 62
7
  6
CONTINUOUS
 70
0
 71
3
 72
9
 73
5
 74
0
 42
0.0000001
 43
0.0000001
 44
0.0000000001
 40
0.0
 40
0.0
 40
0.0
 40
0.0
 40
0.2566973869
 40
1.0
 40
1.0
 40
1.0
 40
1.0
 10
127.6245839092
 20
175.6846039059
 30
0.0
 10
128.2437178567
 20
175.9161341679
 30
0.0
 10
130.6261256831
 20
176.8935434921
 30
0.0
 10
132.8855439418
 20
178.1825952912
 30
0.0
 10
134.4274040087
 20
179.3167152626
 30
0.0
  0
SPLINE
  5
4A0
100
AcDbEntity
  8
KONSTRUKTIONSELEMENTE
100
AcDbSpline
 62
7
  6
CONTINUOUS
 70
0
 71
3
 72
13
 73
9
 74
0
 42
0.0000001
 43
0.0000001
 44
0.0000000001
 40
0.0
 40
0.0
 40
0.0
 40
0.0
 40
0.1037033436
 40
0.212323527
 40
0.3277710209
 40
0.4507608463
 40
0.7166544849
 40
1.0
 40
1.0
 40
1.0
 40
1.0
 10
108.0837612627
 20
24.5707091196
 30
0.0
 10
108.0358816682
 20
24.8454150471
 30
0.0
 10
107.8645278813
 20
25.3972067586
 30
0.0
 10
107.4089350801
 20
26.1597564886
 30
0.0
 10
106.7697627454
 20
26.8481794712
 30
0.0
 10
105.6750155532
 20
27.6592290361
 30
0.0
 10
103.9771080698
 20
28.3578481096
 30
0.0
 10
102.4938124169
 20
28.5425870208
 30
0.0
 10
101.7319264283
 20
28.5425870208
 30
0.0
  0
SPLINE
  5
4A1
100
AcDbEntity
  8
KONSTRUKTIONSELEMENTE
100
AcDbSpline
 62
7
  6
CONTINUOUS
 70
0
 71
3
 72
9
 73
5
 74
0
 42
0.0000001
 43
0.0000001
 44
0.0000000001
 40
0.0
 40
0.0
 40
0.0
 40
0.0
 40
0.4912805509
 40
1.0
 40
1.0
 40
1.0
 40
1.0
 10
80.0232329255
 20
81.4678009207
 30
0.0
 10
80.0232370786
 20
81.5792688099
 30
0.0
 10
79.9908580358
 20
81.807189839
 30
0.0
 10
79.8988874389
 20
82.0176413739
 30
0.0
 10
79.8405461138
 20
82.1172362457
 30
0.0
  0
SPLINE
  5
4A2
100
AcDbEntity
  8
KONSTRUKTIONSELEMENTE
100
AcDbSpline
 62
7
  6
CONTINUOUS
 70
0
 71
3
 72
11
 73
7
 74
0
 42
0.0000001
 43
0.0000001
 44
0.0000000001
 40
0.0
 40
0.0
 40
0.0
 40
0.0
 40
0.2187337062
 40
0.4541366386
 40
0.7148275965
 40
1.0
 40
1.0
 40
1.0
 40
1.0
 10
68.4444947777
 20
81.2276146389
 30
0.0
 10
68.4445010285
 20
81.3953823638
 30
0.0
 10
68.5213964425
 20
81.7470384482
 30
0.0
 10
68.8410518119
 20
82.2059816289
 30
0.0
 10
69.3249479596
 20
82.5724807984
 30
0.0
 10
69.7161447118
 20
82.7340097033
 30
0.0
 10
69.9260522297
 20
82.7954901919
 30
0.0
  0
SPLINE
  5
4A3
100
AcDbEntity
  8
KONSTRUKTIONSELEMENTE
100
AcDbSpline
 62
7
  6
CONTINUOUS
 70
0
 71
3
 72
12
 73
8
 74
0
 42
0.0000001
 43
0.0000001
 44
0.0000000001
 40
0.0
 40
0.0
 40
0.0
 40
0.0
 40
0.1086802535
 40
0.2196404807
 40
0.4547579712
 40
0.715164231
 40
1.0
 40
1.0
 40
1.0
 40
1.0
 10
58.8644297931
 20
98.935221348
 30
0.0
 10
58.8644490154
 20
99.2133937752
 30
0.0
 10
58.9239754525
 20
99.7772911167
 30
0.0
 10
59.2814408107
 20
100.8923310925
 30
0.0
 10
60.1862247282
 20
102.1983550497
 30
0.0
 10
61.7993854488
 20
103.4173833848
 30
0.0
 10
63.1033047633
 20
103.956468997
 30
0.0
 10
63.8029626884
 20
104.1613940588
 30
0.0
  0
SPLINE
  5
4A4
100
AcDbEntity
  8
KONSTRUKTIONSELEMENTE
100
AcDbSpline
 62
7
  6
CONTINUOUS
 70
0
 71
3
 72
9
 73
5
 74
0
 42
0.0000001
 43
0.0000001
 44
0.0000000001
 40
0.0
 40
0.0
 40
0.0
 40
0.0
 40
0.4910898138
 40
1.0
 40
1.0
 40
1.0
 40
1.0
 10
58.8644301576
 20
95.3996079407
 30
0.0
 10
58.8644109616
 20
95.0281858634
 30
0.0
 10
58.9720279774
 20
94.2683814561
 30
0.0
 10
59.2788463784
 20
93.5669372644
 30
0.0
 10
59.4733938872
 20
93.2348238928
 30
0.0
  0
SPLINE
  5
4A5
100
AcDbEntity
  8
KONSTRUKTIONSELEMENTE
100
AcDbSpline
 62
7
  6
CONTINUOUS
 70
0
 71
3
 72
9
 73
5
 74
0
 42
0.0000001
 43
0.0000001
 44
0.0000000001
 40
0.0
 40
0.0
 40
0.0
 40
0.0
 40
0.4910906792
 40
1.0
 40
1.0
 40
1.0
 40
1.0
 10
141.3514072697
 20
40.8979424922
 30
0.0
 10
141.3513816027
 20
41.2693781097
 30
0.0
 10
141.4589912402
 20
42.0292111148
 30
0.0
 10
141.7658174362
 20
42.7306817124
 30
0.0
 10
141.9603713637
 20
43.0628060415
 30
0.0
  0
SPLINE
  5
4A6
100
AcDbEntity
  8
KONSTRUKTIONSELEMENTE
100
AcDbSpline
 62
7
  6
CONTINUOUS
 70
0
 71
3
 72
11
 73
7
 74
0
 42
0.0000001
 43
0.0000001
 44
0.0000000001
 40
0.0
 40
0.0
 40
0.0
 40
0.0
 40
0.2239782306
 40
0.4651644091
 40
0.7245589301
 40
1.0
 40
1.0
 40
1.0
 40
1.0
 10
141.7525006067
 20
42.66491409
 30
0.0
 10
141.9372433072
 20
42.267999015
 30
0.0
 10
142.4412827221
 20
41.4965358615
 30
0.0
 10
143.485500881
 20
40.523594349
 30
0.0
 10
144.7909120736
 20
39.7332075737
 30
0.0
 10
145.7732509622
 20
39.3586384511
 30
0.0
 10
146.2899401649
 20
39.2073036874
 30
0.0
  0
SPLINE
  5
4A7
100
AcDbEntity
  8
KONSTRUKTIONSELEMENTE
100
AcDbSpline
 62
7
  6
CONTINUOUS
 70
0
 71
3
 72
12
 73
8
 74
0
 42
0.0000001
 43
0.0000001
 44
0.0000000001
 40
0.0
 40
0.0
 40
0.0
 40
0.0
 40
0.1035616361
 40
0.2109621259
 40
0.4456948874
 40
0.7125484092
 40
1.0
 40
1.0
 40
1.0
 40
1.0
 10
104.9319264283
 20
8.1779117226
 30
0.0
 10
104.9319264283
 20
8.0665210702
 30
0.0
 10
104.9643597254
 20
7.8384666393
 30
0.0
 10
105.1581489839
 20
7.3945584979
 30
0.0
 10
105.6371650454
 20
6.9153725627
 30
0.0
 10
106.4227996966
 20
6.5621782868
 30
0.0
 10
107.0227441728
 20
6.4808554478
 30
0.0
 10
107.3319264283
 20
6.4808554478
 30
0.0
  0
SPLINE
  5
4A8
100
AcDbEntity
  8
KONSTRUKTIONSELEMENTE
100
AcDbSpline
 62
7
  6
CONTINUOUS
 70
0
 71
3
 72
11
 73
7
 74
0
 42
0.0000001
 43
0.0000001
 44
0.0000000001
 40
0.0
 40
0.0
 40
0.0
 40
0.0
 40
0.2187543732
 40
0.4541413795
 40
0.7148423965
 40
1.0
 40
1.0
 40
1.0
 40
1.0
 10
155.7454248844
 20
36.0598774157
 30
0.0
 10
155.7454214558
 20
36.1158056224
 30
0.0
 10
155.7197979589
 20
36.2330278468
 30
0.0
 10
155.6132385694
 20
36.3860128719
 30
0.0
 10
155.4519330183
 20
36.5081621072
 30
0.0
 10
155.3215376069
 20
36.5620100415
 30
0.0
 10
155.2515716303
 20
36.5825026017
 30
0.0
  0
SPLINE
  5
4A9
100
AcDbEntity
  8
KONSTRUKTIONSELEMENTE
100
AcDbSpline
 62
7
  6
CONTINUOUS
 70
0
 71
3
 72
9
 73
5
 74
0
 42
0.0000001
 43
0.0000001
 44
0.0000000001
 40
0.0
 40
0.0
 40
0.0
 40
0.0
 40
0.5089312496
 40
1.0
 40
1.0
 40
1.0
 40
1.0
 10
188.4422303208
 20
88.2287599664
 30
0.0
 10
188.6368130809
 20
88.5609335156
 30
0.0
 10
188.9436838173
 20
89.2624852424
 30
0.0
 10
189.0512002871
 20
90.0224069593
 30
0.0
 10
189.05118678
 20
90.393865029
 30
0.0
  0
SPLINE
  5
4AA
100
AcDbEntity
  8
KONSTRUKTIONSELEMENTE
100
AcDbSpline
 62
7
  6
CONTINUOUS
 70
0
 71
3
 72
10
 73
6
 74
0
 42
0.0000001
 43
0.0000001
 44
0.0000000001
 40
0.0
 40
0.0
 40
0.0
 40
0.0
 40
0.2691668134
 40
0.5383336268
 40
1.0
 40
1.0
 40
1.0
 40
1.0
 10
186.5550763977
 20
86.4853939592
 30
0.0
 10
186.6539749842
 20
86.4564272338
 30
0.0
 10
186.8622875936
 20
86.4288530112
 30
0.0
 10
187.2413365687
 20
86.4777977767
 30
0.0
 10
187.5109866023
 20
86.6390274996
 30
0.0
 10
187.6003267696
 20
86.7915407051
 30
0.0
  0
SPLINE
  5
4AB
100
AcDbEntity
  8
KONSTRUKTIONSELEMENTE
100
AcDbSpline
 62
7
  6
CONTINUOUS
 70
0
 71
3
 72
9
 73
5
 74
0
 42
0.0000001
 43
0.0000001
 44
0.0000000001
 40
0.0
 40
0.0
 40
0.0
 40
0.0
 40
0.2586509047
 40
1.0
 40
1.0
 40
1.0
 40
1.0
 10
155.6845285104
 20
32.3078650697
 30
0.0
 10
155.69439295
 20
32.3247047215
 30
0.0
 10
155.7286867515
 20
32.3919534883
 30
0.0
 10
155.7454283136
 20
32.4684059603
 30
0.0
 10
155.7454248844
 20
32.5243435098
 30
0.0
  0
SPLINE
  5
4AC
100
AcDbEntity
  8
KONSTRUKTIONSELEMENTE
100
AcDbSpline
 62
7
  6
CONTINUOUS
 70
0
 71
3
 72
11
 73
7
 74
0
 42
0.0000001
 43
0.0000001
 44
0.0000000001
 40
0.0
 40
0.0
 40
0.0
 40
0.0
 40
0.2745288198
 40
0.5376308219
 40
0.7805434542
 40
1.0
 40
1.0
 40
1.0
 40
1.0
 10
149.4698078679
 20
28.5425870208
 30
0.0
 10
150.0535621354
 20
28.5425870208
 30
0.0
 10
151.2005191073
 20
28.6599937502
 30
0.0
 10
152.7911903887
 20
29.1800367746
 30
0.0
 10
154.1152807612
 20
30.0033880989
 30
0.0
 10
154.777217399
 20
30.7589881188
 30
0.0
 10
155.013085063
 20
31.1616394075
 30
0.0
  0
SPLINE
  5
4AD
100
AcDbEntity
  8
KONSTRUKTIONSELEMENTE
100
AcDbSpline
 62
7
  6
CONTINUOUS
 70
0
 71
3
 72
13
 73
9
 74
0
 42
0.0000001
 43
0.0000001
 44
0.0000000001
 40
0.0
 40
0.0
 40
0.0
 40
0.0
 40
0.2870570185
 40
0.5535684049
 40
0.675502601
 40
0.7893257806
 40
0.8965530995
 40
1.0
 40
1.0
 40
1.0
 40
1.0
 10
129.0919264283
 20
28.5425870208
 30
0.0
 10
128.2674783067
 20
28.5425870208
 30
0.0
 10
126.6694841674
 20
28.3279160752
 30
0.0
 10
124.8670591451
 20
27.5129642374
 30
0.0
 10
123.7608358527
 20
26.5733974032
 30
0.0
 10
123.155448305
 20
25.7853326844
 30
0.0
 10
122.778210088
 20
24.9223530924
 30
0.0
 10
122.6919264283
 20
24.3142104582
 30
0.0
 10
122.6919264283
 20
24.0171036212
 30
0.0
  0
SPLINE
  5
4AE
100
AcDbEntity
  8
KONSTRUKTIONSELEMENTE
100
AcDbSpline
 62
7
  6
CONTINUOUS
 70
0
 71
3
 72
12
 73
8
 74
0
 42
0.0000001
 43
0.0000001
 44
0.0000000001
 40
0.0
 40
0.0
 40
0.0
 40
0.0
 40
0.1086815995
 40
0.219641649
 40
0.4547639717
 40
0.7151805887
 40
1.0
 40
1.0
 40
1.0
 40
1.0
 10
189.05118678
 20
93.9293989349
 30
0.0
 10
189.0511766652
 20
94.2075665203
 30
0.0
 10
188.9916206846
 20
94.7714499257
 30
0.0
 10
188.6341142688
 20
95.8864551971
 30
0.0
 10
187.7292553847
 20
97.192415572
 30
0.0
 10
186.1161310656
 20
98.4113777085
 30
0.0
 10
184.8122584215
 20
98.950422944
 30
0.0
 10
184.1126615197
 20
99.1553301324
 30
0.0
  0
SPLINE
  5
4AF
100
AcDbEntity
  8
KONSTRUKTIONSELEMENTE
100
AcDbSpline
 62
7
  6
CONTINUOUS
 70
0
 71
3
 72
9
 73
5
 74
0
 42
0.0000001
 43
0.0000001
 44
0.0000000001
 40
0.0
 40
0.0
 40
0.0
 40
0.0
 40
0.2578752243
 40
1.0
 40
1.0
 40
1.0
 40
1.0
 10
77.3170884898
 20
84.9602745924
 30
0.0
 10
77.3787868481
 20
84.9783456232
 30
0.0
 10
77.6156666533
 20
85.0560746768
 30
0.0
 10
77.8429501418
 20
85.1646805634
 30
0.0
 10
77.9992814381
 20
85.2636353573
 30
0.0
  0
SPLINE
  5
4B0
100
AcDbEntity
  8
KONSTRUKTIONSELEMENTE
100
AcDbSpline
 62
7
  6
CONTINUOUS
 70
0
 71
3
 72
12
 73
8
 74
0
 42
0.0000001
 43
0.0000001
 44
0.0000000001
 40
0.0
 40
0.0
 40
0.0
 40
0.0
 40
0.2874515908
 40
0.5543051126
 40
0.7890378741
 40
0.8964383639
 40
1.0
 40
1.0
 40
1.0
 40
1.0
 10
123.4919264283
 20
6.4808554478
 30
0.0
 10
123.8011086838
 20
6.4808554478
 30
0.0
 10
124.40105316
 20
6.5621782868
 30
0.0
 10
125.1866878112
 20
6.9153725627
 30
0.0
 10
125.6657038727
 20
7.3945584979
 30
0.0
 10
125.8594931312
 20
7.8384666393
 30
0.0
 10
125.8919264283
 20
8.0665210702
 30
0.0
 10
125.8919264283
 20
8.1779117226
 30
0.0
  0
SPLINE
  5
4B1
100
AcDbEntity
  8
KONSTRUKTIONSELEMENTE
100
AcDbSpline
 62
7
  6
CONTINUOUS
 70
0
 71
3
 72
11
 73
7
 74
0
 42
0.0000001
 43
0.0000001
 44
0.0000000001
 40
0.0
 40
0.0
 40
0.0
 40
0.0
 40
0.2809363762
 40
0.5390132064
 40
0.7759685789
 40
1.0
 40
1.0
 40
1.0
 40
1.0
 10
128.8869546423
 20
28.4145876539
 30
0.0
 10
128.4482454923
 20
28.219670867
 30
0.0
 10
127.6399061317
 20
27.760228348
 30
0.0
 10
126.6652978031
 20
26.8392233018
 30
0.0
 10
126.0386901112
 20
25.7594485625
 30
0.0
 10
125.8919264283
 20
24.9656112405
 30
0.0
 10
125.8919264283
 20
24.5827890462
 30
0.0
  0
SPLINE
  5
4B2
100
AcDbEntity
  8
KONSTRUKTIONSELEMENTE
100
AcDbSpline
 62
7
  6
CONTINUOUS
 70
0
 71
3
 72
11
 73
7
 74
0
 42
0.0000001
 43
0.0000001
 44
0.0000000001
 40
0.0
 40
0.0
 40
0.0
 40
0.0
 40
0.2764757917
 40
0.5326342242
 40
0.7713875913
 40
1.0
 40
1.0
 40
1.0
 40
1.0
 10
102.6336471631
 20
28.4956982112
 30
0.0
 10
102.978720287
 20
28.2919704209
 30
0.0
 10
103.6094493809
 20
27.8357510528
 30
0.0
 10
104.3540357118
 20
26.9872923005
 30
0.0
 10
104.8236995954
 20
26.0347150847
 30
0.0
 10
104.9319264283
 20
25.3531534693
 30
0.0
 10
104.9319264283
 20
25.0218018815
 30
0.0
  0
SPLINE
  5
4B3
100
AcDbEntity
  8
KONSTRUKTIONSELEMENTE
100
AcDbSpline
 62
7
  6
CONTINUOUS
 70
0
 71
3
 72
9
 73
5
 74
0
 42
0.0000001
 43
0.0000001
 44
0.0000000001
 40
0.0
 40
0.0
 40
0.0
 40
0.0
 40
0.5087194491
 40
1.0
 40
1.0
 40
1.0
 40
1.0
 10
68.6271815894
 20
78.1740162578
 30
0.0
 10
68.5688402643
 20
78.2736111296
 30
0.0
 10
68.4768696674
 20
78.4840626645
 30
0.0
 10
68.4444906245
 20
78.7119836936
 30
0.0
 10
68.4444947777
 20
78.8234515828
 30
0.0
  0
SPLINE
  5
4B4
100
AcDbEntity
  8
KONSTRUKTIONSELEMENTE
100
AcDbSpline
 62
7
  6
CONTINUOUS
 70
0
 71
3
 72
9
 73
5
 74
0
 42
0.0000001
 43
0.0000001
 44
0.0000000001
 40
0.0
 40
0.0
 40
0.0
 40
0.0
 40
0.2449309274
 40
1.0
 40
1.0
 40
1.0
 40
1.0
 10
61.0041276167
 20
90.621697963
 30
0.0
 10
61.0170253625
 20
90.5996801336
 30
0.0
 10
61.0720129265
 20
90.5111613221
 30
0.0
 10
61.1360163831
 20
90.4283206508
 30
0.0
 10
61.1882138579
 20
90.3694688289
 30
0.0
  0
SPLINE
  5
4B5
100
AcDbEntity
  8
KONSTRUKTIONSELEMENTE
100
AcDbSpline
 62
7
  6
CONTINUOUS
 70
0
 71
3
 72
13
 73
9
 74
0
 42
0.0000001
 43
0.0000001
 44
0.0000000001
 40
0.0
 40
0.0
 40
0.0
 40
0.0
 40
0.1056626176
 40
0.2188518985
 40
0.3396535247
 40
0.4670870959
 40
0.7335405843
 40
1.0
 40
1.0
 40
1.0
 40
1.0
 10
167.1409412134
 20
86.0487275859
 30
0.0
 10
167.3474959916
 20
86.4013386486
 30
0.0
 10
167.8682317265
 20
87.079682747
 30
0.0
 10
168.87543458
 20
87.9351519749
 30
0.0
 10
170.0942993249
 20
88.6340967208
 30
0.0
 10
171.9657125922
 20
89.3333473226
 30
0.0
 10
174.5312970781
 20
89.6814049029
 30
0.0
 10
176.6044478642
 20
89.3998655796
 30
0.0
 10
177.5934449324
 20
89.1101950449
 30
0.0
  0
SPLINE
  5
4B6
100
AcDbEntity
  8
KONSTRUKTIONSELEMENTE
100
AcDbSpline
 62
7
  6
CONTINUOUS
 70
0
 71
3
 72
11
 73
7
 74
0
 42
0.0000001
 43
0.0000001
 44
0.0000000001
 40
0.0
 40
0.0
 40
0.0
 40
0.0
 40
0.224059501
 40
0.4661297774
 40
0.7258823081
 40
1.0
 40
1.0
 40
1.0
 40
1.0
 10
95.3236217098
 20
32.0346568697
 30
0.0
 10
95.556827899
 20
31.6365490027
 30
0.0
 10
96.1610941426
 20
30.8749621348
 30
0.0
 10
97.3449867783
 20
29.9449415108
 30
0.0
 10
98.7799942065
 20
29.2217100708
 30
0.0
 10
99.8390250086
 20
28.9049447158
 30
0.0
 10
100.3909182246
 20
28.7864830405
 30
0.0
  0
SPLINE
  5
4B7
100
AcDbEntity
  8
KONSTRUKTIONSELEMENTE
100
AcDbSpline
 62
7
  6
CONTINUOUS
 70
0
 71
3
 72
9
 73
5
 74
0
 42
0.0000001
 43
0.0000001
 44
0.0000000001
 40
0.0
 40
0.0
 40
0.0
 40
0.0
 40
0.5320967265
 40
1.0
 40
1.0
 40
1.0
 40
1.0
 10
78.5416754734
 20
80.4656107926
 30
0.0
 10
78.8171835678
 20
80.5463052452
 30
0.0
 10
79.3184716597
 20
80.7706336149
 30
0.0
 10
79.7128433567
 20
81.1662548115
 30
0.0
 10
79.8404431019
 20
81.3840812018
 30
0.0
  0
SPLINE
  5
4B8
100
AcDbEntity
  8
KONSTRUKTIONSELEMENTE
100
AcDbSpline
 62
7
  6
CONTINUOUS
 70
0
 71
3
 72
9
 73
5
 74
0
 42
0.0000001
 43
0.0000001
 44
0.0000000001
 40
0.0
 40
0.0
 40
0.0
 40
0.0
 40
0.2542470925
 40
1.0
 40
1.0
 40
1.0
 40
1.0
 10
79.8404431019
 20
81.3840812018
 30
0.0
 10
79.8523946001
 20
81.4044836855
 30
0.0
 10
79.8974768174
 20
81.4858358427
 30
0.0
 10
79.9346046996
 20
81.5716495758
 30
0.0
 10
79.9569230447
 20
81.6373164309
 30
0.0
  0
SPLINE
  5
4B9
100
AcDbEntity
  8
KONSTRUKTIONSELEMENTE
100
AcDbSpline
 62
7
  6
CONTINUOUS
 70
0
 71
3
 72
12
 73
8
 74
0
 42
0.0000001
 43
0.0000001
 44
0.0000000001
 40
0.0
 40
0.0
 40
0.0
 40
0.0
 40
0.1086815995
 40
0.219641649
 40
0.4547639717
 40
0.7151805887
 40
1.0
 40
1.0
 40
1.0
 40
1.0
 10
189.05118678
 20
90.393865029
 30
0.0
 10
189.0511766652
 20
90.6720326144
 30
0.0
 10
188.9916206846
 20
91.2359160198
 30
0.0
 10
188.6341142688
 20
92.3509212912
 30
0.0
 10
187.7292553847
 20
93.6568816661
 30
0.0
 10
186.1161310656
 20
94.8758438025
 30
0.0
 10
184.8122584215
 20
95.4148890381
 30
0.0
 10
184.1126615197
 20
95.6197962265
 30
0.0
  0
SPLINE
  5
4BA
100
AcDbEntity
  8
KONSTRUKTIONSELEMENTE
100
AcDbSpline
 62
7
  6
CONTINUOUS
 70
0
 71
3
 72
11
 73
7
 74
0
 42
0.0000001
 43
0.0000001
 44
0.0000000001
 40
0.0
 40
0.0
 40
0.0
 40
0.0
 40
0.2819831575
 40
0.5426850885
 40
0.7803647343
 40
1.0
 40
1.0
 40
1.0
 40
1.0
 10
77.3170884898
 20
82.5561115364
 30
0.0
 10
77.5070650599
 20
82.6117543855
 30
0.0
 10
77.8637089481
 20
82.7549326265
 30
0.0
 10
78.3173475316
 20
83.0717721085
 30
0.0
 10
78.6426613132
 20
83.4662759703
 30
0.0
 10
78.7572510955
 20
83.7747848587
 30
0.0
 10
78.7824116982
 20
83.9269063454
 30
0.0
  0
SPLINE
  5
4BB
100
AcDbEntity
  8
KONSTRUKTIONSELEMENTE
100
AcDbSpline
 62
7
  6
CONTINUOUS
 70
0
 71
3
 72
11
 73
7
 74
0
 42
0.0000001
 43
0.0000001
 44
0.0000000001
 40
0.0
 40
0.0
 40
0.0
 40
0.0
 40
0.2187543732
 40
0.4541413795
 40
0.7148423965
 40
1.0
 40
1.0
 40
1.0
 40
1.0
 10
155.7454248844
 20
32.5243435098
 30
0.0
 10
155.7454214558
 20
32.5802717164
 30
0.0
 10
155.7197979589
 20
32.6974939409
 30
0.0
 10
155.6132385694
 20
32.850478966
 30
0.0
 10
155.4519330183
 20
32.9726282012
 30
0.0
 10
155.3215376069
 20
33.0264761356
 30
0.0
 10
155.2515716303
 20
33.0469686957
 30
0.0
  0
SPLINE
  5
4BC
100
AcDbEntity
  8
KONSTRUKTIONSELEMENTE
100
AcDbSpline
 62
7
  6
CONTINUOUS
 70
0
 71
3
 72
11
 73
7
 74
0
 42
0.0000001
 43
0.0000001
 44
0.0000000001
 40
0.0
 40
0.0
 40
0.0
 40
0.0
 40
0.2187337062
 40
0.4541366386
 40
0.7148275965
 40
1.0
 40
1.0
 40
1.0
 40
1.0
 10
68.4444947777
 20
78.8234515828
 30
0.0
 10
68.4445010285
 20
78.9912193077
 30
0.0
 10
68.5213964425
 20
79.3428753921
 30
0.0
 10
68.8410518119
 20
79.8018185728
 30
0.0
 10
69.3249479596
 20
80.1683177424
 30
0.0
 10
69.7161447118
 20
80.3298466472
 30
0.0
 10
69.9260522297
 20
80.3913271358
 30
0.0
  0
SPLINE
  5
4BD
100
AcDbEntity
  8
KONSTRUKTIONSELEMENTE
100
AcDbSpline
 62
7
  6
CONTINUOUS
 70
0
 71
3
 72
12
 73
8
 74
0
 42
0.0000001
 43
0.0000001
 44
0.0000000001
 40
0.0
 40
0.0
 40
0.0
 40
0.0
 40
0.284835769
 40
0.5452420288
 40
0.7803595193
 40
0.8913197465
 40
1.0
 40
1.0
 40
1.0
 40
1.0
 10
146.2899401649
 20
35.6717697814
 30
0.0
 10
145.5902822398
 20
35.8766948432
 30
0.0
 10
144.2863629254
 20
36.4157804554
 30
0.0
 10
142.6732022047
 20
37.6348087906
 30
0.0
 10
141.7684182872
 20
38.9408327477
 30
0.0
 10
141.4109529291
 20
40.0558727235
 30
0.0
 10
141.351426492
 20
40.619770065
 30
0.0
 10
141.3514072697
 20
40.8979424922
 30
0.0
  0
SPLINE
  5
4BE
100
AcDbEntity
  8
KONSTRUKTIONSELEMENTE
100
AcDbSpline
 62
7
  6
CONTINUOUS
 70
0
 71
3
 72
12
 73
8
 74
0
 42
0.0000001
 43
0.0000001
 44
0.0000000001
 40
0.0
 40
0.0
 40
0.0
 40
0.0
 40
0.2848322201
 40
0.5452360453
 40
0.7803595468
 40
0.891321032
 40
1.0
 40
1.0
 40
1.0
 40
1.0
 10
63.8029626884
 20
100.6258601529
 30
0.0
 10
63.1033063604
 20
100.4209355589
 30
0.0
 10
61.7993890179
 20
99.8818497171
 30
0.0
 10
60.1862078153
 20
98.6628123799
 30
0.0
 10
59.2814199748
 20
97.3567544833
 30
0.0
 10
58.9239545889
 20
96.2416848817
 30
0.0
 10
58.8644445342
 20
95.6777799086
 30
0.0
 10
58.8644301576
 20
95.3996079407
 30
0.0
  0
SPLINE
  5
4BF
100
AcDbEntity
  8
KONSTRUKTIONSELEMENTE
100
AcDbSpline
 62
7
  6
CONTINUOUS
 70
0
 71
3
 72
11
 73
7
 74
0
 42
0.0000001
 43
0.0000001
 44
0.0000000001
 40
0.0
 40
0.0
 40
0.0
 40
0.0
 40
0.2851724035
 40
0.5458633614
 40
0.7812662938
 40
1.0
 40
1.0
 40
1.0
 40
1.0
 10
78.5416754734
 20
79.8999253677
 30
0.0
 10
78.7515829914
 20
79.9614058562
 30
0.0
 10
79.1427797436
 20
80.1229347611
 30
0.0
 10
79.6266758913
 20
80.4894339307
 30
0.0
 10
79.9463312607
 20
80.9483771114
 30
0.0
 10
80.0232266746
 20
81.3000331958
 30
0.0
 10
80.0232329255
 20
81.4678009207
 30
0.0
  0
SPLINE
  5
4C0
100
AcDbEntity
  8
KONSTRUKTIONSELEMENTE
100
AcDbSpline
 62
7
  6
CONTINUOUS
 70
0
 71
3
 72
9
 73
5
 74
0
 42
0.0000001
 43
0.0000001
 44
0.0000000001
 40
0.0
 40
0.0
 40
0.0
 40
0.0
 40
0.4949126613
 40
1.0
 40
1.0
 40
1.0
 40
1.0
 10
92.420519687
 20
96.1508624765
 30
0.0
 10
92.3799054613
 20
96.8535866785
 30
0.0
 10
92.0812400618
 20
98.2652081742
 30
0.0
 10
91.4681419615
 20
99.5579254085
 30
0.0
 10
91.1144572411
 20
100.1831930751
 30
0.0
  0
SPLINE
  5
4C1
100
AcDbEntity
  8
KONSTRUKTIONSELEMENTE
100
AcDbSpline
 62
7
  6
CONTINUOUS
 70
0
 71
3
 72
9
 73
5
 74
0
 42
0.0000001
 43
0.0000001
 44
0.0000000001
 40
0.0
 40
0.0
 40
0.0
 40
0.0
 40
0.5050884231
 40
1.0
 40
1.0
 40
1.0
 40
1.0
 10
139.7093956155
 20
100.1831930751
 30
0.0
 10
139.3557101462
 20
99.5579240846
 30
0.0
 10
138.7426133665
 20
98.2652062842
 30
0.0
 10
138.4439473051
 20
96.8535851179
 30
0.0
 10
138.4033331696
 20
96.1508624765
 30
0.0
  0
SPLINE
  5
4C2
100
AcDbEntity
  8
KONSTRUKTIONSELEMENTE
100
AcDbSpline
 62
7
  6
CONTINUOUS
 70
0
 71
3
 72
9
 73
5
 74
0
 42
0.0000001
 43
0.0000001
 44
0.0000000001
 40
0.0
 40
0.0
 40
0.0
 40
0.0
 40
0.5001118291
 40
1.0
 40
1.0
 40
1.0
 40
1.0
 10
90.947179063
 20
103.3828284443
 30
0.0
 10
91.1990840675
 20
104.0512419126
 30
0.0
 10
91.6101273069
 20
105.4262392152
 30
0.0
 10
91.7598144719
 20
106.8578700661
 30
0.0
 10
91.7598144719
 20
107.5718563609
 30
0.0
  0
SPLINE
  5
4C3
100
AcDbEntity
  8
KONSTRUKTIONSELEMENTE
100
AcDbSpline
 62
7
  6
CONTINUOUS
 70
0
 71
3
 72
9
 73
5
 74
0
 42
0.0000001
 43
0.0000001
 44
0.0000000001
 40
0.0
 40
0.0
 40
0.0
 40
0.0
 40
0.4998905156
 40
1.0
 40
1.0
 40
1.0
 40
1.0
 10
139.0640383847
 20
107.5718563609
 30
0.0
 10
139.0640383847
 20
106.8578667013
 30
0.0
 10
139.2137251431
 20
105.4262356105
 30
0.0
 10
139.6247699645
 20
104.0512387938
 30
0.0
 10
139.8766737936
 20
103.3828284443
 30
0.0
  0
SPLINE
  5
4C4
100
AcDbEntity
  8
KONSTRUKTIONSELEMENTE
100
AcDbSpline
 62
7
  6
CONTINUOUS
 70
0
 71
3
 72
11
 73
7
 74
0
 42
0.0000001
 43
0.0000001
 44
0.0000000001
 40
0.0
 40
0.0
 40
0.0
 40
0.0
 40
0.2556575941
 40
0.5072684484
 40
0.7547532783
 40
1.0
 40
1.0
 40
1.0
 40
1.0
 10
91.7598144719
 20
117.9700031866
 30
0.0
 10
91.7598144719
 20
118.4915968291
 30
0.0
 10
91.9397961904
 20
119.5337808053
 30
0.0
 10
92.6609880888
 20
120.9153463571
 30
0.0
 10
93.6720153137
 20
122.0630380358
 30
0.0
 10
94.465375053
 20
122.6879074437
 30
0.0
 10
94.8786249237
 20
122.9700031866
 30
0.0
  0
LINE
  5
4C5
100
AcDbEntity
  8
0
100
AcDbLine
 62
7
  6
CONTINUOUS
 10
138.4033331696
 20
96.1508624765
 11
137.7825985312
 21
85.649530034
  0
SPLINE
  5
4C6
100
AcDbEntity
  8
KONSTRUKTIONSELEMENTE
100
AcDbSpline
 62
7
  6
CONTINUOUS
 70
0
 71
3
 72
11
 73
7
 74
0
 42
0.0000001
 43
0.0000001
 44
0.0000000001
 40
0.0
 40
0.0
 40
0.0
 40
0.0
 40
0.2452487878
 40
0.492735829
 40
0.7443459021
 40
1.0
 40
1.0
 40
1.0
 40
1.0
 10
135.9452279329
 20
122.9700031866
 30
0.0
 10
136.3584812843
 20
122.6879050677
 30
0.0
 10
137.1518476496
 20
122.0630297967
 30
0.0
 10
138.1628768293
 20
120.9153297712
 30
0.0
 10
138.8840601359
 20
119.5337645723
 30
0.0
 10
139.0640383847
 20
118.491589695
 30
0.0
 10
139.0640383847
 20
117.9700031866
 30
0.0
  0
SPLINE
  5
4C7
100
AcDbEntity
  8
KONSTRUKTIONSELEMENTE
100
AcDbSpline
 62
7
  6
CONTINUOUS
 70
0
 71
3
 72
11
 73
7
 74
0
 42
0.0000001
 43
0.0000001
 44
0.0000000001
 40
0.0
 40
0.0
 40
0.0
 40
0.0
 40
0.2351463867
 40
0.4815732643
 40
0.7381035996
 40
1.0
 40
1.0
 40
1.0
 40
1.0
 10
91.1144572411
 20
100.1831930751
 30
0.0
 10
90.9869313982
 20
100.4086418482
 30
0.0
 10
90.7772576069
 20
100.9018313041
 30
0.0
 10
90.6408155807
 20
101.7106811159
 30
0.0
 10
90.6924166183
 20
102.5582984399
 30
0.0
 10
90.8454435133
 20
103.1128798112
 30
0.0
 10
90.947179063
 20
103.3828284443
 30
0.0
  0
SPLINE
  5
4C8
100
AcDbEntity
  8
KONSTRUKTIONSELEMENTE
100
AcDbSpline
 62
7
  6
CONTINUOUS
 70
0
 71
3
 72
11
 73
7
 74
0
 42
0.0000001
 43
0.0000001
 44
0.0000000001
 40
0.0
 40
0.0
 40
0.0
 40
0.0
 40
0.2619122588
 40
0.5184363163
 40
0.764853663
 40
1.0
 40
1.0
 40
1.0
 40
1.0
 10
139.8766737936
 20
103.3828284443
 30
0.0
 10
139.9784155407
 20
103.1128633669
 30
0.0
 10
140.1314475057
 20
102.5582712404
 30
0.0
 10
140.1830338259
 20
101.7106527294
 30
0.0
 10
140.0465930187
 20
100.9018211157
 30
0.0
 10
139.8369214779
 20
100.4086418826
 30
0.0
 10
139.7093956155
 20
100.1831930751
 30
0.0
  0
LINE
  5
4C9
100
AcDbEntity
  8
0
100
AcDbLine
 62
7
  6
CONTINUOUS
 10
93.0412543254
 20
85.649530034
 11
92.420519687
 21
96.1508624765
  0
ELLIPSE
  5
4CA
100
AcDbEntity
  8
RUNDUNGEN
100
AcDbEllipse
 62
7
  6
CONTINUOUS
 10
487.7287022423
 20
129.3317151033
 30
0.0
 11
10.2192634631
 21
-1.4644770085
 31
0.0
 40
0.8513282235
 41
0.121400111
 42
0.2121364471
  0
ELLIPSE
  5
4CB
100
AcDbEntity
  8
0
100
AcDbEllipse
 62
7
  6
CONTINUOUS
 10
496.4313771073
 20
129.3317151033
 30
0.0
 11
10.2192634631
 21
1.4644770085
 31
0.0
 40
0.8513282235
 41
2.9294562065
 42
3.0201925426
  0
ELLIPSE
  5
4CC
100
AcDbEntity
  8
0
100
AcDbEllipse
 62
7
  6
CONTINUOUS
 10
483.047832418
 20
129.8456475336
 30
0.0
 11
-0.9450767383
 21
5.1682589597
 31
0.0
 40
0.5689268959
 41
-2.7216559163
 42
-1.8817824418
  0
ELLIPSE
  5
4CD
100
AcDbEntity
  8
RUNDUNGEN
100
AcDbEllipse
 62
7
  6
CONTINUOUS
 10
501.1122469316
 20
129.8456475336
 30
0.0
 11
0.9450767383
 21
5.1682589597
 31
0.0
 40
0.5689268959
 41
-4.4014028654
 42
-3.5615293909
  0
ELLIPSE
  5
4CE
100
AcDbEntity
  8
KONSTRUKTIONSELEMENTE
100
AcDbEllipse
 62
7
  6
CONTINUOUS
 10
339.9188351346
 20
95.0895099016
 30
0.0
 11
-0.0
 21
3.3288956288
 31
0.0
 40
0.1989123674
 41
-4.3485913603
 42
-3.3373776335
  0
ELLIPSE
  5
4CF
100
AcDbEntity
  8
KONSTRUKTIONSELEMENTE
100
AcDbEllipse
 62
7
  6
CONTINUOUS
 10
344.0200544655
 20
90.9882905707
 30
0.0
 11
3.3288956288
 21
-0.0
 31
0.0
 40
0.1989123674
 41
-2.9458076736
 42
-1.9345939469
  0
ELLIPSE
  5
4D0
100
AcDbEntity
  8
KONSTRUKTIONSELEMENTE
100
AcDbEllipse
 62
7
  6
CONTINUOUS
 10
63.2214384947
 20
90.9882905707
 30
0.0
 11
2.3997778992
 21
0.651132626
 31
0.0
 40
0.0501436764
 41
-2.5950501555
 42
-1.191701908
  0
ELLIPSE
  5
4D1
100
AcDbEntity
  8
KONSTRUKTIONSELEMENTE
100
AcDbEllipse
 62
7
  6
CONTINUOUS
 10
72.0644187681
 20
90.9572942128
 30
0.0
 11
2.2997891192
 21
-1.5015656282
 31
0.0
 40
0.7635480741
 41
7.2755602941
 42
8.8463566209
  0
ELLIPSE
  5
4D2
100
AcDbEntity
  8
KONSTRUKTIONSELEMENTE
100
AcDbEllipse
 62
7
  6
CONTINUOUS
 10
115.4119264283
 20
32.7305961187
 30
0.0
 11
-0.0
 21
96.9948452239
 31
0.0
 40
0.5773502692
 41
-0.3754229971
 42
-0.1577968958
  0
ELLIPSE
  5
4D3
100
AcDbEntity
  8
KONSTRUKTIONSELEMENTE
100
AcDbEllipse
 62
7
  6
CONTINUOUS
 10
115.4119264283
 20
32.7305961187
 30
0.0
 11
-0.0
 21
96.9948452239
 31
0.0
 40
0.5773502692
 41
0.1577968958
 42
0.3754229971
  0
ENDSEC
  0
SECTION
  2
OBJECTS
  0
DICTIONARY
  5
C
100
AcDbDictionary
280
0
281
1
  3
ACAD_GROUP
350
D
  3
ACAD_MLINESTYLE
350
17
  3
ACAD_LAYOUT
350
1A
  3
ACAD_PLOTSETTINGS
350
19
  3
ACAD_PLOTSTYLENAME
350
E
  0
DICTIONARY
  5
D
102
{ACAD_REACTORS
330
C
102
}
100
AcDbDictionary
280
0
281
1
  0
ACDBDICTIONARYWDFLT
  5
E
102
{ACAD_REACTORS
330
C
102
}
100
AcDbDictionary
281
1
  3
Normal
350
F
100
AcDbDictionaryWithDefault
340
F
  0
DICTIONARY
  5
17
102
{ACAD_REACTORS
330
C
102
}
100
AcDbDictionary
280
0
281
1
  3
Standard
350
18
  0
DICTIONARY
  5
19
102
{ACAD_REACTORS
330
C
102
}
100
AcDbDictionary
281
1
  0
DICTIONARY
  5
1A
102
{ACAD_REACTORS
330
C
102
}
100
AcDbDictionary
281
1
  3
Model
350
4D4
  3
Layout1
350
4D5
  0
ACDBPLACEHOLDER
  5
F
102
{ACAD_REACTORS
330
E
102
}
  0
MLINESTYLE
  5
18
102
{ACAD_REACTORS
330
17
102
}
100
AcDbMlineStyle
  2
STANDARD
 70
0
  3

 62
256
 51
90.0
 52
90.0
 71
2
 49
0.5
 62
256
  6
BYLAYER
 49
-0.5
 62
256
  6
BYLAYER
  0
LAYOUT
  5
4D4
102
{ACAD_REACTORS
330
1A
102
}
100
AcDbPlotSettings
  1

  2
none_device
  4
ISO_A2_(594.00_x_420.00_MM)
  6

 40
0.0
 41
0.0
 42
0.0
 43
0.0
 44
594.0
 45
420.0
 46
0.0
 47
0.0
 48
0.0
 49
0.0
140
0.0
141
0.0
142
1.0
143
1.0
 70
1024
 72
1
 73
0
 74
0
  7

 75
0
147
1.0
148
0.0
149
0.0
100
AcDbLayout
  1
Model
 70
0
 71
0
 10
0.0
 20
0.0
 11
594.0
 21
420.0
 12
0.0
 22
0.0
 32
0.0
 14
0.0
 24
0.0
 34
0.0
 15
0.0
 25
0.0
 35
0.0
146
0.0
 13
0.0
 23
0.0
 33
0.0
 16
1.0
 26
0.0
 36
0.0
 17
0.0
 27
1.0
 37
0.0
 76
0
330
20C
345
0
346
0
  0
LAYOUT
  5
4D5
102
{ACAD_REACTORS
330
1A
102
}
100
AcDbPlotSettings
  1

  2
none_device
  4
ISO_A2_(594.00_x_420.00_MM)
  6

 40
0.0
 41
0.0
 42
0.0
 43
0.0
 44
594.0
 45
420.0
 46
0.0
 47
0.0
 48
0.0
 49
0.0
140
0.0
141
0.0
142
1.0
143
1.0
 70
0
 72
1
 73
0
 74
0
  7

 75
0
147
1.0
148
0.0
149
0.0
100
AcDbLayout
  1
Layout1
 70
0
 71
1
 10
0.0
 20
0.0
 11
594.0
 21
420.0
 12
0.0
 22
0.0
 32
0.0
 14
0.0
 24
0.0
 34
0.0
 15
0.0
 25
0.0
 35
0.0
146
0.0
 13
0.0
 23
0.0
 33
0.0
 16
1.0
 26
0.0
 36
0.0
 17
0.0
 27
1.0
 37
0.0
 76
0
330
20D
345
0
346
0
  0
ENDSEC
  0
EOF
