999
DXF file: VAK-1-13_7100684_M34474-P-4.dxf
999
Pro/ENGINEER 2010140 by Parametric Technology Corporation
  0
SECTION
  2
HEADER
  9
$ACADVER
  1
AC1015
  9
$DWGCODEPAGE
  3
ANSI_1252
  9
$EXTMAX
 10
594.0
 20
420.0
 30
0.0
  9
$EXTMIN
 10
0.0
 20
0.0
 30
0.0
  9
$LIMMIN
 10
0.0
 20
0.0
  9
$LIMMAX
 10
594.0
 20
420.0
  9
$VIEWCTR
 10
297.0
 20
210.0
  9
$VIEWSIZE
 40
420.0
  9
$CLAYER
  8
0
  9
$LTSCALE
 40
32.67
  9
$CELTYPE
  6
BYLAYER
  9
$DIMSCALE
 40
1.0
  9
$DIMASZ
 40
3.5
  9
$DIMEXO
 40
3.7125
  9
$DIMDLI
 40
22.572
  9
$DIMEXE
 40
10.692
  9
$DIMCEN
 40
5.346
  9
$DIMLFAC
 40
1.0
  9
$DIMBLK
  1
_FILLED
  9
$DIMTXT
 40
3.5
  9
$DIMTOL
 70
1
  9
$DIMLIM
 70
0
  9
$DIMTFAC
 40
1.0
  9
$DIMTP
 40
0.005
  9
$DIMTM
 40
0.005
  9
$PDMODE
 70
3
  9
$PDSIZE
 40
0.3125
  9
$HANDSEED
  5
4BC
  9
$TILEMODE
 70
1
  9
$MEASUREMENT
 70
1
  9
$INSUNITS
 70
4
  0
ENDSEC
  0
SECTION
  2
CLASSES
  0
CLASS
  1
ACDBDICTIONARYWDFLT
  2
AcDbDictionaryWithDefault
  3
AutoCAD 2000
 90
0
280
0
281
0
  0
CLASS
  1
ACDBPLACEHOLDER
  2
AcDbPlaceHolder
  3
AutoCAD 2000
 90
0
280
0
281
0
  0
CLASS
  1
LAYOUT
  2
AcDbLayout
  3
AutoCAD 2000
 90
0
280
0
281
0
  0
ENDSEC
  0
SECTION
  2
TABLES
  0
TABLE
  2
VPORT
  5
8
100
AcDbSymbolTable
 70
2
  0
VPORT
  5
1F4
100
AcDbSymbolTableRecord
100
AcDbViewportTableRecord
  2
*ACTIVE
 70
0
 10
0.0
 20
0.0
 11
1.0
 21
1.0
 12
297.0
 22
210.0
 13
0.0
 23
0.0
 14
1.0
 24
1.0
 15
0.0
 25
0.0
 16
0.0
 26
0.0
 36
1.0
 17
0.0
 27
0.0
 37
0.0
 40
420.0
 41
1.4142857143
 42
50.0
 43
0.0
 44
0.0
 50
0.0
 51
0.0
 71
0
 72
100
 73
1
 74
1
 75
0
 76
0
 77
0
 78
0
  0
ENDTAB
  0
TABLE
  2
LTYPE
  5
5
100
AcDbSymbolTable
 70
6
  0
LTYPE
  5
14
100
AcDbSymbolTableRecord
100
AcDbLinetypeTableRecord
  2
BYBLOCK
 70
0
  3

 72
65
 73
0
 40
0.0
  0
LTYPE
  5
15
100
AcDbSymbolTableRecord
100
AcDbLinetypeTableRecord
  2
BYLAYER
 70
0
  3

 72
65
 73
0
 40
0.0
  0
LTYPE
  5
16
100
AcDbSymbolTableRecord
100
AcDbLinetypeTableRecord
  2
CONTINUOUS
 70
64
  3
Solid line
 72
65
 73
0
 40
0.0
  0
LTYPE
  5
1F5
100
AcDbSymbolTableRecord
100
AcDbLinetypeTableRecord
  2
CENTER
 70
64
  3
____ _ ____ _ ____ _ ____ _ ____ _ ____ _ ____
 72
65
 73
4
 40
0.6
 49
0.375
 74
0
 49
-0.075
 74
0
 49
0.075
 74
0
 49
-0.075
 74
0
  0
LTYPE
  5
1F6
100
AcDbSymbolTableRecord
100
AcDbLinetypeTableRecord
  2
HIDDEN
 70
64
  3
- - - - - - - - - - - - - - - - - - - -
 72
65
 73
2
 40
0.2
 49
0.1
 74
0
 49
-0.1
 74
0
  0
LTYPE
  5
1F7
100
AcDbSymbolTableRecord
100
AcDbLinetypeTableRecord
  2
PHANTOM
 70
64
  3
_____ _ _ _____ _ _ _____ _ _ _____
 72
65
 73
6
 40
0.8
 49
0.45
 74
0
 49
-0.05
 74
0
 49
0.1
 74
0
 49
-0.05
 74
0
 49
0.1
 74
0
 49
-0.05
 74
0
  0
LTYPE
  5
1F8
100
AcDbSymbolTableRecord
100
AcDbLinetypeTableRecord
  2
DOT
 70
64
  3
. . . . . . . . . . . . . . . . . . . .
 72
65
 73
2
 40
0.2
 49
0.1
 74
0
 49
-0.1
 74
0
  0
LTYPE
  5
1F9
100
AcDbSymbolTableRecord
100
AcDbLinetypeTableRecord
  2
DASHED
 70
64
  3
- - - - - - - - - - - - - - - - - - - -
 72
65
 73
2
 40
0.2
 49
0.1
 74
0
 49
-0.1
 74
0
  0
ENDTAB
  0
TABLE
  2
LAYER
  5
2
100
AcDbSymbolTable
 70
36
  0
LAYER
  5
10
100
AcDbSymbolTableRecord
100
AcDbLayerTableRecord
  2
0
 70
0
 62
7
  6
CONTINUOUS
370
-3
390
F
  0
LAYER
  5
1FA
100
AcDbSymbolTableRecord
100
AcDbLayerTableRecord
  2
DEFAULT_1
 70
0
 62
7
  6
CENTER
370
-3
390
F
  0
LAYER
  5
1FB
100
AcDbSymbolTableRecord
100
AcDbLayerTableRecord
  2
DEFAULT_2
 70
0
 62
8
  6
HIDDEN
370
-3
390
F
  0
LAYER
  5
1FC
100
AcDbSymbolTableRecord
100
AcDbLayerTableRecord
  2
DEFAULT_3
 70
0
 62
7
  6
PHANTOM
370
-3
390
F
  0
LAYER
  5
1FD
100
AcDbSymbolTableRecord
100
AcDbLayerTableRecord
  2
AUSFORMSCHRAEGEN
 70
0
 62
7
  6
CONTINUOUS
370
-3
390
F
  0
LAYER
  5
1FE
100
AcDbSymbolTableRecord
100
AcDbLayerTableRecord
  2
BEZUGSACHSEN
 70
0
 62
7
  6
CONTINUOUS
370
-3
390
F
  0
LAYER
  5
1FF
100
AcDbSymbolTableRecord
100
AcDbLayerTableRecord
  2
BEZUGSEBENEN
 70
0
 62
7
  6
CONTINUOUS
370
-3
390
F
  0
LAYER
  5
200
100
AcDbSymbolTableRecord
100
AcDbLayerTableRecord
  2
BG_STARTBEZUEGE
 70
0
 62
7
  6
CONTINUOUS
370
-3
390
F
  0
LAYER
  5
201
100
AcDbSymbolTableRecord
100
AcDbLayerTableRecord
  2
FASEN
 70
0
 62
7
  6
CONTINUOUS
370
-3
390
F
  0
LAYER
  5
202
100
AcDbSymbolTableRecord
100
AcDbLayerTableRecord
  2
HILFEN
 70
0
 62
7
  6
CONTINUOUS
370
-3
390
F
  0
LAYER
  5
203
100
AcDbSymbolTableRecord
100
AcDbLayerTableRecord
  2
KONSTRUKTIONSELEMENTE
 70
0
 62
7
  6
CONTINUOUS
370
-3
390
F
  0
LAYER
  5
204
100
AcDbSymbolTableRecord
100
AcDbLayerTableRecord
  2
PLATZIERUNG
 70
0
 62
7
  6
CONTINUOUS
370
-3
390
F
  0
LAYER
  5
205
100
AcDbSymbolTableRecord
100
AcDbLayerTableRecord
  2
PLAZIERUNG
 70
0
 62
7
  6
CONTINUOUS
370
-3
390
F
  0
LAYER
  5
206
100
AcDbSymbolTableRecord
100
AcDbLayerTableRecord
  2
RUNDUNGEN
 70
0
 62
7
  6
CONTINUOUS
370
-3
390
F
  0
LAYER
  5
207
100
AcDbSymbolTableRecord
100
AcDbLayerTableRecord
  2
TEIL_STARTBEZUEGE
 70
0
 62
7
  6
CONTINUOUS
370
-3
390
F
  0
LAYER
  5
208
100
AcDbSymbolTableRecord
100
AcDbLayerTableRecord
  2
T_STARTBEZUEGE
 70
0
 62
7
  6
CONTINUOUS
370
-3
390
F
  0
LAYER
  5
209
100
AcDbSymbolTableRecord
100
AcDbLayerTableRecord
  2
ZEICHNUNGSBEMASSUNGEN
 70
0
 62
7
  6
CONTINUOUS
370
-3
390
F
  0
ENDTAB
  0
TABLE
  2
STYLE
  5
3
100
AcDbSymbolTable
 70
1
  0
STYLE
  5
11
100
AcDbSymbolTableRecord
100
AcDbTextStyleTableRecord
  2
STANDARD
 70
0
 40
0.0
 41
0.7
 50
0.0
 71
0
 42
0.2
  3
txt
  4

  0
STYLE
  5
20A
100
AcDbSymbolTableRecord
100
AcDbTextStyleTableRecord
  2
TEXTSTYLE_1
 70
0
 40
0.0
 41
0.8
 50
0.0
 71
0
 42
0.2
  3
gdt
  4

  0
ENDTAB
  0
TABLE
  2
VIEW
  5
6
100
AcDbSymbolTable
 70
0
  0
ENDTAB
  0
TABLE
  2
UCS
  5
7
100
AcDbSymbolTable
 70
0
  0
ENDTAB
  0
TABLE
  2
APPID
  5
9
100
AcDbSymbolTable
 70
1
  0
APPID
  5
20B
100
AcDbSymbolTableRecord
100
AcDbRegAppTableRecord
  2
ACAD
 70
0
  0
ENDTAB
  0
TABLE
  2
BLOCK_RECORD
  5
1
100
AcDbSymbolTable
 70
0
  0
BLOCK_RECORD
  5
20C
100
AcDbSymbolTableRecord
100
AcDbBlockTableRecord
  2
*Model_Space
  0
BLOCK_RECORD
  5
20D
100
AcDbSymbolTableRecord
100
AcDbBlockTableRecord
  2
*Paper_Space
  0
ENDTAB
  0
TABLE
  2
DIMSTYLE
  5
A
100
AcDbSymbolTable
 70
1
100
AcDbDimStyleTable
 71
0
  0
DIMSTYLE
105
20E
100
AcDbSymbolTableRecord
100
AcDbDimStyleTableRecord
  2
STANDARD
 70
0
  3

  4

 40
1.0
 41
3.5
 42
0.0625
 43
0.38
 44
0.18
 45
0.0
 46
0.0
 47
0.005
 48
0.005
140
3.5
141
0.09
142
0.0
143
25.4
144
1.0
145
0.0
146
1.0
147
0.09
 71
1.0
 72
0.0
 73
0
 74
0
 75
0
 76
0
 77
1
 78
8
170
0
171
2
172
0
173
0
174
0
175
0
176
0
177
0
178
5
270
2
271
3
272
3
273
2
274
2
275
0
280
0
281
0
282
0
283
1
284
8
285
0
286
0
287
3
288
0
340
11
  0
ENDTAB
  0
ENDSEC
  0
SECTION
  2
BLOCKS
  0
BLOCK
  5
20
100
AcDbEntity
  8
0
100
AcDbBlockBegin
  2
*Model_Space
 70
0
 10
0.0
 20
0.0
 30
0.0
  3
*Model_Space
  1

  0
ENDBLK
  5
21
100
AcDbEntity
  8
0
100
AcDbBlockEnd
  0
BLOCK
  5
1C
100
AcDbEntity
  8
0
100
AcDbBlockBegin
  2
*Paper_Space
 70
0
 10
0.0
 20
0.0
 30
0.0
  3
*Paper_Space
  1

  0
ENDBLK
  5
1D
100
AcDbEntity
  8
0
100
AcDbBlockEnd
  0
ENDSEC
  0
SECTION
  2
ENTITIES
  0
MTEXT
  5
20F
100
AcDbEntity
  8
0
100
AcDbMText
 62
5
  6
CONTINUOUS
  7
STANDARD
 71
1
 72
1
 10
528.4037829614
 20
250.6166246611
 30
0.0
 11
0.0
 21
1.0
 31
0.0
 44
0.9
  1
RUD VAK-1-13
 40
7.0
 41
64.5
  0
MTEXT
  5
210
100
AcDbEntity
  8
0
100
AcDbMText
 62
5
  6
CONTINUOUS
  7
STANDARD
 71
1
 72
1
 10
112.0533486145
 20
254.322701512
 30
0.0
 11
0.0
 21
1.0
 31
0.0
 44
0.9
  1
RUD VAK-1-13
 40
7.0
 41
64.5
  0
LINE
  5
211
100
AcDbEntity
  8
0
100
AcDbLine
 62
7
  6
CONTINUOUS
 10
0.0
 20
0.0
 11
0.0
 21
420.0
  0
LINE
  5
212
100
AcDbEntity
  8
0
100
AcDbLine
 62
7
  6
CONTINUOUS
 10
0.0
 20
0.0
 11
594.0
 21
0.0
  0
LINE
  5
213
100
AcDbEntity
  8
0
100
AcDbLine
 62
7
  6
CONTINUOUS
 10
0.0
 20
420.0
 11
594.0
 21
420.0
  0
LINE
  5
214
100
AcDbEntity
  8
0
100
AcDbLine
 62
7
  6
CONTINUOUS
 10
594.0
 20
0.0
 11
594.0
 21
420.0
  0
LINE
  5
215
100
AcDbEntity
  8
KONSTRUKTIONSELEMENTE
100
AcDbLine
 62
7
  6
CONTINUOUS
 10
263.3891281449
 20
41.4615896151
 11
266.9246620508
 21
37.9260557092
  0
LINE
  5
216
100
AcDbEntity
  8
KONSTRUKTIONSELEMENTE
100
AcDbLine
 62
7
  6
CONTINUOUS
 10
335.4541996231
 20
106.4555932815
 11
335.3868014649
 21
106.4589058014
  0
LINE
  5
217
100
AcDbEntity
  8
BEZUGSACHSEN
100
AcDbLine
 62
7
  6
CONTINUOUS
 10
354.6059029179
 20
132.6783643882
 11
358.1414368239
 21
129.1428304823
  0
LINE
  5
218
100
AcDbEntity
  8
KONSTRUKTIONSELEMENTE
100
AcDbLine
 62
7
  6
CONTINUOUS
 10
351.070369012
 20
137.2745584659
 11
354.6059029179
 21
133.73902456
  0
LINE
  5
219
100
AcDbEntity
  8
KONSTRUKTIONSELEMENTE
100
AcDbLine
 62
7
  6
CONTINUOUS
 10
351.4239224026
 20
137.6281118565
 11
354.9594563085
 21
134.0925779506
  0
LINE
  5
21A
100
AcDbEntity
  8
KONSTRUKTIONSELEMENTE
100
AcDbLine
 62
7
  6
CONTINUOUS
 10
331.9219782371
 20
109.9237290292
 11
331.9186657171
 21
109.9911271874
  0
LINE
  5
21B
100
AcDbEntity
  8
0
100
AcDbLine
 62
7
  6
CONTINUOUS
 10
471.796337359
 20
149.6400614227
 11
480.6602012051
 21
149.6400614227
  0
LINE
  5
21C
100
AcDbEntity
  8
0
100
AcDbLine
 62
7
  6
CONTINUOUS
 10
471.8953263646
 20
177.5807082376
 11
480.5612121994
 21
177.5807082376
  0
LINE
  5
21D
100
AcDbEntity
  8
0
100
AcDbLine
 62
7
  6
CONTINUOUS
 10
472.0446807616
 20
201.9496854551
 11
480.4118578024
 21
201.9496854551
  0
LINE
  5
21E
100
AcDbEntity
  8
BEZUGSACHSEN
100
AcDbLine
 62
7
  6
CONTINUOUS
 10
483.4191682739
 20
206.4511606648
 11
483.9694983339
 21
206.4511606648
  0
LINE
  5
21F
100
AcDbEntity
  8
BEZUGSACHSEN
100
AcDbLine
 62
7
  6
CONTINUOUS
 10
483.4293800258
 20
208.806091466
 11
483.9718796271
 21
208.806091466
  0
LINE
  5
220
100
AcDbEntity
  8
BEZUGSACHSEN
100
AcDbLine
 62
7
  6
CONTINUOUS
 10
481.9262570244
 20
210.4356240898
 11
482.4757524781
 21
210.4356240898
  0
LINE
  5
221
100
AcDbEntity
  8
BEZUGSACHSEN
100
AcDbLine
 62
7
  6
CONTINUOUS
 10
482.6423529493
 20
210.6392454322
 11
483.1194257905
 21
210.6392454322
  0
LINE
  5
222
100
AcDbEntity
  8
BEZUGSACHSEN
100
AcDbLine
 62
7
  6
CONTINUOUS
 10
483.3350547651
 20
210.6416274989
 11
483.8724615919
 21
210.6416274989
  0
LINE
  5
223
100
AcDbEntity
  8
BEZUGSACHSEN
100
AcDbLine
 62
7
  6
CONTINUOUS
 10
483.2170296035
 20
210.7850084422
 11
483.7413222674
 21
210.7850084422
  0
LINE
  5
224
100
AcDbEntity
  8
BEZUGSACHSEN
100
AcDbLine
 62
7
  6
CONTINUOUS
 10
482.6443073256
 20
210.9519177758
 11
483.0850855023
 21
210.9519177758
  0
LINE
  5
225
100
AcDbEntity
  8
BEZUGSACHSEN
100
AcDbLine
 62
7
  6
CONTINUOUS
 10
483.1745728251
 20
211.055699332
 11
483.6116949944
 21
211.055699332
  0
LINE
  5
226
100
AcDbEntity
  8
BEZUGSACHSEN
100
AcDbLine
 62
7
  6
CONTINUOUS
 10
482.6449540708
 20
211.2734004873
 11
483.0193947557
 21
211.2734004873
  0
LINE
  5
227
100
AcDbEntity
  8
BEZUGSACHSEN
100
AcDbLine
 62
7
  6
CONTINUOUS
 10
483.0789687074
 20
211.489545473
 11
483.4514336591
 21
211.489545473
  0
LINE
  5
228
100
AcDbEntity
  8
BEZUGSACHSEN
100
AcDbLine
 62
7
  6
CONTINUOUS
 10
483.5997906792
 20
211.5130243241
 11
483.7804996114
 21
211.5130243241
  0
LINE
  5
229
100
AcDbEntity
  8
BEZUGSACHSEN
100
AcDbLine
 62
7
  6
CONTINUOUS
 10
482.6441639927
 20
211.6036933492
 11
482.9228519279
 21
211.6036933492
  0
LINE
  5
22A
100
AcDbEntity
  8
BEZUGSACHSEN
100
AcDbLine
 62
7
  6
CONTINUOUS
 10
483.497852845
 20
211.7676448759
 11
483.7796851001
 21
211.7676448759
  0
LINE
  5
22B
100
AcDbEntity
  8
BEZUGSACHSEN
100
AcDbLine
 62
7
  6
CONTINUOUS
 10
482.6421710134
 20
211.8580210091
 11
482.8274683954
 21
211.8580210091
  0
LINE
  5
22C
100
AcDbEntity
  8
BEZUGSACHSEN
100
AcDbLine
 62
7
  6
CONTINUOUS
 10
483.3780552056
 20
212.1217657017
 11
483.7456032139
 21
212.1217657017
  0
LINE
  5
22D
100
AcDbEntity
  8
BEZUGSACHSEN
100
AcDbLine
 62
7
  6
CONTINUOUS
 10
481.9392308031
 20
212.2587963791
 11
482.4837087715
 21
212.2587963791
  0
LINE
  5
22E
100
AcDbEntity
  8
BEZUGSACHSEN
100
AcDbLine
 62
7
  6
CONTINUOUS
 10
483.2533765631
 20
212.5117316421
 11
483.679355483
 21
212.5117316421
  0
LINE
  5
22F
100
AcDbEntity
  8
BEZUGSACHSEN
100
AcDbLine
 62
7
  6
CONTINUOUS
 10
481.9681473538
 20
212.5538482043
 11
482.5116116349
 21
212.5538482043
  0
LINE
  5
230
100
AcDbEntity
  8
BEZUGSACHSEN
100
AcDbLine
 62
7
  6
CONTINUOUS
 10
482.0598241567
 20
212.6033827577
 11
482.6024573441
 21
212.6033827577
  0
LINE
  5
231
100
AcDbEntity
  8
BEZUGSACHSEN
100
AcDbLine
 62
7
  6
CONTINUOUS
 10
483.7352493451
 20
212.6614596179
 11
483.9473018248
 21
212.6614596179
  0
LINE
  5
232
100
AcDbEntity
  8
BEZUGSACHSEN
100
AcDbLine
 62
7
  6
CONTINUOUS
 10
483.1172346433
 20
212.9375425579
 11
483.5817799197
 21
212.9375425579
  0
LINE
  5
233
100
AcDbEntity
  8
BEZUGSACHSEN
100
AcDbLine
 62
7
  6
CONTINUOUS
 10
482.9696307572
 20
213.3991988829
 11
483.4534042549
 21
213.3991988829
  0
LINE
  5
234
100
AcDbEntity
  8
BEZUGSACHSEN
100
AcDbLine
 62
7
  6
CONTINUOUS
 10
483.5126843932
 20
214.5130788171
 11
483.7703646282
 21
214.5130788171
  0
LINE
  5
235
100
AcDbEntity
  8
BEZUGSACHSEN
100
AcDbLine
 62
7
  6
CONTINUOUS
 10
481.9276846914
 20
214.574054385
 11
482.4659998162
 21
214.574054385
  0
LINE
  5
236
100
AcDbEntity
  8
KONSTRUKTIONSELEMENTE
100
AcDbLine
 62
7
  6
CONTINUOUS
 10
408.6995716787
 20
194.9037611326
 11
412.2351055846
 21
191.3682272267
  0
LINE
  5
237
100
AcDbEntity
  8
KONSTRUKTIONSELEMENTE
100
AcDbLine
 62
7
  6
CONTINUOUS
 10
409.0531250693
 20
195.2573145232
 11
412.5886589752
 21
191.7217806173
  0
LINE
  5
238
100
AcDbEntity
  8
0
100
AcDbLine
 62
7
  6
CONTINUOUS
 10
409.228269282
 20
250.7651968464
 11
409.228269282
 21
320.7651968464
  0
LINE
  5
239
100
AcDbEntity
  8
KONSTRUKTIONSELEMENTE
100
AcDbLine
 62
7
  6
CONTINUOUS
 10
348.2419418872
 20
134.4461313412
 11
351.070369012
 21
137.2745584659
  0
LINE
  5
23A
100
AcDbEntity
  8
KONSTRUKTIONSELEMENTE
100
AcDbLine
 62
7
  6
CONTINUOUS
 10
351.4239224026
 20
137.6281118565
 11
354.2523495273
 21
140.4565389813
  0
LINE
  5
23B
100
AcDbEntity
  8
KONSTRUKTIONSELEMENTE
100
AcDbLine
 62
7
  6
CONTINUOUS
 10
405.8711445539
 20
192.0753340079
 11
408.6995716787
 21
194.9037611326
  0
LINE
  5
23C
100
AcDbEntity
  8
KONSTRUKTIONSELEMENTE
100
AcDbLine
 62
7
  6
CONTINUOUS
 10
409.0531250693
 20
195.2573145232
 11
411.881552194
 21
198.085741648
  0
LINE
  5
23D
100
AcDbEntity
  8
KONSTRUKTIONSELEMENTE
100
AcDbLine
 62
7
  6
CONTINUOUS
 10
375.1119995723
 20
160.9626356357
 11
385.7186012901
 21
171.5692373535
  0
LINE
  5
23E
100
AcDbEntity
  8
BEZUGSACHSEN
100
AcDbLine
 62
7
  6
CONTINUOUS
 10
483.4248020858
 20
214.8216818162
 11
483.73575032
 21
214.8216818162
  0
LINE
  5
23F
100
AcDbEntity
  8
BEZUGSACHSEN
100
AcDbLine
 62
7
  6
CONTINUOUS
 10
481.9346336076
 20
214.9559852127
 11
482.4718615515
 21
214.9559852127
  0
LINE
  5
240
100
AcDbEntity
  8
BEZUGSACHSEN
100
AcDbLine
 62
7
  6
CONTINUOUS
 10
483.3191371951
 20
215.1927234767
 11
483.6691167958
 21
215.1927234767
  0
LINE
  5
241
100
AcDbEntity
  8
BEZUGSACHSEN
100
AcDbLine
 62
7
  6
CONTINUOUS
 10
483.8076875985
 20
215.5751008556
 11
483.9484954782
 21
215.5751008556
  0
LINE
  5
242
100
AcDbEntity
  8
BEZUGSACHSEN
100
AcDbLine
 62
7
  6
CONTINUOUS
 10
483.1956900324
 20
215.6262036422
 11
483.5713019447
 21
215.6262036422
  0
LINE
  5
243
100
AcDbEntity
  8
BEZUGSACHSEN
100
AcDbLine
 62
7
  6
CONTINUOUS
 10
483.7507956442
 20
215.8032820213
 11
483.9388263067
 21
215.8032820213
  0
LINE
  5
244
100
AcDbEntity
  8
BEZUGSACHSEN
100
AcDbLine
 62
7
  6
CONTINUOUS
 10
483.0544543518
 20
216.1221218276
 11
483.4428299971
 21
216.1221218276
  0
LINE
  5
245
100
AcDbEntity
  8
BEZUGSACHSEN
100
AcDbLine
 62
7
  6
CONTINUOUS
 10
481.9346336049
 20
216.4837077949
 11
482.4677387093
 21
216.4837077949
  0
LINE
  5
246
100
AcDbEntity
  8
BEZUGSACHSEN
100
AcDbLine
 62
7
  6
CONTINUOUS
 10
481.9276846914
 20
216.8656384405
 11
482.4598206374
 21
216.8656384405
  0
LINE
  5
247
100
AcDbEntity
  8
BEZUGSACHSEN
100
AcDbLine
 62
7
  6
CONTINUOUS
 10
482.6558287761
 20
217.7971922901
 11
482.9660435417
 21
217.7971922901
  0
LINE
  5
248
100
AcDbEntity
  8
BEZUGSACHSEN
100
AcDbLine
 62
7
  6
CONTINUOUS
 10
481.9247524538
 20
217.9100138691
 11
482.4541005696
 21
217.9100138691
  0
LINE
  5
249
100
AcDbEntity
  8
BEZUGSACHSEN
100
AcDbLine
 62
7
  6
CONTINUOUS
 10
482.6577681387
 20
218.1946449346
 11
482.8401080941
 21
218.1946449346
  0
LINE
  5
24A
100
AcDbEntity
  8
BEZUGSACHSEN
100
AcDbLine
 62
7
  6
CONTINUOUS
 10
482.656548615
 20
218.4311932042
 11
482.746898788
 21
218.4311932042
  0
LINE
  5
24B
100
AcDbEntity
  8
BEZUGSACHSEN
100
AcDbLine
 62
7
  6
CONTINUOUS
 10
481.939578593
 20
219.0916048677
 11
482.4656033438
 21
219.0916048677
  0
LINE
  5
24C
100
AcDbEntity
  8
BEZUGSACHSEN
100
AcDbLine
 62
7
  6
CONTINUOUS
 10
481.9688841581
 20
219.2260984932
 11
482.494264334
 21
219.2260984932
  0
LINE
  5
24D
100
AcDbEntity
  8
BEZUGSACHSEN
100
AcDbLine
 62
7
  6
CONTINUOUS
 10
482.3635723573
 20
221.3671307309
 11
482.446282698
 21
221.3671307309
  0
LINE
  5
24E
100
AcDbEntity
  8
0
100
AcDbLine
 62
7
  6
CONTINUOUS
 10
472.0446807616
 20
221.6646021596
 11
480.4118578024
 21
221.6646021596
  0
LINE
  5
24F
100
AcDbEntity
  8
0
100
AcDbLine
 62
7
  6
CONTINUOUS
 10
480.4118578024
 20
229.1950302553
 11
472.0446807616
 21
229.1950302553
  0
LINE
  5
250
100
AcDbEntity
  8
0
100
AcDbLine
 62
7
  6
CONTINUOUS
 10
460.8070658436
 20
130.4815292246
 11
458.9446016602
 21
133.5752891736
  0
LINE
  5
251
100
AcDbEntity
  8
0
100
AcDbLine
 62
7
  6
CONTINUOUS
 10
431.228269282
 20
250.7651968464
 11
431.228269282
 21
320.7651968464
  0
LINE
  5
252
100
AcDbEntity
  8
KONSTRUKTIONSELEMENTE
100
AcDbLine
 62
7
  6
CONTINUOUS
 10
378.2939800877
 20
157.7806551203
 11
388.9005818055
 21
168.3872568381
  0
LINE
  5
253
100
AcDbEntity
  8
KONSTRUKTIONSELEMENTE
100
AcDbLine
 62
7
  6
CONTINUOUS
 10
351.7774757932
 20
130.9105974352
 11
354.6059029179
 21
133.73902456
  0
LINE
  5
254
100
AcDbEntity
  8
KONSTRUKTIONSELEMENTE
100
AcDbLine
 62
7
  6
CONTINUOUS
 10
354.9594563085
 20
134.0925779506
 11
357.7878834333
 21
136.9210050753
  0
LINE
  5
255
100
AcDbEntity
  8
KONSTRUKTIONSELEMENTE
100
AcDbLine
 62
7
  6
CONTINUOUS
 10
409.4066784599
 20
188.5398001019
 11
412.2351055846
 21
191.3682272267
  0
LINE
  5
256
100
AcDbEntity
  8
KONSTRUKTIONSELEMENTE
100
AcDbLine
 62
7
  6
CONTINUOUS
 10
412.5886589752
 20
191.7217806173
 11
415.4170861
 21
194.550207742
  0
LINE
  5
257
100
AcDbEntity
  8
KONSTRUKTIONSELEMENTE
100
AcDbLine
 62
7
  6
CONTINUOUS
 10
444.4084641286
 20
223.1880323801
 11
415.4170861
 21
194.1966543514
  0
LINE
  5
258
100
AcDbEntity
  8
BEZUGSACHSEN
100
AcDbLine
 62
7
  6
CONTINUOUS
 10
354.6056574904
 20
132.6781189607
 11
353.5458965318
 21
131.6183580021
  0
LINE
  5
259
100
AcDbEntity
  8
KONSTRUKTIONSELEMENTE
100
AcDbLine
 62
7
  6
CONTINUOUS
 10
263.3891281449
 20
41.4615896151
 11
353.5458965318
 21
131.6183580021
  0
LINE
  5
25A
100
AcDbEntity
  8
KONSTRUKTIONSELEMENTE
100
AcDbLine
 62
7
  6
CONTINUOUS
 10
409.4066784599
 20
187.1255865396
 11
390.6979934847
 21
168.4169015644
  0
LINE
  5
25B
100
AcDbEntity
  8
KONSTRUKTIONSELEMENTE
100
AcDbLine
 62
7
  6
CONTINUOUS
 10
378.2939800877
 20
156.0128881674
 11
359.5852951125
 21
137.3042031922
  0
LINE
  5
25C
100
AcDbEntity
  8
KONSTRUKTIONSELEMENTE
100
AcDbLine
 62
7
  6
CONTINUOUS
 10
412.5886589752
 20
183.9436060242
 11
393.879974
 21
165.2349210491
  0
LINE
  5
25D
100
AcDbEntity
  8
KONSTRUKTIONSELEMENTE
100
AcDbLine
 62
7
  6
CONTINUOUS
 10
381.475960603
 20
152.830907652
 11
362.7672756278
 21
134.1222226768
  0
LINE
  5
25E
100
AcDbEntity
  8
BEZUGSACHSEN
100
AcDbLine
 62
7
  6
CONTINUOUS
 10
358.1411913963
 20
129.1425850548
 11
357.0814304378
 21
128.0828240962
  0
LINE
  5
25F
100
AcDbEntity
  8
KONSTRUKTIONSELEMENTE
100
AcDbLine
 62
7
  6
CONTINUOUS
 10
266.9246620508
 20
37.9260557092
 11
357.0814304378
 21
128.0828240962
  0
LINE
  5
260
100
AcDbEntity
  8
KONSTRUKTIONSELEMENTE
100
AcDbLine
 62
7
  6
CONTINUOUS
 10
448.6511048157
 20
218.945391693
 11
419.7092369143
 21
190.0035237915
  0
LINE
  5
261
100
AcDbEntity
  8
KONSTRUKTIONSELEMENTE
100
AcDbLine
 62
7
  6
CONTINUOUS
 10
420.0132801777
 20
189.9540136643
 11
414.0028725376
 21
183.9436060242
  0
LINE
  5
262
100
AcDbEntity
  8
KONSTRUKTIONSELEMENTE
100
AcDbLine
 62
7
  6
CONTINUOUS
 10
362.384077511
 20
132.3248109976
 11
356.3736698709
 21
126.3144033575
  0
LINE
  5
263
100
AcDbEntity
  8
KONSTRUKTIONSELEMENTE
100
AcDbLine
 62
7
  6
CONTINUOUS
 10
393.8503292738
 20
163.4375093698
 11
383.243727556
 21
152.830907652
  0
LINE
  5
264
100
AcDbEntity
  8
KONSTRUKTIONSELEMENTE
100
AcDbLine
 62
7
  6
CONTINUOUS
 10
397.0323097891
 20
160.2555288545
 11
386.4257080713
 21
149.6489271367
  0
LINE
  5
265
100
AcDbEntity
  8
KONSTRUKTIONSELEMENTE
100
AcDbLine
 62
7
  6
CONTINUOUS
 10
423.5488140836
 20
186.4184797584
 11
417.5384064435
 21
180.4080721183
  0
LINE
  5
266
100
AcDbEntity
  8
KONSTRUKTIONSELEMENTE
100
AcDbLine
 62
7
  6
CONTINUOUS
 10
365.9196114169
 20
128.7892770917
 11
359.9092037768
 21
122.7788694516
  0
LINE
  5
267
100
AcDbEntity
  8
0
100
AcDbLine
 62
7
  6
CONTINUOUS
 10
458.228269282
 20
136.1540857353
 11
458.228269282
 21
147.0857049221
  0
LINE
  5
268
100
AcDbEntity
  8
0
100
AcDbLine
 62
7
  6
CONTINUOUS
 10
463.228269282
 20
159.7651968464
 11
463.228269282
 21
167.4357956948
  0
LINE
  5
269
100
AcDbEntity
  8
RUNDUNGEN
100
AcDbLine
 62
7
  6
CONTINUOUS
 10
492.8885233199
 20
152.0857049221
 11
484.032013111
 21
167.4256305816
  0
LINE
  5
26A
100
AcDbEntity
  8
0
100
AcDbLine
 62
7
  6
CONTINUOUS
 10
471.6554050905
 20
184.494915545
 11
471.8953263646
 21
177.5807082376
  0
LINE
  5
26B
100
AcDbEntity
  8
0
100
AcDbLine
 62
7
  6
CONTINUOUS
 10
467.978269282
 20
212.1488372597
 11
467.978269282
 21
174.2042200664
  0
LINE
  5
26C
100
AcDbEntity
  8
0
100
AcDbLine
 62
7
  6
CONTINUOUS
 10
471.8953263646
 20
177.5807082376
 11
471.8953263646
 21
154.6784493188
  0
LINE
  5
26D
100
AcDbEntity
  8
0
100
AcDbLine
 62
7
  6
CONTINUOUS
 10
468.1564949244
 20
213.6003686333
 11
472.0446807616
 21
229.1950302553
  0
LINE
  5
26E
100
AcDbEntity
  8
RUNDUNGEN
100
AcDbLine
 62
7
  6
CONTINUOUS
 10
480.5612121994
 20
177.5807082376
 11
480.5612121994
 21
154.6784493188
  0
LINE
  5
26F
100
AcDbEntity
  8
BEZUGSACHSEN
100
AcDbLine
 62
7
  6
CONTINUOUS
 10
484.478269282
 20
212.1488372597
 11
484.478269282
 21
186.6499961993
  0
LINE
  5
270
100
AcDbEntity
  8
KONSTRUKTIONSELEMENTE
100
AcDbLine
 62
7
  6
CONTINUOUS
 10
484.478269282
 20
186.6499961993
 11
484.478269282
 21
174.2042122919
  0
LINE
  5
271
100
AcDbEntity
  8
RUNDUNGEN
100
AcDbLine
 62
7
  6
CONTINUOUS
 10
484.478269282
 20
186.6499961753
 11
484.478269282
 21
174.2042200664
  0
LINE
  5
272
100
AcDbEntity
  8
KONSTRUKTIONSELEMENTE
100
AcDbLine
 62
7
  6
CONTINUOUS
 10
489.228269282
 20
159.7651968464
 11
489.228269282
 21
167.4357956948
  0
LINE
  5
273
100
AcDbEntity
  8
RUNDUNGEN
100
AcDbLine
 62
7
  6
CONTINUOUS
 10
494.228269282
 20
136.1540857353
 11
494.228269282
 21
147.0857049221
  0
LINE
  5
274
100
AcDbEntity
  8
0
100
AcDbLine
 62
7
  6
CONTINUOUS
 10
480.8011334735
 20
184.494915545
 11
480.5612121994
 21
177.5807082376
  0
LINE
  5
275
100
AcDbEntity
  8
0
100
AcDbLine
 62
7
  6
CONTINUOUS
 10
459.5680152442
 20
152.0857049221
 11
468.424525453
 21
167.4256305816
  0
LINE
  5
276
100
AcDbEntity
  8
KONSTRUKTIONSELEMENTE
100
AcDbLine
 62
7
  6
CONTINUOUS
 10
480.4118578024
 20
229.1950302553
 11
484.3000436397
 21
213.6003686333
  0
LINE
  5
277
100
AcDbEntity
  8
0
100
AcDbLine
 62
7
  6
CONTINUOUS
 10
521.228269282
 20
320.7651968464
 11
521.228269282
 21
250.7651968464
  0
LINE
  5
278
100
AcDbEntity
  8
RUNDUNGEN
100
AcDbLine
 62
7
  6
CONTINUOUS
 10
491.6494727204
 20
130.4815292246
 11
493.5119369038
 21
133.5752891736
  0
LINE
  5
279
100
AcDbEntity
  8
0
100
AcDbLine
 62
7
  6
CONTINUOUS
 10
543.228269282
 20
320.7651968464
 11
543.228269282
 21
250.7651968464
  0
LINE
  5
27A
100
AcDbEntity
  8
KONSTRUKTIONSELEMENTE
100
AcDbLine
 62
7
  6
CONTINUOUS
 10
109.4132267181
 20
37.9260557092
 11
121.2432267181
 21
37.9260557092
  0
LINE
  5
27B
100
AcDbEntity
  8
KONSTRUKTIONSELEMENTE
100
AcDbLine
 62
7
  6
CONTINUOUS
 10
108.7632267181
 20
38.385675117
 11
109.4132267181
 21
38.385675117
  0
LINE
  5
27C
100
AcDbEntity
  8
KONSTRUKTIONSELEMENTE
100
AcDbLine
 62
7
  6
CONTINUOUS
 10
121.2432267181
 20
38.385675117
 11
121.8932267181
 21
38.385675117
  0
LINE
  5
27D
100
AcDbEntity
  8
KONSTRUKTIONSELEMENTE
100
AcDbLine
 62
7
  6
CONTINUOUS
 10
104.2132267181
 20
56.3108320201
 11
102.6263402778
 21
56.3108320201
  0
LINE
  5
27E
100
AcDbEntity
  8
KONSTRUKTIONSELEMENTE
100
AcDbLine
 62
7
  6
CONTINUOUS
 10
126.4432267181
 20
56.3108320201
 11
144.7321736389
 21
56.3108320201
  0
LINE
  5
27F
100
AcDbEntity
  8
KONSTRUKTIONSELEMENTE
100
AcDbLine
 62
7
  6
CONTINUOUS
 10
150.5332421122
 20
59.9157700305
 11
142.8749413117
 21
62.4409362478
  0
LINE
  5
280
100
AcDbEntity
  8
KONSTRUKTIONSELEMENTE
100
AcDbLine
 62
7
  6
CONTINUOUS
 10
150.5332421122
 20
63.4513039364
 11
142.8749413117
 21
65.9764701537
  0
LINE
  5
281
100
AcDbEntity
  8
KONSTRUKTIONSELEMENTE
100
AcDbLine
 62
7
  6
CONTINUOUS
 10
64.5752454194
 20
108.5063337041
 11
65.927623857
 21
106.4555932815
  0
LINE
  5
282
100
AcDbEntity
  8
KONSTRUKTIONSELEMENTE
100
AcDbLine
 62
7
  6
CONTINUOUS
 10
73.0635332065
 20
95.6347332705
 11
97.2459747175
 21
58.964590546
  0
LINE
  5
283
100
AcDbEntity
  8
KONSTRUKTIONSELEMENTE
100
AcDbLine
 62
7
  6
CONTINUOUS
 10
73.0635332065
 20
96.0943526782
 11
72.7888313364
 21
96.5109093266
  0
LINE
  5
284
100
AcDbEntity
  8
KONSTRUKTIONSELEMENTE
100
AcDbLine
 62
7
  6
CONTINUOUS
 10
65.927623857
 20
106.4555932815
 11
65.9487547701
 21
106.4589058014
  0
LINE
  5
285
100
AcDbEntity
  8
KONSTRUKTIONSELEMENTE
100
AcDbLine
 62
7
  6
CONTINUOUS
 10
138.4241649056
 20
121.7651968464
 11
132.827497302
 21
121.7651968464
  0
LINE
  5
286
100
AcDbEntity
  8
KONSTRUKTIONSELEMENTE
100
AcDbLine
 62
7
  6
CONTINUOUS
 10
97.8289561343
 20
121.7651968464
 11
92.2322885306
 21
121.7651968464
  0
LINE
  5
287
100
AcDbEntity
  8
KONSTRUKTIONSELEMENTE
100
AcDbLine
 62
7
  6
CONTINUOUS
 10
171.1481030222
 20
105.3142282073
 11
178.8064038226
 21
102.78906199
  0
LINE
  5
288
100
AcDbEntity
  8
KONSTRUKTIONSELEMENTE
100
AcDbLine
 62
7
  6
CONTINUOUS
 10
76.5186861732
 20
107.7961899795
 11
81.6650285813
 21
99.9923000983
  0
LINE
  5
289
100
AcDbEntity
  8
0
100
AcDbLine
 62
7
  6
CONTINUOUS
 10
108.2282267181
 20
131.9651968464
 11
122.4282267181
 21
131.9651968464
  0
LINE
  5
28A
100
AcDbEntity
  8
KONSTRUKTIONSELEMENTE
100
AcDbLine
 62
7
  6
CONTINUOUS
 10
122.090118906
 20
128.0828240962
 11
122.4282267181
 21
127.9713400415
  0
LINE
  5
28B
100
AcDbEntity
  8
KONSTRUKTIONSELEMENTE
100
AcDbLine
 62
7
  6
CONTINUOUS
 10
139.7418664709
 20
122.2625256007
 11
177.0756275802
 21
109.952490415
  0
LINE
  5
28C
100
AcDbEntity
  8
KONSTRUKTIONSELEMENTE
100
AcDbLine
 62
7
  6
CONTINUOUS
 10
177.0756275802
 20
113.4880243209
 11
142.0908476787
 21
125.0235315604
  0
LINE
  5
28D
100
AcDbEntity
  8
KONSTRUKTIONSELEMENTE
100
AcDbLine
 62
7
  6
CONTINUOUS
 10
122.4282267181
 20
131.5068739475
 11
122.090118906
 21
131.6183580021
  0
LINE
  5
28E
100
AcDbEntity
  8
RUNDUNGEN
100
AcDbLine
 62
7
  6
CONTINUOUS
 10
83.7961378319
 20
130.7075620955
 11
84.1989807255
 21
130.2274726299
  0
LINE
  5
28F
100
AcDbEntity
  8
0
100
AcDbLine
 62
7
  6
CONTINUOUS
 10
84.1989807255
 20
130.2274726299
 11
90.7001996444
 21
122.479621627
  0
LINE
  5
290
100
AcDbEntity
  8
0
100
AcDbLine
 62
7
  6
CONTINUOUS
 10
108.2282267181
 20
147.5651968464
 11
122.4282267181
 21
147.5651968464
  0
LINE
  5
291
100
AcDbEntity
  8
RUNDUNGEN
100
AcDbLine
 62
7
  6
CONTINUOUS
 10
82.6263600475
 20
148.6016489726
 11
81.7550285436
 21
149.6400614227
  0
LINE
  5
292
100
AcDbEntity
  8
KONSTRUKTIONSELEMENTE
100
AcDbLine
 62
7
  6
CONTINUOUS
 10
63.9662460352
 20
110.4487692558
 11
63.9662460352
 21
113.9843031617
  0
LINE
  5
293
100
AcDbEntity
  8
KONSTRUKTIONSELEMENTE
100
AcDbLine
 62
7
  6
CONTINUOUS
 10
72.6061315211
 20
97.0936399921
 11
72.6061315211
 21
99.7099350825
  0
LINE
  5
294
100
AcDbEntity
  8
KONSTRUKTIONSELEMENTE
100
AcDbLine
 62
7
  6
CONTINUOUS
 10
73.0635332065
 20
95.6347332705
 11
73.0635332065
 21
96.0943526782
  0
LINE
  5
295
100
AcDbEntity
  8
RUNDUNGEN
100
AcDbLine
 62
7
  6
CONTINUOUS
 10
81.7550285436
 20
149.6400614227
 11
77.8282267181
 21
177.5807082376
  0
LINE
  5
296
100
AcDbEntity
  8
0
100
AcDbLine
 62
7
  6
CONTINUOUS
 10
77.8282267181
 20
201.9496854551
 11
77.8282267181
 21
177.5807082376
  0
LINE
  5
297
100
AcDbEntity
  8
RUNDUNGEN
100
AcDbLine
 62
7
  6
CONTINUOUS
 10
83.3282267181
 20
131.9931373149
 11
83.3282267181
 21
163.8388056324
  0
LINE
  5
298
100
AcDbEntity
  8
BEZUGSACHSEN
100
AcDbLine
 62
7
  6
CONTINUOUS
 10
98.8558651977
 20
212.0420399874
 11
98.8527166039
 21
212.69466167
  0
LINE
  5
299
100
AcDbEntity
  8
KONSTRUKTIONSELEMENTE
100
AcDbLine
 62
7
  6
CONTINUOUS
 10
96.758899859
 20
147.0857049221
 11
96.758899859
 21
139.2955718464
  0
LINE
  5
29A
100
AcDbEntity
  8
BEZUGSACHSEN
100
AcDbLine
 62
7
  6
CONTINUOUS
 10
93.396459276
 20
210.6040043955
 11
93.475457426
 21
211.0774179862
  0
LINE
  5
29B
100
AcDbEntity
  8
BEZUGSACHSEN
100
AcDbLine
 62
7
  6
CONTINUOUS
 10
98.1399891983
 20
212.1217657017
 11
98.2176067178
 21
212.5117316421
  0
LINE
  5
29C
100
AcDbEntity
  8
BEZUGSACHSEN
100
AcDbLine
 62
7
  6
CONTINUOUS
 10
92.7447822103
 20
210.6392454322
 11
92.851754098
 21
210.9519177758
  0
LINE
  5
29D
100
AcDbEntity
  8
0
100
AcDbLine
 62
7
  6
CONTINUOUS
 10
92.15195214
 20
221.6646021596
 11
77.8282267181
 21
201.9496854551
  0
LINE
  5
29E
100
AcDbEntity
  8
BEZUGSACHSEN
100
AcDbLine
 62
7
  6
CONTINUOUS
 10
89.14903342
 20
210.4356240898
 11
90.7683801512
 21
212.258796379
  0
LINE
  5
29F
100
AcDbEntity
  8
BEZUGSACHSEN
100
AcDbLine
 62
7
  6
CONTINUOUS
 10
93.6350172825
 20
206.4511606648
 11
89.14903342
 21
210.4356240898
  0
LINE
  5
2A0
100
AcDbEntity
  8
BEZUGSACHSEN
100
AcDbLine
 62
7
  6
CONTINUOUS
 10
94.0398539653
 20
206.9069537371
 11
92.0354781685
 21
208.687245931
  0
LINE
  5
2A1
100
AcDbEntity
  8
BEZUGSACHSEN
100
AcDbLine
 62
7
  6
CONTINUOUS
 10
91.4627994458
 20
209.1959007757
 11
90.0311023717
 21
210.4675381249
  0
LINE
  5
2A2
100
AcDbEntity
  8
BEZUGSACHSEN
100
AcDbLine
 62
7
  6
CONTINUOUS
 10
92.7958068157
 20
211.2734004873
 11
92.5769401704
 21
211.6036933492
  0
LINE
  5
2A3
100
AcDbEntity
  8
BEZUGSACHSEN
100
AcDbLine
 62
7
  6
CONTINUOUS
 10
93.2960899522
 20
211.6444177521
 11
93.077223307
 21
211.9747106141
  0
LINE
  5
2A4
100
AcDbEntity
  8
BEZUGSACHSEN
100
AcDbLine
 62
7
  6
CONTINUOUS
 10
93.475457426
 20
211.0774179862
 11
93.2960899522
 21
211.6444177521
  0
LINE
  5
2A5
100
AcDbEntity
  8
BEZUGSACHSEN
100
AcDbLine
 62
7
  6
CONTINUOUS
 10
98.2176067178
 20
212.5117316421
 11
98.1360530952
 21
212.9375425579
  0
LINE
  5
2A6
100
AcDbEntity
  8
BEZUGSACHSEN
100
AcDbLine
 62
7
  6
CONTINUOUS
 10
92.851754098
 20
210.9519177758
 11
92.7958068157
 21
211.2734004873
  0
LINE
  5
2A7
100
AcDbEntity
  8
BEZUGSACHSEN
100
AcDbLine
 62
7
  6
CONTINUOUS
 10
102.5207295317
 20
215.1927234767
 11
102.512912135
 21
215.6262036422
  0
LINE
  5
2A8
100
AcDbEntity
  8
0
100
AcDbLine
 62
7
  6
CONTINUOUS
 10
104.3282267181
 20
376.7017678406
 11
104.3282267181
 21
194.8286258521
  0
LINE
  5
2A9
100
AcDbEntity
  8
KONSTRUKTIONSELEMENTE
100
AcDbLine
 62
7
  6
CONTINUOUS
 10
106.8132267181
 20
53.1639572219
 11
106.8132267181
 21
39.7645333403
  0
LINE
  5
2AA
100
AcDbEntity
  8
KONSTRUKTIONSELEMENTE
100
AcDbLine
 62
7
  6
CONTINUOUS
 10
107.3282267181
 20
181.4687322901
 11
107.3282267181
 21
175.9287627956
  0
LINE
  5
2AB
100
AcDbEntity
  8
0
100
AcDbLine
 62
7
  6
CONTINUOUS
 10
108.2282267181
 20
124.7419308331
 11
108.2282267181
 21
139.2955718464
  0
LINE
  5
2AC
100
AcDbEntity
  8
KONSTRUKTIONSELEMENTE
100
AcDbLine
 62
7
  6
CONTINUOUS
 10
108.2282267181
 20
139.2955718464
 11
108.2282267181
 21
157.1651968464
  0
LINE
  5
2AD
100
AcDbEntity
  8
KONSTRUKTIONSELEMENTE
100
AcDbLine
 62
7
  6
CONTINUOUS
 10
109.4132267181
 20
37.9260557092
 11
109.4132267181
 21
52.6338767579
  0
LINE
  5
2AE
100
AcDbEntity
  8
BEZUGSACHSEN
100
AcDbLine
 62
7
  6
CONTINUOUS
 10
103.0696385399
 20
214.6211613413
 11
103.1777196721
 21
215.2647784406
  0
LINE
  5
2AF
100
AcDbEntity
  8
BEZUGSACHSEN
100
AcDbLine
 62
7
  6
CONTINUOUS
 10
98.6990555582
 20
211.5884188615
 11
98.8558651977
 21
212.0420399874
  0
LINE
  5
2B0
100
AcDbEntity
  8
BEZUGSACHSEN
100
AcDbLine
 62
7
  6
CONTINUOUS
 10
102.3778099732
 20
214.8216818162
 11
102.5207295317
 21
215.1927234767
  0
LINE
  5
2B1
100
AcDbEntity
  8
BEZUGSACHSEN
100
AcDbLine
 62
7
  6
CONTINUOUS
 10
102.8378404379
 20
214.2008869592
 11
103.0696385399
 21
214.6211613413
  0
LINE
  5
2B2
100
AcDbEntity
  8
BEZUGSACHSEN
100
AcDbLine
 62
7
  6
CONTINUOUS
 10
97.9032004246
 20
211.7676448759
 11
98.1399891983
 21
212.1217657017
  0
LINE
  5
2B3
100
AcDbEntity
  8
BEZUGSACHSEN
100
AcDbLine
 62
7
  6
CONTINUOUS
 10
98.3830751596
 20
211.1706431622
 11
98.6990555582
 21
211.5884188615
  0
LINE
  5
2B4
100
AcDbEntity
  8
BEZUGSACHSEN
100
AcDbLine
 62
7
  6
CONTINUOUS
 10
90.0311023717
 20
210.4675381249
 11
91.3130851362
 21
211.9108827814
  0
LINE
  5
2B5
100
AcDbEntity
  8
BEZUGSACHSEN
100
AcDbLine
 62
7
  6
CONTINUOUS
 10
91.4627994458
 20
209.1959007757
 11
92.7447822103
 21
210.6392454322
  0
LINE
  5
2B6
100
AcDbEntity
  8
BEZUGSACHSEN
100
AcDbLine
 62
7
  6
CONTINUOUS
 10
92.0354781685
 20
208.687245931
 11
93.1825154043
 21
209.9786595997
  0
LINE
  5
2B7
100
AcDbEntity
  8
BEZUGSACHSEN
100
AcDbLine
 62
7
  6
CONTINUOUS
 10
93.6350172825
 20
206.4511606648
 11
94.0398539653
 21
206.9069537371
  0
LINE
  5
2B8
100
AcDbEntity
  8
BEZUGSACHSEN
100
AcDbLine
 62
7
  6
CONTINUOUS
 10
95.7266734126
 20
208.806091466
 11
96.1989830046
 21
209.3378501952
  0
LINE
  5
2B9
100
AcDbEntity
  8
BEZUGSACHSEN
100
AcDbLine
 62
7
  6
CONTINUOUS
 10
102.0841533727
 20
214.5130788171
 11
102.3778099732
 21
214.8216818162
  0
LINE
  5
2BA
100
AcDbEntity
  8
BEZUGSACHSEN
100
AcDbLine
 62
7
  6
CONTINUOUS
 10
102.4553043093
 20
213.8430506165
 11
102.8378404379
 21
214.2008869592
  0
LINE
  5
2BB
100
AcDbEntity
  8
BEZUGSACHSEN
100
AcDbLine
 62
7
  6
CONTINUOUS
 10
93.0402176384
 20
214.574054385
 11
93.5153694687
 21
214.9559852127
  0
LINE
  5
2BC
100
AcDbEntity
  8
BEZUGSACHSEN
100
AcDbLine
 62
7
  6
CONTINUOUS
 10
95.4159758834
 20
216.4837077949
 11
95.8911274871
 21
216.8656384405
  0
LINE
  5
2BD
100
AcDbEntity
  8
BEZUGSACHSEN
100
AcDbLine
 62
7
  6
CONTINUOUS
 10
97.5864325378
 20
211.5130243241
 11
97.9032004246
 21
211.7676448759
  0
LINE
  5
2BE
100
AcDbEntity
  8
BEZUGSACHSEN
100
AcDbLine
 62
7
  6
CONTINUOUS
 10
98.0663072728
 20
210.9160226104
 11
98.3830751596
 21
211.1706431622
  0
LINE
  5
2BF
100
AcDbEntity
  8
BEZUGSACHSEN
100
AcDbLine
 62
7
  6
CONTINUOUS
 10
90.7683801512
 20
212.258796379
 11
91.2011905716
 21
212.5538482043
  0
LINE
  5
2C0
100
AcDbEntity
  8
BEZUGSACHSEN
100
AcDbLine
 62
7
  6
CONTINUOUS
 10
97.4148627677
 20
217.9100138691
 11
99.5479552983
 21
219.0916048677
  0
LINE
  5
2C1
100
AcDbEntity
  8
BEZUGSACHSEN
100
AcDbLine
 62
7
  6
CONTINUOUS
 10
98.3192867937
 20
217.5353834963
 11
99.9191061916
 21
218.4215767453
  0
LINE
  5
2C2
100
AcDbEntity
  8
BEZUGSACHSEN
100
AcDbLine
 62
7
  6
CONTINUOUS
 10
100.4843339747
 20
213.6268855681
 11
102.0841533727
 21
214.5130788171
  0
LINE
  5
2C3
100
AcDbEntity
  8
BEZUGSACHSEN
100
AcDbLine
 62
7
  6
CONTINUOUS
 10
91.3130851362
 20
211.9108827814
 11
91.6109499314
 21
212.0540035101
  0
LINE
  5
2C4
100
AcDbEntity
  8
0
100
AcDbLine
 62
7
  6
CONTINUOUS
 10
104.3282267181
 20
225.6209135967
 11
92.15195214
 21
221.6646021596
  0
LINE
  5
2C5
100
AcDbEntity
  8
BEZUGSACHSEN
100
AcDbLine
 62
7
  6
CONTINUOUS
 10
139.6210905186
 20
204.6206773241
 11
139.8896761769
 21
204.6787515569
  0
LINE
  5
2C6
100
AcDbEntity
  8
BEZUGSACHSEN
100
AcDbLine
 62
7
  6
CONTINUOUS
 10
96.3938303973
 20
211.5371300694
 11
96.7921519068
 21
211.3659397055
  0
LINE
  5
2C7
100
AcDbEntity
  8
BEZUGSACHSEN
100
AcDbLine
 62
7
  6
CONTINUOUS
 10
93.396459276
 20
210.6040043955
 11
96.1989830046
 21
209.3378501952
  0
LINE
  5
2C8
100
AcDbEntity
  8
BEZUGSACHSEN
100
AcDbLine
 62
7
  6
CONTINUOUS
 10
93.1825154043
 20
209.9786595997
 11
95.7266734126
 21
208.806091466
  0
LINE
  5
2C9
100
AcDbEntity
  8
BEZUGSACHSEN
100
AcDbLine
 62
7
  6
CONTINUOUS
 10
91.9367884642
 20
212.0363829918
 11
92.2906005417
 21
211.8580210091
  0
LINE
  5
2CA
100
AcDbEntity
  8
BEZUGSACHSEN
100
AcDbLine
 62
7
  6
CONTINUOUS
 10
92.341625147
 20
212.4921760641
 11
92.6954372245
 21
212.3138140814
  0
LINE
  5
2CB
100
AcDbEntity
  8
BEZUGSACHSEN
100
AcDbLine
 62
7
  6
CONTINUOUS
 10
95.9986581333
 20
211.055699332
 11
96.4769585854
 21
210.7850084422
  0
LINE
  5
2CC
100
AcDbEntity
  8
BEZUGSACHSEN
100
AcDbLine
 62
7
  6
CONTINUOUS
 10
95.9947223128
 20
211.8714763007
 11
96.3938303973
 21
211.5371300694
  0
LINE
  5
2CD
100
AcDbEntity
  8
BEZUGSACHSEN
100
AcDbLine
 62
7
  6
CONTINUOUS
 10
92.2906005417
 20
211.8580210091
 11
92.5769401704
 21
211.6036933492
  0
LINE
  5
2CE
100
AcDbEntity
  8
BEZUGSACHSEN
100
AcDbLine
 62
7
  6
CONTINUOUS
 10
92.6954372245
 20
212.3138140814
 11
93.077223307
 21
211.9747106141
  0
LINE
  5
2CF
100
AcDbEntity
  8
BEZUGSACHSEN
100
AcDbLine
 62
7
  6
CONTINUOUS
 10
95.5195704825
 20
211.489545473
 11
95.9986581333
 21
211.055699332
  0
LINE
  5
2D0
100
AcDbEntity
  8
BEZUGSACHSEN
100
AcDbLine
 62
7
  6
CONTINUOUS
 10
101.0901669572
 20
218.1946449346
 11
101.4264794025
 21
217.7971922901
  0
LINE
  5
2D1
100
AcDbEntity
  8
BEZUGSACHSEN
100
AcDbLine
 62
7
  6
CONTINUOUS
 10
95.5195704825
 20
211.489545473
 11
93.0402176384
 21
214.574054385
  0
LINE
  5
2D2
100
AcDbEntity
  8
BEZUGSACHSEN
100
AcDbLine
 62
7
  6
CONTINUOUS
 10
95.9947223128
 20
211.8714763007
 11
93.5153694687
 21
214.9559852127
  0
LINE
  5
2D3
100
AcDbEntity
  8
BEZUGSACHSEN
100
AcDbLine
 62
7
  6
CONTINUOUS
 10
95.4159758834
 20
216.4837077949
 11
97.8953287275
 21
213.3991988829
  0
LINE
  5
2D4
100
AcDbEntity
  8
BEZUGSACHSEN
100
AcDbLine
 62
7
  6
CONTINUOUS
 10
95.8911274871
 20
216.8656384405
 11
98.3704803312
 21
213.7811295284
  0
LINE
  5
2D5
100
AcDbEntity
  8
BEZUGSACHSEN
100
AcDbLine
 62
7
  6
CONTINUOUS
 10
101.5615814343
 20
218.6017143508
 11
101.9597525351
 21
218.0925900398
  0
LINE
  5
2D6
100
AcDbEntity
  8
BEZUGSACHSEN
100
AcDbLine
 62
7
  6
CONTINUOUS
 10
98.6911838121
 20
213.2199729294
 11
98.3704803312
 21
213.7811295284
  0
LINE
  5
2D7
100
AcDbEntity
  8
BEZUGSACHSEN
100
AcDbLine
 62
7
  6
CONTINUOUS
 10
100.3222117787
 20
212.6614596179
 11
97.4148627677
 21
217.9100138691
  0
LINE
  5
2D8
100
AcDbEntity
  8
BEZUGSACHSEN
100
AcDbLine
 62
7
  6
CONTINUOUS
 10
100.4843339747
 20
213.6268855681
 11
98.3192867937
 21
217.5353834963
  0
LINE
  5
2D9
100
AcDbEntity
  8
BEZUGSACHSEN
100
AcDbLine
 62
7
  6
CONTINUOUS
 10
101.4264794025
 20
217.7971922901
 11
102.3543567225
 21
216.1221218276
  0
LINE
  5
2DA
100
AcDbEntity
  8
BEZUGSACHSEN
100
AcDbLine
 62
7
  6
CONTINUOUS
 10
101.9597525351
 20
218.0925900398
 11
102.8876298551
 21
216.4175195773
  0
LINE
  5
2DB
100
AcDbEntity
  8
BEZUGSACHSEN
100
AcDbLine
 62
7
  6
CONTINUOUS
 10
98.1360530952
 20
212.9375425579
 11
97.8953287275
 21
213.3991988829
  0
LINE
  5
2DC
100
AcDbEntity
  8
BEZUGSACHSEN
100
AcDbLine
 62
7
  6
CONTINUOUS
 10
103.1080437498
 20
215.8099300382
 11
102.8876298551
 21
216.4175195773
  0
LINE
  5
2DD
100
AcDbEntity
  8
BEZUGSACHSEN
100
AcDbLine
 62
7
  6
CONTINUOUS
 10
102.512912135
 20
215.6262036422
 11
102.3543567225
 21
216.1221218276
  0
LINE
  5
2DE
100
AcDbEntity
  8
BEZUGSACHSEN
100
AcDbLine
 62
7
  6
CONTINUOUS
 10
98.8527166039
 20
212.69466167
 11
98.6911838121
 21
213.2199729294
  0
LINE
  5
2DF
100
AcDbEntity
  8
BEZUGSACHSEN
100
AcDbLine
 62
7
  6
CONTINUOUS
 10
103.1777196721
 20
215.2647784406
 11
103.1080437498
 21
215.8099300382
  0
LINE
  5
2E0
100
AcDbEntity
  8
KONSTRUKTIONSELEMENTE
100
AcDbLine
 62
7
  6
CONTINUOUS
 10
111.8282267181
 20
181.4687322901
 11
111.8282267181
 21
174.167455413
  0
LINE
  5
2E1
100
AcDbEntity
  8
KONSTRUKTIONSELEMENTE
100
AcDbLine
 62
7
  6
CONTINUOUS
 10
111.8282267181
 20
150.3560339179
 11
111.8282267181
 21
147.5651968464
  0
LINE
  5
2E2
100
AcDbEntity
  8
KONSTRUKTIONSELEMENTE
100
AcDbLine
 62
7
  6
CONTINUOUS
 10
112.8282267181
 20
184.0578736669
 11
112.8282267181
 21
180.4917030631
  0
LINE
  5
2E3
100
AcDbEntity
  8
KONSTRUKTIONSELEMENTE
100
AcDbLine
 62
7
  6
CONTINUOUS
 10
112.8282267181
 20
131.9651968464
 11
112.8282267181
 21
122.8625003964
  0
LINE
  5
2E4
100
AcDbEntity
  8
KONSTRUKTIONSELEMENTE
100
AcDbLine
 62
7
  6
CONTINUOUS
 10
113.0782267181
 20
163.8922841713
 11
113.0782267181
 21
149.5557813862
  0
LINE
  5
2E5
100
AcDbEntity
  8
KONSTRUKTIONSELEMENTE
100
AcDbLine
 62
7
  6
CONTINUOUS
 10
117.5782267181
 20
163.8922841713
 11
117.5782267181
 21
149.5557813862
  0
LINE
  5
2E6
100
AcDbEntity
  8
KONSTRUKTIONSELEMENTE
100
AcDbLine
 62
7
  6
CONTINUOUS
 10
117.8282267181
 20
184.0578736669
 11
117.8282267181
 21
180.4917030631
  0
LINE
  5
2E7
100
AcDbEntity
  8
KONSTRUKTIONSELEMENTE
100
AcDbLine
 62
7
  6
CONTINUOUS
 10
117.8282267181
 20
131.9651968464
 11
117.8282267181
 21
122.8625003964
  0
LINE
  5
2E8
100
AcDbEntity
  8
KONSTRUKTIONSELEMENTE
100
AcDbLine
 62
7
  6
CONTINUOUS
 10
118.8282267181
 20
147.5651968464
 11
118.8282267181
 21
150.3560339179
  0
LINE
  5
2E9
100
AcDbEntity
  8
KONSTRUKTIONSELEMENTE
100
AcDbLine
 62
7
  6
CONTINUOUS
 10
118.8282267181
 20
174.167455413
 11
118.8282267181
 21
181.4687322901
  0
LINE
  5
2EA
100
AcDbEntity
  8
KONSTRUKTIONSELEMENTE
100
AcDbLine
 62
7
  6
CONTINUOUS
 10
121.2432267181
 20
37.9260557092
 11
121.2432267181
 21
52.6338767579
  0
LINE
  5
2EB
100
AcDbEntity
  8
0
100
AcDbLine
 62
7
  6
CONTINUOUS
 10
122.4282267181
 20
139.2955718464
 11
122.4282267181
 21
124.7419308331
  0
LINE
  5
2EC
100
AcDbEntity
  8
KONSTRUKTIONSELEMENTE
100
AcDbLine
 62
7
  6
CONTINUOUS
 10
122.4282267181
 20
139.2955718464
 11
122.4282267181
 21
157.1651968464
  0
LINE
  5
2ED
100
AcDbEntity
  8
KONSTRUKTIONSELEMENTE
100
AcDbLine
 62
7
  6
CONTINUOUS
 10
123.3282267181
 20
175.9287627956
 11
123.3282267181
 21
181.4687322901
  0
LINE
  5
2EE
100
AcDbEntity
  8
KONSTRUKTIONSELEMENTE
100
AcDbLine
 62
7
  6
CONTINUOUS
 10
123.8432267181
 20
39.7645333403
 11
123.8432267181
 21
53.0934961657
  0
LINE
  5
2EF
100
AcDbEntity
  8
BEZUGSACHSEN
100
AcDbLine
 62
7
  6
CONTINUOUS
 10
128.0164700921
 20
218.2137688945
 11
128.2540373443
 21
218.530877647
  0
LINE
  5
2F0
100
AcDbEntity
  8
BEZUGSACHSEN
100
AcDbLine
 62
7
  6
CONTINUOUS
 10
128.0602100662
 20
217.5077795833
 11
128.533995514
 21
217.8672079831
  0
LINE
  5
2F1
100
AcDbEntity
  8
BEZUGSACHSEN
100
AcDbLine
 62
7
  6
CONTINUOUS
 10
130.5857451735
 20
217.8379564704
 11
131.0280859141
 21
218.1641160157
  0
LINE
  5
2F2
100
AcDbEntity
  8
BEZUGSACHSEN
100
AcDbLine
 62
7
  6
CONTINUOUS
 10
131.0358623242
 20
217.4074548217
 11
131.4107473613
 21
217.6252326348
  0
LINE
  5
2F3
100
AcDbEntity
  8
BEZUGSACHSEN
100
AcDbLine
 62
7
  6
CONTINUOUS
 10
127.732469066
 20
218.0530695016
 11
128.0164700921
 21
218.2137688945
  0
LINE
  5
2F4
100
AcDbEntity
  8
BEZUGSACHSEN
100
AcDbLine
 62
7
  6
CONTINUOUS
 10
100.3222117787
 20
212.6614596179
 11
102.4553043093
 21
213.8430506165
  0
LINE
  5
2F5
100
AcDbEntity
  8
BEZUGSACHSEN
100
AcDbLine
 62
7
  6
CONTINUOUS
 10
97.5903686339
 20
210.6972474766
 11
98.0663072728
 21
210.9160226104
  0
LINE
  5
2F6
100
AcDbEntity
  8
BEZUGSACHSEN
100
AcDbLine
 62
7
  6
CONTINUOUS
 10
97.1896859909
 20
211.3579044105
 11
97.5864325378
 21
211.5130243241
  0
LINE
  5
2F7
100
AcDbEntity
  8
BEZUGSACHSEN
100
AcDbLine
 62
7
  6
CONTINUOUS
 10
131.0280859141
 20
218.1641160157
 11
131.6429477746
 21
218.3829045057
  0
LINE
  5
2F8
100
AcDbEntity
  8
BEZUGSACHSEN
100
AcDbLine
 62
7
  6
CONTINUOUS
 10
141.732876107
 20
206.2845935694
 11
142.2700500177
 21
206.4007381746
  0
LINE
  5
2F9
100
AcDbEntity
  8
BEZUGSACHSEN
100
AcDbLine
 62
7
  6
CONTINUOUS
 10
131.0449144158
 20
213.1916231495
 11
131.4386079277
 21
213.247330714
  0
LINE
  5
2FA
100
AcDbEntity
  8
BEZUGSACHSEN
100
AcDbLine
 62
7
  6
CONTINUOUS
 10
97.1136424998
 20
210.6416274989
 11
97.5903686339
 21
210.6972474766
  0
LINE
  5
2FB
100
AcDbEntity
  8
BEZUGSACHSEN
100
AcDbLine
 62
7
  6
CONTINUOUS
 10
138.7159741381
 20
210.7034347196
 11
139.790939154
 21
210.8244393007
  0
LINE
  5
2FC
100
AcDbEntity
  8
BEZUGSACHSEN
100
AcDbLine
 62
7
  6
CONTINUOUS
 10
139.4899577013
 20
211.3697348102
 11
140.5649224461
 21
211.490739158
  0
LINE
  5
2FD
100
AcDbEntity
  8
BEZUGSACHSEN
100
AcDbLine
 62
7
  6
CONTINUOUS
 10
139.3672662732
 20
204.0828718119
 11
139.7984792158
 21
204.1278178475
  0
LINE
  5
2FE
100
AcDbEntity
  8
BEZUGSACHSEN
100
AcDbLine
 62
7
  6
CONTINUOUS
 10
141.64167922
 20
205.7336599098
 11
142.0728947567
 21
205.778602085
  0
LINE
  5
2FF
100
AcDbEntity
  8
BEZUGSACHSEN
100
AcDbLine
 62
7
  6
CONTINUOUS
 10
141.1218924636
 20
208.5671091719
 11
141.5531054061
 21
208.6120552074
  0
LINE
  5
300
100
AcDbEntity
  8
BEZUGSACHSEN
100
AcDbLine
 62
7
  6
CONTINUOUS
 10
130.7264514268
 20
212.4876379685
 11
131.2064094179
 21
212.4896575005
  0
LINE
  5
301
100
AcDbEntity
  8
BEZUGSACHSEN
100
AcDbLine
 62
7
  6
CONTINUOUS
 10
96.7921519068
 20
211.3659397055
 11
97.1896859909
 21
211.3579044105
  0
LINE
  5
302
100
AcDbEntity
  8
BEZUGSACHSEN
100
AcDbLine
 62
7
  6
CONTINUOUS
 10
91.6109499314
 20
212.0540035101
 11
91.9367884642
 21
212.0363829918
  0
LINE
  5
303
100
AcDbEntity
  8
BEZUGSACHSEN
100
AcDbLine
 62
7
  6
CONTINUOUS
 10
139.2958332818
 20
204.6469375292
 11
139.6210905186
 21
204.6206773241
  0
LINE
  5
304
100
AcDbEntity
  8
BEZUGSACHSEN
100
AcDbLine
 62
7
  6
CONTINUOUS
 10
141.4076189443
 20
206.3108538243
 11
141.732876107
 21
206.2845935694
  0
LINE
  5
305
100
AcDbEntity
  8
BEZUGSACHSEN
100
AcDbLine
 62
7
  6
CONTINUOUS
 10
141.3190451304
 20
209.1892491219
 11
141.9695594558
 21
209.1367286121
  0
LINE
  5
306
100
AcDbEntity
  8
BEZUGSACHSEN
100
AcDbLine
 62
7
  6
CONTINUOUS
 10
91.7574209905
 20
212.6033827577
 11
92.341625147
 21
212.4921760641
  0
LINE
  5
307
100
AcDbEntity
  8
BEZUGSACHSEN
100
AcDbLine
 62
7
  6
CONTINUOUS
 10
100.3364797566
 20
218.5068370369
 11
100.7268332873
 21
218.4311932042
  0
LINE
  5
308
100
AcDbEntity
  8
BEZUGSACHSEN
100
AcDbLine
 62
7
  6
CONTINUOUS
 10
96.4769585854
 20
210.7850084422
 11
97.1136424998
 21
210.6416274989
  0
LINE
  5
309
100
AcDbEntity
  8
BEZUGSACHSEN
100
AcDbLine
 62
7
  6
CONTINUOUS
 10
141.0971258628
 20
205.8573789892
 11
141.64167922
 21
205.7336599098
  0
LINE
  5
30A
100
AcDbEntity
  8
BEZUGSACHSEN
100
AcDbLine
 62
7
  6
CONTINUOUS
 10
138.9853401632
 20
204.1934626692
 11
139.3672662732
 21
204.0828718119
  0
LINE
  5
30B
100
AcDbEntity
  8
BEZUGSACHSEN
100
AcDbLine
 62
7
  6
CONTINUOUS
 10
141.5531054061
 20
208.6120552074
 11
141.9350314791
 21
208.5014643252
  0
LINE
  5
30C
100
AcDbEntity
  8
BEZUGSACHSEN
100
AcDbLine
 62
7
  6
CONTINUOUS
 10
100.5334404439
 20
219.199687431
 11
101.1363894555
 21
218.9499336614
  0
LINE
  5
30D
100
AcDbEntity
  8
BEZUGSACHSEN
100
AcDbLine
 62
7
  6
CONTINUOUS
 10
138.5467425581
 20
204.3883880203
 11
138.9853401632
 21
204.1934626692
  0
LINE
  5
30E
100
AcDbEntity
  8
BEZUGSACHSEN
100
AcDbLine
 62
7
  6
CONTINUOUS
 10
139.0765344931
 20
204.7444002141
 11
139.2958332818
 21
204.6469375292
  0
LINE
  5
30F
100
AcDbEntity
  8
BEZUGSACHSEN
100
AcDbLine
 62
7
  6
CONTINUOUS
 10
100.7268332873
 20
218.4311932042
 11
101.0901669572
 21
218.1946449346
  0
LINE
  5
310
100
AcDbEntity
  8
BEZUGSACHSEN
100
AcDbLine
 62
7
  6
CONTINUOUS
 10
101.1363894555
 20
218.9499336614
 11
101.5615814343
 21
218.6017143508
  0
LINE
  5
311
100
AcDbEntity
  8
0
100
AcDbLine
 62
7
  6
CONTINUOUS
 10
126.3282267181
 20
376.7017678406
 11
126.3282267181
 21
194.8286258521
  0
LINE
  5
312
100
AcDbEntity
  8
KONSTRUKTIONSELEMENTE
100
AcDbLine
 62
7
  6
CONTINUOUS
 10
133.8975535772
 20
147.0857049221
 11
133.8975535772
 21
139.2955718464
  0
LINE
  5
313
100
AcDbEntity
  8
BEZUGSACHSEN
100
AcDbLine
 62
7
  6
CONTINUOUS
 10
129.484422117
 20
214.9146395865
 11
129.4545834576
 21
214.4821175091
  0
LINE
  5
314
100
AcDbEntity
  8
BEZUGSACHSEN
100
AcDbLine
 62
7
  6
CONTINUOUS
 10
127.5877715183
 20
217.4231411592
 11
127.336728663
 21
214.3581349287
  0
LINE
  5
315
100
AcDbEntity
  8
BEZUGSACHSEN
100
AcDbLine
 62
7
  6
CONTINUOUS
 10
126.9268976051
 20
217.4145628336
 11
126.6772038063
 21
214.6243457084
  0
LINE
  5
316
100
AcDbEntity
  8
BEZUGSACHSEN
100
AcDbLine
 62
7
  6
CONTINUOUS
 10
128.4465156999
 20
219.2791869371
 11
128.3973859695
 21
218.8860172157
  0
LINE
  5
317
100
AcDbEntity
  8
BEZUGSACHSEN
100
AcDbLine
 62
7
  6
CONTINUOUS
 10
129.0118239522
 20
219.0510057714
 11
128.9626942218
 21
218.65783605
  0
LINE
  5
318
100
AcDbEntity
  8
BEZUGSACHSEN
100
AcDbLine
 62
7
  6
CONTINUOUS
 10
128.8993969416
 20
215.1283744027
 11
128.8021062913
 21
214.587467756
  0
LINE
  5
319
100
AcDbEntity
  8
BEZUGSACHSEN
100
AcDbLine
 62
7
  6
CONTINUOUS
 10
133.3947718314
 20
216.3904458398
 11
133.2786704487
 21
216.0116102151
  0
LINE
  5
31A
100
AcDbEntity
  8
BEZUGSACHSEN
100
AcDbLine
 62
7
  6
CONTINUOUS
 10
129.6679772288
 20
215.4018581721
 11
129.484422117
 21
214.9146395865
  0
LINE
  5
31B
100
AcDbEntity
  8
BEZUGSACHSEN
100
AcDbLine
 62
7
  6
CONTINUOUS
 10
128.3973859695
 20
218.8860172157
 11
128.2540373443
 21
218.530877647
  0
LINE
  5
31C
100
AcDbEntity
  8
BEZUGSACHSEN
100
AcDbLine
 62
7
  6
CONTINUOUS
 10
128.9626942218
 20
218.65783605
 11
128.7715627662
 21
218.1843167357
  0
LINE
  5
31D
100
AcDbEntity
  8
BEZUGSACHSEN
100
AcDbLine
 62
7
  6
CONTINUOUS
 10
129.1504059713
 20
215.7239762527
 11
128.8993969416
 21
215.1283744027
  0
LINE
  5
31E
100
AcDbEntity
  8
BEZUGSACHSEN
100
AcDbLine
 62
7
  6
CONTINUOUS
 10
134.0472509249
 20
216.2850942881
 11
133.7962417062
 21
215.6894921344
  0
LINE
  5
31F
100
AcDbEntity
  8
BEZUGSACHSEN
100
AcDbLine
 62
7
  6
CONTINUOUS
 10
129.1504059713
 20
215.7239762527
 11
130.1622148349
 21
217.3497253719
  0
LINE
  5
320
100
AcDbEntity
  8
BEZUGSACHSEN
100
AcDbLine
 62
7
  6
CONTINUOUS
 10
129.6679772288
 20
215.4018581721
 11
130.6797860924
 21
217.0276072913
  0
LINE
  5
321
100
AcDbEntity
  8
BEZUGSACHSEN
100
AcDbLine
 62
7
  6
CONTINUOUS
 10
131.8952283009
 20
215.5193379556
 11
131.4905047932
 21
214.8690383687
  0
LINE
  5
322
100
AcDbEntity
  8
BEZUGSACHSEN
100
AcDbLine
 62
7
  6
CONTINUOUS
 10
132.2668616795
 20
214.3858612477
 11
131.7272302415
 21
213.5187949799
  0
LINE
  5
323
100
AcDbEntity
  8
BEZUGSACHSEN
100
AcDbLine
 62
7
  6
CONTINUOUS
 10
133.1891564447
 20
214.714042754
 11
132.1773475811
 21
213.0882936348
  0
LINE
  5
324
100
AcDbEntity
  8
BEZUGSACHSEN
100
AcDbLine
 62
7
  6
CONTINUOUS
 10
128.533995514
 20
217.8672079831
 11
128.7715627662
 21
218.1843167357
  0
LINE
  5
325
100
AcDbEntity
  8
BEZUGSACHSEN
100
AcDbLine
 62
7
  6
CONTINUOUS
 10
130.1622148349
 20
217.3497253719
 11
130.5857451735
 21
217.8379564704
  0
LINE
  5
326
100
AcDbEntity
  8
BEZUGSACHSEN
100
AcDbLine
 62
7
  6
CONTINUOUS
 10
130.6797860924
 20
217.0276072913
 11
131.0358623242
 21
217.4074548217
  0
LINE
  5
327
100
AcDbEntity
  8
BEZUGSACHSEN
100
AcDbLine
 62
7
  6
CONTINUOUS
 10
131.8212713021
 20
212.7084460285
 11
132.1773475811
 21
213.0882936348
  0
LINE
  5
328
100
AcDbEntity
  8
BEZUGSACHSEN
100
AcDbLine
 62
7
  6
CONTINUOUS
 10
131.4386079277
 20
213.247330714
 11
131.7272302415
 21
213.5187949799
  0
LINE
  5
329
100
AcDbEntity
  8
BEZUGSACHSEN
100
AcDbLine
 62
7
  6
CONTINUOUS
 10
138.7159741381
 20
210.7034347196
 11
139.4899577013
 21
211.3697348102
  0
LINE
  5
32A
100
AcDbEntity
  8
BEZUGSACHSEN
100
AcDbLine
 62
7
  6
CONTINUOUS
 10
136.0177700627
 20
207.5762270297
 11
139.790939154
 21
210.8244393007
  0
LINE
  5
32B
100
AcDbEntity
  8
BEZUGSACHSEN
100
AcDbLine
 62
7
  6
CONTINUOUS
 10
140.9626518103
 20
211.0287311306
 11
136.4154994269
 21
207.1142190024
  0
LINE
  5
32C
100
AcDbEntity
  8
BEZUGSACHSEN
100
AcDbLine
 62
7
  6
CONTINUOUS
 10
140.8385427241
 20
208.988770029
 11
141.3190451304
 21
209.1892491219
  0
LINE
  5
32D
100
AcDbEntity
  8
BEZUGSACHSEN
100
AcDbLine
 62
7
  6
CONTINUOUS
 10
131.2064094179
 20
212.4896575005
 11
131.8212713021
 21
212.7084460285
  0
LINE
  5
32E
100
AcDbEntity
  8
BEZUGSACHSEN
100
AcDbLine
 62
7
  6
CONTINUOUS
 10
139.7984792158
 20
204.1278178475
 11
140.1730259164
 21
204.2570906998
  0
LINE
  5
32F
100
AcDbEntity
  8
BEZUGSACHSEN
100
AcDbLine
 62
7
  6
CONTINUOUS
 10
99.5479552983
 20
219.0916048677
 11
100.0542083968
 21
219.2260984932
  0
LINE
  5
330
100
AcDbEntity
  8
BEZUGSACHSEN
100
AcDbLine
 62
7
  6
CONTINUOUS
 10
99.9191061916
 20
218.4215767453
 11
100.3364797566
 21
218.5068370369
  0
LINE
  5
331
100
AcDbEntity
  8
BEZUGSACHSEN
100
AcDbLine
 62
7
  6
CONTINUOUS
 10
127.5877715183
 20
217.4231411592
 11
128.0602100662
 21
217.5077795833
  0
LINE
  5
332
100
AcDbEntity
  8
BEZUGSACHSEN
100
AcDbLine
 62
7
  6
CONTINUOUS
 10
131.4107473613
 20
217.6252326348
 11
131.804440826
 21
217.6809401235
  0
LINE
  5
333
100
AcDbEntity
  8
BEZUGSACHSEN
100
AcDbLine
 62
7
  6
CONTINUOUS
 10
91.2011905716
 20
212.5538482043
 11
91.7574209905
 21
212.6033827577
  0
LINE
  5
334
100
AcDbEntity
  8
BEZUGSACHSEN
100
AcDbLine
 62
7
  6
CONTINUOUS
 10
127.4020321094
 20
218.0487803387
 11
127.732469066
 21
218.0530695016
  0
LINE
  5
335
100
AcDbEntity
  8
BEZUGSACHSEN
100
AcDbLine
 62
7
  6
CONTINUOUS
 10
131.6429477746
 20
218.3829045057
 11
132.1229037736
 21
218.384925238
  0
LINE
  5
336
100
AcDbEntity
  8
BEZUGSACHSEN
100
AcDbLine
 62
7
  6
CONTINUOUS
 10
100.0542083968
 20
219.2260984932
 11
100.5334404439
 21
219.199687431
  0
LINE
  5
337
100
AcDbEntity
  8
BEZUGSACHSEN
100
AcDbLine
 62
7
  6
CONTINUOUS
 10
130.6324143091
 20
213.2979844529
 11
131.0449144158
 21
213.1916231495
  0
LINE
  5
338
100
AcDbEntity
  8
BEZUGSACHSEN
100
AcDbLine
 62
7
  6
CONTINUOUS
 10
131.804440826
 20
217.6809401235
 11
132.2169448814
 21
217.5745763625
  0
LINE
  5
339
100
AcDbEntity
  8
BEZUGSACHSEN
100
AcDbLine
 62
7
  6
CONTINUOUS
 10
130.2276907542
 20
212.64768479
 11
130.7264514268
 21
212.4876379685
  0
LINE
  5
33A
100
AcDbEntity
  8
BEZUGSACHSEN
100
AcDbLine
 62
7
  6
CONTINUOUS
 10
132.1229037736
 20
218.384925238
 11
132.6216683891
 21
218.2248759494
  0
LINE
  5
33B
100
AcDbEntity
  8
0
100
AcDbLine
 62
7
  6
CONTINUOUS
 10
138.5045012963
 20
221.6646021596
 11
126.3282267181
 21
225.6209135967
  0
LINE
  5
33C
100
AcDbEntity
  8
BEZUGSACHSEN
100
AcDbLine
 62
7
  6
CONTINUOUS
 10
126.6772038063
 20
214.6243457084
 11
127.336728663
 21
214.3581349287
  0
LINE
  5
33D
100
AcDbEntity
  8
BEZUGSACHSEN
100
AcDbLine
 62
7
  6
CONTINUOUS
 10
126.3282267181
 20
217.6562105016
 11
126.9268976051
 21
217.4145628336
  0
LINE
  5
33E
100
AcDbEntity
  8
BEZUGSACHSEN
100
AcDbLine
 62
7
  6
CONTINUOUS
 10
126.3282267181
 20
218.482211418
 11
127.4020321094
 21
218.0487803387
  0
LINE
  5
33F
100
AcDbEntity
  8
BEZUGSACHSEN
100
AcDbLine
 62
7
  6
CONTINUOUS
 10
126.3286311819
 20
220.5470508369
 11
128.1187746997
 21
219.8244768554
  0
LINE
  5
340
100
AcDbEntity
  8
BEZUGSACHSEN
100
AcDbLine
 62
7
  6
CONTINUOUS
 10
126.3282267181
 20
221.2355481917
 11
128.263470091
 21
220.4544060681
  0
LINE
  5
341
100
AcDbEntity
  8
BEZUGSACHSEN
100
AcDbLine
 62
7
  6
CONTINUOUS
 10
141.9695594558
 20
209.1367286121
 11
142.4081544389
 21
208.9418071026
  0
LINE
  5
342
100
AcDbEntity
  8
BEZUGSACHSEN
100
AcDbLine
 62
7
  6
CONTINUOUS
 10
129.4513338679
 20
213.130861911
 11
130.2276907542
 21
212.64768479
  0
LINE
  5
343
100
AcDbEntity
  8
BEZUGSACHSEN
100
AcDbLine
 62
7
  6
CONTINUOUS
 10
129.8560574228
 20
213.7811615739
 11
130.6324143091
 21
213.2979844529
  0
LINE
  5
344
100
AcDbEntity
  8
BEZUGSACHSEN
100
AcDbLine
 62
7
  6
CONTINUOUS
 10
131.4905047932
 20
214.8690383687
 11
132.2668616795
 21
214.3858612477
  0
LINE
  5
345
100
AcDbEntity
  8
BEZUGSACHSEN
100
AcDbLine
 62
7
  6
CONTINUOUS
 10
131.8952283009
 20
215.5193379556
 11
133.1891564447
 21
214.714042754
  0
LINE
  5
346
100
AcDbEntity
  8
BEZUGSACHSEN
100
AcDbLine
 62
7
  6
CONTINUOUS
 10
133.2786704487
 20
216.0116102151
 11
133.7962417062
 21
215.6894921344
  0
LINE
  5
347
100
AcDbEntity
  8
BEZUGSACHSEN
100
AcDbLine
 62
7
  6
CONTINUOUS
 10
132.2169448814
 20
217.5745763625
 11
132.9933017677
 21
217.0913992415
  0
LINE
  5
348
100
AcDbEntity
  8
BEZUGSACHSEN
100
AcDbLine
 62
7
  6
CONTINUOUS
 10
132.6216683891
 20
218.2248759494
 11
133.3980252754
 21
217.7416988284
  0
LINE
  5
349
100
AcDbEntity
  8
BEZUGSACHSEN
100
AcDbLine
 62
7
  6
CONTINUOUS
 10
140.8556835465
 20
206.6744404487
 11
141.4076189443
 21
206.3108538243
  0
LINE
  5
34A
100
AcDbEntity
  8
BEZUGSACHSEN
100
AcDbLine
 62
7
  6
CONTINUOUS
 10
128.263470091
 20
220.4544060681
 11
128.686776752
 21
220.1458756412
  0
LINE
  5
34B
100
AcDbEntity
  8
BEZUGSACHSEN
100
AcDbLine
 62
7
  6
CONTINUOUS
 10
138.2141059396
 20
204.6545119535
 11
138.5467425581
 21
204.3883880203
  0
LINE
  5
34C
100
AcDbEntity
  8
BEZUGSACHSEN
100
AcDbLine
 62
7
  6
CONTINUOUS
 10
138.6872289737
 20
205.0948547808
 11
139.0765344931
 21
204.7444002141
  0
LINE
  5
34D
100
AcDbEntity
  8
BEZUGSACHSEN
100
AcDbLine
 62
7
  6
CONTINUOUS
 10
141.9350314791
 20
208.5014643252
 11
142.3243395926
 21
208.1510058981
  0
LINE
  5
34E
100
AcDbEntity
  8
BEZUGSACHSEN
100
AcDbLine
 62
7
  6
CONTINUOUS
 10
128.1187746997
 20
219.8244768554
 11
128.3536459954
 21
219.5920065268
  0
LINE
  5
34F
100
AcDbEntity
  8
BEZUGSACHSEN
100
AcDbLine
 62
7
  6
CONTINUOUS
 10
142.4081544389
 20
208.9418071026
 11
142.910800373
 21
208.422687421
  0
LINE
  5
350
100
AcDbEntity
  8
BEZUGSACHSEN
100
AcDbLine
 62
7
  6
CONTINUOUS
 10
129.0874770942
 20
213.507677738
 11
129.4513338679
 21
213.130861911
  0
LINE
  5
351
100
AcDbEntity
  8
BEZUGSACHSEN
100
AcDbLine
 62
7
  6
CONTINUOUS
 10
133.3980252754
 20
217.7416988284
 11
133.7618781062
 21
217.3648854685
  0
LINE
  5
352
100
AcDbEntity
  8
BEZUGSACHSEN
100
AcDbLine
 62
7
  6
CONTINUOUS
 10
136.0177700627
 20
207.5762270297
 11
136.4154994269
 21
207.1142190024
  0
LINE
  5
353
100
AcDbEntity
  8
BEZUGSACHSEN
100
AcDbLine
 62
7
  6
CONTINUOUS
 10
140.5649224461
 20
211.490739158
 11
140.9626518103
 21
211.0287311306
  0
LINE
  5
354
100
AcDbEntity
  8
BEZUGSACHSEN
100
AcDbLine
 62
7
  6
CONTINUOUS
 10
129.5784612032
 20
214.1042918638
 11
129.8560574228
 21
213.7811615739
  0
LINE
  5
355
100
AcDbEntity
  8
BEZUGSACHSEN
100
AcDbLine
 62
7
  6
CONTINUOUS
 10
132.9933017677
 20
217.0913992415
 11
133.2708940386
 21
216.7682714091
  0
LINE
  5
356
100
AcDbEntity
  8
BEZUGSACHSEN
100
AcDbLine
 62
7
  6
CONTINUOUS
 10
137.7607468752
 20
205.3291685529
 11
138.2141059396
 21
204.6545119535
  0
LINE
  5
357
100
AcDbEntity
  8
BEZUGSACHSEN
100
AcDbLine
 62
7
  6
CONTINUOUS
 10
138.347210324
 20
205.6008462653
 11
138.6872289737
 21
205.0948547808
  0
LINE
  5
358
100
AcDbEntity
  8
BEZUGSACHSEN
100
AcDbLine
 62
7
  6
CONTINUOUS
 10
138.1329140179
 20
207.2930396064
 11
138.4162611633
 21
206.8713826096
  0
LINE
  5
359
100
AcDbEntity
  8
BEZUGSACHSEN
100
AcDbLine
 62
7
  6
CONTINUOUS
 10
140.2051718153
 20
206.7269570981
 11
140.4318500504
 21
206.3896307286
  0
LINE
  5
35A
100
AcDbEntity
  8
BEZUGSACHSEN
100
AcDbLine
 62
7
  6
CONTINUOUS
 10
140.6290053114
 20
207.0117668182
 11
140.8556835465
 21
206.6744404487
  0
LINE
  5
35B
100
AcDbEntity
  8
BEZUGSACHSEN
100
AcDbLine
 62
7
  6
CONTINUOUS
 10
140.8385427241
 20
208.988770029
 11
141.1218924636
 21
208.5671091719
  0
LINE
  5
35C
100
AcDbEntity
  8
BEZUGSACHSEN
100
AcDbLine
 62
7
  6
CONTINUOUS
 10
128.8773367847
 20
213.9391900922
 11
129.0874770942
 21
213.507677738
  0
LINE
  5
35D
100
AcDbEntity
  8
BEZUGSACHSEN
100
AcDbLine
 62
7
  6
CONTINUOUS
 10
133.7618781062
 20
217.3648854685
 11
133.9720204079
 21
216.933371914
  0
LINE
  5
35E
100
AcDbEntity
  8
BEZUGSACHSEN
100
AcDbLine
 62
7
  6
CONTINUOUS
 10
128.686776752
 20
220.1458756412
 11
128.9203011477
 21
219.6386153369
  0
LINE
  5
35F
100
AcDbEntity
  8
BEZUGSACHSEN
100
AcDbLine
 62
7
  6
CONTINUOUS
 10
138.1698189585
 20
206.0937095525
 11
138.347210324
 21
205.6008462653
  0
LINE
  5
360
100
AcDbEntity
  8
BEZUGSACHSEN
100
AcDbLine
 62
7
  6
CONTINUOUS
 10
129.4545834576
 20
214.4821175091
 11
129.5784612032
 21
214.1042918638
  0
LINE
  5
361
100
AcDbEntity
  8
BEZUGSACHSEN
100
AcDbLine
 62
7
  6
CONTINUOUS
 10
133.2708940386
 20
216.7682714091
 11
133.3947718314
 21
216.3904458398
  0
LINE
  5
362
100
AcDbEntity
  8
BEZUGSACHSEN
100
AcDbLine
 62
7
  6
CONTINUOUS
 10
128.3536459954
 20
219.5920065268
 11
128.4465156999
 21
219.2791869371
  0
LINE
  5
363
100
AcDbEntity
  8
BEZUGSACHSEN
100
AcDbLine
 62
7
  6
CONTINUOUS
 10
137.6400270234
 20
205.7376973587
 11
137.7607468752
 21
205.3291685529
  0
LINE
  5
364
100
AcDbEntity
  8
BEZUGSACHSEN
100
AcDbLine
 62
7
  6
CONTINUOUS
 10
128.9203011477
 20
219.6386153369
 11
129.0118239522
 21
219.0510057714
  0
LINE
  5
365
100
AcDbEntity
  8
BEZUGSACHSEN
100
AcDbLine
 62
7
  6
CONTINUOUS
 10
128.8021062913
 20
214.587467756
 11
128.8773367847
 21
213.9391900922
  0
LINE
  5
366
100
AcDbEntity
  8
BEZUGSACHSEN
100
AcDbLine
 62
7
  6
CONTINUOUS
 10
133.9720204079
 20
216.933371914
 11
134.0472509249
 21
216.2850942881
  0
LINE
  5
367
100
AcDbEntity
  8
BEZUGSACHSEN
100
AcDbLine
 62
7
  6
CONTINUOUS
 10
137.6252655642
 20
206.2174286069
 11
137.6400270234
 21
205.7376973587
  0
LINE
  5
368
100
AcDbEntity
  8
BEZUGSACHSEN
100
AcDbLine
 62
7
  6
CONTINUOUS
 10
138.1624369179
 20
206.3335770974
 11
138.1698189585
 21
206.0937095525
  0
LINE
  5
369
100
AcDbEntity
  8
BEZUGSACHSEN
100
AcDbLine
 62
7
  6
CONTINUOUS
 10
143.3148699736
 20
207.5924977643
 11
143.3296340548
 21
207.1127626743
  0
LINE
  5
36A
100
AcDbEntity
  8
RUNDUNGEN
100
AcDbLine
 62
7
  6
CONTINUOUS
 10
147.3282267181
 20
163.8388056324
 11
147.3282267181
 21
131.9931373149
  0
LINE
  5
36B
100
AcDbEntity
  8
BEZUGSACHSEN
100
AcDbLine
 62
7
  6
CONTINUOUS
 10
137.6671730245
 20
206.6128292341
 11
137.6252655642
 21
206.2174286069
  0
LINE
  5
36C
100
AcDbEntity
  8
BEZUGSACHSEN
100
AcDbLine
 62
7
  6
CONTINUOUS
 10
140.6659103261
 20
205.8124368141
 11
140.6240029029
 21
205.4170362118
  0
LINE
  5
36D
100
AcDbEntity
  8
BEZUGSACHSEN
100
AcDbLine
 62
7
  6
CONTINUOUS
 10
142.7284091932
 20
207.3208162414
 11
142.68650177
 21
206.9254156391
  0
LINE
  5
36E
100
AcDbEntity
  8
BEZUGSACHSEN
100
AcDbLine
 62
7
  6
CONTINUOUS
 10
138.2610159196
 20
206.6446432619
 11
138.1624369179
 21
206.3335770974
  0
LINE
  5
36F
100
AcDbEntity
  8
BEZUGSACHSEN
100
AcDbLine
 62
7
  6
CONTINUOUS
 10
143.3296340548
 20
207.1127626743
 11
143.1324787938
 21
206.4906265847
  0
LINE
  5
370
100
AcDbEntity
  8
BEZUGSACHSEN
100
AcDbLine
 62
7
  6
CONTINUOUS
 10
137.8717077319
 20
206.9951016392
 11
137.6671730245
 21
206.6128292341
  0
LINE
  5
371
100
AcDbEntity
  8
BEZUGSACHSEN
100
AcDbLine
 62
7
  6
CONTINUOUS
 10
141.1685588543
 20
205.293313272
 11
140.9640215527
 21
204.9110447274
  0
LINE
  5
372
100
AcDbEntity
  8
BEZUGSACHSEN
100
AcDbLine
 62
7
  6
CONTINUOUS
 10
142.68650177
 20
206.9254156391
 11
142.4819670626
 21
206.5431432341
  0
LINE
  5
373
100
AcDbEntity
  8
BEZUGSACHSEN
100
AcDbLine
 62
7
  6
CONTINUOUS
 10
138.4162611633
 20
206.8713826096
 11
138.2610159196
 21
206.6446432619
  0
LINE
  5
374
100
AcDbEntity
  8
BEZUGSACHSEN
100
AcDbLine
 62
7
  6
CONTINUOUS
 10
140.6240029029
 20
205.4170362118
 11
140.313509673
 21
204.963561277
  0
LINE
  5
375
100
AcDbEntity
  8
BEZUGSACHSEN
100
AcDbLine
 62
7
  6
CONTINUOUS
 10
138.1329140179
 20
207.2930396064
 11
137.8717077319
 21
206.9951016392
  0
LINE
  5
376
100
AcDbEntity
  8
BEZUGSACHSEN
100
AcDbLine
 62
7
  6
CONTINUOUS
 10
140.9640215527
 20
204.9110447274
 11
140.5968594125
 21
204.5419004199
  0
LINE
  5
377
100
AcDbEntity
  8
BEZUGSACHSEN
100
AcDbLine
 62
7
  6
CONTINUOUS
 10
143.1324787938
 20
206.4906265847
 11
142.7653142079
 21
206.1214862373
  0
LINE
  5
378
100
AcDbEntity
  8
BEZUGSACHSEN
100
AcDbLine
 62
7
  6
CONTINUOUS
 10
140.2051718153
 20
206.7269570981
 11
140.6290053114
 21
207.0117668182
  0
LINE
  5
379
100
AcDbEntity
  8
BEZUGSACHSEN
100
AcDbLine
 62
7
  6
CONTINUOUS
 10
142.4819670626
 20
206.5431432341
 11
142.2700500177
 21
206.4007381746
  0
LINE
  5
37A
100
AcDbEntity
  8
BEZUGSACHSEN
100
AcDbLine
 62
7
  6
CONTINUOUS
 10
140.313509673
 20
204.963561277
 11
139.8896761769
 21
204.6787515569
  0
LINE
  5
37B
100
AcDbEntity
  8
BEZUGSACHSEN
100
AcDbLine
 62
7
  6
CONTINUOUS
 10
142.7653142079
 20
206.1214862373
 11
142.5533971631
 21
205.9790811778
  0
LINE
  5
37C
100
AcDbEntity
  8
BEZUGSACHSEN
100
AcDbLine
 62
7
  6
CONTINUOUS
 10
140.5968594125
 20
204.5419004199
 11
140.1730259164
 21
204.2570906998
  0
LINE
  5
37D
100
AcDbEntity
  8
BEZUGSACHSEN
100
AcDbLine
 62
7
  6
CONTINUOUS
 10
142.0728947567
 20
205.778602085
 11
142.5533971631
 21
205.9790811778
  0
LINE
  5
37E
100
AcDbEntity
  8
0
100
AcDbLine
 62
7
  6
CONTINUOUS
 10
152.8282267181
 20
201.9496854551
 11
138.5045012963
 21
221.6646021596
  0
LINE
  5
37F
100
AcDbEntity
  8
BEZUGSACHSEN
100
AcDbLine
 62
7
  6
CONTINUOUS
 10
142.3243395926
 20
208.1510058981
 11
142.5510178277
 21
207.8136795286
  0
LINE
  5
380
100
AcDbEntity
  8
BEZUGSACHSEN
100
AcDbLine
 62
7
  6
CONTINUOUS
 10
142.910800373
 20
208.422687421
 11
143.0241407876
 21
208.254022306
  0
LINE
  5
381
100
AcDbEntity
  8
BEZUGSACHSEN
100
AcDbLine
 62
7
  6
CONTINUOUS
 10
143.0241407876
 20
208.254022306
 11
143.3148699736
 21
207.5924977643
  0
LINE
  5
382
100
AcDbEntity
  8
BEZUGSACHSEN
100
AcDbLine
 62
7
  6
CONTINUOUS
 10
140.4318500504
 20
206.3896307286
 11
140.6659103261
 21
205.8124368141
  0
LINE
  5
383
100
AcDbEntity
  8
BEZUGSACHSEN
100
AcDbLine
 62
7
  6
CONTINUOUS
 10
142.5510178277
 20
207.8136795286
 11
142.7284091932
 21
207.3208162414
  0
LINE
  5
384
100
AcDbEntity
  8
BEZUGSACHSEN
100
AcDbLine
 62
7
  6
CONTINUOUS
 10
141.0971258628
 20
205.8573789892
 11
141.1685588543
 21
205.293313272
  0
LINE
  5
385
100
AcDbEntity
  8
KONSTRUKTIONSELEMENTE
100
AcDbLine
 62
7
  6
CONTINUOUS
 10
150.908540242
 20
63.0347472881
 11
150.908540242
 21
59.4992133822
  0
LINE
  5
386
100
AcDbEntity
  8
0
100
AcDbLine
 62
7
  6
CONTINUOUS
 10
152.8282267181
 20
177.5807082376
 11
152.8282267181
 21
201.9496854551
  0
LINE
  5
387
100
AcDbEntity
  8
RUNDUNGEN
100
AcDbLine
 62
7
  6
CONTINUOUS
 10
148.9014248926
 20
149.6400614227
 11
152.8282267181
 21
177.5807082376
  0
LINE
  5
388
100
AcDbEntity
  8
KONSTRUKTIONSELEMENTE
100
AcDbLine
 62
7
  6
CONTINUOUS
 10
180.8286088789
 20
109.3224578375
 11
180.8286088789
 21
105.7869239316
  0
LINE
  5
389
100
AcDbEntity
  8
RUNDUNGEN
100
AcDbLine
 62
7
  6
CONTINUOUS
 10
148.9014248926
 20
149.6400614227
 11
148.0300933888
 21
148.6016489726
  0
LINE
  5
38A
100
AcDbEntity
  8
0
100
AcDbLine
 62
7
  6
CONTINUOUS
 10
139.9562537919
 20
122.479621627
 11
146.4574727108
 21
130.2274726299
  0
LINE
  5
38B
100
AcDbEntity
  8
RUNDUNGEN
100
AcDbLine
 62
7
  6
CONTINUOUS
 10
146.4574727108
 20
130.2274726299
 11
146.8603156044
 21
130.7075620955
  0
LINE
  5
38C
100
AcDbEntity
  8
KONSTRUKTIONSELEMENTE
100
AcDbLine
 62
7
  6
CONTINUOUS
 10
108.5663345303
 20
131.6183580021
 11
108.2282267181
 21
131.5068739475
  0
LINE
  5
38D
100
AcDbEntity
  8
KONSTRUKTIONSELEMENTE
100
AcDbLine
 62
7
  6
CONTINUOUS
 10
88.5656057575
 20
125.0235315604
 11
67.7192273339
 21
118.1498696451
  0
LINE
  5
38E
100
AcDbEntity
  8
KONSTRUKTIONSELEMENTE
100
AcDbLine
 62
7
  6
CONTINUOUS
 10
108.5663345303
 20
128.0828240962
 11
108.2282267181
 21
127.9713400415
  0
LINE
  5
38F
100
AcDbEntity
  8
KONSTRUKTIONSELEMENTE
100
AcDbLine
 62
7
  6
CONTINUOUS
 10
90.9145865378
 20
122.2625254597
 11
67.7192273339
 21
114.6143357392
  0
LINE
  5
390
100
AcDbEntity
  8
KONSTRUKTIONSELEMENTE
100
AcDbLine
 62
7
  6
CONTINUOUS
 10
73.5859246575
 20
108.9807594987
 11
65.927623857
 21
106.4555932815
  0
LINE
  5
391
100
AcDbEntity
  8
KONSTRUKTIONSELEMENTE
100
AcDbLine
 62
7
  6
CONTINUOUS
 10
68.5401605652
 20
107.1708247453
 11
74.299863016
 21
109.0699674441
  0
LINE
  5
392
100
AcDbEntity
  8
KONSTRUKTIONSELEMENTE
100
AcDbLine
 62
7
  6
CONTINUOUS
 10
139.7309593973
 20
68.5489382829
 11
162.5100837051
 21
103.0910972757
  0
LINE
  5
393
100
AcDbEntity
  8
KONSTRUKTIONSELEMENTE
100
AcDbLine
 62
7
  6
CONTINUOUS
 10
73.7320259107
 20
100.9596050275
 11
79.6230265264
 21
102.9020405792
  0
LINE
  5
394
100
AcDbEntity
  8
KONSTRUKTIONSELEMENTE
100
AcDbLine
 62
7
  6
CONTINUOUS
 10
73.7320259107
 20
98.3433099371
 11
79.6230265264
 21
100.2857454888
  0
LINE
  5
395
100
AcDbEntity
  8
KONSTRUKTIONSELEMENTE
100
AcDbLine
 62
7
  6
CONTINUOUS
 10
73.0635332065
 20
96.0943526782
 11
80.721834007
 21
98.6195188955
  0
LINE
  5
396
100
AcDbEntity
  8
KONSTRUKTIONSELEMENTE
100
AcDbLine
 62
7
  6
CONTINUOUS
 10
73.0635332065
 20
95.6347332705
 11
80.721834007
 21
98.1598994877
  0
LINE
  5
397
100
AcDbEntity
  8
KONSTRUKTIONSELEMENTE
100
AcDbLine
 62
7
  6
CONTINUOUS
 10
150.6231742546
 20
58.964590546
 11
150.8476403036
 21
59.304969827
  0
LINE
  5
398
100
AcDbEntity
  8
KONSTRUKTIONSELEMENTE
100
AcDbLine
 62
7
  6
CONTINUOUS
 10
179.6702057543
 20
103.0113750832
 11
180.2196094946
 21
103.8444883799
  0
ARC
  5
399
100
AcDbEntity
  8
BEZUGSACHSEN
100
AcDbCircle
 62
7
  6
CONTINUOUS
 10
219.5113732806
 20
60.6476984569
 40
303.1341460966
100
AcDbArc
 50
29.3475079187
 51
29.513153647
  0
ARC
  5
39A
100
AcDbEntity
  8
BEZUGSACHSEN
100
AcDbCircle
 62
7
  6
CONTINUOUS
 10
288.2839890185
 20
99.3540242495
 40
224.4672573708
100
AcDbArc
 50
29.3390794032
 51
29.5630019154
  0
ARC
  5
39B
100
AcDbEntity
  8
BEZUGSACHSEN
100
AcDbCircle
 62
7
  6
CONTINUOUS
 10
301.6119538079
 20
184.5598929091
 40
183.4888654949
100
AcDbArc
 50
8.1600272413
 51
8.3093942681
  0
ARC
  5
39C
100
AcDbEntity
  8
BEZUGSACHSEN
100
AcDbCircle
 62
7
  6
CONTINUOUS
 10
333.6986431557
 20
189.3793656817
 40
151.8697129087
100
AcDbArc
 50
8.4089489429
 51
8.5819849585
  0
ARC
  5
39D
100
AcDbEntity
  8
KONSTRUKTIONSELEMENTE
100
AcDbCircle
 62
7
  6
CONTINUOUS
 10
354.075572832
 20
128.6125003964
 40
8.25
100
AcDbArc
 50
242.6769957192
 51
315.0
  0
ARC
  5
39E
100
AcDbEntity
  8
KONSTRUKTIONSELEMENTE
100
AcDbCircle
 62
7
  6
CONTINUOUS
 10
354.075572832
 20
128.6125003964
 40
8.25
100
AcDbArc
 50
135.0
 51
207.3230042808
  0
ARC
  5
39F
100
AcDbEntity
  8
KONSTRUKTIONSELEMENTE
100
AcDbCircle
 62
7
  6
CONTINUOUS
 10
354.075572832
 20
128.6125003964
 40
3.25
100
AcDbArc
 50
275.4863577938
 51
315.0
  0
ARC
  5
3A0
100
AcDbEntity
  8
KONSTRUKTIONSELEMENTE
100
AcDbCircle
 62
7
  6
CONTINUOUS
 10
354.075572832
 20
128.6125003964
 40
3.25
100
AcDbArc
 50
135.0
 51
174.5136422062
  0
ARC
  5
3A1
100
AcDbEntity
  8
BEZUGSACHSEN
100
AcDbCircle
 62
7
  6
CONTINUOUS
 10
346.4659761104
 20
195.7890441953
 40
137.4579709812
100
AcDbArc
 50
6.2020246618
 51
6.3331377008
  0
ARC
  5
3A2
100
AcDbEntity
  8
BEZUGSACHSEN
100
AcDbCircle
 62
7
  6
CONTINUOUS
 10
353.2858112526
 20
193.1900219198
 40
132.3186534811
100
AcDbArc
 50
9.1366643627
 51
9.3210355417
  0
ARC
  5
3A3
100
AcDbEntity
  8
KONSTRUKTIONSELEMENTE
100
AcDbCircle
 62
7
  6
CONTINUOUS
 10
360.0859804721
 20
134.6229080365
 40
8.25
100
AcDbArc
 50
60.8421444573
 51
135.0
  0
ARC
  5
3A4
100
AcDbEntity
  8
KONSTRUKTIONSELEMENTE
100
AcDbCircle
 62
7
  6
CONTINUOUS
 10
360.0859804721
 20
134.6229080365
 40
8.25
100
AcDbArc
 50
315.0
 51
29.1578555427
  0
ARC
  5
3A5
100
AcDbEntity
  8
KONSTRUKTIONSELEMENTE
100
AcDbCircle
 62
7
  6
CONTINUOUS
 10
380.7688538218
 20
155.3057813862
 40
8.0
100
AcDbArc
 50
241.3642958278
 51
315.0
  0
ARC
  5
3A6
100
AcDbEntity
  8
KONSTRUKTIONSELEMENTE
100
AcDbCircle
 62
7
  6
CONTINUOUS
 10
380.7688538218
 20
155.3057813862
 40
8.0
100
AcDbArc
 50
135.0
 51
208.6357041722
  0
ARC
  5
3A7
100
AcDbEntity
  8
KONSTRUKTIONSELEMENTE
100
AcDbCircle
 62
7
  6
CONTINUOUS
 10
380.7688538218
 20
155.3057813862
 40
3.5
100
AcDbArc
 50
265.1538775079
 51
315.0
  0
ARC
  5
3A8
100
AcDbEntity
  8
KONSTRUKTIONSELEMENTE
100
AcDbCircle
 62
7
  6
CONTINUOUS
 10
380.7688538218
 20
155.3057813862
 40
3.5
100
AcDbArc
 50
135.0
 51
184.8461224921
  0
ARC
  5
3A9
100
AcDbEntity
  8
KONSTRUKTIONSELEMENTE
100
AcDbCircle
 62
7
  6
CONTINUOUS
 10
360.0859804721
 20
134.6229080365
 40
3.25
100
AcDbArc
 50
88.8837571799
 51
135.0
  0
ARC
  5
3AA
100
AcDbEntity
  8
KONSTRUKTIONSELEMENTE
100
AcDbCircle
 62
7
  6
CONTINUOUS
 10
360.0859804721
 20
134.6229080365
 40
3.25
100
AcDbArc
 50
315.0
 51
1.1162428201
  0
ARC
  5
3AB
100
AcDbEntity
  8
KONSTRUKTIONSELEMENTE
100
AcDbCircle
 62
7
  6
CONTINUOUS
 10
379.8849703453
 20
154.4218979097
 40
2.25
100
AcDbArc
 50
315.0
 51
135.0
  0
ARC
  5
3AC
100
AcDbEntity
  8
KONSTRUKTIONSELEMENTE
100
AcDbCircle
 62
7
  6
CONTINUOUS
 10
361.1466406439
 20
135.6835682083
 40
2.25
100
AcDbArc
 50
135.0
 51
315.0
  0
ARC
  5
3AD
100
AcDbEntity
  8
KONSTRUKTIONSELEMENTE
100
AcDbCircle
 62
7
  6
CONTINUOUS
 10
411.7047754987
 20
186.2417030631
 40
8.25
100
AcDbArc
 50
240.8421444573
 51
315.0
  0
ARC
  5
3AE
100
AcDbEntity
  8
KONSTRUKTIONSELEMENTE
100
AcDbCircle
 62
7
  6
CONTINUOUS
 10
411.7047754987
 20
186.2417030631
 40
8.25
100
AcDbArc
 50
135.0
 51
209.1578555427
  0
ARC
  5
3AF
100
AcDbEntity
  8
KONSTRUKTIONSELEMENTE
100
AcDbCircle
 62
7
  6
CONTINUOUS
 10
391.3754555396
 20
165.912383104
 40
8.0
100
AcDbArc
 50
61.3642958278
 51
135.0
  0
ARC
  5
3B0
100
AcDbEntity
  8
KONSTRUKTIONSELEMENTE
100
AcDbCircle
 62
7
  6
CONTINUOUS
 10
391.3754555396
 20
165.912383104
 40
8.0
100
AcDbArc
 50
315.0
 51
28.6357041722
  0
ARC
  5
3B1
100
AcDbEntity
  8
KONSTRUKTIONSELEMENTE
100
AcDbCircle
 62
7
  6
CONTINUOUS
 10
391.3754555396
 20
165.912383104
 40
3.5
100
AcDbArc
 50
85.1538775079
 51
135.0
  0
ARC
  5
3B2
100
AcDbEntity
  8
KONSTRUKTIONSELEMENTE
100
AcDbCircle
 62
7
  6
CONTINUOUS
 10
391.3754555396
 20
165.912383104
 40
3.5
100
AcDbArc
 50
315.0
 51
4.8461224921
  0
ARC
  5
3B3
100
AcDbEntity
  8
KONSTRUKTIONSELEMENTE
100
AcDbCircle
 62
7
  6
CONTINUOUS
 10
411.7047754987
 20
186.2417030631
 40
3.25
100
AcDbArc
 50
268.8837571799
 51
315.0
  0
ARC
  5
3B4
100
AcDbEntity
  8
KONSTRUKTIONSELEMENTE
100
AcDbCircle
 62
7
  6
CONTINUOUS
 10
411.7047754987
 20
186.2417030631
 40
3.25
100
AcDbArc
 50
135.0
 51
181.1162428201
  0
ARC
  5
3B5
100
AcDbEntity
  8
KONSTRUKTIONSELEMENTE
100
AcDbCircle
 62
7
  6
CONTINUOUS
 10
410.9976687176
 20
185.5345962819
 40
2.25
100
AcDbArc
 50
315.0
 51
135.0
  0
ARC
  5
3B6
100
AcDbEntity
  8
KONSTRUKTIONSELEMENTE
100
AcDbCircle
 62
7
  6
CONTINUOUS
 10
392.2593390161
 20
166.7962665805
 40
2.25
100
AcDbArc
 50
135.0
 51
315.0
  0
ARC
  5
3B7
100
AcDbEntity
  8
0
100
AcDbCircle
 62
7
  6
CONTINUOUS
 10
476.228269282
 20
139.7651968464
 40
18.0
100
AcDbArc
 50
211.0482219935
 51
328.9517780065
  0
ARC
  5
3B8
100
AcDbEntity
  8
RUNDUNGEN
100
AcDbCircle
 62
7
  6
CONTINUOUS
 10
484.228269282
 20
147.0857049221
 40
10.0
100
AcDbArc
 50
0.0
 51
30.0
  0
ARC
  5
3B9
100
AcDbEntity
  8
0
100
AcDbCircle
 62
7
  6
CONTINUOUS
 10
468.228269282
 20
147.0857049221
 40
10.0
100
AcDbArc
 50
150.0
 51
180.0
  0
CIRCLE
  5
3BA
100
AcDbEntity
  8
0
100
AcDbCircle
 62
7
  6
CONTINUOUS
 10
476.228269282
 20
139.7651968464
 40
7.5
  0
ARC
  5
3BB
100
AcDbEntity
  8
RUNDUNGEN
100
AcDbCircle
 62
7
  6
CONTINUOUS
 10
489.228269282
 20
136.1540857353
 40
5.0
100
AcDbArc
 50
328.9517780065
 51
360.0
  0
ARC
  5
3BC
100
AcDbEntity
  8
KONSTRUKTIONSELEMENTE
100
AcDbCircle
 62
7
  6
CONTINUOUS
 10
494.228269282
 20
159.7651968464
 40
5.0
100
AcDbArc
 50
180.0
 51
210.0
  0
ARC
  5
3BD
100
AcDbEntity
  8
0
100
AcDbCircle
 62
7
  6
CONTINUOUS
 10
463.228269282
 20
136.1540857353
 40
5.0
100
AcDbArc
 50
180.0
 51
211.0482219935
  0
ARC
  5
3BE
100
AcDbEntity
  8
0
100
AcDbCircle
 62
7
  6
CONTINUOUS
 10
458.228269282
 20
159.7651968464
 40
5.0
100
AcDbArc
 50
330.0
 51
360.0
  0
ARC
  5
3BF
100
AcDbEntity
  8
BEZUGSACHSEN
100
AcDbCircle
 62
7
  6
CONTINUOUS
 10
450.0791947461
 20
176.5551017051
 40
48.5514281651
100
AcDbArc
 50
47.7472394248
 51
47.9427812479
  0
ARC
  5
3C0
100
AcDbEntity
  8
BEZUGSACHSEN
100
AcDbCircle
 62
7
  6
CONTINUOUS
 10
455.1601780593
 20
184.5124113366
 40
38.8217872195
100
AcDbArc
 50
42.3033275659
 51
42.5901006248
  0
ARC
  5
3C1
100
AcDbEntity
  8
KONSTRUKTIONSELEMENTE
100
AcDbCircle
 62
7
  6
CONTINUOUS
 10
484.228269282
 20
167.4357956948
 40
5.0
100
AcDbArc
 50
0.0
 51
66.0305176822
  0
ARC
  5
3C2
100
AcDbEntity
  8
RUNDUNGEN
100
AcDbCircle
 62
7
  6
CONTINUOUS
 10
484.228269282
 20
167.4357956948
 40
5.0
100
AcDbArc
 50
0.0
 51
66.0305176822
  0
ARC
  5
3C3
100
AcDbEntity
  8
0
100
AcDbCircle
 62
7
  6
CONTINUOUS
 10
468.228269282
 20
167.4357956948
 40
5.0
100
AcDbArc
 50
113.9694823178
 51
180.0
  0
ARC
  5
3C4
100
AcDbEntity
  8
RUNDUNGEN
100
AcDbCircle
 62
7
  6
CONTINUOUS
 10
487.478269282
 20
174.7458914534
 40
3.0
100
AcDbArc
 50
186.6030517682
 51
246.0305176822
  0
ARC
  5
3C5
100
AcDbEntity
  8
0
100
AcDbCircle
 62
7
  6
CONTINUOUS
 10
464.978269282
 20
174.7458914534
 40
3.0
100
AcDbArc
 50
293.9694823178
 51
353.3969482318
  0
ARC
  5
3C6
100
AcDbEntity
  8
BEZUGSACHSEN
100
AcDbCircle
 62
7
  6
CONTINUOUS
 10
395.1368378212
 20
203.4150328533
 40
89.0355013537
100
AcDbArc
 50
5.3829558254
 51
5.611891421
  0
ARC
  5
3C7
100
AcDbEntity
  8
BEZUGSACHSEN
100
AcDbCircle
 62
7
  6
CONTINUOUS
 10
407.4151581789
 20
204.9755281115
 40
76.8057341334
100
AcDbArc
 50
4.6264770113
 51
4.9392200225
  0
ARC
  5
3C8
100
AcDbEntity
  8
BEZUGSACHSEN
100
AcDbCircle
 62
7
  6
CONTINUOUS
 10
407.2053103134
 20
211.6757065487
 40
75.2806566667
100
AcDbArc
 50
359.0561359582
 51
0.4437915647
  0
ARC
  5
3C9
100
AcDbEntity
  8
KONSTRUKTIONSELEMENTE
100
AcDbCircle
 62
7
  6
CONTINUOUS
 10
407.1654996226
 20
211.8792574159
 40
74.7746944125
100
AcDbArc
 50
358.8937536058
 51
0.2908213038
  0
ARC
  5
3CA
100
AcDbEntity
  8
BEZUGSACHSEN
100
AcDbCircle
 62
7
  6
CONTINUOUS
 10
408.8451338832
 20
211.2517538797
 40
73.799980624
100
AcDbArc
 50
359.5240370018
 51
0.5117319273
  0
ARC
  5
3CB
100
AcDbEntity
  8
BEZUGSACHSEN
100
AcDbCircle
 62
7
  6
CONTINUOUS
 10
413.6054760298
 20
209.9801178918
 40
69.5170745964
100
AcDbArc
 50
359.3536367245
 51
0.5432592253
  0
ARC
  5
3CC
100
AcDbEntity
  8
BEZUGSACHSEN
100
AcDbCircle
 62
7
  6
CONTINUOUS
 10
415.8883710787
 20
207.0553701504
 40
68.2904273438
100
AcDbArc
 50
6.2695336968
 51
6.5300759591
  0
ARC
  5
3CD
100
AcDbEntity
  8
BEZUGSACHSEN
100
AcDbCircle
 62
7
  6
CONTINUOUS
 10
415.4660849459
 20
209.4719784416
 40
67.8474430499
100
AcDbArc
 50
359.337294651
 51
359.6099354056
  0
ARC
  5
3CE
100
AcDbEntity
  8
BEZUGSACHSEN
100
AcDbCircle
 62
7
  6
CONTINUOUS
 10
415.5356382632
 20
209.4714635264
 40
67.7778878389
100
AcDbArc
 50
359.6099703979
 51
0.4287602718
  0
ARC
  5
3CF
100
AcDbEntity
  8
BEZUGSACHSEN
100
AcDbCircle
 62
7
  6
CONTINUOUS
 10
421.7636781988
 20
207.6842655336
 40
62.2183157789
100
AcDbArc
 50
1.0331262369
 51
1.5229370663
  0
ARC
  5
3D0
100
AcDbEntity
  8
BEZUGSACHSEN
100
AcDbCircle
 62
7
  6
CONTINUOUS
 10
421.9797155034
 20
207.6938883915
 40
62.0022382465
100
AcDbArc
 50
358.8515282007
 51
359.2727803651
  0
ARC
  5
3D1
100
AcDbEntity
  8
BEZUGSACHSEN
100
AcDbCircle
 62
7
  6
CONTINUOUS
 10
428.190925851
 20
192.5050743136
 40
60.5635219653
100
AcDbArc
 50
25.8901195317
 51
26.0867752777
  0
ARC
  5
3D2
100
AcDbEntity
  8
BEZUGSACHSEN
100
AcDbCircle
 62
7
  6
CONTINUOUS
 10
427.3780029659
 20
208.3881689717
 40
56.845624303
100
AcDbArc
 50
5.5065514388
 51
5.8690065192
  0
ARC
  5
3D3
100
AcDbEntity
  8
BEZUGSACHSEN
100
AcDbCircle
 62
7
  6
CONTINUOUS
 10
429.3536251034
 20
215.5736092778
 40
53.1219102015
100
AcDbArc
 50
0.9816543679
 51
1.3936832903
  0
ARC
  5
3D4
100
AcDbEntity
  8
BEZUGSACHSEN
100
AcDbCircle
 62
7
  6
CONTINUOUS
 10
429.4668851545
 20
215.5784758975
 40
53.0086315376
100
AcDbArc
 50
358.914279503
 51
359.3271490363
  0
ARC
  5
3D5
100
AcDbEntity
  8
KONSTRUKTIONSELEMENTE
100
AcDbCircle
 62
7
  6
CONTINUOUS
 10
429.3238732726
 20
215.7175268746
 40
52.6163390588
100
AcDbArc
 50
0.8343508008
 51
1.2503182391
  0
ARC
  5
3D6
100
AcDbEntity
  8
KONSTRUKTIONSELEMENTE
100
AcDbCircle
 62
7
  6
CONTINUOUS
 10
429.3238733068
 20
215.7221659503
 40
52.6163390245
100
AcDbArc
 50
358.7496817608
 51
359.1656493977
  0
ARC
  5
3D7
100
AcDbEntity
  8
KONSTRUKTIONSELEMENTE
100
AcDbCircle
 62
7
  6
CONTINUOUS
 10
437.0387318156
 20
216.8082121531
 40
45.1303887997
100
AcDbArc
 50
354.2144122838
 51
354.590793885
  0
ARC
  5
3D8
100
AcDbEntity
  8
KONSTRUKTIONSELEMENTE
100
AcDbCircle
 62
7
  6
CONTINUOUS
 10
417.7151831388
 20
192.2521107032
 40
8.25
100
AcDbArc
 50
66.346698243
 51
135.0
  0
ARC
  5
3D9
100
AcDbEntity
  8
KONSTRUKTIONSELEMENTE
100
AcDbCircle
 62
7
  6
CONTINUOUS
 10
417.7151831388
 20
192.2521107032
 40
8.25
100
AcDbArc
 50
315.0
 51
23.653301757
  0
ARC
  5
3DA
100
AcDbEntity
  8
KONSTRUKTIONSELEMENTE
100
AcDbCircle
 62
7
  6
CONTINUOUS
 10
417.7151831388
 20
192.2521107032
 40
3.25
100
AcDbArc
 50
112.8065550031
 51
135.0
  0
ARC
  5
3DB
100
AcDbEntity
  8
KONSTRUKTIONSELEMENTE
100
AcDbCircle
 62
7
  6
CONTINUOUS
 10
417.7151831388
 20
192.2521107032
 40
3.25
100
AcDbArc
 50
315.0
 51
337.1934449969
  0
ARC
  5
3DC
100
AcDbEntity
  8
KONSTRUKTIONSELEMENTE
100
AcDbCircle
 62
7
  6
CONTINUOUS
 10
417.5384064435
 20
192.0753340079
 40
3.0
100
AcDbArc
 50
135.0
 51
315.0
  0
ARC
  5
3DD
100
AcDbEntity
  8
0
100
AcDbCircle
 62
7
  6
CONTINUOUS
 10
476.228269282
 20
250.7651968464
 40
67.0
100
AcDbArc
 50
277.0746276571
 51
360.0
  0
ARC
  5
3DE
100
AcDbEntity
  8
0
100
AcDbCircle
 62
7
  6
CONTINUOUS
 10
476.228269282
 20
250.7651968464
 40
67.0
100
AcDbArc
 50
227.5663955326
 51
262.9253723429
  0
ARC
  5
3DF
100
AcDbEntity
  8
0
100
AcDbCircle
 62
7
  6
CONTINUOUS
 10
476.228269282
 20
250.7651968464
 40
67.0
100
AcDbArc
 50
180.0
 51
222.4336044674
  0
ARC
  5
3E0
100
AcDbEntity
  8
BEZUGSACHSEN
100
AcDbCircle
 62
7
  6
CONTINUOUS
 10
437.4362442583
 20
216.6677517298
 40
45.2627103293
100
AcDbArc
 50
354.410062293
 51
354.7852205869
  0
ARC
  5
3E1
100
AcDbEntity
  8
0
100
AcDbCircle
 62
7
  6
CONTINUOUS
 10
476.228269282
 20
250.7651968464
 40
45.0
100
AcDbArc
 50
280.567059689
 51
360.0
  0
ARC
  5
3E2
100
AcDbEntity
  8
0
100
AcDbCircle
 62
7
  6
CONTINUOUS
 10
476.228269282
 20
250.7651968464
 40
45.0
100
AcDbArc
 50
228.8231711787
 51
259.432940311
  0
ARC
  5
3E3
100
AcDbEntity
  8
0
100
AcDbCircle
 62
7
  6
CONTINUOUS
 10
476.228269282
 20
250.7651968464
 40
45.0
100
AcDbArc
 50
180.0
 51
221.1768288213
  0
ARC
  5
3E4
100
AcDbEntity
  8
BEZUGSACHSEN
100
AcDbCircle
 62
7
  6
CONTINUOUS
 10
439.1447404794
 20
211.4975495957
 40
44.6357618145
100
AcDbArc
 50
0.0198638179
 51
0.3467043786
  0
ARC
  5
3E5
100
AcDbEntity
  8
BEZUGSACHSEN
100
AcDbCircle
 62
7
  6
CONTINUOUS
 10
440.5413499018
 20
210.900547264
 40
43.4301270323
100
AcDbArc
 50
0.0204160594
 51
0.3563299453
  0
ARC
  5
3E6
100
AcDbEntity
  8
BEZUGSACHSEN
100
AcDbCircle
 62
7
  6
CONTINUOUS
 10
450.7574440824
 20
218.8094319303
 40
31.7094147741
100
AcDbArc
 50
358.3746224325
 51
0.5098653478
  0
ARC
  5
3E7
100
AcDbEntity
  8
KONSTRUKTIONSELEMENTE
100
AcDbCircle
 62
7
  6
CONTINUOUS
 10
450.5162677631
 20
218.8950036979
 40
31.4239258453
100
AcDbArc
 50
358.2037570356
 51
0.3584686019
  0
ARC
  5
3E8
100
AcDbEntity
  8
BEZUGSACHSEN
100
AcDbCircle
 62
7
  6
CONTINUOUS
 10
451.6975826129
 20
218.1392664824
 40
30.9602531483
100
AcDbArc
 50
358.8823689344
 51
0.5224573152
  0
ARC
  5
3E9
100
AcDbEntity
  8
BEZUGSACHSEN
100
AcDbCircle
 62
7
  6
CONTINUOUS
 10
453.1304583625
 20
218.0521848448
 40
30.1439342924
100
AcDbArc
 50
348.2446833701
 51
348.5224074133
  0
ARC
  5
3EA
100
AcDbEntity
  8
BEZUGSACHSEN
100
AcDbCircle
 62
7
  6
CONTINUOUS
 10
457.015705001
 20
214.2307783602
 40
26.7561489253
100
AcDbArc
 50
358.7067104945
 51
0.6045311263
  0
ARC
  5
3EB
100
AcDbEntity
  8
BEZUGSACHSEN
100
AcDbCircle
 62
7
  6
CONTINUOUS
 10
457.8927670765
 20
213.5609574292
 40
26.0700571013
100
AcDbArc
 50
358.022725492
 51
0.6199857721
  0
ARC
  5
3EC
100
AcDbEntity
  8
BEZUGSACHSEN
100
AcDbCircle
 62
7
  6
CONTINUOUS
 10
462.8855281132
 20
213.9730420892
 40
21.3063955069
100
AcDbArc
 50
351.3046476556
 51
351.7507909314
  0
ARC
  5
3ED
100
AcDbEntity
  8
BEZUGSACHSEN
100
AcDbCircle
 62
7
  6
CONTINUOUS
 10
466.3237181759
 20
215.085595847
 40
17.8186001341
100
AcDbArc
 50
347.9243931905
 51
348.3066742044
  0
ARC
  5
3EE
100
AcDbEntity
  8
KONSTRUKTIONSELEMENTE
100
AcDbCircle
 62
7
  6
CONTINUOUS
 10
473.8781679113
 20
227.6360999593
 40
17.1149667069
100
AcDbArc
 50
298.2086946707
 51
298.5575363162
  0
ARC
  5
3EF
100
AcDbEntity
  8
BEZUGSACHSEN
100
AcDbCircle
 62
7
  6
CONTINUOUS
 10
474.5836446004
 20
227.2017060133
 40
16.6557017172
100
AcDbArc
 50
298.4239049832
 51
298.7798529253
  0
ARC
  5
3F0
100
AcDbEntity
  8
BEZUGSACHSEN
100
AcDbCircle
 62
7
  6
CONTINUOUS
 10
470.1009235851
 20
208.3024943203
 40
16.2021988662
100
AcDbArc
 50
38.7782359714
 51
39.0362692795
  0
ARC
  5
3F1
100
AcDbEntity
  8
BEZUGSACHSEN
100
AcDbCircle
 62
7
  6
CONTINUOUS
 10
468.2900645384
 20
215.0258706614
 40
15.6680602917
100
AcDbArc
 50
2.0088651568
 51
2.8440461574
  0
ARC
  5
3F2
100
AcDbEntity
  8
BEZUGSACHSEN
100
AcDbCircle
 62
7
  6
CONTINUOUS
 10
472.7322830273
 20
221.236104955
 40
9.9667650222
100
AcDbArc
 50
347.5747859075
 51
348.3653143141
  0
ARC
  5
3F3
100
AcDbEntity
  8
KONSTRUKTIONSELEMENTE
100
AcDbCircle
 62
7
  6
CONTINUOUS
 10
472.2587231361
 20
221.2714599687
 40
9.923241942
100
AcDbArc
 50
347.3102508346
 51
348.1050305775
  0
ARC
  5
3F4
100
AcDbEntity
  8
BEZUGSACHSEN
100
AcDbCircle
 62
7
  6
CONTINUOUS
 10
479.2286176532
 20
211.7659251144
 40
8.1436254264
100
AcDbArc
 50
65.8997019313
 51
66.3588856305
  0
ARC
  5
3F5
100
AcDbEntity
  8
BEZUGSACHSEN
100
AcDbCircle
 62
7
  6
CONTINUOUS
 10
478.6933176756
 20
216.8670571764
 40
8.0981174587
100
AcDbArc
 50
309.7582069274
 51
310.3696095304
  0
ARC
  5
3F6
100
AcDbEntity
  8
BEZUGSACHSEN
100
AcDbCircle
 62
7
  6
CONTINUOUS
 10
476.2866427641
 20
220.6651399568
 40
6.7534640322
100
AcDbArc
 50
340.5970771391
 51
341.3621965039
  0
ARC
  5
3F7
100
AcDbEntity
  8
0
100
AcDbCircle
 62
7
  6
CONTINUOUS
 10
473.978269282
 20
212.1488372597
 40
6.0
100
AcDbArc
 50
166.0
 51
180.0
  0
ARC
  5
3F8
100
AcDbEntity
  8
BEZUGSACHSEN
100
AcDbCircle
 62
7
  6
CONTINUOUS
 10
478.478269282
 20
212.1488372597
 40
6.0
100
AcDbArc
 50
0.0
 51
14.0
  0
ARC
  5
3F9
100
AcDbEntity
  8
KONSTRUKTIONSELEMENTE
100
AcDbCircle
 62
7
  6
CONTINUOUS
 10
446.5297844722
 20
221.0667120365
 40
3.0
100
AcDbArc
 50
315.0
 51
135.0
  0
ARC
  5
3FA
100
AcDbEntity
  8
0
100
AcDbCircle
 62
7
  6
CONTINUOUS
 10
476.228269282
 20
320.7651968464
 40
67.0
100
AcDbArc
 50
0.0
 51
180.0
  0
ARC
  5
3FB
100
AcDbEntity
  8
0
100
AcDbCircle
 62
7
  6
CONTINUOUS
 10
476.228269282
 20
320.7651968464
 40
45.0
100
AcDbArc
 50
0.0
 51
180.0
  0
ARC
  5
3FC
100
AcDbEntity
  8
KONSTRUKTIONSELEMENTE
100
AcDbCircle
 62
7
  6
CONTINUOUS
 10
101.6242930447
 20
49.1732279732
 40
7.2075994747
100
AcDbArc
 50
82.0084828409
 51
84.6969256904
  0
ARC
  5
3FD
100
AcDbEntity
  8
RUNDUNGEN
100
AcDbCircle
 62
7
  6
CONTINUOUS
 10
80.3282267181
 20
146.6732861436
 40
3.0
100
AcDbArc
 50
7.0803074625
 51
40.0
  0
ARC
  5
3FE
100
AcDbEntity
  8
KONSTRUKTIONSELEMENTE
100
AcDbCircle
 62
7
  6
CONTINUOUS
 10
106.7979663954
 20
52.6329242792
 40
2.6152604962
100
AcDbArc
 50
0.0208671421
 51
7.9801551546
  0
ARC
  5
3FF
100
AcDbEntity
  8
KONSTRUKTIONSELEMENTE
100
AcDbCircle
 62
7
  6
CONTINUOUS
 10
78.8906717666
 20
105.1238718457
 40
2.3394182334
100
AcDbArc
 50
288.2431310925
 51
290.8424375544
  0
ARC
  5
400
100
AcDbEntity
  8
0
100
AcDbCircle
 62
7
  6
CONTINUOUS
 10
92.2322881655
 20
123.7651972815
 40
2.0
100
AcDbArc
 50
220.0000162712
 51
270.0000104589
  0
ARC
  5
401
100
AcDbEntity
  8
RUNDUNGEN
100
AcDbCircle
 62
7
  6
CONTINUOUS
 10
85.3282267181
 20
131.9931373149
 40
2.0
100
AcDbArc
 50
180.0
 51
220.0
  0
ARC
  5
402
100
AcDbEntity
  8
0
100
AcDbCircle
 62
7
  6
CONTINUOUS
 10
85.3282267181
 20
131.9931373149
 40
2.0
100
AcDbArc
 50
180.0
 51
220.0
  0
ARC
  5
403
100
AcDbEntity
  8
KONSTRUKTIONSELEMENTE
100
AcDbCircle
 62
7
  6
CONTINUOUS
 10
115.3282267181
 20
80.3055718464
 40
45.0
100
AcDbArc
 50
99.0779339621
 51
112.8843724077
  0
ARC
  5
404
100
AcDbEntity
  8
KONSTRUKTIONSELEMENTE
100
AcDbCircle
 62
7
  6
CONTINUOUS
 10
115.3282267181
 20
80.3055718464
 40
45.0
100
AcDbArc
 50
67.1156275923
 51
80.9220660379
  0
ARC
  5
405
100
AcDbEntity
  8
BEZUGSACHSEN
100
AcDbCircle
 62
7
  6
CONTINUOUS
 10
114.8928838424
 20
112.4038896859
 40
20.2292120181
100
AcDbArc
 50
104.7275046251
 51
108.2246288934
  0
ARC
  5
406
100
AcDbEntity
  8
BEZUGSACHSEN
100
AcDbCircle
 62
7
  6
CONTINUOUS
 10
115.8148657207
 20
112.5773285148
 40
20.0484315216
100
AcDbArc
 50
71.7595990281
 51
75.2882674534
  0
ARC
  5
407
100
AcDbEntity
  8
BEZUGSACHSEN
100
AcDbCircle
 62
7
  6
CONTINUOUS
 10
115.3282267181
 20
189.7651968464
 40
16.0
100
AcDbArc
 50
133.4832507211
 51
46.5167492789
  0
ARC
  5
408
100
AcDbEntity
  8
0
100
AcDbCircle
 62
7
  6
CONTINUOUS
 10
115.3282267181
 20
194.7651968464
 40
11.0
100
AcDbArc
 50
180.0
 51
360.0
  0
ARC
  5
409
100
AcDbEntity
  8
KONSTRUKTIONSELEMENTE
100
AcDbCircle
 62
7
  6
CONTINUOUS
 10
115.3282267181
 20
157.1651968464
 40
7.1
100
AcDbArc
 50
0.0
 51
180.0
  0
ARC
  5
40A
100
AcDbEntity
  8
KONSTRUKTIONSELEMENTE
100
AcDbCircle
 62
7
  6
CONTINUOUS
 10
128.7398448029
 20
50.6510107646
 40
6.0774483595
100
AcDbArc
 50
111.3149175254
 51
112.0930351416
  0
CIRCLE
  5
40B
100
AcDbEntity
  8
BEZUGSACHSEN
100
AcDbCircle
 62
7
  6
CONTINUOUS
 10
138.3282267181
 20
139.7651968464
 40
3.0
  0
ARC
  5
40C
100
AcDbEntity
  8
RUNDUNGEN
100
AcDbCircle
 62
7
  6
CONTINUOUS
 10
150.3282267181
 20
146.6732861436
 40
3.0
100
AcDbArc
 50
140.0
 51
175.2760379204
  0
ARC
  5
40D
100
AcDbEntity
  8
KONSTRUKTIONSELEMENTE
100
AcDbCircle
 62
7
  6
CONTINUOUS
 10
115.3282267181
 20
122.8625003964
 40
2.5
100
AcDbArc
 50
180.0
 51
360.0
  0
ARC
  5
40E
100
AcDbEntity
  8
KONSTRUKTIONSELEMENTE
100
AcDbCircle
 62
7
  6
CONTINUOUS
 10
115.3282267181
 20
180.4917030631
 40
2.5
100
AcDbArc
 50
180.0
 51
360.0
  0
ARC
  5
40F
100
AcDbEntity
  8
KONSTRUKTIONSELEMENTE
100
AcDbCircle
 62
7
  6
CONTINUOUS
 10
115.3282267181
 20
149.5557813862
 40
2.25
100
AcDbArc
 50
180.0
 51
242.5355696732
  0
ARC
  5
410
100
AcDbEntity
  8
KONSTRUKTIONSELEMENTE
100
AcDbCircle
 62
7
  6
CONTINUOUS
 10
115.3282267181
 20
149.5557813862
 40
2.25
100
AcDbArc
 50
297.4644303268
 51
360.0
  0
ARC
  5
411
100
AcDbEntity
  8
KONSTRUKTIONSELEMENTE
100
AcDbCircle
 62
7
  6
CONTINUOUS
 10
115.3282267181
 20
171.662383104
 40
2.25
100
AcDbArc
 50
72.1903645115
 51
107.8096354885
  0
ARC
  5
412
100
AcDbEntity
  8
0
100
AcDbCircle
 62
7
  6
CONTINUOUS
 10
138.4241668327
 20
123.7651991429
 40
2.0
100
AcDbArc
 50
269.9999447949
 51
319.999914116
  0
ARC
  5
413
100
AcDbEntity
  8
RUNDUNGEN
100
AcDbCircle
 62
7
  6
CONTINUOUS
 10
145.3282267181
 20
131.9931373149
 40
2.0
100
AcDbArc
 50
320.0
 51
360.0
  0
ARC
  5
414
100
AcDbEntity
  8
0
100
AcDbCircle
 62
7
  6
CONTINUOUS
 10
115.3282267181
 20
376.7651968464
 40
11.0
100
AcDbArc
 50
0.0
 51
180.0
  0
LINE
  5
415
100
AcDbEntity
  8
BEZUGSACHSEN
100
AcDbLine
 62
7
  6
CONTINUOUS
 10
483.9388263067
 20
215.8032820213
 11
483.4521140567
 21
217.6181966953
  0
LINE
  5
416
100
AcDbEntity
  8
BEZUGSACHSEN
100
AcDbLine
 62
7
  6
CONTINUOUS
 10
483.4521140567
 20
217.6181966953
 11
483.3298039436
 21
218.0741858424
  0
LINE
  5
417
100
AcDbEntity
  8
BEZUGSACHSEN
100
AcDbLine
 62
7
  6
CONTINUOUS
 10
483.3298039436
 20
218.0741858424
 11
482.446282698
 21
221.3671307309
  0
LINE
  5
418
100
AcDbEntity
  8
BEZUGSACHSEN
100
AcDbLine
 62
7
  6
CONTINUOUS
 10
483.7650380545
 20
213.6268855681
 11
483.7003640029
 21
213.854008954
  0
LINE
  5
419
100
AcDbEntity
  8
BEZUGSACHSEN
100
AcDbLine
 62
7
  6
CONTINUOUS
 10
483.7003640029
 20
213.854008954
 11
482.6519458004
 21
217.5353834963
  0
LINE
  5
41A
100
AcDbEntity
  8
BEZUGSACHSEN
100
AcDbLine
 62
7
  6
CONTINUOUS
 10
482.5539466453
 20
219.199687431
 11
482.5847871069
 21
219.1367856838
  0
LINE
  5
41B
100
AcDbEntity
  8
BEZUGSACHSEN
100
AcDbLine
 62
7
  6
CONTINUOUS
 10
482.6758742947
 20
218.9499336614
 11
482.7998249494
 21
218.6017143508
  0
LINE
  5
41C
100
AcDbEntity
  8
BEZUGSACHSEN
100
AcDbLine
 62
7
  6
CONTINUOUS
 10
482.7998249494
 20
218.6017143508
 11
482.8166571239
 21
218.5471807362
  0
LINE
  5
41D
100
AcDbEntity
  8
BEZUGSACHSEN
100
AcDbLine
 62
7
  6
CONTINUOUS
 10
482.8166571239
 20
218.5471807362
 11
482.9180149032
 21
218.2186709863
  0
LINE
  5
41E
100
AcDbEntity
  8
BEZUGSACHSEN
100
AcDbLine
 62
7
  6
CONTINUOUS
 10
482.9180149032
 20
218.2186709863
 11
482.9568975587
 21
218.0925900398
  0
LINE
  5
41F
100
AcDbEntity
  8
BEZUGSACHSEN
100
AcDbLine
 62
7
  6
CONTINUOUS
 10
482.9568975587
 20
218.0925900398
 11
483.0352883667
 21
217.8168799113
  0
LINE
  5
420
100
AcDbEntity
  8
BEZUGSACHSEN
100
AcDbLine
 62
7
  6
CONTINUOUS
 10
483.0352883667
 20
217.8168799113
 11
483.0768548907
 21
217.670679751
  0
LINE
  5
421
100
AcDbEntity
  8
BEZUGSACHSEN
100
AcDbLine
 62
7
  6
CONTINUOUS
 10
483.0768548907
 20
217.670679751
 11
483.4330959589
 21
216.4175195773
  0
LINE
  5
422
100
AcDbEntity
  8
BEZUGSACHSEN
100
AcDbLine
 62
7
  6
CONTINUOUS
 10
483.5936706285
 20
215.8099300382
 11
483.4330959589
 21
216.4175195773
  0
LINE
  5
423
100
AcDbEntity
  8
BEZUGSACHSEN
100
AcDbLine
 62
7
  6
CONTINUOUS
 10
483.7242012972
 20
215.2647784406
 11
483.5936706285
 21
215.8099300382
  0
SPLINE
  5
424
100
AcDbEntity
  8
BEZUGSACHSEN
100
AcDbSpline
 62
7
  6
CONTINUOUS
 70
0
 71
3
 72
8
 73
4
 74
0
 42
0.0000001
 43
0.0000001
 44
0.0000000001
 40
0.0
 40
0.0
 40
0.0
 40
0.0
 40
1.0
 40
1.0
 40
1.0
 40
1.0
 10
483.8573714108
 20
214.6211613413
 30
0.0
 10
483.8131812974
 20
214.8357416434
 30
0.0
 10
483.7687874103
 20
215.0502800707
 30
0.0
 10
483.7242012972
 20
215.2647784406
 30
0.0
  0
LINE
  5
425
100
AcDbEntity
  8
BEZUGSACHSEN
100
AcDbLine
 62
7
  6
CONTINUOUS
 10
483.6049359003
 20
213.2199729294
 11
483.5248440766
 21
213.5000038839
  0
LINE
  5
426
100
AcDbEntity
  8
BEZUGSACHSEN
100
AcDbLine
 62
7
  6
CONTINUOUS
 10
483.5248440766
 20
213.5000038839
 11
483.4444320611
 21
213.7811295284
  0
LINE
  5
427
100
AcDbEntity
  8
BEZUGSACHSEN
100
AcDbLine
 62
7
  6
CONTINUOUS
 10
483.7352493451
 20
212.69466167
 11
483.6049359003
 21
213.2199729294
  0
SPLINE
  5
428
100
AcDbEntity
  8
BEZUGSACHSEN
100
AcDbSpline
 62
7
  6
CONTINUOUS
 70
0
 71
3
 72
8
 73
4
 74
0
 42
0.0000001
 43
0.0000001
 44
0.0000000001
 40
0.0
 40
0.0
 40
0.0
 40
0.0
 40
1.0
 40
1.0
 40
1.0
 40
1.0
 10
483.8679239434
 20
212.0420399874
 30
0.0
 10
483.8288549039
 20
212.2351443937
 30
0.0
 10
483.7896224631
 20
212.4282158055
 30
0.0
 10
483.7502348452
 20
212.6212554832
 30
0.0
  0
LINE
  5
429
100
AcDbEntity
  8
BEZUGSACHSEN
100
AcDbLine
 62
7
  6
CONTINUOUS
 10
483.7502348452
 20
212.6212554832
 11
483.7352493451
 21
212.69466167
  0
LINE
  5
42A
100
AcDbEntity
  8
BEZUGSACHSEN
100
AcDbLine
 62
7
  6
CONTINUOUS
 10
483.2430855488
 20
210.6040043955
 11
483.5286859
 21
210.1017464438
  0
LINE
  5
42B
100
AcDbEntity
  8
BEZUGSACHSEN
100
AcDbLine
 62
7
  6
CONTINUOUS
 10
483.9385969478
 20
210.6972474766
 11
483.9470311778
 21
210.7519276614
  0
LINE
  5
42C
100
AcDbEntity
  8
BEZUGSACHSEN
100
AcDbLine
 62
7
  6
CONTINUOUS
 10
483.1745728251
 20
211.0774179862
 11
483.0429619446
 21
211.6444177521
  0
LINE
  5
42D
100
AcDbEntity
  8
BEZUGSACHSEN
100
AcDbLine
 62
7
  6
CONTINUOUS
 10
483.0429619446
 20
211.6444177521
 11
482.9460285577
 21
211.9747106141
  0
LINE
  5
42E
100
AcDbEntity
  8
BEZUGSACHSEN
100
AcDbLine
 62
7
  6
CONTINUOUS
 10
482.8189875827
 20
212.3138140814
 11
482.9460285577
 21
211.9747106141
  0
LINE
  5
42F
100
AcDbEntity
  8
BEZUGSACHSEN
100
AcDbLine
 62
7
  6
CONTINUOUS
 10
482.7252950245
 20
212.4921760641
 11
482.8189875827
 21
212.3138140814
  0
LINE
  5
430
100
AcDbEntity
  8
BEZUGSACHSEN
100
AcDbLine
 62
7
  6
CONTINUOUS
 10
483.9769596472
 20
206.9069537371
 11
483.3089896839
 21
208.687245931
  0
LINE
  5
431
100
AcDbEntity
  8
BEZUGSACHSEN
100
AcDbLine
 62
7
  6
CONTINUOUS
 10
483.1181271371
 20
209.1959007757
 11
482.6409478711
 21
210.4675381249
  0
LINE
  5
432
100
AcDbEntity
  8
BEZUGSACHSEN
100
AcDbLine
 62
7
  6
CONTINUOUS
 10
482.6409478711
 20
210.4675381249
 11
482.6425681175
 21
210.6386955298
  0
LINE
  5
433
100
AcDbEntity
  8
BEZUGSACHSEN
100
AcDbLine
 62
7
  6
CONTINUOUS
 10
483.458076919
 20
211.8714763007
 11
482.9684865071
 21
213.4027777202
  0
LINE
  5
434
100
AcDbEntity
  8
BEZUGSACHSEN
100
AcDbLine
 62
7
  6
CONTINUOUS
 10
482.9684865071
 20
213.4027777202
 11
482.9650819713
 21
213.4134258029
  0
LINE
  5
435
100
AcDbEntity
  8
BEZUGSACHSEN
100
AcDbLine
 62
7
  6
CONTINUOUS
 10
482.9650819713
 20
213.4134258029
 11
482.5821122255
 21
214.6111808248
  0
LINE
  5
436
100
AcDbEntity
  8
BEZUGSACHSEN
100
AcDbLine
 62
7
  6
CONTINUOUS
 10
482.5821122255
 20
214.6111808248
 11
482.4718615515
 21
214.9559852127
  0
LINE
  5
437
100
AcDbEntity
  8
BEZUGSACHSEN
100
AcDbLine
 62
7
  6
CONTINUOUS
 10
483.458076919
 20
211.8714763007
 11
483.5861387863
 21
211.5371300694
  0
LINE
  5
438
100
AcDbEntity
  8
BEZUGSACHSEN
100
AcDbLine
 62
7
  6
CONTINUOUS
 10
483.5861387863
 20
211.5371300694
 11
483.6829701973
 21
211.3659397055
  0
LINE
  5
439
100
AcDbEntity
  8
BEZUGSACHSEN
100
AcDbLine
 62
7
  6
CONTINUOUS
 10
483.6829701973
 20
211.3659397055
 11
483.7480353016
 21
211.3579044105
  0
LINE
  5
43A
100
AcDbEntity
  8
BEZUGSACHSEN
100
AcDbLine
 62
7
  6
CONTINUOUS
 10
482.4598206374
 20
216.8656384405
 11
482.571216434
 21
216.5167452017
  0
LINE
  5
43B
100
AcDbEntity
  8
BEZUGSACHSEN
100
AcDbLine
 62
7
  6
CONTINUOUS
 10
482.571216434
 20
216.5167452017
 11
483.4444320611
 21
213.7811295284
  0
SPLINE
  5
43C
100
AcDbEntity
  8
0
100
AcDbSpline
 62
7
  6
CONTINUOUS
 70
0
 71
3
 72
9
 73
5
 74
0
 42
0.0000001
 43
0.0000001
 44
0.0000000001
 40
0.0
 40
0.0
 40
0.0
 40
0.0
 40
0.5000031771
 40
1.0
 40
1.0
 40
1.0
 40
1.0
 10
480.4118578024
 20
201.9496854551
 30
0.0
 10
480.6354802182
 20
199.0472543984
 30
0.0
 10
480.9377106327
 20
193.2298625197
 30
0.0
 10
480.9020835531
 20
187.4041605888
 30
0.0
 10
480.8011334735
 20
184.494915545
 30
0.0
  0
SPLINE
  5
43D
100
AcDbEntity
  8
0
100
AcDbSpline
 62
7
  6
CONTINUOUS
 70
0
 71
3
 72
9
 73
5
 74
0
 42
0.0000001
 43
0.0000001
 44
0.0000000001
 40
0.0
 40
0.0
 40
0.0
 40
0.0
 40
0.5000000002
 40
1.0
 40
1.0
 40
1.0
 40
1.0
 10
480.4118578024
 20
221.6646021596
 30
0.0
 10
480.7237436426
 20
218.3896883074
 30
0.0
 10
481.0622949817
 20
211.8071438059
 30
0.0
 10
480.7237436424
 20
205.2245993044
 30
0.0
 10
480.4118578024
 20
201.9496854551
 30
0.0
  0
SPLINE
  5
43E
100
AcDbEntity
  8
0
100
AcDbSpline
 62
7
  6
CONTINUOUS
 70
0
 71
3
 72
11
 73
7
 74
0
 42
0.0000001
 43
0.0000001
 44
0.0000000001
 40
0.0
 40
0.0
 40
0.0
 40
0.0
 40
0.2517733154
 40
0.5000000002
 40
0.7482266851
 40
1.0
 40
1.0
 40
1.0
 40
1.0
 10
480.4118578024
 20
229.1950302553
 30
0.0
 10
480.5662854263
 20
228.5756548859
 30
0.0
 10
480.808519797
 20
227.3279624997
 30
0.0
 10
480.9349693802
 20
225.4298162056
 30
0.0
 10
480.8085198007
 20
223.5316699122
 30
0.0
 10
480.566285426
 20
222.2839775277
 30
0.0
 10
480.4118578024
 20
221.6646021596
 30
0.0
  0
SPLINE
  5
43F
100
AcDbEntity
  8
0
100
AcDbSpline
 62
7
  6
CONTINUOUS
 70
0
 71
3
 72
9
 73
5
 74
0
 42
0.0000001
 43
0.0000001
 44
0.0000000001
 40
0.0
 40
0.0
 40
0.0
 40
0.0
 40
0.5000000002
 40
1.0
 40
1.0
 40
1.0
 40
1.0
 10
472.0446807616
 20
221.6646021596
 30
0.0
 10
471.7327949214
 20
218.3896883074
 30
0.0
 10
471.3942435823
 20
211.8071438059
 30
0.0
 10
471.7327949216
 20
205.2245993044
 30
0.0
 10
472.0446807616
 20
201.9496854551
 30
0.0
  0
SPLINE
  5
440
100
AcDbEntity
  8
0
100
AcDbSpline
 62
7
  6
CONTINUOUS
 70
0
 71
3
 72
9
 73
5
 74
0
 42
0.0000001
 43
0.0000001
 44
0.0000000001
 40
0.0
 40
0.0
 40
0.0
 40
0.0
 40
0.5000031771
 40
1.0
 40
1.0
 40
1.0
 40
1.0
 10
472.0446807616
 20
201.9496854551
 30
0.0
 10
471.8210583458
 20
199.0472543984
 30
0.0
 10
471.5188279314
 20
193.2298625197
 30
0.0
 10
471.554455011
 20
187.4041605888
 30
0.0
 10
471.6554050905
 20
184.494915545
 30
0.0
  0
LINE
  5
441
100
AcDbEntity
  8
BEZUGSACHSEN
100
AcDbLine
 62
7
  6
CONTINUOUS
 10
483.73575032
 20
214.8216818162
 11
483.6691167958
 21
215.1927234767
  0
LINE
  5
442
100
AcDbEntity
  8
BEZUGSACHSEN
100
AcDbLine
 62
7
  6
CONTINUOUS
 10
483.6691167958
 20
215.1927234767
 11
483.5713019447
 21
215.6262036422
  0
LINE
  5
443
100
AcDbEntity
  8
BEZUGSACHSEN
100
AcDbLine
 62
7
  6
CONTINUOUS
 10
483.5713019447
 20
215.6262036422
 11
483.4428299971
 21
216.1221218276
  0
LINE
  5
444
100
AcDbEntity
  8
BEZUGSACHSEN
100
AcDbLine
 62
7
  6
CONTINUOUS
 10
482.9660435417
 20
217.7971922901
 11
483.3244059613
 21
216.5382022242
  0
LINE
  5
445
100
AcDbEntity
  8
BEZUGSACHSEN
100
AcDbLine
 62
7
  6
CONTINUOUS
 10
483.3244059613
 20
216.5382022242
 11
483.3643259358
 21
216.3979463242
  0
LINE
  5
446
100
AcDbEntity
  8
BEZUGSACHSEN
100
AcDbLine
 62
7
  6
CONTINUOUS
 10
483.3643259358
 20
216.3979463242
 11
483.4428299971
 21
216.1221218276
  0
LINE
  5
447
100
AcDbEntity
  8
BEZUGSACHSEN
100
AcDbLine
 62
7
  6
CONTINUOUS
 10
482.8401080941
 20
218.1946449346
 11
482.9032427132
 21
217.9954411167
  0
LINE
  5
448
100
AcDbEntity
  8
BEZUGSACHSEN
100
AcDbLine
 62
7
  6
CONTINUOUS
 10
482.9032427132
 20
217.9954411167
 11
482.9660435417
 21
217.7971922901
  0
LINE
  5
449
100
AcDbEntity
  8
BEZUGSACHSEN
100
AcDbLine
 62
7
  6
CONTINUOUS
 10
482.746898788
 20
218.4311932042
 11
482.7703435035
 21
218.3717833111
  0
LINE
  5
44A
100
AcDbEntity
  8
BEZUGSACHSEN
100
AcDbLine
 62
7
  6
CONTINUOUS
 10
482.7703435035
 20
218.3717833111
 11
482.793693285
 21
218.3125553008
  0
LINE
  5
44B
100
AcDbEntity
  8
BEZUGSACHSEN
100
AcDbLine
 62
7
  6
CONTINUOUS
 10
482.793693285
 20
218.3125553008
 11
482.8401080941
 21
218.1946449346
  0
LINE
  5
44C
100
AcDbEntity
  8
BEZUGSACHSEN
100
AcDbLine
 62
7
  6
CONTINUOUS
 10
482.7317677797
 20
218.4500567384
 11
482.746898788
 21
218.4311932042
  0
LINE
  5
44D
100
AcDbEntity
  8
0
100
AcDbLine
 62
7
  6
CONTINUOUS
 10
471.121321151
 20
148.6016489726
 11
469.2587114372
 21
146.6732861436
  0
LINE
  5
44E
100
AcDbEntity
  8
RUNDUNGEN
100
AcDbLine
 62
7
  6
CONTINUOUS
 10
481.335217413
 20
148.6016489726
 11
483.1978271268
 21
146.6732861436
  0
LINE
  5
44F
100
AcDbEntity
  8
KONSTRUKTIONSELEMENTE
100
AcDbLine
 62
7
  6
CONTINUOUS
 10
481.9247524538
 20
217.9100138691
 11
482.2218520716
 21
216.8656387164
  0
LINE
  5
450
100
AcDbEntity
  8
BEZUGSACHSEN
100
AcDbLine
 62
7
  6
CONTINUOUS
 10
483.9473018248
 20
212.6614596179
 11
483.9226985528
 21
212.7479733497
  0
LINE
  5
451
100
AcDbEntity
  8
BEZUGSACHSEN
100
AcDbLine
 62
7
  6
CONTINUOUS
 10
483.9226985528
 20
212.7479733497
 11
483.7747276198
 21
213.2682625301
  0
LINE
  5
452
100
AcDbEntity
  8
BEZUGSACHSEN
100
AcDbLine
 62
7
  6
CONTINUOUS
 10
483.7747276198
 20
213.2682625301
 11
483.70485753
 21
213.5139203518
  0
LINE
  5
453
100
AcDbEntity
  8
BEZUGSACHSEN
100
AcDbLine
 62
7
  6
CONTINUOUS
 10
483.70485753
 20
213.5139203518
 11
483.6796364105
 21
213.6025933459
  0
LINE
  5
454
100
AcDbEntity
  8
BEZUGSACHSEN
100
AcDbLine
 62
7
  6
CONTINUOUS
 10
483.6796364105
 20
213.6025933459
 11
483.6150503109
 21
213.8296607156
  0
LINE
  5
455
100
AcDbEntity
  8
BEZUGSACHSEN
100
AcDbLine
 62
7
  6
CONTINUOUS
 10
483.6150503109
 20
213.8296607156
 11
482.5675499787
 21
217.5113660604
  0
LINE
  5
456
100
AcDbEntity
  8
BEZUGSACHSEN
100
AcDbLine
 62
7
  6
CONTINUOUS
 10
482.5675499787
 20
217.5113660604
 11
482.4541005696
 21
217.9100138691
  0
LINE
  5
457
100
AcDbEntity
  8
BEZUGSACHSEN
100
AcDbLine
 62
7
  6
CONTINUOUS
 10
483.7422505629
 20
209.2153733407
 11
483.9718796271
 21
208.806091466
  0
LINE
  5
458
100
AcDbEntity
  8
KONSTRUKTIONSELEMENTE
100
AcDbLine
 62
7
  6
CONTINUOUS
 10
483.4293800258
 20
208.806091466
 11
483.3120217243
 21
209.0147834425
  0
SPLINE
  5
459
100
AcDbEntity
  8
0
100
AcDbSpline
 62
7
  6
CONTINUOUS
 70
0
 71
3
 72
11
 73
7
 74
0
 42
0.0000001
 43
0.0000001
 44
0.0000000001
 40
0.0
 40
0.0
 40
0.0
 40
0.0
 40
0.2517733154
 40
0.5000000002
 40
0.7482266851
 40
1.0
 40
1.0
 40
1.0
 40
1.0
 10
472.0446807616
 20
229.1950302553
 30
0.0
 10
471.8902531377
 20
228.5756548859
 30
0.0
 10
471.648018767
 20
227.3279624997
 30
0.0
 10
471.5215691838
 20
225.4298162056
 30
0.0
 10
471.6480187633
 20
223.5316699122
 30
0.0
 10
471.890253138
 20
222.2839775277
 30
0.0
 10
472.0446807616
 20
221.6646021596
 30
0.0
  0
LINE
  5
45A
100
AcDbEntity
  8
KONSTRUKTIONSELEMENTE
100
AcDbLine
 62
7
  6
CONTINUOUS
 10
483.3350547651
 20
210.6416274989
 11
483.2696056137
 21
210.7129195633
  0
LINE
  5
45B
100
AcDbEntity
  8
KONSTRUKTIONSELEMENTE
100
AcDbLine
 62
7
  6
CONTINUOUS
 10
483.2696056137
 20
210.7129195633
 11
483.236484272
 21
210.7488644052
  0
LINE
  5
45C
100
AcDbEntity
  8
KONSTRUKTIONSELEMENTE
100
AcDbLine
 62
7
  6
CONTINUOUS
 10
483.236484272
 20
210.7488644052
 11
483.2196205383
 21
210.7671321438
  0
LINE
  5
45D
100
AcDbEntity
  8
BEZUGSACHSEN
100
AcDbLine
 62
7
  6
CONTINUOUS
 10
483.6116949944
 20
211.055699332
 11
483.7413222674
 21
210.7850084422
  0
LINE
  5
45E
100
AcDbEntity
  8
BEZUGSACHSEN
100
AcDbLine
 62
7
  6
CONTINUOUS
 10
483.4514336591
 20
211.489545473
 11
483.6116949944
 21
211.055699332
  0
LINE
  5
45F
100
AcDbEntity
  8
BEZUGSACHSEN
100
AcDbLine
 62
7
  6
CONTINUOUS
 10
483.9694983339
 20
206.4511606648
 11
483.8206328283
 21
206.8483622572
  0
LINE
  5
460
100
AcDbEntity
  8
BEZUGSACHSEN
100
AcDbLine
 62
7
  6
CONTINUOUS
 10
483.8206328283
 20
206.8483622572
 11
483.1532090477
 21
208.6288410775
  0
LINE
  5
461
100
AcDbEntity
  8
BEZUGSACHSEN
100
AcDbLine
 62
7
  6
CONTINUOUS
 10
483.1532090477
 20
208.6288410775
 11
482.983322577
 21
209.0819687647
  0
LINE
  5
462
100
AcDbEntity
  8
BEZUGSACHSEN
100
AcDbLine
 62
7
  6
CONTINUOUS
 10
482.983322577
 20
209.0819687647
 11
482.962485803
 21
209.1375435042
  0
LINE
  5
463
100
AcDbEntity
  8
BEZUGSACHSEN
100
AcDbLine
 62
7
  6
CONTINUOUS
 10
482.962485803
 20
209.1375435042
 11
482.4856254966
 21
210.4092954528
  0
LINE
  5
464
100
AcDbEntity
  8
BEZUGSACHSEN
100
AcDbLine
 62
7
  6
CONTINUOUS
 10
482.4856254966
 20
210.4092954528
 11
482.4757524781
 21
210.4356240898
  0
SPLINE
  5
465
100
AcDbEntity
  8
KONSTRUKTIONSELEMENTE
100
AcDbSpline
 62
7
  6
CONTINUOUS
 70
0
 71
3
 72
8
 73
4
 74
0
 42
0.0000001
 43
0.0000001
 44
0.0000000001
 40
0.0
 40
0.0
 40
0.0
 40
0.0
 40
1.0
 40
1.0
 40
1.0
 40
1.0
 10
481.9262570244
 20
210.4356240898
 30
0.0
 10
482.4240546514
 20
209.107529779
 30
0.0
 10
482.9217268886
 20
207.7793884481
 30
0.0
 10
483.4191682739
 20
206.4511606648
 30
0.0
  0
LINE
  5
466
100
AcDbEntity
  8
KONSTRUKTIONSELEMENTE
100
AcDbLine
 62
7
  6
CONTINUOUS
 10
481.9276846914
 20
214.574054385
 11
482.5570554942
 21
212.6033834741
  0
LINE
  5
467
100
AcDbEntity
  8
BEZUGSACHSEN
100
AcDbLine
 62
7
  6
CONTINUOUS
 10
483.4514336591
 20
211.489545473
 11
483.3413446678
 21
211.8341870735
  0
LINE
  5
468
100
AcDbEntity
  8
BEZUGSACHSEN
100
AcDbLine
 62
7
  6
CONTINUOUS
 10
483.3413446678
 20
211.8341870735
 11
482.4659998162
 21
214.574054385
  0
LINE
  5
469
100
AcDbEntity
  8
BEZUGSACHSEN
100
AcDbLine
 62
7
  6
CONTINUOUS
 10
482.6715923167
 20
212.0540035101
 11
482.7332034572
 21
212.0363829918
  0
LINE
  5
46A
100
AcDbEntity
  8
BEZUGSACHSEN
100
AcDbLine
 62
7
  6
CONTINUOUS
 10
482.7332034572
 20
212.0363829918
 11
482.7651797884
 21
211.975902374
  0
LINE
  5
46B
100
AcDbEntity
  8
BEZUGSACHSEN
100
AcDbLine
 62
7
  6
CONTINUOUS
 10
482.7651797884
 20
211.975902374
 11
482.7804463434
 21
211.9470186876
  0
LINE
  5
46C
100
AcDbEntity
  8
BEZUGSACHSEN
100
AcDbLine
 62
7
  6
CONTINUOUS
 10
482.7804463434
 20
211.9470186876
 11
482.8274683954
 21
211.8580210091
  0
LINE
  5
46D
100
AcDbEntity
  8
BEZUGSACHSEN
100
AcDbLine
 62
7
  6
CONTINUOUS
 10
482.8274683954
 20
211.8580210091
 11
482.9228519279
 21
211.6036933492
  0
LINE
  5
46E
100
AcDbEntity
  8
BEZUGSACHSEN
100
AcDbLine
 62
7
  6
CONTINUOUS
 10
483.0193947557
 20
211.2734004873
 11
482.9228519279
 21
211.6036933492
  0
LINE
  5
46F
100
AcDbEntity
  8
BEZUGSACHSEN
100
AcDbLine
 62
7
  6
CONTINUOUS
 10
483.0850855023
 20
210.9519177758
 11
483.0193947557
 21
211.2734004873
  0
LINE
  5
470
100
AcDbEntity
  8
BEZUGSACHSEN
100
AcDbLine
 62
7
  6
CONTINUOUS
 10
483.7725186742
 20
211.4742426499
 11
483.7804996114
 21
211.5130243241
  0
LINE
  5
471
100
AcDbEntity
  8
BEZUGSACHSEN
100
AcDbLine
 62
7
  6
CONTINUOUS
 10
482.4677387093
 20
216.4837077949
 11
483.3418453029
 21
213.7483505495
  0
LINE
  5
472
100
AcDbEntity
  8
BEZUGSACHSEN
100
AcDbLine
 62
7
  6
CONTINUOUS
 10
483.3418453029
 20
213.7483505495
 11
483.4534042549
 21
213.3991988829
  0
LINE
  5
473
100
AcDbEntity
  8
KONSTRUKTIONSELEMENTE
100
AcDbLine
 62
7
  6
CONTINUOUS
 10
482.4229884728
 20
214.9559852453
 11
481.9346336049
 21
216.4837077949
  0
LINE
  5
474
100
AcDbEntity
  8
BEZUGSACHSEN
100
AcDbLine
 62
7
  6
CONTINUOUS
 10
483.5817799197
 20
212.9375425579
 11
483.4855992754
 21
213.2834382334
  0
LINE
  5
475
100
AcDbEntity
  8
BEZUGSACHSEN
100
AcDbLine
 62
7
  6
CONTINUOUS
 10
483.4855992754
 20
213.2834382334
 11
483.4534042549
 21
213.3991988829
  0
LINE
  5
476
100
AcDbEntity
  8
BEZUGSACHSEN
100
AcDbLine
 62
7
  6
CONTINUOUS
 10
483.679355483
 20
212.5117316421
 11
483.5817799197
 21
212.9375425579
  0
LINE
  5
477
100
AcDbEntity
  8
BEZUGSACHSEN
100
AcDbLine
 62
7
  6
CONTINUOUS
 10
483.7456032139
 20
212.1217657017
 11
483.679355483
 21
212.5117316421
  0
SPLINE
  5
478
100
AcDbEntity
  8
KONSTRUKTIONSELEMENTE
100
AcDbSpline
 62
7
  6
CONTINUOUS
 70
0
 71
3
 72
11
 73
7
 74
0
 42
0.0000001
 43
0.0000001
 44
0.0000000001
 40
0.0
 40
0.0
 40
0.0
 40
0.0
 40
0.3114703232
 40
0.4450990083
 40
0.6063354134
 40
1.0
 40
1.0
 40
1.0
 40
1.0
 10
118.8282267181
 20
150.3560339179
 30
0.0
 10
118.8282267181
 20
150.5531887643
 30
0.0
 10
118.6895161825
 20
150.8282836513
 30
0.0
 10
118.438148336
 20
151.1146356457
 30
0.0
 10
118.1097796617
 20
151.4044156519
 30
0.0
 10
117.8049775797
 20
151.5857980822
 30
0.0
 10
117.5802186064
 20
151.6933862132
 30
0.0
  0
SPLINE
  5
479
100
AcDbEntity
  8
KONSTRUKTIONSELEMENTE
100
AcDbSpline
 62
7
  6
CONTINUOUS
 70
0
 71
3
 72
11
 73
7
 74
0
 42
0.0000001
 43
0.0000001
 44
0.0000000001
 40
0.0
 40
0.0
 40
0.0
 40
0.0
 40
0.3936803283
 40
0.5549226436
 40
0.6885473432
 40
1.0
 40
1.0
 40
1.0
 40
1.0
 10
113.0764774826
 20
151.6934981412
 30
0.0
 10
112.8516695767
 20
151.5859082406
 30
0.0
 10
112.546802668
 20
151.4045051229
 30
0.0
 10
112.2183748681
 20
151.1146858517
 30
0.0
 10
111.9669314914
 20
150.8283407054
 30
0.0
 10
111.8282267181
 20
150.5532052217
 30
0.0
 10
111.8282267181
 20
150.3560339179
 30
0.0
  0
SPLINE
  5
47A
100
AcDbEntity
  8
KONSTRUKTIONSELEMENTE
100
AcDbSpline
 62
7
  6
CONTINUOUS
 70
0
 71
3
 72
11
 73
7
 74
0
 42
0.0000001
 43
0.0000001
 44
0.0000000001
 40
0.0
 40
0.0
 40
0.0
 40
0.0
 40
0.2396675766
 40
0.485702206
 40
0.7393020631
 40
1.0
 40
1.0
 40
1.0
 40
1.0
 10
122.4300304605
 20
153.2944760551
 30
0.0
 10
122.17202353
 20
153.6891561125
 30
0.0
 10
121.550785953
 20
154.427933798
 30
0.0
 10
120.3938128108
 20
155.3243617583
 30
0.0
 10
119.0538872833
 20
156.006764352
 30
0.0
 10
118.0825441006
 20
156.3083691774
 30
0.0
 10
117.5823390386
 20
156.4218000385
 30
0.0
  0
SPLINE
  5
47B
100
AcDbEntity
  8
KONSTRUKTIONSELEMENTE
100
AcDbSpline
 62
7
  6
CONTINUOUS
 70
0
 71
3
 72
11
 73
7
 74
0
 42
0.0000001
 43
0.0000001
 44
0.0000000001
 40
0.0
 40
0.0
 40
0.0
 40
0.0
 40
0.2607312656
 40
0.514334513
 40
0.7603496782
 40
1.0
 40
1.0
 40
1.0
 40
1.0
 10
113.0760559393
 20
156.4222312509
 30
0.0
 10
112.5751050598
 20
156.3087147012
 30
0.0
 10
111.6023454626
 20
156.0068311257
 30
0.0
 10
110.2606962686
 20
155.3232883671
 30
0.0
 10
109.1025831625
 20
154.4252086501
 30
0.0
 10
108.4811836004
 20
153.6849586488
 30
0.0
 10
108.22319766
 20
153.2895581154
 30
0.0
  0
SPLINE
  5
47C
100
AcDbEntity
  8
KONSTRUKTIONSELEMENTE
100
AcDbSpline
 62
7
  6
CONTINUOUS
 70
0
 71
3
 72
12
 73
8
 74
0
 42
0.0000001
 43
0.0000001
 44
0.0000000001
 40
0.0
 40
0.0
 40
0.0
 40
0.0
 40
0.1282453638
 40
0.2146169864
 40
0.321985829
 40
0.6101725692
 40
1.0
 40
1.0
 40
1.0
 40
1.0
 10
118.8282267181
 20
181.4687322901
 30
0.0
 10
118.8282267181
 20
181.5379952999
 30
0.0
 10
118.8085637324
 20
181.6545391495
 30
0.0
 10
118.7418738387
 20
181.8155626734
 30
0.0
 10
118.610708948
 20
182.0413738475
 30
0.0
 10
118.3194144876
 20
182.3563482908
 30
0.0
 10
118.0171170842
 20
182.5677155329
 30
0.0
 10
117.8345807831
 20
182.6726301293
 30
0.0
  0
SPLINE
  5
47D
100
AcDbEntity
  8
KONSTRUKTIONSELEMENTE
100
AcDbSpline
 62
7
  6
CONTINUOUS
 70
0
 71
3
 72
12
 73
8
 74
0
 42
0.0000001
 43
0.0000001
 44
0.0000000001
 40
0.0
 40
0.0
 40
0.0
 40
0.0
 40
0.3898396094
 40
0.6780156338
 40
0.7853729626
 40
0.8717632718
 40
1.0
 40
1.0
 40
1.0
 40
1.0
 10
112.821781117
 20
182.6725776582
 30
0.0
 10
112.6392538736
 20
182.5676622487
 30
0.0
 10
112.3370061099
 20
182.356272911
 30
0.0
 10
112.0457011338
 20
182.0413549934
 30
0.0
 10
111.9145629754
 20
181.8155465314
 30
0.0
 10
111.8479171683
 20
181.654520797
 30
0.0
 10
111.8282267181
 20
181.5379860225
 30
0.0
 10
111.8282267181
 20
181.4687322901
 30
0.0
  0
SPLINE
  5
47E
100
AcDbEntity
  8
KONSTRUKTIONSELEMENTE
100
AcDbSpline
 62
7
  6
CONTINUOUS
 70
0
 71
3
 72
11
 73
7
 74
0
 42
0.0000001
 43
0.0000001
 44
0.0000000001
 40
0.0
 40
0.0
 40
0.0
 40
0.0
 40
0.2468476974
 40
0.4945955075
 40
0.7451907436
 40
1.0
 40
1.0
 40
1.0
 40
1.0
 10
123.3282267181
 20
181.4687322901
 30
0.0
 10
123.3282267181
 20
181.8543122312
 30
0.0
 10
123.2401052127
 20
182.6296792459
 30
0.0
 10
122.852638974
 20
183.736613616
 30
0.0
 10
122.2376737107
 20
184.7487459793
 30
0.0
 10
121.7012671989
 20
185.3351123189
 30
0.0
 10
121.4082327379
 20
185.6044588557
 30
0.0
  0
SPLINE
  5
47F
100
AcDbEntity
  8
KONSTRUKTIONSELEMENTE
100
AcDbSpline
 62
7
  6
CONTINUOUS
 70
0
 71
3
 72
11
 73
7
 74
0
 42
0.0000001
 43
0.0000001
 44
0.0000000001
 40
0.0
 40
0.0
 40
0.0
 40
0.0
 40
0.2547987138
 40
0.5053608257
 40
0.7531462586
 40
1.0
 40
1.0
 40
1.0
 40
1.0
 10
109.2479441954
 20
185.6042065062
 30
0.0
 10
108.9549576609
 20
185.3348786036
 30
0.0
 10
108.4187256602
 20
184.7485429614
 30
0.0
 10
107.8036881407
 20
183.7365734979
 30
0.0
 10
107.4163986576
 20
182.6296496726
 30
0.0
 10
107.3282267181
 20
181.8542912248
 30
0.0
 10
107.3282267181
 20
181.4687322901
 30
0.0
  0
SPLINE
  5
480
100
AcDbEntity
  8
KONSTRUKTIONSELEMENTE
100
AcDbSpline
 62
7
  6
CONTINUOUS
 70
0
 71
3
 72
9
 73
5
 74
0
 42
0.0000001
 43
0.0000001
 44
0.0000000001
 40
0.0
 40
0.0
 40
0.0
 40
0.0
 40
0.2432100814
 40
1.0
 40
1.0
 40
1.0
 40
1.0
 10
102.2649291309
 20
198.9877829896
 30
0.0
 10
102.4233766246
 20
198.870024236
 30
0.0
 10
103.0841615799
 20
198.3984275821
 30
0.0
 10
103.7802417428
 20
197.9767288105
 30
0.0
 10
104.3209401809
 20
197.6851834441
 30
0.0
  0
SPLINE
  5
481
100
AcDbEntity
  8
KONSTRUKTIONSELEMENTE
100
AcDbSpline
 62
7
  6
CONTINUOUS
 70
0
 71
3
 72
9
 73
5
 74
0
 42
0.0000001
 43
0.0000001
 44
0.0000000001
 40
0.0
 40
0.0
 40
0.0
 40
0.0
 40
0.2568030428
 40
1.0
 40
1.0
 40
1.0
 40
1.0
 10
126.3333608089
 20
197.6840191243
 30
0.0
 10
126.5169872522
 20
197.7830023341
 30
0.0
 10
127.2253567631
 20
198.1806361216
 30
0.0
 10
127.9064999977
 20
198.6273307085
 30
0.0
 10
128.3910585011
 20
198.9874300115
 30
0.0
  0
SPLINE
  5
482
100
AcDbEntity
  8
KONSTRUKTIONSELEMENTE
100
AcDbSpline
 62
7
  6
CONTINUOUS
 70
0
 71
3
 72
9
 73
5
 74
0
 42
0.0000001
 43
0.0000001
 44
0.0000000001
 40
0.0
 40
0.0
 40
0.0
 40
0.0
 40
0.2446146117
 40
1.0
 40
1.0
 40
1.0
 40
1.0
 10
99.7619664412
 20
193.4215604052
 30
0.0
 10
100.1647586422
 20
193.1580020872
 30
0.0
 10
101.8456272677
 20
192.1333072133
 30
0.0
 10
103.6514170426
 20
191.3176683588
 30
0.0
 10
105.0507633659
 20
190.8162747314
 30
0.0
  0
SPLINE
  5
483
100
AcDbEntity
  8
KONSTRUKTIONSELEMENTE
100
AcDbSpline
 62
7
  6
CONTINUOUS
 70
0
 71
3
 72
9
 73
5
 74
0
 42
0.0000001
 43
0.0000001
 44
0.0000000001
 40
0.0
 40
0.0
 40
0.0
 40
0.0
 40
0.2556247043
 40
1.0
 40
1.0
 40
1.0
 40
1.0
 10
125.6041507292
 20
190.8157164617
 30
0.0
 10
126.0779387621
 20
190.98544515
 30
0.0
 10
127.912729345
 20
191.6996328584
 30
0.0
 10
129.669551507
 20
192.6199331161
 30
0.0
 10
130.895821292
 20
193.4224383335
 30
0.0
  0
SPLINE
  5
484
100
AcDbEntity
  8
BEZUGSACHSEN
100
AcDbSpline
 62
7
  6
CONTINUOUS
 70
0
 71
3
 72
9
 73
5
 74
0
 42
0.0000001
 43
0.0000001
 44
0.0000000001
 40
0.0
 40
0.0
 40
0.0
 40
0.0
 40
0.4734684586
 40
1.0
 40
1.0
 40
1.0
 40
1.0
 10
120.225842369
 20
123.8376605294
 30
0.0
 10
119.939196732
 20
123.4411183847
 30
0.0
 10
119.1629743611
 20
122.7237494096
 30
0.0
 10
118.217925678
 20
122.2736656843
 30
0.0
 10
117.7025034068
 20
122.0992479853
 30
0.0
  0
SPLINE
  5
485
100
AcDbEntity
  8
BEZUGSACHSEN
100
AcDbSpline
 62
7
  6
CONTINUOUS
 70
0
 71
3
 72
9
 73
5
 74
0
 42
0.0000001
 43
0.0000001
 44
0.0000000001
 40
0.0
 40
0.0
 40
0.0
 40
0.0
 40
0.5265315414
 40
1.0
 40
1.0
 40
1.0
 40
1.0
 10
112.9539500294
 20
122.0992479853
 30
0.0
 10
112.4385277583
 20
122.2736656843
 30
0.0
 10
111.4934790752
 20
122.7237494096
 30
0.0
 10
110.7172567043
 20
123.4411183847
 30
0.0
 10
110.4306110672
 20
123.8376605294
 30
0.0
  0
SPLINE
  5
486
100
AcDbEntity
  8
KONSTRUKTIONSELEMENTE
100
AcDbSpline
 62
7
  6
CONTINUOUS
 70
0
 71
3
 72
13
 73
9
 74
0
 42
0.0000001
 43
0.0000001
 44
0.0000000001
 40
0.0
 40
0.0
 40
0.0
 40
0.0
 40
0.1035698708
 40
0.2118852886
 40
0.327021228
 40
0.4498249804
 40
0.7159005812
 40
1.0
 40
1.0
 40
1.0
 40
1.0
 10
109.3879012661
 20
52.9960011697
 30
0.0
 10
109.3561118496
 20
53.2230886108
 30
0.0
 10
109.2292483982
 20
53.6808764328
 30
0.0
 10
108.8700003905
 20
54.3164444913
 30
0.0
 10
108.3549068579
 20
54.8914591264
 30
0.0
 10
107.4624515721
 20
55.5704712532
 30
0.0
 10
106.0657833862
 20
56.1560826709
 30
0.0
 10
104.8422173813
 20
56.3108320201
 30
0.0
 10
104.2132267181
 20
56.3108320201
 30
0.0
  0
SPLINE
  5
487
100
AcDbEntity
  8
KONSTRUKTIONSELEMENTE
100
AcDbSpline
 62
7
  6
CONTINUOUS
 70
0
 71
3
 72
9
 73
5
 74
0
 42
0.0000001
 43
0.0000001
 44
0.0000000001
 40
0.0
 40
0.0
 40
0.0
 40
0.0
 40
0.4892987036
 40
1.0
 40
1.0
 40
1.0
 40
1.0
 10
81.847726674
 20
99.4092622321
 30
0.0
 10
81.8477544015
 20
99.5100002213
 30
0.0
 10
81.8150246192
 20
99.7170286646
 30
0.0
 10
81.7229134545
 20
99.9045237436
 30
0.0
 10
81.6650285813
 20
99.9923000983
 30
0.0
  0
SPLINE
  5
488
100
AcDbEntity
  8
KONSTRUKTIONSELEMENTE
100
AcDbSpline
 62
7
  6
CONTINUOUS
 70
0
 71
3
 72
11
 73
7
 74
0
 42
0.0000001
 43
0.0000001
 44
0.0000000001
 40
0.0
 40
0.0
 40
0.0
 40
0.0
 40
0.2200436456
 40
0.4557793627
 40
0.7157728079
 40
1.0
 40
1.0
 40
1.0
 40
1.0
 10
72.6061332437
 20
99.7102422831
 30
0.0
 10
72.6061693497
 20
99.8414208377
 30
0.0
 10
72.6637782776
 20
100.1155938251
 30
0.0
 10
72.9047380985
 20
100.4775546663
 30
0.0
 10
73.2721553665
 20
100.7719722695
 30
0.0
 10
73.5711065004
 20
100.9065451818
 30
0.0
 10
73.7320259107
 20
100.9596050275
 30
0.0
  0
SPLINE
  5
489
100
AcDbEntity
  8
KONSTRUKTIONSELEMENTE
100
AcDbSpline
 62
7
  6
CONTINUOUS
 70
0
 71
3
 72
12
 73
8
 74
0
 42
0.0000001
 43
0.0000001
 44
0.0000000001
 40
0.0
 40
0.0
 40
0.0
 40
0.0
 40
0.1093790685
 40
0.2208897874
 40
0.4563550533
 40
0.7160756008
 40
1.0
 40
1.0
 40
1.0
 40
1.0
 10
63.9662649149
 20
113.9843034701
 30
0.0
 10
63.966288457
 20
114.2019259652
 30
0.0
 10
64.0109723143
 20
114.642673497
 30
0.0
 10
64.2798490402
 20
115.5151994706
 30
0.0
 10
64.9611249391
 20
116.5440164706
 30
0.0
 10
66.186102458
 20
117.5238307869
 30
0.0
 10
67.1827380337
 20
117.9729733998
 30
0.0
 10
67.7192273339
 20
118.1498696451
 30
0.0
  0
SPLINE
  5
48A
100
AcDbEntity
  8
KONSTRUKTIONSELEMENTE
100
AcDbSpline
 62
7
  6
CONTINUOUS
 70
0
 71
3
 72
9
 73
5
 74
0
 42
0.0000001
 43
0.0000001
 44
0.0000000001
 40
0.0
 40
0.0
 40
0.0
 40
0.0
 40
0.4891681133
 40
1.0
 40
1.0
 40
1.0
 40
1.0
 10
63.9662651751
 20
110.4486157747
 30
0.0
 10
63.9662455841
 20
110.1130981779
 30
0.0
 10
64.075329835
 20
109.4233940158
 30
0.0
 10
64.3823534889
 20
108.7988341375
 30
0.0
 10
64.5752454194
 20
108.5063337041
 30
0.0
  0
SPLINE
  5
48B
100
AcDbEntity
  8
KONSTRUKTIONSELEMENTE
100
AcDbSpline
 62
7
  6
CONTINUOUS
 70
0
 71
3
 72
9
 73
5
 74
0
 42
0.0000001
 43
0.0000001
 44
0.0000000001
 40
0.0
 40
0.0
 40
0.0
 40
0.0
 40
0.4891683995
 40
1.0
 40
1.0
 40
1.0
 40
1.0
 10
139.1219788927
 20
66.6065024228
 30
0.0
 10
139.1219425941
 20
66.9420450162
 30
0.0
 10
139.2310124767
 20
67.6318060216
 30
0.0
 10
139.5380533161
 20
68.2564163914
 30
0.0
 10
139.7309593973
 20
68.5489382829
 30
0.0
  0
SPLINE
  5
48C
100
AcDbEntity
  8
KONSTRUKTIONSELEMENTE
100
AcDbSpline
 62
7
  6
CONTINUOUS
 70
0
 71
3
 72
10
 73
6
 74
0
 42
0.0000001
 43
0.0000001
 44
0.0000000001
 40
0.0
 40
0.0
 40
0.0
 40
0.0
 40
0.4686373631
 40
0.7273616689
 40
1.0
 40
1.0
 40
1.0
 40
1.0
 10
139.622967445
 20
68.37258433
 30
0.0
 10
139.949253706
 20
67.8195692539
 30
0.0
 10
140.6686529299
 20
67.0802041695
 30
0.0
 10
141.8428755914
 20
66.3709124701
 30
0.0
 10
142.5201774751
 20
66.0934461878
 30
0.0
 10
142.8749413117
 20
65.9764701537
 30
0.0
  0
SPLINE
  5
48D
100
AcDbEntity
  8
KONSTRUKTIONSELEMENTE
100
AcDbSpline
 62
7
  6
CONTINUOUS
 70
0
 71
3
 72
12
 73
8
 74
0
 42
0.0000001
 43
0.0000001
 44
0.0000000001
 40
0.0
 40
0.0
 40
0.0
 40
0.0
 40
0.1035616361
 40
0.2109621259
 40
0.4456948874
 40
0.7125484092
 40
1.0
 40
1.0
 40
1.0
 40
1.0
 10
106.8132267181
 20
39.7645333403
 30
0.0
 10
106.8132267181
 20
39.6740284352
 30
0.0
 10
106.839578772
 20
39.48873421
 30
0.0
 10
106.9970325445
 20
39.1280588452
 30
0.0
 10
107.3862330945
 20
38.7387202729
 30
0.0
 10
108.0245612486
 20
38.4517499237
 30
0.0
 10
108.5120161356
 20
38.385675117
 30
0.0
 10
108.7632267181
 20
38.385675117
 30
0.0
  0
SPLINE
  5
48E
100
AcDbEntity
  8
KONSTRUKTIONSELEMENTE
100
AcDbSpline
 62
7
  6
CONTINUOUS
 70
0
 71
3
 72
11
 73
7
 74
0
 42
0.0000001
 43
0.0000001
 44
0.0000000001
 40
0.0
 40
0.0
 40
0.0
 40
0.0
 40
0.2200606194
 40
0.4557771489
 40
0.7157721538
 40
1.0
 40
1.0
 40
1.0
 40
1.0
 10
150.9085381541
 20
63.0346914923
 30
0.0
 10
150.9085407213
 20
63.0784325842
 30
0.0
 10
150.8893865624
 20
63.1698588285
 30
0.0
 10
150.8090664522
 20
63.2905657028
 30
0.0
 10
150.686571128
 20
63.3887367826
 30
0.0
 10
150.5868961851
 20
63.4336126161
 30
0.0
 10
150.5332421122
 20
63.4513039364
 30
0.0
  0
SPLINE
  5
48F
100
AcDbEntity
  8
BEZUGSACHSEN
100
AcDbSpline
 62
7
  6
CONTINUOUS
 70
0
 71
3
 72
11
 73
7
 74
0
 42
0.0000001
 43
0.0000001
 44
0.0000000001
 40
0.0
 40
0.0
 40
0.0
 40
0.0
 40
0.221185816
 40
0.4572071684
 40
0.716647289
 40
1.0
 40
1.0
 40
1.0
 40
1.0
 10
109.8282267181
 20
122.0717626704
 30
0.0
 10
109.8282267181
 20
122.4299551781
 30
0.0
 10
109.9794419749
 20
123.1768616459
 30
0.0
 10
110.6167635695
 20
124.1719163851
 30
0.0
 10
111.5942575976
 20
124.9931120376
 30
0.0
 10
112.3940303144
 20
125.3789455822
 30
0.0
 10
112.8255805023
 20
125.5349043457
 30
0.0
  0
SPLINE
  5
490
100
AcDbEntity
  8
BEZUGSACHSEN
100
AcDbSpline
 62
7
  6
CONTINUOUS
 70
0
 71
3
 72
11
 73
7
 74
0
 42
0.0000001
 43
0.0000001
 44
0.0000000001
 40
0.0
 40
0.0
 40
0.0
 40
0.0
 40
0.283352711
 40
0.5427928316
 40
0.778814184
 40
1.0
 40
1.0
 40
1.0
 40
1.0
 10
117.8308729339
 20
125.5349043457
 30
0.0
 10
118.2624231219
 20
125.3789455822
 30
0.0
 10
119.0621958387
 20
124.9931120376
 30
0.0
 10
120.0396898668
 20
124.1719163851
 30
0.0
 10
120.6770114613
 20
123.1768616459
 30
0.0
 10
120.8282267181
 20
122.4299551781
 30
0.0
 10
120.8282267181
 20
122.0717626704
 30
0.0
  0
SPLINE
  5
491
100
AcDbEntity
  8
KONSTRUKTIONSELEMENTE
100
AcDbSpline
 62
7
  6
CONTINUOUS
 70
0
 71
3
 72
9
 73
5
 74
0
 42
0.0000001
 43
0.0000001
 44
0.0000000001
 40
0.0
 40
0.0
 40
0.0
 40
0.0
 40
0.5108269807
 40
1.0
 40
1.0
 40
1.0
 40
1.0
 10
180.2196094946
 20
103.8444883799
 30
0.0
 10
180.4125064052
 20
104.1369963651
 30
0.0
 10
180.7195359823
 20
104.7615855145
 30
0.0
 10
180.8286029403
 20
105.451310071
 30
0.0
 10
180.8286089181
 20
105.7868429183
 30
0.0
  0
SPLINE
  5
492
100
AcDbEntity
  8
KONSTRUKTIONSELEMENTE
100
AcDbSpline
 62
7
  6
CONTINUOUS
 70
0
 71
3
 72
10
 73
6
 74
0
 42
0.0000001
 43
0.0000001
 44
0.0000000001
 40
0.0
 40
0.0
 40
0.0
 40
0.0
 40
0.2661924468
 40
0.53465928
 40
1.0
 40
1.0
 40
1.0
 40
1.0
 10
178.8064038226
 20
102.78906199
 30
0.0
 10
178.8855490051
 20
102.7629655038
 30
0.0
 10
179.0539822905
 20
102.7353793246
 30
0.0
 10
179.3651429237
 20
102.7663309309
 30
0.0
 10
179.5900028806
 20
102.8897558155
 30
0.0
 10
179.6702057543
 20
103.0113750832
 30
0.0
  0
SPLINE
  5
493
100
AcDbEntity
  8
KONSTRUKTIONSELEMENTE
100
AcDbSpline
 62
7
  6
CONTINUOUS
 70
0
 71
3
 72
9
 73
5
 74
0
 42
0.0000001
 43
0.0000001
 44
0.0000000001
 40
0.0
 40
0.0
 40
0.0
 40
0.0
 40
0.2605100871
 40
1.0
 40
1.0
 40
1.0
 40
1.0
 10
150.8476403036
 20
59.304969827
 30
0.0
 10
150.8574469063
 20
59.319840514
 30
0.0
 10
150.8914724189
 20
59.3791824334
 30
0.0
 10
150.9085351865
 20
59.4485928914
 30
0.0
 10
150.9085381541
 20
59.4991575864
 30
0.0
  0
SPLINE
  5
494
100
AcDbEntity
  8
KONSTRUKTIONSELEMENTE
100
AcDbSpline
 62
7
  6
CONTINUOUS
 70
0
 71
3
 72
11
 73
7
 74
0
 42
0.0000001
 43
0.0000001
 44
0.0000000001
 40
0.0
 40
0.0
 40
0.0
 40
0.0
 40
0.2729767978
 40
0.5353848362
 40
0.7789285996
 40
1.0
 40
1.0
 40
1.0
 40
1.0
 10
144.7321736389
 20
56.3108320201
 30
0.0
 10
145.3415514186
 20
56.3108320201
 30
0.0
 10
146.5403247073
 20
56.4291546891
 30
0.0
 10
148.212069291
 20
56.9536550577
 30
0.0
 10
149.6231859973
 20
57.7865757619
 30
0.0
 10
150.3514850771
 20
58.5526023309
 30
0.0
 10
150.6231742546
 20
58.964590546
 30
0.0
  0
SPLINE
  5
495
100
AcDbEntity
  8
KONSTRUKTIONSELEMENTE
100
AcDbSpline
 62
7
  6
CONTINUOUS
 70
0
 71
3
 72
13
 73
9
 74
0
 42
0.0000001
 43
0.0000001
 44
0.0000000001
 40
0.0
 40
0.0
 40
0.0
 40
0.0
 40
0.2870489256
 40
0.5535682914
 40
0.6755020148
 40
0.789331082
 40
0.8965440086
 40
1.0
 40
1.0
 40
1.0
 40
1.0
 10
126.4432267181
 20
56.3108320201
 30
0.0
 10
125.7733796709
 20
56.3108320201
 30
0.0
 10
124.4750030502
 20
56.1364128272
 30
0.0
 10
123.0105403385
 20
55.4742727267
 30
0.0
 10
122.111656138
 20
54.7108973067
 30
0.0
 10
121.6198702645
 20
54.0705529154
 30
0.0
 10
121.3132886074
 20
53.3694147864
 30
0.0
 10
121.2432267181
 20
52.8752979379
 30
0.0
 10
121.2432267181
 20
52.6338767579
 30
0.0
  0
SPLINE
  5
496
100
AcDbEntity
  8
KONSTRUKTIONSELEMENTE
100
AcDbSpline
 62
7
  6
CONTINUOUS
 70
0
 71
3
 72
12
 73
8
 74
0
 42
0.0000001
 43
0.0000001
 44
0.0000000001
 40
0.0
 40
0.0
 40
0.0
 40
0.0
 40
0.1093780659
 40
0.2208877297
 40
0.4563569003
 40
0.716089424
 40
1.0
 40
1.0
 40
1.0
 40
1.0
 10
180.8286089181
 20
109.3223768243
 30
0.0
 10
180.8286127953
 20
109.5400005917
 30
0.0
 10
180.7838767845
 20
109.9807473866
 30
0.0
 10
180.5150809055
 20
110.8533094664
 30
0.0
 10
179.8337404946
 20
111.8821615367
 30
0.0
 10
178.6087506912
 20
112.8619924799
 30
0.0
 10
177.6120988115
 20
113.3111340335
 30
0.0
 10
177.0756275802
 20
113.4880243209
 30
0.0
  0
SPLINE
  5
497
100
AcDbEntity
  8
KONSTRUKTIONSELEMENTE
100
AcDbSpline
 62
7
  6
CONTINUOUS
 70
0
 71
3
 72
12
 73
8
 74
0
 42
0.0000001
 43
0.0000001
 44
0.0000000001
 40
0.0
 40
0.0
 40
0.0
 40
0.0
 40
0.2874515908
 40
0.5543051126
 40
0.7890378741
 40
0.8964383639
 40
1.0
 40
1.0
 40
1.0
 40
1.0
 10
121.8932267181
 20
38.385675117
 30
0.0
 10
122.1444373007
 20
38.385675117
 30
0.0
 10
122.6318921876
 20
38.4517499237
 30
0.0
 10
123.2702203417
 20
38.7387202729
 30
0.0
 10
123.6594208917
 20
39.1280588452
 30
0.0
 10
123.8168746642
 20
39.48873421
 30
0.0
 10
123.8432267181
 20
39.6740284352
 30
0.0
 10
123.8432267181
 20
39.7645333403
 30
0.0
  0
SPLINE
  5
498
100
AcDbEntity
  8
KONSTRUKTIONSELEMENTE
100
AcDbSpline
 62
7
  6
CONTINUOUS
 70
0
 71
3
 72
11
 73
7
 74
0
 42
0.0000001
 43
0.0000001
 44
0.0000000001
 40
0.0
 40
0.0
 40
0.0
 40
0.0
 40
0.2820767698
 40
0.5407553301
 40
0.7772666753
 40
1.0
 40
1.0
 40
1.0
 40
1.0
 10
126.4540457832
 20
56.282218575
 30
0.0
 10
126.0745132868
 20
56.1281537198
 30
0.0
 10
125.373465272
 20
55.7576278328
 30
0.0
 10
124.522971299
 20
54.9956210512
 30
0.0
 10
123.9728293989
 20
54.0892887049
 30
0.0
 10
123.8432267181
 20
53.4169327425
 30
0.0
 10
123.8432267181
 20
53.0934961657
 30
0.0
  0
SPLINE
  5
499
100
AcDbEntity
  8
KONSTRUKTIONSELEMENTE
100
AcDbSpline
 62
7
  6
CONTINUOUS
 70
0
 71
3
 72
11
 73
7
 74
0
 42
0.0000001
 43
0.0000001
 44
0.0000000001
 40
0.0
 40
0.0
 40
0.0
 40
0.0
 40
0.2814501369
 40
0.5397962415
 40
0.77655066
 40
1.0
 40
1.0
 40
1.0
 40
1.0
 10
104.3008524149
 20
56.3117089846
 30
0.0
 10
104.667608259
 20
56.155141537
 30
0.0
 10
105.3441217168
 20
55.782869969
 30
0.0
 10
106.1620796723
 20
55.0282106745
 30
0.0
 10
106.6893956195
 20
54.1377912917
 30
0.0
 10
106.8132267181
 20
53.4805550101
 30
0.0
 10
106.8132267181
 20
53.1639572219
 30
0.0
  0
SPLINE
  5
49A
100
AcDbEntity
  8
KONSTRUKTIONSELEMENTE
100
AcDbSpline
 62
7
  6
CONTINUOUS
 70
0
 71
3
 72
9
 73
5
 74
0
 42
0.0000001
 43
0.0000001
 44
0.0000000001
 40
0.0
 40
0.0
 40
0.0
 40
0.0
 40
0.5107012964
 40
1.0
 40
1.0
 40
1.0
 40
1.0
 10
72.7888313364
 20
96.5109093266
 30
0.0
 10
72.7309464631
 20
96.5986856812
 30
0.0
 10
72.6388352985
 20
96.7861807603
 30
0.0
 10
72.6061055162
 20
96.9932092036
 30
0.0
 10
72.6061332437
 20
97.0939471927
 30
0.0
  0
SPLINE
  5
49B
100
AcDbEntity
  8
KONSTRUKTIONSELEMENTE
100
AcDbSpline
 62
7
  6
CONTINUOUS
 70
0
 71
3
 72
11
 73
7
 74
0
 42
0.0000001
 43
0.0000001
 44
0.0000000001
 40
0.0
 40
0.0
 40
0.0
 40
0.0
 40
0.2226749471
 40
0.4655437771
 40
0.726559919
 40
1.0
 40
1.0
 40
1.0
 40
1.0
 10
97.2459747175
 20
58.964590546
 30
0.0
 10
97.4851894403
 20
58.6018464441
 30
0.0
 10
98.1065777248
 20
57.9202418659
 30
0.0
 10
99.3022646411
 20
57.1371216332
 30
0.0
 10
100.7264713483
 20
56.587271869
 30
0.0
 10
101.7591547632
 20
56.3993241556
 30
0.0
 10
102.2904483248
 20
56.3499770513
 30
0.0
  0
SPLINE
  5
49C
100
AcDbEntity
  8
KONSTRUKTIONSELEMENTE
100
AcDbSpline
 62
7
  6
CONTINUOUS
 70
0
 71
3
 72
12
 73
8
 74
0
 42
0.0000001
 43
0.0000001
 44
0.0000000001
 40
0.0
 40
0.0
 40
0.0
 40
0.0
 40
0.2199571982
 40
0.3417709653
 40
0.4698495946
 40
0.7360503245
 40
1.0
 40
1.0
 40
1.0
 40
1.0
 10
162.5100837051
 20
103.0910972757
 30
0.0
 10
162.8924117177
 20
103.6708577098
 30
0.0
 10
163.7179853057
 20
104.4258462045
 30
0.0
 10
165.0345200871
 20
105.1142450029
 30
0.0
 10
166.5858054754
 20
105.6352106011
 30
0.0
 10
168.6799258847
 20
105.854834426
 30
0.0
 10
170.3566430474
 20
105.5751957564
 30
0.0
 10
171.1481030222
 20
105.3142282073
 30
0.0
  0
SPLINE
  5
49D
100
AcDbEntity
  8
KONSTRUKTIONSELEMENTE
100
AcDbSpline
 62
7
  6
CONTINUOUS
 70
0
 71
3
 72
12
 73
8
 74
0
 42
0.0000001
 43
0.0000001
 44
0.0000000001
 40
0.0
 40
0.0
 40
0.0
 40
0.0
 40
0.1093780659
 40
0.2208877297
 40
0.4563569003
 40
0.716089424
 40
1.0
 40
1.0
 40
1.0
 40
1.0
 10
180.8286089181
 20
105.7868429183
 30
0.0
 10
180.8286127953
 20
106.0044666858
 30
0.0
 10
180.7838767845
 20
106.4452134806
 30
0.0
 10
180.5150809055
 20
107.3177755605
 30
0.0
 10
179.8337404946
 20
108.3466276307
 30
0.0
 10
178.6087506912
 20
109.326458574
 30
0.0
 10
177.6120988115
 20
109.7756001275
 30
0.0
 10
177.0756275802
 20
109.952490415
 30
0.0
  0
SPLINE
  5
49E
100
AcDbEntity
  8
KONSTRUKTIONSELEMENTE
100
AcDbSpline
 62
7
  6
CONTINUOUS
 70
0
 71
3
 72
11
 73
7
 74
0
 42
0.0000001
 43
0.0000001
 44
0.0000000001
 40
0.0
 40
0.0
 40
0.0
 40
0.0
 40
0.2787093695
 40
0.5386731691
 40
0.7779105289
 40
1.0
 40
1.0
 40
1.0
 40
1.0
 10
80.721834007
 20
98.6195188955
 30
0.0
 10
80.8564630724
 20
98.663910044
 30
0.0
 10
81.1098680836
 20
98.7730830347
 30
0.0
 10
81.436655616
 20
99.0017189199
 30
0.0
 10
81.6812937917
 20
99.2804043049
 30
0.0
 10
81.7819250717
 20
99.4971798438
 30
0.0
 10
81.8119014043
 20
99.6060902882
 30
0.0
  0
SPLINE
  5
49F
100
AcDbEntity
  8
KONSTRUKTIONSELEMENTE
100
AcDbSpline
 62
7
  6
CONTINUOUS
 70
0
 71
3
 72
11
 73
7
 74
0
 42
0.0000001
 43
0.0000001
 44
0.0000000001
 40
0.0
 40
0.0
 40
0.0
 40
0.0
 40
0.2816064552
 40
0.5417085427
 40
0.7793419382
 40
1.0
 40
1.0
 40
1.0
 40
1.0
 10
79.6230265264
 20
100.2857454888
 30
0.0
 10
79.7703984837
 20
100.3343383422
 30
0.0
 10
80.0459969399
 20
100.4555850418
 30
0.0
 10
80.3934294159
 20
100.7152504694
 30
0.0
 10
80.6389906902
 20
101.0329360405
 30
0.0
 10
80.7221982681
 20
101.2778493422
 30
0.0
 10
80.7392443584
 20
101.3982400681
 30
0.0
  0
SPLINE
  5
4A0
100
AcDbEntity
  8
BEZUGSACHSEN
100
AcDbSpline
 62
7
  6
CONTINUOUS
 70
0
 71
3
 72
9
 73
5
 74
0
 42
0.0000001
 43
0.0000001
 44
0.0000000001
 40
0.0
 40
0.0
 40
0.0
 40
0.0
 40
0.2459387646
 40
1.0
 40
1.0
 40
1.0
 40
1.0
 10
122.090118906
 20
128.0828240962
 30
0.0
 10
121.7504230394
 20
128.1948317789
 30
0.0
 10
120.3569194335
 20
128.6124003928
 30
0.0
 10
118.9196775699
 20
128.8817048279
 30
0.0
 10
117.8298008675
 20
129.0036981121
 30
0.0
  0
SPLINE
  5
4A1
100
AcDbEntity
  8
BEZUGSACHSEN
100
AcDbSpline
 62
7
  6
CONTINUOUS
 70
0
 71
3
 72
9
 73
5
 74
0
 42
0.0000001
 43
0.0000001
 44
0.0000000001
 40
0.0
 40
0.0
 40
0.0
 40
0.0
 40
0.2536983179
 40
1.0
 40
1.0
 40
1.0
 40
1.0
 10
112.8266525687
 20
129.0036981121
 30
0.0
 10
112.4599784163
 20
128.9626551354
 30
0.0
 10
111.0190021017
 20
128.7649633306
 30
0.0
 10
109.5971232355
 20
128.4227053418
 30
0.0
 10
108.5663345303
 20
128.0828240962
 30
0.0
  0
SPLINE
  5
4A2
100
AcDbEntity
  8
KONSTRUKTIONSELEMENTE
100
AcDbSpline
 62
7
  6
CONTINUOUS
 70
0
 71
3
 72
11
 73
7
 74
0
 42
0.0000001
 43
0.0000001
 44
0.0000000001
 40
0.0
 40
0.0
 40
0.0
 40
0.0
 40
0.2200606194
 40
0.4557771489
 40
0.7157721538
 40
1.0
 40
1.0
 40
1.0
 40
1.0
 10
150.9085381541
 20
59.4991575864
 30
0.0
 10
150.9085407213
 20
59.5428986782
 30
0.0
 10
150.8893865624
 20
59.6343249226
 30
0.0
 10
150.8090664522
 20
59.7550317969
 30
0.0
 10
150.686571128
 20
59.8532028767
 30
0.0
 10
150.5868961851
 20
59.8980787102
 30
0.0
 10
150.5332421122
 20
59.9157700305
 30
0.0
  0
SPLINE
  5
4A3
100
AcDbEntity
  8
BEZUGSACHSEN
100
AcDbSpline
 62
7
  6
CONTINUOUS
 70
0
 71
3
 72
19
 73
15
 74
0
 42
0.0000001
 43
0.0000001
 44
0.0000000001
 40
0.0
 40
0.0
 40
0.0
 40
0.0
 40
0.0517234907
 40
0.1053372095
 40
0.1622487312
 40
0.2232163938
 40
0.3564752704
 40
0.5
 40
0.6435247296
 40
0.7767836062
 40
0.8377512688
 40
0.8946627905
 40
0.9482765093
 40
1.0
 40
1.0
 40
1.0
 40
1.0
 10
120.8282267181
 20
122.0717626704
 30
0.0
 10
120.8282267181
 20
121.8164364863
 30
0.0
 10
120.7540761369
 20
121.293813554
 30
0.0
 10
120.4298903381
 20
120.5521921649
 30
0.0
 10
119.9096182456
 20
119.8749437715
 30
0.0
 10
118.9590513761
 20
119.0675008115
 30
0.0
 10
117.4090708842
 20
118.3671791579
 30
0.0
 10
115.3282267181
 20
118.0870018762
 30
0.0
 10
113.2473825521
 20
118.3671791579
 30
0.0
 10
111.6974020602
 20
119.0675008115
 30
0.0
 10
110.7468351907
 20
119.8749437715
 30
0.0
 10
110.2265630982
 20
120.5521921649
 30
0.0
 10
109.9023772994
 20
121.293813554
 30
0.0
 10
109.8282267181
 20
121.8164364863
 30
0.0
 10
109.8282267181
 20
122.0717626704
 30
0.0
  0
SPLINE
  5
4A4
100
AcDbEntity
  8
KONSTRUKTIONSELEMENTE
100
AcDbSpline
 62
7
  6
CONTINUOUS
 70
0
 71
3
 72
11
 73
7
 74
0
 42
0.0000001
 43
0.0000001
 44
0.0000000001
 40
0.0
 40
0.0
 40
0.0
 40
0.0
 40
0.2200436456
 40
0.4557793627
 40
0.7157728079
 40
1.0
 40
1.0
 40
1.0
 40
1.0
 10
72.6061332437
 20
97.0939471927
 30
0.0
 10
72.6061693497
 20
97.2251257473
 30
0.0
 10
72.6637782776
 20
97.4992987348
 30
0.0
 10
72.9047380985
 20
97.8612595759
 30
0.0
 10
73.2721553665
 20
98.1556771791
 30
0.0
 10
73.5711065004
 20
98.2902500914
 30
0.0
 10
73.7320259107
 20
98.3433099371
 30
0.0
  0
SPLINE
  5
4A5
100
AcDbEntity
  8
KONSTRUKTIONSELEMENTE
100
AcDbSpline
 62
7
  6
CONTINUOUS
 70
0
 71
3
 72
12
 73
8
 74
0
 42
0.0000001
 43
0.0000001
 44
0.0000000001
 40
0.0
 40
0.0
 40
0.0
 40
0.0
 40
0.2839215899
 40
0.5436396333
 40
0.7791104503
 40
0.8906217948
 40
1.0
 40
1.0
 40
1.0
 40
1.0
 10
67.7192273339
 20
114.6143357392
 30
0.0
 10
67.1827296648
 20
114.4374367344
 30
0.0
 10
66.1860795093
 20
113.988284195
 30
0.0
 10
64.9610739993
 20
113.008438845
 30
0.0
 10
64.2797968137
 20
111.9795715347
 30
0.0
 10
64.0109424099
 20
111.1070027393
 30
0.0
 10
63.9662778823
 20
110.6662421013
 30
0.0
 10
63.9662651751
 20
110.4486157747
 30
0.0
  0
SPLINE
  5
4A6
100
AcDbEntity
  8
KONSTRUKTIONSELEMENTE
100
AcDbSpline
 62
7
  6
CONTINUOUS
 70
0
 71
3
 72
12
 73
8
 74
0
 42
0.0000001
 43
0.0000001
 44
0.0000000001
 40
0.0
 40
0.0
 40
0.0
 40
0.0
 40
0.2839243992
 40
0.5436449467
 40
0.7791102126
 40
0.8906209315
 40
1.0
 40
1.0
 40
1.0
 40
1.0
 10
142.8749413117
 20
62.4409362478
 30
0.0
 10
142.3384520116
 20
62.617832493
 30
0.0
 10
141.3418164359
 20
63.0669751059
 30
0.0
 10
140.1168389169
 20
64.0467894223
 30
0.0
 10
139.4355630181
 20
65.0756064223
 30
0.0
 10
139.1666862921
 20
65.9481323958
 30
0.0
 10
139.1220024349
 20
66.3888799277
 30
0.0
 10
139.1219788927
 20
66.6065024228
 30
0.0
  0
SPLINE
  5
4A7
100
AcDbEntity
  8
KONSTRUKTIONSELEMENTE
100
AcDbSpline
 62
7
  6
CONTINUOUS
 70
0
 71
3
 72
11
 73
7
 74
0
 42
0.0000001
 43
0.0000001
 44
0.0000000001
 40
0.0
 40
0.0
 40
0.0
 40
0.0
 40
0.2842271921
 40
0.5442206373
 40
0.7799563544
 40
1.0
 40
1.0
 40
1.0
 40
1.0
 10
80.721834007
 20
98.1598994877
 30
0.0
 10
80.8827534173
 20
98.2129593334
 30
0.0
 10
81.1817045512
 20
98.3475322457
 30
0.0
 10
81.5491218192
 20
98.6419498489
 30
0.0
 10
81.79008164
 20
99.0039106901
 30
0.0
 10
81.847690568
 20
99.2780836776
 30
0.0
 10
81.847726674
 20
99.4092622321
 30
0.0
  0
SPLINE
  5
4A8
100
AcDbEntity
  8
KONSTRUKTIONSELEMENTE
100
AcDbSpline
 62
7
  6
CONTINUOUS
 70
0
 71
3
 72
9
 73
5
 74
0
 42
0.0000001
 43
0.0000001
 44
0.0000000001
 40
0.0
 40
0.0
 40
0.0
 40
0.0
 40
0.5000928141
 40
1.0
 40
1.0
 40
1.0
 40
1.0
 10
96.1696502557
 20
136.1540857353
 30
0.0
 10
96.353232356
 20
136.656498721
 30
0.0
 10
96.6511903485
 20
137.6889011308
 30
0.0
 10
96.758899859
 20
138.7608674178
 30
0.0
 10
96.758899859
 20
139.2955718464
 30
0.0
  0
SPLINE
  5
4A9
100
AcDbEntity
  8
KONSTRUKTIONSELEMENTE
100
AcDbSpline
 62
7
  6
CONTINUOUS
 70
0
 71
3
 72
9
 73
5
 74
0
 42
0.0000001
 43
0.0000001
 44
0.0000000001
 40
0.0
 40
0.0
 40
0.0
 40
0.0
 40
0.4999071859
 40
1.0
 40
1.0
 40
1.0
 40
1.0
 10
133.8975535772
 20
139.2955718464
 30
0.0
 10
133.8975535772
 20
138.7608674178
 30
0.0
 10
134.0052630878
 20
137.6889011308
 30
0.0
 10
134.3032210802
 20
136.656498721
 30
0.0
 10
134.4868031805
 20
136.1540857353
 30
0.0
  0
SPLINE
  5
4AA
100
AcDbEntity
  8
KONSTRUKTIONSELEMENTE
100
AcDbSpline
 62
7
  6
CONTINUOUS
 70
0
 71
3
 72
9
 73
5
 74
0
 42
0.0000001
 43
0.0000001
 44
0.0000000001
 40
0.0
 40
0.0
 40
0.0
 40
0.0
 40
0.4954651683
 40
1.0
 40
1.0
 40
1.0
 40
1.0
 10
97.2926957541
 20
130.4815292246
 30
0.0
 10
97.2601547056
 20
131.0199488713
 30
0.0
 10
97.0356852151
 20
132.1001942973
 30
0.0
 10
96.5768002954
 20
133.0943809363
 30
0.0
 10
96.3114110515
 20
133.5752891736
 30
0.0
  0
SPLINE
  5
4AB
100
AcDbEntity
  8
KONSTRUKTIONSELEMENTE
100
AcDbSpline
 62
7
  6
CONTINUOUS
 70
0
 71
3
 72
12
 73
8
 74
0
 42
0.0000001
 43
0.0000001
 44
0.0000000001
 40
0.0
 40
0.0
 40
0.0
 40
0.0
 40
0.1283510413
 40
0.2559577546
 40
0.506969464
 40
0.7542606269
 40
1.0
 40
1.0
 40
1.0
 40
1.0
 10
96.758899859
 20
147.0857049221
 30
0.0
 10
96.758899859
 20
147.3530152154
 30
0.0
 10
96.8065977147
 20
147.8873083545
 30
0.0
 10
97.081172214
 20
148.9113138086
 30
0.0
 10
97.7186625359
 20
150.0717771348
 30
0.0
 10
98.7887573027
 20
151.2078447273
 30
0.0
 10
99.623554948
 20
151.8145055956
 30
0.0
 10
100.0575814541
 20
152.0857049221
 30
0.0
  0
LINE
  5
4AC
100
AcDbEntity
  8
0
100
AcDbLine
 62
7
  6
CONTINUOUS
 10
133.3637576821
 20
130.4815292246
 11
132.823928574
 21
121.7652271781
  0
LINE
  5
4AD
100
AcDbEntity
  8
0
100
AcDbLine
 62
7
  6
CONTINUOUS
 10
97.8325248623
 20
121.7652271781
 11
97.2926957541
 21
130.4815292246
  0
SPLINE
  5
4AE
100
AcDbEntity
  8
KONSTRUKTIONSELEMENTE
100
AcDbSpline
 62
7
  6
CONTINUOUS
 70
0
 71
3
 72
12
 73
8
 74
0
 42
0.0000001
 43
0.0000001
 44
0.0000000001
 40
0.0
 40
0.0
 40
0.0
 40
0.0
 40
0.2457412345
 40
0.4930343536
 40
0.7440454004
 40
0.8716502511
 40
1.0
 40
1.0
 40
1.0
 40
1.0
 10
130.5988719821
 20
152.0857049221
 30
0.0
 10
131.0329017633
 20
151.8145035491
 30
0.0
 10
131.8677056681
 20
151.2078376393
 30
0.0
 10
132.9378023715
 20
150.0717623263
 30
0.0
 10
133.5752869341
 20
148.9112973061
 30
0.0
 10
133.8498567082
 20
147.8872990424
 30
0.0
 10
133.8975535772
 20
147.3530125159
 30
0.0
 10
133.8975535772
 20
147.0857049221
 30
0.0
  0
SPLINE
  5
4AF
100
AcDbEntity
  8
KONSTRUKTIONSELEMENTE
100
AcDbSpline
 62
7
  6
CONTINUOUS
 70
0
 71
3
 72
11
 73
7
 74
0
 42
0.0000001
 43
0.0000001
 44
0.0000000001
 40
0.0
 40
0.0
 40
0.0
 40
0.0
 40
0.2361228539
 40
0.4828985925
 40
0.7390213431
 40
1.0
 40
1.0
 40
1.0
 40
1.0
 10
96.3114110515
 20
133.5752891736
 30
0.0
 10
96.2102603854
 20
133.7585829191
 30
0.0
 10
96.0439049039
 20
134.1575676139
 30
0.0
 10
95.9338737051
 20
134.8090941203
 30
0.0
 10
95.9715043965
 20
135.4904795849
 30
0.0
 10
96.090236016
 20
135.9367511192
 30
0.0
 10
96.1696502557
 20
136.1540857353
 30
0.0
  0
SPLINE
  5
4B0
100
AcDbEntity
  8
KONSTRUKTIONSELEMENTE
100
AcDbSpline
 62
7
  6
CONTINUOUS
 70
0
 71
3
 72
11
 73
7
 74
0
 42
0.0000001
 43
0.0000001
 44
0.0000000001
 40
0.0
 40
0.0
 40
0.0
 40
0.0
 40
0.2609786569
 40
0.5171014075
 40
0.7638771461
 40
1.0
 40
1.0
 40
1.0
 40
1.0
 10
134.4868031805
 20
136.1540857353
 30
0.0
 10
134.5662174203
 20
135.9367511192
 30
0.0
 10
134.6849490398
 20
135.4904795849
 30
0.0
 10
134.7225797312
 20
134.8090941203
 30
0.0
 10
134.6125485324
 20
134.1575676139
 30
0.0
 10
134.4461930509
 20
133.7585829191
 30
0.0
 10
134.3450423848
 20
133.5752891736
 30
0.0
  0
SPLINE
  5
4B1
100
AcDbEntity
  8
KONSTRUKTIONSELEMENTE
100
AcDbSpline
 62
7
  6
CONTINUOUS
 70
0
 71
3
 72
9
 73
5
 74
0
 42
0.0000001
 43
0.0000001
 44
0.0000000001
 40
0.0
 40
0.0
 40
0.0
 40
0.0
 40
0.5045348317
 40
1.0
 40
1.0
 40
1.0
 40
1.0
 10
134.3450423848
 20
133.5752891736
 30
0.0
 10
134.0796531408
 20
133.0943809363
 30
0.0
 10
133.6207682211
 20
132.1001942973
 30
0.0
 10
133.3962987307
 20
131.0199488713
 30
0.0
 10
133.3637576821
 20
130.4815292246
 30
0.0
  0
ELLIPSE
  5
4B2
100
AcDbEntity
  8
0
100
AcDbEllipse
 62
7
  6
CONTINUOUS
 10
468.8034854765
 20
159.7922839317
 30
0.0
 11
-0.7556199617
 21
21.3458453383
 31
0.0
 40
0.1404528969
 41
-2.0714148455
 42
-1.8176885507
  0
ELLIPSE
  5
4B3
100
AcDbEntity
  8
0
100
AcDbEllipse
 62
7
  6
CONTINUOUS
 10
469.0967617475
 20
151.3404576241
 30
0.0
 11
-0.4144865791
 21
3.5584203432
 31
0.0
 40
0.8362247574
 41
-2.5405585317
 42
-2.1635405839
  0
ELLIPSE
  5
4B4
100
AcDbEntity
  8
RUNDUNGEN
100
AcDbEllipse
 62
7
  6
CONTINUOUS
 10
483.3597768165
 20
151.3404576241
 30
0.0
 11
0.4144865791
 21
3.5584203432
 31
0.0
 40
0.8362247574
 41
-4.1196447232
 42
-3.7426267755
  0
ELLIPSE
  5
4B5
100
AcDbEntity
  8
RUNDUNGEN
100
AcDbEllipse
 62
7
  6
CONTINUOUS
 10
483.6530530875
 20
159.7922839317
 30
0.0
 11
0.7556199617
 21
21.3458453383
 31
0.0
 40
0.1404528969
 41
-4.4654967564
 42
-4.2117704617
  0
ELLIPSE
  5
4B6
100
AcDbEntity
  8
KONSTRUKTIONSELEMENTE
100
AcDbEllipse
 62
7
  6
CONTINUOUS
 10
67.7160549548
 20
107.041636467
 30
0.0
 11
1.9496756155
 21
0.5849900395
 31
0.0
 40
0.0607989098
 41
-2.7235007144
 42
-1.1527043876
  0
ELLIPSE
  5
4B7
100
AcDbEntity
  8
KONSTRUKTIONSELEMENTE
100
AcDbEllipse
 62
7
  6
CONTINUOUS
 10
74.7513859885
 20
107.213459314
 30
0.0
 11
1.9224508907
 21
-1.19390516
 31
0.0
 40
0.7424978488
 41
7.2982401868
 42
8.8690365136
  0
ELLIPSE
  5
4B8
100
AcDbEntity
  8
KONSTRUKTIONSELEMENTE
100
AcDbEllipse
 62
7
  6
CONTINUOUS
 10
115.3282267181
 20
78.7684342441
 30
0.0
 11
-0.0
 21
77.9422863406
 31
0.0
 40
0.5773502692
 41
-0.346223333
 42
-0.1584398369
  0
ELLIPSE
  5
4B9
100
AcDbEntity
  8
KONSTRUKTIONSELEMENTE
100
AcDbEllipse
 62
7
  6
CONTINUOUS
 10
115.3282267181
 20
78.7684342441
 30
0.0
 11
0.0
 21
77.9422863406
 31
0.0
 40
0.5773502692
 41
0.1584398369
 42
0.346223333
  0
ENDSEC
  0
SECTION
  2
OBJECTS
  0
DICTIONARY
  5
C
100
AcDbDictionary
280
0
281
1
  3
ACAD_GROUP
350
D
  3
ACAD_MLINESTYLE
350
17
  3
ACAD_LAYOUT
350
1A
  3
ACAD_PLOTSETTINGS
350
19
  3
ACAD_PLOTSTYLENAME
350
E
  0
DICTIONARY
  5
D
102
{ACAD_REACTORS
330
C
102
}
100
AcDbDictionary
280
0
281
1
  0
ACDBDICTIONARYWDFLT
  5
E
102
{ACAD_REACTORS
330
C
102
}
100
AcDbDictionary
281
1
  3
Normal
350
F
100
AcDbDictionaryWithDefault
340
F
  0
DICTIONARY
  5
17
102
{ACAD_REACTORS
330
C
102
}
100
AcDbDictionary
280
0
281
1
  3
Standard
350
18
  0
DICTIONARY
  5
19
102
{ACAD_REACTORS
330
C
102
}
100
AcDbDictionary
281
1
  0
DICTIONARY
  5
1A
102
{ACAD_REACTORS
330
C
102
}
100
AcDbDictionary
281
1
  3
Model
350
4BA
  3
Layout1
350
4BB
  0
ACDBPLACEHOLDER
  5
F
102
{ACAD_REACTORS
330
E
102
}
  0
MLINESTYLE
  5
18
102
{ACAD_REACTORS
330
17
102
}
100
AcDbMlineStyle
  2
STANDARD
 70
0
  3

 62
256
 51
90.0
 52
90.0
 71
2
 49
0.5
 62
256
  6
BYLAYER
 49
-0.5
 62
256
  6
BYLAYER
  0
LAYOUT
  5
4BA
102
{ACAD_REACTORS
330
1A
102
}
100
AcDbPlotSettings
  1

  2
none_device
  4
ISO_A2_(594.00_x_420.00_MM)
  6

 40
0.0
 41
0.0
 42
0.0
 43
0.0
 44
594.0
 45
420.0
 46
0.0
 47
0.0
 48
0.0
 49
0.0
140
0.0
141
0.0
142
1.0
143
1.0
 70
1024
 72
1
 73
0
 74
0
  7

 75
0
147
1.0
148
0.0
149
0.0
100
AcDbLayout
  1
Model
 70
0
 71
0
 10
0.0
 20
0.0
 11
594.0
 21
420.0
 12
0.0
 22
0.0
 32
0.0
 14
0.0
 24
0.0
 34
0.0
 15
0.0
 25
0.0
 35
0.0
146
0.0
 13
0.0
 23
0.0
 33
0.0
 16
1.0
 26
0.0
 36
0.0
 17
0.0
 27
1.0
 37
0.0
 76
0
330
20C
345
0
346
0
  0
LAYOUT
  5
4BB
102
{ACAD_REACTORS
330
1A
102
}
100
AcDbPlotSettings
  1

  2
none_device
  4
ISO_A2_(594.00_x_420.00_MM)
  6

 40
0.0
 41
0.0
 42
0.0
 43
0.0
 44
594.0
 45
420.0
 46
0.0
 47
0.0
 48
0.0
 49
0.0
140
0.0
141
0.0
142
1.0
143
1.0
 70
0
 72
1
 73
0
 74
0
  7

 75
0
147
1.0
148
0.0
149
0.0
100
AcDbLayout
  1
Layout1
 70
0
 71
1
 10
0.0
 20
0.0
 11
594.0
 21
420.0
 12
0.0
 22
0.0
 32
0.0
 14
0.0
 24
0.0
 34
0.0
 15
0.0
 25
0.0
 35
0.0
146
0.0
 13
0.0
 23
0.0
 33
0.0
 16
1.0
 26
0.0
 36
0.0
 17
0.0
 27
1.0
 37
0.0
 76
0
330
20D
345
0
346
0
  0
ENDSEC
  0
EOF
