999
DXF file: VAK-1-10_7100683_M34474-P-3.dxf
999
Pro/ENGINEER 2010140 by Parametric Technology Corporation
  0
SECTION
  2
HEADER
  9
$ACADVER
  1
AC1015
  9
$DWGCODEPAGE
  3
ANSI_1252
  9
$EXTMAX
 10
594.0
 20
420.0
 30
0.0
  9
$EXTMIN
 10
0.0
 20
0.0
 30
0.0
  9
$LIMMIN
 10
0.0
 20
0.0
  9
$LIMMAX
 10
594.0
 20
420.0
  9
$VIEWCTR
 10
297.0
 20
210.0
  9
$VIEWSIZE
 40
420.0
  9
$CLAYER
  8
0
  9
$LTSCALE
 40
32.67
  9
$CELTYPE
  6
BYLAYER
  9
$DIMSCALE
 40
1.0
  9
$DIMASZ
 40
3.5
  9
$DIMEXO
 40
3.7125
  9
$DIMDLI
 40
22.572
  9
$DIMEXE
 40
10.692
  9
$DIMCEN
 40
5.346
  9
$DIMLFAC
 40
1.0
  9
$DIMBLK
  1
_FILLED
  9
$DIMTXT
 40
3.5
  9
$DIMTOL
 70
1
  9
$DIMLIM
 70
0
  9
$DIMTFAC
 40
1.0
  9
$DIMTP
 40
0.005
  9
$DIMTM
 40
0.005
  9
$PDMODE
 70
3
  9
$PDSIZE
 40
0.3125
  9
$HANDSEED
  5
4B0
  9
$TILEMODE
 70
1
  9
$MEASUREMENT
 70
1
  9
$INSUNITS
 70
4
  0
ENDSEC
  0
SECTION
  2
CLASSES
  0
CLASS
  1
ACDBDICTIONARYWDFLT
  2
AcDbDictionaryWithDefault
  3
AutoCAD 2000
 90
0
280
0
281
0
  0
CLASS
  1
ACDBPLACEHOLDER
  2
AcDbPlaceHolder
  3
AutoCAD 2000
 90
0
280
0
281
0
  0
CLASS
  1
LAYOUT
  2
AcDbLayout
  3
AutoCAD 2000
 90
0
280
0
281
0
  0
ENDSEC
  0
SECTION
  2
TABLES
  0
TABLE
  2
VPORT
  5
8
100
AcDbSymbolTable
 70
2
  0
VPORT
  5
1F4
100
AcDbSymbolTableRecord
100
AcDbViewportTableRecord
  2
*ACTIVE
 70
0
 10
0.0
 20
0.0
 11
1.0
 21
1.0
 12
297.0
 22
210.0
 13
0.0
 23
0.0
 14
1.0
 24
1.0
 15
0.0
 25
0.0
 16
0.0
 26
0.0
 36
1.0
 17
0.0
 27
0.0
 37
0.0
 40
420.0
 41
1.4142857143
 42
50.0
 43
0.0
 44
0.0
 50
0.0
 51
0.0
 71
0
 72
100
 73
1
 74
1
 75
0
 76
0
 77
0
 78
0
  0
ENDTAB
  0
TABLE
  2
LTYPE
  5
5
100
AcDbSymbolTable
 70
6
  0
LTYPE
  5
14
100
AcDbSymbolTableRecord
100
AcDbLinetypeTableRecord
  2
BYBLOCK
 70
0
  3

 72
65
 73
0
 40
0.0
  0
LTYPE
  5
15
100
AcDbSymbolTableRecord
100
AcDbLinetypeTableRecord
  2
BYLAYER
 70
0
  3

 72
65
 73
0
 40
0.0
  0
LTYPE
  5
16
100
AcDbSymbolTableRecord
100
AcDbLinetypeTableRecord
  2
CONTINUOUS
 70
64
  3
Solid line
 72
65
 73
0
 40
0.0
  0
LTYPE
  5
1F5
100
AcDbSymbolTableRecord
100
AcDbLinetypeTableRecord
  2
CENTER
 70
64
  3
____ _ ____ _ ____ _ ____ _ ____ _ ____ _ ____
 72
65
 73
4
 40
0.6
 49
0.375
 74
0
 49
-0.075
 74
0
 49
0.075
 74
0
 49
-0.075
 74
0
  0
LTYPE
  5
1F6
100
AcDbSymbolTableRecord
100
AcDbLinetypeTableRecord
  2
HIDDEN
 70
64
  3
- - - - - - - - - - - - - - - - - - - -
 72
65
 73
2
 40
0.2
 49
0.1
 74
0
 49
-0.1
 74
0
  0
LTYPE
  5
1F7
100
AcDbSymbolTableRecord
100
AcDbLinetypeTableRecord
  2
PHANTOM
 70
64
  3
_____ _ _ _____ _ _ _____ _ _ _____
 72
65
 73
6
 40
0.8
 49
0.45
 74
0
 49
-0.05
 74
0
 49
0.1
 74
0
 49
-0.05
 74
0
 49
0.1
 74
0
 49
-0.05
 74
0
  0
LTYPE
  5
1F8
100
AcDbSymbolTableRecord
100
AcDbLinetypeTableRecord
  2
DOT
 70
64
  3
. . . . . . . . . . . . . . . . . . . .
 72
65
 73
2
 40
0.2
 49
0.1
 74
0
 49
-0.1
 74
0
  0
LTYPE
  5
1F9
100
AcDbSymbolTableRecord
100
AcDbLinetypeTableRecord
  2
DASHED
 70
64
  3
- - - - - - - - - - - - - - - - - - - -
 72
65
 73
2
 40
0.2
 49
0.1
 74
0
 49
-0.1
 74
0
  0
ENDTAB
  0
TABLE
  2
LAYER
  5
2
100
AcDbSymbolTable
 70
36
  0
LAYER
  5
10
100
AcDbSymbolTableRecord
100
AcDbLayerTableRecord
  2
0
 70
0
 62
7
  6
CONTINUOUS
370
-3
390
F
  0
LAYER
  5
1FA
100
AcDbSymbolTableRecord
100
AcDbLayerTableRecord
  2
DEFAULT_1
 70
0
 62
7
  6
CENTER
370
-3
390
F
  0
LAYER
  5
1FB
100
AcDbSymbolTableRecord
100
AcDbLayerTableRecord
  2
DEFAULT_2
 70
0
 62
8
  6
HIDDEN
370
-3
390
F
  0
LAYER
  5
1FC
100
AcDbSymbolTableRecord
100
AcDbLayerTableRecord
  2
DEFAULT_3
 70
0
 62
7
  6
PHANTOM
370
-3
390
F
  0
LAYER
  5
1FD
100
AcDbSymbolTableRecord
100
AcDbLayerTableRecord
  2
AUSFORMSCHRAEGEN
 70
0
 62
7
  6
CONTINUOUS
370
-3
390
F
  0
LAYER
  5
1FE
100
AcDbSymbolTableRecord
100
AcDbLayerTableRecord
  2
BEZUGSACHSEN
 70
0
 62
7
  6
CONTINUOUS
370
-3
390
F
  0
LAYER
  5
1FF
100
AcDbSymbolTableRecord
100
AcDbLayerTableRecord
  2
BEZUGSEBENEN
 70
0
 62
7
  6
CONTINUOUS
370
-3
390
F
  0
LAYER
  5
200
100
AcDbSymbolTableRecord
100
AcDbLayerTableRecord
  2
BG_STARTBEZUEGE
 70
0
 62
7
  6
CONTINUOUS
370
-3
390
F
  0
LAYER
  5
201
100
AcDbSymbolTableRecord
100
AcDbLayerTableRecord
  2
FASEN
 70
0
 62
7
  6
CONTINUOUS
370
-3
390
F
  0
LAYER
  5
202
100
AcDbSymbolTableRecord
100
AcDbLayerTableRecord
  2
FLAECHEN
 70
0
 62
7
  6
CONTINUOUS
370
-3
390
F
  0
LAYER
  5
203
100
AcDbSymbolTableRecord
100
AcDbLayerTableRecord
  2
HILFEN
 70
0
 62
7
  6
CONTINUOUS
370
-3
390
F
  0
LAYER
  5
204
100
AcDbSymbolTableRecord
100
AcDbLayerTableRecord
  2
KONSTRUKTIONSELEMENTE
 70
0
 62
7
  6
CONTINUOUS
370
-3
390
F
  0
LAYER
  5
205
100
AcDbSymbolTableRecord
100
AcDbLayerTableRecord
  2
PLATZIERUNG
 70
0
 62
7
  6
CONTINUOUS
370
-3
390
F
  0
LAYER
  5
206
100
AcDbSymbolTableRecord
100
AcDbLayerTableRecord
  2
PLAZIERUNG
 70
0
 62
7
  6
CONTINUOUS
370
-3
390
F
  0
LAYER
  5
207
100
AcDbSymbolTableRecord
100
AcDbLayerTableRecord
  2
RUNDUNGEN
 70
0
 62
7
  6
CONTINUOUS
370
-3
390
F
  0
LAYER
  5
208
100
AcDbSymbolTableRecord
100
AcDbLayerTableRecord
  2
TEIL_STARTBEZUEGE
 70
0
 62
7
  6
CONTINUOUS
370
-3
390
F
  0
LAYER
  5
209
100
AcDbSymbolTableRecord
100
AcDbLayerTableRecord
  2
T_STARTBEZUEGE
 70
0
 62
7
  6
CONTINUOUS
370
-3
390
F
  0
LAYER
  5
20A
100
AcDbSymbolTableRecord
100
AcDbLayerTableRecord
  2
ZEICHNUNGSBEMASSUNGEN
 70
0
 62
7
  6
CONTINUOUS
370
-3
390
F
  0
ENDTAB
  0
TABLE
  2
STYLE
  5
3
100
AcDbSymbolTable
 70
1
  0
STYLE
  5
11
100
AcDbSymbolTableRecord
100
AcDbTextStyleTableRecord
  2
STANDARD
 70
0
 40
0.0
 41
0.7
 50
0.0
 71
0
 42
0.2
  3
txt
  4

  0
STYLE
  5
20B
100
AcDbSymbolTableRecord
100
AcDbTextStyleTableRecord
  2
TEXTSTYLE_1
 70
0
 40
0.0
 41
0.8
 50
0.0
 71
0
 42
0.2
  3
gdt
  4

  0
ENDTAB
  0
TABLE
  2
VIEW
  5
6
100
AcDbSymbolTable
 70
0
  0
ENDTAB
  0
TABLE
  2
UCS
  5
7
100
AcDbSymbolTable
 70
0
  0
ENDTAB
  0
TABLE
  2
APPID
  5
9
100
AcDbSymbolTable
 70
1
  0
APPID
  5
20C
100
AcDbSymbolTableRecord
100
AcDbRegAppTableRecord
  2
ACAD
 70
0
  0
ENDTAB
  0
TABLE
  2
BLOCK_RECORD
  5
1
100
AcDbSymbolTable
 70
0
  0
BLOCK_RECORD
  5
20D
100
AcDbSymbolTableRecord
100
AcDbBlockTableRecord
  2
*Model_Space
  0
BLOCK_RECORD
  5
20E
100
AcDbSymbolTableRecord
100
AcDbBlockTableRecord
  2
*Paper_Space
  0
ENDTAB
  0
TABLE
  2
DIMSTYLE
  5
A
100
AcDbSymbolTable
 70
1
100
AcDbDimStyleTable
 71
0
  0
DIMSTYLE
105
20F
100
AcDbSymbolTableRecord
100
AcDbDimStyleTableRecord
  2
STANDARD
 70
0
  3

  4

 40
1.0
 41
3.5
 42
0.0625
 43
0.38
 44
0.18
 45
0.0
 46
0.0
 47
0.005
 48
0.005
140
3.5
141
0.09
142
0.0
143
25.4
144
1.0
145
0.0
146
1.0
147
0.09
 71
1.0
 72
0.0
 73
0
 74
0
 75
0
 76
0
 77
1
 78
8
170
0
171
2
172
0
173
0
174
0
175
0
176
0
177
0
178
5
270
2
271
3
272
3
273
2
274
2
275
0
280
0
281
0
282
0
283
1
284
8
285
0
286
0
287
3
288
0
340
11
  0
ENDTAB
  0
ENDSEC
  0
SECTION
  2
BLOCKS
  0
BLOCK
  5
20
100
AcDbEntity
  8
0
100
AcDbBlockBegin
  2
*Model_Space
 70
0
 10
0.0
 20
0.0
 30
0.0
  3
*Model_Space
  1

  0
ENDBLK
  5
21
100
AcDbEntity
  8
0
100
AcDbBlockEnd
  0
BLOCK
  5
1C
100
AcDbEntity
  8
0
100
AcDbBlockBegin
  2
*Paper_Space
 70
0
 10
0.0
 20
0.0
 30
0.0
  3
*Paper_Space
  1

  0
ENDBLK
  5
1D
100
AcDbEntity
  8
0
100
AcDbBlockEnd
  0
ENDSEC
  0
SECTION
  2
ENTITIES
  0
MTEXT
  5
210
100
AcDbEntity
  8
0
100
AcDbMText
 62
5
  6
CONTINUOUS
  7
STANDARD
 71
1
 72
1
 10
475.8432179562
 20
238.8921901376
 30
0.0
 11
0.0
 21
1.0
 31
0.0
 44
0.9
  1
RUD VAK-1-10
 40
6.0
 41
55.7142857143
  0
MTEXT
  5
211
100
AcDbEntity
  8
0
100
AcDbMText
 62
5
  6
CONTINUOUS
  7
STANDARD
 71
1
 72
1
 10
125.0992791323
 20
236.6612791351
 30
0.0
 11
0.0
 21
1.0
 31
0.0
 44
0.9
  1
RUD VAK-1-10
 40
6.0
 41
55.7142857143
  0
LINE
  5
212
100
AcDbEntity
  8
0
100
AcDbLine
 62
7
  6
CONTINUOUS
 10
0.0
 20
0.0
 11
0.0
 21
420.0
  0
LINE
  5
213
100
AcDbEntity
  8
0
100
AcDbLine
 62
7
  6
CONTINUOUS
 10
0.0
 20
0.0
 11
594.0
 21
0.0
  0
LINE
  5
214
100
AcDbEntity
  8
0
100
AcDbLine
 62
7
  6
CONTINUOUS
 10
0.0
 20
420.0
 11
594.0
 21
420.0
  0
LINE
  5
215
100
AcDbEntity
  8
0
100
AcDbLine
 62
7
  6
CONTINUOUS
 10
594.0
 20
0.0
 11
594.0
 21
420.0
  0
LINE
  5
216
100
AcDbEntity
  8
KONSTRUKTIONSELEMENTE
100
AcDbLine
 62
7
  6
CONTINUOUS
 10
246.5843930291
 20
56.324970133
 11
250.119926935
 21
52.7894362271
  0
LINE
  5
217
100
AcDbEntity
  8
BEZUGSACHSEN
100
AcDbLine
 62
7
  6
CONTINUOUS
 10
316.5879643666
 20
126.3285414705
 11
320.1234982725
 21
122.7930075646
  0
LINE
  5
218
100
AcDbEntity
  8
KONSTRUKTIONSELEMENTE
100
AcDbLine
 62
7
  6
CONTINUOUS
 10
312.69887707
 20
130.5711821576
 11
316.234410976
 21
127.0356482517
  0
LINE
  5
219
100
AcDbEntity
  8
KONSTRUKTIONSELEMENTE
100
AcDbLine
 62
7
  6
CONTINUOUS
 10
313.0524304606
 20
130.9247355482
 11
316.5879643666
 21
127.3892016423
  0
LINE
  5
21A
100
AcDbEntity
  8
BEZUGSACHSEN
100
AcDbLine
 62
7
  6
CONTINUOUS
 10
424.6229287979
 20
173.4331177547
 11
424.3815603694
 21
173.3668044971
  0
LINE
  5
21B
100
AcDbEntity
  8
BEZUGSACHSEN
100
AcDbLine
 62
7
  6
CONTINUOUS
 10
424.3815603694
 20
173.3668044971
 11
424.2958808962
 21
173.3510737526
  0
LINE
  5
21C
100
AcDbEntity
  8
BEZUGSACHSEN
100
AcDbLine
 62
7
  6
CONTINUOUS
 10
424.2958809388
 20
173.3510734872
 11
423.8870541605
 21
173.286317746
  0
LINE
  5
21D
100
AcDbEntity
  8
BEZUGSACHSEN
100
AcDbLine
 62
7
  6
CONTINUOUS
 10
429.8718826345
 20
177.9886053256
 11
434.5279635466
 21
177.9886053256
  0
LINE
  5
21E
100
AcDbEntity
  8
KONSTRUKTIONSELEMENTE
100
AcDbLine
 62
7
  6
CONTINUOUS
 10
440.1080067983
 20
173.3504294269
 11
440.5127920206
 21
173.286317746
  0
LINE
  5
21F
100
AcDbEntity
  8
RUNDUNGEN
100
AcDbLine
 62
7
  6
CONTINUOUS
 10
440.3788174244
 20
173.3075372374
 11
440.1038502745
 21
173.3510919421
  0
LINE
  5
220
100
AcDbEntity
  8
RUNDUNGEN
100
AcDbLine
 62
7
  6
CONTINUOUS
 10
440.1038503171
 20
173.3510922075
 11
440.0324272194
 21
173.3639342059
  0
LINE
  5
221
100
AcDbEntity
  8
BEZUGSACHSEN
100
AcDbLine
 62
7
  6
CONTINUOUS
 10
429.9725614773
 20
197.3213272515
 11
434.4272847038
 21
197.3213272515
  0
LINE
  5
222
100
AcDbEntity
  8
KONSTRUKTIONSELEMENTE
100
AcDbLine
 62
7
  6
CONTINUOUS
 10
437.6427879406
 20
198.4365547973
 11
438.1694222422
 21
198.4365547973
  0
LINE
  5
223
100
AcDbEntity
  8
KONSTRUKTIONSELEMENTE
100
AcDbLine
 62
7
  6
CONTINUOUS
 10
437.6543561307
 20
200.5726863326
 11
438.1809904324
 21
200.5726863326
  0
LINE
  5
224
100
AcDbEntity
  8
KONSTRUKTIONSELEMENTE
100
AcDbLine
 62
7
  6
CONTINUOUS
 10
435.9928210883
 20
201.2483758416
 11
436.51945539
 21
201.2483758416
  0
LINE
  5
225
100
AcDbEntity
  8
KONSTRUKTIONSELEMENTE
100
AcDbLine
 62
7
  6
CONTINUOUS
 10
436.7104108952
 20
201.7745429326
 11
437.2370451969
 21
201.7745429326
  0
LINE
  5
226
100
AcDbEntity
  8
KONSTRUKTIONSELEMENTE
100
AcDbLine
 62
7
  6
CONTINUOUS
 10
436.710491323
 20
202.0410913181
 11
437.1997594552
 21
202.0410913181
  0
LINE
  5
227
100
AcDbEntity
  8
KONSTRUKTIONSELEMENTE
100
AcDbLine
 62
7
  6
CONTINUOUS
 10
437.5501292834
 20
202.2130145485
 11
438.076763585
 21
202.2130145485
  0
LINE
  5
228
100
AcDbEntity
  8
KONSTRUKTIONSELEMENTE
100
AcDbLine
 62
7
  6
CONTINUOUS
 10
437.4041574176
 20
202.2708316336
 11
437.9307917192
 21
202.2708316336
  0
LINE
  5
229
100
AcDbEntity
  8
KONSTRUKTIONSELEMENTE
100
AcDbLine
 62
7
  6
CONTINUOUS
 10
436.7108628277
 20
202.2985582709
 11
437.127567324
 21
202.2985582709
  0
LINE
  5
22A
100
AcDbEntity
  8
KONSTRUKTIONSELEMENTE
100
AcDbLine
 62
7
  6
CONTINUOUS
 10
437.2604074146
 20
202.4481073837
 11
437.7870417162
 21
202.4481073837
  0
LINE
  5
22B
100
AcDbEntity
  8
KONSTRUKTIONSELEMENTE
100
AcDbLine
 62
7
  6
CONTINUOUS
 10
436.7099882573
 20
202.5469435938
 11
437.0210353663
 21
202.5469435938
  0
LINE
  5
22C
100
AcDbEntity
  8
KONSTRUKTIONSELEMENTE
100
AcDbLine
 62
7
  6
CONTINUOUS
 10
436.7218027075
 20
202.726421679
 11
436.9155700166
 21
202.726421679
  0
LINE
  5
22D
100
AcDbEntity
  8
KONSTRUKTIONSELEMENTE
100
AcDbLine
 62
7
  6
CONTINUOUS
 10
437.1087551352
 20
202.7592961567
 11
437.6097334428
 21
202.7592961567
  0
LINE
  5
22E
100
AcDbEntity
  8
KONSTRUKTIONSELEMENTE
100
AcDbLine
 62
7
  6
CONTINUOUS
 10
437.8357857428
 20
202.8083967912
 11
437.9405394692
 21
202.8083967912
  0
LINE
  5
22F
100
AcDbEntity
  8
KONSTRUKTIONSELEMENTE
100
AcDbLine
 62
7
  6
CONTINUOUS
 10
436.0073671556
 20
202.9021551456
 11
436.5340014573
 21
202.9021551456
  0
LINE
  5
230
100
AcDbEntity
  8
KONSTRUKTIONSELEMENTE
100
AcDbLine
 62
7
  6
CONTINUOUS
 10
437.7050887097
 20
202.9731307415
 11
437.9773729859
 21
202.9731307415
  0
LINE
  5
231
100
AcDbEntity
  8
KONSTRUKTIONSELEMENTE
100
AcDbLine
 62
7
  6
CONTINUOUS
 10
436.0392835391
 20
203.1868665938
 11
436.5659178407
 21
203.1868665938
  0
LINE
  5
232
100
AcDbEntity
  8
KONSTRUKTIONSELEMENTE
100
AcDbLine
 62
7
  6
CONTINUOUS
 10
437.5739095007
 20
203.2120487032
 11
437.9773729865
 21
203.2120487032
  0
LINE
  5
233
100
AcDbEntity
  8
KONSTRUKTIONSELEMENTE
100
AcDbLine
 62
7
  6
CONTINUOUS
 10
436.1405541039
 20
203.2830184945
 11
436.6671884056
 21
203.2830184945
  0
LINE
  5
234
100
AcDbEntity
  8
KONSTRUKTIONSELEMENTE
100
AcDbLine
 62
7
  6
CONTINUOUS
 10
437.4255486842
 20
203.5251503348
 11
437.9405394674
 21
203.5251503348
  0
LINE
  5
235
100
AcDbEntity
  8
KONSTRUKTIONSELEMENTE
100
AcDbLine
 62
7
  6
CONTINUOUS
 10
437.3412570211
 20
203.8527061122
 11
437.8678913228
 21
203.8527061122
  0
LINE
  5
236
100
AcDbEntity
  8
KONSTRUKTIONSELEMENTE
100
AcDbLine
 62
7
  6
CONTINUOUS
 10
437.8926216421
 20
204.1733090708
 11
438.1673451614
 21
204.1733090708
  0
LINE
  5
237
100
AcDbEntity
  8
KONSTRUKTIONSELEMENTE
100
AcDbLine
 62
7
  6
CONTINUOUS
 10
437.2337512349
 20
204.1947159315
 11
437.7603855366
 21
204.1947159315
  0
LINE
  5
238
100
AcDbEntity
  8
KONSTRUKTIONSELEMENTE
100
AcDbLine
 62
7
  6
CONTINUOUS
 10
437.0919943546
 20
204.5511801865
 11
437.6186286563
 21
204.5511801865
  0
LINE
  5
239
100
AcDbEntity
  8
KONSTRUKTIONSELEMENTE
100
AcDbLine
 62
7
  6
CONTINUOUS
 10
435.9944217048
 20
205.0589902314
 11
436.5210560065
 21
205.0589902314
  0
LINE
  5
23A
100
AcDbEntity
  8
RUNDUNGEN
100
AcDbLine
 62
7
  6
CONTINUOUS
 10
440.0324272194
 20
173.3639342059
 11
439.7909250779
 21
173.4283447343
  0
LWPOLYLINE
  5
23B
100
AcDbEntity
  8
RUNDUNGEN
100
AcDbPolyline
 62
7
  6
CONTINUOUS
 90
8
 70
0
 10
439.7909250779
 20
173.4283447343
 10
439.5541010534
 20
173.5256889237
 10
439.3288288308
 20
173.6550874645
 10
439.1211624333
 20
173.814241741
 10
438.9355562181
 20
174.0004561444
 10
438.7762224619
 20
174.2098950662
 10
438.6462358465
 20
174.4385391182
 10
438.5480153165
 20
174.6818539834
  0
LINE
  5
23C
100
AcDbEntity
  8
KONSTRUKTIONSELEMENTE
100
AcDbLine
 62
7
  6
CONTINUOUS
 10
369.9745263461
 20
187.8468314337
 11
373.5100602521
 21
184.3112975278
  0
LINE
  5
23D
100
AcDbEntity
  8
KONSTRUKTIONSELEMENTE
100
AcDbLine
 62
7
  6
CONTINUOUS
 10
370.3280797367
 20
188.2003848243
 11
373.8636136427
 21
184.6648509184
  0
LINE
  5
23E
100
AcDbEntity
  8
0
100
AcDbLine
 62
7
  6
CONTINUOUS
 10
376.6999230906
 20
238.4049662886
 11
376.6999230906
 21
298.4049662886
  0
LINE
  5
23F
100
AcDbEntity
  8
KONSTRUKTIONSELEMENTE
100
AcDbLine
 62
7
  6
CONTINUOUS
 10
309.8704499453
 20
127.7427550329
 11
312.69887707
 21
130.5711821576
  0
LINE
  5
240
100
AcDbEntity
  8
KONSTRUKTIONSELEMENTE
100
AcDbLine
 62
7
  6
CONTINUOUS
 10
313.0524304606
 20
130.9247355482
 11
315.8808575854
 21
133.7531626729
  0
LINE
  5
241
100
AcDbEntity
  8
KONSTRUKTIONSELEMENTE
100
AcDbLine
 62
7
  6
CONTINUOUS
 10
367.1460992214
 20
185.018404309
 11
369.9745263461
 21
187.8468314337
  0
LINE
  5
242
100
AcDbEntity
  8
KONSTRUKTIONSELEMENTE
100
AcDbLine
 62
7
  6
CONTINUOUS
 10
370.3280797367
 20
188.2003848243
 11
373.1565068615
 21
191.0288119491
  0
LINE
  5
243
100
AcDbEntity
  8
KONSTRUKTIONSELEMENTE
100
AcDbLine
 62
7
  6
CONTINUOUS
 10
336.3869542398
 20
153.9057059368
 11
346.9935559576
 21
164.5123076546
  0
LINE
  5
244
100
AcDbEntity
  8
KONSTRUKTIONSELEMENTE
100
AcDbLine
 62
7
  6
CONTINUOUS
 10
436.0022126659
 20
205.4173671741
 11
436.5288469676
 21
205.4173671741
  0
LINE
  5
245
100
AcDbEntity
  8
KONSTRUKTIONSELEMENTE
100
AcDbLine
 62
7
  6
CONTINUOUS
 10
437.6131020836
 20
205.8559326836
 11
437.9767505817
 21
205.8559326836
  0
LINE
  5
246
100
AcDbEntity
  8
KONSTRUKTIONSELEMENTE
100
AcDbLine
 62
7
  6
CONTINUOUS
 10
437.4992188805
 20
206.1363697574
 11
437.9390945439
 21
206.1363697574
  0
LINE
  5
247
100
AcDbEntity
  8
KONSTRUKTIONSELEMENTE
100
AcDbLine
 62
7
  6
CONTINUOUS
 10
437.3698820886
 20
206.4548612512
 11
437.8658474062
 21
206.4548612512
  0
LINE
  5
248
100
AcDbEntity
  8
KONSTRUKTIONSELEMENTE
100
AcDbLine
 62
7
  6
CONTINUOUS
 10
437.2313335597
 20
206.811407044
 11
437.7579678614
 21
206.811407044
  0
LINE
  5
249
100
AcDbEntity
  8
KONSTRUKTIONSELEMENTE
100
AcDbLine
 62
7
  6
CONTINUOUS
 10
436.0022126629
 20
206.8508742612
 11
436.5288469646
 21
206.8508742612
  0
LINE
  5
24A
100
AcDbEntity
  8
KONSTRUKTIONSELEMENTE
100
AcDbLine
 62
7
  6
CONTINUOUS
 10
437.089423573
 20
207.2060066415
 11
437.6160578747
 21
207.2060066415
  0
LINE
  5
24B
100
AcDbEntity
  8
KONSTRUKTIONSELEMENTE
100
AcDbLine
 62
7
  6
CONTINUOUS
 10
435.9944217048
 20
207.209251033
 11
436.5210560065
 21
207.209251033
  0
LINE
  5
24C
100
AcDbEntity
  8
KONSTRUKTIONSELEMENTE
100
AcDbLine
 62
7
  6
CONTINUOUS
 10
435.9911342704
 20
208.2402567513
 11
436.5177685721
 21
208.2402567513
  0
LINE
  5
24D
100
AcDbEntity
  8
KONSTRUKTIONSELEMENTE
100
AcDbLine
 62
7
  6
CONTINUOUS
 10
436.7453522063
 20
208.5039686337
 11
437.0889386628
 21
208.5039686337
  0
LINE
  5
24E
100
AcDbEntity
  8
KONSTRUKTIONSELEMENTE
100
AcDbLine
 62
7
  6
CONTINUOUS
 10
436.7454712184
 20
208.8016153674
 11
436.949588242
 21
208.8016153674
  0
LINE
  5
24F
100
AcDbEntity
  8
KONSTRUKTIONSELEMENTE
100
AcDbLine
 62
7
  6
CONTINUOUS
 10
436.7785114222
 20
208.9642545654
 11
436.8462919887
 21
208.9642545654
  0
LINE
  5
250
100
AcDbEntity
  8
KONSTRUKTIONSELEMENTE
100
AcDbLine
 62
7
  6
CONTINUOUS
 10
436.0077571135
 20
209.4036955551
 11
436.5343914151
 21
209.4036955551
  0
LINE
  5
251
100
AcDbEntity
  8
KONSTRUKTIONSELEMENTE
100
AcDbLine
 62
7
  6
CONTINUOUS
 10
436.0401098106
 20
209.5595480328
 11
436.5667441123
 21
209.5595480328
  0
LINE
  5
252
100
AcDbEntity
  8
KONSTRUKTIONSELEMENTE
100
AcDbLine
 62
7
  6
CONTINUOUS
 10
436.1065894686
 20
209.5803927324
 11
436.6332237702
 21
209.5803927324
  0
LINE
  5
253
100
AcDbEntity
  8
BEZUGSACHSEN
100
AcDbLine
 62
7
  6
CONTINUOUS
 10
429.9725614773
 20
212.961827837
 11
434.4272847038
 21
212.961827837
  0
LINE
  5
254
100
AcDbEntity
  8
BEZUGSACHSEN
100
AcDbLine
 62
7
  6
CONTINUOUS
 10
420.3131306377
 20
141.5087398735
 11
418.9546400717
 21
143.6920282832
  0
LINE
  5
255
100
AcDbEntity
  8
KONSTRUKTIONSELEMENTE
100
AcDbLine
 62
7
  6
CONTINUOUS
 10
339.5689347551
 20
150.7237254214
 11
350.1755364729
 21
161.3303271392
  0
LINE
  5
256
100
AcDbEntity
  8
KONSTRUKTIONSELEMENTE
100
AcDbLine
 62
7
  6
CONTINUOUS
 10
313.4059838512
 20
124.2072211269
 11
316.234410976
 21
127.0356482517
  0
LINE
  5
257
100
AcDbEntity
  8
KONSTRUKTIONSELEMENTE
100
AcDbLine
 62
7
  6
CONTINUOUS
 10
316.5879643666
 20
127.3892016423
 11
319.4163914913
 21
130.217628767
  0
LINE
  5
258
100
AcDbEntity
  8
KONSTRUKTIONSELEMENTE
100
AcDbLine
 62
7
  6
CONTINUOUS
 10
370.6816331273
 20
181.482870403
 11
373.5100602521
 21
184.3112975278
  0
LINE
  5
259
100
AcDbEntity
  8
KONSTRUKTIONSELEMENTE
100
AcDbLine
 62
7
  6
CONTINUOUS
 10
373.8636136427
 20
184.6648509184
 11
376.6920407674
 21
187.4932780431
  0
LINE
  5
25A
100
AcDbEntity
  8
KONSTRUKTIONSELEMENTE
100
AcDbLine
 62
7
  6
CONTINUOUS
 10
405.6834187961
 20
216.1311026812
 11
376.6920407674
 21
187.1397246525
  0
LINE
  5
25B
100
AcDbEntity
  8
BEZUGSACHSEN
100
AcDbLine
 62
7
  6
CONTINUOUS
 10
316.587718939
 20
126.328296043
 11
315.5279579805
 21
125.2685350844
  0
LINE
  5
25C
100
AcDbEntity
  8
KONSTRUKTIONSELEMENTE
100
AcDbLine
 62
7
  6
CONTINUOUS
 10
246.5843930291
 20
56.324970133
 11
315.5279579805
 21
125.2685350844
  0
LINE
  5
25D
100
AcDbEntity
  8
KONSTRUKTIONSELEMENTE
100
AcDbLine
 62
7
  6
CONTINUOUS
 10
370.6816331273
 20
180.0686568407
 11
351.9729481521
 21
161.3599718655
  0
LINE
  5
25E
100
AcDbEntity
  8
KONSTRUKTIONSELEMENTE
100
AcDbLine
 62
7
  6
CONTINUOUS
 10
339.5689347551
 20
148.9559584685
 11
320.8602497799
 21
130.2472734933
  0
LINE
  5
25F
100
AcDbEntity
  8
KONSTRUKTIONSELEMENTE
100
AcDbLine
 62
7
  6
CONTINUOUS
 10
373.8636136427
 20
176.8866763253
 11
355.1549286675
 21
158.1779913501
  0
LINE
  5
260
100
AcDbEntity
  8
KONSTRUKTIONSELEMENTE
100
AcDbLine
 62
7
  6
CONTINUOUS
 10
342.7509152705
 20
145.7739779531
 11
324.0422302953
 21
127.0652929779
  0
LINE
  5
261
100
AcDbEntity
  8
BEZUGSACHSEN
100
AcDbLine
 62
7
  6
CONTINUOUS
 10
320.123252845
 20
122.792762137
 11
319.0634918864
 21
121.7330011785
  0
LINE
  5
262
100
AcDbEntity
  8
KONSTRUKTIONSELEMENTE
100
AcDbLine
 62
7
  6
CONTINUOUS
 10
250.119926935
 20
52.7894362271
 11
319.0634918864
 21
121.7330011785
  0
LINE
  5
263
100
AcDbEntity
  8
KONSTRUKTIONSELEMENTE
100
AcDbLine
 62
7
  6
CONTINUOUS
 10
409.9260594832
 20
211.8884619941
 11
380.9841915817
 21
182.9465940926
  0
LINE
  5
264
100
AcDbEntity
  8
KONSTRUKTIONSELEMENTE
100
AcDbLine
 62
7
  6
CONTINUOUS
 10
381.2882348451
 20
182.8970839654
 11
375.277827205
 21
176.8866763253
  0
LINE
  5
265
100
AcDbEntity
  8
KONSTRUKTIONSELEMENTE
100
AcDbLine
 62
7
  6
CONTINUOUS
 10
324.012585569
 20
125.6214346893
 11
318.0021779289
 21
119.6110270492
  0
LINE
  5
266
100
AcDbEntity
  8
KONSTRUKTIONSELEMENTE
100
AcDbLine
 62
7
  6
CONTINUOUS
 10
355.1252839412
 20
156.3805796709
 11
344.5186822234
 21
145.7739779531
  0
LINE
  5
267
100
AcDbEntity
  8
BEZUGSACHSEN
100
AcDbLine
 62
7
  6
CONTINUOUS
 10
434.4272847038
 20
218.9359674596
 11
429.9725614773
 21
218.9359674596
  0
LINE
  5
268
100
AcDbEntity
  8
0
100
AcDbLine
 62
7
  6
CONTINUOUS
 10
394.6999230906
 20
238.4049662886
 11
394.6999230906
 21
298.4049662886
  0
LINE
  5
269
100
AcDbEntity
  8
KONSTRUKTIONSELEMENTE
100
AcDbLine
 62
7
  6
CONTINUOUS
 10
358.3072644566
 20
153.1985991556
 11
347.7006627388
 21
142.5919974378
  0
LINE
  5
26A
100
AcDbEntity
  8
KONSTRUKTIONSELEMENTE
100
AcDbLine
 62
7
  6
CONTINUOUS
 10
384.8237687511
 20
179.3615500595
 11
378.813361111
 21
173.3511424194
  0
LINE
  5
26B
100
AcDbEntity
  8
KONSTRUKTIONSELEMENTE
100
AcDbLine
 62
7
  6
CONTINUOUS
 10
327.5481194749
 20
122.0859007834
 11
321.5377118349
 21
116.0754931433
  0
LINE
  5
26C
100
AcDbEntity
  8
BEZUGSACHSEN
100
AcDbLine
 62
7
  6
CONTINUOUS
 10
418.1999230906
 20
146.3335377171
 11
418.1999230906
 21
155.5652203264
  0
LINE
  5
26D
100
AcDbEntity
  8
RUNDUNGEN
100
AcDbLine
 62
7
  6
CONTINUOUS
 10
445.5300501095
 20
158.0652203264
 11
437.0037713577
 21
172.833168324
  0
LINE
  5
26E
100
AcDbEntity
  8
BEZUGSACHSEN
100
AcDbLine
 62
7
  6
CONTINUOUS
 10
429.6180115386
 20
182.4092386125
 11
429.8718826345
 21
177.9886053256
  0
LINE
  5
26F
100
AcDbEntity
  8
BEZUGSACHSEN
100
AcDbLine
 62
7
  6
CONTINUOUS
 10
422.1999230906
 20
165.172915481
 11
422.1999230906
 21
171.3109410648
  0
LINE
  5
270
100
AcDbEntity
  8
BEZUGSACHSEN
100
AcDbLine
 62
7
  6
CONTINUOUS
 10
425.9499230906
 20
205.9672919175
 11
425.9499230906
 21
174.8108793179
  0
LINE
  5
271
100
AcDbEntity
  8
BEZUGSACHSEN
100
AcDbLine
 62
7
  6
CONTINUOUS
 10
429.8718826345
 20
177.9886053256
 11
429.5506665391
 21
164.4785116485
  0
LWPOLYLINE
  5
272
100
AcDbEntity
  8
BEZUGSACHSEN
100
AcDbPolyline
 62
7
  6
CONTINUOUS
 90
9
 70
0
 10
425.9191811894
 20
174.9488166859
 10
425.8563363144
 20
174.6957577464
 10
425.759984356
 20
174.4518530033
 10
425.6317770185
 20
174.2223433543
 10
425.4740834391
 20
174.0117746762
 10
425.2899450159
 20
173.8242015505
 10
425.0835075752
 20
173.6634734751
 10
424.85917626
 20
173.5323281046
 10
424.6229287979
 20
173.4331177547
  0
LINE
  5
273
100
AcDbEntity
  8
BEZUGSACHSEN
100
AcDbLine
 62
7
  6
CONTINUOUS
 10
426.2027959246
 20
207.5372548693
 11
429.9725614773
 21
218.9359674596
  0
LINE
  5
274
100
AcDbEntity
  8
RUNDUNGEN
100
AcDbLine
 62
7
  6
CONTINUOUS
 10
438.5480153165
 20
174.6818539834
 11
438.483257039
 21
174.934636497
  0
LINE
  5
275
100
AcDbEntity
  8
RUNDUNGEN
100
AcDbLine
 62
7
  6
CONTINUOUS
 10
434.5279635466
 20
177.9886053256
 11
434.849179642
 21
164.4785116485
  0
LINE
  5
276
100
AcDbEntity
  8
BEZUGSACHSEN
100
AcDbLine
 62
7
  6
CONTINUOUS
 10
438.4499230906
 20
205.9672919175
 11
438.4499230906
 21
184.4750643142
  0
LINE
  5
277
100
AcDbEntity
  8
KONSTRUKTIONSELEMENTE
100
AcDbLine
 62
7
  6
CONTINUOUS
 10
438.4499230906
 20
184.4750643142
 11
438.4499230906
 21
174.8108749241
  0
LINE
  5
278
100
AcDbEntity
  8
RUNDUNGEN
100
AcDbLine
 62
7
  6
CONTINUOUS
 10
438.4499230906
 20
184.4750642994
 11
438.4499230906
 21
174.8108793179
  0
LINE
  5
279
100
AcDbEntity
  8
KONSTRUKTIONSELEMENTE
100
AcDbLine
 62
7
  6
CONTINUOUS
 10
442.1999230906
 20
165.172915481
 11
442.1999230906
 21
171.3109410648
  0
LINE
  5
27A
100
AcDbEntity
  8
0
100
AcDbLine
 62
7
  6
CONTINUOUS
 10
434.7818346426
 20
182.4092386125
 11
434.5279635466
 21
177.9886053256
  0
LINE
  5
27B
100
AcDbEntity
  8
BEZUGSACHSEN
100
AcDbLine
 62
7
  6
CONTINUOUS
 10
418.8697960716
 20
158.0652203264
 11
427.3960748234
 21
172.833168324
  0
LINE
  5
27C
100
AcDbEntity
  8
KONSTRUKTIONSELEMENTE
100
AcDbLine
 62
7
  6
CONTINUOUS
 10
434.4272847038
 20
218.9359674596
 11
438.1970502565
 21
207.5372548693
  0
LINE
  5
27D
100
AcDbEntity
  8
RUNDUNGEN
100
AcDbLine
 62
7
  6
CONTINUOUS
 10
446.1999230906
 20
146.3335377171
 11
446.1999230906
 21
155.5652203264
  0
LINE
  5
27E
100
AcDbEntity
  8
0
100
AcDbLine
 62
7
  6
CONTINUOUS
 10
469.6999230906
 20
298.4049662886
 11
469.6999230906
 21
238.4049662886
  0
LINE
  5
27F
100
AcDbEntity
  8
RUNDUNGEN
100
AcDbLine
 62
7
  6
CONTINUOUS
 10
444.0867155434
 20
141.5087398735
 11
445.4452061094
 21
143.6920282832
  0
LINE
  5
280
100
AcDbEntity
  8
0
100
AcDbLine
 62
7
  6
CONTINUOUS
 10
487.6999230906
 20
298.4049662886
 11
487.6999230906
 21
238.4049662886
  0
LINE
  5
281
100
AcDbEntity
  8
KONSTRUKTIONSELEMENTE
100
AcDbLine
 62
7
  6
CONTINUOUS
 10
123.5447852494
 20
52.7894362271
 11
132.6447852494
 21
52.7894362271
  0
LINE
  5
282
100
AcDbEntity
  8
KONSTRUKTIONSELEMENTE
100
AcDbLine
 62
7
  6
CONTINUOUS
 10
123.0447852494
 20
53.1429896177
 11
123.5447852494
 21
53.1429896177
  0
LINE
  5
283
100
AcDbEntity
  8
KONSTRUKTIONSELEMENTE
100
AcDbLine
 62
7
  6
CONTINUOUS
 10
132.6447852494
 20
53.1429896177
 11
133.1447852494
 21
53.1429896177
  0
LINE
  5
284
100
AcDbEntity
  8
KONSTRUKTIONSELEMENTE
100
AcDbLine
 62
7
  6
CONTINUOUS
 10
119.5447852494
 20
66.9315718508
 11
118.4941670361
 21
66.9315718508
  0
LINE
  5
285
100
AcDbEntity
  8
KONSTRUKTIONSELEMENTE
100
AcDbLine
 62
7
  6
CONTINUOUS
 10
136.6447852494
 20
66.9315718508
 11
150.4555254482
 21
66.9315718508
  0
LINE
  5
286
100
AcDbEntity
  8
KONSTRUKTIONSELEMENTE
100
AcDbLine
 62
7
  6
CONTINUOUS
 10
155.0054656194
 20
69.8374067051
 11
149.1144650036
 21
71.7798422568
  0
LINE
  5
287
100
AcDbEntity
  8
KONSTRUKTIONSELEMENTE
100
AcDbLine
 62
7
  6
CONTINUOUS
 10
155.0054656194
 20
73.372940611
 11
149.1144650036
 21
75.3153761627
  0
LINE
  5
288
100
AcDbEntity
  8
KONSTRUKTIONSELEMENTE
100
AcDbLine
 62
7
  6
CONTINUOUS
 10
90.0531130816
 20
105.9576989353
 11
90.2644222125
 21
105.9908241349
  0
LINE
  5
289
100
AcDbEntity
  8
KONSTRUKTIONSELEMENTE
100
AcDbLine
 62
7
  6
CONTINUOUS
 10
89.2078765581
 20
107.2394116994
 11
90.0531130816
 21
105.9576989353
  0
LINE
  5
28A
100
AcDbEntity
  8
KONSTRUKTIONSELEMENTE
100
AcDbLine
 62
7
  6
CONTINUOUS
 10
95.737328702
 20
97.3381805967
 11
114.443041143
 21
68.9729245631
  0
LINE
  5
28B
100
AcDbEntity
  8
KONSTRUKTIONSELEMENTE
100
AcDbLine
 62
7
  6
CONTINUOUS
 10
95.737328702
 20
97.6917339872
 11
95.5260195712
 21
98.0121621783
  0
LINE
  5
28C
100
AcDbEntity
  8
KONSTRUKTIONSELEMENTE
100
AcDbLine
 62
7
  6
CONTINUOUS
 10
98.2000840941
 20
106.9889271646
 11
102.3538636057
 21
100.6901550796
  0
LINE
  5
28D
100
AcDbEntity
  8
KONSTRUKTIONSELEMENTE
100
AcDbLine
 62
7
  6
CONTINUOUS
 10
170.8793054833
 20
104.7839459327
 11
176.770306099
 21
102.8415103809
  0
LINE
  5
28E
100
AcDbEntity
  8
KONSTRUKTIONSELEMENTE
100
AcDbLine
 62
7
  6
CONTINUOUS
 10
134.8566774373
 20
121.7330011785
 11
175.4389397587
 21
108.3518399386
  0
LINE
  5
28F
100
AcDbEntity
  8
KONSTRUKTIONSELEMENTE
100
AcDbLine
 62
7
  6
CONTINUOUS
 10
175.4389397587
 20
111.8873738445
 11
134.8566774373
 21
125.2685350844
  0
LINE
  5
290
100
AcDbEntity
  8
KONSTRUKTIONSELEMENTE
100
AcDbLine
 62
7
  6
CONTINUOUS
 10
145.8689226993
 20
134.9049662886
 11
142.3482905391
 21
134.9049662886
  0
LINE
  5
291
100
AcDbEntity
  8
KONSTRUKTIONSELEMENTE
100
AcDbLine
 62
7
  6
CONTINUOUS
 10
113.8412799598
 20
134.9049662886
 11
110.3206477996
 21
134.9049662886
  0
LINE
  5
292
100
AcDbEntity
  8
BEZUGSACHSEN
100
AcDbLine
 62
7
  6
CONTINUOUS
 10
108.7885589133
 20
135.6193910692
 11
104.0389383595
 21
141.2797684277
  0
LINE
  5
293
100
AcDbEntity
  8
RUNDUNGEN
100
AcDbLine
 62
7
  6
CONTINUOUS
 10
104.0389383595
 20
141.2797684277
 11
103.5626963632
 21
141.8473315377
  0
LINE
  5
294
100
AcDbEntity
  8
0
100
AcDbLine
 62
7
  6
CONTINUOUS
 10
122.4947852494
 20
142.8549662886
 11
133.6947852494
 21
142.8549662886
  0
LINE
  5
295
100
AcDbEntity
  8
KONSTRUKTIONSELEMENTE
100
AcDbLine
 62
7
  6
CONTINUOUS
 10
88.7394154933
 20
108.7335928931
 11
88.7394154933
 21
112.269126799
  0
LINE
  5
296
100
AcDbEntity
  8
0
100
AcDbLine
 62
7
  6
CONTINUOUS
 10
122.4947852494
 20
154.9549662886
 11
133.6947852494
 21
154.9549662886
  0
LINE
  5
297
100
AcDbEntity
  8
KONSTRUKTIONSELEMENTE
100
AcDbLine
 62
7
  6
CONTINUOUS
 10
95.3854812517
 20
98.4604165364
 11
95.3854812517
 21
101.2888436611
  0
LINE
  5
298
100
AcDbEntity
  8
KONSTRUKTIONSELEMENTE
100
AcDbLine
 62
7
  6
CONTINUOUS
 10
95.737328702
 20
97.3381805967
 11
95.737328702
 21
97.6917339872
  0
LINE
  5
299
100
AcDbEntity
  8
0
100
AcDbLine
 62
7
  6
CONTINUOUS
 10
98.3447852494
 20
197.3213272515
 11
98.3447852494
 21
177.9886053256
  0
LINE
  5
29A
100
AcDbEntity
  8
RUNDUNGEN
100
AcDbLine
 62
7
  6
CONTINUOUS
 10
103.0947852494
 20
143.1329067571
 11
103.0947852494
 21
170.6512764209
  0
LINE
  5
29B
100
AcDbEntity
  8
RUNDUNGEN
100
AcDbLine
 62
7
  6
CONTINUOUS
 10
103.0056724283
 20
159.2948078954
 11
98.3447852494
 21
177.9886053256
  0
LINE
  5
29C
100
AcDbEntity
  8
KONSTRUKTIONSELEMENTE
100
AcDbLine
 62
7
  6
CONTINUOUS
 10
113.8412799598
 20
155.5652203264
 11
113.8412799598
 21
148.9049662886
  0
LINE
  5
29D
100
AcDbEntity
  8
BEZUGSACHSEN
100
AcDbLine
 62
7
  6
CONTINUOUS
 10
113.8412799598
 20
134.9049662886
 11
113.8412799598
 21
141.5087398735
  0
LINE
  5
29E
100
AcDbEntity
  8
KONSTRUKTIONSELEMENTE
100
AcDbLine
 62
7
  6
CONTINUOUS
 10
108.7620539513
 20
201.8108690579
 11
108.7735746954
 21
202.2061508212
  0
LINE
  5
29F
100
AcDbEntity
  8
KONSTRUKTIONSELEMENTE
100
AcDbLine
 62
7
  6
CONTINUOUS
 10
112.4994948068
 20
203.5251503348
 11
112.5213256624
 21
203.8527061122
  0
LINE
  5
2A0
100
AcDbEntity
  8
KONSTRUKTIONSELEMENTE
100
AcDbLine
 62
7
  6
CONTINUOUS
 10
108.2227312306
 20
201.7745429326
 11
108.275355309
 21
202.0410913181
  0
LINE
  5
2A1
100
AcDbEntity
  8
KONSTRUKTIONSELEMENTE
100
AcDbLine
 62
7
  6
CONTINUOUS
 10
113.0151073875
 20
203.1397775048
 11
113.0950489355
 21
203.5270628256
  0
LINE
  5
2A2
100
AcDbEntity
  8
KONSTRUKTIONSELEMENTE
100
AcDbLine
 62
7
  6
CONTINUOUS
 10
105.2917994516
 20
201.2483758416
 11
106.4165278694
 21
202.9021551456
  0
LINE
  5
2A3
100
AcDbEntity
  8
KONSTRUKTIONSELEMENTE
100
AcDbLine
 62
7
  6
CONTINUOUS
 10
106.0128164249
 20
201.3626908049
 11
106.9032263776
 21
202.6719326882
  0
LINE
  5
2A4
100
AcDbEntity
  8
KONSTRUKTIONSELEMENTE
100
AcDbLine
 62
7
  6
CONTINUOUS
 10
107.3323212779
 20
200.4653010493
 11
108.2227312306
 21
201.7745429326
  0
LINE
  5
2A5
100
AcDbEntity
  8
0
100
AcDbLine
 62
7
  6
CONTINUOUS
 10
109.7082740841
 20
212.961827837
 11
98.3447852494
 21
197.3213272515
  0
LINE
  5
2A6
100
AcDbEntity
  8
KONSTRUKTIONSELEMENTE
100
AcDbLine
 62
7
  6
CONTINUOUS
 10
108.1931487743
 20
202.2985582709
 11
107.9761114924
 21
202.5469435938
  0
LINE
  5
2A7
100
AcDbEntity
  8
KONSTRUKTIONSELEMENTE
100
AcDbLine
 62
7
  6
CONTINUOUS
 10
108.7735746954
 20
202.2061508212
 11
108.5622978525
 21
202.6521771244
  0
LINE
  5
2A8
100
AcDbEntity
  8
KONSTRUKTIONSELEMENTE
100
AcDbLine
 62
7
  6
CONTINUOUS
 10
112.5213256624
 20
203.8527061122
 11
112.4087955444
 21
204.1947159315
  0
LINE
  5
2A9
100
AcDbEntity
  8
KONSTRUKTIONSELEMENTE
100
AcDbLine
 62
7
  6
CONTINUOUS
 10
108.275355309
 20
202.0410913181
 11
108.1931487743
 21
202.2985582709
  0
LINE
  5
2AA
100
AcDbEntity
  8
KONSTRUKTIONSELEMENTE
100
AcDbLine
 62
7
  6
CONTINUOUS
 10
113.0950489355
 20
203.5270628256
 11
113.0224897411
 21
204.0627154925
  0
LINE
  5
2AB
100
AcDbEntity
  8
0
100
AcDbLine
 62
7
  6
CONTINUOUS
 10
119.0947852494
 20
344.845283872
 11
119.0947852494
 21
191.9646487051
  0
LINE
  5
2AC
100
AcDbEntity
  8
KONSTRUKTIONSELEMENTE
100
AcDbLine
 62
7
  6
CONTINUOUS
 10
120.0947852494
 20
136.9304488738
 11
120.0947852494
 21
132.6925025012
  0
LINE
  5
2AD
100
AcDbEntity
  8
KONSTRUKTIONSELEMENTE
100
AcDbLine
 62
7
  6
CONTINUOUS
 10
121.5447852494
 20
64.5375195361
 11
121.5447852494
 21
54.2036497895
  0
LINE
  5
2AE
100
AcDbEntity
  8
BEZUGSACHSEN
100
AcDbLine
 62
7
  6
CONTINUOUS
 10
122.4947852494
 20
148.9049662886
 11
122.4947852494
 21
137.4086494003
  0
LINE
  5
2AF
100
AcDbEntity
  8
KONSTRUKTIONSELEMENTE
100
AcDbLine
 62
7
  6
CONTINUOUS
 10
122.4947852494
 20
148.9049662886
 11
122.4947852494
 21
162.3049662886
  0
LINE
  5
2B0
100
AcDbEntity
  8
KONSTRUKTIONSELEMENTE
100
AcDbLine
 62
7
  6
CONTINUOUS
 10
123.5447852494
 20
52.7894362271
 11
123.5447852494
 21
64.1031447261
  0
LINE
  5
2B1
100
AcDbEntity
  8
KONSTRUKTIONSELEMENTE
100
AcDbLine
 62
7
  6
CONTINUOUS
 10
116.2833351074
 20
206.0326298305
 11
116.306924531
 21
206.5726593088
  0
LINE
  5
2B2
100
AcDbEntity
  8
KONSTRUKTIONSELEMENTE
100
AcDbLine
 62
7
  6
CONTINUOUS
 10
115.6968823789
 20
206.1363697574
 11
115.7764596488
 21
206.4548612512
  0
LINE
  5
2B3
100
AcDbEntity
  8
KONSTRUKTIONSELEMENTE
100
AcDbLine
 62
7
  6
CONTINUOUS
 10
116.1359756076
 20
205.6656619426
 11
116.2833351074
 21
206.0326298305
  0
LINE
  5
2B4
100
AcDbEntity
  8
KONSTRUKTIONSELEMENTE
100
AcDbLine
 62
7
  6
CONTINUOUS
 10
112.3433028709
 20
203.2120487032
 11
112.4994948068
 21
203.5251503348
  0
LINE
  5
2B5
100
AcDbEntity
  8
KONSTRUKTIONSELEMENTE
100
AcDbLine
 62
7
  6
CONTINUOUS
 10
112.8008051316
 20
202.7669466326
 11
113.0151073875
 21
203.1397775048
  0
LINE
  5
2B6
100
AcDbEntity
  8
KONSTRUKTIONSELEMENTE
100
AcDbLine
 62
7
  6
CONTINUOUS
 10
107.8601231205
 20
200.1063452141
 11
108.6568057274
 21
201.2777721882
  0
LINE
  5
2B7
100
AcDbEntity
  8
KONSTRUKTIONSELEMENTE
100
AcDbLine
 62
7
  6
CONTINUOUS
 10
109.4262477117
 20
198.4365547973
 11
109.7074298161
 21
198.8499996233
  0
LINE
  5
2B8
100
AcDbEntity
  8
KONSTRUKTIONSELEMENTE
100
AcDbLine
 62
7
  6
CONTINUOUS
 10
110.8790218732
 20
200.5726863326
 11
111.2070677511
 21
201.055038761
  0
LINE
  5
2B9
100
AcDbEntity
  8
KONSTRUKTIONSELEMENTE
100
AcDbLine
 62
7
  6
CONTINUOUS
 10
115.4876378275
 20
205.8559326836
 11
115.6968823789
 21
206.1363697574
  0
LINE
  5
2BA
100
AcDbEntity
  8
KONSTRUKTIONSELEMENTE
100
AcDbLine
 62
7
  6
CONTINUOUS
 10
115.8589480831
 20
205.3367478746
 11
116.1359756076
 21
205.6656619426
  0
LINE
  5
2BB
100
AcDbEntity
  8
KONSTRUKTIONSELEMENTE
100
AcDbLine
 62
7
  6
CONTINUOUS
 10
108.0548263934
 20
205.0589902314
 11
108.4034898491
 21
205.4173671741
  0
LINE
  5
2BC
100
AcDbEntity
  8
KONSTRUKTIONSELEMENTE
100
AcDbLine
 62
7
  6
CONTINUOUS
 10
109.7981430071
 20
206.8508742612
 11
110.1468062966
 21
207.209251033
  0
LINE
  5
2BD
100
AcDbEntity
  8
KONSTRUKTIONSELEMENTE
100
AcDbLine
 62
7
  6
CONTINUOUS
 10
112.1108605671
 20
202.9731307415
 11
112.3433028709
 21
203.2120487032
  0
LINE
  5
2BE
100
AcDbEntity
  8
KONSTRUKTIONSELEMENTE
100
AcDbLine
 62
7
  6
CONTINUOUS
 10
112.5683628278
 20
202.5280286709
 11
112.8008051316
 21
202.7669466326
  0
LINE
  5
2BF
100
AcDbEntity
  8
KONSTRUKTIONSELEMENTE
100
AcDbLine
 62
7
  6
CONTINUOUS
 10
106.4165278694
 20
202.9021551456
 11
106.7388133082
 21
203.1868665938
  0
LINE
  5
2C0
100
AcDbEntity
  8
KONSTRUKTIONSELEMENTE
100
AcDbLine
 62
7
  6
CONTINUOUS
 10
111.3235720014
 20
208.2402567513
 11
112.9503510736
 21
209.4036955551
  0
LINE
  5
2C1
100
AcDbEntity
  8
KONSTRUKTIONSELEMENTE
100
AcDbLine
 62
7
  6
CONTINUOUS
 10
112.1015769817
 20
208.0119317039
 11
113.3216612858
 21
208.8845108067
  0
LINE
  5
2C2
100
AcDbEntity
  8
KONSTRUKTIONSELEMENTE
100
AcDbLine
 62
7
  6
CONTINUOUS
 10
114.2675535233
 20
204.9833535807
 11
115.4876378275
 21
205.8559326836
  0
LINE
  5
2C3
100
AcDbEntity
  8
KONSTRUKTIONSELEMENTE
100
AcDbLine
 62
7
  6
CONTINUOUS
 10
114.2321690109
 20
204.1733090708
 11
115.8589480831
 21
205.3367478746
  0
LINE
  5
2C4
100
AcDbEntity
  8
KONSTRUKTIONSELEMENTE
100
AcDbLine
 62
7
  6
CONTINUOUS
 10
106.9032263776
 20
202.6719326882
 11
107.1317844036
 21
202.8188291287
  0
LINE
  5
2C5
100
AcDbEntity
  8
KONSTRUKTIONSELEMENTE
100
AcDbLine
 62
7
  6
CONTINUOUS
 10
112.2015598228
 20
202.3035651512
 11
112.5683628278
 21
202.5280286709
  0
LINE
  5
2C6
100
AcDbEntity
  8
KONSTRUKTIONSELEMENTE
100
AcDbLine
 62
7
  6
CONTINUOUS
 10
111.8021682278
 20
202.8083967912
 11
112.1108605671
 21
202.9731307415
  0
LINE
  5
2C7
100
AcDbEntity
  8
KONSTRUKTIONSELEMENTE
100
AcDbLine
 62
7
  6
CONTINUOUS
 10
112.9503510736
 20
209.4036955551
 11
113.3511486742
 21
209.5595480328
  0
LINE
  5
2C8
100
AcDbEntity
  8
0
100
AcDbLine
 62
7
  6
CONTINUOUS
 10
119.0947852494
 20
216.0116901935
 11
109.7082740841
 21
212.961827837
  0
LINE
  5
2C9
100
AcDbEntity
  8
KONSTRUKTIONSELEMENTE
100
AcDbLine
 62
7
  6
CONTINUOUS
 10
113.3216612858
 20
208.8845108067
 11
113.654675908
 21
208.9918862977
  0
LINE
  5
2CA
100
AcDbEntity
  8
KONSTRUKTIONSELEMENTE
100
AcDbLine
 62
7
  6
CONTINUOUS
 10
149.0085755646
 20
196.5053728512
 11
149.3316064213
 21
196.5720910444
  0
LINE
  5
2CB
100
AcDbEntity
  8
KONSTRUKTIONSELEMENTE
100
AcDbLine
 62
7
  6
CONTINUOUS
 10
108.6568057274
 20
201.2777721882
 11
110.8790218732
 21
200.5726863326
  0
LINE
  5
2CC
100
AcDbEntity
  8
KONSTRUKTIONSELEMENTE
100
AcDbLine
 62
7
  6
CONTINUOUS
 10
107.401445764
 20
202.8369921913
 11
107.7122103246
 21
202.726421679
  0
LINE
  5
2CD
100
AcDbEntity
  8
KONSTRUKTIONSELEMENTE
100
AcDbLine
 62
7
  6
CONTINUOUS
 10
110.8579506167
 20
202.4481073837
 11
111.2791732936
 21
202.2708316336
  0
LINE
  5
2CE
100
AcDbEntity
  8
KONSTRUKTIONSELEMENTE
100
AcDbLine
 62
7
  6
CONTINUOUS
 10
110.767251574
 20
203.1176730994
 11
111.1303633721
 21
202.8806676544
  0
LINE
  5
2CF
100
AcDbEntity
  8
KONSTRUKTIONSELEMENTE
100
AcDbLine
 62
7
  6
CONTINUOUS
 10
109.4262477117
 20
198.4365547973
 11
105.2917994516
 21
201.2483758416
  0
LINE
  5
2D0
100
AcDbEntity
  8
KONSTRUKTIONSELEMENTE
100
AcDbLine
 62
7
  6
CONTINUOUS
 10
109.7074298161
 20
198.8499996233
 11
107.8601231205
 21
200.1063452141
  0
LINE
  5
2D1
100
AcDbEntity
  8
KONSTRUKTIONSELEMENTE
100
AcDbLine
 62
7
  6
CONTINUOUS
 10
107.3323212779
 20
200.4653010493
 11
106.0128164249
 21
201.3626908049
  0
LINE
  5
2D2
100
AcDbEntity
  8
KONSTRUKTIONSELEMENTE
100
AcDbLine
 62
7
  6
CONTINUOUS
 10
107.7122103246
 20
202.726421679
 11
107.9761114924
 21
202.5469435938
  0
LINE
  5
2D3
100
AcDbEntity
  8
KONSTRUKTIONSELEMENTE
100
AcDbLine
 62
7
  6
CONTINUOUS
 10
107.9933924291
 20
203.139866505
 11
108.3452605706
 21
202.9005624473
  0
LINE
  5
2D4
100
AcDbEntity
  8
KONSTRUKTIONSELEMENTE
100
AcDbLine
 62
7
  6
CONTINUOUS
 10
110.4185881182
 20
202.7592961567
 11
110.8579506167
 21
202.4481073837
  0
LINE
  5
2D5
100
AcDbEntity
  8
KONSTRUKTIONSELEMENTE
100
AcDbLine
 62
7
  6
CONTINUOUS
 10
114.3030138236
 20
208.8016153674
 11
114.6183361679
 21
208.5039686337
  0
LINE
  5
2D6
100
AcDbEntity
  8
KONSTRUKTIONSELEMENTE
100
AcDbLine
 62
7
  6
CONTINUOUS
 10
110.4185881182
 20
202.7592961567
 11
108.0548263934
 21
205.0589902314
  0
LINE
  5
2D7
100
AcDbEntity
  8
KONSTRUKTIONSELEMENTE
100
AcDbLine
 62
7
  6
CONTINUOUS
 10
110.767251574
 20
203.1176730994
 11
108.4034898491
 21
205.4173671741
  0
LINE
  5
2D8
100
AcDbEntity
  8
KONSTRUKTIONSELEMENTE
100
AcDbLine
 62
7
  6
CONTINUOUS
 10
109.7981430071
 20
206.8508742612
 11
112.161904732
 21
204.5511801865
  0
LINE
  5
2D9
100
AcDbEntity
  8
KONSTRUKTIONSELEMENTE
100
AcDbLine
 62
7
  6
CONTINUOUS
 10
110.1468062966
 20
207.209251033
 11
112.5105680215
 21
204.9095569583
  0
LINE
  5
2DA
100
AcDbEntity
  8
KONSTRUKTIONSELEMENTE
100
AcDbLine
 62
7
  6
CONTINUOUS
 10
114.6478233829
 20
209.1790061021
 11
115.0250309359
 21
208.7948283346
  0
LINE
  5
2DB
100
AcDbEntity
  8
KONSTRUKTIONSELEMENTE
100
AcDbLine
 62
7
  6
CONTINUOUS
 10
108.5622978525
 20
202.6521771244
 11
108.3452605706
 21
202.9005624473
  0
LINE
  5
2DC
100
AcDbEntity
  8
KONSTRUKTIONSELEMENTE
100
AcDbLine
 62
7
  6
CONTINUOUS
 10
112.8337092018
 20
204.4789090335
 11
112.5105680215
 21
204.9095569583
  0
LINE
  5
2DD
100
AcDbEntity
  8
KONSTRUKTIONSELEMENTE
100
AcDbLine
 62
7
  6
CONTINUOUS
 10
114.2321690109
 20
204.1733090708
 11
111.3235720014
 21
208.2402567513
  0
LINE
  5
2DE
100
AcDbEntity
  8
KONSTRUKTIONSELEMENTE
100
AcDbLine
 62
7
  6
CONTINUOUS
 10
114.2675535233
 20
204.9833535807
 11
112.1015769817
 21
208.0119317039
  0
LINE
  5
2DF
100
AcDbEntity
  8
KONSTRUKTIONSELEMENTE
100
AcDbLine
 62
7
  6
CONTINUOUS
 10
114.6183361679
 20
208.5039686337
 11
115.5466117852
 21
207.2060066415
  0
LINE
  5
2E0
100
AcDbEntity
  8
KONSTRUKTIONSELEMENTE
100
AcDbLine
 62
7
  6
CONTINUOUS
 10
115.0250309359
 20
208.7948283346
 11
115.9533065533
 21
207.4968663424
  0
LINE
  5
2E1
100
AcDbEntity
  8
KONSTRUKTIONSELEMENTE
100
AcDbLine
 62
7
  6
CONTINUOUS
 10
112.4087955444
 20
204.1947159315
 11
112.161904732
 21
204.5511801865
  0
LINE
  5
2E2
100
AcDbEntity
  8
KONSTRUKTIONSELEMENTE
100
AcDbLine
 62
7
  6
CONTINUOUS
 10
116.1949495274
 20
207.0157359536
 11
115.9533065533
 21
207.4968663424
  0
LINE
  5
2E3
100
AcDbEntity
  8
KONSTRUKTIONSELEMENTE
100
AcDbLine
 62
7
  6
CONTINUOUS
 10
115.726369724
 20
206.811407044
 11
115.5466117852
 21
207.2060066415
  0
LINE
  5
2E4
100
AcDbEntity
  8
KONSTRUKTIONSELEMENTE
100
AcDbLine
 62
7
  6
CONTINUOUS
 10
113.0224897411
 20
204.0627154925
 11
112.8337092018
 21
204.4789090335
  0
LINE
  5
2E5
100
AcDbEntity
  8
KONSTRUKTIONSELEMENTE
100
AcDbLine
 62
7
  6
CONTINUOUS
 10
116.306924531
 20
206.5726593088
 11
116.1949495274
 21
207.0157359536
  0
LINE
  5
2E6
100
AcDbEntity
  8
KONSTRUKTIONSELEMENTE
100
AcDbLine
 62
7
  6
CONTINUOUS
 10
115.7764596488
 20
206.4548612512
 11
115.726369724
 21
206.811407044
  0
LINE
  5
2E7
100
AcDbEntity
  8
KONSTRUKTIONSELEMENTE
100
AcDbLine
 62
7
  6
CONTINUOUS
 10
124.5947852494
 20
166.6668037341
 11
124.5947852494
 21
163.8052008734
  0
LINE
  5
2E8
100
AcDbEntity
  8
KONSTRUKTIONSELEMENTE
100
AcDbLine
 62
7
  6
CONTINUOUS
 10
124.5947852494
 20
142.8549662886
 11
124.5947852494
 21
132.6925025012
  0
LINE
  5
2E9
100
AcDbEntity
  8
KONSTRUKTIONSELEMENTE
100
AcDbLine
 62
7
  6
CONTINUOUS
 10
125.5947852494
 20
183.2661643094
 11
125.5947852494
 21
174.6469606607
  0
LINE
  5
2EA
100
AcDbEntity
  8
KONSTRUKTIONSELEMENTE
100
AcDbLine
 62
7
  6
CONTINUOUS
 10
125.5947852494
 20
133.6695317282
 11
125.5947852494
 21
116.1591240881
  0
LINE
  5
2EB
100
AcDbEntity
  8
KONSTRUKTIONSELEMENTE
100
AcDbLine
 62
7
  6
CONTINUOUS
 10
125.8447852494
 20
164.6054534051
 11
125.8447852494
 21
154.9549662886
  0
LINE
  5
2EC
100
AcDbEntity
  8
KONSTRUKTIONSELEMENTE
100
AcDbLine
 62
7
  6
CONTINUOUS
 10
125.8447852494
 20
142.8549662886
 11
125.8447852494
 21
142.4988516873
  0
LINE
  5
2ED
100
AcDbEntity
  8
KONSTRUKTIONSELEMENTE
100
AcDbLine
 62
7
  6
CONTINUOUS
 10
130.3447852494
 20
164.6054534051
 11
130.3447852494
 21
154.9549662886
  0
LINE
  5
2EE
100
AcDbEntity
  8
KONSTRUKTIONSELEMENTE
100
AcDbLine
 62
7
  6
CONTINUOUS
 10
130.3447852494
 20
142.8549662886
 11
130.3447852494
 21
142.4988516873
  0
LINE
  5
2EF
100
AcDbEntity
  8
KONSTRUKTIONSELEMENTE
100
AcDbLine
 62
7
  6
CONTINUOUS
 10
130.5947852494
 20
183.2661643094
 11
130.5947852494
 21
174.6469606607
  0
LINE
  5
2F0
100
AcDbEntity
  8
KONSTRUKTIONSELEMENTE
100
AcDbLine
 62
7
  6
CONTINUOUS
 10
130.5947852494
 20
133.6695317282
 11
130.5947852494
 21
116.1591240881
  0
LINE
  5
2F1
100
AcDbEntity
  8
KONSTRUKTIONSELEMENTE
100
AcDbLine
 62
7
  6
CONTINUOUS
 10
131.5947852494
 20
132.6925025012
 11
131.5947852494
 21
142.8549662886
  0
LINE
  5
2F2
100
AcDbEntity
  8
KONSTRUKTIONSELEMENTE
100
AcDbLine
 62
7
  6
CONTINUOUS
 10
131.5947852494
 20
163.8052008734
 11
131.5947852494
 21
166.6668037341
  0
LINE
  5
2F3
100
AcDbEntity
  8
KONSTRUKTIONSELEMENTE
100
AcDbLine
 62
7
  6
CONTINUOUS
 10
132.6447852494
 20
52.7894362271
 11
132.6447852494
 21
64.1031447261
  0
LINE
  5
2F4
100
AcDbEntity
  8
BEZUGSACHSEN
100
AcDbLine
 62
7
  6
CONTINUOUS
 10
133.6947852494
 20
137.4086494003
 11
133.6947852494
 21
148.9049662886
  0
LINE
  5
2F5
100
AcDbEntity
  8
KONSTRUKTIONSELEMENTE
100
AcDbLine
 62
7
  6
CONTINUOUS
 10
133.6947852494
 20
148.9049662886
 11
133.6947852494
 21
162.3049662886
  0
LINE
  5
2F6
100
AcDbEntity
  8
KONSTRUKTIONSELEMENTE
100
AcDbLine
 62
7
  6
CONTINUOUS
 10
134.6447852494
 20
54.2036497895
 11
134.6447852494
 21
64.4566981167
  0
LINE
  5
2F7
100
AcDbEntity
  8
KONSTRUKTIONSELEMENTE
100
AcDbLine
 62
7
  6
CONTINUOUS
 10
137.0947852494
 20
207.8194351863
 11
139.2070205718
 21
211.7646152408
  0
LINE
  5
2F8
100
AcDbEntity
  8
KONSTRUKTIONSELEMENTE
100
AcDbLine
 62
7
  6
CONTINUOUS
 10
140.5573883456
 20
208.9902292002
 11
140.7814930566
 21
209.2322567404
  0
LINE
  5
2F9
100
AcDbEntity
  8
KONSTRUKTIONSELEMENTE
100
AcDbLine
 62
7
  6
CONTINUOUS
 10
140.5267217422
 20
208.4032939856
 11
140.9479734884
 21
208.6604405076
  0
LINE
  5
2FA
100
AcDbEntity
  8
KONSTRUKTIONSELEMENTE
100
AcDbLine
 62
7
  6
CONTINUOUS
 10
142.6531640192
 20
208.4402607117
 11
143.0484605061
 21
208.6695966768
  0
LINE
  5
2FB
100
AcDbEntity
  8
KONSTRUKTIONSELEMENTE
100
AcDbLine
 62
7
  6
CONTINUOUS
 10
142.9783049423
 20
208.0457980658
 11
143.3073897437
 21
208.1918676827
  0
LINE
  5
2FC
100
AcDbEntity
  8
KONSTRUKTIONSELEMENTE
100
AcDbLine
 62
7
  6
CONTINUOUS
 10
140.3100281605
 20
208.8813233587
 11
140.5573883456
 21
208.9902292002
  0
LINE
  5
2FD
100
AcDbEntity
  8
KONSTRUKTIONSELEMENTE
100
AcDbLine
 62
7
  6
CONTINUOUS
 10
142.6206133145
 20
203.9808860139
 11
143.1463618131
 21
204.106489273
  0
LINE
  5
2FE
100
AcDbEntity
  8
KONSTRUKTIONSELEMENTE
100
AcDbLine
 62
7
  6
CONTINUOUS
 10
149.8880880304
 20
200.0077361797
 11
150.2111191543
 21
200.0744545049
  0
LINE
  5
2FF
100
AcDbEntity
  8
KONSTRUKTIONSELEMENTE
100
AcDbLine
 62
7
  6
CONTINUOUS
 10
148.5532484444
 20
196.4662212735
 11
149.0085755646
 21
196.5053728512
  0
LINE
  5
300
100
AcDbEntity
  8
KONSTRUKTIONSELEMENTE
100
AcDbLine
 62
7
  6
CONTINUOUS
 10
150.2111191543
 20
200.0744545049
 11
150.6664462078
 21
200.1136060496
  0
LINE
  5
301
100
AcDbEntity
  8
KONSTRUKTIONSELEMENTE
100
AcDbLine
 62
7
  6
CONTINUOUS
 10
107.1317844036
 20
202.8188291287
 11
107.401445764
 21
202.8369921913
  0
LINE
  5
302
100
AcDbEntity
  8
KONSTRUKTIONSELEMENTE
100
AcDbLine
 62
7
  6
CONTINUOUS
 10
142.5593323436
 20
204.5732830197
 11
142.887432622
 21
204.5842183255
  0
LINE
  5
303
100
AcDbEntity
  8
KONSTRUKTIONSELEMENTE
100
AcDbLine
 62
7
  6
CONTINUOUS
 10
148.6084046462
 20
201.785194414
 11
149.5053416702
 21
201.7778557104
  0
LINE
  5
304
100
AcDbEntity
  8
KONSTRUKTIONSELEMENTE
100
AcDbLine
 62
7
  6
CONTINUOUS
 10
149.3188338882
 20
202.2538096816
 11
150.2157706634
 21
202.2464708139
  0
LINE
  5
305
100
AcDbEntity
  8
KONSTRUKTIONSELEMENTE
100
AcDbLine
 62
7
  6
CONTINUOUS
 10
148.4270552519
 20
196.9615924612
 11
149.1469730752
 21
196.9456141619
  0
LINE
  5
306
100
AcDbEntity
  8
KONSTRUKTIONSELEMENTE
100
AcDbLine
 62
7
  6
CONTINUOUS
 10
150.0727230669
 20
199.6342096424
 11
150.7926394002
 21
199.6182348619
  0
LINE
  5
307
100
AcDbEntity
  8
KONSTRUKTIONSELEMENTE
100
AcDbLine
 62
7
  6
CONTINUOUS
 10
107.1901689211
 20
203.2830184945
 11
107.6826278684
 21
203.2504370173
  0
LINE
  5
308
100
AcDbEntity
  8
KONSTRUKTIONSELEMENTE
100
AcDbLine
 62
7
  6
CONTINUOUS
 10
111.2791732936
 20
202.2708316336
 11
111.8166167632
 21
202.2130145485
  0
LINE
  5
309
100
AcDbEntity
  8
KONSTRUKTIONSELEMENTE
100
AcDbLine
 62
7
  6
CONTINUOUS
 10
148.1563632016
 20
196.5489143627
 11
148.5532484444
 21
196.4662212735
  0
LINE
  5
30A
100
AcDbEntity
  8
KONSTRUKTIONSELEMENTE
100
AcDbLine
 62
7
  6
CONTINUOUS
 10
150.6664462078
 20
200.1136060496
 11
151.0633314172
 21
200.0309129439
  0
LINE
  5
30B
100
AcDbEntity
  8
KONSTRUKTIONSELEMENTE
100
AcDbLine
 62
7
  6
CONTINUOUS
 10
113.7460483318
 20
209.5803927324
 11
114.2647180601
 21
209.4281758491
  0
LINE
  5
30C
100
AcDbEntity
  8
KONSTRUKTIONSELEMENTE
100
AcDbLine
 62
7
  6
CONTINUOUS
 10
111.1303633721
 20
202.8806676544
 11
111.4753357939
 21
202.7775757968
  0
LINE
  5
30D
100
AcDbEntity
  8
KONSTRUKTIONSELEMENTE
100
AcDbLine
 62
7
  6
CONTINUOUS
 10
108.7620539513
 20
201.8108690579
 11
111.2070677511
 21
201.055038761
  0
LINE
  5
30E
100
AcDbEntity
  8
KONSTRUKTIONSELEMENTE
100
AcDbLine
 62
7
  6
CONTINUOUS
 10
107.6826278684
 20
203.2504370173
 11
107.9933924291
 21
203.139866505
  0
LINE
  5
30F
100
AcDbEntity
  8
KONSTRUKTIONSELEMENTE
100
AcDbLine
 62
7
  6
CONTINUOUS
 10
148.1255382177
 20
197.0914262778
 11
148.4270552519
 21
196.9615924612
  0
LINE
  5
310
100
AcDbEntity
  8
KONSTRUKTIONSELEMENTE
100
AcDbLine
 62
7
  6
CONTINUOUS
 10
147.6856253048
 20
196.7810153352
 11
148.1563632016
 21
196.5489143627
  0
LINE
  5
311
100
AcDbEntity
  8
KONSTRUKTIONSELEMENTE
100
AcDbLine
 62
7
  6
CONTINUOUS
 10
113.9817933628
 20
208.9642545654
 11
114.3030138236
 21
208.8016153674
  0
LINE
  5
312
100
AcDbEntity
  8
KONSTRUKTIONSELEMENTE
100
AcDbLine
 62
7
  6
CONTINUOUS
 10
114.2647180601
 20
209.4281758491
 11
114.6478233829
 21
209.1790061021
  0
LINE
  5
313
100
AcDbEntity
  8
KONSTRUKTIONSELEMENTE
100
AcDbLine
 62
7
  6
CONTINUOUS
 10
141.430558582
 20
210.0914577214
 11
141.4501051286
 21
209.5983093665
  0
LINE
  5
314
100
AcDbEntity
  8
KONSTRUKTIONSELEMENTE
100
AcDbLine
 62
7
  6
CONTINUOUS
 10
136.0947852494
 20
132.6925025012
 11
136.0947852494
 21
136.9304488738
  0
LINE
  5
315
100
AcDbEntity
  8
0
100
AcDbLine
 62
7
  6
CONTINUOUS
 10
137.0947852494
 20
344.845283872
 11
137.0947852494
 21
191.9646487051
  0
LINE
  5
316
100
AcDbEntity
  8
KONSTRUKTIONSELEMENTE
100
AcDbLine
 62
7
  6
CONTINUOUS
 10
142.3482905391
 20
155.5652203264
 11
142.3482905391
 21
148.9049662886
  0
LINE
  5
317
100
AcDbEntity
  8
BEZUGSACHSEN
100
AcDbLine
 62
7
  6
CONTINUOUS
 10
142.3482905391
 20
141.5087398735
 11
142.3482905391
 21
134.9049662886
  0
LINE
  5
318
100
AcDbEntity
  8
KONSTRUKTIONSELEMENTE
100
AcDbLine
 62
7
  6
CONTINUOUS
 10
140.8634684364
 20
205.9217990792
 11
140.8595249059
 21
205.3812672538
  0
LINE
  5
319
100
AcDbEntity
  8
KONSTRUKTIONSELEMENTE
100
AcDbLine
 62
7
  6
CONTINUOUS
 10
145.3353003759
 20
207.3948162926
 11
145.3313538829
 21
206.8542868706
  0
LINE
  5
31A
100
AcDbEntity
  8
KONSTRUKTIONSELEMENTE
100
AcDbLine
 62
7
  6
CONTINUOUS
 10
141.4554318151
 20
206.1306665748
 11
141.3872452046
 21
205.7771364694
  0
LINE
  5
31B
100
AcDbEntity
  8
KONSTRUKTIONSELEMENTE
100
AcDbLine
 62
7
  6
CONTINUOUS
 10
140.1324310349
 20
208.3730542215
 11
139.6387258845
 21
205.8619534383
  0
LINE
  5
31C
100
AcDbEntity
  8
KONSTRUKTIONSELEMENTE
100
AcDbLine
 62
7
  6
CONTINUOUS
 10
139.5912064422
 20
208.4214823352
 11
139.1244589676
 21
206.1372901104
  0
LINE
  5
31D
100
AcDbEntity
  8
KONSTRUKTIONSELEMENTE
100
AcDbLine
 62
7
  6
CONTINUOUS
 10
141.0093068358
 20
209.8343111994
 11
140.9321326471
 21
209.5136175819
  0
LINE
  5
31E
100
AcDbEntity
  8
KONSTRUKTIONSELEMENTE
100
AcDbLine
 62
7
  6
CONTINUOUS
 10
141.4501051286
 20
209.5983093665
 11
141.3729309398
 21
209.277615749
  0
LINE
  5
31F
100
AcDbEntity
  8
KONSTRUKTIONSELEMENTE
100
AcDbLine
 62
7
  6
CONTINUOUS
 10
140.9978669643
 20
206.3585958244
 11
140.8634684364
 21
205.9217990792
  0
LINE
  5
320
100
AcDbEntity
  8
KONSTRUKTIONSELEMENTE
100
AcDbLine
 62
7
  6
CONTINUOUS
 10
144.807577161
 20
206.9989495387
 11
144.6741658637
 21
206.6972843805
  0
LINE
  5
321
100
AcDbEntity
  8
KONSTRUKTIONSELEMENTE
100
AcDbLine
 62
7
  6
CONTINUOUS
 10
141.6550518122
 20
206.5156004554
 11
141.4554318151
 21
206.1306665748
  0
LINE
  5
322
100
AcDbEntity
  8
KONSTRUKTIONSELEMENTE
100
AcDbLine
 62
7
  6
CONTINUOUS
 10
137.2878005356
 20
207.1206304806
 11
138.3422768252
 21
209.0901547952
  0
LINE
  5
323
100
AcDbEntity
  8
KONSTRUKTIONSELEMENTE
100
AcDbLine
 62
7
  6
CONTINUOUS
 10
138.6435557249
 20
209.6528759529
 11
139.3967531148
 21
211.0596791098
  0
LINE
  5
324
100
AcDbEntity
  8
KONSTRUKTIONSELEMENTE
100
AcDbLine
 62
7
  6
CONTINUOUS
 10
140.9321326471
 20
209.5136175819
 11
140.7814930566
 21
209.2322567404
  0
LINE
  5
325
100
AcDbEntity
  8
KONSTRUKTIONSELEMENTE
100
AcDbLine
 62
7
  6
CONTINUOUS
 10
141.3729309398
 20
209.277615749
 11
141.1720781994
 21
208.9024680479
  0
LINE
  5
326
100
AcDbEntity
  8
KONSTRUKTIONSELEMENTE
100
AcDbLine
 62
7
  6
CONTINUOUS
 10
141.2636988325
 20
206.8267962865
 11
140.9978669643
 21
206.3585958244
  0
LINE
  5
327
100
AcDbEntity
  8
KONSTRUKTIONSELEMENTE
100
AcDbLine
 62
7
  6
CONTINUOUS
 10
145.3313538829
 20
206.8542868706
 11
145.0655188434
 21
206.3860885494
  0
LINE
  5
328
100
AcDbEntity
  8
KONSTRUKTIONSELEMENTE
100
AcDbLine
 62
7
  6
CONTINUOUS
 10
141.2636988325
 20
206.8267962865
 11
142.2568769912
 21
208.0757951256
  0
LINE
  5
329
100
AcDbEntity
  8
KONSTRUKTIONSELEMENTE
100
AcDbLine
 62
7
  6
CONTINUOUS
 10
141.6550518122
 20
206.5156004554
 11
142.6482299709
 21
207.7645992945
  0
LINE
  5
32A
100
AcDbEntity
  8
KONSTRUKTIONSELEMENTE
100
AcDbLine
 62
7
  6
CONTINUOUS
 10
143.4912295546
 20
206.4146788937
 11
143.0939583282
 21
205.9150794047
  0
LINE
  5
32B
100
AcDbEntity
  8
KONSTRUKTIONSELEMENTE
100
AcDbLine
 62
7
  6
CONTINUOUS
 10
143.6809877978
 20
205.4482856581
 11
143.1512927365
 21
204.7821528895
  0
LINE
  5
32C
100
AcDbEntity
  8
KONSTRUKTIONSELEMENTE
100
AcDbLine
 62
7
  6
CONTINUOUS
 10
144.4696120038
 20
205.636689316
 11
143.4764338451
 21
204.3876904769
  0
LINE
  5
32D
100
AcDbEntity
  8
KONSTRUKTIONSELEMENTE
100
AcDbLine
 62
7
  6
CONTINUOUS
 10
140.9479734884
 20
208.6604405076
 11
141.1720781994
 21
208.9024680479
  0
LINE
  5
32E
100
AcDbEntity
  8
KONSTRUKTIONSELEMENTE
100
AcDbLine
 62
7
  6
CONTINUOUS
 10
142.2568769912
 20
208.0757951256
 11
142.6531640192
 21
208.4402607117
  0
LINE
  5
32F
100
AcDbEntity
  8
KONSTRUKTIONSELEMENTE
100
AcDbLine
 62
7
  6
CONTINUOUS
 10
142.6482299709
 20
207.7645992945
 11
142.9783049423
 21
208.0457980658
  0
LINE
  5
330
100
AcDbEntity
  8
KONSTRUKTIONSELEMENTE
100
AcDbLine
 62
7
  6
CONTINUOUS
 10
143.1463618131
 20
204.106489273
 11
143.4764338451
 21
204.3876904769
  0
LINE
  5
331
100
AcDbEntity
  8
KONSTRUKTIONSELEMENTE
100
AcDbLine
 62
7
  6
CONTINUOUS
 10
142.887432622
 20
204.5842183255
 11
143.1512927365
 21
204.7821528895
  0
LINE
  5
332
100
AcDbEntity
  8
KONSTRUKTIONSELEMENTE
100
AcDbLine
 62
7
  6
CONTINUOUS
 10
148.5160072466
 20
199.4224701666
 11
148.0760925682
 21
199.1120626066
  0
LINE
  5
333
100
AcDbEntity
  8
KONSTRUKTIONSELEMENTE
100
AcDbLine
 62
7
  6
CONTINUOUS
 10
148.6084046462
 20
201.785194414
 11
149.3188338882
 21
202.2538096816
  0
LINE
  5
334
100
AcDbEntity
  8
KONSTRUKTIONSELEMENTE
100
AcDbLine
 62
7
  6
CONTINUOUS
 10
146.0419998306
 20
199.4933567525
 11
149.5053416702
 21
201.7778557104
  0
LINE
  5
335
100
AcDbEntity
  8
KONSTRUKTIONSELEMENTE
100
AcDbLine
 62
7
  6
CONTINUOUS
 10
150.4910820696
 20
201.8290937306
 11
146.3173112367
 21
199.0759796692
  0
LINE
  5
336
100
AcDbEntity
  8
KONSTRUKTIONSELEMENTE
100
AcDbLine
 62
7
  6
CONTINUOUS
 10
148.5160072466
 20
199.4224701666
 11
149.3743208233
 21
199.8467365647
  0
LINE
  5
337
100
AcDbEntity
  8
KONSTRUKTIONSELEMENTE
100
AcDbLine
 62
7
  6
CONTINUOUS
 10
148.7960087679
 20
199.09608776
 11
149.4635859942
 21
199.4260727363
  0
LINE
  5
338
100
AcDbEntity
  8
KONSTRUKTIONSELEMENTE
100
AcDbLine
 62
7
  6
CONTINUOUS
 10
149.4635859942
 20
199.4260727363
 11
150.0727230669
 21
199.6342096424
  0
LINE
  5
339
100
AcDbEntity
  8
KONSTRUKTIONSELEMENTE
100
AcDbLine
 62
7
  6
CONTINUOUS
 10
149.1469730752
 20
196.9456141619
 11
149.7561085911
 21
197.1537545538
  0
LINE
  5
33A
100
AcDbEntity
  8
KONSTRUKTIONSELEMENTE
100
AcDbLine
 62
7
  6
CONTINUOUS
 10
149.3743208233
 20
199.8467365647
 11
149.8880880304
 21
200.0077361797
  0
LINE
  5
33B
100
AcDbEntity
  8
KONSTRUKTIONSELEMENTE
100
AcDbLine
 62
7
  6
CONTINUOUS
 10
149.3316064213
 20
196.5720910444
 11
149.8453754524
 21
196.7330873056
  0
LINE
  5
33C
100
AcDbEntity
  8
KONSTRUKTIONSELEMENTE
100
AcDbLine
 62
7
  6
CONTINUOUS
 10
143.0484605061
 20
208.6695966768
 11
143.5742119674
 21
208.7951975325
  0
LINE
  5
33D
100
AcDbEntity
  8
KONSTRUKTIONSELEMENTE
100
AcDbLine
 62
7
  6
CONTINUOUS
 10
111.8166167632
 20
202.2130145485
 11
112.2015598228
 21
202.3035651512
  0
LINE
  5
33E
100
AcDbEntity
  8
KONSTRUKTIONSELEMENTE
100
AcDbLine
 62
7
  6
CONTINUOUS
 10
106.7388133082
 20
203.1868665938
 11
107.1901689211
 21
203.2830184945
  0
LINE
  5
33F
100
AcDbEntity
  8
KONSTRUKTIONSELEMENTE
100
AcDbLine
 62
7
  6
CONTINUOUS
 10
111.4753357939
 20
202.7775757968
 11
111.8021682278
 21
202.8083967912
  0
LINE
  5
340
100
AcDbEntity
  8
KONSTRUKTIONSELEMENTE
100
AcDbLine
 62
7
  6
CONTINUOUS
 10
140.1324310349
 20
208.3730542215
 11
140.5267217422
 21
208.4032939856
  0
LINE
  5
341
100
AcDbEntity
  8
KONSTRUKTIONSELEMENTE
100
AcDbLine
 62
7
  6
CONTINUOUS
 10
113.3511486742
 20
209.5595480328
 11
113.7460483318
 21
209.5803927324
  0
LINE
  5
342
100
AcDbEntity
  8
KONSTRUKTIONSELEMENTE
100
AcDbLine
 62
7
  6
CONTINUOUS
 10
143.3073897437
 20
208.1918676827
 11
143.6354899756
 21
208.2028029301
  0
LINE
  5
343
100
AcDbEntity
  8
KONSTRUKTIONSELEMENTE
100
AcDbLine
 62
7
  6
CONTINUOUS
 10
113.654675908
 20
208.9918862977
 11
113.9817933628
 21
208.9642545654
  0
LINE
  5
344
100
AcDbEntity
  8
KONSTRUKTIONSELEMENTE
100
AcDbLine
 62
7
  6
CONTINUOUS
 10
140.0394158642
 20
208.9055374156
 11
140.3100281605
 21
208.8813233587
  0
LINE
  5
345
100
AcDbEntity
  8
KONSTRUKTIONSELEMENTE
100
AcDbLine
 62
7
  6
CONTINUOUS
 10
142.227285578
 20
204.0218182993
 11
142.6206133145
 21
203.9808860139
  0
LINE
  5
346
100
AcDbEntity
  8
KONSTRUKTIONSELEMENTE
100
AcDbLine
 62
7
  6
CONTINUOUS
 10
143.5742119674
 20
208.7951975325
 11
143.9675367007
 21
208.7542675995
  0
LINE
  5
347
100
AcDbEntity
  8
KONSTRUKTIONSELEMENTE
100
AcDbLine
 62
7
  6
CONTINUOUS
 10
142.2322194814
 20
204.6974795342
 11
142.5593323436
 21
204.5732830197
  0
LINE
  5
348
100
AcDbEntity
  8
KONSTRUKTIONSELEMENTE
100
AcDbLine
 62
7
  6
CONTINUOUS
 10
143.6354899756
 20
208.2028029301
 11
143.9626058237
 21
208.0786040414
  0
LINE
  5
349
100
AcDbEntity
  8
KONSTRUKTIONSELEMENTE
100
AcDbLine
 62
7
  6
CONTINUOUS
 10
150.7926394002
 20
199.6182348619
 11
151.0941564344
 21
199.4884010452
  0
LINE
  5
34A
100
AcDbEntity
  8
KONSTRUKTIONSELEMENTE
100
AcDbLine
 62
7
  6
CONTINUOUS
 10
141.8349482086
 20
204.1978799869
 11
142.227285578
 21
204.0218182993
  0
LINE
  5
34B
100
AcDbEntity
  8
KONSTRUKTIONSELEMENTE
100
AcDbLine
 62
7
  6
CONTINUOUS
 10
143.9675367007
 20
208.7542675995
 11
144.3598770501
 21
208.5782035304
  0
LINE
  5
34C
100
AcDbEntity
  8
KONSTRUKTIONSELEMENTE
100
AcDbLine
 62
7
  6
CONTINUOUS
 10
151.0633314172
 20
200.0309129439
 11
151.5340709792
 21
199.7988085393
  0
LINE
  5
34D
100
AcDbEntity
  8
KONSTRUKTIONSELEMENTE
100
AcDbLine
 62
7
  6
CONTINUOUS
 10
137.0947852494
 20
207.223970176
 11
137.2878005356
 21
207.1206304806
  0
LINE
  5
34E
100
AcDbEntity
  8
KONSTRUKTIONSELEMENTE
100
AcDbLine
 62
7
  6
CONTINUOUS
 10
139.1244589676
 20
206.1372901104
 11
139.6387258845
 21
205.8619534383
  0
LINE
  5
34F
100
AcDbEntity
  8
KONSTRUKTIONSELEMENTE
100
AcDbLine
 62
7
  6
CONTINUOUS
 10
138.3422768252
 20
209.0901547952
 11
139.5912064422
 21
208.4214823352
  0
LINE
  5
350
100
AcDbEntity
  8
KONSTRUKTIONSELEMENTE
100
AcDbLine
 62
7
  6
CONTINUOUS
 10
138.6435557249
 20
209.6528759529
 11
140.0394158642
 21
208.9055374156
  0
LINE
  5
351
100
AcDbEntity
  8
KONSTRUKTIONSELEMENTE
100
AcDbLine
 62
7
  6
CONTINUOUS
 10
139.3967531148
 20
211.0596791098
 11
140.7926132541
 21
210.3123405725
  0
LINE
  5
352
100
AcDbEntity
  8
KONSTRUKTIONSELEMENTE
100
AcDbLine
 62
7
  6
CONTINUOUS
 10
139.2070205718
 20
211.7646152408
 11
140.9702137427
 21
210.8206079092
  0
LINE
  5
353
100
AcDbEntity
  8
KONSTRUKTIONSELEMENTE
100
AcDbLine
 62
7
  6
CONTINUOUS
 10
141.2479187391
 20
204.6646737335
 11
141.8349482086
 21
204.1978799869
  0
LINE
  5
354
100
AcDbEntity
  8
KONSTRUKTIONSELEMENTE
100
AcDbLine
 62
7
  6
CONTINUOUS
 10
141.6451900118
 20
205.1642732808
 11
142.2322194814
 21
204.6974795342
  0
LINE
  5
355
100
AcDbEntity
  8
KONSTRUKTIONSELEMENTE
100
AcDbLine
 62
7
  6
CONTINUOUS
 10
143.0939583282
 20
205.9150794047
 11
143.6809877978
 21
205.4482856581
  0
LINE
  5
356
100
AcDbEntity
  8
KONSTRUKTIONSELEMENTE
100
AcDbLine
 62
7
  6
CONTINUOUS
 10
143.4912295546
 20
206.4146788937
 11
144.4696120038
 21
205.636689316
  0
LINE
  5
357
100
AcDbEntity
  8
KONSTRUKTIONSELEMENTE
100
AcDbLine
 62
7
  6
CONTINUOUS
 10
144.6741658637
 20
206.6972843805
 11
145.0655188434
 21
206.3860885494
  0
LINE
  5
358
100
AcDbEntity
  8
KONSTRUKTIONSELEMENTE
100
AcDbLine
 62
7
  6
CONTINUOUS
 10
143.9626058237
 20
208.0786040414
 11
144.5496352932
 21
207.6118102947
  0
LINE
  5
359
100
AcDbEntity
  8
KONSTRUKTIONSELEMENTE
100
AcDbLine
 62
7
  6
CONTINUOUS
 10
144.3598770501
 20
208.5782035304
 11
144.9469065196
 21
208.1114097837
  0
LINE
  5
35A
100
AcDbEntity
  8
KONSTRUKTIONSELEMENTE
100
AcDbLine
 62
7
  6
CONTINUOUS
 10
140.9702137427
 20
210.8206079092
 11
141.2873336243
 21
210.5301522553
  0
LINE
  5
35B
100
AcDbEntity
  8
KONSTRUKTIONSELEMENTE
100
AcDbLine
 62
7
  6
CONTINUOUS
 10
147.8455366964
 20
197.4178086845
 11
148.1255382177
 21
197.0914262778
  0
LINE
  5
35C
100
AcDbEntity
  8
KONSTRUKTIONSELEMENTE
100
AcDbLine
 62
7
  6
CONTINUOUS
 10
151.0941564344
 20
199.4884010452
 11
151.3741596461
 21
199.1620152189
  0
LINE
  5
35D
100
AcDbEntity
  8
KONSTRUKTIONSELEMENTE
100
AcDbLine
 62
7
  6
CONTINUOUS
 10
140.7926132541
 20
210.3123405725
 11
140.9627992505
 21
210.1005527964
  0
LINE
  5
35E
100
AcDbEntity
  8
KONSTRUKTIONSELEMENTE
100
AcDbLine
 62
7
  6
CONTINUOUS
 10
147.3686957537
 20
197.182105097
 11
147.6856253048
 21
196.7810153352
  0
LINE
  5
35F
100
AcDbEntity
  8
KONSTRUKTIONSELEMENTE
100
AcDbLine
 62
7
  6
CONTINUOUS
 10
140.9880021376
 20
205.007270973
 11
141.2479187391
 21
204.6646737335
  0
LINE
  5
360
100
AcDbEntity
  8
KONSTRUKTIONSELEMENTE
100
AcDbLine
 62
7
  6
CONTINUOUS
 10
141.4504979059
 20
205.4550053326
 11
141.6451900118
 21
205.1642732808
  0
LINE
  5
361
100
AcDbEntity
  8
KONSTRUKTIONSELEMENTE
100
AcDbLine
 62
7
  6
CONTINUOUS
 10
144.5496352932
 20
207.6118102947
 11
144.7443244133
 21
207.3210806173
  0
LINE
  5
362
100
AcDbEntity
  8
KONSTRUKTIONSELEMENTE
100
AcDbLine
 62
7
  6
CONTINUOUS
 10
146.0419998306
 20
199.4933567525
 11
146.3173112367
 21
199.0759796692
  0
LINE
  5
363
100
AcDbEntity
  8
KONSTRUKTIONSELEMENTE
100
AcDbLine
 62
7
  6
CONTINUOUS
 10
140.8595249059
 20
205.3812672538
 11
140.9880021376
 21
205.007270973
  0
LINE
  5
364
100
AcDbEntity
  8
KONSTRUKTIONSELEMENTE
100
AcDbLine
 62
7
  6
CONTINUOUS
 10
141.2873336243
 20
210.5301522553
 11
141.430558582
 21
210.0914577214
  0
LINE
  5
365
100
AcDbEntity
  8
KONSTRUKTIONSELEMENTE
100
AcDbLine
 62
7
  6
CONTINUOUS
 10
141.3872452046
 20
205.7771364694
 11
141.4504979059
 21
205.4550053326
  0
LINE
  5
366
100
AcDbEntity
  8
KONSTRUKTIONSELEMENTE
100
AcDbLine
 62
7
  6
CONTINUOUS
 10
144.7443244133
 20
207.3210806173
 11
144.807577161
 21
206.9989495387
  0
LINE
  5
367
100
AcDbEntity
  8
KONSTRUKTIONSELEMENTE
100
AcDbLine
 62
7
  6
CONTINUOUS
 10
140.9627992505
 20
210.1005527964
 11
141.0093068358
 21
209.8343111994
  0
LINE
  5
368
100
AcDbEntity
  8
RUNDUNGEN
100
AcDbLine
 62
7
  6
CONTINUOUS
 10
153.0947852494
 20
143.1329067571
 11
153.0947852494
 21
170.6512764209
  0
LINE
  5
369
100
AcDbEntity
  8
KONSTRUKTIONSELEMENTE
100
AcDbLine
 62
7
  6
CONTINUOUS
 10
155.2941564885
 20
73.05251242
 11
155.2941564885
 21
69.516978514
  0
LINE
  5
36A
100
AcDbEntity
  8
KONSTRUKTIONSELEMENTE
100
AcDbLine
 62
7
  6
CONTINUOUS
 10
147.3439720837
 20
198.1924249712
 11
147.2425025696
 21
197.6774762888
  0
LINE
  5
36B
100
AcDbEntity
  8
KONSTRUKTIONSELEMENTE
100
AcDbLine
 62
7
  6
CONTINUOUS
 10
151.9771937145
 20
198.9023475856
 11
151.8757225351
 21
198.3874023354
  0
LINE
  5
36C
100
AcDbEntity
  8
KONSTRUKTIONSELEMENTE
100
AcDbLine
 62
7
  6
CONTINUOUS
 10
147.8362255017
 20
198.1568725929
 11
147.7562698351
 21
197.8384759327
  0
LINE
  5
36D
100
AcDbEntity
  8
KONSTRUKTIONSELEMENTE
100
AcDbLine
 62
7
  6
CONTINUOUS
 10
151.463424817
 20
198.7413513904
 11
151.3834691505
 21
198.4229547302
  0
LINE
  5
36E
100
AcDbEntity
  8
KONSTRUKTIONSELEMENTE
100
AcDbLine
 62
7
  6
CONTINUOUS
 10
147.5192959589
 20
198.5579623588
 11
147.3439720837
 21
198.1924249712
  0
LINE
  5
36F
100
AcDbEntity
  8
KONSTRUKTIONSELEMENTE
100
AcDbLine
 62
7
  6
CONTINUOUS
 10
151.8757225351
 20
198.3874023354
 11
151.7003986933
 21
198.0218649642
  0
LINE
  5
370
100
AcDbEntity
  8
KONSTRUKTIONSELEMENTE
100
AcDbLine
 62
7
  6
CONTINUOUS
 10
148.2607276047
 20
198.7385360693
 11
147.8362255017
 21
198.1568725929
  0
LINE
  5
371
100
AcDbEntity
  8
KONSTRUKTIONSELEMENTE
100
AcDbLine
 62
7
  6
CONTINUOUS
 10
151.3834691505
 20
198.4229547302
 11
150.9589685375
 21
197.841287735
  0
LINE
  5
372
100
AcDbEntity
  8
KONSTRUKTIONSELEMENTE
100
AcDbLine
 62
7
  6
CONTINUOUS
 10
147.8269143737
 20
198.8959365343
 11
147.5192959589
 21
198.5579623588
  0
LINE
  5
373
100
AcDbEntity
  8
KONSTRUKTIONSELEMENTE
100
AcDbLine
 62
7
  6
CONTINUOUS
 10
151.7003986933
 20
198.0218649642
 11
151.3927803452
 21
197.6838908218
  0
LINE
  5
374
100
AcDbEntity
  8
KONSTRUKTIONSELEMENTE
100
AcDbLine
 62
7
  6
CONTINUOUS
 10
148.0760925682
 20
199.1120626066
 11
147.8269143737
 21
198.8959365343
  0
LINE
  5
375
100
AcDbEntity
  8
KONSTRUKTIONSELEMENTE
100
AcDbLine
 62
7
  6
CONTINUOUS
 10
151.3927803452
 20
197.6838908218
 11
151.1436018836
 21
197.4677646175
  0
LINE
  5
376
100
AcDbEntity
  8
KONSTRUKTIONSELEMENTE
100
AcDbLine
 62
7
  6
CONTINUOUS
 10
151.1436018836
 20
197.4677646175
 11
150.7036890291
 21
197.1573537037
  0
LINE
  5
377
100
AcDbEntity
  8
KONSTRUKTIONSELEMENTE
100
AcDbLine
 62
7
  6
CONTINUOUS
 10
148.7960087679
 20
199.09608776
 11
148.2607276047
 21
198.7385360693
  0
LINE
  5
378
100
AcDbEntity
  8
KONSTRUKTIONSELEMENTE
100
AcDbLine
 62
7
  6
CONTINUOUS
 10
150.9589685375
 20
197.841287735
 11
150.4236858175
 21
197.4837395301
  0
LINE
  5
379
100
AcDbEntity
  8
KONSTRUKTIONSELEMENTE
100
AcDbLine
 62
7
  6
CONTINUOUS
 10
150.4236858175
 20
197.4837395301
 11
149.7561085911
 21
197.1537545538
  0
LINE
  5
37A
100
AcDbEntity
  8
KONSTRUKTIONSELEMENTE
100
AcDbLine
 62
7
  6
CONTINUOUS
 10
150.7036890291
 20
197.1573537037
 11
149.8453754524
 21
196.7330873056
  0
LINE
  5
37B
100
AcDbEntity
  8
0
100
AcDbLine
 62
7
  6
CONTINUOUS
 10
146.4812964147
 20
212.961827837
 11
137.0947852494
 21
216.0116901935
  0
LINE
  5
37C
100
AcDbEntity
  8
KONSTRUKTIONSELEMENTE
100
AcDbLine
 62
7
  6
CONTINUOUS
 10
151.5340709792
 20
199.7988085393
 11
151.8510005221
 21
199.3977187733
  0
LINE
  5
37D
100
AcDbEntity
  8
KONSTRUKTIONSELEMENTE
100
AcDbLine
 62
7
  6
CONTINUOUS
 10
144.9469065196
 20
208.1114097837
 11
145.2068201411
 21
207.7688149258
  0
LINE
  5
37E
100
AcDbEntity
  8
0
100
AcDbLine
 62
7
  6
CONTINUOUS
 10
157.8447852494
 20
197.3213272515
 11
146.4812964147
 21
212.961827837
  0
LINE
  5
37F
100
AcDbEntity
  8
KONSTRUKTIONSELEMENTE
100
AcDbLine
 62
7
  6
CONTINUOUS
 10
150.2157706634
 20
202.2464708139
 11
150.4910820696
 21
201.8290937306
  0
LINE
  5
380
100
AcDbEntity
  8
KONSTRUKTIONSELEMENTE
100
AcDbLine
 62
7
  6
CONTINUOUS
 10
145.2068201411
 20
207.7688149258
 11
145.3353003759
 21
207.3948162926
  0
LINE
  5
381
100
AcDbEntity
  8
KONSTRUKTIONSELEMENTE
100
AcDbLine
 62
7
  6
CONTINUOUS
 10
147.2425025696
 20
197.6774762888
 11
147.3686957537
 21
197.182105097
  0
LINE
  5
382
100
AcDbEntity
  8
KONSTRUKTIONSELEMENTE
100
AcDbLine
 62
7
  6
CONTINUOUS
 10
151.8510005221
 20
199.3977187733
 11
151.9771937145
 21
198.9023475856
  0
LINE
  5
383
100
AcDbEntity
  8
KONSTRUKTIONSELEMENTE
100
AcDbLine
 62
7
  6
CONTINUOUS
 10
147.7562698351
 20
197.8384759327
 11
147.8455366964
 21
197.4178086845
  0
LINE
  5
384
100
AcDbEntity
  8
KONSTRUKTIONSELEMENTE
100
AcDbLine
 62
7
  6
CONTINUOUS
 10
151.3741596461
 20
199.1620152189
 11
151.463424817
 21
198.7413513904
  0
LINE
  5
385
100
AcDbEntity
  8
0
100
AcDbLine
 62
7
  6
CONTINUOUS
 10
157.8447852494
 20
177.9886053256
 11
157.8447852494
 21
197.3213272515
  0
LINE
  5
386
100
AcDbEntity
  8
RUNDUNGEN
100
AcDbLine
 62
7
  6
CONTINUOUS
 10
153.1838980706
 20
159.2948078954
 11
157.8447852494
 21
177.9886053256
  0
LINE
  5
387
100
AcDbEntity
  8
KONSTRUKTIONSELEMENTE
100
AcDbLine
 62
7
  6
CONTINUOUS
 10
178.32584845
 20
108.6830919342
 11
178.32584845
 21
105.1475580283
  0
LINE
  5
388
100
AcDbEntity
  8
RUNDUNGEN
100
AcDbLine
 62
7
  6
CONTINUOUS
 10
152.6268741357
 20
141.8473315377
 11
152.1506321394
 21
141.2797684277
  0
LINE
  5
389
100
AcDbEntity
  8
BEZUGSACHSEN
100
AcDbLine
 62
7
  6
CONTINUOUS
 10
152.1506321394
 20
141.2797684277
 11
147.4010115855
 21
135.6193910692
  0
LINE
  5
38A
100
AcDbEntity
  8
KONSTRUKTIONSELEMENTE
100
AcDbLine
 62
7
  6
CONTINUOUS
 10
121.3328930616
 20
125.2685350844
 11
91.6263241846
 21
115.4734087093
  0
LINE
  5
38B
100
AcDbEntity
  8
KONSTRUKTIONSELEMENTE
100
AcDbLine
 62
7
  6
CONTINUOUS
 10
121.3328930616
 20
121.7330011785
 11
91.6263241846
 21
111.9378748033
  0
LINE
  5
38C
100
AcDbEntity
  8
KONSTRUKTIONSELEMENTE
100
AcDbLine
 62
7
  6
CONTINUOUS
 10
146.6960173772
 20
76.4783053607
 11
164.2346752394
 21
103.0738452161
  0
LINE
  5
38D
100
AcDbEntity
  8
KONSTRUKTIONSELEMENTE
100
AcDbLine
 62
7
  6
CONTINUOUS
 10
95.9441136973
 20
107.9001344871
 11
90.0531130816
 21
105.9576989353
  0
LINE
  5
38E
100
AcDbEntity
  8
KONSTRUKTIONSELEMENTE
100
AcDbLine
 62
7
  6
CONTINUOUS
 10
92.2578112856
 20
106.5384540917
 11
96.5789556442
 21
107.9632620273
  0
LINE
  5
38F
100
AcDbEntity
  8
KONSTRUKTIONSELEMENTE
100
AcDbLine
 62
7
  6
CONTINUOUS
 10
96.2515538591
 20
102.2501282342
 11
100.4189544778
 21
103.624242353
  0
LINE
  5
390
100
AcDbEntity
  8
KONSTRUKTIONSELEMENTE
100
AcDbLine
 62
7
  6
CONTINUOUS
 10
154.9870643833
 20
68.9729245631
 11
155.247310382
 21
69.3675603947
  0
LINE
  5
391
100
AcDbEntity
  8
KONSTRUKTIONSELEMENTE
100
AcDbLine
 62
7
  6
CONTINUOUS
 10
177.4347691234
 20
103.0125204526
 11
177.8573873852
 21
103.6533768347
  0
LINE
  5
392
100
AcDbEntity
  8
KONSTRUKTIONSELEMENTE
100
AcDbLine
 62
7
  6
CONTINUOUS
 10
96.2515538591
 20
99.4217011095
 11
100.7830927943
 21
100.9158823031
  0
LINE
  5
393
100
AcDbEntity
  8
KONSTRUKTIONSELEMENTE
100
AcDbLine
 62
7
  6
CONTINUOUS
 10
95.737328702
 20
97.6917339872
 11
101.6283293178
 21
99.634169539
  0
LINE
  5
394
100
AcDbEntity
  8
KONSTRUKTIONSELEMENTE
100
AcDbLine
 62
7
  6
CONTINUOUS
 10
95.737328702
 20
97.3381805967
 11
101.6283293178
 21
99.2806161484
  0
ARC
  5
395
100
AcDbEntity
  8
KONSTRUKTIONSELEMENTE
100
AcDbCircle
 62
7
  6
CONTINUOUS
 10
218.7551072186
 20
146.725363722
 40
227.1964652802
100
AcDbArc
 50
15.1317550947
 51
15.2728816292
  0
ARC
  5
396
100
AcDbEntity
  8
KONSTRUKTIONSELEMENTE
100
AcDbCircle
 62
7
  6
CONTINUOUS
 10
226.8901790617
 20
146.263863131
 40
218.8123568798
100
AcDbArc
 50
15.1709596689
 51
15.3163345801
  0
ARC
  5
397
100
AcDbEntity
  8
KONSTRUKTIONSELEMENTE
100
AcDbCircle
 62
7
  6
CONTINUOUS
 10
306.654012123
 20
64.7712972039
 40
189.0538635217
100
AcDbArc
 50
45.9160450668
 51
46.2240508138
  0
ARC
  5
398
100
AcDbEntity
  8
KONSTRUKTIONSELEMENTE
100
AcDbCircle
 62
7
  6
CONTINUOUS
 10
327.9068614328
 20
85.9114384928
 40
159.4235898447
100
AcDbArc
 50
46.2405129433
 51
46.6346843422
  0
ARC
  5
399
100
AcDbEntity
  8
0
100
AcDbCircle
 62
7
  6
CONTINUOUS
 10
309.2172927211
 20
175.2642911092
 40
131.2747032003
100
AcDbArc
 50
12.452538124
 51
12.5784113137
  0
ARC
  5
39A
100
AcDbEntity
  8
KONSTRUKTIONSELEMENTE
100
AcDbCircle
 62
7
  6
CONTINUOUS
 10
310.0253424179
 20
175.3268491391
 40
130.9864184813
100
AcDbArc
 50
12.4317510099
 51
12.5785114004
  0
ARC
  5
39B
100
AcDbEntity
  8
KONSTRUKTIONSELEMENTE
100
AcDbCircle
 62
7
  6
CONTINUOUS
 10
314.8967120325
 20
178.0065718858
 40
126.2169300149
100
AcDbArc
 50
12.8775791987
 51
13.0259316691
  0
ARC
  5
39C
100
AcDbEntity
  8
KONSTRUKTIONSELEMENTE
100
AcDbCircle
 62
7
  6
CONTINUOUS
 10
325.2493343308
 20
180.7745127339
 40
114.0816423144
100
AcDbArc
 50
10.6260005665
 51
10.8280558523
  0
ARC
  5
39D
100
AcDbEntity
  8
KONSTRUKTIONSELEMENTE
100
AcDbCircle
 62
7
  6
CONTINUOUS
 10
321.7144885302
 20
127.9195317282
 40
8.25
100
AcDbArc
 50
60.8421444573
 51
135.0
  0
ARC
  5
39E
100
AcDbEntity
  8
KONSTRUKTIONSELEMENTE
100
AcDbCircle
 62
7
  6
CONTINUOUS
 10
321.7144885302
 20
127.9195317282
 40
8.25
100
AcDbArc
 50
315.0
 51
29.1578555427
  0
ARC
  5
39F
100
AcDbEntity
  8
KONSTRUKTIONSELEMENTE
100
AcDbCircle
 62
7
  6
CONTINUOUS
 10
315.7040808901
 20
121.9091240881
 40
8.25
100
AcDbArc
 50
242.6769957192
 51
315.0
  0
ARC
  5
3A0
100
AcDbEntity
  8
KONSTRUKTIONSELEMENTE
100
AcDbCircle
 62
7
  6
CONTINUOUS
 10
315.7040808901
 20
121.9091240881
 40
8.25
100
AcDbArc
 50
135.0
 51
207.3230042808
  0
ARC
  5
3A1
100
AcDbEntity
  8
KONSTRUKTIONSELEMENTE
100
AcDbCircle
 62
7
  6
CONTINUOUS
 10
321.7144885302
 20
127.9195317282
 40
3.25
100
AcDbArc
 50
88.8837571799
 51
135.0
  0
ARC
  5
3A2
100
AcDbEntity
  8
KONSTRUKTIONSELEMENTE
100
AcDbCircle
 62
7
  6
CONTINUOUS
 10
321.7144885302
 20
127.9195317282
 40
3.25
100
AcDbArc
 50
315.0
 51
1.1162428201
  0
ARC
  5
3A3
100
AcDbEntity
  8
KONSTRUKTIONSELEMENTE
100
AcDbCircle
 62
7
  6
CONTINUOUS
 10
315.7040808901
 20
121.9091240881
 40
3.25
100
AcDbArc
 50
275.4863577938
 51
315.0
  0
ARC
  5
3A4
100
AcDbEntity
  8
KONSTRUKTIONSELEMENTE
100
AcDbCircle
 62
7
  6
CONTINUOUS
 10
315.7040808901
 20
121.9091240881
 40
3.25
100
AcDbArc
 50
135.0
 51
174.5136422062
  0
ARC
  5
3A5
100
AcDbEntity
  8
KONSTRUKTIONSELEMENTE
100
AcDbCircle
 62
7
  6
CONTINUOUS
 10
322.4215953113
 20
128.6266385093
 40
2.25
100
AcDbArc
 50
135.0
 51
315.0
  0
ARC
  5
3A6
100
AcDbEntity
  8
KONSTRUKTIONSELEMENTE
100
AcDbCircle
 62
7
  6
CONTINUOUS
 10
342.0438084893
 20
148.2488516873
 40
8.0
100
AcDbArc
 50
241.3642958278
 51
315.0
  0
ARC
  5
3A7
100
AcDbEntity
  8
KONSTRUKTIONSELEMENTE
100
AcDbCircle
 62
7
  6
CONTINUOUS
 10
342.0438084893
 20
148.2488516873
 40
8.0
100
AcDbArc
 50
135.0
 51
208.6357041722
  0
ARC
  5
3A8
100
AcDbEntity
  8
KONSTRUKTIONSELEMENTE
100
AcDbCircle
 62
7
  6
CONTINUOUS
 10
352.6504102071
 20
158.8554534051
 40
8.0
100
AcDbArc
 50
61.3642958278
 51
135.0
  0
ARC
  5
3A9
100
AcDbEntity
  8
KONSTRUKTIONSELEMENTE
100
AcDbCircle
 62
7
  6
CONTINUOUS
 10
352.6504102071
 20
158.8554534051
 40
8.0
100
AcDbArc
 50
315.0
 51
28.6357041722
  0
ARC
  5
3AA
100
AcDbEntity
  8
KONSTRUKTIONSELEMENTE
100
AcDbCircle
 62
7
  6
CONTINUOUS
 10
342.0438084893
 20
148.2488516873
 40
3.5
100
AcDbArc
 50
265.1538775079
 51
315.0
  0
ARC
  5
3AB
100
AcDbEntity
  8
KONSTRUKTIONSELEMENTE
100
AcDbCircle
 62
7
  6
CONTINUOUS
 10
342.0438084893
 20
148.2488516873
 40
3.5
100
AcDbArc
 50
135.0
 51
184.8461224921
  0
ARC
  5
3AC
100
AcDbEntity
  8
KONSTRUKTIONSELEMENTE
100
AcDbCircle
 62
7
  6
CONTINUOUS
 10
352.6504102071
 20
158.8554534051
 40
3.5
100
AcDbArc
 50
85.1538775079
 51
135.0
  0
ARC
  5
3AD
100
AcDbEntity
  8
KONSTRUKTIONSELEMENTE
100
AcDbCircle
 62
7
  6
CONTINUOUS
 10
352.6504102071
 20
158.8554534051
 40
3.5
100
AcDbArc
 50
315.0
 51
4.8461224921
  0
ARC
  5
3AE
100
AcDbEntity
  8
KONSTRUKTIONSELEMENTE
100
AcDbCircle
 62
7
  6
CONTINUOUS
 10
353.5342936836
 20
159.7393368815
 40
2.25
100
AcDbArc
 50
135.0
 51
315.0
  0
ARC
  5
3AF
100
AcDbEntity
  8
KONSTRUKTIONSELEMENTE
100
AcDbCircle
 62
7
  6
CONTINUOUS
 10
341.1599250128
 20
147.3649682108
 40
2.25
100
AcDbArc
 50
315.0
 51
135.0
  0
ARC
  5
3B0
100
AcDbEntity
  8
KONSTRUKTIONSELEMENTE
100
AcDbCircle
 62
7
  6
CONTINUOUS
 10
372.9797301662
 20
179.1847733642
 40
8.25
100
AcDbArc
 50
240.8421444573
 51
315.0
  0
ARC
  5
3B1
100
AcDbEntity
  8
KONSTRUKTIONSELEMENTE
100
AcDbCircle
 62
7
  6
CONTINUOUS
 10
372.9797301662
 20
179.1847733642
 40
8.25
100
AcDbArc
 50
135.0
 51
209.1578555427
  0
ARC
  5
3B2
100
AcDbEntity
  8
KONSTRUKTIONSELEMENTE
100
AcDbCircle
 62
7
  6
CONTINUOUS
 10
372.9797301662
 20
179.1847733642
 40
3.25
100
AcDbArc
 50
268.8837571799
 51
315.0
  0
ARC
  5
3B3
100
AcDbEntity
  8
KONSTRUKTIONSELEMENTE
100
AcDbCircle
 62
7
  6
CONTINUOUS
 10
372.9797301662
 20
179.1847733642
 40
3.25
100
AcDbArc
 50
135.0
 51
181.1162428201
  0
ARC
  5
3B4
100
AcDbEntity
  8
KONSTRUKTIONSELEMENTE
100
AcDbCircle
 62
7
  6
CONTINUOUS
 10
372.272623385
 20
178.477666583
 40
2.25
100
AcDbArc
 50
315.0
 51
135.0
  0
ARC
  5
3B5
100
AcDbEntity
  8
KONSTRUKTIONSELEMENTE
100
AcDbCircle
 62
7
  6
CONTINUOUS
 10
421.1217172787
 20
159.6194725023
 40
45.8441208804
100
AcDbArc
 50
68.2941737996
 51
68.4903981731
  0
ARC
  5
3B6
100
AcDbEntity
  8
0
100
AcDbCircle
 62
7
  6
CONTINUOUS
 10
420.595082977
 20
159.6194725023
 40
45.8441208804
100
AcDbArc
 50
68.2941737996
 51
68.4903981731
  0
ARC
  5
3B7
100
AcDbEntity
  8
BEZUGSACHSEN
100
AcDbCircle
 62
7
  6
CONTINUOUS
 10
432.1999230906
 20
148.9049662886
 40
14.0
100
AcDbArc
 50
211.8907918018
 51
328.1092081982
  0
CIRCLE
  5
3B8
100
AcDbEntity
  8
0
100
AcDbCircle
 62
7
  6
CONTINUOUS
 10
432.1999230906
 20
148.9049662886
 40
5.75
  0
ARC
  5
3B9
100
AcDbEntity
  8
RUNDUNGEN
100
AcDbCircle
 62
7
  6
CONTINUOUS
 10
441.1999230906
 20
155.5652203264
 40
5.0
100
AcDbArc
 50
0.0
 51
30.0
  0
ARC
  5
3BA
100
AcDbEntity
  8
RUNDUNGEN
100
AcDbCircle
 62
7
  6
CONTINUOUS
 10
441.1999230906
 20
146.3335377171
 40
5.0
100
AcDbArc
 50
328.1092081982
 51
360.0
  0
ARC
  5
3BB
100
AcDbEntity
  8
BEZUGSACHSEN
100
AcDbCircle
 62
7
  6
CONTINUOUS
 10
423.1999230906
 20
155.5652203264
 40
5.0
100
AcDbArc
 50
150.0
 51
180.0
  0
ARC
  5
3BC
100
AcDbEntity
  8
BEZUGSACHSEN
100
AcDbCircle
 62
7
  6
CONTINUOUS
 10
423.1999230906
 20
146.3335377171
 40
5.0
100
AcDbArc
 50
180.0
 51
211.8907918018
  0
ARC
  5
3BD
100
AcDbEntity
  8
RUNDUNGEN
100
AcDbCircle
 62
7
  6
CONTINUOUS
 10
449.5406999002
 20
180.0714382677
 40
14.4764335752
100
AcDbArc
 50
208.8852859717
 51
210.0002435559
  0
ARC
  5
3BE
100
AcDbEntity
  8
KONSTRUKTIONSELEMENTE
100
AcDbCircle
 62
7
  6
CONTINUOUS
 10
447.1999230906
 20
165.172915481
 40
5.0
100
AcDbArc
 50
180.0
 51
210.0
  0
ARC
  5
3BF
100
AcDbEntity
  8
BEZUGSACHSEN
100
AcDbCircle
 62
7
  6
CONTINUOUS
 10
417.1999230906
 20
165.172915481
 40
5.0
100
AcDbArc
 50
330.0
 51
360.0
  0
ARC
  5
3C0
100
AcDbEntity
  8
KONSTRUKTIONSELEMENTE
100
AcDbCircle
 62
7
  6
CONTINUOUS
 10
440.1999230906
 20
171.3109410648
 40
2.0
100
AcDbArc
 50
0.0
 51
81.0
  0
ARC
  5
3C1
100
AcDbEntity
  8
BEZUGSACHSEN
100
AcDbCircle
 62
7
  6
CONTINUOUS
 10
424.1999230906
 20
171.3109410648
 40
2.0
100
AcDbArc
 50
99.0
 51
180.0
  0
ARC
  5
3C2
100
AcDbEntity
  8
KONSTRUKTIONSELEMENTE
100
AcDbCircle
 62
7
  6
CONTINUOUS
 10
341.8826004861
 20
184.9145583146
 40
97.9782748323
100
AcDbArc
 50
10.7201901069
 51
10.9507782969
  0
ARC
  5
3C3
100
AcDbEntity
  8
KONSTRUKTIONSELEMENTE
100
AcDbCircle
 62
7
  6
CONTINUOUS
 10
350.3349188333
 20
187.9212899879
 40
89.5891127153
100
AcDbArc
 50
11.4237658476
 51
11.6633015948
  0
ARC
  5
3C4
100
AcDbEntity
  8
KONSTRUKTIONSELEMENTE
100
AcDbCircle
 62
7
  6
CONTINUOUS
 10
349.6373505514
 20
189.6566662873
 40
88.4338704139
100
AcDbArc
 50
7.875879699
 51
8.0502562956
  0
ARC
  5
3C5
100
AcDbEntity
  8
KONSTRUKTIONSELEMENTE
100
AcDbCircle
 62
7
  6
CONTINUOUS
 10
377.3359645625
 20
196.2368637019
 40
61.0412452482
100
AcDbArc
 50
6.5615233707
 51
6.8574401784
  0
ARC
  5
3C6
100
AcDbEntity
  8
0
100
AcDbCircle
 62
7
  6
CONTINUOUS
 10
381.1263893195
 20
202.5579155061
 40
54.8820574429
100
AcDbArc
 50
358.6327368
 51
0.359381713
  0
ARC
  5
3C7
100
AcDbEntity
  8
KONSTRUKTIONSELEMENTE
100
AcDbCircle
 62
7
  6
CONTINUOUS
 10
381.6530236212
 20
202.5579155061
 40
54.8820574429
100
AcDbArc
 50
358.6327368
 51
0.359381713
  0
ARC
  5
3C8
100
AcDbEntity
  8
KONSTRUKTIONSELEMENTE
100
AcDbCircle
 62
7
  6
CONTINUOUS
 10
382.9803938211
 20
202.258532135
 40
53.7306035583
100
AcDbArc
 50
359.0446728256
 51
0.4408351866
  0
ARC
  5
3C9
100
AcDbEntity
  8
KONSTRUKTIONSELEMENTE
100
AcDbCircle
 62
7
  6
CONTINUOUS
 10
384.9629092421
 20
197.5913201714
 40
53.4766001494
100
AcDbArc
 50
5.553951868
 51
5.9554336497
  0
ARC
  5
3CA
100
AcDbEntity
  8
KONSTRUKTIONSELEMENTE
100
AcDbCircle
 62
7
  6
CONTINUOUS
 10
386.8044789031
 20
201.3611483408
 40
50.4342605584
100
AcDbArc
 50
358.9822202641
 51
0.4696416752
  0
ARC
  5
3CB
100
AcDbEntity
  8
0
100
AcDbCircle
 62
7
  6
CONTINUOUS
 10
386.3078096899
 20
201.3610656769
 40
50.4042971552
100
AcDbArc
 50
0.0979117009
 51
0.4700148345
  0
ARC
  5
3CC
100
AcDbEntity
  8
KONSTRUKTIONSELEMENTE
100
AcDbCircle
 62
7
  6
CONTINUOUS
 10
378.9901378063
 20
185.1951810043
 40
8.25
100
AcDbArc
 50
66.346698243
 51
135.0
  0
ARC
  5
3CD
100
AcDbEntity
  8
KONSTRUKTIONSELEMENTE
100
AcDbCircle
 62
7
  6
CONTINUOUS
 10
378.9901378063
 20
185.1951810043
 40
8.25
100
AcDbArc
 50
315.0
 51
23.653301757
  0
ARC
  5
3CE
100
AcDbEntity
  8
KONSTRUKTIONSELEMENTE
100
AcDbCircle
 62
7
  6
CONTINUOUS
 10
378.9901378063
 20
185.1951810043
 40
3.25
100
AcDbArc
 50
112.8065550031
 51
135.0
  0
ARC
  5
3CF
100
AcDbEntity
  8
KONSTRUKTIONSELEMENTE
100
AcDbCircle
 62
7
  6
CONTINUOUS
 10
378.9901378063
 20
185.1951810043
 40
3.25
100
AcDbArc
 50
315.0
 51
337.1934449969
  0
ARC
  5
3D0
100
AcDbEntity
  8
KONSTRUKTIONSELEMENTE
100
AcDbCircle
 62
7
  6
CONTINUOUS
 10
378.813361111
 20
185.018404309
 40
3.0
100
AcDbArc
 50
135.0
 51
315.0
  0
ARC
  5
3D1
100
AcDbEntity
  8
KONSTRUKTIONSELEMENTE
100
AcDbCircle
 62
7
  6
CONTINUOUS
 10
388.8662216573
 20
199.4043018685
 40
49.5324902605
100
AcDbArc
 50
7.4840670455
 51
7.8113691506
  0
ARC
  5
3D2
100
AcDbEntity
  8
KONSTRUKTIONSELEMENTE
100
AcDbCircle
 62
7
  6
CONTINUOUS
 10
388.332341308
 20
201.00224302
 40
49.1174955178
100
AcDbArc
 50
358.954873222
 51
0.3214077002
  0
ARC
  5
3D3
100
AcDbEntity
  8
KONSTRUKTIONSELEMENTE
100
AcDbCircle
 62
7
  6
CONTINUOUS
 10
393.4369487135
 20
199.7507197454
 40
44.7517733449
100
AcDbArc
 50
358.3172302345
 51
358.8467284615
  0
ARC
  5
3D4
100
AcDbEntity
  8
KONSTRUKTIONSELEMENTE
100
AcDbCircle
 62
7
  6
CONTINUOUS
 10
393.4539557509
 20
199.7413191151
 40
44.7347605655
100
AcDbArc
 50
1.0648671092
 51
1.6828393284
  0
ARC
  5
3D5
100
AcDbEntity
  8
KONSTRUKTIONSELEMENTE
100
AcDbCircle
 62
7
  6
CONTINUOUS
 10
396.4232831064
 20
200.5980997257
 40
42.0325061017
100
AcDbArc
 50
6.4731562984
 51
6.9245921446
  0
ARC
  5
3D6
100
AcDbEntity
  8
0
100
AcDbCircle
 62
7
  6
CONTINUOUS
 10
394.6744318377
 20
206.1316990108
 40
41.3340378015
100
AcDbArc
 50
0.9969455703
 51
1.4938336929
  0
ARC
  5
3D7
100
AcDbEntity
  8
KONSTRUKTIONSELEMENTE
100
AcDbCircle
 62
7
  6
CONTINUOUS
 10
395.201066143
 20
206.1316990109
 40
41.3340377979
100
AcDbArc
 50
0.9969455703
 51
1.4938336929
  0
ARC
  5
3D8
100
AcDbEntity
  8
KONSTRUKTIONSELEMENTE
100
AcDbCircle
 62
7
  6
CONTINUOUS
 10
395.2010661703
 20
206.136542253
 40
41.3340377706
100
AcDbArc
 50
358.506166307
 51
359.0030546668
  0
ARC
  5
3D9
100
AcDbEntity
  8
0
100
AcDbCircle
 62
7
  6
CONTINUOUS
 10
394.6744318722
 20
206.1365422529
 40
41.3340377671
100
AcDbArc
 50
358.506166307
 51
359.0030546669
  0
ARC
  5
3DA
100
AcDbEntity
  8
0
100
AcDbCircle
 62
7
  6
CONTINUOUS
 10
398.6363231101
 20
207.2356240395
 40
37.6214551248
100
AcDbArc
 50
353.3856405664
 51
353.8219602644
  0
ARC
  5
3DB
100
AcDbEntity
  8
KONSTRUKTIONSELEMENTE
100
AcDbCircle
 62
7
  6
CONTINUOUS
 10
399.1629574164
 20
207.235624039
 40
37.6214551201
100
AcDbArc
 50
353.3856405663
 51
353.8219602644
  0
ARC
  5
3DC
100
AcDbEntity
  8
KONSTRUKTIONSELEMENTE
100
AcDbCircle
 62
7
  6
CONTINUOUS
 10
410.6051985662
 20
186.3148049245
 40
34.9105381234
100
AcDbArc
 50
41.4582650473
 51
41.7924723833
  0
ARC
  5
3DD
100
AcDbEntity
  8
KONSTRUKTIONSELEMENTE
100
AcDbCircle
 62
7
  6
CONTINUOUS
 10
403.586832377
 20
203.0925898078
 40
34.3907480849
100
AcDbArc
 50
359.80097804
 51
0.1990216753
  0
ARC
  5
3DE
100
AcDbEntity
  8
KONSTRUKTIONSELEMENTE
100
AcDbCircle
 62
7
  6
CONTINUOUS
 10
404.7894181607
 20
202.6474877372
 40
33.3992592389
100
AcDbArc
 50
359.7950698586
 51
0.2049298483
  0
ARC
  5
3DF
100
AcDbEntity
  8
KONSTRUKTIONSELEMENTE
100
AcDbCircle
 62
7
  6
CONTINUOUS
 10
408.8420673525
 20
209.0433836129
 40
28.5864304648
100
AcDbArc
 50
347.121533598
 51
347.4233750848
  0
ARC
  5
3E0
100
AcDbEntity
  8
KONSTRUKTIONSELEMENTE
100
AcDbCircle
 62
7
  6
CONTINUOUS
 10
409.3571486943
 20
209.2101571904
 40
27.1779318383
100
AcDbArc
 50
357.954847911
 51
0.4080157851
  0
ARC
  5
3E1
100
AcDbEntity
  8
0
100
AcDbCircle
 62
7
  6
CONTINUOUS
 10
408.8305143923
 20
209.2101571904
 40
27.1779318386
100
AcDbArc
 50
357.954847911
 51
0.4080157851
  0
ARC
  5
3E2
100
AcDbEntity
  8
KONSTRUKTIONSELEMENTE
100
AcDbCircle
 62
7
  6
CONTINUOUS
 10
410.2538660634
 20
208.6907037847
 40
26.4923140713
100
AcDbArc
 50
358.531837133
 51
0.4191564172
  0
ARC
  5
3E3
100
AcDbEntity
  8
KONSTRUKTIONSELEMENTE
100
AcDbCircle
 62
7
  6
CONTINUOUS
 10
407.8047391396
 20
214.0097823376
 40
3.0
100
AcDbArc
 50
315.0
 51
135.0
  0
ARC
  5
3E4
100
AcDbEntity
  8
KONSTRUKTIONSELEMENTE
100
AcDbCircle
 62
7
  6
CONTINUOUS
 10
415.2900646388
 20
205.662161867
 40
22.6875134425
100
AcDbArc
 50
358.2854597459
 51
0.4893610307
  0
ARC
  5
3E5
100
AcDbEntity
  8
KONSTRUKTIONSELEMENTE
100
AcDbCircle
 62
7
  6
CONTINUOUS
 10
416.1123286759
 20
205.1433997353
 40
22.0763409122
100
AcDbArc
 50
357.4814665034
 51
0.5018120544
  0
ARC
  5
3E6
100
AcDbEntity
  8
KONSTRUKTIONSELEMENTE
100
AcDbCircle
 62
7
  6
CONTINUOUS
 10
418.5429449101
 20
205.7011151176
 40
19.9001228302
100
AcDbArc
 50
350.1697286685
 51
350.8249916996
  0
ARC
  5
3E7
100
AcDbEntity
  8
KONSTRUKTIONSELEMENTE
100
AcDbCircle
 62
7
  6
CONTINUOUS
 10
430.4470718833
 20
193.3636506727
 40
16.862054305
100
AcDbArc
 50
67.7587730104
 51
67.945740744
  0
ARC
  5
3E8
100
AcDbEntity
  8
KONSTRUKTIONSELEMENTE
100
AcDbCircle
 62
7
  6
CONTINUOUS
 10
424.9936536419
 20
211.8806683012
 40
11.8035597315
100
AcDbArc
 50
347.8864591578
 51
348.6591181716
  0
ARC
  5
3E9
100
AcDbEntity
  8
0
100
AcDbCircle
 62
7
  6
CONTINUOUS
 10
424.4670193431
 20
211.8806683006
 40
11.8035597286
100
AcDbArc
 50
347.8864591577
 51
348.6591181717
  0
ARC
  5
3EA
100
AcDbEntity
  8
KONSTRUKTIONSELEMENTE
100
AcDbCircle
 62
7
  6
CONTINUOUS
 10
429.6387577018
 20
209.1962169881
 40
10.9528562301
100
AcDbArc
 50
320.3892103767
 51
321.001372674
  0
ARC
  5
3EB
100
AcDbEntity
  8
KONSTRUKTIONSELEMENTE
100
AcDbCircle
 62
7
  6
CONTINUOUS
 10
428.0012173909
 20
211.6339511238
 40
9.1663186208
100
AcDbArc
 50
342.5453800025
 51
343.2476108206
  0
ARC
  5
3EC
100
AcDbEntity
  8
BEZUGSACHSEN
100
AcDbCircle
 62
7
  6
CONTINUOUS
 10
430.9499230906
 20
205.9672919175
 40
5.0
100
AcDbArc
 50
161.6999918899
 51
180.0
  0
ARC
  5
3ED
100
AcDbEntity
  8
BEZUGSACHSEN
100
AcDbCircle
 62
7
  6
CONTINUOUS
 10
433.4499230906
 20
205.9672919175
 40
5.0
100
AcDbArc
 50
0.0
 51
18.3000081101
  0
ARC
  5
3EE
100
AcDbEntity
  8
0
100
AcDbCircle
 62
7
  6
CONTINUOUS
 10
432.1999230906
 20
238.4049662886
 40
55.5
100
AcDbArc
 50
276.46752841
 51
360.0
  0
ARC
  5
3EF
100
AcDbEntity
  8
0
100
AcDbCircle
 62
7
  6
CONTINUOUS
 10
432.1999230906
 20
238.4049662886
 40
55.5
100
AcDbArc
 50
228.0995155853
 51
263.53247159
  0
ARC
  5
3F0
100
AcDbEntity
  8
0
100
AcDbCircle
 62
7
  6
CONTINUOUS
 10
432.1999230906
 20
238.4049662886
 40
55.5
100
AcDbArc
 50
180.0
 51
221.9004844147
  0
ARC
  5
3F1
100
AcDbEntity
  8
0
100
AcDbCircle
 62
7
  6
CONTINUOUS
 10
432.1999230906
 20
238.4049662886
 40
37.5
100
AcDbArc
 50
279.5942707183
 51
360.0
  0
ARC
  5
3F2
100
AcDbEntity
  8
0
100
AcDbCircle
 62
7
  6
CONTINUOUS
 10
432.1999230906
 20
238.4049662886
 40
37.5
100
AcDbArc
 50
229.5903972803
 51
260.4057292817
  0
ARC
  5
3F3
100
AcDbEntity
  8
0
100
AcDbCircle
 62
7
  6
CONTINUOUS
 10
432.1999230906
 20
238.4049662886
 40
37.5
100
AcDbArc
 50
180.0
 51
220.4096027197
  0
ARC
  5
3F4
100
AcDbEntity
  8
KONSTRUKTIONSELEMENTE
100
AcDbCircle
 62
7
  6
CONTINUOUS
 10
423.6307239906
 20
216.9120746827
 40
18.860025902
100
AcDbArc
 50
313.3026797559
 51
313.7269170438
  0
ARC
  5
3F5
100
AcDbEntity
  8
0
100
AcDbCircle
 62
7
  6
CONTINUOUS
 10
423.1040896936
 20
216.9120746777
 40
18.8600258952
100
AcDbArc
 50
313.3026797558
 51
313.7269170438
  0
ARC
  5
3F6
100
AcDbEntity
  8
KONSTRUKTIONSELEMENTE
100
AcDbCircle
 62
7
  6
CONTINUOUS
 10
430.8301509659
 20
219.4672584996
 40
18.1128489777
100
AcDbArc
 50
292.8642818007
 51
293.1139134124
  0
ARC
  5
3F7
100
AcDbEntity
  8
KONSTRUKTIONSELEMENTE
100
AcDbCircle
 62
7
  6
CONTINUOUS
 10
433.2716637404
 20
220.1849273294
 40
11.1245781876
100
AcDbArc
 50
287.2294024151
 51
287.5882348998
  0
ARC
  5
3F8
100
AcDbEntity
  8
0
100
AcDbCircle
 62
7
  6
CONTINUOUS
 10
432.7450294388
 20
220.1849273294
 40
11.1245781876
100
AcDbArc
 50
287.2294024151
 51
287.5882348998
  0
ARC
  5
3F9
100
AcDbEntity
  8
0
100
AcDbCircle
 62
7
  6
CONTINUOUS
 10
432.1999230906
 20
298.4049662886
 40
55.5
100
AcDbArc
 50
0.0
 51
180.0
  0
ARC
  5
3FA
100
AcDbEntity
  8
0
100
AcDbCircle
 62
7
  6
CONTINUOUS
 10
432.1999230906
 20
298.4049662886
 40
37.5
100
AcDbArc
 50
0.0
 51
180.0
  0
ARC
  5
3FB
100
AcDbEntity
  8
KONSTRUKTIONSELEMENTE
100
AcDbCircle
 62
7
  6
CONTINUOUS
 10
128.0947852494
 20
101.8468721669
 40
36.0
100
AcDbArc
 50
98.9490180653
 51
113.3240322405
  0
ARC
  5
3FC
100
AcDbEntity
  8
KONSTRUKTIONSELEMENTE
100
AcDbCircle
 62
7
  6
CONTINUOUS
 10
128.0947852494
 20
101.8468721669
 40
36.0
100
AcDbArc
 50
66.6759677595
 51
81.0509819347
  0
ARC
  5
3FD
100
AcDbEntity
  8
BEZUGSACHSEN
100
AcDbCircle
 62
7
  6
CONTINUOUS
 10
128.0947852494
 20
187.6549662886
 40
13.25
100
AcDbArc
 50
132.844678999
 51
47.155321001
  0
ARC
  5
3FE
100
AcDbEntity
  8
0
100
AcDbCircle
 62
7
  6
CONTINUOUS
 10
128.0947852494
 20
344.9049662886
 40
9.0
100
AcDbArc
 50
0.0
 51
180.0
  0
ARC
  5
3FF
100
AcDbEntity
  8
0
100
AcDbCircle
 62
7
  6
CONTINUOUS
 10
128.0947852494
 20
191.9049662886
 40
9.0
100
AcDbArc
 50
180.0
 51
360.0
  0
ARC
  5
400
100
AcDbEntity
  8
KONSTRUKTIONSELEMENTE
100
AcDbCircle
 62
7
  6
CONTINUOUS
 10
128.0947852494
 20
162.3049662886
 40
5.6
100
AcDbArc
 50
0.0
 51
180.0
  0
ARC
  5
401
100
AcDbEntity
  8
KONSTRUKTIONSELEMENTE
100
AcDbCircle
 62
7
  6
CONTINUOUS
 10
117.5602099209
 20
61.5217494227
 40
5.4898501433
100
AcDbArc
 50
80.2049516589
 51
83.5150100898
  0
ARC
  5
402
100
AcDbEntity
  8
KONSTRUKTIONSELEMENTE
100
AcDbCircle
 62
7
  6
CONTINUOUS
 10
138.4114145457
 20
62.577863192
 40
4.6749602773
100
AcDbArc
 50
111.3149175254
 51
112.0930351415
  0
ARC
  5
403
100
AcDbEntity
  8
RUNDUNGEN
100
AcDbCircle
 62
7
  6
CONTINUOUS
 10
156.0947852494
 20
158.5690422086
 40
3.0
100
AcDbArc
 50
166.0
 51
180.0
  0
ARC
  5
404
100
AcDbEntity
  8
RUNDUNGEN
100
AcDbCircle
 62
7
  6
CONTINUOUS
 10
100.0947852494
 20
158.5690422086
 40
3.0
100
AcDbArc
 50
0.0
 51
14.0
  0
ARC
  5
405
100
AcDbEntity
  8
KONSTRUKTIONSELEMENTE
100
AcDbCircle
 62
7
  6
CONTINUOUS
 10
128.0947852494
 20
133.6695317282
 40
2.5
100
AcDbArc
 50
0.0
 51
180.0
  0
ARC
  5
406
100
AcDbEntity
  8
KONSTRUKTIONSELEMENTE
100
AcDbCircle
 62
7
  6
CONTINUOUS
 10
128.0947852494
 20
116.1591240881
 40
2.5
100
AcDbArc
 50
180.0
 51
360.0
  0
CIRCLE
  5
407
100
AcDbEntity
  8
BEZUGSACHSEN
100
AcDbCircle
 62
7
  6
CONTINUOUS
 10
145.7947852494
 20
148.9049662886
 40
2.5
  0
ARC
  5
408
100
AcDbEntity
  8
KONSTRUKTIONSELEMENTE
100
AcDbCircle
 62
7
  6
CONTINUOUS
 10
128.0947852494
 20
142.4988516873
 40
2.25
100
AcDbArc
 50
180.0
 51
360.0
  0
ARC
  5
409
100
AcDbEntity
  8
KONSTRUKTIONSELEMENTE
100
AcDbCircle
 62
7
  6
CONTINUOUS
 10
128.0947852494
 20
164.6054534051
 40
2.25
100
AcDbArc
 50
0.0
 51
180.0
  0
ARC
  5
40A
100
AcDbEntity
  8
KONSTRUKTIONSELEMENTE
100
AcDbCircle
 62
7
  6
CONTINUOUS
 10
121.5330465396
 20
64.1024120501
 40
2.0117388432
100
AcDbArc
 50
0.0208671421
 51
7.9801551546
  0
ARC
  5
40B
100
AcDbEntity
  8
BEZUGSACHSEN
100
AcDbCircle
 62
7
  6
CONTINUOUS
 10
110.3206472372
 20
136.9049669587
 40
2.0
100
AcDbArc
 50
220.0000250634
 51
270.0000161105
  0
ARC
  5
40C
100
AcDbEntity
  8
RUNDUNGEN
100
AcDbCircle
 62
7
  6
CONTINUOUS
 10
105.0947852494
 20
143.1329067571
 40
2.0
100
AcDbArc
 50
180.0
 51
220.0
  0
ARC
  5
40D
100
AcDbEntity
  8
BEZUGSACHSEN
100
AcDbCircle
 62
7
  6
CONTINUOUS
 10
145.8689251068
 20
136.9049691577
 40
2.0
100
AcDbArc
 50
269.9999310313
 51
319.9998927033
  0
ARC
  5
40E
100
AcDbEntity
  8
RUNDUNGEN
100
AcDbCircle
 62
7
  6
CONTINUOUS
 10
151.0947852494
 20
143.1329067571
 40
2.0
100
AcDbArc
 50
320.0
 51
359.9755144818
  0
LINE
  5
40F
100
AcDbEntity
  8
KONSTRUKTIONSELEMENTE
100
AcDbLine
 62
7
  6
CONTINUOUS
 10
437.9674208672
 20
204.9833535807
 11
436.7374831372
 21
208.0119317039
  0
LINE
  5
410
100
AcDbEntity
  8
KONSTRUKTIONSELEMENTE
100
AcDbLine
 62
7
  6
CONTINUOUS
 10
436.7684888136
 20
209.4281758491
 11
436.9057457106
 21
209.1790061021
  0
LINE
  5
411
100
AcDbEntity
  8
KONSTRUKTIONSELEMENTE
100
AcDbLine
 62
7
  6
CONTINUOUS
 10
436.9057457106
 20
209.1790061021
 11
437.0549116315
 21
208.8492336296
  0
LINE
  5
412
100
AcDbEntity
  8
KONSTRUKTIONSELEMENTE
100
AcDbLine
 62
7
  6
CONTINUOUS
 10
437.0549116315
 20
208.8492336296
 11
437.0795077814
 21
208.7948283346
  0
LINE
  5
413
100
AcDbEntity
  8
KONSTRUKTIONSELEMENTE
100
AcDbLine
 62
7
  6
CONTINUOUS
 10
437.0795077814
 20
208.7948283346
 11
437.1821590652
 21
208.5417846424
  0
LINE
  5
414
100
AcDbEntity
  8
KONSTRUKTIONSELEMENTE
100
AcDbLine
 62
7
  6
CONTINUOUS
 10
437.1821590652
 20
208.5417846424
 11
437.2121567192
 21
208.4678352314
  0
LINE
  5
415
100
AcDbEntity
  8
KONSTRUKTIONSELEMENTE
100
AcDbLine
 62
7
  6
CONTINUOUS
 10
437.2121567192
 20
208.4678352314
 11
437.6059807807
 21
207.4968663424
  0
LINE
  5
416
100
AcDbEntity
  8
KONSTRUKTIONSELEMENTE
100
AcDbLine
 62
7
  6
CONTINUOUS
 10
437.783402633
 20
207.0157359536
 11
437.6059807807
 21
207.4968663424
  0
LINE
  5
417
100
AcDbEntity
  8
KONSTRUKTIONSELEMENTE
100
AcDbLine
 62
7
  6
CONTINUOUS
 10
437.9274938159
 20
206.5726593088
 11
437.783402633
 21
207.0157359536
  0
LINE
  5
418
100
AcDbEntity
  8
KONSTRUKTIONSELEMENTE
100
AcDbLine
 62
7
  6
CONTINUOUS
 10
437.7870417162
 20
204.4789090335
 11
437.7371915625
 21
204.5999942035
  0
LINE
  5
419
100
AcDbEntity
  8
KONSTRUKTIONSELEMENTE
100
AcDbLine
 62
7
  6
CONTINUOUS
 10
437.7371915625
 20
204.5999942035
 11
437.6097334428
 21
204.9095569583
  0
LINE
  5
41A
100
AcDbEntity
  8
KONSTRUKTIONSELEMENTE
100
AcDbLine
 62
7
  6
CONTINUOUS
 10
437.9307917148
 20
204.0627154925
 11
437.7870417162
 21
204.4789090335
  0
LINE
  5
41B
100
AcDbEntity
  8
KONSTRUKTIONSELEMENTE
100
AcDbLine
 62
7
  6
CONTINUOUS
 10
437.6186286597
 20
203.1176730994
 11
436.9673385636
 21
204.4921062445
  0
LINE
  5
41C
100
AcDbEntity
  8
KONSTRUKTIONSELEMENTE
100
AcDbLine
 62
7
  6
CONTINUOUS
 10
436.9673385636
 20
204.4921062445
 11
436.6661108952
 21
205.1277342
  0
LINE
  5
41D
100
AcDbEntity
  8
KONSTRUKTIONSELEMENTE
100
AcDbLine
 62
7
  6
CONTINUOUS
 10
436.6661108952
 20
205.1277342
 11
436.5288469676
 21
205.4173671741
  0
LINE
  5
41E
100
AcDbEntity
  8
KONSTRUKTIONSELEMENTE
100
AcDbLine
 62
7
  6
CONTINUOUS
 10
437.6186286597
 20
203.1176730994
 11
437.7603855334
 21
202.8806676544
  0
LINE
  5
41F
100
AcDbEntity
  8
KONSTRUKTIONSELEMENTE
100
AcDbLine
 62
7
  6
CONTINUOUS
 10
437.7603855334
 20
202.8806676544
 11
437.8678913254
 21
202.7775757968
  0
LINE
  5
420
100
AcDbEntity
  8
KONSTRUKTIONSELEMENTE
100
AcDbLine
 62
7
  6
CONTINUOUS
 10
436.5210560065
 20
207.209251033
 11
436.6610967779
 21
206.913491975
  0
LINE
  5
421
100
AcDbEntity
  8
KONSTRUKTIONSELEMENTE
100
AcDbLine
 62
7
  6
CONTINUOUS
 10
436.6610967779
 20
206.913491975
 11
437.6097334428
 21
204.9095569583
  0
LINE
  5
422
100
AcDbEntity
  8
KONSTRUKTIONSELEMENTE
100
AcDbLine
 62
7
  6
CONTINUOUS
 10
436.742585774
 20
202.8188291287
 11
436.8111317094
 21
202.8369921913
  0
LINE
  5
423
100
AcDbEntity
  8
KONSTRUKTIONSELEMENTE
100
AcDbLine
 62
7
  6
CONTINUOUS
 10
437.2307825124
 20
200.4653010493
 11
436.7035287543
 21
201.3626908049
  0
LINE
  5
424
100
AcDbEntity
  8
KONSTRUKTIONSELEMENTE
100
AcDbLine
 62
7
  6
CONTINUOUS
 10
438.1796567314
 20
198.8499996233
 11
437.4416656066
 21
200.1063452141
  0
LINE
  5
425
100
AcDbEntity
  8
KONSTRUKTIONSELEMENTE
100
AcDbLine
 62
7
  6
CONTINUOUS
 10
436.6671884056
 20
203.2830184945
 11
436.8036183077
 21
203.2504370173
  0
LINE
  5
426
100
AcDbEntity
  8
KONSTRUKTIONSELEMENTE
100
AcDbLine
 62
7
  6
CONTINUOUS
 10
436.8036183077
 20
203.2504370173
 11
436.9074200141
 21
203.139866505
  0
LINE
  5
427
100
AcDbEntity
  8
KONSTRUKTIONSELEMENTE
100
AcDbLine
 62
7
  6
CONTINUOUS
 10
436.9074200141
 20
203.139866505
 11
437.0479010782
 21
202.9005624473
  0
LINE
  5
428
100
AcDbEntity
  8
KONSTRUKTIONSELEMENTE
100
AcDbLine
 62
7
  6
CONTINUOUS
 10
437.1548880494
 20
202.6521771244
 11
437.0747227625
 21
202.8383041601
  0
LINE
  5
429
100
AcDbEntity
  8
KONSTRUKTIONSELEMENTE
100
AcDbLine
 62
7
  6
CONTINUOUS
 10
437.0747227625
 20
202.8383041601
 11
437.0479010782
 21
202.9005624473
  0
LINE
  5
42A
100
AcDbEntity
  8
KONSTRUKTIONSELEMENTE
100
AcDbLine
 62
7
  6
CONTINUOUS
 10
437.2997961864
 20
202.2061508212
 11
437.1548880494
 21
202.6521771244
  0
SPLINE
  5
42B
100
AcDbEntity
  8
0
100
AcDbSpline
 62
7
  6
CONTINUOUS
 70
0
 71
3
 72
9
 73
5
 74
0
 42
0.0000001
 43
0.0000001
 44
0.0000000001
 40
0.0
 40
0.0
 40
0.0
 40
0.0
 40
0.5000059437
 40
1.0
 40
1.0
 40
1.0
 40
1.0
 10
434.4272847038
 20
197.3213272515
 30
0.0
 10
434.6802466545
 20
194.8461044365
 30
0.0
 10
435.0102782584
 20
189.875202782
 30
0.0
 10
434.9244853599
 20
184.8932020073
 30
0.0
 10
434.7818346426
 20
182.4092386125
 30
0.0
  0
SPLINE
  5
42C
100
AcDbEntity
  8
0
100
AcDbSpline
 62
7
  6
CONTINUOUS
 70
0
 71
3
 72
11
 73
7
 74
0
 42
0.0000001
 43
0.0000001
 44
0.0000000001
 40
0.0
 40
0.0
 40
0.0
 40
0.0
 40
0.2501778167
 40
0.5000000005
 40
0.7498221845
 40
1.0
 40
1.0
 40
1.0
 40
1.0
 10
434.4272847038
 20
212.961827837
 30
0.0
 10
434.5911734217
 20
211.6644520149
 30
0.0
 10
434.8458991207
 20
209.0615282567
 30
0.0
 10
434.977442001
 20
205.1415775354
 30
0.0
 10
434.845899125
 20
201.2216268198
 30
0.0
 10
434.591173421
 20
198.6187030676
 30
0.0
 10
434.4272847038
 20
197.3213272515
 30
0.0
  0
LINE
  5
42D
100
AcDbEntity
  8
0
100
AcDbLine
 62
7
  6
CONTINUOUS
 10
437.6543561307
 20
200.5726863326
 11
437.4491558036
 21
200.7711436937
  0
LINE
  5
42E
100
AcDbEntity
  8
KONSTRUKTIONSELEMENTE
100
AcDbLine
 62
7
  6
CONTINUOUS
 10
437.8658474062
 20
206.4548612512
 11
437.7579678614
 21
206.811407044
  0
LINE
  5
42F
100
AcDbEntity
  8
KONSTRUKTIONSELEMENTE
100
AcDbLine
 62
7
  6
CONTINUOUS
 10
437.7579678614
 20
206.811407044
 11
437.6160578747
 21
207.2060066415
  0
LINE
  5
430
100
AcDbEntity
  8
KONSTRUKTIONSELEMENTE
100
AcDbLine
 62
7
  6
CONTINUOUS
 10
437.0889386628
 20
208.5039686337
 11
437.4851409312
 21
207.5283917973
  0
LINE
  5
431
100
AcDbEntity
  8
KONSTRUKTIONSELEMENTE
100
AcDbLine
 62
7
  6
CONTINUOUS
 10
437.4851409312
 20
207.5283917973
 11
437.513237642
 21
207.4592043146
  0
LINE
  5
432
100
AcDbEntity
  8
KONSTRUKTIONSELEMENTE
100
AcDbLine
 62
7
  6
CONTINUOUS
 10
437.513237642
 20
207.4592043146
 11
437.6160578747
 21
207.2060066415
  0
LINE
  5
433
100
AcDbEntity
  8
KONSTRUKTIONSELEMENTE
100
AcDbLine
 62
7
  6
CONTINUOUS
 10
436.949588242
 20
208.8016153674
 11
436.9845668949
 21
208.7269300866
  0
LINE
  5
434
100
AcDbEntity
  8
KONSTRUKTIONSELEMENTE
100
AcDbLine
 62
7
  6
CONTINUOUS
 10
436.9845668949
 20
208.7269300866
 11
437.0889386628
 21
208.5039686337
  0
LINE
  5
435
100
AcDbEntity
  8
KONSTRUKTIONSELEMENTE
100
AcDbLine
 62
7
  6
CONTINUOUS
 10
436.8462919887
 20
208.9642545654
 11
436.8722762643
 21
208.9234041624
  0
LINE
  5
436
100
AcDbEntity
  8
KONSTRUKTIONSELEMENTE
100
AcDbLine
 62
7
  6
CONTINUOUS
 10
436.8722762643
 20
208.9234041624
 11
436.949588242
 21
208.8016153674
  0
LINE
  5
437
100
AcDbEntity
  8
KONSTRUKTIONSELEMENTE
100
AcDbLine
 62
7
  6
CONTINUOUS
 10
436.8294757198
 20
208.9711423563
 11
436.8462919887
 21
208.9642545654
  0
SPLINE
  5
438
100
AcDbEntity
  8
0
100
AcDbSpline
 62
7
  6
CONTINUOUS
 70
0
 71
3
 72
8
 73
4
 74
0
 42
0.0000001
 43
0.0000001
 44
0.0000000001
 40
0.0
 40
0.0
 40
0.0
 40
0.0
 40
1.0
 40
1.0
 40
1.0
 40
1.0
 10
435.9928210883
 20
201.2483758416
 30
0.0
 10
436.5429791554
 20
200.3112014175
 30
0.0
 10
437.0930073171
 20
199.3739506933
 30
0.0
 10
437.6427879406
 20
198.4365547973
 30
0.0
  0
LINE
  5
439
100
AcDbEntity
  8
0
100
AcDbLine
 62
7
  6
CONTINUOUS
 10
436.7120332478
 20
201.4472006088
 11
436.7121067975
 21
201.3626779364
  0
LINE
  5
43A
100
AcDbEntity
  8
KONSTRUKTIONSELEMENTE
100
AcDbLine
 62
7
  6
CONTINUOUS
 10
438.1673451614
 20
204.1733090708
 11
438.0072592575
 21
204.5681894471
  0
LINE
  5
43B
100
AcDbEntity
  8
KONSTRUKTIONSELEMENTE
100
AcDbLine
 62
7
  6
CONTINUOUS
 10
438.0072592575
 20
204.5681894471
 11
437.8570724142
 21
204.9386066171
  0
LINE
  5
43C
100
AcDbEntity
  8
KONSTRUKTIONSELEMENTE
100
AcDbLine
 62
7
  6
CONTINUOUS
 10
437.8570724142
 20
204.9386066171
 11
437.8322629795
 21
204.9997919551
  0
LINE
  5
43D
100
AcDbEntity
  8
KONSTRUKTIONSELEMENTE
100
AcDbLine
 62
7
  6
CONTINUOUS
 10
437.8322629795
 20
204.9997919551
 11
436.6283824458
 21
207.9676617979
  0
LINE
  5
43E
100
AcDbEntity
  8
KONSTRUKTIONSELEMENTE
100
AcDbLine
 62
7
  6
CONTINUOUS
 10
436.6283824458
 20
207.9676617979
 11
436.5177685721
 21
208.2402567513
  0
LINE
  5
43F
100
AcDbEntity
  8
0
100
AcDbLine
 62
7
  6
CONTINUOUS
 10
437.0919943546
 20
204.5511801865
 11
436.6535504117
 21
205.4764597493
  0
LINE
  5
440
100
AcDbEntity
  8
0
100
AcDbLine
 62
7
  6
CONTINUOUS
 10
436.6535504117
 20
205.4764597493
 11
436.0022126629
 21
206.8508742612
  0
LINE
  5
441
100
AcDbEntity
  8
0
100
AcDbLine
 62
7
  6
CONTINUOUS
 10
437.0919943546
 20
204.5511801865
 11
437.2337512349
 21
204.1947159315
  0
LINE
  5
442
100
AcDbEntity
  8
0
100
AcDbLine
 62
7
  6
CONTINUOUS
 10
437.2337512349
 20
204.1947159315
 11
437.3412570211
 21
203.8527061122
  0
LINE
  5
443
100
AcDbEntity
  8
KONSTRUKTIONSELEMENTE
100
AcDbLine
 62
7
  6
CONTINUOUS
 10
437.7870417162
 20
202.4481073837
 11
437.9307917192
 21
202.2708316336
  0
LINE
  5
444
100
AcDbEntity
  8
KONSTRUKTIONSELEMENTE
100
AcDbLine
 62
7
  6
CONTINUOUS
 10
437.6097334428
 20
202.7592961567
 11
437.7870417162
 21
202.4481073837
  0
LINE
  5
445
100
AcDbEntity
  8
KONSTRUKTIONSELEMENTE
100
AcDbLine
 62
7
  6
CONTINUOUS
 10
437.6097334428
 20
202.7592961567
 11
437.4727868422
 21
203.0486430197
  0
LINE
  5
446
100
AcDbEntity
  8
KONSTRUKTIONSELEMENTE
100
AcDbLine
 62
7
  6
CONTINUOUS
 10
437.4727868422
 20
203.0486430197
 11
436.5210560065
 21
205.0589902314
  0
LINE
  5
447
100
AcDbEntity
  8
0
100
AcDbLine
 62
7
  6
CONTINUOUS
 10
435.9944217048
 20
205.0589902314
 11
436.8044589029
 21
203.347998135
  0
LINE
  5
448
100
AcDbEntity
  8
0
100
AcDbLine
 62
7
  6
CONTINUOUS
 10
436.8044589029
 20
203.347998135
 11
436.8150005914
 21
203.3257275153
  0
LINE
  5
449
100
AcDbEntity
  8
0
100
AcDbLine
 62
7
  6
CONTINUOUS
 10
436.8150005914
 20
203.3257275153
 11
436.8420326382
 21
203.2686184471
  0
LINE
  5
44A
100
AcDbEntity
  8
0
100
AcDbLine
 62
7
  6
CONTINUOUS
 10
436.8420326382
 20
203.2686184471
 11
436.898444811
 21
203.1494371796
  0
LINE
  5
44B
100
AcDbEntity
  8
0
100
AcDbLine
 62
7
  6
CONTINUOUS
 10
437.2604074146
 20
202.4481073837
 11
437.2162212336
 21
202.5256631135
  0
LINE
  5
44C
100
AcDbEntity
  8
0
100
AcDbLine
 62
7
  6
CONTINUOUS
 10
437.2162212336
 20
202.5256631135
 11
437.1692103265
 21
202.6081725331
  0
LINE
  5
44D
100
AcDbEntity
  8
KONSTRUKTIONSELEMENTE
100
AcDbLine
 62
7
  6
CONTINUOUS
 10
437.9405394692
 20
202.8083967912
 11
437.9591626363
 21
202.8907703606
  0
LINE
  5
44E
100
AcDbEntity
  8
KONSTRUKTIONSELEMENTE
100
AcDbLine
 62
7
  6
CONTINUOUS
 10
437.9591626363
 20
202.8907703606
 11
437.9773729859
 21
202.9731307415
  0
LINE
  5
44F
100
AcDbEntity
  8
0
100
AcDbLine
 62
7
  6
CONTINUOUS
 10
437.4041574176
 20
202.2708316336
 11
437.3944356102
 21
202.2828322814
  0
LINE
  5
450
100
AcDbEntity
  8
0
100
AcDbLine
 62
7
  6
CONTINUOUS
 10
437.3944356102
 20
202.2828322814
 11
437.2965539267
 21
202.4035645066
  0
LINE
  5
451
100
AcDbEntity
  8
0
100
AcDbLine
 62
7
  6
CONTINUOUS
 10
437.2965539267
 20
202.4035645066
 11
437.2604074146
 21
202.4481073837
  0
LINE
  5
452
100
AcDbEntity
  8
KONSTRUKTIONSELEMENTE
100
AcDbLine
 62
7
  6
CONTINUOUS
 10
437.8678913228
 20
203.8527061122
 11
437.7603855366
 21
204.1947159315
  0
LINE
  5
453
100
AcDbEntity
  8
KONSTRUKTIONSELEMENTE
100
AcDbLine
 62
7
  6
CONTINUOUS
 10
437.7603855366
 20
204.1947159315
 11
437.6541859201
 21
204.4617818066
  0
LINE
  5
454
100
AcDbEntity
  8
KONSTRUKTIONSELEMENTE
100
AcDbLine
 62
7
  6
CONTINUOUS
 10
437.6541859201
 20
204.4617818066
 11
437.6186286563
 21
204.5511801865
  0
LINE
  5
455
100
AcDbEntity
  8
KONSTRUKTIONSELEMENTE
100
AcDbLine
 62
7
  6
CONTINUOUS
 10
436.5288469646
 20
206.8508742612
 11
437.4783224422
 21
204.8472883359
  0
LINE
  5
456
100
AcDbEntity
  8
KONSTRUKTIONSELEMENTE
100
AcDbLine
 62
7
  6
CONTINUOUS
 10
437.4783224422
 20
204.8472883359
 11
437.6186286563
 21
204.5511801865
  0
LINE
  5
457
100
AcDbEntity
  8
KONSTRUKTIONSELEMENTE
100
AcDbLine
 62
7
  6
CONTINUOUS
 10
437.1997594552
 20
202.0410913181
 11
437.127567324
 21
202.2985582709
  0
LINE
  5
458
100
AcDbEntity
  8
KONSTRUKTIONSELEMENTE
100
AcDbLine
 62
7
  6
CONTINUOUS
 10
437.127567324
 20
202.2985582709
 11
437.0210353663
 21
202.5469435938
  0
LINE
  5
459
100
AcDbEntity
  8
KONSTRUKTIONSELEMENTE
100
AcDbLine
 62
7
  6
CONTINUOUS
 10
436.9155700166
 20
202.726421679
 11
437.0210353663
 21
202.5469435938
  0
LINE
  5
45A
100
AcDbEntity
  8
KONSTRUKTIONSELEMENTE
100
AcDbLine
 62
7
  6
CONTINUOUS
 10
436.8111317094
 20
202.8369921913
 11
436.8373332958
 21
202.8092638189
  0
LINE
  5
45B
100
AcDbEntity
  8
KONSTRUKTIONSELEMENTE
100
AcDbLine
 62
7
  6
CONTINUOUS
 10
436.8373332958
 20
202.8092638189
 11
436.9155700166
 21
202.726421679
  0
LINE
  5
45C
100
AcDbEntity
  8
0
100
AcDbLine
 62
7
  6
CONTINUOUS
 10
435.9911342704
 20
208.2402567513
 11
436.4094655927
 21
207.2092520942
  0
LINE
  5
45D
100
AcDbEntity
  8
KONSTRUKTIONSELEMENTE
100
AcDbLine
 62
7
  6
CONTINUOUS
 10
438.1694222422
 20
198.4365547973
 11
437.9916163319
 21
198.7397003677
  0
LINE
  5
45E
100
AcDbEntity
  8
KONSTRUKTIONSELEMENTE
100
AcDbLine
 62
7
  6
CONTINUOUS
 10
437.9916163319
 20
198.7397003677
 11
437.2543009972
 21
199.9963887235
  0
LINE
  5
45F
100
AcDbEntity
  8
KONSTRUKTIONSELEMENTE
100
AcDbLine
 62
7
  6
CONTINUOUS
 10
437.2543009972
 20
199.9963887235
 11
437.0435892782
 21
200.355431465
  0
LINE
  5
460
100
AcDbEntity
  8
KONSTRUKTIONSELEMENTE
100
AcDbLine
 62
7
  6
CONTINUOUS
 10
437.0435892782
 20
200.355431465
 11
436.51945539
 21
201.2483758416
  0
SPLINE
  5
461
100
AcDbEntity
  8
BEZUGSACHSEN
100
AcDbSpline
 62
7
  6
CONTINUOUS
 70
0
 71
3
 72
9
 73
5
 74
0
 42
0.0000001
 43
0.0000001
 44
0.0000000001
 40
0.0
 40
0.0
 40
0.0
 40
0.0
 40
0.2478797211
 40
1.0
 40
1.0
 40
1.0
 40
1.0
 10
428.5345665955
 20
159.2948078954
 30
0.0
 10
428.4893958125
 20
159.2346561536
 30
0.0
 10
428.3067817242
 20
158.9922804339
 30
0.0
 10
428.1230811914
 20
158.7507263844
 30
0.0
 10
427.9849261412
 20
158.5690422086
 30
0.0
  0
SPLINE
  5
462
100
AcDbEntity
  8
RUNDUNGEN
100
AcDbSpline
 62
7
  6
CONTINUOUS
 70
0
 71
3
 72
9
 73
5
 74
0
 42
0.0000001
 43
0.0000001
 44
0.0000000001
 40
0.0
 40
0.0
 40
0.0
 40
0.0
 40
0.2478797211
 40
1.0
 40
1.0
 40
1.0
 40
1.0
 10
435.8652795857
 20
159.2948078954
 30
0.0
 10
435.9104503686
 20
159.2346561536
 30
0.0
 10
436.0930644569
 20
158.9922804339
 30
0.0
 10
436.2767649897
 20
158.7507263844
 30
0.0
 10
436.4149200399
 20
158.5690422086
 30
0.0
  0
LINE
  5
463
100
AcDbEntity
  8
0
100
AcDbLine
 62
7
  6
CONTINUOUS
 10
437.089423573
 20
207.2060066415
 11
436.8270459024
 21
207.8521027393
  0
LINE
  5
464
100
AcDbEntity
  8
0
100
AcDbLine
 62
7
  6
CONTINUOUS
 10
436.8270459024
 20
207.8521027393
 11
436.7387238581
 21
208.0695811691
  0
LINE
  5
465
100
AcDbEntity
  8
0
100
AcDbLine
 62
7
  6
CONTINUOUS
 10
437.089423573
 20
207.2060066415
 11
437.2313335597
 21
206.811407044
  0
SPLINE
  5
466
100
AcDbEntity
  8
BEZUGSACHSEN
100
AcDbSpline
 62
7
  6
CONTINUOUS
 70
0
 71
3
 72
11
 73
7
 74
0
 42
0.0000001
 43
0.0000001
 44
0.0000000001
 40
0.0
 40
0.0
 40
0.0
 40
0.0
 40
0.2530704919
 40
0.5000000005
 40
0.7469295092
 40
1.0
 40
1.0
 40
1.0
 40
1.0
 10
429.9725614773
 20
218.9359674596
 30
0.0
 10
429.811541466
 20
218.4490881552
 30
0.0
 10
429.5564978458
 20
217.4639807653
 30
0.0
 10
429.4216519198
 20
215.9488976452
 30
0.0
 10
429.5564978416
 20
214.4338145261
 30
0.0
 10
429.8115414667
 20
213.4487071394
 30
0.0
 10
429.9725614773
 20
212.961827837
 30
0.0
  0
SPLINE
  5
467
100
AcDbEntity
  8
0
100
AcDbSpline
 62
7
  6
CONTINUOUS
 70
0
 71
3
 72
11
 73
7
 74
0
 42
0.0000001
 43
0.0000001
 44
0.0000000001
 40
0.0
 40
0.0
 40
0.0
 40
0.0
 40
0.2530704919
 40
0.5000000005
 40
0.7469295092
 40
1.0
 40
1.0
 40
1.0
 40
1.0
 10
434.4272847038
 20
218.9359674596
 30
0.0
 10
434.5883047151
 20
218.4490881552
 30
0.0
 10
434.8433483353
 20
217.4639807653
 30
0.0
 10
434.9781942613
 20
215.9488976452
 30
0.0
 10
434.8433483395
 20
214.4338145261
 30
0.0
 10
434.5883047144
 20
213.4487071394
 30
0.0
 10
434.4272847038
 20
212.961827837
 30
0.0
  0
SPLINE
  5
468
100
AcDbEntity
  8
BEZUGSACHSEN
100
AcDbSpline
 62
7
  6
CONTINUOUS
 70
0
 71
3
 72
11
 73
7
 74
0
 42
0.0000001
 43
0.0000001
 44
0.0000000001
 40
0.0
 40
0.0
 40
0.0
 40
0.0
 40
0.2501778167
 40
0.5000000005
 40
0.7498221845
 40
1.0
 40
1.0
 40
1.0
 40
1.0
 10
429.9725614773
 20
212.961827837
 30
0.0
 10
429.8086727594
 20
211.6644520149
 30
0.0
 10
429.5539470604
 20
209.0615282567
 30
0.0
 10
429.4224041801
 20
205.1415775354
 30
0.0
 10
429.5539470561
 20
201.2216268198
 30
0.0
 10
429.8086727601
 20
198.6187030676
 30
0.0
 10
429.9725614773
 20
197.3213272515
 30
0.0
  0
SPLINE
  5
469
100
AcDbEntity
  8
BEZUGSACHSEN
100
AcDbSpline
 62
7
  6
CONTINUOUS
 70
0
 71
3
 72
9
 73
5
 74
0
 42
0.0000001
 43
0.0000001
 44
0.0000000001
 40
0.0
 40
0.0
 40
0.0
 40
0.0
 40
0.5000059437
 40
1.0
 40
1.0
 40
1.0
 40
1.0
 10
429.9725614773
 20
197.3213272515
 30
0.0
 10
429.7195995266
 20
194.8461044365
 30
0.0
 10
429.3895679227
 20
189.875202782
 30
0.0
 10
429.4753608213
 20
184.8932020073
 30
0.0
 10
429.6180115386
 20
182.4092386125
 30
0.0
  0
SPLINE
  5
46A
100
AcDbEntity
  8
KONSTRUKTIONSELEMENTE
100
AcDbSpline
 62
7
  6
CONTINUOUS
 70
0
 71
3
 72
13
 73
9
 74
0
 42
0.0000001
 43
0.0000001
 44
0.0000000001
 40
0.0
 40
0.0
 40
0.0
 40
0.0
 40
0.1197290731
 40
0.2397365246
 40
0.3609040964
 40
0.4836831257
 40
0.7359942557
 40
1.0
 40
1.0
 40
1.0
 40
1.0
 10
120.0947852494
 20
132.6925025012
 30
0.0
 10
120.0947852494
 20
132.3432887991
 30
0.0
 10
120.1668888712
 20
131.641947763
 30
0.0
 10
120.485174206
 20
130.6317295149
 30
0.0
 10
120.9945577476
 20
129.6931512962
 30
0.0
 10
121.9063582762
 20
128.5603767896
 30
0.0
 10
123.4222495418
 20
127.4232333735
 30
0.0
 10
124.8451363918
 20
126.8766876495
 30
0.0
 10
125.5913609135
 20
126.6867191589
 30
0.0
  0
SPLINE
  5
46B
100
AcDbEntity
  8
KONSTRUKTIONSELEMENTE
100
AcDbSpline
 62
7
  6
CONTINUOUS
 70
0
 71
3
 72
13
 73
9
 74
0
 42
0.0000001
 43
0.0000001
 44
0.0000000001
 40
0.0
 40
0.0
 40
0.0
 40
0.0
 40
0.2640112835
 40
0.5163080567
 40
0.6390830379
 40
0.7602378991
 40
0.8802701562
 40
1.0
 40
1.0
 40
1.0
 40
1.0
 10
130.5991130519
 20
126.6869663485
 30
0.0
 10
131.3452528742
 20
126.8770009498
 30
0.0
 10
132.7679293156
 20
127.423567581
 30
0.0
 10
134.2835193827
 20
128.5607129219
 30
0.0
 10
135.1951096602
 20
129.6933284305
 30
0.0
 10
135.704500576
 20
130.6318057171
 30
0.0
 10
136.0226372951
 20
131.6419938202
 30
0.0
 10
136.0947852494
 20
132.3433237037
 30
0.0
 10
136.0947852494
 20
132.6925025012
 30
0.0
  0
SPLINE
  5
46C
100
AcDbEntity
  8
KONSTRUKTIONSELEMENTE
100
AcDbSpline
 62
7
  6
CONTINUOUS
 70
0
 71
3
 72
12
 73
8
 74
0
 42
0.0000001
 43
0.0000001
 44
0.0000000001
 40
0.0
 40
0.0
 40
0.0
 40
0.0
 40
0.1282453638
 40
0.2146169864
 40
0.321985829
 40
0.6101725692
 40
1.0
 40
1.0
 40
1.0
 40
1.0
 10
124.5947852494
 20
132.6925025012
 30
0.0
 10
124.5947852494
 20
132.6232394913
 30
0.0
 10
124.6144482351
 20
132.5066956417
 30
0.0
 10
124.6811381288
 20
132.3456721178
 30
0.0
 10
124.8123030196
 20
132.1198609438
 30
0.0
 10
125.10359748
 20
131.8048865004
 30
0.0
 10
125.4058948834
 20
131.5935192583
 30
0.0
 10
125.5884311844
 20
131.4886046619
 30
0.0
  0
SPLINE
  5
46D
100
AcDbEntity
  8
KONSTRUKTIONSELEMENTE
100
AcDbSpline
 62
7
  6
CONTINUOUS
 70
0
 71
3
 72
12
 73
8
 74
0
 42
0.0000001
 43
0.0000001
 44
0.0000000001
 40
0.0
 40
0.0
 40
0.0
 40
0.0
 40
0.3898396094
 40
0.6780156338
 40
0.7853729626
 40
0.8717632718
 40
1.0
 40
1.0
 40
1.0
 40
1.0
 10
130.6012308505
 20
131.488657133
 30
0.0
 10
130.783758094
 20
131.5935725425
 30
0.0
 10
131.0860058576
 20
131.8049618803
 30
0.0
 10
131.3773108338
 20
132.1198797978
 30
0.0
 10
131.5084489921
 20
132.3456882598
 30
0.0
 10
131.5750947992
 20
132.5067139942
 30
0.0
 10
131.5947852494
 20
132.6232487688
 30
0.0
 10
131.5947852494
 20
132.6925025012
 30
0.0
  0
SPLINE
  5
46E
100
AcDbEntity
  8
KONSTRUKTIONSELEMENTE
100
AcDbSpline
 62
7
  6
CONTINUOUS
 70
0
 71
3
 72
9
 73
5
 74
0
 42
0.0000001
 43
0.0000001
 44
0.0000000001
 40
0.0
 40
0.0
 40
0.0
 40
0.0
 40
0.4169639809
 40
1.0
 40
1.0
 40
1.0
 40
1.0
 10
131.4548894194
 20
174.848533796
 30
0.0
 10
131.3715906701
 20
174.9859712584
 30
0.0
 10
131.1135424384
 20
175.2796151682
 30
0.0
 10
130.7959699255
 20
175.5037195542
 30
0.0
 10
130.6011393144
 20
175.6157004304
 30
0.0
  0
SPLINE
  5
46F
100
AcDbEntity
  8
KONSTRUKTIONSELEMENTE
100
AcDbSpline
 62
7
  6
CONTINUOUS
 70
0
 71
3
 72
9
 73
5
 74
0
 42
0.0000001
 43
0.0000001
 44
0.0000000001
 40
0.0
 40
0.0
 40
0.0
 40
0.0
 40
0.5830412526
 40
1.0
 40
1.0
 40
1.0
 40
1.0
 10
125.5883396483
 20
175.6156479593
 30
0.0
 10
125.39354431
 20
175.5036809329
 30
0.0
 10
125.0760598043
 20
175.2795828028
 30
0.0
 10
124.818006876
 20
174.9860352591
 30
0.0
 10
124.7347201358
 20
174.8486259085
 30
0.0
  0
SPLINE
  5
470
100
AcDbEntity
  8
KONSTRUKTIONSELEMENTE
100
AcDbSpline
 62
7
  6
CONTINUOUS
 70
0
 71
3
 72
11
 73
7
 74
0
 42
0.0000001
 43
0.0000001
 44
0.0000000001
 40
0.0
 40
0.0
 40
0.0
 40
0.0
 40
0.2394460057
 40
0.4849119324
 40
0.7384038291
 40
1.0
 40
1.0
 40
1.0
 40
1.0
 10
135.5584597791
 20
176.7117442186
 30
0.0
 10
135.3364661883
 20
177.1697384494
 30
0.0
 10
134.7569202415
 20
178.038667268
 30
0.0
 10
133.586000269
 20
179.103098136
 30
0.0
 10
132.1776551797
 20
179.9182354206
 30
0.0
 10
131.1370641635
 20
180.2804081968
 30
0.0
 10
130.5982095853
 20
180.4175859334
 30
0.0
  0
SPLINE
  5
471
100
AcDbEntity
  8
KONSTRUKTIONSELEMENTE
100
AcDbSpline
 62
7
  6
CONTINUOUS
 70
0
 71
3
 72
11
 73
7
 74
0
 42
0.0000001
 43
0.0000001
 44
0.0000000001
 40
0.0
 40
0.0
 40
0.0
 40
0.0
 40
0.2616159151
 40
0.5151107319
 40
0.760568341
 40
1.0
 40
1.0
 40
1.0
 40
1.0
 10
125.5904574469
 20
180.4173387439
 30
0.0
 10
125.0516274862
 20
180.2801039607
 30
0.0
 10
124.0111200516
 20
179.9178676455
 30
0.0
 10
122.6029410047
 20
179.1026596968
 30
0.0
 10
121.4323442137
 20
178.0381796292
 30
0.0
 10
120.8528347075
 20
177.1694041815
 30
0.0
 10
120.6309166316
 20
176.711459868
 30
0.0
  0
SPLINE
  5
472
100
AcDbEntity
  8
KONSTRUKTIONSELEMENTE
100
AcDbSpline
 62
7
  6
CONTINUOUS
 70
0
 71
3
 72
9
 73
5
 74
0
 42
0.0000001
 43
0.0000001
 44
0.0000000001
 40
0.0
 40
0.0
 40
0.0
 40
0.0
 40
0.4911712991
 40
1.0
 40
1.0
 40
1.0
 40
1.0
 10
122.4850340265
 20
159.2738413039
 30
0.0
 10
122.9663721761
 20
158.9029834126
 30
0.0
 10
124.0430744822
 20
158.2686998391
 30
0.0
 10
125.2267788509
 20
157.8786467263
 30
0.0
 10
125.8406729289
 20
157.7394347527
 30
0.0
  0
SPLINE
  5
473
100
AcDbEntity
  8
KONSTRUKTIONSELEMENTE
100
AcDbSpline
 62
7
  6
CONTINUOUS
 70
0
 71
3
 72
9
 73
5
 74
0
 42
0.0000001
 43
0.0000001
 44
0.0000000001
 40
0.0
 40
0.0
 40
0.0
 40
0.0
 40
0.508836701
 40
1.0
 40
1.0
 40
1.0
 40
1.0
 10
130.3469560282
 20
157.7390035404
 30
0.0
 10
130.9604714014
 20
157.8780274471
 30
0.0
 10
132.1434855813
 20
158.2674490335
 30
0.0
 10
133.2197502996
 20
158.9007882477
 30
0.0
 10
133.7009818264
 20
159.2711025976
 30
0.0
  0
SPLINE
  5
474
100
AcDbEntity
  8
KONSTRUKTIONSELEMENTE
100
AcDbSpline
 62
7
  6
CONTINUOUS
 70
0
 71
3
 72
11
 73
7
 74
0
 42
0.0000001
 43
0.0000001
 44
0.0000000001
 40
0.0
 40
0.0
 40
0.0
 40
0.0
 40
0.3114703232
 40
0.4450990083
 40
0.6063354134
 40
1.0
 40
1.0
 40
1.0
 40
1.0
 10
124.5947852494
 20
163.8052008734
 30
0.0
 10
124.5947852494
 20
163.6080460269
 30
0.0
 10
124.733495785
 20
163.3329511399
 30
0.0
 10
124.9848636315
 20
163.0465991456
 30
0.0
 10
125.3132323059
 20
162.7568191393
 30
0.0
 10
125.6180343878
 20
162.575436709
 30
0.0
 10
125.8427933611
 20
162.467848578
 30
0.0
  0
SPLINE
  5
475
100
AcDbEntity
  8
KONSTRUKTIONSELEMENTE
100
AcDbSpline
 62
7
  6
CONTINUOUS
 70
0
 71
3
 72
11
 73
7
 74
0
 42
0.0000001
 43
0.0000001
 44
0.0000000001
 40
0.0
 40
0.0
 40
0.0
 40
0.0
 40
0.3936803283
 40
0.5549226436
 40
0.6885473432
 40
1.0
 40
1.0
 40
1.0
 40
1.0
 10
130.3465344849
 20
162.46773665
 30
0.0
 10
130.5713423909
 20
162.5753265506
 30
0.0
 10
130.8762092995
 20
162.7567296683
 30
0.0
 10
131.2046370995
 20
163.0465489395
 30
0.0
 10
131.4560804762
 20
163.3328940858
 30
0.0
 10
131.5947852494
 20
163.6080295695
 30
0.0
 10
131.5947852494
 20
163.8052008734
 30
0.0
  0
SPLINE
  5
476
100
AcDbEntity
  8
KONSTRUKTIONSELEMENTE
100
AcDbSpline
 62
7
  6
CONTINUOUS
 70
0
 71
3
 72
9
 73
5
 74
0
 42
0.0000001
 43
0.0000001
 44
0.0000000001
 40
0.0
 40
0.0
 40
0.0
 40
0.0
 40
0.239500083
 40
1.0
 40
1.0
 40
1.0
 40
1.0
 10
115.453086899
 20
191.6282815505
 30
0.0
 10
115.7459522807
 20
191.4252925658
 30
0.0
 10
116.9968154192
 20
190.6184715095
 30
0.0
 10
118.3494791517
 20
189.9734391609
 30
0.0
 10
119.4061692909
 20
189.5688612301
 30
0.0
  0
SPLINE
  5
477
100
AcDbEntity
  8
KONSTRUKTIONSELEMENTE
100
AcDbSpline
 62
7
  6
CONTINUOUS
 70
0
 71
3
 72
9
 73
5
 74
0
 42
0.0000001
 43
0.0000001
 44
0.0000000001
 40
0.0
 40
0.0
 40
0.0
 40
0.0
 40
0.2603874652
 40
1.0
 40
1.0
 40
1.0
 40
1.0
 10
136.7799371987
 20
189.567534345
 30
0.0
 10
137.1421430558
 20
189.7061496417
 30
0.0
 10
138.5180282241
 20
190.2764639844
 30
0.0
 10
139.8322103696
 20
191.0014228684
 30
0.0
 10
140.7375417446
 20
191.6290119194
 30
0.0
  0
SPLINE
  5
478
100
AcDbEntity
  8
KONSTRUKTIONSELEMENTE
100
AcDbSpline
 62
7
  6
CONTINUOUS
 70
0
 71
3
 72
9
 73
5
 74
0
 42
0.0000001
 43
0.0000001
 44
0.0000000001
 40
0.0
 40
0.0
 40
0.0
 40
0.0
 40
0.4914545022
 40
1.0
 40
1.0
 40
1.0
 40
1.0
 10
115.1412944861
 20
184.8846030251
 30
0.0
 10
116.7401872245
 20
184.1048706582
 30
0.0
 10
120.1663229444
 20
182.8581691863
 30
0.0
 10
123.7577132846
 20
182.2609444031
 30
0.0
 10
125.5927910674
 20
182.1165402841
 30
0.0
  0
SPLINE
  5
479
100
AcDbEntity
  8
KONSTRUKTIONSELEMENTE
100
AcDbSpline
 62
7
  6
CONTINUOUS
 70
0
 71
3
 72
9
 73
5
 74
0
 42
0.0000001
 43
0.0000001
 44
0.0000000001
 40
0.0
 40
0.0
 40
0.0
 40
0.0
 40
0.5085455489
 40
1.0
 40
1.0
 40
1.0
 40
1.0
 10
130.5961058996
 20
182.1164799515
 30
0.0
 10
132.4309691469
 20
182.2608161218
 30
0.0
 10
136.0219469427
 20
182.8578741521
 30
0.0
 10
139.4477248801
 20
184.1042438295
 30
0.0
 10
141.0464986401
 20
184.8837360351
 30
0.0
  0
SPLINE
  5
47A
100
AcDbEntity
  8
BEZUGSACHSEN
100
AcDbSpline
 62
7
  6
CONTINUOUS
 70
0
 71
3
 72
9
 73
5
 74
0
 42
0.0000001
 43
0.0000001
 44
0.0000000001
 40
0.0
 40
0.0
 40
0.0
 40
0.0
 40
0.4740637035
 40
1.0
 40
1.0
 40
1.0
 40
1.0
 10
132.9924009003
 20
117.4878376117
 30
0.0
 10
132.7146146253
 20
117.1035514025
 30
0.0
 10
131.9683784797
 20
116.4055304446
 30
0.0
 10
131.0597658483
 20
115.9585148932
 30
0.0
 10
130.5640710755
 20
115.7823769953
 30
0.0
  0
SPLINE
  5
47B
100
AcDbEntity
  8
BEZUGSACHSEN
100
AcDbSpline
 62
7
  6
CONTINUOUS
 70
0
 71
3
 72
9
 73
5
 74
0
 42
0.0000001
 43
0.0000001
 44
0.0000000001
 40
0.0
 40
0.0
 40
0.0
 40
0.0
 40
0.5259362965
 40
1.0
 40
1.0
 40
1.0
 40
1.0
 10
125.6254994233
 20
115.7823769953
 30
0.0
 10
125.1298046505
 20
115.9585148932
 30
0.0
 10
124.2211920192
 20
116.4055304446
 30
0.0
 10
123.4749558735
 20
117.1035514025
 30
0.0
 10
123.1971695985
 20
117.4878376117
 30
0.0
  0
SPLINE
  5
47C
100
AcDbEntity
  8
KONSTRUKTIONSELEMENTE
100
AcDbSpline
 62
7
  6
CONTINUOUS
 70
0
 71
3
 72
13
 73
9
 74
0
 42
0.0000001
 43
0.0000001
 44
0.0000000001
 40
0.0
 40
0.0
 40
0.0
 40
0.0
 40
0.1035698708
 40
0.2118852886
 40
0.327021228
 40
0.4498249804
 40
0.7159005812
 40
1.0
 40
1.0
 40
1.0
 40
1.0
 10
123.5253041325
 20
64.3817019659
 30
0.0
 10
123.5008507352
 20
64.5563846129
 30
0.0
 10
123.4032634649
 20
64.9085290914
 30
0.0
 10
123.1269188435
 20
65.3974275979
 30
0.0
 10
122.7306930493
 20
65.839746548
 30
0.0
 10
122.0441889832
 20
66.3620635686
 30
0.0
 10
120.9698288402
 20
66.8125338899
 30
0.0
 10
120.0286242211
 20
66.9315718508
 30
0.0
 10
119.5447852494
 20
66.9315718508
 30
0.0
  0
SPLINE
  5
47D
100
AcDbEntity
  8
KONSTRUKTIONSELEMENTE
100
AcDbSpline
 62
7
  6
CONTINUOUS
 70
0
 71
3
 72
9
 73
5
 74
0
 42
0.0000001
 43
0.0000001
 44
0.0000000001
 40
0.0
 40
0.0
 40
0.0
 40
0.0
 40
0.4892987036
 40
1.0
 40
1.0
 40
1.0
 40
1.0
 10
102.4944006001
 20
100.2416644133
 30
0.0
 10
102.4944219289
 20
100.3191551742
 30
0.0
 10
102.4692451733
 20
100.4784078229
 30
0.0
 10
102.3983904313
 20
100.6226348068
 30
0.0
 10
102.3538636057
 20
100.6901550796
 30
0.0
  0
SPLINE
  5
47E
100
AcDbEntity
  8
KONSTRUKTIONSELEMENTE
100
AcDbSpline
 62
7
  6
CONTINUOUS
 70
0
 71
3
 72
11
 73
7
 74
0
 42
0.0000001
 43
0.0000001
 44
0.0000000001
 40
0.0
 40
0.0
 40
0.0
 40
0.0
 40
0.2200436456
 40
0.4557793627
 40
0.7157728079
 40
1.0
 40
1.0
 40
1.0
 40
1.0
 10
95.3854825768
 20
101.2890799693
 30
0.0
 10
95.3855103506
 20
101.3899865497
 30
0.0
 10
95.4298249106
 20
101.6008888478
 30
0.0
 10
95.6151786189
 20
101.879320264
 30
0.0
 10
95.8978072866
 20
102.1057953435
 30
0.0
 10
96.1277696973
 20
102.2093129683
 30
0.0
 10
96.2515538591
 20
102.2501282342
 30
0.0
  0
SPLINE
  5
47F
100
AcDbEntity
  8
KONSTRUKTIONSELEMENTE
100
AcDbSpline
 62
7
  6
CONTINUOUS
 70
0
 71
3
 72
12
 73
8
 74
0
 42
0.0000001
 43
0.0000001
 44
0.0000000001
 40
0.0
 40
0.0
 40
0.0
 40
0.0
 40
0.1093790685
 40
0.2208897874
 40
0.4563550533
 40
0.7160756008
 40
1.0
 40
1.0
 40
1.0
 40
1.0
 10
88.7394300161
 20
112.2691270362
 30
0.0
 10
88.7394481255
 20
112.4365289555
 30
0.0
 10
88.7738203234
 20
112.7755655185
 30
0.0
 10
88.9806485741
 20
113.4467393443
 30
0.0
 10
89.5047069578
 20
114.2381370366
 30
0.0
 10
90.446997357
 20
114.9918403568
 30
0.0
 10
91.2136401076
 20
115.3373346745
 30
0.0
 10
91.6263241846
 20
115.4734087093
 30
0.0
  0
SPLINE
  5
480
100
AcDbEntity
  8
KONSTRUKTIONSELEMENTE
100
AcDbSpline
 62
7
  6
CONTINUOUS
 70
0
 71
3
 72
9
 73
5
 74
0
 42
0.0000001
 43
0.0000001
 44
0.0000000001
 40
0.0
 40
0.0
 40
0.0
 40
0.0
 40
0.4891681133
 40
1.0
 40
1.0
 40
1.0
 40
1.0
 10
88.7394302163
 20
108.7334748307
 30
0.0
 10
88.7394151464
 20
108.4753843716
 30
0.0
 10
88.8233261086
 20
107.9448427085
 30
0.0
 10
89.05949815
 20
107.4644120328
 30
0.0
 10
89.2078765581
 20
107.2394116994
 30
0.0
  0
SPLINE
  5
481
100
AcDbEntity
  8
KONSTRUKTIONSELEMENTE
100
AcDbSpline
 62
7
  6
CONTINUOUS
 70
0
 71
3
 72
9
 73
5
 74
0
 42
0.0000001
 43
0.0000001
 44
0.0000000001
 40
0.0
 40
0.0
 40
0.0
 40
0.0
 40
0.4891683995
 40
1.0
 40
1.0
 40
1.0
 40
1.0
 10
146.2275708352
 20
74.9841239299
 30
0.0
 10
146.2275429132
 20
75.2422336172
 30
0.0
 10
146.3114428228
 20
75.7728190059
 30
0.0
 10
146.5476280839
 20
76.2532885212
 30
0.0
 10
146.6960173772
 20
76.4783053607
 30
0.0
  0
SPLINE
  5
482
100
AcDbEntity
  8
KONSTRUKTIONSELEMENTE
100
AcDbSpline
 62
7
  6
CONTINUOUS
 70
0
 71
3
 72
9
 73
5
 74
0
 42
0.0000001
 43
0.0000001
 44
0.0000000001
 40
0.0
 40
0.0
 40
0.0
 40
0.0
 40
0.4753722117
 40
1.0
 40
1.0
 40
1.0
 40
1.0
 10
146.8840789953
 20
76.7683488057
 30
0.0
 10
147.1515187303
 20
76.436666566
 30
0.0
 10
147.8441938642
 20
75.8409883802
 30
0.0
 10
148.6678955616
 20
75.4626231955
 30
0.0
 10
149.1144650036
 20
75.3153761627
 30
0.0
  0
SPLINE
  5
483
100
AcDbEntity
  8
KONSTRUKTIONSELEMENTE
100
AcDbSpline
 62
7
  6
CONTINUOUS
 70
0
 71
3
 72
12
 73
8
 74
0
 42
0.0000001
 43
0.0000001
 44
0.0000000001
 40
0.0
 40
0.0
 40
0.0
 40
0.0
 40
0.1035616361
 40
0.2109621259
 40
0.4456948874
 40
0.7125484092
 40
1.0
 40
1.0
 40
1.0
 40
1.0
 10
121.5447852494
 20
54.2036497895
 30
0.0
 10
121.5447852494
 20
54.1340306317
 30
0.0
 10
121.5650560601
 20
53.9914966123
 30
0.0
 10
121.6861743467
 20
53.714054024
 30
0.0
 10
121.9855593851
 20
53.4145628145
 30
0.0
 10
122.4765810421
 20
53.193816392
 30
0.0
 10
122.8515463398
 20
53.1429896177
 30
0.0
 10
123.0447852494
 20
53.1429896177
 30
0.0
  0
SPLINE
  5
484
100
AcDbEntity
  8
KONSTRUKTIONSELEMENTE
100
AcDbSpline
 62
7
  6
CONTINUOUS
 70
0
 71
3
 72
11
 73
7
 74
0
 42
0.0000001
 43
0.0000001
 44
0.0000000001
 40
0.0
 40
0.0
 40
0.0
 40
0.0
 40
0.2200606194
 40
0.4557771489
 40
0.7157721538
 40
1.0
 40
1.0
 40
1.0
 40
1.0
 10
155.2941548824
 20
73.0524695001
 30
0.0
 10
155.2941568571
 20
73.0861164939
 30
0.0
 10
155.2794228888
 20
73.1564443742
 30
0.0
 10
155.2176381886
 20
73.2492958159
 30
0.0
 10
155.1234110162
 20
73.3248120311
 30
0.0
 10
155.0467379832
 20
73.3593319031
 30
0.0
 10
155.0054656194
 20
73.372940611
 30
0.0
  0
SPLINE
  5
485
100
AcDbEntity
  8
BEZUGSACHSEN
100
AcDbSpline
 62
7
  6
CONTINUOUS
 70
0
 71
3
 72
9
 73
5
 74
0
 42
0.0000001
 43
0.0000001
 44
0.0000000001
 40
0.0
 40
0.0
 40
0.0
 40
0.0
 40
0.2459387646
 40
1.0
 40
1.0
 40
1.0
 40
1.0
 10
134.8566774373
 20
125.2685350844
 30
0.0
 10
134.5169815707
 20
125.3805427671
 30
0.0
 10
133.1234779647
 20
125.798111381
 30
0.0
 10
131.6862361012
 20
126.0674158161
 30
0.0
 10
130.5963593988
 20
126.1894091003
 30
0.0
  0
SPLINE
  5
486
100
AcDbEntity
  8
BEZUGSACHSEN
100
AcDbSpline
 62
7
  6
CONTINUOUS
 70
0
 71
3
 72
9
 73
5
 74
0
 42
0.0000001
 43
0.0000001
 44
0.0000000001
 40
0.0
 40
0.0
 40
0.0
 40
0.0
 40
0.2536983179
 40
1.0
 40
1.0
 40
1.0
 40
1.0
 10
125.5932111
 20
126.1894091003
 30
0.0
 10
125.2265369476
 20
126.1483661236
 30
0.0
 10
123.785560633
 20
125.9506743189
 30
0.0
 10
122.3636817668
 20
125.60841633
 30
0.0
 10
121.3328930616
 20
125.2685350844
 30
0.0
  0
SPLINE
  5
487
100
AcDbEntity
  8
BEZUGSACHSEN
100
AcDbSpline
 62
7
  6
CONTINUOUS
 70
0
 71
3
 72
12
 73
8
 74
0
 42
0.0000001
 43
0.0000001
 44
0.0000000001
 40
0.0
 40
0.0
 40
0.0
 40
0.0
 40
0.1099224887
 40
0.2219656053
 40
0.4577506408
 40
0.7169309965
 40
1.0
 40
1.0
 40
1.0
 40
1.0
 10
122.5947852494
 20
115.7219397527
 30
0.0
 10
122.5947852494
 20
115.9001287287
 30
0.0
 10
122.6303553646
 20
116.2608933588
 30
0.0
 10
122.8429778505
 20
116.9758317738
 30
0.0
 10
123.3833161695
 20
117.8230850697
 30
0.0
 10
124.3608180657
 20
118.6429653111
 30
0.0
 10
125.1605888457
 20
119.0291226644
 30
0.0
 10
125.5921390336
 20
119.185081428
 30
0.0
  0
SPLINE
  5
488
100
AcDbEntity
  8
BEZUGSACHSEN
100
AcDbSpline
 62
7
  6
CONTINUOUS
 70
0
 71
3
 72
12
 73
8
 74
0
 42
0.0000001
 43
0.0000001
 44
0.0000000001
 40
0.0
 40
0.0
 40
0.0
 40
0.0
 40
0.2830690035
 40
0.5422493592
 40
0.7780343947
 40
0.8900775113
 40
1.0
 40
1.0
 40
1.0
 40
1.0
 10
130.5974314652
 20
119.185081428
 30
0.0
 10
131.0289816532
 20
119.0291226644
 30
0.0
 10
131.8287524331
 20
118.6429653111
 30
0.0
 10
132.8062543294
 20
117.8230850697
 30
0.0
 10
133.3465926483
 20
116.9758317738
 30
0.0
 10
133.5592151343
 20
116.2608933588
 30
0.0
 10
133.5947852494
 20
115.9001287287
 30
0.0
 10
133.5947852494
 20
115.7219397527
 30
0.0
  0
SPLINE
  5
489
100
AcDbEntity
  8
KONSTRUKTIONSELEMENTE
100
AcDbSpline
 62
7
  6
CONTINUOUS
 70
0
 71
3
 72
9
 73
5
 74
0
 42
0.0000001
 43
0.0000001
 44
0.0000000001
 40
0.0
 40
0.0
 40
0.0
 40
0.0
 40
0.5108269807
 40
1.0
 40
1.0
 40
1.0
 40
1.0
 10
177.8573873852
 20
103.6533768347
 30
0.0
 10
178.0057696241
 20
103.8783829771
 30
0.0
 10
178.2419462218
 20
104.358836169
 30
0.0
 10
178.3258438818
 20
104.8893935202
 30
0.0
 10
178.3258484802
 20
105.1474957105
 30
0.0
  0
SPLINE
  5
48A
100
AcDbEntity
  8
KONSTRUKTIONSELEMENTE
100
AcDbSpline
 62
7
  6
CONTINUOUS
 70
0
 71
3
 72
10
 73
6
 74
0
 42
0.0000001
 43
0.0000001
 44
0.0000000001
 40
0.0
 40
0.0
 40
0.0
 40
0.0
 40
0.2661924468
 40
0.53465928
 40
1.0
 40
1.0
 40
1.0
 40
1.0
 10
176.770306099
 20
102.8415103809
 30
0.0
 10
176.8311870086
 20
102.8214361608
 30
0.0
 10
176.9607510743
 20
102.8002160229
 30
0.0
 10
177.2001054075
 20
102.8240249508
 30
0.0
 10
177.3730746052
 20
102.9189671698
 30
0.0
 10
177.4347691234
 20
103.0125204526
 30
0.0
  0
SPLINE
  5
48B
100
AcDbEntity
  8
KONSTRUKTIONSELEMENTE
100
AcDbSpline
 62
7
  6
CONTINUOUS
 70
0
 71
3
 72
9
 73
5
 74
0
 42
0.0000001
 43
0.0000001
 44
0.0000000001
 40
0.0
 40
0.0
 40
0.0
 40
0.0
 40
0.2605100871
 40
1.0
 40
1.0
 40
1.0
 40
1.0
 10
155.247310382
 20
69.3675603947
 30
0.0
 10
155.2548539225
 20
69.3789993847
 30
0.0
 10
155.2810273938
 20
69.424647015
 30
0.0
 10
155.2941525997
 20
69.478039675
 30
0.0
 10
155.2941548824
 20
69.5169355942
 30
0.0
  0
SPLINE
  5
48C
100
AcDbEntity
  8
KONSTRUKTIONSELEMENTE
100
AcDbSpline
 62
7
  6
CONTINUOUS
 70
0
 71
3
 72
11
 73
7
 74
0
 42
0.0000001
 43
0.0000001
 44
0.0000000001
 40
0.0
 40
0.0
 40
0.0
 40
0.0
 40
0.2729767978
 40
0.5353848362
 40
0.7789285996
 40
1.0
 40
1.0
 40
1.0
 40
1.0
 10
150.4555254482
 20
66.9315718508
 30
0.0
 10
150.9242775864
 20
66.9315718508
 30
0.0
 10
151.8464108854
 20
67.0225892885
 30
0.0
 10
153.1323682575
 20
67.4260511106
 30
0.0
 10
154.217842647
 20
68.0667593446
 30
0.0
 10
154.7780727083
 20
68.6560105514
 30
0.0
 10
154.9870643833
 20
68.9729245631
 30
0.0
  0
SPLINE
  5
48D
100
AcDbEntity
  8
KONSTRUKTIONSELEMENTE
100
AcDbSpline
 62
7
  6
CONTINUOUS
 70
0
 71
3
 72
13
 73
9
 74
0
 42
0.0000001
 43
0.0000001
 44
0.0000000001
 40
0.0
 40
0.0
 40
0.0
 40
0.0
 40
0.2870489256
 40
0.5535682914
 40
0.6755020148
 40
0.789331082
 40
0.8965440086
 40
1.0
 40
1.0
 40
1.0
 40
1.0
 10
136.6447852494
 20
66.9315718508
 30
0.0
 10
136.12951829
 20
66.9315718508
 30
0.0
 10
135.1307670433
 20
66.7974032409
 30
0.0
 10
134.0042572651
 20
66.2880647021
 30
0.0
 10
133.3128078801
 20
65.7008528406
 30
0.0
 10
132.9345110544
 20
65.2082802319
 30
0.0
 10
132.6986790104
 20
64.6689432095
 30
0.0
 10
132.6447852494
 20
64.2888533261
 30
0.0
 10
132.6447852494
 20
64.1031447261
 30
0.0
  0
SPLINE
  5
48E
100
AcDbEntity
  8
KONSTRUKTIONSELEMENTE
100
AcDbSpline
 62
7
  6
CONTINUOUS
 70
0
 71
3
 72
12
 73
8
 74
0
 42
0.0000001
 43
0.0000001
 44
0.0000000001
 40
0.0
 40
0.0
 40
0.0
 40
0.0
 40
0.1093780659
 40
0.2208877297
 40
0.4563569003
 40
0.716089424
 40
1.0
 40
1.0
 40
1.0
 40
1.0
 10
178.3258484802
 20
108.6830296164
 30
0.0
 10
178.3258514626
 20
108.8504325144
 30
0.0
 10
178.2914391466
 20
109.1894685104
 30
0.0
 10
178.0846730858
 20
109.8606701103
 30
0.0
 10
177.5605650775
 20
110.6520947797
 30
0.0
 10
176.6182652287
 20
111.4058108899
 30
0.0
 10
175.8516099366
 20
111.7513043926
 30
0.0
 10
175.4389397587
 20
111.8873738445
 30
0.0
  0
SPLINE
  5
48F
100
AcDbEntity
  8
KONSTRUKTIONSELEMENTE
100
AcDbSpline
 62
7
  6
CONTINUOUS
 70
0
 71
3
 72
12
 73
8
 74
0
 42
0.0000001
 43
0.0000001
 44
0.0000000001
 40
0.0
 40
0.0
 40
0.0
 40
0.0
 40
0.2874515908
 40
0.5543051126
 40
0.7890378741
 40
0.8964383639
 40
1.0
 40
1.0
 40
1.0
 40
1.0
 10
133.1447852494
 20
53.1429896177
 30
0.0
 10
133.3380241591
 20
53.1429896177
 30
0.0
 10
133.7129894567
 20
53.193816392
 30
0.0
 10
134.2040111137
 20
53.4145628145
 30
0.0
 10
134.5033961522
 20
53.714054024
 30
0.0
 10
134.6245144387
 20
53.9914966123
 30
0.0
 10
134.6447852494
 20
54.1340306317
 30
0.0
 10
134.6447852494
 20
54.2036497895
 30
0.0
  0
SPLINE
  5
490
100
AcDbEntity
  8
KONSTRUKTIONSELEMENTE
100
AcDbSpline
 62
7
  6
CONTINUOUS
 70
0
 71
3
 72
11
 73
7
 74
0
 42
0.0000001
 43
0.0000001
 44
0.0000000001
 40
0.0
 40
0.0
 40
0.0
 40
0.0
 40
0.2820767698
 40
0.5407553301
 40
0.7772666753
 40
1.0
 40
1.0
 40
1.0
 40
1.0
 10
136.6531076072
 20
66.9095615085
 30
0.0
 10
136.361159533
 20
66.7910500814
 30
0.0
 10
135.8218918293
 20
66.5060301683
 30
0.0
 10
135.1676656962
 20
65.9198711056
 30
0.0
 10
134.7444796192
 20
65.2226923776
 30
0.0
 10
134.6447852494
 20
64.7054954835
 30
0.0
 10
134.6447852494
 20
64.4566981167
 30
0.0
  0
SPLINE
  5
491
100
AcDbEntity
  8
KONSTRUKTIONSELEMENTE
100
AcDbSpline
 62
7
  6
CONTINUOUS
 70
0
 71
3
 72
11
 73
7
 74
0
 42
0.0000001
 43
0.0000001
 44
0.0000000001
 40
0.0
 40
0.0
 40
0.0
 40
0.0
 40
0.2808713938
 40
0.5389210953
 40
0.7759033082
 40
1.0
 40
1.0
 40
1.0
 40
1.0
 10
119.6792509323
 20
66.9295958907
 30
0.0
 10
119.9526040941
 20
66.8076417309
 30
0.0
 10
120.4562046993
 20
66.5204041411
 30
0.0
 10
121.0632470834
 20
65.9453178729
 30
0.0
 10
121.4534083502
 20
65.2715053445
 30
0.0
 10
121.5447852494
 20
64.7763387481
 30
0.0
 10
121.5447852494
 20
64.5375195361
 30
0.0
  0
SPLINE
  5
492
100
AcDbEntity
  8
KONSTRUKTIONSELEMENTE
100
AcDbSpline
 62
7
  6
CONTINUOUS
 70
0
 71
3
 72
9
 73
5
 74
0
 42
0.0000001
 43
0.0000001
 44
0.0000000001
 40
0.0
 40
0.0
 40
0.0
 40
0.0
 40
0.5107012964
 40
1.0
 40
1.0
 40
1.0
 40
1.0
 10
95.5260195712
 20
98.0121621783
 30
0.0
 10
95.4814927456
 20
98.0796824511
 30
0.0
 10
95.4106380036
 20
98.223909435
 30
0.0
 10
95.3854612479
 20
98.3831620837
 30
0.0
 10
95.3854825768
 20
98.4606528445
 30
0.0
  0
SPLINE
  5
493
100
AcDbEntity
  8
KONSTRUKTIONSELEMENTE
100
AcDbSpline
 62
7
  6
CONTINUOUS
 70
0
 71
3
 72
11
 73
7
 74
0
 42
0.0000001
 43
0.0000001
 44
0.0000000001
 40
0.0
 40
0.0
 40
0.0
 40
0.0
 40
0.2231088723
 40
0.4658949299
 40
0.7265978581
 40
1.0
 40
1.0
 40
1.0
 40
1.0
 10
114.443041143
 20
68.9729245631
 30
0.0
 10
114.6215477893
 20
68.7022379084
 30
0.0
 10
115.0819674458
 20
68.1924789578
 30
0.0
 10
115.9660444963
 20
67.6000583123
 30
0.0
 10
117.019783186
 20
67.175388993
 30
0.0
 10
117.7854584502
 20
67.0213920909
 30
0.0
 10
118.1802496178
 20
66.9764726394
 30
0.0
  0
SPLINE
  5
494
100
AcDbEntity
  8
KONSTRUKTIONSELEMENTE
100
AcDbSpline
 62
7
  6
CONTINUOUS
 70
0
 71
3
 72
12
 73
8
 74
0
 42
0.0000001
 43
0.0000001
 44
0.0000000001
 40
0.0
 40
0.0
 40
0.0
 40
0.0
 40
0.2199571982
 40
0.3417709653
 40
0.4698495946
 40
0.7360503245
 40
1.0
 40
1.0
 40
1.0
 40
1.0
 10
164.2346752394
 20
103.0738452161
 30
0.0
 10
164.5287737106
 20
103.5198147808
 30
0.0
 10
165.1638303168
 20
104.1005751613
 30
0.0
 10
166.1765493794
 20
104.6301126986
 30
0.0
 10
167.369845832
 20
105.0308554664
 30
0.0
 10
168.9807076852
 20
105.1997968702
 30
0.0
 10
170.2704901181
 20
104.9846902013
 30
0.0
 10
170.8793054833
 20
104.7839459327
 30
0.0
  0
SPLINE
  5
495
100
AcDbEntity
  8
KONSTRUKTIONSELEMENTE
100
AcDbSpline
 62
7
  6
CONTINUOUS
 70
0
 71
3
 72
12
 73
8
 74
0
 42
0.0000001
 43
0.0000001
 44
0.0000000001
 40
0.0
 40
0.0
 40
0.0
 40
0.0
 40
0.1093780659
 40
0.2208877297
 40
0.4563569003
 40
0.716089424
 40
1.0
 40
1.0
 40
1.0
 40
1.0
 10
178.3258484802
 20
105.1474957105
 30
0.0
 10
178.3258514626
 20
105.3148986085
 30
0.0
 10
178.2914391466
 20
105.6539346045
 30
0.0
 10
178.0846730858
 20
106.3251362044
 30
0.0
 10
177.5605650775
 20
107.1165608738
 30
0.0
 10
176.6182652287
 20
107.870276984
 30
0.0
 10
175.8516099366
 20
108.2157704867
 30
0.0
 10
175.4389397587
 20
108.3518399386
 30
0.0
  0
SPLINE
  5
496
100
AcDbEntity
  8
KONSTRUKTIONSELEMENTE
100
AcDbSpline
 62
7
  6
CONTINUOUS
 70
0
 71
3
 72
11
 73
7
 74
0
 42
0.0000001
 43
0.0000001
 44
0.0000000001
 40
0.0
 40
0.0
 40
0.0
 40
0.0
 40
0.2787093695
 40
0.5386731691
 40
0.7779105289
 40
1.0
 40
1.0
 40
1.0
 40
1.0
 10
101.6283293178
 20
99.634169539
 30
0.0
 10
101.7318901373
 20
99.6683165763
 30
0.0
 10
101.926817069
 20
99.7522957999
 30
0.0
 10
102.1781920939
 20
99.9281695578
 30
0.0
 10
102.366375306
 20
100.1425429308
 30
0.0
 10
102.4437839829
 20
100.3092933454
 30
0.0
 10
102.4668427003
 20
100.3930706103
 30
0.0
  0
SPLINE
  5
497
100
AcDbEntity
  8
KONSTRUKTIONSELEMENTE
100
AcDbSpline
 62
7
  6
CONTINUOUS
 70
0
 71
3
 72
11
 73
7
 74
0
 42
0.0000001
 43
0.0000001
 44
0.0000000001
 40
0.0
 40
0.0
 40
0.0
 40
0.0
 40
0.2816064552
 40
0.5417085427
 40
0.7793419382
 40
1.0
 40
1.0
 40
1.0
 40
1.0
 10
100.7830927943
 20
100.9158823031
 30
0.0
 10
100.8964558383
 20
100.9532614211
 30
0.0
 10
101.1084546508
 20
101.0465281131
 30
0.0
 10
101.3757104015
 20
101.2462707497
 30
0.0
 10
101.5646036895
 20
101.4906442659
 30
0.0
 10
101.6286095186
 20
101.6790391134
 30
0.0
 10
101.6417218958
 20
101.771647364
 30
0.0
  0
SPLINE
  5
498
100
AcDbEntity
  8
BEZUGSACHSEN
100
AcDbSpline
 62
7
  6
CONTINUOUS
 70
0
 71
3
 72
9
 73
5
 74
0
 42
0.0000001
 43
0.0000001
 44
0.0000000001
 40
0.0
 40
0.0
 40
0.0
 40
0.0
 40
0.2459387646
 40
1.0
 40
1.0
 40
1.0
 40
1.0
 10
134.8566774373
 20
121.7330011785
 30
0.0
 10
134.5169815707
 20
121.8450088612
 30
0.0
 10
133.1234779647
 20
122.262577475
 30
0.0
 10
131.6862361012
 20
122.5318819102
 30
0.0
 10
130.5963593988
 20
122.6538751944
 30
0.0
  0
SPLINE
  5
499
100
AcDbEntity
  8
BEZUGSACHSEN
100
AcDbSpline
 62
7
  6
CONTINUOUS
 70
0
 71
3
 72
9
 73
5
 74
0
 42
0.0000001
 43
0.0000001
 44
0.0000000001
 40
0.0
 40
0.0
 40
0.0
 40
0.0
 40
0.2536983179
 40
1.0
 40
1.0
 40
1.0
 40
1.0
 10
125.5932111
 20
122.6538751944
 30
0.0
 10
125.2265369476
 20
122.6128322177
 30
0.0
 10
123.785560633
 20
122.4151404129
 30
0.0
 10
122.3636817668
 20
122.0728824241
 30
0.0
 10
121.3328930616
 20
121.7330011785
 30
0.0
  0
SPLINE
  5
49A
100
AcDbEntity
  8
KONSTRUKTIONSELEMENTE
100
AcDbSpline
 62
7
  6
CONTINUOUS
 70
0
 71
3
 72
11
 73
7
 74
0
 42
0.0000001
 43
0.0000001
 44
0.0000000001
 40
0.0
 40
0.0
 40
0.0
 40
0.0
 40
0.2200606194
 40
0.4557771489
 40
0.7157721538
 40
1.0
 40
1.0
 40
1.0
 40
1.0
 10
155.2941548824
 20
69.5169355942
 30
0.0
 10
155.2941568571
 20
69.550582588
 30
0.0
 10
155.2794228888
 20
69.6209104682
 30
0.0
 10
155.2176381886
 20
69.71376191
 30
0.0
 10
155.1234110162
 20
69.7892781252
 30
0.0
 10
155.0467379832
 20
69.8237979971
 30
0.0
 10
155.0054656194
 20
69.8374067051
 30
0.0
  0
SPLINE
  5
49B
100
AcDbEntity
  8
BEZUGSACHSEN
100
AcDbSpline
 62
7
  6
CONTINUOUS
 70
0
 71
3
 72
19
 73
15
 74
0
 42
0.0000001
 43
0.0000001
 44
0.0000000001
 40
0.0
 40
0.0
 40
0.0
 40
0.0
 40
0.0517234907
 40
0.1053372095
 40
0.1622487312
 40
0.2232163938
 40
0.3564752704
 40
0.5
 40
0.6435247296
 40
0.7767836062
 40
0.8377512688
 40
0.8946627905
 40
0.9482765093
 40
1.0
 40
1.0
 40
1.0
 40
1.0
 10
133.5947852494
 20
115.7219397527
 30
0.0
 10
133.5947852494
 20
115.4666135686
 30
0.0
 10
133.5206346682
 20
114.9439906363
 30
0.0
 10
133.1964488694
 20
114.2023692472
 30
0.0
 10
132.6761767769
 20
113.5251208538
 30
0.0
 10
131.7256099074
 20
112.7176778937
 30
0.0
 10
130.1756294154
 20
112.0173562402
 30
0.0
 10
128.0947852494
 20
111.7371789584
 30
0.0
 10
126.0139410834
 20
112.0173562402
 30
0.0
 10
124.4639605915
 20
112.7176778937
 30
0.0
 10
123.513393722
 20
113.5251208538
 30
0.0
 10
122.9931216295
 20
114.2023692472
 30
0.0
 10
122.6689358307
 20
114.9439906363
 30
0.0
 10
122.5947852494
 20
115.4666135686
 30
0.0
 10
122.5947852494
 20
115.7219397527
 30
0.0
  0
SPLINE
  5
49C
100
AcDbEntity
  8
KONSTRUKTIONSELEMENTE
100
AcDbSpline
 62
7
  6
CONTINUOUS
 70
0
 71
3
 72
11
 73
7
 74
0
 42
0.0000001
 43
0.0000001
 44
0.0000000001
 40
0.0
 40
0.0
 40
0.0
 40
0.0
 40
0.2200436456
 40
0.4557793627
 40
0.7157728079
 40
1.0
 40
1.0
 40
1.0
 40
1.0
 10
95.3854825768
 20
98.4606528445
 30
0.0
 10
95.3855103506
 20
98.561559425
 30
0.0
 10
95.4298249106
 20
98.772461723
 30
0.0
 10
95.6151786189
 20
99.0508931393
 30
0.0
 10
95.8978072866
 20
99.2773682187
 30
0.0
 10
96.1277696973
 20
99.3808858435
 30
0.0
 10
96.2515538591
 20
99.4217011095
 30
0.0
  0
SPLINE
  5
49D
100
AcDbEntity
  8
KONSTRUKTIONSELEMENTE
100
AcDbSpline
 62
7
  6
CONTINUOUS
 70
0
 71
3
 72
12
 73
8
 74
0
 42
0.0000001
 43
0.0000001
 44
0.0000000001
 40
0.0
 40
0.0
 40
0.0
 40
0.0
 40
0.2839215899
 40
0.5436396333
 40
0.7791104503
 40
0.8906217948
 40
1.0
 40
1.0
 40
1.0
 40
1.0
 10
91.6263241846
 20
111.9378748033
 30
0.0
 10
91.2136336699
 20
111.8017986459
 30
0.0
 10
90.4469797042
 20
111.4562966924
 30
0.0
 10
89.5046677734
 20
110.7025695002
 30
0.0
 10
88.9806083999
 20
109.9111331076
 30
0.0
 10
88.77379732
 20
109.2399263419
 30
0.0
 10
88.7394399911
 20
108.9008796973
 30
0.0
 10
88.7394302163
 20
108.7334748307
 30
0.0
  0
SPLINE
  5
49E
100
AcDbEntity
  8
KONSTRUKTIONSELEMENTE
100
AcDbSpline
 62
7
  6
CONTINUOUS
 70
0
 71
3
 72
12
 73
8
 74
0
 42
0.0000001
 43
0.0000001
 44
0.0000000001
 40
0.0
 40
0.0
 40
0.0
 40
0.0
 40
0.2839243992
 40
0.5436449467
 40
0.7791102126
 40
0.8906209315
 40
1.0
 40
1.0
 40
1.0
 40
1.0
 10
149.1144650036
 20
71.7798422568
 30
0.0
 10
148.7017809266
 20
71.9159162916
 30
0.0
 10
147.9351381761
 20
72.2614106093
 30
0.0
 10
146.9928477769
 20
73.0151139295
 30
0.0
 10
146.4687893932
 20
73.8065116218
 30
0.0
 10
146.2619611424
 20
74.4776854476
 30
0.0
 10
146.2275889445
 20
74.8167220106
 30
0.0
 10
146.2275708352
 20
74.9841239299
 30
0.0
  0
SPLINE
  5
49F
100
AcDbEntity
  8
KONSTRUKTIONSELEMENTE
100
AcDbSpline
 62
7
  6
CONTINUOUS
 70
0
 71
3
 72
11
 73
7
 74
0
 42
0.0000001
 43
0.0000001
 44
0.0000000001
 40
0.0
 40
0.0
 40
0.0
 40
0.0
 40
0.2842271921
 40
0.5442206373
 40
0.7799563544
 40
1.0
 40
1.0
 40
1.0
 40
1.0
 10
101.6283293178
 20
99.2806161484
 30
0.0
 10
101.7521134796
 20
99.3214314143
 30
0.0
 10
101.9820758902
 20
99.4249490392
 30
0.0
 10
102.2647045579
 20
99.6514241186
 30
0.0
 10
102.4500582663
 20
99.9298555348
 30
0.0
 10
102.4943728262
 20
100.1407578329
 30
0.0
 10
102.4944006001
 20
100.2416644133
 30
0.0
  0
SPLINE
  5
4A0
100
AcDbEntity
  8
KONSTRUKTIONSELEMENTE
100
AcDbSpline
 62
7
  6
CONTINUOUS
 70
0
 71
3
 72
11
 73
7
 74
0
 42
0.0000001
 43
0.0000001
 44
0.0000000001
 40
0.0
 40
0.0
 40
0.0
 40
0.0
 40
0.2457861969
 40
0.4934867763
 40
0.7448413997
 40
1.0
 40
1.0
 40
1.0
 40
1.0
 10
140.6814541938
 20
158.0652203264
 30
0.0
 10
140.8965278141
 20
157.9262031649
 30
0.0
 10
141.3115032828
 20
157.6191080356
 30
0.0
 10
141.8502050086
 20
157.0532713644
 30
0.0
 10
142.2461723927
 20
156.3629121205
 30
0.0
 10
142.3482905391
 20
155.8310763377
 30
0.0
 10
142.3482905391
 20
155.5652203264
 30
0.0
  0
SPLINE
  5
4A1
100
AcDbEntity
  8
KONSTRUKTIONSELEMENTE
100
AcDbSpline
 62
7
  6
CONTINUOUS
 70
0
 71
3
 72
10
 73
6
 74
0
 42
0.0000001
 43
0.0000001
 44
0.0000000001
 40
0.0
 40
0.0
 40
0.0
 40
0.0
 40
0.2350471841
 40
0.4823710211
 40
1.0
 40
1.0
 40
1.0
 40
1.0
 10
113.3099449542
 20
143.6920282832
 30
0.0
 10
113.2193630763
 20
143.8837903858
 30
0.0
 10
113.0784111876
 20
144.3003458414
 30
0.0
 10
112.9849301754
 20
145.2034457706
 30
0.0
 10
113.136089218
 20
145.9000529477
 30
0.0
 10
113.3099449542
 20
146.3335377171
 30
0.0
  0
SPLINE
  5
4A2
100
AcDbEntity
  8
KONSTRUKTIONSELEMENTE
100
AcDbSpline
 62
7
  6
CONTINUOUS
 70
0
 71
3
 72
10
 73
6
 74
0
 42
0.0000001
 43
0.0000001
 44
0.0000000001
 40
0.0
 40
0.0
 40
0.0
 40
0.0
 40
0.5176289789
 40
0.7649528159
 40
1.0
 40
1.0
 40
1.0
 40
1.0
 10
142.8796255446
 20
146.3335377171
 30
0.0
 10
143.0534812809
 20
145.9000529477
 30
0.0
 10
143.2046403235
 20
145.2034457706
 30
0.0
 10
143.1111593113
 20
144.3003458414
 30
0.0
 10
142.9702074226
 20
143.8837903858
 30
0.0
 10
142.8796255446
 20
143.6920282832
 30
0.0
  0
SPLINE
  5
4A3
100
AcDbEntity
  8
KONSTRUKTIONSELEMENTE
100
AcDbSpline
 62
7
  6
CONTINUOUS
 70
0
 71
3
 72
9
 73
5
 74
0
 42
0.0000001
 43
0.0000001
 44
0.0000000001
 40
0.0
 40
0.0
 40
0.0
 40
0.0
 40
0.4962649662
 40
1.0
 40
1.0
 40
1.0
 40
1.0
 10
113.8412799598
 20
141.5087398735
 30
0.0
 10
113.8412799598
 20
141.8827736312
 30
0.0
 10
113.740592586
 20
142.6390249013
 30
0.0
 10
113.4721041749
 20
143.3487367348
 30
0.0
 10
113.3099449542
 20
143.6920282832
 30
0.0
  0
SPLINE
  5
4A4
100
AcDbEntity
  8
KONSTRUKTIONSELEMENTE
100
AcDbSpline
 62
7
  6
CONTINUOUS
 70
0
 71
3
 72
9
 73
5
 74
0
 42
0.0000001
 43
0.0000001
 44
0.0000000001
 40
0.0
 40
0.0
 40
0.0
 40
0.0
 40
0.5037350338
 40
1.0
 40
1.0
 40
1.0
 40
1.0
 10
142.8796255446
 20
143.6920282832
 30
0.0
 10
142.7174663239
 20
143.3487367348
 30
0.0
 10
142.4489779129
 20
142.6390249013
 30
0.0
 10
142.3482905391
 20
141.8827736312
 30
0.0
 10
142.3482905391
 20
141.5087398735
 30
0.0
  0
SPLINE
  5
4A5
100
AcDbEntity
  8
KONSTRUKTIONSELEMENTE
100
AcDbSpline
 62
7
  6
CONTINUOUS
 70
0
 71
3
 72
9
 73
5
 74
0
 42
0.0000001
 43
0.0000001
 44
0.0000000001
 40
0.0
 40
0.0
 40
0.0
 40
0.0
 40
0.500127309
 40
1.0
 40
1.0
 40
1.0
 40
1.0
 10
113.3099449542
 20
146.3335377171
 30
0.0
 10
113.4736494169
 20
146.7417117169
 30
0.0
 10
113.7424788776
 20
147.5837803661
 30
0.0
 10
113.8412799598
 20
148.4654116415
 30
0.0
 10
113.8412799598
 20
148.9049662886
 30
0.0
  0
SPLINE
  5
4A6
100
AcDbEntity
  8
KONSTRUKTIONSELEMENTE
100
AcDbSpline
 62
7
  6
CONTINUOUS
 70
0
 71
3
 72
9
 73
5
 74
0
 42
0.0000001
 43
0.0000001
 44
0.0000000001
 40
0.0
 40
0.0
 40
0.0
 40
0.0
 40
0.499872691
 40
1.0
 40
1.0
 40
1.0
 40
1.0
 10
142.3482905391
 20
148.9049662886
 30
0.0
 10
142.3482905391
 20
148.4654116415
 30
0.0
 10
142.4470916212
 20
147.5837803661
 30
0.0
 10
142.715921082
 20
146.7417117169
 30
0.0
 10
142.8796255446
 20
146.3335377171
 30
0.0
  0
SPLINE
  5
4A7
100
AcDbEntity
  8
KONSTRUKTIONSELEMENTE
100
AcDbSpline
 62
7
  6
CONTINUOUS
 70
0
 71
3
 72
11
 73
7
 74
0
 42
0.0000001
 43
0.0000001
 44
0.0000000001
 40
0.0
 40
0.0
 40
0.0
 40
0.0
 40
0.2551631889
 40
0.5065184691
 40
0.7542163689
 40
1.0
 40
1.0
 40
1.0
 40
1.0
 10
113.8412799598
 20
155.5652203264
 30
0.0
 10
113.8412799598
 20
155.8310811209
 30
0.0
 10
113.9434006206
 20
156.3629226326
 30
0.0
 10
114.3393736326
 20
157.0532817308
 30
0.0
 10
114.8780737348
 20
157.6191129922
 30
0.0
 10
115.2930449281
 20
157.9262046149
 30
0.0
 10
115.5081163051
 20
158.0652203264
 30
0.0
  0
ELLIPSE
  5
4A8
100
AcDbEntity
  8
RUNDUNGEN
100
AcDbEllipse
 62
7
  6
CONTINUOUS
 10
436.8967417421
 20
166.9589577584
 30
0.0
 11
0.4911388899
 21
8.0206306137
 31
0.0
 40
0.2488636556
 41
-4.3827759479
 42
-3.4259921791
  0
ELLIPSE
  5
4A9
100
AcDbEntity
  8
BEZUGSACHSEN
100
AcDbEllipse
 62
7
  6
CONTINUOUS
 10
427.503104439
 20
166.9589577584
 30
0.0
 11
-0.4911388899
 21
8.0206306137
 31
0.0
 40
0.2488636556
 41
-2.857193128
 42
-1.9004093593
  0
ELLIPSE
  5
4AA
100
AcDbEntity
  8
KONSTRUKTIONSELEMENTE
100
AcDbEllipse
 62
7
  6
CONTINUOUS
 10
91.623883893
 20
106.439078493
 30
0.0
 11
1.4997504735
 21
0.4499923381
 31
0.0
 40
0.0607989098
 41
-2.7235007144
 42
-1.1527043876
  0
ELLIPSE
  5
4AB
100
AcDbEntity
  8
KONSTRUKTIONSELEMENTE
100
AcDbEllipse
 62
7
  6
CONTINUOUS
 10
96.8406224135
 20
106.5406728065
 30
0.0
 11
1.4788083775
 21
-0.9183885846
 31
0.0
 40
0.7424978488
 41
7.2982401868
 42
8.8690365136
  0
ELLIPSE
  5
4AC
100
AcDbEntity
  8
KONSTRUKTIONSELEMENTE
100
AcDbEllipse
 62
7
  6
CONTINUOUS
 10
128.0947852494
 20
99.6466676684
 30
0.0
 11
-0.0
 21
62.3538290725
 31
0.0
 40
0.5773502692
 41
-0.3571758222
 42
-0.1561898301
  0
ELLIPSE
  5
4AD
100
AcDbEntity
  8
KONSTRUKTIONSELEMENTE
100
AcDbEllipse
 62
7
  6
CONTINUOUS
 10
128.0947852494
 20
99.6466676684
 30
0.0
 11
-0.0
 21
62.3538290725
 31
0.0
 40
0.5773502692
 41
0.1561898301
 42
0.3571758222
  0
ENDSEC
  0
SECTION
  2
OBJECTS
  0
DICTIONARY
  5
C
100
AcDbDictionary
280
0
281
1
  3
ACAD_GROUP
350
D
  3
ACAD_MLINESTYLE
350
17
  3
ACAD_LAYOUT
350
1A
  3
ACAD_PLOTSETTINGS
350
19
  3
ACAD_PLOTSTYLENAME
350
E
  0
DICTIONARY
  5
D
102
{ACAD_REACTORS
330
C
102
}
100
AcDbDictionary
280
0
281
1
  0
ACDBDICTIONARYWDFLT
  5
E
102
{ACAD_REACTORS
330
C
102
}
100
AcDbDictionary
281
1
  3
Normal
350
F
100
AcDbDictionaryWithDefault
340
F
  0
DICTIONARY
  5
17
102
{ACAD_REACTORS
330
C
102
}
100
AcDbDictionary
280
0
281
1
  3
Standard
350
18
  0
DICTIONARY
  5
19
102
{ACAD_REACTORS
330
C
102
}
100
AcDbDictionary
281
1
  0
DICTIONARY
  5
1A
102
{ACAD_REACTORS
330
C
102
}
100
AcDbDictionary
281
1
  3
Model
350
4AE
  3
Layout1
350
4AF
  0
ACDBPLACEHOLDER
  5
F
102
{ACAD_REACTORS
330
E
102
}
  0
MLINESTYLE
  5
18
102
{ACAD_REACTORS
330
17
102
}
100
AcDbMlineStyle
  2
STANDARD
 70
0
  3

 62
256
 51
90.0
 52
90.0
 71
2
 49
0.5
 62
256
  6
BYLAYER
 49
-0.5
 62
256
  6
BYLAYER
  0
LAYOUT
  5
4AE
102
{ACAD_REACTORS
330
1A
102
}
100
AcDbPlotSettings
  1

  2
none_device
  4
ISO_A2_(594.00_x_420.00_MM)
  6

 40
0.0
 41
0.0
 42
0.0
 43
0.0
 44
594.0
 45
420.0
 46
0.0
 47
0.0
 48
0.0
 49
0.0
140
0.0
141
0.0
142
1.0
143
1.0
 70
1024
 72
1
 73
0
 74
0
  7

 75
0
147
1.0
148
0.0
149
0.0
100
AcDbLayout
  1
Model
 70
0
 71
0
 10
0.0
 20
0.0
 11
594.0
 21
420.0
 12
0.0
 22
0.0
 32
0.0
 14
0.0
 24
0.0
 34
0.0
 15
0.0
 25
0.0
 35
0.0
146
0.0
 13
0.0
 23
0.0
 33
0.0
 16
1.0
 26
0.0
 36
0.0
 17
0.0
 27
1.0
 37
0.0
 76
0
330
20D
345
0
346
0
  0
LAYOUT
  5
4AF
102
{ACAD_REACTORS
330
1A
102
}
100
AcDbPlotSettings
  1

  2
none_device
  4
ISO_A2_(594.00_x_420.00_MM)
  6

 40
0.0
 41
0.0
 42
0.0
 43
0.0
 44
594.0
 45
420.0
 46
0.0
 47
0.0
 48
0.0
 49
0.0
140
0.0
141
0.0
142
1.0
143
1.0
 70
0
 72
1
 73
0
 74
0
  7

 75
0
147
1.0
148
0.0
149
0.0
100
AcDbLayout
  1
Layout1
 70
0
 71
1
 10
0.0
 20
0.0
 11
594.0
 21
420.0
 12
0.0
 22
0.0
 32
0.0
 14
0.0
 24
0.0
 34
0.0
 15
0.0
 25
0.0
 35
0.0
146
0.0
 13
0.0
 23
0.0
 33
0.0
 16
1.0
 26
0.0
 36
0.0
 17
0.0
 27
1.0
 37
0.0
 76
0
330
20E
345
0
346
0
  0
ENDSEC
  0
EOF
