999
DXF file: C:\Aktuell-Internet\CAD-Daten\2vak1-4.dxf
999
Pro/ENGINEER 2001400 by Parametric Technology Corporation
0
SECTION
2
HEADER
9
$ACADVER
1
AC1014
9
$EXTMAX
10
420.0000000000
20
297.0000000000
9
$EXTMIN
10
0.0000000000
20
0.0000000000
9
$LIMMIN
10
0.0000000000
20
0.0000000000
9
$LIMMAX
10
420.0000000000
20
297.0000000000
9
$VIEWCTR
10
210.0000000000
20
148.5000000000
9
$VIEWSIZE
40
297.0000000000
9
$CLAYER
8
0
9
$LTSCALE
40
23.1000000000
9
$CELTYPE
6
BYLAYER
9
$DIMSCALE
40
1
9
$DIMASZ
40
3.5000000000
9
$DIMEXO
40
2.6250000000
9
$DIMDLI
40
15.9600000000
9
$DIMEXE
40
7.5600000000
9
$DIMCEN
40
3.7800000000
9
$DIMLFAC
40
1.0000000000
9
$DIMTXT
40
3.5000000000
9
$DIMTOL
70
1
9
$DIMTFAC
40
0.6000000000
9
$DIMTP
40
0.0050000000
9
$DIMTM
40
0.0050000000
9
$HANDSEED
5
45B
0
ENDSEC
0
SECTION
2
CLASSES
0
ENDSEC
0
SECTION
2
TABLES
0
TABLE
2
VPORT
5
8
100
AcDbSymbolTable
70
2
0
VPORT
5
1F4
100
AcDbSymbolTableRecord
100
AcDbViewportTableRecord
2
*ACTIVE
70
0
10
0.0
20
0.0
11
1.0
21
1.0
12
210.0000000000
22
148.5000000000
13
0.0
23
0.0
14
1.0
24
1.0
15
0.0
25
0.0
16
0.0
26
0.0
36
1.0
17
0.0
27
0.0
37
0.0
40
297.0000000000
41
1.4141414141
42
50.0
43
0.0
44
0.0
50
0.0
51
0.0
71
0
72
100
73
1
74
1
75
0
76
0
77
0
78
0
0
ENDTAB
0
TABLE
2
LTYPE
5
5
100
AcDbSymbolTable
70
6
0
LTYPE
5
14
100
AcDbSymbolTableRecord
100
AcDbLinetypeTableRecord
2
BYBLOCK
70
0
3

72
65
73
0
40
0.0
0
LTYPE
5
15
100
AcDbSymbolTableRecord
100
AcDbLinetypeTableRecord
2
BYLAYER
70
0
3

72
65
73
0
40
0.0
0
LTYPE
5
16
100
AcDbSymbolTableRecord
100
AcDbLinetypeTableRecord
2
CONTINUOUS
70
64
3
Solid line
72
65
73
0
40
0
0
LTYPE
5
1F5
100
AcDbSymbolTableRecord
100
AcDbLinetypeTableRecord
2
CENTER
70
64
3
____ _ ____ _ ____ _ ____ _ ____ _ ____ _ ____
72
65
73
4
40
0.6
49
0.375
74
0
49
-0.075
74
0
49
0.075
74
0
49
-0.075
74
0
0
LTYPE
5
1F6
100
AcDbSymbolTableRecord
100
AcDbLinetypeTableRecord
2
HIDDEN
70
64
3
- - - - - - - - - - - - - - - - - - - -
72
65
73
2
40
0.2
49
0.1
74
0
49
-0.1
74
0
0
LTYPE
5
1F7
100
AcDbSymbolTableRecord
100
AcDbLinetypeTableRecord
2
PHANTOM
70
64
3
_____ _ _ _____ _ _ _____ _ _ _____
72
65
73
6
40
0.8
49
0.45
74
0
49
-0.05
74
0
49
0.1
74
0
49
-0.05
74
0
49
0.1
74
0
49
-0.05
74
0
0
LTYPE
5
1F8
100
AcDbSymbolTableRecord
100
AcDbLinetypeTableRecord
2
DOT
70
64
3
. . . . . . . . . . . . . . . . . . . .
72
65
73
2
40
0.2
49
0.1
74
0
49
-0.1
74
0
0
LTYPE
5
1F9
100
AcDbSymbolTableRecord
100
AcDbLinetypeTableRecord
2
DASHED
70
64
3
- - - - - - - - - - - - - - - - - - - -
72
65
73
2
40
0.2
49
0.1
74
0
49
-0.1
74
0
0
ENDTAB
0
TABLE
2
LAYER
5
2
100
AcDbSymbolTable
70
36
0
LAYER
5
10
100
AcDbSymbolTableRecord
100
AcDbLayerTableRecord
2
0
70
0
62
7
6
CONTINUOUS
0
LAYER
5
1FA
100
AcDbSymbolTableRecord
100
AcDbLayerTableRecord
2
DEFAULT_1
70
0
62
7
6
CENTER
0
LAYER
5
1FB
100
AcDbSymbolTableRecord
100
AcDbLayerTableRecord
2
DEFAULT_2
70
0
62
8
6
HIDDEN
0
LAYER
5
1FC
100
AcDbSymbolTableRecord
100
AcDbLayerTableRecord
2
DEFAULT_3
70
0
62
7
6
PHANTOM
0
ENDTAB
0
TABLE
2
STYLE
5
3
100
AcDbSymbolTable
70
1
0
STYLE
5
11
100
AcDbSymbolTableRecord
100
AcDbTextStyleTableRecord
2
STANDARD
70
0
40
0.0
41
1.0
50
0.0
71
0
42
0.0
3
txt
4

0
ENDTAB
0
TABLE
2
VIEW
5
6
100
AcDbSymbolTable
70
0
0
ENDTAB
0
TABLE
2
UCS
5
7
100
AcDbSymbolTable
70
0
0
ENDTAB
0
TABLE
2
APPID
5
9
100
AcDbSymbolTable
70
1
0
APPID
5
1FD
100
AcDbSymbolTableRecord
100
AcDbRegAppTableRecord
2
ACAD
70
0
0
ENDTAB
0
TABLE
2
DIMSTYLE
5
A
100
AcDbSymbolTable
70
1
0
DIMSTYLE
105
1FE
100
AcDbSymbolTableRecord
100
AcDbDimStyleTableRecord
2
STANDARD
70
0
3

4

5

6

7

40
1.0
41
0.18
42
0.0625
43
0.38
44
0.18
45
0.0
46
0.0
47
0.0050000000
48
0.0050000000
140
3.5000000000
141
0.09
142
0.0
143
25.4
144
1.0000000000
145
0.0
146
0.6000000000
147
0.09
71
1
72
0
73
1
74
1
75
0
76
0
77
0
78
0
170
0
171
2
172
0
173
0
174
0
175
0
176
0
177
0
178
0
270
2
271
3
272
4
273
2
274
2
340
11
275
0
280
0
281
0
282
0
283
1
284
0
285
0
286
0
287
3
288
0
0
ENDTAB
0
TABLE
2
BLOCK_RECORD
5
1
100
AcDbSymbolTable
70
0
0
BLOCK_RECORD
5
1B
100
AcDbSymbolTableRecord
100
AcDbBlockTableRecord
2
*MODEL_SPACE
0
BLOCK_RECORD
5
1C
100
AcDbSymbolTableRecord
100
AcDbBlockTableRecord
2
*PAPER_SPACE
0
ENDTAB
0
ENDSEC
0
SECTION
2
BLOCKS
0
BLOCK
5
1E
100
AcDbEntity
8
0
100
AcDbBlockBegin
2
*MODEL_SPACE
70
0
10
0.0
20
0.0
30
0.0
3
*MODEL_SPACE
1

0
ENDBLK
5
1F
100
AcDbEntity
8
0
100
AcDbBlockEnd
0
BLOCK
5
20
100
AcDbEntity
8
0
100
AcDbBlockBegin
2
*PAPER_SPACE
70
0
10
0.0
20
0.0
30
0.0
3
*PAPER_SPACE
1

0
ENDBLK
5
21
100
AcDbEntity
8
0
100
AcDbBlockEnd
0
ENDSEC
0
SECTION
2
ENTITIES
0
LINE
5
1FF
100
AcDbEntity
8
0
100
AcDbLine
62
7
6
CONTINUOUS
10
0.0000000000
20
0.0000000000
11
0.0000000000
21
297.0000000000
0
LINE
5
200
100
AcDbEntity
8
0
100
AcDbLine
62
7
6
CONTINUOUS
10
0.0000000000
20
0.0000000000
11
420.0000000000
21
0.0000000000
0
LINE
5
201
100
AcDbEntity
8
0
100
AcDbLine
62
7
6
CONTINUOUS
10
0.0000000000
20
297.0000000000
11
420.0000000000
21
297.0000000000
0
LINE
5
202
100
AcDbEntity
8
0
100
AcDbLine
62
7
6
CONTINUOUS
10
420.0000000000
20
0.0000000000
11
420.0000000000
21
297.0000000000
0
LINE
5
203
100
AcDbEntity
8
0
100
AcDbLine
62
7
6
CONTINUOUS
10
201.7994796656
20
118.1645959781
11
203.2136932279
21
116.7503824157
0
LINE
5
204
100
AcDbEntity
8
0
100
AcDbLine
62
7
6
CONTINUOUS
10
208.8705474774
20
125.2356637900
11
210.2847610398
21
123.8214502276
0
LINE
5
205
100
AcDbEntity
8
0
100
AcDbLine
62
7
6
CONTINUOUS
10
209.4710888895
20
125.8362052020
11
210.8853024518
21
124.4219916396
0
LINE
5
206
100
AcDbEntity
8
0
100
AcDbLine
62
7
6
CONTINUOUS
10
224.0869439222
20
137.6236331100
11
222.6727303598
21
139.0378466724
0
LINE
5
207
100
AcDbEntity
8
0
100
AcDbLine
62
7
6
CONTINUOUS
10
267.1286096582
20
216.3933415275
11
266.8775115409
21
216.2243136083
0
LINE
5
208
100
AcDbEntity
8
0
100
AcDbLine
62
7
6
CONTINUOUS
10
267.0030605995
20
215.8017438102
11
267.1913849060
21
215.9707717294
0
LINE
5
209
100
AcDbEntity
8
0
100
AcDbLine
62
7
6
CONTINUOUS
10
253.3046913954
20
147.5881348640
11
271.2095275186
21
147.5881348640
0
LINE
5
20A
100
AcDbEntity
8
0
100
AcDbLine
62
7
6
CONTINUOUS
10
254.2611399363
20
149.0294332709
11
270.2530789777
21
149.0294332709
0
LINE
5
20B
100
AcDbEntity
8
0
100
AcDbLine
62
7
6
CONTINUOUS
10
233.5098950192
20
149.8750113317
11
234.9241085816
21
148.4607977694
0
LINE
5
20C
100
AcDbEntity
8
0
100
AcDbLine
62
7
6
CONTINUOUS
10
237.6851488108
20
149.1005176550
11
240.5135759355
21
146.2720905303
0
LINE
5
20D
100
AcDbEntity
8
0
100
AcDbLine
62
7
6
CONTINUOUS
10
238.0387022014
20
149.4540710456
11
240.8671293261
21
146.6256439209
0
LINE
5
20E
100
AcDbEntity
8
0
100
AcDbLine
62
7
6
CONTINUOUS
10
259.0934397303
20
214.8720900177
11
260.2233855687
21
216.4778554871
0
LINE
5
20F
100
AcDbEntity
8
0
100
AcDbLine
62
7
6
CONTINUOUS
10
259.7211871788
20
216.4778554871
11
258.3401425046
21
214.5340341792
0
LINE
5
210
100
AcDbEntity
8
0
100
AcDbLine
62
7
6
CONTINUOUS
10
258.3401425046
20
213.8579223839
11
258.7795656468
21
214.4495202196
0
LINE
5
211
100
AcDbEntity
8
0
100
AcDbLine
62
7
6
CONTINUOUS
10
273.4157222023
20
151.8381348640
11
269.0916906206
21
151.8381348640
0
LINE
5
212
100
AcDbEntity
8
0
100
AcDbLine
62
7
6
CONTINUOUS
10
264.4157222023
20
151.8381348640
11
260.0916906206
21
151.8381348640
0
LINE
5
213
100
AcDbEntity
8
0
100
AcDbLine
62
7
6
CONTINUOUS
10
255.4157222023
20
151.8381348640
11
251.0916906206
21
151.8381348640
0
LINE
5
214
100
AcDbEntity
8
DEFAULT_1
100
AcDbLine
62
2
6
CENTER
10
262.2571094570
20
153.0881348640
11
256.2571094570
21
153.0881348640
0
LINE
5
215
100
AcDbEntity
8
DEFAULT_1
100
AcDbLine
62
2
6
CENTER
10
244.9109037890
20
153.0881348640
11
256.2571094570
21
153.0881348640
0
LINE
5
216
100
AcDbEntity
8
DEFAULT_1
100
AcDbLine
62
2
6
CENTER
10
268.2571094570
20
153.0881348640
11
279.6033151250
21
153.0881348640
0
LINE
5
217
100
AcDbEntity
8
DEFAULT_1
100
AcDbLine
62
2
6
CENTER
10
262.2571094570
20
153.0881348640
11
268.2571094570
21
153.0881348640
0
LINE
5
218
100
AcDbEntity
8
0
100
AcDbLine
62
7
6
CONTINUOUS
10
273.4225271362
20
154.3381348640
11
269.0984967118
21
154.3381348640
0
LINE
5
219
100
AcDbEntity
8
0
100
AcDbLine
62
7
6
CONTINUOUS
10
264.4225271362
20
154.3381348640
11
260.0984967118
21
154.3381348640
0
LINE
5
21A
100
AcDbEntity
8
0
100
AcDbLine
62
7
6
CONTINUOUS
10
255.4225271362
20
154.3381348640
11
251.0984967118
21
154.3381348640
0
LINE
5
21B
100
AcDbEntity
8
0
100
AcDbLine
62
7
6
CONTINUOUS
10
264.1154207556
20
216.4778554871
11
263.7387728612
21
215.8862577698
0
LINE
5
21C
100
AcDbEntity
8
0
100
AcDbLine
62
7
6
CONTINUOUS
10
263.7387728612
20
215.2101458562
11
264.1154207556
21
215.8017438102
0
LINE
5
21D
100
AcDbEntity
8
0
100
AcDbLine
62
7
6
CONTINUOUS
10
266.8775115409
20
216.2243136083
11
266.6264119867
21
215.8862577698
0
LINE
5
21E
100
AcDbEntity
8
0
100
AcDbLine
62
7
6
CONTINUOUS
10
268.2585554967
20
215.0411179369
11
266.5008629280
21
212.9282687690
0
LINE
5
21F
100
AcDbEntity
8
0
100
AcDbLine
62
7
6
CONTINUOUS
10
267.0030605995
20
212.9282687690
11
268.5724302986
21
214.7875760581
0
LINE
5
220
100
AcDbEntity
8
0
100
AcDbLine
62
7
6
CONTINUOUS
10
249.3158081626
20
156.6129815430
11
275.1984107515
21
156.6129815430
0
LINE
5
221
100
AcDbEntity
8
0
100
AcDbLine
62
7
6
CONTINUOUS
10
255.6408273263
20
213.8579223839
11
256.2058002455
21
216.1397996487
0
LINE
5
222
100
AcDbEntity
8
0
100
AcDbLine
62
7
6
CONTINUOUS
10
255.3269536020
20
212.5056989117
11
255.5780527970
21
213.5198665455
0
LINE
5
223
100
AcDbEntity
8
0
100
AcDbLine
62
7
6
CONTINUOUS
10
253.4437105379
20
212.5056989117
11
254.4481067789
21
216.4778554871
0
LINE
5
224
100
AcDbEntity
8
0
100
AcDbLine
62
7
6
CONTINUOUS
10
255.9547014098
20
216.4778554871
11
254.9503049892
21
212.5056989117
0
LINE
5
225
100
AcDbEntity
8
0
100
AcDbLine
62
7
6
CONTINUOUS
10
254.0714581661
20
216.4778554871
11
253.1926114328
21
213.0127827286
0
LINE
5
226
100
AcDbEntity
8
0
100
AcDbLine
62
7
6
CONTINUOUS
10
266.8775115409
20
215.5482019314
11
267.0030605995
21
215.8017438102
0
LINE
5
227
100
AcDbEntity
8
0
100
AcDbLine
62
7
6
CONTINUOUS
10
272.1505921204
20
216.4778554871
11
270.6439976691
21
214.1959783408
0
LINE
5
228
100
AcDbEntity
8
0
100
AcDbLine
62
7
6
CONTINUOUS
10
271.0834200929
20
214.1959783408
11
272.1505921204
21
215.8017438102
0
LINE
5
229
100
AcDbEntity
8
0
100
AcDbLine
62
7
6
CONTINUOUS
10
233.9728382095
20
158.1161291151
11
229.0230907412
21
153.1663816468
0
LINE
5
22A
100
AcDbEntity
8
0
100
AcDbLine
62
7
6
CONTINUOUS
10
249.3158081626
20
156.6129815430
11
249.2220288010
21
156.7543002220
0
LINE
5
22B
100
AcDbEntity
8
0
100
AcDbLine
62
7
6
CONTINUOUS
10
238.4049210397
20
200.3018015824
11
241.9464930474
21
174.4279292840
0
LINE
5
22C
100
AcDbEntity
8
0
100
AcDbLine
62
7
6
CONTINUOUS
10
238.8756847879
20
200.3662389304
11
242.4172567956
21
174.4923666319
0
LINE
5
22D
100
AcDbEntity
8
0
100
AcDbLine
62
7
6
CONTINUOUS
10
248.3593596216
20
152.5676820821
11
248.3593596216
21
158.1881348640
0
LINE
5
22E
100
AcDbEntity
8
0
100
AcDbLine
62
7
6
CONTINUOUS
10
265.8103395133
20
215.6327158910
11
264.9942684768
21
213.5198665455
0
LINE
5
22F
100
AcDbEntity
8
0
100
AcDbLine
62
7
6
CONTINUOUS
10
265.1825927832
20
213.3508386263
11
265.9986638198
21
215.4636877350
0
LINE
5
230
100
AcDbEntity
8
0
100
AcDbLine
62
7
6
CONTINUOUS
10
268.5724302986
20
214.7875760581
11
268.6979793573
21
215.0411179369
0
LINE
5
231
100
AcDbEntity
8
0
100
AcDbLine
62
7
6
CONTINUOUS
10
236.8012653343
20
155.2877019904
11
231.8515178660
21
150.3379545221
0
LINE
5
232
100
AcDbEntity
8
0
100
AcDbLine
62
7
6
CONTINUOUS
10
237.5090761917
20
155.2884060666
11
253.7637668234
21
171.5430966983
0
LINE
5
233
100
AcDbEntity
8
0
100
AcDbLine
62
7
6
CONTINUOUS
10
249.3158081626
20
156.6129815430
11
249.3158081626
21
154.0089804891
0
LINE
5
234
100
AcDbEntity
8
0
100
AcDbLine
62
7
6
CONTINUOUS
10
268.3841059922
20
215.3791737754
11
268.2585554967
21
215.0411179369
0
LINE
5
235
100
AcDbEntity
8
0
100
AcDbLine
62
7
6
CONTINUOUS
10
201.7994796656
20
118.1645959781
11
222.5647705983
21
138.9298869109
0
LINE
5
236
100
AcDbEntity
8
0
100
AcDbLine
62
7
6
CONTINUOUS
10
222.6727303598
20
139.0378466724
11
233.5098949894
21
149.8750113020
0
LINE
5
237
100
AcDbEntity
8
0
100
AcDbLine
62
7
6
CONTINUOUS
10
203.2136932279
20
116.7503824157
11
234.9241085518
21
148.4607977396
0
LINE
5
238
100
AcDbEntity
8
0
100
AcDbLine
62
7
6
CONTINUOUS
10
240.3375033164
20
152.4599789419
11
256.5921939481
21
168.7146695736
0
LINE
5
239
100
AcDbEntity
8
0
100
AcDbLine
62
7
6
CONTINUOUS
10
235.3870517719
20
146.8024206162
11
237.6851488108
21
149.1005176550
0
LINE
5
23A
100
AcDbEntity
8
0
100
AcDbLine
62
7
6
CONTINUOUS
10
238.0387022014
20
149.4540710456
11
240.3367992402
21
151.7521680845
0
LINE
5
23B
100
AcDbEntity
8
0
100
AcDbLine
62
7
6
CONTINUOUS
10
246.4687078624
20
200.3807629090
11
249.8725872560
21
175.5128396930
0
LINE
5
23C
100
AcDbEntity
8
0
100
AcDbLine
62
7
6
CONTINUOUS
10
266.6264119867
20
215.8862577698
11
266.5636367390
21
215.5482019314
0
LINE
5
23D
100
AcDbEntity
8
0
100
AcDbLine
62
7
6
CONTINUOUS
10
238.2154788967
20
143.9739934914
11
240.5135759355
21
146.2720905303
0
LINE
5
23E
100
AcDbEntity
8
0
100
AcDbLine
62
7
6
CONTINUOUS
10
240.8671293261
20
146.6256439209
11
243.1652263650
21
148.9237409597
0
LINE
5
23F
100
AcDbEntity
8
0
100
AcDbLine
62
7
6
CONTINUOUS
10
257.9634938918
20
216.4778554871
11
257.9634938918
21
212.5056989117
0
LINE
5
240
100
AcDbEntity
8
0
100
AcDbLine
62
7
6
CONTINUOUS
10
258.3401425046
20
212.5056989117
11
258.3401425046
21
213.8579223839
0
LINE
5
241
100
AcDbEntity
8
0
100
AcDbLine
62
7
6
CONTINUOUS
10
258.3401425046
20
214.5340341792
11
258.3401425046
21
216.4778554871
0
LINE
5
242
100
AcDbEntity
8
DEFAULT_1
100
AcDbLine
62
2
6
CENTER
10
262.2571094570
20
153.0881348640
11
262.2571094570
21
147.0881348640
0
LINE
5
243
100
AcDbEntity
8
DEFAULT_1
100
AcDbLine
62
2
6
CENTER
10
262.2571094570
20
153.0881348640
11
262.2571094570
21
222.0979448259
0
LINE
5
244
100
AcDbEntity
8
0
100
AcDbLine
62
7
6
CONTINUOUS
10
268.6979793573
20
215.0411179369
11
268.7607546050
21
215.3791737754
0
LINE
5
245
100
AcDbEntity
8
0
100
AcDbLine
62
7
6
CONTINUOUS
10
263.7387728612
20
215.8862577698
11
263.7387728612
21
215.2101458562
0
LINE
5
246
100
AcDbEntity
8
0
100
AcDbLine
62
7
6
CONTINUOUS
10
264.1154207556
20
215.8017438102
11
264.1154207556
21
212.5056989117
0
LINE
5
247
100
AcDbEntity
8
0
100
AcDbLine
62
7
6
CONTINUOUS
10
264.4920693685
20
212.5056989117
11
264.4920693685
21
216.4778554871
0
LINE
5
248
100
AcDbEntity
8
0
100
AcDbLine
62
7
6
CONTINUOUS
10
266.5008629280
20
212.9282687690
11
266.5008629280
21
212.5056989117
0
LINE
5
249
100
AcDbEntity
8
0
100
AcDbLine
62
7
6
CONTINUOUS
10
253.1926114328
20
213.0127827286
11
252.3137646994
21
216.4778554871
0
LINE
5
24A
100
AcDbEntity
8
0
100
AcDbLine
62
7
6
CONTINUOUS
10
251.9371160866
20
216.4778554871
11
252.9415124174
21
212.5056989117
0
LINE
5
24B
100
AcDbEntity
8
0
100
AcDbLine
62
7
6
CONTINUOUS
10
268.3841059922
20
215.5482019314
11
268.3841059922
21
215.3791737754
0
LINE
5
24C
100
AcDbEntity
8
0
100
AcDbLine
62
7
6
CONTINUOUS
10
268.7607546050
20
212.5056989117
11
268.7607546050
21
212.9282687690
0
LINE
5
24D
100
AcDbEntity
8
0
100
AcDbLine
62
7
6
CONTINUOUS
10
268.7607546050
20
215.3791737754
11
268.7607546050
21
215.5482019314
0
LINE
5
24E
100
AcDbEntity
8
0
100
AcDbLine
62
7
6
CONTINUOUS
10
269.2629522765
20
214.3650062600
11
269.2629522765
21
213.9424363436
0
LINE
5
24F
100
AcDbEntity
8
0
100
AcDbLine
62
7
6
CONTINUOUS
10
270.1417985608
20
213.9424363436
11
270.1417985608
21
214.3650062600
0
LINE
5
250
100
AcDbEntity
8
0
100
AcDbLine
62
7
6
CONTINUOUS
10
270.6439976691
20
214.1959783408
11
270.6439976691
21
213.6888944647
0
LINE
5
251
100
AcDbEntity
8
0
100
AcDbLine
62
7
6
CONTINUOUS
10
257.4612958611
20
212.5056989117
11
256.4568994405
21
216.4778554871
0
LINE
5
252
100
AcDbEntity
8
0
100
AcDbLine
62
7
6
CONTINUOUS
10
256.8335480533
20
213.5198665455
11
257.0846472483
21
212.5056989117
0
LINE
5
253
100
AcDbEntity
8
0
100
AcDbLine
62
7
6
CONTINUOUS
10
256.2058002455
20
216.1397996487
11
256.7707731648
21
213.8579223839
0
LINE
5
254
100
AcDbEntity
8
0
100
AcDbLine
62
7
6
CONTINUOUS
10
272.1505921204
20
215.8017438102
11
272.1505921204
21
214.1959783408
0
LINE
5
255
100
AcDbEntity
8
0
100
AcDbLine
62
7
6
CONTINUOUS
10
272.1505921204
20
213.6888944647
11
272.1505921204
21
212.5056989117
0
LINE
5
256
100
AcDbEntity
8
0
100
AcDbLine
62
7
6
CONTINUOUS
10
272.5272407332
20
212.5056989117
11
272.5272407332
21
213.6888944647
0
LINE
5
257
100
AcDbEntity
8
0
100
AcDbLine
62
7
6
CONTINUOUS
10
272.5272407332
20
214.1959783408
11
272.5272407332
21
216.4778554871
0
LINE
5
258
100
AcDbEntity
8
0
100
AcDbLine
62
7
6
CONTINUOUS
10
273.1549874634
20
213.6888944647
11
273.1549874634
21
214.1959783408
0
LINE
5
259
100
AcDbEntity
8
0
100
AcDbLine
62
7
6
CONTINUOUS
10
275.1984107515
20
154.0089804891
11
275.1984107515
21
156.6129815430
0
LINE
5
25A
100
AcDbEntity
8
0
100
AcDbLine
62
7
6
CONTINUOUS
10
274.6416316580
20
175.5128396930
11
278.0455110516
21
200.3807629090
0
LINE
5
25B
100
AcDbEntity
8
0
100
AcDbLine
62
7
6
CONTINUOUS
10
276.1548592924
20
152.5676820821
11
276.1548592924
21
158.1881348640
0
LINE
5
25C
100
AcDbEntity
8
0
100
AcDbLine
62
7
6
CONTINUOUS
10
276.4071094570
20
160.5881348640
11
276.4071094570
21
162.3746882371
0
LINE
5
25D
100
AcDbEntity
8
0
100
AcDbLine
62
7
6
CONTINUOUS
10
275.6813742744
20
163.1938656112
11
275.5841299447
21
161.5913410371
0
LINE
5
25E
100
AcDbEntity
8
0
100
AcDbLine
62
7
6
CONTINUOUS
10
275.1984107515
20
156.6129815430
11
275.2921901130
21
156.7543002220
0
LINE
5
25F
100
AcDbEntity
8
0
100
AcDbLine
62
7
6
CONTINUOUS
10
258.7795656468
20
214.4495202196
11
259.7211871788
21
212.5056989117
0
LINE
5
260
100
AcDbEntity
8
0
100
AcDbLine
62
7
6
CONTINUOUS
10
260.2233855687
20
212.5056989117
11
259.0934397303
21
214.8720900177
0
LINE
5
261
100
AcDbEntity
8
0
100
AcDbLine
62
7
6
CONTINUOUS
10
268.7607546050
20
215.5482019314
11
268.6979793573
21
215.8862577698
0
LINE
5
262
100
AcDbEntity
8
0
100
AcDbLine
62
7
6
CONTINUOUS
10
282.0969621185
20
174.4923666319
11
285.6385341261
21
200.3662389304
0
LINE
5
263
100
AcDbEntity
8
0
100
AcDbLine
62
7
6
CONTINUOUS
10
282.5677258667
20
174.4279292840
11
286.1092978743
21
200.3018015824
0
LINE
5
264
100
AcDbEntity
8
0
100
AcDbLine
62
7
6
CONTINUOUS
10
267.1913849060
20
215.9707717294
11
267.5052582710
21
216.0552856891
0
LINE
5
265
100
AcDbEntity
8
0
100
AcDbLine
62
7
6
CONTINUOUS
10
267.5680335188
20
216.4778554871
11
267.1286096582
21
216.3933415275
0
LINE
5
266
100
AcDbEntity
8
0
100
AcDbLine
62
7
6
CONTINUOUS
10
252.9415124174
20
212.5056989117
11
253.4437105379
21
212.5056989117
0
LINE
5
267
100
AcDbEntity
8
0
100
AcDbLine
62
7
6
CONTINUOUS
10
254.9503049892
20
212.5056989117
11
255.3269536020
21
212.5056989117
0
LINE
5
268
100
AcDbEntity
8
0
100
AcDbLine
62
7
6
CONTINUOUS
10
257.0846472483
20
212.5056989117
11
257.4612958611
21
212.5056989117
0
LINE
5
269
100
AcDbEntity
8
0
100
AcDbLine
62
7
6
CONTINUOUS
10
257.9634938918
20
212.5056989117
11
258.3401425046
21
212.5056989117
0
LINE
5
26A
100
AcDbEntity
8
0
100
AcDbLine
62
7
6
CONTINUOUS
10
259.7211871788
20
212.5056989117
11
260.2233855687
21
212.5056989117
0
LINE
5
26B
100
AcDbEntity
8
0
100
AcDbLine
62
7
6
CONTINUOUS
10
264.1154207556
20
212.5056989117
11
264.4920693685
21
212.5056989117
0
LINE
5
26C
100
AcDbEntity
8
0
100
AcDbLine
62
7
6
CONTINUOUS
10
266.5008629280
20
212.5056989117
11
268.7607546050
21
212.5056989117
0
LINE
5
26D
100
AcDbEntity
8
0
100
AcDbLine
62
7
6
CONTINUOUS
10
272.1505921204
20
212.5056989117
11
272.5272407332
21
212.5056989117
0
LINE
5
26E
100
AcDbEntity
8
0
100
AcDbLine
62
7
6
CONTINUOUS
10
268.7607546050
20
212.9282687690
11
267.0030605995
21
212.9282687690
0
LINE
5
26F
100
AcDbEntity
8
0
100
AcDbLine
62
7
6
CONTINUOUS
10
268.2585554967
20
215.8017438102
11
268.3841059922
21
215.5482019314
0
LINE
5
270
100
AcDbEntity
8
0
100
AcDbLine
62
7
6
CONTINUOUS
10
255.5780527970
20
213.5198665455
11
256.8335480533
21
213.5198665455
0
LINE
5
271
100
AcDbEntity
8
0
100
AcDbLine
62
7
6
CONTINUOUS
10
270.6439976691
20
213.6888944647
11
272.1505921204
21
213.6888944647
0
LINE
5
272
100
AcDbEntity
8
0
100
AcDbLine
62
7
6
CONTINUOUS
10
272.5272407332
20
213.6888944647
11
273.1549874634
21
213.6888944647
0
LINE
5
273
100
AcDbEntity
8
0
100
AcDbLine
62
7
6
CONTINUOUS
10
256.7707731648
20
213.8579223839
11
255.6408273263
21
213.8579223839
0
LINE
5
274
100
AcDbEntity
8
0
100
AcDbLine
62
7
6
CONTINUOUS
10
269.2629522765
20
213.9424363436
11
270.1417985608
21
213.9424363436
0
LINE
5
275
100
AcDbEntity
8
0
100
AcDbLine
62
7
6
CONTINUOUS
10
273.1549874634
20
214.1959783408
11
272.5272407332
21
214.1959783408
0
LINE
5
276
100
AcDbEntity
8
0
100
AcDbLine
62
7
6
CONTINUOUS
10
272.1505921204
20
214.1959783408
11
271.0834200929
21
214.1959783408
0
LINE
5
277
100
AcDbEntity
8
0
100
AcDbLine
62
7
6
CONTINUOUS
10
270.1417985608
20
214.3650062600
11
269.2629522765
21
214.3650062600
0
LINE
5
278
100
AcDbEntity
8
0
100
AcDbLine
62
7
6
CONTINUOUS
10
266.5636367390
20
215.5482019314
11
266.8775115409
21
215.5482019314
0
LINE
5
279
100
AcDbEntity
8
0
100
AcDbLine
62
7
6
CONTINUOUS
10
267.5052582710
20
216.0552856891
11
267.7563578252
21
216.0552856891
0
LINE
5
27A
100
AcDbEntity
8
0
100
AcDbLine
62
7
6
CONTINUOUS
10
272.5272407332
20
216.4778554871
11
272.1505921204
21
216.4778554871
0
LINE
5
27B
100
AcDbEntity
8
0
100
AcDbLine
62
7
6
CONTINUOUS
10
267.8191330729
20
216.4778554871
11
267.5680335188
21
216.4778554871
0
LINE
5
27C
100
AcDbEntity
8
0
100
AcDbLine
62
7
6
CONTINUOUS
10
264.4920693685
20
216.4778554871
11
264.1154207556
21
216.4778554871
0
LINE
5
27D
100
AcDbEntity
8
0
100
AcDbLine
62
7
6
CONTINUOUS
10
260.2233855687
20
216.4778554871
11
259.7211871788
21
216.4778554871
0
LINE
5
27E
100
AcDbEntity
8
0
100
AcDbLine
62
7
6
CONTINUOUS
10
258.3401425046
20
216.4778554871
11
257.9634938918
21
216.4778554871
0
LINE
5
27F
100
AcDbEntity
8
0
100
AcDbLine
62
7
6
CONTINUOUS
10
256.4568994405
20
216.4778554871
11
255.9547014098
21
216.4778554871
0
LINE
5
280
100
AcDbEntity
8
0
100
AcDbLine
62
7
6
CONTINUOUS
10
254.4481067789
20
216.4778554871
11
254.0714581661
21
216.4778554871
0
LINE
5
281
100
AcDbEntity
8
0
100
AcDbLine
62
7
6
CONTINUOUS
10
252.3137646994
20
216.4778554871
11
251.9371160866
21
216.4778554871
0
LINE
5
282
100
AcDbEntity
8
0
100
AcDbLine
62
7
6
CONTINUOUS
10
264.9942684768
20
213.5198665455
11
265.1825927832
21
213.3508386263
0
LINE
5
283
100
AcDbEntity
8
0
100
AcDbLine
62
7
6
CONTINUOUS
10
268.6979793573
20
215.8862577698
11
268.4468798031
21
216.2243136083
0
LINE
5
284
100
AcDbEntity
8
0
100
AcDbLine
62
7
6
CONTINUOUS
10
268.1957816858
20
216.3933415275
11
267.8191330729
21
216.4778554871
0
LINE
5
285
100
AcDbEntity
8
0
100
AcDbLine
62
7
6
CONTINUOUS
10
267.7563578252
20
216.0552856891
11
268.0702311903
21
215.9707717294
0
LINE
5
286
100
AcDbEntity
8
0
100
AcDbLine
62
7
6
CONTINUOUS
10
268.4468798031
20
216.2243136083
11
268.1957816858
21
216.3933415275
0
LINE
5
287
100
AcDbEntity
8
0
100
AcDbLine
62
7
6
CONTINUOUS
10
265.9986638198
20
215.4636877350
11
265.8103395133
21
215.6327158910
0
LINE
5
288
100
AcDbEntity
8
0
100
AcDbLine
62
7
6
CONTINUOUS
10
268.0702311903
20
215.9707717294
11
268.2585554967
21
215.8017438102
0
POLYLINE
5
289
100
AcDbEntity
8
0
100
AcDb2dPolyline
62
7
6
CONTINUOUS
66
1
70
0
0
VERTEX
5
28A
100
AcDbEntity
8
0
100
AcDbVertex
62
7
6
CONTINUOUS
100
AcDb2dVertex
10
122.0758690084
20
116.7503824157
0
VERTEX
5
28B
100
AcDbEntity
8
0
100
AcDbVertex
62
7
6
CONTINUOUS
100
AcDb2dVertex
10
122.1751804759
20
116.7576270905
0
VERTEX
5
28C
100
AcDbEntity
8
0
100
AcDbVertex
62
7
6
CONTINUOUS
100
AcDb2dVertex
10
122.2671952095
20
116.7772905211
0
VERTEX
5
28D
100
AcDbEntity
8
0
100
AcDbVertex
62
7
6
CONTINUOUS
100
AcDb2dVertex
10
122.3534331458
20
116.8100741576
0
VERTEX
5
28E
100
AcDbEntity
8
0
100
AcDbVertex
62
7
6
CONTINUOUS
100
AcDb2dVertex
10
122.4293344746
20
116.8538736499
0
VERTEX
5
28F
100
AcDbEntity
8
0
100
AcDbVertex
62
7
6
CONTINUOUS
100
AcDb2dVertex
10
122.4914160247
20
116.9077383709
0
VERTEX
5
290
100
AcDbEntity
8
0
100
AcDbVertex
62
7
6
CONTINUOUS
100
AcDb2dVertex
10
122.5379678158
20
116.9689086014
0
VERTEX
5
291
100
AcDbEntity
8
0
100
AcDbVertex
62
7
6
CONTINUOUS
100
AcDb2dVertex
10
122.5657599307
20
117.0339231722
0
VERTEX
5
292
100
AcDbEntity
8
0
100
AcDbVertex
62
7
6
CONTINUOUS
100
AcDb2dVertex
10
122.5758690084
20
117.1039358063
0
SEQEND
5
293
100
AcDbEntity
8
0
0
LINE
5
294
100
AcDbEntity
8
0
100
AcDbLine
62
7
6
CONTINUOUS
10
122.0758690084
20
116.7503824157
11
117.7758690084
21
116.7503824157
0
POLYLINE
5
295
100
AcDbEntity
8
0
100
AcDb2dPolyline
62
7
6
CONTINUOUS
66
1
70
0
0
VERTEX
5
296
100
AcDbEntity
8
0
100
AcDbVertex
62
7
6
CONTINUOUS
100
AcDb2dVertex
10
125.3278082287
20
123.8214502276
0
VERTEX
5
297
100
AcDbEntity
8
0
100
AcDbVertex
62
7
6
CONTINUOUS
100
AcDb2dVertex
10
125.6098886843
20
123.8326112953
0
VERTEX
5
298
100
AcDbEntity
8
0
100
AcDbVertex
62
7
6
CONTINUOUS
100
AcDb2dVertex
10
125.8866794002
20
123.8661874342
0
VERTEX
5
299
100
AcDbEntity
8
0
100
AcDbVertex
62
7
6
CONTINUOUS
100
AcDb2dVertex
10
126.1607321936
20
123.9227915822
0
VERTEX
5
29A
100
AcDbEntity
8
0
100
AcDbVertex
62
7
6
CONTINUOUS
100
AcDb2dVertex
10
126.4243916130
20
124.0005849259
0
VERTEX
5
29B
100
AcDbEntity
8
0
100
AcDbVertex
62
7
6
CONTINUOUS
100
AcDb2dVertex
10
126.6708734775
20
124.0981153149
0
VERTEX
5
29C
100
AcDbEntity
8
0
100
AcDbVertex
62
7
6
CONTINUOUS
100
AcDb2dVertex
10
126.9001157931
20
124.2148356973
0
VERTEX
5
29D
100
AcDbEntity
8
0
100
AcDbVertex
62
7
6
CONTINUOUS
100
AcDb2dVertex
10
127.1113923347
20
124.3509742498
0
VERTEX
5
29E
100
AcDbEntity
8
0
100
AcDbVertex
62
7
6
CONTINUOUS
100
AcDb2dVertex
10
127.2999116140
20
124.5027531366
0
VERTEX
5
29F
100
AcDbEntity
8
0
100
AcDbVertex
62
7
6
CONTINUOUS
100
AcDb2dVertex
10
127.4600108725
20
124.6660078592
0
VERTEX
5
2A0
100
AcDbEntity
8
0
100
AcDbVertex
62
7
6
CONTINUOUS
100
AcDb2dVertex
10
127.5935776963
20
124.8421265837
0
SEQEND
5
2A1
100
AcDbEntity
8
0
0
LINE
5
2A2
100
AcDbEntity
8
0
100
AcDbLine
62
7
6
CONTINUOUS
10
125.3278082287
20
123.8214502276
11
125.0758690084
21
123.8214502276
0
LINE
5
2A3
100
AcDbEntity
8
0
100
AcDbLine
62
7
6
CONTINUOUS
10
114.7758690084
20
123.8214502276
11
108.3698431379
21
123.8214502276
0
POLYLINE
5
2A4
100
AcDbEntity
8
0
100
AcDb2dPolyline
62
7
6
CONTINUOUS
66
1
70
0
0
VERTEX
5
2A5
100
AcDbEntity
8
0
100
AcDbVertex
62
7
6
CONTINUOUS
100
AcDb2dVertex
10
114.7758690084
20
123.8214502276
0
VERTEX
5
2A6
100
AcDbEntity
8
0
100
AcDbVertex
62
7
6
CONTINUOUS
100
AcDb2dVertex
10
115.0992210108
20
123.8069816882
0
VERTEX
5
2A7
100
AcDbEntity
8
0
100
AcDbVertex
62
7
6
CONTINUOUS
100
AcDb2dVertex
10
115.4155385702
20
123.7626044038
0
VERTEX
5
2A8
100
AcDbEntity
8
0
100
AcDbVertex
62
7
6
CONTINUOUS
100
AcDb2dVertex
10
115.7290210631
20
123.6871976804
0
VERTEX
5
2A9
100
AcDbEntity
8
0
100
AcDbVertex
62
7
6
CONTINUOUS
100
AcDb2dVertex
10
116.0270703600
20
123.5841235998
0
VERTEX
5
2AA
100
AcDbEntity
8
0
100
AcDbVertex
62
7
6
CONTINUOUS
100
AcDb2dVertex
10
116.2986079454
20
123.4556906745
0
VERTEX
5
2AB
100
AcDbEntity
8
0
100
AcDbVertex
62
7
6
CONTINUOUS
100
AcDb2dVertex
10
116.5432743534
20
123.3039389177
0
VERTEX
5
2AC
100
AcDbEntity
8
0
100
AcDbVertex
62
7
6
CONTINUOUS
100
AcDb2dVertex
10
116.7580219690
20
123.1309567041
0
VERTEX
5
2AD
100
AcDbEntity
8
0
100
AcDbVertex
62
7
6
CONTINUOUS
100
AcDb2dVertex
10
116.9398367249
20
122.9389074614
0
VERTEX
5
2AE
100
AcDbEntity
8
0
100
AcDbVertex
62
7
6
CONTINUOUS
100
AcDb2dVertex
10
117.0857867325
20
122.7280139931
0
VERTEX
5
2AF
100
AcDbEntity
8
0
100
AcDbVertex
62
7
6
CONTINUOUS
100
AcDb2dVertex
10
117.1925778397
20
122.5061865477
0
VERTEX
5
2B0
100
AcDbEntity
8
0
100
AcDbVertex
62
7
6
CONTINUOUS
100
AcDb2dVertex
10
117.2554046673
20
122.2824077061
0
VERTEX
5
2B1
100
AcDbEntity
8
0
100
AcDbVertex
62
7
6
CONTINUOUS
100
AcDb2dVertex
10
117.2758690084
20
122.0536832746
0
SEQEND
5
2B2
100
AcDbEntity
8
0
0
POLYLINE
5
2B3
100
AcDbEntity
8
0
100
AcDb2dPolyline
62
7
6
CONTINUOUS
66
1
70
0
0
VERTEX
5
2B4
100
AcDbEntity
8
0
100
AcDbVertex
62
7
6
CONTINUOUS
100
AcDb2dVertex
10
107.0183323337
20
124.4219916396
0
VERTEX
5
2B5
100
AcDbEntity
8
0
100
AcDbVertex
62
7
6
CONTINUOUS
100
AcDb2dVertex
10
107.1221063560
20
124.2932161226
0
VERTEX
5
2B6
100
AcDbEntity
8
0
100
AcDbVertex
62
7
6
CONTINUOUS
100
AcDb2dVertex
10
107.2488872240
20
124.1773204168
0
VERTEX
5
2B7
100
AcDbEntity
8
0
100
AcDbVertex
62
7
6
CONTINUOUS
100
AcDb2dVertex
10
107.4004459237
20
124.0730715103
0
VERTEX
5
2B8
100
AcDbEntity
8
0
100
AcDbVertex
62
7
6
CONTINUOUS
100
AcDb2dVertex
10
107.5714694975
20
123.9841684385
0
VERTEX
5
2B9
100
AcDbEntity
8
0
100
AcDbVertex
62
7
6
CONTINUOUS
100
AcDb2dVertex
10
107.7590115964
20
123.9136950216
0
VERTEX
5
2BA
100
AcDbEntity
8
0
100
AcDbVertex
62
7
6
CONTINUOUS
100
AcDb2dVertex
10
107.9577433808
20
123.8622638937
0
VERTEX
5
2BB
100
AcDbEntity
8
0
100
AcDbVertex
62
7
6
CONTINUOUS
100
AcDb2dVertex
10
108.1605650251
20
123.8317207008
0
VERTEX
5
2BC
100
AcDbEntity
8
0
100
AcDbVertex
62
7
6
CONTINUOUS
100
AcDb2dVertex
10
108.3698431379
20
123.8214502276
0
SEQEND
5
2BD
100
AcDbEntity
8
0
0
LINE
5
2BE
100
AcDbEntity
8
0
100
AcDbLine
62
7
6
CONTINUOUS
10
98.3123961419
20
137.6236331100
11
97.9839079712
21
138.1217510563
0
LINE
5
2BF
100
AcDbEntity
8
0
100
AcDbLine
62
7
6
CONTINUOUS
10
103.9004807314
20
137.5156733485
11
110.4933256146
21
127.5183137884
0
POLYLINE
5
2C0
100
AcDbEntity
8
0
100
AcDb2dPolyline
62
7
6
CONTINUOUS
66
1
70
0
0
VERTEX
5
2C1
100
AcDbEntity
8
0
100
AcDbVertex
62
7
6
CONTINUOUS
100
AcDb2dVertex
10
110.4933256146
20
127.5183137884
0
VERTEX
5
2C2
100
AcDbEntity
8
0
100
AcDbVertex
62
7
6
CONTINUOUS
100
AcDb2dVertex
10
110.6114809206
20
127.3049035684
0
VERTEX
5
2C3
100
AcDbEntity
8
0
100
AcDbVertex
62
7
6
CONTINUOUS
100
AcDb2dVertex
10
110.6882869321
20
127.0833161288
0
VERTEX
5
2C4
100
AcDbEntity
8
0
100
AcDbVertex
62
7
6
CONTINUOUS
100
AcDb2dVertex
10
110.7240814789
20
126.8503591348
0
VERTEX
5
2C5
100
AcDbEntity
8
0
100
AcDbVertex
62
7
6
CONTINUOUS
100
AcDb2dVertex
10
110.7267770107
20
126.7706549435
0
SEQEND
5
2C6
100
AcDbEntity
8
0
0
POLYLINE
5
2C7
100
AcDbEntity
8
0
100
AcDb2dPolyline
62
7
6
CONTINUOUS
66
1
70
0
0
VERTEX
5
2C8
100
AcDbEntity
8
0
100
AcDbVertex
62
7
6
CONTINUOUS
100
AcDb2dVertex
10
100.5781656095
20
138.3707237068
0
VERTEX
5
2C9
100
AcDbEntity
8
0
100
AcDbVertex
62
7
6
CONTINUOUS
100
AcDb2dVertex
10
100.8799732370
20
138.4542721249
0
VERTEX
5
2CA
100
AcDbEntity
8
0
100
AcDbVertex
62
7
6
CONTINUOUS
100
AcDb2dVertex
10
101.1933451993
20
138.5085821765
0
VERTEX
5
2CB
100
AcDbEntity
8
0
100
AcDbVertex
62
7
6
CONTINUOUS
100
AcDb2dVertex
10
101.5227961396
20
138.5338927433
0
VERTEX
5
2CC
100
AcDbEntity
8
0
100
AcDbVertex
62
7
6
CONTINUOUS
100
AcDb2dVertex
10
101.8547821284
20
138.5294871804
0
VERTEX
5
2CD
100
AcDbEntity
8
0
100
AcDbVertex
62
7
6
CONTINUOUS
100
AcDb2dVertex
10
102.1777723301
20
138.4941335509
0
VERTEX
5
2CE
100
AcDbEntity
8
0
100
AcDbVertex
62
7
6
CONTINUOUS
100
AcDb2dVertex
10
102.4902421053
20
138.4296166133
0
VERTEX
5
2CF
100
AcDbEntity
8
0
100
AcDbVertex
62
7
6
CONTINUOUS
100
AcDb2dVertex
10
102.7881447610
20
138.3369536479
0
VERTEX
5
2D0
100
AcDbEntity
8
0
100
AcDbVertex
62
7
6
CONTINUOUS
100
AcDb2dVertex
10
103.0675156229
20
138.2172151530
0
VERTEX
5
2D1
100
AcDbEntity
8
0
100
AcDbVertex
62
7
6
CONTINUOUS
100
AcDb2dVertex
10
103.3255880635
20
138.0697693478
0
VERTEX
5
2D2
100
AcDbEntity
8
0
100
AcDbVertex
62
7
6
CONTINUOUS
100
AcDb2dVertex
10
103.5547212497
20
137.9007403498
0
VERTEX
5
2D3
100
AcDbEntity
8
0
100
AcDbVertex
62
7
6
CONTINUOUS
100
AcDb2dVertex
10
103.7452817587
20
137.7167808739
0
VERTEX
5
2D4
100
AcDbEntity
8
0
100
AcDbVertex
62
7
6
CONTINUOUS
100
AcDb2dVertex
10
103.9004807314
20
137.5156733485
0
SEQEND
5
2D5
100
AcDbEntity
8
0
0
POLYLINE
5
2D6
100
AcDbEntity
8
0
100
AcDb2dPolyline
62
7
6
CONTINUOUS
66
1
70
0
0
VERTEX
5
2D7
100
AcDbEntity
8
0
100
AcDbVertex
62
7
6
CONTINUOUS
100
AcDb2dVertex
10
119.9258690084
20
146.2720905303
0
VERTEX
5
2D8
100
AcDbEntity
8
0
100
AcDbVertex
62
7
6
CONTINUOUS
100
AcDb2dVertex
10
120.4593626574
20
146.3258037008
0
VERTEX
5
2D9
100
AcDbEntity
8
0
100
AcDbVertex
62
7
6
CONTINUOUS
100
AcDb2dVertex
10
120.9258690084
20
146.4615592212
0
VERTEX
5
2DA
100
AcDbEntity
8
0
100
AcDbVertex
62
7
6
CONTINUOUS
100
AcDb2dVertex
10
121.3376475876
20
146.6880258857
0
VERTEX
5
2DB
100
AcDbEntity
8
0
100
AcDbVertex
62
7
6
CONTINUOUS
100
AcDb2dVertex
10
121.6579198159
20
146.9791973114
0
VERTEX
5
2DC
100
AcDbEntity
8
0
100
AcDbVertex
62
7
6
CONTINUOUS
100
AcDb2dVertex
10
121.8543944121
20
147.3209089089
0
VERTEX
5
2DD
100
AcDbEntity
8
0
100
AcDbVertex
62
7
6
CONTINUOUS
100
AcDb2dVertex
10
121.9258690084
20
147.6863040926
0
SEQEND
5
2DE
100
AcDbEntity
8
0
0
POLYLINE
5
2DF
100
AcDbEntity
8
0
100
AcDb2dPolyline
62
7
6
CONTINUOUS
66
1
70
0
0
VERTEX
5
2E0
100
AcDbEntity
8
0
100
AcDbVertex
62
7
6
CONTINUOUS
100
AcDb2dVertex
10
119.9258690084
20
146.6256439209
0
VERTEX
5
2E1
100
AcDbEntity
8
0
100
AcDbVertex
62
7
6
CONTINUOUS
100
AcDb2dVertex
10
120.4593626574
20
146.6793570914
0
VERTEX
5
2E2
100
AcDbEntity
8
0
100
AcDbVertex
62
7
6
CONTINUOUS
100
AcDb2dVertex
10
120.9258690084
20
146.8151126118
0
VERTEX
5
2E3
100
AcDbEntity
8
0
100
AcDbVertex
62
7
6
CONTINUOUS
100
AcDb2dVertex
10
121.3376475876
20
147.0415792763
0
VERTEX
5
2E4
100
AcDbEntity
8
0
100
AcDbVertex
62
7
6
CONTINUOUS
100
AcDb2dVertex
10
121.6579198159
20
147.3327507020
0
VERTEX
5
2E5
100
AcDbEntity
8
0
100
AcDbVertex
62
7
6
CONTINUOUS
100
AcDb2dVertex
10
121.8543944121
20
147.6744622994
0
SEQEND
5
2E6
100
AcDbEntity
8
0
0
LINE
5
2E7
100
AcDbEntity
8
0
100
AcDbLine
62
7
6
CONTINUOUS
10
135.4592938678
20
136.7696622922
11
133.6466782937
21
137.3673347696
0
LINE
5
2E8
100
AcDbEntity
8
0
100
AcDbLine
62
7
6
CONTINUOUS
10
135.4592938678
20
138.1838758546
11
133.6466782937
21
138.7815483320
0
POLYLINE
5
2E9
100
AcDbEntity
8
0
100
AcDb2dPolyline
62
7
6
CONTINUOUS
66
1
70
0
0
VERTEX
5
2EA
100
AcDbEntity
8
0
100
AcDbVertex
62
7
6
CONTINUOUS
100
AcDb2dVertex
10
133.6466782937
20
137.3673347696
0
VERTEX
5
2EB
100
AcDbEntity
8
0
100
AcDbVertex
62
7
6
CONTINUOUS
100
AcDb2dVertex
10
133.5111996067
20
137.4211475607
0
VERTEX
5
2EC
100
AcDbEntity
8
0
100
AcDbVertex
62
7
6
CONTINUOUS
100
AcDb2dVertex
10
133.3906265166
20
137.4888613055
0
VERTEX
5
2ED
100
AcDbEntity
8
0
100
AcDbVertex
62
7
6
CONTINUOUS
100
AcDb2dVertex
10
133.2830641654
20
137.5720758098
0
VERTEX
5
2EE
100
AcDbEntity
8
0
100
AcDbVertex
62
7
6
CONTINUOUS
100
AcDb2dVertex
10
133.1941971266
20
137.6659916560
0
VERTEX
5
2EF
100
AcDbEntity
8
0
100
AcDbVertex
62
7
6
CONTINUOUS
100
AcDb2dVertex
10
133.1293254729
20
137.7666056646
0
VERTEX
5
2F0
100
AcDbEntity
8
0
100
AcDbVertex
62
7
6
CONTINUOUS
100
AcDb2dVertex
10
133.0877078480
20
137.8731289264
0
VERTEX
5
2F1
100
AcDbEntity
8
0
100
AcDbVertex
62
7
6
CONTINUOUS
100
AcDb2dVertex
10
133.0704988084
20
137.9851838135
0
VERTEX
5
2F2
100
AcDbEntity
8
0
100
AcDbVertex
62
7
6
CONTINUOUS
100
AcDb2dVertex
10
133.0699379361
20
138.0086331837
0
SEQEND
5
2F3
100
AcDbEntity
8
0
0
POLYLINE
5
2F4
100
AcDbEntity
8
0
100
AcDb2dPolyline
62
7
6
CONTINUOUS
66
1
70
0
0
VERTEX
5
2F5
100
AcDbEntity
8
0
100
AcDbVertex
62
7
6
CONTINUOUS
100
AcDb2dVertex
10
97.7968741113
20
138.7199540162
0
VERTEX
5
2F6
100
AcDbEntity
8
0
100
AcDbVertex
62
7
6
CONTINUOUS
100
AcDb2dVertex
10
97.8015748523
20
138.6253156468
0
VERTEX
5
2F7
100
AcDbEntity
8
0
100
AcDbVertex
62
7
6
CONTINUOUS
100
AcDb2dVertex
10
97.8331709960
20
138.4499362729
0
VERTEX
5
2F8
100
AcDbEntity
8
0
100
AcDbVertex
62
7
6
CONTINUOUS
100
AcDb2dVertex
10
97.8938467420
20
138.2827984885
0
VERTEX
5
2F9
100
AcDbEntity
8
0
100
AcDbVertex
62
7
6
CONTINUOUS
100
AcDb2dVertex
10
97.9839079712
20
138.1217510563
0
SEQEND
5
2FA
100
AcDbEntity
8
0
0
LINE
5
2FB
100
AcDbEntity
8
0
100
AcDbLine
62
7
6
CONTINUOUS
10
97.7965235452
20
140.1336370962
11
97.7965235452
21
138.7194235338
0
POLYLINE
5
2FC
100
AcDbEntity
8
0
100
AcDb2dPolyline
62
7
6
CONTINUOUS
66
1
70
0
0
VERTEX
5
2FD
100
AcDbEntity
8
0
100
AcDbVertex
62
7
6
CONTINUOUS
100
AcDb2dVertex
10
97.7968967831
20
140.1341734068
0
VERTEX
5
2FE
100
AcDbEntity
8
0
100
AcDbVertex
62
7
6
CONTINUOUS
100
AcDb2dVertex
10
97.8002716825
20
140.2201775500
0
VERTEX
5
2FF
100
AcDbEntity
8
0
100
AcDbVertex
62
7
6
CONTINUOUS
100
AcDb2dVertex
10
97.8310487317
20
140.3946671296
0
VERTEX
5
300
100
AcDbEntity
8
0
100
AcDbVertex
62
7
6
CONTINUOUS
100
AcDb2dVertex
10
97.8914008581
20
140.5640482641
0
VERTEX
5
301
100
AcDbEntity
8
0
100
AcDbVertex
62
7
6
CONTINUOUS
100
AcDb2dVertex
10
97.9797324774
20
140.7252117046
0
VERTEX
5
302
100
AcDbEntity
8
0
100
AcDbVertex
62
7
6
CONTINUOUS
100
AcDb2dVertex
10
98.0955632054
20
140.8775234861
0
VERTEX
5
303
100
AcDbEntity
8
0
100
AcDbVertex
62
7
6
CONTINUOUS
100
AcDb2dVertex
10
98.2395194820
20
141.0206568441
0
VERTEX
5
304
100
AcDbEntity
8
0
100
AcDbVertex
62
7
6
CONTINUOUS
100
AcDb2dVertex
10
98.4066852519
20
141.1505809290
0
VERTEX
5
305
100
AcDbEntity
8
0
100
AcDbVertex
62
7
6
CONTINUOUS
100
AcDb2dVertex
10
98.5917648677
20
141.2626384988
0
VERTEX
5
306
100
AcDbEntity
8
0
100
AcDbVertex
62
7
6
CONTINUOUS
100
AcDb2dVertex
10
98.7965235452
20
141.3583819676
0
SEQEND
5
307
100
AcDbEntity
8
0
0
LINE
5
308
100
AcDbEntity
8
0
100
AcDbLine
62
7
6
CONTINUOUS
10
128.4258690084
20
148.5542799499
11
122.3258690084
21
147.5881348640
0
LINE
5
309
100
AcDbEntity
8
0
100
AcDbLine
62
7
6
CONTINUOUS
10
108.4258690084
20
149.0294332709
11
117.5258690084
21
147.5881348640
0
LINE
5
30A
100
AcDbEntity
8
0
100
AcDbLine
62
7
6
CONTINUOUS
10
135.2103658621
20
139.7385033833
11
137.0229814362
21
139.1408309058
0
LINE
5
30B
100
AcDbEntity
8
0
100
AcDbLine
62
7
6
CONTINUOUS
10
133.5114138778
20
138.8353776186
11
133.6466782937
21
138.7815483320
0
POLYLINE
5
30C
100
AcDbEntity
8
0
100
AcDb2dPolyline
62
7
6
CONTINUOUS
66
1
70
0
0
VERTEX
5
30D
100
AcDbEntity
8
0
100
AcDbVertex
62
7
6
CONTINUOUS
100
AcDb2dVertex
10
118.2192338833
20
143.0407963830
0
VERTEX
5
30E
100
AcDbEntity
8
0
100
AcDbVertex
62
7
6
CONTINUOUS
100
AcDb2dVertex
10
118.0367876936
20
143.1700850101
0
VERTEX
5
30F
100
AcDbEntity
8
0
100
AcDbVertex
62
7
6
CONTINUOUS
100
AcDb2dVertex
10
117.8227351763
20
143.3718199115
0
VERTEX
5
310
100
AcDbEntity
8
0
100
AcDbVertex
62
7
6
CONTINUOUS
100
AcDb2dVertex
10
117.6521412233
20
143.5933036855
0
VERTEX
5
311
100
AcDbEntity
8
0
100
AcDbVertex
62
7
6
CONTINUOUS
100
AcDb2dVertex
10
117.5271365743
20
143.8295093784
0
VERTEX
5
312
100
AcDbEntity
8
0
100
AcDbVertex
62
7
6
CONTINUOUS
100
AcDb2dVertex
10
117.4522114118
20
144.0734846256
0
VERTEX
5
313
100
AcDbEntity
8
0
100
AcDbVertex
62
7
6
CONTINUOUS
100
AcDb2dVertex
10
117.4258690084
20
144.3275468820
0
SEQEND
5
314
100
AcDbEntity
8
0
0
LINE
5
315
100
AcDbEntity
8
0
100
AcDbLine
62
7
6
CONTINUOUS
10
117.5258690084
20
150.6881348640
11
122.3258690084
21
150.6881348640
0
LINE
5
316
100
AcDbEntity
8
0
100
AcDbLine
62
7
6
CONTINUOUS
10
110.9948593171
20
153.3051950860
11
111.3395420306
21
153.2444182239
0
LINE
5
317
100
AcDbEntity
8
0
100
AcDbLine
62
7
6
CONTINUOUS
10
121.9115435331
20
147.7595393390
11
136.7085470708
21
141.7186879407
0
LINE
5
318
100
AcDbEntity
8
0
100
AcDbLine
62
7
6
CONTINUOUS
10
121.9258690084
20
149.1679045506
11
122.3258690084
21
149.0046052344
0
LINE
5
319
100
AcDbEntity
8
0
100
AcDbLine
62
7
6
CONTINUOUS
10
124.8256723086
20
147.9840648106
11
136.7085470708
21
143.1329015031
0
POLYLINE
5
31A
100
AcDbEntity
8
0
100
AcDb2dPolyline
62
7
6
CONTINUOUS
66
1
70
0
0
VERTEX
5
31B
100
AcDbEntity
8
0
100
AcDbVertex
62
7
6
CONTINUOUS
100
AcDb2dVertex
10
136.7085470708
20
143.1329015031
0
VERTEX
5
31C
100
AcDbEntity
8
0
100
AcDbVertex
62
7
6
CONTINUOUS
100
AcDb2dVertex
10
136.9129560775
20
143.0375061840
0
VERTEX
5
31D
100
AcDbEntity
8
0
100
AcDbVertex
62
7
6
CONTINUOUS
100
AcDb2dVertex
10
137.0982341530
20
142.9252037824
0
VERTEX
5
31E
100
AcDbEntity
8
0
100
AcDbVertex
62
7
6
CONTINUOUS
100
AcDb2dVertex
10
137.2663768572
20
142.7943561670
0
VERTEX
5
31F
100
AcDbEntity
8
0
100
AcDbVertex
62
7
6
CONTINUOUS
100
AcDb2dVertex
10
137.4113975105
20
142.6498777316
0
VERTEX
5
320
100
AcDbEntity
8
0
100
AcDbVertex
62
7
6
CONTINUOUS
100
AcDb2dVertex
10
137.5277615770
20
142.4956955857
0
VERTEX
5
321
100
AcDbEntity
8
0
100
AcDbVertex
62
7
6
CONTINUOUS
100
AcDb2dVertex
10
137.6161081854
20
142.3331334510
0
VERTEX
5
322
100
AcDbEntity
8
0
100
AcDbVertex
62
7
6
CONTINUOUS
100
AcDb2dVertex
10
137.6754929804
20
142.1641656046
0
VERTEX
5
323
100
AcDbEntity
8
0
100
AcDbVertex
62
7
6
CONTINUOUS
100
AcDb2dVertex
10
137.7051318780
20
141.9907674897
0
VERTEX
5
324
100
AcDbEntity
8
0
100
AcDbVertex
62
7
6
CONTINUOUS
100
AcDb2dVertex
10
137.7082083068
20
141.9086783268
0
SEQEND
5
325
100
AcDbEntity
8
0
0
POLYLINE
5
326
100
AcDbEntity
8
0
100
AcDb2dPolyline
62
7
6
CONTINUOUS
66
1
70
0
0
VERTEX
5
327
100
AcDbEntity
8
0
100
AcDbVertex
62
7
6
CONTINUOUS
100
AcDb2dVertex
10
117.9258690084
20
144.6888344607
0
VERTEX
5
328
100
AcDbEntity
8
0
100
AcDbVertex
62
7
6
CONTINUOUS
100
AcDb2dVertex
10
117.8227351763
20
144.7860334738
0
VERTEX
5
329
100
AcDbEntity
8
0
100
AcDbVertex
62
7
6
CONTINUOUS
100
AcDb2dVertex
10
117.6521412233
20
145.0075172478
0
VERTEX
5
32A
100
AcDbEntity
8
0
100
AcDbVertex
62
7
6
CONTINUOUS
100
AcDb2dVertex
10
117.6377801043
20
145.0346536632
0
SEQEND
5
32B
100
AcDbEntity
8
0
0
LINE
5
32C
100
AcDbEntity
8
0
100
AcDbLine
62
7
6
CONTINUOUS
10
107.0183323337
20
125.8362052020
11
107.0183323337
21
124.4219916396
0
LINE
5
32D
100
AcDbEntity
8
0
100
AcDbLine
62
7
6
CONTINUOUS
10
110.9948593171
20
152.8710746419
11
111.3395420306
21
152.9318515041
0
LINE
5
32E
100
AcDbEntity
8
0
100
AcDbLine
62
7
6
CONTINUOUS
10
117.5258690084
20
155.4881348640
11
122.3258690084
21
155.4881348640
0
POLYLINE
5
32F
100
AcDbEntity
8
0
100
AcDb2dPolyline
62
7
6
CONTINUOUS
66
1
70
0
0
VERTEX
5
330
100
AcDbEntity
8
0
100
AcDbVertex
62
7
6
CONTINUOUS
100
AcDb2dVertex
10
121.9220086961
20
145.3841110369
0
VERTEX
5
331
100
AcDbEntity
8
0
100
AcDbVertex
62
7
6
CONTINUOUS
100
AcDb2dVertex
10
122.0290028404
20
145.2832738525
0
VERTEX
5
332
100
AcDbEntity
8
0
100
AcDbVertex
62
7
6
CONTINUOUS
100
AcDb2dVertex
10
122.1995967934
20
145.0617900785
0
VERTEX
5
333
100
AcDbEntity
8
0
100
AcDbVertex
62
7
6
CONTINUOUS
100
AcDb2dVertex
10
122.3246014424
20
144.8255843856
0
VERTEX
5
334
100
AcDbEntity
8
0
100
AcDbVertex
62
7
6
CONTINUOUS
100
AcDb2dVertex
10
122.3995266049
20
144.5816091384
0
VERTEX
5
335
100
AcDbEntity
8
0
100
AcDbVertex
62
7
6
CONTINUOUS
100
AcDb2dVertex
10
122.4258690084
20
144.3275468820
0
SEQEND
5
336
100
AcDbEntity
8
0
0
LINE
5
337
100
AcDbEntity
8
0
100
AcDbLine
62
7
6
CONTINUOUS
10
108.4258690084
20
149.0294332709
11
108.4258690084
21
156.6129815430
0
LINE
5
338
100
AcDbEntity
8
0
100
AcDbLine
62
7
6
CONTINUOUS
10
108.4258690084
20
156.6129815430
11
109.3181200322
21
156.7543002220
0
POLYLINE
5
339
100
AcDbEntity
8
0
100
AcDb2dPolyline
62
7
6
CONTINUOUS
66
1
70
0
0
VERTEX
5
33A
100
AcDbEntity
8
0
100
AcDbVertex
62
7
6
CONTINUOUS
100
AcDb2dVertex
10
117.9973436046
20
147.6744622994
0
VERTEX
5
33B
100
AcDbEntity
8
0
100
AcDbVertex
62
7
6
CONTINUOUS
100
AcDb2dVertex
10
118.1938182008
20
147.3327507020
0
VERTEX
5
33C
100
AcDbEntity
8
0
100
AcDbVertex
62
7
6
CONTINUOUS
100
AcDb2dVertex
10
118.5140904291
20
147.0415792763
0
VERTEX
5
33D
100
AcDbEntity
8
0
100
AcDbVertex
62
7
6
CONTINUOUS
100
AcDb2dVertex
10
118.9258690084
20
146.8151126118
0
VERTEX
5
33E
100
AcDbEntity
8
0
100
AcDbVertex
62
7
6
CONTINUOUS
100
AcDb2dVertex
10
119.3923753593
20
146.6793570914
0
VERTEX
5
33F
100
AcDbEntity
8
0
100
AcDbVertex
62
7
6
CONTINUOUS
100
AcDb2dVertex
10
119.9258690084
20
146.6256439209
0
SEQEND
5
340
100
AcDbEntity
8
0
0
POLYLINE
5
341
100
AcDbEntity
8
0
100
AcDb2dPolyline
62
7
6
CONTINUOUS
66
1
70
0
0
VERTEX
5
342
100
AcDbEntity
8
0
100
AcDbVertex
62
7
6
CONTINUOUS
100
AcDb2dVertex
10
117.2758690084
20
117.1039358063
0
VERTEX
5
343
100
AcDbEntity
8
0
100
AcDbVertex
62
7
6
CONTINUOUS
100
AcDb2dVertex
10
117.2861145256
20
117.0337119941
0
VERTEX
5
344
100
AcDbEntity
8
0
100
AcDbVertex
62
7
6
CONTINUOUS
100
AcDb2dVertex
10
117.3139228159
20
116.9686477520
0
VERTEX
5
345
100
AcDbEntity
8
0
100
AcDbVertex
62
7
6
CONTINUOUS
100
AcDb2dVertex
10
117.3602858793
20
116.9076683225
0
VERTEX
5
346
100
AcDbEntity
8
0
100
AcDbVertex
62
7
6
CONTINUOUS
100
AcDb2dVertex
10
117.4222277153
20
116.8539979782
0
VERTEX
5
347
100
AcDbEntity
8
0
100
AcDbVertex
62
7
6
CONTINUOUS
100
AcDb2dVertex
10
117.4984039342
20
116.8100996931
0
VERTEX
5
348
100
AcDbEntity
8
0
100
AcDbVertex
62
7
6
CONTINUOUS
100
AcDb2dVertex
10
117.5849117038
20
116.7771826060
0
VERTEX
5
349
100
AcDbEntity
8
0
100
AcDbVertex
62
7
6
CONTINUOUS
100
AcDb2dVertex
10
117.6768561916
20
116.7575306131
0
VERTEX
5
34A
100
AcDbEntity
8
0
100
AcDbVertex
62
7
6
CONTINUOUS
100
AcDb2dVertex
10
117.7758690084
20
116.7503824157
0
SEQEND
5
34B
100
AcDbEntity
8
0
0
POLYLINE
5
34C
100
AcDbEntity
8
0
100
AcDb2dPolyline
62
7
6
CONTINUOUS
66
1
70
0
0
VERTEX
5
34D
100
AcDbEntity
8
0
100
AcDbVertex
62
7
6
CONTINUOUS
100
AcDb2dVertex
10
110.7267770107
20
126.7706549435
0
VERTEX
5
34E
100
AcDbEntity
8
0
100
AcDbVertex
62
7
6
CONTINUOUS
100
AcDb2dVertex
10
110.7178510722
20
126.6156095909
0
VERTEX
5
34F
100
AcDbEntity
8
0
100
AcDbVertex
62
7
6
CONTINUOUS
100
AcDb2dVertex
10
110.6678534898
20
126.3872210291
0
VERTEX
5
350
100
AcDbEntity
8
0
100
AcDbVertex
62
7
6
CONTINUOUS
100
AcDb2dVertex
10
110.5766127617
20
126.1662715321
0
VERTEX
5
351
100
AcDbEntity
8
0
100
AcDbVertex
62
7
6
CONTINUOUS
100
AcDb2dVertex
10
110.4455675393
20
125.9556225441
0
VERTEX
5
352
100
AcDbEntity
8
0
100
AcDbVertex
62
7
6
CONTINUOUS
100
AcDb2dVertex
10
110.2762317359
20
125.7580775132
0
VERTEX
5
353
100
AcDbEntity
8
0
100
AcDbVertex
62
7
6
CONTINUOUS
100
AcDb2dVertex
10
110.0677118783
20
125.5755927404
0
VERTEX
5
354
100
AcDbEntity
8
0
100
AcDbVertex
62
7
6
CONTINUOUS
100
AcDb2dVertex
10
109.8286687771
20
125.4135711107
0
VERTEX
5
355
100
AcDbEntity
8
0
100
AcDbVertex
62
7
6
CONTINUOUS
100
AcDb2dVertex
10
109.5685107913
20
125.2788244825
0
VERTEX
5
356
100
AcDbEntity
8
0
100
AcDbVertex
62
7
6
CONTINUOUS
100
AcDb2dVertex
10
109.2841018013
20
125.1690822365
0
SEQEND
5
357
100
AcDbEntity
8
0
0
POLYLINE
5
358
100
AcDbEntity
8
0
100
AcDb2dPolyline
62
7
6
CONTINUOUS
66
1
70
0
0
VERTEX
5
359
100
AcDbEntity
8
0
100
AcDbVertex
62
7
6
CONTINUOUS
100
AcDb2dVertex
10
117.9258690084
20
147.6863040926
0
VERTEX
5
35A
100
AcDbEntity
8
0
100
AcDbVertex
62
7
6
CONTINUOUS
100
AcDb2dVertex
10
117.9973436046
20
147.3209089089
0
VERTEX
5
35B
100
AcDbEntity
8
0
100
AcDbVertex
62
7
6
CONTINUOUS
100
AcDb2dVertex
10
118.1938182008
20
146.9791973114
0
VERTEX
5
35C
100
AcDbEntity
8
0
100
AcDbVertex
62
7
6
CONTINUOUS
100
AcDb2dVertex
10
118.5140904291
20
146.6880258857
0
VERTEX
5
35D
100
AcDbEntity
8
0
100
AcDbVertex
62
7
6
CONTINUOUS
100
AcDb2dVertex
10
118.9258690084
20
146.4615592212
0
VERTEX
5
35E
100
AcDbEntity
8
0
100
AcDbVertex
62
7
6
CONTINUOUS
100
AcDb2dVertex
10
119.3923753593
20
146.3258037008
0
VERTEX
5
35F
100
AcDbEntity
8
0
100
AcDbVertex
62
7
6
CONTINUOUS
100
AcDb2dVertex
10
119.9258690084
20
146.2720905303
0
SEQEND
5
360
100
AcDbEntity
8
0
0
LINE
5
361
100
AcDbEntity
8
0
100
AcDbLine
62
7
6
CONTINUOUS
10
117.9258690084
20
148.0398574832
11
117.9973436046
21
147.6744622994
0
LINE
5
362
100
AcDbEntity
8
0
100
AcDbLine
62
7
6
CONTINUOUS
10
116.6258690084
20
212.5056989117
11
116.6258690084
21
216.4778554871
0
LINE
5
363
100
AcDbEntity
8
0
100
AcDbLine
62
7
6
CONTINUOUS
10
116.9258690084
20
171.2971124030
11
116.9258690084
21
219.2326361429
0
LINE
5
364
100
AcDbEntity
8
0
100
AcDbLine
62
7
6
CONTINUOUS
10
117.2758690084
20
117.1039358063
11
117.2758690084
21
122.0536832746
0
LINE
5
365
100
AcDbEntity
8
0
100
AcDbLine
62
7
6
CONTINUOUS
10
117.5258690084
20
147.5881348640
11
117.5258690084
21
158.1881348640
0
LINE
5
366
100
AcDbEntity
8
0
100
AcDbLine
62
7
6
CONTINUOUS
10
117.9258690084
20
144.0816530534
11
117.9258690084
21
147.6863040926
0
LINE
5
367
100
AcDbEntity
8
0
100
AcDbLine
62
7
6
CONTINUOUS
10
112.0957419894
20
161.5913410371
11
116.2559960273
21
168.7971124030
0
LINE
5
368
100
AcDbEntity
8
0
100
AcDbLine
62
7
6
CONTINUOUS
10
121.9258690084
20
147.6863040926
11
121.8912898911
21
147.8630807879
0
LINE
5
369
100
AcDbEntity
8
DEFAULT_1
100
AcDbLine
62
2
6
CENTER
10
119.9258690084
20
147.6915079127
11
119.9258690084
21
221.6199189400
0
POLYLINE
5
36A
100
AcDbEntity
8
0
100
AcDb2dPolyline
62
7
6
CONTINUOUS
66
1
70
0
0
VERTEX
5
36B
100
AcDbEntity
8
0
100
AcDbVertex
62
7
6
CONTINUOUS
100
AcDb2dVertex
10
117.4258690084
20
144.3275468820
0
VERTEX
5
36C
100
AcDbEntity
8
0
100
AcDbVertex
62
7
6
CONTINUOUS
100
AcDb2dVertex
10
117.4522114118
20
144.5816091384
0
VERTEX
5
36D
100
AcDbEntity
8
0
100
AcDbVertex
62
7
6
CONTINUOUS
100
AcDb2dVertex
10
117.5271365743
20
144.8255843856
0
VERTEX
5
36E
100
AcDbEntity
8
0
100
AcDbVertex
62
7
6
CONTINUOUS
100
AcDb2dVertex
10
117.6521412233
20
145.0617900785
0
VERTEX
5
36F
100
AcDbEntity
8
0
100
AcDbVertex
62
7
6
CONTINUOUS
100
AcDb2dVertex
10
117.8227351763
20
145.2832738525
0
VERTEX
5
370
100
AcDbEntity
8
0
100
AcDbVertex
62
7
6
CONTINUOUS
100
AcDb2dVertex
10
117.9297293206
20
145.3841110369
0
SEQEND
5
371
100
AcDbEntity
8
0
0
LINE
5
372
100
AcDbEntity
8
0
100
AcDbLine
62
7
6
CONTINUOUS
10
117.9604481256
20
147.8630807879
11
117.9258690084
21
147.6863040926
0
LINE
5
373
100
AcDbEntity
8
0
100
AcDbLine
62
7
6
CONTINUOUS
10
121.9258690084
20
144.0816530534
11
121.9258690084
21
147.6863040926
0
LINE
5
374
100
AcDbEntity
8
0
100
AcDbLine
62
7
6
CONTINUOUS
10
122.3258690084
20
147.5881348640
11
122.3258690084
21
158.1881348640
0
LINE
5
375
100
AcDbEntity
8
0
100
AcDbLine
62
7
6
CONTINUOUS
10
122.5758690084
20
122.0536832746
11
122.5758690084
21
117.1039358063
0
LINE
5
376
100
AcDbEntity
8
0
100
AcDbLine
62
7
6
CONTINUOUS
10
122.9258690084
20
171.2971124030
11
122.9258690084
21
219.2326361429
0
POLYLINE
5
377
100
AcDbEntity
8
0
100
AcDb2dPolyline
62
7
6
CONTINUOUS
66
1
70
0
0
VERTEX
5
378
100
AcDbEntity
8
0
100
AcDbVertex
62
7
6
CONTINUOUS
100
AcDb2dVertex
10
122.4258690084
20
144.3275468820
0
VERTEX
5
379
100
AcDbEntity
8
0
100
AcDbVertex
62
7
6
CONTINUOUS
100
AcDb2dVertex
10
122.3995266049
20
144.0734846256
0
VERTEX
5
37A
100
AcDbEntity
8
0
100
AcDbVertex
62
7
6
CONTINUOUS
100
AcDb2dVertex
10
122.3246014424
20
143.8295093784
0
VERTEX
5
37B
100
AcDbEntity
8
0
100
AcDbVertex
62
7
6
CONTINUOUS
100
AcDb2dVertex
10
122.1995967934
20
143.5933036855
0
VERTEX
5
37C
100
AcDbEntity
8
0
100
AcDbVertex
62
7
6
CONTINUOUS
100
AcDb2dVertex
10
122.0290028404
20
143.3718199115
0
VERTEX
5
37D
100
AcDbEntity
8
0
100
AcDbVertex
62
7
6
CONTINUOUS
100
AcDb2dVertex
10
121.8149503231
20
143.1700850101
0
VERTEX
5
37E
100
AcDbEntity
8
0
100
AcDbVertex
62
7
6
CONTINUOUS
100
AcDb2dVertex
10
121.6325041334
20
143.0407963830
0
SEQEND
5
37F
100
AcDbEntity
8
0
0
LINE
5
380
100
AcDbEntity
8
0
100
AcDbLine
62
7
6
CONTINUOUS
10
127.7559960273
20
161.5913410371
11
123.5957419894
21
168.7971124030
0
POLYLINE
5
381
100
AcDbEntity
8
0
100
AcDb2dPolyline
62
7
6
CONTINUOUS
66
1
70
0
0
VERTEX
5
382
100
AcDbEntity
8
0
100
AcDbVertex
62
7
6
CONTINUOUS
100
AcDb2dVertex
10
129.6205726362
20
161.5720743957
0
VERTEX
5
383
100
AcDbEntity
8
0
100
AcDbVertex
62
7
6
CONTINUOUS
100
AcDb2dVertex
10
129.4769792671
20
161.8610121269
0
VERTEX
5
384
100
AcDbEntity
8
0
100
AcDbVertex
62
7
6
CONTINUOUS
100
AcDb2dVertex
10
129.4242128280
20
162.1448480486
0
SEQEND
5
385
100
AcDbEntity
8
0
0
LINE
5
386
100
AcDbEntity
8
0
100
AcDbLine
62
7
6
CONTINUOUS
10
128.4258690084
20
148.5542799499
11
128.4258690084
21
159.1472128210
0
POLYLINE
5
387
100
AcDbEntity
8
0
100
AcDb2dPolyline
62
7
6
CONTINUOUS
66
1
70
0
0
VERTEX
5
388
100
AcDbEntity
8
0
100
AcDbVertex
62
7
6
CONTINUOUS
100
AcDb2dVertex
10
122.5758690084
20
122.0536832746
0
VERTEX
5
389
100
AcDbEntity
8
0
100
AcDbVertex
62
7
6
CONTINUOUS
100
AcDb2dVertex
10
122.5963333494
20
122.2824077061
0
VERTEX
5
38A
100
AcDbEntity
8
0
100
AcDbVertex
62
7
6
CONTINUOUS
100
AcDb2dVertex
10
122.6591601770
20
122.5061865477
0
VERTEX
5
38B
100
AcDbEntity
8
0
100
AcDbVertex
62
7
6
CONTINUOUS
100
AcDb2dVertex
10
122.7659512842
20
122.7280139931
0
VERTEX
5
38C
100
AcDbEntity
8
0
100
AcDbVertex
62
7
6
CONTINUOUS
100
AcDb2dVertex
10
122.9119012918
20
122.9389074614
0
VERTEX
5
38D
100
AcDbEntity
8
0
100
AcDbVertex
62
7
6
CONTINUOUS
100
AcDb2dVertex
10
123.0937160477
20
123.1309567041
0
VERTEX
5
38E
100
AcDbEntity
8
0
100
AcDbVertex
62
7
6
CONTINUOUS
100
AcDb2dVertex
10
123.3084636633
20
123.3039389177
0
VERTEX
5
38F
100
AcDbEntity
8
0
100
AcDbVertex
62
7
6
CONTINUOUS
100
AcDb2dVertex
10
123.5531300713
20
123.4556906745
0
VERTEX
5
390
100
AcDbEntity
8
0
100
AcDbVertex
62
7
6
CONTINUOUS
100
AcDb2dVertex
10
123.8246676567
20
123.5841235998
0
VERTEX
5
391
100
AcDbEntity
8
0
100
AcDbVertex
62
7
6
CONTINUOUS
100
AcDb2dVertex
10
124.1227169536
20
123.6871976804
0
VERTEX
5
392
100
AcDbEntity
8
0
100
AcDbVertex
62
7
6
CONTINUOUS
100
AcDb2dVertex
10
124.4361994465
20
123.7626044038
0
VERTEX
5
393
100
AcDbEntity
8
0
100
AcDbVertex
62
7
6
CONTINUOUS
100
AcDb2dVertex
10
124.7525170059
20
123.8069816882
0
VERTEX
5
394
100
AcDbEntity
8
0
100
AcDbVertex
62
7
6
CONTINUOUS
100
AcDb2dVertex
10
125.0758690084
20
123.8214502276
0
SEQEND
5
395
100
AcDbEntity
8
0
0
LINE
5
396
100
AcDbEntity
8
0
100
AcDbLine
62
7
6
CONTINUOUS
10
121.8543944121
20
147.6744622994
11
121.9258690084
21
148.0398574832
0
LINE
5
397
100
AcDbEntity
8
0
100
AcDbLine
62
7
6
CONTINUOUS
10
129.4225789650
20
161.8284397164
11
129.4242128280
21
161.8655847748
0
LINE
5
398
100
AcDbEntity
8
0
100
AcDbLine
62
7
6
CONTINUOUS
10
129.4242128280
20
161.8655847748
11
129.4501710092
21
162.0052164117
0
POLYLINE
5
399
100
AcDbEntity
8
0
100
AcDb2dPolyline
62
7
6
CONTINUOUS
66
1
70
0
0
VERTEX
5
39A
100
AcDbEntity
8
0
100
AcDbVertex
62
7
6
CONTINUOUS
100
AcDb2dVertex
10
122.2139579124
20
145.0346536632
0
VERTEX
5
39B
100
AcDbEntity
8
0
100
AcDbVertex
62
7
6
CONTINUOUS
100
AcDb2dVertex
10
122.1995967934
20
145.0075172478
0
VERTEX
5
39C
100
AcDbEntity
8
0
100
AcDbVertex
62
7
6
CONTINUOUS
100
AcDb2dVertex
10
122.0290028404
20
144.7860334738
0
VERTEX
5
39D
100
AcDbEntity
8
0
100
AcDbVertex
62
7
6
CONTINUOUS
100
AcDb2dVertex
10
121.9258690084
20
144.6888344607
0
SEQEND
5
39E
100
AcDbEntity
8
0
0
LINE
5
39F
100
AcDbEntity
8
0
100
AcDbLine
62
7
6
CONTINUOUS
10
133.3788853851
20
162.0052164117
11
133.4211936835
21
161.7540074236
0
POLYLINE
5
3A0
100
AcDbEntity
8
0
100
AcDb2dPolyline
62
7
6
CONTINUOUS
66
1
70
0
0
VERTEX
5
3A1
100
AcDbEntity
8
0
100
AcDbVertex
62
7
6
CONTINUOUS
100
AcDb2dVertex
10
137.7081821718
20
140.4944762948
0
VERTEX
5
3A2
100
AcDbEntity
8
0
100
AcDbVertex
62
7
6
CONTINUOUS
100
AcDb2dVertex
10
137.7048193248
20
140.5802480162
0
VERTEX
5
3A3
100
AcDbEntity
8
0
100
AcDbVertex
62
7
6
CONTINUOUS
100
AcDb2dVertex
10
137.6741037788
20
140.7546658522
0
VERTEX
5
3A4
100
AcDbEntity
8
0
100
AcDbVertex
62
7
6
CONTINUOUS
100
AcDb2dVertex
10
137.6138248718
20
140.9240107972
0
VERTEX
5
3A5
100
AcDbEntity
8
0
100
AcDbVertex
62
7
6
CONTINUOUS
100
AcDb2dVertex
10
137.5255648967
20
141.0851740253
0
VERTEX
5
3A6
100
AcDbEntity
8
0
100
AcDbVertex
62
7
6
CONTINUOUS
100
AcDb2dVertex
10
137.4097738627
20
141.2375247402
0
VERTEX
5
3A7
100
AcDbEntity
8
0
100
AcDbVertex
62
7
6
CONTINUOUS
100
AcDb2dVertex
10
137.2657732043
20
141.3807569163
0
VERTEX
5
3A8
100
AcDbEntity
8
0
100
AcDbVertex
62
7
6
CONTINUOUS
100
AcDb2dVertex
10
137.0985309386
20
141.5107874152
0
VERTEX
5
3A9
100
AcDbEntity
8
0
100
AcDbVertex
62
7
6
CONTINUOUS
100
AcDb2dVertex
10
136.9133816226
20
141.6229079466
0
VERTEX
5
3AA
100
AcDbEntity
8
0
100
AcDbVertex
62
7
6
CONTINUOUS
100
AcDb2dVertex
10
136.7085470708
20
141.7186879407
0
SEQEND
5
3AB
100
AcDbEntity
8
0
0
LINE
5
3AC
100
AcDbEntity
8
0
100
AcDbLine
62
7
6
CONTINUOUS
10
135.4592938678
20
136.7696622922
11
135.4592938678
21
138.1838758546
0
LINE
5
3AD
100
AcDbEntity
8
0
100
AcDbLine
62
7
6
CONTINUOUS
10
133.4211936835
20
161.7540074236
11
133.4195598205
21
161.7168623652
0
POLYLINE
5
3AE
100
AcDbEntity
8
0
100
AcDb2dPolyline
62
7
6
CONTINUOUS
66
1
70
0
0
VERTEX
5
3AF
100
AcDbEntity
8
0
100
AcDbVertex
62
7
6
CONTINUOUS
100
AcDb2dVertex
10
133.0699379361
20
138.0086331837
0
VERTEX
5
3B0
100
AcDbEntity
8
0
100
AcDbVertex
62
7
6
CONTINUOUS
100
AcDb2dVertex
10
133.0773106886
20
138.0975333028
0
VERTEX
5
3B1
100
AcDbEntity
8
0
100
AcDbVertex
62
7
6
CONTINUOUS
100
AcDb2dVertex
10
133.1081403236
20
138.2041441327
0
VERTEX
5
3B2
100
AcDbEntity
8
0
100
AcDbVertex
62
7
6
CONTINUOUS
100
AcDb2dVertex
10
133.1629887684
20
138.3070273904
0
SEQEND
5
3B3
100
AcDbEntity
8
0
0
LINE
5
3B4
100
AcDbEntity
8
0
100
AcDbLine
62
7
6
CONTINUOUS
10
133.4211936835
20
162.2564253997
11
133.3667933814
21
161.9334191487
0
POLYLINE
5
3B5
100
AcDbEntity
8
0
100
AcDb2dPolyline
62
7
6
CONTINUOUS
66
1
70
0
0
VERTEX
5
3B6
100
AcDbEntity
8
0
100
AcDbVertex
62
7
6
CONTINUOUS
100
AcDb2dVertex
10
133.4195598205
20
161.7168623652
0
VERTEX
5
3B7
100
AcDbEntity
8
0
100
AcDbVertex
62
7
6
CONTINUOUS
100
AcDb2dVertex
10
133.3667933814
20
161.4330264436
0
VERTEX
5
3B8
100
AcDbEntity
8
0
100
AcDbVertex
62
7
6
CONTINUOUS
100
AcDb2dVertex
10
133.2232000123
20
161.1440887124
0
VERTEX
5
3B9
100
AcDbEntity
8
0
100
AcDbVertex
62
7
6
CONTINUOUS
100
AcDb2dVertex
10
132.9835461890
20
160.8812307520
0
VERTEX
5
3BA
100
AcDbEntity
8
0
100
AcDbVertex
62
7
6
CONTINUOUS
100
AcDb2dVertex
10
132.6684340735
20
160.6623429963
0
VERTEX
5
3BB
100
AcDbEntity
8
0
100
AcDbVertex
62
7
6
CONTINUOUS
100
AcDb2dVertex
10
132.2885421658
20
160.5021201807
0
VERTEX
5
3BC
100
AcDbEntity
8
0
100
AcDbVertex
62
7
6
CONTINUOUS
100
AcDb2dVertex
10
131.8667740651
20
160.4041859226
0
VERTEX
5
3BD
100
AcDbEntity
8
0
100
AcDbVertex
62
7
6
CONTINUOUS
100
AcDb2dVertex
10
131.4218863243
20
160.3783323455
0
VERTEX
5
3BE
100
AcDbEntity
8
0
100
AcDbVertex
62
7
6
CONTINUOUS
100
AcDb2dVertex
10
130.9769985834
20
160.4207486659
0
VERTEX
5
3BF
100
AcDbEntity
8
0
100
AcDbVertex
62
7
6
CONTINUOUS
100
AcDb2dVertex
10
130.5552304827
20
160.5343849453
0
VERTEX
5
3C0
100
AcDbEntity
8
0
100
AcDbVertex
62
7
6
CONTINUOUS
100
AcDb2dVertex
10
130.1753385750
20
160.7087507717
0
VERTEX
5
3C1
100
AcDbEntity
8
0
100
AcDbVertex
62
7
6
CONTINUOUS
100
AcDb2dVertex
10
129.8602264595
20
160.9393698488
0
VERTEX
5
3C2
100
AcDbEntity
8
0
100
AcDbVertex
62
7
6
CONTINUOUS
100
AcDb2dVertex
10
129.6205726362
20
161.2111498909
0
VERTEX
5
3C3
100
AcDbEntity
8
0
100
AcDbVertex
62
7
6
CONTINUOUS
100
AcDb2dVertex
10
129.4769792671
20
161.5054334654
0
VERTEX
5
3C4
100
AcDbEntity
8
0
100
AcDbVertex
62
7
6
CONTINUOUS
100
AcDb2dVertex
10
129.4225789650
20
161.8284397164
0
SEQEND
5
3C5
100
AcDbEntity
8
0
0
LINE
5
3C6
100
AcDbEntity
8
0
100
AcDbLine
62
7
6
CONTINUOUS
10
133.3667933814
20
161.9334191487
11
133.2232000123
21
161.6391355743
0
LINE
5
3C7
100
AcDbEntity
8
0
100
AcDbLine
62
7
6
CONTINUOUS
10
110.4455675393
20
127.3698361065
11
110.5143321968
21
127.4803720363
0
POLYLINE
5
3C8
100
AcDbEntity
8
0
100
AcDb2dPolyline
62
7
6
CONTINUOUS
66
1
70
0
0
VERTEX
5
3C9
100
AcDbEntity
8
0
100
AcDbVertex
62
7
6
CONTINUOUS
100
AcDb2dVertex
10
133.2232000123
20
161.6391355743
0
VERTEX
5
3CA
100
AcDbEntity
8
0
100
AcDbVertex
62
7
6
CONTINUOUS
100
AcDb2dVertex
10
132.9835461890
20
161.3673555322
0
VERTEX
5
3CB
100
AcDbEntity
8
0
100
AcDbVertex
62
7
6
CONTINUOUS
100
AcDb2dVertex
10
132.6684340735
20
161.1367364551
0
VERTEX
5
3CC
100
AcDbEntity
8
0
100
AcDbVertex
62
7
6
CONTINUOUS
100
AcDb2dVertex
10
132.2885421658
20
160.9623706287
0
VERTEX
5
3CD
100
AcDbEntity
8
0
100
AcDbVertex
62
7
6
CONTINUOUS
100
AcDb2dVertex
10
131.8667740651
20
160.8487343492
0
VERTEX
5
3CE
100
AcDbEntity
8
0
100
AcDbVertex
62
7
6
CONTINUOUS
100
AcDb2dVertex
10
131.4218863243
20
160.8063180289
0
VERTEX
5
3CF
100
AcDbEntity
8
0
100
AcDbVertex
62
7
6
CONTINUOUS
100
AcDb2dVertex
10
130.9769985834
20
160.8321716059
0
VERTEX
5
3D0
100
AcDbEntity
8
0
100
AcDbVertex
62
7
6
CONTINUOUS
100
AcDb2dVertex
10
130.5552304827
20
160.9301058641
0
VERTEX
5
3D1
100
AcDbEntity
8
0
100
AcDbVertex
62
7
6
CONTINUOUS
100
AcDb2dVertex
10
130.1753385750
20
161.0903286796
0
VERTEX
5
3D2
100
AcDbEntity
8
0
100
AcDbVertex
62
7
6
CONTINUOUS
100
AcDb2dVertex
10
129.8602264595
20
161.3092164353
0
VERTEX
5
3D3
100
AcDbEntity
8
0
100
AcDbVertex
62
7
6
CONTINUOUS
100
AcDb2dVertex
10
129.6205726362
20
161.5720743957
0
SEQEND
5
3D4
100
AcDbEntity
8
0
0
POLYLINE
5
3D5
100
AcDbEntity
8
0
100
AcDb2dPolyline
62
7
6
CONTINUOUS
66
1
70
0
0
VERTEX
5
3D6
100
AcDbEntity
8
0
100
AcDbVertex
62
7
6
CONTINUOUS
100
AcDb2dVertex
10
98.7965235452
20
139.9441684052
0
VERTEX
5
3D7
100
AcDbEntity
8
0
100
AcDbVertex
62
7
6
CONTINUOUS
100
AcDb2dVertex
10
98.5921414938
20
139.8487721536
0
VERTEX
5
3D8
100
AcDbEntity
8
0
100
AcDbVertex
62
7
6
CONTINUOUS
100
AcDb2dVertex
10
98.4069279575
20
139.7365331893
0
VERTEX
5
3D9
100
AcDbEntity
8
0
100
AcDbVertex
62
7
6
CONTINUOUS
100
AcDb2dVertex
10
98.2389168127
20
139.6058377042
0
VERTEX
5
3DA
100
AcDbEntity
8
0
100
AcDbVertex
62
7
6
CONTINUOUS
100
AcDb2dVertex
10
98.0940064303
20
139.4615271227
0
VERTEX
5
3DB
100
AcDbEntity
8
0
100
AcDbVertex
62
7
6
CONTINUOUS
100
AcDb2dVertex
10
97.9776316526
20
139.3074667647
0
VERTEX
5
3DC
100
AcDbEntity
8
0
100
AcDbVertex
62
7
6
CONTINUOUS
100
AcDb2dVertex
10
97.8892169423
20
139.1449711353
0
VERTEX
5
3DD
100
AcDbEntity
8
0
100
AcDbVertex
62
7
6
CONTINUOUS
100
AcDb2dVertex
10
97.8297224150
20
138.9759764317
0
VERTEX
5
3DE
100
AcDbEntity
8
0
100
AcDbVertex
62
7
6
CONTINUOUS
100
AcDb2dVertex
10
97.7999759540
20
138.8024828983
0
VERTEX
5
3DF
100
AcDbEntity
8
0
100
AcDbVertex
62
7
6
CONTINUOUS
100
AcDb2dVertex
10
97.7968741113
20
138.7199540162
0
SEQEND
5
3E0
100
AcDbEntity
8
0
0
LINE
5
3E1
100
AcDbEntity
8
0
100
AcDbLine
62
7
6
CONTINUOUS
10
98.7965235452
20
141.3583819676
11
115.0260657082
21
147.9840648106
0
LINE
5
3E2
100
AcDbEntity
8
0
100
AcDbLine
62
7
6
CONTINUOUS
10
117.5258690084
20
149.0046052344
11
117.9258690084
21
149.1679045506
0
LINE
5
3E3
100
AcDbEntity
8
0
100
AcDbLine
62
7
6
CONTINUOUS
10
137.7085470708
20
141.9081566317
11
137.7085470708
21
140.4939430693
0
LINE
5
3E4
100
AcDbEntity
8
0
100
AcDbLine
62
7
6
CONTINUOUS
10
98.7965235452
20
139.9441684052
11
117.9022885070
21
147.7440642888
0
LINE
5
3E5
100
AcDbEntity
8
0
100
AcDbLine
62
7
6
CONTINUOUS
10
98.3123961419
20
137.6236331100
11
100.5781656095
21
138.3707237068
0
LINE
5
3E6
100
AcDbEntity
8
0
100
AcDbLine
62
7
6
CONTINUOUS
10
133.1629887684
20
138.3070273904
11
133.8814398134
21
139.3964832399
0
POLYLINE
5
3E7
100
AcDbEntity
8
0
100
AcDb2dPolyline
62
7
6
CONTINUOUS
66
1
70
0
0
VERTEX
5
3E8
100
AcDbEntity
8
0
100
AcDbVertex
62
7
6
CONTINUOUS
100
AcDb2dVertex
10
137.5211626449
20
139.8962705919
0
VERTEX
5
3E9
100
AcDbEntity
8
0
100
AcDbVertex
62
7
6
CONTINUOUS
100
AcDb2dVertex
10
137.6116061610
20
140.0581836791
0
VERTEX
5
3EA
100
AcDbEntity
8
0
100
AcDbVertex
62
7
6
CONTINUOUS
100
AcDb2dVertex
10
137.6723634463
20
140.2261509456
0
VERTEX
5
3EB
100
AcDbEntity
8
0
100
AcDbVertex
62
7
6
CONTINUOUS
100
AcDb2dVertex
10
137.7037285890
20
140.4023318292
0
VERTEX
5
3EC
100
AcDbEntity
8
0
100
AcDbVertex
62
7
6
CONTINUOUS
100
AcDb2dVertex
10
137.7081821718
20
140.4944762948
0
SEQEND
5
3ED
100
AcDbEntity
8
0
0
LINE
5
3EE
100
AcDbEntity
8
0
100
AcDbLine
62
7
6
CONTINUOUS
10
137.5211626449
20
139.8962705919
11
137.0229814362
21
139.1408309058
0
LINE
5
3EF
100
AcDbEntity
8
0
100
AcDbLine
62
7
6
CONTINUOUS
10
135.4592938678
20
136.7696622922
11
127.5935776963
21
124.8421265837
0
POLYLINE
5
3F0
100
AcDbEntity
8
0
100
AcDb2dPolyline
62
7
6
CONTINUOUS
66
1
70
0
0
VERTEX
5
3F1
100
AcDbEntity
8
0
100
AcDbVertex
62
7
6
CONTINUOUS
100
AcDb2dVertex
10
133.8814398134
20
139.3964832399
0
VERTEX
5
3F2
100
AcDbEntity
8
0
100
AcDbVertex
62
7
6
CONTINUOUS
100
AcDb2dVertex
10
133.9577476458
20
139.4923579489
0
VERTEX
5
3F3
100
AcDbEntity
8
0
100
AcDbVertex
62
7
6
CONTINUOUS
100
AcDb2dVertex
10
134.0532915745
20
139.5775294587
0
VERTEX
5
3F4
100
AcDbEntity
8
0
100
AcDbVertex
62
7
6
CONTINUOUS
100
AcDb2dVertex
10
134.1701696590
20
139.6532347829
0
VERTEX
5
3F5
100
AcDbEntity
8
0
100
AcDbVertex
62
7
6
CONTINUOUS
100
AcDb2dVertex
10
134.3020877213
20
139.7157628810
0
VERTEX
5
3F6
100
AcDbEntity
8
0
100
AcDbVertex
62
7
6
CONTINUOUS
100
AcDb2dVertex
10
134.4438164004
20
139.7617282662
0
VERTEX
5
3F7
100
AcDbEntity
8
0
100
AcDbVertex
62
7
6
CONTINUOUS
100
AcDb2dVertex
10
134.5942593053
20
139.7913912911
0
VERTEX
5
3F8
100
AcDbEntity
8
0
100
AcDbVertex
62
7
6
CONTINUOUS
100
AcDb2dVertex
10
134.7531752179
20
139.8038192401
0
VERTEX
5
3F9
100
AcDbEntity
8
0
100
AcDbVertex
62
7
6
CONTINUOUS
100
AcDb2dVertex
10
134.9127692579
20
139.7992058316
0
VERTEX
5
3FA
100
AcDbEntity
8
0
100
AcDbVertex
62
7
6
CONTINUOUS
100
AcDb2dVertex
10
135.0641817286
20
139.7774192311
0
VERTEX
5
3FB
100
AcDbEntity
8
0
100
AcDbVertex
62
7
6
CONTINUOUS
100
AcDb2dVertex
10
135.2103658621
20
139.7385033833
0
SEQEND
5
3FC
100
AcDbEntity
8
0
0
POLYLINE
5
3FD
100
AcDbEntity
8
0
100
AcDb2dPolyline
62
7
6
CONTINUOUS
66
1
70
0
0
VERTEX
5
3FE
100
AcDbEntity
8
0
100
AcDbVertex
62
7
6
CONTINUOUS
100
AcDb2dVertex
10
109.2841018013
20
126.5832957988
0
VERTEX
5
3FF
100
AcDbEntity
8
0
100
AcDbVertex
62
7
6
CONTINUOUS
100
AcDb2dVertex
10
109.5685107913
20
126.6930380449
0
VERTEX
5
400
100
AcDbEntity
8
0
100
AcDbVertex
62
7
6
CONTINUOUS
100
AcDb2dVertex
10
109.8286687771
20
126.8277846730
0
VERTEX
5
401
100
AcDbEntity
8
0
100
AcDbVertex
62
7
6
CONTINUOUS
100
AcDb2dVertex
10
110.0677118783
20
126.9898063027
0
VERTEX
5
402
100
AcDbEntity
8
0
100
AcDbVertex
62
7
6
CONTINUOUS
100
AcDb2dVertex
10
110.2762317359
20
127.1722910755
0
VERTEX
5
403
100
AcDbEntity
8
0
100
AcDbVertex
62
7
6
CONTINUOUS
100
AcDb2dVertex
10
110.4455675393
20
127.3698361065
0
SEQEND
5
404
100
AcDbEntity
8
0
0
LINE
5
405
100
AcDbEntity
8
0
100
AcDbLine
62
7
6
CONTINUOUS
10
109.2841018013
20
126.5832957988
11
107.0183323337
21
125.8362052020
0
LINE
5
406
100
AcDbEntity
8
0
100
AcDbLine
62
7
6
CONTINUOUS
10
109.2841018013
20
125.1690822365
11
107.0183323337
21
124.4219916396
0
LINE
5
407
100
AcDbEntity
8
0
100
AcDbLine
62
7
6
CONTINUOUS
10
116.9258690084
20
212.5056989117
11
116.6258690084
21
212.5056989117
0
LINE
5
408
100
AcDbEntity
8
0
100
AcDbLine
62
7
6
CONTINUOUS
10
116.9258690084
20
213.6888944647
11
116.6258690084
21
213.6888944647
0
LINE
5
409
100
AcDbEntity
8
0
100
AcDbLine
62
7
6
CONTINUOUS
10
116.9258690084
20
214.1959783408
11
116.6258690084
21
214.1959783408
0
LINE
5
40A
100
AcDbEntity
8
0
100
AcDbLine
62
7
6
CONTINUOUS
10
116.9258690084
20
216.4778554871
11
116.6258690084
21
216.4778554871
0
LINE
5
40B
100
AcDbEntity
8
0
100
AcDbLine
62
7
6
CONTINUOUS
10
119.9258690084
20
219.7080122072
11
116.9258690084
21
219.2328588862
0
LINE
5
40C
100
AcDbEntity
8
0
100
AcDbLine
62
7
6
CONTINUOUS
10
122.9258690084
20
219.2328588862
11
119.9258690084
21
219.7080122072
0
ARC
5
40D
100
AcDbEntity
8
0
100
AcDbCircle
62
7
6
CONTINUOUS
10
233.6192848190
20
148.5701875691
40
2.5000000000
100
AcDbArc
50
135.0000000000
51
201.3299209219
0
ARC
5
40E
100
AcDbEntity
8
0
100
AcDbCircle
62
7
6
CONTINUOUS
10
233.6192848190
20
148.5701875691
40
2.5000000000
100
AcDbArc
50
248.6700790781
51
315.0000000000
0
ARC
5
40F
100
AcDbEntity
8
0
100
AcDbCircle
62
7
6
CONTINUOUS
10
233.6192848190
20
148.5701875691
40
6.5000000000
100
AcDbArc
50
135.0000000000
51
216.1414591721
0
ARC
5
410
100
AcDbEntity
8
0
100
AcDbCircle
62
7
6
CONTINUOUS
10
233.6192848190
20
148.5701875691
40
6.5000000000
100
AcDbArc
50
233.8585408279
51
315.0000000000
0
ARC
5
411
100
AcDbEntity
8
0
100
AcDbCircle
62
7
6
CONTINUOUS
10
238.5690322873
20
153.5199350374
40
2.5000000000
100
AcDbArc
50
315.0000000000
51
351.6037976976
0
ARC
5
412
100
AcDbEntity
8
0
100
AcDbCircle
62
7
6
CONTINUOUS
10
238.5690322873
20
153.5199350374
40
2.5000000000
100
AcDbArc
50
98.3962023024
51
135.0000000000
0
ARC
5
413
100
AcDbEntity
8
0
100
AcDbCircle
62
7
6
CONTINUOUS
10
238.5690322873
20
153.5199350374
40
6.5000000000
100
AcDbArc
50
315.0000000000
51
27.0475391368
0
ARC
5
414
100
AcDbEntity
8
0
100
AcDbCircle
62
7
6
CONTINUOUS
10
238.5690322873
20
153.5199350374
40
6.5000000000
100
AcDbArc
50
62.9524608632
51
135.0000000000
0
ARC
5
415
100
AcDbEntity
8
0
100
AcDbCircle
62
7
6
CONTINUOUS
10
255.1860416451
20
170.1369443953
40
2.0000000000
100
AcDbArc
50
315.0000000000
51
135.0000000000
0
ARC
5
416
100
AcDbEntity
8
0
100
AcDbCircle
62
7
6
CONTINUOUS
10
238.9225856779
20
153.8734884280
40
2.0000000000
100
AcDbArc
50
135.0000000000
51
315.0000000000
0
ARC
5
417
100
AcDbEntity
8
0
100
AcDbCircle
62
7
6
CONTINUOUS
10
262.2571094570
20
177.2080122072
40
42.5000000000
100
AcDbArc
50
72.4290364467
51
107.5709635533
0
ARC
5
418
100
AcDbEntity
8
0
100
AcDbCircle
62
7
6
CONTINUOUS
10
254.2571094570
20
202.4716224005
40
16.0000000000
100
AcDbArc
50
107.5709635533
51
187.7941145216
0
ARC
5
419
100
AcDbEntity
8
0
100
AcDbCircle
62
7
6
CONTINUOUS
10
262.2571094570
20
177.2080122072
40
20.5000000000
100
AcDbArc
50
187.7941145216
51
219.3995020381
0
ARC
5
41A
100
AcDbEntity
8
0
100
AcDbCircle
62
7
6
CONTINUOUS
10
262.2571094570
20
177.2080122072
40
20.5000000000
100
AcDbArc
50
313.6494189604
51
352.2058854784
0
ARC
5
41B
100
AcDbEntity
8
0
100
AcDbCircle
62
7
6
CONTINUOUS
10
270.2571094570
20
202.4716224005
40
16.0000000000
100
AcDbArc
50
352.2058854784
51
72.4290364467
0
ARC
5
41C
100
AcDbEntity
8
0
100
AcDbCircle
62
7
6
CONTINUOUS
10
262.2571094570
20
177.2080122072
40
12.5000000000
100
AcDbArc
50
187.7941145216
51
215.7840411338
0
ARC
5
41D
100
AcDbEntity
8
0
100
AcDbCircle
62
7
6
CONTINUOUS
10
262.2571094570
20
177.2080122072
40
12.5000000000
100
AcDbArc
50
234.2083226114
51
352.2058854784
0
ARC
5
41E
100
AcDbEntity
8
0
100
AcDbCircle
62
7
6
CONTINUOUS
10
270.1194168430
20
201.4656733180
40
8.0000000000
100
AcDbArc
50
352.2058854784
51
72.0416368567
0
ARC
5
41F
100
AcDbEntity
8
0
100
AcDbCircle
62
7
6
CONTINUOUS
10
262.2571094570
20
177.2080122072
40
33.5000000000
100
AcDbArc
50
72.0416368567
51
107.9583631433
0
ARC
5
420
100
AcDbEntity
8
0
100
AcDbCircle
62
7
6
CONTINUOUS
10
254.3948020710
20
201.4656733180
40
8.0000000000
100
AcDbArc
50
107.9583631433
51
187.7941145216
0
CIRCLE
5
421
100
AcDbEntity
8
0
100
AcDbCircle
62
7
6
CONTINUOUS
10
253.2571094570
20
153.0881348640
40
2.5000000000
0
CIRCLE
5
422
100
AcDbEntity
8
0
100
AcDbCircle
62
7
6
CONTINUOUS
10
262.2571094570
20
153.0881348640
40
2.5000000000
0
CIRCLE
5
423
100
AcDbEntity
8
0
100
AcDbCircle
62
7
6
CONTINUOUS
10
271.2571094570
20
153.0881348640
40
2.5000000000
0
ARC
5
424
100
AcDbEntity
8
0
100
AcDbCircle
62
7
6
CONTINUOUS
10
262.2571094570
20
177.2080122072
40
20.0248466790
100
AcDbArc
50
187.7941145216
51
197.1682281379
0
ARC
5
425
100
AcDbEntity
8
0
100
AcDbCircle
62
7
6
CONTINUOUS
10
254.2571094570
20
202.4716224005
40
15.5248466790
100
AcDbArc
50
107.5709635533
51
187.7941145216
0
ARC
5
426
100
AcDbEntity
8
0
100
AcDbCircle
62
7
6
CONTINUOUS
10
262.2571094570
20
177.2080122072
40
42.0248466790
100
AcDbArc
50
72.4290364467
51
107.5709635533
0
ARC
5
427
100
AcDbEntity
8
0
100
AcDbCircle
62
7
6
CONTINUOUS
10
270.2571094570
20
202.4716224005
40
15.5248466790
100
AcDbArc
50
352.2058854784
51
72.4290364467
0
ARC
5
428
100
AcDbEntity
8
0
100
AcDbCircle
62
7
6
CONTINUOUS
10
262.2571094570
20
177.2080122072
40
20.0248466790
100
AcDbArc
50
342.8317718621
51
352.2058854784
0
CIRCLE
5
429
100
AcDbEntity
8
0
100
AcDbCircle
62
7
6
CONTINUOUS
10
271.2571094570
20
153.0881348640
40
3.0000000000
0
CIRCLE
5
42A
100
AcDbEntity
8
0
100
AcDbCircle
62
7
6
CONTINUOUS
10
262.2571094570
20
153.0881348640
40
3.0000000000
0
CIRCLE
5
42B
100
AcDbEntity
8
0
100
AcDbCircle
62
7
6
CONTINUOUS
10
253.2571094570
20
153.0881348640
40
3.0000000000
0
ARC
5
42C
100
AcDbEntity
8
0
100
AcDbCircle
62
7
6
CONTINUOUS
10
112.2258690084
20
153.0881348640
40
0.9000000000
100
AcDbArc
50
190.0000000000
51
170.0000000000
0
ARC
5
42D
100
AcDbEntity
8
0
100
AcDbCircle
62
7
6
CONTINUOUS
10
119.9258690084
20
144.0701875691
40
2.0000000000
100
AcDbArc
50
180.0000000000
51
360.0000000000
0
ARC
5
42E
100
AcDbEntity
8
0
100
AcDbCircle
62
7
6
CONTINUOUS
10
111.9258690084
20
171.2971124030
40
5.0000000000
100
AcDbArc
50
330.0000000000
51
360.0000000000
0
ARC
5
42F
100
AcDbEntity
8
0
100
AcDbCircle
62
7
6
CONTINUOUS
10
108.9270338696
20
159.2235210735
40
2.5000000000
100
AcDbArc
50
279.0000000000
51
358.9901666224
0
ARC
5
430
100
AcDbEntity
8
0
100
AcDbCircle
62
7
6
CONTINUOUS
10
116.4258690084
20
159.0913410371
40
5.0000000000
100
AcDbArc
50
150.0000000000
51
178.9901666224
0
ARC
5
431
100
AcDbEntity
8
0
100
AcDbCircle
62
7
6
CONTINUOUS
10
127.9258690084
20
171.2971124030
40
5.0000000000
100
AcDbArc
50
180.0000000000
51
210.0000000000
0
ARC
5
432
100
AcDbEntity
8
0
100
AcDbCircle
62
7
6
CONTINUOUS
10
119.9258690084
20
158.1881348640
40
2.4000000000
100
AcDbArc
50
0.0000000000
51
180.0000000000
0
ARC
5
433
100
AcDbEntity
8
0
100
AcDbCircle
62
7
6
CONTINUOUS
10
123.4258690084
20
159.0913410371
40
5.0000000000
100
AcDbArc
50
1.0098333776
51
30.0000000000
0
ARC
5
434
100
AcDbEntity
8
0
100
AcDbCircle
62
7
6
CONTINUOUS
10
130.9247041471
20
159.2235210735
40
2.5000000000
100
AcDbArc
50
181.0098333776
51
181.7491279993
0
CIRCLE
5
435
100
AcDbEntity
8
0
100
AcDbCircle
62
7
6
CONTINUOUS
10
112.2258690084
20
153.0881348640
40
1.2500000000
0
SPLINE
5
436
100
AcDbEntity
8
0
100
AcDbSpline
62
7
6
CONTINUOUS
70
0
71
3
72
14
73
10
74
8
42
0.0000001000
43
0.0000001000
44
0.0000000001
40
0.0000000000
40
0.0000000000
40
0.0000000000
40
0.0000000000
40
0.0339799654
40
0.1104508458
40
0.2297627517
40
0.3866354626
40
0.5735056513
40
0.7811669732
40
1.0000000000
40
1.0000000000
40
1.0000000000
40
1.0000000000
10
276.4071094570
20
160.5881348640
30
0.0000000000
10
276.3795023054
20
160.5881348640
30
0.0000000000
10
276.3276244280
20
160.4859419941
30
0.0000000000
10
276.2892104643
20
160.3216291569
30
0.0000000000
10
276.2414224975
20
160.0295167961
30
0.0000000000
10
276.2055695655
20
159.6586081532
30
0.0000000000
10
276.1765107259
20
159.2102089635
30
0.0000000000
10
276.1589013447
20
158.7125444023
30
0.0000000000
10
276.1548592924
20
158.3659265857
30
0.0000000000
10
276.1548592924
20
158.1881348640
30
0.0000000000
11
276.4071094570
21
160.5881348640
31
0.0000000000
11
276.3507443881
21
160.5274523098
31
0.0000000000
11
276.2973193085
21
160.3488859694
31
0.0000000000
11
276.2495060286
21
160.0620373094
31
0.0000000000
11
276.2096624400
21
159.6817634535
31
0.0000000000
11
276.1797298160
21
159.2272778964
31
0.0000000000
11
276.1611666533
21
158.7214727345
31
0.0000000000
11
276.1548592924
21
158.1881348640
31
0.0000000000
0
SPLINE
5
437
100
AcDbEntity
8
0
100
AcDbSpline
62
7
6
CONTINUOUS
70
0
71
3
72
12
73
8
74
6
42
0.0000001000
43
0.0000001000
44
0.0000000001
40
0.0000000000
40
0.0000000000
40
0.0000000000
40
0.0000000000
40
0.1307134536
40
0.3077593409
40
0.5186602566
40
0.7530259585
40
1.0000000000
40
1.0000000000
40
1.0000000000
40
1.0000000000
10
248.2185156829
20
160.3409092960
30
0.0000000000
10
248.2363148640
20
160.2525022363
30
0.0000000000
10
248.2730668196
20
160.0267194005
30
0.0000000000
10
248.3086493485
20
159.6586081532
30
0.0000000000
10
248.3377081881
20
159.2102089635
30
0.0000000000
10
248.3553175694
20
158.7125444023
30
0.0000000000
10
248.3593596216
20
158.3659265857
30
0.0000000000
10
248.3593596216
20
158.1881348640
30
0.0000000000
11
248.2185156829
21
160.3409092960
31
0.0000000000
11
248.2647128854
21
160.0620373094
31
0.0000000000
11
248.3045564740
21
159.6817634535
31
0.0000000000
11
248.3344890980
21
159.2272778964
31
0.0000000000
11
248.3530522607
21
158.7214727345
31
0.0000000000
11
248.3593596216
21
158.1881348640
31
0.0000000000
0
SPLINE
5
438
100
AcDbEntity
8
0
100
AcDbSpline
62
7
6
CONTINUOUS
70
0
71
3
72
14
73
10
74
8
42
0.0000001000
43
0.0000001000
44
0.0000000001
40
0.0000000000
40
0.0000000000
40
0.0000000000
40
0.0000000000
40
0.1449855795
40
0.2887290959
40
0.4313913916
40
0.5733396993
40
0.7150738255
40
0.8571337300
40
1.0000000000
40
1.0000000000
40
1.0000000000
40
1.0000000000
10
276.1548592924
20
152.5676820821
30
0.0000000000
10
276.1548592924
20
152.1914756363
30
0.0000000000
10
276.0712151944
20
151.4395525291
30
0.0000000000
10
275.7006311723
20
150.3738088467
30
0.0000000000
10
275.1063088831
20
149.4233489404
30
0.0000000000
10
274.3187048907
20
148.6332493213
30
0.0000000000
10
273.3756850788
20
148.0398358479
30
0.0000000000
10
272.3222766348
20
147.6712077734
30
0.0000000000
10
271.5802348112
20
147.5881348640
30
0.0000000000
10
271.2095275186
20
147.5881348640
30
0.0000000000
11
276.1548592924
21
152.5676820821
31
0.0000000000
11
276.0294043320
21
151.4460570726
31
0.0000000000
11
275.6615810924
21
150.3892899844
31
0.0000000000
11
275.0724318212
21
149.4479138339
31
0.0000000000
11
274.2921951303
21
148.6654798369
31
0.0000000000
11
273.3584298236
21
148.0777955593
31
0.0000000000
11
272.3146796026
21
147.7124487491
31
0.0000000000
11
271.2095275186
21
147.5881348640
31
0.0000000000
0
SPLINE
5
439
100
AcDbEntity
8
0
100
AcDbSpline
62
7
6
CONTINUOUS
70
0
71
3
72
14
73
10
74
8
42
0.0000001000
43
0.0000001000
44
0.0000000001
40
0.0000000000
40
0.0000000000
40
0.0000000000
40
0.0000000000
40
0.1428686235
40
0.2849314607
40
0.4266673241
40
0.5686149178
40
0.7112744749
40
0.8550151847
40
1.0000000000
40
1.0000000000
40
1.0000000000
40
1.0000000000
10
253.3046913954
20
147.5881348640
30
0.0000000000
10
252.9339779957
20
147.5881348640
30
0.0000000000
10
252.1919223224
20
147.6712107030
30
0.0000000000
10
251.1384984050
20
148.0398513768
30
0.0000000000
10
250.1954754599
20
148.6332797654
30
0.0000000000
10
249.4078831087
20
149.4233845054
30
0.0000000000
10
248.8135771277
20
150.3738348400
30
0.0000000000
10
248.4430022463
20
151.4395638190
30
0.0000000000
10
248.3593596216
20
152.1914776193
30
0.0000000000
10
248.3593596216
20
152.5676820821
30
0.0000000000
11
253.3046913954
21
147.5881348640
31
0.0000000000
11
252.1995213361
21
147.7124528516
31
0.0000000000
11
251.1557517876
21
148.0778135435
31
0.0000000000
11
250.2219808036
21
148.6655141876
31
0.0000000000
11
249.4417563368
21
149.4479525261
31
0.0000000000
11
248.8526257276
21
150.3893152067
31
0.0000000000
11
248.4848132569
21
151.4460629106
31
0.0000000000
11
248.3593596216
21
152.5676820821
31
0.0000000000
0
SPLINE
5
43A
100
AcDbEntity
8
0
100
AcDbSpline
62
7
6
CONTINUOUS
70
0
71
3
72
9
73
5
74
3
42
0.0000001000
43
0.0000001000
44
0.0000000001
40
0.0000000000
40
0.0000000000
40
0.0000000000
40
0.0000000000
40
0.5014511937
40
1.0000000000
40
1.0000000000
40
1.0000000000
40
1.0000000000
10
276.4071094570
20
162.3746882371
30
0.0000000000
10
276.2857977327
20
162.5116098088
30
0.0000000000
10
276.0438809649
20
162.7846644682
30
0.0000000000
10
275.8019740268
20
163.0577278362
30
0.0000000000
10
275.6813742744
20
163.1938656112
30
0.0000000000
11
276.4071094570
21
162.3746882371
31
0.0000000000
11
276.0431813004
21
162.7854591685
31
0.0000000000
11
275.6813742744
21
163.1938656112
31
0.0000000000
0
SPLINE
5
43B
100
AcDbEntity
8
0
100
AcDbSpline
62
7
6
CONTINUOUS
70
0
71
3
72
9
73
5
74
3
42
0.0000001000
43
0.0000001000
44
0.0000000001
40
0.0000000000
40
0.0000000000
40
0.0000000000
40
0.0000000000
40
0.5000560549
40
1.0000000000
40
1.0000000000
40
1.0000000000
40
1.0000000000
10
275.8026917602
20
153.0983729467
30
0.0000000000
10
275.8026928129
20
153.0966664076
30
0.0000000000
10
275.8026924796
20
153.0932537101
30
0.0000000000
10
275.8026872625
20
153.0898410165
30
0.0000000000
10
275.8026834317
20
153.0881348640
30
0.0000000000
11
275.8026917602
21
153.0983729467
31
0.0000000000
11
275.8026912583
21
153.0932533285
31
0.0000000000
11
275.8026834317
21
153.0881348640
31
0.0000000000
0
SPLINE
5
43C
100
AcDbEntity
8
0
100
AcDbSpline
62
7
6
CONTINUOUS
70
0
71
3
72
15
73
11
74
9
42
0.0000001000
43
0.0000001000
44
0.0000000001
40
0.0000000000
40
0.0000000000
40
0.0000000000
40
0.0000000000
40
0.1176261017
40
0.2419266832
40
0.3647641961
40
0.4853416372
40
0.6043020247
40
0.7281237930
40
0.8621947854
40
1.0000000000
40
1.0000000000
40
1.0000000000
40
1.0000000000
10
270.2530789777
20
149.0294332709
30
0.0000000000
10
270.5584402507
20
149.0294332709
30
0.0000000000
10
271.1879941852
20
149.0873781095
30
0.0000000000
10
272.1030805312
20
149.3530453011
30
0.0000000000
10
272.9559723325
20
149.7952738188
30
0.0000000000
10
273.6968478364
20
150.3843123047
30
0.0000000000
10
274.3147606605
20
151.1043625329
30
0.0000000000
10
274.8019968485
20
151.9599116239
30
0.0000000000
10
275.1235386426
20
152.9430995134
30
0.0000000000
10
275.1984107515
20
153.6512335679
30
0.0000000000
10
275.1984107515
20
154.0089804891
30
0.0000000000
11
270.2530789777
21
149.0294332709
31
0.0000000000
11
271.1652756707
21
149.1137348526
31
0.0000000000
11
272.0949179348
21
149.3837640179
31
0.0000000000
11
272.9441713984
21
149.8242042439
31
0.0000000000
11
273.6792780332
21
150.4085578125
31
0.0000000000
11
274.2827321905
21
151.1115511916
31
0.0000000000
11
274.7601907279
21
151.9493923590
31
0.0000000000
11
275.0849871513
21
152.9417500438
31
0.0000000000
11
275.1984107515
21
154.0089804891
31
0.0000000000
0
SPLINE
5
43D
100
AcDbEntity
8
0
100
AcDbSpline
62
7
6
CONTINUOUS
70
0
71
3
72
15
73
11
74
9
42
0.0000001000
43
0.0000001000
44
0.0000000001
40
0.0000000000
40
0.0000000000
40
0.0000000000
40
0.0000000000
40
0.1380631512
40
0.2722531808
40
0.3960686221
40
0.5149454209
40
0.6354468360
40
0.7582228701
40
0.8824558290
40
1.0000000000
40
1.0000000000
40
1.0000000000
40
1.0000000000
10
249.3158081626
20
154.0089804891
30
0.0000000000
10
249.3158081626
20
153.6505641063
30
0.0000000000
10
249.3909268827
20
152.9414384751
30
0.0000000000
10
249.7132624598
20
151.9574783331
30
0.0000000000
10
250.2010407177
20
151.1021512880
30
0.0000000000
10
250.8190418292
20
150.3827593603
30
0.0000000000
10
251.5596929721
20
149.7943789582
30
0.0000000000
10
252.4122301114
20
149.3526449970
30
0.0000000000
10
253.3268292408
20
149.0873014134
30
0.0000000000
10
253.9559914864
20
149.0294332709
30
0.0000000000
10
254.2611399363
20
149.0294332709
30
0.0000000000
11
249.3158081626
21
154.0089804891
31
0.0000000000
11
249.4296574605
21
152.9397756123
31
0.0000000000
11
249.7552347845
21
151.9466986456
31
0.0000000000
11
250.2331624875
21
151.1091822125
31
0.0000000000
11
250.8365589908
21
150.4069979710
31
0.0000000000
11
251.5714334522
21
149.8233045979
31
0.0000000000
11
252.4203878993
21
149.3833287673
31
0.0000000000
11
253.3495735644
21
149.1136172252
31
0.0000000000
11
254.2611399363
21
149.0294332709
31
0.0000000000
0
SPLINE
5
43E
100
AcDbEntity
8
0
100
AcDbSpline
62
7
6
CONTINUOUS
70
0
71
3
72
9
73
5
74
3
42
0.0000001000
43
0.0000001000
44
0.0000000001
40
0.0000000000
40
0.0000000000
40
0.0000000000
40
0.0000000000
40
0.4999599607
40
1.0000000000
40
1.0000000000
40
1.0000000000
40
1.0000000000
10
248.7115354823
20
153.0881348640
30
0.0000000000
10
248.7115316514
20
153.0898410711
30
0.0000000000
10
248.7115264344
20
153.0932537647
30
0.0000000000
10
248.7115261012
20
153.0966664623
30
0.0000000000
10
248.7115271538
20
153.0983729467
30
0.0000000000
11
248.7115354823
21
153.0881348640
31
0.0000000000
11
248.7115276556
21
153.0932534924
31
0.0000000000
11
248.7115271538
21
153.0983729467
31
0.0000000000
0
SPLINE
5
43F
100
AcDbEntity
8
0
100
AcDbSpline
62
7
6
CONTINUOUS
70
0
71
3
72
10
73
6
74
4
42
0.0000001000
43
0.0000001000
44
0.0000000001
40
0.0000000000
40
0.0000000000
40
0.0000000000
40
0.0000000000
40
0.3353267959
40
0.6714951971
40
1.0000000000
40
1.0000000000
40
1.0000000000
40
1.0000000000
10
244.2012700955
20
168.7971124030
30
0.0000000000
10
244.0510041000
20
169.0622697132
30
0.0000000000
10
243.7701354669
20
169.6048689379
30
0.0000000000
10
243.4114045508
20
170.4407275803
30
0.0000000000
10
243.2126589926
20
171.0118409501
30
0.0000000000
10
243.1245260448
20
171.2971124030
30
0.0000000000
11
244.2012700955
21
168.7971124030
31
0.0000000000
11
243.7804580846
21
169.6088461455
31
0.0000000000
11
243.4188088469
21
170.4511085037
31
0.0000000000
11
243.1245260448
21
171.2971124030
31
0.0000000000
0
SPLINE
5
440
100
AcDbEntity
8
0
100
AcDbSpline
62
7
6
CONTINUOUS
70
0
71
3
72
10
73
6
74
4
42
0.0000001000
43
0.0000001000
44
0.0000000001
40
0.0000000000
40
0.0000000000
40
0.0000000000
40
0.0000000000
40
0.3265218514
40
0.6604594403
40
1.0000000000
40
1.0000000000
40
1.0000000000
40
1.0000000000
10
275.6813742744
20
163.1938656112
30
0.0000000000
10
276.2869269061
20
163.7087328210
30
0.0000000000
10
277.4531289476
20
164.8215593966
30
0.0000000000
10
279.0113836160
20
166.6982832694
30
0.0000000000
10
279.9054340114
20
168.0780173762
30
0.0000000000
10
280.3129488185
20
168.7971124030
30
0.0000000000
11
275.6813742744
21
163.1938656112
31
0.0000000000
11
277.4065401703
21
164.8400256075
31
0.0000000000
11
278.9644464751
21
166.7162387380
31
0.0000000000
11
280.3129488185
21
168.7971124030
31
0.0000000000
0
SPLINE
5
441
100
AcDbEntity
8
0
100
AcDbSpline
62
7
6
CONTINUOUS
70
0
71
3
72
9
73
5
74
3
42
0.0000001000
43
0.0000001000
44
0.0000000001
40
0.0000000000
40
0.0000000000
40
0.0000000000
40
0.0000000000
40
0.5075895144
40
1.0000000000
40
1.0000000000
40
1.0000000000
40
1.0000000000
10
244.2012700955
20
168.7971124030
30
0.0000000000
10
244.6087831835
20
168.0780204098
30
0.0000000000
10
245.4967883580
20
166.7076147744
30
0.0000000000
10
246.5380993957
20
165.4514500071
30
0.0000000000
10
247.0849785352
20
164.8643560389
30
0.0000000000
11
244.2012700955
21
168.7971124030
31
0.0000000000
11
245.5497662276
21
166.7162471778
31
0.0000000000
11
247.0849785352
21
164.8643560389
31
0.0000000000
0
SPLINE
5
442
100
AcDbEntity
8
0
100
AcDbSpline
62
7
6
CONTINUOUS
70
0
71
3
72
10
73
6
74
4
42
0.0000001000
43
0.0000001000
44
0.0000000001
40
0.0000000000
40
0.0000000000
40
0.0000000000
40
0.0000000000
40
0.3285048029
40
0.6646732041
40
1.0000000000
40
1.0000000000
40
1.0000000000
40
1.0000000000
10
281.3896928692
20
171.2971124030
30
0.0000000000
10
281.3015599214
20
171.0118409501
30
0.0000000000
10
281.1028143632
20
170.4407275803
30
0.0000000000
10
280.7440834471
20
169.6048689379
30
0.0000000000
10
280.4632148140
20
169.0622697132
30
0.0000000000
10
280.3129488185
20
168.7971124030
30
0.0000000000
11
281.3896928692
21
171.2971124030
31
0.0000000000
11
281.0954100671
21
170.4511085037
31
0.0000000000
11
280.7337608295
21
169.6088461455
31
0.0000000000
11
280.3129488185
21
168.7971124030
31
0.0000000000
0
SPLINE
5
443
100
AcDbEntity
8
0
100
AcDbSpline
62
7
6
CONTINUOUS
70
0
71
3
72
10
73
6
74
4
42
0.0000001000
43
0.0000001000
44
0.0000000001
40
0.0000000000
40
0.0000000000
40
0.0000000000
40
0.0000000000
40
0.1322233198
40
0.5596518688
40
1.0000000000
40
1.0000000000
40
1.0000000000
40
1.0000000000
10
248.9571843312
20
161.0792045515
30
0.0000000000
10
248.9609927594
20
160.9955318209
30
0.0000000000
10
248.9758985807
20
160.6413201824
30
0.0000000000
10
248.9940758398
20
160.0080978139
30
0.0000000000
10
248.9998970615
20
159.4583995195
30
0.0000000000
10
249.0004138355
20
159.1794610614
30
0.0000000000
11
248.9571843312
21
161.0792045515
31
0.0000000000
11
248.9677718727
21
160.8281501508
31
0.0000000000
11
248.9914263884
21
160.0162296075
31
0.0000000000
11
249.0004138355
21
159.1794610614
31
0.0000000000
0
SPLINE
5
444
100
AcDbEntity
8
0
100
AcDbSpline
62
7
6
CONTINUOUS
70
0
71
3
72
14
73
10
74
8
42
0.0000001000
43
0.0000001000
44
0.0000000001
40
0.0000000000
40
0.0000000000
40
0.0000000000
40
0.0000000000
40
0.1502812971
40
0.3111786223
40
0.4804994949
40
0.6505179419
40
0.8077813625
40
0.9292018684
40
1.0000000000
40
1.0000000000
40
1.0000000000
40
1.0000000000
10
249.0004138355
20
159.1794610614
30
0.0000000000
10
249.0006407585
20
159.0569751316
30
0.0000000000
10
249.0030565589
20
158.8033447503
30
0.0000000000
10
249.0132938862
20
158.4118542914
30
0.0000000000
10
249.0318987925
20
158.0044345938
30
0.0000000000
10
249.0610338503
20
157.6010153184
30
0.0000000000
10
249.0994882246
20
157.2361360769
30
0.0000000000
10
249.1492990359
20
156.9579332064
30
0.0000000000
10
249.1901226194
20
156.8023805179
30
0.0000000000
10
249.2220288010
20
156.7543002220
30
0.0000000000
11
249.0004138355
21
159.1794610614
31
0.0000000000
11
249.0039569977
21
158.8120197240
31
0.0000000000
11
249.0143598725
21
158.4187412197
31
0.0000000000
11
249.0336873230
21
158.0051798017
31
0.0000000000
11
249.0641697477
21
157.5905804018
31
0.0000000000
11
249.1076030478
21
157.2085105318
31
0.0000000000
11
249.1618717944
21
156.9166227652
31
0.0000000000
11
249.2220288010
21
156.7543002220
31
0.0000000000
0
SPLINE
5
445
100
AcDbEntity
8
0
100
AcDbSpline
62
7
6
CONTINUOUS
70
0
71
3
72
14
73
10
74
8
42
0.0000001000
43
0.0000001000
44
0.0000000001
40
0.0000000000
40
0.0000000000
40
0.0000000000
40
0.0000000000
40
0.0707981316
40
0.1922186375
40
0.3494820581
40
0.5195005051
40
0.6888213777
40
0.8497187029
40
1.0000000000
40
1.0000000000
40
1.0000000000
40
1.0000000000
10
275.2921901130
20
156.7543002220
30
0.0000000000
10
275.3240962946
20
156.8023805179
30
0.0000000000
10
275.3649198781
20
156.9579332064
30
0.0000000000
10
275.4147306895
20
157.2361360769
30
0.0000000000
10
275.4531850637
20
157.6010153184
30
0.0000000000
10
275.4823201215
20
158.0044345938
30
0.0000000000
10
275.5009250279
20
158.4118542914
30
0.0000000000
10
275.5111623552
20
158.8033447503
30
0.0000000000
10
275.5135781555
20
159.0569751316
30
0.0000000000
10
275.5138050785
20
159.1794610614
30
0.0000000000
11
275.2921901130
21
156.7543002220
31
0.0000000000
11
275.3523471196
21
156.9166227652
31
0.0000000000
11
275.4066158662
21
157.2085105318
31
0.0000000000
11
275.4500491663
21
157.5905804018
31
0.0000000000
11
275.4805315910
21
158.0051798017
31
0.0000000000
11
275.4998590416
21
158.4187412197
31
0.0000000000
11
275.5102619163
21
158.8120197240
31
0.0000000000
11
275.5138050785
21
159.1794610614
31
0.0000000000
0
SPLINE
5
446
100
AcDbEntity
8
0
100
AcDbSpline
62
7
6
CONTINUOUS
70
0
71
3
72
10
73
6
74
4
42
0.0000001000
43
0.0000001000
44
0.0000000001
40
0.0000000000
40
0.0000000000
40
0.0000000000
40
0.0000000000
40
0.3166417369
40
0.6532339011
40
1.0000000000
40
1.0000000000
40
1.0000000000
40
1.0000000000
10
275.5841299447
20
161.5913410371
30
0.0000000000
10
275.5687022113
20
161.3371018244
30
0.0000000000
10
275.5432258442
20
160.8122083874
30
0.0000000000
10
275.5201430742
20
160.0080978139
30
0.0000000000
10
275.5143218525
20
159.4583995195
30
0.0000000000
10
275.5138050785
20
159.1794610614
30
0.0000000000
11
275.5841299447
21
161.5913410371
31
0.0000000000
11
275.5464470413
21
160.8281501508
31
0.0000000000
11
275.5227925256
21
160.0162296075
31
0.0000000000
11
275.5138050785
21
159.1794610614
31
0.0000000000
0
SPLINE
5
447
100
AcDbEntity
8
0
100
AcDbSpline
62
7
6
CONTINUOUS
70
0
71
3
72
14
73
10
74
8
42
0.0000001000
43
0.0000001000
44
0.0000000001
40
0.0000000000
40
0.0000000000
40
0.0000000000
40
0.0000000000
40
0.1466897145
40
0.2970746623
40
0.4540274299
40
0.6223584869
40
0.8047044675
40
0.9954728468
40
1.0000000000
40
1.0000000000
40
1.0000000000
40
1.0000000000
10
106.4258690474
20
162.0052843590
30
0.0000000000
10
106.4258868274
20
162.7718409655
30
0.0000000000
10
106.6600115068
20
164.3243019921
30
0.0000000000
10
107.6758256632
20
166.4928811423
30
0.0000000000
10
109.2847789576
20
168.4087227799
30
0.0000000000
10
111.4169852914
20
170.0060907219
30
0.0000000000
10
113.9853786041
20
171.2125329113
30
0.0000000000
10
115.8982265895
20
171.7119405842
30
0.0000000000
10
116.9021101508
20
171.8833215137
30
0.0000000000
10
116.9253889124
20
171.8872476384
30
0.0000000000
11
106.4258690474
21
162.0052843590
31
0.0000000000
11
106.7620714602
21
164.2724321655
31
0.0000000000
11
107.7453990044
21
166.4064222116
31
0.0000000000
11
109.3082256116
21
168.2961782697
31
0.0000000000
11
111.4020153142
21
169.8877707919
31
0.0000000000
11
113.9740910567
21
171.1130504264
31
0.0000000000
11
116.8555759038
21
171.8753292491
31
0.0000000000
11
116.9253889124
21
171.8872476384
31
0.0000000000
0
SPLINE
5
448
100
AcDbEntity
8
0
100
AcDbSpline
62
7
6
CONTINUOUS
70
0
71
3
72
13
73
9
74
7
42
0.0000001000
43
0.0000001000
44
0.0000000001
40
0.0000000000
40
0.0000000000
40
0.0000000000
40
0.0000000000
40
0.1895151997
40
0.3724864813
40
0.5424277459
40
0.7018054730
40
0.8537386070
40
1.0000000000
40
1.0000000000
40
1.0000000000
40
1.0000000000
10
122.9260751294
20
171.8872935951
30
0.0000000000
10
123.8827202707
20
171.7259866905
30
0.0000000000
10
125.7373959657
20
171.2541038812
30
0.0000000000
10
128.2755874015
20
170.0960032072
30
0.0000000000
10
130.4123020271
20
168.5482355486
30
0.0000000000
10
132.0495443002
20
166.6797930332
30
0.0000000000
10
133.1105088076
20
164.5643037275
30
0.0000000000
10
133.3926812459
20
163.0408957709
30
0.0000000000
10
133.4205017620
20
162.2936157865
30
0.0000000000
11
122.9260751294
21
171.8872935951
31
0.0000000000
11
125.7410662094
21
171.1621011736
31
0.0000000000
11
128.2883293765
21
169.9841120729
31
0.0000000000
11
130.3889354932
21
168.4407971282
31
0.0000000000
11
131.9864745145
21
166.5904420765
31
0.0000000000
11
133.0174193201
21
164.5004997325
31
0.0000000000
11
133.4205017620
21
162.2936157865
31
0.0000000000
0
SPLINE
5
449
100
AcDbEntity
8
0
100
AcDbSpline
62
7
6
CONTINUOUS
70
0
71
3
72
9
73
5
74
3
42
0.0000001000
43
0.0000001000
44
0.0000000001
40
0.0000000000
40
0.0000000000
40
0.0000000000
40
0.0000000000
40
0.5239228476
40
1.0000000000
40
1.0000000000
40
1.0000000000
40
1.0000000000
10
129.4217122156
20
161.8288415029
30
0.0000000000
10
129.3990903522
20
161.3525668960
30
0.0000000000
10
129.1752810316
20
160.4458964343
30
0.0000000000
10
128.6944005372
20
159.6623292374
30
0.0000000000
10
128.4275106597
20
159.3189798334
30
0.0000000000
11
129.4217122156
21
161.8288415029
31
0.0000000000
11
129.0940079286
21
160.4363074050
31
0.0000000000
11
128.4275106597
21
159.3189798334
31
0.0000000000
0
SPLINE
5
44A
100
AcDbEntity
8
0
100
AcDbSpline
62
7
6
CONTINUOUS
70
0
71
3
72
8
73
4
74
2
42
0.0000001000
43
0.0000001000
44
0.0000000001
40
0.0000000000
40
0.0000000000
40
0.0000000000
40
0.0000000000
40
1.0000000000
40
1.0000000000
40
1.0000000000
40
1.0000000000
10
122.3272647152
20
156.0787493288
30
0.0000000000
10
122.1940233933
20
156.0555951420
30
0.0000000000
10
122.0604354591
20
156.0344368467
30
0.0000000000
10
121.9265627243
20
156.0152537750
30
0.0000000000
11
122.3272647152
21
156.0787493288
31
0.0000000000
11
121.9265627243
21
156.0152537750
31
0.0000000000
0
SPLINE
5
44B
100
AcDbEntity
8
0
100
AcDbSpline
62
7
6
CONTINUOUS
70
0
71
3
72
8
73
4
74
2
42
0.0000001000
43
0.0000001000
44
0.0000000001
40
0.0000000000
40
0.0000000000
40
0.0000000000
40
0.0000000000
40
1.0000000000
40
1.0000000000
40
1.0000000000
40
1.0000000000
10
117.9247831228
20
156.0153153273
30
0.0000000000
10
117.7911939913
20
156.0344592209
30
0.0000000000
10
117.6578884452
20
156.0555694215
30
0.0000000000
10
117.5249287174
20
156.0786674838
30
0.0000000000
11
117.9247831228
21
156.0153153273
31
0.0000000000
11
117.5249287174
21
156.0786674838
31
0.0000000000
0
SPLINE
5
44C
100
AcDbEntity
8
0
100
AcDbSpline
62
7
6
CONTINUOUS
70
0
71
3
72
9
73
5
74
3
42
0.0000001000
43
0.0000001000
44
0.0000000001
40
0.0000000000
40
0.0000000000
40
0.0000000000
40
0.0000000000
40
0.5105142003
40
1.0000000000
40
1.0000000000
40
1.0000000000
40
1.0000000000
10
111.4285767417
20
159.3136603483
30
0.0000000000
10
111.1228968070
20
159.7065298645
30
0.0000000000
10
110.6196899203
20
160.5534141610
30
0.0000000000
10
110.4258836086
20
161.5281108959
30
0.0000000000
10
110.4258690166
20
162.0052030050
30
0.0000000000
11
111.4285767417
21
159.3136603483
31
0.0000000000
11
110.6897457315
21
160.6045338678
31
0.0000000000
11
110.4258690166
21
162.0052030050
31
0.0000000000
0
SPLINE
5
44D
100
AcDbEntity
8
0
100
AcDbSpline
62
7
6
CONTINUOUS
70
0
71
3
72
11
73
7
74
5
42
0.0000001000
43
0.0000001000
44
0.0000000001
40
0.0000000000
40
0.0000000000
40
0.0000000000
40
0.0000000000
40
0.2376809233
40
0.4874611974
40
0.7514006568
40
1.0000000000
40
1.0000000000
40
1.0000000000
40
1.0000000000
10
133.4205017620
20
161.7168170368
30
0.0000000000
10
133.3926277403
20
160.9680998540
30
0.0000000000
10
133.1078012183
20
159.4327021083
30
0.0000000000
10
132.0279735398
20
157.2927932386
30
0.0000000000
10
130.4170318829
20
155.4775085595
30
0.0000000000
10
129.1044749676
20
154.5183387853
30
0.0000000000
10
128.4324759475
20
154.1122169064
30
0.0000000000
11
133.4205017620
21
161.7168170368
31
0.0000000000
11
133.0160416238
21
159.5057988494
31
0.0000000000
11
131.9662075033
21
157.3897879618
31
0.0000000000
11
130.3237663749
21
155.5102792078
31
0.0000000000
11
128.4324759475
21
154.1122169064
31
0.0000000000
0
SPLINE
5
44E
100
AcDbEntity
8
0
100
AcDbSpline
62
7
6
CONTINUOUS
70
0
71
3
72
8
73
4
74
2
42
0.0000001000
43
0.0000001000
44
0.0000000001
40
0.0000000000
40
0.0000000000
40
0.0000000000
40
0.0000000000
40
1.0000000000
40
1.0000000000
40
1.0000000000
40
1.0000000000
10
113.0991678268
20
153.2465103392
30
0.0000000000
10
112.6631514331
20
153.4362584044
30
0.0000000000
10
112.2361517163
20
153.6466950901
30
0.0000000000
10
111.8211036572
20
153.8786135951
30
0.0000000000
11
113.0991678268
21
153.2465103392
31
0.0000000000
11
111.8211036572
21
153.8786135951
31
0.0000000000
0
SPLINE
5
44F
100
AcDbEntity
8
0
100
AcDbSpline
62
7
6
CONTINUOUS
70
0
71
3
72
8
73
4
74
2
42
0.0000001000
43
0.0000001000
44
0.0000000001
40
0.0000000000
40
0.0000000000
40
0.0000000000
40
0.0000000000
40
1.0000000000
40
1.0000000000
40
1.0000000000
40
1.0000000000
10
108.4645184294
20
156.6172206648
30
0.0000000000
10
108.4595752343
20
156.6231837176
30
0.0000000000
10
108.4546389115
20
156.6291524300
30
0.0000000000
10
108.4497094861
20
156.6351267961
30
0.0000000000
11
108.4645184294
21
156.6172206648
31
0.0000000000
11
108.4497094861
21
156.6351267961
31
0.0000000000
0
SPLINE
5
450
100
AcDbEntity
8
0
100
AcDbSpline
62
7
6
CONTINUOUS
70
0
71
3
72
8
73
4
74
2
42
0.0000001000
43
0.0000001000
44
0.0000000001
40
0.0000000000
40
0.0000000000
40
0.0000000000
40
0.0000000000
40
1.0000000000
40
1.0000000000
40
1.0000000000
40
1.0000000000
10
108.4497094861
20
156.6351267961
30
0.0000000000
10
108.4405875155
20
156.6461824442
30
0.0000000000
10
108.4314891648
20
156.6572574528
30
0.0000000000
10
108.4224145943
20
156.6683517845
30
0.0000000000
11
108.4497094861
21
156.6351267961
31
0.0000000000
11
108.4224145943
21
156.6683517845
31
0.0000000000
0
SPLINE
5
451
100
AcDbEntity
8
0
100
AcDbSpline
62
7
6
CONTINUOUS
70
0
71
3
72
10
73
6
74
4
42
0.0000001000
43
0.0000001000
44
0.0000000001
40
0.0000000000
40
0.0000000000
40
0.0000000000
40
0.0000000000
40
0.2048891367
40
0.6051201235
40
1.0000000000
40
1.0000000000
40
1.0000000000
40
1.0000000000
10
108.4224145943
20
156.6683517845
30
0.0000000000
10
108.1712444880
20
156.9754257614
30
0.0000000000
10
107.4832429437
20
157.9260589075
30
0.0000000000
10
106.6578871387
20
159.6989391254
30
0.0000000000
10
106.4258512958
20
161.2399472297
30
0.0000000000
10
106.4258690474
20
162.0052843590
30
0.0000000000
11
108.4224145943
21
156.6683517845
31
0.0000000000
11
107.7269578433
21
157.6331867073
31
0.0000000000
11
106.7609562354
21
159.7417125038
31
0.0000000000
11
106.4258690474
21
162.0052843590
31
0.0000000000
0
SPLINE
5
452
100
AcDbEntity
8
0
100
AcDbSpline
62
7
6
CONTINUOUS
70
0
71
3
72
12
73
8
74
6
42
0.0000001000
43
0.0000001000
44
0.0000000001
40
0.0000000000
40
0.0000000000
40
0.0000000000
40
0.0000000000
40
0.1820032066
40
0.3865595478
40
0.6210009896
40
0.8740495394
40
1.0000000000
40
1.0000000000
40
1.0000000000
40
1.0000000000
10
110.4258690166
20
162.0052030050
30
0.0000000000
10
110.4258544850
20
162.4803207625
30
0.0000000000
10
110.6256348567
20
163.4894139779
30
0.0000000000
10
111.4801533355
20
164.8910950091
30
0.0000000000
10
112.8211679592
20
166.1186957190
30
0.0000000000
10
114.2166489045
20
166.9125218664
30
0.0000000000
10
115.1327083966
20
167.2806422505
30
0.0000000000
10
115.4417066561
20
167.3901421060
30
0.0000000000
11
110.4258690166
21
162.0052030050
31
0.0000000000
11
110.6876073223
21
163.4002638240
31
0.0000000000
11
111.4925709199
21
164.7775781305
31
0.0000000000
11
112.8231177833
21
166.0315916610
31
0.0000000000
11
114.5298035634
21
167.0224622559
31
0.0000000000
11
115.4417066561
21
167.3901421060
31
0.0000000000
0
SPLINE
5
453
100
AcDbEntity
8
0
100
AcDbSpline
62
7
6
CONTINUOUS
70
0
71
3
72
12
73
8
74
6
42
0.0000001000
43
0.0000001000
44
0.0000000001
40
0.0000000000
40
0.0000000000
40
0.0000000000
40
0.0000000000
40
0.0883280984
40
0.3509023372
40
0.5932576796
40
0.8068314149
40
1.0000000000
40
1.0000000000
40
1.0000000000
40
1.0000000000
10
124.4197164489
20
167.3866682395
30
0.0000000000
10
124.6321766240
20
167.3111516492
30
0.0000000000
10
125.4676727929
20
166.9870400038
30
0.0000000000
10
126.8116955283
20
166.2718474076
30
0.0000000000
10
128.2172376091
20
165.0683673879
30
0.0000000000
10
129.1520892742
20
163.6723714769
30
0.0000000000
10
129.4049476803
20
162.6369778210
30
0.0000000000
10
129.4232708865
20
162.1448027202
30
0.0000000000
11
124.4197164489
21
167.3866682395
31
0.0000000000
11
125.0502259320
21
167.1417155125
31
0.0000000000
11
126.8152699193
21
166.1833724923
31
0.0000000000
11
128.2070686913
21
164.9588768929
31
0.0000000000
11
129.0896801846
21
163.5842004663
31
0.0000000000
11
129.4232708865
21
162.1448027202
31
0.0000000000
0
SPLINE
5
454
100
AcDbEntity
8
0
100
AcDbSpline
62
7
6
CONTINUOUS
70
0
71
3
72
10
73
6
74
4
42
0.0000001000
43
0.0000001000
44
0.0000000001
40
0.0000000000
40
0.0000000000
40
0.0000000000
40
0.0000000000
40
0.3341376325
40
0.6686375265
40
1.0000000000
40
1.0000000000
40
1.0000000000
40
1.0000000000
10
110.6757256206
20
153.0881348640
30
0.0000000000
10
110.6695262933
20
153.1504068566
30
0.0000000000
10
110.6657626222
20
153.2760682118
30
0.0000000000
10
110.6866827937
20
153.4627635768
30
0.0000000000
10
110.7180735216
20
153.5839642380
30
0.0000000000
10
110.7377949130
20
153.6428073986
30
0.0000000000
11
110.6757256206
21
153.0881348640
31
0.0000000000
11
110.6701977745
21
153.2757928973
31
0.0000000000
11
110.6911548552
21
153.4625637789
31
0.0000000000
11
110.7377949130
21
153.6428073986
31
0.0000000000
0
SPLINE
5
455
100
AcDbEntity
8
0
100
AcDbSpline
62
7
6
CONTINUOUS
70
0
71
3
72
9
73
5
74
3
42
0.0000001000
43
0.0000001000
44
0.0000000001
40
0.0000000000
40
0.0000000000
40
0.0000000000
40
0.0000000000
40
0.5000581841
40
1.0000000000
40
1.0000000000
40
1.0000000000
40
1.0000000000
10
114.1752187582
20
153.0983729467
30
0.0000000000
10
114.1752287737
20
153.0966664241
30
0.0000000000
10
114.1752418826
20
153.0932537319
30
0.0000000000
10
114.1752411459
20
153.0898410145
30
0.0000000000
10
114.1752373151
20
153.0881348640
30
0.0000000000
11
114.1752187582
21
153.0983729467
31
0.0000000000
11
114.1752384219
21
153.0932533285
31
0.0000000000
11
114.1752373151
21
153.0881348640
31
0.0000000000
0
SPLINE
5
456
100
AcDbEntity
8
0
100
AcDbSpline
62
7
6
CONTINUOUS
70
0
71
3
72
17
73
13
74
11
42
0.0000001000
43
0.0000001000
44
0.0000000001
40
0.0000000000
40
0.0000000000
40
0.0000000000
40
0.0000000000
40
0.0993510164
40
0.1991714069
40
0.2994910090
40
0.4001840889
40
0.5010067246
40
0.6016730019
40
0.7019415541
40
0.8017115379
40
0.9010288516
40
1.0000000000
40
1.0000000000
40
1.0000000000
40
1.0000000000
10
110.7377949130
20
153.6428073986
30
0.0000000000
10
110.7897341160
20
153.7977795706
30
0.0000000000
10
110.9386149756
20
154.0953959513
30
0.0000000000
10
111.2771111011
20
154.4619582155
30
0.0000000000
10
111.7061638786
20
154.7216826297
30
0.0000000000
10
112.1920086470
20
154.8524575429
30
0.0000000000
10
112.6956560001
20
154.8432449096
30
0.0000000000
10
113.1762698520
20
154.6947771900
30
0.0000000000
10
113.5953170041
20
154.4197299753
30
0.0000000000
10
113.9200881271
20
154.0407851249
30
0.0000000000
10
114.1260556740
20
153.5889571481
30
0.0000000000
10
114.1742632029
20
153.2611895623
30
0.0000000000
10
114.1752187582
20
153.0983729467
30
0.0000000000
11
110.7377949130
21
153.6428073986
31
0.0000000000
11
110.9572319597
21
154.0812978509
31
0.0000000000
11
111.2912823181
21
154.4433944698
31
0.0000000000
11
111.7148144256
21
154.6998273004
31
0.0000000000
11
112.1946713789
21
154.8290680721
31
0.0000000000
11
112.6921839580
21
154.8199561022
31
0.0000000000
11
113.1668588310
21
154.6732653381
31
0.0000000000
11
113.5804992733
21
154.4016232880
31
0.0000000000
11
113.9008863957
21
154.0277106790
31
0.0000000000
11
114.1040133181
21
153.5816133175
31
0.0000000000
11
114.1752187582
21
153.0983729467
31
0.0000000000
0
ENDSEC
0
SECTION
2
OBJECTS
0
DICTIONARY
5
457
100
AcDbDictionary
3
ACAD_GROUP
350
458
3
ACAD_MLINESTYLE
350
459
0
DICTIONARY
5
458
102
{ACAD_REACTORS
330
457
102
}
100
AcDbDictionary
0
DICTIONARY
5
459
102
{ACAD_REACTORS
330
457
102
}
100
AcDbDictionary
3
STANDARD
350
45A
0
MLINESTYLE
5
45A
102
{ACAD_REACTORS
330
459
102
}
100
AcDbMlineStyle
2
STANDARD
70
0
3

62
256
51
90.0
52
90.0
71
2
49
0.5
62
256
6
BYLAYER
49
-0.5
62
256
6
BYLAYER
0
ENDSEC
0
EOF
