999
DXF file: C:\Aktuell-Internet\CAD-Daten\2vml2-4.dxf
999
Pro/ENGINEER 2001400 by Parametric Technology Corporation
0
SECTION
2
HEADER
9
$ACADVER
1
AC1014
9
$EXTMAX
10
420.0000000000
20
297.0000000000
9
$EXTMIN
10
0.0000000000
20
0.0000000000
9
$LIMMIN
10
0.0000000000
20
0.0000000000
9
$LIMMAX
10
420.0000000000
20
297.0000000000
9
$VIEWCTR
10
210.0000000000
20
148.5000000000
9
$VIEWSIZE
40
297.0000000000
9
$CLAYER
8
0
9
$LTSCALE
40
23.1000000000
9
$CELTYPE
6
BYLAYER
9
$DIMSCALE
40
1
9
$DIMASZ
40
3.5000000000
9
$DIMEXO
40
2.6250000000
9
$DIMDLI
40
15.9600000000
9
$DIMEXE
40
7.5600000000
9
$DIMCEN
40
3.7800000000
9
$DIMLFAC
40
1.0000000000
9
$DIMTXT
40
3.5000000000
9
$DIMTOL
70
1
9
$DIMTFAC
40
0.6000000000
9
$DIMTP
40
0.0050000000
9
$DIMTM
40
0.0050000000
9
$HANDSEED
5
352
0
ENDSEC
0
SECTION
2
CLASSES
0
ENDSEC
0
SECTION
2
TABLES
0
TABLE
2
VPORT
5
8
100
AcDbSymbolTable
70
2
0
VPORT
5
1F4
100
AcDbSymbolTableRecord
100
AcDbViewportTableRecord
2
*ACTIVE
70
0
10
0.0
20
0.0
11
1.0
21
1.0
12
210.0000000000
22
148.5000000000
13
0.0
23
0.0
14
1.0
24
1.0
15
0.0
25
0.0
16
0.0
26
0.0
36
1.0
17
0.0
27
0.0
37
0.0
40
297.0000000000
41
1.4141414141
42
50.0
43
0.0
44
0.0
50
0.0
51
0.0
71
0
72
100
73
1
74
1
75
0
76
0
77
0
78
0
0
ENDTAB
0
TABLE
2
LTYPE
5
5
100
AcDbSymbolTable
70
6
0
LTYPE
5
14
100
AcDbSymbolTableRecord
100
AcDbLinetypeTableRecord
2
BYBLOCK
70
0
3

72
65
73
0
40
0.0
0
LTYPE
5
15
100
AcDbSymbolTableRecord
100
AcDbLinetypeTableRecord
2
BYLAYER
70
0
3

72
65
73
0
40
0.0
0
LTYPE
5
16
100
AcDbSymbolTableRecord
100
AcDbLinetypeTableRecord
2
CONTINUOUS
70
64
3
Solid line
72
65
73
0
40
0
0
LTYPE
5
1F5
100
AcDbSymbolTableRecord
100
AcDbLinetypeTableRecord
2
CENTER
70
64
3
____ _ ____ _ ____ _ ____ _ ____ _ ____ _ ____
72
65
73
4
40
0.6
49
0.375
74
0
49
-0.075
74
0
49
0.075
74
0
49
-0.075
74
0
0
LTYPE
5
1F6
100
AcDbSymbolTableRecord
100
AcDbLinetypeTableRecord
2
HIDDEN
70
64
3
- - - - - - - - - - - - - - - - - - - -
72
65
73
2
40
0.2
49
0.1
74
0
49
-0.1
74
0
0
LTYPE
5
1F7
100
AcDbSymbolTableRecord
100
AcDbLinetypeTableRecord
2
PHANTOM
70
64
3
_____ _ _ _____ _ _ _____ _ _ _____
72
65
73
6
40
0.8
49
0.45
74
0
49
-0.05
74
0
49
0.1
74
0
49
-0.05
74
0
49
0.1
74
0
49
-0.05
74
0
0
LTYPE
5
1F8
100
AcDbSymbolTableRecord
100
AcDbLinetypeTableRecord
2
DOT
70
64
3
. . . . . . . . . . . . . . . . . . . .
72
65
73
2
40
0.2
49
0.1
74
0
49
-0.1
74
0
0
LTYPE
5
1F9
100
AcDbSymbolTableRecord
100
AcDbLinetypeTableRecord
2
DASHED
70
64
3
- - - - - - - - - - - - - - - - - - - -
72
65
73
2
40
0.2
49
0.1
74
0
49
-0.1
74
0
0
ENDTAB
0
TABLE
2
LAYER
5
2
100
AcDbSymbolTable
70
36
0
LAYER
5
10
100
AcDbSymbolTableRecord
100
AcDbLayerTableRecord
2
0
70
0
62
7
6
CONTINUOUS
0
LAYER
5
1FA
100
AcDbSymbolTableRecord
100
AcDbLayerTableRecord
2
DEFAULT_1
70
0
62
7
6
CENTER
0
LAYER
5
1FB
100
AcDbSymbolTableRecord
100
AcDbLayerTableRecord
2
DEFAULT_2
70
0
62
8
6
HIDDEN
0
LAYER
5
1FC
100
AcDbSymbolTableRecord
100
AcDbLayerTableRecord
2
DEFAULT_3
70
0
62
7
6
PHANTOM
0
ENDTAB
0
TABLE
2
STYLE
5
3
100
AcDbSymbolTable
70
1
0
STYLE
5
11
100
AcDbSymbolTableRecord
100
AcDbTextStyleTableRecord
2
STANDARD
70
0
40
0.0
41
1.0
50
0.0
71
0
42
0.0
3
txt
4

0
STYLE
5
1FD
100
AcDbSymbolTableRecord
100
AcDbTextStyleTableRecord
2
TEXTSTYLE_0
70
0
40
0.0
41
0.80
50
0.0
71
0
42
0.2
3
txt
4

0
ENDTAB
0
TABLE
2
VIEW
5
6
100
AcDbSymbolTable
70
0
0
ENDTAB
0
TABLE
2
UCS
5
7
100
AcDbSymbolTable
70
0
0
ENDTAB
0
TABLE
2
APPID
5
9
100
AcDbSymbolTable
70
1
0
APPID
5
1FE
100
AcDbSymbolTableRecord
100
AcDbRegAppTableRecord
2
ACAD
70
0
0
ENDTAB
0
TABLE
2
DIMSTYLE
5
A
100
AcDbSymbolTable
70
1
0
DIMSTYLE
105
1FF
100
AcDbSymbolTableRecord
100
AcDbDimStyleTableRecord
2
STANDARD
70
0
3

4

5

6

7

40
1.0
41
0.18
42
0.0625
43
0.38
44
0.18
45
0.0
46
0.0
47
0.0050000000
48
0.0050000000
140
3.5000000000
141
0.09
142
0.0
143
25.4
144
1.0000000000
145
0.0
146
0.6000000000
147
0.09
71
1
72
0
73
1
74
1
75
0
76
0
77
0
78
0
170
0
171
2
172
0
173
0
174
0
175
0
176
0
177
0
178
0
270
2
271
3
272
4
273
2
274
2
340
11
275
0
280
0
281
0
282
0
283
1
284
0
285
0
286
0
287
3
288
0
0
ENDTAB
0
TABLE
2
BLOCK_RECORD
5
1
100
AcDbSymbolTable
70
0
0
BLOCK_RECORD
5
1B
100
AcDbSymbolTableRecord
100
AcDbBlockTableRecord
2
*MODEL_SPACE
0
BLOCK_RECORD
5
1C
100
AcDbSymbolTableRecord
100
AcDbBlockTableRecord
2
*PAPER_SPACE
0
ENDTAB
0
ENDSEC
0
SECTION
2
BLOCKS
0
BLOCK
5
1E
100
AcDbEntity
8
0
100
AcDbBlockBegin
2
*MODEL_SPACE
70
0
10
0.0
20
0.0
30
0.0
3
*MODEL_SPACE
1

0
ENDBLK
5
1F
100
AcDbEntity
8
0
100
AcDbBlockEnd
0
BLOCK
5
20
100
AcDbEntity
8
0
100
AcDbBlockBegin
2
*PAPER_SPACE
70
0
10
0.0
20
0.0
30
0.0
3
*PAPER_SPACE
1

0
ENDBLK
5
21
100
AcDbEntity
8
0
100
AcDbBlockEnd
0
ENDSEC
0
SECTION
2
ENTITIES
0
TEXT
5
200
100
AcDbEntity
8
0
100
AcDbText
62
2
6
CONTINUOUS
10
65.5041397188
20
213.2589489265
7
TEXTSTYLE_0
40
5.0000000000
1
RUD
50
90.0000000000
72
5
11
65.5041397188
21
225.6399013074
100
AcDbText
0
TEXT
5
201
100
AcDbEntity
8
0
100
AcDbText
62
2
6
CONTINUOUS
10
104.9227581653
20
206.9770973812
7
TEXTSTYLE_0
40
5.0000000000
1
VML 2-4
50
90.0000000000
72
5
11
104.9227581653
21
234.0009069050
100
AcDbText
0
TEXT
5
202
100
AcDbEntity
8
0
100
AcDbText
62
2
6
CONTINUOUS
10
298.0464884229
20
198.3845268928
7
TEXTSTYLE_0
40
5.0000000000
1
RUD VML 2-4
50
90.0000000000
72
5
11
298.0464884229
21
241.7178602261
100
AcDbText
0
LINE
5
203
100
AcDbEntity
8
0
100
AcDbLine
62
7
6
CONTINUOUS
10
0.0000000000
20
0.0000000000
11
0.0000000000
21
297.0000000000
0
LINE
5
204
100
AcDbEntity
8
0
100
AcDbLine
62
7
6
CONTINUOUS
10
0.0000000000
20
0.0000000000
11
420.0000000000
21
0.0000000000
0
LINE
5
205
100
AcDbEntity
8
0
100
AcDbLine
62
7
6
CONTINUOUS
10
0.0000000000
20
297.0000000000
11
420.0000000000
21
297.0000000000
0
LINE
5
206
100
AcDbEntity
8
0
100
AcDbLine
62
7
6
CONTINUOUS
10
420.0000000000
20
0.0000000000
11
420.0000000000
21
297.0000000000
0
LINE
5
207
100
AcDbEntity
8
0
100
AcDbLine
62
7
6
CONTINUOUS
10
54.4366433858
20
183.9955966353
11
53.9417015587
21
188.7046535618
0
LINE
5
208
100
AcDbEntity
8
0
100
AcDbLine
62
7
6
CONTINUOUS
10
61.4366433858
20
183.9955966353
11
60.9417015587
21
188.7046535618
0
LINE
5
209
100
AcDbEntity
8
0
100
AcDbLine
62
7
6
CONTINUOUS
10
57.8164151227
20
231.7046535618
11
57.8164151227
21
206.2046535618
0
LINE
5
20A
100
AcDbEntity
8
0
100
AcDbLine
62
7
6
CONTINUOUS
10
53.9417015587
20
188.7046535618
11
54.4366433858
21
193.4137104883
0
LINE
5
20B
100
AcDbEntity
8
0
100
AcDbLine
62
7
6
CONTINUOUS
10
60.1417015587
20
182.2046535618
11
60.1417015587
21
177.0933973184
0
LINE
5
20C
100
AcDbEntity
8
0
100
AcDbLine
62
7
6
CONTINUOUS
10
60.9417015587
20
188.7046535618
11
61.4366433858
21
193.4137104883
0
LINE
5
20D
100
AcDbEntity
8
0
100
AcDbLine
62
7
6
CONTINUOUS
10
68.8758469551
20
179.7046535618
11
71.5861275088
21
171.5309521252
0
LINE
5
20E
100
AcDbEntity
8
0
100
AcDbLine
62
7
6
CONTINUOUS
10
69.4417015587
20
188.7046535618
11
68.9467597316
21
193.4137104883
0
LINE
5
20F
100
AcDbEntity
8
0
100
AcDbLine
62
7
6
CONTINUOUS
10
67.4164151227
20
231.7046535618
11
67.4164151227
21
206.2046535618
0
LINE
5
210
100
AcDbEntity
8
0
100
AcDbLine
62
7
6
CONTINUOUS
10
69.7417015587
20
182.2046535618
11
69.7417015587
21
177.0933973184
0
LINE
5
211
100
AcDbEntity
8
0
100
AcDbLine
62
7
6
CONTINUOUS
10
71.2246413366
20
190.5264661438
11
71.2246413366
21
190.2465869860
0
LINE
5
212
100
AcDbEntity
8
0
100
AcDbLine
62
7
6
CONTINUOUS
10
71.2246413366
20
187.1627201376
11
71.2246413366
21
186.8828403426
0
LINE
5
213
100
AcDbEntity
8
0
100
AcDbLine
62
7
6
CONTINUOUS
10
71.2854181988
20
190.6737977057
11
71.2854181988
21
190.3933153110
0
LINE
5
214
100
AcDbEntity
8
0
100
AcDbLine
62
7
6
CONTINUOUS
10
71.2854181988
20
187.0159918126
11
71.2854181988
21
186.7355081369
0
LINE
5
215
100
AcDbEntity
8
0
100
AcDbLine
62
7
6
CONTINUOUS
10
71.5979849186
20
191.2223832901
11
71.5979849186
21
191.0181925755
0
LINE
5
216
100
AcDbEntity
8
0
100
AcDbLine
62
7
6
CONTINUOUS
10
71.5979849186
20
186.3911145481
11
71.5979849186
21
186.1869243304
0
LINE
5
217
100
AcDbEntity
8
0
100
AcDbLine
62
7
6
CONTINUOUS
10
71.6587617808
20
191.3098372699
11
71.6587617808
21
191.1173714006
0
LINE
5
218
100
AcDbEntity
8
0
100
AcDbLine
62
7
6
CONTINUOUS
10
71.6587617808
20
186.2919357230
11
71.6587617808
21
186.0994696904
0
LINE
5
219
100
AcDbEntity
8
0
100
AcDbLine
62
7
6
CONTINUOUS
10
72.6917015587
20
192.3836539595
11
72.6917015587
21
192.2555802918
0
LINE
5
21A
100
AcDbEntity
8
0
100
AcDbLine
62
7
6
CONTINUOUS
10
72.6917015587
20
185.1537268318
11
72.6917015587
21
185.0256529987
0
LINE
5
21B
100
AcDbEntity
8
0
100
AcDbLine
62
7
6
CONTINUOUS
10
68.9467597316
20
183.9955966353
11
69.4417015587
21
188.7046535618
0
LINE
5
21C
100
AcDbEntity
8
0
100
AcDbLine
62
7
6
CONTINUOUS
10
58.2972756086
20
171.5309521252
11
61.0075561623
21
179.7046535618
0
LINE
5
21D
100
AcDbEntity
8
0
100
AcDbLine
62
7
6
CONTINUOUS
10
103.8758469551
20
179.7046535618
11
96.0075561623
21
179.7046535618
0
LINE
5
21E
100
AcDbEntity
8
0
100
AcDbLine
62
7
6
CONTINUOUS
10
68.8758469551
20
179.7046535618
11
61.0075561623
21
179.7046535618
0
LINE
5
21F
100
AcDbEntity
8
DEFAULT_1
100
AcDbLine
62
2
6
CENTER
10
82.4417015587
20
166.7046535618
11
82.4417015587
21
259.3299399978
0
LINE
5
220
100
AcDbEntity
8
0
100
AcDbLine
62
7
6
CONTINUOUS
10
79.8553585174
20
182.2046206243
11
85.0226656118
21
182.2046535618
0
LINE
5
221
100
AcDbEntity
8
0
100
AcDbLine
62
7
6
CONTINUOUS
10
93.8554010021
20
182.2046233369
11
108.4577159409
21
182.2046535618
0
LINE
5
222
100
AcDbEntity
8
0
100
AcDbLine
62
7
6
CONTINUOUS
10
56.4256871765
20
182.2046535618
11
71.0280402195
21
182.2046205230
0
LINE
5
223
100
AcDbEntity
8
0
100
AcDbLine
62
7
6
CONTINUOUS
10
85.0280446862
20
182.2046206302
11
85.0226877864
21
182.2046274748
0
LINE
5
224
100
AcDbEntity
8
0
100
AcDbLine
62
7
6
CONTINUOUS
10
85.4143787248
20
186.7046535618
11
79.4690243926
21
186.7046535618
0
LINE
5
225
100
AcDbEntity
8
0
100
AcDbLine
62
7
6
CONTINUOUS
10
85.4143787248
20
190.7046535618
11
79.4690243926
21
190.7046535618
0
LINE
5
226
100
AcDbEntity
8
0
100
AcDbLine
62
7
6
CONTINUOUS
10
126.4810864555
20
188.8980543133
11
124.5614048478
21
189.4591447919
0
LINE
5
227
100
AcDbEntity
8
0
100
AcDbLine
62
7
6
CONTINUOUS
10
123.6015640440
20
189.7396900312
11
121.6818824363
21
190.3007805098
0
LINE
5
228
100
AcDbEntity
8
0
100
AcDbLine
62
7
6
CONTINUOUS
10
95.9366433858
20
183.9955966353
11
95.4417015587
21
188.7046535618
0
LINE
5
229
100
AcDbEntity
8
0
100
AcDbLine
62
7
6
CONTINUOUS
10
95.1417015587
20
177.0933973184
11
95.1417015587
21
182.2046535618
0
LINE
5
22A
100
AcDbEntity
8
0
100
AcDbLine
62
7
6
CONTINUOUS
10
85.0280031400
20
195.2046838546
11
79.8607142404
21
195.2046535618
0
LINE
5
22B
100
AcDbEntity
8
0
100
AcDbLine
62
7
6
CONTINUOUS
10
56.4256871765
20
195.2046535618
11
71.0280446481
21
195.2046865044
0
LINE
5
22C
100
AcDbEntity
8
0
100
AcDbLine
62
7
6
CONTINUOUS
10
79.8607142404
20
195.2046797680
11
79.8553630279
21
195.2046866006
0
LINE
5
22D
100
AcDbEntity
8
0
100
AcDbLine
62
7
6
CONTINUOUS
10
108.4577159409
20
195.2046535618
11
93.8553672161
21
195.2046770140
0
LINE
5
22E
100
AcDbEntity
8
0
100
AcDbLine
62
7
6
CONTINUOUS
10
127.3507766974
20
191.8735608051
11
125.4310950897
21
192.4346512838
0
LINE
5
22F
100
AcDbEntity
8
0
100
AcDbLine
62
7
6
CONTINUOUS
10
124.4712542859
20
192.7151965231
11
122.5515726782
21
193.2762870017
0
LINE
5
230
100
AcDbEntity
8
0
100
AcDbLine
62
7
6
CONTINUOUS
10
94.5943575162
20
201.7081681906
11
122.4297408273
21
193.5723562505
0
LINE
5
231
100
AcDbEntity
8
0
100
AcDbLine
62
7
6
CONTINUOUS
10
126.2618569790
20
193.4941329216
11
167.5348516055
21
181.4307343784
0
LINE
5
232
100
AcDbEntity
8
0
100
AcDbLine
62
7
6
CONTINUOUS
10
167.5909606533
20
181.6227025391
11
160.1096623933
21
183.8093595372
0
LINE
5
233
100
AcDbEntity
8
0
100
AcDbLine
62
7
6
CONTINUOUS
10
103.8758469551
20
179.7046535618
11
106.5861275088
21
171.5309521252
0
LINE
5
234
100
AcDbEntity
8
0
100
AcDbLine
62
7
6
CONTINUOUS
10
103.9417015587
20
188.7046535618
11
103.4467597316
21
193.4137104883
0
LINE
5
235
100
AcDbEntity
8
0
100
AcDbLine
62
7
6
CONTINUOUS
10
97.4669879947
20
206.2046535618
11
97.4669879947
21
231.7046535618
0
LINE
5
236
100
AcDbEntity
8
0
100
AcDbLine
62
7
6
CONTINUOUS
10
95.4417015587
20
188.7046535618
11
95.9366433858
21
193.4137104883
0
LINE
5
237
100
AcDbEntity
8
0
100
AcDbLine
62
7
6
CONTINUOUS
10
160.5585347762
20
185.3451048234
11
168.0398330363
21
183.1584478253
0
LINE
5
238
100
AcDbEntity
8
0
100
AcDbLine
62
7
6
CONTINUOUS
10
126.8229474576
20
195.4138145293
11
168.0959420841
21
183.3504159860
0
LINE
5
239
100
AcDbEntity
8
0
100
AcDbLine
62
7
6
CONTINUOUS
10
95.7165384734
20
205.5475314059
11
123.5519217845
21
197.4117194658
0
LINE
5
23A
100
AcDbEntity
8
0
100
AcDbLine
62
7
6
CONTINUOUS
10
123.8140262551
20
197.5955706189
11
128.6132302743
21
196.1928444224
0
LINE
5
23B
100
AcDbEntity
8
0
100
AcDbLine
62
7
6
CONTINUOUS
10
104.7417015587
20
177.0933973184
11
104.7417015587
21
182.2046535618
0
LINE
5
23C
100
AcDbEntity
8
0
100
AcDbLine
62
7
6
CONTINUOUS
10
103.4467597316
20
183.9955966353
11
103.9417015587
21
188.7046535618
0
LINE
5
23D
100
AcDbEntity
8
0
100
AcDbLine
62
7
6
CONTINUOUS
10
124.6837164970
20
200.5710771108
11
129.4829205162
21
199.1683509142
0
LINE
5
23E
100
AcDbEntity
8
0
100
AcDbLine
62
7
6
CONTINUOUS
10
110.9417015587
20
188.7046535618
11
110.4467597316
21
193.4137104883
0
LINE
5
23F
100
AcDbEntity
8
0
100
AcDbLine
62
7
6
CONTINUOUS
10
107.0669879947
20
206.2046535618
11
107.0669879947
21
231.7046535618
0
LINE
5
240
100
AcDbEntity
8
0
100
AcDbLine
62
7
6
CONTINUOUS
10
93.2972756086
20
171.5309521252
11
96.0075561623
21
179.7046535618
0
LINE
5
241
100
AcDbEntity
8
0
100
AcDbLine
62
7
6
CONTINUOUS
10
110.4467597316
20
183.9955966353
11
110.9417015587
21
188.7046535618
0
LINE
5
242
100
AcDbEntity
8
0
100
AcDbLine
62
7
6
CONTINUOUS
10
123.6015640440
20
189.7396900312
11
124.4712542859
21
192.7151965231
0
LINE
5
243
100
AcDbEntity
8
0
100
AcDbLine
62
7
6
CONTINUOUS
10
125.4310950897
20
192.4346512838
11
124.5614048478
21
189.4591447919
0
LINE
5
244
100
AcDbEntity
8
0
100
AcDbLine
62
7
6
CONTINUOUS
10
126.8227875194
20
195.4138612765
11
126.2616970408
21
193.4941796689
0
LINE
5
245
100
AcDbEntity
8
0
100
AcDbLine
62
7
6
CONTINUOUS
10
138.2907485388
20
192.0619701548
11
137.7296580601
21
190.1422885472
0
LINE
5
246
100
AcDbEntity
8
0
100
AcDbLine
62
7
6
CONTINUOUS
10
160.4172156535
20
185.5947779006
11
159.8561251748
21
183.6750962929
0
LINE
5
247
100
AcDbEntity
8
0
100
AcDbLine
62
7
6
CONTINUOUS
10
160.6146438240
20
185.5370729841
11
160.5585347762
21
185.3451048234
0
LINE
5
248
100
AcDbEntity
8
0
100
AcDbLine
62
7
6
CONTINUOUS
10
160.1096623933
20
183.8093595372
11
160.0535533454
21
183.6173913765
0
LINE
5
249
100
AcDbEntity
8
0
100
AcDbLine
62
7
6
CONTINUOUS
10
167.5348516055
20
181.4307343784
11
168.0959420841
21
183.3504159860
0
LINE
5
24A
100
AcDbEntity
8
0
100
AcDbLine
62
7
6
CONTINUOUS
10
292.6271299929
20
169.7046535618
11
298.1271299929
21
169.7046535618
0
LINE
5
24B
100
AcDbEntity
8
0
100
AcDbLine
62
7
6
CONTINUOUS
10
255.8920718492
20
183.9955963570
11
255.3971299929
21
188.7046535618
0
LINE
5
24C
100
AcDbEntity
8
0
100
AcDbLine
62
7
6
CONTINUOUS
10
292.6271299929
20
171.5309521252
11
298.1271299929
21
171.5309521252
0
LINE
5
24D
100
AcDbEntity
8
0
100
AcDbLine
62
7
6
CONTINUOUS
10
255.3971299929
20
188.7046535618
11
255.8920718492
21
193.4137107666
0
LINE
5
24E
100
AcDbEntity
8
0
100
AcDbLine
62
7
6
CONTINUOUS
10
262.7804319679
20
183.9955966353
11
262.7152716402
21
188.7046535618
0
LINE
5
24F
100
AcDbEntity
8
0
100
AcDbLine
62
7
6
CONTINUOUS
10
262.7152716402
20
188.7046535618
11
262.7804319679
21
193.4137104883
0
LINE
5
250
100
AcDbEntity
8
0
100
AcDbLine
62
7
6
CONTINUOUS
10
300.3937963814
20
181.7046535618
11
300.1771299929
21
181.7046535618
0
LINE
5
251
100
AcDbEntity
8
0
100
AcDbLine
62
7
6
CONTINUOUS
10
290.5771299929
20
181.7046535618
11
290.4771299929
21
181.7046535618
0
LINE
5
252
100
AcDbEntity
8
0
100
AcDbLine
62
7
6
CONTINUOUS
10
269.0803075221
20
182.2046535618
11
269.0963240847
21
182.0522661478
0
LINE
5
253
100
AcDbEntity
8
0
100
AcDbLine
62
7
6
CONTINUOUS
10
272.1446150102
20
181.3883902536
11
270.2049485963
21
181.1638918261
0
LINE
5
254
100
AcDbEntity
8
0
100
AcDbLine
62
7
6
CONTINUOUS
10
332.8730513414
20
182.2046535618
11
257.8812087528
21
182.2046535618
0
LINE
5
255
100
AcDbEntity
8
0
100
AcDbLine
62
7
6
CONTINUOUS
10
320.5493114556
20
181.1638918184
11
318.6096445772
21
181.3883902997
0
LINE
5
256
100
AcDbEntity
8
0
100
AcDbLine
62
7
6
CONTINUOUS
10
269.0963243394
20
195.3570433986
11
269.0803075221
21
195.2046535618
0
LINE
5
257
100
AcDbEntity
8
0
100
AcDbLine
62
7
6
CONTINUOUS
10
276.4749491890
20
195.2729455154
11
276.4755027953
21
195.2727399788
0
LINE
5
258
100
AcDbEntity
8
0
100
AcDbLine
62
7
6
CONTINUOUS
10
292.6271299929
20
179.7046535618
11
290.5771299929
21
181.7046535618
0
LINE
5
259
100
AcDbEntity
8
0
100
AcDbLine
62
7
6
CONTINUOUS
10
320.5492952198
20
196.2454134260
11
315.6217410833
21
195.6750946602
0
LINE
5
25A
100
AcDbEntity
8
0
100
AcDbLine
62
7
6
CONTINUOUS
10
275.1366479934
20
195.6746167562
11
270.2049648213
21
196.2454134196
0
LINE
5
25B
100
AcDbEntity
8
0
100
AcDbLine
62
7
6
CONTINUOUS
10
317.4863703762
20
181.9966884801
11
317.4852743004
21
181.9970684214
0
LINE
5
25C
100
AcDbEntity
8
0
100
AcDbLine
62
7
6
CONTINUOUS
10
257.8812087528
20
195.2046535618
11
332.8730513414
21
195.2046535618
0
LINE
5
25D
100
AcDbEntity
8
0
100
AcDbLine
62
7
6
CONTINUOUS
10
288.2771299929
20
195.7046535618
11
290.5771299929
21
195.7046535618
0
LINE
5
25E
100
AcDbEntity
8
0
100
AcDbLine
62
7
6
CONTINUOUS
10
300.1771299929
20
195.7046535618
11
301.4750463814
21
195.7046535618
0
LINE
5
25F
100
AcDbEntity
8
0
100
AcDbLine
62
7
6
CONTINUOUS
10
316.7768596841
20
182.0756312924
11
316.7769727336
21
182.0755775924
0
LINE
5
260
100
AcDbEntity
8
0
100
AcDbLine
62
7
6
CONTINUOUS
10
316.7204420833
20
182.1036581948
11
316.7769693659
21
182.0755815414
0
LINE
5
261
100
AcDbEntity
8
0
100
AcDbLine
62
7
6
CONTINUOUS
10
317.9352519967
20
181.8203779212
11
317.9353934419
21
181.8202986370
0
LINE
5
262
100
AcDbEntity
8
DEFAULT_1
100
AcDbLine
62
2
6
CENTER
10
283.8771299929
20
179.2046535618
11
283.8771299929
21
198.2046535618
0
LINE
5
263
100
AcDbEntity
8
0
100
AcDbLine
62
7
6
CONTINUOUS
10
288.2771299929
20
195.2046535618
11
288.2771299929
21
195.7046535618
0
LINE
5
264
100
AcDbEntity
8
0
100
AcDbLine
62
7
6
CONTINUOUS
10
290.4771299929
20
182.2046535618
11
290.4771299929
21
181.7046535618
0
LINE
5
265
100
AcDbEntity
8
0
100
AcDbLine
62
7
6
CONTINUOUS
10
290.5771299929
20
182.2046535618
11
290.5771299929
21
181.7046523579
0
LINE
5
266
100
AcDbEntity
8
0
100
AcDbLine
62
7
6
CONTINUOUS
10
290.5771299929
20
195.2046535618
11
290.5771299929
21
251.4745044760
0
LINE
5
267
100
AcDbEntity
8
0
100
AcDbLine
62
7
6
CONTINUOUS
10
292.6271299929
20
169.7048220973
11
292.6271299929
21
179.7046535618
0
LINE
5
268
100
AcDbEntity
8
DEFAULT_1
100
AcDbLine
62
2
6
CENTER
10
295.3771299929
20
166.7046535618
11
295.3771299929
21
259.3299399978
0
LINE
5
269
100
AcDbEntity
8
0
100
AcDbLine
62
7
6
CONTINUOUS
10
298.1271299929
20
169.7048220973
11
298.1271299929
21
179.7046535618
0
LINE
5
26A
100
AcDbEntity
8
0
100
AcDbLine
62
7
6
CONTINUOUS
10
300.1771299929
20
182.2046535618
11
300.1771299929
21
181.7046523579
0
LINE
5
26B
100
AcDbEntity
8
0
100
AcDbLine
62
7
6
CONTINUOUS
10
300.1771299929
20
195.2046535618
11
300.1771299929
21
251.4745044760
0
LINE
5
26C
100
AcDbEntity
8
0
100
AcDbLine
62
7
6
CONTINUOUS
10
300.3937963814
20
182.2046535618
11
300.3937963814
21
181.7046535618
0
LINE
5
26D
100
AcDbEntity
8
0
100
AcDbLine
62
7
6
CONTINUOUS
10
300.5271299929
20
195.2046535618
11
300.5271299929
21
195.7046535618
0
LINE
5
26E
100
AcDbEntity
8
0
100
AcDbLine
62
7
6
CONTINUOUS
10
300.7458799929
20
195.2046535618
11
300.7458799929
21
195.7046535618
0
LINE
5
26F
100
AcDbEntity
8
0
100
AcDbLine
62
7
6
CONTINUOUS
10
301.0375463814
20
195.2046535618
11
301.0375463814
21
195.7046535618
0
LINE
5
270
100
AcDbEntity
8
0
100
AcDbLine
62
7
6
CONTINUOUS
10
301.4750463814
20
195.2046535618
11
301.4750463814
21
195.7046535618
0
LINE
5
271
100
AcDbEntity
8
DEFAULT_1
100
AcDbLine
62
2
6
CENTER
10
306.8771299929
20
179.2046535618
11
306.8771299929
21
198.2046535618
0
LINE
5
272
100
AcDbEntity
8
0
100
AcDbLine
62
7
6
CONTINUOUS
10
272.8189866596
20
181.8203659724
11
272.8191307455
21
181.8204467289
0
LINE
5
273
100
AcDbEntity
8
0
100
AcDbLine
62
7
6
CONTINUOUS
10
273.9773768557
20
182.0756209872
11
274.0340199909
21
182.1037621144
0
LINE
5
274
100
AcDbEntity
8
0
100
AcDbLine
62
7
6
CONTINUOUS
10
314.2795830922
20
195.2730627128
11
314.2791443168
21
195.2728996274
0
LINE
5
275
100
AcDbEntity
8
0
100
AcDbLine
62
7
6
CONTINUOUS
10
273.2678854077
20
181.9965241041
11
273.2690367096
21
181.9969230105
0
LINE
5
276
100
AcDbEntity
8
0
100
AcDbLine
62
7
6
CONTINUOUS
10
321.6579356464
20
195.3570433986
11
321.6739524637
21
195.2046535618
0
LINE
5
277
100
AcDbEntity
8
0
100
AcDbLine
62
7
6
CONTINUOUS
10
300.1771299929
20
181.7046535618
11
298.1271299929
21
179.7046535618
0
LINE
5
278
100
AcDbEntity
8
0
100
AcDbLine
62
7
6
CONTINUOUS
10
321.6739524637
20
182.2046535618
11
321.6579358992
21
182.0522661297
0
LINE
5
279
100
AcDbEntity
8
0
100
AcDbLine
62
7
6
CONTINUOUS
10
328.0389883457
20
188.7046535618
11
327.9738280180
21
193.4137104883
0
LINE
5
27A
100
AcDbEntity
8
0
100
AcDbLine
62
7
6
CONTINUOUS
10
327.9738280180
20
183.9955966353
11
328.0389883457
21
188.7046535618
0
LINE
5
27B
100
AcDbEntity
8
0
100
AcDbLine
62
7
6
CONTINUOUS
10
335.3571299929
20
188.7046535618
11
334.8621881600
21
193.4137105436
0
LINE
5
27C
100
AcDbEntity
8
0
100
AcDbLine
62
7
6
CONTINUOUS
10
334.8621881600
20
183.9955965800
11
335.3571299929
21
188.7046535618
0
CIRCLE
5
27D
100
AcDbEntity
8
0
100
AcDbCircle
62
7
6
CONTINUOUS
10
89.4417015587
20
188.7046535618
40
4.5000000000
0
CIRCLE
5
27E
100
AcDbEntity
8
0
100
AcDbCircle
62
7
6
CONTINUOUS
10
75.4417015587
20
188.7046535618
40
4.5000000000
0
ARC
5
27F
100
AcDbEntity
8
0
100
AcDbCircle
62
7
6
CONTINUOUS
10
127.9820034858
20
194.0332026137
40
2.2500000000
100
AcDbArc
50
10.2783095002
51
73.7072510197
0
ARC
5
280
100
AcDbEntity
8
0
100
AcDbCircle
62
7
6
CONTINUOUS
10
127.9820034858
20
194.0332026137
40
2.2500000000
100
AcDbArc
50
253.7072510197
51
317.1361925391
0
ARC
5
281
100
AcDbEntity
8
0
100
AcDbCircle
62
7
6
CONTINUOUS
10
127.9820034858
20
194.0332026137
40
5.3500000000
100
AcDbArc
50
354.5051816641
51
73.7072510197
0
ARC
5
282
100
AcDbEntity
8
0
100
AcDbCircle
62
7
6
CONTINUOUS
10
127.9820034858
20
194.0332026137
40
5.3500000000
100
AcDbArc
50
253.7072510197
51
332.9093203753
0
ARC
5
283
100
AcDbEntity
8
0
100
AcDbCircle
62
7
6
CONTINUOUS
10
123.1827994667
20
195.4359288103
40
5.3500000000
100
AcDbArc
50
185.7309726678
51
253.7072510197
0
ARC
5
284
100
AcDbEntity
8
0
100
AcDbCircle
62
7
6
CONTINUOUS
10
123.1827994667
20
195.4359288103
40
5.3500000000
100
AcDbArc
50
73.7072510197
51
141.6835293716
0
ARC
5
285
100
AcDbEntity
8
0
100
AcDbCircle
62
7
6
CONTINUOUS
10
123.1827994667
20
195.4359288103
40
2.2500000000
100
AcDbArc
50
226.9474838879
51
253.7072510197
0
ARC
5
286
100
AcDbEntity
8
0
100
AcDbCircle
62
7
6
CONTINUOUS
10
123.1827994667
20
195.4359288103
40
2.2500000000
100
AcDbArc
50
73.7072510197
51
100.4670181514
0
ARC
5
287
100
AcDbEntity
8
0
100
AcDbCircle
62
7
6
CONTINUOUS
10
95.1554479948
20
203.6278497983
40
2.0000000000
100
AcDbArc
50
73.7072510197
51
253.7072510197
0
ARC
5
288
100
AcDbEntity
8
0
100
AcDbCircle
62
7
6
CONTINUOUS
10
122.9908313059
20
195.4920378582
40
2.0000000000
100
AcDbArc
50
253.7072510197
51
73.7072510197
0
ARC
5
289
100
AcDbEntity
8
0
100
AcDbCircle
62
7
6
CONTINUOUS
10
63.4256871765
20
184.2046535618
40
2.0000000000
100
AcDbArc
50
186.0000000000
51
270.0000000000
0
ARC
5
28A
100
AcDbEntity
8
0
100
AcDbCircle
62
7
6
CONTINUOUS
10
66.9577159409
20
184.2046535618
40
2.0000000000
100
AcDbArc
50
270.0000000000
51
354.0000000000
0
ARC
5
28B
100
AcDbEntity
8
0
100
AcDbCircle
62
7
6
CONTINUOUS
10
108.4577159409
20
184.2046535618
40
2.0000000000
100
AcDbArc
50
270.0000000000
51
353.9999999993
0
ARC
5
28C
100
AcDbEntity
8
0
100
AcDbCircle
62
7
6
CONTINUOUS
10
101.4577159409
20
184.2046535618
40
2.0000000000
100
AcDbArc
50
270.0000000000
51
354.0000000000
0
ARC
5
28D
100
AcDbEntity
8
0
100
AcDbCircle
62
7
6
CONTINUOUS
10
101.4577159409
20
193.2046535618
40
2.0000000000
100
AcDbArc
50
6.0000000000
51
90.0000000000
0
ARC
5
28E
100
AcDbEntity
8
0
100
AcDbCircle
62
7
6
CONTINUOUS
10
63.4256871765
20
193.2046535618
40
2.0000000000
100
AcDbArc
50
90.0000000000
51
174.0000000000
0
ARC
5
28F
100
AcDbEntity
8
0
100
AcDbCircle
62
7
6
CONTINUOUS
10
66.9577159409
20
193.2046535618
40
2.0000000000
100
AcDbArc
50
6.0000000000
51
90.0000000000
0
ARC
5
290
100
AcDbEntity
8
0
100
AcDbCircle
62
7
6
CONTINUOUS
10
56.4256871765
20
193.2046535618
40
2.0000000000
100
AcDbArc
50
90.0000000000
51
173.9999999998
0
ARC
5
291
100
AcDbEntity
8
0
100
AcDbCircle
62
7
6
CONTINUOUS
10
108.4577159409
20
193.2046535618
40
2.0000000000
100
AcDbArc
50
6.0000000000
51
90.0000000000
0
ARC
5
292
100
AcDbEntity
8
0
100
AcDbCircle
62
7
6
CONTINUOUS
10
97.9256871765
20
193.2046535618
40
2.0000000000
100
AcDbArc
50
90.0000000000
51
174.0000000000
0
ARC
5
293
100
AcDbEntity
8
0
100
AcDbCircle
62
7
6
CONTINUOUS
10
97.9256871765
20
184.2046535618
40
2.0000000000
100
AcDbArc
50
186.0000000000
51
270.0000000000
0
ARC
5
294
100
AcDbEntity
8
0
100
AcDbCircle
62
7
6
CONTINUOUS
10
56.4256871765
20
184.2046535618
40
2.0000000000
100
AcDbArc
50
186.0000000000
51
270.0000000000
0
ARC
5
295
100
AcDbEntity
8
0
100
AcDbCircle
62
7
6
CONTINUOUS
10
89.4417015587
20
188.7046535618
40
4.6000000000
100
AcDbArc
50
205.7886776721
51
154.2113244865
0
ARC
5
296
100
AcDbEntity
8
0
100
AcDbCircle
62
7
6
CONTINUOUS
10
75.4417015587
20
188.7046535618
40
4.6000000000
100
AcDbArc
50
25.7886776721
51
334.2113244865
0
ARC
5
297
100
AcDbEntity
8
0
100
AcDbCircle
62
7
6
CONTINUOUS
10
82.4164151227
20
206.2046535618
40
15.0000000000
100
AcDbArc
50
180.0000000000
51
202.8620374455
0
ARC
5
298
100
AcDbEntity
8
0
100
AcDbCircle
62
7
6
CONTINUOUS
10
82.4164151227
20
206.2046535618
40
24.6000000000
100
AcDbArc
50
180.0000000000
51
202.8620374455
0
ARC
5
299
100
AcDbEntity
8
0
100
AcDbCircle
62
7
6
CONTINUOUS
10
55.1417015587
20
194.7046535618
40
5.0000000000
100
AcDbArc
50
5.7393282780
51
22.8620374455
0
ARC
5
29A
100
AcDbEntity
8
0
100
AcDbCircle
62
7
6
CONTINUOUS
10
55.1417015587
20
194.7046535618
40
14.6000000000
100
AcDbArc
50
1.9636313173
51
22.8620374455
0
ARC
5
29B
100
AcDbEntity
8
0
100
AcDbCircle
62
7
6
CONTINUOUS
10
82.4417015587
20
231.7046535618
40
15.0252864360
100
AcDbArc
50
0.0000000000
51
180.0000000000
0
ARC
5
29C
100
AcDbEntity
8
0
100
AcDbCircle
62
7
6
CONTINUOUS
10
82.4417015587
20
231.7046535618
40
24.6252864360
100
AcDbArc
50
0.0000000000
51
180.0000000000
0
ARC
5
29D
100
AcDbEntity
8
0
100
AcDbCircle
62
7
6
CONTINUOUS
10
99.9417015587
20
182.7046535618
40
13.0000000000
100
AcDbArc
50
239.2622261621
51
300.7377738379
0
ARC
5
29E
100
AcDbEntity
8
0
100
AcDbCircle
62
7
6
CONTINUOUS
10
64.9417015587
20
182.7046535618
40
13.0000000000
100
AcDbArc
50
239.2622261621
51
300.7377738379
0
ARC
5
29F
100
AcDbEntity
8
0
100
AcDbCircle
62
7
6
CONTINUOUS
10
82.4669879947
20
206.2046535618
40
15.0000000000
100
AcDbArc
50
337.1379625545
51
340.2137915826
0
ARC
5
2A0
100
AcDbEntity
8
0
100
AcDbCircle
62
7
6
CONTINUOUS
10
82.4669879947
20
206.2046535618
40
15.0000000000
100
AcDbArc
50
355.5844128397
51
360.0000000000
0
ARC
5
2A1
100
AcDbEntity
8
0
100
AcDbCircle
62
7
6
CONTINUOUS
10
82.4669879947
20
206.2046535618
40
24.6000000000
100
AcDbArc
50
337.1379625545
51
341.5784282380
0
ARC
5
2A2
100
AcDbEntity
8
0
100
AcDbCircle
62
7
6
CONTINUOUS
10
82.4669879947
20
206.2046535618
40
24.6000000000
100
AcDbArc
50
350.9183231954
51
360.0000000000
0
ARC
5
2A3
100
AcDbEntity
8
0
100
AcDbCircle
62
7
6
CONTINUOUS
10
109.7417015587
20
194.7046535618
40
5.0000000000
100
AcDbArc
50
157.1379625545
51
174.2606717220
0
ARC
5
2A4
100
AcDbEntity
8
0
100
AcDbCircle
62
7
6
CONTINUOUS
10
109.7417015587
20
194.7046535618
40
14.6000000000
100
AcDbArc
50
157.1379625545
51
178.0363686827
0
ARC
5
2A5
100
AcDbEntity
8
DEFAULT_2
100
AcDbCircle
62
8
6
HIDDEN
10
295.3771299929
20
251.5299399978
40
4.8000000000
100
AcDbArc
50
180.0000000000
51
360.0000000000
0
ARC
5
2A6
100
AcDbEntity
8
0
100
AcDbCircle
62
7
6
CONTINUOUS
10
295.3771299929
20
251.5299399978
40
4.8000000000
100
AcDbArc
50
0.0000000000
51
180.0000000000
0
ARC
5
2A7
100
AcDbEntity
8
0
100
AcDbCircle
62
7
6
CONTINUOUS
10
270.0907869534
20
182.1573562132
40
1.0000000000
100
AcDbArc
50
186.0000000000
51
276.6020806033
0
ARC
5
2A8
100
AcDbEntity
8
0
100
AcDbCircle
62
7
6
CONTINUOUS
10
270.0907870431
20
195.2519517644
40
1.0000000000
100
AcDbArc
50
83.3979195698
51
174.0000000000
0
ARC
5
2A9
100
AcDbEntity
8
0
100
AcDbCircle
62
7
6
CONTINUOUS
10
320.6634730325
20
182.1573562132
40
1.0000000000
100
AcDbArc
50
263.3979193967
51
354.0000000000
0
ARC
5
2AA
100
AcDbEntity
8
0
100
AcDbCircle
62
7
6
CONTINUOUS
10
320.6634729427
20
195.2519517644
40
1.0000000000
100
AcDbArc
50
6.0000000000
51
96.6020804302
0
ARC
5
2AB
100
AcDbEntity
8
0
100
AcDbCircle
62
7
6
CONTINUOUS
10
332.8731443751
20
184.2046535618
40
2.0000000000
100
AcDbArc
50
270.0000000000
51
353.9999984079
0
ARC
5
2AC
100
AcDbEntity
8
0
100
AcDbCircle
62
7
6
CONTINUOUS
10
257.8811156107
20
184.2046535618
40
2.0000000000
100
AcDbArc
50
186.0000080159
51
270.0000000000
0
ARC
5
2AD
100
AcDbEntity
8
0
100
AcDbCircle
62
7
6
CONTINUOUS
10
257.8811156107
20
193.2046535618
40
2.0000000000
100
AcDbArc
50
90.0000000000
51
173.9999919841
0
ARC
5
2AE
100
AcDbEntity
8
0
100
AcDbCircle
62
7
6
CONTINUOUS
10
332.8731443751
20
193.2046535618
40
2.0000000000
100
AcDbArc
50
6.0000015921
51
90.0000000000
0
SPLINE
5
2AF
100
AcDbEntity
8
0
100
AcDbSpline
62
7
6
CONTINUOUS
70
0
71
3
72
9
73
5
74
3
42
0.0000001000
43
0.0000001000
44
0.0000000001
40
0.0000000000
40
0.0000000000
40
0.0000000000
40
0.0000000000
40
0.0540994919
40
1.0000000000
40
1.0000000000
40
1.0000000000
40
1.0000000000
10
93.5642272228
20
182.1845883765
30
0.0000000000
10
93.5661594533
20
182.1848501274
30
0.0000000000
10
93.6018825651
20
182.1896413445
30
0.0000000000
10
93.6377306796
20
182.1935611991
30
0.0000000000
10
93.6717073252
20
182.1964845503
30
0.0000000000
11
93.5642272228
21
182.1845883765
31
0.0000000000
11
93.5700250236
21
182.1853659820
31
0.0000000000
11
93.6717073252
21
182.1964845503
31
0.0000000000
0
SPLINE
5
2B0
100
AcDbEntity
8
0
100
AcDbSpline
62
7
6
CONTINUOUS
70
0
71
3
72
8
73
4
74
2
42
0.0000001000
43
0.0000001000
44
0.0000000001
40
0.0000000000
40
0.0000000000
40
0.0000000000
40
0.0000000000
40
1.0000000000
40
1.0000000000
40
1.0000000000
40
1.0000000000
10
93.6717073252
20
182.1964845503
30
0.0000000000
10
93.7084360809
20
182.1996446930
30
0.0000000000
10
93.7452441772
20
182.2018881683
30
0.0000000000
10
93.7820760989
20
182.2032089013
30
0.0000000000
11
93.6717073252
21
182.1964845503
31
0.0000000000
11
93.7820760989
21
182.2032089013
31
0.0000000000
0
SPLINE
5
2B1
100
AcDbEntity
8
0
100
AcDbSpline
62
7
6
CONTINUOUS
70
0
71
3
72
8
73
4
74
2
42
0.0000001000
43
0.0000001000
44
0.0000000001
40
0.0000000000
40
0.0000000000
40
0.0000000000
40
0.0000000000
40
1.0000000000
40
1.0000000000
40
1.0000000000
40
1.0000000000
10
93.7820760989
20
182.2032089013
30
0.0000000000
10
93.8064722862
20
182.2040837090
30
0.0000000000
10
93.8308789264
20
182.2045536840
30
0.0000000000
10
93.8552798869
20
182.2046170610
30
0.0000000000
11
93.7820760989
21
182.2032089013
31
0.0000000000
11
93.8552798869
21
182.2046170610
31
0.0000000000
0
SPLINE
5
2B2
100
AcDbEntity
8
0
100
AcDbSpline
62
7
6
CONTINUOUS
70
0
71
3
72
8
73
4
74
2
42
0.0000001000
43
0.0000001000
44
0.0000000001
40
0.0000000000
40
0.0000000000
40
0.0000000000
40
0.0000000000
40
1.0000000000
40
1.0000000000
40
1.0000000000
40
1.0000000000
10
92.3334393598
20
181.7268816906
30
0.0000000000
10
92.5126294485
20
181.8002992791
30
0.0000000000
10
92.6889646892
20
181.8804913696
30
0.0000000000
10
92.8618343413
20
181.9671965204
30
0.0000000000
11
92.3334393598
21
181.7268816906
31
0.0000000000
11
92.8618343413
21
181.9671965204
31
0.0000000000
0
SPLINE
5
2B3
100
AcDbEntity
8
0
100
AcDbSpline
62
7
6
CONTINUOUS
70
0
71
3
72
8
73
4
74
2
42
0.0000001000
43
0.0000001000
44
0.0000000001
40
0.0000000000
40
0.0000000000
40
0.0000000000
40
0.0000000000
40
1.0000000000
40
1.0000000000
40
1.0000000000
40
1.0000000000
10
85.2113529388
20
182.1965123115
30
0.0000000000
10
85.2473847500
20
182.1934177050
30
0.0000000000
10
85.2833413617
20
182.1894410564
30
0.0000000000
10
85.3191704411
20
182.1845881603
30
0.0000000000
11
85.2113529388
21
182.1965123115
31
0.0000000000
11
85.3191704411
21
182.1845881603
31
0.0000000000
0
SPLINE
5
2B4
100
AcDbEntity
8
0
100
AcDbSpline
62
7
6
CONTINUOUS
70
0
71
3
72
8
73
4
74
2
42
0.0000001000
43
0.0000001000
44
0.0000000001
40
0.0000000000
40
0.0000000000
40
0.0000000000
40
0.0000000000
40
1.0000000000
40
1.0000000000
40
1.0000000000
40
1.0000000000
10
78.8618743454
20
181.9671604543
30
0.0000000000
10
78.8866261245
20
181.9795747422
30
0.0000000000
10
78.9116156737
20
181.9915354669
30
0.0000000000
10
78.9368223511
20
182.0030330291
30
0.0000000000
11
78.8618743454
21
181.9671604543
31
0.0000000000
11
78.9368223511
21
182.0030330291
31
0.0000000000
0
SPLINE
5
2B5
100
AcDbEntity
8
0
100
AcDbSpline
62
7
6
CONTINUOUS
70
0
71
3
72
8
73
4
74
2
42
0.0000001000
43
0.0000001000
44
0.0000000001
40
0.0000000000
40
0.0000000000
40
0.0000000000
40
0.0000000000
40
1.0000000000
40
1.0000000000
40
1.0000000000
40
1.0000000000
10
78.9368223511
20
182.0030330291
30
0.0000000000
10
78.9702689728
20
182.0182890905
30
0.0000000000
10
79.0040978814
20
182.0327296845
30
0.0000000000
10
79.0382608528
20
182.0463323860
30
0.0000000000
11
78.9368223511
21
182.0030330291
31
0.0000000000
11
79.0382608528
21
182.0463323860
31
0.0000000000
0
SPLINE
5
2B6
100
AcDbEntity
8
0
100
AcDbSpline
62
7
6
CONTINUOUS
70
0
71
3
72
8
73
4
74
2
42
0.0000001000
43
0.0000001000
44
0.0000000001
40
0.0000000000
40
0.0000000000
40
0.0000000000
40
0.0000000000
40
1.0000000000
40
1.0000000000
40
1.0000000000
40
1.0000000000
10
79.0382608528
20
182.0463323860
30
0.0000000000
10
79.0726304470
20
182.0600173585
30
0.0000000000
10
79.1073381572
20
182.0728542724
30
0.0000000000
10
79.1423348791
20
182.0848202929
30
0.0000000000
11
79.0382608528
21
182.0463323860
31
0.0000000000
11
79.1423348791
21
182.0848202929
31
0.0000000000
0
SPLINE
5
2B7
100
AcDbEntity
8
0
100
AcDbSpline
62
7
6
CONTINUOUS
70
0
71
3
72
9
73
5
74
3
42
0.0000001000
43
0.0000001000
44
0.0000000001
40
0.0000000000
40
0.0000000000
40
0.0000000000
40
0.0000000000
40
0.0538602654
40
1.0000000000
40
1.0000000000
40
1.0000000000
40
1.0000000000
10
79.1423348791
20
182.0848202929
30
0.0000000000
10
79.1441691476
20
182.0854474629
30
0.0000000000
10
79.1782399507
20
182.0970474358
30
0.0000000000
10
79.2125820006
20
182.1078215694
30
0.0000000000
10
79.2452863315
20
182.1172670764
30
0.0000000000
11
79.1423348791
21
182.0848202929
31
0.0000000000
11
79.1478400595
21
182.0866946225
31
0.0000000000
11
79.2452863315
21
182.1172670764
31
0.0000000000
0
SPLINE
5
2B8
100
AcDbEntity
8
0
100
AcDbSpline
62
7
6
CONTINUOUS
70
0
71
3
72
8
73
4
74
2
42
0.0000001000
43
0.0000001000
44
0.0000000001
40
0.0000000000
40
0.0000000000
40
0.0000000000
40
0.0000000000
40
1.0000000000
40
1.0000000000
40
1.0000000000
40
1.0000000000
10
79.2452863315
20
182.1172670764
30
0.0000000000
10
79.2803975259
20
182.1274077220
30
0.0000000000
10
79.3157530183
20
182.1366858396
30
0.0000000000
10
79.3513146189
20
182.1450902257
30
0.0000000000
11
79.2452863315
21
182.1172670764
31
0.0000000000
11
79.3513146189
21
182.1450902257
31
0.0000000000
0
SPLINE
5
2B9
100
AcDbEntity
8
0
100
AcDbSpline
62
7
6
CONTINUOUS
70
0
71
3
72
8
73
4
74
2
42
0.0000001000
43
0.0000001000
44
0.0000000001
40
0.0000000000
40
0.0000000000
40
0.0000000000
40
0.0000000000
40
1.0000000000
40
1.0000000000
40
1.0000000000
40
1.0000000000
10
79.3513146189
20
182.1450902257
30
0.0000000000
10
79.3863601958
20
182.1533726582
30
0.0000000000
10
79.4216059427
20
182.1608065320
30
0.0000000000
10
79.4570153082
20
182.1673811244
30
0.0000000000
11
79.3513146189
21
182.1450902257
31
0.0000000000
11
79.4570153082
21
182.1673811244
31
0.0000000000
0
SPLINE
5
2BA
100
AcDbEntity
8
0
100
AcDbSpline
62
7
6
CONTINUOUS
70
0
71
3
72
8
73
4
74
2
42
0.0000001000
43
0.0000001000
44
0.0000000001
40
0.0000000000
40
0.0000000000
40
0.0000000000
40
0.0000000000
40
1.0000000000
40
1.0000000000
40
1.0000000000
40
1.0000000000
10
79.4570153082
20
182.1673811244
30
0.0000000000
10
79.4926015076
20
182.1739885502
30
0.0000000000
10
79.5283529639
20
182.1797280906
30
0.0000000000
10
79.5642325755
20
182.1845888614
30
0.0000000000
11
79.4570153082
21
182.1673811244
31
0.0000000000
11
79.5642325755
21
182.1845888614
31
0.0000000000
0
SPLINE
5
2BB
100
AcDbEntity
8
0
100
AcDbSpline
62
7
6
CONTINUOUS
70
0
71
3
72
9
73
5
74
3
42
0.0000001000
43
0.0000001000
44
0.0000000001
40
0.0000000000
40
0.0000000000
40
0.0000000000
40
0.0000000000
40
0.0540548837
40
1.0000000000
40
1.0000000000
40
1.0000000000
40
1.0000000000
10
71.3191757449
20
182.1845872717
30
0.0000000000
10
71.3211059390
20
182.1843258108
30
0.0000000000
10
71.3568071340
20
182.1794418123
30
0.0000000000
10
71.3923788416
20
182.1736877812
30
0.0000000000
10
71.4258809744
20
182.1674755258
30
0.0000000000
11
71.3191757449
21
182.1845872717
31
0.0000000000
11
71.3249652085
21
182.1837952607
31
0.0000000000
11
71.4258809744
21
182.1674755258
31
0.0000000000
0
SPLINE
5
2BC
100
AcDbEntity
8
0
100
AcDbSpline
62
7
6
CONTINUOUS
70
0
71
3
72
8
73
4
74
2
42
0.0000001000
43
0.0000001000
44
0.0000000001
40
0.0000000000
40
0.0000000000
40
0.0000000000
40
0.0000000000
40
1.0000000000
40
1.0000000000
40
1.0000000000
40
1.0000000000
10
71.4258809744
20
182.1674755258
30
0.0000000000
10
71.4614792718
20
182.1608745815
30
0.0000000000
10
71.4969118807
20
182.1534051061
30
0.0000000000
10
71.5321417505
20
182.1450782065
30
0.0000000000
11
71.4258809744
21
182.1674755258
31
0.0000000000
11
71.5321417505
21
182.1450782065
31
0.0000000000
0
SPLINE
5
2BD
100
AcDbEntity
8
0
100
AcDbSpline
62
7
6
CONTINUOUS
70
0
71
3
72
8
73
4
74
2
42
0.0000001000
43
0.0000001000
44
0.0000000001
40
0.0000000000
40
0.0000000000
40
0.0000000000
40
0.0000000000
40
1.0000000000
40
1.0000000000
40
1.0000000000
40
1.0000000000
10
71.5321417505
20
182.1450782065
30
0.0000000000
10
71.5672423364
20
182.1367818643
30
0.0000000000
10
71.6021416685
20
182.1276343793
30
0.0000000000
10
71.6368031025
20
182.1176467366
30
0.0000000000
11
71.5321417505
21
182.1450782065
31
0.0000000000
11
71.6368031025
21
182.1176467366
31
0.0000000000
0
SPLINE
5
2BE
100
AcDbEntity
8
0
100
AcDbSpline
62
7
6
CONTINUOUS
70
0
71
3
72
8
73
4
74
2
42
0.0000001000
43
0.0000001000
44
0.0000000001
40
0.0000000000
40
0.0000000000
40
0.0000000000
40
0.0000000000
40
1.0000000000
40
1.0000000000
40
1.0000000000
40
1.0000000000
10
71.6368031025
20
182.1176467366
30
0.0000000000
10
71.6718457521
20
182.1075492472
30
0.0000000000
10
71.7066452421
20
182.0965930179
30
0.0000000000
10
71.7411637057
20
182.0847894001
30
0.0000000000
11
71.6368031025
21
182.1176467366
31
0.0000000000
11
71.7411637057
21
182.0847894001
31
0.0000000000
0
SPLINE
5
2BF
100
AcDbEntity
8
0
100
AcDbSpline
62
7
6
CONTINUOUS
70
0
71
3
72
9
73
5
74
3
42
0.0000001000
43
0.0000001000
44
0.0000000001
40
0.0000000000
40
0.0000000000
40
0.0000000000
40
0.0000000000
40
0.0535607753
40
1.0000000000
40
1.0000000000
40
1.0000000000
40
1.0000000000
10
71.7411637057
20
182.0847894001
30
0.0000000000
10
71.7430003563
20
182.0841613559
30
0.0000000000
10
71.7772764657
20
182.0723907415
30
0.0000000000
10
71.8112732525
20
182.0597844676
30
0.0000000000
10
71.8431598047
20
182.0471231302
30
0.0000000000
11
71.7411637057
21
182.0847894001
31
0.0000000000
11
71.7466712650
21
182.0828980721
31
0.0000000000
11
71.8431598047
21
182.0471231302
31
0.0000000000
0
SPLINE
5
2C0
100
AcDbEntity
8
0
100
AcDbSpline
62
7
6
CONTINUOUS
70
0
71
3
72
8
73
4
74
2
42
0.0000001000
43
0.0000001000
44
0.0000000001
40
0.0000000000
40
0.0000000000
40
0.0000000000
40
0.0000000000
40
1.0000000000
40
1.0000000000
40
1.0000000000
40
1.0000000000
10
71.8431598047
20
182.0471231302
30
0.0000000000
10
71.8780555153
20
182.0332669326
30
0.0000000000
10
71.9126046982
20
182.0185361346
30
0.0000000000
10
71.9467560561
20
182.0029546877
30
0.0000000000
11
71.8431598047
21
182.0471231302
31
0.0000000000
11
71.9467560561
21
182.0029546877
31
0.0000000000
0
SPLINE
5
2C1
100
AcDbEntity
8
0
100
AcDbSpline
62
7
6
CONTINUOUS
70
0
71
3
72
8
73
4
74
2
42
0.0000001000
43
0.0000001000
44
0.0000000001
40
0.0000000000
40
0.0000000000
40
0.0000000000
40
0.0000000000
40
1.0000000000
40
1.0000000000
40
1.0000000000
40
1.0000000000
10
71.9467560561
20
182.0029546877
30
0.0000000000
10
71.9719033845
20
181.9914813002
30
0.0000000000
10
71.9968350082
20
181.9795466822
30
0.0000000000
10
72.0215304465
20
181.9671603964
30
0.0000000000
11
71.9467560561
21
182.0029546877
31
0.0000000000
11
72.0215304465
21
181.9671603964
31
0.0000000000
0
SPLINE
5
2C2
100
AcDbEntity
8
0
100
AcDbSpline
62
7
6
CONTINUOUS
70
0
71
3
72
8
73
4
74
2
42
0.0000001000
43
0.0000001000
44
0.0000000001
40
0.0000000000
40
0.0000000000
40
0.0000000000
40
0.0000000000
40
1.0000000000
40
1.0000000000
40
1.0000000000
40
1.0000000000
10
72.0215083667
20
195.4421465983
30
0.0000000000
10
71.9967216942
20
195.4297147904
30
0.0000000000
10
71.9716965823
20
195.4177378211
30
0.0000000000
10
71.9464537611
20
195.4062253278
30
0.0000000000
11
72.0215083667
21
195.4421465983
31
0.0000000000
11
71.9464537611
21
195.4062253278
31
0.0000000000
0
SPLINE
5
2C3
100
AcDbEntity
8
0
100
AcDbSpline
62
7
6
CONTINUOUS
70
0
71
3
72
8
73
4
74
2
42
0.0000001000
43
0.0000001000
44
0.0000000001
40
0.0000000000
40
0.0000000000
40
0.0000000000
40
0.0000000000
40
1.0000000000
40
1.0000000000
40
1.0000000000
40
1.0000000000
10
71.9464537611
20
195.4062253278
30
0.0000000000
10
71.9134657427
20
195.3911804823
30
0.0000000000
10
71.8801059206
20
195.3769288681
30
0.0000000000
10
71.8464205597
20
195.3634919933
30
0.0000000000
11
71.9464537611
21
195.4062253278
31
0.0000000000
11
71.8464205597
21
195.3634919933
31
0.0000000000
0
SPLINE
5
2C4
100
AcDbEntity
8
0
100
AcDbSpline
62
7
6
CONTINUOUS
70
0
71
3
72
8
73
4
74
2
42
0.0000001000
43
0.0000001000
44
0.0000000001
40
0.0000000000
40
0.0000000000
40
0.0000000000
40
0.0000000000
40
1.0000000000
40
1.0000000000
40
1.0000000000
40
1.0000000000
10
71.8464205597
20
195.3634919933
30
0.0000000000
10
71.8116085891
20
195.3496057212
30
0.0000000000
10
71.7764489403
20
195.3365895979
30
0.0000000000
10
71.7409926773
20
195.3244673628
30
0.0000000000
11
71.8464205597
21
195.3634919933
31
0.0000000000
11
71.7409926773
21
195.3244673628
31
0.0000000000
0
SPLINE
5
2C5
100
AcDbEntity
8
0
100
AcDbSpline
62
7
6
CONTINUOUS
70
0
71
3
72
9
73
5
74
3
42
0.0000001000
43
0.0000001000
44
0.0000000001
40
0.0000000000
40
0.0000000000
40
0.0000000000
40
0.0000000000
40
0.0538487837
40
1.0000000000
40
1.0000000000
40
1.0000000000
40
1.0000000000
10
71.7409926773
20
195.3244673628
30
0.0000000000
10
71.7391750171
20
195.3238459182
30
0.0000000000
10
71.7054056429
20
195.3123489934
30
0.0000000000
10
71.6713698102
20
195.3016633318
30
0.0000000000
10
71.6389582805
20
195.2922881374
30
0.0000000000
11
71.7409926773
21
195.3244673628
31
0.0000000000
11
71.7355373650
21
195.3226100798
31
0.0000000000
11
71.6389582805
21
195.2922881374
31
0.0000000000
0
SPLINE
5
2C6
100
AcDbEntity
8
0
100
AcDbSpline
62
7
6
CONTINUOUS
70
0
71
3
72
8
73
4
74
2
42
0.0000001000
43
0.0000001000
44
0.0000000001
40
0.0000000000
40
0.0000000000
40
0.0000000000
40
0.0000000000
40
1.0000000000
40
1.0000000000
40
1.0000000000
40
1.0000000000
10
71.6389582805
20
195.2922881374
30
0.0000000000
10
71.6035547115
20
195.2820474810
30
0.0000000000
10
71.5679023884
20
195.2726838582
30
0.0000000000
10
71.5320404741
20
195.2642087549
30
0.0000000000
11
71.6389582805
21
195.2922881374
31
0.0000000000
11
71.5320404741
21
195.2642087549
31
0.0000000000
0
SPLINE
5
2C7
100
AcDbEntity
8
0
100
AcDbSpline
62
7
6
CONTINUOUS
70
0
71
3
72
8
73
4
74
2
42
0.0000001000
43
0.0000001000
44
0.0000000001
40
0.0000000000
40
0.0000000000
40
0.0000000000
40
0.0000000000
40
1.0000000000
40
1.0000000000
40
1.0000000000
40
1.0000000000
10
71.5320404741
20
195.2642087549
30
0.0000000000
10
71.4970924687
20
195.2559496320
30
0.0000000000
10
71.4619454185
20
195.2485343194
30
0.0000000000
10
71.4266355677
20
195.2419734468
30
0.0000000000
11
71.5320404741
21
195.2642087549
31
0.0000000000
11
71.4266355677
21
195.2419734468
31
0.0000000000
0
SPLINE
5
2C8
100
AcDbEntity
8
0
100
AcDbSpline
62
7
6
CONTINUOUS
70
0
71
3
72
8
73
4
74
2
42
0.0000001000
43
0.0000001000
44
0.0000000001
40
0.0000000000
40
0.0000000000
40
0.0000000000
40
0.0000000000
40
1.0000000000
40
1.0000000000
40
1.0000000000
40
1.0000000000
10
71.4266355677
20
195.2419734468
30
0.0000000000
10
71.3909638794
20
195.2353453417
30
0.0000000000
10
71.3551260370
20
195.2295892782
30
0.0000000000
10
71.3191594104
20
195.2247162162
30
0.0000000000
11
71.4266355677
21
195.2419734468
31
0.0000000000
11
71.3191594104
21
195.2247162162
31
0.0000000000
0
SPLINE
5
2C9
100
AcDbEntity
8
0
100
AcDbSpline
62
7
6
CONTINUOUS
70
0
71
3
72
8
73
4
74
2
42
0.0000001000
43
0.0000001000
44
0.0000000001
40
0.0000000000
40
0.0000000000
40
0.0000000000
40
0.0000000000
40
1.0000000000
40
1.0000000000
40
1.0000000000
40
1.0000000000
10
77.9812442031
20
195.8166938786
30
0.0000000000
10
77.9149681882
20
195.8401051153
30
0.0000000000
10
77.8483681244
20
195.8626021098
30
0.0000000000
10
77.7814732865
20
195.8841725497
30
0.0000000000
11
77.9812442031
21
195.8166938786
31
0.0000000000
11
77.7814732865
21
195.8841725497
31
0.0000000000
0
SPLINE
5
2CA
100
AcDbEntity
8
0
100
AcDbSpline
62
7
6
CONTINUOUS
70
0
71
3
72
8
73
4
74
2
42
0.0000001000
43
0.0000001000
44
0.0000000001
40
0.0000000000
40
0.0000000000
40
0.0000000000
40
0.0000000000
40
1.0000000000
40
1.0000000000
40
1.0000000000
40
1.0000000000
10
77.7814732865
20
195.8841725497
30
0.0000000000
10
77.7369230585
20
195.8985379035
30
0.0000000000
10
77.6922420919
20
195.9124923105
30
0.0000000000
10
77.6474390337
20
195.9260321339
30
0.0000000000
11
77.7814732865
21
195.8841725497
31
0.0000000000
11
77.6474390337
21
195.9260321339
31
0.0000000000
0
SPLINE
5
2CB
100
AcDbEntity
8
0
100
AcDbSpline
62
7
6
CONTINUOUS
70
0
71
3
72
9
73
5
74
3
42
0.0000001000
43
0.0000001000
44
0.0000000001
40
0.0000000000
40
0.0000000000
40
0.0000000000
40
0.0000000000
40
0.0540541837
40
1.0000000000
40
1.0000000000
40
1.0000000000
40
1.0000000000
10
79.5642271216
20
195.2247198857
30
0.0000000000
10
79.5622968387
20
195.2249813584
30
0.0000000000
10
79.5265935390
20
195.2298656424
30
0.0000000000
10
79.4910197420
20
195.2356200614
30
0.0000000000
10
79.4575156272
20
195.2418327787
30
0.0000000000
11
79.5642271216
21
195.2247198857
31
0.0000000000
11
79.5584373916
21
195.2255119328
31
0.0000000000
11
79.4575156272
21
195.2418327787
31
0.0000000000
0
SPLINE
5
2CC
100
AcDbEntity
8
0
100
AcDbSpline
62
7
6
CONTINUOUS
70
0
71
3
72
8
73
4
74
2
42
0.0000001000
43
0.0000001000
44
0.0000000001
40
0.0000000000
40
0.0000000000
40
0.0000000000
40
0.0000000000
40
1.0000000000
40
1.0000000000
40
1.0000000000
40
1.0000000000
10
79.4575156272
20
195.2418327787
30
0.0000000000
10
79.4219196752
20
195.2484333885
30
0.0000000000
10
79.3864893921
20
195.2559024150
30
0.0000000000
10
79.3512618212
20
195.2642287536
30
0.0000000000
11
79.4575156272
21
195.2418327787
31
0.0000000000
11
79.3512618212
21
195.2642287536
31
0.0000000000
0
SPLINE
5
2CD
100
AcDbEntity
8
0
100
AcDbSpline
62
7
6
CONTINUOUS
70
0
71
3
72
8
73
4
74
2
42
0.0000001000
43
0.0000001000
44
0.0000000001
40
0.0000000000
40
0.0000000000
40
0.0000000000
40
0.0000000000
40
1.0000000000
40
1.0000000000
40
1.0000000000
40
1.0000000000
10
79.3512618212
20
195.2642287536
30
0.0000000000
10
79.3161546853
20
195.2725266264
30
0.0000000000
10
79.2812488780
20
195.2816759594
30
0.0000000000
10
79.2465810638
20
195.2916657616
30
0.0000000000
11
79.3512618212
21
195.2642287536
31
0.0000000000
11
79.2465810638
21
195.2916657616
31
0.0000000000
0
SPLINE
5
2CE
100
AcDbEntity
8
0
100
AcDbSpline
62
7
6
CONTINUOUS
70
0
71
3
72
8
73
4
74
2
42
0.0000001000
43
0.0000001000
44
0.0000000001
40
0.0000000000
40
0.0000000000
40
0.0000000000
40
0.0000000000
40
1.0000000000
40
1.0000000000
40
1.0000000000
40
1.0000000000
10
79.2465810638
20
195.2916657616
30
0.0000000000
10
79.2115452006
20
195.3017616199
30
0.0000000000
10
79.1767524108
20
195.3127158877
30
0.0000000000
10
79.1422405391
20
195.3245172200
30
0.0000000000
11
79.2465810638
21
195.2916657616
31
0.0000000000
11
79.1422405391
21
195.3245172200
31
0.0000000000
0
SPLINE
5
2CF
100
AcDbEntity
8
0
100
AcDbSpline
62
7
6
CONTINUOUS
70
0
71
3
72
9
73
5
74
3
42
0.0000001000
43
0.0000001000
44
0.0000000001
40
0.0000000000
40
0.0000000000
40
0.0000000000
40
0.0000000000
40
0.0535602089
40
1.0000000000
40
1.0000000000
40
1.0000000000
40
1.0000000000
10
79.1422405391
20
195.3245172200
30
0.0000000000
10
79.1404033454
20
195.3251454483
30
0.0000000000
10
79.1061167418
20
195.3369196500
30
0.0000000000
10
79.0721096317
20
195.3495300228
30
0.0000000000
10
79.0402134794
20
195.3621956890
30
0.0000000000
11
79.1422405391
21
195.3245172200
31
0.0000000000
11
79.1367313519
21
195.3264091044
31
0.0000000000
11
79.0402134794
21
195.3621956890
31
0.0000000000
0
SPLINE
5
2D0
100
AcDbEntity
8
0
100
AcDbSpline
62
7
6
CONTINUOUS
70
0
71
3
72
8
73
4
74
2
42
0.0000001000
43
0.0000001000
44
0.0000000001
40
0.0000000000
40
0.0000000000
40
0.0000000000
40
0.0000000000
40
1.0000000000
40
1.0000000000
40
1.0000000000
40
1.0000000000
10
79.0402134794
20
195.3621956890
30
0.0000000000
10
79.0053287248
20
195.3760481016
30
0.0000000000
10
78.9707902985
20
195.3907745684
30
0.0000000000
10
78.9366494504
20
195.4063511604
30
0.0000000000
11
79.0402134794
21
195.3621956890
31
0.0000000000
11
78.9366494504
21
195.4063511604
31
0.0000000000
0
SPLINE
5
2D1
100
AcDbEntity
8
0
100
AcDbSpline
62
7
6
CONTINUOUS
70
0
71
3
72
8
73
4
74
2
42
0.0000001000
43
0.0000001000
44
0.0000000001
40
0.0000000000
40
0.0000000000
40
0.0000000000
40
0.0000000000
40
1.0000000000
40
1.0000000000
40
1.0000000000
40
1.0000000000
10
78.9366494504
20
195.4063511604
30
0.0000000000
10
78.9115011611
20
195.4178249422
30
0.0000000000
10
78.8865685920
20
195.4297599896
30
0.0000000000
10
78.8618722260
20
195.4421467388
30
0.0000000000
11
78.9366494504
21
195.4063511604
31
0.0000000000
11
78.8618722260
21
195.4421467388
31
0.0000000000
0
SPLINE
5
2D2
100
AcDbEntity
8
0
100
AcDbSpline
62
7
6
CONTINUOUS
70
0
71
3
72
9
73
5
74
3
42
0.0000001000
43
0.0000001000
44
0.0000000001
40
0.0000000000
40
0.0000000000
40
0.0000000000
40
0.0000000000
40
0.0540993503
40
1.0000000000
40
1.0000000000
40
1.0000000000
40
1.0000000000
10
85.3191761447
20
195.2247187812
30
0.0000000000
10
85.3172438287
20
195.2244570183
30
0.0000000000
10
85.2815190435
20
195.2196655734
30
0.0000000000
10
85.2456692438
20
195.2157455731
30
0.0000000000
10
85.2116909947
20
195.2128221579
30
0.0000000000
11
85.3191761447
21
195.2247187812
31
0.0000000000
11
85.3133780875
21
195.2239411407
31
0.0000000000
11
85.2116909947
21
195.2128221579
31
0.0000000000
0
SPLINE
5
2D3
100
AcDbEntity
8
0
100
AcDbSpline
62
7
6
CONTINUOUS
70
0
71
3
72
8
73
4
74
2
42
0.0000001000
43
0.0000001000
44
0.0000000001
40
0.0000000000
40
0.0000000000
40
0.0000000000
40
0.0000000000
40
1.0000000000
40
1.0000000000
40
1.0000000000
40
1.0000000000
10
85.2116909947
20
195.2128221579
30
0.0000000000
10
85.1749641511
20
195.2096622595
30
0.0000000000
10
85.1381579776
20
195.2074189337
30
0.0000000000
10
85.1013279806
20
195.2060982543
30
0.0000000000
11
85.2116909947
21
195.2128221579
31
0.0000000000
11
85.1013279806
21
195.2060982543
31
0.0000000000
0
SPLINE
5
2D4
100
AcDbEntity
8
0
100
AcDbSpline
62
7
6
CONTINUOUS
70
0
71
3
72
8
73
4
74
2
42
0.0000001000
43
0.0000001000
44
0.0000000001
40
0.0000000000
40
0.0000000000
40
0.0000000000
40
0.0000000000
40
1.0000000000
40
1.0000000000
40
1.0000000000
40
1.0000000000
10
85.1013279806
20
195.2060982543
30
0.0000000000
10
85.0769314246
20
195.2052234231
30
0.0000000000
10
85.0525244152
20
195.2047534371
30
0.0000000000
10
85.0281230858
20
195.2046900616
30
0.0000000000
11
85.1013279806
21
195.2060982543
31
0.0000000000
11
85.0281230858
21
195.2046900616
31
0.0000000000
0
SPLINE
5
2D5
100
AcDbEntity
8
0
100
AcDbSpline
62
7
6
CONTINUOUS
70
0
71
3
72
12
73
8
74
6
42
0.0000001000
43
0.0000001000
44
0.0000000001
40
0.0000000000
40
0.0000000000
40
0.0000000000
40
0.0000000000
40
0.2167208137
40
0.4583310107
40
0.6999113344
40
0.9415489634
40
1.0000000000
40
1.0000000000
40
1.0000000000
40
1.0000000000
10
92.8618343567
20
195.4421121354
30
0.0000000000
10
92.4660684000
20
195.6406156526
30
0.0000000000
10
91.5906372136
20
195.9882201651
30
0.0000000000
10
90.1797044045
20
196.2645250771
30
0.0000000000
10
88.6901108905
20
196.2632122256
30
0.0000000000
10
87.5985604294
20
196.0474189283
30
0.0000000000
10
87.0147484679
20
195.8564694331
30
0.0000000000
10
86.9019716582
20
195.8166285898
30
0.0000000000
11
92.8618343567
21
195.4421121354
31
0.0000000000
11
91.6273317004
21
195.9320791133
31
0.0000000000
11
90.1749052823
21
196.2166247124
31
0.0000000000
11
88.6950521355
21
196.2153156930
31
0.0000000000
11
87.2429708450
21
195.9281466412
31
0.0000000000
11
86.9019716582
21
195.8166285898
31
0.0000000000
0
SPLINE
5
2D6
100
AcDbEntity
8
0
100
AcDbSpline
62
7
6
CONTINUOUS
70
0
71
3
72
8
73
4
74
2
42
0.0000001000
43
0.0000001000
44
0.0000000001
40
0.0000000000
40
0.0000000000
40
0.0000000000
40
0.0000000000
40
1.0000000000
40
1.0000000000
40
1.0000000000
40
1.0000000000
10
86.9019716582
20
195.8166285898
30
0.0000000000
10
86.7835435606
20
195.7747913070
30
0.0000000000
10
86.6661494171
20
195.7300341565
30
0.0000000000
10
86.5499561299
20
195.6824276954
30
0.0000000000
11
86.9019716582
21
195.8166285898
31
0.0000000000
11
86.5499561299
21
195.6824276954
31
0.0000000000
0
SPLINE
5
2D7
100
AcDbEntity
8
0
100
AcDbSpline
62
7
6
CONTINUOUS
70
0
71
3
72
8
73
4
74
2
42
0.0000001000
43
0.0000001000
44
0.0000000001
40
0.0000000000
40
0.0000000000
40
0.0000000000
40
0.0000000000
40
1.0000000000
40
1.0000000000
40
1.0000000000
40
1.0000000000
10
86.5499561299
20
195.6824276954
30
0.0000000000
10
86.3707675747
20
195.6090109500
30
0.0000000000
10
86.1944349624
20
195.5288178165
30
0.0000000000
10
86.0215704324
20
195.4421070732
30
0.0000000000
11
86.5499561299
21
195.6824276954
31
0.0000000000
11
86.0215704324
21
195.4421070732
31
0.0000000000
0
SPLINE
5
2D8
100
AcDbEntity
8
0
100
AcDbSpline
62
7
6
CONTINUOUS
70
0
71
3
72
8
73
4
74
2
42
0.0000001000
43
0.0000001000
44
0.0000000001
40
0.0000000000
40
0.0000000000
40
0.0000000000
40
0.0000000000
40
1.0000000000
40
1.0000000000
40
1.0000000000
40
1.0000000000
10
93.6725675810
20
195.2127504369
30
0.0000000000
10
93.6363663402
20
195.2158510490
30
0.0000000000
10
93.6002407520
20
195.2198420105
30
0.0000000000
10
93.5642438876
20
195.2247174449
30
0.0000000000
11
93.6725675810
21
195.2127504369
31
0.0000000000
11
93.5642438876
21
195.2247174449
31
0.0000000000
0
SPLINE
5
2D9
100
AcDbEntity
8
0
100
AcDbSpline
62
7
6
CONTINUOUS
70
0
71
3
72
10
73
6
74
4
42
0.0000001000
43
0.0000001000
44
0.0000000001
40
0.0000000000
40
0.0000000000
40
0.0000000000
40
0.0000000000
40
0.2775687258
40
0.6990557906
40
1.0000000000
40
1.0000000000
40
1.0000000000
40
1.0000000000
10
71.0281232861
20
182.2046170614
30
0.0000000000
10
71.1234421046
20
182.2043694847
30
0.0000000000
10
71.3637204664
20
182.1881198873
30
0.0000000000
10
71.6994998099
20
182.1095333707
30
0.0000000000
10
71.9291781303
20
182.0134870565
30
0.0000000000
10
72.0215443716
20
181.9671606086
30
0.0000000000
11
71.0281232861
21
182.2046170614
31
0.0000000000
11
71.3133780965
21
182.1853659816
31
0.0000000000
11
71.7355848732
21
182.0866922479
31
0.0000000000
11
72.0215443716
21
181.9671606086
31
0.0000000000
0
SPLINE
5
2DA
100
AcDbEntity
8
0
100
AcDbSpline
62
7
6
CONTINUOUS
70
0
71
3
72
12
73
8
74
6
42
0.0000001000
43
0.0000001000
44
0.0000000001
40
0.0000000000
40
0.0000000000
40
0.0000000000
40
0.0000000000
40
0.1855123261
40
0.3945012810
40
0.6034655331
40
0.8124894348
40
1.0000000000
40
1.0000000000
40
1.0000000000
40
1.0000000000
10
72.0215687853
20
181.9671965158
30
0.0000000000
10
72.4132227233
20
181.7707570989
30
0.0000000000
10
73.2839230848
20
181.4241120379
30
0.0000000000
10
74.6897499320
20
181.1461477665
30
0.0000000000
10
76.1793038504
20
181.1447313906
30
0.0000000000
10
77.5903838181
20
181.4210095432
30
0.0000000000
10
78.4659855201
20
181.7686358941
30
0.0000000000
10
78.8618319691
20
181.9671999362
30
0.0000000000
11
72.0215687853
21
181.9671965158
31
0.0000000000
11
73.2427942864
21
181.4812123737
31
0.0000000000
11
74.6946334783
21
181.1940347098
31
0.0000000000
11
76.1744268168
21
181.1926340303
31
0.0000000000
11
77.6270433332
21
181.4771439386
31
0.0000000000
11
78.8618319691
21
181.9671999362
31
0.0000000000
0
SPLINE
5
2DB
100
AcDbEntity
8
0
100
AcDbSpline
62
7
6
CONTINUOUS
70
0
71
3
72
9
73
5
74
3
42
0.0000001000
43
0.0000001000
44
0.0000000001
40
0.0000000000
40
0.0000000000
40
0.0000000000
40
0.0000000000
40
0.4072107195
40
1.0000000000
40
1.0000000000
40
1.0000000000
40
1.0000000000
10
78.8618582204
20
181.9671606219
30
0.0000000000
10
78.9507350623
20
182.0117377986
30
0.0000000000
10
79.1765052222
20
182.1068407813
30
0.0000000000
10
79.4149664444
20
182.1639753449
30
0.0000000000
10
79.5584150282
20
182.1837923292
30
0.0000000000
11
78.8618582204
21
181.9671606219
31
0.0000000000
11
79.1367115600
21
182.0828957617
31
0.0000000000
11
79.5584150282
21
182.1837923292
31
0.0000000000
0
SPLINE
5
2DC
100
AcDbEntity
8
0
100
AcDbSpline
62
7
6
CONTINUOUS
70
0
71
3
72
8
73
4
74
2
42
0.0000001000
43
0.0000001000
44
0.0000000001
40
0.0000000000
40
0.0000000000
40
0.0000000000
40
0.0000000000
40
1.0000000000
40
1.0000000000
40
1.0000000000
40
1.0000000000
10
79.5584150282
20
182.1837923292
30
0.0000000000
10
79.6296987145
20
182.1936399530
30
0.0000000000
10
79.7014988289
20
182.2000176614
30
0.0000000000
10
79.7734027553
20
182.2028797674
30
0.0000000000
11
79.5584150282
21
182.1837923292
31
0.0000000000
11
79.7734027553
21
182.2028797674
31
0.0000000000
0
SPLINE
5
2DD
100
AcDbEntity
8
0
100
AcDbSpline
62
7
6
CONTINUOUS
70
0
71
3
72
8
73
4
74
2
42
0.0000001000
43
0.0000001000
44
0.0000000001
40
0.0000000000
40
0.0000000000
40
0.0000000000
40
0.0000000000
40
1.0000000000
40
1.0000000000
40
1.0000000000
40
1.0000000000
10
79.7734027553
20
182.2028797674
30
0.0000000000
10
79.8006863243
20
182.2039657785
30
0.0000000000
10
79.8279848399
20
182.2045456191
30
0.0000000000
10
79.8552757603
20
182.2046167930
30
0.0000000000
11
79.7734027553
21
182.2028797674
31
0.0000000000
11
79.8552757603
21
182.2046167930
31
0.0000000000
0
SPLINE
5
2DE
100
AcDbEntity
8
0
100
AcDbSpline
62
7
6
CONTINUOUS
70
0
71
3
72
8
73
4
74
2
42
0.0000001000
43
0.0000001000
44
0.0000000001
40
0.0000000000
40
0.0000000000
40
0.0000000000
40
0.0000000000
40
1.0000000000
40
1.0000000000
40
1.0000000000
40
1.0000000000
10
85.0280765067
20
182.2046200009
30
0.0000000000
10
85.0515039244
20
182.2045594249
30
0.0000000000
10
85.0749365830
20
182.2041240412
30
0.0000000000
10
85.0983602044
20
182.2033154134
30
0.0000000000
11
85.0280765067
21
182.2046200009
31
0.0000000000
11
85.0983602044
21
182.2033154134
31
0.0000000000
0
SPLINE
5
2DF
100
AcDbEntity
8
0
100
AcDbSpline
62
7
6
CONTINUOUS
70
0
71
3
72
8
73
4
74
2
42
0.0000001000
43
0.0000001000
44
0.0000000001
40
0.0000000000
40
0.0000000000
40
0.0000000000
40
0.0000000000
40
1.0000000000
40
1.0000000000
40
1.0000000000
40
1.0000000000
10
85.0983602044
20
182.2033154134
30
0.0000000000
10
85.1702472984
20
182.2008337349
30
0.0000000000
10
85.2420492738
20
182.1948365596
30
0.0000000000
10
85.3133534081
20
182.1853690846
30
0.0000000000
11
85.0983602044
21
182.2033154134
31
0.0000000000
11
85.3133534081
21
182.1853690846
31
0.0000000000
0
SPLINE
5
2E0
100
AcDbEntity
8
0
100
AcDbSpline
62
7
6
CONTINUOUS
70
0
71
3
72
9
73
5
74
3
42
0.0000001000
43
0.0000001000
44
0.0000000001
40
0.0000000000
40
0.0000000000
40
0.0000000000
40
0.0000000000
40
0.5834249916
40
1.0000000000
40
1.0000000000
40
1.0000000000
40
1.0000000000
10
85.3133534081
20
182.1853690846
30
0.0000000000
10
85.4568986108
20
182.1663097324
30
0.0000000000
10
85.6994792127
20
182.1095354268
30
0.0000000000
10
85.9291605161
20
182.0134878766
30
0.0000000000
10
86.0215287720
20
181.9671604543
30
0.0000000000
11
85.3133534081
21
182.1853690846
31
0.0000000000
11
85.7355630579
21
182.0866946225
31
0.0000000000
11
86.0215287720
21
181.9671604543
31
0.0000000000
0
SPLINE
5
2E1
100
AcDbEntity
8
0
100
AcDbSpline
62
7
6
CONTINUOUS
70
0
71
3
72
12
73
8
74
6
42
0.0000001000
43
0.0000001000
44
0.0000000001
40
0.0000000000
40
0.0000000000
40
0.0000000000
40
0.0000000000
40
0.1855714667
40
0.3945990200
40
0.6035602746
40
0.8125432473
40
1.0000000000
40
1.0000000000
40
1.0000000000
40
1.0000000000
10
86.0215589349
20
181.9672079413
30
0.0000000000
10
86.4133316165
20
181.7706899389
30
0.0000000000
10
87.2842752255
20
181.4239987668
30
0.0000000000
10
88.6903450438
20
181.1460707466
30
0.0000000000
10
90.1798918115
20
181.1448075857
30
0.0000000000
10
91.5907327106
20
181.4211206379
30
0.0000000000
10
92.4661042459
20
181.7687073912
30
0.0000000000
10
92.8618458087
20
181.9672006751
30
0.0000000000
11
86.0215589349
21
181.9672079413
31
0.0000000000
11
87.2431914257
21
181.4810956622
31
0.0000000000
11
88.6953239286
21
181.1939638586
31
0.0000000000
11
90.1751016656
21
181.1927019845
31
0.0000000000
11
91.6274201353
21
181.4772542765
31
0.0000000000
11
92.8618458087
21
181.9672006751
31
0.0000000000
0
SPLINE
5
2E2
100
AcDbEntity
8
0
100
AcDbSpline
62
7
6
CONTINUOUS
70
0
71
3
72
10
73
6
74
4
42
0.0000001000
43
0.0000001000
44
0.0000000001
40
0.0000000000
40
0.0000000000
40
0.0000000000
40
0.0000000000
40
0.2895499377
40
0.7110503441
40
1.0000000000
40
1.0000000000
40
1.0000000000
40
1.0000000000
10
92.8618726709
20
181.9671603964
30
0.0000000000
10
92.9507513946
20
182.0117385595
30
0.0000000000
10
93.1765242951
20
182.1068428124
30
0.0000000000
10
93.5118931485
20
182.1871963435
30
0.0000000000
10
93.7560975439
20
182.2043617830
30
0.0000000000
10
93.8553182963
20
182.2046195074
30
0.0000000000
11
92.8618726709
21
181.9671603964
31
0.0000000000
11
93.1367318524
21
182.0828980721
31
0.0000000000
11
93.5584379089
21
182.1837952607
31
0.0000000000
11
93.8553182963
21
182.2046195074
31
0.0000000000
0
SPLINE
5
2E3
100
AcDbEntity
8
0
100
AcDbSpline
62
7
6
CONTINUOUS
70
0
71
3
72
10
73
6
74
4
42
0.0000001000
43
0.0000001000
44
0.0000000001
40
0.0000000000
40
0.0000000000
40
0.0000000000
40
0.0000000000
40
0.2775240902
40
0.6990347683
40
1.0000000000
40
1.0000000000
40
1.0000000000
40
1.0000000000
10
93.8552838305
20
195.2046804768
30
0.0000000000
10
93.7599831199
20
195.2049310014
30
0.0000000000
10
93.5197196022
20
195.2211839158
30
0.0000000000
10
93.1839504343
20
195.2997688512
30
0.0000000000
10
92.9542646993
20
195.3958182558
30
0.0000000000
10
92.8618947507
20
195.4421465983
30
0.0000000000
11
93.8552838305
21
195.2046804768
31
0.0000000000
11
93.5700835266
21
195.2239328990
31
0.0000000000
11
93.1478657524
21
195.3226100798
31
0.0000000000
11
92.8618947507
21
195.4421465983
31
0.0000000000
0
SPLINE
5
2E4
100
AcDbEntity
8
0
100
AcDbSpline
62
7
6
CONTINUOUS
70
0
71
3
72
12
73
8
74
6
42
0.0000001000
43
0.0000001000
44
0.0000000001
40
0.0000000000
40
0.0000000000
40
0.0000000000
40
0.0000000000
40
0.1855226748
40
0.3945264222
40
0.6035022310
40
0.8125216232
40
1.0000000000
40
1.0000000000
40
1.0000000000
40
1.0000000000
10
92.8618629934
20
195.4420962365
30
0.0000000000
10
92.4701851519
20
195.6385486847
30
0.0000000000
10
91.5994233355
20
195.9852178540
30
0.0000000000
10
90.1934968119
20
196.2631830903
30
0.0000000000
10
88.7038805658
20
196.2645546489
30
0.0000000000
10
87.2928586423
20
195.9882450983
30
0.0000000000
10
86.4173398007
20
195.6406352863
30
0.0000000000
10
86.0215592566
20
195.4421032587
30
0.0000000000
11
92.8618629934
21
195.4420962365
31
0.0000000000
11
91.6405610543
21
195.9281089986
31
0.0000000000
11
90.1886060639
21
196.2152891575
31
0.0000000000
11
88.7087215203
21
196.2166476365
31
0.0000000000
11
87.2561358764
21
195.9320977173
31
0.0000000000
11
86.0215592566
21
195.4421032587
31
0.0000000000
0
SPLINE
5
2E5
100
AcDbEntity
8
0
100
AcDbSpline
62
7
6
CONTINUOUS
70
0
71
3
72
9
73
5
74
3
42
0.0000001000
43
0.0000001000
44
0.0000000001
40
0.0000000000
40
0.0000000000
40
0.0000000000
40
0.0000000000
40
0.4072143546
40
1.0000000000
40
1.0000000000
40
1.0000000000
40
1.0000000000
10
86.0215308914
20
195.4421467388
30
0.0000000000
10
85.9326521850
20
195.3975685912
30
0.0000000000
10
85.7068793059
20
195.3024643633
30
0.0000000000
10
85.4684151944
20
195.2453289734
30
0.0000000000
10
85.3249657258
20
195.2255119328
30
0.0000000000
11
86.0215308914
21
195.4421467388
31
0.0000000000
11
85.7466717655
21
195.3264091044
31
0.0000000000
11
85.3249657258
21
195.2255119328
31
0.0000000000
0
SPLINE
5
2E6
100
AcDbEntity
8
0
100
AcDbSpline
62
7
6
CONTINUOUS
70
0
71
3
72
8
73
4
74
2
42
0.0000001000
43
0.0000001000
44
0.0000000001
40
0.0000000000
40
0.0000000000
40
0.0000000000
40
0.0000000000
40
1.0000000000
40
1.0000000000
40
1.0000000000
40
1.0000000000
10
85.3249657258
20
195.2255119328
30
0.0000000000
10
85.2536821821
20
195.2156643614
30
0.0000000000
10
85.1818822092
20
195.2092867045
30
0.0000000000
10
85.1099784281
20
195.2064246700
30
0.0000000000
11
85.3249657258
21
195.2255119328
31
0.0000000000
11
85.1099784281
21
195.2064246700
31
0.0000000000
0
SPLINE
5
2E7
100
AcDbEntity
8
0
100
AcDbSpline
62
7
6
CONTINUOUS
70
0
71
3
72
8
73
4
74
2
42
0.0000001000
43
0.0000001000
44
0.0000000001
40
0.0000000000
40
0.0000000000
40
0.0000000000
40
0.0000000000
40
1.0000000000
40
1.0000000000
40
1.0000000000
40
1.0000000000
10
85.1099784281
20
195.2064246700
30
0.0000000000
10
85.0826883356
20
195.2053384241
30
0.0000000000
10
85.0553832898
20
195.2047585958
30
0.0000000000
10
85.0280858491
20
195.2046876840
30
0.0000000000
11
85.1099784281
21
195.2064246700
31
0.0000000000
11
85.0280858491
21
195.2046876840
31
0.0000000000
0
SPLINE
5
2E8
100
AcDbEntity
8
0
100
AcDbSpline
62
7
6
CONTINUOUS
70
0
71
3
72
8
73
4
74
2
42
0.0000001000
43
0.0000001000
44
0.0000000001
40
0.0000000000
40
0.0000000000
40
0.0000000000
40
0.0000000000
40
1.0000000000
40
1.0000000000
40
1.0000000000
40
1.0000000000
10
79.8552799557
20
195.2046900624
30
0.0000000000
10
79.8318600405
20
195.2047508899
30
0.0000000000
10
79.8084348931
20
195.2051862781
30
0.0000000000
10
79.7850187775
20
195.2059946663
30
0.0000000000
11
79.8552799557
21
195.2046900624
31
0.0000000000
11
79.7850187775
21
195.2059946663
31
0.0000000000
0
SPLINE
5
2E9
100
AcDbEntity
8
0
100
AcDbSpline
62
7
6
CONTINUOUS
70
0
71
3
72
8
73
4
74
2
42
0.0000001000
43
0.0000001000
44
0.0000000001
40
0.0000000000
40
0.0000000000
40
0.0000000000
40
0.0000000000
40
1.0000000000
40
1.0000000000
40
1.0000000000
40
1.0000000000
10
79.7850187775
20
195.2059946663
30
0.0000000000
10
79.7131314990
20
195.2084764111
30
0.0000000000
10
79.6413293434
20
195.2144736233
30
0.0000000000
10
79.5700250260
20
195.2239411412
30
0.0000000000
11
79.7850187775
21
195.2059946663
31
0.0000000000
11
79.5700250260
21
195.2239411412
31
0.0000000000
0
SPLINE
5
2EA
100
AcDbEntity
8
0
100
AcDbSpline
62
7
6
CONTINUOUS
70
0
71
3
72
9
73
5
74
3
42
0.0000001000
43
0.0000001000
44
0.0000000001
40
0.0000000000
40
0.0000000000
40
0.0000000000
40
0.0000000000
40
0.5834285964
40
1.0000000000
40
1.0000000000
40
1.0000000000
40
1.0000000000
10
79.5700250260
20
195.2239411412
30
0.0000000000
10
79.4264808150
20
195.2430003993
30
0.0000000000
10
79.1839033254
20
195.2997737772
30
0.0000000000
10
78.9542250094
20
195.3958200867
30
0.0000000000
10
78.8618587675
20
195.4421465290
30
0.0000000000
11
79.5700250260
21
195.2239411412
31
0.0000000000
11
79.1478182623
21
195.3226148947
31
0.0000000000
11
78.8618587675
21
195.4421465290
31
0.0000000000
0
SPLINE
5
2EB
100
AcDbEntity
8
0
100
AcDbSpline
62
7
6
CONTINUOUS
70
0
71
3
72
12
73
8
74
6
42
0.0000001000
43
0.0000001000
44
0.0000000001
40
0.0000000000
40
0.0000000000
40
0.0000000000
40
0.0000000000
40
0.1855379359
40
0.3945601849
40
0.6035328634
40
0.8125313829
40
1.0000000000
40
1.0000000000
40
1.0000000000
40
1.0000000000
10
78.8618326788
20
195.4421070763
30
0.0000000000
10
78.4701320528
20
195.6385884039
30
0.0000000000
10
77.5992841094
20
195.9852556551
30
0.0000000000
10
76.1932922085
20
196.2632122278
30
0.0000000000
10
74.7036986897
20
196.2645250751
30
0.0000000000
10
73.2927658744
20
195.9882201571
30
0.0000000000
10
72.4173346844
20
195.6406156386
30
0.0000000000
10
72.0215687250
20
195.4421121175
30
0.0000000000
11
78.8618326788
21
195.4421070763
31
0.0000000000
11
77.6404322599
21
195.9281466450
31
0.0000000000
11
76.1883509634
21
196.2153156948
31
0.0000000000
11
74.7084978119
21
196.2166247101
31
0.0000000000
11
73.2560713905
21
195.9320791053
31
0.0000000000
11
72.0215687250
21
195.4421121175
31
0.0000000000
0
SPLINE
5
2EC
100
AcDbEntity
8
0
100
AcDbSpline
62
7
6
CONTINUOUS
70
0
71
3
72
10
73
6
74
4
42
0.0000001000
43
0.0000001000
44
0.0000000001
40
0.0000000000
40
0.0000000000
40
0.0000000000
40
0.0000000000
40
0.2895518441
40
0.7110614090
40
1.0000000000
40
1.0000000000
40
1.0000000000
40
1.0000000000
10
72.0215448436
20
195.4421464960
30
0.0000000000
10
71.9326680004
20
195.3975693163
30
0.0000000000
10
71.7068978496
20
195.3024663313
30
0.0000000000
10
71.3715383253
20
195.2221152393
30
0.0000000000
10
71.1273416008
20
195.2049490832
30
0.0000000000
10
71.0281274064
20
195.2046903357
30
0.0000000000
11
72.0215448436
21
195.4421464960
31
0.0000000000
11
71.7466914992
21
195.3264113485
31
0.0000000000
11
71.3249880594
21
195.2255147904
31
0.0000000000
11
71.0281274064
21
195.2046903357
31
0.0000000000
0
SPLINE
5
2ED
100
AcDbEntity
8
0
100
AcDbSpline
62
7
6
CONTINUOUS
70
0
71
3
72
17
73
13
74
11
42
0.0000001000
43
0.0000001000
44
0.0000000001
40
0.0000000000
40
0.0000000000
40
0.0000000000
40
0.0000000000
40
0.1120126706
40
0.2173302551
40
0.3161144524
40
0.4094924161
40
0.4999984427
40
0.5905054055
40
0.6838842568
40
0.7826686179
40
0.8879861175
40
1.0000000000
40
1.0000000000
40
1.0000000000
40
1.0000000000
10
103.8758469551
20
179.7046535618
30
0.0000000000
10
103.6768285248
20
179.9824247162
30
0.0000000000
10
103.2298851495
20
180.4805905286
30
0.0000000000
10
102.4455996456
20
181.0522458862
30
0.0000000000
10
101.6182516196
20
181.4379749668
30
0.0000000000
10
100.7797603542
20
181.6572235134
30
0.0000000000
10
99.9417130894
20
181.7279972420
30
0.0000000000
10
99.1036626682
20
181.6572274262
30
0.0000000000
10
98.2651647118
20
181.4379800486
30
0.0000000000
10
97.4378130996
20
181.0522515994
30
0.0000000000
10
96.6535231337
20
180.4805956954
30
0.0000000000
10
96.2065767459
20
179.9824277216
30
0.0000000000
10
96.0075561623
20
179.7046535618
30
0.0000000000
11
103.8758469551
21
179.7046535618
31
0.0000000000
11
103.1916094687
21
180.4680049950
31
0.0000000000
11
102.4130774376
21
181.0362513750
31
0.0000000000
11
101.5938134430
21
181.4185268584
31
0.0000000000
11
100.7670748406
21
181.6349022815
31
0.0000000000
11
99.9417158756
21
181.7046535618
31
0.0000000000
11
99.1163480270
21
181.6349056448
31
0.0000000000
11
98.2896008611
21
181.4185308593
31
0.0000000000
11
97.4703346311
21
181.0362566199
31
0.0000000000
11
96.6918019517
21
180.4680124476
31
0.0000000000
11
96.0075561623
21
179.7046535618
31
0.0000000000
0
SPLINE
5
2EE
100
AcDbEntity
8
0
100
AcDbSpline
62
7
6
CONTINUOUS
70
0
71
3
72
17
73
13
74
11
42
0.0000001000
43
0.0000001000
44
0.0000000001
40
0.0000000000
40
0.0000000000
40
0.0000000000
40
0.0000000000
40
0.1120138825
40
0.2173313821
40
0.3161157432
40
0.4094945945
40
0.5000015573
40
0.5905075839
40
0.6838855476
40
0.7826697449
40
0.8879873294
40
1.0000000000
40
1.0000000000
40
1.0000000000
40
1.0000000000
10
68.8758469551
20
179.7046535618
30
0.0000000000
10
68.6768263715
20
179.9824277216
30
0.0000000000
10
68.2298799837
20
180.4805956954
30
0.0000000000
10
67.4455900178
20
181.0522515994
30
0.0000000000
10
66.6182384056
20
181.4379800486
30
0.0000000000
10
65.7797404492
20
181.6572274262
30
0.0000000000
10
64.9416900280
20
181.7279972420
30
0.0000000000
10
64.1036427632
20
181.6572235134
30
0.0000000000
10
63.2651514978
20
181.4379749668
30
0.0000000000
10
62.4378034718
20
181.0522458862
30
0.0000000000
10
61.6535179679
20
180.4805905286
30
0.0000000000
10
61.2065745926
20
179.9824247162
30
0.0000000000
10
61.0075561623
20
179.7046535618
30
0.0000000000
11
68.8758469551
21
179.7046535618
31
0.0000000000
11
68.1916011657
21
180.4680124476
31
0.0000000000
11
67.4130684863
21
181.0362566199
31
0.0000000000
11
66.5938022563
21
181.4185308593
31
0.0000000000
11
65.7670550905
21
181.6349056448
31
0.0000000000
11
64.9416872418
21
181.7046535618
31
0.0000000000
11
64.1163282768
21
181.6349022815
31
0.0000000000
11
63.2895896744
21
181.4185268584
31
0.0000000000
11
62.4703256798
21
181.0362513750
31
0.0000000000
11
61.6917936487
21
180.4680049950
31
0.0000000000
11
61.0075561623
21
179.7046535618
31
0.0000000000
0
SPLINE
5
2EF
100
AcDbEntity
8
0
100
AcDbSpline
62
7
6
CONTINUOUS
70
0
71
3
72
16
73
12
74
10
42
0.0000001000
43
0.0000001000
44
0.0000000001
40
0.0000000000
40
0.0000000000
40
0.0000000000
40
0.0000000000
40
0.0820521804
40
0.2791306357
40
0.4604941764
40
0.6113873368
40
0.7284015086
40
0.8254813635
40
0.9132427236
40
0.9965113473
40
1.0000000000
40
1.0000000000
40
1.0000000000
40
1.0000000000
10
300.1774879737
20
205.4077604182
30
0.0000000000
10
300.5607336084
20
205.3716633408
30
0.0000000000
10
301.8629480901
20
205.2326450071
30
0.0000000000
10
304.0001454507
20
204.9067335739
30
0.0000000000
10
306.4199736945
20
204.3346741159
30
0.0000000000
10
308.4117297440
20
203.6286837073
30
0.0000000000
10
309.9283872390
20
202.8157135609
30
0.0000000000
10
311.0164354650
20
201.8863906662
30
0.0000000000
10
311.7031988012
20
200.8049487415
30
0.0000000000
10
311.8741215955
20
199.9847166470
30
0.0000000000
10
311.8771291792
20
199.5755944944
30
0.0000000000
10
311.8771183062
20
199.5591427719
30
0.0000000000
11
300.1774879737
21
205.4077604182
31
0.0000000000
11
301.3257390146
21
205.2848747706
31
0.0000000000
11
304.0659319076
21
204.8573331000
31
0.0000000000
11
306.5455918398
21
204.2531660226
31
0.0000000000
11
308.5383046807
21
203.5196957741
31
0.0000000000
11
309.9759931218
21
202.7168668078
31
0.0000000000
11
310.9968430930
21
201.8090155586
31
0.0000000000
11
311.6434594594
21
200.7568171266
31
0.0000000000
11
311.8767547686
21
199.6084952347
31
0.0000000000
11
311.8771183062
21
199.5591427719
31
0.0000000000
0
SPLINE
5
2F0
100
AcDbEntity
8
0
100
AcDbSpline
62
7
6
CONTINUOUS
70
0
71
3
72
8
73
4
74
2
42
0.0000001000
43
0.0000001000
44
0.0000000001
40
0.0000000000
40
0.0000000000
40
0.0000000000
40
0.0000000000
40
1.0000000000
40
1.0000000000
40
1.0000000000
40
1.0000000000
10
283.1921060024
20
195.2027864133
30
0.0000000000
10
283.0280984697
20
195.2626900737
30
0.0000000000
10
282.8650997053
20
195.3253148141
30
0.0000000000
10
282.7033217704
20
195.3909920838
30
0.0000000000
11
283.1921060024
21
195.2027864133
31
0.0000000000
11
282.7033217704
21
195.3909920838
31
0.0000000000
0
SPLINE
5
2F1
100
AcDbEntity
8
0
100
AcDbSpline
62
7
6
CONTINUOUS
70
0
71
3
72
13
73
9
74
7
42
0.0000001000
43
0.0000001000
44
0.0000000001
40
0.0000000000
40
0.0000000000
40
0.0000000000
40
0.0000000000
40
0.0883444834
40
0.3628507602
40
0.5905926576
40
0.7964740804
40
0.9918158882
40
1.0000000000
40
1.0000000000
40
1.0000000000
40
1.0000000000
10
282.7033217704
20
195.3909920838
30
0.0000000000
10
282.5395417039
20
195.4574821622
30
0.0000000000
10
281.8719990556
20
195.7434216111
30
0.0000000000
10
280.8258727468
20
196.3041740956
30
0.0000000000
10
279.7378245209
20
197.2334969903
30
0.0000000000
10
279.0510611846
20
198.3149389149
30
0.0000000000
10
278.8801383903
20
199.1351710094
30
0.0000000000
10
278.8771308066
20
199.5442931621
30
0.0000000000
10
278.8771416796
20
199.5607448845
30
0.0000000000
11
282.7033217704
21
195.3909920838
31
0.0000000000
11
282.2159553051
21
195.6001918823
31
0.0000000000
11
280.7782668640
21
196.4030208487
31
0.0000000000
11
279.7574168929
21
197.3108720979
31
0.0000000000
11
279.1108005265
21
198.3630705298
31
0.0000000000
11
278.8775052172
21
199.5113924218
31
0.0000000000
11
278.8771416796
21
199.5607448845
31
0.0000000000
0
SPLINE
5
2F2
100
AcDbEntity
8
0
100
AcDbSpline
62
7
6
CONTINUOUS
70
0
71
3
72
13
73
9
74
7
42
0.0000001000
43
0.0000001000
44
0.0000000001
40
0.0000000000
40
0.0000000000
40
0.0000000000
40
0.0000000000
40
0.0062179766
40
0.1451682257
40
0.3515230828
40
0.6170842360
40
0.9292411387
40
1.0000000000
40
1.0000000000
40
1.0000000000
40
1.0000000000
10
307.4948752559
20
199.5581258049
30
0.0000000000
10
307.4820547574
20
199.5506577168
30
0.0000000000
10
307.1812587929
20
199.3775681120
30
0.0000000000
10
306.3456735498
20
198.9850453861
30
0.0000000000
10
304.8846935428
20
198.5273264718
30
0.0000000000
10
302.9411512734
20
198.0923861676
30
0.0000000000
10
301.3183495268
20
197.8555696916
30
0.0000000000
10
300.3556453687
20
197.7500131999
30
0.0000000000
10
300.1776159085
20
197.7316462919
30
0.0000000000
11
307.4948752559
21
199.5581258049
31
0.0000000000
11
307.4562055987
21
199.5358500185
31
0.0000000000
11
306.5050802333
21
199.0808508701
31
0.0000000000
11
305.0184329412
21
198.5892465527
31
0.0000000000
11
303.0537581396
21
198.1413699315
31
0.0000000000
11
300.7112884075
21
197.7901952570
31
0.0000000000
11
300.1776159085
21
197.7316462919
31
0.0000000000
0
SPLINE
5
2F3
100
AcDbEntity
8
0
100
AcDbSpline
62
7
6
CONTINUOUS
70
0
71
3
72
15
73
11
74
9
42
0.0000001000
43
0.0000001000
44
0.0000000001
40
0.0000000000
40
0.0000000000
40
0.0000000000
40
0.0000000000
40
0.0660387547
40
0.3557320470
40
0.6023155305
40
0.7938315917
40
0.9222799022
40
0.9873134850
40
0.9957462319
40
1.0000000000
40
1.0000000000
40
1.0000000000
40
1.0000000000
10
300.1776189526
20
201.3882482155
30
0.0000000000
10
300.3569968003
20
201.3697405963
30
0.0000000000
10
301.3225337942
20
201.2638116913
30
0.0000000000
10
302.9497383659
20
201.0259878539
30
0.0000000000
10
304.8972345904
20
200.5896773962
30
0.0000000000
10
306.3595739479
20
200.1291161081
30
0.0000000000
10
307.3469341568
20
199.6650861952
30
0.0000000000
10
307.7679028731
20
199.3933226364
30
0.0000000000
10
307.9510938962
20
199.2198992518
30
0.0000000000
10
307.9632395254
20
199.2132596871
30
0.0000000000
10
307.9656564770
20
199.2132220071
30
0.0000000000
11
300.1776189526
21
201.3882482155
31
0.0000000000
11
300.7153299362
21
201.3292208610
31
0.0000000000
11
303.0621831083
21
200.9769403768
31
0.0000000000
11
305.0314383952
21
200.5270431797
31
0.0000000000
11
306.5204629624
21
200.0328701765
31
0.0000000000
11
307.4686606445
21
199.5766596368
31
0.0000000000
11
307.9015779556
21
199.2661673695
31
0.0000000000
11
307.9530983451
21
199.2201482866
31
0.0000000000
11
307.9656564770
21
199.2132220071
31
0.0000000000
0
SPLINE
5
2F4
100
AcDbEntity
8
0
100
AcDbSpline
62
7
6
CONTINUOUS
70
0
71
3
72
15
73
11
74
9
42
0.0000001000
43
0.0000001000
44
0.0000000001
40
0.0000000000
40
0.0000000000
40
0.0000000000
40
0.0000000000
40
0.0277357854
40
0.0366213010
40
0.1012031427
40
0.2268725996
40
0.4135041674
40
0.6536831244
40
0.9360042336
40
1.0000000000
40
1.0000000000
40
1.0000000000
40
1.0000000000
10
282.8435848376
20
199.3743757342
30
0.0000000000
10
282.8078392342
20
199.2640629304
30
0.0000000000
10
282.7465771365
20
199.1657643333
30
0.0000000000
10
282.9919725875
20
199.3995112481
30
0.0000000000
10
283.4180444271
20
199.6695273876
30
0.0000000000
10
284.4085864361
20
200.1348422703
30
0.0000000000
10
285.8695664430
20
200.5925611847
30
0.0000000000
10
287.8131087125
20
201.0275014889
30
0.0000000000
10
289.4359104590
20
201.2643179649
30
0.0000000000
10
290.3986146171
20
201.3698744566
30
0.0000000000
10
290.5766440773
20
201.3882413646
30
0.0000000000
11
282.8435848376
21
199.3743757342
31
0.0000000000
11
282.8011190615
21
199.2200687925
31
0.0000000000
11
282.8566147186
21
199.2698455818
31
0.0000000000
11
283.2980543872
21
199.5840376379
31
0.0000000000
11
284.2491797526
21
200.0390367864
31
0.0000000000
11
285.7358270446
21
200.5306411037
31
0.0000000000
11
287.7005018462
21
200.9785177249
31
0.0000000000
11
290.0429715783
21
201.3296923995
31
0.0000000000
11
290.5766440773
21
201.3882413646
31
0.0000000000
0
SPLINE
5
2F5
100
AcDbEntity
8
0
100
AcDbSpline
62
7
6
CONTINUOUS
70
0
71
3
72
12
73
8
74
6
42
0.0000001000
43
0.0000001000
44
0.0000000001
40
0.0000000000
40
0.0000000000
40
0.0000000000
40
0.0000000000
40
0.1892348112
40
0.3983339463
40
0.6283633341
40
0.9050056381
40
1.0000000000
40
1.0000000000
40
1.0000000000
40
1.0000000000
10
311.8771183062
20
199.5591427719
30
0.0000000000
10
311.8768669694
20
199.1788497164
30
0.0000000000
10
311.7280799014
20
198.3780644764
30
0.0000000000
10
311.0630539925
20
197.2831431894
30
0.0000000000
10
309.9727117369
20
196.3320623864
30
0.0000000000
10
308.9096222217
20
195.7560046347
30
0.0000000000
10
308.2265098965
20
195.4622297161
30
0.0000000000
10
308.0504476309
20
195.3907591500
30
0.0000000000
11
311.8771183062
21
199.5591427719
31
0.0000000000
11
311.6739348333
21
198.4420769308
31
0.0000000000
11
311.0389104704
21
197.3608093613
31
0.0000000000
11
310.0182779861
21
196.4327768261
31
0.0000000000
11
308.5740026609
21
195.6164675908
31
0.0000000000
11
308.0504476309
21
195.3907591500
31
0.0000000000
0
SPLINE
5
2F6
100
AcDbEntity
8
0
100
AcDbSpline
62
7
6
CONTINUOUS
70
0
71
3
72
8
73
4
74
2
42
0.0000001000
43
0.0000001000
44
0.0000000001
40
0.0000000000
40
0.0000000000
40
0.0000000000
40
0.0000000000
40
1.0000000000
40
1.0000000000
40
1.0000000000
40
1.0000000000
10
308.0504476309
20
195.3907591500
30
0.0000000000
10
307.8880090674
20
195.3248189778
30
0.0000000000
10
307.7243350770
20
195.2619615169
30
0.0000000000
10
307.5596437731
20
195.2018472753
30
0.0000000000
11
308.0504476309
21
195.3907591500
31
0.0000000000
11
307.5596437731
21
195.2018472753
31
0.0000000000
0
SPLINE
5
2F7
100
AcDbEntity
8
0
100
AcDbSpline
62
7
6
CONTINUOUS
70
0
71
3
72
18
73
14
74
12
42
0.0000001000
43
0.0000001000
44
0.0000000001
40
0.0000000000
40
0.0000000000
40
0.0000000000
40
0.0000000000
40
0.0574127011
40
0.3092659419
40
0.5236404238
40
0.6901404498
40
0.8018107030
40
0.8583495287
40
0.8656807811
40
0.9021112850
40
0.9395926824
40
0.9475042531
40
1.0000000000
40
1.0000000000
40
1.0000000000
40
1.0000000000
10
290.5766410332
20
197.7316394410
30
0.0000000000
10
290.3972631856
20
197.7501470601
30
0.0000000000
10
289.4317261916
20
197.8560759652
30
0.0000000000
10
287.8045216199
20
198.0938998025
30
0.0000000000
10
285.8570253954
20
198.5302102603
30
0.0000000000
10
284.3946860379
20
198.9907715484
30
0.0000000000
10
283.4073258291
20
199.4548014613
30
0.0000000000
10
282.9863571127
20
199.7265650200
30
0.0000000000
10
282.7144220559
20
199.9840006583
30
0.0000000000
10
283.0131403303
20
199.5592132979
30
0.0000000000
10
282.7117579690
20
199.1325979769
30
0.0000000000
10
282.9783364302
20
199.3865223777
30
0.0000000000
10
283.1249753874
20
199.4834668612
30
0.0000000000
10
283.2593847299
20
199.5617618516
30
0.0000000000
11
290.5766410332
21
197.7316394410
31
0.0000000000
11
290.0389300496
21
197.7906667955
31
0.0000000000
11
287.6920768776
21
198.1429472796
31
0.0000000000
11
285.7228215906
21
198.5928444768
31
0.0000000000
11
284.2337970234
21
199.0870174799
31
0.0000000000
11
283.2855993413
21
199.5432280197
31
0.0000000000
11
282.8526820302
21
199.8537202870
31
0.0000000000
11
282.8011616407
21
199.8997393698
31
0.0000000000
11
282.8771152682
21
199.5649727136
31
0.0000000000
11
282.8011190615
21
199.2200687925
31
0.0000000000
11
282.8566147186
21
199.2698455818
31
0.0000000000
11
283.2593847299
21
199.5617618516
31
0.0000000000
0
SPLINE
5
2F8
100
AcDbEntity
8
0
100
AcDbSpline
62
7
6
CONTINUOUS
70
0
71
3
72
15
73
11
74
9
42
0.0000001000
43
0.0000001000
44
0.0000000001
40
0.0000000000
40
0.0000000000
40
0.0000000000
40
0.0000000000
40
0.0806556983
40
0.1697779727
40
0.2678211435
40
0.3857316805
40
0.5378568461
40
0.7200252023
40
0.9175896476
40
1.0000000000
40
1.0000000000
40
1.0000000000
40
1.0000000000
10
278.8771416796
20
199.5607448845
30
0.0000000000
10
278.8773930164
20
199.9410379401
30
0.0000000000
10
279.0261800844
20
200.7418231800
30
0.0000000000
10
279.6912059933
20
201.8367444671
30
0.0000000000
10
280.7815482489
20
202.7878252700
30
0.0000000000
10
282.3074311005
20
203.6146574721
30
0.0000000000
10
284.3108543955
20
204.3285031401
30
0.0000000000
10
286.7415304029
20
204.9045813749
30
0.0000000000
10
288.8859816656
20
205.2320272206
30
0.0000000000
10
290.1919171835
20
205.3715121080
30
0.0000000000
10
290.5767736346
20
205.4077608569
30
0.0000000000
11
278.8771416796
21
199.5607448845
31
0.0000000000
11
279.0803251525
21
200.6778107257
31
0.0000000000
11
279.7153495154
21
201.7590782952
31
0.0000000000
11
280.7359819997
21
202.6871108303
31
0.0000000000
11
282.1802573249
21
203.5034200656
31
0.0000000000
11
284.1874309139
21
204.2467788672
31
0.0000000000
11
286.6772914540
21
204.8551679969
31
0.0000000000
11
289.4237031718
21
205.2842954585
31
0.0000000000
11
290.5767736346
21
205.4077608569
31
0.0000000000
0
SPLINE
5
2F9
100
AcDbEntity
8
0
100
AcDbSpline
62
7
6
CONTINUOUS
70
0
71
3
72
14
73
10
74
8
42
0.0000001000
43
0.0000001000
44
0.0000000001
40
0.0000000000
40
0.0000000000
40
0.0000000000
40
0.0000000000
40
0.1052121570
40
0.2202224036
40
0.3479614001
40
0.4890477695
40
0.6441710263
40
0.8141663706
40
1.0000000000
40
1.0000000000
40
1.0000000000
40
1.0000000000
10
295.3771299929
20
177.0933973184
30
0.0000000000
10
295.2375685009
20
177.0933973184
30
0.0000000000
10
294.9442132461
20
177.1328690210
30
0.0000000000
10
294.5132992956
20
177.3096689716
30
0.0000000000
10
294.0922913113
20
177.6017073383
30
0.0000000000
10
293.6899605357
20
177.9975482246
30
0.0000000000
10
293.3090225893
20
178.4864507547
30
0.0000000000
10
292.9492074058
20
179.0619030056
30
0.0000000000
10
292.7327789239
20
179.4819373068
30
0.0000000000
10
292.6271299929
20
179.7046535618
30
0.0000000000
11
295.3771299929
21
177.0933973184
31
0.0000000000
11
294.9619745506
21
177.1476435092
31
0.0000000000
11
294.5367756298
21
177.3169732222
31
0.0000000000
11
294.1159047134
21
177.6020442753
31
0.0000000000
11
293.7121456642
21
177.9921690471
31
0.0000000000
11
293.3295306923
21
178.4765943052
31
0.0000000000
11
292.9681547659
21
179.0484675013
31
0.0000000000
11
292.6271299929
21
179.7046535618
31
0.0000000000
0
SPLINE
5
2FA
100
AcDbEntity
8
0
100
AcDbSpline
62
7
6
CONTINUOUS
70
0
71
3
72
14
73
10
74
8
42
0.0000001000
43
0.0000001000
44
0.0000000001
40
0.0000000000
40
0.0000000000
40
0.0000000000
40
0.0000000000
40
0.1858364778
40
0.3558229243
40
0.5109304360
40
0.6520024186
40
0.7797323753
40
0.8947654319
40
1.0000000000
40
1.0000000000
40
1.0000000000
40
1.0000000000
10
298.1271299929
20
179.7046535618
30
0.0000000000
10
298.0214794543
20
179.4819339177
30
0.0000000000
10
297.8050544658
20
179.0619068810
30
0.0000000000
10
297.4452550102
20
178.4864791209
30
0.0000000000
10
297.0643538148
20
177.9976142892
30
0.0000000000
10
296.6620721958
20
177.6017987890
30
0.0000000000
10
296.2410837781
20
177.3097363952
30
0.0000000000
10
295.8101370792
20
177.1328859879
30
0.0000000000
10
295.5167211973
20
177.0933973184
30
0.0000000000
10
295.3771299929
20
177.0933973184
30
0.0000000000
11
298.1271299929
21
179.7046535618
31
0.0000000000
11
297.7860996320
21
179.0484577232
31
0.0000000000
11
297.4247432466
21
178.4766141523
31
0.0000000000
11
297.0421724771
21
177.9922339120
31
0.0000000000
11
296.6384670748
21
177.6021361005
31
0.0000000000
11
296.2176439105
21
177.3170587953
31
0.0000000000
11
295.7923723558
21
177.1476662692
31
0.0000000000
11
295.3771299929
21
177.0933973184
31
0.0000000000
0
SPLINE
5
2FB
100
AcDbEntity
8
0
100
AcDbSpline
62
7
6
CONTINUOUS
70
0
71
3
72
8
73
4
74
2
42
0.0000001000
43
0.0000001000
44
0.0000000001
40
0.0000000000
40
0.0000000000
40
0.0000000000
40
0.0000000000
40
1.0000000000
40
1.0000000000
40
1.0000000000
40
1.0000000000
10
314.2792335316
20
195.2731396291
30
0.0000000000
10
314.2739535401
20
195.2711836457
30
0.0000000000
10
314.2686522935
20
195.2692809220
30
0.0000000000
10
314.2633316453
20
195.2674299717
30
0.0000000000
11
314.2792335316
21
195.2731396291
31
0.0000000000
11
314.2633316453
21
195.2674299717
31
0.0000000000
0
SPLINE
5
2FC
100
AcDbEntity
8
0
100
AcDbSpline
62
7
6
CONTINUOUS
70
0
71
3
72
8
73
4
74
2
42
0.0000001000
43
0.0000001000
44
0.0000000001
40
0.0000000000
40
0.0000000000
40
0.0000000000
40
0.0000000000
40
1.0000000000
40
1.0000000000
40
1.0000000000
40
1.0000000000
10
314.2633316453
20
195.2674299717
30
0.0000000000
10
314.2556873896
20
195.2647706835
30
0.0000000000
10
314.2480030859
20
195.2622182632
30
0.0000000000
10
314.2402842304
20
195.2597683030
30
0.0000000000
11
314.2633316453
21
195.2674299717
31
0.0000000000
11
314.2402842304
21
195.2597683030
31
0.0000000000
0
SPLINE
5
2FD
100
AcDbEntity
8
0
100
AcDbSpline
62
7
6
CONTINUOUS
70
0
71
3
72
8
73
4
74
2
42
0.0000001000
43
0.0000001000
44
0.0000000001
40
0.0000000000
40
0.0000000000
40
0.0000000000
40
0.0000000000
40
1.0000000000
40
1.0000000000
40
1.0000000000
40
1.0000000000
10
314.2402842304
20
195.2597683030
30
0.0000000000
10
314.2161877753
20
195.2521201020
30
0.0000000000
10
314.1917545993
20
195.2454704168
30
0.0000000000
10
314.1671519177
20
195.2396851435
30
0.0000000000
11
314.2402842304
21
195.2597683030
31
0.0000000000
11
314.1671519177
21
195.2396851435
31
0.0000000000
0
SPLINE
5
2FE
100
AcDbEntity
8
0
100
AcDbSpline
62
7
6
CONTINUOUS
70
0
71
3
72
8
73
4
74
2
42
0.0000001000
43
0.0000001000
44
0.0000000001
40
0.0000000000
40
0.0000000000
40
0.0000000000
40
0.0000000000
40
1.0000000000
40
1.0000000000
40
1.0000000000
40
1.0000000000
10
314.1671519177
20
195.2396851435
30
0.0000000000
10
314.1566517684
20
195.2372160535
30
0.0000000000
10
314.1461212146
20
195.2349043131
30
0.0000000000
10
314.1355639338
20
195.2327415157
30
0.0000000000
11
314.1671519177
21
195.2396851435
31
0.0000000000
11
314.1355639338
21
195.2327415157
31
0.0000000000
0
SPLINE
5
2FF
100
AcDbEntity
8
0
100
AcDbSpline
62
7
6
CONTINUOUS
70
0
71
3
72
8
73
4
74
2
42
0.0000001000
43
0.0000001000
44
0.0000000001
40
0.0000000000
40
0.0000000000
40
0.0000000000
40
0.0000000000
40
1.0000000000
40
1.0000000000
40
1.0000000000
40
1.0000000000
10
314.1355639338
20
195.2327415157
30
0.0000000000
10
314.1107644407
20
195.2276610142
30
0.0000000000
10
314.0858173133
20
195.2234024130
30
0.0000000000
10
314.0607691066
20
195.2198569866
30
0.0000000000
11
314.1355639338
21
195.2327415157
31
0.0000000000
11
314.0607691066
21
195.2198569866
31
0.0000000000
0
SPLINE
5
300
100
AcDbEntity
8
0
100
AcDbSpline
62
7
6
CONTINUOUS
70
0
71
3
72
8
73
4
74
2
42
0.0000001000
43
0.0000001000
44
0.0000000001
40
0.0000000000
40
0.0000000000
40
0.0000000000
40
0.0000000000
40
1.0000000000
40
1.0000000000
40
1.0000000000
40
1.0000000000
10
314.0607691066
20
195.2198569866
30
0.0000000000
10
314.0418522743
20
195.2171794202
30
0.0000000000
10
314.0228777910
20
195.2149086150
30
0.0000000000
10
314.0038657097
20
195.2129977385
30
0.0000000000
11
314.0607691066
21
195.2198569866
31
0.0000000000
11
314.0038657097
21
195.2129977385
31
0.0000000000
0
SPLINE
5
301
100
AcDbEntity
8
0
100
AcDbSpline
62
7
6
CONTINUOUS
70
0
71
3
72
8
73
4
74
2
42
0.0000001000
43
0.0000001000
44
0.0000000001
40
0.0000000000
40
0.0000000000
40
0.0000000000
40
0.0000000000
40
1.0000000000
40
1.0000000000
40
1.0000000000
40
1.0000000000
10
315.6316169845
20
195.6762051731
30
0.0000000000
10
315.6283309335
20
195.6758207517
30
0.0000000000
10
315.6250458197
20
195.6754282875
30
0.0000000000
10
315.6217616657
20
195.6750279042
30
0.0000000000
11
315.6316169845
21
195.6762051731
31
0.0000000000
11
315.6217616657
21
195.6750279042
31
0.0000000000
0
SPLINE
5
302
100
AcDbEntity
8
0
100
AcDbSpline
62
7
6
CONTINUOUS
70
0
71
3
72
10
73
6
74
4
42
0.0000001000
43
0.0000001000
44
0.0000000001
40
0.0000000000
40
0.0000000000
40
0.0000000000
40
0.0000000000
40
0.1494056126
40
0.5406166686
40
1.0000000000
40
1.0000000000
40
1.0000000000
40
1.0000000000
10
315.6217616657
20
195.6750279042
30
0.0000000000
10
315.5734490875
20
195.6691379407
30
0.0000000000
10
315.3993839644
20
195.6416243151
30
0.0000000000
10
315.0841653826
20
195.5587703206
30
0.0000000000
10
314.8220734217
20
195.4696422727
30
0.0000000000
10
314.6811990124
20
195.4196590532
30
0.0000000000
11
315.6217616657
21
195.6750279042
31
0.0000000000
11
315.4775182815
21
195.6526108628
31
0.0000000000
11
315.1069303448
21
195.5604729692
31
0.0000000000
11
314.6811990124
21
195.4196590532
31
0.0000000000
0
SPLINE
5
303
100
AcDbEntity
8
0
100
AcDbSpline
62
7
6
CONTINUOUS
70
0
71
3
72
8
73
4
74
2
42
0.0000001000
43
0.0000001000
44
0.0000000001
40
0.0000000000
40
0.0000000000
40
0.0000000000
40
0.0000000000
40
1.0000000000
40
1.0000000000
40
1.0000000000
40
1.0000000000
10
314.6811990124
20
195.4196590532
30
0.0000000000
10
314.5994016604
20
195.3906367842
30
0.0000000000
10
314.5178316995
20
195.3609916302
30
0.0000000000
10
314.4363738943
20
195.3310406702
30
0.0000000000
11
314.6811990124
21
195.4196590532
31
0.0000000000
11
314.4363738943
21
195.3310406702
31
0.0000000000
0
SPLINE
5
304
100
AcDbEntity
8
0
100
AcDbSpline
62
7
6
CONTINUOUS
70
0
71
3
72
8
73
4
74
2
42
0.0000001000
43
0.0000001000
44
0.0000000001
40
0.0000000000
40
0.0000000000
40
0.0000000000
40
0.0000000000
40
1.0000000000
40
1.0000000000
40
1.0000000000
40
1.0000000000
10
314.4363738943
20
195.3310406702
30
0.0000000000
10
314.3839284528
20
195.3117571735
30
0.0000000000
10
314.3315295024
20
195.2923469128
30
0.0000000000
10
314.2791462886
20
195.2728945118
30
0.0000000000
11
314.4363738943
21
195.3310406702
31
0.0000000000
11
314.2791462886
21
195.2728945118
31
0.0000000000
0
SPLINE
5
305
100
AcDbEntity
8
0
100
AcDbSpline
62
7
6
CONTINUOUS
70
0
71
3
72
10
73
6
74
4
42
0.0000001000
43
0.0000001000
44
0.0000000001
40
0.0000000000
40
0.0000000000
40
0.0000000000
40
0.0000000000
40
0.2445758543
40
0.7363989223
40
1.0000000000
40
1.0000000000
40
1.0000000000
40
1.0000000000
10
314.2795770766
20
195.2730789340
30
0.0000000000
10
314.2445369061
20
195.2600844258
30
0.0000000000
10
314.1362022784
20
195.2280465673
30
0.0000000000
10
313.9843973053
20
195.2082443861
30
0.0000000000
10
313.8691133504
20
195.2047045470
30
0.0000000000
10
313.8288866568
20
195.2046472881
30
0.0000000000
11
314.2795770766
21
195.2730789340
31
0.0000000000
11
314.1721947757
21
195.2407287938
31
0.0000000000
11
313.9494948605
21
195.2085653897
31
0.0000000000
11
313.8288866568
21
195.2046472881
31
0.0000000000
0
SPLINE
5
306
100
AcDbEntity
8
0
100
AcDbSpline
62
7
6
CONTINUOUS
70
0
71
3
72
8
73
4
74
2
42
0.0000001000
43
0.0000001000
44
0.0000000001
40
0.0000000000
40
0.0000000000
40
0.0000000000
40
0.0000000000
40
1.0000000000
40
1.0000000000
40
1.0000000000
40
1.0000000000
10
276.4751143162
20
195.2728960033
30
0.0000000000
10
276.4447395643
20
195.2841728361
30
0.0000000000
10
276.4143592951
20
195.2954347665
30
0.0000000000
10
276.3839678765
20
195.3066665862
30
0.0000000000
11
276.4751143162
21
195.2728960033
31
0.0000000000
11
276.3839678765
21
195.3066665862
31
0.0000000000
0
SPLINE
5
307
100
AcDbEntity
8
0
100
AcDbSpline
62
7
6
CONTINUOUS
70
0
71
3
72
8
73
4
74
2
42
0.0000001000
43
0.0000001000
44
0.0000000001
40
0.0000000000
40
0.0000000000
40
0.0000000000
40
0.0000000000
40
1.0000000000
40
1.0000000000
40
1.0000000000
40
1.0000000000
10
276.3839678765
20
195.3066665862
30
0.0000000000
10
276.3171568687
20
195.3313580693
30
0.0000000000
10
276.2502919780
20
195.3559040355
30
0.0000000000
10
276.1833133659
20
195.3801429130
30
0.0000000000
11
276.3839678765
21
195.3066665862
31
0.0000000000
11
276.1833133659
21
195.3801429130
31
0.0000000000
0
SPLINE
5
308
100
AcDbEntity
8
0
100
AcDbSpline
62
7
6
CONTINUOUS
70
0
71
3
72
11
73
7
74
5
42
0.0000001000
43
0.0000001000
44
0.0000000001
40
0.0000000000
40
0.0000000000
40
0.0000000000
40
0.0000000000
40
0.3556057123
40
0.6699261119
40
0.9606114798
40
1.0000000000
40
1.0000000000
40
1.0000000000
40
1.0000000000
10
276.1833133659
20
195.3801429130
30
0.0000000000
10
276.0619085433
20
195.4240780816
30
0.0000000000
10
275.8324899409
20
195.5049468727
30
0.0000000000
10
275.4987746637
20
195.6068911040
30
0.0000000000
10
275.2697204766
20
195.6567137116
30
0.0000000000
10
275.1508329415
20
195.6726986433
30
0.0000000000
10
275.1366265738
20
195.6744603517
30
0.0000000000
11
276.1833133659
21
195.3801429130
31
0.0000000000
11
275.8174181780
21
195.5071767819
31
0.0000000000
11
275.4892480492
21
195.6046951213
31
0.0000000000
11
275.1791849958
21
195.6687478157
31
0.0000000000
11
275.1366265738
21
195.6744603517
31
0.0000000000
0
SPLINE
5
309
100
AcDbEntity
8
0
100
AcDbSpline
62
7
6
CONTINUOUS
70
0
71
3
72
10
73
6
74
4
42
0.0000001000
43
0.0000001000
44
0.0000000001
40
0.0000000000
40
0.0000000000
40
0.0000000000
40
0.0000000000
40
0.2339961803
40
0.7378348496
40
1.0000000000
40
1.0000000000
40
1.0000000000
40
1.0000000000
10
276.9203185731
20
195.2044284238
30
0.0000000000
10
276.8850283245
20
195.2046137577
30
0.0000000000
10
276.7737613673
20
195.2080754943
30
0.0000000000
10
276.6236538522
20
195.2269063915
30
0.0000000000
10
276.5121413911
20
195.2593903265
30
0.0000000000
10
276.4750264543
20
195.2731396291
30
0.0000000000
11
276.9203185731
21
195.2044284238
31
0.0000000000
11
276.8145056852
21
195.2078587171
31
0.0000000000
11
276.5888782852
21
195.2392704379
31
0.0000000000
11
276.4750264543
21
195.2731396291
31
0.0000000000
0
SPLINE
5
30A
100
AcDbEntity
8
0
100
AcDbSpline
62
7
6
CONTINUOUS
70
0
71
3
72
8
73
4
74
2
42
0.0000001000
43
0.0000001000
44
0.0000000001
40
0.0000000000
40
0.0000000000
40
0.0000000000
40
0.0000000000
40
1.0000000000
40
1.0000000000
40
1.0000000000
40
1.0000000000
10
276.4751137546
20
195.2728944905
30
0.0000000000
10
276.4384882473
20
195.2864952989
30
0.0000000000
10
276.4018550472
20
195.3000755067
30
0.0000000000
10
276.3652036421
20
195.3136061893
30
0.0000000000
11
276.4751137546
21
195.2728944905
31
0.0000000000
11
276.3652036421
21
195.3136061893
31
0.0000000000
0
SPLINE
5
30B
100
AcDbEntity
8
0
100
AcDbSpline
62
7
6
CONTINUOUS
70
0
71
3
72
11
73
7
74
5
42
0.0000001000
43
0.0000001000
44
0.0000000001
40
0.0000000000
40
0.0000000000
40
0.0000000000
40
0.0000000000
40
0.2422839965
40
0.5918515403
40
0.8895434201
40
1.0000000000
40
1.0000000000
40
1.0000000000
40
1.0000000000
10
276.3652036421
20
195.3136061893
30
0.0000000000
10
276.2680161049
20
195.3494851336
30
0.0000000000
10
276.0302936194
20
195.4362795916
30
0.0000000000
10
275.6700946403
20
195.5587703091
30
0.0000000000
10
275.3562155330
20
195.6412722310
30
0.0000000000
10
275.1835470834
20
195.6687043424
30
0.0000000000
10
275.1366201363
20
195.6745211869
30
0.0000000000
11
276.3652036421
21
195.3136061893
31
0.0000000000
11
276.0730610182
21
195.4196590373
31
0.0000000000
11
275.6473296773
21
195.5604729584
31
0.0000000000
11
275.2767417348
21
195.6526108571
31
0.0000000000
11
275.1366201363
21
195.6745211869
31
0.0000000000
0
SPLINE
5
30C
100
AcDbEntity
8
0
100
AcDbSpline
62
7
6
CONTINUOUS
70
0
71
3
72
8
73
4
74
2
42
0.0000001000
43
0.0000001000
44
0.0000000001
40
0.0000000000
40
0.0000000000
40
0.0000000000
40
0.0000000000
40
1.0000000000
40
1.0000000000
40
1.0000000000
40
1.0000000000
10
276.9253733720
20
195.2046472787
30
0.0000000000
10
276.8864251369
20
195.2047027186
30
0.0000000000
10
276.8474759593
20
195.2058624251
30
0.0000000000
10
276.8085938152
20
195.2083192516
30
0.0000000000
11
276.9253733720
21
195.2046472787
31
0.0000000000
11
276.8085938152
21
195.2083192516
31
0.0000000000
0
SPLINE
5
30D
100
AcDbEntity
8
0
100
AcDbSpline
62
7
6
CONTINUOUS
70
0
71
3
72
9
73
5
74
3
42
0.0000001000
43
0.0000001000
44
0.0000000001
40
0.0000000000
40
0.0000000000
40
0.0000000000
40
0.0000000000
40
0.0657098719
40
1.0000000000
40
1.0000000000
40
1.0000000000
40
1.0000000000
10
276.8085938152
20
195.2083192516
30
0.0000000000
10
276.8073175911
20
195.2083998917
30
0.0000000000
10
276.7878965840
20
195.2096483734
30
0.0000000000
10
276.7684928593
20
195.2112220821
30
0.0000000000
10
276.7503974699
20
195.2130181173
30
0.0000000000
11
276.8085938152
21
195.2083192516
31
0.0000000000
11
276.8047653619
21
195.2085653711
31
0.0000000000
11
276.7503974699
21
195.2130181173
31
0.0000000000
0
SPLINE
5
30E
100
AcDbEntity
8
0
100
AcDbSpline
62
7
6
CONTINUOUS
70
0
71
3
72
9
73
5
74
3
42
0.0000001000
43
0.0000001000
44
0.0000000001
40
0.0000000000
40
0.0000000000
40
0.0000000000
40
0.0000000000
40
0.0428572174
40
1.0000000000
40
1.0000000000
40
1.0000000000
40
1.0000000000
10
316.6160728581
20
182.1621251313
30
0.0000000000
10
316.6168373263
20
182.1616637011
30
0.0000000000
10
316.6346825817
20
182.1509098410
30
0.0000000000
10
316.6527069417
20
182.1404556913
30
0.0000000000
10
316.6701160451
20
182.1307310529
30
0.0000000000
11
316.6160728581
21
182.1621251313
31
0.0000000000
11
316.6183672512
21
182.1607424905
31
0.0000000000
11
316.6701160451
21
182.1307310529
31
0.0000000000
0
SPLINE
5
30F
100
AcDbEntity
8
0
100
AcDbSpline
62
7
6
CONTINUOUS
70
0
71
3
72
8
73
4
74
2
42
0.0000001000
43
0.0000001000
44
0.0000000001
40
0.0000000000
40
0.0000000000
40
0.0000000000
40
0.0000000000
40
1.0000000000
40
1.0000000000
40
1.0000000000
40
1.0000000000
10
316.6701160451
20
182.1307310529
30
0.0000000000
10
316.6867481306
20
182.1214404529
30
0.0000000000
10
316.7035237125
20
182.1124067631
30
0.0000000000
10
316.7204368049
20
182.1036360041
30
0.0000000000
11
316.6701160451
21
182.1307310529
31
0.0000000000
11
316.7204368049
21
182.1036360041
31
0.0000000000
0
SPLINE
5
310
100
AcDbEntity
8
0
100
AcDbSpline
62
7
6
CONTINUOUS
70
0
71
3
72
8
73
4
74
2
42
0.0000001000
43
0.0000001000
44
0.0000000001
40
0.0000000000
40
0.0000000000
40
0.0000000000
40
0.0000000000
40
1.0000000000
40
1.0000000000
40
1.0000000000
40
1.0000000000
10
316.5779124351
20
182.1851516837
30
0.0000000000
10
316.5906405249
20
182.1774826718
30
0.0000000000
10
316.6033660146
20
182.1698093497
30
0.0000000000
10
316.6160888913
20
182.1621317034
30
0.0000000000
11
316.5779124351
21
182.1851516837
31
0.0000000000
11
316.6160888913
21
182.1621317034
31
0.0000000000
0
SPLINE
5
311
100
AcDbEntity
8
0
100
AcDbSpline
62
7
6
CONTINUOUS
70
0
71
3
72
8
73
4
74
2
42
0.0000001000
43
0.0000001000
44
0.0000000001
40
0.0000000000
40
0.0000000000
40
0.0000000000
40
0.0000000000
40
1.0000000000
40
1.0000000000
40
1.0000000000
40
1.0000000000
10
274.0340292421
20
182.1037368857
30
0.0000000000
10
274.0509380579
20
182.1125086580
30
0.0000000000
10
274.0677089607
20
182.1215440292
30
0.0000000000
10
274.0843363664
20
182.1308362598
30
0.0000000000
11
274.0340292421
21
182.1037368857
31
0.0000000000
11
274.0843363664
21
182.1308362598
31
0.0000000000
0
SPLINE
5
312
100
AcDbEntity
8
0
100
AcDbSpline
62
7
6
CONTINUOUS
70
0
71
3
72
8
73
4
74
2
42
0.0000001000
43
0.0000001000
44
0.0000000001
40
0.0000000000
40
0.0000000000
40
0.0000000000
40
0.0000000000
40
1.0000000000
40
1.0000000000
40
1.0000000000
40
1.0000000000
10
274.0843363664
20
182.1308362598
30
0.0000000000
10
274.0890810145
20
182.1334878078
30
0.0000000000
10
274.0938139784
20
182.1361602707
30
0.0000000000
10
274.0985351282
20
182.1388534918
30
0.0000000000
11
274.0843363664
21
182.1308362598
31
0.0000000000
11
274.0985351282
21
182.1388534918
31
0.0000000000
0
SPLINE
5
313
100
AcDbEntity
8
0
100
AcDbSpline
62
7
6
CONTINUOUS
70
0
71
3
72
8
73
4
74
2
42
0.0000001000
43
0.0000001000
44
0.0000000001
40
0.0000000000
40
0.0000000000
40
0.0000000000
40
0.0000000000
40
1.0000000000
40
1.0000000000
40
1.0000000000
40
1.0000000000
10
274.0985351282
20
182.1388534918
30
0.0000000000
10
274.1066776797
20
182.1434984812
30
0.0000000000
10
274.1147850893
20
182.1482052177
30
0.0000000000
10
274.1228566915
20
182.1529728979
30
0.0000000000
11
274.0985351282
21
182.1388534918
31
0.0000000000
11
274.1228566915
21
182.1529728979
31
0.0000000000
0
SPLINE
5
314
100
AcDbEntity
8
0
100
AcDbSpline
62
7
6
CONTINUOUS
70
0
71
3
72
9
73
5
74
3
42
0.0000001000
43
0.0000001000
44
0.0000000001
40
0.0000000000
40
0.0000000000
40
0.0000000000
40
0.0000000000
40
0.8619755742
40
1.0000000000
40
1.0000000000
40
1.0000000000
40
1.0000000000
10
274.1228566915
20
182.1529728979
30
0.0000000000
10
274.1272611321
20
182.1555744836
30
0.0000000000
10
274.1323584676
20
182.1586137019
30
0.0000000000
10
274.1374413078
20
182.1616771678
30
0.0000000000
10
274.1381425870
20
182.1621004623
30
0.0000000000
11
274.1228566915
21
182.1529728979
31
0.0000000000
11
274.1360379194
21
182.1608319635
31
0.0000000000
11
274.1381425870
21
182.1621004623
31
0.0000000000
0
SPLINE
5
315
100
AcDbEntity
8
0
100
AcDbSpline
62
7
6
CONTINUOUS
70
0
71
3
72
8
73
4
74
2
42
0.0000001000
43
0.0000001000
44
0.0000000001
40
0.0000000000
40
0.0000000000
40
0.0000000000
40
0.0000000000
40
1.0000000000
40
1.0000000000
40
1.0000000000
40
1.0000000000
10
274.1381290879
20
182.1621070708
30
0.0000000000
10
274.1509504609
20
182.1698440239
30
0.0000000000
10
274.1637744908
20
182.1775765802
30
0.0000000000
10
274.1766011629
20
182.1853047561
30
0.0000000000
11
274.1381290879
21
182.1621070708
31
0.0000000000
11
274.1766011629
21
182.1853047561
31
0.0000000000
0
SPLINE
5
316
100
AcDbEntity
8
0
100
AcDbSpline
62
7
6
CONTINUOUS
70
0
71
3
72
8
73
4
74
2
42
0.0000001000
43
0.0000001000
44
0.0000000001
40
0.0000000000
40
0.0000000000
40
0.0000000000
40
0.0000000000
40
1.0000000000
40
1.0000000000
40
1.0000000000
40
1.0000000000
10
316.3671366335
20
182.2002127772
30
0.0000000000
10
316.4128087501
20
182.1983360100
30
0.0000000000
10
316.4584579364
20
182.1958455398
30
0.0000000000
10
316.5040685569
20
182.1926761117
30
0.0000000000
11
316.3671366335
21
182.2002127772
31
0.0000000000
11
316.5040685569
21
182.1926761117
31
0.0000000000
0
SPLINE
5
317
100
AcDbEntity
8
0
100
AcDbSpline
62
7
6
CONTINUOUS
70
0
71
3
72
8
73
4
74
2
42
0.0000001000
43
0.0000001000
44
0.0000000001
40
0.0000000000
40
0.0000000000
40
0.0000000000
40
0.0000000000
40
1.0000000000
40
1.0000000000
40
1.0000000000
40
1.0000000000
10
316.5040685569
20
182.1926761117
30
0.0000000000
10
316.5107814988
20
182.1922096373
30
0.0000000000
10
316.5174936054
20
182.1917284555
30
0.0000000000
10
316.5242047677
20
182.1912324020
30
0.0000000000
11
316.5040685569
21
182.1926761117
31
0.0000000000
11
316.5242047677
21
182.1912324020
31
0.0000000000
0
SPLINE
5
318
100
AcDbEntity
8
0
100
AcDbSpline
62
7
6
CONTINUOUS
70
0
71
3
72
8
73
4
74
2
42
0.0000001000
43
0.0000001000
44
0.0000000001
40
0.0000000000
40
0.0000000000
40
0.0000000000
40
0.0000000000
40
1.0000000000
40
1.0000000000
40
1.0000000000
40
1.0000000000
10
316.5242047677
20
182.1912324020
30
0.0000000000
10
316.5420719906
20
182.1899117519
30
0.0000000000
10
316.5599325212
20
182.1884856931
30
0.0000000000
10
316.5777843069
20
182.1869511275
30
0.0000000000
11
316.5242047677
21
182.1912324020
31
0.0000000000
11
316.5777843069
21
182.1869511275
31
0.0000000000
0
SPLINE
5
319
100
AcDbEntity
8
0
100
AcDbSpline
62
7
6
CONTINUOUS
70
0
71
3
72
9
73
5
74
3
42
0.0000001000
43
0.0000001000
44
0.0000000001
40
0.0000000000
40
0.0000000000
40
0.0000000000
40
0.0000000000
40
0.3391301369
40
1.0000000000
40
1.0000000000
40
1.0000000000
40
1.0000000000
10
316.8299787358
20
182.0504622442
30
0.0000000000
10
316.8811671181
20
182.0262657822
30
0.0000000000
10
317.0323035490
20
181.9553318437
30
0.0000000000
10
317.1840878688
20
181.8857858095
30
0.0000000000
10
317.2847893634
20
181.8406956883
30
0.0000000000
11
316.8299787358
21
182.0504622442
31
0.0000000000
11
316.9837514684
21
181.9783137315
31
0.0000000000
11
317.2847893634
21
181.8406956883
31
0.0000000000
0
SPLINE
5
31A
100
AcDbEntity
8
0
100
AcDbSpline
62
7
6
CONTINUOUS
70
0
71
3
72
8
73
4
74
2
42
0.0000001000
43
0.0000001000
44
0.0000000001
40
0.0000000000
40
0.0000000000
40
0.0000000000
40
0.0000000000
40
1.0000000000
40
1.0000000000
40
1.0000000000
40
1.0000000000
10
317.2847893634
20
181.8406956883
30
0.0000000000
10
317.2873420486
20
181.8395526975
30
0.0000000000
10
317.2898949856
20
181.8384102662
30
0.0000000000
10
317.2924481762
20
181.8372683987
30
0.0000000000
11
317.2847893634
21
181.8406956883
31
0.0000000000
11
317.2924481762
21
181.8372683987
31
0.0000000000
0
SPLINE
5
31B
100
AcDbEntity
8
0
100
AcDbSpline
62
7
6
CONTINUOUS
70
0
71
3
72
8
73
4
74
2
42
0.0000001000
43
0.0000001000
44
0.0000000001
40
0.0000000000
40
0.0000000000
40
0.0000000000
40
0.0000000000
40
1.0000000000
40
1.0000000000
40
1.0000000000
40
1.0000000000
10
317.2924481762
20
181.8372683987
30
0.0000000000
10
317.3264697363
20
181.8220528820
30
0.0000000000
10
317.3605363148
20
181.8069374792
30
0.0000000000
10
317.3946547253
20
181.7919400942
30
0.0000000000
11
317.2924481762
21
181.8372683987
31
0.0000000000
11
317.3946547253
21
181.7919400942
31
0.0000000000
0
SPLINE
5
31C
100
AcDbEntity
8
0
100
AcDbSpline
62
7
6
CONTINUOUS
70
0
71
3
72
12
73
8
74
6
42
0.0000001000
43
0.0000001000
44
0.0000000001
40
0.0000000000
40
0.0000000000
40
0.0000000000
40
0.0000000000
40
0.1669512742
40
0.4020687927
40
0.6124801068
40
0.8054391239
40
1.0000000000
40
1.0000000000
40
1.0000000000
40
1.0000000000
10
317.3946547253
20
181.7919400942
30
0.0000000000
10
317.4552402819
20
181.7653085807
30
0.0000000000
10
317.6015421050
20
181.7020681300
30
0.0000000000
10
317.8261879405
20
181.6099062429
30
0.0000000000
10
318.0634880976
20
181.5216993406
30
0.0000000000
10
318.2896302863
20
181.4502636692
30
0.0000000000
10
318.4395260869
20
181.4155751647
30
0.0000000000
10
318.5155570969
20
181.4024483603
30
0.0000000000
11
317.3946547253
21
181.7919400942
31
0.0000000000
11
317.5769398681
21
181.7132622316
31
0.0000000000
11
317.8358550739
21
181.6077177022
31
0.0000000000
11
318.0706931121
21
181.5213383955
31
0.0000000000
11
318.2898507748
21
181.4533333602
31
0.0000000000
11
318.5155570969
21
181.4024483603
31
0.0000000000
0
SPLINE
5
31D
100
AcDbEntity
8
0
100
AcDbSpline
62
7
6
CONTINUOUS
70
0
71
3
72
8
73
4
74
2
42
0.0000001000
43
0.0000001000
44
0.0000000001
40
0.0000000000
40
0.0000000000
40
0.0000000000
40
0.0000000000
40
1.0000000000
40
1.0000000000
40
1.0000000000
40
1.0000000000
10
318.5155570969
20
181.4024483603
30
0.0000000000
10
318.5514741371
20
181.3962472595
30
0.0000000000
10
318.5875637489
20
181.3910033307
30
0.0000000000
10
318.6237794447
20
181.3868049437
30
0.0000000000
11
318.5155570969
21
181.4024483603
31
0.0000000000
11
318.6237794447
21
181.3868049437
31
0.0000000000
0
SPLINE
5
31E
100
AcDbEntity
8
0
100
AcDbSpline
62
7
6
CONTINUOUS
70
0
71
3
72
8
73
4
74
2
42
0.0000001000
43
0.0000001000
44
0.0000000001
40
0.0000000000
40
0.0000000000
40
0.0000000000
40
0.0000000000
40
1.0000000000
40
1.0000000000
40
1.0000000000
40
1.0000000000
10
316.1491465360
20
182.2047691168
30
0.0000000000
10
316.2638237378
20
182.2045432433
30
0.0000000000
10
316.3785105331
20
182.2011071215
30
0.0000000000
10
316.4929667638
20
182.1934323805
30
0.0000000000
11
316.1491465360
21
182.2047691168
31
0.0000000000
11
316.4929667638
21
182.1934323805
31
0.0000000000
0
SPLINE
5
31F
100
AcDbEntity
8
0
100
AcDbSpline
62
7
6
CONTINUOUS
70
0
71
3
72
8
73
4
74
2
42
0.0000001000
43
0.0000001000
44
0.0000000001
40
0.0000000000
40
0.0000000000
40
0.0000000000
40
0.0000000000
40
1.0000000000
40
1.0000000000
40
1.0000000000
40
1.0000000000
10
316.4929667638
20
182.1934323805
30
0.0000000000
10
316.5033918227
20
182.1927333392
30
0.0000000000
10
316.5138149687
20
182.1919991336
30
0.0000000000
10
316.5242357994
20
182.1912291350
30
0.0000000000
11
316.4929667638
21
182.1934323805
31
0.0000000000
11
316.5242357994
21
182.1912291350
31
0.0000000000
0
SPLINE
5
320
100
AcDbEntity
8
0
100
AcDbSpline
62
7
6
CONTINUOUS
70
0
71
3
72
9
73
5
74
3
42
0.0000001000
43
0.0000001000
44
0.0000000001
40
0.0000000000
40
0.0000000000
40
0.0000000000
40
0.0000000000
40
0.5225955885
40
1.0000000000
40
1.0000000000
40
1.0000000000
40
1.0000000000
10
316.5242357994
20
182.1912291350
30
0.0000000000
10
316.6952096280
20
182.1785958223
30
0.0000000000
10
317.0211797809
20
182.1359847853
30
0.0000000000
10
317.3383579209
20
182.0479277418
30
0.0000000000
10
317.4863063819
20
181.9965049402
30
0.0000000000
11
316.5242357994
21
182.1912291350
31
0.0000000000
11
317.0335096030
21
182.1216475586
31
0.0000000000
11
317.4863063819
21
181.9965049402
31
0.0000000000
0
SPLINE
5
321
100
AcDbEntity
8
0
100
AcDbSpline
62
7
6
CONTINUOUS
70
0
71
3
72
8
73
4
74
2
42
0.0000001000
43
0.0000001000
44
0.0000000001
40
0.0000000000
40
0.0000000000
40
0.0000000000
40
0.0000000000
40
1.0000000000
40
1.0000000000
40
1.0000000000
40
1.0000000000
10
317.9048400704
20
181.8342968794
30
0.0000000000
10
317.9189299776
20
181.8274721089
30
0.0000000000
10
317.9310789522
20
181.8215980405
30
0.0000000000
10
317.9313827084
20
181.8222017043
30
0.0000000000
11
317.9048400704
21
181.8342968794
31
0.0000000000
11
317.9313827084
21
181.8222017043
31
0.0000000000
0
SPLINE
5
322
100
AcDbEntity
8
0
100
AcDbSpline
62
7
6
CONTINUOUS
70
0
71
3
72
9
73
5
74
3
42
0.0000001000
43
0.0000001000
44
0.0000000001
40
0.0000000000
40
0.0000000000
40
0.0000000000
40
0.0000000000
40
0.0653787319
40
1.0000000000
40
1.0000000000
40
1.0000000000
40
1.0000000000
10
317.4852753095
20
181.9970713116
30
0.0000000000
10
317.4880401799
20
181.9961060209
30
0.0000000000
10
317.5303334195
20
181.9813183789
30
0.0000000000
10
317.5726893296
20
181.9661660098
30
0.0000000000
10
317.6116633073
20
181.9519807185
30
0.0000000000
11
317.4852753095
21
181.9970713116
31
0.0000000000
11
317.4935706046
21
181.9941708674
31
0.0000000000
11
317.6116633073
21
181.9519807185
31
0.0000000000
0
SPLINE
5
323
100
AcDbEntity
8
0
100
AcDbSpline
62
7
6
CONTINUOUS
70
0
71
3
72
10
73
6
74
4
42
0.0000001000
43
0.0000001000
44
0.0000000001
40
0.0000000000
40
0.0000000000
40
0.0000000000
40
0.0000000000
40
0.3874633371
40
0.7267487764
40
1.0000000000
40
1.0000000000
40
1.0000000000
40
1.0000000000
10
317.6116633073
20
181.9519807185
30
0.0000000000
10
317.6471925121
20
181.9390492152
30
0.0000000000
10
317.7128780238
20
181.9147574035
30
0.0000000000
10
317.8104410260
20
181.8751656690
30
0.0000000000
10
317.8535292951
20
181.8587857872
30
0.0000000000
10
317.8859491013
20
181.8433910538
30
0.0000000000
11
317.6116633073
21
181.9519807185
31
0.0000000000
11
317.7187157414
21
181.9118732175
31
0.0000000000
11
317.8117682258
21
181.8749662989
31
0.0000000000
11
317.8859491013
21
181.8433910538
31
0.0000000000
0
SPLINE
5
324
100
AcDbEntity
8
0
100
AcDbSpline
62
7
6
CONTINUOUS
70
0
71
3
72
8
73
4
74
2
42
0.0000001000
43
0.0000001000
44
0.0000000001
40
0.0000000000
40
0.0000000000
40
0.0000000000
40
0.0000000000
40
1.0000000000
40
1.0000000000
40
1.0000000000
40
1.0000000000
10
317.8859491013
20
181.8433910538
30
0.0000000000
10
317.8920589539
20
181.8404897548
30
0.0000000000
10
317.8986375726
20
181.8373012019
30
0.0000000000
10
317.9048400704
20
181.8342968794
30
0.0000000000
11
317.8859491013
21
181.8433910538
31
0.0000000000
11
317.9048400704
21
181.8342968794
31
0.0000000000
0
SPLINE
5
325
100
AcDbEntity
8
0
100
AcDbSpline
62
7
6
CONTINUOUS
70
0
71
3
72
8
73
4
74
2
42
0.0000001000
43
0.0000001000
44
0.0000000001
40
0.0000000000
40
0.0000000000
40
0.0000000000
40
0.0000000000
40
1.0000000000
40
1.0000000000
40
1.0000000000
40
1.0000000000
10
316.7768883730
20
182.0756185912
30
0.0000000000
10
316.7945774051
20
182.0672168120
30
0.0000000000
10
316.8122740641
20
182.0588310610
30
0.0000000000
10
316.8299786852
20
182.0504621372
30
0.0000000000
11
316.7768883730
21
182.0756185912
31
0.0000000000
11
316.8299786852
21
182.0504621372
31
0.0000000000
0
SPLINE
5
326
100
AcDbEntity
8
0
100
AcDbSpline
62
7
6
CONTINUOUS
70
0
71
3
72
9
73
5
74
3
42
0.0000001000
43
0.0000001000
44
0.0000000001
40
0.0000000000
40
0.0000000000
40
0.0000000000
40
0.0000000000
40
0.3443793613
40
1.0000000000
40
1.0000000000
40
1.0000000000
40
1.0000000000
10
316.8299786852
20
182.0504621372
30
0.0000000000
10
316.8834593985
20
182.0251819572
30
0.0000000000
10
317.0389662976
20
181.9522198746
30
0.0000000000
10
317.1951637476
20
181.8807381707
30
0.0000000000
10
317.2979836571
20
181.8347939358
30
0.0000000000
11
316.8299786852
21
182.0504621372
31
0.0000000000
11
316.9906480291
21
181.9751042551
31
0.0000000000
11
317.2979836571
21
181.8347939358
31
0.0000000000
0
SPLINE
5
327
100
AcDbEntity
8
0
100
AcDbSpline
62
7
6
CONTINUOUS
70
0
71
3
72
8
73
4
74
2
42
0.0000001000
43
0.0000001000
44
0.0000000001
40
0.0000000000
40
0.0000000000
40
0.0000000000
40
0.0000000000
40
1.0000000000
40
1.0000000000
40
1.0000000000
40
1.0000000000
10
317.2979836571
20
181.8347939358
30
0.0000000000
10
317.3301648818
20
181.8204140190
30
0.0000000000
10
317.3623866265
20
181.8061242890
30
0.0000000000
10
317.3946547208
20
181.7919400840
30
0.0000000000
11
317.2979836571
21
181.8347939358
31
0.0000000000
11
317.3946547208
21
181.7919400840
31
0.0000000000
0
SPLINE
5
328
100
AcDbEntity
8
0
100
AcDbSpline
62
7
6
CONTINUOUS
70
0
71
3
72
9
73
5
74
3
42
0.0000001000
43
0.0000001000
44
0.0000000001
40
0.0000000000
40
0.0000000000
40
0.0000000000
40
0.0000000000
40
0.4219536305
40
1.0000000000
40
1.0000000000
40
1.0000000000
40
1.0000000000
10
317.3947248543
20
181.7919092554
30
0.0000000000
10
317.4568084323
20
181.7646192994
30
0.0000000000
10
317.6043487370
20
181.7008699016
30
0.0000000000
10
317.7530859700
20
181.6399282532
30
0.0000000000
10
317.8396683835
20
181.6062325894
30
0.0000000000
11
317.3947248543
21
181.7919092554
31
0.0000000000
11
317.5815318737
21
181.7113206251
31
0.0000000000
11
317.8396683835
21
181.6062325894
31
0.0000000000
0
SPLINE
5
329
100
AcDbEntity
8
0
100
AcDbSpline
62
7
6
CONTINUOUS
70
0
71
3
72
8
73
4
74
2
42
0.0000001000
43
0.0000001000
44
0.0000000001
40
0.0000000000
40
0.0000000000
40
0.0000000000
40
0.0000000000
40
1.0000000000
40
1.0000000000
40
1.0000000000
40
1.0000000000
10
317.8396683835
20
181.6062325894
30
0.0000000000
10
317.8806165854
20
181.5902965951
30
0.0000000000
10
317.9217001971
20
181.5747031389
30
0.0000000000
10
317.9629536102
20
181.5595740870
30
0.0000000000
11
317.8396683835
21
181.6062325894
31
0.0000000000
11
317.9629536102
21
181.5595740870
31
0.0000000000
0
SPLINE
5
32A
100
AcDbEntity
8
0
100
AcDbSpline
62
7
6
CONTINUOUS
70
0
71
3
72
10
73
6
74
4
42
0.0000001000
43
0.0000001000
44
0.0000000001
40
0.0000000000
40
0.0000000000
40
0.0000000000
40
0.0000000000
40
0.2044110981
40
0.6017594183
40
1.0000000000
40
1.0000000000
40
1.0000000000
40
1.0000000000
10
317.9629536102
20
181.5595740870
30
0.0000000000
10
317.9997491848
20
181.5460798785
30
0.0000000000
10
318.1084681999
20
181.5074423439
30
0.0000000000
10
318.2914337133
20
181.4498009775
30
0.0000000000
10
318.4402896511
20
181.4154440244
30
0.0000000000
10
318.5155570995
20
181.4024483755
30
0.0000000000
11
317.9629536102
21
181.5595740870
31
0.0000000000
11
318.0737699983
21
181.5202863172
31
0.0000000000
11
318.2920912675
21
181.4527214321
31
0.0000000000
11
318.5155570995
21
181.4024483755
31
0.0000000000
0
SPLINE
5
32B
100
AcDbEntity
8
0
100
AcDbSpline
62
7
6
CONTINUOUS
70
0
71
3
72
8
73
4
74
2
42
0.0000001000
43
0.0000001000
44
0.0000000001
40
0.0000000000
40
0.0000000000
40
0.0000000000
40
0.0000000000
40
1.0000000000
40
1.0000000000
40
1.0000000000
40
1.0000000000
10
318.5164022626
20
181.4023026321
30
0.0000000000
10
318.5520402981
20
181.3961647462
30
0.0000000000
10
318.5878477389
20
181.3909698868
30
0.0000000000
10
318.6237793783
20
181.3868043709
30
0.0000000000
11
318.5164022626
21
181.4023026321
31
0.0000000000
11
318.6237793783
21
181.3868043709
31
0.0000000000
0
SPLINE
5
32C
100
AcDbEntity
8
0
100
AcDbSpline
62
7
6
CONTINUOUS
70
0
71
3
72
8
73
4
74
2
42
0.0000001000
43
0.0000001000
44
0.0000000001
40
0.0000000000
40
0.0000000000
40
0.0000000000
40
0.0000000000
40
1.0000000000
40
1.0000000000
40
1.0000000000
40
1.0000000000
10
274.1762081018
20
182.1869292964
30
0.0000000000
10
274.1947829039
20
182.1885262698
30
0.0000000000
10
274.2133672818
20
182.1900058755
30
0.0000000000
10
274.2319589497
20
182.1913716833
30
0.0000000000
11
274.1762081018
21
182.1869292964
31
0.0000000000
11
274.2319589497
21
182.1913716833
31
0.0000000000
0
SPLINE
5
32D
100
AcDbEntity
8
0
100
AcDbSpline
62
7
6
CONTINUOUS
70
0
71
3
72
8
73
4
74
2
42
0.0000001000
43
0.0000001000
44
0.0000000001
40
0.0000000000
40
0.0000000000
40
0.0000000000
40
0.0000000000
40
1.0000000000
40
1.0000000000
40
1.0000000000
40
1.0000000000
10
274.2612932712
20
182.1934323853
30
0.0000000000
10
274.3032099743
20
182.1962430655
30
0.0000000000
10
274.3451576009
20
182.1984852597
30
0.0000000000
10
274.3871243548
20
182.2002094795
30
0.0000000000
11
274.2612932712
21
182.1934323853
31
0.0000000000
11
274.3871243548
21
182.2002094795
31
0.0000000000
0
SPLINE
5
32E
100
AcDbEntity
8
0
100
AcDbSpline
62
7
6
CONTINUOUS
70
0
71
3
72
8
73
4
74
2
42
0.0000001000
43
0.0000001000
44
0.0000000001
40
0.0000000000
40
0.0000000000
40
0.0000000000
40
0.0000000000
40
1.0000000000
40
1.0000000000
40
1.0000000000
40
1.0000000000
10
274.3871243548
20
182.2002094795
30
0.0000000000
10
274.4309586641
20
182.2020104286
30
0.0000000000
10
274.4748138410
20
182.2032462770
30
0.0000000000
10
274.5186764433
20
182.2039745846
30
0.0000000000
11
274.3871243548
21
182.2002094795
31
0.0000000000
11
274.5186764433
21
182.2039745846
31
0.0000000000
0
SPLINE
5
32F
100
AcDbEntity
8
0
100
AcDbSpline
62
7
6
CONTINUOUS
70
0
71
3
72
8
73
4
74
2
42
0.0000001000
43
0.0000001000
44
0.0000000001
40
0.0000000000
40
0.0000000000
40
0.0000000000
40
0.0000000000
40
1.0000000000
40
1.0000000000
40
1.0000000000
40
1.0000000000
10
272.1304806075
20
181.3868043709
30
0.0000000000
10
272.1664122445
20
181.3909698865
30
0.0000000000
10
272.2022196829
20
181.3961647455
30
0.0000000000
10
272.2378577161
20
181.4023026308
30
0.0000000000
11
272.1304806075
21
181.3868043709
31
0.0000000000
11
272.2378577161
21
181.4023026308
31
0.0000000000
0
SPLINE
5
330
100
AcDbEntity
8
0
100
AcDbSpline
62
7
6
CONTINUOUS
70
0
71
3
72
12
73
8
74
6
42
0.0000001000
43
0.0000001000
44
0.0000000001
40
0.0000000000
40
0.0000000000
40
0.0000000000
40
0.0000000000
40
0.1932030265
40
0.3852543718
40
0.5948210018
40
0.8290332448
40
1.0000000000
40
1.0000000000
40
1.0000000000
40
1.0000000000
10
272.2378577161
20
181.4023026308
30
0.0000000000
10
272.3134125538
20
181.4153153280
30
0.0000000000
10
272.4625535478
20
181.4497150588
30
0.0000000000
10
272.6877230447
20
181.5206523470
30
0.0000000000
10
272.9242441489
20
181.6084080159
30
0.0000000000
10
273.1499112387
20
181.7008698973
30
0.0000000000
10
273.2974515461
20
181.7646192961
30
0.0000000000
10
273.3595351273
20
181.7919092535
30
0.0000000000
11
272.2378577161
21
181.4023026308
31
0.0000000000
11
272.4621687095
21
181.4527214297
31
0.0000000000
11
272.6804899771
21
181.5202863136
31
0.0000000000
11
272.9145915902
21
181.6062325846
31
0.0000000000
11
273.1727280981
21
181.7113206191
31
0.0000000000
11
273.3595351273
21
181.7919092535
31
0.0000000000
0
SPLINE
5
331
100
AcDbEntity
8
0
100
AcDbSpline
62
7
6
CONTINUOUS
70
0
71
3
72
8
73
4
74
2
42
0.0000001000
43
0.0000001000
44
0.0000000001
40
0.0000000000
40
0.0000000000
40
0.0000000000
40
0.0000000000
40
1.0000000000
40
1.0000000000
40
1.0000000000
40
1.0000000000
10
273.3596052608
20
181.7919400822
30
0.0000000000
10
273.3918733511
20
181.8061242854
30
0.0000000000
10
273.4240950919
20
181.8204140136
30
0.0000000000
10
273.4562763125
20
181.8347939286
30
0.0000000000
11
273.3596052608
21
181.7919400822
31
0.0000000000
11
273.4562763125
21
181.8347939286
31
0.0000000000
0
SPLINE
5
332
100
AcDbEntity
8
0
100
AcDbSpline
62
7
6
CONTINUOUS
70
0
71
3
72
8
73
4
74
2
42
0.0000001000
43
0.0000001000
44
0.0000000001
40
0.0000000000
40
0.0000000000
40
0.0000000000
40
0.0000000000
40
1.0000000000
40
1.0000000000
40
1.0000000000
40
1.0000000000
10
273.4562763125
20
181.8347939286
30
0.0000000000
10
273.4606602631
20
181.8367528610
30
0.0000000000
10
273.4650434617
20
181.8387134670
30
0.0000000000
10
273.4694259173
20
181.8406757248
30
0.0000000000
11
273.4562763125
21
181.8347939286
31
0.0000000000
11
273.4694259173
21
181.8406757248
31
0.0000000000
0
SPLINE
5
333
100
AcDbEntity
8
0
100
AcDbSpline
62
7
6
CONTINUOUS
70
0
71
3
72
9
73
5
74
3
42
0.0000001000
43
0.0000001000
44
0.0000000001
40
0.0000000000
40
0.0000000000
40
0.0000000000
40
0.0000000000
40
0.6457170808
40
1.0000000000
40
1.0000000000
40
1.0000000000
40
1.0000000000
10
273.4694259173
20
181.8406757248
30
0.0000000000
10
273.5678283100
20
181.8847356920
30
0.0000000000
10
273.7196406804
20
181.9542594344
30
0.0000000000
10
273.8708005674
20
182.0251819478
30
0.0000000000
10
273.9242812801
20
182.0504621276
30
0.0000000000
11
273.4694259173
21
181.8406757248
31
0.0000000000
11
273.7636119380
21
181.9751042463
31
0.0000000000
11
273.9242812801
21
182.0504621276
31
0.0000000000
0
SPLINE
5
334
100
AcDbEntity
8
0
100
AcDbSpline
62
7
6
CONTINUOUS
70
0
71
3
72
9
73
5
74
3
42
0.0000001000
43
0.0000001000
44
0.0000000001
40
0.0000000000
40
0.0000000000
40
0.0000000000
40
0.0000000000
40
0.4642720847
40
1.0000000000
40
1.0000000000
40
1.0000000000
40
1.0000000000
10
273.2678997379
20
181.9964828777
30
0.0000000000
10
273.4120817576
20
182.0466002536
30
0.0000000000
10
273.7297083088
20
182.1353849462
30
0.0000000000
10
274.0563556534
20
182.1784681183
30
0.0000000000
10
274.2319892222
20
182.1913749399
30
0.0000000000
11
273.2678997379
21
181.9964828777
31
0.0000000000
11
273.7089564589
21
182.1191898649
31
0.0000000000
11
274.2319892222
21
182.1913749399
31
0.0000000000
0
SPLINE
5
335
100
AcDbEntity
8
0
100
AcDbSpline
62
7
6
CONTINUOUS
70
0
71
3
72
8
73
4
74
2
42
0.0000001000
43
0.0000001000
44
0.0000000001
40
0.0000000000
40
0.0000000000
40
0.0000000000
40
0.0000000000
40
1.0000000000
40
1.0000000000
40
1.0000000000
40
1.0000000000
10
274.2319892222
20
182.1913749399
30
0.0000000000
10
274.2380558882
20
182.1918207623
30
0.0000000000
10
274.2441233173
20
182.1922544458
30
0.0000000000
10
274.2501914289
20
182.1926761117
30
0.0000000000
11
274.2319892222
21
182.1913749399
31
0.0000000000
11
274.2501914289
21
182.1926761117
31
0.0000000000
0
SPLINE
5
336
100
AcDbEntity
8
0
100
AcDbSpline
62
7
6
CONTINUOUS
70
0
71
3
72
8
73
4
74
2
42
0.0000001000
43
0.0000001000
44
0.0000000001
40
0.0000000000
40
0.0000000000
40
0.0000000000
40
0.0000000000
40
1.0000000000
40
1.0000000000
40
1.0000000000
40
1.0000000000
10
274.2501914289
20
182.1926761117
30
0.0000000000
10
274.3686580018
20
182.2009082137
30
0.0000000000
10
274.4873847479
20
182.2045599252
30
0.0000000000
10
274.6060976981
20
182.2047746575
30
0.0000000000
11
274.2501914289
21
182.1926761117
31
0.0000000000
11
274.6060976981
21
182.2047746575
31
0.0000000000
0
SPLINE
5
337
100
AcDbEntity
8
0
100
AcDbSpline
62
7
6
CONTINUOUS
70
0
71
3
72
8
73
4
74
2
42
0.0000001000
43
0.0000001000
44
0.0000000001
40
0.0000000000
40
0.0000000000
40
0.0000000000
40
0.0000000000
40
1.0000000000
40
1.0000000000
40
1.0000000000
40
1.0000000000
10
272.8235435801
20
181.8229662724
30
0.0000000000
10
272.8240130154
20
181.8221587324
30
0.0000000000
10
272.8474032338
20
181.8336383604
30
0.0000000000
10
272.8662428605
20
181.8424689491
30
0.0000000000
11
272.8235435801
21
181.8229662724
31
0.0000000000
11
272.8662428605
21
181.8424689491
31
0.0000000000
0
SPLINE
5
338
100
AcDbEntity
8
0
100
AcDbSpline
62
7
6
CONTINUOUS
70
0
71
3
72
8
73
4
74
2
42
0.0000001000
43
0.0000001000
44
0.0000000001
40
0.0000000000
40
0.0000000000
40
0.0000000000
40
0.0000000000
40
1.0000000000
40
1.0000000000
40
1.0000000000
40
1.0000000000
10
272.8662428605
20
181.8424689491
30
0.0000000000
10
272.8791304129
20
181.8485096566
30
0.0000000000
10
272.8898885313
20
181.8533107552
30
0.0000000000
10
272.8995936382
20
181.8574686661
30
0.0000000000
11
272.8662428605
21
181.8424689491
31
0.0000000000
11
272.8995936382
21
181.8574686661
31
0.0000000000
0
SPLINE
5
339
100
AcDbEntity
8
0
100
AcDbSpline
62
7
6
CONTINUOUS
70
0
71
3
72
10
73
6
74
4
42
0.0000001000
43
0.0000001000
44
0.0000000001
40
0.0000000000
40
0.0000000000
40
0.0000000000
40
0.0000000000
40
0.1827364318
40
0.5640769848
40
1.0000000000
40
1.0000000000
40
1.0000000000
40
1.0000000000
10
272.8995936382
20
181.8574686661
30
0.0000000000
10
272.9139110716
20
181.8636026131
30
0.0000000000
10
272.9510324288
20
181.8782161233
30
0.0000000000
10
273.0365091574
20
181.9128243065
30
0.0000000000
10
273.1011860558
20
181.9368540361
30
0.0000000000
10
273.1361905505
20
181.9496377186
30
0.0000000000
11
272.8995936382
21
181.8574686661
31
0.0000000000
11
272.9391267866
21
181.8735859995
31
0.0000000000
11
273.0307158031
21
181.9100090581
31
0.0000000000
11
273.1361905505
21
181.9496377186
31
0.0000000000
0
SPLINE
5
33A
100
AcDbEntity
8
0
100
AcDbSpline
62
7
6
CONTINUOUS
70
0
71
3
72
9
73
5
74
3
42
0.0000001000
43
0.0000001000
44
0.0000000001
40
0.0000000000
40
0.0000000000
40
0.0000000000
40
0.0000000000
40
0.8768132162
40
1.0000000000
40
1.0000000000
40
1.0000000000
40
1.0000000000
10
273.1361905505
20
181.9496377186
30
0.0000000000
10
273.1745950766
20
181.9636630966
30
0.0000000000
10
273.2190902003
20
181.9796128025
30
0.0000000000
10
273.2635129174
20
181.9951619350
30
0.0000000000
10
273.2689845996
20
181.9970716908
30
0.0000000000
11
273.1361905505
21
181.9496377186
31
0.0000000000
11
273.2525672353
21
181.9913249611
31
0.0000000000
11
273.2689845996
21
181.9970716908
31
0.0000000000
0
SPLINE
5
33B
100
AcDbEntity
8
0
100
AcDbSpline
62
7
6
CONTINUOUS
70
0
71
3
72
8
73
4
74
2
42
0.0000001000
43
0.0000001000
44
0.0000000001
40
0.0000000000
40
0.0000000000
40
0.0000000000
40
0.0000000000
40
1.0000000000
40
1.0000000000
40
1.0000000000
40
1.0000000000
10
272.1304805411
20
181.3868049437
30
0.0000000000
10
272.1666962329
20
181.3910033302
30
0.0000000000
10
272.2027858409
20
181.3962472583
30
0.0000000000
10
272.2387028772
20
181.4024483583
30
0.0000000000
11
272.1304805411
21
181.3868049437
31
0.0000000000
11
272.2387028772
21
181.4024483583
31
0.0000000000
0
SPLINE
5
33C
100
AcDbEntity
8
0
100
AcDbSpline
62
7
6
CONTINUOUS
70
0
71
3
72
10
73
6
74
4
42
0.0000001000
43
0.0000001000
44
0.0000000001
40
0.0000000000
40
0.0000000000
40
0.0000000000
40
0.0000000000
40
0.4021798588
40
0.8010484886
40
1.0000000000
40
1.0000000000
40
1.0000000000
40
1.0000000000
10
272.2387028772
20
181.4024483583
30
0.0000000000
10
272.3147338881
20
181.4155751624
30
0.0000000000
10
272.4646296901
20
181.4502636665
30
0.0000000000
10
272.6475936583
20
181.5080598428
30
0.0000000000
10
272.7556154494
20
181.5464845394
30
0.0000000000
10
272.7914365614
20
181.5596220228
30
0.0000000000
11
272.2387028772
21
181.4024483583
31
0.0000000000
11
272.4644092018
21
181.4533333577
31
0.0000000000
11
272.6835668662
21
181.5213383929
31
0.0000000000
11
272.7914365614
21
181.5596220228
31
0.0000000000
0
SPLINE
5
33D
100
AcDbEntity
8
0
100
AcDbSpline
62
7
6
CONTINUOUS
70
0
71
3
72
8
73
4
74
2
42
0.0000001000
43
0.0000001000
44
0.0000000001
40
0.0000000000
40
0.0000000000
40
0.0000000000
40
0.0000000000
40
1.0000000000
40
1.0000000000
40
1.0000000000
40
1.0000000000
10
272.7914365614
20
181.5596220228
30
0.0000000000
10
272.8339269800
20
181.5752054913
30
0.0000000000
10
272.8762373095
20
181.5912813354
30
0.0000000000
10
272.9184049061
20
181.6077176999
30
0.0000000000
11
272.7914365614
21
181.5596220228
31
0.0000000000
11
272.9184049061
21
181.6077176999
31
0.0000000000
0
SPLINE
5
33E
100
AcDbEntity
8
0
100
AcDbSpline
62
7
6
CONTINUOUS
70
0
71
3
72
8
73
4
74
2
42
0.0000001000
43
0.0000001000
44
0.0000000001
40
0.0000000000
40
0.0000000000
40
0.0000000000
40
0.0000000000
40
1.0000000000
40
1.0000000000
40
1.0000000000
40
1.0000000000
10
273.3596052563
20
181.7919400924
30
0.0000000000
10
273.3937236674
20
181.8069374776
30
0.0000000000
10
273.4277902464
20
181.8220528806
30
0.0000000000
10
273.4618118071
20
181.8372683976
30
0.0000000000
11
273.3596052563
21
181.7919400924
31
0.0000000000
11
273.4618118071
21
181.8372683976
31
0.0000000000
0
SPLINE
5
33F
100
AcDbEntity
8
0
100
AcDbSpline
62
7
6
CONTINUOUS
70
0
71
3
72
9
73
5
74
3
42
0.0000001000
43
0.0000001000
44
0.0000000001
40
0.0000000000
40
0.0000000000
40
0.0000000000
40
0.0000000000
40
0.6553016960
40
1.0000000000
40
1.0000000000
40
1.0000000000
40
1.0000000000
10
273.4618118071
20
181.8372683976
30
0.0000000000
10
273.5650864267
20
181.8834560706
30
0.0000000000
10
273.7220519765
20
181.9553469067
30
0.0000000000
10
273.8783247495
20
182.0287218055
30
0.0000000000
10
273.9321186576
20
182.0541682847
30
0.0000000000
11
273.4618118071
21
181.8372683976
31
0.0000000000
11
273.7705085163
21
181.9783137309
31
0.0000000000
11
273.9321186576
21
182.0541682847
31
0.0000000000
0
SPLINE
5
340
100
AcDbEntity
8
0
100
AcDbSpline
62
7
6
CONTINUOUS
70
0
71
3
72
8
73
4
74
2
42
0.0000001000
43
0.0000001000
44
0.0000000001
40
0.0000000000
40
0.0000000000
40
0.0000000000
40
0.0000000000
40
1.0000000000
40
1.0000000000
40
1.0000000000
40
1.0000000000
10
273.9321186576
20
182.0541682847
30
0.0000000000
10
273.9472134604
20
182.0613086766
30
0.0000000000
10
273.9623025111
20
182.0684612160
30
0.0000000000
10
273.9773860145
20
182.0756254156
30
0.0000000000
11
273.9321186576
21
182.0541682847
31
0.0000000000
11
273.9773860145
21
182.0756254156
31
0.0000000000
0
SPLINE
5
341
100
AcDbEntity
8
0
100
AcDbSpline
62
7
6
CONTINUOUS
70
0
71
3
72
12
73
8
74
6
42
0.0000001000
43
0.0000001000
44
0.0000000001
40
0.0000000000
40
0.0000000000
40
0.0000000000
40
0.0000000000
40
0.1814642032
40
0.3695368979
40
0.5689824625
40
0.7802836193
40
1.0000000000
40
1.0000000000
40
1.0000000000
40
1.0000000000
10
274.2306435450
20
182.2046535618
30
0.0000000000
10
274.3898959923
20
182.2046535618
30
0.0000000000
10
274.7169991222
20
182.2648196193
30
0.0000000000
10
275.1542126650
20
182.5240776010
30
0.0000000000
10
275.5065699571
20
182.9243151421
30
0.0000000000
10
275.7484026179
20
183.4285610301
30
0.0000000000
10
275.8244827876
20
183.8034578134
30
0.0000000000
10
275.8407052548
20
183.9955966353
30
0.0000000000
11
274.2306435450
21
182.2046535618
31
0.0000000000
11
274.7007452867
21
182.2898382450
31
0.0000000000
11
275.1290444514
21
182.5383124051
31
0.0000000000
11
275.4797562234
21
182.9291188775
31
0.0000000000
11
275.7237251414
21
183.4290808713
31
0.0000000000
11
275.8407052548
21
183.9955966353
31
0.0000000000
0
SPLINE
5
342
100
AcDbEntity
8
0
100
AcDbSpline
62
7
6
CONTINUOUS
70
0
71
3
72
12
73
8
74
6
42
0.0000001000
43
0.0000001000
44
0.0000000001
40
0.0000000000
40
0.0000000000
40
0.0000000000
40
0.0000000000
40
0.0618880632
40
0.2018516597
40
0.4166326924
40
0.6901237857
40
1.0000000000
40
1.0000000000
40
1.0000000000
40
1.0000000000
10
263.0422945507
20
182.2046535618
30
0.0000000000
10
263.0044273127
20
182.2046535618
30
0.0000000000
10
262.9356957686
20
182.3480157610
30
0.0000000000
10
262.8867042106
20
182.5718902310
30
0.0000000000
10
262.8300803277
20
182.9656194872
30
0.0000000000
10
262.7951622506
20
183.4478417168
30
0.0000000000
10
262.7830552967
20
183.8060118821
30
0.0000000000
10
262.7804319679
20
183.9955966353
30
0.0000000000
11
263.0422945507
21
182.2046535618
31
0.0000000000
11
262.9665107213
21
182.2892831114
31
0.0000000000
11
262.8970182217
21
182.5366233869
31
0.0000000000
11
262.8397540986
21
182.9266944958
31
0.0000000000
11
262.7997024357
21
183.4271144514
31
0.0000000000
11
262.7804319679
21
183.9955966353
31
0.0000000000
0
SPLINE
5
343
100
AcDbEntity
8
0
100
AcDbSpline
62
7
6
CONTINUOUS
70
0
71
3
72
12
73
8
74
6
42
0.0000001000
43
0.0000001000
44
0.0000000001
40
0.0000000000
40
0.0000000000
40
0.0000000000
40
0.0000000000
40
0.1814642032
40
0.3695368979
40
0.5689824625
40
0.7802836193
40
1.0000000000
40
1.0000000000
40
1.0000000000
40
1.0000000000
10
316.5236164409
20
195.2046535618
30
0.0000000000
10
316.3643639935
20
195.2046535618
30
0.0000000000
10
316.0372608636
20
195.1444875043
30
0.0000000000
10
315.6000473208
20
194.8852295226
30
0.0000000000
10
315.2476900287
20
194.4849919815
30
0.0000000000
10
315.0058573679
20
193.9807460935
30
0.0000000000
10
314.9297771983
20
193.6058493102
30
0.0000000000
10
314.9135547310
20
193.4137104883
30
0.0000000000
11
316.5236164409
21
195.2046535618
31
0.0000000000
11
316.0535146992
21
195.1194688786
31
0.0000000000
11
315.6252155344
21
194.8709947185
31
0.0000000000
11
315.2745037624
21
194.4801882461
31
0.0000000000
11
315.0305348444
21
193.9802262523
31
0.0000000000
11
314.9135547310
21
193.4137104883
31
0.0000000000
0
SPLINE
5
344
100
AcDbEntity
8
0
100
AcDbSpline
62
7
6
CONTINUOUS
70
0
71
3
72
10
73
6
74
4
42
0.0000001000
43
0.0000001000
44
0.0000000001
40
0.0000000000
40
0.0000000000
40
0.0000000000
40
0.0000000000
40
0.3323570494
40
0.6656890961
40
1.0000000000
40
1.0000000000
40
1.0000000000
40
1.0000000000
10
275.8407052548
20
183.9955966353
30
0.0000000000
10
275.8847519967
20
184.5172860268
30
0.0000000000
10
275.9729217470
20
185.5621997006
30
0.0000000000
10
276.1052116601
20
187.1318853109
30
0.0000000000
10
276.1934276619
20
188.1798838077
30
0.0000000000
10
276.2375735783
20
188.7046535618
30
0.0000000000
11
275.8407052548
21
183.9955966353
31
0.0000000000
11
275.9727662377
21
185.5606714983
31
0.0000000000
11
276.1050556386
21
187.1303510474
31
0.0000000000
11
276.2375735783
21
188.7046535618
31
0.0000000000
0
SPLINE
5
345
100
AcDbEntity
8
0
100
AcDbSpline
62
7
6
CONTINUOUS
70
0
71
3
72
12
73
8
74
6
42
0.0000001000
43
0.0000001000
44
0.0000000001
40
0.0000000000
40
0.0000000000
40
0.0000000000
40
0.0000000000
40
0.0618880632
40
0.2018516597
40
0.4166326924
40
0.6901237857
40
1.0000000000
40
1.0000000000
40
1.0000000000
40
1.0000000000
10
327.7119654351
20
195.2046535618
30
0.0000000000
10
327.7498326732
20
195.2046535618
30
0.0000000000
10
327.8185642172
20
195.0612913626
30
0.0000000000
10
327.8675557752
20
194.8374168926
30
0.0000000000
10
327.9241796581
20
194.4436876364
30
0.0000000000
10
327.9590977353
20
193.9614654068
30
0.0000000000
10
327.9712046892
20
193.6032952415
30
0.0000000000
10
327.9738280180
20
193.4137104883
30
0.0000000000
11
327.7119654351
21
195.2046535618
31
0.0000000000
11
327.7877492645
21
195.1200240122
31
0.0000000000
11
327.8572417641
21
194.8726837367
31
0.0000000000
11
327.9145058873
21
194.4826126278
31
0.0000000000
11
327.9545575501
21
193.9821926722
31
0.0000000000
11
327.9738280180
21
193.4137104883
31
0.0000000000
0
SPLINE
5
346
100
AcDbEntity
8
0
100
AcDbSpline
62
7
6
CONTINUOUS
70
0
71
3
72
10
73
6
74
4
42
0.0000001000
43
0.0000001000
44
0.0000000001
40
0.0000000000
40
0.0000000000
40
0.0000000000
40
0.0000000000
40
0.3343233658
40
0.6676553538
40
1.0000000000
40
1.0000000000
40
1.0000000000
40
1.0000000000
10
276.2375735783
20
188.7046535618
30
0.0000000000
10
276.1934260163
20
189.2294428774
30
0.0000000000
10
276.1052083736
20
190.2774608435
30
0.0000000000
10
275.9729184546
20
191.8471464532
30
0.0000000000
10
275.8847503529
20
192.8920405658
30
0.0000000000
10
275.8407052548
20
193.4137104883
30
0.0000000000
11
276.2375735783
21
188.7046535618
31
0.0000000000
11
276.1050506958
21
190.2790147602
31
0.0000000000
11
275.9727613123
21
191.8486940328
31
0.0000000000
11
275.8407052548
21
193.4137104883
31
0.0000000000
0
SPLINE
5
347
100
AcDbEntity
8
0
100
AcDbSpline
62
7
6
CONTINUOUS
70
0
71
3
72
10
73
6
74
4
42
0.0000001000
43
0.0000001000
44
0.0000000001
40
0.0000000000
40
0.0000000000
40
0.0000000000
40
0.0000000000
40
0.3343233665
40
0.6676553535
40
1.0000000000
40
1.0000000000
40
1.0000000000
40
1.0000000000
10
314.5166864075
20
188.7046535618
30
0.0000000000
10
314.5608339696
20
189.2294428786
30
0.0000000000
10
314.6490516122
20
190.2774608441
30
0.0000000000
10
314.7813415313
20
191.8471464538
30
0.0000000000
10
314.8695096328
20
192.8920405652
30
0.0000000000
10
314.9135547310
20
193.4137104883
30
0.0000000000
11
314.5166864075
21
188.7046535618
31
0.0000000000
11
314.6492092903
21
190.2790147637
31
0.0000000000
11
314.7814986734
21
191.8486940310
31
0.0000000000
11
314.9135547310
21
193.4137104883
31
0.0000000000
0
SPLINE
5
348
100
AcDbEntity
8
0
100
AcDbSpline
62
7
6
CONTINUOUS
70
0
71
3
72
12
73
8
74
6
42
0.0000001000
43
0.0000001000
44
0.0000000001
40
0.0000000000
40
0.0000000000
40
0.0000000000
40
0.0000000000
40
0.1814642032
40
0.3695368979
40
0.5689824625
40
0.7802836193
40
1.0000000000
40
1.0000000000
40
1.0000000000
40
1.0000000000
10
316.5236164409
20
182.2046535618
30
0.0000000000
10
316.3643639935
20
182.2046535618
30
0.0000000000
10
316.0372608636
20
182.2648196193
30
0.0000000000
10
315.6000473208
20
182.5240776010
30
0.0000000000
10
315.2476900287
20
182.9243151421
30
0.0000000000
10
315.0058573679
20
183.4285610301
30
0.0000000000
10
314.9297771983
20
183.8034578134
30
0.0000000000
10
314.9135547310
20
183.9955966353
30
0.0000000000
11
316.5236164409
21
182.2046535618
31
0.0000000000
11
316.0535146992
21
182.2898382450
31
0.0000000000
11
315.6252155344
21
182.5383124051
31
0.0000000000
11
315.2745037624
21
182.9291188775
31
0.0000000000
11
315.0305348444
21
183.4290808713
31
0.0000000000
11
314.9135547310
21
183.9955966353
31
0.0000000000
0
SPLINE
5
349
100
AcDbEntity
8
0
100
AcDbSpline
62
7
6
CONTINUOUS
70
0
71
3
72
10
73
6
74
4
42
0.0000001000
43
0.0000001000
44
0.0000000001
40
0.0000000000
40
0.0000000000
40
0.0000000000
40
0.0000000000
40
0.3323570498
40
0.6656890954
40
1.0000000000
40
1.0000000000
40
1.0000000000
40
1.0000000000
10
314.9135547310
20
183.9955966353
30
0.0000000000
10
314.8695079890
20
184.5172860274
30
0.0000000000
10
314.7813382389
20
185.5621997001
30
0.0000000000
10
314.6490483258
20
187.1318853103
30
0.0000000000
10
314.5608323240
20
188.1798838065
30
0.0000000000
10
314.5166864075
20
188.7046535618
30
0.0000000000
11
314.9135547310
21
183.9955966353
31
0.0000000000
11
314.7814937479
21
185.5606715001
31
0.0000000000
11
314.6492043475
21
187.1303510439
31
0.0000000000
11
314.5166864075
21
188.7046535618
31
0.0000000000
0
SPLINE
5
34A
100
AcDbEntity
8
0
100
AcDbSpline
62
7
6
CONTINUOUS
70
0
71
3
72
12
73
8
74
6
42
0.0000001000
43
0.0000001000
44
0.0000000001
40
0.0000000000
40
0.0000000000
40
0.0000000000
40
0.0000000000
40
0.0618880632
40
0.2018516597
40
0.4166326924
40
0.6901237857
40
1.0000000000
40
1.0000000000
40
1.0000000000
40
1.0000000000
10
327.7119654351
20
182.2046535618
30
0.0000000000
10
327.7498326732
20
182.2046535618
30
0.0000000000
10
327.8185642172
20
182.3480157610
30
0.0000000000
10
327.8675557752
20
182.5718902310
30
0.0000000000
10
327.9241796581
20
182.9656194872
30
0.0000000000
10
327.9590977353
20
183.4478417168
30
0.0000000000
10
327.9712046892
20
183.8060118821
30
0.0000000000
10
327.9738280180
20
183.9955966353
30
0.0000000000
11
327.7119654351
21
182.2046535618
31
0.0000000000
11
327.7877492645
21
182.2892831114
31
0.0000000000
11
327.8572417641
21
182.5366233869
31
0.0000000000
11
327.9145058873
21
182.9266944958
31
0.0000000000
11
327.9545575501
21
183.4271144514
31
0.0000000000
11
327.9738280180
21
183.9955966353
31
0.0000000000
0
SPLINE
5
34B
100
AcDbEntity
8
0
100
AcDbSpline
62
7
6
CONTINUOUS
70
0
71
3
72
12
73
8
74
6
42
0.0000001000
43
0.0000001000
44
0.0000000001
40
0.0000000000
40
0.0000000000
40
0.0000000000
40
0.0000000000
40
0.0618880632
40
0.2018516597
40
0.4166326924
40
0.6901237857
40
1.0000000000
40
1.0000000000
40
1.0000000000
40
1.0000000000
10
263.0422945507
20
195.2046535618
30
0.0000000000
10
263.0044273127
20
195.2046535618
30
0.0000000000
10
262.9356957686
20
195.0612913626
30
0.0000000000
10
262.8867042106
20
194.8374168926
30
0.0000000000
10
262.8300803277
20
194.4436876364
30
0.0000000000
10
262.7951622506
20
193.9614654068
30
0.0000000000
10
262.7830552967
20
193.6032952415
30
0.0000000000
10
262.7804319679
20
193.4137104883
30
0.0000000000
11
263.0422945507
21
195.2046535618
31
0.0000000000
11
262.9665107213
21
195.1200240122
31
0.0000000000
11
262.8970182217
21
194.8726837367
31
0.0000000000
11
262.8397540986
21
194.4826126278
31
0.0000000000
11
262.7997024357
21
193.9821926722
31
0.0000000000
11
262.7804319679
21
193.4137104883
31
0.0000000000
0
SPLINE
5
34C
100
AcDbEntity
8
0
100
AcDbSpline
62
7
6
CONTINUOUS
70
0
71
3
72
12
73
8
74
6
42
0.0000001000
43
0.0000001000
44
0.0000000001
40
0.0000000000
40
0.0000000000
40
0.0000000000
40
0.0000000000
40
0.1814642032
40
0.3695368979
40
0.5689824625
40
0.7802836193
40
1.0000000000
40
1.0000000000
40
1.0000000000
40
1.0000000000
10
274.2306435450
20
195.2046535618
30
0.0000000000
10
274.3898959923
20
195.2046535618
30
0.0000000000
10
274.7169991222
20
195.1444875043
30
0.0000000000
10
275.1542126650
20
194.8852295226
30
0.0000000000
10
275.5065699571
20
194.4849919815
30
0.0000000000
10
275.7484026179
20
193.9807460935
30
0.0000000000
10
275.8244827876
20
193.6058493102
30
0.0000000000
10
275.8407052548
20
193.4137104883
30
0.0000000000
11
274.2306435450
21
195.2046535618
31
0.0000000000
11
274.7007452867
21
195.1194688786
31
0.0000000000
11
275.1290444514
21
194.8709947185
31
0.0000000000
11
275.4797562234
21
194.4801882461
31
0.0000000000
11
275.7237251414
21
193.9802262523
31
0.0000000000
11
275.8407052548
21
193.4137104883
31
0.0000000000
0
SPLINE
5
34D
100
AcDbEntity
8
0
100
AcDbSpline
62
7
6
CONTINUOUS
70
0
71
3
72
9
73
5
74
3
42
0.0000001000
43
0.0000001000
44
0.0000000001
40
0.0000000000
40
0.0000000000
40
0.0000000000
40
0.0000000000
40
0.5848630897
40
1.0000000000
40
1.0000000000
40
1.0000000000
40
1.0000000000
10
272.9184049061
20
181.6077176999
30
0.0000000000
10
273.0052468330
20
181.6415675201
30
0.0000000000
10
273.1526942478
20
181.7020584344
30
0.0000000000
10
273.2989728179
20
181.7652883138
30
0.0000000000
10
273.3595351227
20
181.7919092641
30
0.0000000000
11
272.9184049061
21
181.6077176999
31
0.0000000000
11
273.1773201135
21
181.7132622298
31
0.0000000000
11
273.3595351227
21
181.7919092641
31
0.0000000000
0
ENDSEC
0
SECTION
2
OBJECTS
0
DICTIONARY
5
34E
100
AcDbDictionary
3
ACAD_GROUP
350
34F
3
ACAD_MLINESTYLE
350
350
0
DICTIONARY
5
34F
102
{ACAD_REACTORS
330
34E
102
}
100
AcDbDictionary
0
DICTIONARY
5
350
102
{ACAD_REACTORS
330
34E
102
}
100
AcDbDictionary
3
STANDARD
350
351
0
MLINESTYLE
5
351
102
{ACAD_REACTORS
330
350
102
}
100
AcDbMlineStyle
2
STANDARD
70
0
3

62
256
51
90.0
52
90.0
71
2
49
0.5
62
256
6
BYLAYER
49
-0.5
62
256
6
BYLAYER
0
ENDSEC
0
EOF
