ISO-10303-21;
HEADER;
FILE_DESCRIPTION((''),'2;1');
FILE_NAME('001-M33857-005_ASM','2011-05-03T',('Roland.Jakubetz'),(''),
'PRO/ENGINEER BY PARAMETRIC TECHNOLOGY CORPORATION, 2010140',
'PRO/ENGINEER BY PARAMETRIC TECHNOLOGY CORPORATION, 2010140','');
FILE_SCHEMA(('CONFIG_CONTROL_DESIGN'));
ENDSEC;
DATA;
#1=DIRECTION('',(-1.E0,0.E0,0.E0));
#2=VECTOR('',#1,4.76E1);
#3=CARTESIAN_POINT('',(2.38E1,0.E0,-1.82E1));
#4=LINE('',#3,#2);
#5=CARTESIAN_POINT('',(2.38E1,0.E0,3.22E1));
#6=DIRECTION('',(1.E0,0.E0,0.E0));
#7=DIRECTION('',(0.E0,0.E0,-1.E0));
#8=AXIS2_PLACEMENT_3D('',#5,#6,#7);
#10=CARTESIAN_POINT('',(2.38E1,0.E0,0.E0));
#11=DIRECTION('',(0.E0,1.E0,0.E0));
#12=DIRECTION('',(0.E0,0.E0,1.E0));
#13=AXIS2_PLACEMENT_3D('',#10,#11,#12);
#15=CARTESIAN_POINT('',(2.38E1,0.E0,-3.22E1));
#16=DIRECTION('',(-1.E0,0.E0,0.E0));
#17=DIRECTION('',(0.E0,0.E0,1.E0));
#18=AXIS2_PLACEMENT_3D('',#15,#16,#17);
#20=CARTESIAN_POINT('',(-2.38E1,0.E0,3.22E1));
#21=DIRECTION('',(1.E0,0.E0,0.E0));
#22=DIRECTION('',(0.E0,0.E0,-1.E0));
#23=AXIS2_PLACEMENT_3D('',#20,#21,#22);
#25=DIRECTION('',(1.E0,0.E0,0.E0));
#26=VECTOR('',#25,4.76E1);
#27=CARTESIAN_POINT('',(-2.38E1,0.E0,1.82E1));
#28=LINE('',#27,#26);
#29=CARTESIAN_POINT('',(-2.38E1,0.E0,-3.22E1));
#30=DIRECTION('',(-1.E0,0.E0,0.E0));
#31=DIRECTION('',(0.E0,0.E0,1.E0));
#32=AXIS2_PLACEMENT_3D('',#29,#30,#31);
#34=CARTESIAN_POINT('',(-2.38E1,0.E0,0.E0));
#35=DIRECTION('',(0.E0,1.E0,0.E0));
#36=DIRECTION('',(0.E0,0.E0,-1.E0));
#37=AXIS2_PLACEMENT_3D('',#34,#35,#36);
#39=CARTESIAN_POINT('',(-2.38E1,0.E0,-3.22E1));
#40=DIRECTION('',(-1.E0,0.E0,0.E0));
#41=DIRECTION('',(0.E0,0.E0,-1.E0));
#42=AXIS2_PLACEMENT_3D('',#39,#40,#41);
#44=CARTESIAN_POINT('',(-2.38E1,0.E0,0.E0));
#45=DIRECTION('',(0.E0,1.E0,0.E0));
#46=DIRECTION('',(0.E0,0.E0,-1.E0));
#47=AXIS2_PLACEMENT_3D('',#44,#45,#46);
#49=DIRECTION('',(-1.E0,0.E0,0.E0));
#50=VECTOR('',#49,4.76E1);
#51=CARTESIAN_POINT('',(2.38E1,0.E0,-4.62E1));
#52=LINE('',#51,#50);
#53=CARTESIAN_POINT('',(2.38E1,0.E0,3.22E1));
#54=DIRECTION('',(1.E0,0.E0,0.E0));
#55=DIRECTION('',(0.E0,0.E0,1.E0));
#56=AXIS2_PLACEMENT_3D('',#53,#54,#55);
#58=CARTESIAN_POINT('',(2.38E1,0.E0,0.E0));
#59=DIRECTION('',(0.E0,1.E0,0.E0));
#60=DIRECTION('',(0.E0,0.E0,1.E0));
#61=AXIS2_PLACEMENT_3D('',#58,#59,#60);
#63=CARTESIAN_POINT('',(2.38E1,0.E0,-3.22E1));
#64=DIRECTION('',(-1.E0,0.E0,0.E0));
#65=DIRECTION('',(0.E0,0.E0,-1.E0));
#66=AXIS2_PLACEMENT_3D('',#63,#64,#65);
#68=CARTESIAN_POINT('',(-2.38E1,0.E0,3.22E1));
#69=DIRECTION('',(1.E0,0.E0,0.E0));
#70=DIRECTION('',(0.E0,0.E0,1.E0));
#71=AXIS2_PLACEMENT_3D('',#68,#69,#70);
#73=DIRECTION('',(1.E0,0.E0,0.E0));
#74=VECTOR('',#73,4.76E1);
#75=CARTESIAN_POINT('',(-2.38E1,0.E0,4.62E1));
#76=LINE('',#75,#74);
#77=CARTESIAN_POINT('',(2.38E1,0.E0,-1.82E1));
#78=CARTESIAN_POINT('',(2.38E1,0.E0,-4.62E1));
#79=VERTEX_POINT('',#77);
#80=VERTEX_POINT('',#78);
#81=CARTESIAN_POINT('',(-2.38E1,0.E0,-1.82E1));
#82=CARTESIAN_POINT('',(-2.38E1,0.E0,-4.62E1));
#83=VERTEX_POINT('',#81);
#84=VERTEX_POINT('',#82);
#85=CARTESIAN_POINT('',(-2.38E1,0.E0,1.82E1));
#86=CARTESIAN_POINT('',(-2.38E1,0.E0,4.62E1));
#87=VERTEX_POINT('',#85);
#88=VERTEX_POINT('',#86);
#89=CARTESIAN_POINT('',(2.38E1,0.E0,1.82E1));
#90=CARTESIAN_POINT('',(2.38E1,0.E0,4.62E1));
#91=VERTEX_POINT('',#89);
#92=VERTEX_POINT('',#90);
#93=CARTESIAN_POINT('',(2.38E1,0.E0,-3.22E1));
#94=DIRECTION('',(-1.E0,0.E0,0.E0));
#95=DIRECTION('',(0.E0,0.E0,1.E0));
#96=AXIS2_PLACEMENT_3D('',#93,#94,#95);
#97=CYLINDRICAL_SURFACE('',#96,1.4E1);
#99=ORIENTED_EDGE('',*,*,#98,.F.);
#101=ORIENTED_EDGE('',*,*,#100,.T.);
#103=ORIENTED_EDGE('',*,*,#102,.T.);
#105=ORIENTED_EDGE('',*,*,#104,.F.);
#106=EDGE_LOOP('',(#99,#101,#103,#105));
#107=FACE_OUTER_BOUND('',#106,.F.);
#108=ADVANCED_FACE('',(#107),#97,.T.);
#109=CARTESIAN_POINT('',(2.38E1,0.E0,0.E0));
#110=DIRECTION('',(0.E0,1.E0,0.E0));
#111=DIRECTION('',(0.E0,0.E0,-1.E0));
#112=AXIS2_PLACEMENT_3D('',#109,#110,#111);
#113=TOROIDAL_SURFACE('',#112,3.22E1,1.4E1);
#115=ORIENTED_EDGE('',*,*,#114,.F.);
#117=ORIENTED_EDGE('',*,*,#116,.T.);
#118=ORIENTED_EDGE('',*,*,#98,.T.);
#120=ORIENTED_EDGE('',*,*,#119,.F.);
#121=EDGE_LOOP('',(#115,#117,#118,#120));
#122=FACE_OUTER_BOUND('',#121,.F.);
#123=ADVANCED_FACE('',(#122),#113,.T.);
#124=CARTESIAN_POINT('',(-2.38E1,0.E0,3.22E1));
#125=DIRECTION('',(1.E0,0.E0,0.E0));
#126=DIRECTION('',(0.E0,0.E0,-1.E0));
#127=AXIS2_PLACEMENT_3D('',#124,#125,#126);
#128=CYLINDRICAL_SURFACE('',#127,1.4E1);
#130=ORIENTED_EDGE('',*,*,#129,.F.);
#132=ORIENTED_EDGE('',*,*,#131,.T.);
#133=ORIENTED_EDGE('',*,*,#114,.T.);
#135=ORIENTED_EDGE('',*,*,#134,.F.);
#136=EDGE_LOOP('',(#130,#132,#133,#135));
#137=FACE_OUTER_BOUND('',#136,.F.);
#138=ADVANCED_FACE('',(#137),#128,.T.);
#139=CARTESIAN_POINT('',(-2.38E1,0.E0,0.E0));
#140=DIRECTION('',(0.E0,1.E0,0.E0));
#141=DIRECTION('',(0.E0,0.E0,1.E0));
#142=AXIS2_PLACEMENT_3D('',#139,#140,#141);
#143=TOROIDAL_SURFACE('',#142,3.22E1,1.4E1);
#144=ORIENTED_EDGE('',*,*,#102,.F.);
#146=ORIENTED_EDGE('',*,*,#145,.T.);
#147=ORIENTED_EDGE('',*,*,#129,.T.);
#149=ORIENTED_EDGE('',*,*,#148,.F.);
#150=EDGE_LOOP('',(#144,#146,#147,#149));
#151=FACE_OUTER_BOUND('',#150,.F.);
#152=ADVANCED_FACE('',(#151),#143,.T.);
#153=CARTESIAN_POINT('',(-2.38E1,0.E0,0.E0));
#154=DIRECTION('',(0.E0,1.E0,0.E0));
#155=DIRECTION('',(0.E0,0.E0,1.E0));
#156=AXIS2_PLACEMENT_3D('',#153,#154,#155);
#157=TOROIDAL_SURFACE('',#156,3.22E1,1.4E1);
#159=ORIENTED_EDGE('',*,*,#158,.F.);
#160=ORIENTED_EDGE('',*,*,#148,.T.);
#162=ORIENTED_EDGE('',*,*,#161,.T.);
#163=ORIENTED_EDGE('',*,*,#145,.F.);
#164=EDGE_LOOP('',(#159,#160,#162,#163));
#165=FACE_OUTER_BOUND('',#164,.F.);
#166=ADVANCED_FACE('',(#165),#157,.T.);
#167=CARTESIAN_POINT('',(2.38E1,0.E0,-3.22E1));
#168=DIRECTION('',(-1.E0,0.E0,0.E0));
#169=DIRECTION('',(0.E0,0.E0,1.E0));
#170=AXIS2_PLACEMENT_3D('',#167,#168,#169);
#171=CYLINDRICAL_SURFACE('',#170,1.4E1);
#173=ORIENTED_EDGE('',*,*,#172,.F.);
#174=ORIENTED_EDGE('',*,*,#104,.T.);
#175=ORIENTED_EDGE('',*,*,#158,.T.);
#176=ORIENTED_EDGE('',*,*,#100,.F.);
#177=EDGE_LOOP('',(#173,#174,#175,#176));
#178=FACE_OUTER_BOUND('',#177,.F.);
#179=ADVANCED_FACE('',(#178),#171,.T.);
#180=CARTESIAN_POINT('',(2.38E1,0.E0,0.E0));
#181=DIRECTION('',(0.E0,1.E0,0.E0));
#182=DIRECTION('',(0.E0,0.E0,-1.E0));
#183=AXIS2_PLACEMENT_3D('',#180,#181,#182);
#184=TOROIDAL_SURFACE('',#183,3.22E1,1.4E1);
#186=ORIENTED_EDGE('',*,*,#185,.F.);
#187=ORIENTED_EDGE('',*,*,#119,.T.);
#188=ORIENTED_EDGE('',*,*,#172,.T.);
#189=ORIENTED_EDGE('',*,*,#116,.F.);
#190=EDGE_LOOP('',(#186,#187,#188,#189));
#191=FACE_OUTER_BOUND('',#190,.F.);
#192=ADVANCED_FACE('',(#191),#184,.T.);
#193=CARTESIAN_POINT('',(-2.38E1,0.E0,3.22E1));
#194=DIRECTION('',(1.E0,0.E0,0.E0));
#195=DIRECTION('',(0.E0,0.E0,-1.E0));
#196=AXIS2_PLACEMENT_3D('',#193,#194,#195);
#197=CYLINDRICAL_SURFACE('',#196,1.4E1);
#198=ORIENTED_EDGE('',*,*,#161,.F.);
#199=ORIENTED_EDGE('',*,*,#134,.T.);
#200=ORIENTED_EDGE('',*,*,#185,.T.);
#201=ORIENTED_EDGE('',*,*,#131,.F.);
#202=EDGE_LOOP('',(#198,#199,#200,#201));
#203=FACE_OUTER_BOUND('',#202,.F.);
#204=ADVANCED_FACE('',(#203),#197,.T.);
#205=CLOSED_SHELL('',(#108,#123,#138,#152,#166,#179,#192,#204));
#206=MANIFOLD_SOLID_BREP('',#205);
#208=DIMENSIONAL_EXPONENTS(0.E0,0.E0,0.E0,0.E0,0.E0,0.E0,0.E0);
#210=PLANE_ANGLE_MEASURE_WITH_UNIT(PLANE_ANGLE_MEASURE(1.745329251994E-2),#209);
#211=(CONVERSION_BASED_UNIT('DEGREE',#210)NAMED_UNIT(#208)PLANE_ANGLE_UNIT());
#213=UNCERTAINTY_MEASURE_WITH_UNIT(LENGTH_MEASURE(1.E-2),#207,'closure',
'Maximum model space distance between geometric entities at asserted connectivities');
#214=(GEOMETRIC_REPRESENTATION_CONTEXT(3)GLOBAL_UNCERTAINTY_ASSIGNED_CONTEXT((
#213))GLOBAL_UNIT_ASSIGNED_CONTEXT((#207,#211,#212))REPRESENTATION_CONTEXT
('ID1','3'));
#215=CARTESIAN_POINT('',(0.E0,0.E0,0.E0));
#216=DIRECTION('',(0.E0,0.E0,1.E0));
#217=DIRECTION('',(1.E0,0.E0,0.E0));
#220=APPLICATION_CONTEXT(
'CONFIGURATION CONTROLLED 3D DESIGNS OF MECHANICAL PARTS AND ASSEMBLIES');
#221=APPLICATION_PROTOCOL_DEFINITION('international standard',
'config_control_design',1994,#220);
#222=DESIGN_CONTEXT('',#220,'design');
#223=MECHANICAL_CONTEXT('',#220,'mechanical');
#224=PRODUCT('001-M33857-001','001-M33857-001','NOT SPECIFIED',(#223));
#225=PRODUCT_DEFINITION_FORMATION_WITH_SPECIFIED_SOURCE('','LAST_VERSION',#224,
.MADE.);
#234=CARTESIAN_POINT('',(0.E0,0.E0,0.E0));
#235=DIRECTION('',(0.E0,1.E0,0.E0));
#236=DIRECTION('',(1.E0,0.E0,0.E0));
#237=AXIS2_PLACEMENT_3D('',#234,#235,#236);
#238=ITEM_DEFINED_TRANSFORMATION('','',#218,#237);
#239=(REPRESENTATION_RELATIONSHIP('','',#219,#231)REPRESENTATION_RELATIONSHIP_WITH_TRANSFORMATION(#238)SHAPE_REPRESENTATION_RELATIONSHIP());
#240=CONTEXT_DEPENDENT_SHAPE_REPRESENTATION(#239,#233);
#243=CARTESIAN_POINT('',(-8.4E1,0.E0,0.E0));
#244=DIRECTION('',(0.E0,0.E0,1.E0));
#245=DIRECTION('',(1.E0,0.E0,0.E0));
#246=AXIS2_PLACEMENT_3D('',#243,#244,#245);
#247=ITEM_DEFINED_TRANSFORMATION('','',#218,#246);
#248=(REPRESENTATION_RELATIONSHIP('','',#219,#231)REPRESENTATION_RELATIONSHIP_WITH_TRANSFORMATION(#247)SHAPE_REPRESENTATION_RELATIONSHIP());
#249=CONTEXT_DEPENDENT_SHAPE_REPRESENTATION(#248,#242);
#252=CARTESIAN_POINT('',(-1.68E2,0.E0,0.E0));
#253=DIRECTION('',(0.E0,1.E0,0.E0));
#254=DIRECTION('',(1.E0,0.E0,0.E0));
#255=AXIS2_PLACEMENT_3D('',#252,#253,#254);
#256=ITEM_DEFINED_TRANSFORMATION('','',#218,#255);
#257=(REPRESENTATION_RELATIONSHIP('','',#219,#231)REPRESENTATION_RELATIONSHIP_WITH_TRANSFORMATION(#256)SHAPE_REPRESENTATION_RELATIONSHIP());
#258=CONTEXT_DEPENDENT_SHAPE_REPRESENTATION(#257,#251);
#261=CARTESIAN_POINT('',(-2.52E2,0.E0,0.E0));
#262=DIRECTION('',(0.E0,0.E0,1.E0));
#263=DIRECTION('',(1.E0,0.E0,0.E0));
#264=AXIS2_PLACEMENT_3D('',#261,#262,#263);
#265=ITEM_DEFINED_TRANSFORMATION('','',#218,#264);
#266=(REPRESENTATION_RELATIONSHIP('','',#219,#231)REPRESENTATION_RELATIONSHIP_WITH_TRANSFORMATION(#265)SHAPE_REPRESENTATION_RELATIONSHIP());
#267=CONTEXT_DEPENDENT_SHAPE_REPRESENTATION(#266,#260);
#270=CARTESIAN_POINT('',(-3.36E2,0.E0,0.E0));
#271=DIRECTION('',(0.E0,1.E0,0.E0));
#272=DIRECTION('',(1.E0,0.E0,0.E0));
#273=AXIS2_PLACEMENT_3D('',#270,#271,#272);
#274=ITEM_DEFINED_TRANSFORMATION('','',#218,#273);
#275=(REPRESENTATION_RELATIONSHIP('','',#219,#231)REPRESENTATION_RELATIONSHIP_WITH_TRANSFORMATION(#274)SHAPE_REPRESENTATION_RELATIONSHIP());
#276=CONTEXT_DEPENDENT_SHAPE_REPRESENTATION(#275,#269);
#278=DIMENSIONAL_EXPONENTS(0.E0,0.E0,0.E0,0.E0,0.E0,0.E0,0.E0);
#280=PLANE_ANGLE_MEASURE_WITH_UNIT(PLANE_ANGLE_MEASURE(1.745329251994E-2),#279);
#281=(CONVERSION_BASED_UNIT('DEGREE',#280)NAMED_UNIT(#278)PLANE_ANGLE_UNIT());
#283=UNCERTAINTY_MEASURE_WITH_UNIT(LENGTH_MEASURE(1.E-2),#277,'closure',
'Maximum model space distance between geometric entities at asserted connectivities');
#284=(GEOMETRIC_REPRESENTATION_CONTEXT(3)GLOBAL_UNCERTAINTY_ASSIGNED_CONTEXT((
#283))GLOBAL_UNIT_ASSIGNED_CONTEXT((#277,#281,#282))REPRESENTATION_CONTEXT
('ID2','3'));
#285=CARTESIAN_POINT('',(0.E0,0.E0,0.E0));
#286=DIRECTION('',(0.E0,0.E0,1.E0));
#287=DIRECTION('',(1.E0,0.E0,0.E0));
#289=MECHANICAL_CONTEXT('',#220,'mechanical');
#290=PRODUCT('001-M33857-005_ASM','001-M33857-005_ASM','NOT SPECIFIED',(#289));
#291=PRODUCT_DEFINITION_FORMATION_WITH_SPECIFIED_SOURCE('','LAST_VERSION',#290,
.MADE.);
#293=PRODUCT_CATEGORY('part','');
#294=PRODUCT_RELATED_PRODUCT_CATEGORY('assembly','',(#290));
#295=PRODUCT_CATEGORY_RELATIONSHIP('','',#293,#294);
#296=PRODUCT_CATEGORY('part','');
#297=PRODUCT_RELATED_PRODUCT_CATEGORY('detail','',(#224));
#298=PRODUCT_CATEGORY_RELATIONSHIP('','',#296,#297);
#299=SECURITY_CLASSIFICATION_LEVEL('unclassified');
#300=SECURITY_CLASSIFICATION('','',#299);
#301=CC_DESIGN_SECURITY_CLASSIFICATION(#300,(#225,#291,#232,#241,#250,#259,
#268));
#302=APPROVAL_STATUS('approved');
#303=APPROVAL(#302,'');
#304=CC_DESIGN_APPROVAL(#303,(#300,#225,#291,#226,#292));
#305=CALENDAR_DATE(111,3,5);
#306=COORDINATED_UNIVERSAL_TIME_OFFSET(2,0,.AHEAD.);
#307=LOCAL_TIME(15,0,1.E1,#306);
#308=DATE_AND_TIME(#305,#307);
#309=APPROVAL_DATE_TIME(#308,#303);
#310=DATE_TIME_ROLE('creation_date');
#311=CC_DESIGN_DATE_AND_TIME_ASSIGNMENT(#308,#310,(#226,#292));
#312=DATE_TIME_ROLE('classification_date');
#313=CC_DESIGN_DATE_AND_TIME_ASSIGNMENT(#308,#312,(#300));
#314=PERSON('UNSPECIFIED','UNSPECIFIED',$,$,$,$);
#315=ORGANIZATION('UNSPECIFIED','UNSPECIFIED','UNSPECIFIED');
#316=PERSON_AND_ORGANIZATION(#314,#315);
#317=APPROVAL_ROLE('approver');
#318=APPROVAL_PERSON_ORGANIZATION(#316,#303,#317);
#319=PERSON_AND_ORGANIZATION_ROLE('creator');
#320=CC_DESIGN_PERSON_AND_ORGANIZATION_ASSIGNMENT(#316,#319,(#225,#291,#226,
#292));
#321=PERSON_AND_ORGANIZATION_ROLE('design_supplier');
#322=CC_DESIGN_PERSON_AND_ORGANIZATION_ASSIGNMENT(#316,#321,(#225,#291));
#323=PERSON_AND_ORGANIZATION_ROLE('classification_officer');
#324=CC_DESIGN_PERSON_AND_ORGANIZATION_ASSIGNMENT(#316,#323,(#300));
#325=PERSON_AND_ORGANIZATION_ROLE('design_owner');
#326=CC_DESIGN_PERSON_AND_ORGANIZATION_ASSIGNMENT(#316,#325,(#290,#224));
#9=CIRCLE('',#8,1.4E1);
#14=CIRCLE('',#13,1.82E1);
#19=CIRCLE('',#18,1.4E1);
#24=CIRCLE('',#23,1.4E1);
#33=CIRCLE('',#32,1.4E1);
#38=CIRCLE('',#37,1.82E1);
#43=CIRCLE('',#42,1.4E1);
#48=CIRCLE('',#47,4.62E1);
#57=CIRCLE('',#56,1.4E1);
#62=CIRCLE('',#61,4.62E1);
#67=CIRCLE('',#66,1.4E1);
#72=CIRCLE('',#71,1.4E1);
#98=EDGE_CURVE('',#79,#80,#19,.T.);
#100=EDGE_CURVE('',#79,#83,#4,.T.);
#102=EDGE_CURVE('',#83,#84,#33,.T.);
#104=EDGE_CURVE('',#80,#84,#52,.T.);
#114=EDGE_CURVE('',#91,#92,#9,.T.);
#116=EDGE_CURVE('',#91,#79,#14,.T.);
#119=EDGE_CURVE('',#92,#80,#62,.T.);
#129=EDGE_CURVE('',#87,#88,#24,.T.);
#131=EDGE_CURVE('',#87,#91,#28,.T.);
#134=EDGE_CURVE('',#88,#92,#76,.T.);
#145=EDGE_CURVE('',#83,#87,#38,.T.);
#148=EDGE_CURVE('',#84,#88,#48,.T.);
#158=EDGE_CURVE('',#84,#83,#43,.T.);
#161=EDGE_CURVE('',#88,#87,#72,.T.);
#172=EDGE_CURVE('',#80,#79,#67,.T.);
#185=EDGE_CURVE('',#92,#91,#57,.T.);
#207=(LENGTH_UNIT()NAMED_UNIT(*)SI_UNIT(.MILLI.,.METRE.));
#209=(NAMED_UNIT(*)PLANE_ANGLE_UNIT()SI_UNIT($,.RADIAN.));
#212=(NAMED_UNIT(*)SI_UNIT($,.STERADIAN.)SOLID_ANGLE_UNIT());
#218=AXIS2_PLACEMENT_3D('',#215,#216,#217);
#219=ADVANCED_BREP_SHAPE_REPRESENTATION('',(#218,#206),#214);
#226=PRODUCT_DEFINITION('design','',#225,#222);
#227=PRODUCT_DEFINITION_SHAPE('','SHAPE FOR 001-M33857-001.',#226);
#228=SHAPE_DEFINITION_REPRESENTATION(#227,#219);
#229=SHAPE_DEFINITION_REPRESENTATION(#230,#231);
#230=PRODUCT_DEFINITION_SHAPE('','SHAPE FOR 001-M33857-005_ASM.',#292);
#231=SHAPE_REPRESENTATION('',(#237,#246,#255,#264,#273,#288),#284);
#232=NEXT_ASSEMBLY_USAGE_OCCURRENCE('0','Next assembly relationship',
'001-M33857-001',#292,#226,$);
#233=PRODUCT_DEFINITION_SHAPE('Placement #0',
'Placement of 001-M33857-001 with respect to 001-M33857-005_ASM',#232);
#241=NEXT_ASSEMBLY_USAGE_OCCURRENCE('1','Next assembly relationship',
'001-M33857-001',#292,#226,$);
#242=PRODUCT_DEFINITION_SHAPE('Placement #1',
'Placement of 001-M33857-001 with respect to 001-M33857-005_ASM',#241);
#250=NEXT_ASSEMBLY_USAGE_OCCURRENCE('2','Next assembly relationship',
'001-M33857-001',#292,#226,$);
#251=PRODUCT_DEFINITION_SHAPE('Placement #2',
'Placement of 001-M33857-001 with respect to 001-M33857-005_ASM',#250);
#259=NEXT_ASSEMBLY_USAGE_OCCURRENCE('3','Next assembly relationship',
'001-M33857-001',#292,#226,$);
#260=PRODUCT_DEFINITION_SHAPE('Placement #3',
'Placement of 001-M33857-001 with respect to 001-M33857-005_ASM',#259);
#268=NEXT_ASSEMBLY_USAGE_OCCURRENCE('4','Next assembly relationship',
'001-M33857-001',#292,#226,$);
#269=PRODUCT_DEFINITION_SHAPE('Placement #4',
'Placement of 001-M33857-001 with respect to 001-M33857-005_ASM',#268);
#277=(LENGTH_UNIT()NAMED_UNIT(*)SI_UNIT(.MILLI.,.METRE.));
#279=(NAMED_UNIT(*)PLANE_ANGLE_UNIT()SI_UNIT($,.RADIAN.));
#282=(NAMED_UNIT(*)SI_UNIT($,.STERADIAN.)SOLID_ANGLE_UNIT());
#288=AXIS2_PLACEMENT_3D('',#285,#286,#287);
#292=PRODUCT_DEFINITION('design','',#291,#222);
ENDSEC;
END-ISO-10303-21;
