999
DXF file: C:\Aktuell-Internet\CAD-Daten\2vmk13x39.dxf
999
Pro/ENGINEER 2001400 by Parametric Technology Corporation
0
SECTION
2
HEADER
9
$ACADVER
1
AC1014
9
$EXTMAX
10
420.0000000000
20
297.0000000000
9
$EXTMIN
10
0.0000000000
20
0.0000000000
9
$LIMMIN
10
0.0000000000
20
0.0000000000
9
$LIMMAX
10
420.0000000000
20
297.0000000000
9
$VIEWCTR
10
210.0000000000
20
148.5000000000
9
$VIEWSIZE
40
297.0000000000
9
$CLAYER
8
0
9
$LTSCALE
40
23.1000000000
9
$CELTYPE
6
BYLAYER
9
$DIMSCALE
40
1
9
$DIMASZ
40
3.5000000000
9
$DIMEXO
40
2.6250000000
9
$DIMDLI
40
15.9600000000
9
$DIMEXE
40
7.5600000000
9
$DIMCEN
40
3.7800000000
9
$DIMLFAC
40
1.0000000000
9
$DIMTXT
40
3.5000000000
9
$DIMTOL
70
1
9
$DIMTFAC
40
0.6000000000
9
$DIMTP
40
0.0050000000
9
$DIMTM
40
0.0050000000
9
$HANDSEED
5
26D
0
ENDSEC
0
SECTION
2
CLASSES
0
ENDSEC
0
SECTION
2
TABLES
0
TABLE
2
VPORT
5
8
100
AcDbSymbolTable
70
2
0
VPORT
5
1F4
100
AcDbSymbolTableRecord
100
AcDbViewportTableRecord
2
*ACTIVE
70
0
10
0.0
20
0.0
11
1.0
21
1.0
12
210.0000000000
22
148.5000000000
13
0.0
23
0.0
14
1.0
24
1.0
15
0.0
25
0.0
16
0.0
26
0.0
36
1.0
17
0.0
27
0.0
37
0.0
40
297.0000000000
41
1.4141414141
42
50.0
43
0.0
44
0.0
50
0.0
51
0.0
71
0
72
100
73
1
74
1
75
0
76
0
77
0
78
0
0
ENDTAB
0
TABLE
2
LTYPE
5
5
100
AcDbSymbolTable
70
6
0
LTYPE
5
14
100
AcDbSymbolTableRecord
100
AcDbLinetypeTableRecord
2
BYBLOCK
70
0
3

72
65
73
0
40
0.0
0
LTYPE
5
15
100
AcDbSymbolTableRecord
100
AcDbLinetypeTableRecord
2
BYLAYER
70
0
3

72
65
73
0
40
0.0
0
LTYPE
5
16
100
AcDbSymbolTableRecord
100
AcDbLinetypeTableRecord
2
CONTINUOUS
70
64
3
Solid line
72
65
73
0
40
0
0
LTYPE
5
1F5
100
AcDbSymbolTableRecord
100
AcDbLinetypeTableRecord
2
CENTER
70
64
3
____ _ ____ _ ____ _ ____ _ ____ _ ____ _ ____
72
65
73
4
40
0.6
49
0.375
74
0
49
-0.075
74
0
49
0.075
74
0
49
-0.075
74
0
0
LTYPE
5
1F6
100
AcDbSymbolTableRecord
100
AcDbLinetypeTableRecord
2
HIDDEN
70
64
3
- - - - - - - - - - - - - - - - - - - -
72
65
73
2
40
0.2
49
0.1
74
0
49
-0.1
74
0
0
LTYPE
5
1F7
100
AcDbSymbolTableRecord
100
AcDbLinetypeTableRecord
2
PHANTOM
70
64
3
_____ _ _ _____ _ _ _____ _ _ _____
72
65
73
6
40
0.8
49
0.45
74
0
49
-0.05
74
0
49
0.1
74
0
49
-0.05
74
0
49
0.1
74
0
49
-0.05
74
0
0
LTYPE
5
1F8
100
AcDbSymbolTableRecord
100
AcDbLinetypeTableRecord
2
DOT
70
64
3
. . . . . . . . . . . . . . . . . . . .
72
65
73
2
40
0.2
49
0.1
74
0
49
-0.1
74
0
0
LTYPE
5
1F9
100
AcDbSymbolTableRecord
100
AcDbLinetypeTableRecord
2
DASHED
70
64
3
- - - - - - - - - - - - - - - - - - - -
72
65
73
2
40
0.2
49
0.1
74
0
49
-0.1
74
0
0
ENDTAB
0
TABLE
2
LAYER
5
2
100
AcDbSymbolTable
70
36
0
LAYER
5
10
100
AcDbSymbolTableRecord
100
AcDbLayerTableRecord
2
0
70
0
62
7
6
CONTINUOUS
0
LAYER
5
1FA
100
AcDbSymbolTableRecord
100
AcDbLayerTableRecord
2
DEFAULT_1
70
0
62
7
6
CENTER
0
LAYER
5
1FB
100
AcDbSymbolTableRecord
100
AcDbLayerTableRecord
2
DEFAULT_2
70
0
62
8
6
HIDDEN
0
LAYER
5
1FC
100
AcDbSymbolTableRecord
100
AcDbLayerTableRecord
2
DEFAULT_3
70
0
62
7
6
PHANTOM
0
ENDTAB
0
TABLE
2
STYLE
5
3
100
AcDbSymbolTable
70
1
0
STYLE
5
11
100
AcDbSymbolTableRecord
100
AcDbTextStyleTableRecord
2
STANDARD
70
0
40
0.0
41
1.0
50
0.0
71
0
42
0.0
3
txt
4

0
ENDTAB
0
TABLE
2
VIEW
5
6
100
AcDbSymbolTable
70
0
0
ENDTAB
0
TABLE
2
UCS
5
7
100
AcDbSymbolTable
70
0
0
ENDTAB
0
TABLE
2
APPID
5
9
100
AcDbSymbolTable
70
1
0
APPID
5
1FD
100
AcDbSymbolTableRecord
100
AcDbRegAppTableRecord
2
ACAD
70
0
0
ENDTAB
0
TABLE
2
DIMSTYLE
5
A
100
AcDbSymbolTable
70
1
0
DIMSTYLE
105
1FE
100
AcDbSymbolTableRecord
100
AcDbDimStyleTableRecord
2
STANDARD
70
0
3

4

5

6

7

40
1.0
41
0.18
42
0.0625
43
0.38
44
0.18
45
0.0
46
0.0
47
0.0050000000
48
0.0050000000
140
3.5000000000
141
0.09
142
0.0
143
25.4
144
1.0000000000
145
0.0
146
0.6000000000
147
0.09
71
1
72
0
73
1
74
1
75
0
76
0
77
0
78
0
170
0
171
2
172
0
173
0
174
0
175
0
176
0
177
0
178
0
270
2
271
3
272
4
273
2
274
2
340
11
275
0
280
0
281
0
282
0
283
1
284
0
285
0
286
0
287
3
288
0
0
ENDTAB
0
TABLE
2
BLOCK_RECORD
5
1
100
AcDbSymbolTable
70
0
0
BLOCK_RECORD
5
1B
100
AcDbSymbolTableRecord
100
AcDbBlockTableRecord
2
*MODEL_SPACE
0
BLOCK_RECORD
5
1C
100
AcDbSymbolTableRecord
100
AcDbBlockTableRecord
2
*PAPER_SPACE
0
ENDTAB
0
ENDSEC
0
SECTION
2
BLOCKS
0
BLOCK
5
1E
100
AcDbEntity
8
0
100
AcDbBlockBegin
2
*MODEL_SPACE
70
0
10
0.0
20
0.0
30
0.0
3
*MODEL_SPACE
1

0
ENDBLK
5
1F
100
AcDbEntity
8
0
100
AcDbBlockEnd
0
BLOCK
5
20
100
AcDbEntity
8
0
100
AcDbBlockBegin
2
*PAPER_SPACE
70
0
10
0.0
20
0.0
30
0.0
3
*PAPER_SPACE
1

0
ENDBLK
5
21
100
AcDbEntity
8
0
100
AcDbBlockEnd
0
ENDSEC
0
SECTION
2
ENTITIES
0
LINE
5
1FF
100
AcDbEntity
8
0
100
AcDbLine
62
7
6
CONTINUOUS
10
0.0000000000
20
0.0000000000
11
0.0000000000
21
297.0000000000
0
LINE
5
200
100
AcDbEntity
8
0
100
AcDbLine
62
7
6
CONTINUOUS
10
0.0000000000
20
0.0000000000
11
420.0000000000
21
0.0000000000
0
LINE
5
201
100
AcDbEntity
8
0
100
AcDbLine
62
7
6
CONTINUOUS
10
0.0000000000
20
297.0000000000
11
420.0000000000
21
297.0000000000
0
LINE
5
202
100
AcDbEntity
8
0
100
AcDbLine
62
7
6
CONTINUOUS
10
420.0000000000
20
0.0000000000
11
420.0000000000
21
297.0000000000
0
LINE
5
203
100
AcDbEntity
8
0
100
AcDbLine
62
7
6
CONTINUOUS
10
120.4830669973
20
126.3640411403
11
120.4830669973
21
104.3640411403
0
LINE
5
204
100
AcDbEntity
8
0
100
AcDbLine
62
7
6
CONTINUOUS
10
120.4830669973
20
182.3640411403
11
120.4830669973
21
204.3640411403
0
LINE
5
205
100
AcDbEntity
8
0
100
AcDbLine
62
7
6
CONTINUOUS
10
133.9830669973
20
126.3640411403
11
133.9830669973
21
104.3640411403
0
LINE
5
206
100
AcDbEntity
8
0
100
AcDbLine
62
7
6
CONTINUOUS
10
133.9830669973
20
182.3640411403
11
133.9830669973
21
204.3640411403
0
LINE
5
207
100
AcDbEntity
8
0
100
AcDbLine
62
7
6
CONTINUOUS
10
135.7330669973
20
258.6140411403
11
135.7330669973
21
206.1661276219
0
LINE
5
208
100
AcDbEntity
8
0
100
AcDbLine
62
7
6
CONTINUOUS
10
135.7330669973
20
180.6140411403
11
135.7330669973
21
128.1661276219
0
LINE
5
209
100
AcDbEntity
8
0
100
AcDbLine
62
7
6
CONTINUOUS
10
135.7330669973
20
50.1661276219
11
135.7330669973
21
102.5619546586
0
LINE
5
20A
100
AcDbEntity
8
0
100
AcDbLine
62
7
6
CONTINUOUS
10
149.2330669973
20
258.6140411403
11
149.2330669973
21
206.1661276219
0
LINE
5
20B
100
AcDbEntity
8
0
100
AcDbLine
62
7
6
CONTINUOUS
10
149.2330669973
20
180.6140411403
11
149.2330669973
21
128.1661276219
0
LINE
5
20C
100
AcDbEntity
8
0
100
AcDbLine
62
7
6
CONTINUOUS
10
149.2330669973
20
50.1661276219
11
149.2330669973
21
102.5619546586
0
LINE
5
20D
100
AcDbEntity
8
0
100
AcDbLine
62
7
6
CONTINUOUS
10
150.9830669973
20
204.3640411403
11
150.9830669973
21
182.3640411403
0
LINE
5
20E
100
AcDbEntity
8
0
100
AcDbLine
62
7
6
CONTINUOUS
10
150.9830669973
20
104.3640411403
11
150.9830669973
21
126.3640411403
0
LINE
5
20F
100
AcDbEntity
8
0
100
AcDbLine
62
7
6
CONTINUOUS
10
164.4830669973
20
204.3640411403
11
164.4830669973
21
182.3640411403
0
LINE
5
210
100
AcDbEntity
8
0
100
AcDbLine
62
7
6
CONTINUOUS
10
164.4830669973
20
104.3640411403
11
164.4830669973
21
126.3640411403
0
LINE
5
211
100
AcDbEntity
8
0
100
AcDbLine
62
7
6
CONTINUOUS
10
273.3771299929
20
87.3640411403
11
273.3771299929
21
65.3640411403
0
LINE
5
212
100
AcDbEntity
8
0
100
AcDbLine
62
7
6
CONTINUOUS
10
273.3771299929
20
143.3640411403
11
273.3771299929
21
165.3640411403
0
LINE
5
213
100
AcDbEntity
8
0
100
AcDbLine
62
7
6
CONTINUOUS
10
273.3771299929
20
221.3640411403
11
273.3771299929
21
243.3640411403
0
LINE
5
214
100
AcDbEntity
8
0
100
AcDbLine
62
7
6
CONTINUOUS
10
286.8771299929
20
87.3640411403
11
286.8771299929
21
65.3640411403
0
LINE
5
215
100
AcDbEntity
8
0
100
AcDbLine
62
7
6
CONTINUOUS
10
286.8771299929
20
143.3640411403
11
286.8771299929
21
165.3640411403
0
LINE
5
216
100
AcDbEntity
8
0
100
AcDbLine
62
7
6
CONTINUOUS
10
286.8771299929
20
221.3640411403
11
286.8771299929
21
243.3640411403
0
LINE
5
217
100
AcDbEntity
8
0
100
AcDbLine
62
7
6
CONTINUOUS
10
288.6271299929
20
141.6140411403
11
288.6271299929
21
89.1140411403
0
LINE
5
218
100
AcDbEntity
8
0
100
AcDbLine
62
7
6
CONTINUOUS
10
288.6271299929
20
167.1661276219
11
288.6271299929
21
219.5619546586
0
LINE
5
219
100
AcDbEntity
8
0
100
AcDbLine
62
7
6
CONTINUOUS
10
302.1271299929
20
141.6140411403
11
302.1271299929
21
89.1140411403
0
LINE
5
21A
100
AcDbEntity
8
0
100
AcDbLine
62
7
6
CONTINUOUS
10
302.1271299929
20
167.1661276219
11
302.1271299929
21
219.5619546586
0
LINE
5
21B
100
AcDbEntity
8
0
100
AcDbLine
62
7
6
CONTINUOUS
10
303.8771299929
20
243.3640411403
11
303.8771299929
21
221.3640411403
0
LINE
5
21C
100
AcDbEntity
8
0
100
AcDbLine
62
7
6
CONTINUOUS
10
303.8771299929
20
165.3640411403
11
303.8771299929
21
143.3640411403
0
LINE
5
21D
100
AcDbEntity
8
0
100
AcDbLine
62
7
6
CONTINUOUS
10
303.8771299929
20
65.3640411403
11
303.8771299929
21
87.3640411403
0
LINE
5
21E
100
AcDbEntity
8
0
100
AcDbLine
62
7
6
CONTINUOUS
10
317.3771299929
20
243.3640411403
11
317.3771299929
21
221.3640411403
0
LINE
5
21F
100
AcDbEntity
8
0
100
AcDbLine
62
7
6
CONTINUOUS
10
317.3771299929
20
165.3640411403
11
317.3771299929
21
143.3640411403
0
LINE
5
220
100
AcDbEntity
8
0
100
AcDbLine
62
7
6
CONTINUOUS
10
317.3771299929
20
65.3640411403
11
317.3771299929
21
87.3640411403
0
ARC
5
221
100
AcDbEntity
8
DEFAULT_2
100
AcDbCircle
62
8
6
HIDDEN
10
142.4830669973
20
206.1140411403
40
6.7500000000
100
AcDbArc
50
0.0000000000
51
180.0000000000
0
ARC
5
222
100
AcDbEntity
8
DEFAULT_2
100
AcDbCircle
62
8
6
HIDDEN
10
142.4830669973
20
128.1140411403
40
6.7500000000
100
AcDbArc
50
0.0000000000
51
180.0000000000
0
ARC
5
223
100
AcDbEntity
8
DEFAULT_2
100
AcDbCircle
62
8
6
HIDDEN
10
142.4830669973
20
258.6140411403
40
6.7500000000
100
AcDbArc
50
180.0000000000
51
360.0000000000
0
ARC
5
224
100
AcDbEntity
8
DEFAULT_2
100
AcDbCircle
62
8
6
HIDDEN
10
142.4830669973
20
180.6140411403
40
6.7500000000
100
AcDbArc
50
180.0000000000
51
360.0000000000
0
ARC
5
225
100
AcDbEntity
8
DEFAULT_2
100
AcDbCircle
62
8
6
HIDDEN
10
142.4830669973
20
102.6140411403
40
6.7500000000
100
AcDbArc
50
180.0000000000
51
360.0000000000
0
ARC
5
226
100
AcDbEntity
8
DEFAULT_2
100
AcDbCircle
62
8
6
HIDDEN
10
142.4830669973
20
50.1140411403
40
6.7500000000
100
AcDbArc
50
0.0000000000
51
180.0000000000
0
ARC
5
227
100
AcDbEntity
8
DEFAULT_2
100
AcDbCircle
62
8
6
HIDDEN
10
142.4830669973
20
182.3640411403
40
8.5000000000
100
AcDbArc
50
217.3440442577
51
322.6559557423
0
ARC
5
228
100
AcDbEntity
8
DEFAULT_2
100
AcDbCircle
62
8
6
HIDDEN
10
142.4830669973
20
182.3640411403
40
22.0000000000
100
AcDbArc
50
252.1309308326
51
287.8690691674
0
ARC
5
229
100
AcDbEntity
8
DEFAULT_2
100
AcDbCircle
62
8
6
HIDDEN
10
142.4830669973
20
204.3640411403
40
22.0000000000
100
AcDbArc
50
72.1309308326
51
107.8690691674
0
ARC
5
22A
100
AcDbEntity
8
DEFAULT_2
100
AcDbCircle
62
8
6
HIDDEN
10
142.4830669973
20
204.3640411403
40
8.5000000000
100
AcDbArc
50
37.3440442577
51
142.6559557423
0
ARC
5
22B
100
AcDbEntity
8
DEFAULT_2
100
AcDbCircle
62
8
6
HIDDEN
10
142.4830669973
20
104.3640411403
40
8.5000000000
100
AcDbArc
50
217.3440442577
51
322.6559557423
0
ARC
5
22C
100
AcDbEntity
8
DEFAULT_2
100
AcDbCircle
62
8
6
HIDDEN
10
142.4830669973
20
104.3640411403
40
22.0000000000
100
AcDbArc
50
252.1309308326
51
287.8690691674
0
ARC
5
22D
100
AcDbEntity
8
DEFAULT_2
100
AcDbCircle
62
8
6
HIDDEN
10
142.4830669973
20
126.3640411403
40
22.0000000000
100
AcDbArc
50
72.1309308326
51
107.8690691674
0
ARC
5
22E
100
AcDbEntity
8
DEFAULT_2
100
AcDbCircle
62
8
6
HIDDEN
10
142.4830669973
20
126.3640411403
40
8.5000000000
100
AcDbArc
50
37.3440442577
51
142.6559557423
0
ARC
5
22F
100
AcDbEntity
8
0
100
AcDbCircle
62
7
6
CONTINUOUS
10
142.4830669973
20
258.6140411403
40
6.7500000000
100
AcDbArc
50
0.0000000000
51
180.0000000000
0
ARC
5
230
100
AcDbEntity
8
0
100
AcDbCircle
62
7
6
CONTINUOUS
10
142.4830669973
20
206.1140411403
40
6.7500000000
100
AcDbArc
50
180.0000000000
51
360.0000000000
0
ARC
5
231
100
AcDbEntity
8
0
100
AcDbCircle
62
7
6
CONTINUOUS
10
142.4830669973
20
180.6140411403
40
6.7500000000
100
AcDbArc
50
0.0000000000
51
180.0000000000
0
ARC
5
232
100
AcDbEntity
8
0
100
AcDbCircle
62
7
6
CONTINUOUS
10
142.4830669973
20
128.1140411403
40
6.7500000000
100
AcDbArc
50
180.0000000000
51
360.0000000000
0
ARC
5
233
100
AcDbEntity
8
0
100
AcDbCircle
62
7
6
CONTINUOUS
10
142.4830669973
20
50.1140411403
40
6.7500000000
100
AcDbArc
50
180.0000000000
51
360.0000000000
0
ARC
5
234
100
AcDbEntity
8
0
100
AcDbCircle
62
7
6
CONTINUOUS
10
142.4830669973
20
102.6140411403
40
6.7500000000
100
AcDbArc
50
0.0000000000
51
180.0000000000
0
ARC
5
235
100
AcDbEntity
8
0
100
AcDbCircle
62
7
6
CONTINUOUS
10
142.4830669973
20
182.3640411403
40
8.5000000000
100
AcDbArc
50
322.6559557423
51
360.0000000000
0
ARC
5
236
100
AcDbEntity
8
0
100
AcDbCircle
62
7
6
CONTINUOUS
10
142.4830669973
20
182.3640411403
40
8.5000000000
100
AcDbArc
50
180.0000000000
51
217.3440442577
0
ARC
5
237
100
AcDbEntity
8
0
100
AcDbCircle
62
7
6
CONTINUOUS
10
142.4830669973
20
182.3640411403
40
22.0000000000
100
AcDbArc
50
287.8690691674
51
360.0000000000
0
ARC
5
238
100
AcDbEntity
8
0
100
AcDbCircle
62
7
6
CONTINUOUS
10
142.4830669973
20
182.3640411403
40
22.0000000000
100
AcDbArc
50
180.0000000000
51
252.1309308326
0
ARC
5
239
100
AcDbEntity
8
0
100
AcDbCircle
62
7
6
CONTINUOUS
10
142.4830669973
20
204.3640411403
40
22.0000000000
100
AcDbArc
50
107.8690691674
51
180.0000000000
0
ARC
5
23A
100
AcDbEntity
8
0
100
AcDbCircle
62
7
6
CONTINUOUS
10
142.4830669973
20
204.3640411403
40
22.0000000000
100
AcDbArc
50
0.0000000000
51
72.1309308326
0
ARC
5
23B
100
AcDbEntity
8
0
100
AcDbCircle
62
7
6
CONTINUOUS
10
142.4830669973
20
204.3640411403
40
8.5000000000
100
AcDbArc
50
142.6559557423
51
180.0000000000
0
ARC
5
23C
100
AcDbEntity
8
0
100
AcDbCircle
62
7
6
CONTINUOUS
10
142.4830669973
20
204.3640411403
40
8.5000000000
100
AcDbArc
50
0.0000000000
51
37.3440442577
0
ARC
5
23D
100
AcDbEntity
8
0
100
AcDbCircle
62
7
6
CONTINUOUS
10
142.4830669973
20
104.3640411403
40
8.5000000000
100
AcDbArc
50
180.0000000000
51
217.3440442577
0
ARC
5
23E
100
AcDbEntity
8
0
100
AcDbCircle
62
7
6
CONTINUOUS
10
142.4830669973
20
104.3640411403
40
8.5000000000
100
AcDbArc
50
322.6559557423
51
360.0000000000
0
ARC
5
23F
100
AcDbEntity
8
0
100
AcDbCircle
62
7
6
CONTINUOUS
10
142.4830669973
20
104.3640411403
40
22.0000000000
100
AcDbArc
50
180.0000000000
51
252.1309308326
0
ARC
5
240
100
AcDbEntity
8
0
100
AcDbCircle
62
7
6
CONTINUOUS
10
142.4830669973
20
104.3640411403
40
22.0000000000
100
AcDbArc
50
287.8690691674
51
360.0000000000
0
ARC
5
241
100
AcDbEntity
8
0
100
AcDbCircle
62
7
6
CONTINUOUS
10
142.4830669973
20
126.3640411403
40
22.0000000000
100
AcDbArc
50
0.0000000000
51
72.1309308326
0
ARC
5
242
100
AcDbEntity
8
0
100
AcDbCircle
62
7
6
CONTINUOUS
10
142.4830669973
20
126.3640411403
40
22.0000000000
100
AcDbArc
50
107.8690691674
51
180.0000000000
0
ARC
5
243
100
AcDbEntity
8
0
100
AcDbCircle
62
7
6
CONTINUOUS
10
142.4830669973
20
126.3640411403
40
8.5000000000
100
AcDbArc
50
0.0000000000
51
37.3440442577
0
ARC
5
244
100
AcDbEntity
8
0
100
AcDbCircle
62
7
6
CONTINUOUS
10
142.4830669973
20
126.3640411403
40
8.5000000000
100
AcDbArc
50
142.6559557423
51
180.0000000000
0
ARC
5
245
100
AcDbEntity
8
DEFAULT_2
100
AcDbCircle
62
8
6
HIDDEN
10
295.3771299929
20
219.6140411403
40
6.7500000000
100
AcDbArc
50
180.0000000000
51
360.0000000000
0
ARC
5
246
100
AcDbEntity
8
DEFAULT_2
100
AcDbCircle
62
8
6
HIDDEN
10
295.3771299929
20
167.1140411403
40
6.7500000000
100
AcDbArc
50
0.0000000000
51
180.0000000000
0
ARC
5
247
100
AcDbEntity
8
DEFAULT_2
100
AcDbCircle
62
8
6
HIDDEN
10
295.3771299929
20
89.1140411403
40
6.7500000000
100
AcDbArc
50
0.0000000000
51
180.0000000000
0
ARC
5
248
100
AcDbEntity
8
DEFAULT_2
100
AcDbCircle
62
8
6
HIDDEN
10
295.3771299929
20
141.6140411403
40
6.7500000000
100
AcDbArc
50
180.0000000000
51
360.0000000000
0
ARC
5
249
100
AcDbEntity
8
DEFAULT_2
100
AcDbCircle
62
8
6
HIDDEN
10
295.3771299929
20
221.3640411403
40
22.0000000000
100
AcDbArc
50
252.1309308326
51
287.8690691674
0
ARC
5
24A
100
AcDbEntity
8
DEFAULT_2
100
AcDbCircle
62
8
6
HIDDEN
10
295.3771299929
20
221.3640411403
40
8.5000000000
100
AcDbArc
50
217.3440442577
51
322.6559557423
0
ARC
5
24B
100
AcDbEntity
8
DEFAULT_2
100
AcDbCircle
62
8
6
HIDDEN
10
295.3771299929
20
165.3640411403
40
22.0000000000
100
AcDbArc
50
72.1309308326
51
107.8690691674
0
ARC
5
24C
100
AcDbEntity
8
DEFAULT_2
100
AcDbCircle
62
8
6
HIDDEN
10
295.3771299929
20
165.3640411403
40
8.5000000000
100
AcDbArc
50
37.3440442577
51
142.6559557423
0
ARC
5
24D
100
AcDbEntity
8
DEFAULT_2
100
AcDbCircle
62
8
6
HIDDEN
10
295.3771299929
20
143.3640411403
40
22.0000000000
100
AcDbArc
50
252.1309308326
51
287.8690691674
0
ARC
5
24E
100
AcDbEntity
8
DEFAULT_2
100
AcDbCircle
62
8
6
HIDDEN
10
295.3771299929
20
143.3640411403
40
8.5000000000
100
AcDbArc
50
217.3440442577
51
322.6559557423
0
ARC
5
24F
100
AcDbEntity
8
DEFAULT_2
100
AcDbCircle
62
8
6
HIDDEN
10
295.3771299929
20
87.3640411403
40
22.0000000000
100
AcDbArc
50
72.1309308326
51
107.8690691674
0
ARC
5
250
100
AcDbEntity
8
DEFAULT_2
100
AcDbCircle
62
8
6
HIDDEN
10
295.3771299929
20
87.3640411403
40
8.5000000000
100
AcDbArc
50
37.3440442577
51
142.6559557423
0
ARC
5
251
100
AcDbEntity
8
0
100
AcDbCircle
62
7
6
CONTINUOUS
10
295.3771299929
20
167.1140411403
40
6.7500000000
100
AcDbArc
50
180.0000000000
51
360.0000000000
0
ARC
5
252
100
AcDbEntity
8
0
100
AcDbCircle
62
7
6
CONTINUOUS
10
295.3771299929
20
219.6140411403
40
6.7500000000
100
AcDbArc
50
0.0000000000
51
180.0000000000
0
ARC
5
253
100
AcDbEntity
8
0
100
AcDbCircle
62
7
6
CONTINUOUS
10
295.3771299929
20
89.1140411403
40
6.7500000000
100
AcDbArc
50
180.0000000000
51
360.0000000000
0
ARC
5
254
100
AcDbEntity
8
0
100
AcDbCircle
62
7
6
CONTINUOUS
10
295.3771299929
20
141.6140411403
40
6.7500000000
100
AcDbArc
50
0.0000000000
51
180.0000000000
0
ARC
5
255
100
AcDbEntity
8
0
100
AcDbCircle
62
7
6
CONTINUOUS
10
295.3771299929
20
243.3640411403
40
22.0000000000
100
AcDbArc
50
0.0000000000
51
180.0000000000
0
ARC
5
256
100
AcDbEntity
8
0
100
AcDbCircle
62
7
6
CONTINUOUS
10
295.3771299929
20
243.3640411403
40
8.5000000000
100
AcDbArc
50
0.0000000000
51
180.0000000000
0
ARC
5
257
100
AcDbEntity
8
0
100
AcDbCircle
62
7
6
CONTINUOUS
10
295.3771299929
20
221.3640411403
40
22.0000000000
100
AcDbArc
50
287.8690691674
51
360.0000000000
0
ARC
5
258
100
AcDbEntity
8
0
100
AcDbCircle
62
7
6
CONTINUOUS
10
295.3771299929
20
221.3640411403
40
22.0000000000
100
AcDbArc
50
180.0000000000
51
252.1309308326
0
ARC
5
259
100
AcDbEntity
8
0
100
AcDbCircle
62
7
6
CONTINUOUS
10
295.3771299929
20
221.3640411403
40
8.5000000000
100
AcDbArc
50
322.6559557423
51
360.0000000000
0
ARC
5
25A
100
AcDbEntity
8
0
100
AcDbCircle
62
7
6
CONTINUOUS
10
295.3771299929
20
221.3640411403
40
8.5000000000
100
AcDbArc
50
180.0000000000
51
217.3440442577
0
ARC
5
25B
100
AcDbEntity
8
0
100
AcDbCircle
62
7
6
CONTINUOUS
10
295.3771299929
20
165.3640411403
40
22.0000000000
100
AcDbArc
50
107.8690691674
51
180.0000000000
0
ARC
5
25C
100
AcDbEntity
8
0
100
AcDbCircle
62
7
6
CONTINUOUS
10
295.3771299929
20
165.3640411403
40
22.0000000000
100
AcDbArc
50
0.0000000000
51
72.1309308326
0
ARC
5
25D
100
AcDbEntity
8
0
100
AcDbCircle
62
7
6
CONTINUOUS
10
295.3771299929
20
165.3640411403
40
8.5000000000
100
AcDbArc
50
142.6559557423
51
180.0000000000
0
ARC
5
25E
100
AcDbEntity
8
0
100
AcDbCircle
62
7
6
CONTINUOUS
10
295.3771299929
20
165.3640411403
40
8.5000000000
100
AcDbArc
50
0.0000000000
51
37.3440442577
0
ARC
5
25F
100
AcDbEntity
8
0
100
AcDbCircle
62
7
6
CONTINUOUS
10
295.3771299929
20
143.3640411403
40
22.0000000000
100
AcDbArc
50
287.8690691674
51
360.0000000000
0
ARC
5
260
100
AcDbEntity
8
0
100
AcDbCircle
62
7
6
CONTINUOUS
10
295.3771299929
20
143.3640411403
40
22.0000000000
100
AcDbArc
50
180.0000000000
51
252.1309308326
0
ARC
5
261
100
AcDbEntity
8
0
100
AcDbCircle
62
7
6
CONTINUOUS
10
295.3771299929
20
143.3640411403
40
8.5000000000
100
AcDbArc
50
322.6559557423
51
360.0000000000
0
ARC
5
262
100
AcDbEntity
8
0
100
AcDbCircle
62
7
6
CONTINUOUS
10
295.3771299929
20
143.3640411403
40
8.5000000000
100
AcDbArc
50
180.0000000000
51
217.3440442577
0
ARC
5
263
100
AcDbEntity
8
0
100
AcDbCircle
62
7
6
CONTINUOUS
10
295.3771299929
20
65.3640411403
40
8.5000000000
100
AcDbArc
50
180.0000000000
51
360.0000000000
0
ARC
5
264
100
AcDbEntity
8
0
100
AcDbCircle
62
7
6
CONTINUOUS
10
295.3771299929
20
65.3640411403
40
22.0000000000
100
AcDbArc
50
180.0000000000
51
360.0000000000
0
ARC
5
265
100
AcDbEntity
8
0
100
AcDbCircle
62
7
6
CONTINUOUS
10
295.3771299929
20
87.3640411403
40
22.0000000000
100
AcDbArc
50
0.0000000000
51
72.1309308326
0
ARC
5
266
100
AcDbEntity
8
0
100
AcDbCircle
62
7
6
CONTINUOUS
10
295.3771299929
20
87.3640411403
40
22.0000000000
100
AcDbArc
50
107.8690691674
51
180.0000000000
0
ARC
5
267
100
AcDbEntity
8
0
100
AcDbCircle
62
7
6
CONTINUOUS
10
295.3771299929
20
87.3640411403
40
8.5000000000
100
AcDbArc
50
0.0000000000
51
37.3440442577
0
ARC
5
268
100
AcDbEntity
8
0
100
AcDbCircle
62
7
6
CONTINUOUS
10
295.3771299929
20
87.3640411403
40
8.5000000000
100
AcDbArc
50
142.6559557423
51
180.0000000000
0
ENDSEC
0
SECTION
2
OBJECTS
0
DICTIONARY
5
269
100
AcDbDictionary
3
ACAD_GROUP
350
26A
3
ACAD_MLINESTYLE
350
26B
0
DICTIONARY
5
26A
102
{ACAD_REACTORS
330
269
102
}
100
AcDbDictionary
0
DICTIONARY
5
26B
102
{ACAD_REACTORS
330
269
102
}
100
AcDbDictionary
3
STANDARD
350
26C
0
MLINESTYLE
5
26C
102
{ACAD_REACTORS
330
26B
102
}
100
AcDbMlineStyle
2
STANDARD
70
0
3

62
256
51
90.0
52
90.0
71
2
49
0.5
62
256
6
BYLAYER
49
-0.5
62
256
6
BYLAYER
0
ENDSEC
0
EOF
