999
DXF file: ICE-CCS-8_7912244_m36166-p-01.dxf
999
Pro/ENGINEER 2022162 by Parametric Technology Corporation
  0
SECTION
  2
HEADER
  9
$ACADVER
  1
AC1021
  9
$DWGCODEPAGE
  3
ANSI_1252
  9
$EXTMAX
 10
297.0
 20
210.0
 30
0.0
  9
$EXTMIN
 10
0.0
 20
0.0
 30
0.0
  9
$LIMMIN
 10
0.0
 20
0.0
  9
$LIMMAX
 10
297.0
 20
210.0
  9
$VIEWCTR
 10
148.5
 20
105.0
  9
$VIEWSIZE
 40
210.0
  9
$CLAYER
  8
0
  9
$LTSCALE
 40
16.335
  9
$CELTYPE
  6
BYLAYER
  9
$DIMSCALE
 40
1.0
  9
$DIMASZ
 40
3.5
  9
$DIMEXO
 40
0.0
  9
$DIMDLI
 40
11.286
  9
$DIMEXE
 40
1.5
  9
$DIMCEN
 40
2.673
  9
$DIMLFAC
 40
1.0
  9
$DIMBLK
  1
_FILLED
  9
$DIMALT
 70
0
  9
$DIMALTF
 40
0.0393700787
  9
$DIMTXT
 40
3.5
  9
$DIMTOL
 70
1
  9
$DIMLIM
 70
0
  9
$DIMTFAC
 40
1.0
  9
$DIMTP
 40
0.01
  9
$DIMTM
 40
0.01
  9
$DIMGAP
 40
0.625
  9
$DIMDSEP
 70
46
  9
$AUNITS
 70
0
  9
$PDMODE
 70
3
  9
$PDSIZE
 40
0.3125
  9
$HANDSEED
  5
4FA
  9
$TILEMODE
 70
1
  9
$MEASUREMENT
 70
1
  9
$INSUNITS
 70
4
  0
ENDSEC
  0
SECTION
  2
CLASSES
  0
CLASS
  1
ACDBDICTIONARYWDFLT
  2
AcDbDictionaryWithDefault
  3
AutoCAD 2000
 90
0
 91
1
280
0
281
0
  0
CLASS
  1
ACDBPLACEHOLDER
  2
AcDbPlaceHolder
  3
AutoCAD 2000
 90
0
 91
1
280
0
281
0
  0
CLASS
  1
LAYOUT
  2
AcDbLayout
  3
AutoCAD 2000
 90
0
 91
0
280
0
281
0
  0
ENDSEC
  0
SECTION
  2
TABLES
  0
TABLE
  2
VPORT
  5
8
100
AcDbSymbolTable
 70
2
  0
VPORT
  5
1F4
100
AcDbSymbolTableRecord
100
AcDbViewportTableRecord
  2
*ACTIVE
 70
0
 10
0.0
 20
0.0
 11
1.0
 21
1.0
 12
148.5
 22
105.0
 13
0.0
 23
0.0
 14
1.0
 24
1.0
 15
0.0
 25
0.0
 16
0.0
 26
0.0
 36
1.0
 17
0.0
 27
0.0
 37
0.0
 40
210.0
 41
1.4142857143
 42
50.0
 43
0.0
 44
0.0
 50
0.0
 51
0.0
 71
0
 72
100
 73
1
 74
1
 75
0
 76
0
 77
0
 78
0
  0
ENDTAB
  0
TABLE
  2
LTYPE
  5
5
100
AcDbSymbolTable
 70
6
  0
LTYPE
  5
14
100
AcDbSymbolTableRecord
100
AcDbLinetypeTableRecord
  2
BYBLOCK
 70
0
  3

 72
65
 73
0
 40
0.0
  0
LTYPE
  5
15
100
AcDbSymbolTableRecord
100
AcDbLinetypeTableRecord
  2
BYLAYER
 70
0
  3

 72
65
 73
0
 40
0.0
  0
LTYPE
  5
16
100
AcDbSymbolTableRecord
100
AcDbLinetypeTableRecord
  2
CONTINUOUS
 70
64
  3
Solid line
 72
65
 73
0
 40
0.0
  0
LTYPE
  5
1F5
100
AcDbSymbolTableRecord
100
AcDbLinetypeTableRecord
  2
CENTER
 70
64
  3
____ _ ____ _ ____ _ ____ _ ____ _ ____ _ ____
 72
65
 73
4
 40
0.6
 49
0.375
 74
0
 49
-0.075
 74
0
 49
0.075
 74
0
 49
-0.075
 74
0
  0
LTYPE
  5
1F6
100
AcDbSymbolTableRecord
100
AcDbLinetypeTableRecord
  2
HIDDEN
 70
64
  3
- - - - - - - - - - - - - - - - - - - -
 72
65
 73
2
 40
0.2
 49
0.1
 74
0
 49
-0.1
 74
0
  0
LTYPE
  5
1F7
100
AcDbSymbolTableRecord
100
AcDbLinetypeTableRecord
  2
PHANTOM
 70
64
  3
_____ _ _ _____ _ _ _____ _ _ _____
 72
65
 73
6
 40
0.8
 49
0.45
 74
0
 49
-0.05
 74
0
 49
0.1
 74
0
 49
-0.05
 74
0
 49
0.1
 74
0
 49
-0.05
 74
0
  0
LTYPE
  5
1F8
100
AcDbSymbolTableRecord
100
AcDbLinetypeTableRecord
  2
DOT
 70
64
  3
. . . . . . . . . . . . . . . . . . . .
 72
65
 73
2
 40
0.2
 49
0.1
 74
0
 49
-0.1
 74
0
  0
LTYPE
  5
1F9
100
AcDbSymbolTableRecord
100
AcDbLinetypeTableRecord
  2
DASHED
 70
64
  3
- - - - - - - - - - - - - - - - - - - -
 72
65
 73
2
 40
0.2
 49
0.1
 74
0
 49
-0.1
 74
0
  0
ENDTAB
  0
TABLE
  2
LAYER
  5
2
100
AcDbSymbolTable
 70
36
  0
LAYER
  5
10
100
AcDbSymbolTableRecord
100
AcDbLayerTableRecord
  2
0
 70
0
 62
7
  6
CONTINUOUS
370
-3
390
F
  0
LAYER
  5
1FA
100
AcDbSymbolTableRecord
100
AcDbLayerTableRecord
  2
DEFAULT_1
 70
0
 62
7
  6
CENTER
370
-3
390
F
  0
LAYER
  5
1FB
100
AcDbSymbolTableRecord
100
AcDbLayerTableRecord
  2
DEFAULT_2
 70
0
 62
8
  6
HIDDEN
370
-3
390
F
  0
LAYER
  5
1FC
100
AcDbSymbolTableRecord
100
AcDbLayerTableRecord
  2
DEFAULT_3
 70
0
 62
7
  6
PHANTOM
370
-3
390
F
  0
LAYER
  5
1FD
100
AcDbSymbolTableRecord
100
AcDbLayerTableRecord
  2
AUSFORMSCHRAEGEN
 70
0
 62
7
  6
CONTINUOUS
370
-3
390
F
  0
LAYER
  5
1FE
100
AcDbSymbolTableRecord
100
AcDbLayerTableRecord
  2
BEZUGSACHSEN
 70
0
 62
7
  6
CONTINUOUS
370
-3
390
F
  0
LAYER
  5
1FF
100
AcDbSymbolTableRecord
100
AcDbLayerTableRecord
  2
BEZUGSEBENEN
 70
0
 62
7
  6
CONTINUOUS
370
-3
390
F
  0
LAYER
  5
200
100
AcDbSymbolTableRecord
100
AcDbLayerTableRecord
  2
FASEN
 70
0
 62
7
  6
CONTINUOUS
370
-3
390
F
  0
LAYER
  5
201
100
AcDbSymbolTableRecord
100
AcDbLayerTableRecord
  2
HILFEN
 70
0
 62
7
  6
CONTINUOUS
370
-3
390
F
  0
LAYER
  5
202
100
AcDbSymbolTableRecord
100
AcDbLayerTableRecord
  2
KURVEN
 70
0
 62
7
  6
CONTINUOUS
370
-3
390
F
  0
LAYER
  5
203
100
AcDbSymbolTableRecord
100
AcDbLayerTableRecord
  2
PLATZIERUNG
 70
0
 62
7
  6
CONTINUOUS
370
-3
390
F
  0
LAYER
  5
204
100
AcDbSymbolTableRecord
100
AcDbLayerTableRecord
  2
RUNDUNGEN
 70
0
 62
7
  6
CONTINUOUS
370
-3
390
F
  0
LAYER
  5
205
100
AcDbSymbolTableRecord
100
AcDbLayerTableRecord
  2
T_STARTBEZUEGE
 70
0
 62
7
  6
CONTINUOUS
370
-3
390
F
  0
LAYER
  5
206
100
AcDbSymbolTableRecord
100
AcDbLayerTableRecord
  2
_00_ASM_START_FEATURES
 70
0
 62
7
  6
CONTINUOUS
370
-3
390
F
  0
LAYER
  5
207
100
AcDbSymbolTableRecord
100
AcDbLayerTableRecord
  2
_00_HILFEN
 70
0
 62
7
  6
CONTINUOUS
370
-3
390
F
  0
LAYER
  5
208
100
AcDbSymbolTableRecord
100
AcDbLayerTableRecord
  2
_00_PLATZIERUNG
 70
0
 62
7
  6
CONTINUOUS
370
-3
390
F
  0
LAYER
  5
209
100
AcDbSymbolTableRecord
100
AcDbLayerTableRecord
  2
_03_2D_ZEICHNUNG_BEMASSUNGEN
 70
0
 62
7
  6
CONTINUOUS
370
-3
390
F
  0
LAYER
  5
20A
100
AcDbSymbolTableRecord
100
AcDbLayerTableRecord
  2
_04_NOTIZEN
 70
0
 62
7
  6
CONTINUOUS
370
-3
390
F
  0
LAYER
  5
20B
100
AcDbSymbolTableRecord
100
AcDbLayerTableRecord
  2
_21_KURVEN
 70
0
 62
7
  6
CONTINUOUS
370
-3
390
F
  0
LAYER
  5
20C
100
AcDbSymbolTableRecord
100
AcDbLayerTableRecord
  2
_26_BEZUGSACHSEN
 70
0
 62
7
  6
CONTINUOUS
370
-3
390
F
  0
LAYER
  5
20D
100
AcDbSymbolTableRecord
100
AcDbLayerTableRecord
  2
_27_BEZUGSEBENEN
 70
0
 62
7
  6
CONTINUOUS
370
-3
390
F
  0
LAYER
  5
20E
100
AcDbSymbolTableRecord
100
AcDbLayerTableRecord
  2
_29_KOORDINATENSYSTEME
 70
0
 62
7
  6
CONTINUOUS
370
-3
390
F
  0
LAYER
  5
20F
100
AcDbSymbolTableRecord
100
AcDbLayerTableRecord
  2
_30_VOLUMEN
 70
0
 62
7
  6
CONTINUOUS
370
-3
390
F
  0
ENDTAB
  0
TABLE
  2
STYLE
  5
3
100
AcDbSymbolTable
 70
1
  0
STYLE
  5
11
100
AcDbSymbolTableRecord
100
AcDbTextStyleTableRecord
  2
STANDARD
 70
0
 40
0.0
 41
1.0
 50
0.0
 71
0
 42
0.2
  3
isonormlt-regular.ttf
  4

1001
ACAD
1000
Isonorm LT Regular
1071
34
  0
STYLE
  5
210
100
AcDbSymbolTableRecord
100
AcDbTextStyleTableRecord
  2
TEXTSTYLE_1
 70
0
 40
0.0
 41
0.8
 50
0.0
 71
0
 42
0.2
  3
gdt
  4

  0
ENDTAB
  0
TABLE
  2
VIEW
  5
6
100
AcDbSymbolTable
 70
0
  0
ENDTAB
  0
TABLE
  2
UCS
  5
7
100
AcDbSymbolTable
 70
0
  0
ENDTAB
  0
TABLE
  2
APPID
  5
9
100
AcDbSymbolTable
 70
1
  0
APPID
  5
211
100
AcDbSymbolTableRecord
100
AcDbRegAppTableRecord
  2
ACAD
 70
0
  0
ENDTAB
  0
TABLE
  2
BLOCK_RECORD
  5
1
100
AcDbSymbolTable
 70
0
  0
BLOCK_RECORD
  5
212
100
AcDbSymbolTableRecord
100
AcDbBlockTableRecord
  2
*Model_Space
  0
BLOCK_RECORD
  5
213
100
AcDbSymbolTableRecord
100
AcDbBlockTableRecord
  2
*Paper_Space
  0
BLOCK_RECORD
  5
214
100
AcDbSymbolTableRecord
100
AcDbBlockTableRecord
  2
_FILLED
  0
ENDTAB
  0
TABLE
  2
DIMSTYLE
  5
A
100
AcDbSymbolTable
 70
1
100
AcDbDimStyleTable
 71
0
  0
DIMSTYLE
105
215
100
AcDbSymbolTableRecord
100
AcDbDimStyleTableRecord
  2
STANDARD
 70
0
  3

  4

 40
1.0
 41
3.5
 42
0.0
 43
0.38
 44
1.5
 45
0.0
 46
0.0
 47
0.01
 48
0.01
140
3.5
141
0.09
142
0.0
143
25.4
144
1.0
145
0.0
146
1.0
147
0.625
 71
1
 72
0
 73
0
 74
0
 75
0
 76
0
 77
1
 78
8
 79
2
170
0
171
1
172
0
173
0
174
0
175
0
176
0
177
0
178
5
270
2
179
2
271
2
272
2
273
2
274
2
275
0
280
0
281
0
282
0
283
1
284
8
285
0
286
0
287
3
288
0
340
11
278
46
341
214
342
214
343
214
344
214
  0
ENDTAB
  0
ENDSEC
  0
SECTION
  2
BLOCKS
  0
BLOCK
  5
20
100
AcDbEntity
  8
0
100
AcDbBlockBegin
  2
*Model_Space
 70
0
 10
0.0
 20
0.0
 30
0.0
  3
*Model_Space
  1

  0
ENDBLK
  5
21
100
AcDbEntity
  8
0
100
AcDbBlockEnd
  0
BLOCK
  5
1C
100
AcDbEntity
  8
0
100
AcDbBlockBegin
  2
*Paper_Space
 70
0
 10
0.0
 20
0.0
 30
0.0
  3
*Paper_Space
  1

  0
ENDBLK
  5
1D
100
AcDbEntity
  8
0
100
AcDbBlockEnd
  0
BLOCK
  5
216
100
AcDbEntity
  8
0
100
AcDbBlockBegin
  2
_FILLED
 70
64
 10
0.0
 20
0.0
  3
_FILLED
  1

  0
SOLID
  5
217
100
AcDbEntity
  8
0
  6
BYBLOCK
 62
0
100
AcDbTrace
 10
0.0
 20
0.0
 11
-1.0
 21
0.125
 12
-1.0
 22
-0.125
 13
-1.0
 23
-0.125
  0
ENDBLK
  5
218
100
AcDbEntity
  8
0
  6
BYBLOCK
 62
0
100
AcDbBlockEnd
  0
ENDSEC
  0
SECTION
  2
ENTITIES
  0
MTEXT
  5
219
100
AcDbEntity
  8
_04_NOTIZEN
100
AcDbMText
 62
5
  6
CONTINUOUS
  7
STANDARD
 71
1
 72
1
 10
88.6092848035
 20
122.1456357433
 30
0.0
 11
0.0
 21
1.0
 31
0.0
 73
2
 44
0.9
  1
RUD
 40
3.5
 41
8.736
  0
MTEXT
  5
21A
100
AcDbEntity
  8
_04_NOTIZEN
100
AcDbMText
 62
5
  6
CONTINUOUS
  7
STANDARD
 71
1
 72
1
 10
121.2299116913
 20
124.9146158798
 30
0.0
 11
1.0
 21
0.0
 31
0.0
 73
2
 44
0.9
  1
ICE
 40
3.5
 41
5.866
  0
MTEXT
  5
21B
100
AcDbEntity
  8
_04_NOTIZEN
100
AcDbMText
 62
5
  6
CONTINUOUS
  7
STANDARD
 71
1
 72
1
 10
190.7530380132
 20
130.4534762115
 30
0.0
 11
0.0
 21
1.0
 31
0.0
 73
2
 44
0.9
  1
ICE CCS
 40
3.5
 41
13.706
  0
MTEXT
  5
21C
100
AcDbEntity
  8
_04_NOTIZEN
100
AcDbMText
 62
5
  6
CONTINUOUS
  7
STANDARD
 71
1
 72
1
 10
93.4912286558
 20
49.8304280862
 30
0.0
 11
1.0
 21
0.0
 31
0.0
 73
2
 44
0.9
  1
RUD ICE CCS 8
 40
3.5
 41
26.81
  0
LINE
  5
21D
100
AcDbEntity
  8
0
100
AcDbLine
 62
7
  6
CONTINUOUS
 10
0.0
 20
0.0
 11
0.0
 21
210.0
  0
LINE
  5
21E
100
AcDbEntity
  8
0
100
AcDbLine
 62
7
  6
CONTINUOUS
 10
0.0
 20
0.0
 11
297.0
 21
0.0
  0
LINE
  5
21F
100
AcDbEntity
  8
0
100
AcDbLine
 62
7
  6
CONTINUOUS
 10
0.0
 20
210.0
 11
297.0
 21
210.0
  0
LINE
  5
220
100
AcDbEntity
  8
0
100
AcDbLine
 62
7
  6
CONTINUOUS
 10
297.0
 20
0.0
 11
297.0
 21
210.0
  0
LINE
  5
221
100
AcDbEntity
  8
FASEN
100
AcDbLine
 62
7
  6
CONTINUOUS
 10
75.3257860116
 20
105.174649871
 11
75.8257860113
 21
104.6746498712
  0
LINE
  5
222
100
AcDbEntity
  8
0
100
AcDbLine
 62
7
  6
CONTINUOUS
 10
132.4257860159
 20
101.1746498666
 11
117.3257860159
 21
101.1746498666
  0
LINE
  5
223
100
AcDbEntity
  8
0
100
AcDbLine
 62
7
  6
CONTINUOUS
 10
94.3257860159
 20
101.1746498666
 11
86.568426703
 21
101.1746498666
  0
LINE
  5
224
100
AcDbEntity
  8
FASEN
100
AcDbLine
 62
7
  6
CONTINUOUS
 10
82.8257860159
 20
104.6746498666
 11
75.8257860159
 21
104.6746498666
  0
LINE
  5
225
100
AcDbEntity
  8
_30_VOLUMEN
100
AcDbLine
 62
7
  6
CONTINUOUS
 10
132.4257860159
 20
106.1746498666
 11
132.7257860159
 21
106.1746498666
  0
LINE
  5
226
100
AcDbEntity
  8
0
100
AcDbLine
 62
7
  6
CONTINUOUS
 10
116.3257860159
 20
108.6746498666
 11
95.3257860159
 21
108.6746498666
  0
LINE
  5
227
100
AcDbEntity
  8
FASEN
100
AcDbLine
 62
7
  6
CONTINUOUS
 10
75.3257860159
 20
105.1746498666
 11
75.3257860159
 21
124.1746498666
  0
LINE
  5
228
100
AcDbEntity
  8
0
100
AcDbLine
 62
7
  6
CONTINUOUS
 10
134.9298221448
 20
109.1746498666
 11
133.2257860159
 21
109.1746498666
  0
LINE
  5
229
100
AcDbEntity
  8
0
100
AcDbLine
 62
7
  6
CONTINUOUS
 10
133.2257860159
 20
110.7746498666
 11
132.7257860159
 21
110.7746498666
  0
LINE
  5
22A
100
AcDbEntity
  8
FASEN
100
AcDbLine
 62
7
  6
CONTINUOUS
 10
75.8257860159
 20
104.6746498666
 11
75.8257860159
 21
124.6746498666
  0
LINE
  5
22B
100
AcDbEntity
  8
0
100
AcDbLine
 62
7
  6
CONTINUOUS
 10
121.5757860159
 20
113.8413165333
 11
127.0757860159
 21
113.8413165333
  0
LINE
  5
22C
100
AcDbEntity
  8
0
100
AcDbLine
 62
7
  6
CONTINUOUS
 10
121.5757860159
 20
115.5079831999
 11
127.0757860159
 21
115.5079831999
  0
LINE
  5
22D
100
AcDbEntity
  8
FASEN
100
AcDbLine
 62
7
  6
CONTINUOUS
 10
82.8257860183
 20
124.6746498642
 11
83.3257860182
 21
124.1746498643
  0
LINE
  5
22E
100
AcDbEntity
  8
FASEN
100
AcDbLine
 62
7
  6
CONTINUOUS
 10
82.8257860159
 20
104.6746498666
 11
82.8257860159
 21
124.6746498666
  0
LINE
  5
22F
100
AcDbEntity
  8
0
100
AcDbLine
 62
7
  6
CONTINUOUS
 10
133.2257860159
 20
118.5746498666
 11
132.7257860159
 21
118.5746498666
  0
LINE
  5
230
100
AcDbEntity
  8
_30_VOLUMEN
100
AcDbLine
 62
7
  6
CONTINUOUS
 10
83.3257860159
 20
125.3462227419
 11
83.3257860159
 21
104.0030769914
  0
LINE
  5
231
100
AcDbEntity
  8
RUNDUNGEN
100
AcDbLine
 62
7
  6
CONTINUOUS
 10
85.3257860159
 20
148.6746498666
 11
85.3256955326
 21
127.3696705764
  0
LINE
  5
232
100
AcDbEntity
  8
0
100
AcDbLine
 62
7
  6
CONTINUOUS
 10
134.9298221448
 20
120.1746498666
 11
133.2257860159
 21
120.1746498666
  0
LINE
  5
233
100
AcDbEntity
  8
0
100
AcDbLine
 62
7
  6
CONTINUOUS
 10
116.3257860159
 20
120.6746498666
 11
95.3257860159
 21
120.6746498666
  0
LINE
  5
234
100
AcDbEntity
  8
_30_VOLUMEN
100
AcDbLine
 62
7
  6
CONTINUOUS
 10
132.8257860159
 20
122.9011471747
 11
135.5257860159
 21
122.9011471747
  0
LINE
  5
235
100
AcDbEntity
  8
_30_VOLUMEN
100
AcDbLine
 62
7
  6
CONTINUOUS
 10
88.5547594016
 20
143.4375634161
 11
88.5547594016
 21
143.0208973852
  0
LINE
  5
236
100
AcDbEntity
  8
_30_VOLUMEN
100
AcDbLine
 62
7
  6
CONTINUOUS
 10
88.5547594016
 20
139.8542304006
 11
88.5547594016
 21
139.1042304006
  0
LINE
  5
237
100
AcDbEntity
  8
_30_VOLUMEN
100
AcDbLine
 62
7
  6
CONTINUOUS
 10
88.5547594016
 20
135.9375636545
 11
88.5547594016
 21
135.1875637737
  0
LINE
  5
238
100
AcDbEntity
  8
_30_VOLUMEN
100
AcDbLine
 62
7
  6
CONTINUOUS
 10
89.0653976386
 20
135.1875637737
 11
89.0653976386
 21
135.9375636545
  0
LINE
  5
239
100
AcDbEntity
  8
_30_VOLUMEN
100
AcDbLine
 62
7
  6
CONTINUOUS
 10
89.0653976386
 20
139.1042304006
 11
89.0653976386
 21
139.8542304006
  0
LINE
  5
23A
100
AcDbEntity
  8
_30_VOLUMEN
100
AcDbLine
 62
7
  6
CONTINUOUS
 10
89.0653976386
 20
143.0208973852
 11
89.0653976386
 21
143.5208973852
  0
LINE
  5
23B
100
AcDbEntity
  8
_30_VOLUMEN
100
AcDbLine
 62
7
  6
CONTINUOUS
 10
89.4909295028
 20
144.0208973852
 11
89.4909295028
 21
144.5208973852
  0
LINE
  5
23C
100
AcDbEntity
  8
_30_VOLUMEN
100
AcDbLine
 62
7
  6
CONTINUOUS
 10
89.5760361141
 20
136.6042304006
 11
89.5760361141
 21
137.1042304006
  0
LINE
  5
23D
100
AcDbEntity
  8
_30_VOLUMEN
100
AcDbLine
 62
7
  6
CONTINUOUS
 10
89.5760361141
 20
140.5208969084
 11
89.5760361141
 21
141.0208969084
  0
LINE
  5
23E
100
AcDbEntity
  8
_30_VOLUMEN
100
AcDbLine
 62
7
  6
CONTINUOUS
 10
88.6398657745
 20
143.8542304006
 11
88.5547594016
 21
143.4375634161
  0
LINE
  5
23F
100
AcDbEntity
  8
_30_VOLUMEN
100
AcDbLine
 62
7
  6
CONTINUOUS
 10
88.6398657745
 20
140.2708969084
 11
88.5547594016
 21
139.8542304006
  0
LINE
  5
240
100
AcDbEntity
  8
_30_VOLUMEN
100
AcDbLine
 62
7
  6
CONTINUOUS
 10
125.0528176837
 20
128.6280664766
 11
124.7194843106
 21
128.5429601038
  0
LINE
  5
241
100
AcDbEntity
  8
_30_VOLUMEN
100
AcDbLine
 62
7
  6
CONTINUOUS
 10
124.0528176837
 20
129.904662248
 11
124.3861510567
 21
129.9897686208
  0
LINE
  5
242
100
AcDbEntity
  8
_30_VOLUMEN
100
AcDbLine
 62
7
  6
CONTINUOUS
 10
125.0528176837
 20
130.415300485
 11
124.7194843106
 21
130.3301941121
  0
LINE
  5
243
100
AcDbEntity
  8
_30_VOLUMEN
100
AcDbLine
 62
7
  6
CONTINUOUS
 10
124.8028176837
 20
128.11742818
 11
125.2194844298
 21
128.2025345603
  0
LINE
  5
244
100
AcDbEntity
  8
FASEN
100
AcDbLine
 62
7
  6
CONTINUOUS
 10
82.8257860159
 20
124.6746498666
 11
75.8257860159
 21
124.6746498666
  0
LINE
  5
245
100
AcDbEntity
  8
_30_VOLUMEN
100
AcDbLine
 62
7
  6
CONTINUOUS
 10
132.8257860159
 20
125.7878985207
 11
135.5257860159
 21
125.7878985207
  0
LINE
  5
246
100
AcDbEntity
  8
_26_BEZUGSACHSEN
100
AcDbLine
 62
7
  6
CONTINUOUS
 10
132.7257860159
 20
126.1746498666
 11
132.8257860159
 21
126.1746498666
  0
LINE
  5
247
100
AcDbEntity
  8
_30_VOLUMEN
100
AcDbLine
 62
7
  6
CONTINUOUS
 10
89.5760361141
 20
134.4375637141
 11
89.3207167571
 21
134.6042304006
  0
LINE
  5
248
100
AcDbEntity
  8
_30_VOLUMEN
100
AcDbLine
 62
7
  6
CONTINUOUS
 10
88.8100785201
 20
134.4375637141
 11
89.1505040115
 21
134.1042304006
  0
LINE
  5
249
100
AcDbEntity
  8
_30_VOLUMEN
100
AcDbLine
 62
7
  6
CONTINUOUS
 10
89.3207167571
 20
134.6042304006
 11
89.1505040115
 21
134.8542304006
  0
LINE
  5
24A
100
AcDbEntity
  8
_30_VOLUMEN
100
AcDbLine
 62
7
  6
CONTINUOUS
 10
89.3207167571
 20
138.5208969084
 11
89.1505040115
 21
138.7708969084
  0
LINE
  5
24B
100
AcDbEntity
  8
_30_VOLUMEN
100
AcDbLine
 62
7
  6
CONTINUOUS
 10
88.6398657745
 20
134.7708970872
 11
88.8100785201
 21
134.4375637141
  0
LINE
  5
24C
100
AcDbEntity
  8
_30_VOLUMEN
100
AcDbLine
 62
7
  6
CONTINUOUS
 10
88.6398657745
 20
138.6875638929
 11
88.8100785201
 21
138.3542304006
  0
LINE
  5
24D
100
AcDbEntity
  8
_30_VOLUMEN
100
AcDbLine
 62
7
  6
CONTINUOUS
 10
89.1505040115
 20
142.7708973852
 11
89.0653976386
 21
143.0208973852
  0
LINE
  5
24E
100
AcDbEntity
  8
_30_VOLUMEN
100
AcDbLine
 62
7
  6
CONTINUOUS
 10
89.1505040115
 20
134.8542304006
 11
89.0653976386
 21
135.1875637737
  0
LINE
  5
24F
100
AcDbEntity
  8
_30_VOLUMEN
100
AcDbLine
 62
7
  6
CONTINUOUS
 10
89.1505040115
 20
138.7708969084
 11
89.0653976386
 21
139.1042304006
  0
LINE
  5
250
100
AcDbEntity
  8
_30_VOLUMEN
100
AcDbLine
 62
7
  6
CONTINUOUS
 10
88.5547594016
 20
143.0208973852
 11
88.6398657745
 21
142.6875634161
  0
LINE
  5
251
100
AcDbEntity
  8
_30_VOLUMEN
100
AcDbLine
 62
7
  6
CONTINUOUS
 10
88.5547594016
 20
135.1875637737
 11
88.6398657745
 21
134.7708970872
  0
LINE
  5
252
100
AcDbEntity
  8
_30_VOLUMEN
100
AcDbLine
 62
7
  6
CONTINUOUS
 10
88.5547594016
 20
139.1042304006
 11
88.6398657745
 21
138.6875638929
  0
LINE
  5
253
100
AcDbEntity
  8
_30_VOLUMEN
100
AcDbLine
 62
7
  6
CONTINUOUS
 10
90.2568870967
 20
143.5208973852
 11
90.2568870967
 21
143.0208973852
  0
LINE
  5
254
100
AcDbEntity
  8
_30_VOLUMEN
100
AcDbLine
 62
7
  6
CONTINUOUS
 10
90.7675253337
 20
143.0208973852
 11
90.7675253337
 21
143.5208973852
  0
LINE
  5
255
100
AcDbEntity
  8
_30_VOLUMEN
100
AcDbLine
 62
7
  6
CONTINUOUS
 10
91.4483764356
 20
142.1875634161
 11
91.4483764356
 21
141.6875638929
  0
LINE
  5
256
100
AcDbEntity
  8
_30_VOLUMEN
100
AcDbLine
 62
7
  6
CONTINUOUS
 10
91.5334828084
 20
141.0208969084
 11
91.5334828084
 21
140.5208969084
  0
LINE
  5
257
100
AcDbEntity
  8
_30_VOLUMEN
100
AcDbLine
 62
7
  6
CONTINUOUS
 10
91.5334828084
 20
137.1042304006
 11
91.5334828084
 21
136.6042304006
  0
LINE
  5
258
100
AcDbEntity
  8
_30_VOLUMEN
100
AcDbLine
 62
7
  6
CONTINUOUS
 10
92.044121105
 20
143.5208973852
 11
92.044121105
 21
142.8542304006
  0
LINE
  5
259
100
AcDbEntity
  8
_30_VOLUMEN
100
AcDbLine
 62
7
  6
CONTINUOUS
 10
92.044121105
 20
139.8542304006
 11
92.044121105
 21
139.1042304006
  0
LINE
  5
25A
100
AcDbEntity
  8
_30_VOLUMEN
100
AcDbLine
 62
7
  6
CONTINUOUS
 10
92.044121105
 20
135.9375636545
 11
92.044121105
 21
135.1875637737
  0
LINE
  5
25B
100
AcDbEntity
  8
_30_VOLUMEN
100
AcDbLine
 62
7
  6
CONTINUOUS
 10
92.5547594016
 20
135.1875637737
 11
92.5547594016
 21
135.9375636545
  0
LINE
  5
25C
100
AcDbEntity
  8
_30_VOLUMEN
100
AcDbLine
 62
7
  6
CONTINUOUS
 10
92.5547594016
 20
139.1042304006
 11
92.5547594016
 21
139.8542304006
  0
LINE
  5
25D
100
AcDbEntity
  8
_30_VOLUMEN
100
AcDbLine
 62
7
  6
CONTINUOUS
 10
92.5547594016
 20
142.8542304006
 11
92.5547594016
 21
143.5208973852
  0
LINE
  5
25E
100
AcDbEntity
  8
_30_VOLUMEN
100
AcDbLine
 62
7
  6
CONTINUOUS
 10
88.6398657745
 20
136.3542304006
 11
88.5547594016
 21
135.9375636545
  0
LINE
  5
25F
100
AcDbEntity
  8
_30_VOLUMEN
100
AcDbLine
 62
7
  6
CONTINUOUS
 10
90.3419934696
 20
143.9375634161
 11
90.2568870967
 21
143.5208973852
  0
LINE
  5
260
100
AcDbEntity
  8
_30_VOLUMEN
100
AcDbLine
 62
7
  6
CONTINUOUS
 10
92.4696530214
 20
142.4375634161
 11
92.5547594016
 21
142.8542304006
  0
LINE
  5
261
100
AcDbEntity
  8
_30_VOLUMEN
100
AcDbLine
 62
7
  6
CONTINUOUS
 10
89.0653976386
 20
139.8542304006
 11
89.1505040115
 21
140.1875638929
  0
LINE
  5
262
100
AcDbEntity
  8
_30_VOLUMEN
100
AcDbLine
 62
7
  6
CONTINUOUS
 10
90.7675253337
 20
143.5208973852
 11
90.8526317066
 21
143.8542304006
  0
LINE
  5
263
100
AcDbEntity
  8
_30_VOLUMEN
100
AcDbLine
 62
7
  6
CONTINUOUS
 10
90.6824189609
 20
142.6875634161
 11
90.7675253337
 21
143.0208973852
  0
LINE
  5
264
100
AcDbEntity
  8
_30_VOLUMEN
100
AcDbLine
 62
7
  6
CONTINUOUS
 10
89.0653976386
 20
135.9375636545
 11
89.1505040115
 21
136.2708971468
  0
LINE
  5
265
100
AcDbEntity
  8
_30_VOLUMEN
100
AcDbLine
 62
7
  6
CONTINUOUS
 10
92.044121105
 20
142.8542304006
 11
91.9590147322
 21
142.5208973852
  0
LINE
  5
266
100
AcDbEntity
  8
_30_VOLUMEN
100
AcDbLine
 62
7
  6
CONTINUOUS
 10
89.0653976386
 20
143.5208973852
 11
89.1505040115
 21
143.7708973852
  0
LINE
  5
267
100
AcDbEntity
  8
_30_VOLUMEN
100
AcDbLine
 62
7
  6
CONTINUOUS
 10
90.2568870967
 20
143.0208973852
 11
90.1717807239
 21
142.7708973852
  0
LINE
  5
268
100
AcDbEntity
  8
_30_VOLUMEN
100
AcDbLine
 62
7
  6
CONTINUOUS
 10
90.5122062152
 20
144.2708973852
 11
90.3419934696
 21
143.9375634161
  0
LINE
  5
269
100
AcDbEntity
  8
_30_VOLUMEN
100
AcDbLine
 62
7
  6
CONTINUOUS
 10
88.8100785201
 20
140.6042304006
 11
88.6398657745
 21
140.2708969084
  0
LINE
  5
26A
100
AcDbEntity
  8
_30_VOLUMEN
100
AcDbLine
 62
7
  6
CONTINUOUS
 10
90.5122062152
 20
142.3542304006
 11
90.6824189609
 21
142.6875634161
  0
LINE
  5
26B
100
AcDbEntity
  8
_30_VOLUMEN
100
AcDbLine
 62
7
  6
CONTINUOUS
 10
88.895184893
 20
144.1875634161
 11
88.6398657745
 21
143.8542304006
  0
LINE
  5
26C
100
AcDbEntity
  8
_30_VOLUMEN
100
AcDbLine
 62
7
  6
CONTINUOUS
 10
124.0528176837
 20
131.606789943
 11
124.3861510567
 21
131.6918963159
  0
LINE
  5
26D
100
AcDbEntity
  8
_30_VOLUMEN
100
AcDbLine
 62
7
  6
CONTINUOUS
 10
124.3861510567
 20
132.11742818
 11
123.9694843702
 21
132.0323218072
  0
LINE
  5
26E
100
AcDbEntity
  8
_30_VOLUMEN
100
AcDbLine
 62
7
  6
CONTINUOUS
 10
124.3028176837
 20
128.11742818
 11
124.8028176837
 21
128.11742818
  0
LINE
  5
26F
100
AcDbEntity
  8
_30_VOLUMEN
100
AcDbLine
 62
7
  6
CONTINUOUS
 10
124.7194843106
 20
128.5429601038
 11
124.3861510567
 21
128.5429601038
  0
LINE
  5
270
100
AcDbEntity
  8
_30_VOLUMEN
100
AcDbLine
 62
7
  6
CONTINUOUS
 10
124.3861510567
 20
129.9897686208
 11
124.7194843106
 21
129.9897686208
  0
LINE
  5
271
100
AcDbEntity
  8
_30_VOLUMEN
100
AcDbLine
 62
7
  6
CONTINUOUS
 10
89.1505040115
 20
134.1042304006
 11
89.4909295028
 21
133.9375637365
  0
LINE
  5
272
100
AcDbEntity
  8
_30_VOLUMEN
100
AcDbLine
 62
7
  6
CONTINUOUS
 10
89.5760361141
 20
138.3542304006
 11
89.3207167571
 21
138.5208969084
  0
LINE
  5
273
100
AcDbEntity
  8
_30_VOLUMEN
100
AcDbLine
 62
7
  6
CONTINUOUS
 10
88.8100785201
 20
138.3542304006
 11
89.1505040115
 21
138.0208969084
  0
LINE
  5
274
100
AcDbEntity
  8
_30_VOLUMEN
100
AcDbLine
 62
7
  6
CONTINUOUS
 10
92.2994402533
 20
136.6875636545
 11
91.9590147322
 21
137.0208971468
  0
LINE
  5
275
100
AcDbEntity
  8
_30_VOLUMEN
100
AcDbLine
 62
7
  6
CONTINUOUS
 10
88.8100785201
 20
142.3542304006
 11
89.1505040115
 21
142.0208973852
  0
LINE
  5
276
100
AcDbEntity
  8
_30_VOLUMEN
100
AcDbLine
 62
7
  6
CONTINUOUS
 10
91.7888019269
 20
136.5208971468
 11
91.9590147322
 21
136.2708971468
  0
LINE
  5
277
100
AcDbEntity
  8
_30_VOLUMEN
100
AcDbLine
 62
7
  6
CONTINUOUS
 10
89.3207167571
 20
142.5208973852
 11
89.1505040115
 21
142.7708973852
  0
LINE
  5
278
100
AcDbEntity
  8
_30_VOLUMEN
100
AcDbLine
 62
7
  6
CONTINUOUS
 10
91.7888019269
 20
140.4375638929
 11
91.9590147322
 21
140.1875638929
  0
LINE
  5
279
100
AcDbEntity
  8
_30_VOLUMEN
100
AcDbLine
 62
7
  6
CONTINUOUS
 10
88.6398657745
 20
142.6875634161
 11
88.8100785201
 21
142.3542304006
  0
LINE
  5
27A
100
AcDbEntity
  8
_30_VOLUMEN
100
AcDbLine
 62
7
  6
CONTINUOUS
 10
92.4696530214
 20
136.3542304006
 11
92.2994402533
 21
136.6875636545
  0
LINE
  5
27B
100
AcDbEntity
  8
_30_VOLUMEN
100
AcDbLine
 62
7
  6
CONTINUOUS
 10
92.4696530214
 20
140.2708969084
 11
92.2994402533
 21
140.6042304006
  0
LINE
  5
27C
100
AcDbEntity
  8
_30_VOLUMEN
100
AcDbLine
 62
7
  6
CONTINUOUS
 10
91.9590147322
 20
136.2708971468
 11
92.044121105
 21
135.9375636545
  0
LINE
  5
27D
100
AcDbEntity
  8
_30_VOLUMEN
100
AcDbLine
 62
7
  6
CONTINUOUS
 10
91.9590147322
 20
140.1875638929
 11
92.044121105
 21
139.8542304006
  0
LINE
  5
27E
100
AcDbEntity
  8
_30_VOLUMEN
100
AcDbLine
 62
7
  6
CONTINUOUS
 10
91.9590147322
 20
143.8542304006
 11
92.044121105
 21
143.5208973852
  0
LINE
  5
27F
100
AcDbEntity
  8
_30_VOLUMEN
100
AcDbLine
 62
7
  6
CONTINUOUS
 10
92.5547594016
 20
135.9375636545
 11
92.4696530214
 21
136.3542304006
  0
LINE
  5
280
100
AcDbEntity
  8
_30_VOLUMEN
100
AcDbLine
 62
7
  6
CONTINUOUS
 10
92.5547594016
 20
139.8542304006
 11
92.4696530214
 21
140.2708969084
  0
LINE
  5
281
100
AcDbEntity
  8
_30_VOLUMEN
100
AcDbLine
 62
7
  6
CONTINUOUS
 10
92.5547594016
 20
143.5208973852
 11
92.4696530214
 21
143.9375634161
  0
LINE
  5
282
100
AcDbEntity
  8
RUNDUNGEN
100
AcDbLine
 62
7
  6
CONTINUOUS
 10
93.8257860159
 20
156.5036782554
 11
93.8257860159
 21
174.6746498666
  0
LINE
  5
283
100
AcDbEntity
  8
BEZUGSACHSEN
100
AcDbLine
 62
7
  6
CONTINUOUS
 10
95.3257860159
 20
124.9662351448
 11
95.3257860159
 21
102.1746498666
  0
LINE
  5
284
100
AcDbEntity
  8
RUNDUNGEN
100
AcDbLine
 62
7
  6
CONTINUOUS
 10
95.3257860159
 20
102.1746498666
 11
95.3257860159
 21
148.6746498666
  0
LINE
  5
285
100
AcDbEntity
  8
_30_VOLUMEN
100
AcDbLine
 62
7
  6
CONTINUOUS
 10
92.4696530214
 20
138.6875638929
 11
92.5547594016
 21
139.1042304006
  0
LINE
  5
286
100
AcDbEntity
  8
_30_VOLUMEN
100
AcDbLine
 62
7
  6
CONTINUOUS
 10
92.4696530214
 20
134.7708970872
 11
92.5547594016
 21
135.1875637737
  0
LINE
  5
287
100
AcDbEntity
  8
_30_VOLUMEN
100
AcDbLine
 62
7
  6
CONTINUOUS
 10
92.044121105
 20
139.1042304006
 11
91.9590147322
 21
138.7708969084
  0
LINE
  5
288
100
AcDbEntity
  8
_30_VOLUMEN
100
AcDbLine
 62
7
  6
CONTINUOUS
 10
92.044121105
 20
135.1875637737
 11
91.9590147322
 21
134.8542304006
  0
LINE
  5
289
100
AcDbEntity
  8
_30_VOLUMEN
100
AcDbLine
 62
7
  6
CONTINUOUS
 10
88.8100785201
 20
136.6875636545
 11
88.6398657745
 21
136.3542304006
  0
LINE
  5
28A
100
AcDbEntity
  8
_30_VOLUMEN
100
AcDbLine
 62
7
  6
CONTINUOUS
 10
92.2994402533
 20
138.3542304006
 11
92.4696530214
 21
138.6875638929
  0
LINE
  5
28B
100
AcDbEntity
  8
_30_VOLUMEN
100
AcDbLine
 62
7
  6
CONTINUOUS
 10
92.2143338805
 20
142.0208973852
 11
92.4696530214
 21
142.4375634161
  0
LINE
  5
28C
100
AcDbEntity
  8
_30_VOLUMEN
100
AcDbLine
 62
7
  6
CONTINUOUS
 10
90.8526317066
 20
143.8542304006
 11
91.0228444522
 21
144.1042304006
  0
LINE
  5
28D
100
AcDbEntity
  8
_30_VOLUMEN
100
AcDbLine
 62
7
  6
CONTINUOUS
 10
90.1717807239
 20
142.7708973852
 11
90.0015679782
 21
142.5208973852
  0
LINE
  5
28E
100
AcDbEntity
  8
_30_VOLUMEN
100
AcDbLine
 62
7
  6
CONTINUOUS
 10
89.1505040115
 20
140.1875638929
 11
89.3207167571
 21
140.4375638929
  0
LINE
  5
28F
100
AcDbEntity
  8
_30_VOLUMEN
100
AcDbLine
 62
7
  6
CONTINUOUS
 10
89.1505040115
 20
136.2708971468
 11
89.3207167571
 21
136.5208971468
  0
LINE
  5
290
100
AcDbEntity
  8
_30_VOLUMEN
100
AcDbLine
 62
7
  6
CONTINUOUS
 10
89.1505040115
 20
143.7708973852
 11
89.3207167571
 21
143.9375634161
  0
LINE
  5
291
100
AcDbEntity
  8
_30_VOLUMEN
100
AcDbLine
 62
7
  6
CONTINUOUS
 10
90.8526317066
 20
144.6042304006
 11
90.5122062152
 21
144.2708973852
  0
LINE
  5
292
100
AcDbEntity
  8
_30_VOLUMEN
100
AcDbLine
 62
7
  6
CONTINUOUS
 10
90.1717807239
 20
142.0208973852
 11
90.5122062152
 21
142.3542304006
  0
LINE
  5
293
100
AcDbEntity
  8
_30_VOLUMEN
100
AcDbLine
 62
7
  6
CONTINUOUS
 10
89.1505040115
 20
140.9375638929
 11
88.8100785201
 21
140.6042304006
  0
LINE
  5
294
100
AcDbEntity
  8
_30_VOLUMEN
100
AcDbLine
 62
7
  6
CONTINUOUS
 10
89.2356103843
 20
144.4375634161
 11
88.895184893
 21
144.1875634161
  0
LINE
  5
295
100
AcDbEntity
  8
_30_VOLUMEN
100
AcDbLine
 62
7
  6
CONTINUOUS
 10
124.7194843106
 20
130.3301941121
 11
124.3861510567
 21
130.3301941121
  0
LINE
  5
296
100
AcDbEntity
  8
_26_BEZUGSACHSEN
100
AcDbLine
 62
7
  6
CONTINUOUS
 10
132.7257860159
 20
131.1746498666
 11
132.8257860159
 21
131.1746498666
  0
LINE
  5
297
100
AcDbEntity
  8
_30_VOLUMEN
100
AcDbLine
 62
7
  6
CONTINUOUS
 10
132.8257860159
 20
131.5614012126
 11
135.5257860159
 21
131.5614012126
  0
LINE
  5
298
100
AcDbEntity
  8
_30_VOLUMEN
100
AcDbLine
 62
7
  6
CONTINUOUS
 10
124.3861510567
 20
131.6918963159
 11
124.7194843106
 21
131.6918963159
  0
LINE
  5
299
100
AcDbEntity
  8
_30_VOLUMEN
100
AcDbLine
 62
7
  6
CONTINUOUS
 10
124.7194843106
 20
132.11742818
 11
124.3861510567
 21
132.11742818
  0
LINE
  5
29A
100
AcDbEntity
  8
_30_VOLUMEN
100
AcDbLine
 62
7
  6
CONTINUOUS
 10
89.4909295028
 20
133.9375637365
 11
89.9164616054
 21
133.8542304006
  0
LINE
  5
29B
100
AcDbEntity
  8
_30_VOLUMEN
100
AcDbLine
 62
7
  6
CONTINUOUS
 10
123.8861509971
 20
128.2025345603
 11
124.3028176837
 21
128.11742818
  0
LINE
  5
29C
100
AcDbEntity
  8
_30_VOLUMEN
100
AcDbLine
 62
7
  6
CONTINUOUS
 10
89.9164616054
 20
134.3542304006
 11
89.5760361141
 21
134.4375637141
  0
LINE
  5
29D
100
AcDbEntity
  8
_30_VOLUMEN
100
AcDbLine
 62
7
  6
CONTINUOUS
 10
124.3861510567
 20
128.5429601038
 11
124.0528176837
 21
128.6280664766
  0
LINE
  5
29E
100
AcDbEntity
  8
_30_VOLUMEN
100
AcDbLine
 62
7
  6
CONTINUOUS
 10
91.5334828084
 20
136.6042304006
 11
91.7888019269
 21
136.5208971468
  0
LINE
  5
29F
100
AcDbEntity
  8
RUNDUNGEN
100
AcDbLine
 62
7
  6
CONTINUOUS
 10
138.9967960875
 20
118.6943924079
 11
134.9298221448
 21
120.1746498666
  0
LINE
  5
2A0
100
AcDbEntity
  8
_30_VOLUMEN
100
AcDbLine
 62
7
  6
CONTINUOUS
 10
89.1505040115
 20
138.0208969084
 11
89.4909295028
 21
137.8542304006
  0
LINE
  5
2A1
100
AcDbEntity
  8
0
100
AcDbLine
 62
7
  6
CONTINUOUS
 10
127.7082857509
 20
116.9355875322
 11
130.9865866943
 21
114.8866494426
  0
LINE
  5
2A2
100
AcDbEntity
  8
_30_VOLUMEN
100
AcDbLine
 62
7
  6
CONTINUOUS
 10
92.2994402533
 20
140.6042304006
 11
91.9590147322
 21
140.9375638929
  0
LINE
  5
2A3
100
AcDbEntity
  8
_30_VOLUMEN
100
AcDbLine
 62
7
  6
CONTINUOUS
 10
92.2994402533
 20
144.2708973852
 11
91.9590147322
 21
144.6042304006
  0
LINE
  5
2A4
100
AcDbEntity
  8
_30_VOLUMEN
100
AcDbLine
 62
7
  6
CONTINUOUS
 10
91.7888019269
 20
144.1042304006
 11
91.9590147322
 21
143.8542304006
  0
LINE
  5
2A5
100
AcDbEntity
  8
_30_VOLUMEN
100
AcDbLine
 62
7
  6
CONTINUOUS
 10
92.4696530214
 20
143.9375634161
 11
92.2994402533
 21
144.2708973852
  0
LINE
  5
2A6
100
AcDbEntity
  8
_30_VOLUMEN
100
AcDbLine
 62
7
  6
CONTINUOUS
 10
92.2994402533
 20
134.4375637141
 11
92.4696530214
 21
134.7708970872
  0
LINE
  5
2A7
100
AcDbEntity
  8
_30_VOLUMEN
100
AcDbLine
 62
7
  6
CONTINUOUS
 10
91.9590147322
 20
138.7708969084
 11
91.7888019269
 21
138.5208969084
  0
LINE
  5
2A8
100
AcDbEntity
  8
_30_VOLUMEN
100
AcDbLine
 62
7
  6
CONTINUOUS
 10
91.9590147322
 20
134.8542304006
 11
91.7888019269
 21
134.6042304006
  0
LINE
  5
2A9
100
AcDbEntity
  8
FASEN
100
AcDbLine
 62
7
  6
CONTINUOUS
 10
75.3257860116
 20
124.1746498623
 11
75.8257860113
 21
124.6746498621
  0
LINE
  5
2AA
100
AcDbEntity
  8
_30_VOLUMEN
100
AcDbLine
 62
7
  6
CONTINUOUS
 10
91.9590147322
 20
142.5208973852
 11
91.7036955541
 21
142.2708973852
  0
LINE
  5
2AB
100
AcDbEntity
  8
_30_VOLUMEN
100
AcDbLine
 62
7
  6
CONTINUOUS
 10
89.1505040115
 20
137.0208971468
 11
88.8100785201
 21
136.6875636545
  0
LINE
  5
2AC
100
AcDbEntity
  8
_30_VOLUMEN
100
AcDbLine
 62
7
  6
CONTINUOUS
 10
91.0228444522
 20
144.1042304006
 11
91.2781636899
 21
144.2708973852
  0
LINE
  5
2AD
100
AcDbEntity
  8
_30_VOLUMEN
100
AcDbLine
 62
7
  6
CONTINUOUS
 10
89.3207167571
 20
143.9375634161
 11
89.4909295028
 21
144.0208973852
  0
LINE
  5
2AE
100
AcDbEntity
  8
_30_VOLUMEN
100
AcDbLine
 62
7
  6
CONTINUOUS
 10
91.1930573171
 20
144.7708973852
 11
90.8526317066
 21
144.6042304006
  0
LINE
  5
2AF
100
AcDbEntity
  8
_30_VOLUMEN
100
AcDbLine
 62
7
  6
CONTINUOUS
 10
91.1930573171
 20
133.8542304006
 11
91.6185891813
 21
133.9375637365
  0
LINE
  5
2B0
100
AcDbEntity
  8
_30_VOLUMEN
100
AcDbLine
 62
7
  6
CONTINUOUS
 10
89.9164616054
 20
133.8542304006
 11
91.1930573171
 21
133.8542304006
  0
LINE
  5
2B1
100
AcDbEntity
  8
_30_VOLUMEN
100
AcDbLine
 62
7
  6
CONTINUOUS
 10
91.1930573171
 20
134.3542304006
 11
89.9164616054
 21
134.3542304006
  0
LINE
  5
2B2
100
AcDbEntity
  8
_30_VOLUMEN
100
AcDbLine
 62
7
  6
CONTINUOUS
 10
132.8257860159
 20
134.4481525585
 11
135.5257860159
 21
134.4481525585
  0
LINE
  5
2B3
100
AcDbEntity
  8
_30_VOLUMEN
100
AcDbLine
 62
7
  6
CONTINUOUS
 10
126.0257860159
 20
135.6746498666
 11
132.4257860159
 21
135.6746498666
  0
LINE
  5
2B4
100
AcDbEntity
  8
_30_VOLUMEN
100
AcDbLine
 62
7
  6
CONTINUOUS
 10
91.9590147322
 20
137.0208971468
 11
91.5334828084
 21
137.1042304006
  0
LINE
  5
2B5
100
AcDbEntity
  8
_30_VOLUMEN
100
AcDbLine
 62
7
  6
CONTINUOUS
 10
89.4909295028
 20
137.8542304006
 11
89.9164616054
 21
137.7708971468
  0
LINE
  5
2B6
100
AcDbEntity
  8
_30_VOLUMEN
100
AcDbLine
 62
7
  6
CONTINUOUS
 10
125.1361509375
 20
132.0323218072
 11
124.7194843106
 21
132.11742818
  0
LINE
  5
2B7
100
AcDbEntity
  8
_30_VOLUMEN
100
AcDbLine
 62
7
  6
CONTINUOUS
 10
89.9164616054
 20
138.2708969084
 11
89.5760361141
 21
138.3542304006
  0
LINE
  5
2B8
100
AcDbEntity
  8
_30_VOLUMEN
100
AcDbLine
 62
7
  6
CONTINUOUS
 10
124.7194843106
 20
129.9897686208
 11
125.0528176837
 21
129.904662248
  0
LINE
  5
2B9
100
AcDbEntity
  8
_30_VOLUMEN
100
AcDbLine
 62
7
  6
CONTINUOUS
 10
124.3861510567
 20
130.3301941121
 11
124.0528176837
 21
130.415300485
  0
LINE
  5
2BA
100
AcDbEntity
  8
_30_VOLUMEN
100
AcDbLine
 62
7
  6
CONTINUOUS
 10
124.7194843106
 20
131.6918963159
 11
125.0528176837
 21
131.606789943
  0
LINE
  5
2BB
100
AcDbEntity
  8
_30_VOLUMEN
100
AcDbLine
 62
7
  6
CONTINUOUS
 10
91.5334828084
 20
140.5208969084
 11
91.7888019269
 21
140.4375638929
  0
LINE
  5
2BC
100
AcDbEntity
  8
_30_VOLUMEN
100
AcDbLine
 62
7
  6
CONTINUOUS
 10
89.5760361141
 20
142.4375634161
 11
89.3207167571
 21
142.5208973852
  0
LINE
  5
2BD
100
AcDbEntity
  8
_30_VOLUMEN
100
AcDbLine
 62
7
  6
CONTINUOUS
 10
91.5334828084
 20
144.2708973852
 11
91.7888019269
 21
144.1042304006
  0
LINE
  5
2BE
100
AcDbEntity
  8
_30_VOLUMEN
100
AcDbLine
 62
7
  6
CONTINUOUS
 10
91.9590147322
 20
138.0208969084
 11
92.2994402533
 21
138.3542304006
  0
LINE
  5
2BF
100
AcDbEntity
  8
_30_VOLUMEN
100
AcDbLine
 62
7
  6
CONTINUOUS
 10
91.9590147322
 20
134.1042304006
 11
92.2994402533
 21
134.4375637141
  0
LINE
  5
2C0
100
AcDbEntity
  8
_30_VOLUMEN
100
AcDbLine
 62
7
  6
CONTINUOUS
 10
91.7888019269
 20
138.5208969084
 11
91.5334828084
 21
138.3542304006
  0
LINE
  5
2C1
100
AcDbEntity
  8
_30_VOLUMEN
100
AcDbLine
 62
7
  6
CONTINUOUS
 10
91.7888019269
 20
141.7708969084
 11
92.2143338805
 21
142.0208973852
  0
LINE
  5
2C2
100
AcDbEntity
  8
_30_VOLUMEN
100
AcDbLine
 62
7
  6
CONTINUOUS
 10
89.4909295028
 20
144.5208973852
 11
89.2356103843
 21
144.4375634161
  0
LINE
  5
2C3
100
AcDbEntity
  8
_30_VOLUMEN
100
AcDbLine
 62
7
  6
CONTINUOUS
 10
90.0015679782
 20
142.5208973852
 11
89.7462488597
 21
142.4375634161
  0
LINE
  5
2C4
100
AcDbEntity
  8
_30_VOLUMEN
100
AcDbLine
 62
7
  6
CONTINUOUS
 10
91.7036955541
 20
142.2708973852
 11
91.4483764356
 21
142.1875634161
  0
LINE
  5
2C5
100
AcDbEntity
  8
_30_VOLUMEN
100
AcDbLine
 62
7
  6
CONTINUOUS
 10
91.5334828084
 20
134.4375637141
 11
91.1930573171
 21
134.3542304006
  0
LINE
  5
2C6
100
AcDbEntity
  8
_30_VOLUMEN
100
AcDbLine
 62
7
  6
CONTINUOUS
 10
89.5760361141
 20
137.1042304006
 11
89.1505040115
 21
137.0208971468
  0
LINE
  5
2C7
100
AcDbEntity
  8
_30_VOLUMEN
100
AcDbLine
 62
7
  6
CONTINUOUS
 10
89.9164616054
 20
137.7708971468
 11
91.1930573171
 21
137.7708971468
  0
LINE
  5
2C8
100
AcDbEntity
  8
_30_VOLUMEN
100
AcDbLine
 62
7
  6
CONTINUOUS
 10
91.1930573171
 20
138.2708969084
 11
89.9164616054
 21
138.2708969084
  0
LINE
  5
2C9
100
AcDbEntity
  8
_30_VOLUMEN
100
AcDbLine
 62
7
  6
CONTINUOUS
 10
91.9590147322
 20
140.9375638929
 11
91.5334828084
 21
141.0208969084
  0
LINE
  5
2CA
100
AcDbEntity
  8
_30_VOLUMEN
100
AcDbLine
 62
7
  6
CONTINUOUS
 10
89.1505040115
 20
142.0208973852
 11
89.4909295028
 21
141.9375634161
  0
LINE
  5
2CB
100
AcDbEntity
  8
_30_VOLUMEN
100
AcDbLine
 62
7
  6
CONTINUOUS
 10
91.9590147322
 20
144.6042304006
 11
91.6185891813
 21
144.7708973852
  0
LINE
  5
2CC
100
AcDbEntity
  8
_30_VOLUMEN
100
AcDbLine
 62
7
  6
CONTINUOUS
 10
124.0528176837
 20
128.6280664766
 11
123.7194843702
 21
128.7982792223
  0
LINE
  5
2CD
100
AcDbEntity
  8
_30_VOLUMEN
100
AcDbLine
 62
7
  6
CONTINUOUS
 10
123.5528176837
 20
130.2450877393
 11
123.7194843702
 21
130.1599813665
  0
LINE
  5
2CE
100
AcDbEntity
  8
_30_VOLUMEN
100
AcDbLine
 62
7
  6
CONTINUOUS
 10
125.0528176837
 20
129.904662248
 11
125.3861509375
 21
129.7344495023
  0
LINE
  5
2CF
100
AcDbEntity
  8
_30_VOLUMEN
100
AcDbLine
 62
7
  6
CONTINUOUS
 10
125.5528176837
 20
130.0748749936
 11
125.3861509375
 21
130.1599813665
  0
LINE
  5
2D0
100
AcDbEntity
  8
_30_VOLUMEN
100
AcDbLine
 62
7
  6
CONTINUOUS
 10
123.4694843404
 20
128.4578537012
 11
123.8861509971
 21
128.2025345603
  0
LINE
  5
2D1
100
AcDbEntity
  8
_30_VOLUMEN
100
AcDbLine
 62
7
  6
CONTINUOUS
 10
91.7888019269
 20
134.6042304006
 11
91.5334828084
 21
134.4375637141
  0
LINE
  5
2D2
100
AcDbEntity
  8
_30_VOLUMEN
100
AcDbLine
 62
7
  6
CONTINUOUS
 10
91.6185891813
 20
137.8542304006
 11
91.9590147322
 21
138.0208969084
  0
LINE
  5
2D3
100
AcDbEntity
  8
_30_VOLUMEN
100
AcDbLine
 62
7
  6
CONTINUOUS
 10
89.3207167571
 20
140.4375638929
 11
89.5760361141
 21
140.5208969084
  0
LINE
  5
2D4
100
AcDbEntity
  8
_30_VOLUMEN
100
AcDbLine
 62
7
  6
CONTINUOUS
 10
91.5334828084
 20
138.3542304006
 11
91.1930573171
 21
138.2708969084
  0
LINE
  5
2D5
100
AcDbEntity
  8
_30_VOLUMEN
100
AcDbLine
 62
7
  6
CONTINUOUS
 10
91.1930573171
 20
137.7708971468
 11
91.6185891813
 21
137.8542304006
  0
LINE
  5
2D6
100
AcDbEntity
  8
_30_VOLUMEN
100
AcDbLine
 62
7
  6
CONTINUOUS
 10
89.4909295028
 20
141.9375634161
 11
89.8313552326
 21
141.9375634161
  0
LINE
  5
2D7
100
AcDbEntity
  8
_30_VOLUMEN
100
AcDbLine
 62
7
  6
CONTINUOUS
 10
89.7462488597
 20
142.4375634161
 11
89.5760361141
 21
142.4375634161
  0
LINE
  5
2D8
100
AcDbEntity
  8
_30_VOLUMEN
100
AcDbLine
 62
7
  6
CONTINUOUS
 10
91.2781636899
 20
144.2708973852
 11
91.5334828084
 21
144.2708973852
  0
LINE
  5
2D9
100
AcDbEntity
  8
_30_VOLUMEN
100
AcDbLine
 62
7
  6
CONTINUOUS
 10
125.5528176837
 20
131.7770026887
 11
125.1361509375
 21
132.0323218072
  0
LINE
  5
2DA
100
AcDbEntity
  8
_30_VOLUMEN
100
AcDbLine
 62
7
  6
CONTINUOUS
 10
124.0528176837
 20
130.415300485
 11
123.7194843702
 21
130.6706196035
  0
LINE
  5
2DB
100
AcDbEntity
  8
_30_VOLUMEN
100
AcDbLine
 62
7
  6
CONTINUOUS
 10
125.8861509375
 20
129.8195558751
 11
125.5528176837
 21
130.0748749936
  0
LINE
  5
2DC
100
AcDbEntity
  8
_30_VOLUMEN
100
AcDbLine
 62
7
  6
CONTINUOUS
 10
91.6185891813
 20
133.9375637365
 11
91.9590147322
 21
134.1042304006
  0
LINE
  5
2DD
100
AcDbEntity
  8
_30_VOLUMEN
100
AcDbLine
 62
7
  6
CONTINUOUS
 10
89.3207167571
 20
136.5208971468
 11
89.5760361141
 21
136.6042304006
  0
LINE
  5
2DE
100
AcDbEntity
  8
_30_VOLUMEN
100
AcDbLine
 62
7
  6
CONTINUOUS
 10
91.4483764356
 20
141.6875638929
 11
91.7888019269
 21
141.7708969084
  0
LINE
  5
2DF
100
AcDbEntity
  8
_30_VOLUMEN
100
AcDbLine
 62
7
  6
CONTINUOUS
 10
89.8313552326
 20
141.9375634161
 11
90.1717807239
 21
142.0208973852
  0
LINE
  5
2E0
100
AcDbEntity
  8
_30_VOLUMEN
100
AcDbLine
 62
7
  6
CONTINUOUS
 10
89.5760361141
 20
141.0208969084
 11
89.1505040115
 21
140.9375638929
  0
LINE
  5
2E1
100
AcDbEntity
  8
_30_VOLUMEN
100
AcDbLine
 62
7
  6
CONTINUOUS
 10
91.6185891813
 20
144.7708973852
 11
91.1930573171
 21
144.7708973852
  0
LINE
  5
2E2
100
AcDbEntity
  8
_30_VOLUMEN
100
AcDbLine
 62
7
  6
CONTINUOUS
 10
125.0528176837
 20
131.606789943
 11
125.3861509375
 21
131.3514708245
  0
LINE
  5
2E3
100
AcDbEntity
  8
_30_VOLUMEN
100
AcDbLine
 62
7
  6
CONTINUOUS
 10
123.2194843553
 20
128.7131728495
 11
123.4694843404
 21
128.4578537012
  0
LINE
  5
2E4
100
AcDbEntity
  8
_30_VOLUMEN
100
AcDbLine
 62
7
  6
CONTINUOUS
 10
123.3028176837
 20
130.5004068578
 11
123.5528176837
 21
130.2450877393
  0
LINE
  5
2E5
100
AcDbEntity
  8
_30_VOLUMEN
100
AcDbLine
 62
7
  6
CONTINUOUS
 10
126.0257860159
 20
149.1746498666
 11
131.8257860159
 21
149.1746498666
  0
LINE
  5
2E6
100
AcDbEntity
  8
_30_VOLUMEN
100
AcDbLine
 62
7
  6
CONTINUOUS
 10
125.8028176837
 20
131.5216835702
 11
125.5528176837
 21
131.7770026887
  0
LINE
  5
2E7
100
AcDbEntity
  8
_30_VOLUMEN
100
AcDbLine
 62
7
  6
CONTINUOUS
 10
123.7194843702
 20
128.7982792223
 11
123.4694843404
 21
129.1387047732
  0
LINE
  5
2E8
100
AcDbEntity
  8
_30_VOLUMEN
100
AcDbLine
 62
7
  6
CONTINUOUS
 10
125.3861509375
 20
129.7344495023
 11
125.6361509375
 21
129.3940238917
  0
LINE
  5
2E9
100
AcDbEntity
  8
_30_VOLUMEN
100
AcDbLine
 62
7
  6
CONTINUOUS
 10
123.7194843702
 20
130.6706196035
 11
123.5528176837
 21
130.925938722
  0
LINE
  5
2EA
100
AcDbEntity
  8
BEZUGSACHSEN
100
AcDbLine
 62
7
  6
CONTINUOUS
 10
116.3257860159
 20
102.1746498666
 11
116.3257860159
 21
122.8458570439
  0
LINE
  5
2EB
100
AcDbEntity
  8
RUNDUNGEN
100
AcDbLine
 62
7
  6
CONTINUOUS
 10
116.3257860159
 20
102.1746498666
 11
116.3257860159
 21
148.6746498666
  0
LINE
  5
2EC
100
AcDbEntity
  8
RUNDUNGEN
100
AcDbLine
 62
7
  6
CONTINUOUS
 10
117.8257860159
 20
174.6746498666
 11
117.8257860159
 21
156.5036783874
  0
LINE
  5
2ED
100
AcDbEntity
  8
FASEN
100
AcDbLine
 62
7
  6
CONTINUOUS
 10
82.8257860183
 20
104.674649869
 11
83.3257860182
 21
105.1746498689
  0
LINE
  5
2EE
100
AcDbEntity
  8
RUNDUNGEN
100
AcDbLine
 62
7
  6
CONTINUOUS
 10
99.2757646574
 20
152.6746498666
 11
112.3758082954
 21
152.6746498666
  0
LINE
  5
2EF
100
AcDbEntity
  8
_30_VOLUMEN
100
AcDbLine
 62
7
  6
CONTINUOUS
 10
125.3861509375
 20
131.3514708245
 11
125.5528176837
 21
131.0961514676
  0
LINE
  5
2F0
100
AcDbEntity
  8
_30_VOLUMEN
100
AcDbLine
 62
7
  6
CONTINUOUS
 10
123.1361510195
 20
130.8408323491
 11
123.3028176837
 21
130.5004068578
  0
LINE
  5
2F1
100
AcDbEntity
  8
_30_VOLUMEN
100
AcDbLine
 62
7
  6
CONTINUOUS
 10
123.0528176837
 20
129.1387047732
 11
123.2194843553
 21
128.7131728495
  0
LINE
  5
2F2
100
AcDbEntity
  8
0
100
AcDbLine
 62
7
  6
CONTINUOUS
 10
121.3257860159
 20
115.2579831999
 11
121.3257860159
 21
114.0913165333
  0
LINE
  5
2F3
100
AcDbEntity
  8
_30_VOLUMEN
100
AcDbLine
 62
7
  6
CONTINUOUS
 10
126.0528176837
 20
129.3940238917
 11
125.8861509375
 21
129.8195558751
  0
LINE
  5
2F4
100
AcDbEntity
  8
_30_VOLUMEN
100
AcDbLine
 62
7
  6
CONTINUOUS
 10
125.9694844298
 20
131.0961514676
 11
125.8028176837
 21
131.5216835702
  0
LINE
  5
2F5
100
AcDbEntity
  8
_30_VOLUMEN
100
AcDbLine
 62
7
  6
CONTINUOUS
 10
123.0528176837
 20
129.3940238917
 11
123.0528176837
 21
129.1387047732
  0
LINE
  5
2F6
100
AcDbEntity
  8
_30_VOLUMEN
100
AcDbLine
 62
7
  6
CONTINUOUS
 10
123.1361510195
 20
131.0961514676
 11
123.1361510195
 21
130.8408323491
  0
LINE
  5
2F7
100
AcDbEntity
  8
_30_VOLUMEN
100
AcDbLine
 62
7
  6
CONTINUOUS
 10
123.4694843404
 20
129.1387047732
 11
123.4694843404
 21
129.3940238917
  0
LINE
  5
2F8
100
AcDbEntity
  8
_30_VOLUMEN
100
AcDbLine
 62
7
  6
CONTINUOUS
 10
123.5528176837
 20
130.925938722
 11
123.5528176837
 21
131.0961514676
  0
LINE
  5
2F9
100
AcDbEntity
  8
_30_VOLUMEN
100
AcDbLine
 62
7
  6
CONTINUOUS
 10
125.5528176837
 20
131.0961514676
 11
125.5528176837
 21
130.925938722
  0
LINE
  5
2FA
100
AcDbEntity
  8
_30_VOLUMEN
100
AcDbLine
 62
7
  6
CONTINUOUS
 10
125.6361509375
 20
129.3940238917
 11
125.6361509375
 21
129.1387047732
  0
LINE
  5
2FB
100
AcDbEntity
  8
_30_VOLUMEN
100
AcDbLine
 62
7
  6
CONTINUOUS
 10
125.9694844298
 20
130.8408323491
 11
125.9694844298
 21
131.0961514676
  0
LINE
  5
2FC
100
AcDbEntity
  8
_30_VOLUMEN
100
AcDbLine
 62
7
  6
CONTINUOUS
 10
126.0257860159
 20
135.6746498666
 11
126.0257860159
 21
149.1746498666
  0
LINE
  5
2FD
100
AcDbEntity
  8
_30_VOLUMEN
100
AcDbLine
 62
7
  6
CONTINUOUS
 10
126.0528176837
 20
129.1387047732
 11
126.0528176837
 21
129.3940238917
  0
LINE
  5
2FE
100
AcDbEntity
  8
_30_VOLUMEN
100
AcDbLine
 62
7
  6
CONTINUOUS
 10
126.1257860159
 20
140.8746498666
 11
126.1257860159
 21
135.6746498666
  0
LINE
  5
2FF
100
AcDbEntity
  8
0
100
AcDbLine
 62
7
  6
CONTINUOUS
 10
127.3257860159
 20
116.7235879562
 11
127.3257860159
 21
115.7579831999
  0
LINE
  5
300
100
AcDbEntity
  8
0
100
AcDbLine
 62
7
  6
CONTINUOUS
 10
127.3257860159
 20
113.5913165333
 11
127.3257860159
 21
112.625711777
  0
LINE
  5
301
100
AcDbEntity
  8
_30_VOLUMEN
100
AcDbLine
 62
7
  6
CONTINUOUS
 10
123.3028176837
 20
131.5216835702
 11
123.1361510195
 21
131.0961514676
  0
LINE
  5
302
100
AcDbEntity
  8
_30_VOLUMEN
100
AcDbLine
 62
7
  6
CONTINUOUS
 10
123.2194843553
 20
129.8195558751
 11
123.0528176837
 21
129.3940238917
  0
LINE
  5
303
100
AcDbEntity
  8
_30_VOLUMEN
100
AcDbLine
 62
7
  6
CONTINUOUS
 10
123.5528176837
 20
131.0961514676
 11
123.7194843702
 21
131.3514708245
  0
LINE
  5
304
100
AcDbEntity
  8
_30_VOLUMEN
100
AcDbLine
 62
7
  6
CONTINUOUS
 10
123.4694843404
 20
129.3940238917
 11
123.7194843702
 21
129.7344495023
  0
LINE
  5
305
100
AcDbEntity
  8
_30_VOLUMEN
100
AcDbLine
 62
7
  6
CONTINUOUS
 10
123.5528176837
 20
131.7770026887
 11
123.3028176837
 21
131.5216835702
  0
LINE
  5
306
100
AcDbEntity
  8
_30_VOLUMEN
100
AcDbLine
 62
7
  6
CONTINUOUS
 10
123.7194843702
 20
131.3514708245
 11
124.0528176837
 21
131.606789943
  0
LINE
  5
307
100
AcDbEntity
  8
_30_VOLUMEN
100
AcDbLine
 62
7
  6
CONTINUOUS
 10
123.5528176837
 20
130.0748749936
 11
123.2194843553
 21
129.8195558751
  0
LINE
  5
308
100
AcDbEntity
  8
_30_VOLUMEN
100
AcDbLine
 62
7
  6
CONTINUOUS
 10
125.3861509375
 20
130.6706196035
 11
125.0528176837
 21
130.415300485
  0
LINE
  5
309
100
AcDbEntity
  8
_30_VOLUMEN
100
AcDbLine
 62
7
  6
CONTINUOUS
 10
123.9694843702
 20
132.0323218072
 11
123.5528176837
 21
131.7770026887
  0
LINE
  5
30A
100
AcDbEntity
  8
_30_VOLUMEN
100
AcDbLine
 62
7
  6
CONTINUOUS
 10
123.7194843702
 20
130.1599813665
 11
123.5528176837
 21
130.0748749936
  0
LINE
  5
30B
100
AcDbEntity
  8
_30_VOLUMEN
100
AcDbLine
 62
7
  6
CONTINUOUS
 10
123.7194843702
 20
129.7344495023
 11
124.0528176837
 21
129.904662248
  0
LINE
  5
30C
100
AcDbEntity
  8
_30_VOLUMEN
100
AcDbLine
 62
7
  6
CONTINUOUS
 10
125.3861509375
 20
130.1599813665
 11
125.5528176837
 21
130.2450877393
  0
LINE
  5
30D
100
AcDbEntity
  8
_30_VOLUMEN
100
AcDbLine
 62
7
  6
CONTINUOUS
 10
125.3861509375
 20
128.7982792223
 11
125.0528176837
 21
128.6280664766
  0
LINE
  5
30E
100
AcDbEntity
  8
RUNDUNGEN
100
AcDbLine
 62
7
  6
CONTINUOUS
 10
129.3257860159
 20
155.0255028277
 11
119.3257860159
 21
160.7990055196
  0
LINE
  5
30F
100
AcDbEntity
  8
_30_VOLUMEN
100
AcDbLine
 62
7
  6
CONTINUOUS
 10
131.8257860159
 20
149.1746498666
 11
131.8257860159
 21
150.6953758088
  0
LINE
  5
310
100
AcDbEntity
  8
_30_VOLUMEN
100
AcDbLine
 62
7
  6
CONTINUOUS
 10
132.4257860159
 20
101.1746498666
 11
132.4257860159
 21
135.6746498666
  0
LINE
  5
311
100
AcDbEntity
  8
_30_VOLUMEN
100
AcDbLine
 62
7
  6
CONTINUOUS
 10
125.8861509375
 20
128.7131728495
 11
126.0528176837
 21
129.1387047732
  0
LINE
  5
312
100
AcDbEntity
  8
_30_VOLUMEN
100
AcDbLine
 62
7
  6
CONTINUOUS
 10
125.8028176837
 20
130.5004068578
 11
125.9694844298
 21
130.8408323491
  0
LINE
  5
313
100
AcDbEntity
  8
_30_VOLUMEN
100
AcDbLine
 62
7
  6
CONTINUOUS
 10
125.5528176837
 20
130.925938722
 11
125.3861509375
 21
130.6706196035
  0
LINE
  5
314
100
AcDbEntity
  8
_30_VOLUMEN
100
AcDbLine
 62
7
  6
CONTINUOUS
 10
125.6361509375
 20
129.1387047732
 11
125.3861509375
 21
128.7982792223
  0
LINE
  5
315
100
AcDbEntity
  8
_30_VOLUMEN
100
AcDbLine
 62
7
  6
CONTINUOUS
 10
125.5528176837
 20
130.2450877393
 11
125.8028176837
 21
130.5004068578
  0
LINE
  5
316
100
AcDbEntity
  8
_30_VOLUMEN
100
AcDbLine
 62
7
  6
CONTINUOUS
 10
125.6361509375
 20
128.4578537012
 11
125.8861509375
 21
128.7131728495
  0
LINE
  5
317
100
AcDbEntity
  8
_30_VOLUMEN
100
AcDbLine
 62
7
  6
CONTINUOUS
 10
125.2194844298
 20
128.2025345603
 11
125.6361509375
 21
128.4578537012
  0
LINE
  5
318
100
AcDbEntity
  8
_30_VOLUMEN
100
AcDbLine
 62
7
  6
CONTINUOUS
 10
132.7257860159
 20
140.8746498666
 11
132.7257860159
 21
106.1746498666
  0
LINE
  5
319
100
AcDbEntity
  8
_30_VOLUMEN
100
AcDbLine
 62
7
  6
CONTINUOUS
 10
132.8257860159
 20
134.4481525585
 11
132.8257860159
 21
122.9011471747
  0
LINE
  5
31A
100
AcDbEntity
  8
0
100
AcDbLine
 62
7
  6
CONTINUOUS
 10
133.2257860159
 20
120.1746498666
 11
133.2257860159
 21
109.1746498666
  0
LINE
  5
31B
100
AcDbEntity
  8
0
100
AcDbLine
 62
7
  6
CONTINUOUS
 10
134.9298221448
 20
120.1746498666
 11
134.9298221448
 21
109.1746498666
  0
LINE
  5
31C
100
AcDbEntity
  8
_30_VOLUMEN
100
AcDbLine
 62
7
  6
CONTINUOUS
 10
135.5257860159
 20
134.4481525585
 11
135.5257860159
 21
122.9011471747
  0
LINE
  5
31D
100
AcDbEntity
  8
RUNDUNGEN
100
AcDbLine
 62
7
  6
CONTINUOUS
 10
139.3257860159
 20
111.1247536357
 11
139.3257860159
 21
118.2245460975
  0
LINE
  5
31E
100
AcDbEntity
  8
0
100
AcDbLine
 62
7
  6
CONTINUOUS
 10
130.9865866943
 20
114.4626502906
 11
127.7082857509
 21
112.413712201
  0
LINE
  5
31F
100
AcDbEntity
  8
RUNDUNGEN
100
AcDbLine
 62
7
  6
CONTINUOUS
 10
138.9967960875
 20
110.6549073253
 11
134.9298221448
 21
109.1746498666
  0
LINE
  5
320
100
AcDbEntity
  8
BEZUGSACHSEN
100
AcDbLine
 62
7
  6
CONTINUOUS
 10
178.6615236497
 20
112.375711777
 11
179.168664734
 21
112.375711777
  0
LINE
  5
321
100
AcDbEntity
  8
0
100
AcDbLine
 62
7
  6
CONTINUOUS
 10
205.7742944886
 20
112.375711777
 11
206.2814355728
 21
112.375711777
  0
LINE
  5
322
100
AcDbEntity
  8
0
100
AcDbLine
 62
7
  6
CONTINUOUS
 10
192.2214796113
 20
112.6746498666
 11
192.7214796113
 21
112.6746498666
  0
LINE
  5
323
100
AcDbEntity
  8
0
100
AcDbLine
 62
7
  6
CONTINUOUS
 10
192.9714796113
 20
113.1852881632
 11
192.6381462382
 21
113.1001817904
  0
LINE
  5
324
100
AcDbEntity
  8
0
100
AcDbLine
 62
7
  6
CONTINUOUS
 10
191.9714796113
 20
114.4618839345
 11
192.3048129844
 21
114.5469903074
  0
LINE
  5
325
100
AcDbEntity
  8
0
100
AcDbLine
 62
7
  6
CONTINUOUS
 10
192.9714796113
 20
114.9725221715
 11
192.6381462382
 21
114.8874157987
  0
LINE
  5
326
100
AcDbEntity
  8
0
100
AcDbLine
 62
7
  6
CONTINUOUS
 10
192.7214796113
 20
112.6746498666
 11
193.1381463574
 21
112.7597562469
  0
LINE
  5
327
100
AcDbEntity
  8
0
100
AcDbLine
 62
7
  6
CONTINUOUS
 10
192.6381462382
 20
113.1001817904
 11
192.3048129844
 21
113.1001817904
  0
LINE
  5
328
100
AcDbEntity
  8
BEZUGSACHSEN
100
AcDbLine
 62
7
  6
CONTINUOUS
 10
178.9972243237
 20
113.8413165333
 11
178.4963032061
 21
113.8413165333
  0
LINE
  5
329
100
AcDbEntity
  8
0
100
AcDbLine
 62
7
  6
CONTINUOUS
 10
205.9457348989
 20
113.8413165333
 11
206.4466560164
 21
113.8413165333
  0
LINE
  5
32A
100
AcDbEntity
  8
0
100
AcDbLine
 62
7
  6
CONTINUOUS
 10
192.3048129844
 20
114.5469903074
 11
192.6381462382
 21
114.5469903074
  0
LINE
  5
32B
100
AcDbEntity
  8
0
100
AcDbLine
 62
7
  6
CONTINUOUS
 10
192.6381462382
 20
114.8874157987
 11
192.3048129844
 21
114.8874157987
  0
LINE
  5
32C
100
AcDbEntity
  8
BEZUGSACHSEN
100
AcDbLine
 62
7
  6
CONTINUOUS
 10
178.9972243237
 20
115.5079831999
 11
178.4963032061
 21
115.5079831999
  0
LINE
  5
32D
100
AcDbEntity
  8
0
100
AcDbLine
 62
7
  6
CONTINUOUS
 10
205.9457348989
 20
115.5079831999
 11
206.4466560164
 21
115.5079831999
  0
LINE
  5
32E
100
AcDbEntity
  8
0
100
AcDbLine
 62
7
  6
CONTINUOUS
 10
191.8048129247
 20
112.7597562469
 11
192.2214796113
 21
112.6746498666
  0
LINE
  5
32F
100
AcDbEntity
  8
0
100
AcDbLine
 62
7
  6
CONTINUOUS
 10
192.3048129844
 20
113.1001817904
 11
191.9714796113
 21
113.1852881632
  0
LINE
  5
330
100
AcDbEntity
  8
0
100
AcDbLine
 62
7
  6
CONTINUOUS
 10
192.6381462382
 20
114.5469903074
 11
192.9714796113
 21
114.4618839345
  0
LINE
  5
331
100
AcDbEntity
  8
0
100
AcDbLine
 62
7
  6
CONTINUOUS
 10
192.3048129844
 20
114.8874157987
 11
191.9714796113
 21
114.9725221715
  0
LINE
  5
332
100
AcDbEntity
  8
0
100
AcDbLine
 62
7
  6
CONTINUOUS
 10
191.9714796113
 20
116.1640116296
 11
192.3048129844
 21
116.2491180024
  0
LINE
  5
333
100
AcDbEntity
  8
0
100
AcDbLine
 62
7
  6
CONTINUOUS
 10
196.888146119
 20
118.2703945361
 11
196.5548131036
 21
118.1852881632
  0
LINE
  5
334
100
AcDbEntity
  8
0
100
AcDbLine
 62
7
  6
CONTINUOUS
 10
192.8881465958
 20
118.2703945361
 11
192.5548131036
 21
118.1852881632
  0
LINE
  5
335
100
AcDbEntity
  8
0
100
AcDbLine
 62
7
  6
CONTINUOUS
 10
192.3048129844
 20
116.6746498666
 11
191.8881462978
 21
116.5895434938
  0
LINE
  5
336
100
AcDbEntity
  8
0
100
AcDbLine
 62
7
  6
CONTINUOUS
 10
196.5548131036
 20
117.6746498666
 11
196.9714800881
 21
117.7597562469
  0
LINE
  5
337
100
AcDbEntity
  8
0
100
AcDbLine
 62
7
  6
CONTINUOUS
 10
192.5548131036
 20
117.6746498666
 11
192.9714796113
 21
117.7597562469
  0
LINE
  5
338
100
AcDbEntity
  8
0
100
AcDbLine
 62
7
  6
CONTINUOUS
 10
192.3048129844
 20
116.2491180024
 11
192.6381462382
 21
116.2491180024
  0
LINE
  5
339
100
AcDbEntity
  8
0
100
AcDbLine
 62
7
  6
CONTINUOUS
 10
192.6381462382
 20
116.6746498666
 11
192.3048129844
 21
116.6746498666
  0
LINE
  5
33A
100
AcDbEntity
  8
BEZUGSACHSEN
100
AcDbLine
 62
7
  6
CONTINUOUS
 10
178.6615236497
 20
116.9735879562
 11
179.168664734
 21
116.9735879562
  0
LINE
  5
33B
100
AcDbEntity
  8
0
100
AcDbLine
 62
7
  6
CONTINUOUS
 10
205.7742944886
 20
116.9735879562
 11
206.2814355728
 21
116.9735879562
  0
LINE
  5
33C
100
AcDbEntity
  8
0
100
AcDbLine
 62
7
  6
CONTINUOUS
 10
187.0548131036
 20
117.6746498666
 11
187.5548131036
 21
117.6746498666
  0
LINE
  5
33D
100
AcDbEntity
  8
0
100
AcDbLine
 62
7
  6
CONTINUOUS
 10
189.6381463574
 20
117.6746498666
 11
190.2214798497
 21
117.6746498666
  0
LINE
  5
33E
100
AcDbEntity
  8
0
100
AcDbLine
 62
7
  6
CONTINUOUS
 10
192.2214796113
 20
117.6746498666
 11
192.5548131036
 21
117.6746498666
  0
LINE
  5
33F
100
AcDbEntity
  8
0
100
AcDbLine
 62
7
  6
CONTINUOUS
 10
194.5548131036
 20
117.6746498666
 11
196.5548131036
 21
117.6746498666
  0
LINE
  5
340
100
AcDbEntity
  8
0
100
AcDbLine
 62
7
  6
CONTINUOUS
 10
196.5548131036
 20
118.1852881632
 11
195.0548131036
 21
118.1852881632
  0
LINE
  5
341
100
AcDbEntity
  8
0
100
AcDbLine
 62
7
  6
CONTINUOUS
 10
192.5548131036
 20
118.1852881632
 11
192.2214796113
 21
118.1852881632
  0
LINE
  5
342
100
AcDbEntity
  8
0
100
AcDbLine
 62
7
  6
CONTINUOUS
 10
193.0548128651
 20
116.5895434938
 11
192.6381462382
 21
116.6746498666
  0
LINE
  5
343
100
AcDbEntity
  8
0
100
AcDbLine
 62
7
  6
CONTINUOUS
 10
191.8048131036
 20
117.7597562469
 11
192.2214796113
 21
117.6746498666
  0
LINE
  5
344
100
AcDbEntity
  8
0
100
AcDbLine
 62
7
  6
CONTINUOUS
 10
192.6381462382
 20
116.2491180024
 11
192.9714796113
 21
116.1640116296
  0
LINE
  5
345
100
AcDbEntity
  8
0
100
AcDbLine
 62
7
  6
CONTINUOUS
 10
192.2214796113
 20
118.1852881632
 11
191.8881465958
 21
118.2703945361
  0
LINE
  5
346
100
AcDbEntity
  8
0
100
AcDbLine
 62
7
  6
CONTINUOUS
 10
191.9714796113
 20
113.1852881632
 11
191.6381462978
 21
113.3555009089
  0
LINE
  5
347
100
AcDbEntity
  8
0
100
AcDbLine
 62
7
  6
CONTINUOUS
 10
191.4714796113
 20
114.8023094259
 11
191.6381462978
 21
114.717203053
  0
LINE
  5
348
100
AcDbEntity
  8
0
100
AcDbLine
 62
7
  6
CONTINUOUS
 10
192.9714796113
 20
114.4618839345
 11
193.3048128651
 21
114.2916711889
  0
LINE
  5
349
100
AcDbEntity
  8
0
100
AcDbLine
 62
7
  6
CONTINUOUS
 10
193.4714796113
 20
114.6320966802
 11
193.3048128651
 21
114.717203053
  0
LINE
  5
34A
100
AcDbEntity
  8
0
100
AcDbLine
 62
7
  6
CONTINUOUS
 10
191.388146268
 20
113.0150753878
 11
191.8048129247
 21
112.7597562469
  0
LINE
  5
34B
100
AcDbEntity
  8
0
100
AcDbLine
 62
7
  6
CONTINUOUS
 10
187.5548131036
 20
119.4618839345
 11
188.9714797305
 21
119.4618839345
  0
LINE
  5
34C
100
AcDbEntity
  8
0
100
AcDbLine
 62
7
  6
CONTINUOUS
 10
189.1381463574
 20
119.9725221715
 11
187.5548131036
 21
119.9725221715
  0
LINE
  5
34D
100
AcDbEntity
  8
0
100
AcDbLine
 62
7
  6
CONTINUOUS
 10
195.0548131036
 20
121.1640116296
 11
196.5548131036
 21
121.1640116296
  0
LINE
  5
34E
100
AcDbEntity
  8
0
100
AcDbLine
 62
7
  6
CONTINUOUS
 10
187.5548131036
 20
121.2491180024
 11
189.1381463574
 21
121.2491180024
  0
LINE
  5
34F
100
AcDbEntity
  8
0
100
AcDbLine
 62
7
  6
CONTINUOUS
 10
196.5548131036
 20
121.6746498666
 11
194.5548131036
 21
121.6746498666
  0
LINE
  5
350
100
AcDbEntity
  8
0
100
AcDbLine
 62
7
  6
CONTINUOUS
 10
193.8881465958
 20
121.6746498666
 11
193.3881465958
 21
121.6746498666
  0
LINE
  5
351
100
AcDbEntity
  8
0
100
AcDbLine
 62
7
  6
CONTINUOUS
 10
191.3881465958
 20
121.6746498666
 11
190.8881463574
 21
121.6746498666
  0
LINE
  5
352
100
AcDbEntity
  8
0
100
AcDbLine
 62
7
  6
CONTINUOUS
 10
189.0548131036
 20
121.6746498666
 11
187.0548131036
 21
121.6746498666
  0
LINE
  5
353
100
AcDbEntity
  8
0
100
AcDbLine
 62
7
  6
CONTINUOUS
 10
189.4714798497
 20
121.5895434938
 11
189.0548131036
 21
121.6746498666
  0
LINE
  5
354
100
AcDbEntity
  8
0
100
AcDbLine
 62
7
  6
CONTINUOUS
 10
189.1381463574
 20
121.2491180024
 11
189.3881463574
 21
121.1640116296
  0
LINE
  5
355
100
AcDbEntity
  8
0
100
AcDbLine
 62
7
  6
CONTINUOUS
 10
191.4714796113
 20
117.9299690149
 11
191.8048131036
 21
117.7597562469
  0
LINE
  5
356
100
AcDbEntity
  8
0
100
AcDbLine
 62
7
  6
CONTINUOUS
 10
193.4714796113
 20
116.3342243753
 11
193.0548128651
 21
116.5895434938
  0
LINE
  5
357
100
AcDbEntity
  8
0
100
AcDbLine
 62
7
  6
CONTINUOUS
 10
191.8881465958
 20
118.2703945361
 11
191.6381465958
 21
118.4406073413
  0
LINE
  5
358
100
AcDbEntity
  8
0
100
AcDbLine
 62
7
  6
CONTINUOUS
 10
191.9714796113
 20
114.9725221715
 11
191.6381462978
 21
115.22784129
  0
LINE
  5
359
100
AcDbEntity
  8
0
100
AcDbLine
 62
7
  6
CONTINUOUS
 10
193.8048128651
 20
114.3767775617
 11
193.4714796113
 21
114.6320966802
  0
LINE
  5
35A
100
AcDbEntity
  8
0
100
AcDbLine
 62
7
  6
CONTINUOUS
 10
192.9714796113
 20
116.1640116296
 11
193.3048128651
 21
115.9086925111
  0
LINE
  5
35B
100
AcDbEntity
  8
0
100
AcDbLine
 62
7
  6
CONTINUOUS
 10
191.1381462829
 20
113.2703945361
 11
191.388146268
 21
113.0150753878
  0
LINE
  5
35C
100
AcDbEntity
  8
BEZUGSACHSEN
100
AcDbLine
 62
7
  6
CONTINUOUS
 10
172.9714796113
 20
166.8959710311
 11
172.9714796113
 21
185.1746498666
  0
LINE
  5
35D
100
AcDbEntity
  8
0
100
AcDbLine
 62
7
  6
CONTINUOUS
 10
196.9714800881
 20
121.5895434938
 11
196.5548131036
 21
121.6746498666
  0
LINE
  5
35E
100
AcDbEntity
  8
0
100
AcDbLine
 62
7
  6
CONTINUOUS
 10
196.5548131036
 20
121.1640116296
 11
196.888146119
 21
121.0789052568
  0
LINE
  5
35F
100
AcDbEntity
  8
0
100
AcDbLine
 62
7
  6
CONTINUOUS
 10
189.8048131036
 20
121.3342243753
 11
189.4714798497
 21
121.5895434938
  0
LINE
  5
360
100
AcDbEntity
  8
0
100
AcDbLine
 62
7
  6
CONTINUOUS
 10
191.2214796113
 20
115.0576285444
 11
191.4714796113
 21
114.8023094259
  0
LINE
  5
361
100
AcDbEntity
  8
0
100
AcDbLine
 62
7
  6
CONTINUOUS
 10
191.1381465958
 20
118.2703945361
 11
191.4714796113
 21
117.9299690149
  0
LINE
  5
362
100
AcDbEntity
  8
0
100
AcDbLine
 62
7
  6
CONTINUOUS
 10
193.7214796113
 20
116.0789052568
 11
193.4714796113
 21
116.3342243753
  0
LINE
  5
363
100
AcDbEntity
  8
0
100
AcDbLine
 62
7
  6
CONTINUOUS
 10
191.6381462978
 20
113.3555009089
 11
191.388146268
 21
113.6959264598
  0
LINE
  5
364
100
AcDbEntity
  8
_30_VOLUMEN
100
AcDbLine
 62
7
  6
CONTINUOUS
 10
201.4714796113
 20
128.11742818
 11
201.9714796113
 21
128.11742818
  0
LINE
  5
365
100
AcDbEntity
  8
_30_VOLUMEN
100
AcDbLine
 62
7
  6
CONTINUOUS
 10
201.4714796113
 20
128.2025345603
 11
201.9714796113
 21
128.2025345603
  0
LINE
  5
366
100
AcDbEntity
  8
_30_VOLUMEN
100
AcDbLine
 62
7
  6
CONTINUOUS
 10
201.4714796113
 20
128.4578537012
 11
201.9714796113
 21
128.4578537012
  0
LINE
  5
367
100
AcDbEntity
  8
0
100
AcDbLine
 62
7
  6
CONTINUOUS
 10
197.3048131036
 20
121.4193307481
 11
196.9714800881
 21
121.5895434938
  0
LINE
  5
368
100
AcDbEntity
  8
0
100
AcDbLine
 62
7
  6
CONTINUOUS
 10
196.888146119
 20
121.0789052568
 11
197.138146119
 21
120.9086925111
  0
LINE
  5
369
100
AcDbEntity
  8
0
100
AcDbLine
 62
7
  6
CONTINUOUS
 10
189.3881463574
 20
121.1640116296
 11
189.5548131036
 21
120.9937988839
  0
LINE
  5
36A
100
AcDbEntity
  8
0
100
AcDbLine
 62
7
  6
CONTINUOUS
 10
193.3048128651
 20
114.2916711889
 11
193.5548128651
 21
113.9512455783
  0
LINE
  5
36B
100
AcDbEntity
  8
0
100
AcDbLine
 62
7
  6
CONTINUOUS
 10
190.0548131036
 20
120.9937988839
 11
189.8048131036
 21
121.3342243753
  0
LINE
  5
36C
100
AcDbEntity
  8
0
100
AcDbLine
 62
7
  6
CONTINUOUS
 10
191.6381462978
 20
115.22784129
 11
191.4714796113
 21
115.4831604085
  0
LINE
  5
36D
100
AcDbEntity
  8
_30_VOLUMEN
100
AcDbLine
 62
7
  6
CONTINUOUS
 10
201.4714796113
 20
128.7131728495
 11
201.9714796113
 21
128.7131728495
  0
LINE
  5
36E
100
AcDbEntity
  8
_30_VOLUMEN
100
AcDbLine
 62
7
  6
CONTINUOUS
 10
201.4714796113
 20
129.1387047732
 11
201.9714796113
 21
129.1387047732
  0
LINE
  5
36F
100
AcDbEntity
  8
_30_VOLUMEN
100
AcDbLine
 62
7
  6
CONTINUOUS
 10
201.4714796113
 20
129.3940238917
 11
201.9714796113
 21
129.3940238917
  0
LINE
  5
370
100
AcDbEntity
  8
_30_VOLUMEN
100
AcDbLine
 62
7
  6
CONTINUOUS
 10
201.4714796113
 20
129.8195558751
 11
201.9714796113
 21
129.8195558751
  0
LINE
  5
371
100
AcDbEntity
  8
_30_VOLUMEN
100
AcDbLine
 62
7
  6
CONTINUOUS
 10
201.4714796113
 20
130.0748749936
 11
201.9714796113
 21
130.0748749936
  0
LINE
  5
372
100
AcDbEntity
  8
_30_VOLUMEN
100
AcDbLine
 62
7
  6
CONTINUOUS
 10
201.4714796113
 20
130.1599813665
 11
201.9714796113
 21
130.1599813665
  0
LINE
  5
373
100
AcDbEntity
  8
_30_VOLUMEN
100
AcDbLine
 62
7
  6
CONTINUOUS
 10
201.4714796113
 20
130.2450877393
 11
201.9714796113
 21
130.2450877393
  0
LINE
  5
374
100
AcDbEntity
  8
_30_VOLUMEN
100
AcDbLine
 62
7
  6
CONTINUOUS
 10
201.4714796113
 20
130.5004068578
 11
201.9714796113
 21
130.5004068578
  0
LINE
  5
375
100
AcDbEntity
  8
_30_VOLUMEN
100
AcDbLine
 62
7
  6
CONTINUOUS
 10
201.4714796113
 20
130.8408323491
 11
201.9714796113
 21
130.8408323491
  0
LINE
  5
376
100
AcDbEntity
  8
_30_VOLUMEN
100
AcDbLine
 62
7
  6
CONTINUOUS
 10
201.4714796113
 20
131.0961514676
 11
201.9714796113
 21
131.0961514676
  0
LINE
  5
377
100
AcDbEntity
  8
_30_VOLUMEN
100
AcDbLine
 62
7
  6
CONTINUOUS
 10
201.4714796113
 20
131.5216835702
 11
201.9714796113
 21
131.5216835702
  0
LINE
  5
378
100
AcDbEntity
  8
_30_VOLUMEN
100
AcDbLine
 62
7
  6
CONTINUOUS
 10
201.4714796113
 20
131.7770026887
 11
201.9714796113
 21
131.7770026887
  0
LINE
  5
379
100
AcDbEntity
  8
0
100
AcDbLine
 62
7
  6
CONTINUOUS
 10
197.638146119
 20
121.0789052568
 11
197.3048131036
 21
121.4193307481
  0
LINE
  5
37A
100
AcDbEntity
  8
0
100
AcDbLine
 62
7
  6
CONTINUOUS
 10
191.6381465958
 20
118.4406073413
 11
191.4714796113
 21
118.6959264598
  0
LINE
  5
37B
100
AcDbEntity
  8
0
100
AcDbLine
 62
7
  6
CONTINUOUS
 10
193.3048128651
 20
115.9086925111
 11
193.4714796113
 21
115.6533731542
  0
LINE
  5
37C
100
AcDbEntity
  8
0
100
AcDbLine
 62
7
  6
CONTINUOUS
 10
191.0548129471
 20
115.3980540357
 11
191.2214796113
 21
115.0576285444
  0
LINE
  5
37D
100
AcDbEntity
  8
0
100
AcDbLine
 62
7
  6
CONTINUOUS
 10
190.9714798497
 20
118.610820087
 11
191.1381465958
 21
118.2703945361
  0
LINE
  5
37E
100
AcDbEntity
  8
0
100
AcDbLine
 62
7
  6
CONTINUOUS
 10
190.9714796113
 20
113.6959264598
 11
191.1381462829
 21
113.2703945361
  0
LINE
  5
37F
100
AcDbEntity
  8
BEZUGSACHSEN
100
AcDbLine
 62
7
  6
CONTINUOUS
 10
183.4714796113
 20
126.7680364891
 11
183.4714796113
 21
133.6746498666
  0
LINE
  5
380
100
AcDbEntity
  8
_30_VOLUMEN
100
AcDbLine
 62
7
  6
CONTINUOUS
 10
201.4714796113
 20
132.0323218072
 11
201.9714796113
 21
132.0323218072
  0
LINE
  5
381
100
AcDbEntity
  8
_30_VOLUMEN
100
AcDbLine
 62
7
  6
CONTINUOUS
 10
201.4714796113
 20
132.11742818
 11
201.9714796113
 21
132.11742818
  0
LINE
  5
382
100
AcDbEntity
  8
_30_VOLUMEN
100
AcDbLine
 62
7
  6
CONTINUOUS
 10
197.9714796113
 20
133.8542304006
 11
198.4714796113
 21
133.8542304006
  0
LINE
  5
383
100
AcDbEntity
  8
_30_VOLUMEN
100
AcDbLine
 62
7
  6
CONTINUOUS
 10
197.9714796113
 20
133.9375637365
 11
198.4714796113
 21
133.9375637365
  0
LINE
  5
384
100
AcDbEntity
  8
_30_VOLUMEN
100
AcDbLine
 62
7
  6
CONTINUOUS
 10
197.9714796113
 20
134.1042304006
 11
198.4714796113
 21
134.1042304006
  0
LINE
  5
385
100
AcDbEntity
  8
_30_VOLUMEN
100
AcDbLine
 62
7
  6
CONTINUOUS
 10
197.9714796113
 20
134.4375637141
 11
198.4714796113
 21
134.4375637141
  0
LINE
  5
386
100
AcDbEntity
  8
_30_VOLUMEN
100
AcDbLine
 62
7
  6
CONTINUOUS
 10
186.9714796113
 20
134.6175910977
 11
186.4714796113
 21
134.6175910977
  0
LINE
  5
387
100
AcDbEntity
  8
_30_VOLUMEN
100
AcDbLine
 62
7
  6
CONTINUOUS
 10
186.9714796113
 20
134.71134074
 11
186.4714796113
 21
134.71134074
  0
LINE
  5
388
100
AcDbEntity
  8
_30_VOLUMEN
100
AcDbLine
 62
7
  6
CONTINUOUS
 10
197.9714796113
 20
134.7708970872
 11
198.4714796113
 21
134.7708970872
  0
LINE
  5
389
100
AcDbEntity
  8
_30_VOLUMEN
100
AcDbLine
 62
7
  6
CONTINUOUS
 10
186.9714796113
 20
134.8988410977
 11
186.4714796113
 21
134.8988410977
  0
LINE
  5
38A
100
AcDbEntity
  8
0
100
AcDbLine
 62
7
  6
CONTINUOUS
 10
193.9714796113
 20
113.9512455783
 11
193.8048128651
 21
114.3767775617
  0
LINE
  5
38B
100
AcDbEntity
  8
0
100
AcDbLine
 62
7
  6
CONTINUOUS
 10
193.8881463574
 20
115.6533731542
 11
193.7214796113
 21
116.0789052568
  0
LINE
  5
38C
100
AcDbEntity
  8
0
100
AcDbLine
 62
7
  6
CONTINUOUS
 10
190.2214798497
 20
117.6746498666
 11
189.4714798497
 21
119.6320966802
  0
LINE
  5
38D
100
AcDbEntity
  8
0
100
AcDbLine
 62
7
  6
CONTINUOUS
 10
188.9714797305
 20
119.4618839345
 11
189.6381463574
 21
117.6746498666
  0
LINE
  5
38E
100
AcDbEntity
  8
0
100
AcDbLine
 62
7
  6
CONTINUOUS
 10
189.5548131036
 20
120.9937988839
 11
189.6381463574
 21
120.7384797655
  0
LINE
  5
38F
100
AcDbEntity
  8
0
100
AcDbLine
 62
7
  6
CONTINUOUS
 10
190.1381463574
 20
120.7384797655
 11
190.0548131036
 21
120.9937988839
  0
LINE
  5
390
100
AcDbEntity
  8
_30_VOLUMEN
100
AcDbLine
 62
7
  6
CONTINUOUS
 10
184.6799769892
 20
173.4746498666
 11
184.6799769892
 21
174.6746498666
  0
LINE
  5
391
100
AcDbEntity
  8
_30_VOLUMEN
100
AcDbLine
 62
7
  6
CONTINUOUS
 10
186.4714796113
 20
134.6175910977
 11
186.4714796113
 21
138.36759074
  0
LINE
  5
392
100
AcDbEntity
  8
_30_VOLUMEN
100
AcDbLine
 62
7
  6
CONTINUOUS
 10
186.4714796113
 20
139.1175905612
 11
186.4714796113
 21
142.4925908294
  0
LINE
  5
393
100
AcDbEntity
  8
_30_VOLUMEN
100
AcDbLine
 62
7
  6
CONTINUOUS
 10
186.4714796113
 20
143.2425906506
 11
186.4714796113
 21
146.80509074
  0
LINE
  5
394
100
AcDbEntity
  8
_30_VOLUMEN
100
AcDbLine
 62
7
  6
CONTINUOUS
 10
197.9714796113
 20
135.1875637737
 11
198.4714796113
 21
135.1875637737
  0
LINE
  5
395
100
AcDbEntity
  8
_30_VOLUMEN
100
AcDbLine
 62
7
  6
CONTINUOUS
 10
186.9714796113
 20
135.27384074
 11
186.4714796113
 21
135.27384074
  0
LINE
  5
396
100
AcDbEntity
  8
_30_VOLUMEN
100
AcDbLine
 62
7
  6
CONTINUOUS
 10
186.9714796113
 20
135.6488403824
 11
186.4714796113
 21
135.6488403824
  0
LINE
  5
397
100
AcDbEntity
  8
_30_VOLUMEN
100
AcDbLine
 62
7
  6
CONTINUOUS
 10
197.9714796113
 20
135.9375636545
 11
198.4714796113
 21
135.9375636545
  0
LINE
  5
398
100
AcDbEntity
  8
_30_VOLUMEN
100
AcDbLine
 62
7
  6
CONTINUOUS
 10
186.9714796113
 20
136.11759074
 11
186.4714796113
 21
136.11759074
  0
LINE
  5
399
100
AcDbEntity
  8
_30_VOLUMEN
100
AcDbLine
 62
7
  6
CONTINUOUS
 10
197.9714796113
 20
136.3542304006
 11
198.4714796113
 21
136.3542304006
  0
LINE
  5
39A
100
AcDbEntity
  8
_30_VOLUMEN
100
AcDbLine
 62
7
  6
CONTINUOUS
 10
197.9714796113
 20
136.6875636545
 11
198.4714796113
 21
136.6875636545
  0
LINE
  5
39B
100
AcDbEntity
  8
_30_VOLUMEN
100
AcDbLine
 62
7
  6
CONTINUOUS
 10
197.9714796113
 20
137.0208971468
 11
198.4714796113
 21
137.0208971468
  0
LINE
  5
39C
100
AcDbEntity
  8
_30_VOLUMEN
100
AcDbLine
 62
7
  6
CONTINUOUS
 10
197.9714796113
 20
137.1042304006
 11
198.4714796113
 21
137.1042304006
  0
LINE
  5
39D
100
AcDbEntity
  8
_30_VOLUMEN
100
AcDbLine
 62
7
  6
CONTINUOUS
 10
197.9714796113
 20
137.7708971468
 11
198.4714796113
 21
137.7708971468
  0
LINE
  5
39E
100
AcDbEntity
  8
_30_VOLUMEN
100
AcDbLine
 62
7
  6
CONTINUOUS
 10
197.9714796113
 20
137.8542304006
 11
198.4714796113
 21
137.8542304006
  0
LINE
  5
39F
100
AcDbEntity
  8
_30_VOLUMEN
100
AcDbLine
 62
7
  6
CONTINUOUS
 10
197.9714796113
 20
138.0208969084
 11
198.4714796113
 21
138.0208969084
  0
LINE
  5
3A0
100
AcDbEntity
  8
0
100
AcDbLine
 62
7
  6
CONTINUOUS
 10
197.138146119
 20
120.9086925111
 11
197.3048131036
 21
120.6533731542
  0
LINE
  5
3A1
100
AcDbEntity
  8
0
100
AcDbLine
 62
7
  6
CONTINUOUS
 10
191.4714796113
 20
118.6959264598
 11
191.3881465958
 21
119.0363519512
  0
LINE
  5
3A2
100
AcDbEntity
  8
0
100
AcDbLine
 62
7
  6
CONTINUOUS
 10
190.8881463574
 20
119.0363519512
 11
190.9714798497
 21
118.610820087
  0
LINE
  5
3A3
100
AcDbEntity
  8
BEZUGSACHSEN
100
AcDbLine
 62
7
  6
CONTINUOUS
 10
186.9714796113
 20
157.8398216634
 11
186.9714796113
 21
129.9061960783
  0
LINE
  5
3A4
100
AcDbEntity
  8
0
100
AcDbLine
 62
7
  6
CONTINUOUS
 10
187.0548131036
 20
121.6746498666
 11
187.0548131036
 21
117.6746498666
  0
LINE
  5
3A5
100
AcDbEntity
  8
_30_VOLUMEN
100
AcDbLine
 62
7
  6
CONTINUOUS
 10
187.4214796113
 20
166.5246498666
 11
187.4214796113
 21
184.1015091955
  0
LINE
  5
3A6
100
AcDbEntity
  8
0
100
AcDbLine
 62
7
  6
CONTINUOUS
 10
187.5548131036
 20
117.6746498666
 11
187.5548131036
 21
119.4618839345
  0
LINE
  5
3A7
100
AcDbEntity
  8
0
100
AcDbLine
 62
7
  6
CONTINUOUS
 10
187.5548131036
 20
119.9725221715
 11
187.5548131036
 21
121.2491180024
  0
LINE
  5
3A8
100
AcDbEntity
  8
0
100
AcDbLine
 62
7
  6
CONTINUOUS
 10
189.6381463574
 20
120.7384797655
 11
189.6381463574
 21
120.4831604085
  0
LINE
  5
3A9
100
AcDbEntity
  8
RUNDUNGEN
100
AcDbLine
 62
7
  6
CONTINUOUS
 10
199.4658008372
 20
153.9023113325
 11
206.9714796113
 21
158.2357169932
  0
LINE
  5
3AA
100
AcDbEntity
  8
_30_VOLUMEN
100
AcDbLine
 62
7
  6
CONTINUOUS
 10
197.9714796113
 20
138.3542304006
 11
198.4714796113
 21
138.3542304006
  0
LINE
  5
3AB
100
AcDbEntity
  8
_30_VOLUMEN
100
AcDbLine
 62
7
  6
CONTINUOUS
 10
186.9714796113
 20
138.36759074
 11
186.4714796113
 21
138.36759074
  0
LINE
  5
3AC
100
AcDbEntity
  8
_30_VOLUMEN
100
AcDbLine
 62
7
  6
CONTINUOUS
 10
197.9714796113
 20
138.6875638929
 11
198.4714796113
 21
138.6875638929
  0
LINE
  5
3AD
100
AcDbEntity
  8
_30_VOLUMEN
100
AcDbLine
 62
7
  6
CONTINUOUS
 10
197.9714796113
 20
139.1042304006
 11
198.4714796113
 21
139.1042304006
  0
LINE
  5
3AE
100
AcDbEntity
  8
_30_VOLUMEN
100
AcDbLine
 62
7
  6
CONTINUOUS
 10
186.9714796113
 20
139.1175905612
 11
186.4714796113
 21
139.1175905612
  0
LINE
  5
3AF
100
AcDbEntity
  8
_30_VOLUMEN
100
AcDbLine
 62
7
  6
CONTINUOUS
 10
186.9714796113
 20
139.6800905612
 11
186.4714796113
 21
139.6800905612
  0
LINE
  5
3B0
100
AcDbEntity
  8
_30_VOLUMEN
100
AcDbLine
 62
7
  6
CONTINUOUS
 10
186.9714796113
 20
139.77384074
 11
186.4714796113
 21
139.77384074
  0
LINE
  5
3B1
100
AcDbEntity
  8
_30_VOLUMEN
100
AcDbLine
 62
7
  6
CONTINUOUS
 10
197.9714796113
 20
139.8542304006
 11
198.4714796113
 21
139.8542304006
  0
LINE
  5
3B2
100
AcDbEntity
  8
_30_VOLUMEN
100
AcDbLine
 62
7
  6
CONTINUOUS
 10
186.9714796113
 20
139.9613405612
 11
186.4714796113
 21
139.9613405612
  0
LINE
  5
3B3
100
AcDbEntity
  8
_30_VOLUMEN
100
AcDbLine
 62
7
  6
CONTINUOUS
 10
186.9714796113
 20
140.2425905612
 11
186.4714796113
 21
140.2425905612
  0
LINE
  5
3B4
100
AcDbEntity
  8
_30_VOLUMEN
100
AcDbLine
 62
7
  6
CONTINUOUS
 10
197.9714796113
 20
140.2708969084
 11
198.4714796113
 21
140.2708969084
  0
LINE
  5
3B5
100
AcDbEntity
  8
_30_VOLUMEN
100
AcDbLine
 62
7
  6
CONTINUOUS
 10
197.9714796113
 20
140.6042304006
 11
198.4714796113
 21
140.6042304006
  0
LINE
  5
3B6
100
AcDbEntity
  8
_30_VOLUMEN
100
AcDbLine
 62
7
  6
CONTINUOUS
 10
186.9714796113
 20
140.61759074
 11
186.4714796113
 21
140.61759074
  0
LINE
  5
3B7
100
AcDbEntity
  8
_30_VOLUMEN
100
AcDbLine
 62
7
  6
CONTINUOUS
 10
197.9714796113
 20
140.9375638929
 11
198.4714796113
 21
140.9375638929
  0
LINE
  5
3B8
100
AcDbEntity
  8
_30_VOLUMEN
100
AcDbLine
 62
7
  6
CONTINUOUS
 10
186.9714796113
 20
140.9925909189
 11
186.4714796113
 21
140.9925909189
  0
LINE
  5
3B9
100
AcDbEntity
  8
_30_VOLUMEN
100
AcDbLine
 62
7
  6
CONTINUOUS
 10
197.9714796113
 20
141.0208969084
 11
198.4714796113
 21
141.0208969084
  0
LINE
  5
3BA
100
AcDbEntity
  8
0
100
AcDbLine
 62
7
  6
CONTINUOUS
 10
197.8048131036
 20
120.7384797655
 11
197.638146119
 21
121.0789052568
  0
LINE
  5
3BB
100
AcDbEntity
  8
0
100
AcDbLine
 62
7
  6
CONTINUOUS
 10
190.1381463574
 20
120.3980540357
 11
190.1381463574
 21
120.7384797655
  0
LINE
  5
3BC
100
AcDbEntity
  8
0
100
AcDbLine
 62
7
  6
CONTINUOUS
 10
190.8881463574
 20
121.6746498666
 11
190.8881463574
 21
119.0363519512
  0
LINE
  5
3BD
100
AcDbEntity
  8
0
100
AcDbLine
 62
7
  6
CONTINUOUS
 10
190.9714796113
 20
113.9512455783
 11
190.9714796113
 21
113.6959264598
  0
LINE
  5
3BE
100
AcDbEntity
  8
0
100
AcDbLine
 62
7
  6
CONTINUOUS
 10
191.0548129471
 20
115.6533731542
 11
191.0548129471
 21
115.3980540357
  0
LINE
  5
3BF
100
AcDbEntity
  8
0
100
AcDbLine
 62
7
  6
CONTINUOUS
 10
191.388146268
 20
113.6959264598
 11
191.388146268
 21
113.9512455783
  0
LINE
  5
3C0
100
AcDbEntity
  8
0
100
AcDbLine
 62
7
  6
CONTINUOUS
 10
191.3881465958
 20
119.0363519512
 11
191.3881465958
 21
121.6746498666
  0
LINE
  5
3C1
100
AcDbEntity
  8
0
100
AcDbLine
 62
7
  6
CONTINUOUS
 10
191.4714796113
 20
115.4831604085
 11
191.4714796113
 21
115.6533731542
  0
LINE
  5
3C2
100
AcDbEntity
  8
_21_KURVEN
100
AcDbLine
 62
4
  6
CONTINUOUS
 10
192.4714796113
 20
166.3416444475
 11
192.4714796113
 21
183.4650989653
  0
LINE
  5
3C3
100
AcDbEntity
  8
_30_VOLUMEN
100
AcDbLine
 62
7
  6
CONTINUOUS
 10
186.9714796113
 20
141.3675905612
 11
186.4714796113
 21
141.3675905612
  0
LINE
  5
3C4
100
AcDbEntity
  8
_30_VOLUMEN
100
AcDbLine
 62
7
  6
CONTINUOUS
 10
186.9714796113
 20
141.6488405612
 11
186.4714796113
 21
141.6488405612
  0
LINE
  5
3C5
100
AcDbEntity
  8
_30_VOLUMEN
100
AcDbLine
 62
7
  6
CONTINUOUS
 10
197.9714796113
 20
141.6875638929
 11
198.4714796113
 21
141.6875638929
  0
LINE
  5
3C6
100
AcDbEntity
  8
_30_VOLUMEN
100
AcDbLine
 62
7
  6
CONTINUOUS
 10
186.9714796113
 20
141.8363409189
 11
186.4714796113
 21
141.8363409189
  0
LINE
  5
3C7
100
AcDbEntity
  8
_30_VOLUMEN
100
AcDbLine
 62
7
  6
CONTINUOUS
 10
186.9714796113
 20
141.9300905612
 11
186.4714796113
 21
141.9300905612
  0
LINE
  5
3C8
100
AcDbEntity
  8
_30_VOLUMEN
100
AcDbLine
 62
7
  6
CONTINUOUS
 10
197.9714796113
 20
141.9375634161
 11
198.4714796113
 21
141.9375634161
  0
LINE
  5
3C9
100
AcDbEntity
  8
_30_VOLUMEN
100
AcDbLine
 62
7
  6
CONTINUOUS
 10
197.9714796113
 20
142.0208973852
 11
198.4714796113
 21
142.0208973852
  0
LINE
  5
3CA
100
AcDbEntity
  8
_30_VOLUMEN
100
AcDbLine
 62
7
  6
CONTINUOUS
 10
197.9714796113
 20
142.3542304006
 11
198.4714796113
 21
142.3542304006
  0
LINE
  5
3CB
100
AcDbEntity
  8
_30_VOLUMEN
100
AcDbLine
 62
7
  6
CONTINUOUS
 10
186.9714796113
 20
142.4925908294
 11
186.4714796113
 21
142.4925908294
  0
LINE
  5
3CC
100
AcDbEntity
  8
_30_VOLUMEN
100
AcDbLine
 62
7
  6
CONTINUOUS
 10
197.9714796113
 20
142.6875634161
 11
198.4714796113
 21
142.6875634161
  0
LINE
  5
3CD
100
AcDbEntity
  8
_30_VOLUMEN
100
AcDbLine
 62
7
  6
CONTINUOUS
 10
197.9714796113
 20
143.0208973852
 11
198.4714796113
 21
143.0208973852
  0
LINE
  5
3CE
100
AcDbEntity
  8
_30_VOLUMEN
100
AcDbLine
 62
7
  6
CONTINUOUS
 10
186.9714796113
 20
143.2425906506
 11
186.4714796113
 21
143.2425906506
  0
LINE
  5
3CF
100
AcDbEntity
  8
_30_VOLUMEN
100
AcDbLine
 62
7
  6
CONTINUOUS
 10
186.9714796113
 20
143.3363408294
 11
186.4714796113
 21
143.3363408294
  0
LINE
  5
3D0
100
AcDbEntity
  8
_30_VOLUMEN
100
AcDbLine
 62
7
  6
CONTINUOUS
 10
186.9714796113
 20
143.43009074
 11
186.4714796113
 21
143.43009074
  0
LINE
  5
3D1
100
AcDbEntity
  8
_30_VOLUMEN
100
AcDbLine
 62
7
  6
CONTINUOUS
 10
197.9714796113
 20
143.4375634161
 11
198.4714796113
 21
143.4375634161
  0
LINE
  5
3D2
100
AcDbEntity
  8
_30_VOLUMEN
100
AcDbLine
 62
7
  6
CONTINUOUS
 10
186.9714796113
 20
143.71134074
 11
186.4714796113
 21
143.71134074
  0
LINE
  5
3D3
100
AcDbEntity
  8
_30_VOLUMEN
100
AcDbLine
 62
7
  6
CONTINUOUS
 10
197.9714796113
 20
143.8542304006
 11
198.4714796113
 21
143.8542304006
  0
LINE
  5
3D4
100
AcDbEntity
  8
_30_VOLUMEN
100
AcDbLine
 62
7
  6
CONTINUOUS
 10
186.9714796113
 20
144.0863406506
 11
186.4714796113
 21
144.0863406506
  0
LINE
  5
3D5
100
AcDbEntity
  8
_30_VOLUMEN
100
AcDbLine
 62
7
  6
CONTINUOUS
 10
197.9714796113
 20
144.1875634161
 11
198.4714796113
 21
144.1875634161
  0
LINE
  5
3D6
100
AcDbEntity
  8
0
100
AcDbLine
 62
7
  6
CONTINUOUS
 10
197.3048131036
 20
120.6533731542
 11
197.388146119
 21
120.3129476629
  0
LINE
  5
3D7
100
AcDbEntity
  8
0
100
AcDbLine
 62
7
  6
CONTINUOUS
 10
193.3881465958
 20
121.6746498666
 11
193.3881465958
 21
119.0363519512
  0
LINE
  5
3D8
100
AcDbEntity
  8
0
100
AcDbLine
 62
7
  6
CONTINUOUS
 10
193.4714796113
 20
115.6533731542
 11
193.4714796113
 21
115.4831604085
  0
LINE
  5
3D9
100
AcDbEntity
  8
0
100
AcDbLine
 62
7
  6
CONTINUOUS
 10
193.5548128651
 20
113.9512455783
 11
193.5548128651
 21
113.6959264598
  0
LINE
  5
3DA
100
AcDbEntity
  8
0
100
AcDbLine
 62
7
  6
CONTINUOUS
 10
193.8881463574
 20
115.3980540357
 11
193.8881463574
 21
115.6533731542
  0
LINE
  5
3DB
100
AcDbEntity
  8
0
100
AcDbLine
 62
7
  6
CONTINUOUS
 10
193.8881465958
 20
119.0363519512
 11
193.8881465958
 21
121.6746498666
  0
LINE
  5
3DC
100
AcDbEntity
  8
0
100
AcDbLine
 62
7
  6
CONTINUOUS
 10
193.9714796113
 20
113.6959264598
 11
193.9714796113
 21
113.9512455783
  0
LINE
  5
3DD
100
AcDbEntity
  8
0
100
AcDbLine
 62
7
  6
CONTINUOUS
 10
194.5548131036
 20
121.6746498666
 11
194.5548131036
 21
117.6746498666
  0
LINE
  5
3DE
100
AcDbEntity
  8
0
100
AcDbLine
 62
7
  6
CONTINUOUS
 10
195.0548131036
 20
118.1852881632
 11
195.0548131036
 21
121.1640116296
  0
LINE
  5
3DF
100
AcDbEntity
  8
_30_VOLUMEN
100
AcDbLine
 62
7
  6
CONTINUOUS
 10
197.9714796113
 20
144.4375634161
 11
198.4714796113
 21
144.4375634161
  0
LINE
  5
3E0
100
AcDbEntity
  8
_30_VOLUMEN
100
AcDbLine
 62
7
  6
CONTINUOUS
 10
197.9714796113
 20
144.5208973852
 11
198.4714796113
 21
144.5208973852
  0
LINE
  5
3E1
100
AcDbEntity
  8
_30_VOLUMEN
100
AcDbLine
 62
7
  6
CONTINUOUS
 10
186.9714796113
 20
144.55509074
 11
186.4714796113
 21
144.55509074
  0
LINE
  5
3E2
100
AcDbEntity
  8
_30_VOLUMEN
100
AcDbLine
 62
7
  6
CONTINUOUS
 10
197.9714796113
 20
144.6042304006
 11
198.4714796113
 21
144.6042304006
  0
LINE
  5
3E3
100
AcDbEntity
  8
_30_VOLUMEN
100
AcDbLine
 62
7
  6
CONTINUOUS
 10
197.9714796113
 20
144.7708973852
 11
198.4714796113
 21
144.7708973852
  0
LINE
  5
3E4
100
AcDbEntity
  8
_30_VOLUMEN
100
AcDbLine
 62
7
  6
CONTINUOUS
 10
186.9714796113
 20
146.80509074
 11
186.4714796113
 21
146.80509074
  0
LINE
  5
3E5
100
AcDbEntity
  8
0
100
AcDbLine
 62
7
  6
CONTINUOUS
 10
197.888146119
 20
120.3129476629
 11
197.8048131036
 21
120.7384797655
  0
LINE
  5
3E6
100
AcDbEntity
  8
0
100
AcDbLine
 62
7
  6
CONTINUOUS
 10
197.388146119
 20
120.3129476629
 11
197.388146119
 21
119.0363519512
  0
LINE
  5
3E7
100
AcDbEntity
  8
_30_VOLUMEN
100
AcDbLine
 62
7
  6
CONTINUOUS
 10
197.5214796113
 20
166.5246498666
 11
197.5214796113
 21
184.1015091955
  0
LINE
  5
3E8
100
AcDbEntity
  8
0
100
AcDbLine
 62
7
  6
CONTINUOUS
 10
197.888146119
 20
119.0363519512
 11
197.888146119
 21
120.3129476629
  0
LINE
  5
3E9
100
AcDbEntity
  8
RUNDUNGEN
100
AcDbLine
 62
7
  6
CONTINUOUS
 10
197.9714796113
 20
157.8398216634
 11
197.9714796113
 21
129.9061960783
  0
LINE
  5
3EA
100
AcDbEntity
  8
_30_VOLUMEN
100
AcDbLine
 62
7
  6
CONTINUOUS
 10
198.4714796113
 20
144.7708973852
 11
198.4714796113
 21
141.6875638929
  0
LINE
  5
3EB
100
AcDbEntity
  8
_30_VOLUMEN
100
AcDbLine
 62
7
  6
CONTINUOUS
 10
198.4714796113
 20
141.0208969084
 11
198.4714796113
 21
137.7708971468
  0
LINE
  5
3EC
100
AcDbEntity
  8
_30_VOLUMEN
100
AcDbLine
 62
7
  6
CONTINUOUS
 10
198.4714796113
 20
137.1042304006
 11
198.4714796113
 21
133.8542304006
  0
LWPOLYLINE
  5
3ED
100
AcDbEntity
  8
RUNDUNGEN
100
AcDbPolyline
 62
7
  6
CONTINUOUS
 90
16
 70
0
 10
197.9714745552
 20
151.3150846827
 10
197.9722341271
 20
151.3825495835
 10
197.9860613778
 20
151.6098021693
 10
198.0172583001
 20
151.8357778652
 10
198.0657437641
 20
152.0591879739
 10
198.1313093293
 20
152.2786244837
 10
198.2135725561
 20
152.4925827718
 10
198.3120787512
 20
152.6997690066
 10
198.4262851759
 20
152.8989499088
 10
198.5554566814
 20
153.0887983626
 10
198.6988291819
 20
153.2681849179
 10
198.8555562656
 20
153.4360456488
 10
199.0245946863
 20
153.5912848054
 10
199.2048782094
 20
153.732975903
 10
199.3953534155
 20
153.8603416399
 10
199.4657700375
 20
153.9022957538
  0
LINE
  5
3EE
100
AcDbEntity
  8
0
100
AcDbLine
 62
7
  6
CONTINUOUS
 10
193.8048131036
 20
118.610820087
 11
193.8881465958
 21
119.0363519512
  0
LINE
  5
3EF
100
AcDbEntity
  8
0
100
AcDbLine
 62
7
  6
CONTINUOUS
 10
189.6381463574
 20
120.4831604085
 11
189.5548131036
 21
120.22784129
  0
LINE
  5
3F0
100
AcDbEntity
  8
0
100
AcDbLine
 62
7
  6
CONTINUOUS
 10
190.0548131036
 20
120.1427349172
 11
190.1381463574
 21
120.3980540357
  0
LINE
  5
3F1
100
AcDbEntity
  8
BEZUGSACHSEN
100
AcDbLine
 62
7
  6
CONTINUOUS
 10
185.4771583854
 20
153.9023113325
 11
177.9714796113
 21
158.2357169932
  0
LWPOLYLINE
  5
3F2
100
AcDbEntity
  8
BEZUGSACHSEN
100
AcDbPolyline
 62
7
  6
CONTINUOUS
 90
16
 70
0
 10
185.4771898681
 20
153.9022953598
 10
185.5362851951
 20
153.8672640165
 10
185.7273117916
 20
153.7407541547
 10
185.9082111484
 20
153.5998759677
 10
186.0779258591
 20
153.4454029719
 10
186.2353868514
 20
153.2782562701
 10
186.3795484644
 20
153.0995241581
 10
186.5095592907
 20
152.9102662727
 10
186.6246499599
 20
152.7116080952
 10
186.7240805211
 20
152.5048696375
 10
186.8073014564
 20
152.2912813556
 10
186.8738512542
 20
152.0721340783
 10
186.923340336
 20
151.8489254612
 10
186.9555517157
 20
151.6230604191
 10
186.9703956168
 20
151.395828617
 10
186.9714846664
 20
151.3150950112
  0
LINE
  5
3F3
100
AcDbEntity
  8
_30_VOLUMEN
100
AcDbLine
 62
7
  6
CONTINUOUS
 10
200.2629822334
 20
173.4746498666
 11
200.2629822334
 21
174.6746498666
  0
LINE
  5
3F4
100
AcDbEntity
  8
RUNDUNGEN
100
AcDbLine
 62
7
  6
CONTINUOUS
 10
201.4714796113
 20
126.7680364891
 11
201.4714796113
 21
133.6746498666
  0
LINE
  5
3F5
100
AcDbEntity
  8
_30_VOLUMEN
100
AcDbLine
 62
7
  6
CONTINUOUS
 10
201.9714796113
 20
132.11742818
 11
201.9714796113
 21
128.11742818
  0
LINE
  5
3F6
100
AcDbEntity
  8
0
100
AcDbLine
 62
7
  6
CONTINUOUS
 10
193.3881465958
 20
119.0363519512
 11
193.3048131036
 21
118.6959264598
  0
LINE
  5
3F7
100
AcDbEntity
  8
0
100
AcDbLine
 62
7
  6
CONTINUOUS
 10
191.2214796113
 20
116.0789052568
 11
191.0548129471
 21
115.6533731542
  0
LINE
  5
3F8
100
AcDbEntity
  8
0
100
AcDbLine
 62
7
  6
CONTINUOUS
 10
191.1381462829
 20
114.3767775617
 11
190.9714796113
 21
113.9512455783
  0
LINE
  5
3F9
100
AcDbEntity
  8
0
100
AcDbLine
 62
7
  6
CONTINUOUS
 10
197.8048131036
 20
118.610820087
 11
197.888146119
 21
119.0363519512
  0
LINE
  5
3FA
100
AcDbEntity
  8
0
100
AcDbLine
 62
7
  6
CONTINUOUS
 10
197.388146119
 20
119.0363519512
 11
197.3048131036
 21
118.6959264598
  0
LINE
  5
3FB
100
AcDbEntity
  8
0
100
AcDbLine
 62
7
  6
CONTINUOUS
 10
193.8048128651
 20
113.2703945361
 11
193.9714796113
 21
113.6959264598
  0
LINE
  5
3FC
100
AcDbEntity
  8
0
100
AcDbLine
 62
7
  6
CONTINUOUS
 10
193.6381465958
 20
118.2703945361
 11
193.8048131036
 21
118.610820087
  0
LINE
  5
3FD
100
AcDbEntity
  8
0
100
AcDbLine
 62
7
  6
CONTINUOUS
 10
189.8048131036
 20
119.8023094259
 11
190.0548131036
 21
120.1427349172
  0
LINE
  5
3FE
100
AcDbEntity
  8
0
100
AcDbLine
 62
7
  6
CONTINUOUS
 10
193.7214796113
 20
115.0576285444
 11
193.8881463574
 21
115.3980540357
  0
LINE
  5
3FF
100
AcDbEntity
  8
0
100
AcDbLine
 62
7
  6
CONTINUOUS
 10
197.638146119
 20
118.2703945361
 11
197.8048131036
 21
118.610820087
  0
LINE
  5
400
100
AcDbEntity
  8
0
100
AcDbLine
 62
7
  6
CONTINUOUS
 10
193.3048131036
 20
118.6959264598
 11
193.1381465958
 21
118.4406073413
  0
LINE
  5
401
100
AcDbEntity
  8
0
100
AcDbLine
 62
7
  6
CONTINUOUS
 10
191.4714796113
 20
115.6533731542
 11
191.6381462978
 21
115.9086925111
  0
LINE
  5
402
100
AcDbEntity
  8
0
100
AcDbLine
 62
7
  6
CONTINUOUS
 10
189.5548131036
 20
120.22784129
 11
189.3881463574
 21
120.0576285444
  0
LINE
  5
403
100
AcDbEntity
  8
0
100
AcDbLine
 62
7
  6
CONTINUOUS
 10
193.4714796113
 20
115.4831604085
 11
193.3048128651
 21
115.22784129
  0
LINE
  5
404
100
AcDbEntity
  8
0
100
AcDbLine
 62
7
  6
CONTINUOUS
 10
197.3048131036
 20
118.6959264598
 11
197.138146119
 21
118.4406073413
  0
LINE
  5
405
100
AcDbEntity
  8
0
100
AcDbLine
 62
7
  6
CONTINUOUS
 10
191.388146268
 20
113.9512455783
 11
191.6381462978
 21
114.2916711889
  0
LINE
  5
406
100
AcDbEntity
  8
0
100
AcDbLine
 62
7
  6
CONTINUOUS
 10
193.5548128651
 20
113.6959264598
 11
193.3048128651
 21
113.3555009089
  0
LINE
  5
407
100
AcDbEntity
  8
0
100
AcDbLine
 62
7
  6
CONTINUOUS
 10
191.4714796113
 20
116.3342243753
 11
191.2214796113
 21
116.0789052568
  0
LINE
  5
408
100
AcDbEntity
  8
0
100
AcDbLine
 62
7
  6
CONTINUOUS
 10
193.3048131036
 20
117.9299690149
 11
193.6381465958
 21
118.2703945361
  0
LINE
  5
409
100
AcDbEntity
  8
RUNDUNGEN
100
AcDbLine
 62
7
  6
CONTINUOUS
 10
211.9714796113
 20
166.8959710311
 11
211.9714796113
 21
185.1746498666
  0
LINE
  5
40A
100
AcDbEntity
  8
0
100
AcDbLine
 62
7
  6
CONTINUOUS
 10
193.4714796113
 20
114.8023094259
 11
193.7214796113
 21
115.0576285444
  0
LINE
  5
40B
100
AcDbEntity
  8
0
100
AcDbLine
 62
7
  6
CONTINUOUS
 10
197.3048131036
 20
117.9299690149
 11
197.638146119
 21
118.2703945361
  0
LINE
  5
40C
100
AcDbEntity
  8
0
100
AcDbLine
 62
7
  6
CONTINUOUS
 10
191.6381462978
 20
115.9086925111
 11
191.9714796113
 21
116.1640116296
  0
LINE
  5
40D
100
AcDbEntity
  8
0
100
AcDbLine
 62
7
  6
CONTINUOUS
 10
193.1381465958
 20
118.4406073413
 11
192.8881465958
 21
118.2703945361
  0
LINE
  5
40E
100
AcDbEntity
  8
0
100
AcDbLine
 62
7
  6
CONTINUOUS
 10
189.4714798497
 20
119.6320966802
 11
189.8048131036
 21
119.8023094259
  0
LINE
  5
40F
100
AcDbEntity
  8
0
100
AcDbLine
 62
7
  6
CONTINUOUS
 10
189.3881463574
 20
120.0576285444
 11
189.1381463574
 21
119.9725221715
  0
LINE
  5
410
100
AcDbEntity
  8
0
100
AcDbLine
 62
7
  6
CONTINUOUS
 10
193.5548128651
 20
113.0150753878
 11
193.8048128651
 21
113.2703945361
  0
LINE
  5
411
100
AcDbEntity
  8
0
100
AcDbLine
 62
7
  6
CONTINUOUS
 10
191.4714796113
 20
114.6320966802
 11
191.1381462829
 21
114.3767775617
  0
LINE
  5
412
100
AcDbEntity
  8
0
100
AcDbLine
 62
7
  6
CONTINUOUS
 10
193.3048128651
 20
115.22784129
 11
192.9714796113
 21
114.9725221715
  0
LINE
  5
413
100
AcDbEntity
  8
0
100
AcDbLine
 62
7
  6
CONTINUOUS
 10
197.138146119
 20
118.4406073413
 11
196.888146119
 21
118.2703945361
  0
LINE
  5
414
100
AcDbEntity
  8
0
100
AcDbLine
 62
7
  6
CONTINUOUS
 10
191.8881462978
 20
116.5895434938
 11
191.4714796113
 21
116.3342243753
  0
LINE
  5
415
100
AcDbEntity
  8
0
100
AcDbLine
 62
7
  6
CONTINUOUS
 10
192.9714796113
 20
117.7597562469
 11
193.3048131036
 21
117.9299690149
  0
LINE
  5
416
100
AcDbEntity
  8
0
100
AcDbLine
 62
7
  6
CONTINUOUS
 10
196.9714800881
 20
117.7597562469
 11
197.3048131036
 21
117.9299690149
  0
LINE
  5
417
100
AcDbEntity
  8
0
100
AcDbLine
 62
7
  6
CONTINUOUS
 10
193.1381463574
 20
112.7597562469
 11
193.5548128651
 21
113.0150753878
  0
LINE
  5
418
100
AcDbEntity
  8
0
100
AcDbLine
 62
7
  6
CONTINUOUS
 10
191.6381462978
 20
114.717203053
 11
191.4714796113
 21
114.6320966802
  0
LINE
  5
419
100
AcDbEntity
  8
0
100
AcDbLine
 62
7
  6
CONTINUOUS
 10
191.6381462978
 20
114.2916711889
 11
191.9714796113
 21
114.4618839345
  0
LINE
  5
41A
100
AcDbEntity
  8
0
100
AcDbLine
 62
7
  6
CONTINUOUS
 10
193.3048128651
 20
114.717203053
 11
193.4714796113
 21
114.8023094259
  0
LINE
  5
41B
100
AcDbEntity
  8
0
100
AcDbLine
 62
7
  6
CONTINUOUS
 10
193.3048128651
 20
113.3555009089
 11
192.9714796113
 21
113.1852881632
  0
LINE
  5
41C
100
AcDbEntity
  8
_26_BEZUGSACHSEN
100
AcDbLine
 62
7
  6
CONTINUOUS
 10
197.5214796113
 20
170.6746498666
 11
187.4214796113
 21
170.6746498666
  0
LINE
  5
41D
100
AcDbEntity
  8
_26_BEZUGSACHSEN
100
AcDbLine
 62
7
  6
CONTINUOUS
 10
197.5214796113
 20
180.6746498666
 11
187.4214796113
 21
180.6746498666
  0
LINE
  5
41E
100
AcDbEntity
  8
0
100
AcDbLine
 62
7
  6
CONTINUOUS
 10
174.4714796113
 20
186.6746498666
 11
184.9754812126
 21
186.6746498666
  0
LINE
  5
41F
100
AcDbEntity
  8
0
100
AcDbLine
 62
7
  6
CONTINUOUS
 10
199.96747801
 20
186.6746498666
 11
210.4714796113
 21
186.6746498666
  0
LINE
  5
420
100
AcDbEntity
  8
FASEN
100
AcDbLine
 62
7
  6
CONTINUOUS
 10
75.3257860159
 20
38.8076871213
 11
75.3257860159
 21
57.8068326958
  0
LINE
  5
421
100
AcDbEntity
  8
FASEN
100
AcDbLine
 62
7
  6
CONTINUOUS
 10
75.8257860159
 20
38.3072599085
 11
75.8257860159
 21
58.3072599085
  0
LINE
  5
422
100
AcDbEntity
  8
FASEN
100
AcDbLine
 62
7
  6
CONTINUOUS
 10
75.3257860159
 20
57.8072599085
 11
75.8257860159
 21
58.3072599085
  0
LINE
  5
423
100
AcDbEntity
  8
FASEN
100
AcDbLine
 62
7
  6
CONTINUOUS
 10
75.3257860159
 20
38.8072599085
 11
75.8257860159
 21
38.3072599085
  0
LINE
  5
424
100
AcDbEntity
  8
FASEN
100
AcDbLine
 62
7
  6
CONTINUOUS
 10
82.8257860159
 20
38.3072599085
 11
82.8257860159
 21
58.3072599085
  0
LINE
  5
425
100
AcDbEntity
  8
_30_VOLUMEN
100
AcDbLine
 62
7
  6
CONTINUOUS
 10
83.3257860159
 20
37.6356870333
 11
83.3257860159
 21
58.9788327838
  0
LINE
  5
426
100
AcDbEntity
  8
RUNDUNGEN
100
AcDbLine
 62
7
  6
CONTINUOUS
 10
85.3257860159
 20
44.3072599085
 11
85.3257860159
 21
43.8055841024
  0
LINE
  5
427
100
AcDbEntity
  8
BEZUGSACHSEN
100
AcDbLine
 62
7
  6
CONTINUOUS
 10
85.3257860159
 20
44.3072599085
 11
85.3257860159
 21
52.8089357147
  0
LINE
  5
428
100
AcDbEntity
  8
_30_VOLUMEN
100
AcDbLine
 62
7
  6
CONTINUOUS
 10
88.1975907039
 20
53.8072599085
 11
88.1975907039
 21
54.3072599085
  0
LINE
  5
429
100
AcDbEntity
  8
_30_VOLUMEN
100
AcDbLine
 62
7
  6
CONTINUOUS
 10
88.5547594016
 20
42.8072599085
 11
88.5547594016
 21
42.3072599085
  0
LINE
  5
42A
100
AcDbEntity
  8
_30_VOLUMEN
100
AcDbLine
 62
7
  6
CONTINUOUS
 10
88.6398657745
 20
42.8072599085
 11
88.6398657745
 21
42.3072599085
  0
LINE
  5
42B
100
AcDbEntity
  8
_30_VOLUMEN
100
AcDbLine
 62
7
  6
CONTINUOUS
 10
88.895184893
 20
42.8072599085
 11
88.895184893
 21
42.3072599085
  0
LINE
  5
42C
100
AcDbEntity
  8
_30_VOLUMEN
100
AcDbLine
 62
7
  6
CONTINUOUS
 10
89.2356103843
 20
42.8072599085
 11
89.2356103843
 21
42.3072599085
  0
LINE
  5
42D
100
AcDbEntity
  8
_30_VOLUMEN
100
AcDbLine
 62
7
  6
CONTINUOUS
 10
89.4909295028
 20
42.8072599085
 11
89.4909295028
 21
42.3072599085
  0
LINE
  5
42E
100
AcDbEntity
  8
_30_VOLUMEN
100
AcDbLine
 62
7
  6
CONTINUOUS
 10
89.5760361141
 20
42.8072599085
 11
89.5760361141
 21
42.3072599085
  0
LINE
  5
42F
100
AcDbEntity
  8
_30_VOLUMEN
100
AcDbLine
 62
7
  6
CONTINUOUS
 10
89.7462488597
 20
42.8072599085
 11
89.7462488597
 21
42.3072599085
  0
LINE
  5
430
100
AcDbEntity
  8
_30_VOLUMEN
100
AcDbLine
 62
7
  6
CONTINUOUS
 10
90.0015679782
 20
42.8072599085
 11
90.0015679782
 21
42.3072599085
  0
LINE
  5
431
100
AcDbEntity
  8
_30_VOLUMEN
100
AcDbLine
 62
7
  6
CONTINUOUS
 10
90.1717807239
 20
42.8072599085
 11
90.1717807239
 21
42.3072599085
  0
LINE
  5
432
100
AcDbEntity
  8
RUNDUNGEN
100
AcDbLine
 62
7
  6
CONTINUOUS
 10
95.3257860159
 20
28.8072599085
 11
116.3257860159
 21
28.8072599085
  0
LINE
  5
433
100
AcDbEntity
  8
_30_VOLUMEN
100
AcDbLine
 62
7
  6
CONTINUOUS
 10
90.2568870967
 20
42.8072599085
 11
90.2568870967
 21
42.3072599085
  0
LINE
  5
434
100
AcDbEntity
  8
_30_VOLUMEN
100
AcDbLine
 62
7
  6
CONTINUOUS
 10
90.3419934696
 20
42.8072599085
 11
90.3419934696
 21
42.3072599085
  0
LINE
  5
435
100
AcDbEntity
  8
_30_VOLUMEN
100
AcDbLine
 62
7
  6
CONTINUOUS
 10
90.5122062152
 20
42.8072599085
 11
90.5122062152
 21
42.3072599085
  0
LINE
  5
436
100
AcDbEntity
  8
_30_VOLUMEN
100
AcDbLine
 62
7
  6
CONTINUOUS
 10
90.8526317066
 20
42.8072599085
 11
90.8526317066
 21
42.3072599085
  0
LINE
  5
437
100
AcDbEntity
  8
_30_VOLUMEN
100
AcDbLine
 62
7
  6
CONTINUOUS
 10
91.1930573171
 20
42.781914636
 11
91.1930573171
 21
42.3072599085
  0
LINE
  5
438
100
AcDbEntity
  8
_30_VOLUMEN
100
AcDbLine
 62
7
  6
CONTINUOUS
 10
91.6185891813
 20
42.6998834589
 11
91.6185891813
 21
42.3072599085
  0
LINE
  5
439
100
AcDbEntity
  8
_30_VOLUMEN
100
AcDbLine
 62
7
  6
CONTINUOUS
 10
91.9590147322
 20
42.5819472125
 11
91.9590147322
 21
42.3072599085
  0
LINE
  5
43A
100
AcDbEntity
  8
_30_VOLUMEN
100
AcDbLine
 62
7
  6
CONTINUOUS
 10
92.2994402533
 20
42.419050941
 11
92.2994402533
 21
42.3072599085
  0
LINE
  5
43B
100
AcDbEntity
  8
_30_VOLUMEN
100
AcDbLine
 62
7
  6
CONTINUOUS
 10
93.8257860159
 20
30.3072599085
 11
93.8257860159
 21
44.3423112888
  0
LINE
  5
43C
100
AcDbEntity
  8
_30_VOLUMEN
100
AcDbLine
 62
7
  6
CONTINUOUS
 10
93.8257860159
 20
52.2722085282
 11
93.8257860159
 21
66.3072599085
  0
LINE
  5
43D
100
AcDbEntity
  8
0
100
AcDbLine
 62
7
  6
CONTINUOUS
 10
121.3257860159
 20
34.3072599085
 11
130.9865866943
 21
34.3072599085
  0
LINE
  5
43E
100
AcDbEntity
  8
0
100
AcDbLine
 62
7
  6
CONTINUOUS
 10
121.5757860159
 20
34.3320835034
 11
127.0757860159
 21
34.3320835034
  0
LINE
  5
43F
100
AcDbEntity
  8
0
100
AcDbLine
 62
7
  6
CONTINUOUS
 10
132.4257860159
 20
34.8072599085
 11
131.1040869593
 21
34.8072599085
  0
LINE
  5
440
100
AcDbEntity
  8
0
100
AcDbLine
 62
7
  6
CONTINUOUS
 10
121.3257860159
 20
34.8072599085
 11
117.8257860159
 21
34.8072599085
  0
LINE
  5
441
100
AcDbEntity
  8
0
100
AcDbLine
 62
7
  6
CONTINUOUS
 10
93.8257860159
 20
34.8072599085
 11
86.568426703
 21
34.8072599085
  0
LINE
  5
442
100
AcDbEntity
  8
0
100
AcDbLine
 62
7
  6
CONTINUOUS
 10
127.0757860159
 20
34.8330046209
 11
121.5757860159
 21
34.8330046209
  0
LINE
  5
443
100
AcDbEntity
  8
FASEN
100
AcDbLine
 62
7
  6
CONTINUOUS
 10
83.3257860159
 20
38.8072599085
 11
82.8257860159
 21
38.3072599085
  0
LINE
  5
444
100
AcDbEntity
  8
0
100
AcDbLine
 62
7
  6
CONTINUOUS
 10
75.8257860159
 20
38.3072599085
 11
82.8257860159
 21
38.3072599085
  0
LINE
  5
445
100
AcDbEntity
  8
FASEN
100
AcDbLine
 62
7
  6
CONTINUOUS
 10
83.3257860159
 20
57.8072599085
 11
82.8257860159
 21
58.3072599085
  0
LINE
  5
446
100
AcDbEntity
  8
_30_VOLUMEN
100
AcDbLine
 62
7
  6
CONTINUOUS
 10
126.0528176837
 20
38.8072599085
 11
123.0528176837
 21
38.8072599085
  0
LINE
  5
447
100
AcDbEntity
  8
_30_VOLUMEN
100
AcDbLine
 62
7
  6
CONTINUOUS
 10
117.8257860159
 20
39.3072599085
 11
132.4257860159
 21
39.3072599085
  0
LINE
  5
448
100
AcDbEntity
  8
_30_VOLUMEN
100
AcDbLine
 62
7
  6
CONTINUOUS
 10
132.4257860159
 20
39.8072599085
 11
132.7257860159
 21
39.8072599085
  0
LINE
  5
449
100
AcDbEntity
  8
_30_VOLUMEN
100
AcDbLine
 62
7
  6
CONTINUOUS
 10
126.0257860159
 20
40.071191931
 11
132.4257860159
 21
40.071191931
  0
LINE
  5
44A
100
AcDbEntity
  8
_26_BEZUGSACHSEN
100
AcDbLine
 62
7
  6
CONTINUOUS
 10
100.8257860159
 20
43.2572599085
 11
100.8257860159
 21
53.3572599085
  0
LINE
  5
44B
100
AcDbEntity
  8
_30_VOLUMEN
100
AcDbLine
 62
7
  6
CONTINUOUS
 10
92.4797349156
 20
42.3072599085
 11
88.5547594016
 21
42.3072599085
  0
LINE
  5
44C
100
AcDbEntity
  8
_30_VOLUMEN
100
AcDbLine
 62
7
  6
CONTINUOUS
 10
132.4257860159
 20
42.5572599085
 11
126.0257860159
 21
42.5572599085
  0
LINE
  5
44D
100
AcDbEntity
  8
RUNDUNGEN
100
AcDbLine
 62
7
  6
CONTINUOUS
 10
130.3257860159
 20
42.8072599085
 11
120.8257860159
 21
42.8072599085
  0
LINE
  5
44E
100
AcDbEntity
  8
RUNDUNGEN
100
AcDbLine
 62
7
  6
CONTINUOUS
 10
90.8257860159
 20
42.8072599085
 11
86.8257860159
 21
42.8072599085
  0
LINE
  5
44F
100
AcDbEntity
  8
_30_VOLUMEN
100
AcDbLine
 62
7
  6
CONTINUOUS
 10
130.3257860159
 20
42.8072599085
 11
132.7257860159
 21
42.8072599085
  0
LINE
  5
450
100
AcDbEntity
  8
0
100
AcDbLine
 62
7
  6
CONTINUOUS
 10
133.2257860159
 20
42.8072599085
 11
134.9298221448
 21
42.8072599085
  0
LINE
  5
451
100
AcDbEntity
  8
_30_VOLUMEN
100
AcDbLine
 62
7
  6
CONTINUOUS
 10
93.8257860159
 20
43.2572599085
 11
117.8257860159
 21
43.2572599085
  0
LINE
  5
452
100
AcDbEntity
  8
_30_VOLUMEN
100
AcDbLine
 62
7
  6
CONTINUOUS
 10
132.8257860159
 20
43.3072599085
 11
135.5257860159
 21
43.3072599085
  0
LINE
  5
453
100
AcDbEntity
  8
0
100
AcDbLine
 62
7
  6
CONTINUOUS
 10
132.7257860159
 20
44.4072599085
 11
132.8257860159
 21
44.4072599085
  0
LINE
  5
454
100
AcDbEntity
  8
_30_VOLUMEN
100
AcDbLine
 62
7
  6
CONTINUOUS
 10
132.7257860159
 20
45.3072599085
 11
131.8257860159
 21
45.3072599085
  0
LINE
  5
455
100
AcDbEntity
  8
_30_VOLUMEN
100
AcDbLine
 62
7
  6
CONTINUOUS
 10
132.7257860159
 20
45.8072599085
 11
132.8257860159
 21
45.8072599085
  0
LINE
  5
456
100
AcDbEntity
  8
_21_KURVEN
100
AcDbLine
 62
4
  6
CONTINUOUS
 10
93.4479723296
 20
48.3072599085
 11
118.2035999923
 21
48.3072599085
  0
LINE
  5
457
100
AcDbEntity
  8
_30_VOLUMEN
100
AcDbLine
 62
7
  6
CONTINUOUS
 10
132.8257860159
 20
48.3072599085
 11
135.5257860159
 21
48.3072599085
  0
LINE
  5
458
100
AcDbEntity
  8
_30_VOLUMEN
100
AcDbLine
 62
7
  6
CONTINUOUS
 10
132.7257860159
 20
50.8072599085
 11
132.8257860159
 21
50.8072599085
  0
LINE
  5
459
100
AcDbEntity
  8
_26_BEZUGSACHSEN
100
AcDbLine
 62
7
  6
CONTINUOUS
 10
110.8257860159
 20
43.2572599085
 11
110.8257860159
 21
53.3572599085
  0
LINE
  5
45A
100
AcDbEntity
  8
_30_VOLUMEN
100
AcDbLine
 62
7
  6
CONTINUOUS
 10
131.8257860159
 20
51.3072599085
 11
132.7257860159
 21
51.3072599085
  0
LINE
  5
45B
100
AcDbEntity
  8
0
100
AcDbLine
 62
7
  6
CONTINUOUS
 10
132.7257860159
 20
52.2072599085
 11
132.8257860159
 21
52.2072599085
  0
LINE
  5
45C
100
AcDbEntity
  8
_30_VOLUMEN
100
AcDbLine
 62
7
  6
CONTINUOUS
 10
132.8257860159
 20
53.3072599085
 11
135.5257860159
 21
53.3072599085
  0
LINE
  5
45D
100
AcDbEntity
  8
_30_VOLUMEN
100
AcDbLine
 62
7
  6
CONTINUOUS
 10
93.8257860159
 20
53.3572599085
 11
117.8257860159
 21
53.3572599085
  0
LINE
  5
45E
100
AcDbEntity
  8
_30_VOLUMEN
100
AcDbLine
 62
7
  6
CONTINUOUS
 10
132.7257860159
 20
53.8072599085
 11
130.3257860159
 21
53.8072599085
  0
LINE
  5
45F
100
AcDbEntity
  8
BEZUGSACHSEN
100
AcDbLine
 62
7
  6
CONTINUOUS
 10
130.3257860159
 20
53.8072599085
 11
120.8257860159
 21
53.8072599085
  0
LINE
  5
460
100
AcDbEntity
  8
BEZUGSACHSEN
100
AcDbLine
 62
7
  6
CONTINUOUS
 10
90.8257860159
 20
53.8072599085
 11
86.8257860159
 21
53.8072599085
  0
LINE
  5
461
100
AcDbEntity
  8
0
100
AcDbLine
 62
7
  6
CONTINUOUS
 10
133.2257860159
 20
53.8072599085
 11
134.9298221448
 21
53.8072599085
  0
LINE
  5
462
100
AcDbEntity
  8
_30_VOLUMEN
100
AcDbLine
 62
7
  6
CONTINUOUS
 10
132.4257860159
 20
54.0572599085
 11
126.0257860159
 21
54.0572599085
  0
LINE
  5
463
100
AcDbEntity
  8
_30_VOLUMEN
100
AcDbLine
 62
7
  6
CONTINUOUS
 10
88.1975907039
 20
54.3072599085
 11
92.4797349156
 21
54.3072599085
  0
LINE
  5
464
100
AcDbEntity
  8
_30_VOLUMEN
100
AcDbLine
 62
7
  6
CONTINUOUS
 10
132.4257860159
 20
56.543327886
 11
126.0257860159
 21
56.543327886
  0
LINE
  5
465
100
AcDbEntity
  8
_30_VOLUMEN
100
AcDbLine
 62
7
  6
CONTINUOUS
 10
132.4257860159
 20
56.8072599085
 11
132.7257860159
 21
56.8072599085
  0
LINE
  5
466
100
AcDbEntity
  8
_30_VOLUMEN
100
AcDbLine
 62
7
  6
CONTINUOUS
 10
117.8257860159
 20
57.3072599085
 11
132.4257860159
 21
57.3072599085
  0
LINE
  5
467
100
AcDbEntity
  8
0
100
AcDbLine
 62
7
  6
CONTINUOUS
 10
75.8257860159
 20
58.3072599085
 11
82.8257860159
 21
58.3072599085
  0
LINE
  5
468
100
AcDbEntity
  8
_30_VOLUMEN
100
AcDbLine
 62
7
  6
CONTINUOUS
 10
117.8257860159
 20
30.3072599085
 11
117.8257860159
 21
44.3423112888
  0
LINE
  5
469
100
AcDbEntity
  8
_30_VOLUMEN
100
AcDbLine
 62
7
  6
CONTINUOUS
 10
117.8257860159
 20
52.2722085282
 11
117.8257860159
 21
66.3072599085
  0
LINE
  5
46A
100
AcDbEntity
  8
0
100
AcDbLine
 62
7
  6
CONTINUOUS
 10
121.3257860159
 20
34.8198686774
 11
121.3257860159
 21
34.3194179655
  0
LINE
  5
46B
100
AcDbEntity
  8
BEZUGSACHSEN
100
AcDbLine
 62
7
  6
CONTINUOUS
 10
121.3257860159
 20
61.7946511397
 11
121.3257860159
 21
62.2951018515
  0
LINE
  5
46C
100
AcDbEntity
  8
0
100
AcDbLine
 62
7
  6
CONTINUOUS
 10
134.9298221448
 20
42.8072599085
 11
138.9967960875
 21
44.2875173672
  0
LINE
  5
46D
100
AcDbEntity
  8
BEZUGSACHSEN
100
AcDbLine
 62
7
  6
CONTINUOUS
 10
127.0757860159
 20
61.7815151961
 11
121.5757860159
 21
61.7815151961
  0
LINE
  5
46E
100
AcDbEntity
  8
0
100
AcDbLine
 62
7
  6
CONTINUOUS
 10
132.4257860159
 20
61.8072599085
 11
131.1040869593
 21
61.8072599085
  0
LINE
  5
46F
100
AcDbEntity
  8
0
100
AcDbLine
 62
7
  6
CONTINUOUS
 10
121.3257860159
 20
61.8072599085
 11
117.8257860159
 21
61.8072599085
  0
LINE
  5
470
100
AcDbEntity
  8
0
100
AcDbLine
 62
7
  6
CONTINUOUS
 10
93.8257860159
 20
61.8072599085
 11
86.568426703
 21
61.8072599085
  0
LINE
  5
471
100
AcDbEntity
  8
BEZUGSACHSEN
100
AcDbLine
 62
7
  6
CONTINUOUS
 10
121.5757860159
 20
62.2824363137
 11
127.0757860159
 21
62.2824363137
  0
LINE
  5
472
100
AcDbEntity
  8
BEZUGSACHSEN
100
AcDbLine
 62
7
  6
CONTINUOUS
 10
130.9865866943
 20
62.3072599085
 11
121.3257860159
 21
62.3072599085
  0
LINE
  5
473
100
AcDbEntity
  8
0
100
AcDbLine
 62
7
  6
CONTINUOUS
 10
134.9298221448
 20
53.8072599085
 11
138.9967960875
 21
52.3270024498
  0
LINE
  5
474
100
AcDbEntity
  8
_30_VOLUMEN
100
AcDbLine
 62
7
  6
CONTINUOUS
 10
123.0528176837
 20
39.3072599085
 11
123.0528176837
 21
38.8072599085
  0
LINE
  5
475
100
AcDbEntity
  8
_30_VOLUMEN
100
AcDbLine
 62
7
  6
CONTINUOUS
 10
123.1361510195
 20
39.3072599085
 11
123.1361510195
 21
38.8072599085
  0
LINE
  5
476
100
AcDbEntity
  8
_30_VOLUMEN
100
AcDbLine
 62
7
  6
CONTINUOUS
 10
123.3028176837
 20
39.3072599085
 11
123.3028176837
 21
38.8072599085
  0
LINE
  5
477
100
AcDbEntity
  8
_30_VOLUMEN
100
AcDbLine
 62
7
  6
CONTINUOUS
 10
123.5528176837
 20
39.3072599085
 11
123.5528176837
 21
38.8072599085
  0
LINE
  5
478
100
AcDbEntity
  8
_30_VOLUMEN
100
AcDbLine
 62
7
  6
CONTINUOUS
 10
123.9694843702
 20
39.3072599085
 11
123.9694843702
 21
38.8072599085
  0
LINE
  5
479
100
AcDbEntity
  8
_30_VOLUMEN
100
AcDbLine
 62
7
  6
CONTINUOUS
 10
124.3861510567
 20
39.3072599085
 11
124.3861510567
 21
38.8072599085
  0
LINE
  5
47A
100
AcDbEntity
  8
_30_VOLUMEN
100
AcDbLine
 62
7
  6
CONTINUOUS
 10
124.7194843106
 20
39.3072599085
 11
124.7194843106
 21
38.8072599085
  0
LINE
  5
47B
100
AcDbEntity
  8
_30_VOLUMEN
100
AcDbLine
 62
7
  6
CONTINUOUS
 10
125.1361509375
 20
39.3072599085
 11
125.1361509375
 21
38.8072599085
  0
LINE
  5
47C
100
AcDbEntity
  8
_30_VOLUMEN
100
AcDbLine
 62
7
  6
CONTINUOUS
 10
125.5528176837
 20
39.3072599085
 11
125.5528176837
 21
38.8072599085
  0
LINE
  5
47D
100
AcDbEntity
  8
_30_VOLUMEN
100
AcDbLine
 62
7
  6
CONTINUOUS
 10
125.8028176837
 20
39.3072599085
 11
125.8028176837
 21
38.8072599085
  0
LINE
  5
47E
100
AcDbEntity
  8
_30_VOLUMEN
100
AcDbLine
 62
7
  6
CONTINUOUS
 10
125.9694844298
 20
39.3072599085
 11
125.9694844298
 21
38.8072599085
  0
LINE
  5
47F
100
AcDbEntity
  8
_30_VOLUMEN
100
AcDbLine
 62
7
  6
CONTINUOUS
 10
126.0257860159
 20
42.8072599085
 11
126.0257860159
 21
40.071191931
  0
LINE
  5
480
100
AcDbEntity
  8
_30_VOLUMEN
100
AcDbLine
 62
7
  6
CONTINUOUS
 10
126.0257860159
 20
53.8072599085
 11
126.0257860159
 21
56.543327886
  0
LINE
  5
481
100
AcDbEntity
  8
_30_VOLUMEN
100
AcDbLine
 62
7
  6
CONTINUOUS
 10
126.0528176837
 20
39.3072599085
 11
126.0528176837
 21
38.8072599085
  0
LINE
  5
482
100
AcDbEntity
  8
_30_VOLUMEN
100
AcDbLine
 62
7
  6
CONTINUOUS
 10
126.1257860159
 20
54.0572599085
 11
126.1257860159
 21
53.8072599085
  0
LINE
  5
483
100
AcDbEntity
  8
_30_VOLUMEN
100
AcDbLine
 62
7
  6
CONTINUOUS
 10
126.1257860159
 20
42.8072599085
 11
126.1257860159
 21
42.5572599085
  0
LINE
  5
484
100
AcDbEntity
  8
0
100
AcDbLine
 62
7
  6
CONTINUOUS
 10
127.3257860159
 20
34.9636527236
 11
127.3257860159
 21
34.3492375239
  0
LINE
  5
485
100
AcDbEntity
  8
BEZUGSACHSEN
100
AcDbLine
 62
7
  6
CONTINUOUS
 10
127.3257860159
 20
61.6508670934
 11
127.3257860159
 21
62.2652822931
  0
LINE
  5
486
100
AcDbEntity
  8
BEZUGSACHSEN
100
AcDbLine
 62
7
  6
CONTINUOUS
 10
95.3257860159
 20
67.8072599085
 11
116.3257860159
 21
67.8072599085
  0
LINE
  5
487
100
AcDbEntity
  8
BEZUGSACHSEN
100
AcDbLine
 62
7
  6
CONTINUOUS
 10
131.1040869593
 20
62.3072599085
 11
131.1040869593
 21
61.8072599085
  0
LINE
  5
488
100
AcDbEntity
  8
0
100
AcDbLine
 62
7
  6
CONTINUOUS
 10
131.1040869593
 20
34.8072599085
 11
131.1040869593
 21
34.3072599085
  0
LINE
  5
489
100
AcDbEntity
  8
BEZUGSACHSEN
100
AcDbLine
 62
7
  6
CONTINUOUS
 10
131.8257860159
 20
52.3072599085
 11
131.8257860159
 21
44.3072599085
  0
LINE
  5
48A
100
AcDbEntity
  8
_30_VOLUMEN
100
AcDbLine
 62
7
  6
CONTINUOUS
 10
132.4257860159
 20
34.8072599493
 11
132.4257860159
 21
42.5572599085
  0
LINE
  5
48B
100
AcDbEntity
  8
_30_VOLUMEN
100
AcDbLine
 62
7
  6
CONTINUOUS
 10
132.4257860159
 20
54.0572599085
 11
132.4257860159
 21
61.8072598678
  0
LINE
  5
48C
100
AcDbEntity
  8
_30_VOLUMEN
100
AcDbLine
 62
7
  6
CONTINUOUS
 10
132.7257860159
 20
56.807259845
 11
132.7257860159
 21
39.8072599721
  0
LINE
  5
48D
100
AcDbEntity
  8
_30_VOLUMEN
100
AcDbLine
 62
7
  6
CONTINUOUS
 10
132.8257860159
 20
53.3072599085
 11
132.8257860159
 21
43.3072599085
  0
LINE
  5
48E
100
AcDbEntity
  8
0
100
AcDbLine
 62
7
  6
CONTINUOUS
 10
133.2257860159
 20
43.3072599085
 11
133.2257860159
 21
42.8072599085
  0
LINE
  5
48F
100
AcDbEntity
  8
0
100
AcDbLine
 62
7
  6
CONTINUOUS
 10
133.2257860159
 20
53.3072599085
 11
133.2257860159
 21
53.8072599085
  0
LINE
  5
490
100
AcDbEntity
  8
0
100
AcDbLine
 62
7
  6
CONTINUOUS
 10
134.9298221448
 20
43.3072599085
 11
134.9298221448
 21
42.8072599085
  0
LINE
  5
491
100
AcDbEntity
  8
0
100
AcDbLine
 62
7
  6
CONTINUOUS
 10
134.9298221448
 20
53.3072599085
 11
134.9298221448
 21
53.8072599085
  0
LINE
  5
492
100
AcDbEntity
  8
_30_VOLUMEN
100
AcDbLine
 62
7
  6
CONTINUOUS
 10
135.5257860159
 20
53.3072599085
 11
135.5257860159
 21
43.3072599085
  0
LINE
  5
493
100
AcDbEntity
  8
RUNDUNGEN
100
AcDbLine
 62
7
  6
CONTINUOUS
 10
139.3257860159
 20
44.7573636776
 11
139.3257860159
 21
51.8571561394
  0
ARC
  5
494
100
AcDbEntity
  8
RUNDUNGEN
100
AcDbCircle
 62
7
  6
CONTINUOUS
 10
99.3257860159
 20
148.6746498666
 40
14.0
100
AcDbArc
 50
120.0
 51
180.0
  0
ARC
  5
495
100
AcDbEntity
  8
_30_VOLUMEN
100
AcDbCircle
 62
7
  6
CONTINUOUS
 10
105.8257860159
 20
174.6746498666
 40
12.0
100
AcDbArc
 50
174.806100144
 51
180.0
  0
ARC
  5
496
100
AcDbEntity
  8
RUNDUNGEN
100
AcDbCircle
 62
7
  6
CONTINUOUS
 10
105.8257860159
 20
174.6746498666
 40
12.0
100
AcDbArc
 50
0.0
 51
180.0
  0
ARC
  5
497
100
AcDbEntity
  8
_21_KURVEN
100
AcDbCircle
 62
4
  6
CONTINUOUS
 10
89.8257860159
 20
173.4746498666
 40
8.0
100
AcDbArc
 50
296.9217526842
 51
300.0011296271
  0
ARC
  5
498
100
AcDbEntity
  8
_21_KURVEN
100
AcDbCircle
 62
4
  6
CONTINUOUS
 10
121.8257860159
 20
173.4746498666
 40
8.0
100
AcDbArc
 50
239.9988703729
 51
243.0782473158
  0
ARC
  5
499
100
AcDbEntity
  8
RUNDUNGEN
100
AcDbCircle
 62
7
  6
CONTINUOUS
 10
126.8257860159
 20
150.6953758088
 40
5.0
100
AcDbArc
 50
0.0
 51
60.0
  0
ARC
  5
49A
100
AcDbEntity
  8
RUNDUNGEN
100
AcDbCircle
 62
7
  6
CONTINUOUS
 10
112.3257860159
 20
148.6746498666
 40
4.0
100
AcDbArc
 50
0.0
 51
89.2837392943
  0
ARC
  5
49B
100
AcDbEntity
  8
RUNDUNGEN
100
AcDbCircle
 62
7
  6
CONTINUOUS
 10
99.3257860159
 20
148.6746498666
 40
4.0
100
AcDbArc
 50
90.7161692532
 51
180.0
  0
ARC
  5
49C
100
AcDbEntity
  8
_30_VOLUMEN
100
AcDbCircle
 62
7
  6
CONTINUOUS
 10
129.4257860159
 20
140.8746498666
 40
3.3
100
AcDbArc
 50
0.0
 51
180.0
  0
ARC
  5
49D
100
AcDbEntity
  8
_30_VOLUMEN
100
AcDbCircle
 62
7
  6
CONTINUOUS
 10
82.3257860159
 20
128.1746498666
 40
3.0
100
AcDbArc
 50
289.4712206345
 51
359.9999999999
  0
ARC
  5
49E
100
AcDbEntity
  8
_30_VOLUMEN
100
AcDbCircle
 62
7
  6
CONTINUOUS
 10
82.3257860159
 20
101.1746498666
 40
3.0
100
AcDbArc
 50
19.4712206345
 51
70.5287793655
  0
ARC
  5
49F
100
AcDbEntity
  8
BEZUGSACHSEN
100
AcDbCircle
 62
7
  6
CONTINUOUS
 10
120.8257860159
 20
163.397081731
 40
3.0
100
AcDbArc
 50
219.8523524401
 51
240.0
  0
ARC
  5
4A0
100
AcDbEntity
  8
RUNDUNGEN
100
AcDbCircle
 62
7
  6
CONTINUOUS
 10
120.8257860159
 20
163.397081731
 40
3.0
100
AcDbArc
 50
180.0000000294
 51
240.0
  0
ARC
  5
4A1
100
AcDbEntity
  8
RUNDUNGEN
100
AcDbCircle
 62
7
  6
CONTINUOUS
 10
90.8257860159
 20
163.3970243171
 40
2.9999653696
100
AcDbArc
 50
300.0005482712
 51
0.0010965242
  0
ARC
  5
4A2
100
AcDbEntity
  8
BEZUGSACHSEN
100
AcDbCircle
 62
7
  6
CONTINUOUS
 10
90.8257860159
 20
163.3970243171
 40
2.9999653696
100
AcDbArc
 50
300.0005482712
 51
320.148482097
  0
ARC
  5
4A3
100
AcDbEntity
  8
BEZUGSACHSEN
100
AcDbCircle
 62
7
  6
CONTINUOUS
 10
86.568426703
 20
102.6746498666
 40
1.5
100
AcDbArc
 50
199.4712206345
 51
270.0
  0
ARC
  5
4A4
100
AcDbEntity
  8
RUNDUNGEN
100
AcDbCircle
 62
7
  6
CONTINUOUS
 10
117.3257860159
 20
102.1746498666
 40
1.0
100
AcDbArc
 50
180.0
 51
270.0
  0
ARC
  5
4A5
100
AcDbEntity
  8
RUNDUNGEN
100
AcDbCircle
 62
7
  6
CONTINUOUS
 10
94.3257860159
 20
102.1746498666
 40
1.0
100
AcDbArc
 50
270.0
 51
360.0
  0
ARC
  5
4A6
100
AcDbEntity
  8
RUNDUNGEN
100
AcDbCircle
 62
7
  6
CONTINUOUS
 10
138.8257860159
 20
118.2245460975
 40
0.5
100
AcDbArc
 50
0.0
 51
69.9999999633
  0
ARC
  5
4A7
100
AcDbEntity
  8
RUNDUNGEN
100
AcDbCircle
 62
7
  6
CONTINUOUS
 10
138.8257860159
 20
111.1247536357
 40
0.5
100
AcDbArc
 50
290.0000000367
 51
360.0
  0
ARC
  5
4A8
100
AcDbEntity
  8
0
100
AcDbCircle
 62
7
  6
CONTINUOUS
 10
127.5757860159
 20
116.7235879562
 40
0.25
100
AcDbArc
 50
57.9946167919
 51
180.0
  0
ARC
  5
4A9
100
AcDbEntity
  8
0
100
AcDbCircle
 62
7
  6
CONTINUOUS
 10
127.0757860159
 20
115.7579831999
 40
0.25
100
AcDbArc
 50
270.0
 51
360.0
  0
ARC
  5
4AA
100
AcDbEntity
  8
0
100
AcDbCircle
 62
7
  6
CONTINUOUS
 10
121.5757860159
 20
115.2579831999
 40
0.25
100
AcDbArc
 50
90.0
 51
180.0
  0
ARC
  5
4AB
100
AcDbEntity
  8
0
100
AcDbCircle
 62
7
  6
CONTINUOUS
 10
121.5757860159
 20
114.0913165333
 40
0.25
100
AcDbArc
 50
180.0
 51
270.0
  0
ARC
  5
4AC
100
AcDbEntity
  8
0
100
AcDbCircle
 62
7
  6
CONTINUOUS
 10
127.0757860159
 20
113.5913165333
 40
0.25
100
AcDbArc
 50
0.0
 51
90.0
  0
ARC
  5
4AD
100
AcDbEntity
  8
0
100
AcDbCircle
 62
7
  6
CONTINUOUS
 10
127.5757860159
 20
112.625711777
 40
0.25
100
AcDbArc
 50
180.0
 51
302.0053832081
  0
ARC
  5
4AE
100
AcDbEntity
  8
0
100
AcDbCircle
 62
7
  6
CONTINUOUS
 10
130.8540869593
 20
114.6746498666
 40
0.25
100
AcDbArc
 50
302.0053832081
 51
57.9946167919
  0
ARC
  5
4AF
100
AcDbEntity
  8
BEZUGSACHSEN
100
AcDbCircle
 62
7
  6
CONTINUOUS
 10
181.9714796113
 20
129.9061960783
 40
5.0
100
AcDbArc
 50
304.5803436982
 51
360.0
  0
ARC
  5
4B0
100
AcDbEntity
  8
BEZUGSACHSEN
100
AcDbCircle
 62
7
  6
CONTINUOUS
 10
178.4714796113
 20
126.7680364891
 40
5.0
100
AcDbArc
 50
319.1791089567
 51
360.0
  0
ARC
  5
4B1
100
AcDbEntity
  8
BEZUGSACHSEN
100
AcDbCircle
 62
7
  6
CONTINUOUS
 10
186.4714796113
 20
133.6746498666
 40
3.0
100
AcDbArc
 50
107.4576031237
 51
180.0
  0
ARC
  5
4B2
100
AcDbEntity
  8
BEZUGSACHSEN
100
AcDbCircle
 62
7
  6
CONTINUOUS
 10
184.9714796113
 20
138.4443458737
 40
2.0
100
AcDbArc
 50
287.4576031237
 51
318.6478616364
  0
ARC
  5
4B3
100
AcDbEntity
  8
_30_VOLUMEN
100
AcDbCircle
 62
7
  6
CONTINUOUS
 10
158.8149990453
 20
174.6788287355
 40
41.4479833988
100
AcDbArc
 50
359.9942233244
 51
1.1001740113
  0
ARC
  5
4B4
100
AcDbEntity
  8
BEZUGSACHSEN
100
AcDbCircle
 62
7
  6
CONTINUOUS
 10
182.9714796113
 20
166.8959710311
 40
10.0
100
AcDbArc
 50
180.0
 51
240.0
  0
ARC
  5
4B5
100
AcDbEntity
  8
_30_VOLUMEN
100
AcDbCircle
 62
7
  6
CONTINUOUS
 10
189.9714796113
 20
188.9746498666
 40
5.5
100
AcDbArc
 50
204.7198511829
 51
242.3779945078
  0
ARC
  5
4B6
100
AcDbEntity
  8
BEZUGSACHSEN
100
AcDbCircle
 62
7
  6
CONTINUOUS
 10
174.4714796113
 20
185.1746498666
 40
1.5
100
AcDbArc
 50
90.0
 51
180.0
  0
ARC
  5
4B7
100
AcDbEntity
  8
0
100
AcDbCircle
 62
7
  6
CONTINUOUS
 10
192.4714796113
 20
114.6746498666
 40
14.0
100
AcDbArc
 50
350.5486972757
 51
9.4513048049
  0
ARC
  5
4B8
100
AcDbEntity
  8
BEZUGSACHSEN
100
AcDbCircle
 62
7
  6
CONTINUOUS
 10
192.4714796113
 20
114.6746498666
 40
14.0
100
AcDbArc
 50
170.5486951951
 51
189.4513027243
  0
ARC
  5
4B9
100
AcDbEntity
  8
BEZUGSACHSEN
100
AcDbCircle
 62
7
  6
CONTINUOUS
 10
192.4714796113
 20
114.6746498666
 40
13.5
100
AcDbArc
 50
124.580939441
 51
55.419060559
  0
CIRCLE
  5
4BA
100
AcDbEntity
  8
_30_VOLUMEN
100
AcDbCircle
 62
7
  6
CONTINUOUS
 10
192.4714796113
 20
114.6746498666
 40
10.6715728753
  0
CIRCLE
  5
4BB
100
AcDbEntity
  8
FASEN
100
AcDbCircle
 62
7
  6
CONTINUOUS
 10
192.4714796113
 20
114.6746498666
 40
10.0
  0
CIRCLE
  5
4BC
100
AcDbEntity
  8
FASEN
100
AcDbCircle
 62
7
  6
CONTINUOUS
 10
192.4714796113
 20
114.6746498666
 40
9.5
  0
ARC
  5
4BD
100
AcDbEntity
  8
RUNDUNGEN
100
AcDbCircle
 62
7
  6
CONTINUOUS
 10
198.4714796113
 20
133.6746498666
 40
3.0
100
AcDbArc
 50
0.0
 51
72.5423968763
  0
ARC
  5
4BE
100
AcDbEntity
  8
RUNDUNGEN
100
AcDbCircle
 62
7
  6
CONTINUOUS
 10
202.9714796113
 20
129.9061960783
 40
5.0
100
AcDbArc
 50
180.0
 51
235.4196563018
  0
ARC
  5
4BF
100
AcDbEntity
  8
RUNDUNGEN
100
AcDbCircle
 62
7
  6
CONTINUOUS
 10
206.4714796113
 20
126.7680364891
 40
5.0
100
AcDbArc
 50
180.0
 51
220.8208910433
  0
ARC
  5
4C0
100
AcDbEntity
  8
RUNDUNGEN
100
AcDbCircle
 62
7
  6
CONTINUOUS
 10
199.9714796113
 20
138.4443458737
 40
2.0
100
AcDbArc
 50
199.6824921933
 51
252.5423968763
  0
ARC
  5
4C1
100
AcDbEntity
  8
_30_VOLUMEN
100
AcDbCircle
 62
7
  6
CONTINUOUS
 10
226.1279601772
 20
174.6788287355
 40
41.4479833987
100
AcDbArc
 50
178.8998259887
 51
180.0057766756
  0
ARC
  5
4C2
100
AcDbEntity
  8
RUNDUNGEN
100
AcDbCircle
 62
7
  6
CONTINUOUS
 10
201.9714796113
 20
166.8959710311
 40
10.0
100
AcDbArc
 50
300.0
 51
360.0
  0
ARC
  5
4C3
100
AcDbEntity
  8
_30_VOLUMEN
100
AcDbCircle
 62
7
  6
CONTINUOUS
 10
194.9714796113
 20
188.9746498666
 40
5.5
100
AcDbArc
 50
297.6220054922
 51
335.2801488171
  0
ARC
  5
4C4
100
AcDbEntity
  8
_30_VOLUMEN
100
AcDbCircle
 62
7
  6
CONTINUOUS
 10
192.4714796113
 20
166.5246498666
 40
5.05
100
AcDbArc
 50
180.0
 51
360.0
  0
ARC
  5
4C5
100
AcDbEntity
  8
RUNDUNGEN
100
AcDbCircle
 62
7
  6
CONTINUOUS
 10
210.4714796113
 20
185.1746498666
 40
1.5
100
AcDbArc
 50
0.0
 51
90.0
  0
ARC
  5
4C6
100
AcDbEntity
  8
_30_VOLUMEN
100
AcDbCircle
 62
7
  6
CONTINUOUS
 10
92.3257860159
 20
45.8072599085
 40
5.5
100
AcDbArc
 50
285.8266201319
 51
332.3779945078
  0
ARC
  5
4C7
100
AcDbEntity
  8
RUNDUNGEN
100
AcDbCircle
 62
7
  6
CONTINUOUS
 10
82.3257860159
 20
34.8072599085
 40
3.0
100
AcDbArc
 50
19.4712206345
 51
70.5287793655
  0
ARC
  5
4C8
100
AcDbEntity
  8
RUNDUNGEN
100
AcDbCircle
 62
7
  6
CONTINUOUS
 10
90.8258043734
 20
39.8072599085
 40
2.9999877617
100
AcDbArc
 50
5.0000448217
 51
90.0003506024
  0
ARC
  5
4C9
100
AcDbEntity
  8
BEZUGSACHSEN
100
AcDbCircle
 62
7
  6
CONTINUOUS
 10
86.568426703
 20
36.3072599085
 40
1.5
100
AcDbArc
 50
199.4712206345
 51
270.0
  0
ARC
  5
4CA
100
AcDbEntity
  8
RUNDUNGEN
100
AcDbCircle
 62
7
  6
CONTINUOUS
 10
86.8257860159
 20
44.3072599085
 40
1.5
100
AcDbArc
 50
180.0
 51
270.0
  0
ARC
  5
4CB
100
AcDbEntity
  8
RUNDUNGEN
100
AcDbCircle
 62
7
  6
CONTINUOUS
 10
95.3257860159
 20
30.3072599085
 40
1.5
100
AcDbArc
 50
180.0
 51
270.0
  0
ARC
  5
4CC
100
AcDbEntity
  8
_30_VOLUMEN
100
AcDbCircle
 62
7
  6
CONTINUOUS
 10
92.3257860159
 20
50.8072599085
 40
5.5
100
AcDbArc
 50
27.6220054922
 51
74.1733798681
  0
ARC
  5
4CD
100
AcDbEntity
  8
BEZUGSACHSEN
100
AcDbCircle
 62
7
  6
CONTINUOUS
 10
82.3257860159
 20
61.8072599085
 40
3.0
100
AcDbArc
 50
289.4712206345
 51
340.5287793655
  0
ARC
  5
4CE
100
AcDbEntity
  8
BEZUGSACHSEN
100
AcDbCircle
 62
7
  6
CONTINUOUS
 10
90.8258043734
 20
56.8072599085
 40
2.9999877617
100
AcDbArc
 50
270.0
 51
354.9999551783
  0
ARC
  5
4CF
100
AcDbEntity
  8
BEZUGSACHSEN
100
AcDbCircle
 62
7
  6
CONTINUOUS
 10
86.568426703
 20
60.3072599085
 40
1.5
100
AcDbArc
 50
90.0
 51
160.5287793655
  0
ARC
  5
4D0
100
AcDbEntity
  8
BEZUGSACHSEN
100
AcDbCircle
 62
7
  6
CONTINUOUS
 10
86.8257860159
 20
52.3072599085
 40
1.5
100
AcDbArc
 50
90.0
 51
180.0
  0
ARC
  5
4D1
100
AcDbEntity
  8
BEZUGSACHSEN
100
AcDbCircle
 62
7
  6
CONTINUOUS
 10
95.3257860159
 20
66.3072599085
 40
1.5
100
AcDbArc
 50
90.0
 51
180.0
  0
ARC
  5
4D2
100
AcDbEntity
  8
_30_VOLUMEN
100
AcDbCircle
 62
7
  6
CONTINUOUS
 10
119.3257860159
 20
45.8072599085
 40
5.5
100
AcDbArc
 50
207.6220054922
 51
254.1733798681
  0
ARC
  5
4D3
100
AcDbEntity
  8
RUNDUNGEN
100
AcDbCircle
 62
7
  6
CONTINUOUS
 10
120.8257860159
 20
39.8072768862
 40
2.9999886815
100
AcDbArc
 50
90.0
 51
180.0003242498
  0
ARC
  5
4D4
100
AcDbEntity
  8
RUNDUNGEN
100
AcDbCircle
 62
7
  6
CONTINUOUS
 10
130.3257860159
 20
44.3072599085
 40
1.5
100
AcDbArc
 50
270.0
 51
360.0
  0
ARC
  5
4D5
100
AcDbEntity
  8
RUNDUNGEN
100
AcDbCircle
 62
7
  6
CONTINUOUS
 10
116.3257860159
 20
30.3072599085
 40
1.5
100
AcDbArc
 50
270.0
 51
360.0
  0
ARC
  5
4D6
100
AcDbEntity
  8
RUNDUNGEN
100
AcDbCircle
 62
7
  6
CONTINUOUS
 10
138.8257860159
 20
44.7573636776
 40
0.5
100
AcDbArc
 50
290.0
 51
360.0
  0
ARC
  5
4D7
100
AcDbEntity
  8
_30_VOLUMEN
100
AcDbCircle
 62
7
  6
CONTINUOUS
 10
119.3257860159
 20
50.8072599085
 40
5.5
100
AcDbArc
 50
105.8266201319
 51
152.3779945078
  0
ARC
  5
4D8
100
AcDbEntity
  8
BEZUGSACHSEN
100
AcDbCircle
 62
7
  6
CONTINUOUS
 10
120.8257860159
 20
56.8072429309
 40
2.9999886815
100
AcDbArc
 50
179.9996757502
 51
270.0
  0
ARC
  5
4D9
100
AcDbEntity
  8
BEZUGSACHSEN
100
AcDbCircle
 62
7
  6
CONTINUOUS
 10
130.3257860159
 20
52.3072599085
 40
1.5
100
AcDbArc
 50
0.0
 51
90.0
  0
ARC
  5
4DA
100
AcDbEntity
  8
BEZUGSACHSEN
100
AcDbCircle
 62
7
  6
CONTINUOUS
 10
116.3257860159
 20
66.3072599085
 40
1.5
100
AcDbArc
 50
0.0
 51
90.0
  0
ARC
  5
4DB
100
AcDbEntity
  8
RUNDUNGEN
100
AcDbCircle
 62
7
  6
CONTINUOUS
 10
138.8257860159
 20
51.8571561394
 40
0.5
100
AcDbArc
 50
0.0
 51
70.0
  0
SPLINE
  5
4DC
100
AcDbEntity
  8
_30_VOLUMEN
100
AcDbSpline
 62
7
  6
CONTINUOUS
 70
0
 71
3
 72
22
 73
18
 74
0
 42
0.0000001
 43
0.0000001
 44
0.0000000001
 40
0.0
 40
0.0
 40
0.0
 40
0.0
 40
0.1985182265
 40
0.3875238346
 40
0.5603685022
 40
0.7109560054
 40
0.7762139466
 40
0.8339885712
 40
0.8837703219
 40
0.9251140536
 40
0.9576593133
 40
0.9705368747
 40
0.981110989
 40
0.9893618444
 40
0.9952698169
 40
0.998817439
 40
1.0
 40
1.0
 40
1.0
 40
1.0
 10
184.6876175562
 20
175.4746498666
 30
0.0
 10
184.7019275334
 20
176.215894822
 30
0.0
 10
184.7315061753
 20
177.6628345573
 30
0.0
 10
184.7792102043
 20
179.7550361375
 30
0.0
 10
184.8273102576
 20
181.668175395
 30
0.0
 10
184.8670139526
 20
183.1192295201
 30
0.0
 10
184.8965614952
 20
184.1406596198
 30
0.0
 10
184.9158107832
 20
184.785762204
 30
0.0
 10
184.9328499158
 20
185.3415812347
 30
0.0
 10
184.94733258
 20
185.80321276
 30
0.0
 10
184.95766341
 20
186.1270855371
 30
0.0
 10
184.964441147
 20
186.3361002441
 30
0.0
 10
184.968230329
 20
186.4544368855
 30
0.0
 10
184.9713854347
 20
186.5467464842
 30
0.0
 10
184.9732317798
 20
186.6128564446
 30
0.0
 10
184.9750979112
 20
186.6525303645
 30
0.0
 10
184.9750944335
 20
186.6702211153
 30
0.0
 10
184.9754786367
 20
186.6746207457
 30
0.0
  0
SPLINE
  5
4DD
100
AcDbEntity
  8
_30_VOLUMEN
100
AcDbSpline
 62
7
  6
CONTINUOUS
 70
0
 71
3
 72
22
 73
18
 74
0
 42
0.0000001
 43
0.0000001
 44
0.0000000001
 40
0.0
 40
0.0
 40
0.0
 40
0.0
 40
0.001182561
 40
0.0047301831
 40
0.0106381556
 40
0.018889011
 40
0.0294631253
 40
0.0423406867
 40
0.0748859464
 40
0.1162296781
 40
0.1660114288
 40
0.2237860534
 40
0.2890439946
 40
0.4396314978
 40
0.6124761654
 40
0.8014817735
 40
1.0
 40
1.0
 40
1.0
 40
1.0
 10
199.9674805859
 20
186.6746207457
 30
0.0
 10
199.967864789
 20
186.6702211153
 30
0.0
 10
199.9678613113
 20
186.6525303645
 30
0.0
 10
199.9697274428
 20
186.6128564446
 30
0.0
 10
199.9715737879
 20
186.5467464842
 30
0.0
 10
199.9747288935
 20
186.4544368855
 30
0.0
 10
199.9785180756
 20
186.3361002441
 30
0.0
 10
199.9852958126
 20
186.1270855371
 30
0.0
 10
199.9956266425
 20
185.80321276
 30
0.0
 10
200.0101093068
 20
185.3415812347
 30
0.0
 10
200.0271484394
 20
184.785762204
 30
0.0
 10
200.0463977274
 20
184.1406596198
 30
0.0
 10
200.0759452699
 20
183.1192295201
 30
0.0
 10
200.115648965
 20
181.668175395
 30
0.0
 10
200.1637490183
 20
179.7550361375
 30
0.0
 10
200.2114530472
 20
177.6628345573
 30
0.0
 10
200.2410316892
 20
176.215894822
 30
0.0
 10
200.2553416664
 20
175.4746498666
 30
0.0
  0
SPLINE
  5
4DE
100
AcDbEntity
  8
_30_VOLUMEN
100
AcDbSpline
 62
7
  6
CONTINUOUS
 70
0
 71
3
 72
15
 73
11
 74
0
 42
0.0000001
 43
0.0000001
 44
0.0000000001
 40
0.0
 40
0.0
 40
0.0
 40
0.0
 40
0.1249536093
 40
0.249929401
 40
0.3749303395
 40
0.4999301455
 40
0.6249315131
 40
0.7499451348
 40
0.874969661
 40
1.0
 40
1.0
 40
1.0
 40
1.0
 10
187.4214796113
 20
167.2808462408
 30
0.0
 10
187.1710487464
 20
167.4368424962
 30
0.0
 10
186.6970874706
 20
167.7944912461
 30
0.0
 10
186.0898001471
 20
168.4441040623
 30
0.0
 10
185.5962685791
 20
169.1836908243
 30
0.0
 10
185.2198157607
 20
169.988472308
 30
0.0
 10
184.9545868418
 20
170.8356936998
 30
0.0
 10
184.7869072355
 20
171.7067711987
 30
0.0
 10
184.6980883465
 20
172.5887992106
 30
0.0
 10
184.6799769892
 20
173.1794255588
 30
0.0
 10
184.6799769892
 20
173.4746498666
 30
0.0
  0
SPLINE
  5
4DF
100
AcDbEntity
  8
_30_VOLUMEN
100
AcDbSpline
 62
7
  6
CONTINUOUS
 70
0
 71
3
 72
15
 73
11
 74
0
 42
0.0000001
 43
0.0000001
 44
0.0000000001
 40
0.0
 40
0.0
 40
0.0
 40
0.0
 40
0.1250313511
 40
0.2500569843
 40
0.3750718743
 40
0.5000751758
 40
0.6250758396
 40
0.7500743432
 40
0.8750473058
 40
1.0
 40
1.0
 40
1.0
 40
1.0
 10
200.2629822334
 20
173.4746498666
 30
0.0
 10
200.2629822334
 20
173.1794231635
 30
0.0
 10
200.2448705912
 20
172.5887917945
 30
0.0
 10
200.1560502887
 20
171.7067558576
 30
0.0
 10
199.9883671515
 20
170.8356685504
 30
0.0
 10
199.7231299911
 20
169.9884394867
 30
0.0
 10
199.3466714992
 20
169.183659881
 30
0.0
 10
198.8531441357
 20
168.4440828363
 30
0.0
 10
198.2458627283
 20
167.794484592
 30
0.0
 10
197.7719086469
 20
167.4368413567
 30
0.0
 10
197.5214796113
 20
167.2808462408
 30
0.0
  0
SPLINE
  5
4E0
100
AcDbEntity
  8
0
100
AcDbSpline
 62
7
  6
CONTINUOUS
 70
0
 71
3
 72
9
 73
5
 74
0
 42
0.0000001
 43
0.0000001
 44
0.0000000001
 40
0.0
 40
0.0
 40
0.0
 40
0.0
 40
0.7335244336
 40
1.0
 40
1.0
 40
1.0
 40
1.0
 10
130.9865866943
 20
34.308865137
 30
0.0
 10
131.0153114907
 20
34.3085932467
 30
0.0
 10
131.0257680319
 20
34.3091421078
 30
0.0
 10
131.1144808602
 20
34.3066926036
 30
0.0
 10
131.1040607222
 20
34.3072612625
 30
0.0
  0
SPLINE
  5
4E1
100
AcDbEntity
  8
0
100
AcDbSpline
 62
7
  6
CONTINUOUS
 70
0
 71
3
 72
9
 73
5
 74
0
 42
0.0000001
 43
0.0000001
 44
0.0000000001
 40
0.0
 40
0.0
 40
0.0
 40
0.0
 40
0.2664177542
 40
1.0
 40
1.0
 40
1.0
 40
1.0
 10
131.1040556762
 20
34.8072615102
 30
0.0
 10
131.1144682523
 20
34.8066089291
 30
0.0
 10
131.02577328
 20
34.8092983352
 30
0.0
 10
131.0153126287
 20
34.8086426232
 30
0.0
 10
130.9865866943
 20
34.8089245971
 30
0.0
  0
SPLINE
  5
4E2
100
AcDbEntity
  8
BEZUGSACHSEN
100
AcDbSpline
 62
7
  6
CONTINUOUS
 70
0
 71
3
 72
9
 73
5
 74
0
 42
0.0000001
 43
0.0000001
 44
0.0000000001
 40
0.0
 40
0.0
 40
0.0
 40
0.0
 40
0.2664177542
 40
1.0
 40
1.0
 40
1.0
 40
1.0
 10
131.1040556762
 20
61.8072583069
 30
0.0
 10
131.1144682523
 20
61.807910888
 30
0.0
 10
131.02577328
 20
61.8052214819
 30
0.0
 10
131.0153126287
 20
61.8058771939
 30
0.0
 10
130.9865866943
 20
61.80559522
 30
0.0
  0
SPLINE
  5
4E3
100
AcDbEntity
  8
BEZUGSACHSEN
100
AcDbSpline
 62
7
  6
CONTINUOUS
 70
0
 71
3
 72
16
 73
12
 74
0
 42
0.0000001
 43
0.0000001
 44
0.0000000001
 40
0.0
 40
0.0
 40
0.0
 40
0.0
 40
0.3813556054
 40
0.5537245824
 40
0.7047245743
 40
0.8287099321
 40
0.9211784849
 40
0.9543628311
 40
0.9785018676
 40
0.9935367443
 40
1.0
 40
1.0
 40
1.0
 40
1.0
 10
121.5757860159
 20
61.7815151961
 30
0.0
 10
121.543877277
 20
61.7815151961
 30
0.0
 10
121.4975399547
 20
61.7820432456
 30
0.0
 10
121.4386082354
 20
61.7838886352
 30
0.0
 10
121.4012000855
 20
61.7856146762
 30
0.0
 10
121.3705588316
 20
61.7875996032
 30
0.0
 10
121.3496615116
 20
61.7895046136
 30
0.0
 10
121.3373577231
 20
61.7911266676
 30
0.0
 10
121.3311890148
 20
61.7922663684
 30
0.0
 10
121.3278831469
 20
61.7931302611
 30
0.0
 10
121.3257860159
 20
61.794110347
 30
0.0
 10
121.3257860159
 20
61.7946511397
 30
0.0
  0
SPLINE
  5
4E4
100
AcDbEntity
  8
BEZUGSACHSEN
100
AcDbSpline
 62
7
  6
CONTINUOUS
 70
0
 71
3
 72
14
 73
10
 74
0
 42
0.0000001
 43
0.0000001
 44
0.0000000001
 40
0.0
 40
0.0
 40
0.0
 40
0.0
 40
0.024343685
 40
0.0822657883
 40
0.174597405
 40
0.2981155684
 40
0.4484928525
 40
0.6201578706
 40
1.0
 40
1.0
 40
1.0
 40
1.0
 10
127.3257860159
 20
61.7637226268
 30
0.0
 10
127.3257860159
 20
61.7657688988
 30
0.0
 10
127.3172956657
 20
61.7690785621
 30
0.0
 10
127.3046311113
 20
61.7716663031
 30
0.0
 10
127.2808655444
 20
61.7747048094
 30
0.0
 10
127.2505530406
 20
61.7770602733
 30
0.0
 10
127.2130118282
 20
61.7790500135
 30
0.0
 10
127.154101094
 20
61.7809978261
 30
0.0
 10
127.1077146368
 20
61.7815151961
 30
0.0
 10
127.0757860159
 20
61.7815151961
 30
0.0
  0
SPLINE
  5
4E5
100
AcDbEntity
  8
BEZUGSACHSEN
100
AcDbSpline
 62
7
  6
CONTINUOUS
 70
0
 71
3
 72
13
 73
9
 74
0
 42
0.0000001
 43
0.0000001
 44
0.0000000001
 40
0.0
 40
0.0
 40
0.0
 40
0.0
 40
0.3241561261
 40
0.6524501492
 40
0.7894865219
 40
0.8958143409
 40
0.9657085205
 40
1.0
 40
1.0
 40
1.0
 40
1.0
 10
127.7082857509
 20
61.6165859949
 30
0.0
 10
127.6663140823
 20
61.6121297528
 30
0.0
 10
127.5813509711
 20
61.608313765
 30
0.0
 10
127.4782488943
 20
61.612276229
 30
0.0
 10
127.4046678181
 20
61.620844236
 30
0.0
 10
127.3638786509
 20
61.6294048626
 30
0.0
 10
127.3392097333
 20
61.6367218036
 30
0.0
 10
127.3257860159
 20
61.6464020843
 30
0.0
 10
127.3257860159
 20
61.6508670934
 30
0.0
  0
SPLINE
  5
4E6
100
AcDbEntity
  8
0
100
AcDbSpline
 62
7
  6
CONTINUOUS
 70
0
 71
3
 72
13
 73
9
 74
0
 42
0.0000001
 43
0.0000001
 44
0.0000000001
 40
0.0
 40
0.0
 40
0.0
 40
0.0
 40
0.3241561261
 40
0.6524501492
 40
0.7894865219
 40
0.8958143409
 40
0.9657085205
 40
1.0
 40
1.0
 40
1.0
 40
1.0
 10
127.7082857509
 20
34.9979338222
 30
0.0
 10
127.6663140823
 20
35.0023900643
 30
0.0
 10
127.5813509711
 20
35.0062060521
 30
0.0
 10
127.4782488943
 20
35.0022435881
 30
0.0
 10
127.4046678181
 20
34.9936755811
 30
0.0
 10
127.3638786509
 20
34.9851149544
 30
0.0
 10
127.3392097333
 20
34.9777980135
 30
0.0
 10
127.3257860159
 20
34.9681177328
 30
0.0
 10
127.3257860159
 20
34.9636527236
 30
0.0
  0
SPLINE
  5
4E7
100
AcDbEntity
  8
0
100
AcDbSpline
 62
7
  6
CONTINUOUS
 70
0
 71
3
 72
14
 73
10
 74
0
 42
0.0000001
 43
0.0000001
 44
0.0000000001
 40
0.0
 40
0.0
 40
0.0
 40
0.0
 40
0.024343685
 40
0.0822657883
 40
0.174597405
 40
0.2981155684
 40
0.4484928525
 40
0.6201578706
 40
1.0
 40
1.0
 40
1.0
 40
1.0
 10
127.3257860159
 20
34.8507971902
 30
0.0
 10
127.3257860159
 20
34.8487509183
 30
0.0
 10
127.3172956657
 20
34.845441255
 30
0.0
 10
127.3046311113
 20
34.8428535139
 30
0.0
 10
127.2808655444
 20
34.8398150077
 30
0.0
 10
127.2505530406
 20
34.8374595438
 30
0.0
 10
127.2130118282
 20
34.8354698035
 30
0.0
 10
127.154101094
 20
34.8335219909
 30
0.0
 10
127.1077146368
 20
34.8330046209
 30
0.0
 10
127.0757860159
 20
34.8330046209
 30
0.0
  0
SPLINE
  5
4E8
100
AcDbEntity
  8
0
100
AcDbSpline
 62
7
  6
CONTINUOUS
 70
0
 71
3
 72
16
 73
12
 74
0
 42
0.0000001
 43
0.0000001
 44
0.0000000001
 40
0.0
 40
0.0
 40
0.0
 40
0.0
 40
0.3813556054
 40
0.5537245824
 40
0.7047245743
 40
0.8287099321
 40
0.9211784849
 40
0.9543628311
 40
0.9785018676
 40
0.9935367443
 40
1.0
 40
1.0
 40
1.0
 40
1.0
 10
121.5757860159
 20
34.8330046209
 30
0.0
 10
121.543877277
 20
34.8330046209
 30
0.0
 10
121.4975399547
 20
34.8324765715
 30
0.0
 10
121.4386082354
 20
34.8306311819
 30
0.0
 10
121.4012000855
 20
34.8289051409
 30
0.0
 10
121.3705588316
 20
34.8269202138
 30
0.0
 10
121.3496615116
 20
34.8250152035
 30
0.0
 10
121.3373577231
 20
34.8233931495
 30
0.0
 10
121.3311890148
 20
34.8222534487
 30
0.0
 10
121.3278831469
 20
34.821389556
 30
0.0
 10
121.3257860159
 20
34.8204094701
 30
0.0
 10
121.3257860159
 20
34.8198686774
 30
0.0
  0
SPLINE
  5
4E9
100
AcDbEntity
  8
_30_VOLUMEN
100
AcDbSpline
 62
7
  6
CONTINUOUS
 70
0
 71
3
 72
35
 73
31
 74
0
 42
0.0000001
 43
0.0000001
 44
0.0000000001
 40
0.0
 40
0.0
 40
0.0
 40
0.0
 40
0.0021691235
 40
0.0054231954
 40
0.0097610149
 40
0.0151768501
 40
0.0291977568
 40
0.0473643473
 40
0.0695233042
 40
0.0954765505
 40
0.1249983622
 40
0.1578284166
 40
0.2322325667
 40
0.3160687745
 40
0.4063844321
 40
0.4999996491
 40
0.5936148968
 40
0.6839306462
 40
0.7677669648
 40
0.8421712669
 40
0.875001386
 40
0.9045232619
 40
0.9304765464
 40
0.9526355474
 40
0.9708021672
 40
0.9848231135
 40
0.9902389593
 40
0.9945767906
 40
0.9978308724
 40
1.0
 40
1.0
 40
1.0
 40
1.0
 10
93.8524823782
 20
56.0911219636
 30
0.0
 10
93.8691264456
 20
56.0863128984
 30
0.0
 10
93.9117761758
 20
56.0781506553
 30
0.0
 10
93.9889495524
 20
56.0672929154
 30
0.0
 10
94.0922708316
 20
56.0561237463
 30
0.0
 10
94.2814062412
 20
56.0392622423
 30
0.0
 10
94.5810753272
 20
56.0187466473
 30
0.0
 10
95.0144898397
 20
55.994922982
 30
0.0
 10
95.5433237346
 20
55.9708742401
 30
0.0
 10
96.1629312944
 20
55.9469450123
 30
0.0
 10
96.8678448846
 20
55.9235824419
 30
0.0
 10
97.9596804851
 20
55.8924250594
 30
0.0
 10
99.4854053302
 20
55.8583779379
 30
0.0
 10
101.4704072165
 20
55.8274821374
 30
0.0
 10
103.6089995748
 20
55.8077585186
 30
0.0
 10
105.8257778527
 20
55.8009717507
 30
0.0
 10
108.0425568636
 20
55.8077584138
 30
0.0
 10
110.1811510855
 20
55.827481961
 30
0.0
 10
112.1661558048
 20
55.8583777166
 30
0.0
 10
113.6918832665
 20
55.8924248466
 30
0.0
 10
114.7837211109
 20
55.9235822571
 30
0.0
 10
115.4886360363
 20
55.9469448388
 30
0.0
 10
116.1082447658
 20
55.9708740985
 30
0.0
 10
116.6370795535
 20
55.9949228442
 30
0.0
 10
117.0704949679
 20
56.0187465383
 30
0.0
 10
117.3701646894
 20
56.0392621478
 30
0.0
 10
117.5593005911
 20
56.0561237028
 30
0.0
 10
117.6626221279
 20
56.0672928908
 30
0.0
 10
117.7397957099
 20
56.0781506455
 30
0.0
 10
117.7824455547
 20
56.0863128893
 30
0.0
 10
117.7990896536
 20
56.0911219636
 30
0.0
  0
SPLINE
  5
4EA
100
AcDbEntity
  8
_30_VOLUMEN
100
AcDbSpline
 62
7
  6
CONTINUOUS
 70
0
 71
3
 72
35
 73
31
 74
0
 42
0.0000001
 43
0.0000001
 44
0.0000000001
 40
0.0
 40
0.0
 40
0.0
 40
0.0
 40
0.0021691276
 40
0.0054232094
 40
0.0097610407
 40
0.0151768865
 40
0.0291978328
 40
0.0473644526
 40
0.0695234536
 40
0.0954767381
 40
0.124998614
 40
0.1578287331
 40
0.2322330352
 40
0.3160693538
 40
0.4063851032
 40
0.5000003509
 40
0.5936155679
 40
0.6839312255
 40
0.7677674333
 40
0.8421715834
 40
0.8750016378
 40
0.9045234495
 40
0.9304766958
 40
0.9526356527
 40
0.9708022432
 40
0.9848231499
 40
0.9902389851
 40
0.9945768046
 40
0.9978308765
 40
1.0
 40
1.0
 40
1.0
 40
1.0
 10
117.7990896536
 20
40.5233978534
 30
0.0
 10
117.7824455547
 20
40.5282069277
 30
0.0
 10
117.7397957099
 20
40.5363691716
 30
0.0
 10
117.6626221279
 20
40.5472269263
 30
0.0
 10
117.5593005911
 20
40.5583961143
 30
0.0
 10
117.3701646894
 20
40.5752576692
 30
0.0
 10
117.0704949679
 20
40.5957732788
 30
0.0
 10
116.6370795535
 20
40.6195969729
 30
0.0
 10
116.1082447658
 20
40.6436457186
 30
0.0
 10
115.4886360363
 20
40.6675749783
 30
0.0
 10
114.7837211109
 20
40.6909375599
 30
0.0
 10
113.6918832665
 20
40.7220949705
 30
0.0
 10
112.1661558048
 20
40.7561421005
 30
0.0
 10
110.1811510855
 20
40.787037856
 30
0.0
 10
108.0425568636
 20
40.8067614032
 30
0.0
 10
105.8257778527
 20
40.8135480664
 30
0.0
 10
103.6089995748
 20
40.8067612985
 30
0.0
 10
101.4704072165
 20
40.7870376796
 30
0.0
 10
99.4854053302
 20
40.7561418792
 30
0.0
 10
97.9596804851
 20
40.7220947577
 30
0.0
 10
96.8678448846
 20
40.6909373752
 30
0.0
 10
96.1629312944
 20
40.6675748048
 30
0.0
 10
95.5433237346
 20
40.643645577
 30
0.0
 10
95.0144898397
 20
40.6195968351
 30
0.0
 10
94.5810753272
 20
40.5957731697
 30
0.0
 10
94.2814062412
 20
40.5752575748
 30
0.0
 10
94.0922708316
 20
40.5583960708
 30
0.0
 10
93.9889495524
 20
40.5472269017
 30
0.0
 10
93.9117761758
 20
40.5363691618
 30
0.0
 10
93.8691264456
 20
40.5282069186
 30
0.0
 10
93.8524823782
 20
40.5233978534
 30
0.0
  0
SPLINE
  5
4EB
100
AcDbEntity
  8
BEZUGSACHSEN
100
AcDbSpline
 62
7
  6
CONTINUOUS
 70
0
 71
3
 72
13
 73
9
 74
0
 42
0.0000001
 43
0.0000001
 44
0.0000000001
 40
0.0
 40
0.0
 40
0.0
 40
0.0
 40
0.0336311327
 40
0.1033526237
 40
0.2097255482
 40
0.3468654896
 40
0.6755227978
 40
1.0
 40
1.0
 40
1.0
 40
1.0
 10
127.3257860159
 20
62.1565144988
 30
0.0
 10
127.3257860159
 20
62.1521413242
 30
0.0
 10
127.3394237538
 20
62.1428289815
 30
0.0
 10
127.3638927892
 20
62.1358335524
 30
0.0
 10
127.4047568154
 20
62.1275762278
 30
0.0
 10
127.4782988291
 20
62.1193333253
 30
0.0
 10
127.5813850437
 20
62.1155219234
 30
0.0
 10
127.6663118045
 20
62.119195099
 30
0.0
 10
127.7082857509
 20
62.1234880795
 30
0.0
  0
SPLINE
  5
4EC
100
AcDbEntity
  8
BEZUGSACHSEN
100
AcDbSpline
 62
7
  6
CONTINUOUS
 70
0
 71
3
 72
14
 73
10
 74
0
 42
0.0000001
 43
0.0000001
 44
0.0000000001
 40
0.0
 40
0.0
 40
0.0
 40
0.0
 40
0.3800301436
 40
0.5517774293
 40
0.7022243454
 40
0.8257973973
 40
0.9181484258
 40
0.9759861959
 40
1.0
 40
1.0
 40
1.0
 40
1.0
 10
127.0757860159
 20
62.2824363137
 30
0.0
 10
127.1077123845
 20
62.2824363137
 30
0.0
 10
127.1540963167
 20
62.2819380249
 30
0.0
 10
127.213001312
 20
62.2800591898
 30
0.0
 10
127.2505494877
 20
62.2781444241
 30
0.0
 10
127.2808426379
 20
62.2758633384
 30
0.0
 10
127.3046545396
 20
62.2729577586
 30
0.0
 10
127.317211246
 20
62.2704254767
 30
0.0
 10
127.3257860159
 20
62.2672996951
 30
0.0
 10
127.3257860159
 20
62.2652822931
 30
0.0
  0
SPLINE
  5
4ED
100
AcDbEntity
  8
BEZUGSACHSEN
100
AcDbSpline
 62
7
  6
CONTINUOUS
 70
0
 71
3
 72
16
 73
12
 74
0
 42
0.0000001
 43
0.0000001
 44
0.0000000001
 40
0.0
 40
0.0
 40
0.0
 40
0.0
 40
0.0063599524
 40
0.0213430138
 40
0.0454511737
 40
0.0786245968
 40
0.1711057657
 40
0.2951169283
 40
0.4461468587
 40
0.6185529619
 40
1.0
 40
1.0
 40
1.0
 40
1.0
 10
121.3257860159
 20
62.2951018515
 30
0.0
 10
121.3257860159
 20
62.2945698451
 30
0.0
 10
121.3279042943
 20
62.2936378944
 30
0.0
 10
121.3311805434
 20
62.2927991245
 30
0.0
 10
121.3373586847
 20
62.2917047097
 30
0.0
 10
121.3496568408
 20
62.2901386856
 30
0.0
 10
121.370561727
 20
62.2883034491
 30
0.0
 10
121.4012024772
 20
62.2863884516
 30
0.0
 10
121.4386118722
 20
62.2847245249
 30
0.0
 10
121.4975426322
 20
62.28294543
 30
0.0
 10
121.5438781834
 20
62.2824363137
 30
0.0
 10
121.5757860159
 20
62.2824363137
 30
0.0
  0
SPLINE
  5
4EE
100
AcDbEntity
  8
_30_VOLUMEN
100
AcDbSpline
 62
7
  6
CONTINUOUS
 70
0
 71
3
 72
19
 73
15
 74
0
 42
0.0000001
 43
0.0000001
 44
0.0000000001
 40
0.0
 40
0.0
 40
0.0
 40
0.0
 40
0.0475243973
 40
0.101190461
 40
0.160027968
 40
0.223039689
 40
0.358135541
 40
0.4999981874
 40
0.641863023
 40
0.7769597274
 40
0.8399718837
 40
0.8988096723
 40
0.9524756683
 40
1.0
 40
1.0
 40
1.0
 40
1.0
 10
117.8257860159
 20
52.2722085282
 30
0.0
 10
117.8257860159
 20
52.1443526897
 30
0.0
 10
117.8527360175
 20
51.8722753399
 30
0.0
 10
117.9376652946
 20
51.4500598834
 30
0.0
 10
118.0536022625
 20
50.9921940937
 30
0.0
 10
118.2324060553
 20
50.3245677093
 30
0.0
 10
118.4482777014
 20
49.4348678136
 30
0.0
 10
118.5608022828
 20
48.3072687726
 30
0.0
 10
118.4482831676
 20
47.1796663735
 30
0.0
 10
118.232407649
 20
46.289957698
 30
0.0
 10
118.0536025702
 20
45.6223273021
 30
0.0
 10
117.9376651402
 20
45.1644598221
 30
0.0
 10
117.8527359448
 20
44.7422439416
 30
0.0
 10
117.8257860159
 20
44.470166951
 30
0.0
 10
117.8257860159
 20
44.3423112888
 30
0.0
  0
SPLINE
  5
4EF
100
AcDbEntity
  8
BEZUGSACHSEN
100
AcDbSpline
 62
7
  6
CONTINUOUS
 70
0
 71
3
 72
9
 73
5
 74
0
 42
0.0000001
 43
0.0000001
 44
0.0000000001
 40
0.0
 40
0.0
 40
0.0
 40
0.0
 40
0.7335244336
 40
1.0
 40
1.0
 40
1.0
 40
1.0
 10
130.9865866943
 20
62.3056546801
 30
0.0
 10
131.0153114907
 20
62.3059265704
 30
0.0
 10
131.0257680319
 20
62.3053777092
 30
0.0
 10
131.1144808602
 20
62.3078272135
 30
0.0
 10
131.1040607222
 20
62.3072585545
 30
0.0
  0
SPLINE
  5
4F0
100
AcDbEntity
  8
_30_VOLUMEN
100
AcDbSpline
 62
7
  6
CONTINUOUS
 70
0
 71
3
 72
19
 73
15
 74
0
 42
0.0000001
 43
0.0000001
 44
0.0000000001
 40
0.0
 40
0.0
 40
0.0
 40
0.0
 40
0.047524344
 40
0.1011903717
 40
0.1600281845
 40
0.2230403647
 40
0.3581370742
 40
0.5000016015
 40
0.6418643268
 40
0.7769602192
 40
0.8399719641
 40
0.898809495
 40
0.9524755903
 40
1.0
 40
1.0
 40
1.0
 40
1.0
 10
93.8257860159
 20
44.3423112888
 30
0.0
 10
93.8257860159
 20
44.4701669837
 30
0.0
 10
93.7988360494
 20
44.74224409
 30
0.0
 10
93.7139068288
 20
45.1644601495
 30
0.0
 10
93.5979694021
 20
45.6223278515
 30
0.0
 10
93.4191639287
 20
46.289958294
 30
0.0
 10
93.2032894932
 20
47.1796664377
 30
0.0
 10
93.0907696476
 20
48.3072680888
 30
0.0
 10
93.2032940599
 20
49.4348666904
 30
0.0
 10
93.4191657281
 20
50.3245669655
 30
0.0
 10
93.597969672
 20
50.9921935552
 30
0.0
 10
93.7139066578
 20
51.4500595595
 30
0.0
 10
93.7988359874
 20
51.8722751897
 30
0.0
 10
93.8257860159
 20
52.1443526565
 30
0.0
 10
93.8257860159
 20
52.2722085282
 30
0.0
  0
SPLINE
  5
4F1
100
AcDbEntity
  8
0
100
AcDbSpline
 62
7
  6
CONTINUOUS
 70
0
 71
3
 72
13
 73
9
 74
0
 42
0.0000001
 43
0.0000001
 44
0.0000000001
 40
0.0
 40
0.0
 40
0.0
 40
0.0
 40
0.0336311327
 40
0.1033526237
 40
0.2097255482
 40
0.3468654896
 40
0.6755227978
 40
1.0
 40
1.0
 40
1.0
 40
1.0
 10
127.3257860159
 20
34.4580053183
 30
0.0
 10
127.3257860159
 20
34.4623784928
 30
0.0
 10
127.3394237538
 20
34.4716908356
 30
0.0
 10
127.3638927892
 20
34.4786862647
 30
0.0
 10
127.4047568154
 20
34.4869435893
 30
0.0
 10
127.4782988291
 20
34.4951864918
 30
0.0
 10
127.5813850437
 20
34.4989978937
 30
0.0
 10
127.6663118045
 20
34.495324718
 30
0.0
 10
127.7082857509
 20
34.4910317376
 30
0.0
  0
SPLINE
  5
4F2
100
AcDbEntity
  8
0
100
AcDbSpline
 62
7
  6
CONTINUOUS
 70
0
 71
3
 72
14
 73
10
 74
0
 42
0.0000001
 43
0.0000001
 44
0.0000000001
 40
0.0
 40
0.0
 40
0.0
 40
0.0
 40
0.3800301436
 40
0.5517774293
 40
0.7022243454
 40
0.8257973973
 40
0.9181484258
 40
0.9759861959
 40
1.0
 40
1.0
 40
1.0
 40
1.0
 10
127.0757860159
 20
34.3320835034
 30
0.0
 10
127.1077123845
 20
34.3320835034
 30
0.0
 10
127.1540963167
 20
34.3325817922
 30
0.0
 10
127.213001312
 20
34.3344606273
 30
0.0
 10
127.2505494877
 20
34.336375393
 30
0.0
 10
127.2808426379
 20
34.3386564786
 30
0.0
 10
127.3046545396
 20
34.3415620585
 30
0.0
 10
127.317211246
 20
34.3440943404
 30
0.0
 10
127.3257860159
 20
34.347220122
 30
0.0
 10
127.3257860159
 20
34.3492375239
 30
0.0
  0
SPLINE
  5
4F3
100
AcDbEntity
  8
0
100
AcDbSpline
 62
7
  6
CONTINUOUS
 70
0
 71
3
 72
16
 73
12
 74
0
 42
0.0000001
 43
0.0000001
 44
0.0000000001
 40
0.0
 40
0.0
 40
0.0
 40
0.0
 40
0.0063599524
 40
0.0213430138
 40
0.0454511737
 40
0.0786245968
 40
0.1711057657
 40
0.2951169283
 40
0.4461468587
 40
0.6185529619
 40
1.0
 40
1.0
 40
1.0
 40
1.0
 10
121.3257860159
 20
34.3194179655
 30
0.0
 10
121.3257860159
 20
34.319949972
 30
0.0
 10
121.3279042943
 20
34.3208819227
 30
0.0
 10
121.3311805434
 20
34.3217206926
 30
0.0
 10
121.3373586847
 20
34.3228151073
 30
0.0
 10
121.3496568408
 20
34.3243811315
 30
0.0
 10
121.370561727
 20
34.3262163679
 30
0.0
 10
121.4012024772
 20
34.3281313654
 30
0.0
 10
121.4386118722
 20
34.3297952922
 30
0.0
 10
121.4975426322
 20
34.3315743871
 30
0.0
 10
121.5438781834
 20
34.3320835034
 30
0.0
 10
121.5757860159
 20
34.3320835034
 30
0.0
  0
ELLIPSE
  5
4F4
100
AcDbEntity
  8
BEZUGSACHSEN
100
AcDbEllipse
 62
7
  6
CONTINUOUS
 10
131.3257860159
 20
48.3072599085
 30
0.0
 11
21.6
 21
-0.0
 31
0.0
 40
0.625
 41
1.5865006446
 42
1.7390661534
  0
ELLIPSE
  5
4F5
100
AcDbEntity
  8
0
100
AcDbEllipse
 62
7
  6
CONTINUOUS
 10
131.3257860159
 20
48.3072599085
 30
0.0
 11
21.6
 21
0.0
 31
0.0
 40
0.625
 41
-1.7390661534
 42
-1.5865006446
  0
ELLIPSE
  5
4F6
100
AcDbEntity
  8
BEZUGSACHSEN
100
AcDbEllipse
 62
7
  6
CONTINUOUS
 10
131.3257860159
 20
48.3072599085
 30
0.0
 11
22.4
 21
0.0
 31
0.0
 40
0.625
 41
1.5859397324
 42
1.7330022325
  0
ELLIPSE
  5
4F7
100
AcDbEntity
  8
0
100
AcDbEllipse
 62
7
  6
CONTINUOUS
 10
131.3257860159
 20
48.3072599085
 30
0.0
 11
22.4
 21
-0.0
 31
0.0
 40
0.625
 41
-1.7330022325
 42
-1.5859397324
  0
ENDSEC
  0
SECTION
  2
OBJECTS
  0
DICTIONARY
  5
C
100
AcDbDictionary
280
0
281
1
  3
ACAD_GROUP
350
D
  3
ACAD_MLINESTYLE
350
17
  3
ACAD_LAYOUT
350
1A
  3
ACAD_PLOTSETTINGS
350
19
  3
ACAD_PLOTSTYLENAME
350
E
  0
DICTIONARY
  5
D
102
{ACAD_REACTORS
330
C
102
}
100
AcDbDictionary
280
0
281
1
  0
ACDBDICTIONARYWDFLT
  5
E
102
{ACAD_REACTORS
330
C
102
}
100
AcDbDictionary
281
1
  3
Normal
350
F
100
AcDbDictionaryWithDefault
340
F
  0
DICTIONARY
  5
17
102
{ACAD_REACTORS
330
C
102
}
100
AcDbDictionary
280
0
281
1
  3
Standard
350
18
  0
DICTIONARY
  5
19
102
{ACAD_REACTORS
330
C
102
}
100
AcDbDictionary
281
1
  0
DICTIONARY
  5
1A
102
{ACAD_REACTORS
330
C
102
}
100
AcDbDictionary
281
1
  3
Model
350
4F8
  3
Layout1
350
4F9
  0
ACDBPLACEHOLDER
  5
F
102
{ACAD_REACTORS
330
E
102
}
  0
MLINESTYLE
  5
18
102
{ACAD_REACTORS
330
17
102
}
100
AcDbMlineStyle
  2
STANDARD
 70
0
  3

 62
256
 51
90.0
 52
90.0
 71
2
 49
0.5
 62
256
  6
BYLAYER
 49
-0.5
 62
256
  6
BYLAYER
  0
LAYOUT
  5
4F8
102
{ACAD_REACTORS
330
1A
102
}
100
AcDbPlotSettings
  1

  2
none_device
  4
ISO_A4_(297.00_x_210.00_MM)
  6

 40
0.0
 41
0.0
 42
0.0
 43
0.0
 44
297.0
 45
210.0
 46
0.0
 47
0.0
 48
0.0
 49
0.0
140
0.0
141
0.0
142
1.0
143
1.0
 70
1024
 72
1
 73
0
 74
0
  7

 75
0
147
1.0
148
0.0
149
0.0
100
AcDbLayout
  1
Model
 70
0
 71
0
 10
0.0
 20
0.0
 11
297.0
 21
210.0
 12
0.0
 22
0.0
 32
0.0
 14
0.0
 24
0.0
 34
0.0
 15
0.0
 25
0.0
 35
0.0
146
0.0
 13
0.0
 23
0.0
 33
0.0
 16
1.0
 26
0.0
 36
0.0
 17
0.0
 27
1.0
 37
0.0
 76
0
330
212
345
0
346
0
  0
LAYOUT
  5
4F9
102
{ACAD_REACTORS
330
1A
102
}
100
AcDbPlotSettings
  1

  2
none_device
  4
ISO_A4_(297.00_x_210.00_MM)
  6

 40
0.0
 41
0.0
 42
0.0
 43
0.0
 44
297.0
 45
210.0
 46
0.0
 47
0.0
 48
0.0
 49
0.0
140
0.0
141
0.0
142
1.0
143
1.0
 70
0
 72
1
 73
0
 74
0
  7

 75
0
147
1.0
148
0.0
149
0.0
100
AcDbLayout
  1
Layout1
 70
0
 71
1
 10
0.0
 20
0.0
 11
297.0
 21
210.0
 12
0.0
 22
0.0
 32
0.0
 14
0.0
 24
0.0
 34
0.0
 15
0.0
 25
0.0
 35
0.0
146
0.0
 13
0.0
 23
0.0
 33
0.0
 16
1.0
 26
0.0
 36
0.0
 17
0.0
 27
1.0
 37
0.0
 76
0
330
213
345
0
346
0
  0
ENDSEC
  0
EOF
