999
DXF file: ICE-CCS-6_7912243_m36165-p-01.dxf
999
Pro/ENGINEER 2022162 by Parametric Technology Corporation
  0
SECTION
  2
HEADER
  9
$ACADVER
  1
AC1021
  9
$DWGCODEPAGE
  3
ANSI_1252
  9
$EXTMAX
 10
297.0
 20
210.0
 30
0.0
  9
$EXTMIN
 10
0.0
 20
0.0
 30
0.0
  9
$LIMMIN
 10
0.0
 20
0.0
  9
$LIMMAX
 10
297.0
 20
210.0
  9
$VIEWCTR
 10
148.5
 20
105.0
  9
$VIEWSIZE
 40
210.0
  9
$CLAYER
  8
0
  9
$LTSCALE
 40
16.335
  9
$CELTYPE
  6
BYLAYER
  9
$DIMSCALE
 40
1.0
  9
$DIMASZ
 40
3.5
  9
$DIMEXO
 40
0.0
  9
$DIMDLI
 40
11.286
  9
$DIMEXE
 40
1.5
  9
$DIMCEN
 40
2.673
  9
$DIMLFAC
 40
1.0
  9
$DIMBLK
  1
_FILLED
  9
$DIMALT
 70
0
  9
$DIMALTF
 40
0.0393700787
  9
$DIMTXT
 40
3.5
  9
$DIMTOL
 70
1
  9
$DIMLIM
 70
0
  9
$DIMTFAC
 40
1.0
  9
$DIMTP
 40
0.01
  9
$DIMTM
 40
0.01
  9
$DIMGAP
 40
0.625
  9
$DIMDSEP
 70
46
  9
$AUNITS
 70
0
  9
$PDMODE
 70
3
  9
$PDSIZE
 40
0.3125
  9
$HANDSEED
  5
4F8
  9
$TILEMODE
 70
1
  9
$MEASUREMENT
 70
1
  9
$INSUNITS
 70
4
  0
ENDSEC
  0
SECTION
  2
CLASSES
  0
CLASS
  1
ACDBDICTIONARYWDFLT
  2
AcDbDictionaryWithDefault
  3
AutoCAD 2000
 90
0
 91
1
280
0
281
0
  0
CLASS
  1
ACDBPLACEHOLDER
  2
AcDbPlaceHolder
  3
AutoCAD 2000
 90
0
 91
1
280
0
281
0
  0
CLASS
  1
LAYOUT
  2
AcDbLayout
  3
AutoCAD 2000
 90
0
 91
0
280
0
281
0
  0
ENDSEC
  0
SECTION
  2
TABLES
  0
TABLE
  2
VPORT
  5
8
100
AcDbSymbolTable
 70
2
  0
VPORT
  5
1F4
100
AcDbSymbolTableRecord
100
AcDbViewportTableRecord
  2
*ACTIVE
 70
0
 10
0.0
 20
0.0
 11
1.0
 21
1.0
 12
148.5
 22
105.0
 13
0.0
 23
0.0
 14
1.0
 24
1.0
 15
0.0
 25
0.0
 16
0.0
 26
0.0
 36
1.0
 17
0.0
 27
0.0
 37
0.0
 40
210.0
 41
1.4142857143
 42
50.0
 43
0.0
 44
0.0
 50
0.0
 51
0.0
 71
0
 72
100
 73
1
 74
1
 75
0
 76
0
 77
0
 78
0
  0
ENDTAB
  0
TABLE
  2
LTYPE
  5
5
100
AcDbSymbolTable
 70
6
  0
LTYPE
  5
14
100
AcDbSymbolTableRecord
100
AcDbLinetypeTableRecord
  2
BYBLOCK
 70
0
  3

 72
65
 73
0
 40
0.0
  0
LTYPE
  5
15
100
AcDbSymbolTableRecord
100
AcDbLinetypeTableRecord
  2
BYLAYER
 70
0
  3

 72
65
 73
0
 40
0.0
  0
LTYPE
  5
16
100
AcDbSymbolTableRecord
100
AcDbLinetypeTableRecord
  2
CONTINUOUS
 70
64
  3
Solid line
 72
65
 73
0
 40
0.0
  0
LTYPE
  5
1F5
100
AcDbSymbolTableRecord
100
AcDbLinetypeTableRecord
  2
CENTER
 70
64
  3
____ _ ____ _ ____ _ ____ _ ____ _ ____ _ ____
 72
65
 73
4
 40
0.6
 49
0.375
 74
0
 49
-0.075
 74
0
 49
0.075
 74
0
 49
-0.075
 74
0
  0
LTYPE
  5
1F6
100
AcDbSymbolTableRecord
100
AcDbLinetypeTableRecord
  2
HIDDEN
 70
64
  3
- - - - - - - - - - - - - - - - - - - -
 72
65
 73
2
 40
0.2
 49
0.1
 74
0
 49
-0.1
 74
0
  0
LTYPE
  5
1F7
100
AcDbSymbolTableRecord
100
AcDbLinetypeTableRecord
  2
PHANTOM
 70
64
  3
_____ _ _ _____ _ _ _____ _ _ _____
 72
65
 73
6
 40
0.8
 49
0.45
 74
0
 49
-0.05
 74
0
 49
0.1
 74
0
 49
-0.05
 74
0
 49
0.1
 74
0
 49
-0.05
 74
0
  0
LTYPE
  5
1F8
100
AcDbSymbolTableRecord
100
AcDbLinetypeTableRecord
  2
DOT
 70
64
  3
. . . . . . . . . . . . . . . . . . . .
 72
65
 73
2
 40
0.2
 49
0.1
 74
0
 49
-0.1
 74
0
  0
LTYPE
  5
1F9
100
AcDbSymbolTableRecord
100
AcDbLinetypeTableRecord
  2
DASHED
 70
64
  3
- - - - - - - - - - - - - - - - - - - -
 72
65
 73
2
 40
0.2
 49
0.1
 74
0
 49
-0.1
 74
0
  0
ENDTAB
  0
TABLE
  2
LAYER
  5
2
100
AcDbSymbolTable
 70
36
  0
LAYER
  5
10
100
AcDbSymbolTableRecord
100
AcDbLayerTableRecord
  2
0
 70
0
 62
7
  6
CONTINUOUS
370
-3
390
F
  0
LAYER
  5
1FA
100
AcDbSymbolTableRecord
100
AcDbLayerTableRecord
  2
DEFAULT_1
 70
0
 62
7
  6
CENTER
370
-3
390
F
  0
LAYER
  5
1FB
100
AcDbSymbolTableRecord
100
AcDbLayerTableRecord
  2
DEFAULT_2
 70
0
 62
8
  6
HIDDEN
370
-3
390
F
  0
LAYER
  5
1FC
100
AcDbSymbolTableRecord
100
AcDbLayerTableRecord
  2
DEFAULT_3
 70
0
 62
7
  6
PHANTOM
370
-3
390
F
  0
LAYER
  5
1FD
100
AcDbSymbolTableRecord
100
AcDbLayerTableRecord
  2
AUSFORMSCHRAEGEN
 70
0
 62
7
  6
CONTINUOUS
370
-3
390
F
  0
LAYER
  5
1FE
100
AcDbSymbolTableRecord
100
AcDbLayerTableRecord
  2
BEZUGSACHSEN
 70
0
 62
7
  6
CONTINUOUS
370
-3
390
F
  0
LAYER
  5
1FF
100
AcDbSymbolTableRecord
100
AcDbLayerTableRecord
  2
BEZUGSEBENEN
 70
0
 62
7
  6
CONTINUOUS
370
-3
390
F
  0
LAYER
  5
200
100
AcDbSymbolTableRecord
100
AcDbLayerTableRecord
  2
BOHRUNGEN
 70
0
 62
7
  6
CONTINUOUS
370
-3
390
F
  0
LAYER
  5
201
100
AcDbSymbolTableRecord
100
AcDbLayerTableRecord
  2
FASEN
 70
0
 62
7
  6
CONTINUOUS
370
-3
390
F
  0
LAYER
  5
202
100
AcDbSymbolTableRecord
100
AcDbLayerTableRecord
  2
FLAECHEN
 70
0
 62
7
  6
CONTINUOUS
370
-3
390
F
  0
LAYER
  5
203
100
AcDbSymbolTableRecord
100
AcDbLayerTableRecord
  2
GEWINDE
 70
0
 62
7
  6
CONTINUOUS
370
-3
390
F
  0
LAYER
  5
204
100
AcDbSymbolTableRecord
100
AcDbLayerTableRecord
  2
HILFEN
 70
0
 62
7
  6
CONTINUOUS
370
-3
390
F
  0
LAYER
  5
205
100
AcDbSymbolTableRecord
100
AcDbLayerTableRecord
  2
KONSTRUKTIONSELEMENTE
 70
0
 62
7
  6
CONTINUOUS
370
-3
390
F
  0
LAYER
  5
206
100
AcDbSymbolTableRecord
100
AcDbLayerTableRecord
  2
KURVEN
 70
0
 62
7
  6
CONTINUOUS
370
-3
390
F
  0
LAYER
  5
207
100
AcDbSymbolTableRecord
100
AcDbLayerTableRecord
  2
PLATZIERUNG
 70
0
 62
7
  6
CONTINUOUS
370
-3
390
F
  0
LAYER
  5
208
100
AcDbSymbolTableRecord
100
AcDbLayerTableRecord
  2
PLAZIERUNG
 70
0
 62
7
  6
CONTINUOUS
370
-3
390
F
  0
LAYER
  5
209
100
AcDbSymbolTableRecord
100
AcDbLayerTableRecord
  2
RUNDUNGEN
 70
0
 62
7
  6
CONTINUOUS
370
-3
390
F
  0
LAYER
  5
20A
100
AcDbSymbolTableRecord
100
AcDbLayerTableRecord
  2
TEIL_STARTBEZUEGE
 70
0
 62
7
  6
CONTINUOUS
370
-3
390
F
  0
LAYER
  5
20B
100
AcDbSymbolTableRecord
100
AcDbLayerTableRecord
  2
T_STARTBEZUEGE
 70
0
 62
7
  6
CONTINUOUS
370
-3
390
F
  0
LAYER
  5
20C
100
AcDbSymbolTableRecord
100
AcDbLayerTableRecord
  2
_00_ASM_START_FEATURES
 70
0
 62
7
  6
CONTINUOUS
370
-3
390
F
  0
LAYER
  5
20D
100
AcDbSymbolTableRecord
100
AcDbLayerTableRecord
  2
_00_HILFEN
 70
0
 62
7
  6
CONTINUOUS
370
-3
390
F
  0
LAYER
  5
20E
100
AcDbSymbolTableRecord
100
AcDbLayerTableRecord
  2
_00_PLATZIERUNG
 70
0
 62
7
  6
CONTINUOUS
370
-3
390
F
  0
LAYER
  5
20F
100
AcDbSymbolTableRecord
100
AcDbLayerTableRecord
  2
_03_2D_ZEICHNUNG_BEMASSUNGEN
 70
0
 62
7
  6
CONTINUOUS
370
-3
390
F
  0
LAYER
  5
210
100
AcDbSymbolTableRecord
100
AcDbLayerTableRecord
  2
_04_NOTIZEN
 70
0
 62
7
  6
CONTINUOUS
370
-3
390
F
  0
LAYER
  5
211
100
AcDbSymbolTableRecord
100
AcDbLayerTableRecord
  2
_21_KURVEN
 70
0
 62
7
  6
CONTINUOUS
370
-3
390
F
  0
LAYER
  5
212
100
AcDbSymbolTableRecord
100
AcDbLayerTableRecord
  2
_26_BEZUGSACHSEN
 70
0
 62
7
  6
CONTINUOUS
370
-3
390
F
  0
LAYER
  5
213
100
AcDbSymbolTableRecord
100
AcDbLayerTableRecord
  2
_27_BEZUGSEBENEN
 70
0
 62
7
  6
CONTINUOUS
370
-3
390
F
  0
LAYER
  5
214
100
AcDbSymbolTableRecord
100
AcDbLayerTableRecord
  2
_29_KOORDINATENSYSTEME
 70
0
 62
7
  6
CONTINUOUS
370
-3
390
F
  0
LAYER
  5
215
100
AcDbSymbolTableRecord
100
AcDbLayerTableRecord
  2
_30_VOLUMEN
 70
0
 62
7
  6
CONTINUOUS
370
-3
390
F
  0
ENDTAB
  0
TABLE
  2
STYLE
  5
3
100
AcDbSymbolTable
 70
1
  0
STYLE
  5
11
100
AcDbSymbolTableRecord
100
AcDbTextStyleTableRecord
  2
STANDARD
 70
0
 40
0.0
 41
1.0
 50
0.0
 71
0
 42
0.2
  3
isonormlt-regular.ttf
  4

1001
ACAD
1000
Isonorm LT Regular
1071
34
  0
STYLE
  5
216
100
AcDbSymbolTableRecord
100
AcDbTextStyleTableRecord
  2
TEXTSTYLE_1
 70
0
 40
0.0
 41
0.8
 50
0.0
 71
0
 42
0.2
  3
gdt
  4

  0
ENDTAB
  0
TABLE
  2
VIEW
  5
6
100
AcDbSymbolTable
 70
0
  0
ENDTAB
  0
TABLE
  2
UCS
  5
7
100
AcDbSymbolTable
 70
0
  0
ENDTAB
  0
TABLE
  2
APPID
  5
9
100
AcDbSymbolTable
 70
1
  0
APPID
  5
217
100
AcDbSymbolTableRecord
100
AcDbRegAppTableRecord
  2
ACAD
 70
0
  0
ENDTAB
  0
TABLE
  2
BLOCK_RECORD
  5
1
100
AcDbSymbolTable
 70
0
  0
BLOCK_RECORD
  5
218
100
AcDbSymbolTableRecord
100
AcDbBlockTableRecord
  2
*Model_Space
  0
BLOCK_RECORD
  5
219
100
AcDbSymbolTableRecord
100
AcDbBlockTableRecord
  2
*Paper_Space
  0
BLOCK_RECORD
  5
21A
100
AcDbSymbolTableRecord
100
AcDbBlockTableRecord
  2
_FILLED
  0
ENDTAB
  0
TABLE
  2
DIMSTYLE
  5
A
100
AcDbSymbolTable
 70
1
100
AcDbDimStyleTable
 71
0
  0
DIMSTYLE
105
21B
100
AcDbSymbolTableRecord
100
AcDbDimStyleTableRecord
  2
STANDARD
 70
0
  3

  4

 40
1.0
 41
3.5
 42
0.0
 43
0.38
 44
1.5
 45
0.0
 46
0.0
 47
0.01
 48
0.01
140
3.5
141
0.09
142
0.0
143
25.4
144
1.0
145
0.0
146
1.0
147
0.625
 71
1
 72
0
 73
0
 74
0
 75
0
 76
0
 77
1
 78
8
 79
2
170
0
171
1
172
0
173
0
174
0
175
0
176
0
177
0
178
5
270
2
179
2
271
2
272
2
273
2
274
2
275
0
280
0
281
0
282
0
283
1
284
8
285
0
286
0
287
3
288
0
340
11
278
46
341
21A
342
21A
343
21A
344
21A
  0
ENDTAB
  0
ENDSEC
  0
SECTION
  2
BLOCKS
  0
BLOCK
  5
20
100
AcDbEntity
  8
0
100
AcDbBlockBegin
  2
*Model_Space
 70
0
 10
0.0
 20
0.0
 30
0.0
  3
*Model_Space
  1

  0
ENDBLK
  5
21
100
AcDbEntity
  8
0
100
AcDbBlockEnd
  0
BLOCK
  5
1C
100
AcDbEntity
  8
0
100
AcDbBlockBegin
  2
*Paper_Space
 70
0
 10
0.0
 20
0.0
 30
0.0
  3
*Paper_Space
  1

  0
ENDBLK
  5
1D
100
AcDbEntity
  8
0
100
AcDbBlockEnd
  0
BLOCK
  5
21C
100
AcDbEntity
  8
0
100
AcDbBlockBegin
  2
_FILLED
 70
64
 10
0.0
 20
0.0
  3
_FILLED
  1

  0
SOLID
  5
21D
100
AcDbEntity
  8
0
  6
BYBLOCK
 62
0
100
AcDbTrace
 10
0.0
 20
0.0
 11
-1.0
 21
0.125
 12
-1.0
 22
-0.125
 13
-1.0
 23
-0.125
  0
ENDBLK
  5
21E
100
AcDbEntity
  8
0
  6
BYBLOCK
 62
0
100
AcDbBlockEnd
  0
ENDSEC
  0
SECTION
  2
ENTITIES
  0
MTEXT
  5
21F
100
AcDbEntity
  8
_04_NOTIZEN
100
AcDbMText
 62
5
  6
CONTINUOUS
  7
STANDARD
 71
1
 72
1
 10
101.1533070169
 20
118.979892967
 30
0.0
 11
1.0
 21
0.0
 31
0.0
 73
2
 44
0.9
  1
ICE
 40
3.5
 41
5.866
  0
MTEXT
  5
220
100
AcDbEntity
  8
_04_NOTIZEN
100
AcDbMText
 62
5
  6
CONTINUOUS
  7
STANDARD
 71
1
 72
1
 10
74.5158293218
 20
114.8191320042
 30
0.0
 11
0.0
 21
1.0
 31
0.0
 73
2
 44
0.9
  1
RUD
 40
3.5
 41
8.736
  0
MTEXT
  5
221
100
AcDbEntity
  8
_04_NOTIZEN
100
AcDbMText
 62
5
  6
CONTINUOUS
  7
STANDARD
 71
1
 72
1
 10
176.1000963648
 20
122.9545541588
 30
0.0
 11
0.0
 21
1.0
 31
0.0
 73
2
 44
0.9
  1
ICE CCS
 40
3.0
 41
11.748
  0
MTEXT
  5
222
100
AcDbEntity
  8
_04_NOTIZEN
100
AcDbMText
 62
5
  6
CONTINUOUS
  7
STANDARD
 71
1
 72
1
 10
75.308184454
 20
53.8079521389
 30
0.0
 11
1.0
 21
0.0
 31
0.0
 73
2
 44
0.9
  1
RUD ICE CCS 6
 40
3.5
 41
26.81
  0
LINE
  5
223
100
AcDbEntity
  8
0
100
AcDbLine
 62
7
  6
CONTINUOUS
 10
0.0
 20
0.0
 11
0.0
 21
210.0
  0
LINE
  5
224
100
AcDbEntity
  8
0
100
AcDbLine
 62
7
  6
CONTINUOUS
 10
0.0
 20
0.0
 11
297.0
 21
0.0
  0
LINE
  5
225
100
AcDbEntity
  8
0
100
AcDbLine
 62
7
  6
CONTINUOUS
 10
0.0
 20
210.0
 11
297.0
 21
210.0
  0
LINE
  5
226
100
AcDbEntity
  8
0
100
AcDbLine
 62
7
  6
CONTINUOUS
 10
297.0
 20
0.0
 11
297.0
 21
210.0
  0
LINE
  5
227
100
AcDbEntity
  8
_30_VOLUMEN
100
AcDbLine
 62
7
  6
CONTINUOUS
 10
63.7139242843
 20
102.6014336652
 11
64.2139242839
 21
102.1014336657
  0
LINE
  5
228
100
AcDbEntity
  8
BEZUGSACHSEN
100
AcDbLine
 62
7
  6
CONTINUOUS
 10
73.5423514161
 20
99.6014336582
 11
78.7139242914
 21
99.6014336582
  0
LINE
  5
229
100
AcDbEntity
  8
BEZUGSACHSEN
100
AcDbLine
 62
7
  6
CONTINUOUS
 10
98.7139242914
 20
99.6014336582
 11
110.1139242914
 21
99.6014336582
  0
LINE
  5
22A
100
AcDbEntity
  8
_30_VOLUMEN
100
AcDbLine
 62
7
  6
CONTINUOUS
 10
70.7139242914
 20
102.1014336582
 11
64.2139242914
 21
102.1014336582
  0
LINE
  5
22B
100
AcDbEntity
  8
_30_VOLUMEN
100
AcDbLine
 62
7
  6
CONTINUOUS
 10
110.1139242914
 20
103.8514336582
 11
110.6139242914
 21
103.8514336582
  0
LINE
  5
22C
100
AcDbEntity
  8
_30_VOLUMEN
100
AcDbLine
 62
7
  6
CONTINUOUS
 10
63.7139242914
 20
102.6014336582
 11
63.7139242914
 21
119.6014336582
  0
LINE
  5
22D
100
AcDbEntity
  8
_30_VOLUMEN
100
AcDbLine
 62
7
  6
CONTINUOUS
 10
64.2139242914
 20
102.1014336582
 11
64.2139242914
 21
120.1014336582
  0
LINE
  5
22E
100
AcDbEntity
  8
RUNDUNGEN
100
AcDbLine
 62
7
  6
CONTINUOUS
 10
97.2139242914
 20
106.1014336582
 11
80.2139242914
 21
106.1014336582
  0
LINE
  5
22F
100
AcDbEntity
  8
0
100
AcDbLine
 62
7
  6
CONTINUOUS
 10
111.7795775171
 20
106.6014336582
 11
110.9139242914
 21
106.6014336582
  0
LINE
  5
230
100
AcDbEntity
  8
0
100
AcDbLine
 62
7
  6
CONTINUOUS
 10
110.9139242914
 20
107.7014336582
 11
110.6139242914
 21
107.7014336582
  0
LINE
  5
231
100
AcDbEntity
  8
0
100
AcDbLine
 62
7
  6
CONTINUOUS
 10
101.8639242914
 20
110.6014336582
 11
105.1639242914
 21
110.6014336582
  0
LINE
  5
232
100
AcDbEntity
  8
0
100
AcDbLine
 62
7
  6
CONTINUOUS
 10
101.8639242914
 20
111.6014336582
 11
105.1639242914
 21
111.6014336582
  0
LINE
  5
233
100
AcDbEntity
  8
_30_VOLUMEN
100
AcDbLine
 62
7
  6
CONTINUOUS
 10
70.7139242948
 20
120.1014336547
 11
71.2139242946
 21
119.6014336549
  0
LINE
  5
234
100
AcDbEntity
  8
_30_VOLUMEN
100
AcDbLine
 62
7
  6
CONTINUOUS
 10
70.7139242914
 20
102.1014336582
 11
70.7139242914
 21
120.1014336582
  0
LINE
  5
235
100
AcDbEntity
  8
_30_VOLUMEN
100
AcDbLine
 62
7
  6
CONTINUOUS
 10
71.2139242914
 20
101.5156472205
 11
71.2139242914
 21
120.6872200958
  0
LINE
  5
236
100
AcDbEntity
  8
RUNDUNGEN
100
AcDbLine
 62
7
  6
CONTINUOUS
 10
72.2139242914
 20
134.1014336582
 11
72.2139242914
 21
121.3963016452
  0
LINE
  5
237
100
AcDbEntity
  8
RUNDUNGEN
100
AcDbLine
 62
7
  6
CONTINUOUS
 10
72.2139427937
 20
121.3992713824
 11
72.2137615762
 21
121.3602128222
  0
LINE
  5
238
100
AcDbEntity
  8
0
100
AcDbLine
 62
7
  6
CONTINUOUS
 10
110.9139242914
 20
114.5014336582
 11
110.6139242914
 21
114.5014336582
  0
LINE
  5
239
100
AcDbEntity
  8
0
100
AcDbLine
 62
7
  6
CONTINUOUS
 10
111.7795775171
 20
115.6014336582
 11
110.9139242914
 21
115.6014336582
  0
LINE
  5
23A
100
AcDbEntity
  8
0
100
AcDbLine
 62
7
  6
CONTINUOUS
 10
74.7139242914
 20
132.7889334198
 11
74.7139242914
 21
132.4764338966
  0
LINE
  5
23B
100
AcDbEntity
  8
0
100
AcDbLine
 62
7
  6
CONTINUOUS
 10
74.7139242914
 20
130.1014336582
 11
74.7139242914
 21
129.5389336582
  0
LINE
  5
23C
100
AcDbEntity
  8
0
100
AcDbLine
 62
7
  6
CONTINUOUS
 10
74.7139242914
 20
127.1639335986
 11
74.7139242914
 21
126.601433688
  0
LINE
  5
23D
100
AcDbEntity
  8
0
100
AcDbLine
 62
7
  6
CONTINUOUS
 10
75.0969029691
 20
126.601433688
 11
75.0969029691
 21
127.1639335986
  0
LINE
  5
23E
100
AcDbEntity
  8
0
100
AcDbLine
 62
7
  6
CONTINUOUS
 10
75.0969029691
 20
129.5389336582
 11
75.0969029691
 21
130.1014336582
  0
LINE
  5
23F
100
AcDbEntity
  8
0
100
AcDbLine
 62
7
  6
CONTINUOUS
 10
75.0969029691
 20
132.4764338966
 11
75.0969029691
 21
132.8514338966
  0
LINE
  5
240
100
AcDbEntity
  8
0
100
AcDbLine
 62
7
  6
CONTINUOUS
 10
75.4160518673
 20
133.2264338966
 11
75.4160518673
 21
133.6014338966
  0
LINE
  5
241
100
AcDbEntity
  8
0
100
AcDbLine
 62
7
  6
CONTINUOUS
 10
75.4798818257
 20
127.6639336582
 11
75.4798818257
 21
128.0389336582
  0
LINE
  5
242
100
AcDbEntity
  8
0
100
AcDbLine
 62
7
  6
CONTINUOUS
 10
75.4798818257
 20
130.601433539
 11
75.4798818257
 21
130.976433539
  0
LINE
  5
243
100
AcDbEntity
  8
0
100
AcDbLine
 62
7
  6
CONTINUOUS
 10
75.9905200627
 20
132.8514338966
 11
75.9905200627
 21
132.4764338966
  0
LINE
  5
244
100
AcDbEntity
  8
0
100
AcDbLine
 62
7
  6
CONTINUOUS
 10
74.777754071
 20
133.1014336582
 11
74.7139242914
 21
132.7889334198
  0
LINE
  5
245
100
AcDbEntity
  8
0
100
AcDbLine
 62
7
  6
CONTINUOUS
 10
74.777754071
 20
130.413933539
 11
74.7139242914
 21
130.1014336582
  0
LINE
  5
246
100
AcDbEntity
  8
0
100
AcDbLine
 62
7
  6
CONTINUOUS
 10
74.777754071
 20
127.4764336582
 11
74.7139242914
 21
127.1639335986
  0
LINE
  5
247
100
AcDbEntity
  8
0
100
AcDbLine
 62
7
  6
CONTINUOUS
 10
76.0543498423
 20
133.1639334198
 11
75.9905200627
 21
132.8514338966
  0
LINE
  5
248
100
AcDbEntity
  8
0
100
AcDbLine
 62
7
  6
CONTINUOUS
 10
75.0969029691
 20
130.1014336582
 11
75.1607327488
 21
130.3514337774
  0
LINE
  5
249
100
AcDbEntity
  8
0
100
AcDbLine
 62
7
  6
CONTINUOUS
 10
75.0969029691
 20
132.8514338966
 11
75.1607327488
 21
133.0389338966
  0
LINE
  5
24A
100
AcDbEntity
  8
RUNDUNGEN
100
AcDbLine
 62
7
  6
CONTINUOUS
 10
97.2139242914
 20
116.1014336582
 11
80.2139242914
 21
116.1014336582
  0
LINE
  5
24B
100
AcDbEntity
  8
_30_VOLUMEN
100
AcDbLine
 62
7
  6
CONTINUOUS
 10
110.7139242914
 20
117.3279309663
 11
113.6139242914
 21
117.3279309663
  0
LINE
  5
24C
100
AcDbEntity
  8
0
100
AcDbLine
 62
7
  6
CONTINUOUS
 10
74.9054136303
 20
126.0389336433
 11
75.1607327488
 21
125.7889336582
  0
LINE
  5
24D
100
AcDbEntity
  8
0
100
AcDbLine
 62
7
  6
CONTINUOUS
 10
75.288392308
 20
126.1639336582
 11
75.1607327488
 21
126.3514336582
  0
LINE
  5
24E
100
AcDbEntity
  8
0
100
AcDbLine
 62
7
  6
CONTINUOUS
 10
74.777754071
 20
126.2889336731
 11
74.9054136303
 21
126.0389336433
  0
LINE
  5
24F
100
AcDbEntity
  8
0
100
AcDbLine
 62
7
  6
CONTINUOUS
 10
74.777754071
 20
129.2264337774
 11
74.9054136303
 21
128.9764336582
  0
LINE
  5
250
100
AcDbEntity
  8
0
100
AcDbLine
 62
7
  6
CONTINUOUS
 10
75.1607327488
 20
132.2889338966
 11
75.0969029691
 21
132.4764338966
  0
LINE
  5
251
100
AcDbEntity
  8
0
100
AcDbLine
 62
7
  6
CONTINUOUS
 10
75.1607327488
 20
126.3514336582
 11
75.0969029691
 21
126.601433688
  0
LINE
  5
252
100
AcDbEntity
  8
0
100
AcDbLine
 62
7
  6
CONTINUOUS
 10
75.1607327488
 20
129.288933539
 11
75.0969029691
 21
129.5389336582
  0
LINE
  5
253
100
AcDbEntity
  8
0
100
AcDbLine
 62
7
  6
CONTINUOUS
 10
74.7139242914
 20
132.4764338966
 11
74.777754071
 21
132.2264334198
  0
LINE
  5
254
100
AcDbEntity
  8
0
100
AcDbLine
 62
7
  6
CONTINUOUS
 10
74.7139242914
 20
126.601433688
 11
74.777754071
 21
126.2889336731
  0
LINE
  5
255
100
AcDbEntity
  8
0
100
AcDbLine
 62
7
  6
CONTINUOUS
 10
74.7139242914
 20
129.5389336582
 11
74.777754071
 21
129.2264337774
  0
LINE
  5
256
100
AcDbEntity
  8
0
100
AcDbLine
 62
7
  6
CONTINUOUS
 10
76.3734987405
 20
132.4764338966
 11
76.3734987405
 21
132.8514338966
  0
LINE
  5
257
100
AcDbEntity
  8
0
100
AcDbLine
 62
7
  6
CONTINUOUS
 10
76.8841370669
 20
131.8514334198
 11
76.8841370669
 21
131.4764337774
  0
LINE
  5
258
100
AcDbEntity
  8
0
100
AcDbLine
 62
7
  6
CONTINUOUS
 10
76.9479668465
 20
130.976433539
 11
76.9479668465
 21
130.601433539
  0
LINE
  5
259
100
AcDbEntity
  8
0
100
AcDbLine
 62
7
  6
CONTINUOUS
 10
76.9479668465
 20
128.0389336582
 11
76.9479668465
 21
127.6639336582
  0
LINE
  5
25A
100
AcDbEntity
  8
0
100
AcDbLine
 62
7
  6
CONTINUOUS
 10
77.3309455689
 20
132.8514338966
 11
77.3309455689
 21
132.3514336582
  0
LINE
  5
25B
100
AcDbEntity
  8
0
100
AcDbLine
 62
7
  6
CONTINUOUS
 10
77.3309455689
 20
130.1014336582
 11
77.3309455689
 21
129.5389336582
  0
LINE
  5
25C
100
AcDbEntity
  8
0
100
AcDbLine
 62
7
  6
CONTINUOUS
 10
77.3309455689
 20
127.1639335986
 11
77.3309455689
 21
126.601433688
  0
LINE
  5
25D
100
AcDbEntity
  8
0
100
AcDbLine
 62
7
  6
CONTINUOUS
 10
77.7139242914
 20
126.601433688
 11
77.7139242914
 21
127.1639335986
  0
LINE
  5
25E
100
AcDbEntity
  8
0
100
AcDbLine
 62
7
  6
CONTINUOUS
 10
77.7139242914
 20
129.5389336582
 11
77.7139242914
 21
130.1014336582
  0
LINE
  5
25F
100
AcDbEntity
  8
0
100
AcDbLine
 62
7
  6
CONTINUOUS
 10
77.7139242914
 20
132.3514336582
 11
77.7139242914
 21
132.8514338966
  0
LINE
  5
260
100
AcDbEntity
  8
0
100
AcDbLine
 62
7
  6
CONTINUOUS
 10
77.6500945062
 20
132.0389334198
 11
77.7139242914
 21
132.3514336582
  0
LINE
  5
261
100
AcDbEntity
  8
0
100
AcDbLine
 62
7
  6
CONTINUOUS
 10
77.6500945062
 20
129.2264337774
 11
77.7139242914
 21
129.5389336582
  0
LINE
  5
262
100
AcDbEntity
  8
0
100
AcDbLine
 62
7
  6
CONTINUOUS
 10
76.3734987405
 20
132.8514338966
 11
76.4373285201
 21
133.1014336582
  0
LINE
  5
263
100
AcDbEntity
  8
0
100
AcDbLine
 62
7
  6
CONTINUOUS
 10
76.3096689608
 20
132.2264334198
 11
76.3734987405
 21
132.4764338966
  0
LINE
  5
264
100
AcDbEntity
  8
0
100
AcDbLine
 62
7
  6
CONTINUOUS
 10
75.0969029691
 20
127.1639335986
 11
75.1607327488
 21
127.4139337178
  0
LINE
  5
265
100
AcDbEntity
  8
0
100
AcDbLine
 62
7
  6
CONTINUOUS
 10
77.3309455689
 20
132.3514336582
 11
77.2671157893
 21
132.1014338966
  0
LINE
  5
266
100
AcDbEntity
  8
0
100
AcDbLine
 62
7
  6
CONTINUOUS
 10
77.3309455689
 20
129.5389336582
 11
77.2671157893
 21
129.288933539
  0
LINE
  5
267
100
AcDbEntity
  8
0
100
AcDbLine
 62
7
  6
CONTINUOUS
 10
75.9905200627
 20
132.4764338966
 11
75.9266902831
 21
132.2889338966
  0
LINE
  5
268
100
AcDbEntity
  8
0
100
AcDbLine
 62
7
  6
CONTINUOUS
 10
76.1820094016
 20
133.4139338966
 11
76.0543498423
 21
133.1639334198
  0
LINE
  5
269
100
AcDbEntity
  8
0
100
AcDbLine
 62
7
  6
CONTINUOUS
 10
74.9054136303
 20
130.6639336582
 11
74.777754071
 21
130.413933539
  0
LINE
  5
26A
100
AcDbEntity
  8
0
100
AcDbLine
 62
7
  6
CONTINUOUS
 10
76.1820094016
 20
131.9764336582
 11
76.3096689608
 21
132.2264334198
  0
LINE
  5
26B
100
AcDbEntity
  8
0
100
AcDbLine
 62
7
  6
CONTINUOUS
 10
74.9054136303
 20
127.7264335986
 11
74.777754071
 21
127.4764336582
  0
LINE
  5
26C
100
AcDbEntity
  8
0
100
AcDbLine
 62
7
  6
CONTINUOUS
 10
76.4373285201
 20
133.1014336582
 11
76.5649880793
 21
133.2889336582
  0
LINE
  5
26D
100
AcDbEntity
  8
0
100
AcDbLine
 62
7
  6
CONTINUOUS
 10
75.9266902831
 20
132.2889338966
 11
75.7990307238
 21
132.1014338966
  0
LINE
  5
26E
100
AcDbEntity
  8
0
100
AcDbLine
 62
7
  6
CONTINUOUS
 10
75.1607327488
 20
130.3514337774
 11
75.288392308
 21
130.5389337774
  0
LINE
  5
26F
100
AcDbEntity
  8
0
100
AcDbLine
 62
7
  6
CONTINUOUS
 10
74.9692434099
 20
133.3514334198
 11
74.777754071
 21
133.1014336582
  0
LINE
  5
270
100
AcDbEntity
  8
0
100
AcDbLine
 62
7
  6
CONTINUOUS
 10
75.1607327488
 20
133.0389338966
 11
75.288392308
 21
133.1639334198
  0
LINE
  5
271
100
AcDbEntity
  8
0
100
AcDbLine
 62
7
  6
CONTINUOUS
 10
104.5364242914
 20
121.5514336582
 11
104.848924351
 21
121.6152634434
  0
LINE
  5
272
100
AcDbEntity
  8
0
100
AcDbLine
 62
7
  6
CONTINUOUS
 10
104.2239243212
 20
123.4663272257
 11
103.9114243063
 21
123.4024974461
  0
LINE
  5
273
100
AcDbEntity
  8
_30_VOLUMEN
100
AcDbLine
 62
7
  6
CONTINUOUS
 10
70.7139242914
 20
120.1014336582
 11
64.2139242914
 21
120.1014336582
  0
LINE
  5
274
100
AcDbEntity
  8
_30_VOLUMEN
100
AcDbLine
 62
7
  6
CONTINUOUS
 10
110.7139242914
 20
120.2146823122
 11
113.6139242914
 21
120.2146823122
  0
LINE
  5
275
100
AcDbEntity
  8
_26_BEZUGSACHSEN
100
AcDbLine
 62
7
  6
CONTINUOUS
 10
110.6139242914
 20
120.6514336582
 11
110.7139242914
 21
120.6514336582
  0
LINE
  5
276
100
AcDbEntity
  8
0
100
AcDbLine
 62
7
  6
CONTINUOUS
 10
75.1607327488
 20
125.7889336582
 11
75.4160518673
 21
125.66393366
  0
LINE
  5
277
100
AcDbEntity
  8
0
100
AcDbLine
 62
7
  6
CONTINUOUS
 10
75.4798818257
 20
126.0389336433
 11
75.288392308
 21
126.1639336582
  0
LINE
  5
278
100
AcDbEntity
  8
0
100
AcDbLine
 62
7
  6
CONTINUOUS
 10
74.9054136303
 20
128.9764336582
 11
75.1607327488
 21
128.726433539
  0
LINE
  5
279
100
AcDbEntity
  8
0
100
AcDbLine
 62
7
  6
CONTINUOUS
 10
77.5224349302
 20
127.7264335986
 11
77.2671157893
 21
127.9764337178
  0
LINE
  5
27A
100
AcDbEntity
  8
0
100
AcDbLine
 62
7
  6
CONTINUOUS
 10
75.288392308
 20
129.101433539
 11
75.1607327488
 21
129.288933539
  0
LINE
  5
27B
100
AcDbEntity
  8
0
100
AcDbLine
 62
7
  6
CONTINUOUS
 10
77.1394561854
 20
127.6014337178
 11
77.2671157893
 21
127.4139337178
  0
LINE
  5
27C
100
AcDbEntity
  8
0
100
AcDbLine
 62
7
  6
CONTINUOUS
 10
75.288392308
 20
132.1014338966
 11
75.1607327488
 21
132.2889338966
  0
LINE
  5
27D
100
AcDbEntity
  8
0
100
AcDbLine
 62
7
  6
CONTINUOUS
 10
77.1394561854
 20
130.5389337774
 11
77.2671157893
 21
130.3514337774
  0
LINE
  5
27E
100
AcDbEntity
  8
0
100
AcDbLine
 62
7
  6
CONTINUOUS
 10
74.777754071
 20
132.2264334198
 11
74.9054136303
 21
131.9764336582
  0
LINE
  5
27F
100
AcDbEntity
  8
0
100
AcDbLine
 62
7
  6
CONTINUOUS
 10
77.6500945062
 20
127.4764336582
 11
77.5224349302
 21
127.7264335986
  0
LINE
  5
280
100
AcDbEntity
  8
0
100
AcDbLine
 62
7
  6
CONTINUOUS
 10
77.6500945062
 20
130.413933539
 11
77.5224349302
 21
130.6639336582
  0
LINE
  5
281
100
AcDbEntity
  8
0
100
AcDbLine
 62
7
  6
CONTINUOUS
 10
77.2671157893
 20
127.4139337178
 11
77.3309455689
 21
127.1639335986
  0
LINE
  5
282
100
AcDbEntity
  8
0
100
AcDbLine
 62
7
  6
CONTINUOUS
 10
77.2671157893
 20
130.3514337774
 11
77.3309455689
 21
130.1014336582
  0
LINE
  5
283
100
AcDbEntity
  8
0
100
AcDbLine
 62
7
  6
CONTINUOUS
 10
77.2671157893
 20
133.1014336582
 11
77.3309455689
 21
132.8514338966
  0
LINE
  5
284
100
AcDbEntity
  8
0
100
AcDbLine
 62
7
  6
CONTINUOUS
 10
77.7139242914
 20
127.1639335986
 11
77.6500945062
 21
127.4764336582
  0
LINE
  5
285
100
AcDbEntity
  8
0
100
AcDbLine
 62
7
  6
CONTINUOUS
 10
77.7139242914
 20
130.1014336582
 11
77.6500945062
 21
130.413933539
  0
LINE
  5
286
100
AcDbEntity
  8
0
100
AcDbLine
 62
7
  6
CONTINUOUS
 10
77.7139242914
 20
132.8514338966
 11
77.6500945062
 21
133.1639334198
  0
LINE
  5
287
100
AcDbEntity
  8
BEZUGSACHSEN
100
AcDbLine
 62
7
  6
CONTINUOUS
 10
80.2139242914
 20
119.4417002943
 11
80.2139242914
 21
101.1014336582
  0
LINE
  5
288
100
AcDbEntity
  8
RUNDUNGEN
100
AcDbLine
 62
7
  6
CONTINUOUS
 10
80.2139242914
 20
119.4417002943
 11
80.2139242914
 21
134.1014336582
  0
LINE
  5
289
100
AcDbEntity
  8
RUNDUNGEN
100
AcDbLine
 62
7
  6
CONTINUOUS
 10
80.2139242914
 20
140.5644493879
 11
80.2139242914
 21
155.6014336582
  0
LINE
  5
28A
100
AcDbEntity
  8
0
100
AcDbLine
 62
7
  6
CONTINUOUS
 10
77.6500945062
 20
126.2889336731
 11
77.7139242914
 21
126.601433688
  0
LINE
  5
28B
100
AcDbEntity
  8
0
100
AcDbLine
 62
7
  6
CONTINUOUS
 10
77.3309455689
 20
126.601433688
 11
77.2671157893
 21
126.3514336582
  0
LINE
  5
28C
100
AcDbEntity
  8
0
100
AcDbLine
 62
7
  6
CONTINUOUS
 10
77.5224349302
 20
128.9764336582
 11
77.6500945062
 21
129.2264337774
  0
LINE
  5
28D
100
AcDbEntity
  8
0
100
AcDbLine
 62
7
  6
CONTINUOUS
 10
77.5224349302
 20
126.0389336433
 11
77.6500945062
 21
126.2889336731
  0
LINE
  5
28E
100
AcDbEntity
  8
0
100
AcDbLine
 62
7
  6
CONTINUOUS
 10
77.4586051505
 20
131.7264338966
 11
77.6500945062
 21
132.0389334198
  0
LINE
  5
28F
100
AcDbEntity
  8
0
100
AcDbLine
 62
7
  6
CONTINUOUS
 10
75.1607327488
 20
127.4139337178
 11
75.288392308
 21
127.6014337178
  0
LINE
  5
290
100
AcDbEntity
  8
0
100
AcDbLine
 62
7
  6
CONTINUOUS
 10
77.2671157893
 20
129.288933539
 11
77.1394561854
 21
129.101433539
  0
LINE
  5
291
100
AcDbEntity
  8
_30_VOLUMEN
100
AcDbLine
 62
7
  6
CONTINUOUS
 10
63.7139242843
 20
119.6014336511
 11
64.2139242839
 21
120.1014336507
  0
LINE
  5
292
100
AcDbEntity
  8
0
100
AcDbLine
 62
7
  6
CONTINUOUS
 10
76.4373285201
 20
133.6639336582
 11
76.1820094016
 21
133.4139338966
  0
LINE
  5
293
100
AcDbEntity
  8
0
100
AcDbLine
 62
7
  6
CONTINUOUS
 10
75.9266902831
 20
131.7264338966
 11
76.1820094016
 21
131.9764336582
  0
LINE
  5
294
100
AcDbEntity
  8
0
100
AcDbLine
 62
7
  6
CONTINUOUS
 10
75.1607327488
 20
130.9139337774
 11
74.9054136303
 21
130.6639336582
  0
LINE
  5
295
100
AcDbEntity
  8
0
100
AcDbLine
 62
7
  6
CONTINUOUS
 10
77.2671157893
 20
132.1014338966
 11
77.0756264057
 21
131.9139338966
  0
LINE
  5
296
100
AcDbEntity
  8
0
100
AcDbLine
 62
7
  6
CONTINUOUS
 10
75.2245625284
 20
133.5389334198
 11
74.9692434099
 21
133.3514334198
  0
LINE
  5
297
100
AcDbEntity
  8
0
100
AcDbLine
 62
7
  6
CONTINUOUS
 10
76.5649880793
 20
133.2889336582
 11
76.7564775076
 21
133.4139338966
  0
LINE
  5
298
100
AcDbEntity
  8
0
100
AcDbLine
 62
7
  6
CONTINUOUS
 10
104.2239243212
 20
124.5514336582
 11
103.9114243063
 21
124.4876038785
  0
LINE
  5
299
100
AcDbEntity
  8
0
100
AcDbLine
 62
7
  6
CONTINUOUS
 10
104.2239243212
 20
121.5514336582
 11
104.5364242914
 21
121.5514336582
  0
LINE
  5
29A
100
AcDbEntity
  8
0
100
AcDbLine
 62
7
  6
CONTINUOUS
 10
104.5989243212
 20
121.870582601
 11
104.1614242914
 21
121.870582601
  0
LINE
  5
29B
100
AcDbEntity
  8
0
100
AcDbLine
 62
7
  6
CONTINUOUS
 10
104.1614242914
 20
123.1471783276
 11
104.5989243212
 21
123.1471783276
  0
LINE
  5
29C
100
AcDbEntity
  8
0
100
AcDbLine
 62
7
  6
CONTINUOUS
 10
104.5364242914
 20
123.4663272257
 11
104.2239243212
 21
123.4663272257
  0
LINE
  5
29D
100
AcDbEntity
  8
0
100
AcDbLine
 62
7
  6
CONTINUOUS
 10
105.036424351
 20
123.8493060823
 11
105.3489242318
 21
123.8493060823
  0
LINE
  5
29E
100
AcDbEntity
  8
0
100
AcDbLine
 62
7
  6
CONTINUOUS
 10
75.4160518673
 20
125.66393366
 11
75.7352009442
 21
125.6014336582
  0
LINE
  5
29F
100
AcDbEntity
  8
0
100
AcDbLine
 62
7
  6
CONTINUOUS
 10
75.7352009442
 20
125.9764336582
 11
75.4798818257
 21
126.0389336433
  0
LINE
  5
2A0
100
AcDbEntity
  8
0
100
AcDbLine
 62
7
  6
CONTINUOUS
 10
75.1607327488
 20
128.726433539
 11
75.4160518673
 21
128.6014336582
  0
LINE
  5
2A1
100
AcDbEntity
  8
0
100
AcDbLine
 62
7
  6
CONTINUOUS
 10
105.5434241324
 20
112.4579962575
 11
107.5104046984
 21
111.2286334038
  0
LINE
  5
2A2
100
AcDbEntity
  8
0
100
AcDbLine
 62
7
  6
CONTINUOUS
 10
75.4798818257
 20
128.9764336582
 11
75.288392308
 21
129.101433539
  0
LINE
  5
2A3
100
AcDbEntity
  8
0
100
AcDbLine
 62
7
  6
CONTINUOUS
 10
74.9054136303
 20
131.9764336582
 11
75.1607327488
 21
131.7264338966
  0
LINE
  5
2A4
100
AcDbEntity
  8
0
100
AcDbLine
 62
7
  6
CONTINUOUS
 10
77.5224349302
 20
130.6639336582
 11
77.2671157893
 21
130.9139337774
  0
LINE
  5
2A5
100
AcDbEntity
  8
0
100
AcDbLine
 62
7
  6
CONTINUOUS
 10
77.1394561854
 20
133.2889336582
 11
77.2671157893
 21
133.1014336582
  0
LINE
  5
2A6
100
AcDbEntity
  8
0
100
AcDbLine
 62
7
  6
CONTINUOUS
 10
77.6500945062
 20
133.1639334198
 11
77.5224349302
 21
133.4139338966
  0
LINE
  5
2A7
100
AcDbEntity
  8
0
100
AcDbLine
 62
7
  6
CONTINUOUS
 10
77.2671157893
 20
126.3514336582
 11
77.1394561854
 21
126.1639336582
  0
LINE
  5
2A8
100
AcDbEntity
  8
0
100
AcDbLine
 62
7
  6
CONTINUOUS
 10
75.1607327488
 20
127.9764337178
 11
74.9054136303
 21
127.7264335986
  0
LINE
  5
2A9
100
AcDbEntity
  8
0
100
AcDbLine
 62
7
  6
CONTINUOUS
 10
77.2671157893
 20
128.726433539
 11
77.5224349302
 21
128.9764336582
  0
LINE
  5
2AA
100
AcDbEntity
  8
0
100
AcDbLine
 62
7
  6
CONTINUOUS
 10
77.1394561854
 20
131.538933539
 11
77.4586051505
 21
131.7264338966
  0
LINE
  5
2AB
100
AcDbEntity
  8
0
100
AcDbLine
 62
7
  6
CONTINUOUS
 10
75.288392308
 20
133.1639334198
 11
75.4160518673
 21
133.2264338966
  0
LINE
  5
2AC
100
AcDbEntity
  8
0
100
AcDbLine
 62
7
  6
CONTINUOUS
 10
76.692647728
 20
133.7889338966
 11
76.4373285201
 21
133.6639336582
  0
LINE
  5
2AD
100
AcDbEntity
  8
0
100
AcDbLine
 62
7
  6
CONTINUOUS
 10
75.4160518673
 20
133.6014338966
 11
75.2245625284
 21
133.5389334198
  0
LINE
  5
2AE
100
AcDbEntity
  8
0
100
AcDbLine
 62
7
  6
CONTINUOUS
 10
104.1614242914
 20
124.23228476
 11
104.5364242914
 21
124.23228476
  0
LINE
  5
2AF
100
AcDbEntity
  8
0
100
AcDbLine
 62
7
  6
CONTINUOUS
 10
104.4739242616
 20
124.5514336582
 11
104.2239243212
 21
124.5514336582
  0
LINE
  5
2B0
100
AcDbEntity
  8
_26_BEZUGSACHSEN
100
AcDbLine
 62
7
  6
CONTINUOUS
 10
110.6139242914
 20
125.5514336582
 11
110.7139242914
 21
125.5514336582
  0
LINE
  5
2B1
100
AcDbEntity
  8
0
100
AcDbLine
 62
7
  6
CONTINUOUS
 10
75.7352009442
 20
125.6014336582
 11
76.692647728
 21
125.6014336582
  0
LINE
  5
2B2
100
AcDbEntity
  8
0
100
AcDbLine
 62
7
  6
CONTINUOUS
 10
76.692647728
 20
125.9764336582
 11
75.7352009442
 21
125.9764336582
  0
LINE
  5
2B3
100
AcDbEntity
  8
_30_VOLUMEN
100
AcDbLine
 62
7
  6
CONTINUOUS
 10
110.7139242914
 20
125.9881850041
 11
113.6139242914
 21
125.9881850041
  0
LINE
  5
2B4
100
AcDbEntity
  8
0
100
AcDbLine
 62
7
  6
CONTINUOUS
 10
77.2671157893
 20
127.9764337178
 11
76.9479668465
 21
128.0389336582
  0
LINE
  5
2B5
100
AcDbEntity
  8
0
100
AcDbLine
 62
7
  6
CONTINUOUS
 10
75.4160518673
 20
128.6014336582
 11
75.7352009442
 21
128.5389337178
  0
LINE
  5
2B6
100
AcDbEntity
  8
0
100
AcDbLine
 62
7
  6
CONTINUOUS
 10
103.9114243063
 20
121.6152634434
 11
104.2239243212
 21
121.5514336582
  0
LINE
  5
2B7
100
AcDbEntity
  8
0
100
AcDbLine
 62
7
  6
CONTINUOUS
 10
104.848924351
 20
123.4024974461
 11
104.5364242914
 21
123.4663272257
  0
LINE
  5
2B8
100
AcDbEntity
  8
0
100
AcDbLine
 62
7
  6
CONTINUOUS
 10
75.7352009442
 20
128.913933539
 11
75.4798818257
 21
128.9764336582
  0
LINE
  5
2B9
100
AcDbEntity
  8
0
100
AcDbLine
 62
7
  6
CONTINUOUS
 10
76.9479668465
 20
127.6639336582
 11
77.1394561854
 21
127.6014337178
  0
LINE
  5
2BA
100
AcDbEntity
  8
_30_VOLUMEN
100
AcDbLine
 62
7
  6
CONTINUOUS
 10
114.9507323487
 20
114.4472276912
 11
111.7795775171
 21
115.6014336582
  0
LINE
  5
2BB
100
AcDbEntity
  8
0
100
AcDbLine
 62
7
  6
CONTINUOUS
 10
76.9479668465
 20
133.4139338966
 11
77.1394561854
 21
133.2889336582
  0
LINE
  5
2BC
100
AcDbEntity
  8
0
100
AcDbLine
 62
7
  6
CONTINUOUS
 10
77.5224349302
 20
133.4139338966
 11
77.2671157893
 21
133.6639336582
  0
LINE
  5
2BD
100
AcDbEntity
  8
0
100
AcDbLine
 62
7
  6
CONTINUOUS
 10
77.2671157893
 20
125.7889336582
 11
77.5224349302
 21
126.0389336433
  0
LINE
  5
2BE
100
AcDbEntity
  8
0
100
AcDbLine
 62
7
  6
CONTINUOUS
 10
77.1394561854
 20
129.101433539
 11
76.9479668465
 21
128.9764336582
  0
LINE
  5
2BF
100
AcDbEntity
  8
0
100
AcDbLine
 62
7
  6
CONTINUOUS
 10
77.0117966261
 20
128.6014336582
 11
77.2671157893
 21
128.726433539
  0
LINE
  5
2C0
100
AcDbEntity
  8
0
100
AcDbLine
 62
7
  6
CONTINUOUS
 10
75.7990307238
 20
132.1014338966
 11
75.607541385
 21
132.0389334198
  0
LINE
  5
2C1
100
AcDbEntity
  8
0
100
AcDbLine
 62
7
  6
CONTINUOUS
 10
77.0756264057
 20
131.9139338966
 11
76.8841370669
 21
131.8514334198
  0
LINE
  5
2C2
100
AcDbEntity
  8
0
100
AcDbLine
 62
7
  6
CONTINUOUS
 10
75.288392308
 20
130.5389337774
 11
75.4798818257
 21
130.601433539
  0
LINE
  5
2C3
100
AcDbEntity
  8
0
100
AcDbLine
 62
7
  6
CONTINUOUS
 10
76.9479668465
 20
126.0389336433
 11
76.692647728
 21
125.9764336582
  0
LINE
  5
2C4
100
AcDbEntity
  8
0
100
AcDbLine
 62
7
  6
CONTINUOUS
 10
76.692647728
 20
125.6014336582
 11
77.0117966261
 21
125.66393366
  0
LINE
  5
2C5
100
AcDbEntity
  8
_30_VOLUMEN
100
AcDbLine
 62
7
  6
CONTINUOUS
 10
110.1139242914
 20
127.9014336582
 11
105.1139242914
 21
127.9014336582
  0
LINE
  5
2C6
100
AcDbEntity
  8
0
100
AcDbLine
 62
7
  6
CONTINUOUS
 10
75.7352009442
 20
128.5389337178
 11
76.692647728
 21
128.5389337178
  0
LINE
  5
2C7
100
AcDbEntity
  8
_30_VOLUMEN
100
AcDbLine
 62
7
  6
CONTINUOUS
 10
110.7139242914
 20
128.8749363501
 11
113.6139242914
 21
128.8749363501
  0
LINE
  5
2C8
100
AcDbEntity
  8
0
100
AcDbLine
 62
7
  6
CONTINUOUS
 10
76.692647728
 20
128.913933539
 11
75.7352009442
 21
128.913933539
  0
LINE
  5
2C9
100
AcDbEntity
  8
0
100
AcDbLine
 62
7
  6
CONTINUOUS
 10
77.2671157893
 20
130.9139337774
 11
76.9479668465
 21
130.976433539
  0
LINE
  5
2CA
100
AcDbEntity
  8
0
100
AcDbLine
 62
7
  6
CONTINUOUS
 10
104.7864242318
 20
124.4876038785
 11
104.4739242616
 21
124.5514336582
  0
LINE
  5
2CB
100
AcDbEntity
  8
0
100
AcDbLine
 62
7
  6
CONTINUOUS
 10
75.1607327488
 20
131.7264338966
 11
75.4160518673
 21
131.6639334198
  0
LINE
  5
2CC
100
AcDbEntity
  8
0
100
AcDbLine
 62
7
  6
CONTINUOUS
 10
76.9479668465
 20
130.601433539
 11
77.1394561854
 21
130.5389337774
  0
LINE
  5
2CD
100
AcDbEntity
  8
0
100
AcDbLine
 62
7
  6
CONTINUOUS
 10
75.4798818257
 20
132.0389334198
 11
75.288392308
 21
132.1014338966
  0
LINE
  5
2CE
100
AcDbEntity
  8
0
100
AcDbLine
 62
7
  6
CONTINUOUS
 10
104.1614242914
 20
121.870582601
 11
103.9739242914
 21
121.9344123806
  0
LINE
  5
2CF
100
AcDbEntity
  8
0
100
AcDbLine
 62
7
  6
CONTINUOUS
 10
104.5989243212
 20
123.1471783276
 11
104.7864242318
 21
123.083348548
  0
LINE
  5
2D0
100
AcDbEntity
  8
0
100
AcDbLine
 62
7
  6
CONTINUOUS
 10
77.2671157893
 20
133.6639336582
 11
77.0117966261
 21
133.7889338966
  0
LINE
  5
2D1
100
AcDbEntity
  8
0
100
AcDbLine
 62
7
  6
CONTINUOUS
 10
77.1394561854
 20
126.1639336582
 11
76.9479668465
 21
126.0389336433
  0
LINE
  5
2D2
100
AcDbEntity
  8
0
100
AcDbLine
 62
7
  6
CONTINUOUS
 10
77.0117966261
 20
125.66393366
 11
77.2671157893
 21
125.7889336582
  0
LINE
  5
2D3
100
AcDbEntity
  8
0
100
AcDbLine
 62
7
  6
CONTINUOUS
 10
75.288392308
 20
127.6014337178
 11
75.4798818257
 21
127.6639336582
  0
LINE
  5
2D4
100
AcDbEntity
  8
0
100
AcDbLine
 62
7
  6
CONTINUOUS
 10
76.9479668465
 20
128.9764336582
 11
76.692647728
 21
128.913933539
  0
LINE
  5
2D5
100
AcDbEntity
  8
0
100
AcDbLine
 62
7
  6
CONTINUOUS
 10
75.4798818257
 20
128.0389336582
 11
75.1607327488
 21
127.9764337178
  0
LINE
  5
2D6
100
AcDbEntity
  8
0
100
AcDbLine
 62
7
  6
CONTINUOUS
 10
76.692647728
 20
128.5389337178
 11
77.0117966261
 21
128.6014336582
  0
LINE
  5
2D7
100
AcDbEntity
  8
0
100
AcDbLine
 62
7
  6
CONTINUOUS
 10
75.4160518673
 20
131.6639334198
 11
75.6713711646
 21
131.6639334198
  0
LINE
  5
2D8
100
AcDbEntity
  8
0
100
AcDbLine
 62
7
  6
CONTINUOUS
 10
75.607541385
 20
132.0389334198
 11
75.4798818257
 21
132.0389334198
  0
LINE
  5
2D9
100
AcDbEntity
  8
0
100
AcDbLine
 62
7
  6
CONTINUOUS
 10
104.5364242914
 20
124.23228476
 11
104.7239242914
 21
124.1684549804
  0
LINE
  5
2DA
100
AcDbEntity
  8
0
100
AcDbLine
 62
7
  6
CONTINUOUS
 10
103.5989242914
 20
121.806752799
 11
103.9114243063
 21
121.6152634434
  0
LINE
  5
2DB
100
AcDbEntity
  8
0
100
AcDbLine
 62
7
  6
CONTINUOUS
 10
103.9739242914
 20
121.9344123806
 11
103.7864242914
 21
122.0620719399
  0
LINE
  5
2DC
100
AcDbEntity
  8
0
100
AcDbLine
 62
7
  6
CONTINUOUS
 10
76.8841370669
 20
131.4764337774
 11
77.1394561854
 21
131.538933539
  0
LINE
  5
2DD
100
AcDbEntity
  8
0
100
AcDbLine
 62
7
  6
CONTINUOUS
 10
75.6713711646
 20
131.6639334198
 11
75.9266902831
 21
131.7264338966
  0
LINE
  5
2DE
100
AcDbEntity
  8
0
100
AcDbLine
 62
7
  6
CONTINUOUS
 10
75.4798818257
 20
130.976433539
 11
75.1607327488
 21
130.9139337774
  0
LINE
  5
2DF
100
AcDbEntity
  8
0
100
AcDbLine
 62
7
  6
CONTINUOUS
 10
76.7564775076
 20
133.4139338966
 11
76.9479668465
 21
133.4139338966
  0
LINE
  5
2E0
100
AcDbEntity
  8
0
100
AcDbLine
 62
7
  6
CONTINUOUS
 10
77.0117966261
 20
133.7889338966
 11
76.692647728
 21
133.7889338966
  0
LINE
  5
2E1
100
AcDbEntity
  8
0
100
AcDbLine
 62
7
  6
CONTINUOUS
 10
105.1614242318
 20
123.2110081072
 11
104.848924351
 21
123.4024974461
  0
LINE
  5
2E2
100
AcDbEntity
  8
0
100
AcDbLine
 62
7
  6
CONTINUOUS
 10
105.0989242914
 20
124.2961145397
 11
104.7864242318
 21
124.4876038785
  0
LINE
  5
2E3
100
AcDbEntity
  8
0
100
AcDbLine
 62
7
  6
CONTINUOUS
 10
104.7864242318
 20
123.083348548
 11
104.9739242318
 21
122.9556889887
  0
LINE
  5
2E4
100
AcDbEntity
  8
0
100
AcDbLine
 62
7
  6
CONTINUOUS
 10
104.7239242914
 20
124.1684549804
 11
104.9114242914
 21
124.0407954212
  0
LINE
  5
2E5
100
AcDbEntity
  8
RUNDUNGEN
100
AcDbLine
 62
7
  6
CONTINUOUS
 10
83.1604474942
 20
137.1014336582
 11
94.2674010886
 21
137.1014336582
  0
LINE
  5
2E6
100
AcDbEntity
  8
0
100
AcDbLine
 62
7
  6
CONTINUOUS
 10
104.9739242318
 20
122.9556889887
 11
105.0989242914
 21
122.8280294295
  0
LINE
  5
2E7
100
AcDbEntity
  8
0
100
AcDbLine
 62
7
  6
CONTINUOUS
 10
105.3489242318
 20
123.0195187684
 11
105.1614242318
 21
123.2110081072
  0
LINE
  5
2E8
100
AcDbEntity
  8
0
100
AcDbLine
 62
7
  6
CONTINUOUS
 10
103.4114242914
 20
122.0620719399
 11
103.5989242914
 21
121.806752799
  0
LINE
  5
2E9
100
AcDbEntity
  8
RUNDUNGEN
100
AcDbLine
 62
7
  6
CONTINUOUS
 10
97.2139242914
 20
155.6014336582
 11
97.2139242914
 21
140.5644496762
  0
LINE
  5
2EA
100
AcDbEntity
  8
RUNDUNGEN
100
AcDbLine
 62
7
  6
CONTINUOUS
 10
97.2139242914
 20
134.1014336582
 11
97.2139242914
 21
117.1923032212
  0
LINE
  5
2EB
100
AcDbEntity
  8
BEZUGSACHSEN
100
AcDbLine
 62
7
  6
CONTINUOUS
 10
97.2139242914
 20
117.1923032212
 11
97.2139242914
 21
101.1014336582
  0
LINE
  5
2EC
100
AcDbEntity
  8
_30_VOLUMEN
100
AcDbLine
 62
7
  6
CONTINUOUS
 10
70.7139242948
 20
102.1014336616
 11
71.2139242946
 21
102.6014336614
  0
LINE
  5
2ED
100
AcDbEntity
  8
_30_VOLUMEN
100
AcDbLine
 62
7
  6
CONTINUOUS
 10
105.1139242914
 20
138.6014336582
 11
109.7139242914
 21
138.6014336582
  0
LINE
  5
2EE
100
AcDbEntity
  8
0
100
AcDbLine
 62
7
  6
CONTINUOUS
 10
105.2864242914
 20
124.0407954212
 11
105.0989242914
 21
124.2961145397
  0
LINE
  5
2EF
100
AcDbEntity
  8
0
100
AcDbLine
 62
7
  6
CONTINUOUS
 10
103.7864242914
 20
122.0620719399
 11
103.6614242765
 21
122.2535613235
  0
LINE
  5
2F0
100
AcDbEntity
  8
0
100
AcDbLine
 62
7
  6
CONTINUOUS
 10
104.9114242914
 20
124.0407954212
 11
105.036424351
 21
123.8493060823
  0
LINE
  5
2F1
100
AcDbEntity
  8
0
100
AcDbLine
 62
7
  6
CONTINUOUS
 10
103.2864242933
 20
122.3812208827
 11
103.4114242914
 21
122.0620719399
  0
LINE
  5
2F2
100
AcDbEntity
  8
0
100
AcDbLine
 62
7
  6
CONTINUOUS
 10
103.6614242765
 20
122.2535613235
 11
103.5989242914
 21
122.4450506623
  0
LINE
  5
2F3
100
AcDbEntity
  8
0
100
AcDbLine
 62
7
  6
CONTINUOUS
 10
101.7139242914
 20
111.4514336582
 11
101.7139242914
 21
110.7514336582
  0
LINE
  5
2F4
100
AcDbEntity
  8
0
100
AcDbLine
 62
7
  6
CONTINUOUS
 10
103.2239242914
 20
123.2748378869
 11
103.2239242914
 21
122.8280294295
  0
LINE
  5
2F5
100
AcDbEntity
  8
0
100
AcDbLine
 62
7
  6
CONTINUOUS
 10
103.5364242839
 20
123.1471783276
 11
103.5364242839
 21
123.2748378869
  0
LINE
  5
2F6
100
AcDbEntity
  8
0
100
AcDbLine
 62
7
  6
CONTINUOUS
 10
103.9114243063
 20
124.4876038785
 11
103.5989242914
 21
124.2961145397
  0
LINE
  5
2F7
100
AcDbEntity
  8
0
100
AcDbLine
 62
7
  6
CONTINUOUS
 10
103.9739242914
 20
124.1684549804
 11
104.1614242914
 21
124.23228476
  0
LINE
  5
2F8
100
AcDbEntity
  8
0
100
AcDbLine
 62
7
  6
CONTINUOUS
 10
103.9739242914
 20
123.083348548
 11
104.1614242914
 21
123.1471783276
  0
LINE
  5
2F9
100
AcDbEntity
  8
0
100
AcDbLine
 62
7
  6
CONTINUOUS
 10
105.4739242914
 20
122.7003698702
 11
105.3489242318
 21
123.0195187684
  0
LINE
  5
2FA
100
AcDbEntity
  8
0
100
AcDbLine
 62
7
  6
CONTINUOUS
 10
105.0989242914
 20
122.8280294295
 11
105.1614242318
 21
122.6365400012
  0
LINE
  5
2FB
100
AcDbEntity
  8
0
100
AcDbLine
 62
7
  6
CONTINUOUS
 10
105.3489242318
 20
123.8493060823
 11
105.2864242914
 21
124.0407954212
  0
LINE
  5
2FC
100
AcDbEntity
  8
0
100
AcDbLine
 62
7
  6
CONTINUOUS
 10
103.2239242914
 20
122.8280294295
 11
103.2864242933
 21
122.3812208827
  0
LINE
  5
2FD
100
AcDbEntity
  8
0
100
AcDbLine
 62
7
  6
CONTINUOUS
 10
103.5989242914
 20
122.4450506623
 11
103.5989242914
 21
122.6365400012
  0
LINE
  5
2FE
100
AcDbEntity
  8
_30_VOLUMEN
100
AcDbLine
 62
7
  6
CONTINUOUS
 10
105.1139242914
 20
127.9014336582
 11
105.1139242914
 21
138.6014336582
  0
LINE
  5
2FF
100
AcDbEntity
  8
0
100
AcDbLine
 62
7
  6
CONTINUOUS
 10
105.1614242318
 20
122.6365400012
 11
105.1614242318
 21
122.4450506623
  0
LINE
  5
300
100
AcDbEntity
  8
_30_VOLUMEN
100
AcDbLine
 62
7
  6
CONTINUOUS
 10
105.2139242914
 20
134.6514336582
 11
105.2139242914
 21
127.9014336582
  0
LINE
  5
301
100
AcDbEntity
  8
0
100
AcDbLine
 62
7
  6
CONTINUOUS
 10
105.3139242914
 20
112.3307965119
 11
105.3139242914
 21
111.7514336582
  0
LINE
  5
302
100
AcDbEntity
  8
0
100
AcDbLine
 62
7
  6
CONTINUOUS
 10
105.3139242914
 20
110.4514336582
 11
105.3139242914
 21
109.8720708044
  0
LINE
  5
303
100
AcDbEntity
  8
0
100
AcDbLine
 62
7
  6
CONTINUOUS
 10
105.4739242914
 20
122.3812208827
 11
105.4739242914
 21
122.7003698702
  0
LINE
  5
304
100
AcDbEntity
  8
0
100
AcDbLine
 62
7
  6
CONTINUOUS
 10
103.2864242933
 20
123.7216463442
 11
103.2239242914
 21
123.2748378869
  0
LINE
  5
305
100
AcDbEntity
  8
0
100
AcDbLine
 62
7
  6
CONTINUOUS
 10
103.5364242839
 20
123.2748378869
 11
103.5989242914
 21
123.6578165646
  0
LINE
  5
306
100
AcDbEntity
  8
0
100
AcDbLine
 62
7
  6
CONTINUOUS
 10
103.5989242914
 20
123.6578165646
 11
103.6614242765
 21
123.8493060823
  0
LINE
  5
307
100
AcDbEntity
  8
0
100
AcDbLine
 62
7
  6
CONTINUOUS
 10
103.5989242914
 20
122.6365400012
 11
103.6614242765
 21
122.8280294295
  0
LINE
  5
308
100
AcDbEntity
  8
0
100
AcDbLine
 62
7
  6
CONTINUOUS
 10
103.4114242914
 20
124.0407954212
 11
103.2864242933
 21
123.7216463442
  0
LINE
  5
309
100
AcDbEntity
  8
0
100
AcDbLine
 62
7
  6
CONTINUOUS
 10
103.6614242765
 20
123.8493060823
 11
103.7864242914
 21
124.0407954212
  0
LINE
  5
30A
100
AcDbEntity
  8
0
100
AcDbLine
 62
7
  6
CONTINUOUS
 10
103.5989242914
 20
124.2961145397
 11
103.4114242914
 21
124.0407954212
  0
LINE
  5
30B
100
AcDbEntity
  8
0
100
AcDbLine
 62
7
  6
CONTINUOUS
 10
103.6614242765
 20
122.8280294295
 11
103.7864242914
 21
122.9556889887
  0
LINE
  5
30C
100
AcDbEntity
  8
0
100
AcDbLine
 62
7
  6
CONTINUOUS
 10
103.7864242914
 20
124.0407954212
 11
103.9739242914
 21
124.1684549804
  0
LINE
  5
30D
100
AcDbEntity
  8
0
100
AcDbLine
 62
7
  6
CONTINUOUS
 10
103.9114243063
 20
123.4024974461
 11
103.5364242839
 21
123.1471783276
  0
LINE
  5
30E
100
AcDbEntity
  8
0
100
AcDbLine
 62
7
  6
CONTINUOUS
 10
103.7864242914
 20
122.9556889887
 11
103.9739242914
 21
123.083348548
  0
LINE
  5
30F
100
AcDbEntity
  8
0
100
AcDbLine
 62
7
  6
CONTINUOUS
 10
104.9739242318
 20
122.0620719399
 11
104.7864242318
 21
121.9344123806
  0
LINE
  5
310
100
AcDbEntity
  8
0
100
AcDbLine
 62
7
  6
CONTINUOUS
 10
104.848924351
 20
121.6152634434
 11
105.1614242318
 21
121.806752799
  0
LINE
  5
311
100
AcDbEntity
  8
0
100
AcDbLine
 62
7
  6
CONTINUOUS
 10
104.7864242318
 20
121.9344123806
 11
104.5989243212
 21
121.870582601
  0
LINE
  5
312
100
AcDbEntity
  8
RUNDUNGEN
100
AcDbLine
 62
7
  6
CONTINUOUS
 10
108.397964578
 20
140.6448206894
 11
98.5298840047
 21
144.2365082875
  0
LINE
  5
313
100
AcDbEntity
  8
0
100
AcDbLine
 62
7
  6
CONTINUOUS
 10
105.1614242318
 20
122.4450506623
 11
105.0989242914
 21
122.2535613235
  0
LINE
  5
314
100
AcDbEntity
  8
0
100
AcDbLine
 62
7
  6
CONTINUOUS
 10
105.3489242318
 20
122.0620719399
 11
105.4739242914
 21
122.3812208827
  0
LINE
  5
315
100
AcDbEntity
  8
0
100
AcDbLine
 62
7
  6
CONTINUOUS
 10
105.0989242914
 20
122.2535613235
 11
104.9739242318
 21
122.0620719399
  0
LINE
  5
316
100
AcDbEntity
  8
0
100
AcDbLine
 62
7
  6
CONTINUOUS
 10
105.1614242318
 20
121.806752799
 11
105.3489242318
 21
122.0620719399
  0
LINE
  5
317
100
AcDbEntity
  8
_30_VOLUMEN
100
AcDbLine
 62
7
  6
CONTINUOUS
 10
109.7139242914
 20
138.6014336582
 11
109.7139242914
 21
138.7654354479
  0
LINE
  5
318
100
AcDbEntity
  8
_30_VOLUMEN
100
AcDbLine
 62
7
  6
CONTINUOUS
 10
110.1139242914
 20
99.6014336582
 11
110.1139242914
 21
127.9014336582
  0
LINE
  5
319
100
AcDbEntity
  8
_30_VOLUMEN
100
AcDbLine
 62
7
  6
CONTINUOUS
 10
110.6139242914
 20
134.6514336582
 11
110.6139242914
 21
103.8514336582
  0
LINE
  5
31A
100
AcDbEntity
  8
_30_VOLUMEN
100
AcDbLine
 62
7
  6
CONTINUOUS
 10
110.7139242914
 20
128.8749363501
 11
110.7139242914
 21
117.3279309663
  0
LINE
  5
31B
100
AcDbEntity
  8
0
100
AcDbLine
 62
7
  6
CONTINUOUS
 10
110.9139242914
 20
115.6014336582
 11
110.9139242914
 21
106.6014336582
  0
LINE
  5
31C
100
AcDbEntity
  8
0
100
AcDbLine
 62
7
  6
CONTINUOUS
 10
111.7795775171
 20
115.6014336582
 11
111.7795775171
 21
106.6014336582
  0
LINE
  5
31D
100
AcDbEntity
  8
_30_VOLUMEN
100
AcDbLine
 62
7
  6
CONTINUOUS
 10
113.6139242914
 20
128.8749363501
 11
113.6139242914
 21
117.3279309663
  0
LINE
  5
31E
100
AcDbEntity
  8
_30_VOLUMEN
100
AcDbLine
 62
7
  6
CONTINUOUS
 10
115.2139242914
 20
108.1315166735
 11
115.2139242914
 21
114.0713506429
  0
LINE
  5
31F
100
AcDbEntity
  8
0
100
AcDbLine
 62
7
  6
CONTINUOUS
 10
107.5104046984
 20
110.9742339126
 11
105.5434241324
 21
109.7448710588
  0
LINE
  5
320
100
AcDbEntity
  8
_30_VOLUMEN
100
AcDbLine
 62
7
  6
CONTINUOUS
 10
114.9507323487
 20
107.7556396251
 11
111.7795775171
 21
106.6014336582
  0
LINE
  5
321
100
AcDbEntity
  8
0
100
AcDbLine
 62
7
  6
CONTINUOUS
 10
177.7556221889
 20
109.6014336582
 11
178.0681222485
 21
109.6652634434
  0
LINE
  5
322
100
AcDbEntity
  8
0
100
AcDbLine
 62
7
  6
CONTINUOUS
 10
177.4431222187
 20
109.6014336582
 11
177.7556221889
 21
109.6014336582
  0
LINE
  5
323
100
AcDbEntity
  8
BEZUGSACHSEN
100
AcDbLine
 62
7
  6
CONTINUOUS
 10
165.6476625452
 20
109.7220708044
 11
166.1511454386
 21
109.7220708044
  0
LINE
  5
324
100
AcDbEntity
  8
0
100
AcDbLine
 62
7
  6
CONTINUOUS
 10
188.9850989392
 20
109.7220708044
 11
189.4885818326
 21
109.7220708044
  0
LINE
  5
325
100
AcDbEntity
  8
0
100
AcDbLine
 62
7
  6
CONTINUOUS
 10
177.8181222187
 20
109.920582601
 11
177.3806221889
 21
109.920582601
  0
LINE
  5
326
100
AcDbEntity
  8
0
100
AcDbLine
 62
7
  6
CONTINUOUS
 10
177.1306222038
 20
109.6652634434
 11
177.4431222187
 21
109.6014336582
  0
LINE
  5
327
100
AcDbEntity
  8
0
100
AcDbLine
 62
7
  6
CONTINUOUS
 10
177.4431222187
 20
111.5163272257
 11
177.1306222038
 21
111.4524974461
  0
LINE
  5
328
100
AcDbEntity
  8
0
100
AcDbLine
 62
7
  6
CONTINUOUS
 10
189.5577009972
 20
110.6014336582
 11
189.057247482
 21
110.6014336582
  0
LINE
  5
329
100
AcDbEntity
  8
BEZUGSACHSEN
100
AcDbLine
 62
7
  6
CONTINUOUS
 10
165.5785433806
 20
110.6014336582
 11
166.0789968958
 21
110.6014336582
  0
LINE
  5
32A
100
AcDbEntity
  8
0
100
AcDbLine
 62
7
  6
CONTINUOUS
 10
177.3806221889
 20
111.1971783276
 11
177.8181222187
 21
111.1971783276
  0
LINE
  5
32B
100
AcDbEntity
  8
0
100
AcDbLine
 62
7
  6
CONTINUOUS
 10
177.7556221889
 20
111.5163272257
 11
177.4431222187
 21
111.5163272257
  0
LINE
  5
32C
100
AcDbEntity
  8
0
100
AcDbLine
 62
7
  6
CONTINUOUS
 10
189.5577009972
 20
111.6014336582
 11
189.057247482
 21
111.6014336582
  0
LINE
  5
32D
100
AcDbEntity
  8
BEZUGSACHSEN
100
AcDbLine
 62
7
  6
CONTINUOUS
 10
165.5785433806
 20
111.6014336582
 11
166.0789968958
 21
111.6014336582
  0
LINE
  5
32E
100
AcDbEntity
  8
0
100
AcDbLine
 62
7
  6
CONTINUOUS
 10
178.2556222485
 20
111.8993060823
 11
178.5681221293
 21
111.8993060823
  0
LINE
  5
32F
100
AcDbEntity
  8
0
100
AcDbLine
 62
7
  6
CONTINUOUS
 10
177.3806221889
 20
112.28228476
 11
177.7556221889
 21
112.28228476
  0
LINE
  5
330
100
AcDbEntity
  8
BEZUGSACHSEN
100
AcDbLine
 62
7
  6
CONTINUOUS
 10
165.6476625452
 20
112.4807965119
 11
166.1511454386
 21
112.4807965119
  0
LINE
  5
331
100
AcDbEntity
  8
0
100
AcDbLine
 62
7
  6
CONTINUOUS
 10
188.9850989392
 20
112.4807965119
 11
189.4885818326
 21
112.4807965119
  0
LINE
  5
332
100
AcDbEntity
  8
0
100
AcDbLine
 62
7
  6
CONTINUOUS
 10
177.6931221591
 20
112.6014336582
 11
177.4431222187
 21
112.6014336582
  0
LINE
  5
333
100
AcDbEntity
  8
0
100
AcDbLine
 62
7
  6
CONTINUOUS
 10
178.0681222485
 20
111.4524974461
 11
177.7556221889
 21
111.5163272257
  0
LINE
  5
334
100
AcDbEntity
  8
0
100
AcDbLine
 62
7
  6
CONTINUOUS
 10
177.3806221889
 20
109.920582601
 11
177.1931221889
 21
109.9844123806
  0
LINE
  5
335
100
AcDbEntity
  8
0
100
AcDbLine
 62
7
  6
CONTINUOUS
 10
177.8181222187
 20
111.1971783276
 11
178.0056221293
 21
111.133348548
  0
LINE
  5
336
100
AcDbEntity
  8
0
100
AcDbLine
 62
7
  6
CONTINUOUS
 10
176.8181221889
 20
109.856752799
 11
177.1306222038
 21
109.6652634434
  0
LINE
  5
337
100
AcDbEntity
  8
0
100
AcDbLine
 62
7
  6
CONTINUOUS
 10
180.8806219505
 20
114.5482421602
 11
180.6306221889
 21
114.4844123806
  0
LINE
  5
338
100
AcDbEntity
  8
0
100
AcDbLine
 62
7
  6
CONTINUOUS
 10
177.8806223081
 20
114.5482421602
 11
177.6306221889
 21
114.4844123806
  0
LINE
  5
339
100
AcDbEntity
  8
0
100
AcDbLine
 62
7
  6
CONTINUOUS
 10
177.4431222187
 20
112.6014336582
 11
177.1306222038
 21
112.5376038785
  0
LINE
  5
33A
100
AcDbEntity
  8
0
100
AcDbLine
 62
7
  6
CONTINUOUS
 10
180.6306221889
 20
114.1014336582
 11
180.9431224273
 21
114.1652634434
  0
LINE
  5
33B
100
AcDbEntity
  8
0
100
AcDbLine
 62
7
  6
CONTINUOUS
 10
177.6306221889
 20
114.1014336582
 11
177.9431220697
 21
114.1652634434
  0
LINE
  5
33C
100
AcDbEntity
  8
0
100
AcDbLine
 62
7
  6
CONTINUOUS
 10
173.5056221889
 20
114.1014336582
 11
173.8806221889
 21
114.1014336582
  0
LINE
  5
33D
100
AcDbEntity
  8
0
100
AcDbLine
 62
7
  6
CONTINUOUS
 10
175.4431221293
 20
114.1014336582
 11
175.8806222485
 21
114.1014336582
  0
LINE
  5
33E
100
AcDbEntity
  8
0
100
AcDbLine
 62
7
  6
CONTINUOUS
 10
177.3806220697
 20
114.1014336582
 11
177.6306221889
 21
114.1014336582
  0
LINE
  5
33F
100
AcDbEntity
  8
0
100
AcDbLine
 62
7
  6
CONTINUOUS
 10
179.1306221889
 20
114.1014336582
 11
180.6306221889
 21
114.1014336582
  0
LINE
  5
340
100
AcDbEntity
  8
0
100
AcDbLine
 62
7
  6
CONTINUOUS
 10
180.6306221889
 20
114.4844123806
 11
179.5056221889
 21
114.4844123806
  0
LINE
  5
341
100
AcDbEntity
  8
0
100
AcDbLine
 62
7
  6
CONTINUOUS
 10
177.6306221889
 20
114.4844123806
 11
177.3806220697
 21
114.4844123806
  0
LINE
  5
342
100
AcDbEntity
  8
0
100
AcDbLine
 62
7
  6
CONTINUOUS
 10
178.0056221293
 20
112.5376038785
 11
177.6931221591
 21
112.6014336582
  0
LINE
  5
343
100
AcDbEntity
  8
0
100
AcDbLine
 62
7
  6
CONTINUOUS
 10
177.0681221889
 20
114.1652634434
 11
177.3806220697
 21
114.1014336582
  0
LINE
  5
344
100
AcDbEntity
  8
0
100
AcDbLine
 62
7
  6
CONTINUOUS
 10
177.3806220697
 20
114.4844123806
 11
177.1306223081
 21
114.5482421602
  0
LINE
  5
345
100
AcDbEntity
  8
0
100
AcDbLine
 62
7
  6
CONTINUOUS
 10
177.7556221889
 20
112.28228476
 11
177.9431221889
 21
112.2184549804
  0
LINE
  5
346
100
AcDbEntity
  8
0
100
AcDbLine
 62
7
  6
CONTINUOUS
 10
178.3806221293
 20
111.2610081072
 11
178.0681222485
 21
111.4524974461
  0
LINE
  5
347
100
AcDbEntity
  8
0
100
AcDbLine
 62
7
  6
CONTINUOUS
 10
177.1931221889
 20
109.9844123806
 11
177.0056221889
 21
110.1120719399
  0
LINE
  5
348
100
AcDbEntity
  8
0
100
AcDbLine
 62
7
  6
CONTINUOUS
 10
178.0056221293
 20
111.133348548
 11
178.1931221293
 21
111.0056889887
  0
LINE
  5
349
100
AcDbEntity
  8
BEZUGSACHSEN
100
AcDbLine
 62
7
  6
CONTINUOUS
 10
161.5681221889
 20
152.1114299572
 11
161.5681221889
 21
162.6014336582
  0
LINE
  5
34A
100
AcDbEntity
  8
0
100
AcDbLine
 62
7
  6
CONTINUOUS
 10
173.8806221889
 20
115.4418592091
 11
174.9431221591
 21
115.4418592091
  0
LINE
  5
34B
100
AcDbEntity
  8
0
100
AcDbLine
 62
7
  6
CONTINUOUS
 10
175.0681221293
 20
115.8248378869
 11
173.8806221889
 21
115.8248378869
  0
LINE
  5
34C
100
AcDbEntity
  8
0
100
AcDbLine
 62
7
  6
CONTINUOUS
 10
179.5056221889
 20
116.7184549804
 11
180.6306221889
 21
116.7184549804
  0
LINE
  5
34D
100
AcDbEntity
  8
0
100
AcDbLine
 62
7
  6
CONTINUOUS
 10
173.8806221889
 20
116.78228476
 11
175.0681221293
 21
116.78228476
  0
LINE
  5
34E
100
AcDbEntity
  8
0
100
AcDbLine
 62
7
  6
CONTINUOUS
 10
180.6306221889
 20
117.1014336582
 11
179.1306221889
 21
117.1014336582
  0
LINE
  5
34F
100
AcDbEntity
  8
0
100
AcDbLine
 62
7
  6
CONTINUOUS
 10
178.6306223081
 20
117.1014336582
 11
178.2556223081
 21
117.1014336582
  0
LINE
  5
350
100
AcDbEntity
  8
0
100
AcDbLine
 62
7
  6
CONTINUOUS
 10
176.7556223081
 20
117.1014336582
 11
176.3806221293
 21
117.1014336582
  0
LINE
  5
351
100
AcDbEntity
  8
0
100
AcDbLine
 62
7
  6
CONTINUOUS
 10
175.0056221889
 20
117.1014336582
 11
173.5056221889
 21
117.1014336582
  0
LINE
  5
352
100
AcDbEntity
  8
0
100
AcDbLine
 62
7
  6
CONTINUOUS
 10
175.3181222485
 20
117.0376038785
 11
175.0056221889
 21
117.1014336582
  0
LINE
  5
353
100
AcDbEntity
  8
0
100
AcDbLine
 62
7
  6
CONTINUOUS
 10
175.0681221293
 20
116.78228476
 11
175.2556221293
 21
116.7184549804
  0
LINE
  5
354
100
AcDbEntity
  8
0
100
AcDbLine
 62
7
  6
CONTINUOUS
 10
176.8181220697
 20
114.2929230194
 11
177.0681221889
 21
114.1652634434
  0
LINE
  5
355
100
AcDbEntity
  8
0
100
AcDbLine
 62
7
  6
CONTINUOUS
 10
178.3181221889
 20
112.3461145397
 11
178.0056221293
 21
112.5376038785
  0
LINE
  5
356
100
AcDbEntity
  8
0
100
AcDbLine
 62
7
  6
CONTINUOUS
 10
177.9431221889
 20
112.2184549804
 11
178.1306221889
 21
112.0907954212
  0
LINE
  5
357
100
AcDbEntity
  8
0
100
AcDbLine
 62
7
  6
CONTINUOUS
 10
177.1306223081
 20
114.5482421602
 11
176.9431223081
 21
114.6759017642
  0
LINE
  5
358
100
AcDbEntity
  8
0
100
AcDbLine
 62
7
  6
CONTINUOUS
 10
178.1931221293
 20
111.0056889887
 11
178.3181221889
 21
110.8780294295
  0
LINE
  5
359
100
AcDbEntity
  8
0
100
AcDbLine
 62
7
  6
CONTINUOUS
 10
180.9431224273
 20
117.0376038785
 11
180.6306221889
 21
117.1014336582
  0
LINE
  5
35A
100
AcDbEntity
  8
0
100
AcDbLine
 62
7
  6
CONTINUOUS
 10
180.6306221889
 20
116.7184549804
 11
180.8806219505
 21
116.6546252008
  0
LINE
  5
35B
100
AcDbEntity
  8
0
100
AcDbLine
 62
7
  6
CONTINUOUS
 10
175.5681221889
 20
116.8461145397
 11
175.3181222485
 21
117.0376038785
  0
LINE
  5
35C
100
AcDbEntity
  8
0
100
AcDbLine
 62
7
  6
CONTINUOUS
 10
178.5681221293
 20
111.0695187684
 11
178.3806221293
 21
111.2610081072
  0
LINE
  5
35D
100
AcDbEntity
  8
0
100
AcDbLine
 62
7
  6
CONTINUOUS
 10
176.5681223081
 20
114.5482421602
 11
176.8181220697
 21
114.2929230194
  0
LINE
  5
35E
100
AcDbEntity
  8
0
100
AcDbLine
 62
7
  6
CONTINUOUS
 10
175.2556221293
 20
116.7184549804
 11
175.3806221889
 21
116.5907954212
  0
LINE
  5
35F
100
AcDbEntity
  8
0
100
AcDbLine
 62
7
  6
CONTINUOUS
 10
176.6306221889
 20
110.1120719399
 11
176.8181221889
 21
109.856752799
  0
LINE
  5
360
100
AcDbEntity
  8
0
100
AcDbLine
 62
7
  6
CONTINUOUS
 10
177.0056221889
 20
110.1120719399
 11
176.880622174
 21
110.3035613235
  0
LINE
  5
361
100
AcDbEntity
  8
0
100
AcDbLine
 62
7
  6
CONTINUOUS
 10
186.0681221889
 20
121.5514336582
 11
186.5681221889
 21
121.5514336582
  0
LINE
  5
362
100
AcDbEntity
  8
0
100
AcDbLine
 62
7
  6
CONTINUOUS
 10
186.0681221889
 20
121.6152634434
 11
186.5681221889
 21
121.6152634434
  0
LINE
  5
363
100
AcDbEntity
  8
0
100
AcDbLine
 62
7
  6
CONTINUOUS
 10
186.0681221889
 20
121.806752799
 11
186.5681221889
 21
121.806752799
  0
LINE
  5
364
100
AcDbEntity
  8
0
100
AcDbLine
 62
7
  6
CONTINUOUS
 10
186.0681221889
 20
122.0620719399
 11
186.5681221889
 21
122.0620719399
  0
LINE
  5
365
100
AcDbEntity
  8
0
100
AcDbLine
 62
7
  6
CONTINUOUS
 10
186.0681221889
 20
122.3812208827
 11
186.5681221889
 21
122.3812208827
  0
LINE
  5
366
100
AcDbEntity
  8
0
100
AcDbLine
 62
7
  6
CONTINUOUS
 10
181.1931221889
 20
116.9099443193
 11
180.9431224273
 21
117.0376038785
  0
LINE
  5
367
100
AcDbEntity
  8
0
100
AcDbLine
 62
7
  6
CONTINUOUS
 10
180.8806219505
 20
116.6546252008
 11
181.0681219505
 21
116.5269656415
  0
LINE
  5
368
100
AcDbEntity
  8
0
100
AcDbLine
 62
7
  6
CONTINUOUS
 10
178.5056221889
 20
112.0907954212
 11
178.3181221889
 21
112.3461145397
  0
LINE
  5
369
100
AcDbEntity
  8
0
100
AcDbLine
 62
7
  6
CONTINUOUS
 10
175.7556221889
 20
116.5907954212
 11
175.5681221889
 21
116.8461145397
  0
LINE
  5
36A
100
AcDbEntity
  8
0
100
AcDbLine
 62
7
  6
CONTINUOUS
 10
178.1306221889
 20
112.0907954212
 11
178.2556222485
 21
111.8993060823
  0
LINE
  5
36B
100
AcDbEntity
  8
0
100
AcDbLine
 62
7
  6
CONTINUOUS
 10
176.9431223081
 20
114.6759017642
 11
176.8181220697
 21
114.8673911031
  0
LINE
  5
36C
100
AcDbEntity
  8
BEZUGSACHSEN
100
AcDbLine
 62
7
  6
CONTINUOUS
 10
169.0681221889
 20
126.6014336582
 11
169.0681221889
 21
119.9331945245
  0
LINE
  5
36D
100
AcDbEntity
  8
0
100
AcDbLine
 62
7
  6
CONTINUOUS
 10
186.0681221889
 20
122.8280294295
 11
186.5681221889
 21
122.8280294295
  0
LINE
  5
36E
100
AcDbEntity
  8
0
100
AcDbLine
 62
7
  6
CONTINUOUS
 10
186.0681221889
 20
123.2748378869
 11
186.5681221889
 21
123.2748378869
  0
LINE
  5
36F
100
AcDbEntity
  8
0
100
AcDbLine
 62
7
  6
CONTINUOUS
 10
186.0681221889
 20
123.7216463442
 11
186.5681221889
 21
123.7216463442
  0
LINE
  5
370
100
AcDbEntity
  8
0
100
AcDbLine
 62
7
  6
CONTINUOUS
 10
186.0681221889
 20
124.0407954212
 11
186.5681221889
 21
124.0407954212
  0
LINE
  5
371
100
AcDbEntity
  8
0
100
AcDbLine
 62
7
  6
CONTINUOUS
 10
186.0681221889
 20
124.2961145397
 11
186.5681221889
 21
124.2961145397
  0
LINE
  5
372
100
AcDbEntity
  8
0
100
AcDbLine
 62
7
  6
CONTINUOUS
 10
186.0681221889
 20
124.4876038785
 11
186.5681221889
 21
124.4876038785
  0
LINE
  5
373
100
AcDbEntity
  8
0
100
AcDbLine
 62
7
  6
CONTINUOUS
 10
186.0681221889
 20
124.5514336582
 11
186.5681221889
 21
124.5514336582
  0
LINE
  5
374
100
AcDbEntity
  8
0
100
AcDbLine
 62
7
  6
CONTINUOUS
 10
181.4431219505
 20
116.6546252008
 11
181.1931221889
 21
116.9099443193
  0
LINE
  5
375
100
AcDbEntity
  8
0
100
AcDbLine
 62
7
  6
CONTINUOUS
 10
176.4431222485
 20
114.8035613235
 11
176.5681223081
 21
114.5482421602
  0
LINE
  5
376
100
AcDbEntity
  8
0
100
AcDbLine
 62
7
  6
CONTINUOUS
 10
176.5056221908
 20
110.4312208827
 11
176.6306221889
 21
110.1120719399
  0
LINE
  5
377
100
AcDbEntity
  8
0
100
AcDbLine
 62
7
  6
CONTINUOUS
 10
175.8806222485
 20
114.1014336582
 11
175.3181222485
 21
115.5695187684
  0
LINE
  5
378
100
AcDbEntity
  8
0
100
AcDbLine
 62
7
  6
CONTINUOUS
 10
174.9431221591
 20
115.4418592091
 11
175.4431221293
 21
114.1014336582
  0
LINE
  5
379
100
AcDbEntity
  8
0
100
AcDbLine
 62
7
  6
CONTINUOUS
 10
176.880622174
 20
110.3035613235
 11
176.8181221889
 21
110.4950506623
  0
LINE
  5
37A
100
AcDbEntity
  8
_30_VOLUMEN
100
AcDbLine
 62
7
  6
CONTINUOUS
 10
171.0948683396
 20
155.6014336582
 11
171.0948683396
 21
154.6014336582
  0
LINE
  5
37B
100
AcDbEntity
  8
0
100
AcDbLine
 62
7
  6
CONTINUOUS
 10
172.0681221889
 20
125.738054354
 11
172.0681221889
 21
128.6547207425
  0
LINE
  5
37C
100
AcDbEntity
  8
0
100
AcDbLine
 62
7
  6
CONTINUOUS
 10
172.0681221889
 20
129.2380539368
 11
172.0681221889
 21
131.8630541454
  0
LINE
  5
37D
100
AcDbEntity
  8
0
100
AcDbLine
 62
7
  6
CONTINUOUS
 10
172.0681221889
 20
132.4463873396
 11
172.0681221889
 21
135.2172207425
  0
LINE
  5
37E
100
AcDbEntity
  8
BEZUGSACHSEN
100
AcDbLine
 62
7
  6
CONTINUOUS
 10
172.5681221889
 20
142.1791283386
 11
172.5681221889
 21
123.1948202806
  0
LINE
  5
37F
100
AcDbEntity
  8
0
100
AcDbLine
 62
7
  6
CONTINUOUS
 10
182.5681221889
 20
125.6014336582
 11
183.0681221889
 21
125.6014336582
  0
LINE
  5
380
100
AcDbEntity
  8
0
100
AcDbLine
 62
7
  6
CONTINUOUS
 10
182.5681221889
 20
125.66393366
 11
183.0681221889
 21
125.66393366
  0
LINE
  5
381
100
AcDbEntity
  8
0
100
AcDbLine
 62
7
  6
CONTINUOUS
 10
172.5681221889
 20
125.738054354
 11
172.0681221889
 21
125.738054354
  0
LINE
  5
382
100
AcDbEntity
  8
0
100
AcDbLine
 62
7
  6
CONTINUOUS
 10
182.5681221889
 20
125.7889336582
 11
183.0681221889
 21
125.7889336582
  0
LINE
  5
383
100
AcDbEntity
  8
0
100
AcDbLine
 62
7
  6
CONTINUOUS
 10
172.5681221889
 20
125.8109707425
 11
172.0681221889
 21
125.8109707425
  0
LINE
  5
384
100
AcDbEntity
  8
0
100
AcDbLine
 62
7
  6
CONTINUOUS
 10
172.5681221889
 20
125.956804354
 11
172.0681221889
 21
125.956804354
  0
LINE
  5
385
100
AcDbEntity
  8
0
100
AcDbLine
 62
7
  6
CONTINUOUS
 10
182.5681221889
 20
126.0389336433
 11
183.0681221889
 21
126.0389336433
  0
LINE
  5
386
100
AcDbEntity
  8
0
100
AcDbLine
 62
7
  6
CONTINUOUS
 10
172.5681221889
 20
126.2484707425
 11
172.0681221889
 21
126.2484707425
  0
LINE
  5
387
100
AcDbEntity
  8
0
100
AcDbLine
 62
7
  6
CONTINUOUS
 10
182.5681221889
 20
126.2889336731
 11
183.0681221889
 21
126.2889336731
  0
LINE
  5
388
100
AcDbEntity
  8
0
100
AcDbLine
 62
7
  6
CONTINUOUS
 10
172.5681221889
 20
126.540137131
 11
172.0681221889
 21
126.540137131
  0
LINE
  5
389
100
AcDbEntity
  8
0
100
AcDbLine
 62
7
  6
CONTINUOUS
 10
182.5681221889
 20
126.601433688
 11
183.0681221889
 21
126.601433688
  0
LINE
  5
38A
100
AcDbEntity
  8
0
100
AcDbLine
 62
7
  6
CONTINUOUS
 10
172.5681221889
 20
126.9047207425
 11
172.0681221889
 21
126.9047207425
  0
LINE
  5
38B
100
AcDbEntity
  8
0
100
AcDbLine
 62
7
  6
CONTINUOUS
 10
182.5681221889
 20
127.1639335986
 11
183.0681221889
 21
127.1639335986
  0
LINE
  5
38C
100
AcDbEntity
  8
0
100
AcDbLine
 62
7
  6
CONTINUOUS
 10
181.0681219505
 20
116.5269656415
 11
181.1931221889
 21
116.3354761239
  0
LINE
  5
38D
100
AcDbEntity
  8
0
100
AcDbLine
 62
7
  6
CONTINUOUS
 10
178.6931221889
 20
110.7503698702
 11
178.5681221293
 21
111.0695187684
  0
LINE
  5
38E
100
AcDbEntity
  8
0
100
AcDbLine
 62
7
  6
CONTINUOUS
 10
175.3806221889
 20
116.5907954212
 11
175.4431221293
 21
116.3993060823
  0
LINE
  5
38F
100
AcDbEntity
  8
0
100
AcDbLine
 62
7
  6
CONTINUOUS
 10
175.8181221293
 20
116.3993060823
 11
175.7556221889
 21
116.5907954212
  0
LINE
  5
390
100
AcDbEntity
  8
0
100
AcDbLine
 62
7
  6
CONTINUOUS
 10
178.3181221889
 20
110.8780294295
 11
178.3806221293
 21
110.6865400012
  0
LINE
  5
391
100
AcDbEntity
  8
0
100
AcDbLine
 62
7
  6
CONTINUOUS
 10
178.5681221293
 20
111.8993060823
 11
178.5056221889
 21
112.0907954212
  0
LINE
  5
392
100
AcDbEntity
  8
0
100
AcDbLine
 62
7
  6
CONTINUOUS
 10
176.8181220697
 20
114.8673911031
 11
176.7556223081
 21
115.1227102216
  0
LINE
  5
393
100
AcDbEntity
  8
0
100
AcDbLine
 62
7
  6
CONTINUOUS
 10
173.5056221889
 20
117.1014336582
 11
173.5056221889
 21
114.1014336582
  0
LINE
  5
394
100
AcDbEntity
  8
_30_VOLUMEN
100
AcDbLine
 62
7
  6
CONTINUOUS
 10
173.8681221889
 20
162.5707549259
 11
173.8681221889
 21
149.0014336582
  0
LINE
  5
395
100
AcDbEntity
  8
0
100
AcDbLine
 62
7
  6
CONTINUOUS
 10
173.8806221889
 20
114.1014336582
 11
173.8806221889
 21
115.4418592091
  0
LINE
  5
396
100
AcDbEntity
  8
0
100
AcDbLine
 62
7
  6
CONTINUOUS
 10
173.8806221889
 20
115.8248378869
 11
173.8806221889
 21
116.78228476
  0
LINE
  5
397
100
AcDbEntity
  8
0
100
AcDbLine
 62
7
  6
CONTINUOUS
 10
175.4431221293
 20
116.3993060823
 11
175.4431221293
 21
116.2078165646
  0
LINE
  5
398
100
AcDbEntity
  8
RUNDUNGEN
100
AcDbLine
 62
7
  6
CONTINUOUS
 10
182.9833273633
 20
137.9173873332
 11
186.5681221889
 21
139.9870743042
  0
LINE
  5
399
100
AcDbEntity
  8
0
100
AcDbLine
 62
7
  6
CONTINUOUS
 10
182.5681221889
 20
127.4764336582
 11
183.0681221889
 21
127.4764336582
  0
LINE
  5
39A
100
AcDbEntity
  8
0
100
AcDbLine
 62
7
  6
CONTINUOUS
 10
182.5681221889
 20
127.7264335986
 11
183.0681221889
 21
127.7264335986
  0
LINE
  5
39B
100
AcDbEntity
  8
0
100
AcDbLine
 62
7
  6
CONTINUOUS
 10
182.5681221889
 20
127.9764337178
 11
183.0681221889
 21
127.9764337178
  0
LINE
  5
39C
100
AcDbEntity
  8
0
100
AcDbLine
 62
7
  6
CONTINUOUS
 10
182.5681221889
 20
128.0389336582
 11
183.0681221889
 21
128.0389336582
  0
LINE
  5
39D
100
AcDbEntity
  8
0
100
AcDbLine
 62
7
  6
CONTINUOUS
 10
182.5681221889
 20
128.5389337178
 11
183.0681221889
 21
128.5389337178
  0
LINE
  5
39E
100
AcDbEntity
  8
0
100
AcDbLine
 62
7
  6
CONTINUOUS
 10
182.5681221889
 20
128.6014336582
 11
183.0681221889
 21
128.6014336582
  0
LINE
  5
39F
100
AcDbEntity
  8
0
100
AcDbLine
 62
7
  6
CONTINUOUS
 10
172.5681221889
 20
128.6547207425
 11
172.0681221889
 21
128.6547207425
  0
LINE
  5
3A0
100
AcDbEntity
  8
0
100
AcDbLine
 62
7
  6
CONTINUOUS
 10
182.5681221889
 20
128.726433539
 11
183.0681221889
 21
128.726433539
  0
LINE
  5
3A1
100
AcDbEntity
  8
0
100
AcDbLine
 62
7
  6
CONTINUOUS
 10
182.5681221889
 20
128.9764336582
 11
183.0681221889
 21
128.9764336582
  0
LINE
  5
3A2
100
AcDbEntity
  8
0
100
AcDbLine
 62
7
  6
CONTINUOUS
 10
182.5681221889
 20
129.2264337774
 11
183.0681221889
 21
129.2264337774
  0
LINE
  5
3A3
100
AcDbEntity
  8
0
100
AcDbLine
 62
7
  6
CONTINUOUS
 10
172.5681221889
 20
129.2380539368
 11
172.0681221889
 21
129.2380539368
  0
LINE
  5
3A4
100
AcDbEntity
  8
0
100
AcDbLine
 62
7
  6
CONTINUOUS
 10
182.5681221889
 20
129.5389336582
 11
183.0681221889
 21
129.5389336582
  0
LINE
  5
3A5
100
AcDbEntity
  8
0
100
AcDbLine
 62
7
  6
CONTINUOUS
 10
172.5681221889
 20
129.6755539368
 11
172.0681221889
 21
129.6755539368
  0
LINE
  5
3A6
100
AcDbEntity
  8
0
100
AcDbLine
 62
7
  6
CONTINUOUS
 10
172.5681221889
 20
129.7484707425
 11
172.0681221889
 21
129.7484707425
  0
LINE
  5
3A7
100
AcDbEntity
  8
0
100
AcDbLine
 62
7
  6
CONTINUOUS
 10
181.5681221889
 20
116.3993060823
 11
181.4431219505
 21
116.6546252008
  0
LINE
  5
3A8
100
AcDbEntity
  8
0
100
AcDbLine
 62
7
  6
CONTINUOUS
 10
176.3806221293
 20
115.1227102216
 11
176.4431222485
 21
114.8035613235
  0
LINE
  5
3A9
100
AcDbEntity
  8
0
100
AcDbLine
 62
7
  6
CONTINUOUS
 10
176.4431221889
 20
110.8780294295
 11
176.5056221908
 21
110.4312208827
  0
LINE
  5
3AA
100
AcDbEntity
  8
0
100
AcDbLine
 62
7
  6
CONTINUOUS
 10
175.8181221293
 20
116.143986785
 11
175.8181221293
 21
116.3993060823
  0
LINE
  5
3AB
100
AcDbEntity
  8
0
100
AcDbLine
 62
7
  6
CONTINUOUS
 10
176.3806221293
 20
117.1014336582
 11
176.3806221293
 21
115.1227102216
  0
LINE
  5
3AC
100
AcDbEntity
  8
0
100
AcDbLine
 62
7
  6
CONTINUOUS
 10
176.4431221889
 20
111.3248378869
 11
176.4431221889
 21
110.8780294295
  0
LINE
  5
3AD
100
AcDbEntity
  8
0
100
AcDbLine
 62
7
  6
CONTINUOUS
 10
176.7556221815
 20
111.1971783276
 11
176.7556221815
 21
111.3248378869
  0
LINE
  5
3AE
100
AcDbEntity
  8
0
100
AcDbLine
 62
7
  6
CONTINUOUS
 10
176.7556223081
 20
115.1227102216
 11
176.7556223081
 21
117.1014336582
  0
LINE
  5
3AF
100
AcDbEntity
  8
0
100
AcDbLine
 62
7
  6
CONTINUOUS
 10
176.8181221889
 20
110.4950506623
 11
176.8181221889
 21
110.6865400012
  0
LINE
  5
3B0
100
AcDbEntity
  8
_21_KURVEN
100
AcDbLine
 62
4
  6
CONTINUOUS
 10
177.5681221889
 20
149.8255794254
 11
177.5681221889
 21
162.2780640057
  0
LINE
  5
3B1
100
AcDbEntity
  8
0
100
AcDbLine
 62
7
  6
CONTINUOUS
 10
172.5681221889
 20
129.8943039368
 11
172.0681221889
 21
129.8943039368
  0
LINE
  5
3B2
100
AcDbEntity
  8
0
100
AcDbLine
 62
7
  6
CONTINUOUS
 10
182.5681221889
 20
130.1014336582
 11
183.0681221889
 21
130.1014336582
  0
LINE
  5
3B3
100
AcDbEntity
  8
0
100
AcDbLine
 62
7
  6
CONTINUOUS
 10
172.5681221889
 20
130.1130539368
 11
172.0681221889
 21
130.1130539368
  0
LINE
  5
3B4
100
AcDbEntity
  8
0
100
AcDbLine
 62
7
  6
CONTINUOUS
 10
172.5681221889
 20
130.4047207425
 11
172.0681221889
 21
130.4047207425
  0
LINE
  5
3B5
100
AcDbEntity
  8
0
100
AcDbLine
 62
7
  6
CONTINUOUS
 10
182.5681221889
 20
130.413933539
 11
183.0681221889
 21
130.413933539
  0
LINE
  5
3B6
100
AcDbEntity
  8
0
100
AcDbLine
 62
7
  6
CONTINUOUS
 10
182.5681221889
 20
130.6639336582
 11
183.0681221889
 21
130.6639336582
  0
LINE
  5
3B7
100
AcDbEntity
  8
0
100
AcDbLine
 62
7
  6
CONTINUOUS
 10
172.5681221889
 20
130.6963875482
 11
172.0681221889
 21
130.6963875482
  0
LINE
  5
3B8
100
AcDbEntity
  8
0
100
AcDbLine
 62
7
  6
CONTINUOUS
 10
182.5681221889
 20
130.9139337774
 11
183.0681221889
 21
130.9139337774
  0
LINE
  5
3B9
100
AcDbEntity
  8
0
100
AcDbLine
 62
7
  6
CONTINUOUS
 10
182.5681221889
 20
130.976433539
 11
183.0681221889
 21
130.976433539
  0
LINE
  5
3BA
100
AcDbEntity
  8
0
100
AcDbLine
 62
7
  6
CONTINUOUS
 10
172.5681221889
 20
130.9880539368
 11
172.0681221889
 21
130.9880539368
  0
LINE
  5
3BB
100
AcDbEntity
  8
0
100
AcDbLine
 62
7
  6
CONTINUOUS
 10
172.5681221889
 20
131.2068039368
 11
172.0681221889
 21
131.2068039368
  0
LINE
  5
3BC
100
AcDbEntity
  8
0
100
AcDbLine
 62
7
  6
CONTINUOUS
 10
172.5681221889
 20
131.3526375482
 11
172.0681221889
 21
131.3526375482
  0
LINE
  5
3BD
100
AcDbEntity
  8
0
100
AcDbLine
 62
7
  6
CONTINUOUS
 10
172.5681221889
 20
131.4255539368
 11
172.0681221889
 21
131.4255539368
  0
LINE
  5
3BE
100
AcDbEntity
  8
0
100
AcDbLine
 62
7
  6
CONTINUOUS
 10
182.5681221889
 20
131.4764337774
 11
183.0681221889
 21
131.4764337774
  0
LINE
  5
3BF
100
AcDbEntity
  8
0
100
AcDbLine
 62
7
  6
CONTINUOUS
 10
182.5681221889
 20
131.6639334198
 11
183.0681221889
 21
131.6639334198
  0
LINE
  5
3C0
100
AcDbEntity
  8
0
100
AcDbLine
 62
7
  6
CONTINUOUS
 10
182.5681221889
 20
131.7264338966
 11
183.0681221889
 21
131.7264338966
  0
LINE
  5
3C1
100
AcDbEntity
  8
0
100
AcDbLine
 62
7
  6
CONTINUOUS
 10
172.5681221889
 20
131.8630541454
 11
172.0681221889
 21
131.8630541454
  0
LINE
  5
3C2
100
AcDbEntity
  8
0
100
AcDbLine
 62
7
  6
CONTINUOUS
 10
182.5681221889
 20
131.9764336582
 11
183.0681221889
 21
131.9764336582
  0
LINE
  5
3C3
100
AcDbEntity
  8
0
100
AcDbLine
 62
7
  6
CONTINUOUS
 10
181.1931221889
 20
116.3354761239
 11
181.2556219505
 21
116.0801570054
  0
LINE
  5
3C4
100
AcDbEntity
  8
0
100
AcDbLine
 62
7
  6
CONTINUOUS
 10
178.2556223081
 20
117.1014336582
 11
178.2556223081
 21
115.1227102216
  0
LINE
  5
3C5
100
AcDbEntity
  8
0
100
AcDbLine
 62
7
  6
CONTINUOUS
 10
178.3806221293
 20
110.6865400012
 11
178.3806221293
 21
110.4950506623
  0
LINE
  5
3C6
100
AcDbEntity
  8
0
100
AcDbLine
 62
7
  6
CONTINUOUS
 10
178.6306223081
 20
115.1227102216
 11
178.6306223081
 21
117.1014336582
  0
LINE
  5
3C7
100
AcDbEntity
  8
0
100
AcDbLine
 62
7
  6
CONTINUOUS
 10
178.6931221889
 20
110.4312208827
 11
178.6931221889
 21
110.7503698702
  0
LINE
  5
3C8
100
AcDbEntity
  8
0
100
AcDbLine
 62
7
  6
CONTINUOUS
 10
179.1306221889
 20
117.1014336582
 11
179.1306221889
 21
114.1014336582
  0
LINE
  5
3C9
100
AcDbEntity
  8
0
100
AcDbLine
 62
7
  6
CONTINUOUS
 10
179.5056221889
 20
114.4844123806
 11
179.5056221889
 21
116.7184549804
  0
LINE
  5
3CA
100
AcDbEntity
  8
0
100
AcDbLine
 62
7
  6
CONTINUOUS
 10
176.5056221908
 20
111.7716463442
 11
176.4431221889
 21
111.3248378869
  0
LINE
  5
3CB
100
AcDbEntity
  8
0
100
AcDbLine
 62
7
  6
CONTINUOUS
 10
176.7556221815
 20
111.3248378869
 11
176.8181221889
 21
111.7078165646
  0
LINE
  5
3CC
100
AcDbEntity
  8
0
100
AcDbLine
 62
7
  6
CONTINUOUS
 10
182.5681221889
 20
132.2264334198
 11
183.0681221889
 21
132.2264334198
  0
LINE
  5
3CD
100
AcDbEntity
  8
0
100
AcDbLine
 62
7
  6
CONTINUOUS
 10
172.5681221889
 20
132.4463873396
 11
172.0681221889
 21
132.4463873396
  0
LINE
  5
3CE
100
AcDbEntity
  8
0
100
AcDbLine
 62
7
  6
CONTINUOUS
 10
182.5681221889
 20
132.4764338966
 11
183.0681221889
 21
132.4764338966
  0
LINE
  5
3CF
100
AcDbEntity
  8
0
100
AcDbLine
 62
7
  6
CONTINUOUS
 10
172.5681221889
 20
132.5193041454
 11
172.0681221889
 21
132.5193041454
  0
LINE
  5
3D0
100
AcDbEntity
  8
0
100
AcDbLine
 62
7
  6
CONTINUOUS
 10
172.5681221889
 20
132.5922207425
 11
172.0681221889
 21
132.5922207425
  0
LINE
  5
3D1
100
AcDbEntity
  8
0
100
AcDbLine
 62
7
  6
CONTINUOUS
 10
182.5681221889
 20
132.7889334198
 11
183.0681221889
 21
132.7889334198
  0
LINE
  5
3D2
100
AcDbEntity
  8
0
100
AcDbLine
 62
7
  6
CONTINUOUS
 10
172.5681221889
 20
132.8109707425
 11
172.0681221889
 21
132.8109707425
  0
LINE
  5
3D3
100
AcDbEntity
  8
0
100
AcDbLine
 62
7
  6
CONTINUOUS
 10
182.5681221889
 20
133.1014336582
 11
183.0681221889
 21
133.1014336582
  0
LINE
  5
3D4
100
AcDbEntity
  8
0
100
AcDbLine
 62
7
  6
CONTINUOUS
 10
172.5681221889
 20
133.1026373396
 11
172.0681221889
 21
133.1026373396
  0
LINE
  5
3D5
100
AcDbEntity
  8
0
100
AcDbLine
 62
7
  6
CONTINUOUS
 10
182.5681221889
 20
133.3514334198
 11
183.0681221889
 21
133.3514334198
  0
LINE
  5
3D6
100
AcDbEntity
  8
0
100
AcDbLine
 62
7
  6
CONTINUOUS
 10
172.5681221889
 20
133.4672207425
 11
172.0681221889
 21
133.4672207425
  0
LINE
  5
3D7
100
AcDbEntity
  8
0
100
AcDbLine
 62
7
  6
CONTINUOUS
 10
182.5681221889
 20
133.5389334198
 11
183.0681221889
 21
133.5389334198
  0
LINE
  5
3D8
100
AcDbEntity
  8
0
100
AcDbLine
 62
7
  6
CONTINUOUS
 10
182.5681221889
 20
133.6014338966
 11
183.0681221889
 21
133.6014338966
  0
LINE
  5
3D9
100
AcDbEntity
  8
0
100
AcDbLine
 62
7
  6
CONTINUOUS
 10
182.5681221889
 20
133.6639336582
 11
183.0681221889
 21
133.6639336582
  0
LINE
  5
3DA
100
AcDbEntity
  8
0
100
AcDbLine
 62
7
  6
CONTINUOUS
 10
182.5681221889
 20
133.7889338966
 11
183.0681221889
 21
133.7889338966
  0
LINE
  5
3DB
100
AcDbEntity
  8
BEZUGSACHSEN
100
AcDbLine
 62
7
  6
CONTINUOUS
 10
172.1485722201
 20
137.9199005149
 11
168.5681221889
 21
139.9870743042
  0
LWPOLYLINE
  5
3DC
100
AcDbEntity
  8
BEZUGSACHSEN
100
AcDbPolyline
 62
7
  6
CONTINUOUS
 90
11
 70
0
 10
172.1436110176
 20
137.9227640909
 10
172.1845869336
 20
137.897179464
 10
172.2319089037
 20
137.8611063753
 10
172.289950419
 20
137.8069884061
 10
172.3543180857
 20
137.7327180196
 10
172.4159738446
 20
137.6434716246
 10
172.4725449855
 20
137.5380247288
 10
172.518887181
 20
137.4203959483
 10
172.5483897329
 20
137.3093989841
 10
172.5632209997
 20
137.2142848584
 10
172.5681014162
 20
137.1270372625
  0
LINE
  5
3DD
100
AcDbEntity
  8
0
100
AcDbLine
 62
7
  6
CONTINUOUS
 10
181.6306219505
 20
116.0801570054
 11
181.5681221889
 21
116.3993060823
  0
LINE
  5
3DE
100
AcDbEntity
  8
0
100
AcDbLine
 62
7
  6
CONTINUOUS
 10
181.2556219505
 20
116.0801570054
 11
181.2556219505
 21
115.1227102216
  0
LINE
  5
3DF
100
AcDbEntity
  8
_30_VOLUMEN
100
AcDbLine
 62
7
  6
CONTINUOUS
 10
181.2681221889
 20
162.5707549259
 11
181.2681221889
 21
149.0014336582
  0
LINE
  5
3E0
100
AcDbEntity
  8
0
100
AcDbLine
 62
7
  6
CONTINUOUS
 10
181.6306219505
 20
115.1227102216
 11
181.6306219505
 21
116.0801570054
  0
LINE
  5
3E1
100
AcDbEntity
  8
RUNDUNGEN
100
AcDbLine
 62
7
  6
CONTINUOUS
 10
182.5681221889
 20
142.1791283386
 11
182.5681221889
 21
123.1948202806
  0
LWPOLYLINE
  5
3E2
100
AcDbEntity
  8
RUNDUNGEN
100
AcDbPolyline
 62
7
  6
CONTINUOUS
 90
11
 70
0
 10
182.5681427648
 20
137.1269739692
 10
182.5720900335
 20
137.2049265033
 10
182.5854163602
 20
137.297207034
 10
182.612355684
 20
137.4046374472
 10
182.6550951864
 20
137.5190325462
 10
182.7084226013
 20
137.6236589333
 10
182.7684539653
 20
137.7149424879
 10
182.8329093612
 20
137.7928612717
 10
182.8924353429
 20
137.850916078
 10
182.9419507453
 20
137.890351785
 10
182.9833273633
 20
137.9173873332
  0
LINE
  5
3E3
100
AcDbEntity
  8
0
100
AcDbLine
 62
7
  6
CONTINUOUS
 10
178.5681221889
 20
114.8035613235
 11
178.6306223081
 21
115.1227102216
  0
LINE
  5
3E4
100
AcDbEntity
  8
0
100
AcDbLine
 62
7
  6
CONTINUOUS
 10
178.2556223081
 20
115.1227102216
 11
178.1931221889
 21
114.8673911031
  0
LINE
  5
3E5
100
AcDbEntity
  8
0
100
AcDbLine
 62
7
  6
CONTINUOUS
 10
175.4431221293
 20
116.2078165646
 11
175.3806221889
 21
116.0163272257
  0
LINE
  5
3E6
100
AcDbEntity
  8
0
100
AcDbLine
 62
7
  6
CONTINUOUS
 10
175.7556221889
 20
115.9524974461
 11
175.8181221293
 21
116.143986785
  0
LINE
  5
3E7
100
AcDbEntity
  8
0
100
AcDbLine
 62
7
  6
CONTINUOUS
 10
172.5681221889
 20
135.2172207425
 11
172.0681221889
 21
135.2172207425
  0
LINE
  5
3E8
100
AcDbEntity
  8
0
100
AcDbLine
 62
7
  6
CONTINUOUS
 10
183.0681221889
 20
133.7889338966
 11
183.0681221889
 21
131.4764337774
  0
LINE
  5
3E9
100
AcDbEntity
  8
0
100
AcDbLine
 62
7
  6
CONTINUOUS
 10
183.0681221889
 20
130.976433539
 11
183.0681221889
 21
128.5389337178
  0
LINE
  5
3EA
100
AcDbEntity
  8
0
100
AcDbLine
 62
7
  6
CONTINUOUS
 10
183.0681221889
 20
128.0389336582
 11
183.0681221889
 21
125.6014336582
  0
LINE
  5
3EB
100
AcDbEntity
  8
_30_VOLUMEN
100
AcDbLine
 62
7
  6
CONTINUOUS
 10
184.0413760382
 20
155.6014336582
 11
184.0413760382
 21
154.6014336582
  0
LINE
  5
3EC
100
AcDbEntity
  8
0
100
AcDbLine
 62
7
  6
CONTINUOUS
 10
181.5681221889
 20
114.8035613235
 11
181.6306219505
 21
115.1227102216
  0
LINE
  5
3ED
100
AcDbEntity
  8
0
100
AcDbLine
 62
7
  6
CONTINUOUS
 10
176.8181221889
 20
111.7078165646
 11
176.880622174
 21
111.8993060823
  0
LINE
  5
3EE
100
AcDbEntity
  8
0
100
AcDbLine
 62
7
  6
CONTINUOUS
 10
176.8181221889
 20
110.6865400012
 11
176.880622174
 21
110.8780294295
  0
LINE
  5
3EF
100
AcDbEntity
  8
0
100
AcDbLine
 62
7
  6
CONTINUOUS
 10
178.3806221293
 20
110.4950506623
 11
178.3181221889
 21
110.3035613235
  0
LINE
  5
3F0
100
AcDbEntity
  8
0
100
AcDbLine
 62
7
  6
CONTINUOUS
 10
176.6306221889
 20
112.0907954212
 11
176.5056221908
 21
111.7716463442
  0
LINE
  5
3F1
100
AcDbEntity
  8
RUNDUNGEN
100
AcDbLine
 62
7
  6
CONTINUOUS
 10
186.0681221889
 20
126.6014336582
 11
186.0681221889
 21
119.9331945245
  0
LINE
  5
3F2
100
AcDbEntity
  8
0
100
AcDbLine
 62
7
  6
CONTINUOUS
 10
186.5681221889
 20
124.5514336582
 11
186.5681221889
 21
121.5514336582
  0
LINE
  5
3F3
100
AcDbEntity
  8
0
100
AcDbLine
 62
7
  6
CONTINUOUS
 10
181.2556219505
 20
115.1227102216
 11
181.1931221889
 21
114.8673911031
  0
LINE
  5
3F4
100
AcDbEntity
  8
0
100
AcDbLine
 62
7
  6
CONTINUOUS
 10
178.5681221293
 20
110.1120719399
 11
178.6931221889
 21
110.4312208827
  0
LINE
  5
3F5
100
AcDbEntity
  8
0
100
AcDbLine
 62
7
  6
CONTINUOUS
 10
178.4431223081
 20
114.5482421602
 11
178.5681221889
 21
114.8035613235
  0
LINE
  5
3F6
100
AcDbEntity
  8
0
100
AcDbLine
 62
7
  6
CONTINUOUS
 10
178.1931221889
 20
114.8673911031
 11
178.0681223081
 21
114.6759017642
  0
LINE
  5
3F7
100
AcDbEntity
  8
0
100
AcDbLine
 62
7
  6
CONTINUOUS
 10
175.5681221889
 20
115.6971783276
 11
175.7556221889
 21
115.9524974461
  0
LINE
  5
3F8
100
AcDbEntity
  8
0
100
AcDbLine
 62
7
  6
CONTINUOUS
 10
175.3806221889
 20
116.0163272257
 11
175.2556221293
 21
115.8886676665
  0
LINE
  5
3F9
100
AcDbEntity
  8
0
100
AcDbLine
 62
7
  6
CONTINUOUS
 10
181.4431219505
 20
114.5482421602
 11
181.5681221889
 21
114.8035613235
  0
LINE
  5
3FA
100
AcDbEntity
  8
0
100
AcDbLine
 62
7
  6
CONTINUOUS
 10
176.880622174
 20
111.8993060823
 11
177.0056221889
 21
112.0907954212
  0
LINE
  5
3FB
100
AcDbEntity
  8
0
100
AcDbLine
 62
7
  6
CONTINUOUS
 10
181.1931221889
 20
114.8673911031
 11
181.0681219505
 21
114.6759017642
  0
LINE
  5
3FC
100
AcDbEntity
  8
0
100
AcDbLine
 62
7
  6
CONTINUOUS
 10
176.8181221889
 20
112.3461145397
 11
176.6306221889
 21
112.0907954212
  0
LINE
  5
3FD
100
AcDbEntity
  8
0
100
AcDbLine
 62
7
  6
CONTINUOUS
 10
178.3181221889
 20
110.3035613235
 11
178.1931221293
 21
110.1120719399
  0
LINE
  5
3FE
100
AcDbEntity
  8
0
100
AcDbLine
 62
7
  6
CONTINUOUS
 10
178.3806221293
 20
109.856752799
 11
178.5681221293
 21
110.1120719399
  0
LINE
  5
3FF
100
AcDbEntity
  8
0
100
AcDbLine
 62
7
  6
CONTINUOUS
 10
178.1931221889
 20
114.2929230194
 11
178.4431223081
 21
114.5482421602
  0
LINE
  5
400
100
AcDbEntity
  8
0
100
AcDbLine
 62
7
  6
CONTINUOUS
 10
176.880622174
 20
110.8780294295
 11
177.0056221889
 21
111.0056889887
  0
LINE
  5
401
100
AcDbEntity
  8
0
100
AcDbLine
 62
7
  6
CONTINUOUS
 10
178.0681223081
 20
114.6759017642
 11
177.8806223081
 21
114.5482421602
  0
LINE
  5
402
100
AcDbEntity
  8
0
100
AcDbLine
 62
7
  6
CONTINUOUS
 10
175.3181222485
 20
115.5695187684
 11
175.5681221889
 21
115.6971783276
  0
LINE
  5
403
100
AcDbEntity
  8
0
100
AcDbLine
 62
7
  6
CONTINUOUS
 10
175.2556221293
 20
115.8886676665
 11
175.0681221293
 21
115.8248378869
  0
LINE
  5
404
100
AcDbEntity
  8
RUNDUNGEN
100
AcDbLine
 62
7
  6
CONTINUOUS
 10
193.5681221889
 20
152.1114299572
 11
193.5681221889
 21
162.6014336582
  0
LINE
  5
405
100
AcDbEntity
  8
0
100
AcDbLine
 62
7
  6
CONTINUOUS
 10
181.1931221889
 20
114.2929230194
 11
181.4431219505
 21
114.5482421602
  0
LINE
  5
406
100
AcDbEntity
  8
0
100
AcDbLine
 62
7
  6
CONTINUOUS
 10
177.0056221889
 20
112.0907954212
 11
177.1931221889
 21
112.2184549804
  0
LINE
  5
407
100
AcDbEntity
  8
0
100
AcDbLine
 62
7
  6
CONTINUOUS
 10
181.0681219505
 20
114.6759017642
 11
180.8806219505
 21
114.5482421602
  0
LINE
  5
408
100
AcDbEntity
  8
0
100
AcDbLine
 62
7
  6
CONTINUOUS
 10
177.1306222038
 20
111.4524974461
 11
176.7556221815
 21
111.1971783276
  0
LINE
  5
409
100
AcDbEntity
  8
0
100
AcDbLine
 62
7
  6
CONTINUOUS
 10
177.0056221889
 20
111.0056889887
 11
177.1931221889
 21
111.133348548
  0
LINE
  5
40A
100
AcDbEntity
  8
0
100
AcDbLine
 62
7
  6
CONTINUOUS
 10
177.1306222038
 20
112.5376038785
 11
176.8181221889
 21
112.3461145397
  0
LINE
  5
40B
100
AcDbEntity
  8
0
100
AcDbLine
 62
7
  6
CONTINUOUS
 10
177.9431220697
 20
114.1652634434
 11
178.1931221889
 21
114.2929230194
  0
LINE
  5
40C
100
AcDbEntity
  8
0
100
AcDbLine
 62
7
  6
CONTINUOUS
 10
178.1931221293
 20
110.1120719399
 11
178.0056221293
 21
109.9844123806
  0
LINE
  5
40D
100
AcDbEntity
  8
0
100
AcDbLine
 62
7
  6
CONTINUOUS
 10
178.0681222485
 20
109.6652634434
 11
178.3806221293
 21
109.856752799
  0
LINE
  5
40E
100
AcDbEntity
  8
0
100
AcDbLine
 62
7
  6
CONTINUOUS
 10
180.9431224273
 20
114.1652634434
 11
181.1931221889
 21
114.2929230194
  0
LINE
  5
40F
100
AcDbEntity
  8
0
100
AcDbLine
 62
7
  6
CONTINUOUS
 10
177.1931221889
 20
112.2184549804
 11
177.3806221889
 21
112.28228476
  0
LINE
  5
410
100
AcDbEntity
  8
0
100
AcDbLine
 62
7
  6
CONTINUOUS
 10
177.1931221889
 20
111.133348548
 11
177.3806221889
 21
111.1971783276
  0
LINE
  5
411
100
AcDbEntity
  8
0
100
AcDbLine
 62
7
  6
CONTINUOUS
 10
178.0056221293
 20
109.9844123806
 11
177.8181222187
 21
109.920582601
  0
LINE
  5
412
100
AcDbEntity
  8
_26_BEZUGSACHSEN
100
AcDbLine
 62
7
  6
CONTINUOUS
 10
181.2681221889
 20
152.1014336582
 11
173.8681221889
 21
152.1014336582
  0
LINE
  5
413
100
AcDbEntity
  8
_26_BEZUGSACHSEN
100
AcDbLine
 62
7
  6
CONTINUOUS
 10
181.2681221889
 20
159.6014336582
 11
173.8681221889
 21
159.6014336582
  0
LINE
  5
414
100
AcDbEntity
  8
BEZUGSACHSEN
100
AcDbLine
 62
7
  6
CONTINUOUS
 10
163.0681221889
 20
164.1014336582
 11
171.498724199
 21
164.1014336582
  0
LINE
  5
415
100
AcDbEntity
  8
BEZUGSACHSEN
100
AcDbLine
 62
7
  6
CONTINUOUS
 10
183.6375201788
 20
164.1014336582
 11
192.0681221889
 21
164.1014336582
  0
LINE
  5
416
100
AcDbEntity
  8
_30_VOLUMEN
100
AcDbLine
 62
7
  6
CONTINUOUS
 10
63.7139242914
 20
43.7517803598
 11
63.7139242914
 21
60.7517803598
  0
LINE
  5
417
100
AcDbEntity
  8
_30_VOLUMEN
100
AcDbLine
 62
7
  6
CONTINUOUS
 10
64.2139242914
 20
43.2517803598
 11
64.2139242914
 21
61.2517803598
  0
LINE
  5
418
100
AcDbEntity
  8
_30_VOLUMEN
100
AcDbLine
 62
7
  6
CONTINUOUS
 10
63.7139242914
 20
60.7517803598
 11
64.2139242914
 21
61.2517803598
  0
LINE
  5
419
100
AcDbEntity
  8
_30_VOLUMEN
100
AcDbLine
 62
7
  6
CONTINUOUS
 10
63.7139242914
 20
43.7517803598
 11
64.2139242914
 21
43.2517803598
  0
LINE
  5
41A
100
AcDbEntity
  8
_30_VOLUMEN
100
AcDbLine
 62
7
  6
CONTINUOUS
 10
70.7139242914
 20
43.2517803598
 11
70.7139242914
 21
61.2517803598
  0
LINE
  5
41B
100
AcDbEntity
  8
_30_VOLUMEN
100
AcDbLine
 62
7
  6
CONTINUOUS
 10
71.2139242914
 20
42.6659939222
 11
71.2139242914
 21
61.8375667974
  0
LINE
  5
41C
100
AcDbEntity
  8
RUNDUNGEN
100
AcDbLine
 62
7
  6
CONTINUOUS
 10
72.2139242914
 20
48.7517803598
 11
72.2139242914
 21
48.3767437292
  0
LINE
  5
41D
100
AcDbEntity
  8
BEZUGSACHSEN
100
AcDbLine
 62
7
  6
CONTINUOUS
 10
72.2139242914
 20
48.7517803598
 11
72.2139242914
 21
56.1268169904
  0
LINE
  5
41E
100
AcDbEntity
  8
RUNDUNGEN
100
AcDbLine
 62
7
  6
CONTINUOUS
 10
81.7139242914
 20
36.2517803598
 11
95.7139242914
 21
36.2517803598
  0
LINE
  5
41F
100
AcDbEntity
  8
0
100
AcDbLine
 62
7
  6
CONTINUOUS
 10
74.4464241949
 20
57.2517803598
 11
74.4464241949
 21
57.7517803598
  0
LINE
  5
420
100
AcDbEntity
  8
0
100
AcDbLine
 62
7
  6
CONTINUOUS
 10
74.7139242914
 20
47.2517803598
 11
74.7139242914
 21
46.7517803598
  0
LINE
  5
421
100
AcDbEntity
  8
0
100
AcDbLine
 62
7
  6
CONTINUOUS
 10
74.777754071
 20
47.2517803598
 11
74.777754071
 21
46.7517803598
  0
LINE
  5
422
100
AcDbEntity
  8
0
100
AcDbLine
 62
7
  6
CONTINUOUS
 10
74.9692434099
 20
47.2517803598
 11
74.9692434099
 21
46.7517803598
  0
LINE
  5
423
100
AcDbEntity
  8
0
100
AcDbLine
 62
7
  6
CONTINUOUS
 10
75.2245625284
 20
47.2517803598
 11
75.2245625284
 21
46.7517803598
  0
LINE
  5
424
100
AcDbEntity
  8
0
100
AcDbLine
 62
7
  6
CONTINUOUS
 10
75.4160518673
 20
47.2517803598
 11
75.4160518673
 21
46.7517803598
  0
LINE
  5
425
100
AcDbEntity
  8
0
100
AcDbLine
 62
7
  6
CONTINUOUS
 10
75.4798818257
 20
47.2517803598
 11
75.4798818257
 21
46.7517803598
  0
LINE
  5
426
100
AcDbEntity
  8
0
100
AcDbLine
 62
7
  6
CONTINUOUS
 10
75.607541385
 20
47.2517803598
 11
75.607541385
 21
46.7517803598
  0
LINE
  5
427
100
AcDbEntity
  8
0
100
AcDbLine
 62
7
  6
CONTINUOUS
 10
75.7990307238
 20
47.2517803598
 11
75.7990307238
 21
46.7517803598
  0
LINE
  5
428
100
AcDbEntity
  8
0
100
AcDbLine
 62
7
  6
CONTINUOUS
 10
75.9266902831
 20
47.2517803598
 11
75.9266902831
 21
46.7517803598
  0
LINE
  5
429
100
AcDbEntity
  8
0
100
AcDbLine
 62
7
  6
CONTINUOUS
 10
75.9905200627
 20
47.2517803598
 11
75.9905200627
 21
46.7517803598
  0
LINE
  5
42A
100
AcDbEntity
  8
0
100
AcDbLine
 62
7
  6
CONTINUOUS
 10
76.0543498423
 20
47.2517803598
 11
76.0543498423
 21
46.7517803598
  0
LINE
  5
42B
100
AcDbEntity
  8
0
100
AcDbLine
 62
7
  6
CONTINUOUS
 10
76.1820094016
 20
47.2517803598
 11
76.1820094016
 21
46.7517803598
  0
LINE
  5
42C
100
AcDbEntity
  8
0
100
AcDbLine
 62
7
  6
CONTINUOUS
 10
76.4373285201
 20
47.2517803598
 11
76.4373285201
 21
46.7517803598
  0
LINE
  5
42D
100
AcDbEntity
  8
0
100
AcDbLine
 62
7
  6
CONTINUOUS
 10
76.692647728
 20
47.2517803598
 11
76.692647728
 21
46.7517803598
  0
LINE
  5
42E
100
AcDbEntity
  8
0
100
AcDbLine
 62
7
  6
CONTINUOUS
 10
77.0117966261
 20
47.2517803598
 11
77.0117966261
 21
46.7517803598
  0
LINE
  5
42F
100
AcDbEntity
  8
0
100
AcDbLine
 62
7
  6
CONTINUOUS
 10
77.2671157893
 20
47.2517803598
 11
77.2671157893
 21
46.7517803598
  0
LINE
  5
430
100
AcDbEntity
  8
0
100
AcDbLine
 62
7
  6
CONTINUOUS
 10
77.5224349302
 20
47.2517803598
 11
77.5224349302
 21
46.7517803598
  0
LINE
  5
431
100
AcDbEntity
  8
0
100
AcDbLine
 62
7
  6
CONTINUOUS
 10
101.8639242914
 20
40.2517803598
 11
107.5104046984
 21
40.2517803598
  0
LINE
  5
432
100
AcDbEntity
  8
0
100
AcDbLine
 62
7
  6
CONTINUOUS
 10
101.8639242914
 20
40.2622015515
 11
105.1639242914
 21
40.2622015515
  0
LINE
  5
433
100
AcDbEntity
  8
0
100
AcDbLine
 62
7
  6
CONTINUOUS
 10
77.6500945062
 20
47.2517803598
 11
77.6500945062
 21
46.7517803598
  0
LINE
  5
434
100
AcDbEntity
  8
0
100
AcDbLine
 62
7
  6
CONTINUOUS
 10
77.7139242914
 20
47.2517803598
 11
77.7139242914
 21
46.7517803598
  0
LINE
  5
435
100
AcDbEntity
  8
0
100
AcDbLine
 62
7
  6
CONTINUOUS
 10
77.9464241949
 20
57.2517803598
 11
77.9464241949
 21
57.7517803598
  0
LINE
  5
436
100
AcDbEntity
  8
BEZUGSACHSEN
100
AcDbLine
 62
7
  6
CONTINUOUS
 10
73.5423514161
 20
40.7517803598
 11
78.7139242914
 21
40.7517803598
  0
LINE
  5
437
100
AcDbEntity
  8
BEZUGSACHSEN
100
AcDbLine
 62
7
  6
CONTINUOUS
 10
98.7139242914
 20
40.7517803598
 11
101.7139242914
 21
40.7517803598
  0
LINE
  5
438
100
AcDbEntity
  8
BEZUGSACHSEN
100
AcDbLine
 62
7
  6
CONTINUOUS
 10
107.5809048574
 20
40.7517803598
 11
110.1139242914
 21
40.7517803598
  0
LINE
  5
439
100
AcDbEntity
  8
0
100
AcDbLine
 62
7
  6
CONTINUOUS
 10
105.1639242914
 20
40.7626550667
 11
101.8639242914
 21
40.7626550667
  0
LINE
  5
43A
100
AcDbEntity
  8
_30_VOLUMEN
100
AcDbLine
 62
7
  6
CONTINUOUS
 10
80.2139242914
 20
37.7517803598
 11
80.2139242914
 21
49.9539553012
  0
LINE
  5
43B
100
AcDbEntity
  8
_30_VOLUMEN
100
AcDbLine
 62
7
  6
CONTINUOUS
 10
80.2139242914
 20
54.5496054184
 11
80.2139242914
 21
55.9408452077
  0
LINE
  5
43C
100
AcDbEntity
  8
_30_VOLUMEN
100
AcDbLine
 62
7
  6
CONTINUOUS
 10
80.2139242914
 20
55.9517803598
 11
80.2139242914
 21
66.7517803598
  0
LINE
  5
43D
100
AcDbEntity
  8
0
100
AcDbLine
 62
7
  6
CONTINUOUS
 10
105.4739242914
 20
43.2517803598
 11
103.2239242914
 21
43.2517803598
  0
LINE
  5
43E
100
AcDbEntity
  8
0
100
AcDbLine
 62
7
  6
CONTINUOUS
 10
64.2139242914
 20
43.2517803598
 11
70.7139242914
 21
43.2517803598
  0
LINE
  5
43F
100
AcDbEntity
  8
_30_VOLUMEN
100
AcDbLine
 62
7
  6
CONTINUOUS
 10
110.1139242914
 20
43.7517803598
 11
98.7139242914
 21
43.7517803598
  0
LINE
  5
440
100
AcDbEntity
  8
_30_VOLUMEN
100
AcDbLine
 62
7
  6
CONTINUOUS
 10
110.1139242914
 20
44.2319119445
 11
105.1139242914
 21
44.2319119445
  0
LINE
  5
441
100
AcDbEntity
  8
_30_VOLUMEN
100
AcDbLine
 62
7
  6
CONTINUOUS
 10
71.2139242914
 20
43.7517803598
 11
70.7139242914
 21
43.2517803598
  0
LINE
  5
442
100
AcDbEntity
  8
_30_VOLUMEN
100
AcDbLine
 62
7
  6
CONTINUOUS
 10
110.1139242914
 20
45.0017803598
 11
110.6139242914
 21
45.0017803598
  0
LINE
  5
443
100
AcDbEntity
  8
_30_VOLUMEN
100
AcDbLine
 62
7
  6
CONTINUOUS
 10
71.2139242914
 20
60.7517803598
 11
70.7139242914
 21
61.2517803598
  0
LINE
  5
444
100
AcDbEntity
  8
_26_BEZUGSACHSEN
100
AcDbLine
 62
7
  6
CONTINUOUS
 10
84.9639242914
 20
48.5517803598
 11
84.9639242914
 21
55.9517803598
  0
LINE
  5
445
100
AcDbEntity
  8
0
100
AcDbLine
 62
7
  6
CONTINUOUS
 10
77.7139242914
 20
46.7517803598
 11
74.7139242914
 21
46.7517803598
  0
LINE
  5
446
100
AcDbEntity
  8
_30_VOLUMEN
100
AcDbLine
 62
7
  6
CONTINUOUS
 10
110.1139242914
 20
47.1517803598
 11
105.1139242914
 21
47.1517803598
  0
LINE
  5
447
100
AcDbEntity
  8
RUNDUNGEN
100
AcDbLine
 62
7
  6
CONTINUOUS
 10
108.2139242914
 20
47.2517803598
 11
99.2139242914
 21
47.2517803598
  0
LINE
  5
448
100
AcDbEntity
  8
RUNDUNGEN
100
AcDbLine
 62
7
  6
CONTINUOUS
 10
78.2139242914
 20
47.2517803598
 11
73.7139242914
 21
47.2517803598
  0
LINE
  5
449
100
AcDbEntity
  8
_30_VOLUMEN
100
AcDbLine
 62
7
  6
CONTINUOUS
 10
108.148625241
 20
47.2517803598
 11
110.6139242914
 21
47.2517803598
  0
LINE
  5
44A
100
AcDbEntity
  8
_30_VOLUMEN
100
AcDbLine
 62
7
  6
CONTINUOUS
 10
110.7139242914
 20
47.2517803598
 11
113.6139242914
 21
47.2517803598
  0
LINE
  5
44B
100
AcDbEntity
  8
_30_VOLUMEN
100
AcDbLine
 62
7
  6
CONTINUOUS
 10
97.2139242914
 20
48.5517803598
 11
80.2139242914
 21
48.5517803598
  0
LINE
  5
44C
100
AcDbEntity
  8
0
100
AcDbLine
 62
7
  6
CONTINUOUS
 10
110.6139242914
 20
48.8517803598
 11
110.7139242914
 21
48.8517803598
  0
LINE
  5
44D
100
AcDbEntity
  8
_30_VOLUMEN
100
AcDbLine
 62
7
  6
CONTINUOUS
 10
110.6139242914
 20
49.8017803598
 11
110.7139242914
 21
49.8017803598
  0
LINE
  5
44E
100
AcDbEntity
  8
_30_VOLUMEN
100
AcDbLine
 62
7
  6
CONTINUOUS
 10
110.6139242914
 20
50.2517803598
 11
109.7139242914
 21
50.2517803598
  0
LINE
  5
44F
100
AcDbEntity
  8
_21_KURVEN
100
AcDbLine
 62
4
  6
CONTINUOUS
 10
79.0113885272
 20
52.2517803598
 11
98.4336487682
 21
52.2517803598
  0
LINE
  5
450
100
AcDbEntity
  8
_30_VOLUMEN
100
AcDbLine
 62
7
  6
CONTINUOUS
 10
110.7139242914
 20
52.2517803598
 11
113.6139242914
 21
52.2517803598
  0
LINE
  5
451
100
AcDbEntity
  8
_30_VOLUMEN
100
AcDbLine
 62
7
  6
CONTINUOUS
 10
109.7139242914
 20
54.2517803598
 11
110.6139242914
 21
54.2517803598
  0
LINE
  5
452
100
AcDbEntity
  8
_26_BEZUGSACHSEN
100
AcDbLine
 62
7
  6
CONTINUOUS
 10
92.4639242914
 20
48.5517803598
 11
92.4639242914
 21
55.9517803598
  0
LINE
  5
453
100
AcDbEntity
  8
_30_VOLUMEN
100
AcDbLine
 62
7
  6
CONTINUOUS
 10
110.6139242914
 20
54.7017803598
 11
110.7139242914
 21
54.7017803598
  0
LINE
  5
454
100
AcDbEntity
  8
0
100
AcDbLine
 62
7
  6
CONTINUOUS
 10
110.6139242914
 20
55.6517803598
 11
110.7139242914
 21
55.6517803598
  0
LINE
  5
455
100
AcDbEntity
  8
_30_VOLUMEN
100
AcDbLine
 62
7
  6
CONTINUOUS
 10
97.2139242914
 20
55.9517803598
 11
80.2139242914
 21
55.9517803598
  0
LINE
  5
456
100
AcDbEntity
  8
_30_VOLUMEN
100
AcDbLine
 62
7
  6
CONTINUOUS
 10
110.6139242914
 20
57.2517803598
 11
108.148625241
 21
57.2517803598
  0
LINE
  5
457
100
AcDbEntity
  8
BEZUGSACHSEN
100
AcDbLine
 62
7
  6
CONTINUOUS
 10
108.2139242914
 20
57.2517803598
 11
99.2139242914
 21
57.2517803598
  0
LINE
  5
458
100
AcDbEntity
  8
BEZUGSACHSEN
100
AcDbLine
 62
7
  6
CONTINUOUS
 10
78.2139242914
 20
57.2517803598
 11
73.7139242914
 21
57.2517803598
  0
LINE
  5
459
100
AcDbEntity
  8
_30_VOLUMEN
100
AcDbLine
 62
7
  6
CONTINUOUS
 10
110.7139242914
 20
57.2517803598
 11
113.6139242914
 21
57.2517803598
  0
LINE
  5
45A
100
AcDbEntity
  8
_30_VOLUMEN
100
AcDbLine
 62
7
  6
CONTINUOUS
 10
110.1139242914
 20
57.3517803598
 11
105.1139242914
 21
57.3517803598
  0
LINE
  5
45B
100
AcDbEntity
  8
0
100
AcDbLine
 62
7
  6
CONTINUOUS
 10
74.4464241949
 20
57.7517803598
 11
77.9464241949
 21
57.7517803598
  0
LINE
  5
45C
100
AcDbEntity
  8
_30_VOLUMEN
100
AcDbLine
 62
7
  6
CONTINUOUS
 10
97.2139242914
 20
66.7517803598
 11
97.2139242914
 21
55.9517803598
  0
LINE
  5
45D
100
AcDbEntity
  8
_30_VOLUMEN
100
AcDbLine
 62
7
  6
CONTINUOUS
 10
97.2139242914
 20
37.7517803598
 11
97.2139242914
 21
49.9358230711
  0
LINE
  5
45E
100
AcDbEntity
  8
_30_VOLUMEN
100
AcDbLine
 62
7
  6
CONTINUOUS
 10
97.2139242914
 20
54.5677376485
 11
97.2139242914
 21
55.9409974445
  0
LINE
  5
45F
100
AcDbEntity
  8
_30_VOLUMEN
100
AcDbLine
 62
7
  6
CONTINUOUS
 10
110.1139242914
 20
59.5017803598
 11
110.6139242914
 21
59.5017803598
  0
LINE
  5
460
100
AcDbEntity
  8
_30_VOLUMEN
100
AcDbLine
 62
7
  6
CONTINUOUS
 10
105.1139242914
 20
60.2716487752
 11
110.1139242914
 21
60.2716487752
  0
LINE
  5
461
100
AcDbEntity
  8
_30_VOLUMEN
100
AcDbLine
 62
7
  6
CONTINUOUS
 10
110.1139242914
 20
60.7517803598
 11
98.7139242914
 21
60.7517803598
  0
LINE
  5
462
100
AcDbEntity
  8
0
100
AcDbLine
 62
7
  6
CONTINUOUS
 10
64.2139242914
 20
61.2517803598
 11
70.7139242914
 21
61.2517803598
  0
LINE
  5
463
100
AcDbEntity
  8
BEZUGSACHSEN
100
AcDbLine
 62
7
  6
CONTINUOUS
 10
101.7139242914
 20
64.2466751072
 11
101.7139242914
 21
63.7464530389
  0
LINE
  5
464
100
AcDbEntity
  8
0
100
AcDbLine
 62
7
  6
CONTINUOUS
 10
101.7139242914
 20
40.2568856125
 11
101.7139242914
 21
40.7571076807
  0
LINE
  5
465
100
AcDbEntity
  8
0
100
AcDbLine
 62
7
  6
CONTINUOUS
 10
113.6139242914
 20
48.419427985
 11
114.9507323487
 21
48.9059863268
  0
LINE
  5
466
100
AcDbEntity
  8
BEZUGSACHSEN
100
AcDbLine
 62
7
  6
CONTINUOUS
 10
105.1639242914
 20
63.7409056529
 11
101.8639242914
 21
63.7409056529
  0
LINE
  5
467
100
AcDbEntity
  8
BEZUGSACHSEN
100
AcDbLine
 62
7
  6
CONTINUOUS
 10
73.5423514161
 20
63.7517803598
 11
78.7139242914
 21
63.7517803598
  0
LINE
  5
468
100
AcDbEntity
  8
BEZUGSACHSEN
100
AcDbLine
 62
7
  6
CONTINUOUS
 10
98.7139242914
 20
63.7517803598
 11
101.7139242914
 21
63.7517803598
  0
LINE
  5
469
100
AcDbEntity
  8
BEZUGSACHSEN
100
AcDbLine
 62
7
  6
CONTINUOUS
 10
107.5809048574
 20
63.7517803598
 11
110.1139242914
 21
63.7517803598
  0
LINE
  5
46A
100
AcDbEntity
  8
BEZUGSACHSEN
100
AcDbLine
 62
7
  6
CONTINUOUS
 10
101.8639242914
 20
64.2413591681
 11
105.1639242914
 21
64.2413591681
  0
LINE
  5
46B
100
AcDbEntity
  8
BEZUGSACHSEN
100
AcDbLine
 62
7
  6
CONTINUOUS
 10
107.5104046984
 20
64.2517803598
 11
101.8639242914
 21
64.2517803598
  0
LINE
  5
46C
100
AcDbEntity
  8
0
100
AcDbLine
 62
7
  6
CONTINUOUS
 10
113.6139242914
 20
56.0841327346
 11
114.9507323487
 21
55.5975743929
  0
LINE
  5
46D
100
AcDbEntity
  8
0
100
AcDbLine
 62
7
  6
CONTINUOUS
 10
103.2239242914
 20
43.7517803598
 11
103.2239242914
 21
43.2517803598
  0
LINE
  5
46E
100
AcDbEntity
  8
0
100
AcDbLine
 62
7
  6
CONTINUOUS
 10
103.2864242933
 20
43.7517803598
 11
103.2864242933
 21
43.2517803598
  0
LINE
  5
46F
100
AcDbEntity
  8
0
100
AcDbLine
 62
7
  6
CONTINUOUS
 10
103.4114242914
 20
43.7517803598
 11
103.4114242914
 21
43.2517803598
  0
LINE
  5
470
100
AcDbEntity
  8
0
100
AcDbLine
 62
7
  6
CONTINUOUS
 10
103.5989242914
 20
43.7517803598
 11
103.5989242914
 21
43.2517803598
  0
LINE
  5
471
100
AcDbEntity
  8
0
100
AcDbLine
 62
7
  6
CONTINUOUS
 10
103.9114243063
 20
43.7517803598
 11
103.9114243063
 21
43.2517803598
  0
LINE
  5
472
100
AcDbEntity
  8
0
100
AcDbLine
 62
7
  6
CONTINUOUS
 10
104.2239243212
 20
43.7517803598
 11
104.2239243212
 21
43.2517803598
  0
LINE
  5
473
100
AcDbEntity
  8
0
100
AcDbLine
 62
7
  6
CONTINUOUS
 10
104.4739242616
 20
43.7517803598
 11
104.4739242616
 21
43.2517803598
  0
LINE
  5
474
100
AcDbEntity
  8
0
100
AcDbLine
 62
7
  6
CONTINUOUS
 10
104.7864242318
 20
43.7517803598
 11
104.7864242318
 21
43.2517803598
  0
LINE
  5
475
100
AcDbEntity
  8
0
100
AcDbLine
 62
7
  6
CONTINUOUS
 10
105.0989242914
 20
43.7517803598
 11
105.0989242914
 21
43.2517803598
  0
LINE
  5
476
100
AcDbEntity
  8
_30_VOLUMEN
100
AcDbLine
 62
7
  6
CONTINUOUS
 10
105.1139242914
 20
44.2319119445
 11
105.1139242914
 21
47.2517803598
  0
LINE
  5
477
100
AcDbEntity
  8
_30_VOLUMEN
100
AcDbLine
 62
7
  6
CONTINUOUS
 10
105.1139242914
 20
57.2517803598
 11
105.1139242914
 21
60.2716487752
  0
LINE
  5
478
100
AcDbEntity
  8
_30_VOLUMEN
100
AcDbLine
 62
7
  6
CONTINUOUS
 10
105.2139242914
 20
57.3517803598
 11
105.2139242914
 21
57.2671833473
  0
LINE
  5
479
100
AcDbEntity
  8
_30_VOLUMEN
100
AcDbLine
 62
7
  6
CONTINUOUS
 10
105.2139242914
 20
47.2517803598
 11
105.2139242914
 21
47.1517803598
  0
LINE
  5
47A
100
AcDbEntity
  8
0
100
AcDbLine
 62
7
  6
CONTINUOUS
 10
105.2864242914
 20
43.7517803598
 11
105.2864242914
 21
43.2517803598
  0
LINE
  5
47B
100
AcDbEntity
  8
0
100
AcDbLine
 62
7
  6
CONTINUOUS
 10
105.3139242914
 20
40.2693974582
 11
105.3139242914
 21
40.8176793032
  0
LINE
  5
47C
100
AcDbEntity
  8
BEZUGSACHSEN
100
AcDbLine
 62
7
  6
CONTINUOUS
 10
105.3139242914
 20
63.6858814165
 11
105.3139242914
 21
64.2341632614
  0
LINE
  5
47D
100
AcDbEntity
  8
0
100
AcDbLine
 62
7
  6
CONTINUOUS
 10
105.3489242318
 20
43.7517803598
 11
105.3489242318
 21
43.2517803598
  0
LINE
  5
47E
100
AcDbEntity
  8
0
100
AcDbLine
 62
7
  6
CONTINUOUS
 10
105.4739242914
 20
43.7517803598
 11
105.4739242914
 21
43.2517803598
  0
LINE
  5
47F
100
AcDbEntity
  8
BEZUGSACHSEN
100
AcDbLine
 62
7
  6
CONTINUOUS
 10
81.7139242914
 20
68.2517803598
 11
95.7139242914
 21
68.2517803598
  0
LINE
  5
480
100
AcDbEntity
  8
BEZUGSACHSEN
100
AcDbLine
 62
7
  6
CONTINUOUS
 10
107.5809048574
 20
64.2517803598
 11
107.5809048574
 21
63.7517803598
  0
LINE
  5
481
100
AcDbEntity
  8
0
100
AcDbLine
 62
7
  6
CONTINUOUS
 10
107.5809048574
 20
40.7517803598
 11
107.5809048574
 21
40.2517803599
  0
LINE
  5
482
100
AcDbEntity
  8
BEZUGSACHSEN
100
AcDbLine
 62
7
  6
CONTINUOUS
 10
109.7139242914
 20
48.7517803598
 11
109.7139242914
 21
55.7517803598
  0
LINE
  5
483
100
AcDbEntity
  8
_30_VOLUMEN
100
AcDbLine
 62
7
  6
CONTINUOUS
 10
110.1139242914
 20
40.7517803614
 11
110.1139242914
 21
47.1517803598
  0
LINE
  5
484
100
AcDbEntity
  8
_30_VOLUMEN
100
AcDbLine
 62
7
  6
CONTINUOUS
 10
110.1139242914
 20
57.3517803598
 11
110.1139242914
 21
63.7517803583
  0
LINE
  5
485
100
AcDbEntity
  8
_30_VOLUMEN
100
AcDbLine
 62
7
  6
CONTINUOUS
 10
110.6139242914
 20
59.5017803558
 11
110.6139242914
 21
45.0017803638
  0
LINE
  5
486
100
AcDbEntity
  8
_30_VOLUMEN
100
AcDbLine
 62
7
  6
CONTINUOUS
 10
110.7139242914
 20
57.2517803598
 11
110.7139242914
 21
47.2517803598
  0
LINE
  5
487
100
AcDbEntity
  8
_30_VOLUMEN
100
AcDbLine
 62
7
  6
CONTINUOUS
 10
113.6139242914
 20
57.2517803598
 11
113.6139242914
 21
47.2517803598
  0
LINE
  5
488
100
AcDbEntity
  8
_30_VOLUMEN
100
AcDbLine
 62
7
  6
CONTINUOUS
 10
115.2139242914
 20
55.2216973445
 11
115.2139242914
 21
49.2818633751
  0
ARC
  5
489
100
AcDbEntity
  8
RUNDUNGEN
100
AcDbCircle
 62
7
  6
CONTINUOUS
 10
83.2139242914
 20
134.1014336582
 40
11.0
100
AcDbArc
 50
112.619864948
 51
180.0
  0
ARC
  5
48A
100
AcDbEntity
  8
BEZUGSACHSEN
100
AcDbCircle
 62
7
  6
CONTINUOUS
 10
83.2139242914
 20
134.1014336582
 40
11.0
100
AcDbArc
 50
112.619864948
 51
180.0
  0
ARC
  5
48B
100
AcDbEntity
  8
_30_VOLUMEN
100
AcDbCircle
 62
7
  6
CONTINUOUS
 10
88.7139242914
 20
155.6014336582
 40
8.5
100
AcDbArc
 50
176.440970851
 51
180.0
  0
ARC
  5
48C
100
AcDbEntity
  8
RUNDUNGEN
100
AcDbCircle
 62
7
  6
CONTINUOUS
 10
88.7139242914
 20
155.6014336582
 40
8.5
100
AcDbArc
 50
0.0
 51
180.0
  0
ARC
  5
48D
100
AcDbEntity
  8
_21_KURVEN
100
AcDbCircle
 62
4
  6
CONTINUOUS
 10
99.9139242914
 20
154.6014336582
 40
5.0
100
AcDbArc
 50
237.3151974554
 51
252.7791815351
  0
ARC
  5
48E
100
AcDbEntity
  8
_21_KURVEN
100
AcDbCircle
 62
4
  6
CONTINUOUS
 10
77.5139242914
 20
154.6014336582
 40
5.0
100
AcDbArc
 50
287.4271449037
 51
302.6859653568
  0
ARC
  5
48F
100
AcDbEntity
  8
RUNDUNGEN
100
AcDbCircle
 62
7
  6
CONTINUOUS
 10
94.2139242914
 20
134.1014336582
 40
3.0
100
AcDbArc
 50
0.0
 51
88.9791442929
  0
ARC
  5
490
100
AcDbEntity
  8
RUNDUNGEN
100
AcDbCircle
 62
7
  6
CONTINUOUS
 10
83.2139242914
 20
134.1014336582
 40
3.0
100
AcDbArc
 50
91.0206838056
 51
180.0
  0
ARC
  5
491
100
AcDbEntity
  8
_30_VOLUMEN
100
AcDbCircle
 62
7
  6
CONTINUOUS
 10
107.9139242914
 20
134.6514336582
 40
2.7
100
AcDbArc
 50
0.0
 51
180.0
  0
ARC
  5
492
100
AcDbEntity
  8
RUNDUNGEN
100
AcDbCircle
 62
7
  6
CONTINUOUS
 10
99.2139242914
 20
146.115893529
 40
2.0
100
AcDbArc
 50
180.00000027
 51
250.0
  0
ARC
  5
493
100
AcDbEntity
  8
BEZUGSACHSEN
100
AcDbCircle
 62
7
  6
CONTINUOUS
 10
99.2139242914
 20
146.115893529
 40
2.0
100
AcDbArc
 50
203.3333335467
 51
250.0
  0
ARC
  5
494
100
AcDbEntity
  8
RUNDUNGEN
100
AcDbCircle
 62
7
  6
CONTINUOUS
 10
107.7139242914
 20
138.7654354479
 40
2.0
100
AcDbArc
 50
0.0
 51
70.0
  0
ARC
  5
495
100
AcDbEntity
  8
RUNDUNGEN
100
AcDbCircle
 62
7
  6
CONTINUOUS
 10
78.2139242914
 20
146.1013281747
 40
1.9999426501
100
AcDbArc
 50
292.6210272656
 51
0.0030218786
  0
ARC
  5
496
100
AcDbEntity
  8
BEZUGSACHSEN
100
AcDbCircle
 62
7
  6
CONTINUOUS
 10
78.2139242914
 20
146.1013281747
 40
1.9999426501
100
AcDbArc
 50
292.6210272656
 51
337.5417954494
  0
ARC
  5
497
100
AcDbEntity
  8
BEZUGSACHSEN
100
AcDbCircle
 62
7
  6
CONTINUOUS
 10
98.7139242914
 20
101.1014336582
 40
1.5
100
AcDbArc
 50
180.0
 51
270.0
  0
ARC
  5
498
100
AcDbEntity
  8
BEZUGSACHSEN
100
AcDbCircle
 62
7
  6
CONTINUOUS
 10
78.7139242914
 20
101.1014336582
 40
1.5
100
AcDbArc
 50
270.0
 51
360.0
  0
ARC
  5
499
100
AcDbEntity
  8
BEZUGSACHSEN
100
AcDbCircle
 62
7
  6
CONTINUOUS
 10
73.5423514161
 20
101.1014336582
 40
1.5
100
AcDbArc
 50
199.4712206345
 51
270.0
  0
ARC
  5
49A
100
AcDbEntity
  8
_30_VOLUMEN
100
AcDbCircle
 62
7
  6
CONTINUOUS
 10
70.7139242914
 20
122.1014336582
 40
1.5
100
AcDbArc
 50
289.4712206345
 51
360.0
  0
ARC
  5
49B
100
AcDbEntity
  8
_30_VOLUMEN
100
AcDbCircle
 62
7
  6
CONTINUOUS
 10
70.7139242914
 20
100.1014336582
 40
1.5
100
AcDbArc
 50
19.4712206345
 51
70.5287793655
  0
ARC
  5
49C
100
AcDbEntity
  8
_30_VOLUMEN
100
AcDbCircle
 62
7
  6
CONTINUOUS
 10
114.8139242914
 20
108.1315166735
 40
0.4
100
AcDbArc
 50
290.0000001057
 51
360.0
  0
ARC
  5
49D
100
AcDbEntity
  8
_30_VOLUMEN
100
AcDbCircle
 62
7
  6
CONTINUOUS
 10
114.8139242914
 20
114.0713506429
 40
0.4
100
AcDbArc
 50
0.0
 51
69.9999998943
  0
ARC
  5
49E
100
AcDbEntity
  8
0
100
AcDbCircle
 62
7
  6
CONTINUOUS
 10
105.4639242914
 20
112.3307965119
 40
0.15
100
AcDbArc
 50
57.9946167919
 51
180.0
  0
ARC
  5
49F
100
AcDbEntity
  8
0
100
AcDbCircle
 62
7
  6
CONTINUOUS
 10
105.1639242914
 20
111.7514336582
 40
0.15
100
AcDbArc
 50
270.0
 51
360.0
  0
ARC
  5
4A0
100
AcDbEntity
  8
0
100
AcDbCircle
 62
7
  6
CONTINUOUS
 10
101.8639242914
 20
111.4514336582
 40
0.15
100
AcDbArc
 50
90.0
 51
180.0
  0
ARC
  5
4A1
100
AcDbEntity
  8
0
100
AcDbCircle
 62
7
  6
CONTINUOUS
 10
101.8639242914
 20
110.7514336582
 40
0.15
100
AcDbArc
 50
180.0
 51
270.0
  0
ARC
  5
4A2
100
AcDbEntity
  8
0
100
AcDbCircle
 62
7
  6
CONTINUOUS
 10
105.1639242914
 20
110.4514336582
 40
0.15
100
AcDbArc
 50
0.0
 51
90.0
  0
ARC
  5
4A3
100
AcDbEntity
  8
0
100
AcDbCircle
 62
7
  6
CONTINUOUS
 10
105.4639242914
 20
109.8720708044
 40
0.15
100
AcDbArc
 50
180.0
 51
302.0053832081
  0
ARC
  5
4A4
100
AcDbEntity
  8
0
100
AcDbCircle
 62
7
  6
CONTINUOUS
 10
107.4309048574
 20
111.1014336582
 40
0.15
100
AcDbArc
 50
302.0053832081
 51
57.9946167919
  0
ARC
  5
4A5
100
AcDbEntity
  8
BEZUGSACHSEN
100
AcDbCircle
 62
7
  6
CONTINUOUS
 10
169.5681221889
 20
123.1948202806
 40
3.0
100
AcDbArc
 50
303.485376623
 51
360.0
  0
ARC
  5
4A6
100
AcDbEntity
  8
BEZUGSACHSEN
100
AcDbCircle
 62
7
  6
CONTINUOUS
 10
166.0681221889
 20
119.9331945245
 40
3.0
100
AcDbArc
 50
322.4764867979
 51
360.0
  0
ARC
  5
4A7
100
AcDbEntity
  8
BEZUGSACHSEN
100
AcDbCircle
 62
7
  6
CONTINUOUS
 10
171.0681221889
 20
126.6014336582
 40
2.0
100
AcDbArc
 50
97.1807557815
 51
180.0
  0
ARC
  5
4A8
100
AcDbEntity
  8
BEZUGSACHSEN
100
AcDbCircle
 62
7
  6
CONTINUOUS
 10
170.5681221889
 20
130.5700606248
 40
2.0
100
AcDbArc
 50
277.1807557815
 51
318.6658034495
  0
ARC
  5
4A9
100
AcDbEntity
  8
BEZUGSACHSEN
100
AcDbCircle
 62
7
  6
CONTINUOUS
 10
175.5681221889
 20
152.1114299572
 40
14.0
100
AcDbArc
 50
180.0
 51
240.0
  0
ARC
  5
4AA
100
AcDbEntity
  8
_30_VOLUMEN
100
AcDbCircle
 62
7
  6
CONTINUOUS
 10
172.2501548828
 20
155.6023766902
 40
11.7912211931
100
AcDbArc
 50
359.9954176288
 51
2.4257370295
  0
ARC
  5
4AB
100
AcDbEntity
  8
_30_VOLUMEN
100
AcDbCircle
 62
7
  6
CONTINUOUS
 10
175.5681221889
 20
167.8014336582
 40
5.5
100
AcDbArc
 50
222.2779075988
 51
251.9955469999
  0
ARC
  5
4AC
100
AcDbEntity
  8
BEZUGSACHSEN
100
AcDbCircle
 62
7
  6
CONTINUOUS
 10
163.0681221889
 20
162.6014336582
 40
1.5
100
AcDbArc
 50
90.0
 51
180.0
  0
ARC
  5
4AD
100
AcDbEntity
  8
0
100
AcDbCircle
 62
7
  6
CONTINUOUS
 10
177.5681221889
 20
111.1014336582
 40
12.0
100
AcDbArc
 50
353.3994391844
 51
6.6005608091
  0
ARC
  5
4AE
100
AcDbEntity
  8
BEZUGSACHSEN
100
AcDbCircle
 62
7
  6
CONTINUOUS
 10
177.5681221889
 20
111.1014336582
 40
12.0
100
AcDbArc
 50
173.3994391909
 51
186.6005608156
  0
ARC
  5
4AF
100
AcDbEntity
  8
BEZUGSACHSEN
100
AcDbCircle
 62
7
  6
CONTINUOUS
 10
177.5681221889
 20
111.1014336582
 40
11.5
100
AcDbArc
 50
123.4853841055
 51
56.5146158945
  0
CIRCLE
  5
4B0
100
AcDbEntity
  8
_30_VOLUMEN
100
AcDbCircle
 62
7
  6
CONTINUOUS
 10
177.5681221889
 20
111.1014336582
 40
9.5857864376
  0
CIRCLE
  5
4B1
100
AcDbEntity
  8
_30_VOLUMEN
100
AcDbCircle
 62
7
  6
CONTINUOUS
 10
177.5681221889
 20
111.1014336582
 40
9.0
  0
CIRCLE
  5
4B2
100
AcDbEntity
  8
_30_VOLUMEN
100
AcDbCircle
 62
7
  6
CONTINUOUS
 10
177.5681221889
 20
111.1014336582
 40
8.5
  0
ARC
  5
4B3
100
AcDbEntity
  8
RUNDUNGEN
100
AcDbCircle
 62
7
  6
CONTINUOUS
 10
189.0681221889
 20
119.9331945245
 40
3.0
100
AcDbArc
 50
180.0
 51
217.5235132021
  0
ARC
  5
4B4
100
AcDbEntity
  8
RUNDUNGEN
100
AcDbCircle
 62
7
  6
CONTINUOUS
 10
185.5681221889
 20
123.1948202806
 40
3.0
100
AcDbArc
 50
180.0
 51
236.5146520598
  0
ARC
  5
4B5
100
AcDbEntity
  8
RUNDUNGEN
100
AcDbCircle
 62
7
  6
CONTINUOUS
 10
184.0681221889
 20
126.6014336582
 40
2.0
100
AcDbArc
 50
0.0
 51
82.8192442185
  0
ARC
  5
4B6
100
AcDbEntity
  8
RUNDUNGEN
100
AcDbCircle
 62
7
  6
CONTINUOUS
 10
184.5681221889
 20
130.5700606248
 40
2.0
100
AcDbArc
 50
221.3341965505
 51
262.8192442185
  0
ARC
  5
4B7
100
AcDbEntity
  8
RUNDUNGEN
100
AcDbCircle
 62
7
  6
CONTINUOUS
 10
179.5681221889
 20
152.1114299572
 40
14.0
100
AcDbArc
 50
300.0
 51
360.0
  0
ARC
  5
4B8
100
AcDbEntity
  8
_30_VOLUMEN
100
AcDbCircle
 62
7
  6
CONTINUOUS
 10
182.886089495
 20
155.6023766902
 40
11.7912211931
100
AcDbArc
 50
177.5742629705
 51
180.0045823712
  0
ARC
  5
4B9
100
AcDbEntity
  8
_30_VOLUMEN
100
AcDbCircle
 62
7
  6
CONTINUOUS
 10
179.5681221889
 20
167.8014336582
 40
5.5
100
AcDbArc
 50
288.0044530001
 51
317.7220924012
  0
ARC
  5
4BA
100
AcDbEntity
  8
_30_VOLUMEN
100
AcDbCircle
 62
7
  6
CONTINUOUS
 10
177.5681221889
 20
149.0014336582
 40
3.7
100
AcDbArc
 50
180.0
 51
360.0
  0
ARC
  5
4BB
100
AcDbEntity
  8
RUNDUNGEN
100
AcDbCircle
 62
7
  6
CONTINUOUS
 10
192.0681221889
 20
162.6014336582
 40
1.5
100
AcDbArc
 50
0.0
 51
90.0
  0
ARC
  5
4BC
100
AcDbEntity
  8
_30_VOLUMEN
100
AcDbCircle
 62
7
  6
CONTINUOUS
 10
77.0139242914
 20
50.2517803598
 40
5.5
100
AcDbArc
 50
305.5785257325
 51
341.9955469999
  0
ARC
  5
4BD
100
AcDbEntity
  8
RUNDUNGEN
100
AcDbCircle
 62
7
  6
CONTINUOUS
 10
78.2139458814
 20
45.2517803598
 40
1.9999876629
100
AcDbArc
 50
0.0
 51
90.0006185082
  0
ARC
  5
4BE
100
AcDbEntity
  8
BEZUGSACHSEN
100
AcDbCircle
 62
7
  6
CONTINUOUS
 10
78.7139242914
 20
42.2517803598
 40
1.5
100
AcDbArc
 50
270.0
 51
360.0
  0
ARC
  5
4BF
100
AcDbEntity
  8
BEZUGSACHSEN
100
AcDbCircle
 62
7
  6
CONTINUOUS
 10
73.5423514161
 20
42.2517803598
 40
1.5
100
AcDbArc
 50
199.4712206345
 51
270.0
  0
ARC
  5
4C0
100
AcDbEntity
  8
RUNDUNGEN
100
AcDbCircle
 62
7
  6
CONTINUOUS
 10
70.7139242914
 20
41.2517803598
 40
1.5
100
AcDbArc
 50
19.4712206345
 51
70.5287793655
  0
ARC
  5
4C1
100
AcDbEntity
  8
RUNDUNGEN
100
AcDbCircle
 62
7
  6
CONTINUOUS
 10
73.7139242914
 20
48.7517803598
 40
1.5
100
AcDbArc
 50
180.0
 51
270.0
  0
ARC
  5
4C2
100
AcDbEntity
  8
RUNDUNGEN
100
AcDbCircle
 62
7
  6
CONTINUOUS
 10
81.7139242914
 20
37.7517803598
 40
1.5
100
AcDbArc
 50
180.0
 51
270.0
  0
ARC
  5
4C3
100
AcDbEntity
  8
_30_VOLUMEN
100
AcDbCircle
 62
7
  6
CONTINUOUS
 10
77.0139242914
 20
54.2517803598
 40
5.5
100
AcDbArc
 50
18.0044530001
 51
54.4214742675
  0
ARC
  5
4C4
100
AcDbEntity
  8
BEZUGSACHSEN
100
AcDbCircle
 62
7
  6
CONTINUOUS
 10
78.2139458814
 20
59.2517803598
 40
1.9999876629
100
AcDbArc
 50
269.9993814918
 51
360.0
  0
ARC
  5
4C5
100
AcDbEntity
  8
BEZUGSACHSEN
100
AcDbCircle
 62
7
  6
CONTINUOUS
 10
78.7139242914
 20
62.2517803598
 40
1.5
100
AcDbArc
 50
0.0
 51
90.0
  0
ARC
  5
4C6
100
AcDbEntity
  8
BEZUGSACHSEN
100
AcDbCircle
 62
7
  6
CONTINUOUS
 10
73.5423514161
 20
62.2517803598
 40
1.5
100
AcDbArc
 50
90.0
 51
160.5287793655
  0
ARC
  5
4C7
100
AcDbEntity
  8
BEZUGSACHSEN
100
AcDbCircle
 62
7
  6
CONTINUOUS
 10
70.7139242914
 20
63.2517803598
 40
1.5
100
AcDbArc
 50
289.4712206345
 51
340.5287793655
  0
ARC
  5
4C8
100
AcDbEntity
  8
BEZUGSACHSEN
100
AcDbCircle
 62
7
  6
CONTINUOUS
 10
73.7139242914
 20
55.7517803598
 40
1.5
100
AcDbArc
 50
90.0
 51
180.0
  0
ARC
  5
4C9
100
AcDbEntity
  8
BEZUGSACHSEN
100
AcDbCircle
 62
7
  6
CONTINUOUS
 10
81.7139242914
 20
66.7517803598
 40
1.5
100
AcDbArc
 50
90.0
 51
180.0
  0
ARC
  5
4CA
100
AcDbEntity
  8
_30_VOLUMEN
100
AcDbCircle
 62
7
  6
CONTINUOUS
 10
100.4139242914
 20
50.2517803598
 40
5.5
100
AcDbArc
 50
198.0044530001
 51
234.4214742675
  0
ARC
  5
4CB
100
AcDbEntity
  8
0
100
AcDbCircle
 62
7
  6
CONTINUOUS
 10
105.1656629693
 20
43.842262399
 40
3.079607823
100
AcDbArc
 50
269.9676520784
 51
271.0366562546
  0
ARC
  5
4CC
100
AcDbEntity
  8
RUNDUNGEN
100
AcDbCircle
 62
7
  6
CONTINUOUS
 10
99.2139242914
 20
45.2518405032
 40
1.9999656323
100
AcDbArc
 50
90.0
 51
180.0017229821
  0
ARC
  5
4CD
100
AcDbEntity
  8
BEZUGSACHSEN
100
AcDbCircle
 62
7
  6
CONTINUOUS
 10
98.7139242914
 20
42.2517803598
 40
1.5
100
AcDbArc
 50
180.0
 51
270.0
  0
ARC
  5
4CE
100
AcDbEntity
  8
RUNDUNGEN
100
AcDbCircle
 62
7
  6
CONTINUOUS
 10
108.2139242914
 20
48.7517803598
 40
1.5
100
AcDbArc
 50
270.0
 51
360.0
  0
ARC
  5
4CF
100
AcDbEntity
  8
RUNDUNGEN
100
AcDbCircle
 62
7
  6
CONTINUOUS
 10
98.7139242914
 20
45.2517803598
 40
1.5
100
AcDbArc
 50
180.0
 51
270.0
  0
ARC
  5
4D0
100
AcDbEntity
  8
RUNDUNGEN
100
AcDbCircle
 62
7
  6
CONTINUOUS
 10
95.7139242914
 20
37.7517803598
 40
1.5
100
AcDbArc
 50
270.0
 51
360.0
  0
ARC
  5
4D1
100
AcDbEntity
  8
_30_VOLUMEN
100
AcDbCircle
 62
7
  6
CONTINUOUS
 10
114.8139242914
 20
49.2818633751
 40
0.4
100
AcDbArc
 50
290.0
 51
360.0
  0
ARC
  5
4D2
100
AcDbEntity
  8
_30_VOLUMEN
100
AcDbCircle
 62
7
  6
CONTINUOUS
 10
100.4139242914
 20
54.2517803598
 40
5.5
100
AcDbArc
 50
125.5785257325
 51
161.9955469999
  0
ARC
  5
4D3
100
AcDbEntity
  8
BEZUGSACHSEN
100
AcDbCircle
 62
7
  6
CONTINUOUS
 10
105.1656629693
 20
60.6612983205
 40
3.0796078232
100
AcDbArc
 50
88.9633437455
 51
90.0323479216
  0
ARC
  5
4D4
100
AcDbEntity
  8
BEZUGSACHSEN
100
AcDbCircle
 62
7
  6
CONTINUOUS
 10
99.2139242914
 20
59.2517202164
 40
1.9999656323
100
AcDbArc
 50
179.9982770179
 51
270.0
  0
ARC
  5
4D5
100
AcDbEntity
  8
BEZUGSACHSEN
100
AcDbCircle
 62
7
  6
CONTINUOUS
 10
98.7139242914
 20
62.2517803598
 40
1.5
100
AcDbArc
 50
90.0
 51
180.0
  0
ARC
  5
4D6
100
AcDbEntity
  8
BEZUGSACHSEN
100
AcDbCircle
 62
7
  6
CONTINUOUS
 10
108.2139242914
 20
55.7517803598
 40
1.5
100
AcDbArc
 50
0.0
 51
90.0
  0
ARC
  5
4D7
100
AcDbEntity
  8
BEZUGSACHSEN
100
AcDbCircle
 62
7
  6
CONTINUOUS
 10
98.7139242914
 20
59.2517803598
 40
1.5
100
AcDbArc
 50
90.0
 51
180.0
  0
ARC
  5
4D8
100
AcDbEntity
  8
BEZUGSACHSEN
100
AcDbCircle
 62
7
  6
CONTINUOUS
 10
95.7139242914
 20
66.7517803598
 40
1.5
100
AcDbArc
 50
0.0
 51
90.0
  0
ARC
  5
4D9
100
AcDbEntity
  8
_30_VOLUMEN
100
AcDbCircle
 62
7
  6
CONTINUOUS
 10
114.8139242914
 20
55.2216973445
 40
0.4
100
AcDbArc
 50
0.0
 51
70.0
  0
SPLINE
  5
4DA
100
AcDbEntity
  8
_30_VOLUMEN
100
AcDbSpline
 62
7
  6
CONTINUOUS
 70
0
 71
3
 72
21
 73
17
 74
0
 42
0.0000001
 43
0.0000001
 44
0.0000000001
 40
0.0
 40
0.0
 40
0.0
 40
0.0
 40
0.0011857338
 40
0.0047430626
 40
0.0106691936
 40
0.0189464708
 40
0.042464549
 40
0.0751013034
 40
0.1165476915
 40
0.1664387213
 40
0.224317694
 40
0.2896647148
 40
0.4403721816
 40
0.6131882184
 40
0.8019809021
 40
1.0
 40
1.0
 40
1.0
 40
1.0
 10
183.6375239116
 20
164.101402797
 30
0.0
 10
183.6371521428
 20
164.1045466818
 30
0.0
 10
183.6392113211
 20
164.0765513901
 30
0.0
 10
183.639529304
 20
164.0629335475
 30
0.0
 10
183.642947828
 20
164.007205784
 30
0.0
 10
183.6481935827
 20
163.9117305224
 30
0.0
 10
183.6581857444
 20
163.7362233733
 30
0.0
 10
183.6725518506
 20
163.477832824
 30
0.0
 10
183.6908461322
 20
163.1466506103
 30
0.0
 10
183.7124705398
 20
162.7490891696
 30
0.0
 10
183.7371876791
 20
162.2874642468
 30
0.0
 10
183.7755669485
 20
161.5571304823
 30
0.0
 10
183.8283283877
 20
160.5202065406
 30
0.0
 10
183.8946272947
 20
159.1539877514
 30
0.0
 10
183.9633865372
 20
157.6614171199
 30
0.0
 10
184.0083888633
 20
156.6296490195
 30
0.0
 10
184.0308101858
 20
156.1014336582
 30
0.0
  0
SPLINE
  5
4DB
100
AcDbEntity
  8
_30_VOLUMEN
100
AcDbSpline
 62
7
  6
CONTINUOUS
 70
0
 71
3
 72
12
 73
8
 74
0
 42
0.0000001
 43
0.0000001
 44
0.0000000001
 40
0.0
 40
0.0
 40
0.0
 40
0.0
 40
0.1252353805
 40
0.2504776584
 40
0.5002500937
 40
0.7501043627
 40
1.0
 40
1.0
 40
1.0
 40
1.0
 10
184.0413760382
 20
154.6014336582
 30
0.0
 10
184.0413760382
 20
154.3906247805
 30
0.0
 10
184.0057092232
 20
153.9680911596
 30
0.0
 10
183.7974324921
 20
153.149090256
 30
0.0
 10
183.2983019925
 20
152.2028914395
 30
0.0
 10
182.4028422
 20
151.2918186517
 30
0.0
 10
181.6592490258
 20
150.8717454181
 30
0.0
 10
181.2681221889
 20
150.7169361015
 30
0.0
  0
SPLINE
  5
4DC
100
AcDbEntity
  8
_30_VOLUMEN
100
AcDbSpline
 62
7
  6
CONTINUOUS
 70
0
 71
3
 72
12
 73
8
 74
0
 42
0.0000001
 43
0.0000001
 44
0.0000000001
 40
0.0
 40
0.0
 40
0.0
 40
0.0
 40
0.2498958031
 40
0.4997485735
 40
0.7495209325
 40
0.8747641142
 40
1.0
 40
1.0
 40
1.0
 40
1.0
 10
173.8681221889
 20
150.7169361015
 30
0.0
 10
173.4769950879
 20
150.8717455226
 30
0.0
 10
172.7334039
 20
151.2918177379
 30
0.0
 10
171.8379453482
 20
152.2028880752
 30
0.0
 10
171.3388138769
 20
153.1490850543
 30
0.0
 10
171.1305354274
 20
153.9680879103
 30
0.0
 10
171.0948683396
 20
154.3906239274
 30
0.0
 10
171.0948683396
 20
154.6014336582
 30
0.0
  0
SPLINE
  5
4DD
100
AcDbEntity
  8
_30_VOLUMEN
100
AcDbSpline
 62
7
  6
CONTINUOUS
 70
0
 71
3
 72
21
 73
17
 74
0
 42
0.0000001
 43
0.0000001
 44
0.0000000001
 40
0.0
 40
0.0
 40
0.0
 40
0.0
 40
0.1980190985
 40
0.3868117767
 40
0.5596278144
 40
0.7103352803
 40
0.7756823002
 40
0.8335612751
 40
0.8834523027
 40
0.9248986938
 40
0.9575354468
 40
0.9810535283
 40
0.9893308074
 40
0.9952569368
 40
0.9988142645
 40
1.0
 40
1.0
 40
1.0
 40
1.0
 10
171.1054341921
 20
156.1014336582
 30
0.0
 10
171.1278555146
 20
156.6296490204
 30
0.0
 10
171.1728578398
 20
157.6614171068
 30
0.0
 10
171.2416170819
 20
159.153987726
 30
0.0
 10
171.3079159869
 20
160.5202064992
 30
0.0
 10
171.3606774284
 20
161.5571304369
 30
0.0
 10
171.399056694
 20
162.2874642021
 30
0.0
 10
171.4237738433
 20
162.7490891209
 30
0.0
 10
171.4453982203
 20
163.1466505727
 30
0.0
 10
171.4636925876
 20
163.4778327745
 30
0.0
 10
171.4780584742
 20
163.736223363
 30
0.0
 10
171.4880510946
 20
163.9117304676
 30
0.0
 10
171.4932962326
 20
164.0072058119
 30
0.0
 10
171.4967157767
 20
164.0629334482
 30
0.0
 10
171.4970319522
 20
164.076551509
 30
0.0
 10
171.4990930024
 20
164.1045465868
 30
0.0
 10
171.4987204652
 20
164.1014027884
 30
0.0
  0
SPLINE
  5
4DE
100
AcDbEntity
  8
0
100
AcDbSpline
 62
7
  6
CONTINUOUS
 70
0
 71
3
 72
14
 73
10
 74
0
 42
0.0000001
 43
0.0000001
 44
0.0000000001
 40
0.0
 40
0.0
 40
0.0
 40
0.0
 40
0.0288243265
 40
0.0972398938
 40
0.2040570031
 40
0.3420235153
 40
0.5021383205
 40
0.6733446369
 40
1.0
 40
1.0
 40
1.0
 40
1.0
 10
105.3139242914
 20
40.3149186712
 30
0.0
 10
105.3139242914
 20
40.3171463434
 30
0.0
 10
105.3232543383
 20
40.3206041468
 30
0.0
 10
105.336722939
 20
40.3236827519
 30
0.0
 10
105.3617493628
 20
40.3269895794
 30
0.0
 10
105.3925478669
 20
40.3294497585
 30
0.0
 10
105.4289250731
 20
40.3310422139
 30
0.0
 10
105.4797254866
 20
40.3316495203
 30
0.0
 10
105.5182423396
 20
40.3304951828
 30
0.0
 10
105.5434241324
 20
40.3287045019
 30
0.0
  0
SPLINE
  5
4DF
100
AcDbEntity
  8
0
100
AcDbSpline
 62
7
  6
CONTINUOUS
 70
0
 71
3
 72
14
 73
10
 74
0
 42
0.0000001
 43
0.0000001
 44
0.0000000001
 40
0.0
 40
0.0
 40
0.0
 40
0.0
 40
0.3808512879
 40
0.5537284405
 40
0.704717251
 40
0.8286625661
 40
0.9207852317
 40
0.9781436313
 40
1.0
 40
1.0
 40
1.0
 40
1.0
 10
105.1639242914
 20
40.2622015515
 30
0.0
 10
105.1830446633
 20
40.2622015515
 30
0.0
 10
105.2108672534
 20
40.2624090024
 30
0.0
 10
105.2461856832
 20
40.2632032615
 30
0.0
 10
105.2687807967
 20
40.2639777146
 30
0.0
 10
105.2868335239
 20
40.2650143396
 30
0.0
 10
105.3013544522
 20
40.2660324858
 30
0.0
 10
105.3083246238
 20
40.2674748821
 30
0.0
 10
105.3139242914
 20
40.2683001746
 30
0.0
 10
105.3139242914
 20
40.2693974582
 30
0.0
  0
SPLINE
  5
4E0
100
AcDbEntity
  8
0
100
AcDbSpline
 62
7
  6
CONTINUOUS
 70
0
 71
3
 72
16
 73
12
 74
0
 42
0.0000001
 43
0.0000001
 44
0.0000000001
 40
0.0
 40
0.0
 40
0.0
 40
0.0
 40
0.005681962
 40
0.0204822768
 40
0.0445120386
 40
0.0775679677
 40
0.1697570837
 40
0.2939231555
 40
0.4452110787
 40
0.6184277105
 40
1.0
 40
1.0
 40
1.0
 40
1.0
 10
101.7139242914
 20
40.2568856125
 30
0.0
 10
101.7139242914
 20
40.2571702504
 30
0.0
 10
101.7153268561
 20
40.2574531802
 30
0.0
 10
101.7171493592
 20
40.2578831936
 30
0.0
 10
101.7209285561
 20
40.2582964128
 30
0.0
 10
101.7282570213
 20
40.2589819748
 30
0.0
 10
101.7408162156
 20
40.2597355771
 30
0.0
 10
101.7591761662
 20
40.2605459415
 30
0.0
 10
101.7816563832
 20
40.261244345
 30
0.0
 10
101.8170139203
 20
40.2619809332
 30
0.0
 10
101.8448094259
 20
40.2622015515
 30
0.0
 10
101.8639242914
 20
40.2622015515
 30
0.0
  0
SPLINE
  5
4E1
100
AcDbEntity
  8
0
100
AcDbSpline
 62
7
  6
CONTINUOUS
 70
0
 71
3
 72
9
 73
5
 74
0
 42
0.0000001
 43
0.0000001
 44
0.0000000001
 40
0.0
 40
0.0
 40
0.0
 40
0.0
 40
0.7332280068
 40
1.0
 40
1.0
 40
1.0
 40
1.0
 10
107.5104046984
 20
40.2524545361
 30
0.0
 10
107.5276360196
 20
40.2523403724
 30
0.0
 10
107.5339217649
 20
40.2527736335
 30
0.0
 10
107.5871623494
 20
40.2513933595
 30
0.0
 10
107.5809048573
 20
40.2517803598
 30
0.0
  0
SPLINE
  5
4E2
100
AcDbEntity
  8
0
100
AcDbSpline
 62
7
  6
CONTINUOUS
 70
0
 71
3
 72
14
 73
10
 74
0
 42
0.0000001
 43
0.0000001
 44
0.0000000001
 40
0.0
 40
0.0
 40
0.0
 40
0.0
 40
0.3265336539
 40
0.4975166557
 40
0.6574981821
 40
0.7955131695
 40
0.9021334408
 40
0.9707518798
 40
1.0
 40
1.0
 40
1.0
 40
1.0
 10
105.5434241324
 20
40.8320720486
 30
0.0
 10
105.5182354126
 20
40.8339421749
 30
0.0
 10
105.4797110795
 20
40.8351399051
 30
0.0
 10
105.4288992669
 20
40.8345230761
 30
0.0
 10
105.3925272436
 20
40.8328345307
 30
0.0
 10
105.361701664
 20
40.8303008399
 30
0.0
 10
105.3367409215
 20
40.8267860038
 30
0.0
 10
105.3231230199
 20
40.8236696753
 30
0.0
 10
105.3139242914
 20
40.8199417052
 30
0.0
 10
105.3139242914
 20
40.8176793032
 30
0.0
  0
SPLINE
  5
4E3
100
AcDbEntity
  8
0
100
AcDbSpline
 62
7
  6
CONTINUOUS
 70
0
 71
3
 72
13
 73
9
 74
0
 42
0.0000001
 43
0.0000001
 44
0.0000000001
 40
0.0
 40
0.0
 40
0.0
 40
0.0
 40
0.0218072024
 40
0.0749953019
 40
0.1607817658
 40
0.2778471992
 40
0.5948981329
 40
1.0
 40
1.0
 40
1.0
 40
1.0
 10
105.3139242914
 20
40.7701646199
 30
0.0
 10
105.3139242914
 20
40.7694867199
 30
0.0
 10
105.3109879813
 20
40.7684677359
 30
0.0
 10
105.3067253751
 20
40.767575817
 30
0.0
 10
105.2984799972
 20
40.7665328364
 30
0.0
 10
105.2825709466
 20
40.7652106761
 30
0.0
 10
105.2563648256
 20
40.7639616388
 30
0.0
 10
105.2339703526
 20
40.7633908574
 30
0.0
 10
105.2213794734
 20
40.7631586308
 30
0.0
  0
SPLINE
  5
4E4
100
AcDbEntity
  8
0
100
AcDbSpline
 62
7
  6
CONTINUOUS
 70
0
 71
3
 72
16
 73
12
 74
0
 42
0.0000001
 43
0.0000001
 44
0.0000000001
 40
0.0
 40
0.0
 40
0.0
 40
0.0
 40
0.382014264
 40
0.5546748704
 40
0.7059021768
 40
0.8300252519
 40
0.9224963593
 40
0.9555993705
 40
0.9795698493
 40
0.9942934992
 40
1.0
 40
1.0
 40
1.0
 40
1.0
 10
101.8639242914
 20
40.7626550667
 30
0.0
 10
101.8447838783
 20
40.7626550667
 30
0.0
 10
101.8169890415
 20
40.7624326805
 30
0.0
 10
101.7816345772
 20
40.7616527788
 30
0.0
 10
101.7591849157
 20
40.7609267646
 30
0.0
 10
101.7408125469
 20
40.7600812115
 30
0.0
 10
101.7282423242
 20
40.7592930461
 30
0.0
 10
101.720896104
 20
40.7585857356
 30
0.0
 10
101.7171329937
 20
40.7581434544
 30
0.0
 10
101.7152995971
 20
40.7577144097
 30
0.0
 10
101.7139242914
 20
40.7573935988
 30
0.0
 10
101.7139242914
 20
40.7571076807
 30
0.0
  0
SPLINE
  5
4E5
100
AcDbEntity
  8
BEZUGSACHSEN
100
AcDbSpline
 62
7
  6
CONTINUOUS
 70
0
 71
3
 72
16
 73
12
 74
0
 42
0.0000001
 43
0.0000001
 44
0.0000000001
 40
0.0
 40
0.0
 40
0.0
 40
0.0
 40
0.382014264
 40
0.5546748704
 40
0.7059021768
 40
0.8300252519
 40
0.9224963593
 40
0.9555993705
 40
0.9795698493
 40
0.9942934992
 40
1.0
 40
1.0
 40
1.0
 40
1.0
 10
101.8639242914
 20
63.7409056529
 30
0.0
 10
101.8447838783
 20
63.7409056529
 30
0.0
 10
101.8169890415
 20
63.7411280392
 30
0.0
 10
101.7816345772
 20
63.7419079408
 30
0.0
 10
101.7591849157
 20
63.742633955
 30
0.0
 10
101.7408125469
 20
63.7434795081
 30
0.0
 10
101.7282423242
 20
63.7442676736
 30
0.0
 10
101.720896104
 20
63.7449749841
 30
0.0
 10
101.7171329937
 20
63.7454172653
 30
0.0
 10
101.7152995971
 20
63.7458463099
 30
0.0
 10
101.7139242914
 20
63.7461671209
 30
0.0
 10
101.7139242914
 20
63.7464530389
 30
0.0
  0
SPLINE
  5
4E6
100
AcDbEntity
  8
BEZUGSACHSEN
100
AcDbSpline
 62
7
  6
CONTINUOUS
 70
0
 71
3
 72
13
 73
9
 74
0
 42
0.0000001
 43
0.0000001
 44
0.0000000001
 40
0.0
 40
0.0
 40
0.0
 40
0.0
 40
0.0218072024
 40
0.0749953019
 40
0.1607817658
 40
0.2778471992
 40
0.5948981329
 40
1.0
 40
1.0
 40
1.0
 40
1.0
 10
105.3139242914
 20
63.7333960998
 30
0.0
 10
105.3139242914
 20
63.7340739998
 30
0.0
 10
105.3109879813
 20
63.7350929838
 30
0.0
 10
105.3067253751
 20
63.7359849026
 30
0.0
 10
105.2984799972
 20
63.7370278832
 30
0.0
 10
105.2825709466
 20
63.7383500435
 30
0.0
 10
105.2563648256
 20
63.7395990808
 30
0.0
 10
105.2339703526
 20
63.7401698623
 30
0.0
 10
105.2213794734
 20
63.7404020888
 30
0.0
  0
SPLINE
  5
4E7
100
AcDbEntity
  8
BEZUGSACHSEN
100
AcDbSpline
 62
7
  6
CONTINUOUS
 70
0
 71
3
 72
14
 73
10
 74
0
 42
0.0000001
 43
0.0000001
 44
0.0000000001
 40
0.0
 40
0.0
 40
0.0
 40
0.0
 40
0.3265336539
 40
0.4975166557
 40
0.6574981821
 40
0.7955131695
 40
0.9021334408
 40
0.9707518798
 40
1.0
 40
1.0
 40
1.0
 40
1.0
 10
105.5434241324
 20
63.6714886711
 30
0.0
 10
105.5182354126
 20
63.6696185448
 30
0.0
 10
105.4797110795
 20
63.6684208145
 30
0.0
 10
105.4288992669
 20
63.6690376435
 30
0.0
 10
105.3925272436
 20
63.6707261889
 30
0.0
 10
105.361701664
 20
63.6732598797
 30
0.0
 10
105.3367409215
 20
63.6767747159
 30
0.0
 10
105.3231230199
 20
63.6798910443
 30
0.0
 10
105.3139242914
 20
63.6836190144
 30
0.0
 10
105.3139242914
 20
63.6858814165
 30
0.0
  0
SPLINE
  5
4E8
100
AcDbEntity
  8
_30_VOLUMEN
100
AcDbSpline
 62
7
  6
CONTINUOUS
 70
0
 71
3
 72
37
 73
33
 74
0
 42
0.0000001
 43
0.0000001
 44
0.0000000001
 40
0.0
 40
0.0
 40
0.0
 40
0.0
 40
0.0021872524
 40
0.0054035593
 40
0.0096798278
 40
0.0150231471
 40
0.0288941755
 40
0.046920331
 40
0.0689620564
 40
0.0948262689
 40
0.124288847
 40
0.1570908217
 40
0.192944417
 40
0.2315342807
 40
0.315529607
 40
0.4060939963
 40
0.499999052
 40
0.5939041701
 40
0.6844687332
 40
0.7684643819
 40
0.8070544666
 40
0.842908228
 40
0.8757104378
 40
0.9051731643
 40
0.9310375257
 40
0.9530793331
 40
0.9711056208
 40
0.9849767596
 40
0.9903201116
 40
0.9945964104
 40
0.9978127394
 40
1.0
 40
1.0
 40
1.0
 40
1.0
 10
97.1992056656
 20
45.789092363
 30
0.0
 10
97.1891405104
 20
45.7963428456
 30
0.0
 10
97.1609307392
 20
45.8092243337
 30
0.0
 10
97.1086596933
 20
45.8257858749
 30
0.0
 10
97.037752916
 20
45.8426784705
 30
0.0
 10
96.9069097899
 20
45.8677471121
 30
0.0
 10
96.6977108724
 20
45.8975677527
 30
0.0
 10
96.3936722869
 20
45.9313774745
 30
0.0
 10
96.0212108014
 20
45.9647569492
 30
0.0
 10
95.5836276032
 20
45.9973348544
 30
0.0
 10
95.0847834255
 20
46.0285675944
 30
0.0
 10
94.5290928556
 20
46.0580236009
 30
0.0
 10
93.9214683869
 20
46.0852548964
 30
0.0
 10
93.0235314413
 20
46.1189995196
 30
0.0
 10
91.8151064131
 20
46.1522844381
 30
0.0
 10
90.2927125837
 20
46.1768248031
 30
0.0
 10
88.7139400774
 20
46.1852057637
 30
0.0
 10
87.1351665841
 20
46.176825111
 30
0.0
 10
85.612769581
 20
46.1522850007
 30
0.0
 10
84.4043404832
 20
46.1190001646
 30
0.0
 10
83.5063995021
 20
46.0852557634
 30
0.0
 10
82.8987715073
 20
46.0580243208
 30
0.0
 10
82.3430778134
 20
46.0285683552
 30
0.0
 10
81.8442306196
 20
45.9973354743
 30
0.0
 10
81.4066452633
 20
45.9647575943
 30
0.0
 10
81.034181719
 20
45.9313780185
 30
0.0
 10
80.7301412911
 20
45.8975682196
 30
0.0
 10
80.5209408123
 20
45.8677474387
 30
0.0
 10
80.3900967224
 20
45.8426786073
 30
0.0
 10
80.3191894621
 20
45.825785948
 30
0.0
 10
80.2669180748
 20
45.8092243686
 30
0.0
 10
80.2387081101
 20
45.7963428728
 30
0.0
 10
80.2286429172
 20
45.789092363
 30
0.0
  0
SPLINE
  5
4E9
100
AcDbEntity
  8
_30_VOLUMEN
100
AcDbSpline
 62
7
  6
CONTINUOUS
 70
0
 71
3
 72
37
 73
33
 74
0
 42
0.0000001
 43
0.0000001
 44
0.0000000001
 40
0.0
 40
0.0
 40
0.0
 40
0.0
 40
0.0021872605
 40
0.0054035891
 40
0.0096798874
 40
0.015023239
 40
0.0288943761
 40
0.0469206616
 40
0.0689624667
 40
0.0948268247
 40
0.1242895484
 40
0.1570917542
 40
0.1929455125
 40
0.2315355924
 40
0.3155312335
 40
0.4060957872
 40
0.5000009084
 40
0.5939059894
 40
0.684470404
 40
0.7684657394
 40
0.8070556025
 40
0.8429091963
 40
0.875711167
 40
0.905173742
 40
0.9310379511
 40
0.9530796744
 40
0.9711058276
 40
0.9849768543
 40
0.9903201731
 40
0.9945964411
 40
0.9978127477
 40
1.0
 40
1.0
 40
1.0
 40
1.0
 10
80.2286429172
 20
58.7144683567
 30
0.0
 10
80.2387081095
 20
58.7072178473
 30
0.0
 10
80.2669180711
 20
58.6943363515
 30
0.0
 10
80.319189453
 20
58.6777747727
 30
0.0
 10
80.3900967059
 20
58.6608821145
 30
0.0
 10
80.5209407813
 20
58.635813286
 30
0.0
 10
80.7301412351
 20
58.6059925076
 30
0.0
 10
81.0341816284
 20
58.5721827105
 30
0.0
 10
81.4066451279
 20
58.5388031367
 30
0.0
 10
81.8442304364
 20
58.506225257
 30
0.0
 10
82.3430775722
 20
58.4749923792
 30
0.0
 10
82.8987712095
 20
58.4455364126
 30
0.0
 10
83.5063991369
 20
58.4183049725
 30
0.0
 10
84.4043400298
 20
58.3845605674
 30
0.0
 10
85.6127690043
 20
58.3512757318
 30
0.0
 10
87.135165928
 20
58.3267356134
 30
0.0
 10
88.7139395294
 20
58.3183549564
 30
0.0
 10
90.2927123403
 20
58.3267359154
 30
0.0
 10
91.8151065086
 20
58.3512762823
 30
0.0
 10
93.023531728
 20
58.384561207
 30
0.0
 10
93.9214687133
 20
58.418305838
 30
0.0
 10
94.5290931478
 20
58.445537132
 30
0.0
 10
95.0847836688
 20
58.4749931399
 30
0.0
 10
95.5836277863
 20
58.506225877
 30
0.0
 10
96.0212109353
 20
58.5388037818
 30
0.0
 10
96.3936723766
 20
58.5721832542
 30
0.0
 10
96.6977109279
 20
58.6059929743
 30
0.0
 10
96.9069098205
 20
58.6358136125
 30
0.0
 10
97.037752932
 20
58.6608822512
 30
0.0
 10
97.108659702
 20
58.6777748459
 30
0.0
 10
97.1609307427
 20
58.6943363864
 30
0.0
 10
97.189140511
 20
58.7072178744
 30
0.0
 10
97.1992056656
 20
58.7144683567
 30
0.0
  0
SPLINE
  5
4EA
100
AcDbEntity
  8
_30_VOLUMEN
100
AcDbSpline
 62
7
  6
CONTINUOUS
 70
0
 71
3
 72
15
 73
11
 74
0
 42
0.0000001
 43
0.0000001
 44
0.0000000001
 40
0.0
 40
0.0
 40
0.0
 40
0.0
 40
0.111956766
 40
0.2350592782
 40
0.3656281771
 40
0.4999999929
 40
0.6343718343
 40
0.7649407796
 40
0.8880432553
 40
1.0
 40
1.0
 40
1.0
 40
1.0
 10
97.2139242914
 20
54.5677376485
 30
0.0
 10
97.2139242914
 20
54.3943222849
 30
0.0
 10
97.2424814708
 20
54.0305950429
 30
0.0
 10
97.3107661401
 20
53.4686355346
 30
0.0
 10
97.371294763
 20
52.8703985156
 30
0.0
 10
97.3951192536
 20
52.2517803529
 30
0.0
 10
97.371294699
 20
51.6331621242
 30
0.0
 10
97.3107661763
 20
51.0349250403
 30
0.0
 10
97.2424814451
 20
50.472965556
 30
0.0
 10
97.2139242914
 20
50.1092384018
 30
0.0
 10
97.2139242914
 20
49.9358230711
 30
0.0
  0
LINE
  5
4EB
100
AcDbEntity
  8
0
100
AcDbLine
 62
7
  6
CONTINUOUS
 10
107.5809048693
 20
40.751780361
 11
107.5104046984
 21
40.7524838498
  0
SPLINE
  5
4EC
100
AcDbEntity
  8
_30_VOLUMEN
100
AcDbSpline
 62
7
  6
CONTINUOUS
 70
0
 71
3
 72
15
 73
11
 74
0
 42
0.0000001
 43
0.0000001
 44
0.0000000001
 40
0.0
 40
0.0
 40
0.0
 40
0.0
 40
0.1122065399
 40
0.2353439388
 40
0.3658068233
 40
0.4999999952
 40
0.6341931462
 40
0.7646560015
 40
0.8877934395
 40
1.0
 40
1.0
 40
1.0
 40
1.0
 10
80.2139242914
 20
49.9539553012
 30
0.0
 10
80.2139242914
 20
50.1263650526
 30
0.0
 10
80.1864063222
 20
50.4876380614
 30
0.0
 10
80.1205480923
 20
51.0456113626
 30
0.0
 10
80.0623077342
 20
51.638836438
 30
0.0
 10
80.0394114011
 20
52.2517803053
 30
0.0
 10
80.0623077016
 20
52.8647241304
 30
0.0
 10
80.1205481117
 20
53.4579491838
 30
0.0
 10
80.1864063006
 20
54.0159225362
 30
0.0
 10
80.2139242914
 20
54.3771956354
 30
0.0
 10
80.2139242914
 20
54.5496054184
 30
0.0
  0
SPLINE
  5
4ED
100
AcDbEntity
  8
BEZUGSACHSEN
100
AcDbSpline
 62
7
  6
CONTINUOUS
 70
0
 71
3
 72
14
 73
10
 74
0
 42
0.0000001
 43
0.0000001
 44
0.0000000001
 40
0.0
 40
0.0
 40
0.0
 40
0.0
 40
0.0288243265
 40
0.0972398938
 40
0.2040570031
 40
0.3420235153
 40
0.5021383205
 40
0.6733446369
 40
1.0
 40
1.0
 40
1.0
 40
1.0
 10
105.3139242914
 20
64.1886420485
 30
0.0
 10
105.3139242914
 20
64.1864143762
 30
0.0
 10
105.3232543383
 20
64.1829565728
 30
0.0
 10
105.336722939
 20
64.1798779678
 30
0.0
 10
105.3617493628
 20
64.1765711402
 30
0.0
 10
105.3925478669
 20
64.1741109612
 30
0.0
 10
105.4289250731
 20
64.1725185057
 30
0.0
 10
105.4797254866
 20
64.1719111994
 30
0.0
 10
105.5182423396
 20
64.1730655369
 30
0.0
 10
105.5434241324
 20
64.1748562178
 30
0.0
  0
SPLINE
  5
4EE
100
AcDbEntity
  8
BEZUGSACHSEN
100
AcDbSpline
 62
7
  6
CONTINUOUS
 70
0
 71
3
 72
14
 73
10
 74
0
 42
0.0000001
 43
0.0000001
 44
0.0000000001
 40
0.0
 40
0.0
 40
0.0
 40
0.0
 40
0.3808512879
 40
0.5537284405
 40
0.704717251
 40
0.8286625661
 40
0.9207852317
 40
0.9781436313
 40
1.0
 40
1.0
 40
1.0
 40
1.0
 10
105.1639242914
 20
64.2413591681
 30
0.0
 10
105.1830446633
 20
64.2413591681
 30
0.0
 10
105.2108672534
 20
64.2411517172
 30
0.0
 10
105.2461856832
 20
64.2403574582
 30
0.0
 10
105.2687807967
 20
64.239583005
 30
0.0
 10
105.2868335239
 20
64.2385463801
 30
0.0
 10
105.3013544522
 20
64.2375282338
 30
0.0
 10
105.3083246238
 20
64.2360858375
 30
0.0
 10
105.3139242914
 20
64.2352605451
 30
0.0
 10
105.3139242914
 20
64.2341632614
 30
0.0
  0
SPLINE
  5
4EF
100
AcDbEntity
  8
BEZUGSACHSEN
100
AcDbSpline
 62
7
  6
CONTINUOUS
 70
0
 71
3
 72
16
 73
12
 74
0
 42
0.0000001
 43
0.0000001
 44
0.0000000001
 40
0.0
 40
0.0
 40
0.0
 40
0.0
 40
0.005681962
 40
0.0204822768
 40
0.0445120386
 40
0.0775679677
 40
0.1697570837
 40
0.2939231555
 40
0.4452110787
 40
0.6184277105
 40
1.0
 40
1.0
 40
1.0
 40
1.0
 10
101.7139242914
 20
64.2466751072
 30
0.0
 10
101.7139242914
 20
64.2463904693
 30
0.0
 10
101.7153268561
 20
64.2461075395
 30
0.0
 10
101.7171493592
 20
64.245677526
 30
0.0
 10
101.7209285561
 20
64.2452643068
 30
0.0
 10
101.7282570213
 20
64.2445787448
 30
0.0
 10
101.7408162156
 20
64.2438251425
 30
0.0
 10
101.7591761662
 20
64.2430147781
 30
0.0
 10
101.7816563832
 20
64.2423163747
 30
0.0
 10
101.8170139203
 20
64.2415797864
 30
0.0
 10
101.8448094259
 20
64.2413591681
 30
0.0
 10
101.8639242914
 20
64.2413591681
 30
0.0
  0
LINE
  5
4F0
100
AcDbEntity
  8
BEZUGSACHSEN
100
AcDbLine
 62
7
  6
CONTINUOUS
 10
107.5809048693
 20
63.7517803586
 11
107.5104046984
 21
63.7510768698
  0
SPLINE
  5
4F1
100
AcDbEntity
  8
BEZUGSACHSEN
100
AcDbSpline
 62
7
  6
CONTINUOUS
 70
0
 71
3
 72
9
 73
5
 74
0
 42
0.0000001
 43
0.0000001
 44
0.0000000001
 40
0.0
 40
0.0
 40
0.0
 40
0.0
 40
0.7332280068
 40
1.0
 40
1.0
 40
1.0
 40
1.0
 10
107.5104046984
 20
64.2511061836
 30
0.0
 10
107.5276360196
 20
64.2512203473
 30
0.0
 10
107.5339217649
 20
64.2507870856
 30
0.0
 10
107.5871623494
 20
64.2521673605
 30
0.0
 10
107.5809048573
 20
64.2517803598
 30
0.0
  0
ELLIPSE
  5
4F2
100
AcDbEntity
  8
0
100
AcDbEllipse
 62
7
  6
CONTINUOUS
 10
107.7139242914
 20
52.2517803598
 30
0.0
 11
18.4
 21
-0.0
 31
0.0
 40
0.625
 41
-1.6890335933
 42
-1.5818573998
  0
ELLIPSE
  5
4F3
100
AcDbEntity
  8
BEZUGSACHSEN
100
AcDbEllipse
 62
7
  6
CONTINUOUS
 10
107.7139242914
 20
52.2517803598
 30
0.0
 11
18.4
 21
0.0
 31
0.0
 40
0.625
 41
1.5818573998
 42
1.6890335933
  0
ELLIPSE
  5
4F4
100
AcDbEntity
  8
BEZUGSACHSEN
100
AcDbEllipse
 62
7
  6
CONTINUOUS
 10
107.7139242914
 20
52.2517803598
 30
0.0
 11
19.2
 21
-0.0
 31
0.0
 40
0.625
 41
1.5813965041
 42
1.6840853877
  0
ELLIPSE
  5
4F5
100
AcDbEntity
  8
0
100
AcDbEllipse
 62
7
  6
CONTINUOUS
 10
107.7139242914
 20
52.2517803598
 30
0.0
 11
19.2
 21
-0.0
 31
0.0
 40
0.625
 41
-1.6840853877
 42
-1.5813965041
  0
ENDSEC
  0
SECTION
  2
OBJECTS
  0
DICTIONARY
  5
C
100
AcDbDictionary
280
0
281
1
  3
ACAD_GROUP
350
D
  3
ACAD_MLINESTYLE
350
17
  3
ACAD_LAYOUT
350
1A
  3
ACAD_PLOTSETTINGS
350
19
  3
ACAD_PLOTSTYLENAME
350
E
  0
DICTIONARY
  5
D
102
{ACAD_REACTORS
330
C
102
}
100
AcDbDictionary
280
0
281
1
  0
ACDBDICTIONARYWDFLT
  5
E
102
{ACAD_REACTORS
330
C
102
}
100
AcDbDictionary
281
1
  3
Normal
350
F
100
AcDbDictionaryWithDefault
340
F
  0
DICTIONARY
  5
17
102
{ACAD_REACTORS
330
C
102
}
100
AcDbDictionary
280
0
281
1
  3
Standard
350
18
  0
DICTIONARY
  5
19
102
{ACAD_REACTORS
330
C
102
}
100
AcDbDictionary
281
1
  0
DICTIONARY
  5
1A
102
{ACAD_REACTORS
330
C
102
}
100
AcDbDictionary
281
1
  3
Model
350
4F6
  3
Layout1
350
4F7
  0
ACDBPLACEHOLDER
  5
F
102
{ACAD_REACTORS
330
E
102
}
  0
MLINESTYLE
  5
18
102
{ACAD_REACTORS
330
17
102
}
100
AcDbMlineStyle
  2
STANDARD
 70
0
  3

 62
256
 51
90.0
 52
90.0
 71
2
 49
0.5
 62
256
  6
BYLAYER
 49
-0.5
 62
256
  6
BYLAYER
  0
LAYOUT
  5
4F6
102
{ACAD_REACTORS
330
1A
102
}
100
AcDbPlotSettings
  1

  2
none_device
  4
ISO_A4_(297.00_x_210.00_MM)
  6

 40
0.0
 41
0.0
 42
0.0
 43
0.0
 44
297.0
 45
210.0
 46
0.0
 47
0.0
 48
0.0
 49
0.0
140
0.0
141
0.0
142
1.0
143
1.0
 70
1024
 72
1
 73
0
 74
0
  7

 75
0
147
1.0
148
0.0
149
0.0
100
AcDbLayout
  1
Model
 70
0
 71
0
 10
0.0
 20
0.0
 11
297.0
 21
210.0
 12
0.0
 22
0.0
 32
0.0
 14
0.0
 24
0.0
 34
0.0
 15
0.0
 25
0.0
 35
0.0
146
0.0
 13
0.0
 23
0.0
 33
0.0
 16
1.0
 26
0.0
 36
0.0
 17
0.0
 27
1.0
 37
0.0
 76
0
330
218
345
0
346
0
  0
LAYOUT
  5
4F7
102
{ACAD_REACTORS
330
1A
102
}
100
AcDbPlotSettings
  1

  2
none_device
  4
ISO_A4_(297.00_x_210.00_MM)
  6

 40
0.0
 41
0.0
 42
0.0
 43
0.0
 44
297.0
 45
210.0
 46
0.0
 47
0.0
 48
0.0
 49
0.0
140
0.0
141
0.0
142
1.0
143
1.0
 70
0
 72
1
 73
0
 74
0
  7

 75
0
147
1.0
148
0.0
149
0.0
100
AcDbLayout
  1
Layout1
 70
0
 71
1
 10
0.0
 20
0.0
 11
297.0
 21
210.0
 12
0.0
 22
0.0
 32
0.0
 14
0.0
 24
0.0
 34
0.0
 15
0.0
 25
0.0
 35
0.0
146
0.0
 13
0.0
 23
0.0
 33
0.0
 16
1.0
 26
0.0
 36
0.0
 17
0.0
 27
1.0
 37
0.0
 76
0
330
219
345
0
346
0
  0
ENDSEC
  0
EOF
