999
DXF file: ICE-CCS-16_7912247_m36169-p-01.dxf
999
Pro/ENGINEER 2022162 by Parametric Technology Corporation
  0
SECTION
  2
HEADER
  9
$ACADVER
  1
AC1021
  9
$DWGCODEPAGE
  3
ANSI_1252
  9
$EXTMAX
 10
420.0
 20
297.0
 30
0.0
  9
$EXTMIN
 10
0.0
 20
0.0
 30
0.0
  9
$LIMMIN
 10
0.0
 20
0.0
  9
$LIMMAX
 10
420.0
 20
297.0
  9
$VIEWCTR
 10
210.0
 20
148.5
  9
$VIEWSIZE
 40
297.0
  9
$CLAYER
  8
0
  9
$LTSCALE
 40
23.1
  9
$CELTYPE
  6
BYLAYER
  9
$DIMSCALE
 40
1.0
  9
$DIMASZ
 40
3.5
  9
$DIMEXO
 40
0.0
  9
$DIMDLI
 40
15.96
  9
$DIMEXE
 40
1.5
  9
$DIMCEN
 40
3.78
  9
$DIMLFAC
 40
1.0
  9
$DIMBLK
  1
_FILLED
  9
$DIMALT
 70
0
  9
$DIMALTF
 40
0.0393700787
  9
$DIMTXT
 40
3.5
  9
$DIMTOL
 70
1
  9
$DIMLIM
 70
0
  9
$DIMTFAC
 40
1.0
  9
$DIMTP
 40
0.01
  9
$DIMTM
 40
0.01
  9
$DIMGAP
 40
0.625
  9
$DIMDSEP
 70
46
  9
$AUNITS
 70
0
  9
$PDMODE
 70
3
  9
$PDSIZE
 40
0.3125
  9
$HANDSEED
  5
4D7
  9
$TILEMODE
 70
1
  9
$MEASUREMENT
 70
1
  9
$INSUNITS
 70
4
  0
ENDSEC
  0
SECTION
  2
CLASSES
  0
CLASS
  1
ACDBDICTIONARYWDFLT
  2
AcDbDictionaryWithDefault
  3
AutoCAD 2000
 90
0
 91
1
280
0
281
0
  0
CLASS
  1
ACDBPLACEHOLDER
  2
AcDbPlaceHolder
  3
AutoCAD 2000
 90
0
 91
1
280
0
281
0
  0
CLASS
  1
LAYOUT
  2
AcDbLayout
  3
AutoCAD 2000
 90
0
 91
0
280
0
281
0
  0
ENDSEC
  0
SECTION
  2
TABLES
  0
TABLE
  2
VPORT
  5
8
100
AcDbSymbolTable
 70
2
  0
VPORT
  5
1F4
100
AcDbSymbolTableRecord
100
AcDbViewportTableRecord
  2
*ACTIVE
 70
0
 10
0.0
 20
0.0
 11
1.0
 21
1.0
 12
210.0
 22
148.5
 13
0.0
 23
0.0
 14
1.0
 24
1.0
 15
0.0
 25
0.0
 16
0.0
 26
0.0
 36
1.0
 17
0.0
 27
0.0
 37
0.0
 40
297.0
 41
1.4141414141
 42
50.0
 43
0.0
 44
0.0
 50
0.0
 51
0.0
 71
0
 72
100
 73
1
 74
1
 75
0
 76
0
 77
0
 78
0
  0
ENDTAB
  0
TABLE
  2
LTYPE
  5
5
100
AcDbSymbolTable
 70
6
  0
LTYPE
  5
14
100
AcDbSymbolTableRecord
100
AcDbLinetypeTableRecord
  2
BYBLOCK
 70
0
  3

 72
65
 73
0
 40
0.0
  0
LTYPE
  5
15
100
AcDbSymbolTableRecord
100
AcDbLinetypeTableRecord
  2
BYLAYER
 70
0
  3

 72
65
 73
0
 40
0.0
  0
LTYPE
  5
16
100
AcDbSymbolTableRecord
100
AcDbLinetypeTableRecord
  2
CONTINUOUS
 70
64
  3
Solid line
 72
65
 73
0
 40
0.0
  0
LTYPE
  5
1F5
100
AcDbSymbolTableRecord
100
AcDbLinetypeTableRecord
  2
CENTER
 70
64
  3
____ _ ____ _ ____ _ ____ _ ____ _ ____ _ ____
 72
65
 73
4
 40
0.6
 49
0.375
 74
0
 49
-0.075
 74
0
 49
0.075
 74
0
 49
-0.075
 74
0
  0
LTYPE
  5
1F6
100
AcDbSymbolTableRecord
100
AcDbLinetypeTableRecord
  2
HIDDEN
 70
64
  3
- - - - - - - - - - - - - - - - - - - -
 72
65
 73
2
 40
0.2
 49
0.1
 74
0
 49
-0.1
 74
0
  0
LTYPE
  5
1F7
100
AcDbSymbolTableRecord
100
AcDbLinetypeTableRecord
  2
PHANTOM
 70
64
  3
_____ _ _ _____ _ _ _____ _ _ _____
 72
65
 73
6
 40
0.8
 49
0.45
 74
0
 49
-0.05
 74
0
 49
0.1
 74
0
 49
-0.05
 74
0
 49
0.1
 74
0
 49
-0.05
 74
0
  0
LTYPE
  5
1F8
100
AcDbSymbolTableRecord
100
AcDbLinetypeTableRecord
  2
DOT
 70
64
  3
. . . . . . . . . . . . . . . . . . . .
 72
65
 73
2
 40
0.2
 49
0.1
 74
0
 49
-0.1
 74
0
  0
LTYPE
  5
1F9
100
AcDbSymbolTableRecord
100
AcDbLinetypeTableRecord
  2
DASHED
 70
64
  3
- - - - - - - - - - - - - - - - - - - -
 72
65
 73
2
 40
0.2
 49
0.1
 74
0
 49
-0.1
 74
0
  0
ENDTAB
  0
TABLE
  2
LAYER
  5
2
100
AcDbSymbolTable
 70
36
  0
LAYER
  5
10
100
AcDbSymbolTableRecord
100
AcDbLayerTableRecord
  2
0
 70
0
 62
7
  6
CONTINUOUS
370
-3
390
F
  0
LAYER
  5
1FA
100
AcDbSymbolTableRecord
100
AcDbLayerTableRecord
  2
DEFAULT_1
 70
0
 62
7
  6
CENTER
370
-3
390
F
  0
LAYER
  5
1FB
100
AcDbSymbolTableRecord
100
AcDbLayerTableRecord
  2
DEFAULT_2
 70
0
 62
8
  6
HIDDEN
370
-3
390
F
  0
LAYER
  5
1FC
100
AcDbSymbolTableRecord
100
AcDbLayerTableRecord
  2
DEFAULT_3
 70
0
 62
7
  6
PHANTOM
370
-3
390
F
  0
LAYER
  5
1FD
100
AcDbSymbolTableRecord
100
AcDbLayerTableRecord
  2
AUSFORMSCHRAEGEN
 70
0
 62
7
  6
CONTINUOUS
370
-3
390
F
  0
LAYER
  5
1FE
100
AcDbSymbolTableRecord
100
AcDbLayerTableRecord
  2
BEZUGSACHSEN
 70
0
 62
7
  6
CONTINUOUS
370
-3
390
F
  0
LAYER
  5
1FF
100
AcDbSymbolTableRecord
100
AcDbLayerTableRecord
  2
BEZUGSEBENEN
 70
0
 62
7
  6
CONTINUOUS
370
-3
390
F
  0
LAYER
  5
200
100
AcDbSymbolTableRecord
100
AcDbLayerTableRecord
  2
BOHRUNGEN
 70
0
 62
7
  6
CONTINUOUS
370
-3
390
F
  0
LAYER
  5
201
100
AcDbSymbolTableRecord
100
AcDbLayerTableRecord
  2
FASEN
 70
0
 62
7
  6
CONTINUOUS
370
-3
390
F
  0
LAYER
  5
202
100
AcDbSymbolTableRecord
100
AcDbLayerTableRecord
  2
GEWINDE
 70
0
 62
7
  6
CONTINUOUS
370
-3
390
F
  0
LAYER
  5
203
100
AcDbSymbolTableRecord
100
AcDbLayerTableRecord
  2
HILFEN
 70
0
 62
7
  6
CONTINUOUS
370
-3
390
F
  0
LAYER
  5
204
100
AcDbSymbolTableRecord
100
AcDbLayerTableRecord
  2
KONSTRUKTIONSELEMENTE
 70
0
 62
7
  6
CONTINUOUS
370
-3
390
F
  0
LAYER
  5
205
100
AcDbSymbolTableRecord
100
AcDbLayerTableRecord
  2
KURVEN
 70
0
 62
7
  6
CONTINUOUS
370
-3
390
F
  0
LAYER
  5
206
100
AcDbSymbolTableRecord
100
AcDbLayerTableRecord
  2
PLATZIERUNG
 70
0
 62
7
  6
CONTINUOUS
370
-3
390
F
  0
LAYER
  5
207
100
AcDbSymbolTableRecord
100
AcDbLayerTableRecord
  2
PLAZIERUNG
 70
0
 62
7
  6
CONTINUOUS
370
-3
390
F
  0
LAYER
  5
208
100
AcDbSymbolTableRecord
100
AcDbLayerTableRecord
  2
RUNDUNGEN
 70
0
 62
7
  6
CONTINUOUS
370
-3
390
F
  0
LAYER
  5
209
100
AcDbSymbolTableRecord
100
AcDbLayerTableRecord
  2
TEIL_STARTBEZUEGE
 70
0
 62
7
  6
CONTINUOUS
370
-3
390
F
  0
LAYER
  5
20A
100
AcDbSymbolTableRecord
100
AcDbLayerTableRecord
  2
T_STARTBEZUEGE
 70
0
 62
7
  6
CONTINUOUS
370
-3
390
F
  0
LAYER
  5
20B
100
AcDbSymbolTableRecord
100
AcDbLayerTableRecord
  2
_00_ASM_START_FEATURES
 70
0
 62
7
  6
CONTINUOUS
370
-3
390
F
  0
LAYER
  5
20C
100
AcDbSymbolTableRecord
100
AcDbLayerTableRecord
  2
_00_HILFEN
 70
0
 62
7
  6
CONTINUOUS
370
-3
390
F
  0
LAYER
  5
20D
100
AcDbSymbolTableRecord
100
AcDbLayerTableRecord
  2
_00_PLATZIERUNG
 70
0
 62
7
  6
CONTINUOUS
370
-3
390
F
  0
LAYER
  5
20E
100
AcDbSymbolTableRecord
100
AcDbLayerTableRecord
  2
_03_2D_ZEICHNUNG_BEMASSUNGEN
 70
0
 62
7
  6
CONTINUOUS
370
-3
390
F
  0
LAYER
  5
20F
100
AcDbSymbolTableRecord
100
AcDbLayerTableRecord
  2
_04_NOTIZEN
 70
0
 62
7
  6
CONTINUOUS
370
-3
390
F
  0
LAYER
  5
210
100
AcDbSymbolTableRecord
100
AcDbLayerTableRecord
  2
_21_KURVEN
 70
0
 62
7
  6
CONTINUOUS
370
-3
390
F
  0
LAYER
  5
211
100
AcDbSymbolTableRecord
100
AcDbLayerTableRecord
  2
_26_BEZUGSACHSEN
 70
0
 62
7
  6
CONTINUOUS
370
-3
390
F
  0
LAYER
  5
212
100
AcDbSymbolTableRecord
100
AcDbLayerTableRecord
  2
_27_BEZUGSEBENEN
 70
0
 62
7
  6
CONTINUOUS
370
-3
390
F
  0
LAYER
  5
213
100
AcDbSymbolTableRecord
100
AcDbLayerTableRecord
  2
_29_KOORDINATENSYSTEME
 70
0
 62
7
  6
CONTINUOUS
370
-3
390
F
  0
LAYER
  5
214
100
AcDbSymbolTableRecord
100
AcDbLayerTableRecord
  2
_30_VOLUMEN
 70
0
 62
7
  6
CONTINUOUS
370
-3
390
F
  0
ENDTAB
  0
TABLE
  2
STYLE
  5
3
100
AcDbSymbolTable
 70
1
  0
STYLE
  5
11
100
AcDbSymbolTableRecord
100
AcDbTextStyleTableRecord
  2
STANDARD
 70
0
 40
0.0
 41
1.0
 50
0.0
 71
0
 42
0.2
  3
isonormlt-regular.ttf
  4

1001
ACAD
1000
Isonorm LT Regular
1071
34
  0
STYLE
  5
215
100
AcDbSymbolTableRecord
100
AcDbTextStyleTableRecord
  2
TEXTSTYLE_1
 70
0
 40
0.0
 41
0.8
 50
0.0
 71
0
 42
0.2
  3
gdt
  4

  0
ENDTAB
  0
TABLE
  2
VIEW
  5
6
100
AcDbSymbolTable
 70
0
  0
ENDTAB
  0
TABLE
  2
UCS
  5
7
100
AcDbSymbolTable
 70
0
  0
ENDTAB
  0
TABLE
  2
APPID
  5
9
100
AcDbSymbolTable
 70
1
  0
APPID
  5
216
100
AcDbSymbolTableRecord
100
AcDbRegAppTableRecord
  2
ACAD
 70
0
  0
ENDTAB
  0
TABLE
  2
BLOCK_RECORD
  5
1
100
AcDbSymbolTable
 70
0
  0
BLOCK_RECORD
  5
217
100
AcDbSymbolTableRecord
100
AcDbBlockTableRecord
  2
*Model_Space
  0
BLOCK_RECORD
  5
218
100
AcDbSymbolTableRecord
100
AcDbBlockTableRecord
  2
*Paper_Space
  0
BLOCK_RECORD
  5
219
100
AcDbSymbolTableRecord
100
AcDbBlockTableRecord
  2
_FILLED
  0
ENDTAB
  0
TABLE
  2
DIMSTYLE
  5
A
100
AcDbSymbolTable
 70
1
100
AcDbDimStyleTable
 71
0
  0
DIMSTYLE
105
21A
100
AcDbSymbolTableRecord
100
AcDbDimStyleTableRecord
  2
STANDARD
 70
0
  3

  4

 40
1.0
 41
3.5
 42
0.0
 43
0.38
 44
1.5
 45
0.0
 46
0.0
 47
0.01
 48
0.01
140
3.5
141
0.09
142
0.0
143
25.4
144
1.0
145
0.0
146
1.0
147
0.625
 71
1
 72
0
 73
0
 74
0
 75
0
 76
0
 77
1
 78
8
 79
2
170
0
171
1
172
0
173
0
174
0
175
0
176
0
177
0
178
5
270
2
179
2
271
2
272
2
273
2
274
2
275
0
280
0
281
0
282
0
283
1
284
8
285
0
286
0
287
3
288
0
340
11
278
46
341
219
342
219
343
219
344
219
  0
ENDTAB
  0
ENDSEC
  0
SECTION
  2
BLOCKS
  0
BLOCK
  5
20
100
AcDbEntity
  8
0
100
AcDbBlockBegin
  2
*Model_Space
 70
0
 10
0.0
 20
0.0
 30
0.0
  3
*Model_Space
  1

  0
ENDBLK
  5
21
100
AcDbEntity
  8
0
100
AcDbBlockEnd
  0
BLOCK
  5
1C
100
AcDbEntity
  8
0
100
AcDbBlockBegin
  2
*Paper_Space
 70
0
 10
0.0
 20
0.0
 30
0.0
  3
*Paper_Space
  1

  0
ENDBLK
  5
1D
100
AcDbEntity
  8
0
100
AcDbBlockEnd
  0
BLOCK
  5
21B
100
AcDbEntity
  8
0
100
AcDbBlockBegin
  2
_FILLED
 70
64
 10
0.0
 20
0.0
  3
_FILLED
  1

  0
SOLID
  5
21C
100
AcDbEntity
  8
0
  6
BYBLOCK
 62
0
100
AcDbTrace
 10
0.0
 20
0.0
 11
-1.0
 21
0.125
 12
-1.0
 22
-0.125
 13
-1.0
 23
-0.125
  0
ENDBLK
  5
21D
100
AcDbEntity
  8
0
  6
BYBLOCK
 62
0
100
AcDbBlockEnd
  0
ENDSEC
  0
SECTION
  2
ENTITIES
  0
MTEXT
  5
21E
100
AcDbEntity
  8
_04_NOTIZEN
100
AcDbMText
 62
5
  6
CONTINUOUS
  7
STANDARD
 71
1
 72
1
 10
89.7198151515
 20
152.316439859
 30
0.0
 11
0.0
 21
1.0
 31
0.0
 73
2
 44
0.9
  1
RUD
 40
6.0
 41
14.976
  0
MTEXT
  5
21F
100
AcDbEntity
  8
_04_NOTIZEN
100
AcDbMText
 62
5
  6
CONTINUOUS
  7
STANDARD
 71
1
 72
1
 10
153.647803827
 20
159.9641689081
 30
0.0
 11
1.0
 21
0.0
 31
0.0
 73
2
 44
0.9
  1
ICE
 40
6.0
 41
10.056
  0
MTEXT
  5
220
100
AcDbEntity
  8
_04_NOTIZEN
100
AcDbMText
 62
5
  6
CONTINUOUS
  7
STANDARD
 71
1
 72
1
 10
274.2680367538
 20
173.710361591
 30
0.0
 11
0.0
 21
1.0
 31
0.0
 73
2
 44
0.9
  1
ICE CCS
 40
5.0
 41
19.58
  0
MTEXT
  5
221
100
AcDbEntity
  8
_04_NOTIZEN
100
AcDbMText
 62
5
  6
CONTINUOUS
  7
STANDARD
 71
1
 72
1
 10
96.9907220968
 20
56.7226804973
 30
0.0
 11
1.0
 21
0.0
 31
0.0
 73
2
 44
0.9
  1
RUD ICE CCS 16
 40
6.0
 41
49.992
  0
LINE
  5
222
100
AcDbEntity
  8
0
100
AcDbLine
 62
7
  6
CONTINUOUS
 10
0.0
 20
0.0
 11
0.0
 21
297.0
  0
LINE
  5
223
100
AcDbEntity
  8
0
100
AcDbLine
 62
7
  6
CONTINUOUS
 10
0.0
 20
0.0
 11
420.0
 21
0.0
  0
LINE
  5
224
100
AcDbEntity
  8
0
100
AcDbLine
 62
7
  6
CONTINUOUS
 10
0.0
 20
297.0
 11
420.0
 21
297.0
  0
LINE
  5
225
100
AcDbEntity
  8
0
100
AcDbLine
 62
7
  6
CONTINUOUS
 10
420.0
 20
0.0
 11
420.0
 21
297.0
  0
LINE
  5
226
100
AcDbEntity
  8
FASEN
100
AcDbLine
 62
7
  6
CONTINUOUS
 10
65.3284108229
 20
120.0612956511
 11
65.8284108229
 21
119.5612956511
  0
LINE
  5
227
100
AcDbEntity
  8
0
100
AcDbLine
 62
7
  6
CONTINUOUS
 10
175.6284108232
 20
112.0612956509
 11
144.8284108232
 21
112.0612956509
  0
LINE
  5
228
100
AcDbEntity
  8
0
100
AcDbLine
 62
7
  6
CONTINUOUS
 10
101.8284108232
 20
112.0612956509
 11
85.8284108232
 21
112.0612956509
  0
LINE
  5
229
100
AcDbEntity
  8
BEZUGSACHSEN
100
AcDbLine
 62
7
  6
CONTINUOUS
 10
81.8284108232
 20
118.5612956509
 11
80.3284108232
 21
118.5612956509
  0
LINE
  5
22A
100
AcDbEntity
  8
FASEN
100
AcDbLine
 62
7
  6
CONTINUOUS
 10
79.8284108232
 20
119.5612956509
 11
65.8284108232
 21
119.5612956509
  0
LINE
  5
22B
100
AcDbEntity
  8
_30_VOLUMEN
100
AcDbLine
 62
7
  6
CONTINUOUS
 10
175.6284108232
 20
124.5612956509
 11
175.9284108232
 21
124.5612956509
  0
LINE
  5
22C
100
AcDbEntity
  8
FASEN
100
AcDbLine
 62
7
  6
CONTINUOUS
 10
65.3284108232
 20
120.0612956509
 11
65.3284108232
 21
159.0612956509
  0
LINE
  5
22D
100
AcDbEntity
  8
0
100
AcDbLine
 62
7
  6
CONTINUOUS
 10
142.3284108232
 20
127.5612956509
 11
104.3284108232
 21
127.5612956509
  0
LINE
  5
22E
100
AcDbEntity
  8
0
100
AcDbLine
 62
7
  6
CONTINUOUS
 10
179.8991092099
 20
128.5612956509
 11
176.6284108232
 21
128.5612956509
  0
LINE
  5
22F
100
AcDbEntity
  8
0
100
AcDbLine
 62
7
  6
CONTINUOUS
 10
176.6284108232
 20
131.5612956509
 11
175.9284108232
 21
131.5612956509
  0
LINE
  5
230
100
AcDbEntity
  8
FASEN
100
AcDbLine
 62
7
  6
CONTINUOUS
 10
65.8284108232
 20
119.5612956509
 11
65.8284108232
 21
159.5612956509
  0
LINE
  5
231
100
AcDbEntity
  8
0
100
AcDbLine
 62
7
  6
CONTINUOUS
 10
150.8584061453
 20
137.8946289842
 11
161.8584061453
 21
137.8946289842
  0
LINE
  5
232
100
AcDbEntity
  8
0
100
AcDbLine
 62
7
  6
CONTINUOUS
 10
150.8584061453
 20
141.2279623175
 11
161.8584061453
 21
141.2279623175
  0
LINE
  5
233
100
AcDbEntity
  8
FASEN
100
AcDbLine
 62
7
  6
CONTINUOUS
 10
79.8284108234
 20
159.5612956506
 11
80.3284108234
 21
159.0612956506
  0
LINE
  5
234
100
AcDbEntity
  8
0
100
AcDbLine
 62
7
  6
CONTINUOUS
 10
176.6284108232
 20
147.5612956509
 11
175.9284108232
 21
147.5612956509
  0
LINE
  5
235
100
AcDbEntity
  8
FASEN
100
AcDbLine
 62
7
  6
CONTINUOUS
 10
79.8284108232
 20
119.5612956509
 11
79.8284108232
 21
159.5612956509
  0
LINE
  5
236
100
AcDbEntity
  8
BEZUGSACHSEN
100
AcDbLine
 62
7
  6
CONTINUOUS
 10
80.3284108232
 20
160.5612956509
 11
80.3284108232
 21
118.5612956509
  0
LINE
  5
237
100
AcDbEntity
  8
BEZUGSACHSEN
100
AcDbLine
 62
7
  6
CONTINUOUS
 10
83.3284108232
 20
114.5612956509
 11
83.3284108232
 21
160.898277915
  0
LINE
  5
238
100
AcDbEntity
  8
RUNDUNGEN
100
AcDbLine
 62
7
  6
CONTINUOUS
 10
83.3284108232
 20
114.6067512979
 11
83.3284108232
 21
193.5612956509
  0
LINE
  5
239
100
AcDbEntity
  8
0
100
AcDbLine
 62
7
  6
CONTINUOUS
 10
179.8991092099
 20
150.5612956509
 11
176.6284108232
 21
150.5612956509
  0
LINE
  5
23A
100
AcDbEntity
  8
0
100
AcDbLine
 62
7
  6
CONTINUOUS
 10
142.3284108232
 20
151.5612956509
 11
104.3284108232
 21
151.5612956509
  0
LINE
  5
23B
100
AcDbEntity
  8
0
100
AcDbLine
 62
7
  6
CONTINUOUS
 10
90.5613895009
 20
174.6662956211
 11
91.0720277379
 21
174.1662956509
  0
LINE
  5
23C
100
AcDbEntity
  8
0
100
AcDbLine
 62
7
  6
CONTINUOUS
 10
91.3273468564
 20
174.9162956509
 11
91.0720277379
 21
175.2912956509
  0
LINE
  5
23D
100
AcDbEntity
  8
0
100
AcDbLine
 62
7
  6
CONTINUOUS
 10
90.3060703824
 20
175.1662956807
 11
90.5613895009
 21
174.6662956211
  0
LINE
  5
23E
100
AcDbEntity
  8
0
100
AcDbLine
 62
7
  6
CONTINUOUS
 10
90.1784108232
 20
188.166295174
 11
90.1784108232
 21
187.5412961277
  0
LINE
  5
23F
100
AcDbEntity
  8
0
100
AcDbLine
 62
7
  6
CONTINUOUS
 10
90.1784108232
 20
182.7912956509
 11
90.1784108232
 21
181.6662956509
  0
LINE
  5
240
100
AcDbEntity
  8
0
100
AcDbLine
 62
7
  6
CONTINUOUS
 10
90.1784108232
 20
176.9162955317
 11
90.1784108232
 21
175.7912957105
  0
LINE
  5
241
100
AcDbEntity
  8
0
100
AcDbLine
 62
7
  6
CONTINUOUS
 10
90.9443681787
 20
175.7912957105
 11
90.9443681787
 21
176.9162955317
  0
LINE
  5
242
100
AcDbEntity
  8
0
100
AcDbLine
 62
7
  6
CONTINUOUS
 10
90.9443681787
 20
181.6662956509
 11
90.9443681787
 21
182.7912956509
  0
LINE
  5
243
100
AcDbEntity
  8
0
100
AcDbLine
 62
7
  6
CONTINUOUS
 10
90.9443681787
 20
187.5412961277
 11
90.9443681787
 21
188.2912961277
  0
LINE
  5
244
100
AcDbEntity
  8
0
100
AcDbLine
 62
7
  6
CONTINUOUS
 10
91.5826659749
 20
189.0412961277
 11
91.5826659749
 21
189.7912961277
  0
LINE
  5
245
100
AcDbEntity
  8
0
100
AcDbLine
 62
7
  6
CONTINUOUS
 10
91.7103258918
 20
177.9162956509
 11
91.7103258918
 21
178.6662956509
  0
LINE
  5
246
100
AcDbEntity
  8
0
100
AcDbLine
 62
7
  6
CONTINUOUS
 10
91.7103258918
 20
183.7912954125
 11
91.7103258918
 21
184.5412954125
  0
LINE
  5
247
100
AcDbEntity
  8
0
100
AcDbLine
 62
7
  6
CONTINUOUS
 10
92.7316023658
 20
188.2912961277
 11
92.7316023658
 21
187.5412961277
  0
LINE
  5
248
100
AcDbEntity
  8
0
100
AcDbLine
 62
7
  6
CONTINUOUS
 10
90.3060703824
 20
188.7912956509
 11
90.1784108232
 21
188.166295174
  0
LINE
  5
249
100
AcDbEntity
  8
0
100
AcDbLine
 62
7
  6
CONTINUOUS
 10
160.9534109424
 20
165.5612956509
 11
161.578410704
 21
165.6889552213
  0
LINE
  5
24A
100
AcDbEntity
  8
_30_VOLUMEN
100
AcDbLine
 62
7
  6
CONTINUOUS
 10
176.3284108232
 20
156.5916405363
 11
180.0284108232
 21
156.5916405363
  0
LINE
  5
24B
100
AcDbEntity
  8
FASEN
100
AcDbLine
 62
7
  6
CONTINUOUS
 10
79.8284108232
 20
159.5612956509
 11
65.8284108232
 21
159.5612956509
  0
LINE
  5
24C
100
AcDbEntity
  8
BEZUGSACHSEN
100
AcDbLine
 62
7
  6
CONTINUOUS
 10
81.8284108232
 20
160.5612956509
 11
80.3284108232
 21
160.5612956509
  0
LINE
  5
24D
100
AcDbEntity
  8
_30_VOLUMEN
100
AcDbLine
 62
7
  6
CONTINUOUS
 10
176.3284108232
 20
162.0764680936
 11
180.0284108232
 21
162.0764680936
  0
LINE
  5
24E
100
AcDbEntity
  8
0
100
AcDbLine
 62
7
  6
CONTINUOUS
 10
91.0720277379
 20
174.1662956509
 11
91.5826659749
 21
173.9162956546
  0
LINE
  5
24F
100
AcDbEntity
  8
0
100
AcDbLine
 62
7
  6
CONTINUOUS
 10
91.7103258918
 20
174.6662956211
 11
91.3273468564
 21
174.9162956509
  0
LINE
  5
250
100
AcDbEntity
  8
0
100
AcDbLine
 62
7
  6
CONTINUOUS
 10
90.5613895009
 20
180.5412956509
 11
91.0720277379
 21
180.0412954125
  0
LINE
  5
251
100
AcDbEntity
  8
0
100
AcDbLine
 62
7
  6
CONTINUOUS
 10
95.7954321007
 20
178.0412955317
 11
95.284793819
 21
178.5412957701
  0
LINE
  5
252
100
AcDbEntity
  8
0
100
AcDbLine
 62
7
  6
CONTINUOUS
 10
91.3273468564
 20
180.7912954125
 11
91.0720277379
 21
181.1662954125
  0
LINE
  5
253
100
AcDbEntity
  8
0
100
AcDbLine
 62
7
  6
CONTINUOUS
 10
95.0294746111
 20
177.7912957701
 11
95.284793819
 21
177.4162957701
  0
LINE
  5
254
100
AcDbEntity
  8
0
100
AcDbLine
 62
7
  6
CONTINUOUS
 10
91.3273468564
 20
186.7912961277
 11
91.0720277379
 21
187.1662961277
  0
LINE
  5
255
100
AcDbEntity
  8
0
100
AcDbLine
 62
7
  6
CONTINUOUS
 10
90.3060703824
 20
181.0412958893
 11
90.5613895009
 21
180.5412956509
  0
LINE
  5
256
100
AcDbEntity
  8
0
100
AcDbLine
 62
7
  6
CONTINUOUS
 10
90.3060703824
 20
187.041295174
 11
90.5613895009
 21
186.5412956509
  0
LINE
  5
257
100
AcDbEntity
  8
0
100
AcDbLine
 62
7
  6
CONTINUOUS
 10
96.0507512527
 20
177.5412956509
 11
95.7954321007
 21
178.0412955317
  0
LINE
  5
258
100
AcDbEntity
  8
0
100
AcDbLine
 62
7
  6
CONTINUOUS
 10
91.0720277379
 20
187.1662961277
 11
90.9443681787
 21
187.5412961277
  0
LINE
  5
259
100
AcDbEntity
  8
0
100
AcDbLine
 62
7
  6
CONTINUOUS
 10
91.0720277379
 20
175.2912956509
 11
90.9443681787
 21
175.7912957105
  0
LINE
  5
25A
100
AcDbEntity
  8
0
100
AcDbLine
 62
7
  6
CONTINUOUS
 10
91.0720277379
 20
181.1662954125
 11
90.9443681787
 21
181.6662956509
  0
LINE
  5
25B
100
AcDbEntity
  8
0
100
AcDbLine
 62
7
  6
CONTINUOUS
 10
90.1784108232
 20
187.5412961277
 11
90.3060703824
 21
187.041295174
  0
LINE
  5
25C
100
AcDbEntity
  8
0
100
AcDbLine
 62
7
  6
CONTINUOUS
 10
95.284793819
 20
177.4162957701
 11
95.4124533783
 21
176.9162955317
  0
LINE
  5
25D
100
AcDbEntity
  8
0
100
AcDbLine
 62
7
  6
CONTINUOUS
 10
95.284793819
 20
183.2912958893
 11
95.4124533783
 21
182.7912956509
  0
LINE
  5
25E
100
AcDbEntity
  8
0
100
AcDbLine
 62
7
  6
CONTINUOUS
 10
90.1784108232
 20
175.7912957105
 11
90.3060703824
 21
175.1662956807
  0
LINE
  5
25F
100
AcDbEntity
  8
0
100
AcDbLine
 62
7
  6
CONTINUOUS
 10
90.1784108232
 20
181.6662956509
 11
90.3060703824
 21
181.0412958893
  0
LINE
  5
260
100
AcDbEntity
  8
0
100
AcDbLine
 62
7
  6
CONTINUOUS
 10
96.1784108232
 20
176.9162955317
 11
96.0507512527
 21
177.5412956509
  0
LINE
  5
261
100
AcDbEntity
  8
0
100
AcDbLine
 62
7
  6
CONTINUOUS
 10
93.4975597213
 20
187.5412961277
 11
93.4975597213
 21
188.2912961277
  0
LINE
  5
262
100
AcDbEntity
  8
0
100
AcDbLine
 62
7
  6
CONTINUOUS
 10
94.5188363741
 20
186.291295174
 11
94.5188363741
 21
185.5412958893
  0
LINE
  5
263
100
AcDbEntity
  8
0
100
AcDbLine
 62
7
  6
CONTINUOUS
 10
94.6464959334
 20
184.5412954125
 11
94.6464959334
 21
183.7912954125
  0
LINE
  5
264
100
AcDbEntity
  8
0
100
AcDbLine
 62
7
  6
CONTINUOUS
 10
94.6464959334
 20
178.6662956509
 11
94.6464959334
 21
177.9162956509
  0
LINE
  5
265
100
AcDbEntity
  8
0
100
AcDbLine
 62
7
  6
CONTINUOUS
 10
95.4124533783
 20
188.2912961277
 11
95.4124533783
 21
187.2912956509
  0
LINE
  5
266
100
AcDbEntity
  8
0
100
AcDbLine
 62
7
  6
CONTINUOUS
 10
95.4124533783
 20
182.7912956509
 11
95.4124533783
 21
181.6662956509
  0
LINE
  5
267
100
AcDbEntity
  8
0
100
AcDbLine
 62
7
  6
CONTINUOUS
 10
95.4124533783
 20
176.9162955317
 11
95.4124533783
 21
175.7912957105
  0
LINE
  5
268
100
AcDbEntity
  8
0
100
AcDbLine
 62
7
  6
CONTINUOUS
 10
96.1784108232
 20
175.7912957105
 11
96.1784108232
 21
176.9162955317
  0
LINE
  5
269
100
AcDbEntity
  8
0
100
AcDbLine
 62
7
  6
CONTINUOUS
 10
96.1784108232
 20
181.6662956509
 11
96.1784108232
 21
182.7912956509
  0
LINE
  5
26A
100
AcDbEntity
  8
0
100
AcDbLine
 62
7
  6
CONTINUOUS
 10
96.1784108232
 20
187.2912956509
 11
96.1784108232
 21
188.2912961277
  0
LINE
  5
26B
100
AcDbEntity
  8
RUNDUNGEN
100
AcDbLine
 62
7
  6
CONTINUOUS
 10
99.8284108232
 20
209.4121621688
 11
99.8284108232
 21
256.5612956509
  0
LINE
  5
26C
100
AcDbEntity
  8
0
100
AcDbLine
 62
7
  6
CONTINUOUS
 10
90.3060703824
 20
183.4162954125
 11
90.1784108232
 21
182.7912956509
  0
LINE
  5
26D
100
AcDbEntity
  8
0
100
AcDbLine
 62
7
  6
CONTINUOUS
 10
90.3060703824
 20
177.5412956509
 11
90.1784108232
 21
176.9162955317
  0
LINE
  5
26E
100
AcDbEntity
  8
0
100
AcDbLine
 62
7
  6
CONTINUOUS
 10
92.859261925
 20
188.916295174
 11
92.7316023658
 21
188.2912961277
  0
LINE
  5
26F
100
AcDbEntity
  8
0
100
AcDbLine
 62
7
  6
CONTINUOUS
 10
96.0507512527
 20
186.666295174
 11
96.1784108232
 21
187.2912956509
  0
LINE
  5
270
100
AcDbEntity
  8
0
100
AcDbLine
 62
7
  6
CONTINUOUS
 10
96.0507512527
 20
181.0412958893
 11
96.1784108232
 21
181.6662956509
  0
LINE
  5
271
100
AcDbEntity
  8
0
100
AcDbLine
 62
7
  6
CONTINUOUS
 10
90.9443681787
 20
182.7912956509
 11
91.0720277379
 21
183.2912958893
  0
LINE
  5
272
100
AcDbEntity
  8
0
100
AcDbLine
 62
7
  6
CONTINUOUS
 10
93.4975597213
 20
188.2912961277
 11
93.6252192805
 21
188.7912956509
  0
LINE
  5
273
100
AcDbEntity
  8
0
100
AcDbLine
 62
7
  6
CONTINUOUS
 10
93.369900162
 20
187.041295174
 11
93.4975597213
 21
187.5412961277
  0
LINE
  5
274
100
AcDbEntity
  8
0
100
AcDbLine
 62
7
  6
CONTINUOUS
 10
90.9443681787
 20
176.9162955317
 11
91.0720277379
 21
177.4162957701
  0
LINE
  5
275
100
AcDbEntity
  8
0
100
AcDbLine
 62
7
  6
CONTINUOUS
 10
95.4124533783
 20
187.2912956509
 11
95.284793819
 21
186.7912961277
  0
LINE
  5
276
100
AcDbEntity
  8
0
100
AcDbLine
 62
7
  6
CONTINUOUS
 10
95.4124533783
 20
181.6662956509
 11
95.284793819
 21
181.1662954125
  0
LINE
  5
277
100
AcDbEntity
  8
0
100
AcDbLine
 62
7
  6
CONTINUOUS
 10
90.9443681787
 20
188.2912961277
 11
91.0720277379
 21
188.6662961277
  0
LINE
  5
278
100
AcDbEntity
  8
0
100
AcDbLine
 62
7
  6
CONTINUOUS
 10
92.7316023658
 20
187.5412961277
 11
92.6039428065
 21
187.1662961277
  0
LINE
  5
279
100
AcDbEntity
  8
0
100
AcDbLine
 62
7
  6
CONTINUOUS
 10
93.1145810435
 20
189.4162961277
 11
92.859261925
 21
188.916295174
  0
LINE
  5
27A
100
AcDbEntity
  8
0
100
AcDbLine
 62
7
  6
CONTINUOUS
 10
90.5613895009
 20
183.9162956509
 11
90.3060703824
 21
183.4162954125
  0
LINE
  5
27B
100
AcDbEntity
  8
0
100
AcDbLine
 62
7
  6
CONTINUOUS
 10
160.3284108232
 20
169.391082786
 11
159.703410704
 21
169.2634232267
  0
LINE
  5
27C
100
AcDbEntity
  8
0
100
AcDbLine
 62
7
  6
CONTINUOUS
 10
160.3284108232
 20
171.5612956509
 11
159.703410704
 21
171.4336360916
  0
LINE
  5
27D
100
AcDbEntity
  8
_26_BEZUGSACHSEN
100
AcDbLine
 62
7
  6
CONTINUOUS
 10
175.9284108232
 20
162.6612956509
 11
176.3284108232
 21
162.6612956509
  0
LINE
  5
27E
100
AcDbEntity
  8
0
100
AcDbLine
 62
7
  6
CONTINUOUS
 10
156.5784108232
 20
165.5612956509
 11
157.3284108232
 21
165.5612956509
  0
LINE
  5
27F
100
AcDbEntity
  8
0
100
AcDbLine
 62
7
  6
CONTINUOUS
 10
160.3284108232
 20
165.5612956509
 11
160.9534109424
 21
165.5612956509
  0
LINE
  5
280
100
AcDbEntity
  8
0
100
AcDbLine
 62
7
  6
CONTINUOUS
 10
161.0784108232
 20
166.1995935365
 11
160.2034109424
 21
166.1995935365
  0
LINE
  5
281
100
AcDbEntity
  8
0
100
AcDbLine
 62
7
  6
CONTINUOUS
 10
160.2034109424
 20
168.7527849897
 11
161.0784108232
 21
168.7527849897
  0
LINE
  5
282
100
AcDbEntity
  8
0
100
AcDbLine
 62
7
  6
CONTINUOUS
 10
91.5826659749
 20
173.9162956546
 11
92.2209641288
 21
173.7912956509
  0
LINE
  5
283
100
AcDbEntity
  8
0
100
AcDbLine
 62
7
  6
CONTINUOUS
 10
92.2209641288
 20
174.5412956509
 11
91.7103258918
 21
174.6662956211
  0
LINE
  5
284
100
AcDbEntity
  8
0
100
AcDbLine
 62
7
  6
CONTINUOUS
 10
94.6464959334
 20
177.9162956509
 11
95.0294746111
 21
177.7912957701
  0
LINE
  5
285
100
AcDbEntity
  8
0
100
AcDbLine
 62
7
  6
CONTINUOUS
 10
91.0720277379
 20
180.0412954125
 11
91.5826659749
 21
179.7912956509
  0
LINE
  5
286
100
AcDbEntity
  8
0
100
AcDbLine
 62
7
  6
CONTINUOUS
 10
91.7103258918
 20
180.5412956509
 11
91.3273468564
 21
180.7912954125
  0
LINE
  5
287
100
AcDbEntity
  8
0
100
AcDbLine
 62
7
  6
CONTINUOUS
 10
90.5613895009
 20
186.5412956509
 11
91.0720277379
 21
186.0412961277
  0
LINE
  5
288
100
AcDbEntity
  8
0
100
AcDbLine
 62
7
  6
CONTINUOUS
 10
95.7954321007
 20
183.9162956509
 11
95.284793819
 21
184.4162958893
  0
LINE
  5
289
100
AcDbEntity
  8
0
100
AcDbLine
 62
7
  6
CONTINUOUS
 10
95.0294746111
 20
183.6662958893
 11
95.284793819
 21
183.2912958893
  0
LINE
  5
28A
100
AcDbEntity
  8
0
100
AcDbLine
 62
7
  6
CONTINUOUS
 10
95.0294746111
 20
189.1662956509
 11
95.284793819
 21
188.7912956509
  0
LINE
  5
28B
100
AcDbEntity
  8
0
100
AcDbLine
 62
7
  6
CONTINUOUS
 10
96.0507512527
 20
183.4162954125
 11
95.7954321007
 21
183.9162956509
  0
LINE
  5
28C
100
AcDbEntity
  8
0
100
AcDbLine
 62
7
  6
CONTINUOUS
 10
96.0507512527
 20
188.916295174
 11
95.7954321007
 21
189.4162961277
  0
LINE
  5
28D
100
AcDbEntity
  8
0
100
AcDbLine
 62
7
  6
CONTINUOUS
 10
95.284793819
 20
188.7912956509
 11
95.4124533783
 21
188.2912961277
  0
LINE
  5
28E
100
AcDbEntity
  8
0
100
AcDbLine
 62
7
  6
CONTINUOUS
 10
96.1784108232
 20
182.7912956509
 11
96.0507512527
 21
183.4162954125
  0
LINE
  5
28F
100
AcDbEntity
  8
0
100
AcDbLine
 62
7
  6
CONTINUOUS
 10
96.1784108232
 20
188.2912961277
 11
96.0507512527
 21
188.916295174
  0
LINE
  5
290
100
AcDbEntity
  8
BEZUGSACHSEN
100
AcDbLine
 62
7
  6
CONTINUOUS
 10
104.3284108232
 20
160.898277915
 11
104.3284108232
 21
114.5612956509
  0
LINE
  5
291
100
AcDbEntity
  8
RUNDUNGEN
100
AcDbLine
 62
7
  6
CONTINUOUS
 10
104.3284108232
 20
114.6067512979
 11
104.3284108232
 21
193.5612956509
  0
LINE
  5
292
100
AcDbEntity
  8
0
100
AcDbLine
 62
7
  6
CONTINUOUS
 10
96.0507512527
 20
175.1662956807
 11
96.1784108232
 21
175.7912957105
  0
LINE
  5
293
100
AcDbEntity
  8
0
100
AcDbLine
 62
7
  6
CONTINUOUS
 10
95.4124533783
 20
175.7912957105
 11
95.284793819
 21
175.2912956509
  0
LINE
  5
294
100
AcDbEntity
  8
0
100
AcDbLine
 62
7
  6
CONTINUOUS
 10
93.1145810435
 20
186.5412956509
 11
93.369900162
 21
187.041295174
  0
LINE
  5
295
100
AcDbEntity
  8
0
100
AcDbLine
 62
7
  6
CONTINUOUS
 10
90.5613895009
 20
178.0412955317
 11
90.3060703824
 21
177.5412956509
  0
LINE
  5
296
100
AcDbEntity
  8
0
100
AcDbLine
 62
7
  6
CONTINUOUS
 10
95.7954321007
 20
180.5412956509
 11
96.0507512527
 21
181.0412958893
  0
LINE
  5
297
100
AcDbEntity
  8
0
100
AcDbLine
 62
7
  6
CONTINUOUS
 10
95.6677725415
 20
186.0412961277
 11
96.0507512527
 21
186.666295174
  0
LINE
  5
298
100
AcDbEntity
  8
0
100
AcDbLine
 62
7
  6
CONTINUOUS
 10
93.6252192805
 20
188.7912956509
 11
93.880538399
 21
189.1662956509
  0
LINE
  5
299
100
AcDbEntity
  8
0
100
AcDbLine
 62
7
  6
CONTINUOUS
 10
92.6039428065
 20
187.1662961277
 11
92.348623688
 21
186.7912961277
  0
LINE
  5
29A
100
AcDbEntity
  8
0
100
AcDbLine
 62
7
  6
CONTINUOUS
 10
91.0720277379
 20
183.2912958893
 11
91.3273468564
 21
183.6662958893
  0
LINE
  5
29B
100
AcDbEntity
  8
0
100
AcDbLine
 62
7
  6
CONTINUOUS
 10
90.6890490602
 20
189.291295174
 11
90.3060703824
 21
188.7912956509
  0
LINE
  5
29C
100
AcDbEntity
  8
0
100
AcDbLine
 62
7
  6
CONTINUOUS
 10
91.0720277379
 20
188.6662961277
 11
91.3273468564
 21
188.916295174
  0
LINE
  5
29D
100
AcDbEntity
  8
0
100
AcDbLine
 62
7
  6
CONTINUOUS
 10
160.9534109424
 20
169.391082786
 11
160.3284108232
 21
169.391082786
  0
LINE
  5
29E
100
AcDbEntity
  8
0
100
AcDbLine
 62
7
  6
CONTINUOUS
 10
161.9534110616
 20
170.1570404991
 11
162.5784108232
 21
170.1570404991
  0
LINE
  5
29F
100
AcDbEntity
  8
0
100
AcDbLine
 62
7
  6
CONTINUOUS
 10
160.2034109424
 20
170.9229978546
 11
160.9534109424
 21
170.9229978546
  0
LINE
  5
2A0
100
AcDbEntity
  8
0
100
AcDbLine
 62
7
  6
CONTINUOUS
 10
160.828410704
 20
171.5612956509
 11
160.3284108232
 21
171.5612956509
  0
LINE
  5
2A1
100
AcDbEntity
  8
0
100
AcDbLine
 62
7
  6
CONTINUOUS
 10
157.3284108232
 20
171.5612956509
 11
156.5784108232
 21
171.5612956509
  0
LINE
  5
2A2
100
AcDbEntity
  8
_26_BEZUGSACHSEN
100
AcDbLine
 62
7
  6
CONTINUOUS
 10
175.9284108232
 20
172.4612956509
 11
176.3284108232
 21
172.4612956509
  0
LINE
  5
2A3
100
AcDbEntity
  8
_30_VOLUMEN
100
AcDbLine
 62
7
  6
CONTINUOUS
 10
176.3284108232
 20
173.0461232082
 11
180.0284108232
 21
173.0461232082
  0
LINE
  5
2A4
100
AcDbEntity
  8
0
100
AcDbLine
 62
7
  6
CONTINUOUS
 10
92.2209641288
 20
173.7912956509
 11
94.1358576964
 21
173.7912956509
  0
LINE
  5
2A5
100
AcDbEntity
  8
0
100
AcDbLine
 62
7
  6
CONTINUOUS
 10
94.1358576964
 20
174.5412956509
 11
92.2209641288
 21
174.5412956509
  0
LINE
  5
2A6
100
AcDbEntity
  8
0
100
AcDbLine
 62
7
  6
CONTINUOUS
 10
95.284793819
 20
178.5412957701
 11
94.6464959334
 21
178.6662956509
  0
LINE
  5
2A7
100
AcDbEntity
  8
0
100
AcDbLine
 62
7
  6
CONTINUOUS
 10
91.5826659749
 20
179.7912956509
 11
92.2209641288
 21
179.6662957701
  0
LINE
  5
2A8
100
AcDbEntity
  8
0
100
AcDbLine
 62
7
  6
CONTINUOUS
 10
159.703410704
 20
165.6889552213
 11
160.3284108232
 21
165.5612956509
  0
LINE
  5
2A9
100
AcDbEntity
  8
0
100
AcDbLine
 62
7
  6
CONTINUOUS
 10
92.2209641288
 20
180.4162954125
 11
91.7103258918
 21
180.5412956509
  0
LINE
  5
2AA
100
AcDbEntity
  8
0
100
AcDbLine
 62
7
  6
CONTINUOUS
 10
94.6464959334
 20
183.7912954125
 11
95.0294746111
 21
183.6662958893
  0
LINE
  5
2AB
100
AcDbEntity
  8
RUNDUNGEN
100
AcDbLine
 62
7
  6
CONTINUOUS
 10
187.8414410382
 20
147.6705232747
 11
179.8991092099
 21
150.5612956509
  0
LINE
  5
2AC
100
AcDbEntity
  8
0
100
AcDbLine
 62
7
  6
CONTINUOUS
 10
163.1234056153
 20
144.0831709821
 11
169.6800075021
 21
139.9852948029
  0
LINE
  5
2AD
100
AcDbEntity
  8
0
100
AcDbLine
 62
7
  6
CONTINUOUS
 10
94.6464959334
 20
189.4162961277
 11
95.0294746111
 21
189.1662956509
  0
LINE
  5
2AE
100
AcDbEntity
  8
0
100
AcDbLine
 62
7
  6
CONTINUOUS
 10
95.7954321007
 20
189.4162961277
 11
95.284793819
 21
189.9162956509
  0
LINE
  5
2AF
100
AcDbEntity
  8
0
100
AcDbLine
 62
7
  6
CONTINUOUS
 10
95.7954321007
 20
174.6662956211
 11
96.0507512527
 21
175.1662956807
  0
LINE
  5
2B0
100
AcDbEntity
  8
0
100
AcDbLine
 62
7
  6
CONTINUOUS
 10
91.0720277379
 20
177.4162957701
 11
91.3273468564
 21
177.7912957701
  0
LINE
  5
2B1
100
AcDbEntity
  8
0
100
AcDbLine
 62
7
  6
CONTINUOUS
 10
95.284793819
 20
181.1662954125
 11
95.0294746111
 21
180.7912954125
  0
LINE
  5
2B2
100
AcDbEntity
  8
0
100
AcDbLine
 62
7
  6
CONTINUOUS
 10
95.284793819
 20
175.2912956509
 11
95.0294746111
 21
174.9162956509
  0
LINE
  5
2B3
100
AcDbEntity
  8
FASEN
100
AcDbLine
 62
7
  6
CONTINUOUS
 10
65.3284108229
 20
159.0612956506
 11
65.8284108229
 21
159.5612956506
  0
LINE
  5
2B4
100
AcDbEntity
  8
0
100
AcDbLine
 62
7
  6
CONTINUOUS
 10
93.6252192805
 20
189.9162956509
 11
93.1145810435
 21
189.4162961277
  0
LINE
  5
2B5
100
AcDbEntity
  8
0
100
AcDbLine
 62
7
  6
CONTINUOUS
 10
92.6039428065
 20
186.0412961277
 11
93.1145810435
 21
186.5412956509
  0
LINE
  5
2B6
100
AcDbEntity
  8
0
100
AcDbLine
 62
7
  6
CONTINUOUS
 10
91.0720277379
 20
184.4162958893
 11
90.5613895009
 21
183.9162956509
  0
LINE
  5
2B7
100
AcDbEntity
  8
0
100
AcDbLine
 62
7
  6
CONTINUOUS
 10
95.284793819
 20
186.7912961277
 11
94.9018150519
 21
186.4162961277
  0
LINE
  5
2B8
100
AcDbEntity
  8
0
100
AcDbLine
 62
7
  6
CONTINUOUS
 10
91.1996872972
 20
189.666295174
 11
90.6890490602
 21
189.291295174
  0
LINE
  5
2B9
100
AcDbEntity
  8
0
100
AcDbLine
 62
7
  6
CONTINUOUS
 10
94.6464959334
 20
174.6662956211
 11
94.1358576964
 21
174.5412956509
  0
LINE
  5
2BA
100
AcDbEntity
  8
0
100
AcDbLine
 62
7
  6
CONTINUOUS
 10
94.1358576964
 20
173.7912956509
 11
94.7741554926
 21
173.9162956546
  0
LINE
  5
2BB
100
AcDbEntity
  8
_30_VOLUMEN
100
AcDbLine
 62
7
  6
CONTINUOUS
 10
175.6284108232
 20
178.0612956509
 11
163.0284108232
 21
178.0612956509
  0
LINE
  5
2BC
100
AcDbEntity
  8
_30_VOLUMEN
100
AcDbLine
 62
7
  6
CONTINUOUS
 10
176.3284108232
 20
178.5309507655
 11
180.0284108232
 21
178.5309507655
  0
LINE
  5
2BD
100
AcDbEntity
  8
0
100
AcDbLine
 62
7
  6
CONTINUOUS
 10
92.2209641288
 20
179.6662957701
 11
94.1358576964
 21
179.6662957701
  0
LINE
  5
2BE
100
AcDbEntity
  8
0
100
AcDbLine
 62
7
  6
CONTINUOUS
 10
94.1358576964
 20
180.4162954125
 11
92.2209641288
 21
180.4162954125
  0
LINE
  5
2BF
100
AcDbEntity
  8
0
100
AcDbLine
 62
7
  6
CONTINUOUS
 10
95.284793819
 20
184.4162958893
 11
94.6464959334
 21
184.5412954125
  0
LINE
  5
2C0
100
AcDbEntity
  8
0
100
AcDbLine
 62
7
  6
CONTINUOUS
 10
161.578410704
 20
169.2634232267
 11
160.9534109424
 21
169.391082786
  0
LINE
  5
2C1
100
AcDbEntity
  8
0
100
AcDbLine
 62
7
  6
CONTINUOUS
 10
161.4534108232
 20
171.4336360916
 11
160.828410704
 21
171.5612956509
  0
LINE
  5
2C2
100
AcDbEntity
  8
0
100
AcDbLine
 62
7
  6
CONTINUOUS
 10
91.0720277379
 20
186.0412961277
 11
91.5826659749
 21
185.916295174
  0
LINE
  5
2C3
100
AcDbEntity
  8
0
100
AcDbLine
 62
7
  6
CONTINUOUS
 10
91.7103258918
 20
186.666295174
 11
91.3273468564
 21
186.7912961277
  0
LINE
  5
2C4
100
AcDbEntity
  8
0
100
AcDbLine
 62
7
  6
CONTINUOUS
 10
160.2034109424
 20
166.1995935365
 11
159.8284109424
 21
166.3272530958
  0
LINE
  5
2C5
100
AcDbEntity
  8
0
100
AcDbLine
 62
7
  6
CONTINUOUS
 10
161.0784108232
 20
168.7527849897
 11
161.4534108232
 21
168.6251254305
  0
LINE
  5
2C6
100
AcDbEntity
  8
0
100
AcDbLine
 62
7
  6
CONTINUOUS
 10
95.284793819
 20
189.9162956509
 11
94.7741554926
 21
190.1662961277
  0
LINE
  5
2C7
100
AcDbEntity
  8
0
100
AcDbLine
 62
7
  6
CONTINUOUS
 10
91.0720277379
 20
178.5412957701
 11
90.5613895009
 21
178.0412955317
  0
LINE
  5
2C8
100
AcDbEntity
  8
0
100
AcDbLine
 62
7
  6
CONTINUOUS
 10
95.284793819
 20
180.0412954125
 11
95.7954321007
 21
180.5412956509
  0
LINE
  5
2C9
100
AcDbEntity
  8
0
100
AcDbLine
 62
7
  6
CONTINUOUS
 10
95.284793819
 20
174.1662956509
 11
95.7954321007
 21
174.6662956211
  0
LINE
  5
2CA
100
AcDbEntity
  8
0
100
AcDbLine
 62
7
  6
CONTINUOUS
 10
93.880538399
 20
189.1662956509
 11
94.2635172556
 21
189.4162961277
  0
LINE
  5
2CB
100
AcDbEntity
  8
0
100
AcDbLine
 62
7
  6
CONTINUOUS
 10
95.0294746111
 20
185.6662954125
 11
95.6677725415
 21
186.0412961277
  0
LINE
  5
2CC
100
AcDbEntity
  8
0
100
AcDbLine
 62
7
  6
CONTINUOUS
 10
91.3273468564
 20
188.916295174
 11
91.5826659749
 21
189.0412961277
  0
LINE
  5
2CD
100
AcDbEntity
  8
0
100
AcDbLine
 62
7
  6
CONTINUOUS
 10
94.1358576964
 20
190.1662961277
 11
93.6252192805
 21
189.9162956509
  0
LINE
  5
2CE
100
AcDbEntity
  8
0
100
AcDbLine
 62
7
  6
CONTINUOUS
 10
94.6464959334
 20
180.5412956509
 11
94.1358576964
 21
180.4162954125
  0
LINE
  5
2CF
100
AcDbEntity
  8
0
100
AcDbLine
 62
7
  6
CONTINUOUS
 10
91.7103258918
 20
178.6662956509
 11
91.0720277379
 21
178.5412957701
  0
LINE
  5
2D0
100
AcDbEntity
  8
0
100
AcDbLine
 62
7
  6
CONTINUOUS
 10
94.1358576964
 20
179.6662957701
 11
94.7741554926
 21
179.7912956509
  0
LINE
  5
2D1
100
AcDbEntity
  8
0
100
AcDbLine
 62
7
  6
CONTINUOUS
 10
91.5826659749
 20
185.916295174
 11
92.0933045695
 21
185.916295174
  0
LINE
  5
2D2
100
AcDbEntity
  8
0
100
AcDbLine
 62
7
  6
CONTINUOUS
 10
91.9656450103
 20
186.666295174
 11
91.7103258918
 21
186.666295174
  0
LINE
  5
2D3
100
AcDbEntity
  8
0
100
AcDbLine
 62
7
  6
CONTINUOUS
 10
94.2635172556
 20
189.4162961277
 11
94.6464959334
 21
189.4162961277
  0
LINE
  5
2D4
100
AcDbEntity
  8
0
100
AcDbLine
 62
7
  6
CONTINUOUS
 10
160.9534109424
 20
170.9229978546
 11
161.3284109424
 21
170.7953382954
  0
LINE
  5
2D5
100
AcDbEntity
  8
0
100
AcDbLine
 62
7
  6
CONTINUOUS
 10
159.0784109424
 20
166.0719339326
 11
159.703410704
 21
165.6889552213
  0
LINE
  5
2D6
100
AcDbEntity
  8
0
100
AcDbLine
 62
7
  6
CONTINUOUS
 10
159.8284109424
 20
166.3272530958
 11
159.4534109424
 21
166.5825722143
  0
LINE
  5
2D7
100
AcDbEntity
  8
0
100
AcDbLine
 62
7
  6
CONTINUOUS
 10
95.0294746111
 20
180.7912954125
 11
94.6464959334
 21
180.5412956509
  0
LINE
  5
2D8
100
AcDbEntity
  8
0
100
AcDbLine
 62
7
  6
CONTINUOUS
 10
95.0294746111
 20
174.9162956509
 11
94.6464959334
 21
174.6662956211
  0
LINE
  5
2D9
100
AcDbEntity
  8
0
100
AcDbLine
 62
7
  6
CONTINUOUS
 10
94.7741554926
 20
179.7912956509
 11
95.284793819
 21
180.0412954125
  0
LINE
  5
2DA
100
AcDbEntity
  8
0
100
AcDbLine
 62
7
  6
CONTINUOUS
 10
91.5826659749
 20
189.7912961277
 11
91.1996872972
 21
189.666295174
  0
LINE
  5
2DB
100
AcDbEntity
  8
0
100
AcDbLine
 62
7
  6
CONTINUOUS
 10
92.348623688
 20
186.7912961277
 11
91.9656450103
 21
186.666295174
  0
LINE
  5
2DC
100
AcDbEntity
  8
0
100
AcDbLine
 62
7
  6
CONTINUOUS
 10
94.9018150519
 20
186.4162961277
 11
94.5188363741
 21
186.291295174
  0
LINE
  5
2DD
100
AcDbEntity
  8
0
100
AcDbLine
 62
7
  6
CONTINUOUS
 10
91.3273468564
 20
183.6662958893
 11
91.7103258918
 21
183.7912954125
  0
LINE
  5
2DE
100
AcDbEntity
  8
0
100
AcDbLine
 62
7
  6
CONTINUOUS
 10
94.5188363741
 20
185.5412958893
 11
95.0294746111
 21
185.6662954125
  0
LINE
  5
2DF
100
AcDbEntity
  8
0
100
AcDbLine
 62
7
  6
CONTINUOUS
 10
92.0933045695
 20
185.916295174
 11
92.6039428065
 21
186.0412961277
  0
LINE
  5
2E0
100
AcDbEntity
  8
0
100
AcDbLine
 62
7
  6
CONTINUOUS
 10
91.7103258918
 20
184.5412954125
 11
91.0720277379
 21
184.4162958893
  0
LINE
  5
2E1
100
AcDbEntity
  8
0
100
AcDbLine
 62
7
  6
CONTINUOUS
 10
94.7741554926
 20
190.1662961277
 11
94.1358576964
 21
190.1662961277
  0
LINE
  5
2E2
100
AcDbEntity
  8
_30_VOLUMEN
100
AcDbLine
 62
7
  6
CONTINUOUS
 10
169.4284108232
 20
194.5612956509
 11
169.6284108232
 21
194.5612956509
  0
LINE
  5
2E3
100
AcDbEntity
  8
0
100
AcDbLine
 62
7
  6
CONTINUOUS
 10
162.2034108232
 20
168.880444549
 11
161.578410704
 21
169.2634232267
  0
LINE
  5
2E4
100
AcDbEntity
  8
0
100
AcDbLine
 62
7
  6
CONTINUOUS
 10
162.0784105848
 20
171.0506574139
 11
161.4534108232
 21
171.4336360916
  0
LINE
  5
2E5
100
AcDbEntity
  8
0
100
AcDbLine
 62
7
  6
CONTINUOUS
 10
161.4534108232
 20
168.6251254305
 11
161.8284108232
 21
168.369806312
  0
LINE
  5
2E6
100
AcDbEntity
  8
0
100
AcDbLine
 62
7
  6
CONTINUOUS
 10
161.3284109424
 20
170.7953382954
 11
161.7034109424
 21
170.5400191769
  0
LINE
  5
2E7
100
AcDbEntity
  8
0
100
AcDbLine
 62
7
  6
CONTINUOUS
 10
94.7741554926
 20
173.9162956546
 11
95.284793819
 21
174.1662956509
  0
LINE
  5
2E8
100
AcDbEntity
  8
0
100
AcDbLine
 62
7
  6
CONTINUOUS
 10
91.3273468564
 20
177.7912957701
 11
91.7103258918
 21
177.9162956509
  0
LINE
  5
2E9
100
AcDbEntity
  8
_30_VOLUMEN
100
AcDbLine
 62
7
  6
CONTINUOUS
 10
163.0284108232
 20
198.5612956509
 11
172.8279827914
 21
198.5612956509
  0
LINE
  5
2EA
100
AcDbEntity
  8
RUNDUNGEN
100
AcDbLine
 62
7
  6
CONTINUOUS
 10
135.3284108232
 20
200.5612956509
 11
111.3284108232
 21
200.5612956509
  0
LINE
  5
2EB
100
AcDbEntity
  8
0
100
AcDbLine
 62
7
  6
CONTINUOUS
 10
161.8284108232
 20
168.369806312
 11
162.0784105848
 21
168.1144871935
  0
LINE
  5
2EC
100
AcDbEntity
  8
0
100
AcDbLine
 62
7
  6
CONTINUOUS
 10
162.5784108232
 20
168.4974658712
 11
162.2034108232
 21
168.880444549
  0
LINE
  5
2ED
100
AcDbEntity
  8
0
100
AcDbLine
 62
7
  6
CONTINUOUS
 10
158.7034107636
 20
166.5825722143
 11
159.0784109424
 21
166.0719339326
  0
LINE
  5
2EE
100
AcDbEntity
  8
0
100
AcDbLine
 62
7
  6
CONTINUOUS
 10
162.4534105848
 20
170.5400191769
 11
162.0784105848
 21
171.0506574139
  0
LINE
  5
2EF
100
AcDbEntity
  8
0
100
AcDbLine
 62
7
  6
CONTINUOUS
 10
159.4534109424
 20
166.5825722143
 11
159.2034108232
 21
166.9655509814
  0
LINE
  5
2F0
100
AcDbEntity
  8
BEZUGSACHSEN
100
AcDbLine
 62
7
  6
CONTINUOUS
 10
142.3284108232
 20
114.5612956509
 11
142.3284108232
 21
156.5833125034
  0
LINE
  5
2F1
100
AcDbEntity
  8
RUNDUNGEN
100
AcDbLine
 62
7
  6
CONTINUOUS
 10
142.3284108232
 20
114.6055075472
 11
142.3284108232
 21
193.5612956509
  0
LINE
  5
2F2
100
AcDbEntity
  8
RUNDUNGEN
100
AcDbLine
 62
7
  6
CONTINUOUS
 10
146.8284108232
 20
256.5612956509
 11
146.8284108232
 21
209.4121622689
  0
LINE
  5
2F3
100
AcDbEntity
  8
FASEN
100
AcDbLine
 62
7
  6
CONTINUOUS
 10
79.8284108234
 20
119.5612956511
 11
80.3284108234
 21
120.0612956511
  0
LINE
  5
2F4
100
AcDbEntity
  8
0
100
AcDbLine
 62
7
  6
CONTINUOUS
 10
161.7034109424
 20
170.5400191769
 11
161.9534110616
 21
170.1570404991
  0
LINE
  5
2F5
100
AcDbEntity
  8
0
100
AcDbLine
 62
7
  6
CONTINUOUS
 10
158.4534108232
 20
167.2208700999
 11
158.7034107636
 21
166.5825722143
  0
LINE
  5
2F6
100
AcDbEntity
  8
0
100
AcDbLine
 62
7
  6
CONTINUOUS
 10
159.2034108232
 20
166.9655509814
 11
159.0784109424
 21
167.3485296592
  0
LINE
  5
2F7
100
AcDbEntity
  8
0
100
AcDbLine
 62
7
  6
CONTINUOUS
 10
150.3584061453
 20
140.7279623175
 11
150.3584061453
 21
138.3946289842
  0
LINE
  5
2F8
100
AcDbEntity
  8
0
100
AcDbLine
 62
7
  6
CONTINUOUS
 10
162.8284105848
 20
167.859168075
 11
162.5784108232
 21
168.4974658712
  0
LINE
  5
2F9
100
AcDbEntity
  8
0
100
AcDbLine
 62
7
  6
CONTINUOUS
 10
162.0784105848
 20
168.1144871935
 11
162.2034108232
 21
167.7315083369
  0
LINE
  5
2FA
100
AcDbEntity
  8
0
100
AcDbLine
 62
7
  6
CONTINUOUS
 10
162.5784108232
 20
170.1570404991
 11
162.4534105848
 21
170.5400191769
  0
LINE
  5
2FB
100
AcDbEntity
  8
0
100
AcDbLine
 62
7
  6
CONTINUOUS
 10
158.3284107636
 20
168.1144871935
 11
158.4534108232
 21
167.2208700999
  0
LINE
  5
2FC
100
AcDbEntity
  8
0
100
AcDbLine
 62
7
  6
CONTINUOUS
 10
155.8284108232
 20
170.6676787361
 11
155.8284108232
 21
169.6464019045
  0
LINE
  5
2FD
100
AcDbEntity
  8
0
100
AcDbLine
 62
7
  6
CONTINUOUS
 10
156.5784108232
 20
170.5400191769
 11
156.5784108232
 21
165.5612956509
  0
LINE
  5
2FE
100
AcDbEntity
  8
0
100
AcDbLine
 62
7
  6
CONTINUOUS
 10
157.3284108232
 20
165.5612956509
 11
157.3284108232
 21
171.5612956509
  0
LINE
  5
2FF
100
AcDbEntity
  8
0
100
AcDbLine
 62
7
  6
CONTINUOUS
 10
158.3284107636
 20
169.0081041082
 11
158.3284107636
 21
168.1144871935
  0
LINE
  5
300
100
AcDbEntity
  8
0
100
AcDbLine
 62
7
  6
CONTINUOUS
 10
158.953410704
 20
168.7527849897
 11
158.953410704
 21
169.0081041082
  0
LINE
  5
301
100
AcDbEntity
  8
0
100
AcDbLine
 62
7
  6
CONTINUOUS
 10
159.0784109424
 20
167.3485296592
 11
159.0784109424
 21
167.7315083369
  0
LINE
  5
302
100
AcDbEntity
  8
0
100
AcDbLine
 62
7
  6
CONTINUOUS
 10
162.2034108232
 20
167.7315083369
 11
162.2034108232
 21
167.3485296592
  0
LINE
  5
303
100
AcDbEntity
  8
0
100
AcDbLine
 62
7
  6
CONTINUOUS
 10
162.3584061453
 20
143.6591718301
 11
162.3584061453
 21
141.7279623175
  0
LINE
  5
304
100
AcDbEntity
  8
0
100
AcDbLine
 62
7
  6
CONTINUOUS
 10
162.3584061453
 20
137.3946289842
 11
162.3584061453
 21
135.4634194716
  0
LINE
  5
305
100
AcDbEntity
  8
0
100
AcDbLine
 62
7
  6
CONTINUOUS
 10
158.4534108232
 20
169.901721023
 11
158.3284107636
 21
169.0081041082
  0
LINE
  5
306
100
AcDbEntity
  8
0
100
AcDbLine
 62
7
  6
CONTINUOUS
 10
159.8284109424
 20
170.7953382954
 11
160.2034109424
 21
170.9229978546
  0
LINE
  5
307
100
AcDbEntity
  8
RUNDUNGEN
100
AcDbLine
 62
7
  6
CONTINUOUS
 10
167.8284108232
 20
207.1290269768
 11
150.8284108232
 21
216.943981553
  0
LINE
  5
308
100
AcDbEntity
  8
0
100
AcDbLine
 62
7
  6
CONTINUOUS
 10
162.8284105848
 20
167.2208700999
 11
162.8284105848
 21
167.859168075
  0
LINE
  5
309
100
AcDbEntity
  8
_30_VOLUMEN
100
AcDbLine
 62
7
  6
CONTINUOUS
 10
163.0284108232
 20
178.0612956509
 11
163.0284108232
 21
198.5612956509
  0
LINE
  5
30A
100
AcDbEntity
  8
_30_VOLUMEN
100
AcDbLine
 62
7
  6
CONTINUOUS
 10
163.1284108232
 20
188.2612956509
 11
163.1284108232
 21
178.0612956509
  0
LINE
  5
30B
100
AcDbEntity
  8
0
100
AcDbLine
 62
7
  6
CONTINUOUS
 10
158.953410704
 20
169.0081041082
 11
159.0784109424
 21
169.7740614637
  0
LINE
  5
30C
100
AcDbEntity
  8
0
100
AcDbLine
 62
7
  6
CONTINUOUS
 10
159.0784109424
 20
169.7740614637
 11
159.2034108232
 21
170.1570404991
  0
LINE
  5
30D
100
AcDbEntity
  8
0
100
AcDbLine
 62
7
  6
CONTINUOUS
 10
159.0784109424
 20
167.7315083369
 11
159.2034108232
 21
168.1144871935
  0
LINE
  5
30E
100
AcDbEntity
  8
0
100
AcDbLine
 62
7
  6
CONTINUOUS
 10
162.2034108232
 20
167.3485296592
 11
162.0784105848
 21
166.9655509814
  0
LINE
  5
30F
100
AcDbEntity
  8
0
100
AcDbLine
 62
7
  6
CONTINUOUS
 10
158.7034107636
 20
170.5400191769
 11
158.4534108232
 21
169.901721023
  0
LINE
  5
310
100
AcDbEntity
  8
0
100
AcDbLine
 62
7
  6
CONTINUOUS
 10
159.2034108232
 20
170.1570404991
 11
159.4534109424
 21
170.5400191769
  0
LINE
  5
311
100
AcDbEntity
  8
0
100
AcDbLine
 62
7
  6
CONTINUOUS
 10
159.0784109424
 20
171.0506574139
 11
158.7034107636
 21
170.5400191769
  0
LINE
  5
312
100
AcDbEntity
  8
0
100
AcDbLine
 62
7
  6
CONTINUOUS
 10
156.5784108232
 20
171.5612956509
 11
155.8284108232
 21
170.6676787361
  0
LINE
  5
313
100
AcDbEntity
  8
0
100
AcDbLine
 62
7
  6
CONTINUOUS
 10
155.8284108232
 20
169.6464019045
 11
156.5784108232
 21
170.5400191769
  0
LINE
  5
314
100
AcDbEntity
  8
0
100
AcDbLine
 62
7
  6
CONTINUOUS
 10
159.2034108232
 20
168.1144871935
 11
159.4534109424
 21
168.369806312
  0
LINE
  5
315
100
AcDbEntity
  8
0
100
AcDbLine
 62
7
  6
CONTINUOUS
 10
159.4534109424
 20
170.5400191769
 11
159.8284109424
 21
170.7953382954
  0
LINE
  5
316
100
AcDbEntity
  8
0
100
AcDbLine
 62
7
  6
CONTINUOUS
 10
159.703410704
 20
169.2634232267
 11
158.953410704
 21
168.7527849897
  0
LINE
  5
317
100
AcDbEntity
  8
0
100
AcDbLine
 62
7
  6
CONTINUOUS
 10
159.4534109424
 20
168.369806312
 11
159.8284109424
 21
168.6251254305
  0
LINE
  5
318
100
AcDbEntity
  8
0
100
AcDbLine
 62
7
  6
CONTINUOUS
 10
159.703410704
 20
171.4336360916
 11
159.0784109424
 21
171.0506574139
  0
LINE
  5
319
100
AcDbEntity
  8
0
100
AcDbLine
 62
7
  6
CONTINUOUS
 10
159.8284109424
 20
168.6251254305
 11
160.2034109424
 21
168.7527849897
  0
LINE
  5
31A
100
AcDbEntity
  8
0
100
AcDbLine
 62
7
  6
CONTINUOUS
 10
161.4534108232
 20
166.3272530958
 11
161.0784108232
 21
166.1995935365
  0
LINE
  5
31B
100
AcDbEntity
  8
_30_VOLUMEN
100
AcDbLine
 62
7
  6
CONTINUOUS
 10
175.6284108232
 20
112.0612956509
 11
175.6284108232
 21
178.0612956509
  0
LINE
  5
31C
100
AcDbEntity
  8
_30_VOLUMEN
100
AcDbLine
 62
7
  6
CONTINUOUS
 10
175.9284108232
 20
188.2612956509
 11
175.9284108232
 21
124.5612956509
  0
LINE
  5
31D
100
AcDbEntity
  8
_30_VOLUMEN
100
AcDbLine
 62
7
  6
CONTINUOUS
 10
176.3284108232
 20
178.5309507655
 11
176.3284108232
 21
156.5916405363
  0
LINE
  5
31E
100
AcDbEntity
  8
0
100
AcDbLine
 62
7
  6
CONTINUOUS
 10
176.6284108232
 20
150.5612956509
 11
176.6284108232
 21
128.5612956509
  0
LINE
  5
31F
100
AcDbEntity
  8
0
100
AcDbLine
 62
7
  6
CONTINUOUS
 10
162.5784108232
 20
166.5825722143
 11
162.8284105848
 21
167.2208700999
  0
LINE
  5
320
100
AcDbEntity
  8
0
100
AcDbLine
 62
7
  6
CONTINUOUS
 10
162.0784105848
 20
166.9655509814
 11
161.8284108232
 21
166.5825722143
  0
LINE
  5
321
100
AcDbEntity
  8
0
100
AcDbLine
 62
7
  6
CONTINUOUS
 10
162.2034108232
 20
166.0719339326
 11
162.5784108232
 21
166.5825722143
  0
LINE
  5
322
100
AcDbEntity
  8
0
100
AcDbLine
 62
7
  6
CONTINUOUS
 10
161.8284108232
 20
166.5825722143
 11
161.4534108232
 21
166.3272530958
  0
LINE
  5
323
100
AcDbEntity
  8
0
100
AcDbLine
 62
7
  6
CONTINUOUS
 10
161.578410704
 20
165.6889552213
 11
162.2034108232
 21
166.0719339326
  0
LINE
  5
324
100
AcDbEntity
  8
0
100
AcDbLine
 62
7
  6
CONTINUOUS
 10
179.8991092099
 20
150.5612956509
 11
179.8991092099
 21
128.5612956509
  0
LINE
  5
325
100
AcDbEntity
  8
_30_VOLUMEN
100
AcDbLine
 62
7
  6
CONTINUOUS
 10
180.0284108232
 20
178.5309507655
 11
180.0284108232
 21
156.5916405363
  0
LINE
  5
326
100
AcDbEntity
  8
RUNDUNGEN
100
AcDbLine
 62
7
  6
CONTINUOUS
 10
188.8284108232
 20
132.8616069582
 11
188.8284108232
 21
146.2609843436
  0
LINE
  5
327
100
AcDbEntity
  8
0
100
AcDbLine
 62
7
  6
CONTINUOUS
 10
169.6800075021
 20
139.1372964989
 11
163.1234056153
 21
135.0394203196
  0
LINE
  5
328
100
AcDbEntity
  8
RUNDUNGEN
100
AcDbLine
 62
7
  6
CONTINUOUS
 10
187.8414410382
 20
131.452068027
 11
179.8991092099
 21
128.5612956509
  0
LINE
  5
329
100
AcDbEntity
  8
0
100
AcDbLine
 62
7
  6
CONTINUOUS
 10
278.3404155156
 20
136.5612956509
 11
278.9654152771
 21
136.6889552213
  0
LINE
  5
32A
100
AcDbEntity
  8
BEZUGSACHSEN
100
AcDbLine
 62
7
  6
CONTINUOUS
 10
249.1004987551
 20
134.9634194716
 11
249.6025119251
 21
134.9634194716
  0
LINE
  5
32B
100
AcDbEntity
  8
0
100
AcDbLine
 62
7
  6
CONTINUOUS
 10
303.8283188676
 20
134.9634194716
 11
304.3303320376
 21
134.9634194716
  0
LINE
  5
32C
100
AcDbEntity
  8
0
100
AcDbLine
 62
7
  6
CONTINUOUS
 10
273.9654153963
 20
136.5612956509
 11
274.7154153963
 21
136.5612956509
  0
LINE
  5
32D
100
AcDbEntity
  8
0
100
AcDbLine
 62
7
  6
CONTINUOUS
 10
277.7154153963
 20
136.5612956509
 11
278.3404155156
 21
136.5612956509
  0
LINE
  5
32E
100
AcDbEntity
  8
0
100
AcDbLine
 62
7
  6
CONTINUOUS
 10
278.4654153963
 20
137.1995935365
 11
277.5904155156
 21
137.1995935365
  0
LINE
  5
32F
100
AcDbEntity
  8
BEZUGSACHSEN
100
AcDbLine
 62
7
  6
CONTINUOUS
 10
249.2659669097
 20
137.8946289842
 11
248.765247734
 21
137.8946289842
  0
LINE
  5
330
100
AcDbEntity
  8
0
100
AcDbLine
 62
7
  6
CONTINUOUS
 10
304.164863883
 20
137.8946289842
 11
304.6655830587
 21
137.8946289842
  0
LINE
  5
331
100
AcDbEntity
  8
0
100
AcDbLine
 62
7
  6
CONTINUOUS
 10
277.5904155156
 20
139.7527849897
 11
278.4654153963
 21
139.7527849897
  0
LINE
  5
332
100
AcDbEntity
  8
0
100
AcDbLine
 62
7
  6
CONTINUOUS
 10
278.3404155156
 20
140.391082786
 11
277.7154153963
 21
140.391082786
  0
LINE
  5
333
100
AcDbEntity
  8
0
100
AcDbLine
 62
7
  6
CONTINUOUS
 10
277.0904152771
 20
136.6889552213
 11
277.7154153963
 21
136.5612956509
  0
LINE
  5
334
100
AcDbEntity
  8
0
100
AcDbLine
 62
7
  6
CONTINUOUS
 10
277.5904155156
 20
137.1995935365
 11
277.2154155156
 21
137.3272530958
  0
LINE
  5
335
100
AcDbEntity
  8
0
100
AcDbLine
 62
7
  6
CONTINUOUS
 10
277.7154153963
 20
140.391082786
 11
277.0904152771
 21
140.2634232267
  0
LINE
  5
336
100
AcDbEntity
  8
0
100
AcDbLine
 62
7
  6
CONTINUOUS
 10
277.7154153963
 20
142.5612956509
 11
277.0904152771
 21
142.4336360916
  0
LINE
  5
337
100
AcDbEntity
  8
0
100
AcDbLine
 62
7
  6
CONTINUOUS
 10
279.3404156348
 20
141.1570404991
 11
279.9654153963
 21
141.1570404991
  0
LINE
  5
338
100
AcDbEntity
  8
BEZUGSACHSEN
100
AcDbLine
 62
7
  6
CONTINUOUS
 10
249.2659669097
 20
141.2279623175
 11
248.7666912521
 21
141.2279623175
  0
LINE
  5
339
100
AcDbEntity
  8
0
100
AcDbLine
 62
7
  6
CONTINUOUS
 10
304.164863883
 20
141.2279623175
 11
304.6641395405
 21
141.2279623175
  0
LINE
  5
33A
100
AcDbEntity
  8
0
100
AcDbLine
 62
7
  6
CONTINUOUS
 10
277.5904155156
 20
141.9229978546
 11
278.3404155156
 21
141.9229978546
  0
LINE
  5
33B
100
AcDbEntity
  8
0
100
AcDbLine
 62
7
  6
CONTINUOUS
 10
278.2154152771
 20
142.5612956509
 11
277.7154153963
 21
142.5612956509
  0
LINE
  5
33C
100
AcDbEntity
  8
0
100
AcDbLine
 62
7
  6
CONTINUOUS
 10
274.7154153963
 20
142.5612956509
 11
273.9654153963
 21
142.5612956509
  0
LINE
  5
33D
100
AcDbEntity
  8
BEZUGSACHSEN
100
AcDbLine
 62
7
  6
CONTINUOUS
 10
249.1045304567
 20
144.1591718301
 11
249.6025119251
 21
144.1591718301
  0
LINE
  5
33E
100
AcDbEntity
  8
0
100
AcDbLine
 62
7
  6
CONTINUOUS
 10
303.8283188676
 20
144.1591718301
 11
304.326300336
 21
144.1591718301
  0
LINE
  5
33F
100
AcDbEntity
  8
0
100
AcDbLine
 62
7
  6
CONTINUOUS
 10
278.9654152771
 20
140.2634232267
 11
278.3404155156
 21
140.391082786
  0
LINE
  5
340
100
AcDbEntity
  8
0
100
AcDbLine
 62
7
  6
CONTINUOUS
 10
278.8404153963
 20
142.4336360916
 11
278.2154152771
 21
142.5612956509
  0
LINE
  5
341
100
AcDbEntity
  8
0
100
AcDbLine
 62
7
  6
CONTINUOUS
 10
278.4654153963
 20
139.7527849897
 11
278.8404153963
 21
139.6251254305
  0
LINE
  5
342
100
AcDbEntity
  8
0
100
AcDbLine
 62
7
  6
CONTINUOUS
 10
278.3404155156
 20
141.9229978546
 11
278.7154155156
 21
141.7953382954
  0
LINE
  5
343
100
AcDbEntity
  8
0
100
AcDbLine
 62
7
  6
CONTINUOUS
 10
276.4654155156
 20
137.0719339326
 11
277.0904152771
 21
136.6889552213
  0
LINE
  5
344
100
AcDbEntity
  8
0
100
AcDbLine
 62
7
  6
CONTINUOUS
 10
283.3404149195
 20
148.454912655
 11
282.8404153963
 21
148.3272530958
  0
LINE
  5
345
100
AcDbEntity
  8
0
100
AcDbLine
 62
7
  6
CONTINUOUS
 10
277.3404156348
 20
148.454912655
 11
276.8404153963
 21
148.3272530958
  0
LINE
  5
346
100
AcDbEntity
  8
0
100
AcDbLine
 62
7
  6
CONTINUOUS
 10
282.8404153963
 20
147.5612956509
 11
283.4654158732
 21
147.6889552213
  0
LINE
  5
347
100
AcDbEntity
  8
0
100
AcDbLine
 62
7
  6
CONTINUOUS
 10
276.8404153963
 20
147.5612956509
 11
277.4654151579
 21
147.6889552213
  0
LINE
  5
348
100
AcDbEntity
  8
0
100
AcDbLine
 62
7
  6
CONTINUOUS
 10
268.5904153963
 20
147.5612956509
 11
269.3404153963
 21
147.5612956509
  0
LINE
  5
349
100
AcDbEntity
  8
0
100
AcDbLine
 62
7
  6
CONTINUOUS
 10
272.4654152771
 20
147.5612956509
 11
273.3404155156
 21
147.5612956509
  0
LINE
  5
34A
100
AcDbEntity
  8
0
100
AcDbLine
 62
7
  6
CONTINUOUS
 10
276.3404151579
 20
147.5612956509
 11
276.8404153963
 21
147.5612956509
  0
LINE
  5
34B
100
AcDbEntity
  8
0
100
AcDbLine
 62
7
  6
CONTINUOUS
 10
279.8404153963
 20
147.5612956509
 11
282.8404153963
 21
147.5612956509
  0
LINE
  5
34C
100
AcDbEntity
  8
0
100
AcDbLine
 62
7
  6
CONTINUOUS
 10
282.8404153963
 20
148.3272530958
 11
280.5904153963
 21
148.3272530958
  0
LINE
  5
34D
100
AcDbEntity
  8
0
100
AcDbLine
 62
7
  6
CONTINUOUS
 10
276.8404153963
 20
148.3272530958
 11
276.3404151579
 21
148.3272530958
  0
LINE
  5
34E
100
AcDbEntity
  8
0
100
AcDbLine
 62
7
  6
CONTINUOUS
 10
269.3404153963
 20
150.2421467527
 11
271.4654153367
 21
150.2421467527
  0
LINE
  5
34F
100
AcDbEntity
  8
0
100
AcDbLine
 62
7
  6
CONTINUOUS
 10
271.7154152771
 20
151.0081041082
 11
269.3404153963
 21
151.0081041082
  0
LINE
  5
350
100
AcDbEntity
  8
0
100
AcDbLine
 62
7
  6
CONTINUOUS
 10
280.5904153963
 20
152.7953382954
 11
282.8404153963
 21
152.7953382954
  0
LINE
  5
351
100
AcDbEntity
  8
0
100
AcDbLine
 62
7
  6
CONTINUOUS
 10
269.3404153963
 20
152.9229978546
 11
271.7154152771
 21
152.9229978546
  0
LINE
  5
352
100
AcDbEntity
  8
0
100
AcDbLine
 62
7
  6
CONTINUOUS
 10
275.7154153963
 20
147.6889552213
 11
276.3404151579
 21
147.5612956509
  0
LINE
  5
353
100
AcDbEntity
  8
0
100
AcDbLine
 62
7
  6
CONTINUOUS
 10
272.2154155156
 20
153.4336360916
 11
271.5904153963
 21
153.5612956509
  0
LINE
  5
354
100
AcDbEntity
  8
0
100
AcDbLine
 62
7
  6
CONTINUOUS
 10
276.3404151579
 20
148.3272530958
 11
275.8404156348
 21
148.454912655
  0
LINE
  5
355
100
AcDbEntity
  8
0
100
AcDbLine
 62
7
  6
CONTINUOUS
 10
275.2154151579
 20
147.9442743733
 11
275.7154153963
 21
147.6889552213
  0
LINE
  5
356
100
AcDbEntity
  8
0
100
AcDbLine
 62
7
  6
CONTINUOUS
 10
279.5904153963
 20
139.880444549
 11
278.9654152771
 21
140.2634232267
  0
LINE
  5
357
100
AcDbEntity
  8
0
100
AcDbLine
 62
7
  6
CONTINUOUS
 10
279.4654151579
 20
142.0506574139
 11
278.8404153963
 21
142.4336360916
  0
LINE
  5
358
100
AcDbEntity
  8
0
100
AcDbLine
 62
7
  6
CONTINUOUS
 10
277.2154155156
 20
137.3272530958
 11
276.8404155156
 21
137.5825722143
  0
LINE
  5
359
100
AcDbEntity
  8
0
100
AcDbLine
 62
7
  6
CONTINUOUS
 10
278.8404153963
 20
139.6251254305
 11
279.2154153963
 21
139.369806312
  0
LINE
  5
35A
100
AcDbEntity
  8
0
100
AcDbLine
 62
7
  6
CONTINUOUS
 10
278.7154155156
 20
141.7953382954
 11
279.0904155156
 21
141.5400191769
  0
LINE
  5
35B
100
AcDbEntity
  8
BEZUGSACHSEN
100
AcDbLine
 62
7
  6
CONTINUOUS
 10
236.7154153963
 20
238.568337206
 11
236.7154153963
 21
277.5612956509
  0
LINE
  5
35C
100
AcDbEntity
  8
0
100
AcDbLine
 62
7
  6
CONTINUOUS
 10
282.8404153963
 20
153.5612956509
 11
279.8404153963
 21
153.5612956509
  0
LINE
  5
35D
100
AcDbEntity
  8
0
100
AcDbLine
 62
7
  6
CONTINUOUS
 10
278.8404156348
 20
153.5612956509
 11
278.0904156348
 21
153.5612956509
  0
LINE
  5
35E
100
AcDbEntity
  8
0
100
AcDbLine
 62
7
  6
CONTINUOUS
 10
275.0904156348
 20
153.5612956509
 11
274.3404152771
 21
153.5612956509
  0
LINE
  5
35F
100
AcDbEntity
  8
0
100
AcDbLine
 62
7
  6
CONTINUOUS
 10
271.5904153963
 20
153.5612956509
 11
268.5904153963
 21
153.5612956509
  0
LINE
  5
360
100
AcDbEntity
  8
0
100
AcDbLine
 62
7
  6
CONTINUOUS
 10
283.4654158732
 20
153.4336360916
 11
282.8404153963
 21
153.5612956509
  0
LINE
  5
361
100
AcDbEntity
  8
0
100
AcDbLine
 62
7
  6
CONTINUOUS
 10
282.8404153963
 20
152.7953382954
 11
283.3404149195
 21
152.6676787361
  0
LINE
  5
362
100
AcDbEntity
  8
0
100
AcDbLine
 62
7
  6
CONTINUOUS
 10
271.7154152771
 20
152.9229978546
 11
272.0904152771
 21
152.7953382954
  0
LINE
  5
363
100
AcDbEntity
  8
0
100
AcDbLine
 62
7
  6
CONTINUOUS
 10
275.8404156348
 20
148.454912655
 11
275.4654156348
 21
148.7102318629
  0
LINE
  5
364
100
AcDbEntity
  8
0
100
AcDbLine
 62
7
  6
CONTINUOUS
 10
272.7154153963
 20
153.0506574139
 11
272.2154155156
 21
153.4336360916
  0
LINE
  5
365
100
AcDbEntity
  8
0
100
AcDbLine
 62
7
  6
CONTINUOUS
 10
279.2154153963
 20
139.369806312
 11
279.4654151579
 21
139.1144871935
  0
LINE
  5
366
100
AcDbEntity
  8
0
100
AcDbLine
 62
7
  6
CONTINUOUS
 10
279.9654153963
 20
139.4974658712
 11
279.5904153963
 21
139.880444549
  0
LINE
  5
367
100
AcDbEntity
  8
0
100
AcDbLine
 62
7
  6
CONTINUOUS
 10
294.7154153963
 20
165.5612956509
 11
295.2154153963
 21
165.5612956509
  0
LINE
  5
368
100
AcDbEntity
  8
0
100
AcDbLine
 62
7
  6
CONTINUOUS
 10
283.9654153963
 20
153.1783169731
 11
283.4654158732
 21
153.4336360916
  0
LINE
  5
369
100
AcDbEntity
  8
0
100
AcDbLine
 62
7
  6
CONTINUOUS
 10
283.3404149195
 20
152.6676787361
 11
283.7154149195
 21
152.4123596176
  0
LINE
  5
36A
100
AcDbEntity
  8
0
100
AcDbLine
 62
7
  6
CONTINUOUS
 10
274.7154156348
 20
148.454912655
 11
275.2154151579
 21
147.9442743733
  0
LINE
  5
36B
100
AcDbEntity
  8
0
100
AcDbLine
 62
7
  6
CONTINUOUS
 10
272.0904152771
 20
152.7953382954
 11
272.3404153963
 21
152.5400191769
  0
LINE
  5
36C
100
AcDbEntity
  8
0
100
AcDbLine
 62
7
  6
CONTINUOUS
 10
276.0904153367
 20
137.5825722143
 11
276.4654155156
 21
137.0719339326
  0
LINE
  5
36D
100
AcDbEntity
  8
0
100
AcDbLine
 62
7
  6
CONTINUOUS
 10
276.8404155156
 20
137.5825722143
 11
276.5904153963
 21
137.9655509814
  0
LINE
  5
36E
100
AcDbEntity
  8
0
100
AcDbLine
 62
7
  6
CONTINUOUS
 10
294.7154153963
 20
169.6464019045
 11
295.2154153963
 21
169.6464019045
  0
LINE
  5
36F
100
AcDbEntity
  8
0
100
AcDbLine
 62
7
  6
CONTINUOUS
 10
294.7154153963
 20
170.6676787361
 11
295.2154153963
 21
170.6676787361
  0
LINE
  5
370
100
AcDbEntity
  8
0
100
AcDbLine
 62
7
  6
CONTINUOUS
 10
294.7154153963
 20
171.5612956509
 11
295.2154153963
 21
171.5612956509
  0
LINE
  5
371
100
AcDbEntity
  8
0
100
AcDbLine
 62
7
  6
CONTINUOUS
 10
284.4654149195
 20
152.6676787361
 11
283.9654153963
 21
153.1783169731
  0
LINE
  5
372
100
AcDbEntity
  8
0
100
AcDbLine
 62
7
  6
CONTINUOUS
 10
279.8404151579
 20
141.5400191769
 11
279.4654151579
 21
142.0506574139
  0
LINE
  5
373
100
AcDbEntity
  8
0
100
AcDbLine
 62
7
  6
CONTINUOUS
 10
273.0904153963
 20
152.5400191769
 11
272.7154153963
 21
153.0506574139
  0
LINE
  5
374
100
AcDbEntity
  8
0
100
AcDbLine
 62
7
  6
CONTINUOUS
 10
279.0904155156
 20
141.5400191769
 11
279.3404156348
 21
141.1570404991
  0
LINE
  5
375
100
AcDbEntity
  8
0
100
AcDbLine
 62
7
  6
CONTINUOUS
 10
275.4654156348
 20
148.7102318629
 11
275.2154151579
 21
149.0932105407
  0
LINE
  5
376
100
AcDbEntity
  8
BEZUGSACHSEN
100
AcDbLine
 62
7
  6
CONTINUOUS
 10
258.7154153963
 20
163.7325595814
 11
258.7154153963
 21
174.5612956509
  0
LINE
  5
377
100
AcDbEntity
  8
0
100
AcDbLine
 62
7
  6
CONTINUOUS
 10
287.2154153963
 20
173.7912956509
 11
287.7154153963
 21
173.7912956509
  0
LINE
  5
378
100
AcDbEntity
  8
0
100
AcDbLine
 62
7
  6
CONTINUOUS
 10
287.2154153963
 20
173.9162956546
 11
287.7154153963
 21
173.9162956546
  0
LINE
  5
379
100
AcDbEntity
  8
0
100
AcDbLine
 62
7
  6
CONTINUOUS
 10
287.2154153963
 20
174.1662956509
 11
287.7154153963
 21
174.1662956509
  0
LINE
  5
37A
100
AcDbEntity
  8
0
100
AcDbLine
 62
7
  6
CONTINUOUS
 10
287.2154153963
 20
174.6662956211
 11
287.7154153963
 21
174.6662956211
  0
LINE
  5
37B
100
AcDbEntity
  8
0
100
AcDbLine
 62
7
  6
CONTINUOUS
 10
287.2154153963
 20
175.1662956807
 11
287.7154153963
 21
175.1662956807
  0
LINE
  5
37C
100
AcDbEntity
  8
0
100
AcDbLine
 62
7
  6
CONTINUOUS
 10
287.2154153963
 20
175.7912957105
 11
287.7154153963
 21
175.7912957105
  0
LINE
  5
37D
100
AcDbEntity
  8
0
100
AcDbLine
 62
7
  6
CONTINUOUS
 10
287.2154153963
 20
176.9162955317
 11
287.7154153963
 21
176.9162955317
  0
LINE
  5
37E
100
AcDbEntity
  8
0
100
AcDbLine
 62
7
  6
CONTINUOUS
 10
287.2154153963
 20
177.5412956509
 11
287.7154153963
 21
177.5412956509
  0
LINE
  5
37F
100
AcDbEntity
  8
0
100
AcDbLine
 62
7
  6
CONTINUOUS
 10
287.2154153963
 20
178.0412955317
 11
287.7154153963
 21
178.0412955317
  0
LINE
  5
380
100
AcDbEntity
  8
0
100
AcDbLine
 62
7
  6
CONTINUOUS
 10
283.7154149195
 20
152.4123596176
 11
283.9654153963
 21
152.0293805822
  0
LINE
  5
381
100
AcDbEntity
  8
0
100
AcDbLine
 62
7
  6
CONTINUOUS
 10
274.4654155156
 20
148.9655509814
 11
274.7154156348
 21
148.454912655
  0
LINE
  5
382
100
AcDbEntity
  8
0
100
AcDbLine
 62
7
  6
CONTINUOUS
 10
275.8404153963
 20
138.2208700999
 11
276.0904153367
 21
137.5825722143
  0
LINE
  5
383
100
AcDbEntity
  8
0
100
AcDbLine
 62
7
  6
CONTINUOUS
 10
273.3404155156
 20
147.5612956509
 11
272.2154155156
 21
150.4974658712
  0
LINE
  5
384
100
AcDbEntity
  8
0
100
AcDbLine
 62
7
  6
CONTINUOUS
 10
271.4654153367
 20
150.2421467527
 11
272.4654152771
 21
147.5612956509
  0
LINE
  5
385
100
AcDbEntity
  8
0
100
AcDbLine
 62
7
  6
CONTINUOUS
 10
276.5904153963
 20
137.9655509814
 11
276.4654155156
 21
138.3485296592
  0
LINE
  5
386
100
AcDbEntity
  8
_30_VOLUMEN
100
AcDbLine
 62
7
  6
CONTINUOUS
 10
262.6760233822
 20
253.5612956509
 11
262.6760233822
 21
280.0612956509
  0
LINE
  5
387
100
AcDbEntity
  8
0
100
AcDbLine
 62
7
  6
CONTINUOUS
 10
287.2154153963
 20
178.5412957701
 11
287.7154153963
 21
178.5412957701
  0
LINE
  5
388
100
AcDbEntity
  8
0
100
AcDbLine
 62
7
  6
CONTINUOUS
 10
287.2154153963
 20
178.6662956509
 11
287.7154153963
 21
178.6662956509
  0
LINE
  5
389
100
AcDbEntity
  8
0
100
AcDbLine
 62
7
  6
CONTINUOUS
 10
287.2154153963
 20
179.6662957701
 11
287.7154153963
 21
179.6662957701
  0
LINE
  5
38A
100
AcDbEntity
  8
0
100
AcDbLine
 62
7
  6
CONTINUOUS
 10
287.2154153963
 20
179.7912956509
 11
287.7154153963
 21
179.7912956509
  0
LINE
  5
38B
100
AcDbEntity
  8
0
100
AcDbLine
 62
7
  6
CONTINUOUS
 10
287.2154153963
 20
180.0412954125
 11
287.7154153963
 21
180.0412954125
  0
LINE
  5
38C
100
AcDbEntity
  8
0
100
AcDbLine
 62
7
  6
CONTINUOUS
 10
287.2154153963
 20
180.5412956509
 11
287.7154153963
 21
180.5412956509
  0
LINE
  5
38D
100
AcDbEntity
  8
0
100
AcDbLine
 62
7
  6
CONTINUOUS
 10
287.2154153963
 20
181.0412958893
 11
287.7154153963
 21
181.0412958893
  0
LINE
  5
38E
100
AcDbEntity
  8
0
100
AcDbLine
 62
7
  6
CONTINUOUS
 10
287.2154153963
 20
181.6662956509
 11
287.7154153963
 21
181.6662956509
  0
LINE
  5
38F
100
AcDbEntity
  8
0
100
AcDbLine
 62
7
  6
CONTINUOUS
 10
287.2154153963
 20
182.7912956509
 11
287.7154153963
 21
182.7912956509
  0
LINE
  5
390
100
AcDbEntity
  8
0
100
AcDbLine
 62
7
  6
CONTINUOUS
 10
287.2154153963
 20
183.4162954125
 11
287.7154153963
 21
183.4162954125
  0
LINE
  5
391
100
AcDbEntity
  8
0
100
AcDbLine
 62
7
  6
CONTINUOUS
 10
287.2154153963
 20
183.9162956509
 11
287.7154153963
 21
183.9162956509
  0
LINE
  5
392
100
AcDbEntity
  8
0
100
AcDbLine
 62
7
  6
CONTINUOUS
 10
287.2154153963
 20
184.4162958893
 11
287.7154153963
 21
184.4162958893
  0
LINE
  5
393
100
AcDbEntity
  8
0
100
AcDbLine
 62
7
  6
CONTINUOUS
 10
284.7154153963
 20
152.1570404991
 11
284.4654149195
 21
152.6676787361
  0
LINE
  5
394
100
AcDbEntity
  8
0
100
AcDbLine
 62
7
  6
CONTINUOUS
 10
280.2154151579
 20
138.859168075
 11
279.9654153963
 21
139.4974658712
  0
LINE
  5
395
100
AcDbEntity
  8
0
100
AcDbLine
 62
7
  6
CONTINUOUS
 10
272.3404153963
 20
152.5400191769
 11
272.4654152771
 21
152.1570404991
  0
LINE
  5
396
100
AcDbEntity
  8
0
100
AcDbLine
 62
7
  6
CONTINUOUS
 10
273.2154152771
 20
152.1570404991
 11
273.0904153963
 21
152.5400191769
  0
LINE
  5
397
100
AcDbEntity
  8
0
100
AcDbLine
 62
7
  6
CONTINUOUS
 10
279.4654151579
 20
139.1144871935
 11
279.5904153963
 21
138.7315083369
  0
LINE
  5
398
100
AcDbEntity
  8
0
100
AcDbLine
 62
7
  6
CONTINUOUS
 10
279.9654153963
 20
141.1570404991
 11
279.8404151579
 21
141.5400191769
  0
LINE
  5
399
100
AcDbEntity
  8
0
100
AcDbLine
 62
7
  6
CONTINUOUS
 10
275.2154151579
 20
149.0932105407
 11
275.0904156348
 21
149.6038487777
  0
LINE
  5
39A
100
AcDbEntity
  8
BEZUGSACHSEN
100
AcDbLine
 62
7
  6
CONTINUOUS
 10
266.2154153963
 20
209.9929725822
 11
266.2154153963
 21
169.859810466
  0
LINE
  5
39B
100
AcDbEntity
  8
_30_VOLUMEN
100
AcDbLine
 62
7
  6
CONTINUOUS
 10
267.9154153963
 20
274.0330067764
 11
267.9154153963
 21
235.3612956509
  0
LINE
  5
39C
100
AcDbEntity
  8
0
100
AcDbLine
 62
7
  6
CONTINUOUS
 10
268.5904153963
 20
153.5612956509
 11
268.5904153963
 21
147.5612956509
  0
LINE
  5
39D
100
AcDbEntity
  8
0
100
AcDbLine
 62
7
  6
CONTINUOUS
 10
269.3404153963
 20
147.5612956509
 11
269.3404153963
 21
150.2421467527
  0
LINE
  5
39E
100
AcDbEntity
  8
0
100
AcDbLine
 62
7
  6
CONTINUOUS
 10
269.3404153963
 20
151.0081041082
 11
269.3404153963
 21
152.9229978546
  0
LINE
  5
39F
100
AcDbEntity
  8
0
100
AcDbLine
 62
7
  6
CONTINUOUS
 10
287.2154153963
 20
184.5412954125
 11
287.7154153963
 21
184.5412954125
  0
LINE
  5
3A0
100
AcDbEntity
  8
0
100
AcDbLine
 62
7
  6
CONTINUOUS
 10
287.2154153963
 20
185.5412958893
 11
287.7154153963
 21
185.5412958893
  0
LINE
  5
3A1
100
AcDbEntity
  8
0
100
AcDbLine
 62
7
  6
CONTINUOUS
 10
287.2154153963
 20
185.916295174
 11
287.7154153963
 21
185.916295174
  0
LINE
  5
3A2
100
AcDbEntity
  8
0
100
AcDbLine
 62
7
  6
CONTINUOUS
 10
287.2154153963
 20
186.0412961277
 11
287.7154153963
 21
186.0412961277
  0
LINE
  5
3A3
100
AcDbEntity
  8
0
100
AcDbLine
 62
7
  6
CONTINUOUS
 10
287.2154153963
 20
186.5412956509
 11
287.7154153963
 21
186.5412956509
  0
LINE
  5
3A4
100
AcDbEntity
  8
0
100
AcDbLine
 62
7
  6
CONTINUOUS
 10
287.2154153963
 20
187.041295174
 11
287.7154153963
 21
187.041295174
  0
LINE
  5
3A5
100
AcDbEntity
  8
0
100
AcDbLine
 62
7
  6
CONTINUOUS
 10
287.2154153963
 20
187.5412961277
 11
287.7154153963
 21
187.5412961277
  0
LINE
  5
3A6
100
AcDbEntity
  8
0
100
AcDbLine
 62
7
  6
CONTINUOUS
 10
287.2154153963
 20
188.166295174
 11
287.7154153963
 21
188.166295174
  0
LINE
  5
3A7
100
AcDbEntity
  8
0
100
AcDbLine
 62
7
  6
CONTINUOUS
 10
287.2154153963
 20
188.7912956509
 11
287.7154153963
 21
188.7912956509
  0
LINE
  5
3A8
100
AcDbEntity
  8
0
100
AcDbLine
 62
7
  6
CONTINUOUS
 10
287.2154153963
 20
189.291295174
 11
287.7154153963
 21
189.291295174
  0
LINE
  5
3A9
100
AcDbEntity
  8
0
100
AcDbLine
 62
7
  6
CONTINUOUS
 10
287.2154153963
 20
189.666295174
 11
287.7154153963
 21
189.666295174
  0
LINE
  5
3AA
100
AcDbEntity
  8
0
100
AcDbLine
 62
7
  6
CONTINUOUS
 10
287.2154153963
 20
189.7912961277
 11
287.7154153963
 21
189.7912961277
  0
LINE
  5
3AB
100
AcDbEntity
  8
0
100
AcDbLine
 62
7
  6
CONTINUOUS
 10
287.2154153963
 20
189.9162956509
 11
287.7154153963
 21
189.9162956509
  0
LINE
  5
3AC
100
AcDbEntity
  8
0
100
AcDbLine
 62
7
  6
CONTINUOUS
 10
287.2154153963
 20
190.1662961277
 11
287.7154153963
 21
190.1662961277
  0
LINE
  5
3AD
100
AcDbEntity
  8
0
100
AcDbLine
 62
7
  6
CONTINUOUS
 10
274.3404152771
 20
149.6038487777
 11
274.4654155156
 21
148.9655509814
  0
LINE
  5
3AE
100
AcDbEntity
  8
0
100
AcDbLine
 62
7
  6
CONTINUOUS
 10
275.7154153367
 20
139.1144871935
 11
275.8404153963
 21
138.2208700999
  0
LINE
  5
3AF
100
AcDbEntity
  8
0
100
AcDbLine
 62
7
  6
CONTINUOUS
 10
272.4654152771
 20
152.1570404991
 11
272.4654152771
 21
151.7740614637
  0
LINE
  5
3B0
100
AcDbEntity
  8
0
100
AcDbLine
 62
7
  6
CONTINUOUS
 10
273.2154152771
 20
151.6464019045
 11
273.2154152771
 21
152.1570404991
  0
LINE
  5
3B1
100
AcDbEntity
  8
0
100
AcDbLine
 62
7
  6
CONTINUOUS
 10
273.2154153963
 20
141.6676787361
 11
273.2154153963
 21
140.6464019045
  0
LINE
  5
3B2
100
AcDbEntity
  8
0
100
AcDbLine
 62
7
  6
CONTINUOUS
 10
273.9654153963
 20
141.5400191769
 11
273.9654153963
 21
136.5612956509
  0
LINE
  5
3B3
100
AcDbEntity
  8
0
100
AcDbLine
 62
7
  6
CONTINUOUS
 10
274.3404152771
 20
153.5612956509
 11
274.3404152771
 21
149.6038487777
  0
LINE
  5
3B4
100
AcDbEntity
  8
0
100
AcDbLine
 62
7
  6
CONTINUOUS
 10
274.7154153963
 20
136.5612956509
 11
274.7154153963
 21
142.5612956509
  0
LINE
  5
3B5
100
AcDbEntity
  8
0
100
AcDbLine
 62
7
  6
CONTINUOUS
 10
275.0904156348
 20
149.6038487777
 11
275.0904156348
 21
153.5612956509
  0
LINE
  5
3B6
100
AcDbEntity
  8
0
100
AcDbLine
 62
7
  6
CONTINUOUS
 10
275.7154153367
 20
140.0081041082
 11
275.7154153367
 21
139.1144871935
  0
LINE
  5
3B7
100
AcDbEntity
  8
0
100
AcDbLine
 62
7
  6
CONTINUOUS
 10
276.3404152771
 20
139.7527849897
 11
276.3404152771
 21
140.0081041082
  0
LINE
  5
3B8
100
AcDbEntity
  8
0
100
AcDbLine
 62
7
  6
CONTINUOUS
 10
276.4654155156
 20
138.3485296592
 11
276.4654155156
 21
138.7315083369
  0
LINE
  5
3B9
100
AcDbEntity
  8
_21_KURVEN
100
AcDbLine
 62
4
  6
CONTINUOUS
 10
276.7154153963
 20
237.0156618058
 11
276.7154153963
 21
273.0608935575
  0
LINE
  5
3BA
100
AcDbEntity
  8
RUNDUNGEN
100
AcDbLine
 62
7
  6
CONTINUOUS
 10
291.2154153963
 20
204.2159961892
 11
299.7154153963
 21
209.1234734774
  0
LINE
  5
3BB
100
AcDbEntity
  8
BEZUGSACHSEN
100
AcDbLine
 62
7
  6
CONTINUOUS
 10
262.2154153963
 20
204.2159961892
 11
253.7154153963
 21
209.1234734774
  0
LINE
  5
3BC
100
AcDbEntity
  8
0
100
AcDbLine
 62
7
  6
CONTINUOUS
 10
283.9654153963
 20
152.0293805822
 11
284.0904149195
 21
151.5187423452
  0
LINE
  5
3BD
100
AcDbEntity
  8
0
100
AcDbLine
 62
7
  6
CONTINUOUS
 10
284.8404149195
 20
151.5187423452
 11
284.7154153963
 21
152.1570404991
  0
LINE
  5
3BE
100
AcDbEntity
  8
0
100
AcDbLine
 62
7
  6
CONTINUOUS
 10
278.0904156348
 20
153.5612956509
 11
278.0904156348
 21
149.6038487777
  0
LINE
  5
3BF
100
AcDbEntity
  8
0
100
AcDbLine
 62
7
  6
CONTINUOUS
 10
278.8404156348
 20
149.6038487777
 11
278.8404156348
 21
153.5612956509
  0
LINE
  5
3C0
100
AcDbEntity
  8
0
100
AcDbLine
 62
7
  6
CONTINUOUS
 10
279.5904153963
 20
138.7315083369
 11
279.5904153963
 21
138.3485296592
  0
LINE
  5
3C1
100
AcDbEntity
  8
0
100
AcDbLine
 62
7
  6
CONTINUOUS
 10
279.8404153963
 20
153.5612956509
 11
279.8404153963
 21
147.5612956509
  0
LINE
  5
3C2
100
AcDbEntity
  8
0
100
AcDbLine
 62
7
  6
CONTINUOUS
 10
280.2154151579
 20
138.2208700999
 11
280.2154151579
 21
138.859168075
  0
LINE
  5
3C3
100
AcDbEntity
  8
0
100
AcDbLine
 62
7
  6
CONTINUOUS
 10
280.5904153963
 20
148.3272530958
 11
280.5904153963
 21
152.7953382954
  0
LINE
  5
3C4
100
AcDbEntity
  8
0
100
AcDbLine
 62
7
  6
CONTINUOUS
 10
275.8404153963
 20
140.901721023
 11
275.7154153367
 21
140.0081041082
  0
LINE
  5
3C5
100
AcDbEntity
  8
0
100
AcDbLine
 62
7
  6
CONTINUOUS
 10
284.0904149195
 20
151.5187423452
 11
284.0904149195
 21
149.6038487777
  0
LINE
  5
3C6
100
AcDbEntity
  8
0
100
AcDbLine
 62
7
  6
CONTINUOUS
 10
284.8404149195
 20
149.6038487777
 11
284.8404149195
 21
151.5187423452
  0
LINE
  5
3C7
100
AcDbEntity
  8
_30_VOLUMEN
100
AcDbLine
 62
7
  6
CONTINUOUS
 10
285.5154153963
 20
274.0330067764
 11
285.5154153963
 21
235.3612956509
  0
LINE
  5
3C8
100
AcDbEntity
  8
RUNDUNGEN
100
AcDbLine
 62
7
  6
CONTINUOUS
 10
287.2154153963
 20
209.9929725822
 11
287.2154153963
 21
169.859810466
  0
LINE
  5
3C9
100
AcDbEntity
  8
0
100
AcDbLine
 62
7
  6
CONTINUOUS
 10
287.7154153963
 20
190.1662961277
 11
287.7154153963
 21
185.5412958893
  0
LINE
  5
3CA
100
AcDbEntity
  8
0
100
AcDbLine
 62
7
  6
CONTINUOUS
 10
287.7154153963
 20
184.5412954125
 11
287.7154153963
 21
179.6662957701
  0
LINE
  5
3CB
100
AcDbEntity
  8
0
100
AcDbLine
 62
7
  6
CONTINUOUS
 10
287.7154153963
 20
178.6662956509
 11
287.7154153963
 21
173.7912956509
  0
LINE
  5
3CC
100
AcDbEntity
  8
0
100
AcDbLine
 62
7
  6
CONTINUOUS
 10
276.3404152771
 20
140.0081041082
 11
276.4654155156
 21
140.7740614637
  0
LINE
  5
3CD
100
AcDbEntity
  8
0
100
AcDbLine
 62
7
  6
CONTINUOUS
 10
278.7154153963
 20
148.9655509814
 11
278.8404156348
 21
149.6038487777
  0
LINE
  5
3CE
100
AcDbEntity
  8
0
100
AcDbLine
 62
7
  6
CONTINUOUS
 10
278.0904156348
 20
149.6038487777
 11
277.9654153963
 21
149.0932105407
  0
LINE
  5
3CF
100
AcDbEntity
  8
0
100
AcDbLine
 62
7
  6
CONTINUOUS
 10
272.4654152771
 20
151.7740614637
 11
272.3404153963
 21
151.391082786
  0
LINE
  5
3D0
100
AcDbEntity
  8
0
100
AcDbLine
 62
7
  6
CONTINUOUS
 10
273.0904153963
 20
151.2634232267
 11
273.2154152771
 21
151.6464019045
  0
LINE
  5
3D1
100
AcDbEntity
  8
_30_VOLUMEN
100
AcDbLine
 62
7
  6
CONTINUOUS
 10
290.7548074105
 20
280.0612956509
 11
290.7548074105
 21
253.5612956509
  0
LINE
  5
3D2
100
AcDbEntity
  8
RUNDUNGEN
100
AcDbLine
 62
7
  6
CONTINUOUS
 10
294.7154153963
 20
163.7325595814
 11
294.7154153963
 21
174.5612956509
  0
LINE
  5
3D3
100
AcDbEntity
  8
0
100
AcDbLine
 62
7
  6
CONTINUOUS
 10
295.2154153963
 20
171.5612956509
 11
295.2154153963
 21
165.5612956509
  0
LINE
  5
3D4
100
AcDbEntity
  8
0
100
AcDbLine
 62
7
  6
CONTINUOUS
 10
284.7154153963
 20
148.9655509814
 11
284.8404149195
 21
149.6038487777
  0
LINE
  5
3D5
100
AcDbEntity
  8
0
100
AcDbLine
 62
7
  6
CONTINUOUS
 10
284.0904149195
 20
149.6038487777
 11
283.9654153963
 21
149.0932105407
  0
LINE
  5
3D6
100
AcDbEntity
  8
0
100
AcDbLine
 62
7
  6
CONTINUOUS
 10
276.4654155156
 20
140.7740614637
 11
276.5904153963
 21
141.1570404991
  0
LINE
  5
3D7
100
AcDbEntity
  8
0
100
AcDbLine
 62
7
  6
CONTINUOUS
 10
276.4654155156
 20
138.7315083369
 11
276.5904153963
 21
139.1144871935
  0
LINE
  5
3D8
100
AcDbEntity
  8
0
100
AcDbLine
 62
7
  6
CONTINUOUS
 10
276.0904153367
 20
141.5400191769
 11
275.8404153963
 21
140.901721023
  0
LINE
  5
3D9
100
AcDbEntity
  8
0
100
AcDbLine
 62
7
  6
CONTINUOUS
 10
279.5904153963
 20
138.3485296592
 11
279.4654151579
 21
137.9655509814
  0
LINE
  5
3DA
100
AcDbEntity
  8
0
100
AcDbLine
 62
7
  6
CONTINUOUS
 10
279.9654153963
 20
137.5825722143
 11
280.2154151579
 21
138.2208700999
  0
LINE
  5
3DB
100
AcDbEntity
  8
0
100
AcDbLine
 62
7
  6
CONTINUOUS
 10
278.4654156348
 20
148.454912655
 11
278.7154153963
 21
148.9655509814
  0
LINE
  5
3DC
100
AcDbEntity
  8
0
100
AcDbLine
 62
7
  6
CONTINUOUS
 10
272.7154153963
 20
150.7527849897
 11
273.0904153963
 21
151.2634232267
  0
LINE
  5
3DD
100
AcDbEntity
  8
0
100
AcDbLine
 62
7
  6
CONTINUOUS
 10
284.4654149195
 20
148.454912655
 11
284.7154153963
 21
148.9655509814
  0
LINE
  5
3DE
100
AcDbEntity
  8
0
100
AcDbLine
 62
7
  6
CONTINUOUS
 10
277.9654153963
 20
149.0932105407
 11
277.7154156348
 21
148.7102318629
  0
LINE
  5
3DF
100
AcDbEntity
  8
0
100
AcDbLine
 62
7
  6
CONTINUOUS
 10
276.5904153963
 20
141.1570404991
 11
276.8404155156
 21
141.5400191769
  0
LINE
  5
3E0
100
AcDbEntity
  8
0
100
AcDbLine
 62
7
  6
CONTINUOUS
 10
283.9654153963
 20
149.0932105407
 11
283.7154149195
 21
148.7102318629
  0
LINE
  5
3E1
100
AcDbEntity
  8
0
100
AcDbLine
 62
7
  6
CONTINUOUS
 10
276.4654155156
 20
142.0506574139
 11
276.0904153367
 21
141.5400191769
  0
LINE
  5
3E2
100
AcDbEntity
  8
0
100
AcDbLine
 62
7
  6
CONTINUOUS
 10
272.3404153963
 20
151.391082786
 11
272.0904152771
 21
151.1357636675
  0
LINE
  5
3E3
100
AcDbEntity
  8
0
100
AcDbLine
 62
7
  6
CONTINUOUS
 10
279.4654151579
 20
137.9655509814
 11
279.2154153963
 21
137.5825722143
  0
LINE
  5
3E4
100
AcDbEntity
  8
0
100
AcDbLine
 62
7
  6
CONTINUOUS
 10
279.5904153963
 20
137.0719339326
 11
279.9654153963
 21
137.5825722143
  0
LINE
  5
3E5
100
AcDbEntity
  8
0
100
AcDbLine
 62
7
  6
CONTINUOUS
 10
273.9654153963
 20
142.5612956509
 11
273.2154153963
 21
141.6676787361
  0
LINE
  5
3E6
100
AcDbEntity
  8
0
100
AcDbLine
 62
7
  6
CONTINUOUS
 10
273.2154153963
 20
140.6464019045
 11
273.9654153963
 21
141.5400191769
  0
LINE
  5
3E7
100
AcDbEntity
  8
0
100
AcDbLine
 62
7
  6
CONTINUOUS
 10
277.9654153963
 20
147.9442743733
 11
278.4654156348
 21
148.454912655
  0
LINE
  5
3E8
100
AcDbEntity
  8
RUNDUNGEN
100
AcDbLine
 62
7
  6
CONTINUOUS
 10
316.7154153963
 20
238.568337206
 11
316.7154153963
 21
277.5612956509
  0
LINE
  5
3E9
100
AcDbEntity
  8
0
100
AcDbLine
 62
7
  6
CONTINUOUS
 10
283.9654153963
 20
147.9442743733
 11
284.4654149195
 21
148.454912655
  0
LINE
  5
3EA
100
AcDbEntity
  8
0
100
AcDbLine
 62
7
  6
CONTINUOUS
 10
276.5904153963
 20
139.1144871935
 11
276.8404155156
 21
139.369806312
  0
LINE
  5
3EB
100
AcDbEntity
  8
0
100
AcDbLine
 62
7
  6
CONTINUOUS
 10
277.7154156348
 20
148.7102318629
 11
277.3404156348
 21
148.454912655
  0
LINE
  5
3EC
100
AcDbEntity
  8
0
100
AcDbLine
 62
7
  6
CONTINUOUS
 10
283.7154149195
 20
148.7102318629
 11
283.3404149195
 21
148.454912655
  0
LINE
  5
3ED
100
AcDbEntity
  8
0
100
AcDbLine
 62
7
  6
CONTINUOUS
 10
272.2154155156
 20
150.4974658712
 11
272.7154153963
 21
150.7527849897
  0
LINE
  5
3EE
100
AcDbEntity
  8
0
100
AcDbLine
 62
7
  6
CONTINUOUS
 10
277.4654151579
 20
147.6889552213
 11
277.9654153963
 21
147.9442743733
  0
LINE
  5
3EF
100
AcDbEntity
  8
0
100
AcDbLine
 62
7
  6
CONTINUOUS
 10
272.0904152771
 20
151.1357636675
 11
271.7154152771
 21
151.0081041082
  0
LINE
  5
3F0
100
AcDbEntity
  8
0
100
AcDbLine
 62
7
  6
CONTINUOUS
 10
276.8404155156
 20
141.5400191769
 11
277.2154155156
 21
141.7953382954
  0
LINE
  5
3F1
100
AcDbEntity
  8
0
100
AcDbLine
 62
7
  6
CONTINUOUS
 10
277.0904152771
 20
140.2634232267
 11
276.3404152771
 21
139.7527849897
  0
LINE
  5
3F2
100
AcDbEntity
  8
0
100
AcDbLine
 62
7
  6
CONTINUOUS
 10
276.8404155156
 20
139.369806312
 11
277.2154155156
 21
139.6251254305
  0
LINE
  5
3F3
100
AcDbEntity
  8
0
100
AcDbLine
 62
7
  6
CONTINUOUS
 10
279.2154153963
 20
137.5825722143
 11
278.8404153963
 21
137.3272530958
  0
LINE
  5
3F4
100
AcDbEntity
  8
0
100
AcDbLine
 62
7
  6
CONTINUOUS
 10
277.0904152771
 20
142.4336360916
 11
276.4654155156
 21
142.0506574139
  0
LINE
  5
3F5
100
AcDbEntity
  8
0
100
AcDbLine
 62
7
  6
CONTINUOUS
 10
283.4654158732
 20
147.6889552213
 11
283.9654153963
 21
147.9442743733
  0
LINE
  5
3F6
100
AcDbEntity
  8
0
100
AcDbLine
 62
7
  6
CONTINUOUS
 10
278.9654152771
 20
136.6889552213
 11
279.5904153963
 21
137.0719339326
  0
LINE
  5
3F7
100
AcDbEntity
  8
0
100
AcDbLine
 62
7
  6
CONTINUOUS
 10
277.2154155156
 20
141.7953382954
 11
277.5904155156
 21
141.9229978546
  0
LINE
  5
3F8
100
AcDbEntity
  8
0
100
AcDbLine
 62
7
  6
CONTINUOUS
 10
277.2154155156
 20
139.6251254305
 11
277.5904155156
 21
139.7527849897
  0
LINE
  5
3F9
100
AcDbEntity
  8
0
100
AcDbLine
 62
7
  6
CONTINUOUS
 10
278.8404153963
 20
137.3272530958
 11
278.4654153963
 21
137.1995935365
  0
LINE
  5
3FA
100
AcDbEntity
  8
_26_BEZUGSACHSEN
100
AcDbLine
 62
7
  6
CONTINUOUS
 10
285.5154153963
 20
247.0612956509
 11
267.9154153963
 21
247.0612956509
  0
LINE
  5
3FB
100
AcDbEntity
  8
_26_BEZUGSACHSEN
100
AcDbLine
 62
7
  6
CONTINUOUS
 10
285.5154153963
 20
265.5612956509
 11
267.9154153963
 21
265.5612956509
  0
LINE
  5
3FC
100
AcDbEntity
  8
0
100
AcDbLine
 62
7
  6
CONTINUOUS
 10
239.2154153963
 20
280.0612956509
 11
262.6760233822
 21
280.0612956509
  0
LINE
  5
3FD
100
AcDbEntity
  8
0
100
AcDbLine
 62
7
  6
CONTINUOUS
 10
290.7548074105
 20
280.0612956509
 11
314.2154153963
 21
280.0612956509
  0
LINE
  5
3FE
100
AcDbEntity
  8
FASEN
100
AcDbLine
 62
7
  6
CONTINUOUS
 10
65.3284108232
 20
33.9237804878
 11
65.3284108232
 21
72.9237804878
  0
LINE
  5
3FF
100
AcDbEntity
  8
FASEN
100
AcDbLine
 62
7
  6
CONTINUOUS
 10
65.8284108232
 20
33.4237804878
 11
65.8284108232
 21
73.4237804878
  0
LINE
  5
400
100
AcDbEntity
  8
FASEN
100
AcDbLine
 62
7
  6
CONTINUOUS
 10
65.3284108232
 20
72.9237804878
 11
65.8284108232
 21
73.4237804878
  0
LINE
  5
401
100
AcDbEntity
  8
FASEN
100
AcDbLine
 62
7
  6
CONTINUOUS
 10
65.3284108232
 20
33.9237804878
 11
65.8284108232
 21
33.4237804878
  0
LINE
  5
402
100
AcDbEntity
  8
FASEN
100
AcDbLine
 62
7
  6
CONTINUOUS
 10
79.8284108232
 20
33.4237804878
 11
79.8284108232
 21
73.4237804878
  0
LINE
  5
403
100
AcDbEntity
  8
BEZUGSACHSEN
100
AcDbLine
 62
7
  6
CONTINUOUS
 10
80.3284108232
 20
32.4237804878
 11
80.3284108232
 21
74.4237804878
  0
LINE
  5
404
100
AcDbEntity
  8
BEZUGSACHSEN
100
AcDbLine
 62
7
  6
CONTINUOUS
 10
83.3284108232
 20
28.4237804936
 11
83.3284108232
 21
40.3956114737
  0
LINE
  5
405
100
AcDbEntity
  8
RUNDUNGEN
100
AcDbLine
 62
7
  6
CONTINUOUS
 10
83.3284108232
 20
28.473365275
 11
83.3284108232
 21
45.4237804878
  0
LINE
  5
406
100
AcDbEntity
  8
RUNDUNGEN
100
AcDbLine
 62
7
  6
CONTINUOUS
 10
83.3284108232
 20
66.4519495019
 11
83.3284108232
 21
78.382274657
  0
LINE
  5
407
100
AcDbEntity
  8
BEZUGSACHSEN
100
AcDbLine
 62
7
  6
CONTINUOUS
 10
83.3284108232
 20
45.4237804878
 11
83.3284108232
 21
78.4237804821
  0
LINE
  5
408
100
AcDbEntity
  8
RUNDUNGEN
100
AcDbLine
 62
7
  6
CONTINUOUS
 10
102.3284108232
 20
13.4237804878
 11
144.3284108232
 21
13.4237804878
  0
LINE
  5
409
100
AcDbEntity
  8
0
100
AcDbLine
 62
7
  6
CONTINUOUS
 10
90.1784108232
 20
42.9237804878
 11
90.1784108232
 21
42.4237804878
  0
LINE
  5
40A
100
AcDbEntity
  8
0
100
AcDbLine
 62
7
  6
CONTINUOUS
 10
90.3060703824
 20
42.9237804878
 11
90.3060703824
 21
42.4237804878
  0
LINE
  5
40B
100
AcDbEntity
  8
0
100
AcDbLine
 62
7
  6
CONTINUOUS
 10
90.6890490602
 20
42.9237804878
 11
90.6890490602
 21
42.4237804878
  0
LINE
  5
40C
100
AcDbEntity
  8
0
100
AcDbLine
 62
7
  6
CONTINUOUS
 10
91.1996872972
 20
42.9237804878
 11
91.1996872972
 21
42.4237804878
  0
LINE
  5
40D
100
AcDbEntity
  8
0
100
AcDbLine
 62
7
  6
CONTINUOUS
 10
91.5826659749
 20
42.9237804878
 11
91.5826659749
 21
42.4237804878
  0
LINE
  5
40E
100
AcDbEntity
  8
0
100
AcDbLine
 62
7
  6
CONTINUOUS
 10
91.7103258918
 20
42.9237804878
 11
91.7103258918
 21
42.4237804878
  0
LINE
  5
40F
100
AcDbEntity
  8
0
100
AcDbLine
 62
7
  6
CONTINUOUS
 10
91.9656450103
 20
42.9237804878
 11
91.9656450103
 21
42.4237804878
  0
LINE
  5
410
100
AcDbEntity
  8
0
100
AcDbLine
 62
7
  6
CONTINUOUS
 10
92.348623688
 20
42.905429128
 11
92.348623688
 21
42.4237804878
  0
LINE
  5
411
100
AcDbEntity
  8
0
100
AcDbLine
 62
7
  6
CONTINUOUS
 10
92.6039428065
 20
42.8830916113
 11
92.6039428065
 21
42.4237804878
  0
LINE
  5
412
100
AcDbEntity
  8
0
100
AcDbLine
 62
7
  6
CONTINUOUS
 10
92.7316023658
 20
42.871922853
 11
92.7316023658
 21
42.4237804878
  0
LINE
  5
413
100
AcDbEntity
  8
0
100
AcDbLine
 62
7
  6
CONTINUOUS
 10
92.859261925
 20
42.8547307546
 11
92.859261925
 21
42.4237804878
  0
LINE
  5
414
100
AcDbEntity
  8
0
100
AcDbLine
 62
7
  6
CONTINUOUS
 10
93.1145810435
 20
42.8173320301
 11
93.1145810435
 21
42.4237804878
  0
LINE
  5
415
100
AcDbEntity
  8
0
100
AcDbLine
 62
7
  6
CONTINUOUS
 10
93.6252192805
 20
42.718075148
 11
93.6252192805
 21
42.4237804878
  0
LINE
  5
416
100
AcDbEntity
  8
0
100
AcDbLine
 62
7
  6
CONTINUOUS
 10
94.1358576964
 20
42.5833818598
 11
94.1358576964
 21
42.4237804878
  0
LINE
  5
417
100
AcDbEntity
  8
0
100
AcDbLine
 62
7
  6
CONTINUOUS
 10
169.9150080321
 20
25.4237885688
 11
169.9148667082
 21
25.4237858739
  0
LINE
  5
418
100
AcDbEntity
  8
_30_VOLUMEN
100
AcDbLine
 62
7
  6
CONTINUOUS
 10
99.8284108232
 20
15.9237804878
 11
99.8284108232
 21
90.9237804878
  0
LINE
  5
419
100
AcDbEntity
  8
0
100
AcDbLine
 62
7
  6
CONTINUOUS
 10
150.3584061453
 20
25.4237804878
 11
169.6800075021
 21
25.4237804878
  0
LINE
  5
41A
100
AcDbEntity
  8
0
100
AcDbLine
 62
7
  6
CONTINUOUS
 10
150.8584061453
 20
25.4750563436
 11
161.8584061453
 21
25.4750563436
  0
LINE
  5
41B
100
AcDbEntity
  8
0
100
AcDbLine
 62
7
  6
CONTINUOUS
 10
175.6284108232
 20
25.9237804878
 11
169.9150080321
 21
25.9237804878
  0
LINE
  5
41C
100
AcDbEntity
  8
0
100
AcDbLine
 62
7
  6
CONTINUOUS
 10
150.3584061453
 20
25.9237804878
 11
146.8284108232
 21
25.9237804878
  0
LINE
  5
41D
100
AcDbEntity
  8
0
100
AcDbLine
 62
7
  6
CONTINUOUS
 10
99.8284108232
 20
25.9237804878
 11
85.8284108232
 21
25.9237804878
  0
LINE
  5
41E
100
AcDbEntity
  8
0
100
AcDbLine
 62
7
  6
CONTINUOUS
 10
161.8584061453
 20
25.9743320011
 11
150.8584061453
 21
25.9743320011
  0
LINE
  5
41F
100
AcDbEntity
  8
FASEN
100
AcDbLine
 62
7
  6
CONTINUOUS
 10
80.3284108232
 20
33.9237804878
 11
79.8284108232
 21
33.4237804878
  0
LINE
  5
420
100
AcDbEntity
  8
0
100
AcDbLine
 62
7
  6
CONTINUOUS
 10
80.3284108232
 20
32.4237804878
 11
81.8284108232
 21
32.4237804878
  0
LINE
  5
421
100
AcDbEntity
  8
0
100
AcDbLine
 62
7
  6
CONTINUOUS
 10
79.8284108232
 20
33.4237804878
 11
65.8284108232
 21
33.4237804878
  0
LINE
  5
422
100
AcDbEntity
  8
FASEN
100
AcDbLine
 62
7
  6
CONTINUOUS
 10
80.3284108232
 20
72.9237804878
 11
79.8284108232
 21
73.4237804878
  0
LINE
  5
423
100
AcDbEntity
  8
0
100
AcDbLine
 62
7
  6
CONTINUOUS
 10
162.8284105848
 20
34.9237804878
 11
158.3284107636
 21
34.9237804878
  0
LINE
  5
424
100
AcDbEntity
  8
0
100
AcDbLine
 62
7
  6
CONTINUOUS
 10
157.3284108232
 20
34.9237804878
 11
155.8284108232
 21
34.9237804878
  0
LINE
  5
425
100
AcDbEntity
  8
_30_VOLUMEN
100
AcDbLine
 62
7
  6
CONTINUOUS
 10
175.6284108232
 20
35.4237804878
 11
146.8449937872
 21
35.4237804878
  0
LINE
  5
426
100
AcDbEntity
  8
_30_VOLUMEN
100
AcDbLine
 62
7
  6
CONTINUOUS
 10
175.6284108232
 20
36.8530662735
 11
163.0284108232
 21
36.8530662735
  0
LINE
  5
427
100
AcDbEntity
  8
_30_VOLUMEN
100
AcDbLine
 62
7
  6
CONTINUOUS
 10
175.6284108232
 20
38.4237804878
 11
175.9284108232
 21
38.4237804878
  0
LINE
  5
428
100
AcDbEntity
  8
_26_BEZUGSACHSEN
100
AcDbLine
 62
7
  6
CONTINUOUS
 10
114.0784108232
 20
44.6237804878
 11
114.0784108232
 21
62.2237804878
  0
LINE
  5
429
100
AcDbEntity
  8
_30_VOLUMEN
100
AcDbLine
 62
7
  6
CONTINUOUS
 10
146.8284108232
 20
39.3843884736
 11
99.8284108232
 21
39.3843884736
  0
LINE
  5
42A
100
AcDbEntity
  8
0
100
AcDbLine
 62
7
  6
CONTINUOUS
 10
179.8991092099
 20
42.4237804878
 11
176.6284108232
 21
42.4237804878
  0
LINE
  5
42B
100
AcDbEntity
  8
0
100
AcDbLine
 62
7
  6
CONTINUOUS
 10
94.608725142
 20
42.4237804878
 11
90.1784108232
 21
42.4237804878
  0
LINE
  5
42C
100
AcDbEntity
  8
_30_VOLUMEN
100
AcDbLine
 62
7
  6
CONTINUOUS
 10
175.6284108232
 20
42.6737804878
 11
163.0284108232
 21
42.6737804878
  0
LINE
  5
42D
100
AcDbEntity
  8
_30_VOLUMEN
100
AcDbLine
 62
7
  6
CONTINUOUS
 10
175.9284108232
 20
42.9237804878
 11
166.5784108232
 21
42.9237804878
  0
LINE
  5
42E
100
AcDbEntity
  8
RUNDUNGEN
100
AcDbLine
 62
7
  6
CONTINUOUS
 10
166.5784108232
 20
42.9237804878
 11
154.8284108232
 21
42.9237804878
  0
LINE
  5
42F
100
AcDbEntity
  8
RUNDUNGEN
100
AcDbLine
 62
7
  6
CONTINUOUS
 10
91.8284108232
 20
42.9237804878
 11
85.8284108232
 21
42.9237804878
  0
LINE
  5
430
100
AcDbEntity
  8
_30_VOLUMEN
100
AcDbLine
 62
7
  6
CONTINUOUS
 10
176.3284108232
 20
43.9237804878
 11
180.0284108232
 21
43.9237804878
  0
LINE
  5
431
100
AcDbEntity
  8
_30_VOLUMEN
100
AcDbLine
 62
7
  6
CONTINUOUS
 10
146.8284108232
 20
44.6237804878
 11
99.8284108232
 21
44.6237804878
  0
LINE
  5
432
100
AcDbEntity
  8
0
100
AcDbLine
 62
7
  6
CONTINUOUS
 10
176.3284108232
 20
45.4237804878
 11
175.9284108232
 21
45.4237804878
  0
LINE
  5
433
100
AcDbEntity
  8
_30_VOLUMEN
100
AcDbLine
 62
7
  6
CONTINUOUS
 10
172.8279827914
 20
47.9237804878
 11
175.9284108232
 21
47.9237804878
  0
LINE
  5
434
100
AcDbEntity
  8
_30_VOLUMEN
100
AcDbLine
 62
7
  6
CONTINUOUS
 10
175.9284108232
 20
48.5237804878
 11
176.3284108232
 21
48.5237804878
  0
LINE
  5
435
100
AcDbEntity
  8
_21_KURVEN
100
AcDbLine
 62
4
  6
CONTINUOUS
 10
95.9165700104
 20
53.4237804878
 11
150.7402517527
 21
53.4237804878
  0
LINE
  5
436
100
AcDbEntity
  8
_30_VOLUMEN
100
AcDbLine
 62
7
  6
CONTINUOUS
 10
176.3284108232
 20
53.4237804878
 11
180.0284108232
 21
53.4237804878
  0
LINE
  5
437
100
AcDbEntity
  8
_26_BEZUGSACHSEN
100
AcDbLine
 62
7
  6
CONTINUOUS
 10
132.5784108232
 20
44.6237804878
 11
132.5784108232
 21
62.2237804878
  0
LINE
  5
438
100
AcDbEntity
  8
_30_VOLUMEN
100
AcDbLine
 62
7
  6
CONTINUOUS
 10
175.9284108232
 20
58.3237804878
 11
176.3284108232
 21
58.3237804878
  0
LINE
  5
439
100
AcDbEntity
  8
_30_VOLUMEN
100
AcDbLine
 62
7
  6
CONTINUOUS
 10
175.9284108232
 20
58.9237804878
 11
172.8279827914
 21
58.9237804878
  0
LINE
  5
43A
100
AcDbEntity
  8
0
100
AcDbLine
 62
7
  6
CONTINUOUS
 10
176.3284108232
 20
61.4237804878
 11
175.9284108232
 21
61.4237804878
  0
LINE
  5
43B
100
AcDbEntity
  8
_30_VOLUMEN
100
AcDbLine
 62
7
  6
CONTINUOUS
 10
146.8284108232
 20
62.2237804878
 11
99.8284108232
 21
62.2237804878
  0
LINE
  5
43C
100
AcDbEntity
  8
_30_VOLUMEN
100
AcDbLine
 62
7
  6
CONTINUOUS
 10
176.3284108232
 20
62.9237804878
 11
180.0284108232
 21
62.9237804878
  0
LINE
  5
43D
100
AcDbEntity
  8
BEZUGSACHSEN
100
AcDbLine
 62
7
  6
CONTINUOUS
 10
166.5784108232
 20
63.9237804878
 11
154.8284108232
 21
63.9237804878
  0
LINE
  5
43E
100
AcDbEntity
  8
BEZUGSACHSEN
100
AcDbLine
 62
7
  6
CONTINUOUS
 10
91.8284108232
 20
63.9237804878
 11
85.8284108232
 21
63.9237804878
  0
LINE
  5
43F
100
AcDbEntity
  8
_30_VOLUMEN
100
AcDbLine
 62
7
  6
CONTINUOUS
 10
166.5784108232
 20
63.9237804878
 11
175.9284108232
 21
63.9237804878
  0
LINE
  5
440
100
AcDbEntity
  8
_30_VOLUMEN
100
AcDbLine
 62
7
  6
CONTINUOUS
 10
175.6284108232
 20
64.1737804878
 11
163.0284108232
 21
64.1737804878
  0
LINE
  5
441
100
AcDbEntity
  8
0
100
AcDbLine
 62
7
  6
CONTINUOUS
 10
179.8991092099
 20
64.4237804878
 11
176.6284108232
 21
64.4237804878
  0
LINE
  5
442
100
AcDbEntity
  8
_30_VOLUMEN
100
AcDbLine
 62
7
  6
CONTINUOUS
 10
99.8284108232
 20
67.463172502
 11
146.8284108232
 21
67.463172502
  0
LINE
  5
443
100
AcDbEntity
  8
_30_VOLUMEN
100
AcDbLine
 62
7
  6
CONTINUOUS
 10
175.6284108232
 20
68.4237804878
 11
175.9284108232
 21
68.4237804878
  0
LINE
  5
444
100
AcDbEntity
  8
_30_VOLUMEN
100
AcDbLine
 62
7
  6
CONTINUOUS
 10
146.8284108232
 20
15.9237804878
 11
146.8284108232
 21
90.9237804878
  0
LINE
  5
445
100
AcDbEntity
  8
_30_VOLUMEN
100
AcDbLine
 62
7
  6
CONTINUOUS
 10
163.0284108232
 20
69.9944947021
 11
175.6284108232
 21
69.9944947021
  0
LINE
  5
446
100
AcDbEntity
  8
_30_VOLUMEN
100
AcDbLine
 62
7
  6
CONTINUOUS
 10
175.6284108232
 20
71.4237804878
 11
146.8449937872
 21
71.4237804878
  0
LINE
  5
447
100
AcDbEntity
  8
0
100
AcDbLine
 62
7
  6
CONTINUOUS
 10
79.8284108232
 20
73.4237804878
 11
65.8284108232
 21
73.4237804878
  0
LINE
  5
448
100
AcDbEntity
  8
0
100
AcDbLine
 62
7
  6
CONTINUOUS
 10
150.3584061453
 20
25.9485391078
 11
150.3584061453
 21
25.4237804878
  0
LINE
  5
449
100
AcDbEntity
  8
BEZUGSACHSEN
100
AcDbLine
 62
7
  6
CONTINUOUS
 10
150.3584061453
 20
80.8990218678
 11
150.3584061453
 21
81.4237804878
  0
LINE
  5
44A
100
AcDbEntity
  8
BEZUGSACHSEN
100
AcDbLine
 62
7
  6
CONTINUOUS
 10
81.8284108232
 20
74.4237804878
 11
80.3284108232
 21
74.4237804878
  0
LINE
  5
44B
100
AcDbEntity
  8
0
100
AcDbLine
 62
7
  6
CONTINUOUS
 10
155.8284108232
 20
35.4237804878
 11
155.8284108232
 21
34.9237804878
  0
LINE
  5
44C
100
AcDbEntity
  8
0
100
AcDbLine
 62
7
  6
CONTINUOUS
 10
156.5784108232
 20
35.4237804878
 11
156.5784108232
 21
34.9237804878
  0
LINE
  5
44D
100
AcDbEntity
  8
0
100
AcDbLine
 62
7
  6
CONTINUOUS
 10
187.8414410382
 20
45.3145528639
 11
179.8991092099
 21
42.4237804878
  0
LINE
  5
44E
100
AcDbEntity
  8
BEZUGSACHSEN
100
AcDbLine
 62
7
  6
CONTINUOUS
 10
161.8584061453
 20
80.8732289745
 11
150.8584061453
 21
80.8732289745
  0
LINE
  5
44F
100
AcDbEntity
  8
0
100
AcDbLine
 62
7
  6
CONTINUOUS
 10
175.6284108232
 20
80.9237804878
 11
169.9150080321
 21
80.9237804878
  0
LINE
  5
450
100
AcDbEntity
  8
0
100
AcDbLine
 62
7
  6
CONTINUOUS
 10
150.3584061453
 20
80.9237804878
 11
146.8284108232
 21
80.9237804878
  0
LINE
  5
451
100
AcDbEntity
  8
0
100
AcDbLine
 62
7
  6
CONTINUOUS
 10
99.8284108232
 20
80.9237804878
 11
85.8284108232
 21
80.9237804878
  0
LINE
  5
452
100
AcDbEntity
  8
BEZUGSACHSEN
100
AcDbLine
 62
7
  6
CONTINUOUS
 10
150.8584061453
 20
81.372504632
 11
161.8584061453
 21
81.372504632
  0
LINE
  5
453
100
AcDbEntity
  8
BEZUGSACHSEN
100
AcDbLine
 62
7
  6
CONTINUOUS
 10
169.6800075021
 20
81.4237804878
 11
150.3584061453
 21
81.4237804878
  0
LINE
  5
454
100
AcDbEntity
  8
BEZUGSACHSEN
100
AcDbLine
 62
7
  6
CONTINUOUS
 10
169.9150080321
 20
81.4237724068
 11
169.9148667082
 21
81.4237751017
  0
LINE
  5
455
100
AcDbEntity
  8
0
100
AcDbLine
 62
7
  6
CONTINUOUS
 10
187.8414410382
 20
61.5330081117
 11
179.8991092099
 21
64.4237804878
  0
LINE
  5
456
100
AcDbEntity
  8
0
100
AcDbLine
 62
7
  6
CONTINUOUS
 10
157.3284108232
 20
35.4237804878
 11
157.3284108232
 21
34.9237804878
  0
LINE
  5
457
100
AcDbEntity
  8
0
100
AcDbLine
 62
7
  6
CONTINUOUS
 10
158.3284107636
 20
35.4237804878
 11
158.3284107636
 21
34.9237804878
  0
LINE
  5
458
100
AcDbEntity
  8
0
100
AcDbLine
 62
7
  6
CONTINUOUS
 10
158.4534108232
 20
35.4237804878
 11
158.4534108232
 21
34.9237804878
  0
LINE
  5
459
100
AcDbEntity
  8
0
100
AcDbLine
 62
7
  6
CONTINUOUS
 10
158.7034107636
 20
35.4237804878
 11
158.7034107636
 21
34.9237804878
  0
LINE
  5
45A
100
AcDbEntity
  8
0
100
AcDbLine
 62
7
  6
CONTINUOUS
 10
159.0784109424
 20
35.4237804878
 11
159.0784109424
 21
34.9237804878
  0
LINE
  5
45B
100
AcDbEntity
  8
0
100
AcDbLine
 62
7
  6
CONTINUOUS
 10
159.703410704
 20
35.4237804878
 11
159.703410704
 21
34.9237804878
  0
LINE
  5
45C
100
AcDbEntity
  8
0
100
AcDbLine
 62
7
  6
CONTINUOUS
 10
160.3284108232
 20
35.4237804878
 11
160.3284108232
 21
34.9237804878
  0
LINE
  5
45D
100
AcDbEntity
  8
0
100
AcDbLine
 62
7
  6
CONTINUOUS
 10
160.828410704
 20
35.4237804878
 11
160.828410704
 21
34.9237804878
  0
LINE
  5
45E
100
AcDbEntity
  8
0
100
AcDbLine
 62
7
  6
CONTINUOUS
 10
161.4534108232
 20
35.4237804878
 11
161.4534108232
 21
34.9237804878
  0
LINE
  5
45F
100
AcDbEntity
  8
0
100
AcDbLine
 62
7
  6
CONTINUOUS
 10
162.0784105848
 20
35.4237804878
 11
162.0784105848
 21
34.9237804878
  0
LINE
  5
460
100
AcDbEntity
  8
0
100
AcDbLine
 62
7
  6
CONTINUOUS
 10
162.3584061453
 20
26.2308142866
 11
162.3584061453
 21
25.5102089703
  0
LINE
  5
461
100
AcDbEntity
  8
BEZUGSACHSEN
100
AcDbLine
 62
7
  6
CONTINUOUS
 10
162.3584061453
 20
80.616746689
 11
162.3584061453
 21
81.3373520053
  0
LINE
  5
462
100
AcDbEntity
  8
0
100
AcDbLine
 62
7
  6
CONTINUOUS
 10
162.4534105848
 20
35.4237804878
 11
162.4534105848
 21
34.9237804878
  0
LINE
  5
463
100
AcDbEntity
  8
0
100
AcDbLine
 62
7
  6
CONTINUOUS
 10
162.5784108232
 20
35.4237804878
 11
162.5784108232
 21
34.9237804878
  0
LINE
  5
464
100
AcDbEntity
  8
0
100
AcDbLine
 62
7
  6
CONTINUOUS
 10
162.8284105848
 20
35.4237804878
 11
162.8284105848
 21
34.9237804878
  0
LINE
  5
465
100
AcDbEntity
  8
_30_VOLUMEN
100
AcDbLine
 62
7
  6
CONTINUOUS
 10
163.0284108232
 20
36.8530662735
 11
163.0284108232
 21
42.9237804878
  0
LINE
  5
466
100
AcDbEntity
  8
_30_VOLUMEN
100
AcDbLine
 62
7
  6
CONTINUOUS
 10
163.0284108232
 20
63.9237804878
 11
163.0284108232
 21
69.9944947021
  0
LINE
  5
467
100
AcDbEntity
  8
_30_VOLUMEN
100
AcDbLine
 62
7
  6
CONTINUOUS
 10
163.1284108232
 20
64.1737804878
 11
163.1284108232
 21
63.9237804878
  0
LINE
  5
468
100
AcDbEntity
  8
_30_VOLUMEN
100
AcDbLine
 62
7
  6
CONTINUOUS
 10
163.1284108232
 20
42.9237804878
 11
163.1284108232
 21
42.6737804878
  0
LINE
  5
469
100
AcDbEntity
  8
BEZUGSACHSEN
100
AcDbLine
 62
7
  6
CONTINUOUS
 10
169.9150080321
 20
81.4237779186
 11
169.9150080321
 21
80.9237804878
  0
LINE
  5
46A
100
AcDbEntity
  8
0
100
AcDbLine
 62
7
  6
CONTINUOUS
 10
169.9150080321
 20
25.9237804878
 11
169.9150080321
 21
25.423783057
  0
LINE
  5
46B
100
AcDbEntity
  8
BEZUGSACHSEN
100
AcDbLine
 62
7
  6
CONTINUOUS
 10
102.3284108232
 20
93.4237804878
 11
144.3284108232
 21
93.4237804878
  0
LINE
  5
46C
100
AcDbEntity
  8
_30_VOLUMEN
100
AcDbLine
 62
7
  6
CONTINUOUS
 10
172.8279827914
 20
61.4237804878
 11
172.8279827914
 21
45.4237804878
  0
LINE
  5
46D
100
AcDbEntity
  8
_30_VOLUMEN
100
AcDbLine
 62
7
  6
CONTINUOUS
 10
175.6284108232
 20
25.9237804956
 11
175.6284108232
 21
42.6737804878
  0
LINE
  5
46E
100
AcDbEntity
  8
_30_VOLUMEN
100
AcDbLine
 62
7
  6
CONTINUOUS
 10
175.6284108232
 20
64.1737804878
 11
175.6284108232
 21
80.92378048
  0
LINE
  5
46F
100
AcDbEntity
  8
_30_VOLUMEN
100
AcDbLine
 62
7
  6
CONTINUOUS
 10
175.9284108232
 20
68.4237804789
 11
175.9284108232
 21
38.4237804967
  0
LINE
  5
470
100
AcDbEntity
  8
_30_VOLUMEN
100
AcDbLine
 62
7
  6
CONTINUOUS
 10
176.3284108232
 20
62.9237804878
 11
176.3284108232
 21
43.9237804878
  0
LINE
  5
471
100
AcDbEntity
  8
0
100
AcDbLine
 62
7
  6
CONTINUOUS
 10
176.6284108232
 20
43.9237804878
 11
176.6284108232
 21
42.4237804878
  0
LINE
  5
472
100
AcDbEntity
  8
0
100
AcDbLine
 62
7
  6
CONTINUOUS
 10
176.6284108232
 20
62.9237804878
 11
176.6284108232
 21
64.4237804878
  0
LINE
  5
473
100
AcDbEntity
  8
0
100
AcDbLine
 62
7
  6
CONTINUOUS
 10
179.8991092099
 20
43.9237804878
 11
179.8991092099
 21
42.4237804878
  0
LINE
  5
474
100
AcDbEntity
  8
0
100
AcDbLine
 62
7
  6
CONTINUOUS
 10
179.8991092099
 20
62.9237804878
 11
179.8991092099
 21
64.4237804878
  0
LINE
  5
475
100
AcDbEntity
  8
_30_VOLUMEN
100
AcDbLine
 62
7
  6
CONTINUOUS
 10
180.0284108232
 20
62.9237804878
 11
180.0284108232
 21
43.9237804878
  0
LINE
  5
476
100
AcDbEntity
  8
RUNDUNGEN
100
AcDbLine
 62
7
  6
CONTINUOUS
 10
188.8284108232
 20
46.7240917951
 11
188.8284108232
 21
60.1234691805
  0
ARC
  5
477
100
AcDbEntity
  8
BEZUGSACHSEN
100
AcDbCircle
 62
7
  6
CONTINUOUS
 10
111.3284108232
 20
193.5612956509
 40
28.0
100
AcDbArc
 50
122.7971682958
 51
180.0
  0
ARC
  5
478
100
AcDbEntity
  8
RUNDUNGEN
100
AcDbCircle
 62
7
  6
CONTINUOUS
 10
111.3284108232
 20
193.5612956509
 40
28.0
100
AcDbArc
 50
122.7971682958
 51
180.0
  0
ARC
  5
479
100
AcDbEntity
  8
RUNDUNGEN
100
AcDbCircle
 62
7
  6
CONTINUOUS
 10
123.3284108232
 20
256.5612956509
 40
23.5
100
AcDbArc
 50
0.0
 51
180.0
  0
ARC
  5
47A
100
AcDbEntity
  8
_30_VOLUMEN
100
AcDbCircle
 62
7
  6
CONTINUOUS
 10
123.3284108232
 20
256.5612956509
 40
23.5
100
AcDbArc
 50
2.3999985603
 51
180.0
  0
ARC
  5
47B
100
AcDbEntity
  8
_21_KURVEN
100
AcDbCircle
 62
4
  6
CONTINUOUS
 10
157.8284108232
 20
253.5612956509
 40
18.0
100
AcDbArc
 50
232.3259852502
 51
246.8096801861
  0
ARC
  5
47C
100
AcDbEntity
  8
_21_KURVEN
100
AcDbCircle
 62
4
  6
CONTINUOUS
 10
88.8284108232
 20
253.5612956509
 40
18.0
100
AcDbArc
 50
293.1903198139
 51
307.6740147498
  0
ARC
  5
47D
100
AcDbEntity
  8
_30_VOLUMEN
100
AcDbCircle
 62
7
  6
CONTINUOUS
 10
162.8284108232
 20
198.468772939
 40
10.0
100
AcDbArc
 50
0.5301236537
 51
60.0
  0
ARC
  5
47E
100
AcDbEntity
  8
RUNDUNGEN
100
AcDbCircle
 62
7
  6
CONTINUOUS
 10
154.8284108232
 20
223.8721847833
 40
8.0
100
AcDbArc
 50
180.000000001
 51
240.0
  0
ARC
  5
47F
100
AcDbEntity
  8
RUNDUNGEN
100
AcDbCircle
 62
7
  6
CONTINUOUS
 10
91.8284108232
 20
223.8226326992
 40
7.9999834927
100
AcDbArc
 50
302.7972631645
 51
0.0001751416
  0
ARC
  5
480
100
AcDbEntity
  8
RUNDUNGEN
100
AcDbCircle
 62
7
  6
CONTINUOUS
 10
111.3284108232
 20
193.5612956509
 40
7.0
100
AcDbArc
 50
90.0
 51
180.0
  0
ARC
  5
481
100
AcDbEntity
  8
RUNDUNGEN
100
AcDbCircle
 62
7
  6
CONTINUOUS
 10
135.3284108232
 20
193.5612956509
 40
7.0
100
AcDbArc
 50
0.0
 51
90.0
  0
ARC
  5
482
100
AcDbEntity
  8
_30_VOLUMEN
100
AcDbCircle
 62
7
  6
CONTINUOUS
 10
169.6284108232
 20
188.2612956509
 40
6.3
100
AcDbArc
 50
0.0
 51
90.0
  0
ARC
  5
483
100
AcDbEntity
  8
_30_VOLUMEN
100
AcDbCircle
 62
7
  6
CONTINUOUS
 10
169.4284108232
 20
188.2612956509
 40
6.3
100
AcDbArc
 50
90.0
 51
180.0
  0
ARC
  5
484
100
AcDbEntity
  8
RUNDUNGEN
100
AcDbCircle
 62
7
  6
CONTINUOUS
 10
144.8284108232
 20
114.5612956509
 40
2.5
100
AcDbArc
 50
180.0
 51
270.0
  0
ARC
  5
485
100
AcDbEntity
  8
RUNDUNGEN
100
AcDbCircle
 62
7
  6
CONTINUOUS
 10
101.8284108232
 20
114.5612956509
 40
2.5
100
AcDbArc
 50
270.0
 51
360.0
  0
ARC
  5
486
100
AcDbEntity
  8
RUNDUNGEN
100
AcDbCircle
 62
7
  6
CONTINUOUS
 10
85.8284108232
 20
114.5612956509
 40
2.5
100
AcDbArc
 50
180.0
 51
270.0
  0
ARC
  5
487
100
AcDbEntity
  8
RUNDUNGEN
100
AcDbCircle
 62
7
  6
CONTINUOUS
 10
187.3284108232
 20
132.8616069582
 40
1.5
100
AcDbArc
 50
290.0
 51
360.0
  0
ARC
  5
488
100
AcDbEntity
  8
RUNDUNGEN
100
AcDbCircle
 62
7
  6
CONTINUOUS
 10
187.3284108232
 20
146.2609843436
 40
1.5
100
AcDbArc
 50
0.0
 51
70.0
  0
ARC
  5
489
100
AcDbEntity
  8
BEZUGSACHSEN
100
AcDbCircle
 62
7
  6
CONTINUOUS
 10
81.8284108232
 20
162.0612956509
 40
1.5
100
AcDbArc
 50
270.0
 51
360.0
  0
ARC
  5
48A
100
AcDbEntity
  8
BEZUGSACHSEN
100
AcDbCircle
 62
7
  6
CONTINUOUS
 10
81.8284108232
 20
117.0612956509
 40
1.5
100
AcDbArc
 50
0.0
 51
90.0
  0
ARC
  5
48B
100
AcDbEntity
  8
0
100
AcDbCircle
 62
7
  6
CONTINUOUS
 10
162.8584061453
 20
143.6591718301
 40
0.5
100
AcDbArc
 50
57.9946167919
 51
180.0
  0
ARC
  5
48C
100
AcDbEntity
  8
0
100
AcDbCircle
 62
7
  6
CONTINUOUS
 10
161.8584061453
 20
141.7279623175
 40
0.5
100
AcDbArc
 50
270.0
 51
360.0
  0
ARC
  5
48D
100
AcDbEntity
  8
0
100
AcDbCircle
 62
7
  6
CONTINUOUS
 10
150.8584061453
 20
140.7279623175
 40
0.5
100
AcDbArc
 50
90.0
 51
180.0
  0
ARC
  5
48E
100
AcDbEntity
  8
0
100
AcDbCircle
 62
7
  6
CONTINUOUS
 10
150.8584061453
 20
138.3946289842
 40
0.5
100
AcDbArc
 50
180.0
 51
270.0
  0
ARC
  5
48F
100
AcDbEntity
  8
0
100
AcDbCircle
 62
7
  6
CONTINUOUS
 10
161.8584061453
 20
137.3946289842
 40
0.5
100
AcDbArc
 50
0.0
 51
90.0
  0
ARC
  5
490
100
AcDbEntity
  8
0
100
AcDbCircle
 62
7
  6
CONTINUOUS
 10
162.8584061453
 20
135.4634194716
 40
0.5
100
AcDbArc
 50
180.0
 51
302.0053832081
  0
ARC
  5
491
100
AcDbEntity
  8
0
100
AcDbCircle
 62
7
  6
CONTINUOUS
 10
169.4150080321
 20
139.5612956509
 40
0.5
100
AcDbArc
 50
302.0053832081
 51
57.9946167919
  0
ARC
  5
492
100
AcDbEntity
  8
BEZUGSACHSEN
100
AcDbCircle
 62
7
  6
CONTINUOUS
 10
276.2154153963
 20
139.5494085186
 40
27.5
100
AcDbArc
 50
170.350081361
 51
189.5996777536
  0
ARC
  5
493
100
AcDbEntity
  8
BEZUGSACHSEN
100
AcDbCircle
 62
7
  6
CONTINUOUS
 10
258.2154153963
 20
169.859810466
 40
8.0
100
AcDbArc
 50
301.4078627571
 51
360.0
  0
ARC
  5
494
100
AcDbEntity
  8
BEZUGSACHSEN
100
AcDbCircle
 62
7
  6
CONTINUOUS
 10
250.7154153963
 20
163.7325595814
 40
8.0
100
AcDbArc
 50
317.0874995875
 51
360.0
  0
ARC
  5
495
100
AcDbEntity
  8
BEZUGSACHSEN
100
AcDbCircle
 62
7
  6
CONTINUOUS
 10
258.2154153963
 20
197.2878014551
 40
7.999994394
100
AcDbArc
 50
0.0
 51
59.9999695756
  0
ARC
  5
496
100
AcDbEntity
  8
BEZUGSACHSEN
100
AcDbCircle
 62
7
  6
CONTINUOUS
 10
263.7154153963
 20
174.5612956509
 40
5.0
100
AcDbArc
 50
99.5940682269
 51
180.0
  0
ARC
  5
497
100
AcDbEntity
  8
BEZUGSACHSEN
100
AcDbCircle
 62
7
  6
CONTINUOUS
 10
262.2154153963
 20
183.4354153255
 40
4.0
100
AcDbArc
 50
279.5940682269
 51
360.0
  0
ARC
  5
498
100
AcDbEntity
  8
BEZUGSACHSEN
100
AcDbCircle
 62
7
  6
CONTINUOUS
 10
270.7154153963
 20
238.568337206
 40
34.0
100
AcDbArc
 50
180.0
 51
240.0
  0
ARC
  5
499
100
AcDbEntity
  8
_30_VOLUMEN
100
AcDbCircle
 62
7
  6
CONTINUOUS
 10
272.2154153963
 20
283.0612956509
 40
10.0
100
AcDbArc
 50
197.4576031237
 51
244.5324398575
  0
ARC
  5
49A
100
AcDbEntity
  8
BEZUGSACHSEN
100
AcDbCircle
 62
7
  6
CONTINUOUS
 10
239.2154153963
 20
277.5612956509
 40
2.5
100
AcDbArc
 50
90.0
 51
180.0
  0
ARC
  5
49B
100
AcDbEntity
  8
0
100
AcDbCircle
 62
7
  6
CONTINUOUS
 10
277.2154153963
 20
139.5494085186
 40
27.5
100
AcDbArc
 50
350.4003222464
 51
9.649918639
  0
ARC
  5
49C
100
AcDbEntity
  8
BEZUGSACHSEN
100
AcDbCircle
 62
7
  6
CONTINUOUS
 10
276.7154153963
 20
139.5612956509
 40
27.5
100
AcDbArc
 50
121.4078627571
 51
58.5921372429
  0
CIRCLE
  5
49D
100
AcDbEntity
  8
BEZUGSACHSEN
100
AcDbCircle
 62
7
  6
CONTINUOUS
 10
276.7154153963
 20
139.5612956509
 40
21.0
  0
CIRCLE
  5
49E
100
AcDbEntity
  8
FASEN
100
AcDbCircle
 62
7
  6
CONTINUOUS
 10
276.7154153963
 20
139.5612956509
 40
20.0
  0
CIRCLE
  5
49F
100
AcDbEntity
  8
FASEN
100
AcDbCircle
 62
7
  6
CONTINUOUS
 10
276.7154153963
 20
139.5612956509
 40
19.5
  0
ARC
  5
4A0
100
AcDbEntity
  8
RUNDUNGEN
100
AcDbCircle
 62
7
  6
CONTINUOUS
 10
295.2154153963
 20
169.859810466
 40
8.0
100
AcDbArc
 50
180.0
 51
238.5921372429
  0
ARC
  5
4A1
100
AcDbEntity
  8
RUNDUNGEN
100
AcDbCircle
 62
7
  6
CONTINUOUS
 10
302.7154153963
 20
163.7325595814
 40
8.0
100
AcDbArc
 50
180.0
 51
222.9125004125
  0
ARC
  5
4A2
100
AcDbEntity
  8
RUNDUNGEN
100
AcDbCircle
 62
7
  6
CONTINUOUS
 10
295.2154153963
 20
197.287792959
 40
8.0
100
AcDbArc
 50
120.0
 51
180.0
  0
ARC
  5
4A3
100
AcDbEntity
  8
RUNDUNGEN
100
AcDbCircle
 62
7
  6
CONTINUOUS
 10
289.7154153963
 20
174.5612956509
 40
5.0
100
AcDbArc
 50
0.0
 51
80.4059317731
  0
ARC
  5
4A4
100
AcDbEntity
  8
RUNDUNGEN
100
AcDbCircle
 62
7
  6
CONTINUOUS
 10
291.2154153963
 20
183.4354153255
 40
4.0
100
AcDbArc
 50
208.8975905116
 51
260.4059317731
  0
ARC
  5
4A5
100
AcDbEntity
  8
RUNDUNGEN
100
AcDbCircle
 62
7
  6
CONTINUOUS
 10
282.7154153963
 20
238.568337206
 40
34.0
100
AcDbArc
 50
300.0
 51
360.0
  0
ARC
  5
4A6
100
AcDbEntity
  8
_30_VOLUMEN
100
AcDbCircle
 62
7
  6
CONTINUOUS
 10
281.2154153963
 20
283.0612956509
 40
10.0
100
AcDbArc
 50
295.4675601425
 51
342.5423968763
  0
ARC
  5
4A7
100
AcDbEntity
  8
_30_VOLUMEN
100
AcDbCircle
 62
7
  6
CONTINUOUS
 10
276.7154153963
 20
235.3612956509
 40
8.8
100
AcDbArc
 50
180.0
 51
360.0
  0
ARC
  5
4A8
100
AcDbEntity
  8
RUNDUNGEN
100
AcDbCircle
 62
7
  6
CONTINUOUS
 10
314.2154153963
 20
277.5612956509
 40
2.5
100
AcDbArc
 50
0.0
 51
90.0
  0
ARC
  5
4A9
100
AcDbEntity
  8
_30_VOLUMEN
100
AcDbCircle
 62
7
  6
CONTINUOUS
 10
96.8284108232
 20
57.9237804878
 40
10.0
100
AcDbArc
 50
25.4675601425
 51
72.5423968763
  0
ARC
  5
4AA
100
AcDbEntity
  8
_30_VOLUMEN
100
AcDbCircle
 62
7
  6
CONTINUOUS
 10
96.8284108232
 20
48.9237804878
 40
10.0
100
AcDbArc
 50
287.4576031237
 51
334.5324398575
  0
ARC
  5
4AB
100
AcDbEntity
  8
_30_VOLUMEN
100
AcDbCircle
 62
7
  6
CONTINUOUS
 10
149.8284108232
 20
57.9237804878
 40
10.0
100
AcDbArc
 50
107.4576031237
 51
154.5324398575
  0
ARC
  5
4AC
100
AcDbEntity
  8
_30_VOLUMEN
100
AcDbCircle
 62
7
  6
CONTINUOUS
 10
149.8284108232
 20
48.9237804878
 40
10.0
100
AcDbArc
 50
205.4675601425
 51
252.5423968763
  0
ARC
  5
4AD
100
AcDbEntity
  8
RUNDUNGEN
100
AcDbCircle
 62
7
  6
CONTINUOUS
 10
154.8284108232
 20
34.9237904593
 40
7.9999924027
100
AcDbArc
 50
90.0
 51
179.4641774833
  0
ARC
  5
4AE
100
AcDbEntity
  8
BEZUGSACHSEN
100
AcDbCircle
 62
7
  6
CONTINUOUS
 10
154.8284108232
 20
71.9237705164
 40
7.9999924027
100
AcDbArc
 50
180.5244676139
 51
270.0
  0
ARC
  5
4AF
100
AcDbEntity
  8
RUNDUNGEN
100
AcDbCircle
 62
7
  6
CONTINUOUS
 10
91.8284212863
 20
34.9237804878
 40
7.9999920281
100
AcDbArc
 50
0.0
 51
90.0000749364
  0
ARC
  5
4B0
100
AcDbEntity
  8
BEZUGSACHSEN
100
AcDbCircle
 62
7
  6
CONTINUOUS
 10
91.8284212863
 20
71.9237804878
 40
7.9999920281
100
AcDbArc
 50
270.0
 51
360.0
  0
ARC
  5
4B1
100
AcDbEntity
  8
_30_VOLUMEN
100
AcDbCircle
 62
7
  6
CONTINUOUS
 10
170.3279250449
 20
45.4238382335
 40
2.5000577471
100
AcDbArc
 50
269.9980533572
 51
359.9986765965
  0
ARC
  5
4B2
100
AcDbEntity
  8
_30_VOLUMEN
100
AcDbCircle
 62
7
  6
CONTINUOUS
 10
170.3279250457
 20
61.4237227429
 40
2.5000577464
100
AcDbArc
 50
0.0013233855
 51
90.0019466608
  0
ARC
  5
4B3
100
AcDbEntity
  8
RUNDUNGEN
100
AcDbCircle
 62
7
  6
CONTINUOUS
 10
85.8284108232
 20
28.4237804878
 40
2.5
100
AcDbArc
 50
180.0
 51
270.0
  0
ARC
  5
4B4
100
AcDbEntity
  8
RUNDUNGEN
100
AcDbCircle
 62
7
  6
CONTINUOUS
 10
85.8284108232
 20
78.4237804878
 40
2.5
100
AcDbArc
 50
90.0
 51
180.0
  0
ARC
  5
4B5
100
AcDbEntity
  8
RUNDUNGEN
100
AcDbCircle
 62
7
  6
CONTINUOUS
 10
85.8284108232
 20
45.4237804878
 40
2.5
100
AcDbArc
 50
180.0
 51
270.0
  0
ARC
  5
4B6
100
AcDbEntity
  8
RUNDUNGEN
100
AcDbCircle
 62
7
  6
CONTINUOUS
 10
144.3284108232
 20
15.9237804878
 40
2.5
100
AcDbArc
 50
270.0
 51
360.0
  0
ARC
  5
4B7
100
AcDbEntity
  8
RUNDUNGEN
100
AcDbCircle
 62
7
  6
CONTINUOUS
 10
102.3284108232
 20
15.9237804878
 40
2.5
100
AcDbArc
 50
180.0
 51
270.0
  0
ARC
  5
4B8
100
AcDbEntity
  8
BEZUGSACHSEN
100
AcDbCircle
 62
7
  6
CONTINUOUS
 10
85.8284108232
 20
61.4237804878
 40
2.5
100
AcDbArc
 50
90.0
 51
180.0
  0
ARC
  5
4B9
100
AcDbEntity
  8
BEZUGSACHSEN
100
AcDbCircle
 62
7
  6
CONTINUOUS
 10
144.3284108232
 20
90.9237804878
 40
2.5
100
AcDbArc
 50
0.0
 51
90.0
  0
ARC
  5
4BA
100
AcDbEntity
  8
BEZUGSACHSEN
100
AcDbCircle
 62
7
  6
CONTINUOUS
 10
102.3284108232
 20
90.9237804878
 40
2.5
100
AcDbArc
 50
90.0
 51
180.0
  0
ARC
  5
4BB
100
AcDbEntity
  8
RUNDUNGEN
100
AcDbCircle
 62
7
  6
CONTINUOUS
 10
187.3284108232
 20
46.7240917951
 40
1.5
100
AcDbArc
 50
290.0
 51
360.0
  0
ARC
  5
4BC
100
AcDbEntity
  8
RUNDUNGEN
100
AcDbCircle
 62
7
  6
CONTINUOUS
 10
187.3284108232
 20
60.1234691805
 40
1.5
100
AcDbArc
 50
0.0
 51
70.0
  0
ARC
  5
4BD
100
AcDbEntity
  8
BEZUGSACHSEN
100
AcDbCircle
 62
7
  6
CONTINUOUS
 10
81.8284108232
 20
75.9237804878
 40
1.5
100
AcDbArc
 50
270.0
 51
360.0
  0
ARC
  5
4BE
100
AcDbEntity
  8
RUNDUNGEN
100
AcDbCircle
 62
7
  6
CONTINUOUS
 10
81.8284108232
 20
30.9237804878
 40
1.5
100
AcDbArc
 50
0.0
 51
90.0
  0
SPLINE
  5
4BF
100
AcDbEntity
  8
_30_VOLUMEN
100
AcDbSpline
 62
7
  6
CONTINUOUS
 70
0
 71
3
 72
15
 73
11
 74
0
 42
0.0000001
 43
0.0000001
 44
0.0000000001
 40
0.0
 40
0.0
 40
0.0
 40
0.0
 40
0.1249341365
 40
0.2498920696
 40
0.3748817021
 40
0.4998865707
 40
0.6249028178
 40
0.7499299537
 40
0.8749633377
 40
1.0
 40
1.0
 40
1.0
 40
1.0
 10
267.9154153963
 20
240.5627333461
 30
0.0
 10
267.398321641
 20
240.8853657552
 30
0.0
 10
266.4305005277
 20
241.6434587779
 30
0.0
 10
265.2328601091
 20
243.0388470677
 30
0.0
 10
264.2980269507
 20
244.6208396731
 30
0.0
 10
263.6137094951
 20
246.3237706746
 30
0.0
 10
263.1479477076
 20
248.0970820886
 30
0.0
 10
262.8595375265
 20
249.9062869637
 30
0.0
 10
262.7072920679
 20
251.731072822
 30
0.0
 10
262.6760233822
 20
252.9513058386
 30
0.0
 10
262.6760233822
 20
253.5612956509
 30
0.0
  0
SPLINE
  5
4C0
100
AcDbEntity
  8
_30_VOLUMEN
100
AcDbSpline
 62
7
  6
CONTINUOUS
 70
0
 71
3
 72
15
 73
11
 74
0
 42
0.0000001
 43
0.0000001
 44
0.0000000001
 40
0.0
 40
0.0
 40
0.0
 40
0.0
 40
0.1250367455
 40
0.2500702144
 40
0.3750974777
 40
0.5001136893
 40
0.6251183468
 40
0.7501078838
 40
0.8750658432
 40
1.0
 40
1.0
 40
1.0
 40
1.0
 10
290.7548074105
 20
253.5612956509
 30
0.0
 10
290.7548074105
 20
252.9513054336
 30
0.0
 10
290.7235385051
 20
251.7310716019
 30
0.0
 10
290.571292875
 20
249.9062843169
 30
0.0
 10
290.282882335
 20
248.0970786151
 30
0.0
 10
289.8171202258
 20
246.3237678901
 30
0.0
 10
289.1328032127
 20
244.6208385396
 30
0.0
 10
288.1979707407
 20
243.0388471316
 30
0.0
 10
287.0003304933
 20
241.6434590146
 30
0.0
 10
286.032509235
 20
240.8853658071
 30
0.0
 10
285.5154153963
 20
240.5627333461
 30
0.0
  0
SPLINE
  5
4C1
100
AcDbEntity
  8
0
100
AcDbSpline
 62
7
  6
CONTINUOUS
 70
0
 71
3
 72
17
 73
13
 74
0
 42
0.0000001
 43
0.0000001
 44
0.0000000001
 40
0.0
 40
0.0
 40
0.0
 40
0.0
 40
0.0064260648
 40
0.021415919
 40
0.0455638588
 40
0.0787851194
 40
0.171177046
 40
0.2952439613
 40
0.4463159809
 40
0.6185836263
 40
0.8056304339
 40
1.0
 40
1.0
 40
1.0
 40
1.0
 10
150.3584061453
 20
25.449046441
 30
0.0
 10
150.3584061453
 20
25.4501217489
 30
0.0
 10
150.3625852733
 20
25.4520732721
 30
0.0
 10
150.369190581
 20
25.45378099
 30
0.0
 10
150.3815323135
 20
25.4560369141
 30
0.0
 10
150.4061382811
 20
25.4592396598
 30
0.0
 10
150.4479402706
 20
25.4630201087
 30
0.0
 10
150.5092354033
 20
25.466946157
 30
0.0
 10
150.5840581579
 20
25.4703642432
 30
0.0
 10
150.6694155756
 20
25.473007513
 30
0.0
 10
150.7620568506
 20
25.4746767165
 30
0.0
 10
150.8258812437
 20
25.4750563436
 30
0.0
 10
150.8584061453
 20
25.4750563436
 30
0.0
  0
SPLINE
  5
4C2
100
AcDbEntity
  8
0
100
AcDbSpline
 62
7
  6
CONTINUOUS
 70
0
 71
3
 72
18
 73
14
 74
0
 42
0.0000001
 43
0.0000001
 44
0.0000000001
 40
0.0
 40
0.0
 40
0.0
 40
0.0
 40
0.2183337329
 40
0.4157461869
 40
0.5883627063
 40
0.733349413
 40
0.8485608314
 40
0.8944161702
 40
0.9322159512
 40
0.9618024631
 40
0.9830183223
 40
0.9957543697
 40
1.0
 40
1.0
 40
1.0
 40
1.0
 10
169.6800075021
 20
25.427235193
 30
0.0
 10
169.6971109825
 20
25.427065736
 30
0.0
 10
169.7296790232
 20
25.4267111234
 30
0.0
 10
169.7757666454
 20
25.4261230375
 30
0.0
 10
169.816112355
 20
25.4255448011
 30
0.0
 10
169.8500050503
 20
25.4249947007
 30
0.0
 10
169.8740008479
 20
25.4246022589
 30
0.0
 10
169.889541718
 20
25.4242845843
 30
0.0
 10
169.898487677
 20
25.4241889151
 30
0.0
 10
169.9052292005
 20
25.4238658372
 30
0.0
 10
169.9106565687
 20
25.4241888766
 30
0.0
 10
169.9128564215
 20
25.4233767712
 30
0.0
 10
169.9150061345
 20
25.4241162957
 30
0.0
 10
169.9150017751
 20
25.4237837205
 30
0.0
  0
SPLINE
  5
4C3
100
AcDbEntity
  8
0
100
AcDbSpline
 62
7
  6
CONTINUOUS
 70
0
 71
3
 72
11
 73
7
 74
0
 42
0.0000001
 43
0.0000001
 44
0.0000000001
 40
0.0
 40
0.0
 40
0.0
 40
0.0
 40
0.0677601165
 40
0.266742119
 40
0.5841982727
 40
1.0
 40
1.0
 40
1.0
 40
1.0
 10
169.9150043239
 20
25.9237807456
 30
0.0
 10
169.9202991057
 20
25.9234017061
 30
0.0
 10
169.8739070457
 20
25.9249191662
 30
0.0
 10
169.8521479854
 20
25.9246091691
 30
0.0
 10
169.7659053094
 20
25.9262643916
 30
0.0
 10
169.7125799226
 20
25.9267354072
 30
0.0
 10
169.6800075021
 20
25.9270493236
 30
0.0
  0
SPLINE
  5
4C4
100
AcDbEntity
  8
BEZUGSACHSEN
100
AcDbSpline
 62
7
  6
CONTINUOUS
 70
0
 71
3
 72
17
 73
13
 74
0
 42
0.0000001
 43
0.0000001
 44
0.0000000001
 40
0.0
 40
0.0
 40
0.0
 40
0.0
 40
0.1942793591
 40
0.3814545846
 40
0.5537443945
 40
0.7047692664
 40
0.8288711281
 40
0.9212657939
 40
0.9544844419
 40
0.9786106901
 40
0.9935971484
 40
1.0
 40
1.0
 40
1.0
 40
1.0
 10
150.8584061453
 20
80.8732289745
 30
0.0
 10
150.8258987015
 20
80.8732289745
 30
0.0
 10
150.7620726006
 20
80.8736086052
 30
0.0
 10
150.6694276658
 20
80.8752619643
 30
0.0
 10
150.5840587363
 20
80.8778858971
 30
0.0
 10
150.5092382751
 20
80.8812820412
 30
0.0
 10
150.4479486606
 20
80.8851727028
 30
0.0
 10
150.4061375819
 20
80.8889215007
 30
0.0
 10
150.3815386536
 20
80.8920983961
 30
0.0
 10
150.3691909353
 20
80.8943328045
 30
0.0
 10
150.3626061753
 20
80.896030553
 30
0.0
 10
150.3584061453
 20
80.8979505222
 30
0.0
 10
150.3584061453
 20
80.8990218678
 30
0.0
  0
SPLINE
  5
4C5
100
AcDbEntity
  8
BEZUGSACHSEN
100
AcDbSpline
 62
7
  6
CONTINUOUS
 70
0
 71
3
 72
13
 73
9
 74
0
 42
0.0000001
 43
0.0000001
 44
0.0000000001
 40
0.0
 40
0.0
 40
0.0
 40
0.0
 40
0.0340222334
 40
0.1038701335
 40
0.2102281277
 40
0.3472447275
 40
0.6757282283
 40
1.0
 40
1.0
 40
1.0
 40
1.0
 10
162.3584061453
 20
81.1149526862
 30
0.0
 10
162.3584061453
 20
81.1060977051
 30
0.0
 10
162.3853876126
 20
81.0869838279
 30
0.0
 10
162.434644623
 20
81.0727434373
 30
0.0
 10
162.5162466578
 20
81.0558355378
 30
0.0
 10
162.6633882484
 20
81.0389730693
 30
0.0
 10
162.8695610984
 20
81.0312077246
 30
0.0
 10
163.0394640851
 20
81.038709238
 30
0.0
 10
163.1234056153
 20
81.047478575
 30
0.0
  0
SPLINE
  5
4C6
100
AcDbEntity
  8
BEZUGSACHSEN
100
AcDbSpline
 62
7
  6
CONTINUOUS
 70
0
 71
3
 72
14
 73
10
 74
0
 42
0.0000001
 43
0.0000001
 44
0.0000000001
 40
0.0
 40
0.0
 40
0.0
 40
0.0
 40
0.0241583731
 40
0.0820760349
 40
0.1743349225
 40
0.297985556
 40
0.4484071672
 40
0.6200164898
 40
1.0
 40
1.0
 40
1.0
 40
1.0
 10
162.3584061453
 20
80.8382940811
 30
0.0
 10
162.3584061453
 20
80.8423543564
 30
0.0
 10
162.3413623436
 20
80.8488248601
 30
0.0
 10
162.316124208
 20
80.8538848043
 30
0.0
 10
162.2685517832
 20
80.8598636603
 30
0.0
 10
162.2079336
 20
80.8644761305
 30
0.0
 10
162.1328432676
 20
80.8683932905
 30
0.0
 10
162.0150319426
 20
80.8722108083
 30
0.0
 10
161.9222696209
 20
80.8732289745
 30
0.0
 10
161.8584061453
 20
80.8732289745
 30
0.0
  0
SPLINE
  5
4C7
100
AcDbEntity
  8
BEZUGSACHSEN
100
AcDbSpline
 62
7
  6
CONTINUOUS
 70
0
 71
3
 72
14
 73
10
 74
0
 42
0.0000001
 43
0.0000001
 44
0.0000000001
 40
0.0
 40
0.0
 40
0.0
 40
0.0
 40
0.3799377195
 40
0.5515211946
 40
0.7019867187
 40
0.8255999611
 40
0.9178558316
 40
0.9757994135
 40
1.0
 40
1.0
 40
1.0
 40
1.0
 10
161.8584061453
 20
81.372504632
 30
0.0
 10
161.9222681445
 20
81.372504632
 30
0.0
 10
162.0150270784
 20
81.3714800673
 30
0.0
 10
162.1328455833
 20
81.3676330983
 30
0.0
 10
162.2079359127
 20
81.3636936342
 30
0.0
 10
162.2685670892
 20
81.3590522945
 30
0.0
 10
162.3161157194
 20
81.3530170989
 30
0.0
 10
162.3414003061
 20
81.3479634421
 30
0.0
 10
162.3584061453
 20
81.3414197716
 30
0.0
 10
162.3584061453
 20
81.3373520053
 30
0.0
  0
SPLINE
  5
4C8
100
AcDbEntity
  8
BEZUGSACHSEN
100
AcDbSpline
 62
7
  6
CONTINUOUS
 70
0
 71
3
 72
13
 73
9
 74
0
 42
0.0000001
 43
0.0000001
 44
0.0000000001
 40
0.0
 40
0.0
 40
0.0
 40
0.0
 40
0.324323718
 40
0.6528335221
 40
0.7898524595
 40
0.8962014608
 40
0.9660287615
 40
1.0
 40
1.0
 40
1.0
 40
1.0
 10
163.1234056153
 20
80.5494628477
 30
0.0
 10
163.0394568507
 20
80.5407163892
 30
0.0
 10
162.8695527877
 20
80.5332339352
 30
0.0
 10
162.6633770798
 20
80.5409827189
 30
0.0
 10
162.5162474135
 20
80.5577976745
 30
0.0
 10
162.4346399238
 20
80.5746584979
 30
0.0
 10
162.3854208396
 20
80.5888517385
 30
0.0
 10
162.3584061453
 20
80.6079058915
 30
0.0
 10
162.3584061453
 20
80.616746689
 30
0.0
  0
SPLINE
  5
4C9
100
AcDbEntity
  8
BEZUGSACHSEN
100
AcDbSpline
 62
7
  6
CONTINUOUS
 70
0
 71
3
 72
17
 73
13
 74
0
 42
0.0000001
 43
0.0000001
 44
0.0000000001
 40
0.0
 40
0.0
 40
0.0
 40
0.0
 40
0.0064260648
 40
0.021415919
 40
0.0455638588
 40
0.0787851194
 40
0.171177046
 40
0.2952439613
 40
0.4463159809
 40
0.6185836263
 40
0.8056304339
 40
1.0
 40
1.0
 40
1.0
 40
1.0
 10
150.3584061453
 20
81.3985145346
 30
0.0
 10
150.3584061453
 20
81.3974392267
 30
0.0
 10
150.3625852733
 20
81.3954877035
 30
0.0
 10
150.369190581
 20
81.3937799856
 30
0.0
 10
150.3815323135
 20
81.3915240615
 30
0.0
 10
150.4061382811
 20
81.3883213158
 30
0.0
 10
150.4479402706
 20
81.3845408669
 30
0.0
 10
150.5092354033
 20
81.3806148186
 30
0.0
 10
150.5840581579
 20
81.3771967324
 30
0.0
 10
150.6694155756
 20
81.3745534626
 30
0.0
 10
150.7620568506
 20
81.3728842591
 30
0.0
 10
150.8258812437
 20
81.372504632
 30
0.0
 10
150.8584061453
 20
81.372504632
 30
0.0
  0
SPLINE
  5
4CA
100
AcDbEntity
  8
0
100
AcDbSpline
 62
7
  6
CONTINUOUS
 70
0
 71
3
 72
13
 73
9
 74
0
 42
0.0000001
 43
0.0000001
 44
0.0000000001
 40
0.0
 40
0.0
 40
0.0
 40
0.0
 40
0.324323718
 40
0.6528335221
 40
0.7898524595
 40
0.8962014608
 40
0.9660287615
 40
1.0
 40
1.0
 40
1.0
 40
1.0
 10
163.1234056153
 20
26.2980981279
 30
0.0
 10
163.0394568507
 20
26.3068445864
 30
0.0
 10
162.8695527877
 20
26.3143270404
 30
0.0
 10
162.6633770798
 20
26.3065782567
 30
0.0
 10
162.5162474135
 20
26.2897633011
 30
0.0
 10
162.4346399238
 20
26.2729024777
 30
0.0
 10
162.3854208396
 20
26.2587092372
 30
0.0
 10
162.3584061453
 20
26.2396550841
 30
0.0
 10
162.3584061453
 20
26.2308142866
 30
0.0
  0
SPLINE
  5
4CB
100
AcDbEntity
  8
BEZUGSACHSEN
100
AcDbSpline
 62
7
  6
CONTINUOUS
 70
0
 71
3
 72
18
 73
14
 74
0
 42
0.0000001
 43
0.0000001
 44
0.0000000001
 40
0.0
 40
0.0
 40
0.0
 40
0.0
 40
0.2183337329
 40
0.4157461869
 40
0.5883627063
 40
0.733349413
 40
0.8485608314
 40
0.8944161702
 40
0.9322159512
 40
0.9618024631
 40
0.9830183223
 40
0.9957543697
 40
1.0
 40
1.0
 40
1.0
 40
1.0
 10
169.6800075021
 20
81.4203257826
 30
0.0
 10
169.6971109825
 20
81.4204952396
 30
0.0
 10
169.7296790232
 20
81.4208498522
 30
0.0
 10
169.7757666454
 20
81.4214379381
 30
0.0
 10
169.816112355
 20
81.4220161745
 30
0.0
 10
169.8500050503
 20
81.4225662749
 30
0.0
 10
169.8740008479
 20
81.4229587167
 30
0.0
 10
169.889541718
 20
81.4232763913
 30
0.0
 10
169.898487677
 20
81.4233720605
 30
0.0
 10
169.9052292005
 20
81.4236951384
 30
0.0
 10
169.9106565687
 20
81.423372099
 30
0.0
 10
169.9128564215
 20
81.4241842044
 30
0.0
 10
169.9150061345
 20
81.4234446799
 30
0.0
 10
169.9150017751
 20
81.4237772551
 30
0.0
  0
SPLINE
  5
4CC
100
AcDbEntity
  8
BEZUGSACHSEN
100
AcDbSpline
 62
7
  6
CONTINUOUS
 70
0
 71
3
 72
11
 73
7
 74
0
 42
0.0000001
 43
0.0000001
 44
0.0000000001
 40
0.0
 40
0.0
 40
0.0
 40
0.0
 40
0.0677601165
 40
0.266742119
 40
0.5841982727
 40
1.0
 40
1.0
 40
1.0
 40
1.0
 10
169.9150043239
 20
80.92378023
 30
0.0
 10
169.9202991054
 20
80.9241592743
 30
0.0
 10
169.8739070461
 20
80.9226418027
 30
0.0
 10
169.8521479851
 20
80.9229518106
 30
0.0
 10
169.7659053095
 20
80.9212965821
 30
0.0
 10
169.7125799226
 20
80.9208255684
 30
0.0
 10
169.6800075021
 20
80.9205116521
 30
0.0
  0
SPLINE
  5
4CD
100
AcDbEntity
  8
0
100
AcDbSpline
 62
7
  6
CONTINUOUS
 70
0
 71
3
 72
14
 73
10
 74
0
 42
0.0000001
 43
0.0000001
 44
0.0000000001
 40
0.0
 40
0.0
 40
0.0
 40
0.0
 40
0.0241583731
 40
0.0820760349
 40
0.1743349225
 40
0.297985556
 40
0.4484071672
 40
0.6200164898
 40
1.0
 40
1.0
 40
1.0
 40
1.0
 10
162.3584061453
 20
26.0092668945
 30
0.0
 10
162.3584061453
 20
26.0052066192
 30
0.0
 10
162.3413623436
 20
25.9987361155
 30
0.0
 10
162.316124208
 20
25.9936761713
 30
0.0
 10
162.2685517832
 20
25.9876973153
 30
0.0
 10
162.2079336
 20
25.9830848452
 30
0.0
 10
162.1328432676
 20
25.9791676851
 30
0.0
 10
162.0150319426
 20
25.9753501673
 30
0.0
 10
161.9222696209
 20
25.9743320011
 30
0.0
 10
161.8584061453
 20
25.9743320011
 30
0.0
  0
SPLINE
  5
4CE
100
AcDbEntity
  8
0
100
AcDbSpline
 62
7
  6
CONTINUOUS
 70
0
 71
3
 72
17
 73
13
 74
0
 42
0.0000001
 43
0.0000001
 44
0.0000000001
 40
0.0
 40
0.0
 40
0.0
 40
0.0
 40
0.1942793591
 40
0.3814545846
 40
0.5537443945
 40
0.7047692664
 40
0.8288711281
 40
0.9212657939
 40
0.9544844419
 40
0.9786106901
 40
0.9935971484
 40
1.0
 40
1.0
 40
1.0
 40
1.0
 10
150.8584061453
 20
25.9743320011
 30
0.0
 10
150.8258987015
 20
25.9743320011
 30
0.0
 10
150.7620726006
 20
25.9739523704
 30
0.0
 10
150.6694276658
 20
25.9722990113
 30
0.0
 10
150.5840587363
 20
25.9696750785
 30
0.0
 10
150.5092382751
 20
25.9662789344
 30
0.0
 10
150.4479486606
 20
25.9623882728
 30
0.0
 10
150.4061375819
 20
25.9586394749
 30
0.0
 10
150.3815386536
 20
25.9554625795
 30
0.0
 10
150.3691909353
 20
25.9532281711
 30
0.0
 10
150.3626061753
 20
25.9515304226
 30
0.0
 10
150.3584061453
 20
25.9496104534
 30
0.0
 10
150.3584061453
 20
25.9485391078
 30
0.0
  0
SPLINE
  5
4CF
100
AcDbEntity
  8
0
100
AcDbSpline
 62
7
  6
CONTINUOUS
 70
0
 71
3
 72
13
 73
9
 74
0
 42
0.0000001
 43
0.0000001
 44
0.0000000001
 40
0.0
 40
0.0
 40
0.0
 40
0.0
 40
0.0340222334
 40
0.1038701335
 40
0.2102281277
 40
0.3472447275
 40
0.6757282283
 40
1.0
 40
1.0
 40
1.0
 40
1.0
 10
162.3584061453
 20
25.7326082894
 30
0.0
 10
162.3584061453
 20
25.7414632705
 30
0.0
 10
162.3853876126
 20
25.7605771477
 30
0.0
 10
162.434644623
 20
25.7748175383
 30
0.0
 10
162.5162466578
 20
25.7917254379
 30
0.0
 10
162.6633882484
 20
25.8085879063
 30
0.0
 10
162.8695610984
 20
25.816353251
 30
0.0
 10
163.0394640851
 20
25.8088517376
 30
0.0
 10
163.1234056153
 20
25.8000824006
 30
0.0
  0
SPLINE
  5
4D0
100
AcDbEntity
  8
0
100
AcDbSpline
 62
7
  6
CONTINUOUS
 70
0
 71
3
 72
14
 73
10
 74
0
 42
0.0000001
 43
0.0000001
 44
0.0000000001
 40
0.0
 40
0.0
 40
0.0
 40
0.0
 40
0.3799377195
 40
0.5515211946
 40
0.7019867187
 40
0.8255999611
 40
0.9178558316
 40
0.9757994135
 40
1.0
 40
1.0
 40
1.0
 40
1.0
 10
161.8584061453
 20
25.4750563436
 30
0.0
 10
161.9222681445
 20
25.4750563436
 30
0.0
 10
162.0150270784
 20
25.4760809083
 30
0.0
 10
162.1328455833
 20
25.4799278773
 30
0.0
 10
162.2079359127
 20
25.4838673414
 30
0.0
 10
162.2685670892
 20
25.4885086811
 30
0.0
 10
162.3161157194
 20
25.4945438767
 30
0.0
 10
162.3414003061
 20
25.4995975335
 30
0.0
 10
162.3584061453
 20
25.5061412041
 30
0.0
 10
162.3584061453
 20
25.5102089703
 30
0.0
  0
ELLIPSE
  5
4D1
100
AcDbEntity
  8
BEZUGSACHSEN
100
AcDbEllipse
 62
7
  6
CONTINUOUS
 10
170.3584061453
 20
53.4237804878
 30
0.0
 11
44.0
 21
-0.0
 31
0.0
 40
0.625
 41
1.5862150887
 42
1.7359783003
  0
ELLIPSE
  5
4D2
100
AcDbEntity
  8
BEZUGSACHSEN
100
AcDbEllipse
 62
7
  6
CONTINUOUS
 10
170.377425557
 20
53.9237804878
 30
0.0
 11
44.0
 21
0.0
 31
0.0
 40
0.625
 41
1.5866474009
 42
1.7364165405
  0
ELLIPSE
  5
4D3
100
AcDbEntity
  8
0
100
AcDbEllipse
 62
7
  6
CONTINUOUS
 10
170.3584061453
 20
53.4237804878
 30
0.0
 11
44.0
 21
-0.0
 31
0.0
 40
0.625
 41
-1.7359783003
 42
-1.5862150887
  0
ELLIPSE
  5
4D4
100
AcDbEntity
  8
0
100
AcDbEllipse
 62
7
  6
CONTINUOUS
 10
170.377425557
 20
52.9237804878
 30
0.0
 11
44.0
 21
-0.0
 31
0.0
 40
0.625
 41
-1.7364165405
 42
-1.5866474009
  0
ENDSEC
  0
SECTION
  2
OBJECTS
  0
DICTIONARY
  5
C
100
AcDbDictionary
280
0
281
1
  3
ACAD_GROUP
350
D
  3
ACAD_MLINESTYLE
350
17
  3
ACAD_LAYOUT
350
1A
  3
ACAD_PLOTSETTINGS
350
19
  3
ACAD_PLOTSTYLENAME
350
E
  0
DICTIONARY
  5
D
102
{ACAD_REACTORS
330
C
102
}
100
AcDbDictionary
280
0
281
1
  0
ACDBDICTIONARYWDFLT
  5
E
102
{ACAD_REACTORS
330
C
102
}
100
AcDbDictionary
281
1
  3
Normal
350
F
100
AcDbDictionaryWithDefault
340
F
  0
DICTIONARY
  5
17
102
{ACAD_REACTORS
330
C
102
}
100
AcDbDictionary
280
0
281
1
  3
Standard
350
18
  0
DICTIONARY
  5
19
102
{ACAD_REACTORS
330
C
102
}
100
AcDbDictionary
281
1
  0
DICTIONARY
  5
1A
102
{ACAD_REACTORS
330
C
102
}
100
AcDbDictionary
281
1
  3
Model
350
4D5
  3
Layout1
350
4D6
  0
ACDBPLACEHOLDER
  5
F
102
{ACAD_REACTORS
330
E
102
}
  0
MLINESTYLE
  5
18
102
{ACAD_REACTORS
330
17
102
}
100
AcDbMlineStyle
  2
STANDARD
 70
0
  3

 62
256
 51
90.0
 52
90.0
 71
2
 49
0.5
 62
256
  6
BYLAYER
 49
-0.5
 62
256
  6
BYLAYER
  0
LAYOUT
  5
4D5
102
{ACAD_REACTORS
330
1A
102
}
100
AcDbPlotSettings
  1

  2
none_device
  4
ISO_A3_(420.00_x_297.00_MM)
  6

 40
0.0
 41
0.0
 42
0.0
 43
0.0
 44
420.0
 45
297.0
 46
0.0
 47
0.0
 48
0.0
 49
0.0
140
0.0
141
0.0
142
1.0
143
1.0
 70
1024
 72
1
 73
0
 74
0
  7

 75
0
147
1.0
148
0.0
149
0.0
100
AcDbLayout
  1
Model
 70
0
 71
0
 10
0.0
 20
0.0
 11
420.0
 21
297.0
 12
0.0
 22
0.0
 32
0.0
 14
0.0
 24
0.0
 34
0.0
 15
0.0
 25
0.0
 35
0.0
146
0.0
 13
0.0
 23
0.0
 33
0.0
 16
1.0
 26
0.0
 36
0.0
 17
0.0
 27
1.0
 37
0.0
 76
0
330
217
345
0
346
0
  0
LAYOUT
  5
4D6
102
{ACAD_REACTORS
330
1A
102
}
100
AcDbPlotSettings
  1

  2
none_device
  4
ISO_A3_(420.00_x_297.00_MM)
  6

 40
0.0
 41
0.0
 42
0.0
 43
0.0
 44
420.0
 45
297.0
 46
0.0
 47
0.0
 48
0.0
 49
0.0
140
0.0
141
0.0
142
1.0
143
1.0
 70
0
 72
1
 73
0
 74
0
  7

 75
0
147
1.0
148
0.0
149
0.0
100
AcDbLayout
  1
Layout1
 70
0
 71
1
 10
0.0
 20
0.0
 11
420.0
 21
297.0
 12
0.0
 22
0.0
 32
0.0
 14
0.0
 24
0.0
 34
0.0
 15
0.0
 25
0.0
 35
0.0
146
0.0
 13
0.0
 23
0.0
 33
0.0
 16
1.0
 26
0.0
 36
0.0
 17
0.0
 27
1.0
 37
0.0
 76
0
330
218
345
0
346
0
  0
ENDSEC
  0
EOF
