999
DXF file: ICE-CCS-13_7912246_m36168-p-01.dxf
999
Pro/ENGINEER 2022162 by Parametric Technology Corporation
  0
SECTION
  2
HEADER
  9
$ACADVER
  1
AC1021
  9
$DWGCODEPAGE
  3
ANSI_1252
  9
$EXTMAX
 10
420.0
 20
297.0
 30
0.0
  9
$EXTMIN
 10
0.0
 20
0.0
 30
0.0
  9
$LIMMIN
 10
0.0
 20
0.0
  9
$LIMMAX
 10
420.0
 20
297.0
  9
$VIEWCTR
 10
210.0
 20
148.5
  9
$VIEWSIZE
 40
297.0
  9
$CLAYER
  8
0
  9
$LTSCALE
 40
23.1
  9
$CELTYPE
  6
BYLAYER
  9
$DIMSCALE
 40
1.0
  9
$DIMASZ
 40
3.5
  9
$DIMEXO
 40
0.0
  9
$DIMDLI
 40
15.96
  9
$DIMEXE
 40
1.5
  9
$DIMCEN
 40
3.78
  9
$DIMLFAC
 40
1.0
  9
$DIMBLK
  1
_FILLED
  9
$DIMALT
 70
0
  9
$DIMALTF
 40
0.0393700787
  9
$DIMTXT
 40
3.5
  9
$DIMTOL
 70
1
  9
$DIMLIM
 70
0
  9
$DIMTFAC
 40
1.0
  9
$DIMTP
 40
0.01
  9
$DIMTM
 40
0.01
  9
$DIMGAP
 40
0.625
  9
$DIMDSEP
 70
46
  9
$AUNITS
 70
0
  9
$PDMODE
 70
3
  9
$PDSIZE
 40
0.3125
  9
$HANDSEED
  5
503
  9
$TILEMODE
 70
1
  9
$MEASUREMENT
 70
1
  9
$INSUNITS
 70
4
  0
ENDSEC
  0
SECTION
  2
CLASSES
  0
CLASS
  1
ACDBDICTIONARYWDFLT
  2
AcDbDictionaryWithDefault
  3
AutoCAD 2000
 90
0
 91
1
280
0
281
0
  0
CLASS
  1
ACDBPLACEHOLDER
  2
AcDbPlaceHolder
  3
AutoCAD 2000
 90
0
 91
1
280
0
281
0
  0
CLASS
  1
LAYOUT
  2
AcDbLayout
  3
AutoCAD 2000
 90
0
 91
0
280
0
281
0
  0
ENDSEC
  0
SECTION
  2
TABLES
  0
TABLE
  2
VPORT
  5
8
100
AcDbSymbolTable
 70
2
  0
VPORT
  5
1F4
100
AcDbSymbolTableRecord
100
AcDbViewportTableRecord
  2
*ACTIVE
 70
0
 10
0.0
 20
0.0
 11
1.0
 21
1.0
 12
210.0
 22
148.5
 13
0.0
 23
0.0
 14
1.0
 24
1.0
 15
0.0
 25
0.0
 16
0.0
 26
0.0
 36
1.0
 17
0.0
 27
0.0
 37
0.0
 40
297.0
 41
1.4141414141
 42
50.0
 43
0.0
 44
0.0
 50
0.0
 51
0.0
 71
0
 72
100
 73
1
 74
1
 75
0
 76
0
 77
0
 78
0
  0
ENDTAB
  0
TABLE
  2
LTYPE
  5
5
100
AcDbSymbolTable
 70
6
  0
LTYPE
  5
14
100
AcDbSymbolTableRecord
100
AcDbLinetypeTableRecord
  2
BYBLOCK
 70
0
  3

 72
65
 73
0
 40
0.0
  0
LTYPE
  5
15
100
AcDbSymbolTableRecord
100
AcDbLinetypeTableRecord
  2
BYLAYER
 70
0
  3

 72
65
 73
0
 40
0.0
  0
LTYPE
  5
16
100
AcDbSymbolTableRecord
100
AcDbLinetypeTableRecord
  2
CONTINUOUS
 70
64
  3
Solid line
 72
65
 73
0
 40
0.0
  0
LTYPE
  5
1F5
100
AcDbSymbolTableRecord
100
AcDbLinetypeTableRecord
  2
CENTER
 70
64
  3
____ _ ____ _ ____ _ ____ _ ____ _ ____ _ ____
 72
65
 73
4
 40
0.6
 49
0.375
 74
0
 49
-0.075
 74
0
 49
0.075
 74
0
 49
-0.075
 74
0
  0
LTYPE
  5
1F6
100
AcDbSymbolTableRecord
100
AcDbLinetypeTableRecord
  2
HIDDEN
 70
64
  3
- - - - - - - - - - - - - - - - - - - -
 72
65
 73
2
 40
0.2
 49
0.1
 74
0
 49
-0.1
 74
0
  0
LTYPE
  5
1F7
100
AcDbSymbolTableRecord
100
AcDbLinetypeTableRecord
  2
PHANTOM
 70
64
  3
_____ _ _ _____ _ _ _____ _ _ _____
 72
65
 73
6
 40
0.8
 49
0.45
 74
0
 49
-0.05
 74
0
 49
0.1
 74
0
 49
-0.05
 74
0
 49
0.1
 74
0
 49
-0.05
 74
0
  0
LTYPE
  5
1F8
100
AcDbSymbolTableRecord
100
AcDbLinetypeTableRecord
  2
DOT
 70
64
  3
. . . . . . . . . . . . . . . . . . . .
 72
65
 73
2
 40
0.2
 49
0.1
 74
0
 49
-0.1
 74
0
  0
LTYPE
  5
1F9
100
AcDbSymbolTableRecord
100
AcDbLinetypeTableRecord
  2
DASHED
 70
64
  3
- - - - - - - - - - - - - - - - - - - -
 72
65
 73
2
 40
0.2
 49
0.1
 74
0
 49
-0.1
 74
0
  0
ENDTAB
  0
TABLE
  2
LAYER
  5
2
100
AcDbSymbolTable
 70
36
  0
LAYER
  5
10
100
AcDbSymbolTableRecord
100
AcDbLayerTableRecord
  2
0
 70
0
 62
7
  6
CONTINUOUS
370
-3
390
F
  0
LAYER
  5
1FA
100
AcDbSymbolTableRecord
100
AcDbLayerTableRecord
  2
DEFAULT_1
 70
0
 62
7
  6
CENTER
370
-3
390
F
  0
LAYER
  5
1FB
100
AcDbSymbolTableRecord
100
AcDbLayerTableRecord
  2
DEFAULT_2
 70
0
 62
8
  6
HIDDEN
370
-3
390
F
  0
LAYER
  5
1FC
100
AcDbSymbolTableRecord
100
AcDbLayerTableRecord
  2
DEFAULT_3
 70
0
 62
7
  6
PHANTOM
370
-3
390
F
  0
LAYER
  5
1FD
100
AcDbSymbolTableRecord
100
AcDbLayerTableRecord
  2
AUSFORMSCHRAEGEN
 70
0
 62
7
  6
CONTINUOUS
370
-3
390
F
  0
LAYER
  5
1FE
100
AcDbSymbolTableRecord
100
AcDbLayerTableRecord
  2
BEZUGSACHSEN
 70
0
 62
7
  6
CONTINUOUS
370
-3
390
F
  0
LAYER
  5
1FF
100
AcDbSymbolTableRecord
100
AcDbLayerTableRecord
  2
BEZUGSEBENEN
 70
0
 62
7
  6
CONTINUOUS
370
-3
390
F
  0
LAYER
  5
200
100
AcDbSymbolTableRecord
100
AcDbLayerTableRecord
  2
BOHRUNGEN
 70
0
 62
7
  6
CONTINUOUS
370
-3
390
F
  0
LAYER
  5
201
100
AcDbSymbolTableRecord
100
AcDbLayerTableRecord
  2
FASEN
 70
0
 62
7
  6
CONTINUOUS
370
-3
390
F
  0
LAYER
  5
202
100
AcDbSymbolTableRecord
100
AcDbLayerTableRecord
  2
GEWINDE
 70
0
 62
7
  6
CONTINUOUS
370
-3
390
F
  0
LAYER
  5
203
100
AcDbSymbolTableRecord
100
AcDbLayerTableRecord
  2
HILFEN
 70
0
 62
7
  6
CONTINUOUS
370
-3
390
F
  0
LAYER
  5
204
100
AcDbSymbolTableRecord
100
AcDbLayerTableRecord
  2
KONSTRUKTIONSELEMENTE
 70
0
 62
7
  6
CONTINUOUS
370
-3
390
F
  0
LAYER
  5
205
100
AcDbSymbolTableRecord
100
AcDbLayerTableRecord
  2
KURVEN
 70
0
 62
7
  6
CONTINUOUS
370
-3
390
F
  0
LAYER
  5
206
100
AcDbSymbolTableRecord
100
AcDbLayerTableRecord
  2
PLATZIERUNG
 70
0
 62
7
  6
CONTINUOUS
370
-3
390
F
  0
LAYER
  5
207
100
AcDbSymbolTableRecord
100
AcDbLayerTableRecord
  2
PLAZIERUNG
 70
0
 62
7
  6
CONTINUOUS
370
-3
390
F
  0
LAYER
  5
208
100
AcDbSymbolTableRecord
100
AcDbLayerTableRecord
  2
RUNDUNGEN
 70
0
 62
7
  6
CONTINUOUS
370
-3
390
F
  0
LAYER
  5
209
100
AcDbSymbolTableRecord
100
AcDbLayerTableRecord
  2
TEIL_STARTBEZUEGE
 70
0
 62
7
  6
CONTINUOUS
370
-3
390
F
  0
LAYER
  5
20A
100
AcDbSymbolTableRecord
100
AcDbLayerTableRecord
  2
T_STARTBEZUEGE
 70
0
 62
7
  6
CONTINUOUS
370
-3
390
F
  0
LAYER
  5
20B
100
AcDbSymbolTableRecord
100
AcDbLayerTableRecord
  2
_00_ASM_START_FEATURES
 70
0
 62
7
  6
CONTINUOUS
370
-3
390
F
  0
LAYER
  5
20C
100
AcDbSymbolTableRecord
100
AcDbLayerTableRecord
  2
_00_HILFEN
 70
0
 62
7
  6
CONTINUOUS
370
-3
390
F
  0
LAYER
  5
20D
100
AcDbSymbolTableRecord
100
AcDbLayerTableRecord
  2
_00_PLATZIERUNG
 70
0
 62
7
  6
CONTINUOUS
370
-3
390
F
  0
LAYER
  5
20E
100
AcDbSymbolTableRecord
100
AcDbLayerTableRecord
  2
_03_2D_ZEICHNUNG_BEMASSUNGEN
 70
0
 62
7
  6
CONTINUOUS
370
-3
390
F
  0
LAYER
  5
20F
100
AcDbSymbolTableRecord
100
AcDbLayerTableRecord
  2
_04_NOTIZEN
 70
0
 62
7
  6
CONTINUOUS
370
-3
390
F
  0
LAYER
  5
210
100
AcDbSymbolTableRecord
100
AcDbLayerTableRecord
  2
_21_KURVEN
 70
0
 62
7
  6
CONTINUOUS
370
-3
390
F
  0
LAYER
  5
211
100
AcDbSymbolTableRecord
100
AcDbLayerTableRecord
  2
_26_BEZUGSACHSEN
 70
0
 62
7
  6
CONTINUOUS
370
-3
390
F
  0
LAYER
  5
212
100
AcDbSymbolTableRecord
100
AcDbLayerTableRecord
  2
_27_BEZUGSEBENEN
 70
0
 62
7
  6
CONTINUOUS
370
-3
390
F
  0
LAYER
  5
213
100
AcDbSymbolTableRecord
100
AcDbLayerTableRecord
  2
_29_KOORDINATENSYSTEME
 70
0
 62
7
  6
CONTINUOUS
370
-3
390
F
  0
LAYER
  5
214
100
AcDbSymbolTableRecord
100
AcDbLayerTableRecord
  2
_30_VOLUMEN
 70
0
 62
7
  6
CONTINUOUS
370
-3
390
F
  0
ENDTAB
  0
TABLE
  2
STYLE
  5
3
100
AcDbSymbolTable
 70
1
  0
STYLE
  5
11
100
AcDbSymbolTableRecord
100
AcDbTextStyleTableRecord
  2
STANDARD
 70
0
 40
0.0
 41
1.0
 50
0.0
 71
0
 42
0.2
  3
isonormlt-regular.ttf
  4

1001
ACAD
1000
Isonorm LT Regular
1071
34
  0
STYLE
  5
215
100
AcDbSymbolTableRecord
100
AcDbTextStyleTableRecord
  2
TEXTSTYLE_1
 70
0
 40
0.0
 41
0.8
 50
0.0
 71
0
 42
0.2
  3
gdt
  4

  0
ENDTAB
  0
TABLE
  2
VIEW
  5
6
100
AcDbSymbolTable
 70
0
  0
ENDTAB
  0
TABLE
  2
UCS
  5
7
100
AcDbSymbolTable
 70
0
  0
ENDTAB
  0
TABLE
  2
APPID
  5
9
100
AcDbSymbolTable
 70
1
  0
APPID
  5
216
100
AcDbSymbolTableRecord
100
AcDbRegAppTableRecord
  2
ACAD
 70
0
  0
ENDTAB
  0
TABLE
  2
BLOCK_RECORD
  5
1
100
AcDbSymbolTable
 70
0
  0
BLOCK_RECORD
  5
217
100
AcDbSymbolTableRecord
100
AcDbBlockTableRecord
  2
*Model_Space
  0
BLOCK_RECORD
  5
218
100
AcDbSymbolTableRecord
100
AcDbBlockTableRecord
  2
*Paper_Space
  0
BLOCK_RECORD
  5
219
100
AcDbSymbolTableRecord
100
AcDbBlockTableRecord
  2
_FILLED
  0
ENDTAB
  0
TABLE
  2
DIMSTYLE
  5
A
100
AcDbSymbolTable
 70
1
100
AcDbDimStyleTable
 71
0
  0
DIMSTYLE
105
21A
100
AcDbSymbolTableRecord
100
AcDbDimStyleTableRecord
  2
STANDARD
 70
0
  3

  4

 40
1.0
 41
3.5
 42
0.0
 43
0.38
 44
1.5
 45
0.0
 46
0.0
 47
0.01
 48
0.01
140
3.5
141
0.09
142
0.0
143
25.4
144
1.0
145
0.0
146
1.0
147
0.625
 71
1
 72
0
 73
0
 74
0
 75
0
 76
0
 77
1
 78
8
 79
2
170
0
171
1
172
0
173
0
174
0
175
0
176
0
177
0
178
5
270
2
179
2
271
2
272
2
273
2
274
2
275
0
280
0
281
0
282
0
283
1
284
8
285
0
286
0
287
3
288
0
340
11
278
46
341
219
342
219
343
219
344
219
  0
ENDTAB
  0
ENDSEC
  0
SECTION
  2
BLOCKS
  0
BLOCK
  5
20
100
AcDbEntity
  8
0
100
AcDbBlockBegin
  2
*Model_Space
 70
0
 10
0.0
 20
0.0
 30
0.0
  3
*Model_Space
  1

  0
ENDBLK
  5
21
100
AcDbEntity
  8
0
100
AcDbBlockEnd
  0
BLOCK
  5
1C
100
AcDbEntity
  8
0
100
AcDbBlockBegin
  2
*Paper_Space
 70
0
 10
0.0
 20
0.0
 30
0.0
  3
*Paper_Space
  1

  0
ENDBLK
  5
1D
100
AcDbEntity
  8
0
100
AcDbBlockEnd
  0
BLOCK
  5
21B
100
AcDbEntity
  8
0
100
AcDbBlockBegin
  2
_FILLED
 70
64
 10
0.0
 20
0.0
  3
_FILLED
  1

  0
SOLID
  5
21C
100
AcDbEntity
  8
0
  6
BYBLOCK
 62
0
100
AcDbTrace
 10
0.0
 20
0.0
 11
-1.0
 21
0.125
 12
-1.0
 22
-0.125
 13
-1.0
 23
-0.125
  0
ENDBLK
  5
21D
100
AcDbEntity
  8
0
  6
BYBLOCK
 62
0
100
AcDbBlockEnd
  0
ENDSEC
  0
SECTION
  2
ENTITIES
  0
MTEXT
  5
21E
100
AcDbEntity
  8
_04_NOTIZEN
100
AcDbMText
 62
5
  6
CONTINUOUS
  7
STANDARD
 71
1
 72
1
 10
101.9452511031
 20
168.211676831
 30
0.0
 11
0.0
 21
1.0
 31
0.0
 73
2
 44
0.9
  1
RUD
 40
5.0
 41
12.48
  0
MTEXT
  5
21F
100
AcDbEntity
  8
_04_NOTIZEN
100
AcDbMText
 62
5
  6
CONTINUOUS
  7
STANDARD
 71
1
 72
1
 10
155.1082100828
 20
172.2492286349
 30
0.0
 11
1.0
 21
0.0
 31
0.0
 73
2
 44
0.9
  1
ICE
 40
5.0
 41
8.38
  0
MTEXT
  5
220
100
AcDbEntity
  8
_04_NOTIZEN
100
AcDbMText
 62
5
  6
CONTINUOUS
  7
STANDARD
 71
1
 72
1
 10
255.9366111787
 20
183.3131584979
 30
0.0
 11
0.0
 21
1.0
 31
0.0
 73
2
 44
0.9
  1
ICE CCS
 40
5.0
 41
19.58
  0
MTEXT
  5
221
100
AcDbEntity
  8
_04_NOTIZEN
100
AcDbMText
 62
5
  6
CONTINUOUS
  7
STANDARD
 71
1
 72
1
 10
102.3694602198
 20
65.8368586006
 30
0.0
 11
1.0
 21
0.0
 31
0.0
 73
2
 44
0.9
  1
RUD ICE CCS 13
 40
6.0
 41
49.992
  0
LINE
  5
222
100
AcDbEntity
  8
0
100
AcDbLine
 62
7
  6
CONTINUOUS
 10
0.0
 20
0.0
 11
0.0
 21
297.0
  0
LINE
  5
223
100
AcDbEntity
  8
0
100
AcDbLine
 62
7
  6
CONTINUOUS
 10
0.0
 20
0.0
 11
420.0
 21
0.0
  0
LINE
  5
224
100
AcDbEntity
  8
0
100
AcDbLine
 62
7
  6
CONTINUOUS
 10
0.0
 20
297.0
 11
420.0
 21
297.0
  0
LINE
  5
225
100
AcDbEntity
  8
0
100
AcDbLine
 62
7
  6
CONTINUOUS
 10
420.0
 20
0.0
 11
420.0
 21
297.0
  0
LINE
  5
226
100
AcDbEntity
  8
FASEN
100
AcDbLine
 62
7
  6
CONTINUOUS
 10
81.727604947
 20
141.8237768845
 11
82.227604947
 21
141.3237768845
  0
LINE
  5
227
100
AcDbEntity
  8
0
100
AcDbLine
 62
7
  6
CONTINUOUS
 10
173.2276049475
 20
134.573776884
 11
149.2276049475
 21
134.573776884
  0
LINE
  5
228
100
AcDbEntity
  8
0
100
AcDbLine
 62
7
  6
CONTINUOUS
 10
110.2276049475
 20
134.573776884
 11
98.2276049475
 21
134.573776884
  0
LINE
  5
229
100
AcDbEntity
  8
FASEN
100
AcDbLine
 62
7
  6
CONTINUOUS
 10
93.2276049475
 20
141.323776884
 11
82.2276049475
 21
141.323776884
  0
LINE
  5
22A
100
AcDbEntity
  8
_30_VOLUMEN
100
AcDbLine
 62
7
  6
CONTINUOUS
 10
173.2276049475
 20
143.823776884
 11
173.5276049475
 21
143.823776884
  0
LINE
  5
22B
100
AcDbEntity
  8
FASEN
100
AcDbLine
 62
7
  6
CONTINUOUS
 10
81.7276049475
 20
141.823776884
 11
81.7276049475
 21
172.823776884
  0
LINE
  5
22C
100
AcDbEntity
  8
FASEN
100
AcDbLine
 62
7
  6
CONTINUOUS
 10
82.2276049475
 20
141.323776884
 11
82.2276049475
 21
173.323776884
  0
LINE
  5
22D
100
AcDbEntity
  8
0
100
AcDbLine
 62
7
  6
CONTINUOUS
 10
146.2276049475
 20
147.323776884
 11
113.2276049475
 21
147.323776884
  0
LINE
  5
22E
100
AcDbEntity
  8
0
100
AcDbLine
 62
7
  6
CONTINUOUS
 10
177.172042044
 20
148.323776884
 11
174.2276049475
 21
148.323776884
  0
LINE
  5
22F
100
AcDbEntity
  8
0
100
AcDbLine
 62
7
  6
CONTINUOUS
 10
174.2276049475
 20
150.673776884
 11
173.5276049475
 21
150.673776884
  0
LINE
  5
230
100
AcDbEntity
  8
0
100
AcDbLine
 62
7
  6
CONTINUOUS
 10
154.0090448261
 20
155.9904435507
 11
162.8090448261
 21
155.9904435507
  0
LINE
  5
231
100
AcDbEntity
  8
FASEN
100
AcDbLine
 62
7
  6
CONTINUOUS
 10
93.2276049481
 20
173.3237768834
 11
93.7276049481
 21
172.8237768835
  0
LINE
  5
232
100
AcDbEntity
  8
FASEN
100
AcDbLine
 62
7
  6
CONTINUOUS
 10
93.2276049475
 20
141.323776884
 11
93.2276049475
 21
173.323776884
  0
LINE
  5
233
100
AcDbEntity
  8
_30_VOLUMEN
100
AcDbLine
 62
7
  6
CONTINUOUS
 10
93.7276049475
 20
173.8657369924
 11
93.7276049475
 21
140.7818167755
  0
LINE
  5
234
100
AcDbEntity
  8
0
100
AcDbLine
 62
7
  6
CONTINUOUS
 10
154.0090448261
 20
158.6571102173
 11
162.8090448261
 21
158.6571102173
  0
LINE
  5
235
100
AcDbEntity
  8
BEZUGSACHSEN
100
AcDbLine
 62
7
  6
CONTINUOUS
 10
96.2276049475
 20
136.573776884
 11
96.2276049475
 21
175.2414141432
  0
LINE
  5
236
100
AcDbEntity
  8
RUNDUNGEN
100
AcDbLine
 62
7
  6
CONTINUOUS
 10
96.2276049475
 20
136.573776884
 11
96.2276049475
 21
202.823776884
  0
LINE
  5
237
100
AcDbEntity
  8
0
100
AcDbLine
 62
7
  6
CONTINUOUS
 10
174.2276049475
 20
163.973776884
 11
173.5276049475
 21
163.973776884
  0
LINE
  5
238
100
AcDbEntity
  8
0
100
AcDbLine
 62
7
  6
CONTINUOUS
 10
177.172042044
 20
166.323776884
 11
174.2276049475
 21
166.323776884
  0
LINE
  5
239
100
AcDbEntity
  8
0
100
AcDbLine
 62
7
  6
CONTINUOUS
 10
146.2276049475
 20
167.323776884
 11
113.2276049475
 21
167.323776884
  0
LINE
  5
23A
100
AcDbEntity
  8
0
100
AcDbLine
 62
7
  6
CONTINUOUS
 10
102.1105836253
 20
185.1987768542
 11
102.6212218623
 21
184.698776884
  0
LINE
  5
23B
100
AcDbEntity
  8
0
100
AcDbLine
 62
7
  6
CONTINUOUS
 10
102.8765409808
 20
185.448776884
 11
102.6212218623
 21
185.823776884
  0
LINE
  5
23C
100
AcDbEntity
  8
0
100
AcDbLine
 62
7
  6
CONTINUOUS
 10
101.8552645068
 20
185.6987769138
 11
102.1105836253
 21
185.1987768542
  0
LINE
  5
23D
100
AcDbEntity
  8
0
100
AcDbLine
 62
7
  6
CONTINUOUS
 10
102.6212218623
 20
185.823776884
 11
102.493562303
 21
186.3237769436
  0
LINE
  5
23E
100
AcDbEntity
  8
0
100
AcDbLine
 62
7
  6
CONTINUOUS
 10
101.7276049475
 20
186.3237769436
 11
101.8552645068
 21
185.6987769138
  0
LINE
  5
23F
100
AcDbEntity
  8
0
100
AcDbLine
 62
7
  6
CONTINUOUS
 10
101.7276049475
 20
198.6987764072
 11
101.7276049475
 21
198.0737773608
  0
LINE
  5
240
100
AcDbEntity
  8
0
100
AcDbLine
 62
7
  6
CONTINUOUS
 10
101.7276049475
 20
193.323776884
 11
101.7276049475
 21
192.198776884
  0
LINE
  5
241
100
AcDbEntity
  8
0
100
AcDbLine
 62
7
  6
CONTINUOUS
 10
101.7276049475
 20
187.4487767648
 11
101.7276049475
 21
186.3237769436
  0
LINE
  5
242
100
AcDbEntity
  8
0
100
AcDbLine
 62
7
  6
CONTINUOUS
 10
102.493562303
 20
186.3237769436
 11
102.493562303
 21
187.4487767648
  0
LINE
  5
243
100
AcDbEntity
  8
0
100
AcDbLine
 62
7
  6
CONTINUOUS
 10
102.493562303
 20
192.198776884
 11
102.493562303
 21
193.323776884
  0
LINE
  5
244
100
AcDbEntity
  8
0
100
AcDbLine
 62
7
  6
CONTINUOUS
 10
102.493562303
 20
198.0737773608
 11
102.493562303
 21
198.8237773608
  0
LINE
  5
245
100
AcDbEntity
  8
0
100
AcDbLine
 62
7
  6
CONTINUOUS
 10
103.1318600993
 20
199.5737773608
 11
103.1318600993
 21
200.3237773608
  0
LINE
  5
246
100
AcDbEntity
  8
0
100
AcDbLine
 62
7
  6
CONTINUOUS
 10
103.2595200162
 20
188.448776884
 11
103.2595200162
 21
189.198776884
  0
LINE
  5
247
100
AcDbEntity
  8
0
100
AcDbLine
 62
7
  6
CONTINUOUS
 10
103.2595200162
 20
194.3237766456
 11
103.2595200162
 21
195.0737766456
  0
LINE
  5
248
100
AcDbEntity
  8
0
100
AcDbLine
 62
7
  6
CONTINUOUS
 10
104.2807964902
 20
198.8237773608
 11
104.2807964902
 21
198.0737773608
  0
LINE
  5
249
100
AcDbEntity
  8
0
100
AcDbLine
 62
7
  6
CONTINUOUS
 10
105.0467538457
 20
198.0737773608
 11
105.0467538457
 21
198.8237773608
  0
LINE
  5
24A
100
AcDbEntity
  8
0
100
AcDbLine
 62
7
  6
CONTINUOUS
 10
101.8552645068
 20
199.323776884
 11
101.7276049475
 21
198.6987764072
  0
LINE
  5
24B
100
AcDbEntity
  8
0
100
AcDbLine
 62
7
  6
CONTINUOUS
 10
101.8552645068
 20
193.9487766456
 11
101.7276049475
 21
193.323776884
  0
LINE
  5
24C
100
AcDbEntity
  8
0
100
AcDbLine
 62
7
  6
CONTINUOUS
 10
101.8552645068
 20
188.073776884
 11
101.7276049475
 21
187.4487767648
  0
LINE
  5
24D
100
AcDbEntity
  8
0
100
AcDbLine
 62
7
  6
CONTINUOUS
 10
104.4084560494
 20
199.4487764072
 11
104.2807964902
 21
198.8237773608
  0
LINE
  5
24E
100
AcDbEntity
  8
0
100
AcDbLine
 62
7
  6
CONTINUOUS
 10
102.493562303
 20
198.8237773608
 11
102.6212218623
 21
199.1987773608
  0
LINE
  5
24F
100
AcDbEntity
  8
0
100
AcDbLine
 62
7
  6
CONTINUOUS
 10
161.9776049475
 20
177.823776884
 11
162.4776048283
 21
177.9514364544
  0
LINE
  5
250
100
AcDbEntity
  8
0
100
AcDbLine
 62
7
  6
CONTINUOUS
 10
162.4776048283
 20
178.5897343289
 11
161.8526050667
 21
178.4620747696
  0
LINE
  5
251
100
AcDbEntity
  8
_30_VOLUMEN
100
AcDbLine
 62
7
  6
CONTINUOUS
 10
173.8276049475
 20
169.5088223078
 11
177.9276049475
 21
169.5088223078
  0
LINE
  5
252
100
AcDbEntity
  8
FASEN
100
AcDbLine
 62
7
  6
CONTINUOUS
 10
93.2276049475
 20
173.323776884
 11
82.2276049475
 21
173.323776884
  0
LINE
  5
253
100
AcDbEntity
  8
_30_VOLUMEN
100
AcDbLine
 62
7
  6
CONTINUOUS
 10
173.8276049475
 20
174.4162995959
 11
177.9276049475
 21
174.4162995959
  0
LINE
  5
254
100
AcDbEntity
  8
0
100
AcDbLine
 62
7
  6
CONTINUOUS
 10
102.6212218623
 20
184.698776884
 11
103.1318600993
 21
184.4487768877
  0
LINE
  5
255
100
AcDbEntity
  8
0
100
AcDbLine
 62
7
  6
CONTINUOUS
 10
103.2595200162
 20
185.1987768542
 11
102.8765409808
 21
185.448776884
  0
LINE
  5
256
100
AcDbEntity
  8
0
100
AcDbLine
 62
7
  6
CONTINUOUS
 10
102.1105836253
 20
191.073776884
 11
102.6212218623
 21
190.5737766456
  0
LINE
  5
257
100
AcDbEntity
  8
0
100
AcDbLine
 62
7
  6
CONTINUOUS
 10
107.3446262251
 20
188.5737767648
 11
106.8339879434
 21
189.0737770032
  0
LINE
  5
258
100
AcDbEntity
  8
0
100
AcDbLine
 62
7
  6
CONTINUOUS
 10
102.8765409808
 20
191.3237766456
 11
102.6212218623
 21
191.6987766456
  0
LINE
  5
259
100
AcDbEntity
  8
0
100
AcDbLine
 62
7
  6
CONTINUOUS
 10
106.5786687355
 20
188.3237770032
 11
106.8339879434
 21
187.9487770032
  0
LINE
  5
25A
100
AcDbEntity
  8
0
100
AcDbLine
 62
7
  6
CONTINUOUS
 10
102.8765409808
 20
197.3237773608
 11
102.6212218623
 21
197.6987773608
  0
LINE
  5
25B
100
AcDbEntity
  8
0
100
AcDbLine
 62
7
  6
CONTINUOUS
 10
101.8552645068
 20
191.5737771224
 11
102.1105836253
 21
191.073776884
  0
LINE
  5
25C
100
AcDbEntity
  8
0
100
AcDbLine
 62
7
  6
CONTINUOUS
 10
101.8552645068
 20
197.5737764072
 11
102.1105836253
 21
197.073776884
  0
LINE
  5
25D
100
AcDbEntity
  8
0
100
AcDbLine
 62
7
  6
CONTINUOUS
 10
107.5999453771
 20
188.073776884
 11
107.3446262251
 21
188.5737767648
  0
LINE
  5
25E
100
AcDbEntity
  8
0
100
AcDbLine
 62
7
  6
CONTINUOUS
 10
102.6212218623
 20
197.6987773608
 11
102.493562303
 21
198.0737773608
  0
LINE
  5
25F
100
AcDbEntity
  8
0
100
AcDbLine
 62
7
  6
CONTINUOUS
 10
102.6212218623
 20
191.6987766456
 11
102.493562303
 21
192.198776884
  0
LINE
  5
260
100
AcDbEntity
  8
0
100
AcDbLine
 62
7
  6
CONTINUOUS
 10
101.7276049475
 20
198.0737773608
 11
101.8552645068
 21
197.5737764072
  0
LINE
  5
261
100
AcDbEntity
  8
0
100
AcDbLine
 62
7
  6
CONTINUOUS
 10
106.8339879434
 20
187.9487770032
 11
106.9616475026
 21
187.4487767648
  0
LINE
  5
262
100
AcDbEntity
  8
0
100
AcDbLine
 62
7
  6
CONTINUOUS
 10
106.8339879434
 20
193.8237771224
 11
106.9616475026
 21
193.323776884
  0
LINE
  5
263
100
AcDbEntity
  8
0
100
AcDbLine
 62
7
  6
CONTINUOUS
 10
101.7276049475
 20
192.198776884
 11
101.8552645068
 21
191.5737771224
  0
LINE
  5
264
100
AcDbEntity
  8
0
100
AcDbLine
 62
7
  6
CONTINUOUS
 10
107.7276049475
 20
187.4487767648
 11
107.5999453771
 21
188.073776884
  0
LINE
  5
265
100
AcDbEntity
  8
0
100
AcDbLine
 62
7
  6
CONTINUOUS
 10
106.0680304985
 20
196.8237764072
 11
106.0680304985
 21
196.0737771224
  0
LINE
  5
266
100
AcDbEntity
  8
0
100
AcDbLine
 62
7
  6
CONTINUOUS
 10
106.1956900577
 20
195.0737766456
 11
106.1956900577
 21
194.3237766456
  0
LINE
  5
267
100
AcDbEntity
  8
0
100
AcDbLine
 62
7
  6
CONTINUOUS
 10
106.1956900577
 20
189.198776884
 11
106.1956900577
 21
188.448776884
  0
LINE
  5
268
100
AcDbEntity
  8
0
100
AcDbLine
 62
7
  6
CONTINUOUS
 10
106.9616475026
 20
198.8237773608
 11
106.9616475026
 21
197.823776884
  0
LINE
  5
269
100
AcDbEntity
  8
0
100
AcDbLine
 62
7
  6
CONTINUOUS
 10
106.9616475026
 20
193.323776884
 11
106.9616475026
 21
192.198776884
  0
LINE
  5
26A
100
AcDbEntity
  8
0
100
AcDbLine
 62
7
  6
CONTINUOUS
 10
106.9616475026
 20
187.4487767648
 11
106.9616475026
 21
186.3237769436
  0
LINE
  5
26B
100
AcDbEntity
  8
0
100
AcDbLine
 62
7
  6
CONTINUOUS
 10
107.7276049475
 20
186.3237769436
 11
107.7276049475
 21
187.4487767648
  0
LINE
  5
26C
100
AcDbEntity
  8
0
100
AcDbLine
 62
7
  6
CONTINUOUS
 10
107.7276049475
 20
192.198776884
 11
107.7276049475
 21
193.323776884
  0
LINE
  5
26D
100
AcDbEntity
  8
0
100
AcDbLine
 62
7
  6
CONTINUOUS
 10
107.7276049475
 20
197.823776884
 11
107.7276049475
 21
198.8237773608
  0
LINE
  5
26E
100
AcDbEntity
  8
RUNDUNGEN
100
AcDbLine
 62
7
  6
CONTINUOUS
 10
110.7276049475
 20
214.999245122
 11
110.7276049475
 21
251.323776884
  0
LINE
  5
26F
100
AcDbEntity
  8
0
100
AcDbLine
 62
7
  6
CONTINUOUS
 10
107.5999453771
 20
197.1987764072
 11
107.7276049475
 21
197.823776884
  0
LINE
  5
270
100
AcDbEntity
  8
0
100
AcDbLine
 62
7
  6
CONTINUOUS
 10
107.5999453771
 20
191.5737771224
 11
107.7276049475
 21
192.198776884
  0
LINE
  5
271
100
AcDbEntity
  8
0
100
AcDbLine
 62
7
  6
CONTINUOUS
 10
102.493562303
 20
193.323776884
 11
102.6212218623
 21
193.8237771224
  0
LINE
  5
272
100
AcDbEntity
  8
0
100
AcDbLine
 62
7
  6
CONTINUOUS
 10
105.0467538457
 20
198.8237773608
 11
105.1744134049
 21
199.323776884
  0
LINE
  5
273
100
AcDbEntity
  8
0
100
AcDbLine
 62
7
  6
CONTINUOUS
 10
104.9190942864
 20
197.5737764072
 11
105.0467538457
 21
198.0737773608
  0
LINE
  5
274
100
AcDbEntity
  8
0
100
AcDbLine
 62
7
  6
CONTINUOUS
 10
102.493562303
 20
187.4487767648
 11
102.6212218623
 21
187.9487770032
  0
LINE
  5
275
100
AcDbEntity
  8
0
100
AcDbLine
 62
7
  6
CONTINUOUS
 10
106.9616475026
 20
197.823776884
 11
106.8339879434
 21
197.3237773608
  0
LINE
  5
276
100
AcDbEntity
  8
0
100
AcDbLine
 62
7
  6
CONTINUOUS
 10
106.9616475026
 20
192.198776884
 11
106.8339879434
 21
191.6987766456
  0
LINE
  5
277
100
AcDbEntity
  8
0
100
AcDbLine
 62
7
  6
CONTINUOUS
 10
104.2807964902
 20
198.0737773608
 11
104.1531369309
 21
197.6987773608
  0
LINE
  5
278
100
AcDbEntity
  8
0
100
AcDbLine
 62
7
  6
CONTINUOUS
 10
104.6637751679
 20
199.9487773608
 11
104.4084560494
 21
199.4487764072
  0
LINE
  5
279
100
AcDbEntity
  8
0
100
AcDbLine
 62
7
  6
CONTINUOUS
 10
102.1105836253
 20
194.448776884
 11
101.8552645068
 21
193.9487766456
  0
LINE
  5
27A
100
AcDbEntity
  8
0
100
AcDbLine
 62
7
  6
CONTINUOUS
 10
104.6637751679
 20
197.073776884
 11
104.9190942864
 21
197.5737764072
  0
LINE
  5
27B
100
AcDbEntity
  8
0
100
AcDbLine
 62
7
  6
CONTINUOUS
 10
102.2382431845
 20
199.8237764072
 11
101.8552645068
 21
199.323776884
  0
LINE
  5
27C
100
AcDbEntity
  8
0
100
AcDbLine
 62
7
  6
CONTINUOUS
 10
160.6026048283
 20
183.0578195285
 11
161.2276049475
 21
183.1854790877
  0
LINE
  5
27D
100
AcDbEntity
  8
0
100
AcDbLine
 62
7
  6
CONTINUOUS
 10
161.3526048283
 20
183.823776884
 11
160.4776049475
 21
183.6961173247
  0
LINE
  5
27E
100
AcDbEntity
  8
_26_BEZUGSACHSEN
100
AcDbLine
 62
7
  6
CONTINUOUS
 10
173.5276049475
 20
175.723776884
 11
173.8276049475
 21
175.723776884
  0
LINE
  5
27F
100
AcDbEntity
  8
0
100
AcDbLine
 62
7
  6
CONTINUOUS
 10
157.4776049475
 20
177.823776884
 11
158.2276049475
 21
177.823776884
  0
LINE
  5
280
100
AcDbEntity
  8
0
100
AcDbLine
 62
7
  6
CONTINUOUS
 10
160.9776048283
 20
177.823776884
 11
161.9776049475
 21
177.823776884
  0
LINE
  5
281
100
AcDbEntity
  8
0
100
AcDbLine
 62
7
  6
CONTINUOUS
 10
161.8526050667
 20
178.4620747696
 11
161.1026050667
 21
178.4620747696
  0
LINE
  5
282
100
AcDbEntity
  8
0
100
AcDbLine
 62
7
  6
CONTINUOUS
 10
159.8526048283
 20
179.2280322146
 11
159.2276048879
 21
179.2280322146
  0
LINE
  5
283
100
AcDbEntity
  8
0
100
AcDbLine
 62
7
  6
CONTINUOUS
 10
103.1318600993
 20
184.4487768877
 11
103.7701582532
 21
184.323776884
  0
LINE
  5
284
100
AcDbEntity
  8
0
100
AcDbLine
 62
7
  6
CONTINUOUS
 10
103.7701582532
 20
185.073776884
 11
103.2595200162
 21
185.1987768542
  0
LINE
  5
285
100
AcDbEntity
  8
0
100
AcDbLine
 62
7
  6
CONTINUOUS
 10
102.6212218623
 20
190.5737766456
 11
103.1318600993
 21
190.323776884
  0
LINE
  5
286
100
AcDbEntity
  8
0
100
AcDbLine
 62
7
  6
CONTINUOUS
 10
103.2595200162
 20
191.073776884
 11
102.8765409808
 21
191.3237766456
  0
LINE
  5
287
100
AcDbEntity
  8
0
100
AcDbLine
 62
7
  6
CONTINUOUS
 10
102.1105836253
 20
197.073776884
 11
102.6212218623
 21
196.5737773608
  0
LINE
  5
288
100
AcDbEntity
  8
0
100
AcDbLine
 62
7
  6
CONTINUOUS
 10
107.3446262251
 20
194.448776884
 11
106.8339879434
 21
194.9487771224
  0
LINE
  5
289
100
AcDbEntity
  8
0
100
AcDbLine
 62
7
  6
CONTINUOUS
 10
106.5786687355
 20
194.1987771224
 11
106.8339879434
 21
193.8237771224
  0
LINE
  5
28A
100
AcDbEntity
  8
0
100
AcDbLine
 62
7
  6
CONTINUOUS
 10
106.5786687355
 20
199.698776884
 11
106.8339879434
 21
199.323776884
  0
LINE
  5
28B
100
AcDbEntity
  8
0
100
AcDbLine
 62
7
  6
CONTINUOUS
 10
107.5999453771
 20
193.9487766456
 11
107.3446262251
 21
194.448776884
  0
LINE
  5
28C
100
AcDbEntity
  8
0
100
AcDbLine
 62
7
  6
CONTINUOUS
 10
107.5999453771
 20
199.4487764072
 11
107.3446262251
 21
199.9487773608
  0
LINE
  5
28D
100
AcDbEntity
  8
0
100
AcDbLine
 62
7
  6
CONTINUOUS
 10
106.8339879434
 20
199.323776884
 11
106.9616475026
 21
198.8237773608
  0
LINE
  5
28E
100
AcDbEntity
  8
0
100
AcDbLine
 62
7
  6
CONTINUOUS
 10
107.7276049475
 20
193.323776884
 11
107.5999453771
 21
193.9487766456
  0
LINE
  5
28F
100
AcDbEntity
  8
0
100
AcDbLine
 62
7
  6
CONTINUOUS
 10
107.7276049475
 20
198.8237773608
 11
107.5999453771
 21
199.4487764072
  0
LINE
  5
290
100
AcDbEntity
  8
BEZUGSACHSEN
100
AcDbLine
 62
7
  6
CONTINUOUS
 10
113.2276049475
 20
174.3779135524
 11
113.2276049475
 21
137.573776884
  0
LINE
  5
291
100
AcDbEntity
  8
RUNDUNGEN
100
AcDbLine
 62
7
  6
CONTINUOUS
 10
113.2276049475
 20
137.6180880302
 11
113.2276049475
 21
202.823776884
  0
LINE
  5
292
100
AcDbEntity
  8
0
100
AcDbLine
 62
7
  6
CONTINUOUS
 10
107.5999453771
 20
185.6987769138
 11
107.7276049475
 21
186.3237769436
  0
LINE
  5
293
100
AcDbEntity
  8
0
100
AcDbLine
 62
7
  6
CONTINUOUS
 10
106.9616475026
 20
186.3237769436
 11
106.8339879434
 21
185.823776884
  0
LINE
  5
294
100
AcDbEntity
  8
0
100
AcDbLine
 62
7
  6
CONTINUOUS
 10
102.1105836253
 20
188.5737767648
 11
101.8552645068
 21
188.073776884
  0
LINE
  5
295
100
AcDbEntity
  8
0
100
AcDbLine
 62
7
  6
CONTINUOUS
 10
107.3446262251
 20
191.073776884
 11
107.5999453771
 21
191.5737771224
  0
LINE
  5
296
100
AcDbEntity
  8
0
100
AcDbLine
 62
7
  6
CONTINUOUS
 10
107.2169666658
 20
196.5737773608
 11
107.5999453771
 21
197.1987764072
  0
LINE
  5
297
100
AcDbEntity
  8
0
100
AcDbLine
 62
7
  6
CONTINUOUS
 10
105.1744134049
 20
199.323776884
 11
105.4297325234
 21
199.698776884
  0
LINE
  5
298
100
AcDbEntity
  8
0
100
AcDbLine
 62
7
  6
CONTINUOUS
 10
104.1531369309
 20
197.6987773608
 11
103.8978178124
 21
197.3237773608
  0
LINE
  5
299
100
AcDbEntity
  8
0
100
AcDbLine
 62
7
  6
CONTINUOUS
 10
102.6212218623
 20
193.8237771224
 11
102.8765409808
 21
194.1987771224
  0
LINE
  5
29A
100
AcDbEntity
  8
0
100
AcDbLine
 62
7
  6
CONTINUOUS
 10
102.6212218623
 20
187.9487770032
 11
102.8765409808
 21
188.3237770032
  0
LINE
  5
29B
100
AcDbEntity
  8
0
100
AcDbLine
 62
7
  6
CONTINUOUS
 10
102.6212218623
 20
199.1987773608
 11
102.8765409808
 21
199.4487764072
  0
LINE
  5
29C
100
AcDbEntity
  8
0
100
AcDbLine
 62
7
  6
CONTINUOUS
 10
105.1744134049
 20
200.448776884
 11
104.6637751679
 21
199.9487773608
  0
LINE
  5
29D
100
AcDbEntity
  8
0
100
AcDbLine
 62
7
  6
CONTINUOUS
 10
161.2276049475
 20
180.6322875451
 11
161.7276048283
 21
180.6322875451
  0
LINE
  5
29E
100
AcDbEntity
  8
0
100
AcDbLine
 62
7
  6
CONTINUOUS
 10
161.7276048283
 20
181.1429257821
 11
161.2276049475
 21
181.1429257821
  0
LINE
  5
29F
100
AcDbEntity
  8
0
100
AcDbLine
 62
7
  6
CONTINUOUS
 10
159.3526049475
 20
182.4195217322
 11
159.9776050667
 21
182.4195217322
  0
LINE
  5
2A0
100
AcDbEntity
  8
_26_BEZUGSACHSEN
100
AcDbLine
 62
7
  6
CONTINUOUS
 10
173.5276049475
 20
182.923776884
 11
173.8276049475
 21
182.923776884
  0
LINE
  5
2A1
100
AcDbEntity
  8
0
100
AcDbLine
 62
7
  6
CONTINUOUS
 10
161.2276049475
 20
183.1854790877
 11
161.7276048283
 21
183.1854790877
  0
LINE
  5
2A2
100
AcDbEntity
  8
0
100
AcDbLine
 62
7
  6
CONTINUOUS
 10
161.6026049475
 20
183.823776884
 11
161.3526048283
 21
183.823776884
  0
LINE
  5
2A3
100
AcDbEntity
  8
0
100
AcDbLine
 62
7
  6
CONTINUOUS
 10
158.2276049475
 20
183.823776884
 11
157.4776049475
 21
183.823776884
  0
LINE
  5
2A4
100
AcDbEntity
  8
_30_VOLUMEN
100
AcDbLine
 62
7
  6
CONTINUOUS
 10
173.8276049475
 20
184.2312541721
 11
177.9276049475
 21
184.2312541721
  0
LINE
  5
2A5
100
AcDbEntity
  8
0
100
AcDbLine
 62
7
  6
CONTINUOUS
 10
103.7701582532
 20
184.323776884
 11
105.6850518207
 21
184.323776884
  0
LINE
  5
2A6
100
AcDbEntity
  8
0
100
AcDbLine
 62
7
  6
CONTINUOUS
 10
105.6850518207
 20
185.073776884
 11
103.7701582532
 21
185.073776884
  0
LINE
  5
2A7
100
AcDbEntity
  8
0
100
AcDbLine
 62
7
  6
CONTINUOUS
 10
161.7276048283
 20
180.6322875451
 11
162.4776048283
 21
180.5046279859
  0
LINE
  5
2A8
100
AcDbEntity
  8
0
100
AcDbLine
 62
7
  6
CONTINUOUS
 10
106.8339879434
 20
189.0737770032
 11
106.1956900577
 21
189.198776884
  0
LINE
  5
2A9
100
AcDbEntity
  8
0
100
AcDbLine
 62
7
  6
CONTINUOUS
 10
103.1318600993
 20
190.323776884
 11
103.7701582532
 21
190.1987770032
  0
LINE
  5
2AA
100
AcDbEntity
  8
0
100
AcDbLine
 62
7
  6
CONTINUOUS
 10
161.1026050667
 20
178.4620747696
 11
160.4776049475
 21
178.5897343289
  0
LINE
  5
2AB
100
AcDbEntity
  8
0
100
AcDbLine
 62
7
  6
CONTINUOUS
 10
103.7701582532
 20
190.9487766456
 11
103.2595200162
 21
191.073776884
  0
LINE
  5
2AC
100
AcDbEntity
  8
0
100
AcDbLine
 62
7
  6
CONTINUOUS
 10
160.4776049475
 20
177.9514364544
 11
160.9776048283
 21
177.823776884
  0
LINE
  5
2AD
100
AcDbEntity
  8
0
100
AcDbLine
 62
7
  6
CONTINUOUS
 10
106.1956900577
 20
188.448776884
 11
106.5786687355
 21
188.3237770032
  0
LINE
  5
2AE
100
AcDbEntity
  8
RUNDUNGEN
100
AcDbLine
 62
7
  6
CONTINUOUS
 10
184.0696250909
 20
163.8132619666
 11
177.172042044
 21
166.323776884
  0
LINE
  5
2AF
100
AcDbEntity
  8
0
100
AcDbLine
 62
7
  6
CONTINUOUS
 10
163.8210444021
 20
160.941277149
 11
169.0663259115
 21
157.6629762056
  0
LINE
  5
2B0
100
AcDbEntity
  8
0
100
AcDbLine
 62
7
  6
CONTINUOUS
 10
106.1956900577
 20
199.9487773608
 11
106.5786687355
 21
199.698776884
  0
LINE
  5
2B1
100
AcDbEntity
  8
0
100
AcDbLine
 62
7
  6
CONTINUOUS
 10
107.3446262251
 20
199.9487773608
 11
106.8339879434
 21
200.448776884
  0
LINE
  5
2B2
100
AcDbEntity
  8
0
100
AcDbLine
 62
7
  6
CONTINUOUS
 10
107.3446262251
 20
185.1987768542
 11
107.5999453771
 21
185.6987769138
  0
LINE
  5
2B3
100
AcDbEntity
  8
0
100
AcDbLine
 62
7
  6
CONTINUOUS
 10
106.8339879434
 20
191.6987766456
 11
106.5786687355
 21
191.3237766456
  0
LINE
  5
2B4
100
AcDbEntity
  8
0
100
AcDbLine
 62
7
  6
CONTINUOUS
 10
106.8339879434
 20
185.823776884
 11
106.5786687355
 21
185.448776884
  0
LINE
  5
2B5
100
AcDbEntity
  8
FASEN
100
AcDbLine
 62
7
  6
CONTINUOUS
 10
81.727604947
 20
172.8237768835
 11
82.227604947
 21
173.3237768835
  0
LINE
  5
2B6
100
AcDbEntity
  8
0
100
AcDbLine
 62
7
  6
CONTINUOUS
 10
104.1531369309
 20
196.5737773608
 11
104.6637751679
 21
197.073776884
  0
LINE
  5
2B7
100
AcDbEntity
  8
0
100
AcDbLine
 62
7
  6
CONTINUOUS
 10
102.6212218623
 20
194.9487771224
 11
102.1105836253
 21
194.448776884
  0
LINE
  5
2B8
100
AcDbEntity
  8
0
100
AcDbLine
 62
7
  6
CONTINUOUS
 10
106.8339879434
 20
197.3237773608
 11
106.4510091762
 21
196.9487773608
  0
LINE
  5
2B9
100
AcDbEntity
  8
0
100
AcDbLine
 62
7
  6
CONTINUOUS
 10
102.6212218623
 20
189.0737770032
 11
102.1105836253
 21
188.5737767648
  0
LINE
  5
2BA
100
AcDbEntity
  8
0
100
AcDbLine
 62
7
  6
CONTINUOUS
 10
102.7488814215
 20
200.1987764072
 11
102.2382431845
 21
199.8237764072
  0
LINE
  5
2BB
100
AcDbEntity
  8
0
100
AcDbLine
 62
7
  6
CONTINUOUS
 10
105.4297325234
 20
199.698776884
 11
105.81271138
 21
199.9487773608
  0
LINE
  5
2BC
100
AcDbEntity
  8
0
100
AcDbLine
 62
7
  6
CONTINUOUS
 10
102.8765409808
 20
199.4487764072
 11
103.1318600993
 21
199.5737773608
  0
LINE
  5
2BD
100
AcDbEntity
  8
0
100
AcDbLine
 62
7
  6
CONTINUOUS
 10
105.6850518207
 20
184.323776884
 11
106.323349617
 21
184.4487768877
  0
LINE
  5
2BE
100
AcDbEntity
  8
_30_VOLUMEN
100
AcDbLine
 62
7
  6
CONTINUOUS
 10
173.2276049475
 20
188.323776884
 11
162.9276049475
 21
188.323776884
  0
LINE
  5
2BF
100
AcDbEntity
  8
_30_VOLUMEN
100
AcDbLine
 62
7
  6
CONTINUOUS
 10
173.8276049475
 20
189.1387314602
 11
177.9276049475
 21
189.1387314602
  0
LINE
  5
2C0
100
AcDbEntity
  8
0
100
AcDbLine
 62
7
  6
CONTINUOUS
 10
103.7701582532
 20
190.1987770032
 11
105.6850518207
 21
190.1987770032
  0
LINE
  5
2C1
100
AcDbEntity
  8
0
100
AcDbLine
 62
7
  6
CONTINUOUS
 10
105.6850518207
 20
190.9487766456
 11
103.7701582532
 21
190.9487766456
  0
LINE
  5
2C2
100
AcDbEntity
  8
0
100
AcDbLine
 62
7
  6
CONTINUOUS
 10
162.4776048283
 20
183.6961173247
 11
161.6026049475
 21
183.823776884
  0
LINE
  5
2C3
100
AcDbEntity
  8
0
100
AcDbLine
 62
7
  6
CONTINUOUS
 10
106.8339879434
 20
194.9487771224
 11
106.1956900577
 21
195.0737766456
  0
LINE
  5
2C4
100
AcDbEntity
  8
0
100
AcDbLine
 62
7
  6
CONTINUOUS
 10
161.7276048283
 20
183.1854790877
 11
162.3526049475
 21
183.0578195285
  0
LINE
  5
2C5
100
AcDbEntity
  8
0
100
AcDbLine
 62
7
  6
CONTINUOUS
 10
102.6212218623
 20
196.5737773608
 11
103.1318600993
 21
196.4487764072
  0
LINE
  5
2C6
100
AcDbEntity
  8
0
100
AcDbLine
 62
7
  6
CONTINUOUS
 10
106.1956900577
 20
194.3237766456
 11
106.5786687355
 21
194.1987771224
  0
LINE
  5
2C7
100
AcDbEntity
  8
0
100
AcDbLine
 62
7
  6
CONTINUOUS
 10
103.2595200162
 20
197.1987764072
 11
102.8765409808
 21
197.3237773608
  0
LINE
  5
2C8
100
AcDbEntity
  8
0
100
AcDbLine
 62
7
  6
CONTINUOUS
 10
106.8339879434
 20
200.448776884
 11
106.323349617
 21
200.6987773608
  0
LINE
  5
2C9
100
AcDbEntity
  8
0
100
AcDbLine
 62
7
  6
CONTINUOUS
 10
106.8339879434
 20
190.5737766456
 11
107.3446262251
 21
191.073776884
  0
LINE
  5
2CA
100
AcDbEntity
  8
0
100
AcDbLine
 62
7
  6
CONTINUOUS
 10
106.8339879434
 20
184.698776884
 11
107.3446262251
 21
185.1987768542
  0
LINE
  5
2CB
100
AcDbEntity
  8
0
100
AcDbLine
 62
7
  6
CONTINUOUS
 10
106.5786687355
 20
191.3237766456
 11
106.1956900577
 21
191.073776884
  0
LINE
  5
2CC
100
AcDbEntity
  8
0
100
AcDbLine
 62
7
  6
CONTINUOUS
 10
106.5786687355
 20
196.1987766456
 11
107.2169666658
 21
196.5737773608
  0
LINE
  5
2CD
100
AcDbEntity
  8
0
100
AcDbLine
 62
7
  6
CONTINUOUS
 10
105.6850518207
 20
200.6987773608
 11
105.1744134049
 21
200.448776884
  0
LINE
  5
2CE
100
AcDbEntity
  8
0
100
AcDbLine
 62
7
  6
CONTINUOUS
 10
103.1318600993
 20
200.3237773608
 11
102.7488814215
 21
200.1987764072
  0
LINE
  5
2CF
100
AcDbEntity
  8
0
100
AcDbLine
 62
7
  6
CONTINUOUS
 10
106.1956900577
 20
185.1987768542
 11
105.6850518207
 21
185.073776884
  0
LINE
  5
2D0
100
AcDbEntity
  8
0
100
AcDbLine
 62
7
  6
CONTINUOUS
 10
103.2595200162
 20
189.198776884
 11
102.6212218623
 21
189.0737770032
  0
LINE
  5
2D1
100
AcDbEntity
  8
0
100
AcDbLine
 62
7
  6
CONTINUOUS
 10
105.6850518207
 20
190.1987770032
 11
106.323349617
 21
190.323776884
  0
LINE
  5
2D2
100
AcDbEntity
  8
0
100
AcDbLine
 62
7
  6
CONTINUOUS
 10
103.1318600993
 20
196.4487764072
 11
103.6424986939
 21
196.4487764072
  0
LINE
  5
2D3
100
AcDbEntity
  8
0
100
AcDbLine
 62
7
  6
CONTINUOUS
 10
103.5148391347
 20
197.1987764072
 11
103.2595200162
 21
197.1987764072
  0
LINE
  5
2D4
100
AcDbEntity
  8
0
100
AcDbLine
 62
7
  6
CONTINUOUS
 10
163.3526047091
 20
180.6322875451
 11
162.7276049475
 21
180.8876066636
  0
LINE
  5
2D5
100
AcDbEntity
  8
0
100
AcDbLine
 62
7
  6
CONTINUOUS
 10
159.9776050667
 20
178.2067556064
 11
160.4776049475
 21
177.9514364544
  0
LINE
  5
2D6
100
AcDbEntity
  8
0
100
AcDbLine
 62
7
  6
CONTINUOUS
 10
160.4776049475
 20
178.5897343289
 11
160.2276048283
 21
178.7173938881
  0
LINE
  5
2D7
100
AcDbEntity
  8
0
100
AcDbLine
 62
7
  6
CONTINUOUS
 10
159.6026048879
 20
178.4620747696
 11
159.9776050667
 21
178.2067556064
  0
LINE
  5
2D8
100
AcDbEntity
  8
0
100
AcDbLine
 62
7
  6
CONTINUOUS
 10
106.5786687355
 20
185.448776884
 11
106.1956900577
 21
185.1987768542
  0
LINE
  5
2D9
100
AcDbEntity
  8
0
100
AcDbLine
 62
7
  6
CONTINUOUS
 10
106.323349617
 20
190.323776884
 11
106.8339879434
 21
190.5737766456
  0
LINE
  5
2DA
100
AcDbEntity
  8
0
100
AcDbLine
 62
7
  6
CONTINUOUS
 10
103.8978178124
 20
197.3237773608
 11
103.5148391347
 21
197.1987764072
  0
LINE
  5
2DB
100
AcDbEntity
  8
0
100
AcDbLine
 62
7
  6
CONTINUOUS
 10
106.4510091762
 20
196.9487773608
 11
106.0680304985
 21
196.8237764072
  0
LINE
  5
2DC
100
AcDbEntity
  8
0
100
AcDbLine
 62
7
  6
CONTINUOUS
 10
102.8765409808
 20
194.1987771224
 11
103.2595200162
 21
194.3237766456
  0
LINE
  5
2DD
100
AcDbEntity
  8
0
100
AcDbLine
 62
7
  6
CONTINUOUS
 10
106.1956900577
 20
191.073776884
 11
105.6850518207
 21
190.9487766456
  0
LINE
  5
2DE
100
AcDbEntity
  8
0
100
AcDbLine
 62
7
  6
CONTINUOUS
 10
106.0680304985
 20
196.0737771224
 11
106.5786687355
 21
196.1987766456
  0
LINE
  5
2DF
100
AcDbEntity
  8
0
100
AcDbLine
 62
7
  6
CONTINUOUS
 10
103.2595200162
 20
195.0737766456
 11
102.6212218623
 21
194.9487771224
  0
LINE
  5
2E0
100
AcDbEntity
  8
0
100
AcDbLine
 62
7
  6
CONTINUOUS
 10
105.81271138
 20
199.9487773608
 11
106.1956900577
 21
199.9487773608
  0
LINE
  5
2E1
100
AcDbEntity
  8
0
100
AcDbLine
 62
7
  6
CONTINUOUS
 10
106.323349617
 20
200.6987773608
 11
105.6850518207
 21
200.6987773608
  0
LINE
  5
2E2
100
AcDbEntity
  8
_30_VOLUMEN
100
AcDbLine
 62
7
  6
CONTINUOUS
 10
168.2276049475
 20
201.823776884
 11
168.3276049475
 21
201.823776884
  0
LINE
  5
2E3
100
AcDbEntity
  8
0
100
AcDbLine
 62
7
  6
CONTINUOUS
 10
162.9776047091
 20
183.4407982062
 11
162.4776048283
 21
183.6961173247
  0
LINE
  5
2E4
100
AcDbEntity
  8
0
100
AcDbLine
 62
7
  6
CONTINUOUS
 10
162.4776048283
 20
180.5046279859
 11
162.8526051859
 21
180.2493088674
  0
LINE
  5
2E5
100
AcDbEntity
  8
0
100
AcDbLine
 62
7
  6
CONTINUOUS
 10
162.3526049475
 20
183.0578195285
 11
162.7276049475
 21
182.80250041
  0
LINE
  5
2E6
100
AcDbEntity
  8
0
100
AcDbLine
 62
7
  6
CONTINUOUS
 10
106.323349617
 20
184.4487768877
 11
106.8339879434
 21
184.698776884
  0
LINE
  5
2E7
100
AcDbEntity
  8
0
100
AcDbLine
 62
7
  6
CONTINUOUS
 10
102.8765409808
 20
188.3237770032
 11
103.2595200162
 21
188.448776884
  0
LINE
  5
2E8
100
AcDbEntity
  8
0
100
AcDbLine
 62
7
  6
CONTINUOUS
 10
103.6424986939
 20
196.4487764072
 11
104.1531369309
 21
196.5737773608
  0
LINE
  5
2E9
100
AcDbEntity
  8
_30_VOLUMEN
100
AcDbLine
 62
7
  6
CONTINUOUS
 10
162.9276049475
 20
205.323776884
 11
171.7276049475
 21
205.323776884
  0
LINE
  5
2EA
100
AcDbEntity
  8
RUNDUNGEN
100
AcDbLine
 62
7
  6
CONTINUOUS
 10
118.8731288382
 20
208.823776884
 11
140.5820810569
 21
208.823776884
  0
LINE
  5
2EB
100
AcDbEntity
  8
0
100
AcDbLine
 62
7
  6
CONTINUOUS
 10
160.2276048283
 20
178.7173938881
 11
159.9776050667
 21
178.9727130961
  0
LINE
  5
2EC
100
AcDbEntity
  8
0
100
AcDbLine
 62
7
  6
CONTINUOUS
 10
163.4776049475
 20
182.9301599692
 11
162.9776047091
 21
183.4407982062
  0
LINE
  5
2ED
100
AcDbEntity
  8
0
100
AcDbLine
 62
7
  6
CONTINUOUS
 10
159.3526049475
 20
178.8450534474
 11
159.6026048879
 21
178.4620747696
  0
LINE
  5
2EE
100
AcDbEntity
  8
BEZUGSACHSEN
100
AcDbLine
 62
7
  6
CONTINUOUS
 10
146.2276049475
 20
137.573776884
 11
146.2276049475
 21
171.511757533
  0
LINE
  5
2EF
100
AcDbEntity
  8
RUNDUNGEN
100
AcDbLine
 62
7
  6
CONTINUOUS
 10
146.2276049475
 20
137.573776884
 11
146.2276049475
 21
202.823776884
  0
LINE
  5
2F0
100
AcDbEntity
  8
RUNDUNGEN
100
AcDbLine
 62
7
  6
CONTINUOUS
 10
148.7276049475
 20
251.323776884
 11
148.7276049475
 21
214.9992452864
  0
LINE
  5
2F1
100
AcDbEntity
  8
FASEN
100
AcDbLine
 62
7
  6
CONTINUOUS
 10
93.2276049481
 20
141.3237768846
 11
93.7276049481
 21
141.8237768845
  0
LINE
  5
2F2
100
AcDbEntity
  8
0
100
AcDbLine
 62
7
  6
CONTINUOUS
 10
163.6026051859
 20
180.2493088674
 11
163.3526047091
 21
180.6322875451
  0
LINE
  5
2F3
100
AcDbEntity
  8
0
100
AcDbLine
 62
7
  6
CONTINUOUS
 10
162.7276049475
 20
182.80250041
 11
162.9776047091
 21
182.4195217322
  0
LINE
  5
2F4
100
AcDbEntity
  8
0
100
AcDbLine
 62
7
  6
CONTINUOUS
 10
159.9776050667
 20
178.9727130961
 11
159.8526048283
 21
179.2280322146
  0
LINE
  5
2F5
100
AcDbEntity
  8
0
100
AcDbLine
 62
7
  6
CONTINUOUS
 10
162.8526051859
 20
180.2493088674
 11
163.1026049475
 21
179.7386704516
  0
LINE
  5
2F6
100
AcDbEntity
  8
0
100
AcDbLine
 62
7
  6
CONTINUOUS
 10
159.2276048879
 20
179.2280322146
 11
159.3526049475
 21
178.8450534474
  0
LINE
  5
2F7
100
AcDbEntity
  8
0
100
AcDbLine
 62
7
  6
CONTINUOUS
 10
153.6090448261
 20
158.2571102173
 11
153.6090448261
 21
156.3904435507
  0
LINE
  5
2F8
100
AcDbEntity
  8
0
100
AcDbLine
 62
7
  6
CONTINUOUS
 10
156.7276049475
 20
182.9301599692
 11
156.7276049475
 21
181.9088831376
  0
LINE
  5
2F9
100
AcDbEntity
  8
0
100
AcDbLine
 62
7
  6
CONTINUOUS
 10
157.4776049475
 20
182.80250041
 11
157.4776049475
 21
177.823776884
  0
LINE
  5
2FA
100
AcDbEntity
  8
0
100
AcDbLine
 62
7
  6
CONTINUOUS
 10
158.2276049475
 20
177.823776884
 11
158.2276049475
 21
183.823776884
  0
LINE
  5
2FB
100
AcDbEntity
  8
0
100
AcDbLine
 62
7
  6
CONTINUOUS
 10
161.2276049475
 20
181.1429257821
 11
161.2276049475
 21
180.6322875451
  0
LINE
  5
2FC
100
AcDbEntity
  8
0
100
AcDbLine
 62
7
  6
CONTINUOUS
 10
160.4776049475
 20
183.6961173247
 11
159.9776050667
 21
183.4407982062
  0
LINE
  5
2FD
100
AcDbEntity
  8
RUNDUNGEN
100
AcDbLine
 62
7
  6
CONTINUOUS
 10
167.7276049475
 20
213.504756864
 11
151.7276049475
 21
222.742361171
  0
LINE
  5
2FE
100
AcDbEntity
  8
0
100
AcDbLine
 62
7
  6
CONTINUOUS
 10
163.7276047091
 20
179.7386704516
 11
163.6026051859
 21
180.2493088674
  0
LINE
  5
2FF
100
AcDbEntity
  8
0
100
AcDbLine
 62
7
  6
CONTINUOUS
 10
163.6026051859
 20
182.4195217322
 11
163.4776049475
 21
182.9301599692
  0
LINE
  5
300
100
AcDbEntity
  8
_30_VOLUMEN
100
AcDbLine
 62
7
  6
CONTINUOUS
 10
162.9276049475
 20
188.323776884
 11
162.9276049475
 21
205.323776884
  0
LINE
  5
301
100
AcDbEntity
  8
0
100
AcDbLine
 62
7
  6
CONTINUOUS
 10
162.9776047091
 20
182.4195217322
 11
162.9776047091
 21
182.1642022561
  0
LINE
  5
302
100
AcDbEntity
  8
_30_VOLUMEN
100
AcDbLine
 62
7
  6
CONTINUOUS
 10
163.0276049475
 20
196.623776884
 11
163.0276049475
 21
188.323776884
  0
LINE
  5
303
100
AcDbEntity
  8
0
100
AcDbLine
 62
7
  6
CONTINUOUS
 10
163.1026049475
 20
179.7386704516
 11
163.1026049475
 21
179.2280322146
  0
LINE
  5
304
100
AcDbEntity
  8
0
100
AcDbLine
 62
7
  6
CONTINUOUS
 10
163.2090448261
 20
160.6020778274
 11
163.2090448261
 21
159.0571102173
  0
LINE
  5
305
100
AcDbEntity
  8
0
100
AcDbLine
 62
7
  6
CONTINUOUS
 10
163.2090448261
 20
155.5904435507
 11
163.2090448261
 21
154.0454759406
  0
LINE
  5
306
100
AcDbEntity
  8
0
100
AcDbLine
 62
7
  6
CONTINUOUS
 10
163.6026051859
 20
182.1642022561
 11
163.6026051859
 21
182.4195217322
  0
LINE
  5
307
100
AcDbEntity
  8
0
100
AcDbLine
 62
7
  6
CONTINUOUS
 10
163.7276047091
 20
179.2280322146
 11
163.7276047091
 21
179.7386704516
  0
LINE
  5
308
100
AcDbEntity
  8
0
100
AcDbLine
 62
7
  6
CONTINUOUS
 10
159.4776050071
 20
182.9301599692
 11
159.3526049475
 21
182.4195217322
  0
LINE
  5
309
100
AcDbEntity
  8
0
100
AcDbLine
 62
7
  6
CONTINUOUS
 10
163.4776049475
 20
181.6535640191
 11
163.6026051859
 21
182.1642022561
  0
LINE
  5
30A
100
AcDbEntity
  8
0
100
AcDbLine
 62
7
  6
CONTINUOUS
 10
159.9776050667
 20
182.4195217322
 11
160.2276048283
 21
182.80250041
  0
LINE
  5
30B
100
AcDbEntity
  8
0
100
AcDbLine
 62
7
  6
CONTINUOUS
 10
157.4776049475
 20
183.823776884
 11
156.7276049475
 21
182.9301599692
  0
LINE
  5
30C
100
AcDbEntity
  8
0
100
AcDbLine
 62
7
  6
CONTINUOUS
 10
156.7276049475
 20
181.9088831376
 11
157.4776049475
 21
182.80250041
  0
LINE
  5
30D
100
AcDbEntity
  8
0
100
AcDbLine
 62
7
  6
CONTINUOUS
 10
159.9776050667
 20
183.4407982062
 11
159.4776050071
 21
182.9301599692
  0
LINE
  5
30E
100
AcDbEntity
  8
0
100
AcDbLine
 62
7
  6
CONTINUOUS
 10
160.2276048283
 20
182.80250041
 11
160.6026048283
 21
183.0578195285
  0
LINE
  5
30F
100
AcDbEntity
  8
0
100
AcDbLine
 62
7
  6
CONTINUOUS
 10
162.7276049475
 20
178.7173938881
 11
162.4776048283
 21
178.5897343289
  0
LINE
  5
310
100
AcDbEntity
  8
0
100
AcDbLine
 62
7
  6
CONTINUOUS
 10
162.4776048283
 20
181.3982449006
 11
161.7276048283
 21
181.1429257821
  0
LINE
  5
311
100
AcDbEntity
  8
_30_VOLUMEN
100
AcDbLine
 62
7
  6
CONTINUOUS
 10
171.7276049475
 20
205.323776884
 11
171.7276049475
 21
206.5765536337
  0
LINE
  5
312
100
AcDbEntity
  8
_30_VOLUMEN
100
AcDbLine
 62
7
  6
CONTINUOUS
 10
173.2276049475
 20
134.573776884
 11
173.2276049475
 21
188.323776884
  0
LINE
  5
313
100
AcDbEntity
  8
_30_VOLUMEN
100
AcDbLine
 62
7
  6
CONTINUOUS
 10
173.5276049475
 20
196.623776884
 11
173.5276049475
 21
143.823776884
  0
LINE
  5
314
100
AcDbEntity
  8
0
100
AcDbLine
 62
7
  6
CONTINUOUS
 10
163.6026051859
 20
178.8450534474
 11
163.7276047091
 21
179.2280322146
  0
LINE
  5
315
100
AcDbEntity
  8
0
100
AcDbLine
 62
7
  6
CONTINUOUS
 10
162.9776047091
 20
182.1642022561
 11
162.7276049475
 21
181.6535640191
  0
LINE
  5
316
100
AcDbEntity
  8
0
100
AcDbLine
 62
7
  6
CONTINUOUS
 10
163.1026049475
 20
179.2280322146
 11
162.9776047091
 21
178.9727130961
  0
LINE
  5
317
100
AcDbEntity
  8
0
100
AcDbLine
 62
7
  6
CONTINUOUS
 10
163.2276051859
 20
181.2705853414
 11
163.4776049475
 21
181.6535640191
  0
LINE
  5
318
100
AcDbEntity
  8
0
100
AcDbLine
 62
7
  6
CONTINUOUS
 10
163.3526047091
 20
178.4620747696
 11
163.6026051859
 21
178.8450534474
  0
LINE
  5
319
100
AcDbEntity
  8
0
100
AcDbLine
 62
7
  6
CONTINUOUS
 10
162.7276049475
 20
181.6535640191
 11
162.4776048283
 21
181.3982449006
  0
LINE
  5
31A
100
AcDbEntity
  8
0
100
AcDbLine
 62
7
  6
CONTINUOUS
 10
162.9776047091
 20
178.9727130961
 11
162.7276049475
 21
178.7173938881
  0
LINE
  5
31B
100
AcDbEntity
  8
0
100
AcDbLine
 62
7
  6
CONTINUOUS
 10
162.7276049475
 20
180.8876066636
 11
163.2276051859
 21
181.2705853414
  0
LINE
  5
31C
100
AcDbEntity
  8
0
100
AcDbLine
 62
7
  6
CONTINUOUS
 10
162.9776047091
 20
178.2067556064
 11
163.3526047091
 21
178.4620747696
  0
LINE
  5
31D
100
AcDbEntity
  8
0
100
AcDbLine
 62
7
  6
CONTINUOUS
 10
162.4776048283
 20
177.9514364544
 11
162.9776047091
 21
178.2067556064
  0
LINE
  5
31E
100
AcDbEntity
  8
_30_VOLUMEN
100
AcDbLine
 62
7
  6
CONTINUOUS
 10
173.8276049475
 20
189.1387314602
 11
173.8276049475
 21
169.5088223078
  0
LINE
  5
31F
100
AcDbEntity
  8
0
100
AcDbLine
 62
7
  6
CONTINUOUS
 10
174.2276049475
 20
166.323776884
 11
174.2276049475
 21
148.323776884
  0
LINE
  5
320
100
AcDbEntity
  8
0
100
AcDbLine
 62
7
  6
CONTINUOUS
 10
177.172042044
 20
166.323776884
 11
177.172042044
 21
148.323776884
  0
LINE
  5
321
100
AcDbEntity
  8
_30_VOLUMEN
100
AcDbLine
 62
7
  6
CONTINUOUS
 10
177.9276049475
 20
189.1387314602
 11
177.9276049475
 21
169.5088223078
  0
LINE
  5
322
100
AcDbEntity
  8
RUNDUNGEN
100
AcDbLine
 62
7
  6
CONTINUOUS
 10
184.7276049475
 20
151.7739844222
 11
184.7276049475
 21
162.8735693458
  0
LINE
  5
323
100
AcDbEntity
  8
0
100
AcDbLine
 62
7
  6
CONTINUOUS
 10
169.0663259115
 20
156.9845775624
 11
163.8210444021
 21
153.706276619
  0
LINE
  5
324
100
AcDbEntity
  8
RUNDUNGEN
100
AcDbLine
 62
7
  6
CONTINUOUS
 10
184.0696250909
 20
150.8342918014
 11
177.172042044
 21
148.323776884
  0
LINE
  5
325
100
AcDbEntity
  8
0
100
AcDbLine
 62
7
  6
CONTINUOUS
 10
260.0719951729
 20
154.823776884
 11
260.4886617402
 21
154.9301598593
  0
LINE
  5
326
100
AcDbEntity
  8
0
100
AcDbLine
 62
7
  6
CONTINUOUS
 10
260.4886617402
 20
155.4620747547
 11
259.9678286056
 21
155.3556917887
  0
LINE
  5
327
100
AcDbEntity
  8
BEZUGSACHSEN
100
AcDbLine
 62
7
  6
CONTINUOUS
 10
235.6629915021
 20
153.6454759406
 11
236.1629915021
 21
153.6454759406
  0
LINE
  5
328
100
AcDbEntity
  8
0
100
AcDbLine
 62
7
  6
CONTINUOUS
 10
281.064332336
 20
153.6454759406
 11
281.564332336
 21
153.6454759406
  0
LINE
  5
329
100
AcDbEntity
  8
0
100
AcDbLine
 62
7
  6
CONTINUOUS
 10
256.3219951729
 20
154.823776884
 11
256.9469951729
 21
154.823776884
  0
LINE
  5
32A
100
AcDbEntity
  8
0
100
AcDbLine
 62
7
  6
CONTINUOUS
 10
259.2386617402
 20
154.823776884
 11
260.0719951729
 21
154.823776884
  0
LINE
  5
32B
100
AcDbEntity
  8
0
100
AcDbLine
 62
7
  6
CONTINUOUS
 10
259.9678286056
 20
155.3556917887
 11
259.3428286056
 21
155.3556917887
  0
LINE
  5
32C
100
AcDbEntity
  8
BEZUGSACHSEN
100
AcDbLine
 62
7
  6
CONTINUOUS
 10
235.902767568
 20
155.9904435507
 11
235.402767568
 21
155.9904435507
  0
LINE
  5
32D
100
AcDbEntity
  8
0
100
AcDbLine
 62
7
  6
CONTINUOUS
 10
281.32455627
 20
155.9904435507
 11
281.82455627
 21
155.9904435507
  0
LINE
  5
32E
100
AcDbEntity
  8
0
100
AcDbLine
 62
7
  6
CONTINUOUS
 10
258.3011617402
 20
155.9939896595
 11
257.7803284566
 21
155.9939896595
  0
LINE
  5
32F
100
AcDbEntity
  8
0
100
AcDbLine
 62
7
  6
CONTINUOUS
 10
259.4469951729
 20
157.1642024349
 11
259.8636617402
 21
157.1642024349
  0
LINE
  5
330
100
AcDbEntity
  8
0
100
AcDbLine
 62
7
  6
CONTINUOUS
 10
259.3428286056
 20
155.3556917887
 11
258.8219951729
 21
155.4620747547
  0
LINE
  5
331
100
AcDbEntity
  8
0
100
AcDbLine
 62
7
  6
CONTINUOUS
 10
258.8219951729
 20
154.9301598593
 11
259.2386617402
 21
154.823776884
  0
LINE
  5
332
100
AcDbEntity
  8
0
100
AcDbLine
 62
7
  6
CONTINUOUS
 10
258.9261617402
 20
159.1854790877
 11
259.4469951729
 21
159.2918620538
  0
LINE
  5
333
100
AcDbEntity
  8
0
100
AcDbLine
 62
7
  6
CONTINUOUS
 10
259.5511617402
 20
159.823776884
 11
258.8219951729
 21
159.717393918
  0
LINE
  5
334
100
AcDbEntity
  8
0
100
AcDbLine
 62
7
  6
CONTINUOUS
 10
259.8636617402
 20
157.5897342991
 11
259.4469951729
 21
157.5897342991
  0
LINE
  5
335
100
AcDbEntity
  8
0
100
AcDbLine
 62
7
  6
CONTINUOUS
 10
257.8844951729
 20
158.6535642575
 11
258.4053286056
 21
158.6535642575
  0
LINE
  5
336
100
AcDbEntity
  8
BEZUGSACHSEN
100
AcDbLine
 62
7
  6
CONTINUOUS
 10
235.902767568
 20
158.6571102173
 11
235.402767568
 21
158.6571102173
  0
LINE
  5
337
100
AcDbEntity
  8
0
100
AcDbLine
 62
7
  6
CONTINUOUS
 10
281.32455627
 20
158.6571102173
 11
281.82455627
 21
158.6571102173
  0
LINE
  5
338
100
AcDbEntity
  8
0
100
AcDbLine
 62
7
  6
CONTINUOUS
 10
259.4469951729
 20
159.2918620538
 11
259.8636617402
 21
159.2918620538
  0
LINE
  5
339
100
AcDbEntity
  8
0
100
AcDbLine
 62
7
  6
CONTINUOUS
 10
259.7594951729
 20
159.823776884
 11
259.5511617402
 21
159.823776884
  0
LINE
  5
33A
100
AcDbEntity
  8
0
100
AcDbLine
 62
7
  6
CONTINUOUS
 10
256.9469951729
 20
159.823776884
 11
256.3219951729
 21
159.823776884
  0
LINE
  5
33B
100
AcDbEntity
  8
BEZUGSACHSEN
100
AcDbLine
 62
7
  6
CONTINUOUS
 10
235.6629915021
 20
161.0020778274
 11
236.1629915021
 21
161.0020778274
  0
LINE
  5
33C
100
AcDbEntity
  8
0
100
AcDbLine
 62
7
  6
CONTINUOUS
 10
281.064332336
 20
161.0020778274
 11
281.564332336
 21
161.0020778274
  0
LINE
  5
33D
100
AcDbEntity
  8
0
100
AcDbLine
 62
7
  6
CONTINUOUS
 10
260.4886617402
 20
159.717393918
 11
259.7594951729
 21
159.823776884
  0
LINE
  5
33E
100
AcDbEntity
  8
0
100
AcDbLine
 62
7
  6
CONTINUOUS
 10
259.8636617402
 20
157.1642024349
 11
260.4886617402
 21
157.0578194689
  0
LINE
  5
33F
100
AcDbEntity
  8
0
100
AcDbLine
 62
7
  6
CONTINUOUS
 10
259.8636617402
 20
159.2918620538
 11
260.3844951729
 21
159.1854790877
  0
LINE
  5
340
100
AcDbEntity
  8
0
100
AcDbLine
 62
7
  6
CONTINUOUS
 10
261.2178283076
 20
157.1642024349
 11
260.6969951729
 21
157.376968367
  0
LINE
  5
341
100
AcDbEntity
  8
0
100
AcDbLine
 62
7
  6
CONTINUOUS
 10
258.4053286056
 20
155.1429258194
 11
258.8219951729
 21
154.9301598593
  0
LINE
  5
342
100
AcDbEntity
  8
0
100
AcDbLine
 62
7
  6
CONTINUOUS
 10
258.8219951729
 20
155.4620747547
 11
258.6136617402
 21
155.5684577208
  0
LINE
  5
343
100
AcDbEntity
  8
0
100
AcDbLine
 62
7
  6
CONTINUOUS
 10
264.1344946961
 20
165.0684577208
 11
263.7178284268
 21
164.9620747547
  0
LINE
  5
344
100
AcDbEntity
  8
0
100
AcDbLine
 62
7
  6
CONTINUOUS
 10
259.1344952921
 20
165.0684577208
 11
258.7178284268
 21
164.9620747547
  0
LINE
  5
345
100
AcDbEntity
  8
0
100
AcDbLine
 62
7
  6
CONTINUOUS
 10
263.7178284268
 20
164.323776884
 11
264.2386621575
 21
164.4301598593
  0
LINE
  5
346
100
AcDbEntity
  8
0
100
AcDbLine
 62
7
  6
CONTINUOUS
 10
258.7178284268
 20
164.323776884
 11
259.2386615614
 21
164.4301598593
  0
LINE
  5
347
100
AcDbEntity
  8
0
100
AcDbLine
 62
7
  6
CONTINUOUS
 10
251.8428284268
 20
164.323776884
 11
252.4678284268
 21
164.323776884
  0
LINE
  5
348
100
AcDbEntity
  8
0
100
AcDbLine
 62
7
  6
CONTINUOUS
 10
255.0719949941
 20
164.323776884
 11
255.8011618594
 21
164.323776884
  0
LINE
  5
349
100
AcDbEntity
  8
0
100
AcDbLine
 62
7
  6
CONTINUOUS
 10
258.3011615614
 20
164.323776884
 11
258.7178284268
 21
164.323776884
  0
LINE
  5
34A
100
AcDbEntity
  8
0
100
AcDbLine
 62
7
  6
CONTINUOUS
 10
261.2178284268
 20
164.323776884
 11
263.7178284268
 21
164.323776884
  0
LINE
  5
34B
100
AcDbEntity
  8
0
100
AcDbLine
 62
7
  6
CONTINUOUS
 10
263.7178284268
 20
164.9620747547
 11
261.8428284268
 21
164.9620747547
  0
LINE
  5
34C
100
AcDbEntity
  8
0
100
AcDbLine
 62
7
  6
CONTINUOUS
 10
258.7178284268
 20
164.9620747547
 11
258.3011615614
 21
164.9620747547
  0
LINE
  5
34D
100
AcDbEntity
  8
0
100
AcDbLine
 62
7
  6
CONTINUOUS
 10
252.4678284268
 20
166.5578194689
 11
254.2386617104
 21
166.5578194689
  0
LINE
  5
34E
100
AcDbEntity
  8
0
100
AcDbLine
 62
7
  6
CONTINUOUS
 10
254.4469949941
 20
167.1961172651
 11
252.4678284268
 21
167.1961172651
  0
LINE
  5
34F
100
AcDbEntity
  8
0
100
AcDbLine
 62
7
  6
CONTINUOUS
 10
257.7803284268
 20
164.4301598593
 11
258.3011615614
 21
164.323776884
  0
LINE
  5
350
100
AcDbEntity
  8
0
100
AcDbLine
 62
7
  6
CONTINUOUS
 10
258.3011615614
 20
164.9620747547
 11
257.8844952921
 21
165.0684577208
  0
LINE
  5
351
100
AcDbEntity
  8
0
100
AcDbLine
 62
7
  6
CONTINUOUS
 10
260.9053283076
 20
159.5046279859
 11
260.4886617402
 21
159.717393918
  0
LINE
  5
352
100
AcDbEntity
  8
0
100
AcDbLine
 62
7
  6
CONTINUOUS
 10
258.0928284566
 20
155.3556917887
 11
258.4053286056
 21
155.1429258194
  0
LINE
  5
353
100
AcDbEntity
  8
0
100
AcDbLine
 62
7
  6
CONTINUOUS
 10
260.4886617402
 20
157.0578194689
 11
260.8011620382
 21
156.8450535368
  0
LINE
  5
354
100
AcDbEntity
  8
0
100
AcDbLine
 62
7
  6
CONTINUOUS
 10
260.3844951729
 20
159.1854790877
 11
260.6969951729
 21
158.9727131557
  0
LINE
  5
355
100
AcDbEntity
  8
BEZUGSACHSEN
100
AcDbLine
 62
7
  6
CONTINUOUS
 10
224.613661919
 20
238.9592395359
 11
224.613661919
 21
267.323776884
  0
LINE
  5
356
100
AcDbEntity
  8
0
100
AcDbLine
 62
7
  6
CONTINUOUS
 10
261.8428284268
 20
168.6854790877
 11
263.7178284268
 21
168.6854790877
  0
LINE
  5
357
100
AcDbEntity
  8
0
100
AcDbLine
 62
7
  6
CONTINUOUS
 10
252.4678284268
 20
168.7918620538
 11
254.4469949941
 21
168.7918620538
  0
LINE
  5
358
100
AcDbEntity
  8
0
100
AcDbLine
 62
7
  6
CONTINUOUS
 10
263.7178284268
 20
169.323776884
 11
261.2178284268
 21
169.323776884
  0
LINE
  5
359
100
AcDbEntity
  8
0
100
AcDbLine
 62
7
  6
CONTINUOUS
 10
260.3844952921
 20
169.323776884
 11
259.7594952921
 21
169.323776884
  0
LINE
  5
35A
100
AcDbEntity
  8
0
100
AcDbLine
 62
7
  6
CONTINUOUS
 10
257.2594952921
 20
169.323776884
 11
256.6344949941
 21
169.323776884
  0
LINE
  5
35B
100
AcDbEntity
  8
0
100
AcDbLine
 62
7
  6
CONTINUOUS
 10
254.3428284268
 20
169.323776884
 11
251.8428284268
 21
169.323776884
  0
LINE
  5
35C
100
AcDbEntity
  8
0
100
AcDbLine
 62
7
  6
CONTINUOUS
 10
254.8636618594
 20
169.217393918
 11
254.3428284268
 21
169.323776884
  0
LINE
  5
35D
100
AcDbEntity
  8
0
100
AcDbLine
 62
7
  6
CONTINUOUS
 10
264.2386621575
 20
169.217393918
 11
263.7178284268
 21
169.323776884
  0
LINE
  5
35E
100
AcDbEntity
  8
0
100
AcDbLine
 62
7
  6
CONTINUOUS
 10
263.7178284268
 20
168.6854790877
 11
264.1344946961
 21
168.5790961217
  0
LINE
  5
35F
100
AcDbEntity
  8
0
100
AcDbLine
 62
7
  6
CONTINUOUS
 10
254.4469949941
 20
168.7918620538
 11
254.7594949941
 21
168.6854790877
  0
LINE
  5
360
100
AcDbEntity
  8
0
100
AcDbLine
 62
7
  6
CONTINUOUS
 10
257.3636615614
 20
164.6429258194
 11
257.7803284268
 21
164.4301598593
  0
LINE
  5
361
100
AcDbEntity
  8
0
100
AcDbLine
 62
7
  6
CONTINUOUS
 10
257.8844952921
 20
165.0684577208
 11
257.5719952921
 21
165.2812237274
  0
LINE
  5
362
100
AcDbEntity
  8
0
100
AcDbLine
 62
7
  6
CONTINUOUS
 10
258.6136617402
 20
155.5684577208
 11
258.4053286056
 21
155.7812237274
  0
LINE
  5
363
100
AcDbEntity
  8
0
100
AcDbLine
 62
7
  6
CONTINUOUS
 10
264.6553284268
 20
169.0046279859
 11
264.2386621575
 21
169.217393918
  0
LINE
  5
364
100
AcDbEntity
  8
0
100
AcDbLine
 62
7
  6
CONTINUOUS
 10
264.1344946961
 20
168.5790961217
 11
264.4469946961
 21
168.3663301896
  0
LINE
  5
365
100
AcDbEntity
  8
0
100
AcDbLine
 62
7
  6
CONTINUOUS
 10
255.2803284268
 20
168.8982450198
 11
254.8636618594
 21
169.217393918
  0
LINE
  5
366
100
AcDbEntity
  8
0
100
AcDbLine
 62
7
  6
CONTINUOUS
 10
261.3219951729
 20
159.0790961217
 11
260.9053283076
 21
159.5046279859
  0
LINE
  5
367
100
AcDbEntity
  8
0
100
AcDbLine
 62
7
  6
CONTINUOUS
 10
256.9469952921
 20
165.0684577208
 11
257.3636615614
 21
164.6429258194
  0
LINE
  5
368
100
AcDbEntity
  8
0
100
AcDbLine
 62
7
  6
CONTINUOUS
 10
254.7594949941
 20
168.6854790877
 11
254.9678284268
 21
168.4727131557
  0
LINE
  5
369
100
AcDbEntity
  8
0
100
AcDbLine
 62
7
  6
CONTINUOUS
 10
257.8844951729
 20
155.6748406868
 11
258.0928284566
 21
155.3556917887
  0
LINE
  5
36A
100
AcDbEntity
  8
0
100
AcDbLine
 62
7
  6
CONTINUOUS
 10
272.6156229357
 20
177.823776884
 11
273.113661919
 21
177.823776884
  0
LINE
  5
36B
100
AcDbEntity
  8
0
100
AcDbLine
 62
7
  6
CONTINUOUS
 10
272.613661919
 20
181.9088831376
 11
273.113661919
 21
181.9088831376
  0
LINE
  5
36C
100
AcDbEntity
  8
0
100
AcDbLine
 62
7
  6
CONTINUOUS
 10
255.5928284268
 20
168.4727131557
 11
255.2803284268
 21
168.8982450198
  0
LINE
  5
36D
100
AcDbEntity
  8
0
100
AcDbLine
 62
7
  6
CONTINUOUS
 10
261.4261620382
 20
156.8450535368
 11
261.2178283076
 21
157.1642024349
  0
LINE
  5
36E
100
AcDbEntity
  8
0
100
AcDbLine
 62
7
  6
CONTINUOUS
 10
260.6969951729
 20
158.9727131557
 11
260.9053283076
 21
158.6535642575
  0
LINE
  5
36F
100
AcDbEntity
  8
0
100
AcDbLine
 62
7
  6
CONTINUOUS
 10
257.5719952921
 20
165.2812237274
 11
257.3636615614
 21
165.6003726255
  0
LINE
  5
370
100
AcDbEntity
  8
0
100
AcDbLine
 62
7
  6
CONTINUOUS
 10
258.4053286056
 20
155.7812237274
 11
258.3011617402
 21
155.9939896595
  0
LINE
  5
371
100
AcDbEntity
  8
0
100
AcDbLine
 62
7
  6
CONTINUOUS
 10
272.613661919
 20
182.9301599692
 11
273.113661919
 21
182.9301599692
  0
LINE
  5
372
100
AcDbEntity
  8
0
100
AcDbLine
 62
7
  6
CONTINUOUS
 10
272.613661919
 20
183.823776884
 11
273.113661919
 21
183.823776884
  0
LINE
  5
373
100
AcDbEntity
  8
0
100
AcDbLine
 62
7
  6
CONTINUOUS
 10
267.113661919
 20
184.323776884
 11
267.613661919
 21
184.323776884
  0
LINE
  5
374
100
AcDbEntity
  8
0
100
AcDbLine
 62
7
  6
CONTINUOUS
 10
267.113661919
 20
184.4487768877
 11
267.613661919
 21
184.4487768877
  0
LINE
  5
375
100
AcDbEntity
  8
0
100
AcDbLine
 62
7
  6
CONTINUOUS
 10
267.113661919
 20
184.698776884
 11
267.613661919
 21
184.698776884
  0
LINE
  5
376
100
AcDbEntity
  8
0
100
AcDbLine
 62
7
  6
CONTINUOUS
 10
267.113661919
 20
185.1987768542
 11
267.613661919
 21
185.1987768542
  0
LINE
  5
377
100
AcDbEntity
  8
0
100
AcDbLine
 62
7
  6
CONTINUOUS
 10
267.113661919
 20
185.6987769138
 11
267.613661919
 21
185.6987769138
  0
LINE
  5
378
100
AcDbEntity
  8
0
100
AcDbLine
 62
7
  6
CONTINUOUS
 10
250.113661919
 20
186.198776884
 11
249.613661919
 21
186.198776884
  0
LINE
  5
379
100
AcDbEntity
  8
0
100
AcDbLine
 62
7
  6
CONTINUOUS
 10
250.113661919
 20
186.3237764072
 11
249.613661919
 21
186.3237764072
  0
LINE
  5
37A
100
AcDbEntity
  8
0
100
AcDbLine
 62
7
  6
CONTINUOUS
 10
267.113661919
 20
186.3237769436
 11
267.613661919
 21
186.3237769436
  0
LINE
  5
37B
100
AcDbEntity
  8
0
100
AcDbLine
 62
7
  6
CONTINUOUS
 10
250.113661919
 20
186.573776884
 11
249.613661919
 21
186.573776884
  0
LINE
  5
37C
100
AcDbEntity
  8
0
100
AcDbLine
 62
7
  6
CONTINUOUS
 10
250.113661919
 20
187.0737764072
 11
249.613661919
 21
187.0737764072
  0
LINE
  5
37D
100
AcDbEntity
  8
0
100
AcDbLine
 62
7
  6
CONTINUOUS
 10
267.113661919
 20
187.4487767648
 11
267.613661919
 21
187.4487767648
  0
LINE
  5
37E
100
AcDbEntity
  8
0
100
AcDbLine
 62
7
  6
CONTINUOUS
 10
250.113661919
 20
187.5737759303
 11
249.613661919
 21
187.5737759303
  0
LINE
  5
37F
100
AcDbEntity
  8
0
100
AcDbLine
 62
7
  6
CONTINUOUS
 10
265.0719946961
 20
168.5790961217
 11
264.6553284268
 21
169.0046279859
  0
LINE
  5
380
100
AcDbEntity
  8
0
100
AcDbLine
 62
7
  6
CONTINUOUS
 10
260.8011620382
 20
156.8450535368
 11
261.0094951729
 21
156.4195215236
  0
LINE
  5
381
100
AcDbEntity
  8
0
100
AcDbLine
 62
7
  6
CONTINUOUS
 10
256.7386618594
 20
165.4939896595
 11
256.9469952921
 21
165.0684577208
  0
LINE
  5
382
100
AcDbEntity
  8
0
100
AcDbLine
 62
7
  6
CONTINUOUS
 10
255.8011618594
 20
164.323776884
 11
254.8636618594
 21
166.770585401
  0
LINE
  5
383
100
AcDbEntity
  8
0
100
AcDbLine
 62
7
  6
CONTINUOUS
 10
254.2386617104
 20
166.5578194689
 11
255.0719949941
 21
164.323776884
  0
LINE
  5
384
100
AcDbEntity
  8
0
100
AcDbLine
 62
7
  6
CONTINUOUS
 10
257.7803284566
 20
155.9939896595
 11
257.8844951729
 21
155.6748406868
  0
LINE
  5
385
100
AcDbEntity
  8
BEZUGSACHSEN
100
AcDbLine
 62
7
  6
CONTINUOUS
 10
244.613661919
 20
177.9771664363
 11
244.613661919
 21
185.323776884
  0
LINE
  5
386
100
AcDbEntity
  8
_30_VOLUMEN
100
AcDbLine
 62
7
  6
CONTINUOUS
 10
246.1764079858
 20
250.323776884
 11
246.1764079858
 21
251.323776884
  0
LINE
  5
387
100
AcDbEntity
  8
0
100
AcDbLine
 62
7
  6
CONTINUOUS
 10
267.113661919
 20
188.073776884
 11
267.613661919
 21
188.073776884
  0
LINE
  5
388
100
AcDbEntity
  8
0
100
AcDbLine
 62
7
  6
CONTINUOUS
 10
250.113661919
 20
188.1987764072
 11
249.613661919
 21
188.1987764072
  0
LINE
  5
389
100
AcDbEntity
  8
0
100
AcDbLine
 62
7
  6
CONTINUOUS
 10
267.113661919
 20
188.5737767648
 11
267.613661919
 21
188.5737767648
  0
LINE
  5
38A
100
AcDbEntity
  8
0
100
AcDbLine
 62
7
  6
CONTINUOUS
 10
267.113661919
 20
189.0737770032
 11
267.613661919
 21
189.0737770032
  0
LINE
  5
38B
100
AcDbEntity
  8
0
100
AcDbLine
 62
7
  6
CONTINUOUS
 10
267.113661919
 20
189.198776884
 11
267.613661919
 21
189.198776884
  0
LINE
  5
38C
100
AcDbEntity
  8
0
100
AcDbLine
 62
7
  6
CONTINUOUS
 10
267.113661919
 20
190.1987770032
 11
267.613661919
 21
190.1987770032
  0
LINE
  5
38D
100
AcDbEntity
  8
0
100
AcDbLine
 62
7
  6
CONTINUOUS
 10
267.113661919
 20
190.323776884
 11
267.613661919
 21
190.323776884
  0
LINE
  5
38E
100
AcDbEntity
  8
0
100
AcDbLine
 62
7
  6
CONTINUOUS
 10
267.113661919
 20
190.5737766456
 11
267.613661919
 21
190.5737766456
  0
LINE
  5
38F
100
AcDbEntity
  8
0
100
AcDbLine
 62
7
  6
CONTINUOUS
 10
267.113661919
 20
191.073776884
 11
267.613661919
 21
191.073776884
  0
LINE
  5
390
100
AcDbEntity
  8
0
100
AcDbLine
 62
7
  6
CONTINUOUS
 10
250.113661919
 20
191.1987764072
 11
249.613661919
 21
191.1987764072
  0
LINE
  5
391
100
AcDbEntity
  8
0
100
AcDbLine
 62
7
  6
CONTINUOUS
 10
267.113661919
 20
191.5737771224
 11
267.613661919
 21
191.5737771224
  0
LINE
  5
392
100
AcDbEntity
  8
0
100
AcDbLine
 62
7
  6
CONTINUOUS
 10
250.113661919
 20
192.1987761687
 11
249.613661919
 21
192.1987761687
  0
LINE
  5
393
100
AcDbEntity
  8
0
100
AcDbLine
 62
7
  6
CONTINUOUS
 10
267.113661919
 20
192.198776884
 11
267.613661919
 21
192.198776884
  0
LINE
  5
394
100
AcDbEntity
  8
0
100
AcDbLine
 62
7
  6
CONTINUOUS
 10
250.113661919
 20
192.9487761687
 11
249.613661919
 21
192.9487761687
  0
LINE
  5
395
100
AcDbEntity
  8
0
100
AcDbLine
 62
7
  6
CONTINUOUS
 10
264.4469946961
 20
168.3663301896
 11
264.6553284268
 21
168.0471809935
  0
LINE
  5
396
100
AcDbEntity
  8
0
100
AcDbLine
 62
7
  6
CONTINUOUS
 10
254.9678284268
 20
168.4727131557
 11
255.0719949941
 21
168.1535642575
  0
LINE
  5
397
100
AcDbEntity
  8
0
100
AcDbLine
 62
7
  6
CONTINUOUS
 10
255.6969949941
 20
168.1535642575
 11
255.5928284268
 21
168.4727131557
  0
LINE
  5
398
100
AcDbEntity
  8
0
100
AcDbLine
 62
7
  6
CONTINUOUS
 10
257.3636615614
 20
165.6003726255
 11
257.2594952921
 21
166.0259044897
  0
LINE
  5
399
100
AcDbEntity
  8
BEZUGSACHSEN
100
AcDbLine
 62
7
  6
CONTINUOUS
 10
250.1132361473
 20
208.3732856375
 11
250.1136611612
 21
208.3305502251
  0
LINE
  5
39A
100
AcDbEntity
  8
0
100
AcDbLine
 62
7
  6
CONTINUOUS
 10
249.613661919
 20
186.198776884
 11
249.613661919
 21
191.1987764072
  0
LINE
  5
39B
100
AcDbEntity
  8
0
100
AcDbLine
 62
7
  6
CONTINUOUS
 10
249.613661919
 20
192.1987761687
 11
249.613661919
 21
196.6987765264
  0
LINE
  5
39C
100
AcDbEntity
  8
0
100
AcDbLine
 62
7
  6
CONTINUOUS
 10
249.613661919
 20
197.6987762879
 11
249.613661919
 21
202.4487764072
  0
LINE
  5
39D
100
AcDbEntity
  8
BEZUGSACHSEN
100
AcDbLine
 62
7
  6
CONTINUOUS
 10
250.113661919
 20
220.3950440478
 11
250.113661919
 21
182.1494188696
  0
LINE
  5
39E
100
AcDbEntity
  8
_30_VOLUMEN
100
AcDbLine
 62
7
  6
CONTINUOUS
 10
251.463661919
 20
234.973776884
 11
251.463661919
 21
265.7754326947
  0
LINE
  5
39F
100
AcDbEntity
  8
0
100
AcDbLine
 62
7
  6
CONTINUOUS
 10
251.8428284268
 20
169.323776884
 11
251.8428284268
 21
164.323776884
  0
LINE
  5
3A0
100
AcDbEntity
  8
0
100
AcDbLine
 62
7
  6
CONTINUOUS
 10
252.4678284268
 20
164.323776884
 11
252.4678284268
 21
166.5578194689
  0
LINE
  5
3A1
100
AcDbEntity
  8
0
100
AcDbLine
 62
7
  6
CONTINUOUS
 10
252.4678284268
 20
167.1961172651
 11
252.4678284268
 21
168.7918620538
  0
LINE
  5
3A2
100
AcDbEntity
  8
0
100
AcDbLine
 62
7
  6
CONTINUOUS
 10
250.113661919
 20
193.0737764072
 11
249.613661919
 21
193.0737764072
  0
LINE
  5
3A3
100
AcDbEntity
  8
0
100
AcDbLine
 62
7
  6
CONTINUOUS
 10
250.113661919
 20
193.3237761687
 11
249.613661919
 21
193.3237761687
  0
LINE
  5
3A4
100
AcDbEntity
  8
0
100
AcDbLine
 62
7
  6
CONTINUOUS
 10
267.113661919
 20
193.323776884
 11
267.613661919
 21
193.323776884
  0
LINE
  5
3A5
100
AcDbEntity
  8
0
100
AcDbLine
 62
7
  6
CONTINUOUS
 10
250.113661919
 20
193.6987761687
 11
249.613661919
 21
193.6987761687
  0
LINE
  5
3A6
100
AcDbEntity
  8
0
100
AcDbLine
 62
7
  6
CONTINUOUS
 10
267.113661919
 20
193.9487766456
 11
267.613661919
 21
193.9487766456
  0
LINE
  5
3A7
100
AcDbEntity
  8
0
100
AcDbLine
 62
7
  6
CONTINUOUS
 10
250.113661919
 20
194.1987764072
 11
249.613661919
 21
194.1987764072
  0
LINE
  5
3A8
100
AcDbEntity
  8
0
100
AcDbLine
 62
7
  6
CONTINUOUS
 10
267.113661919
 20
194.448776884
 11
267.613661919
 21
194.448776884
  0
LINE
  5
3A9
100
AcDbEntity
  8
0
100
AcDbLine
 62
7
  6
CONTINUOUS
 10
250.113661919
 20
194.6987766456
 11
249.613661919
 21
194.6987766456
  0
LINE
  5
3AA
100
AcDbEntity
  8
0
100
AcDbLine
 62
7
  6
CONTINUOUS
 10
267.113661919
 20
194.9487771224
 11
267.613661919
 21
194.9487771224
  0
LINE
  5
3AB
100
AcDbEntity
  8
0
100
AcDbLine
 62
7
  6
CONTINUOUS
 10
267.113661919
 20
195.0737766456
 11
267.613661919
 21
195.0737766456
  0
LINE
  5
3AC
100
AcDbEntity
  8
0
100
AcDbLine
 62
7
  6
CONTINUOUS
 10
250.113661919
 20
195.1987761687
 11
249.613661919
 21
195.1987761687
  0
LINE
  5
3AD
100
AcDbEntity
  8
0
100
AcDbLine
 62
7
  6
CONTINUOUS
 10
250.113661919
 20
195.5737761687
 11
249.613661919
 21
195.5737761687
  0
LINE
  5
3AE
100
AcDbEntity
  8
0
100
AcDbLine
 62
7
  6
CONTINUOUS
 10
250.113661919
 20
195.8237766456
 11
249.613661919
 21
195.8237766456
  0
LINE
  5
3AF
100
AcDbEntity
  8
0
100
AcDbLine
 62
7
  6
CONTINUOUS
 10
250.113661919
 20
195.9487761687
 11
249.613661919
 21
195.9487761687
  0
LINE
  5
3B0
100
AcDbEntity
  8
0
100
AcDbLine
 62
7
  6
CONTINUOUS
 10
267.113661919
 20
196.0737771224
 11
267.613661919
 21
196.0737771224
  0
LINE
  5
3B1
100
AcDbEntity
  8
0
100
AcDbLine
 62
7
  6
CONTINUOUS
 10
267.113661919
 20
196.4487764072
 11
267.613661919
 21
196.4487764072
  0
LINE
  5
3B2
100
AcDbEntity
  8
0
100
AcDbLine
 62
7
  6
CONTINUOUS
 10
267.113661919
 20
196.5737773608
 11
267.613661919
 21
196.5737773608
  0
LINE
  5
3B3
100
AcDbEntity
  8
0
100
AcDbLine
 62
7
  6
CONTINUOUS
 10
250.113661919
 20
196.6987765264
 11
249.613661919
 21
196.6987765264
  0
LINE
  5
3B4
100
AcDbEntity
  8
0
100
AcDbLine
 62
7
  6
CONTINUOUS
 10
267.113661919
 20
197.073776884
 11
267.613661919
 21
197.073776884
  0
LINE
  5
3B5
100
AcDbEntity
  8
0
100
AcDbLine
 62
7
  6
CONTINUOUS
 10
267.113661919
 20
197.5737764072
 11
267.613661919
 21
197.5737764072
  0
LINE
  5
3B6
100
AcDbEntity
  8
0
100
AcDbLine
 62
7
  6
CONTINUOUS
 10
250.113661919
 20
197.6987762879
 11
249.613661919
 21
197.6987762879
  0
LINE
  5
3B7
100
AcDbEntity
  8
0
100
AcDbLine
 62
7
  6
CONTINUOUS
 10
250.113661919
 20
197.8237765264
 11
249.613661919
 21
197.8237765264
  0
LINE
  5
3B8
100
AcDbEntity
  8
0
100
AcDbLine
 62
7
  6
CONTINUOUS
 10
250.113661919
 20
197.9487764072
 11
249.613661919
 21
197.9487764072
  0
LINE
  5
3B9
100
AcDbEntity
  8
0
100
AcDbLine
 62
7
  6
CONTINUOUS
 10
265.2803284268
 20
168.1535642575
 11
265.0719946961
 21
168.5790961217
  0
LINE
  5
3BA
100
AcDbEntity
  8
0
100
AcDbLine
 62
7
  6
CONTINUOUS
 10
261.5303283076
 20
156.4195215236
 11
261.4261620382
 21
156.8450535368
  0
LINE
  5
3BB
100
AcDbEntity
  8
0
100
AcDbLine
 62
7
  6
CONTINUOUS
 10
261.4261620382
 20
158.6535642575
 11
261.3219951729
 21
159.0790961217
  0
LINE
  5
3BC
100
AcDbEntity
  8
0
100
AcDbLine
 62
7
  6
CONTINUOUS
 10
256.6344949941
 20
166.0259044897
 11
256.7386618594
 21
165.4939896595
  0
LINE
  5
3BD
100
AcDbEntity
  8
0
100
AcDbLine
 62
7
  6
CONTINUOUS
 10
255.0719949941
 20
168.1535642575
 11
255.0719949941
 21
167.8344150614
  0
LINE
  5
3BE
100
AcDbEntity
  8
0
100
AcDbLine
 62
7
  6
CONTINUOUS
 10
255.6969949941
 20
167.7280320953
 11
255.6969949941
 21
168.1535642575
  0
LINE
  5
3BF
100
AcDbEntity
  8
0
100
AcDbLine
 62
7
  6
CONTINUOUS
 10
255.6969951729
 20
159.0790961217
 11
255.6969951729
 21
158.2280320953
  0
LINE
  5
3C0
100
AcDbEntity
  8
0
100
AcDbLine
 62
7
  6
CONTINUOUS
 10
256.3219951729
 20
158.9727131557
 11
256.3219951729
 21
154.823776884
  0
LINE
  5
3C1
100
AcDbEntity
  8
0
100
AcDbLine
 62
7
  6
CONTINUOUS
 10
256.6344949941
 20
169.323776884
 11
256.6344949941
 21
166.0259044897
  0
LINE
  5
3C2
100
AcDbEntity
  8
0
100
AcDbLine
 62
7
  6
CONTINUOUS
 10
256.9469951729
 20
154.823776884
 11
256.9469951729
 21
159.823776884
  0
LINE
  5
3C3
100
AcDbEntity
  8
0
100
AcDbLine
 62
7
  6
CONTINUOUS
 10
257.2594952921
 20
166.0259044897
 11
257.2594952921
 21
169.323776884
  0
LINE
  5
3C4
100
AcDbEntity
  8
_21_KURVEN
100
AcDbLine
 62
4
  6
CONTINUOUS
 10
258.613661919
 20
238.3405862875
 11
258.613661919
 21
265.3149318809
  0
LINE
  5
3C5
100
AcDbEntity
  8
RUNDUNGEN
100
AcDbLine
 62
7
  6
CONTINUOUS
 10
268.4305319264
 20
210.5633461951
 11
280.113661919
 21
217.3086044413
  0
LINE
  5
3C6
100
AcDbEntity
  8
0
100
AcDbLine
 62
7
  6
CONTINUOUS
 10
267.113661919
 20
198.0737773608
 11
267.613661919
 21
198.0737773608
  0
LINE
  5
3C7
100
AcDbEntity
  8
0
100
AcDbLine
 62
7
  6
CONTINUOUS
 10
250.113661919
 20
198.3237764072
 11
249.613661919
 21
198.3237764072
  0
LINE
  5
3C8
100
AcDbEntity
  8
0
100
AcDbLine
 62
7
  6
CONTINUOUS
 10
267.113661919
 20
198.6987764072
 11
267.613661919
 21
198.6987764072
  0
LINE
  5
3C9
100
AcDbEntity
  8
0
100
AcDbLine
 62
7
  6
CONTINUOUS
 10
250.113661919
 20
198.8237762879
 11
249.613661919
 21
198.8237762879
  0
LINE
  5
3CA
100
AcDbEntity
  8
0
100
AcDbLine
 62
7
  6
CONTINUOUS
 10
267.113661919
 20
199.323776884
 11
267.613661919
 21
199.323776884
  0
LINE
  5
3CB
100
AcDbEntity
  8
0
100
AcDbLine
 62
7
  6
CONTINUOUS
 10
250.113661919
 20
199.4487764072
 11
249.613661919
 21
199.4487764072
  0
LINE
  5
3CC
100
AcDbEntity
  8
0
100
AcDbLine
 62
7
  6
CONTINUOUS
 10
267.113661919
 20
199.8237764072
 11
267.613661919
 21
199.8237764072
  0
LINE
  5
3CD
100
AcDbEntity
  8
0
100
AcDbLine
 62
7
  6
CONTINUOUS
 10
267.113661919
 20
200.1987764072
 11
267.613661919
 21
200.1987764072
  0
LINE
  5
3CE
100
AcDbEntity
  8
0
100
AcDbLine
 62
7
  6
CONTINUOUS
 10
267.113661919
 20
200.3237773608
 11
267.613661919
 21
200.3237773608
  0
LINE
  5
3CF
100
AcDbEntity
  8
0
100
AcDbLine
 62
7
  6
CONTINUOUS
 10
267.113661919
 20
200.448776884
 11
267.613661919
 21
200.448776884
  0
LINE
  5
3D0
100
AcDbEntity
  8
0
100
AcDbLine
 62
7
  6
CONTINUOUS
 10
267.113661919
 20
200.6987773608
 11
267.613661919
 21
200.6987773608
  0
LINE
  5
3D1
100
AcDbEntity
  8
0
100
AcDbLine
 62
7
  6
CONTINUOUS
 10
250.113661919
 20
202.4487764072
 11
249.613661919
 21
202.4487764072
  0
LINE
  5
3D2
100
AcDbEntity
  8
0
100
AcDbLine
 62
7
  6
CONTINUOUS
 10
264.6553284268
 20
168.0471809935
 11
264.7594946961
 21
167.6216491293
  0
LINE
  5
3D3
100
AcDbEntity
  8
0
100
AcDbLine
 62
7
  6
CONTINUOUS
 10
265.3844946961
 20
167.6216491293
 11
265.2803284268
 21
168.1535642575
  0
LINE
  5
3D4
100
AcDbEntity
  8
0
100
AcDbLine
 62
7
  6
CONTINUOUS
 10
259.4469951729
 20
157.5897342991
 11
259.4469951729
 21
157.1642024349
  0
LINE
  5
3D5
100
AcDbEntity
  8
0
100
AcDbLine
 62
7
  6
CONTINUOUS
 10
259.7594952921
 20
169.323776884
 11
259.7594952921
 21
166.0259044897
  0
LINE
  5
3D6
100
AcDbEntity
  8
0
100
AcDbLine
 62
7
  6
CONTINUOUS
 10
260.3844952921
 20
166.0259044897
 11
260.3844952921
 21
169.323776884
  0
LINE
  5
3D7
100
AcDbEntity
  8
0
100
AcDbLine
 62
7
  6
CONTINUOUS
 10
260.9053283076
 20
158.6535642575
 11
260.9053283076
 21
158.4407980274
  0
LINE
  5
3D8
100
AcDbEntity
  8
0
100
AcDbLine
 62
7
  6
CONTINUOUS
 10
261.0094951729
 20
156.4195215236
 11
261.0094951729
 21
155.9939896595
  0
LINE
  5
3D9
100
AcDbEntity
  8
0
100
AcDbLine
 62
7
  6
CONTINUOUS
 10
261.2178284268
 20
169.323776884
 11
261.2178284268
 21
164.323776884
  0
LINE
  5
3DA
100
AcDbEntity
  8
0
100
AcDbLine
 62
7
  6
CONTINUOUS
 10
261.4261620382
 20
158.4407980274
 11
261.4261620382
 21
158.6535642575
  0
LINE
  5
3DB
100
AcDbEntity
  8
0
100
AcDbLine
 62
7
  6
CONTINUOUS
 10
261.5303283076
 20
155.9939896595
 11
261.5303283076
 21
156.4195215236
  0
LINE
  5
3DC
100
AcDbEntity
  8
0
100
AcDbLine
 62
7
  6
CONTINUOUS
 10
261.8428284268
 20
164.9620747547
 11
261.8428284268
 21
168.6854790877
  0
LINE
  5
3DD
100
AcDbEntity
  8
BEZUGSACHSEN
100
AcDbLine
 62
7
  6
CONTINUOUS
 10
248.7967919117
 20
210.5633461951
 11
237.113661919
 21
217.3086044413
  0
LINE
  5
3DE
100
AcDbEntity
  8
BEZUGSACHSEN
100
AcDbLine
 62
7
  6
CONTINUOUS
 10
248.7968402747
 20
210.5633182654
 11
248.8557730684
 21
210.5282724737
  0
LWPOLYLINE
  5
3DF
100
AcDbEntity
  8
BEZUGSACHSEN
100
AcDbPolyline
 62
7
  6
CONTINUOUS
 90
14
 70
0
 10
248.8555265923
 20
210.528423357
 10
249.0290107855
 20
210.4126614646
 10
249.1937111048
 20
210.2829880366
 10
249.3490000232
 20
210.1394483666
 10
249.4930557481
 20
209.983235741
 10
249.6233360239
 20
209.8171232993
 10
249.7392489469
 20
209.642308888
 10
249.8401687301
 20
209.4602300222
 10
249.9246291369
 20
209.2747881856
 10
249.9929503843
 20
209.087460018
 10
250.0454383087
 20
208.9000042778
 10
250.082085496
 20
208.7171554993
 10
250.1041298111
 20
208.5415299532
 10
250.1132335889
 20
208.3734196324
  0
LINE
  5
3E0
100
AcDbEntity
  8
0
100
AcDbLine
 62
7
  6
CONTINUOUS
 10
264.7594946961
 20
167.6216491293
 11
264.7594946961
 21
166.0259044897
  0
LINE
  5
3E1
100
AcDbEntity
  8
0
100
AcDbLine
 62
7
  6
CONTINUOUS
 10
265.3844946961
 20
166.0259044897
 11
265.3844946961
 21
167.6216491293
  0
LINE
  5
3E2
100
AcDbEntity
  8
_30_VOLUMEN
100
AcDbLine
 62
7
  6
CONTINUOUS
 10
265.763661919
 20
234.973776884
 11
265.763661919
 21
265.7754326947
  0
LINE
  5
3E3
100
AcDbEntity
  8
RUNDUNGEN
100
AcDbLine
 62
7
  6
CONTINUOUS
 10
267.113661919
 20
220.3950440478
 11
267.113661919
 21
182.1494188696
  0
LINE
  5
3E4
100
AcDbEntity
  8
0
100
AcDbLine
 62
7
  6
CONTINUOUS
 10
267.613661919
 20
200.6987773608
 11
267.613661919
 21
196.0737771224
  0
LINE
  5
3E5
100
AcDbEntity
  8
0
100
AcDbLine
 62
7
  6
CONTINUOUS
 10
267.613661919
 20
195.0737766456
 11
267.613661919
 21
190.1987770032
  0
LINE
  5
3E6
100
AcDbEntity
  8
0
100
AcDbLine
 62
7
  6
CONTINUOUS
 10
267.613661919
 20
189.198776884
 11
267.613661919
 21
184.323776884
  0
LWPOLYLINE
  5
3E7
100
AcDbEntity
  8
RUNDUNGEN
100
AcDbPolyline
 62
7
  6
CONTINUOUS
 90
16
 70
0
 10
267.1136627704
 20
208.3306427334
 10
267.1139052332
 20
208.3623292383
 10
267.1221727397
 20
208.5297458224
 10
267.1432853452
 20
208.7049072609
 10
267.17893905
 20
208.8875472458
 10
267.2304148531
 20
209.0750388959
 10
267.2977451288
 20
209.2625987321
 10
267.381268802
 20
209.4484648651
 10
267.4813329208
 20
209.6311440363
 10
267.5964751454
 20
209.8066617289
 10
267.7260798083
 20
209.9735639526
 10
267.8695669106
 20
210.1306422152
 10
268.024372425
 20
210.2750676146
 10
268.1886606796
 20
210.4056262224
 10
268.3618098628
 20
210.5222799596
 10
268.4304850437
 20
210.56331912
  0
LINE
  5
3E8
100
AcDbEntity
  8
0
100
AcDbLine
 62
7
  6
CONTINUOUS
 10
260.2803284268
 20
165.4939896595
 11
260.3844952921
 21
166.0259044897
  0
LINE
  5
3E9
100
AcDbEntity
  8
0
100
AcDbLine
 62
7
  6
CONTINUOUS
 10
257.9886618892
 20
159.0790961217
 11
257.8844951729
 21
158.6535642575
  0
LINE
  5
3EA
100
AcDbEntity
  8
0
100
AcDbLine
 62
7
  6
CONTINUOUS
 10
259.7594952921
 20
166.0259044897
 11
259.6553284268
 21
165.6003726255
  0
LINE
  5
3EB
100
AcDbEntity
  8
0
100
AcDbLine
 62
7
  6
CONTINUOUS
 10
255.0719949941
 20
167.8344150614
 11
254.9678284268
 21
167.5152661633
  0
LINE
  5
3EC
100
AcDbEntity
  8
0
100
AcDbLine
 62
7
  6
CONTINUOUS
 10
255.5928284268
 20
167.4088831972
 11
255.6969949941
 21
167.7280320953
  0
LINE
  5
3ED
100
AcDbEntity
  8
_30_VOLUMEN
100
AcDbLine
 62
7
  6
CONTINUOUS
 10
271.0509158522
 20
250.323776884
 11
271.0509158522
 21
251.323776884
  0
LINE
  5
3EE
100
AcDbEntity
  8
RUNDUNGEN
100
AcDbLine
 62
7
  6
CONTINUOUS
 10
272.613661919
 20
177.9771664363
 11
272.613661919
 21
185.323776884
  0
LINE
  5
3EF
100
AcDbEntity
  8
0
100
AcDbLine
 62
7
  6
CONTINUOUS
 10
273.113661919
 20
183.823776884
 11
273.113661919
 21
177.823776884
  0
LINE
  5
3F0
100
AcDbEntity
  8
0
100
AcDbLine
 62
7
  6
CONTINUOUS
 10
265.2803284268
 20
165.4939896595
 11
265.3844946961
 21
166.0259044897
  0
LINE
  5
3F1
100
AcDbEntity
  8
0
100
AcDbLine
 62
7
  6
CONTINUOUS
 10
261.3219951729
 20
158.0152661633
 11
261.4261620382
 21
158.4407980274
  0
LINE
  5
3F2
100
AcDbEntity
  8
0
100
AcDbLine
 62
7
  6
CONTINUOUS
 10
264.7594946961
 20
166.0259044897
 11
264.6553284268
 21
165.6003726255
  0
LINE
  5
3F3
100
AcDbEntity
  8
0
100
AcDbLine
 62
7
  6
CONTINUOUS
 10
261.4261620382
 20
155.6748406868
 11
261.5303283076
 21
155.9939896595
  0
LINE
  5
3F4
100
AcDbEntity
  8
0
100
AcDbLine
 62
7
  6
CONTINUOUS
 10
260.0719952921
 20
165.0684577208
 11
260.2803284268
 21
165.4939896595
  0
LINE
  5
3F5
100
AcDbEntity
  8
0
100
AcDbLine
 62
7
  6
CONTINUOUS
 10
255.2803284268
 20
166.9833513331
 11
255.5928284268
 21
167.4088831972
  0
LINE
  5
3F6
100
AcDbEntity
  8
0
100
AcDbLine
 62
7
  6
CONTINUOUS
 10
260.9053283076
 20
158.4407980274
 11
260.6969951729
 21
158.0152661633
  0
LINE
  5
3F7
100
AcDbEntity
  8
0
100
AcDbLine
 62
7
  6
CONTINUOUS
 10
265.0719946961
 20
165.0684577208
 11
265.2803284268
 21
165.4939896595
  0
LINE
  5
3F8
100
AcDbEntity
  8
0
100
AcDbLine
 62
7
  6
CONTINUOUS
 10
261.0094951729
 20
155.9939896595
 11
260.9053283076
 21
155.7812237274
  0
LINE
  5
3F9
100
AcDbEntity
  8
0
100
AcDbLine
 62
7
  6
CONTINUOUS
 10
259.6553284268
 20
165.6003726255
 11
259.4469952921
 21
165.2812237274
  0
LINE
  5
3FA
100
AcDbEntity
  8
0
100
AcDbLine
 62
7
  6
CONTINUOUS
 10
258.4053286056
 20
158.6535642575
 11
258.6136617402
 21
158.9727131557
  0
LINE
  5
3FB
100
AcDbEntity
  8
0
100
AcDbLine
 62
7
  6
CONTINUOUS
 10
264.6553284268
 20
165.6003726255
 11
264.4469946961
 21
165.2812237274
  0
LINE
  5
3FC
100
AcDbEntity
  8
0
100
AcDbLine
 62
7
  6
CONTINUOUS
 10
256.3219951729
 20
159.823776884
 11
255.6969951729
 21
159.0790961217
  0
LINE
  5
3FD
100
AcDbEntity
  8
0
100
AcDbLine
 62
7
  6
CONTINUOUS
 10
254.9678284268
 20
167.5152661633
 11
254.7594949941
 21
167.3025002312
  0
LINE
  5
3FE
100
AcDbEntity
  8
0
100
AcDbLine
 62
7
  6
CONTINUOUS
 10
261.1136620382
 20
157.6961172651
 11
261.3219951729
 21
158.0152661633
  0
LINE
  5
3FF
100
AcDbEntity
  8
0
100
AcDbLine
 62
7
  6
CONTINUOUS
 10
261.2178283076
 20
155.3556917887
 11
261.4261620382
 21
155.6748406868
  0
LINE
  5
400
100
AcDbEntity
  8
0
100
AcDbLine
 62
7
  6
CONTINUOUS
 10
255.6969951729
 20
158.2280320953
 11
256.3219951729
 21
158.9727131557
  0
LINE
  5
401
100
AcDbEntity
  8
0
100
AcDbLine
 62
7
  6
CONTINUOUS
 10
259.6553284268
 20
164.6429258194
 11
260.0719952921
 21
165.0684577208
  0
LINE
  5
402
100
AcDbEntity
  8
0
100
AcDbLine
 62
7
  6
CONTINUOUS
 10
258.4053286056
 20
159.5046279859
 11
257.9886618892
 21
159.0790961217
  0
LINE
  5
403
100
AcDbEntity
  8
0
100
AcDbLine
 62
7
  6
CONTINUOUS
 10
264.6553284268
 20
164.6429258194
 11
265.0719946961
 21
165.0684577208
  0
LINE
  5
404
100
AcDbEntity
  8
0
100
AcDbLine
 62
7
  6
CONTINUOUS
 10
254.8636618594
 20
166.770585401
 11
255.2803284268
 21
166.9833513331
  0
LINE
  5
405
100
AcDbEntity
  8
RUNDUNGEN
100
AcDbLine
 62
7
  6
CONTINUOUS
 10
292.613661919
 20
238.9592395359
 11
292.613661919
 21
267.323776884
  0
LINE
  5
406
100
AcDbEntity
  8
0
100
AcDbLine
 62
7
  6
CONTINUOUS
 10
260.6969951729
 20
158.0152661633
 11
260.4886617402
 21
157.8025002312
  0
LINE
  5
407
100
AcDbEntity
  8
0
100
AcDbLine
 62
7
  6
CONTINUOUS
 10
260.9053283076
 20
155.7812237274
 11
260.6969951729
 21
155.5684577208
  0
LINE
  5
408
100
AcDbEntity
  8
0
100
AcDbLine
 62
7
  6
CONTINUOUS
 10
259.4469952921
 20
165.2812237274
 11
259.1344952921
 21
165.0684577208
  0
LINE
  5
409
100
AcDbEntity
  8
0
100
AcDbLine
 62
7
  6
CONTINUOUS
 10
264.4469946961
 20
165.2812237274
 11
264.1344946961
 21
165.0684577208
  0
LINE
  5
40A
100
AcDbEntity
  8
0
100
AcDbLine
 62
7
  6
CONTINUOUS
 10
258.6136617402
 20
158.9727131557
 11
258.9261617402
 21
159.1854790877
  0
LINE
  5
40B
100
AcDbEntity
  8
0
100
AcDbLine
 62
7
  6
CONTINUOUS
 10
259.2386615614
 20
164.4301598593
 11
259.6553284268
 21
164.6429258194
  0
LINE
  5
40C
100
AcDbEntity
  8
0
100
AcDbLine
 62
7
  6
CONTINUOUS
 10
254.7594949941
 20
167.3025002312
 11
254.4469949941
 21
167.1961172651
  0
LINE
  5
40D
100
AcDbEntity
  8
0
100
AcDbLine
 62
7
  6
CONTINUOUS
 10
260.6969951729
 20
157.376968367
 11
261.1136620382
 21
157.6961172651
  0
LINE
  5
40E
100
AcDbEntity
  8
0
100
AcDbLine
 62
7
  6
CONTINUOUS
 10
260.9053283076
 20
155.1429258194
 11
261.2178283076
 21
155.3556917887
  0
LINE
  5
40F
100
AcDbEntity
  8
0
100
AcDbLine
 62
7
  6
CONTINUOUS
 10
264.2386621575
 20
164.4301598593
 11
264.6553284268
 21
164.6429258194
  0
LINE
  5
410
100
AcDbEntity
  8
0
100
AcDbLine
 62
7
  6
CONTINUOUS
 10
258.8219951729
 20
159.717393918
 11
258.4053286056
 21
159.5046279859
  0
LINE
  5
411
100
AcDbEntity
  8
0
100
AcDbLine
 62
7
  6
CONTINUOUS
 10
260.6969951729
 20
155.5684577208
 11
260.4886617402
 21
155.4620747547
  0
LINE
  5
412
100
AcDbEntity
  8
0
100
AcDbLine
 62
7
  6
CONTINUOUS
 10
260.4886617402
 20
154.9301598593
 11
260.9053283076
 21
155.1429258194
  0
LINE
  5
413
100
AcDbEntity
  8
0
100
AcDbLine
 62
7
  6
CONTINUOUS
 10
260.4886617402
 20
157.8025002312
 11
259.8636617402
 21
157.5897342991
  0
LINE
  5
414
100
AcDbEntity
  8
_26_BEZUGSACHSEN
100
AcDbLine
 62
7
  6
CONTINUOUS
 10
265.763661919
 20
244.323776884
 11
251.463661919
 21
244.323776884
  0
LINE
  5
415
100
AcDbEntity
  8
_26_BEZUGSACHSEN
100
AcDbLine
 62
7
  6
CONTINUOUS
 10
265.763661919
 20
259.323776884
 11
251.463661919
 21
259.323776884
  0
LINE
  5
416
100
AcDbEntity
  8
0
100
AcDbLine
 62
7
  6
CONTINUOUS
 10
227.613661919
 20
270.323776884
 11
246.6974634319
 21
270.323776884
  0
LINE
  5
417
100
AcDbEntity
  8
0
100
AcDbLine
 62
7
  6
CONTINUOUS
 10
270.5298604061
 20
270.323776884
 11
289.613661919
 21
270.323776884
  0
LINE
  5
418
100
AcDbEntity
  8
FASEN
100
AcDbLine
 62
7
  6
CONTINUOUS
 10
81.7276049475
 20
47.7268553223
 11
81.7276049475
 21
78.7268553223
  0
LINE
  5
419
100
AcDbEntity
  8
FASEN
100
AcDbLine
 62
7
  6
CONTINUOUS
 10
82.2276049475
 20
47.2268553223
 11
82.2276049475
 21
79.2268553223
  0
LINE
  5
41A
100
AcDbEntity
  8
FASEN
100
AcDbLine
 62
7
  6
CONTINUOUS
 10
81.7276049475
 20
78.7268553223
 11
82.2276049475
 21
79.2268553223
  0
LINE
  5
41B
100
AcDbEntity
  8
FASEN
100
AcDbLine
 62
7
  6
CONTINUOUS
 10
81.7276049475
 20
47.7268553223
 11
82.2276049475
 21
47.2268553223
  0
LINE
  5
41C
100
AcDbEntity
  8
FASEN
100
AcDbLine
 62
7
  6
CONTINUOUS
 10
93.2276049475
 20
47.2268553223
 11
93.2276049475
 21
79.2268553223
  0
LINE
  5
41D
100
AcDbEntity
  8
_30_VOLUMEN
100
AcDbLine
 62
7
  6
CONTINUOUS
 10
93.7276049475
 20
46.6848952139
 11
93.7276049475
 21
79.7688154308
  0
LINE
  5
41E
100
AcDbEntity
  8
BEZUGSACHSEN
100
AcDbLine
 62
7
  6
CONTINUOUS
 10
96.2276049475
 20
42.4768553251
 11
96.2276049475
 21
52.761637931
  0
LINE
  5
41F
100
AcDbEntity
  8
RUNDUNGEN
100
AcDbLine
 62
7
  6
CONTINUOUS
 10
96.2276049475
 20
42.5135941649
 11
96.2276049475
 21
56.7268553223
  0
LINE
  5
420
100
AcDbEntity
  8
BEZUGSACHSEN
100
AcDbLine
 62
7
  6
CONTINUOUS
 10
96.2276049475
 20
56.7268553223
 11
96.2276049475
 21
83.9768553196
  0
LINE
  5
421
100
AcDbEntity
  8
RUNDUNGEN
100
AcDbLine
 62
7
  6
CONTINUOUS
 10
96.2276049475
 20
73.6920727136
 11
96.2276049475
 21
83.9767609079
  0
LINE
  5
422
100
AcDbEntity
  8
RUNDUNGEN
100
AcDbLine
 62
7
  6
CONTINUOUS
 10
113.7276049475
 20
29.2268553223
 11
145.7276049475
 21
29.2268553223
  0
LINE
  5
423
100
AcDbEntity
  8
0
100
AcDbLine
 62
7
  6
CONTINUOUS
 10
101.7276049475
 20
54.7268553223
 11
101.7276049475
 21
54.2268553223
  0
LINE
  5
424
100
AcDbEntity
  8
0
100
AcDbLine
 62
7
  6
CONTINUOUS
 10
101.7276049475
 20
71.7268553223
 11
101.7276049475
 21
72.2268553223
  0
LINE
  5
425
100
AcDbEntity
  8
0
100
AcDbLine
 62
7
  6
CONTINUOUS
 10
101.8552645068
 20
54.7268553223
 11
101.8552645068
 21
54.2268553223
  0
LINE
  5
426
100
AcDbEntity
  8
0
100
AcDbLine
 62
7
  6
CONTINUOUS
 10
102.2382431845
 20
54.7268553223
 11
102.2382431845
 21
54.2268553223
  0
LINE
  5
427
100
AcDbEntity
  8
0
100
AcDbLine
 62
7
  6
CONTINUOUS
 10
102.7488814215
 20
54.7268553223
 11
102.7488814215
 21
54.2268553223
  0
LINE
  5
428
100
AcDbEntity
  8
0
100
AcDbLine
 62
7
  6
CONTINUOUS
 10
103.1318600993
 20
54.7268553223
 11
103.1318600993
 21
54.2268553223
  0
LINE
  5
429
100
AcDbEntity
  8
0
100
AcDbLine
 62
7
  6
CONTINUOUS
 10
103.2595200162
 20
54.7268553223
 11
103.2595200162
 21
54.2268553223
  0
LINE
  5
42A
100
AcDbEntity
  8
0
100
AcDbLine
 62
7
  6
CONTINUOUS
 10
103.5148391347
 20
54.7268553223
 11
103.5148391347
 21
54.2268553223
  0
LINE
  5
42B
100
AcDbEntity
  8
0
100
AcDbLine
 62
7
  6
CONTINUOUS
 10
103.8978178124
 20
54.7268553223
 11
103.8978178124
 21
54.2268553223
  0
LINE
  5
42C
100
AcDbEntity
  8
0
100
AcDbLine
 62
7
  6
CONTINUOUS
 10
104.1531369309
 20
54.7268553223
 11
104.1531369309
 21
54.2268553223
  0
LINE
  5
42D
100
AcDbEntity
  8
0
100
AcDbLine
 62
7
  6
CONTINUOUS
 10
104.2807964902
 20
54.7268553223
 11
104.2807964902
 21
54.2268553223
  0
LINE
  5
42E
100
AcDbEntity
  8
0
100
AcDbLine
 62
7
  6
CONTINUOUS
 10
104.4084560494
 20
54.7268553223
 11
104.4084560494
 21
54.2268553223
  0
LINE
  5
42F
100
AcDbEntity
  8
0
100
AcDbLine
 62
7
  6
CONTINUOUS
 10
104.6637751679
 20
54.7268553223
 11
104.6637751679
 21
54.2268553223
  0
LINE
  5
430
100
AcDbEntity
  8
0
100
AcDbLine
 62
7
  6
CONTINUOUS
 10
105.1744134049
 20
54.7268553223
 11
105.1744134049
 21
54.2268553223
  0
LINE
  5
431
100
AcDbEntity
  8
0
100
AcDbLine
 62
7
  6
CONTINUOUS
 10
105.6850518207
 20
54.7268553223
 11
105.6850518207
 21
54.2268553223
  0
LINE
  5
432
100
AcDbEntity
  8
0
100
AcDbLine
 62
7
  6
CONTINUOUS
 10
106.323349617
 20
54.7268553223
 11
106.323349617
 21
54.2268553223
  0
LINE
  5
433
100
AcDbEntity
  8
0
100
AcDbLine
 62
7
  6
CONTINUOUS
 10
106.8339879434
 20
54.7268553223
 11
106.8339879434
 21
54.2268553223
  0
LINE
  5
434
100
AcDbEntity
  8
0
100
AcDbLine
 62
7
  6
CONTINUOUS
 10
107.3446262251
 20
54.7268553223
 11
107.3446262251
 21
54.2268553223
  0
LINE
  5
435
100
AcDbEntity
  8
0
100
AcDbLine
 62
7
  6
CONTINUOUS
 10
107.5999453771
 20
54.7268553223
 11
107.5999453771
 21
54.2268553223
  0
LINE
  5
436
100
AcDbEntity
  8
0
100
AcDbLine
 62
7
  6
CONTINUOUS
 10
107.7276049475
 20
54.7268553223
 11
107.7276049475
 21
54.2268553223
  0
LINE
  5
437
100
AcDbEntity
  8
0
100
AcDbLine
 62
7
  6
CONTINUOUS
 10
107.7276049475
 20
71.7268553223
 11
107.7276049475
 21
72.2268553223
  0
LINE
  5
438
100
AcDbEntity
  8
_30_VOLUMEN
100
AcDbLine
 62
7
  6
CONTINUOUS
 10
110.7276049475
 20
32.2268553223
 11
110.7276049475
 21
94.2268553223
  0
LINE
  5
439
100
AcDbEntity
  8
0
100
AcDbLine
 62
7
  6
CONTINUOUS
 10
153.6090448261
 20
39.9768553223
 11
169.0663259115
 21
39.9768553223
  0
LINE
  5
43A
100
AcDbEntity
  8
0
100
AcDbLine
 62
7
  6
CONTINUOUS
 10
154.0090448261
 20
40.0159609713
 11
162.8090448261
 21
40.0159609713
  0
LINE
  5
43B
100
AcDbEntity
  8
0
100
AcDbLine
 62
7
  6
CONTINUOUS
 10
173.2276049475
 20
40.4768553223
 11
169.2543263355
 21
40.4768553223
  0
LINE
  5
43C
100
AcDbEntity
  8
0
100
AcDbLine
 62
7
  6
CONTINUOUS
 10
153.6090448261
 20
40.4768553223
 11
149.2276049475
 21
40.4768553223
  0
LINE
  5
43D
100
AcDbEntity
  8
0
100
AcDbLine
 62
7
  6
CONTINUOUS
 10
110.2276049475
 20
40.4768553223
 11
98.2276049475
 21
40.4768553223
  0
LINE
  5
43E
100
AcDbEntity
  8
0
100
AcDbLine
 62
7
  6
CONTINUOUS
 10
162.8090448261
 20
40.5159609713
 11
154.0090448261
 21
40.5159609713
  0
LINE
  5
43F
100
AcDbEntity
  8
FASEN
100
AcDbLine
 62
7
  6
CONTINUOUS
 10
93.7276049475
 20
47.7268553223
 11
93.2276049475
 21
47.2268553223
  0
LINE
  5
440
100
AcDbEntity
  8
0
100
AcDbLine
 62
7
  6
CONTINUOUS
 10
93.2276049475
 20
47.2268553223
 11
82.2276049475
 21
47.2268553223
  0
LINE
  5
441
100
AcDbEntity
  8
FASEN
100
AcDbLine
 62
7
  6
CONTINUOUS
 10
93.7276049475
 20
78.7268553223
 11
93.2276049475
 21
79.2268553223
  0
LINE
  5
442
100
AcDbEntity
  8
0
100
AcDbLine
 62
7
  6
CONTINUOUS
 10
163.7276047091
 20
48.7268553223
 11
159.2276048879
 21
48.7268553223
  0
LINE
  5
443
100
AcDbEntity
  8
0
100
AcDbLine
 62
7
  6
CONTINUOUS
 10
158.2276049475
 20
48.7268553223
 11
156.7276049475
 21
48.7268553223
  0
LINE
  5
444
100
AcDbEntity
  8
_30_VOLUMEN
100
AcDbLine
 62
7
  6
CONTINUOUS
 10
173.2276049475
 20
49.2268553223
 11
149.2276049475
 21
49.2268553223
  0
LINE
  5
445
100
AcDbEntity
  8
_30_VOLUMEN
100
AcDbLine
 62
7
  6
CONTINUOUS
 10
173.2276049475
 20
49.7268553223
 11
173.5276049475
 21
49.7268553223
  0
LINE
  5
446
100
AcDbEntity
  8
_30_VOLUMEN
100
AcDbLine
 62
7
  6
CONTINUOUS
 10
173.2276049475
 20
50.5811040113
 11
162.9276049475
 21
50.5811040113
  0
LINE
  5
447
100
AcDbEntity
  8
_26_BEZUGSACHSEN
100
AcDbLine
 62
7
  6
CONTINUOUS
 10
122.2276049475
 20
56.0768553223
 11
122.2276049475
 21
70.3768553223
  0
LINE
  5
448
100
AcDbEntity
  8
0
100
AcDbLine
 62
7
  6
CONTINUOUS
 10
177.172042044
 20
54.2268553223
 11
174.2276049475
 21
54.2268553223
  0
LINE
  5
449
100
AcDbEntity
  8
0
100
AcDbLine
 62
7
  6
CONTINUOUS
 10
107.7276049475
 20
54.2268553223
 11
101.7276049475
 21
54.2268553223
  0
LINE
  5
44A
100
AcDbEntity
  8
_30_VOLUMEN
100
AcDbLine
 62
7
  6
CONTINUOUS
 10
173.2276049475
 20
54.4768553223
 11
162.9276049475
 21
54.4768553223
  0
LINE
  5
44B
100
AcDbEntity
  8
_30_VOLUMEN
100
AcDbLine
 62
7
  6
CONTINUOUS
 10
173.5276049475
 20
54.7268553223
 11
169.7276049475
 21
54.7268553223
  0
LINE
  5
44C
100
AcDbEntity
  8
RUNDUNGEN
100
AcDbLine
 62
7
  6
CONTINUOUS
 10
169.7276049475
 20
54.7268553223
 11
151.7276049475
 21
54.7268553223
  0
LINE
  5
44D
100
AcDbEntity
  8
RUNDUNGEN
100
AcDbLine
 62
7
  6
CONTINUOUS
 10
107.7276049475
 20
54.7268553223
 11
98.2276049475
 21
54.7268553223
  0
LINE
  5
44E
100
AcDbEntity
  8
_30_VOLUMEN
100
AcDbLine
 62
7
  6
CONTINUOUS
 10
173.8276049475
 20
54.7268553223
 11
177.9276049475
 21
54.7268553223
  0
LINE
  5
44F
100
AcDbEntity
  8
_30_VOLUMEN
100
AcDbLine
 62
7
  6
CONTINUOUS
 10
110.7276049475
 20
56.0768553223
 11
148.7276049475
 21
56.0768553223
  0
LINE
  5
450
100
AcDbEntity
  8
0
100
AcDbLine
 62
7
  6
CONTINUOUS
 10
173.8276049475
 20
56.5768553223
 11
173.5276049475
 21
56.5768553223
  0
LINE
  5
451
100
AcDbEntity
  8
_30_VOLUMEN
100
AcDbLine
 62
7
  6
CONTINUOUS
 10
171.7276049475
 20
58.7268553223
 11
173.5276049475
 21
58.7268553223
  0
LINE
  5
452
100
AcDbEntity
  8
_30_VOLUMEN
100
AcDbLine
 62
7
  6
CONTINUOUS
 10
173.5276049475
 20
59.6268553223
 11
173.8276049475
 21
59.6268553223
  0
LINE
  5
453
100
AcDbEntity
  8
_21_KURVEN
100
AcDbLine
 62
4
  6
CONTINUOUS
 10
109.7677580334
 20
63.2268553223
 11
149.6874520063
 21
63.2268553223
  0
LINE
  5
454
100
AcDbEntity
  8
_30_VOLUMEN
100
AcDbLine
 62
7
  6
CONTINUOUS
 10
173.8276049475
 20
63.2268553223
 11
177.9276049475
 21
63.2268553223
  0
LINE
  5
455
100
AcDbEntity
  8
_26_BEZUGSACHSEN
100
AcDbLine
 62
7
  6
CONTINUOUS
 10
137.2276049475
 20
56.0768553223
 11
137.2276049475
 21
70.3768553223
  0
LINE
  5
456
100
AcDbEntity
  8
_30_VOLUMEN
100
AcDbLine
 62
7
  6
CONTINUOUS
 10
173.5276049475
 20
66.8268553223
 11
173.8276049475
 21
66.8268553223
  0
LINE
  5
457
100
AcDbEntity
  8
_30_VOLUMEN
100
AcDbLine
 62
7
  6
CONTINUOUS
 10
173.5276049475
 20
67.7268553223
 11
171.7276049475
 21
67.7268553223
  0
LINE
  5
458
100
AcDbEntity
  8
0
100
AcDbLine
 62
7
  6
CONTINUOUS
 10
173.8276049475
 20
69.8768553223
 11
173.5276049475
 21
69.8768553223
  0
LINE
  5
459
100
AcDbEntity
  8
_30_VOLUMEN
100
AcDbLine
 62
7
  6
CONTINUOUS
 10
110.7276049475
 20
70.3768553223
 11
148.7276049475
 21
70.3768553223
  0
LINE
  5
45A
100
AcDbEntity
  8
BEZUGSACHSEN
100
AcDbLine
 62
7
  6
CONTINUOUS
 10
169.7276049475
 20
71.7268553223
 11
151.7276049475
 21
71.7268553223
  0
LINE
  5
45B
100
AcDbEntity
  8
BEZUGSACHSEN
100
AcDbLine
 62
7
  6
CONTINUOUS
 10
107.7276049475
 20
71.7268553223
 11
98.2276049475
 21
71.7268553223
  0
LINE
  5
45C
100
AcDbEntity
  8
_30_VOLUMEN
100
AcDbLine
 62
7
  6
CONTINUOUS
 10
169.7276049475
 20
71.7268553223
 11
173.5276049475
 21
71.7268553223
  0
LINE
  5
45D
100
AcDbEntity
  8
_30_VOLUMEN
100
AcDbLine
 62
7
  6
CONTINUOUS
 10
173.8276049475
 20
71.7268553223
 11
177.9276049475
 21
71.7268553223
  0
LINE
  5
45E
100
AcDbEntity
  8
_30_VOLUMEN
100
AcDbLine
 62
7
  6
CONTINUOUS
 10
173.2276049475
 20
71.9768553223
 11
162.9276049475
 21
71.9768553223
  0
LINE
  5
45F
100
AcDbEntity
  8
0
100
AcDbLine
 62
7
  6
CONTINUOUS
 10
177.172042044
 20
72.2268553223
 11
174.2276049475
 21
72.2268553223
  0
LINE
  5
460
100
AcDbEntity
  8
0
100
AcDbLine
 62
7
  6
CONTINUOUS
 10
101.7276049475
 20
72.2268553223
 11
107.7276049475
 21
72.2268553223
  0
LINE
  5
461
100
AcDbEntity
  8
_30_VOLUMEN
100
AcDbLine
 62
7
  6
CONTINUOUS
 10
162.9276049475
 20
75.8726066334
 11
173.2276049475
 21
75.8726066334
  0
LINE
  5
462
100
AcDbEntity
  8
_30_VOLUMEN
100
AcDbLine
 62
7
  6
CONTINUOUS
 10
148.7276049475
 20
32.2268553223
 11
148.7276049475
 21
94.2268553223
  0
LINE
  5
463
100
AcDbEntity
  8
_30_VOLUMEN
100
AcDbLine
 62
7
  6
CONTINUOUS
 10
173.2276049475
 20
76.7268553223
 11
173.5276049475
 21
76.7268553223
  0
LINE
  5
464
100
AcDbEntity
  8
_30_VOLUMEN
100
AcDbLine
 62
7
  6
CONTINUOUS
 10
173.2276049475
 20
77.2268553223
 11
149.2276049475
 21
77.2268553223
  0
LINE
  5
465
100
AcDbEntity
  8
0
100
AcDbLine
 62
7
  6
CONTINUOUS
 10
93.2276049475
 20
79.2268553223
 11
82.2276049475
 21
79.2268553223
  0
LINE
  5
466
100
AcDbEntity
  8
0
100
AcDbLine
 62
7
  6
CONTINUOUS
 10
153.6090448261
 20
40.4960086841
 11
153.6090448261
 21
39.9768553223
  0
LINE
  5
467
100
AcDbEntity
  8
BEZUGSACHSEN
100
AcDbLine
 62
7
  6
CONTINUOUS
 10
153.6090448261
 20
85.9577019605
 11
153.6090448261
 21
86.4768553223
  0
LINE
  5
468
100
AcDbEntity
  8
0
100
AcDbLine
 62
7
  6
CONTINUOUS
 10
156.7276049475
 20
49.2268553223
 11
156.7276049475
 21
48.7268553223
  0
LINE
  5
469
100
AcDbEntity
  8
0
100
AcDbLine
 62
7
  6
CONTINUOUS
 10
157.4776049475
 20
49.2268553223
 11
157.4776049475
 21
48.7268553223
  0
LINE
  5
46A
100
AcDbEntity
  8
0
100
AcDbLine
 62
7
  6
CONTINUOUS
 10
158.2276049475
 20
49.2268553223
 11
158.2276049475
 21
48.7268553223
  0
LINE
  5
46B
100
AcDbEntity
  8
0
100
AcDbLine
 62
7
  6
CONTINUOUS
 10
184.0696250909
 20
56.7373702398
 11
177.172042044
 21
54.2268553223
  0
LINE
  5
46C
100
AcDbEntity
  8
BEZUGSACHSEN
100
AcDbLine
 62
7
  6
CONTINUOUS
 10
162.8090448261
 20
85.9377496733
 11
154.0090448261
 21
85.9377496733
  0
LINE
  5
46D
100
AcDbEntity
  8
0
100
AcDbLine
 62
7
  6
CONTINUOUS
 10
173.2276049475
 20
85.9768553223
 11
169.2543263355
 21
85.9768553223
  0
LINE
  5
46E
100
AcDbEntity
  8
0
100
AcDbLine
 62
7
  6
CONTINUOUS
 10
153.6090448261
 20
85.9768553223
 11
149.2276049475
 21
85.9768553223
  0
LINE
  5
46F
100
AcDbEntity
  8
0
100
AcDbLine
 62
7
  6
CONTINUOUS
 10
110.2276049475
 20
85.9768553223
 11
98.2276049475
 21
85.9768553223
  0
LINE
  5
470
100
AcDbEntity
  8
BEZUGSACHSEN
100
AcDbLine
 62
7
  6
CONTINUOUS
 10
154.0090448261
 20
86.4377496733
 11
162.8090448261
 21
86.4377496733
  0
LINE
  5
471
100
AcDbEntity
  8
BEZUGSACHSEN
100
AcDbLine
 62
7
  6
CONTINUOUS
 10
169.0663259115
 20
86.4768553223
 11
153.6090448261
 21
86.4768553223
  0
LINE
  5
472
100
AcDbEntity
  8
0
100
AcDbLine
 62
7
  6
CONTINUOUS
 10
184.0696250909
 20
69.7163404049
 11
177.172042044
 21
72.2268553223
  0
LINE
  5
473
100
AcDbEntity
  8
0
100
AcDbLine
 62
7
  6
CONTINUOUS
 10
159.2276048879
 20
49.2268553223
 11
159.2276048879
 21
48.7268553223
  0
LINE
  5
474
100
AcDbEntity
  8
0
100
AcDbLine
 62
7
  6
CONTINUOUS
 10
159.3526049475
 20
49.2268553223
 11
159.3526049475
 21
48.7268553223
  0
LINE
  5
475
100
AcDbEntity
  8
0
100
AcDbLine
 62
7
  6
CONTINUOUS
 10
159.4776050071
 20
49.2268553223
 11
159.4776050071
 21
48.7268553223
  0
LINE
  5
476
100
AcDbEntity
  8
0
100
AcDbLine
 62
7
  6
CONTINUOUS
 10
159.9776050667
 20
49.2268553223
 11
159.9776050667
 21
48.7268553223
  0
LINE
  5
477
100
AcDbEntity
  8
0
100
AcDbLine
 62
7
  6
CONTINUOUS
 10
160.4776049475
 20
49.2268553223
 11
160.4776049475
 21
48.7268553223
  0
LINE
  5
478
100
AcDbEntity
  8
0
100
AcDbLine
 62
7
  6
CONTINUOUS
 10
161.3526048283
 20
49.2268553223
 11
161.3526048283
 21
48.7268553223
  0
LINE
  5
479
100
AcDbEntity
  8
0
100
AcDbLine
 62
7
  6
CONTINUOUS
 10
161.6026049475
 20
49.2268553223
 11
161.6026049475
 21
48.7268553223
  0
LINE
  5
47A
100
AcDbEntity
  8
0
100
AcDbLine
 62
7
  6
CONTINUOUS
 10
162.4776048283
 20
49.2268553223
 11
162.4776048283
 21
48.7268553223
  0
LINE
  5
47B
100
AcDbEntity
  8
_30_VOLUMEN
100
AcDbLine
 62
7
  6
CONTINUOUS
 10
162.9276049475
 20
50.5811040113
 11
162.9276049475
 21
54.7268553223
  0
LINE
  5
47C
100
AcDbEntity
  8
_30_VOLUMEN
100
AcDbLine
 62
7
  6
CONTINUOUS
 10
162.9276049475
 20
71.7268553223
 11
162.9276049475
 21
75.8726066334
  0
LINE
  5
47D
100
AcDbEntity
  8
0
100
AcDbLine
 62
7
  6
CONTINUOUS
 10
162.9776047091
 20
49.2268553223
 11
162.9776047091
 21
48.7268553223
  0
LINE
  5
47E
100
AcDbEntity
  8
_30_VOLUMEN
100
AcDbLine
 62
7
  6
CONTINUOUS
 10
163.0276049475
 20
71.9768553223
 11
163.0276049475
 21
71.7268553223
  0
LINE
  5
47F
100
AcDbEntity
  8
_30_VOLUMEN
100
AcDbLine
 62
7
  6
CONTINUOUS
 10
163.0276049475
 20
54.7268553223
 11
163.0276049475
 21
54.4768553223
  0
LINE
  5
480
100
AcDbEntity
  8
0
100
AcDbLine
 62
7
  6
CONTINUOUS
 10
163.2090448261
 20
40.7142978727
 11
163.2090448261
 21
40.0429831759
  0
LINE
  5
481
100
AcDbEntity
  8
BEZUGSACHSEN
100
AcDbLine
 62
7
  6
CONTINUOUS
 10
163.2090448261
 20
85.739412772
 11
163.2090448261
 21
86.4107274688
  0
LINE
  5
482
100
AcDbEntity
  8
0
100
AcDbLine
 62
7
  6
CONTINUOUS
 10
163.4776049475
 20
49.2268553223
 11
163.4776049475
 21
48.7268553223
  0
LINE
  5
483
100
AcDbEntity
  8
0
100
AcDbLine
 62
7
  6
CONTINUOUS
 10
163.6026051859
 20
49.2268553223
 11
163.6026051859
 21
48.7268553223
  0
LINE
  5
484
100
AcDbEntity
  8
0
100
AcDbLine
 62
7
  6
CONTINUOUS
 10
163.7276047091
 20
49.2268553223
 11
163.7276047091
 21
48.7268553223
  0
LINE
  5
485
100
AcDbEntity
  8
BEZUGSACHSEN
100
AcDbLine
 62
7
  6
CONTINUOUS
 10
169.2543263355
 20
86.4768553063
 11
169.2543263355
 21
85.9768553223
  0
LINE
  5
486
100
AcDbEntity
  8
0
100
AcDbLine
 62
7
  6
CONTINUOUS
 10
169.2543263355
 20
40.4768553223
 11
169.2543263355
 21
39.9768553384
  0
LINE
  5
487
100
AcDbEntity
  8
BEZUGSACHSEN
100
AcDbLine
 62
7
  6
CONTINUOUS
 10
113.7276049475
 20
97.2268553223
 11
145.7276049475
 21
97.2268553223
  0
LINE
  5
488
100
AcDbEntity
  8
BEZUGSACHSEN
100
AcDbLine
 62
7
  6
CONTINUOUS
 10
171.7276049475
 20
69.7268553223
 11
171.7276049475
 21
56.7268553223
  0
LINE
  5
489
100
AcDbEntity
  8
_30_VOLUMEN
100
AcDbLine
 62
7
  6
CONTINUOUS
 10
173.2276049475
 20
40.4768553288
 11
173.2276049475
 21
54.4768553223
  0
LINE
  5
48A
100
AcDbEntity
  8
_30_VOLUMEN
100
AcDbLine
 62
7
  6
CONTINUOUS
 10
173.2276049475
 20
71.9768553223
 11
173.2276049475
 21
85.9768553158
  0
LINE
  5
48B
100
AcDbEntity
  8
_30_VOLUMEN
100
AcDbLine
 62
7
  6
CONTINUOUS
 10
173.5276049475
 20
76.7268553189
 11
173.5276049475
 21
49.7268553258
  0
LINE
  5
48C
100
AcDbEntity
  8
_30_VOLUMEN
100
AcDbLine
 62
7
  6
CONTINUOUS
 10
173.8276049475
 20
71.7268553223
 11
173.8276049475
 21
54.7268553223
  0
LINE
  5
48D
100
AcDbEntity
  8
0
100
AcDbLine
 62
7
  6
CONTINUOUS
 10
174.2276049475
 20
54.7268553223
 11
174.2276049475
 21
54.2268553223
  0
LINE
  5
48E
100
AcDbEntity
  8
0
100
AcDbLine
 62
7
  6
CONTINUOUS
 10
174.2276049475
 20
71.7268553223
 11
174.2276049475
 21
72.2268553223
  0
LINE
  5
48F
100
AcDbEntity
  8
0
100
AcDbLine
 62
7
  6
CONTINUOUS
 10
177.172042044
 20
54.7268553223
 11
177.172042044
 21
54.2268553223
  0
LINE
  5
490
100
AcDbEntity
  8
0
100
AcDbLine
 62
7
  6
CONTINUOUS
 10
177.172042044
 20
71.7268553223
 11
177.172042044
 21
72.2268553223
  0
LINE
  5
491
100
AcDbEntity
  8
_30_VOLUMEN
100
AcDbLine
 62
7
  6
CONTINUOUS
 10
177.9276049475
 20
71.7268553223
 11
177.9276049475
 21
54.7268553223
  0
LINE
  5
492
100
AcDbEntity
  8
RUNDUNGEN
100
AcDbLine
 62
7
  6
CONTINUOUS
 10
184.7276049475
 20
57.6770628605
 11
184.7276049475
 21
68.7766477841
  0
ARC
  5
493
100
AcDbEntity
  8
RUNDUNGEN
100
AcDbCircle
 62
7
  6
CONTINUOUS
 10
110.2276049475
 20
137.573776884
 40
3.0
100
AcDbArc
 50
270.0
 51
360.0
  0
ARC
  5
494
100
AcDbEntity
  8
_30_VOLUMEN
100
AcDbCircle
 62
7
  6
CONTINUOUS
 10
93.2276049475
 20
176.823776884
 40
3.0
100
AcDbArc
 50
279.5940682269
 51
360.0
  0
ARC
  5
495
100
AcDbEntity
  8
_30_VOLUMEN
100
AcDbCircle
 62
7
  6
CONTINUOUS
 10
93.2276049475
 20
137.823776884
 40
3.0
100
AcDbArc
 50
0.0
 51
80.4059317731
  0
ARC
  5
496
100
AcDbEntity
  8
RUNDUNGEN
100
AcDbCircle
 62
7
  6
CONTINUOUS
 10
98.2276049475
 20
136.573776884
 40
2.0
100
AcDbArc
 50
180.0
 51
270.0
  0
ARC
  5
497
100
AcDbEntity
  8
BEZUGSACHSEN
100
AcDbCircle
 62
7
  6
CONTINUOUS
 10
119.2276049475
 20
202.823776884
 40
23.0
100
AcDbArc
 50
116.251213935
 51
180.0
  0
ARC
  5
498
100
AcDbEntity
  8
RUNDUNGEN
100
AcDbCircle
 62
7
  6
CONTINUOUS
 10
119.2276049475
 20
202.823776884
 40
23.0
100
AcDbArc
 50
116.251213935
 51
180.0
  0
ARC
  5
499
100
AcDbEntity
  8
_30_VOLUMEN
100
AcDbCircle
 62
7
  6
CONTINUOUS
 10
129.7276049475
 20
251.323776884
 40
19.0
100
AcDbArc
 50
177.413928766
 51
180.0
  0
ARC
  5
49A
100
AcDbEntity
  8
_30_VOLUMEN
100
AcDbCircle
 62
7
  6
CONTINUOUS
 10
129.7276049475
 20
251.323776884
 40
19.0
100
AcDbArc
 50
174.8181140598
 51
177.3761080856
  0
ARC
  5
49B
100
AcDbEntity
  8
_30_VOLUMEN
100
AcDbCircle
 62
7
  6
CONTINUOUS
 10
129.7276049475
 20
251.323776884
 40
19.0
100
AcDbArc
 50
0.0
 51
6.0423284191
  0
ARC
  5
49C
100
AcDbEntity
  8
RUNDUNGEN
100
AcDbCircle
 62
7
  6
CONTINUOUS
 10
129.7276049475
 20
251.323776884
 40
19.0
100
AcDbArc
 50
0.0
 51
180.0
  0
ARC
  5
49D
100
AcDbEntity
  8
_21_KURVEN
100
AcDbCircle
 62
4
  6
CONTINUOUS
 10
104.7276049475
 20
250.323776884
 40
13.0
100
AcDbArc
 50
292.811715311
 51
297.4885700736
  0
ARC
  5
49E
100
AcDbEntity
  8
RUNDUNGEN
100
AcDbCircle
 62
7
  6
CONTINUOUS
 10
119.2276049475
 20
202.823776884
 40
6.0
100
AcDbArc
 50
93.3837890506
 51
180.0
  0
ARC
  5
49F
100
AcDbEntity
  8
RUNDUNGEN
100
AcDbCircle
 62
7
  6
CONTINUOUS
 10
107.7276049475
 20
226.1421708786
 40
2.9999702805
100
AcDbArc
 50
296.251667048
 51
0.001024413
  0
ARC
  5
4A0
100
AcDbEntity
  8
BEZUGSACHSEN
100
AcDbCircle
 62
7
  6
CONTINUOUS
 10
107.7276049475
 20
226.1421708786
 40
2.9999702805
100
AcDbArc
 50
296.251667048
 51
0.001024413
  0
ARC
  5
4A1
100
AcDbEntity
  8
RUNDUNGEN
100
AcDbCircle
 62
7
  6
CONTINUOUS
 10
149.2276049475
 20
137.573776884
 40
3.0
100
AcDbArc
 50
180.0
 51
270.0
  0
ARC
  5
4A2
100
AcDbEntity
  8
RUNDUNGEN
100
AcDbCircle
 62
7
  6
CONTINUOUS
 10
183.7276049475
 20
162.8735693458
 40
1.0
100
AcDbArc
 50
0.0
 51
69.9999999997
  0
ARC
  5
4A3
100
AcDbEntity
  8
RUNDUNGEN
100
AcDbCircle
 62
7
  6
CONTINUOUS
 10
183.7276049475
 20
151.7739844222
 40
1.0
100
AcDbArc
 50
290.0000000003
 51
360.0
  0
ARC
  5
4A4
100
AcDbEntity
  8
0
100
AcDbCircle
 62
7
  6
CONTINUOUS
 10
163.6090448261
 20
160.6020778274
 40
0.4
100
AcDbArc
 50
57.9946167919
 51
180.0
  0
ARC
  5
4A5
100
AcDbEntity
  8
0
100
AcDbCircle
 62
7
  6
CONTINUOUS
 10
162.8090448261
 20
159.0571102173
 40
0.4
100
AcDbArc
 50
270.0
 51
360.0
  0
ARC
  5
4A6
100
AcDbEntity
  8
0
100
AcDbCircle
 62
7
  6
CONTINUOUS
 10
154.0090448261
 20
158.2571102173
 40
0.4
100
AcDbArc
 50
90.0
 51
180.0
  0
ARC
  5
4A7
100
AcDbEntity
  8
0
100
AcDbCircle
 62
7
  6
CONTINUOUS
 10
154.0090448261
 20
156.3904435507
 40
0.4
100
AcDbArc
 50
180.0
 51
270.0
  0
ARC
  5
4A8
100
AcDbEntity
  8
0
100
AcDbCircle
 62
7
  6
CONTINUOUS
 10
162.8090448261
 20
155.5904435507
 40
0.4
100
AcDbArc
 50
0.0
 51
90.0
  0
ARC
  5
4A9
100
AcDbEntity
  8
0
100
AcDbCircle
 62
7
  6
CONTINUOUS
 10
163.6090448261
 20
154.0454759406
 40
0.4
100
AcDbArc
 50
180.0
 51
302.0053832081
  0
ARC
  5
4AA
100
AcDbEntity
  8
0
100
AcDbCircle
 62
7
  6
CONTINUOUS
 10
168.8543263355
 20
157.323776884
 40
0.4
100
AcDbArc
 50
302.0053832081
 51
57.9946167919
  0
ARC
  5
4AB
100
AcDbEntity
  8
RUNDUNGEN
100
AcDbCircle
 62
7
  6
CONTINUOUS
 10
140.2276049475
 20
202.823776884
 40
23.0
100
AcDbArc
 50
60.0
 51
63.748786065
  0
ARC
  5
4AC
100
AcDbEntity
  8
_21_KURVEN
100
AcDbCircle
 62
4
  6
CONTINUOUS
 10
154.7276049475
 20
250.323776884
 40
13.0
100
AcDbArc
 50
242.5114299264
 51
247.188284689
  0
ARC
  5
4AD
100
AcDbEntity
  8
RUNDUNGEN
100
AcDbCircle
 62
7
  6
CONTINUOUS
 10
163.7276049475
 20
206.5765536337
 40
8.0
100
AcDbArc
 50
0.0
 51
60.0
  0
ARC
  5
4AE
100
AcDbEntity
  8
RUNDUNGEN
100
AcDbCircle
 62
7
  6
CONTINUOUS
 10
140.2276049475
 20
202.823776884
 40
6.0
100
AcDbArc
 50
0.0
 51
86.6162109494
  0
ARC
  5
4AF
100
AcDbEntity
  8
_30_VOLUMEN
100
AcDbCircle
 62
7
  6
CONTINUOUS
 10
168.3276049475
 20
196.623776884
 40
5.2
100
AcDbArc
 50
0.0
 51
90.0
  0
ARC
  5
4B0
100
AcDbEntity
  8
_30_VOLUMEN
100
AcDbCircle
 62
7
  6
CONTINUOUS
 10
168.2276049475
 20
196.623776884
 40
5.2
100
AcDbArc
 50
90.0
 51
180.0
  0
ARC
  5
4B1
100
AcDbEntity
  8
BEZUGSACHSEN
100
AcDbCircle
 62
7
  6
CONTINUOUS
 10
151.7276049475
 20
226.1422245167
 40
3.0
100
AcDbArc
 50
180.0000000354
 51
184.2499191103
  0
ARC
  5
4B2
100
AcDbEntity
  8
RUNDUNGEN
100
AcDbCircle
 62
7
  6
CONTINUOUS
 10
151.7276049475
 20
226.1422245167
 40
3.0
100
AcDbArc
 50
180.0000000354
 51
243.748786065
  0
ARC
  5
4B3
100
AcDbEntity
  8
BEZUGSACHSEN
100
AcDbCircle
 62
7
  6
CONTINUOUS
 10
238.613661919
 20
177.9771664363
 40
6.0
100
AcDbArc
 50
314.0792098479
 51
360.0
  0
ARC
  5
4B4
100
AcDbEntity
  8
BEZUGSACHSEN
100
AcDbCircle
 62
7
  6
CONTINUOUS
 10
244.113661919
 20
182.1494188696
 40
6.0
100
AcDbArc
 50
300.2880691714
 51
360.0
  0
ARC
  5
4B5
100
AcDbEntity
  8
BEZUGSACHSEN
100
AcDbCircle
 62
7
  6
CONTINUOUS
 10
248.613661919
 20
185.323776884
 40
4.0
100
AcDbArc
 50
108.2099568643
 51
180.0
  0
ARC
  5
4B6
100
AcDbEntity
  8
BEZUGSACHSEN
100
AcDbCircle
 62
7
  6
CONTINUOUS
 10
246.113661919
 20
192.9231189608
 40
4.0
100
AcDbArc
 50
288.2099568643
 51
331.0915420517
  0
ARC
  5
4B7
100
AcDbEntity
  8
BEZUGSACHSEN
100
AcDbCircle
 62
7
  6
CONTINUOUS
 10
246.113661919
 20
192.9231189608
 40
4.0
100
AcDbArc
 50
334.4473650034
 51
349.5611329332
  0
ARC
  5
4B8
100
AcDbEntity
  8
0
100
AcDbCircle
 62
7
  6
CONTINUOUS
 10
259.113661919
 20
157.323776884
 40
22.75
100
AcDbArc
 50
350.6953675994
 51
9.304632775
  0
ARC
  5
4B9
100
AcDbEntity
  8
BEZUGSACHSEN
100
AcDbCircle
 62
7
  6
CONTINUOUS
 10
258.113661919
 20
157.323776884
 40
22.75
100
AcDbArc
 50
170.695367225
 51
189.3046324006
  0
ARC
  5
4BA
100
AcDbEntity
  8
BEZUGSACHSEN
100
AcDbCircle
 62
7
  6
CONTINUOUS
 10
258.613661919
 20
157.323776884
 40
22.75
100
AcDbArc
 50
120.2880691714
 51
59.7119308286
  0
CIRCLE
  5
4BB
100
AcDbEntity
  8
_30_VOLUMEN
100
AcDbCircle
 62
7
  6
CONTINUOUS
 10
258.613661919
 20
157.323776884
 40
16.5419601085
  0
CIRCLE
  5
4BC
100
AcDbEntity
  8
FASEN
100
AcDbCircle
 62
7
  6
CONTINUOUS
 10
258.613661919
 20
157.323776884
 40
16.0
  0
CIRCLE
  5
4BD
100
AcDbEntity
  8
FASEN
100
AcDbCircle
 62
7
  6
CONTINUOUS
 10
258.613661919
 20
157.323776884
 40
15.5
  0
ARC
  5
4BE
100
AcDbEntity
  8
_30_VOLUMEN
100
AcDbCircle
 62
7
  6
CONTINUOUS
 10
137.7530604786
 20
251.3898670749
 40
133.2978717576
100
AcDbArc
 50
359.9715922759
 51
0.8312867722
  0
ARC
  5
4BF
100
AcDbEntity
  8
BEZUGSACHSEN
100
AcDbCircle
 62
7
  6
CONTINUOUS
 10
249.613661919
 20
238.9592395359
 40
25.0
100
AcDbArc
 50
180.0
 51
240.0
  0
ARC
  5
4C0
100
AcDbEntity
  8
_30_VOLUMEN
100
AcDbCircle
 62
7
  6
CONTINUOUS
 10
254.113661919
 20
273.323776884
 40
8.0
100
AcDbArc
 50
202.024312837
 51
250.6553370331
  0
ARC
  5
4C1
100
AcDbEntity
  8
_30_VOLUMEN
100
AcDbCircle
 62
7
  6
CONTINUOUS
 10
258.613661919
 20
234.973776884
 40
7.15
100
AcDbArc
 50
180.0
 51
360.0
  0
ARC
  5
4C2
100
AcDbEntity
  8
BEZUGSACHSEN
100
AcDbCircle
 62
7
  6
CONTINUOUS
 10
227.613661919
 20
267.323776884
 40
3.0
100
AcDbArc
 50
90.0
 51
180.0
  0
ARC
  5
4C3
100
AcDbEntity
  8
RUNDUNGEN
100
AcDbCircle
 62
7
  6
CONTINUOUS
 10
278.613661919
 20
177.9771664363
 40
6.0
100
AcDbArc
 50
180.0
 51
225.9207901521
  0
ARC
  5
4C4
100
AcDbEntity
  8
RUNDUNGEN
100
AcDbCircle
 62
7
  6
CONTINUOUS
 10
273.113661919
 20
182.1494188696
 40
6.0
100
AcDbArc
 50
180.0
 51
239.7119308286
  0
ARC
  5
4C5
100
AcDbEntity
  8
RUNDUNGEN
100
AcDbCircle
 62
7
  6
CONTINUOUS
 10
268.613661919
 20
185.323776884
 40
4.0
100
AcDbArc
 50
0.0
 51
71.7900431357
  0
ARC
  5
4C6
100
AcDbEntity
  8
RUNDUNGEN
100
AcDbCircle
 62
7
  6
CONTINUOUS
 10
271.113661919
 20
192.9231189608
 40
4.0
100
AcDbArc
 50
208.9084579483
 51
251.7900431357
  0
ARC
  5
4C7
100
AcDbEntity
  8
_30_VOLUMEN
100
AcDbCircle
 62
7
  6
CONTINUOUS
 10
386.5360279262
 20
251.3403884254
 40
140.3596209233
100
AcDbArc
 50
179.1903400044
 51
180.0067809474
  0
ARC
  5
4C8
100
AcDbEntity
  8
RUNDUNGEN
100
AcDbCircle
 62
7
  6
CONTINUOUS
 10
267.613661919
 20
238.9592395359
 40
25.0
100
AcDbArc
 50
300.0
 51
360.0
  0
ARC
  5
4C9
100
AcDbEntity
  8
_30_VOLUMEN
100
AcDbCircle
 62
7
  6
CONTINUOUS
 10
263.113661919
 20
273.323776884
 40
8.0
100
AcDbArc
 50
289.3446629669
 51
337.975687163
  0
ARC
  5
4CA
100
AcDbEntity
  8
RUNDUNGEN
100
AcDbCircle
 62
7
  6
CONTINUOUS
 10
289.613661919
 20
267.323776884
 40
3.0
100
AcDbArc
 50
0.0
 51
90.0
  0
ARC
  5
4CB
100
AcDbEntity
  8
_30_VOLUMEN
100
AcDbCircle
 62
7
  6
CONTINUOUS
 10
109.7276049475
 20
58.7268553223
 40
8.0
100
AcDbArc
 50
277.1807557815
 51
340.6553370331
  0
ARC
  5
4CC
100
AcDbEntity
  8
RUNDUNGEN
100
AcDbCircle
 62
7
  6
CONTINUOUS
 10
110.2276049475
 20
43.4768553223
 40
3.0
100
AcDbArc
 50
270.0
 51
279.5991033195
  0
ARC
  5
4CD
100
AcDbEntity
  8
RUNDUNGEN
100
AcDbCircle
 62
7
  6
CONTINUOUS
 10
93.2276049475
 20
43.7268553223
 40
3.0
100
AcDbArc
 50
0.0
 51
80.4059317731
  0
ARC
  5
4CE
100
AcDbEntity
  8
RUNDUNGEN
100
AcDbCircle
 62
7
  6
CONTINUOUS
 10
113.7276049475
 20
32.2268553223
 40
3.0
100
AcDbArc
 50
180.0
 51
270.0
  0
ARC
  5
4CF
100
AcDbEntity
  8
RUNDUNGEN
100
AcDbCircle
 62
7
  6
CONTINUOUS
 10
107.7276140158
 20
51.7268553223
 40
2.9999954659
100
AcDbArc
 50
0.0
 51
90.0001731913
  0
ARC
  5
4D0
100
AcDbEntity
  8
RUNDUNGEN
100
AcDbCircle
 62
7
  6
CONTINUOUS
 10
98.2276049475
 20
42.4768553223
 40
2.0
100
AcDbArc
 50
180.0
 51
270.0
  0
ARC
  5
4D1
100
AcDbEntity
  8
RUNDUNGEN
100
AcDbCircle
 62
7
  6
CONTINUOUS
 10
98.2276049475
 20
56.7268553223
 40
2.0
100
AcDbArc
 50
180.0
 51
270.0
  0
ARC
  5
4D2
100
AcDbEntity
  8
_30_VOLUMEN
100
AcDbCircle
 62
7
  6
CONTINUOUS
 10
109.7276049475
 20
67.7268553223
 40
8.0
100
AcDbArc
 50
19.3446629669
 51
82.8192442185
  0
ARC
  5
4D3
100
AcDbEntity
  8
BEZUGSACHSEN
100
AcDbCircle
 62
7
  6
CONTINUOUS
 10
93.2276049475
 20
82.7268553223
 40
3.0
100
AcDbArc
 50
279.5940682269
 51
360.0
  0
ARC
  5
4D4
100
AcDbEntity
  8
RUNDUNGEN
100
AcDbCircle
 62
7
  6
CONTINUOUS
 10
110.2276049475
 20
82.9768553223
 40
3.0
100
AcDbArc
 50
80.4008966805
 51
90.0
  0
ARC
  5
4D5
100
AcDbEntity
  8
BEZUGSACHSEN
100
AcDbCircle
 62
7
  6
CONTINUOUS
 10
113.7276049475
 20
94.2268553223
 40
3.0
100
AcDbArc
 50
90.0
 51
180.0
  0
ARC
  5
4D6
100
AcDbEntity
  8
BEZUGSACHSEN
100
AcDbCircle
 62
7
  6
CONTINUOUS
 10
107.7276140158
 20
74.7268553223
 40
2.9999954659
100
AcDbArc
 50
269.9998268087
 51
360.0
  0
ARC
  5
4D7
100
AcDbEntity
  8
RUNDUNGEN
100
AcDbCircle
 62
7
  6
CONTINUOUS
 10
98.2276049475
 20
83.9768553223
 40
2.0
100
AcDbArc
 50
90.0
 51
180.0
  0
ARC
  5
4D8
100
AcDbEntity
  8
BEZUGSACHSEN
100
AcDbCircle
 62
7
  6
CONTINUOUS
 10
98.2276049475
 20
69.7268553223
 40
2.0
100
AcDbArc
 50
90.0
 51
180.0
  0
ARC
  5
4D9
100
AcDbEntity
  8
_30_VOLUMEN
100
AcDbCircle
 62
7
  6
CONTINUOUS
 10
149.7276049475
 20
58.7268553223
 40
8.0
100
AcDbArc
 50
199.3446629669
 51
262.8192442185
  0
ARC
  5
4DA
100
AcDbEntity
  8
RUNDUNGEN
100
AcDbCircle
 62
7
  6
CONTINUOUS
 10
149.2276049475
 20
43.4768553223
 40
3.0
100
AcDbArc
 50
260.4008966805
 51
270.0
  0
ARC
  5
4DB
100
AcDbEntity
  8
RUNDUNGEN
100
AcDbCircle
 62
7
  6
CONTINUOUS
 10
149.2276049475
 20
52.2268553223
 40
3.0
100
AcDbArc
 50
260.4006112491
 51
270.0
  0
ARC
  5
4DC
100
AcDbEntity
  8
RUNDUNGEN
100
AcDbCircle
 62
7
  6
CONTINUOUS
 10
145.7276049475
 20
32.2268553223
 40
3.0
100
AcDbArc
 50
270.0
 51
360.0
  0
ARC
  5
4DD
100
AcDbEntity
  8
RUNDUNGEN
100
AcDbCircle
 62
7
  6
CONTINUOUS
 10
151.7276049475
 20
51.7268645799
 40
2.9999944455
100
AcDbArc
 50
90.0
 51
175.7142857143
  0
ARC
  5
4DE
100
AcDbEntity
  8
RUNDUNGEN
100
AcDbCircle
 62
7
  6
CONTINUOUS
 10
169.7276049475
 20
56.7268553223
 40
2.0
100
AcDbArc
 50
270.0
 51
360.0
  0
ARC
  5
4DF
100
AcDbEntity
  8
RUNDUNGEN
100
AcDbCircle
 62
7
  6
CONTINUOUS
 10
183.7276049475
 20
57.6770628605
 40
1.0
100
AcDbArc
 50
290.0
 51
360.0
  0
ARC
  5
4E0
100
AcDbEntity
  8
_30_VOLUMEN
100
AcDbCircle
 62
7
  6
CONTINUOUS
 10
149.7276049475
 20
67.7268553223
 40
8.0
100
AcDbArc
 50
97.1807557815
 51
160.6553370331
  0
ARC
  5
4E1
100
AcDbEntity
  8
RUNDUNGEN
100
AcDbCircle
 62
7
  6
CONTINUOUS
 10
149.2276049475
 20
82.9768553223
 40
3.0
100
AcDbArc
 50
90.0
 51
99.5991033195
  0
ARC
  5
4E2
100
AcDbEntity
  8
BEZUGSACHSEN
100
AcDbCircle
 62
7
  6
CONTINUOUS
 10
149.2276049475
 20
74.2268553223
 40
3.0
100
AcDbArc
 50
90.0
 51
99.5993887509
  0
ARC
  5
4E3
100
AcDbEntity
  8
BEZUGSACHSEN
100
AcDbCircle
 62
7
  6
CONTINUOUS
 10
145.7276049475
 20
94.2268553223
 40
3.0
100
AcDbArc
 50
0.0
 51
90.0
  0
ARC
  5
4E4
100
AcDbEntity
  8
BEZUGSACHSEN
100
AcDbCircle
 62
7
  6
CONTINUOUS
 10
151.7276049475
 20
74.7268460648
 40
2.9999944455
100
AcDbArc
 50
184.2857142857
 51
270.0
  0
ARC
  5
4E5
100
AcDbEntity
  8
BEZUGSACHSEN
100
AcDbCircle
 62
7
  6
CONTINUOUS
 10
169.7276049475
 20
69.7268553223
 40
2.0
100
AcDbArc
 50
0.0
 51
90.0
  0
ARC
  5
4E6
100
AcDbEntity
  8
RUNDUNGEN
100
AcDbCircle
 62
7
  6
CONTINUOUS
 10
183.7276049475
 20
68.7766477841
 40
1.0
100
AcDbArc
 50
0.0
 51
70.0
  0
SPLINE
  5
4E7
100
AcDbEntity
  8
_30_VOLUMEN
100
AcDbSpline
 62
7
  6
CONTINUOUS
 70
0
 71
3
 72
26
 73
22
 74
0
 42
0.0000001
 43
0.0000001
 44
0.0000000001
 40
0.0
 40
0.0
 40
0.0
 40
0.0
 40
0.2004206376
 40
0.3901953809
 40
0.5630015957
 40
0.6412071097
 40
0.7130605878
 40
0.7779580367
 40
0.8353528839
 40
0.8847650647
 40
0.9257771122
 40
0.9430214312
 40
0.9580410759
 40
0.9708058204
 40
0.9812860216
 40
0.9894599039
 40
0.9953121441
 40
0.9973629192
 40
0.9988279613
 40
0.9997069888
 40
1.0
 40
1.0
 40
1.0
 40
1.0
 10
246.190421098
 20
253.323776884
 30
0.0
 10
246.2072017242
 20
254.4599231308
 30
0.0
 10
246.2456106919
 20
256.671786655
 30
0.0
 10
246.3184788599
 20
259.8628664333
 30
0.0
 10
246.3893125827
 20
262.3608830246
 30
0.0
 10
246.4488064477
 20
264.1903784179
 30
0.0
 10
246.4915625289
 20
265.4083093593
 30
0.0
 10
246.5328767745
 20
266.508230027
 30
0.0
 10
246.571623969
 20
267.4809253529
 30
0.0
 10
246.6066959643
 20
268.318241092
 30
0.0
 10
246.6333329846
 20
268.9280789569
 30
0.0
 10
246.6519502101
 20
269.3430945011
 30
0.0
 10
246.6635534373
 20
269.5981179146
 30
0.0
 10
246.6735554759
 20
269.8148247875
 30
0.0
 10
246.6818158337
 20
269.9927619545
 30
0.0
 10
246.6884017456
 20
270.1315373699
 30
0.0
 10
246.6925615006
 20
270.222600147
 30
0.0
 10
246.6952760857
 20
270.2756280638
 30
0.0
 10
246.6961349285
 20
270.3005555266
 30
0.0
 10
246.6974138511
 20
270.31542014
 30
0.0
 10
246.6971387207
 20
270.3221292236
 30
0.0
 10
246.6974598996
 20
270.3237590849
 30
0.0
  0
SPLINE
  5
4E8
100
AcDbEntity
  8
_30_VOLUMEN
100
AcDbSpline
 62
7
  6
CONTINUOUS
 70
0
 71
3
 72
26
 73
22
 74
0
 42
0.0000001
 43
0.0000001
 44
0.0000000001
 40
0.0
 40
0.0
 40
0.0
 40
0.0
 40
0.0002930111
 40
0.0011720386
 40
0.0026370809
 40
0.0046878562
 40
0.010540097
 40
0.0187139797
 40
0.0291941815
 40
0.0419589268
 40
0.0569785722
 40
0.0742228917
 40
0.1152349403
 40
0.1646471214
 40
0.2220419687
 40
0.2869394176
 40
0.3587928954
 40
0.4369984091
 40
0.6098046227
 40
0.7995793643
 40
1.0
 40
1.0
 40
1.0
 40
1.0
 10
270.5298639388
 20
270.3237590834
 30
0.0
 10
270.5301857943
 20
270.322129356
 30
0.0
 10
270.5299090158
 20
270.3154199478
 30
0.0
 10
270.5311895296
 20
270.3005556479
 30
0.0
 10
270.5320474716
 20
270.2756280052
 30
0.0
 10
270.5347626052
 20
270.2226001916
 30
0.0
 10
270.5389219534
 20
270.131537327
 30
0.0
 10
270.5455080614
 20
269.9927619411
 30
0.0
 10
270.5537683433
 20
269.8148247483
 30
0.0
 10
270.56377041
 20
269.5981178687
 30
0.0
 10
270.5753736286
 20
269.3430944421
 30
0.0
 10
270.593990858
 20
268.9280788862
 30
0.0
 10
270.6206278768
 20
268.3182410107
 30
0.0
 10
270.6556998729
 20
267.4809252633
 30
0.0
 10
270.6944470672
 20
266.5082299344
 30
0.0
 10
270.7357613124
 20
265.4083092674
 30
0.0
 10
270.7785173935
 20
264.1903783293
 30
0.0
 10
270.8380112577
 20
262.3608829469
 30
0.0
 10
270.9088449798
 20
259.8628663739
 30
0.0
 10
270.9817131467
 20
256.6717866232
 30
0.0
 10
271.0201221141
 20
254.4599231194
 30
0.0
 10
271.03690274
 20
253.323776884
 30
0.0
  0
SPLINE
  5
4E9
100
AcDbEntity
  8
_30_VOLUMEN
100
AcDbSpline
 62
7
  6
CONTINUOUS
 70
0
 71
3
 72
15
 73
11
 74
0
 42
0.0000001
 43
0.0000001
 44
0.0000000001
 40
0.0
 40
0.0
 40
0.0
 40
0.0
 40
0.1249228461
 40
0.2498593182
 40
0.3748245725
 40
0.4998130492
 40
0.6248223464
 40
0.7498640512
 40
0.8749265709
 40
1.0
 40
1.0
 40
1.0
 40
1.0
 10
251.463661919
 20
239.3028448956
 30
0.0
 10
250.9589414717
 20
239.5045947261
 30
0.0
 10
249.9919251933
 20
240.0244572226
 30
0.0
 10
248.749138095
 20
241.0988246813
 30
0.0
 10
247.7550866212
 20
242.4061161704
 30
0.0
 10
247.0285409761
 20
243.8767559632
 30
0.0
 10
246.5574444833
 20
245.4456480106
 30
0.0
 10
246.3005024275
 20
247.0609545488
 30
0.0
 10
246.193254522
 20
248.6910796286
 30
0.0
 10
246.1764079858
 20
249.7795724935
 30
0.0
 10
246.1764079858
 20
250.323776884
 30
0.0
  0
SPLINE
  5
4EA
100
AcDbEntity
  8
_30_VOLUMEN
100
AcDbSpline
 62
7
  6
CONTINUOUS
 70
0
 71
3
 72
15
 73
11
 74
0
 42
0.0000001
 43
0.0000001
 44
0.0000000001
 40
0.0
 40
0.0
 40
0.0
 40
0.0
 40
0.1250734177
 40
0.2501359075
 40
0.3751775912
 40
0.5001870891
 40
0.6251764585
 40
0.7501414639
 40
0.8750773337
 40
1.0
 40
1.0
 40
1.0
 40
1.0
 10
271.0509158522
 20
250.323776884
 30
0.0
 10
271.0509158522
 20
249.7795725427
 30
0.0
 10
271.0340693388
 20
248.6910798553
 30
0.0
 10
270.9268213803
 20
247.0609550516
 30
0.0
 10
270.6698792875
 20
245.4456478612
 30
0.0
 10
270.1987815199
 20
243.8767513126
 30
0.0
 10
269.4722331069
 20
242.4061085462
 30
0.0
 10
268.4781792504
 20
241.0988187059
 30
0.0
 10
267.2353950335
 20
240.0244550409
 30
0.0
 10
266.2683816402
 20
239.5045944358
 30
0.0
 10
265.763661919
 20
239.3028448956
 30
0.0
  0
SPLINE
  5
4EB
100
AcDbEntity
  8
0
100
AcDbSpline
 62
7
  6
CONTINUOUS
 70
0
 71
3
 72
9
 73
5
 74
0
 42
0.0000001
 43
0.0000001
 44
0.0000000001
 40
0.0
 40
0.0
 40
0.0
 40
0.0
 40
0.7334072003
 40
1.0
 40
1.0
 40
1.0
 40
1.0
 10
169.0663259115
 20
39.9793841701
 30
0.0
 10
169.1122884312
 20
39.9789558133
 30
0.0
 10
169.1749295602
 20
39.9773986996
 30
0.0
 10
169.2376406115
 20
39.977719492
 30
0.0
 10
169.254326305
 20
39.9768553238
 30
0.0
  0
SPLINE
  5
4EC
100
AcDbEntity
  8
0
100
AcDbSpline
 62
7
  6
CONTINUOUS
 70
0
 71
3
 72
10
 73
6
 74
0
 42
0.0000001
 43
0.0000001
 44
0.0000000001
 40
0.0
 40
0.0
 40
0.0
 40
0.0
 40
0.2667412577
 40
0.5841975704
 40
1.0
 40
1.0
 40
1.0
 40
1.0
 10
169.2543233682
 20
40.4768555219
 30
0.0
 10
169.2710008034
 20
40.4757044261
 30
0.0
 10
169.1825059979
 20
40.4785529074
 30
0.0
 10
169.1458964101
 20
40.4783069923
 30
0.0
 10
169.0923838015
 20
40.4791413185
 30
0.0
 10
169.0663259115
 20
40.4793841701
 30
0.0
  0
SPLINE
  5
4ED
100
AcDbEntity
  8
BEZUGSACHSEN
100
AcDbSpline
 62
7
  6
CONTINUOUS
 70
0
 71
3
 72
16
 73
12
 74
0
 42
0.0000001
 43
0.0000001
 44
0.0000000001
 40
0.0
 40
0.0
 40
0.0
 40
0.0
 40
0.3815318874
 40
0.5538595455
 40
0.7049121879
 40
0.8290290306
 40
0.9214217248
 40
0.9546300171
 40
0.9787366559
 40
0.9936863785
 40
1.0
 40
1.0
 40
1.0
 40
1.0
 10
154.0090448261
 20
85.9377496733
 30
0.0
 10
153.9579861918
 20
85.9377496733
 30
0.0
 10
153.8838562549
 20
85.9385537583
 30
0.0
 10
153.7895715514
 20
85.9413513286
 30
0.0
 10
153.7297141882
 20
85.9439785675
 30
0.0
 10
153.6806865772
 20
85.9469892526
 30
0.0
 10
153.6472296385
 20
85.9498862194
 30
0.0
 10
153.6275602617
 20
85.9523476236
 30
0.0
 10
153.6176652988
 20
85.9540689925
 30
0.0
 10
153.6124394202
 20
85.9553924325
 30
0.0
 10
153.6090448261
 20
85.956857038
 30
0.0
 10
153.6090448261
 20
85.9577019605
 30
0.0
  0
SPLINE
  5
4EE
100
AcDbEntity
  8
BEZUGSACHSEN
100
AcDbSpline
 62
7
  6
CONTINUOUS
 70
0
 71
3
 72
14
 73
10
 74
0
 42
0.0000001
 43
0.0000001
 44
0.0000000001
 40
0.0
 40
0.0
 40
0.0
 40
0.0
 40
0.0238734195
 40
0.0817235293
 40
0.1739867558
 40
0.2976781258
 40
0.4481623019
 40
0.6198485842
 40
1.0
 40
1.0
 40
1.0
 40
1.0
 10
163.2090448261
 20
85.9107274688
 30
0.0
 10
163.2090448261
 20
85.9139357428
 30
0.0
 10
163.195278943
 20
85.9188378402
 30
0.0
 10
163.1752495902
 20
85.9228154053
 30
0.0
 10
163.1371238081
 20
85.9274014163
 30
0.0
 10
163.0886614271
 20
85.9309840953
 30
0.0
 10
163.0285794618
 20
85.9340082343
 30
0.0
 10
162.9343387261
 20
85.9369631541
 30
0.0
 10
162.8601321842
 20
85.9377496733
 30
0.0
 10
162.8090448261
 20
85.9377496733
 30
0.0
  0
SPLINE
  5
4EF
100
AcDbEntity
  8
BEZUGSACHSEN
100
AcDbSpline
 62
7
  6
CONTINUOUS
 70
0
 71
3
 72
13
 73
9
 74
0
 42
0.0000001
 43
0.0000001
 44
0.0000000001
 40
0.0
 40
0.0
 40
0.0
 40
0.0
 40
0.3246031191
 40
0.6534263592
 40
0.7905708725
 40
0.8969509512
 40
0.9666170647
 40
1.0
 40
1.0
 40
1.0
 40
1.0
 10
163.8210444021
 20
85.6874027741
 30
0.0
 10
163.7538841699
 20
85.6806422488
 30
0.0
 10
163.6180181561
 20
85.674860336
 30
0.0
 10
163.4530960856
 20
85.6808464203
 30
0.0
 10
163.3354502814
 20
85.6938253783
 30
0.0
 10
163.2700456006
 20
85.7068679382
 30
0.0
 10
163.23097698
 20
85.7177743095
 30
0.0
 10
163.2090448261
 20
85.7324709529
 30
0.0
 10
163.2090448261
 20
85.739412772
 30
0.0
  0
SPLINE
  5
4F0
100
AcDbEntity
  8
0
100
AcDbSpline
 62
7
  6
CONTINUOUS
 70
0
 71
3
 72
13
 73
9
 74
0
 42
0.0000001
 43
0.0000001
 44
0.0000000001
 40
0.0
 40
0.0
 40
0.0
 40
0.0
 40
0.3246031191
 40
0.6534263592
 40
0.7905708725
 40
0.8969509512
 40
0.9666170647
 40
1.0
 40
1.0
 40
1.0
 40
1.0
 10
163.8210444021
 20
40.7663078706
 30
0.0
 10
163.7538841699
 20
40.7730683958
 30
0.0
 10
163.6180181561
 20
40.7788503087
 30
0.0
 10
163.4530960856
 20
40.7728642244
 30
0.0
 10
163.3354502814
 20
40.7598852663
 30
0.0
 10
163.2700456006
 20
40.7468427065
 30
0.0
 10
163.23097698
 20
40.7359363352
 30
0.0
 10
163.2090448261
 20
40.7212396918
 30
0.0
 10
163.2090448261
 20
40.7142978727
 30
0.0
  0
SPLINE
  5
4F1
100
AcDbEntity
  8
0
100
AcDbSpline
 62
7
  6
CONTINUOUS
 70
0
 71
3
 72
14
 73
10
 74
0
 42
0.0000001
 43
0.0000001
 44
0.0000000001
 40
0.0
 40
0.0
 40
0.0
 40
0.0
 40
0.0238734195
 40
0.0817235293
 40
0.1739867558
 40
0.2976781258
 40
0.4481623019
 40
0.6198485842
 40
1.0
 40
1.0
 40
1.0
 40
1.0
 10
163.2090448261
 20
40.5429831759
 30
0.0
 10
163.2090448261
 20
40.5397749018
 30
0.0
 10
163.195278943
 20
40.5348728045
 30
0.0
 10
163.1752495902
 20
40.5308952394
 30
0.0
 10
163.1371238081
 20
40.5263092284
 30
0.0
 10
163.0886614271
 20
40.5227265494
 30
0.0
 10
163.0285794618
 20
40.5197024103
 30
0.0
 10
162.9343387261
 20
40.5167474906
 30
0.0
 10
162.8601321842
 20
40.5159609713
 30
0.0
 10
162.8090448261
 20
40.5159609713
 30
0.0
  0
SPLINE
  5
4F2
100
AcDbEntity
  8
0
100
AcDbSpline
 62
7
  6
CONTINUOUS
 70
0
 71
3
 72
16
 73
12
 74
0
 42
0.0000001
 43
0.0000001
 44
0.0000000001
 40
0.0
 40
0.0
 40
0.0
 40
0.0
 40
0.3815318874
 40
0.5538595455
 40
0.7049121879
 40
0.8290290306
 40
0.9214217248
 40
0.9546300171
 40
0.9787366559
 40
0.9936863785
 40
1.0
 40
1.0
 40
1.0
 40
1.0
 10
154.0090448261
 20
40.5159609713
 30
0.0
 10
153.9579861918
 20
40.5159609713
 30
0.0
 10
153.8838562549
 20
40.5151568864
 30
0.0
 10
153.7895715514
 20
40.5123593161
 30
0.0
 10
153.7297141882
 20
40.5097320771
 30
0.0
 10
153.6806865772
 20
40.5067213921
 30
0.0
 10
153.6472296385
 20
40.5038244253
 30
0.0
 10
153.6275602617
 20
40.5013630211
 30
0.0
 10
153.6176652988
 20
40.4996416521
 30
0.0
 10
153.6124394202
 20
40.4983182122
 30
0.0
 10
153.6090448261
 20
40.4968536067
 30
0.0
 10
153.6090448261
 20
40.4960086841
 30
0.0
  0
SPLINE
  5
4F3
100
AcDbEntity
  8
_30_VOLUMEN
100
AcDbSpline
 62
7
  6
CONTINUOUS
 70
0
 71
3
 72
29
 73
25
 74
0
 42
0.0000001
 43
0.0000001
 44
0.0000000001
 40
0.0
 40
0.0
 40
0.0
 40
0.0
 40
0.0069707221
 40
0.0180664061
 40
0.033195015
 40
0.0522329359
 40
0.0750193278
 40
0.1013635205
 40
0.1638167149
 40
0.2375048003
 40
0.3199672084
 40
0.4084523063
 40
0.4999998992
 40
0.5915474984
 40
0.6800326302
 40
0.7624950769
 40
0.8361831964
 40
0.8986364286
 40
0.9249806328
 40
0.9477670324
 40
0.9668049643
 40
0.9819335824
 40
0.9930292736
 40
1.0
 40
1.0
 40
1.0
 40
1.0
 10
110.8331613198
 20
75.6500961433
 30
0.0
 10
110.9201719983
 20
75.6379552515
 30
0.0
 10
111.1470358477
 20
75.617024479
 30
0.0
 10
111.564202792
 20
75.5861132226
 30
0.0
 10
112.1336528502
 20
75.5516722024
 30
0.0
 10
112.8504250257
 20
75.5135903955
 30
0.0
 10
113.7086193196
 20
75.4730384971
 30
0.0
 10
115.1136639201
 20
75.4131995247
 30
0.0
 10
117.1601952451
 20
75.3392605554
 30
0.0
 10
119.91419711
 20
75.2601852489
 30
0.0
 10
122.9967493946
 20
75.1954365598
 30
0.0
 10
126.3048010163
 20
75.1528908948
 30
0.0
 10
129.7276012151
 20
75.1380569519
 30
0.0
 10
133.1504018418
 20
75.1528907988
 30
0.0
 10
136.4584544572
 20
75.195436471
 30
0.0
 10
139.5410080868
 20
75.2601851319
 30
0.0
 10
142.2950113454
 20
75.3392604479
 30
0.0
 10
144.3415437218
 20
75.4131994298
 30
0.0
 10
145.7465890395
 20
75.4730384315
 30
0.0
 10
146.6047837127
 20
75.5135903356
 30
0.0
 10
147.3215562401
 20
75.5516721551
 30
0.0
 10
147.8910066428
 20
75.5861131899
 30
0.0
 10
148.3081738481
 20
75.6170244652
 30
0.0
 10
148.5350378426
 20
75.6379552439
 30
0.0
 10
148.6220485752
 20
75.6500961433
 30
0.0
  0
SPLINE
  5
4F4
100
AcDbEntity
  8
_30_VOLUMEN
100
AcDbSpline
 62
7
  6
CONTINUOUS
 70
0
 71
3
 72
29
 73
25
 74
0
 42
0.0000001
 43
0.0000001
 44
0.0000000001
 40
0.0
 40
0.0
 40
0.0
 40
0.0
 40
0.0069707264
 40
0.0180664174
 40
0.0331950354
 40
0.0522329672
 40
0.0750193665
 40
0.1013635705
 40
0.1638168021
 40
0.2375049209
 40
0.3199673669
 40
0.408452498
 40
0.5000000976
 40
0.5915476941
 40
0.6800327941
 40
0.7624952019
 40
0.8361832866
 40
0.8986364804
 40
0.9249806729
 40
0.9477670645
 40
0.9668049853
 40
0.9819335941
 40
0.993029278
 40
1.0
 40
1.0
 40
1.0
 40
1.0
 10
148.6220485752
 20
50.8036145013
 30
0.0
 10
148.5350378432
 20
50.8157554007
 30
0.0
 10
148.3081738506
 20
50.8366861793
 30
0.0
 10
147.891006649
 20
50.8675974544
 30
0.0
 10
147.3215562516
 20
50.9020384889
 30
0.0
 10
146.6047837309
 20
50.9401203081
 30
0.0
 10
145.7465890659
 20
50.980672212
 30
0.0
 10
144.3415437612
 20
51.0405112132
 30
0.0
 10
142.2950114038
 20
51.1144501949
 30
0.0
 10
139.5410081697
 20
51.1935255107
 30
0.0
 10
136.458454566
 20
51.258274172
 30
0.0
 10
133.1504019645
 20
51.3008198444
 30
0.0
 10
129.7276012964
 20
51.3156536928
 30
0.0
 10
126.3048010215
 20
51.3008197499
 30
0.0
 10
122.9967493307
 20
51.2582740841
 30
0.0
 10
119.9141970322
 20
51.1935253938
 30
0.0
 10
117.1601951864
 20
51.1144500874
 30
0.0
 10
115.1136638808
 20
51.0405111183
 30
0.0
 10
113.7086192933
 20
50.9806721464
 30
0.0
 10
112.8504250075
 20
50.9401202482
 30
0.0
 10
112.1336528386
 20
50.9020384416
 30
0.0
 10
111.5642027859
 20
50.8675974216
 30
0.0
 10
111.1470358453
 20
50.8366861655
 30
0.0
 10
110.9201719977
 20
50.8157553931
 30
0.0
 10
110.8331613198
 20
50.8036145013
 30
0.0
  0
SPLINE
  5
4F5
100
AcDbEntity
  8
BEZUGSACHSEN
100
AcDbSpline
 62
7
  6
CONTINUOUS
 70
0
 71
3
 72
10
 73
6
 74
0
 42
0.0000001
 43
0.0000001
 44
0.0000000001
 40
0.0
 40
0.0
 40
0.0
 40
0.0
 40
0.2667412577
 40
0.5841975704
 40
1.0
 40
1.0
 40
1.0
 40
1.0
 10
169.2543233682
 20
85.9768551228
 30
0.0
 10
169.271000803
 20
85.9780062241
 30
0.0
 10
169.1825059981
 20
85.9751577343
 30
0.0
 10
169.14589641
 20
85.9754036537
 30
0.0
 10
169.0923838015
 20
85.9745693262
 30
0.0
 10
169.0663259115
 20
85.9743264745
 30
0.0
  0
SPLINE
  5
4F6
100
AcDbEntity
  8
BEZUGSACHSEN
100
AcDbSpline
 62
7
  6
CONTINUOUS
 70
0
 71
3
 72
13
 73
9
 74
0
 42
0.0000001
 43
0.0000001
 44
0.0000000001
 40
0.0
 40
0.0
 40
0.0
 40
0.0
 40
0.0333840806
 40
0.1030615084
 40
0.2094547836
 40
0.3466026657
 40
0.6754134618
 40
1.0
 40
1.0
 40
1.0
 40
1.0
 10
163.2090448261
 20
86.239412772
 30
0.0
 10
163.2090448261
 20
86.2324707152
 30
0.0
 10
163.2309799839
 20
86.2177727277
 30
0.0
 10
163.2700533702
 20
86.2068658808
 30
0.0
 10
163.3354641861
 20
86.1938232086
 30
0.0
 10
163.4531109603
 20
86.1808456721
 30
0.0
 10
163.6180276629
 20
86.1748606091
 30
0.0
 10
163.7538876054
 20
86.1806425947
 30
0.0
 10
163.8210444021
 20
86.1874027741
 30
0.0
  0
SPLINE
  5
4F7
100
AcDbEntity
  8
BEZUGSACHSEN
100
AcDbSpline
 62
7
  6
CONTINUOUS
 70
0
 71
3
 72
14
 73
10
 74
0
 42
0.0000001
 43
0.0000001
 44
0.0000000001
 40
0.0
 40
0.0
 40
0.0
 40
0.0
 40
0.3801496227
 40
0.551833921
 40
0.702317838
 40
0.8260105213
 40
0.9182767738
 40
0.9761280678
 40
1.0
 40
1.0
 40
1.0
 40
1.0
 10
162.8090448261
 20
86.4377496733
 30
0.0
 10
162.8601319544
 20
86.4377496733
 30
0.0
 10
162.9343379992
 20
86.4369631673
 30
0.0
 10
163.0285782279
 20
86.43400827
 30
0.0
 10
163.0886600517
 20
86.4309841819
 30
0.0
 10
163.1371230758
 20
86.4274016221
 30
0.0
 10
163.1752494204
 20
86.4228150093
 30
0.0
 10
163.1952795136
 20
86.4188382504
 30
0.0
 10
163.2090448261
 20
86.4139355437
 30
0.0
 10
163.2090448261
 20
86.4107274688
 30
0.0
  0
SPLINE
  5
4F8
100
AcDbEntity
  8
BEZUGSACHSEN
100
AcDbSpline
 62
7
  6
CONTINUOUS
 70
0
 71
3
 72
16
 73
12
 74
0
 42
0.0000001
 43
0.0000001
 44
0.0000000001
 40
0.0
 40
0.0
 40
0.0
 40
0.0
 40
0.0063130754
 40
0.0212617291
 40
0.0453682336
 40
0.0785779632
 40
0.1709738316
 40
0.2950921298
 40
0.4461445899
 40
0.6184701944
 40
1.0
 40
1.0
 40
1.0
 40
1.0
 10
153.6090448261
 20
86.4577019605
 30
0.0
 10
153.6090448261
 20
86.456857111
 30
0.0
 10
153.6124389516
 20
86.4553923791
 30
0.0
 10
153.6176647711
 20
86.4540690605
 30
0.0
 10
153.6275597049
 20
86.4523476618
 30
0.0
 10
153.6472297165
 20
86.4498862978
 30
0.0
 10
153.6806874388
 20
86.4469891524
 30
0.0
 10
153.7297156669
 20
86.4439784927
 30
0.0
 10
153.7895729293
 20
86.4413512763
 30
0.0
 10
153.8838570711
 20
86.4385537493
 30
0.0
 10
153.9579864635
 20
86.4377496733
 30
0.0
 10
154.0090448261
 20
86.4377496733
 30
0.0
  0
SPLINE
  5
4F9
100
AcDbEntity
  8
BEZUGSACHSEN
100
AcDbSpline
 62
7
  6
CONTINUOUS
 70
0
 71
3
 72
9
 73
5
 74
0
 42
0.0000001
 43
0.0000001
 44
0.0000000001
 40
0.0
 40
0.0
 40
0.0
 40
0.0
 40
0.7334072003
 40
1.0
 40
1.0
 40
1.0
 40
1.0
 10
169.0663259115
 20
86.4743264745
 30
0.0
 10
169.1122884312
 20
86.4747548314
 30
0.0
 10
169.1749295602
 20
86.476311945
 30
0.0
 10
169.2376406115
 20
86.4759911528
 30
0.0
 10
169.254326305
 20
86.4768553209
 30
0.0
  0
SPLINE
  5
4FA
100
AcDbEntity
  8
0
100
AcDbSpline
 62
7
  6
CONTINUOUS
 70
0
 71
3
 72
13
 73
9
 74
0
 42
0.0000001
 43
0.0000001
 44
0.0000000001
 40
0.0
 40
0.0
 40
0.0
 40
0.0
 40
0.0333840806
 40
0.1030615084
 40
0.2094547836
 40
0.3466026657
 40
0.6754134618
 40
1.0
 40
1.0
 40
1.0
 40
1.0
 10
163.2090448261
 20
40.2142978727
 30
0.0
 10
163.2090448261
 20
40.2212399294
 30
0.0
 10
163.2309799839
 20
40.235937917
 30
0.0
 10
163.2700533702
 20
40.2468447639
 30
0.0
 10
163.3354641861
 20
40.2598874361
 30
0.0
 10
163.4531109603
 20
40.2728649725
 30
0.0
 10
163.6180276629
 20
40.2788500356
 30
0.0
 10
163.7538876054
 20
40.27306805
 30
0.0
 10
163.8210444021
 20
40.2663078706
 30
0.0
  0
SPLINE
  5
4FB
100
AcDbEntity
  8
0
100
AcDbSpline
 62
7
  6
CONTINUOUS
 70
0
 71
3
 72
14
 73
10
 74
0
 42
0.0000001
 43
0.0000001
 44
0.0000000001
 40
0.0
 40
0.0
 40
0.0
 40
0.0
 40
0.3801496227
 40
0.551833921
 40
0.702317838
 40
0.8260105213
 40
0.9182767738
 40
0.9761280678
 40
1.0
 40
1.0
 40
1.0
 40
1.0
 10
162.8090448261
 20
40.0159609713
 30
0.0
 10
162.8601319544
 20
40.0159609713
 30
0.0
 10
162.9343379992
 20
40.0167474774
 30
0.0
 10
163.0285782279
 20
40.0197023747
 30
0.0
 10
163.0886600517
 20
40.0227264628
 30
0.0
 10
163.1371230758
 20
40.0263090226
 30
0.0
 10
163.1752494204
 20
40.0308956354
 30
0.0
 10
163.1952795136
 20
40.0348723942
 30
0.0
 10
163.2090448261
 20
40.039775101
 30
0.0
 10
163.2090448261
 20
40.0429831759
 30
0.0
  0
SPLINE
  5
4FC
100
AcDbEntity
  8
0
100
AcDbSpline
 62
7
  6
CONTINUOUS
 70
0
 71
3
 72
16
 73
12
 74
0
 42
0.0000001
 43
0.0000001
 44
0.0000000001
 40
0.0
 40
0.0
 40
0.0
 40
0.0
 40
0.0063130754
 40
0.0212617291
 40
0.0453682336
 40
0.0785779632
 40
0.1709738316
 40
0.2950921298
 40
0.4461445899
 40
0.6184701944
 40
1.0
 40
1.0
 40
1.0
 40
1.0
 10
153.6090448261
 20
39.9960086841
 30
0.0
 10
153.6090448261
 20
39.9968535337
 30
0.0
 10
153.6124389516
 20
39.9983182656
 30
0.0
 10
153.6176647711
 20
39.9996415842
 30
0.0
 10
153.6275597049
 20
40.0013629829
 30
0.0
 10
153.6472297165
 20
40.0038243469
 30
0.0
 10
153.6806874388
 20
40.0067214923
 30
0.0
 10
153.7297156669
 20
40.0097321519
 30
0.0
 10
153.7895729293
 20
40.0123593684
 30
0.0
 10
153.8838570711
 20
40.0151568954
 30
0.0
 10
153.9579864635
 20
40.0159609713
 30
0.0
 10
154.0090448261
 20
40.0159609713
 30
0.0
  0
ELLIPSE
  5
4FD
100
AcDbEntity
  8
BEZUGSACHSEN
100
AcDbEllipse
 62
7
  6
CONTINUOUS
 10
169.6090448261
 20
63.2268553223
 30
0.0
 11
36.4
 21
0.0
 31
0.0
 40
0.625
 41
1.5857067396
 42
1.730485154
  0
ELLIPSE
  5
4FE
100
AcDbEntity
  8
0
100
AcDbEllipse
 62
7
  6
CONTINUOUS
 10
169.6090448261
 20
63.2268553223
 30
0.0
 11
36.4
 21
-0.0
 31
0.0
 40
0.625
 41
-1.730485154
 42
-1.5857067396
  0
ELLIPSE
  5
4FF
100
AcDbEntity
  8
BEZUGSACHSEN
100
AcDbEllipse
 62
7
  6
CONTINUOUS
 10
169.6090448261
 20
63.7268553223
 30
0.0
 11
36.4
 21
0.0
 31
0.0
 40
0.625
 41
1.5857067396
 42
1.730485154
  0
ELLIPSE
  5
500
100
AcDbEntity
  8
0
100
AcDbEllipse
 62
7
  6
CONTINUOUS
 10
169.6090448261
 20
62.7268553223
 30
0.0
 11
36.4
 21
0.0
 31
0.0
 40
0.625
 41
-1.730485154
 42
-1.5857067396
  0
ENDSEC
  0
SECTION
  2
OBJECTS
  0
DICTIONARY
  5
C
100
AcDbDictionary
280
0
281
1
  3
ACAD_GROUP
350
D
  3
ACAD_MLINESTYLE
350
17
  3
ACAD_LAYOUT
350
1A
  3
ACAD_PLOTSETTINGS
350
19
  3
ACAD_PLOTSTYLENAME
350
E
  0
DICTIONARY
  5
D
102
{ACAD_REACTORS
330
C
102
}
100
AcDbDictionary
280
0
281
1
  0
ACDBDICTIONARYWDFLT
  5
E
102
{ACAD_REACTORS
330
C
102
}
100
AcDbDictionary
281
1
  3
Normal
350
F
100
AcDbDictionaryWithDefault
340
F
  0
DICTIONARY
  5
17
102
{ACAD_REACTORS
330
C
102
}
100
AcDbDictionary
280
0
281
1
  3
Standard
350
18
  0
DICTIONARY
  5
19
102
{ACAD_REACTORS
330
C
102
}
100
AcDbDictionary
281
1
  0
DICTIONARY
  5
1A
102
{ACAD_REACTORS
330
C
102
}
100
AcDbDictionary
281
1
  3
Model
350
501
  3
Layout1
350
502
  0
ACDBPLACEHOLDER
  5
F
102
{ACAD_REACTORS
330
E
102
}
  0
MLINESTYLE
  5
18
102
{ACAD_REACTORS
330
17
102
}
100
AcDbMlineStyle
  2
STANDARD
 70
0
  3

 62
256
 51
90.0
 52
90.0
 71
2
 49
0.5
 62
256
  6
BYLAYER
 49
-0.5
 62
256
  6
BYLAYER
  0
LAYOUT
  5
501
102
{ACAD_REACTORS
330
1A
102
}
100
AcDbPlotSettings
  1

  2
none_device
  4
ISO_A3_(420.00_x_297.00_MM)
  6

 40
0.0
 41
0.0
 42
0.0
 43
0.0
 44
420.0
 45
297.0
 46
0.0
 47
0.0
 48
0.0
 49
0.0
140
0.0
141
0.0
142
1.0
143
1.0
 70
1024
 72
1
 73
0
 74
0
  7

 75
0
147
1.0
148
0.0
149
0.0
100
AcDbLayout
  1
Model
 70
0
 71
0
 10
0.0
 20
0.0
 11
420.0
 21
297.0
 12
0.0
 22
0.0
 32
0.0
 14
0.0
 24
0.0
 34
0.0
 15
0.0
 25
0.0
 35
0.0
146
0.0
 13
0.0
 23
0.0
 33
0.0
 16
1.0
 26
0.0
 36
0.0
 17
0.0
 27
1.0
 37
0.0
 76
0
330
217
345
0
346
0
  0
LAYOUT
  5
502
102
{ACAD_REACTORS
330
1A
102
}
100
AcDbPlotSettings
  1

  2
none_device
  4
ISO_A3_(420.00_x_297.00_MM)
  6

 40
0.0
 41
0.0
 42
0.0
 43
0.0
 44
420.0
 45
297.0
 46
0.0
 47
0.0
 48
0.0
 49
0.0
140
0.0
141
0.0
142
1.0
143
1.0
 70
0
 72
1
 73
0
 74
0
  7

 75
0
147
1.0
148
0.0
149
0.0
100
AcDbLayout
  1
Layout1
 70
0
 71
1
 10
0.0
 20
0.0
 11
420.0
 21
297.0
 12
0.0
 22
0.0
 32
0.0
 14
0.0
 24
0.0
 34
0.0
 15
0.0
 25
0.0
 35
0.0
146
0.0
 13
0.0
 23
0.0
 33
0.0
 16
1.0
 26
0.0
 36
0.0
 17
0.0
 27
1.0
 37
0.0
 76
0
330
218
345
0
346
0
  0
ENDSEC
  0
EOF
