999
DXF file: IRS-LT-M48-7907801-M35563-P-8.dxf
999
Pro/ENGINEER 2011490 by Parametric Technology Corporation
  0
SECTION
  2
HEADER
  9
$ACADVER
  1
AC1021
  9
$DWGCODEPAGE
  3
ANSI_1252
  9
$EXTMAX
 10
594.0
 20
420.0
 30
0.0
  9
$EXTMIN
 10
0.0
 20
0.0
 30
0.0
  9
$LIMMIN
 10
0.0
 20
0.0
  9
$LIMMAX
 10
594.0
 20
420.0
  9
$VIEWCTR
 10
297.0
 20
210.0
  9
$VIEWSIZE
 40
420.0
  9
$CLAYER
  8
0
  9
$LTSCALE
 40
32.67
  9
$CELTYPE
  6
BYLAYER
  9
$DIMSCALE
 40
1.0
  9
$DIMASZ
 40
3.5
  9
$DIMEXO
 40
3.7125
  9
$DIMDLI
 40
22.572
  9
$DIMEXE
 40
10.692
  9
$DIMCEN
 40
5.346
  9
$DIMLFAC
 40
1.0
  9
$DIMBLK
  1
_FILLED
  9
$DIMTXT
 40
3.5
  9
$DIMTOL
 70
1
  9
$DIMLIM
 70
0
  9
$DIMTFAC
 40
1.0
  9
$DIMTP
 40
0.005
  9
$DIMTM
 40
0.005
  9
$PDMODE
 70
3
  9
$PDSIZE
 40
0.3125
  9
$HANDSEED
  5
6DC
  9
$TILEMODE
 70
1
  9
$MEASUREMENT
 70
1
  9
$INSUNITS
 70
4
  0
ENDSEC
  0
SECTION
  2
CLASSES
  0
CLASS
  1
ACDBDICTIONARYWDFLT
  2
AcDbDictionaryWithDefault
  3
AutoCAD 2000
 90
0
 91
1
280
0
281
0
  0
CLASS
  1
ACDBPLACEHOLDER
  2
AcDbPlaceHolder
  3
AutoCAD 2000
 90
0
 91
1
280
0
281
0
  0
CLASS
  1
LAYOUT
  2
AcDbLayout
  3
AutoCAD 2000
 90
0
 91
0
280
0
281
0
  0
ENDSEC
  0
SECTION
  2
TABLES
  0
TABLE
  2
VPORT
  5
8
100
AcDbSymbolTable
 70
2
  0
VPORT
  5
1F4
100
AcDbSymbolTableRecord
100
AcDbViewportTableRecord
  2
*ACTIVE
 70
0
 10
0.0
 20
0.0
 11
1.0
 21
1.0
 12
297.0
 22
210.0
 13
0.0
 23
0.0
 14
1.0
 24
1.0
 15
0.0
 25
0.0
 16
0.0
 26
0.0
 36
1.0
 17
0.0
 27
0.0
 37
0.0
 40
420.0
 41
1.4142857143
 42
50.0
 43
0.0
 44
0.0
 50
0.0
 51
0.0
 71
0
 72
100
 73
1
 74
1
 75
0
 76
0
 77
0
 78
0
  0
ENDTAB
  0
TABLE
  2
LTYPE
  5
5
100
AcDbSymbolTable
 70
6
  0
LTYPE
  5
14
100
AcDbSymbolTableRecord
100
AcDbLinetypeTableRecord
  2
BYBLOCK
 70
0
  3

 72
65
 73
0
 40
0.0
  0
LTYPE
  5
15
100
AcDbSymbolTableRecord
100
AcDbLinetypeTableRecord
  2
BYLAYER
 70
0
  3

 72
65
 73
0
 40
0.0
  0
LTYPE
  5
16
100
AcDbSymbolTableRecord
100
AcDbLinetypeTableRecord
  2
CONTINUOUS
 70
64
  3
Solid line
 72
65
 73
0
 40
0.0
  0
LTYPE
  5
1F5
100
AcDbSymbolTableRecord
100
AcDbLinetypeTableRecord
  2
CENTER
 70
64
  3
____ _ ____ _ ____ _ ____ _ ____ _ ____ _ ____
 72
65
 73
4
 40
0.6
 49
0.375
 74
0
 49
-0.075
 74
0
 49
0.075
 74
0
 49
-0.075
 74
0
  0
LTYPE
  5
1F6
100
AcDbSymbolTableRecord
100
AcDbLinetypeTableRecord
  2
HIDDEN
 70
64
  3
- - - - - - - - - - - - - - - - - - - -
 72
65
 73
2
 40
0.2
 49
0.1
 74
0
 49
-0.1
 74
0
  0
LTYPE
  5
1F7
100
AcDbSymbolTableRecord
100
AcDbLinetypeTableRecord
  2
PHANTOM
 70
64
  3
_____ _ _ _____ _ _ _____ _ _ _____
 72
65
 73
6
 40
0.8
 49
0.45
 74
0
 49
-0.05
 74
0
 49
0.1
 74
0
 49
-0.05
 74
0
 49
0.1
 74
0
 49
-0.05
 74
0
  0
LTYPE
  5
1F8
100
AcDbSymbolTableRecord
100
AcDbLinetypeTableRecord
  2
DOT
 70
64
  3
. . . . . . . . . . . . . . . . . . . .
 72
65
 73
2
 40
0.2
 49
0.1
 74
0
 49
-0.1
 74
0
  0
LTYPE
  5
1F9
100
AcDbSymbolTableRecord
100
AcDbLinetypeTableRecord
  2
DASHED
 70
64
  3
- - - - - - - - - - - - - - - - - - - -
 72
65
 73
2
 40
0.2
 49
0.1
 74
0
 49
-0.1
 74
0
  0
ENDTAB
  0
TABLE
  2
LAYER
  5
2
100
AcDbSymbolTable
 70
36
  0
LAYER
  5
10
100
AcDbSymbolTableRecord
100
AcDbLayerTableRecord
  2
0
 70
0
 62
7
  6
CONTINUOUS
370
-3
390
F
  0
LAYER
  5
1FA
100
AcDbSymbolTableRecord
100
AcDbLayerTableRecord
  2
DEFAULT_1
 70
0
 62
7
  6
CENTER
370
-3
390
F
  0
LAYER
  5
1FB
100
AcDbSymbolTableRecord
100
AcDbLayerTableRecord
  2
DEFAULT_2
 70
0
 62
8
  6
HIDDEN
370
-3
390
F
  0
LAYER
  5
1FC
100
AcDbSymbolTableRecord
100
AcDbLayerTableRecord
  2
DEFAULT_3
 70
0
 62
7
  6
PHANTOM
370
-3
390
F
  0
LAYER
  5
1FD
100
AcDbSymbolTableRecord
100
AcDbLayerTableRecord
  2
B-ACHSEN
 70
0
 62
7
  6
CONTINUOUS
370
-3
390
F
  0
LAYER
  5
1FE
100
AcDbSymbolTableRecord
100
AcDbLayerTableRecord
  2
B-EBENEN
 70
0
 62
7
  6
CONTINUOUS
370
-3
390
F
  0
LAYER
  5
1FF
100
AcDbSymbolTableRecord
100
AcDbLayerTableRecord
  2
B-KOORSYS
 70
0
 62
7
  6
CONTINUOUS
370
-3
390
F
  0
LAYER
  5
200
100
AcDbSymbolTableRecord
100
AcDbLayerTableRecord
  2
B-PUNKTE
 70
0
 62
7
  6
CONTINUOUS
370
-3
390
F
  0
LAYER
  5
201
100
AcDbSymbolTableRecord
100
AcDbLayerTableRecord
  2
BEMASSUNG
 70
0
 62
7
  6
CONTINUOUS
370
-3
390
F
  0
LAYER
  5
202
100
AcDbSymbolTableRecord
100
AcDbLayerTableRecord
  2
BOHRUNGEN
 70
0
 62
7
  6
CONTINUOUS
370
-3
390
F
  0
LAYER
  5
203
100
AcDbSymbolTableRecord
100
AcDbLayerTableRecord
  2
FLAECHEN
 70
0
 62
7
  6
CONTINUOUS
370
-3
390
F
  0
LAYER
  5
204
100
AcDbSymbolTableRecord
100
AcDbLayerTableRecord
  2
NOTIZEN
 70
0
 62
7
  6
CONTINUOUS
370
-3
390
F
  0
LAYER
  5
205
100
AcDbSymbolTableRecord
100
AcDbLayerTableRecord
  2
RUNDUNGEN
 70
0
 62
7
  6
CONTINUOUS
370
-3
390
F
  0
LAYER
  5
206
100
AcDbSymbolTableRecord
100
AcDbLayerTableRecord
  2
VERBUNDFLAECHEN
 70
0
 62
7
  6
CONTINUOUS
370
-3
390
F
  0
ENDTAB
  0
TABLE
  2
STYLE
  5
3
100
AcDbSymbolTable
 70
1
  0
STYLE
  5
11
100
AcDbSymbolTableRecord
100
AcDbTextStyleTableRecord
  2
STANDARD
 70
0
 40
0.0
 41
0.7
 50
0.0
 71
0
 42
0.2
  3
txt
  4

  0
STYLE
  5
207
100
AcDbSymbolTableRecord
100
AcDbTextStyleTableRecord
  2
TEXTSTYLE_1
 70
0
 40
0.0
 41
0.8
 50
0.0
 71
0
 42
0.2
  3
gdt
  4

  0
ENDTAB
  0
TABLE
  2
VIEW
  5
6
100
AcDbSymbolTable
 70
0
  0
ENDTAB
  0
TABLE
  2
UCS
  5
7
100
AcDbSymbolTable
 70
0
  0
ENDTAB
  0
TABLE
  2
APPID
  5
9
100
AcDbSymbolTable
 70
1
  0
APPID
  5
208
100
AcDbSymbolTableRecord
100
AcDbRegAppTableRecord
  2
ACAD
 70
0
  0
ENDTAB
  0
TABLE
  2
BLOCK_RECORD
  5
1
100
AcDbSymbolTable
 70
0
  0
BLOCK_RECORD
  5
209
100
AcDbSymbolTableRecord
100
AcDbBlockTableRecord
  2
*Model_Space
  0
BLOCK_RECORD
  5
20A
100
AcDbSymbolTableRecord
100
AcDbBlockTableRecord
  2
*Paper_Space
  0
ENDTAB
  0
TABLE
  2
DIMSTYLE
  5
A
100
AcDbSymbolTable
 70
1
100
AcDbDimStyleTable
 71
0
  0
DIMSTYLE
105
20B
100
AcDbSymbolTableRecord
100
AcDbDimStyleTableRecord
  2
STANDARD
 70
0
  3

  4

 40
1.0
 41
3.5
 42
0.0625
 43
0.38
 44
0.18
 45
0.0
 46
0.0
 47
0.005
 48
0.005
140
3.5
141
0.09
142
0.0
143
25.4
144
1.0
145
0.0
146
1.0
147
0.09
 71
1.0
 72
0.0
 73
0
 74
0
 75
0
 76
0
 77
1
 78
8
170
0
171
2
172
0
173
0
174
0
175
0
176
0
177
0
178
5
270
2
271
3
272
3
273
2
274
2
275
0
280
0
281
0
282
0
283
1
284
8
285
0
286
0
287
3
288
0
340
11
  0
ENDTAB
  0
ENDSEC
  0
SECTION
  2
BLOCKS
  0
BLOCK
  5
20
100
AcDbEntity
  8
0
100
AcDbBlockBegin
  2
*Model_Space
 70
0
 10
0.0
 20
0.0
 30
0.0
  3
*Model_Space
  1

  0
ENDBLK
  5
21
100
AcDbEntity
  8
0
100
AcDbBlockEnd
  0
BLOCK
  5
1C
100
AcDbEntity
  8
0
100
AcDbBlockBegin
  2
*Paper_Space
 70
0
 10
0.0
 20
0.0
 30
0.0
  3
*Paper_Space
  1

  0
ENDBLK
  5
1D
100
AcDbEntity
  8
0
100
AcDbBlockEnd
  0
ENDSEC
  0
SECTION
  2
ENTITIES
  0
MTEXT
  5
20C
100
AcDbEntity
  8
0
100
AcDbMText
 62
5
  6
CONTINUOUS
  7
STANDARD
 71
1
 72
1
 10
386.552713029
 20
251.444033383
 30
0.0
 11
0.0
 21
1.0
 31
0.0
 44
0.9
  1
RUD
 40
8.0
 41
19.8095238095
  0
MTEXT
  5
20D
100
AcDbEntity
  8
0
100
AcDbMText
 62
5
  6
CONTINUOUS
  7
STANDARD
 71
1
 72
1
 10
408.0961600034
 20
250.0116845533
 30
0.0
 11
0.0
 21
1.0
 31
0.0
 44
0.9
  1
IRS-LT M48
 40
8.0
 41
62.6666666667
  0
MTEXT
  5
20E
100
AcDbEntity
  8
0
100
AcDbMText
 62
5
  6
CONTINUOUS
  7
STANDARD
 71
1
 72
1
 10
196.8020075495
 20
75.2713316931
 30
0.0
 11
1.0
 21
0.0
 31
0.0
 44
0.9
  1
RUD
 40
8.0
 41
19.8095238095
  0
MTEXT
  5
20F
100
AcDbEntity
  8
0
100
AcDbMText
 62
5
  6
CONTINUOUS
  7
STANDARD
 71
1
 72
1
 10
195.3631142321
 20
55.7733468022
 30
0.0
 11
1.0
 21
0.0
 31
0.0
 44
0.9
  1
IRS-LT M48
 40
8.0
 41
62.6666666667
  0
LINE
  5
210
100
AcDbEntity
  8
0
100
AcDbLine
 62
7
  6
CONTINUOUS
 10
0.0
 20
0.0
 11
0.0
 21
420.0
  0
LINE
  5
211
100
AcDbEntity
  8
0
100
AcDbLine
 62
7
  6
CONTINUOUS
 10
0.0
 20
0.0
 11
594.0
 21
0.0
  0
LINE
  5
212
100
AcDbEntity
  8
0
100
AcDbLine
 62
7
  6
CONTINUOUS
 10
0.0
 20
420.0
 11
594.0
 21
420.0
  0
LINE
  5
213
100
AcDbEntity
  8
0
100
AcDbLine
 62
7
  6
CONTINUOUS
 10
594.0
 20
0.0
 11
594.0
 21
420.0
  0
LINE
  5
214
100
AcDbEntity
  8
B-ACHSEN
100
AcDbLine
 62
7
  6
CONTINUOUS
 10
208.3195963007
 20
153.2582904211
 11
168.3195963007
 21
153.2582904211
  0
LINE
  5
215
100
AcDbEntity
  8
RUNDUNGEN
100
AcDbLine
 62
7
  6
CONTINUOUS
 10
129.3863477164
 20
370.6035000068
 11
184.492761977
 21
393.4293241673
  0
LINE
  5
216
100
AcDbEntity
  8
B-ACHSEN
100
AcDbLine
 62
7
  6
CONTINUOUS
 10
212.3195963007
 20
157.2582904211
 11
164.3195963007
 21
157.2582904211
  0
LINE
  5
217
100
AcDbEntity
  8
0
100
AcDbLine
 62
7
  6
CONTINUOUS
 10
176.038346256
 20
382.0668010823
 11
175.2883463007
 21
381.6838224045
  0
LINE
  5
218
100
AcDbEntity
  8
B-ACHSEN
100
AcDbLine
 62
7
  6
CONTINUOUS
 10
164.3195963007
 20
157.2582904211
 11
168.3195963007
 21
153.2582904211
  0
LINE
  5
219
100
AcDbEntity
  8
RUNDUNGEN
100
AcDbLine
 62
7
  6
CONTINUOUS
 10
101.1485625545
 20
310.0851247448
 11
123.974386715
 21
365.1915390054
  0
LINE
  5
21A
100
AcDbEntity
  8
0
100
AcDbLine
 62
7
  6
CONTINUOUS
 10
124.2137215117
 20
345.2613669968
 11
123.6780424392
 21
344.4685090717
  0
LINE
  5
21B
100
AcDbEntity
  8
0
100
AcDbLine
 62
7
  6
CONTINUOUS
 10
117.7559383852
 20
329.6708993901
 11
117.2202595181
 21
328.8780419606
  0
LINE
  5
21C
100
AcDbEntity
  8
0
100
AcDbLine
 62
7
  6
CONTINUOUS
 10
124.7395209245
 20
344.028830287
 11
125.2034463059
 21
344.6484594781
  0
LINE
  5
21D
100
AcDbEntity
  8
0
100
AcDbLine
 62
7
  6
CONTINUOUS
 10
118.1765779976
 20
328.6848702204
 11
118.5687505092
 21
329.13127266
  0
LINE
  5
21E
100
AcDbEntity
  8
0
100
AcDbLine
 62
7
  6
CONTINUOUS
 10
124.854559974
 20
345.8077163905
 11
124.2137215117
 21
345.2613669968
  0
LINE
  5
21F
100
AcDbEntity
  8
0
100
AcDbLine
 62
7
  6
CONTINUOUS
 10
175.6633463454
 20
380.7263757101
 11
176.2258463454
 21
381.1093543879
  0
LINE
  5
220
100
AcDbEntity
  8
0
100
AcDbLine
 62
7
  6
CONTINUOUS
 10
125.2034463059
 20
344.6484594781
 11
125.7725318984
 21
345.0215821202
  0
LINE
  5
221
100
AcDbEntity
  8
0
100
AcDbLine
 62
7
  6
CONTINUOUS
 10
125.8492245981
 20
346.2075061892
 11
124.854559974
 21
345.8077163905
  0
LINE
  5
222
100
AcDbEntity
  8
0
100
AcDbLine
 62
7
  6
CONTINUOUS
 10
123.6780424392
 20
344.4685090717
 11
121.9559669936
 21
340.3110511754
  0
LINE
  5
223
100
AcDbEntity
  8
0
100
AcDbLine
 62
7
  6
CONTINUOUS
 10
121.3819419819
 20
338.9252322071
 11
120.9514231205
 21
337.885867733
  0
LINE
  5
224
100
AcDbEntity
  8
0
100
AcDbLine
 62
7
  6
CONTINUOUS
 10
119.2293476748
 20
333.7284098367
 11
118.7988286081
 21
332.689044867
  0
LINE
  5
225
100
AcDbEntity
  8
0
100
AcDbLine
 62
7
  6
CONTINUOUS
 10
117.2202595181
 20
328.8780419606
 11
115.4981840724
 21
324.7205840643
  0
LINE
  5
226
100
AcDbEntity
  8
0
100
AcDbLine
 62
7
  6
CONTINUOUS
 10
116.8132683382
 20
325.3935495511
 11
118.1765779976
 21
328.6848702204
  0
LINE
  5
227
100
AcDbEntity
  8
0
100
AcDbLine
 62
7
  6
CONTINUOUS
 10
123.4479643403
 20
340.9107368647
 11
124.7395209245
 21
344.028830287
  0
LINE
  5
228
100
AcDbEntity
  8
0
100
AcDbLine
 62
7
  6
CONTINUOUS
 10
120.8302747064
 20
327.5856730532
 11
119.466965047
 21
324.2943523838
  0
LINE
  5
229
100
AcDbEntity
  8
0
100
AcDbLine
 62
7
  6
CONTINUOUS
 10
120.5284435323
 20
323.8546735991
 11
121.7482469388
 21
326.7995395264
  0
LINE
  5
22A
100
AcDbEntity
  8
0
100
AcDbLine
 62
7
  6
CONTINUOUS
 10
130.9314796226
 20
341.4640370165
 11
129.6399230384
 21
338.3459435943
  0
LINE
  5
22B
100
AcDbEntity
  8
0
100
AcDbLine
 62
7
  6
CONTINUOUS
 10
127.4873287314
 20
333.1491212239
 11
127.2003160202
 21
332.4562112441
  0
LINE
  5
22C
100
AcDbEntity
  8
0
100
AcDbLine
 62
7
  6
CONTINUOUS
 10
127.7261159521
 20
331.2236754806
 11
128.2617946294
 21
332.016532408
  0
LINE
  5
22D
100
AcDbEntity
  8
0
100
AcDbLine
 62
7
  6
CONTINUOUS
 10
127.2003160202
 20
332.4562112441
 11
126.7363906388
 21
331.836582053
  0
LINE
  5
22E
100
AcDbEntity
  8
0
100
AcDbLine
 62
7
  6
CONTINUOUS
 10
175.2883463007
 20
381.6838224045
 11
174.5383463118
 21
380.917865049
  0
LINE
  5
22F
100
AcDbEntity
  8
0
100
AcDbLine
 62
7
  6
CONTINUOUS
 10
179.4133461219
 20
379.0029711238
 11
174.1633463007
 21
374.2157372496
  0
LINE
  5
230
100
AcDbEntity
  8
0
100
AcDbLine
 62
7
  6
CONTINUOUS
 10
175.6633463454
 20
374.2157372496
 11
180.3508463007
 21
378.4285031072
  0
LINE
  5
231
100
AcDbEntity
  8
0
100
AcDbLine
 62
7
  6
CONTINUOUS
 10
127.0852770327
 20
330.677325115
 11
127.7261159521
 21
331.2236754806
  0
LINE
  5
232
100
AcDbEntity
  8
0
100
AcDbLine
 62
7
  6
CONTINUOUS
 10
191.0383463007
 20
377.2795670739
 11
191.7883466583
 21
377.8540350906
  0
LINE
  5
233
100
AcDbEntity
  8
0
100
AcDbLine
 62
7
  6
CONTINUOUS
 10
194.9758463007
 20
374.7902052662
 11
194.4133463007
 21
374.4072265885
  0
LINE
  5
234
100
AcDbEntity
  8
0
100
AcDbLine
 62
7
  6
CONTINUOUS
 10
126.7363906388
 20
331.836582053
 11
126.1673049224
 21
331.4634594622
  0
LINE
  5
235
100
AcDbEntity
  8
0
100
AcDbLine
 62
7
  6
CONTINUOUS
 10
191.6008463007
 20
378.8114817849
 11
190.6633466583
 21
378.2370137683
  0
LINE
  5
236
100
AcDbEntity
  8
0
100
AcDbLine
 62
7
  6
CONTINUOUS
 10
194.6008455854
 20
373.4497797768
 11
195.5383463007
 21
374.0242478437
  0
LINE
  5
237
100
AcDbEntity
  8
0
100
AcDbLine
 62
7
  6
CONTINUOUS
 10
118.5736901337
 20
330.1439694819
 11
117.7559383852
 21
329.6708993901
  0
LINE
  5
238
100
AcDbEntity
  8
0
100
AcDbLine
 62
7
  6
CONTINUOUS
 10
120.8686210562
 20
328.1786350877
 11
120.8302747064
 21
327.5856730532
  0
LINE
  5
239
100
AcDbEntity
  8
0
100
AcDbLine
 62
7
  6
CONTINUOUS
 10
127.5974283616
 20
333.9153110012
 11
127.4873287314
 21
333.1491212239
  0
LINE
  5
23A
100
AcDbEntity
  8
0
100
AcDbLine
 62
7
  6
CONTINUOUS
 10
128.5488073405
 20
332.7094423878
 11
128.7306598252
 21
333.648858923
  0
LINE
  5
23B
100
AcDbEntity
  8
0
100
AcDbLine
 62
7
  6
CONTINUOUS
 10
123.813099865
 20
321.276433173
 11
124.2436187264
 21
322.3157976471
  0
LINE
  5
23C
100
AcDbEntity
  8
0
100
AcDbLine
 62
7
  6
CONTINUOUS
 10
126.0374472472
 20
326.6464827905
 11
126.539719389
 21
327.8590750074
  0
LINE
  5
23D
100
AcDbEntity
  8
0
100
AcDbLine
 62
7
  6
CONTINUOUS
 10
128.2617946294
 20
332.016532408
 11
128.5488073405
 21
332.7094423878
  0
LINE
  5
23E
100
AcDbEntity
  8
0
100
AcDbLine
 62
7
  6
CONTINUOUS
 10
130.2708827862
 20
336.8669002841
 11
131.9929582318
 21
341.0243581804
  0
LINE
  5
23F
100
AcDbEntity
  8
0
100
AcDbLine
 62
7
  6
CONTINUOUS
 10
175.2883463007
 20
380.1519076935
 11
175.6633463454
 21
380.7263757101
  0
LINE
  5
240
100
AcDbEntity
  8
0
100
AcDbLine
 62
7
  6
CONTINUOUS
 10
183.538345943
 20
382.2582904211
 11
182.4133464795
 21
380.917865049
  0
LINE
  5
241
100
AcDbEntity
  8
0
100
AcDbLine
 62
7
  6
CONTINUOUS
 10
182.4133464795
 20
379.3859498016
 11
183.538345943
 21
380.7263757101
  0
LINE
  5
242
100
AcDbEntity
  8
0
100
AcDbLine
 62
7
  6
CONTINUOUS
 10
118.5687505092
 20
329.13127266
 11
119.0660830265
 21
329.331168055
  0
LINE
  5
243
100
AcDbEntity
  8
0
100
AcDbLine
 62
7
  6
CONTINUOUS
 10
126.0906123467
 20
330.2775353419
 11
127.0852770327
 21
330.677325115
  0
LINE
  5
244
100
AcDbEntity
  8
B-ACHSEN
100
AcDbLine
 62
7
  6
CONTINUOUS
 10
212.3195963007
 20
205.2582904211
 11
164.3195963007
 21
205.2582904211
  0
LINE
  5
245
100
AcDbEntity
  8
RUNDUNGEN
100
AcDbLine
 62
7
  6
CONTINUOUS
 10
124.5867613916
 20
245.8466385873
 11
101.1485625545
 21
302.4314560975
  0
LINE
  5
246
100
AcDbEntity
  8
0
100
AcDbLine
 62
7
  6
CONTINUOUS
 10
121.8249397411
 20
327.9854638432
 11
121.7581260852
 21
328.8249329223
  0
LINE
  5
247
100
AcDbEntity
  8
0
100
AcDbLine
 62
7
  6
CONTINUOUS
 10
131.0415788423
 20
342.2302258026
 11
130.9314796226
 21
341.4640370165
  0
LINE
  5
248
100
AcDbEntity
  8
0
100
AcDbLine
 62
7
  6
CONTINUOUS
 10
131.9929582318
 20
341.0243581804
 11
132.174811127
 21
341.9637757069
  0
LINE
  5
249
100
AcDbEntity
  8
0
100
AcDbLine
 62
7
  6
CONTINUOUS
 10
180.3508463007
 20
378.4285031072
 11
180.7258464795
 21
379.0029711238
  0
LINE
  5
24A
100
AcDbEntity
  8
0
100
AcDbLine
 62
7
  6
CONTINUOUS
 10
128.7306598252
 20
333.648858923
 11
128.6638463281
 21
334.488328517
  0
LINE
  5
24B
100
AcDbEntity
  8
0
100
AcDbLine
 62
7
  6
CONTINUOUS
 10
132.174811127
 20
341.9637757069
 11
132.1079972193
 21
342.8032443096
  0
LINE
  5
24C
100
AcDbEntity
  8
B-ACHSEN
100
AcDbLine
 62
7
  6
CONTINUOUS
 10
138.3195963007
 20
220.2582904211
 11
138.3195963007
 21
231.4982075133
  0
LINE
  5
24D
100
AcDbEntity
  8
0
100
AcDbLine
 62
7
  6
CONTINUOUS
 10
179.7883463007
 20
379.7689284793
 11
179.4133461219
 21
379.0029711238
  0
LINE
  5
24E
100
AcDbEntity
  8
0
100
AcDbLine
 62
7
  6
CONTINUOUS
 10
195.3508470159
 20
375.364673417
 11
194.9758463007
 21
374.7902052662
  0
LINE
  5
24F
100
AcDbEntity
  8
0
100
AcDbLine
 62
7
  6
CONTINUOUS
 10
195.5383463007
 20
374.0242478437
 11
196.1008463007
 21
374.7902052662
  0
LINE
  5
250
100
AcDbEntity
  8
0
100
AcDbLine
 62
7
  6
CONTINUOUS
 10
217.3775821352
 20
228.5082904211
 11
218.0705582912
 21
228.6678648842
  0
LINE
  5
251
100
AcDbEntity
  8
B-ACHSEN
100
AcDbLine
 62
7
  6
CONTINUOUS
 10
138.3195963007
 20
220.2582904211
 11
238.3195963007
 21
220.2582904211
  0
LINE
  5
252
100
AcDbEntity
  8
0
100
AcDbLine
 62
7
  6
CONTINUOUS
 10
226.85161811
 20
225.2582904211
 11
192.3195963006
 21
225.2582904211
  0
LINE
  5
253
100
AcDbEntity
  8
0
100
AcDbLine
 62
7
  6
CONTINUOUS
 10
184.3195963007
 20
225.2582904211
 11
149.7875744913
 21
225.2582904211
  0
LINE
  5
254
100
AcDbEntity
  8
0
100
AcDbLine
 62
7
  6
CONTINUOUS
 10
161.9642221272
 20
228.6678648842
 11
162.6571990763
 21
228.5082904211
  0
LINE
  5
255
100
AcDbEntity
  8
0
100
AcDbLine
 62
7
  6
CONTINUOUS
 10
162.6571990763
 20
229.4657372273
 11
162.1028178343
 21
229.6253116763
  0
LINE
  5
256
100
AcDbEntity
  8
0
100
AcDbLine
 62
7
  6
CONTINUOUS
 10
162.6677981252
 20
229.5025596253
 11
162.2413424182
 21
229.6253116763
  0
LINE
  5
257
100
AcDbEntity
  8
0
100
AcDbLine
 62
7
  6
CONTINUOUS
 10
161.8256264202
 20
232.3380776457
 11
162.3800084553
 21
232.0189287475
  0
LINE
  5
258
100
AcDbEntity
  8
0
100
AcDbLine
 62
7
  6
CONTINUOUS
 10
161.2712451781
 20
229.1465882733
 11
161.9642221272
 21
228.6678648842
  0
LINE
  5
259
100
AcDbEntity
  8
0
100
AcDbLine
 62
7
  6
CONTINUOUS
 10
162.1028178343
 20
229.6253116763
 11
161.6870315062
 21
230.1040351353
  0
LINE
  5
25A
100
AcDbEntity
  8
0
100
AcDbLine
 62
7
  6
CONTINUOUS
 10
162.2413424182
 20
229.6253116763
 11
161.8255560902
 21
230.1040351353
  0
LINE
  5
25B
100
AcDbEntity
  8
0
100
AcDbLine
 62
7
  6
CONTINUOUS
 10
149.7875745354
 20
225.2582904211
 11
149.7875745354
 21
240.2582904211
  0
LINE
  5
25C
100
AcDbEntity
  8
0
100
AcDbLine
 62
7
  6
CONTINUOUS
 10
174.5383463118
 20
380.917865049
 11
174.3508463063
 21
380.1519076935
  0
LINE
  5
25D
100
AcDbEntity
  8
0
100
AcDbLine
 62
7
  6
CONTINUOUS
 10
187.2883466583
 20
374.2157372496
 11
186.1633466583
 21
372.1093542538
  0
LINE
  5
25E
100
AcDbEntity
  8
0
100
AcDbLine
 62
7
  6
CONTINUOUS
 10
187.1008463007
 20
372.1093542538
 11
188.2258463007
 21
374.2157372496
  0
LINE
  5
25F
100
AcDbEntity
  8
0
100
AcDbLine
 62
7
  6
CONTINUOUS
 10
216.684604393
 20
236.0082904211
 11
215.9916266509
 21
235.8487159721
  0
LINE
  5
260
100
AcDbEntity
  8
0
100
AcDbLine
 62
7
  6
CONTINUOUS
 10
216.5460798091
 20
236.0082904211
 11
215.8531020669
 21
235.8487159721
  0
LINE
  5
261
100
AcDbEntity
  8
0
100
AcDbLine
 62
7
  6
CONTINUOUS
 10
163.9044877304
 20
228.5082904211
 11
164.5974646795
 21
228.6678648842
  0
LINE
  5
262
100
AcDbEntity
  8
0
100
AcDbLine
 62
7
  6
CONTINUOUS
 10
163.7659631465
 20
228.5082904211
 11
164.4589400955
 21
228.6678648842
  0
LINE
  5
263
100
AcDbEntity
  8
0
100
AcDbLine
 62
7
  6
CONTINUOUS
 10
152.401136582
 20
228.5082904211
 11
153.3712338221
 21
228.5082904211
  0
LINE
  5
264
100
AcDbEntity
  8
0
100
AcDbLine
 62
7
  6
CONTINUOUS
 10
154.3414727135
 20
228.5082904211
 11
155.3115699536
 21
228.5082904211
  0
LINE
  5
265
100
AcDbEntity
  8
0
100
AcDbLine
 62
7
  6
CONTINUOUS
 10
158.6379315028
 20
228.5082904211
 11
159.7466244499
 21
228.5082904211
  0
LINE
  5
266
100
AcDbEntity
  8
0
100
AcDbLine
 62
7
  6
CONTINUOUS
 10
162.6571990763
 20
228.5082904211
 11
163.7659631465
 21
228.5082904211
  0
LINE
  5
267
100
AcDbEntity
  8
0
100
AcDbLine
 62
7
  6
CONTINUOUS
 10
170.0027572742
 20
228.5082904211
 11
175.1307177948
 21
228.5082904211
  0
LINE
  5
268
100
AcDbEntity
  8
0
100
AcDbLine
 62
7
  6
CONTINUOUS
 10
178.3184838352
 20
228.5082904211
 11
179.2885826614
 21
228.5082904211
  0
LINE
  5
269
100
AcDbEntity
  8
0
100
AcDbLine
 62
7
  6
CONTINUOUS
 10
199.914626687
 20
228.5082904211
 11
200.884723927
 21
228.5082904211
  0
LINE
  5
26A
100
AcDbEntity
  8
0
100
AcDbLine
 62
7
  6
CONTINUOUS
 10
202.6865354746
 20
228.5082904211
 11
203.9338235339
 21
228.5082904211
  0
LINE
  5
26B
100
AcDbEntity
  8
0
100
AcDbLine
 62
7
  6
CONTINUOUS
 10
205.7356352797
 20
228.5082904211
 11
206.7057325198
 21
228.5082904211
  0
LINE
  5
26C
100
AcDbEntity
  8
0
100
AcDbLine
 62
7
  6
CONTINUOUS
 10
211.0022618374
 20
228.5082904211
 11
211.9723590774
 21
228.5082904211
  0
LINE
  5
26D
100
AcDbEntity
  8
0
100
AcDbLine
 62
7
  6
CONTINUOUS
 10
216.5460094791
 20
228.5082904211
 11
217.3775821352
 21
228.5082904211
  0
LINE
  5
26E
100
AcDbEntity
  8
0
100
AcDbLine
 62
7
  6
CONTINUOUS
 10
164.5974646795
 20
228.6678648842
 11
164.4589400955
 21
228.6678648842
  0
LINE
  5
26F
100
AcDbEntity
  8
0
100
AcDbLine
 62
7
  6
CONTINUOUS
 10
215.714507153
 20
228.6678648842
 11
215.8530317369
 21
228.6678648842
  0
LINE
  5
270
100
AcDbEntity
  8
0
100
AcDbLine
 62
7
  6
CONTINUOUS
 10
165.1518467146
 20
228.9870138242
 11
165.0133221306
 21
228.9870138242
  0
LINE
  5
271
100
AcDbEntity
  8
0
100
AcDbLine
 62
7
  6
CONTINUOUS
 10
215.0215294108
 20
229.1465882733
 11
215.1600539948
 21
229.1465882733
  0
LINE
  5
272
100
AcDbEntity
  8
0
100
AcDbLine
 62
7
  6
CONTINUOUS
 10
217.2389856351
 20
229.3061627782
 11
216.684604393
 21
229.3061627782
  0
LINE
  5
273
100
AcDbEntity
  8
0
100
AcDbLine
 62
7
  6
CONTINUOUS
 10
175.1307177948
 20
229.4657372273
 11
170.8343299303
 21
229.4657372273
  0
LINE
  5
274
100
AcDbEntity
  8
0
100
AcDbLine
 62
7
  6
CONTINUOUS
 10
163.7659631465
 20
229.4657372273
 11
162.6571990763
 21
229.4657372273
  0
LINE
  5
275
100
AcDbEntity
  8
0
100
AcDbLine
 62
7
  6
CONTINUOUS
 10
165.7062279566
 20
229.6253116763
 11
165.5677033727
 21
229.6253116763
  0
LINE
  5
276
100
AcDbEntity
  8
0
100
AcDbLine
 62
7
  6
CONTINUOUS
 10
162.2413424182
 20
229.6253116763
 11
162.1028178343
 21
229.6253116763
  0
LINE
  5
277
100
AcDbEntity
  8
0
100
AcDbLine
 62
7
  6
CONTINUOUS
 10
214.6057430828
 20
229.6253116763
 11
214.7442676668
 21
229.6253116763
  0
LINE
  5
278
100
AcDbEntity
  8
0
100
AcDbLine
 62
7
  6
CONTINUOUS
 10
218.2092251213
 20
229.7848861254
 11
218.3477497052
 21
229.7848861254
  0
LINE
  5
279
100
AcDbEntity
  8
0
100
AcDbLine
 62
7
  6
CONTINUOUS
 10
161.8255560902
 20
230.1040351353
 11
161.6870315062
 21
230.1040351353
  0
LINE
  5
27A
100
AcDbEntity
  8
0
100
AcDbLine
 62
7
  6
CONTINUOUS
 10
165.9834185776
 20
230.2636095843
 11
165.8448939937
 21
230.2636095843
  0
LINE
  5
27B
100
AcDbEntity
  8
0
100
AcDbLine
 62
7
  6
CONTINUOUS
 10
214.3285532548
 20
230.4231840334
 11
214.4670778388
 21
230.4231840334
  0
LINE
  5
27C
100
AcDbEntity
  8
0
100
AcDbLine
 62
7
  6
CONTINUOUS
 10
218.6250114493
 20
230.4231840334
 11
218.7635360333
 21
230.4231840334
  0
LINE
  5
27D
100
AcDbEntity
  8
0
100
AcDbLine
 62
7
  6
CONTINUOUS
 10
161.6869603831
 20
230.5827584825
 11
160.7168631431
 21
230.5827584825
  0
LINE
  5
27E
100
AcDbEntity
  8
0
100
AcDbLine
 62
7
  6
CONTINUOUS
 10
207.6759712129
 20
230.7423329315
 11
211.1407864213
 21
230.7423329315
  0
LINE
  5
27F
100
AcDbEntity
  8
0
100
AcDbLine
 62
7
  6
CONTINUOUS
 10
211.9723590774
 20
230.7423329315
 11
213.3583137686
 21
230.7423329315
  0
LINE
  5
280
100
AcDbEntity
  8
0
100
AcDbLine
 62
7
  6
CONTINUOUS
 10
214.3285532548
 20
230.9019073806
 11
214.4670778388
 21
230.9019073806
  0
LINE
  5
281
100
AcDbEntity
  8
0
100
AcDbLine
 62
7
  6
CONTINUOUS
 10
218.6250114493
 20
230.9019073806
 11
218.7635360333
 21
230.9019073806
  0
LINE
  5
282
100
AcDbEntity
  8
0
100
AcDbLine
 62
7
  6
CONTINUOUS
 10
165.9834185776
 20
231.0614818297
 11
165.8448939937
 21
231.0614818297
  0
LINE
  5
283
100
AcDbEntity
  8
0
100
AcDbLine
 62
7
  6
CONTINUOUS
 10
166.9536580638
 20
231.2210562787
 11
169.0325193741
 21
231.2210562787
  0
LINE
  5
284
100
AcDbEntity
  8
0
100
AcDbLine
 62
7
  6
CONTINUOUS
 10
218.2092251213
 20
231.5402054004
 11
218.3477497052
 21
231.5402054004
  0
LINE
  5
285
100
AcDbEntity
  8
0
100
AcDbLine
 62
7
  6
CONTINUOUS
 10
213.3583137686
 20
231.6997798494
 11
211.9723590774
 21
231.6997798494
  0
LINE
  5
286
100
AcDbEntity
  8
0
100
AcDbLine
 62
7
  6
CONTINUOUS
 10
211.1407864213
 20
231.6997798494
 11
208.78466416
 21
231.6997798494
  0
LINE
  5
287
100
AcDbEntity
  8
0
100
AcDbLine
 62
7
  6
CONTINUOUS
 10
165.7062279566
 20
231.6997798494
 11
165.5677033727
 21
231.6997798494
  0
LINE
  5
288
100
AcDbEntity
  8
0
100
AcDbLine
 62
7
  6
CONTINUOUS
 10
207.6759712129
 20
231.6997798494
 11
207.8144957969
 21
231.6997798494
  0
LINE
  5
289
100
AcDbEntity
  8
0
100
AcDbLine
 62
7
  6
CONTINUOUS
 10
214.6057430828
 20
231.6997798494
 11
214.7442676668
 21
231.6997798494
  0
LINE
  5
28A
100
AcDbEntity
  8
0
100
AcDbLine
 62
7
  6
CONTINUOUS
 10
155.1730453696
 20
231.8593542985
 11
157.5291678292
 21
231.8593542985
  0
LINE
  5
28B
100
AcDbEntity
  8
0
100
AcDbLine
 62
7
  6
CONTINUOUS
 10
162.9343904904
 20
231.8593542985
 11
163.7659631465
 21
231.8593542985
  0
LINE
  5
28C
100
AcDbEntity
  8
0
100
AcDbLine
 62
7
  6
CONTINUOUS
 10
217.6548438792
 20
231.8593542985
 11
217.7933684632
 21
231.8593542985
  0
LINE
  5
28D
100
AcDbEntity
  8
0
100
AcDbLine
 62
7
  6
CONTINUOUS
 10
169.0325193741
 20
232.0189287475
 11
166.9536580638
 21
232.0189287475
  0
LINE
  5
28E
100
AcDbEntity
  8
0
100
AcDbLine
 62
7
  6
CONTINUOUS
 10
216.684604393
 20
232.0189287475
 11
217.2389856351
 21
232.0189287475
  0
LINE
  5
28F
100
AcDbEntity
  8
0
100
AcDbLine
 62
7
  6
CONTINUOUS
 10
158.4992650692
 20
232.1785031966
 11
158.3607404853
 21
232.1785031966
  0
LINE
  5
290
100
AcDbEntity
  8
0
100
AcDbLine
 62
7
  6
CONTINUOUS
 10
215.1601259109
 20
232.1785031966
 11
215.2986504949
 21
232.1785031966
  0
LINE
  5
291
100
AcDbEntity
  8
0
100
AcDbLine
 62
7
  6
CONTINUOUS
 10
165.1518467146
 20
232.3380776457
 11
165.0133221306
 21
232.3380776457
  0
LINE
  5
292
100
AcDbEntity
  8
0
100
AcDbLine
 62
7
  6
CONTINUOUS
 10
215.4373157389
 20
232.3380776457
 11
215.5758403229
 21
232.3380776457
  0
LINE
  5
293
100
AcDbEntity
  8
0
100
AcDbLine
 62
7
  6
CONTINUOUS
 10
159.0536471043
 20
232.4976520947
 11
158.9151225203
 21
232.4976520947
  0
LINE
  5
294
100
AcDbEntity
  8
0
100
AcDbLine
 62
7
  6
CONTINUOUS
 10
215.1601259109
 20
232.4976520947
 11
215.2986504949
 21
232.4976520947
  0
LINE
  5
295
100
AcDbEntity
  8
0
100
AcDbLine
 62
7
  6
CONTINUOUS
 10
217.2389856351
 20
232.6572265438
 11
216.684604393
 21
232.6572265438
  0
LINE
  5
296
100
AcDbEntity
  8
0
100
AcDbLine
 62
7
  6
CONTINUOUS
 10
164.5974646795
 20
232.6572265438
 11
164.4589400955
 21
232.6572265438
  0
LINE
  5
297
100
AcDbEntity
  8
0
100
AcDbLine
 62
7
  6
CONTINUOUS
 10
163.7659631465
 20
232.8168009929
 11
162.9343904904
 21
232.8168009929
  0
LINE
  5
298
100
AcDbEntity
  8
0
100
AcDbLine
 62
7
  6
CONTINUOUS
 10
157.8063588467
 20
232.8168009929
 11
155.1730453696
 21
232.8168009929
  0
LINE
  5
299
100
AcDbEntity
  8
0
100
AcDbLine
 62
7
  6
CONTINUOUS
 10
162.6571287463
 20
232.9763754419
 11
162.5186041623
 21
232.9763754419
  0
LINE
  5
29A
100
AcDbEntity
  8
0
100
AcDbLine
 62
7
  6
CONTINUOUS
 10
214.7443395829
 20
232.9763754419
 11
214.8828641668
 21
232.9763754419
  0
LINE
  5
29B
100
AcDbEntity
  8
0
100
AcDbLine
 62
7
  6
CONTINUOUS
 10
159.4694330358
 20
233.135949891
 11
159.3309084519
 21
233.135949891
  0
LINE
  5
29C
100
AcDbEntity
  8
0
100
AcDbLine
 62
7
  6
CONTINUOUS
 10
162.2413424182
 20
233.29552434
 11
162.1028178343
 21
233.29552434
  0
LINE
  5
29D
100
AcDbEntity
  8
0
100
AcDbLine
 62
7
  6
CONTINUOUS
 10
218.2092251213
 20
233.29552434
 11
218.3477497052
 21
233.29552434
  0
LINE
  5
29E
100
AcDbEntity
  8
0
100
AcDbLine
 62
7
  6
CONTINUOUS
 10
159.6080287429
 20
233.6146732382
 11
159.4695041589
 21
233.6146732382
  0
LINE
  5
29F
100
AcDbEntity
  8
0
100
AcDbLine
 62
7
  6
CONTINUOUS
 10
214.4671481688
 20
233.6146732382
 11
214.6056727528
 21
233.6146732382
  0
LINE
  5
2A0
100
AcDbEntity
  8
0
100
AcDbLine
 62
7
  6
CONTINUOUS
 10
162.1027467112
 20
233.7742476872
 11
161.9642221272
 21
233.7742476872
  0
LINE
  5
2A1
100
AcDbEntity
  8
0
100
AcDbLine
 62
7
  6
CONTINUOUS
 10
218.4864165353
 20
233.7742476872
 11
218.6249411193
 21
233.7742476872
  0
LINE
  5
2A2
100
AcDbEntity
  8
0
100
AcDbLine
 62
7
  6
CONTINUOUS
 10
162.1027467112
 20
234.0933965854
 11
161.9642221272
 21
234.0933965854
  0
LINE
  5
2A3
100
AcDbEntity
  8
0
100
AcDbLine
 62
7
  6
CONTINUOUS
 10
214.4671481688
 20
234.0933965854
 11
214.6056727528
 21
234.0933965854
  0
LINE
  5
2A4
100
AcDbEntity
  8
0
100
AcDbLine
 62
7
  6
CONTINUOUS
 10
218.4864165353
 20
234.0933965854
 11
218.6249411193
 21
234.0933965854
  0
LINE
  5
2A5
100
AcDbEntity
  8
0
100
AcDbLine
 62
7
  6
CONTINUOUS
 10
159.6080287429
 20
234.2529714814
 11
159.4695041589
 21
234.2529714814
  0
LINE
  5
2A6
100
AcDbEntity
  8
0
100
AcDbLine
 62
7
  6
CONTINUOUS
 10
164.5975358026
 20
234.2529714814
 11
165.5676330426
 21
234.2529714814
  0
LINE
  5
2A7
100
AcDbEntity
  8
0
100
AcDbLine
 62
7
  6
CONTINUOUS
 10
162.2413424182
 20
234.5721203796
 11
162.1028178343
 21
234.5721203796
  0
LINE
  5
2A8
100
AcDbEntity
  8
0
100
AcDbLine
 62
7
  6
CONTINUOUS
 10
218.2092251213
 20
234.5721203796
 11
218.3477497052
 21
234.5721203796
  0
LINE
  5
2A9
100
AcDbEntity
  8
0
100
AcDbLine
 62
7
  6
CONTINUOUS
 10
165.4290373356
 20
234.7316948286
 11
165.2905127516
 21
234.7316948286
  0
LINE
  5
2AA
100
AcDbEntity
  8
0
100
AcDbLine
 62
7
  6
CONTINUOUS
 10
159.4694330358
 20
234.7316948286
 11
159.3309084519
 21
234.7316948286
  0
LINE
  5
2AB
100
AcDbEntity
  8
0
100
AcDbLine
 62
7
  6
CONTINUOUS
 10
214.7443395829
 20
234.8912692777
 11
214.8828641668
 21
234.8912692777
  0
LINE
  5
2AC
100
AcDbEntity
  8
0
100
AcDbLine
 62
7
  6
CONTINUOUS
 10
162.9343904904
 20
235.0508437268
 11
163.7659631465
 21
235.0508437268
  0
LINE
  5
2AD
100
AcDbEntity
  8
0
100
AcDbLine
 62
7
  6
CONTINUOUS
 10
217.6548438792
 20
235.0508437268
 11
217.7933684632
 21
235.0508437268
  0
LINE
  5
2AE
100
AcDbEntity
  8
0
100
AcDbLine
 62
7
  6
CONTINUOUS
 10
155.1730453696
 20
235.2104181758
 11
157.8063588467
 21
235.2104181758
  0
LINE
  5
2AF
100
AcDbEntity
  8
0
100
AcDbLine
 62
7
  6
CONTINUOUS
 10
176.100957281
 20
235.2104181758
 11
178.3184838352
 21
235.2104181758
  0
LINE
  5
2B0
100
AcDbEntity
  8
0
100
AcDbLine
 62
7
  6
CONTINUOUS
 10
179.1500580774
 20
235.2104181758
 11
181.5061076296
 21
235.2104181758
  0
LINE
  5
2B1
100
AcDbEntity
  8
0
100
AcDbLine
 62
7
  6
CONTINUOUS
 10
216.684604393
 20
235.2104181758
 11
217.2389856351
 21
235.2104181758
  0
LINE
  5
2B2
100
AcDbEntity
  8
0
100
AcDbLine
 62
7
  6
CONTINUOUS
 10
164.4589400955
 20
232.6572265438
 11
163.7659631465
 21
232.8168009929
  0
LINE
  5
2B3
100
AcDbEntity
  8
0
100
AcDbLine
 62
7
  6
CONTINUOUS
 10
164.5974646795
 20
232.6572265438
 11
163.9044877304
 21
232.8168009929
  0
LINE
  5
2B4
100
AcDbEntity
  8
0
100
AcDbLine
 62
7
  6
CONTINUOUS
 10
158.3607404853
 20
235.8487159721
 11
157.6677635362
 21
236.0082904211
  0
LINE
  5
2B5
100
AcDbEntity
  8
0
100
AcDbLine
 62
7
  6
CONTINUOUS
 10
158.4992650692
 20
235.8487159721
 11
157.8062881202
 21
236.0082904211
  0
LINE
  5
2B6
100
AcDbEntity
  8
0
100
AcDbLine
 62
7
  6
CONTINUOUS
 10
164.3203443885
 20
235.8487159721
 11
163.6273674394
 21
236.0082904211
  0
LINE
  5
2B7
100
AcDbEntity
  8
0
100
AcDbLine
 62
7
  6
CONTINUOUS
 10
164.4588689725
 20
235.8487159721
 11
163.7658920234
 21
236.0082904211
  0
LINE
  5
2B8
100
AcDbEntity
  8
0
100
AcDbLine
 62
7
  6
CONTINUOUS
 10
162.3800084553
 20
232.0189287475
 11
162.9343904904
 21
231.8593542985
  0
LINE
  5
2B9
100
AcDbEntity
  8
0
100
AcDbLine
 62
7
  6
CONTINUOUS
 10
163.7659631465
 20
231.8593542985
 11
164.3203443885
 21
231.6997798494
  0
LINE
  5
2BA
100
AcDbEntity
  8
0
100
AcDbLine
 62
7
  6
CONTINUOUS
 10
162.9343904904
 20
232.8168009929
 11
162.5186041623
 21
232.9763754419
  0
LINE
  5
2BB
100
AcDbEntity
  8
0
100
AcDbLine
 62
7
  6
CONTINUOUS
 10
163.0729150743
 20
232.8168009929
 11
162.6571287463
 21
232.9763754419
  0
LINE
  5
2BC
100
AcDbEntity
  8
0
100
AcDbLine
 62
7
  6
CONTINUOUS
 10
157.8063588467
 20
235.2104181758
 11
158.2221451747
 21
235.0508437268
  0
LINE
  5
2BD
100
AcDbEntity
  8
0
100
AcDbLine
 62
7
  6
CONTINUOUS
 10
163.7659631465
 20
235.0508437268
 11
164.1817494745
 21
234.8912692777
  0
LINE
  5
2BE
100
AcDbEntity
  8
0
100
AcDbLine
 62
7
  6
CONTINUOUS
 10
165.0133221306
 20
232.3380776457
 11
164.4589400955
 21
232.6572265438
  0
LINE
  5
2BF
100
AcDbEntity
  8
0
100
AcDbLine
 62
7
  6
CONTINUOUS
 10
165.1518467146
 20
232.3380776457
 11
164.5974646795
 21
232.6572265438
  0
LINE
  5
2C0
100
AcDbEntity
  8
0
100
AcDbLine
 62
7
  6
CONTINUOUS
 10
162.5186041623
 20
232.9763754419
 11
162.1028178343
 21
233.29552434
  0
LINE
  5
2C1
100
AcDbEntity
  8
0
100
AcDbLine
 62
7
  6
CONTINUOUS
 10
162.6571287463
 20
232.9763754419
 11
162.2413424182
 21
233.29552434
  0
LINE
  5
2C2
100
AcDbEntity
  8
0
100
AcDbLine
 62
7
  6
CONTINUOUS
 10
164.3203443885
 20
231.6997798494
 11
164.7361307166
 21
231.3806309513
  0
LINE
  5
2C3
100
AcDbEntity
  8
0
100
AcDbLine
 62
7
  6
CONTINUOUS
 10
158.9151225203
 20
235.3699926249
 11
158.3607404853
 21
235.8487159721
  0
LINE
  5
2C4
100
AcDbEntity
  8
0
100
AcDbLine
 62
7
  6
CONTINUOUS
 10
159.0536471043
 20
235.3699926249
 11
158.4992650692
 21
235.8487159721
  0
LINE
  5
2C5
100
AcDbEntity
  8
0
100
AcDbLine
 62
7
  6
CONTINUOUS
 10
164.8747264236
 20
235.3699926249
 11
164.3203443885
 21
235.8487159721
  0
LINE
  5
2C6
100
AcDbEntity
  8
0
100
AcDbLine
 62
7
  6
CONTINUOUS
 10
165.0132510076
 20
235.3699926249
 11
164.4588689725
 21
235.8487159721
  0
LINE
  5
2C7
100
AcDbEntity
  8
0
100
AcDbLine
 62
7
  6
CONTINUOUS
 10
158.2221451747
 20
235.0508437268
 11
158.4993361923
 21
234.7316948286
  0
LINE
  5
2C8
100
AcDbEntity
  8
0
100
AcDbLine
 62
7
  6
CONTINUOUS
 10
161.2712451781
 20
232.9763754419
 11
161.8256264202
 21
232.3380776457
  0
LINE
  5
2C9
100
AcDbEntity
  8
0
100
AcDbLine
 62
7
  6
CONTINUOUS
 10
165.5677033727
 20
231.6997798494
 11
165.0133221306
 21
232.3380776457
  0
LINE
  5
2CA
100
AcDbEntity
  8
0
100
AcDbLine
 62
7
  6
CONTINUOUS
 10
165.7062279566
 20
231.6997798494
 11
165.1518467146
 21
232.3380776457
  0
LINE
  5
2CB
100
AcDbEntity
  8
0
100
AcDbLine
 62
7
  6
CONTINUOUS
 10
164.1817494745
 20
234.8912692777
 11
164.4589400955
 21
234.5721203796
  0
LINE
  5
2CC
100
AcDbEntity
  8
0
100
AcDbLine
 62
7
  6
CONTINUOUS
 10
159.3309084519
 20
234.7316948286
 11
158.9151225203
 21
235.3699926249
  0
LINE
  5
2CD
100
AcDbEntity
  8
0
100
AcDbLine
 62
7
  6
CONTINUOUS
 10
159.4694330358
 20
234.7316948286
 11
159.0536471043
 21
235.3699926249
  0
LINE
  5
2CE
100
AcDbEntity
  8
0
100
AcDbLine
 62
7
  6
CONTINUOUS
 10
165.2905127516
 20
234.7316948286
 11
164.8747264236
 21
235.3699926249
  0
LINE
  5
2CF
100
AcDbEntity
  8
0
100
AcDbLine
 62
7
  6
CONTINUOUS
 10
165.4290373356
 20
234.7316948286
 11
165.0132510076
 21
235.3699926249
  0
LINE
  5
2D0
100
AcDbEntity
  8
0
100
AcDbLine
 62
7
  6
CONTINUOUS
 10
164.7361307166
 20
231.3806309513
 11
165.0133221306
 21
230.9019073806
  0
LINE
  5
2D1
100
AcDbEntity
  8
0
100
AcDbLine
 62
7
  6
CONTINUOUS
 10
160.8554588501
 20
229.9444606862
 11
161.2712451781
 21
229.1465882733
  0
LINE
  5
2D2
100
AcDbEntity
  8
0
100
AcDbLine
 62
7
  6
CONTINUOUS
 10
120.65830125
 20
328.6716496725
 11
120.8686210562
 21
328.1786350877
  0
LINE
  5
2D3
100
AcDbEntity
  8
0
100
AcDbLine
 62
7
  6
CONTINUOUS
 10
159.6080998659
 20
228.5082904211
 11
158.3607404853
 21
232.1785031966
  0
LINE
  5
2D4
100
AcDbEntity
  8
0
100
AcDbLine
 62
7
  6
CONTINUOUS
 10
159.7466244499
 20
228.5082904211
 11
158.4992650692
 21
232.1785031966
  0
LINE
  5
2D5
100
AcDbEntity
  8
0
100
AcDbLine
 62
7
  6
CONTINUOUS
 10
157.5291678292
 20
231.8593542985
 11
158.6379315028
 21
228.5082904211
  0
LINE
  5
2D6
100
AcDbEntity
  8
0
100
AcDbLine
 62
7
  6
CONTINUOUS
 10
158.4993361923
 20
234.7316948286
 11
158.6379315028
 21
234.2529714814
  0
LINE
  5
2D7
100
AcDbEntity
  8
0
100
AcDbLine
 62
7
  6
CONTINUOUS
 10
159.4695041589
 20
234.2529714814
 11
159.3309084519
 21
234.7316948286
  0
LINE
  5
2D8
100
AcDbEntity
  8
0
100
AcDbLine
 62
7
  6
CONTINUOUS
 10
159.6080287429
 20
234.2529714814
 11
159.4694330358
 21
234.7316948286
  0
LINE
  5
2D9
100
AcDbEntity
  8
0
100
AcDbLine
 62
7
  6
CONTINUOUS
 10
127.4588615066
 20
334.5815528845
 11
127.5974283616
 21
333.9153110012
  0
LINE
  5
2DA
100
AcDbEntity
  8
0
100
AcDbLine
 62
7
  6
CONTINUOUS
 10
130.9030119874
 20
342.8964676859
 11
131.0415788423
 21
342.2302258026
  0
LINE
  5
2DB
100
AcDbEntity
  8
0
100
AcDbLine
 62
7
  6
CONTINUOUS
 10
152.401136582
 20
236.0082904211
 11
152.401136582
 21
228.5082904211
  0
LINE
  5
2DC
100
AcDbEntity
  8
0
100
AcDbLine
 62
7
  6
CONTINUOUS
 10
153.2327092381
 20
228.5082904211
 11
153.2327092381
 21
236.0082904211
  0
LINE
  5
2DD
100
AcDbEntity
  8
0
100
AcDbLine
 62
7
  6
CONTINUOUS
 10
153.3712338221
 20
228.5082904211
 11
153.3712338221
 21
236.0082904211
  0
LINE
  5
2DE
100
AcDbEntity
  8
0
100
AcDbLine
 62
7
  6
CONTINUOUS
 10
154.3414727135
 20
236.0082904211
 11
154.3414727135
 21
228.5082904211
  0
LINE
  5
2DF
100
AcDbEntity
  8
0
100
AcDbLine
 62
7
  6
CONTINUOUS
 10
155.1730453696
 20
228.5082904211
 11
155.1730453696
 21
231.8593542985
  0
LINE
  5
2E0
100
AcDbEntity
  8
0
100
AcDbLine
 62
7
  6
CONTINUOUS
 10
155.1730453696
 20
232.8168009929
 11
155.1730453696
 21
235.2104181758
  0
LINE
  5
2E1
100
AcDbEntity
  8
0
100
AcDbLine
 62
7
  6
CONTINUOUS
 10
155.3115699536
 20
228.5082904211
 11
155.3115699536
 21
231.8593542985
  0
LINE
  5
2E2
100
AcDbEntity
  8
0
100
AcDbLine
 62
7
  6
CONTINUOUS
 10
155.3115699536
 20
232.8168009929
 11
155.3115699536
 21
235.2104181758
  0
LINE
  5
2E3
100
AcDbEntity
  8
0
100
AcDbLine
 62
7
  6
CONTINUOUS
 10
158.6379315028
 20
234.2529714814
 11
158.6379315028
 21
233.7742476872
  0
LINE
  5
2E4
100
AcDbEntity
  8
0
100
AcDbLine
 62
7
  6
CONTINUOUS
 10
159.4695041589
 20
233.6146732382
 11
159.4695041589
 21
234.2529714814
  0
LINE
  5
2E5
100
AcDbEntity
  8
0
100
AcDbLine
 62
7
  6
CONTINUOUS
 10
159.6080287429
 20
233.6146732382
 11
159.6080287429
 21
234.2529714814
  0
LINE
  5
2E6
100
AcDbEntity
  8
0
100
AcDbLine
 62
7
  6
CONTINUOUS
 10
180.7258464795
 20
379.0029711238
 11
180.9133463007
 21
379.7689284793
  0
LINE
  5
2E7
100
AcDbEntity
  8
0
100
AcDbLine
 62
7
  6
CONTINUOUS
 10
196.1008463007
 20
374.7902052662
 11
196.4758470159
 21
375.7476520947
  0
LINE
  5
2E8
100
AcDbEntity
  8
0
100
AcDbLine
 62
7
  6
CONTINUOUS
 10
165.0132510076
 20
235.3699926249
 11
164.8747264236
 21
235.3699926249
  0
LINE
  5
2E9
100
AcDbEntity
  8
0
100
AcDbLine
 62
7
  6
CONTINUOUS
 10
159.0536471043
 20
235.3699926249
 11
158.9151225203
 21
235.3699926249
  0
LINE
  5
2EA
100
AcDbEntity
  8
0
100
AcDbLine
 62
7
  6
CONTINUOUS
 10
215.1601259109
 20
235.3699926249
 11
215.2986504949
 21
235.3699926249
  0
LINE
  5
2EB
100
AcDbEntity
  8
0
100
AcDbLine
 62
7
  6
CONTINUOUS
 10
164.4588689725
 20
235.8487159721
 11
164.3203443885
 21
235.8487159721
  0
LINE
  5
2EC
100
AcDbEntity
  8
0
100
AcDbLine
 62
7
  6
CONTINUOUS
 10
158.4992650692
 20
235.8487159721
 11
158.3607404853
 21
235.8487159721
  0
LINE
  5
2ED
100
AcDbEntity
  8
0
100
AcDbLine
 62
7
  6
CONTINUOUS
 10
215.8531020669
 20
235.8487159721
 11
215.9916266509
 21
235.8487159721
  0
LINE
  5
2EE
100
AcDbEntity
  8
0
100
AcDbLine
 62
7
  6
CONTINUOUS
 10
217.2389856351
 20
236.0082904211
 11
216.684604393
 21
236.0082904211
  0
LINE
  5
2EF
100
AcDbEntity
  8
0
100
AcDbLine
 62
7
  6
CONTINUOUS
 10
181.5061076296
 20
236.0082904211
 11
176.100957281
 21
236.0082904211
  0
LINE
  5
2F0
100
AcDbEntity
  8
0
100
AcDbLine
 62
7
  6
CONTINUOUS
 10
170.9728545143
 20
236.0082904211
 11
170.0027572742
 21
236.0082904211
  0
LINE
  5
2F1
100
AcDbEntity
  8
0
100
AcDbLine
 62
7
  6
CONTINUOUS
 10
163.6273674394
 20
236.0082904211
 11
162.9343904904
 21
236.0082904211
  0
LINE
  5
2F2
100
AcDbEntity
  8
0
100
AcDbLine
 62
7
  6
CONTINUOUS
 10
157.6677635362
 20
236.0082904211
 11
154.3414727135
 21
236.0082904211
  0
LINE
  5
2F3
100
AcDbEntity
  8
0
100
AcDbLine
 62
7
  6
CONTINUOUS
 10
153.3712338221
 20
236.0082904211
 11
152.401136582
 21
236.0082904211
  0
LINE
  5
2F4
100
AcDbEntity
  8
0
100
AcDbLine
 62
7
  6
CONTINUOUS
 10
199.914626687
 20
236.0082904211
 11
201.3005102551
 21
236.0082904211
  0
LINE
  5
2F5
100
AcDbEntity
  8
0
100
AcDbLine
 62
7
  6
CONTINUOUS
 10
205.3198489517
 20
236.0082904211
 11
206.7057325198
 21
236.0082904211
  0
LINE
  5
2F6
100
AcDbEntity
  8
0
100
AcDbLine
 62
7
  6
CONTINUOUS
 10
211.0022618374
 20
236.0082904211
 11
211.9723590774
 21
236.0082904211
  0
LINE
  5
2F7
100
AcDbEntity
  8
0
100
AcDbLine
 62
7
  6
CONTINUOUS
 10
149.7875744913
 20
240.2582904211
 11
184.3195963007
 21
240.2582904211
  0
LINE
  5
2F8
100
AcDbEntity
  8
0
100
AcDbLine
 62
7
  6
CONTINUOUS
 10
192.3195963006
 20
240.2582904211
 11
226.85161811
 21
240.2582904211
  0
LINE
  5
2F9
100
AcDbEntity
  8
RUNDUNGEN
100
AcDbLine
 62
7
  6
CONTINUOUS
 10
248.4069646569
 20
243.4982075133
 11
247.0507554386
 21
243.4982075133
  0
LINE
  5
2FA
100
AcDbEntity
  8
RUNDUNGEN
100
AcDbLine
 62
7
  6
CONTINUOUS
 10
129.5884371628
 20
243.4982075133
 11
128.2322279445
 21
243.4982075133
  0
LINE
  5
2FB
100
AcDbEntity
  8
0
100
AcDbLine
 62
7
  6
CONTINUOUS
 10
215.714507153
 20
228.6678648842
 11
216.4074848951
 21
228.5082904211
  0
LINE
  5
2FC
100
AcDbEntity
  8
0
100
AcDbLine
 62
7
  6
CONTINUOUS
 10
215.8530317369
 20
228.6678648842
 11
216.5460094791
 21
228.5082904211
  0
LINE
  5
2FD
100
AcDbEntity
  8
0
100
AcDbLine
 62
7
  6
CONTINUOUS
 10
217.9319633772
 20
235.8487159721
 11
217.2389856351
 21
236.0082904211
  0
LINE
  5
2FE
100
AcDbEntity
  8
0
100
AcDbLine
 62
7
  6
CONTINUOUS
 10
216.684604393
 20
229.3061627782
 11
216.130223151
 21
229.4657372273
  0
LINE
  5
2FF
100
AcDbEntity
  8
0
100
AcDbLine
 62
7
  6
CONTINUOUS
 10
217.2283866422
 20
231.9821064387
 11
217.6548438792
 21
231.8593542985
  0
LINE
  5
300
100
AcDbEntity
  8
0
100
AcDbLine
 62
7
  6
CONTINUOUS
 10
217.2389856351
 20
232.0189287475
 11
217.7933684632
 21
231.8593542985
  0
LINE
  5
301
100
AcDbEntity
  8
0
100
AcDbLine
 62
7
  6
CONTINUOUS
 10
216.684604393
 20
232.6572265438
 11
216.130223151
 21
232.8168009929
  0
LINE
  5
302
100
AcDbEntity
  8
0
100
AcDbLine
 62
7
  6
CONTINUOUS
 10
217.2283866422
 20
235.173595867
 11
217.6548438792
 21
235.0508437268
  0
LINE
  5
303
100
AcDbEntity
  8
0
100
AcDbLine
 62
7
  6
CONTINUOUS
 10
217.2389856351
 20
235.2104181758
 11
217.7933684632
 21
235.0508437268
  0
LINE
  5
304
100
AcDbEntity
  8
B-ACHSEN
100
AcDbLine
 62
7
  6
CONTINUOUS
 10
209.4053827383
 20
208.1725039835
 11
212.3195963007
 21
205.2582904211
  0
LINE
  5
305
100
AcDbEntity
  8
0
100
AcDbLine
 62
7
  6
CONTINUOUS
 10
165.8448939937
 20
231.0614818297
 11
165.5677033727
 21
231.6997798494
  0
LINE
  5
306
100
AcDbEntity
  8
0
100
AcDbLine
 62
7
  6
CONTINUOUS
 10
165.9834185776
 20
231.0614818297
 11
165.7062279566
 21
231.6997798494
  0
LINE
  5
307
100
AcDbEntity
  8
0
100
AcDbLine
 62
7
  6
CONTINUOUS
 10
164.4589400955
 20
234.5721203796
 11
164.5975358026
 21
234.2529714814
  0
LINE
  5
308
100
AcDbEntity
  8
0
100
AcDbLine
 62
7
  6
CONTINUOUS
 10
128.6638463281
 20
334.488328517
 11
128.2432066537
 21
335.4743577123
  0
LINE
  5
309
100
AcDbEntity
  8
0
100
AcDbLine
 62
7
  6
CONTINUOUS
 10
161.6870315062
 20
230.1040351353
 11
161.5484357992
 21
230.5827584825
  0
LINE
  5
30A
100
AcDbEntity
  8
0
100
AcDbLine
 62
7
  6
CONTINUOUS
 10
161.8255560902
 20
230.1040351353
 11
161.6869603831
 21
230.5827584825
  0
LINE
  5
30B
100
AcDbEntity
  8
0
100
AcDbLine
 62
7
  6
CONTINUOUS
 10
162.1028178343
 20
233.29552434
 11
161.9642221272
 21
233.7742476872
  0
LINE
  5
30C
100
AcDbEntity
  8
0
100
AcDbLine
 62
7
  6
CONTINUOUS
 10
162.2413424182
 20
233.29552434
 11
162.1027467112
 21
233.7742476872
  0
LINE
  5
30D
100
AcDbEntity
  8
0
100
AcDbLine
 62
7
  6
CONTINUOUS
 10
165.4291084587
 20
234.2529714814
 11
165.2905127516
 21
234.7316948286
  0
LINE
  5
30E
100
AcDbEntity
  8
0
100
AcDbLine
 62
7
  6
CONTINUOUS
 10
165.5676330426
 20
234.2529714814
 11
165.4290373356
 21
234.7316948286
  0
LINE
  5
30F
100
AcDbEntity
  8
0
100
AcDbLine
 62
7
  6
CONTINUOUS
 10
160.7168631431
 20
230.5827584825
 11
160.8554588501
 21
229.9444606862
  0
LINE
  5
310
100
AcDbEntity
  8
0
100
AcDbLine
 62
7
  6
CONTINUOUS
 10
161.1326494711
 20
233.6146732382
 11
161.2712451781
 21
232.9763754419
  0
LINE
  5
311
100
AcDbEntity
  8
0
100
AcDbLine
 62
7
  6
CONTINUOUS
 10
161.1326494711
 20
234.2529714814
 11
161.1326494711
 21
233.6146732382
  0
LINE
  5
312
100
AcDbEntity
  8
0
100
AcDbLine
 62
7
  6
CONTINUOUS
 10
161.9642221272
 20
233.7742476872
 11
161.9642221272
 21
234.0933965854
  0
LINE
  5
313
100
AcDbEntity
  8
0
100
AcDbLine
 62
7
  6
CONTINUOUS
 10
162.1027467112
 20
233.7742476872
 11
162.1027467112
 21
234.0933965854
  0
LINE
  5
314
100
AcDbEntity
  8
B-ACHSEN
100
AcDbLine
 62
7
  6
CONTINUOUS
 10
164.3195963007
 20
205.2582904211
 11
164.3195963007
 21
157.2582904211
  0
LINE
  5
315
100
AcDbEntity
  8
0
100
AcDbLine
 62
7
  6
CONTINUOUS
 10
165.0133221306
 20
230.9019073806
 11
165.0133221306
 21
230.4231840334
  0
LINE
  5
316
100
AcDbEntity
  8
0
100
AcDbLine
 62
7
  6
CONTINUOUS
 10
165.8448939937
 20
230.2636095843
 11
165.8448939937
 21
231.0614818297
  0
LINE
  5
317
100
AcDbEntity
  8
0
100
AcDbLine
 62
7
  6
CONTINUOUS
 10
165.9834185776
 20
230.2636095843
 11
165.9834185776
 21
231.0614818297
  0
LINE
  5
318
100
AcDbEntity
  8
0
100
AcDbLine
 62
7
  6
CONTINUOUS
 10
166.9536580638
 20
232.0189287475
 11
166.9536580638
 21
231.2210562787
  0
LINE
  5
319
100
AcDbEntity
  8
B-ACHSEN
100
AcDbLine
 62
7
  6
CONTINUOUS
 10
167.8195963007
 20
220.2582904211
 11
167.8195963007
 21
209.5867175459
  0
LINE
  5
31A
100
AcDbEntity
  8
0
100
AcDbLine
 62
7
  6
CONTINUOUS
 10
168.8939947901
 20
231.2210562787
 11
168.8939947901
 21
232.0189287475
  0
LINE
  5
31B
100
AcDbEntity
  8
0
100
AcDbLine
 62
7
  6
CONTINUOUS
 10
169.0325193741
 20
231.2210562787
 11
169.0325193741
 21
232.0189287475
  0
LINE
  5
31C
100
AcDbEntity
  8
0
100
AcDbLine
 62
7
  6
CONTINUOUS
 10
195.5383463007
 20
375.9391414336
 11
195.3508470159
 21
375.364673417
  0
LINE
  5
31D
100
AcDbEntity
  8
0
100
AcDbLine
 62
7
  6
CONTINUOUS
 10
216.130223151
 20
229.4657372273
 11
215.5758403229
 21
229.7848861254
  0
LINE
  5
31E
100
AcDbEntity
  8
0
100
AcDbLine
 62
7
  6
CONTINUOUS
 10
215.1601259109
 20
232.4976520947
 11
215.4373157389
 21
232.3380776457
  0
LINE
  5
31F
100
AcDbEntity
  8
0
100
AcDbLine
 62
7
  6
CONTINUOUS
 10
215.2986504949
 20
232.4976520947
 11
215.5758403229
 21
232.3380776457
  0
LINE
  5
320
100
AcDbEntity
  8
0
100
AcDbLine
 62
7
  6
CONTINUOUS
 10
217.6548438792
 20
231.8593542985
 11
218.2092251213
 21
231.5402054004
  0
LINE
  5
321
100
AcDbEntity
  8
0
100
AcDbLine
 62
7
  6
CONTINUOUS
 10
217.7933684632
 20
231.8593542985
 11
218.3477497052
 21
231.5402054004
  0
LINE
  5
322
100
AcDbEntity
  8
0
100
AcDbLine
 62
7
  6
CONTINUOUS
 10
218.6249411193
 20
232.1785031966
 11
218.3477497052
 21
232.3380776457
  0
LINE
  5
323
100
AcDbEntity
  8
0
100
AcDbLine
 62
7
  6
CONTINUOUS
 10
215.0215294108
 20
229.1465882733
 11
215.714507153
 21
228.6678648842
  0
LINE
  5
324
100
AcDbEntity
  8
0
100
AcDbLine
 62
7
  6
CONTINUOUS
 10
215.1600539948
 20
229.1465882733
 11
215.8530317369
 21
228.6678648842
  0
LINE
  5
325
100
AcDbEntity
  8
0
100
AcDbLine
 62
7
  6
CONTINUOUS
 10
121.7581260852
 20
328.8249329223
 11
121.2657331923
 21
329.6377343491
  0
LINE
  5
326
100
AcDbEntity
  8
0
100
AcDbLine
 62
7
  6
CONTINUOUS
 10
132.1079972193
 20
342.8032443096
 11
131.6873571344
 21
343.7892725137
  0
LINE
  5
327
100
AcDbEntity
  8
0
100
AcDbLine
 62
7
  6
CONTINUOUS
 10
170.0027572742
 20
236.0082904211
 11
170.0027572742
 21
228.5082904211
  0
LINE
  5
328
100
AcDbEntity
  8
0
100
AcDbLine
 62
7
  6
CONTINUOUS
 10
170.8343299303
 20
229.4657372273
 11
170.8343299303
 21
236.0082904211
  0
LINE
  5
329
100
AcDbEntity
  8
0
100
AcDbLine
 62
7
  6
CONTINUOUS
 10
170.9728545143
 20
229.4657372273
 11
170.9728545143
 21
236.0082904211
  0
LINE
  5
32A
100
AcDbEntity
  8
0
100
AcDbLine
 62
7
  6
CONTINUOUS
 10
174.1633463007
 20
374.2157372496
 11
174.1633463007
 21
373.2582904211
  0
LINE
  5
32B
100
AcDbEntity
  8
0
100
AcDbLine
 62
7
  6
CONTINUOUS
 10
174.9921932108
 20
228.5082904211
 11
174.9921932108
 21
229.4657372273
  0
LINE
  5
32C
100
AcDbEntity
  8
0
100
AcDbLine
 62
7
  6
CONTINUOUS
 10
175.1307177948
 20
228.5082904211
 11
175.1307177948
 21
229.4657372273
  0
LINE
  5
32D
100
AcDbEntity
  8
0
100
AcDbLine
 62
7
  6
CONTINUOUS
 10
176.100957281
 20
236.0082904211
 11
176.100957281
 21
235.2104181758
  0
LINE
  5
32E
100
AcDbEntity
  8
0
100
AcDbLine
 62
7
  6
CONTINUOUS
 10
178.3184838352
 20
235.2104181758
 11
178.3184838352
 21
228.5082904211
  0
LINE
  5
32F
100
AcDbEntity
  8
0
100
AcDbLine
 62
7
  6
CONTINUOUS
 10
179.1500580774
 20
228.5082904211
 11
179.1500580774
 21
235.2104181758
  0
LINE
  5
330
100
AcDbEntity
  8
0
100
AcDbLine
 62
7
  6
CONTINUOUS
 10
179.2885826614
 20
228.5082904211
 11
179.2885826614
 21
235.2104181758
  0
LINE
  5
331
100
AcDbEntity
  8
0
100
AcDbLine
 62
7
  6
CONTINUOUS
 10
161.2712451781
 20
234.8912692777
 11
161.1326494711
 21
234.2529714814
  0
LINE
  5
332
100
AcDbEntity
  8
0
100
AcDbLine
 62
7
  6
CONTINUOUS
 10
158.6379315028
 20
233.7742476872
 11
158.4993361923
 21
233.29552434
  0
LINE
  5
333
100
AcDbEntity
  8
0
100
AcDbLine
 62
7
  6
CONTINUOUS
 10
159.3309084519
 20
233.135949891
 11
159.4695041589
 21
233.6146732382
  0
LINE
  5
334
100
AcDbEntity
  8
0
100
AcDbLine
 62
7
  6
CONTINUOUS
 10
159.4694330358
 20
233.135949891
 11
159.6080287429
 21
233.6146732382
  0
LINE
  5
335
100
AcDbEntity
  8
0
100
AcDbLine
 62
7
  6
CONTINUOUS
 10
161.9642221272
 20
234.0933965854
 11
162.1028178343
 21
234.5721203796
  0
LINE
  5
336
100
AcDbEntity
  8
0
100
AcDbLine
 62
7
  6
CONTINUOUS
 10
162.1027467112
 20
234.0933965854
 11
162.2413424182
 21
234.5721203796
  0
LINE
  5
337
100
AcDbEntity
  8
0
100
AcDbLine
 62
7
  6
CONTINUOUS
 10
218.6249411193
 20
235.3699926249
 11
217.9319633772
 21
235.8487159721
  0
LINE
  5
338
100
AcDbEntity
  8
0
100
AcDbLine
 62
7
  6
CONTINUOUS
 10
216.130223151
 20
232.8168009929
 11
215.5758403229
 21
233.29552434
  0
LINE
  5
339
100
AcDbEntity
  8
0
100
AcDbLine
 62
7
  6
CONTINUOUS
 10
219.1793223614
 20
231.6997798494
 11
218.6249411193
 21
232.1785031966
  0
LINE
  5
33A
100
AcDbEntity
  8
0
100
AcDbLine
 62
7
  6
CONTINUOUS
 10
217.6548438792
 20
235.0508437268
 11
218.2092251213
 21
234.5721203796
  0
LINE
  5
33B
100
AcDbEntity
  8
0
100
AcDbLine
 62
7
  6
CONTINUOUS
 10
217.7933684632
 20
235.0508437268
 11
218.3477497052
 21
234.5721203796
  0
LINE
  5
33C
100
AcDbEntity
  8
0
100
AcDbLine
 62
7
  6
CONTINUOUS
 10
214.6057430828
 20
229.6253116763
 11
215.0215294108
 21
229.1465882733
  0
LINE
  5
33D
100
AcDbEntity
  8
0
100
AcDbLine
 62
7
  6
CONTINUOUS
 10
214.7442676668
 20
229.6253116763
 11
215.1600539948
 21
229.1465882733
  0
LINE
  5
33E
100
AcDbEntity
  8
0
100
AcDbLine
 62
7
  6
CONTINUOUS
 10
127.0716284143
 20
335.1478467711
 11
127.4588615066
 21
334.5815528845
  0
LINE
  5
33F
100
AcDbEntity
  8
0
100
AcDbLine
 62
7
  6
CONTINUOUS
 10
179.7883463007
 20
380.1519076935
 11
179.7883463007
 21
379.7689284793
  0
LINE
  5
340
100
AcDbEntity
  8
0
100
AcDbLine
 62
7
  6
CONTINUOUS
 10
180.9133463007
 20
373.2582904211
 11
180.9133463007
 21
374.2157372496
  0
LINE
  5
341
100
AcDbEntity
  8
0
100
AcDbLine
 62
7
  6
CONTINUOUS
 10
180.9133463007
 20
379.7689284793
 11
180.9133463007
 21
380.1519076935
  0
LINE
  5
342
100
AcDbEntity
  8
0
100
AcDbLine
 62
7
  6
CONTINUOUS
 10
181.3675830456
 20
235.2104181758
 11
181.3675830456
 21
236.0082904211
  0
LINE
  5
343
100
AcDbEntity
  8
0
100
AcDbLine
 62
7
  6
CONTINUOUS
 10
181.5061076296
 20
235.2104181758
 11
181.5061076296
 21
236.0082904211
  0
LINE
  5
344
100
AcDbEntity
  8
0
100
AcDbLine
 62
7
  6
CONTINUOUS
 10
182.4133464795
 20
380.917865049
 11
182.4133464795
 21
379.3859498016
  0
LINE
  5
345
100
AcDbEntity
  8
0
100
AcDbLine
 62
7
  6
CONTINUOUS
 10
183.538345943
 20
380.7263757101
 11
183.538345943
 21
373.2582904211
  0
LINE
  5
346
100
AcDbEntity
  8
0
100
AcDbLine
 62
7
  6
CONTINUOUS
 10
184.3195963007
 20
225.2582904211
 11
184.3195963007
 21
240.2582904211
  0
LINE
  5
347
100
AcDbEntity
  8
0
100
AcDbLine
 62
7
  6
CONTINUOUS
 10
184.663345943
 20
373.2582904211
 11
184.663345943
 21
382.2582904211
  0
LINE
  5
348
100
AcDbEntity
  8
B-ACHSEN
100
AcDbLine
 62
2
  6
CENTER
 10
188.3195963007
 20
306.2582904211
 11
188.3195963007
 21
148.6695876828
  0
LINE
  5
349
100
AcDbEntity
  8
B-ACHSEN
100
AcDbLine
 62
2
  6
CENTER
 10
188.3195963007
 20
306.2582904211
 11
188.3195963007
 21
400.7611514211
  0
LINE
  5
34A
100
AcDbEntity
  8
0
100
AcDbLine
 62
7
  6
CONTINUOUS
 10
165.5677033727
 20
229.6253116763
 11
165.8448939937
 21
230.2636095843
  0
LINE
  5
34B
100
AcDbEntity
  8
0
100
AcDbLine
 62
7
  6
CONTINUOUS
 10
165.7062279566
 20
229.6253116763
 11
165.9834185776
 21
230.2636095843
  0
LINE
  5
34C
100
AcDbEntity
  8
0
100
AcDbLine
 62
7
  6
CONTINUOUS
 10
158.9151225203
 20
232.4976520947
 11
159.3309084519
 21
233.135949891
  0
LINE
  5
34D
100
AcDbEntity
  8
0
100
AcDbLine
 62
7
  6
CONTINUOUS
 10
159.0536471043
 20
232.4976520947
 11
159.4694330358
 21
233.135949891
  0
LINE
  5
34E
100
AcDbEntity
  8
0
100
AcDbLine
 62
7
  6
CONTINUOUS
 10
120.1993150825
 20
329.0647163121
 11
120.65830125
 21
328.6716496725
  0
LINE
  5
34F
100
AcDbEntity
  8
0
100
AcDbLine
 62
7
  6
CONTINUOUS
 10
121.2657331923
 20
329.6377343491
 11
120.8067470248
 21
330.0308009887
  0
LINE
  5
350
100
AcDbEntity
  8
0
100
AcDbLine
 62
7
  6
CONTINUOUS
 10
128.2432066537
 20
335.4743577123
 11
127.6790603566
 21
336.1139314478
  0
LINE
  5
351
100
AcDbEntity
  8
0
100
AcDbLine
 62
7
  6
CONTINUOUS
 10
214.7443395829
 20
232.9763754419
 11
215.1601259109
 21
232.4976520947
  0
LINE
  5
352
100
AcDbEntity
  8
0
100
AcDbLine
 62
7
  6
CONTINUOUS
 10
214.8828641668
 20
232.9763754419
 11
215.2986504949
 21
232.4976520947
  0
LINE
  5
353
100
AcDbEntity
  8
0
100
AcDbLine
 62
7
  6
CONTINUOUS
 10
219.0407274474
 20
234.8912692777
 11
218.6249411193
 21
235.3699926249
  0
LINE
  5
354
100
AcDbEntity
  8
0
100
AcDbLine
 62
7
  6
CONTINUOUS
 10
130.5157793056
 20
343.4627625637
 11
130.9030119874
 21
342.8964676859
  0
LINE
  5
355
100
AcDbEntity
  8
0
100
AcDbLine
 62
7
  6
CONTINUOUS
 10
215.5758403229
 20
229.7848861254
 11
215.1600539948
 21
230.4231840334
  0
LINE
  5
356
100
AcDbEntity
  8
0
100
AcDbLine
 62
7
  6
CONTINUOUS
 10
200.884723927
 20
233.991028996
 11
202.6865354746
 21
228.5082904211
  0
LINE
  5
357
100
AcDbEntity
  8
0
100
AcDbLine
 62
7
  6
CONTINUOUS
 10
200.884723927
 20
234.4125459305
 11
202.8250600585
 21
228.5082904211
  0
LINE
  5
358
100
AcDbEntity
  8
0
100
AcDbLine
 62
7
  6
CONTINUOUS
 10
203.3794418954
 20
229.3061627782
 11
201.3005102551
 21
236.0082904211
  0
LINE
  5
359
100
AcDbEntity
  8
0
100
AcDbLine
 62
7
  6
CONTINUOUS
 10
189.725845943
 20
382.2582904211
 11
189.725845943
 21
377.2795670739
  0
LINE
  5
35A
100
AcDbEntity
  8
0
100
AcDbLine
 62
7
  6
CONTINUOUS
 10
190.6633466583
 20
378.2370137683
 11
190.6633466583
 21
381.3008437268
  0
LINE
  5
35B
100
AcDbEntity
  8
0
100
AcDbLine
 62
7
  6
CONTINUOUS
 10
192.3195963007
 20
225.2582904211
 11
192.3195963007
 21
240.2582904211
  0
LINE
  5
35C
100
AcDbEntity
  8
0
100
AcDbLine
 62
7
  6
CONTINUOUS
 10
195.5383463007
 20
376.3221201114
 11
195.5383463007
 21
375.9391414336
  0
LINE
  5
35D
100
AcDbEntity
  8
0
100
AcDbLine
 62
7
  6
CONTINUOUS
 10
196.1008463007
 20
381.3008437268
 11
196.1008463007
 21
382.2582904211
  0
LINE
  5
35E
100
AcDbEntity
  8
0
100
AcDbLine
 62
7
  6
CONTINUOUS
 10
196.4758470159
 20
375.7476520947
 11
196.4758470159
 21
376.5136094502
  0
LINE
  5
35F
100
AcDbEntity
  8
0
100
AcDbLine
 62
7
  6
CONTINUOUS
 10
197.9758455854
 20
379.3859498016
 11
197.9758455854
 21
378.6199924461
  0
LINE
  5
360
100
AcDbEntity
  8
0
100
AcDbLine
 62
7
  6
CONTINUOUS
 10
199.4758463007
 20
380.917865049
 11
199.4758463007
 21
379.3859498016
  0
LINE
  5
361
100
AcDbEntity
  8
0
100
AcDbLine
 62
7
  6
CONTINUOUS
 10
199.4758463007
 20
378.6199924461
 11
199.4758463007
 21
374.7902052662
  0
LINE
  5
362
100
AcDbEntity
  8
0
100
AcDbLine
 62
7
  6
CONTINUOUS
 10
165.0133221306
 20
230.4231840334
 11
164.7361307166
 21
229.9444606862
  0
LINE
  5
363
100
AcDbEntity
  8
0
100
AcDbLine
 62
7
  6
CONTINUOUS
 10
158.4993361923
 20
233.29552434
 11
158.2221451747
 21
232.9763754419
  0
LINE
  5
364
100
AcDbEntity
  8
0
100
AcDbLine
 62
7
  6
CONTINUOUS
 10
161.8256264202
 20
235.5295670739
 11
161.2712451781
 21
234.8912692777
  0
LINE
  5
365
100
AcDbEntity
  8
0
100
AcDbLine
 62
7
  6
CONTINUOUS
 10
131.6873571344
 20
343.7892725137
 11
131.1232112479
 21
344.4288472404
  0
LINE
  5
366
100
AcDbEntity
  8
0
100
AcDbLine
 62
7
  6
CONTINUOUS
 10
218.2092251213
 20
231.5402054004
 11
218.6250114493
 21
230.9019073806
  0
LINE
  5
367
100
AcDbEntity
  8
0
100
AcDbLine
 62
7
  6
CONTINUOUS
 10
218.3477497052
 20
231.5402054004
 11
218.7635360333
 21
230.9019073806
  0
LINE
  5
368
100
AcDbEntity
  8
0
100
AcDbLine
 62
7
  6
CONTINUOUS
 10
215.5758403229
 20
233.29552434
 11
215.2986504949
 21
233.7742476872
  0
LINE
  5
369
100
AcDbEntity
  8
0
100
AcDbLine
 62
7
  6
CONTINUOUS
 10
218.2092251213
 20
234.5721203796
 11
218.4864165353
 21
234.0933965854
  0
LINE
  5
36A
100
AcDbEntity
  8
0
100
AcDbLine
 62
7
  6
CONTINUOUS
 10
218.3477497052
 20
234.5721203796
 11
218.6249411193
 21
234.0933965854
  0
LINE
  5
36B
100
AcDbEntity
  8
0
100
AcDbLine
 62
7
  6
CONTINUOUS
 10
214.4671481688
 20
233.6146732382
 11
214.7443395829
 21
232.9763754419
  0
LINE
  5
36C
100
AcDbEntity
  8
0
100
AcDbLine
 62
7
  6
CONTINUOUS
 10
214.6056727528
 20
233.6146732382
 11
214.8828641668
 21
232.9763754419
  0
LINE
  5
36D
100
AcDbEntity
  8
0
100
AcDbLine
 62
7
  6
CONTINUOUS
 10
214.3285532548
 20
230.4231840334
 11
214.6057430828
 21
229.6253116763
  0
LINE
  5
36E
100
AcDbEntity
  8
0
100
AcDbLine
 62
7
  6
CONTINUOUS
 10
214.4670778388
 20
230.4231840334
 11
214.7442676668
 21
229.6253116763
  0
LINE
  5
36F
100
AcDbEntity
  8
0
100
AcDbLine
 62
7
  6
CONTINUOUS
 10
199.914626687
 20
236.0082904211
 11
199.914626687
 21
228.5082904211
  0
LINE
  5
370
100
AcDbEntity
  8
0
100
AcDbLine
 62
7
  6
CONTINUOUS
 10
200.0531512709
 20
236.0082904211
 11
200.0531512709
 21
228.5082904211
  0
LINE
  5
371
100
AcDbEntity
  8
0
100
AcDbLine
 62
7
  6
CONTINUOUS
 10
200.4133470159
 20
375.1731840781
 11
200.4133470159
 21
378.6199924461
  0
LINE
  5
372
100
AcDbEntity
  8
0
100
AcDbLine
 62
7
  6
CONTINUOUS
 10
200.4133470159
 20
379.3859498016
 11
200.4133470159
 21
380.917865049
  0
LINE
  5
373
100
AcDbEntity
  8
0
100
AcDbLine
 62
7
  6
CONTINUOUS
 10
200.884723927
 20
228.5082904211
 11
200.884723927
 21
234.4125459305
  0
LINE
  5
374
100
AcDbEntity
  8
0
100
AcDbLine
 62
7
  6
CONTINUOUS
 10
202.1008470159
 20
373.2582904211
 11
202.1008470159
 21
374.0242478437
  0
LINE
  5
375
100
AcDbEntity
  8
0
100
AcDbLine
 62
7
  6
CONTINUOUS
 10
202.4758455854
 20
378.6199924461
 11
202.4758455854
 21
379.3859498016
  0
LINE
  5
376
100
AcDbEntity
  8
0
100
AcDbLine
 62
7
  6
CONTINUOUS
 10
205.7356352797
 20
233.9910290391
 11
205.7356352797
 21
228.5082904211
  0
LINE
  5
377
100
AcDbEntity
  8
0
100
AcDbLine
 62
7
  6
CONTINUOUS
 10
205.8741598637
 20
234.4125459305
 11
205.8741598637
 21
228.5082904211
  0
LINE
  5
378
100
AcDbEntity
  8
0
100
AcDbLine
 62
7
  6
CONTINUOUS
 10
206.7057325198
 20
228.5082904211
 11
206.7057325198
 21
236.0082904211
  0
LINE
  5
379
100
AcDbEntity
  8
0
100
AcDbLine
 62
7
  6
CONTINUOUS
 10
207.6759712129
 20
231.6997798494
 11
207.6759712129
 21
230.7423329315
  0
LINE
  5
37A
100
AcDbEntity
  8
0
100
AcDbLine
 62
7
  6
CONTINUOUS
 10
207.8144957969
 20
231.6997798494
 11
207.8144957969
 21
230.7423329315
  0
LINE
  5
37B
100
AcDbEntity
  8
B-ACHSEN
100
AcDbLine
 62
7
  6
CONTINUOUS
 10
208.8195963007
 20
220.2582904211
 11
208.8195963007
 21
209.5867175459
  0
LINE
  5
37C
100
AcDbEntity
  8
0
100
AcDbLine
 62
7
  6
CONTINUOUS
 10
165.0133221306
 20
228.9870138242
 11
165.5677033727
 21
229.6253116763
  0
LINE
  5
37D
100
AcDbEntity
  8
0
100
AcDbLine
 62
7
  6
CONTINUOUS
 10
165.1518467146
 20
228.9870138242
 11
165.7062279566
 21
229.6253116763
  0
LINE
  5
37E
100
AcDbEntity
  8
0
100
AcDbLine
 62
7
  6
CONTINUOUS
 10
162.1028178343
 20
234.5721203796
 11
162.5186041623
 21
234.8912692777
  0
LINE
  5
37F
100
AcDbEntity
  8
0
100
AcDbLine
 62
7
  6
CONTINUOUS
 10
162.2413424182
 20
234.5721203796
 11
162.6571287463
 21
234.8912692777
  0
LINE
  5
380
100
AcDbEntity
  8
0
100
AcDbLine
 62
7
  6
CONTINUOUS
 10
164.7361307166
 20
229.9444606862
 11
164.3203443885
 21
229.6253116763
  0
LINE
  5
381
100
AcDbEntity
  8
0
100
AcDbLine
 62
7
  6
CONTINUOUS
 10
162.3800084553
 20
235.8487159721
 11
161.8256264202
 21
235.5295670739
  0
LINE
  5
382
100
AcDbEntity
  8
0
100
AcDbLine
 62
7
  6
CONTINUOUS
 10
158.3607404853
 20
232.1785031966
 11
158.9151225203
 21
232.4976520947
  0
LINE
  5
383
100
AcDbEntity
  8
0
100
AcDbLine
 62
7
  6
CONTINUOUS
 10
158.4992650692
 20
232.1785031966
 11
159.0536471043
 21
232.4976520947
  0
LINE
  5
384
100
AcDbEntity
  8
0
100
AcDbLine
 62
7
  6
CONTINUOUS
 10
115.4981840724
 20
324.7205840643
 11
123.813099865
 21
321.276433173
  0
LINE
  5
385
100
AcDbEntity
  8
0
100
AcDbLine
 62
7
  6
CONTINUOUS
 10
124.2436187264
 20
322.3157976471
 11
120.5284435323
 21
323.8546735991
  0
LINE
  5
386
100
AcDbEntity
  8
0
100
AcDbLine
 62
7
  6
CONTINUOUS
 10
119.466965047
 20
324.2943523838
 11
116.8132683382
 21
325.3935495511
  0
LINE
  5
387
100
AcDbEntity
  8
0
100
AcDbLine
 62
7
  6
CONTINUOUS
 10
127.6790603566
 20
336.1139314478
 11
126.8662482326
 21
336.6535581778
  0
LINE
  5
388
100
AcDbEntity
  8
0
100
AcDbLine
 62
7
  6
CONTINUOUS
 10
126.4357293712
 20
335.6141937037
 11
127.0716284143
 21
335.1478467711
  0
LINE
  5
389
100
AcDbEntity
  8
0
100
AcDbLine
 62
7
  6
CONTINUOUS
 10
219.4565137754
 20
230.9019073806
 11
219.1793223614
 21
231.6997798494
  0
LINE
  5
38A
100
AcDbEntity
  8
0
100
AcDbLine
 62
7
  6
CONTINUOUS
 10
219.3179172753
 20
234.0933965854
 11
219.0407274474
 21
234.8912692777
  0
LINE
  5
38B
100
AcDbEntity
  8
0
100
AcDbLine
 62
7
  6
CONTINUOUS
 10
180.9133463007
 20
380.1519076935
 11
180.7258464795
 21
380.917865049
  0
LINE
  5
38C
100
AcDbEntity
  8
0
100
AcDbLine
 62
7
  6
CONTINUOUS
 10
211.0022618374
 20
234.5534380514
 11
211.0022618374
 21
231.6997798494
  0
LINE
  5
38D
100
AcDbEntity
  8
0
100
AcDbLine
 62
7
  6
CONTINUOUS
 10
211.0022618374
 20
230.7423329315
 11
211.0022618374
 21
228.5082904211
  0
LINE
  5
38E
100
AcDbEntity
  8
0
100
AcDbLine
 62
7
  6
CONTINUOUS
 10
211.1407864213
 20
234.7316948286
 11
211.1407864213
 21
231.6997798494
  0
LINE
  5
38F
100
AcDbEntity
  8
0
100
AcDbLine
 62
7
  6
CONTINUOUS
 10
211.1407864213
 20
230.7423329315
 11
211.1407864213
 21
228.5082904211
  0
LINE
  5
390
100
AcDbEntity
  8
0
100
AcDbLine
 62
7
  6
CONTINUOUS
 10
211.9723590774
 20
228.5082904211
 11
211.9723590774
 21
230.7423329315
  0
LINE
  5
391
100
AcDbEntity
  8
0
100
AcDbLine
 62
7
  6
CONTINUOUS
 10
211.9723590774
 20
231.6997798494
 11
211.9723590774
 21
236.0082904211
  0
LINE
  5
392
100
AcDbEntity
  8
B-ACHSEN
100
AcDbLine
 62
7
  6
CONTINUOUS
 10
212.3195963007
 20
205.2582904211
 11
212.3195963007
 21
157.2582904211
  0
LINE
  5
393
100
AcDbEntity
  8
0
100
AcDbLine
 62
7
  6
CONTINUOUS
 10
213.3583137686
 20
230.7423329315
 11
213.3583137686
 21
231.6997798494
  0
LINE
  5
394
100
AcDbEntity
  8
0
100
AcDbLine
 62
7
  6
CONTINUOUS
 10
214.3285532548
 20
230.9019073806
 11
214.3285532548
 21
230.4231840334
  0
LINE
  5
395
100
AcDbEntity
  8
0
100
AcDbLine
 62
7
  6
CONTINUOUS
 10
214.4670778388
 20
230.9019073806
 11
214.4670778388
 21
230.4231840334
  0
LINE
  5
396
100
AcDbEntity
  8
0
100
AcDbLine
 62
7
  6
CONTINUOUS
 10
214.4671481688
 20
234.0933965854
 11
214.4671481688
 21
233.6146732382
  0
LINE
  5
397
100
AcDbEntity
  8
0
100
AcDbLine
 62
7
  6
CONTINUOUS
 10
214.6056727528
 20
234.0933965854
 11
214.6056727528
 21
233.6146732382
  0
LINE
  5
398
100
AcDbEntity
  8
0
100
AcDbLine
 62
7
  6
CONTINUOUS
 10
215.1600539948
 20
230.4231840334
 11
215.1600539948
 21
230.9019073806
  0
LINE
  5
399
100
AcDbEntity
  8
0
100
AcDbLine
 62
7
  6
CONTINUOUS
 10
215.2986504949
 20
233.7742476872
 11
215.2986504949
 21
234.0933965854
  0
LINE
  5
39A
100
AcDbEntity
  8
0
100
AcDbLine
 62
7
  6
CONTINUOUS
 10
218.4864165353
 20
234.0933965854
 11
218.4864165353
 21
233.7742476872
  0
LINE
  5
39B
100
AcDbEntity
  8
0
100
AcDbLine
 62
7
  6
CONTINUOUS
 10
218.6249411193
 20
234.0933965854
 11
218.6249411193
 21
233.7742476872
  0
LINE
  5
39C
100
AcDbEntity
  8
0
100
AcDbLine
 62
7
  6
CONTINUOUS
 10
218.6250114493
 20
230.9019073806
 11
218.6250114493
 21
230.4231840334
  0
LINE
  5
39D
100
AcDbEntity
  8
0
100
AcDbLine
 62
7
  6
CONTINUOUS
 10
218.7635360333
 20
230.9019073806
 11
218.7635360333
 21
230.4231840334
  0
LINE
  5
39E
100
AcDbEntity
  8
0
100
AcDbLine
 62
7
  6
CONTINUOUS
 10
219.3179172753
 20
233.6146732382
 11
219.3179172753
 21
234.0933965854
  0
LINE
  5
39F
100
AcDbEntity
  8
0
100
AcDbLine
 62
7
  6
CONTINUOUS
 10
219.4565137754
 20
230.4231840334
 11
219.4565137754
 21
230.9019073806
  0
LINE
  5
3A0
100
AcDbEntity
  8
0
100
AcDbLine
 62
7
  6
CONTINUOUS
 10
205.3198489517
 20
236.0082904211
 11
203.3101796034
 21
229.5294528147
  0
LINE
  5
3A1
100
AcDbEntity
  8
0
100
AcDbLine
 62
7
  6
CONTINUOUS
 10
205.4583735356
 20
236.0082904211
 11
203.3794418954
 21
229.3061627782
  0
LINE
  5
3A2
100
AcDbEntity
  8
0
100
AcDbLine
 62
7
  6
CONTINUOUS
 10
203.9338235339
 20
228.5082904211
 11
205.8741598637
 21
234.4125459305
  0
LINE
  5
3A3
100
AcDbEntity
  8
0
100
AcDbLine
 62
7
  6
CONTINUOUS
 10
164.4589400955
 20
228.6678648842
 11
165.0133221306
 21
228.9870138242
  0
LINE
  5
3A4
100
AcDbEntity
  8
0
100
AcDbLine
 62
7
  6
CONTINUOUS
 10
164.5974646795
 20
228.6678648842
 11
165.1518467146
 21
228.9870138242
  0
LINE
  5
3A5
100
AcDbEntity
  8
0
100
AcDbLine
 62
7
  6
CONTINUOUS
 10
162.5186041623
 20
234.8912692777
 11
162.9343904904
 21
235.0508437268
  0
LINE
  5
3A6
100
AcDbEntity
  8
0
100
AcDbLine
 62
7
  6
CONTINUOUS
 10
162.6571287463
 20
234.8912692777
 11
162.9521748516
 21
235.0045048906
  0
LINE
  5
3A7
100
AcDbEntity
  8
0
100
AcDbLine
 62
7
  6
CONTINUOUS
 10
158.2221451747
 20
232.9763754419
 11
157.8063588467
 21
232.8168009929
  0
LINE
  5
3A8
100
AcDbEntity
  8
0
100
AcDbLine
 62
7
  6
CONTINUOUS
 10
162.9343904904
 20
236.0082904211
 11
162.3800084553
 21
235.8487159721
  0
LINE
  5
3A9
100
AcDbEntity
  8
0
100
AcDbLine
 62
7
  6
CONTINUOUS
 10
119.6685753443
 20
329.2845559097
 11
120.1993150825
 21
329.0647163121
  0
LINE
  5
3AA
100
AcDbEntity
  8
0
100
AcDbLine
 62
7
  6
CONTINUOUS
 10
120.8067470248
 20
330.0308009887
 11
120.0990942057
 21
330.3239203838
  0
LINE
  5
3AB
100
AcDbEntity
  8
0
100
AcDbLine
 62
7
  6
CONTINUOUS
 10
118.7988286081
 20
332.689044867
 11
124.2831348588
 21
330.4173708378
  0
LINE
  5
3AC
100
AcDbEntity
  8
0
100
AcDbLine
 62
7
  6
CONTINUOUS
 10
124.7136539255
 20
331.4567358074
 11
119.2293476748
 21
333.7284098367
  0
LINE
  5
3AD
100
AcDbEntity
  8
0
100
AcDbLine
 62
7
  6
CONTINUOUS
 10
131.1232112479
 20
344.4288472404
 11
130.3103987133
 21
344.9684729792
  0
LINE
  5
3AE
100
AcDbEntity
  8
0
100
AcDbLine
 62
7
  6
CONTINUOUS
 10
129.8798798519
 20
343.9291085051
 11
130.5157793056
 21
343.4627625637
  0
LINE
  5
3AF
100
AcDbEntity
  8
0
100
AcDbLine
 62
7
  6
CONTINUOUS
 10
226.851618066
 20
225.2582904211
 11
226.851618066
 21
240.2582904211
  0
LINE
  5
3B0
100
AcDbEntity
  8
0
100
AcDbLine
 62
7
  6
CONTINUOUS
 10
214.7443395829
 20
234.8912692777
 11
214.4671481688
 21
234.0933965854
  0
LINE
  5
3B1
100
AcDbEntity
  8
0
100
AcDbLine
 62
7
  6
CONTINUOUS
 10
214.8828641668
 20
234.8912692777
 11
214.6056727528
 21
234.0933965854
  0
LINE
  5
3B2
100
AcDbEntity
  8
0
100
AcDbLine
 62
7
  6
CONTINUOUS
 10
214.6057430828
 20
231.6997798494
 11
214.3285532548
 21
230.9019073806
  0
LINE
  5
3B3
100
AcDbEntity
  8
0
100
AcDbLine
 62
7
  6
CONTINUOUS
 10
214.7442676668
 20
231.6997798494
 11
214.4670778388
 21
230.9019073806
  0
LINE
  5
3B4
100
AcDbEntity
  8
0
100
AcDbLine
 62
7
  6
CONTINUOUS
 10
211.0022618374
 20
236.0082904211
 11
207.6759712129
 21
231.6997798494
  0
LINE
  5
3B5
100
AcDbEntity
  8
B-ACHSEN
100
AcDbLine
 62
7
  6
CONTINUOUS
 10
167.233809863
 20
208.1725039835
 11
164.3195963007
 21
205.2582904211
  0
LINE
  5
3B6
100
AcDbEntity
  8
0
100
AcDbLine
 62
7
  6
CONTINUOUS
 10
164.3203443885
 20
229.6253116763
 11
163.7659631465
 21
229.4657372273
  0
LINE
  5
3B7
100
AcDbEntity
  8
B-ACHSEN
100
AcDbLine
 62
2
  6
CENTER
 10
188.3195963007
 20
306.2582904211
 11
94.5141780301
 21
306.2582904211
  0
LINE
  5
3B8
100
AcDbEntity
  8
B-ACHSEN
100
AcDbLine
 62
2
  6
CENTER
 10
188.3195963007
 20
306.2582904211
 11
282.3544449748
 21
306.2582904211
  0
LINE
  5
3B9
100
AcDbEntity
  8
0
100
AcDbLine
 62
7
  6
CONTINUOUS
 10
120.9514231205
 20
337.885867733
 11
126.4357293712
 21
335.6141937037
  0
LINE
  5
3BA
100
AcDbEntity
  8
0
100
AcDbLine
 62
7
  6
CONTINUOUS
 10
126.8662482326
 20
336.6535581778
 11
121.3819419819
 21
338.9252322071
  0
LINE
  5
3BB
100
AcDbEntity
  8
0
100
AcDbLine
 62
7
  6
CONTINUOUS
 10
121.9559669936
 20
340.3110511754
 11
130.2708827862
 21
336.8669002841
  0
LINE
  5
3BC
100
AcDbEntity
  8
0
100
AcDbLine
 62
7
  6
CONTINUOUS
 10
129.6399230384
 20
338.3459435943
 11
123.4479643403
 21
340.9107368647
  0
LINE
  5
3BD
100
AcDbEntity
  8
0
100
AcDbLine
 62
7
  6
CONTINUOUS
 10
195.3508470159
 20
376.8965883962
 11
195.5383463007
 21
376.3221201114
  0
LINE
  5
3BE
100
AcDbEntity
  8
B-ACHSEN
100
AcDbLine
 62
7
  6
CONTINUOUS
 10
238.3195963007
 20
220.2582904211
 11
238.3195963007
 21
231.4982075133
  0
LINE
  5
3BF
100
AcDbEntity
  8
0
100
AcDbLine
 62
7
  6
CONTINUOUS
 10
219.1793223614
 20
229.6253116763
 11
219.4565137754
 21
230.4231840334
  0
LINE
  5
3C0
100
AcDbEntity
  8
0
100
AcDbLine
 62
7
  6
CONTINUOUS
 10
219.0407274474
 20
232.9763754419
 11
219.3179172753
 21
233.6146732382
  0
LINE
  5
3C1
100
AcDbEntity
  8
0
100
AcDbLine
 62
7
  6
CONTINUOUS
 10
215.2986504949
 20
234.0933965854
 11
215.5758403229
 21
234.5721203796
  0
LINE
  5
3C2
100
AcDbEntity
  8
0
100
AcDbLine
 62
7
  6
CONTINUOUS
 10
218.4864165353
 20
233.7742476872
 11
218.2092251213
 21
233.29552434
  0
LINE
  5
3C3
100
AcDbEntity
  8
0
100
AcDbLine
 62
7
  6
CONTINUOUS
 10
218.6249411193
 20
233.7742476872
 11
218.3477497052
 21
233.29552434
  0
LINE
  5
3C4
100
AcDbEntity
  8
0
100
AcDbLine
 62
7
  6
CONTINUOUS
 10
215.1600539948
 20
230.9019073806
 11
215.5758403229
 21
231.5402054004
  0
LINE
  5
3C5
100
AcDbEntity
  8
0
100
AcDbLine
 62
7
  6
CONTINUOUS
 10
218.6250114493
 20
230.4231840334
 11
218.2092251213
 21
229.7848861254
  0
LINE
  5
3C6
100
AcDbEntity
  8
0
100
AcDbLine
 62
7
  6
CONTINUOUS
 10
218.7635360333
 20
230.4231840334
 11
218.3477497052
 21
229.7848861254
  0
LINE
  5
3C7
100
AcDbEntity
  8
0
100
AcDbLine
 62
7
  6
CONTINUOUS
 10
211.1407864213
 20
236.0082904211
 11
207.8144957969
 21
231.6997798494
  0
LINE
  5
3C8
100
AcDbEntity
  8
0
100
AcDbLine
 62
7
  6
CONTINUOUS
 10
208.78466416
 20
231.6997798494
 11
211.1407864213
 21
234.7316948286
  0
LINE
  5
3C9
100
AcDbEntity
  8
0
100
AcDbLine
 62
7
  6
CONTINUOUS
 10
215.1601259109
 20
235.3699926249
 11
214.7443395829
 21
234.8912692777
  0
LINE
  5
3CA
100
AcDbEntity
  8
0
100
AcDbLine
 62
7
  6
CONTINUOUS
 10
215.2986504949
 20
235.3699926249
 11
214.8828641668
 21
234.8912692777
  0
LINE
  5
3CB
100
AcDbEntity
  8
0
100
AcDbLine
 62
7
  6
CONTINUOUS
 10
218.6249411193
 20
232.4976520947
 11
219.0407274474
 21
232.9763754419
  0
LINE
  5
3CC
100
AcDbEntity
  8
0
100
AcDbLine
 62
7
  6
CONTINUOUS
 10
215.5758403229
 20
234.5721203796
 11
216.130223151
 21
235.0508437268
  0
LINE
  5
3CD
100
AcDbEntity
  8
0
100
AcDbLine
 62
7
  6
CONTINUOUS
 10
215.1601259109
 20
232.1785031966
 11
214.6057430828
 21
231.6997798494
  0
LINE
  5
3CE
100
AcDbEntity
  8
0
100
AcDbLine
 62
7
  6
CONTINUOUS
 10
215.2986504949
 20
232.1785031966
 11
214.7442676668
 21
231.6997798494
  0
LINE
  5
3CF
100
AcDbEntity
  8
0
100
AcDbLine
 62
7
  6
CONTINUOUS
 10
218.2092251213
 20
233.29552434
 11
217.6548438792
 21
232.8168009929
  0
LINE
  5
3D0
100
AcDbEntity
  8
0
100
AcDbLine
 62
7
  6
CONTINUOUS
 10
218.3477497052
 20
233.29552434
 11
217.7933684632
 21
232.8168009929
  0
LINE
  5
3D1
100
AcDbEntity
  8
0
100
AcDbLine
 62
7
  6
CONTINUOUS
 10
215.8531020669
 20
235.8487159721
 11
215.1601259109
 21
235.3699926249
  0
LINE
  5
3D2
100
AcDbEntity
  8
0
100
AcDbLine
 62
7
  6
CONTINUOUS
 10
215.9916266509
 20
235.8487159721
 11
215.2986504949
 21
235.3699926249
  0
LINE
  5
3D3
100
AcDbEntity
  8
0
100
AcDbLine
 62
7
  6
CONTINUOUS
 10
215.4373157389
 20
232.3380776457
 11
215.1601259109
 21
232.1785031966
  0
LINE
  5
3D4
100
AcDbEntity
  8
0
100
AcDbLine
 62
7
  6
CONTINUOUS
 10
215.5758403229
 20
232.3380776457
 11
215.2986504949
 21
232.1785031966
  0
LINE
  5
3D5
100
AcDbEntity
  8
0
100
AcDbLine
 62
7
  6
CONTINUOUS
 10
215.5758403229
 20
231.5402054004
 11
216.130223151
 21
231.8593542985
  0
LINE
  5
3D6
100
AcDbEntity
  8
0
100
AcDbLine
 62
7
  6
CONTINUOUS
 10
218.3477497052
 20
232.3380776457
 11
218.6249411193
 21
232.4976520947
  0
LINE
  5
3D7
100
AcDbEntity
  8
0
100
AcDbLine
 62
7
  6
CONTINUOUS
 10
216.130223151
 20
235.0508437268
 11
216.684604393
 21
235.2104181758
  0
LINE
  5
3D8
100
AcDbEntity
  8
0
100
AcDbLine
 62
7
  6
CONTINUOUS
 10
217.6548438792
 20
232.8168009929
 11
217.2283866422
 21
232.6940488526
  0
LINE
  5
3D9
100
AcDbEntity
  8
0
100
AcDbLine
 62
7
  6
CONTINUOUS
 10
217.7933684632
 20
232.8168009929
 11
217.2389856351
 21
232.6572265438
  0
LINE
  5
3DA
100
AcDbEntity
  8
0
100
AcDbLine
 62
7
  6
CONTINUOUS
 10
216.130223151
 20
231.8593542985
 11
216.684604393
 21
232.0189287475
  0
LINE
  5
3DB
100
AcDbEntity
  8
0
100
AcDbLine
 62
7
  6
CONTINUOUS
 10
217.6548438792
 20
229.4657372273
 11
217.2283866422
 21
229.3429850871
  0
LINE
  5
3DC
100
AcDbEntity
  8
0
100
AcDbLine
 62
7
  6
CONTINUOUS
 10
217.7933684632
 20
229.4657372273
 11
217.2389856351
 21
229.3061627782
  0
LINE
  5
3DD
100
AcDbEntity
  8
0
100
AcDbLine
 62
7
  6
CONTINUOUS
 10
121.7482469388
 20
326.7995395264
 11
126.0374472472
 21
326.6464827905
  0
LINE
  5
3DE
100
AcDbEntity
  8
0
100
AcDbLine
 62
7
  6
CONTINUOUS
 10
119.0660830265
 20
329.331168055
 11
119.6685753443
 21
329.2845559097
  0
LINE
  5
3DF
100
AcDbEntity
  8
0
100
AcDbLine
 62
7
  6
CONTINUOUS
 10
125.4930591189
 20
331.3368433691
 11
124.7136539255
 21
331.4567358074
  0
LINE
  5
3E0
100
AcDbEntity
  8
0
100
AcDbLine
 62
7
  6
CONTINUOUS
 10
124.2831348588
 20
330.4173708378
 11
125.2394535437
 21
330.2241995932
  0
LINE
  5
3E1
100
AcDbEntity
  8
0
100
AcDbLine
 62
7
  6
CONTINUOUS
 10
127.2261833909
 20
345.0283055697
 11
129.8798798519
 21
343.9291085051
  0
LINE
  5
3E2
100
AcDbEntity
  8
0
100
AcDbLine
 62
7
  6
CONTINUOUS
 10
130.3103987133
 20
344.9684729792
 11
127.6567022523
 21
346.0676700438
  0
LINE
  5
3E3
100
AcDbEntity
  8
0
100
AcDbLine
 62
7
  6
CONTINUOUS
 10
179.4133461219
 20
380.7263757101
 11
179.7883463007
 21
380.1519076935
  0
LINE
  5
3E4
100
AcDbEntity
  8
0
100
AcDbLine
 62
7
  6
CONTINUOUS
 10
189.725845943
 20
375.5561627559
 11
190.1008466583
 21
374.7902052662
  0
LINE
  5
3E5
100
AcDbEntity
  8
0
100
AcDbLine
 62
7
  6
CONTINUOUS
 10
191.2258466583
 20
374.7902052662
 11
190.850845943
 21
375.5561627559
  0
LINE
  5
3E6
100
AcDbEntity
  8
0
100
AcDbLine
 62
7
  6
CONTINUOUS
 10
196.4758470159
 20
376.5136094502
 11
196.1008463007
 21
377.4710564128
  0
LINE
  5
3E7
100
AcDbEntity
  8
0
100
AcDbLine
 62
7
  6
CONTINUOUS
 10
200.6008463007
 20
374.5987159274
 11
200.4133470159
 21
375.1731840781
  0
LINE
  5
3E8
100
AcDbEntity
  8
0
100
AcDbLine
 62
7
  6
CONTINUOUS
 10
218.7635360333
 20
229.1465882733
 11
219.1793223614
 21
229.6253116763
  0
LINE
  5
3E9
100
AcDbEntity
  8
0
100
AcDbLine
 62
7
  6
CONTINUOUS
 10
218.0705582912
 20
228.6678648842
 11
218.7635360333
 21
229.1465882733
  0
LINE
  5
3EA
100
AcDbEntity
  8
0
100
AcDbLine
 62
7
  6
CONTINUOUS
 10
218.2092251213
 20
229.7848861254
 11
217.6548438792
 21
229.4657372273
  0
LINE
  5
3EB
100
AcDbEntity
  8
0
100
AcDbLine
 62
7
  6
CONTINUOUS
 10
218.3477497052
 20
229.7848861254
 11
217.7933684632
 21
229.4657372273
  0
LINE
  5
3EC
100
AcDbEntity
  8
0
100
AcDbLine
 62
7
  6
CONTINUOUS
 10
125.2394535437
 20
330.2241995932
 11
126.0906123467
 21
330.2775353419
  0
LINE
  5
3ED
100
AcDbEntity
  8
0
100
AcDbLine
 62
7
  6
CONTINUOUS
 10
126.539719389
 20
327.8590750074
 11
121.8249397411
 21
327.9854638432
  0
LINE
  5
3EE
100
AcDbEntity
  8
0
100
AcDbLine
 62
7
  6
CONTINUOUS
 10
120.0990942057
 20
330.3239203838
 11
119.4966018879
 21
330.3705325291
  0
LINE
  5
3EF
100
AcDbEntity
  8
0
100
AcDbLine
 62
7
  6
CONTINUOUS
 10
127.6567022523
 20
346.0676700438
 11
126.7003834824
 21
346.2608424848
  0
LINE
  5
3F0
100
AcDbEntity
  8
0
100
AcDbLine
 62
7
  6
CONTINUOUS
 10
199.4758463007
 20
374.7902052662
 11
199.8508470159
 21
374.0242478437
  0
LINE
  5
3F1
100
AcDbEntity
  8
RUNDUNGEN
100
AcDbLine
 62
7
  6
CONTINUOUS
 10
252.0524312097
 20
245.8466385873
 11
275.4906300468
 21
302.4314560975
  0
LINE
  5
3F2
100
AcDbEntity
  8
0
100
AcDbLine
 62
7
  6
CONTINUOUS
 10
126.1673049224
 20
331.4634594622
 11
125.4930591189
 21
331.3368433691
  0
LINE
  5
3F3
100
AcDbEntity
  8
0
100
AcDbLine
 62
7
  6
CONTINUOUS
 10
126.4467781975
 20
345.148198008
 11
127.2261833909
 21
345.0283055697
  0
LINE
  5
3F4
100
AcDbEntity
  8
0
100
AcDbLine
 62
7
  6
CONTINUOUS
 10
180.7258464795
 20
380.917865049
 11
179.9758461219
 21
381.6838224045
  0
LINE
  5
3F5
100
AcDbEntity
  8
0
100
AcDbLine
 62
7
  6
CONTINUOUS
 10
190.1008466583
 20
374.7902052662
 11
190.6633466583
 21
374.0242478437
  0
LINE
  5
3F6
100
AcDbEntity
  8
0
100
AcDbLine
 62
7
  6
CONTINUOUS
 10
196.1008463007
 20
377.4710564128
 11
195.5383463007
 21
378.2370137683
  0
LINE
  5
3F7
100
AcDbEntity
  8
0
100
AcDbLine
 62
7
  6
CONTINUOUS
 10
194.9758463007
 20
377.4710564128
 11
195.3508470159
 21
376.8965883962
  0
LINE
  5
3F8
100
AcDbEntity
  8
0
100
AcDbLine
 62
7
  6
CONTINUOUS
 10
119.4966018879
 20
330.3705325291
 11
118.5736901337
 21
330.1439694819
  0
LINE
  5
3F9
100
AcDbEntity
  8
0
100
AcDbLine
 62
7
  6
CONTINUOUS
 10
126.7003834824
 20
346.2608424848
 11
125.8492245981
 21
346.2075061892
  0
LINE
  5
3FA
100
AcDbEntity
  8
0
100
AcDbLine
 62
7
  6
CONTINUOUS
 10
125.7725318984
 20
345.0215821202
 11
126.4467781975
 21
345.148198008
  0
LINE
  5
3FB
100
AcDbEntity
  8
0
100
AcDbLine
 62
7
  6
CONTINUOUS
 10
190.6633466583
 20
374.0242478437
 11
191.6008463007
 21
373.4497797768
  0
LINE
  5
3FC
100
AcDbEntity
  8
0
100
AcDbLine
 62
7
  6
CONTINUOUS
 10
178.8508461219
 20
381.1093543879
 11
179.4133461219
 21
380.7263757101
  0
LINE
  5
3FD
100
AcDbEntity
  8
0
100
AcDbLine
 62
7
  6
CONTINUOUS
 10
191.7883466583
 20
374.4072265885
 11
191.2258466583
 21
374.7902052662
  0
LINE
  5
3FE
100
AcDbEntity
  8
0
100
AcDbLine
 62
7
  6
CONTINUOUS
 10
199.8508470159
 20
374.0242478437
 11
200.4133470159
 21
373.6412691324
  0
LINE
  5
3FF
100
AcDbEntity
  8
0
100
AcDbLine
 62
7
  6
CONTINUOUS
 10
194.4133463007
 20
377.8540350906
 11
194.9758463007
 21
377.4710564128
  0
LINE
  5
400
100
AcDbEntity
  8
0
100
AcDbLine
 62
7
  6
CONTINUOUS
 10
201.1633463007
 20
374.2157372496
 11
200.6008463007
 21
374.5987159274
  0
LINE
  5
401
100
AcDbEntity
  8
B-ACHSEN
100
AcDbLine
 62
7
  6
CONTINUOUS
 10
212.3195963007
 20
157.2582904211
 11
208.3195963007
 21
153.2582904211
  0
LINE
  5
402
100
AcDbEntity
  8
0
100
AcDbLine
 62
7
  6
CONTINUOUS
 10
194.4133463007
 20
374.4072265885
 11
193.6633470159
 21
374.2157372496
  0
LINE
  5
403
100
AcDbEntity
  8
0
100
AcDbLine
 62
7
  6
CONTINUOUS
 10
191.7883466583
 20
377.8540350906
 11
192.5383470159
 21
378.0455244294
  0
LINE
  5
404
100
AcDbEntity
  8
0
100
AcDbLine
 62
7
  6
CONTINUOUS
 10
193.6633470159
 20
373.2582904211
 11
194.6008455854
 21
373.4497797768
  0
LINE
  5
405
100
AcDbEntity
  8
0
100
AcDbLine
 62
7
  6
CONTINUOUS
 10
186.1633466583
 20
372.1093542538
 11
187.1008463007
 21
372.1093542538
  0
LINE
  5
406
100
AcDbEntity
  8
0
100
AcDbLine
 62
7
  6
CONTINUOUS
 10
174.1633463007
 20
373.2582904211
 11
180.9133463007
 21
373.2582904211
  0
LINE
  5
407
100
AcDbEntity
  8
0
100
AcDbLine
 62
7
  6
CONTINUOUS
 10
183.538345943
 20
373.2582904211
 11
184.663345943
 21
373.2582904211
  0
LINE
  5
408
100
AcDbEntity
  8
0
100
AcDbLine
 62
7
  6
CONTINUOUS
 10
192.5383470159
 20
373.2582904211
 11
193.6633470159
 21
373.2582904211
  0
LINE
  5
409
100
AcDbEntity
  8
0
100
AcDbLine
 62
7
  6
CONTINUOUS
 10
193.6633470159
 20
374.2157372496
 11
192.5383470159
 21
374.2157372496
  0
LINE
  5
40A
100
AcDbEntity
  8
0
100
AcDbLine
 62
7
  6
CONTINUOUS
 10
188.2258463007
 20
374.2157372496
 11
187.2883466583
 21
374.2157372496
  0
LINE
  5
40B
100
AcDbEntity
  8
0
100
AcDbLine
 62
7
  6
CONTINUOUS
 10
180.9133463007
 20
374.2157372496
 11
175.6633463454
 21
374.2157372496
  0
LINE
  5
40C
100
AcDbEntity
  8
0
100
AcDbLine
 62
7
  6
CONTINUOUS
 10
200.9758470159
 20
373.4497797768
 11
202.1008470159
 21
373.2582904211
  0
LINE
  5
40D
100
AcDbEntity
  8
0
100
AcDbLine
 62
7
  6
CONTINUOUS
 10
191.6008463007
 20
373.4497797768
 11
192.5383470159
 21
373.2582904211
  0
LINE
  5
40E
100
AcDbEntity
  8
0
100
AcDbLine
 62
7
  6
CONTINUOUS
 10
192.5383470159
 20
374.2157372496
 11
191.7883466583
 21
374.4072265885
  0
LINE
  5
40F
100
AcDbEntity
  8
0
100
AcDbLine
 62
7
  6
CONTINUOUS
 10
200.4133470159
 20
373.6412691324
 11
200.9758470159
 21
373.4497797768
  0
LINE
  5
410
100
AcDbEntity
  8
0
100
AcDbLine
 62
7
  6
CONTINUOUS
 10
179.9758461219
 20
381.6838224045
 11
179.2258463007
 21
382.0668010823
  0
LINE
  5
411
100
AcDbEntity
  8
0
100
AcDbLine
 62
7
  6
CONTINUOUS
 10
195.5383463007
 20
378.2370137683
 11
194.6008455854
 21
378.8114817849
  0
LINE
  5
412
100
AcDbEntity
  8
RUNDUNGEN
100
AcDbLine
 62
7
  6
CONTINUOUS
 10
252.6648058864
 20
365.1915390054
 11
275.4906300468
 21
310.0851247448
  0
LINE
  5
413
100
AcDbEntity
  8
0
100
AcDbLine
 62
7
  6
CONTINUOUS
 10
192.5383470159
 20
379.0029711238
 11
191.6008463007
 21
378.8114817849
  0
LINE
  5
414
100
AcDbEntity
  8
0
100
AcDbLine
 62
7
  6
CONTINUOUS
 10
176.2258463454
 20
381.1093543879
 11
177.1633463901
 21
381.3008437268
  0
LINE
  5
415
100
AcDbEntity
  8
0
100
AcDbLine
 62
7
  6
CONTINUOUS
 10
177.3508462113
 20
382.2582904211
 11
176.038346256
 21
382.0668010823
  0
LINE
  5
416
100
AcDbEntity
  8
0
100
AcDbLine
 62
7
  6
CONTINUOUS
 10
190.850845943
 20
375.5561627559
 11
189.725845943
 21
375.5561627559
  0
LINE
  5
417
100
AcDbEntity
  8
0
100
AcDbLine
 62
7
  6
CONTINUOUS
 10
189.725845943
 20
377.2795670739
 11
191.0383463007
 21
377.2795670739
  0
LINE
  5
418
100
AcDbEntity
  8
0
100
AcDbLine
 62
7
  6
CONTINUOUS
 10
192.5383470159
 20
378.0455244294
 11
193.6633470159
 21
378.0455244294
  0
LINE
  5
419
100
AcDbEntity
  8
0
100
AcDbLine
 62
7
  6
CONTINUOUS
 10
197.9758455854
 20
378.6199924461
 11
199.4758463007
 21
378.6199924461
  0
LINE
  5
41A
100
AcDbEntity
  8
0
100
AcDbLine
 62
7
  6
CONTINUOUS
 10
200.4133470159
 20
378.6199924461
 11
202.4758455854
 21
378.6199924461
  0
LINE
  5
41B
100
AcDbEntity
  8
0
100
AcDbLine
 62
7
  6
CONTINUOUS
 10
193.6633470159
 20
379.0029711238
 11
192.5383470159
 21
379.0029711238
  0
LINE
  5
41C
100
AcDbEntity
  8
0
100
AcDbLine
 62
7
  6
CONTINUOUS
 10
202.4758455854
 20
379.3859498016
 11
200.4133470159
 21
379.3859498016
  0
LINE
  5
41D
100
AcDbEntity
  8
0
100
AcDbLine
 62
7
  6
CONTINUOUS
 10
199.4758463007
 20
379.3859498016
 11
197.9758455854
 21
379.3859498016
  0
LINE
  5
41E
100
AcDbEntity
  8
0
100
AcDbLine
 62
7
  6
CONTINUOUS
 10
174.3508463063
 20
380.1519076935
 11
175.2883463007
 21
380.1519076935
  0
LINE
  5
41F
100
AcDbEntity
  8
0
100
AcDbLine
 62
7
  6
CONTINUOUS
 10
200.4133470159
 20
380.917865049
 11
199.4758463007
 21
380.917865049
  0
LINE
  5
420
100
AcDbEntity
  8
0
100
AcDbLine
 62
7
  6
CONTINUOUS
 10
177.1633463901
 20
381.3008437268
 11
177.9133462113
 21
381.3008437268
  0
LINE
  5
421
100
AcDbEntity
  8
0
100
AcDbLine
 62
7
  6
CONTINUOUS
 10
190.6633466583
 20
381.3008437268
 11
196.1008463007
 21
381.3008437268
  0
LINE
  5
422
100
AcDbEntity
  8
0
100
AcDbLine
 62
7
  6
CONTINUOUS
 10
196.1008463007
 20
382.2582904211
 11
189.725845943
 21
382.2582904211
  0
LINE
  5
423
100
AcDbEntity
  8
0
100
AcDbLine
 62
7
  6
CONTINUOUS
 10
184.663345943
 20
382.2582904211
 11
183.538345943
 21
382.2582904211
  0
LINE
  5
424
100
AcDbEntity
  8
0
100
AcDbLine
 62
7
  6
CONTINUOUS
 10
178.1008463007
 20
382.2582904211
 11
177.3508462113
 21
382.2582904211
  0
LINE
  5
425
100
AcDbEntity
  8
0
100
AcDbLine
 62
7
  6
CONTINUOUS
 10
179.2258463007
 20
382.0668010823
 11
178.1008463007
 21
382.2582904211
  0
LINE
  5
426
100
AcDbEntity
  8
0
100
AcDbLine
 62
7
  6
CONTINUOUS
 10
202.1008470159
 20
374.0242478437
 11
201.1633463007
 21
374.2157372496
  0
LINE
  5
427
100
AcDbEntity
  8
0
100
AcDbLine
 62
7
  6
CONTINUOUS
 10
177.9133462113
 20
381.3008437268
 11
178.8508461219
 21
381.1093543879
  0
LINE
  5
428
100
AcDbEntity
  8
0
100
AcDbLine
 62
7
  6
CONTINUOUS
 10
194.6008455854
 20
378.8114817849
 11
193.6633470159
 21
379.0029711238
  0
LINE
  5
429
100
AcDbEntity
  8
0
100
AcDbLine
 62
7
  6
CONTINUOUS
 10
193.6633470159
 20
378.0455244294
 11
194.4133463007
 21
377.8540350906
  0
LINE
  5
42A
100
AcDbEntity
  8
RUNDUNGEN
100
AcDbLine
 62
7
  6
CONTINUOUS
 10
192.1464306243
 20
393.4293241673
 11
247.2528448849
 21
370.6035000068
  0
LINE
  5
42B
100
AcDbEntity
  8
B-ACHSEN
100
AcDbLine
 62
7
  6
CONTINUOUS
 10
381.3183895266
 20
153.2582904211
 11
421.3179208388
 21
153.2582904211
  0
LINE
  5
42C
100
AcDbEntity
  8
B-ACHSEN
100
AcDbLine
 62
7
  6
CONTINUOUS
 10
377.3181551827
 20
157.2582904211
 11
425.3181551827
 21
157.2582904211
  0
LINE
  5
42D
100
AcDbEntity
  8
B-ACHSEN
100
AcDbLine
 62
7
  6
CONTINUOUS
 10
377.3181551827
 20
157.2582904211
 11
381.3181551827
 21
153.2582904211
  0
LINE
  5
42E
100
AcDbEntity
  8
B-ACHSEN
100
AcDbLine
 62
7
  6
CONTINUOUS
 10
377.3181551827
 20
205.2582904211
 11
425.3181551827
 21
205.2582904211
  0
LINE
  5
42F
100
AcDbEntity
  8
B-ACHSEN
100
AcDbLine
 62
7
  6
CONTINUOUS
 10
351.3190291132
 20
220.2582904211
 11
451.3172812522
 21
220.2582904211
  0
LINE
  5
430
100
AcDbEntity
  8
B-ACHSEN
100
AcDbLine
 62
7
  6
CONTINUOUS
 10
351.3181551827
 20
220.2582904211
 11
351.3181551827
 21
243.3814070152
  0
LINE
  5
431
100
AcDbEntity
  8
0
100
AcDbLine
 62
7
  6
CONTINUOUS
 10
451.1578983602
 20
225.2582904211
 11
433.1816656173
 21
225.2582904211
  0
LINE
  5
432
100
AcDbEntity
  8
0
100
AcDbLine
 62
7
  6
CONTINUOUS
 10
434.6143112604
 20
228.5082904211
 11
435.3133038353
 21
228.5082904211
  0
LINE
  5
433
100
AcDbEntity
  8
0
100
AcDbLine
 62
7
  6
CONTINUOUS
 10
435.6243863174
 20
228.5082904211
 11
436.3233788923
 21
228.5082904211
  0
LINE
  5
434
100
AcDbEntity
  8
0
100
AcDbLine
 62
7
  6
CONTINUOUS
 10
437.8609811972
 20
228.5082904211
 11
438.6321221305
 21
228.5082904211
  0
LINE
  5
435
100
AcDbEntity
  8
0
100
AcDbLine
 62
7
  6
CONTINUOUS
 10
439.9532794633
 20
228.5082904211
 11
440.796568755
 21
228.5082904211
  0
LINE
  5
436
100
AcDbEntity
  8
0
100
AcDbLine
 62
7
  6
CONTINUOUS
 10
443.7771350291
 20
228.5082904211
 11
446.6405742285
 21
228.5082904211
  0
LINE
  5
437
100
AcDbEntity
  8
0
100
AcDbLine
 62
7
  6
CONTINUOUS
 10
448.1060282781
 20
228.5082904211
 11
448.8050216787
 21
228.5082904211
  0
LINE
  5
438
100
AcDbEntity
  8
0
100
AcDbLine
 62
7
  6
CONTINUOUS
 10
439.5925384968
 20
228.6678648842
 11
439.8586417468
 21
228.6678648842
  0
LINE
  5
439
100
AcDbEntity
  8
0
100
AcDbLine
 62
7
  6
CONTINUOUS
 10
439.2317975304
 20
229.1465882733
 11
439.4979007803
 21
229.1465882733
  0
LINE
  5
43A
100
AcDbEntity
  8
0
100
AcDbLine
 62
7
  6
CONTINUOUS
 10
446.6405742285
 20
229.4657372273
 11
444.4761276039
 21
229.4657372273
  0
LINE
  5
43B
100
AcDbEntity
  8
0
100
AcDbLine
 62
7
  6
CONTINUOUS
 10
440.796568755
 20
229.4657372273
 11
440.2193827133
 21
229.4657372273
  0
LINE
  5
43C
100
AcDbEntity
  8
0
100
AcDbLine
 62
7
  6
CONTINUOUS
 10
440.8190581131
 20
229.6253116763
 11
441.0851613631
 21
229.6253116763
  0
LINE
  5
43D
100
AcDbEntity
  8
0
100
AcDbLine
 62
7
  6
CONTINUOUS
 10
439.0153528679
 20
229.9444606862
 11
439.2814561179
 21
229.9444606862
  0
LINE
  5
43E
100
AcDbEntity
  8
0
100
AcDbLine
 62
7
  6
CONTINUOUS
 10
441.0355027756
 20
229.9444606862
 11
441.3016060255
 21
229.9444606862
  0
LINE
  5
43F
100
AcDbEntity
  8
0
100
AcDbLine
 62
7
  6
CONTINUOUS
 10
441.1797994924
 20
230.4231840334
 11
441.4459027424
 21
230.4231840334
  0
LINE
  5
440
100
AcDbEntity
  8
0
100
AcDbLine
 62
7
  6
CONTINUOUS
 10
438.9432045095
 20
230.5827584825
 11
439.6421970843
 21
230.5827584825
  0
LINE
  5
441
100
AcDbEntity
  8
0
100
AcDbLine
 62
7
  6
CONTINUOUS
 10
441.1797994924
 20
230.9019073806
 11
441.4459027424
 21
230.9019073806
  0
LINE
  5
442
100
AcDbEntity
  8
0
100
AcDbLine
 62
7
  6
CONTINUOUS
 10
442.1898744463
 20
231.2210562787
 11
443.4660530629
 21
231.2210562787
  0
LINE
  5
443
100
AcDbEntity
  8
0
100
AcDbLine
 62
7
  6
CONTINUOUS
 10
441.0355027756
 20
231.3806309513
 11
441.3016060255
 21
231.3806309513
  0
LINE
  5
444
100
AcDbEntity
  8
0
100
AcDbLine
 62
7
  6
CONTINUOUS
 10
440.8190581131
 20
231.6997798494
 11
441.0851613631
 21
231.6997798494
  0
LINE
  5
445
100
AcDbEntity
  8
0
100
AcDbLine
 62
7
  6
CONTINUOUS
 10
436.3233788923
 20
231.8593542985
 11
437.5498986118
 21
231.8593542985
  0
LINE
  5
446
100
AcDbEntity
  8
0
100
AcDbLine
 62
7
  6
CONTINUOUS
 10
440.0975761802
 20
231.8593542985
 11
440.796568755
 21
231.8593542985
  0
LINE
  5
447
100
AcDbEntity
  8
0
100
AcDbLine
 62
7
  6
CONTINUOUS
 10
439.8089831593
 20
232.0189287475
 11
440.0750864092
 21
232.0189287475
  0
LINE
  5
448
100
AcDbEntity
  8
0
100
AcDbLine
 62
7
  6
CONTINUOUS
 10
442.1898744463
 20
232.0189287475
 11
443.4660530629
 21
232.0189287475
  0
LINE
  5
449
100
AcDbEntity
  8
0
100
AcDbLine
 62
7
  6
CONTINUOUS
 10
439.5203901384
 20
232.3380776457
 11
439.7864933884
 21
232.3380776457
  0
LINE
  5
44A
100
AcDbEntity
  8
0
100
AcDbLine
 62
7
  6
CONTINUOUS
 10
440.796568755
 20
232.8168009929
 11
440.3636794301
 21
232.8168009929
  0
LINE
  5
44B
100
AcDbEntity
  8
0
100
AcDbLine
 62
7
  6
CONTINUOUS
 10
437.6941951223
 20
232.8168009929
 11
436.3233788923
 21
232.8168009929
  0
LINE
  5
44C
100
AcDbEntity
  8
0
100
AcDbLine
 62
7
  6
CONTINUOUS
 10
437.6445365348
 20
232.9763754419
 11
437.9106397847
 21
232.9763754419
  0
LINE
  5
44D
100
AcDbEntity
  8
0
100
AcDbLine
 62
7
  6
CONTINUOUS
 10
439.2317975304
 20
232.9763754419
 11
439.4979007803
 21
232.9763754419
  0
LINE
  5
44E
100
AcDbEntity
  8
0
100
AcDbLine
 62
7
  6
CONTINUOUS
 10
437.7888330452
 20
233.29552434
 11
438.0549362951
 21
233.29552434
  0
LINE
  5
44F
100
AcDbEntity
  8
0
100
AcDbLine
 62
7
  6
CONTINUOUS
 10
439.1596491719
 20
233.6146732382
 11
439.4257524219
 21
233.6146732382
  0
LINE
  5
450
100
AcDbEntity
  8
0
100
AcDbLine
 62
7
  6
CONTINUOUS
 10
437.8609811972
 20
233.7742476872
 11
438.1270844472
 21
233.7742476872
  0
LINE
  5
451
100
AcDbEntity
  8
0
100
AcDbLine
 62
7
  6
CONTINUOUS
 10
437.8609811972
 20
234.2529714814
 11
438.1270844472
 21
234.2529714814
  0
LINE
  5
452
100
AcDbEntity
  8
0
100
AcDbLine
 62
7
  6
CONTINUOUS
 10
439.1596491719
 20
234.2529714814
 11
439.4257524219
 21
234.2529714814
  0
LINE
  5
453
100
AcDbEntity
  8
0
100
AcDbLine
 62
7
  6
CONTINUOUS
 10
440.96335483
 20
234.2529714814
 11
441.6623474049
 21
234.2529714814
  0
LINE
  5
454
100
AcDbEntity
  8
0
100
AcDbLine
 62
7
  6
CONTINUOUS
 10
440.8912064716
 20
234.5721203796
 11
441.1573097215
 21
234.5721203796
  0
LINE
  5
455
100
AcDbEntity
  8
0
100
AcDbLine
 62
7
  6
CONTINUOUS
 10
437.7888330452
 20
234.7316948286
 11
438.0549362951
 21
234.7316948286
  0
LINE
  5
456
100
AcDbEntity
  8
0
100
AcDbLine
 62
7
  6
CONTINUOUS
 10
439.2317975304
 20
234.8912692777
 11
439.4979007803
 21
234.8912692777
  0
LINE
  5
457
100
AcDbEntity
  8
0
100
AcDbLine
 62
7
  6
CONTINUOUS
 10
440.7469101675
 20
234.8912692777
 11
441.0130134175
 21
234.8912692777
  0
LINE
  5
458
100
AcDbEntity
  8
0
100
AcDbLine
 62
7
  6
CONTINUOUS
 10
437.6445365348
 20
235.0508437268
 11
437.9106397847
 21
235.0508437268
  0
LINE
  5
459
100
AcDbEntity
  8
0
100
AcDbLine
 62
7
  6
CONTINUOUS
 10
440.3636794301
 20
235.0508437268
 11
440.796568755
 21
235.0508437268
  0
LINE
  5
45A
100
AcDbEntity
  8
0
100
AcDbLine
 62
7
  6
CONTINUOUS
 10
436.3233788923
 20
235.2104181758
 11
437.6941951223
 21
235.2104181758
  0
LINE
  5
45B
100
AcDbEntity
  8
0
100
AcDbLine
 62
7
  6
CONTINUOUS
 10
446.9516570203
 20
235.2104181758
 11
448.3721315281
 21
235.2104181758
  0
LINE
  5
45C
100
AcDbEntity
  8
0
100
AcDbLine
 62
7
  6
CONTINUOUS
 10
448.8050216787
 20
235.2104181758
 11
449.9593921109
 21
235.2104181758
  0
LINE
  5
45D
100
AcDbEntity
  8
0
100
AcDbLine
 62
7
  6
CONTINUOUS
 10
439.5203901384
 20
235.5295670739
 11
439.7864933884
 21
235.5295670739
  0
LINE
  5
45E
100
AcDbEntity
  8
0
100
AcDbLine
 62
7
  6
CONTINUOUS
 10
439.8089831593
 20
235.8487159721
 11
440.0750864092
 21
235.8487159721
  0
LINE
  5
45F
100
AcDbEntity
  8
0
100
AcDbLine
 62
7
  6
CONTINUOUS
 10
434.6143112604
 20
236.0082904211
 11
435.3133038353
 21
236.0082904211
  0
LINE
  5
460
100
AcDbEntity
  8
0
100
AcDbLine
 62
7
  6
CONTINUOUS
 10
435.6243863174
 20
236.0082904211
 11
437.6220469702
 21
236.0082904211
  0
LINE
  5
461
100
AcDbEntity
  8
0
100
AcDbLine
 62
7
  6
CONTINUOUS
 10
440.0975761802
 20
236.0082904211
 11
440.7244203966
 21
236.0082904211
  0
LINE
  5
462
100
AcDbEntity
  8
0
100
AcDbLine
 62
7
  6
CONTINUOUS
 10
443.7771350291
 20
236.0082904211
 11
444.4761276039
 21
236.0082904211
  0
LINE
  5
463
100
AcDbEntity
  8
0
100
AcDbLine
 62
7
  6
CONTINUOUS
 10
446.9516570203
 20
236.0082904211
 11
449.9593921109
 21
236.0082904211
  0
LINE
  5
464
100
AcDbEntity
  8
0
100
AcDbLine
 62
7
  6
CONTINUOUS
 10
433.1816656173
 20
240.2582904211
 11
451.1578983602
 21
240.2582904211
  0
LINE
  5
465
100
AcDbEntity
  8
RUNDUNGEN
100
AcDbLine
 62
7
  6
CONTINUOUS
 10
421.1839787579
 20
243.4982075133
 11
416.5991291054
 21
243.4982075133
  0
LINE
  5
466
100
AcDbEntity
  8
RUNDUNGEN
100
AcDbLine
 62
7
  6
CONTINUOUS
 10
386.03718126
 20
243.4982075133
 11
381.4523316075
 21
243.4982075133
  0
LINE
  5
467
100
AcDbEntity
  8
0
100
AcDbLine
 62
7
  6
CONTINUOUS
 10
439.5925384968
 20
228.6678648842
 11
439.9532794633
 21
228.5082904211
  0
LINE
  5
468
100
AcDbEntity
  8
0
100
AcDbLine
 62
7
  6
CONTINUOUS
 10
439.8586417468
 20
228.6678648842
 11
440.2193827133
 21
228.5082904211
  0
LINE
  5
469
100
AcDbEntity
  8
B-ACHSEN
100
AcDbLine
 62
7
  6
CONTINUOUS
 10
422.4039416203
 20
208.1725039835
 11
425.3181551827
 21
205.2582904211
  0
LINE
  5
46A
100
AcDbEntity
  8
B-ACHSEN
100
AcDbLine
 62
7
  6
CONTINUOUS
 10
377.3181551827
 20
205.2582904211
 11
377.3181551827
 21
157.2582904211
  0
LINE
  5
46B
100
AcDbEntity
  8
B-ACHSEN
100
AcDbLine
 62
7
  6
CONTINUOUS
 10
380.8181551827
 20
220.2582904211
 11
380.8181551827
 21
209.5867175459
  0
LINE
  5
46C
100
AcDbEntity
  8
RUNDUNGEN
100
AcDbLine
 62
7
  6
CONTINUOUS
 10
382.1633204702
 20
390.3224560508
 11
377.2678966686
 21
241.9752112635
  0
LWPOLYLINE
  5
46D
100
AcDbEntity
  8
RUNDUNGEN
100
AcDbPolyline
 62
7
  6
CONTINUOUS
 90
6
 70
0
 10
377.7806783013
 20
257.8857781779
 10
377.7412038153
 20
257.6951639691
 10
377.7061957741
 20
257.5817211313
 10
377.6838788403
 20
257.5228783535
 10
377.6742206637
 20
257.4994879237
 10
377.682138504
 20
257.5179625055
  0
LINE
  5
46E
100
AcDbEntity
  8
0
100
AcDbLine
 62
7
  6
CONTINUOUS
 10
441.1573097215
 20
232.6572265438
 11
440.796568755
 21
232.8168009929
  0
LINE
  5
46F
100
AcDbEntity
  8
0
100
AcDbLine
 62
7
  6
CONTINUOUS
 10
437.9827879367
 20
235.8487159721
 11
437.6220469702
 21
236.0082904211
  0
LINE
  5
470
100
AcDbEntity
  8
0
100
AcDbLine
 62
7
  6
CONTINUOUS
 10
441.0851613631
 20
235.8487159721
 11
440.7244203966
 21
236.0082904211
  0
LINE
  5
471
100
AcDbEntity
  8
0
100
AcDbLine
 62
7
  6
CONTINUOUS
 10
440.2193827133
 20
229.4657372273
 11
439.9307901052
 21
229.6253116763
  0
LINE
  5
472
100
AcDbEntity
  8
0
100
AcDbLine
 62
7
  6
CONTINUOUS
 10
439.8089831593
 20
232.0189287475
 11
440.0975761802
 21
231.8593542985
  0
LINE
  5
473
100
AcDbEntity
  8
0
100
AcDbLine
 62
7
  6
CONTINUOUS
 10
440.0750864092
 20
232.0189287475
 11
440.3636794301
 21
231.8593542985
  0
LINE
  5
474
100
AcDbEntity
  8
0
100
AcDbLine
 62
7
  6
CONTINUOUS
 10
440.5304655051
 20
231.8593542985
 11
440.8190581131
 21
231.6997798494
  0
LINE
  5
475
100
AcDbEntity
  8
0
100
AcDbLine
 62
7
  6
CONTINUOUS
 10
440.796568755
 20
231.8593542985
 11
441.0851613631
 21
231.6997798494
  0
LINE
  5
476
100
AcDbEntity
  8
B-ACHSEN
100
AcDbLine
 62
7
  6
CONTINUOUS
 10
359.7538105323
 20
253.2582904211
 11
375.3928620753
 21
255.735272847
  0
LINE
  5
477
100
AcDbEntity
  8
B-ACHSEN
100
AcDbLine
 62
7
  6
CONTINUOUS
 10
442.8824998331
 20
253.2582904211
 11
427.243446951
 21
255.7352730591
  0
LINE
  5
478
100
AcDbEntity
  8
0
100
AcDbLine
 62
7
  6
CONTINUOUS
 10
440.3636794301
 20
232.8168009929
 11
440.1472347677
 21
232.9763754419
  0
LINE
  5
479
100
AcDbEntity
  8
0
100
AcDbLine
 62
7
  6
CONTINUOUS
 10
437.4280918723
 20
235.2104181758
 11
437.6445365348
 21
235.0508437268
  0
LINE
  5
47A
100
AcDbEntity
  8
0
100
AcDbLine
 62
7
  6
CONTINUOUS
 10
437.6941951223
 20
235.2104181758
 11
437.9106397847
 21
235.0508437268
  0
LINE
  5
47B
100
AcDbEntity
  8
0
100
AcDbLine
 62
7
  6
CONTINUOUS
 10
440.5304655051
 20
235.0508437268
 11
440.7469101675
 21
234.8912692777
  0
LINE
  5
47C
100
AcDbEntity
  8
0
100
AcDbLine
 62
7
  6
CONTINUOUS
 10
440.796568755
 20
235.0508437268
 11
441.0130134175
 21
234.8912692777
  0
LINE
  5
47D
100
AcDbEntity
  8
B-ACHSEN
100
AcDbLine
 62
2
  6
CENTER
 10
401.3181551827
 20
399.532552676
 11
401.3181551827
 21
144.6078262125
  0
LINE
  5
47E
100
AcDbEntity
  8
0
100
AcDbLine
 62
7
  6
CONTINUOUS
 10
439.5203901384
 20
232.3380776457
 11
439.8089831593
 21
232.0189287475
  0
LINE
  5
47F
100
AcDbEntity
  8
0
100
AcDbLine
 62
7
  6
CONTINUOUS
 10
439.7864933884
 20
232.3380776457
 11
440.0750864092
 21
232.0189287475
  0
LINE
  5
480
100
AcDbEntity
  8
0
100
AcDbLine
 62
7
  6
CONTINUOUS
 10
441.4459027424
 20
232.3380776457
 11
441.1573097215
 21
232.6572265438
  0
LINE
  5
481
100
AcDbEntity
  8
0
100
AcDbLine
 62
7
  6
CONTINUOUS
 10
439.2317975304
 20
229.1465882733
 11
439.5925384968
 21
228.6678648842
  0
LINE
  5
482
100
AcDbEntity
  8
0
100
AcDbLine
 62
7
  6
CONTINUOUS
 10
439.4979007803
 20
229.1465882733
 11
439.8586417468
 21
228.6678648842
  0
LINE
  5
483
100
AcDbEntity
  8
0
100
AcDbLine
 62
7
  6
CONTINUOUS
 10
440.8190581131
 20
231.6997798494
 11
441.0355027756
 21
231.3806309513
  0
LINE
  5
484
100
AcDbEntity
  8
0
100
AcDbLine
 62
7
  6
CONTINUOUS
 10
440.1472347677
 20
232.9763754419
 11
439.9307901052
 21
233.29552434
  0
LINE
  5
485
100
AcDbEntity
  8
0
100
AcDbLine
 62
7
  6
CONTINUOUS
 10
441.0851613631
 20
231.6997798494
 11
441.3016060255
 21
231.3806309513
  0
LINE
  5
486
100
AcDbEntity
  8
0
100
AcDbLine
 62
7
  6
CONTINUOUS
 10
438.2713809576
 20
235.3699926249
 11
437.9827879367
 21
235.8487159721
  0
LINE
  5
487
100
AcDbEntity
  8
0
100
AcDbLine
 62
7
  6
CONTINUOUS
 10
441.373754384
 20
235.3699926249
 11
441.0851613631
 21
235.8487159721
  0
LINE
  5
488
100
AcDbEntity
  8
0
100
AcDbLine
 62
7
  6
CONTINUOUS
 10
439.9307901052
 20
229.6253116763
 11
439.7143454428
 21
230.1040351353
  0
LINE
  5
489
100
AcDbEntity
  8
0
100
AcDbLine
 62
7
  6
CONTINUOUS
 10
437.6445365348
 20
235.0508437268
 11
437.7888330452
 21
234.7316948286
  0
LINE
  5
48A
100
AcDbEntity
  8
0
100
AcDbLine
 62
7
  6
CONTINUOUS
 10
437.9106397847
 20
235.0508437268
 11
438.0549362951
 21
234.7316948286
  0
LINE
  5
48B
100
AcDbEntity
  8
0
100
AcDbLine
 62
7
  6
CONTINUOUS
 10
439.2317975304
 20
232.9763754419
 11
439.5203901384
 21
232.3380776457
  0
LINE
  5
48C
100
AcDbEntity
  8
0
100
AcDbLine
 62
7
  6
CONTINUOUS
 10
439.4979007803
 20
232.9763754419
 11
439.7864933884
 21
232.3380776457
  0
LWPOLYLINE
  5
48D
100
AcDbEntity
  8
RUNDUNGEN
100
AcDbPolyline
 62
7
  6
CONTINUOUS
 90
7
 70
0
 10
424.9541718288
 20
257.5179625836
 10
424.9623426916
 20
257.4988977646
 10
424.9528291627
 20
257.5218777943
 10
424.9304970907
 20
257.5806604689
 10
424.8954643932
 20
257.6938158005
 10
424.8560135072
 20
257.8832429916
 10
424.8374090341
 20
258.0867854061
  0
LINE
  5
48E
100
AcDbEntity
  8
RUNDUNGEN
100
AcDbLine
 62
7
  6
CONTINUOUS
 10
425.3684136346
 20
241.9752131464
 11
420.4729898952
 21
390.3224560508
  0
LINE
  5
48F
100
AcDbEntity
  8
0
100
AcDbLine
 62
7
  6
CONTINUOUS
 10
421.0392687465
 20
382.2582904211
 11
421.3741812267
 21
372.1093542538
  0
LINE
  5
490
100
AcDbEntity
  8
0
100
AcDbLine
 62
7
  6
CONTINUOUS
 10
422.2271759684
 20
346.2608424848
 11
422.4689228456
 21
338.9351267497
  0
LINE
  5
491
100
AcDbEntity
  8
0
100
AcDbLine
 62
7
  6
CONTINUOUS
 10
422.4692493631
 20
338.9252322071
 11
423.0516555345
 21
321.276433173
  0
LINE
  5
492
100
AcDbEntity
  8
B-ACHSEN
100
AcDbLine
 62
7
  6
CONTINUOUS
 10
421.8181551827
 20
220.2582904211
 11
421.8181551827
 21
209.5867175459
  0
LINE
  5
493
100
AcDbEntity
  8
B-ACHSEN
100
AcDbLine
 62
7
  6
CONTINUOUS
 10
425.3181551827
 20
205.2582904211
 11
425.3181551827
 21
157.2582904211
  0
LINE
  5
494
100
AcDbEntity
  8
0
100
AcDbLine
 62
7
  6
CONTINUOUS
 10
441.7344953504
 20
231.6997798494
 11
441.4459027424
 21
232.3380776457
  0
LINE
  5
495
100
AcDbEntity
  8
0
100
AcDbLine
 62
7
  6
CONTINUOUS
 10
440.7469101675
 20
234.8912692777
 11
440.8912064716
 21
234.5721203796
  0
LINE
  5
496
100
AcDbEntity
  8
0
100
AcDbLine
 62
7
  6
CONTINUOUS
 10
441.0130134175
 20
234.8912692777
 11
441.1573097215
 21
234.5721203796
  0
LINE
  5
497
100
AcDbEntity
  8
0
100
AcDbLine
 62
7
  6
CONTINUOUS
 10
438.4878254136
 20
234.7316948286
 11
438.2713809576
 21
235.3699926249
  0
LINE
  5
498
100
AcDbEntity
  8
0
100
AcDbLine
 62
7
  6
CONTINUOUS
 10
441.5901990464
 20
234.7316948286
 11
441.373754384
 21
235.3699926249
  0
LINE
  5
499
100
AcDbEntity
  8
0
100
AcDbLine
 62
7
  6
CONTINUOUS
 10
441.0355027756
 20
231.3806309513
 11
441.1797994924
 21
230.9019073806
  0
LINE
  5
49A
100
AcDbEntity
  8
0
100
AcDbLine
 62
7
  6
CONTINUOUS
 10
441.3016060255
 20
231.3806309513
 11
441.4459027424
 21
230.9019073806
  0
LINE
  5
49B
100
AcDbEntity
  8
0
100
AcDbLine
 62
7
  6
CONTINUOUS
 10
439.0153528679
 20
229.9444606862
 11
439.2317975304
 21
229.1465882733
  0
LINE
  5
49C
100
AcDbEntity
  8
0
100
AcDbLine
 62
7
  6
CONTINUOUS
 10
439.2814561179
 20
229.9444606862
 11
439.4979007803
 21
229.1465882733
  0
LINE
  5
49D
100
AcDbEntity
  8
0
100
AcDbLine
 62
7
  6
CONTINUOUS
 10
433.1816656402
 20
225.2582904211
 11
433.1816656402
 21
240.2582904211
  0
LINE
  5
49E
100
AcDbEntity
  8
0
100
AcDbLine
 62
7
  6
CONTINUOUS
 10
434.6143112604
 20
236.0082904211
 11
434.6143112604
 21
228.5082904211
  0
LINE
  5
49F
100
AcDbEntity
  8
0
100
AcDbLine
 62
7
  6
CONTINUOUS
 10
434.8804145104
 20
236.0082904211
 11
434.8804145104
 21
228.5082904211
  0
LINE
  5
4A0
100
AcDbEntity
  8
0
100
AcDbLine
 62
7
  6
CONTINUOUS
 10
435.3133038353
 20
228.5082904211
 11
435.3133038353
 21
236.0082904211
  0
LINE
  5
4A1
100
AcDbEntity
  8
0
100
AcDbLine
 62
7
  6
CONTINUOUS
 10
435.6243863174
 20
236.0082904211
 11
435.6243863174
 21
228.5082904211
  0
LINE
  5
4A2
100
AcDbEntity
  8
0
100
AcDbLine
 62
7
  6
CONTINUOUS
 10
435.8904895674
 20
236.0082904211
 11
435.8904895674
 21
228.5082904211
  0
LINE
  5
4A3
100
AcDbEntity
  8
0
100
AcDbLine
 62
7
  6
CONTINUOUS
 10
436.3233788923
 20
228.5082904211
 11
436.3233788923
 21
231.8593542985
  0
LINE
  5
4A4
100
AcDbEntity
  8
0
100
AcDbLine
 62
7
  6
CONTINUOUS
 10
436.3233788923
 20
232.8168009929
 11
436.3233788923
 21
235.2104181758
  0
LINE
  5
4A5
100
AcDbEntity
  8
B-ACHSEN
100
AcDbLine
 62
7
  6
CONTINUOUS
 10
380.2323687451
 20
208.1725039835
 11
377.3181551827
 21
205.2582904211
  0
LINE
  5
4A6
100
AcDbEntity
  8
0
100
AcDbLine
 62
7
  6
CONTINUOUS
 10
440.8912064716
 20
234.5721203796
 11
440.96335483
 21
234.2529714814
  0
LINE
  5
4A7
100
AcDbEntity
  8
0
100
AcDbLine
 62
7
  6
CONTINUOUS
 10
441.8787916545
 20
231.0614818297
 11
441.7344953504
 21
231.6997798494
  0
LINE
  5
4A8
100
AcDbEntity
  8
0
100
AcDbLine
 62
7
  6
CONTINUOUS
 10
441.1573097215
 20
234.5721203796
 11
441.2294580799
 21
234.2529714814
  0
LINE
  5
4A9
100
AcDbEntity
  8
0
100
AcDbLine
 62
7
  6
CONTINUOUS
 10
438.6321221305
 20
228.5082904211
 11
437.9827879367
 21
232.1785031966
  0
LINE
  5
4AA
100
AcDbEntity
  8
0
100
AcDbLine
 62
7
  6
CONTINUOUS
 10
437.2837953619
 20
231.8593542985
 11
437.8609811972
 21
228.5082904211
  0
LINE
  5
4AB
100
AcDbEntity
  8
0
100
AcDbLine
 62
7
  6
CONTINUOUS
 10
437.5498986118
 20
231.8593542985
 11
438.1270844472
 21
228.5082904211
  0
LINE
  5
4AC
100
AcDbEntity
  8
0
100
AcDbLine
 62
7
  6
CONTINUOUS
 10
437.7888330452
 20
234.7316948286
 11
437.8609811972
 21
234.2529714814
  0
LINE
  5
4AD
100
AcDbEntity
  8
0
100
AcDbLine
 62
7
  6
CONTINUOUS
 10
438.0549362951
 20
234.7316948286
 11
438.1270844472
 21
234.2529714814
  0
LINE
  5
4AE
100
AcDbEntity
  8
0
100
AcDbLine
 62
7
  6
CONTINUOUS
 10
438.5599737721
 20
234.2529714814
 11
438.4878254136
 21
234.7316948286
  0
LINE
  5
4AF
100
AcDbEntity
  8
0
100
AcDbLine
 62
7
  6
CONTINUOUS
 10
439.7143454428
 20
230.1040351353
 11
439.6421970843
 21
230.5827584825
  0
LINE
  5
4B0
100
AcDbEntity
  8
0
100
AcDbLine
 62
7
  6
CONTINUOUS
 10
439.9307901052
 20
233.29552434
 11
439.8586417468
 21
233.7742476872
  0
LINE
  5
4B1
100
AcDbEntity
  8
0
100
AcDbLine
 62
7
  6
CONTINUOUS
 10
441.6623474049
 20
234.2529714814
 11
441.5901990464
 21
234.7316948286
  0
LINE
  5
4B2
100
AcDbEntity
  8
0
100
AcDbLine
 62
7
  6
CONTINUOUS
 10
438.9432045095
 20
230.5827584825
 11
439.0153528679
 21
229.9444606862
  0
LINE
  5
4B3
100
AcDbEntity
  8
0
100
AcDbLine
 62
7
  6
CONTINUOUS
 10
439.2093077594
 20
230.5827584825
 11
439.2814561179
 21
229.9444606862
  0
LINE
  5
4B4
100
AcDbEntity
  8
0
100
AcDbLine
 62
7
  6
CONTINUOUS
 10
439.1596491719
 20
233.6146732382
 11
439.2317975304
 21
232.9763754419
  0
LINE
  5
4B5
100
AcDbEntity
  8
0
100
AcDbLine
 62
7
  6
CONTINUOUS
 10
439.4257524219
 20
233.6146732382
 11
439.4979007803
 21
232.9763754419
  0
LINE
  5
4B6
100
AcDbEntity
  8
0
100
AcDbLine
 62
7
  6
CONTINUOUS
 10
437.8609811972
 20
234.2529714814
 11
437.8609811972
 21
233.7742476872
  0
LINE
  5
4B7
100
AcDbEntity
  8
0
100
AcDbLine
 62
7
  6
CONTINUOUS
 10
438.1270844472
 20
234.2529714814
 11
438.1270844472
 21
233.7742476872
  0
LINE
  5
4B8
100
AcDbEntity
  8
0
100
AcDbLine
 62
7
  6
CONTINUOUS
 10
438.5599737721
 20
233.6146732382
 11
438.5599737721
 21
234.2529714814
  0
LINE
  5
4B9
100
AcDbEntity
  8
0
100
AcDbLine
 62
7
  6
CONTINUOUS
 10
439.1596491719
 20
234.2529714814
 11
439.1596491719
 21
233.6146732382
  0
LINE
  5
4BA
100
AcDbEntity
  8
0
100
AcDbLine
 62
7
  6
CONTINUOUS
 10
439.4257524219
 20
234.2529714814
 11
439.4257524219
 21
233.6146732382
  0
LINE
  5
4BB
100
AcDbEntity
  8
0
100
AcDbLine
 62
7
  6
CONTINUOUS
 10
439.8586417468
 20
233.7742476872
 11
439.8586417468
 21
234.0933965854
  0
LINE
  5
4BC
100
AcDbEntity
  8
0
100
AcDbLine
 62
7
  6
CONTINUOUS
 10
441.1797994924
 20
230.9019073806
 11
441.1797994924
 21
230.4231840334
  0
LINE
  5
4BD
100
AcDbEntity
  8
0
100
AcDbLine
 62
7
  6
CONTINUOUS
 10
441.4459027424
 20
230.9019073806
 11
441.4459027424
 21
230.4231840334
  0
LINE
  5
4BE
100
AcDbEntity
  8
0
100
AcDbLine
 62
7
  6
CONTINUOUS
 10
441.8787916545
 20
230.2636095843
 11
441.8787916545
 21
231.0614818297
  0
LINE
  5
4BF
100
AcDbEntity
  8
0
100
AcDbLine
 62
7
  6
CONTINUOUS
 10
442.1898744463
 20
232.0189287475
 11
442.1898744463
 21
231.2210562787
  0
LINE
  5
4C0
100
AcDbEntity
  8
0
100
AcDbLine
 62
7
  6
CONTINUOUS
 10
442.4559776962
 20
232.0189287475
 11
442.4559776962
 21
231.2210562787
  0
LINE
  5
4C1
100
AcDbEntity
  8
0
100
AcDbLine
 62
7
  6
CONTINUOUS
 10
443.4660530629
 20
231.2210562787
 11
443.4660530629
 21
232.0189287475
  0
LINE
  5
4C2
100
AcDbEntity
  8
0
100
AcDbLine
 62
7
  6
CONTINUOUS
 10
443.7771350291
 20
236.0082904211
 11
443.7771350291
 21
228.5082904211
  0
LINE
  5
4C3
100
AcDbEntity
  8
0
100
AcDbLine
 62
7
  6
CONTINUOUS
 10
444.043238279
 20
236.0082904211
 11
444.043238279
 21
228.5082904211
  0
LINE
  5
4C4
100
AcDbEntity
  8
0
100
AcDbLine
 62
7
  6
CONTINUOUS
 10
444.4761276039
 20
229.4657372273
 11
444.4761276039
 21
236.0082904211
  0
LINE
  5
4C5
100
AcDbEntity
  8
0
100
AcDbLine
 62
7
  6
CONTINUOUS
 10
439.2317975304
 20
234.8912692777
 11
439.1596491719
 21
234.2529714814
  0
LINE
  5
4C6
100
AcDbEntity
  8
0
100
AcDbLine
 62
7
  6
CONTINUOUS
 10
439.4979007803
 20
234.8912692777
 11
439.4257524219
 21
234.2529714814
  0
LINE
  5
4C7
100
AcDbEntity
  8
0
100
AcDbLine
 62
7
  6
CONTINUOUS
 10
437.8609811972
 20
233.7742476872
 11
437.7888330452
 21
233.29552434
  0
LINE
  5
4C8
100
AcDbEntity
  8
0
100
AcDbLine
 62
7
  6
CONTINUOUS
 10
438.1270844472
 20
233.7742476872
 11
438.0549362951
 21
233.29552434
  0
LINE
  5
4C9
100
AcDbEntity
  8
0
100
AcDbLine
 62
7
  6
CONTINUOUS
 10
438.4878254136
 20
233.135949891
 11
438.5599737721
 21
233.6146732382
  0
LINE
  5
4CA
100
AcDbEntity
  8
0
100
AcDbLine
 62
7
  6
CONTINUOUS
 10
439.8586417468
 20
234.0933965854
 11
439.9307901052
 21
234.5721203796
  0
LINE
  5
4CB
100
AcDbEntity
  8
0
100
AcDbLine
 62
7
  6
CONTINUOUS
 10
446.6405742285
 20
228.5082904211
 11
446.6405742285
 21
229.4657372273
  0
LINE
  5
4CC
100
AcDbEntity
  8
0
100
AcDbLine
 62
7
  6
CONTINUOUS
 10
446.9516570203
 20
236.0082904211
 11
446.9516570203
 21
235.2104181758
  0
LINE
  5
4CD
100
AcDbEntity
  8
0
100
AcDbLine
 62
7
  6
CONTINUOUS
 10
447.2177602702
 20
236.0082904211
 11
447.2177602702
 21
235.2104181758
  0
LINE
  5
4CE
100
AcDbEntity
  8
0
100
AcDbLine
 62
7
  6
CONTINUOUS
 10
448.1060282781
 20
235.2104181758
 11
448.1060282781
 21
228.5082904211
  0
LINE
  5
4CF
100
AcDbEntity
  8
0
100
AcDbLine
 62
7
  6
CONTINUOUS
 10
448.3721315281
 20
235.2104181758
 11
448.3721315281
 21
228.5082904211
  0
LINE
  5
4D0
100
AcDbEntity
  8
0
100
AcDbLine
 62
7
  6
CONTINUOUS
 10
448.8050216787
 20
228.5082904211
 11
448.8050216787
 21
235.2104181758
  0
LINE
  5
4D1
100
AcDbEntity
  8
0
100
AcDbLine
 62
7
  6
CONTINUOUS
 10
449.9593921109
 20
235.2104181758
 11
449.9593921109
 21
236.0082904211
  0
LINE
  5
4D2
100
AcDbEntity
  8
0
100
AcDbLine
 62
7
  6
CONTINUOUS
 10
451.1578983602
 20
225.2582904211
 11
451.1578983602
 21
240.2582904211
  0
LINE
  5
4D3
100
AcDbEntity
  8
B-ACHSEN
100
AcDbLine
 62
7
  6
CONTINUOUS
 10
451.3181551827
 20
220.2582904211
 11
451.3181551827
 21
243.3814070152
  0
LINE
  5
4D4
100
AcDbEntity
  8
0
100
AcDbLine
 62
7
  6
CONTINUOUS
 10
441.7344953504
 20
229.6253116763
 11
441.8787916545
 21
230.2636095843
  0
LINE
  5
4D5
100
AcDbEntity
  8
0
100
AcDbLine
 62
7
  6
CONTINUOUS
 10
441.1797994924
 20
230.4231840334
 11
441.0355027756
 21
229.9444606862
  0
LINE
  5
4D6
100
AcDbEntity
  8
0
100
AcDbLine
 62
7
  6
CONTINUOUS
 10
441.4459027424
 20
230.4231840334
 11
441.3016060255
 21
229.9444606862
  0
LINE
  5
4D7
100
AcDbEntity
  8
0
100
AcDbLine
 62
7
  6
CONTINUOUS
 10
438.2713809576
 20
232.4976520947
 11
438.4878254136
 21
233.135949891
  0
LINE
  5
4D8
100
AcDbEntity
  8
0
100
AcDbLine
 62
7
  6
CONTINUOUS
 10
437.7888330452
 20
233.29552434
 11
437.6445365348
 21
232.9763754419
  0
LINE
  5
4D9
100
AcDbEntity
  8
0
100
AcDbLine
 62
7
  6
CONTINUOUS
 10
438.0549362951
 20
233.29552434
 11
437.9106397847
 21
232.9763754419
  0
LINE
  5
4DA
100
AcDbEntity
  8
0
100
AcDbLine
 62
7
  6
CONTINUOUS
 10
439.5203901384
 20
235.5295670739
 11
439.2317975304
 21
234.8912692777
  0
LINE
  5
4DB
100
AcDbEntity
  8
0
100
AcDbLine
 62
7
  6
CONTINUOUS
 10
439.7864933884
 20
235.5295670739
 11
439.4979007803
 21
234.8912692777
  0
LINE
  5
4DC
100
AcDbEntity
  8
0
100
AcDbLine
 62
7
  6
CONTINUOUS
 10
440.0975761802
 20
236.0082904211
 11
439.8089831593
 21
235.8487159721
  0
LINE
  5
4DD
100
AcDbEntity
  8
0
100
AcDbLine
 62
7
  6
CONTINUOUS
 10
440.3636794301
 20
236.0082904211
 11
440.0750864092
 21
235.8487159721
  0
LINE
  5
4DE
100
AcDbEntity
  8
0
100
AcDbLine
 62
7
  6
CONTINUOUS
 10
422.7514922313
 20
321.276433173
 11
423.0516555345
 21
321.276433173
  0
LINE
  5
4DF
100
AcDbEntity
  8
0
100
AcDbLine
 62
7
  6
CONTINUOUS
 10
422.6378360708
 20
324.7205840643
 11
422.937999374
 21
324.7205840643
  0
LINE
  5
4E0
100
AcDbEntity
  8
0
100
AcDbLine
 62
7
  6
CONTINUOUS
 10
441.4459027424
 20
228.9870138242
 11
441.7344953504
 21
229.6253116763
  0
LINE
  5
4E1
100
AcDbEntity
  8
0
100
AcDbLine
 62
7
  6
CONTINUOUS
 10
439.9307901052
 20
234.5721203796
 11
440.1472347677
 21
234.8912692777
  0
LINE
  5
4E2
100
AcDbEntity
  8
0
100
AcDbLine
 62
7
  6
CONTINUOUS
 10
441.0355027756
 20
229.9444606862
 11
440.8190581131
 21
229.6253116763
  0
LINE
  5
4E3
100
AcDbEntity
  8
0
100
AcDbLine
 62
7
  6
CONTINUOUS
 10
441.3016060255
 20
229.9444606862
 11
441.0851613631
 21
229.6253116763
  0
LINE
  5
4E4
100
AcDbEntity
  8
0
100
AcDbLine
 62
7
  6
CONTINUOUS
 10
439.8089831593
 20
235.8487159721
 11
439.5203901384
 21
235.5295670739
  0
LINE
  5
4E5
100
AcDbEntity
  8
0
100
AcDbLine
 62
7
  6
CONTINUOUS
 10
440.0750864092
 20
235.8487159721
 11
439.7864933884
 21
235.5295670739
  0
LINE
  5
4E6
100
AcDbEntity
  8
0
100
AcDbLine
 62
7
  6
CONTINUOUS
 10
437.9827879367
 20
232.1785031966
 11
438.2713809576
 21
232.4976520947
  0
LINE
  5
4E7
100
AcDbEntity
  8
0
100
AcDbLine
 62
7
  6
CONTINUOUS
 10
441.1573097215
 20
228.6678648842
 11
441.4459027424
 21
228.9870138242
  0
LINE
  5
4E8
100
AcDbEntity
  8
0
100
AcDbLine
 62
7
  6
CONTINUOUS
 10
440.1472347677
 20
234.8912692777
 11
440.3636794301
 21
235.0508437268
  0
LINE
  5
4E9
100
AcDbEntity
  8
0
100
AcDbLine
 62
7
  6
CONTINUOUS
 10
437.6445365348
 20
232.9763754419
 11
437.4280918723
 21
232.8168009929
  0
LINE
  5
4EA
100
AcDbEntity
  8
0
100
AcDbLine
 62
7
  6
CONTINUOUS
 10
437.9106397847
 20
232.9763754419
 11
437.6941951223
 21
232.8168009929
  0
LINE
  5
4EB
100
AcDbEntity
  8
0
100
AcDbLine
 62
7
  6
CONTINUOUS
 10
440.8190581131
 20
229.6253116763
 11
440.5304655051
 21
229.4657372273
  0
LINE
  5
4EC
100
AcDbEntity
  8
0
100
AcDbLine
 62
7
  6
CONTINUOUS
 10
441.0851613631
 20
229.6253116763
 11
440.796568755
 21
229.4657372273
  0
LINE
  5
4ED
100
AcDbEntity
  8
0
100
AcDbLine
 62
7
  6
CONTINUOUS
 10
440.796568755
 20
228.5082904211
 11
441.1573097215
 21
228.6678648842
  0
LINE
  5
4EE
100
AcDbEntity
  8
0
100
AcDbLine
 62
7
  6
CONTINUOUS
 10
422.5006409489
 20
328.8780419606
 11
422.8008042521
 21
328.8780419606
  0
LINE
  5
4EF
100
AcDbEntity
  8
0
100
AcDbLine
 62
7
  6
CONTINUOUS
 10
422.4744768423
 20
329.6708993901
 11
422.7746401455
 21
329.6708993901
  0
LINE
  5
4F0
100
AcDbEntity
  8
0
100
AcDbLine
 62
7
  6
CONTINUOUS
 10
422.4588656417
 20
330.1439694819
 11
422.7590289449
 21
330.1439694819
  0
LINE
  5
4F1
100
AcDbEntity
  8
0
100
AcDbLine
 62
7
  6
CONTINUOUS
 10
422.451389115
 20
330.3705325291
 11
422.7515524182
 21
330.3705325291
  0
LINE
  5
4F2
100
AcDbEntity
  8
0
100
AcDbLine
 62
7
  6
CONTINUOUS
 10
422.449843462
 20
330.4173708378
 11
422.7500067652
 21
330.4173708378
  0
LINE
  5
4F3
100
AcDbEntity
  8
0
100
AcDbLine
 62
7
  6
CONTINUOUS
 10
422.3748787592
 20
332.689044867
 11
422.6750420624
 21
332.689044867
  0
LINE
  5
4F4
100
AcDbEntity
  8
0
100
AcDbLine
 62
7
  6
CONTINUOUS
 10
422.3405799624
 20
333.7284098367
 11
422.6407432656
 21
333.7284098367
  0
LINE
  5
4F5
100
AcDbEntity
  8
0
100
AcDbLine
 62
7
  6
CONTINUOUS
 10
422.3344122684
 20
333.9153110012
 11
422.6345755716
 21
333.9153110012
  0
LINE
  5
4F6
100
AcDbEntity
  8
0
100
AcDbLine
 62
7
  6
CONTINUOUS
 10
422.3124264447
 20
334.5815528845
 11
422.6125897479
 21
334.5815528845
  0
LINE
  5
4F7
100
AcDbEntity
  8
0
100
AcDbLine
 62
7
  6
CONTINUOUS
 10
422.2937388811
 20
335.1478467711
 11
422.5939021843
 21
335.1478467711
  0
LINE
  5
4F8
100
AcDbEntity
  8
0
100
AcDbLine
 62
7
  6
CONTINUOUS
 10
422.2783495432
 20
335.6141937037
 11
422.5785128464
 21
335.6141937037
  0
LINE
  5
4F9
100
AcDbEntity
  8
0
100
AcDbLine
 62
7
  6
CONTINUOUS
 10
422.2033848404
 20
337.885867733
 11
422.5035481436
 21
337.885867733
  0
LINE
  5
4FA
100
AcDbEntity
  8
0
100
AcDbLine
 62
7
  6
CONTINUOUS
 10
422.1690860599
 20
338.9252322071
 11
422.4692493631
 21
338.9252322071
  0
LINE
  5
4FB
100
AcDbEntity
  8
0
100
AcDbLine
 62
7
  6
CONTINUOUS
 10
422.1233543635
 20
340.3110511754
 11
422.4235176667
 21
340.3110511754
  0
LINE
  5
4FC
100
AcDbEntity
  8
0
100
AcDbLine
 62
7
  6
CONTINUOUS
 10
421.9861592416
 20
344.4685090717
 11
422.2863225448
 21
344.4685090717
  0
LINE
  5
4FD
100
AcDbEntity
  8
0
100
AcDbLine
 62
7
  6
CONTINUOUS
 10
421.9599951186
 20
345.2613669968
 11
422.2601584218
 21
345.2613669968
  0
LINE
  5
4FE
100
AcDbEntity
  8
0
100
AcDbLine
 62
7
  6
CONTINUOUS
 10
421.9419657185
 20
345.8077163905
 11
422.2421290217
 21
345.8077163905
  0
LINE
  5
4FF
100
AcDbEntity
  8
0
100
AcDbLine
 62
7
  6
CONTINUOUS
 10
421.9287727502
 20
346.2075061892
 11
422.2289360534
 21
346.2075061892
  0
LINE
  5
500
100
AcDbEntity
  8
0
100
AcDbLine
 62
7
  6
CONTINUOUS
 10
421.9270126652
 20
346.2608424848
 11
422.2271759684
 21
346.2608424848
  0
LINE
  5
501
100
AcDbEntity
  8
B-ACHSEN
100
AcDbLine
 62
7
  6
CONTINUOUS
 10
425.3181551827
 20
157.2582904211
 11
421.3181551827
 21
153.2582904211
  0
LINE
  5
502
100
AcDbEntity
  8
0
100
AcDbLine
 62
7
  6
CONTINUOUS
 10
421.0740179235
 20
372.1093542538
 11
421.3741812267
 21
372.1093542538
  0
LINE
  5
503
100
AcDbEntity
  8
0
100
AcDbLine
 62
7
  6
CONTINUOUS
 10
421.0361033031
 20
373.2582904211
 11
421.3362666063
 21
373.2582904211
  0
LINE
  5
504
100
AcDbEntity
  8
0
100
AcDbLine
 62
7
  6
CONTINUOUS
 10
421.0045077855
 20
374.2157372496
 11
421.3046710887
 21
374.2157372496
  0
LINE
  5
505
100
AcDbEntity
  8
0
100
AcDbLine
 62
7
  6
CONTINUOUS
 10
420.846530206
 20
379.0029711238
 11
421.1466935092
 21
379.0029711238
  0
LINE
  5
506
100
AcDbEntity
  8
0
100
AcDbLine
 62
7
  6
CONTINUOUS
 10
420.8212537954
 20
379.7689284793
 11
421.1214170986
 21
379.7689284793
  0
LINE
  5
507
100
AcDbEntity
  8
0
100
AcDbLine
 62
7
  6
CONTINUOUS
 10
420.8086155724
 20
380.1519076935
 11
421.1087788756
 21
380.1519076935
  0
LINE
  5
508
100
AcDbEntity
  8
0
100
AcDbLine
 62
7
  6
CONTINUOUS
 10
420.7833391618
 20
380.917865049
 11
421.083502465
 21
380.917865049
  0
LINE
  5
509
100
AcDbEntity
  8
0
100
AcDbLine
 62
7
  6
CONTINUOUS
 10
420.7580627512
 20
381.6838224045
 11
421.0582260544
 21
381.6838224045
  0
LINE
  5
50A
100
AcDbEntity
  8
0
100
AcDbLine
 62
7
  6
CONTINUOUS
 10
420.745424546
 20
382.0668010823
 11
421.0455878492
 21
382.0668010823
  0
LINE
  5
50B
100
AcDbEntity
  8
0
100
AcDbLine
 62
7
  6
CONTINUOUS
 10
420.7391054433
 20
382.2582904211
 11
421.0392687465
 21
382.2582904211
  0
LINE
  5
50C
100
AcDbEntity
  8
RUNDUNGEN
100
AcDbLine
 62
7
  6
CONTINUOUS
 10
416.4751660941
 20
394.1905288422
 11
386.1611442712
 21
394.1905288422
  0
LWPOLYLINE
  5
50D
100
AcDbEntity
  8
RUNDUNGEN
100
AcDbPolyline
 62
7
  6
CONTINUOUS
 90
22
 70
0
 10
100.3873579355
 20
43.6324343988
 10
100.4162192468
 20
43.1523900443
 10
100.4930591042
 20
42.7181882418
 10
100.6104268551
 20
42.3141771302
 10
100.763808132
 20
41.9368315672
 10
100.94871718
 20
41.5870281024
 10
101.1631969528
 20
41.2625947957
 10
101.4018151199
 20
40.9674713711
 10
101.659880699
 20
40.7030411029
 10
101.9323994751
 20
40.4702095468
 10
102.2147181734
 20
40.2688862537
 10
102.501714256
 20
40.098700096
 10
102.7909178701
 20
39.9573769143
 10
103.0723128403
 20
39.8455217671
 10
103.3398807574
 20
39.7602716417
 10
103.5844160074
 20
39.6986647006
 10
103.7928049886
 20
39.6571883383
 10
103.9792555758
 20
39.6275482008
 10
104.1509922132
 20
39.605416552
 10
104.3192318037
 20
39.5875126441
 10
104.4969546762
 20
39.5716740631
 10
127.9145605838
 20
37.7059927539
  0
LINE
  5
50E
100
AcDbEntity
  8
RUNDUNGEN
100
AcDbLine
 62
7
  6
CONTINUOUS
 10
100.3873578796
 20
43.6324272353
 11
100.3873578796
 21
79.4859373804
  0
LINE
  5
50F
100
AcDbEntity
  8
0
100
AcDbLine
 62
7
  6
CONTINUOUS
 10
115.4981840724
 20
40.2395014196
 11
115.4981840724
 21
39.9393381164
  0
LINE
  5
510
100
AcDbEntity
  8
0
100
AcDbLine
 62
7
  6
CONTINUOUS
 10
117.2202595181
 20
40.3766965416
 11
117.2202595181
 21
40.0765332384
  0
LINE
  5
511
100
AcDbEntity
  8
0
100
AcDbLine
 62
7
  6
CONTINUOUS
 10
117.7559383852
 20
40.4028606482
 11
117.7559383852
 21
40.102697345
  0
LINE
  5
512
100
AcDbEntity
  8
0
100
AcDbLine
 62
7
  6
CONTINUOUS
 10
118.5736901337
 20
40.4184718488
 11
118.5736901337
 21
40.1183085456
  0
LINE
  5
513
100
AcDbEntity
  8
0
100
AcDbLine
 62
7
  6
CONTINUOUS
 10
118.7988286081
 20
40.5024587313
 11
118.7988286081
 21
40.2022954281
  0
LINE
  5
514
100
AcDbEntity
  8
0
100
AcDbLine
 62
7
  6
CONTINUOUS
 10
119.2293476748
 20
40.5367575281
 11
119.2293476748
 21
40.2365942249
  0
LINE
  5
515
100
AcDbEntity
  8
0
100
AcDbLine
 62
7
  6
CONTINUOUS
 10
119.466965047
 20
40.089948102
 11
119.466965047
 21
39.9252725723
  0
LINE
  5
516
100
AcDbEntity
  8
0
100
AcDbLine
 62
7
  6
CONTINUOUS
 10
119.4966018879
 20
40.1927576006
 11
119.4966018879
 21
40.1257850722
  0
LINE
  5
517
100
AcDbEntity
  8
0
100
AcDbLine
 62
7
  6
CONTINUOUS
 10
120.0990942057
 20
40.1845221638
 11
120.0990942057
 21
40.1242468825
  0
LINE
  5
518
100
AcDbEntity
  8
0
100
AcDbLine
 62
7
  6
CONTINUOUS
 10
120.8067470248
 20
40.1748492935
 11
120.8067470248
 21
40.1145740122
  0
LINE
  5
519
100
AcDbEntity
  8
0
100
AcDbLine
 62
7
  6
CONTINUOUS
 10
120.9514231205
 20
40.6739526501
 11
120.9514231205
 21
40.3737893469
  0
LINE
  5
51A
100
AcDbEntity
  8
0
100
AcDbLine
 62
7
  6
CONTINUOUS
 10
121.2657331923
 20
40.168575435
 11
121.2657331923
 21
40.1016029066
  0
LINE
  5
51B
100
AcDbEntity
  8
0
100
AcDbLine
 62
7
  6
CONTINUOUS
 10
121.3819419819
 20
40.7082514305
 11
121.3819419819
 21
40.4080881273
  0
LINE
  5
51C
100
AcDbEntity
  8
0
100
AcDbLine
 62
7
  6
CONTINUOUS
 10
121.7581260852
 20
40.1618449416
 11
121.7581260852
 21
40.0747806528
  0
LINE
  5
51D
100
AcDbEntity
  8
0
100
AcDbLine
 62
7
  6
CONTINUOUS
 10
121.8249397411
 20
40.1609316691
 11
121.8249397411
 21
40.0470783728
  0
LINE
  5
51E
100
AcDbEntity
  8
0
100
AcDbLine
 62
7
  6
CONTINUOUS
 10
121.9559669936
 20
40.753983127
 11
121.9559669936
 21
40.4538198238
  0
LINE
  5
51F
100
AcDbEntity
  8
0
100
AcDbLine
 62
7
  6
CONTINUOUS
 10
123.6780424392
 20
40.8911782489
 11
123.6780424392
 21
40.5910149457
  0
LINE
  5
520
100
AcDbEntity
  8
0
100
AcDbLine
 62
7
  6
CONTINUOUS
 10
124.2137215117
 20
40.9173423719
 11
124.2137215117
 21
40.6171790687
  0
LINE
  5
521
100
AcDbEntity
  8
0
100
AcDbLine
 62
7
  6
CONTINUOUS
 10
124.2436187264
 20
40.005004676
 11
124.2436187264
 21
39.8599807365
  0
LINE
  5
522
100
AcDbEntity
  8
0
100
AcDbLine
 62
7
  6
CONTINUOUS
 10
124.7136539255
 20
40.3223636056
 11
124.7136539255
 21
40.1616295221
  0
LINE
  5
523
100
AcDbEntity
  8
0
100
AcDbLine
 62
7
  6
CONTINUOUS
 10
124.854559974
 20
40.935371772
 11
124.854559974
 21
40.6352084688
  0
LINE
  5
524
100
AcDbEntity
  8
0
100
AcDbLine
 62
7
  6
CONTINUOUS
 10
125.4930591189
 20
40.3117099557
 11
125.4930591189
 21
40.1576731002
  0
LINE
  5
525
100
AcDbEntity
  8
0
100
AcDbLine
 62
7
  6
CONTINUOUS
 10
125.8492245981
 20
40.9485647403
 11
125.8492245981
 21
40.6484014371
  0
LINE
  5
526
100
AcDbEntity
  8
0
100
AcDbLine
 62
7
  6
CONTINUOUS
 10
126.1673049224
 20
40.2988246441
 11
126.1673049224
 21
40.1618514011
  0
LINE
  5
527
100
AcDbEntity
  8
0
100
AcDbLine
 62
7
  6
CONTINUOUS
 10
126.539719389
 20
40.1286730234
 11
126.539719389
 21
40.0429075712
  0
LINE
  5
528
100
AcDbEntity
  8
0
100
AcDbLine
 62
7
  6
CONTINUOUS
 10
126.7003834824
 20
40.9503248253
 11
126.7003834824
 21
40.6501615221
  0
LINE
  5
529
100
AcDbEntity
  8
0
100
AcDbLine
 62
7
  6
CONTINUOUS
 10
126.7363906388
 20
40.2915483667
 11
126.7363906388
 21
40.1741643579
  0
LINE
  5
52A
100
AcDbEntity
  8
0
100
AcDbLine
 62
7
  6
CONTINUOUS
 10
126.8662482326
 20
40.3867014396
 11
126.8662482326
 21
40.3331234246
  0
LINE
  5
52B
100
AcDbEntity
  8
0
100
AcDbLine
 62
7
  6
CONTINUOUS
 10
127.2003160202
 20
40.2834353062
 11
127.2003160202
 21
40.1946119739
  0
LINE
  5
52C
100
AcDbEntity
  8
0
100
AcDbLine
 62
7
  6
CONTINUOUS
 10
127.4873287314
 20
40.2647477426
 11
127.4873287314
 21
40.2174778384
  0
LINE
  5
52D
100
AcDbEntity
  8
0
100
AcDbLine
 62
7
  6
CONTINUOUS
 10
127.6567022523
 20
40.9439501807
 11
127.6567022523
 21
40.6437868775
  0
LINE
  5
52E
100
AcDbEntity
  8
0
100
AcDbLine
 62
7
  6
CONTINUOUS
 10
127.6790603566
 20
40.3755911521
 11
127.6790603566
 21
40.3153158708
  0
LINE
  5
52F
100
AcDbEntity
  8
0
100
AcDbLine
 62
7
  6
CONTINUOUS
 10
128.2432066537
 20
40.3678798651
 11
128.2432066537
 21
40.2942100896
  0
LINE
  5
530
100
AcDbEntity
  8
0
100
AcDbLine
 62
7
  6
CONTINUOUS
 10
128.6638463281
 20
40.3621301628
 11
128.6638463281
 21
40.2616713607
  0
LINE
  5
531
100
AcDbEntity
  8
0
100
AcDbLine
 62
7
  6
CONTINUOUS
 10
128.7306598252
 20
40.3612168925
 11
128.7306598252
 21
40.2339690637
  0
LINE
  5
532
100
AcDbEntity
  8
0
100
AcDbLine
 62
7
  6
CONTINUOUS
 10
129.6399230384
 20
40.5732148553
 11
129.6399230384
 21
40.3889717409
  0
LINE
  5
533
100
AcDbEntity
  8
0
100
AcDbLine
 62
7
  6
CONTINUOUS
 10
130.3103987133
 20
40.907676939
 11
130.3103987133
 21
40.6075136358
  0
LINE
  5
534
100
AcDbEntity
  8
0
100
AcDbLine
 62
7
  6
CONTINUOUS
 10
130.9314796226
 20
40.5391379538
 11
130.9314796226
 21
40.4918680823
  0
LINE
  5
535
100
AcDbEntity
  8
0
100
AcDbLine
 62
7
  6
CONTINUOUS
 10
131.1232112479
 20
40.8898694179
 11
131.1232112479
 21
40.5897061147
  0
LINE
  5
536
100
AcDbEntity
  8
0
100
AcDbLine
 62
7
  6
CONTINUOUS
 10
131.6873571344
 20
40.868763604
 11
131.6873571344
 21
40.5686003008
  0
LINE
  5
537
100
AcDbEntity
  8
0
100
AcDbLine
 62
7
  6
CONTINUOUS
 10
132.1079972193
 20
40.8362249078
 11
132.1079972193
 21
40.5360616046
  0
LINE
  5
538
100
AcDbEntity
  8
0
100
AcDbLine
 62
7
  6
CONTINUOUS
 10
132.174811127
 20
40.8085226435
 11
132.174811127
 21
40.5083593403
  0
LWPOLYLINE
  5
539
100
AcDbEntity
  8
RUNDUNGEN
100
AcDbPolyline
 62
7
  6
CONTINUOUS
 90
7
 70
0
 10
145.3249854023
 20
87.0829913571
 10
145.0718915918
 20
86.7209810068
 10
144.768378192
 20
86.4000520776
 10
144.4210229049
 20
86.1271652422
 10
144.0373527626
 20
85.9082388895
 10
143.6256824085
 20
85.7480228298
 10
143.1949370559
 20
85.6499958173
  0
LINE
  5
53A
100
AcDbEntity
  8
RUNDUNGEN
100
AcDbLine
 62
7
  6
CONTINUOUS
 10
145.3212995841
 20
36.0416103334
 11
145.3225186486
 21
36.0395562647
  0
LINE
  5
53B
100
AcDbEntity
  8
0
100
AcDbLine
 62
7
  6
CONTINUOUS
 10
121.8249397411
 20
40.0470783728
 11
121.7581260852
 21
40.0747806528
  0
LINE
  5
53C
100
AcDbEntity
  8
0
100
AcDbLine
 62
7
  6
CONTINUOUS
 10
128.7306598252
 20
40.2339690637
 11
128.6638463281
 21
40.2616713607
  0
LINE
  5
53D
100
AcDbEntity
  8
0
100
AcDbLine
 62
7
  6
CONTINUOUS
 10
132.174811127
 20
40.5083593403
 11
132.1079972193
 21
40.5360616046
  0
LINE
  5
53E
100
AcDbEntity
  8
0
100
AcDbLine
 62
7
  6
CONTINUOUS
 10
132.174811127
 20
40.8085226435
 11
132.1079972193
 21
40.8362249078
  0
LWPOLYLINE
  5
53F
100
AcDbEntity
  8
RUNDUNGEN
100
AcDbPolyline
 62
7
  6
CONTINUOUS
 90
7
 70
0
 10
143.1949581934
 20
37.4683663859
 10
143.6257125291
 20
37.3703331462
 10
144.037390104
 20
37.2101083152
 10
144.4210651656
 20
36.9911711031
 10
144.7684226882
 20
36.7182718344
 10
145.071935355
 20
36.3973294659
 10
145.2938101639
 20
36.0799559262
  0
LINE
  5
540
100
AcDbEntity
  8
RUNDUNGEN
100
AcDbLine
 62
7
  6
CONTINUOUS
 10
233.4442555454
 20
37.4683687983
 11
233.7823422612
 21
37.5000540193
  0
LWPOLYLINE
  5
541
100
AcDbEntity
  8
RUNDUNGEN
100
AcDbPolyline
 62
7
  6
CONTINUOUS
 90
21
 70
0
 10
272.1689014822
 20
39.5738826887
 10
272.3572734782
 20
39.5912095568
 10
272.5342900465
 20
39.610932
 10
272.7158759689
 20
39.6357718782
 10
272.9176324236
 20
39.6703088148
 10
273.1409511799
 20
39.7186989446
 10
273.3942757831
 20
39.788299473
 10
273.6665942208
 20
39.8824383432
 10
273.9478951847
 20
40.0028844519
 10
274.2336975781
 20
40.1522244786
 10
274.5153735985
 20
40.3297543043
 10
274.7910473625
 20
40.5377738975
 10
275.0565749209
 20
40.7772032326
 10
275.3071840535
 20
41.0480443714
 10
275.5380439593
 20
41.3496384261
 10
275.7442857515
 20
41.6805391538
 10
275.9210942349
 20
42.0383669378
 10
276.0641772106
 20
42.4205928208
 10
276.1693950314
 20
42.8238469842
 10
276.2329630817
 20
43.2440185473
 10
276.2518346697
 20
43.6324378362
  0
LINE
  5
542
100
AcDbEntity
  8
RUNDUNGEN
100
AcDbLine
 62
7
  6
CONTINUOUS
 10
272.1689014822
 20
39.5738826887
 11
248.7246320175
 21
37.7059927539
  0
LINE
  5
543
100
AcDbEntity
  8
RUNDUNGEN
100
AcDbLine
 62
7
  6
CONTINUOUS
 10
248.4069646569
 20
37.6933587326
 11
248.7311691917
 21
37.7065198855
  0
LINE
  5
544
100
AcDbEntity
  8
RUNDUNGEN
100
AcDbLine
 62
7
  6
CONTINUOUS
 10
127.9236354528
 20
37.7052819571
 11
128.2322279445
 21
37.6933596701
  0
LINE
  5
545
100
AcDbEntity
  8
0
100
AcDbLine
 62
7
  6
CONTINUOUS
 10
120.65830125
 20
40.069722342
 11
120.8686210562
 21
40.0534529779
  0
LINE
  5
546
100
AcDbEntity
  8
RUNDUNGEN
100
AcDbLine
 62
7
  6
CONTINUOUS
 10
142.8568522954
 20
37.5000548719
 11
143.1949581934
 21
37.4683663859
  0
LINE
  5
547
100
AcDbEntity
  8
0
100
AcDbLine
 62
7
  6
CONTINUOUS
 10
127.4588615066
 20
40.2647477426
 11
127.5974283616
 21
40.2427619189
  0
LINE
  5
548
100
AcDbEntity
  8
0
100
AcDbLine
 62
7
  6
CONTINUOUS
 10
130.9030119874
 20
40.5391379538
 11
131.0415788423
 21
40.5171521301
  0
LINE
  5
549
100
AcDbEntity
  8
0
100
AcDbLine
 62
7
  6
CONTINUOUS
 10
195.5383463007
 20
41.6295383301
 11
195.3508470159
 21
41.6105810221
  0
LINE
  5
54A
100
AcDbEntity
  8
0
100
AcDbLine
 62
7
  6
CONTINUOUS
 10
196.1008463007
 20
41.5916237098
 11
196.4758470159
 21
41.6232192274
  0
LINE
  5
54B
100
AcDbEntity
  8
0
100
AcDbLine
 62
7
  6
CONTINUOUS
 10
187.1008463007
 20
41.5031562638
 11
187.2919120525
 21
41.5149616032
  0
LINE
  5
54C
100
AcDbEntity
  8
0
100
AcDbLine
 62
7
  6
CONTINUOUS
 10
187.2883466583
 20
41.5726664018
 11
186.1633466583
 21
41.5031562638
  0
LINE
  5
54D
100
AcDbEntity
  8
0
100
AcDbLine
 62
7
  6
CONTINUOUS
 10
187.2883466583
 20
41.872829705
 11
186.1633466583
 21
41.803319567
  0
LINE
  5
54E
100
AcDbEntity
  8
0
100
AcDbLine
 62
7
  6
CONTINUOUS
 10
195.3508470159
 20
41.6105810221
 11
194.9758463007
 21
41.5916237098
  0
LINE
  5
54F
100
AcDbEntity
  8
0
100
AcDbLine
 62
7
  6
CONTINUOUS
 10
180.3508463007
 20
41.7116866733
 11
180.7258464795
 21
41.7306439813
  0
LINE
  5
550
100
AcDbEntity
  8
0
100
AcDbLine
 62
7
  6
CONTINUOUS
 10
195.5383463007
 20
41.566347297
 11
196.1008463007
 21
41.5916237098
  0
LINE
  5
551
100
AcDbEntity
  8
0
100
AcDbLine
 62
7
  6
CONTINUOUS
 10
182.4133464795
 20
41.7432821866
 11
183.538345943
 21
41.7875159228
  0
LINE
  5
552
100
AcDbEntity
  8
0
100
AcDbLine
 62
7
  6
CONTINUOUS
 10
183.538345943
 20
41.838068744
 11
182.4133464795
 21
41.7938350255
  0
LINE
  5
553
100
AcDbEntity
  8
RUNDUNGEN
100
AcDbLine
 62
7
  6
CONTINUOUS
 10
233.782510118
 20
37.5000601982
 11
234.3087085854
 21
37.5184871106
  0
LINE
  5
554
100
AcDbEntity
  8
RUNDUNGEN
100
AcDbLine
 62
7
  6
CONTINUOUS
 10
234.3087085854
 20
37.5184871106
 11
235.2270493325
 21
37.5470578943
  0
LINE
  5
555
100
AcDbEntity
  8
0
100
AcDbLine
 62
7
  6
CONTINUOUS
 10
179.4133461219
 20
41.7306439813
 11
174.1633463007
 21
41.5726664018
  0
LINE
  5
556
100
AcDbEntity
  8
0
100
AcDbLine
 62
7
  6
CONTINUOUS
 10
175.6633463454
 20
41.5726664018
 11
180.3508463007
 21
41.7116866733
  0
LINE
  5
557
100
AcDbEntity
  8
0
100
AcDbLine
 62
7
  6
CONTINUOUS
 10
127.0852770327
 20
40.1359091546
 11
127.7261159521
 21
40.1539385868
  0
LINE
  5
558
100
AcDbEntity
  8
0
100
AcDbLine
 62
7
  6
CONTINUOUS
 10
191.0383463007
 20
41.6737720574
 11
191.7883466583
 21
41.6927293654
  0
LINE
  5
559
100
AcDbEntity
  8
RUNDUNGEN
100
AcDbLine
 62
7
  6
CONTINUOUS
 10
235.2270493325
 20
37.5470578943
 11
236.8397243108
 21
37.5884355752
  0
LINE
  5
55A
100
AcDbEntity
  8
RUNDUNGEN
100
AcDbLine
 62
7
  6
CONTINUOUS
 10
151.13893369
 20
41.3130369417
 11
153.8783282218
 21
41.3766140119
  0
LINE
  5
55B
100
AcDbEntity
  8
0
100
AcDbLine
 62
7
  6
CONTINUOUS
 10
194.9758463007
 20
41.5916237098
 11
194.4133463007
 21
41.5789855045
  0
LINE
  5
55C
100
AcDbEntity
  8
0
100
AcDbLine
 62
7
  6
CONTINUOUS
 10
175.6633463454
 20
41.7875159228
 11
176.2258463454
 21
41.8001541281
  0
LINE
  5
55D
100
AcDbEntity
  8
0
100
AcDbLine
 62
7
  6
CONTINUOUS
 10
126.7363906388
 20
40.1741643579
 11
126.1673049224
 21
40.1618514011
  0
LINE
  5
55E
100
AcDbEntity
  8
0
100
AcDbLine
 62
7
  6
CONTINUOUS
 10
125.2034463059
 20
40.5969532663
 11
125.7725318984
 21
40.6092662248
  0
LINE
  5
55F
100
AcDbEntity
  8
0
100
AcDbLine
 62
7
  6
CONTINUOUS
 10
194.6008455854
 20
41.5473899873
 11
195.5383463007
 21
41.566347297
  0
LINE
  5
560
100
AcDbEntity
  8
0
100
AcDbLine
 62
7
  6
CONTINUOUS
 10
191.6008463007
 20
41.7243248786
 11
190.6633466583
 21
41.7053675707
  0
LINE
  5
561
100
AcDbEntity
  8
RUNDUNGEN
100
AcDbLine
 62
7
  6
CONTINUOUS
 10
236.8397243108
 20
37.5884355752
 11
238.0721113926
 21
37.6140541509
  0
LINE
  5
562
100
AcDbEntity
  8
RUNDUNGEN
100
AcDbLine
 62
7
  6
CONTINUOUS
 10
153.8783282218
 20
41.3766140119
 11
156.7734900742
 21
41.4362948665
  0
LINE
  5
563
100
AcDbEntity
  8
0
100
AcDbLine
 62
7
  6
CONTINUOUS
 10
118.5736901337
 20
40.1183085456
 11
117.7559383852
 21
40.102697345
  0
LINE
  5
564
100
AcDbEntity
  8
0
100
AcDbLine
 62
7
  6
CONTINUOUS
 10
118.5736901337
 20
40.4184718488
 11
117.7559383852
 21
40.4028606482
  0
LINE
  5
565
100
AcDbEntity
  8
RUNDUNGEN
100
AcDbLine
 62
7
  6
CONTINUOUS
 10
156.7734900742
 20
41.4362948665
 11
159.8199499319
 21
41.4915889863
  0
LINE
  5
566
100
AcDbEntity
  8
0
100
AcDbLine
 62
7
  6
CONTINUOUS
 10
176.038346256
 20
41.8317496413
 11
175.2883463007
 21
41.819111436
  0
LINE
  5
567
100
AcDbEntity
  8
RUNDUNGEN
100
AcDbLine
 62
7
  6
CONTINUOUS
 10
238.0721113926
 20
37.6140541509
 11
239.423483146
 21
37.6372278175
  0
LINE
  5
568
100
AcDbEntity
  8
RUNDUNGEN
100
AcDbLine
 62
7
  6
CONTINUOUS
 10
159.8199499319
 20
41.4915889863
 11
163.0080709987
 21
41.5419491196
  0
LINE
  5
569
100
AcDbEntity
  8
0
100
AcDbLine
 62
7
  6
CONTINUOUS
 10
126.0906123467
 20
40.1227161872
 11
127.0852770327
 21
40.1359091546
  0
LINE
  5
56A
100
AcDbEntity
  8
0
100
AcDbLine
 62
7
  6
CONTINUOUS
 10
118.5687505092
 20
40.0848897913
 11
119.0660830265
 21
40.0914862918
  0
LINE
  5
56B
100
AcDbEntity
  8
0
100
AcDbLine
 62
7
  6
CONTINUOUS
 10
125.8492245981
 20
40.6484014371
 11
124.854559974
 21
40.6352084688
  0
LINE
  5
56C
100
AcDbEntity
  8
0
100
AcDbLine
 62
7
  6
CONTINUOUS
 10
125.8492245981
 20
40.9485647403
 11
124.854559974
 21
40.935371772
  0
LINE
  5
56D
100
AcDbEntity
  8
RUNDUNGEN
100
AcDbLine
 62
7
  6
CONTINUOUS
 10
163.0080709987
 20
41.5419491196
 11
166.3247486802
 21
41.5868397851
  0
LINE
  5
56E
100
AcDbEntity
  8
RUNDUNGEN
100
AcDbLine
 62
7
  6
CONTINUOUS
 10
239.423483146
 20
37.6372278175
 11
240.884621763
 21
37.6572407141
  0
LINE
  5
56F
100
AcDbEntity
  8
RUNDUNGEN
100
AcDbLine
 62
7
  6
CONTINUOUS
 10
166.3247486802
 20
41.5868397851
 11
169.7553611212
 21
41.625782095
  0
LINE
  5
570
100
AcDbEntity
  8
RUNDUNGEN
100
AcDbLine
 62
7
  6
CONTINUOUS
 10
240.884621763
 20
37.6572407141
 11
242.4430890406
 21
37.673419988
  0
LWPOLYLINE
  5
571
100
AcDbEntity
  8
RUNDUNGEN
100
AcDbPolyline
 62
7
  6
CONTINUOUS
 90
3
 70
0
 10
169.7553611212
 20
41.625782095
 10
173.2837977201
 20
41.6583573747
 10
174.1649411938
 20
41.6651233181
  0
LINE
  5
572
100
AcDbEntity
  8
0
100
AcDbLine
 62
7
  6
CONTINUOUS
 10
194.4133463007
 20
41.5789855045
 11
193.6633470159
 21
41.5726664018
  0
LINE
  5
573
100
AcDbEntity
  8
0
100
AcDbLine
 62
7
  6
CONTINUOUS
 10
191.7883466583
 20
41.6927293654
 11
192.5383470159
 21
41.699048468
  0
LINE
  5
574
100
AcDbEntity
  8
0
100
AcDbLine
 62
7
  6
CONTINUOUS
 10
119.4966018879
 20
40.1257850722
 11
118.5736901337
 21
40.1183085456
  0
LINE
  5
575
100
AcDbEntity
  8
0
100
AcDbLine
 62
7
  6
CONTINUOUS
 10
118.7994941688
 20
40.4203010918
 11
118.5736901337
 21
40.4184718488
  0
LINE
  5
576
100
AcDbEntity
  8
0
100
AcDbLine
 62
7
  6
CONTINUOUS
 10
193.6633470159
 20
41.5410708841
 11
194.6008455854
 21
41.5473899873
  0
LINE
  5
577
100
AcDbEntity
  8
0
100
AcDbLine
 62
7
  6
CONTINUOUS
 10
192.5383470159
 20
41.7306439813
 11
191.6008463007
 21
41.7243248786
  0
LINE
  5
578
100
AcDbEntity
  8
0
100
AcDbLine
 62
7
  6
CONTINUOUS
 10
176.2258463454
 20
41.8001541281
 11
177.1633463901
 21
41.8064732307
  0
LINE
  5
579
100
AcDbEntity
  8
RUNDUNGEN
100
AcDbLine
 62
7
  6
CONTINUOUS
 10
242.4430890406
 20
37.673419988
 11
244.0833619099
 21
37.6851462321
  0
LINE
  5
57A
100
AcDbEntity
  8
0
100
AcDbLine
 62
7
  6
CONTINUOUS
 10
126.1673049224
 20
40.1618514011
 11
125.4930591189
 21
40.1576731002
  0
LINE
  5
57B
100
AcDbEntity
  8
0
100
AcDbLine
 62
7
  6
CONTINUOUS
 10
125.7725318984
 20
40.6092662248
 11
126.4467781975
 21
40.613444519
  0
LINE
  5
57C
100
AcDbEntity
  8
0
100
AcDbLine
 62
7
  6
CONTINUOUS
 10
177.3508462113
 20
41.838068744
 11
176.038346256
 21
41.8317496413
  0
LINE
  5
57D
100
AcDbEntity
  8
0
100
AcDbLine
 62
7
  6
CONTINUOUS
 10
177.3508462113
 20
42.1382320472
 11
176.038346256
 21
42.1319129445
  0
LINE
  5
57E
100
AcDbEntity
  8
RUNDUNGEN
100
AcDbLine
 62
7
  6
CONTINUOUS
 10
244.0833619099
 20
37.6851462321
 11
245.7869656115
 21
37.6918722399
  0
LINE
  5
57F
100
AcDbEntity
  8
RUNDUNGEN
100
AcDbLine
 62
7
  6
CONTINUOUS
 10
180.9135796834
 20
41.7043377123
 11
183.5378929337
 21
41.7127577702
  0
LINE
  5
580
100
AcDbEntity
  8
0
100
AcDbLine
 62
7
  6
CONTINUOUS
 10
125.2394535437
 20
40.1209561202
 11
126.0906123467
 21
40.1227161872
  0
LINE
  5
581
100
AcDbEntity
  8
0
100
AcDbLine
 62
7
  6
CONTINUOUS
 10
126.7003834824
 20
40.6501615221
 11
125.8492245981
 21
40.6484014371
  0
LINE
  5
582
100
AcDbEntity
  8
0
100
AcDbLine
 62
7
  6
CONTINUOUS
 10
126.7003834824
 20
40.9503248253
 11
125.8492245981
 21
40.9485647403
  0
LINE
  5
583
100
AcDbEntity
  8
RUNDUNGEN
100
AcDbLine
 62
7
  6
CONTINUOUS
 10
184.6635480249
 20
41.7153441734
 11
186.1431070065
 21
41.717780458
  0
LINE
  5
584
100
AcDbEntity
  8
RUNDUNGEN
100
AcDbLine
 62
7
  6
CONTINUOUS
 10
248.4069646569
 20
37.6933587326
 11
245.7869656115
 21
37.6918722399
  0
LINE
  5
585
100
AcDbEntity
  8
0
100
AcDbLine
 62
7
  6
CONTINUOUS
 10
186.1633466583
 20
41.5031562638
 11
187.1008463007
 21
41.5031562638
  0
LINE
  5
586
100
AcDbEntity
  8
0
100
AcDbLine
 62
7
  6
CONTINUOUS
 10
174.1633463007
 20
41.5410708841
 11
180.9133463007
 21
41.5410708841
  0
LINE
  5
587
100
AcDbEntity
  8
0
100
AcDbLine
 62
7
  6
CONTINUOUS
 10
183.538345943
 20
41.5410708841
 11
184.663345943
 21
41.5410708841
  0
LINE
  5
588
100
AcDbEntity
  8
0
100
AcDbLine
 62
7
  6
CONTINUOUS
 10
192.5383470159
 20
41.5410708841
 11
193.6633470159
 21
41.5410708841
  0
LINE
  5
589
100
AcDbEntity
  8
0
100
AcDbLine
 62
7
  6
CONTINUOUS
 10
193.6633470159
 20
41.5726664018
 11
192.5383470159
 21
41.5726664018
  0
LINE
  5
58A
100
AcDbEntity
  8
0
100
AcDbLine
 62
7
  6
CONTINUOUS
 10
188.2258463007
 20
41.5726664018
 11
187.2883466583
 21
41.5726664018
  0
LINE
  5
58B
100
AcDbEntity
  8
0
100
AcDbLine
 62
7
  6
CONTINUOUS
 10
180.9133463007
 20
41.5726664018
 11
175.6633463454
 21
41.5726664018
  0
LINE
  5
58C
100
AcDbEntity
  8
0
100
AcDbLine
 62
7
  6
CONTINUOUS
 10
190.850845943
 20
41.6169001248
 11
189.725845943
 21
41.6169001248
  0
LINE
  5
58D
100
AcDbEntity
  8
0
100
AcDbLine
 62
7
  6
CONTINUOUS
 10
189.725845943
 20
41.6737720574
 11
191.0383463007
 21
41.6737720574
  0
LINE
  5
58E
100
AcDbEntity
  8
0
100
AcDbLine
 62
7
  6
CONTINUOUS
 10
192.5383470159
 20
41.699048468
 11
193.6633470159
 21
41.699048468
  0
LINE
  5
58F
100
AcDbEntity
  8
0
100
AcDbLine
 62
7
  6
CONTINUOUS
 10
193.6633470159
 20
41.7306439813
 11
192.5383470159
 21
41.7306439813
  0
LINE
  5
590
100
AcDbEntity
  8
0
100
AcDbLine
 62
7
  6
CONTINUOUS
 10
202.4758455854
 20
41.7432821866
 11
200.4133470159
 21
41.7432821866
  0
LINE
  5
591
100
AcDbEntity
  8
0
100
AcDbLine
 62
7
  6
CONTINUOUS
 10
199.4758463007
 20
41.7432821866
 11
197.9758455854
 21
41.7432821866
  0
LINE
  5
592
100
AcDbEntity
  8
0
100
AcDbLine
 62
7
  6
CONTINUOUS
 10
174.3508463063
 20
41.7685586149
 11
175.2883463007
 21
41.7685586149
  0
LINE
  5
593
100
AcDbEntity
  8
0
100
AcDbLine
 62
7
  6
CONTINUOUS
 10
200.4133470159
 20
41.7938350255
 11
199.4758463007
 21
41.7938350255
  0
LINE
  5
594
100
AcDbEntity
  8
0
100
AcDbLine
 62
7
  6
CONTINUOUS
 10
177.1633463901
 20
41.8064732307
 11
177.9133462113
 21
41.8064732307
  0
LINE
  5
595
100
AcDbEntity
  8
0
100
AcDbLine
 62
7
  6
CONTINUOUS
 10
190.6633466583
 20
41.8064732307
 11
196.1008463007
 21
41.8064732307
  0
LINE
  5
596
100
AcDbEntity
  8
0
100
AcDbLine
 62
7
  6
CONTINUOUS
 10
196.1008463007
 20
41.838068744
 11
189.725845943
 21
41.838068744
  0
LINE
  5
597
100
AcDbEntity
  8
0
100
AcDbLine
 62
7
  6
CONTINUOUS
 10
184.663345943
 20
41.838068744
 11
183.538345943
 21
41.838068744
  0
LINE
  5
598
100
AcDbEntity
  8
0
100
AcDbLine
 62
7
  6
CONTINUOUS
 10
178.1008463007
 20
41.838068744
 11
177.3508462113
 21
41.838068744
  0
LINE
  5
599
100
AcDbEntity
  8
0
100
AcDbLine
 62
7
  6
CONTINUOUS
 10
188.2258463007
 20
41.872829705
 11
187.2883466583
 21
41.872829705
  0
LINE
  5
59A
100
AcDbEntity
  8
0
100
AcDbLine
 62
7
  6
CONTINUOUS
 10
202.4758455854
 20
42.0434454898
 11
200.4133470159
 21
42.0434454898
  0
LINE
  5
59B
100
AcDbEntity
  8
0
100
AcDbLine
 62
7
  6
CONTINUOUS
 10
199.4758463007
 20
42.0434454898
 11
197.9758455854
 21
42.0434454898
  0
LINE
  5
59C
100
AcDbEntity
  8
0
100
AcDbLine
 62
7
  6
CONTINUOUS
 10
200.4133470159
 20
42.0939983287
 11
199.4758463007
 21
42.0939983287
  0
LINE
  5
59D
100
AcDbEntity
  8
0
100
AcDbLine
 62
7
  6
CONTINUOUS
 10
196.1008463007
 20
42.1382320472
 11
189.725845943
 21
42.1382320472
  0
LINE
  5
59E
100
AcDbEntity
  8
0
100
AcDbLine
 62
7
  6
CONTINUOUS
 10
184.663345943
 20
42.1382320472
 11
183.538345943
 21
42.1382320472
  0
LINE
  5
59F
100
AcDbEntity
  8
0
100
AcDbLine
 62
7
  6
CONTINUOUS
 10
178.1008463007
 20
42.1382320472
 11
177.3508462113
 21
42.1382320472
  0
LINE
  5
5A0
100
AcDbEntity
  8
RUNDUNGEN
100
AcDbLine
 62
7
  6
CONTINUOUS
 10
188.2257951778
 20
41.7189376134
 11
189.7258062022
 21
41.7184393108
  0
LINE
  5
5A1
100
AcDbEntity
  8
0
100
AcDbLine
 62
7
  6
CONTINUOUS
 10
126.539719389
 20
40.0429075712
 11
121.8249397411
 21
40.0470783728
  0
LINE
  5
5A2
100
AcDbEntity
  8
0
100
AcDbLine
 62
7
  6
CONTINUOUS
 10
121.7482469388
 20
40.0079431523
 11
126.0374472472
 21
40.0028923164
  0
LINE
  5
5A3
100
AcDbEntity
  8
RUNDUNGEN
100
AcDbLine
 62
7
  6
CONTINUOUS
 10
128.2322279445
 20
37.6933587326
 11
130.9441425203
 21
37.6916481764
  0
LINE
  5
5A4
100
AcDbEntity
  8
0
100
AcDbLine
 62
7
  6
CONTINUOUS
 10
119.0660830265
 20
40.0914862918
 11
119.6685753443
 21
40.089948102
  0
LINE
  5
5A5
100
AcDbEntity
  8
0
100
AcDbLine
 62
7
  6
CONTINUOUS
 10
120.0990942057
 20
40.1242468825
 11
119.4966018879
 21
40.1257850722
  0
LINE
  5
5A6
100
AcDbEntity
  8
RUNDUNGEN
100
AcDbLine
 62
7
  6
CONTINUOUS
 10
130.9441425203
 20
37.6916481764
 11
132.652792388
 21
37.6845983789
  0
LINE
  5
5A7
100
AcDbEntity
  8
0
100
AcDbLine
 62
7
  6
CONTINUOUS
 10
125.4930591189
 20
40.1576731002
 11
124.7136539255
 21
40.1616295221
  0
LINE
  5
5A8
100
AcDbEntity
  8
0
100
AcDbLine
 62
7
  6
CONTINUOUS
 10
126.4467781975
 20
40.613444519
 11
127.2261833909
 21
40.609488097
  0
LINE
  5
5A9
100
AcDbEntity
  8
0
100
AcDbLine
 62
7
  6
CONTINUOUS
 10
179.2258463007
 20
41.8317496413
 11
178.1008463007
 21
41.838068744
  0
LINE
  5
5AA
100
AcDbEntity
  8
0
100
AcDbLine
 62
7
  6
CONTINUOUS
 10
179.2258463007
 20
42.1319129445
 11
178.1008463007
 21
42.1382320472
  0
LINE
  5
5AB
100
AcDbEntity
  8
RUNDUNGEN
100
AcDbLine
 62
7
  6
CONTINUOUS
 10
196.4747810463
 20
41.7011431701
 11
199.4751626365
 21
41.6857254707
  0
LINE
  5
5AC
100
AcDbEntity
  8
0
100
AcDbLine
 62
7
  6
CONTINUOUS
 10
124.2831348588
 20
40.1273307253
 11
125.2394535437
 21
40.1209561202
  0
LINE
  5
5AD
100
AcDbEntity
  8
0
100
AcDbLine
 62
7
  6
CONTINUOUS
 10
127.6567022523
 20
40.6437868775
 11
126.7003834824
 21
40.6501615221
  0
LINE
  5
5AE
100
AcDbEntity
  8
0
100
AcDbLine
 62
7
  6
CONTINUOUS
 10
127.6567022523
 20
40.9439501807
 11
126.7003834824
 21
40.9503248253
  0
LINE
  5
5AF
100
AcDbEntity
  8
0
100
AcDbLine
 62
7
  6
CONTINUOUS
 10
191.6008463007
 20
41.5473899873
 11
192.5383470159
 21
41.5410708841
  0
LINE
  5
5B0
100
AcDbEntity
  8
0
100
AcDbLine
 62
7
  6
CONTINUOUS
 10
202.1008470159
 20
41.566347297
 11
201.1633463007
 21
41.5726664018
  0
LINE
  5
5B1
100
AcDbEntity
  8
0
100
AcDbLine
 62
7
  6
CONTINUOUS
 10
177.9133462113
 20
41.8064732307
 11
178.8508461219
 21
41.8001541281
  0
LINE
  5
5B2
100
AcDbEntity
  8
0
100
AcDbLine
 62
7
  6
CONTINUOUS
 10
194.6008455854
 20
41.7243248786
 11
193.6633470159
 21
41.7306439813
  0
LINE
  5
5B3
100
AcDbEntity
  8
RUNDUNGEN
100
AcDbLine
 62
7
  6
CONTINUOUS
 10
132.652792388
 20
37.6845983789
 11
134.2632918237
 21
37.6728262181
  0
LINE
  5
5B4
100
AcDbEntity
  8
RUNDUNGEN
100
AcDbLine
 62
7
  6
CONTINUOUS
 10
202.0993888688
 20
41.6679788412
 11
204.5572948115
 21
41.6480879317
  0
LINE
  5
5B5
100
AcDbEntity
  8
0
100
AcDbLine
 62
7
  6
CONTINUOUS
 10
192.5383470159
 20
41.5726664018
 11
191.7883466583
 21
41.5789855045
  0
LINE
  5
5B6
100
AcDbEntity
  8
0
100
AcDbLine
 62
7
  6
CONTINUOUS
 10
193.6633470159
 20
41.699048468
 11
194.4133463007
 21
41.6927293654
  0
LINE
  5
5B7
100
AcDbEntity
  8
RUNDUNGEN
100
AcDbLine
 62
7
  6
CONTINUOUS
 10
204.5572948115
 20
41.6480879317
 11
208.0564643961
 21
41.6132979401
  0
LINE
  5
5B8
100
AcDbEntity
  8
RUNDUNGEN
100
AcDbLine
 62
7
  6
CONTINUOUS
 10
134.2632918237
 20
37.6728262181
 11
135.7703159155
 21
37.6570509836
  0
LINE
  5
5B9
100
AcDbEntity
  8
0
100
AcDbLine
 62
7
  6
CONTINUOUS
 10
200.4133470159
 20
41.5537090905
 11
200.9758470159
 21
41.5473899873
  0
LINE
  5
5BA
100
AcDbEntity
  8
RUNDUNGEN
100
AcDbLine
 62
7
  6
CONTINUOUS
 10
208.0564643961
 20
41.6132979401
 11
211.4515664389
 21
41.5722755447
  0
LINE
  5
5BB
100
AcDbEntity
  8
0
100
AcDbLine
 62
7
  6
CONTINUOUS
 10
115.4981840724
 20
39.9393381164
 11
123.813099865
 21
39.825681956
  0
LINE
  5
5BC
100
AcDbEntity
  8
0
100
AcDbLine
 62
7
  6
CONTINUOUS
 10
124.2436187264
 20
39.8599807365
 11
120.5284435323
 21
39.910763277
  0
LINE
  5
5BD
100
AcDbEntity
  8
0
100
AcDbLine
 62
7
  6
CONTINUOUS
 10
119.466965047
 20
39.9252725723
 11
116.8132683382
 21
39.9615458175
  0
LINE
  5
5BE
100
AcDbEntity
  8
0
100
AcDbLine
 62
7
  6
CONTINUOUS
 10
119.6685753443
 20
40.089948102
 11
120.1993150825
 21
40.0826934476
  0
LINE
  5
5BF
100
AcDbEntity
  8
0
100
AcDbLine
 62
7
  6
CONTINUOUS
 10
120.8067470248
 20
40.1145740122
 11
120.0990942057
 21
40.1242468825
  0
LINE
  5
5C0
100
AcDbEntity
  8
0
100
AcDbLine
 62
7
  6
CONTINUOUS
 10
118.7988286081
 20
40.2022954281
 11
124.2831348588
 21
40.1273307253
  0
LINE
  5
5C1
100
AcDbEntity
  8
0
100
AcDbLine
 62
7
  6
CONTINUOUS
 10
124.7136539255
 20
40.1616295221
 11
119.2293476748
 21
40.2365942249
  0
LINE
  5
5C2
100
AcDbEntity
  8
0
100
AcDbLine
 62
7
  6
CONTINUOUS
 10
120.9514231205
 20
40.3737893469
 11
126.4357293712
 21
40.2988246441
  0
LINE
  5
5C3
100
AcDbEntity
  8
0
100
AcDbLine
 62
7
  6
CONTINUOUS
 10
126.8662482326
 20
40.3331234246
 11
121.3819419819
 21
40.4080881273
  0
LINE
  5
5C4
100
AcDbEntity
  8
0
100
AcDbLine
 62
7
  6
CONTINUOUS
 10
121.9559669936
 20
40.4538198238
 11
130.2708827862
 21
40.3401636634
  0
LINE
  5
5C5
100
AcDbEntity
  8
0
100
AcDbLine
 62
7
  6
CONTINUOUS
 10
129.6399230384
 20
40.3889717409
 11
123.4479643403
 21
40.4736093089
  0
LINE
  5
5C6
100
AcDbEntity
  8
0
100
AcDbLine
 62
7
  6
CONTINUOUS
 10
120.9492264649
 20
40.5132485925
 11
119.2293476748
 21
40.5367575281
  0
LINE
  5
5C7
100
AcDbEntity
  8
0
100
AcDbLine
 62
7
  6
CONTINUOUS
 10
127.2261833909
 20
40.609488097
 11
129.8798798519
 21
40.5732148553
  0
LINE
  5
5C8
100
AcDbEntity
  8
0
100
AcDbLine
 62
7
  6
CONTINUOUS
 10
121.9552347752
 20
40.7004151206
 11
121.3819419819
 21
40.7082514305
  0
LINE
  5
5C9
100
AcDbEntity
  8
0
100
AcDbLine
 62
7
  6
CONTINUOUS
 10
130.3103987133
 20
40.6075136358
 11
127.6567022523
 21
40.6437868775
  0
LINE
  5
5CA
100
AcDbEntity
  8
0
100
AcDbLine
 62
7
  6
CONTINUOUS
 10
130.3103987133
 20
40.907676939
 11
127.6567022523
 21
40.9439501807
  0
LINE
  5
5CB
100
AcDbEntity
  8
RUNDUNGEN
100
AcDbLine
 62
7
  6
CONTINUOUS
 10
135.7703159155
 20
37.6570509836
 11
137.1713290949
 21
37.6379095134
  0
LINE
  5
5CC
100
AcDbEntity
  8
RUNDUNGEN
100
AcDbLine
 62
7
  6
CONTINUOUS
 10
211.4515664389
 20
41.5722755447
 11
214.7266907566
 21
41.5254687479
  0
LINE
  5
5CD
100
AcDbEntity
  8
0
100
AcDbLine
 62
7
  6
CONTINUOUS
 10
179.9758461219
 20
41.819111436
 11
179.2258463007
 21
41.8317496413
  0
LINE
  5
5CE
100
AcDbEntity
  8
0
100
AcDbLine
 62
7
  6
CONTINUOUS
 10
179.9758461219
 20
42.1192747392
 11
179.2258463007
 21
42.1319129445
  0
LINE
  5
5CF
100
AcDbEntity
  8
RUNDUNGEN
100
AcDbLine
 62
7
  6
CONTINUOUS
 10
214.7266907566
 20
41.5254687479
 11
217.8675278163
 21
41.4733855529
  0
LINE
  5
5D0
100
AcDbEntity
  8
RUNDUNGEN
100
AcDbLine
 62
7
  6
CONTINUOUS
 10
137.1713290949
 20
37.6379095134
 11
139.0738918395
 21
37.6040780755
  0
LINE
  5
5D1
100
AcDbEntity
  8
RUNDUNGEN
100
AcDbLine
 62
7
  6
CONTINUOUS
 10
217.8675278163
 20
41.4733855529
 11
220.8615725774
 21
41.4165863913
  0
LINE
  5
5D2
100
AcDbEntity
  8
0
100
AcDbLine
 62
7
  6
CONTINUOUS
 10
190.6633466583
 20
41.566347297
 11
191.6008463007
 21
41.5473899873
  0
LINE
  5
5D3
100
AcDbEntity
  8
0
100
AcDbLine
 62
7
  6
CONTINUOUS
 10
195.5383463007
 20
41.7053675707
 11
194.6008455854
 21
41.7243248786
  0
LINE
  5
5D4
100
AcDbEntity
  8
0
100
AcDbLine
 62
7
  6
CONTINUOUS
 10
127.6790603566
 20
40.3153158708
 11
126.8662482326
 21
40.3331234246
  0
LINE
  5
5D5
100
AcDbEntity
  8
0
100
AcDbLine
 62
7
  6
CONTINUOUS
 10
131.1232112479
 20
40.5897061147
 11
130.3103987133
 21
40.6075136358
  0
LINE
  5
5D6
100
AcDbEntity
  8
0
100
AcDbLine
 62
7
  6
CONTINUOUS
 10
131.1232112479
 20
40.8898694179
 11
130.3103987133
 21
40.907676939
  0
LINE
  5
5D7
100
AcDbEntity
  8
RUNDUNGEN
100
AcDbLine
 62
7
  6
CONTINUOUS
 10
220.8615725774
 20
41.4165863913
 11
223.7010550366
 21
41.355612475
  0
LINE
  5
5D8
100
AcDbEntity
  8
0
100
AcDbLine
 62
7
  6
CONTINUOUS
 10
178.8508461219
 20
41.8001541281
 11
179.4133461219
 21
41.7875159228
  0
LINE
  5
5D9
100
AcDbEntity
  8
0
100
AcDbLine
 62
7
  6
CONTINUOUS
 10
191.7883466583
 20
41.5789855045
 11
191.2258466583
 21
41.5916237098
  0
LINE
  5
5DA
100
AcDbEntity
  8
0
100
AcDbLine
 62
7
  6
CONTINUOUS
 10
199.8508470159
 20
41.566347297
 11
200.4133470159
 21
41.5537090905
  0
LINE
  5
5DB
100
AcDbEntity
  8
0
100
AcDbLine
 62
7
  6
CONTINUOUS
 10
194.4133463007
 20
41.6927293654
 11
194.9758463007
 21
41.6800911601
  0
LINE
  5
5DC
100
AcDbEntity
  8
0
100
AcDbLine
 62
7
  6
CONTINUOUS
 10
201.1633463007
 20
41.5726664018
 11
200.6008463007
 21
41.5853046071
  0
LINE
  5
5DD
100
AcDbEntity
  8
0
100
AcDbLine
 62
7
  6
CONTINUOUS
 10
126.4357293712
 20
40.2988246441
 11
127.0716284143
 21
40.2834353062
  0
LINE
  5
5DE
100
AcDbEntity
  8
0
100
AcDbLine
 62
7
  6
CONTINUOUS
 10
129.8798798519
 20
40.5732148553
 11
130.5157793056
 21
40.5578255501
  0
LINE
  5
5DF
100
AcDbEntity
  8
RUNDUNGEN
100
AcDbLine
 62
7
  6
CONTINUOUS
 10
223.7010550366
 20
41.355612475
 11
226.3838352004
 21
41.290918976
  0
LINE
  5
5E0
100
AcDbEntity
  8
RUNDUNGEN
100
AcDbLine
 62
7
  6
CONTINUOUS
 10
139.0738918395
 20
37.6040780755
 11
140.7358066016
 21
37.5656326508
  0
LINE
  5
5E1
100
AcDbEntity
  8
0
100
AcDbLine
 62
7
  6
CONTINUOUS
 10
120.1993150825
 20
40.0826934476
 11
120.65830125
 21
40.069722342
  0
LINE
  5
5E2
100
AcDbEntity
  8
0
100
AcDbLine
 62
7
  6
CONTINUOUS
 10
121.2657331923
 20
40.1016029066
 11
120.8067470248
 21
40.1145740122
  0
LINE
  5
5E3
100
AcDbEntity
  8
RUNDUNGEN
100
AcDbLine
 62
7
  6
CONTINUOUS
 10
140.7358066016
 20
37.5656326508
 11
142.1335765195
 21
37.5249755653
  0
LINE
  5
5E4
100
AcDbEntity
  8
0
100
AcDbLine
 62
7
  6
CONTINUOUS
 10
180.7258464795
 20
41.7938350255
 11
179.9758461219
 21
41.819111436
  0
LINE
  5
5E5
100
AcDbEntity
  8
0
100
AcDbLine
 62
7
  6
CONTINUOUS
 10
180.7258464795
 20
42.0939983287
 11
179.9758461219
 21
42.1192747392
  0
LINE
  5
5E6
100
AcDbEntity
  8
RUNDUNGEN
100
AcDbLine
 62
7
  6
CONTINUOUS
 10
142.1335765195
 20
37.5249755653
 11
142.8559363309
 21
37.5000624217
  0
LINE
  5
5E7
100
AcDbEntity
  8
0
100
AcDbLine
 62
7
  6
CONTINUOUS
 10
128.2432066537
 20
40.2942100896
 11
127.6790603566
 21
40.3153158708
  0
LINE
  5
5E8
100
AcDbEntity
  8
0
100
AcDbLine
 62
7
  6
CONTINUOUS
 10
131.6873571344
 20
40.5686003008
 11
131.1232112479
 21
40.5897061147
  0
LINE
  5
5E9
100
AcDbEntity
  8
0
100
AcDbLine
 62
7
  6
CONTINUOUS
 10
131.6873571344
 20
40.868763604
 11
131.1232112479
 21
40.8898694179
  0
LINE
  5
5EA
100
AcDbEntity
  8
0
100
AcDbLine
 62
7
  6
CONTINUOUS
 10
190.1008466583
 20
41.5916237098
 11
190.6633466583
 21
41.566347297
  0
LINE
  5
5EB
100
AcDbEntity
  8
0
100
AcDbLine
 62
7
  6
CONTINUOUS
 10
196.1008463007
 20
41.6800911601
 11
195.5383463007
 21
41.7053675707
  0
LINE
  5
5EC
100
AcDbEntity
  8
0
100
AcDbLine
 62
7
  6
CONTINUOUS
 10
127.0716284143
 20
40.2834353062
 11
127.4588615066
 21
40.2647477426
  0
LINE
  5
5ED
100
AcDbEntity
  8
0
100
AcDbLine
 62
7
  6
CONTINUOUS
 10
130.5157793056
 20
40.5578255501
 11
130.9030119874
 21
40.5391379538
  0
LINE
  5
5EE
100
AcDbEntity
  8
0
100
AcDbLine
 62
7
  6
CONTINUOUS
 10
179.4133461219
 20
41.7875159228
 11
179.7883463007
 21
41.7685586149
  0
LINE
  5
5EF
100
AcDbEntity
  8
0
100
AcDbLine
 62
7
  6
CONTINUOUS
 10
194.9758463007
 20
41.6800911601
 11
195.3508470159
 21
41.6611338522
  0
LINE
  5
5F0
100
AcDbEntity
  8
0
100
AcDbLine
 62
7
  6
CONTINUOUS
 10
121.7581260852
 20
40.0747806528
 11
121.2657331923
 21
40.1016029066
  0
LINE
  5
5F1
100
AcDbEntity
  8
0
100
AcDbLine
 62
7
  6
CONTINUOUS
 10
191.2258466583
 20
41.5916237098
 11
190.850845943
 21
41.6169001248
  0
LINE
  5
5F2
100
AcDbEntity
  8
0
100
AcDbLine
 62
7
  6
CONTINUOUS
 10
128.6638463281
 20
40.2616713607
 11
128.2432066537
 21
40.2942100896
  0
LINE
  5
5F3
100
AcDbEntity
  8
0
100
AcDbLine
 62
7
  6
CONTINUOUS
 10
132.1079972193
 20
40.5360616046
 11
131.6873571344
 21
40.5686003008
  0
LINE
  5
5F4
100
AcDbEntity
  8
0
100
AcDbLine
 62
7
  6
CONTINUOUS
 10
132.1079972193
 20
40.8362249078
 11
131.6873571344
 21
40.868763604
  0
LINE
  5
5F5
100
AcDbEntity
  8
0
100
AcDbLine
 62
7
  6
CONTINUOUS
 10
180.9133463007
 20
41.7685586149
 11
180.7258464795
 21
41.7938350255
  0
LINE
  5
5F6
100
AcDbEntity
  8
0
100
AcDbLine
 62
7
  6
CONTINUOUS
 10
180.9133463007
 20
42.0687219181
 11
180.7258464795
 21
42.0939983287
  0
LINE
  5
5F7
100
AcDbEntity
  8
0
100
AcDbLine
 62
7
  6
CONTINUOUS
 10
174.1633463007
 20
41.872829705
 11
174.1633463007
 21
41.5726664018
  0
LINE
  5
5F8
100
AcDbEntity
  8
0
100
AcDbLine
 62
7
  6
CONTINUOUS
 10
174.3508463063
 20
42.0687219181
 11
174.3508463063
 21
41.7685586149
  0
LINE
  5
5F9
100
AcDbEntity
  8
0
100
AcDbLine
 62
7
  6
CONTINUOUS
 10
174.5383463118
 20
42.0939983287
 11
174.5383463118
 21
41.7938350255
  0
LINE
  5
5FA
100
AcDbEntity
  8
0
100
AcDbLine
 62
7
  6
CONTINUOUS
 10
175.2883463007
 20
42.1192747392
 11
175.2883463007
 21
41.819111436
  0
LINE
  5
5FB
100
AcDbEntity
  8
0
100
AcDbLine
 62
7
  6
CONTINUOUS
 10
180.7258464795
 20
41.7306439813
 11
180.9133463007
 21
41.7559203919
  0
LINE
  5
5FC
100
AcDbEntity
  8
0
100
AcDbLine
 62
7
  6
CONTINUOUS
 10
174.5383463118
 20
41.7938350255
 11
174.3508463063
 21
41.7685586149
  0
LINE
  5
5FD
100
AcDbEntity
  8
0
100
AcDbLine
 62
7
  6
CONTINUOUS
 10
174.5383463118
 20
42.0939983287
 11
174.3508463063
 21
42.0687219181
  0
LINE
  5
5FE
100
AcDbEntity
  8
RUNDUNGEN
100
AcDbLine
 62
7
  6
CONTINUOUS
 10
129.66796963
 20
40.3132888973
 11
129.8550186985
 21
40.3353479137
  0
LINE
  5
5FF
100
AcDbEntity
  8
RUNDUNGEN
100
AcDbLine
 62
7
  6
CONTINUOUS
 10
129.8550186985
 20
40.3353479137
 11
129.940563241
 21
40.3446787844
  0
LINE
  5
600
100
AcDbEntity
  8
0
100
AcDbLine
 62
7
  6
CONTINUOUS
 10
123.813099865
 20
39.825681956
 11
124.2436187264
 21
39.8599807365
  0
LINE
  5
601
100
AcDbEntity
  8
0
100
AcDbLine
 62
7
  6
CONTINUOUS
 10
126.0374472472
 20
40.0028923164
 11
126.539719389
 21
40.0429075712
  0
LINE
  5
602
100
AcDbEntity
  8
0
100
AcDbLine
 62
7
  6
CONTINUOUS
 10
128.2617946294
 20
40.1801026768
 11
128.5488073405
 21
40.2029685414
  0
LINE
  5
603
100
AcDbEntity
  8
0
100
AcDbLine
 62
7
  6
CONTINUOUS
 10
130.2708827862
 20
40.3401636634
 11
131.9929582318
 21
40.4773587853
  0
LINE
  5
604
100
AcDbEntity
  8
0
100
AcDbLine
 62
7
  6
CONTINUOUS
 10
130.9314796226
 20
40.4918680823
 11
129.6399230384
 21
40.3889717409
  0
LINE
  5
605
100
AcDbEntity
  8
0
100
AcDbLine
 62
7
  6
CONTINUOUS
 10
127.4873287314
 20
40.2174778384
 11
127.2003160202
 21
40.1946119739
  0
LINE
  5
606
100
AcDbEntity
  8
0
100
AcDbLine
 62
7
  6
CONTINUOUS
 10
120.5284435323
 20
39.910763277
 11
121.7482469388
 21
40.0079431523
  0
LINE
  5
607
100
AcDbEntity
  8
0
100
AcDbLine
 62
7
  6
CONTINUOUS
 10
120.8302747064
 20
40.0338853718
 11
119.466965047
 21
39.9252725723
  0
LINE
  5
608
100
AcDbEntity
  8
0
100
AcDbLine
 62
7
  6
CONTINUOUS
 10
123.4479643403
 20
40.4736093089
 11
124.7395209245
 21
40.5765056504
  0
LINE
  5
609
100
AcDbEntity
  8
0
100
AcDbLine
 62
7
  6
CONTINUOUS
 10
116.8132683382
 20
39.9615458175
 11
118.1765779976
 21
40.0701586169
  0
LINE
  5
60A
100
AcDbEntity
  8
0
100
AcDbLine
 62
7
  6
CONTINUOUS
 10
123.6780424392
 20
40.5910149457
 11
121.9559669936
 21
40.4538198238
  0
LINE
  5
60B
100
AcDbEntity
  8
0
100
AcDbLine
 62
7
  6
CONTINUOUS
 10
121.3819419819
 20
40.4080881273
 11
120.9514231205
 21
40.3737893469
  0
LINE
  5
60C
100
AcDbEntity
  8
0
100
AcDbLine
 62
7
  6
CONTINUOUS
 10
119.2293476748
 20
40.2365942249
 11
118.7988286081
 21
40.2022954281
  0
LINE
  5
60D
100
AcDbEntity
  8
0
100
AcDbLine
 62
7
  6
CONTINUOUS
 10
117.2202595181
 20
40.0765332384
 11
115.4981840724
 21
39.9393381164
  0
LINE
  5
60E
100
AcDbEntity
  8
0
100
AcDbLine
 62
7
  6
CONTINUOUS
 10
123.6780424392
 20
40.8911782489
 11
121.9559669936
 21
40.753983127
  0
LINE
  5
60F
100
AcDbEntity
  8
0
100
AcDbLine
 62
7
  6
CONTINUOUS
 10
121.3819419819
 20
40.7082514305
 11
120.9514231205
 21
40.6739526501
  0
LINE
  5
610
100
AcDbEntity
  8
0
100
AcDbLine
 62
7
  6
CONTINUOUS
 10
119.2293476748
 20
40.5367575281
 11
118.7988286081
 21
40.5024587313
  0
LINE
  5
611
100
AcDbEntity
  8
0
100
AcDbLine
 62
7
  6
CONTINUOUS
 10
117.2202595181
 20
40.3766965416
 11
115.4981840724
 21
40.2395014196
  0
LINE
  5
612
100
AcDbEntity
  8
RUNDUNGEN
100
AcDbLine
 62
7
  6
CONTINUOUS
 10
132.174811127
 20
40.5403850505
 11
133.0467170863
 21
40.6016160023
  0
LINE
  5
613
100
AcDbEntity
  8
0
100
AcDbLine
 62
7
  6
CONTINUOUS
 10
179.7883463007
 20
41.7559203919
 11
179.4133461219
 21
41.7306439813
  0
LINE
  5
614
100
AcDbEntity
  8
RUNDUNGEN
100
AcDbLine
 62
7
  6
CONTINUOUS
 10
133.0467170863
 20
40.6016160023
 11
134.2724187379
 21
40.6788298691
  0
LINE
  5
615
100
AcDbEntity
  8
RUNDUNGEN
100
AcDbLine
 62
7
  6
CONTINUOUS
 10
134.2724187379
 20
40.6788298691
 11
135.6591486015
 21
40.7570796582
  0
LINE
  5
616
100
AcDbEntity
  8
0
100
AcDbLine
 62
7
  6
CONTINUOUS
 10
175.2883463007
 20
41.7685586149
 11
175.6633463454
 21
41.7875159228
  0
LINE
  5
617
100
AcDbEntity
  8
RUNDUNGEN
100
AcDbLine
 62
7
  6
CONTINUOUS
 10
135.6591486015
 20
40.7570796582
 11
137.2052276451
 21
40.8355362508
  0
LINE
  5
618
100
AcDbEntity
  8
0
100
AcDbLine
 62
7
  6
CONTINUOUS
 10
127.7261159521
 20
40.1539385868
 11
128.2617946294
 21
40.1801026768
  0
LINE
  5
619
100
AcDbEntity
  8
0
100
AcDbLine
 62
7
  6
CONTINUOUS
 10
117.7559383852
 20
40.102697345
 11
117.2202595181
 21
40.0765332384
  0
LINE
  5
61A
100
AcDbEntity
  8
0
100
AcDbLine
 62
7
  6
CONTINUOUS
 10
124.2137215117
 20
40.6171790687
 11
123.6780424392
 21
40.5910149457
  0
LINE
  5
61B
100
AcDbEntity
  8
0
100
AcDbLine
 62
7
  6
CONTINUOUS
 10
117.7559383852
 20
40.4028606482
 11
117.2202595181
 21
40.3766965416
  0
LINE
  5
61C
100
AcDbEntity
  8
0
100
AcDbLine
 62
7
  6
CONTINUOUS
 10
124.2137215117
 20
40.9173423719
 11
123.6780424392
 21
40.8911782489
  0
LINE
  5
61D
100
AcDbEntity
  8
RUNDUNGEN
100
AcDbLine
 62
7
  6
CONTINUOUS
 10
137.2052276451
 20
40.8355362508
 11
138.9103949436
 21
40.9135686872
  0
LINE
  5
61E
100
AcDbEntity
  8
0
100
AcDbLine
 62
7
  6
CONTINUOUS
 10
127.2003160202
 20
40.1946119739
 11
126.7363906388
 21
40.1741643579
  0
LINE
  5
61F
100
AcDbEntity
  8
0
100
AcDbLine
 62
7
  6
CONTINUOUS
 10
124.7395209245
 20
40.5765056504
 11
125.2034463059
 21
40.5969532663
  0
LINE
  5
620
100
AcDbEntity
  8
RUNDUNGEN
100
AcDbLine
 62
7
  6
CONTINUOUS
 10
138.9103949436
 20
40.9135686872
 11
140.7748033788
 21
40.9906382968
  0
LINE
  5
621
100
AcDbEntity
  8
0
100
AcDbLine
 62
7
  6
CONTINUOUS
 10
183.538345943
 20
42.1382320472
 11
182.4133464795
 21
42.0939983287
  0
LINE
  5
622
100
AcDbEntity
  8
0
100
AcDbLine
 62
7
  6
CONTINUOUS
 10
118.1765779976
 20
40.0701586169
 11
118.5687505092
 21
40.0848897913
  0
LINE
  5
623
100
AcDbEntity
  8
RUNDUNGEN
100
AcDbLine
 62
7
  6
CONTINUOUS
 10
140.7748033788
 20
40.9906382968
 11
142.7987332033
 21
41.0662594753
  0
LINE
  5
624
100
AcDbEntity
  8
0
100
AcDbLine
 62
7
  6
CONTINUOUS
 10
175.2883463007
 20
41.819111436
 11
174.5383463118
 21
41.7938350255
  0
LINE
  5
625
100
AcDbEntity
  8
0
100
AcDbLine
 62
7
  6
CONTINUOUS
 10
175.2883463007
 20
42.1192747392
 11
174.5383463118
 21
42.0939983287
  0
LINE
  5
626
100
AcDbEntity
  8
RUNDUNGEN
100
AcDbLine
 62
7
  6
CONTINUOUS
 10
142.7987332033
 20
41.0662594753
 11
144.982381701
 21
41.1399757247
  0
LINE
  5
627
100
AcDbEntity
  8
0
100
AcDbLine
 62
7
  6
CONTINUOUS
 10
174.3565659388
 20
41.8786438711
 11
174.1633463007
 21
41.872829705
  0
LINE
  5
628
100
AcDbEntity
  8
RUNDUNGEN
100
AcDbLine
 62
7
  6
CONTINUOUS
 10
144.982381701
 20
41.1399757247
 11
147.3256963878
 21
41.2113445139
  0
LINE
  5
629
100
AcDbEntity
  8
0
100
AcDbLine
 62
7
  6
CONTINUOUS
 10
124.854559974
 20
40.6352084688
 11
124.2137215117
 21
40.6171790687
  0
LINE
  5
62A
100
AcDbEntity
  8
0
100
AcDbLine
 62
7
  6
CONTINUOUS
 10
124.854559974
 20
40.935371772
 11
124.2137215117
 21
40.9173423719
  0
LWPOLYLINE
  5
62B
100
AcDbEntity
  8
RUNDUNGEN
100
AcDbPolyline
 62
7
  6
CONTINUOUS
 90
3
 70
0
 10
147.3256963878
 20
41.2113445139
 10
149.828234453
 20
41.2799275459
 10
151.13893369
 20
41.3130369417
  0
LINE
  5
62C
100
AcDbEntity
  8
0
100
AcDbLine
 62
7
  6
CONTINUOUS
 10
176.038346256
 20
42.1319129445
 11
175.2883463007
 21
42.1192747392
  0
LINE
  5
62D
100
AcDbEntity
  8
RUNDUNGEN
100
AcDbLine
 62
7
  6
CONTINUOUS
 10
226.3838352004
 20
41.290918976
 11
228.9088187322
 21
41.2229412935
  0
LINE
  5
62E
100
AcDbEntity
  8
RUNDUNGEN
100
AcDbLine
 62
7
  6
CONTINUOUS
 10
228.9088187322
 20
41.2229412935
 11
231.2754672698
 21
41.1521044398
  0
LINE
  5
62F
100
AcDbEntity
  8
RUNDUNGEN
100
AcDbLine
 62
7
  6
CONTINUOUS
 10
231.2754672698
 20
41.1521044398
 11
233.4836734161
 21
41.078827432
  0
LINE
  5
630
100
AcDbEntity
  8
RUNDUNGEN
100
AcDbLine
 62
7
  6
CONTINUOUS
 10
233.4836734161
 20
41.078827432
 11
235.5336277973
 21
41.0035298847
  0
LINE
  5
631
100
AcDbEntity
  8
RUNDUNGEN
100
AcDbLine
 62
7
  6
CONTINUOUS
 10
235.5336277973
 20
41.0035298847
 11
237.4256727596
 21
40.9266418851
  0
LINE
  5
632
100
AcDbEntity
  8
RUNDUNGEN
100
AcDbLine
 62
7
  6
CONTINUOUS
 10
237.4256727596
 20
40.9266418851
 11
239.1601307958
 21
40.8486191386
  0
LINE
  5
633
100
AcDbEntity
  8
RUNDUNGEN
100
AcDbLine
 62
7
  6
CONTINUOUS
 10
239.1601307958
 20
40.8486191386
 11
240.7370906381
 21
40.769966715
  0
LINE
  5
634
100
AcDbEntity
  8
RUNDUNGEN
100
AcDbLine
 62
7
  6
CONTINUOUS
 10
240.7370906381
 20
40.769966715
 11
242.1561217631
 21
40.691277505
  0
LINE
  5
635
100
AcDbEntity
  8
RUNDUNGEN
100
AcDbLine
 62
7
  6
CONTINUOUS
 10
242.1561217631
 20
40.691277505
 11
243.4153242675
 21
40.6133324863
  0
LINE
  5
636
100
AcDbEntity
  8
0
100
AcDbLine
 62
7
  6
CONTINUOUS
 10
199.4758463007
 20
41.5916237098
 11
199.8508470159
 21
41.566347297
  0
LWPOLYLINE
  5
637
100
AcDbEntity
  8
RUNDUNGEN
100
AcDbPolyline
 62
7
  6
CONTINUOUS
 90
11
 70
0
 10
243.4153242675
 20
40.6133324863
 10
244.5101294966
 20
40.5372796642
 10
244.9942197626
 20
40.5004283828
 10
245.4347242353
 20
40.4647062528
 10
245.8310101196
 20
40.4303921316
 10
246.181170543
 20
40.3979317608
 10
246.4842743464
 20
40.3677599448
 10
246.7370800192
 20
40.3406471417
 10
246.9380828497
 20
40.3173329982
 10
247.0815579794
 20
40.2992633366
 10
247.1170014548
 20
40.2945207088
  0
LINE
  5
638
100
AcDbEntity
  8
0
100
AcDbLine
 62
7
  6
CONTINUOUS
 10
196.4758470159
 20
41.648495638
 11
196.1008463007
 21
41.6800911601
  0
LINE
  5
639
100
AcDbEntity
  8
0
100
AcDbLine
 62
7
  6
CONTINUOUS
 10
196.4758470159
 20
41.9486589412
 11
196.1127416535
 21
41.9792522255
  0
LINE
  5
63A
100
AcDbEntity
  8
0
100
AcDbLine
 62
7
  6
CONTINUOUS
 10
195.3508470159
 20
41.6611338522
 11
195.5383463007
 21
41.6421765354
  0
LINE
  5
63B
100
AcDbEntity
  8
0
100
AcDbLine
 62
7
  6
CONTINUOUS
 10
200.6008463007
 20
41.5853046071
 11
200.4133470159
 21
41.6042619195
  0
LINE
  5
63C
100
AcDbEntity
  8
0
100
AcDbLine
 62
7
  6
CONTINUOUS
 10
176.038346256
 20
42.1319129445
 11
176.038346256
 21
41.8317496413
  0
LINE
  5
63D
100
AcDbEntity
  8
0
100
AcDbLine
 62
7
  6
CONTINUOUS
 10
177.3508462113
 20
42.1382320472
 11
177.3508462113
 21
41.838068744
  0
LINE
  5
63E
100
AcDbEntity
  8
0
100
AcDbLine
 62
7
  6
CONTINUOUS
 10
178.1008463007
 20
42.1382320472
 11
178.1008463007
 21
41.838068744
  0
LINE
  5
63F
100
AcDbEntity
  8
0
100
AcDbLine
 62
7
  6
CONTINUOUS
 10
179.2258463007
 20
42.1319129445
 11
179.2258463007
 21
41.8317496413
  0
LINE
  5
640
100
AcDbEntity
  8
0
100
AcDbLine
 62
7
  6
CONTINUOUS
 10
179.4133461219
 20
41.7875159228
 11
179.4133461219
 21
41.7306439813
  0
LINE
  5
641
100
AcDbEntity
  8
0
100
AcDbLine
 62
7
  6
CONTINUOUS
 10
179.7883463007
 20
41.7685586149
 11
179.7883463007
 21
41.7559203919
  0
LINE
  5
642
100
AcDbEntity
  8
0
100
AcDbLine
 62
7
  6
CONTINUOUS
 10
179.9758461219
 20
42.1192747392
 11
179.9758461219
 21
41.819111436
  0
LINE
  5
643
100
AcDbEntity
  8
0
100
AcDbLine
 62
7
  6
CONTINUOUS
 10
180.7258464795
 20
42.0939983287
 11
180.7258464795
 21
41.7938350255
  0
LINE
  5
644
100
AcDbEntity
  8
0
100
AcDbLine
 62
7
  6
CONTINUOUS
 10
180.9133463007
 20
42.0687219181
 11
180.9133463007
 21
41.7685586149
  0
LINE
  5
645
100
AcDbEntity
  8
0
100
AcDbLine
 62
7
  6
CONTINUOUS
 10
180.9133463007
 20
41.7306439813
 11
180.9133463007
 21
41.5726664018
  0
LINE
  5
646
100
AcDbEntity
  8
0
100
AcDbLine
 62
7
  6
CONTINUOUS
 10
182.4133464795
 20
42.0939983287
 11
182.4133464795
 21
41.7432821866
  0
LINE
  5
647
100
AcDbEntity
  8
0
100
AcDbLine
 62
7
  6
CONTINUOUS
 10
120.8686210562
 20
40.0534529779
 11
120.8302747064
 21
40.0338853718
  0
LINE
  5
648
100
AcDbEntity
  8
0
100
AcDbLine
 62
7
  6
CONTINUOUS
 10
131.0415788423
 20
40.5171521301
 11
130.9314796226
 21
40.4918680823
  0
LINE
  5
649
100
AcDbEntity
  8
0
100
AcDbLine
 62
7
  6
CONTINUOUS
 10
127.5974283616
 20
40.2427619189
 11
127.4873287314
 21
40.2174778384
  0
LINE
  5
64A
100
AcDbEntity
  8
0
100
AcDbLine
 62
7
  6
CONTINUOUS
 10
131.9929582318
 20
40.4773587853
 11
132.174811127
 21
40.5083593403
  0
LINE
  5
64B
100
AcDbEntity
  8
0
100
AcDbLine
 62
7
  6
CONTINUOUS
 10
128.5488073405
 20
40.2029685414
 11
128.7306598252
 21
40.2339690637
  0
LWPOLYLINE
  5
64C
100
AcDbEntity
  8
RUNDUNGEN
100
AcDbPolyline
 62
7
  6
CONTINUOUS
 90
5
 70
0
 10
129.4796831112
 20
40.2889479371
 10
129.4646405019
 20
40.2864741933
 10
129.4676537094
 20
40.2868568457
 10
129.5378095272
 20
40.2966284707
 10
129.66796963
 20
40.3132888973
  0
LINE
  5
64D
100
AcDbEntity
  8
0
100
AcDbLine
 62
7
  6
CONTINUOUS
 10
183.538345943
 20
42.1382320472
 11
183.538345943
 21
41.838068744
  0
LINE
  5
64E
100
AcDbEntity
  8
0
100
AcDbLine
 62
7
  6
CONTINUOUS
 10
183.538345943
 20
41.7875159228
 11
183.538345943
 21
41.5410708841
  0
LINE
  5
64F
100
AcDbEntity
  8
0
100
AcDbLine
 62
7
  6
CONTINUOUS
 10
184.663345943
 20
41.5410708841
 11
184.663345943
 21
42.1382320472
  0
LINE
  5
650
100
AcDbEntity
  8
0
100
AcDbLine
 62
7
  6
CONTINUOUS
 10
186.1633466583
 20
41.803319567
 11
186.1633466583
 21
41.5031562638
  0
LINE
  5
651
100
AcDbEntity
  8
0
100
AcDbLine
 62
7
  6
CONTINUOUS
 10
187.2883466583
 20
41.872829705
 11
187.2883466583
 21
41.5726664018
  0
LINE
  5
652
100
AcDbEntity
  8
0
100
AcDbLine
 62
7
  6
CONTINUOUS
 10
188.2258463007
 20
41.872829705
 11
188.2258463007
 21
41.5726664018
  0
LINE
  5
653
100
AcDbEntity
  8
B-ACHSEN
100
AcDbLine
 62
2
  6
CENTER
 10
188.3195963007
 20
61.5591823078
 11
188.3195963007
 21
8.5591823078
  0
LINE
  5
654
100
AcDbEntity
  8
B-ACHSEN
100
AcDbLine
 62
2
  6
CENTER
 10
188.3195963007
 20
61.5591823078
 11
188.3195963007
 21
114.5591823078
  0
LINE
  5
655
100
AcDbEntity
  8
B-ACHSEN
100
AcDbLine
 62
2
  6
CENTER
 10
188.3195963007
 20
61.5591823078
 11
96.6223281656
 21
61.5591823078
  0
LINE
  5
656
100
AcDbEntity
  8
B-ACHSEN
100
AcDbLine
 62
2
  6
CENTER
 10
188.3195963007
 20
61.5591823078
 11
280.8929276442
 21
61.5591823078
  0
LINE
  5
657
100
AcDbEntity
  8
0
100
AcDbLine
 62
7
  6
CONTINUOUS
 10
189.725845943
 20
42.1382320472
 11
189.725845943
 21
41.6169001248
  0
LINE
  5
658
100
AcDbEntity
  8
0
100
AcDbLine
 62
7
  6
CONTINUOUS
 10
190.6633466583
 20
41.7053675707
 11
190.6633466583
 21
41.8064732307
  0
LINE
  5
659
100
AcDbEntity
  8
0
100
AcDbLine
 62
7
  6
CONTINUOUS
 10
190.850845943
 20
41.6737720574
 11
190.850845943
 21
41.6169001248
  0
LINE
  5
65A
100
AcDbEntity
  8
0
100
AcDbLine
 62
7
  6
CONTINUOUS
 10
191.2258466583
 20
41.6737720574
 11
191.2258466583
 21
41.5916237098
  0
LINE
  5
65B
100
AcDbEntity
  8
0
100
AcDbLine
 62
7
  6
CONTINUOUS
 10
191.6008463007
 20
41.8064732307
 11
191.6008463007
 21
41.7243248786
  0
LINE
  5
65C
100
AcDbEntity
  8
0
100
AcDbLine
 62
7
  6
CONTINUOUS
 10
191.7883466583
 20
41.6927293654
 11
191.7883466583
 21
41.5789855045
  0
LINE
  5
65D
100
AcDbEntity
  8
0
100
AcDbLine
 62
7
  6
CONTINUOUS
 10
192.5383470159
 20
41.8064732307
 11
192.5383470159
 21
41.7306439813
  0
LINE
  5
65E
100
AcDbEntity
  8
0
100
AcDbLine
 62
7
  6
CONTINUOUS
 10
192.5383470159
 20
41.699048468
 11
192.5383470159
 21
41.5726664018
  0
LINE
  5
65F
100
AcDbEntity
  8
0
100
AcDbLine
 62
7
  6
CONTINUOUS
 10
193.6633470159
 20
41.8064732307
 11
193.6633470159
 21
41.7306439813
  0
LINE
  5
660
100
AcDbEntity
  8
0
100
AcDbLine
 62
7
  6
CONTINUOUS
 10
193.6633470159
 20
41.699048468
 11
193.6633470159
 21
41.5726664018
  0
LINE
  5
661
100
AcDbEntity
  8
0
100
AcDbLine
 62
7
  6
CONTINUOUS
 10
194.4133463007
 20
41.6927293654
 11
194.4133463007
 21
41.5789855045
  0
LINE
  5
662
100
AcDbEntity
  8
0
100
AcDbLine
 62
7
  6
CONTINUOUS
 10
194.6008455854
 20
41.8064732307
 11
194.6008455854
 21
41.7243248786
  0
LINE
  5
663
100
AcDbEntity
  8
0
100
AcDbLine
 62
7
  6
CONTINUOUS
 10
194.9758463007
 20
41.6800911601
 11
194.9758463007
 21
41.5916237098
  0
LINE
  5
664
100
AcDbEntity
  8
0
100
AcDbLine
 62
7
  6
CONTINUOUS
 10
195.3508470159
 20
41.6611338522
 11
195.3508470159
 21
41.6105810221
  0
LINE
  5
665
100
AcDbEntity
  8
0
100
AcDbLine
 62
7
  6
CONTINUOUS
 10
195.5383463007
 20
41.6421765354
 11
195.5383463007
 21
41.6295383301
  0
LINE
  5
666
100
AcDbEntity
  8
0
100
AcDbLine
 62
7
  6
CONTINUOUS
 10
195.5383463007
 20
41.8064732307
 11
195.5383463007
 21
41.7053675707
  0
LINE
  5
667
100
AcDbEntity
  8
0
100
AcDbLine
 62
7
  6
CONTINUOUS
 10
196.1008463007
 20
42.1382320472
 11
196.1008463007
 21
41.6800911601
  0
LINE
  5
668
100
AcDbEntity
  8
0
100
AcDbLine
 62
7
  6
CONTINUOUS
 10
196.4758470159
 20
41.9486589412
 11
196.4758470159
 21
41.648495638
  0
LINE
  5
669
100
AcDbEntity
  8
0
100
AcDbLine
 62
7
  6
CONTINUOUS
 10
197.9758455854
 20
42.0434454898
 11
197.9758455854
 21
41.7432821866
  0
LINE
  5
66A
100
AcDbEntity
  8
0
100
AcDbLine
 62
7
  6
CONTINUOUS
 10
199.4758463007
 20
41.718005776
 11
199.4758463007
 21
41.5916237098
  0
LINE
  5
66B
100
AcDbEntity
  8
0
100
AcDbLine
 62
7
  6
CONTINUOUS
 10
199.4758463007
 20
42.0939983287
 11
199.4758463007
 21
41.7432821866
  0
LINE
  5
66C
100
AcDbEntity
  8
0
100
AcDbLine
 62
7
  6
CONTINUOUS
 10
200.4133470159
 20
42.0939983287
 11
200.4133470159
 21
41.7938350255
  0
LINE
  5
66D
100
AcDbEntity
  8
0
100
AcDbLine
 62
7
  6
CONTINUOUS
 10
200.4133470159
 20
41.6042619195
 11
200.4133470159
 21
41.718005776
  0
LINE
  5
66E
100
AcDbEntity
  8
0
100
AcDbLine
 62
7
  6
CONTINUOUS
 10
200.6008463007
 20
41.7432821866
 11
200.6008463007
 21
41.5853046071
  0
LINE
  5
66F
100
AcDbEntity
  8
0
100
AcDbLine
 62
7
  6
CONTINUOUS
 10
201.1633463007
 20
41.718005776
 11
201.1633463007
 21
41.5726664018
  0
LINE
  5
670
100
AcDbEntity
  8
0
100
AcDbLine
 62
7
  6
CONTINUOUS
 10
202.1008470159
 20
41.718005776
 11
202.1008470159
 21
41.566347297
  0
LINE
  5
671
100
AcDbEntity
  8
0
100
AcDbLine
 62
7
  6
CONTINUOUS
 10
202.4758455854
 20
42.0434454898
 11
202.4758455854
 21
41.7432821866
  0
LWPOLYLINE
  5
672
100
AcDbEntity
  8
RUNDUNGEN
100
AcDbPolyline
 62
7
  6
CONTINUOUS
 90
12
 70
0
 10
247.1594552913
 20
82.8294076284
 10
247.1745214028
 20
82.8318854758
 10
247.1715794952
 20
82.8315137256
 10
247.1014937309
 20
82.8217509781
 10
246.9714029144
 20
82.8050978628
 10
246.7844226101
 20
82.7830449269
 10
246.5465568645
 20
82.7570971027
 10
246.2590607574
 20
82.7279807725
 10
245.9249338894
 20
82.6964615552
 10
245.5450645002
 20
82.6629857732
 10
245.1212566652
 20
82.6280054945
 10
244.6540648813
 20
82.591805593
  0
LINE
  5
673
100
AcDbEntity
  8
RUNDUNGEN
100
AcDbLine
 62
7
  6
CONTINUOUS
 10
244.6540648813
 20
82.591805593
 11
243.5933199917
 21
82.5168049602
  0
LINE
  5
674
100
AcDbEntity
  8
RUNDUNGEN
100
AcDbLine
 62
7
  6
CONTINUOUS
 10
243.5933199917
 20
82.5168049602
 11
242.3677871101
 21
82.4395951485
  0
LINE
  5
675
100
AcDbEntity
  8
RUNDUNGEN
100
AcDbLine
 62
7
  6
CONTINUOUS
 10
242.3677871101
 20
82.4395951485
 11
240.9812335921
 21
82.361348611
  0
LINE
  5
676
100
AcDbEntity
  8
RUNDUNGEN
100
AcDbLine
 62
7
  6
CONTINUOUS
 10
240.9812335921
 20
82.361348611
 11
239.4353398846
 21
82.2828946278
  0
LINE
  5
677
100
AcDbEntity
  8
RUNDUNGEN
100
AcDbLine
 62
7
  6
CONTINUOUS
 10
239.4353398846
 20
82.2828946278
 11
237.7303681016
 21
82.2048642483
  0
LINE
  5
678
100
AcDbEntity
  8
RUNDUNGEN
100
AcDbLine
 62
7
  6
CONTINUOUS
 10
237.7303681016
 20
82.2048642483
 11
235.8661666774
 21
82.1277961993
  0
LINE
  5
679
100
AcDbEntity
  8
RUNDUNGEN
100
AcDbLine
 62
7
  6
CONTINUOUS
 10
235.8661666774
 20
82.1277961993
 11
233.8424567784
 21
82.0521761136
  0
LINE
  5
67A
100
AcDbEntity
  8
RUNDUNGEN
100
AcDbLine
 62
7
  6
CONTINUOUS
 10
233.8424567784
 20
82.0521761136
 11
231.6590425974
 21
81.9784604932
  0
LINE
  5
67B
100
AcDbEntity
  8
RUNDUNGEN
100
AcDbLine
 62
7
  6
CONTINUOUS
 10
231.6590425974
 20
81.9784604932
 11
229.3159783178
 21
81.9070918582
  0
LINE
  5
67C
100
AcDbEntity
  8
RUNDUNGEN
100
AcDbLine
 62
7
  6
CONTINUOUS
 10
229.3159783178
 20
81.9070918582
 11
226.813708006
 21
81.8385084735
  0
LINE
  5
67D
100
AcDbEntity
  8
RUNDUNGEN
100
AcDbLine
 62
7
  6
CONTINUOUS
 10
226.813708006
 20
81.8385084735
 11
224.1531907221
 21
81.7731506758
  0
LINE
  5
67E
100
AcDbEntity
  8
RUNDUNGEN
100
AcDbLine
 62
7
  6
CONTINUOUS
 10
224.1531907221
 20
81.7731506758
 11
221.3360153405
 21
81.7114649392
  0
LINE
  5
67F
100
AcDbEntity
  8
RUNDUNGEN
100
AcDbLine
 62
7
  6
CONTINUOUS
 10
221.3360153405
 20
81.7114649392
 11
218.3646620803
 21
81.6539091167
  0
LINE
  5
680
100
AcDbEntity
  8
RUNDUNGEN
100
AcDbLine
 62
7
  6
CONTINUOUS
 10
218.3646620803
 20
81.6539091167
 11
215.246114507
 21
81.6010073734
  0
LINE
  5
681
100
AcDbEntity
  8
RUNDUNGEN
100
AcDbLine
 62
7
  6
CONTINUOUS
 10
215.246114507
 20
81.6010073734
 11
211.9923227709
 21
81.5533140882
  0
LINE
  5
682
100
AcDbEntity
  8
RUNDUNGEN
100
AcDbLine
 62
7
  6
CONTINUOUS
 10
211.9923227709
 20
81.5533140882
 11
208.6170799184
 21
81.5113355765
  0
LINE
  5
683
100
AcDbEntity
  8
RUNDUNGEN
100
AcDbLine
 62
7
  6
CONTINUOUS
 10
208.6170799184
 20
81.5113355765
 11
205.1357586588
 21
81.47552129
  0
LINE
  5
684
100
AcDbEntity
  8
RUNDUNGEN
100
AcDbLine
 62
7
  6
CONTINUOUS
 10
205.1357586588
 20
81.47552129
 11
201.5651349198
 21
81.446257874
  0
LINE
  5
685
100
AcDbEntity
  8
RUNDUNGEN
100
AcDbLine
 62
7
  6
CONTINUOUS
 10
201.5651349198
 20
81.446257874
 11
197.9231844465
 21
81.4238637637
  0
LINE
  5
686
100
AcDbEntity
  8
RUNDUNGEN
100
AcDbLine
 62
7
  6
CONTINUOUS
 10
197.9231844465
 20
81.4238637637
 11
194.228851255
 21
81.4085847892
  0
LINE
  5
687
100
AcDbEntity
  8
RUNDUNGEN
100
AcDbLine
 62
7
  6
CONTINUOUS
 10
194.228851255
 20
81.4085847892
 11
190.5017987864
 21
81.4005907384
  0
LINE
  5
688
100
AcDbEntity
  8
RUNDUNGEN
100
AcDbLine
 62
7
  6
CONTINUOUS
 10
190.5017987864
 20
81.4005907384
 11
186.7621653079
 21
81.399972724
  0
LINE
  5
689
100
AcDbEntity
  8
RUNDUNGEN
100
AcDbLine
 62
7
  6
CONTINUOUS
 10
186.7621653079
 20
81.399972724
 11
183.0305299051
 21
81.4067410125
  0
LINE
  5
68A
100
AcDbEntity
  8
RUNDUNGEN
100
AcDbLine
 62
7
  6
CONTINUOUS
 10
183.0305299051
 20
81.4067410125
 11
179.3274575396
 21
81.4208231748
  0
LINE
  5
68B
100
AcDbEntity
  8
RUNDUNGEN
100
AcDbLine
 62
7
  6
CONTINUOUS
 10
179.3274575396
 20
81.4208231748
 11
175.6730977055
 21
81.442064835
  0
LINE
  5
68C
100
AcDbEntity
  8
RUNDUNGEN
100
AcDbLine
 62
7
  6
CONTINUOUS
 10
175.6730977055
 20
81.442064835
 11
172.0869199274
 21
81.4702320223
  0
LINE
  5
68D
100
AcDbEntity
  8
RUNDUNGEN
100
AcDbLine
 62
7
  6
CONTINUOUS
 10
172.0869199274
 20
81.4702320223
 11
168.5874500074
 21
81.5050146967
  0
LINE
  5
68E
100
AcDbEntity
  8
RUNDUNGEN
100
AcDbLine
 62
7
  6
CONTINUOUS
 10
168.5874500074
 20
81.5050146967
 11
165.1920221952
 21
81.5460311311
  0
LINE
  5
68F
100
AcDbEntity
  8
RUNDUNGEN
100
AcDbLine
 62
7
  6
CONTINUOUS
 10
165.1920221952
 20
81.5460311311
 11
161.9165587869
 21
81.592833285
  0
LINE
  5
690
100
AcDbEntity
  8
RUNDUNGEN
100
AcDbLine
 62
7
  6
CONTINUOUS
 10
161.9165587869
 20
81.592833285
 11
158.7753802487
 21
81.6449130483
  0
LINE
  5
691
100
AcDbEntity
  8
RUNDUNGEN
100
AcDbLine
 62
7
  6
CONTINUOUS
 10
158.7753802487
 20
81.6449130483
 11
155.7810031715
 21
81.7017098361
  0
LINE
  5
692
100
AcDbEntity
  8
RUNDUNGEN
100
AcDbLine
 62
7
  6
CONTINUOUS
 10
155.7810031715
 20
81.7017098361
 11
152.9412093007
 21
81.7626821647
  0
LINE
  5
693
100
AcDbEntity
  8
RUNDUNGEN
100
AcDbLine
 62
7
  6
CONTINUOUS
 10
152.9412093007
 20
81.7626821647
 11
150.2581392533
 21
81.8273747112
  0
LINE
  5
694
100
AcDbEntity
  8
RUNDUNGEN
100
AcDbLine
 62
7
  6
CONTINUOUS
 10
150.2581392533
 20
81.8273747112
 11
147.7328856307
 21
81.8953519906
  0
LINE
  5
695
100
AcDbEntity
  8
RUNDUNGEN
100
AcDbLine
 62
7
  6
CONTINUOUS
 10
147.7328856307
 20
81.8953519906
 11
145.3659850114
 21
81.9661889307
  0
LINE
  5
696
100
AcDbEntity
  8
RUNDUNGEN
100
AcDbLine
 62
7
  6
CONTINUOUS
 10
145.3659850114
 20
81.9661889307
 11
143.1575438585
 21
82.039466462
  0
LINE
  5
697
100
AcDbEntity
  8
RUNDUNGEN
100
AcDbLine
 62
7
  6
CONTINUOUS
 10
143.1575438585
 20
82.039466462
 11
141.1073695654
 21
82.114764973
  0
LINE
  5
698
100
AcDbEntity
  8
RUNDUNGEN
100
AcDbLine
 62
7
  6
CONTINUOUS
 10
141.1073695654
 20
82.114764973
 11
139.2151178237
 21
82.1916543876
  0
LINE
  5
699
100
AcDbEntity
  8
RUNDUNGEN
100
AcDbLine
 62
7
  6
CONTINUOUS
 10
139.2151178237
 20
82.1916543876
 11
137.4804645487
 21
82.2696790262
  0
LINE
  5
69A
100
AcDbEntity
  8
RUNDUNGEN
100
AcDbLine
 62
7
  6
CONTINUOUS
 10
137.4804645487
 20
82.2696790262
 11
135.9033196768
 21
82.3483338665
  0
LINE
  5
69B
100
AcDbEntity
  8
RUNDUNGEN
100
AcDbLine
 62
7
  6
CONTINUOUS
 10
135.9033196768
 20
82.3483338665
 11
134.4841124607
 21
82.4270261015
  0
LINE
  5
69C
100
AcDbEntity
  8
RUNDUNGEN
100
AcDbLine
 62
7
  6
CONTINUOUS
 10
134.4841124607
 20
82.4270261015
 11
133.2247409893
 21
82.5049749289
  0
LWPOLYLINE
  5
69D
100
AcDbEntity
  8
RUNDUNGEN
100
AcDbPolyline
 62
7
  6
CONTINUOUS
 90
11
 70
0
 10
133.2247409893
 20
82.5049749289
 10
132.1297741748
 20
82.5810324692
 10
131.6456058152
 20
82.6178864847
 10
131.2050259517
 20
82.6536116565
 10
130.80866598
 20
82.6879291455
 10
130.4584337536
 20
82.7203933181
 10
130.1552589974
 20
82.7505694401
 10
129.9023836258
 20
82.7776872359
 10
129.7013114919
 20
82.8010072025
 10
129.5577661016
 20
82.8190839348
 10
129.5222978166
 20
82.8238294378
  0
LINE
  5
69E
100
AcDbEntity
  8
RUNDUNGEN
100
AcDbLine
 62
7
  6
CONTINUOUS
 10
128.2322279445
 20
85.425005883
 11
127.9080234096
 21
85.4118447301
  0
LINE
  5
69F
100
AcDbEntity
  8
RUNDUNGEN
100
AcDbLine
 62
7
  6
CONTINUOUS
 10
142.8566824834
 20
85.6183044174
 11
142.3304840159
 21
85.599877505
  0
LINE
  5
6A0
100
AcDbEntity
  8
RUNDUNGEN
100
AcDbLine
 62
7
  6
CONTINUOUS
 10
142.3304840159
 20
85.599877505
 11
141.4121432688
 21
85.5713067213
  0
LINE
  5
6A1
100
AcDbEntity
  8
RUNDUNGEN
100
AcDbLine
 62
7
  6
CONTINUOUS
 10
141.4121432688
 20
85.5713067213
 11
139.7994682906
 21
85.5299290404
  0
LINE
  5
6A2
100
AcDbEntity
  8
RUNDUNGEN
100
AcDbLine
 62
7
  6
CONTINUOUS
 10
139.7994682906
 20
85.5299290404
 11
138.5670812087
 21
85.5043104647
  0
LINE
  5
6A3
100
AcDbEntity
  8
RUNDUNGEN
100
AcDbLine
 62
7
  6
CONTINUOUS
 10
138.5670812087
 20
85.5043104647
 11
137.2157094553
 21
85.4811367981
  0
LINE
  5
6A4
100
AcDbEntity
  8
RUNDUNGEN
100
AcDbLine
 62
7
  6
CONTINUOUS
 10
137.2157094553
 20
85.4811367981
 11
135.7545708384
 21
85.4611239015
  0
LINE
  5
6A5
100
AcDbEntity
  8
RUNDUNGEN
100
AcDbLine
 62
7
  6
CONTINUOUS
 10
135.7545708384
 20
85.4611239015
 11
134.1961035608
 21
85.4449446276
  0
LINE
  5
6A6
100
AcDbEntity
  8
RUNDUNGEN
100
AcDbLine
 62
7
  6
CONTINUOUS
 10
134.1961035608
 20
85.4449446276
 11
132.5558306914
 21
85.4332183835
  0
LINE
  5
6A7
100
AcDbEntity
  8
RUNDUNGEN
100
AcDbLine
 62
7
  6
CONTINUOUS
 10
132.5558306914
 20
85.4332183835
 11
130.8522269899
 21
85.4264923757
  0
LINE
  5
6A8
100
AcDbEntity
  8
RUNDUNGEN
100
AcDbLine
 62
7
  6
CONTINUOUS
 10
128.2322279445
 20
85.425005883
 11
130.8522269899
 21
85.4264923757
  0
LINE
  5
6A9
100
AcDbEntity
  8
RUNDUNGEN
100
AcDbLine
 62
7
  6
CONTINUOUS
 10
248.4069646569
 20
85.425005883
 11
245.695050081
 21
85.4267164392
  0
LINE
  5
6AA
100
AcDbEntity
  8
RUNDUNGEN
100
AcDbLine
 62
7
  6
CONTINUOUS
 10
245.695050081
 20
85.4267164392
 11
243.9864002133
 21
85.4337662367
  0
LINE
  5
6AB
100
AcDbEntity
  8
RUNDUNGEN
100
AcDbLine
 62
7
  6
CONTINUOUS
 10
243.9864002133
 20
85.4337662367
 11
242.3759007776
 21
85.4455383975
  0
LINE
  5
6AC
100
AcDbEntity
  8
RUNDUNGEN
100
AcDbLine
 62
7
  6
CONTINUOUS
 10
242.3759007776
 20
85.4455383975
 11
240.8688766858
 21
85.461313632
  0
LINE
  5
6AD
100
AcDbEntity
  8
RUNDUNGEN
100
AcDbLine
 62
7
  6
CONTINUOUS
 10
240.8688766858
 20
85.461313632
 11
239.4678635064
 21
85.4804551022
  0
LINE
  5
6AE
100
AcDbEntity
  8
RUNDUNGEN
100
AcDbLine
 62
7
  6
CONTINUOUS
 10
239.4678635064
 20
85.4804551022
 11
237.5653007618
 21
85.5142865401
  0
LINE
  5
6AF
100
AcDbEntity
  8
RUNDUNGEN
100
AcDbLine
 62
7
  6
CONTINUOUS
 10
237.5653007618
 20
85.5142865401
 11
235.9033859997
 21
85.5527319648
  0
LINE
  5
6B0
100
AcDbEntity
  8
RUNDUNGEN
100
AcDbLine
 62
7
  6
CONTINUOUS
 10
235.9033859997
 20
85.5527319648
 11
234.5056160818
 21
85.5933890503
  0
LINE
  5
6B1
100
AcDbEntity
  8
RUNDUNGEN
100
AcDbLine
 62
7
  6
CONTINUOUS
 10
234.5056160818
 20
85.5933890503
 11
233.7832562704
 21
85.6183021939
  0
LINE
  5
6B2
100
AcDbEntity
  8
RUNDUNGEN
100
AcDbLine
 62
7
  6
CONTINUOUS
 10
248.7155571486
 20
85.4130826585
 11
248.4069646569
 21
85.4250049455
  0
LINE
  5
6B3
100
AcDbEntity
  8
RUNDUNGEN
100
AcDbLine
 62
7
  6
CONTINUOUS
 10
143.1949370559
 20
85.6499958173
 11
142.8568503401
 21
85.6183105963
  0
LWPOLYLINE
  5
6B4
100
AcDbEntity
  8
RUNDUNGEN
100
AcDbPolyline
 62
7
  6
CONTINUOUS
 90
21
 70
0
 10
104.4702336195
 20
83.5444767806
 10
104.2818021084
 20
83.5271433242
 10
104.1047076225
 20
83.5074091821
 10
103.9230532738
 20
83.4825529822
 10
103.7212626057
 20
83.4479985239
 10
103.4979234268
 20
83.3995881307
 10
103.2445897886
 20
83.3299643251
 10
102.9722759779
 20
83.235802303
 10
102.6909976624
 20
83.1153387664
 10
102.4052263151
 20
82.9659865715
 10
102.1235809193
 20
82.7884471866
 10
101.847938498
 20
82.5804216214
 10
101.5824408762
 20
82.3409886547
 10
101.3318611269
 20
82.0701472714
 10
101.1010298801
 20
81.7685568679
 10
100.8948156535
 20
81.4376642352
 10
100.7180330088
 20
81.0798494689
 10
100.5749733436
 20
80.6976420214
 10
100.4697751859
 20
80.2944119426
 10
100.4062218597
 20
79.8742705593
 10
100.3873579319
 20
79.4859318694
  0
LINE
  5
6B5
100
AcDbEntity
  8
RUNDUNGEN
100
AcDbLine
 62
7
  6
CONTINUOUS
 10
104.4702336195
 20
83.5444767806
 11
127.9145605838
 21
85.4123718617
  0
LINE
  5
6B6
100
AcDbEntity
  8
RUNDUNGEN
100
AcDbLine
 62
7
  6
CONTINUOUS
 10
233.7823403059
 20
85.6183097437
 11
233.4442344079
 21
85.6499982297
  0
LWPOLYLINE
  5
6B7
100
AcDbEntity
  8
RUNDUNGEN
100
AcDbPolyline
 62
7
  6
CONTINUOUS
 90
7
 70
0
 10
233.4442344079
 20
85.6499982297
 10
233.0134800722
 20
85.7480314694
 10
232.6018024974
 20
85.9082563004
 10
232.2181274357
 20
86.1271935125
 10
231.8707699131
 20
86.4000927812
 10
231.5672572463
 20
86.7210351497
 10
231.3453824374
 20
87.0384086895
  0
LINE
  5
6B8
100
AcDbEntity
  8
RUNDUNGEN
100
AcDbLine
 62
7
  6
CONTINUOUS
 10
231.3166379664
 20
36.0394956328
 11
231.31789298
 21
36.0416102706
  0
LWPOLYLINE
  5
6B9
100
AcDbEntity
  8
RUNDUNGEN
100
AcDbPolyline
 62
7
  6
CONTINUOUS
 90
7
 70
0
 10
231.314207199
 20
36.0353732585
 10
231.5673010095
 20
36.3973836088
 10
231.8708144093
 20
36.7183125381
 10
232.2181696965
 20
36.9911993734
 10
232.6018398387
 20
37.2101257261
 10
233.0135101928
 20
37.3703417859
 10
233.4442555454
 20
37.4683687983
  0
LINE
  5
6BA
100
AcDbEntity
  8
RUNDUNGEN
100
AcDbLine
 62
7
  6
CONTINUOUS
 10
276.2518347217
 20
43.632427756
 11
276.2518347217
 21
79.4859368595
  0
LWPOLYLINE
  5
6BB
100
AcDbEntity
  8
RUNDUNGEN
100
AcDbPolyline
 62
7
  6
CONTINUOUS
 90
22
 70
0
 10
276.2518346661
 20
79.4859251601
 10
276.2229571132
 20
79.9661060289
 10
276.1460901763
 20
80.400358299
 10
276.0286881772
 20
80.804407423
 10
275.8752684944
 20
81.1817788905
 10
275.6903203711
 20
81.5315954908
 10
275.4758045987
 20
81.8560283826
 10
275.2371546088
 20
82.1511419126
 10
274.9790621252
 20
82.4155554342
 10
274.7065204925
 20
82.6483665105
 10
274.424179759
 20
82.8496689952
 10
274.1371651164
 20
83.0198325848
 10
273.8479455249
 20
83.1611324537
 10
273.5665438421
 20
83.2729623179
 10
273.2989860322
 20
83.3581852807
 10
273.0544722934
 20
83.4197678747
 10
272.8461146656
 20
83.4612246532
 10
272.6597024211
 20
83.4908493237
 10
272.4880253236
 20
83.5129680291
 10
272.3198513812
 20
83.5308626227
 10
272.1421829003
 20
83.5466953977
 10
248.7246320175
 20
85.4123718617
  0
ARC
  5
6BC
100
AcDbEntity
  8
RUNDUNGEN
100
AcDbCircle
 62
7
  6
CONTINUOUS
 10
126.3195963007
 20
231.4982075133
 40
12.0
100
AcDbArc
 50
0.0
 51
82.9544863897
  0
ARC
  5
6BD
100
AcDbEntity
  8
RUNDUNGEN
100
AcDbCircle
 62
7
  6
CONTINUOUS
 10
128.2822795249
 20
247.377372309
 40
4.0
100
AcDbArc
 50
202.5
 51
262.9539116534
  0
ARC
  5
6BE
100
AcDbEntity
  8
RUNDUNGEN
100
AcDbCircle
 62
7
  6
CONTINUOUS
 10
128.2322279445
 20
247.4982075133
 40
4.0
100
AcDbArc
 50
202.5
 51
270.0
  0
ARC
  5
6BF
100
AcDbEntity
  8
B-ACHSEN
100
AcDbCircle
 62
7
  6
CONTINUOUS
 10
165.8195963007
 20
209.5867175459
 40
2.0
100
AcDbArc
 50
315.0
 51
360.0
  0
ARC
  5
6C0
100
AcDbEntity
  8
RUNDUNGEN
100
AcDbCircle
 62
7
  6
CONTINUOUS
 10
110.3873578796
 20
306.2582904211
 40
10.0
100
AcDbArc
 50
157.5
 51
202.5
  0
ARC
  5
6C1
100
AcDbEntity
  8
RUNDUNGEN
100
AcDbCircle
 62
7
  6
CONTINUOUS
 10
133.2131820401
 20
361.3647046817
 40
10.0
100
AcDbArc
 50
112.5
 51
157.5
  0
ARC
  5
6C2
100
AcDbEntity
  8
RUNDUNGEN
100
AcDbCircle
 62
7
  6
CONTINUOUS
 10
250.3195963007
 20
231.4982075133
 40
12.0
100
AcDbArc
 50
97.0455136103
 51
180.0
  0
ARC
  5
6C3
100
AcDbEntity
  8
RUNDUNGEN
100
AcDbCircle
 62
7
  6
CONTINUOUS
 10
248.3569130765
 20
247.377372309
 40
4.0
100
AcDbArc
 50
277.0460883466
 51
337.5
  0
ARC
  5
6C4
100
AcDbEntity
  8
RUNDUNGEN
100
AcDbCircle
 62
7
  6
CONTINUOUS
 10
248.4069646569
 20
247.4982075133
 40
4.0
100
AcDbArc
 50
270.0
 51
337.5
  0
ARC
  5
6C5
100
AcDbEntity
  8
B-ACHSEN
100
AcDbCircle
 62
7
  6
CONTINUOUS
 10
210.8195963007
 20
209.5867175459
 40
2.0
100
AcDbArc
 50
180.0
 51
225.0
  0
CIRCLE
  5
6C6
100
AcDbEntity
  8
RUNDUNGEN
100
AcDbCircle
 62
7
  6
CONTINUOUS
 10
188.3195963007
 20
306.2582904211
 40
45.0
  0
ARC
  5
6C7
100
AcDbEntity
  8
RUNDUNGEN
100
AcDbCircle
 62
7
  6
CONTINUOUS
 10
188.3195963007
 20
384.1905288422
 40
10.0
100
AcDbArc
 50
67.5
 51
112.5
  0
ARC
  5
6C8
100
AcDbEntity
  8
RUNDUNGEN
100
AcDbCircle
 62
7
  6
CONTINUOUS
 10
243.4260105612
 20
361.3647046817
 40
10.0
100
AcDbArc
 50
22.5
 51
67.5
  0
ARC
  5
6C9
100
AcDbEntity
  8
RUNDUNGEN
100
AcDbCircle
 62
7
  6
CONTINUOUS
 10
266.2518347217
 20
306.2582904211
 40
10.0
100
AcDbArc
 50
337.5
 51
22.5
  0
ARC
  5
6CA
100
AcDbEntity
  8
B-ACHSEN
100
AcDbCircle
 62
7
  6
CONTINUOUS
 10
361.3181551827
 20
243.3814070152
 40
10.0
100
AcDbArc
 50
99.0
 51
180.0
  0
ARC
  5
6CB
100
AcDbEntity
  8
B-ACHSEN
100
AcDbCircle
 62
7
  6
CONTINUOUS
 10
441.3181551827
 20
243.3814070152
 40
10.0
100
AcDbArc
 50
0.0
 51
81.0
  0
ARC
  5
6CC
100
AcDbEntity
  8
RUNDUNGEN
100
AcDbCircle
 62
7
  6
CONTINUOUS
 10
386.1611442788
 20
390.1905288161
 40
4.0
100
AcDbArc
 50
90.000000018
 51
178.109938784
  0
ARC
  5
6CD
100
AcDbEntity
  8
RUNDUNGEN
100
AcDbCircle
 62
7
  6
CONTINUOUS
 10
416.4751660865
 20
390.1905288161
 40
4.0
100
AcDbArc
 50
1.890061216
 51
89.999999982
  0
ARC
  5
6CE
100
AcDbEntity
  8
RUNDUNGEN
100
AcDbCircle
 62
7
  6
CONTINUOUS
 10
421.1839787579
 20
247.4982075133
 40
4.0
100
AcDbArc
 50
270.0
 51
1.890061216
  0
ARC
  5
6CF
100
AcDbEntity
  8
RUNDUNGEN
100
AcDbCircle
 62
7
  6
CONTINUOUS
 10
381.452331604
 20
247.4982074078
 40
3.9999999736
100
AcDbArc
 50
178.109937272
 51
270.0
  0
ARC
  5
6D0
100
AcDbEntity
  8
RUNDUNGEN
100
AcDbCircle
 62
7
  6
CONTINUOUS
 10
374.924143462
 20
258.6983914249
 40
2.9999980136
100
AcDbArc
 50
279.0000000228
 51
336.8289516064
  0
ARC
  5
6D1
100
AcDbEntity
  8
RUNDUNGEN
100
AcDbCircle
 62
7
  6
CONTINUOUS
 10
427.7121669044
 20
258.6983914248
 40
2.9999980136
100
AcDbArc
 50
203.1710467687
 51
260.9999999765
  0
ARC
  5
6D2
100
AcDbEntity
  8
B-ACHSEN
100
AcDbCircle
 62
7
  6
CONTINUOUS
 10
378.8181551827
 20
209.5867175459
 40
2.0
100
AcDbArc
 50
315.0
 51
360.0
  0
ARC
  5
6D3
100
AcDbEntity
  8
B-ACHSEN
100
AcDbCircle
 62
7
  6
CONTINUOUS
 10
423.8181551827
 20
209.5867175459
 40
2.0
100
AcDbArc
 50
180.0
 51
225.0
  0
ARC
  5
6D4
100
AcDbEntity
  8
B-ACHSEN
100
AcDbCircle
 62
7
  6
CONTINUOUS
 10
188.3195963007
 20
61.5591823078
 40
50.0
100
AcDbArc
 50
210.6330276603
 51
329.3669723397
  0
ARC
  5
6D5
100
AcDbEntity
  8
B-ACHSEN
100
AcDbCircle
 62
7
  6
CONTINUOUS
 10
188.3195963007
 20
61.5591823078
 40
50.0
100
AcDbArc
 50
30.6330276603
 51
149.3669723397
  0
ARC
  5
6D6
100
AcDbEntity
  8
RUNDUNGEN
100
AcDbCircle
 62
7
  6
CONTINUOUS
 10
188.3195963007
 20
61.5591823078
 40
50.0
100
AcDbArc
 50
210.6330276603
 51
329.3669723397
  0
ARC
  5
6D7
100
AcDbEntity
  8
RUNDUNGEN
100
AcDbCircle
 62
7
  6
CONTINUOUS
 10
188.3195963007
 20
61.5591823078
 40
50.0
100
AcDbArc
 50
30.6330276603
 51
149.3669723397
  0
ARC
  5
6D8
100
AcDbEntity
  8
0
100
AcDbCircle
 62
7
  6
CONTINUOUS
 10
188.3195963007
 20
61.5591823078
 40
50.0
100
AcDbArc
 50
220.1622621348
 51
263.5842443227
  0
ARC
  5
6D9
100
AcDbEntity
  8
0
100
AcDbCircle
 62
7
  6
CONTINUOUS
 10
188.3195963007
 20
61.5591823078
 40
50.0
100
AcDbArc
 50
275.6143329255
 51
320.3223417361
  0
ENDSEC
  0
SECTION
  2
OBJECTS
  0
DICTIONARY
  5
C
100
AcDbDictionary
280
0
281
1
  3
ACAD_GROUP
350
D
  3
ACAD_MLINESTYLE
350
17
  3
ACAD_LAYOUT
350
1A
  3
ACAD_PLOTSETTINGS
350
19
  3
ACAD_PLOTSTYLENAME
350
E
  0
DICTIONARY
  5
D
102
{ACAD_REACTORS
330
C
102
}
100
AcDbDictionary
280
0
281
1
  0
ACDBDICTIONARYWDFLT
  5
E
102
{ACAD_REACTORS
330
C
102
}
100
AcDbDictionary
281
1
  3
Normal
350
F
100
AcDbDictionaryWithDefault
340
F
  0
DICTIONARY
  5
17
102
{ACAD_REACTORS
330
C
102
}
100
AcDbDictionary
280
0
281
1
  3
Standard
350
18
  0
DICTIONARY
  5
19
102
{ACAD_REACTORS
330
C
102
}
100
AcDbDictionary
281
1
  0
DICTIONARY
  5
1A
102
{ACAD_REACTORS
330
C
102
}
100
AcDbDictionary
281
1
  3
Model
350
6DA
  3
Layout1
350
6DB
  0
ACDBPLACEHOLDER
  5
F
102
{ACAD_REACTORS
330
E
102
}
  0
MLINESTYLE
  5
18
102
{ACAD_REACTORS
330
17
102
}
100
AcDbMlineStyle
  2
STANDARD
 70
0
  3

 62
256
 51
90.0
 52
90.0
 71
2
 49
0.5
 62
256
  6
BYLAYER
 49
-0.5
 62
256
  6
BYLAYER
  0
LAYOUT
  5
6DA
102
{ACAD_REACTORS
330
1A
102
}
100
AcDbPlotSettings
  1

  2
none_device
  4
ISO_A2_(594.00_x_420.00_MM)
  6

 40
0.0
 41
0.0
 42
0.0
 43
0.0
 44
594.0
 45
420.0
 46
0.0
 47
0.0
 48
0.0
 49
0.0
140
0.0
141
0.0
142
1.0
143
1.0
 70
1024
 72
1
 73
0
 74
0
  7

 75
0
147
1.0
148
0.0
149
0.0
100
AcDbLayout
  1
Model
 70
0
 71
0
 10
0.0
 20
0.0
 11
594.0
 21
420.0
 12
0.0
 22
0.0
 32
0.0
 14
0.0
 24
0.0
 34
0.0
 15
0.0
 25
0.0
 35
0.0
146
0.0
 13
0.0
 23
0.0
 33
0.0
 16
1.0
 26
0.0
 36
0.0
 17
0.0
 27
1.0
 37
0.0
 76
0
330
209
345
0
346
0
  0
LAYOUT
  5
6DB
102
{ACAD_REACTORS
330
1A
102
}
100
AcDbPlotSettings
  1

  2
none_device
  4
ISO_A2_(594.00_x_420.00_MM)
  6

 40
0.0
 41
0.0
 42
0.0
 43
0.0
 44
594.0
 45
420.0
 46
0.0
 47
0.0
 48
0.0
 49
0.0
140
0.0
141
0.0
142
1.0
143
1.0
 70
0
 72
1
 73
0
 74
0
  7

 75
0
147
1.0
148
0.0
149
0.0
100
AcDbLayout
  1
Layout1
 70
0
 71
1
 10
0.0
 20
0.0
 11
594.0
 21
420.0
 12
0.0
 22
0.0
 32
0.0
 14
0.0
 24
0.0
 34
0.0
 15
0.0
 25
0.0
 35
0.0
146
0.0
 13
0.0
 23
0.0
 33
0.0
 16
1.0
 26
0.0
 36
0.0
 17
0.0
 27
1.0
 37
0.0
 76
0
330
20A
345
0
346
0
  0
ENDSEC
  0
EOF
