999
DXF file: IRS-LT-M42-7907800-M35563-P-7.dxf
999
Pro/ENGINEER 2011490 by Parametric Technology Corporation
  0
SECTION
  2
HEADER
  9
$ACADVER
  1
AC1021
  9
$DWGCODEPAGE
  3
ANSI_1252
  9
$EXTMAX
 10
594.0
 20
420.0
 30
0.0
  9
$EXTMIN
 10
0.0
 20
0.0
 30
0.0
  9
$LIMMIN
 10
0.0
 20
0.0
  9
$LIMMAX
 10
594.0
 20
420.0
  9
$VIEWCTR
 10
297.0
 20
210.0
  9
$VIEWSIZE
 40
420.0
  9
$CLAYER
  8
0
  9
$LTSCALE
 40
32.67
  9
$CELTYPE
  6
BYLAYER
  9
$DIMSCALE
 40
1.0
  9
$DIMASZ
 40
3.5
  9
$DIMEXO
 40
3.7125
  9
$DIMDLI
 40
22.572
  9
$DIMEXE
 40
10.692
  9
$DIMCEN
 40
5.346
  9
$DIMLFAC
 40
1.0
  9
$DIMBLK
  1
_FILLED
  9
$DIMTXT
 40
3.5
  9
$DIMTOL
 70
1
  9
$DIMLIM
 70
0
  9
$DIMTFAC
 40
1.0
  9
$DIMTP
 40
0.005
  9
$DIMTM
 40
0.005
  9
$PDMODE
 70
3
  9
$PDSIZE
 40
0.3125
  9
$HANDSEED
  5
659
  9
$TILEMODE
 70
1
  9
$MEASUREMENT
 70
1
  9
$INSUNITS
 70
4
  0
ENDSEC
  0
SECTION
  2
CLASSES
  0
CLASS
  1
ACDBDICTIONARYWDFLT
  2
AcDbDictionaryWithDefault
  3
AutoCAD 2000
 90
0
 91
1
280
0
281
0
  0
CLASS
  1
ACDBPLACEHOLDER
  2
AcDbPlaceHolder
  3
AutoCAD 2000
 90
0
 91
1
280
0
281
0
  0
CLASS
  1
LAYOUT
  2
AcDbLayout
  3
AutoCAD 2000
 90
0
 91
0
280
0
281
0
  0
ENDSEC
  0
SECTION
  2
TABLES
  0
TABLE
  2
VPORT
  5
8
100
AcDbSymbolTable
 70
2
  0
VPORT
  5
1F4
100
AcDbSymbolTableRecord
100
AcDbViewportTableRecord
  2
*ACTIVE
 70
0
 10
0.0
 20
0.0
 11
1.0
 21
1.0
 12
297.0
 22
210.0
 13
0.0
 23
0.0
 14
1.0
 24
1.0
 15
0.0
 25
0.0
 16
0.0
 26
0.0
 36
1.0
 17
0.0
 27
0.0
 37
0.0
 40
420.0
 41
1.4142857143
 42
50.0
 43
0.0
 44
0.0
 50
0.0
 51
0.0
 71
0
 72
100
 73
1
 74
1
 75
0
 76
0
 77
0
 78
0
  0
ENDTAB
  0
TABLE
  2
LTYPE
  5
5
100
AcDbSymbolTable
 70
6
  0
LTYPE
  5
14
100
AcDbSymbolTableRecord
100
AcDbLinetypeTableRecord
  2
BYBLOCK
 70
0
  3

 72
65
 73
0
 40
0.0
  0
LTYPE
  5
15
100
AcDbSymbolTableRecord
100
AcDbLinetypeTableRecord
  2
BYLAYER
 70
0
  3

 72
65
 73
0
 40
0.0
  0
LTYPE
  5
16
100
AcDbSymbolTableRecord
100
AcDbLinetypeTableRecord
  2
CONTINUOUS
 70
64
  3
Solid line
 72
65
 73
0
 40
0.0
  0
LTYPE
  5
1F5
100
AcDbSymbolTableRecord
100
AcDbLinetypeTableRecord
  2
CENTER
 70
64
  3
____ _ ____ _ ____ _ ____ _ ____ _ ____ _ ____
 72
65
 73
4
 40
0.6
 49
0.375
 74
0
 49
-0.075
 74
0
 49
0.075
 74
0
 49
-0.075
 74
0
  0
LTYPE
  5
1F6
100
AcDbSymbolTableRecord
100
AcDbLinetypeTableRecord
  2
HIDDEN
 70
64
  3
- - - - - - - - - - - - - - - - - - - -
 72
65
 73
2
 40
0.2
 49
0.1
 74
0
 49
-0.1
 74
0
  0
LTYPE
  5
1F7
100
AcDbSymbolTableRecord
100
AcDbLinetypeTableRecord
  2
PHANTOM
 70
64
  3
_____ _ _ _____ _ _ _____ _ _ _____
 72
65
 73
6
 40
0.8
 49
0.45
 74
0
 49
-0.05
 74
0
 49
0.1
 74
0
 49
-0.05
 74
0
 49
0.1
 74
0
 49
-0.05
 74
0
  0
LTYPE
  5
1F8
100
AcDbSymbolTableRecord
100
AcDbLinetypeTableRecord
  2
DOT
 70
64
  3
. . . . . . . . . . . . . . . . . . . .
 72
65
 73
2
 40
0.2
 49
0.1
 74
0
 49
-0.1
 74
0
  0
LTYPE
  5
1F9
100
AcDbSymbolTableRecord
100
AcDbLinetypeTableRecord
  2
DASHED
 70
64
  3
- - - - - - - - - - - - - - - - - - - -
 72
65
 73
2
 40
0.2
 49
0.1
 74
0
 49
-0.1
 74
0
  0
ENDTAB
  0
TABLE
  2
LAYER
  5
2
100
AcDbSymbolTable
 70
36
  0
LAYER
  5
10
100
AcDbSymbolTableRecord
100
AcDbLayerTableRecord
  2
0
 70
0
 62
7
  6
CONTINUOUS
370
-3
390
F
  0
LAYER
  5
1FA
100
AcDbSymbolTableRecord
100
AcDbLayerTableRecord
  2
DEFAULT_1
 70
0
 62
7
  6
CENTER
370
-3
390
F
  0
LAYER
  5
1FB
100
AcDbSymbolTableRecord
100
AcDbLayerTableRecord
  2
DEFAULT_2
 70
0
 62
8
  6
HIDDEN
370
-3
390
F
  0
LAYER
  5
1FC
100
AcDbSymbolTableRecord
100
AcDbLayerTableRecord
  2
DEFAULT_3
 70
0
 62
7
  6
PHANTOM
370
-3
390
F
  0
LAYER
  5
1FD
100
AcDbSymbolTableRecord
100
AcDbLayerTableRecord
  2
B-ACHSEN
 70
0
 62
7
  6
CONTINUOUS
370
-3
390
F
  0
LAYER
  5
1FE
100
AcDbSymbolTableRecord
100
AcDbLayerTableRecord
  2
B-EBENEN
 70
0
 62
7
  6
CONTINUOUS
370
-3
390
F
  0
LAYER
  5
1FF
100
AcDbSymbolTableRecord
100
AcDbLayerTableRecord
  2
B-KOORSYS
 70
0
 62
7
  6
CONTINUOUS
370
-3
390
F
  0
LAYER
  5
200
100
AcDbSymbolTableRecord
100
AcDbLayerTableRecord
  2
B-PUNKTE
 70
0
 62
7
  6
CONTINUOUS
370
-3
390
F
  0
LAYER
  5
201
100
AcDbSymbolTableRecord
100
AcDbLayerTableRecord
  2
BEMASSUNG
 70
0
 62
7
  6
CONTINUOUS
370
-3
390
F
  0
LAYER
  5
202
100
AcDbSymbolTableRecord
100
AcDbLayerTableRecord
  2
BOHRUNGEN
 70
0
 62
7
  6
CONTINUOUS
370
-3
390
F
  0
LAYER
  5
203
100
AcDbSymbolTableRecord
100
AcDbLayerTableRecord
  2
FLAECHEN
 70
0
 62
7
  6
CONTINUOUS
370
-3
390
F
  0
LAYER
  5
204
100
AcDbSymbolTableRecord
100
AcDbLayerTableRecord
  2
NOTIZEN
 70
0
 62
7
  6
CONTINUOUS
370
-3
390
F
  0
LAYER
  5
205
100
AcDbSymbolTableRecord
100
AcDbLayerTableRecord
  2
RUNDUNGEN
 70
0
 62
7
  6
CONTINUOUS
370
-3
390
F
  0
LAYER
  5
206
100
AcDbSymbolTableRecord
100
AcDbLayerTableRecord
  2
VERBUNDFLAECHEN
 70
0
 62
7
  6
CONTINUOUS
370
-3
390
F
  0
ENDTAB
  0
TABLE
  2
STYLE
  5
3
100
AcDbSymbolTable
 70
1
  0
STYLE
  5
11
100
AcDbSymbolTableRecord
100
AcDbTextStyleTableRecord
  2
STANDARD
 70
0
 40
0.0
 41
0.7
 50
0.0
 71
0
 42
0.2
  3
txt
  4

  0
STYLE
  5
207
100
AcDbSymbolTableRecord
100
AcDbTextStyleTableRecord
  2
TEXTSTYLE_1
 70
0
 40
0.0
 41
0.8
 50
0.0
 71
0
 42
0.2
  3
gdt
  4

  0
ENDTAB
  0
TABLE
  2
VIEW
  5
6
100
AcDbSymbolTable
 70
0
  0
ENDTAB
  0
TABLE
  2
UCS
  5
7
100
AcDbSymbolTable
 70
0
  0
ENDTAB
  0
TABLE
  2
APPID
  5
9
100
AcDbSymbolTable
 70
1
  0
APPID
  5
208
100
AcDbSymbolTableRecord
100
AcDbRegAppTableRecord
  2
ACAD
 70
0
  0
ENDTAB
  0
TABLE
  2
BLOCK_RECORD
  5
1
100
AcDbSymbolTable
 70
0
  0
BLOCK_RECORD
  5
209
100
AcDbSymbolTableRecord
100
AcDbBlockTableRecord
  2
*Model_Space
  0
BLOCK_RECORD
  5
20A
100
AcDbSymbolTableRecord
100
AcDbBlockTableRecord
  2
*Paper_Space
  0
ENDTAB
  0
TABLE
  2
DIMSTYLE
  5
A
100
AcDbSymbolTable
 70
1
100
AcDbDimStyleTable
 71
0
  0
DIMSTYLE
105
20B
100
AcDbSymbolTableRecord
100
AcDbDimStyleTableRecord
  2
STANDARD
 70
0
  3

  4

 40
1.0
 41
3.5
 42
0.0625
 43
0.38
 44
0.18
 45
0.0
 46
0.0
 47
0.005
 48
0.005
140
3.5
141
0.09
142
0.0
143
25.4
144
1.0
145
0.0
146
1.0
147
0.09
 71
1.0
 72
0.0
 73
0
 74
0
 75
0
 76
0
 77
1
 78
8
170
0
171
2
172
0
173
0
174
0
175
0
176
0
177
0
178
5
270
2
271
3
272
3
273
2
274
2
275
0
280
0
281
0
282
0
283
1
284
8
285
0
286
0
287
3
288
0
340
11
  0
ENDTAB
  0
ENDSEC
  0
SECTION
  2
BLOCKS
  0
BLOCK
  5
20
100
AcDbEntity
  8
0
100
AcDbBlockBegin
  2
*Model_Space
 70
0
 10
0.0
 20
0.0
 30
0.0
  3
*Model_Space
  1

  0
ENDBLK
  5
21
100
AcDbEntity
  8
0
100
AcDbBlockEnd
  0
BLOCK
  5
1C
100
AcDbEntity
  8
0
100
AcDbBlockBegin
  2
*Paper_Space
 70
0
 10
0.0
 20
0.0
 30
0.0
  3
*Paper_Space
  1

  0
ENDBLK
  5
1D
100
AcDbEntity
  8
0
100
AcDbBlockEnd
  0
ENDSEC
  0
SECTION
  2
ENTITIES
  0
MTEXT
  5
20C
100
AcDbEntity
  8
0
100
AcDbMText
 62
5
  6
CONTINUOUS
  7
STANDARD
 71
1
 72
1
 10
377.3996777211
 20
254.5708411122
 30
0.0
 11
0.0
 21
1.0
 31
0.0
 44
0.9
  1
RUD
 40
8.0
 41
19.8095238095
  0
MTEXT
  5
20D
100
AcDbEntity
  8
0
100
AcDbMText
 62
5
  6
CONTINUOUS
  7
STANDARD
 71
1
 72
1
 10
398.6756081392
 20
253.1110140015
 30
0.0
 11
0.0
 21
1.0
 31
0.0
 44
0.9
  1
IRS-LT M42
 40
8.0
 41
62.6666666667
  0
MTEXT
  5
20E
100
AcDbEntity
  8
0
100
AcDbMText
 62
5
  6
CONTINUOUS
  7
STANDARD
 71
1
 72
1
 10
185.4972048572
 20
74.714918432
 30
0.0
 11
1.0
 21
0.0
 31
0.0
 44
0.9
  1
RUD
 40
8.0
 41
19.8095238095
  0
MTEXT
  5
20F
100
AcDbEntity
  8
0
100
AcDbMText
 62
5
  6
CONTINUOUS
  7
STANDARD
 71
1
 72
1
 10
184.2412860037
 20
55.2520407351
 30
0.0
 11
1.0
 21
0.0
 31
0.0
 44
0.9
  1
IRS-LT M42
 40
8.0
 41
62.6666666667
  0
LINE
  5
210
100
AcDbEntity
  8
0
100
AcDbLine
 62
7
  6
CONTINUOUS
 10
0.0
 20
0.0
 11
0.0
 21
420.0
  0
LINE
  5
211
100
AcDbEntity
  8
0
100
AcDbLine
 62
7
  6
CONTINUOUS
 10
0.0
 20
0.0
 11
594.0
 21
0.0
  0
LINE
  5
212
100
AcDbEntity
  8
0
100
AcDbLine
 62
7
  6
CONTINUOUS
 10
0.0
 20
420.0
 11
594.0
 21
420.0
  0
LINE
  5
213
100
AcDbEntity
  8
0
100
AcDbLine
 62
7
  6
CONTINUOUS
 10
594.0
 20
0.0
 11
594.0
 21
420.0
  0
LINE
  5
214
100
AcDbEntity
  8
B-ACHSEN
100
AcDbLine
 62
7
  6
CONTINUOUS
 10
195.1916879811
 20
158.7382394378
 11
161.1916879811
 21
158.7382394378
  0
LINE
  5
215
100
AcDbEntity
  8
RUNDUNGEN
100
AcDbLine
 62
7
  6
CONTINUOUS
 10
119.2584393968
 20
372.0834490235
 11
174.3648536574
 21
394.909273184
  0
LINE
  5
216
100
AcDbEntity
  8
B-ACHSEN
100
AcDbLine
 62
7
  6
CONTINUOUS
 10
199.1916879811
 20
162.7382394378
 11
157.1916879811
 21
162.7382394378
  0
LINE
  5
217
100
AcDbEntity
  8
RUNDUNGEN
100
AcDbLine
 62
7
  6
CONTINUOUS
 10
91.0206542349
 20
311.5650737615
 11
113.8464783954
 21
366.671488022
  0
LINE
  5
218
100
AcDbEntity
  8
0
100
AcDbLine
 62
7
  6
CONTINUOUS
 10
114.5916953681
 20
348.1300345689
 11
114.0857762441
 21
347.3812243063
  0
LINE
  5
219
100
AcDbEntity
  8
0
100
AcDbLine
 62
7
  6
CONTINUOUS
 10
108.4926779709
 20
333.4057040514
 11
107.9867590408
 21
332.6568942569
  0
LINE
  5
21A
100
AcDbEntity
  8
0
100
AcDbLine
 62
7
  6
CONTINUOUS
 10
115.0882837024
 20
346.9659721207
 11
115.5264354516
 21
347.5511774679
  0
LINE
  5
21B
100
AcDbEntity
  8
0
100
AcDbLine
 62
7
  6
CONTINUOUS
 10
108.8899487159
 20
332.4744542801
 11
109.2603338657
 21
332.8960565841
  0
LINE
  5
21C
100
AcDbEntity
  8
0
100
AcDbLine
 62
7
  6
CONTINUOUS
 10
115.1969316936
 20
348.6460312184
 11
114.5916953681
 21
348.1300345689
  0
LINE
  5
21D
100
AcDbEntity
  8
0
100
AcDbLine
 62
7
  6
CONTINUOUS
 10
115.5264354516
 20
347.5511774679
 11
116.0639051778
 21
347.9035710743
  0
LINE
  5
21E
100
AcDbEntity
  8
0
100
AcDbLine
 62
7
  6
CONTINUOUS
 10
170.1343959965
 20
380.7329201703
 11
169.2489791609
 21
380.1903670435
  0
LINE
  5
21F
100
AcDbEntity
  8
0
100
AcDbLine
 62
7
  6
CONTINUOUS
 10
116.1363371719
 20
349.0236104728
 11
115.1969316936
 21
348.6460312184
  0
LINE
  5
220
100
AcDbEntity
  8
B-ACHSEN
100
AcDbLine
 62
7
  6
CONTINUOUS
 10
157.1916879811
 20
162.7382394378
 11
161.1916879811
 21
158.7382394378
  0
LINE
  5
221
100
AcDbEntity
  8
0
100
AcDbLine
 62
7
  6
CONTINUOUS
 10
114.0857762441
 20
347.3812243063
 11
112.4593716566
 21
343.4547362931
  0
LINE
  5
222
100
AcDbEntity
  8
0
100
AcDbLine
 62
7
  6
CONTINUOUS
 10
111.9172369233
 20
342.1459072675
 11
111.5106357764
 21
341.1642852642
  0
LINE
  5
223
100
AcDbEntity
  8
0
100
AcDbLine
 62
7
  6
CONTINUOUS
 10
109.8842311888
 20
337.237797251
 11
109.4776298481
 21
336.2561747796
  0
LINE
  5
224
100
AcDbEntity
  8
0
100
AcDbLine
 62
7
  6
CONTINUOUS
 10
107.9867590408
 20
332.6568942569
 11
106.3603544532
 21
328.7304062437
  0
LINE
  5
225
100
AcDbEntity
  8
0
100
AcDbLine
 62
7
  6
CONTINUOUS
 10
107.6023784821
 20
329.365984759
 11
108.8899487159
 21
332.4744542801
  0
LINE
  5
226
100
AcDbEntity
  8
0
100
AcDbLine
 62
7
  6
CONTINUOUS
 10
113.8684802618
 20
344.0211061108
 11
115.0882837024
 21
346.9659721207
  0
LINE
  5
227
100
AcDbEntity
  8
0
100
AcDbLine
 62
7
  6
CONTINUOUS
 10
111.3962178298
 20
331.4363236222
 11
110.1086475959
 21
328.3278541011
  0
LINE
  5
228
100
AcDbEntity
  8
0
100
AcDbLine
 62
7
  6
CONTINUOUS
 10
111.1111550543
 20
327.9126019155
 11
112.2631916048
 21
330.6938641801
  0
LINE
  5
229
100
AcDbEntity
  8
0
100
AcDbLine
 62
7
  6
CONTINUOUS
 10
120.9362446951
 20
344.5436673653
 11
119.7164412544
 21
341.5988013554
  0
LINE
  5
22A
100
AcDbEntity
  8
0
100
AcDbLine
 62
7
  6
CONTINUOUS
 10
117.68343552
 20
336.690691339
 11
117.4123679595
 21
336.036276358
  0
LINE
  5
22B
100
AcDbEntity
  8
0
100
AcDbLine
 62
7
  6
CONTINUOUS
 10
114.2133304796
 20
325.4775970686
 11
114.6199316265
 21
326.4592190719
  0
LINE
  5
22C
100
AcDbEntity
  8
0
100
AcDbLine
 62
7
  6
CONTINUOUS
 10
116.3141030072
 20
330.5493105963
 11
116.7884711412
 21
331.6945365789
  0
LINE
  5
22D
100
AcDbEntity
  8
0
100
AcDbLine
 62
7
  6
CONTINUOUS
 10
118.4148755348
 20
335.621024124
 11
118.6859430953
 21
336.2754391049
  0
LINE
  5
22E
100
AcDbEntity
  8
0
100
AcDbLine
 62
7
  6
CONTINUOUS
 10
120.3123476829
 20
340.201927118
 11
121.9387522704
 21
344.1284151312
  0
LINE
  5
22F
100
AcDbEntity
  8
0
100
AcDbLine
 62
7
  6
CONTINUOUS
 10
117.908956784
 20
334.8722148036
 11
118.4148755348
 21
335.621024124
  0
LINE
  5
230
100
AcDbEntity
  8
0
100
AcDbLine
 62
7
  6
CONTINUOUS
 10
117.4123679595
 20
336.036276358
 11
116.9742162104
 21
335.4510710109
  0
LINE
  5
231
100
AcDbEntity
  8
0
100
AcDbLine
 62
7
  6
CONTINUOUS
 10
165.8843959965
 20
383.9882394378
 11
164.8218959965
 21
382.7222821419
  0
LINE
  5
232
100
AcDbEntity
  8
0
100
AcDbLine
 62
7
  6
CONTINUOUS
 10
117.3037200268
 20
334.3562172361
 11
117.908956784
 21
334.8722148036
  0
LINE
  5
233
100
AcDbEntity
  8
0
100
AcDbLine
 62
7
  6
CONTINUOUS
 10
169.6031459965
 20
379.2861118321
 11
170.3114791609
 21
379.828664959
  0
LINE
  5
234
100
AcDbEntity
  8
0
100
AcDbLine
 62
7
  6
CONTINUOUS
 10
173.3218959965
 20
376.9350479026
 11
172.7906459965
 21
376.5733458181
  0
LINE
  5
235
100
AcDbEntity
  8
0
100
AcDbLine
 62
7
  6
CONTINUOUS
 10
116.9742162104
 20
335.4510710109
 11
116.4367463671
 21
335.0986774529
  0
LINE
  5
236
100
AcDbEntity
  8
0
100
AcDbLine
 62
7
  6
CONTINUOUS
 10
172.9677291609
 20
375.6690904959
 11
173.8531459965
 21
376.2116436702
  0
LINE
  5
237
100
AcDbEntity
  8
0
100
AcDbLine
 62
7
  6
CONTINUOUS
 10
109.2649990667
 20
333.8524924714
 11
108.4926779709
 21
333.4057040514
  0
LINE
  5
238
100
AcDbEntity
  8
0
100
AcDbLine
 62
7
  6
CONTINUOUS
 10
109.2603338657
 20
332.8960565841
 11
109.7300367988
 21
333.0848466794
  0
LINE
  5
239
100
AcDbEntity
  8
0
100
AcDbLine
 62
7
  6
CONTINUOUS
 10
111.4324338268
 20
331.9963433214
 11
111.3962178298
 21
331.4363236222
  0
LINE
  5
23A
100
AcDbEntity
  8
0
100
AcDbLine
 62
7
  6
CONTINUOUS
 10
117.7874185041
 20
337.4143150175
 11
117.68343552
 21
336.690691339
  0
LINE
  5
23B
100
AcDbEntity
  8
0
100
AcDbLine
 62
7
  6
CONTINUOUS
 10
118.6859430953
 20
336.2754391049
 11
118.8576926641
 21
337.1626658326
  0
LINE
  5
23C
100
AcDbEntity
  8
0
100
AcDbLine
 62
7
  6
CONTINUOUS
 10
121.9387522704
 20
344.1284151312
 11
122.110502227
 21
345.0156427951
  0
LINE
  5
23D
100
AcDbEntity
  8
0
100
AcDbLine
 62
7
  6
CONTINUOUS
 10
164.8218959965
 20
381.2754732971
 11
165.8843959965
 21
382.5414310997
  0
LINE
  5
23E
100
AcDbEntity
  8
0
100
AcDbLine
 62
7
  6
CONTINUOUS
 10
116.36431449
 20
333.9786380059
 11
117.3037200268
 21
334.3562172361
  0
LINE
  5
23F
100
AcDbEntity
  8
B-ACHSEN
100
AcDbLine
 62
7
  6
CONTINUOUS
 10
199.1916879811
 20
207.7382394378
 11
157.1916879811
 21
207.7382394378
  0
LINE
  5
240
100
AcDbEntity
  8
RUNDUNGEN
100
AcDbLine
 62
7
  6
CONTINUOUS
 10
114.458853072
 20
247.326587604
 11
91.0206542349
 21
303.9114051142
  0
LINE
  5
241
100
AcDbEntity
  8
0
100
AcDbLine
 62
7
  6
CONTINUOUS
 10
112.3356236959
 20
331.8139038127
 11
112.2725219097
 21
332.6067357207
  0
LINE
  5
242
100
AcDbEntity
  8
0
100
AcDbLine
 62
7
  6
CONTINUOUS
 10
121.0402272915
 20
345.2672901077
 11
120.9362446951
 21
344.5436673653
  0
LINE
  5
243
100
AcDbEntity
  8
0
100
AcDbLine
 62
7
  6
CONTINUOUS
 10
173.6760623254
 20
377.4776011561
 11
173.3218959965
 21
376.9350479026
  0
LINE
  5
244
100
AcDbEntity
  8
0
100
AcDbLine
 62
7
  6
CONTINUOUS
 10
173.8531459965
 20
376.2116436702
 11
174.3843959965
 21
376.9350479026
  0
LINE
  5
245
100
AcDbEntity
  8
0
100
AcDbLine
 62
7
  6
CONTINUOUS
 10
118.8576926641
 20
337.1626658326
 11
118.794591028
 21
337.9554982269
  0
LINE
  5
246
100
AcDbEntity
  8
0
100
AcDbLine
 62
7
  6
CONTINUOUS
 10
122.110502227
 20
345.0156427951
 11
122.0474002031
 21
345.8084742532
  0
LINE
  5
247
100
AcDbEntity
  8
B-ACHSEN
100
AcDbLine
 62
7
  6
CONTINUOUS
 10
128.1916879811
 20
221.7382394378
 11
128.1916879811
 21
232.9781565299
  0
LINE
  5
248
100
AcDbEntity
  8
B-ACHSEN
100
AcDbLine
 62
7
  6
CONTINUOUS
 10
128.1916879811
 20
221.7382394378
 11
228.1916879811
 21
221.7382394378
  0
LINE
  5
249
100
AcDbEntity
  8
0
100
AcDbLine
 62
7
  6
CONTINUOUS
 10
216.7237097904
 20
226.7382394378
 11
182.191687981
 21
226.7382394378
  0
LINE
  5
24A
100
AcDbEntity
  8
0
100
AcDbLine
 62
7
  6
CONTINUOUS
 10
174.1916879811
 20
226.7382394378
 11
139.6596661717
 21
226.7382394378
  0
LINE
  5
24B
100
AcDbEntity
  8
0
100
AcDbLine
 62
7
  6
CONTINUOUS
 10
151.8363138076
 20
230.6478139008
 11
152.5292907567
 21
230.4882394378
  0
LINE
  5
24C
100
AcDbEntity
  8
0
100
AcDbLine
 62
7
  6
CONTINUOUS
 10
152.5292907567
 20
231.445686244
 11
151.9749095146
 21
231.605260693
  0
LINE
  5
24D
100
AcDbEntity
  8
0
100
AcDbLine
 62
7
  6
CONTINUOUS
 10
152.5398898056
 20
231.482508642
 11
152.1134340986
 21
231.605260693
  0
LINE
  5
24E
100
AcDbEntity
  8
0
100
AcDbLine
 62
7
  6
CONTINUOUS
 10
152.2521001357
 20
233.9988777642
 11
152.8064821707
 21
233.8393033152
  0
LINE
  5
24F
100
AcDbEntity
  8
0
100
AcDbLine
 62
7
  6
CONTINUOUS
 10
153.6380548268
 20
233.8393033152
 11
154.1924360689
 21
233.6797288661
  0
LINE
  5
250
100
AcDbEntity
  8
0
100
AcDbLine
 62
7
  6
CONTINUOUS
 10
152.8064821707
 20
234.7967500095
 11
152.3906958427
 21
234.9563244586
  0
LINE
  5
251
100
AcDbEntity
  8
0
100
AcDbLine
 62
7
  6
CONTINUOUS
 10
152.9450067547
 20
234.7967500095
 11
152.5292204267
 21
234.9563244586
  0
LINE
  5
252
100
AcDbEntity
  8
0
100
AcDbLine
 62
7
  6
CONTINUOUS
 10
147.6784505271
 20
237.1903671925
 11
148.0942368551
 21
237.0307927434
  0
LINE
  5
253
100
AcDbEntity
  8
0
100
AcDbLine
 62
7
  6
CONTINUOUS
 10
151.6977181006
 20
234.3180266623
 11
152.2521001357
 21
233.9988777642
  0
LINE
  5
254
100
AcDbEntity
  8
0
100
AcDbLine
 62
7
  6
CONTINUOUS
 10
154.885413811
 20
234.3180266623
 11
154.3310317759
 21
234.6371755605
  0
LINE
  5
255
100
AcDbEntity
  8
0
100
AcDbLine
 62
7
  6
CONTINUOUS
 10
155.023938395
 20
234.3180266623
 11
154.4695563599
 21
234.6371755605
  0
LINE
  5
256
100
AcDbEntity
  8
0
100
AcDbLine
 62
7
  6
CONTINUOUS
 10
151.1433368585
 20
231.1265372899
 11
151.8363138076
 21
230.6478139008
  0
LINE
  5
257
100
AcDbEntity
  8
0
100
AcDbLine
 62
7
  6
CONTINUOUS
 10
152.3906958427
 20
234.9563244586
 11
151.9749095146
 21
235.2754733567
  0
LINE
  5
258
100
AcDbEntity
  8
0
100
AcDbLine
 62
7
  6
CONTINUOUS
 10
152.5292204267
 20
234.9563244586
 11
152.1134340986
 21
235.2754733567
  0
LINE
  5
259
100
AcDbEntity
  8
0
100
AcDbLine
 62
7
  6
CONTINUOUS
 10
154.1924360689
 20
233.6797288661
 11
154.6082223969
 21
233.360579968
  0
LINE
  5
25A
100
AcDbEntity
  8
0
100
AcDbLine
 62
7
  6
CONTINUOUS
 10
148.7872142007
 20
237.3499416416
 11
148.2328321656
 21
237.8286649888
  0
LINE
  5
25B
100
AcDbEntity
  8
0
100
AcDbLine
 62
7
  6
CONTINUOUS
 10
148.9257387847
 20
237.3499416416
 11
148.3713567496
 21
237.8286649888
  0
LINE
  5
25C
100
AcDbEntity
  8
0
100
AcDbLine
 62
7
  6
CONTINUOUS
 10
151.9749095146
 20
231.605260693
 11
151.5591231866
 21
232.083984152
  0
LINE
  5
25D
100
AcDbEntity
  8
0
100
AcDbLine
 62
7
  6
CONTINUOUS
 10
152.1134340986
 20
231.605260693
 11
151.6976477706
 21
232.083984152
  0
LINE
  5
25E
100
AcDbEntity
  8
0
100
AcDbLine
 62
7
  6
CONTINUOUS
 10
148.0942368551
 20
237.0307927434
 11
148.3714278727
 21
236.7116438453
  0
LINE
  5
25F
100
AcDbEntity
  8
0
100
AcDbLine
 62
7
  6
CONTINUOUS
 10
151.1433368585
 20
234.9563244586
 11
151.6977181006
 21
234.3180266623
  0
LINE
  5
260
100
AcDbEntity
  8
0
100
AcDbLine
 62
7
  6
CONTINUOUS
 10
139.6596662158
 20
226.7382394378
 11
139.6596662158
 21
241.7382394378
  0
LINE
  5
261
100
AcDbEntity
  8
0
100
AcDbLine
 62
7
  6
CONTINUOUS
 10
174.3843959965
 20
376.9350479026
 11
174.7385623254
 21
377.8393032407
  0
LINE
  5
262
100
AcDbEntity
  8
0
100
AcDbLine
 62
7
  6
CONTINUOUS
 10
184.8323133387
 20
383.0839842265
 11
181.2906459965
 21
375.4882394378
  0
LINE
  5
263
100
AcDbEntity
  8
0
100
AcDbLine
 62
7
  6
CONTINUOUS
 10
177.2177296676
 20
376.3924947758
 11
176.1552296676
 21
374.4031330575
  0
LINE
  5
264
100
AcDbEntity
  8
0
100
AcDbLine
 62
7
  6
CONTINUOUS
 10
177.0406459965
 20
374.4031330575
 11
178.1031459965
 21
376.3924947758
  0
LINE
  5
265
100
AcDbEntity
  8
0
100
AcDbLine
 62
7
  6
CONTINUOUS
 10
205.8637183313
 20
237.0307927434
 11
206.5566960734
 21
237.1903671925
  0
LINE
  5
266
100
AcDbEntity
  8
0
100
AcDbLine
 62
7
  6
CONTINUOUS
 10
153.7765794108
 20
230.4882394378
 11
154.4695563599
 21
230.6478139008
  0
LINE
  5
267
100
AcDbEntity
  8
0
100
AcDbLine
 62
7
  6
CONTINUOUS
 10
153.6380548268
 20
230.4882394378
 11
154.3310317759
 21
230.6478139008
  0
LINE
  5
268
100
AcDbEntity
  8
0
100
AcDbLine
 62
7
  6
CONTINUOUS
 10
206.6952909874
 20
237.9882394378
 11
205.7251234173
 21
237.8286649888
  0
LINE
  5
269
100
AcDbEntity
  8
0
100
AcDbLine
 62
7
  6
CONTINUOUS
 10
142.2732282624
 20
230.4882394378
 11
143.2433255025
 21
230.4882394378
  0
LINE
  5
26A
100
AcDbEntity
  8
0
100
AcDbLine
 62
7
  6
CONTINUOUS
 10
144.2135643939
 20
230.4882394378
 11
145.183661634
 21
230.4882394378
  0
LINE
  5
26B
100
AcDbEntity
  8
0
100
AcDbLine
 62
7
  6
CONTINUOUS
 10
148.5100231832
 20
230.4882394378
 11
149.6187161303
 21
230.4882394378
  0
LINE
  5
26C
100
AcDbEntity
  8
0
100
AcDbLine
 62
7
  6
CONTINUOUS
 10
152.5292907567
 20
230.4882394378
 11
153.6380548268
 21
230.4882394378
  0
LINE
  5
26D
100
AcDbEntity
  8
0
100
AcDbLine
 62
7
  6
CONTINUOUS
 10
159.8748489546
 20
230.4882394378
 11
165.0028094752
 21
230.4882394378
  0
LINE
  5
26E
100
AcDbEntity
  8
0
100
AcDbLine
 62
7
  6
CONTINUOUS
 10
168.1905755156
 20
230.4882394378
 11
169.1606743418
 21
230.4882394378
  0
LINE
  5
26F
100
AcDbEntity
  8
0
100
AcDbLine
 62
7
  6
CONTINUOUS
 10
189.7867183674
 20
230.4882394378
 11
190.7568156074
 21
230.4882394378
  0
LINE
  5
270
100
AcDbEntity
  8
0
100
AcDbLine
 62
7
  6
CONTINUOUS
 10
192.558627155
 20
230.4882394378
 11
193.8059152143
 21
230.4882394378
  0
LINE
  5
271
100
AcDbEntity
  8
0
100
AcDbLine
 62
7
  6
CONTINUOUS
 10
195.6077269601
 20
230.4882394378
 11
196.5778242002
 21
230.4882394378
  0
LINE
  5
272
100
AcDbEntity
  8
0
100
AcDbLine
 62
7
  6
CONTINUOUS
 10
200.8743535177
 20
230.4882394378
 11
201.8444507578
 21
230.4882394378
  0
LINE
  5
273
100
AcDbEntity
  8
0
100
AcDbLine
 62
7
  6
CONTINUOUS
 10
204.2006449352
 20
230.4882394378
 11
209.3286054558
 21
230.4882394378
  0
LINE
  5
274
100
AcDbEntity
  8
0
100
AcDbLine
 62
7
  6
CONTINUOUS
 10
154.4695563599
 20
230.6478139008
 11
154.3310317759
 21
230.6478139008
  0
LINE
  5
275
100
AcDbEntity
  8
0
100
AcDbLine
 62
7
  6
CONTINUOUS
 10
155.023938395
 20
230.9669628409
 11
154.885413811
 21
230.9669628409
  0
LINE
  5
276
100
AcDbEntity
  8
0
100
AcDbLine
 62
7
  6
CONTINUOUS
 10
209.3286054558
 20
231.2861117949
 11
205.4479320032
 21
231.2861117949
  0
LINE
  5
277
100
AcDbEntity
  8
0
100
AcDbLine
 62
7
  6
CONTINUOUS
 10
204.2006449352
 20
231.2861117949
 11
204.3391695192
 21
231.2861117949
  0
LINE
  5
278
100
AcDbEntity
  8
0
100
AcDbLine
 62
7
  6
CONTINUOUS
 10
165.0028094752
 20
231.445686244
 11
160.7064216107
 21
231.445686244
  0
LINE
  5
279
100
AcDbEntity
  8
0
100
AcDbLine
 62
7
  6
CONTINUOUS
 10
153.6380548268
 20
231.445686244
 11
152.5292907567
 21
231.445686244
  0
LINE
  5
27A
100
AcDbEntity
  8
0
100
AcDbLine
 62
7
  6
CONTINUOUS
 10
155.578319637
 20
231.605260693
 11
155.439795053
 21
231.605260693
  0
LINE
  5
27B
100
AcDbEntity
  8
0
100
AcDbLine
 62
7
  6
CONTINUOUS
 10
152.1134340986
 20
231.605260693
 11
151.9749095146
 21
231.605260693
  0
LINE
  5
27C
100
AcDbEntity
  8
0
100
AcDbLine
 62
7
  6
CONTINUOUS
 10
151.6976477706
 20
232.083984152
 11
151.5591231866
 21
232.083984152
  0
LINE
  5
27D
100
AcDbEntity
  8
0
100
AcDbLine
 62
7
  6
CONTINUOUS
 10
155.855510258
 20
232.243558601
 11
155.7169856741
 21
232.243558601
  0
LINE
  5
27E
100
AcDbEntity
  8
0
100
AcDbLine
 62
7
  6
CONTINUOUS
 10
151.5590520635
 20
232.5627074991
 11
150.5889548234
 21
232.5627074991
  0
LINE
  5
27F
100
AcDbEntity
  8
0
100
AcDbLine
 62
7
  6
CONTINUOUS
 10
197.5480628933
 20
232.7222819482
 11
201.0128781017
 21
232.7222819482
  0
LINE
  5
280
100
AcDbEntity
  8
0
100
AcDbLine
 62
7
  6
CONTINUOUS
 10
201.8444507578
 20
232.7222819482
 11
203.230405449
 21
232.7222819482
  0
LINE
  5
281
100
AcDbEntity
  8
0
100
AcDbLine
 62
7
  6
CONTINUOUS
 10
155.855510258
 20
233.0414308463
 11
155.7169856741
 21
233.0414308463
  0
LINE
  5
282
100
AcDbEntity
  8
0
100
AcDbLine
 62
7
  6
CONTINUOUS
 10
156.8257497442
 20
233.2010052954
 11
158.9046110545
 21
233.2010052954
  0
LINE
  5
283
100
AcDbEntity
  8
0
100
AcDbLine
 62
7
  6
CONTINUOUS
 10
203.230405449
 20
233.6797288661
 11
201.8444507578
 21
233.6797288661
  0
LINE
  5
284
100
AcDbEntity
  8
0
100
AcDbLine
 62
7
  6
CONTINUOUS
 10
201.0128781017
 20
233.6797288661
 11
198.6567558404
 21
233.6797288661
  0
LINE
  5
285
100
AcDbEntity
  8
0
100
AcDbLine
 62
7
  6
CONTINUOUS
 10
155.578319637
 20
233.6797288661
 11
155.439795053
 21
233.6797288661
  0
LINE
  5
286
100
AcDbEntity
  8
0
100
AcDbLine
 62
7
  6
CONTINUOUS
 10
197.5480628933
 20
233.6797288661
 11
197.6865874773
 21
233.6797288661
  0
LINE
  5
287
100
AcDbEntity
  8
0
100
AcDbLine
 62
7
  6
CONTINUOUS
 10
145.04513705
 20
233.8393033152
 11
147.4012595095
 21
233.8393033152
  0
LINE
  5
288
100
AcDbEntity
  8
0
100
AcDbLine
 62
7
  6
CONTINUOUS
 10
152.8064821707
 20
233.8393033152
 11
153.6380548268
 21
233.8393033152
  0
LINE
  5
289
100
AcDbEntity
  8
0
100
AcDbLine
 62
7
  6
CONTINUOUS
 10
158.9046110545
 20
233.9988777642
 11
156.8257497442
 21
233.9988777642
  0
LINE
  5
28A
100
AcDbEntity
  8
0
100
AcDbLine
 62
7
  6
CONTINUOUS
 10
148.3713567496
 20
234.1584522133
 11
148.2328321656
 21
234.1584522133
  0
LINE
  5
28B
100
AcDbEntity
  8
0
100
AcDbLine
 62
7
  6
CONTINUOUS
 10
155.023938395
 20
234.3180266623
 11
154.885413811
 21
234.3180266623
  0
LINE
  5
28C
100
AcDbEntity
  8
0
100
AcDbLine
 62
7
  6
CONTINUOUS
 10
148.9257387847
 20
234.4776011114
 11
148.7872142007
 21
234.4776011114
  0
LINE
  5
28D
100
AcDbEntity
  8
0
100
AcDbLine
 62
7
  6
CONTINUOUS
 10
154.4695563599
 20
234.6371755605
 11
154.3310317759
 21
234.6371755605
  0
LINE
  5
28E
100
AcDbEntity
  8
0
100
AcDbLine
 62
7
  6
CONTINUOUS
 10
153.6380548268
 20
234.7967500095
 11
152.8064821707
 21
234.7967500095
  0
LINE
  5
28F
100
AcDbEntity
  8
0
100
AcDbLine
 62
7
  6
CONTINUOUS
 10
147.6784505271
 20
234.7967500095
 11
145.04513705
 21
234.7967500095
  0
LINE
  5
290
100
AcDbEntity
  8
0
100
AcDbLine
 62
7
  6
CONTINUOUS
 10
152.5292204267
 20
234.9563244586
 11
152.3906958427
 21
234.9563244586
  0
LINE
  5
291
100
AcDbEntity
  8
0
100
AcDbLine
 62
7
  6
CONTINUOUS
 10
149.3415247162
 20
235.1158989077
 11
149.2030001323
 21
235.1158989077
  0
LINE
  5
292
100
AcDbEntity
  8
0
100
AcDbLine
 62
7
  6
CONTINUOUS
 10
152.1134340986
 20
235.2754733567
 11
151.9749095146
 21
235.2754733567
  0
LINE
  5
293
100
AcDbEntity
  8
0
100
AcDbLine
 62
7
  6
CONTINUOUS
 10
208.0813168017
 20
235.2754733567
 11
208.2198413856
 21
235.2754733567
  0
LINE
  5
294
100
AcDbEntity
  8
0
100
AcDbLine
 62
7
  6
CONTINUOUS
 10
149.4801204233
 20
235.5946222548
 11
149.3415958393
 21
235.5946222548
  0
LINE
  5
295
100
AcDbEntity
  8
0
100
AcDbLine
 62
7
  6
CONTINUOUS
 10
151.9748383916
 20
235.7541967039
 11
151.8363138076
 21
235.7541967039
  0
LINE
  5
296
100
AcDbEntity
  8
0
100
AcDbLine
 62
7
  6
CONTINUOUS
 10
208.3585082157
 20
235.913771153
 11
208.4970327997
 21
235.913771153
  0
LINE
  5
297
100
AcDbEntity
  8
0
100
AcDbLine
 62
7
  6
CONTINUOUS
 10
151.9748383916
 20
236.073345602
 11
151.8363138076
 21
236.073345602
  0
LINE
  5
298
100
AcDbEntity
  8
0
100
AcDbLine
 62
7
  6
CONTINUOUS
 10
149.4801204233
 20
236.2329204981
 11
149.3415958393
 21
236.2329204981
  0
LINE
  5
299
100
AcDbEntity
  8
0
100
AcDbLine
 62
7
  6
CONTINUOUS
 10
154.469627483
 20
236.2329204981
 11
155.439724723
 21
236.2329204981
  0
LINE
  5
29A
100
AcDbEntity
  8
0
100
AcDbLine
 62
7
  6
CONTINUOUS
 10
204.3392398492
 20
236.2329204981
 11
205.1707421753
 21
236.2329204981
  0
LINE
  5
29B
100
AcDbEntity
  8
0
100
AcDbLine
 62
7
  6
CONTINUOUS
 10
208.3585082157
 20
236.2329204981
 11
208.4970327997
 21
236.2329204981
  0
LINE
  5
29C
100
AcDbEntity
  8
0
100
AcDbLine
 62
7
  6
CONTINUOUS
 10
152.1134340986
 20
236.5520693963
 11
151.9749095146
 21
236.5520693963
  0
LINE
  5
29D
100
AcDbEntity
  8
0
100
AcDbLine
 62
7
  6
CONTINUOUS
 10
155.301129016
 20
236.7116438453
 11
155.162604432
 21
236.7116438453
  0
LINE
  5
29E
100
AcDbEntity
  8
0
100
AcDbLine
 62
7
  6
CONTINUOUS
 10
149.3415247162
 20
236.7116438453
 11
149.2030001323
 21
236.7116438453
  0
LINE
  5
29F
100
AcDbEntity
  8
0
100
AcDbLine
 62
7
  6
CONTINUOUS
 10
208.0813168017
 20
236.7116438453
 11
208.2198413856
 21
236.7116438453
  0
LINE
  5
2A0
100
AcDbEntity
  8
0
100
AcDbLine
 62
7
  6
CONTINUOUS
 10
152.5292204267
 20
236.8712182944
 11
152.3906958427
 21
236.8712182944
  0
LINE
  5
2A1
100
AcDbEntity
  8
0
100
AcDbLine
 62
7
  6
CONTINUOUS
 10
204.4778347632
 20
236.8712182944
 11
204.6163593471
 21
236.8712182944
  0
LINE
  5
2A2
100
AcDbEntity
  8
0
100
AcDbLine
 62
7
  6
CONTINUOUS
 10
152.8064821707
 20
237.0307927434
 11
153.6380548268
 21
237.0307927434
  0
LINE
  5
2A3
100
AcDbEntity
  8
0
100
AcDbLine
 62
7
  6
CONTINUOUS
 10
207.6655304736
 20
237.0307927434
 11
207.8040550576
 21
237.0307927434
  0
LINE
  5
2A4
100
AcDbEntity
  8
0
100
AcDbLine
 62
7
  6
CONTINUOUS
 10
145.04513705
 20
237.1903671925
 11
147.6784505271
 21
237.1903671925
  0
LINE
  5
2A5
100
AcDbEntity
  8
0
100
AcDbLine
 62
7
  6
CONTINUOUS
 10
165.9730489614
 20
237.1903671925
 11
168.1905755156
 21
237.1903671925
  0
LINE
  5
2A6
100
AcDbEntity
  8
0
100
AcDbLine
 62
7
  6
CONTINUOUS
 10
169.0221497578
 20
237.1903671925
 11
171.3781993099
 21
237.1903671925
  0
LINE
  5
2A7
100
AcDbEntity
  8
0
100
AcDbLine
 62
7
  6
CONTINUOUS
 10
206.5566960734
 20
237.1903671925
 11
207.1110773155
 21
237.1903671925
  0
LINE
  5
2A8
100
AcDbEntity
  8
0
100
AcDbLine
 62
7
  6
CONTINUOUS
 10
154.8853426879
 20
237.3499416416
 11
154.746818104
 21
237.3499416416
  0
LINE
  5
2A9
100
AcDbEntity
  8
0
100
AcDbLine
 62
7
  6
CONTINUOUS
 10
148.9257387847
 20
237.3499416416
 11
148.7872142007
 21
237.3499416416
  0
LINE
  5
2AA
100
AcDbEntity
  8
0
100
AcDbLine
 62
7
  6
CONTINUOUS
 10
205.0322175913
 20
237.5095160906
 11
205.1707421753
 21
237.5095160906
  0
LINE
  5
2AB
100
AcDbEntity
  8
0
100
AcDbLine
 62
7
  6
CONTINUOUS
 10
154.3309606529
 20
237.8286649888
 11
154.1924360689
 21
237.8286649888
  0
LINE
  5
2AC
100
AcDbEntity
  8
0
100
AcDbLine
 62
7
  6
CONTINUOUS
 10
148.3713567496
 20
237.8286649888
 11
148.2328321656
 21
237.8286649888
  0
LINE
  5
2AD
100
AcDbEntity
  8
0
100
AcDbLine
 62
7
  6
CONTINUOUS
 10
205.5865988333
 20
237.8286649888
 11
205.7251234173
 21
237.8286649888
  0
LINE
  5
2AE
100
AcDbEntity
  8
0
100
AcDbLine
 62
7
  6
CONTINUOUS
 10
207.2496738155
 20
237.9882394378
 11
206.6952909874
 21
237.9882394378
  0
LINE
  5
2AF
100
AcDbEntity
  8
0
100
AcDbLine
 62
7
  6
CONTINUOUS
 10
171.3781993099
 20
237.9882394378
 11
165.9730489614
 21
237.9882394378
  0
LINE
  5
2B0
100
AcDbEntity
  8
0
100
AcDbLine
 62
7
  6
CONTINUOUS
 10
160.8449461947
 20
237.9882394378
 11
159.8748489546
 21
237.9882394378
  0
LINE
  5
2B1
100
AcDbEntity
  8
0
100
AcDbLine
 62
7
  6
CONTINUOUS
 10
153.4994591198
 20
237.9882394378
 11
152.8064821707
 21
237.9882394378
  0
LINE
  5
2B2
100
AcDbEntity
  8
0
100
AcDbLine
 62
7
  6
CONTINUOUS
 10
147.5398552166
 20
237.9882394378
 11
144.2135643939
 21
237.9882394378
  0
LINE
  5
2B3
100
AcDbEntity
  8
0
100
AcDbLine
 62
7
  6
CONTINUOUS
 10
143.2433255025
 20
237.9882394378
 11
142.2732282624
 21
237.9882394378
  0
LINE
  5
2B4
100
AcDbEntity
  8
0
100
AcDbLine
 62
7
  6
CONTINUOUS
 10
189.7867183674
 20
237.9882394378
 11
191.1726019355
 21
237.9882394378
  0
LINE
  5
2B5
100
AcDbEntity
  8
0
100
AcDbLine
 62
7
  6
CONTINUOUS
 10
195.191940632
 20
237.9882394378
 11
196.5778242002
 21
237.9882394378
  0
LINE
  5
2B6
100
AcDbEntity
  8
0
100
AcDbLine
 62
7
  6
CONTINUOUS
 10
200.8743535177
 20
237.9882394378
 11
201.8444507578
 21
237.9882394378
  0
LINE
  5
2B7
100
AcDbEntity
  8
0
100
AcDbLine
 62
7
  6
CONTINUOUS
 10
154.3310317759
 20
234.6371755605
 11
153.6380548268
 21
234.7967500095
  0
LINE
  5
2B8
100
AcDbEntity
  8
0
100
AcDbLine
 62
7
  6
CONTINUOUS
 10
154.4695563599
 20
234.6371755605
 11
153.7765794108
 21
234.7967500095
  0
LINE
  5
2B9
100
AcDbEntity
  8
0
100
AcDbLine
 62
7
  6
CONTINUOUS
 10
148.2328321656
 20
237.8286649888
 11
147.5398552166
 21
237.9882394378
  0
LINE
  5
2BA
100
AcDbEntity
  8
0
100
AcDbLine
 62
7
  6
CONTINUOUS
 10
148.3713567496
 20
237.8286649888
 11
147.6783798005
 21
237.9882394378
  0
LINE
  5
2BB
100
AcDbEntity
  8
0
100
AcDbLine
 62
7
  6
CONTINUOUS
 10
154.1924360689
 20
237.8286649888
 11
153.4994591198
 21
237.9882394378
  0
LINE
  5
2BC
100
AcDbEntity
  8
0
100
AcDbLine
 62
7
  6
CONTINUOUS
 10
154.3309606529
 20
237.8286649888
 11
153.6379837038
 21
237.9882394378
  0
LINE
  5
2BD
100
AcDbEntity
  8
0
100
AcDbLine
 62
7
  6
CONTINUOUS
 10
153.6380548268
 20
237.0307927434
 11
154.0538411549
 21
236.8712182944
  0
LINE
  5
2BE
100
AcDbEntity
  8
0
100
AcDbLine
 62
7
  6
CONTINUOUS
 10
154.746818104
 20
237.3499416416
 11
154.1924360689
 21
237.8286649888
  0
LINE
  5
2BF
100
AcDbEntity
  8
0
100
AcDbLine
 62
7
  6
CONTINUOUS
 10
154.8853426879
 20
237.3499416416
 11
154.3309606529
 21
237.8286649888
  0
LINE
  5
2C0
100
AcDbEntity
  8
0
100
AcDbLine
 62
7
  6
CONTINUOUS
 10
155.439795053
 20
233.6797288661
 11
154.885413811
 21
234.3180266623
  0
LINE
  5
2C1
100
AcDbEntity
  8
0
100
AcDbLine
 62
7
  6
CONTINUOUS
 10
155.578319637
 20
233.6797288661
 11
155.023938395
 21
234.3180266623
  0
LINE
  5
2C2
100
AcDbEntity
  8
0
100
AcDbLine
 62
7
  6
CONTINUOUS
 10
154.0538411549
 20
236.8712182944
 11
154.3310317759
 21
236.5520693963
  0
LINE
  5
2C3
100
AcDbEntity
  8
0
100
AcDbLine
 62
7
  6
CONTINUOUS
 10
149.2030001323
 20
236.7116438453
 11
148.7872142007
 21
237.3499416416
  0
LINE
  5
2C4
100
AcDbEntity
  8
0
100
AcDbLine
 62
7
  6
CONTINUOUS
 10
149.3415247162
 20
236.7116438453
 11
148.9257387847
 21
237.3499416416
  0
LINE
  5
2C5
100
AcDbEntity
  8
0
100
AcDbLine
 62
7
  6
CONTINUOUS
 10
155.162604432
 20
236.7116438453
 11
154.746818104
 21
237.3499416416
  0
LINE
  5
2C6
100
AcDbEntity
  8
0
100
AcDbLine
 62
7
  6
CONTINUOUS
 10
155.301129016
 20
236.7116438453
 11
154.8853426879
 21
237.3499416416
  0
LINE
  5
2C7
100
AcDbEntity
  8
0
100
AcDbLine
 62
7
  6
CONTINUOUS
 10
154.6082223969
 20
233.360579968
 11
154.885413811
 21
232.8818563973
  0
LINE
  5
2C8
100
AcDbEntity
  8
0
100
AcDbLine
 62
7
  6
CONTINUOUS
 10
150.7275505305
 20
231.9244097029
 11
151.1433368585
 21
231.1265372899
  0
LINE
  5
2C9
100
AcDbEntity
  8
0
100
AcDbLine
 62
7
  6
CONTINUOUS
 10
155.7169856741
 20
233.0414308463
 11
155.439795053
 21
233.6797288661
  0
LINE
  5
2CA
100
AcDbEntity
  8
0
100
AcDbLine
 62
7
  6
CONTINUOUS
 10
155.855510258
 20
233.0414308463
 11
155.578319637
 21
233.6797288661
  0
LINE
  5
2CB
100
AcDbEntity
  8
0
100
AcDbLine
 62
7
  6
CONTINUOUS
 10
154.3310317759
 20
236.5520693963
 11
154.469627483
 21
236.2329204981
  0
LINE
  5
2CC
100
AcDbEntity
  8
0
100
AcDbLine
 62
7
  6
CONTINUOUS
 10
111.2337984543
 20
332.4619682071
 11
111.4324338268
 21
331.9963433214
  0
LINE
  5
2CD
100
AcDbEntity
  8
0
100
AcDbLine
 62
7
  6
CONTINUOUS
 10
149.4801915463
 20
230.4882394378
 11
148.2328321656
 21
234.1584522133
  0
LINE
  5
2CE
100
AcDbEntity
  8
0
100
AcDbLine
 62
7
  6
CONTINUOUS
 10
149.6187161303
 20
230.4882394378
 11
148.3713567496
 21
234.1584522133
  0
LINE
  5
2CF
100
AcDbEntity
  8
0
100
AcDbLine
 62
7
  6
CONTINUOUS
 10
147.4012595095
 20
233.8393033152
 11
148.5100231832
 21
230.4882394378
  0
LINE
  5
2D0
100
AcDbEntity
  8
0
100
AcDbLine
 62
7
  6
CONTINUOUS
 10
148.3714278727
 20
236.7116438453
 11
148.5100231832
 21
236.2329204981
  0
LINE
  5
2D1
100
AcDbEntity
  8
0
100
AcDbLine
 62
7
  6
CONTINUOUS
 10
149.3415958393
 20
236.2329204981
 11
149.2030001323
 21
236.7116438453
  0
LINE
  5
2D2
100
AcDbEntity
  8
0
100
AcDbLine
 62
7
  6
CONTINUOUS
 10
149.4801204233
 20
236.2329204981
 11
149.3415247162
 21
236.7116438453
  0
LINE
  5
2D3
100
AcDbEntity
  8
0
100
AcDbLine
 62
7
  6
CONTINUOUS
 10
151.5591231866
 20
232.083984152
 11
151.4205274796
 21
232.5627074991
  0
LINE
  5
2D4
100
AcDbEntity
  8
0
100
AcDbLine
 62
7
  6
CONTINUOUS
 10
117.6565498078
 20
338.0435434628
 11
117.7874185041
 21
337.4143150175
  0
LINE
  5
2D5
100
AcDbEntity
  8
0
100
AcDbLine
 62
7
  6
CONTINUOUS
 10
120.9093585951
 20
345.896518553
 11
121.0402272915
 21
345.2672901077
  0
LINE
  5
2D6
100
AcDbEntity
  8
0
100
AcDbLine
 62
7
  6
CONTINUOUS
 10
142.2732282624
 20
237.9882394378
 11
142.2732282624
 21
230.4882394378
  0
LINE
  5
2D7
100
AcDbEntity
  8
0
100
AcDbLine
 62
7
  6
CONTINUOUS
 10
143.1048009185
 20
230.4882394378
 11
143.1048009185
 21
237.9882394378
  0
LINE
  5
2D8
100
AcDbEntity
  8
0
100
AcDbLine
 62
7
  6
CONTINUOUS
 10
143.2433255025
 20
230.4882394378
 11
143.2433255025
 21
237.9882394378
  0
LINE
  5
2D9
100
AcDbEntity
  8
0
100
AcDbLine
 62
7
  6
CONTINUOUS
 10
144.2135643939
 20
237.9882394378
 11
144.2135643939
 21
230.4882394378
  0
LINE
  5
2DA
100
AcDbEntity
  8
0
100
AcDbLine
 62
7
  6
CONTINUOUS
 10
145.04513705
 20
230.4882394378
 11
145.04513705
 21
233.8393033152
  0
LINE
  5
2DB
100
AcDbEntity
  8
0
100
AcDbLine
 62
7
  6
CONTINUOUS
 10
145.04513705
 20
234.7967500095
 11
145.04513705
 21
237.1903671925
  0
LINE
  5
2DC
100
AcDbEntity
  8
0
100
AcDbLine
 62
7
  6
CONTINUOUS
 10
145.183661634
 20
230.4882394378
 11
145.183661634
 21
233.8393033152
  0
LINE
  5
2DD
100
AcDbEntity
  8
0
100
AcDbLine
 62
7
  6
CONTINUOUS
 10
145.183661634
 20
234.7967500095
 11
145.183661634
 21
237.1903671925
  0
LINE
  5
2DE
100
AcDbEntity
  8
0
100
AcDbLine
 62
7
  6
CONTINUOUS
 10
148.5100231832
 20
236.2329204981
 11
148.5100231832
 21
235.7541967039
  0
LINE
  5
2DF
100
AcDbEntity
  8
0
100
AcDbLine
 62
7
  6
CONTINUOUS
 10
149.3415958393
 20
235.5946222548
 11
149.3415958393
 21
236.2329204981
  0
LINE
  5
2E0
100
AcDbEntity
  8
0
100
AcDbLine
 62
7
  6
CONTINUOUS
 10
149.4801204233
 20
235.5946222548
 11
149.4801204233
 21
236.2329204981
  0
LINE
  5
2E1
100
AcDbEntity
  8
0
100
AcDbLine
 62
7
  6
CONTINUOUS
 10
173.8531459965
 20
378.0201542829
 11
173.6760623254
 21
377.4776011561
  0
LINE
  5
2E2
100
AcDbEntity
  8
0
100
AcDbLine
 62
7
  6
CONTINUOUS
 10
182.3531459965
 20
375.4882394378
 11
185.8948133387
 21
383.0839842265
  0
LINE
  5
2E3
100
AcDbEntity
  8
0
100
AcDbLine
 62
7
  6
CONTINUOUS
 10
139.6596661717
 20
241.7382394378
 11
174.1916879811
 21
241.7382394378
  0
LINE
  5
2E4
100
AcDbEntity
  8
0
100
AcDbLine
 62
7
  6
CONTINUOUS
 10
182.191687981
 20
241.7382394378
 11
216.7237097904
 21
241.7382394378
  0
LINE
  5
2E5
100
AcDbEntity
  8
RUNDUNGEN
100
AcDbLine
 62
7
  6
CONTINUOUS
 10
238.2790563373
 20
244.9781565299
 11
236.9228471189
 21
244.9781565299
  0
LINE
  5
2E6
100
AcDbEntity
  8
RUNDUNGEN
100
AcDbLine
 62
7
  6
CONTINUOUS
 10
119.4605288432
 20
244.9781565299
 11
118.1043196249
 21
244.9781565299
  0
LINE
  5
2E7
100
AcDbEntity
  8
0
100
AcDbLine
 62
7
  6
CONTINUOUS
 10
208.0812464716
 20
237.8286649888
 11
207.2496738155
 21
237.9882394378
  0
LINE
  5
2E8
100
AcDbEntity
  8
0
100
AcDbLine
 62
7
  6
CONTINUOUS
 10
207.104101806
 20
237.1600749193
 11
207.6655304736
 21
237.0307927434
  0
LINE
  5
2E9
100
AcDbEntity
  8
0
100
AcDbLine
 62
7
  6
CONTINUOUS
 10
207.1110773155
 20
237.1903671925
 11
207.8040550576
 21
237.0307927434
  0
LINE
  5
2EA
100
AcDbEntity
  8
B-ACHSEN
100
AcDbLine
 62
7
  6
CONTINUOUS
 10
196.5774744187
 20
210.3524530002
 11
199.1916879811
 21
207.7382394378
  0
LINE
  5
2EB
100
AcDbEntity
  8
0
100
AcDbLine
 62
7
  6
CONTINUOUS
 10
118.794591028
 20
337.9554982269
 11
118.3973202245
 21
338.8867480224
  0
LINE
  5
2EC
100
AcDbEntity
  8
0
100
AcDbLine
 62
7
  6
CONTINUOUS
 10
151.6976477706
 20
232.083984152
 11
151.5590520635
 21
232.5627074991
  0
LINE
  5
2ED
100
AcDbEntity
  8
0
100
AcDbLine
 62
7
  6
CONTINUOUS
 10
151.9749095146
 20
235.2754733567
 11
151.8363138076
 21
235.7541967039
  0
LINE
  5
2EE
100
AcDbEntity
  8
0
100
AcDbLine
 62
7
  6
CONTINUOUS
 10
152.1134340986
 20
235.2754733567
 11
151.9748383916
 21
235.7541967039
  0
LINE
  5
2EF
100
AcDbEntity
  8
0
100
AcDbLine
 62
7
  6
CONTINUOUS
 10
155.3012001391
 20
236.2329204981
 11
155.162604432
 21
236.7116438453
  0
LINE
  5
2F0
100
AcDbEntity
  8
0
100
AcDbLine
 62
7
  6
CONTINUOUS
 10
155.439724723
 20
236.2329204981
 11
155.301129016
 21
236.7116438453
  0
LINE
  5
2F1
100
AcDbEntity
  8
0
100
AcDbLine
 62
7
  6
CONTINUOUS
 10
150.5889548234
 20
232.5627074991
 11
150.7275505305
 21
231.9244097029
  0
LINE
  5
2F2
100
AcDbEntity
  8
0
100
AcDbLine
 62
7
  6
CONTINUOUS
 10
151.0047411515
 20
235.5946222548
 11
151.1433368585
 21
234.9563244586
  0
LINE
  5
2F3
100
AcDbEntity
  8
0
100
AcDbLine
 62
7
  6
CONTINUOUS
 10
151.0047411515
 20
236.2329204981
 11
151.0047411515
 21
235.5946222548
  0
LINE
  5
2F4
100
AcDbEntity
  8
0
100
AcDbLine
 62
7
  6
CONTINUOUS
 10
151.8363138076
 20
235.7541967039
 11
151.8363138076
 21
236.073345602
  0
LINE
  5
2F5
100
AcDbEntity
  8
0
100
AcDbLine
 62
7
  6
CONTINUOUS
 10
151.9748383916
 20
235.7541967039
 11
151.9748383916
 21
236.073345602
  0
LINE
  5
2F6
100
AcDbEntity
  8
0
100
AcDbLine
 62
7
  6
CONTINUOUS
 10
154.885413811
 20
232.8818563973
 11
154.885413811
 21
232.4031330501
  0
LINE
  5
2F7
100
AcDbEntity
  8
0
100
AcDbLine
 62
7
  6
CONTINUOUS
 10
155.7169856741
 20
232.243558601
 11
155.7169856741
 21
233.0414308463
  0
LINE
  5
2F8
100
AcDbEntity
  8
0
100
AcDbLine
 62
7
  6
CONTINUOUS
 10
155.855510258
 20
232.243558601
 11
155.855510258
 21
233.0414308463
  0
LINE
  5
2F9
100
AcDbEntity
  8
0
100
AcDbLine
 62
7
  6
CONTINUOUS
 10
156.8257497442
 20
233.9988777642
 11
156.8257497442
 21
233.2010052954
  0
LINE
  5
2FA
100
AcDbEntity
  8
B-ACHSEN
100
AcDbLine
 62
7
  6
CONTINUOUS
 10
157.1916879811
 20
207.7382394378
 11
157.1916879811
 21
162.7382394378
  0
LINE
  5
2FB
100
AcDbEntity
  8
0
100
AcDbLine
 62
7
  6
CONTINUOUS
 10
158.7660864705
 20
233.2010052954
 11
158.7660864705
 21
233.9988777642
  0
LINE
  5
2FC
100
AcDbEntity
  8
0
100
AcDbLine
 62
7
  6
CONTINUOUS
 10
158.9046110545
 20
233.2010052954
 11
158.9046110545
 21
233.9988777642
  0
LINE
  5
2FD
100
AcDbEntity
  8
0
100
AcDbLine
 62
7
  6
CONTINUOUS
 10
208.6356277137
 20
237.5095160906
 11
208.0812464716
 21
237.8286649888
  0
LINE
  5
2FE
100
AcDbEntity
  8
0
100
AcDbLine
 62
7
  6
CONTINUOUS
 10
112.2725219097
 20
332.6067357207
 11
111.8074841776
 21
333.3743815128
  0
LINE
  5
2FF
100
AcDbEntity
  8
0
100
AcDbLine
 62
7
  6
CONTINUOUS
 10
122.0474002031
 20
345.8084742532
 11
121.6501290118
 21
346.7397231126
  0
LINE
  5
300
100
AcDbEntity
  8
0
100
AcDbLine
 62
7
  6
CONTINUOUS
 10
159.8748489546
 20
237.9882394378
 11
159.8748489546
 21
230.4882394378
  0
LINE
  5
301
100
AcDbEntity
  8
B-ACHSEN
100
AcDbLine
 62
7
  6
CONTINUOUS
 10
160.3916879811
 20
221.7382394378
 11
160.3916879811
 21
211.7666665626
  0
LINE
  5
302
100
AcDbEntity
  8
0
100
AcDbLine
 62
7
  6
CONTINUOUS
 10
160.7064216107
 20
231.445686244
 11
160.7064216107
 21
237.9882394378
  0
LINE
  5
303
100
AcDbEntity
  8
0
100
AcDbLine
 62
7
  6
CONTINUOUS
 10
160.8449461947
 20
231.445686244
 11
160.8449461947
 21
237.9882394378
  0
LINE
  5
304
100
AcDbEntity
  8
0
100
AcDbLine
 62
7
  6
CONTINUOUS
 10
164.8218959965
 20
382.7222821419
 11
164.8218959965
 21
381.2754732971
  0
LINE
  5
305
100
AcDbEntity
  8
0
100
AcDbLine
 62
7
  6
CONTINUOUS
 10
164.8642848912
 20
230.4882394378
 11
164.8642848912
 21
231.445686244
  0
LINE
  5
306
100
AcDbEntity
  8
0
100
AcDbLine
 62
7
  6
CONTINUOUS
 10
165.0028094752
 20
230.4882394378
 11
165.0028094752
 21
231.445686244
  0
LINE
  5
307
100
AcDbEntity
  8
0
100
AcDbLine
 62
7
  6
CONTINUOUS
 10
165.8843959965
 20
382.5414310997
 11
165.8843959965
 21
375.4882394378
  0
LINE
  5
308
100
AcDbEntity
  8
0
100
AcDbLine
 62
7
  6
CONTINUOUS
 10
165.9730489614
 20
237.9882394378
 11
165.9730489614
 21
237.1903671925
  0
LINE
  5
309
100
AcDbEntity
  8
0
100
AcDbLine
 62
7
  6
CONTINUOUS
 10
166.9468959965
 20
375.4882394378
 11
166.9468959965
 21
383.9882394378
  0
LINE
  5
30A
100
AcDbEntity
  8
0
100
AcDbLine
 62
7
  6
CONTINUOUS
 10
168.1905755156
 20
237.1903671925
 11
168.1905755156
 21
230.4882394378
  0
LINE
  5
30B
100
AcDbEntity
  8
0
100
AcDbLine
 62
7
  6
CONTINUOUS
 10
168.3635625787
 20
383.9882394378
 11
168.3635625787
 21
379.2861118321
  0
LINE
  5
30C
100
AcDbEntity
  8
0
100
AcDbLine
 62
7
  6
CONTINUOUS
 10
169.0221497578
 20
230.4882394378
 11
169.0221497578
 21
237.1903671925
  0
LINE
  5
30D
100
AcDbEntity
  8
0
100
AcDbLine
 62
7
  6
CONTINUOUS
 10
169.1606743418
 20
230.4882394378
 11
169.1606743418
 21
237.1903671925
  0
LINE
  5
30E
100
AcDbEntity
  8
0
100
AcDbLine
 62
7
  6
CONTINUOUS
 10
169.2489791609
 20
380.1903670435
 11
169.2489791609
 21
383.0839842265
  0
LINE
  5
30F
100
AcDbEntity
  8
0
100
AcDbLine
 62
7
  6
CONTINUOUS
 10
151.1433368585
 20
236.8712182944
 11
151.0047411515
 21
236.2329204981
  0
LINE
  5
310
100
AcDbEntity
  8
0
100
AcDbLine
 62
7
  6
CONTINUOUS
 10
148.5100231832
 20
235.7541967039
 11
148.3714278727
 21
235.2754733567
  0
LINE
  5
311
100
AcDbEntity
  8
0
100
AcDbLine
 62
7
  6
CONTINUOUS
 10
149.2030001323
 20
235.1158989077
 11
149.3415958393
 21
235.5946222548
  0
LINE
  5
312
100
AcDbEntity
  8
0
100
AcDbLine
 62
7
  6
CONTINUOUS
 10
149.3415247162
 20
235.1158989077
 11
149.4801204233
 21
235.5946222548
  0
LINE
  5
313
100
AcDbEntity
  8
0
100
AcDbLine
 62
7
  6
CONTINUOUS
 10
151.8363138076
 20
236.073345602
 11
151.9749095146
 21
236.5520693963
  0
LINE
  5
314
100
AcDbEntity
  8
0
100
AcDbLine
 62
7
  6
CONTINUOUS
 10
151.9748383916
 20
236.073345602
 11
152.1134340986
 21
236.5520693963
  0
LINE
  5
315
100
AcDbEntity
  8
0
100
AcDbLine
 62
7
  6
CONTINUOUS
 10
207.6655304736
 20
237.0307927434
 11
208.0813168017
 21
236.7116438453
  0
LINE
  5
316
100
AcDbEntity
  8
0
100
AcDbLine
 62
7
  6
CONTINUOUS
 10
207.8040550576
 20
237.0307927434
 11
208.2198413856
 21
236.7116438453
  0
LINE
  5
317
100
AcDbEntity
  8
0
100
AcDbLine
 62
7
  6
CONTINUOUS
 10
117.290829665
 20
338.578376578
 11
117.6565498078
 21
338.0435434628
  0
LINE
  5
318
100
AcDbEntity
  8
0
100
AcDbLine
 62
7
  6
CONTINUOUS
 10
171.239674726
 20
237.1903671925
 11
171.239674726
 21
237.9882394378
  0
LINE
  5
319
100
AcDbEntity
  8
0
100
AcDbLine
 62
7
  6
CONTINUOUS
 10
171.3781993099
 20
237.1903671925
 11
171.3781993099
 21
237.9882394378
  0
LINE
  5
31A
100
AcDbEntity
  8
0
100
AcDbLine
 62
7
  6
CONTINUOUS
 10
173.8531459965
 20
378.3818563675
 11
173.8531459965
 21
378.0201542829
  0
LINE
  5
31B
100
AcDbEntity
  8
0
100
AcDbLine
 62
7
  6
CONTINUOUS
 10
174.1916879811
 20
226.7382394378
 11
174.1916879811
 21
241.7382394378
  0
LINE
  5
31C
100
AcDbEntity
  8
0
100
AcDbLine
 62
7
  6
CONTINUOUS
 10
174.3843959965
 20
383.0839842265
 11
174.3843959965
 21
383.9882394378
  0
LINE
  5
31D
100
AcDbEntity
  8
0
100
AcDbLine
 62
7
  6
CONTINUOUS
 10
174.7385623254
 20
377.8393032407
 11
174.7385623254
 21
378.5627074097
  0
LINE
  5
31E
100
AcDbEntity
  8
B-ACHSEN
100
AcDbLine
 62
2
  6
CENTER
 10
178.1916879811
 20
307.7382394378
 11
178.1916879811
 21
152.9913139037
  0
LINE
  5
31F
100
AcDbEntity
  8
B-ACHSEN
100
AcDbLine
 62
2
  6
CENTER
 10
178.1916879811
 20
307.7382394378
 11
178.1916879811
 21
401.2995652853
  0
LINE
  5
320
100
AcDbEntity
  8
0
100
AcDbLine
 62
7
  6
CONTINUOUS
 10
155.439795053
 20
231.605260693
 11
155.7169856741
 21
232.243558601
  0
LINE
  5
321
100
AcDbEntity
  8
0
100
AcDbLine
 62
7
  6
CONTINUOUS
 10
155.578319637
 20
231.605260693
 11
155.855510258
 21
232.243558601
  0
LINE
  5
322
100
AcDbEntity
  8
0
100
AcDbLine
 62
7
  6
CONTINUOUS
 10
148.7872142007
 20
234.4776011114
 11
149.2030001323
 21
235.1158989077
  0
LINE
  5
323
100
AcDbEntity
  8
0
100
AcDbLine
 62
7
  6
CONTINUOUS
 10
148.9257387847
 20
234.4776011114
 11
149.3415247162
 21
235.1158989077
  0
LINE
  5
324
100
AcDbEntity
  8
0
100
AcDbLine
 62
7
  6
CONTINUOUS
 10
110.8003115184
 20
332.8331978111
 11
111.2337984543
 21
332.4619682071
  0
LINE
  5
325
100
AcDbEntity
  8
0
100
AcDbLine
 62
7
  6
CONTINUOUS
 10
111.8074841776
 20
333.3743815128
 11
111.3739972416
 21
333.7456111168
  0
LINE
  5
326
100
AcDbEntity
  8
0
100
AcDbLine
 62
7
  6
CONTINUOUS
 10
118.3973202245
 20
338.8867480224
 11
117.8645153883
 21
339.4907898837
  0
LINE
  5
327
100
AcDbEntity
  8
0
100
AcDbLine
 62
7
  6
CONTINUOUS
 10
209.1900089557
 20
236.8712182944
 11
208.6356277137
 21
237.5095160906
  0
LINE
  5
328
100
AcDbEntity
  8
0
100
AcDbLine
 62
7
  6
CONTINUOUS
 10
120.5436388401
 20
346.4313526043
 11
120.9093585951
 21
345.896518553
  0
LINE
  5
329
100
AcDbEntity
  8
0
100
AcDbLine
 62
7
  6
CONTINUOUS
 10
190.7568156074
 20
235.9709780127
 11
192.558627155
 21
230.4882394378
  0
LINE
  5
32A
100
AcDbEntity
  8
0
100
AcDbLine
 62
7
  6
CONTINUOUS
 10
190.7568156074
 20
236.3924949472
 11
192.6971517389
 21
230.4882394378
  0
LINE
  5
32B
100
AcDbEntity
  8
0
100
AcDbLine
 62
7
  6
CONTINUOUS
 10
193.2515335757
 20
231.2861117949
 11
191.1726019355
 21
237.9882394378
  0
LINE
  5
32C
100
AcDbEntity
  8
0
100
AcDbLine
 62
7
  6
CONTINUOUS
 10
179.5198123254
 20
383.9882394378
 11
179.5198123254
 21
383.0839842265
  0
LINE
  5
32D
100
AcDbEntity
  8
0
100
AcDbLine
 62
7
  6
CONTINUOUS
 10
182.1916879811
 20
226.7382394378
 11
182.1916879811
 21
241.7382394378
  0
LINE
  5
32E
100
AcDbEntity
  8
0
100
AcDbLine
 62
7
  6
CONTINUOUS
 10
185.8948133387
 20
383.0839842265
 11
185.8948133387
 21
383.9882394378
  0
LINE
  5
32F
100
AcDbEntity
  8
0
100
AcDbLine
 62
7
  6
CONTINUOUS
 10
187.3114786543
 20
381.2754732971
 11
187.3114786543
 21
380.552069128
  0
LINE
  5
330
100
AcDbEntity
  8
0
100
AcDbLine
 62
7
  6
CONTINUOUS
 10
188.7281459965
 20
382.7222821419
 11
188.7281459965
 21
381.2754732971
  0
LINE
  5
331
100
AcDbEntity
  8
0
100
AcDbLine
 62
7
  6
CONTINUOUS
 10
188.7281459965
 20
380.552069128
 11
188.7281459965
 21
376.9350479026
  0
LINE
  5
332
100
AcDbEntity
  8
0
100
AcDbLine
 62
7
  6
CONTINUOUS
 10
154.885413811
 20
232.4031330501
 11
154.6082223969
 21
231.9244097029
  0
LINE
  5
333
100
AcDbEntity
  8
0
100
AcDbLine
 62
7
  6
CONTINUOUS
 10
148.3714278727
 20
235.2754733567
 11
148.0942368551
 21
234.9563244586
  0
LINE
  5
334
100
AcDbEntity
  8
0
100
AcDbLine
 62
7
  6
CONTINUOUS
 10
151.6977181006
 20
237.5095160906
 11
151.1433368585
 21
236.8712182944
  0
LINE
  5
335
100
AcDbEntity
  8
0
100
AcDbLine
 62
7
  6
CONTINUOUS
 10
121.6501290118
 20
346.7397231126
 11
121.1173245634
 21
347.34376591
  0
LINE
  5
336
100
AcDbEntity
  8
0
100
AcDbLine
 62
7
  6
CONTINUOUS
 10
208.0813168017
 20
236.7116438453
 11
208.3585082157
 21
236.2329204981
  0
LINE
  5
337
100
AcDbEntity
  8
0
100
AcDbLine
 62
7
  6
CONTINUOUS
 10
208.2198413856
 20
236.7116438453
 11
208.4970327997
 21
236.2329204981
  0
LINE
  5
338
100
AcDbEntity
  8
0
100
AcDbLine
 62
7
  6
CONTINUOUS
 10
189.6135633387
 20
377.2967501138
 11
189.6135633387
 21
380.552069128
  0
LINE
  5
339
100
AcDbEntity
  8
0
100
AcDbLine
 62
7
  6
CONTINUOUS
 10
189.6135633387
 20
381.2754732971
 11
189.6135633387
 21
382.7222821419
  0
LINE
  5
33A
100
AcDbEntity
  8
0
100
AcDbLine
 62
7
  6
CONTINUOUS
 10
189.7867183674
 20
237.9882394378
 11
189.7867183674
 21
230.4882394378
  0
LINE
  5
33B
100
AcDbEntity
  8
0
100
AcDbLine
 62
7
  6
CONTINUOUS
 10
189.9252429513
 20
237.9882394378
 11
189.9252429513
 21
230.4882394378
  0
LINE
  5
33C
100
AcDbEntity
  8
0
100
AcDbLine
 62
7
  6
CONTINUOUS
 10
190.7568156074
 20
230.4882394378
 11
190.7568156074
 21
236.3924949472
  0
LINE
  5
33D
100
AcDbEntity
  8
0
100
AcDbLine
 62
7
  6
CONTINUOUS
 10
191.2073133387
 20
375.4882394378
 11
191.2073133387
 21
376.2116436702
  0
LINE
  5
33E
100
AcDbEntity
  8
0
100
AcDbLine
 62
7
  6
CONTINUOUS
 10
191.5614786543
 20
380.552069128
 11
191.5614786543
 21
381.2754732971
  0
LINE
  5
33F
100
AcDbEntity
  8
0
100
AcDbLine
 62
7
  6
CONTINUOUS
 10
195.6077269601
 20
235.9709780557
 11
195.6077269601
 21
230.4882394378
  0
LINE
  5
340
100
AcDbEntity
  8
0
100
AcDbLine
 62
7
  6
CONTINUOUS
 10
195.7462515441
 20
236.3924949472
 11
195.7462515441
 21
230.4882394378
  0
LINE
  5
341
100
AcDbEntity
  8
B-ACHSEN
100
AcDbLine
 62
7
  6
CONTINUOUS
 10
195.9916879811
 20
221.7382394378
 11
195.9916879811
 21
211.7666665626
  0
LINE
  5
342
100
AcDbEntity
  8
0
100
AcDbLine
 62
7
  6
CONTINUOUS
 10
196.5778242002
 20
230.4882394378
 11
196.5778242002
 21
237.9882394378
  0
LINE
  5
343
100
AcDbEntity
  8
0
100
AcDbLine
 62
7
  6
CONTINUOUS
 10
197.5480628933
 20
233.6797288661
 11
197.5480628933
 21
232.7222819482
  0
LINE
  5
344
100
AcDbEntity
  8
0
100
AcDbLine
 62
7
  6
CONTINUOUS
 10
197.6865874773
 20
233.6797288661
 11
197.6865874773
 21
232.7222819482
  0
LINE
  5
345
100
AcDbEntity
  8
0
100
AcDbLine
 62
7
  6
CONTINUOUS
 10
154.885413811
 20
230.9669628409
 11
155.439795053
 21
231.605260693
  0
LINE
  5
346
100
AcDbEntity
  8
0
100
AcDbLine
 62
7
  6
CONTINUOUS
 10
155.023938395
 20
230.9669628409
 11
155.578319637
 21
231.605260693
  0
LINE
  5
347
100
AcDbEntity
  8
0
100
AcDbLine
 62
7
  6
CONTINUOUS
 10
151.9749095146
 20
236.5520693963
 11
152.3906958427
 21
236.8712182944
  0
LINE
  5
348
100
AcDbEntity
  8
0
100
AcDbLine
 62
7
  6
CONTINUOUS
 10
152.1134340986
 20
236.5520693963
 11
152.5292204267
 21
236.8712182944
  0
LINE
  5
349
100
AcDbEntity
  8
0
100
AcDbLine
 62
7
  6
CONTINUOUS
 10
106.3603544532
 20
328.7304062437
 11
114.2133304796
 21
325.4775970686
  0
LINE
  5
34A
100
AcDbEntity
  8
0
100
AcDbLine
 62
7
  6
CONTINUOUS
 10
117.8645153883
 20
339.4907898837
 11
117.0968594934
 21
340.000437351
  0
LINE
  5
34B
100
AcDbEntity
  8
0
100
AcDbLine
 62
7
  6
CONTINUOUS
 10
116.6902583465
 20
339.0188153477
 11
117.290829665
 21
338.578376578
  0
LINE
  5
34C
100
AcDbEntity
  8
B-ACHSEN
100
AcDbLine
 62
7
  6
CONTINUOUS
 10
199.1916879811
 20
207.7382394378
 11
199.1916879811
 21
162.7382394378
  0
LINE
  5
34D
100
AcDbEntity
  8
0
100
AcDbLine
 62
7
  6
CONTINUOUS
 10
200.8743535177
 20
236.5333870681
 11
200.8743535177
 21
233.6797288661
  0
LINE
  5
34E
100
AcDbEntity
  8
0
100
AcDbLine
 62
7
  6
CONTINUOUS
 10
200.8743535177
 20
232.7222819482
 11
200.8743535177
 21
230.4882394378
  0
LINE
  5
34F
100
AcDbEntity
  8
0
100
AcDbLine
 62
7
  6
CONTINUOUS
 10
201.0128781017
 20
236.7116438453
 11
201.0128781017
 21
233.6797288661
  0
LINE
  5
350
100
AcDbEntity
  8
0
100
AcDbLine
 62
7
  6
CONTINUOUS
 10
201.0128781017
 20
232.7222819482
 11
201.0128781017
 21
230.4882394378
  0
LINE
  5
351
100
AcDbEntity
  8
0
100
AcDbLine
 62
7
  6
CONTINUOUS
 10
201.8444507578
 20
230.4882394378
 11
201.8444507578
 21
232.7222819482
  0
LINE
  5
352
100
AcDbEntity
  8
0
100
AcDbLine
 62
7
  6
CONTINUOUS
 10
201.8444507578
 20
233.6797288661
 11
201.8444507578
 21
237.9882394378
  0
LINE
  5
353
100
AcDbEntity
  8
0
100
AcDbLine
 62
7
  6
CONTINUOUS
 10
203.230405449
 20
232.7222819482
 11
203.230405449
 21
233.6797288661
  0
LINE
  5
354
100
AcDbEntity
  8
0
100
AcDbLine
 62
7
  6
CONTINUOUS
 10
204.2006449352
 20
231.2861117949
 11
204.2006449352
 21
230.4882394378
  0
LINE
  5
355
100
AcDbEntity
  8
0
100
AcDbLine
 62
7
  6
CONTINUOUS
 10
204.3391695192
 20
231.2861117949
 11
204.3391695192
 21
230.4882394378
  0
LINE
  5
356
100
AcDbEntity
  8
0
100
AcDbLine
 62
7
  6
CONTINUOUS
 10
208.3585082157
 20
236.2329204981
 11
208.3585082157
 21
235.913771153
  0
LINE
  5
357
100
AcDbEntity
  8
0
100
AcDbLine
 62
7
  6
CONTINUOUS
 10
208.4970327997
 20
236.2329204981
 11
208.4970327997
 21
235.913771153
  0
LINE
  5
358
100
AcDbEntity
  8
0
100
AcDbLine
 62
7
  6
CONTINUOUS
 10
195.191940632
 20
237.9882394378
 11
193.1822712838
 21
231.5094018313
  0
LINE
  5
359
100
AcDbEntity
  8
0
100
AcDbLine
 62
7
  6
CONTINUOUS
 10
195.330465216
 20
237.9882394378
 11
193.2515335757
 21
231.2861117949
  0
LINE
  5
35A
100
AcDbEntity
  8
0
100
AcDbLine
 62
7
  6
CONTINUOUS
 10
193.8059152143
 20
230.4882394378
 11
195.7462515441
 21
236.3924949472
  0
LINE
  5
35B
100
AcDbEntity
  8
0
100
AcDbLine
 62
7
  6
CONTINUOUS
 10
154.6082223969
 20
231.9244097029
 11
154.1924360689
 21
231.605260693
  0
LINE
  5
35C
100
AcDbEntity
  8
0
100
AcDbLine
 62
7
  6
CONTINUOUS
 10
152.2521001357
 20
237.8286649888
 11
151.6977181006
 21
237.5095160906
  0
LINE
  5
35D
100
AcDbEntity
  8
0
100
AcDbLine
 62
7
  6
CONTINUOUS
 10
148.2328321656
 20
234.1584522133
 11
148.7872142007
 21
234.4776011114
  0
LINE
  5
35E
100
AcDbEntity
  8
0
100
AcDbLine
 62
7
  6
CONTINUOUS
 10
148.3713567496
 20
234.1584522133
 11
148.9257387847
 21
234.4776011114
  0
LINE
  5
35F
100
AcDbEntity
  8
0
100
AcDbLine
 62
7
  6
CONTINUOUS
 10
154.3310317759
 20
230.6478139008
 11
154.885413811
 21
230.9669628409
  0
LINE
  5
360
100
AcDbEntity
  8
0
100
AcDbLine
 62
7
  6
CONTINUOUS
 10
154.4695563599
 20
230.6478139008
 11
155.023938395
 21
230.9669628409
  0
LINE
  5
361
100
AcDbEntity
  8
0
100
AcDbLine
 62
7
  6
CONTINUOUS
 10
152.3906958427
 20
236.8712182944
 11
152.8064821707
 21
237.0307927434
  0
LINE
  5
362
100
AcDbEntity
  8
0
100
AcDbLine
 62
7
  6
CONTINUOUS
 10
152.5292204267
 20
236.8712182944
 11
152.824266532
 21
236.9844539073
  0
LINE
  5
363
100
AcDbEntity
  8
0
100
AcDbLine
 62
7
  6
CONTINUOUS
 10
148.0942368551
 20
234.9563244586
 11
147.6784505271
 21
234.7967500095
  0
LINE
  5
364
100
AcDbEntity
  8
0
100
AcDbLine
 62
7
  6
CONTINUOUS
 10
152.8064821707
 20
237.9882394378
 11
152.2521001357
 21
237.8286649888
  0
LINE
  5
365
100
AcDbEntity
  8
B-ACHSEN
100
AcDbLine
 62
2
  6
CENTER
 10
178.1916879811
 20
307.7382394378
 11
82.6078619151
 21
307.7382394378
  0
LINE
  5
366
100
AcDbEntity
  8
B-ACHSEN
100
AcDbLine
 62
2
  6
CENTER
 10
178.1916879811
 20
307.7382394378
 11
273.2577055021
 21
307.7382394378
  0
LINE
  5
367
100
AcDbEntity
  8
0
100
AcDbLine
 62
7
  6
CONTINUOUS
 10
114.6199316265
 20
326.4592190719
 11
111.1111550543
 21
327.9126019155
  0
LINE
  5
368
100
AcDbEntity
  8
0
100
AcDbLine
 62
7
  6
CONTINUOUS
 10
110.1086475959
 20
328.3278541011
 11
107.6023784821
 21
329.365984759
  0
LINE
  5
369
100
AcDbEntity
  8
0
100
AcDbLine
 62
7
  6
CONTINUOUS
 10
110.2990573211
 20
333.0408240978
 11
110.8003115184
 21
332.8331978111
  0
LINE
  5
36A
100
AcDbEntity
  8
0
100
AcDbLine
 62
7
  6
CONTINUOUS
 10
111.3739972416
 20
333.7456111168
 11
110.705658468
 21
334.0224461011
  0
LINE
  5
36B
100
AcDbEntity
  8
0
100
AcDbLine
 62
7
  6
CONTINUOUS
 10
109.4776298481
 20
336.2561747796
 11
114.6572524182
 21
334.1107048631
  0
LINE
  5
36C
100
AcDbEntity
  8
0
100
AcDbLine
 62
7
  6
CONTINUOUS
 10
115.063853759
 20
335.0923273345
 11
109.8842311888
 21
337.237797251
  0
LINE
  5
36D
100
AcDbEntity
  8
0
100
AcDbLine
 62
7
  6
CONTINUOUS
 10
121.1173245634
 20
347.34376591
 11
120.3496682807
 21
347.8534124412
  0
LINE
  5
36E
100
AcDbEntity
  8
0
100
AcDbLine
 62
7
  6
CONTINUOUS
 10
119.9430671339
 20
346.8717904379
 11
120.5436388401
 21
346.4313526043
  0
LINE
  5
36F
100
AcDbEntity
  8
0
100
AcDbLine
 62
7
  6
CONTINUOUS
 10
173.6760623254
 20
378.9244097476
 11
173.8531459965
 21
378.3818563675
  0
LINE
  5
370
100
AcDbEntity
  8
0
100
AcDbLine
 62
7
  6
CONTINUOUS
 10
209.3286054558
 20
236.2329204981
 11
209.1900089557
 21
236.8712182944
  0
LINE
  5
371
100
AcDbEntity
  8
0
100
AcDbLine
 62
7
  6
CONTINUOUS
 10
209.3286054558
 20
230.4882394378
 11
209.3286054558
 21
231.2861117949
  0
LINE
  5
372
100
AcDbEntity
  8
0
100
AcDbLine
 62
7
  6
CONTINUOUS
 10
209.3286054558
 20
235.913771153
 11
209.3286054558
 21
236.2329204981
  0
LINE
  5
373
100
AcDbEntity
  8
0
100
AcDbLine
 62
7
  6
CONTINUOUS
 10
216.7237097463
 20
226.7382394378
 11
216.7237097463
 21
241.7382394378
  0
LINE
  5
374
100
AcDbEntity
  8
0
100
AcDbLine
 62
7
  6
CONTINUOUS
 10
204.4778347632
 20
236.8712182944
 11
204.3392398492
 21
236.2329204981
  0
LINE
  5
375
100
AcDbEntity
  8
0
100
AcDbLine
 62
7
  6
CONTINUOUS
 10
204.6163593471
 20
236.8712182944
 11
204.4777644332
 21
236.2329204981
  0
LINE
  5
376
100
AcDbEntity
  8
0
100
AcDbLine
 62
7
  6
CONTINUOUS
 10
209.1900089557
 20
235.2754733567
 11
209.3286054558
 21
235.913771153
  0
LINE
  5
377
100
AcDbEntity
  8
B-ACHSEN
100
AcDbLine
 62
7
  6
CONTINUOUS
 10
159.8059015434
 20
210.3524530002
 11
157.1916879811
 21
207.7382394378
  0
LINE
  5
378
100
AcDbEntity
  8
0
100
AcDbLine
 62
7
  6
CONTINUOUS
 10
154.1924360689
 20
231.605260693
 11
153.6380548268
 21
231.445686244
  0
LINE
  5
379
100
AcDbEntity
  8
0
100
AcDbLine
 62
7
  6
CONTINUOUS
 10
111.5106357764
 20
341.1642852642
 11
116.6902583465
 21
339.0188153477
  0
LINE
  5
37A
100
AcDbEntity
  8
0
100
AcDbLine
 62
7
  6
CONTINUOUS
 10
117.0968594934
 20
340.000437351
 11
111.9172369233
 21
342.1459072675
  0
LINE
  5
37B
100
AcDbEntity
  8
0
100
AcDbLine
 62
7
  6
CONTINUOUS
 10
112.4593716566
 20
343.4547362931
 11
120.3123476829
 21
340.201927118
  0
LINE
  5
37C
100
AcDbEntity
  8
0
100
AcDbLine
 62
7
  6
CONTINUOUS
 10
119.7164412544
 20
341.5988013554
 11
113.8684802618
 21
344.0211061108
  0
LINE
  5
37D
100
AcDbEntity
  8
0
100
AcDbLine
 62
7
  6
CONTINUOUS
 10
168.3635625787
 20
377.6584521984
 11
168.7177294143
 21
376.9350479026
  0
LINE
  5
37E
100
AcDbEntity
  8
0
100
AcDbLine
 62
7
  6
CONTINUOUS
 10
169.7802291609
 20
376.9350479026
 11
169.426062832
 21
377.6584521984
  0
LINE
  5
37F
100
AcDbEntity
  8
0
100
AcDbLine
 62
7
  6
CONTINUOUS
 10
174.7385623254
 20
378.5627074097
 11
174.3843959965
 21
379.4669628744
  0
LINE
  5
380
100
AcDbEntity
  8
B-ACHSEN
100
AcDbLine
 62
7
  6
CONTINUOUS
 10
228.1916879811
 20
221.7382394378
 11
228.1916879811
 21
232.9781565299
  0
LINE
  5
381
100
AcDbEntity
  8
0
100
AcDbLine
 62
7
  6
CONTINUOUS
 10
208.3585082157
 20
235.913771153
 11
208.0813168017
 21
235.2754733567
  0
LINE
  5
382
100
AcDbEntity
  8
0
100
AcDbLine
 62
7
  6
CONTINUOUS
 10
208.4970327997
 20
235.913771153
 11
208.2198413856
 21
235.2754733567
  0
LINE
  5
383
100
AcDbEntity
  8
0
100
AcDbLine
 62
7
  6
CONTINUOUS
 10
205.1707421753
 20
236.2329204981
 11
205.4479320032
 21
236.7116438453
  0
LINE
  5
384
100
AcDbEntity
  8
0
100
AcDbLine
 62
7
  6
CONTINUOUS
 10
208.9128191278
 20
234.7967500095
 11
209.1900089557
 21
235.2754733567
  0
LINE
  5
385
100
AcDbEntity
  8
0
100
AcDbLine
 62
7
  6
CONTINUOUS
 10
200.8743535177
 20
237.9882394378
 11
197.5480628933
 21
233.6797288661
  0
LINE
  5
386
100
AcDbEntity
  8
0
100
AcDbLine
 62
7
  6
CONTINUOUS
 10
201.0128781017
 20
237.9882394378
 11
197.6865874773
 21
233.6797288661
  0
LINE
  5
387
100
AcDbEntity
  8
0
100
AcDbLine
 62
7
  6
CONTINUOUS
 10
198.6567558404
 20
233.6797288661
 11
201.0128781017
 21
236.7116438453
  0
LINE
  5
388
100
AcDbEntity
  8
0
100
AcDbLine
 62
7
  6
CONTINUOUS
 10
205.0322175913
 20
237.5095160906
 11
204.4778347632
 21
236.8712182944
  0
LINE
  5
389
100
AcDbEntity
  8
0
100
AcDbLine
 62
7
  6
CONTINUOUS
 10
205.1707421753
 20
237.5095160906
 11
204.6163593471
 21
236.8712182944
  0
LINE
  5
38A
100
AcDbEntity
  8
0
100
AcDbLine
 62
7
  6
CONTINUOUS
 10
205.4479320032
 20
236.7116438453
 11
205.8637183313
 21
237.0307927434
  0
LINE
  5
38B
100
AcDbEntity
  8
0
100
AcDbLine
 62
7
  6
CONTINUOUS
 10
205.5865988333
 20
237.8286649888
 11
205.0322175913
 21
237.5095160906
  0
LINE
  5
38C
100
AcDbEntity
  8
0
100
AcDbLine
 62
7
  6
CONTINUOUS
 10
205.7251234173
 20
237.8286649888
 11
205.1707421753
 21
237.5095160906
  0
LINE
  5
38D
100
AcDbEntity
  8
0
100
AcDbLine
 62
7
  6
CONTINUOUS
 10
109.7300367988
 20
333.0848466794
 11
110.2990573211
 21
333.0408240978
  0
LINE
  5
38E
100
AcDbEntity
  8
0
100
AcDbLine
 62
7
  6
CONTINUOUS
 10
115.7999586638
 20
334.9790955872
 11
115.063853759
 21
335.0923273345
  0
LINE
  5
38F
100
AcDbEntity
  8
0
100
AcDbLine
 62
7
  6
CONTINUOUS
 10
114.6572524182
 20
334.1107048631
 11
115.5604422872
 21
333.9282653544
  0
LINE
  5
390
100
AcDbEntity
  8
0
100
AcDbLine
 62
7
  6
CONTINUOUS
 10
117.436798254
 20
347.9099209988
 11
119.9430671339
 21
346.8717904379
  0
LINE
  5
391
100
AcDbEntity
  8
0
100
AcDbLine
 62
7
  6
CONTINUOUS
 10
120.3496682807
 20
347.8534124412
 11
117.8433994009
 21
348.8915430021
  0
LINE
  5
392
100
AcDbEntity
  8
0
100
AcDbLine
 62
7
  6
CONTINUOUS
 10
189.7906459965
 20
376.7541968604
 11
189.6135633387
 21
377.2967501138
  0
LINE
  5
393
100
AcDbEntity
  8
0
100
AcDbLine
 62
7
  6
CONTINUOUS
 10
208.0813168017
 20
235.2754733567
 11
204.2006449352
 21
231.2861117949
  0
LINE
  5
394
100
AcDbEntity
  8
0
100
AcDbLine
 62
7
  6
CONTINUOUS
 10
208.2198413856
 20
235.2754733567
 11
204.3391695192
 21
231.2861117949
  0
LINE
  5
395
100
AcDbEntity
  8
0
100
AcDbLine
 62
7
  6
CONTINUOUS
 10
205.4479320032
 20
231.2861117949
 11
208.9128191278
 21
234.7967500095
  0
LINE
  5
396
100
AcDbEntity
  8
0
100
AcDbLine
 62
7
  6
CONTINUOUS
 10
116.7884711412
 20
331.6945365789
 11
112.3356236959
 21
331.8139038127
  0
LINE
  5
397
100
AcDbEntity
  8
0
100
AcDbLine
 62
7
  6
CONTINUOUS
 10
112.2631916048
 20
330.6938641801
 11
116.3141030072
 21
330.5493105963
  0
LINE
  5
398
100
AcDbEntity
  8
0
100
AcDbLine
 62
7
  6
CONTINUOUS
 10
110.705658468
 20
334.0224461011
 11
110.1366379457
 21
334.0664686827
  0
LINE
  5
399
100
AcDbEntity
  8
0
100
AcDbLine
 62
7
  6
CONTINUOUS
 10
117.8433994009
 20
348.8915430021
 11
116.9402094516
 21
349.0739836409
  0
LINE
  5
39A
100
AcDbEntity
  8
0
100
AcDbLine
 62
7
  6
CONTINUOUS
 10
168.7177294143
 20
376.9350479026
 11
169.2489791609
 21
376.2116436702
  0
LINE
  5
39B
100
AcDbEntity
  8
0
100
AcDbLine
 62
7
  6
CONTINUOUS
 10
174.3843959965
 20
379.4669628744
 11
173.8531459965
 21
380.1903670435
  0
LINE
  5
39C
100
AcDbEntity
  8
0
100
AcDbLine
 62
7
  6
CONTINUOUS
 10
173.3218959965
 20
379.4669628744
 11
173.6760623254
 21
378.9244097476
  0
LINE
  5
39D
100
AcDbEntity
  8
0
100
AcDbLine
 62
7
  6
CONTINUOUS
 10
188.7281459965
 20
376.9350479026
 11
189.0823133387
 21
376.2116436702
  0
LINE
  5
39E
100
AcDbEntity
  8
0
100
AcDbLine
 62
7
  6
CONTINUOUS
 10
116.4367463671
 20
335.0986774529
 11
115.7999586638
 21
334.9790955872
  0
LINE
  5
39F
100
AcDbEntity
  8
0
100
AcDbLine
 62
7
  6
CONTINUOUS
 10
115.5604422872
 20
333.9282653544
 11
116.36431449
 21
333.9786380059
  0
LINE
  5
3A0
100
AcDbEntity
  8
0
100
AcDbLine
 62
7
  6
CONTINUOUS
 10
116.7006933492
 20
348.0231527461
 11
117.436798254
 21
347.9099209988
  0
LINE
  5
3A1
100
AcDbEntity
  8
RUNDUNGEN
100
AcDbLine
 62
7
  6
CONTINUOUS
 10
241.9245228901
 20
247.326587604
 11
265.3627217272
 21
303.9114051142
  0
LINE
  5
3A2
100
AcDbEntity
  8
0
100
AcDbLine
 62
7
  6
CONTINUOUS
 10
110.1366379457
 20
334.0664686827
 11
109.2649990667
 21
333.8524924714
  0
LINE
  5
3A3
100
AcDbEntity
  8
0
100
AcDbLine
 62
7
  6
CONTINUOUS
 10
116.9402094516
 20
349.0739836409
 11
116.1363371719
 21
349.0236104728
  0
LINE
  5
3A4
100
AcDbEntity
  8
0
100
AcDbLine
 62
7
  6
CONTINUOUS
 10
169.2489791609
 20
376.2116436702
 11
170.1343959965
 21
375.6690904959
  0
LINE
  5
3A5
100
AcDbEntity
  8
0
100
AcDbLine
 62
7
  6
CONTINUOUS
 10
170.3114791609
 20
376.5733458181
 11
169.7802291609
 21
376.9350479026
  0
LINE
  5
3A6
100
AcDbEntity
  8
0
100
AcDbLine
 62
7
  6
CONTINUOUS
 10
116.0639051778
 20
347.9035710743
 11
116.7006933492
 21
348.0231527461
  0
LINE
  5
3A7
100
AcDbEntity
  8
0
100
AcDbLine
 62
7
  6
CONTINUOUS
 10
173.8531459965
 20
380.1903670435
 11
172.9677291609
 21
380.7329201703
  0
LINE
  5
3A8
100
AcDbEntity
  8
0
100
AcDbLine
 62
7
  6
CONTINUOUS
 10
172.7906459965
 20
379.828664959
 11
173.3218959965
 21
379.4669628744
  0
LINE
  5
3A9
100
AcDbEntity
  8
0
100
AcDbLine
 62
7
  6
CONTINUOUS
 10
189.0823133387
 20
376.2116436702
 11
189.6135633387
 21
375.849941554
  0
LINE
  5
3AA
100
AcDbEntity
  8
0
100
AcDbLine
 62
7
  6
CONTINUOUS
 10
190.3218959965
 20
376.3924947758
 11
189.7906459965
 21
376.7541968604
  0
LINE
  5
3AB
100
AcDbEntity
  8
B-ACHSEN
100
AcDbLine
 62
7
  6
CONTINUOUS
 10
199.1916879811
 20
162.7382394378
 11
195.1916879811
 21
158.7382394378
  0
LINE
  5
3AC
100
AcDbEntity
  8
0
100
AcDbLine
 62
7
  6
CONTINUOUS
 10
172.7906459965
 20
376.5733458181
 11
172.082312832
 21
376.3924947758
  0
LINE
  5
3AD
100
AcDbEntity
  8
0
100
AcDbLine
 62
7
  6
CONTINUOUS
 10
172.082312832
 20
375.4882394378
 11
172.9677291609
 21
375.6690904959
  0
LINE
  5
3AE
100
AcDbEntity
  8
0
100
AcDbLine
 62
7
  6
CONTINUOUS
 10
176.1552296676
 20
374.4031330575
 11
177.0406459965
 21
374.4031330575
  0
LINE
  5
3AF
100
AcDbEntity
  8
0
100
AcDbLine
 62
7
  6
CONTINUOUS
 10
165.8843959965
 20
375.4882394378
 11
166.9468959965
 21
375.4882394378
  0
LINE
  5
3B0
100
AcDbEntity
  8
0
100
AcDbLine
 62
7
  6
CONTINUOUS
 10
171.019812832
 20
375.4882394378
 11
172.082312832
 21
375.4882394378
  0
LINE
  5
3B1
100
AcDbEntity
  8
0
100
AcDbLine
 62
7
  6
CONTINUOUS
 10
181.2906459965
 20
375.4882394378
 11
182.3531459965
 21
375.4882394378
  0
LINE
  5
3B2
100
AcDbEntity
  8
0
100
AcDbLine
 62
7
  6
CONTINUOUS
 10
178.1031459965
 20
376.3924947758
 11
177.2177296676
 21
376.3924947758
  0
LINE
  5
3B3
100
AcDbEntity
  8
0
100
AcDbLine
 62
7
  6
CONTINUOUS
 10
172.082312832
 20
376.3924947758
 11
171.019812832
 21
376.3924947758
  0
LINE
  5
3B4
100
AcDbEntity
  8
0
100
AcDbLine
 62
7
  6
CONTINUOUS
 10
190.1448133387
 20
375.6690904959
 11
191.2073133387
 21
375.4882394378
  0
LINE
  5
3B5
100
AcDbEntity
  8
0
100
AcDbLine
 62
7
  6
CONTINUOUS
 10
170.1343959965
 20
375.6690904959
 11
171.019812832
 21
375.4882394378
  0
LINE
  5
3B6
100
AcDbEntity
  8
0
100
AcDbLine
 62
7
  6
CONTINUOUS
 10
191.2073133387
 20
376.2116436702
 11
190.3218959965
 21
376.3924947758
  0
LINE
  5
3B7
100
AcDbEntity
  8
0
100
AcDbLine
 62
7
  6
CONTINUOUS
 10
171.019812832
 20
376.3924947758
 11
170.3114791609
 21
376.5733458181
  0
LINE
  5
3B8
100
AcDbEntity
  8
0
100
AcDbLine
 62
7
  6
CONTINUOUS
 10
172.082312832
 20
380.0095160012
 11
172.7906459965
 21
379.828664959
  0
LINE
  5
3B9
100
AcDbEntity
  8
0
100
AcDbLine
 62
7
  6
CONTINUOUS
 10
189.6135633387
 20
375.849941554
 11
190.1448133387
 21
375.6690904959
  0
LINE
  5
3BA
100
AcDbEntity
  8
RUNDUNGEN
100
AcDbLine
 62
7
  6
CONTINUOUS
 10
242.5368975667
 20
366.671488022
 11
265.3627217272
 21
311.5650737615
  0
LINE
  5
3BB
100
AcDbEntity
  8
0
100
AcDbLine
 62
7
  6
CONTINUOUS
 10
170.3114791609
 20
379.828664959
 11
171.019812832
 21
380.0095160012
  0
LINE
  5
3BC
100
AcDbEntity
  8
0
100
AcDbLine
 62
7
  6
CONTINUOUS
 10
171.019812832
 20
380.9137712126
 11
170.1343959965
 21
380.7329201703
  0
LINE
  5
3BD
100
AcDbEntity
  8
0
100
AcDbLine
 62
7
  6
CONTINUOUS
 10
169.426062832
 20
377.6584521984
 11
168.3635625787
 21
377.6584521984
  0
LINE
  5
3BE
100
AcDbEntity
  8
0
100
AcDbLine
 62
7
  6
CONTINUOUS
 10
168.3635625787
 20
379.2861118321
 11
169.6031459965
 21
379.2861118321
  0
LINE
  5
3BF
100
AcDbEntity
  8
0
100
AcDbLine
 62
7
  6
CONTINUOUS
 10
171.019812832
 20
380.0095160012
 11
172.082312832
 21
380.0095160012
  0
LINE
  5
3C0
100
AcDbEntity
  8
0
100
AcDbLine
 62
7
  6
CONTINUOUS
 10
187.3114786543
 20
380.552069128
 11
188.7281459965
 21
380.552069128
  0
LINE
  5
3C1
100
AcDbEntity
  8
0
100
AcDbLine
 62
7
  6
CONTINUOUS
 10
189.6135633387
 20
380.552069128
 11
191.5614786543
 21
380.552069128
  0
LINE
  5
3C2
100
AcDbEntity
  8
0
100
AcDbLine
 62
7
  6
CONTINUOUS
 10
172.082312832
 20
380.9137712126
 11
171.019812832
 21
380.9137712126
  0
LINE
  5
3C3
100
AcDbEntity
  8
0
100
AcDbLine
 62
7
  6
CONTINUOUS
 10
191.5614786543
 20
381.2754732971
 11
189.6135633387
 21
381.2754732971
  0
LINE
  5
3C4
100
AcDbEntity
  8
0
100
AcDbLine
 62
7
  6
CONTINUOUS
 10
188.7281459965
 20
381.2754732971
 11
187.3114786543
 21
381.2754732971
  0
LINE
  5
3C5
100
AcDbEntity
  8
0
100
AcDbLine
 62
7
  6
CONTINUOUS
 10
189.6135633387
 20
382.7222821419
 11
188.7281459965
 21
382.7222821419
  0
LINE
  5
3C6
100
AcDbEntity
  8
0
100
AcDbLine
 62
7
  6
CONTINUOUS
 10
169.2489791609
 20
383.0839842265
 11
174.3843959965
 21
383.0839842265
  0
LINE
  5
3C7
100
AcDbEntity
  8
0
100
AcDbLine
 62
7
  6
CONTINUOUS
 10
179.5198123254
 20
383.0839842265
 11
184.8323133387
 21
383.0839842265
  0
LINE
  5
3C8
100
AcDbEntity
  8
0
100
AcDbLine
 62
7
  6
CONTINUOUS
 10
185.8948133387
 20
383.9882394378
 11
179.5198123254
 21
383.9882394378
  0
LINE
  5
3C9
100
AcDbEntity
  8
0
100
AcDbLine
 62
7
  6
CONTINUOUS
 10
174.3843959965
 20
383.9882394378
 11
168.3635625787
 21
383.9882394378
  0
LINE
  5
3CA
100
AcDbEntity
  8
0
100
AcDbLine
 62
7
  6
CONTINUOUS
 10
166.9468959965
 20
383.9882394378
 11
165.8843959965
 21
383.9882394378
  0
LINE
  5
3CB
100
AcDbEntity
  8
0
100
AcDbLine
 62
7
  6
CONTINUOUS
 10
172.9677291609
 20
380.7329201703
 11
172.082312832
 21
380.9137712126
  0
LINE
  5
3CC
100
AcDbEntity
  8
RUNDUNGEN
100
AcDbLine
 62
7
  6
CONTINUOUS
 10
182.0185223047
 20
394.909273184
 11
237.1249365653
 21
372.0834490235
  0
LINE
  5
3CD
100
AcDbEntity
  8
B-ACHSEN
100
AcDbLine
 62
7
  6
CONTINUOUS
 10
374.4766670603
 20
158.7382394378
 11
408.4766670603
 21
158.7382394378
  0
LINE
  5
3CE
100
AcDbEntity
  8
B-ACHSEN
100
AcDbLine
 62
7
  6
CONTINUOUS
 10
370.4766670603
 20
162.7382394378
 11
412.4766670603
 21
162.7382394378
  0
LINE
  5
3CF
100
AcDbEntity
  8
B-ACHSEN
100
AcDbLine
 62
7
  6
CONTINUOUS
 10
370.4766670603
 20
162.7382394378
 11
374.4766670603
 21
158.7382394378
  0
LINE
  5
3D0
100
AcDbEntity
  8
B-ACHSEN
100
AcDbLine
 62
7
  6
CONTINUOUS
 10
370.4766670603
 20
207.7382394378
 11
412.4766670603
 21
207.7382394378
  0
LINE
  5
3D1
100
AcDbEntity
  8
B-ACHSEN
100
AcDbLine
 62
7
  6
CONTINUOUS
 10
341.4775409908
 20
221.7382394378
 11
441.4757931298
 21
221.7382394378
  0
LINE
  5
3D2
100
AcDbEntity
  8
0
100
AcDbLine
 62
7
  6
CONTINUOUS
 10
441.3164102378
 20
226.7382394378
 11
423.3401774949
 21
226.7382394378
  0
LINE
  5
3D3
100
AcDbEntity
  8
B-ACHSEN
100
AcDbLine
 62
7
  6
CONTINUOUS
 10
341.4766670603
 20
221.7382394378
 11
341.4766670603
 21
244.8613560319
  0
LINE
  5
3D4
100
AcDbEntity
  8
0
100
AcDbLine
 62
7
  6
CONTINUOUS
 10
424.772823138
 20
230.4882394378
 11
425.4718157129
 21
230.4882394378
  0
LINE
  5
3D5
100
AcDbEntity
  8
0
100
AcDbLine
 62
7
  6
CONTINUOUS
 10
425.7828981951
 20
230.4882394378
 11
426.4818907699
 21
230.4882394378
  0
LINE
  5
3D6
100
AcDbEntity
  8
0
100
AcDbLine
 62
7
  6
CONTINUOUS
 10
428.0194930748
 20
230.4882394378
 11
428.7906340081
 21
230.4882394378
  0
LINE
  5
3D7
100
AcDbEntity
  8
0
100
AcDbLine
 62
7
  6
CONTINUOUS
 10
430.1117913409
 20
230.4882394378
 11
430.9550806326
 21
230.4882394378
  0
LINE
  5
3D8
100
AcDbEntity
  8
0
100
AcDbLine
 62
7
  6
CONTINUOUS
 10
433.9356469067
 20
230.4882394378
 11
436.7990861061
 21
230.4882394378
  0
LINE
  5
3D9
100
AcDbEntity
  8
0
100
AcDbLine
 62
7
  6
CONTINUOUS
 10
438.2645401557
 20
230.4882394378
 11
438.9635335563
 21
230.4882394378
  0
LINE
  5
3DA
100
AcDbEntity
  8
0
100
AcDbLine
 62
7
  6
CONTINUOUS
 10
429.7510503744
 20
230.6478139008
 11
430.0171536244
 21
230.6478139008
  0
LINE
  5
3DB
100
AcDbEntity
  8
0
100
AcDbLine
 62
7
  6
CONTINUOUS
 10
429.390309408
 20
231.1265372899
 11
429.6564126579
 21
231.1265372899
  0
LINE
  5
3DC
100
AcDbEntity
  8
0
100
AcDbLine
 62
7
  6
CONTINUOUS
 10
436.7990861061
 20
231.445686244
 11
434.6346394815
 21
231.445686244
  0
LINE
  5
3DD
100
AcDbEntity
  8
0
100
AcDbLine
 62
7
  6
CONTINUOUS
 10
430.9550806326
 20
231.445686244
 11
430.3778945909
 21
231.445686244
  0
LINE
  5
3DE
100
AcDbEntity
  8
0
100
AcDbLine
 62
7
  6
CONTINUOUS
 10
430.9775699907
 20
231.605260693
 11
431.2436732407
 21
231.605260693
  0
LINE
  5
3DF
100
AcDbEntity
  8
0
100
AcDbLine
 62
7
  6
CONTINUOUS
 10
429.1738647455
 20
231.9244097029
 11
429.4399679955
 21
231.9244097029
  0
LINE
  5
3E0
100
AcDbEntity
  8
0
100
AcDbLine
 62
7
  6
CONTINUOUS
 10
431.1940146532
 20
231.9244097029
 11
431.4601179031
 21
231.9244097029
  0
LINE
  5
3E1
100
AcDbEntity
  8
0
100
AcDbLine
 62
7
  6
CONTINUOUS
 10
431.3383113701
 20
232.4031330501
 11
431.60441462
 21
232.4031330501
  0
LINE
  5
3E2
100
AcDbEntity
  8
0
100
AcDbLine
 62
7
  6
CONTINUOUS
 10
429.1017163871
 20
232.5627074991
 11
429.8007089619
 21
232.5627074991
  0
LINE
  5
3E3
100
AcDbEntity
  8
0
100
AcDbLine
 62
7
  6
CONTINUOUS
 10
431.3383113701
 20
232.8818563973
 11
431.60441462
 21
232.8818563973
  0
LINE
  5
3E4
100
AcDbEntity
  8
0
100
AcDbLine
 62
7
  6
CONTINUOUS
 10
432.3483863239
 20
233.2010052954
 11
433.6245649405
 21
233.2010052954
  0
LINE
  5
3E5
100
AcDbEntity
  8
0
100
AcDbLine
 62
7
  6
CONTINUOUS
 10
431.1940146532
 20
233.360579968
 11
431.4601179031
 21
233.360579968
  0
LINE
  5
3E6
100
AcDbEntity
  8
0
100
AcDbLine
 62
7
  6
CONTINUOUS
 10
430.9775699907
 20
233.6797288661
 11
431.2436732407
 21
233.6797288661
  0
LINE
  5
3E7
100
AcDbEntity
  8
0
100
AcDbLine
 62
7
  6
CONTINUOUS
 10
426.4818907699
 20
233.8393033152
 11
427.7084104894
 21
233.8393033152
  0
LINE
  5
3E8
100
AcDbEntity
  8
0
100
AcDbLine
 62
7
  6
CONTINUOUS
 10
430.2560880578
 20
233.8393033152
 11
430.9550806326
 21
233.8393033152
  0
LINE
  5
3E9
100
AcDbEntity
  8
0
100
AcDbLine
 62
7
  6
CONTINUOUS
 10
429.9674950369
 20
233.9988777642
 11
430.2335982869
 21
233.9988777642
  0
LINE
  5
3EA
100
AcDbEntity
  8
0
100
AcDbLine
 62
7
  6
CONTINUOUS
 10
432.3483863239
 20
233.9988777642
 11
433.6245649405
 21
233.9988777642
  0
LINE
  5
3EB
100
AcDbEntity
  8
0
100
AcDbLine
 62
7
  6
CONTINUOUS
 10
429.678902016
 20
234.3180266623
 11
429.945005266
 21
234.3180266623
  0
LINE
  5
3EC
100
AcDbEntity
  8
0
100
AcDbLine
 62
7
  6
CONTINUOUS
 10
430.9550806326
 20
234.7967500095
 11
430.5221913077
 21
234.7967500095
  0
LINE
  5
3ED
100
AcDbEntity
  8
0
100
AcDbLine
 62
7
  6
CONTINUOUS
 10
427.8527069999
 20
234.7967500095
 11
426.4818907699
 21
234.7967500095
  0
LINE
  5
3EE
100
AcDbEntity
  8
0
100
AcDbLine
 62
7
  6
CONTINUOUS
 10
427.8030484124
 20
234.9563244586
 11
428.0691516623
 21
234.9563244586
  0
LINE
  5
3EF
100
AcDbEntity
  8
0
100
AcDbLine
 62
7
  6
CONTINUOUS
 10
429.390309408
 20
234.9563244586
 11
429.6564126579
 21
234.9563244586
  0
LINE
  5
3F0
100
AcDbEntity
  8
0
100
AcDbLine
 62
7
  6
CONTINUOUS
 10
427.9473449228
 20
235.2754733567
 11
428.2134481728
 21
235.2754733567
  0
LINE
  5
3F1
100
AcDbEntity
  8
0
100
AcDbLine
 62
7
  6
CONTINUOUS
 10
429.3181610495
 20
235.5946222548
 11
429.5842642995
 21
235.5946222548
  0
LINE
  5
3F2
100
AcDbEntity
  8
0
100
AcDbLine
 62
7
  6
CONTINUOUS
 10
428.0194930748
 20
235.7541967039
 11
428.2855963248
 21
235.7541967039
  0
LINE
  5
3F3
100
AcDbEntity
  8
0
100
AcDbLine
 62
7
  6
CONTINUOUS
 10
428.0194930748
 20
236.2329204981
 11
428.2855963248
 21
236.2329204981
  0
LINE
  5
3F4
100
AcDbEntity
  8
0
100
AcDbLine
 62
7
  6
CONTINUOUS
 10
429.3181610495
 20
236.2329204981
 11
429.5842642995
 21
236.2329204981
  0
LINE
  5
3F5
100
AcDbEntity
  8
0
100
AcDbLine
 62
7
  6
CONTINUOUS
 10
431.1218667076
 20
236.2329204981
 11
431.8208592825
 21
236.2329204981
  0
LINE
  5
3F6
100
AcDbEntity
  8
0
100
AcDbLine
 62
7
  6
CONTINUOUS
 10
431.0497183492
 20
236.5520693963
 11
431.3158215991
 21
236.5520693963
  0
LINE
  5
3F7
100
AcDbEntity
  8
0
100
AcDbLine
 62
7
  6
CONTINUOUS
 10
427.9473449228
 20
236.7116438453
 11
428.2134481728
 21
236.7116438453
  0
LINE
  5
3F8
100
AcDbEntity
  8
0
100
AcDbLine
 62
7
  6
CONTINUOUS
 10
429.390309408
 20
236.8712182944
 11
429.6564126579
 21
236.8712182944
  0
LINE
  5
3F9
100
AcDbEntity
  8
0
100
AcDbLine
 62
7
  6
CONTINUOUS
 10
430.9054220451
 20
236.8712182944
 11
431.1715252951
 21
236.8712182944
  0
LINE
  5
3FA
100
AcDbEntity
  8
0
100
AcDbLine
 62
7
  6
CONTINUOUS
 10
427.8030484124
 20
237.0307927434
 11
428.0691516623
 21
237.0307927434
  0
LINE
  5
3FB
100
AcDbEntity
  8
0
100
AcDbLine
 62
7
  6
CONTINUOUS
 10
430.5221913077
 20
237.0307927434
 11
430.9550806326
 21
237.0307927434
  0
LINE
  5
3FC
100
AcDbEntity
  8
0
100
AcDbLine
 62
7
  6
CONTINUOUS
 10
426.4818907699
 20
237.1903671925
 11
427.8527069999
 21
237.1903671925
  0
LINE
  5
3FD
100
AcDbEntity
  8
0
100
AcDbLine
 62
7
  6
CONTINUOUS
 10
437.1101688979
 20
237.1903671925
 11
438.5306434057
 21
237.1903671925
  0
LINE
  5
3FE
100
AcDbEntity
  8
0
100
AcDbLine
 62
7
  6
CONTINUOUS
 10
438.9635335563
 20
237.1903671925
 11
440.1179039885
 21
237.1903671925
  0
LINE
  5
3FF
100
AcDbEntity
  8
0
100
AcDbLine
 62
7
  6
CONTINUOUS
 10
429.678902016
 20
237.5095160906
 11
429.945005266
 21
237.5095160906
  0
LINE
  5
400
100
AcDbEntity
  8
0
100
AcDbLine
 62
7
  6
CONTINUOUS
 10
429.9674950369
 20
237.8286649888
 11
430.2335982869
 21
237.8286649888
  0
LINE
  5
401
100
AcDbEntity
  8
0
100
AcDbLine
 62
7
  6
CONTINUOUS
 10
424.772823138
 20
237.9882394378
 11
425.4718157129
 21
237.9882394378
  0
LINE
  5
402
100
AcDbEntity
  8
0
100
AcDbLine
 62
7
  6
CONTINUOUS
 10
425.7828981951
 20
237.9882394378
 11
427.7805588478
 21
237.9882394378
  0
LINE
  5
403
100
AcDbEntity
  8
0
100
AcDbLine
 62
7
  6
CONTINUOUS
 10
430.2560880578
 20
237.9882394378
 11
430.8829322742
 21
237.9882394378
  0
LINE
  5
404
100
AcDbEntity
  8
0
100
AcDbLine
 62
7
  6
CONTINUOUS
 10
433.9356469067
 20
237.9882394378
 11
434.6346394815
 21
237.9882394378
  0
LINE
  5
405
100
AcDbEntity
  8
0
100
AcDbLine
 62
7
  6
CONTINUOUS
 10
437.1101688979
 20
237.9882394378
 11
440.1179039885
 21
237.9882394378
  0
LINE
  5
406
100
AcDbEntity
  8
0
100
AcDbLine
 62
7
  6
CONTINUOUS
 10
423.3401774949
 20
241.7382394378
 11
441.3164102378
 21
241.7382394378
  0
LINE
  5
407
100
AcDbEntity
  8
B-ACHSEN
100
AcDbLine
 62
7
  6
CONTINUOUS
 10
409.8624534979
 20
210.3524530002
 11
412.4766670603
 21
207.7382394378
  0
LINE
  5
408
100
AcDbEntity
  8
RUNDUNGEN
100
AcDbLine
 62
7
  6
CONTINUOUS
 10
411.3424906355
 20
244.9781565299
 11
406.757640983
 21
244.9781565299
  0
LINE
  5
409
100
AcDbEntity
  8
RUNDUNGEN
100
AcDbLine
 62
7
  6
CONTINUOUS
 10
376.1956931376
 20
244.9781565299
 11
371.6108434851
 21
244.9781565299
  0
LINE
  5
40A
100
AcDbEntity
  8
0
100
AcDbLine
 62
7
  6
CONTINUOUS
 10
429.7510503744
 20
230.6478139008
 11
430.1117913409
 21
230.4882394378
  0
LINE
  5
40B
100
AcDbEntity
  8
0
100
AcDbLine
 62
7
  6
CONTINUOUS
 10
430.0171536244
 20
230.6478139008
 11
430.3778945909
 21
230.4882394378
  0
LINE
  5
40C
100
AcDbEntity
  8
B-ACHSEN
100
AcDbLine
 62
7
  6
CONTINUOUS
 10
370.4766670603
 20
207.7382394378
 11
370.4766670603
 21
162.7382394378
  0
LINE
  5
40D
100
AcDbEntity
  8
B-ACHSEN
100
AcDbLine
 62
7
  6
CONTINUOUS
 10
373.6766670603
 20
221.7382394378
 11
373.6766670603
 21
211.7666665626
  0
LINE
  5
40E
100
AcDbEntity
  8
RUNDUNGEN
100
AcDbLine
 62
7
  6
CONTINUOUS
 10
372.3218323478
 20
391.8024050674
 11
367.4264085462
 21
243.4551602802
  0
LWPOLYLINE
  5
40F
100
AcDbEntity
  8
RUNDUNGEN
100
AcDbPolyline
 62
7
  6
CONTINUOUS
 90
6
 70
0
 10
367.9391901789
 20
259.3657271946
 10
367.8997156929
 20
259.1751129858
 10
367.8647076517
 20
259.061670148
 10
367.8423907179
 20
259.0028273701
 10
367.8327325413
 20
258.9794369404
 10
367.8406503816
 20
258.9979115222
  0
LINE
  5
410
100
AcDbEntity
  8
0
100
AcDbLine
 62
7
  6
CONTINUOUS
 10
431.3158215991
 20
234.6371755605
 11
430.9550806326
 21
234.7967500095
  0
LINE
  5
411
100
AcDbEntity
  8
0
100
AcDbLine
 62
7
  6
CONTINUOUS
 10
428.1412998143
 20
237.8286649888
 11
427.7805588478
 21
237.9882394378
  0
LINE
  5
412
100
AcDbEntity
  8
0
100
AcDbLine
 62
7
  6
CONTINUOUS
 10
431.2436732407
 20
237.8286649888
 11
430.8829322742
 21
237.9882394378
  0
LINE
  5
413
100
AcDbEntity
  8
0
100
AcDbLine
 62
7
  6
CONTINUOUS
 10
430.3778945909
 20
231.445686244
 11
430.0893019828
 21
231.605260693
  0
LINE
  5
414
100
AcDbEntity
  8
0
100
AcDbLine
 62
7
  6
CONTINUOUS
 10
429.9674950369
 20
233.9988777642
 11
430.2560880578
 21
233.8393033152
  0
LINE
  5
415
100
AcDbEntity
  8
0
100
AcDbLine
 62
7
  6
CONTINUOUS
 10
430.2335982869
 20
233.9988777642
 11
430.5221913077
 21
233.8393033152
  0
LINE
  5
416
100
AcDbEntity
  8
0
100
AcDbLine
 62
7
  6
CONTINUOUS
 10
430.6889773827
 20
233.8393033152
 11
430.9775699907
 21
233.6797288661
  0
LINE
  5
417
100
AcDbEntity
  8
0
100
AcDbLine
 62
7
  6
CONTINUOUS
 10
430.9550806326
 20
233.8393033152
 11
431.2436732407
 21
233.6797288661
  0
LINE
  5
418
100
AcDbEntity
  8
B-ACHSEN
100
AcDbLine
 62
7
  6
CONTINUOUS
 10
349.9123224099
 20
254.7382394378
 11
365.5513739529
 21
257.2152218637
  0
LINE
  5
419
100
AcDbEntity
  8
B-ACHSEN
100
AcDbLine
 62
7
  6
CONTINUOUS
 10
433.0410117107
 20
254.7382394378
 11
417.4019588286
 21
257.2152220758
  0
LINE
  5
41A
100
AcDbEntity
  8
0
100
AcDbLine
 62
7
  6
CONTINUOUS
 10
430.5221913077
 20
234.7967500095
 11
430.3057466453
 21
234.9563244586
  0
LINE
  5
41B
100
AcDbEntity
  8
0
100
AcDbLine
 62
7
  6
CONTINUOUS
 10
427.5866037499
 20
237.1903671925
 11
427.8030484124
 21
237.0307927434
  0
LINE
  5
41C
100
AcDbEntity
  8
0
100
AcDbLine
 62
7
  6
CONTINUOUS
 10
427.8527069999
 20
237.1903671925
 11
428.0691516623
 21
237.0307927434
  0
LINE
  5
41D
100
AcDbEntity
  8
0
100
AcDbLine
 62
7
  6
CONTINUOUS
 10
430.6889773827
 20
237.0307927434
 11
430.9054220451
 21
236.8712182944
  0
LINE
  5
41E
100
AcDbEntity
  8
0
100
AcDbLine
 62
7
  6
CONTINUOUS
 10
430.9550806326
 20
237.0307927434
 11
431.1715252951
 21
236.8712182944
  0
LINE
  5
41F
100
AcDbEntity
  8
B-ACHSEN
100
AcDbLine
 62
2
  6
CENTER
 10
391.4766670603
 20
401.0125016927
 11
391.4766670603
 21
163.4304699302
  0
LINE
  5
420
100
AcDbEntity
  8
0
100
AcDbLine
 62
7
  6
CONTINUOUS
 10
429.678902016
 20
234.3180266623
 11
429.9674950369
 21
233.9988777642
  0
LINE
  5
421
100
AcDbEntity
  8
0
100
AcDbLine
 62
7
  6
CONTINUOUS
 10
429.945005266
 20
234.3180266623
 11
430.2335982869
 21
233.9988777642
  0
LINE
  5
422
100
AcDbEntity
  8
0
100
AcDbLine
 62
7
  6
CONTINUOUS
 10
431.60441462
 20
234.3180266623
 11
431.3158215991
 21
234.6371755605
  0
LINE
  5
423
100
AcDbEntity
  8
0
100
AcDbLine
 62
7
  6
CONTINUOUS
 10
429.390309408
 20
231.1265372899
 11
429.7510503744
 21
230.6478139008
  0
LINE
  5
424
100
AcDbEntity
  8
0
100
AcDbLine
 62
7
  6
CONTINUOUS
 10
429.6564126579
 20
231.1265372899
 11
430.0171536244
 21
230.6478139008
  0
LINE
  5
425
100
AcDbEntity
  8
0
100
AcDbLine
 62
7
  6
CONTINUOUS
 10
430.9775699907
 20
233.6797288661
 11
431.1940146532
 21
233.360579968
  0
LINE
  5
426
100
AcDbEntity
  8
0
100
AcDbLine
 62
7
  6
CONTINUOUS
 10
430.3057466453
 20
234.9563244586
 11
430.0893019828
 21
235.2754733567
  0
LINE
  5
427
100
AcDbEntity
  8
0
100
AcDbLine
 62
7
  6
CONTINUOUS
 10
431.2436732407
 20
233.6797288661
 11
431.4601179031
 21
233.360579968
  0
LINE
  5
428
100
AcDbEntity
  8
B-ACHSEN
100
AcDbLine
 62
7
  6
CONTINUOUS
 10
409.2766670603
 20
221.7382394378
 11
409.2766670603
 21
211.7666665626
  0
LINE
  5
429
100
AcDbEntity
  8
0
100
AcDbLine
 62
7
  6
CONTINUOUS
 10
428.4298928352
 20
237.3499416416
 11
428.1412998143
 21
237.8286649888
  0
LINE
  5
42A
100
AcDbEntity
  8
0
100
AcDbLine
 62
7
  6
CONTINUOUS
 10
431.5322662616
 20
237.3499416416
 11
431.2436732407
 21
237.8286649888
  0
LINE
  5
42B
100
AcDbEntity
  8
0
100
AcDbLine
 62
7
  6
CONTINUOUS
 10
430.0893019828
 20
231.605260693
 11
429.8728573204
 21
232.083984152
  0
LINE
  5
42C
100
AcDbEntity
  8
0
100
AcDbLine
 62
7
  6
CONTINUOUS
 10
427.8030484124
 20
237.0307927434
 11
427.9473449228
 21
236.7116438453
  0
LINE
  5
42D
100
AcDbEntity
  8
0
100
AcDbLine
 62
7
  6
CONTINUOUS
 10
428.0691516623
 20
237.0307927434
 11
428.2134481728
 21
236.7116438453
  0
LINE
  5
42E
100
AcDbEntity
  8
0
100
AcDbLine
 62
7
  6
CONTINUOUS
 10
429.390309408
 20
234.9563244586
 11
429.678902016
 21
234.3180266623
  0
LINE
  5
42F
100
AcDbEntity
  8
0
100
AcDbLine
 62
7
  6
CONTINUOUS
 10
429.6564126579
 20
234.9563244586
 11
429.945005266
 21
234.3180266623
  0
LWPOLYLINE
  5
430
100
AcDbEntity
  8
RUNDUNGEN
100
AcDbPolyline
 62
7
  6
CONTINUOUS
 90
7
 70
0
 10
415.1126837064
 20
258.9979116003
 10
415.1208545692
 20
258.9788467813
 10
415.1113410403
 20
259.001826811
 10
415.0890089683
 20
259.0606094856
 10
415.0539762708
 20
259.1737648172
 10
415.0145253848
 20
259.3631920083
 10
414.9959209117
 20
259.5667344227
  0
LINE
  5
431
100
AcDbEntity
  8
RUNDUNGEN
100
AcDbLine
 62
7
  6
CONTINUOUS
 10
415.5269255122
 20
243.4551621631
 11
410.6315017728
 21
391.8024050675
  0
LINE
  5
432
100
AcDbEntity
  8
0
100
AcDbLine
 62
7
  6
CONTINUOUS
 10
411.1895306836
 20
383.9882394378
 11
411.5058369148
 21
374.4031330575
  0
LINE
  5
433
100
AcDbEntity
  8
0
100
AcDbLine
 62
7
  6
CONTINUOUS
 10
412.3416928224
 20
349.0739836409
 11
412.5699911777
 21
342.1558018101
  0
LINE
  5
434
100
AcDbEntity
  8
0
100
AcDbLine
 62
7
  6
CONTINUOUS
 10
412.5703176952
 20
342.1459072675
 11
413.1203679681
 21
325.4775970686
  0
LINE
  5
435
100
AcDbEntity
  8
B-ACHSEN
100
AcDbLine
 62
7
  6
CONTINUOUS
 10
412.4766670603
 20
207.7382394378
 11
412.4766670603
 21
162.7382394378
  0
LINE
  5
436
100
AcDbEntity
  8
0
100
AcDbLine
 62
7
  6
CONTINUOUS
 10
431.8930072281
 20
233.6797288661
 11
431.60441462
 21
234.3180266623
  0
LINE
  5
437
100
AcDbEntity
  8
0
100
AcDbLine
 62
7
  6
CONTINUOUS
 10
430.9054220451
 20
236.8712182944
 11
431.0497183492
 21
236.5520693963
  0
LINE
  5
438
100
AcDbEntity
  8
0
100
AcDbLine
 62
7
  6
CONTINUOUS
 10
431.1715252951
 20
236.8712182944
 11
431.3158215991
 21
236.5520693963
  0
LINE
  5
439
100
AcDbEntity
  8
0
100
AcDbLine
 62
7
  6
CONTINUOUS
 10
428.6463372912
 20
236.7116438453
 11
428.4298928352
 21
237.3499416416
  0
LINE
  5
43A
100
AcDbEntity
  8
0
100
AcDbLine
 62
7
  6
CONTINUOUS
 10
431.748710924
 20
236.7116438453
 11
431.5322662616
 21
237.3499416416
  0
LINE
  5
43B
100
AcDbEntity
  8
0
100
AcDbLine
 62
7
  6
CONTINUOUS
 10
431.1940146532
 20
233.360579968
 11
431.3383113701
 21
232.8818563973
  0
LINE
  5
43C
100
AcDbEntity
  8
0
100
AcDbLine
 62
7
  6
CONTINUOUS
 10
431.4601179031
 20
233.360579968
 11
431.60441462
 21
232.8818563973
  0
LINE
  5
43D
100
AcDbEntity
  8
0
100
AcDbLine
 62
7
  6
CONTINUOUS
 10
429.1738647455
 20
231.9244097029
 11
429.390309408
 21
231.1265372899
  0
LINE
  5
43E
100
AcDbEntity
  8
0
100
AcDbLine
 62
7
  6
CONTINUOUS
 10
429.4399679955
 20
231.9244097029
 11
429.6564126579
 21
231.1265372899
  0
LINE
  5
43F
100
AcDbEntity
  8
0
100
AcDbLine
 62
7
  6
CONTINUOUS
 10
423.3401775178
 20
226.7382394378
 11
423.3401775178
 21
241.7382394378
  0
LINE
  5
440
100
AcDbEntity
  8
0
100
AcDbLine
 62
7
  6
CONTINUOUS
 10
424.772823138
 20
237.9882394378
 11
424.772823138
 21
230.4882394378
  0
LINE
  5
441
100
AcDbEntity
  8
0
100
AcDbLine
 62
7
  6
CONTINUOUS
 10
425.038926388
 20
237.9882394378
 11
425.038926388
 21
230.4882394378
  0
LINE
  5
442
100
AcDbEntity
  8
0
100
AcDbLine
 62
7
  6
CONTINUOUS
 10
425.4718157129
 20
230.4882394378
 11
425.4718157129
 21
237.9882394378
  0
LINE
  5
443
100
AcDbEntity
  8
0
100
AcDbLine
 62
7
  6
CONTINUOUS
 10
425.7828981951
 20
237.9882394378
 11
425.7828981951
 21
230.4882394378
  0
LINE
  5
444
100
AcDbEntity
  8
0
100
AcDbLine
 62
7
  6
CONTINUOUS
 10
426.049001445
 20
237.9882394378
 11
426.049001445
 21
230.4882394378
  0
LINE
  5
445
100
AcDbEntity
  8
0
100
AcDbLine
 62
7
  6
CONTINUOUS
 10
426.4818907699
 20
230.4882394378
 11
426.4818907699
 21
233.8393033152
  0
LINE
  5
446
100
AcDbEntity
  8
0
100
AcDbLine
 62
7
  6
CONTINUOUS
 10
426.4818907699
 20
234.7967500095
 11
426.4818907699
 21
237.1903671925
  0
LINE
  5
447
100
AcDbEntity
  8
B-ACHSEN
100
AcDbLine
 62
7
  6
CONTINUOUS
 10
373.0908806227
 20
210.3524530002
 11
370.4766670603
 21
207.7382394378
  0
LINE
  5
448
100
AcDbEntity
  8
0
100
AcDbLine
 62
7
  6
CONTINUOUS
 10
431.0497183492
 20
236.5520693963
 11
431.1218667076
 21
236.2329204981
  0
LINE
  5
449
100
AcDbEntity
  8
0
100
AcDbLine
 62
7
  6
CONTINUOUS
 10
432.0373035321
 20
233.0414308463
 11
431.8930072281
 21
233.6797288661
  0
LINE
  5
44A
100
AcDbEntity
  8
0
100
AcDbLine
 62
7
  6
CONTINUOUS
 10
431.3158215991
 20
236.5520693963
 11
431.3879699576
 21
236.2329204981
  0
LINE
  5
44B
100
AcDbEntity
  8
0
100
AcDbLine
 62
7
  6
CONTINUOUS
 10
428.7906340081
 20
230.4882394378
 11
428.1412998143
 21
234.1584522133
  0
LINE
  5
44C
100
AcDbEntity
  8
0
100
AcDbLine
 62
7
  6
CONTINUOUS
 10
427.4423072395
 20
233.8393033152
 11
428.0194930748
 21
230.4882394378
  0
LINE
  5
44D
100
AcDbEntity
  8
0
100
AcDbLine
 62
7
  6
CONTINUOUS
 10
427.7084104894
 20
233.8393033152
 11
428.2855963248
 21
230.4882394378
  0
LINE
  5
44E
100
AcDbEntity
  8
0
100
AcDbLine
 62
7
  6
CONTINUOUS
 10
427.9473449228
 20
236.7116438453
 11
428.0194930748
 21
236.2329204981
  0
LINE
  5
44F
100
AcDbEntity
  8
0
100
AcDbLine
 62
7
  6
CONTINUOUS
 10
428.2134481728
 20
236.7116438453
 11
428.2855963248
 21
236.2329204981
  0
LINE
  5
450
100
AcDbEntity
  8
0
100
AcDbLine
 62
7
  6
CONTINUOUS
 10
428.7184856497
 20
236.2329204981
 11
428.6463372912
 21
236.7116438453
  0
LINE
  5
451
100
AcDbEntity
  8
0
100
AcDbLine
 62
7
  6
CONTINUOUS
 10
429.8728573204
 20
232.083984152
 11
429.8007089619
 21
232.5627074991
  0
LINE
  5
452
100
AcDbEntity
  8
0
100
AcDbLine
 62
7
  6
CONTINUOUS
 10
430.0893019828
 20
235.2754733567
 11
430.0171536244
 21
235.7541967039
  0
LINE
  5
453
100
AcDbEntity
  8
0
100
AcDbLine
 62
7
  6
CONTINUOUS
 10
431.8208592825
 20
236.2329204981
 11
431.748710924
 21
236.7116438453
  0
LINE
  5
454
100
AcDbEntity
  8
0
100
AcDbLine
 62
7
  6
CONTINUOUS
 10
429.1017163871
 20
232.5627074991
 11
429.1738647455
 21
231.9244097029
  0
LINE
  5
455
100
AcDbEntity
  8
0
100
AcDbLine
 62
7
  6
CONTINUOUS
 10
429.367819637
 20
232.5627074991
 11
429.4399679955
 21
231.9244097029
  0
LINE
  5
456
100
AcDbEntity
  8
0
100
AcDbLine
 62
7
  6
CONTINUOUS
 10
429.3181610495
 20
235.5946222548
 11
429.390309408
 21
234.9563244586
  0
LINE
  5
457
100
AcDbEntity
  8
0
100
AcDbLine
 62
7
  6
CONTINUOUS
 10
429.5842642995
 20
235.5946222548
 11
429.6564126579
 21
234.9563244586
  0
LINE
  5
458
100
AcDbEntity
  8
0
100
AcDbLine
 62
7
  6
CONTINUOUS
 10
428.0194930748
 20
236.2329204981
 11
428.0194930748
 21
235.7541967039
  0
LINE
  5
459
100
AcDbEntity
  8
0
100
AcDbLine
 62
7
  6
CONTINUOUS
 10
428.2855963248
 20
236.2329204981
 11
428.2855963248
 21
235.7541967039
  0
LINE
  5
45A
100
AcDbEntity
  8
0
100
AcDbLine
 62
7
  6
CONTINUOUS
 10
428.7184856497
 20
235.5946222548
 11
428.7184856497
 21
236.2329204981
  0
LINE
  5
45B
100
AcDbEntity
  8
0
100
AcDbLine
 62
7
  6
CONTINUOUS
 10
429.3181610495
 20
236.2329204981
 11
429.3181610495
 21
235.5946222548
  0
LINE
  5
45C
100
AcDbEntity
  8
0
100
AcDbLine
 62
7
  6
CONTINUOUS
 10
429.5842642995
 20
236.2329204981
 11
429.5842642995
 21
235.5946222548
  0
LINE
  5
45D
100
AcDbEntity
  8
0
100
AcDbLine
 62
7
  6
CONTINUOUS
 10
430.0171536244
 20
235.7541967039
 11
430.0171536244
 21
236.073345602
  0
LINE
  5
45E
100
AcDbEntity
  8
0
100
AcDbLine
 62
7
  6
CONTINUOUS
 10
431.3383113701
 20
232.8818563973
 11
431.3383113701
 21
232.4031330501
  0
LINE
  5
45F
100
AcDbEntity
  8
0
100
AcDbLine
 62
7
  6
CONTINUOUS
 10
431.60441462
 20
232.8818563973
 11
431.60441462
 21
232.4031330501
  0
LINE
  5
460
100
AcDbEntity
  8
0
100
AcDbLine
 62
7
  6
CONTINUOUS
 10
432.0373035321
 20
232.243558601
 11
432.0373035321
 21
233.0414308463
  0
LINE
  5
461
100
AcDbEntity
  8
0
100
AcDbLine
 62
7
  6
CONTINUOUS
 10
432.3483863239
 20
233.9988777642
 11
432.3483863239
 21
233.2010052954
  0
LINE
  5
462
100
AcDbEntity
  8
0
100
AcDbLine
 62
7
  6
CONTINUOUS
 10
432.6144895738
 20
233.9988777642
 11
432.6144895738
 21
233.2010052954
  0
LINE
  5
463
100
AcDbEntity
  8
0
100
AcDbLine
 62
7
  6
CONTINUOUS
 10
433.6245649405
 20
233.2010052954
 11
433.6245649405
 21
233.9988777642
  0
LINE
  5
464
100
AcDbEntity
  8
0
100
AcDbLine
 62
7
  6
CONTINUOUS
 10
433.9356469067
 20
237.9882394378
 11
433.9356469067
 21
230.4882394378
  0
LINE
  5
465
100
AcDbEntity
  8
0
100
AcDbLine
 62
7
  6
CONTINUOUS
 10
434.2017501566
 20
237.9882394378
 11
434.2017501566
 21
230.4882394378
  0
LINE
  5
466
100
AcDbEntity
  8
0
100
AcDbLine
 62
7
  6
CONTINUOUS
 10
434.6346394815
 20
231.445686244
 11
434.6346394815
 21
237.9882394378
  0
LINE
  5
467
100
AcDbEntity
  8
0
100
AcDbLine
 62
7
  6
CONTINUOUS
 10
429.390309408
 20
236.8712182944
 11
429.3181610495
 21
236.2329204981
  0
LINE
  5
468
100
AcDbEntity
  8
0
100
AcDbLine
 62
7
  6
CONTINUOUS
 10
429.6564126579
 20
236.8712182944
 11
429.5842642995
 21
236.2329204981
  0
LINE
  5
469
100
AcDbEntity
  8
0
100
AcDbLine
 62
7
  6
CONTINUOUS
 10
428.0194930748
 20
235.7541967039
 11
427.9473449228
 21
235.2754733567
  0
LINE
  5
46A
100
AcDbEntity
  8
0
100
AcDbLine
 62
7
  6
CONTINUOUS
 10
428.2855963248
 20
235.7541967039
 11
428.2134481728
 21
235.2754733567
  0
LINE
  5
46B
100
AcDbEntity
  8
0
100
AcDbLine
 62
7
  6
CONTINUOUS
 10
428.6463372912
 20
235.1158989077
 11
428.7184856497
 21
235.5946222548
  0
LINE
  5
46C
100
AcDbEntity
  8
0
100
AcDbLine
 62
7
  6
CONTINUOUS
 10
436.7990861061
 20
230.4882394378
 11
436.7990861061
 21
231.445686244
  0
LINE
  5
46D
100
AcDbEntity
  8
0
100
AcDbLine
 62
7
  6
CONTINUOUS
 10
437.1101688979
 20
237.9882394378
 11
437.1101688979
 21
237.1903671925
  0
LINE
  5
46E
100
AcDbEntity
  8
0
100
AcDbLine
 62
7
  6
CONTINUOUS
 10
437.3762721478
 20
237.9882394378
 11
437.3762721478
 21
237.1903671925
  0
LINE
  5
46F
100
AcDbEntity
  8
0
100
AcDbLine
 62
7
  6
CONTINUOUS
 10
438.2645401557
 20
237.1903671925
 11
438.2645401557
 21
230.4882394378
  0
LINE
  5
470
100
AcDbEntity
  8
0
100
AcDbLine
 62
7
  6
CONTINUOUS
 10
438.5306434057
 20
237.1903671925
 11
438.5306434057
 21
230.4882394378
  0
LINE
  5
471
100
AcDbEntity
  8
0
100
AcDbLine
 62
7
  6
CONTINUOUS
 10
438.9635335563
 20
230.4882394378
 11
438.9635335563
 21
237.1903671925
  0
LINE
  5
472
100
AcDbEntity
  8
0
100
AcDbLine
 62
7
  6
CONTINUOUS
 10
440.1179039885
 20
237.1903671925
 11
440.1179039885
 21
237.9882394378
  0
LINE
  5
473
100
AcDbEntity
  8
0
100
AcDbLine
 62
7
  6
CONTINUOUS
 10
441.3164102378
 20
226.7382394378
 11
441.3164102378
 21
241.7382394378
  0
LINE
  5
474
100
AcDbEntity
  8
B-ACHSEN
100
AcDbLine
 62
7
  6
CONTINUOUS
 10
441.4766670603
 20
221.7382394378
 11
441.4766670603
 21
244.8613560319
  0
LINE
  5
475
100
AcDbEntity
  8
0
100
AcDbLine
 62
7
  6
CONTINUOUS
 10
430.0171536244
 20
236.073345602
 11
430.0893019828
 21
236.5520693963
  0
LINE
  5
476
100
AcDbEntity
  8
0
100
AcDbLine
 62
7
  6
CONTINUOUS
 10
431.8930072281
 20
231.605260693
 11
432.0373035321
 21
232.243558601
  0
LINE
  5
477
100
AcDbEntity
  8
0
100
AcDbLine
 62
7
  6
CONTINUOUS
 10
431.3383113701
 20
232.4031330501
 11
431.1940146532
 21
231.9244097029
  0
LINE
  5
478
100
AcDbEntity
  8
0
100
AcDbLine
 62
7
  6
CONTINUOUS
 10
431.60441462
 20
232.4031330501
 11
431.4601179031
 21
231.9244097029
  0
LINE
  5
479
100
AcDbEntity
  8
0
100
AcDbLine
 62
7
  6
CONTINUOUS
 10
428.4298928352
 20
234.4776011114
 11
428.6463372912
 21
235.1158989077
  0
LINE
  5
47A
100
AcDbEntity
  8
0
100
AcDbLine
 62
7
  6
CONTINUOUS
 10
427.9473449228
 20
235.2754733567
 11
427.8030484124
 21
234.9563244586
  0
LINE
  5
47B
100
AcDbEntity
  8
0
100
AcDbLine
 62
7
  6
CONTINUOUS
 10
428.2134481728
 20
235.2754733567
 11
428.0691516623
 21
234.9563244586
  0
LINE
  5
47C
100
AcDbEntity
  8
0
100
AcDbLine
 62
7
  6
CONTINUOUS
 10
429.678902016
 20
237.5095160906
 11
429.390309408
 21
236.8712182944
  0
LINE
  5
47D
100
AcDbEntity
  8
0
100
AcDbLine
 62
7
  6
CONTINUOUS
 10
429.945005266
 20
237.5095160906
 11
429.6564126579
 21
236.8712182944
  0
LINE
  5
47E
100
AcDbEntity
  8
0
100
AcDbLine
 62
7
  6
CONTINUOUS
 10
412.8202046649
 20
325.4775970686
 11
413.1203679681
 21
325.4775970686
  0
LINE
  5
47F
100
AcDbEntity
  8
0
100
AcDbLine
 62
7
  6
CONTINUOUS
 10
412.7128627357
 20
328.7304062437
 11
413.0130260389
 21
328.7304062437
  0
LINE
  5
480
100
AcDbEntity
  8
0
100
AcDbLine
 62
7
  6
CONTINUOUS
 10
431.60441462
 20
230.9669628409
 11
431.8930072281
 21
231.605260693
  0
LINE
  5
481
100
AcDbEntity
  8
0
100
AcDbLine
 62
7
  6
CONTINUOUS
 10
430.0893019828
 20
236.5520693963
 11
430.3057466453
 21
236.8712182944
  0
LINE
  5
482
100
AcDbEntity
  8
0
100
AcDbLine
 62
7
  6
CONTINUOUS
 10
431.1940146532
 20
231.9244097029
 11
430.9775699907
 21
231.605260693
  0
LINE
  5
483
100
AcDbEntity
  8
0
100
AcDbLine
 62
7
  6
CONTINUOUS
 10
431.4601179031
 20
231.9244097029
 11
431.2436732407
 21
231.605260693
  0
LINE
  5
484
100
AcDbEntity
  8
0
100
AcDbLine
 62
7
  6
CONTINUOUS
 10
429.9674950369
 20
237.8286649888
 11
429.678902016
 21
237.5095160906
  0
LINE
  5
485
100
AcDbEntity
  8
0
100
AcDbLine
 62
7
  6
CONTINUOUS
 10
430.2335982869
 20
237.8286649888
 11
429.945005266
 21
237.5095160906
  0
LINE
  5
486
100
AcDbEntity
  8
0
100
AcDbLine
 62
7
  6
CONTINUOUS
 10
428.1412998143
 20
234.1584522133
 11
428.4298928352
 21
234.4776011114
  0
LINE
  5
487
100
AcDbEntity
  8
0
100
AcDbLine
 62
7
  6
CONTINUOUS
 10
431.3158215991
 20
230.6478139008
 11
431.60441462
 21
230.9669628409
  0
LINE
  5
488
100
AcDbEntity
  8
0
100
AcDbLine
 62
7
  6
CONTINUOUS
 10
430.3057466453
 20
236.8712182944
 11
430.5221913077
 21
237.0307927434
  0
LINE
  5
489
100
AcDbEntity
  8
0
100
AcDbLine
 62
7
  6
CONTINUOUS
 10
427.8030484124
 20
234.9563244586
 11
427.5866037499
 21
234.7967500095
  0
LINE
  5
48A
100
AcDbEntity
  8
0
100
AcDbLine
 62
7
  6
CONTINUOUS
 10
428.0691516623
 20
234.9563244586
 11
427.8527069999
 21
234.7967500095
  0
LINE
  5
48B
100
AcDbEntity
  8
0
100
AcDbLine
 62
7
  6
CONTINUOUS
 10
430.2560880578
 20
237.9882394378
 11
429.9674950369
 21
237.8286649888
  0
LINE
  5
48C
100
AcDbEntity
  8
0
100
AcDbLine
 62
7
  6
CONTINUOUS
 10
430.5221913077
 20
237.9882394378
 11
430.2335982869
 21
237.8286649888
  0
LINE
  5
48D
100
AcDbEntity
  8
0
100
AcDbLine
 62
7
  6
CONTINUOUS
 10
430.9775699907
 20
231.605260693
 11
430.6889773827
 21
231.445686244
  0
LINE
  5
48E
100
AcDbEntity
  8
0
100
AcDbLine
 62
7
  6
CONTINUOUS
 10
431.2436732407
 20
231.605260693
 11
430.9550806326
 21
231.445686244
  0
LINE
  5
48F
100
AcDbEntity
  8
0
100
AcDbLine
 62
7
  6
CONTINUOUS
 10
430.9550806326
 20
230.4882394378
 11
431.3158215991
 21
230.6478139008
  0
LINE
  5
490
100
AcDbEntity
  8
0
100
AcDbLine
 62
7
  6
CONTINUOUS
 10
412.5832895649
 20
332.6568942569
 11
412.8834528681
 21
332.6568942569
  0
LINE
  5
491
100
AcDbEntity
  8
0
100
AcDbLine
 62
7
  6
CONTINUOUS
 10
412.5585790198
 20
333.4057040514
 11
412.858742323
 21
333.4057040514
  0
LINE
  5
492
100
AcDbEntity
  8
0
100
AcDbLine
 62
7
  6
CONTINUOUS
 10
412.5438351082
 20
333.8524924714
 11
412.8439984114
 21
333.8524924714
  0
LINE
  5
493
100
AcDbEntity
  8
0
100
AcDbLine
 62
7
  6
CONTINUOUS
 10
412.5367739441
 20
334.0664686827
 11
412.8369372473
 21
334.0664686827
  0
LINE
  5
494
100
AcDbEntity
  8
0
100
AcDbLine
 62
7
  6
CONTINUOUS
 10
412.5353141606
 20
334.1107048631
 11
412.8354774638
 21
334.1107048631
  0
LINE
  5
495
100
AcDbEntity
  8
0
100
AcDbLine
 62
7
  6
CONTINUOUS
 10
412.4645141636
 20
336.2561747796
 11
412.7646774668
 21
336.2561747796
  0
LINE
  5
496
100
AcDbEntity
  8
0
100
AcDbLine
 62
7
  6
CONTINUOUS
 10
412.4321208555
 20
337.237797251
 11
412.7322841587
 21
337.237797251
  0
LINE
  5
497
100
AcDbEntity
  8
0
100
AcDbLine
 62
7
  6
CONTINUOUS
 10
412.4262958111
 20
337.4143150175
 11
412.7264591143
 21
337.4143150175
  0
LINE
  5
498
100
AcDbEntity
  8
0
100
AcDbLine
 62
7
  6
CONTINUOUS
 10
412.4055314221
 20
338.0435434628
 11
412.7056947253
 21
338.0435434628
  0
LINE
  5
499
100
AcDbEntity
  8
0
100
AcDbLine
 62
7
  6
CONTINUOUS
 10
412.3878820565
 20
338.578376578
 11
412.6880453597
 21
338.578376578
  0
LINE
  5
49A
100
AcDbEntity
  8
0
100
AcDbLine
 62
7
  6
CONTINUOUS
 10
412.3733476818
 20
339.0188153477
 11
412.673510985
 21
339.0188153477
  0
LINE
  5
49B
100
AcDbEntity
  8
0
100
AcDbLine
 62
7
  6
CONTINUOUS
 10
412.3025476847
 20
341.1642852642
 11
412.6027109879
 21
341.1642852642
  0
LINE
  5
49C
100
AcDbEntity
  8
0
100
AcDbLine
 62
7
  6
CONTINUOUS
 10
412.270154392
 20
342.1459072675
 11
412.5703176952
 21
342.1459072675
  0
LINE
  5
49D
100
AcDbEntity
  8
0
100
AcDbLine
 62
7
  6
CONTINUOUS
 10
412.2269633454
 20
343.4547362931
 11
412.5271266486
 21
343.4547362931
  0
LINE
  5
49E
100
AcDbEntity
  8
0
100
AcDbLine
 62
7
  6
CONTINUOUS
 10
412.0973901747
 20
347.3812243063
 11
412.3975534779
 21
347.3812243063
  0
LINE
  5
49F
100
AcDbEntity
  8
0
100
AcDbLine
 62
7
  6
CONTINUOUS
 10
412.0726796141
 20
348.1300345689
 11
412.3728429173
 21
348.1300345689
  0
LINE
  5
4A0
100
AcDbEntity
  8
0
100
AcDbLine
 62
7
  6
CONTINUOUS
 10
412.0556518474
 20
348.6460312184
 11
412.3558151506
 21
348.6460312184
  0
LINE
  5
4A1
100
AcDbEntity
  8
0
100
AcDbLine
 62
7
  6
CONTINUOUS
 10
412.0431918218
 20
349.0236104728
 11
412.343355125
 21
349.0236104728
  0
LINE
  5
4A2
100
AcDbEntity
  8
0
100
AcDbLine
 62
7
  6
CONTINUOUS
 10
412.0415295192
 20
349.0739836409
 11
412.3416928224
 21
349.0739836409
  0
LINE
  5
4A3
100
AcDbEntity
  8
B-ACHSEN
100
AcDbLine
 62
7
  6
CONTINUOUS
 10
412.4766670603
 20
162.7382394378
 11
408.4766670603
 21
158.7382394378
  0
LINE
  5
4A4
100
AcDbEntity
  8
0
100
AcDbLine
 62
7
  6
CONTINUOUS
 10
411.2056736116
 20
374.4031330575
 11
411.5058369148
 21
374.4031330575
  0
LINE
  5
4A5
100
AcDbEntity
  8
0
100
AcDbLine
 62
7
  6
CONTINUOUS
 10
411.1698653591
 20
375.4882394378
 11
411.4700286623
 21
375.4882394378
  0
LINE
  5
4A6
100
AcDbEntity
  8
0
100
AcDbLine
 62
7
  6
CONTINUOUS
 10
410.9788880179
 20
381.2754732971
 11
411.2790513211
 21
381.2754732971
  0
LINE
  5
4A7
100
AcDbEntity
  8
0
100
AcDbLine
 62
7
  6
CONTINUOUS
 10
410.9311436701
 20
382.7222821419
 11
411.2313069733
 21
382.7222821419
  0
LINE
  5
4A8
100
AcDbEntity
  8
0
100
AcDbLine
 62
7
  6
CONTINUOUS
 10
410.8893673804
 20
383.9882394378
 11
411.1895306836
 21
383.9882394378
  0
LINE
  5
4A9
100
AcDbEntity
  8
RUNDUNGEN
100
AcDbLine
 62
7
  6
CONTINUOUS
 10
406.6336779717
 20
395.6704778589
 11
376.3196561488
 21
395.6704778589
  0
LWPOLYLINE
  5
4AA
100
AcDbEntity
  8
RUNDUNGEN
100
AcDbPolyline
 62
7
  6
CONTINUOUS
 90
22
 70
0
 10
90.2594496159
 20
43.6324343988
 10
90.2883109271
 20
43.1523900443
 10
90.3651507846
 20
42.7181882418
 10
90.4825185354
 20
42.3141771302
 10
90.6358998124
 20
41.9368315672
 10
90.8208088603
 20
41.5870281024
 10
91.0352886331
 20
41.2625947957
 10
91.2739068003
 20
40.9674713711
 10
91.5319723794
 20
40.7030411029
 10
91.8044911554
 20
40.4702095468
 10
92.0868098538
 20
40.2688862537
 10
92.3738059364
 20
40.098700096
 10
92.6630095505
 20
39.9573769143
 10
92.9444045207
 20
39.8455217671
 10
93.2119724378
 20
39.7602716417
 10
93.4565076877
 20
39.6986647006
 10
93.664896669
 20
39.6571883383
 10
93.8513472562
 20
39.6275482008
 10
94.0230838936
 20
39.605416552
 10
94.1913234841
 20
39.5875126441
 10
94.3690463566
 20
39.5716740631
 10
117.7866522642
 20
37.7059927539
  0
LINE
  5
4AB
100
AcDbEntity
  8
RUNDUNGEN
100
AcDbLine
 62
7
  6
CONTINUOUS
 10
90.25944956
 20
43.6324272353
 11
90.25944956
 21
79.4859373804
  0
LINE
  5
4AC
100
AcDbEntity
  8
0
100
AcDbLine
 62
7
  6
CONTINUOUS
 10
106.3603544532
 20
40.3229866324
 11
106.3603544532
 21
40.0228233292
  0
LINE
  5
4AD
100
AcDbEntity
  8
0
100
AcDbLine
 62
7
  6
CONTINUOUS
 10
107.9867590408
 20
40.4525598032
 11
107.9867590408
 21
40.1523965
  0
LINE
  5
4AE
100
AcDbEntity
  8
0
100
AcDbLine
 62
7
  6
CONTINUOUS
 10
108.4926779709
 20
40.4772703483
 11
108.4926779709
 21
40.1771070451
  0
LINE
  5
4AF
100
AcDbEntity
  8
0
100
AcDbLine
 62
7
  6
CONTINUOUS
 10
109.2649990667
 20
40.4920142599
 11
109.2649990667
 21
40.1918509567
  0
LINE
  5
4B0
100
AcDbEntity
  8
0
100
AcDbLine
 62
7
  6
CONTINUOUS
 10
109.4776298481
 20
40.5713352045
 11
109.4776298481
 21
40.2711719013
  0
LINE
  5
4B1
100
AcDbEntity
  8
0
100
AcDbLine
 62
7
  6
CONTINUOUS
 10
109.8842311888
 20
40.6037285126
 11
109.8842311888
 21
40.3035652094
  0
LINE
  5
4B2
100
AcDbEntity
  8
0
100
AcDbLine
 62
7
  6
CONTINUOUS
 10
110.1086475959
 20
40.1650660934
 11
110.1086475959
 21
40.0095392042
  0
LINE
  5
4B3
100
AcDbEntity
  8
0
100
AcDbLine
 62
7
  6
CONTINUOUS
 10
110.1366379457
 20
40.2621639532
 11
110.1366379457
 21
40.1989121208
  0
LINE
  5
4B4
100
AcDbEntity
  8
0
100
AcDbLine
 62
7
  6
CONTINUOUS
 10
110.705658468
 20
40.2543860407
 11
110.705658468
 21
40.1974593861
  0
LINE
  5
4B5
100
AcDbEntity
  8
0
100
AcDbLine
 62
7
  6
CONTINUOUS
 10
111.3739972416
 20
40.245250552
 11
111.3739972416
 21
40.1883238974
  0
LINE
  5
4B6
100
AcDbEntity
  8
0
100
AcDbLine
 62
7
  6
CONTINUOUS
 10
111.5106357764
 20
40.7333016834
 11
111.5106357764
 21
40.4331383802
  0
LINE
  5
4B7
100
AcDbEntity
  8
0
100
AcDbLine
 62
7
  6
CONTINUOUS
 10
111.8074841776
 20
40.2393252412
 11
111.8074841776
 21
40.1760734088
  0
LINE
  5
4B8
100
AcDbEntity
  8
0
100
AcDbLine
 62
7
  6
CONTINUOUS
 10
111.9172369233
 20
40.7656949761
 11
111.9172369233
 21
40.4655316729
  0
LINE
  5
4B9
100
AcDbEntity
  8
0
100
AcDbLine
 62
7
  6
CONTINUOUS
 10
112.2725219097
 20
40.2329686641
 11
112.2725219097
 21
40.1507412802
  0
LINE
  5
4BA
100
AcDbEntity
  8
0
100
AcDbLine
 62
7
  6
CONTINUOUS
 10
112.3356236959
 20
40.232106129
 11
112.3356236959
 21
40.1245780158
  0
LINE
  5
4BB
100
AcDbEntity
  8
0
100
AcDbLine
 62
7
  6
CONTINUOUS
 10
112.4593716566
 20
40.8088860227
 11
112.4593716566
 21
40.5087227195
  0
LINE
  5
4BC
100
AcDbEntity
  8
0
100
AcDbLine
 62
7
  6
CONTINUOUS
 10
114.0857762441
 20
40.9384591934
 11
114.0857762441
 21
40.6382958902
  0
LINE
  5
4BD
100
AcDbEntity
  8
0
100
AcDbLine
 62
7
  6
CONTINUOUS
 10
114.5916953681
 20
40.963169754
 11
114.5916953681
 21
40.6630064508
  0
LINE
  5
4BE
100
AcDbEntity
  8
0
100
AcDbLine
 62
7
  6
CONTINUOUS
 10
114.6199316265
 20
40.0848417466
 11
114.6199316265
 21
39.9478746926
  0
LINE
  5
4BF
100
AcDbEntity
  8
0
100
AcDbLine
 62
7
  6
CONTINUOUS
 10
115.063853759
 20
40.3845696246
 11
115.063853759
 21
40.2327652124
  0
LINE
  5
4C0
100
AcDbEntity
  8
0
100
AcDbLine
 62
7
  6
CONTINUOUS
 10
115.1969316936
 20
40.9801975207
 11
115.1969316936
 21
40.6800342175
  0
LINE
  5
4C1
100
AcDbEntity
  8
0
100
AcDbLine
 62
7
  6
CONTINUOUS
 10
115.7999586638
 20
40.3745078441
 11
115.7999586638
 21
40.2290285916
  0
LINE
  5
4C2
100
AcDbEntity
  8
0
100
AcDbLine
 62
7
  6
CONTINUOUS
 10
116.1363371719
 20
40.9926575463
 11
116.1363371719
 21
40.6924942431
  0
LINE
  5
4C3
100
AcDbEntity
  8
0
100
AcDbLine
 62
7
  6
CONTINUOUS
 10
116.4367463671
 20
40.3623383831
 11
116.4367463671
 21
40.2329747648
  0
LINE
  5
4C4
100
AcDbEntity
  8
0
100
AcDbLine
 62
7
  6
CONTINUOUS
 10
116.7884711412
 20
40.2016396302
 11
116.7884711412
 21
40.1206389254
  0
LINE
  5
4C5
100
AcDbEntity
  8
0
100
AcDbLine
 62
7
  6
CONTINUOUS
 10
116.9402094516
 20
40.9943198489
 11
116.9402094516
 21
40.6941565457
  0
LINE
  5
4C6
100
AcDbEntity
  8
0
100
AcDbLine
 62
7
  6
CONTINUOUS
 10
116.9742162104
 20
40.3554663433
 11
116.9742162104
 21
40.2446036684
  0
LINE
  5
4C7
100
AcDbEntity
  8
0
100
AcDbLine
 62
7
  6
CONTINUOUS
 10
117.0968594934
 20
40.4453331345
 11
117.0968594934
 21
40.3947316758
  0
LINE
  5
4C8
100
AcDbEntity
  8
0
100
AcDbLine
 62
7
  6
CONTINUOUS
 10
117.4123679595
 20
40.3478040084
 11
117.4123679595
 21
40.2639153057
  0
LINE
  5
4C9
100
AcDbEntity
  8
0
100
AcDbLine
 62
7
  6
CONTINUOUS
 10
117.68343552
 20
40.3301546428
 11
117.68343552
 21
40.2855108444
  0
LINE
  5
4CA
100
AcDbEntity
  8
0
100
AcDbLine
 62
7
  6
CONTINUOUS
 10
117.8433994009
 20
40.9882993512
 11
117.8433994009
 21
40.688136048
  0
LINE
  5
4CB
100
AcDbEntity
  8
0
100
AcDbLine
 62
7
  6
CONTINUOUS
 10
117.8645153883
 20
40.4348400851
 11
117.8645153883
 21
40.3779134306
  0
LINE
  5
4CC
100
AcDbEntity
  8
0
100
AcDbLine
 62
7
  6
CONTINUOUS
 10
118.3973202245
 20
40.427557203
 11
118.3973202245
 21
40.3579801928
  0
LINE
  5
4CD
100
AcDbEntity
  8
0
100
AcDbLine
 62
7
  6
CONTINUOUS
 10
118.794591028
 20
40.4221269286
 11
118.794591028
 21
40.327249171
  0
LINE
  5
4CE
100
AcDbEntity
  8
0
100
AcDbLine
 62
7
  6
CONTINUOUS
 10
118.8576926641
 20
40.4212643955
 11
118.8576926641
 21
40.3010858905
  0
LINE
  5
4CF
100
AcDbEntity
  8
0
100
AcDbLine
 62
7
  6
CONTINUOUS
 10
119.7164412544
 20
40.6214846937
 11
119.7164412544
 21
40.4474773079
  0
LINE
  5
4D0
100
AcDbEntity
  8
0
100
AcDbLine
 62
7
  6
CONTINUOUS
 10
120.3496682807
 20
40.9540412896
 11
120.3496682807
 21
40.6538779864
  0
LINE
  5
4D1
100
AcDbEntity
  8
0
100
AcDbLine
 62
7
  6
CONTINUOUS
 10
120.9362446951
 20
40.5893009534
 11
120.9362446951
 21
40.5446571859
  0
LINE
  5
4D2
100
AcDbEntity
  8
0
100
AcDbLine
 62
7
  6
CONTINUOUS
 10
121.1173245634
 20
40.9372230752
 11
121.1173245634
 21
40.637059772
  0
LINE
  5
4D3
100
AcDbEntity
  8
0
100
AcDbLine
 62
7
  6
CONTINUOUS
 10
121.6501290118
 20
40.9172898065
 11
121.6501290118
 21
40.6171265033
  0
LINE
  5
4D4
100
AcDbEntity
  8
0
100
AcDbLine
 62
7
  6
CONTINUOUS
 10
122.0474002031
 20
40.8865588156
 11
122.0474002031
 21
40.5863955124
  0
LINE
  5
4D5
100
AcDbEntity
  8
0
100
AcDbLine
 62
7
  6
CONTINUOUS
 10
122.110502227
 20
40.860395566
 11
122.110502227
 21
40.5602322628
  0
LWPOLYLINE
  5
4D6
100
AcDbEntity
  8
RUNDUNGEN
100
AcDbPolyline
 62
7
  6
CONTINUOUS
 90
7
 70
0
 10
135.1970770827
 20
87.0829913571
 10
134.9439832722
 20
86.7209810068
 10
134.6404698724
 20
86.4000520776
 10
134.2931145853
 20
86.1271652422
 10
133.909444443
 20
85.9082388895
 10
133.4977740889
 20
85.7480228298
 10
133.0670287363
 20
85.6499958173
  0
LINE
  5
4D7
100
AcDbEntity
  8
RUNDUNGEN
100
AcDbLine
 62
7
  6
CONTINUOUS
 10
135.1933912645
 20
36.0416103334
 11
135.194610329
 21
36.0395562647
  0
LINE
  5
4D8
100
AcDbEntity
  8
0
100
AcDbLine
 62
7
  6
CONTINUOUS
 10
112.3356236959
 20
40.1245780158
 11
112.2725219097
 21
40.1507412802
  0
LINE
  5
4D9
100
AcDbEntity
  8
0
100
AcDbLine
 62
7
  6
CONTINUOUS
 10
118.8576926641
 20
40.3010858905
 11
118.794591028
 21
40.327249171
  0
LINE
  5
4DA
100
AcDbEntity
  8
0
100
AcDbLine
 62
7
  6
CONTINUOUS
 10
122.110502227
 20
40.5602322628
 11
122.0474002031
 21
40.5863955124
  0
LINE
  5
4DB
100
AcDbEntity
  8
0
100
AcDbLine
 62
7
  6
CONTINUOUS
 10
122.110502227
 20
40.860395566
 11
122.0474002031
 21
40.8865588156
  0
LWPOLYLINE
  5
4DC
100
AcDbEntity
  8
RUNDUNGEN
100
AcDbPolyline
 62
7
  6
CONTINUOUS
 90
7
 70
0
 10
133.0670498738
 20
37.4683663859
 10
133.4978042095
 20
37.3703331462
 10
133.9094817843
 20
37.2101083152
 10
134.293156846
 20
36.9911711031
 10
134.6405143686
 20
36.7182718344
 10
134.9440270354
 20
36.3973294659
 10
135.1659018443
 20
36.0799559262
  0
LINE
  5
4DD
100
AcDbEntity
  8
RUNDUNGEN
100
AcDbLine
 62
7
  6
CONTINUOUS
 10
223.3163472258
 20
37.4683687983
 11
223.6544339416
 21
37.5000540193
  0
LWPOLYLINE
  5
4DE
100
AcDbEntity
  8
RUNDUNGEN
100
AcDbPolyline
 62
7
  6
CONTINUOUS
 90
21
 70
0
 10
262.0409931626
 20
39.5738826887
 10
262.2293651586
 20
39.5912095568
 10
262.4063817269
 20
39.610932
 10
262.5879676493
 20
39.6357718782
 10
262.789724104
 20
39.6703088148
 10
263.0130428603
 20
39.7186989446
 10
263.2663674635
 20
39.788299473
 10
263.5386859012
 20
39.8824383432
 10
263.8199868651
 20
40.0028844519
 10
264.1057892585
 20
40.1522244786
 10
264.3874652788
 20
40.3297543043
 10
264.6631390429
 20
40.5377738975
 10
264.9286666012
 20
40.7772032326
 10
265.1792757338
 20
41.0480443714
 10
265.4101356397
 20
41.3496384261
 10
265.6163774319
 20
41.6805391538
 10
265.7931859153
 20
42.0383669378
 10
265.936268891
 20
42.4205928208
 10
266.0414867117
 20
42.8238469842
 10
266.1050547621
 20
43.2440185473
 10
266.1239263501
 20
43.6324378362
  0
LINE
  5
4DF
100
AcDbEntity
  8
RUNDUNGEN
100
AcDbLine
 62
7
  6
CONTINUOUS
 10
262.0409931626
 20
39.5738826887
 11
238.5967236979
 21
37.7059927539
  0
LINE
  5
4E0
100
AcDbEntity
  8
RUNDUNGEN
100
AcDbLine
 62
7
  6
CONTINUOUS
 10
238.2790563373
 20
37.6933587326
 11
238.6032608721
 21
37.7065198855
  0
LINE
  5
4E1
100
AcDbEntity
  8
RUNDUNGEN
100
AcDbLine
 62
7
  6
CONTINUOUS
 10
117.7957271332
 20
37.7052819571
 11
118.1043196249
 21
37.6933596701
  0
LINE
  5
4E2
100
AcDbEntity
  8
0
100
AcDbLine
 62
7
  6
CONTINUOUS
 10
111.2337984543
 20
40.1459639867
 11
111.4324338268
 21
40.1305984762
  0
LINE
  5
4E3
100
AcDbEntity
  8
RUNDUNGEN
100
AcDbLine
 62
7
  6
CONTINUOUS
 10
132.7289439758
 20
37.5000548719
 11
133.0670498738
 21
37.4683663859
  0
LINE
  5
4E4
100
AcDbEntity
  8
0
100
AcDbLine
 62
7
  6
CONTINUOUS
 10
117.6565498078
 20
40.3301546428
 11
117.7874185041
 21
40.3093902538
  0
LINE
  5
4E5
100
AcDbEntity
  8
0
100
AcDbLine
 62
7
  6
CONTINUOUS
 10
120.9093585951
 20
40.5893009534
 11
121.0402272915
 21
40.5685365643
  0
LINE
  5
4E6
100
AcDbEntity
  8
0
100
AcDbLine
 62
7
  6
CONTINUOUS
 10
173.8531459965
 20
41.6493732936
 11
173.6760623254
 21
41.6314691694
  0
LINE
  5
4E7
100
AcDbEntity
  8
0
100
AcDbLine
 62
7
  6
CONTINUOUS
 10
174.3843959965
 20
41.6135650411
 11
174.7385623254
 21
41.6434052522
  0
LINE
  5
4E8
100
AcDbEntity
  8
0
100
AcDbLine
 62
7
  6
CONTINUOUS
 10
182.3531459965
 20
41.5658207058
 11
185.8948133387
 21
41.8164784776
  0
LINE
  5
4E9
100
AcDbEntity
  8
0
100
AcDbLine
 62
7
  6
CONTINUOUS
 10
184.8323133387
 20
41.8164784776
 11
181.2906459965
 21
41.5658207058
  0
LINE
  5
4EA
100
AcDbEntity
  8
0
100
AcDbLine
 62
7
  6
CONTINUOUS
 10
177.0406459965
 20
41.5300124533
 11
177.2210969844
 21
41.5411619405
  0
LINE
  5
4EB
100
AcDbEntity
  8
0
100
AcDbLine
 62
7
  6
CONTINUOUS
 10
177.2177296676
 20
41.5956609169
 11
176.1552296676
 21
41.5300124533
  0
LINE
  5
4EC
100
AcDbEntity
  8
0
100
AcDbLine
 62
7
  6
CONTINUOUS
 10
177.2177296676
 20
41.8958242201
 11
176.1552296676
 21
41.8301757565
  0
LINE
  5
4ED
100
AcDbEntity
  8
0
100
AcDbLine
 62
7
  6
CONTINUOUS
 10
173.6760623254
 20
41.6314691694
 11
173.3218959965
 21
41.6135650411
  0
LINE
  5
4EE
100
AcDbEntity
  8
0
100
AcDbLine
 62
7
  6
CONTINUOUS
 10
173.8531459965
 20
41.5896928734
 11
174.3843959965
 21
41.6135650411
  0
LINE
  5
4EF
100
AcDbEntity
  8
RUNDUNGEN
100
AcDbLine
 62
7
  6
CONTINUOUS
 10
223.6546017983
 20
37.5000601982
 11
224.1808002658
 21
37.5184871106
  0
LINE
  5
4F0
100
AcDbEntity
  8
RUNDUNGEN
100
AcDbLine
 62
7
  6
CONTINUOUS
 10
224.1808002658
 20
37.5184871106
 11
225.0991410129
 21
37.5470578943
  0
LINE
  5
4F1
100
AcDbEntity
  8
0
100
AcDbLine
 62
7
  6
CONTINUOUS
 10
117.3037200268
 20
40.2084737542
 11
117.908956784
 21
40.2255015512
  0
LINE
  5
4F2
100
AcDbEntity
  8
RUNDUNGEN
100
AcDbLine
 62
7
  6
CONTINUOUS
 10
225.0991410129
 20
37.5470578943
 11
226.1422792031
 21
37.5749417416
  0
LINE
  5
4F3
100
AcDbEntity
  8
0
100
AcDbLine
 62
7
  6
CONTINUOUS
 10
169.6031459965
 20
41.6911495917
 11
170.3114791609
 21
41.7090537159
  0
LINE
  5
4F4
100
AcDbEntity
  8
RUNDUNGEN
100
AcDbLine
 62
7
  6
CONTINUOUS
 10
141.0110253704
 20
41.3130369417
 11
143.7504199021
 21
41.3766140119
  0
LINE
  5
4F5
100
AcDbEntity
  8
0
100
AcDbLine
 62
7
  6
CONTINUOUS
 10
173.3218959965
 20
41.6135650411
 11
172.7906459965
 21
41.6016289583
  0
LINE
  5
4F6
100
AcDbEntity
  8
RUNDUNGEN
100
AcDbLine
 62
7
  6
CONTINUOUS
 10
226.1422792031
 20
37.5749417416
 11
227.3126854903
 21
37.6015067346
  0
LINE
  5
4F7
100
AcDbEntity
  8
0
100
AcDbLine
 62
7
  6
CONTINUOUS
 10
116.9742162104
 20
40.2446036684
 11
116.4367463671
 21
40.2329747648
  0
LINE
  5
4F8
100
AcDbEntity
  8
0
100
AcDbLine
 62
7
  6
CONTINUOUS
 10
115.5264354516
 20
40.6439043041
 11
116.0639051778
 21
40.6555332093
  0
LINE
  5
4F9
100
AcDbEntity
  8
0
100
AcDbLine
 62
7
  6
CONTINUOUS
 10
172.9677291609
 20
41.5717887477
 11
173.8531459965
 21
41.5896928734
  0
LINE
  5
4FA
100
AcDbEntity
  8
0
100
AcDbLine
 62
7
  6
CONTINUOUS
 10
170.1343959965
 20
41.7388939228
 11
169.2489791609
 21
41.7209897986
  0
LINE
  5
4FB
100
AcDbEntity
  8
RUNDUNGEN
100
AcDbLine
 62
7
  6
CONTINUOUS
 10
143.7504199021
 20
41.3766140119
 11
146.6455817546
 21
41.4362948665
  0
LINE
  5
4FC
100
AcDbEntity
  8
0
100
AcDbLine
 62
7
  6
CONTINUOUS
 10
109.2649990667
 20
40.1918509567
 11
108.4926779709
 21
40.1771070451
  0
LINE
  5
4FD
100
AcDbEntity
  8
0
100
AcDbLine
 62
7
  6
CONTINUOUS
 10
109.2649990667
 20
40.4920142599
 11
108.4926779709
 21
40.4772703483
  0
LINE
  5
4FE
100
AcDbEntity
  8
RUNDUNGEN
100
AcDbLine
 62
7
  6
CONTINUOUS
 10
227.3126854903
 20
37.6015067346
 11
228.6055164595
 21
37.6259910822
  0
LINE
  5
4FF
100
AcDbEntity
  8
RUNDUNGEN
100
AcDbLine
 62
7
  6
CONTINUOUS
 10
146.6455817546
 20
41.4362948665
 11
149.6920416122
 21
41.4915889863
  0
LINE
  5
500
100
AcDbEntity
  8
RUNDUNGEN
100
AcDbLine
 62
7
  6
CONTINUOUS
 10
149.6920416122
 20
41.4915889863
 11
152.8801626791
 21
41.5419491196
  0
LINE
  5
501
100
AcDbEntity
  8
RUNDUNGEN
100
AcDbLine
 62
7
  6
CONTINUOUS
 10
228.6055164595
 20
37.6259910822
 11
230.0131267686
 21
37.6476714723
  0
LINE
  5
502
100
AcDbEntity
  8
0
100
AcDbLine
 62
7
  6
CONTINUOUS
 10
116.36431449
 20
40.1960137294
 11
117.3037200268
 21
40.2084737542
  0
LINE
  5
503
100
AcDbEntity
  8
0
100
AcDbLine
 62
7
  6
CONTINUOUS
 10
109.2603338657
 20
40.1602887999
 11
109.7300367988
 21
40.1665188281
  0
LINE
  5
504
100
AcDbEntity
  8
0
100
AcDbLine
 62
7
  6
CONTINUOUS
 10
116.1363371719
 20
40.6924942431
 11
115.1969316936
 21
40.6800342175
  0
LINE
  5
505
100
AcDbEntity
  8
0
100
AcDbLine
 62
7
  6
CONTINUOUS
 10
116.1363371719
 20
40.9926575463
 11
115.1969316936
 21
40.9801975207
  0
LINE
  5
506
100
AcDbEntity
  8
RUNDUNGEN
100
AcDbLine
 62
7
  6
CONTINUOUS
 10
152.8801626791
 20
41.5419491196
 11
156.1968403606
 21
41.5868397851
  0
LINE
  5
507
100
AcDbEntity
  8
RUNDUNGEN
100
AcDbLine
 62
7
  6
CONTINUOUS
 10
230.0131267686
 20
37.6476714723
 11
231.52467915
 21
37.6658498821
  0
LINE
  5
508
100
AcDbEntity
  8
RUNDUNGEN
100
AcDbLine
 62
7
  6
CONTINUOUS
 10
156.1968403606
 20
41.5868397851
 11
159.6274528016
 21
41.625782095
  0
LINE
  5
509
100
AcDbEntity
  8
RUNDUNGEN
100
AcDbLine
 62
7
  6
CONTINUOUS
 10
159.6274528016
 20
41.625782095
 11
163.1558894005
 21
41.6583573747
  0
LINE
  5
50A
100
AcDbEntity
  8
0
100
AcDbLine
 62
7
  6
CONTINUOUS
 10
172.7906459965
 20
41.6016289583
 11
172.082312832
 21
41.5956609169
  0
LINE
  5
50B
100
AcDbEntity
  8
0
100
AcDbLine
 62
7
  6
CONTINUOUS
 10
170.3114791609
 20
41.7090537159
 11
171.019812832
 21
41.7150217573
  0
LINE
  5
50C
100
AcDbEntity
  8
0
100
AcDbLine
 62
7
  6
CONTINUOUS
 10
110.1366379457
 20
40.1989121208
 11
109.2649990667
 21
40.1918509567
  0
LINE
  5
50D
100
AcDbEntity
  8
0
100
AcDbLine
 62
7
  6
CONTINUOUS
 10
109.4782584332
 20
40.4937418783
 11
109.2649990667
 21
40.4920142599
  0
LINE
  5
50E
100
AcDbEntity
  8
RUNDUNGEN
100
AcDbLine
 62
7
  6
CONTINUOUS
 10
231.52467915
 20
37.6658498821
 11
233.1261764446
 21
37.6798760992
  0
LINE
  5
50F
100
AcDbEntity
  8
0
100
AcDbLine
 62
7
  6
CONTINUOUS
 10
172.082312832
 20
41.5658207058
 11
172.9677291609
 21
41.5717887477
  0
LINE
  5
510
100
AcDbEntity
  8
RUNDUNGEN
100
AcDbLine
 62
7
  6
CONTINUOUS
 10
163.1558894005
 20
41.6583573747
 11
165.8836470947
 21
41.6783487035
  0
LINE
  5
511
100
AcDbEntity
  8
0
100
AcDbLine
 62
7
  6
CONTINUOUS
 10
171.019812832
 20
41.7448619642
 11
170.1343959965
 21
41.7388939228
  0
LINE
  5
512
100
AcDbEntity
  8
0
100
AcDbLine
 62
7
  6
CONTINUOUS
 10
116.4367463671
 20
40.2329747648
 11
115.7999586638
 21
40.2290285916
  0
LINE
  5
513
100
AcDbEntity
  8
0
100
AcDbLine
 62
7
  6
CONTINUOUS
 10
116.0639051778
 20
40.6555332093
 11
116.7006933492
 21
40.6594793761
  0
LINE
  5
514
100
AcDbEntity
  8
RUNDUNGEN
100
AcDbLine
 62
7
  6
CONTINUOUS
 10
166.9478046071
 20
41.6852452526
 11
168.3644261116
 21
41.6932363739
  0
LINE
  5
515
100
AcDbEntity
  8
RUNDUNGEN
100
AcDbLine
 62
7
  6
CONTINUOUS
 10
233.1261764446
 20
37.6798760992
 11
234.8006103749
 21
37.6891653664
  0
LINE
  5
516
100
AcDbEntity
  8
0
100
AcDbLine
 62
7
  6
CONTINUOUS
 10
115.5604422872
 20
40.1943514438
 11
116.36431449
 21
40.1960137294
  0
LINE
  5
517
100
AcDbEntity
  8
0
100
AcDbLine
 62
7
  6
CONTINUOUS
 10
116.9402094516
 20
40.6941565457
 11
116.1363371719
 21
40.6924942431
  0
LINE
  5
518
100
AcDbEntity
  8
0
100
AcDbLine
 62
7
  6
CONTINUOUS
 10
116.9402094516
 20
40.9943198489
 11
116.1363371719
 21
40.9926575463
  0
LINE
  5
519
100
AcDbEntity
  8
RUNDUNGEN
100
AcDbLine
 62
7
  6
CONTINUOUS
 10
174.7389768835
 20
41.7156789943
 11
176.1553034311
 21
41.7178724822
  0
LINE
  5
51A
100
AcDbEntity
  8
RUNDUNGEN
100
AcDbLine
 62
7
  6
CONTINUOUS
 10
234.8006103749
 20
37.6891653664
 11
236.9228471189
 21
37.6933587727
  0
LINE
  5
51B
100
AcDbEntity
  8
RUNDUNGEN
100
AcDbLine
 62
7
  6
CONTINUOUS
 10
238.2790563373
 20
37.6933587326
 11
236.9228471189
 21
37.6933587326
  0
LINE
  5
51C
100
AcDbEntity
  8
0
100
AcDbLine
 62
7
  6
CONTINUOUS
 10
176.1552296676
 20
41.5300124533
 11
177.0406459965
 21
41.5300124533
  0
LINE
  5
51D
100
AcDbEntity
  8
0
100
AcDbLine
 62
7
  6
CONTINUOUS
 10
165.8843959965
 20
41.5658207058
 11
166.9468959965
 21
41.5658207058
  0
LINE
  5
51E
100
AcDbEntity
  8
0
100
AcDbLine
 62
7
  6
CONTINUOUS
 10
171.019812832
 20
41.5658207058
 11
172.082312832
 21
41.5658207058
  0
LINE
  5
51F
100
AcDbEntity
  8
0
100
AcDbLine
 62
7
  6
CONTINUOUS
 10
181.2906459965
 20
41.5658207058
 11
182.3531459965
 21
41.5658207058
  0
LINE
  5
520
100
AcDbEntity
  8
0
100
AcDbLine
 62
7
  6
CONTINUOUS
 10
178.1031459965
 20
41.5956609169
 11
177.2177296676
 21
41.5956609169
  0
LINE
  5
521
100
AcDbEntity
  8
0
100
AcDbLine
 62
7
  6
CONTINUOUS
 10
172.082312832
 20
41.5956609169
 11
171.019812832
 21
41.5956609169
  0
LINE
  5
522
100
AcDbEntity
  8
0
100
AcDbLine
 62
7
  6
CONTINUOUS
 10
169.426062832
 20
41.6374372108
 11
168.3635625787
 21
41.6374372108
  0
LINE
  5
523
100
AcDbEntity
  8
0
100
AcDbLine
 62
7
  6
CONTINUOUS
 10
168.3635625787
 20
41.6911495917
 11
169.6031459965
 21
41.6911495917
  0
LINE
  5
524
100
AcDbEntity
  8
0
100
AcDbLine
 62
7
  6
CONTINUOUS
 10
171.019812832
 20
41.7150217573
 11
172.082312832
 21
41.7150217573
  0
LINE
  5
525
100
AcDbEntity
  8
0
100
AcDbLine
 62
7
  6
CONTINUOUS
 10
172.082312832
 20
41.7448619642
 11
171.019812832
 21
41.7448619642
  0
LINE
  5
526
100
AcDbEntity
  8
0
100
AcDbLine
 62
7
  6
CONTINUOUS
 10
191.5614786543
 20
41.756798047
 11
189.6135633387
 21
41.756798047
  0
LINE
  5
527
100
AcDbEntity
  8
0
100
AcDbLine
 62
7
  6
CONTINUOUS
 10
188.7281459965
 20
41.756798047
 11
187.3114786543
 21
41.756798047
  0
LINE
  5
528
100
AcDbEntity
  8
0
100
AcDbLine
 62
7
  6
CONTINUOUS
 10
189.6135633387
 20
41.8045423948
 11
188.7281459965
 21
41.8045423948
  0
LINE
  5
529
100
AcDbEntity
  8
0
100
AcDbLine
 62
7
  6
CONTINUOUS
 10
169.2489791609
 20
41.8164784776
 11
174.3843959965
 21
41.8164784776
  0
LINE
  5
52A
100
AcDbEntity
  8
0
100
AcDbLine
 62
7
  6
CONTINUOUS
 10
179.5198123254
 20
41.8164784776
 11
184.8323133387
 21
41.8164784776
  0
LINE
  5
52B
100
AcDbEntity
  8
0
100
AcDbLine
 62
7
  6
CONTINUOUS
 10
185.8948133387
 20
41.8463186845
 11
179.5198123254
 21
41.8463186845
  0
LINE
  5
52C
100
AcDbEntity
  8
0
100
AcDbLine
 62
7
  6
CONTINUOUS
 10
174.3843959965
 20
41.8463186845
 11
168.3635625787
 21
41.8463186845
  0
LINE
  5
52D
100
AcDbEntity
  8
0
100
AcDbLine
 62
7
  6
CONTINUOUS
 10
166.9468959965
 20
41.8463186845
 11
165.8843959965
 21
41.8463186845
  0
LINE
  5
52E
100
AcDbEntity
  8
0
100
AcDbLine
 62
7
  6
CONTINUOUS
 10
178.1031459965
 20
41.8958242201
 11
177.2177296676
 21
41.8958242201
  0
LINE
  5
52F
100
AcDbEntity
  8
0
100
AcDbLine
 62
7
  6
CONTINUOUS
 10
191.5614786543
 20
42.0569613502
 11
189.6135633387
 21
42.0569613502
  0
LINE
  5
530
100
AcDbEntity
  8
0
100
AcDbLine
 62
7
  6
CONTINUOUS
 10
188.7281459965
 20
42.0569613502
 11
187.3114786543
 21
42.0569613502
  0
LINE
  5
531
100
AcDbEntity
  8
0
100
AcDbLine
 62
7
  6
CONTINUOUS
 10
189.6135633387
 20
42.104705698
 11
188.7281459965
 21
42.104705698
  0
LINE
  5
532
100
AcDbEntity
  8
0
100
AcDbLine
 62
7
  6
CONTINUOUS
 10
185.8948133387
 20
42.1464819877
 11
179.5198123254
 21
42.1464819877
  0
LINE
  5
533
100
AcDbEntity
  8
0
100
AcDbLine
 62
7
  6
CONTINUOUS
 10
174.3843959965
 20
42.1464819877
 11
168.3635625787
 21
42.1464819877
  0
LINE
  5
534
100
AcDbEntity
  8
0
100
AcDbLine
 62
7
  6
CONTINUOUS
 10
166.9468959965
 20
42.1464819877
 11
165.8843959965
 21
42.1464819877
  0
LINE
  5
535
100
AcDbEntity
  8
0
100
AcDbLine
 62
7
  6
CONTINUOUS
 10
116.7884711412
 20
40.1206389254
 11
112.3356236959
 21
40.1245780158
  0
LINE
  5
536
100
AcDbEntity
  8
0
100
AcDbLine
 62
7
  6
CONTINUOUS
 10
112.2631916048
 20
40.0876169742
 11
116.3141030072
 21
40.0828467403
  0
LINE
  5
537
100
AcDbEntity
  8
RUNDUNGEN
100
AcDbLine
 62
7
  6
CONTINUOUS
 10
178.1030872343
 20
41.7189358859
 11
181.2904482334
 21
41.7163575423
  0
LINE
  5
538
100
AcDbEntity
  8
RUNDUNGEN
100
AcDbLine
 62
7
  6
CONTINUOUS
 10
118.1043196249
 20
37.6933587326
 11
120.8162342007
 21
37.6916481764
  0
LINE
  5
539
100
AcDbEntity
  8
0
100
AcDbLine
 62
7
  6
CONTINUOUS
 10
109.7300367988
 20
40.1665188281
 11
110.2990573211
 21
40.1650660934
  0
LINE
  5
53A
100
AcDbEntity
  8
0
100
AcDbLine
 62
7
  6
CONTINUOUS
 10
110.705658468
 20
40.1974593861
 11
110.1366379457
 21
40.1989121208
  0
LINE
  5
53B
100
AcDbEntity
  8
RUNDUNGEN
100
AcDbLine
 62
7
  6
CONTINUOUS
 10
120.8162342007
 20
37.6916481764
 11
122.5248840684
 21
37.6845983789
  0
LINE
  5
53C
100
AcDbEntity
  8
0
100
AcDbLine
 62
7
  6
CONTINUOUS
 10
115.7999586638
 20
40.2290285916
 11
115.063853759
 21
40.2327652124
  0
LINE
  5
53D
100
AcDbEntity
  8
0
100
AcDbLine
 62
7
  6
CONTINUOUS
 10
116.7006933492
 20
40.6594793761
 11
117.436798254
 21
40.6557427553
  0
LINE
  5
53E
100
AcDbEntity
  8
RUNDUNGEN
100
AcDbLine
 62
7
  6
CONTINUOUS
 10
184.371669923
 20
41.7086796084
 11
187.3111603292
 21
41.69686786
  0
LINE
  5
53F
100
AcDbEntity
  8
RUNDUNGEN
100
AcDbLine
 62
7
  6
CONTINUOUS
 10
187.3111603292
 20
41.69686786
 11
188.7275341124
 21
41.6893446515
  0
LINE
  5
540
100
AcDbEntity
  8
0
100
AcDbLine
 62
7
  6
CONTINUOUS
 10
114.6572524182
 20
40.2003719042
 11
115.5604422872
 21
40.1943514438
  0
LINE
  5
541
100
AcDbEntity
  8
0
100
AcDbLine
 62
7
  6
CONTINUOUS
 10
117.8433994009
 20
40.688136048
 11
116.9402094516
 21
40.6941565457
  0
LINE
  5
542
100
AcDbEntity
  8
0
100
AcDbLine
 62
7
  6
CONTINUOUS
 10
117.8433994009
 20
40.9882993512
 11
116.9402094516
 21
40.9943198489
  0
LINE
  5
543
100
AcDbEntity
  8
0
100
AcDbLine
 62
7
  6
CONTINUOUS
 10
170.1343959965
 20
41.5717887477
 11
171.019812832
 21
41.5658207058
  0
LINE
  5
544
100
AcDbEntity
  8
0
100
AcDbLine
 62
7
  6
CONTINUOUS
 10
191.2073133387
 20
41.5896928734
 11
190.3218959965
 21
41.5956609169
  0
LINE
  5
545
100
AcDbEntity
  8
0
100
AcDbLine
 62
7
  6
CONTINUOUS
 10
172.9677291609
 20
41.7388939228
 11
172.082312832
 21
41.7448619642
  0
LINE
  5
546
100
AcDbEntity
  8
RUNDUNGEN
100
AcDbLine
 62
7
  6
CONTINUOUS
 10
122.5248840684
 20
37.6845983789
 11
124.1353835041
 21
37.6728262181
  0
LINE
  5
547
100
AcDbEntity
  8
RUNDUNGEN
100
AcDbLine
 62
7
  6
CONTINUOUS
 10
191.2057250343
 20
41.6736030506
 11
194.4293864918
 21
41.6480879317
  0
LINE
  5
548
100
AcDbEntity
  8
0
100
AcDbLine
 62
7
  6
CONTINUOUS
 10
171.019812832
 20
41.5956609169
 11
170.3114791609
 21
41.6016289583
  0
LINE
  5
549
100
AcDbEntity
  8
0
100
AcDbLine
 62
7
  6
CONTINUOUS
 10
172.082312832
 20
41.7150217573
 11
172.7906459965
 21
41.7090537159
  0
LINE
  5
54A
100
AcDbEntity
  8
RUNDUNGEN
100
AcDbLine
 62
7
  6
CONTINUOUS
 10
194.4293864918
 20
41.6480879317
 11
197.9285560764
 21
41.6132979401
  0
LINE
  5
54B
100
AcDbEntity
  8
RUNDUNGEN
100
AcDbLine
 62
7
  6
CONTINUOUS
 10
124.1353835041
 20
37.6728262181
 11
125.6424075959
 21
37.6570509836
  0
LINE
  5
54C
100
AcDbEntity
  8
0
100
AcDbLine
 62
7
  6
CONTINUOUS
 10
189.6135633387
 20
41.5777567896
 11
190.1448133387
 21
41.5717887477
  0
LINE
  5
54D
100
AcDbEntity
  8
RUNDUNGEN
100
AcDbLine
 62
7
  6
CONTINUOUS
 10
197.9285560764
 20
41.6132979401
 11
201.3236581193
 21
41.5722755447
  0
LINE
  5
54E
100
AcDbEntity
  8
0
100
AcDbLine
 62
7
  6
CONTINUOUS
 10
106.3603544532
 20
40.0228233292
 11
114.2133304796
 21
39.9154813999
  0
LINE
  5
54F
100
AcDbEntity
  8
0
100
AcDbLine
 62
7
  6
CONTINUOUS
 10
114.6199316265
 20
39.9478746926
 11
111.1111550543
 21
39.9958359809
  0
LINE
  5
550
100
AcDbEntity
  8
0
100
AcDbLine
 62
7
  6
CONTINUOUS
 10
110.1086475959
 20
40.0095392042
 11
107.6023784821
 21
40.0437972691
  0
LINE
  5
551
100
AcDbEntity
  8
0
100
AcDbLine
 62
7
  6
CONTINUOUS
 10
110.2990573211
 20
40.1650660934
 11
110.8003115184
 21
40.1582144753
  0
LINE
  5
552
100
AcDbEntity
  8
0
100
AcDbLine
 62
7
  6
CONTINUOUS
 10
111.3739972416
 20
40.1883238974
 11
110.705658468
 21
40.1974593861
  0
LINE
  5
553
100
AcDbEntity
  8
0
100
AcDbLine
 62
7
  6
CONTINUOUS
 10
109.4776298481
 20
40.2711719013
 11
114.6572524182
 21
40.2003719042
  0
LINE
  5
554
100
AcDbEntity
  8
0
100
AcDbLine
 62
7
  6
CONTINUOUS
 10
115.063853759
 20
40.2327652124
 11
109.8842311888
 21
40.3035652094
  0
LINE
  5
555
100
AcDbEntity
  8
0
100
AcDbLine
 62
7
  6
CONTINUOUS
 10
111.5106357764
 20
40.4331383802
 11
116.6902583465
 21
40.3623383831
  0
LINE
  5
556
100
AcDbEntity
  8
0
100
AcDbLine
 62
7
  6
CONTINUOUS
 10
117.0968594934
 20
40.3947316758
 11
111.9172369233
 21
40.4655316729
  0
LINE
  5
557
100
AcDbEntity
  8
0
100
AcDbLine
 62
7
  6
CONTINUOUS
 10
112.4593716566
 20
40.5087227195
 11
120.3123476829
 21
40.4013807902
  0
LINE
  5
558
100
AcDbEntity
  8
0
100
AcDbLine
 62
7
  6
CONTINUOUS
 10
119.7164412544
 20
40.4474773079
 11
113.8684802618
 21
40.5274127888
  0
LINE
  5
559
100
AcDbEntity
  8
0
100
AcDbLine
 62
7
  6
CONTINUOUS
 10
111.5085611572
 20
40.581525629
 11
109.8842311888
 21
40.6037285126
  0
LINE
  5
55A
100
AcDbEntity
  8
0
100
AcDbLine
 62
7
  6
CONTINUOUS
 10
117.436798254
 20
40.6557427553
 11
119.9430671339
 21
40.6214846937
  0
LINE
  5
55B
100
AcDbEntity
  8
0
100
AcDbLine
 62
7
  6
CONTINUOUS
 10
112.458680117
 20
40.7582940166
 11
111.9172369233
 21
40.7656949761
  0
LINE
  5
55C
100
AcDbEntity
  8
0
100
AcDbLine
 62
7
  6
CONTINUOUS
 10
120.3496682807
 20
40.6538779864
 11
117.8433994009
 21
40.688136048
  0
LINE
  5
55D
100
AcDbEntity
  8
0
100
AcDbLine
 62
7
  6
CONTINUOUS
 10
120.3496682807
 20
40.9540412896
 11
117.8433994009
 21
40.9882993512
  0
LINE
  5
55E
100
AcDbEntity
  8
RUNDUNGEN
100
AcDbLine
 62
7
  6
CONTINUOUS
 10
125.6424075959
 20
37.6570509836
 11
127.0434207753
 21
37.6379095134
  0
LINE
  5
55F
100
AcDbEntity
  8
RUNDUNGEN
100
AcDbLine
 62
7
  6
CONTINUOUS
 10
201.3236581193
 20
41.5722755447
 11
204.5987824369
 21
41.5254687479
  0
LINE
  5
560
100
AcDbEntity
  8
RUNDUNGEN
100
AcDbLine
 62
7
  6
CONTINUOUS
 10
204.5987824369
 20
41.5254687479
 11
207.7396194967
 21
41.4733855529
  0
LINE
  5
561
100
AcDbEntity
  8
RUNDUNGEN
100
AcDbLine
 62
7
  6
CONTINUOUS
 10
127.0434207753
 20
37.6379095134
 11
128.3380078156
 21
37.6159573281
  0
LINE
  5
562
100
AcDbEntity
  8
RUNDUNGEN
100
AcDbLine
 62
7
  6
CONTINUOUS
 10
207.7396194967
 20
41.4733855529
 11
210.7336642578
 21
41.4165863913
  0
LINE
  5
563
100
AcDbEntity
  8
0
100
AcDbLine
 62
7
  6
CONTINUOUS
 10
169.2489791609
 20
41.5896928734
 11
170.1343959965
 21
41.5717887477
  0
LINE
  5
564
100
AcDbEntity
  8
0
100
AcDbLine
 62
7
  6
CONTINUOUS
 10
173.8531459965
 20
41.7209897986
 11
172.9677291609
 21
41.7388939228
  0
LINE
  5
565
100
AcDbEntity
  8
RUNDUNGEN
100
AcDbLine
 62
7
  6
CONTINUOUS
 10
128.3380078156
 20
37.6159573281
 11
129.5271459732
 21
37.5916828919
  0
LINE
  5
566
100
AcDbEntity
  8
0
100
AcDbLine
 62
7
  6
CONTINUOUS
 10
117.8645153883
 20
40.3779134306
 11
117.0968594934
 21
40.3947316758
  0
LINE
  5
567
100
AcDbEntity
  8
0
100
AcDbLine
 62
7
  6
CONTINUOUS
 10
121.1173245634
 20
40.637059772
 11
120.3496682807
 21
40.6538779864
  0
LINE
  5
568
100
AcDbEntity
  8
0
100
AcDbLine
 62
7
  6
CONTINUOUS
 10
121.1173245634
 20
40.9372230752
 11
120.3496682807
 21
40.9540412896
  0
LINE
  5
569
100
AcDbEntity
  8
RUNDUNGEN
100
AcDbLine
 62
7
  6
CONTINUOUS
 10
210.7336642578
 20
41.4165863913
 11
213.5731467169
 21
41.355612475
  0
LINE
  5
56A
100
AcDbEntity
  8
0
100
AcDbLine
 62
7
  6
CONTINUOUS
 10
170.3114791609
 20
41.6016289583
 11
169.7802291609
 21
41.6135650411
  0
LINE
  5
56B
100
AcDbEntity
  8
0
100
AcDbLine
 62
7
  6
CONTINUOUS
 10
172.7906459965
 20
41.7090537159
 11
173.3218959965
 21
41.6971176331
  0
LINE
  5
56C
100
AcDbEntity
  8
0
100
AcDbLine
 62
7
  6
CONTINUOUS
 10
189.0823133387
 20
41.5896928734
 11
189.6135633387
 21
41.5777567896
  0
LINE
  5
56D
100
AcDbEntity
  8
0
100
AcDbLine
 62
7
  6
CONTINUOUS
 10
190.3218959965
 20
41.5956609169
 11
189.7906459965
 21
41.6075969997
  0
LINE
  5
56E
100
AcDbEntity
  8
0
100
AcDbLine
 62
7
  6
CONTINUOUS
 10
116.6902583465
 20
40.3623383831
 11
117.290829665
 21
40.3478040084
  0
LINE
  5
56F
100
AcDbEntity
  8
0
100
AcDbLine
 62
7
  6
CONTINUOUS
 10
119.9430671339
 20
40.6214846937
 11
120.5436388401
 21
40.6069503499
  0
LINE
  5
570
100
AcDbEntity
  8
RUNDUNGEN
100
AcDbLine
 62
7
  6
CONTINUOUS
 10
213.5731467169
 20
41.355612475
 11
216.2559268808
 21
41.290918976
  0
LINE
  5
571
100
AcDbEntity
  8
RUNDUNGEN
100
AcDbLine
 62
7
  6
CONTINUOUS
 10
129.5271459732
 20
37.5916828919
 11
130.607898282
 21
37.5656326508
  0
LINE
  5
572
100
AcDbEntity
  8
0
100
AcDbLine
 62
7
  6
CONTINUOUS
 10
110.8003115184
 20
40.1582144753
 11
111.2337984543
 21
40.1459639867
  0
LINE
  5
573
100
AcDbEntity
  8
0
100
AcDbLine
 62
7
  6
CONTINUOUS
 10
111.8074841776
 20
40.1760734088
 11
111.3739972416
 21
40.1883238974
  0
LINE
  5
574
100
AcDbEntity
  8
RUNDUNGEN
100
AcDbLine
 62
7
  6
CONTINUOUS
 10
130.607898282
 20
37.5656326508
 11
132.0056681999
 21
37.5249755653
  0
LINE
  5
575
100
AcDbEntity
  8
RUNDUNGEN
100
AcDbLine
 62
7
  6
CONTINUOUS
 10
132.0056681999
 20
37.5249755653
 11
132.7280280113
 21
37.5000624217
  0
LINE
  5
576
100
AcDbEntity
  8
0
100
AcDbLine
 62
7
  6
CONTINUOUS
 10
118.3973202245
 20
40.3579801928
 11
117.8645153883
 21
40.3779134306
  0
LINE
  5
577
100
AcDbEntity
  8
0
100
AcDbLine
 62
7
  6
CONTINUOUS
 10
121.6501290118
 20
40.6171265033
 11
121.1173245634
 21
40.637059772
  0
LINE
  5
578
100
AcDbEntity
  8
0
100
AcDbLine
 62
7
  6
CONTINUOUS
 10
121.6501290118
 20
40.9172898065
 11
121.1173245634
 21
40.9372230752
  0
LINE
  5
579
100
AcDbEntity
  8
0
100
AcDbLine
 62
7
  6
CONTINUOUS
 10
168.7177294143
 20
41.6135650411
 11
169.2489791609
 21
41.5896928734
  0
LINE
  5
57A
100
AcDbEntity
  8
0
100
AcDbLine
 62
7
  6
CONTINUOUS
 10
174.3843959965
 20
41.6971176331
 11
173.8531459965
 21
41.7209897986
  0
LINE
  5
57B
100
AcDbEntity
  8
0
100
AcDbLine
 62
7
  6
CONTINUOUS
 10
117.290829665
 20
40.3478040084
 11
117.6565498078
 21
40.3301546428
  0
LINE
  5
57C
100
AcDbEntity
  8
0
100
AcDbLine
 62
7
  6
CONTINUOUS
 10
120.5436388401
 20
40.6069503499
 11
120.9093585951
 21
40.5893009534
  0
LINE
  5
57D
100
AcDbEntity
  8
0
100
AcDbLine
 62
7
  6
CONTINUOUS
 10
173.3218959965
 20
41.6971176331
 11
173.6760623254
 21
41.6792135089
  0
LINE
  5
57E
100
AcDbEntity
  8
0
100
AcDbLine
 62
7
  6
CONTINUOUS
 10
112.2725219097
 20
40.1507412802
 11
111.8074841776
 21
40.1760734088
  0
LINE
  5
57F
100
AcDbEntity
  8
0
100
AcDbLine
 62
7
  6
CONTINUOUS
 10
169.7802291609
 20
41.6135650411
 11
169.426062832
 21
41.6374372108
  0
LINE
  5
580
100
AcDbEntity
  8
0
100
AcDbLine
 62
7
  6
CONTINUOUS
 10
118.794591028
 20
40.327249171
 11
118.3973202245
 21
40.3579801928
  0
LINE
  5
581
100
AcDbEntity
  8
0
100
AcDbLine
 62
7
  6
CONTINUOUS
 10
122.0474002031
 20
40.5863955124
 11
121.6501290118
 21
40.6171265033
  0
LINE
  5
582
100
AcDbEntity
  8
0
100
AcDbLine
 62
7
  6
CONTINUOUS
 10
122.0474002031
 20
40.8865588156
 11
121.6501290118
 21
40.9172898065
  0
LINE
  5
583
100
AcDbEntity
  8
0
100
AcDbLine
 62
7
  6
CONTINUOUS
 10
174.7385623254
 20
41.6672774178
 11
174.3843959965
 21
41.6971176331
  0
LINE
  5
584
100
AcDbEntity
  8
0
100
AcDbLine
 62
7
  6
CONTINUOUS
 10
174.7385623254
 20
41.967440721
 11
174.3970256355
 21
41.9962168285
  0
LINE
  5
585
100
AcDbEntity
  8
0
100
AcDbLine
 62
7
  6
CONTINUOUS
 10
173.6760623254
 20
41.6792135089
 11
173.8531459965
 21
41.6613093764
  0
LINE
  5
586
100
AcDbEntity
  8
0
100
AcDbLine
 62
7
  6
CONTINUOUS
 10
164.8218959965
 20
42.104705698
 11
164.8218959965
 21
41.756798047
  0
LINE
  5
587
100
AcDbEntity
  8
RUNDUNGEN
100
AcDbLine
 62
7
  6
CONTINUOUS
 10
119.7271103789
 20
40.3353479137
 11
119.9693706829
 21
40.3617389553
  0
LINE
  5
588
100
AcDbEntity
  8
RUNDUNGEN
100
AcDbLine
 62
7
  6
CONTINUOUS
 10
119.9693706829
 20
40.3617389553
 11
120.252610446
 21
40.3904216626
  0
LINE
  5
589
100
AcDbEntity
  8
RUNDUNGEN
100
AcDbLine
 62
7
  6
CONTINUOUS
 10
120.252610446
 20
40.3904216626
 11
120.5868085626
 21
40.4219448426
  0
LINE
  5
58A
100
AcDbEntity
  8
0
100
AcDbLine
 62
7
  6
CONTINUOUS
 10
114.2133304796
 20
39.9154813999
 11
114.6199316265
 21
39.9478746926
  0
LINE
  5
58B
100
AcDbEntity
  8
0
100
AcDbLine
 62
7
  6
CONTINUOUS
 10
116.3141030072
 20
40.0828467403
 11
116.7884711412
 21
40.1206389254
  0
LINE
  5
58C
100
AcDbEntity
  8
0
100
AcDbLine
 62
7
  6
CONTINUOUS
 10
118.4148755348
 20
40.2502120807
 11
118.6859430953
 21
40.2718076195
  0
LINE
  5
58D
100
AcDbEntity
  8
0
100
AcDbLine
 62
7
  6
CONTINUOUS
 10
120.3123476829
 20
40.4013807902
 11
121.9387522704
 21
40.5309539609
  0
LINE
  5
58E
100
AcDbEntity
  8
0
100
AcDbLine
 62
7
  6
CONTINUOUS
 10
120.9362446951
 20
40.5446571859
 11
119.7164412544
 21
40.4474773079
  0
LINE
  5
58F
100
AcDbEntity
  8
0
100
AcDbLine
 62
7
  6
CONTINUOUS
 10
117.68343552
 20
40.2855108444
 11
117.4123679595
 21
40.2639153057
  0
LINE
  5
590
100
AcDbEntity
  8
0
100
AcDbLine
 62
7
  6
CONTINUOUS
 10
111.1111550543
 20
39.9958359809
 11
112.2631916048
 21
40.0876169742
  0
LINE
  5
591
100
AcDbEntity
  8
0
100
AcDbLine
 62
7
  6
CONTINUOUS
 10
111.3962178298
 20
40.1121179593
 11
110.1086475959
 21
40.0095392042
  0
LINE
  5
592
100
AcDbEntity
  8
0
100
AcDbLine
 62
7
  6
CONTINUOUS
 10
113.8684802618
 20
40.5274127888
 11
115.0882837024
 21
40.6245926668
  0
LINE
  5
593
100
AcDbEntity
  8
0
100
AcDbLine
 62
7
  6
CONTINUOUS
 10
107.6023784821
 20
40.0437972691
 11
108.8899487159
 21
40.1463760241
  0
LINE
  5
594
100
AcDbEntity
  8
0
100
AcDbLine
 62
7
  6
CONTINUOUS
 10
114.0857762441
 20
40.6382958902
 11
112.4593716566
 21
40.5087227195
  0
LINE
  5
595
100
AcDbEntity
  8
0
100
AcDbLine
 62
7
  6
CONTINUOUS
 10
111.9172369233
 20
40.4655316729
 11
111.5106357764
 21
40.4331383802
  0
LINE
  5
596
100
AcDbEntity
  8
0
100
AcDbLine
 62
7
  6
CONTINUOUS
 10
109.8842311888
 20
40.3035652094
 11
109.4776298481
 21
40.2711719013
  0
LINE
  5
597
100
AcDbEntity
  8
0
100
AcDbLine
 62
7
  6
CONTINUOUS
 10
107.9867590408
 20
40.1523965
 11
106.3603544532
 21
40.0228233292
  0
LINE
  5
598
100
AcDbEntity
  8
0
100
AcDbLine
 62
7
  6
CONTINUOUS
 10
114.0857762441
 20
40.9384591934
 11
112.4593716566
 21
40.8088860227
  0
LINE
  5
599
100
AcDbEntity
  8
0
100
AcDbLine
 62
7
  6
CONTINUOUS
 10
111.9172369233
 20
40.7656949761
 11
111.5106357764
 21
40.7333016834
  0
LINE
  5
59A
100
AcDbEntity
  8
0
100
AcDbLine
 62
7
  6
CONTINUOUS
 10
109.8842311888
 20
40.6037285126
 11
109.4776298481
 21
40.5713352045
  0
LINE
  5
59B
100
AcDbEntity
  8
0
100
AcDbLine
 62
7
  6
CONTINUOUS
 10
107.9867590408
 20
40.4525598032
 11
106.3603544532
 21
40.3229866324
  0
LINE
  5
59C
100
AcDbEntity
  8
RUNDUNGEN
100
AcDbLine
 62
7
  6
CONTINUOUS
 10
121.9546237351
 20
40.5336595775
 11
122.9188087667
 21
40.6016160023
  0
LINE
  5
59D
100
AcDbEntity
  8
RUNDUNGEN
100
AcDbLine
 62
7
  6
CONTINUOUS
 10
122.9188087667
 20
40.6016160023
 11
124.1445104182
 21
40.6788298691
  0
LINE
  5
59E
100
AcDbEntity
  8
RUNDUNGEN
100
AcDbLine
 62
7
  6
CONTINUOUS
 10
124.1445104182
 20
40.6788298691
 11
125.5312402819
 21
40.7570796582
  0
LINE
  5
59F
100
AcDbEntity
  8
RUNDUNGEN
100
AcDbLine
 62
7
  6
CONTINUOUS
 10
125.5312402819
 20
40.7570796582
 11
127.0773193255
 21
40.8355362508
  0
LINE
  5
5A0
100
AcDbEntity
  8
0
100
AcDbLine
 62
7
  6
CONTINUOUS
 10
117.908956784
 20
40.2255015512
 11
118.4148755348
 21
40.2502120807
  0
LINE
  5
5A1
100
AcDbEntity
  8
0
100
AcDbLine
 62
7
  6
CONTINUOUS
 10
108.4926779709
 20
40.1771070451
 11
107.9867590408
 21
40.1523965
  0
LINE
  5
5A2
100
AcDbEntity
  8
0
100
AcDbLine
 62
7
  6
CONTINUOUS
 10
114.5916953681
 20
40.6630064508
 11
114.0857762441
 21
40.6382958902
  0
LINE
  5
5A3
100
AcDbEntity
  8
0
100
AcDbLine
 62
7
  6
CONTINUOUS
 10
108.4926779709
 20
40.4772703483
 11
107.9867590408
 21
40.4525598032
  0
LINE
  5
5A4
100
AcDbEntity
  8
0
100
AcDbLine
 62
7
  6
CONTINUOUS
 10
114.5916953681
 20
40.963169754
 11
114.0857762441
 21
40.9384591934
  0
LINE
  5
5A5
100
AcDbEntity
  8
RUNDUNGEN
100
AcDbLine
 62
7
  6
CONTINUOUS
 10
127.0773193255
 20
40.8355362508
 11
128.782486624
 21
40.9135686872
  0
LINE
  5
5A6
100
AcDbEntity
  8
0
100
AcDbLine
 62
7
  6
CONTINUOUS
 10
117.4123679595
 20
40.2639153057
 11
116.9742162104
 21
40.2446036684
  0
LINE
  5
5A7
100
AcDbEntity
  8
0
100
AcDbLine
 62
7
  6
CONTINUOUS
 10
115.0882837024
 20
40.6245926668
 11
115.5264354516
 21
40.6439043041
  0
LINE
  5
5A8
100
AcDbEntity
  8
RUNDUNGEN
100
AcDbLine
 62
7
  6
CONTINUOUS
 10
128.782486624
 20
40.9135686872
 11
130.6468950592
 21
40.9906382968
  0
LINE
  5
5A9
100
AcDbEntity
  8
0
100
AcDbLine
 62
7
  6
CONTINUOUS
 10
164.8218959965
 20
41.756798047
 11
165.8843959965
 21
41.7985743534
  0
LINE
  5
5AA
100
AcDbEntity
  8
0
100
AcDbLine
 62
7
  6
CONTINUOUS
 10
165.8843959965
 20
41.8463186845
 11
164.8218959965
 21
41.8045423948
  0
LINE
  5
5AB
100
AcDbEntity
  8
0
100
AcDbLine
 62
7
  6
CONTINUOUS
 10
165.8843959965
 20
42.1464819877
 11
164.8218959965
 21
42.104705698
  0
LINE
  5
5AC
100
AcDbEntity
  8
0
100
AcDbLine
 62
7
  6
CONTINUOUS
 10
108.8899487159
 20
40.1463760241
 11
109.2603338657
 21
40.1602887999
  0
LINE
  5
5AD
100
AcDbEntity
  8
RUNDUNGEN
100
AcDbLine
 62
7
  6
CONTINUOUS
 10
130.6468950592
 20
40.9906382968
 11
132.6708248837
 21
41.0662594753
  0
LINE
  5
5AE
100
AcDbEntity
  8
RUNDUNGEN
100
AcDbLine
 62
7
  6
CONTINUOUS
 10
132.6708248837
 20
41.0662594753
 11
134.8544733814
 21
41.1399757247
  0
LINE
  5
5AF
100
AcDbEntity
  8
RUNDUNGEN
100
AcDbLine
 62
7
  6
CONTINUOUS
 10
134.8544733814
 20
41.1399757247
 11
137.1977880681
 21
41.2113445139
  0
LINE
  5
5B0
100
AcDbEntity
  8
0
100
AcDbLine
 62
7
  6
CONTINUOUS
 10
115.1969316936
 20
40.6800342175
 11
114.5916953681
 21
40.6630064508
  0
LINE
  5
5B1
100
AcDbEntity
  8
0
100
AcDbLine
 62
7
  6
CONTINUOUS
 10
115.1969316936
 20
40.9801975207
 11
114.5916953681
 21
40.963169754
  0
LWPOLYLINE
  5
5B2
100
AcDbEntity
  8
RUNDUNGEN
100
AcDbPolyline
 62
7
  6
CONTINUOUS
 90
3
 70
0
 10
137.1977880681
 20
41.2113445139
 10
139.7003261333
 20
41.2799275459
 10
141.0110253704
 20
41.3130369417
  0
LINE
  5
5B3
100
AcDbEntity
  8
RUNDUNGEN
100
AcDbLine
 62
7
  6
CONTINUOUS
 10
216.2559268808
 20
41.290918976
 11
218.7809104126
 21
41.2229412935
  0
LINE
  5
5B4
100
AcDbEntity
  8
RUNDUNGEN
100
AcDbLine
 62
7
  6
CONTINUOUS
 10
218.7809104126
 20
41.2229412935
 11
221.1475589502
 21
41.1521044398
  0
LINE
  5
5B5
100
AcDbEntity
  8
RUNDUNGEN
100
AcDbLine
 62
7
  6
CONTINUOUS
 10
221.1475589502
 20
41.1521044398
 11
223.3557650965
 21
41.078827432
  0
LINE
  5
5B6
100
AcDbEntity
  8
RUNDUNGEN
100
AcDbLine
 62
7
  6
CONTINUOUS
 10
223.3557650965
 20
41.078827432
 11
225.4057194777
 21
41.0035298847
  0
LINE
  5
5B7
100
AcDbEntity
  8
RUNDUNGEN
100
AcDbLine
 62
7
  6
CONTINUOUS
 10
225.4057194777
 20
41.0035298847
 11
227.29776444
 21
40.9266418851
  0
LINE
  5
5B8
100
AcDbEntity
  8
RUNDUNGEN
100
AcDbLine
 62
7
  6
CONTINUOUS
 10
227.29776444
 20
40.9266418851
 11
229.0322224762
 21
40.8486191386
  0
LINE
  5
5B9
100
AcDbEntity
  8
RUNDUNGEN
100
AcDbLine
 62
7
  6
CONTINUOUS
 10
229.0322224762
 20
40.8486191386
 11
230.6091823185
 21
40.769966715
  0
LINE
  5
5BA
100
AcDbEntity
  8
RUNDUNGEN
100
AcDbLine
 62
7
  6
CONTINUOUS
 10
230.6091823185
 20
40.769966715
 11
232.0282134435
 21
40.691277505
  0
LINE
  5
5BB
100
AcDbEntity
  8
RUNDUNGEN
100
AcDbLine
 62
7
  6
CONTINUOUS
 10
232.0282134435
 20
40.691277505
 11
233.2874159479
 21
40.6133324863
  0
LINE
  5
5BC
100
AcDbEntity
  8
0
100
AcDbLine
 62
7
  6
CONTINUOUS
 10
188.7281459965
 20
41.6135650411
 11
189.0823133387
 21
41.5896928734
  0
LWPOLYLINE
  5
5BD
100
AcDbEntity
  8
RUNDUNGEN
100
AcDbPolyline
 62
7
  6
CONTINUOUS
 90
11
 70
0
 10
233.2874159479
 20
40.6133324863
 10
234.382221177
 20
40.5372796642
 10
234.866311443
 20
40.5004283828
 10
235.3068159157
 20
40.4647062528
 10
235.7031018
 20
40.4303921316
 10
236.0532622233
 20
40.3979317608
 10
236.3563660268
 20
40.3677599448
 10
236.6091716996
 20
40.3406471417
 10
236.81017453
 20
40.3173329982
 10
236.9536496598
 20
40.2992633366
 10
236.9890931352
 20
40.2945207088
  0
LINE
  5
5BE
100
AcDbEntity
  8
0
100
AcDbLine
 62
7
  6
CONTINUOUS
 10
189.7906459965
 20
41.6075969997
 11
189.6135633387
 21
41.6255011281
  0
LINE
  5
5BF
100
AcDbEntity
  8
0
100
AcDbLine
 62
7
  6
CONTINUOUS
 10
165.8843959965
 20
42.1464819877
 11
165.8843959965
 21
41.8463186845
  0
LINE
  5
5C0
100
AcDbEntity
  8
0
100
AcDbLine
 62
7
  6
CONTINUOUS
 10
165.8843959965
 20
41.7985743534
 11
165.8843959965
 21
41.5658207058
  0
LINE
  5
5C1
100
AcDbEntity
  8
0
100
AcDbLine
 62
7
  6
CONTINUOUS
 10
166.9468959965
 20
41.5658207058
 11
166.9468959965
 21
42.1464819877
  0
LINE
  5
5C2
100
AcDbEntity
  8
0
100
AcDbLine
 62
7
  6
CONTINUOUS
 10
168.3635625787
 20
42.1464819877
 11
168.3635625787
 21
41.6374372108
  0
LINE
  5
5C3
100
AcDbEntity
  8
0
100
AcDbLine
 62
7
  6
CONTINUOUS
 10
169.2489791609
 20
41.7209897986
 11
169.2489791609
 21
41.8164784776
  0
LINE
  5
5C4
100
AcDbEntity
  8
0
100
AcDbLine
 62
7
  6
CONTINUOUS
 10
169.426062832
 20
41.6911495917
 11
169.426062832
 21
41.6374372108
  0
LINE
  5
5C5
100
AcDbEntity
  8
0
100
AcDbLine
 62
7
  6
CONTINUOUS
 10
169.7802291609
 20
41.6911495917
 11
169.7802291609
 21
41.6135650411
  0
LINE
  5
5C6
100
AcDbEntity
  8
0
100
AcDbLine
 62
7
  6
CONTINUOUS
 10
170.1343959965
 20
41.8164784776
 11
170.1343959965
 21
41.7388939228
  0
LINE
  5
5C7
100
AcDbEntity
  8
0
100
AcDbLine
 62
7
  6
CONTINUOUS
 10
170.3114791609
 20
41.7090537159
 11
170.3114791609
 21
41.6016289583
  0
LINE
  5
5C8
100
AcDbEntity
  8
0
100
AcDbLine
 62
7
  6
CONTINUOUS
 10
171.019812832
 20
41.8164784776
 11
171.019812832
 21
41.7448619642
  0
LINE
  5
5C9
100
AcDbEntity
  8
0
100
AcDbLine
 62
7
  6
CONTINUOUS
 10
171.019812832
 20
41.7150217573
 11
171.019812832
 21
41.5956609169
  0
LINE
  5
5CA
100
AcDbEntity
  8
0
100
AcDbLine
 62
7
  6
CONTINUOUS
 10
172.082312832
 20
41.8164784776
 11
172.082312832
 21
41.7448619642
  0
LINE
  5
5CB
100
AcDbEntity
  8
0
100
AcDbLine
 62
7
  6
CONTINUOUS
 10
172.082312832
 20
41.7150217573
 11
172.082312832
 21
41.5956609169
  0
LINE
  5
5CC
100
AcDbEntity
  8
0
100
AcDbLine
 62
7
  6
CONTINUOUS
 10
111.4324338268
 20
40.1305984762
 11
111.3962178298
 21
40.1121179593
  0
LINE
  5
5CD
100
AcDbEntity
  8
0
100
AcDbLine
 62
7
  6
CONTINUOUS
 10
121.0402272915
 20
40.5685365643
 11
120.9362446951
 21
40.5446571859
  0
LINE
  5
5CE
100
AcDbEntity
  8
0
100
AcDbLine
 62
7
  6
CONTINUOUS
 10
117.7874185041
 20
40.3093902538
 11
117.68343552
 21
40.2855108444
  0
LINE
  5
5CF
100
AcDbEntity
  8
0
100
AcDbLine
 62
7
  6
CONTINUOUS
 10
121.9387522704
 20
40.5309539609
 11
122.110502227
 21
40.5602322628
  0
LINE
  5
5D0
100
AcDbEntity
  8
0
100
AcDbLine
 62
7
  6
CONTINUOUS
 10
118.6859430953
 20
40.2718076195
 11
118.8576926641
 21
40.3010858905
  0
LWPOLYLINE
  5
5D1
100
AcDbEntity
  8
RUNDUNGEN
100
AcDbPolyline
 62
7
  6
CONTINUOUS
 90
6
 70
0
 10
119.3517747916
 20
40.2889479371
 10
119.3367321823
 20
40.2864741933
 10
119.3397453898
 20
40.2868568457
 10
119.4099012076
 20
40.2966284707
 10
119.5400613104
 20
40.3132888973
 10
119.7271103789
 20
40.3353479137
  0
LINE
  5
5D2
100
AcDbEntity
  8
0
100
AcDbLine
 62
7
  6
CONTINUOUS
 10
172.7906459965
 20
41.7090537159
 11
172.7906459965
 21
41.6016289583
  0
LINE
  5
5D3
100
AcDbEntity
  8
0
100
AcDbLine
 62
7
  6
CONTINUOUS
 10
172.9677291609
 20
41.8164784776
 11
172.9677291609
 21
41.7388939228
  0
LINE
  5
5D4
100
AcDbEntity
  8
0
100
AcDbLine
 62
7
  6
CONTINUOUS
 10
173.3218959965
 20
41.6971176331
 11
173.3218959965
 21
41.6135650411
  0
LINE
  5
5D5
100
AcDbEntity
  8
0
100
AcDbLine
 62
7
  6
CONTINUOUS
 10
173.6760623254
 20
41.6792135089
 11
173.6760623254
 21
41.6314691694
  0
LINE
  5
5D6
100
AcDbEntity
  8
0
100
AcDbLine
 62
7
  6
CONTINUOUS
 10
173.8531459965
 20
41.6613093764
 11
173.8531459965
 21
41.6493732936
  0
LINE
  5
5D7
100
AcDbEntity
  8
0
100
AcDbLine
 62
7
  6
CONTINUOUS
 10
173.8531459965
 20
41.8164784776
 11
173.8531459965
 21
41.7209897986
  0
LINE
  5
5D8
100
AcDbEntity
  8
0
100
AcDbLine
 62
7
  6
CONTINUOUS
 10
174.3843959965
 20
42.1464819877
 11
174.3843959965
 21
41.6971176331
  0
LINE
  5
5D9
100
AcDbEntity
  8
0
100
AcDbLine
 62
7
  6
CONTINUOUS
 10
174.7385623254
 20
41.967440721
 11
174.7385623254
 21
41.6672774178
  0
LINE
  5
5DA
100
AcDbEntity
  8
0
100
AcDbLine
 62
7
  6
CONTINUOUS
 10
176.1552296676
 20
41.8301757565
 11
176.1552296676
 21
41.5300124533
  0
LINE
  5
5DB
100
AcDbEntity
  8
0
100
AcDbLine
 62
7
  6
CONTINUOUS
 10
177.2177296676
 20
41.8958242201
 11
177.2177296676
 21
41.5956609169
  0
LINE
  5
5DC
100
AcDbEntity
  8
0
100
AcDbLine
 62
7
  6
CONTINUOUS
 10
178.1031459965
 20
41.8958242201
 11
178.1031459965
 21
41.5956609169
  0
LINE
  5
5DD
100
AcDbEntity
  8
B-ACHSEN
100
AcDbLine
 62
2
  6
CENTER
 10
178.1916879811
 20
61.5591823078
 11
178.1916879811
 21
8.5591823078
  0
LINE
  5
5DE
100
AcDbEntity
  8
B-ACHSEN
100
AcDbLine
 62
2
  6
CENTER
 10
178.1916879811
 20
61.5591823078
 11
178.1916879811
 21
114.5591823078
  0
LINE
  5
5DF
100
AcDbEntity
  8
B-ACHSEN
100
AcDbLine
 62
2
  6
CENTER
 10
178.1916879811
 20
61.5591823078
 11
85.8952259841
 21
61.5591823078
  0
LINE
  5
5E0
100
AcDbEntity
  8
B-ACHSEN
100
AcDbLine
 62
2
  6
CENTER
 10
178.1916879811
 20
61.5591823078
 11
269.8181403532
 21
61.5591823078
  0
LINE
  5
5E1
100
AcDbEntity
  8
0
100
AcDbLine
 62
7
  6
CONTINUOUS
 10
179.5198123254
 20
42.1464819877
 11
179.5198123254
 21
41.8463186845
  0
LINE
  5
5E2
100
AcDbEntity
  8
0
100
AcDbLine
 62
7
  6
CONTINUOUS
 10
181.2906459965
 20
41.8164784776
 11
181.2906459965
 21
41.5658207058
  0
LINE
  5
5E3
100
AcDbEntity
  8
0
100
AcDbLine
 62
7
  6
CONTINUOUS
 10
185.8948133387
 20
42.1464819877
 11
185.8948133387
 21
41.8463186845
  0
LINE
  5
5E4
100
AcDbEntity
  8
0
100
AcDbLine
 62
7
  6
CONTINUOUS
 10
187.3114786543
 20
42.0569613502
 11
187.3114786543
 21
41.756798047
  0
LINE
  5
5E5
100
AcDbEntity
  8
0
100
AcDbLine
 62
7
  6
CONTINUOUS
 10
188.7281459965
 20
41.7329258814
 11
188.7281459965
 21
41.6135650411
  0
LINE
  5
5E6
100
AcDbEntity
  8
0
100
AcDbLine
 62
7
  6
CONTINUOUS
 10
188.7281459965
 20
42.104705698
 11
188.7281459965
 21
41.756798047
  0
LINE
  5
5E7
100
AcDbEntity
  8
0
100
AcDbLine
 62
7
  6
CONTINUOUS
 10
189.6135633387
 20
42.104705698
 11
189.6135633387
 21
41.8045423948
  0
LINE
  5
5E8
100
AcDbEntity
  8
0
100
AcDbLine
 62
7
  6
CONTINUOUS
 10
189.6135633387
 20
41.6255011281
 11
189.6135633387
 21
41.7329258814
  0
LINE
  5
5E9
100
AcDbEntity
  8
0
100
AcDbLine
 62
7
  6
CONTINUOUS
 10
189.7906459965
 20
41.756798047
 11
189.7906459965
 21
41.6075969997
  0
LINE
  5
5EA
100
AcDbEntity
  8
0
100
AcDbLine
 62
7
  6
CONTINUOUS
 10
190.3218959965
 20
41.7329258814
 11
190.3218959965
 21
41.5956609169
  0
LINE
  5
5EB
100
AcDbEntity
  8
0
100
AcDbLine
 62
7
  6
CONTINUOUS
 10
191.2073133387
 20
41.7329258814
 11
191.2073133387
 21
41.5896928734
  0
LINE
  5
5EC
100
AcDbEntity
  8
0
100
AcDbLine
 62
7
  6
CONTINUOUS
 10
191.5614786543
 20
42.0569613502
 11
191.5614786543
 21
41.756798047
  0
LWPOLYLINE
  5
5ED
100
AcDbEntity
  8
RUNDUNGEN
100
AcDbPolyline
 62
7
  6
CONTINUOUS
 90
12
 70
0
 10
237.0315469717
 20
82.8294076284
 10
237.0466130832
 20
82.8318854758
 10
237.0436711756
 20
82.8315137256
 10
236.9735854113
 20
82.8217509781
 10
236.8434945948
 20
82.8050978628
 10
236.6565142905
 20
82.7830449269
 10
236.4186485449
 20
82.7570971027
 10
236.1311524378
 20
82.7279807725
 10
235.7970255698
 20
82.6964615552
 10
235.4171561806
 20
82.6629857732
 10
234.9933483455
 20
82.6280054945
 10
234.5261565617
 20
82.591805593
  0
LINE
  5
5EE
100
AcDbEntity
  8
RUNDUNGEN
100
AcDbLine
 62
7
  6
CONTINUOUS
 10
234.5261565617
 20
82.591805593
 11
233.465411672
 21
82.5168049602
  0
LINE
  5
5EF
100
AcDbEntity
  8
RUNDUNGEN
100
AcDbLine
 62
7
  6
CONTINUOUS
 10
233.465411672
 20
82.5168049602
 11
232.2398787905
 21
82.4395951485
  0
LINE
  5
5F0
100
AcDbEntity
  8
RUNDUNGEN
100
AcDbLine
 62
7
  6
CONTINUOUS
 10
232.2398787905
 20
82.4395951485
 11
230.8533252725
 21
82.361348611
  0
LINE
  5
5F1
100
AcDbEntity
  8
RUNDUNGEN
100
AcDbLine
 62
7
  6
CONTINUOUS
 10
230.8533252725
 20
82.361348611
 11
229.307431565
 21
82.2828946278
  0
LINE
  5
5F2
100
AcDbEntity
  8
RUNDUNGEN
100
AcDbLine
 62
7
  6
CONTINUOUS
 10
229.307431565
 20
82.2828946278
 11
227.602459782
 21
82.2048642483
  0
LINE
  5
5F3
100
AcDbEntity
  8
RUNDUNGEN
100
AcDbLine
 62
7
  6
CONTINUOUS
 10
227.602459782
 20
82.2048642483
 11
225.7382583578
 21
82.1277961993
  0
LINE
  5
5F4
100
AcDbEntity
  8
RUNDUNGEN
100
AcDbLine
 62
7
  6
CONTINUOUS
 10
225.7382583578
 20
82.1277961993
 11
223.7145484587
 21
82.0521761136
  0
LINE
  5
5F5
100
AcDbEntity
  8
RUNDUNGEN
100
AcDbLine
 62
7
  6
CONTINUOUS
 10
223.7145484587
 20
82.0521761136
 11
221.5311342778
 21
81.9784604932
  0
LINE
  5
5F6
100
AcDbEntity
  8
RUNDUNGEN
100
AcDbLine
 62
7
  6
CONTINUOUS
 10
221.5311342778
 20
81.9784604932
 11
219.1880699981
 21
81.9070918582
  0
LINE
  5
5F7
100
AcDbEntity
  8
RUNDUNGEN
100
AcDbLine
 62
7
  6
CONTINUOUS
 10
219.1880699981
 20
81.9070918582
 11
216.6857996864
 21
81.8385084735
  0
LINE
  5
5F8
100
AcDbEntity
  8
RUNDUNGEN
100
AcDbLine
 62
7
  6
CONTINUOUS
 10
216.6857996864
 20
81.8385084735
 11
214.0252824025
 21
81.7731506758
  0
LINE
  5
5F9
100
AcDbEntity
  8
RUNDUNGEN
100
AcDbLine
 62
7
  6
CONTINUOUS
 10
214.0252824025
 20
81.7731506758
 11
211.2081070209
 21
81.7114649392
  0
LINE
  5
5FA
100
AcDbEntity
  8
RUNDUNGEN
100
AcDbLine
 62
7
  6
CONTINUOUS
 10
211.2081070209
 20
81.7114649392
 11
208.2367537607
 21
81.6539091167
  0
LINE
  5
5FB
100
AcDbEntity
  8
RUNDUNGEN
100
AcDbLine
 62
7
  6
CONTINUOUS
 10
208.2367537607
 20
81.6539091167
 11
205.1182061874
 21
81.6010073734
  0
LINE
  5
5FC
100
AcDbEntity
  8
RUNDUNGEN
100
AcDbLine
 62
7
  6
CONTINUOUS
 10
205.1182061874
 20
81.6010073734
 11
201.8644144512
 21
81.5533140882
  0
LINE
  5
5FD
100
AcDbEntity
  8
RUNDUNGEN
100
AcDbLine
 62
7
  6
CONTINUOUS
 10
201.8644144512
 20
81.5533140882
 11
198.4891715988
 21
81.5113355765
  0
LINE
  5
5FE
100
AcDbEntity
  8
RUNDUNGEN
100
AcDbLine
 62
7
  6
CONTINUOUS
 10
198.4891715988
 20
81.5113355765
 11
195.0078503391
 21
81.47552129
  0
LINE
  5
5FF
100
AcDbEntity
  8
RUNDUNGEN
100
AcDbLine
 62
7
  6
CONTINUOUS
 10
195.0078503391
 20
81.47552129
 11
191.4372266002
 21
81.446257874
  0
LINE
  5
600
100
AcDbEntity
  8
RUNDUNGEN
100
AcDbLine
 62
7
  6
CONTINUOUS
 10
191.4372266002
 20
81.446257874
 11
187.7952761269
 21
81.4238637637
  0
LINE
  5
601
100
AcDbEntity
  8
RUNDUNGEN
100
AcDbLine
 62
7
  6
CONTINUOUS
 10
187.7952761269
 20
81.4238637637
 11
184.1009429354
 21
81.4085847892
  0
LINE
  5
602
100
AcDbEntity
  8
RUNDUNGEN
100
AcDbLine
 62
7
  6
CONTINUOUS
 10
184.1009429354
 20
81.4085847892
 11
180.3738904667
 21
81.4005907384
  0
LINE
  5
603
100
AcDbEntity
  8
RUNDUNGEN
100
AcDbLine
 62
7
  6
CONTINUOUS
 10
180.3738904667
 20
81.4005907384
 11
176.6342569883
 21
81.399972724
  0
LINE
  5
604
100
AcDbEntity
  8
RUNDUNGEN
100
AcDbLine
 62
7
  6
CONTINUOUS
 10
176.6342569883
 20
81.399972724
 11
172.9026215855
 21
81.4067410125
  0
LINE
  5
605
100
AcDbEntity
  8
RUNDUNGEN
100
AcDbLine
 62
7
  6
CONTINUOUS
 10
172.9026215855
 20
81.4067410125
 11
169.19954922
 21
81.4208231748
  0
LINE
  5
606
100
AcDbEntity
  8
RUNDUNGEN
100
AcDbLine
 62
7
  6
CONTINUOUS
 10
169.19954922
 20
81.4208231748
 11
165.5451893859
 21
81.442064835
  0
LINE
  5
607
100
AcDbEntity
  8
RUNDUNGEN
100
AcDbLine
 62
7
  6
CONTINUOUS
 10
165.5451893859
 20
81.442064835
 11
161.9590116078
 21
81.4702320223
  0
LINE
  5
608
100
AcDbEntity
  8
RUNDUNGEN
100
AcDbLine
 62
7
  6
CONTINUOUS
 10
161.9590116078
 20
81.4702320223
 11
158.4595416878
 21
81.5050146967
  0
LINE
  5
609
100
AcDbEntity
  8
RUNDUNGEN
100
AcDbLine
 62
7
  6
CONTINUOUS
 10
158.4595416878
 20
81.5050146967
 11
155.0641138756
 21
81.5460311311
  0
LINE
  5
60A
100
AcDbEntity
  8
RUNDUNGEN
100
AcDbLine
 62
7
  6
CONTINUOUS
 10
155.0641138756
 20
81.5460311311
 11
151.7886504673
 21
81.592833285
  0
LINE
  5
60B
100
AcDbEntity
  8
RUNDUNGEN
100
AcDbLine
 62
7
  6
CONTINUOUS
 10
151.7886504673
 20
81.592833285
 11
148.6474719291
 21
81.6449130483
  0
LINE
  5
60C
100
AcDbEntity
  8
RUNDUNGEN
100
AcDbLine
 62
7
  6
CONTINUOUS
 10
148.6474719291
 20
81.6449130483
 11
145.6530948519
 21
81.7017098361
  0
LINE
  5
60D
100
AcDbEntity
  8
RUNDUNGEN
100
AcDbLine
 62
7
  6
CONTINUOUS
 10
145.6530948519
 20
81.7017098361
 11
142.8133009811
 21
81.7626821647
  0
LINE
  5
60E
100
AcDbEntity
  8
RUNDUNGEN
100
AcDbLine
 62
7
  6
CONTINUOUS
 10
142.8133009811
 20
81.7626821647
 11
140.1302309337
 21
81.8273747112
  0
LINE
  5
60F
100
AcDbEntity
  8
RUNDUNGEN
100
AcDbLine
 62
7
  6
CONTINUOUS
 10
140.1302309337
 20
81.8273747112
 11
137.604977311
 21
81.8953519906
  0
LINE
  5
610
100
AcDbEntity
  8
RUNDUNGEN
100
AcDbLine
 62
7
  6
CONTINUOUS
 10
137.604977311
 20
81.8953519906
 11
135.2380766918
 21
81.9661889307
  0
LINE
  5
611
100
AcDbEntity
  8
RUNDUNGEN
100
AcDbLine
 62
7
  6
CONTINUOUS
 10
135.2380766918
 20
81.9661889307
 11
133.0296355388
 21
82.039466462
  0
LINE
  5
612
100
AcDbEntity
  8
RUNDUNGEN
100
AcDbLine
 62
7
  6
CONTINUOUS
 10
133.0296355388
 20
82.039466462
 11
130.9794612458
 21
82.114764973
  0
LINE
  5
613
100
AcDbEntity
  8
RUNDUNGEN
100
AcDbLine
 62
7
  6
CONTINUOUS
 10
130.9794612458
 20
82.114764973
 11
129.0872095041
 21
82.1916543876
  0
LINE
  5
614
100
AcDbEntity
  8
RUNDUNGEN
100
AcDbLine
 62
7
  6
CONTINUOUS
 10
129.0872095041
 20
82.1916543876
 11
127.352556229
 21
82.2696790262
  0
LINE
  5
615
100
AcDbEntity
  8
RUNDUNGEN
100
AcDbLine
 62
7
  6
CONTINUOUS
 10
127.352556229
 20
82.2696790262
 11
125.7754113572
 21
82.3483338665
  0
LINE
  5
616
100
AcDbEntity
  8
RUNDUNGEN
100
AcDbLine
 62
7
  6
CONTINUOUS
 10
125.7754113572
 20
82.3483338665
 11
124.3562041411
 21
82.4270261015
  0
LINE
  5
617
100
AcDbEntity
  8
RUNDUNGEN
100
AcDbLine
 62
7
  6
CONTINUOUS
 10
124.3562041411
 20
82.4270261015
 11
123.0968326697
 21
82.5049749289
  0
LWPOLYLINE
  5
618
100
AcDbEntity
  8
RUNDUNGEN
100
AcDbPolyline
 62
7
  6
CONTINUOUS
 90
11
 70
0
 10
123.0968326697
 20
82.5049749289
 10
122.0018658552
 20
82.5810324692
 10
121.5176974956
 20
82.6178864847
 10
121.077117632
 20
82.6536116565
 10
120.6807576604
 20
82.6879291455
 10
120.330525434
 20
82.7203933181
 10
120.0273506778
 20
82.7505694401
 10
119.7744753062
 20
82.7776872359
 10
119.5734031722
 20
82.8010072025
 10
119.4298577819
 20
82.8190839348
 10
119.394389497
 20
82.8238294378
  0
LINE
  5
619
100
AcDbEntity
  8
RUNDUNGEN
100
AcDbLine
 62
7
  6
CONTINUOUS
 10
118.1043196249
 20
85.425005883
 11
117.78011509
 21
85.4118447301
  0
LINE
  5
61A
100
AcDbEntity
  8
RUNDUNGEN
100
AcDbLine
 62
7
  6
CONTINUOUS
 10
132.7287741638
 20
85.6183044174
 11
132.2025756963
 21
85.599877505
  0
LINE
  5
61B
100
AcDbEntity
  8
RUNDUNGEN
100
AcDbLine
 62
7
  6
CONTINUOUS
 10
132.2025756963
 20
85.599877505
 11
131.2842349492
 21
85.5713067213
  0
LINE
  5
61C
100
AcDbEntity
  8
RUNDUNGEN
100
AcDbLine
 62
7
  6
CONTINUOUS
 10
131.2842349492
 20
85.5713067213
 11
130.2410967591
 21
85.5434228741
  0
LINE
  5
61D
100
AcDbEntity
  8
RUNDUNGEN
100
AcDbLine
 62
7
  6
CONTINUOUS
 10
130.2410967591
 20
85.5434228741
 11
129.0706904718
 21
85.516857881
  0
LINE
  5
61E
100
AcDbEntity
  8
RUNDUNGEN
100
AcDbLine
 62
7
  6
CONTINUOUS
 10
129.0706904718
 20
85.516857881
 11
127.7778595026
 21
85.4923735334
  0
LINE
  5
61F
100
AcDbEntity
  8
RUNDUNGEN
100
AcDbLine
 62
7
  6
CONTINUOUS
 10
127.7778595026
 20
85.4923735334
 11
126.3702491935
 21
85.4706931433
  0
LINE
  5
620
100
AcDbEntity
  8
RUNDUNGEN
100
AcDbLine
 62
7
  6
CONTINUOUS
 10
126.3702491935
 20
85.4706931433
 11
124.8586968121
 21
85.4525147335
  0
LINE
  5
621
100
AcDbEntity
  8
RUNDUNGEN
100
AcDbLine
 62
7
  6
CONTINUOUS
 10
124.8586968121
 20
85.4525147335
 11
123.2571995175
 21
85.4384885164
  0
LINE
  5
622
100
AcDbEntity
  8
RUNDUNGEN
100
AcDbLine
 62
7
  6
CONTINUOUS
 10
123.2571995175
 20
85.4384885164
 11
121.5827655872
 21
85.4291992492
  0
LINE
  5
623
100
AcDbEntity
  8
RUNDUNGEN
100
AcDbLine
 62
7
  6
CONTINUOUS
 10
121.5827655872
 20
85.4291992492
 11
119.4605288432
 21
85.4250058429
  0
LINE
  5
624
100
AcDbEntity
  8
RUNDUNGEN
100
AcDbLine
 62
7
  6
CONTINUOUS
 10
118.1043196249
 20
85.425005883
 11
119.4605288432
 21
85.425005883
  0
LINE
  5
625
100
AcDbEntity
  8
RUNDUNGEN
100
AcDbLine
 62
7
  6
CONTINUOUS
 10
238.2790563373
 20
85.425005883
 11
235.5671417614
 21
85.4267164392
  0
LINE
  5
626
100
AcDbEntity
  8
RUNDUNGEN
100
AcDbLine
 62
7
  6
CONTINUOUS
 10
235.5671417614
 20
85.4267164392
 11
233.8584918937
 21
85.4337662367
  0
LINE
  5
627
100
AcDbEntity
  8
RUNDUNGEN
100
AcDbLine
 62
7
  6
CONTINUOUS
 10
233.8584918937
 20
85.4337662367
 11
232.247992458
 21
85.4455383975
  0
LINE
  5
628
100
AcDbEntity
  8
RUNDUNGEN
100
AcDbLine
 62
7
  6
CONTINUOUS
 10
232.247992458
 20
85.4455383975
 11
230.7409683662
 21
85.461313632
  0
LINE
  5
629
100
AcDbEntity
  8
RUNDUNGEN
100
AcDbLine
 62
7
  6
CONTINUOUS
 10
230.7409683662
 20
85.461313632
 11
229.3399551868
 21
85.4804551022
  0
LINE
  5
62A
100
AcDbEntity
  8
RUNDUNGEN
100
AcDbLine
 62
7
  6
CONTINUOUS
 10
229.3399551868
 20
85.4804551022
 11
228.0453681465
 21
85.5024072875
  0
LINE
  5
62B
100
AcDbEntity
  8
RUNDUNGEN
100
AcDbLine
 62
7
  6
CONTINUOUS
 10
228.0453681465
 20
85.5024072875
 11
226.8562299889
 21
85.5266817237
  0
LINE
  5
62C
100
AcDbEntity
  8
RUNDUNGEN
100
AcDbLine
 62
7
  6
CONTINUOUS
 10
226.8562299889
 20
85.5266817237
 11
225.7754776801
 21
85.5527319648
  0
LINE
  5
62D
100
AcDbEntity
  8
RUNDUNGEN
100
AcDbLine
 62
7
  6
CONTINUOUS
 10
225.7754776801
 20
85.5527319648
 11
224.3777077622
 21
85.5933890503
  0
LINE
  5
62E
100
AcDbEntity
  8
RUNDUNGEN
100
AcDbLine
 62
7
  6
CONTINUOUS
 10
224.3777077622
 20
85.5933890503
 11
223.6553479508
 21
85.6183021939
  0
LINE
  5
62F
100
AcDbEntity
  8
RUNDUNGEN
100
AcDbLine
 62
7
  6
CONTINUOUS
 10
238.5876488289
 20
85.4130826585
 11
238.2790563373
 21
85.4250049455
  0
LINE
  5
630
100
AcDbEntity
  8
RUNDUNGEN
100
AcDbLine
 62
7
  6
CONTINUOUS
 10
133.0670287363
 20
85.6499958173
 11
132.7289420205
 21
85.6183105963
  0
LWPOLYLINE
  5
631
100
AcDbEntity
  8
RUNDUNGEN
100
AcDbPolyline
 62
7
  6
CONTINUOUS
 90
21
 70
0
 10
94.3423252999
 20
83.5444767806
 10
94.1538937888
 20
83.5271433242
 10
93.9767993029
 20
83.5074091821
 10
93.7951449542
 20
83.4825529822
 10
93.593354286
 20
83.4479985239
 10
93.3700151072
 20
83.3995881307
 10
93.116681469
 20
83.3299643251
 10
92.8443676583
 20
83.235802303
 10
92.5630893428
 20
83.1153387664
 10
92.2773179955
 20
82.9659865715
 10
91.9956725997
 20
82.7884471866
 10
91.7200301784
 20
82.5804216214
 10
91.4545325566
 20
82.3409886547
 10
91.2039528072
 20
82.0701472714
 10
90.9731215604
 20
81.7685568679
 10
90.7669073339
 20
81.4376642352
 10
90.5901246892
 20
81.0798494689
 10
90.4470650239
 20
80.6976420214
 10
90.3418668663
 20
80.2944119426
 10
90.2783135401
 20
79.8742705593
 10
90.2594496122
 20
79.4859318694
  0
LINE
  5
632
100
AcDbEntity
  8
RUNDUNGEN
100
AcDbLine
 62
7
  6
CONTINUOUS
 10
94.3423252999
 20
83.5444767806
 11
117.7866522642
 21
85.4123718617
  0
LINE
  5
633
100
AcDbEntity
  8
RUNDUNGEN
100
AcDbLine
 62
7
  6
CONTINUOUS
 10
223.6544319863
 20
85.6183097437
 11
223.3163260883
 21
85.6499982297
  0
LWPOLYLINE
  5
634
100
AcDbEntity
  8
RUNDUNGEN
100
AcDbPolyline
 62
7
  6
CONTINUOUS
 90
7
 70
0
 10
223.3163260883
 20
85.6499982297
 10
222.8855717526
 20
85.7480314694
 10
222.4738941778
 20
85.9082563004
 10
222.0902191161
 20
86.1271935125
 10
221.7428615935
 20
86.4000927812
 10
221.4393489267
 20
86.7210351497
 10
221.2174741178
 20
87.0384086895
  0
LINE
  5
635
100
AcDbEntity
  8
RUNDUNGEN
100
AcDbLine
 62
7
  6
CONTINUOUS
 10
221.1887296468
 20
36.0394956328
 11
221.1899846604
 21
36.0416102706
  0
LWPOLYLINE
  5
636
100
AcDbEntity
  8
RUNDUNGEN
100
AcDbPolyline
 62
7
  6
CONTINUOUS
 90
7
 70
0
 10
221.1862988794
 20
36.0353732585
 10
221.4393926899
 20
36.3973836088
 10
221.7429060897
 20
36.7183125381
 10
222.0902613768
 20
36.9911993734
 10
222.4739315191
 20
37.2101257261
 10
222.8856018732
 20
37.3703417859
 10
223.3163472258
 20
37.4683687983
  0
LINE
  5
637
100
AcDbEntity
  8
RUNDUNGEN
100
AcDbLine
 62
7
  6
CONTINUOUS
 10
266.1239264021
 20
43.632427756
 11
266.1239264021
 21
79.4859368595
  0
LWPOLYLINE
  5
638
100
AcDbEntity
  8
RUNDUNGEN
100
AcDbPolyline
 62
7
  6
CONTINUOUS
 90
22
 70
0
 10
266.1239263465
 20
79.4859251601
 10
266.0950487936
 20
79.9661060289
 10
266.0181818567
 20
80.400358299
 10
265.9007798576
 20
80.804407423
 10
265.7473601748
 20
81.1817788905
 10
265.5624120515
 20
81.5315954908
 10
265.3478962791
 20
81.8560283826
 10
265.1092462892
 20
82.1511419126
 10
264.8511538056
 20
82.4155554342
 10
264.5786121729
 20
82.6483665105
 10
264.2962714394
 20
82.8496689952
 10
264.0092567968
 20
83.0198325848
 10
263.7200372053
 20
83.1611324537
 10
263.4386355225
 20
83.2729623179
 10
263.1710777126
 20
83.3581852807
 10
262.9265639738
 20
83.4197678747
 10
262.718206346
 20
83.4612246532
 10
262.5317941015
 20
83.4908493237
 10
262.360117004
 20
83.5129680291
 10
262.1919430615
 20
83.5308626227
 10
262.0142745807
 20
83.5466953977
 10
238.5967236979
 20
85.4123718617
  0
ARC
  5
639
100
AcDbEntity
  8
RUNDUNGEN
100
AcDbCircle
 62
7
  6
CONTINUOUS
 10
116.1916879811
 20
232.9781565299
 40
12.0
100
AcDbArc
 50
0.0
 51
82.9544863897
  0
ARC
  5
63A
100
AcDbEntity
  8
RUNDUNGEN
100
AcDbCircle
 62
7
  6
CONTINUOUS
 10
118.1543712053
 20
248.8573213257
 40
4.0
100
AcDbArc
 50
202.5
 51
262.9539116534
  0
ARC
  5
63B
100
AcDbEntity
  8
RUNDUNGEN
100
AcDbCircle
 62
7
  6
CONTINUOUS
 10
118.1043196249
 20
248.9781565299
 40
4.0
100
AcDbArc
 50
202.5
 51
270.0
  0
ARC
  5
63C
100
AcDbEntity
  8
B-ACHSEN
100
AcDbCircle
 62
7
  6
CONTINUOUS
 10
158.3916879811
 20
211.7666665626
 40
2.0
100
AcDbArc
 50
315.0
 51
360.0
  0
ARC
  5
63D
100
AcDbEntity
  8
RUNDUNGEN
100
AcDbCircle
 62
7
  6
CONTINUOUS
 10
100.25944956
 20
307.7382394378
 40
10.0
100
AcDbArc
 50
157.5
 51
202.5
  0
ARC
  5
63E
100
AcDbEntity
  8
RUNDUNGEN
100
AcDbCircle
 62
7
  6
CONTINUOUS
 10
123.0852737205
 20
362.8446536984
 40
10.0
100
AcDbArc
 50
112.5
 51
157.5
  0
ARC
  5
63F
100
AcDbEntity
  8
RUNDUNGEN
100
AcDbCircle
 62
7
  6
CONTINUOUS
 10
240.1916879811
 20
232.9781565299
 40
12.0
100
AcDbArc
 50
97.0455136103
 51
180.0
  0
ARC
  5
640
100
AcDbEntity
  8
RUNDUNGEN
100
AcDbCircle
 62
7
  6
CONTINUOUS
 10
238.2290047569
 20
248.8573213257
 40
4.0
100
AcDbArc
 50
277.0460883466
 51
337.5
  0
ARC
  5
641
100
AcDbEntity
  8
RUNDUNGEN
100
AcDbCircle
 62
7
  6
CONTINUOUS
 10
238.2790563373
 20
248.9781565299
 40
4.0
100
AcDbArc
 50
270.0
 51
337.5
  0
ARC
  5
642
100
AcDbEntity
  8
B-ACHSEN
100
AcDbCircle
 62
7
  6
CONTINUOUS
 10
197.9916879811
 20
211.7666665626
 40
2.0
100
AcDbArc
 50
180.0
 51
225.0
  0
CIRCLE
  5
643
100
AcDbEntity
  8
RUNDUNGEN
100
AcDbCircle
 62
7
  6
CONTINUOUS
 10
178.1916879811
 20
307.7382394378
 40
45.0
  0
ARC
  5
644
100
AcDbEntity
  8
RUNDUNGEN
100
AcDbCircle
 62
7
  6
CONTINUOUS
 10
178.1916879811
 20
385.6704778589
 40
10.0
100
AcDbArc
 50
67.5
 51
112.5
  0
ARC
  5
645
100
AcDbEntity
  8
RUNDUNGEN
100
AcDbCircle
 62
7
  6
CONTINUOUS
 10
233.2981022416
 20
362.8446536984
 40
10.0
100
AcDbArc
 50
22.5
 51
67.5
  0
ARC
  5
646
100
AcDbEntity
  8
RUNDUNGEN
100
AcDbCircle
 62
7
  6
CONTINUOUS
 10
256.1239264021
 20
307.7382394378
 40
10.0
100
AcDbArc
 50
337.5
 51
22.5
  0
ARC
  5
647
100
AcDbEntity
  8
B-ACHSEN
100
AcDbCircle
 62
7
  6
CONTINUOUS
 10
351.4766670603
 20
244.8613560319
 40
10.0
100
AcDbArc
 50
99.0
 51
180.0
  0
ARC
  5
648
100
AcDbEntity
  8
B-ACHSEN
100
AcDbCircle
 62
7
  6
CONTINUOUS
 10
431.4766670603
 20
244.8613560319
 40
10.0
100
AcDbArc
 50
0.0
 51
81.0
  0
ARC
  5
649
100
AcDbEntity
  8
RUNDUNGEN
100
AcDbCircle
 62
7
  6
CONTINUOUS
 10
376.3196561564
 20
391.6704778328
 40
4.0
100
AcDbArc
 50
90.000000018
 51
178.109938784
  0
ARC
  5
64A
100
AcDbEntity
  8
RUNDUNGEN
100
AcDbCircle
 62
7
  6
CONTINUOUS
 10
406.6336779641
 20
391.6704778328
 40
4.0
100
AcDbArc
 50
1.890061216
 51
89.999999982
  0
ARC
  5
64B
100
AcDbEntity
  8
RUNDUNGEN
100
AcDbCircle
 62
7
  6
CONTINUOUS
 10
411.3424906355
 20
248.9781565299
 40
4.0
100
AcDbArc
 50
270.0
 51
1.890061216
  0
ARC
  5
64C
100
AcDbEntity
  8
RUNDUNGEN
100
AcDbCircle
 62
7
  6
CONTINUOUS
 10
371.6108434816
 20
248.9781564244
 40
3.9999999736
100
AcDbArc
 50
178.109937272
 51
270.0
  0
ARC
  5
64D
100
AcDbEntity
  8
RUNDUNGEN
100
AcDbCircle
 62
7
  6
CONTINUOUS
 10
365.0826553396
 20
260.1783404416
 40
2.9999980136
100
AcDbArc
 50
279.0000000228
 51
336.8289516064
  0
ARC
  5
64E
100
AcDbEntity
  8
RUNDUNGEN
100
AcDbCircle
 62
7
  6
CONTINUOUS
 10
417.870678782
 20
260.1783404415
 40
2.9999980136
100
AcDbArc
 50
203.1710467687
 51
260.9999999765
  0
ARC
  5
64F
100
AcDbEntity
  8
B-ACHSEN
100
AcDbCircle
 62
7
  6
CONTINUOUS
 10
371.6766670603
 20
211.7666665626
 40
2.0
100
AcDbArc
 50
315.0
 51
360.0
  0
ARC
  5
650
100
AcDbEntity
  8
B-ACHSEN
100
AcDbCircle
 62
7
  6
CONTINUOUS
 10
411.2766670603
 20
211.7666665626
 40
2.0
100
AcDbArc
 50
180.0
 51
225.0
  0
ARC
  5
651
100
AcDbEntity
  8
B-ACHSEN
100
AcDbCircle
 62
7
  6
CONTINUOUS
 10
178.1916879811
 20
61.5591823078
 40
50.0
100
AcDbArc
 50
210.6330276603
 51
329.3669723397
  0
ARC
  5
652
100
AcDbEntity
  8
B-ACHSEN
100
AcDbCircle
 62
7
  6
CONTINUOUS
 10
178.1916879811
 20
61.5591823078
 40
50.0
100
AcDbArc
 50
30.6330276603
 51
149.3669723397
  0
ARC
  5
653
100
AcDbEntity
  8
RUNDUNGEN
100
AcDbCircle
 62
7
  6
CONTINUOUS
 10
178.1916879811
 20
61.5591823078
 40
50.0
100
AcDbArc
 50
210.6330276603
 51
329.3669723397
  0
ARC
  5
654
100
AcDbEntity
  8
RUNDUNGEN
100
AcDbCircle
 62
7
  6
CONTINUOUS
 10
178.1916879811
 20
61.5591823078
 40
50.0
100
AcDbArc
 50
30.6330276603
 51
149.3669723397
  0
ARC
  5
655
100
AcDbEntity
  8
0
100
AcDbCircle
 62
7
  6
CONTINUOUS
 10
178.1916879811
 20
61.5591823078
 40
50.0
100
AcDbArc
 50
220.1622621348
 51
263.5842443227
  0
ARC
  5
656
100
AcDbEntity
  8
0
100
AcDbCircle
 62
7
  6
CONTINUOUS
 10
178.1916879811
 20
61.5591823078
 40
50.0
100
AcDbArc
 50
275.6143329255
 51
320.3223417361
  0
ENDSEC
  0
SECTION
  2
OBJECTS
  0
DICTIONARY
  5
C
100
AcDbDictionary
280
0
281
1
  3
ACAD_GROUP
350
D
  3
ACAD_MLINESTYLE
350
17
  3
ACAD_LAYOUT
350
1A
  3
ACAD_PLOTSETTINGS
350
19
  3
ACAD_PLOTSTYLENAME
350
E
  0
DICTIONARY
  5
D
102
{ACAD_REACTORS
330
C
102
}
100
AcDbDictionary
280
0
281
1
  0
ACDBDICTIONARYWDFLT
  5
E
102
{ACAD_REACTORS
330
C
102
}
100
AcDbDictionary
281
1
  3
Normal
350
F
100
AcDbDictionaryWithDefault
340
F
  0
DICTIONARY
  5
17
102
{ACAD_REACTORS
330
C
102
}
100
AcDbDictionary
280
0
281
1
  3
Standard
350
18
  0
DICTIONARY
  5
19
102
{ACAD_REACTORS
330
C
102
}
100
AcDbDictionary
281
1
  0
DICTIONARY
  5
1A
102
{ACAD_REACTORS
330
C
102
}
100
AcDbDictionary
281
1
  3
Model
350
657
  3
Layout1
350
658
  0
ACDBPLACEHOLDER
  5
F
102
{ACAD_REACTORS
330
E
102
}
  0
MLINESTYLE
  5
18
102
{ACAD_REACTORS
330
17
102
}
100
AcDbMlineStyle
  2
STANDARD
 70
0
  3

 62
256
 51
90.0
 52
90.0
 71
2
 49
0.5
 62
256
  6
BYLAYER
 49
-0.5
 62
256
  6
BYLAYER
  0
LAYOUT
  5
657
102
{ACAD_REACTORS
330
1A
102
}
100
AcDbPlotSettings
  1

  2
none_device
  4
ISO_A2_(594.00_x_420.00_MM)
  6

 40
0.0
 41
0.0
 42
0.0
 43
0.0
 44
594.0
 45
420.0
 46
0.0
 47
0.0
 48
0.0
 49
0.0
140
0.0
141
0.0
142
1.0
143
1.0
 70
1024
 72
1
 73
0
 74
0
  7

 75
0
147
1.0
148
0.0
149
0.0
100
AcDbLayout
  1
Model
 70
0
 71
0
 10
0.0
 20
0.0
 11
594.0
 21
420.0
 12
0.0
 22
0.0
 32
0.0
 14
0.0
 24
0.0
 34
0.0
 15
0.0
 25
0.0
 35
0.0
146
0.0
 13
0.0
 23
0.0
 33
0.0
 16
1.0
 26
0.0
 36
0.0
 17
0.0
 27
1.0
 37
0.0
 76
0
330
209
345
0
346
0
  0
LAYOUT
  5
658
102
{ACAD_REACTORS
330
1A
102
}
100
AcDbPlotSettings
  1

  2
none_device
  4
ISO_A2_(594.00_x_420.00_MM)
  6

 40
0.0
 41
0.0
 42
0.0
 43
0.0
 44
594.0
 45
420.0
 46
0.0
 47
0.0
 48
0.0
 49
0.0
140
0.0
141
0.0
142
1.0
143
1.0
 70
0
 72
1
 73
0
 74
0
  7

 75
0
147
1.0
148
0.0
149
0.0
100
AcDbLayout
  1
Layout1
 70
0
 71
1
 10
0.0
 20
0.0
 11
594.0
 21
420.0
 12
0.0
 22
0.0
 32
0.0
 14
0.0
 24
0.0
 34
0.0
 15
0.0
 25
0.0
 35
0.0
146
0.0
 13
0.0
 23
0.0
 33
0.0
 16
1.0
 26
0.0
 36
0.0
 17
0.0
 27
1.0
 37
0.0
 76
0
330
20A
345
0
346
0
  0
ENDSEC
  0
EOF
