999
DXF file: IRS-LT-M36-7907799-M35563-P-6.dxf
999
Pro/ENGINEER 2011490 by Parametric Technology Corporation
  0
SECTION
  2
HEADER
  9
$ACADVER
  1
AC1021
  9
$DWGCODEPAGE
  3
ANSI_1252
  9
$EXTMAX
 10
594.0
 20
420.0
 30
0.0
  9
$EXTMIN
 10
0.0
 20
0.0
 30
0.0
  9
$LIMMIN
 10
0.0
 20
0.0
  9
$LIMMAX
 10
594.0
 20
420.0
  9
$VIEWCTR
 10
297.0
 20
210.0
  9
$VIEWSIZE
 40
420.0
  9
$CLAYER
  8
0
  9
$LTSCALE
 40
32.67
  9
$CELTYPE
  6
BYLAYER
  9
$DIMSCALE
 40
1.0
  9
$DIMASZ
 40
3.5
  9
$DIMEXO
 40
3.7125
  9
$DIMDLI
 40
22.572
  9
$DIMEXE
 40
10.692
  9
$DIMCEN
 40
5.346
  9
$DIMLFAC
 40
1.0
  9
$DIMBLK
  1
_FILLED
  9
$DIMTXT
 40
3.5
  9
$DIMTOL
 70
1
  9
$DIMLIM
 70
0
  9
$DIMTFAC
 40
1.0
  9
$DIMTP
 40
0.005
  9
$DIMTM
 40
0.005
  9
$PDMODE
 70
3
  9
$PDSIZE
 40
0.3125
  9
$HANDSEED
  5
6B5
  9
$TILEMODE
 70
1
  9
$MEASUREMENT
 70
1
  9
$INSUNITS
 70
4
  0
ENDSEC
  0
SECTION
  2
CLASSES
  0
CLASS
  1
ACDBDICTIONARYWDFLT
  2
AcDbDictionaryWithDefault
  3
AutoCAD 2000
 90
0
 91
1
280
0
281
0
  0
CLASS
  1
ACDBPLACEHOLDER
  2
AcDbPlaceHolder
  3
AutoCAD 2000
 90
0
 91
1
280
0
281
0
  0
CLASS
  1
LAYOUT
  2
AcDbLayout
  3
AutoCAD 2000
 90
0
 91
0
280
0
281
0
  0
ENDSEC
  0
SECTION
  2
TABLES
  0
TABLE
  2
VPORT
  5
8
100
AcDbSymbolTable
 70
2
  0
VPORT
  5
1F4
100
AcDbSymbolTableRecord
100
AcDbViewportTableRecord
  2
*ACTIVE
 70
0
 10
0.0
 20
0.0
 11
1.0
 21
1.0
 12
297.0
 22
210.0
 13
0.0
 23
0.0
 14
1.0
 24
1.0
 15
0.0
 25
0.0
 16
0.0
 26
0.0
 36
1.0
 17
0.0
 27
0.0
 37
0.0
 40
420.0
 41
1.4142857143
 42
50.0
 43
0.0
 44
0.0
 50
0.0
 51
0.0
 71
0
 72
100
 73
1
 74
1
 75
0
 76
0
 77
0
 78
0
  0
ENDTAB
  0
TABLE
  2
LTYPE
  5
5
100
AcDbSymbolTable
 70
6
  0
LTYPE
  5
14
100
AcDbSymbolTableRecord
100
AcDbLinetypeTableRecord
  2
BYBLOCK
 70
0
  3

 72
65
 73
0
 40
0.0
  0
LTYPE
  5
15
100
AcDbSymbolTableRecord
100
AcDbLinetypeTableRecord
  2
BYLAYER
 70
0
  3

 72
65
 73
0
 40
0.0
  0
LTYPE
  5
16
100
AcDbSymbolTableRecord
100
AcDbLinetypeTableRecord
  2
CONTINUOUS
 70
64
  3
Solid line
 72
65
 73
0
 40
0.0
  0
LTYPE
  5
1F5
100
AcDbSymbolTableRecord
100
AcDbLinetypeTableRecord
  2
CENTER
 70
64
  3
____ _ ____ _ ____ _ ____ _ ____ _ ____ _ ____
 72
65
 73
4
 40
0.6
 49
0.375
 74
0
 49
-0.075
 74
0
 49
0.075
 74
0
 49
-0.075
 74
0
  0
LTYPE
  5
1F6
100
AcDbSymbolTableRecord
100
AcDbLinetypeTableRecord
  2
HIDDEN
 70
64
  3
- - - - - - - - - - - - - - - - - - - -
 72
65
 73
2
 40
0.2
 49
0.1
 74
0
 49
-0.1
 74
0
  0
LTYPE
  5
1F7
100
AcDbSymbolTableRecord
100
AcDbLinetypeTableRecord
  2
PHANTOM
 70
64
  3
_____ _ _ _____ _ _ _____ _ _ _____
 72
65
 73
6
 40
0.8
 49
0.45
 74
0
 49
-0.05
 74
0
 49
0.1
 74
0
 49
-0.05
 74
0
 49
0.1
 74
0
 49
-0.05
 74
0
  0
LTYPE
  5
1F8
100
AcDbSymbolTableRecord
100
AcDbLinetypeTableRecord
  2
DOT
 70
64
  3
. . . . . . . . . . . . . . . . . . . .
 72
65
 73
2
 40
0.2
 49
0.1
 74
0
 49
-0.1
 74
0
  0
LTYPE
  5
1F9
100
AcDbSymbolTableRecord
100
AcDbLinetypeTableRecord
  2
DASHED
 70
64
  3
- - - - - - - - - - - - - - - - - - - -
 72
65
 73
2
 40
0.2
 49
0.1
 74
0
 49
-0.1
 74
0
  0
ENDTAB
  0
TABLE
  2
LAYER
  5
2
100
AcDbSymbolTable
 70
36
  0
LAYER
  5
10
100
AcDbSymbolTableRecord
100
AcDbLayerTableRecord
  2
0
 70
0
 62
7
  6
CONTINUOUS
370
-3
390
F
  0
LAYER
  5
1FA
100
AcDbSymbolTableRecord
100
AcDbLayerTableRecord
  2
DEFAULT_1
 70
0
 62
7
  6
CENTER
370
-3
390
F
  0
LAYER
  5
1FB
100
AcDbSymbolTableRecord
100
AcDbLayerTableRecord
  2
DEFAULT_2
 70
0
 62
8
  6
HIDDEN
370
-3
390
F
  0
LAYER
  5
1FC
100
AcDbSymbolTableRecord
100
AcDbLayerTableRecord
  2
DEFAULT_3
 70
0
 62
7
  6
PHANTOM
370
-3
390
F
  0
LAYER
  5
1FD
100
AcDbSymbolTableRecord
100
AcDbLayerTableRecord
  2
B-ACHSEN
 70
0
 62
7
  6
CONTINUOUS
370
-3
390
F
  0
LAYER
  5
1FE
100
AcDbSymbolTableRecord
100
AcDbLayerTableRecord
  2
B-EBENEN
 70
0
 62
7
  6
CONTINUOUS
370
-3
390
F
  0
LAYER
  5
1FF
100
AcDbSymbolTableRecord
100
AcDbLayerTableRecord
  2
B-KOORSYS
 70
0
 62
7
  6
CONTINUOUS
370
-3
390
F
  0
LAYER
  5
200
100
AcDbSymbolTableRecord
100
AcDbLayerTableRecord
  2
B-PUNKTE
 70
0
 62
7
  6
CONTINUOUS
370
-3
390
F
  0
LAYER
  5
201
100
AcDbSymbolTableRecord
100
AcDbLayerTableRecord
  2
BEMASSUNG
 70
0
 62
7
  6
CONTINUOUS
370
-3
390
F
  0
LAYER
  5
202
100
AcDbSymbolTableRecord
100
AcDbLayerTableRecord
  2
BOHRUNGEN
 70
0
 62
7
  6
CONTINUOUS
370
-3
390
F
  0
LAYER
  5
203
100
AcDbSymbolTableRecord
100
AcDbLayerTableRecord
  2
FLAECHEN
 70
0
 62
7
  6
CONTINUOUS
370
-3
390
F
  0
LAYER
  5
204
100
AcDbSymbolTableRecord
100
AcDbLayerTableRecord
  2
NOTIZEN
 70
0
 62
7
  6
CONTINUOUS
370
-3
390
F
  0
LAYER
  5
205
100
AcDbSymbolTableRecord
100
AcDbLayerTableRecord
  2
RUNDUNGEN
 70
0
 62
7
  6
CONTINUOUS
370
-3
390
F
  0
LAYER
  5
206
100
AcDbSymbolTableRecord
100
AcDbLayerTableRecord
  2
VERBUNDFLAECHEN
 70
0
 62
7
  6
CONTINUOUS
370
-3
390
F
  0
ENDTAB
  0
TABLE
  2
STYLE
  5
3
100
AcDbSymbolTable
 70
1
  0
STYLE
  5
11
100
AcDbSymbolTableRecord
100
AcDbTextStyleTableRecord
  2
STANDARD
 70
0
 40
0.0
 41
0.7
 50
0.0
 71
0
 42
0.2
  3
txt
  4

  0
STYLE
  5
207
100
AcDbSymbolTableRecord
100
AcDbTextStyleTableRecord
  2
TEXTSTYLE_1
 70
0
 40
0.0
 41
0.8
 50
0.0
 71
0
 42
0.2
  3
gdt
  4

  0
ENDTAB
  0
TABLE
  2
VIEW
  5
6
100
AcDbSymbolTable
 70
0
  0
ENDTAB
  0
TABLE
  2
UCS
  5
7
100
AcDbSymbolTable
 70
0
  0
ENDTAB
  0
TABLE
  2
APPID
  5
9
100
AcDbSymbolTable
 70
1
  0
APPID
  5
208
100
AcDbSymbolTableRecord
100
AcDbRegAppTableRecord
  2
ACAD
 70
0
  0
ENDTAB
  0
TABLE
  2
BLOCK_RECORD
  5
1
100
AcDbSymbolTable
 70
0
  0
BLOCK_RECORD
  5
209
100
AcDbSymbolTableRecord
100
AcDbBlockTableRecord
  2
*Model_Space
  0
BLOCK_RECORD
  5
20A
100
AcDbSymbolTableRecord
100
AcDbBlockTableRecord
  2
*Paper_Space
  0
ENDTAB
  0
TABLE
  2
DIMSTYLE
  5
A
100
AcDbSymbolTable
 70
1
100
AcDbDimStyleTable
 71
0
  0
DIMSTYLE
105
20B
100
AcDbSymbolTableRecord
100
AcDbDimStyleTableRecord
  2
STANDARD
 70
0
  3

  4

 40
1.0
 41
3.5
 42
0.0625
 43
0.38
 44
0.18
 45
0.0
 46
0.0
 47
0.005
 48
0.005
140
3.5
141
0.09
142
0.0
143
25.4
144
1.0
145
0.0
146
1.0
147
0.09
 71
1.0
 72
0.0
 73
0
 74
0
 75
0
 76
0
 77
1
 78
8
170
0
171
2
172
0
173
0
174
0
175
0
176
0
177
0
178
5
270
2
271
3
272
3
273
2
274
2
275
0
280
0
281
0
282
0
283
1
284
8
285
0
286
0
287
3
288
0
340
11
  0
ENDTAB
  0
ENDSEC
  0
SECTION
  2
BLOCKS
  0
BLOCK
  5
20
100
AcDbEntity
  8
0
100
AcDbBlockBegin
  2
*Model_Space
 70
0
 10
0.0
 20
0.0
 30
0.0
  3
*Model_Space
  1

  0
ENDBLK
  5
21
100
AcDbEntity
  8
0
100
AcDbBlockEnd
  0
BLOCK
  5
1C
100
AcDbEntity
  8
0
100
AcDbBlockBegin
  2
*Paper_Space
 70
0
 10
0.0
 20
0.0
 30
0.0
  3
*Paper_Space
  1

  0
ENDBLK
  5
1D
100
AcDbEntity
  8
0
100
AcDbBlockEnd
  0
ENDSEC
  0
SECTION
  2
ENTITIES
  0
MTEXT
  5
20C
100
AcDbEntity
  8
0
100
AcDbMText
 62
5
  6
CONTINUOUS
  7
STANDARD
 71
1
 72
1
 10
386.8237180481
 20
247.3014818538
 30
0.0
 11
0.0
 21
1.0
 31
0.0
 44
0.9
  1
RUD
 40
8.0
 41
19.8095238095
  0
MTEXT
  5
20D
100
AcDbEntity
  8
0
100
AcDbMText
 62
5
  6
CONTINUOUS
  7
STANDARD
 71
1
 72
1
 10
407.9206391579
 20
245.8444002846
 30
0.0
 11
0.0
 21
1.0
 31
0.0
 44
0.9
  1
IRS-LT M36
 40
8.0
 41
62.0952380952
  0
MTEXT
  5
20E
100
AcDbEntity
  8
0
100
AcDbMText
 62
5
  6
CONTINUOUS
  7
STANDARD
 71
1
 72
1
 10
184.8418997164
 20
78.559206553
 30
0.0
 11
1.0
 21
0.0
 31
0.0
 44
0.9
  1
RUD
 40
8.0
 41
19.8095238095
  0
MTEXT
  5
20F
100
AcDbEntity
  8
0
100
AcDbMText
 62
5
  6
CONTINUOUS
  7
STANDARD
 71
1
 72
1
 10
183.5943725401
 20
59.3425422059
 30
0.0
 11
1.0
 21
0.0
 31
0.0
 44
0.9
  1
IRS-LT M36
 40
8.0
 41
62.0952380952
  0
LINE
  5
210
100
AcDbEntity
  8
0
100
AcDbLine
 62
7
  6
CONTINUOUS
 10
0.0
 20
0.0
 11
0.0
 21
420.0
  0
LINE
  5
211
100
AcDbEntity
  8
0
100
AcDbLine
 62
7
  6
CONTINUOUS
 10
0.0
 20
0.0
 11
594.0
 21
0.0
  0
LINE
  5
212
100
AcDbEntity
  8
0
100
AcDbLine
 62
7
  6
CONTINUOUS
 10
0.0
 20
420.0
 11
594.0
 21
420.0
  0
LINE
  5
213
100
AcDbEntity
  8
0
100
AcDbLine
 62
7
  6
CONTINUOUS
 10
594.0
 20
0.0
 11
594.0
 21
420.0
  0
LINE
  5
214
100
AcDbEntity
  8
B-ACHSEN
100
AcDbLine
 62
7
  6
CONTINUOUS
 10
193.6408099913
 20
158.216238778
 11
163.6408099913
 21
158.216238778
  0
LINE
  5
215
100
AcDbEntity
  8
RUNDUNGEN
100
AcDbLine
 62
7
  6
CONTINUOUS
 10
119.7075614071
 20
362.5614483636
 11
174.8139756676
 21
385.3872725241
  0
LINE
  5
216
100
AcDbEntity
  8
B-ACHSEN
100
AcDbLine
 62
7
  6
CONTINUOUS
 10
196.6408099913
 20
161.216238778
 11
160.6408099913
 21
161.216238778
  0
LINE
  5
217
100
AcDbEntity
  8
RUNDUNGEN
100
AcDbLine
 62
7
  6
CONTINUOUS
 10
91.4697762451
 20
302.0430731016
 11
114.2956004056
 21
357.1494873622
  0
LINE
  5
218
100
AcDbEntity
  8
0
100
AcDbLine
 62
7
  6
CONTINUOUS
 10
114.5466988244
 20
337.9967507023
 11
114.0705396489
 21
337.2919881022
  0
LINE
  5
219
100
AcDbEntity
  8
0
100
AcDbLine
 62
7
  6
CONTINUOUS
 10
108.8064471565
 20
324.1385572741
 11
108.3302881634
 21
323.4337951145
  0
LINE
  5
21A
100
AcDbEntity
  8
0
100
AcDbLine
 62
7
  6
CONTINUOUS
 10
115.0140760803
 20
336.9011625157
 11
115.4264541971
 21
337.4519440189
  0
LINE
  5
21B
100
AcDbEntity
  8
0
100
AcDbLine
 62
7
  6
CONTINUOUS
 10
109.1803490341
 20
323.262086901
 11
109.5289468222
 21
323.6588890696
  0
LINE
  5
21C
100
AcDbEntity
  8
0
100
AcDbLine
 62
7
  6
CONTINUOUS
 10
115.1163330131
 20
338.4823946077
 11
114.5466988244
 21
337.9967507023
  0
LINE
  5
21D
100
AcDbEntity
  8
0
100
AcDbLine
 62
7
  6
CONTINUOUS
 10
115.4264541971
 20
337.4519440189
 11
115.9323080571
 21
337.7836085897
  0
LINE
  5
21E
100
AcDbEntity
  8
0
100
AcDbLine
 62
7
  6
CONTINUOUS
 10
176.307476499
 20
374.0460260323
 11
175.6408099913
 21
373.705600541
  0
LINE
  5
21F
100
AcDbEntity
  8
0
100
AcDbLine
 62
7
  6
CONTINUOUS
 10
116.0004793457
 20
338.8377633177
 11
115.1163330131
 21
338.4823946077
  0
LINE
  5
220
100
AcDbEntity
  8
B-ACHSEN
100
AcDbLine
 62
7
  6
CONTINUOUS
 10
160.6408099913
 20
161.216238778
 11
163.6408099913
 21
158.216238778
  0
LINE
  5
221
100
AcDbEntity
  8
0
100
AcDbLine
 62
7
  6
CONTINUOUS
 10
114.0705396489
 20
337.2919881022
 11
112.5398059195
 21
333.5964699722
  0
LINE
  5
222
100
AcDbEntity
  8
0
100
AcDbLine
 62
7
  6
CONTINUOUS
 10
112.0295614646
 20
332.3646308892
 11
111.6468780323
 21
331.4407513567
  0
LINE
  5
223
100
AcDbEntity
  8
0
100
AcDbLine
 62
7
  6
CONTINUOUS
 10
110.1161443028
 20
327.7452332266
 11
109.733460688
 21
326.8213532536
  0
LINE
  5
224
100
AcDbEntity
  8
0
100
AcDbLine
 62
7
  6
CONTINUOUS
 10
108.3302881634
 20
323.4337951145
 11
106.799554434
 21
319.7382769845
  0
LINE
  5
225
100
AcDbEntity
  8
0
100
AcDbLine
 62
7
  6
CONTINUOUS
 10
107.9685182258
 20
320.3364685283
 11
109.1803490341
 21
323.262086901
  0
LINE
  5
226
100
AcDbEntity
  8
0
100
AcDbLine
 62
7
  6
CONTINUOUS
 10
113.8660257832
 20
334.1295239182
 11
115.0140760803
 21
336.9011625157
  0
LINE
  5
227
100
AcDbEntity
  8
0
100
AcDbLine
 62
7
  6
CONTINUOUS
 10
111.5391905531
 20
322.2850227524
 11
110.3273597448
 21
319.3594043796
  0
LINE
  5
228
100
AcDbEntity
  8
0
100
AcDbLine
 62
7
  6
CONTINUOUS
 10
111.2708961761
 20
318.9685787932
 11
112.3551658707
 21
321.5862373952
  0
LINE
  5
229
100
AcDbEntity
  8
0
100
AcDbLine
 62
7
  6
CONTINUOUS
 10
120.5180393675
 20
334.6213462754
 11
119.3699890704
 21
331.8497076778
  0
LINE
  5
22A
100
AcDbEntity
  8
0
100
AcDbLine
 62
7
  6
CONTINUOUS
 10
117.4565719086
 20
327.2303100153
 11
117.2014494987
 21
326.6143900332
  0
LINE
  5
22B
100
AcDbEntity
  8
0
100
AcDbLine
 62
7
  6
CONTINUOUS
 10
114.1905906941
 20
316.6768095256
 11
114.5732741264
 21
317.6006890581
  0
LINE
  5
22C
100
AcDbEntity
  8
0
100
AcDbLine
 62
7
  6
CONTINUOUS
 10
116.1677883671
 20
321.4501869634
 11
116.6142524932
 21
322.5280467116
  0
LINE
  5
22D
100
AcDbEntity
  8
0
100
AcDbLine
 62
7
  6
CONTINUOUS
 10
118.1449860402
 20
326.2235644012
 11
118.4001084501
 21
326.8394843832
  0
LINE
  5
22E
100
AcDbEntity
  8
0
100
AcDbLine
 62
7
  6
CONTINUOUS
 10
119.9308421795
 20
330.5350025132
 11
121.461575909
 21
334.2305206433
  0
LINE
  5
22F
100
AcDbEntity
  8
0
100
AcDbLine
 62
7
  6
CONTINUOUS
 10
117.6688272159
 20
325.5188026879
 11
118.1449860402
 21
326.2235644012
  0
LINE
  5
230
100
AcDbEntity
  8
0
100
AcDbLine
 62
7
  6
CONTINUOUS
 10
117.2014494987
 20
326.6143900332
 11
116.7890713819
 21
326.06360853
  0
LINE
  5
231
100
AcDbEntity
  8
0
100
AcDbLine
 62
7
  6
CONTINUOUS
 10
117.0991926209
 20
325.0331579184
 11
117.6688272159
 21
325.5188026879
  0
LINE
  5
232
100
AcDbEntity
  8
0
100
AcDbLine
 62
7
  6
CONTINUOUS
 10
175.9741430067
 20
372.8545368126
 11
176.4741430067
 21
373.194962304
  0
LINE
  5
233
100
AcDbEntity
  8
0
100
AcDbLine
 62
7
  6
CONTINUOUS
 10
116.7890713819
 20
326.06360853
 11
116.2832174118
 21
325.7319440049
  0
LINE
  5
234
100
AcDbEntity
  8
0
100
AcDbLine
 62
7
  6
CONTINUOUS
 10
109.5333375996
 20
324.5590640223
 11
108.8064471565
 21
324.1385572741
  0
LINE
  5
235
100
AcDbEntity
  8
0
100
AcDbLine
 62
7
  6
CONTINUOUS
 10
111.5732761974
 20
322.8121001164
 11
111.5391905531
 21
322.2850227524
  0
LINE
  5
236
100
AcDbEntity
  8
0
100
AcDbLine
 62
7
  6
CONTINUOUS
 10
117.5544382466
 20
327.911367595
 11
117.4565719086
 21
327.2303100153
  0
LINE
  5
237
100
AcDbEntity
  8
0
100
AcDbLine
 62
7
  6
CONTINUOUS
 10
120.6159053406
 20
335.3024029741
 11
120.5180393675
 21
334.6213462754
  0
LINE
  5
238
100
AcDbEntity
  8
0
100
AcDbLine
 62
7
  6
CONTINUOUS
 10
118.4001084501
 20
326.8394843832
 11
118.5617551031
 21
327.6745213034
  0
LINE
  5
239
100
AcDbEntity
  8
0
100
AcDbLine
 62
7
  6
CONTINUOUS
 10
121.461575909
 20
334.2305206433
 11
121.623222927
 21
335.0655584445
  0
LINE
  5
23A
100
AcDbEntity
  8
0
100
AcDbLine
 62
7
  6
CONTINUOUS
 10
172.307476499
 20
374.216238778
 11
171.307476499
 21
373.0247495583
  0
LINE
  5
23B
100
AcDbEntity
  8
0
100
AcDbLine
 62
7
  6
CONTINUOUS
 10
171.307476499
 20
371.6630471161
 11
172.307476499
 21
372.8545368126
  0
LINE
  5
23C
100
AcDbEntity
  8
0
100
AcDbLine
 62
7
  6
CONTINUOUS
 10
175.6408099913
 20
373.705600541
 11
174.9741432451
 21
373.0247495583
  0
LINE
  5
23D
100
AcDbEntity
  8
0
100
AcDbLine
 62
7
  6
CONTINUOUS
 10
179.307476499
 20
371.3226216248
 11
174.6408097529
 21
367.0673026255
  0
LINE
  5
23E
100
AcDbEntity
  8
0
100
AcDbLine
 62
7
  6
CONTINUOUS
 10
175.9741430067
 20
367.0673026255
 11
180.1408095144
 21
370.8119833878
  0
LINE
  5
23F
100
AcDbEntity
  8
0
100
AcDbLine
 62
7
  6
CONTINUOUS
 10
109.5289468222
 20
323.6588890696
 11
109.971020171
 21
323.8365738651
  0
LINE
  5
240
100
AcDbEntity
  8
0
100
AcDbLine
 62
7
  6
CONTINUOUS
 10
116.2150462333
 20
324.6777892313
 11
117.0991926209
 21
325.0331579184
  0
LINE
  5
241
100
AcDbEntity
  8
B-ACHSEN
100
AcDbLine
 62
7
  6
CONTINUOUS
 10
196.6408099913
 20
200.216238778
 11
160.6408099913
 21
200.216238778
  0
LINE
  5
242
100
AcDbEntity
  8
RUNDUNGEN
100
AcDbLine
 62
7
  6
CONTINUOUS
 10
114.9079750823
 20
237.8045869441
 11
91.4697762451
 21
294.3894044543
  0
LINE
  5
243
100
AcDbEntity
  8
0
100
AcDbLine
 62
7
  6
CONTINUOUS
 10
112.4233372506
 20
322.6403923435
 11
112.3639473342
 21
323.3865870805
  0
LINE
  5
244
100
AcDbEntity
  8
0
100
AcDbLine
 62
7
  6
CONTINUOUS
 10
175.6408099913
 20
372.3438985756
 11
175.9741430067
 21
372.8545368126
  0
LINE
  5
245
100
AcDbEntity
  8
0
100
AcDbLine
 62
7
  6
CONTINUOUS
 10
206.4883943272
 20
220.716238778
 11
207.1351735531
 21
220.8651749434
  0
LINE
  5
246
100
AcDbEntity
  8
B-ACHSEN
100
AcDbLine
 62
7
  6
CONTINUOUS
 10
128.6408099913
 20
212.216238778
 11
228.6408099913
 21
212.216238778
  0
LINE
  5
247
100
AcDbEntity
  8
0
100
AcDbLine
 62
7
  6
CONTINUOUS
 10
152.41017224
 20
221.3119834399
 11
153.0569507258
 21
220.8651749434
  0
LINE
  5
248
100
AcDbEntity
  8
0
100
AcDbLine
 62
7
  6
CONTINUOUS
 10
118.5617551031
 20
327.6745213034
 11
118.5023653279
 21
328.420716498
  0
LINE
  5
249
100
AcDbEntity
  8
0
100
AcDbLine
 62
7
  6
CONTINUOUS
 10
121.623222927
 20
335.0655584445
 11
121.5638327868
 21
335.8117527581
  0
LINE
  5
24A
100
AcDbEntity
  8
B-ACHSEN
100
AcDbLine
 62
7
  6
CONTINUOUS
 10
128.6408099913
 20
212.216238778
 11
128.6408099913
 21
223.4561558701
  0
LINE
  5
24B
100
AcDbEntity
  8
0
100
AcDbLine
 62
7
  6
CONTINUOUS
 10
180.1408095144
 20
370.8119833878
 11
180.4741434836
 21
371.3226216248
  0
LINE
  5
24C
100
AcDbEntity
  8
0
100
AcDbLine
 62
7
  6
CONTINUOUS
 10
201.4435209536
 20
221.609855797
 11
200.7967417277
 21
221.4609196445
  0
LINE
  5
24D
100
AcDbEntity
  8
0
100
AcDbLine
 62
7
  6
CONTINUOUS
 10
201.3049963697
 20
221.609855797
 11
200.7897662182
 21
221.4912119178
  0
LINE
  5
24E
100
AcDbEntity
  8
0
100
AcDbLine
 62
7
  6
CONTINUOUS
 10
205.8416165815
 20
225.1843237689
 11
205.1948373556
 21
225.0353876165
  0
LINE
  5
24F
100
AcDbEntity
  8
0
100
AcDbLine
 62
7
  6
CONTINUOUS
 10
205.7030919976
 20
225.1843237689
 11
205.0563127716
 21
225.0353876165
  0
LINE
  5
250
100
AcDbEntity
  8
0
100
AcDbLine
 62
7
  6
CONTINUOUS
 10
205.8416165815
 20
227.716238778
 11
205.1948373556
 21
227.5673026255
  0
LINE
  5
251
100
AcDbEntity
  8
0
100
AcDbLine
 62
7
  6
CONTINUOUS
 10
205.7030919976
 20
227.716238778
 11
205.0563127716
 21
227.5673026255
  0
LINE
  5
252
100
AcDbEntity
  8
0
100
AcDbLine
 62
7
  6
CONTINUOUS
 10
199.5031847561
 20
226.8226218632
 11
200.1499632419
 21
226.9715580157
  0
LINE
  5
253
100
AcDbEntity
  8
0
100
AcDbLine
 62
7
  6
CONTINUOUS
 10
200.2793192351
 20
227.716238778
 11
199.3738287628
 21
227.5673026255
  0
LINE
  5
254
100
AcDbEntity
  8
0
100
AcDbLine
 62
7
  6
CONTINUOUS
 10
217.1728318006
 20
217.216238778
 11
182.6408099913
 21
217.216238778
  0
LINE
  5
255
100
AcDbEntity
  8
0
100
AcDbLine
 62
7
  6
CONTINUOUS
 10
174.6408099913
 20
217.216238778
 11
140.108788182
 21
217.216238778
  0
LINE
  5
256
100
AcDbEntity
  8
0
100
AcDbLine
 62
7
  6
CONTINUOUS
 10
144.1314042169
 20
220.716238778
 11
145.0460632799
 21
220.716238778
  0
LINE
  5
257
100
AcDbEntity
  8
0
100
AcDbLine
 62
7
  6
CONTINUOUS
 10
145.9423846063
 20
220.716238778
 11
146.8570436693
 21
220.716238778
  0
LINE
  5
258
100
AcDbEntity
  8
0
100
AcDbLine
 62
7
  6
CONTINUOUS
 10
149.9524128097
 20
220.716238778
 11
150.9964278659
 21
220.716238778
  0
LINE
  5
259
100
AcDbEntity
  8
0
100
AcDbLine
 62
7
  6
CONTINUOUS
 10
153.7037292116
 20
220.716238778
 11
154.7385756771
 21
220.716238778
  0
LINE
  5
25A
100
AcDbEntity
  8
0
100
AcDbLine
 62
7
  6
CONTINUOUS
 10
160.5595835296
 20
220.716238778
 11
165.3549149878
 21
220.716238778
  0
LINE
  5
25B
100
AcDbEntity
  8
0
100
AcDbLine
 62
7
  6
CONTINUOUS
 10
168.3209283199
 20
220.716238778
 11
169.2355888633
 21
220.716238778
  0
LINE
  5
25C
100
AcDbEntity
  8
0
100
AcDbLine
 62
7
  6
CONTINUOUS
 10
190.6978249095
 20
220.716238778
 11
191.6124839725
 21
220.716238778
  0
LINE
  5
25D
100
AcDbEntity
  8
0
100
AcDbLine
 62
7
  6
CONTINUOUS
 10
193.2849397779
 20
220.716238778
 11
194.4583102723
 21
220.716238778
  0
LINE
  5
25E
100
AcDbEntity
  8
0
100
AcDbLine
 62
7
  6
CONTINUOUS
 10
196.1307662627
 20
220.716238778
 11
197.0454253257
 21
220.716238778
  0
LINE
  5
25F
100
AcDbEntity
  8
0
100
AcDbLine
 62
7
  6
CONTINUOUS
 10
199.8912519956
 20
220.716238778
 11
200.9260977209
 21
220.716238778
  0
LINE
  5
260
100
AcDbEntity
  8
0
100
AcDbLine
 62
7
  6
CONTINUOUS
 10
205.8416165815
 20
220.716238778
 11
206.4883943272
 21
220.716238778
  0
LINE
  5
261
100
AcDbEntity
  8
0
100
AcDbLine
 62
7
  6
CONTINUOUS
 10
155.5238787469
 20
220.8651749434
 11
155.3853541629
 21
220.8651749434
  0
LINE
  5
262
100
AcDbEntity
  8
0
100
AcDbLine
 62
7
  6
CONTINUOUS
 10
199.2353041789
 20
220.8651749434
 11
199.3738287628
 21
220.8651749434
  0
LINE
  5
263
100
AcDbEntity
  8
0
100
AcDbLine
 62
7
  6
CONTINUOUS
 10
205.0563127716
 20
220.8651749434
 11
205.1948373556
 21
220.8651749434
  0
LINE
  5
264
100
AcDbEntity
  8
0
100
AcDbLine
 62
7
  6
CONTINUOUS
 10
156.0413019796
 20
221.1630472875
 11
155.9027773956
 21
221.1630472875
  0
LINE
  5
265
100
AcDbEntity
  8
0
100
AcDbLine
 62
7
  6
CONTINUOUS
 10
198.7178809461
 20
221.1630472875
 11
198.8564055301
 21
221.1630472875
  0
LINE
  5
266
100
AcDbEntity
  8
0
100
AcDbLine
 62
7
  6
CONTINUOUS
 10
204.4095335456
 20
221.3119834399
 11
204.5480581296
 21
221.3119834399
  0
LINE
  5
267
100
AcDbEntity
  8
0
100
AcDbLine
 62
7
  6
CONTINUOUS
 10
206.6177510606
 20
221.4609196445
 11
205.7122598481
 21
221.4609196445
  0
LINE
  5
268
100
AcDbEntity
  8
0
100
AcDbLine
 62
7
  6
CONTINUOUS
 10
200.7967417277
 20
221.4609196445
 11
200.0206072486
 21
221.4609196445
  0
LINE
  5
269
100
AcDbEntity
  8
0
100
AcDbLine
 62
7
  6
CONTINUOUS
 10
198.3298137066
 20
221.4609196445
 11
198.4683382906
 21
221.4609196445
  0
LINE
  5
26A
100
AcDbEntity
  8
0
100
AcDbLine
 62
7
  6
CONTINUOUS
 10
165.3549149878
 20
221.609855797
 11
161.3357180087
 21
221.609855797
  0
LINE
  5
26B
100
AcDbEntity
  8
0
100
AcDbLine
 62
7
  6
CONTINUOUS
 10
154.7385756771
 20
221.609855797
 11
153.7037292116
 21
221.609855797
  0
LINE
  5
26C
100
AcDbEntity
  8
0
100
AcDbLine
 62
7
  6
CONTINUOUS
 10
201.3049963697
 20
221.609855797
 11
201.4435209536
 21
221.609855797
  0
LINE
  5
26D
100
AcDbEntity
  8
0
100
AcDbLine
 62
7
  6
CONTINUOUS
 10
156.5587244722
 20
221.7587919495
 11
156.4201998882
 21
221.7587919495
  0
LINE
  5
26E
100
AcDbEntity
  8
0
100
AcDbLine
 62
7
  6
CONTINUOUS
 10
153.324831303
 20
221.7587919495
 11
153.186306719
 21
221.7587919495
  0
LINE
  5
26F
100
AcDbEntity
  8
0
100
AcDbLine
 62
7
  6
CONTINUOUS
 10
201.563707616
 20
221.7587919495
 11
201.7022321999
 21
221.7587919495
  0
LINE
  5
270
100
AcDbEntity
  8
0
100
AcDbLine
 62
7
  6
CONTINUOUS
 10
198.0711024603
 20
221.9077281019
 11
198.2096270443
 21
221.9077281019
  0
LINE
  5
271
100
AcDbEntity
  8
0
100
AcDbLine
 62
7
  6
CONTINUOUS
 10
204.0214663061
 20
221.9077281019
 11
204.1599908901
 21
221.9077281019
  0
LINE
  5
272
100
AcDbEntity
  8
0
100
AcDbLine
 62
7
  6
CONTINUOUS
 10
207.2553609556
 20
221.9077281019
 11
207.3938855396
 21
221.9077281019
  0
LINE
  5
273
100
AcDbEntity
  8
0
100
AcDbLine
 62
7
  6
CONTINUOUS
 10
201.8224188622
 20
222.0566643587
 11
201.9609434462
 21
222.0566643587
  0
LINE
  5
274
100
AcDbEntity
  8
0
100
AcDbLine
 62
7
  6
CONTINUOUS
 10
152.9367640635
 20
222.2056005111
 11
152.7982394795
 21
222.2056005111
  0
LINE
  5
275
100
AcDbEntity
  8
0
100
AcDbLine
 62
7
  6
CONTINUOUS
 10
156.8174357185
 20
222.3545366636
 11
156.6789111345
 21
222.3545366636
  0
LINE
  5
276
100
AcDbEntity
  8
0
100
AcDbLine
 62
7
  6
CONTINUOUS
 10
197.9417464671
 20
222.3545366636
 11
198.727050277
 21
222.3545366636
  0
LINE
  5
277
100
AcDbEntity
  8
0
100
AcDbLine
 62
7
  6
CONTINUOUS
 10
201.9517748555
 20
222.3545366636
 11
202.0902994394
 21
222.3545366636
  0
LINE
  5
278
100
AcDbEntity
  8
0
100
AcDbLine
 62
7
  6
CONTINUOUS
 10
207.5140714617
 20
222.3545366636
 11
207.6525960457
 21
222.3545366636
  0
LINE
  5
279
100
AcDbEntity
  8
0
100
AcDbLine
 62
7
  6
CONTINUOUS
 10
152.8074080702
 20
222.6524089685
 11
151.8927490072
 21
222.6524089685
  0
LINE
  5
27A
100
AcDbEntity
  8
0
100
AcDbLine
 62
7
  6
CONTINUOUS
 10
203.7627558
 20
222.6524089685
 11
203.901280384
 21
222.6524089685
  0
LINE
  5
27B
100
AcDbEntity
  8
0
100
AcDbLine
 62
7
  6
CONTINUOUS
 10
207.6434281952
 20
222.801345121
 11
207.7819527791
 21
222.801345121
  0
LINE
  5
27C
100
AcDbEntity
  8
0
100
AcDbLine
 62
7
  6
CONTINUOUS
 10
201.9517748555
 20
222.9502812734
 11
202.0902994394
 21
222.9502812734
  0
LINE
  5
27D
100
AcDbEntity
  8
0
100
AcDbLine
 62
7
  6
CONTINUOUS
 10
156.8174357185
 20
223.0992174259
 11
156.6789111345
 21
223.0992174259
  0
LINE
  5
27E
100
AcDbEntity
  8
0
100
AcDbLine
 62
7
  6
CONTINUOUS
 10
157.7137576
 20
223.2481535784
 11
159.6632631285
 21
223.2481535784
  0
LINE
  5
27F
100
AcDbEntity
  8
0
100
AcDbLine
 62
7
  6
CONTINUOUS
 10
207.6434281952
 20
223.2481535784
 11
207.7819527791
 21
223.2481535784
  0
LINE
  5
280
100
AcDbEntity
  8
0
100
AcDbLine
 62
7
  6
CONTINUOUS
 10
201.6930636092
 20
223.5460260919
 11
201.8315881932
 21
223.5460260919
  0
LINE
  5
281
100
AcDbEntity
  8
0
100
AcDbLine
 62
7
  6
CONTINUOUS
 10
156.5587244722
 20
223.6949622443
 11
156.4201998882
 21
223.6949622443
  0
LINE
  5
282
100
AcDbEntity
  8
0
100
AcDbLine
 62
7
  6
CONTINUOUS
 10
203.6333990666
 20
223.6949622443
 11
203.7719236506
 21
223.6949622443
  0
LINE
  5
283
100
AcDbEntity
  8
0
100
AcDbLine
 62
7
  6
CONTINUOUS
 10
207.5140714617
 20
223.6949622443
 11
207.6525960457
 21
223.6949622443
  0
LINE
  5
284
100
AcDbEntity
  8
0
100
AcDbLine
 62
7
  6
CONTINUOUS
 10
146.7185190854
 20
223.8438983968
 11
148.9175667143
 21
223.8438983968
  0
LINE
  5
285
100
AcDbEntity
  8
0
100
AcDbLine
 62
7
  6
CONTINUOUS
 10
153.9624411981
 20
223.8438983968
 11
154.7385756771
 21
223.8438983968
  0
LINE
  5
286
100
AcDbEntity
  8
0
100
AcDbLine
 62
7
  6
CONTINUOUS
 10
201.3049963697
 20
223.8438983968
 11
201.4435209536
 21
223.8438983968
  0
LINE
  5
287
100
AcDbEntity
  8
0
100
AcDbLine
 62
7
  6
CONTINUOUS
 10
159.6632631285
 20
223.9928345493
 11
157.7137576
 21
223.9928345493
  0
LINE
  5
288
100
AcDbEntity
  8
0
100
AcDbLine
 62
7
  6
CONTINUOUS
 10
200.0114386579
 20
223.9928345493
 11
200.6673864746
 21
223.9928345493
  0
LINE
  5
289
100
AcDbEntity
  8
0
100
AcDbLine
 62
7
  6
CONTINUOUS
 10
207.2553609556
 20
223.9928345493
 11
207.3938855396
 21
223.9928345493
  0
LINE
  5
28A
100
AcDbEntity
  8
0
100
AcDbLine
 62
7
  6
CONTINUOUS
 10
149.8322257773
 20
224.1417707017
 11
149.6937011933
 21
224.1417707017
  0
LINE
  5
28B
100
AcDbEntity
  8
0
100
AcDbLine
 62
7
  6
CONTINUOUS
 10
156.0413019796
 20
224.2907068542
 11
155.9027773956
 21
224.2907068542
  0
LINE
  5
28C
100
AcDbEntity
  8
0
100
AcDbLine
 62
7
  6
CONTINUOUS
 10
150.34964901
 20
224.4396430066
 11
150.211124426
 21
224.4396430066
  0
LINE
  5
28D
100
AcDbEntity
  8
0
100
AcDbLine
 62
7
  6
CONTINUOUS
 10
205.7122598481
 20
224.4396430066
 11
206.6177510606
 21
224.4396430066
  0
LINE
  5
28E
100
AcDbEntity
  8
0
100
AcDbLine
 62
7
  6
CONTINUOUS
 10
155.5238787469
 20
224.5885791591
 11
155.3853541629
 21
224.5885791591
  0
LINE
  5
28F
100
AcDbEntity
  8
0
100
AcDbLine
 62
7
  6
CONTINUOUS
 10
200.0114386579
 20
224.5885791591
 11
200.6673864746
 21
224.5885791591
  0
LINE
  5
290
100
AcDbEntity
  8
0
100
AcDbLine
 62
7
  6
CONTINUOUS
 10
154.7385756771
 20
224.7375153116
 11
153.9624411981
 21
224.7375153116
  0
LINE
  5
291
100
AcDbEntity
  8
0
100
AcDbLine
 62
7
  6
CONTINUOUS
 10
149.1762783306
 20
224.7375153116
 11
146.7185190854
 21
224.7375153116
  0
LINE
  5
292
100
AcDbEntity
  8
0
100
AcDbLine
 62
7
  6
CONTINUOUS
 10
203.6333990666
 20
224.7375153116
 11
203.7719236506
 21
224.7375153116
  0
LINE
  5
293
100
AcDbEntity
  8
0
100
AcDbLine
 62
7
  6
CONTINUOUS
 10
201.3049963697
 20
224.886451464
 11
201.4435209536
 21
224.886451464
  0
LINE
  5
294
100
AcDbEntity
  8
0
100
AcDbLine
 62
7
  6
CONTINUOUS
 10
150.7377158794
 20
225.0353876165
 11
150.5991912955
 21
225.0353876165
  0
LINE
  5
295
100
AcDbEntity
  8
0
100
AcDbLine
 62
7
  6
CONTINUOUS
 10
205.0563127716
 20
225.0353876165
 11
205.1948373556
 21
225.0353876165
  0
LINE
  5
296
100
AcDbEntity
  8
0
100
AcDbLine
 62
7
  6
CONTINUOUS
 10
206.4883943272
 20
225.1843237689
 11
205.8416165815
 21
225.1843237689
  0
LINE
  5
297
100
AcDbEntity
  8
0
100
AcDbLine
 62
7
  6
CONTINUOUS
 10
153.324831303
 20
225.1843237689
 11
153.186306719
 21
225.1843237689
  0
LINE
  5
298
100
AcDbEntity
  8
0
100
AcDbLine
 62
7
  6
CONTINUOUS
 10
201.563707616
 20
225.1843237689
 11
201.7022321999
 21
225.1843237689
  0
LINE
  5
299
100
AcDbEntity
  8
0
100
AcDbLine
 62
7
  6
CONTINUOUS
 10
150.8670718727
 20
225.4821960738
 11
150.7285472887
 21
225.4821960738
  0
LINE
  5
29A
100
AcDbEntity
  8
0
100
AcDbLine
 62
7
  6
CONTINUOUS
 10
153.0569507258
 20
220.8651749434
 11
153.7037292116
 21
220.716238778
  0
LINE
  5
29B
100
AcDbEntity
  8
0
100
AcDbLine
 62
7
  6
CONTINUOUS
 10
155.3853541629
 20
224.5885791591
 11
154.7385756771
 21
224.7375153116
  0
LINE
  5
29C
100
AcDbEntity
  8
0
100
AcDbLine
 62
7
  6
CONTINUOUS
 10
155.5238787469
 20
224.5885791591
 11
154.8771002611
 21
224.7375153116
  0
LINE
  5
29D
100
AcDbEntity
  8
0
100
AcDbLine
 62
7
  6
CONTINUOUS
 10
149.6937011933
 20
227.5673026255
 11
149.0469227075
 21
227.716238778
  0
LINE
  5
29E
100
AcDbEntity
  8
0
100
AcDbLine
 62
7
  6
CONTINUOUS
 10
149.8322257773
 20
227.5673026255
 11
149.1854472915
 21
227.716238778
  0
LINE
  5
29F
100
AcDbEntity
  8
0
100
AcDbLine
 62
7
  6
CONTINUOUS
 10
155.2559981697
 20
227.5673026255
 11
154.6092196839
 21
227.716238778
  0
LINE
  5
2A0
100
AcDbEntity
  8
0
100
AcDbLine
 62
7
  6
CONTINUOUS
 10
155.3945227536
 20
227.5673026255
 11
154.7477442678
 21
227.716238778
  0
LINE
  5
2A1
100
AcDbEntity
  8
0
100
AcDbLine
 62
7
  6
CONTINUOUS
 10
153.7037292116
 20
221.609855797
 11
153.186306719
 21
221.7587919495
  0
LINE
  5
2A2
100
AcDbEntity
  8
0
100
AcDbLine
 62
7
  6
CONTINUOUS
 10
153.7143282605
 20
221.6466781951
 11
153.324831303
 21
221.7587919495
  0
LINE
  5
2A3
100
AcDbEntity
  8
0
100
AcDbLine
 62
7
  6
CONTINUOUS
 10
153.4450179653
 20
223.9928345493
 11
153.9624411981
 21
223.8438983968
  0
LINE
  5
2A4
100
AcDbEntity
  8
0
100
AcDbLine
 62
7
  6
CONTINUOUS
 10
154.7385756771
 20
223.8438983968
 11
155.2559981697
 21
223.6949622443
  0
LINE
  5
2A5
100
AcDbEntity
  8
0
100
AcDbLine
 62
7
  6
CONTINUOUS
 10
153.9624411981
 20
224.7375153116
 11
153.5743739585
 21
224.886451464
  0
LINE
  5
2A6
100
AcDbEntity
  8
0
100
AcDbLine
 62
7
  6
CONTINUOUS
 10
154.100965782
 20
224.7375153116
 11
153.7128985425
 21
224.886451464
  0
LINE
  5
2A7
100
AcDbEntity
  8
0
100
AcDbLine
 62
7
  6
CONTINUOUS
 10
149.1762783306
 20
226.9715580157
 11
149.5643455702
 21
226.8226218632
  0
LINE
  5
2A8
100
AcDbEntity
  8
0
100
AcDbLine
 62
7
  6
CONTINUOUS
 10
154.7385756771
 20
226.8226218632
 11
155.1266429166
 21
226.6736857107
  0
LINE
  5
2A9
100
AcDbEntity
  8
0
100
AcDbLine
 62
7
  6
CONTINUOUS
 10
152.9275947326
 20
224.2907068542
 11
153.4450179653
 21
223.9928345493
  0
LINE
  5
2AA
100
AcDbEntity
  8
0
100
AcDbLine
 62
7
  6
CONTINUOUS
 10
155.9027773956
 20
224.2907068542
 11
155.3853541629
 21
224.5885791591
  0
LINE
  5
2AB
100
AcDbEntity
  8
0
100
AcDbLine
 62
7
  6
CONTINUOUS
 10
156.0413019796
 20
224.2907068542
 11
155.5238787469
 21
224.5885791591
  0
LINE
  5
2AC
100
AcDbEntity
  8
0
100
AcDbLine
 62
7
  6
CONTINUOUS
 10
153.5743739585
 20
224.886451464
 11
153.186306719
 21
225.1843237689
  0
LINE
  5
2AD
100
AcDbEntity
  8
0
100
AcDbLine
 62
7
  6
CONTINUOUS
 10
155.2559981697
 20
223.6949622443
 11
155.6440654092
 21
223.3970899394
  0
LINE
  5
2AE
100
AcDbEntity
  8
0
100
AcDbLine
 62
7
  6
CONTINUOUS
 10
153.7128985425
 20
224.886451464
 11
153.324831303
 21
225.1843237689
  0
LINE
  5
2AF
100
AcDbEntity
  8
0
100
AcDbLine
 62
7
  6
CONTINUOUS
 10
150.211124426
 20
227.1204941681
 11
149.6937011933
 21
227.5673026255
  0
LINE
  5
2B0
100
AcDbEntity
  8
0
100
AcDbLine
 62
7
  6
CONTINUOUS
 10
150.34964901
 20
227.1204941681
 11
149.8322257773
 21
227.5673026255
  0
LINE
  5
2B1
100
AcDbEntity
  8
0
100
AcDbLine
 62
7
  6
CONTINUOUS
 10
155.7734214024
 20
227.1204941681
 11
155.2559981697
 21
227.5673026255
  0
LINE
  5
2B2
100
AcDbEntity
  8
0
100
AcDbLine
 62
7
  6
CONTINUOUS
 10
155.9119459864
 20
227.1204941681
 11
155.3945227536
 21
227.5673026255
  0
LINE
  5
2B3
100
AcDbEntity
  8
0
100
AcDbLine
 62
7
  6
CONTINUOUS
 10
153.186306719
 20
221.7587919495
 11
152.7982394795
 21
222.2056005111
  0
LINE
  5
2B4
100
AcDbEntity
  8
0
100
AcDbLine
 62
7
  6
CONTINUOUS
 10
153.324831303
 20
221.7587919495
 11
152.9367640635
 21
222.2056005111
  0
LINE
  5
2B5
100
AcDbEntity
  8
0
100
AcDbLine
 62
7
  6
CONTINUOUS
 10
149.5643455702
 20
226.8226218632
 11
149.8230571865
 21
226.5247495583
  0
LINE
  5
2B6
100
AcDbEntity
  8
0
100
AcDbLine
 62
7
  6
CONTINUOUS
 10
152.41017224
 20
224.886451464
 11
152.9275947326
 21
224.2907068542
  0
LINE
  5
2B7
100
AcDbEntity
  8
0
100
AcDbLine
 62
7
  6
CONTINUOUS
 10
156.4201998882
 20
223.6949622443
 11
155.9027773956
 21
224.2907068542
  0
LINE
  5
2B8
100
AcDbEntity
  8
0
100
AcDbLine
 62
7
  6
CONTINUOUS
 10
156.5587244722
 20
223.6949622443
 11
156.0413019796
 21
224.2907068542
  0
LINE
  5
2B9
100
AcDbEntity
  8
0
100
AcDbLine
 62
7
  6
CONTINUOUS
 10
155.1266429166
 20
226.6736857107
 11
155.3853541629
 21
226.3758134058
  0
LINE
  5
2BA
100
AcDbEntity
  8
0
100
AcDbLine
 62
7
  6
CONTINUOUS
 10
150.5991912955
 20
226.5247495583
 11
150.211124426
 21
227.1204941681
  0
LINE
  5
2BB
100
AcDbEntity
  8
0
100
AcDbLine
 62
7
  6
CONTINUOUS
 10
150.7377158794
 20
226.5247495583
 11
150.34964901
 21
227.1204941681
  0
LINE
  5
2BC
100
AcDbEntity
  8
0
100
AcDbLine
 62
7
  6
CONTINUOUS
 10
152.0221050005
 20
222.0566643587
 11
152.41017224
 21
221.3119834399
  0
LINE
  5
2BD
100
AcDbEntity
  8
0
100
AcDbLine
 62
7
  6
CONTINUOUS
 10
117.4312677089
 20
328.5035826024
 11
117.5544382466
 21
327.911367595
  0
LINE
  5
2BE
100
AcDbEntity
  8
0
100
AcDbLine
 62
7
  6
CONTINUOUS
 10
140.108788226
 20
217.216238778
 11
140.108788226
 21
232.216238778
  0
LINE
  5
2BF
100
AcDbEntity
  8
0
100
AcDbLine
 62
7
  6
CONTINUOUS
 10
179.6408095144
 20
372.0034726074
 11
179.307476499
 21
371.3226216248
  0
LINE
  5
2C0
100
AcDbEntity
  8
0
100
AcDbLine
 62
7
  6
CONTINUOUS
 10
154.8771002611
 20
220.716238778
 11
155.5238787469
 21
220.8651749434
  0
LINE
  5
2C1
100
AcDbEntity
  8
0
100
AcDbLine
 62
7
  6
CONTINUOUS
 10
154.7385756771
 20
220.716238778
 11
155.3853541629
 21
220.8651749434
  0
LINE
  5
2C2
100
AcDbEntity
  8
0
100
AcDbLine
 62
7
  6
CONTINUOUS
 10
153.1954753098
 20
225.6311322263
 11
153.0569507258
 21
225.6311322263
  0
LINE
  5
2C3
100
AcDbEntity
  8
0
100
AcDbLine
 62
7
  6
CONTINUOUS
 10
201.8224188622
 20
225.7800683788
 11
201.9609434462
 21
225.7800683788
  0
LINE
  5
2C4
100
AcDbEntity
  8
0
100
AcDbLine
 62
7
  6
CONTINUOUS
 10
203.7627558
 20
225.7800683788
 11
203.901280384
 21
225.7800683788
  0
LINE
  5
2C5
100
AcDbEntity
  8
0
100
AcDbLine
 62
7
  6
CONTINUOUS
 10
153.1954753098
 20
225.9290045312
 11
153.0569507258
 21
225.9290045312
  0
LINE
  5
2C6
100
AcDbEntity
  8
0
100
AcDbLine
 62
7
  6
CONTINUOUS
 10
150.8670718727
 20
226.0779411009
 11
150.7285472887
 21
226.0779411009
  0
LINE
  5
2C7
100
AcDbEntity
  8
0
100
AcDbLine
 62
7
  6
CONTINUOUS
 10
155.5147101561
 20
226.0779411009
 11
156.4293692191
 21
226.0779411009
  0
LINE
  5
2C8
100
AcDbEntity
  8
0
100
AcDbLine
 62
7
  6
CONTINUOUS
 10
198.0711024603
 20
226.0779411009
 11
198.8564055301
 21
226.0779411009
  0
LINE
  5
2C9
100
AcDbEntity
  8
0
100
AcDbLine
 62
7
  6
CONTINUOUS
 10
201.8224188622
 20
226.0779411009
 11
201.9609434462
 21
226.0779411009
  0
LINE
  5
2CA
100
AcDbEntity
  8
0
100
AcDbLine
 62
7
  6
CONTINUOUS
 10
207.3847162087
 20
226.0779411009
 11
208.1700200186
 21
226.0779411009
  0
LINE
  5
2CB
100
AcDbEntity
  8
0
100
AcDbLine
 62
7
  6
CONTINUOUS
 10
153.324831303
 20
226.3758134058
 11
153.186306719
 21
226.3758134058
  0
LINE
  5
2CC
100
AcDbEntity
  8
0
100
AcDbLine
 62
7
  6
CONTINUOUS
 10
156.3000132259
 20
226.5247495583
 11
156.1614886419
 21
226.5247495583
  0
LINE
  5
2CD
100
AcDbEntity
  8
0
100
AcDbLine
 62
7
  6
CONTINUOUS
 10
150.7377158794
 20
226.5247495583
 11
150.5991912955
 21
226.5247495583
  0
LINE
  5
2CE
100
AcDbEntity
  8
0
100
AcDbLine
 62
7
  6
CONTINUOUS
 10
201.563707616
 20
226.5247495583
 11
201.7022321999
 21
226.5247495583
  0
LINE
  5
2CF
100
AcDbEntity
  8
0
100
AcDbLine
 62
7
  6
CONTINUOUS
 10
204.0214663061
 20
226.5247495583
 11
204.1599908901
 21
226.5247495583
  0
LINE
  5
2D0
100
AcDbEntity
  8
0
100
AcDbLine
 62
7
  6
CONTINUOUS
 10
207.1260042222
 20
226.5247495583
 11
207.2645288062
 21
226.5247495583
  0
LINE
  5
2D1
100
AcDbEntity
  8
0
100
AcDbLine
 62
7
  6
CONTINUOUS
 10
198.2004584535
 20
226.6736857107
 11
198.3389830375
 21
226.6736857107
  0
LINE
  5
2D2
100
AcDbEntity
  8
0
100
AcDbLine
 62
7
  6
CONTINUOUS
 10
153.9624411981
 20
226.8226218632
 11
154.7385756771
 21
226.8226218632
  0
LINE
  5
2D3
100
AcDbEntity
  8
0
100
AcDbLine
 62
7
  6
CONTINUOUS
 10
201.1756403764
 20
226.8226218632
 11
201.3141649604
 21
226.8226218632
  0
LINE
  5
2D4
100
AcDbEntity
  8
0
100
AcDbLine
 62
7
  6
CONTINUOUS
 10
146.7185190854
 20
226.9715580157
 11
149.1762783306
 21
226.9715580157
  0
LINE
  5
2D5
100
AcDbEntity
  8
0
100
AcDbLine
 62
7
  6
CONTINUOUS
 10
166.2512368693
 20
226.9715580157
 11
168.3209283199
 21
226.9715580157
  0
LINE
  5
2D6
100
AcDbEntity
  8
0
100
AcDbLine
 62
7
  6
CONTINUOUS
 10
169.0970642793
 20
226.9715580157
 11
171.3052788336
 21
226.9715580157
  0
LINE
  5
2D7
100
AcDbEntity
  8
0
100
AcDbLine
 62
7
  6
CONTINUOUS
 10
200.1499632419
 20
226.9715580157
 11
200.6673864746
 21
226.9715580157
  0
LINE
  5
2D8
100
AcDbEntity
  8
0
100
AcDbLine
 62
7
  6
CONTINUOUS
 10
205.7122598481
 20
226.9715580157
 11
206.4883943272
 21
226.9715580157
  0
LINE
  5
2D9
100
AcDbEntity
  8
0
100
AcDbLine
 62
7
  6
CONTINUOUS
 10
155.9119459864
 20
227.1204941681
 11
155.7734214024
 21
227.1204941681
  0
LINE
  5
2DA
100
AcDbEntity
  8
0
100
AcDbLine
 62
7
  6
CONTINUOUS
 10
150.34964901
 20
227.1204941681
 11
150.211124426
 21
227.1204941681
  0
LINE
  5
2DB
100
AcDbEntity
  8
0
100
AcDbLine
 62
7
  6
CONTINUOUS
 10
204.4095335456
 20
227.1204941681
 11
204.5480581296
 21
227.1204941681
  0
LINE
  5
2DC
100
AcDbEntity
  8
0
100
AcDbLine
 62
7
  6
CONTINUOUS
 10
198.7178809461
 20
227.2694303206
 11
198.8564055301
 21
227.2694303206
  0
LINE
  5
2DD
100
AcDbEntity
  8
0
100
AcDbLine
 62
7
  6
CONTINUOUS
 10
155.3945227536
 20
227.5673026255
 11
155.2559981697
 21
227.5673026255
  0
LINE
  5
2DE
100
AcDbEntity
  8
0
100
AcDbLine
 62
7
  6
CONTINUOUS
 10
149.8322257773
 20
227.5673026255
 11
149.6937011933
 21
227.5673026255
  0
LINE
  5
2DF
100
AcDbEntity
  8
0
100
AcDbLine
 62
7
  6
CONTINUOUS
 10
199.2353041789
 20
227.5673026255
 11
199.3738287628
 21
227.5673026255
  0
LINE
  5
2E0
100
AcDbEntity
  8
0
100
AcDbLine
 62
7
  6
CONTINUOUS
 10
205.0563127716
 20
227.5673026255
 11
205.1948373556
 21
227.5673026255
  0
LINE
  5
2E1
100
AcDbEntity
  8
0
100
AcDbLine
 62
7
  6
CONTINUOUS
 10
206.3590390741
 20
227.716238778
 11
205.8416165815
 21
227.716238778
  0
LINE
  5
2E2
100
AcDbEntity
  8
0
100
AcDbLine
 62
7
  6
CONTINUOUS
 10
200.5380304814
 20
227.716238778
 11
200.2793192351
 21
227.716238778
  0
LINE
  5
2E3
100
AcDbEntity
  8
0
100
AcDbLine
 62
7
  6
CONTINUOUS
 10
171.3052788336
 20
227.716238778
 11
166.2512368693
 21
227.716238778
  0
LINE
  5
2E4
100
AcDbEntity
  8
0
100
AcDbLine
 62
7
  6
CONTINUOUS
 10
161.4742425926
 20
227.716238778
 11
160.5595835296
 21
227.716238778
  0
LINE
  5
2E5
100
AcDbEntity
  8
0
100
AcDbLine
 62
7
  6
CONTINUOUS
 10
154.6092196839
 20
227.716238778
 11
153.9624411981
 21
227.716238778
  0
LINE
  5
2E6
100
AcDbEntity
  8
0
100
AcDbLine
 62
7
  6
CONTINUOUS
 10
149.0469227075
 20
227.716238778
 11
145.9423846063
 21
227.716238778
  0
LINE
  5
2E7
100
AcDbEntity
  8
0
100
AcDbLine
 62
7
  6
CONTINUOUS
 10
145.0460632799
 20
227.716238778
 11
144.1314042169
 21
227.716238778
  0
LINE
  5
2E8
100
AcDbEntity
  8
0
100
AcDbLine
 62
7
  6
CONTINUOUS
 10
190.6978249095
 20
227.716238778
 11
192.000551212
 21
227.716238778
  0
LINE
  5
2E9
100
AcDbEntity
  8
0
100
AcDbLine
 62
7
  6
CONTINUOUS
 10
195.7426990232
 20
227.716238778
 11
197.0454253257
 21
227.716238778
  0
LINE
  5
2EA
100
AcDbEntity
  8
0
100
AcDbLine
 62
7
  6
CONTINUOUS
 10
140.108788182
 20
232.216238778
 11
174.6408099913
 21
232.216238778
  0
LINE
  5
2EB
100
AcDbEntity
  8
0
100
AcDbLine
 62
7
  6
CONTINUOUS
 10
182.6408099913
 20
232.216238778
 11
217.1728318006
 21
232.216238778
  0
LINE
  5
2EC
100
AcDbEntity
  8
0
100
AcDbLine
 62
7
  6
CONTINUOUS
 10
201.4435209536
 20
227.5673026255
 11
200.5380304814
 21
227.716238778
  0
LINE
  5
2ED
100
AcDbEntity
  8
0
100
AcDbLine
 62
7
  6
CONTINUOUS
 10
200.6673864746
 20
223.9928345493
 11
201.4435209536
 21
223.8438983968
  0
LINE
  5
2EE
100
AcDbEntity
  8
0
100
AcDbLine
 62
7
  6
CONTINUOUS
 10
200.0206072486
 20
221.4609196445
 11
199.3738287628
 21
221.609855797
  0
LINE
  5
2EF
100
AcDbEntity
  8
0
100
AcDbLine
 62
7
  6
CONTINUOUS
 10
205.0563127716
 20
220.8651749434
 11
205.7030919976
 21
220.716238778
  0
LINE
  5
2F0
100
AcDbEntity
  8
0
100
AcDbLine
 62
7
  6
CONTINUOUS
 10
205.1948373556
 20
220.8651749434
 11
205.8416165815
 21
220.716238778
  0
LINE
  5
2F1
100
AcDbEntity
  8
0
100
AcDbLine
 62
7
  6
CONTINUOUS
 10
207.1351735531
 20
225.0353876165
 11
206.4883943272
 21
225.1843237689
  0
LINE
  5
2F2
100
AcDbEntity
  8
0
100
AcDbLine
 62
7
  6
CONTINUOUS
 10
200.66041095
 20
226.9412657113
 11
201.1756403764
 21
226.8226218632
  0
LINE
  5
2F3
100
AcDbEntity
  8
0
100
AcDbLine
 62
7
  6
CONTINUOUS
 10
200.6673864746
 20
226.9715580157
 11
201.3141649604
 21
226.8226218632
  0
LINE
  5
2F4
100
AcDbEntity
  8
0
100
AcDbLine
 62
7
  6
CONTINUOUS
 10
207.0058183001
 20
227.5673026255
 11
206.3590390741
 21
227.716238778
  0
LINE
  5
2F5
100
AcDbEntity
  8
0
100
AcDbLine
 62
7
  6
CONTINUOUS
 10
199.2353041789
 20
220.8651749434
 11
199.7527274116
 21
220.716238778
  0
LINE
  5
2F6
100
AcDbEntity
  8
0
100
AcDbLine
 62
7
  6
CONTINUOUS
 10
199.3738287628
 20
220.8651749434
 11
199.8912519956
 21
220.716238778
  0
LINE
  5
2F7
100
AcDbEntity
  8
0
100
AcDbLine
 62
7
  6
CONTINUOUS
 10
205.7122598481
 20
221.4609196445
 11
205.3241926086
 21
221.609855797
  0
LINE
  5
2F8
100
AcDbEntity
  8
B-ACHSEN
100
AcDbLine
 62
7
  6
CONTINUOUS
 10
194.3765964289
 20
202.4804523403
 11
196.6408099913
 21
200.216238778
  0
LINE
  5
2F9
100
AcDbEntity
  8
0
100
AcDbLine
 62
7
  6
CONTINUOUS
 10
156.1614886419
 20
226.5247495583
 11
155.7734214024
 21
227.1204941681
  0
LINE
  5
2FA
100
AcDbEntity
  8
0
100
AcDbLine
 62
7
  6
CONTINUOUS
 10
156.3000132259
 20
226.5247495583
 11
155.9119459864
 21
227.1204941681
  0
LINE
  5
2FB
100
AcDbEntity
  8
0
100
AcDbLine
 62
7
  6
CONTINUOUS
 10
155.6440654092
 20
223.3970899394
 11
155.9027773956
 21
222.9502812734
  0
LINE
  5
2FC
100
AcDbEntity
  8
0
100
AcDbLine
 62
7
  6
CONTINUOUS
 10
156.6789111345
 20
223.0992174259
 11
156.4201998882
 21
223.6949622443
  0
LINE
  5
2FD
100
AcDbEntity
  8
0
100
AcDbLine
 62
7
  6
CONTINUOUS
 10
155.3853541629
 20
226.3758134058
 11
155.5147101561
 21
226.0779411009
  0
LINE
  5
2FE
100
AcDbEntity
  8
0
100
AcDbLine
 62
7
  6
CONTINUOUS
 10
156.8174357185
 20
223.0992174259
 11
156.5587244722
 21
223.6949622443
  0
LINE
  5
2FF
100
AcDbEntity
  8
0
100
AcDbLine
 62
7
  6
CONTINUOUS
 10
111.3863252585
 20
323.2503353029
 11
111.5732761974
 21
322.8121001164
  0
LINE
  5
300
100
AcDbEntity
  8
0
100
AcDbLine
 62
7
  6
CONTINUOUS
 10
150.8579032819
 20
220.716238778
 11
149.6937011933
 21
224.1417707017
  0
LINE
  5
301
100
AcDbEntity
  8
0
100
AcDbLine
 62
7
  6
CONTINUOUS
 10
150.9964278659
 20
220.716238778
 11
149.8322257773
 21
224.1417707017
  0
LINE
  5
302
100
AcDbEntity
  8
0
100
AcDbLine
 62
7
  6
CONTINUOUS
 10
148.9175667143
 20
223.8438983968
 11
149.9524128097
 21
220.716238778
  0
LINE
  5
303
100
AcDbEntity
  8
0
100
AcDbLine
 62
7
  6
CONTINUOUS
 10
149.8230571865
 20
226.5247495583
 11
149.9524128097
 21
226.0779411009
  0
LINE
  5
304
100
AcDbEntity
  8
0
100
AcDbLine
 62
7
  6
CONTINUOUS
 10
150.7285472887
 20
226.0779411009
 11
150.5991912955
 21
226.5247495583
  0
LINE
  5
305
100
AcDbEntity
  8
0
100
AcDbLine
 62
7
  6
CONTINUOUS
 10
150.8670718727
 20
226.0779411009
 11
150.7377158794
 21
226.5247495583
  0
LINE
  5
306
100
AcDbEntity
  8
0
100
AcDbLine
 62
7
  6
CONTINUOUS
 10
152.7982394795
 20
222.2056005111
 11
152.6688834863
 21
222.6524089685
  0
LINE
  5
307
100
AcDbEntity
  8
0
100
AcDbLine
 62
7
  6
CONTINUOUS
 10
152.9367640635
 20
222.2056005111
 11
152.8074080702
 21
222.6524089685
  0
LINE
  5
308
100
AcDbEntity
  8
0
100
AcDbLine
 62
7
  6
CONTINUOUS
 10
153.186306719
 20
225.1843237689
 11
153.0569507258
 21
225.6311322263
  0
LINE
  5
309
100
AcDbEntity
  8
0
100
AcDbLine
 62
7
  6
CONTINUOUS
 10
153.324831303
 20
225.1843237689
 11
153.1954753098
 21
225.6311322263
  0
LINE
  5
30A
100
AcDbEntity
  8
0
100
AcDbLine
 62
7
  6
CONTINUOUS
 10
120.4927348028
 20
335.8946179814
 11
120.6159053406
 21
335.3024029741
  0
LINE
  5
30B
100
AcDbEntity
  8
0
100
AcDbLine
 62
7
  6
CONTINUOUS
 10
144.1314042169
 20
227.716238778
 11
144.1314042169
 21
220.716238778
  0
LINE
  5
30C
100
AcDbEntity
  8
0
100
AcDbLine
 62
7
  6
CONTINUOUS
 10
144.907538696
 20
220.716238778
 11
144.907538696
 21
227.716238778
  0
LINE
  5
30D
100
AcDbEntity
  8
0
100
AcDbLine
 62
7
  6
CONTINUOUS
 10
145.0460632799
 20
220.716238778
 11
145.0460632799
 21
227.716238778
  0
LINE
  5
30E
100
AcDbEntity
  8
0
100
AcDbLine
 62
7
  6
CONTINUOUS
 10
145.9423846063
 20
227.716238778
 11
145.9423846063
 21
220.716238778
  0
LINE
  5
30F
100
AcDbEntity
  8
0
100
AcDbLine
 62
7
  6
CONTINUOUS
 10
146.7185190854
 20
220.716238778
 11
146.7185190854
 21
223.8438983968
  0
LINE
  5
310
100
AcDbEntity
  8
0
100
AcDbLine
 62
7
  6
CONTINUOUS
 10
146.7185190854
 20
224.7375153116
 11
146.7185190854
 21
226.9715580157
  0
LINE
  5
311
100
AcDbEntity
  8
0
100
AcDbLine
 62
7
  6
CONTINUOUS
 10
146.8570436693
 20
220.716238778
 11
146.8570436693
 21
223.8438983968
  0
LINE
  5
312
100
AcDbEntity
  8
0
100
AcDbLine
 62
7
  6
CONTINUOUS
 10
146.8570436693
 20
224.7375153116
 11
146.8570436693
 21
226.9715580157
  0
LINE
  5
313
100
AcDbEntity
  8
0
100
AcDbLine
 62
7
  6
CONTINUOUS
 10
149.9524128097
 20
226.0779411009
 11
149.9524128097
 21
225.6311322263
  0
LINE
  5
314
100
AcDbEntity
  8
0
100
AcDbLine
 62
7
  6
CONTINUOUS
 10
150.7285472887
 20
225.4821960738
 11
150.7285472887
 21
226.0779411009
  0
LINE
  5
315
100
AcDbEntity
  8
0
100
AcDbLine
 62
7
  6
CONTINUOUS
 10
150.8670718727
 20
225.4821960738
 11
150.8670718727
 21
226.0779411009
  0
LINE
  5
316
100
AcDbEntity
  8
0
100
AcDbLine
 62
7
  6
CONTINUOUS
 10
174.9741432451
 20
373.0247495583
 11
174.807476499
 21
372.3438985756
  0
LINE
  5
317
100
AcDbEntity
  8
RUNDUNGEN
100
AcDbLine
 62
7
  6
CONTINUOUS
 10
238.7281783475
 20
235.4561558701
 11
237.3719691292
 21
235.4561558701
  0
LINE
  5
318
100
AcDbEntity
  8
RUNDUNGEN
100
AcDbLine
 62
7
  6
CONTINUOUS
 10
119.9096508534
 20
235.4561558701
 11
118.5534416351
 21
235.4561558701
  0
LINE
  5
319
100
AcDbEntity
  8
0
100
AcDbLine
 62
7
  6
CONTINUOUS
 10
206.4792264766
 20
224.4396430066
 11
206.8672937161
 21
224.2907068542
  0
LINE
  5
31A
100
AcDbEntity
  8
0
100
AcDbLine
 62
7
  6
CONTINUOUS
 10
206.6177510606
 20
224.4396430066
 11
207.0058183001
 21
224.2907068542
  0
LINE
  5
31B
100
AcDbEntity
  8
0
100
AcDbLine
 62
7
  6
CONTINUOUS
 10
206.3498697432
 20
226.9715580157
 11
206.7379369827
 21
226.8226218632
  0
LINE
  5
31C
100
AcDbEntity
  8
0
100
AcDbLine
 62
7
  6
CONTINUOUS
 10
206.4883943272
 20
226.9715580157
 11
206.8764615667
 21
226.8226218632
  0
LINE
  5
31D
100
AcDbEntity
  8
0
100
AcDbLine
 62
7
  6
CONTINUOUS
 10
202.3490106857
 20
223.9928345493
 11
201.7022321999
 21
224.2907068542
  0
LINE
  5
31E
100
AcDbEntity
  8
0
100
AcDbLine
 62
7
  6
CONTINUOUS
 10
198.7178809461
 20
221.1630472875
 11
199.2353041789
 21
220.8651749434
  0
LINE
  5
31F
100
AcDbEntity
  8
0
100
AcDbLine
 62
7
  6
CONTINUOUS
 10
198.8564055301
 20
221.1630472875
 11
199.3738287628
 21
220.8651749434
  0
LINE
  5
320
100
AcDbEntity
  8
0
100
AcDbLine
 62
7
  6
CONTINUOUS
 10
199.3738287628
 20
221.609855797
 11
199.1151175165
 21
221.7587919495
  0
LINE
  5
321
100
AcDbEntity
  8
0
100
AcDbLine
 62
7
  6
CONTINUOUS
 10
198.3298137066
 20
221.4609196445
 11
198.7178809461
 21
221.1630472875
  0
LINE
  5
322
100
AcDbEntity
  8
0
100
AcDbLine
 62
7
  6
CONTINUOUS
 10
198.4683382906
 20
221.4609196445
 11
198.8564055301
 21
221.1630472875
  0
LINE
  5
323
100
AcDbEntity
  8
0
100
AcDbLine
 62
7
  6
CONTINUOUS
 10
112.3639473342
 20
323.3865870805
 11
111.9262647628
 21
324.1090772377
  0
LINE
  5
324
100
AcDbEntity
  8
0
100
AcDbLine
 62
7
  6
CONTINUOUS
 10
118.5023653279
 20
328.420716498
 11
118.1284633951
 21
329.2971868938
  0
LINE
  5
325
100
AcDbEntity
  8
0
100
AcDbLine
 62
7
  6
CONTINUOUS
 10
121.5638327868
 20
335.8117527581
 11
121.1899304891
 21
336.6882222728
  0
LINE
  5
326
100
AcDbEntity
  8
0
100
AcDbLine
 62
7
  6
CONTINUOUS
 10
156.2908446351
 20
226.0779411009
 11
156.1614886419
 21
226.5247495583
  0
LINE
  5
327
100
AcDbEntity
  8
0
100
AcDbLine
 62
7
  6
CONTINUOUS
 10
156.4293692191
 20
226.0779411009
 11
156.3000132259
 21
226.5247495583
  0
LINE
  5
328
100
AcDbEntity
  8
0
100
AcDbLine
 62
7
  6
CONTINUOUS
 10
151.8927490072
 20
222.6524089685
 11
152.0221050005
 21
222.0566643587
  0
LINE
  5
329
100
AcDbEntity
  8
0
100
AcDbLine
 62
7
  6
CONTINUOUS
 10
152.2808162468
 20
225.4821960738
 11
152.41017224
 21
224.886451464
  0
LINE
  5
32A
100
AcDbEntity
  8
0
100
AcDbLine
 62
7
  6
CONTINUOUS
 10
152.2808162468
 20
226.0779411009
 11
152.2808162468
 21
225.4821960738
  0
LINE
  5
32B
100
AcDbEntity
  8
0
100
AcDbLine
 62
7
  6
CONTINUOUS
 10
153.0569507258
 20
225.6311322263
 11
153.0569507258
 21
225.9290045312
  0
LINE
  5
32C
100
AcDbEntity
  8
0
100
AcDbLine
 62
7
  6
CONTINUOUS
 10
153.1954753098
 20
225.6311322263
 11
153.1954753098
 21
225.9290045312
  0
LINE
  5
32D
100
AcDbEntity
  8
0
100
AcDbLine
 62
7
  6
CONTINUOUS
 10
155.9027773956
 20
222.9502812734
 11
155.9027773956
 21
222.5034728161
  0
LINE
  5
32E
100
AcDbEntity
  8
0
100
AcDbLine
 62
7
  6
CONTINUOUS
 10
156.6789111345
 20
222.3545366636
 11
156.6789111345
 21
223.0992174259
  0
LINE
  5
32F
100
AcDbEntity
  8
0
100
AcDbLine
 62
7
  6
CONTINUOUS
 10
156.8174357185
 20
222.3545366636
 11
156.8174357185
 21
223.0992174259
  0
LINE
  5
330
100
AcDbEntity
  8
0
100
AcDbLine
 62
7
  6
CONTINUOUS
 10
157.7137576
 20
223.9928345493
 11
157.7137576
 21
223.2481535784
  0
LINE
  5
331
100
AcDbEntity
  8
0
100
AcDbLine
 62
7
  6
CONTINUOUS
 10
159.5247385445
 20
223.2481535784
 11
159.5247385445
 21
223.9928345493
  0
LINE
  5
332
100
AcDbEntity
  8
0
100
AcDbLine
 62
7
  6
CONTINUOUS
 10
159.6632631285
 20
223.2481535784
 11
159.6632631285
 21
223.9928345493
  0
LINE
  5
333
100
AcDbEntity
  8
0
100
AcDbLine
 62
7
  6
CONTINUOUS
 10
160.5595835296
 20
227.716238778
 11
160.5595835296
 21
220.716238778
  0
LINE
  5
334
100
AcDbEntity
  8
B-ACHSEN
100
AcDbLine
 62
7
  6
CONTINUOUS
 10
160.6408099913
 20
200.216238778
 11
160.6408099913
 21
161.216238778
  0
LINE
  5
335
100
AcDbEntity
  8
0
100
AcDbLine
 62
7
  6
CONTINUOUS
 10
180.4741434836
 20
371.3226216248
 11
180.6408095144
 21
372.0034726074
  0
LINE
  5
336
100
AcDbEntity
  8
0
100
AcDbLine
 62
7
  6
CONTINUOUS
 10
201.9609434462
 20
227.2694303206
 11
201.4435209536
 21
227.5673026255
  0
LINE
  5
337
100
AcDbEntity
  8
0
100
AcDbLine
 62
7
  6
CONTINUOUS
 10
204.4095335456
 20
221.3119834399
 11
205.0563127716
 21
220.8651749434
  0
LINE
  5
338
100
AcDbEntity
  8
0
100
AcDbLine
 62
7
  6
CONTINUOUS
 10
204.5480581296
 20
221.3119834399
 11
205.1948373556
 21
220.8651749434
  0
LINE
  5
339
100
AcDbEntity
  8
0
100
AcDbLine
 62
7
  6
CONTINUOUS
 10
207.7819527791
 20
224.5885791591
 11
207.1351735531
 21
225.0353876165
  0
LINE
  5
33A
100
AcDbEntity
  8
0
100
AcDbLine
 62
7
  6
CONTINUOUS
 10
207.6525960457
 20
227.1204941681
 11
207.0058183001
 21
227.5673026255
  0
LINE
  5
33B
100
AcDbEntity
  8
0
100
AcDbLine
 62
7
  6
CONTINUOUS
 10
201.3049963697
 20
223.8438983968
 11
201.6930636092
 21
223.5460260919
  0
LINE
  5
33C
100
AcDbEntity
  8
0
100
AcDbLine
 62
7
  6
CONTINUOUS
 10
201.4435209536
 20
223.8438983968
 11
201.8315881932
 21
223.5460260919
  0
LINE
  5
33D
100
AcDbEntity
  8
0
100
AcDbLine
 62
7
  6
CONTINUOUS
 10
205.3241926086
 20
221.609855797
 11
204.9361253691
 21
221.9077281019
  0
LINE
  5
33E
100
AcDbEntity
  8
0
100
AcDbLine
 62
7
  6
CONTINUOUS
 10
201.1756403764
 20
226.8226218632
 11
201.563707616
 21
226.5247495583
  0
LINE
  5
33F
100
AcDbEntity
  8
0
100
AcDbLine
 62
7
  6
CONTINUOUS
 10
201.3141649604
 20
226.8226218632
 11
201.7022321999
 21
226.5247495583
  0
LINE
  5
340
100
AcDbEntity
  8
0
100
AcDbLine
 62
7
  6
CONTINUOUS
 10
206.8672937161
 20
224.2907068542
 11
207.2553609556
 21
223.9928345493
  0
LINE
  5
341
100
AcDbEntity
  8
0
100
AcDbLine
 62
7
  6
CONTINUOUS
 10
207.0058183001
 20
224.2907068542
 11
207.3938855396
 21
223.9928345493
  0
LINE
  5
342
100
AcDbEntity
  8
0
100
AcDbLine
 62
7
  6
CONTINUOUS
 10
206.7379369827
 20
226.8226218632
 11
207.1260042222
 21
226.5247495583
  0
LINE
  5
343
100
AcDbEntity
  8
0
100
AcDbLine
 62
7
  6
CONTINUOUS
 10
206.8764615667
 20
226.8226218632
 11
207.2645288062
 21
226.5247495583
  0
LINE
  5
344
100
AcDbEntity
  8
0
100
AcDbLine
 62
7
  6
CONTINUOUS
 10
117.0870605156
 20
329.0069549461
 11
117.4312677089
 21
328.5035826024
  0
LINE
  5
345
100
AcDbEntity
  8
0
100
AcDbLine
 62
7
  6
CONTINUOUS
 10
161.3357180087
 20
221.609855797
 11
161.3357180087
 21
227.716238778
  0
LINE
  5
346
100
AcDbEntity
  8
0
100
AcDbLine
 62
7
  6
CONTINUOUS
 10
161.4742425926
 20
221.609855797
 11
161.4742425926
 21
227.716238778
  0
LINE
  5
347
100
AcDbEntity
  8
B-ACHSEN
100
AcDbLine
 62
7
  6
CONTINUOUS
 10
163.4908099913
 20
212.216238778
 11
163.4908099913
 21
203.8946659027
  0
LINE
  5
348
100
AcDbEntity
  8
0
100
AcDbLine
 62
7
  6
CONTINUOUS
 10
165.2163904038
 20
220.716238778
 11
165.2163904038
 21
221.609855797
  0
LINE
  5
349
100
AcDbEntity
  8
0
100
AcDbLine
 62
7
  6
CONTINUOUS
 10
165.3549149878
 20
220.716238778
 11
165.3549149878
 21
221.609855797
  0
LINE
  5
34A
100
AcDbEntity
  8
0
100
AcDbLine
 62
7
  6
CONTINUOUS
 10
166.2512368693
 20
227.716238778
 11
166.2512368693
 21
226.9715580157
  0
LINE
  5
34B
100
AcDbEntity
  8
0
100
AcDbLine
 62
7
  6
CONTINUOUS
 10
168.3209283199
 20
226.9715580157
 11
168.3209283199
 21
220.716238778
  0
LINE
  5
34C
100
AcDbEntity
  8
0
100
AcDbLine
 62
7
  6
CONTINUOUS
 10
169.0970642793
 20
220.716238778
 11
169.0970642793
 21
226.9715580157
  0
LINE
  5
34D
100
AcDbEntity
  8
0
100
AcDbLine
 62
7
  6
CONTINUOUS
 10
169.2355888633
 20
220.716238778
 11
169.2355888633
 21
226.9715580157
  0
LINE
  5
34E
100
AcDbEntity
  8
0
100
AcDbLine
 62
7
  6
CONTINUOUS
 10
152.41017224
 20
226.6736857107
 11
152.2808162468
 21
226.0779411009
  0
LINE
  5
34F
100
AcDbEntity
  8
0
100
AcDbLine
 62
7
  6
CONTINUOUS
 10
149.9524128097
 20
225.6311322263
 11
149.8230571865
 21
225.1843237689
  0
LINE
  5
350
100
AcDbEntity
  8
0
100
AcDbLine
 62
7
  6
CONTINUOUS
 10
150.5991912955
 20
225.0353876165
 11
150.7285472887
 21
225.4821960738
  0
LINE
  5
351
100
AcDbEntity
  8
0
100
AcDbLine
 62
7
  6
CONTINUOUS
 10
150.7377158794
 20
225.0353876165
 11
150.8670718727
 21
225.4821960738
  0
LINE
  5
352
100
AcDbEntity
  8
0
100
AcDbLine
 62
7
  6
CONTINUOUS
 10
153.0569507258
 20
225.9290045312
 11
153.186306719
 21
226.3758134058
  0
LINE
  5
353
100
AcDbEntity
  8
0
100
AcDbLine
 62
7
  6
CONTINUOUS
 10
153.1954753098
 20
225.9290045312
 11
153.324831303
 21
226.3758134058
  0
LINE
  5
354
100
AcDbEntity
  8
0
100
AcDbLine
 62
7
  6
CONTINUOUS
 10
199.1151175165
 20
221.7587919495
 11
198.8564055301
 21
222.0566643587
  0
LINE
  5
355
100
AcDbEntity
  8
0
100
AcDbLine
 62
7
  6
CONTINUOUS
 10
202.478366679
 20
226.6736857107
 11
201.9609434462
 21
227.2694303206
  0
LINE
  5
356
100
AcDbEntity
  8
0
100
AcDbLine
 62
7
  6
CONTINUOUS
 10
207.2553609556
 20
223.9928345493
 11
207.5140714617
 21
223.6949622443
  0
LINE
  5
357
100
AcDbEntity
  8
0
100
AcDbLine
 62
7
  6
CONTINUOUS
 10
207.3938855396
 20
223.9928345493
 11
207.6525960457
 21
223.6949622443
  0
LINE
  5
358
100
AcDbEntity
  8
0
100
AcDbLine
 62
7
  6
CONTINUOUS
 10
208.1700200186
 20
224.1417707017
 11
207.7819527791
 21
224.5885791591
  0
LINE
  5
359
100
AcDbEntity
  8
0
100
AcDbLine
 62
7
  6
CONTINUOUS
 10
120.1485279746
 20
336.3979912062
 11
120.4927348028
 21
335.8946179814
  0
LINE
  5
35A
100
AcDbEntity
  8
0
100
AcDbLine
 62
7
  6
CONTINUOUS
 10
198.0711024603
 20
221.9077281019
 11
198.3298137066
 21
221.4609196445
  0
LINE
  5
35B
100
AcDbEntity
  8
0
100
AcDbLine
 62
7
  6
CONTINUOUS
 10
171.1667542496
 20
226.9715580157
 11
171.1667542496
 21
227.716238778
  0
LINE
  5
35C
100
AcDbEntity
  8
0
100
AcDbLine
 62
7
  6
CONTINUOUS
 10
171.3052788336
 20
226.9715580157
 11
171.3052788336
 21
227.716238778
  0
LINE
  5
35D
100
AcDbEntity
  8
0
100
AcDbLine
 62
7
  6
CONTINUOUS
 10
171.307476499
 20
373.0247495583
 11
171.307476499
 21
371.6630471161
  0
LINE
  5
35E
100
AcDbEntity
  8
0
100
AcDbLine
 62
7
  6
CONTINUOUS
 10
172.307476499
 20
372.8545368126
 11
172.307476499
 21
366.216238778
  0
LINE
  5
35F
100
AcDbEntity
  8
0
100
AcDbLine
 62
7
  6
CONTINUOUS
 10
173.307476499
 20
366.216238778
 11
173.307476499
 21
374.216238778
  0
LINE
  5
360
100
AcDbEntity
  8
0
100
AcDbLine
 62
7
  6
CONTINUOUS
 10
174.6408097529
 20
367.0673026255
 11
174.6408097529
 21
366.216238778
  0
LINE
  5
361
100
AcDbEntity
  8
0
100
AcDbLine
 62
7
  6
CONTINUOUS
 10
174.6408099913
 20
217.216238778
 11
174.6408099913
 21
232.216238778
  0
LINE
  5
362
100
AcDbEntity
  8
B-ACHSEN
100
AcDbLine
 62
2
  6
CENTER
 10
178.6408099913
 20
298.216238778
 11
178.6408099913
 21
148.216238778
  0
LINE
  5
363
100
AcDbEntity
  8
B-ACHSEN
100
AcDbLine
 62
2
  6
CENTER
 10
178.6408099913
 20
298.216238778
 11
178.6408099913
 21
390.973322616
  0
LINE
  5
364
100
AcDbEntity
  8
0
100
AcDbLine
 62
7
  6
CONTINUOUS
 10
179.6408095144
 20
372.3438985756
 11
179.6408095144
 21
372.0034726074
  0
LINE
  5
365
100
AcDbEntity
  8
0
100
AcDbLine
 62
7
  6
CONTINUOUS
 10
156.4201998882
 20
221.7587919495
 11
156.6789111345
 21
222.3545366636
  0
LINE
  5
366
100
AcDbEntity
  8
0
100
AcDbLine
 62
7
  6
CONTINUOUS
 10
156.5587244722
 20
221.7587919495
 11
156.8174357185
 21
222.3545366636
  0
LINE
  5
367
100
AcDbEntity
  8
0
100
AcDbLine
 62
7
  6
CONTINUOUS
 10
110.9783375541
 20
323.5997278714
 11
111.3863252585
 21
323.2503353029
  0
LINE
  5
368
100
AcDbEntity
  8
0
100
AcDbLine
 62
7
  6
CONTINUOUS
 10
111.9262647628
 20
324.1090772377
 11
111.5182770584
 21
324.4584698062
  0
LINE
  5
369
100
AcDbEntity
  8
0
100
AcDbLine
 62
7
  6
CONTINUOUS
 10
118.1284633951
 20
329.2971868938
 11
117.6270000199
 21
329.8656968809
  0
LINE
  5
36A
100
AcDbEntity
  8
0
100
AcDbLine
 62
7
  6
CONTINUOUS
 10
121.1899304891
 20
336.6882222728
 11
120.6884674788
 21
337.256733141
  0
LINE
  5
36B
100
AcDbEntity
  8
0
100
AcDbLine
 62
7
  6
CONTINUOUS
 10
204.0214663061
 20
221.9077281019
 11
204.4095335456
 21
221.3119834399
  0
LINE
  5
36C
100
AcDbEntity
  8
0
100
AcDbLine
 62
7
  6
CONTINUOUS
 10
204.1599908901
 20
221.9077281019
 11
204.5480581296
 21
221.3119834399
  0
LINE
  5
36D
100
AcDbEntity
  8
0
100
AcDbLine
 62
7
  6
CONTINUOUS
 10
208.0406632852
 20
226.5247495583
 11
207.6525960457
 21
227.1204941681
  0
LINE
  5
36E
100
AcDbEntity
  8
0
100
AcDbLine
 62
7
  6
CONTINUOUS
 10
198.2096270443
 20
221.9077281019
 11
198.4683382906
 21
221.4609196445
  0
LINE
  5
36F
100
AcDbEntity
  8
0
100
AcDbLine
 62
7
  6
CONTINUOUS
 10
202.6077226722
 20
223.5460260919
 11
202.3490106857
 21
223.9928345493
  0
LINE
  5
370
100
AcDbEntity
  8
0
100
AcDbLine
 62
7
  6
CONTINUOUS
 10
201.563707616
 20
226.5247495583
 11
201.8224188622
 21
226.0779411009
  0
LINE
  5
371
100
AcDbEntity
  8
0
100
AcDbLine
 62
7
  6
CONTINUOUS
 10
201.7022321999
 20
226.5247495583
 11
201.9609434462
 21
226.0779411009
  0
LINE
  5
372
100
AcDbEntity
  8
0
100
AcDbLine
 62
7
  6
CONTINUOUS
 10
204.9361253691
 20
221.9077281019
 11
204.677414863
 21
222.3545366636
  0
LINE
  5
373
100
AcDbEntity
  8
0
100
AcDbLine
 62
7
  6
CONTINUOUS
 10
198.8564055301
 20
222.0566643587
 11
198.727050277
 21
222.3545366636
  0
LINE
  5
374
100
AcDbEntity
  8
0
100
AcDbLine
 62
7
  6
CONTINUOUS
 10
191.6124839725
 20
225.8053603188
 11
193.2849397779
 21
220.716238778
  0
LINE
  5
375
100
AcDbEntity
  8
0
100
AcDbLine
 62
7
  6
CONTINUOUS
 10
191.6124839725
 20
226.2268772534
 11
193.4234643619
 21
220.716238778
  0
LINE
  5
376
100
AcDbEntity
  8
0
100
AcDbLine
 62
7
  6
CONTINUOUS
 10
193.9408874096
 20
221.4609196445
 11
192.000551212
 21
227.716238778
  0
LINE
  5
377
100
AcDbEntity
  8
0
100
AcDbLine
 62
7
  6
CONTINUOUS
 10
180.6408095144
 20
366.216238778
 11
180.6408095144
 21
367.0673026255
  0
LINE
  5
378
100
AcDbEntity
  8
0
100
AcDbLine
 62
7
  6
CONTINUOUS
 10
180.6408095144
 20
372.0034726074
 11
180.6408095144
 21
372.3438985756
  0
LINE
  5
379
100
AcDbEntity
  8
0
100
AcDbLine
 62
7
  6
CONTINUOUS
 10
181.9741434836
 20
371.6630471161
 11
181.9741434836
 21
370.9821961334
  0
LINE
  5
37A
100
AcDbEntity
  8
0
100
AcDbLine
 62
7
  6
CONTINUOUS
 10
182.6408099913
 20
217.216238778
 11
182.6408099913
 21
232.216238778
  0
LINE
  5
37B
100
AcDbEntity
  8
0
100
AcDbLine
 62
7
  6
CONTINUOUS
 10
183.307476499
 20
373.0247495583
 11
183.307476499
 21
371.6630471161
  0
LINE
  5
37C
100
AcDbEntity
  8
0
100
AcDbLine
 62
7
  6
CONTINUOUS
 10
183.307476499
 20
370.9821961334
 11
183.307476499
 21
367.5779408625
  0
LINE
  5
37D
100
AcDbEntity
  8
0
100
AcDbLine
 62
7
  6
CONTINUOUS
 10
184.1408095144
 20
367.918366473
 11
184.1408095144
 21
370.9821961334
  0
LINE
  5
37E
100
AcDbEntity
  8
0
100
AcDbLine
 62
7
  6
CONTINUOUS
 10
184.1408095144
 20
371.6630471161
 11
184.1408095144
 21
373.0247495583
  0
LINE
  5
37F
100
AcDbEntity
  8
0
100
AcDbLine
 62
7
  6
CONTINUOUS
 10
185.6408095144
 20
366.216238778
 11
185.6408095144
 21
366.8970898202
  0
LINE
  5
380
100
AcDbEntity
  8
0
100
AcDbLine
 62
7
  6
CONTINUOUS
 10
185.9741434836
 20
370.9821961334
 11
185.9741434836
 21
371.6630471161
  0
LINE
  5
381
100
AcDbEntity
  8
0
100
AcDbLine
 62
7
  6
CONTINUOUS
 10
155.9027773956
 20
222.5034728161
 11
155.6440654092
 21
222.0566643587
  0
LINE
  5
382
100
AcDbEntity
  8
0
100
AcDbLine
 62
7
  6
CONTINUOUS
 10
150.211124426
 20
224.4396430066
 11
150.5991912955
 21
225.0353876165
  0
LINE
  5
383
100
AcDbEntity
  8
0
100
AcDbLine
 62
7
  6
CONTINUOUS
 10
150.34964901
 20
224.4396430066
 11
150.7377158794
 21
225.0353876165
  0
LINE
  5
384
100
AcDbEntity
  8
0
100
AcDbLine
 62
7
  6
CONTINUOUS
 10
149.8230571865
 20
225.1843237689
 11
149.5643455702
 21
224.886451464
  0
LINE
  5
385
100
AcDbEntity
  8
0
100
AcDbLine
 62
7
  6
CONTINUOUS
 10
152.9275947326
 20
227.2694303206
 11
152.41017224
 21
226.6736857107
  0
LINE
  5
386
100
AcDbEntity
  8
0
100
AcDbLine
 62
7
  6
CONTINUOUS
 10
116.5218169218
 20
329.4214855529
 11
117.0870605156
 21
329.0069549461
  0
LINE
  5
387
100
AcDbEntity
  8
0
100
AcDbLine
 62
7
  6
CONTINUOUS
 10
207.1260042222
 20
226.5247495583
 11
207.3847162087
 21
226.0779411009
  0
LINE
  5
388
100
AcDbEntity
  8
0
100
AcDbLine
 62
7
  6
CONTINUOUS
 10
207.2645288062
 20
226.5247495583
 11
207.5232407927
 21
226.0779411009
  0
LINE
  5
389
100
AcDbEntity
  8
0
100
AcDbLine
 62
7
  6
CONTINUOUS
 10
201.6930636092
 20
223.5460260919
 11
201.9517748555
 21
222.9502812734
  0
LINE
  5
38A
100
AcDbEntity
  8
0
100
AcDbLine
 62
7
  6
CONTINUOUS
 10
201.8315881932
 20
223.5460260919
 11
202.0902994394
 21
222.9502812734
  0
LINE
  5
38B
100
AcDbEntity
  8
0
100
AcDbLine
 62
7
  6
CONTINUOUS
 10
203.7627558
 20
222.6524089685
 11
204.0214663061
 21
221.9077281019
  0
LINE
  5
38C
100
AcDbEntity
  8
0
100
AcDbLine
 62
7
  6
CONTINUOUS
 10
203.901280384
 20
222.6524089685
 11
204.1599908901
 21
221.9077281019
  0
LINE
  5
38D
100
AcDbEntity
  8
0
100
AcDbLine
 62
7
  6
CONTINUOUS
 10
197.9417464671
 20
222.3545366636
 11
198.0711024603
 21
221.9077281019
  0
LINE
  5
38E
100
AcDbEntity
  8
0
100
AcDbLine
 62
7
  6
CONTINUOUS
 10
198.0802710511
 20
222.3545366636
 11
198.2096270443
 21
221.9077281019
  0
LINE
  5
38F
100
AcDbEntity
  8
0
100
AcDbLine
 62
7
  6
CONTINUOUS
 10
190.6978249095
 20
227.716238778
 11
190.6978249095
 21
220.716238778
  0
LINE
  5
390
100
AcDbEntity
  8
0
100
AcDbLine
 62
7
  6
CONTINUOUS
 10
190.8363494935
 20
227.716238778
 11
190.8363494935
 21
220.716238778
  0
LINE
  5
391
100
AcDbEntity
  8
0
100
AcDbLine
 62
7
  6
CONTINUOUS
 10
191.6124839725
 20
220.716238778
 11
191.6124839725
 21
226.2268772534
  0
LINE
  5
392
100
AcDbEntity
  8
B-ACHSEN
100
AcDbLine
 62
7
  6
CONTINUOUS
 10
193.7908099913
 20
212.216238778
 11
193.7908099913
 21
203.8946659027
  0
LINE
  5
393
100
AcDbEntity
  8
0
100
AcDbLine
 62
7
  6
CONTINUOUS
 10
196.1307662627
 20
225.8053603619
 11
196.1307662627
 21
220.716238778
  0
LINE
  5
394
100
AcDbEntity
  8
0
100
AcDbLine
 62
7
  6
CONTINUOUS
 10
196.2692908467
 20
226.2268772534
 11
196.2692908467
 21
220.716238778
  0
LINE
  5
395
100
AcDbEntity
  8
B-ACHSEN
100
AcDbLine
 62
7
  6
CONTINUOUS
 10
196.6408099913
 20
200.216238778
 11
196.6408099913
 21
161.216238778
  0
LINE
  5
396
100
AcDbEntity
  8
0
100
AcDbLine
 62
7
  6
CONTINUOUS
 10
197.0454253257
 20
220.716238778
 11
197.0454253257
 21
227.716238778
  0
LINE
  5
397
100
AcDbEntity
  8
0
100
AcDbLine
 62
7
  6
CONTINUOUS
 10
155.9027773956
 20
221.1630472875
 11
156.4201998882
 21
221.7587919495
  0
LINE
  5
398
100
AcDbEntity
  8
0
100
AcDbLine
 62
7
  6
CONTINUOUS
 10
156.0413019796
 20
221.1630472875
 11
156.5587244722
 21
221.7587919495
  0
LINE
  5
399
100
AcDbEntity
  8
0
100
AcDbLine
 62
7
  6
CONTINUOUS
 10
106.799554434
 20
319.7382769845
 11
114.1905906941
 21
316.6768095256
  0
LINE
  5
39A
100
AcDbEntity
  8
0
100
AcDbLine
 62
7
  6
CONTINUOUS
 10
114.5732741264
 20
317.6006890581
 11
111.2708961761
 21
318.9685787932
  0
LINE
  5
39B
100
AcDbEntity
  8
0
100
AcDbLine
 62
7
  6
CONTINUOUS
 10
110.3273597448
 20
319.3594043796
 11
107.9685182258
 21
320.3364685283
  0
LINE
  5
39C
100
AcDbEntity
  8
0
100
AcDbLine
 62
7
  6
CONTINUOUS
 10
117.6270000199
 20
329.8656968809
 11
116.9045003541
 21
330.3453650854
  0
LINE
  5
39D
100
AcDbEntity
  8
0
100
AcDbLine
 62
7
  6
CONTINUOUS
 10
119.5832840157
 20
336.8125209319
 11
120.1485279746
 21
336.3979912062
  0
LINE
  5
39E
100
AcDbEntity
  8
0
100
AcDbLine
 62
7
  6
CONTINUOUS
 10
208.4287305247
 20
223.3970899394
 11
208.1700200186
 21
224.1417707017
  0
LINE
  5
39F
100
AcDbEntity
  8
0
100
AcDbLine
 62
7
  6
CONTINUOUS
 10
204.677414863
 20
222.3545366636
 11
204.5480581296
 21
222.801345121
  0
LINE
  5
3A0
100
AcDbEntity
  8
0
100
AcDbLine
 62
7
  6
CONTINUOUS
 10
207.5140714617
 20
223.6949622443
 11
207.6434281952
 21
223.2481535784
  0
LINE
  5
3A1
100
AcDbEntity
  8
0
100
AcDbLine
 62
7
  6
CONTINUOUS
 10
207.6525960457
 20
223.6949622443
 11
207.7819527791
 21
223.2481535784
  0
LINE
  5
3A2
100
AcDbEntity
  8
0
100
AcDbLine
 62
7
  6
CONTINUOUS
 10
208.1700200186
 20
226.0779411009
 11
208.0406632852
 21
226.5247495583
  0
LINE
  5
3A3
100
AcDbEntity
  8
0
100
AcDbLine
 62
7
  6
CONTINUOUS
 10
202.7370779252
 20
222.9502812734
 11
202.6077226722
 21
223.5460260919
  0
LINE
  5
3A4
100
AcDbEntity
  8
0
100
AcDbLine
 62
7
  6
CONTINUOUS
 10
202.6077226722
 20
226.0779411009
 11
202.478366679
 21
226.6736857107
  0
LINE
  5
3A5
100
AcDbEntity
  8
0
100
AcDbLine
 62
7
  6
CONTINUOUS
 10
203.6333990666
 20
223.6949622443
 11
203.7627558
 21
222.6524089685
  0
LINE
  5
3A6
100
AcDbEntity
  8
0
100
AcDbLine
 62
7
  6
CONTINUOUS
 10
203.7719236506
 20
223.6949622443
 11
203.901280384
 21
222.6524089685
  0
LINE
  5
3A7
100
AcDbEntity
  8
0
100
AcDbLine
 62
7
  6
CONTINUOUS
 10
200.0114386579
 20
224.5885791591
 11
200.0114386579
 21
223.9928345493
  0
LINE
  5
3A8
100
AcDbEntity
  8
0
100
AcDbLine
 62
7
  6
CONTINUOUS
 10
200.1499632419
 20
224.5885791591
 11
200.1499632419
 21
223.9928345493
  0
LINE
  5
3A9
100
AcDbEntity
  8
0
100
AcDbLine
 62
7
  6
CONTINUOUS
 10
201.8224188622
 20
226.0779411009
 11
201.8224188622
 21
225.7800683788
  0
LINE
  5
3AA
100
AcDbEntity
  8
0
100
AcDbLine
 62
7
  6
CONTINUOUS
 10
201.9517748555
 20
222.9502812734
 11
201.9517748555
 21
222.3545366636
  0
LINE
  5
3AB
100
AcDbEntity
  8
0
100
AcDbLine
 62
7
  6
CONTINUOUS
 10
201.9609434462
 20
226.0779411009
 11
201.9609434462
 21
225.7800683788
  0
LINE
  5
3AC
100
AcDbEntity
  8
0
100
AcDbLine
 62
7
  6
CONTINUOUS
 10
202.0902994394
 20
222.9502812734
 11
202.0902994394
 21
222.3545366636
  0
LINE
  5
3AD
100
AcDbEntity
  8
0
100
AcDbLine
 62
7
  6
CONTINUOUS
 10
202.6077226722
 20
225.7800683788
 11
202.6077226722
 21
226.0779411009
  0
LINE
  5
3AE
100
AcDbEntity
  8
0
100
AcDbLine
 62
7
  6
CONTINUOUS
 10
202.7370779252
 20
222.3545366636
 11
202.7370779252
 21
222.9502812734
  0
LINE
  5
3AF
100
AcDbEntity
  8
0
100
AcDbLine
 62
7
  6
CONTINUOUS
 10
203.6333990666
 20
224.7375153116
 11
203.6333990666
 21
223.6949622443
  0
LINE
  5
3B0
100
AcDbEntity
  8
0
100
AcDbLine
 62
7
  6
CONTINUOUS
 10
203.7719236506
 20
224.7375153116
 11
203.7719236506
 21
223.6949622443
  0
LINE
  5
3B1
100
AcDbEntity
  8
0
100
AcDbLine
 62
7
  6
CONTINUOUS
 10
204.4187028765
 20
224.4396430066
 11
204.4187028765
 21
224.7375153116
  0
LINE
  5
3B2
100
AcDbEntity
  8
0
100
AcDbLine
 62
7
  6
CONTINUOUS
 10
204.5480581296
 20
222.801345121
 11
204.5480581296
 21
223.2481535784
  0
LINE
  5
3B3
100
AcDbEntity
  8
0
100
AcDbLine
 62
7
  6
CONTINUOUS
 10
207.6434281952
 20
223.2481535784
 11
207.6434281952
 21
222.801345121
  0
LINE
  5
3B4
100
AcDbEntity
  8
0
100
AcDbLine
 62
7
  6
CONTINUOUS
 10
207.7819527791
 20
223.2481535784
 11
207.7819527791
 21
222.801345121
  0
LINE
  5
3B5
100
AcDbEntity
  8
0
100
AcDbLine
 62
7
  6
CONTINUOUS
 10
208.4287305247
 20
222.6524089685
 11
208.4287305247
 21
223.3970899394
  0
LINE
  5
3B6
100
AcDbEntity
  8
0
100
AcDbLine
 62
7
  6
CONTINUOUS
 10
198.2004584535
 20
226.6736857107
 11
198.0711024603
 21
226.0779411009
  0
LINE
  5
3B7
100
AcDbEntity
  8
0
100
AcDbLine
 62
7
  6
CONTINUOUS
 10
198.3389830375
 20
226.6736857107
 11
198.2096270443
 21
226.0779411009
  0
LINE
  5
3B8
100
AcDbEntity
  8
0
100
AcDbLine
 62
7
  6
CONTINUOUS
 10
195.7426990232
 20
227.716238778
 11
193.8716251176
 21
221.684209681
  0
LINE
  5
3B9
100
AcDbEntity
  8
0
100
AcDbLine
 62
7
  6
CONTINUOUS
 10
195.8812236072
 20
227.716238778
 11
193.9408874096
 21
221.4609196445
  0
LINE
  5
3BA
100
AcDbEntity
  8
0
100
AcDbLine
 62
7
  6
CONTINUOUS
 10
153.186306719
 20
226.3758134058
 11
153.5743739585
 21
226.6736857107
  0
LINE
  5
3BB
100
AcDbEntity
  8
0
100
AcDbLine
 62
7
  6
CONTINUOUS
 10
153.324831303
 20
226.3758134058
 11
153.7128985425
 21
226.6736857107
  0
LINE
  5
3BC
100
AcDbEntity
  8
0
100
AcDbLine
 62
7
  6
CONTINUOUS
 10
155.6440654092
 20
222.0566643587
 11
155.2559981697
 21
221.7587919495
  0
LINE
  5
3BD
100
AcDbEntity
  8
0
100
AcDbLine
 62
7
  6
CONTINUOUS
 10
153.4450179653
 20
227.5673026255
 11
152.9275947326
 21
227.2694303206
  0
LINE
  5
3BE
100
AcDbEntity
  8
0
100
AcDbLine
 62
7
  6
CONTINUOUS
 10
149.6937011933
 20
224.1417707017
 11
150.211124426
 21
224.4396430066
  0
LINE
  5
3BF
100
AcDbEntity
  8
0
100
AcDbLine
 62
7
  6
CONTINUOUS
 10
149.8322257773
 20
224.1417707017
 11
150.34964901
 21
224.4396430066
  0
LINE
  5
3C0
100
AcDbEntity
  8
B-ACHSEN
100
AcDbLine
 62
2
  6
CENTER
 10
178.6408099913
 20
298.216238778
 11
84.1430197206
 21
298.216238778
  0
LINE
  5
3C1
100
AcDbEntity
  8
B-ACHSEN
100
AcDbLine
 62
2
  6
CENTER
 10
178.6408099913
 20
298.216238778
 11
272.7860228489
 21
298.216238778
  0
LINE
  5
3C2
100
AcDbEntity
  8
0
100
AcDbLine
 62
7
  6
CONTINUOUS
 10
110.5065688979
 20
323.7951408471
 11
110.9783375541
 21
323.5997278714
  0
LINE
  5
3C3
100
AcDbEntity
  8
0
100
AcDbLine
 62
7
  6
CONTINUOUS
 10
111.5182770584
 20
324.4584698062
 11
110.8892523302
 21
324.7190203796
  0
LINE
  5
3C4
100
AcDbEntity
  8
0
100
AcDbLine
 62
7
  6
CONTINUOUS
 10
109.733460688
 20
326.8213532536
 11
114.6083995775
 21
324.8020874498
  0
LINE
  5
3C5
100
AcDbEntity
  8
0
100
AcDbLine
 62
7
  6
CONTINUOUS
 10
114.9910831923
 20
325.7259674228
 11
110.1161443028
 21
327.7452332266
  0
LINE
  5
3C6
100
AcDbEntity
  8
0
100
AcDbLine
 62
7
  6
CONTINUOUS
 10
111.6468780323
 20
331.4407513567
 11
116.5218169218
 21
329.4214855529
  0
LINE
  5
3C7
100
AcDbEntity
  8
0
100
AcDbLine
 62
7
  6
CONTINUOUS
 10
120.6884674788
 20
337.256733141
 11
119.9659674481
 21
337.7364004644
  0
LINE
  5
3C8
100
AcDbEntity
  8
0
100
AcDbLine
 62
7
  6
CONTINUOUS
 10
180.6408095144
 20
372.3438985756
 11
180.4741434836
 21
373.0247495583
  0
LINE
  5
3C9
100
AcDbEntity
  8
0
100
AcDbLine
 62
7
  6
CONTINUOUS
 10
217.1728317566
 20
217.216238778
 11
217.1728317566
 21
232.216238778
  0
LINE
  5
3CA
100
AcDbEntity
  8
0
100
AcDbLine
 62
7
  6
CONTINUOUS
 10
203.7627558
 20
225.7800683788
 11
203.6333990666
 21
224.7375153116
  0
LINE
  5
3CB
100
AcDbEntity
  8
0
100
AcDbLine
 62
7
  6
CONTINUOUS
 10
203.901280384
 20
225.7800683788
 11
203.7719236506
 21
224.7375153116
  0
LINE
  5
3CC
100
AcDbEntity
  8
0
100
AcDbLine
 62
7
  6
CONTINUOUS
 10
204.4187028765
 20
224.7375153116
 11
204.5480581296
 21
225.6311322263
  0
LINE
  5
3CD
100
AcDbEntity
  8
0
100
AcDbLine
 62
7
  6
CONTINUOUS
 10
202.478366679
 20
225.1843237689
 11
202.6077226722
 21
225.7800683788
  0
LINE
  5
3CE
100
AcDbEntity
  8
0
100
AcDbLine
 62
7
  6
CONTINUOUS
 10
202.6077226722
 20
221.9077281019
 11
202.7370779252
 21
222.3545366636
  0
LINE
  5
3CF
100
AcDbEntity
  8
0
100
AcDbLine
 62
7
  6
CONTINUOUS
 10
204.5480581296
 20
225.6311322263
 11
204.677414863
 21
226.0779411009
  0
LINE
  5
3D0
100
AcDbEntity
  8
0
100
AcDbLine
 62
7
  6
CONTINUOUS
 10
204.5480581296
 20
223.2481535784
 11
204.677414863
 21
223.6949622443
  0
LINE
  5
3D1
100
AcDbEntity
  8
0
100
AcDbLine
 62
7
  6
CONTINUOUS
 10
194.4583102723
 20
220.716238778
 11
196.2692908467
 21
226.2268772534
  0
LINE
  5
3D2
100
AcDbEntity
  8
0
100
AcDbLine
 62
7
  6
CONTINUOUS
 10
204.0214663061
 20
226.5247495583
 11
203.7627558
 21
225.7800683788
  0
LINE
  5
3D3
100
AcDbEntity
  8
0
100
AcDbLine
 62
7
  6
CONTINUOUS
 10
204.1599908901
 20
226.5247495583
 11
203.901280384
 21
225.7800683788
  0
LINE
  5
3D4
100
AcDbEntity
  8
B-ACHSEN
100
AcDbLine
 62
7
  6
CONTINUOUS
 10
162.9050235537
 20
202.4804523403
 11
160.6408099913
 21
200.216238778
  0
LINE
  5
3D5
100
AcDbEntity
  8
0
100
AcDbLine
 62
7
  6
CONTINUOUS
 10
155.3853541629
 20
220.8651749434
 11
155.9027773956
 21
221.1630472875
  0
LINE
  5
3D6
100
AcDbEntity
  8
0
100
AcDbLine
 62
7
  6
CONTINUOUS
 10
155.5238787469
 20
220.8651749434
 11
156.0413019796
 21
221.1630472875
  0
LINE
  5
3D7
100
AcDbEntity
  8
0
100
AcDbLine
 62
7
  6
CONTINUOUS
 10
153.5743739585
 20
226.6736857107
 11
153.9624411981
 21
226.8226218632
  0
LINE
  5
3D8
100
AcDbEntity
  8
0
100
AcDbLine
 62
7
  6
CONTINUOUS
 10
153.7128985425
 20
226.6736857107
 11
153.9802255593
 21
226.7762830271
  0
LINE
  5
3D9
100
AcDbEntity
  8
0
100
AcDbLine
 62
7
  6
CONTINUOUS
 10
149.5643455702
 20
224.886451464
 11
149.1762783306
 21
224.7375153116
  0
LINE
  5
3DA
100
AcDbEntity
  8
0
100
AcDbLine
 62
7
  6
CONTINUOUS
 10
153.9624411981
 20
227.716238778
 11
153.4450179653
 21
227.5673026255
  0
LINE
  5
3DB
100
AcDbEntity
  8
0
100
AcDbLine
 62
7
  6
CONTINUOUS
 10
114.6083995775
 20
324.8020874498
 11
115.4584606307
 21
324.6303796768
  0
LINE
  5
3DC
100
AcDbEntity
  8
0
100
AcDbLine
 62
7
  6
CONTINUOUS
 10
116.9045003541
 20
330.3453650854
 11
112.0295614646
 21
332.3646308892
  0
LINE
  5
3DD
100
AcDbEntity
  8
0
100
AcDbLine
 62
7
  6
CONTINUOUS
 10
112.5398059195
 20
333.5964699722
 11
119.9308421795
 21
330.5350025132
  0
LINE
  5
3DE
100
AcDbEntity
  8
0
100
AcDbLine
 62
7
  6
CONTINUOUS
 10
119.3699890704
 20
331.8497076778
 11
113.8660257832
 21
334.1295239182
  0
LINE
  5
3DF
100
AcDbEntity
  8
0
100
AcDbLine
 62
7
  6
CONTINUOUS
 10
117.2244427171
 20
337.7895849893
 11
119.5832840157
 21
336.8125209319
  0
LINE
  5
3E0
100
AcDbEntity
  8
0
100
AcDbLine
 62
7
  6
CONTINUOUS
 10
119.9659674481
 20
337.7364004644
 11
117.6071261494
 21
338.7134645218
  0
LINE
  5
3E1
100
AcDbEntity
  8
0
100
AcDbLine
 62
7
  6
CONTINUOUS
 10
184.307476499
 20
367.4077281168
 11
184.1408095144
 21
367.918366473
  0
LINE
  5
3E2
100
AcDbEntity
  8
0
100
AcDbLine
 62
7
  6
CONTINUOUS
 10
207.6434281952
 20
222.801345121
 11
207.5140714617
 21
222.3545366636
  0
LINE
  5
3E3
100
AcDbEntity
  8
0
100
AcDbLine
 62
7
  6
CONTINUOUS
 10
207.7819527791
 20
222.801345121
 11
207.6525960457
 21
222.3545366636
  0
LINE
  5
3E4
100
AcDbEntity
  8
0
100
AcDbLine
 62
7
  6
CONTINUOUS
 10
208.1700200186
 20
221.9077281019
 11
208.4287305247
 21
222.6524089685
  0
LINE
  5
3E5
100
AcDbEntity
  8
0
100
AcDbLine
 62
7
  6
CONTINUOUS
 10
201.8224188622
 20
225.7800683788
 11
201.563707616
 21
225.1843237689
  0
LINE
  5
3E6
100
AcDbEntity
  8
0
100
AcDbLine
 62
7
  6
CONTINUOUS
 10
201.9609434462
 20
225.7800683788
 11
201.7022321999
 21
225.1843237689
  0
LINE
  5
3E7
100
AcDbEntity
  8
0
100
AcDbLine
 62
7
  6
CONTINUOUS
 10
201.9517748555
 20
222.3545366636
 11
201.8224188622
 21
222.0566643587
  0
LINE
  5
3E8
100
AcDbEntity
  8
0
100
AcDbLine
 62
7
  6
CONTINUOUS
 10
202.0902994394
 20
222.3545366636
 11
201.9609434462
 21
222.0566643587
  0
LINE
  5
3E9
100
AcDbEntity
  8
0
100
AcDbLine
 62
7
  6
CONTINUOUS
 10
198.8564055301
 20
226.0779411009
 11
199.1151175165
 21
226.5247495583
  0
LINE
  5
3EA
100
AcDbEntity
  8
0
100
AcDbLine
 62
7
  6
CONTINUOUS
 10
202.2196554327
 20
224.7375153116
 11
202.478366679
 21
225.1843237689
  0
LINE
  5
3EB
100
AcDbEntity
  8
0
100
AcDbLine
 62
7
  6
CONTINUOUS
 10
204.677414863
 20
226.0779411009
 11
204.9361253691
 21
226.5247495583
  0
LINE
  5
3EC
100
AcDbEntity
  8
0
100
AcDbLine
 62
7
  6
CONTINUOUS
 10
202.3490106857
 20
221.4609196445
 11
202.6077226722
 21
221.9077281019
  0
LINE
  5
3ED
100
AcDbEntity
  8
0
100
AcDbLine
 62
7
  6
CONTINUOUS
 10
204.4095335456
 20
227.1204941681
 11
204.0214663061
 21
226.5247495583
  0
LINE
  5
3EE
100
AcDbEntity
  8
0
100
AcDbLine
 62
7
  6
CONTINUOUS
 10
204.5480581296
 20
227.1204941681
 11
204.1599908901
 21
226.5247495583
  0
LINE
  5
3EF
100
AcDbEntity
  8
0
100
AcDbLine
 62
7
  6
CONTINUOUS
 10
198.7178809461
 20
227.2694303206
 11
198.2004584535
 21
226.6736857107
  0
LINE
  5
3F0
100
AcDbEntity
  8
0
100
AcDbLine
 62
7
  6
CONTINUOUS
 10
198.8564055301
 20
227.2694303206
 11
198.3389830375
 21
226.6736857107
  0
LINE
  5
3F1
100
AcDbEntity
  8
0
100
AcDbLine
 62
7
  6
CONTINUOUS
 10
201.563707616
 20
225.1843237689
 11
201.3049963697
 21
224.886451464
  0
LINE
  5
3F2
100
AcDbEntity
  8
0
100
AcDbLine
 62
7
  6
CONTINUOUS
 10
201.7022321999
 20
225.1843237689
 11
201.4435209536
 21
224.886451464
  0
LINE
  5
3F3
100
AcDbEntity
  8
0
100
AcDbLine
 62
7
  6
CONTINUOUS
 10
199.1151175165
 20
226.5247495583
 11
199.5031847561
 21
226.8226218632
  0
LINE
  5
3F4
100
AcDbEntity
  8
0
100
AcDbLine
 62
7
  6
CONTINUOUS
 10
199.2353041789
 20
227.5673026255
 11
198.7178809461
 21
227.2694303206
  0
LINE
  5
3F5
100
AcDbEntity
  8
0
100
AcDbLine
 62
7
  6
CONTINUOUS
 10
199.3738287628
 20
227.5673026255
 11
198.8564055301
 21
227.2694303206
  0
LINE
  5
3F6
100
AcDbEntity
  8
0
100
AcDbLine
 62
7
  6
CONTINUOUS
 10
155.2559981697
 20
221.7587919495
 11
154.7385756771
 21
221.609855797
  0
LINE
  5
3F7
100
AcDbEntity
  8
0
100
AcDbLine
 62
7
  6
CONTINUOUS
 10
116.6142524932
 20
322.5280467116
 11
112.4233372506
 21
322.6403923435
  0
LINE
  5
3F8
100
AcDbEntity
  8
0
100
AcDbLine
 62
7
  6
CONTINUOUS
 10
112.3551658707
 20
321.5862373952
 11
116.1677883671
 21
321.4501869634
  0
LINE
  5
3F9
100
AcDbEntity
  8
0
100
AcDbLine
 62
7
  6
CONTINUOUS
 10
109.971020171
 20
323.8365738651
 11
110.5065688979
 21
323.7951408471
  0
LINE
  5
3FA
100
AcDbEntity
  8
0
100
AcDbLine
 62
7
  6
CONTINUOUS
 10
110.8892523302
 20
324.7190203796
 11
110.3537036033
 21
324.7604533976
  0
LINE
  5
3FB
100
AcDbEntity
  8
0
100
AcDbLine
 62
7
  6
CONTINUOUS
 10
115.6838878086
 20
325.6193963666
 11
114.9910831923
 21
325.7259674228
  0
LINE
  5
3FC
100
AcDbEntity
  8
0
100
AcDbLine
 62
7
  6
CONTINUOUS
 10
183.307476499
 20
367.5779408625
 11
183.6408095144
 21
366.8970898202
  0
LINE
  5
3FD
100
AcDbEntity
  8
B-ACHSEN
100
AcDbLine
 62
7
  6
CONTINUOUS
 10
228.6408099913
 20
212.216238778
 11
228.6408099913
 21
223.4561558701
  0
LINE
  5
3FE
100
AcDbEntity
  8
0
100
AcDbLine
 62
7
  6
CONTINUOUS
 10
207.5140714617
 20
222.3545366636
 11
207.2553609556
 21
221.9077281019
  0
LINE
  5
3FF
100
AcDbEntity
  8
0
100
AcDbLine
 62
7
  6
CONTINUOUS
 10
207.6525960457
 20
222.3545366636
 11
207.3938855396
 21
221.9077281019
  0
LINE
  5
400
100
AcDbEntity
  8
0
100
AcDbLine
 62
7
  6
CONTINUOUS
 10
207.7819527791
 20
221.3119834399
 11
208.1700200186
 21
221.9077281019
  0
LINE
  5
401
100
AcDbEntity
  8
0
100
AcDbLine
 62
7
  6
CONTINUOUS
 10
201.8224188622
 20
222.0566643587
 11
201.563707616
 21
221.7587919495
  0
LINE
  5
402
100
AcDbEntity
  8
0
100
AcDbLine
 62
7
  6
CONTINUOUS
 10
201.9609434462
 20
222.0566643587
 11
201.7022321999
 21
221.7587919495
  0
LINE
  5
403
100
AcDbEntity
  8
0
100
AcDbLine
 62
7
  6
CONTINUOUS
 10
204.677414863
 20
223.6949622443
 11
204.9361253691
 21
223.9928345493
  0
LINE
  5
404
100
AcDbEntity
  8
0
100
AcDbLine
 62
7
  6
CONTINUOUS
 10
201.7022321999
 20
224.2907068542
 11
202.2196554327
 21
224.7375153116
  0
LINE
  5
405
100
AcDbEntity
  8
0
100
AcDbLine
 62
7
  6
CONTINUOUS
 10
204.9361253691
 20
226.5247495583
 11
205.3241926086
 21
226.8226218632
  0
LINE
  5
406
100
AcDbEntity
  8
0
100
AcDbLine
 62
7
  6
CONTINUOUS
 10
205.0563127716
 20
225.0353876165
 11
204.4187028765
 21
224.545971583
  0
LINE
  5
407
100
AcDbEntity
  8
0
100
AcDbLine
 62
7
  6
CONTINUOUS
 10
205.1948373556
 20
225.0353876165
 11
204.4187028765
 21
224.4396430066
  0
LINE
  5
408
100
AcDbEntity
  8
0
100
AcDbLine
 62
7
  6
CONTINUOUS
 10
204.9361253691
 20
223.9928345493
 11
205.3241926086
 21
224.2907068542
  0
LINE
  5
409
100
AcDbEntity
  8
0
100
AcDbLine
 62
7
  6
CONTINUOUS
 10
201.9609434462
 20
221.1630472875
 11
202.3490106857
 21
221.4609196445
  0
LINE
  5
40A
100
AcDbEntity
  8
0
100
AcDbLine
 62
7
  6
CONTINUOUS
 10
207.2553609556
 20
221.9077281019
 11
206.8672937161
 21
221.609855797
  0
LINE
  5
40B
100
AcDbEntity
  8
0
100
AcDbLine
 62
7
  6
CONTINUOUS
 10
207.3938855396
 20
221.9077281019
 11
207.0058183001
 21
221.609855797
  0
LINE
  5
40C
100
AcDbEntity
  8
0
100
AcDbLine
 62
7
  6
CONTINUOUS
 10
205.0563127716
 20
227.5673026255
 11
204.4095335456
 21
227.1204941681
  0
LINE
  5
40D
100
AcDbEntity
  8
0
100
AcDbLine
 62
7
  6
CONTINUOUS
 10
205.1948373556
 20
227.5673026255
 11
204.5480581296
 21
227.1204941681
  0
LINE
  5
40E
100
AcDbEntity
  8
0
100
AcDbLine
 62
7
  6
CONTINUOUS
 10
207.1351735531
 20
220.8651749434
 11
207.7819527791
 21
221.3119834399
  0
LINE
  5
40F
100
AcDbEntity
  8
0
100
AcDbLine
 62
7
  6
CONTINUOUS
 10
201.563707616
 20
221.7587919495
 11
201.3049963697
 21
221.609855797
  0
LINE
  5
410
100
AcDbEntity
  8
0
100
AcDbLine
 62
7
  6
CONTINUOUS
 10
201.7022321999
 20
221.7587919495
 11
201.4435209536
 21
221.609855797
  0
LINE
  5
411
100
AcDbEntity
  8
0
100
AcDbLine
 62
7
  6
CONTINUOUS
 10
201.4435209536
 20
220.8651749434
 11
201.9609434462
 21
221.1630472875
  0
LINE
  5
412
100
AcDbEntity
  8
0
100
AcDbLine
 62
7
  6
CONTINUOUS
 10
205.3241926086
 20
226.8226218632
 11
205.7122598481
 21
226.9715580157
  0
LINE
  5
413
100
AcDbEntity
  8
0
100
AcDbLine
 62
7
  6
CONTINUOUS
 10
201.3049963697
 20
224.886451464
 11
200.6496021134
 21
224.6349179952
  0
LINE
  5
414
100
AcDbEntity
  8
0
100
AcDbLine
 62
7
  6
CONTINUOUS
 10
201.4435209536
 20
224.886451464
 11
200.6673864746
 21
224.5885791591
  0
LINE
  5
415
100
AcDbEntity
  8
0
100
AcDbLine
 62
7
  6
CONTINUOUS
 10
205.3241926086
 20
224.2907068542
 11
205.7122598481
 21
224.4396430066
  0
LINE
  5
416
100
AcDbEntity
  8
0
100
AcDbLine
 62
7
  6
CONTINUOUS
 10
206.8672937161
 20
221.609855797
 11
206.5999666994
 21
221.5072584807
  0
LINE
  5
417
100
AcDbEntity
  8
0
100
AcDbLine
 62
7
  6
CONTINUOUS
 10
207.0058183001
 20
221.609855797
 11
206.6177510606
 21
221.4609196445
  0
LINE
  5
418
100
AcDbEntity
  8
0
100
AcDbLine
 62
7
  6
CONTINUOUS
 10
200.9260977209
 20
220.716238778
 11
201.4435209536
 21
220.8651749434
  0
LINE
  5
419
100
AcDbEntity
  8
0
100
AcDbLine
 62
7
  6
CONTINUOUS
 10
115.4584606307
 20
324.6303796768
 11
116.2150462333
 21
324.6777892313
  0
LINE
  5
41A
100
AcDbEntity
  8
0
100
AcDbLine
 62
7
  6
CONTINUOUS
 10
116.5316381007
 20
337.8961560456
 11
117.2244427171
 21
337.7895849893
  0
LINE
  5
41B
100
AcDbEntity
  8
0
100
AcDbLine
 62
7
  6
CONTINUOUS
 10
117.6071261494
 20
338.7134645218
 11
116.7570650207
 21
338.8851733583
  0
LINE
  5
41C
100
AcDbEntity
  8
0
100
AcDbLine
 62
7
  6
CONTINUOUS
 10
179.307476499
 20
372.8545368126
 11
179.6408095144
 21
372.3438985756
  0
LINE
  5
41D
100
AcDbEntity
  8
0
100
AcDbLine
 62
7
  6
CONTINUOUS
 10
110.3537036033
 20
324.7604533976
 11
109.5333375996
 21
324.5590640223
  0
LINE
  5
41E
100
AcDbEntity
  8
0
100
AcDbLine
 62
7
  6
CONTINUOUS
 10
116.2832174118
 20
325.7319440049
 11
115.6838878086
 21
325.6193963666
  0
LINE
  5
41F
100
AcDbEntity
  8
RUNDUNGEN
100
AcDbLine
 62
7
  6
CONTINUOUS
 10
242.3736449003
 20
237.8045869441
 11
265.8118437375
 21
294.3894044543
  0
LINE
  5
420
100
AcDbEntity
  8
0
100
AcDbLine
 62
7
  6
CONTINUOUS
 10
115.9323080571
 20
337.7836085897
 11
116.5316381007
 21
337.8961560456
  0
LINE
  5
421
100
AcDbEntity
  8
0
100
AcDbLine
 62
7
  6
CONTINUOUS
 10
116.7570650207
 20
338.8851733583
 11
116.0004793457
 21
338.8377633177
  0
LINE
  5
422
100
AcDbEntity
  8
0
100
AcDbLine
 62
7
  6
CONTINUOUS
 10
180.4741434836
 20
373.0247495583
 11
179.807476499
 21
373.705600541
  0
LINE
  5
423
100
AcDbEntity
  8
0
100
AcDbLine
 62
7
  6
CONTINUOUS
 10
183.6408095144
 20
366.8970898202
 11
184.1408095144
 21
366.5566642991
  0
LINE
  5
424
100
AcDbEntity
  8
0
100
AcDbLine
 62
7
  6
CONTINUOUS
 10
184.807476499
 20
367.0673026255
 11
184.307476499
 21
367.4077281168
  0
LINE
  5
425
100
AcDbEntity
  8
0
100
AcDbLine
 62
7
  6
CONTINUOUS
 10
178.807476499
 20
373.194962304
 11
179.307476499
 21
372.8545368126
  0
LINE
  5
426
100
AcDbEntity
  8
B-ACHSEN
100
AcDbLine
 62
7
  6
CONTINUOUS
 10
196.6408099913
 20
161.216238778
 11
193.6408099913
 21
158.216238778
  0
LINE
  5
427
100
AcDbEntity
  8
0
100
AcDbLine
 62
7
  6
CONTINUOUS
 10
172.307476499
 20
366.216238778
 11
173.307476499
 21
366.216238778
  0
LINE
  5
428
100
AcDbEntity
  8
0
100
AcDbLine
 62
7
  6
CONTINUOUS
 10
174.6408097529
 20
366.216238778
 11
180.6408095144
 21
366.216238778
  0
LINE
  5
429
100
AcDbEntity
  8
0
100
AcDbLine
 62
7
  6
CONTINUOUS
 10
180.6408095144
 20
367.0673026255
 11
175.9741430067
 21
367.0673026255
  0
LINE
  5
42A
100
AcDbEntity
  8
0
100
AcDbLine
 62
7
  6
CONTINUOUS
 10
184.6408095144
 20
366.3864515385
 11
185.6408095144
 21
366.216238778
  0
LINE
  5
42B
100
AcDbEntity
  8
0
100
AcDbLine
 62
7
  6
CONTINUOUS
 10
185.6408095144
 20
366.8970898202
 11
184.807476499
 21
367.0673026255
  0
LINE
  5
42C
100
AcDbEntity
  8
0
100
AcDbLine
 62
7
  6
CONTINUOUS
 10
184.1408095144
 20
366.5566642991
 11
184.6408095144
 21
366.3864515385
  0
LINE
  5
42D
100
AcDbEntity
  8
0
100
AcDbLine
 62
7
  6
CONTINUOUS
 10
179.807476499
 20
373.705600541
 11
179.1408099913
 21
374.0460260323
  0
LINE
  5
42E
100
AcDbEntity
  8
RUNDUNGEN
100
AcDbLine
 62
7
  6
CONTINUOUS
 10
242.986019577
 20
357.1494873622
 11
265.8118437375
 21
302.0430731016
  0
LINE
  5
42F
100
AcDbEntity
  8
0
100
AcDbLine
 62
7
  6
CONTINUOUS
 10
176.4741430067
 20
373.194962304
 11
177.307476499
 21
373.3651750496
  0
LINE
  5
430
100
AcDbEntity
  8
0
100
AcDbLine
 62
7
  6
CONTINUOUS
 10
177.4741430067
 20
374.216238778
 11
176.307476499
 21
374.0460260323
  0
LINE
  5
431
100
AcDbEntity
  8
0
100
AcDbLine
 62
7
  6
CONTINUOUS
 10
181.9741434836
 20
370.9821961334
 11
183.307476499
 21
370.9821961334
  0
LINE
  5
432
100
AcDbEntity
  8
0
100
AcDbLine
 62
7
  6
CONTINUOUS
 10
184.1408095144
 20
370.9821961334
 11
185.9741434836
 21
370.9821961334
  0
LINE
  5
433
100
AcDbEntity
  8
0
100
AcDbLine
 62
7
  6
CONTINUOUS
 10
185.9741434836
 20
371.6630471161
 11
184.1408095144
 21
371.6630471161
  0
LINE
  5
434
100
AcDbEntity
  8
0
100
AcDbLine
 62
7
  6
CONTINUOUS
 10
183.307476499
 20
371.6630471161
 11
181.9741434836
 21
371.6630471161
  0
LINE
  5
435
100
AcDbEntity
  8
0
100
AcDbLine
 62
7
  6
CONTINUOUS
 10
174.807476499
 20
372.3438985756
 11
175.6408099913
 21
372.3438985756
  0
LINE
  5
436
100
AcDbEntity
  8
0
100
AcDbLine
 62
7
  6
CONTINUOUS
 10
184.1408095144
 20
373.0247495583
 11
183.307476499
 21
373.0247495583
  0
LINE
  5
437
100
AcDbEntity
  8
0
100
AcDbLine
 62
7
  6
CONTINUOUS
 10
177.307476499
 20
373.3651750496
 11
177.9741430067
 21
373.3651750496
  0
LINE
  5
438
100
AcDbEntity
  8
0
100
AcDbLine
 62
7
  6
CONTINUOUS
 10
178.1408099913
 20
374.216238778
 11
177.4741430067
 21
374.216238778
  0
LINE
  5
439
100
AcDbEntity
  8
0
100
AcDbLine
 62
7
  6
CONTINUOUS
 10
173.307476499
 20
374.216238778
 11
172.307476499
 21
374.216238778
  0
LINE
  5
43A
100
AcDbEntity
  8
0
100
AcDbLine
 62
7
  6
CONTINUOUS
 10
179.1408099913
 20
374.0460260323
 11
178.1408099913
 21
374.216238778
  0
LINE
  5
43B
100
AcDbEntity
  8
0
100
AcDbLine
 62
7
  6
CONTINUOUS
 10
177.9741430067
 20
373.3651750496
 11
178.807476499
 21
373.194962304
  0
LINE
  5
43C
100
AcDbEntity
  8
RUNDUNGEN
100
AcDbLine
 62
7
  6
CONTINUOUS
 10
182.4676443149
 20
385.3872725241
 11
237.5740585755
 21
362.5614483636
  0
LINE
  5
43D
100
AcDbEntity
  8
B-ACHSEN
100
AcDbLine
 62
7
  6
CONTINUOUS
 10
386.52066838
 20
158.216238778
 11
416.52066838
 21
158.216238778
  0
LINE
  5
43E
100
AcDbEntity
  8
B-ACHSEN
100
AcDbLine
 62
7
  6
CONTINUOUS
 10
383.52066838
 20
161.216238778
 11
419.52066838
 21
161.216238778
  0
LINE
  5
43F
100
AcDbEntity
  8
B-ACHSEN
100
AcDbLine
 62
7
  6
CONTINUOUS
 10
383.52066838
 20
161.216238778
 11
386.52066838
 21
158.216238778
  0
LINE
  5
440
100
AcDbEntity
  8
B-ACHSEN
100
AcDbLine
 62
7
  6
CONTINUOUS
 10
383.52066838
 20
200.216238778
 11
419.52066838
 21
200.216238778
  0
LINE
  5
441
100
AcDbEntity
  8
B-ACHSEN
100
AcDbLine
 62
7
  6
CONTINUOUS
 10
351.5215423105
 20
212.216238778
 11
451.5197944495
 21
212.216238778
  0
LINE
  5
442
100
AcDbEntity
  8
B-ACHSEN
100
AcDbLine
 62
7
  6
CONTINUOUS
 10
351.52066838
 20
212.216238778
 11
351.52066838
 21
235.339355372
  0
LINE
  5
443
100
AcDbEntity
  8
0
100
AcDbLine
 62
7
  6
CONTINUOUS
 10
451.3604115575
 20
217.216238778
 11
433.3841788147
 21
217.216238778
  0
LINE
  5
444
100
AcDbEntity
  8
0
100
AcDbLine
 62
7
  6
CONTINUOUS
 10
435.5503315136
 20
220.716238778
 11
436.2204648001
 21
220.716238778
  0
LINE
  5
445
100
AcDbEntity
  8
0
100
AcDbLine
 62
7
  6
CONTINUOUS
 10
436.4930682335
 20
220.716238778
 11
437.16320152
 21
220.716238778
  0
LINE
  5
446
100
AcDbEntity
  8
0
100
AcDbLine
 62
7
  6
CONTINUOUS
 10
438.5805567879
 20
220.716238778
 11
439.3180285424
 21
220.716238778
  0
LINE
  5
447
100
AcDbEntity
  8
0
100
AcDbLine
 62
7
  6
CONTINUOUS
 10
440.533368503
 20
220.716238778
 11
441.3381787253
 21
220.716238778
  0
LINE
  5
448
100
AcDbEntity
  8
0
100
AcDbLine
 62
7
  6
CONTINUOUS
 10
444.1023003643
 20
220.716238778
 11
446.7925838338
 21
220.716238778
  0
LINE
  5
449
100
AcDbEntity
  8
0
100
AcDbLine
 62
7
  6
CONTINUOUS
 10
448.1426007301
 20
220.716238778
 11
448.8127347873
 21
220.716238778
  0
LINE
  5
44A
100
AcDbEntity
  8
0
100
AcDbLine
 62
7
  6
CONTINUOUS
 10
440.1966769343
 20
220.8651749434
 11
440.4627801842
 21
220.8651749434
  0
LINE
  5
44B
100
AcDbEntity
  8
0
100
AcDbLine
 62
7
  6
CONTINUOUS
 10
439.8599853656
 20
221.3119834399
 11
440.1260886155
 21
221.3119834399
  0
LINE
  5
44C
100
AcDbEntity
  8
0
100
AcDbLine
 62
7
  6
CONTINUOUS
 10
446.7925838338
 20
221.609855797
 11
444.7724336509
 21
221.609855797
  0
LINE
  5
44D
100
AcDbEntity
  8
0
100
AcDbLine
 62
7
  6
CONTINUOUS
 10
441.3381787253
 20
221.609855797
 11
440.7994717529
 21
221.609855797
  0
LINE
  5
44E
100
AcDbEntity
  8
0
100
AcDbLine
 62
7
  6
CONTINUOUS
 10
441.3414285761
 20
221.7587919495
 11
441.6075318261
 21
221.7587919495
  0
LINE
  5
44F
100
AcDbEntity
  8
0
100
AcDbLine
 62
7
  6
CONTINUOUS
 10
439.6579703473
 20
222.0566643587
 11
439.9240735972
 21
222.0566643587
  0
LINE
  5
450
100
AcDbEntity
  8
0
100
AcDbLine
 62
7
  6
CONTINUOUS
 10
441.5434435944
 20
222.0566643587
 11
441.8095468444
 21
222.0566643587
  0
LINE
  5
451
100
AcDbEntity
  8
0
100
AcDbLine
 62
7
  6
CONTINUOUS
 10
441.6781205302
 20
222.5034728161
 11
441.9442237801
 21
222.5034728161
  0
LINE
  5
452
100
AcDbEntity
  8
0
100
AcDbLine
 62
7
  6
CONTINUOUS
 10
439.5906318794
 20
222.6524089685
 11
440.2607651659
 21
222.6524089685
  0
LINE
  5
453
100
AcDbEntity
  8
0
100
AcDbLine
 62
7
  6
CONTINUOUS
 10
441.6781205302
 20
222.9502812734
 11
441.9442237801
 21
222.9502812734
  0
LINE
  5
454
100
AcDbEntity
  8
0
100
AcDbLine
 62
7
  6
CONTINUOUS
 10
442.6208571538
 20
223.2481535784
 11
443.8296974126
 21
223.2481535784
  0
LINE
  5
455
100
AcDbEntity
  8
0
100
AcDbLine
 62
7
  6
CONTINUOUS
 10
441.5434435944
 20
223.3970899394
 11
441.8095468444
 21
223.3970899394
  0
LINE
  5
456
100
AcDbEntity
  8
0
100
AcDbLine
 62
7
  6
CONTINUOUS
 10
441.3414285761
 20
223.6949622443
 11
441.6075318261
 21
223.6949622443
  0
LINE
  5
457
100
AcDbEntity
  8
0
100
AcDbLine
 62
7
  6
CONTINUOUS
 10
437.16320152
 20
223.8438983968
 11
438.3079532582
 21
223.8438983968
  0
LINE
  5
458
100
AcDbEntity
  8
0
100
AcDbLine
 62
7
  6
CONTINUOUS
 10
440.6680454387
 20
223.8438983968
 11
441.3381787253
 21
223.8438983968
  0
LINE
  5
459
100
AcDbEntity
  8
0
100
AcDbLine
 62
7
  6
CONTINUOUS
 10
440.3986919526
 20
223.9928345493
 11
440.6647952025
 21
223.9928345493
  0
LINE
  5
45A
100
AcDbEntity
  8
0
100
AcDbLine
 62
7
  6
CONTINUOUS
 10
442.6208571538
 20
223.9928345493
 11
443.8296974126
 21
223.9928345493
  0
LINE
  5
45B
100
AcDbEntity
  8
0
100
AcDbLine
 62
7
  6
CONTINUOUS
 10
440.1293384664
 20
224.2907068542
 11
440.3954417164
 21
224.2907068542
  0
LINE
  5
45C
100
AcDbEntity
  8
0
100
AcDbLine
 62
7
  6
CONTINUOUS
 10
441.3381787253
 20
224.7375153116
 11
440.9341486887
 21
224.7375153116
  0
LINE
  5
45D
100
AcDbEntity
  8
0
100
AcDbLine
 62
7
  6
CONTINUOUS
 10
438.4426300013
 20
224.7375153116
 11
437.16320152
 21
224.7375153116
  0
LINE
  5
45E
100
AcDbEntity
  8
0
100
AcDbLine
 62
7
  6
CONTINUOUS
 10
438.3785417697
 20
224.886451464
 11
438.6446450196
 21
224.886451464
  0
LINE
  5
45F
100
AcDbEntity
  8
0
100
AcDbLine
 62
7
  6
CONTINUOUS
 10
439.8599853656
 20
224.886451464
 11
440.1260886155
 21
224.886451464
  0
LINE
  5
460
100
AcDbEntity
  8
0
100
AcDbLine
 62
7
  6
CONTINUOUS
 10
438.5132185127
 20
225.1843237689
 11
438.7793217627
 21
225.1843237689
  0
LINE
  5
461
100
AcDbEntity
  8
0
100
AcDbLine
 62
7
  6
CONTINUOUS
 10
439.7926468977
 20
225.4821960738
 11
440.0587501476
 21
225.4821960738
  0
LINE
  5
462
100
AcDbEntity
  8
0
100
AcDbLine
 62
7
  6
CONTINUOUS
 10
438.5805567879
 20
225.6311322263
 11
438.8466600379
 21
225.6311322263
  0
LINE
  5
463
100
AcDbEntity
  8
0
100
AcDbLine
 62
7
  6
CONTINUOUS
 10
438.5805567879
 20
226.0779411009
 11
438.8466600379
 21
226.0779411009
  0
LINE
  5
464
100
AcDbEntity
  8
0
100
AcDbLine
 62
7
  6
CONTINUOUS
 10
439.7926468977
 20
226.0779411009
 11
440.0587501476
 21
226.0779411009
  0
LINE
  5
465
100
AcDbEntity
  8
0
100
AcDbLine
 62
7
  6
CONTINUOUS
 10
441.4761055119
 20
226.0779411009
 11
442.1462387984
 21
226.0779411009
  0
LINE
  5
466
100
AcDbEntity
  8
0
100
AcDbLine
 62
7
  6
CONTINUOUS
 10
441.408767044
 20
226.3758134058
 11
441.674870294
 21
226.3758134058
  0
LINE
  5
467
100
AcDbEntity
  8
0
100
AcDbLine
 62
7
  6
CONTINUOUS
 10
438.5132185127
 20
226.5247495583
 11
438.7793217627
 21
226.5247495583
  0
LINE
  5
468
100
AcDbEntity
  8
0
100
AcDbLine
 62
7
  6
CONTINUOUS
 10
439.8599853656
 20
226.6736857107
 11
440.1260886155
 21
226.6736857107
  0
LINE
  5
469
100
AcDbEntity
  8
0
100
AcDbLine
 62
7
  6
CONTINUOUS
 10
441.2740904936
 20
226.6736857107
 11
441.5401937435
 21
226.6736857107
  0
LINE
  5
46A
100
AcDbEntity
  8
0
100
AcDbLine
 62
7
  6
CONTINUOUS
 10
438.3785417697
 20
226.8226218632
 11
438.6446450196
 21
226.8226218632
  0
LINE
  5
46B
100
AcDbEntity
  8
0
100
AcDbLine
 62
7
  6
CONTINUOUS
 10
440.9341486887
 20
226.8226218632
 11
441.3381787253
 21
226.8226218632
  0
LINE
  5
46C
100
AcDbEntity
  8
0
100
AcDbLine
 62
7
  6
CONTINUOUS
 10
437.16320152
 20
226.9715580157
 11
438.4426300013
 21
226.9715580157
  0
LINE
  5
46D
100
AcDbEntity
  8
0
100
AcDbLine
 62
7
  6
CONTINUOUS
 10
447.0651875561
 20
226.9715580157
 11
448.4087039801
 21
226.9715580157
  0
LINE
  5
46E
100
AcDbEntity
  8
0
100
AcDbLine
 62
7
  6
CONTINUOUS
 10
448.8127347873
 20
226.9715580157
 11
449.8901471907
 21
226.9715580157
  0
LINE
  5
46F
100
AcDbEntity
  8
0
100
AcDbLine
 62
7
  6
CONTINUOUS
 10
440.1293384664
 20
227.2694303206
 11
440.3954417164
 21
227.2694303206
  0
LINE
  5
470
100
AcDbEntity
  8
0
100
AcDbLine
 62
7
  6
CONTINUOUS
 10
440.3986919526
 20
227.5673026255
 11
440.6647952025
 21
227.5673026255
  0
LINE
  5
471
100
AcDbEntity
  8
0
100
AcDbLine
 62
7
  6
CONTINUOUS
 10
435.5503315136
 20
227.716238778
 11
436.2204648001
 21
227.716238778
  0
LINE
  5
472
100
AcDbEntity
  8
0
100
AcDbLine
 62
7
  6
CONTINUOUS
 10
436.4930682335
 20
227.716238778
 11
438.3752917261
 21
227.716238778
  0
LINE
  5
473
100
AcDbEntity
  8
0
100
AcDbLine
 62
7
  6
CONTINUOUS
 10
440.6680454387
 20
227.716238778
 11
441.2708402574
 21
227.716238778
  0
LINE
  5
474
100
AcDbEntity
  8
0
100
AcDbLine
 62
7
  6
CONTINUOUS
 10
444.1023003643
 20
227.716238778
 11
444.7724336509
 21
227.716238778
  0
LINE
  5
475
100
AcDbEntity
  8
0
100
AcDbLine
 62
7
  6
CONTINUOUS
 10
447.0651875561
 20
227.716238778
 11
449.8901471907
 21
227.716238778
  0
LINE
  5
476
100
AcDbEntity
  8
0
100
AcDbLine
 62
7
  6
CONTINUOUS
 10
433.3841788147
 20
232.216238778
 11
451.3604115575
 21
232.216238778
  0
LINE
  5
477
100
AcDbEntity
  8
RUNDUNGEN
100
AcDbLine
 62
7
  6
CONTINUOUS
 10
421.3864919552
 20
235.4561558701
 11
416.8016423027
 21
235.4561558701
  0
LINE
  5
478
100
AcDbEntity
  8
RUNDUNGEN
100
AcDbLine
 62
7
  6
CONTINUOUS
 10
386.2396944573
 20
235.4561558701
 11
381.6548448048
 21
235.4561558701
  0
LINE
  5
479
100
AcDbEntity
  8
B-ACHSEN
100
AcDbLine
 62
7
  6
CONTINUOUS
 10
417.2564548176
 20
202.4804523403
 11
419.52066838
 21
200.216238778
  0
LINE
  5
47A
100
AcDbEntity
  8
0
100
AcDbLine
 62
7
  6
CONTINUOUS
 10
440.1966769343
 20
220.8651749434
 11
440.533368503
 21
220.716238778
  0
LINE
  5
47B
100
AcDbEntity
  8
0
100
AcDbLine
 62
7
  6
CONTINUOUS
 10
440.4627801842
 20
220.8651749434
 11
440.7994717529
 21
220.716238778
  0
LINE
  5
47C
100
AcDbEntity
  8
0
100
AcDbLine
 62
7
  6
CONTINUOUS
 10
441.674870294
 20
224.5885791591
 11
441.3381787253
 21
224.7375153116
  0
LINE
  5
47D
100
AcDbEntity
  8
0
100
AcDbLine
 62
7
  6
CONTINUOUS
 10
438.7119832948
 20
227.5673026255
 11
438.3752917261
 21
227.716238778
  0
LINE
  5
47E
100
AcDbEntity
  8
0
100
AcDbLine
 62
7
  6
CONTINUOUS
 10
441.6075318261
 20
227.5673026255
 11
441.2708402574
 21
227.716238778
  0
LINE
  5
47F
100
AcDbEntity
  8
0
100
AcDbLine
 62
7
  6
CONTINUOUS
 10
440.7994717529
 20
221.609855797
 11
440.5301186521
 21
221.7587919495
  0
LINE
  5
480
100
AcDbEntity
  8
B-ACHSEN
100
AcDbLine
 62
7
  6
CONTINUOUS
 10
383.52066838
 20
200.216238778
 11
383.52066838
 21
161.216238778
  0
LINE
  5
481
100
AcDbEntity
  8
RUNDUNGEN
100
AcDbLine
 62
7
  6
CONTINUOUS
 10
382.3658336675
 20
382.2804044076
 11
377.4704098659
 21
233.9331596203
  0
LWPOLYLINE
  5
482
100
AcDbEntity
  8
RUNDUNGEN
100
AcDbPolyline
 62
7
  6
CONTINUOUS
 90
6
 70
0
 10
377.9831914986
 20
249.8437265347
 10
377.9437170126
 20
249.6531123259
 10
377.9087089714
 20
249.5396694881
 10
377.8863920376
 20
249.4808267103
 10
377.876733861
 20
249.4574362805
 10
377.8846517013
 20
249.4759108624
  0
LINE
  5
483
100
AcDbEntity
  8
B-ACHSEN
100
AcDbLine
 62
7
  6
CONTINUOUS
 10
359.9563237296
 20
245.216238778
 11
375.5953752726
 21
247.6932212038
  0
LINE
  5
484
100
AcDbEntity
  8
B-ACHSEN
100
AcDbLine
 62
7
  6
CONTINUOUS
 10
443.0850130304
 20
245.216238778
 11
427.4459601483
 21
247.6932214159
  0
LINE
  5
485
100
AcDbEntity
  8
0
100
AcDbLine
 62
7
  6
CONTINUOUS
 10
440.3986919526
 20
223.9928345493
 11
440.6680454387
 21
223.8438983968
  0
LINE
  5
486
100
AcDbEntity
  8
0
100
AcDbLine
 62
7
  6
CONTINUOUS
 10
440.6647952025
 20
223.9928345493
 11
440.9341486887
 21
223.8438983968
  0
LINE
  5
487
100
AcDbEntity
  8
0
100
AcDbLine
 62
7
  6
CONTINUOUS
 10
441.0720754753
 20
223.8438983968
 11
441.3414285761
 21
223.6949622443
  0
LINE
  5
488
100
AcDbEntity
  8
0
100
AcDbLine
 62
7
  6
CONTINUOUS
 10
441.3381787253
 20
223.8438983968
 11
441.6075318261
 21
223.6949622443
  0
LINE
  5
489
100
AcDbEntity
  8
B-ACHSEN
100
AcDbLine
 62
7
  6
CONTINUOUS
 10
386.37066838
 20
212.216238778
 11
386.37066838
 21
203.8946659027
  0
LINE
  5
48A
100
AcDbEntity
  8
0
100
AcDbLine
 62
7
  6
CONTINUOUS
 10
440.9341486887
 20
224.7375153116
 11
440.7321336704
 21
224.886451464
  0
LINE
  5
48B
100
AcDbEntity
  8
0
100
AcDbLine
 62
7
  6
CONTINUOUS
 10
438.1765267514
 20
226.9715580157
 11
438.3785417697
 21
226.8226218632
  0
LINE
  5
48C
100
AcDbEntity
  8
0
100
AcDbLine
 62
7
  6
CONTINUOUS
 10
438.4426300013
 20
226.9715580157
 11
438.6446450196
 21
226.8226218632
  0
LINE
  5
48D
100
AcDbEntity
  8
0
100
AcDbLine
 62
7
  6
CONTINUOUS
 10
441.0720754753
 20
226.8226218632
 11
441.2740904936
 21
226.6736857107
  0
LINE
  5
48E
100
AcDbEntity
  8
0
100
AcDbLine
 62
7
  6
CONTINUOUS
 10
441.3381787253
 20
226.8226218632
 11
441.5401937435
 21
226.6736857107
  0
LINE
  5
48F
100
AcDbEntity
  8
B-ACHSEN
100
AcDbLine
 62
2
  6
CENTER
 10
401.52066838
 20
391.4905010328
 11
401.52066838
 21
153.9084692704
  0
LINE
  5
490
100
AcDbEntity
  8
0
100
AcDbLine
 62
7
  6
CONTINUOUS
 10
440.1293384664
 20
224.2907068542
 11
440.3986919526
 21
223.9928345493
  0
LINE
  5
491
100
AcDbEntity
  8
0
100
AcDbLine
 62
7
  6
CONTINUOUS
 10
440.3954417164
 20
224.2907068542
 11
440.6647952025
 21
223.9928345493
  0
LINE
  5
492
100
AcDbEntity
  8
0
100
AcDbLine
 62
7
  6
CONTINUOUS
 10
441.9442237801
 20
224.2907068542
 11
441.674870294
 21
224.5885791591
  0
LINE
  5
493
100
AcDbEntity
  8
0
100
AcDbLine
 62
7
  6
CONTINUOUS
 10
439.8599853656
 20
221.3119834399
 11
440.1966769343
 21
220.8651749434
  0
LINE
  5
494
100
AcDbEntity
  8
0
100
AcDbLine
 62
7
  6
CONTINUOUS
 10
440.1260886155
 20
221.3119834399
 11
440.4627801842
 21
220.8651749434
  0
LINE
  5
495
100
AcDbEntity
  8
0
100
AcDbLine
 62
7
  6
CONTINUOUS
 10
441.3414285761
 20
223.6949622443
 11
441.5434435944
 21
223.3970899394
  0
LINE
  5
496
100
AcDbEntity
  8
0
100
AcDbLine
 62
7
  6
CONTINUOUS
 10
440.7321336704
 20
224.886451464
 11
440.5301186521
 21
225.1843237689
  0
LINE
  5
497
100
AcDbEntity
  8
0
100
AcDbLine
 62
7
  6
CONTINUOUS
 10
441.6075318261
 20
223.6949622443
 11
441.8095468444
 21
223.3970899394
  0
LINE
  5
498
100
AcDbEntity
  8
0
100
AcDbLine
 62
7
  6
CONTINUOUS
 10
438.981336781
 20
227.1204941681
 11
438.7119832948
 21
227.5673026255
  0
LINE
  5
499
100
AcDbEntity
  8
B-ACHSEN
100
AcDbLine
 62
7
  6
CONTINUOUS
 10
416.67066838
 20
212.216238778
 11
416.67066838
 21
203.8946659027
  0
LINE
  5
49A
100
AcDbEntity
  8
0
100
AcDbLine
 62
7
  6
CONTINUOUS
 10
441.8768853123
 20
227.1204941681
 11
441.6075318261
 21
227.5673026255
  0
LINE
  5
49B
100
AcDbEntity
  8
0
100
AcDbLine
 62
7
  6
CONTINUOUS
 10
440.5301186521
 20
221.7587919495
 11
440.3281036338
 21
222.2056005111
  0
LINE
  5
49C
100
AcDbEntity
  8
0
100
AcDbLine
 62
7
  6
CONTINUOUS
 10
438.3785417697
 20
226.8226218632
 11
438.5132185127
 21
226.5247495583
  0
LINE
  5
49D
100
AcDbEntity
  8
0
100
AcDbLine
 62
7
  6
CONTINUOUS
 10
438.6446450196
 20
226.8226218632
 11
438.7793217627
 21
226.5247495583
  0
LINE
  5
49E
100
AcDbEntity
  8
0
100
AcDbLine
 62
7
  6
CONTINUOUS
 10
439.8599853656
 20
224.886451464
 11
440.1293384664
 21
224.2907068542
  0
LINE
  5
49F
100
AcDbEntity
  8
0
100
AcDbLine
 62
7
  6
CONTINUOUS
 10
440.1260886155
 20
224.886451464
 11
440.3954417164
 21
224.2907068542
  0
LINE
  5
4A0
100
AcDbEntity
  8
0
100
AcDbLine
 62
7
  6
CONTINUOUS
 10
442.213576881
 20
223.6949622443
 11
441.9442237801
 21
224.2907068542
  0
LINE
  5
4A1
100
AcDbEntity
  8
0
100
AcDbLine
 62
7
  6
CONTINUOUS
 10
441.2740904936
 20
226.6736857107
 11
441.408767044
 21
226.3758134058
  0
LWPOLYLINE
  5
4A2
100
AcDbEntity
  8
RUNDUNGEN
100
AcDbPolyline
 62
7
  6
CONTINUOUS
 90
7
 70
0
 10
425.1566850261
 20
249.4759109404
 10
425.164855889
 20
249.4568461214
 10
425.1553423601
 20
249.4798261511
 10
425.1330102881
 20
249.5386088257
 10
425.0979775905
 20
249.6517641573
 10
425.0585267045
 20
249.8411913484
 10
425.0399222314
 20
250.0447337629
  0
LINE
  5
4A3
100
AcDbEntity
  8
RUNDUNGEN
100
AcDbLine
 62
7
  6
CONTINUOUS
 10
425.570926832
 20
233.9331615032
 11
420.6755030925
 21
382.2804044076
  0
LINE
  5
4A4
100
AcDbEntity
  8
0
100
AcDbLine
 62
7
  6
CONTINUOUS
 10
421.2417819438
 20
374.216238778
 11
421.5057800415
 21
366.216238778
  0
LINE
  5
4A5
100
AcDbEntity
  8
0
100
AcDbLine
 62
7
  6
CONTINUOUS
 10
422.4076987011
 20
338.8851733583
 11
423.1405694265
 21
316.6768095256
  0
LINE
  5
4A6
100
AcDbEntity
  8
B-ACHSEN
100
AcDbLine
 62
7
  6
CONTINUOUS
 10
419.52066838
 20
200.216238778
 11
419.52066838
 21
161.216238778
  0
LINE
  5
4A7
100
AcDbEntity
  8
0
100
AcDbLine
 62
7
  6
CONTINUOUS
 10
441.5401937435
 20
226.6736857107
 11
441.674870294
 21
226.3758134058
  0
LINE
  5
4A8
100
AcDbEntity
  8
0
100
AcDbLine
 62
7
  6
CONTINUOUS
 10
439.1833516066
 20
226.5247495583
 11
438.981336781
 21
227.1204941681
  0
LINE
  5
4A9
100
AcDbEntity
  8
0
100
AcDbLine
 62
7
  6
CONTINUOUS
 10
442.0789003305
 20
226.5247495583
 11
441.8768853123
 21
227.1204941681
  0
LINE
  5
4AA
100
AcDbEntity
  8
0
100
AcDbLine
 62
7
  6
CONTINUOUS
 10
441.5434435944
 20
223.3970899394
 11
441.6781205302
 21
222.9502812734
  0
LINE
  5
4AB
100
AcDbEntity
  8
0
100
AcDbLine
 62
7
  6
CONTINUOUS
 10
441.8095468444
 20
223.3970899394
 11
441.9442237801
 21
222.9502812734
  0
LINE
  5
4AC
100
AcDbEntity
  8
0
100
AcDbLine
 62
7
  6
CONTINUOUS
 10
439.6579703473
 20
222.0566643587
 11
439.8599853656
 21
221.3119834399
  0
LINE
  5
4AD
100
AcDbEntity
  8
0
100
AcDbLine
 62
7
  6
CONTINUOUS
 10
439.9240735972
 20
222.0566643587
 11
440.1260886155
 21
221.3119834399
  0
LINE
  5
4AE
100
AcDbEntity
  8
0
100
AcDbLine
 62
7
  6
CONTINUOUS
 10
433.3841788376
 20
217.216238778
 11
433.3841788376
 21
232.216238778
  0
LINE
  5
4AF
100
AcDbEntity
  8
0
100
AcDbLine
 62
7
  6
CONTINUOUS
 10
435.5503315136
 20
227.716238778
 11
435.5503315136
 21
220.716238778
  0
LINE
  5
4B0
100
AcDbEntity
  8
0
100
AcDbLine
 62
7
  6
CONTINUOUS
 10
441.408767044
 20
226.3758134058
 11
441.4761055119
 21
226.0779411009
  0
LINE
  5
4B1
100
AcDbEntity
  8
0
100
AcDbLine
 62
7
  6
CONTINUOUS
 10
442.3482534314
 20
223.0992174259
 11
442.213576881
 21
223.6949622443
  0
LINE
  5
4B2
100
AcDbEntity
  8
0
100
AcDbLine
 62
7
  6
CONTINUOUS
 10
441.674870294
 20
226.3758134058
 11
441.7422087618
 21
226.0779411009
  0
LINE
  5
4B3
100
AcDbEntity
  8
0
100
AcDbLine
 62
7
  6
CONTINUOUS
 10
439.3180285424
 20
220.716238778
 11
438.7119832948
 21
224.1417707017
  0
LINE
  5
4B4
100
AcDbEntity
  8
0
100
AcDbLine
 62
7
  6
CONTINUOUS
 10
438.0418500083
 20
223.8438983968
 11
438.5805567879
 21
220.716238778
  0
LINE
  5
4B5
100
AcDbEntity
  8
0
100
AcDbLine
 62
7
  6
CONTINUOUS
 10
438.3079532582
 20
223.8438983968
 11
438.8466600379
 21
220.716238778
  0
LINE
  5
4B6
100
AcDbEntity
  8
0
100
AcDbLine
 62
7
  6
CONTINUOUS
 10
438.5132185127
 20
226.5247495583
 11
438.5805567879
 21
226.0779411009
  0
LINE
  5
4B7
100
AcDbEntity
  8
0
100
AcDbLine
 62
7
  6
CONTINUOUS
 10
438.7793217627
 20
226.5247495583
 11
438.8466600379
 21
226.0779411009
  0
LINE
  5
4B8
100
AcDbEntity
  8
0
100
AcDbLine
 62
7
  6
CONTINUOUS
 10
439.2506900745
 20
226.0779411009
 11
439.1833516066
 21
226.5247495583
  0
LINE
  5
4B9
100
AcDbEntity
  8
0
100
AcDbLine
 62
7
  6
CONTINUOUS
 10
440.3281036338
 20
222.2056005111
 11
440.2607651659
 21
222.6524089685
  0
LINE
  5
4BA
100
AcDbEntity
  8
0
100
AcDbLine
 62
7
  6
CONTINUOUS
 10
440.5301186521
 20
225.1843237689
 11
440.4627801842
 21
225.6311322263
  0
LINE
  5
4BB
100
AcDbEntity
  8
0
100
AcDbLine
 62
7
  6
CONTINUOUS
 10
442.1462387984
 20
226.0779411009
 11
442.0789003305
 21
226.5247495583
  0
LINE
  5
4BC
100
AcDbEntity
  8
0
100
AcDbLine
 62
7
  6
CONTINUOUS
 10
439.5906318794
 20
222.6524089685
 11
439.6579703473
 21
222.0566643587
  0
LINE
  5
4BD
100
AcDbEntity
  8
0
100
AcDbLine
 62
7
  6
CONTINUOUS
 10
439.8567351294
 20
222.6524089685
 11
439.9240735972
 21
222.0566643587
  0
LINE
  5
4BE
100
AcDbEntity
  8
0
100
AcDbLine
 62
7
  6
CONTINUOUS
 10
439.7926468977
 20
225.4821960738
 11
439.8599853656
 21
224.886451464
  0
LINE
  5
4BF
100
AcDbEntity
  8
0
100
AcDbLine
 62
7
  6
CONTINUOUS
 10
440.0587501476
 20
225.4821960738
 11
440.1260886155
 21
224.886451464
  0
LINE
  5
4C0
100
AcDbEntity
  8
0
100
AcDbLine
 62
7
  6
CONTINUOUS
 10
435.8164347635
 20
227.716238778
 11
435.8164347635
 21
220.716238778
  0
LINE
  5
4C1
100
AcDbEntity
  8
0
100
AcDbLine
 62
7
  6
CONTINUOUS
 10
436.2204648001
 20
220.716238778
 11
436.2204648001
 21
227.716238778
  0
LINE
  5
4C2
100
AcDbEntity
  8
0
100
AcDbLine
 62
7
  6
CONTINUOUS
 10
436.4930682335
 20
227.716238778
 11
436.4930682335
 21
220.716238778
  0
LINE
  5
4C3
100
AcDbEntity
  8
0
100
AcDbLine
 62
7
  6
CONTINUOUS
 10
436.7591714835
 20
227.716238778
 11
436.7591714835
 21
220.716238778
  0
LINE
  5
4C4
100
AcDbEntity
  8
0
100
AcDbLine
 62
7
  6
CONTINUOUS
 10
437.16320152
 20
220.716238778
 11
437.16320152
 21
223.8438983968
  0
LINE
  5
4C5
100
AcDbEntity
  8
0
100
AcDbLine
 62
7
  6
CONTINUOUS
 10
437.16320152
 20
224.7375153116
 11
437.16320152
 21
226.9715580157
  0
LINE
  5
4C6
100
AcDbEntity
  8
0
100
AcDbLine
 62
7
  6
CONTINUOUS
 10
438.5805567879
 20
226.0779411009
 11
438.5805567879
 21
225.6311322263
  0
LINE
  5
4C7
100
AcDbEntity
  8
0
100
AcDbLine
 62
7
  6
CONTINUOUS
 10
438.8466600379
 20
226.0779411009
 11
438.8466600379
 21
225.6311322263
  0
LINE
  5
4C8
100
AcDbEntity
  8
0
100
AcDbLine
 62
7
  6
CONTINUOUS
 10
439.2506900745
 20
225.4821960738
 11
439.2506900745
 21
226.0779411009
  0
LINE
  5
4C9
100
AcDbEntity
  8
0
100
AcDbLine
 62
7
  6
CONTINUOUS
 10
439.7926468977
 20
226.0779411009
 11
439.7926468977
 21
225.4821960738
  0
LINE
  5
4CA
100
AcDbEntity
  8
0
100
AcDbLine
 62
7
  6
CONTINUOUS
 10
440.0587501476
 20
226.0779411009
 11
440.0587501476
 21
225.4821960738
  0
LINE
  5
4CB
100
AcDbEntity
  8
0
100
AcDbLine
 62
7
  6
CONTINUOUS
 10
440.4627801842
 20
225.6311322263
 11
440.4627801842
 21
225.9290045312
  0
LINE
  5
4CC
100
AcDbEntity
  8
0
100
AcDbLine
 62
7
  6
CONTINUOUS
 10
441.6781205302
 20
222.9502812734
 11
441.6781205302
 21
222.5034728161
  0
LINE
  5
4CD
100
AcDbEntity
  8
0
100
AcDbLine
 62
7
  6
CONTINUOUS
 10
441.9442237801
 20
222.9502812734
 11
441.9442237801
 21
222.5034728161
  0
LINE
  5
4CE
100
AcDbEntity
  8
0
100
AcDbLine
 62
7
  6
CONTINUOUS
 10
442.3482534314
 20
222.3545366636
 11
442.3482534314
 21
223.0992174259
  0
LINE
  5
4CF
100
AcDbEntity
  8
0
100
AcDbLine
 62
7
  6
CONTINUOUS
 10
442.6208571538
 20
223.9928345493
 11
442.6208571538
 21
223.2481535784
  0
LINE
  5
4D0
100
AcDbEntity
  8
0
100
AcDbLine
 62
7
  6
CONTINUOUS
 10
442.8869604037
 20
223.9928345493
 11
442.8869604037
 21
223.2481535784
  0
LINE
  5
4D1
100
AcDbEntity
  8
0
100
AcDbLine
 62
7
  6
CONTINUOUS
 10
443.8296974126
 20
223.2481535784
 11
443.8296974126
 21
223.9928345493
  0
LINE
  5
4D2
100
AcDbEntity
  8
B-ACHSEN
100
AcDbLine
 62
7
  6
CONTINUOUS
 10
385.7848819424
 20
202.4804523403
 11
383.52066838
 21
200.216238778
  0
LINE
  5
4D3
100
AcDbEntity
  8
0
100
AcDbLine
 62
7
  6
CONTINUOUS
 10
444.1023003643
 20
227.716238778
 11
444.1023003643
 21
220.716238778
  0
LINE
  5
4D4
100
AcDbEntity
  8
0
100
AcDbLine
 62
7
  6
CONTINUOUS
 10
444.3684036143
 20
227.716238778
 11
444.3684036143
 21
220.716238778
  0
LINE
  5
4D5
100
AcDbEntity
  8
0
100
AcDbLine
 62
7
  6
CONTINUOUS
 10
444.7724336509
 20
221.609855797
 11
444.7724336509
 21
227.716238778
  0
LINE
  5
4D6
100
AcDbEntity
  8
0
100
AcDbLine
 62
7
  6
CONTINUOUS
 10
446.7925838338
 20
220.716238778
 11
446.7925838338
 21
221.609855797
  0
LINE
  5
4D7
100
AcDbEntity
  8
0
100
AcDbLine
 62
7
  6
CONTINUOUS
 10
447.0651875561
 20
227.716238778
 11
447.0651875561
 21
226.9715580157
  0
LINE
  5
4D8
100
AcDbEntity
  8
0
100
AcDbLine
 62
7
  6
CONTINUOUS
 10
447.3312908061
 20
227.716238778
 11
447.3312908061
 21
226.9715580157
  0
LINE
  5
4D9
100
AcDbEntity
  8
0
100
AcDbLine
 62
7
  6
CONTINUOUS
 10
448.1426007301
 20
226.9715580157
 11
448.1426007301
 21
220.716238778
  0
LINE
  5
4DA
100
AcDbEntity
  8
0
100
AcDbLine
 62
7
  6
CONTINUOUS
 10
448.4087039801
 20
226.9715580157
 11
448.4087039801
 21
220.716238778
  0
LINE
  5
4DB
100
AcDbEntity
  8
0
100
AcDbLine
 62
7
  6
CONTINUOUS
 10
448.8127347873
 20
220.716238778
 11
448.8127347873
 21
226.9715580157
  0
LINE
  5
4DC
100
AcDbEntity
  8
0
100
AcDbLine
 62
7
  6
CONTINUOUS
 10
449.8901471907
 20
226.9715580157
 11
449.8901471907
 21
227.716238778
  0
LINE
  5
4DD
100
AcDbEntity
  8
0
100
AcDbLine
 62
7
  6
CONTINUOUS
 10
451.3604115575
 20
217.216238778
 11
451.3604115575
 21
232.216238778
  0
LINE
  5
4DE
100
AcDbEntity
  8
B-ACHSEN
100
AcDbLine
 62
7
  6
CONTINUOUS
 10
451.52066838
 20
212.216238778
 11
451.52066838
 21
235.339355372
  0
LINE
  5
4DF
100
AcDbEntity
  8
0
100
AcDbLine
 62
7
  6
CONTINUOUS
 10
439.8599853656
 20
226.6736857107
 11
439.7926468977
 21
226.0779411009
  0
LINE
  5
4E0
100
AcDbEntity
  8
0
100
AcDbLine
 62
7
  6
CONTINUOUS
 10
440.1260886155
 20
226.6736857107
 11
440.0587501476
 21
226.0779411009
  0
LINE
  5
4E1
100
AcDbEntity
  8
0
100
AcDbLine
 62
7
  6
CONTINUOUS
 10
438.5805567879
 20
225.6311322263
 11
438.5132185127
 21
225.1843237689
  0
LINE
  5
4E2
100
AcDbEntity
  8
0
100
AcDbLine
 62
7
  6
CONTINUOUS
 10
438.8466600379
 20
225.6311322263
 11
438.7793217627
 21
225.1843237689
  0
LINE
  5
4E3
100
AcDbEntity
  8
0
100
AcDbLine
 62
7
  6
CONTINUOUS
 10
439.1833516066
 20
225.0353876165
 11
439.2506900745
 21
225.4821960738
  0
LINE
  5
4E4
100
AcDbEntity
  8
0
100
AcDbLine
 62
7
  6
CONTINUOUS
 10
440.4627801842
 20
225.9290045312
 11
440.5301186521
 21
226.3758134058
  0
LINE
  5
4E5
100
AcDbEntity
  8
0
100
AcDbLine
 62
7
  6
CONTINUOUS
 10
442.213576881
 20
221.7587919495
 11
442.3482534314
 21
222.3545366636
  0
LINE
  5
4E6
100
AcDbEntity
  8
0
100
AcDbLine
 62
7
  6
CONTINUOUS
 10
438.981336781
 20
224.4396430066
 11
439.1833516066
 21
225.0353876165
  0
LINE
  5
4E7
100
AcDbEntity
  8
0
100
AcDbLine
 62
7
  6
CONTINUOUS
 10
422.8404061233
 20
316.6768095256
 11
423.1405694265
 21
316.6768095256
  0
LINE
  5
4E8
100
AcDbEntity
  8
0
100
AcDbLine
 62
7
  6
CONTINUOUS
 10
423.0395417284
 20
319.7382769845
 11
422.7393784252
 21
319.7382769845
  0
LINE
  5
4E9
100
AcDbEntity
  8
0
100
AcDbLine
 62
7
  6
CONTINUOUS
 10
441.6781205302
 20
222.5034728161
 11
441.5434435944
 21
222.0566643587
  0
LINE
  5
4EA
100
AcDbEntity
  8
0
100
AcDbLine
 62
7
  6
CONTINUOUS
 10
441.9442237801
 20
222.5034728161
 11
441.8095468444
 21
222.0566643587
  0
LINE
  5
4EB
100
AcDbEntity
  8
0
100
AcDbLine
 62
7
  6
CONTINUOUS
 10
438.5132185127
 20
225.1843237689
 11
438.3785417697
 21
224.886451464
  0
LINE
  5
4EC
100
AcDbEntity
  8
0
100
AcDbLine
 62
7
  6
CONTINUOUS
 10
438.7793217627
 20
225.1843237689
 11
438.6446450196
 21
224.886451464
  0
LINE
  5
4ED
100
AcDbEntity
  8
0
100
AcDbLine
 62
7
  6
CONTINUOUS
 10
440.1293384664
 20
227.2694303206
 11
439.8599853656
 21
226.6736857107
  0
LINE
  5
4EE
100
AcDbEntity
  8
0
100
AcDbLine
 62
7
  6
CONTINUOUS
 10
440.3954417164
 20
227.2694303206
 11
440.1260886155
 21
226.6736857107
  0
LINE
  5
4EF
100
AcDbEntity
  8
0
100
AcDbLine
 62
7
  6
CONTINUOUS
 10
441.9442237801
 20
221.1630472875
 11
442.213576881
 21
221.7587919495
  0
LINE
  5
4F0
100
AcDbEntity
  8
0
100
AcDbLine
 62
7
  6
CONTINUOUS
 10
440.5301186521
 20
226.3758134058
 11
440.7321336704
 21
226.6736857107
  0
LINE
  5
4F1
100
AcDbEntity
  8
0
100
AcDbLine
 62
7
  6
CONTINUOUS
 10
440.3986919526
 20
227.5673026255
 11
440.1293384664
 21
227.2694303206
  0
LINE
  5
4F2
100
AcDbEntity
  8
0
100
AcDbLine
 62
7
  6
CONTINUOUS
 10
440.6647952025
 20
227.5673026255
 11
440.3954417164
 21
227.2694303206
  0
LINE
  5
4F3
100
AcDbEntity
  8
0
100
AcDbLine
 62
7
  6
CONTINUOUS
 10
440.6680454387
 20
227.716238778
 11
440.3986919526
 21
227.5673026255
  0
LINE
  5
4F4
100
AcDbEntity
  8
0
100
AcDbLine
 62
7
  6
CONTINUOUS
 10
440.9341486887
 20
227.716238778
 11
440.6647952025
 21
227.5673026255
  0
LINE
  5
4F5
100
AcDbEntity
  8
0
100
AcDbLine
 62
7
  6
CONTINUOUS
 10
422.9175905089
 20
323.4337951145
 11
422.6174272057
 21
323.4337951145
  0
LINE
  5
4F6
100
AcDbEntity
  8
0
100
AcDbLine
 62
7
  6
CONTINUOUS
 10
422.8943335252
 20
324.1385572741
 11
422.594170222
 21
324.1385572741
  0
LINE
  5
4F7
100
AcDbEntity
  8
0
100
AcDbLine
 62
7
  6
CONTINUOUS
 10
422.8804569025
 20
324.5590640223
 11
422.5802935993
 21
324.5590640223
  0
LINE
  5
4F8
100
AcDbEntity
  8
0
100
AcDbLine
 62
7
  6
CONTINUOUS
 10
422.873811101
 20
324.7604533976
 11
422.5736477978
 21
324.7604533976
  0
LINE
  5
4F9
100
AcDbEntity
  8
0
100
AcDbLine
 62
7
  6
CONTINUOUS
 10
422.8724371872
 20
324.8020874498
 11
422.572273884
 21
324.8020874498
  0
LINE
  5
4FA
100
AcDbEntity
  8
0
100
AcDbLine
 62
7
  6
CONTINUOUS
 10
422.8058018958
 20
326.8213532536
 11
422.5056385926
 21
326.8213532536
  0
LINE
  5
4FB
100
AcDbEntity
  8
0
100
AcDbLine
 62
7
  6
CONTINUOUS
 10
422.7753140764
 20
327.7452332266
 11
422.4751507732
 21
327.7452332266
  0
LINE
  5
4FC
100
AcDbEntity
  8
0
100
AcDbLine
 62
7
  6
CONTINUOUS
 10
422.7698316818
 20
327.911367595
 11
422.4696683786
 21
327.911367595
  0
LINE
  5
4FD
100
AcDbEntity
  8
0
100
AcDbLine
 62
7
  6
CONTINUOUS
 10
422.7502887274
 20
328.5035826024
 11
422.4501254242
 21
328.5035826024
  0
LINE
  5
4FE
100
AcDbEntity
  8
0
100
AcDbLine
 62
7
  6
CONTINUOUS
 10
422.7336775597
 20
329.0069549461
 11
422.4335142565
 21
329.0069549461
  0
LINE
  5
4FF
100
AcDbEntity
  8
0
100
AcDbLine
 62
7
  6
CONTINUOUS
 10
422.7199981483
 20
329.4214855529
 11
422.4198348451
 21
329.4214855529
  0
LINE
  5
500
100
AcDbEntity
  8
0
100
AcDbLine
 62
7
  6
CONTINUOUS
 10
441.5434435944
 20
222.0566643587
 11
441.3414285761
 21
221.7587919495
  0
LINE
  5
501
100
AcDbEntity
  8
0
100
AcDbLine
 62
7
  6
CONTINUOUS
 10
441.8095468444
 20
222.0566643587
 11
441.6075318261
 21
221.7587919495
  0
LINE
  5
502
100
AcDbEntity
  8
0
100
AcDbLine
 62
7
  6
CONTINUOUS
 10
438.7119832948
 20
224.1417707017
 11
438.981336781
 21
224.4396430066
  0
LINE
  5
503
100
AcDbEntity
  8
0
100
AcDbLine
 62
7
  6
CONTINUOUS
 10
441.674870294
 20
220.8651749434
 11
441.9442237801
 21
221.1630472875
  0
LINE
  5
504
100
AcDbEntity
  8
0
100
AcDbLine
 62
7
  6
CONTINUOUS
 10
440.7321336704
 20
226.6736857107
 11
440.9341486887
 21
226.8226218632
  0
LINE
  5
505
100
AcDbEntity
  8
0
100
AcDbLine
 62
7
  6
CONTINUOUS
 10
438.3785417697
 20
224.886451464
 11
438.1765267514
 21
224.7375153116
  0
LINE
  5
506
100
AcDbEntity
  8
0
100
AcDbLine
 62
7
  6
CONTINUOUS
 10
438.6446450196
 20
224.886451464
 11
438.4426300013
 21
224.7375153116
  0
LINE
  5
507
100
AcDbEntity
  8
0
100
AcDbLine
 62
7
  6
CONTINUOUS
 10
441.3414285761
 20
221.7587919495
 11
441.0720754753
 21
221.609855797
  0
LINE
  5
508
100
AcDbEntity
  8
0
100
AcDbLine
 62
7
  6
CONTINUOUS
 10
441.6075318261
 20
221.7587919495
 11
441.3381787253
 21
221.609855797
  0
LINE
  5
509
100
AcDbEntity
  8
0
100
AcDbLine
 62
7
  6
CONTINUOUS
 10
441.3381787253
 20
220.716238778
 11
441.674870294
 21
220.8651749434
  0
LINE
  5
50A
100
AcDbEntity
  8
0
100
AcDbLine
 62
7
  6
CONTINUOUS
 10
422.6533628569
 20
331.4407513567
 11
422.3531995537
 21
331.4407513567
  0
LINE
  5
50B
100
AcDbEntity
  8
0
100
AcDbLine
 62
7
  6
CONTINUOUS
 10
422.622875052
 20
332.3646308892
 11
422.3227117488
 21
332.3646308892
  0
LINE
  5
50C
100
AcDbEntity
  8
0
100
AcDbLine
 62
7
  6
CONTINUOUS
 10
422.5822246552
 20
333.5964699722
 11
422.282061352
 21
333.5964699722
  0
LINE
  5
50D
100
AcDbEntity
  8
0
100
AcDbLine
 62
7
  6
CONTINUOUS
 10
422.4602734357
 20
337.2919881022
 11
422.1601101325
 21
337.2919881022
  0
LINE
  5
50E
100
AcDbEntity
  8
0
100
AcDbLine
 62
7
  6
CONTINUOUS
 10
422.4370164375
 20
337.9967507023
 11
422.1368531343
 21
337.9967507023
  0
LINE
  5
50F
100
AcDbEntity
  8
0
100
AcDbLine
 62
7
  6
CONTINUOUS
 10
422.4209903041
 20
338.4823946077
 11
422.1208270009
 21
338.4823946077
  0
LINE
  5
510
100
AcDbEntity
  8
0
100
AcDbLine
 62
7
  6
CONTINUOUS
 10
422.4092632212
 20
338.8377633177
 11
422.109099918
 21
338.8377633177
  0
LINE
  5
511
100
AcDbEntity
  8
0
100
AcDbLine
 62
7
  6
CONTINUOUS
 10
422.4076987011
 20
338.8851733583
 11
422.1075353979
 21
338.8851733583
  0
LINE
  5
512
100
AcDbEntity
  8
B-ACHSEN
100
AcDbLine
 62
7
  6
CONTINUOUS
 10
419.52066838
 20
161.216238778
 11
416.52066838
 21
158.216238778
  0
LINE
  5
513
100
AcDbEntity
  8
0
100
AcDbLine
 62
7
  6
CONTINUOUS
 10
421.5057800415
 20
366.216238778
 11
421.2056167383
 21
366.216238778
  0
LINE
  5
514
100
AcDbEntity
  8
0
100
AcDbLine
 62
7
  6
CONTINUOUS
 10
421.3260366615
 20
371.6630471161
 11
421.0258733583
 21
371.6630471161
  0
LINE
  5
515
100
AcDbEntity
  8
0
100
AcDbLine
 62
7
  6
CONTINUOUS
 10
421.2811008048
 20
373.0247495583
 11
420.9809375016
 21
373.0247495583
  0
LINE
  5
516
100
AcDbEntity
  8
0
100
AcDbLine
 62
7
  6
CONTINUOUS
 10
421.2417819438
 20
374.216238778
 11
420.9416186406
 21
374.216238778
  0
LINE
  5
517
100
AcDbEntity
  8
RUNDUNGEN
100
AcDbLine
 62
7
  6
CONTINUOUS
 10
416.6776792915
 20
386.148477199
 11
386.3636574686
 21
386.148477199
  0
LWPOLYLINE
  5
518
100
AcDbEntity
  8
RUNDUNGEN
100
AcDbPolyline
 62
7
  6
CONTINUOUS
 90
22
 70
0
 10
90.7085716261
 20
46.9771684968
 10
90.7374329374
 20
46.4971241423
 10
90.8142727948
 20
46.0629223398
 10
90.9316405457
 20
45.6589112283
 10
91.0850218226
 20
45.2815656652
 10
91.2699308706
 20
44.9317622004
 10
91.4844106434
 20
44.6073288937
 10
91.7230288105
 20
44.3122054691
 10
91.9810943896
 20
44.0477752009
 10
92.2536131657
 20
43.8149436448
 10
92.5359318641
 20
43.6136203517
 10
92.8229279466
 20
43.4434341941
 10
93.1121315608
 20
43.3021110123
 10
93.3935265309
 20
43.1902558651
 10
93.661094448
 20
43.1050057397
 10
93.905629698
 20
43.0433987986
 10
94.1140186792
 20
43.0019224363
 10
94.3004692664
 20
42.9722822988
 10
94.4722059038
 20
42.95015065
 10
94.6404454943
 20
42.9322467421
 10
94.8181683669
 20
42.9164081611
 10
118.2357742744
 20
41.050726852
  0
LINE
  5
519
100
AcDbEntity
  8
RUNDUNGEN
100
AcDbLine
 62
7
  6
CONTINUOUS
 10
90.7085715702
 20
46.9771613334
 11
90.7085715702
 21
82.8306714785
  0
LINE
  5
51A
100
AcDbEntity
  8
0
100
AcDbLine
 62
7
  6
CONTINUOUS
 10
106.799554434
 20
43.3850430575
 11
106.799554434
 21
43.6852063607
  0
LINE
  5
51B
100
AcDbEntity
  8
0
100
AcDbLine
 62
7
  6
CONTINUOUS
 10
108.3302881634
 20
43.506994277
 11
108.3302881634
 21
43.8071575802
  0
LINE
  5
51C
100
AcDbEntity
  8
0
100
AcDbLine
 62
7
  6
CONTINUOUS
 10
108.8064471565
 20
43.5302512606
 11
108.8064471565
 21
43.8304145638
  0
LINE
  5
51D
100
AcDbEntity
  8
0
100
AcDbLine
 62
7
  6
CONTINUOUS
 10
109.5333375996
 20
43.5441278833
 11
109.5333375996
 21
43.8442911865
  0
LINE
  5
51E
100
AcDbEntity
  8
0
100
AcDbLine
 62
7
  6
CONTINUOUS
 10
109.733460688
 20
43.61878289
 11
109.733460688
 21
43.9189461932
  0
LINE
  5
51F
100
AcDbEntity
  8
0
100
AcDbLine
 62
7
  6
CONTINUOUS
 10
110.1161443028
 20
43.6492707094
 11
110.1161443028
 21
43.9494340126
  0
LINE
  5
520
100
AcDbEntity
  8
0
100
AcDbLine
 62
7
  6
CONTINUOUS
 10
110.3273597448
 20
43.3725403516
 11
110.3273597448
 21
43.5189186002
  0
LINE
  5
521
100
AcDbEntity
  8
0
100
AcDbLine
 62
7
  6
CONTINUOUS
 10
110.3537036033
 20
43.5507736848
 11
110.3537036033
 21
43.6103048212
  0
LINE
  5
522
100
AcDbEntity
  8
0
100
AcDbLine
 62
7
  6
CONTINUOUS
 10
110.8892523302
 20
43.5494064051
 11
110.8892523302
 21
43.6029844329
  0
LINE
  5
523
100
AcDbEntity
  8
0
100
AcDbLine
 62
7
  6
CONTINUOUS
 10
111.5182770584
 20
43.5408082981
 11
111.5182770584
 21
43.594386326
  0
LINE
  5
524
100
AcDbEntity
  8
0
100
AcDbLine
 62
7
  6
CONTINUOUS
 10
111.6468780323
 20
43.7712219289
 11
111.6468780323
 21
44.0713852321
  0
LINE
  5
525
100
AcDbEntity
  8
0
100
AcDbLine
 62
7
  6
CONTINUOUS
 10
111.9262647628
 20
43.5292784265
 11
111.9262647628
 21
43.5888095628
  0
LINE
  5
526
100
AcDbEntity
  8
0
100
AcDbLine
 62
7
  6
CONTINUOUS
 10
112.0295614646
 20
43.8017097338
 11
112.0295614646
 21
44.101873037
  0
LINE
  5
527
100
AcDbEntity
  8
0
100
AcDbLine
 62
7
  6
CONTINUOUS
 10
112.3639473342
 20
43.5054364231
 11
112.3639473342
 21
43.582826902
  0
LINE
  5
528
100
AcDbEntity
  8
0
100
AcDbLine
 62
7
  6
CONTINUOUS
 10
112.4233372506
 20
43.4808121742
 11
112.4233372506
 21
43.5820151043
  0
LINE
  5
529
100
AcDbEntity
  8
0
100
AcDbLine
 62
7
  6
CONTINUOUS
 10
112.5398059195
 20
43.8423601306
 11
112.5398059195
 21
44.1425234338
  0
LINE
  5
52A
100
AcDbEntity
  8
0
100
AcDbLine
 62
7
  6
CONTINUOUS
 10
114.0705396489
 20
43.9643113501
 11
114.0705396489
 21
44.2644746533
  0
LINE
  5
52B
100
AcDbEntity
  8
0
100
AcDbLine
 62
7
  6
CONTINUOUS
 10
114.5466988244
 20
43.9875683484
 11
114.5466988244
 21
44.2877316516
  0
LINE
  5
52C
100
AcDbEntity
  8
0
100
AcDbLine
 62
7
  6
CONTINUOUS
 10
114.5732741264
 20
43.4434133327
 11
114.5732741264
 21
43.3145031642
  0
LINE
  5
52D
100
AcDbEntity
  8
0
100
AcDbLine
 62
7
  6
CONTINUOUS
 10
114.9910831923
 20
43.5826354181
 11
114.9910831923
 21
43.725510159
  0
LINE
  5
52E
100
AcDbEntity
  8
0
100
AcDbLine
 62
7
  6
CONTINUOUS
 10
115.1163330131
 20
44.0035944817
 11
115.1163330131
 21
44.3037577849
  0
LINE
  5
52F
100
AcDbEntity
  8
0
100
AcDbLine
 62
7
  6
CONTINUOUS
 10
115.6838878086
 20
43.5791185986
 11
115.6838878086
 21
43.7160402479
  0
LINE
  5
530
100
AcDbEntity
  8
0
100
AcDbLine
 62
7
  6
CONTINUOUS
 10
116.0004793457
 20
44.0153215647
 11
116.0004793457
 21
44.3154848679
  0
LINE
  5
531
100
AcDbEntity
  8
0
100
AcDbLine
 62
7
  6
CONTINUOUS
 10
116.2832174118
 20
43.5828326439
 11
116.2832174118
 21
43.7045866376
  0
LINE
  5
532
100
AcDbEntity
  8
0
100
AcDbLine
 62
7
  6
CONTINUOUS
 10
116.6142524932
 20
43.4771047951
 11
116.6142524932
 21
43.5533407525
  0
LINE
  5
533
100
AcDbEntity
  8
0
100
AcDbLine
 62
7
  6
CONTINUOUS
 10
116.7570650207
 20
44.0168860847
 11
116.7570650207
 21
44.3170493879
  0
LINE
  5
534
100
AcDbEntity
  8
0
100
AcDbLine
 62
7
  6
CONTINUOUS
 10
116.7890713819
 20
43.5937774943
 11
116.7890713819
 21
43.7045866376
  0
LINE
  5
535
100
AcDbEntity
  8
0
100
AcDbLine
 62
7
  6
CONTINUOUS
 10
116.9045003541
 20
43.7350744425
 11
116.9045003541
 21
43.7826993447
  0
LINE
  5
536
100
AcDbEntity
  8
0
100
AcDbLine
 62
7
  6
CONTINUOUS
 10
117.2014494987
 20
43.611953153
 11
117.2014494987
 21
43.6909072261
  0
LINE
  5
537
100
AcDbEntity
  8
0
100
AcDbLine
 62
7
  6
CONTINUOUS
 10
117.4565719086
 20
43.6322783659
 11
117.4565719086
 21
43.6742960585
  0
LINE
  5
538
100
AcDbEntity
  8
0
100
AcDbLine
 62
7
  6
CONTINUOUS
 10
117.6071261494
 20
44.011219734
 11
117.6071261494
 21
44.3113830372
  0
LINE
  5
539
100
AcDbEntity
  8
0
100
AcDbLine
 62
7
  6
CONTINUOUS
 10
117.6270000199
 20
43.7192455058
 11
117.6270000199
 21
43.7728235336
  0
LINE
  5
53A
100
AcDbEntity
  8
0
100
AcDbLine
 62
7
  6
CONTINUOUS
 10
118.1284633951
 20
43.7004848114
 11
118.1284633951
 21
43.7659690563
  0
LINE
  5
53B
100
AcDbEntity
  8
0
100
AcDbLine
 62
7
  6
CONTINUOUS
 10
118.5023653279
 20
43.6715614968
 11
118.5023653279
 21
43.7608582098
  0
LINE
  5
53C
100
AcDbEntity
  8
0
100
AcDbLine
 62
7
  6
CONTINUOUS
 10
118.5617551031
 20
43.6469372328
 11
118.5617551031
 21
43.760046414
  0
LINE
  5
53D
100
AcDbEntity
  8
0
100
AcDbLine
 62
7
  6
CONTINUOUS
 10
119.3699890704
 20
43.7847173903
 11
119.3699890704
 21
43.9484890475
  0
LINE
  5
53E
100
AcDbEntity
  8
0
100
AcDbLine
 62
7
  6
CONTINUOUS
 10
119.9659674481
 20
43.9789768524
 11
119.9659674481
 21
44.2791401556
  0
LINE
  5
53F
100
AcDbEntity
  8
0
100
AcDbLine
 62
7
  6
CONTINUOUS
 10
120.5180393675
 20
43.8761808049
 11
120.5180393675
 21
43.9181984684
  0
LINE
  5
540
100
AcDbEntity
  8
0
100
AcDbLine
 62
7
  6
CONTINUOUS
 10
120.6884674788
 20
43.9631479448
 11
120.6884674788
 21
44.263311248
  0
LINE
  5
541
100
AcDbEntity
  8
0
100
AcDbLine
 62
7
  6
CONTINUOUS
 10
121.1899304891
 20
43.9443872213
 11
121.1899304891
 21
44.2445505245
  0
LINE
  5
542
100
AcDbEntity
  8
0
100
AcDbLine
 62
7
  6
CONTINUOUS
 10
121.5638327868
 20
43.9154639358
 11
121.5638327868
 21
44.215627239
  0
LINE
  5
543
100
AcDbEntity
  8
0
100
AcDbLine
 62
7
  6
CONTINUOUS
 10
121.623222927
 20
43.8908397009
 11
121.623222927
 21
44.1910030041
  0
LWPOLYLINE
  5
544
100
AcDbEntity
  8
RUNDUNGEN
100
AcDbPolyline
 62
7
  6
CONTINUOUS
 90
7
 70
0
 10
135.6461990929
 20
90.4277254551
 10
135.3931052825
 20
90.0657151048
 10
135.0895918826
 20
89.7447861756
 10
134.7422365955
 20
89.4718993402
 10
134.3585664533
 20
89.2529729875
 10
133.9468960991
 20
89.0927569278
 10
133.5161507466
 20
88.9947299153
  0
LINE
  5
545
100
AcDbEntity
  8
RUNDUNGEN
100
AcDbLine
 62
7
  6
CONTINUOUS
 10
135.6425132747
 20
39.3863444314
 11
135.6437323392
 21
39.3842903627
  0
LINE
  5
546
100
AcDbEntity
  8
0
100
AcDbLine
 62
7
  6
CONTINUOUS
 10
112.4233372506
 20
43.4808121742
 11
112.3639473342
 21
43.5054364231
  0
LINE
  5
547
100
AcDbEntity
  8
0
100
AcDbLine
 62
7
  6
CONTINUOUS
 10
118.5617551031
 20
43.6469372328
 11
118.5023653279
 21
43.6715614968
  0
LINE
  5
548
100
AcDbEntity
  8
0
100
AcDbLine
 62
7
  6
CONTINUOUS
 10
121.623222927
 20
43.8908397009
 11
121.5638327868
 21
43.9154639358
  0
LINE
  5
549
100
AcDbEntity
  8
0
100
AcDbLine
 62
7
  6
CONTINUOUS
 10
121.623222927
 20
44.1910030041
 11
121.5638327868
 21
44.215627239
  0
LWPOLYLINE
  5
54A
100
AcDbEntity
  8
RUNDUNGEN
100
AcDbPolyline
 62
7
  6
CONTINUOUS
 90
7
 70
0
 10
133.516171884
 20
40.8131004839
 10
133.9469262197
 20
40.7150672442
 10
134.3586037946
 20
40.5548424132
 10
134.7422788562
 20
40.3359052011
 10
135.0896363789
 20
40.0630059324
 10
135.3931490456
 20
39.7420635639
 10
135.6150238545
 20
39.4246900242
  0
LINE
  5
54B
100
AcDbEntity
  8
RUNDUNGEN
100
AcDbLine
 62
7
  6
CONTINUOUS
 10
223.765469236
 20
40.8131028964
 11
224.1035559519
 21
40.8447881173
  0
LWPOLYLINE
  5
54C
100
AcDbEntity
  8
RUNDUNGEN
100
AcDbPolyline
 62
7
  6
CONTINUOUS
 90
21
 70
0
 10
262.4901151728
 20
42.9186167867
 10
262.6784871689
 20
42.9359436548
 10
262.8555037372
 20
42.955666098
 10
263.0370896596
 20
42.9805059762
 10
263.2388461142
 20
43.0150429129
 10
263.4621648705
 20
43.0634330426
 10
263.7154894737
 20
43.133033571
 10
263.9878079115
 20
43.2271724412
 10
264.2691088753
 20
43.3476185499
 10
264.5549112688
 20
43.4969585767
 10
264.8365872891
 20
43.6744884023
 10
265.1122610531
 20
43.8825079955
 10
265.3777886115
 20
44.1219373306
 10
265.6283977441
 20
44.3927784694
 10
265.8592576499
 20
44.6943725241
 10
266.0654994421
 20
45.0252732518
 10
266.2423079255
 20
45.3831010358
 10
266.3853909012
 20
45.7653269189
 10
266.490608722
 20
46.1685810822
 10
266.5541767723
 20
46.5887526453
 10
266.5730483603
 20
46.9771719342
  0
LINE
  5
54D
100
AcDbEntity
  8
RUNDUNGEN
100
AcDbLine
 62
7
  6
CONTINUOUS
 10
262.4901151728
 20
42.9186167867
 11
239.0458457082
 21
41.050726852
  0
LINE
  5
54E
100
AcDbEntity
  8
RUNDUNGEN
100
AcDbLine
 62
7
  6
CONTINUOUS
 10
238.7281783475
 20
41.0380928306
 11
239.0523828823
 21
41.0512539835
  0
LINE
  5
54F
100
AcDbEntity
  8
RUNDUNGEN
100
AcDbLine
 62
7
  6
CONTINUOUS
 10
118.2448491434
 20
41.0500160551
 11
118.5534416351
 21
41.0380937681
  0
LINE
  5
550
100
AcDbEntity
  8
0
100
AcDbLine
 62
7
  6
CONTINUOUS
 10
111.3863252585
 20
43.5009401468
 11
111.5732761974
 21
43.4864784899
  0
LINE
  5
551
100
AcDbEntity
  8
RUNDUNGEN
100
AcDbLine
 62
7
  6
CONTINUOUS
 10
133.178065986
 20
40.8447889699
 11
133.516171884
 21
40.8131004839
  0
LINE
  5
552
100
AcDbEntity
  8
0
100
AcDbLine
 62
7
  6
CONTINUOUS
 10
117.4312677089
 20
43.6742960585
 11
117.5544382466
 21
43.6547531041
  0
LINE
  5
553
100
AcDbEntity
  8
0
100
AcDbLine
 62
7
  6
CONTINUOUS
 10
120.4927348028
 20
43.9181984684
 11
120.6159053406
 21
43.898655514
  0
LINE
  5
554
100
AcDbEntity
  8
0
100
AcDbLine
 62
7
  6
CONTINUOUS
 10
180.4741434836
 20
45.087314164
 11
180.6408095144
 21
45.1097820846
  0
LINE
  5
555
100
AcDbEntity
  8
0
100
AcDbLine
 62
7
  6
CONTINUOUS
 10
179.6408095144
 20
45.1097820846
 11
179.307476499
 21
45.087314164
  0
LINE
  5
556
100
AcDbEntity
  8
0
100
AcDbLine
 62
7
  6
CONTINUOUS
 10
180.1408095144
 20
45.0704632236
 11
180.4741434836
 21
45.087314164
  0
LINE
  5
557
100
AcDbEntity
  8
0
100
AcDbLine
 62
7
  6
CONTINUOUS
 10
175.6408099913
 20
45.1210160606
 11
175.9741430067
 21
45.137867001
  0
LINE
  5
558
100
AcDbEntity
  8
0
100
AcDbLine
 62
7
  6
CONTINUOUS
 10
171.307476499
 20
45.0985481243
 11
172.307476499
 21
45.137867001
  0
LINE
  5
559
100
AcDbEntity
  8
0
100
AcDbLine
 62
7
  6
CONTINUOUS
 10
172.307476499
 20
45.182802842
 11
171.307476499
 21
45.1434839811
  0
LINE
  5
55A
100
AcDbEntity
  8
RUNDUNGEN
100
AcDbLine
 62
7
  6
CONTINUOUS
 10
224.1037238086
 20
40.8447942962
 11
224.6299222761
 21
40.8632212087
  0
LINE
  5
55B
100
AcDbEntity
  8
0
100
AcDbLine
 62
7
  6
CONTINUOUS
 10
175.6408099913
 20
45.1659519016
 11
174.9741432451
 21
45.1434839811
  0
LINE
  5
55C
100
AcDbEntity
  8
0
100
AcDbLine
 62
7
  6
CONTINUOUS
 10
175.6408099913
 20
45.4661152048
 11
174.9741432451
 21
45.4436472843
  0
LINE
  5
55D
100
AcDbEntity
  8
RUNDUNGEN
100
AcDbLine
 62
7
  6
CONTINUOUS
 10
224.6299222761
 20
40.8632212087
 11
225.5482630231
 21
40.8917919924
  0
LINE
  5
55E
100
AcDbEntity
  8
0
100
AcDbLine
 62
7
  6
CONTINUOUS
 10
179.307476499
 20
45.087314164
 11
174.6408097529
 21
44.946889649
  0
LINE
  5
55F
100
AcDbEntity
  8
0
100
AcDbLine
 62
7
  6
CONTINUOUS
 10
174.8125606165
 20
45.2522211017
 11
174.6408097529
 21
45.2470529522
  0
LINE
  5
560
100
AcDbEntity
  8
0
100
AcDbLine
 62
7
  6
CONTINUOUS
 10
175.9741430067
 20
44.946889649
 11
180.1408095144
 21
45.0704632236
  0
LINE
  5
561
100
AcDbEntity
  8
0
100
AcDbLine
 62
7
  6
CONTINUOUS
 10
117.0991926209
 20
43.5597728692
 11
117.6688272159
 21
43.5757990311
  0
LINE
  5
562
100
AcDbEntity
  8
RUNDUNGEN
100
AcDbLine
 62
7
  6
CONTINUOUS
 10
225.5482630231
 20
40.8917919924
 11
226.5914012133
 21
40.9196758396
  0
LINE
  5
563
100
AcDbEntity
  8
RUNDUNGEN
100
AcDbLine
 62
7
  6
CONTINUOUS
 10
141.4601473807
 20
44.6577710397
 11
144.1995419124
 21
44.7213481099
  0
LINE
  5
564
100
AcDbEntity
  8
0
100
AcDbLine
 62
7
  6
CONTINUOUS
 10
175.9741430067
 20
45.137867001
 11
176.4741430067
 21
45.1491009612
  0
LINE
  5
565
100
AcDbEntity
  8
RUNDUNGEN
100
AcDbLine
 62
7
  6
CONTINUOUS
 10
226.5914012133
 20
40.9196758396
 11
227.7618075006
 21
40.9462408326
  0
LINE
  5
566
100
AcDbEntity
  8
0
100
AcDbLine
 62
7
  6
CONTINUOUS
 10
116.7890713819
 20
43.5937774943
 11
116.2832174118
 21
43.5828326439
  0
LINE
  5
567
100
AcDbEntity
  8
0
100
AcDbLine
 62
7
  6
CONTINUOUS
 10
115.4264541971
 20
43.9695898574
 11
115.9323080571
 21
43.9805347093
  0
LINE
  5
568
100
AcDbEntity
  8
RUNDUNGEN
100
AcDbLine
 62
7
  6
CONTINUOUS
 10
144.1995419124
 20
44.7213481099
 11
147.0947037648
 21
44.7810289645
  0
LINE
  5
569
100
AcDbEntity
  8
0
100
AcDbLine
 62
7
  6
CONTINUOUS
 10
109.5333375996
 20
43.5441278833
 11
108.8064471565
 21
43.5302512606
  0
LINE
  5
56A
100
AcDbEntity
  8
0
100
AcDbLine
 62
7
  6
CONTINUOUS
 10
109.5333375996
 20
43.8442911865
 11
108.8064471565
 21
43.8304145638
  0
LINE
  5
56B
100
AcDbEntity
  8
RUNDUNGEN
100
AcDbLine
 62
7
  6
CONTINUOUS
 10
227.7618075006
 20
40.9462408326
 11
229.0546384698
 21
40.9707251802
  0
LINE
  5
56C
100
AcDbEntity
  8
RUNDUNGEN
100
AcDbLine
 62
7
  6
CONTINUOUS
 10
147.0947037648
 20
44.7810289645
 11
150.1411636225
 21
44.8363230843
  0
LINE
  5
56D
100
AcDbEntity
  8
0
100
AcDbLine
 62
7
  6
CONTINUOUS
 10
176.307476499
 20
45.1771858619
 11
175.6408099913
 21
45.1659519016
  0
LINE
  5
56E
100
AcDbEntity
  8
0
100
AcDbLine
 62
7
  6
CONTINUOUS
 10
176.307476499
 20
45.4773491651
 11
175.6408099913
 21
45.4661152048
  0
LINE
  5
56F
100
AcDbEntity
  8
RUNDUNGEN
100
AcDbLine
 62
7
  6
CONTINUOUS
 10
150.1411636225
 20
44.8363230843
 11
153.3292846893
 21
44.8866832177
  0
LINE
  5
570
100
AcDbEntity
  8
RUNDUNGEN
100
AcDbLine
 62
7
  6
CONTINUOUS
 10
229.0546384698
 20
40.9707251802
 11
230.4622487788
 21
40.9924055703
  0
LINE
  5
571
100
AcDbEntity
  8
0
100
AcDbLine
 62
7
  6
CONTINUOUS
 10
116.2150462333
 20
43.548045787
 11
117.0991926209
 21
43.5597728692
  0
LINE
  5
572
100
AcDbEntity
  8
0
100
AcDbLine
 62
7
  6
CONTINUOUS
 10
109.5289468222
 20
43.514422324
 11
109.971020171
 21
43.52028588
  0
LINE
  5
573
100
AcDbEntity
  8
0
100
AcDbLine
 62
7
  6
CONTINUOUS
 10
116.0004793457
 20
44.0153215647
 11
115.1163330131
 21
44.0035944817
  0
LINE
  5
574
100
AcDbEntity
  8
0
100
AcDbLine
 62
7
  6
CONTINUOUS
 10
116.0004793457
 20
44.3154848679
 11
115.1163330131
 21
44.3037577849
  0
LINE
  5
575
100
AcDbEntity
  8
RUNDUNGEN
100
AcDbLine
 62
7
  6
CONTINUOUS
 10
153.3292846893
 20
44.8866832177
 11
156.6459623708
 21
44.9315738831
  0
LINE
  5
576
100
AcDbEntity
  8
RUNDUNGEN
100
AcDbLine
 62
7
  6
CONTINUOUS
 10
230.4622487788
 20
40.9924055703
 11
231.9738011602
 21
41.0105839801
  0
LINE
  5
577
100
AcDbEntity
  8
RUNDUNGEN
100
AcDbLine
 62
7
  6
CONTINUOUS
 10
156.6459623708
 20
44.9315738831
 11
160.0765748118
 21
44.970516193
  0
LINE
  5
578
100
AcDbEntity
  8
RUNDUNGEN
100
AcDbLine
 62
7
  6
CONTINUOUS
 10
160.0765748118
 20
44.970516193
 11
163.6050114107
 21
45.0030914727
  0
LINE
  5
579
100
AcDbEntity
  8
0
100
AcDbLine
 62
7
  6
CONTINUOUS
 10
110.3537036033
 20
43.5507736848
 11
109.5333375996
 21
43.5441278833
  0
LINE
  5
57A
100
AcDbEntity
  8
0
100
AcDbLine
 62
7
  6
CONTINUOUS
 10
109.7316208281
 20
43.845897483
 11
109.5333375996
 21
43.8442911865
  0
LINE
  5
57B
100
AcDbEntity
  8
RUNDUNGEN
100
AcDbLine
 62
7
  6
CONTINUOUS
 10
231.9738011602
 20
41.0105839801
 11
233.5752984548
 21
41.0246101973
  0
LINE
  5
57C
100
AcDbEntity
  8
RUNDUNGEN
100
AcDbLine
 62
7
  6
CONTINUOUS
 10
163.6050114107
 20
45.0030914727
 11
167.2138567198
 21
45.0289466585
  0
LINE
  5
57D
100
AcDbEntity
  8
0
100
AcDbLine
 62
7
  6
CONTINUOUS
 10
176.4741430067
 20
45.1491009612
 11
177.307476499
 21
45.1547179413
  0
LINE
  5
57E
100
AcDbEntity
  8
0
100
AcDbLine
 62
7
  6
CONTINUOUS
 10
116.2832174118
 20
43.5828326439
 11
115.6838878086
 21
43.5791185986
  0
LINE
  5
57F
100
AcDbEntity
  8
0
100
AcDbLine
 62
7
  6
CONTINUOUS
 10
115.9323080571
 20
43.9805347093
 11
116.5316381007
 21
43.9842487486
  0
LINE
  5
580
100
AcDbEntity
  8
RUNDUNGEN
100
AcDbLine
 62
7
  6
CONTINUOUS
 10
233.5752984548
 20
41.0246101973
 11
235.2497323852
 21
41.0338994644
  0
LINE
  5
581
100
AcDbEntity
  8
0
100
AcDbLine
 62
7
  6
CONTINUOUS
 10
177.4741430067
 20
45.182802842
 11
176.307476499
 21
45.1771858619
  0
LINE
  5
582
100
AcDbEntity
  8
0
100
AcDbLine
 62
7
  6
CONTINUOUS
 10
177.4741430067
 20
45.4829661452
 11
176.307476499
 21
45.4773491651
  0
LINE
  5
583
100
AcDbEntity
  8
RUNDUNGEN
100
AcDbLine
 62
7
  6
CONTINUOUS
 10
167.2138567198
 20
45.0289466585
 11
170.8846088796
 21
45.0477992182
  0
LINE
  5
584
100
AcDbEntity
  8
RUNDUNGEN
100
AcDbLine
 62
7
  6
CONTINUOUS
 10
170.8846088796
 20
45.0477992182
 11
172.3069889406
 21
45.0529682355
  0
LINE
  5
585
100
AcDbEntity
  8
RUNDUNGEN
100
AcDbLine
 62
7
  6
CONTINUOUS
 10
173.3078109801
 20
45.0560372312
 11
174.5979211209
 21
45.0594412886
  0
LINE
  5
586
100
AcDbEntity
  8
0
100
AcDbLine
 62
7
  6
CONTINUOUS
 10
115.4584606307
 20
43.546481283
 11
116.2150462333
 21
43.548045787
  0
LINE
  5
587
100
AcDbEntity
  8
0
100
AcDbLine
 62
7
  6
CONTINUOUS
 10
116.7570650207
 20
44.0168860847
 11
116.0004793457
 21
44.0153215647
  0
LINE
  5
588
100
AcDbEntity
  8
0
100
AcDbLine
 62
7
  6
CONTINUOUS
 10
116.7570650207
 20
44.3170493879
 11
116.0004793457
 21
44.3154848679
  0
LINE
  5
589
100
AcDbEntity
  8
RUNDUNGEN
100
AcDbLine
 62
7
  6
CONTINUOUS
 10
235.2497323852
 20
41.0338994644
 11
236.9767246959
 21
41.0379473334
  0
LINE
  5
58A
100
AcDbEntity
  8
RUNDUNGEN
100
AcDbLine
 62
7
  6
CONTINUOUS
 10
238.7281783475
 20
41.0380928306
 11
236.9767246959
 21
41.0379473334
  0
LINE
  5
58B
100
AcDbEntity
  8
0
100
AcDbLine
 62
7
  6
CONTINUOUS
 10
172.307476499
 20
44.9188047444
 11
173.307476499
 21
44.9188047444
  0
LINE
  5
58C
100
AcDbEntity
  8
0
100
AcDbLine
 62
7
  6
CONTINUOUS
 10
174.6408097529
 20
44.9188047444
 11
180.6408095144
 21
44.9188047444
  0
LINE
  5
58D
100
AcDbEntity
  8
0
100
AcDbLine
 62
7
  6
CONTINUOUS
 10
180.6408095144
 20
44.946889649
 11
175.9741430067
 21
44.946889649
  0
LINE
  5
58E
100
AcDbEntity
  8
0
100
AcDbLine
 62
7
  6
CONTINUOUS
 10
185.9741434836
 20
45.0985481243
 11
184.1408095144
 21
45.0985481243
  0
LINE
  5
58F
100
AcDbEntity
  8
0
100
AcDbLine
 62
7
  6
CONTINUOUS
 10
183.307476499
 20
45.0985481243
 11
181.9741434836
 21
45.0985481243
  0
LINE
  5
590
100
AcDbEntity
  8
0
100
AcDbLine
 62
7
  6
CONTINUOUS
 10
174.807476499
 20
45.1210160606
 11
175.6408099913
 21
45.1210160606
  0
LINE
  5
591
100
AcDbEntity
  8
0
100
AcDbLine
 62
7
  6
CONTINUOUS
 10
184.1408095144
 20
45.1434839811
 11
183.307476499
 21
45.1434839811
  0
LINE
  5
592
100
AcDbEntity
  8
0
100
AcDbLine
 62
7
  6
CONTINUOUS
 10
177.307476499
 20
45.1547179413
 11
177.9741430067
 21
45.1547179413
  0
LINE
  5
593
100
AcDbEntity
  8
0
100
AcDbLine
 62
7
  6
CONTINUOUS
 10
178.1408099913
 20
45.182802842
 11
177.4741430067
 21
45.182802842
  0
LINE
  5
594
100
AcDbEntity
  8
0
100
AcDbLine
 62
7
  6
CONTINUOUS
 10
173.307476499
 20
45.182802842
 11
172.307476499
 21
45.182802842
  0
LINE
  5
595
100
AcDbEntity
  8
0
100
AcDbLine
 62
7
  6
CONTINUOUS
 10
185.9741434836
 20
45.3987114275
 11
184.1408095144
 21
45.3987114275
  0
LINE
  5
596
100
AcDbEntity
  8
0
100
AcDbLine
 62
7
  6
CONTINUOUS
 10
183.307476499
 20
45.3987114275
 11
181.9741434836
 21
45.3987114275
  0
LINE
  5
597
100
AcDbEntity
  8
0
100
AcDbLine
 62
7
  6
CONTINUOUS
 10
184.1408095144
 20
45.4436472843
 11
183.307476499
 21
45.4436472843
  0
LINE
  5
598
100
AcDbEntity
  8
0
100
AcDbLine
 62
7
  6
CONTINUOUS
 10
178.1408099913
 20
45.4829661452
 11
177.4741430067
 21
45.4829661452
  0
LINE
  5
599
100
AcDbEntity
  8
0
100
AcDbLine
 62
7
  6
CONTINUOUS
 10
173.307476499
 20
45.4829661452
 11
172.307476499
 21
45.4829661452
  0
LINE
  5
59A
100
AcDbEntity
  8
0
100
AcDbLine
 62
7
  6
CONTINUOUS
 10
116.6142524932
 20
43.4771047951
 11
112.4233372506
 21
43.4808121742
  0
LINE
  5
59B
100
AcDbEntity
  8
0
100
AcDbLine
 62
7
  6
CONTINUOUS
 10
112.3551658707
 20
43.4460253116
 11
116.1677883671
 21
43.4415356797
  0
LINE
  5
59C
100
AcDbEntity
  8
RUNDUNGEN
100
AcDbLine
 62
7
  6
CONTINUOUS
 10
118.5534416351
 20
41.0380928306
 11
121.2653562109
 21
41.0363822744
  0
LINE
  5
59D
100
AcDbEntity
  8
RUNDUNGEN
100
AcDbLine
 62
7
  6
CONTINUOUS
 10
180.6407322312
 20
45.0625439875
 11
183.3072782945
 21
45.0577950216
  0
LINE
  5
59E
100
AcDbEntity
  8
0
100
AcDbLine
 62
7
  6
CONTINUOUS
 10
109.971020171
 20
43.52028588
 11
110.5065688979
 21
43.5189186002
  0
LINE
  5
59F
100
AcDbEntity
  8
0
100
AcDbLine
 62
7
  6
CONTINUOUS
 10
110.8892523302
 20
43.5494064051
 11
110.3537036033
 21
43.5507736848
  0
LINE
  5
5A0
100
AcDbEntity
  8
RUNDUNGEN
100
AcDbLine
 62
7
  6
CONTINUOUS
 10
121.2653562109
 20
41.0363822744
 11
122.9740060786
 21
41.0293324769
  0
LINE
  5
5A1
100
AcDbEntity
  8
0
100
AcDbLine
 62
7
  6
CONTINUOUS
 10
115.6838878086
 20
43.5791185986
 11
114.9910831923
 21
43.5826354181
  0
LINE
  5
5A2
100
AcDbEntity
  8
0
100
AcDbLine
 62
7
  6
CONTINUOUS
 10
116.5316381007
 20
43.9842487486
 11
117.2244427171
 21
43.9807319291
  0
LINE
  5
5A3
100
AcDbEntity
  8
RUNDUNGEN
100
AcDbLine
 62
7
  6
CONTINUOUS
 10
185.6401786424
 20
45.0507034805
 11
189.4728508735
 21
45.032505482
  0
LINE
  5
5A4
100
AcDbEntity
  8
0
100
AcDbLine
 62
7
  6
CONTINUOUS
 10
179.1408099913
 20
45.1771858619
 11
178.1408099913
 21
45.182802842
  0
LINE
  5
5A5
100
AcDbEntity
  8
0
100
AcDbLine
 62
7
  6
CONTINUOUS
 10
179.1408099913
 20
45.4773491651
 11
178.1408099913
 21
45.4829661452
  0
LINE
  5
5A6
100
AcDbEntity
  8
0
100
AcDbLine
 62
7
  6
CONTINUOUS
 10
114.6083995775
 20
43.5521475987
 11
115.4584606307
 21
43.546481283
  0
LINE
  5
5A7
100
AcDbEntity
  8
0
100
AcDbLine
 62
7
  6
CONTINUOUS
 10
117.6071261494
 20
44.011219734
 11
116.7570650207
 21
44.0168860847
  0
LINE
  5
5A8
100
AcDbEntity
  8
0
100
AcDbLine
 62
7
  6
CONTINUOUS
 10
117.6071261494
 20
44.3113830372
 11
116.7570650207
 21
44.3170493879
  0
LINE
  5
5A9
100
AcDbEntity
  8
0
100
AcDbLine
 62
7
  6
CONTINUOUS
 10
185.6408095144
 20
44.9412726669
 11
184.807476499
 21
44.946889649
  0
LINE
  5
5AA
100
AcDbEntity
  8
0
100
AcDbLine
 62
7
  6
CONTINUOUS
 10
177.9741430067
 20
45.1547179413
 11
178.807476499
 21
45.1491009612
  0
LINE
  5
5AB
100
AcDbEntity
  8
RUNDUNGEN
100
AcDbLine
 62
7
  6
CONTINUOUS
 10
189.4728508735
 20
45.032505482
 11
193.0952622196
 21
45.0077577973
  0
LINE
  5
5AC
100
AcDbEntity
  8
RUNDUNGEN
100
AcDbLine
 62
7
  6
CONTINUOUS
 10
122.9740060786
 20
41.0293324769
 11
124.5845055143
 21
41.0175603162
  0
LINE
  5
5AD
100
AcDbEntity
  8
RUNDUNGEN
100
AcDbLine
 62
7
  6
CONTINUOUS
 10
193.0952622196
 20
45.0077577973
 11
196.6400501803
 21
44.9762315484
  0
LINE
  5
5AE
100
AcDbEntity
  8
RUNDUNGEN
100
AcDbLine
 62
7
  6
CONTINUOUS
 10
124.5845055143
 20
41.0175603162
 11
126.0915296061
 21
41.0017850816
  0
LINE
  5
5AF
100
AcDbEntity
  8
0
100
AcDbLine
 62
7
  6
CONTINUOUS
 10
184.1408095144
 20
44.9300387056
 11
184.6408095144
 21
44.924421725
  0
LINE
  5
5B0
100
AcDbEntity
  8
RUNDUNGEN
100
AcDbLine
 62
7
  6
CONTINUOUS
 10
196.6400501803
 20
44.9762315484
 11
200.0892681878
 21
44.9382733815
  0
LINE
  5
5B1
100
AcDbEntity
  8
0
100
AcDbLine
 62
7
  6
CONTINUOUS
 10
106.799554434
 20
43.3850430575
 11
114.1905906941
 21
43.2840153593
  0
LINE
  5
5B2
100
AcDbEntity
  8
0
100
AcDbLine
 62
7
  6
CONTINUOUS
 10
114.5732741264
 20
43.3145031642
 11
111.2708961761
 21
43.3596432002
  0
LINE
  5
5B3
100
AcDbEntity
  8
0
100
AcDbLine
 62
7
  6
CONTINUOUS
 10
110.3273597448
 20
43.3725403516
 11
107.9685182258
 21
43.4047832362
  0
LINE
  5
5B4
100
AcDbEntity
  8
0
100
AcDbLine
 62
7
  6
CONTINUOUS
 10
110.5065688979
 20
43.5189186002
 11
110.9783375541
 21
43.5124700185
  0
LINE
  5
5B5
100
AcDbEntity
  8
0
100
AcDbLine
 62
7
  6
CONTINUOUS
 10
111.5182770584
 20
43.5408082981
 11
110.8892523302
 21
43.5494064051
  0
LINE
  5
5B6
100
AcDbEntity
  8
0
100
AcDbLine
 62
7
  6
CONTINUOUS
 10
109.733460688
 20
43.61878289
 11
114.6083995775
 21
43.5521475987
  0
LINE
  5
5B7
100
AcDbEntity
  8
0
100
AcDbLine
 62
7
  6
CONTINUOUS
 10
114.9910831923
 20
43.5826354181
 11
110.1161443028
 21
43.6492707094
  0
LINE
  5
5B8
100
AcDbEntity
  8
0
100
AcDbLine
 62
7
  6
CONTINUOUS
 10
111.6468780323
 20
43.7712219289
 11
116.5218169218
 21
43.7045866376
  0
LINE
  5
5B9
100
AcDbEntity
  8
0
100
AcDbLine
 62
7
  6
CONTINUOUS
 10
116.9045003541
 20
43.7350744425
 11
112.0295614646
 21
43.8017097338
  0
LINE
  5
5BA
100
AcDbEntity
  8
0
100
AcDbLine
 62
7
  6
CONTINUOUS
 10
112.5398059195
 20
43.8423601306
 11
119.9308421795
 21
43.7413324325
  0
LINE
  5
5BB
100
AcDbEntity
  8
0
100
AcDbLine
 62
7
  6
CONTINUOUS
 10
119.3699890704
 20
43.7847173903
 11
113.8660257832
 21
43.8599507841
  0
LINE
  5
5BC
100
AcDbEntity
  8
0
100
AcDbLine
 62
7
  6
CONTINUOUS
 10
111.6490276
 20
43.9284811089
 11
110.1161443028
 21
43.9494340126
  0
LINE
  5
5BD
100
AcDbEntity
  8
0
100
AcDbLine
 62
7
  6
CONTINUOUS
 10
117.2244427171
 20
43.9807319291
 11
119.5832840157
 21
43.9484890475
  0
LINE
  5
5BE
100
AcDbEntity
  8
0
100
AcDbLine
 62
7
  6
CONTINUOUS
 10
119.9659674481
 20
43.9789768524
 11
117.6071261494
 21
44.011219734
  0
LINE
  5
5BF
100
AcDbEntity
  8
0
100
AcDbLine
 62
7
  6
CONTINUOUS
 10
112.5432572092
 20
44.0948513561
 11
112.0295614646
 21
44.101873037
  0
LINE
  5
5C0
100
AcDbEntity
  8
0
100
AcDbLine
 62
7
  6
CONTINUOUS
 10
119.9659674481
 20
44.2791401556
 11
117.6071261494
 21
44.3113830372
  0
LINE
  5
5C1
100
AcDbEntity
  8
RUNDUNGEN
100
AcDbLine
 62
7
  6
CONTINUOUS
 10
200.0892681878
 20
44.9382733815
 11
203.4262741548
 21
44.8942988715
  0
LINE
  5
5C2
100
AcDbEntity
  8
RUNDUNGEN
100
AcDbLine
 62
7
  6
CONTINUOUS
 10
126.0915296061
 20
41.0017850816
 11
127.4925427855
 21
40.9826436114
  0
LINE
  5
5C3
100
AcDbEntity
  8
RUNDUNGEN
100
AcDbLine
 62
7
  6
CONTINUOUS
 10
203.4262741548
 20
44.8942988715
 11
206.6359337353
 21
44.8447869002
  0
LINE
  5
5C4
100
AcDbEntity
  8
0
100
AcDbLine
 62
7
  6
CONTINUOUS
 10
179.807476499
 20
45.1659519016
 11
179.1408099913
 21
45.1771858619
  0
LINE
  5
5C5
100
AcDbEntity
  8
0
100
AcDbLine
 62
7
  6
CONTINUOUS
 10
179.807476499
 20
45.4661152048
 11
179.1408099913
 21
45.4773491651
  0
LINE
  5
5C6
100
AcDbEntity
  8
RUNDUNGEN
100
AcDbLine
 62
7
  6
CONTINUOUS
 10
127.4925427855
 20
40.9826436114
 11
128.7871298258
 21
40.9606914261
  0
LINE
  5
5C7
100
AcDbEntity
  8
RUNDUNGEN
100
AcDbLine
 62
7
  6
CONTINUOUS
 10
206.6359337353
 20
44.8447869002
 11
209.7046346626
 21
44.7902762148
  0
LINE
  5
5C8
100
AcDbEntity
  8
RUNDUNGEN
100
AcDbLine
 62
7
  6
CONTINUOUS
 10
209.7046346626
 20
44.7902762148
 11
212.6220023333
 21
44.7313266261
  0
LINE
  5
5C9
100
AcDbEntity
  8
RUNDUNGEN
100
AcDbLine
 62
7
  6
CONTINUOUS
 10
128.7871298258
 20
40.9606914261
 11
129.9762679834
 21
40.9364169899
  0
LINE
  5
5CA
100
AcDbEntity
  8
0
100
AcDbLine
 62
7
  6
CONTINUOUS
 10
117.6270000199
 20
43.7192455058
 11
116.9045003541
 21
43.7350744425
  0
LINE
  5
5CB
100
AcDbEntity
  8
0
100
AcDbLine
 62
7
  6
CONTINUOUS
 10
120.6884674788
 20
43.9631479448
 11
119.9659674481
 21
43.9789768524
  0
LINE
  5
5CC
100
AcDbEntity
  8
0
100
AcDbLine
 62
7
  6
CONTINUOUS
 10
120.6884674788
 20
44.263311248
 11
119.9659674481
 21
44.2791401556
  0
LINE
  5
5CD
100
AcDbEntity
  8
0
100
AcDbLine
 62
7
  6
CONTINUOUS
 10
183.6408095144
 20
44.9412726669
 11
184.1408095144
 21
44.9300387056
  0
LINE
  5
5CE
100
AcDbEntity
  8
0
100
AcDbLine
 62
7
  6
CONTINUOUS
 10
184.807476499
 20
44.946889649
 11
184.307476499
 21
44.9581236092
  0
LINE
  5
5CF
100
AcDbEntity
  8
0
100
AcDbLine
 62
7
  6
CONTINUOUS
 10
178.807476499
 20
45.1491009612
 11
179.307476499
 21
45.137867001
  0
LWPOLYLINE
  5
5D0
100
AcDbEntity
  8
RUNDUNGEN
100
AcDbPolyline
 62
7
  6
CONTINUOUS
 90
3
 70
0
 10
212.6220023333
 20
44.7313266261
 10
215.3833319725
 20
44.6684372324
 10
216.705048891
 20
44.635653074
  0
LINE
  5
5D1
100
AcDbEntity
  8
0
100
AcDbLine
 62
7
  6
CONTINUOUS
 10
116.5218169218
 20
43.7045866376
 11
117.0870605156
 21
43.6909072261
  0
LINE
  5
5D2
100
AcDbEntity
  8
0
100
AcDbLine
 62
7
  6
CONTINUOUS
 10
119.5832840157
 20
43.9484890475
 11
120.1485279746
 21
43.9348096652
  0
LINE
  5
5D3
100
AcDbEntity
  8
RUNDUNGEN
100
AcDbLine
 62
7
  6
CONTINUOUS
 10
129.9762679834
 20
40.9364169899
 11
131.0570202922
 21
40.9103667488
  0
LINE
  5
5D4
100
AcDbEntity
  8
0
100
AcDbLine
 62
7
  6
CONTINUOUS
 10
110.9783375541
 20
43.5124700185
 11
111.3863252585
 21
43.5009401468
  0
LINE
  5
5D5
100
AcDbEntity
  8
0
100
AcDbLine
 62
7
  6
CONTINUOUS
 10
111.9262647628
 20
43.5292784265
 11
111.5182770584
 21
43.5408082981
  0
LINE
  5
5D6
100
AcDbEntity
  8
RUNDUNGEN
100
AcDbLine
 62
7
  6
CONTINUOUS
 10
131.0570202922
 20
40.9103667488
 11
132.020149207
 21
40.8833144683
  0
LINE
  5
5D7
100
AcDbEntity
  8
RUNDUNGEN
100
AcDbLine
 62
7
  6
CONTINUOUS
 10
132.020149207
 20
40.8833144683
 11
132.8601868789
 21
40.8561113625
  0
LINE
  5
5D8
100
AcDbEntity
  8
0
100
AcDbLine
 62
7
  6
CONTINUOUS
 10
180.4741434836
 20
45.1434839811
 11
179.807476499
 21
45.1659519016
  0
LINE
  5
5D9
100
AcDbEntity
  8
0
100
AcDbLine
 62
7
  6
CONTINUOUS
 10
180.4741434836
 20
45.4436472843
 11
179.807476499
 21
45.4661152048
  0
LINE
  5
5DA
100
AcDbEntity
  8
RUNDUNGEN
100
AcDbLine
 62
7
  6
CONTINUOUS
 10
132.8601868789
 20
40.8561113625
 11
133.1771500216
 21
40.8447965197
  0
LINE
  5
5DB
100
AcDbEntity
  8
0
100
AcDbLine
 62
7
  6
CONTINUOUS
 10
118.1284633951
 20
43.7004848114
 11
117.6270000199
 21
43.7192455058
  0
LINE
  5
5DC
100
AcDbEntity
  8
0
100
AcDbLine
 62
7
  6
CONTINUOUS
 10
121.1899304891
 20
43.9443872213
 11
120.6884674788
 21
43.9631479448
  0
LINE
  5
5DD
100
AcDbEntity
  8
0
100
AcDbLine
 62
7
  6
CONTINUOUS
 10
121.1899304891
 20
44.2445505245
 11
120.6884674788
 21
44.263311248
  0
LINE
  5
5DE
100
AcDbEntity
  8
0
100
AcDbLine
 62
7
  6
CONTINUOUS
 10
117.0870605156
 20
43.6909072261
 11
117.4312677089
 21
43.6742960585
  0
LINE
  5
5DF
100
AcDbEntity
  8
0
100
AcDbLine
 62
7
  6
CONTINUOUS
 10
120.1485279746
 20
43.9348096652
 11
120.4927348028
 21
43.9181984684
  0
LINE
  5
5E0
100
AcDbEntity
  8
0
100
AcDbLine
 62
7
  6
CONTINUOUS
 10
179.307476499
 20
45.137867001
 11
179.6408095144
 21
45.1210160606
  0
LINE
  5
5E1
100
AcDbEntity
  8
0
100
AcDbLine
 62
7
  6
CONTINUOUS
 10
112.3639473342
 20
43.5054364231
 11
111.9262647628
 21
43.5292784265
  0
LINE
  5
5E2
100
AcDbEntity
  8
0
100
AcDbLine
 62
7
  6
CONTINUOUS
 10
183.307476499
 20
44.9637405894
 11
183.6408095144
 21
44.9412726669
  0
LINE
  5
5E3
100
AcDbEntity
  8
0
100
AcDbLine
 62
7
  6
CONTINUOUS
 10
118.5023653279
 20
43.6715614968
 11
118.1284633951
 21
43.7004848114
  0
LINE
  5
5E4
100
AcDbEntity
  8
0
100
AcDbLine
 62
7
  6
CONTINUOUS
 10
121.5638327868
 20
43.9154639358
 11
121.1899304891
 21
43.9443872213
  0
LINE
  5
5E5
100
AcDbEntity
  8
0
100
AcDbLine
 62
7
  6
CONTINUOUS
 10
121.5638327868
 20
44.215627239
 11
121.1899304891
 21
44.2445505245
  0
LINE
  5
5E6
100
AcDbEntity
  8
0
100
AcDbLine
 62
7
  6
CONTINUOUS
 10
180.6408095144
 20
45.1210160606
 11
180.4741434836
 21
45.1434839811
  0
LINE
  5
5E7
100
AcDbEntity
  8
0
100
AcDbLine
 62
7
  6
CONTINUOUS
 10
174.9741432451
 20
45.1434839811
 11
174.807476499
 21
45.1210160606
  0
LINE
  5
5E8
100
AcDbEntity
  8
0
100
AcDbLine
 62
7
  6
CONTINUOUS
 10
174.9741432451
 20
45.4436472843
 11
174.807476499
 21
45.4211793638
  0
LINE
  5
5E9
100
AcDbEntity
  8
RUNDUNGEN
100
AcDbLine
 62
7
  6
CONTINUOUS
 10
119.9891833206
 20
43.6580229954
 11
120.1762323891
 21
43.6800820117
  0
LINE
  5
5EA
100
AcDbEntity
  8
RUNDUNGEN
100
AcDbLine
 62
7
  6
CONTINUOUS
 10
120.1762323891
 20
43.6800820117
 11
120.41416682
 21
43.7060349872
  0
LINE
  5
5EB
100
AcDbEntity
  8
RUNDUNGEN
100
AcDbLine
 62
7
  6
CONTINUOUS
 10
120.41416682
 20
43.7060349872
 11
120.7017324563
 21
43.7351557606
  0
LINE
  5
5EC
100
AcDbEntity
  8
RUNDUNGEN
100
AcDbLine
 62
7
  6
CONTINUOUS
 10
120.7017324563
 20
43.7351557606
 11
121.0359305728
 21
43.7666789406
  0
LINE
  5
5ED
100
AcDbEntity
  8
RUNDUNGEN
100
AcDbLine
 62
7
  6
CONTINUOUS
 10
121.0359305728
 20
43.7666789406
 11
121.4158732178
 21
43.8001582574
  0
LINE
  5
5EE
100
AcDbEntity
  8
RUNDUNGEN
100
AcDbLine
 62
7
  6
CONTINUOUS
 10
121.4158732178
 20
43.8001582574
 11
121.8397560741
 21
43.8351417214
  0
LINE
  5
5EF
100
AcDbEntity
  8
0
100
AcDbLine
 62
7
  6
CONTINUOUS
 10
114.1905906941
 20
43.2840153593
 11
114.5732741264
 21
43.3145031642
  0
LINE
  5
5F0
100
AcDbEntity
  8
0
100
AcDbLine
 62
7
  6
CONTINUOUS
 10
116.1677883671
 20
43.4415356797
 11
116.6142524932
 21
43.4771047951
  0
LINE
  5
5F1
100
AcDbEntity
  8
0
100
AcDbLine
 62
7
  6
CONTINUOUS
 10
118.1449860402
 20
43.599056
 11
118.4001084501
 21
43.619381213
  0
LINE
  5
5F2
100
AcDbEntity
  8
0
100
AcDbLine
 62
7
  6
CONTINUOUS
 10
119.9308421795
 20
43.7413324325
 11
121.461575909
 21
43.863283652
  0
LINE
  5
5F3
100
AcDbEntity
  8
0
100
AcDbLine
 62
7
  6
CONTINUOUS
 10
120.5180393675
 20
43.8761808049
 11
119.3699890704
 21
43.7847173903
  0
LINE
  5
5F4
100
AcDbEntity
  8
0
100
AcDbLine
 62
7
  6
CONTINUOUS
 10
117.4565719086
 20
43.6322783659
 11
117.2014494987
 21
43.611953153
  0
LINE
  5
5F5
100
AcDbEntity
  8
0
100
AcDbLine
 62
7
  6
CONTINUOUS
 10
111.2708961761
 20
43.3596432002
 11
112.3551658707
 21
43.4460253116
  0
LINE
  5
5F6
100
AcDbEntity
  8
0
100
AcDbLine
 62
7
  6
CONTINUOUS
 10
111.5391905531
 20
43.4690850622
 11
110.3273597448
 21
43.3725403516
  0
LINE
  5
5F7
100
AcDbEntity
  8
0
100
AcDbLine
 62
7
  6
CONTINUOUS
 10
113.8660257832
 20
43.8599507841
 11
115.0140760803
 21
43.9514141987
  0
LINE
  5
5F8
100
AcDbEntity
  8
0
100
AcDbLine
 62
7
  6
CONTINUOUS
 10
107.9685182258
 20
43.4047832362
 11
109.1803490341
 21
43.5013279468
  0
LINE
  5
5F9
100
AcDbEntity
  8
0
100
AcDbLine
 62
7
  6
CONTINUOUS
 10
114.0705396489
 20
43.9643113501
 11
112.5398059195
 21
43.8423601306
  0
LINE
  5
5FA
100
AcDbEntity
  8
0
100
AcDbLine
 62
7
  6
CONTINUOUS
 10
112.0295614646
 20
43.8017097338
 11
111.6468780323
 21
43.7712219289
  0
LINE
  5
5FB
100
AcDbEntity
  8
0
100
AcDbLine
 62
7
  6
CONTINUOUS
 10
110.1161443028
 20
43.6492707094
 11
109.733460688
 21
43.61878289
  0
LINE
  5
5FC
100
AcDbEntity
  8
0
100
AcDbLine
 62
7
  6
CONTINUOUS
 10
108.3302881634
 20
43.506994277
 11
106.799554434
 21
43.3850430575
  0
LINE
  5
5FD
100
AcDbEntity
  8
0
100
AcDbLine
 62
7
  6
CONTINUOUS
 10
114.0705396489
 20
44.2644746533
 11
112.5398059195
 21
44.1425234338
  0
LINE
  5
5FE
100
AcDbEntity
  8
0
100
AcDbLine
 62
7
  6
CONTINUOUS
 10
112.0295614646
 20
44.101873037
 11
111.6468780323
 21
44.0713852321
  0
LINE
  5
5FF
100
AcDbEntity
  8
0
100
AcDbLine
 62
7
  6
CONTINUOUS
 10
110.1161443028
 20
43.9494340126
 11
109.733460688
 21
43.9189461932
  0
LINE
  5
600
100
AcDbEntity
  8
0
100
AcDbLine
 62
7
  6
CONTINUOUS
 10
108.3302881634
 20
43.8071575802
 11
106.799554434
 21
43.6852063607
  0
LINE
  5
601
100
AcDbEntity
  8
RUNDUNGEN
100
AcDbLine
 62
7
  6
CONTINUOUS
 10
121.8397560741
 20
43.8351417214
 11
122.3070251533
 21
43.8713444962
  0
LINE
  5
602
100
AcDbEntity
  8
RUNDUNGEN
100
AcDbLine
 62
7
  6
CONTINUOUS
 10
122.3070251533
 20
43.8713444962
 11
123.3679307769
 21
43.9463501003
  0
LINE
  5
603
100
AcDbEntity
  8
RUNDUNGEN
100
AcDbLine
 62
7
  6
CONTINUOUS
 10
123.3679307769
 20
43.9463501003
 11
124.5936324285
 21
44.0235639672
  0
LINE
  5
604
100
AcDbEntity
  8
RUNDUNGEN
100
AcDbLine
 62
7
  6
CONTINUOUS
 10
124.5936324285
 20
44.0235639672
 11
125.9803622921
 21
44.1018137562
  0
LINE
  5
605
100
AcDbEntity
  8
RUNDUNGEN
100
AcDbLine
 62
7
  6
CONTINUOUS
 10
125.9803622921
 20
44.1018137562
 11
127.5264413357
 21
44.1802703488
  0
LINE
  5
606
100
AcDbEntity
  8
0
100
AcDbLine
 62
7
  6
CONTINUOUS
 10
117.6688272159
 20
43.5757990311
 11
118.1449860402
 21
43.599056
  0
LINE
  5
607
100
AcDbEntity
  8
0
100
AcDbLine
 62
7
  6
CONTINUOUS
 10
108.8064471565
 20
43.5302512606
 11
108.3302881634
 21
43.506994277
  0
LINE
  5
608
100
AcDbEntity
  8
0
100
AcDbLine
 62
7
  6
CONTINUOUS
 10
114.5466988244
 20
43.9875683484
 11
114.0705396489
 21
43.9643113501
  0
LINE
  5
609
100
AcDbEntity
  8
0
100
AcDbLine
 62
7
  6
CONTINUOUS
 10
108.8064471565
 20
43.8304145638
 11
108.3302881634
 21
43.8071575802
  0
LINE
  5
60A
100
AcDbEntity
  8
0
100
AcDbLine
 62
7
  6
CONTINUOUS
 10
114.5466988244
 20
44.2877316516
 11
114.0705396489
 21
44.2644746533
  0
LINE
  5
60B
100
AcDbEntity
  8
RUNDUNGEN
100
AcDbLine
 62
7
  6
CONTINUOUS
 10
127.5264413357
 20
44.1802703488
 11
129.2316086342
 21
44.2583027852
  0
LINE
  5
60C
100
AcDbEntity
  8
0
100
AcDbLine
 62
7
  6
CONTINUOUS
 10
117.2014494987
 20
43.611953153
 11
116.7890713819
 21
43.5937774943
  0
LINE
  5
60D
100
AcDbEntity
  8
0
100
AcDbLine
 62
7
  6
CONTINUOUS
 10
115.0140760803
 20
43.9514141987
 11
115.4264541971
 21
43.9695898574
  0
LINE
  5
60E
100
AcDbEntity
  8
RUNDUNGEN
100
AcDbLine
 62
7
  6
CONTINUOUS
 10
129.2316086342
 20
44.2583027852
 11
131.0960170695
 21
44.3353723948
  0
LINE
  5
60F
100
AcDbEntity
  8
0
100
AcDbLine
 62
7
  6
CONTINUOUS
 10
172.307476499
 20
45.4829661452
 11
171.307476499
 21
45.4436472843
  0
LINE
  5
610
100
AcDbEntity
  8
0
100
AcDbLine
 62
7
  6
CONTINUOUS
 10
109.1803490341
 20
43.5013279468
 11
109.5289468222
 21
43.514422324
  0
LINE
  5
611
100
AcDbEntity
  8
RUNDUNGEN
100
AcDbLine
 62
7
  6
CONTINUOUS
 10
131.0960170695
 20
44.3353723948
 11
133.1199468939
 21
44.4109935733
  0
LINE
  5
612
100
AcDbEntity
  8
RUNDUNGEN
100
AcDbLine
 62
7
  6
CONTINUOUS
 10
133.1199468939
 20
44.4109935733
 11
135.3035953916
 21
44.4847098227
  0
LINE
  5
613
100
AcDbEntity
  8
RUNDUNGEN
100
AcDbLine
 62
7
  6
CONTINUOUS
 10
135.3035953916
 20
44.4847098227
 11
137.6469100784
 21
44.5560786119
  0
LINE
  5
614
100
AcDbEntity
  8
0
100
AcDbLine
 62
7
  6
CONTINUOUS
 10
115.1163330131
 20
44.0035944817
 11
114.5466988244
 21
43.9875683484
  0
LINE
  5
615
100
AcDbEntity
  8
0
100
AcDbLine
 62
7
  6
CONTINUOUS
 10
115.1163330131
 20
44.3037577849
 11
114.5466988244
 21
44.2877316516
  0
LWPOLYLINE
  5
616
100
AcDbEntity
  8
RUNDUNGEN
100
AcDbPolyline
 62
7
  6
CONTINUOUS
 90
3
 70
0
 10
137.6469100784
 20
44.5560786119
 10
140.1494481436
 20
44.6246616439
 10
141.4601473807
 20
44.6577710397
  0
LINE
  5
617
100
AcDbEntity
  8
RUNDUNGEN
100
AcDbLine
 62
7
  6
CONTINUOUS
 10
216.705048891
 20
44.635653074
 11
219.2300324229
 21
44.5676753915
  0
LINE
  5
618
100
AcDbEntity
  8
RUNDUNGEN
100
AcDbLine
 62
7
  6
CONTINUOUS
 10
219.2300324229
 20
44.5676753915
 11
221.5966809605
 21
44.4968385378
  0
LINE
  5
619
100
AcDbEntity
  8
RUNDUNGEN
100
AcDbLine
 62
7
  6
CONTINUOUS
 10
221.5966809605
 20
44.4968385378
 11
223.8048871067
 21
44.42356153
  0
LINE
  5
61A
100
AcDbEntity
  8
RUNDUNGEN
100
AcDbLine
 62
7
  6
CONTINUOUS
 10
223.8048871067
 20
44.42356153
 11
225.8548414879
 21
44.3482639828
  0
LINE
  5
61B
100
AcDbEntity
  8
RUNDUNGEN
100
AcDbLine
 62
7
  6
CONTINUOUS
 10
225.8548414879
 20
44.3482639828
 11
227.7468864503
 21
44.2713759831
  0
LINE
  5
61C
100
AcDbEntity
  8
RUNDUNGEN
100
AcDbLine
 62
7
  6
CONTINUOUS
 10
227.7468864503
 20
44.2713759831
 11
229.4813444865
 21
44.1933532367
  0
LINE
  5
61D
100
AcDbEntity
  8
RUNDUNGEN
100
AcDbLine
 62
7
  6
CONTINUOUS
 10
229.4813444865
 20
44.1933532367
 11
231.0583043287
 21
44.114700813
  0
LINE
  5
61E
100
AcDbEntity
  8
RUNDUNGEN
100
AcDbLine
 62
7
  6
CONTINUOUS
 10
231.0583043287
 20
44.114700813
 11
232.4773354537
 21
44.036011603
  0
LINE
  5
61F
100
AcDbEntity
  8
RUNDUNGEN
100
AcDbLine
 62
7
  6
CONTINUOUS
 10
232.4773354537
 20
44.036011603
 11
233.7365379581
 21
43.9580665843
  0
LWPOLYLINE
  5
620
100
AcDbEntity
  8
RUNDUNGEN
100
AcDbPolyline
 62
7
  6
CONTINUOUS
 90
11
 70
0
 10
233.7365379581
 20
43.9580665843
 10
234.8313431873
 20
43.8820137622
 10
235.3154334532
 20
43.8451624808
 10
235.7559379259
 20
43.8094403509
 10
236.1522238102
 20
43.7751262296
 10
236.5023842336
 20
43.7426658588
 10
236.805488037
 20
43.7124940428
 10
237.0582937098
 20
43.6853812397
 10
237.2592965403
 20
43.6620670962
 10
237.40277167
 20
43.6439974346
 10
237.4382151454
 20
43.6392548068
  0
LINE
  5
621
100
AcDbEntity
  8
0
100
AcDbLine
 62
7
  6
CONTINUOUS
 10
184.307476499
 20
44.9581236092
 11
184.1408095144
 21
44.9749745535
  0
LINE
  5
622
100
AcDbEntity
  8
0
100
AcDbLine
 62
7
  6
CONTINUOUS
 10
180.6408095144
 20
45.4211793638
 11
180.4741434836
 21
45.4436472843
  0
LINE
  5
623
100
AcDbEntity
  8
0
100
AcDbLine
 62
7
  6
CONTINUOUS
 10
171.307476499
 20
45.0985481243
 11
171.307476499
 21
45.4436472843
  0
LINE
  5
624
100
AcDbEntity
  8
0
100
AcDbLine
 62
7
  6
CONTINUOUS
 10
172.307476499
 20
45.137867001
 11
172.307476499
 21
44.9188047444
  0
LINE
  5
625
100
AcDbEntity
  8
0
100
AcDbLine
 62
7
  6
CONTINUOUS
 10
172.307476499
 20
45.182802842
 11
172.307476499
 21
45.4829661452
  0
LINE
  5
626
100
AcDbEntity
  8
0
100
AcDbLine
 62
7
  6
CONTINUOUS
 10
111.5732761974
 20
43.4864784899
 11
111.5391905531
 21
43.4690850622
  0
LINE
  5
627
100
AcDbEntity
  8
0
100
AcDbLine
 62
7
  6
CONTINUOUS
 10
120.6159053406
 20
43.898655514
 11
120.5180393675
 21
43.8761808049
  0
LINE
  5
628
100
AcDbEntity
  8
0
100
AcDbLine
 62
7
  6
CONTINUOUS
 10
117.5544382466
 20
43.6547531041
 11
117.4565719086
 21
43.6322783659
  0
LINE
  5
629
100
AcDbEntity
  8
0
100
AcDbLine
 62
7
  6
CONTINUOUS
 10
121.461575909
 20
43.863283652
 11
121.623222927
 21
43.8908397009
  0
LINE
  5
62A
100
AcDbEntity
  8
0
100
AcDbLine
 62
7
  6
CONTINUOUS
 10
118.4001084501
 20
43.619381213
 11
118.5617551031
 21
43.6469372328
  0
LWPOLYLINE
  5
62B
100
AcDbEntity
  8
RUNDUNGEN
100
AcDbPolyline
 62
7
  6
CONTINUOUS
 90
5
 70
0
 10
119.8008968019
 20
43.6336820351
 10
119.7858541925
 20
43.6312082914
 10
119.7888674001
 20
43.6315909437
 10
119.8590232178
 20
43.6413625687
 10
119.9891833206
 20
43.6580229954
  0
LINE
  5
62C
100
AcDbEntity
  8
0
100
AcDbLine
 62
7
  6
CONTINUOUS
 10
173.307476499
 20
44.9188047444
 11
173.307476499
 21
45.4829661452
  0
LINE
  5
62D
100
AcDbEntity
  8
0
100
AcDbLine
 62
7
  6
CONTINUOUS
 10
174.6408097529
 20
45.2470529522
 11
174.6408097529
 21
44.946889649
  0
LINE
  5
62E
100
AcDbEntity
  8
0
100
AcDbLine
 62
7
  6
CONTINUOUS
 10
174.807476499
 20
45.4211793638
 11
174.807476499
 21
45.1210160606
  0
LINE
  5
62F
100
AcDbEntity
  8
0
100
AcDbLine
 62
7
  6
CONTINUOUS
 10
174.9741432451
 20
45.4436472843
 11
174.9741432451
 21
45.1434839811
  0
LINE
  5
630
100
AcDbEntity
  8
0
100
AcDbLine
 62
7
  6
CONTINUOUS
 10
175.6408099913
 20
45.4661152048
 11
175.6408099913
 21
45.1659519016
  0
LINE
  5
631
100
AcDbEntity
  8
0
100
AcDbLine
 62
7
  6
CONTINUOUS
 10
176.307476499
 20
45.4773491651
 11
176.307476499
 21
45.1771858619
  0
LINE
  5
632
100
AcDbEntity
  8
0
100
AcDbLine
 62
7
  6
CONTINUOUS
 10
177.4741430067
 20
45.4829661452
 11
177.4741430067
 21
45.182802842
  0
LINE
  5
633
100
AcDbEntity
  8
0
100
AcDbLine
 62
7
  6
CONTINUOUS
 10
178.1408099913
 20
45.4829661452
 11
178.1408099913
 21
45.182802842
  0
LINE
  5
634
100
AcDbEntity
  8
B-ACHSEN
100
AcDbLine
 62
2
  6
CENTER
 10
178.6408099913
 20
64.9039164058
 11
178.6408099913
 21
11.9039164058
  0
LINE
  5
635
100
AcDbEntity
  8
B-ACHSEN
100
AcDbLine
 62
2
  6
CENTER
 10
178.6408099913
 20
64.9039164058
 11
178.6408099913
 21
117.9039164058
  0
LINE
  5
636
100
AcDbEntity
  8
0
100
AcDbLine
 62
7
  6
CONTINUOUS
 10
179.1408099913
 20
45.4773491651
 11
179.1408099913
 21
45.1771858619
  0
LINE
  5
637
100
AcDbEntity
  8
0
100
AcDbLine
 62
7
  6
CONTINUOUS
 10
179.307476499
 20
45.137867001
 11
179.307476499
 21
45.087314164
  0
LINE
  5
638
100
AcDbEntity
  8
B-ACHSEN
100
AcDbLine
 62
2
  6
CENTER
 10
178.6408099913
 20
64.9039164058
 11
86.6871080939
 21
64.9039164058
  0
LINE
  5
639
100
AcDbEntity
  8
B-ACHSEN
100
AcDbLine
 62
2
  6
CENTER
 10
178.6408099913
 20
64.9039164058
 11
271.3164303045
 21
64.9039164058
  0
LINE
  5
63A
100
AcDbEntity
  8
0
100
AcDbLine
 62
7
  6
CONTINUOUS
 10
179.6408095144
 20
45.1210160606
 11
179.6408095144
 21
45.1097820846
  0
LINE
  5
63B
100
AcDbEntity
  8
0
100
AcDbLine
 62
7
  6
CONTINUOUS
 10
179.807476499
 20
45.4661152048
 11
179.807476499
 21
45.1659519016
  0
LINE
  5
63C
100
AcDbEntity
  8
0
100
AcDbLine
 62
7
  6
CONTINUOUS
 10
180.4741434836
 20
45.4436472843
 11
180.4741434836
 21
45.1434839811
  0
LINE
  5
63D
100
AcDbEntity
  8
0
100
AcDbLine
 62
7
  6
CONTINUOUS
 10
180.6408095144
 20
45.4211793638
 11
180.6408095144
 21
45.1210160606
  0
LINE
  5
63E
100
AcDbEntity
  8
0
100
AcDbLine
 62
7
  6
CONTINUOUS
 10
180.6408095144
 20
45.087314164
 11
180.6408095144
 21
44.946889649
  0
LINE
  5
63F
100
AcDbEntity
  8
0
100
AcDbLine
 62
7
  6
CONTINUOUS
 10
181.9741434836
 20
45.3987114275
 11
181.9741434836
 21
45.0985481243
  0
LINE
  5
640
100
AcDbEntity
  8
0
100
AcDbLine
 62
7
  6
CONTINUOUS
 10
183.307476499
 20
45.0760802038
 11
183.307476499
 21
44.9637405894
  0
LINE
  5
641
100
AcDbEntity
  8
0
100
AcDbLine
 62
7
  6
CONTINUOUS
 10
183.307476499
 20
45.4436472843
 11
183.307476499
 21
45.0985481243
  0
LINE
  5
642
100
AcDbEntity
  8
0
100
AcDbLine
 62
7
  6
CONTINUOUS
 10
184.1408095144
 20
45.4436472843
 11
184.1408095144
 21
45.1434839811
  0
LINE
  5
643
100
AcDbEntity
  8
0
100
AcDbLine
 62
7
  6
CONTINUOUS
 10
184.1408095144
 20
44.9749745535
 11
184.1408095144
 21
45.0760802038
  0
LINE
  5
644
100
AcDbEntity
  8
0
100
AcDbLine
 62
7
  6
CONTINUOUS
 10
184.307476499
 20
45.0985481243
 11
184.307476499
 21
44.9581236092
  0
LINE
  5
645
100
AcDbEntity
  8
0
100
AcDbLine
 62
7
  6
CONTINUOUS
 10
184.807476499
 20
45.0760802038
 11
184.807476499
 21
44.946889649
  0
LINE
  5
646
100
AcDbEntity
  8
0
100
AcDbLine
 62
7
  6
CONTINUOUS
 10
185.6408095144
 20
45.0760802038
 11
185.6408095144
 21
44.9412726669
  0
LINE
  5
647
100
AcDbEntity
  8
0
100
AcDbLine
 62
7
  6
CONTINUOUS
 10
185.9741434836
 20
45.3987114275
 11
185.9741434836
 21
45.0985481243
  0
LWPOLYLINE
  5
648
100
AcDbEntity
  8
RUNDUNGEN
100
AcDbPolyline
 62
7
  6
CONTINUOUS
 90
12
 70
0
 10
237.480668982
 20
86.1741417264
 10
237.4957350934
 20
86.1766195739
 10
237.4927931858
 20
86.1762478236
 10
237.4227074215
 20
86.1664850761
 10
237.292616605
 20
86.1498319608
 10
237.1056363007
 20
86.1277790249
 10
236.8677705551
 20
86.1018312007
 10
236.580274448
 20
86.0727148705
 10
236.24614758
 20
86.0411956532
 10
235.8662781908
 20
86.0077198712
 10
235.4424703558
 20
85.9727395925
 10
234.9752785719
 20
85.936539691
  0
LINE
  5
649
100
AcDbEntity
  8
RUNDUNGEN
100
AcDbLine
 62
7
  6
CONTINUOUS
 10
234.9752785719
 20
85.936539691
 11
233.9145336823
 21
85.8615390582
  0
LINE
  5
64A
100
AcDbEntity
  8
RUNDUNGEN
100
AcDbLine
 62
7
  6
CONTINUOUS
 10
233.9145336823
 20
85.8615390582
 11
232.6890008007
 21
85.7843292465
  0
LINE
  5
64B
100
AcDbEntity
  8
RUNDUNGEN
100
AcDbLine
 62
7
  6
CONTINUOUS
 10
232.6890008007
 20
85.7843292465
 11
231.3024472827
 21
85.706082709
  0
LINE
  5
64C
100
AcDbEntity
  8
RUNDUNGEN
100
AcDbLine
 62
7
  6
CONTINUOUS
 10
231.3024472827
 20
85.706082709
 11
229.7565535752
 21
85.6276287258
  0
LINE
  5
64D
100
AcDbEntity
  8
RUNDUNGEN
100
AcDbLine
 62
7
  6
CONTINUOUS
 10
229.7565535752
 20
85.6276287258
 11
228.0515817922
 21
85.5495983463
  0
LINE
  5
64E
100
AcDbEntity
  8
RUNDUNGEN
100
AcDbLine
 62
7
  6
CONTINUOUS
 10
228.0515817922
 20
85.5495983463
 11
226.187380368
 21
85.4725302973
  0
LINE
  5
64F
100
AcDbEntity
  8
RUNDUNGEN
100
AcDbLine
 62
7
  6
CONTINUOUS
 10
226.187380368
 20
85.4725302973
 11
224.163670469
 21
85.3969102117
  0
LINE
  5
650
100
AcDbEntity
  8
RUNDUNGEN
100
AcDbLine
 62
7
  6
CONTINUOUS
 10
224.163670469
 20
85.3969102117
 11
221.980256288
 21
85.3231945912
  0
LINE
  5
651
100
AcDbEntity
  8
RUNDUNGEN
100
AcDbLine
 62
7
  6
CONTINUOUS
 10
221.980256288
 20
85.3231945912
 11
219.6371920084
 21
85.2518259562
  0
LINE
  5
652
100
AcDbEntity
  8
RUNDUNGEN
100
AcDbLine
 62
7
  6
CONTINUOUS
 10
219.6371920084
 20
85.2518259562
 11
217.1349216967
 21
85.1832425715
  0
LINE
  5
653
100
AcDbEntity
  8
RUNDUNGEN
100
AcDbLine
 62
7
  6
CONTINUOUS
 10
217.1349216967
 20
85.1832425715
 11
214.4744044127
 21
85.1178847739
  0
LINE
  5
654
100
AcDbEntity
  8
RUNDUNGEN
100
AcDbLine
 62
7
  6
CONTINUOUS
 10
214.4744044127
 20
85.1178847739
 11
211.6572290311
 21
85.0561990372
  0
LINE
  5
655
100
AcDbEntity
  8
RUNDUNGEN
100
AcDbLine
 62
7
  6
CONTINUOUS
 10
211.6572290311
 20
85.0561990372
 11
208.6858757709
 21
84.9986432148
  0
LINE
  5
656
100
AcDbEntity
  8
RUNDUNGEN
100
AcDbLine
 62
7
  6
CONTINUOUS
 10
208.6858757709
 20
84.9986432148
 11
205.5673281976
 21
84.9457414714
  0
LINE
  5
657
100
AcDbEntity
  8
RUNDUNGEN
100
AcDbLine
 62
7
  6
CONTINUOUS
 10
205.5673281976
 20
84.9457414714
 11
202.3135364615
 21
84.8980481862
  0
LINE
  5
658
100
AcDbEntity
  8
RUNDUNGEN
100
AcDbLine
 62
7
  6
CONTINUOUS
 10
202.3135364615
 20
84.8980481862
 11
198.938293609
 21
84.8560696745
  0
LINE
  5
659
100
AcDbEntity
  8
RUNDUNGEN
100
AcDbLine
 62
7
  6
CONTINUOUS
 10
198.938293609
 20
84.8560696745
 11
195.4569723494
 21
84.8202553881
  0
LINE
  5
65A
100
AcDbEntity
  8
RUNDUNGEN
100
AcDbLine
 62
7
  6
CONTINUOUS
 10
195.4569723494
 20
84.8202553881
 11
191.8863486104
 21
84.790991972
  0
LINE
  5
65B
100
AcDbEntity
  8
RUNDUNGEN
100
AcDbLine
 62
7
  6
CONTINUOUS
 10
191.8863486104
 20
84.790991972
 11
188.2443981371
 21
84.7685978617
  0
LINE
  5
65C
100
AcDbEntity
  8
RUNDUNGEN
100
AcDbLine
 62
7
  6
CONTINUOUS
 10
188.2443981371
 20
84.7685978617
 11
184.5500649456
 21
84.7533188872
  0
LINE
  5
65D
100
AcDbEntity
  8
RUNDUNGEN
100
AcDbLine
 62
7
  6
CONTINUOUS
 10
184.5500649456
 20
84.7533188872
 11
180.823012477
 21
84.7453248365
  0
LINE
  5
65E
100
AcDbEntity
  8
RUNDUNGEN
100
AcDbLine
 62
7
  6
CONTINUOUS
 10
180.823012477
 20
84.7453248365
 11
177.0833789985
 21
84.7447068221
  0
LINE
  5
65F
100
AcDbEntity
  8
RUNDUNGEN
100
AcDbLine
 62
7
  6
CONTINUOUS
 10
177.0833789985
 20
84.7447068221
 11
173.3517435957
 21
84.7514751105
  0
LINE
  5
660
100
AcDbEntity
  8
RUNDUNGEN
100
AcDbLine
 62
7
  6
CONTINUOUS
 10
173.3517435957
 20
84.7514751105
 11
169.6486712302
 21
84.7655572728
  0
LINE
  5
661
100
AcDbEntity
  8
RUNDUNGEN
100
AcDbLine
 62
7
  6
CONTINUOUS
 10
169.6486712302
 20
84.7655572728
 11
165.9943113961
 21
84.786798933
  0
LINE
  5
662
100
AcDbEntity
  8
RUNDUNGEN
100
AcDbLine
 62
7
  6
CONTINUOUS
 10
165.9943113961
 20
84.786798933
 11
162.408133618
 21
84.8149661203
  0
LINE
  5
663
100
AcDbEntity
  8
RUNDUNGEN
100
AcDbLine
 62
7
  6
CONTINUOUS
 10
162.408133618
 20
84.8149661203
 11
158.908663698
 21
84.8497487947
  0
LINE
  5
664
100
AcDbEntity
  8
RUNDUNGEN
100
AcDbLine
 62
7
  6
CONTINUOUS
 10
158.908663698
 20
84.8497487947
 11
155.5132358859
 21
84.8907652291
  0
LINE
  5
665
100
AcDbEntity
  8
RUNDUNGEN
100
AcDbLine
 62
7
  6
CONTINUOUS
 10
155.5132358859
 20
84.8907652291
 11
152.2377724775
 21
84.937567383
  0
LINE
  5
666
100
AcDbEntity
  8
RUNDUNGEN
100
AcDbLine
 62
7
  6
CONTINUOUS
 10
152.2377724775
 20
84.937567383
 11
149.0965939393
 21
84.9896471463
  0
LINE
  5
667
100
AcDbEntity
  8
RUNDUNGEN
100
AcDbLine
 62
7
  6
CONTINUOUS
 10
149.0965939393
 20
84.9896471463
 11
146.1022168621
 21
85.0464439342
  0
LINE
  5
668
100
AcDbEntity
  8
RUNDUNGEN
100
AcDbLine
 62
7
  6
CONTINUOUS
 10
146.1022168621
 20
85.0464439342
 11
143.2624229913
 21
85.1074162628
  0
LINE
  5
669
100
AcDbEntity
  8
RUNDUNGEN
100
AcDbLine
 62
7
  6
CONTINUOUS
 10
143.2624229913
 20
85.1074162628
 11
140.5793529439
 21
85.1721088093
  0
LINE
  5
66A
100
AcDbEntity
  8
RUNDUNGEN
100
AcDbLine
 62
7
  6
CONTINUOUS
 10
140.5793529439
 20
85.1721088093
 11
138.0540993213
 21
85.2400860886
  0
LINE
  5
66B
100
AcDbEntity
  8
RUNDUNGEN
100
AcDbLine
 62
7
  6
CONTINUOUS
 10
138.0540993213
 20
85.2400860886
 11
135.687198702
 21
85.3109230287
  0
LINE
  5
66C
100
AcDbEntity
  8
RUNDUNGEN
100
AcDbLine
 62
7
  6
CONTINUOUS
 10
135.687198702
 20
85.3109230287
 11
133.4787575491
 21
85.38420056
  0
LINE
  5
66D
100
AcDbEntity
  8
RUNDUNGEN
100
AcDbLine
 62
7
  6
CONTINUOUS
 10
133.4787575491
 20
85.38420056
 11
131.428583256
 21
85.459499071
  0
LINE
  5
66E
100
AcDbEntity
  8
RUNDUNGEN
100
AcDbLine
 62
7
  6
CONTINUOUS
 10
131.428583256
 20
85.459499071
 11
129.5363315143
 21
85.5363884856
  0
LINE
  5
66F
100
AcDbEntity
  8
RUNDUNGEN
100
AcDbLine
 62
7
  6
CONTINUOUS
 10
129.5363315143
 20
85.5363884856
 11
127.8016782393
 21
85.6144131243
  0
LINE
  5
670
100
AcDbEntity
  8
RUNDUNGEN
100
AcDbLine
 62
7
  6
CONTINUOUS
 10
127.8016782393
 20
85.6144131243
 11
126.2245333674
 21
85.6930679645
  0
LINE
  5
671
100
AcDbEntity
  8
RUNDUNGEN
100
AcDbLine
 62
7
  6
CONTINUOUS
 10
126.2245333674
 20
85.6930679645
 11
124.8053261513
 21
85.7717601996
  0
LINE
  5
672
100
AcDbEntity
  8
RUNDUNGEN
100
AcDbLine
 62
7
  6
CONTINUOUS
 10
124.8053261513
 20
85.7717601996
 11
123.5459546799
 21
85.8497090269
  0
LWPOLYLINE
  5
673
100
AcDbEntity
  8
RUNDUNGEN
100
AcDbPolyline
 62
7
  6
CONTINUOUS
 90
11
 70
0
 10
123.5459546799
 20
85.8497090269
 10
122.4509878654
 20
85.9257665673
 10
121.9668195058
 20
85.9626205827
 10
121.5262396423
 20
85.9983457545
 10
121.1298796706
 20
86.0326632436
 10
120.7796474442
 20
86.0651274161
 10
120.476472688
 20
86.0953035381
 10
120.2235973164
 20
86.1224213339
 10
120.0225251825
 20
86.1457413005
 10
119.8789797922
 20
86.1638180328
 10
119.8435115072
 20
86.1685635358
  0
LINE
  5
674
100
AcDbEntity
  8
RUNDUNGEN
100
AcDbLine
 62
7
  6
CONTINUOUS
 10
118.5534416351
 20
88.769739981
 11
118.2292371002
 21
88.7565788282
  0
LINE
  5
675
100
AcDbEntity
  8
RUNDUNGEN
100
AcDbLine
 62
7
  6
CONTINUOUS
 10
133.177896174
 20
88.9630385154
 11
132.6516977065
 21
88.944611603
  0
LINE
  5
676
100
AcDbEntity
  8
RUNDUNGEN
100
AcDbLine
 62
7
  6
CONTINUOUS
 10
132.6516977065
 20
88.944611603
 11
131.7333569595
 21
88.9160408193
  0
LINE
  5
677
100
AcDbEntity
  8
RUNDUNGEN
100
AcDbLine
 62
7
  6
CONTINUOUS
 10
131.7333569595
 20
88.9160408193
 11
130.6902187693
 21
88.8881569721
  0
LINE
  5
678
100
AcDbEntity
  8
RUNDUNGEN
100
AcDbLine
 62
7
  6
CONTINUOUS
 10
130.6902187693
 20
88.8881569721
 11
129.519812482
 21
88.861591979
  0
LINE
  5
679
100
AcDbEntity
  8
RUNDUNGEN
100
AcDbLine
 62
7
  6
CONTINUOUS
 10
129.519812482
 20
88.861591979
 11
128.2269815128
 21
88.8371076315
  0
LINE
  5
67A
100
AcDbEntity
  8
RUNDUNGEN
100
AcDbLine
 62
7
  6
CONTINUOUS
 10
128.2269815128
 20
88.8371076315
 11
126.8193712037
 21
88.8154272413
  0
LINE
  5
67B
100
AcDbEntity
  8
RUNDUNGEN
100
AcDbLine
 62
7
  6
CONTINUOUS
 10
126.8193712037
 20
88.8154272413
 11
125.3078188223
 21
88.7972488316
  0
LINE
  5
67C
100
AcDbEntity
  8
RUNDUNGEN
100
AcDbLine
 62
7
  6
CONTINUOUS
 10
125.3078188223
 20
88.7972488316
 11
123.7063215278
 21
88.7832226144
  0
LINE
  5
67D
100
AcDbEntity
  8
RUNDUNGEN
100
AcDbLine
 62
7
  6
CONTINUOUS
 10
123.7063215278
 20
88.7832226144
 11
122.0318875974
 21
88.7739333473
  0
LINE
  5
67E
100
AcDbEntity
  8
RUNDUNGEN
100
AcDbLine
 62
7
  6
CONTINUOUS
 10
122.0318875974
 20
88.7739333473
 11
120.3048952867
 21
88.7698854782
  0
LINE
  5
67F
100
AcDbEntity
  8
RUNDUNGEN
100
AcDbLine
 62
7
  6
CONTINUOUS
 10
118.5534416351
 20
88.769739981
 11
120.3048952867
 21
88.7698854782
  0
LINE
  5
680
100
AcDbEntity
  8
RUNDUNGEN
100
AcDbLine
 62
7
  6
CONTINUOUS
 10
238.7281783475
 20
88.769739981
 11
236.0162637716
 21
88.7714505372
  0
LINE
  5
681
100
AcDbEntity
  8
RUNDUNGEN
100
AcDbLine
 62
7
  6
CONTINUOUS
 10
236.0162637716
 20
88.7714505372
 11
234.307613904
 21
88.7785003347
  0
LINE
  5
682
100
AcDbEntity
  8
RUNDUNGEN
100
AcDbLine
 62
7
  6
CONTINUOUS
 10
234.307613904
 20
88.7785003347
 11
232.6971144682
 21
88.7902724955
  0
LINE
  5
683
100
AcDbEntity
  8
RUNDUNGEN
100
AcDbLine
 62
7
  6
CONTINUOUS
 10
232.6971144682
 20
88.7902724955
 11
231.1900903764
 21
88.80604773
  0
LINE
  5
684
100
AcDbEntity
  8
RUNDUNGEN
100
AcDbLine
 62
7
  6
CONTINUOUS
 10
231.1900903764
 20
88.80604773
 11
229.7890771971
 21
88.8251892003
  0
LINE
  5
685
100
AcDbEntity
  8
RUNDUNGEN
100
AcDbLine
 62
7
  6
CONTINUOUS
 10
229.7890771971
 20
88.8251892003
 11
228.4944901568
 21
88.8471413855
  0
LINE
  5
686
100
AcDbEntity
  8
RUNDUNGEN
100
AcDbLine
 62
7
  6
CONTINUOUS
 10
228.4944901568
 20
88.8471413855
 11
227.3053519992
 21
88.8714158217
  0
LINE
  5
687
100
AcDbEntity
  8
RUNDUNGEN
100
AcDbLine
 62
7
  6
CONTINUOUS
 10
227.3053519992
 20
88.8714158217
 11
226.2245996904
 21
88.8974660629
  0
LINE
  5
688
100
AcDbEntity
  8
RUNDUNGEN
100
AcDbLine
 62
7
  6
CONTINUOUS
 10
226.2245996904
 20
88.8974660629
 11
225.2614707756
 21
88.9245183434
  0
LINE
  5
689
100
AcDbEntity
  8
RUNDUNGEN
100
AcDbLine
 62
7
  6
CONTINUOUS
 10
225.2614707756
 20
88.9245183434
 11
224.4214331037
 21
88.9517214492
  0
LINE
  5
68A
100
AcDbEntity
  8
RUNDUNGEN
100
AcDbLine
 62
7
  6
CONTINUOUS
 10
224.4214331037
 20
88.9517214492
 11
224.104469961
 21
88.9630362919
  0
LINE
  5
68B
100
AcDbEntity
  8
RUNDUNGEN
100
AcDbLine
 62
7
  6
CONTINUOUS
 10
239.0367708392
 20
88.7578167566
 11
238.7281783475
 21
88.7697390435
  0
LINE
  5
68C
100
AcDbEntity
  8
RUNDUNGEN
100
AcDbLine
 62
7
  6
CONTINUOUS
 10
133.5161507466
 20
88.9947299153
 11
133.1780640307
 21
88.9630446943
  0
LWPOLYLINE
  5
68D
100
AcDbEntity
  8
RUNDUNGEN
100
AcDbPolyline
 62
7
  6
CONTINUOUS
 90
21
 70
0
 10
94.7914473101
 20
86.8892108786
 10
94.603015799
 20
86.8718774222
 10
94.4259213131
 20
86.8521432801
 10
94.2442669644
 20
86.8272870802
 10
94.0424762963
 20
86.7927326219
 10
93.8191371174
 20
86.7443222287
 10
93.5658034792
 20
86.6746984231
 10
93.2934896685
 20
86.580536401
 10
93.012211353
 20
86.4600728644
 10
92.7264400057
 20
86.3107206696
 10
92.4447946099
 20
86.1331812846
 10
92.1691521887
 20
85.9251557194
 10
91.9036545669
 20
85.6857227527
 10
91.6530748175
 20
85.4148813695
 10
91.4222435707
 20
85.1132909659
 10
91.2160293441
 20
84.7823983332
 10
91.0392466994
 20
84.4245835669
 10
90.8961870342
 20
84.0423761194
 10
90.7909888765
 20
83.6391460406
 10
90.7274355503
 20
83.2190046574
 10
90.7085716225
 20
82.8306659675
  0
LINE
  5
68E
100
AcDbEntity
  8
RUNDUNGEN
100
AcDbLine
 62
7
  6
CONTINUOUS
 10
94.7914473101
 20
86.8892108786
 11
118.2357742744
 21
88.7571059597
  0
LINE
  5
68F
100
AcDbEntity
  8
RUNDUNGEN
100
AcDbLine
 62
7
  6
CONTINUOUS
 10
224.1035539965
 20
88.9630438417
 11
223.7654480985
 21
88.9947323277
  0
LWPOLYLINE
  5
690
100
AcDbEntity
  8
RUNDUNGEN
100
AcDbPolyline
 62
7
  6
CONTINUOUS
 90
7
 70
0
 10
223.7654480985
 20
88.9947323277
 10
223.3346937628
 20
89.0927655674
 10
222.923016188
 20
89.2529903984
 10
222.5393411263
 20
89.4719276105
 10
222.1919836037
 20
89.7448268792
 10
221.888470937
 20
90.0657692478
 10
221.6665961281
 20
90.3831427875
  0
LINE
  5
691
100
AcDbEntity
  8
RUNDUNGEN
100
AcDbLine
 62
7
  6
CONTINUOUS
 10
221.637851657
 20
39.3842297308
 11
221.6391066706
 21
39.3863443686
  0
LWPOLYLINE
  5
692
100
AcDbEntity
  8
RUNDUNGEN
100
AcDbPolyline
 62
7
  6
CONTINUOUS
 90
7
 70
0
 10
221.6354208897
 20
39.3801073566
 10
221.8885147001
 20
39.7421177068
 10
222.1920281
 20
40.0630466361
 10
222.5393833871
 20
40.3359334714
 10
222.9230535293
 20
40.5548598242
 10
223.3347238835
 20
40.7150758839
 10
223.765469236
 20
40.8131028964
  0
LINE
  5
693
100
AcDbEntity
  8
RUNDUNGEN
100
AcDbLine
 62
7
  6
CONTINUOUS
 10
266.5730484123
 20
46.977161854
 11
266.5730484123
 21
82.8306709575
  0
LWPOLYLINE
  5
694
100
AcDbEntity
  8
RUNDUNGEN
100
AcDbPolyline
 62
7
  6
CONTINUOUS
 90
22
 70
0
 10
266.5730483567
 20
82.8306592581
 10
266.5441708038
 20
83.3108401269
 10
266.467303867
 20
83.745092397
 10
266.3499018679
 20
84.149141521
 10
266.196482185
 20
84.5265129885
 10
266.0115340617
 20
84.8763295888
 10
265.7970182893
 20
85.2007624806
 10
265.5583682994
 20
85.4958760106
 10
265.3002758159
 20
85.7602895322
 10
265.0277341831
 20
85.9931006086
 10
264.7453934496
 20
86.1944030932
 10
264.458378807
 20
86.3645666828
 10
264.1691592155
 20
86.5058665517
 10
263.8877575327
 20
86.6176964159
 10
263.6201997228
 20
86.7029193787
 10
263.375685984
 20
86.7645019727
 10
263.1673283562
 20
86.8059587512
 10
262.9809161118
 20
86.8355834218
 10
262.8092390143
 20
86.8577021271
 10
262.6410650718
 20
86.8755967207
 10
262.4633965909
 20
86.8914294957
 10
239.0458457082
 20
88.7571059597
  0
ARC
  5
695
100
AcDbEntity
  8
RUNDUNGEN
100
AcDbCircle
 62
7
  6
CONTINUOUS
 10
116.6408099913
 20
223.4561558701
 40
12.0
100
AcDbArc
 50
0.0
 51
82.9544863897
  0
ARC
  5
696
100
AcDbEntity
  8
RUNDUNGEN
100
AcDbCircle
 62
7
  6
CONTINUOUS
 10
118.6034932155
 20
239.3353206659
 40
4.0
100
AcDbArc
 50
202.5
 51
262.9539116534
  0
ARC
  5
697
100
AcDbEntity
  8
RUNDUNGEN
100
AcDbCircle
 62
7
  6
CONTINUOUS
 10
118.5534416351
 20
239.4561558701
 40
4.0
100
AcDbArc
 50
202.5
 51
270.0
  0
ARC
  5
698
100
AcDbEntity
  8
B-ACHSEN
100
AcDbCircle
 62
7
  6
CONTINUOUS
 10
161.4908099913
 20
203.8946659027
 40
2.0
100
AcDbArc
 50
315.0
 51
360.0
  0
ARC
  5
699
100
AcDbEntity
  8
RUNDUNGEN
100
AcDbCircle
 62
7
  6
CONTINUOUS
 10
100.7085715702
 20
298.216238778
 40
10.0
100
AcDbArc
 50
157.5
 51
202.5
  0
ARC
  5
69A
100
AcDbEntity
  8
RUNDUNGEN
100
AcDbCircle
 62
7
  6
CONTINUOUS
 10
123.5343957307
 20
353.3226530385
 40
10.0
100
AcDbArc
 50
112.5
 51
157.5
  0
ARC
  5
69B
100
AcDbEntity
  8
RUNDUNGEN
100
AcDbCircle
 62
7
  6
CONTINUOUS
 10
240.6408099913
 20
223.4561558701
 40
12.0
100
AcDbArc
 50
97.0455136103
 51
180.0
  0
ARC
  5
69C
100
AcDbEntity
  8
RUNDUNGEN
100
AcDbCircle
 62
7
  6
CONTINUOUS
 10
238.6781267671
 20
239.3353206659
 40
4.0
100
AcDbArc
 50
277.0460883466
 51
337.5
  0
ARC
  5
69D
100
AcDbEntity
  8
RUNDUNGEN
100
AcDbCircle
 62
7
  6
CONTINUOUS
 10
238.7281783475
 20
239.4561558701
 40
4.0
100
AcDbArc
 50
270.0
 51
337.5
  0
ARC
  5
69E
100
AcDbEntity
  8
B-ACHSEN
100
AcDbCircle
 62
7
  6
CONTINUOUS
 10
195.7908099913
 20
203.8946659027
 40
2.0
100
AcDbArc
 50
180.0
 51
225.0
  0
CIRCLE
  5
69F
100
AcDbEntity
  8
RUNDUNGEN
100
AcDbCircle
 62
7
  6
CONTINUOUS
 10
178.6408099913
 20
298.216238778
 40
45.0
  0
ARC
  5
6A0
100
AcDbEntity
  8
RUNDUNGEN
100
AcDbCircle
 62
7
  6
CONTINUOUS
 10
178.6408099913
 20
376.148477199
 40
10.0
100
AcDbArc
 50
67.5
 51
112.5
  0
ARC
  5
6A1
100
AcDbEntity
  8
RUNDUNGEN
100
AcDbCircle
 62
7
  6
CONTINUOUS
 10
233.7472242519
 20
353.3226530385
 40
10.0
100
AcDbArc
 50
22.5
 51
67.5
  0
ARC
  5
6A2
100
AcDbEntity
  8
RUNDUNGEN
100
AcDbCircle
 62
7
  6
CONTINUOUS
 10
256.5730484123
 20
298.216238778
 40
10.0
100
AcDbArc
 50
337.5
 51
22.5
  0
ARC
  5
6A3
100
AcDbEntity
  8
B-ACHSEN
100
AcDbCircle
 62
7
  6
CONTINUOUS
 10
361.52066838
 20
235.339355372
 40
10.0
100
AcDbArc
 50
99.0
 51
180.0
  0
ARC
  5
6A4
100
AcDbEntity
  8
B-ACHSEN
100
AcDbCircle
 62
7
  6
CONTINUOUS
 10
441.52066838
 20
235.339355372
 40
10.0
100
AcDbArc
 50
0.0
 51
81.0
  0
ARC
  5
6A5
100
AcDbEntity
  8
RUNDUNGEN
100
AcDbCircle
 62
7
  6
CONTINUOUS
 10
386.3636574762
 20
382.1484771729
 40
4.0
100
AcDbArc
 50
90.000000018
 51
178.109938784
  0
ARC
  5
6A6
100
AcDbEntity
  8
RUNDUNGEN
100
AcDbCircle
 62
7
  6
CONTINUOUS
 10
416.6776792839
 20
382.1484771729
 40
4.0
100
AcDbArc
 50
1.890061216
 51
89.999999982
  0
ARC
  5
6A7
100
AcDbEntity
  8
RUNDUNGEN
100
AcDbCircle
 62
7
  6
CONTINUOUS
 10
381.6548448048
 20
239.4561558701
 40
4.0
100
AcDbArc
 50
178.109938784
 51
270.0
  0
ARC
  5
6A8
100
AcDbEntity
  8
RUNDUNGEN
100
AcDbCircle
 62
7
  6
CONTINUOUS
 10
421.3864919552
 20
239.4561558701
 40
4.0
100
AcDbArc
 50
270.0
 51
1.890061216
  0
ARC
  5
6A9
100
AcDbEntity
  8
RUNDUNGEN
100
AcDbCircle
 62
7
  6
CONTINUOUS
 10
375.1266566593
 20
250.6563397817
 40
2.9999980136
100
AcDbArc
 50
279.0000000228
 51
336.8289516064
  0
ARC
  5
6AA
100
AcDbEntity
  8
RUNDUNGEN
100
AcDbCircle
 62
7
  6
CONTINUOUS
 10
427.9146801017
 20
250.6563397816
 40
2.9999980136
100
AcDbArc
 50
203.1710467687
 51
260.9999999765
  0
ARC
  5
6AB
100
AcDbEntity
  8
B-ACHSEN
100
AcDbCircle
 62
7
  6
CONTINUOUS
 10
384.37066838
 20
203.8946659027
 40
2.0
100
AcDbArc
 50
315.0
 51
360.0
  0
ARC
  5
6AC
100
AcDbEntity
  8
B-ACHSEN
100
AcDbCircle
 62
7
  6
CONTINUOUS
 10
418.67066838
 20
203.8946659027
 40
2.0
100
AcDbArc
 50
180.0
 51
225.0
  0
ARC
  5
6AD
100
AcDbEntity
  8
RUNDUNGEN
100
AcDbCircle
 62
7
  6
CONTINUOUS
 10
178.6408099913
 20
64.9039164058
 40
50.0
100
AcDbArc
 50
210.6330276603
 51
329.3669723397
  0
ARC
  5
6AE
100
AcDbEntity
  8
B-ACHSEN
100
AcDbCircle
 62
7
  6
CONTINUOUS
 10
178.6408099913
 20
64.9039164058
 40
50.0
100
AcDbArc
 50
210.6330276603
 51
329.3669723397
  0
ARC
  5
6AF
100
AcDbEntity
  8
B-ACHSEN
100
AcDbCircle
 62
7
  6
CONTINUOUS
 10
178.6408099913
 20
64.9039164058
 40
50.0
100
AcDbArc
 50
30.6330276603
 51
149.3669723397
  0
ARC
  5
6B0
100
AcDbEntity
  8
RUNDUNGEN
100
AcDbCircle
 62
7
  6
CONTINUOUS
 10
178.6408099913
 20
64.9039164058
 40
50.0
100
AcDbArc
 50
30.6330276603
 51
149.3669723397
  0
ARC
  5
6B1
100
AcDbEntity
  8
0
100
AcDbCircle
 62
7
  6
CONTINUOUS
 10
178.6408099913
 20
64.9039164058
 40
50.0
100
AcDbArc
 50
220.1622621348
 51
263.5842443227
  0
ARC
  5
6B2
100
AcDbEntity
  8
0
100
AcDbCircle
 62
7
  6
CONTINUOUS
 10
178.6408099913
 20
64.9039164058
 40
50.0
100
AcDbArc
 50
275.6143329255
 51
320.3223417361
  0
ENDSEC
  0
SECTION
  2
OBJECTS
  0
DICTIONARY
  5
C
100
AcDbDictionary
280
0
281
1
  3
ACAD_GROUP
350
D
  3
ACAD_MLINESTYLE
350
17
  3
ACAD_LAYOUT
350
1A
  3
ACAD_PLOTSETTINGS
350
19
  3
ACAD_PLOTSTYLENAME
350
E
  0
DICTIONARY
  5
D
102
{ACAD_REACTORS
330
C
102
}
100
AcDbDictionary
280
0
281
1
  0
ACDBDICTIONARYWDFLT
  5
E
102
{ACAD_REACTORS
330
C
102
}
100
AcDbDictionary
281
1
  3
Normal
350
F
100
AcDbDictionaryWithDefault
340
F
  0
DICTIONARY
  5
17
102
{ACAD_REACTORS
330
C
102
}
100
AcDbDictionary
280
0
281
1
  3
Standard
350
18
  0
DICTIONARY
  5
19
102
{ACAD_REACTORS
330
C
102
}
100
AcDbDictionary
281
1
  0
DICTIONARY
  5
1A
102
{ACAD_REACTORS
330
C
102
}
100
AcDbDictionary
281
1
  3
Model
350
6B3
  3
Layout1
350
6B4
  0
ACDBPLACEHOLDER
  5
F
102
{ACAD_REACTORS
330
E
102
}
  0
MLINESTYLE
  5
18
102
{ACAD_REACTORS
330
17
102
}
100
AcDbMlineStyle
  2
STANDARD
 70
0
  3

 62
256
 51
90.0
 52
90.0
 71
2
 49
0.5
 62
256
  6
BYLAYER
 49
-0.5
 62
256
  6
BYLAYER
  0
LAYOUT
  5
6B3
102
{ACAD_REACTORS
330
1A
102
}
100
AcDbPlotSettings
  1

  2
none_device
  4
ISO_A2_(594.00_x_420.00_MM)
  6

 40
0.0
 41
0.0
 42
0.0
 43
0.0
 44
594.0
 45
420.0
 46
0.0
 47
0.0
 48
0.0
 49
0.0
140
0.0
141
0.0
142
1.0
143
1.0
 70
1024
 72
1
 73
0
 74
0
  7

 75
0
147
1.0
148
0.0
149
0.0
100
AcDbLayout
  1
Model
 70
0
 71
0
 10
0.0
 20
0.0
 11
594.0
 21
420.0
 12
0.0
 22
0.0
 32
0.0
 14
0.0
 24
0.0
 34
0.0
 15
0.0
 25
0.0
 35
0.0
146
0.0
 13
0.0
 23
0.0
 33
0.0
 16
1.0
 26
0.0
 36
0.0
 17
0.0
 27
1.0
 37
0.0
 76
0
330
209
345
0
346
0
  0
LAYOUT
  5
6B4
102
{ACAD_REACTORS
330
1A
102
}
100
AcDbPlotSettings
  1

  2
none_device
  4
ISO_A2_(594.00_x_420.00_MM)
  6

 40
0.0
 41
0.0
 42
0.0
 43
0.0
 44
594.0
 45
420.0
 46
0.0
 47
0.0
 48
0.0
 49
0.0
140
0.0
141
0.0
142
1.0
143
1.0
 70
0
 72
1
 73
0
 74
0
  7

 75
0
147
1.0
148
0.0
149
0.0
100
AcDbLayout
  1
Layout1
 70
0
 71
1
 10
0.0
 20
0.0
 11
594.0
 21
420.0
 12
0.0
 22
0.0
 32
0.0
 14
0.0
 24
0.0
 34
0.0
 15
0.0
 25
0.0
 35
0.0
146
0.0
 13
0.0
 23
0.0
 33
0.0
 16
1.0
 26
0.0
 36
0.0
 17
0.0
 27
1.0
 37
0.0
 76
0
330
20A
345
0
346
0
  0
ENDSEC
  0
EOF
