999
DXF file: IRS-LT-M30-7907798-M35563-P-5.dxf
999
Pro/ENGINEER 2011490 by Parametric Technology Corporation
  0
SECTION
  2
HEADER
  9
$ACADVER
  1
AC1021
  9
$DWGCODEPAGE
  3
ANSI_1252
  9
$EXTMAX
 10
420.0
 20
297.0
 30
0.0
  9
$EXTMIN
 10
0.0
 20
0.0
 30
0.0
  9
$LIMMIN
 10
0.0
 20
0.0
  9
$LIMMAX
 10
420.0
 20
297.0
  9
$VIEWCTR
 10
210.0
 20
148.5
  9
$VIEWSIZE
 40
297.0
  9
$CLAYER
  8
0
  9
$LTSCALE
 40
23.1
  9
$CELTYPE
  6
BYLAYER
  9
$DIMSCALE
 40
1.0
  9
$DIMASZ
 40
3.5
  9
$DIMEXO
 40
2.625
  9
$DIMDLI
 40
15.96
  9
$DIMEXE
 40
7.56
  9
$DIMCEN
 40
3.78
  9
$DIMLFAC
 40
1.0
  9
$DIMBLK
  1
_FILLED
  9
$DIMTXT
 40
3.5
  9
$DIMTOL
 70
1
  9
$DIMLIM
 70
0
  9
$DIMTFAC
 40
1.0
  9
$DIMTP
 40
0.005
  9
$DIMTM
 40
0.005
  9
$PDMODE
 70
3
  9
$PDSIZE
 40
0.3125
  9
$HANDSEED
  5
53C
  9
$TILEMODE
 70
1
  9
$MEASUREMENT
 70
1
  9
$INSUNITS
 70
4
  0
ENDSEC
  0
SECTION
  2
CLASSES
  0
CLASS
  1
ACDBDICTIONARYWDFLT
  2
AcDbDictionaryWithDefault
  3
AutoCAD 2000
 90
0
 91
1
280
0
281
0
  0
CLASS
  1
ACDBPLACEHOLDER
  2
AcDbPlaceHolder
  3
AutoCAD 2000
 90
0
 91
1
280
0
281
0
  0
CLASS
  1
LAYOUT
  2
AcDbLayout
  3
AutoCAD 2000
 90
0
 91
0
280
0
281
0
  0
ENDSEC
  0
SECTION
  2
TABLES
  0
TABLE
  2
VPORT
  5
8
100
AcDbSymbolTable
 70
2
  0
VPORT
  5
1F4
100
AcDbSymbolTableRecord
100
AcDbViewportTableRecord
  2
*ACTIVE
 70
0
 10
0.0
 20
0.0
 11
1.0
 21
1.0
 12
210.0
 22
148.5
 13
0.0
 23
0.0
 14
1.0
 24
1.0
 15
0.0
 25
0.0
 16
0.0
 26
0.0
 36
1.0
 17
0.0
 27
0.0
 37
0.0
 40
297.0
 41
1.4141414141
 42
50.0
 43
0.0
 44
0.0
 50
0.0
 51
0.0
 71
0
 72
100
 73
1
 74
1
 75
0
 76
0
 77
0
 78
0
  0
ENDTAB
  0
TABLE
  2
LTYPE
  5
5
100
AcDbSymbolTable
 70
6
  0
LTYPE
  5
14
100
AcDbSymbolTableRecord
100
AcDbLinetypeTableRecord
  2
BYBLOCK
 70
0
  3

 72
65
 73
0
 40
0.0
  0
LTYPE
  5
15
100
AcDbSymbolTableRecord
100
AcDbLinetypeTableRecord
  2
BYLAYER
 70
0
  3

 72
65
 73
0
 40
0.0
  0
LTYPE
  5
16
100
AcDbSymbolTableRecord
100
AcDbLinetypeTableRecord
  2
CONTINUOUS
 70
64
  3
Solid line
 72
65
 73
0
 40
0.0
  0
LTYPE
  5
1F5
100
AcDbSymbolTableRecord
100
AcDbLinetypeTableRecord
  2
CENTER
 70
64
  3
____ _ ____ _ ____ _ ____ _ ____ _ ____ _ ____
 72
65
 73
4
 40
0.6
 49
0.375
 74
0
 49
-0.075
 74
0
 49
0.075
 74
0
 49
-0.075
 74
0
  0
LTYPE
  5
1F6
100
AcDbSymbolTableRecord
100
AcDbLinetypeTableRecord
  2
HIDDEN
 70
64
  3
- - - - - - - - - - - - - - - - - - - -
 72
65
 73
2
 40
0.2
 49
0.1
 74
0
 49
-0.1
 74
0
  0
LTYPE
  5
1F7
100
AcDbSymbolTableRecord
100
AcDbLinetypeTableRecord
  2
PHANTOM
 70
64
  3
_____ _ _ _____ _ _ _____ _ _ _____
 72
65
 73
6
 40
0.8
 49
0.45
 74
0
 49
-0.05
 74
0
 49
0.1
 74
0
 49
-0.05
 74
0
 49
0.1
 74
0
 49
-0.05
 74
0
  0
LTYPE
  5
1F8
100
AcDbSymbolTableRecord
100
AcDbLinetypeTableRecord
  2
DOT
 70
64
  3
. . . . . . . . . . . . . . . . . . . .
 72
65
 73
2
 40
0.2
 49
0.1
 74
0
 49
-0.1
 74
0
  0
LTYPE
  5
1F9
100
AcDbSymbolTableRecord
100
AcDbLinetypeTableRecord
  2
DASHED
 70
64
  3
- - - - - - - - - - - - - - - - - - - -
 72
65
 73
2
 40
0.2
 49
0.1
 74
0
 49
-0.1
 74
0
  0
ENDTAB
  0
TABLE
  2
LAYER
  5
2
100
AcDbSymbolTable
 70
36
  0
LAYER
  5
10
100
AcDbSymbolTableRecord
100
AcDbLayerTableRecord
  2
0
 70
0
 62
7
  6
CONTINUOUS
370
-3
390
F
  0
LAYER
  5
1FA
100
AcDbSymbolTableRecord
100
AcDbLayerTableRecord
  2
DEFAULT_1
 70
0
 62
7
  6
CENTER
370
-3
390
F
  0
LAYER
  5
1FB
100
AcDbSymbolTableRecord
100
AcDbLayerTableRecord
  2
DEFAULT_2
 70
0
 62
8
  6
HIDDEN
370
-3
390
F
  0
LAYER
  5
1FC
100
AcDbSymbolTableRecord
100
AcDbLayerTableRecord
  2
DEFAULT_3
 70
0
 62
7
  6
PHANTOM
370
-3
390
F
  0
LAYER
  5
1FD
100
AcDbSymbolTableRecord
100
AcDbLayerTableRecord
  2
B-ACHSEN
 70
0
 62
7
  6
CONTINUOUS
370
-3
390
F
  0
LAYER
  5
1FE
100
AcDbSymbolTableRecord
100
AcDbLayerTableRecord
  2
B-EBENEN
 70
0
 62
7
  6
CONTINUOUS
370
-3
390
F
  0
LAYER
  5
1FF
100
AcDbSymbolTableRecord
100
AcDbLayerTableRecord
  2
B-KOORSYS
 70
0
 62
7
  6
CONTINUOUS
370
-3
390
F
  0
LAYER
  5
200
100
AcDbSymbolTableRecord
100
AcDbLayerTableRecord
  2
B-PUNKTE
 70
0
 62
7
  6
CONTINUOUS
370
-3
390
F
  0
LAYER
  5
201
100
AcDbSymbolTableRecord
100
AcDbLayerTableRecord
  2
BEMASSUNG
 70
0
 62
7
  6
CONTINUOUS
370
-3
390
F
  0
LAYER
  5
202
100
AcDbSymbolTableRecord
100
AcDbLayerTableRecord
  2
BOHRUNGEN
 70
0
 62
7
  6
CONTINUOUS
370
-3
390
F
  0
LAYER
  5
203
100
AcDbSymbolTableRecord
100
AcDbLayerTableRecord
  2
FLAECHEN
 70
0
 62
7
  6
CONTINUOUS
370
-3
390
F
  0
LAYER
  5
204
100
AcDbSymbolTableRecord
100
AcDbLayerTableRecord
  2
NOTIZEN
 70
0
 62
7
  6
CONTINUOUS
370
-3
390
F
  0
LAYER
  5
205
100
AcDbSymbolTableRecord
100
AcDbLayerTableRecord
  2
RUNDUNGEN
 70
0
 62
7
  6
CONTINUOUS
370
-3
390
F
  0
LAYER
  5
206
100
AcDbSymbolTableRecord
100
AcDbLayerTableRecord
  2
VERBUNDFLAECHEN
 70
0
 62
7
  6
CONTINUOUS
370
-3
390
F
  0
ENDTAB
  0
TABLE
  2
STYLE
  5
3
100
AcDbSymbolTable
 70
1
  0
STYLE
  5
11
100
AcDbSymbolTableRecord
100
AcDbTextStyleTableRecord
  2
STANDARD
 70
0
 40
0.0
 41
0.7
 50
0.0
 71
0
 42
0.2
  3
txt
  4

  0
STYLE
  5
207
100
AcDbSymbolTableRecord
100
AcDbTextStyleTableRecord
  2
TEXTSTYLE_1
 70
0
 40
0.0
 41
0.8
 50
0.0
 71
0
 42
0.2
  3
gdt
  4

  0
ENDTAB
  0
TABLE
  2
VIEW
  5
6
100
AcDbSymbolTable
 70
0
  0
ENDTAB
  0
TABLE
  2
UCS
  5
7
100
AcDbSymbolTable
 70
0
  0
ENDTAB
  0
TABLE
  2
APPID
  5
9
100
AcDbSymbolTable
 70
1
  0
APPID
  5
208
100
AcDbSymbolTableRecord
100
AcDbRegAppTableRecord
  2
ACAD
 70
0
  0
ENDTAB
  0
TABLE
  2
BLOCK_RECORD
  5
1
100
AcDbSymbolTable
 70
0
  0
BLOCK_RECORD
  5
209
100
AcDbSymbolTableRecord
100
AcDbBlockTableRecord
  2
*Model_Space
  0
BLOCK_RECORD
  5
20A
100
AcDbSymbolTableRecord
100
AcDbBlockTableRecord
  2
*Paper_Space
  0
ENDTAB
  0
TABLE
  2
DIMSTYLE
  5
A
100
AcDbSymbolTable
 70
1
100
AcDbDimStyleTable
 71
0
  0
DIMSTYLE
105
20B
100
AcDbSymbolTableRecord
100
AcDbDimStyleTableRecord
  2
STANDARD
 70
0
  3

  4

 40
1.0
 41
3.5
 42
0.0625
 43
0.38
 44
0.18
 45
0.0
 46
0.0
 47
0.005
 48
0.005
140
3.5
141
0.09
142
0.0
143
25.4
144
1.0
145
0.0
146
1.0
147
0.09
 71
1.0
 72
0.0
 73
0
 74
0
 75
0
 76
0
 77
1
 78
8
170
0
171
2
172
0
173
0
174
0
175
0
176
0
177
0
178
5
270
2
271
3
272
3
273
2
274
2
275
0
280
0
281
0
282
0
283
1
284
8
285
0
286
0
287
3
288
0
340
11
  0
ENDTAB
  0
ENDSEC
  0
SECTION
  2
BLOCKS
  0
BLOCK
  5
20
100
AcDbEntity
  8
0
100
AcDbBlockBegin
  2
*Model_Space
 70
0
 10
0.0
 20
0.0
 30
0.0
  3
*Model_Space
  1

  0
ENDBLK
  5
21
100
AcDbEntity
  8
0
100
AcDbBlockEnd
  0
BLOCK
  5
1C
100
AcDbEntity
  8
0
100
AcDbBlockBegin
  2
*Paper_Space
 70
0
 10
0.0
 20
0.0
 30
0.0
  3
*Paper_Space
  1

  0
ENDBLK
  5
1D
100
AcDbEntity
  8
0
100
AcDbBlockEnd
  0
ENDSEC
  0
SECTION
  2
ENTITIES
  0
MTEXT
  5
20C
100
AcDbEntity
  8
0
100
AcDbMText
 62
5
  6
CONTINUOUS
  7
STANDARD
 71
1
 72
1
 10
286.6082822946
 20
187.4711868344
 30
0.0
 11
0.0
 21
1.0
 31
0.0
 44
0.9
  1
RUD
 40
5.0
 41
12.380952381
  0
MTEXT
  5
20D
100
AcDbEntity
  8
0
100
AcDbMText
 62
5
  6
CONTINUOUS
  7
STANDARD
 71
1
 72
1
 10
298.5081965771
 20
186.5254293301
 30
0.0
 11
0.0
 21
1.0
 31
0.0
 44
0.9
  1
IRS-LT M30
 40
5.0
 41
38.8095238095
  0
MTEXT
  5
20E
100
AcDbEntity
  8
0
100
AcDbMText
 62
5
  6
CONTINUOUS
  7
STANDARD
 71
1
 72
1
 10
128.164739386
 20
63.3101818634
 30
0.0
 11
1.0
 21
0.0
 31
0.0
 44
0.9
  1
RUD
 40
5.0
 41
12.380952381
  0
MTEXT
  5
20F
100
AcDbEntity
  8
0
100
AcDbMText
 62
5
  6
CONTINUOUS
  7
STANDARD
 71
1
 72
1
 10
127.3337587214
 20
51.3118868841
 30
0.0
 11
1.0
 21
0.0
 31
0.0
 44
0.9
  1
IRS-LT M30
 40
5.0
 41
38.8095238095
  0
LINE
  5
210
100
AcDbEntity
  8
0
100
AcDbLine
 62
7
  6
CONTINUOUS
 10
0.0
 20
0.0
 11
0.0
 21
297.0
  0
LINE
  5
211
100
AcDbEntity
  8
0
100
AcDbLine
 62
7
  6
CONTINUOUS
 10
0.0
 20
0.0
 11
420.0
 21
0.0
  0
LINE
  5
212
100
AcDbEntity
  8
0
100
AcDbLine
 62
7
  6
CONTINUOUS
 10
0.0
 20
297.0
 11
420.0
 21
297.0
  0
LINE
  5
213
100
AcDbEntity
  8
0
100
AcDbLine
 62
7
  6
CONTINUOUS
 10
420.0
 20
0.0
 11
420.0
 21
297.0
  0
LINE
  5
214
100
AcDbEntity
  8
B-ACHSEN
100
AcDbLine
 62
7
  6
CONTINUOUS
 10
136.51995725
 20
116.5506110525
 11
110.51995725
 21
116.5506110525
  0
LINE
  5
215
100
AcDbEntity
  8
B-ACHSEN
100
AcDbLine
 62
7
  6
CONTINUOUS
 10
138.51995725
 20
118.5506110525
 11
108.51995725
 21
118.5506110525
  0
LINE
  5
216
100
AcDbEntity
  8
RUNDUNGEN
100
AcDbLine
 62
7
  6
CONTINUOUS
 10
85.6342974459
 20
258.1422513574
 11
121.6065400882
 21
273.0424421288
  0
LINE
  5
217
100
AcDbEntity
  8
0
100
AcDbLine
 62
7
  6
CONTINUOUS
 10
104.2112774663
 20
260.2307368631
 11
104.6517535407
 21
260.5283361197
  0
LINE
  5
218
100
AcDbEntity
  8
0
100
AcDbLine
 62
7
  6
CONTINUOUS
 10
108.6382004098
 20
262.0644283859
 11
109.0786759335
 21
262.3620274144
  0
LINE
  5
219
100
AcDbEntity
  8
0
100
AcDbLine
 62
7
  6
CONTINUOUS
 10
108.8751209406
 20
262.853452639
 11
108.3384072314
 21
262.5159904489
  0
LINE
  5
21A
100
AcDbEntity
  8
0
100
AcDbLine
 62
7
  6
CONTINUOUS
 10
104.5444361826
 20
261.0596242779
 11
103.9114848385
 21
260.6822991542
  0
LINE
  5
21B
100
AcDbEntity
  8
0
100
AcDbLine
 62
7
  6
CONTINUOUS
 10
104.7369109017
 20
261.1393499169
 11
104.5444361826
 21
261.0596242779
  0
LINE
  5
21C
100
AcDbEntity
  8
0
100
AcDbLine
 62
7
  6
CONTINUOUS
 10
102.1384997165
 20
260.0630527634
 11
101.2723626548
 21
259.7042870456
  0
LINE
  5
21D
100
AcDbEntity
  8
0
100
AcDbLine
 62
7
  6
CONTINUOUS
 10
98.3852391157
 20
258.5084013194
 11
97.5191020539
 21
258.1496356016
  0
LINE
  5
21E
100
AcDbEntity
  8
0
100
AcDbLine
 62
7
  6
CONTINUOUS
 10
104.6517535407
 20
260.5283361197
 11
105.0367035295
 21
260.6877876259
  0
LINE
  5
21F
100
AcDbEntity
  8
0
100
AcDbLine
 62
7
  6
CONTINUOUS
 10
103.4524577627
 20
259.340682987
 11
103.9336448357
 21
259.5399971987
  0
LINE
  5
220
100
AcDbEntity
  8
0
100
AcDbLine
 62
7
  6
CONTINUOUS
 10
105.688079621
 20
259.1152266316
 11
105.3031296322
 21
258.9557751254
  0
LINE
  5
221
100
AcDbEntity
  8
0
100
AcDbLine
 62
7
  6
CONTINUOUS
 10
105.4659736266
 20
258.5626349457
 11
105.8509236153
 21
258.7220864518
  0
LINE
  5
222
100
AcDbEntity
  8
0
100
AcDbLine
 62
7
  6
CONTINUOUS
 10
104.8551828873
 20
257.0430079568
 11
104.3739952637
 21
256.8436935171
  0
LINE
  5
223
100
AcDbEntity
  8
0
100
AcDbLine
 62
7
  6
CONTINUOUS
 10
106.6392477611
 20
257.0911031869
 11
106.0618230533
 21
256.8519260417
  0
LINE
  5
224
100
AcDbEntity
  8
B-ACHSEN
100
AcDbLine
 62
7
  6
CONTINUOUS
 10
108.51995725
 20
118.5506110525
 11
110.51995725
 21
116.5506110525
  0
LINE
  5
225
100
AcDbEntity
  8
RUNDUNGEN
100
AcDbLine
 62
7
  6
CONTINUOUS
 10
68.0281261737
 20
219.4640282143
 11
82.9283169452
 21
255.4362708566
  0
LINE
  5
226
100
AcDbEntity
  8
0
100
AcDbLine
 62
7
  6
CONTINUOUS
 10
103.9114848385
 20
260.6822991542
 11
103.6079568469
 21
260.3262775581
  0
LINE
  5
227
100
AcDbEntity
  8
0
100
AcDbLine
 62
7
  6
CONTINUOUS
 10
106.1840823316
 20
259.5509738667
 11
105.688079621
 21
259.1152266316
  0
LINE
  5
228
100
AcDbEntity
  8
0
100
AcDbLine
 62
7
  6
CONTINUOUS
 10
106.9390404174
 20
256.639540827
 11
107.283279404
 21
256.8972773867
  0
LINE
  5
229
100
AcDbEntity
  8
0
100
AcDbLine
 62
7
  6
CONTINUOUS
 10
107.0797243861
 20
257.3887026716
 11
106.6392477611
 21
257.0911031869
  0
LINE
  5
22A
100
AcDbEntity
  8
0
100
AcDbLine
 62
7
  6
CONTINUOUS
 10
111.025459706
 20
259.0230797547
 11
110.584983081
 21
258.72548027
  0
LINE
  5
22B
100
AcDbEntity
  8
0
100
AcDbLine
 62
7
  6
CONTINUOUS
 10
110.7885381024
 20
258.2340549765
 11
111.3252518081
 21
258.5715171752
  0
LINE
  5
22C
100
AcDbEntity
  8
0
100
AcDbLine
 62
7
  6
CONTINUOUS
 10
99.4325192157
 20
253.530237939
 11
100.0099439236
 21
253.7694150843
  0
LINE
  5
22D
100
AcDbEntity
  8
0
100
AcDbLine
 62
7
  6
CONTINUOUS
 10
101.3572681959
 20
254.3274950708
 11
102.1271677605
 21
254.6463979121
  0
LINE
  5
22E
100
AcDbEntity
  8
0
100
AcDbLine
 62
7
  6
CONTINUOUS
 10
103.4744921705
 20
255.2044779556
 11
104.0519168783
 21
255.4436551009
  0
LINE
  5
22F
100
AcDbEntity
  8
0
100
AcDbLine
 62
7
  6
CONTINUOUS
 10
106.1691409905
 20
256.3206380427
 11
106.9390404174
 21
256.639540827
  0
LINE
  5
230
100
AcDbEntity
  8
0
100
AcDbLine
 62
7
  6
CONTINUOUS
 10
104.0039871096
 20
259.9145782006
 11
104.2112774663
 21
260.2307368631
  0
LINE
  5
231
100
AcDbEntity
  8
0
100
AcDbLine
 62
7
  6
CONTINUOUS
 10
108.3384072314
 20
262.5159904489
 11
107.9793537048
 21
262.0218213305
  0
LINE
  5
232
100
AcDbEntity
  8
0
100
AcDbLine
 62
7
  6
CONTINUOUS
 10
107.2314881066
 20
257.5667133556
 11
107.0797243861
 21
257.3887026716
  0
LINE
  5
233
100
AcDbEntity
  8
0
100
AcDbLine
 62
7
  6
CONTINUOUS
 10
107.283279404
 20
256.8972773867
 11
107.5868068342
 21
257.2532987805
  0
LINE
  5
234
100
AcDbEntity
  8
0
100
AcDbLine
 62
7
  6
CONTINUOUS
 10
140.1191729064
 20
261.5833298368
 11
139.7083275567
 21
261.4080632746
  0
LINE
  5
235
100
AcDbEntity
  8
0
100
AcDbLine
 62
7
  6
CONTINUOUS
 10
141.696073649
 20
258.8574901717
 11
142.1069189987
 21
259.0327567339
  0
LINE
  5
236
100
AcDbEntity
  8
0
100
AcDbLine
 62
7
  6
CONTINUOUS
 10
106.539401045
 20
259.237559326
 11
106.802218038
 21
259.691865967
  0
LINE
  5
237
100
AcDbEntity
  8
0
100
AcDbLine
 62
7
  6
CONTINUOUS
 10
108.4309100531
 20
261.7482697234
 11
108.6382004098
 21
262.0644283859
  0
LINE
  5
238
100
AcDbEntity
  8
0
100
AcDbLine
 62
7
  6
CONTINUOUS
 10
107.5868068342
 20
257.2532987805
 11
107.7940971767
 21
257.5694574774
  0
LINE
  5
239
100
AcDbEntity
  8
0
100
AcDbLine
 62
7
  6
CONTINUOUS
 10
111.2327500627
 20
259.3392384171
 11
111.025459706
 21
259.0230797547
  0
LINE
  5
23A
100
AcDbEntity
  8
0
100
AcDbLine
 62
7
  6
CONTINUOUS
 10
111.3252518081
 20
258.5715171752
 11
111.6843064253
 21
259.0656867756
  0
LINE
  5
23B
100
AcDbEntity
  8
0
100
AcDbLine
 62
7
  6
CONTINUOUS
 10
139.7934848036
 20
260.7970492019
 11
140.108092839
 21
261.0121788875
  0
LINE
  5
23C
100
AcDbEntity
  8
0
100
AcDbLine
 62
7
  6
CONTINUOUS
 10
138.883027312
 20
258.8712110279
 11
139.3345837517
 21
259.1447627584
  0
LINE
  5
23D
100
AcDbEntity
  8
0
100
AcDbLine
 62
7
  6
CONTINUOUS
 10
141.2630679698
 20
257.5399216304
 11
140.8115115931
 21
257.2663699544
  0
LINE
  5
23E
100
AcDbEntity
  8
0
100
AcDbLine
 62
7
  6
CONTINUOUS
 10
140.9373799384
 20
256.7536411676
 11
141.3482253023
 21
256.9289077643
  0
LINE
  5
23F
100
AcDbEntity
  8
0
100
AcDbLine
 62
7
  6
CONTINUOUS
 10
103.6079568469
 20
260.3262775581
 11
103.3858514032
 21
259.7736861003
  0
LINE
  5
240
100
AcDbEntity
  8
0
100
AcDbLine
 62
7
  6
CONTINUOUS
 10
106.2951350535
 20
259.8272695956
 11
106.1840823316
 21
259.5509738667
  0
LINE
  5
241
100
AcDbEntity
  8
0
100
AcDbLine
 62
7
  6
CONTINUOUS
 10
107.9793537048
 20
262.0218213305
 11
107.8127743467
 21
261.6073776231
  0
LINE
  5
242
100
AcDbEntity
  8
0
100
AcDbLine
 62
7
  6
CONTINUOUS
 10
107.3425407999
 20
257.8430091534
 11
107.2314881066
 21
257.5667133556
  0
LINE
  5
243
100
AcDbEntity
  8
0
100
AcDbLine
 62
7
  6
CONTINUOUS
 10
142.0217616377
 20
259.6437705312
 11
141.7071536476
 21
259.4286411495
  0
LINE
  5
244
100
AcDbEntity
  8
B-ACHSEN
100
AcDbLine
 62
7
  6
CONTINUOUS
 10
138.51995725
 20
152.5506110525
 11
108.51995725
 21
152.5506110525
  0
LINE
  5
245
100
AcDbEntity
  8
B-ACHSEN
100
AcDbLine
 62
7
  6
CONTINUOUS
 10
136.01995725
 20
155.0506110525
 11
111.01995725
 21
155.0506110525
  0
LINE
  5
246
100
AcDbEntity
  8
RUNDUNGEN
100
AcDbLine
 62
7
  6
CONTINUOUS
 10
83.0816280476
 20
179.2948255056
 11
68.0281261737
 21
215.6371938907
  0
LINE
  5
247
100
AcDbEntity
  8
0
100
AcDbLine
 62
7
  6
CONTINUOUS
 10
111.6843064253
 20
259.0656867756
 11
111.8508857691
 21
259.4801305174
  0
LINE
  5
248
100
AcDbEntity
  8
0
100
AcDbLine
 62
7
  6
CONTINUOUS
 10
139.7083275567
 20
261.4080632746
 11
139.31229755
 21
260.9963634884
  0
LINE
  5
249
100
AcDbEntity
  8
0
100
AcDbLine
 62
7
  6
CONTINUOUS
 10
138.7978700253
 20
259.4822249557
 11
138.401840067
 21
259.0705253108
  0
LINE
  5
24A
100
AcDbEntity
  8
0
100
AcDbLine
 62
7
  6
CONTINUOUS
 10
142.1069189987
 20
259.0327567339
 11
142.4622379874
 21
259.3461711605
  0
LINE
  5
24B
100
AcDbEntity
  8
B-ACHSEN
100
AcDbLine
 62
7
  6
CONTINUOUS
 10
93.51995725
 20
161.5506110525
 11
153.51995725
 21
161.5506110525
  0
LINE
  5
24C
100
AcDbEntity
  8
0
100
AcDbLine
 62
7
  6
CONTINUOUS
 10
107.1282900747
 20
166.199547218
 11
107.7116231856
 21
166.0506110525
  0
LINE
  5
24D
100
AcDbEntity
  8
0
100
AcDbLine
 62
7
  6
CONTINUOUS
 10
107.7116231856
 20
166.9442280715
 11
107.2449569639
 21
167.093164224
  0
LINE
  5
24E
100
AcDbEntity
  8
0
100
AcDbLine
 62
7
  6
CONTINUOUS
 10
106.6616231856
 20
166.497419562
 11
107.1282900747
 21
166.199547218
  0
LINE
  5
24F
100
AcDbEntity
  8
0
100
AcDbLine
 62
7
  6
CONTINUOUS
 10
107.2449569639
 20
167.093164224
 11
106.8949569639
 21
167.3910366332
  0
LINE
  5
250
100
AcDbEntity
  8
B-ACHSEN
100
AcDbLine
 62
7
  6
CONTINUOUS
 10
93.51995725
 20
161.5506110525
 11
93.51995725
 21
169.7515340865
  0
LINE
  5
251
100
AcDbEntity
  8
0
100
AcDbLine
 62
7
  6
CONTINUOUS
 10
103.9336448357
 20
259.5399971987
 11
104.0039871096
 21
259.9145782006
  0
LINE
  5
252
100
AcDbEntity
  8
0
100
AcDbLine
 62
7
  6
CONTINUOUS
 10
106.802218038
 20
259.691865967
 11
106.8725597613
 21
260.0664467408
  0
LINE
  5
253
100
AcDbEntity
  8
0
100
AcDbLine
 62
7
  6
CONTINUOUS
 10
108.2902256193
 20
260.9991074442
 11
108.4309100531
 21
261.7482697234
  0
LINE
  5
254
100
AcDbEntity
  8
0
100
AcDbLine
 62
7
  6
CONTINUOUS
 10
107.7940971767
 20
257.5694574774
 11
107.8644394507
 21
257.9440384793
  0
LINE
  5
255
100
AcDbEntity
  8
0
100
AcDbLine
 62
7
  6
CONTINUOUS
 10
141.3482253023
 20
256.9289077643
 11
141.7442553181
 21
257.3406073047
  0
LINE
  5
256
100
AcDbEntity
  8
0
100
AcDbLine
 62
7
  6
CONTINUOUS
 10
131.7449576315
 20
166.0506110525
 11
132.3282900747
 21
166.199547218
  0
LINE
  5
257
100
AcDbEntity
  8
0
100
AcDbLine
 62
7
  6
CONTINUOUS
 10
113.7782900747
 20
166.0506110525
 11
114.3616238531
 21
166.199547218
  0
LINE
  5
258
100
AcDbEntity
  8
0
100
AcDbLine
 62
7
  6
CONTINUOUS
 10
100.4782900747
 20
166.0506110525
 11
101.1782900747
 21
166.0506110525
  0
LINE
  5
259
100
AcDbEntity
  8
0
100
AcDbLine
 62
7
  6
CONTINUOUS
 10
104.0949566301
 20
166.0506110525
 11
104.9116235193
 21
166.0506110525
  0
LINE
  5
25A
100
AcDbEntity
  8
0
100
AcDbLine
 62
7
  6
CONTINUOUS
 10
107.7116231856
 20
166.0506110525
 11
108.1782900747
 21
166.0506110525
  0
LINE
  5
25B
100
AcDbEntity
  8
0
100
AcDbLine
 62
7
  6
CONTINUOUS
 10
110.9782900747
 20
166.0506110525
 11
113.7782900747
 21
166.0506110525
  0
LINE
  5
25C
100
AcDbEntity
  8
0
100
AcDbLine
 62
7
  6
CONTINUOUS
 10
122.1782900747
 20
166.0506110525
 11
122.8782900747
 21
166.0506110525
  0
LINE
  5
25D
100
AcDbEntity
  8
0
100
AcDbLine
 62
7
  6
CONTINUOUS
 10
123.811622518
 20
166.0506110525
 11
124.511622518
 21
166.0506110525
  0
LINE
  5
25E
100
AcDbEntity
  8
0
100
AcDbLine
 62
7
  6
CONTINUOUS
 10
127.4282900747
 20
166.0506110525
 11
128.2449576315
 21
166.0506110525
  0
LINE
  5
25F
100
AcDbEntity
  8
0
100
AcDbLine
 62
7
  6
CONTINUOUS
 10
130.811622518
 20
166.0506110525
 11
131.7449576315
 21
166.0506110525
  0
LINE
  5
260
100
AcDbEntity
  8
0
100
AcDbLine
 62
7
  6
CONTINUOUS
 10
136.9949576315
 20
166.0506110525
 11
141.1949576315
 21
166.0506110525
  0
LINE
  5
261
100
AcDbEntity
  8
0
100
AcDbLine
 62
7
  6
CONTINUOUS
 10
143.9949576315
 20
166.0506110525
 11
144.6949576315
 21
166.0506110525
  0
LINE
  5
262
100
AcDbEntity
  8
0
100
AcDbLine
 62
7
  6
CONTINUOUS
 10
141.1949576315
 20
166.9442280715
 11
137.6949576315
 21
166.9442280715
  0
LINE
  5
263
100
AcDbEntity
  8
0
100
AcDbLine
 62
7
  6
CONTINUOUS
 10
131.7449576315
 20
166.9442280715
 11
130.811622518
 21
166.9442280715
  0
LINE
  5
264
100
AcDbEntity
  8
0
100
AcDbLine
 62
7
  6
CONTINUOUS
 10
113.7782900747
 20
166.9442280715
 11
111.6782900747
 21
166.9442280715
  0
LINE
  5
265
100
AcDbEntity
  8
0
100
AcDbLine
 62
7
  6
CONTINUOUS
 10
108.1782900747
 20
166.9442280715
 11
107.7116231856
 21
166.9442280715
  0
LINE
  5
266
100
AcDbEntity
  8
0
100
AcDbLine
 62
7
  6
CONTINUOUS
 10
129.8782900747
 20
167.9867812431
 11
129.1782900747
 21
167.9867812431
  0
LINE
  5
267
100
AcDbEntity
  8
0
100
AcDbLine
 62
7
  6
CONTINUOUS
 10
134.4282900747
 20
168.5825258529
 11
136.061622518
 21
168.5825258529
  0
LINE
  5
268
100
AcDbEntity
  8
0
100
AcDbLine
 62
7
  6
CONTINUOUS
 10
101.1782900747
 20
169.1782706713
 11
103.1616233524
 21
169.1782706713
  0
LINE
  5
269
100
AcDbEntity
  8
0
100
AcDbLine
 62
7
  6
CONTINUOUS
 10
124.511622518
 20
169.1782706713
 11
126.4949576315
 21
169.1782706713
  0
LINE
  5
26A
100
AcDbEntity
  8
0
100
AcDbLine
 62
7
  6
CONTINUOUS
 10
131.0449576315
 20
169.1782706713
 11
131.7449576315
 21
169.1782706713
  0
LINE
  5
26B
100
AcDbEntity
  8
0
100
AcDbLine
 62
7
  6
CONTINUOUS
 10
136.061622518
 20
169.3272068238
 11
134.4282900747
 21
169.3272068238
  0
LINE
  5
26C
100
AcDbEntity
  8
0
100
AcDbLine
 62
7
  6
CONTINUOUS
 10
131.7449576315
 20
170.0718875861
 11
131.0449576315
 21
170.0718875861
  0
LINE
  5
26D
100
AcDbEntity
  8
0
100
AcDbLine
 62
7
  6
CONTINUOUS
 10
126.7282900747
 20
170.0718875861
 11
124.511622518
 21
170.0718875861
  0
LINE
  5
26E
100
AcDbEntity
  8
0
100
AcDbLine
 62
7
  6
CONTINUOUS
 10
103.3949566301
 20
170.0718875861
 11
101.1782900747
 21
170.0718875861
  0
LINE
  5
26F
100
AcDbEntity
  8
0
100
AcDbLine
 62
7
  6
CONTINUOUS
 10
103.8616235193
 20
172.9016749
 11
103.2782900747
 21
173.0506110525
  0
LINE
  5
270
100
AcDbEntity
  8
0
100
AcDbLine
 62
7
  6
CONTINUOUS
 10
130.2282900747
 20
166.199547218
 11
130.811622518
 21
166.0506110525
  0
LINE
  5
271
100
AcDbEntity
  8
0
100
AcDbLine
 62
7
  6
CONTINUOUS
 10
103.3949566301
 20
172.3059302902
 11
103.7449566301
 21
172.1569941377
  0
LINE
  5
272
100
AcDbEntity
  8
0
100
AcDbLine
 62
7
  6
CONTINUOUS
 10
104.3282900747
 20
172.4548664427
 11
103.8616235193
 21
172.9016749
  0
LINE
  5
273
100
AcDbEntity
  8
0
100
AcDbLine
 62
7
  6
CONTINUOUS
 10
106.1949569639
 20
167.093164224
 11
106.6616231856
 21
166.497419562
  0
LINE
  5
274
100
AcDbEntity
  8
0
100
AcDbLine
 62
7
  6
CONTINUOUS
 10
103.7449566301
 20
172.1569941377
 11
103.9782900747
 21
171.8591218328
  0
LINE
  5
275
100
AcDbEntity
  8
0
100
AcDbLine
 62
7
  6
CONTINUOUS
 10
104.6782900747
 20
171.8591218328
 11
104.3282900747
 21
172.4548664427
  0
LINE
  5
276
100
AcDbEntity
  8
0
100
AcDbLine
 62
7
  6
CONTINUOUS
 10
106.8949569639
 20
167.3910366332
 11
106.6616231856
 21
167.8378450906
  0
LINE
  5
277
100
AcDbEntity
  8
0
100
AcDbLine
 62
7
  6
CONTINUOUS
 10
105.9616235193
 20
167.6889089381
 11
106.1949569639
 21
167.093164224
  0
LINE
  5
278
100
AcDbEntity
  8
0
100
AcDbLine
 62
7
  6
CONTINUOUS
 10
104.9116235193
 20
166.0506110525
 11
103.8616235193
 21
169.4761429763
  0
LINE
  5
279
100
AcDbEntity
  8
0
100
AcDbLine
 62
7
  6
CONTINUOUS
 10
103.1616233524
 20
169.1782706713
 11
104.0949566301
 21
166.0506110525
  0
LINE
  5
27A
100
AcDbEntity
  8
0
100
AcDbLine
 62
7
  6
CONTINUOUS
 10
101.2723626548
 20
259.7042870456
 11
101.5386630256
 21
254.9783718135
  0
LINE
  5
27B
100
AcDbEntity
  8
0
100
AcDbLine
 62
7
  6
CONTINUOUS
 10
102.1271677605
 20
254.6463979121
 11
101.9681849946
 21
258.8410251689
  0
LINE
  5
27C
100
AcDbEntity
  8
0
100
AcDbLine
 62
7
  6
CONTINUOUS
 10
100.4782900747
 20
173.0506110525
 11
100.4782900747
 21
166.0506110525
  0
LINE
  5
27D
100
AcDbEntity
  8
0
100
AcDbLine
 62
7
  6
CONTINUOUS
 10
101.1782900747
 20
166.0506110525
 11
101.1782900747
 21
169.1782706713
  0
LINE
  5
27E
100
AcDbEntity
  8
0
100
AcDbLine
 62
7
  6
CONTINUOUS
 10
101.1782900747
 20
170.0718875861
 11
101.1782900747
 21
172.3059302902
  0
LINE
  5
27F
100
AcDbEntity
  8
0
100
AcDbLine
 62
7
  6
CONTINUOUS
 10
104.0949566301
 20
171.4123133755
 11
104.0949566301
 21
170.9655045008
  0
LINE
  5
280
100
AcDbEntity
  8
0
100
AcDbLine
 62
7
  6
CONTINUOUS
 10
104.7949566301
 20
170.8165683484
 11
104.7949566301
 21
171.4123133755
  0
LINE
  5
281
100
AcDbEntity
  8
0
100
AcDbLine
 62
7
  6
CONTINUOUS
 10
106.3247657782
 20
260.3001354144
 11
106.2951350535
 21
259.8272695956
  0
LINE
  5
282
100
AcDbEntity
  8
0
100
AcDbLine
 62
7
  6
CONTINUOUS
 10
107.3573564376
 20
258.0794421768
 11
107.3425407999
 21
257.8430091534
  0
LINE
  5
283
100
AcDbEntity
  8
0
100
AcDbLine
 62
7
  6
CONTINUOUS
 10
107.8127743467
 20
261.6073776231
 11
107.7831430713
 21
261.1345115762
  0
LINE
  5
284
100
AcDbEntity
  8
0
100
AcDbLine
 62
7
  6
CONTINUOUS
 10
111.3734334808
 20
260.0884000337
 11
111.2327500627
 21
259.3392384171
  0
LINE
  5
285
100
AcDbEntity
  8
0
100
AcDbLine
 62
7
  6
CONTINUOUS
 10
108.1782900747
 20
166.0506110525
 11
108.7616231856
 21
166.199547218
  0
LINE
  5
286
100
AcDbEntity
  8
0
100
AcDbLine
 62
7
  6
CONTINUOUS
 10
132.4449576315
 20
171.4123133755
 11
133.1449576315
 21
171.4123133755
  0
LINE
  5
287
100
AcDbEntity
  8
0
100
AcDbLine
 62
7
  6
CONTINUOUS
 10
111.6782900747
 20
172.1569941377
 11
113.7782900747
 21
172.1569941377
  0
LINE
  5
288
100
AcDbEntity
  8
0
100
AcDbLine
 62
7
  6
CONTINUOUS
 10
131.0449576315
 20
172.1569941377
 11
131.7449576315
 21
172.1569941377
  0
LINE
  5
289
100
AcDbEntity
  8
0
100
AcDbLine
 62
7
  6
CONTINUOUS
 10
101.1782900747
 20
172.3059302902
 11
103.3949566301
 21
172.3059302902
  0
LINE
  5
28A
100
AcDbEntity
  8
0
100
AcDbLine
 62
7
  6
CONTINUOUS
 10
124.511622518
 20
172.3059302902
 11
126.7282900747
 21
172.3059302902
  0
LINE
  5
28B
100
AcDbEntity
  8
0
100
AcDbLine
 62
7
  6
CONTINUOUS
 10
142.1282900747
 20
172.3059302902
 11
143.9949576315
 21
172.3059302902
  0
LINE
  5
28C
100
AcDbEntity
  8
0
100
AcDbLine
 62
7
  6
CONTINUOUS
 10
144.6949576315
 20
172.3059302902
 11
146.5616251883
 21
172.3059302902
  0
LINE
  5
28D
100
AcDbEntity
  8
0
100
AcDbLine
 62
7
  6
CONTINUOUS
 10
146.5616251883
 20
173.0506110525
 11
142.1282900747
 21
173.0506110525
  0
LINE
  5
28E
100
AcDbEntity
  8
0
100
AcDbLine
 62
7
  6
CONTINUOUS
 10
137.6949576315
 20
173.0506110525
 11
136.9949576315
 21
173.0506110525
  0
LINE
  5
28F
100
AcDbEntity
  8
0
100
AcDbLine
 62
7
  6
CONTINUOUS
 10
131.6282900747
 20
173.0506110525
 11
131.0449576315
 21
173.0506110525
  0
LINE
  5
290
100
AcDbEntity
  8
0
100
AcDbLine
 62
7
  6
CONTINUOUS
 10
126.611622518
 20
173.0506110525
 11
123.811622518
 21
173.0506110525
  0
LINE
  5
291
100
AcDbEntity
  8
0
100
AcDbLine
 62
7
  6
CONTINUOUS
 10
122.8782900747
 20
173.0506110525
 11
122.1782900747
 21
173.0506110525
  0
LINE
  5
292
100
AcDbEntity
  8
0
100
AcDbLine
 62
7
  6
CONTINUOUS
 10
113.7782900747
 20
173.0506110525
 11
110.9782900747
 21
173.0506110525
  0
LINE
  5
293
100
AcDbEntity
  8
0
100
AcDbLine
 62
7
  6
CONTINUOUS
 10
110.0449569639
 20
173.0506110525
 11
109.3449569639
 21
173.0506110525
  0
LINE
  5
294
100
AcDbEntity
  8
0
100
AcDbLine
 62
7
  6
CONTINUOUS
 10
106.5449569639
 20
173.0506110525
 11
105.8449566301
 21
173.0506110525
  0
LINE
  5
295
100
AcDbEntity
  8
0
100
AcDbLine
 62
7
  6
CONTINUOUS
 10
103.2782900747
 20
173.0506110525
 11
100.4782900747
 21
173.0506110525
  0
LINE
  5
296
100
AcDbEntity
  8
0
100
AcDbLine
 62
7
  6
CONTINUOUS
 10
114.3616238531
 20
172.9016749
 11
113.7782900747
 21
173.0506110525
  0
LINE
  5
297
100
AcDbEntity
  8
0
100
AcDbLine
 62
7
  6
CONTINUOUS
 10
132.3282900747
 20
169.9229514336
 11
131.7449576315
 21
170.0718875861
  0
LINE
  5
298
100
AcDbEntity
  8
0
100
AcDbLine
 62
7
  6
CONTINUOUS
 10
127.1949576315
 20
172.9016749
 11
126.611622518
 21
173.0506110525
  0
LINE
  5
299
100
AcDbEntity
  8
0
100
AcDbLine
 62
7
  6
CONTINUOUS
 10
132.211622518
 20
172.9016749
 11
131.6282900747
 21
173.0506110525
  0
LINE
  5
29A
100
AcDbEntity
  8
0
100
AcDbLine
 62
7
  6
CONTINUOUS
 10
113.7782900747
 20
172.1569941377
 11
114.2449562964
 21
172.0080579853
  0
LINE
  5
29B
100
AcDbEntity
  8
0
100
AcDbLine
 62
7
  6
CONTINUOUS
 10
130.811622518
 20
166.9442280715
 11
130.3449576315
 21
167.093164224
  0
LINE
  5
29C
100
AcDbEntity
  8
0
100
AcDbLine
 62
7
  6
CONTINUOUS
 10
130.5782900747
 20
169.3272068238
 11
131.0449576315
 21
169.1782706713
  0
LINE
  5
29D
100
AcDbEntity
  8
0
100
AcDbLine
 62
7
  6
CONTINUOUS
 10
131.7449576315
 20
169.1782706713
 11
132.211622518
 21
169.0293345189
  0
LINE
  5
29E
100
AcDbEntity
  8
0
100
AcDbLine
 62
7
  6
CONTINUOUS
 10
131.0449576315
 20
170.0718875861
 11
130.6949576315
 21
170.2208237386
  0
LINE
  5
29F
100
AcDbEntity
  8
0
100
AcDbLine
 62
7
  6
CONTINUOUS
 10
126.7282900747
 20
172.3059302902
 11
127.0782900747
 21
172.1569941377
  0
LINE
  5
2A0
100
AcDbEntity
  8
0
100
AcDbLine
 62
7
  6
CONTINUOUS
 10
114.8282900747
 20
172.6038025951
 11
114.3616238531
 21
172.9016749
  0
LINE
  5
2A1
100
AcDbEntity
  8
0
100
AcDbLine
 62
7
  6
CONTINUOUS
 10
129.6449576315
 20
166.6463557145
 11
130.2282900747
 21
166.199547218
  0
LINE
  5
2A2
100
AcDbEntity
  8
0
100
AcDbLine
 62
7
  6
CONTINUOUS
 10
114.2449562964
 20
172.0080579853
 11
114.5949562964
 21
171.7101856804
  0
LINE
  5
2A3
100
AcDbEntity
  8
B-ACHSEN
100
AcDbLine
 62
7
  6
CONTINUOUS
 10
136.01995725
 20
155.0506110525
 11
138.51995725
 21
152.5506110525
  0
LINE
  5
2A4
100
AcDbEntity
  8
0
100
AcDbLine
 62
7
  6
CONTINUOUS
 10
115.2949562964
 20
172.0080579853
 11
114.8282900747
 21
172.6038025951
  0
LINE
  5
2A5
100
AcDbEntity
  8
0
100
AcDbLine
 62
7
  6
CONTINUOUS
 10
114.5949562964
 20
171.7101856804
 11
114.8282900747
 21
171.2633768058
  0
LINE
  5
2A6
100
AcDbEntity
  8
0
100
AcDbLine
 62
7
  6
CONTINUOUS
 10
103.9782900747
 20
171.8591218328
 11
104.0949566301
 21
171.4123133755
  0
LINE
  5
2A7
100
AcDbEntity
  8
0
100
AcDbLine
 62
7
  6
CONTINUOUS
 10
104.7949566301
 20
171.4123133755
 11
104.6782900747
 21
171.8591218328
  0
LINE
  5
2A8
100
AcDbEntity
  8
0
100
AcDbLine
 62
7
  6
CONTINUOUS
 10
106.6616231856
 20
167.8378450906
 11
106.5449569639
 21
168.4335897004
  0
LINE
  5
2A9
100
AcDbEntity
  8
0
100
AcDbLine
 62
7
  6
CONTINUOUS
 10
105.8449566301
 20
168.4335897004
 11
105.9616235193
 21
167.6889089381
  0
LINE
  5
2AA
100
AcDbEntity
  8
0
100
AcDbLine
 62
7
  6
CONTINUOUS
 10
105.8449566301
 20
173.0506110525
 11
105.8449566301
 21
168.4335897004
  0
LINE
  5
2AB
100
AcDbEntity
  8
0
100
AcDbLine
 62
7
  6
CONTINUOUS
 10
106.5449569639
 20
168.4335897004
 11
106.5449569639
 21
173.0506110525
  0
LINE
  5
2AC
100
AcDbEntity
  8
B-ACHSEN
100
AcDbLine
 62
7
  6
CONTINUOUS
 10
108.51995725
 20
152.5506110525
 11
108.51995725
 21
118.5506110525
  0
LINE
  5
2AD
100
AcDbEntity
  8
0
100
AcDbLine
 62
7
  6
CONTINUOUS
 10
109.3449569639
 20
173.0506110525
 11
109.3449569639
 21
168.4335897004
  0
LINE
  5
2AE
100
AcDbEntity
  8
0
100
AcDbLine
 62
7
  6
CONTINUOUS
 10
110.0449569639
 20
168.4335897004
 11
110.0449569639
 21
173.0506110525
  0
LINE
  5
2AF
100
AcDbEntity
  8
0
100
AcDbLine
 62
7
  6
CONTINUOUS
 10
110.9782900747
 20
173.0506110525
 11
110.9782900747
 21
166.0506110525
  0
LINE
  5
2B0
100
AcDbEntity
  8
B-ACHSEN
100
AcDbLine
 62
7
  6
CONTINUOUS
 10
111.01995725
 20
161.5506110525
 11
111.01995725
 21
155.0506110525
  0
LINE
  5
2B1
100
AcDbEntity
  8
0
100
AcDbLine
 62
7
  6
CONTINUOUS
 10
111.8508857691
 20
259.4801305174
 11
111.880517016
 21
259.9529966331
  0
LINE
  5
2B2
100
AcDbEntity
  8
0
100
AcDbLine
 62
7
  6
CONTINUOUS
 10
104.0949566301
 20
170.9655045008
 11
103.9782900747
 21
170.5186960435
  0
LINE
  5
2B3
100
AcDbEntity
  8
0
100
AcDbLine
 62
7
  6
CONTINUOUS
 10
104.6782900747
 20
170.369759891
 11
104.7949566301
 21
170.8165683484
  0
LINE
  5
2B4
100
AcDbEntity
  8
RUNDUNGEN
100
AcDbLine
 62
7
  6
CONTINUOUS
 10
161.6485876212
 20
177.7515340865
 11
159.4727073273
 21
177.7515340865
  0
LINE
  5
2B5
100
AcDbEntity
  8
RUNDUNGEN
100
AcDbLine
 62
7
  6
CONTINUOUS
 10
87.5672071727
 20
177.7515340865
 11
85.3913268789
 21
177.7515340865
  0
LINE
  5
2B6
100
AcDbEntity
  8
0
100
AcDbLine
 62
7
  6
CONTINUOUS
 10
131.7449576315
 20
172.1569941377
 11
132.0949576315
 21
172.0080579853
  0
LINE
  5
2B7
100
AcDbEntity
  8
0
100
AcDbLine
 62
7
  6
CONTINUOUS
 10
130.111622518
 20
169.6250791287
 11
130.5782900747
 21
169.3272068238
  0
LINE
  5
2B8
100
AcDbEntity
  8
0
100
AcDbLine
 62
7
  6
CONTINUOUS
 10
132.7949576315
 20
169.6250791287
 11
132.3282900747
 21
169.9229514336
  0
LINE
  5
2B9
100
AcDbEntity
  8
0
100
AcDbLine
 62
7
  6
CONTINUOUS
 10
130.6949576315
 20
170.2208237386
 11
130.3449576315
 21
170.5186960435
  0
LINE
  5
2BA
100
AcDbEntity
  8
0
100
AcDbLine
 62
7
  6
CONTINUOUS
 10
132.211622518
 20
169.0293345189
 11
132.561622518
 21
168.731462214
  0
LINE
  5
2BB
100
AcDbEntity
  8
0
100
AcDbLine
 62
7
  6
CONTINUOUS
 10
127.661622518
 20
172.4548664427
 11
127.1949576315
 21
172.9016749
  0
LINE
  5
2BC
100
AcDbEntity
  8
0
100
AcDbLine
 62
7
  6
CONTINUOUS
 10
115.5282900747
 20
171.4123133755
 11
115.2949562964
 21
172.0080579853
  0
LINE
  5
2BD
100
AcDbEntity
  8
0
100
AcDbLine
 62
7
  6
CONTINUOUS
 10
114.8282900747
 20
171.2633768058
 11
114.9449562964
 21
170.6676321959
  0
LINE
  5
2BE
100
AcDbEntity
  8
0
100
AcDbLine
 62
7
  6
CONTINUOUS
 10
107.8644394507
 20
257.9440384793
 11
107.8385435106
 21
258.2787563884
  0
LINE
  5
2BF
100
AcDbEntity
  8
0
100
AcDbLine
 62
7
  6
CONTINUOUS
 10
107.7831430713
 20
261.1345115762
 11
107.809039097
 21
260.7997934606
  0
LINE
  5
2C0
100
AcDbEntity
  8
0
100
AcDbLine
 62
7
  6
CONTINUOUS
 10
111.880517016
 20
259.9529966331
 11
111.8546211044
 21
260.2877144734
  0
LINE
  5
2C1
100
AcDbEntity
  8
0
100
AcDbLine
 62
7
  6
CONTINUOUS
 10
111.6782900747
 20
166.9442280715
 11
111.6782900747
 21
172.1569941377
  0
LINE
  5
2C2
100
AcDbEntity
  8
0
100
AcDbLine
 62
7
  6
CONTINUOUS
 10
114.9449562964
 20
170.6676321959
 11
114.9449562964
 21
168.4335897004
  0
LINE
  5
2C3
100
AcDbEntity
  8
0
100
AcDbLine
 62
7
  6
CONTINUOUS
 10
115.6449562964
 20
168.4335897004
 11
115.6449562964
 21
170.6676321959
  0
LINE
  5
2C4
100
AcDbEntity
  8
0
100
AcDbLine
 62
7
  6
CONTINUOUS
 10
109.9282900747
 20
167.6889089381
 11
110.0449569639
 21
168.4335897004
  0
LINE
  5
2C5
100
AcDbEntity
  8
0
100
AcDbLine
 62
7
  6
CONTINUOUS
 10
109.3449569639
 20
168.4335897004
 11
109.2282900747
 21
167.8378450906
  0
LINE
  5
2C6
100
AcDbEntity
  8
0
100
AcDbLine
 62
7
  6
CONTINUOUS
 10
138.401840067
 20
259.0705253108
 11
138.2797070712
 21
258.775670176
  0
LINE
  5
2C7
100
AcDbEntity
  8
0
100
AcDbLine
 62
7
  6
CONTINUOUS
 10
139.31229755
 20
260.9963634884
 11
139.1901645542
 21
260.7015083536
  0
LINE
  5
2C8
100
AcDbEntity
  8
0
100
AcDbLine
 62
7
  6
CONTINUOUS
 10
138.7608943163
 20
258.5763558931
 11
138.883027312
 21
258.8712110279
  0
LINE
  5
2C9
100
AcDbEntity
  8
0
100
AcDbLine
 62
7
  6
CONTINUOUS
 10
139.7120628065
 20
260.6004791121
 11
139.7934848036
 21
260.7970492019
  0
LINE
  5
2CA
100
AcDbEntity
  8
0
100
AcDbLine
 62
7
  6
CONTINUOUS
 10
142.1031836349
 20
259.840340621
 11
142.0217616377
 21
259.6437705312
  0
LINE
  5
2CB
100
AcDbEntity
  8
0
100
AcDbLine
 62
7
  6
CONTINUOUS
 10
141.3852009656
 20
257.8347767652
 11
141.2630679698
 21
257.5399216304
  0
LINE
  5
2CC
100
AcDbEntity
  8
0
100
AcDbLine
 62
7
  6
CONTINUOUS
 10
142.4622379874
 20
259.3461711605
 11
142.5843709832
 21
259.6410262953
  0
LINE
  5
2CD
100
AcDbEntity
  8
0
100
AcDbLine
 62
7
  6
CONTINUOUS
 10
141.7442553181
 20
257.3406073047
 11
141.8663883139
 21
257.6354624395
  0
LINE
  5
2CE
100
AcDbEntity
  8
0
100
AcDbLine
 62
7
  6
CONTINUOUS
 10
143.3283750492
 20
258.9874054427
 11
143.1655310548
 21
258.5942652629
  0
LINE
  5
2CF
100
AcDbEntity
  8
0
100
AcDbLine
 62
7
  6
CONTINUOUS
 10
132.6782900747
 20
172.4548664427
 11
132.211622518
 21
172.9016749
  0
LINE
  5
2D0
100
AcDbEntity
  8
0
100
AcDbLine
 62
7
  6
CONTINUOUS
 10
130.3449576315
 20
167.093164224
 11
129.9949576315
 21
167.5399727857
  0
LINE
  5
2D1
100
AcDbEntity
  8
0
100
AcDbLine
 62
7
  6
CONTINUOUS
 10
127.0782900747
 20
172.1569941377
 11
127.311622518
 21
171.8591218328
  0
LINE
  5
2D2
100
AcDbEntity
  8
0
100
AcDbLine
 62
7
  6
CONTINUOUS
 10
129.6449576315
 20
170.2208237386
 11
130.111622518
 21
169.6250791287
  0
LINE
  5
2D3
100
AcDbEntity
  8
0
100
AcDbLine
 62
7
  6
CONTINUOUS
 10
133.261622518
 20
169.0293345189
 11
132.7949576315
 21
169.6250791287
  0
LINE
  5
2D4
100
AcDbEntity
  8
0
100
AcDbLine
 62
7
  6
CONTINUOUS
 10
132.0949576315
 20
172.0080579853
 11
132.3282900747
 21
171.7101856804
  0
LINE
  5
2D5
100
AcDbEntity
  8
0
100
AcDbLine
 62
7
  6
CONTINUOUS
 10
128.011622518
 20
171.8591218328
 11
127.661622518
 21
172.4548664427
  0
LINE
  5
2D6
100
AcDbEntity
  8
0
100
AcDbLine
 62
7
  6
CONTINUOUS
 10
129.2949576315
 20
167.3910366332
 11
129.6449576315
 21
166.6463557145
  0
LINE
  5
2D7
100
AcDbEntity
  8
0
100
AcDbLine
 62
7
  6
CONTINUOUS
 10
115.6449562964
 20
170.6676321959
 11
115.5282900747
 21
171.4123133755
  0
LINE
  5
2D8
100
AcDbEntity
  8
0
100
AcDbLine
 62
7
  6
CONTINUOUS
 10
103.3858514032
 20
259.7736861003
 11
103.4524577627
 21
259.340682987
  0
LINE
  5
2D9
100
AcDbEntity
  8
0
100
AcDbLine
 62
7
  6
CONTINUOUS
 10
106.8725597613
 20
260.0664467408
 11
106.8059534018
 21
260.4994498541
  0
LINE
  5
2DA
100
AcDbEntity
  8
0
100
AcDbLine
 62
7
  6
CONTINUOUS
 10
122.1782900747
 20
173.0506110525
 11
122.1782900747
 21
166.0506110525
  0
LINE
  5
2DB
100
AcDbEntity
  8
0
100
AcDbLine
 62
7
  6
CONTINUOUS
 10
122.8782900747
 20
166.0506110525
 11
122.8782900747
 21
173.0506110525
  0
LINE
  5
2DC
100
AcDbEntity
  8
B-ACHSEN
100
AcDbLine
 62
2
  6
CENTER
 10
123.51995725
 20
217.5506110525
 11
123.51995725
 21
113.4789869596
  0
LINE
  5
2DD
100
AcDbEntity
  8
B-ACHSEN
100
AcDbLine
 62
2
  6
CENTER
 10
123.51995725
 20
217.5506110525
 11
123.51995725
 21
277.4875114051
  0
LINE
  5
2DE
100
AcDbEntity
  8
0
100
AcDbLine
 62
7
  6
CONTINUOUS
 10
123.811622518
 20
173.0506110525
 11
123.811622518
 21
166.0506110525
  0
LINE
  5
2DF
100
AcDbEntity
  8
0
100
AcDbLine
 62
7
  6
CONTINUOUS
 10
115.5282900747
 20
167.6889089381
 11
115.6449562964
 21
168.4335897004
  0
LINE
  5
2E0
100
AcDbEntity
  8
0
100
AcDbLine
 62
7
  6
CONTINUOUS
 10
114.9449562964
 20
168.4335897004
 11
114.8282900747
 21
167.8378450906
  0
LINE
  5
2E1
100
AcDbEntity
  8
0
100
AcDbLine
 62
7
  6
CONTINUOUS
 10
109.6949569639
 20
167.093164224
 11
109.9282900747
 21
167.6889089381
  0
LINE
  5
2E2
100
AcDbEntity
  8
0
100
AcDbLine
 62
7
  6
CONTINUOUS
 10
144.4239628541
 20
259.4547831792
 11
144.0982747514
 21
258.6685025444
  0
LINE
  5
2E3
100
AcDbEntity
  8
0
100
AcDbLine
 62
7
  6
CONTINUOUS
 10
143.935430757
 20
258.2753623646
 11
143.1212106997
 21
256.3096612595
  0
LINE
  5
2E4
100
AcDbEntity
  8
0
100
AcDbLine
 62
7
  6
CONTINUOUS
 10
143.6838197983
 20
256.3069172065
 11
144.41661783
 21
258.076048153
  0
LINE
  5
2E5
100
AcDbEntity
  8
0
100
AcDbLine
 62
7
  6
CONTINUOUS
 10
144.5794618243
 20
258.4691883327
 11
144.9051499271
 21
259.2554689675
  0
LINE
  5
2E6
100
AcDbEntity
  8
0
100
AcDbLine
 62
7
  6
CONTINUOUS
 10
144.1428468171
 20
254.9653009016
 11
144.3056908257
 21
255.3584411158
  0
LINE
  5
2E7
100
AcDbEntity
  8
0
100
AcDbLine
 62
7
  6
CONTINUOUS
 10
145.4752296107
 20
257.6375567961
 11
145.6380736051
 21
258.0306969758
  0
LINE
  5
2E8
100
AcDbEntity
  8
0
100
AcDbLine
 62
7
  6
CONTINUOUS
 10
109.2282900747
 20
167.8378450906
 11
108.9949569639
 21
167.3910366332
  0
LINE
  5
2E9
100
AcDbEntity
  8
0
100
AcDbLine
 62
7
  6
CONTINUOUS
 10
104.3282900747
 20
169.7740152812
 11
104.6782900747
 21
170.369759891
  0
LINE
  5
2EA
100
AcDbEntity
  8
0
100
AcDbLine
 62
7
  6
CONTINUOUS
 10
103.9782900747
 20
170.5186960435
 11
103.7449566301
 21
170.2208237386
  0
LINE
  5
2EB
100
AcDbEntity
  8
0
100
AcDbLine
 62
7
  6
CONTINUOUS
 10
133.0282900747
 20
171.8591218328
 11
132.6782900747
 21
172.4548664427
  0
LINE
  5
2EC
100
AcDbEntity
  8
0
100
AcDbLine
 62
7
  6
CONTINUOUS
 10
132.561622518
 20
168.731462214
 11
132.7949576315
 21
168.284653548
  0
LINE
  5
2ED
100
AcDbEntity
  8
0
100
AcDbLine
 62
7
  6
CONTINUOUS
 10
97.5191020539
 20
258.1496356016
 11
99.4325192157
 21
253.530237939
  0
LINE
  5
2EE
100
AcDbEntity
  8
0
100
AcDbLine
 62
7
  6
CONTINUOUS
 10
100.0099439236
 20
253.7694150843
 11
98.5036367476
 21
257.4059622975
  0
LINE
  5
2EF
100
AcDbEntity
  8
0
100
AcDbLine
 62
7
  6
CONTINUOUS
 10
133.4949576315
 20
168.4335897004
 11
133.261622518
 21
169.0293345189
  0
LINE
  5
2F0
100
AcDbEntity
  8
0
100
AcDbLine
 62
7
  6
CONTINUOUS
 10
132.3282900747
 20
171.7101856804
 11
132.4449576315
 21
171.4123133755
  0
LINE
  5
2F1
100
AcDbEntity
  8
0
100
AcDbLine
 62
7
  6
CONTINUOUS
 10
128.2449576315
 20
166.0506110525
 11
127.1949576315
 21
169.4761429763
  0
LINE
  5
2F2
100
AcDbEntity
  8
0
100
AcDbLine
 62
7
  6
CONTINUOUS
 10
126.4949576315
 20
169.1782706713
 11
127.4282900747
 21
166.0506110525
  0
LINE
  5
2F3
100
AcDbEntity
  8
0
100
AcDbLine
 62
7
  6
CONTINUOUS
 10
127.311622518
 20
171.8591218328
 11
127.4282900747
 21
171.4123133755
  0
LINE
  5
2F4
100
AcDbEntity
  8
0
100
AcDbLine
 62
7
  6
CONTINUOUS
 10
128.1282900747
 20
171.4123133755
 11
128.011622518
 21
171.8591218328
  0
LINE
  5
2F5
100
AcDbEntity
  8
0
100
AcDbLine
 62
7
  6
CONTINUOUS
 10
129.9949576315
 20
167.5399727857
 11
129.8782900747
 21
167.9867812431
  0
LINE
  5
2F6
100
AcDbEntity
  8
0
100
AcDbLine
 62
7
  6
CONTINUOUS
 10
130.3449576315
 20
170.5186960435
 11
130.2282900747
 21
170.9655045008
  0
LINE
  5
2F7
100
AcDbEntity
  8
0
100
AcDbLine
 62
7
  6
CONTINUOUS
 10
108.4382545266
 20
260.3695344691
 11
108.2902256193
 21
260.9991074442
  0
LINE
  5
2F8
100
AcDbEntity
  8
0
100
AcDbLine
 62
7
  6
CONTINUOUS
 10
107.809039097
 20
260.7997934606
 11
107.9163559044
 21
260.2685050743
  0
LINE
  5
2F9
100
AcDbEntity
  8
0
100
AcDbLine
 62
7
  6
CONTINUOUS
 10
129.1782900747
 20
167.9867812431
 11
129.2949576315
 21
167.3910366332
  0
LINE
  5
2FA
100
AcDbEntity
  8
0
100
AcDbLine
 62
7
  6
CONTINUOUS
 10
124.511622518
 20
166.0506110525
 11
124.511622518
 21
169.1782706713
  0
LINE
  5
2FB
100
AcDbEntity
  8
0
100
AcDbLine
 62
7
  6
CONTINUOUS
 10
124.511622518
 20
170.0718875861
 11
124.511622518
 21
172.3059302902
  0
LINE
  5
2FC
100
AcDbEntity
  8
0
100
AcDbLine
 62
7
  6
CONTINUOUS
 10
127.4282900747
 20
171.4123133755
 11
127.4282900747
 21
170.9655045008
  0
LINE
  5
2FD
100
AcDbEntity
  8
0
100
AcDbLine
 62
7
  6
CONTINUOUS
 10
128.1282900747
 20
170.8165683484
 11
128.1282900747
 21
171.4123133755
  0
LINE
  5
2FE
100
AcDbEntity
  8
0
100
AcDbLine
 62
7
  6
CONTINUOUS
 10
129.5282900747
 20
171.4123133755
 11
129.5282900747
 21
170.8165683484
  0
LINE
  5
2FF
100
AcDbEntity
  8
0
100
AcDbLine
 62
7
  6
CONTINUOUS
 10
130.2282900747
 20
170.9655045008
 11
130.2282900747
 21
171.2633768058
  0
LINE
  5
300
100
AcDbEntity
  8
0
100
AcDbLine
 62
7
  6
CONTINUOUS
 10
115.2949562964
 20
167.093164224
 11
115.5282900747
 21
167.6889089381
  0
LINE
  5
301
100
AcDbEntity
  8
0
100
AcDbLine
 62
7
  6
CONTINUOUS
 10
114.8282900747
 20
167.8378450906
 11
114.5949562964
 21
167.3910366332
  0
LINE
  5
302
100
AcDbEntity
  8
0
100
AcDbLine
 62
7
  6
CONTINUOUS
 10
109.2282900747
 20
166.497419562
 11
109.6949569639
 21
167.093164224
  0
LINE
  5
303
100
AcDbEntity
  8
0
100
AcDbLine
 62
7
  6
CONTINUOUS
 10
101.9681849946
 20
258.8410251689
 11
103.4744921705
 21
255.2044779556
  0
LINE
  5
304
100
AcDbEntity
  8
0
100
AcDbLine
 62
7
  6
CONTINUOUS
 10
104.0519168783
 20
255.4436551009
 11
102.1384997165
 21
260.0630527634
  0
LINE
  5
305
100
AcDbEntity
  8
0
100
AcDbLine
 62
7
  6
CONTINUOUS
 10
133.1449576315
 20
171.4123133755
 11
133.0282900747
 21
171.8591218328
  0
LINE
  5
306
100
AcDbEntity
  8
0
100
AcDbLine
 62
7
  6
CONTINUOUS
 10
111.2254056177
 20
260.7179736026
 11
111.3734334808
 21
260.0884000337
  0
LINE
  5
307
100
AcDbEntity
  8
0
100
AcDbLine
 62
7
  6
CONTINUOUS
 10
111.8546211044
 20
260.2877144734
 11
111.7473031386
 21
260.8190025412
  0
LINE
  5
308
100
AcDbEntity
  8
0
100
AcDbLine
 62
7
  6
CONTINUOUS
 10
129.5282900747
 20
170.8165683484
 11
129.6449576315
 21
170.2208237386
  0
LINE
  5
309
100
AcDbEntity
  8
0
100
AcDbLine
 62
7
  6
CONTINUOUS
 10
132.7949576315
 20
168.284653548
 11
132.7949576315
 21
167.8378450906
  0
LINE
  5
30A
100
AcDbEntity
  8
0
100
AcDbLine
 62
7
  6
CONTINUOUS
 10
133.4949576315
 20
167.6889089381
 11
133.4949576315
 21
168.4335897004
  0
LINE
  5
30B
100
AcDbEntity
  8
0
100
AcDbLine
 62
7
  6
CONTINUOUS
 10
134.4282900747
 20
169.3272068238
 11
134.4282900747
 21
168.5825258529
  0
LINE
  5
30C
100
AcDbEntity
  8
B-ACHSEN
100
AcDbLine
 62
7
  6
CONTINUOUS
 10
136.01995725
 20
161.5506110525
 11
136.01995725
 21
155.0506110525
  0
LINE
  5
30D
100
AcDbEntity
  8
0
100
AcDbLine
 62
7
  6
CONTINUOUS
 10
136.061622518
 20
168.5825258529
 11
136.061622518
 21
169.3272068238
  0
LINE
  5
30E
100
AcDbEntity
  8
0
100
AcDbLine
 62
7
  6
CONTINUOUS
 10
136.9949576315
 20
173.0506110525
 11
136.9949576315
 21
166.0506110525
  0
LINE
  5
30F
100
AcDbEntity
  8
0
100
AcDbLine
 62
7
  6
CONTINUOUS
 10
138.2797070712
 20
258.775670176
 11
138.2686269581
 21
258.2045191651
  0
LINE
  5
310
100
AcDbEntity
  8
0
100
AcDbLine
 62
7
  6
CONTINUOUS
 10
129.6449576315
 20
172.0080579853
 11
129.5282900747
 21
171.4123133755
  0
LINE
  5
311
100
AcDbEntity
  8
0
100
AcDbLine
 62
7
  6
CONTINUOUS
 10
127.4282900747
 20
170.9655045008
 11
127.311622518
 21
170.5186960435
  0
LINE
  5
312
100
AcDbEntity
  8
0
100
AcDbLine
 62
7
  6
CONTINUOUS
 10
128.011622518
 20
170.369759891
 11
128.1282900747
 21
170.8165683484
  0
LINE
  5
313
100
AcDbEntity
  8
0
100
AcDbLine
 62
7
  6
CONTINUOUS
 10
130.2282900747
 20
171.2633768058
 11
130.3449576315
 21
171.7101856804
  0
LINE
  5
314
100
AcDbEntity
  8
0
100
AcDbLine
 62
7
  6
CONTINUOUS
 10
114.8282900747
 20
166.497419562
 11
115.2949562964
 21
167.093164224
  0
LINE
  5
315
100
AcDbEntity
  8
0
100
AcDbLine
 62
7
  6
CONTINUOUS
 10
108.9949569639
 20
167.3910366332
 11
108.6449569639
 21
167.093164224
  0
LINE
  5
316
100
AcDbEntity
  8
0
100
AcDbLine
 62
7
  6
CONTINUOUS
 10
103.8616235193
 20
169.4761429763
 11
104.3282900747
 21
169.7740152812
  0
LINE
  5
317
100
AcDbEntity
  8
0
100
AcDbLine
 62
7
  6
CONTINUOUS
 10
105.3031296322
 20
258.9557751254
 11
105.4659736266
 21
258.5626349457
  0
LINE
  5
318
100
AcDbEntity
  8
0
100
AcDbLine
 62
7
  6
CONTINUOUS
 10
106.2433436669
 20
260.4967057796
 11
106.3247657782
 21
260.3001354144
  0
LINE
  5
319
100
AcDbEntity
  8
0
100
AcDbLine
 62
7
  6
CONTINUOUS
 10
107.1945124433
 20
258.4725823565
 11
107.3573564376
 21
258.0794421768
  0
LINE
  5
31A
100
AcDbEntity
  8
0
100
AcDbLine
 62
7
  6
CONTINUOUS
 10
106.8059534018
 20
260.4994498541
 11
106.7245312906
 21
260.6960202193
  0
LINE
  5
31B
100
AcDbEntity
  8
0
100
AcDbLine
 62
7
  6
CONTINUOUS
 10
107.8385435106
 20
258.2787563884
 11
107.6756995162
 21
258.6718965682
  0
LINE
  5
31C
100
AcDbEntity
  8
0
100
AcDbLine
 62
7
  6
CONTINUOUS
 10
107.9163559044
 20
260.2685050743
 11
108.2827548917
 21
259.3839396699
  0
LINE
  5
31D
100
AcDbEntity
  8
0
100
AcDbLine
 62
7
  6
CONTINUOUS
 10
108.7232315167
 20
259.6815391545
 11
108.4382545266
 21
260.3695344691
  0
LINE
  5
31E
100
AcDbEntity
  8
0
100
AcDbLine
 62
7
  6
CONTINUOUS
 10
139.1901645542
 20
260.7015083536
 11
139.2197954596
 21
260.22864246
  0
LINE
  5
31F
100
AcDbEntity
  8
0
100
AcDbLine
 62
7
  6
CONTINUOUS
 10
137.6949576315
 20
166.9442280715
 11
137.6949576315
 21
173.0506110525
  0
LINE
  5
320
100
AcDbEntity
  8
B-ACHSEN
100
AcDbLine
 62
7
  6
CONTINUOUS
 10
138.51995725
 20
152.5506110525
 11
138.51995725
 21
118.5506110525
  0
LINE
  5
321
100
AcDbEntity
  8
0
100
AcDbLine
 62
7
  6
CONTINUOUS
 10
141.1949576315
 20
166.0506110525
 11
141.1949576315
 21
166.9442280715
  0
LINE
  5
322
100
AcDbEntity
  8
0
100
AcDbLine
 62
7
  6
CONTINUOUS
 10
142.1282900747
 20
173.0506110525
 11
142.1282900747
 21
172.3059302902
  0
LINE
  5
323
100
AcDbEntity
  8
0
100
AcDbLine
 62
7
  6
CONTINUOUS
 10
141.8663883139
 20
257.6354624395
 11
141.8774683695
 21
258.2066135549
  0
LINE
  5
324
100
AcDbEntity
  8
0
100
AcDbLine
 62
7
  6
CONTINUOUS
 10
142.5843709832
 20
259.6410262953
 11
142.5954510958
 21
260.2121775484
  0
LINE
  5
325
100
AcDbEntity
  8
0
100
AcDbLine
 62
7
  6
CONTINUOUS
 10
143.6579244089
 20
255.9721990693
 11
143.6838197983
 21
256.3069172065
  0
LINE
  5
326
100
AcDbEntity
  8
0
100
AcDbLine
 62
7
  6
CONTINUOUS
 10
133.261622518
 20
167.093164224
 11
133.4949576315
 21
167.6889089381
  0
LINE
  5
327
100
AcDbEntity
  8
0
100
AcDbLine
 62
7
  6
CONTINUOUS
 10
127.661622518
 20
169.7740152812
 11
128.011622518
 21
170.369759891
  0
LINE
  5
328
100
AcDbEntity
  8
0
100
AcDbLine
 62
7
  6
CONTINUOUS
 10
127.311622518
 20
170.5186960435
 11
127.0782900747
 21
170.2208237386
  0
LINE
  5
329
100
AcDbEntity
  8
0
100
AcDbLine
 62
7
  6
CONTINUOUS
 10
130.111622518
 20
172.6038025951
 11
129.6449576315
 21
172.0080579853
  0
LINE
  5
32A
100
AcDbEntity
  8
B-ACHSEN
100
AcDbLine
 62
7
  6
CONTINUOUS
 10
111.01995725
 20
155.0506110525
 11
108.51995725
 21
152.5506110525
  0
LINE
  5
32B
100
AcDbEntity
  8
0
100
AcDbLine
 62
7
  6
CONTINUOUS
 10
114.5949562964
 20
167.3910366332
 11
114.2449562964
 21
167.093164224
  0
LINE
  5
32C
100
AcDbEntity
  8
0
100
AcDbLine
 62
7
  6
CONTINUOUS
 10
108.7616231856
 20
166.199547218
 11
109.2282900747
 21
166.497419562
  0
LINE
  5
32D
100
AcDbEntity
  8
0
100
AcDbLine
 62
7
  6
CONTINUOUS
 10
114.3616238531
 20
166.199547218
 11
114.8282900747
 21
166.497419562
  0
LINE
  5
32E
100
AcDbEntity
  8
0
100
AcDbLine
 62
7
  6
CONTINUOUS
 10
103.7449566301
 20
170.2208237386
 11
103.3949566301
 21
170.0718875861
  0
LINE
  5
32F
100
AcDbEntity
  8
0
100
AcDbLine
 62
7
  6
CONTINUOUS
 10
110.9404286276
 20
261.4059689171
 11
111.2254056177
 21
260.7179736026
  0
LINE
  5
330
100
AcDbEntity
  8
0
100
AcDbLine
 62
7
  6
CONTINUOUS
 10
111.7473031386
 20
260.8190025412
 11
111.3809041513
 21
261.7035679456
  0
LINE
  5
331
100
AcDbEntity
  8
0
100
AcDbLine
 62
7
  6
CONTINUOUS
 10
143.1212106997
 20
256.3096612595
 11
143.1508414101
 21
255.8367954063
  0
LINE
  5
332
100
AcDbEntity
  8
0
100
AcDbLine
 62
7
  6
CONTINUOUS
 10
143.9949576315
 20
172.3059302902
 11
143.9949576315
 21
166.0506110525
  0
LINE
  5
333
100
AcDbEntity
  8
0
100
AcDbLine
 62
7
  6
CONTINUOUS
 10
144.6949576315
 20
166.0506110525
 11
144.6949576315
 21
172.3059302902
  0
LINE
  5
334
100
AcDbEntity
  8
0
100
AcDbLine
 62
7
  6
CONTINUOUS
 10
146.5616251883
 20
172.3059302902
 11
146.5616251883
 21
173.0506110525
  0
LINE
  5
335
100
AcDbEntity
  8
0
100
AcDbLine
 62
7
  6
CONTINUOUS
 10
132.7949576315
 20
167.8378450906
 11
132.561622518
 21
167.3910366332
  0
LINE
  5
336
100
AcDbEntity
  8
0
100
AcDbLine
 62
7
  6
CONTINUOUS
 10
132.7949576315
 20
166.497419562
 11
133.261622518
 21
167.093164224
  0
LINE
  5
337
100
AcDbEntity
  8
0
100
AcDbLine
 62
7
  6
CONTINUOUS
 10
130.3449576315
 20
171.7101856804
 11
130.6949576315
 21
172.0080579853
  0
LINE
  5
338
100
AcDbEntity
  8
0
100
AcDbLine
 62
7
  6
CONTINUOUS
 10
130.5782900747
 20
172.9016749
 11
130.111622518
 21
172.6038025951
  0
LINE
  5
339
100
AcDbEntity
  8
0
100
AcDbLine
 62
7
  6
CONTINUOUS
 10
127.1949576315
 20
169.4761429763
 11
127.661622518
 21
169.7740152812
  0
LINE
  5
33A
100
AcDbEntity
  8
0
100
AcDbLine
 62
7
  6
CONTINUOUS
 10
130.6949576315
 20
172.0080579853
 11
131.0449576315
 21
172.1569941377
  0
LINE
  5
33B
100
AcDbEntity
  8
0
100
AcDbLine
 62
7
  6
CONTINUOUS
 10
127.0782900747
 20
170.2208237386
 11
126.7282900747
 21
170.0718875861
  0
LINE
  5
33C
100
AcDbEntity
  8
0
100
AcDbLine
 62
7
  6
CONTINUOUS
 10
108.6449569639
 20
167.093164224
 11
108.1782900747
 21
166.9442280715
  0
LINE
  5
33D
100
AcDbEntity
  8
0
100
AcDbLine
 62
7
  6
CONTINUOUS
 10
131.0449576315
 20
173.0506110525
 11
130.5782900747
 21
172.9016749
  0
LINE
  5
33E
100
AcDbEntity
  8
0
100
AcDbLine
 62
7
  6
CONTINUOUS
 10
114.2449562964
 20
167.093164224
 11
113.7782900747
 21
166.9442280715
  0
LINE
  5
33F
100
AcDbEntity
  8
B-ACHSEN
100
AcDbLine
 62
2
  6
CENTER
 10
123.51995725
 20
217.5506110525
 11
61.7278740876
 21
217.5506110525
  0
LINE
  5
340
100
AcDbEntity
  8
B-ACHSEN
100
AcDbLine
 62
2
  6
CENTER
 10
123.51995725
 20
217.5506110525
 11
185.5189324818
 21
217.5506110525
  0
LINE
  5
341
100
AcDbEntity
  8
0
100
AcDbLine
 62
7
  6
CONTINUOUS
 10
98.5036367476
 20
257.4059622975
 11
101.3572681959
 21
254.3274950708
  0
LINE
  5
342
100
AcDbEntity
  8
0
100
AcDbLine
 62
7
  6
CONTINUOUS
 10
101.5386630256
 20
254.9783718135
 11
98.3852391157
 21
258.5084013194
  0
LINE
  5
343
100
AcDbEntity
  8
0
100
AcDbLine
 62
7
  6
CONTINUOUS
 10
104.3739952637
 20
256.8436935171
 11
104.5923659228
 21
256.588701247
  0
LINE
  5
344
100
AcDbEntity
  8
0
100
AcDbLine
 62
7
  6
CONTINUOUS
 10
107.6756995162
 20
258.6718965682
 11
107.4166183806
 21
259.0251741801
  0
LINE
  5
345
100
AcDbEntity
  8
0
100
AcDbLine
 62
7
  6
CONTINUOUS
 10
106.7245312906
 20
260.6960202193
 11
106.4654496613
 21
261.0492974655
  0
LINE
  5
346
100
AcDbEntity
  8
0
100
AcDbLine
 62
7
  6
CONTINUOUS
 10
108.2827548917
 20
259.3839396699
 11
108.5825481272
 21
258.9323774692
  0
LINE
  5
347
100
AcDbEntity
  8
0
100
AcDbLine
 62
7
  6
CONTINUOUS
 10
109.0637346495
 20
259.1316914527
 11
108.7232315167
 21
259.6815391545
  0
LINE
  5
348
100
AcDbEntity
  8
0
100
AcDbLine
 62
7
  6
CONTINUOUS
 10
110.5999244505
 20
261.9558160251
 11
110.9404286276
 21
261.4059689171
  0
LINE
  5
349
100
AcDbEntity
  8
B-ACHSEN
100
AcDbLine
 62
7
  6
CONTINUOUS
 10
153.51995725
 20
161.5506110525
 11
153.51995725
 21
169.7515340865
  0
LINE
  5
34A
100
AcDbEntity
  8
0
100
AcDbLine
 62
7
  6
CONTINUOUS
 10
132.561622518
 20
167.3910366332
 11
132.211622518
 21
167.093164224
  0
LINE
  5
34B
100
AcDbEntity
  8
0
100
AcDbLine
 62
7
  6
CONTINUOUS
 10
132.3282900747
 20
166.199547218
 11
132.7949576315
 21
166.497419562
  0
LINE
  5
34C
100
AcDbEntity
  8
0
100
AcDbLine
 62
7
  6
CONTINUOUS
 10
132.211622518
 20
167.093164224
 11
131.7449576315
 21
166.9442280715
  0
LINE
  5
34D
100
AcDbEntity
  8
0
100
AcDbLine
 62
7
  6
CONTINUOUS
 10
108.5825481272
 20
258.9323774692
 11
108.8009182072
 21
258.6773850399
  0
LINE
  5
34E
100
AcDbEntity
  8
0
100
AcDbLine
 62
7
  6
CONTINUOUS
 10
111.3809041513
 20
261.7035679456
 11
111.0811120742
 21
262.1551304648
  0
LINE
  5
34F
100
AcDbEntity
  8
0
100
AcDbLine
 62
7
  6
CONTINUOUS
 10
138.8867626817
 20
258.0636270577
 11
138.7608943163
 21
258.5763558931
  0
LINE
  5
350
100
AcDbEntity
  8
0
100
AcDbLine
 62
7
  6
CONTINUOUS
 10
141.2593326631
 20
258.3475056552
 11
141.3852009656
 21
257.8347767652
  0
LINE
  5
351
100
AcDbEntity
  8
0
100
AcDbLine
 62
7
  6
CONTINUOUS
 10
139.7824047362
 20
260.2258982527
 11
139.7120628065
 21
260.6004791121
  0
LINE
  5
352
100
AcDbEntity
  8
0
100
AcDbLine
 62
7
  6
CONTINUOUS
 10
142.0328417503
 20
260.2149217843
 11
142.1031836349
 21
259.840340621
  0
LINE
  5
353
100
AcDbEntity
  8
0
100
AcDbLine
 62
7
  6
CONTINUOUS
 10
105.0328419687
 20
256.8863005724
 11
104.8551828873
 21
257.0430079568
  0
LINE
  5
354
100
AcDbEntity
  8
0
100
AcDbLine
 62
7
  6
CONTINUOUS
 10
106.8391936728
 20
258.7859970349
 11
107.1945124433
 21
258.4725823565
  0
LINE
  5
355
100
AcDbEntity
  8
0
100
AcDbLine
 62
7
  6
CONTINUOUS
 10
108.8009182072
 20
258.6773850399
 11
109.1562374998
 21
258.3639706584
  0
LINE
  5
356
100
AcDbEntity
  8
0
100
AcDbLine
 62
7
  6
CONTINUOUS
 10
111.0811120742
 20
262.1551304648
 11
110.8627418802
 21
262.4101231695
  0
LINE
  5
357
100
AcDbEntity
  8
0
100
AcDbLine
 62
7
  6
CONTINUOUS
 10
138.2686269581
 20
258.2045191651
 11
138.4352062848
 21
257.7900754304
  0
LINE
  5
358
100
AcDbEntity
  8
0
100
AcDbLine
 62
7
  6
CONTINUOUS
 10
139.2197954596
 20
260.22864246
 11
139.3863748177
 21
259.8141987526
  0
LINE
  5
359
100
AcDbEntity
  8
RUNDUNGEN
100
AcDbLine
 62
7
  6
CONTINUOUS
 10
179.0117883263
 20
215.6371938907
 11
163.9582864525
 21
179.2948255056
  0
LINE
  5
35A
100
AcDbEntity
  8
0
100
AcDbLine
 62
7
  6
CONTINUOUS
 10
104.5923659228
 20
256.588701247
 11
104.9069736376
 21
256.3735717513
  0
LINE
  5
35B
100
AcDbEntity
  8
0
100
AcDbLine
 62
7
  6
CONTINUOUS
 10
107.4166183806
 20
259.0251741801
 11
107.1020101152
 21
259.2403034478
  0
LINE
  5
35C
100
AcDbEntity
  8
0
100
AcDbLine
 62
7
  6
CONTINUOUS
 10
105.9287359521
 20
260.7118352753
 11
106.2433436669
 21
260.4967057796
  0
LINE
  5
35D
100
AcDbEntity
  8
0
100
AcDbLine
 62
7
  6
CONTINUOUS
 10
109.692951209
 20
258.7014328486
 11
109.0637346495
 21
259.1316914527
  0
LINE
  5
35E
100
AcDbEntity
  8
0
100
AcDbLine
 62
7
  6
CONTINUOUS
 10
110.8627418802
 20
262.4101231695
 11
110.5074226161
 21
262.7235374821
  0
LINE
  5
35F
100
AcDbEntity
  8
0
100
AcDbLine
 62
7
  6
CONTINUOUS
 10
142.5954510958
 20
260.2121775484
 11
142.4288717377
 21
260.6266212558
  0
LINE
  5
360
100
AcDbEntity
  8
0
100
AcDbLine
 62
7
  6
CONTINUOUS
 10
105.3067392641
 20
256.7694562809
 11
105.0328419687
 21
256.8863005724
  0
LINE
  5
361
100
AcDbEntity
  8
0
100
AcDbLine
 62
7
  6
CONTINUOUS
 10
109.9707089069
 20
262.3860752919
 11
110.5999244505
 21
261.9558160251
  0
LINE
  5
362
100
AcDbEntity
  8
0
100
AcDbLine
 62
7
  6
CONTINUOUS
 10
138.4352062848
 20
257.7900754304
 11
138.7942605234
 21
257.2959059868
  0
LINE
  5
363
100
AcDbEntity
  8
0
100
AcDbLine
 62
7
  6
CONTINUOUS
 10
143.1508414101
 20
255.8367954063
 11
143.3581317597
 21
255.5206367266
  0
LINE
  5
364
100
AcDbEntity
  8
0
100
AcDbLine
 62
7
  6
CONTINUOUS
 10
143.8652147656
 20
255.6560404068
 11
143.6579244089
 21
255.9721990693
  0
LINE
  5
365
100
AcDbEntity
  8
0
100
AcDbLine
 62
7
  6
CONTINUOUS
 10
140.0452215227
 20
259.7715916972
 11
139.7824047362
 21
260.2258982527
  0
LINE
  5
366
100
AcDbEntity
  8
0
100
AcDbLine
 62
7
  6
CONTINUOUS
 10
141.8774683695
 20
258.2066135549
 11
141.6146516518
 21
258.6609200818
  0
LINE
  5
367
100
AcDbEntity
  8
0
100
AcDbLine
 62
7
  6
CONTINUOUS
 10
141.7700250327
 20
260.6692283112
 11
142.0328417503
 21
260.2149217843
  0
LINE
  5
368
100
AcDbEntity
  8
0
100
AcDbLine
 62
7
  6
CONTINUOUS
 10
141.7071536476
 20
259.4286411495
 11
141.2000709384
 21
259.2932374068
  0
LINE
  5
369
100
AcDbEntity
  8
0
100
AcDbLine
 62
7
  6
CONTINUOUS
 10
139.3049528206
 20
259.6176286627
 11
138.7978700253
 21
259.4822249557
  0
LINE
  5
36A
100
AcDbEntity
  8
0
100
AcDbLine
 62
7
  6
CONTINUOUS
 10
140.3340598589
 20
256.6581002187
 11
140.9373799384
 21
256.7536411676
  0
LINE
  5
36B
100
AcDbEntity
  8
0
100
AcDbLine
 62
7
  6
CONTINUOUS
 10
104.9069736376
 20
256.3735717513
 11
105.277108003
 21
256.2965901996
  0
LINE
  5
36C
100
AcDbEntity
  8
0
100
AcDbLine
 62
7
  6
CONTINUOUS
 10
109.1562374998
 20
258.3639706584
 11
109.5670828637
 21
258.1887040618
  0
LINE
  5
36D
100
AcDbEntity
  8
0
100
AcDbLine
 62
7
  6
CONTINUOUS
 10
106.4654496613
 20
261.0492974655
 11
105.9176556782
 21
261.282986139
  0
LINE
  5
36E
100
AcDbEntity
  8
0
100
AcDbLine
 62
7
  6
CONTINUOUS
 10
110.5074226161
 20
262.7235374821
 11
110.0965772664
 21
262.8988040443
  0
LINE
  5
36F
100
AcDbEntity
  8
0
100
AcDbLine
 62
7
  6
CONTINUOUS
 10
143.3581317597
 20
255.5206367266
 11
143.6061331115
 21
255.3027631004
  0
LINE
  5
370
100
AcDbEntity
  8
0
100
AcDbLine
 62
7
  6
CONTINUOUS
 10
139.1902904668
 20
257.7076055471
 11
138.8867626817
 21
258.0636270577
  0
LINE
  5
371
100
AcDbEntity
  8
0
100
AcDbLine
 62
7
  6
CONTINUOUS
 10
139.3863748177
 20
259.8141987526
 11
139.5381387447
 21
259.6361879831
  0
LINE
  5
372
100
AcDbEntity
  8
0
100
AcDbLine
 62
7
  6
CONTINUOUS
 10
140.9558049468
 20
258.7035271372
 11
141.2593326631
 21
258.3475056552
  0
LINE
  5
373
100
AcDbEntity
  8
0
100
AcDbLine
 62
7
  6
CONTINUOUS
 10
141.6146516518
 20
258.6609200818
 11
141.462887656
 21
258.8389308799
  0
LINE
  5
374
100
AcDbEntity
  8
0
100
AcDbLine
 62
7
  6
CONTINUOUS
 10
142.4288717377
 20
260.6266212558
 11
142.0698173852
 21
261.1207907163
  0
LINE
  5
375
100
AcDbEntity
  8
B-ACHSEN
100
AcDbLine
 62
7
  6
CONTINUOUS
 10
138.51995725
 20
118.5506110525
 11
136.51995725
 21
116.5506110525
  0
LINE
  5
376
100
AcDbEntity
  8
0
100
AcDbLine
 62
7
  6
CONTINUOUS
 10
140.108092839
 20
261.0121788875
 11
140.615175617
 21
261.1475826017
  0
LINE
  5
377
100
AcDbEntity
  8
0
100
AcDbLine
 62
7
  6
CONTINUOUS
 10
110.1704023924
 20
258.0931628848
 11
110.7885381024
 21
258.2340549765
  0
LINE
  5
378
100
AcDbEntity
  8
0
100
AcDbLine
 62
7
  6
CONTINUOUS
 10
106.0618230533
 20
256.8519260417
 11
105.5399249817
 21
256.750896875
  0
LINE
  5
379
100
AcDbEntity
  8
0
100
AcDbLine
 62
7
  6
CONTINUOUS
 10
110.584983081
 20
258.72548027
 11
110.0630855601
 21
258.6244513313
  0
LINE
  5
37A
100
AcDbEntity
  8
0
100
AcDbLine
 62
7
  6
CONTINUOUS
 10
140.7224931816
 20
261.6788706744
 11
140.1191729064
 21
261.5833298368
  0
LINE
  5
37B
100
AcDbEntity
  8
0
100
AcDbLine
 62
7
  6
CONTINUOUS
 10
105.7434799996
 20
256.2594715901
 11
106.1691409905
 21
256.3206380427
  0
LINE
  5
37C
100
AcDbEntity
  8
0
100
AcDbLine
 62
7
  6
CONTINUOUS
 10
140.8115115931
 20
257.2663699544
 11
140.3451398824
 21
257.2292512567
  0
LINE
  5
37D
100
AcDbEntity
  8
0
100
AcDbLine
 62
7
  6
CONTINUOUS
 10
141.462887656
 20
258.8389308799
 11
141.696073649
 21
258.8574901717
  0
LINE
  5
37E
100
AcDbEntity
  8
0
100
AcDbLine
 62
7
  6
CONTINUOUS
 10
139.3345837517
 20
259.1447627584
 11
139.8009555312
 21
259.1818814276
  0
LINE
  5
37F
100
AcDbEntity
  8
0
100
AcDbLine
 62
7
  6
CONTINUOUS
 10
139.5381387447
 20
259.6361879831
 11
139.3049528206
 21
259.6176286627
  0
LINE
  5
380
100
AcDbEntity
  8
0
100
AcDbLine
 62
7
  6
CONTINUOUS
 10
107.1020101152
 20
259.2403034478
 11
106.539401045
 21
259.237559326
  0
LINE
  5
381
100
AcDbEntity
  8
0
100
AcDbLine
 62
7
  6
CONTINUOUS
 10
105.277108003
 20
256.2965901996
 11
105.7434799996
 21
256.2594715901
  0
LINE
  5
382
100
AcDbEntity
  8
0
100
AcDbLine
 62
7
  6
CONTINUOUS
 10
105.5399249817
 20
256.750896875
 11
105.3067392641
 21
256.7694562809
  0
LINE
  5
383
100
AcDbEntity
  8
0
100
AcDbLine
 62
7
  6
CONTINUOUS
 10
105.9176556782
 20
261.282986139
 11
105.4512842429
 21
261.3201049508
  0
LINE
  5
384
100
AcDbEntity
  8
0
100
AcDbLine
 62
7
  6
CONTINUOUS
 10
140.3451398824
 20
257.2292512567
 11
139.9194790328
 21
257.2904176609
  0
LINE
  5
385
100
AcDbEntity
  8
0
100
AcDbLine
 62
7
  6
CONTINUOUS
 10
109.5670828637
 20
258.1887040618
 11
110.1704023924
 21
258.0931628848
  0
LINE
  5
386
100
AcDbEntity
  8
0
100
AcDbLine
 62
7
  6
CONTINUOUS
 10
110.0965772664
 20
262.8988040443
 11
109.493256647
 21
262.9943447393
  0
LINE
  5
387
100
AcDbEntity
  8
0
100
AcDbLine
 62
7
  6
CONTINUOUS
 10
139.8121615085
 20
256.7591294909
 11
140.3340598589
 21
256.6581002187
  0
LINE
  5
388
100
AcDbEntity
  8
0
100
AcDbLine
 62
7
  6
CONTINUOUS
 10
106.4690593217
 20
258.8629785521
 11
106.8391936728
 21
258.7859970349
  0
LINE
  5
389
100
AcDbEntity
  8
0
100
AcDbLine
 62
7
  6
CONTINUOUS
 10
110.0630855601
 20
258.6244513313
 11
109.692951209
 21
258.7014328486
  0
LINE
  5
38A
100
AcDbEntity
  8
0
100
AcDbLine
 62
7
  6
CONTINUOUS
 10
105.558601601
 20
260.7888167926
 11
105.9287359521
 21
260.7118352753
  0
LINE
  5
38B
100
AcDbEntity
  8
0
100
AcDbLine
 62
7
  6
CONTINUOUS
 10
109.6005745558
 20
262.4630568092
 11
109.9707089069
 21
262.3860752919
  0
LINE
  5
38C
100
AcDbEntity
  8
0
100
AcDbLine
 62
7
  6
CONTINUOUS
 10
139.2347368007
 20
256.9983066361
 11
139.8121615085
 21
256.7591294909
  0
LINE
  5
38D
100
AcDbEntity
  8
0
100
AcDbLine
 62
7
  6
CONTINUOUS
 10
139.9194790328
 20
257.2904176609
 11
139.5345293193
 21
257.449869053
  0
LINE
  5
38E
100
AcDbEntity
  8
0
100
AcDbLine
 62
7
  6
CONTINUOUS
 10
143.6061331115
 20
255.3027631004
 11
144.1428468171
 21
254.9653009016
  0
LINE
  5
38F
100
AcDbEntity
  8
0
100
AcDbLine
 62
7
  6
CONTINUOUS
 10
138.7942605234
 20
257.2959059868
 11
139.2347368007
 21
256.9983066361
  0
LINE
  5
390
100
AcDbEntity
  8
0
100
AcDbLine
 62
7
  6
CONTINUOUS
 10
144.3056908257
 20
255.3584411158
 11
143.8652147656
 21
255.6560404068
  0
LINE
  5
391
100
AcDbEntity
  8
0
100
AcDbLine
 62
7
  6
CONTINUOUS
 10
139.5345293193
 20
257.449869053
 11
139.1902904668
 21
257.7076055471
  0
LINE
  5
392
100
AcDbEntity
  8
0
100
AcDbLine
 62
7
  6
CONTINUOUS
 10
140.6115660943
 20
258.9612636313
 11
140.9558049468
 21
258.7035271372
  0
LINE
  5
393
100
AcDbEntity
  8
0
100
AcDbLine
 62
7
  6
CONTINUOUS
 10
140.3894603752
 20
259.5138552032
 11
140.0452215227
 21
259.7715916972
  0
LINE
  5
394
100
AcDbEntity
  8
0
100
AcDbLine
 62
7
  6
CONTINUOUS
 10
141.4257861802
 20
260.9269648053
 11
141.7700250327
 21
260.6692283112
  0
LINE
  5
395
100
AcDbEntity
  8
RUNDUNGEN
100
AcDbLine
 62
7
  6
CONTINUOUS
 10
164.1115975549
 20
255.4362708566
 11
179.0117883263
 21
219.4640282143
  0
LINE
  5
396
100
AcDbEntity
  8
0
100
AcDbLine
 62
7
  6
CONTINUOUS
 10
105.4512842429
 20
261.3201049508
 11
104.7369109017
 21
261.1393499169
  0
LINE
  5
397
100
AcDbEntity
  8
0
100
AcDbLine
 62
7
  6
CONTINUOUS
 10
105.8509236153
 20
258.7220864518
 11
106.4690593217
 21
258.8629785521
  0
LINE
  5
398
100
AcDbEntity
  8
0
100
AcDbLine
 62
7
  6
CONTINUOUS
 10
109.493256647
 20
262.9943447393
 11
108.8751209406
 21
262.853452639
  0
LINE
  5
399
100
AcDbEntity
  8
0
100
AcDbLine
 62
7
  6
CONTINUOUS
 10
105.0367035295
 20
260.6877876259
 11
105.558601601
 21
260.7888167926
  0
LINE
  5
39A
100
AcDbEntity
  8
0
100
AcDbLine
 62
7
  6
CONTINUOUS
 10
109.0786759335
 20
262.3620274144
 11
109.6005745558
 21
262.4630568092
  0
LINE
  5
39B
100
AcDbEntity
  8
0
100
AcDbLine
 62
7
  6
CONTINUOUS
 10
139.8009555312
 20
259.1818814276
 11
140.2266163809
 21
259.1207150234
  0
LINE
  5
39C
100
AcDbEntity
  8
0
100
AcDbLine
 62
7
  6
CONTINUOUS
 10
141.2000709384
 20
259.2932374068
 11
140.7744100887
 21
259.354403811
  0
LINE
  5
39D
100
AcDbEntity
  8
0
100
AcDbLine
 62
7
  6
CONTINUOUS
 10
140.615175617
 20
261.1475826017
 11
141.0408364667
 21
261.0864161974
  0
LINE
  5
39E
100
AcDbEntity
  8
0
100
AcDbLine
 62
7
  6
CONTINUOUS
 10
141.2443914597
 20
261.5778414221
 11
140.7224931816
 21
261.6788706744
  0
LINE
  5
39F
100
AcDbEntity
  8
0
100
AcDbLine
 62
7
  6
CONTINUOUS
 10
140.2266163809
 20
259.1207150234
 11
140.6115660943
 21
258.9612636313
  0
LINE
  5
3A0
100
AcDbEntity
  8
0
100
AcDbLine
 62
7
  6
CONTINUOUS
 10
140.7744100887
 20
259.354403811
 11
140.3894603752
 21
259.5138552032
  0
LINE
  5
3A1
100
AcDbEntity
  8
0
100
AcDbLine
 62
7
  6
CONTINUOUS
 10
143.1655310548
 20
258.5942652629
 11
143.935430757
 21
258.2753623646
  0
LINE
  5
3A2
100
AcDbEntity
  8
0
100
AcDbLine
 62
7
  6
CONTINUOUS
 10
144.41661783
 20
258.076048153
 11
145.4752296107
 21
257.6375567961
  0
LINE
  5
3A3
100
AcDbEntity
  8
0
100
AcDbLine
 62
7
  6
CONTINUOUS
 10
145.6380736051
 20
258.0306969758
 11
144.5794618243
 21
258.4691883327
  0
LINE
  5
3A4
100
AcDbEntity
  8
0
100
AcDbLine
 62
7
  6
CONTINUOUS
 10
144.0982747514
 20
258.6685025444
 11
143.3283750492
 21
258.9874054427
  0
LINE
  5
3A5
100
AcDbEntity
  8
0
100
AcDbLine
 62
7
  6
CONTINUOUS
 10
144.9051499271
 20
259.2554689675
 11
144.4239628541
 21
259.4547831792
  0
LINE
  5
3A6
100
AcDbEntity
  8
0
100
AcDbLine
 62
7
  6
CONTINUOUS
 10
141.0408364667
 20
261.0864161974
 11
141.4257861802
 21
260.9269648053
  0
LINE
  5
3A7
100
AcDbEntity
  8
0
100
AcDbLine
 62
7
  6
CONTINUOUS
 10
141.6293411731
 20
261.41839003
 11
141.2443914597
 21
261.5778414221
  0
LINE
  5
3A8
100
AcDbEntity
  8
0
100
AcDbLine
 62
7
  6
CONTINUOUS
 10
142.0698173852
 20
261.1207907163
 11
141.6293411731
 21
261.41839003
  0
LINE
  5
3A9
100
AcDbEntity
  8
RUNDUNGEN
100
AcDbLine
 62
7
  6
CONTINUOUS
 10
125.4333744119
 20
273.0424421288
 11
161.4056170542
 21
258.1422513574
  0
LINE
  5
3AA
100
AcDbEntity
  8
B-ACHSEN
100
AcDbLine
 62
7
  6
CONTINUOUS
 10
282.1834346774
 20
116.5506110525
 11
308.1834346774
 21
116.5506110525
  0
LINE
  5
3AB
100
AcDbEntity
  8
B-ACHSEN
100
AcDbLine
 62
7
  6
CONTINUOUS
 10
280.1834346774
 20
118.5506110525
 11
310.1834346774
 21
118.5506110525
  0
LINE
  5
3AC
100
AcDbEntity
  8
B-ACHSEN
100
AcDbLine
 62
7
  6
CONTINUOUS
 10
280.1834346774
 20
118.5506110525
 11
282.1834346774
 21
116.5506110525
  0
LINE
  5
3AD
100
AcDbEntity
  8
B-ACHSEN
100
AcDbLine
 62
7
  6
CONTINUOUS
 10
280.1834346774
 20
152.5506110525
 11
310.1834346774
 21
152.5506110525
  0
LINE
  5
3AE
100
AcDbEntity
  8
B-ACHSEN
100
AcDbLine
 62
7
  6
CONTINUOUS
 10
282.6834346774
 20
155.0506110525
 11
307.6834346774
 21
155.0506110525
  0
LINE
  5
3AF
100
AcDbEntity
  8
B-ACHSEN
100
AcDbLine
 62
7
  6
CONTINUOUS
 10
265.1839590357
 20
161.5506110525
 11
325.1829103191
 21
161.5506110525
  0
LINE
  5
3B0
100
AcDbEntity
  8
B-ACHSEN
100
AcDbLine
 62
7
  6
CONTINUOUS
 10
265.1834346774
 20
161.5506110525
 11
265.1834346774
 21
175.6244810089
  0
LINE
  5
3B1
100
AcDbEntity
  8
0
100
AcDbLine
 62
7
  6
CONTINUOUS
 10
314.3949305532
 20
166.0506110525
 11
315.6514562679
 21
166.0506110525
  0
LINE
  5
3B2
100
AcDbEntity
  8
0
100
AcDbLine
 62
7
  6
CONTINUOUS
 10
318.0453976491
 20
166.0506110525
 11
319.0961910172
 21
166.0506110525
  0
LINE
  5
3B3
100
AcDbEntity
  8
0
100
AcDbLine
 62
7
  6
CONTINUOUS
 10
320.6804261491
 20
166.0506110525
 11
321.3124080266
 21
166.0506110525
  0
LINE
  5
3B4
100
AcDbEntity
  8
0
100
AcDbLine
 62
7
  6
CONTINUOUS
 10
322.4360783008
 20
166.0506110525
 11
323.8747211708
 21
166.0506110525
  0
LINE
  5
3B5
100
AcDbEntity
  8
0
100
AcDbLine
 62
7
  6
CONTINUOUS
 10
325.1534184811
 20
166.0506110525
 11
325.4537159644
 21
166.0506110525
  0
LINE
  5
3B6
100
AcDbEntity
  8
0
100
AcDbLine
 62
7
  6
CONTINUOUS
 10
320.3093823653
 20
166.199547218
 11
320.666826273
 21
166.199547218
  0
LINE
  5
3B7
100
AcDbEntity
  8
0
100
AcDbLine
 62
7
  6
CONTINUOUS
 10
319.9986834686
 20
166.497419562
 11
320.3605388113
 21
166.497419562
  0
LINE
  5
3B8
100
AcDbEntity
  8
0
100
AcDbLine
 62
7
  6
CONTINUOUS
 10
323.8747211708
 20
166.9442280715
 11
323.0736644812
 21
166.9442280715
  0
LINE
  5
3B9
100
AcDbEntity
  8
0
100
AcDbLine
 62
7
  6
CONTINUOUS
 10
321.3124080266
 20
166.9442280715
 11
321.0327397765
 21
166.9442280715
  0
LINE
  5
3BA
100
AcDbEntity
  8
0
100
AcDbLine
 62
7
  6
CONTINUOUS
 10
319.6751550148
 20
167.093164224
 11
320.04172032
 21
167.093164224
  0
LINE
  5
3BB
100
AcDbEntity
  8
0
100
AcDbLine
 62
7
  6
CONTINUOUS
 10
321.2359655811
 20
167.093164224
 11
321.5808657359
 21
167.093164224
  0
LINE
  5
3BC
100
AcDbEntity
  8
0
100
AcDbLine
 62
7
  6
CONTINUOUS
 10
323.7136705213
 20
167.093164224
 11
324.0289604537
 21
167.093164224
  0
LINE
  5
3BD
100
AcDbEntity
  8
0
100
AcDbLine
 62
7
  6
CONTINUOUS
 10
321.4327083186
 20
167.3910366332
 11
321.7750567921
 21
167.3910366332
  0
LINE
  5
3BE
100
AcDbEntity
  8
0
100
AcDbLine
 62
7
  6
CONTINUOUS
 10
323.8250889239
 20
167.3910366332
 11
324.1391656814
 21
167.3910366332
  0
LINE
  5
3BF
100
AcDbEntity
  8
0
100
AcDbLine
 62
7
  6
CONTINUOUS
 10
319.5084201163
 20
167.6889089381
 11
319.8774606068
 21
167.6889089381
  0
LINE
  5
3C0
100
AcDbEntity
  8
0
100
AcDbLine
 62
7
  6
CONTINUOUS
 10
321.5604748706
 20
167.8378450906
 11
321.9011862548
 21
167.8378450906
  0
LINE
  5
3C1
100
AcDbEntity
  8
0
100
AcDbLine
 62
7
  6
CONTINUOUS
 10
323.8967577473
 20
167.8378450906
 11
324.210059037
 21
167.8378450906
  0
LINE
  5
3C2
100
AcDbEntity
  8
0
100
AcDbLine
 62
7
  6
CONTINUOUS
 10
319.4237802419
 20
168.4335897004
 11
319.7940899529
 21
168.4335897004
  0
LINE
  5
3C3
100
AcDbEntity
  8
0
100
AcDbLine
 62
7
  6
CONTINUOUS
 10
321.623354626
 20
168.4335897004
 11
321.9632660228
 21
168.4335897004
  0
LINE
  5
3C4
100
AcDbEntity
  8
0
100
AcDbLine
 62
7
  6
CONTINUOUS
 10
323.9318147821
 20
168.4335897004
 11
324.2447381348
 21
168.4335897004
  0
LINE
  5
3C5
100
AcDbEntity
  8
0
100
AcDbLine
 62
7
  6
CONTINUOUS
 10
315.6514562679
 20
169.1782706713
 11
317.6250977378
 21
169.1782706713
  0
LINE
  5
3C6
100
AcDbEntity
  8
0
100
AcDbLine
 62
7
  6
CONTINUOUS
 10
317.8345792412
 20
170.0718875861
 11
315.6514562679
 21
170.0718875861
  0
LINE
  5
3C7
100
AcDbEntity
  8
0
100
AcDbLine
 62
7
  6
CONTINUOUS
 10
317.7433404947
 20
170.2208237386
 11
318.1407722949
 21
170.2208237386
  0
LINE
  5
3C8
100
AcDbEntity
  8
0
100
AcDbLine
 62
7
  6
CONTINUOUS
 10
317.9457553853
 20
170.5186960435
 11
318.3397133942
 21
170.5186960435
  0
LINE
  5
3C9
100
AcDbEntity
  8
0
100
AcDbLine
 62
7
  6
CONTINUOUS
 10
323.9318147821
 20
170.6676321959
 11
324.2447381348
 21
170.6676321959
  0
LINE
  5
3CA
100
AcDbEntity
  8
0
100
AcDbLine
 62
7
  6
CONTINUOUS
 10
318.0453976491
 20
170.9655045008
 11
318.4376676452
 21
170.9655045008
  0
LINE
  5
3CB
100
AcDbEntity
  8
0
100
AcDbLine
 62
7
  6
CONTINUOUS
 10
323.8967577473
 20
171.2633768058
 11
324.210059037
 21
171.2633768058
  0
LINE
  5
3CC
100
AcDbEntity
  8
0
100
AcDbLine
 62
7
  6
CONTINUOUS
 10
318.0453976491
 20
171.4123133755
 11
318.4376676452
 21
171.4123133755
  0
LINE
  5
3CD
100
AcDbEntity
  8
0
100
AcDbLine
 62
7
  6
CONTINUOUS
 10
323.8250889239
 20
171.7101856804
 11
324.1391656814
 21
171.7101856804
  0
LINE
  5
3CE
100
AcDbEntity
  8
0
100
AcDbLine
 62
7
  6
CONTINUOUS
 10
317.9457553853
 20
171.8591218328
 11
318.3397133942
 21
171.8591218328
  0
LINE
  5
3CF
100
AcDbEntity
  8
0
100
AcDbLine
 62
7
  6
CONTINUOUS
 10
323.7136705213
 20
172.0080579853
 11
324.0289604537
 21
172.0080579853
  0
LINE
  5
3D0
100
AcDbEntity
  8
0
100
AcDbLine
 62
7
  6
CONTINUOUS
 10
317.7433404947
 20
172.1569941377
 11
318.1407722949
 21
172.1569941377
  0
LINE
  5
3D1
100
AcDbEntity
  8
0
100
AcDbLine
 62
7
  6
CONTINUOUS
 10
323.0736644812
 20
172.1569941377
 11
323.8747211708
 21
172.1569941377
  0
LINE
  5
3D2
100
AcDbEntity
  8
0
100
AcDbLine
 62
7
  6
CONTINUOUS
 10
315.6514562679
 20
172.3059302902
 11
317.8345792412
 21
172.3059302902
  0
LINE
  5
3D3
100
AcDbEntity
  8
0
100
AcDbLine
 62
7
  6
CONTINUOUS
 10
314.3949305532
 20
173.0506110525
 11
317.7303836942
 21
173.0506110525
  0
LINE
  5
3D4
100
AcDbEntity
  8
0
100
AcDbLine
 62
7
  6
CONTINUOUS
 10
319.4237802419
 20
173.0506110525
 11
320.282027572
 21
173.0506110525
  0
LINE
  5
3D5
100
AcDbEntity
  8
0
100
AcDbLine
 62
7
  6
CONTINUOUS
 10
321.623354626
 20
173.0506110525
 11
322.3222328691
 21
173.0506110525
  0
LINE
  5
3D6
100
AcDbEntity
  8
0
100
AcDbLine
 62
7
  6
CONTINUOUS
 10
322.4360783008
 20
173.0506110525
 11
323.8747211708
 21
173.0506110525
  0
LINE
  5
3D7
100
AcDbEntity
  8
0
100
AcDbLine
 62
7
  6
CONTINUOUS
 10
325.1534184811
 20
173.0506110525
 11
325.4537159644
 21
173.0506110525
  0
LINE
  5
3D8
100
AcDbEntity
  8
RUNDUNGEN
100
AcDbLine
 62
7
  6
CONTINUOUS
 10
307.4878957335
 20
177.7515340865
 11
282.8789736214
 21
177.7515340865
  0
LINE
  5
3D9
100
AcDbEntity
  8
B-ACHSEN
100
AcDbLine
 62
7
  6
CONTINUOUS
 10
307.6834346774
 20
155.0506110525
 11
310.1834346774
 21
152.5506110525
  0
LINE
  5
3DA
100
AcDbEntity
  8
B-ACHSEN
100
AcDbLine
 62
7
  6
CONTINUOUS
 10
280.1834346774
 20
152.5506110525
 11
280.1834346774
 21
118.5506110525
  0
LINE
  5
3DB
100
AcDbEntity
  8
B-ACHSEN
100
AcDbLine
 62
7
  6
CONTINUOUS
 10
282.6834346774
 20
161.5506110525
 11
282.6834346774
 21
155.0506110525
  0
LINE
  5
3DC
100
AcDbEntity
  8
RUNDUNGEN
100
AcDbLine
 62
7
  6
CONTINUOUS
 10
283.1834346774
 20
270.9230444476
 11
283.1834346774
 21
218.3033296677
  0
LINE
  5
3DD
100
AcDbEntity
  8
RUNDUNGEN
100
AcDbLine
 62
7
  6
CONTINUOUS
 10
283.1268562873
 20
216.8000218176
 11
280.1243771404
 21
176.9680555998
  0
LWPOLYLINE
  5
3DE
100
AcDbEntity
  8
RUNDUNGEN
100
AcDbPolyline
 62
7
  6
CONTINUOUS
 90
3
 70
0
 10
280.7316152167
 20
185.0957732404
 10
280.7021339837
 20
184.9401727034
 10
280.6718228286
 20
184.8255849922
  0
LWPOLYLINE
  5
3DF
100
AcDbEntity
  8
RUNDUNGEN
100
AcDbPolyline
 62
7
  6
CONTINUOUS
 90
4
 70
0
 10
280.6718596335
 20
184.8257241289
 10
280.6471177789
 20
184.7494117039
 10
280.6322053387
 20
184.7086302256
 10
280.6302691088
 20
184.7036618713
  0
LINE
  5
3E0
100
AcDbEntity
  8
RUNDUNGEN
100
AcDbLine
 62
7
  6
CONTINUOUS
 10
280.6324966347
 20
184.7094656045
 11
280.6302691088
 21
184.7036618713
  0
LINE
  5
3E1
100
AcDbEntity
  8
RUNDUNGEN
100
AcDbLine
 62
7
  6
CONTINUOUS
 10
280.6302691088
 20
184.7036618713
 11
280.4696883496
 21
184.3573580797
  0
LWPOLYLINE
  5
3E2
100
AcDbEntity
  8
RUNDUNGEN
100
AcDbPolyline
 62
7
  6
CONTINUOUS
 90
8
 70
0
 10
280.4696883496
 20
184.3573580797
 10
280.2662529254
 20
184.033999376
 10
280.0231367527
 20
183.7388636853
 10
279.7442764089
 20
183.4769023172
 10
279.4342122465
 20
183.252481016
 10
279.0980262122
 20
183.0693326284
 10
278.7412515877
 20
182.9304888854
 10
278.3697731149
 20
182.8382250582
  0
LINE
  5
3E3
100
AcDbEntity
  8
RUNDUNGEN
100
AcDbLine
 62
7
  6
CONTINUOUS
 10
278.3697731149
 20
182.8382250582
 11
278.3031501984
 21
182.8269024044
  0
LINE
  5
3E4
100
AcDbEntity
  8
B-ACHSEN
100
AcDbLine
 62
7
  6
CONTINUOUS
 10
270.2448278872
 20
181.5506110525
 11
278.2812619665
 21
182.8234571663
  0
LINE
  5
3E5
100
AcDbEntity
  8
B-ACHSEN
100
AcDbLine
 62
7
  6
CONTINUOUS
 10
320.1220414677
 20
181.5506110525
 11
312.0840178222
 21
182.8237089289
  0
LINE
  5
3E6
100
AcDbEntity
  8
RUNDUNGEN
100
AcDbLine
 62
7
  6
CONTINUOUS
 10
312.0637165229
 20
182.8269062755
 11
311.9970858441
 21
182.8382303389
  0
LWPOLYLINE
  5
3E7
100
AcDbEntity
  8
RUNDUNGEN
100
AcDbPolyline
 62
7
  6
CONTINUOUS
 90
8
 70
0
 10
311.9970858441
 20
182.8382303389
 10
311.6255484003
 20
182.9305139628
 10
311.2687061579
 20
183.0693990358
 10
310.932463421
 20
183.2526056255
 10
310.622369228
 20
183.4770892339
 10
310.3435150886
 20
183.7390976494
 10
310.1004428722
 20
184.034241171
 10
309.8970851777
 20
184.357535213
  0
LINE
  5
3E8
100
AcDbEntity
  8
B-ACHSEN
100
AcDbLine
 62
2
  6
CENTER
 10
295.1834346774
 20
113.5506110525
 11
295.1834346774
 21
278.904639627
  0
LINE
  5
3E9
100
AcDbEntity
  8
RUNDUNGEN
100
AcDbLine
 62
7
  6
CONTINUOUS
 10
307.1834346774
 20
218.3033296677
 11
307.1834346774
 21
270.9230444476
  0
LINE
  5
3EA
100
AcDbEntity
  8
RUNDUNGEN
100
AcDbLine
 62
7
  6
CONTINUOUS
 10
309.8970851777
 20
184.357535213
 11
309.7365861349
 21
184.7036981769
  0
LINE
  5
3EB
100
AcDbEntity
  8
RUNDUNGEN
100
AcDbLine
 62
7
  6
CONTINUOUS
 10
309.7365861349
 20
184.7036981769
 11
309.7344028625
 21
184.7093173866
  0
LWPOLYLINE
  5
3EC
100
AcDbEntity
  8
RUNDUNGEN
100
AcDbPolyline
 62
7
  6
CONTINUOUS
 90
6
 70
0
 10
309.7344274334
 20
184.7093200269
 10
309.7194656923
 20
184.7502136806
 10
309.6949454653
 20
184.8259295957
 10
309.6648824783
 20
184.9395087669
 10
309.6355745437
 20
185.0936129069
 10
309.6265825864
 20
185.1735286955
  0
LINE
  5
3ED
100
AcDbEntity
  8
RUNDUNGEN
100
AcDbLine
 62
7
  6
CONTINUOUS
 10
310.2424922505
 20
176.9680551215
 11
307.2400130676
 21
216.8000218176
  0
LINE
  5
3EE
100
AcDbEntity
  8
0
100
AcDbLine
 62
7
  6
CONTINUOUS
 10
307.4834346774
 20
262.9943447393
 11
307.4834346774
 21
253.530237939
  0
LINE
  5
3EF
100
AcDbEntity
  8
B-ACHSEN
100
AcDbLine
 62
7
  6
CONTINUOUS
 10
307.6834346774
 20
161.5506110525
 11
307.6834346774
 21
155.0506110525
  0
LINE
  5
3F0
100
AcDbEntity
  8
B-ACHSEN
100
AcDbLine
 62
7
  6
CONTINUOUS
 10
310.1834346774
 20
152.5506110525
 11
310.1834346774
 21
118.5506110525
  0
LINE
  5
3F1
100
AcDbEntity
  8
0
100
AcDbLine
 62
7
  6
CONTINUOUS
 10
314.3949305532
 20
166.0506110525
 11
314.3949305532
 21
173.0506110525
  0
LINE
  5
3F2
100
AcDbEntity
  8
0
100
AcDbLine
 62
7
  6
CONTINUOUS
 10
314.8601105599
 20
173.0506110525
 11
314.8601105599
 21
166.0506110525
  0
LINE
  5
3F3
100
AcDbEntity
  8
0
100
AcDbLine
 62
7
  6
CONTINUOUS
 10
315.6514562679
 20
166.0506110525
 11
315.6514562679
 21
169.1782706713
  0
LINE
  5
3F4
100
AcDbEntity
  8
0
100
AcDbLine
 62
7
  6
CONTINUOUS
 10
315.6514562679
 20
170.0718875861
 11
315.6514562679
 21
172.3059302902
  0
LINE
  5
3F5
100
AcDbEntity
  8
0
100
AcDbLine
 62
7
  6
CONTINUOUS
 10
318.0453976491
 20
170.9655045008
 11
318.0453976491
 21
171.4123133755
  0
LINE
  5
3F6
100
AcDbEntity
  8
0
100
AcDbLine
 62
7
  6
CONTINUOUS
 10
318.4376676452
 20
171.4123133755
 11
318.4376676452
 21
170.9655045008
  0
LINE
  5
3F7
100
AcDbEntity
  8
B-ACHSEN
100
AcDbLine
 62
7
  6
CONTINUOUS
 10
282.6834346774
 20
155.0506110525
 11
280.1834346774
 21
152.5506110525
  0
LINE
  5
3F8
100
AcDbEntity
  8
0
100
AcDbLine
 62
7
  6
CONTINUOUS
 10
319.0049449525
 20
170.8165683484
 11
319.0049449525
 21
171.4123133755
  0
LINE
  5
3F9
100
AcDbEntity
  8
0
100
AcDbLine
 62
7
  6
CONTINUOUS
 10
319.4237802419
 20
168.4335897004
 11
319.4237802419
 21
173.0506110525
  0
LINE
  5
3FA
100
AcDbEntity
  8
0
100
AcDbLine
 62
7
  6
CONTINUOUS
 10
319.7940899529
 20
173.0506110525
 11
319.7940899529
 21
168.4335897004
  0
LINE
  5
3FB
100
AcDbEntity
  8
0
100
AcDbLine
 62
7
  6
CONTINUOUS
 10
320.282027572
 20
168.4335897004
 11
320.282027572
 21
173.0506110525
  0
LINE
  5
3FC
100
AcDbEntity
  8
0
100
AcDbLine
 62
7
  6
CONTINUOUS
 10
321.623354626
 20
168.4335897004
 11
321.623354626
 21
173.0506110525
  0
LINE
  5
3FD
100
AcDbEntity
  8
0
100
AcDbLine
 62
7
  6
CONTINUOUS
 10
321.9632660228
 20
173.0506110525
 11
321.9632660228
 21
168.4335897004
  0
LINE
  5
3FE
100
AcDbEntity
  8
0
100
AcDbLine
 62
7
  6
CONTINUOUS
 10
322.3222328691
 20
168.4335897004
 11
322.3222328691
 21
173.0506110525
  0
LINE
  5
3FF
100
AcDbEntity
  8
0
100
AcDbLine
 62
7
  6
CONTINUOUS
 10
322.4360783008
 20
166.0506110525
 11
322.4360783008
 21
173.0506110525
  0
LINE
  5
400
100
AcDbEntity
  8
0
100
AcDbLine
 62
7
  6
CONTINUOUS
 10
322.7659759756
 20
173.0506110525
 11
322.7659759756
 21
166.0506110525
  0
LINE
  5
401
100
AcDbEntity
  8
0
100
AcDbLine
 62
7
  6
CONTINUOUS
 10
323.0736644812
 20
166.9442280715
 11
323.0736644812
 21
172.1569941377
  0
LINE
  5
402
100
AcDbEntity
  8
0
100
AcDbLine
 62
7
  6
CONTINUOUS
 10
323.9318147821
 20
168.4335897004
 11
323.9318147821
 21
170.6676321959
  0
LINE
  5
403
100
AcDbEntity
  8
0
100
AcDbLine
 62
7
  6
CONTINUOUS
 10
324.2447381348
 20
170.6676321959
 11
324.2447381348
 21
168.4335897004
  0
LINE
  5
404
100
AcDbEntity
  8
0
100
AcDbLine
 62
7
  6
CONTINUOUS
 10
324.4421831124
 20
168.4335897004
 11
324.4421831124
 21
170.6676321959
  0
LINE
  5
405
100
AcDbEntity
  8
0
100
AcDbLine
 62
7
  6
CONTINUOUS
 10
325.1534184811
 20
173.0506110525
 11
325.1534184811
 21
166.0506110525
  0
LINE
  5
406
100
AcDbEntity
  8
B-ACHSEN
100
AcDbLine
 62
7
  6
CONTINUOUS
 10
325.1834346774
 20
161.5506110525
 11
325.1834346774
 21
166.0506110525
  0
LINE
  5
407
100
AcDbEntity
  8
B-ACHSEN
100
AcDbLine
 62
7
  6
CONTINUOUS
 10
325.1834346774
 20
173.0506110525
 11
325.1834346774
 21
175.6244810089
  0
LINE
  5
408
100
AcDbEntity
  8
0
100
AcDbLine
 62
7
  6
CONTINUOUS
 10
325.4537159644
 20
173.0506110525
 11
325.4537159644
 21
166.0506110525
  0
LINE
  5
409
100
AcDbEntity
  8
0
100
AcDbLine
 62
7
  6
CONTINUOUS
 10
325.4766395795
 20
166.0506110525
 11
325.4766395795
 21
173.0506110525
  0
LINE
  5
40A
100
AcDbEntity
  8
0
100
AcDbLine
 62
7
  6
CONTINUOUS
 10
325.4820308722
 20
173.0506110525
 11
325.4820308722
 21
166.0506110525
  0
LINE
  5
40B
100
AcDbEntity
  8
0
100
AcDbLine
 62
7
  6
CONTINUOUS
 10
307.1834346774
 20
253.530237939
 11
307.4834346774
 21
253.530237939
  0
LINE
  5
40C
100
AcDbEntity
  8
B-ACHSEN
100
AcDbLine
 62
7
  6
CONTINUOUS
 10
310.1834346774
 20
118.5506110525
 11
308.1834346774
 21
116.5506110525
  0
LINE
  5
40D
100
AcDbEntity
  8
0
100
AcDbLine
 62
7
  6
CONTINUOUS
 10
307.1834346774
 20
258.1496356016
 11
307.4834346774
 21
258.1496356016
  0
LINE
  5
40E
100
AcDbEntity
  8
0
100
AcDbLine
 62
7
  6
CONTINUOUS
 10
307.1834346774
 20
258.5084013194
 11
307.4834346774
 21
258.5084013194
  0
LINE
  5
40F
100
AcDbEntity
  8
0
100
AcDbLine
 62
7
  6
CONTINUOUS
 10
307.1834346774
 20
259.7042870456
 11
307.4834346774
 21
259.7042870456
  0
LINE
  5
410
100
AcDbEntity
  8
0
100
AcDbLine
 62
7
  6
CONTINUOUS
 10
307.1834346774
 20
260.0630527634
 11
307.4834346774
 21
260.0630527634
  0
LINE
  5
411
100
AcDbEntity
  8
0
100
AcDbLine
 62
7
  6
CONTINUOUS
 10
307.1834346774
 20
260.3262775581
 11
307.4834346774
 21
260.3262775581
  0
LINE
  5
412
100
AcDbEntity
  8
0
100
AcDbLine
 62
7
  6
CONTINUOUS
 10
307.1834346774
 20
260.6822991542
 11
307.4834346774
 21
260.6822991542
  0
LINE
  5
413
100
AcDbEntity
  8
0
100
AcDbLine
 62
7
  6
CONTINUOUS
 10
307.1834346774
 20
261.0596242779
 11
307.4834346774
 21
261.0596242779
  0
LINE
  5
414
100
AcDbEntity
  8
0
100
AcDbLine
 62
7
  6
CONTINUOUS
 10
307.1834346774
 20
261.1393499169
 11
307.4834346774
 21
261.1393499169
  0
LINE
  5
415
100
AcDbEntity
  8
0
100
AcDbLine
 62
7
  6
CONTINUOUS
 10
307.1834346774
 20
261.3201049508
 11
307.4834346774
 21
261.3201049508
  0
LINE
  5
416
100
AcDbEntity
  8
0
100
AcDbLine
 62
7
  6
CONTINUOUS
 10
307.1834346774
 20
261.6073776231
 11
307.4834346774
 21
261.6073776231
  0
LINE
  5
417
100
AcDbEntity
  8
0
100
AcDbLine
 62
7
  6
CONTINUOUS
 10
307.1834346774
 20
262.0218213305
 11
307.4834346774
 21
262.0218213305
  0
LINE
  5
418
100
AcDbEntity
  8
0
100
AcDbLine
 62
7
  6
CONTINUOUS
 10
307.1834346774
 20
262.5159904489
 11
307.4834346774
 21
262.5159904489
  0
LINE
  5
419
100
AcDbEntity
  8
0
100
AcDbLine
 62
7
  6
CONTINUOUS
 10
307.1834346774
 20
262.853452639
 11
307.4834346774
 21
262.853452639
  0
LINE
  5
41A
100
AcDbEntity
  8
0
100
AcDbLine
 62
7
  6
CONTINUOUS
 10
307.1834346774
 20
262.9943447393
 11
307.4834346774
 21
262.9943447393
  0
LINE
  5
41B
100
AcDbEntity
  8
RUNDUNGEN
100
AcDbLine
 62
7
  6
CONTINUOUS
 10
304.6834346774
 20
273.4230444662
 11
285.6834346774
 21
273.4230444662
  0
LWPOLYLINE
  5
41C
100
AcDbEntity
  8
RUNDUNGEN
100
AcDbPolyline
 62
7
  6
CONTINUOUS
 90
19
 70
0
 10
67.647524603
 20
45.2816152905
 10
67.658356256
 20
45.0490160252
 10
67.6999214042
 20
44.7721636184
 10
67.7700572633
 20
44.5080679589
 10
67.865571513
 20
44.2598381009
 10
67.9829090538
 20
44.0299807015
 10
68.1183110637
 20
43.8202900379
 10
68.2678472575
 20
43.6319876779
 10
68.4274747769
 20
43.4657232503
 10
68.5937911104
 20
43.3210271651
 10
68.7635238143
 20
43.1971472818
 10
68.9341089042
 20
43.0927109482
 10
69.1057533698
 20
43.0050330174
 10
69.2707640416
 20
42.9352022061
 10
69.4255098536
 20
42.8811509378
 10
69.5648859562
 20
42.8407857718
 10
69.6776342942
 20
42.8130241348
 10
69.7791518934
 20
42.7910520045
 10
69.8757751383
 20
42.7722438777
  0
LINE
  5
41D
100
AcDbEntity
  8
RUNDUNGEN
100
AcDbLine
 62
7
  6
CONTINUOUS
 10
67.6475238363
 20
45.280886943
 11
67.6475238363
 21
64.3075419933
  0
LINE
  5
41E
100
AcDbEntity
  8
RUNDUNGEN
100
AcDbLine
 62
7
  6
CONTINUOUS
 10
98.3874177833
 20
71.1757524115
 11
98.3977733432
 21
71.1915080869
  0
LINE
  5
41F
100
AcDbEntity
  8
RUNDUNGEN
100
AcDbLine
 62
7
  6
CONTINUOUS
 10
98.3874177833
 20
71.1757524115
 11
98.3438905694
 21
71.1118362896
  0
LINE
  5
420
100
AcDbEntity
  8
RUNDUNGEN
100
AcDbLine
 62
7
  6
CONTINUOUS
 10
98.3438905694
 20
71.1118362896
 11
98.0841239874
 21
70.791675158
  0
LWPOLYLINE
  5
421
100
AcDbEntity
  8
RUNDUNGEN
100
AcDbPolyline
 62
7
  6
CONTINUOUS
 90
6
 70
0
 10
98.0841239874
 20
70.791675158
 10
97.7815310442
 20
70.510931905
 10
97.4429405967
 20
70.275963067
 10
97.0758038959
 20
70.0915623299
 10
96.6892007846
 20
69.9614737553
 10
96.2932324536
 20
69.8875788487
  0
LINE
  5
422
100
AcDbEntity
  8
RUNDUNGEN
100
AcDbLine
 62
7
  6
CONTINUOUS
 10
98.3298551243
 20
38.4964535432
 11
98.3873793931
 21
38.4127364331
  0
LINE
  5
423
100
AcDbEntity
  8
RUNDUNGEN
100
AcDbLine
 62
7
  6
CONTINUOUS
 10
98.3873020418
 20
38.4126852679
 11
98.3976959791
 21
38.3968702992
  0
LINE
  5
424
100
AcDbEntity
  8
0
100
AcDbLine
 62
7
  6
CONTINUOUS
 10
97.5191020539
 20
42.7942144672
 11
97.5191020539
 21
42.4942144672
  0
LINE
  5
425
100
AcDbEntity
  8
0
100
AcDbLine
 62
7
  6
CONTINUOUS
 10
98.3852391157
 20
42.7942144672
 11
98.3852391157
 21
42.4942144672
  0
LINE
  5
426
100
AcDbEntity
  8
0
100
AcDbLine
 62
7
  6
CONTINUOUS
 10
100.4782900747
 20
35.5827185915
 11
100.4782900747
 21
35.1175385848
  0
LINE
  5
427
100
AcDbEntity
  8
0
100
AcDbLine
 62
7
  6
CONTINUOUS
 10
101.2723626548
 20
42.7942144672
 11
101.2723626548
 21
42.4942144672
  0
LINE
  5
428
100
AcDbEntity
  8
0
100
AcDbLine
 62
7
  6
CONTINUOUS
 10
102.1384997165
 20
42.7942144672
 11
102.1384997165
 21
42.4942144672
  0
LWPOLYLINE
  5
429
100
AcDbEntity
  8
RUNDUNGEN
100
AcDbPolyline
 62
7
  6
CONTINUOUS
 90
19
 70
0
 10
177.163931039
 20
42.7722052637
 10
177.2706076169
 20
42.793075141
 10
177.3734702033
 20
42.8156089502
 10
177.4879309836
 20
42.8442239585
 10
177.6295160936
 20
42.8859794021
 10
177.7859007924
 20
42.9416923977
 10
177.9504627797
 20
43.0126721
 10
178.1205481171
 20
43.1010211382
 10
178.2890154366
 20
43.2056344485
 10
178.4561122234
 20
43.3290180703
 10
178.6194091062
 20
43.4723712632
 10
178.7761794564
 20
43.6366971446
 10
178.9234350398
 20
43.8228424717
 10
179.0572048922
 20
44.0303269519
 10
179.1736356767
 20
44.2582582687
 10
179.2688714058
 20
44.5050411048
 10
179.3392074652
 20
44.7683990155
 10
179.3812204591
 20
45.0454228801
 10
179.3923902447
 20
45.2816174841
  0
LINE
  5
42A
100
AcDbEntity
  8
RUNDUNGEN
100
AcDbLine
 62
7
  6
CONTINUOUS
 10
177.166766857
 20
42.7727294442
 11
162.0961867625
 21
40.0301487664
  0
LINE
  5
42B
100
AcDbEntity
  8
RUNDUNGEN
100
AcDbLine
 62
7
  6
CONTINUOUS
 10
69.8729564139
 20
42.7727650191
 11
84.9437277376
 21
40.0301487664
  0
LINE
  5
42C
100
AcDbEntity
  8
0
100
AcDbLine
 62
7
  6
CONTINUOUS
 10
103.2782900747
 20
32.6520621336
 11
103.2782900747
 21
32.2472654504
  0
LINE
  5
42D
100
AcDbEntity
  8
0
100
AcDbLine
 62
7
  6
CONTINUOUS
 10
103.3858514032
 20
42.7942144672
 11
103.3858514032
 21
42.4942144672
  0
LINE
  5
42E
100
AcDbEntity
  8
0
100
AcDbLine
 62
7
  6
CONTINUOUS
 10
103.6079568469
 20
42.7942144672
 11
103.6079568469
 21
42.4942144672
  0
LINE
  5
42F
100
AcDbEntity
  8
0
100
AcDbLine
 62
7
  6
CONTINUOUS
 10
103.8616235193
 20
32.1325747443
 11
103.8616235193
 21
31.736896433
  0
LINE
  5
430
100
AcDbEntity
  8
0
100
AcDbLine
 62
7
  6
CONTINUOUS
 10
103.9114848385
 20
42.7942144672
 11
103.9114848385
 21
42.4942144672
  0
LINE
  5
431
100
AcDbEntity
  8
0
100
AcDbLine
 62
7
  6
CONTINUOUS
 10
104.3282900747
 20
31.7360291303
 11
104.3282900747
 21
31.3470416945
  0
LINE
  5
432
100
AcDbEntity
  8
0
100
AcDbLine
 62
7
  6
CONTINUOUS
 10
104.5444361826
 20
42.7942144672
 11
104.5444361826
 21
42.4942144672
  0
LINE
  5
433
100
AcDbEntity
  8
0
100
AcDbLine
 62
7
  6
CONTINUOUS
 10
104.6782900747
 20
31.4491597863
 11
104.6782900747
 21
31.0648744415
  0
LINE
  5
434
100
AcDbEntity
  8
0
100
AcDbLine
 62
7
  6
CONTINUOUS
 10
104.7369109017
 20
42.7942144672
 11
104.7369109017
 21
42.4942144672
  0
LINE
  5
435
100
AcDbEntity
  8
0
100
AcDbLine
 62
7
  6
CONTINUOUS
 10
104.7949566301
 20
31.3554783284
 11
104.7949566301
 21
30.9727041921
  0
LINE
  5
436
100
AcDbEntity
  8
0
100
AcDbLine
 62
7
  6
CONTINUOUS
 10
104.9116235193
 20
31.2627479645
 11
104.9116235193
 21
30.8814581274
  0
LINE
  5
437
100
AcDbEntity
  8
0
100
AcDbLine
 62
7
  6
CONTINUOUS
 10
105.4512842429
 20
42.7942144672
 11
105.4512842429
 21
42.4942144672
  0
LINE
  5
438
100
AcDbEntity
  8
0
100
AcDbLine
 62
7
  6
CONTINUOUS
 10
105.8449566301
 20
30.5538689027
 11
105.8449566301
 21
30.1835591918
  0
LINE
  5
439
100
AcDbEntity
  8
0
100
AcDbLine
 62
7
  6
CONTINUOUS
 10
105.9176556782
 20
42.7942144672
 11
105.9176556782
 21
42.4942144672
  0
LINE
  5
43A
100
AcDbEntity
  8
0
100
AcDbLine
 62
7
  6
CONTINUOUS
 10
106.4654496613
 20
42.7942144672
 11
106.4654496613
 21
42.4942144672
  0
LINE
  5
43B
100
AcDbEntity
  8
0
100
AcDbLine
 62
7
  6
CONTINUOUS
 10
106.5449569639
 20
30.0586254246
 11
106.5449569639
 21
29.6956215727
  0
LINE
  5
43C
100
AcDbEntity
  8
0
100
AcDbLine
 62
7
  6
CONTINUOUS
 10
106.6616231856
 20
29.978965676
 11
106.6616231856
 21
29.6171103333
  0
LINE
  5
43D
100
AcDbEntity
  8
0
100
AcDbLine
 62
7
  6
CONTINUOUS
 10
106.7245312906
 20
42.7942144672
 11
106.7245312906
 21
42.4942144672
  0
LINE
  5
43E
100
AcDbEntity
  8
0
100
AcDbLine
 62
7
  6
CONTINUOUS
 10
106.8059534018
 20
42.7942144672
 11
106.8059534018
 21
42.4942144672
  0
LINE
  5
43F
100
AcDbEntity
  8
0
100
AcDbLine
 62
7
  6
CONTINUOUS
 10
106.8725597613
 20
42.7942144672
 11
106.8725597613
 21
42.4942144672
  0
LINE
  5
440
100
AcDbEntity
  8
0
100
AcDbLine
 62
7
  6
CONTINUOUS
 10
106.8949569639
 20
29.8220426456
 11
106.8949569639
 21
29.4624287922
  0
LINE
  5
441
100
AcDbEntity
  8
0
100
AcDbLine
 62
7
  6
CONTINUOUS
 10
107.1020101152
 20
42.7942144672
 11
107.1020101152
 21
42.4942144672
  0
LINE
  5
442
100
AcDbEntity
  8
RUNDUNGEN
100
AcDbLine
 62
7
  6
CONTINUOUS
 10
150.7466820465
 20
39.7008500858
 11
150.8484000445
 21
39.7107318541
  0
LINE
  5
443
100
AcDbEntity
  8
RUNDUNGEN
100
AcDbLine
 62
7
  6
CONTINUOUS
 10
150.8464391335
 20
39.7105070782
 11
151.241520652
 21
39.7404494474
  0
LWPOLYLINE
  5
444
100
AcDbEntity
  8
RUNDUNGEN
100
AcDbPolyline
 62
7
  6
CONTINUOUS
 90
6
 70
0
 10
151.241520652
 20
39.7404494474
 10
151.5845845549
 20
39.7642133685
 10
151.9489255034
 20
39.787465004
 10
152.334556875
 20
39.8100950257
 10
152.741160525
 20
39.8319650906
 10
153.1686992932
 20
39.8529668283
  0
LINE
  5
445
100
AcDbEntity
  8
RUNDUNGEN
100
AcDbLine
 62
7
  6
CONTINUOUS
 10
95.7966805257
 20
39.7405731896
 11
96.1934838063
 21
39.710506334
  0
LINE
  5
446
100
AcDbEntity
  8
RUNDUNGEN
100
AcDbLine
 62
7
  6
CONTINUOUS
 10
96.191519969
 20
39.7107320415
 11
96.2904396009
 21
39.7011708506
  0
LWPOLYLINE
  5
447
100
AcDbEntity
  8
RUNDUNGEN
100
AcDbPolyline
 62
7
  6
CONTINUOUS
 90
7
 70
0
 10
96.2904396009
 20
39.7011708506
 10
96.6833937999
 20
39.6284583375
 10
97.06688971
 20
39.5005648037
 10
97.4313364222
 20
39.3193233325
 10
97.7680710863
 20
39.0882569799
 10
98.0698007275
 20
38.811953791
 10
98.3298551243
 20
38.4964535432
  0
LINE
  5
448
100
AcDbEntity
  8
0
100
AcDbLine
 62
7
  6
CONTINUOUS
 10
107.2449569639
 20
29.5925406004
 11
107.2449569639
 21
29.2361557442
  0
LINE
  5
449
100
AcDbEntity
  8
0
100
AcDbLine
 62
7
  6
CONTINUOUS
 10
107.4166183806
 20
42.7942144672
 11
107.4166183806
 21
42.4942144672
  0
LINE
  5
44A
100
AcDbEntity
  8
0
100
AcDbLine
 62
7
  6
CONTINUOUS
 10
107.6756995162
 20
42.7942144672
 11
107.6756995162
 21
42.4942144672
  0
LINE
  5
44B
100
AcDbEntity
  8
0
100
AcDbLine
 62
7
  6
CONTINUOUS
 10
107.7116231856
 20
29.2972229956
 11
107.7116231856
 21
28.9449093681
  0
LINE
  5
44C
100
AcDbEntity
  8
0
100
AcDbLine
 62
7
  6
CONTINUOUS
 10
107.7831430713
 20
42.7942144672
 11
107.7831430713
 21
42.4942144672
  0
LINE
  5
44D
100
AcDbEntity
  8
0
100
AcDbLine
 62
7
  6
CONTINUOUS
 10
107.8127743467
 20
42.7942144672
 11
107.8127743467
 21
42.4942144672
  0
LINE
  5
44E
100
AcDbEntity
  8
0
100
AcDbLine
 62
7
  6
CONTINUOUS
 10
107.9793537048
 20
42.7942144672
 11
107.9793537048
 21
42.4942144672
  0
LINE
  5
44F
100
AcDbEntity
  8
0
100
AcDbLine
 62
7
  6
CONTINUOUS
 10
108.1782900747
 20
29.0137325423
 11
108.1782900747
 21
28.665241118
  0
LINE
  5
450
100
AcDbEntity
  8
0
100
AcDbLine
 62
7
  6
CONTINUOUS
 10
108.3384072314
 20
42.7942144672
 11
108.3384072314
 21
42.4942144672
  0
LINE
  5
451
100
AcDbEntity
  8
0
100
AcDbLine
 62
7
  6
CONTINUOUS
 10
108.6449569639
 20
28.7416835635
 11
108.6449569639
 21
28.3967834087
  0
LINE
  5
452
100
AcDbEntity
  8
0
100
AcDbLine
 62
7
  6
CONTINUOUS
 10
108.8751209406
 20
42.7942144672
 11
108.8751209406
 21
42.4942144672
  0
LINE
  5
453
100
AcDbEntity
  8
0
100
AcDbLine
 62
7
  6
CONTINUOUS
 10
108.9949569639
 20
28.5449408261
 11
108.9949569639
 21
28.2025923526
  0
LINE
  5
454
100
AcDbEntity
  8
0
100
AcDbLine
 62
7
  6
CONTINUOUS
 10
109.2282900747
 20
28.4171742741
 11
109.2282900747
 21
28.0764628898
  0
LINE
  5
455
100
AcDbEntity
  8
0
100
AcDbLine
 62
7
  6
CONTINUOUS
 10
109.3449569639
 20
28.3542945186
 11
109.3449569639
 21
28.0143831218
  0
LINE
  5
456
100
AcDbEntity
  8
0
100
AcDbLine
 62
7
  6
CONTINUOUS
 10
109.493256647
 20
42.7942144672
 11
109.493256647
 21
42.4942144672
  0
LINE
  5
457
100
AcDbEntity
  8
0
100
AcDbLine
 62
7
  6
CONTINUOUS
 10
110.0449569639
 20
27.9907749997
 11
110.0449569639
 21
27.6554162755
  0
LINE
  5
458
100
AcDbEntity
  8
0
100
AcDbLine
 62
7
  6
CONTINUOUS
 10
110.0965772664
 20
42.7942144672
 11
110.0965772664
 21
42.4942144672
  0
LINE
  5
459
100
AcDbEntity
  8
0
100
AcDbLine
 62
7
  6
CONTINUOUS
 10
110.5074226161
 20
42.7942144672
 11
110.5074226161
 21
42.4942144672
  0
LINE
  5
45A
100
AcDbEntity
  8
0
100
AcDbLine
 62
7
  6
CONTINUOUS
 10
110.8627418802
 20
42.7942144672
 11
110.8627418802
 21
42.4942144672
  0
LINE
  5
45B
100
AcDbEntity
  8
0
100
AcDbLine
 62
7
  6
CONTINUOUS
 10
110.9782900747
 20
27.5415708438
 11
110.9782900747
 21
27.2116731691
  0
LINE
  5
45C
100
AcDbEntity
  8
0
100
AcDbLine
 62
7
  6
CONTINUOUS
 10
111.0811120742
 20
42.7942144672
 11
111.0811120742
 21
42.4942144672
  0
LINE
  5
45D
100
AcDbEntity
  8
0
100
AcDbLine
 62
7
  6
CONTINUOUS
 10
111.3809041513
 20
42.7942144672
 11
111.3809041513
 21
42.4942144672
  0
LINE
  5
45E
100
AcDbEntity
  8
RUNDUNGEN
100
AcDbLine
 62
7
  6
CONTINUOUS
 10
153.1686992932
 20
39.8529668283
 11
154.0857658412
 21
39.8918758998
  0
LWPOLYLINE
  5
45F
100
AcDbEntity
  8
RUNDUNGEN
100
AcDbPolyline
 62
7
  6
CONTINUOUS
 90
8
 70
0
 10
154.0857658412
 20
39.8918758998
 10
155.0834585006
 20
39.9258145562
 10
155.611430243
 20
39.9405874346
 10
156.1579947771
 20
39.9537098815
 10
156.722344803
 20
39.9650368076
 10
157.303570897
 20
39.9744206545
 10
157.9005659331
 20
39.9817095195
 10
158.5120522278
 20
39.9867495267
  0
LINE
  5
460
100
AcDbEntity
  8
RUNDUNGEN
100
AcDbLine
 62
7
  6
CONTINUOUS
 10
158.5120522278
 20
39.9867495267
 11
159.4727073272
 21
39.9897534379
  0
LINE
  5
461
100
AcDbEntity
  8
RUNDUNGEN
100
AcDbLine
 62
7
  6
CONTINUOUS
 10
161.6485876212
 20
39.9897534112
 11
159.4727073272
 21
39.9897534112
  0
LWPOLYLINE
  5
462
100
AcDbEntity
  8
RUNDUNGEN
100
AcDbPolyline
 62
7
  6
CONTINUOUS
 90
8
 70
0
 10
85.3913268789
 20
39.9897534112
 10
87.9259026147
 20
39.9893339873
 10
88.5482146217
 20
39.9866209993
 10
89.1575894565
 20
39.9815216084
 10
89.7525547579
 20
39.9741897706
 10
90.331840163
 20
39.9647775493
 10
90.8943434475
 20
39.9534354495
 10
91.4391568436
 20
39.9403095082
  0
LINE
  5
463
100
AcDbEntity
  8
RUNDUNGEN
100
AcDbLine
 62
7
  6
CONTINUOUS
 10
91.4391568436
 20
39.9403095082
 11
92.4726488902
 21
39.9092782539
  0
LWPOLYLINE
  5
464
100
AcDbEntity
  8
RUNDUNGEN
100
AcDbPolyline
 62
7
  6
CONTINUOUS
 90
8
 70
0
 10
92.4726488902
 20
39.9092782539
 10
93.4275705072
 20
39.8727826759
 10
93.8745760991
 20
39.8528092387
 10
94.3009285227
 20
39.8318530958
 10
94.7064315704
 20
39.8100347156
 10
95.0910410701
 20
39.7874618084
 10
95.4544512361
 20
39.7642716261
 10
95.7966805257
 20
39.7405731896
  0
LINE
  5
465
100
AcDbEntity
  8
0
100
AcDbLine
 62
7
  6
CONTINUOUS
 10
111.7473031386
 20
42.7942144672
 11
111.7473031386
 21
42.4942144672
  0
LINE
  5
466
100
AcDbEntity
  8
0
100
AcDbLine
 62
7
  6
CONTINUOUS
 10
111.8546211044
 20
42.7942144672
 11
111.8546211044
 21
42.4942144672
  0
LINE
  5
467
100
AcDbEntity
  8
0
100
AcDbLine
 62
7
  6
CONTINUOUS
 10
111.880517016
 20
42.7942144672
 11
111.880517016
 21
42.4942144672
  0
LINE
  5
468
100
AcDbEntity
  8
0
100
AcDbLine
 62
7
  6
CONTINUOUS
 10
113.7782900747
 20
26.4199317336
 11
113.7782900747
 21
26.1029279738
  0
LINE
  5
469
100
AcDbEntity
  8
0
100
AcDbLine
 62
7
  6
CONTINUOUS
 10
114.3616238531
 20
26.226314135
 11
114.3616238531
 21
25.9114353525
  0
LINE
  5
46A
100
AcDbEntity
  8
0
100
AcDbLine
 62
7
  6
CONTINUOUS
 10
114.8282900747
 20
26.0808913974
 11
114.8282900747
 21
25.7675901076
  0
LINE
  5
46B
100
AcDbEntity
  8
0
100
AcDbLine
 62
7
  6
CONTINUOUS
 10
115.2949562964
 20
25.9437489716
 11
115.2949562964
 21
25.6319210164
  0
LINE
  5
46C
100
AcDbEntity
  8
0
100
AcDbLine
 62
7
  6
CONTINUOUS
 10
115.5282900747
 20
25.878245596
 11
115.5282900747
 21
25.567116497
  0
LINE
  5
46D
100
AcDbEntity
  8
0
100
AcDbLine
 62
7
  6
CONTINUOUS
 10
145.6380736051
 20
42.4942144672
 11
143.1212106997
 21
42.4942144672
  0
LINE
  5
46E
100
AcDbEntity
  8
0
100
AcDbLine
 62
7
  6
CONTINUOUS
 10
142.5954510958
 20
42.4942144672
 11
138.2686269581
 21
42.4942144672
  0
LINE
  5
46F
100
AcDbEntity
  8
0
100
AcDbLine
 62
7
  6
CONTINUOUS
 10
111.880517016
 20
42.4942144672
 11
97.5191020539
 21
42.4942144672
  0
LINE
  5
470
100
AcDbEntity
  8
RUNDUNGEN
100
AcDbLine
 62
7
  6
CONTINUOUS
 10
70.2635325011
 20
42.7942144672
 11
176.776381999
 21
42.7942144672
  0
LINE
  5
471
100
AcDbEntity
  8
0
100
AcDbLine
 62
7
  6
CONTINUOUS
 10
115.6449562964
 20
25.846254954
 11
115.6449562964
 21
25.5354660323
  0
LINE
  5
472
100
AcDbEntity
  8
0
100
AcDbLine
 62
7
  6
CONTINUOUS
 10
122.1782900747
 20
24.8242306636
 11
122.1782900747
 21
24.5239331803
  0
LINE
  5
473
100
AcDbEntity
  8
0
100
AcDbLine
 62
7
  6
CONTINUOUS
 10
122.8782900747
 20
24.8010775316
 11
122.8782900747
 21
24.5010095652
  0
LINE
  5
474
100
AcDbEntity
  8
B-ACHSEN
100
AcDbLine
 62
2
  6
CENTER
 10
123.51995725
 20
54.7942144672
 11
123.51995725
 21
21.7942144672
  0
LINE
  5
475
100
AcDbEntity
  8
B-ACHSEN
100
AcDbLine
 62
2
  6
CENTER
 10
123.51995725
 20
54.7942144672
 11
123.51995725
 21
87.7942144672
  0
LINE
  5
476
100
AcDbEntity
  8
0
100
AcDbLine
 62
7
  6
CONTINUOUS
 10
123.811622518
 20
24.7956323112
 11
123.811622518
 21
24.4956182725
  0
LINE
  5
477
100
AcDbEntity
  8
B-ACHSEN
100
AcDbLine
 62
2
  6
CENTER
 10
123.51995725
 20
54.7942144672
 11
61.7278740876
 21
54.7942144672
  0
LINE
  5
478
100
AcDbEntity
  8
B-ACHSEN
100
AcDbLine
 62
2
  6
CENTER
 10
123.51995725
 20
54.7942144672
 11
184.4103558394
 21
54.7942144672
  0
LINE
  5
479
100
AcDbEntity
  8
0
100
AcDbLine
 62
7
  6
CONTINUOUS
 10
126.611622518
 20
24.9539462735
 11
126.611622518
 21
24.6523564311
  0
LINE
  5
47A
100
AcDbEntity
  8
0
100
AcDbLine
 62
7
  6
CONTINUOUS
 10
127.1949576315
 20
25.0201591137
 11
127.1949576315
 21
24.7179053154
  0
LINE
  5
47B
100
AcDbEntity
  8
0
100
AcDbLine
 62
7
  6
CONTINUOUS
 10
127.661622518
 20
25.0814796754
 11
127.661622518
 21
24.7786083796
  0
LINE
  5
47C
100
AcDbEntity
  8
0
100
AcDbLine
 62
7
  6
CONTINUOUS
 10
128.011622518
 20
25.1323712487
 11
128.011622518
 21
24.8289855657
  0
LINE
  5
47D
100
AcDbEntity
  8
0
100
AcDbLine
 62
7
  6
CONTINUOUS
 10
128.1282900747
 20
25.1502729517
 11
128.1282900747
 21
24.8467059135
  0
LINE
  5
47E
100
AcDbEntity
  8
0
100
AcDbLine
 62
7
  6
CONTINUOUS
 10
128.2449576315
 20
25.1686449133
 11
128.2449576315
 21
24.8648915314
  0
LINE
  5
47F
100
AcDbEntity
  8
0
100
AcDbLine
 62
7
  6
CONTINUOUS
 10
129.1782900747
 20
25.3326586759
 11
129.1782900747
 21
25.0272315895
  0
LINE
  5
480
100
AcDbEntity
  8
0
100
AcDbLine
 62
7
  6
CONTINUOUS
 10
129.5282900747
 20
25.402039715
 11
129.5282900747
 21
25.0958990829
  0
LINE
  5
481
100
AcDbEntity
  8
0
100
AcDbLine
 62
7
  6
CONTINUOUS
 10
129.6449576315
 20
25.4261302545
 11
129.6449576315
 21
25.1197410881
  0
LINE
  5
482
100
AcDbEntity
  8
0
100
AcDbLine
 62
7
  6
CONTINUOUS
 10
130.111622518
 20
25.5273398648
 11
130.111622518
 21
25.2199021507
  0
LINE
  5
483
100
AcDbEntity
  8
0
100
AcDbLine
 62
7
  6
CONTINUOUS
 10
130.5782900747
 20
25.6363692496
 11
130.5782900747
 21
25.3277939561
  0
LINE
  5
484
100
AcDbEntity
  8
0
100
AcDbLine
 62
7
  6
CONTINUOUS
 10
131.0449576315
 20
25.7533059198
 11
131.0449576315
 21
25.4435012006
  0
LINE
  5
485
100
AcDbEntity
  8
0
100
AcDbLine
 62
7
  6
CONTINUOUS
 10
131.6282900747
 20
25.9107427437
 11
131.6282900747
 21
25.5992673221
  0
LINE
  5
486
100
AcDbEntity
  8
0
100
AcDbLine
 62
7
  6
CONTINUOUS
 10
132.211622518
 20
26.08089082
 11
132.211622518
 21
25.7675895365
  0
LINE
  5
487
100
AcDbEntity
  8
0
100
AcDbLine
 62
7
  6
CONTINUOUS
 10
132.6782900747
 20
26.2263139516
 11
132.6782900747
 21
25.911435171
  0
LINE
  5
488
100
AcDbEntity
  8
0
100
AcDbLine
 62
7
  6
CONTINUOUS
 10
133.0282900747
 20
26.3408911658
 11
133.0282900747
 21
26.0247583219
  0
LINE
  5
489
100
AcDbEntity
  8
0
100
AcDbLine
 62
7
  6
CONTINUOUS
 10
133.1449576315
 20
26.3801445782
 11
133.1449576315
 21
26.0635798126
  0
LINE
  5
48A
100
AcDbEntity
  8
0
100
AcDbLine
 62
7
  6
CONTINUOUS
 10
133.261622518
 20
26.4199310788
 11
133.261622518
 21
26.1029273262
  0
LINE
  5
48B
100
AcDbEntity
  8
0
100
AcDbLine
 62
7
  6
CONTINUOUS
 10
133.4949576315
 20
26.5011169452
 11
133.4949576315
 21
26.1832136565
  0
LINE
  5
48C
100
AcDbEntity
  8
0
100
AcDbLine
 62
7
  6
CONTINUOUS
 10
134.4282900747
 20
26.8476891915
 11
134.4282900747
 21
26.5258881109
  0
LINE
  5
48D
100
AcDbEntity
  8
0
100
AcDbLine
 62
7
  6
CONTINUOUS
 10
136.061622518
 20
27.5415699661
 11
136.061622518
 21
27.2116723018
  0
LINE
  5
48E
100
AcDbEntity
  8
RUNDUNGEN
100
AcDbLine
 62
7
  6
CONTINUOUS
 10
176.776381999
 20
66.7942144672
 11
70.2635325011
 21
66.7942144672
  0
LINE
  5
48F
100
AcDbEntity
  8
0
100
AcDbLine
 62
7
  6
CONTINUOUS
 10
136.9949576315
 20
27.9907750476
 11
136.9949576315
 21
27.6554163229
  0
LINE
  5
490
100
AcDbEntity
  8
0
100
AcDbLine
 62
7
  6
CONTINUOUS
 10
137.6949576315
 20
28.3542945697
 11
137.6949576315
 21
28.0143831723
  0
LINE
  5
491
100
AcDbEntity
  8
0
100
AcDbLine
 62
7
  6
CONTINUOUS
 10
138.2686269581
 20
42.7942144672
 11
138.2686269581
 21
42.4942144672
  0
LINE
  5
492
100
AcDbEntity
  8
0
100
AcDbLine
 62
7
  6
CONTINUOUS
 10
138.2797070712
 20
42.7942144672
 11
138.2797070712
 21
42.4942144672
  0
LINE
  5
493
100
AcDbEntity
  8
0
100
AcDbLine
 62
7
  6
CONTINUOUS
 10
138.401840067
 20
42.7942144672
 11
138.401840067
 21
42.4942144672
  0
LINE
  5
494
100
AcDbEntity
  8
0
100
AcDbLine
 62
7
  6
CONTINUOUS
 10
138.7978700253
 20
42.7942144672
 11
138.7978700253
 21
42.4942144672
  0
LINE
  5
495
100
AcDbEntity
  8
0
100
AcDbLine
 62
7
  6
CONTINUOUS
 10
139.1901645542
 20
42.7942144672
 11
139.1901645542
 21
42.4942144672
  0
LINE
  5
496
100
AcDbEntity
  8
0
100
AcDbLine
 62
7
  6
CONTINUOUS
 10
139.31229755
 20
42.7942144672
 11
139.31229755
 21
42.4942144672
  0
LINE
  5
497
100
AcDbEntity
  8
0
100
AcDbLine
 62
7
  6
CONTINUOUS
 10
139.7083275567
 20
42.7942144672
 11
139.7083275567
 21
42.4942144672
  0
LINE
  5
498
100
AcDbEntity
  8
0
100
AcDbLine
 62
7
  6
CONTINUOUS
 10
140.1191729064
 20
42.7942144672
 11
140.1191729064
 21
42.4942144672
  0
LINE
  5
499
100
AcDbEntity
  8
0
100
AcDbLine
 62
7
  6
CONTINUOUS
 10
140.7224931816
 20
42.7942144672
 11
140.7224931816
 21
42.4942144672
  0
LINE
  5
49A
100
AcDbEntity
  8
RUNDUNGEN
100
AcDbLine
 62
7
  6
CONTINUOUS
 10
96.1926101115
 20
69.8777834444
 11
95.798393848
 21
69.847979487
  0
LWPOLYLINE
  5
49B
100
AcDbEntity
  8
RUNDUNGEN
100
AcDbPolyline
 62
7
  6
CONTINUOUS
 90
6
 70
0
 10
95.798393848
 20
69.847979487
 10
95.4553299452
 20
69.8242155659
 10
95.0909889966
 20
69.8009639305
 10
94.705357625
 20
69.7783339087
 10
94.2987539751
 20
69.7564638438
 10
93.8712152068
 20
69.7354621062
  0
LINE
  5
49C
100
AcDbEntity
  8
RUNDUNGEN
100
AcDbLine
 62
7
  6
CONTINUOUS
 10
93.8712152068
 20
69.7354621062
 11
92.9541486589
 21
69.6965530347
  0
LWPOLYLINE
  5
49D
100
AcDbEntity
  8
RUNDUNGEN
100
AcDbPolyline
 62
7
  6
CONTINUOUS
 90
8
 70
0
 10
92.9541486589
 20
69.6965530347
 10
91.9564559995
 20
69.6626143782
 10
91.4284842571
 20
69.6478414998
 10
90.881919723
 20
69.6347190529
 10
90.317569697
 20
69.6233921269
 10
89.7363436031
 20
69.6140082799
 10
89.139348567
 20
69.6067194149
 10
88.5278622723
 20
69.6016794078
  0
LINE
  5
49E
100
AcDbEntity
  8
RUNDUNGEN
100
AcDbLine
 62
7
  6
CONTINUOUS
 10
88.5278622723
 20
69.6016794078
 11
87.5672071728
 21
69.5986754965
  0
LINE
  5
49F
100
AcDbEntity
  8
RUNDUNGEN
100
AcDbLine
 62
7
  6
CONTINUOUS
 10
85.3913268789
 20
69.5986755233
 11
87.5672071728
 21
69.5986755233
  0
LWPOLYLINE
  5
4A0
100
AcDbEntity
  8
RUNDUNGEN
100
AcDbPolyline
 62
7
  6
CONTINUOUS
 90
8
 70
0
 10
161.6485876212
 20
69.5986755233
 10
159.1140118853
 20
69.5990949471
 10
158.4916998783
 20
69.6018079352
 10
157.8823250435
 20
69.606907326
 10
157.2873597421
 20
69.6142391639
 10
156.7080743371
 20
69.6236513852
 10
156.1455710525
 20
69.6349934849
 10
155.6007576565
 20
69.6481194262
  0
LINE
  5
4A1
100
AcDbEntity
  8
RUNDUNGEN
100
AcDbLine
 62
7
  6
CONTINUOUS
 10
155.6007576565
 20
69.6481194262
 11
154.5672656099
 21
69.6791506805
  0
LWPOLYLINE
  5
4A2
100
AcDbEntity
  8
RUNDUNGEN
100
AcDbPolyline
 62
7
  6
CONTINUOUS
 90
8
 70
0
 10
154.5672656099
 20
69.6791506805
 10
153.6123439929
 20
69.7156462585
 10
153.165338401
 20
69.7356196957
 10
152.7389859773
 20
69.7565758387
 10
152.3334829297
 20
69.7783942188
 10
151.94887343
 20
69.8009671261
 10
151.585463264
 20
69.8241573083
 10
151.2432339744
 20
69.8478557448
  0
LINE
  5
4A3
100
AcDbEntity
  8
RUNDUNGEN
100
AcDbLine
 62
7
  6
CONTINUOUS
 10
151.2432339744
 20
69.8478557448
 11
150.8464306938
 21
69.8779226004
  0
LINE
  5
4A4
100
AcDbEntity
  8
0
100
AcDbLine
 62
7
  6
CONTINUOUS
 10
141.1949576315
 20
30.5538687289
 11
141.1949576315
 21
30.1835590205
  0
LINE
  5
4A5
100
AcDbEntity
  8
0
100
AcDbLine
 62
7
  6
CONTINUOUS
 10
141.2443914597
 20
42.7942144672
 11
141.2443914597
 21
42.4942144672
  0
LINE
  5
4A6
100
AcDbEntity
  8
0
100
AcDbLine
 62
7
  6
CONTINUOUS
 10
141.6293411731
 20
42.7942144672
 11
141.6293411731
 21
42.4942144672
  0
LINE
  5
4A7
100
AcDbEntity
  8
0
100
AcDbLine
 62
7
  6
CONTINUOUS
 10
142.0698173852
 20
42.7942144672
 11
142.0698173852
 21
42.4942144672
  0
LINE
  5
4A8
100
AcDbEntity
  8
0
100
AcDbLine
 62
7
  6
CONTINUOUS
 10
142.1282900747
 20
31.2627472481
 11
142.1282900747
 21
30.8814574224
  0
LINE
  5
4A9
100
AcDbEntity
  8
0
100
AcDbLine
 62
7
  6
CONTINUOUS
 10
142.4288717377
 20
42.7942144672
 11
142.4288717377
 21
42.4942144672
  0
LINE
  5
4AA
100
AcDbEntity
  8
0
100
AcDbLine
 62
7
  6
CONTINUOUS
 10
142.5954510958
 20
42.7942144672
 11
142.5954510958
 21
42.4942144672
  0
LINE
  5
4AB
100
AcDbEntity
  8
0
100
AcDbLine
 62
7
  6
CONTINUOUS
 10
143.1212106997
 20
42.7942144672
 11
143.1212106997
 21
42.4942144672
  0
LINE
  5
4AC
100
AcDbEntity
  8
0
100
AcDbLine
 62
7
  6
CONTINUOUS
 10
143.1655310548
 20
42.7942144672
 11
143.1655310548
 21
42.4942144672
  0
LINE
  5
4AD
100
AcDbEntity
  8
0
100
AcDbLine
 62
7
  6
CONTINUOUS
 10
143.3283750492
 20
42.7942144672
 11
143.3283750492
 21
42.4942144672
  0
LINE
  5
4AE
100
AcDbEntity
  8
0
100
AcDbLine
 62
7
  6
CONTINUOUS
 10
144.0982747514
 20
42.7942144672
 11
144.0982747514
 21
42.4942144672
  0
LINE
  5
4AF
100
AcDbEntity
  8
0
100
AcDbLine
 62
7
  6
CONTINUOUS
 10
144.4239628541
 20
42.7942144672
 11
144.4239628541
 21
42.4942144672
  0
LINE
  5
4B0
100
AcDbEntity
  8
0
100
AcDbLine
 62
7
  6
CONTINUOUS
 10
144.9051499271
 20
42.7942144672
 11
144.9051499271
 21
42.4942144672
  0
LINE
  5
4B1
100
AcDbEntity
  8
RUNDUNGEN
100
AcDbLine
 62
7
  6
CONTINUOUS
 10
69.8731477468
 20
66.815699519
 11
84.9437277376
 21
69.558280168
  0
LINE
  5
4B2
100
AcDbEntity
  8
RUNDUNGEN
100
AcDbLine
 62
7
  6
CONTINUOUS
 10
96.2932324536
 20
69.8875788487
 11
96.1915144555
 21
69.8776970804
  0
LINE
  5
4B3
100
AcDbEntity
  8
RUNDUNGEN
100
AcDbLine
 62
7
  6
CONTINUOUS
 10
150.848394531
 20
69.8776968929
 11
150.7494748992
 21
69.8872580838
  0
LINE
  5
4B4
100
AcDbEntity
  8
RUNDUNGEN
100
AcDbLine
 62
7
  6
CONTINUOUS
 10
162.0961867625
 20
69.558280168
 11
177.1496886361
 21
66.8188421342
  0
LWPOLYLINE
  5
4B5
100
AcDbEntity
  8
RUNDUNGEN
100
AcDbPolyline
 62
7
  6
CONTINUOUS
 90
7
 70
0
 10
150.7494748992
 20
69.8872580838
 10
150.3565207001
 20
69.9599705969
 10
149.9730247901
 20
70.0878641308
 10
149.6085780779
 20
70.2691056019
 10
149.2718434137
 20
70.5001719545
 10
148.9701137726
 20
70.7764751434
 10
148.7100593757
 20
71.0919753913
  0
LINE
  5
4B6
100
AcDbEntity
  8
0
100
AcDbLine
 62
7
  6
CONTINUOUS
 10
145.6380736051
 20
42.7942144672
 11
145.6380736051
 21
42.4942144672
  0
LINE
  5
4B7
100
AcDbEntity
  8
0
100
AcDbLine
 62
7
  6
CONTINUOUS
 10
146.5616251883
 20
35.5827195065
 11
146.5616251883
 21
35.1175394782
  0
LWPOLYLINE
  5
4B8
100
AcDbEntity
  8
RUNDUNGEN
100
AcDbPolyline
 62
7
  6
CONTINUOUS
 90
19
 70
0
 10
69.8759907672
 20
66.81622488
 10
69.7693183624
 20
66.7953560946
 10
69.6664480825
 20
66.7728210043
 10
69.5519837814
 20
66.7442052109
 10
69.4104049289
 20
66.7024516345
 10
69.2540267864
 20
66.6467415796
 10
69.0894654267
 20
66.5757632853
 10
68.9193791456
 20
66.4874151254
 10
68.7509108893
 20
66.3828026987
 10
68.5838128804
 20
66.2594197368
 10
68.4205148758
 20
66.1160672216
 10
68.2637433137
 20
65.9517418623
 10
68.1164864266
 20
65.765596838
 10
67.9827151837
 20
65.5581123355
 10
67.8662829521
 20
65.3301805311
 10
67.7710458584
 20
65.0833967596
 10
67.7007086431
 20
64.8200374975
 10
67.6586947961
 20
64.5430118488
 10
67.6475246053
 20
64.3068136508
  0
LINE
  5
4B9
100
AcDbEntity
  8
RUNDUNGEN
100
AcDbLine
 62
7
  6
CONTINUOUS
 10
69.8729567089
 20
66.8156639703
 11
69.8759905942
 21
66.8162263274
  0
LINE
  5
4BA
100
AcDbEntity
  8
RUNDUNGEN
100
AcDbLine
 62
7
  6
CONTINUOUS
 10
177.1669587408
 20
66.815663784
 11
177.1496835964
 21
66.8188429774
  0
LINE
  5
4BB
100
AcDbEntity
  8
RUNDUNGEN
100
AcDbLine
 62
7
  6
CONTINUOUS
 10
148.6524967167
 20
38.412676523
 11
148.6421411569
 21
38.3969208475
  0
LINE
  5
4BC
100
AcDbEntity
  8
RUNDUNGEN
100
AcDbLine
 62
7
  6
CONTINUOUS
 10
148.6524967167
 20
38.412676523
 11
148.6960239306
 21
38.4765926448
  0
LINE
  5
4BD
100
AcDbEntity
  8
RUNDUNGEN
100
AcDbLine
 62
7
  6
CONTINUOUS
 10
148.6960239306
 20
38.4765926448
 11
148.9557905126
 21
38.7967537764
  0
LWPOLYLINE
  5
4BE
100
AcDbEntity
  8
RUNDUNGEN
100
AcDbPolyline
 62
7
  6
CONTINUOUS
 90
6
 70
0
 10
148.9557905126
 20
38.7967537764
 10
149.2583834559
 20
39.0774970294
 10
149.5969739034
 20
39.3124658674
 10
149.9641106042
 20
39.4968666045
 10
150.3507137155
 20
39.6269551791
 10
150.7466820465
 20
39.7008500858
  0
LINE
  5
4BF
100
AcDbEntity
  8
RUNDUNGEN
100
AcDbLine
 62
7
  6
CONTINUOUS
 10
148.7100593757
 20
71.0919753913
 11
148.652535107
 21
71.1756925014
  0
LINE
  5
4C0
100
AcDbEntity
  8
RUNDUNGEN
100
AcDbLine
 62
7
  6
CONTINUOUS
 10
148.6526124583
 20
71.1757436665
 11
148.642218521
 21
71.1915586352
  0
LWPOLYLINE
  5
4C1
100
AcDbEntity
  8
RUNDUNGEN
100
AcDbPolyline
 62
7
  6
CONTINUOUS
 90
19
 70
0
 10
179.3923906493
 20
64.3068035083
 10
179.3815594587
 20
64.5394011066
 10
179.3399955563
 20
64.8162503798
 10
179.2698617266
 20
65.0803431185
 10
179.1743501879
 20
65.3285705484
 10
179.0570159044
 20
65.558426123
 10
178.9216175001
 20
65.7681157003
 10
178.7720851482
 20
65.9564176535
 10
178.6124616059
 20
66.122682296
 10
178.4461492493
 20
66.2673792029
 10
178.2764209753
 20
66.3912600729
 10
178.1058391732
 20
66.4956984889
 10
177.9341974061
 20
66.5833789221
 10
177.7691836402
 20
66.6532141997
 10
177.6144145195
 20
66.7072749988
 10
177.4750157158
 20
66.7476462032
 10
177.3622753188
 20
66.7754054827
 10
177.2607767931
 20
66.7973739176
 10
177.164150055
 20
66.8161831505
  0
LINE
  5
4C2
100
AcDbEntity
  8
RUNDUNGEN
100
AcDbLine
 62
7
  6
CONTINUOUS
 10
179.3923906638
 20
45.2808868155
 11
179.3923906638
 21
64.3075427165
  0
ARC
  5
4C3
100
AcDbEntity
  8
RUNDUNGEN
100
AcDbCircle
 62
7
  6
CONTINUOUS
 10
85.51995725
 20
169.7515340865
 40
8.0
100
AcDbArc
 50
0.0
 51
90.0
  0
ARC
  5
4C4
100
AcDbEntity
  8
RUNDUNGEN
100
AcDbCircle
 62
7
  6
CONTINUOUS
 10
72.6475238363
 20
217.5506110525
 40
5.0
100
AcDbArc
 50
157.5
 51
202.5
  0
ARC
  5
4C5
100
AcDbEntity
  8
RUNDUNGEN
100
AcDbCircle
 62
7
  6
CONTINUOUS
 10
85.3913268789
 20
180.2515340865
 40
2.5
100
AcDbArc
 50
202.5
 51
270.0
  0
ARC
  5
4C6
100
AcDbEntity
  8
RUNDUNGEN
100
AcDbCircle
 62
7
  6
CONTINUOUS
 10
87.5477146077
 20
253.5228536948
 40
5.0
100
AcDbArc
 50
112.5
 51
157.5
  0
CIRCLE
  5
4C7
100
AcDbEntity
  8
RUNDUNGEN
100
AcDbCircle
 62
7
  6
CONTINUOUS
 10
123.51995725
 20
217.5506110525
 40
30.0
  0
ARC
  5
4C8
100
AcDbEntity
  8
RUNDUNGEN
100
AcDbCircle
 62
7
  6
CONTINUOUS
 10
161.51995725
 20
169.7515340865
 40
8.0
100
AcDbArc
 50
90.0
 51
180.0
  0
ARC
  5
4C9
100
AcDbEntity
  8
RUNDUNGEN
100
AcDbCircle
 62
7
  6
CONTINUOUS
 10
161.6485876212
 20
180.2515340865
 40
2.5
100
AcDbArc
 50
270.0
 51
337.5
  0
ARC
  5
4CA
100
AcDbEntity
  8
RUNDUNGEN
100
AcDbCircle
 62
7
  6
CONTINUOUS
 10
174.3923906638
 20
217.5506110525
 40
5.0
100
AcDbArc
 50
337.5
 51
22.5
  0
ARC
  5
4CB
100
AcDbEntity
  8
RUNDUNGEN
100
AcDbCircle
 62
7
  6
CONTINUOUS
 10
159.4921998924
 20
253.5228536948
 40
5.0
100
AcDbArc
 50
22.5
 51
67.5
  0
ARC
  5
4CC
100
AcDbEntity
  8
RUNDUNGEN
100
AcDbCircle
 62
7
  6
CONTINUOUS
 10
123.51995725
 20
268.4230444662
 40
5.0
100
AcDbArc
 50
67.5
 51
112.5
  0
ARC
  5
4CD
100
AcDbEntity
  8
RUNDUNGEN
100
AcDbCircle
 62
7
  6
CONTINUOUS
 10
327.1834346774
 20
218.3033296677
 40
20.0
100
AcDbArc
 50
180.0
 51
184.3107254215
  0
ARC
  5
4CE
100
AcDbEntity
  8
RUNDUNGEN
100
AcDbCircle
 62
7
  6
CONTINUOUS
 10
263.1834346774
 20
218.3033296677
 40
20.0
100
AcDbArc
 50
355.6892745785
 51
360.0
  0
ARC
  5
4CF
100
AcDbEntity
  8
RUNDUNGEN
100
AcDbCircle
 62
8
  6
HIDDEN
 10
295.1834346774
 20
259.5506110525
 40
12.0
100
AcDbArc
 50
180.0
 51
360.0
  0
ARC
  5
4D0
100
AcDbEntity
  8
B-ACHSEN
100
AcDbCircle
 62
7
  6
CONTINUOUS
 10
271.1834346774
 20
175.6244810089
 40
6.0
100
AcDbArc
 50
99.0
 51
180.0
  0
ARC
  5
4D1
100
AcDbEntity
  8
B-ACHSEN
100
AcDbCircle
 62
7
  6
CONTINUOUS
 10
319.1834346774
 20
175.6244810089
 40
6.0
100
AcDbArc
 50
0.0
 51
81.0
  0
ARC
  5
4D2
100
AcDbEntity
  8
RUNDUNGEN
100
AcDbCircle
 62
7
  6
CONTINUOUS
 10
285.6834346774
 20
270.9230444662
 40
2.5
100
AcDbArc
 50
90.0
 51
180.0000003973
  0
ARC
  5
4D3
100
AcDbEntity
  8
RUNDUNGEN
100
AcDbCircle
 62
7
  6
CONTINUOUS
 10
304.6834346774
 20
270.9230444662
 40
2.5
100
AcDbArc
 50
359.9999996032
 51
90.0
  0
ARC
  5
4D4
100
AcDbEntity
  8
RUNDUNGEN
100
AcDbCircle
 62
7
  6
CONTINUOUS
 10
307.4878957335
 20
180.2515340865
 40
2.5
100
AcDbArc
 50
270.0
 51
4.3107254215
  0
ARC
  5
4D5
100
AcDbEntity
  8
RUNDUNGEN
100
AcDbCircle
 62
7
  6
CONTINUOUS
 10
282.8789736153
 20
180.2515340051
 40
2.4999999806
100
AcDbArc
 50
175.6892727063
 51
270.0000001407
  0
ARC
  5
4D6
100
AcDbEntity
  8
RUNDUNGEN
100
AcDbCircle
 62
7
  6
CONTINUOUS
 10
95.9011624258
 20
36.7659315674
 40
2.9820458236
100
AcDbArc
 50
41.07689537
 51
80.7215034306
  0
ARC
  5
4D7
100
AcDbEntity
  8
RUNDUNGEN
100
AcDbCircle
 62
7
  6
CONTINUOUS
 10
95.9040152325
 20
36.7679675356
 40
2.97855754
100
AcDbArc
 50
33.5171001678
 51
41.0834303805
  0
ARC
  5
4D8
100
AcDbEntity
  8
RUNDUNGEN
100
AcDbCircle
 62
7
  6
CONTINUOUS
 10
85.3920506149
 20
42.5044863075
 40
2.5146307234
100
AcDbArc
 50
259.7217709137
 51
269.9835233797
  0
ARC
  5
4D9
100
AcDbEntity
  8
RUNDUNGEN
100
AcDbCircle
 62
7
  6
CONTINUOUS
 10
95.9011428755
 20
72.8226868512
 40
2.9822614366
100
AcDbArc
 50
279.2783271502
 51
318.9208109566
  0
ARC
  5
4DA
100
AcDbEntity
  8
RUNDUNGEN
100
AcDbCircle
 62
7
  6
CONTINUOUS
 10
95.9041069134
 20
72.8205373523
 40
2.9786147176
100
AcDbArc
 50
318.9145136273
 51
326.4820775579
  0
ARC
  5
4DB
100
AcDbEntity
  8
RUNDUNGEN
100
AcDbCircle
 62
7
  6
CONTINUOUS
 10
85.3923231789
 20
67.0903790825
 40
2.5082966386
100
AcDbArc
 50
90.02275799
 51
100.3595487919
  0
ARC
  5
4DC
100
AcDbEntity
  8
RUNDUNGEN
100
AcDbCircle
 62
7
  6
CONTINUOUS
 10
151.1387716246
 20
36.7657420832
 40
2.9822614366
100
AcDbArc
 50
99.2783271502
 51
138.9208109566
  0
ARC
  5
4DD
100
AcDbEntity
  8
RUNDUNGEN
100
AcDbCircle
 62
7
  6
CONTINUOUS
 10
151.1358075867
 20
36.7678915821
 40
2.9786147176
100
AcDbArc
 50
138.9145136273
 51
146.4820775579
  0
ARC
  5
4DE
100
AcDbEntity
  8
RUNDUNGEN
100
AcDbCircle
 62
7
  6
CONTINUOUS
 10
161.6475913212
 20
42.4980498519
 40
2.5082966386
100
AcDbArc
 50
270.02275799
 51
280.3595487919
  0
ARC
  5
4DF
100
AcDbEntity
  8
0
100
AcDbCircle
 62
7
  6
CONTINUOUS
 10
123.51995725
 20
54.7942144672
 40
30.3
100
AcDbArc
 50
307.8891961169
 51
319.5039808804
  0
ARC
  5
4E0
100
AcDbEntity
  8
0
100
AcDbCircle
 62
7
  6
CONTINUOUS
 10
123.51995725
 20
54.7942144672
 40
30.3
100
AcDbArc
 50
296.4053928662
 51
305.6853356007
  0
ARC
  5
4E1
100
AcDbEntity
  8
0
100
AcDbCircle
 62
7
  6
CONTINUOUS
 10
123.51995725
 20
54.7942144672
 40
30.3
100
AcDbArc
 50
291.1008706098
 51
294.4510921178
  0
ARC
  5
4E2
100
AcDbEntity
  8
0
100
AcDbCircle
 62
7
  6
CONTINUOUS
 10
123.51995725
 20
54.7942144672
 40
30.3
100
AcDbArc
 50
280.7628084393
 51
289.2207073323
  0
ARC
  5
4E3
100
AcDbEntity
  8
0
100
AcDbCircle
 62
7
  6
CONTINUOUS
 10
123.51995725
 20
54.7942144672
 40
30.3
100
AcDbArc
 50
270.5515329032
 51
278.9713524184
  0
ARC
  5
4E4
100
AcDbEntity
  8
0
100
AcDbCircle
 62
7
  6
CONTINUOUS
 10
123.51995725
 20
54.7942144672
 40
30.3
100
AcDbArc
 50
267.4621449209
 51
268.7865488599
  0
ARC
  5
4E5
100
AcDbEntity
  8
0
100
AcDbCircle
 62
7
  6
CONTINUOUS
 10
123.51995725
 20
54.7942144672
 40
30.3
100
AcDbArc
 50
245.5489039201
 51
254.9358108017
  0
ARC
  5
4E6
100
AcDbEntity
  8
0
100
AcDbCircle
 62
7
  6
CONTINUOUS
 10
123.51995725
 20
54.7942144672
 40
30.3
100
AcDbArc
 50
234.3146638442
 51
243.5946073351
  0
ARC
  5
4E7
100
AcDbEntity
  8
0
100
AcDbCircle
 62
7
  6
CONTINUOUS
 10
123.51995725
 20
54.7942144672
 40
30.3
100
AcDbArc
 50
220.4960213412
 51
232.1108017123
  0
ARC
  5
4E8
100
AcDbEntity
  8
B-ACHSEN
100
AcDbCircle
 62
7
  6
CONTINUOUS
 10
123.51995725
 20
54.7942144672
 40
30.0
100
AcDbArc
 50
213.132555385
 51
326.8674446895
  0
ARC
  5
4E9
100
AcDbEntity
  8
B-ACHSEN
100
AcDbCircle
 62
7
  6
CONTINUOUS
 10
123.51995725
 20
54.7942144672
 40
30.0
100
AcDbArc
 50
33.132555385
 51
146.8674446895
  0
ARC
  5
4EA
100
AcDbEntity
  8
RUNDUNGEN
100
AcDbCircle
 62
7
  6
CONTINUOUS
 10
123.51995725
 20
54.7942144672
 40
30.0
100
AcDbArc
 50
213.132555385
 51
326.8674446895
  0
ARC
  5
4EB
100
AcDbEntity
  8
RUNDUNGEN
100
AcDbCircle
 62
7
  6
CONTINUOUS
 10
123.51995725
 20
54.7942144672
 40
30.0
100
AcDbArc
 50
33.132555385
 51
146.8674446895
  0
ARC
  5
4EC
100
AcDbEntity
  8
RUNDUNGEN
100
AcDbCircle
 62
7
  6
CONTINUOUS
 10
151.1387520742
 20
72.8224973671
 40
2.9820458236
100
AcDbArc
 50
221.07689537
 51
260.7215034306
  0
ARC
  5
4ED
100
AcDbEntity
  8
RUNDUNGEN
100
AcDbCircle
 62
7
  6
CONTINUOUS
 10
151.1358992676
 20
72.8204613988
 40
2.97855754
100
AcDbArc
 50
213.5171001679
 51
221.0834303805
  0
ARC
  5
4EE
100
AcDbEntity
  8
RUNDUNGEN
100
AcDbCircle
 62
7
  6
CONTINUOUS
 10
161.6478638852
 20
67.0839426269
 40
2.5146307234
100
AcDbArc
 50
79.7217709137
 51
89.9835233797
  0
ELLIPSE
  5
4EF
100
AcDbEntity
  8
0
100
AcDbEllipse
 62
7
  6
CONTINUOUS
 10
295.1834346774
 20
168.5378432485
 30
0.0
 11
30.3
 21
-0.0
 31
0.0
 40
0.2553189461
 41
-0.3273207321
 42
-0.3070576566
  0
ELLIPSE
  5
4F0
100
AcDbEntity
  8
0
100
AcDbEllipse
 62
7
  6
CONTINUOUS
 10
295.1834346774
 20
172.0452975851
 30
0.0
 11
30.3
 21
0.0
 31
0.0
 40
0.6382984888
 41
-0.3070576566
 42
-0.2909408917
  0
ELLIPSE
  5
4F1
100
AcDbEntity
  8
0
100
AcDbEllipse
 62
7
  6
CONTINUOUS
 10
295.1834346774
 20
177.5931751226
 30
0.0
 11
-0.0
 21
38.680886728
 31
0.0
 40
0.7833326111
 41
-1.8617372185
 42
-1.8456978683
  0
ELLIPSE
  5
4F2
100
AcDbEntity
  8
0
100
AcDbEllipse
 62
7
  6
CONTINUOUS
 10
295.1834346774
 20
188.0931277781
 30
0.0
 11
0.0
 21
77.3615588951
 31
0.0
 40
0.3916673918
 41
-1.8456978683
 42
-1.8377055762
  0
ELLIPSE
  5
4F3
100
AcDbEntity
  8
0
100
AcDbEllipse
 62
7
  6
CONTINUOUS
 10
295.1834346774
 20
218.6997389925
 30
0.0
 11
0.0
 21
193.404970045
 31
0.0
 40
0.1566660877
 41
-1.8377055762
 42
-1.8337160274
  0
ELLIPSE
  5
4F4
100
AcDbEntity
  8
0
100
AcDbEllipse
 62
7
  6
CONTINUOUS
 10
295.1834346774
 20
120.4014547406
 30
0.0
 11
-0.0
 21
193.4050784066
 31
0.0
 40
0.1566659999
 41
-1.3078766261
 42
-1.3038870774
  0
ELLIPSE
  5
4F5
100
AcDbEntity
  8
0
100
AcDbEllipse
 62
7
  6
CONTINUOUS
 10
295.1834346774
 20
151.008098108
 30
0.0
 11
-0.0
 21
77.36154535
 31
0.0
 40
0.3916674604
 41
-1.3038870774
 42
-1.2958947853
  0
ELLIPSE
  5
4F6
100
AcDbEntity
  8
0
100
AcDbEllipse
 62
7
  6
CONTINUOUS
 10
295.1834346774
 20
161.5080480059
 30
0.0
 11
-0.0
 21
38.6808833417
 31
0.0
 40
0.7833326797
 41
-1.2958947853
 42
-1.279855435
  0
ELLIPSE
  5
4F7
100
AcDbEntity
  8
0
100
AcDbEllipse
 62
7
  6
CONTINUOUS
 10
295.1834346774
 20
167.0559253005
 30
0.0
 11
30.3
 21
-0.0
 31
0.0
 40
0.638298405
 41
0.2909408917
 42
0.3070576566
  0
ELLIPSE
  5
4F8
100
AcDbEntity
  8
0
100
AcDbEllipse
 62
7
  6
CONTINUOUS
 10
295.1834346774
 20
170.5633790742
 30
0.0
 11
30.3
 21
-0.0
 31
0.0
 40
0.2553189237
 41
0.3070576566
 42
0.3273207321
  0
ELLIPSE
  5
4F9
100
AcDbEntity
  8
0
100
AcDbEllipse
 62
7
  6
CONTINUOUS
 10
295.1834346774
 20
161.8990108622
 30
0.0
 11
30.3
 21
0.0
 31
0.0
 40
0.3191492025
 41
0.5488742833
 42
0.5670294023
  0
ELLIPSE
  5
4FA
100
AcDbEntity
  8
0
100
AcDbEllipse
 62
7
  6
CONTINUOUS
 10
295.1834346774
 20
153.2420969516
 30
0.0
 11
30.3
 21
-0.0
 31
0.0
 40
0.8510640264
 41
0.5670294023
 42
0.5807843856
  0
ELLIPSE
  5
4FB
100
AcDbEntity
  8
0
100
AcDbEllipse
 62
7
  6
CONTINUOUS
 10
295.1834346774
 20
135.555994218
 30
0.0
 11
0.0
 21
58.0211590125
 31
0.0
 40
0.5222232805
 41
-0.9900119412
 42
-0.9807726916
  0
ELLIPSE
  5
4FC
100
AcDbEntity
  8
0
100
AcDbEllipse
 62
7
  6
CONTINUOUS
 10
295.1834346774
 20
81.7524168464
 30
0.0
 11
0.0
 21
154.723976036
 31
0.0
 40
0.1958326096
 41
-0.9807726916
 42
-0.9761316416
  0
ELLIPSE
  5
4FD
100
AcDbEntity
  8
0
100
AcDbEllipse
 62
7
  6
CONTINUOUS
 10
295.1834346774
 20
169.9676338291
 30
0.0
 11
30.3
 21
0.0
 31
0.0
 40
0.2553192382
 41
-0.5309185385
 42
-0.5087360267
  0
ELLIPSE
  5
4FE
100
AcDbEntity
  8
0
100
AcDbEllipse
 62
7
  6
CONTINUOUS
 10
295.1834346774
 20
175.6197560728
 30
0.0
 11
30.3
 21
-0.0
 31
0.0
 40
0.6382975757
 41
-0.5087360267
 42
-0.4911862045
  0
ELLIPSE
  5
4FF
100
AcDbEntity
  8
0
100
AcDbEllipse
 62
7
  6
CONTINUOUS
 10
295.1834346774
 20
184.7420917849
 30
0.0
 11
-0.0
 21
38.6808313945
 31
0.0
 40
0.7833337317
 41
-2.0619825313
 42
-2.0445959555
  0
ELLIPSE
  5
500
100
AcDbEntity
  8
0
100
AcDbEllipse
 62
7
  6
CONTINUOUS
 10
295.1834346774
 20
202.39107293
 30
0.0
 11
-0.0
 21
77.3617802285
 31
0.0
 40
0.3916662713
 41
-2.0445959555
 42
-2.0359608769
  0
ELLIPSE
  5
501
100
AcDbEntity
  8
0
100
AcDbEllipse
 62
7
  6
CONTINUOUS
 10
295.1834346774
 20
254.4440555193
 30
0.0
 11
-0.0
 21
193.403863375
 31
0.0
 40
0.1566669842
 41
-2.0359608769
 42
-2.0316573691
  0
ELLIPSE
  5
502
100
AcDbEntity
  8
0
100
AcDbEllipse
 62
7
  6
CONTINUOUS
 10
295.1834346774
 20
105.3425717737
 30
0.0
 11
0.0
 21
98.851064086
 31
0.0
 40
0.3065217383
 41
-0.9095050657
 42
-0.8648031929
  0
ELLIPSE
  5
503
100
AcDbEntity
  8
0
100
AcDbEllipse
 62
7
  6
CONTINUOUS
 10
295.1834346774
 20
182.0240170661
 30
0.0
 11
30.3
 21
-0.0
 31
0.0
 40
0.6382979484
 41
-0.7059931339
 42
-0.685924066
  0
ELLIPSE
  5
504
100
AcDbEntity
  8
0
100
AcDbEllipse
 62
7
  6
CONTINUOUS
 10
295.1834346774
 20
202.4406789194
 30
0.0
 11
-0.0
 21
51.574461937
 31
0.0
 40
0.58750007
 41
-2.2567203928
 42
-2.2418827731
  0
ELLIPSE
  5
505
100
AcDbEntity
  8
0
100
AcDbEllipse
 62
7
  6
CONTINUOUS
 10
295.1834346774
 20
242.5293965217
 30
0.0
 11
-0.0
 21
116.042650025
 31
0.0
 40
0.2611108932
 41
-2.2418827731
 42
-2.23697576
  0
ELLIPSE
  5
506
100
AcDbEntity
  8
0
100
AcDbEllipse
 62
7
  6
CONTINUOUS
 10
295.1834346774
 20
99.6994852021
 30
0.0
 11
0.0
 21
116.042650025
 31
0.0
 40
0.2611108932
 41
-0.9046168936
 42
-0.8997098805
  0
ELLIPSE
  5
507
100
AcDbEntity
  8
0
100
AcDbEllipse
 62
7
  6
CONTINUOUS
 10
295.1834346774
 20
139.7882028044
 30
0.0
 11
-0.0
 21
51.574461937
 31
0.0
 40
0.58750007
 41
-0.8997098805
 42
-0.8848722608
  0
ELLIPSE
  5
508
100
AcDbEntity
  8
0
100
AcDbEllipse
 62
7
  6
CONTINUOUS
 10
295.1834346774
 20
154.0798637652
 30
0.0
 11
30.3
 21
0.0
 31
0.0
 40
0.9574469226
 41
0.685924066
 42
0.7059931339
  0
ELLIPSE
  5
509
100
AcDbEntity
  8
0
100
AcDbEllipse
 62
7
  6
CONTINUOUS
 10
295.1834346774
 20
167.8825274181
 30
0.0
 11
30.3
 21
-0.0
 31
0.0
 40
0.2553190698
 41
0.7059931339
 42
0.7315741452
  0
ELLIPSE
  5
50A
100
AcDbEntity
  8
0
100
AcDbEllipse
 62
7
  6
CONTINUOUS
 10
295.1834346774
 20
164.1144410934
 30
0.0
 11
30.3
 21
-0.0
 31
0.0
 40
0.8510637283
 41
0.2989892891
 42
0.3110996044
  0
ELLIPSE
  5
50B
100
AcDbEntity
  8
0
100
AcDbEllipse
 62
7
  6
CONTINUOUS
 10
295.1834346774
 20
154.6197769978
 30
0.0
 11
0.0
 21
58.021213193
 31
0.0
 40
0.5222227929
 41
-1.279855435
 42
-1.2718070377
  0
ELLIPSE
  5
50C
100
AcDbEntity
  8
0
100
AcDbEllipse
 62
7
  6
CONTINUOUS
 10
295.1834346774
 20
126.8802314677
 30
0.0
 11
0.0
 21
154.723976036
 31
0.0
 40
0.1958326096
 41
-1.2838723132
 42
-1.279855435
  0
ELLIPSE
  5
50D
100
AcDbEntity
  8
0
100
AcDbEllipse
 62
7
  6
CONTINUOUS
 10
295.1834346774
 20
212.2209904287
 30
0.0
 11
0.0
 21
154.723976036
 31
0.0
 40
0.1958326096
 41
-1.8617372185
 42
-1.8577203404
  0
ELLIPSE
  5
50E
100
AcDbEntity
  8
0
100
AcDbEllipse
 62
7
  6
CONTINUOUS
 10
295.1834346774
 20
184.4814293567
 30
0.0
 11
0.0
 21
58.0211590125
 31
0.0
 40
0.5222232805
 41
-1.8697856159
 42
-1.8617372185
  0
ELLIPSE
  5
50F
100
AcDbEntity
  8
0
100
AcDbEllipse
 62
7
  6
CONTINUOUS
 10
295.1834346774
 20
174.9867838801
 30
0.0
 11
30.3
 21
0.0
 31
0.0
 40
0.8510640264
 41
-0.3110996044
 42
-0.2989892891
  0
ELLIPSE
  5
510
100
AcDbEntity
  8
0
100
AcDbEllipse
 62
7
  6
CONTINUOUS
 10
295.1834346774
 20
170.0532733815
 30
0.0
 11
30.3
 21
0.0
 31
0.0
 40
0.3191492025
 41
-0.3273207321
 42
-0.3110996044
  0
ELLIPSE
  5
511
100
AcDbEntity
  8
0
100
AcDbEllipse
 62
7
  6
CONTINUOUS
 10
295.1834346774
 20
169.0479488278
 30
0.0
 11
30.0
 21
0.0
 31
0.0
 40
0.3191492025
 41
0.3143166776
 42
0.330718038
  0
ELLIPSE
  5
512
100
AcDbEntity
  8
0
100
AcDbEllipse
 62
7
  6
CONTINUOUS
 10
295.1834346774
 20
164.1144410934
 30
0.0
 11
30.0
 21
-0.0
 31
0.0
 40
0.8510637283
 41
0.3020730513
 42
0.3143166776
  0
ELLIPSE
  5
513
100
AcDbEntity
  8
0
100
AcDbEllipse
 62
7
  6
CONTINUOUS
 10
295.1834346774
 20
154.6197769978
 30
0.0
 11
0.0
 21
57.4467457357
 31
0.0
 40
0.5222227929
 41
-1.2768597094
 42
-1.2687232755
  0
ELLIPSE
  5
514
100
AcDbEntity
  8
0
100
AcDbEllipse
 62
7
  6
CONTINUOUS
 10
295.1834346774
 20
126.8802314677
 30
0.0
 11
0.0
 21
153.1920554812
 31
0.0
 40
0.1958326096
 41
-1.2809203639
 42
-1.2768597094
  0
ELLIPSE
  5
515
100
AcDbEntity
  8
0
100
AcDbEllipse
 62
7
  6
CONTINUOUS
 10
295.1834346774
 20
212.2209904287
 30
0.0
 11
-0.0
 21
153.1920554812
 31
0.0
 40
0.1958326096
 41
-1.8647329442
 42
-1.8606722897
  0
ELLIPSE
  5
516
100
AcDbEntity
  8
0
100
AcDbEllipse
 62
7
  6
CONTINUOUS
 10
295.1834346774
 20
184.4814293567
 30
0.0
 11
-0.0
 21
57.4466920916
 31
0.0
 40
0.5222232805
 41
-1.8728693781
 42
-1.8647329442
  0
ELLIPSE
  5
517
100
AcDbEntity
  8
0
100
AcDbEllipse
 62
7
  6
CONTINUOUS
 10
295.1834346774
 20
174.9867838801
 30
0.0
 11
30.0
 21
0.0
 31
0.0
 40
0.8510640264
 41
-0.3143166776
 42
-0.3020730513
  0
ELLIPSE
  5
518
100
AcDbEntity
  8
0
100
AcDbEllipse
 62
7
  6
CONTINUOUS
 10
295.1834346774
 20
170.0532733815
 30
0.0
 11
30.0
 21
0.0
 31
0.0
 40
0.3191492025
 41
-0.330718038
 42
-0.3143166776
  0
ELLIPSE
  5
519
100
AcDbEntity
  8
0
100
AcDbEllipse
 62
7
  6
CONTINUOUS
 10
295.1834346774
 20
163.7421012601
 30
0.0
 11
30.0
 21
-0.0
 31
0.0
 40
0.4255318642
 41
0.7197100888
 42
0.7353319292
  0
ELLIPSE
  5
51A
100
AcDbEntity
  8
0
100
AcDbEllipse
 62
7
  6
CONTINUOUS
 10
295.1834346774
 20
146.9123275423
 30
0.0
 11
-0.0
 21
38.2978495131
 31
0.0
 40
0.7833338002
 41
-0.8613827923
 42
-0.851086238
  0
ELLIPSE
  5
51B
100
AcDbEntity
  8
0
100
AcDbEllipse
 62
7
  6
CONTINUOUS
 10
295.1834346774
 20
97.0186319012
 30
0.0
 11
0.0
 21
114.8937128961
 31
0.0
 40
0.2611108932
 41
-0.8664970119
 42
-0.8613827923
  0
ELLIPSE
  5
51C
100
AcDbEntity
  8
0
100
AcDbEllipse
 62
7
  6
CONTINUOUS
 10
295.1834346774
 20
245.3591859751
 30
0.0
 11
-0.0
 21
114.8937128961
 31
0.0
 40
0.2611108932
 41
-2.2802098613
 42
-2.2750956417
  0
ELLIPSE
  5
51D
100
AcDbEntity
  8
0
100
AcDbEllipse
 62
7
  6
CONTINUOUS
 10
295.1834346774
 20
195.465490334
 30
0.0
 11
0.0
 21
38.2978495131
 31
0.0
 40
0.7833338002
 41
-2.2905064156
 42
-2.2802098613
  0
ELLIPSE
  5
51E
100
AcDbEntity
  8
0
100
AcDbEllipse
 62
7
  6
CONTINUOUS
 10
295.1834346774
 20
178.6357166162
 30
0.0
 11
30.0
 21
0.0
 31
0.0
 40
0.4255318642
 41
-0.7353319292
 42
-0.7197100888
  0
ELLIPSE
  5
51F
100
AcDbEntity
  8
0
100
AcDbEllipse
 62
7
  6
CONTINUOUS
 10
295.1834346774
 20
240.8164231968
 30
0.0
 11
0.0
 21
154.7230907
 31
0.0
 40
0.1958337302
 41
-2.0619825313
 42
-2.0576209621
  0
ELLIPSE
  5
520
100
AcDbEntity
  8
0
100
AcDbEllipse
 62
7
  6
CONTINUOUS
 10
295.1834346774
 20
195.204890178
 30
0.0
 11
0.0
 21
58.0213250125
 31
0.0
 40
0.5222217864
 41
-2.0707363997
 42
-2.0619825313
  0
ELLIPSE
  5
521
100
AcDbEntity
  8
0
100
AcDbEllipse
 62
7
  6
CONTINUOUS
 10
295.1834346774
 20
179.7527418595
 30
0.0
 11
30.3
 21
0.0
 31
0.0
 40
0.8510640264
 41
-0.5131501564
 42
-0.4999400729
  0
ELLIPSE
  5
522
100
AcDbEntity
  8
0
100
AcDbEllipse
 62
7
  6
CONTINUOUS
 10
295.1834346774
 20
171.8405019112
 30
0.0
 11
30.3
 21
-0.0
 31
0.0
 40
0.3191487459
 41
-0.5309185385
 42
-0.5131501564
  0
ELLIPSE
  5
523
100
AcDbEntity
  8
0
100
AcDbEllipse
 62
7
  6
CONTINUOUS
 10
295.1834346774
 20
55.6146654416
 30
0.0
 11
0.0
 21
193.403863375
 31
0.0
 40
0.1566669842
 41
-0.9527021947
 42
-0.9479697162
  0
ELLIPSE
  5
524
100
AcDbEntity
  8
0
100
AcDbEllipse
 62
7
  6
CONTINUOUS
 10
295.1834346774
 20
122.859139561
 30
0.0
 11
0.0
 21
77.3616695617
 31
0.0
 40
0.3916668315
 41
-0.9621197864
 42
-0.9527021947
  0
ELLIPSE
  5
525
100
AcDbEntity
  8
0
100
AcDbEllipse
 62
7
  6
CONTINUOUS
 10
295.1834346774
 20
144.9761221901
 30
0.0
 11
-0.0
 21
38.680886728
 31
0.0
 40
0.7833326111
 41
-0.9807726916
 42
-0.9621197864
  0
ELLIPSE
  5
526
100
AcDbEntity
  8
0
100
AcDbEllipse
 62
7
  6
CONTINUOUS
 10
295.1834346774
 20
155.7367857982
 30
0.0
 11
30.3
 21
-0.0
 31
0.0
 40
0.6382975757
 41
0.571600851
 42
0.5900236352
  0
ELLIPSE
  5
527
100
AcDbEntity
  8
0
100
AcDbEllipse
 62
7
  6
CONTINUOUS
 10
295.1834346774
 20
100.9561892779
 30
0.0
 11
0.0
 21
100.5319223125
 31
0.0
 40
0.2984126764
 41
-0.8664970119
 42
-0.8249262592
  0
ELLIPSE
  5
528
100
AcDbEntity
  8
0
100
AcDbEllipse
 62
7
  6
CONTINUOUS
 10
295.1834346774
 20
162.0144392412
 30
0.0
 11
30.3
 21
-0.0
 31
0.0
 40
0.2553192382
 41
0.5488742833
 42
0.571600851
  0
ELLIPSE
  5
529
100
AcDbEntity
  8
0
100
AcDbEllipse
 62
7
  6
CONTINUOUS
 10
295.1834346774
 20
163.7421012601
 30
0.0
 11
30.3
 21
0.0
 31
0.0
 40
0.4255318642
 41
0.7110639809
 42
0.7264117019
  0
ELLIPSE
  5
52A
100
AcDbEntity
  8
0
100
AcDbEllipse
 62
7
  6
CONTINUOUS
 10
295.1834346774
 20
146.9123275423
 30
0.0
 11
-0.0
 21
38.6808280083
 31
0.0
 40
0.7833338002
 41
-0.8698521964
 42
-0.8597323459
  0
ELLIPSE
  5
52B
100
AcDbEntity
  8
0
100
AcDbEllipse
 62
7
  6
CONTINUOUS
 10
295.1834346774
 20
97.0186319012
 30
0.0
 11
0.0
 21
116.042650025
 31
0.0
 40
0.2611108932
 41
-0.8748797777
 42
-0.8698521964
  0
ELLIPSE
  5
52C
100
AcDbEntity
  8
0
100
AcDbEllipse
 62
7
  6
CONTINUOUS
 10
295.1834346774
 20
245.3591859751
 30
0.0
 11
0.0
 21
116.042650025
 31
0.0
 40
0.2611108932
 41
-2.2717404572
 42
-2.2667128759
  0
ELLIPSE
  5
52D
100
AcDbEntity
  8
0
100
AcDbEllipse
 62
7
  6
CONTINUOUS
 10
295.1834346774
 20
240.8164231968
 30
0.0
 11
0.0
 21
153.1911789109
 31
0.0
 40
0.1958337302
 41
-2.0673393596
 42
-2.0629215855
  0
ELLIPSE
  5
52E
100
AcDbEntity
  8
0
100
AcDbEllipse
 62
7
  6
CONTINUOUS
 10
295.1834346774
 20
195.204890178
 30
0.0
 11
-0.0
 21
57.446856448
 31
0.0
 40
0.5222217864
 41
-2.0762068468
 42
-2.0673393596
  0
ELLIPSE
  5
52F
100
AcDbEntity
  8
0
100
AcDbEllipse
 62
7
  6
CONTINUOUS
 10
295.1834346774
 20
179.7527418595
 30
0.0
 11
30.0
 21
-0.0
 31
0.0
 40
0.8510640264
 41
-0.5187941797
 42
-0.50541052
  0
ELLIPSE
  5
530
100
AcDbEntity
  8
0
100
AcDbEllipse
 62
7
  6
CONTINUOUS
 10
295.1834346774
 20
171.8405019112
 30
0.0
 11
30.0
 21
0.0
 31
0.0
 40
0.3191487459
 41
5.7485963778
 42
5.7643911275
  0
ELLIPSE
  5
531
100
AcDbEntity
  8
0
100
AcDbEllipse
 62
7
  6
CONTINUOUS
 10
295.1834346774
 20
195.465490334
 30
0.0
 11
-0.0
 21
38.6808280083
 31
0.0
 40
0.7833338002
 41
-2.2818603077
 42
-2.2717404572
  0
ELLIPSE
  5
532
100
AcDbEntity
  8
0
100
AcDbEllipse
 62
7
  6
CONTINUOUS
 10
295.1834346774
 20
178.6357166162
 30
0.0
 11
30.3
 21
0.0
 31
0.0
 40
0.4255318642
 41
-0.7264117019
 42
-0.7110639809
  0
ELLIPSE
  5
533
100
AcDbEntity
  8
0
100
AcDbEllipse
 62
7
  6
CONTINUOUS
 10
295.1834346774
 20
100.9561892779
 30
0.0
 11
-0.0
 21
101.5372415356
 31
0.0
 40
0.2984126764
 41
-0.8748797777
 42
-0.8340356931
  0
ELLIPSE
  5
534
100
AcDbEntity
  8
0
100
AcDbEllipse
 62
7
  6
CONTINUOUS
 10
295.1834346774
 20
55.6146654416
 30
0.0
 11
0.0
 21
191.4889736386
 31
0.0
 40
0.1566669842
 41
-0.9455737118
 42
-0.9407691871
  0
ELLIPSE
  5
535
100
AcDbEntity
  8
0
100
AcDbEllipse
 62
7
  6
CONTINUOUS
 10
295.1834346774
 20
122.859139561
 30
0.0
 11
0.0
 21
76.5957124373
 31
0.0
 40
0.3916668315
 41
-0.9551332125
 42
-0.9455737118
  0
ELLIPSE
  5
536
100
AcDbEntity
  8
0
100
AcDbEllipse
 62
7
  6
CONTINUOUS
 10
295.1834346774
 20
144.9761221901
 30
0.0
 11
0.0
 21
38.2979076515
 31
0.0
 40
0.7833326111
 41
-0.9740616641
 42
-0.9551332125
  0
ELLIPSE
  5
537
100
AcDbEntity
  8
0
100
AcDbEllipse
 62
7
  6
CONTINUOUS
 10
295.1834346774
 20
155.7367857982
 30
0.0
 11
30.0
 21
0.0
 31
0.0
 40
0.6382975757
 41
0.5780465519
 42
0.5967346627
  0
ELLIPSE
  5
538
100
AcDbEntity
  8
0
100
AcDbEllipse
 62
7
  6
CONTINUOUS
 10
295.1834346774
 20
162.0144392412
 30
0.0
 11
30.0
 21
-0.0
 31
0.0
 40
0.2553192382
 41
0.555001375
 42
0.5780465519
  0
ELLIPSE
  5
539
100
AcDbEntity
  8
0
100
AcDbEllipse
 62
7
  6
CONTINUOUS
 10
295.1834346774
 20
169.0479488278
 30
0.0
 11
30.3
 21
0.0
 31
0.0
 40
0.3191492025
 41
0.3110996044
 42
0.3273207321
  0
ENDSEC
  0
SECTION
  2
OBJECTS
  0
DICTIONARY
  5
C
100
AcDbDictionary
280
0
281
1
  3
ACAD_GROUP
350
D
  3
ACAD_MLINESTYLE
350
17
  3
ACAD_LAYOUT
350
1A
  3
ACAD_PLOTSETTINGS
350
19
  3
ACAD_PLOTSTYLENAME
350
E
  0
DICTIONARY
  5
D
102
{ACAD_REACTORS
330
C
102
}
100
AcDbDictionary
280
0
281
1
  0
ACDBDICTIONARYWDFLT
  5
E
102
{ACAD_REACTORS
330
C
102
}
100
AcDbDictionary
281
1
  3
Normal
350
F
100
AcDbDictionaryWithDefault
340
F
  0
DICTIONARY
  5
17
102
{ACAD_REACTORS
330
C
102
}
100
AcDbDictionary
280
0
281
1
  3
Standard
350
18
  0
DICTIONARY
  5
19
102
{ACAD_REACTORS
330
C
102
}
100
AcDbDictionary
281
1
  0
DICTIONARY
  5
1A
102
{ACAD_REACTORS
330
C
102
}
100
AcDbDictionary
281
1
  3
Model
350
53A
  3
Layout1
350
53B
  0
ACDBPLACEHOLDER
  5
F
102
{ACAD_REACTORS
330
E
102
}
  0
MLINESTYLE
  5
18
102
{ACAD_REACTORS
330
17
102
}
100
AcDbMlineStyle
  2
STANDARD
 70
0
  3

 62
256
 51
90.0
 52
90.0
 71
2
 49
0.5
 62
256
  6
BYLAYER
 49
-0.5
 62
256
  6
BYLAYER
  0
LAYOUT
  5
53A
102
{ACAD_REACTORS
330
1A
102
}
100
AcDbPlotSettings
  1

  2
none_device
  4
ISO_A3_(420.00_x_297.00_MM)
  6

 40
0.0
 41
0.0
 42
0.0
 43
0.0
 44
420.0
 45
297.0
 46
0.0
 47
0.0
 48
0.0
 49
0.0
140
0.0
141
0.0
142
1.0
143
1.0
 70
1024
 72
1
 73
0
 74
0
  7

 75
0
147
1.0
148
0.0
149
0.0
100
AcDbLayout
  1
Model
 70
0
 71
0
 10
0.0
 20
0.0
 11
420.0
 21
297.0
 12
0.0
 22
0.0
 32
0.0
 14
0.0
 24
0.0
 34
0.0
 15
0.0
 25
0.0
 35
0.0
146
0.0
 13
0.0
 23
0.0
 33
0.0
 16
1.0
 26
0.0
 36
0.0
 17
0.0
 27
1.0
 37
0.0
 76
0
330
209
345
0
346
0
  0
LAYOUT
  5
53B
102
{ACAD_REACTORS
330
1A
102
}
100
AcDbPlotSettings
  1

  2
none_device
  4
ISO_A3_(420.00_x_297.00_MM)
  6

 40
0.0
 41
0.0
 42
0.0
 43
0.0
 44
420.0
 45
297.0
 46
0.0
 47
0.0
 48
0.0
 49
0.0
140
0.0
141
0.0
142
1.0
143
1.0
 70
0
 72
1
 73
0
 74
0
  7

 75
0
147
1.0
148
0.0
149
0.0
100
AcDbLayout
  1
Layout1
 70
0
 71
1
 10
0.0
 20
0.0
 11
420.0
 21
297.0
 12
0.0
 22
0.0
 32
0.0
 14
0.0
 24
0.0
 34
0.0
 15
0.0
 25
0.0
 35
0.0
146
0.0
 13
0.0
 23
0.0
 33
0.0
 16
1.0
 26
0.0
 36
0.0
 17
0.0
 27
1.0
 37
0.0
 76
0
330
20A
345
0
346
0
  0
ENDSEC
  0
EOF
