999
DXF file: IRS-LT-M24-7907797-M35563-P-4.dxf
999
Pro/ENGINEER 2011490 by Parametric Technology Corporation
  0
SECTION
  2
HEADER
  9
$ACADVER
  1
AC1021
  9
$DWGCODEPAGE
  3
ANSI_1252
  9
$EXTMAX
 10
297.0
 20
210.0
 30
0.0
  9
$EXTMIN
 10
0.0
 20
0.0
 30
0.0
  9
$LIMMIN
 10
0.0
 20
0.0
  9
$LIMMAX
 10
297.0
 20
210.0
  9
$VIEWCTR
 10
148.5
 20
105.0
  9
$VIEWSIZE
 40
210.0
  9
$CLAYER
  8
0
  9
$LTSCALE
 40
16.335
  9
$CELTYPE
  6
BYLAYER
  9
$DIMSCALE
 40
1.0
  9
$DIMASZ
 40
3.5
  9
$DIMEXO
 40
1.85625
  9
$DIMDLI
 40
11.286
  9
$DIMEXE
 40
5.346
  9
$DIMCEN
 40
2.673
  9
$DIMLFAC
 40
1.0
  9
$DIMBLK
  1
_FILLED
  9
$DIMTXT
 40
3.5
  9
$DIMTOL
 70
1
  9
$DIMLIM
 70
0
  9
$DIMTFAC
 40
1.0
  9
$DIMTP
 40
0.005
  9
$DIMTM
 40
0.005
  9
$PDMODE
 70
3
  9
$PDSIZE
 40
0.3125
  9
$HANDSEED
  5
4E8
  9
$TILEMODE
 70
1
  9
$MEASUREMENT
 70
1
  9
$INSUNITS
 70
4
  0
ENDSEC
  0
SECTION
  2
CLASSES
  0
CLASS
  1
ACDBDICTIONARYWDFLT
  2
AcDbDictionaryWithDefault
  3
AutoCAD 2000
 90
0
 91
1
280
0
281
0
  0
CLASS
  1
ACDBPLACEHOLDER
  2
AcDbPlaceHolder
  3
AutoCAD 2000
 90
0
 91
1
280
0
281
0
  0
CLASS
  1
LAYOUT
  2
AcDbLayout
  3
AutoCAD 2000
 90
0
 91
0
280
0
281
0
  0
ENDSEC
  0
SECTION
  2
TABLES
  0
TABLE
  2
VPORT
  5
8
100
AcDbSymbolTable
 70
2
  0
VPORT
  5
1F4
100
AcDbSymbolTableRecord
100
AcDbViewportTableRecord
  2
*ACTIVE
 70
0
 10
0.0
 20
0.0
 11
1.0
 21
1.0
 12
148.5
 22
105.0
 13
0.0
 23
0.0
 14
1.0
 24
1.0
 15
0.0
 25
0.0
 16
0.0
 26
0.0
 36
1.0
 17
0.0
 27
0.0
 37
0.0
 40
210.0
 41
1.4142857143
 42
50.0
 43
0.0
 44
0.0
 50
0.0
 51
0.0
 71
0
 72
100
 73
1
 74
1
 75
0
 76
0
 77
0
 78
0
  0
ENDTAB
  0
TABLE
  2
LTYPE
  5
5
100
AcDbSymbolTable
 70
6
  0
LTYPE
  5
14
100
AcDbSymbolTableRecord
100
AcDbLinetypeTableRecord
  2
BYBLOCK
 70
0
  3

 72
65
 73
0
 40
0.0
  0
LTYPE
  5
15
100
AcDbSymbolTableRecord
100
AcDbLinetypeTableRecord
  2
BYLAYER
 70
0
  3

 72
65
 73
0
 40
0.0
  0
LTYPE
  5
16
100
AcDbSymbolTableRecord
100
AcDbLinetypeTableRecord
  2
CONTINUOUS
 70
64
  3
Solid line
 72
65
 73
0
 40
0.0
  0
LTYPE
  5
1F5
100
AcDbSymbolTableRecord
100
AcDbLinetypeTableRecord
  2
CENTER
 70
64
  3
____ _ ____ _ ____ _ ____ _ ____ _ ____ _ ____
 72
65
 73
4
 40
0.6
 49
0.375
 74
0
 49
-0.075
 74
0
 49
0.075
 74
0
 49
-0.075
 74
0
  0
LTYPE
  5
1F6
100
AcDbSymbolTableRecord
100
AcDbLinetypeTableRecord
  2
HIDDEN
 70
64
  3
- - - - - - - - - - - - - - - - - - - -
 72
65
 73
2
 40
0.2
 49
0.1
 74
0
 49
-0.1
 74
0
  0
LTYPE
  5
1F7
100
AcDbSymbolTableRecord
100
AcDbLinetypeTableRecord
  2
PHANTOM
 70
64
  3
_____ _ _ _____ _ _ _____ _ _ _____
 72
65
 73
6
 40
0.8
 49
0.45
 74
0
 49
-0.05
 74
0
 49
0.1
 74
0
 49
-0.05
 74
0
 49
0.1
 74
0
 49
-0.05
 74
0
  0
LTYPE
  5
1F8
100
AcDbSymbolTableRecord
100
AcDbLinetypeTableRecord
  2
DOT
 70
64
  3
. . . . . . . . . . . . . . . . . . . .
 72
65
 73
2
 40
0.2
 49
0.1
 74
0
 49
-0.1
 74
0
  0
LTYPE
  5
1F9
100
AcDbSymbolTableRecord
100
AcDbLinetypeTableRecord
  2
DASHED
 70
64
  3
- - - - - - - - - - - - - - - - - - - -
 72
65
 73
2
 40
0.2
 49
0.1
 74
0
 49
-0.1
 74
0
  0
ENDTAB
  0
TABLE
  2
LAYER
  5
2
100
AcDbSymbolTable
 70
36
  0
LAYER
  5
10
100
AcDbSymbolTableRecord
100
AcDbLayerTableRecord
  2
0
 70
0
 62
7
  6
CONTINUOUS
370
-3
390
F
  0
LAYER
  5
1FA
100
AcDbSymbolTableRecord
100
AcDbLayerTableRecord
  2
DEFAULT_1
 70
0
 62
7
  6
CENTER
370
-3
390
F
  0
LAYER
  5
1FB
100
AcDbSymbolTableRecord
100
AcDbLayerTableRecord
  2
DEFAULT_2
 70
0
 62
8
  6
HIDDEN
370
-3
390
F
  0
LAYER
  5
1FC
100
AcDbSymbolTableRecord
100
AcDbLayerTableRecord
  2
DEFAULT_3
 70
0
 62
7
  6
PHANTOM
370
-3
390
F
  0
LAYER
  5
1FD
100
AcDbSymbolTableRecord
100
AcDbLayerTableRecord
  2
B-ACHSEN
 70
0
 62
7
  6
CONTINUOUS
370
-3
390
F
  0
LAYER
  5
1FE
100
AcDbSymbolTableRecord
100
AcDbLayerTableRecord
  2
B-EBENEN
 70
0
 62
7
  6
CONTINUOUS
370
-3
390
F
  0
LAYER
  5
1FF
100
AcDbSymbolTableRecord
100
AcDbLayerTableRecord
  2
B-KOORSYS
 70
0
 62
7
  6
CONTINUOUS
370
-3
390
F
  0
LAYER
  5
200
100
AcDbSymbolTableRecord
100
AcDbLayerTableRecord
  2
B-PUNKTE
 70
0
 62
7
  6
CONTINUOUS
370
-3
390
F
  0
LAYER
  5
201
100
AcDbSymbolTableRecord
100
AcDbLayerTableRecord
  2
BEMASSUNG
 70
0
 62
7
  6
CONTINUOUS
370
-3
390
F
  0
LAYER
  5
202
100
AcDbSymbolTableRecord
100
AcDbLayerTableRecord
  2
BOHRUNGEN
 70
0
 62
7
  6
CONTINUOUS
370
-3
390
F
  0
LAYER
  5
203
100
AcDbSymbolTableRecord
100
AcDbLayerTableRecord
  2
FLAECHEN
 70
0
 62
7
  6
CONTINUOUS
370
-3
390
F
  0
LAYER
  5
204
100
AcDbSymbolTableRecord
100
AcDbLayerTableRecord
  2
NOTIZEN
 70
0
 62
7
  6
CONTINUOUS
370
-3
390
F
  0
LAYER
  5
205
100
AcDbSymbolTableRecord
100
AcDbLayerTableRecord
  2
RUNDUNGEN
 70
0
 62
7
  6
CONTINUOUS
370
-3
390
F
  0
LAYER
  5
206
100
AcDbSymbolTableRecord
100
AcDbLayerTableRecord
  2
VERBUNDFLAECHEN
 70
0
 62
7
  6
CONTINUOUS
370
-3
390
F
  0
LAYER
  5
207
100
AcDbSymbolTableRecord
100
AcDbLayerTableRecord
  2
ZEICHNUNGSBEMASSUNGEN
 70
0
 62
7
  6
CONTINUOUS
370
-3
390
F
  0
ENDTAB
  0
TABLE
  2
STYLE
  5
3
100
AcDbSymbolTable
 70
1
  0
STYLE
  5
11
100
AcDbSymbolTableRecord
100
AcDbTextStyleTableRecord
  2
STANDARD
 70
0
 40
0.0
 41
0.7
 50
0.0
 71
0
 42
0.2
  3
txt
  4

  0
STYLE
  5
208
100
AcDbSymbolTableRecord
100
AcDbTextStyleTableRecord
  2
TEXTSTYLE_1
 70
0
 40
0.0
 41
0.8
 50
0.0
 71
0
 42
0.2
  3
gdt
  4

  0
ENDTAB
  0
TABLE
  2
VIEW
  5
6
100
AcDbSymbolTable
 70
0
  0
ENDTAB
  0
TABLE
  2
UCS
  5
7
100
AcDbSymbolTable
 70
0
  0
ENDTAB
  0
TABLE
  2
APPID
  5
9
100
AcDbSymbolTable
 70
1
  0
APPID
  5
209
100
AcDbSymbolTableRecord
100
AcDbRegAppTableRecord
  2
ACAD
 70
0
  0
ENDTAB
  0
TABLE
  2
BLOCK_RECORD
  5
1
100
AcDbSymbolTable
 70
0
  0
BLOCK_RECORD
  5
20A
100
AcDbSymbolTableRecord
100
AcDbBlockTableRecord
  2
*Model_Space
  0
BLOCK_RECORD
  5
20B
100
AcDbSymbolTableRecord
100
AcDbBlockTableRecord
  2
*Paper_Space
  0
ENDTAB
  0
TABLE
  2
DIMSTYLE
  5
A
100
AcDbSymbolTable
 70
1
100
AcDbDimStyleTable
 71
0
  0
DIMSTYLE
105
20C
100
AcDbSymbolTableRecord
100
AcDbDimStyleTableRecord
  2
STANDARD
 70
0
  3

  4

 40
1.0
 41
3.5
 42
0.0625
 43
0.38
 44
0.18
 45
0.0
 46
0.0
 47
0.005
 48
0.005
140
3.5
141
0.09
142
0.0
143
25.4
144
1.0
145
0.0
146
1.0
147
0.09
 71
1.0
 72
0.0
 73
0
 74
0
 75
0
 76
0
 77
1
 78
8
170
0
171
2
172
0
173
0
174
0
175
0
176
0
177
0
178
5
270
2
271
3
272
3
273
2
274
2
275
0
280
0
281
0
282
0
283
1
284
8
285
0
286
0
287
3
288
0
340
11
  0
ENDTAB
  0
ENDSEC
  0
SECTION
  2
BLOCKS
  0
BLOCK
  5
20
100
AcDbEntity
  8
0
100
AcDbBlockBegin
  2
*Model_Space
 70
0
 10
0.0
 20
0.0
 30
0.0
  3
*Model_Space
  1

  0
ENDBLK
  5
21
100
AcDbEntity
  8
0
100
AcDbBlockEnd
  0
BLOCK
  5
1C
100
AcDbEntity
  8
0
100
AcDbBlockBegin
  2
*Paper_Space
 70
0
 10
0.0
 20
0.0
 30
0.0
  3
*Paper_Space
  1

  0
ENDBLK
  5
1D
100
AcDbEntity
  8
0
100
AcDbBlockEnd
  0
ENDSEC
  0
SECTION
  2
ENTITIES
  0
MTEXT
  5
20D
100
AcDbEntity
  8
0
100
AcDbMText
 62
5
  6
CONTINUOUS
  7
STANDARD
 71
1
 72
1
 10
219.0457495687
 20
129.3719844081
 30
0.0
 11
0.0
 21
1.0
 31
0.0
 44
0.9
  1
RUD
 40
4.5
 41
11.1428571429
  0
MTEXT
  5
20E
100
AcDbEntity
  8
0
100
AcDbMText
 62
5
  6
CONTINUOUS
  7
STANDARD
 71
1
 72
1
 10
229.2740817864
 20
128.5117179099
 30
0.0
 11
0.0
 21
1.0
 31
0.0
 44
0.9
  1
IRS-LT M24
 40
4.5
 41
35.25
  0
MTEXT
  5
20F
100
AcDbEntity
  8
0
100
AcDbMText
 62
5
  6
CONTINUOUS
  7
STANDARD
 71
1
 72
1
 10
94.9169167866
 20
42.8217998685
 30
0.0
 11
1.0
 21
0.0
 31
0.0
 44
0.9
  1
RUD
 40
4.5
 41
11.1428571429
  0
MTEXT
  5
210
100
AcDbEntity
  8
0
100
AcDbMText
 62
5
  6
CONTINUOUS
  7
STANDARD
 71
1
 72
1
 10
94.0981169373
 20
32.7748777806
 30
0.0
 11
1.0
 21
0.0
 31
0.0
 44
0.9
  1
IRS-LT M24
 40
4.5
 41
35.25
  0
LINE
  5
211
100
AcDbEntity
  8
0
100
AcDbLine
 62
7
  6
CONTINUOUS
 10
0.0
 20
0.0
 11
0.0
 21
210.0
  0
LINE
  5
212
100
AcDbEntity
  8
0
100
AcDbLine
 62
7
  6
CONTINUOUS
 10
0.0
 20
0.0
 11
297.0
 21
0.0
  0
LINE
  5
213
100
AcDbEntity
  8
0
100
AcDbLine
 62
7
  6
CONTINUOUS
 10
0.0
 20
210.0
 11
297.0
 21
210.0
  0
LINE
  5
214
100
AcDbEntity
  8
0
100
AcDbLine
 62
7
  6
CONTINUOUS
 10
297.0
 20
0.0
 11
297.0
 21
210.0
  0
LINE
  5
215
100
AcDbEntity
  8
B-ACHSEN
100
AcDbLine
 62
7
  6
CONTINUOUS
 10
102.3290632925
 20
76.1526121154
 11
81.3290632925
 21
76.1526121154
  0
LINE
  5
216
100
AcDbEntity
  8
RUNDUNGEN
100
AcDbLine
 62
7
  6
CONTINUOUS
 10
60.4490218385
 20
190.1974379699
 11
90.298329563
 21
202.5614260569
  0
LINE
  5
217
100
AcDbEntity
  8
B-ACHSEN
100
AcDbLine
 62
7
  6
CONTINUOUS
 10
103.8290632925
 20
77.6526121154
 11
79.8290632925
 21
77.6526121154
  0
LINE
  5
218
100
AcDbEntity
  8
0
100
AcDbLine
 62
7
  6
CONTINUOUS
 10
74.9280240087
 20
192.092972174
 11
75.3244524757
 21
192.3608115049
  0
LINE
  5
219
100
AcDbEntity
  8
0
100
AcDbLine
 62
7
  6
CONTINUOUS
 10
75.2278668534
 20
192.8389708473
 11
74.6582106437
 21
192.499378236
  0
LINE
  5
21A
100
AcDbEntity
  8
0
100
AcDbLine
 62
7
  6
CONTINUOUS
 10
80.1648476096
 20
194.8839352338
 11
79.6451653726
 21
194.6686758031
  0
LINE
  5
21B
100
AcDbEntity
  8
0
100
AcDbLine
 62
7
  6
CONTINUOUS
 10
75.5743213477
 20
192.9824769976
 11
75.2278668534
 21
192.8389708473
  0
LINE
  5
21C
100
AcDbEntity
  8
0
100
AcDbLine
 62
7
  6
CONTINUOUS
 10
73.0625240338
 20
191.9420564843
 11
72.2830006783
 21
191.6191673383
  0
LINE
  5
21D
100
AcDbEntity
  8
0
100
AcDbLine
 62
7
  6
CONTINUOUS
 10
69.6845894931
 20
190.5428701847
 11
68.9050661375
 21
190.2199810387
  0
LINE
  5
21E
100
AcDbEntity
  8
0
100
AcDbLine
 62
7
  6
CONTINUOUS
 10
75.3244524757
 20
192.3608115049
 11
75.6709074655
 21
192.5043178605
  0
LINE
  5
21F
100
AcDbEntity
  8
0
100
AcDbLine
 62
7
  6
CONTINUOUS
 10
74.2450862754
 20
191.2919236855
 11
74.6781546411
 21
191.471306476
  0
LINE
  5
220
100
AcDbEntity
  8
0
100
AcDbLine
 62
7
  6
CONTINUOUS
 10
82.0202627005
 20
192.8543743856
 11
81.154124978
 21
192.4956083941
  0
LINE
  5
221
100
AcDbEntity
  8
0
100
AcDbLine
 62
7
  6
CONTINUOUS
 10
80.634442741
 20
192.2803489634
 11
79.1620103968
 21
191.6704475167
  0
LINE
  5
222
100
AcDbEntity
  8
0
100
AcDbLine
 62
7
  6
CONTINUOUS
 10
78.7755532365
 20
190.888571874
 11
80.8542821847
 21
191.7496095968
  0
LINE
  5
223
100
AcDbEntity
  8
0
100
AcDbLine
 62
7
  6
CONTINUOUS
 10
81.3739644217
 20
191.9648690275
 11
82.2401021443
 21
192.3236350191
  0
LINE
  5
224
100
AcDbEntity
  8
0
100
AcDbLine
 62
7
  6
CONTINUOUS
 10
78.4124028666
 20
189.8054504422
 11
75.9872194241
 21
188.8009065691
  0
LINE
  5
225
100
AcDbEntity
  8
B-ACHSEN
100
AcDbLine
 62
7
  6
CONTINUOUS
 10
79.8290632925
 20
77.6526121154
 11
81.3290632925
 21
76.1526121154
  0
LINE
  5
226
100
AcDbEntity
  8
RUNDUNGEN
100
AcDbLine
 62
7
  6
CONTINUOUS
 10
45.804333163
 20
157.866271227
 11
45.920249351
 21
158.1833458449
  0
LINE
  5
227
100
AcDbEntity
  8
RUNDUNGEN
100
AcDbLine
 62
7
  6
CONTINUOUS
 10
45.920249351
 20
158.1833458449
 11
58.284237438
 21
188.0326535693
  0
LINE
  5
228
100
AcDbEntity
  8
0
100
AcDbLine
 62
7
  6
CONTINUOUS
 10
74.6582106437
 20
192.499378236
 11
74.3850354513
 21
192.1789587995
  0
LINE
  5
229
100
AcDbEntity
  8
0
100
AcDbLine
 62
7
  6
CONTINUOUS
 10
70.6271415832
 20
186.0625231424
 11
71.1468238202
 21
186.2777825731
  0
LINE
  5
22A
100
AcDbEntity
  8
0
100
AcDbLine
 62
7
  6
CONTINUOUS
 10
72.3594156653
 20
186.7800545609
 11
73.0523252734
 21
187.0670671181
  0
LINE
  5
22B
100
AcDbEntity
  8
0
100
AcDbLine
 62
7
  6
CONTINUOUS
 10
74.2649172425
 20
187.5693391573
 11
74.7845994795
 21
187.784598588
  0
LINE
  5
22C
100
AcDbEntity
  8
0
100
AcDbLine
 62
7
  6
CONTINUOUS
 10
75.4775089637
 20
188.0716110939
 11
78.5956023859
 21
189.3631676781
  0
LINE
  5
22D
100
AcDbEntity
  8
0
100
AcDbLine
 62
7
  6
CONTINUOUS
 10
81.3672408182
 20
190.5112179068
 11
81.8869230553
 21
190.7264773375
  0
LINE
  5
22E
100
AcDbEntity
  8
0
100
AcDbLine
 62
7
  6
CONTINUOUS
 10
74.7414626877
 20
191.8084293778
 11
74.9280240087
 21
192.092972174
  0
LINE
  5
22F
100
AcDbEntity
  8
0
100
AcDbLine
 62
7
  6
CONTINUOUS
 10
103.9531848195
 20
190.2372042643
 11
104.3595855458
 21
190.4834007417
  0
LINE
  5
230
100
AcDbEntity
  8
0
100
AcDbLine
 62
7
  6
CONTINUOUS
 10
110.3790682857
 20
192.0317479138
 11
107.3110619691
 21
190.5044587969
  0
LINE
  5
231
100
AcDbEntity
  8
0
100
AcDbLine
 62
7
  6
CONTINUOUS
 10
107.9173580776
 20
190.253322726
 11
110.0859490958
 21
191.3240955902
  0
LINE
  5
232
100
AcDbEntity
  8
RUNDUNGEN
100
AcDbLine
 62
7
  6
CONTINUOUS
 10
58.5347367672
 20
124.6678117835
 11
45.920249351
 21
155.121878386
  0
LINE
  5
233
100
AcDbEntity
  8
0
100
AcDbLine
 62
7
  6
CONTINUOUS
 10
74.3850354513
 20
192.1789587995
 11
74.1851405519
 21
191.6816264875
  0
LINE
  5
234
100
AcDbEntity
  8
0
100
AcDbLine
 62
7
  6
CONTINUOUS
 10
76.8034958371
 20
191.7298516333
 11
75.2943094444
 21
188.513893858
  0
LINE
  5
235
100
AcDbEntity
  8
0
100
AcDbLine
 62
7
  6
CONTINUOUS
 10
75.9872194241
 20
188.8009065691
 11
77.346483899
 21
191.6438648024
  0
LINE
  5
236
100
AcDbEntity
  8
0
100
AcDbLine
 62
7
  6
CONTINUOUS
 10
104.1230505255
 20
190.8922766779
 11
103.8399033087
 21
190.6986601724
  0
LINE
  5
237
100
AcDbEntity
  8
B-ACHSEN
100
AcDbLine
 62
7
  6
CONTINUOUS
 10
103.8290632925
 20
104.1526121154
 11
79.8290632925
 21
104.1526121154
  0
LINE
  5
238
100
AcDbEntity
  8
B-ACHSEN
100
AcDbLine
 62
7
  6
CONTINUOUS
 10
101.6290632925
 20
106.3526121154
 11
82.0290632925
 21
106.3526121154
  0
LINE
  5
239
100
AcDbEntity
  8
0
100
AcDbLine
 62
7
  6
CONTINUOUS
 10
74.6781546411
 20
191.471306476
 11
74.7414626877
 21
191.8084293778
  0
LINE
  5
23A
100
AcDbEntity
  8
0
100
AcDbLine
 62
7
  6
CONTINUOUS
 10
79.6451653726
 20
194.6686758031
 11
78.5557137928
 21
191.4193112405
  0
LINE
  5
23B
100
AcDbEntity
  8
0
100
AcDbLine
 62
7
  6
CONTINUOUS
 10
79.1620103968
 20
191.6704475167
 11
79.9382845624
 21
193.9610234795
  0
LINE
  5
23C
100
AcDbEntity
  8
0
100
AcDbLine
 62
7
  6
CONTINUOUS
 10
104.3595855458
 20
190.4834007417
 11
104.71601256
 21
190.8539303281
  0
LINE
  5
23D
100
AcDbEntity
  8
0
100
AcDbLine
 62
7
  6
CONTINUOUS
 10
105.6354850657
 20
189.6440060061
 11
104.7127641391
 21
188.8862432654
  0
LINE
  5
23E
100
AcDbEntity
  8
0
100
AcDbLine
 62
7
  6
CONTINUOUS
 10
105.1458327526
 20
188.7068603722
 11
106.068553927
 21
189.4646230103
  0
LINE
  5
23F
100
AcDbEntity
  8
B-ACHSEN
100
AcDbLine
 62
7
  6
CONTINUOUS
 10
66.8290632925
 20
112.1526121154
 11
116.8290632925
 21
112.1526121154
  0
LINE
  5
240
100
AcDbEntity
  8
0
100
AcDbLine
 62
7
  6
CONTINUOUS
 10
77.7790632925
 20
115.7802716858
 11
78.2790631017
 21
115.6526121154
  0
LINE
  5
241
100
AcDbEntity
  8
0
100
AcDbLine
 62
7
  6
CONTINUOUS
 10
78.2790631017
 20
116.4185695603
 11
77.8790634832
 21
116.5462291196
  0
LINE
  5
242
100
AcDbEntity
  8
0
100
AcDbLine
 62
7
  6
CONTINUOUS
 10
77.3790631017
 20
116.0355908379
 11
77.7790632925
 21
115.7802716858
  0
LINE
  5
243
100
AcDbEntity
  8
0
100
AcDbLine
 62
7
  6
CONTINUOUS
 10
77.8790634832
 20
116.5462291196
 11
77.5790634832
 21
116.8015483275
  0
LINE
  5
244
100
AcDbEntity
  8
0
100
AcDbLine
 62
7
  6
CONTINUOUS
 10
76.9790634832
 20
116.5462291196
 11
77.3790631017
 21
116.0355908379
  0
LINE
  5
245
100
AcDbEntity
  8
B-ACHSEN
100
AcDbLine
 62
7
  6
CONTINUOUS
 10
66.8290632925
 20
112.1526121154
 11
66.8290632925
 21
117.741836932
  0
LINE
  5
246
100
AcDbEntity
  8
0
100
AcDbLine
 62
7
  6
CONTINUOUS
 10
77.346483899
 20
191.6438648024
 11
77.4097919456
 21
191.9809877042
  0
LINE
  5
247
100
AcDbEntity
  8
0
100
AcDbLine
 62
7
  6
CONTINUOUS
 10
104.3195838453
 20
191.1217697617
 11
104.1230505255
 21
190.8922766779
  0
LINE
  5
248
100
AcDbEntity
  8
0
100
AcDbLine
 62
7
  6
CONTINUOUS
 10
98.8790640554
 20
115.6526121154
 11
99.3790632925
 21
115.7802716858
  0
LINE
  5
249
100
AcDbEntity
  8
0
100
AcDbLine
 62
7
  6
CONTINUOUS
 10
83.4790632925
 20
115.6526121154
 11
83.9790636739
 21
115.7802716858
  0
LINE
  5
24A
100
AcDbEntity
  8
0
100
AcDbLine
 62
7
  6
CONTINUOUS
 10
72.0790632925
 20
115.6526121154
 11
72.6790632925
 21
115.6526121154
  0
LINE
  5
24B
100
AcDbEntity
  8
0
100
AcDbLine
 62
7
  6
CONTINUOUS
 10
75.1790631971
 20
115.6526121154
 11
75.8790633878
 21
115.6526121154
  0
LINE
  5
24C
100
AcDbEntity
  8
0
100
AcDbLine
 62
7
  6
CONTINUOUS
 10
78.2790631017
 20
115.6526121154
 11
78.6790632925
 21
115.6526121154
  0
LINE
  5
24D
100
AcDbEntity
  8
0
100
AcDbLine
 62
7
  6
CONTINUOUS
 10
81.0790632925
 20
115.6526121154
 11
83.4790632925
 21
115.6526121154
  0
LINE
  5
24E
100
AcDbEntity
  8
0
100
AcDbLine
 62
7
  6
CONTINUOUS
 10
90.6790632925
 20
115.6526121154
 11
91.2790632925
 21
115.6526121154
  0
LINE
  5
24F
100
AcDbEntity
  8
0
100
AcDbLine
 62
7
  6
CONTINUOUS
 10
92.0790625295
 20
115.6526121154
 11
92.6790625295
 21
115.6526121154
  0
LINE
  5
250
100
AcDbEntity
  8
0
100
AcDbLine
 62
7
  6
CONTINUOUS
 10
95.1790632925
 20
115.6526121154
 11
95.8790640554
 21
115.6526121154
  0
LINE
  5
251
100
AcDbEntity
  8
0
100
AcDbLine
 62
7
  6
CONTINUOUS
 10
98.0790625295
 20
115.6526121154
 11
98.8790640554
 21
115.6526121154
  0
LINE
  5
252
100
AcDbEntity
  8
0
100
AcDbLine
 62
7
  6
CONTINUOUS
 10
103.3790640554
 20
115.6526121154
 11
106.9790640554
 21
115.6526121154
  0
LINE
  5
253
100
AcDbEntity
  8
0
100
AcDbLine
 62
7
  6
CONTINUOUS
 10
109.3790640554
 20
115.6526121154
 11
109.9790640554
 21
115.6526121154
  0
LINE
  5
254
100
AcDbEntity
  8
0
100
AcDbLine
 62
7
  6
CONTINUOUS
 10
106.9790640554
 20
116.4185695603
 11
103.9790640554
 21
116.4185695603
  0
LINE
  5
255
100
AcDbEntity
  8
0
100
AcDbLine
 62
7
  6
CONTINUOUS
 10
98.8790640554
 20
116.4185695603
 11
98.0790625295
 21
116.4185695603
  0
LINE
  5
256
100
AcDbEntity
  8
0
100
AcDbLine
 62
7
  6
CONTINUOUS
 10
83.4790632925
 20
116.4185695603
 11
81.6790632925
 21
116.4185695603
  0
LINE
  5
257
100
AcDbEntity
  8
0
100
AcDbLine
 62
7
  6
CONTINUOUS
 10
78.6790632925
 20
116.4185695603
 11
78.2790631017
 21
116.4185695603
  0
LINE
  5
258
100
AcDbEntity
  8
0
100
AcDbLine
 62
7
  6
CONTINUOUS
 10
97.2790632925
 20
117.3121865645
 11
96.6790632925
 21
117.3121865645
  0
LINE
  5
259
100
AcDbEntity
  8
0
100
AcDbLine
 62
7
  6
CONTINUOUS
 10
101.1790632925
 20
117.8228248015
 11
102.5790625295
 21
117.8228248015
  0
LINE
  5
25A
100
AcDbEntity
  8
0
100
AcDbLine
 62
7
  6
CONTINUOUS
 10
72.6790632925
 20
118.3334632173
 11
74.3790632448
 21
118.3334632173
  0
LINE
  5
25B
100
AcDbEntity
  8
0
100
AcDbLine
 62
7
  6
CONTINUOUS
 10
92.6790625295
 20
118.3334632173
 11
94.3790640554
 21
118.3334632173
  0
LINE
  5
25C
100
AcDbEntity
  8
0
100
AcDbLine
 62
7
  6
CONTINUOUS
 10
98.2790640554
 20
118.3334632173
 11
98.8790640554
 21
118.3334632173
  0
LINE
  5
25D
100
AcDbEntity
  8
0
100
AcDbLine
 62
7
  6
CONTINUOUS
 10
102.5790625295
 20
118.4611227765
 11
101.1790632925
 21
118.4611227765
  0
LINE
  5
25E
100
AcDbEntity
  8
0
100
AcDbLine
 62
7
  6
CONTINUOUS
 10
98.8790640554
 20
119.0994205728
 11
98.2790640554
 21
119.0994205728
  0
LINE
  5
25F
100
AcDbEntity
  8
0
100
AcDbLine
 62
7
  6
CONTINUOUS
 10
94.5790632925
 20
119.0994205728
 11
92.6790625295
 21
119.0994205728
  0
LINE
  5
260
100
AcDbEntity
  8
0
100
AcDbLine
 62
7
  6
CONTINUOUS
 10
74.5790631971
 20
119.0994205728
 11
72.6790632925
 21
119.0994205728
  0
LINE
  5
261
100
AcDbEntity
  8
0
100
AcDbLine
 62
7
  6
CONTINUOUS
 10
74.9790633878
 20
121.5249525562
 11
74.4790632925
 21
121.6526121154
  0
LINE
  5
262
100
AcDbEntity
  8
0
100
AcDbLine
 62
7
  6
CONTINUOUS
 10
97.5790632925
 20
115.7802716858
 11
98.0790625295
 21
115.6526121154
  0
LINE
  5
263
100
AcDbEntity
  8
0
100
AcDbLine
 62
7
  6
CONTINUOUS
 10
83.4790632925
 20
120.8866547599
 11
83.879062911
 21
120.7589952007
  0
LINE
  5
264
100
AcDbEntity
  8
0
100
AcDbLine
 62
7
  6
CONTINUOUS
 10
74.5790631971
 20
121.0143143192
 11
74.8790631971
 21
120.8866547599
  0
LINE
  5
265
100
AcDbEntity
  8
0
100
AcDbLine
 62
7
  6
CONTINUOUS
 10
75.3790632925
 20
121.1419738784
 11
74.9790633878
 21
121.5249525562
  0
LINE
  5
266
100
AcDbEntity
  8
0
100
AcDbLine
 62
7
  6
CONTINUOUS
 10
74.8790631971
 20
120.8866547599
 11
75.0790632925
 21
120.6313356414
  0
LINE
  5
267
100
AcDbEntity
  8
0
100
AcDbLine
 62
7
  6
CONTINUOUS
 10
75.6790632925
 20
120.6313356414
 11
75.3790632925
 21
121.1419738784
  0
LINE
  5
268
100
AcDbEntity
  8
0
100
AcDbLine
 62
7
  6
CONTINUOUS
 10
77.5790634832
 20
116.8015483275
 11
77.3790631017
 21
117.1845270052
  0
LINE
  5
269
100
AcDbEntity
  8
0
100
AcDbLine
 62
7
  6
CONTINUOUS
 10
76.7790633878
 20
117.056867446
 11
76.9790634832
 21
116.5462291196
  0
LINE
  5
26A
100
AcDbEntity
  8
0
100
AcDbLine
 62
7
  6
CONTINUOUS
 10
75.8790633878
 20
115.6526121154
 11
74.9790633878
 21
118.5887823358
  0
LINE
  5
26B
100
AcDbEntity
  8
0
100
AcDbLine
 62
7
  6
CONTINUOUS
 10
74.3790632448
 20
118.3334632173
 11
75.1790631971
 21
115.6526121154
  0
LINE
  5
26C
100
AcDbEntity
  8
0
100
AcDbLine
 62
7
  6
CONTINUOUS
 10
75.0790632925
 20
120.6313356414
 11
75.1790631971
 21
120.2483569637
  0
LINE
  5
26D
100
AcDbEntity
  8
0
100
AcDbLine
 62
7
  6
CONTINUOUS
 10
75.7790631971
 20
120.2483569637
 11
75.6790632925
 21
120.6313356414
  0
LINE
  5
26E
100
AcDbEntity
  8
0
100
AcDbLine
 62
7
  6
CONTINUOUS
 10
72.2830006783
 20
191.6191673383
 11
72.522671012
 21
187.3658436293
  0
LINE
  5
26F
100
AcDbEntity
  8
0
100
AcDbLine
 62
7
  6
CONTINUOUS
 10
73.0523252734
 20
187.0670671181
 11
72.9092407841
 21
190.8422316492
  0
LINE
  5
270
100
AcDbEntity
  8
0
100
AcDbLine
 62
7
  6
CONTINUOUS
 10
72.0790632925
 20
121.6526121154
 11
72.0790632925
 21
115.6526121154
  0
LINE
  5
271
100
AcDbEntity
  8
0
100
AcDbLine
 62
7
  6
CONTINUOUS
 10
72.6790632925
 20
115.6526121154
 11
72.6790632925
 21
118.3334632173
  0
LINE
  5
272
100
AcDbEntity
  8
0
100
AcDbLine
 62
7
  6
CONTINUOUS
 10
72.6790632925
 20
119.0994205728
 11
72.6790632925
 21
121.0143143192
  0
LINE
  5
273
100
AcDbEntity
  8
0
100
AcDbLine
 62
7
  6
CONTINUOUS
 10
75.1790631971
 20
120.2483569637
 11
75.1790631971
 21
119.8653779283
  0
LINE
  5
274
100
AcDbEntity
  8
0
100
AcDbLine
 62
7
  6
CONTINUOUS
 10
75.7790631971
 20
119.737718369
 11
75.7790631971
 21
120.2483569637
  0
LINE
  5
275
100
AcDbEntity
  8
0
100
AcDbLine
 62
7
  6
CONTINUOUS
 10
76.6790631971
 20
121.6526121154
 11
76.6790631971
 21
117.6951652422
  0
LINE
  5
276
100
AcDbEntity
  8
0
100
AcDbLine
 62
7
  6
CONTINUOUS
 10
76.8301634894
 20
192.1554308702
 11
76.8034958371
 21
191.7298516333
  0
LINE
  5
277
100
AcDbEntity
  8
0
100
AcDbLine
 62
7
  6
CONTINUOUS
 10
78.6790632925
 20
115.6526121154
 11
79.1790631017
 21
115.7802716858
  0
LINE
  5
278
100
AcDbEntity
  8
0
100
AcDbLine
 62
7
  6
CONTINUOUS
 10
99.4790640554
 20
120.2483569637
 11
100.0790640554
 21
120.2483569637
  0
LINE
  5
279
100
AcDbEntity
  8
0
100
AcDbLine
 62
7
  6
CONTINUOUS
 10
81.6790632925
 20
120.8866547599
 11
83.4790632925
 21
120.8866547599
  0
LINE
  5
27A
100
AcDbEntity
  8
0
100
AcDbLine
 62
7
  6
CONTINUOUS
 10
98.2790640554
 20
120.8866547599
 11
98.8790640554
 21
120.8866547599
  0
LINE
  5
27B
100
AcDbEntity
  8
0
100
AcDbLine
 62
7
  6
CONTINUOUS
 10
72.6790632925
 20
121.0143143192
 11
74.5790631971
 21
121.0143143192
  0
LINE
  5
27C
100
AcDbEntity
  8
0
100
AcDbLine
 62
7
  6
CONTINUOUS
 10
92.6790625295
 20
121.0143143192
 11
94.5790632925
 21
121.0143143192
  0
LINE
  5
27D
100
AcDbEntity
  8
0
100
AcDbLine
 62
7
  6
CONTINUOUS
 10
107.7790632925
 20
121.0143143192
 11
109.3790640554
 21
121.0143143192
  0
LINE
  5
27E
100
AcDbEntity
  8
0
100
AcDbLine
 62
7
  6
CONTINUOUS
 10
109.9790640554
 20
121.0143143192
 11
111.5790648184
 21
121.0143143192
  0
LINE
  5
27F
100
AcDbEntity
  8
0
100
AcDbLine
 62
7
  6
CONTINUOUS
 10
111.5790648184
 20
121.6526121154
 11
107.7790632925
 21
121.6526121154
  0
LINE
  5
280
100
AcDbEntity
  8
0
100
AcDbLine
 62
7
  6
CONTINUOUS
 10
103.9790640554
 20
121.6526121154
 11
103.3790640554
 21
121.6526121154
  0
LINE
  5
281
100
AcDbEntity
  8
0
100
AcDbLine
 62
7
  6
CONTINUOUS
 10
98.7790632925
 20
121.6526121154
 11
98.2790640554
 21
121.6526121154
  0
LINE
  5
282
100
AcDbEntity
  8
0
100
AcDbLine
 62
7
  6
CONTINUOUS
 10
94.4790625295
 20
121.6526121154
 11
92.0790625295
 21
121.6526121154
  0
LINE
  5
283
100
AcDbEntity
  8
0
100
AcDbLine
 62
7
  6
CONTINUOUS
 10
91.2790632925
 20
121.6526121154
 11
90.6790632925
 21
121.6526121154
  0
LINE
  5
284
100
AcDbEntity
  8
0
100
AcDbLine
 62
7
  6
CONTINUOUS
 10
83.4790632925
 20
121.6526121154
 11
81.0790632925
 21
121.6526121154
  0
LINE
  5
285
100
AcDbEntity
  8
0
100
AcDbLine
 62
7
  6
CONTINUOUS
 10
80.2790634832
 20
121.6526121154
 11
79.6790634832
 21
121.6526121154
  0
LINE
  5
286
100
AcDbEntity
  8
0
100
AcDbLine
 62
7
  6
CONTINUOUS
 10
77.2790634832
 20
121.6526121154
 11
76.6790631971
 21
121.6526121154
  0
LINE
  5
287
100
AcDbEntity
  8
0
100
AcDbLine
 62
7
  6
CONTINUOUS
 10
74.4790632925
 20
121.6526121154
 11
72.0790632925
 21
121.6526121154
  0
LINE
  5
288
100
AcDbEntity
  8
RUNDUNGEN
100
AcDbLine
 62
7
  6
CONTINUOUS
 10
123.737570519
 20
123.741836932
 11
120.856427367
 21
123.741836932
  0
LINE
  5
289
100
AcDbEntity
  8
RUNDUNGEN
100
AcDbLine
 62
7
  6
CONTINUOUS
 10
62.801699218
 20
123.741836932
 11
59.920556066
 21
123.741836932
  0
LINE
  5
28A
100
AcDbEntity
  8
0
100
AcDbLine
 62
7
  6
CONTINUOUS
 10
83.9790636739
 20
121.5249525562
 11
83.4790632925
 21
121.6526121154
  0
LINE
  5
28B
100
AcDbEntity
  8
0
100
AcDbLine
 62
7
  6
CONTINUOUS
 10
99.3790632925
 20
118.9717610135
 11
98.8790640554
 21
119.0994205728
  0
LINE
  5
28C
100
AcDbEntity
  8
0
100
AcDbLine
 62
7
  6
CONTINUOUS
 10
94.9790640554
 20
121.5249525562
 11
94.4790625295
 21
121.6526121154
  0
LINE
  5
28D
100
AcDbEntity
  8
0
100
AcDbLine
 62
7
  6
CONTINUOUS
 10
99.2790625295
 20
121.5249525562
 11
98.7790632925
 21
121.6526121154
  0
LINE
  5
28E
100
AcDbEntity
  8
0
100
AcDbLine
 62
7
  6
CONTINUOUS
 10
98.0790625295
 20
116.4185695603
 11
97.6790640554
 21
116.5462291196
  0
LINE
  5
28F
100
AcDbEntity
  8
0
100
AcDbLine
 62
7
  6
CONTINUOUS
 10
97.8790632925
 20
118.4611227765
 11
98.2790640554
 21
118.3334632173
  0
LINE
  5
290
100
AcDbEntity
  8
0
100
AcDbLine
 62
7
  6
CONTINUOUS
 10
98.8790640554
 20
118.3334632173
 11
99.2790625295
 21
118.205803658
  0
LINE
  5
291
100
AcDbEntity
  8
0
100
AcDbLine
 62
7
  6
CONTINUOUS
 10
98.2790640554
 20
119.0994205728
 11
97.9790640554
 21
119.227080132
  0
LINE
  5
292
100
AcDbEntity
  8
0
100
AcDbLine
 62
7
  6
CONTINUOUS
 10
94.5790632925
 20
121.0143143192
 11
94.8790632925
 21
120.8866547599
  0
LINE
  5
293
100
AcDbEntity
  8
0
100
AcDbLine
 62
7
  6
CONTINUOUS
 10
84.3790632925
 20
121.2696334377
 11
83.9790636739
 21
121.5249525562
  0
LINE
  5
294
100
AcDbEntity
  8
0
100
AcDbLine
 62
7
  6
CONTINUOUS
 10
97.0790640554
 20
116.1632503971
 11
97.5790632925
 21
115.7802716858
  0
LINE
  5
295
100
AcDbEntity
  8
0
100
AcDbLine
 62
7
  6
CONTINUOUS
 10
83.879062911
 20
120.7589952007
 11
84.179062911
 21
120.5036760822
  0
LINE
  5
296
100
AcDbEntity
  8
B-ACHSEN
100
AcDbLine
 62
7
  6
CONTINUOUS
 10
101.6290632925
 20
106.3526121154
 11
103.8290632925
 21
104.1526121154
  0
LINE
  5
297
100
AcDbEntity
  8
0
100
AcDbLine
 62
7
  6
CONTINUOUS
 10
84.779062911
 20
120.7589952007
 11
84.3790632925
 21
121.2696334377
  0
LINE
  5
298
100
AcDbEntity
  8
0
100
AcDbLine
 62
7
  6
CONTINUOUS
 10
84.179062911
 20
120.5036760822
 11
84.3790632925
 21
120.1206970468
  0
LINE
  5
299
100
AcDbEntity
  8
0
100
AcDbLine
 62
7
  6
CONTINUOUS
 10
77.3790631017
 20
117.1845270052
 11
77.2790634832
 21
117.6951652422
  0
LINE
  5
29A
100
AcDbEntity
  8
0
100
AcDbLine
 62
7
  6
CONTINUOUS
 10
76.6790631971
 20
117.6951652422
 11
76.7790633878
 21
117.056867446
  0
LINE
  5
29B
100
AcDbEntity
  8
0
100
AcDbLine
 62
7
  6
CONTINUOUS
 10
77.2790634832
 20
117.6951652422
 11
77.2790634832
 21
121.6526121154
  0
LINE
  5
29C
100
AcDbEntity
  8
0
100
AcDbLine
 62
7
  6
CONTINUOUS
 10
79.6790634832
 20
121.6526121154
 11
79.6790634832
 21
117.6951652422
  0
LINE
  5
29D
100
AcDbEntity
  8
B-ACHSEN
100
AcDbLine
 62
7
  6
CONTINUOUS
 10
79.8290632925
 20
104.1526121154
 11
79.8290632925
 21
77.6526121154
  0
LINE
  5
29E
100
AcDbEntity
  8
0
100
AcDbLine
 62
7
  6
CONTINUOUS
 10
80.2790634832
 20
117.6951652422
 11
80.2790634832
 21
121.6526121154
  0
LINE
  5
29F
100
AcDbEntity
  8
0
100
AcDbLine
 62
7
  6
CONTINUOUS
 10
81.0790632925
 20
121.6526121154
 11
81.0790632925
 21
115.6526121154
  0
LINE
  5
2A0
100
AcDbEntity
  8
0
100
AcDbLine
 62
7
  6
CONTINUOUS
 10
81.6790632925
 20
116.4185695603
 11
81.6790632925
 21
120.8866547599
  0
LINE
  5
2A1
100
AcDbEntity
  8
B-ACHSEN
100
AcDbLine
 62
7
  6
CONTINUOUS
 10
82.0290632925
 20
112.1526121154
 11
82.0290632925
 21
106.3526121154
  0
LINE
  5
2A2
100
AcDbEntity
  8
0
100
AcDbLine
 62
7
  6
CONTINUOUS
 10
75.1790631971
 20
119.8653779283
 11
75.0790632925
 21
119.4823992505
  0
LINE
  5
2A3
100
AcDbEntity
  8
0
100
AcDbLine
 62
7
  6
CONTINUOUS
 10
75.6790632925
 20
119.3547396913
 11
75.7790631971
 21
119.737718369
  0
LINE
  5
2A4
100
AcDbEntity
  8
0
100
AcDbLine
 62
7
  6
CONTINUOUS
 10
102.8436758486
 20
195.153009659
 11
101.891038379
 21
192.8531393597
  0
LINE
  5
2A5
100
AcDbEntity
  8
0
100
AcDbLine
 62
7
  6
CONTINUOUS
 10
102.5073063932
 20
193.1160392073
 11
103.0935448755
 21
194.5313441022
  0
LINE
  5
2A6
100
AcDbEntity
  8
0
100
AcDbLine
 62
7
  6
CONTINUOUS
 10
98.8790640554
 20
120.8866547599
 11
99.1790640554
 21
120.7589952007
  0
LINE
  5
2A7
100
AcDbEntity
  8
0
100
AcDbLine
 62
7
  6
CONTINUOUS
 10
97.4790625295
 20
118.716441895
 11
97.8790632925
 21
118.4611227765
  0
LINE
  5
2A8
100
AcDbEntity
  8
0
100
AcDbLine
 62
7
  6
CONTINUOUS
 10
99.7790640554
 20
118.716441895
 11
99.3790632925
 21
118.9717610135
  0
LINE
  5
2A9
100
AcDbEntity
  8
0
100
AcDbLine
 62
7
  6
CONTINUOUS
 10
97.9790640554
 20
119.227080132
 11
97.6790640554
 21
119.4823992505
  0
LINE
  5
2AA
100
AcDbEntity
  8
0
100
AcDbLine
 62
7
  6
CONTINUOUS
 10
99.2790625295
 20
118.205803658
 11
99.5790625295
 21
117.9504845395
  0
LINE
  5
2AB
100
AcDbEntity
  8
0
100
AcDbLine
 62
7
  6
CONTINUOUS
 10
95.3790625295
 20
121.1419738784
 11
94.9790640554
 21
121.5249525562
  0
LINE
  5
2AC
100
AcDbEntity
  8
0
100
AcDbLine
 62
7
  6
CONTINUOUS
 10
84.9790632925
 20
120.2483569637
 11
84.779062911
 21
120.7589952007
  0
LINE
  5
2AD
100
AcDbEntity
  8
0
100
AcDbLine
 62
7
  6
CONTINUOUS
 10
84.3790632925
 20
120.1206970468
 11
84.479062911
 21
119.6100588098
  0
LINE
  5
2AE
100
AcDbEntity
  8
0
100
AcDbLine
 62
7
  6
CONTINUOUS
 10
84.479062911
 20
119.6100588098
 11
84.479062911
 21
117.6951652422
  0
LINE
  5
2AF
100
AcDbEntity
  8
0
100
AcDbLine
 62
7
  6
CONTINUOUS
 10
85.079062911
 20
117.6951652422
 11
85.079062911
 21
119.6100588098
  0
LINE
  5
2B0
100
AcDbEntity
  8
0
100
AcDbLine
 62
7
  6
CONTINUOUS
 10
80.1790632925
 20
117.056867446
 11
80.2790634832
 21
117.6951652422
  0
LINE
  5
2B1
100
AcDbEntity
  8
0
100
AcDbLine
 62
7
  6
CONTINUOUS
 10
79.6790634832
 20
117.6951652422
 11
79.5790632925
 21
117.1845270052
  0
LINE
  5
2B2
100
AcDbEntity
  8
0
100
AcDbLine
 62
7
  6
CONTINUOUS
 10
104.3928636428
 20
191.2986828425
 11
104.3195838453
 21
191.1217697617
  0
LINE
  5
2B3
100
AcDbEntity
  8
0
100
AcDbLine
 62
7
  6
CONTINUOUS
 10
105.6053422822
 20
193.4909235503
 11
105.7885417759
 21
193.9332062525
  0
LINE
  5
2B4
100
AcDbEntity
  8
0
100
AcDbLine
 62
7
  6
CONTINUOUS
 10
104.71601256
 20
190.8539303281
 11
104.862572155
 21
191.2077564899
  0
LINE
  5
2B5
100
AcDbEntity
  8
0
100
AcDbLine
 62
7
  6
CONTINUOUS
 10
107.3110619691
 20
190.5044587969
 11
107.0912225254
 21
189.9737194304
  0
LINE
  5
2B6
100
AcDbEntity
  8
0
100
AcDbLine
 62
7
  6
CONTINUOUS
 10
99.6790632925
 20
121.1419738784
 11
99.2790625295
 21
121.5249525562
  0
LINE
  5
2B7
100
AcDbEntity
  8
0
100
AcDbLine
 62
7
  6
CONTINUOUS
 10
97.6790640554
 20
116.5462291196
 11
97.3790640554
 21
116.9292078867
  0
LINE
  5
2B8
100
AcDbEntity
  8
0
100
AcDbLine
 62
7
  6
CONTINUOUS
 10
94.8790632925
 20
120.8866547599
 11
95.0790625295
 21
120.6313356414
  0
LINE
  5
2B9
100
AcDbEntity
  8
0
100
AcDbLine
 62
7
  6
CONTINUOUS
 10
97.0790640554
 20
119.227080132
 11
97.4790625295
 21
118.716441895
  0
LINE
  5
2BA
100
AcDbEntity
  8
0
100
AcDbLine
 62
7
  6
CONTINUOUS
 10
100.1790625295
 20
118.205803658
 11
99.7790640554
 21
118.716441895
  0
LINE
  5
2BB
100
AcDbEntity
  8
0
100
AcDbLine
 62
7
  6
CONTINUOUS
 10
99.1790640554
 20
120.7589952007
 11
99.3790632925
 21
120.5036760822
  0
LINE
  5
2BC
100
AcDbEntity
  8
0
100
AcDbLine
 62
7
  6
CONTINUOUS
 10
95.6790625295
 20
120.6313356414
 11
95.3790625295
 21
121.1419738784
  0
LINE
  5
2BD
100
AcDbEntity
  8
0
100
AcDbLine
 62
7
  6
CONTINUOUS
 10
96.7790640554
 20
116.8015483275
 11
97.0790640554
 21
116.1632503971
  0
LINE
  5
2BE
100
AcDbEntity
  8
0
100
AcDbLine
 62
7
  6
CONTINUOUS
 10
85.079062911
 20
119.6100588098
 11
84.9790632925
 21
120.2483569637
  0
LINE
  5
2BF
100
AcDbEntity
  8
0
100
AcDbLine
 62
7
  6
CONTINUOUS
 10
74.1851405519
 20
191.6816264875
 11
74.2450862754
 21
191.2919236855
  0
LINE
  5
2C0
100
AcDbEntity
  8
0
100
AcDbLine
 62
7
  6
CONTINUOUS
 10
77.4097919456
 20
191.9809877042
 11
77.3498457264
 21
192.3706903009
  0
LINE
  5
2C1
100
AcDbEntity
  8
0
100
AcDbLine
 62
7
  6
CONTINUOUS
 10
90.6790632925
 20
121.6526121154
 11
90.6790632925
 21
115.6526121154
  0
LINE
  5
2C2
100
AcDbEntity
  8
0
100
AcDbLine
 62
7
  6
CONTINUOUS
 10
91.2790632925
 20
115.6526121154
 11
91.2790632925
 21
121.6526121154
  0
LINE
  5
2C3
100
AcDbEntity
  8
B-ACHSEN
100
AcDbLine
 62
2
  6
CENTER
 10
91.8290632925
 20
156.6526121154
 11
91.8290632925
 21
73.2568108218
  0
LINE
  5
2C4
100
AcDbEntity
  8
B-ACHSEN
100
AcDbLine
 62
2
  6
CENTER
 10
91.8290632925
 20
156.6526121154
 11
91.8290632925
 21
205.794223475
  0
LINE
  5
2C5
100
AcDbEntity
  8
0
100
AcDbLine
 62
7
  6
CONTINUOUS
 10
92.0790625295
 20
121.6526121154
 11
92.0790625295
 21
115.6526121154
  0
LINE
  5
2C6
100
AcDbEntity
  8
0
100
AcDbLine
 62
7
  6
CONTINUOUS
 10
84.9790632925
 20
117.056867446
 11
85.079062911
 21
117.6951652422
  0
LINE
  5
2C7
100
AcDbEntity
  8
0
100
AcDbLine
 62
7
  6
CONTINUOUS
 10
84.479062911
 20
117.6951652422
 11
84.3790632925
 21
117.1845270052
  0
LINE
  5
2C8
100
AcDbEntity
  8
0
100
AcDbLine
 62
7
  6
CONTINUOUS
 10
79.9790634832
 20
116.5462291196
 11
80.1790632925
 21
117.056867446
  0
LINE
  5
2C9
100
AcDbEntity
  8
0
100
AcDbLine
 62
7
  6
CONTINUOUS
 10
110.0859490958
 20
191.3240955902
 11
109.3897909173
 21
189.6434210741
  0
LINE
  5
2CA
100
AcDbEntity
  8
0
100
AcDbLine
 62
7
  6
CONTINUOUS
 10
109.1699514736
 20
189.1126817075
 11
108.65699284
 21
187.8742900175
  0
LINE
  5
2CB
100
AcDbEntity
  8
0
100
AcDbLine
 62
7
  6
CONTINUOUS
 10
109.1766750771
 20
187.6590305868
 11
109.6896337106
 21
188.8974222768
  0
LINE
  5
2CC
100
AcDbEntity
  8
0
100
AcDbLine
 62
7
  6
CONTINUOUS
 10
109.9094731543
 20
189.4281616434
 11
110.8987505227
 21
191.8164884831
  0
LINE
  5
2CD
100
AcDbEntity
  8
0
100
AcDbLine
 62
7
  6
CONTINUOUS
 10
110.5557704419
 20
188.5386566958
 11
110.7756098857
 21
189.0693960624
  0
LINE
  5
2CE
100
AcDbEntity
  8
0
100
AcDbLine
 62
7
  6
CONTINUOUS
 10
111.9081986502
 20
189.8438618365
 11
111.7616390553
 21
189.4900356748
  0
LINE
  5
2CF
100
AcDbEntity
  8
0
100
AcDbLine
 62
7
  6
CONTINUOUS
 10
112.8942279225
 20
190.2645016967
 11
112.60110863
 21
189.5568491254
  0
LINE
  5
2D0
100
AcDbEntity
  8
0
100
AcDbLine
 62
7
  6
CONTINUOUS
 10
112.4545490351
 20
189.2030229636
 11
111.7217509835
 21
187.433891969
  0
LINE
  5
2D1
100
AcDbEntity
  8
0
100
AcDbLine
 62
7
  6
CONTINUOUS
 10
112.2280986767
 20
187.4314225266
 11
112.8876169051
 21
189.0236403784
  0
LINE
  5
2D2
100
AcDbEntity
  8
0
100
AcDbLine
 62
7
  6
CONTINUOUS
 10
113.0341765001
 20
189.3774665402
 11
113.3272957925
 21
190.0851191115
  0
LINE
  5
2D3
100
AcDbEntity
  8
0
100
AcDbLine
 62
7
  6
CONTINUOUS
 10
79.5790632925
 20
117.1845270052
 11
79.3790634832
 21
116.8015483275
  0
LINE
  5
2D4
100
AcDbEntity
  8
0
100
AcDbLine
 62
7
  6
CONTINUOUS
 10
75.3790632925
 20
118.8441014543
 11
75.6790632925
 21
119.3547396913
  0
LINE
  5
2D5
100
AcDbEntity
  8
0
100
AcDbLine
 62
7
  6
CONTINUOUS
 10
75.0790632925
 20
119.4823992505
 11
74.8790631971
 21
119.227080132
  0
LINE
  5
2D6
100
AcDbEntity
  8
0
100
AcDbLine
 62
7
  6
CONTINUOUS
 10
99.9790632925
 20
120.6313356414
 11
99.6790632925
 21
121.1419738784
  0
LINE
  5
2D7
100
AcDbEntity
  8
0
100
AcDbLine
 62
7
  6
CONTINUOUS
 10
99.5790625295
 20
117.9504845395
 11
99.7790640554
 21
117.567505683
  0
LINE
  5
2D8
100
AcDbEntity
  8
0
100
AcDbLine
 62
7
  6
CONTINUOUS
 10
68.9050661375
 20
190.2199810387
 11
70.6271415832
 21
186.0625231424
  0
LINE
  5
2D9
100
AcDbEntity
  8
0
100
AcDbLine
 62
7
  6
CONTINUOUS
 10
71.1468238202
 20
186.2777825731
 11
69.7911473619
 21
189.550675065
  0
LINE
  5
2DA
100
AcDbEntity
  8
0
100
AcDbLine
 62
7
  6
CONTINUOUS
 10
100.3790640554
 20
117.6951652422
 11
100.1790625295
 21
118.205803658
  0
LINE
  5
2DB
100
AcDbEntity
  8
0
100
AcDbLine
 62
7
  6
CONTINUOUS
 10
99.3790632925
 20
120.5036760822
 11
99.4790640554
 21
120.2483569637
  0
LINE
  5
2DC
100
AcDbEntity
  8
0
100
AcDbLine
 62
7
  6
CONTINUOUS
 10
95.8790640554
 20
115.6526121154
 11
94.9790640554
 21
118.5887823358
  0
LINE
  5
2DD
100
AcDbEntity
  8
0
100
AcDbLine
 62
7
  6
CONTINUOUS
 10
94.3790640554
 20
118.3334632173
 11
95.1790632925
 21
115.6526121154
  0
LINE
  5
2DE
100
AcDbEntity
  8
0
100
AcDbLine
 62
7
  6
CONTINUOUS
 10
95.0790625295
 20
120.6313356414
 11
95.1790632925
 21
120.2483569637
  0
LINE
  5
2DF
100
AcDbEntity
  8
0
100
AcDbLine
 62
7
  6
CONTINUOUS
 10
95.7790632925
 20
120.2483569637
 11
95.6790625295
 21
120.6313356414
  0
LINE
  5
2E0
100
AcDbEntity
  8
0
100
AcDbLine
 62
7
  6
CONTINUOUS
 10
97.3790640554
 20
116.9292078867
 11
97.2790632925
 21
117.3121865645
  0
LINE
  5
2E1
100
AcDbEntity
  8
0
100
AcDbLine
 62
7
  6
CONTINUOUS
 10
97.6790640554
 20
119.4823992505
 11
97.5790632925
 21
119.8653779283
  0
LINE
  5
2E2
100
AcDbEntity
  8
0
100
AcDbLine
 62
7
  6
CONTINUOUS
 10
96.6790632925
 20
117.3121865645
 11
96.7790640554
 21
116.8015483275
  0
LINE
  5
2E3
100
AcDbEntity
  8
0
100
AcDbLine
 62
7
  6
CONTINUOUS
 10
92.6790625295
 20
115.6526121154
 11
92.6790625295
 21
118.3334632173
  0
LINE
  5
2E4
100
AcDbEntity
  8
0
100
AcDbLine
 62
7
  6
CONTINUOUS
 10
92.6790625295
 20
119.0994205728
 11
92.6790625295
 21
121.0143143192
  0
LINE
  5
2E5
100
AcDbEntity
  8
0
100
AcDbLine
 62
7
  6
CONTINUOUS
 10
95.1790632925
 20
120.2483569637
 11
95.1790632925
 21
119.8653779283
  0
LINE
  5
2E6
100
AcDbEntity
  8
0
100
AcDbLine
 62
7
  6
CONTINUOUS
 10
95.7790632925
 20
119.737718369
 11
95.7790632925
 21
120.2483569637
  0
LINE
  5
2E7
100
AcDbEntity
  8
0
100
AcDbLine
 62
7
  6
CONTINUOUS
 10
96.9790632925
 20
120.2483569637
 11
96.9790632925
 21
119.737718369
  0
LINE
  5
2E8
100
AcDbEntity
  8
0
100
AcDbLine
 62
7
  6
CONTINUOUS
 10
97.5790632925
 20
119.8653779283
 11
97.5790632925
 21
120.1206970468
  0
LINE
  5
2E9
100
AcDbEntity
  8
0
100
AcDbLine
 62
7
  6
CONTINUOUS
 10
84.779062911
 20
116.5462291196
 11
84.9790632925
 21
117.056867446
  0
LINE
  5
2EA
100
AcDbEntity
  8
0
100
AcDbLine
 62
7
  6
CONTINUOUS
 10
112.6412229936
 20
186.2239678523
 11
112.7877826013
 21
186.577794045
  0
LINE
  5
2EB
100
AcDbEntity
  8
0
100
AcDbLine
 62
7
  6
CONTINUOUS
 10
113.8403680034
 20
188.628997952
 11
113.9869275984
 21
188.9828241137
  0
LINE
  5
2EC
100
AcDbEntity
  8
0
100
AcDbLine
 62
7
  6
CONTINUOUS
 10
84.3790632925
 20
117.1845270052
 11
84.179062911
 21
116.8015483275
  0
LINE
  5
2ED
100
AcDbEntity
  8
0
100
AcDbLine
 62
7
  6
CONTINUOUS
 10
79.5790632925
 20
116.0355908379
 11
79.9790634832
 21
116.5462291196
  0
LINE
  5
2EE
100
AcDbEntity
  8
0
100
AcDbLine
 62
7
  6
CONTINUOUS
 10
72.9092407841
 20
190.8422316492
 11
74.2649172425
 21
187.5693391573
  0
LINE
  5
2EF
100
AcDbEntity
  8
0
100
AcDbLine
 62
7
  6
CONTINUOUS
 10
74.7845994795
 20
187.784598588
 11
73.0625240338
 21
191.9420564843
  0
LINE
  5
2F0
100
AcDbEntity
  8
0
100
AcDbLine
 62
7
  6
CONTINUOUS
 10
75.2943094444
 20
188.513893858
 11
75.4775089637
 21
188.0716110939
  0
LINE
  5
2F1
100
AcDbEntity
  8
0
100
AcDbLine
 62
7
  6
CONTINUOUS
 10
100.0790640554
 20
120.2483569637
 11
99.9790632925
 21
120.6313356414
  0
LINE
  5
2F2
100
AcDbEntity
  8
0
100
AcDbLine
 62
7
  6
CONTINUOUS
 10
96.9790632925
 20
119.737718369
 11
97.0790640554
 21
119.227080132
  0
LINE
  5
2F3
100
AcDbEntity
  8
0
100
AcDbLine
 62
7
  6
CONTINUOUS
 10
99.7790640554
 20
117.567505683
 11
99.7790640554
 21
117.1845270052
  0
LINE
  5
2F4
100
AcDbEntity
  8
0
100
AcDbLine
 62
7
  6
CONTINUOUS
 10
100.3790640554
 20
117.056867446
 11
100.3790640554
 21
117.6951652422
  0
LINE
  5
2F5
100
AcDbEntity
  8
0
100
AcDbLine
 62
7
  6
CONTINUOUS
 10
101.1790632925
 20
118.4611227765
 11
101.1790632925
 21
117.8228248015
  0
LINE
  5
2F6
100
AcDbEntity
  8
B-ACHSEN
100
AcDbLine
 62
7
  6
CONTINUOUS
 10
101.6290632925
 20
112.1526121154
 11
101.6290632925
 21
106.3526121154
  0
LINE
  5
2F7
100
AcDbEntity
  8
0
100
AcDbLine
 62
7
  6
CONTINUOUS
 10
102.5790625295
 20
117.8228248015
 11
102.5790625295
 21
118.4611227765
  0
LINE
  5
2F8
100
AcDbEntity
  8
0
100
AcDbLine
 62
7
  6
CONTINUOUS
 10
104.4161697667
 20
191.5999291253
 11
104.3928636428
 21
191.2986828425
  0
LINE
  5
2F9
100
AcDbEntity
  8
0
100
AcDbLine
 62
7
  6
CONTINUOUS
 10
97.0790640554
 20
120.7589952007
 11
96.9790632925
 21
120.2483569637
  0
LINE
  5
2FA
100
AcDbEntity
  8
0
100
AcDbLine
 62
7
  6
CONTINUOUS
 10
95.1790632925
 20
119.8653779283
 11
95.0790625295
 21
119.4823992505
  0
LINE
  5
2FB
100
AcDbEntity
  8
0
100
AcDbLine
 62
7
  6
CONTINUOUS
 10
95.6790625295
 20
119.3547396913
 11
95.7790632925
 21
119.737718369
  0
LINE
  5
2FC
100
AcDbEntity
  8
0
100
AcDbLine
 62
7
  6
CONTINUOUS
 10
97.5790632925
 20
120.1206970468
 11
97.6790640554
 21
120.5036760822
  0
LINE
  5
2FD
100
AcDbEntity
  8
0
100
AcDbLine
 62
7
  6
CONTINUOUS
 10
84.3790632925
 20
116.0355908379
 11
84.779062911
 21
116.5462291196
  0
LINE
  5
2FE
100
AcDbEntity
  8
0
100
AcDbLine
 62
7
  6
CONTINUOUS
 10
79.3790634832
 20
116.8015483275
 11
79.0790634832
 21
116.5462291196
  0
LINE
  5
2FF
100
AcDbEntity
  8
0
100
AcDbLine
 62
7
  6
CONTINUOUS
 10
74.9790633878
 20
118.5887823358
 11
75.3790632925
 21
118.8441014543
  0
LINE
  5
300
100
AcDbEntity
  8
0
100
AcDbLine
 62
7
  6
CONTINUOUS
 10
76.7568835893
 20
192.3323441988
 11
76.8301634894
 21
192.1554308702
  0
LINE
  5
301
100
AcDbEntity
  8
0
100
AcDbLine
 62
7
  6
CONTINUOUS
 10
78.5956023859
 20
189.3631676781
 11
78.4124028666
 21
189.8054504422
  0
LINE
  5
302
100
AcDbEntity
  8
0
100
AcDbLine
 62
7
  6
CONTINUOUS
 10
77.3498457264
 20
192.3706903009
 11
77.2765658263
 21
192.5476036295
  0
LINE
  5
303
100
AcDbEntity
  8
0
100
AcDbLine
 62
7
  6
CONTINUOUS
 10
78.5557137928
 20
191.4193112405
 11
78.7755532365
 21
190.888571874
  0
LINE
  5
304
100
AcDbEntity
  8
0
100
AcDbLine
 62
7
  6
CONTINUOUS
 10
79.9382845624
 20
193.9610234795
 11
80.634442741
 21
192.2803489634
  0
LINE
  5
305
100
AcDbEntity
  8
0
100
AcDbLine
 62
7
  6
CONTINUOUS
 10
80.8542821847
 20
191.7496095968
 11
81.3672408182
 21
190.5112179068
  0
LINE
  5
306
100
AcDbEntity
  8
0
100
AcDbLine
 62
7
  6
CONTINUOUS
 10
81.8869230553
 20
190.7264773375
 11
81.3739644217
 21
191.9648690275
  0
LINE
  5
307
100
AcDbEntity
  8
0
100
AcDbLine
 62
7
  6
CONTINUOUS
 10
81.154124978
 20
192.4956083941
 11
80.1648476096
 21
194.8839352338
  0
LINE
  5
308
100
AcDbEntity
  8
0
100
AcDbLine
 62
7
  6
CONTINUOUS
 10
101.5612792391
 20
192.0570303719
 11
101.587947036
 21
191.6314510025
  0
LINE
  5
309
100
AcDbEntity
  8
0
100
AcDbLine
 62
7
  6
CONTINUOUS
 10
102.1076292885
 20
191.4161915653
 11
102.0809614761
 21
191.8417709412
  0
LINE
  5
30A
100
AcDbEntity
  8
0
100
AcDbLine
 62
7
  6
CONTINUOUS
 10
103.3790640554
 20
121.6526121154
 11
103.3790640554
 21
115.6526121154
  0
LINE
  5
30B
100
AcDbEntity
  8
B-ACHSEN
100
AcDbLine
 62
7
  6
CONTINUOUS
 10
103.8290632925
 20
104.1526121154
 11
103.8290632925
 21
77.6526121154
  0
LINE
  5
30C
100
AcDbEntity
  8
0
100
AcDbLine
 62
7
  6
CONTINUOUS
 10
103.9790640554
 20
116.4185695603
 11
103.9790640554
 21
121.6526121154
  0
LINE
  5
30D
100
AcDbEntity
  8
0
100
AcDbLine
 62
7
  6
CONTINUOUS
 10
106.9790640554
 20
115.6526121154
 11
106.9790640554
 21
116.4185695603
  0
LINE
  5
30E
100
AcDbEntity
  8
0
100
AcDbLine
 62
7
  6
CONTINUOUS
 10
107.7790632925
 20
121.6526121154
 11
107.7790632925
 21
121.0143143192
  0
LINE
  5
30F
100
AcDbEntity
  8
0
100
AcDbLine
 62
7
  6
CONTINUOUS
 10
104.862572155
 20
191.2077564899
 11
104.872544205
 21
191.7217924937
  0
LINE
  5
310
100
AcDbEntity
  8
0
100
AcDbLine
 62
7
  6
CONTINUOUS
 10
100.1790625295
 20
116.5462291196
 11
100.3790640554
 21
117.056867446
  0
LINE
  5
311
100
AcDbEntity
  8
0
100
AcDbLine
 62
7
  6
CONTINUOUS
 10
95.3790625295
 20
118.8441014543
 11
95.6790625295
 21
119.3547396913
  0
LINE
  5
312
100
AcDbEntity
  8
0
100
AcDbLine
 62
7
  6
CONTINUOUS
 10
95.0790625295
 20
119.4823992505
 11
94.8790632925
 21
119.227080132
  0
LINE
  5
313
100
AcDbEntity
  8
0
100
AcDbLine
 62
7
  6
CONTINUOUS
 10
97.4790625295
 20
121.2696334377
 11
97.0790640554
 21
120.7589952007
  0
LINE
  5
314
100
AcDbEntity
  8
0
100
AcDbLine
 62
7
  6
CONTINUOUS
 10
84.179062911
 20
116.8015483275
 11
83.879062911
 21
116.5462291196
  0
LINE
  5
315
100
AcDbEntity
  8
0
100
AcDbLine
 62
7
  6
CONTINUOUS
 10
79.1790631017
 20
115.7802716858
 11
79.5790632925
 21
116.0355908379
  0
LINE
  5
316
100
AcDbEntity
  8
0
100
AcDbLine
 62
7
  6
CONTINUOUS
 10
83.9790636739
 20
115.7802716858
 11
84.3790632925
 21
116.0355908379
  0
LINE
  5
317
100
AcDbEntity
  8
0
100
AcDbLine
 62
7
  6
CONTINUOUS
 10
74.8790631971
 20
119.227080132
 11
74.5790631971
 21
119.0994205728
  0
LINE
  5
318
100
AcDbEntity
  8
0
100
AcDbLine
 62
7
  6
CONTINUOUS
 10
82.2401021443
 20
192.3236350191
 11
82.0202627005
 21
192.8543743856
  0
LINE
  5
319
100
AcDbEntity
  8
0
100
AcDbLine
 62
7
  6
CONTINUOUS
 10
109.3790640554
 20
121.0143143192
 11
109.3790640554
 21
115.6526121154
  0
LINE
  5
31A
100
AcDbEntity
  8
0
100
AcDbLine
 62
7
  6
CONTINUOUS
 10
109.9790640554
 20
115.6526121154
 11
109.9790640554
 21
121.0143143192
  0
LINE
  5
31B
100
AcDbEntity
  8
0
100
AcDbLine
 62
7
  6
CONTINUOUS
 10
111.5790648184
 20
121.0143143192
 11
111.5790648184
 21
121.6526121154
  0
LINE
  5
31C
100
AcDbEntity
  8
0
100
AcDbLine
 62
7
  6
CONTINUOUS
 10
112.2047933218
 20
187.1301759978
 11
112.2280986767
 21
187.4314225266
  0
LINE
  5
31D
100
AcDbEntity
  8
0
100
AcDbLine
 62
7
  6
CONTINUOUS
 10
99.7790640554
 20
117.1845270052
 11
99.5790625295
 21
116.8015483275
  0
LINE
  5
31E
100
AcDbEntity
  8
0
100
AcDbLine
 62
7
  6
CONTINUOUS
 10
99.7790640554
 20
116.0355908379
 11
100.1790625295
 21
116.5462291196
  0
LINE
  5
31F
100
AcDbEntity
  8
B-ACHSEN
100
AcDbLine
 62
7
  6
CONTINUOUS
 10
82.0290632925
 20
106.3526121154
 11
79.8290632925
 21
104.1526121154
  0
LINE
  5
320
100
AcDbEntity
  8
0
100
AcDbLine
 62
7
  6
CONTINUOUS
 10
97.6790640554
 20
120.5036760822
 11
97.9790640554
 21
120.7589952007
  0
LINE
  5
321
100
AcDbEntity
  8
0
100
AcDbLine
 62
7
  6
CONTINUOUS
 10
97.8790632925
 20
121.5249525562
 11
97.4790625295
 21
121.2696334377
  0
LINE
  5
322
100
AcDbEntity
  8
0
100
AcDbLine
 62
7
  6
CONTINUOUS
 10
94.9790640554
 20
118.5887823358
 11
95.3790625295
 21
118.8441014543
  0
LINE
  5
323
100
AcDbEntity
  8
0
100
AcDbLine
 62
7
  6
CONTINUOUS
 10
97.9790640554
 20
120.7589952007
 11
98.2790640554
 21
120.8866547599
  0
LINE
  5
324
100
AcDbEntity
  8
0
100
AcDbLine
 62
7
  6
CONTINUOUS
 10
94.8790632925
 20
119.227080132
 11
94.5790632925
 21
119.0994205728
  0
LINE
  5
325
100
AcDbEntity
  8
0
100
AcDbLine
 62
7
  6
CONTINUOUS
 10
79.0790634832
 20
116.5462291196
 11
78.6790632925
 21
116.4185695603
  0
LINE
  5
326
100
AcDbEntity
  8
0
100
AcDbLine
 62
7
  6
CONTINUOUS
 10
98.2790640554
 20
121.6526121154
 11
97.8790632925
 21
121.5249525562
  0
LINE
  5
327
100
AcDbEntity
  8
0
100
AcDbLine
 62
7
  6
CONTINUOUS
 10
83.879062911
 20
116.5462291196
 11
83.4790632925
 21
116.4185695603
  0
LINE
  5
328
100
AcDbEntity
  8
B-ACHSEN
100
AcDbLine
 62
2
  6
CENTER
 10
91.8290632925
 20
156.6526121154
 11
41.6327778773
 21
156.6526121154
  0
LINE
  5
329
100
AcDbEntity
  8
B-ACHSEN
100
AcDbLine
 62
2
  6
CENTER
 10
91.8290632925
 20
156.6526121154
 11
142.2856245927
 21
156.6526121154
  0
LINE
  5
32A
100
AcDbEntity
  8
0
100
AcDbLine
 62
7
  6
CONTINUOUS
 10
69.7911473619
 20
189.550675065
 11
72.3594156653
 21
186.7800545609
  0
LINE
  5
32B
100
AcDbEntity
  8
0
100
AcDbLine
 62
7
  6
CONTINUOUS
 10
72.522671012
 20
187.3658436293
 11
69.6845894931
 21
190.5428701847
  0
LINE
  5
32C
100
AcDbEntity
  8
0
100
AcDbLine
 62
7
  6
CONTINUOUS
 10
77.2765658263
 20
192.5476036295
 11
77.0433928556
 21
192.8655533564
  0
LINE
  5
32D
100
AcDbEntity
  8
0
100
AcDbLine
 62
7
  6
CONTINUOUS
 10
111.7217509835
 20
187.433891969
 11
111.7484181273
 21
187.0083129064
  0
LINE
  5
32E
100
AcDbEntity
  8
B-ACHSEN
100
AcDbLine
 62
7
  6
CONTINUOUS
 10
116.8290632925
 20
112.1526121154
 11
116.8290632925
 21
117.741836932
  0
LINE
  5
32F
100
AcDbEntity
  8
0
100
AcDbLine
 62
7
  6
CONTINUOUS
 10
99.5790625295
 20
116.8015483275
 11
99.2790625295
 21
116.5462291196
  0
LINE
  5
330
100
AcDbEntity
  8
0
100
AcDbLine
 62
7
  6
CONTINUOUS
 10
99.3790632925
 20
115.7802716858
 11
99.7790640554
 21
116.0355908379
  0
LINE
  5
331
100
AcDbEntity
  8
0
100
AcDbLine
 62
7
  6
CONTINUOUS
 10
99.2790625295
 20
116.5462291196
 11
98.8790640554
 21
116.4185695603
  0
LINE
  5
332
100
AcDbEntity
  8
0
100
AcDbLine
 62
7
  6
CONTINUOUS
 10
101.587947036
 20
191.6314510025
 11
101.7012285313
 21
191.1699951008
  0
LINE
  5
333
100
AcDbEntity
  8
0
100
AcDbLine
 62
7
  6
CONTINUOUS
 10
104.872544205
 20
191.7217924937
 11
104.7592626814
 21
192.1832483709
  0
LINE
  5
334
100
AcDbEntity
  8
0
100
AcDbLine
 62
7
  6
CONTINUOUS
 10
104.3528619679
 20
191.9370519244
 11
104.4161697667
 21
191.5999291253
  0
LINE
  5
335
100
AcDbEntity
  8
RUNDUNGEN
100
AcDbLine
 62
7
  6
CONTINUOUS
 10
137.7378772339
 20
155.121878386
 11
125.1233898178
 21
124.6678117835
  0
LINE
  5
336
100
AcDbEntity
  8
0
100
AcDbLine
 62
7
  6
CONTINUOUS
 10
76.4737366459
 20
192.525960745
 11
76.7568835893
 21
192.3323441988
  0
LINE
  5
337
100
AcDbEntity
  8
0
100
AcDbLine
 62
7
  6
CONTINUOUS
 10
102.2941906096
 20
191.1316487691
 11
102.1076292885
 21
191.4161915653
  0
LINE
  5
338
100
AcDbEntity
  8
0
100
AcDbLine
 62
7
  6
CONTINUOUS
 10
101.7012285313
 20
191.1699951008
 11
102.024377346
 21
190.7252426016
  0
LINE
  5
339
100
AcDbEntity
  8
0
100
AcDbLine
 62
7
  6
CONTINUOUS
 10
104.7592626814
 20
192.1832483709
 11
104.4361140119
 21
192.6280007827
  0
LINE
  5
33A
100
AcDbEntity
  8
0
100
AcDbLine
 62
7
  6
CONTINUOUS
 10
104.1663006469
 20
192.2215947207
 11
104.3528619679
 21
191.9370519244
  0
LINE
  5
33B
100
AcDbEntity
  8
0
100
AcDbLine
 62
7
  6
CONTINUOUS
 10
103.8399033087
 20
190.6986601724
 11
103.5067823927
 21
190.6293768069
  0
LINE
  5
33C
100
AcDbEntity
  8
0
100
AcDbLine
 62
7
  6
CONTINUOUS
 10
77.0433928556
 20
192.8655533564
 11
76.5503782708
 21
193.0758731626
  0
LINE
  5
33D
100
AcDbEntity
  8
0
100
AcDbLine
 62
7
  6
CONTINUOUS
 10
102.6040055149
 20
190.8996859501
 11
102.2941906096
 21
191.1316487691
  0
LINE
  5
33E
100
AcDbEntity
  8
0
100
AcDbLine
 62
7
  6
CONTINUOUS
 10
111.7484181273
 20
187.0083129064
 11
111.9349794419
 21
186.7237700947
  0
LINE
  5
33F
100
AcDbEntity
  8
0
100
AcDbLine
 62
7
  6
CONTINUOUS
 10
112.3913546428
 20
186.8456332016
 11
112.2047933218
 21
187.1301759978
  0
LINE
  5
340
100
AcDbEntity
  8
B-ACHSEN
100
AcDbLine
 62
7
  6
CONTINUOUS
 10
103.8290632925
 20
77.6526121154
 11
102.3290632925
 21
76.1526121154
  0
LINE
  5
341
100
AcDbEntity
  8
0
100
AcDbLine
 62
7
  6
CONTINUOUS
 10
102.4973343015
 20
192.6020033658
 11
102.9537088637
 21
192.7238666829
  0
LINE
  5
342
100
AcDbEntity
  8
0
100
AcDbLine
 62
7
  6
CONTINUOUS
 10
103.410196748
 20
190.1512174103
 11
103.9531848195
 21
190.2372042643
  0
LINE
  5
343
100
AcDbEntity
  8
0
100
AcDbLine
 62
7
  6
CONTINUOUS
 10
103.0502946099
 20
193.202025974
 11
102.5073063932
 21
193.1160392073
  0
LINE
  5
344
100
AcDbEntity
  8
0
100
AcDbLine
 62
7
  6
CONTINUOUS
 10
76.5503782708
 20
193.0758731626
 11
76.1306434834
 21
193.1092798879
  0
LINE
  5
345
100
AcDbEntity
  8
0
100
AcDbLine
 62
7
  6
CONTINUOUS
 10
103.5067823927
 20
190.6293768069
 11
103.1236877519
 21
190.6844265194
  0
LINE
  5
346
100
AcDbEntity
  8
0
100
AcDbLine
 62
7
  6
CONTINUOUS
 10
102.9404882326
 20
190.2421437552
 11
103.410196748
 21
190.1512174103
  0
LINE
  5
347
100
AcDbEntity
  8
0
100
AcDbLine
 62
7
  6
CONTINUOUS
 10
76.1406157299
 20
192.5952441105
 11
76.4737366459
 21
192.525960745
  0
LINE
  5
348
100
AcDbEntity
  8
0
100
AcDbLine
 62
7
  6
CONTINUOUS
 10
104.7127641391
 20
188.8862432654
 11
105.1458327526
 21
188.7068603722
  0
LINE
  5
349
100
AcDbEntity
  8
0
100
AcDbLine
 62
7
  6
CONTINUOUS
 10
102.4208059956
 20
190.4574031859
 11
102.9404882326
 21
190.2421437552
  0
LINE
  5
34A
100
AcDbEntity
  8
0
100
AcDbLine
 62
7
  6
CONTINUOUS
 10
108.65699284
 20
187.8742900175
 11
109.1766750771
 21
187.6590305868
  0
LINE
  5
34B
100
AcDbEntity
  8
0
100
AcDbLine
 62
7
  6
CONTINUOUS
 10
106.068553927
 20
189.4646230103
 11
105.6354850657
 21
189.6440060061
  0
LINE
  5
34C
100
AcDbEntity
  8
0
100
AcDbLine
 62
7
  6
CONTINUOUS
 10
103.1236877519
 20
190.6844265194
 11
102.6040055149
 21
190.8996859501
  0
LINE
  5
34D
100
AcDbEntity
  8
0
100
AcDbLine
 62
7
  6
CONTINUOUS
 10
102.0809614761
 20
191.8417709412
 11
101.5612792391
 21
192.0570303719
  0
LINE
  5
34E
100
AcDbEntity
  8
0
100
AcDbLine
 62
7
  6
CONTINUOUS
 10
107.0912225254
 20
189.9737194304
 11
109.1699514736
 21
189.1126817075
  0
LINE
  5
34F
100
AcDbEntity
  8
0
100
AcDbLine
 62
7
  6
CONTINUOUS
 10
109.6896337106
 20
188.8974222768
 11
110.5557704419
 21
188.5386566958
  0
LINE
  5
350
100
AcDbEntity
  8
0
100
AcDbLine
 62
7
  6
CONTINUOUS
 10
112.1581806585
 20
186.5276838311
 11
112.6412229936
 21
186.2239678523
  0
LINE
  5
351
100
AcDbEntity
  8
0
100
AcDbLine
 62
7
  6
CONTINUOUS
 10
102.024377346
 20
190.7252426016
 11
102.4208059956
 21
190.4574031859
  0
LINE
  5
352
100
AcDbEntity
  8
0
100
AcDbLine
 62
7
  6
CONTINUOUS
 10
112.7877826013
 20
186.577794045
 11
112.3913546428
 21
186.8456332016
  0
LINE
  5
353
100
AcDbEntity
  8
0
100
AcDbLine
 62
7
  6
CONTINUOUS
 10
104.4361140119
 20
192.6280007827
 11
104.0396852972
 21
192.8958402162
  0
LINE
  5
354
100
AcDbEntity
  8
0
100
AcDbLine
 62
7
  6
CONTINUOUS
 10
103.8564858035
 20
192.453557514
 11
104.1663006469
 21
192.2215947207
  0
LINE
  5
355
100
AcDbEntity
  8
0
100
AcDbLine
 62
7
  6
CONTINUOUS
 10
111.9349794419
 20
186.7237700947
 11
112.1581806585
 21
186.5276838311
  0
LINE
  5
356
100
AcDbEntity
  8
RUNDUNGEN
100
AcDbLine
 62
7
  6
CONTINUOUS
 10
125.373889147
 20
188.0326535693
 11
137.7378772339
 21
158.1833458449
  0
LINE
  5
357
100
AcDbEntity
  8
0
100
AcDbLine
 62
7
  6
CONTINUOUS
 10
76.1306434834
 20
193.1092798879
 11
75.5743213477
 21
192.9824769976
  0
LINE
  5
358
100
AcDbEntity
  8
0
100
AcDbLine
 62
7
  6
CONTINUOUS
 10
75.6709074655
 20
192.5043178605
 11
76.1406157299
 21
192.5952441105
  0
LINE
  5
359
100
AcDbEntity
  8
0
100
AcDbLine
 62
7
  6
CONTINUOUS
 10
102.9537088637
 20
192.7238666829
 11
103.3368035665
 21
192.6688169447
  0
LINE
  5
35A
100
AcDbEntity
  8
0
100
AcDbLine
 62
7
  6
CONTINUOUS
 10
103.5200030601
 20
193.1110996469
 11
103.0502946099
 21
193.202025974
  0
LINE
  5
35B
100
AcDbEntity
  8
0
100
AcDbLine
 62
7
  6
CONTINUOUS
 10
110.7756098857
 20
189.0693960624
 11
109.9094731543
 21
189.4281616434
  0
LINE
  5
35C
100
AcDbEntity
  8
0
100
AcDbLine
 62
7
  6
CONTINUOUS
 10
109.3897909173
 20
189.6434210741
 11
107.9173580776
 21
190.253322726
  0
LINE
  5
35D
100
AcDbEntity
  8
0
100
AcDbLine
 62
7
  6
CONTINUOUS
 10
101.891038379
 20
192.8531393597
 11
102.4973343015
 21
192.6020033658
  0
LINE
  5
35E
100
AcDbEntity
  8
0
100
AcDbLine
 62
7
  6
CONTINUOUS
 10
103.3368035665
 20
192.6688169447
 11
103.8564858035
 21
192.453557514
  0
LINE
  5
35F
100
AcDbEntity
  8
0
100
AcDbLine
 62
7
  6
CONTINUOUS
 10
111.7616390553
 20
189.4900356748
 11
112.4545490351
 21
189.2030229636
  0
LINE
  5
360
100
AcDbEntity
  8
0
100
AcDbLine
 62
7
  6
CONTINUOUS
 10
112.8876169051
 20
189.0236403784
 11
113.8403680034
 21
188.628997952
  0
LINE
  5
361
100
AcDbEntity
  8
0
100
AcDbLine
 62
7
  6
CONTINUOUS
 10
104.0396852972
 20
192.8958402162
 11
103.5200030601
 21
193.1110996469
  0
LINE
  5
362
100
AcDbEntity
  8
0
100
AcDbLine
 62
7
  6
CONTINUOUS
 10
113.9869275984
 20
188.9828241137
 11
113.0341765001
 21
189.3774665402
  0
LINE
  5
363
100
AcDbEntity
  8
0
100
AcDbLine
 62
7
  6
CONTINUOUS
 10
112.60110863
 20
189.5568491254
 11
111.9081986502
 21
189.8438618365
  0
LINE
  5
364
100
AcDbEntity
  8
0
100
AcDbLine
 62
7
  6
CONTINUOUS
 10
113.3272957925
 20
190.0851191115
 11
112.8942279225
 21
190.2645016967
  0
LINE
  5
365
100
AcDbEntity
  8
0
100
AcDbLine
 62
7
  6
CONTINUOUS
 10
103.0935448755
 20
194.5313441022
 11
105.6053422822
 21
193.4909235503
  0
LINE
  5
366
100
AcDbEntity
  8
0
100
AcDbLine
 62
7
  6
CONTINUOUS
 10
110.8987505227
 20
191.8164884831
 11
110.3790682857
 21
192.0317479138
  0
LINE
  5
367
100
AcDbEntity
  8
0
100
AcDbLine
 62
7
  6
CONTINUOUS
 10
105.7885417759
 20
193.9332062525
 11
102.8436758486
 21
195.153009659
  0
LINE
  5
368
100
AcDbEntity
  8
RUNDUNGEN
100
AcDbLine
 62
7
  6
CONTINUOUS
 10
93.3597970219
 20
202.5614260569
 11
123.2091047464
 21
190.1974379699
  0
LINE
  5
369
100
AcDbEntity
  8
B-ACHSEN
100
AcDbLine
 62
7
  6
CONTINUOUS
 10
216.0950186602
 20
76.1526121154
 11
237.0950186602
 21
76.1526121154
  0
LINE
  5
36A
100
AcDbEntity
  8
B-ACHSEN
100
AcDbLine
 62
7
  6
CONTINUOUS
 10
214.5950186602
 20
77.6526121154
 11
238.5950186602
 21
77.6526121154
  0
LINE
  5
36B
100
AcDbEntity
  8
B-ACHSEN
100
AcDbLine
 62
7
  6
CONTINUOUS
 10
214.5950186602
 20
77.6526121154
 11
216.0950186602
 21
76.1526121154
  0
LINE
  5
36C
100
AcDbEntity
  8
B-ACHSEN
100
AcDbLine
 62
7
  6
CONTINUOUS
 10
214.5950186602
 20
104.1526121154
 11
238.5950186602
 21
104.1526121154
  0
LINE
  5
36D
100
AcDbEntity
  8
B-ACHSEN
100
AcDbLine
 62
7
  6
CONTINUOUS
 10
216.7950186602
 20
106.3526121154
 11
236.3950186602
 21
106.3526121154
  0
LINE
  5
36E
100
AcDbEntity
  8
B-ACHSEN
100
AcDbLine
 62
7
  6
CONTINUOUS
 10
201.5954556254
 20
112.1526121154
 11
251.5945816949
 21
112.1526121154
  0
LINE
  5
36F
100
AcDbEntity
  8
B-ACHSEN
100
AcDbLine
 62
7
  6
CONTINUOUS
 10
201.5950186602
 20
112.1526121154
 11
201.5950186602
 21
124.201858753
  0
LINE
  5
370
100
AcDbEntity
  8
0
100
AcDbLine
 62
7
  6
CONTINUOUS
 10
241.9226897161
 20
115.6526121154
 11
243.1288476178
 21
115.6526121154
  0
LINE
  5
371
100
AcDbEntity
  8
0
100
AcDbLine
 62
7
  6
CONTINUOUS
 10
245.2438121017
 20
115.6526121154
 11
246.2339469161
 21
115.6526121154
  0
LINE
  5
372
100
AcDbEntity
  8
0
100
AcDbLine
 62
7
  6
CONTINUOUS
 10
247.6044806911
 20
115.6526121154
 11
248.2090765855
 21
115.6526121154
  0
LINE
  5
373
100
AcDbEntity
  8
0
100
AcDbLine
 62
7
  6
CONTINUOUS
 10
249.1657408462
 20
115.6526121154
 11
250.4773866332
 21
115.6526121154
  0
LINE
  5
374
100
AcDbEntity
  8
0
100
AcDbLine
 62
7
  6
CONTINUOUS
 10
251.5685546533
 20
115.6526121154
 11
251.8688687824
 21
115.6526121154
  0
LINE
  5
375
100
AcDbEntity
  8
0
100
AcDbLine
 62
7
  6
CONTINUOUS
 10
247.2734494517
 20
115.7802716858
 11
247.6351588688
 21
115.7802716858
  0
LINE
  5
376
100
AcDbEntity
  8
0
100
AcDbLine
 62
7
  6
CONTINUOUS
 10
246.995937622
 20
116.0355908379
 11
247.362481059
 21
116.0355908379
  0
LINE
  5
377
100
AcDbEntity
  8
0
100
AcDbLine
 62
7
  6
CONTINUOUS
 10
250.4773866332
 20
116.4185695603
 11
249.7697354869
 21
116.4185695603
  0
LINE
  5
378
100
AcDbEntity
  8
0
100
AcDbLine
 62
7
  6
CONTINUOUS
 10
248.2090765855
 20
116.4185695603
 11
247.9605866337
 21
116.4185695603
  0
LINE
  5
379
100
AcDbEntity
  8
0
100
AcDbLine
 62
7
  6
CONTINUOUS
 10
246.7066447919
 20
116.5462291196
 11
247.0783656929
 21
116.5462291196
  0
LINE
  5
37A
100
AcDbEntity
  8
0
100
AcDbLine
 62
7
  6
CONTINUOUS
 10
248.0993787963
 20
116.5462291196
 11
248.4474213853
 21
116.5462291196
  0
LINE
  5
37B
100
AcDbEntity
  8
0
100
AcDbLine
 62
7
  6
CONTINUOUS
 10
250.2972863562
 20
116.5462291196
 11
250.6135010005
 21
116.5462291196
  0
LINE
  5
37C
100
AcDbEntity
  8
0
100
AcDbLine
 62
7
  6
CONTINUOUS
 10
248.2744445001
 20
116.8015483275
 11
248.6197208091
 21
116.8015483275
  0
LINE
  5
37D
100
AcDbEntity
  8
0
100
AcDbLine
 62
7
  6
CONTINUOUS
 10
250.3958063396
 20
116.8015483275
 11
250.7107291859
 21
116.8015483275
  0
LINE
  5
37E
100
AcDbEntity
  8
0
100
AcDbLine
 62
7
  6
CONTINUOUS
 10
246.5574208921
 20
117.056867446
 11
246.9318695194
 21
117.056867446
  0
LINE
  5
37F
100
AcDbEntity
  8
0
100
AcDbLine
 62
7
  6
CONTINUOUS
 10
248.3880794824
 20
117.1845270052
 11
248.7315834343
 21
117.1845270052
  0
LINE
  5
380
100
AcDbEntity
  8
0
100
AcDbLine
 62
7
  6
CONTINUOUS
 10
250.4591654079
 20
117.1845270052
 11
250.7732630133
 21
117.1845270052
  0
LINE
  5
381
100
AcDbEntity
  8
0
100
AcDbLine
 62
7
  6
CONTINUOUS
 10
246.4816346898
 20
117.6951652422
 11
246.857483888
 21
117.6951652422
  0
LINE
  5
382
100
AcDbEntity
  8
0
100
AcDbLine
 62
7
  6
CONTINUOUS
 10
248.4439889937
 20
117.6951652422
 11
248.7866275391
 21
117.6951652422
  0
LINE
  5
383
100
AcDbEntity
  8
0
100
AcDbLine
 62
7
  6
CONTINUOUS
 10
250.490154031
 20
117.6951652422
 11
250.8038495777
 21
117.6951652422
  0
LINE
  5
384
100
AcDbEntity
  8
0
100
AcDbLine
 62
7
  6
CONTINUOUS
 10
243.1288476178
 20
118.3334632173
 11
244.9140660791
 21
118.3334632173
  0
LINE
  5
385
100
AcDbEntity
  8
0
100
AcDbLine
 62
7
  6
CONTINUOUS
 10
245.1025170516
 20
119.0994205728
 11
243.1288476178
 21
119.0994205728
  0
LINE
  5
386
100
AcDbEntity
  8
0
100
AcDbLine
 62
7
  6
CONTINUOUS
 10
244.9715661261
 20
119.227080132
 11
245.3776568339
 21
119.227080132
  0
LINE
  5
387
100
AcDbEntity
  8
0
100
AcDbLine
 62
7
  6
CONTINUOUS
 10
245.1540461131
 20
119.4823992505
 11
245.5562290646
 21
119.4823992505
  0
LINE
  5
388
100
AcDbEntity
  8
0
100
AcDbLine
 62
7
  6
CONTINUOUS
 10
250.490154031
 20
119.6100588098
 11
250.8038495777
 21
119.6100588098
  0
LINE
  5
389
100
AcDbEntity
  8
0
100
AcDbLine
 62
7
  6
CONTINUOUS
 10
245.2438121017
 20
119.8653779283
 11
245.6440999195
 21
119.8653779283
  0
LINE
  5
38A
100
AcDbEntity
  8
0
100
AcDbLine
 62
7
  6
CONTINUOUS
 10
250.4591654079
 20
120.1206970468
 11
250.7732630133
 21
120.1206970468
  0
LINE
  5
38B
100
AcDbEntity
  8
0
100
AcDbLine
 62
7
  6
CONTINUOUS
 10
245.2438121017
 20
120.2483569637
 11
245.6440999195
 21
120.2483569637
  0
LINE
  5
38C
100
AcDbEntity
  8
0
100
AcDbLine
 62
7
  6
CONTINUOUS
 10
250.3958063396
 20
120.5036760822
 11
250.7107291859
 21
120.5036760822
  0
LINE
  5
38D
100
AcDbEntity
  8
0
100
AcDbLine
 62
7
  6
CONTINUOUS
 10
245.1540461131
 20
120.6313356414
 11
245.5562290646
 21
120.6313356414
  0
LINE
  5
38E
100
AcDbEntity
  8
0
100
AcDbLine
 62
7
  6
CONTINUOUS
 10
250.2972863562
 20
120.7589952007
 11
250.6135010005
 21
120.7589952007
  0
LINE
  5
38F
100
AcDbEntity
  8
0
100
AcDbLine
 62
7
  6
CONTINUOUS
 10
244.9715661261
 20
120.8866547599
 11
245.3776568339
 21
120.8866547599
  0
LINE
  5
390
100
AcDbEntity
  8
0
100
AcDbLine
 62
7
  6
CONTINUOUS
 10
249.7697354869
 20
120.8866547599
 11
250.4773866332
 21
120.8866547599
  0
LINE
  5
391
100
AcDbEntity
  8
0
100
AcDbLine
 62
7
  6
CONTINUOUS
 10
243.1288476178
 20
121.0143143192
 11
245.1025170516
 21
121.0143143192
  0
LINE
  5
392
100
AcDbEntity
  8
0
100
AcDbLine
 62
7
  6
CONTINUOUS
 10
241.9226897161
 20
121.6526121154
 11
245.0088042568
 21
121.6526121154
  0
LINE
  5
393
100
AcDbEntity
  8
0
100
AcDbLine
 62
7
  6
CONTINUOUS
 10
246.4816346898
 20
121.6526121154
 11
247.2925428007
 21
121.6526121154
  0
LINE
  5
394
100
AcDbEntity
  8
0
100
AcDbLine
 62
7
  6
CONTINUOUS
 10
248.4439889937
 20
121.6526121154
 11
249.1047388807
 21
121.6526121154
  0
LINE
  5
395
100
AcDbEntity
  8
0
100
AcDbLine
 62
7
  6
CONTINUOUS
 10
249.1657408462
 20
121.6526121154
 11
250.4773866332
 21
121.6526121154
  0
LINE
  5
396
100
AcDbEntity
  8
0
100
AcDbLine
 62
7
  6
CONTINUOUS
 10
251.5685546533
 20
121.6526121154
 11
251.8688687824
 21
121.6526121154
  0
LINE
  5
397
100
AcDbEntity
  8
RUNDUNGEN
100
AcDbLine
 62
7
  6
CONTINUOUS
 10
237.476752662
 20
123.741836932
 11
215.7132846583
 21
123.741836932
  0
LINE
  5
398
100
AcDbEntity
  8
B-ACHSEN
100
AcDbLine
 62
7
  6
CONTINUOUS
 10
236.3950186602
 20
106.3526121154
 11
238.5950186602
 21
104.1526121154
  0
LINE
  5
399
100
AcDbEntity
  8
B-ACHSEN
100
AcDbLine
 62
7
  6
CONTINUOUS
 10
214.5950186602
 20
104.1526121154
 11
214.5950186602
 21
77.6526121154
  0
LINE
  5
39A
100
AcDbEntity
  8
RUNDUNGEN
100
AcDbLine
 62
7
  6
CONTINUOUS
 10
216.5950186602
 20
201.365907907
 11
216.5950186602
 21
157.4111490601
  0
LINE
  5
39B
100
AcDbEntity
  8
B-ACHSEN
100
AcDbLine
 62
7
  6
CONTINUOUS
 10
216.7950186602
 20
112.1526121154
 11
216.7950186602
 21
106.3526121154
  0
LINE
  5
39C
100
AcDbEntity
  8
RUNDUNGEN
100
AcDbLine
 62
7
  6
CONTINUOUS
 10
216.5375634767
 20
155.8962542646
 11
213.9667488254
 21
122.0532530543
  0
LINE
  5
39D
100
AcDbEntity
  8
RUNDUNGEN
100
AcDbLine
 62
7
  6
CONTINUOUS
 10
214.5936627616
 20
130.326015334
 11
214.5419713859
 21
130.1578018309
  0
LWPOLYLINE
  5
39E
100
AcDbEntity
  8
RUNDUNGEN
100
AcDbPolyline
 62
7
  6
CONTINUOUS
 90
7
 70
0
 10
214.5419713859
 20
130.1578018309
 10
214.4615881414
 20
130.0012455372
 10
214.3549979609
 20
129.8611977682
 10
214.2254979539
 20
129.741999429
 10
214.0770957094
 20
129.6473469251
 10
213.9143863591
 20
129.5801777679
 10
213.7720762756
 20
129.5468224859
  0
LINE
  5
39F
100
AcDbEntity
  8
B-ACHSEN
100
AcDbLine
 62
7
  6
CONTINUOUS
 10
204.9692808
 20
128.1526121154
 11
213.7720270718
 21
129.546830157
  0
LINE
  5
3A0
100
AcDbEntity
  8
B-ACHSEN
100
AcDbLine
 62
7
  6
CONTINUOUS
 10
248.2207565203
 20
128.1526121154
 11
239.4186890752
 21
129.5467226414
  0
LWPOLYLINE
  5
3A1
100
AcDbEntity
  8
RUNDUNGEN
100
AcDbPolyline
 62
7
  6
CONTINUOUS
 90
7
 70
0
 10
239.4179356422
 20
129.5468409702
 10
239.2694501305
 20
129.5821513312
 10
239.13241244
 20
129.6374933785
 10
239.0050404426
 20
129.7124199283
 10
238.8901130087
 20
129.8052883288
 10
238.7901360812
 20
129.9140639355
 10
238.7072844848
 20
130.0363697687
  0
LINE
  5
3A2
100
AcDbEntity
  8
B-ACHSEN
100
AcDbLine
 62
2
  6
CENTER
 10
226.5950186602
 20
73.1526121154
 11
226.5950186602
 21
207.2182183133
  0
LINE
  5
3A3
100
AcDbEntity
  8
B-ACHSEN
100
AcDbLine
 62
7
  6
CONTINUOUS
 10
236.3950186602
 20
112.1526121154
 11
236.3950186602
 21
106.3526121154
  0
LWPOLYLINE
  5
3A4
100
AcDbEntity
  8
RUNDUNGEN
100
AcDbPolyline
 62
7
  6
CONTINUOUS
 90
3
 70
0
 10
238.7072844848
 20
130.0363697687
 10
238.6433598224
 20
130.1695356245
 10
238.5997522596
 20
130.3106526541
  0
LINE
  5
3A5
100
AcDbEntity
  8
RUNDUNGEN
100
AcDbLine
 62
7
  6
CONTINUOUS
 10
239.2232884819
 20
122.053253225
 11
236.6524738436
 21
155.8962542646
  0
LINE
  5
3A6
100
AcDbEntity
  8
RUNDUNGEN
100
AcDbLine
 62
7
  6
CONTINUOUS
 10
236.5950186602
 20
157.4111490601
 11
236.5950186602
 21
201.3659079071
  0
LINE
  5
3A7
100
AcDbEntity
  8
0
100
AcDbLine
 62
7
  6
CONTINUOUS
 10
236.8950186602
 20
195.153009659
 11
236.8950186602
 21
186.0625231424
  0
LINE
  5
3A8
100
AcDbEntity
  8
B-ACHSEN
100
AcDbLine
 62
7
  6
CONTINUOUS
 10
238.5950186602
 20
104.1526121154
 11
238.5950186602
 21
77.6526121154
  0
LINE
  5
3A9
100
AcDbEntity
  8
0
100
AcDbLine
 62
7
  6
CONTINUOUS
 10
241.9226897161
 20
115.6526121154
 11
241.9226897161
 21
121.6526121154
  0
LINE
  5
3AA
100
AcDbEntity
  8
0
100
AcDbLine
 62
7
  6
CONTINUOUS
 10
242.4072765634
 20
121.6526121154
 11
242.4072765634
 21
115.6526121154
  0
LINE
  5
3AB
100
AcDbEntity
  8
0
100
AcDbLine
 62
7
  6
CONTINUOUS
 10
243.1288476178
 20
115.6526121154
 11
243.1288476178
 21
118.3334632173
  0
LINE
  5
3AC
100
AcDbEntity
  8
0
100
AcDbLine
 62
7
  6
CONTINUOUS
 10
243.1288476178
 20
119.0994205728
 11
243.1288476178
 21
121.0143143192
  0
LINE
  5
3AD
100
AcDbEntity
  8
0
100
AcDbLine
 62
7
  6
CONTINUOUS
 10
245.2438121017
 20
119.8653779283
 11
245.2438121017
 21
120.2483569637
  0
LINE
  5
3AE
100
AcDbEntity
  8
B-ACHSEN
100
AcDbLine
 62
7
  6
CONTINUOUS
 10
216.7950186602
 20
106.3526121154
 11
214.5950186602
 21
104.1526121154
  0
LINE
  5
3AF
100
AcDbEntity
  8
0
100
AcDbLine
 62
7
  6
CONTINUOUS
 10
245.6440999195
 20
120.2483569637
 11
245.6440999195
 21
119.8653779283
  0
LINE
  5
3B0
100
AcDbEntity
  8
0
100
AcDbLine
 62
7
  6
CONTINUOUS
 10
246.1523062261
 20
119.737718369
 11
246.1523062261
 21
120.2483569637
  0
LINE
  5
3B1
100
AcDbEntity
  8
0
100
AcDbLine
 62
7
  6
CONTINUOUS
 10
246.4816346898
 20
117.6951652422
 11
246.4816346898
 21
121.6526121154
  0
LINE
  5
3B2
100
AcDbEntity
  8
0
100
AcDbLine
 62
7
  6
CONTINUOUS
 10
246.857483888
 20
121.6526121154
 11
246.857483888
 21
117.6951652422
  0
LINE
  5
3B3
100
AcDbEntity
  8
0
100
AcDbLine
 62
7
  6
CONTINUOUS
 10
247.2925428007
 20
117.6951652422
 11
247.2925428007
 21
121.6526121154
  0
LINE
  5
3B4
100
AcDbEntity
  8
0
100
AcDbLine
 62
7
  6
CONTINUOUS
 10
248.4439889937
 20
117.6951652422
 11
248.4439889937
 21
121.6526121154
  0
LINE
  5
3B5
100
AcDbEntity
  8
0
100
AcDbLine
 62
7
  6
CONTINUOUS
 10
248.7866275391
 20
121.6526121154
 11
248.7866275391
 21
117.6951652422
  0
LINE
  5
3B6
100
AcDbEntity
  8
0
100
AcDbLine
 62
7
  6
CONTINUOUS
 10
249.1047388807
 20
117.6951652422
 11
249.1047388807
 21
121.6526121154
  0
LINE
  5
3B7
100
AcDbEntity
  8
0
100
AcDbLine
 62
7
  6
CONTINUOUS
 10
249.1657408462
 20
115.6526121154
 11
249.1657408462
 21
121.6526121154
  0
LINE
  5
3B8
100
AcDbEntity
  8
0
100
AcDbLine
 62
7
  6
CONTINUOUS
 10
249.4975840186
 20
121.6526121154
 11
249.4975840186
 21
115.6526121154
  0
LINE
  5
3B9
100
AcDbEntity
  8
0
100
AcDbLine
 62
7
  6
CONTINUOUS
 10
249.7697354869
 20
116.4185695603
 11
249.7697354869
 21
120.8866547599
  0
LINE
  5
3BA
100
AcDbEntity
  8
0
100
AcDbLine
 62
7
  6
CONTINUOUS
 10
250.490154031
 20
117.6951652422
 11
250.490154031
 21
119.6100588098
  0
LINE
  5
3BB
100
AcDbEntity
  8
0
100
AcDbLine
 62
7
  6
CONTINUOUS
 10
250.8038495777
 20
119.6100588098
 11
250.8038495777
 21
117.6951652422
  0
LINE
  5
3BC
100
AcDbEntity
  8
0
100
AcDbLine
 62
7
  6
CONTINUOUS
 10
250.9779531605
 20
117.6951652422
 11
250.9779531605
 21
119.6100588098
  0
LINE
  5
3BD
100
AcDbEntity
  8
0
100
AcDbLine
 62
7
  6
CONTINUOUS
 10
251.5685546533
 20
121.6526121154
 11
251.5685546533
 21
115.6526121154
  0
LINE
  5
3BE
100
AcDbEntity
  8
B-ACHSEN
100
AcDbLine
 62
7
  6
CONTINUOUS
 10
251.5950186602
 20
112.1526121154
 11
251.5950186602
 21
115.6526121154
  0
LINE
  5
3BF
100
AcDbEntity
  8
B-ACHSEN
100
AcDbLine
 62
7
  6
CONTINUOUS
 10
251.5950186602
 20
121.6526121154
 11
251.5950186602
 21
124.201858753
  0
LINE
  5
3C0
100
AcDbEntity
  8
0
100
AcDbLine
 62
7
  6
CONTINUOUS
 10
251.8688687824
 20
121.6526121154
 11
251.8688687824
 21
115.6526121154
  0
LINE
  5
3C1
100
AcDbEntity
  8
0
100
AcDbLine
 62
7
  6
CONTINUOUS
 10
251.8890396928
 20
115.6526121154
 11
251.8890396928
 21
121.6526121154
  0
LINE
  5
3C2
100
AcDbEntity
  8
0
100
AcDbLine
 62
7
  6
CONTINUOUS
 10
251.8937834597
 20
121.6526121154
 11
251.8937834597
 21
115.6526121154
  0
LINE
  5
3C3
100
AcDbEntity
  8
0
100
AcDbLine
 62
7
  6
CONTINUOUS
 10
236.5950186602
 20
186.0625231424
 11
236.8950186602
 21
186.0625231424
  0
LINE
  5
3C4
100
AcDbEntity
  8
B-ACHSEN
100
AcDbLine
 62
7
  6
CONTINUOUS
 10
238.5950186602
 20
77.6526121154
 11
237.0950186602
 21
76.1526121154
  0
LINE
  5
3C5
100
AcDbEntity
  8
0
100
AcDbLine
 62
7
  6
CONTINUOUS
 10
236.5950186602
 20
190.2199810387
 11
236.8950186602
 21
190.2199810387
  0
LINE
  5
3C6
100
AcDbEntity
  8
0
100
AcDbLine
 62
7
  6
CONTINUOUS
 10
236.5950186602
 20
190.5428701847
 11
236.8950186602
 21
190.5428701847
  0
LINE
  5
3C7
100
AcDbEntity
  8
0
100
AcDbLine
 62
7
  6
CONTINUOUS
 10
236.5950186602
 20
191.6191673383
 11
236.8950186602
 21
191.6191673383
  0
LINE
  5
3C8
100
AcDbEntity
  8
0
100
AcDbLine
 62
7
  6
CONTINUOUS
 10
236.5950186602
 20
191.9420564843
 11
236.8950186602
 21
191.9420564843
  0
LINE
  5
3C9
100
AcDbEntity
  8
0
100
AcDbLine
 62
7
  6
CONTINUOUS
 10
236.5950186602
 20
192.1789587995
 11
236.8950186602
 21
192.1789587995
  0
LINE
  5
3CA
100
AcDbEntity
  8
0
100
AcDbLine
 62
7
  6
CONTINUOUS
 10
236.5950186602
 20
192.499378236
 11
236.8950186602
 21
192.499378236
  0
LINE
  5
3CB
100
AcDbEntity
  8
0
100
AcDbLine
 62
7
  6
CONTINUOUS
 10
236.5950186602
 20
192.8389708473
 11
236.8950186602
 21
192.8389708473
  0
LINE
  5
3CC
100
AcDbEntity
  8
0
100
AcDbLine
 62
7
  6
CONTINUOUS
 10
236.5950186602
 20
192.9824769976
 11
236.8950186602
 21
192.9824769976
  0
LINE
  5
3CD
100
AcDbEntity
  8
0
100
AcDbLine
 62
7
  6
CONTINUOUS
 10
236.5950186602
 20
193.1092798879
 11
236.8950186602
 21
193.1092798879
  0
LINE
  5
3CE
100
AcDbEntity
  8
0
100
AcDbLine
 62
7
  6
CONTINUOUS
 10
236.5950186602
 20
194.6686758031
 11
236.8950186602
 21
194.6686758031
  0
LINE
  5
3CF
100
AcDbEntity
  8
0
100
AcDbLine
 62
7
  6
CONTINUOUS
 10
236.5950186602
 20
194.8839352338
 11
236.8950186602
 21
194.8839352338
  0
LINE
  5
3D0
100
AcDbEntity
  8
0
100
AcDbLine
 62
7
  6
CONTINUOUS
 10
236.5950186602
 20
195.153009659
 11
236.8950186602
 21
195.153009659
  0
LINE
  5
3D1
100
AcDbEntity
  8
RUNDUNGEN
100
AcDbLine
 62
7
  6
CONTINUOUS
 10
235.0950186602
 20
202.8659079268
 11
218.0950186602
 21
202.8659079268
  0
LWPOLYLINE
  5
3D2
100
AcDbEntity
  8
RUNDUNGEN
100
AcDbPolyline
 62
7
  6
CONTINUOUS
 90
17
 70
0
 10
45.6157705821
 20
27.0512674538
 10
45.6270209561
 20
26.8677004566
 10
45.6670163699
 20
26.6621045388
 10
45.7313588221
 20
26.4731732843
 10
45.8151741808
 20
26.3030158303
 10
45.9139839144
 20
26.1523847442
 10
46.0238474794
 20
26.0211798635
 10
46.1407355334
 20
25.9093006131
 10
46.2620243403
 20
25.8152479033
 10
46.382423464
 20
25.7392901818
 10
46.4986180745
 20
25.6795577511
 10
46.6053041238
 20
25.6347234986
 10
46.6959684203
 20
25.6031087429
 10
46.7761031715
 20
25.5793596624
 10
46.8479282376
 20
25.5607976308
 10
46.9165118963
 20
25.5449597032
 10
46.9725114153
 20
25.5331026832
  0
LINE
  5
3D3
100
AcDbEntity
  8
RUNDUNGEN
100
AcDbLine
 62
7
  6
CONTINUOUS
 10
45.6157674811
 20
27.0507842141
 11
45.6157674811
 21
44.0785338452
  0
LWPOLYLINE
  5
3D4
100
AcDbEntity
  8
RUNDUNGEN
100
AcDbPolyline
 62
7
  6
CONTINUOUS
 90
3
 70
0
 10
70.5495635617
 20
48.68651071
 10
70.4578918797
 20
48.5608869484
 10
70.3478104491
 20
48.4509602762
  0
LINE
  5
3D5
100
AcDbEntity
  8
RUNDUNGEN
100
AcDbLine
 62
7
  6
CONTINUOUS
 10
70.4578985682
 20
22.5684233081
 11
70.5495636233
 21
22.4428072855
  0
LINE
  5
3D6
100
AcDbEntity
  8
0
100
AcDbLine
 62
7
  6
CONTINUOUS
 10
68.9050661375
 20
25.5646590292
 11
68.9050661375
 21
25.2646590292
  0
LINE
  5
3D7
100
AcDbEntity
  8
0
100
AcDbLine
 62
7
  6
CONTINUOUS
 10
69.6845894931
 20
25.5646590292
 11
69.6845894931
 21
25.2646590292
  0
LWPOLYLINE
  5
3D8
100
AcDbEntity
  8
RUNDUNGEN
100
AcDbPolyline
 62
7
  6
CONTINUOUS
 90
5
 70
0
 10
70.3478104491
 20
48.4509602762
 10
70.2220099143
 20
48.3594359773
 10
70.0835342258
 20
48.2885299425
 10
69.9357342962
 20
48.239959249
 10
69.8056901915
 20
48.2171569667
  0
LINE
  5
3D9
100
AcDbEntity
  8
0
100
AcDbLine
 62
7
  6
CONTINUOUS
 10
72.0790632925
 20
20.2369879732
 11
72.0790632925
 21
19.7524011259
  0
LINE
  5
3DA
100
AcDbEntity
  8
0
100
AcDbLine
 62
7
  6
CONTINUOUS
 10
72.2830006783
 20
25.5646590292
 11
72.2830006783
 21
25.2646590292
  0
LINE
  5
3DB
100
AcDbEntity
  8
0
100
AcDbLine
 62
7
  6
CONTINUOUS
 10
73.0625240338
 20
25.5646590292
 11
73.0625240338
 21
25.2646590292
  0
LINE
  5
3DC
100
AcDbEntity
  8
0
100
AcDbLine
 62
7
  6
CONTINUOUS
 10
74.1851405519
 20
25.5646590292
 11
74.1851405519
 21
25.2646590292
  0
LINE
  5
3DD
100
AcDbEntity
  8
0
100
AcDbLine
 62
7
  6
CONTINUOUS
 10
74.3850354513
 20
25.5646590292
 11
74.3850354513
 21
25.2646590292
  0
LINE
  5
3DE
100
AcDbEntity
  8
0
100
AcDbLine
 62
7
  6
CONTINUOUS
 10
74.4790632925
 20
17.5652840401
 11
74.4790632925
 21
17.1508734325
  0
LINE
  5
3DF
100
AcDbEntity
  8
0
100
AcDbLine
 62
7
  6
CONTINUOUS
 10
74.6582106437
 20
25.5646590292
 11
74.6582106437
 21
25.2646590292
  0
LWPOLYLINE
  5
3E0
100
AcDbEntity
  8
RUNDUNGEN
100
AcDbPolyline
 62
7
  6
CONTINUOUS
 90
18
 70
0
 10
136.7684235907
 20
25.550960178
 10
136.8391867728
 20
25.5680173712
 10
136.9106083805
 20
25.587427096
 10
136.9888680636
 20
25.6118594256
 10
137.0751586092
 20
25.643387208
 10
137.1731018347
 20
25.6859264996
 10
137.2778598187
 20
25.7405177557
 10
137.3853991011
 20
25.8078473879
 10
137.493229741
 20
25.8889633068
 10
137.5977002305
 20
25.9835439646
 10
137.6966447912
 20
26.0919189213
 10
137.787464049
 20
26.2136513499
 10
137.867532068
 20
26.347602228
 10
137.9343708952
 20
26.4917778466
 10
137.9864825404
 20
26.6452287742
 10
138.0222869739
 20
26.8064511142
 10
138.0403365008
 20
26.9733623668
 10
138.0423566081
 20
27.0512629366
  0
LINE
  5
3E1
100
AcDbEntity
  8
RUNDUNGEN
100
AcDbLine
 62
7
  6
CONTINUOUS
 10
136.6858799858
 20
25.533156551
 11
136.7684235907
 21
25.550960178
  0
LWPOLYLINE
  5
3E2
100
AcDbEntity
  8
RUNDUNGEN
100
AcDbPolyline
 62
7
  6
CONTINUOUS
 90
3
 70
0
 10
136.6347605248
 20
25.5231584276
 10
136.6671719079
 20
25.529394193
 10
136.6868506933
 20
25.5333533028
  0
LINE
  5
3E3
100
AcDbEntity
  8
RUNDUNGEN
100
AcDbLine
 62
7
  6
CONTINUOUS
 10
136.6347605248
 20
25.5231584276
 11
124.0081443732
 21
23.2075302363
  0
LWPOLYLINE
  5
3E4
100
AcDbEntity
  8
RUNDUNGEN
100
AcDbPolyline
 62
7
  6
CONTINUOUS
 90
4
 70
0
 10
46.9712705798
 20
25.5333543868
 10
46.9912626589
 20
25.5293332912
 10
47.0239012212
 20
25.5230583068
 10
59.6499822118
 20
23.2075302363
  0
LINE
  5
3E5
100
AcDbEntity
  8
0
100
AcDbLine
 62
7
  6
CONTINUOUS
 10
74.9790633878
 20
17.0963753186
 11
74.9790633878
 21
16.6922584608
  0
LINE
  5
3E6
100
AcDbEntity
  8
0
100
AcDbLine
 62
7
  6
CONTINUOUS
 10
75.2278668534
 20
25.5646590292
 11
75.2278668534
 21
25.2646590292
  0
LINE
  5
3E7
100
AcDbEntity
  8
0
100
AcDbLine
 62
7
  6
CONTINUOUS
 10
75.3790632925
 20
16.7392108274
 11
75.3790632925
 21
16.342601387
  0
LINE
  5
3E8
100
AcDbEntity
  8
0
100
AcDbLine
 62
7
  6
CONTINUOUS
 10
75.5743213477
 20
25.5646590292
 11
75.5743213477
 21
25.2646590292
  0
LINE
  5
3E9
100
AcDbEntity
  8
0
100
AcDbLine
 62
7
  6
CONTINUOUS
 10
75.6790632925
 20
16.4812238039
 11
75.6790632925
 21
16.0898676311
  0
LINE
  5
3EA
100
AcDbEntity
  8
0
100
AcDbLine
 62
7
  6
CONTINUOUS
 10
75.7790631971
 20
16.3970431905
 11
75.7790631971
 21
16.0073714632
  0
LINE
  5
3EB
100
AcDbEntity
  8
0
100
AcDbLine
 62
7
  6
CONTINUOUS
 10
75.8790633878
 20
16.3137498808
 11
75.8790633878
 21
15.9257307733
  0
LINE
  5
3EC
100
AcDbEntity
  8
0
100
AcDbLine
 62
7
  6
CONTINUOUS
 10
76.1306434834
 20
25.5646590292
 11
76.1306434834
 21
25.2646590292
  0
LINE
  5
3ED
100
AcDbEntity
  8
0
100
AcDbLine
 62
7
  6
CONTINUOUS
 10
76.5503782708
 20
25.5646590292
 11
76.5503782708
 21
25.2646590292
  0
LINE
  5
3EE
100
AcDbEntity
  8
0
100
AcDbLine
 62
7
  6
CONTINUOUS
 10
76.6790631971
 20
15.6780429996
 11
76.6790631971
 21
15.3021938013
  0
LINE
  5
3EF
100
AcDbEntity
  8
0
100
AcDbLine
 62
7
  6
CONTINUOUS
 10
77.0433928556
 20
25.5646590292
 11
77.0433928556
 21
25.2646590292
  0
LINE
  5
3F0
100
AcDbEntity
  8
0
100
AcDbLine
 62
7
  6
CONTINUOUS
 10
77.2765658263
 20
25.5646590292
 11
77.2765658263
 21
25.2646590292
  0
LINE
  5
3F1
100
AcDbEntity
  8
0
100
AcDbLine
 62
7
  6
CONTINUOUS
 10
77.2790634832
 20
15.2349392685
 11
77.2790634832
 21
14.8671348886
  0
LINE
  5
3F2
100
AcDbEntity
  8
0
100
AcDbLine
 62
7
  6
CONTINUOUS
 10
77.3498457264
 20
25.5646590292
 11
77.3498457264
 21
25.2646590292
  0
LINE
  5
3F3
100
AcDbEntity
  8
0
100
AcDbLine
 62
7
  6
CONTINUOUS
 10
77.3790631017
 20
15.1637400674
 11
77.3790631017
 21
14.7971966304
  0
LINE
  5
3F4
100
AcDbEntity
  8
0
100
AcDbLine
 62
7
  6
CONTINUOUS
 10
77.4097919456
 20
25.5646590292
 11
77.4097919456
 21
25.2646590292
  0
LINE
  5
3F5
100
AcDbEntity
  8
0
100
AcDbLine
 62
7
  6
CONTINUOUS
 10
77.5790634832
 20
15.0235415952
 11
77.5790634832
 21
14.6594561975
  0
LINE
  5
3F6
100
AcDbEntity
  8
0
100
AcDbLine
 62
7
  6
CONTINUOUS
 10
77.8790634832
 20
14.8186351856
 11
77.8790634832
 21
14.4580840981
  0
LWPOLYLINE
  5
3F7
100
AcDbEntity
  8
RUNDUNGEN
100
AcDbPolyline
 62
7
  6
CONTINUOUS
 90
3
 70
0
 10
113.8524056896
 20
22.9121543187
 10
113.8700589506
 20
22.9140515371
 10
114.03121644
 20
22.930647732
  0
LINE
  5
3F8
100
AcDbEntity
  8
RUNDUNGEN
100
AcDbLine
 62
7
  6
CONTINUOUS
 10
114.03121644
 20
22.930647732
 11
114.205804874
 21
22.947328504
  0
LWPOLYLINE
  5
3F9
100
AcDbEntity
  8
RUNDUNGEN
100
AcDbPolyline
 62
7
  6
CONTINUOUS
 90
8
 70
0
 10
114.205804874
 20
22.947328504
 10
114.3942023143
 20
22.9640445388
 10
114.5964129996
 20
22.9807094944
 10
114.8125351701
 20
22.9972435997
 10
115.0424109383
 20
23.0135452456
 10
115.2858992565
 20
23.0295316563
 10
115.5427982012
 20
23.045133987
 10
115.8128399803
 20
23.060278251
  0
LINE
  5
3FA
100
AcDbEntity
  8
RUNDUNGEN
100
AcDbLine
 62
7
  6
CONTINUOUS
 10
69.4946180328
 20
22.9433995702
 11
69.6754502489
 21
22.9257796367
  0
LINE
  5
3FB
100
AcDbEntity
  8
RUNDUNGEN
100
AcDbLine
 62
7
  6
CONTINUOUS
 10
69.6754502489
 20
22.9257796367
 11
69.8057076087
 21
22.9121557599
  0
LWPOLYLINE
  5
3FC
100
AcDbEntity
  8
RUNDUNGEN
100
AcDbPolyline
 62
7
  6
CONTINUOUS
 90
6
 70
0
 10
69.805690262
 20
22.9121610152
 10
69.9357375315
 20
22.8893579606
 10
70.0835388968
 20
22.8407861213
 10
70.2220157046
 20
22.7698784917
 10
70.3478169403
 20
22.6783522249
 10
70.4578985682
 20
22.5684233081
  0
LINE
  5
3FD
100
AcDbEntity
  8
0
100
AcDbLine
 62
7
  6
CONTINUOUS
 10
78.2790631017
 20
14.5551969982
 11
78.2790631017
 21
14.1990910557
  0
LINE
  5
3FE
100
AcDbEntity
  8
0
100
AcDbLine
 62
7
  6
CONTINUOUS
 10
78.4124028666
 20
25.5646590292
 11
78.4124028666
 21
25.2646590292
  0
LINE
  5
3FF
100
AcDbEntity
  8
0
100
AcDbLine
 62
7
  6
CONTINUOUS
 10
78.5557137928
 20
25.5646590292
 11
78.5557137928
 21
25.2646590292
  0
LINE
  5
400
100
AcDbEntity
  8
0
100
AcDbLine
 62
7
  6
CONTINUOUS
 10
78.6790632925
 20
14.3025448352
 11
78.6790632925
 21
13.9506011039
  0
LINE
  5
401
100
AcDbEntity
  8
0
100
AcDbLine
 62
7
  6
CONTINUOUS
 10
79.0790634832
 20
14.0602988931
 11
79.0790634832
 21
13.712256304
  0
LINE
  5
402
100
AcDbEntity
  8
0
100
AcDbLine
 62
7
  6
CONTINUOUS
 10
79.3790634832
 20
13.8852331893
 11
79.3790634832
 21
13.5399568803
  0
LINE
  5
403
100
AcDbEntity
  8
0
100
AcDbLine
 62
7
  6
CONTINUOUS
 10
79.5790632925
 20
13.771598207
 11
79.5790632925
 21
13.4280942551
  0
LINE
  5
404
100
AcDbEntity
  8
0
100
AcDbLine
 62
7
  6
CONTINUOUS
 10
79.6451653726
 20
25.5646590292
 11
79.6451653726
 21
25.2646590292
  0
LINE
  5
405
100
AcDbEntity
  8
0
100
AcDbLine
 62
7
  6
CONTINUOUS
 10
79.6790634832
 20
13.7156886957
 11
79.6790634832
 21
13.3730501503
  0
LINE
  5
406
100
AcDbEntity
  8
0
100
AcDbLine
 62
7
  6
CONTINUOUS
 10
80.1648476096
 20
25.5646590292
 11
80.1648476096
 21
25.2646590292
  0
LINE
  5
407
100
AcDbEntity
  8
0
100
AcDbLine
 62
7
  6
CONTINUOUS
 10
80.2790634832
 20
13.3926608241
 11
80.2790634832
 21
13.0549388087
  0
LINE
  5
408
100
AcDbEntity
  8
0
100
AcDbLine
 62
7
  6
CONTINUOUS
 10
81.0790632925
 20
12.9939368432
 11
81.0790632925
 21
12.6620936707
  0
LINE
  5
409
100
AcDbEntity
  8
0
100
AcDbLine
 62
7
  6
CONTINUOUS
 10
81.154124978
 20
25.5646590292
 11
81.154124978
 21
25.2646590292
  0
LINE
  5
40A
100
AcDbEntity
  8
RUNDUNGEN
100
AcDbLine
 62
7
  6
CONTINUOUS
 10
115.8128399803
 20
23.060278251
 11
116.3910545711
 21
23.0888632505
  0
LINE
  5
40B
100
AcDbEntity
  8
RUNDUNGEN
100
AcDbLine
 62
7
  6
CONTINUOUS
 10
116.3910545711
 20
23.0888632505
 11
117.0174551859
 21
23.1146464532
  0
LINE
  5
40C
100
AcDbEntity
  8
RUNDUNGEN
100
AcDbLine
 62
7
  6
CONTINUOUS
 10
117.0174551859
 20
23.1146464532
 11
117.6879273883
 21
23.1370843082
  0
LINE
  5
40D
100
AcDbEntity
  8
RUNDUNGEN
100
AcDbLine
 62
7
  6
CONTINUOUS
 10
117.6879273883
 20
23.1370843082
 11
118.3974418756
 21
23.1555914625
  0
LINE
  5
40E
100
AcDbEntity
  8
RUNDUNGEN
100
AcDbLine
 62
7
  6
CONTINUOUS
 10
118.3974418756
 20
23.1555914625
 11
119.1403864796
 21
23.1696916017
  0
LINE
  5
40F
100
AcDbEntity
  8
RUNDUNGEN
100
AcDbLine
 62
7
  6
CONTINUOUS
 10
119.1403864796
 20
23.1696916017
 11
119.9103456036
 21
23.1789253094
  0
LINE
  5
410
100
AcDbEntity
  8
RUNDUNGEN
100
AcDbLine
 62
7
  6
CONTINUOUS
 10
119.9103456036
 20
23.1789253094
 11
120.6991482192
 21
23.1828200797
  0
LINE
  5
411
100
AcDbEntity
  8
RUNDUNGEN
100
AcDbLine
 62
7
  6
CONTINUOUS
 10
123.737570519
 20
23.1829250274
 11
120.6991482192
 21
23.1828200797
  0
LINE
  5
412
100
AcDbEntity
  8
0
100
AcDbLine
 62
7
  6
CONTINUOUS
 10
113.9869275984
 20
25.2646590292
 11
111.7217509835
 21
25.2646590292
  0
LINE
  5
413
100
AcDbEntity
  8
0
100
AcDbLine
 62
7
  6
CONTINUOUS
 10
110.8987505227
 20
25.2646590292
 11
107.0912225254
 21
25.2646590292
  0
LINE
  5
414
100
AcDbEntity
  8
0
100
AcDbLine
 62
7
  6
CONTINUOUS
 10
106.068553927
 20
25.2646590292
 11
101.5612792391
 21
25.2646590292
  0
LINE
  5
415
100
AcDbEntity
  8
0
100
AcDbLine
 62
7
  6
CONTINUOUS
 10
82.2401021443
 20
25.2646590292
 11
68.9050661375
 21
25.2646590292
  0
LINE
  5
416
100
AcDbEntity
  8
RUNDUNGEN
100
AcDbLine
 62
7
  6
CONTINUOUS
 10
59.920556066
 20
23.1829250274
 11
63.0018393204
 21
23.1827521605
  0
LINE
  5
417
100
AcDbEntity
  8
RUNDUNGEN
100
AcDbLine
 62
7
  6
CONTINUOUS
 10
63.0018393204
 20
23.1827521605
 11
63.8344143977
 21
23.1781554259
  0
LINE
  5
418
100
AcDbEntity
  8
RUNDUNGEN
100
AcDbLine
 62
7
  6
CONTINUOUS
 10
63.8344143977
 20
23.1781554259
 11
64.6443204629
 21
23.1676547205
  0
LINE
  5
419
100
AcDbEntity
  8
RUNDUNGEN
100
AcDbLine
 62
7
  6
CONTINUOUS
 10
64.6443204629
 20
23.1676547205
 11
65.4224298638
 21
23.1518210986
  0
LINE
  5
41A
100
AcDbEntity
  8
RUNDUNGEN
100
AcDbLine
 62
7
  6
CONTINUOUS
 10
65.4224298638
 20
23.1518210986
 11
66.1615616646
 21
23.1311895548
  0
LINE
  5
41B
100
AcDbEntity
  8
RUNDUNGEN
100
AcDbLine
 62
7
  6
CONTINUOUS
 10
66.1615616646
 20
23.1311895548
 11
66.855444345
 21
23.1063623626
  0
LWPOLYLINE
  5
41C
100
AcDbEntity
  8
RUNDUNGEN
100
AcDbPolyline
 62
7
  6
CONTINUOUS
 90
10
 70
0
 10
66.855444345
 20
23.1063623626
 10
67.4986040083
 20
23.0780111344
 10
67.7997658535
 20
23.0627127932
 10
68.0867691485
 20
23.0467943298
 10
68.3592068008
 20
23.0303524617
 10
68.6167608683
 20
23.0134739044
 10
68.8592333342
 20
22.9962359878
 10
69.0864737217
 20
22.9787340258
 10
69.2982951268
 20
22.9610854284
 10
69.4946180328
 20
22.9433995702
  0
LINE
  5
41D
100
AcDbEntity
  8
0
100
AcDbLine
 62
7
  6
CONTINUOUS
 10
82.0202627005
 20
25.5646590292
 11
82.0202627005
 21
25.2646590292
  0
LINE
  5
41E
100
AcDbEntity
  8
0
100
AcDbLine
 62
7
  6
CONTINUOUS
 10
82.2401021443
 20
25.5646590292
 11
82.2401021443
 21
25.2646590292
  0
LINE
  5
41F
100
AcDbEntity
  8
0
100
AcDbLine
 62
7
  6
CONTINUOUS
 10
83.4790632925
 20
12.000332177
 11
83.4790632925
 21
11.6822910562
  0
LINE
  5
420
100
AcDbEntity
  8
0
100
AcDbLine
 62
7
  6
CONTINUOUS
 10
83.9790636739
 20
11.8290843366
 11
83.9790636739
 21
11.5133075913
  0
LINE
  5
421
100
AcDbEntity
  8
0
100
AcDbLine
 62
7
  6
CONTINUOUS
 10
84.3790632925
 20
11.7005122814
 11
84.3790632925
 21
11.3864146761
  0
LINE
  5
422
100
AcDbEntity
  8
0
100
AcDbLine
 62
7
  6
CONTINUOUS
 10
84.779062911
 20
11.5792990231
 11
84.779062911
 21
11.2667682849
  0
LINE
  5
423
100
AcDbEntity
  8
0
100
AcDbLine
 62
7
  6
CONTINUOUS
 10
84.9790632925
 20
11.5214167354
 11
84.9790632925
 21
11.209628748
  0
LINE
  5
424
100
AcDbEntity
  8
0
100
AcDbLine
 62
7
  6
CONTINUOUS
 10
85.079062911
 20
11.4931510821
 11
85.079062911
 21
11.1817245288
  0
LINE
  5
425
100
AcDbEntity
  8
RUNDUNGEN
100
AcDbLine
 62
7
  6
CONTINUOUS
 10
47.2336210323
 20
25.5646590292
 11
136.4245055527
 21
25.5646590292
  0
LINE
  5
426
100
AcDbEntity
  8
0
100
AcDbLine
 62
7
  6
CONTINUOUS
 10
90.6790632925
 20
10.5911230361
 11
90.6790632925
 21
10.290808907
  0
LINE
  5
427
100
AcDbEntity
  8
0
100
AcDbLine
 62
7
  6
CONTINUOUS
 10
91.2790632925
 20
10.5707097614
 11
91.2790632925
 21
10.2706379966
  0
LINE
  5
428
100
AcDbEntity
  8
B-ACHSEN
100
AcDbLine
 62
2
  6
CENTER
 10
91.8290632925
 20
35.5646590292
 11
91.8290632925
 21
7.5646590292
  0
LINE
  5
429
100
AcDbEntity
  8
B-ACHSEN
100
AcDbLine
 62
2
  6
CENTER
 10
91.8290632925
 20
35.5646590292
 11
91.8290632925
 21
63.5646590292
  0
LINE
  5
42A
100
AcDbEntity
  8
0
100
AcDbLine
 62
7
  6
CONTINUOUS
 10
92.0790625295
 20
10.5659090528
 11
92.0790625295
 21
10.2658942297
  0
LINE
  5
42B
100
AcDbEntity
  8
B-ACHSEN
100
AcDbLine
 62
2
  6
CENTER
 10
91.8290632925
 20
35.5646590292
 11
41.4997486803
 21
35.5646590292
  0
LINE
  5
42C
100
AcDbEntity
  8
B-ACHSEN
100
AcDbLine
 62
2
  6
CENTER
 10
91.8290632925
 20
35.5646590292
 11
142.1525953956
 21
35.5646590292
  0
LINE
  5
42D
100
AcDbEntity
  8
0
100
AcDbLine
 62
7
  6
CONTINUOUS
 10
94.4790625295
 20
10.7055057041
 11
94.4790625295
 21
10.4038262917
  0
LINE
  5
42E
100
AcDbEntity
  8
0
100
AcDbLine
 62
7
  6
CONTINUOUS
 10
94.9790640554
 20
10.7639030893
 11
94.9790640554
 21
10.4615218708
  0
LINE
  5
42F
100
AcDbEntity
  8
0
100
AcDbLine
 62
7
  6
CONTINUOUS
 10
95.3790625295
 20
10.8179924776
 11
95.3790625295
 21
10.5149583241
  0
LINE
  5
430
100
AcDbEntity
  8
0
100
AcDbLine
 62
7
  6
CONTINUOUS
 10
95.6790625295
 20
10.8628877187
 11
95.6790625295
 21
10.5593094841
  0
LINE
  5
431
100
AcDbEntity
  8
0
100
AcDbLine
 62
7
  6
CONTINUOUS
 10
95.7790632925
 20
10.878681228
 11
95.7790632925
 21
10.5749111313
  0
LINE
  5
432
100
AcDbEntity
  8
0
100
AcDbLine
 62
7
  6
CONTINUOUS
 10
95.8790640554
 20
10.8948902054
 11
95.8790640554
 21
10.5909229487
  0
LINE
  5
433
100
AcDbEntity
  8
0
100
AcDbLine
 62
7
  6
CONTINUOUS
 10
96.6790632925
 20
11.0396208029
 11
96.6790632925
 21
10.7338817558
  0
LINE
  5
434
100
AcDbEntity
  8
0
100
AcDbLine
 62
7
  6
CONTINUOUS
 10
96.9790632925
 20
11.1008592426
 11
96.9790632925
 21
10.7943643196
  0
LINE
  5
435
100
AcDbEntity
  8
0
100
AcDbLine
 62
7
  6
CONTINUOUS
 10
97.0790640554
 20
11.1221245455
 11
97.0790640554
 21
10.8153662719
  0
LINE
  5
436
100
AcDbEntity
  8
0
100
AcDbLine
 62
7
  6
CONTINUOUS
 10
97.4790625295
 20
11.2114763086
 11
97.4790625295
 21
10.9036065654
  0
LINE
  5
437
100
AcDbEntity
  8
0
100
AcDbLine
 62
7
  6
CONTINUOUS
 10
97.8790632925
 20
11.3077527961
 11
97.8790632925
 21
10.9986764517
  0
LINE
  5
438
100
AcDbEntity
  8
0
100
AcDbLine
 62
7
  6
CONTINUOUS
 10
98.2790640554
 20
11.4110363163
 11
98.2790640554
 21
11.100655061
  0
LINE
  5
439
100
AcDbEntity
  8
0
100
AcDbLine
 62
7
  6
CONTINUOUS
 10
98.7790632925
 20
11.5501321757
 11
98.7790632925
 21
11.2379761481
  0
LINE
  5
43A
100
AcDbEntity
  8
0
100
AcDbLine
 62
7
  6
CONTINUOUS
 10
99.2790625295
 20
11.7005120432
 11
99.2790625295
 21
11.386414441
  0
LINE
  5
43B
100
AcDbEntity
  8
0
100
AcDbLine
 62
7
  6
CONTINUOUS
 10
99.6790632925
 20
11.8290844628
 11
99.6790632925
 21
11.5133077158
  0
LINE
  5
43C
100
AcDbEntity
  8
0
100
AcDbLine
 62
7
  6
CONTINUOUS
 10
99.9790632925
 20
11.930414806
 11
99.9790632925
 21
11.6133020739
  0
LINE
  5
43D
100
AcDbEntity
  8
0
100
AcDbLine
 62
7
  6
CONTINUOUS
 10
100.0790640554
 20
11.9651359957
 11
100.0790640554
 21
11.6475628967
  0
LINE
  5
43E
100
AcDbEntity
  8
0
100
AcDbLine
 62
7
  6
CONTINUOUS
 10
100.1790625295
 20
12.0003319066
 11
100.1790625295
 21
11.6822907894
  0
LINE
  5
43F
100
AcDbEntity
  8
0
100
AcDbLine
 62
7
  6
CONTINUOUS
 10
100.3790640554
 20
12.0721605041
 11
100.3790640554
 21
11.7531599804
  0
LINE
  5
440
100
AcDbEntity
  8
0
100
AcDbLine
 62
7
  6
CONTINUOUS
 10
101.1790632925
 20
12.3789414427
 11
101.1790632925
 21
12.0557777287
  0
LINE
  5
441
100
AcDbEntity
  8
0
100
AcDbLine
 62
7
  6
CONTINUOUS
 10
101.5612792391
 20
25.5646590292
 11
101.5612792391
 21
25.2646590292
  0
LINE
  5
442
100
AcDbEntity
  8
0
100
AcDbLine
 62
7
  6
CONTINUOUS
 10
101.891038379
 20
25.5646590292
 11
101.891038379
 21
25.2646590292
  0
LINE
  5
443
100
AcDbEntity
  8
0
100
AcDbLine
 62
7
  6
CONTINUOUS
 10
102.5790625295
 20
12.9939364798
 11
102.5790625295
 21
12.6620933126
  0
LINE
  5
444
100
AcDbEntity
  8
RUNDUNGEN
100
AcDbLine
 62
7
  6
CONTINUOUS
 10
136.4245055527
 20
45.5646590292
 11
47.2336210323
 21
45.5646590292
  0
LINE
  5
445
100
AcDbEntity
  8
0
100
AcDbLine
 62
7
  6
CONTINUOUS
 10
102.8436758486
 20
25.5646590292
 11
102.8436758486
 21
25.2646590292
  0
LINE
  5
446
100
AcDbEntity
  8
0
100
AcDbLine
 62
7
  6
CONTINUOUS
 10
103.3790640554
 20
13.3926613209
 11
103.3790640554
 21
13.054939298
  0
LINE
  5
447
100
AcDbEntity
  8
0
100
AcDbLine
 62
7
  6
CONTINUOUS
 10
103.9790640554
 20
13.715689226
 11
103.9790640554
 21
13.3730506724
  0
LINE
  5
448
100
AcDbEntity
  8
0
100
AcDbLine
 62
7
  6
CONTINUOUS
 10
105.7885417759
 20
25.5646590292
 11
105.7885417759
 21
25.2646590292
  0
LINE
  5
449
100
AcDbEntity
  8
0
100
AcDbLine
 62
7
  6
CONTINUOUS
 10
106.068553927
 20
25.5646590292
 11
106.068553927
 21
25.2646590292
  0
LINE
  5
44A
100
AcDbEntity
  8
RUNDUNGEN
100
AcDbLine
 62
7
  6
CONTINUOUS
 10
67.8452865941
 20
48.0690398068
 11
67.2670719261
 21
48.040454804
  0
LINE
  5
44B
100
AcDbEntity
  8
RUNDUNGEN
100
AcDbLine
 62
7
  6
CONTINUOUS
 10
67.2670719261
 20
48.040454804
 11
66.6406712442
 21
48.0146715994
  0
LINE
  5
44C
100
AcDbEntity
  8
RUNDUNGEN
100
AcDbLine
 62
7
  6
CONTINUOUS
 10
66.6406712442
 20
48.0146715994
 11
65.9701989922
 21
47.9922337441
  0
LINE
  5
44D
100
AcDbEntity
  8
RUNDUNGEN
100
AcDbLine
 62
7
  6
CONTINUOUS
 10
65.9701989922
 20
47.9922337441
 11
65.2606844805
 21
47.9737265908
  0
LINE
  5
44E
100
AcDbEntity
  8
RUNDUNGEN
100
AcDbLine
 62
7
  6
CONTINUOUS
 10
65.2606844805
 20
47.9737265908
 11
64.5177398842
 21
47.9596264533
  0
LINE
  5
44F
100
AcDbEntity
  8
RUNDUNGEN
100
AcDbLine
 62
7
  6
CONTINUOUS
 10
64.5177398842
 20
47.9596264533
 11
63.7477808058
 21
47.9503927476
  0
LINE
  5
450
100
AcDbEntity
  8
RUNDUNGEN
100
AcDbLine
 62
7
  6
CONTINUOUS
 10
63.7477808058
 20
47.9503927476
 11
62.9589782793
 21
47.9464979786
  0
LINE
  5
451
100
AcDbEntity
  8
RUNDUNGEN
100
AcDbLine
 62
7
  6
CONTINUOUS
 10
59.920556066
 20
47.9463930311
 11
62.9589782793
 21
47.9464979786
  0
LINE
  5
452
100
AcDbEntity
  8
RUNDUNGEN
100
AcDbLine
 62
7
  6
CONTINUOUS
 10
123.737570519
 20
47.9463930311
 11
120.6562872646
 21
47.9465658979
  0
LINE
  5
453
100
AcDbEntity
  8
RUNDUNGEN
100
AcDbLine
 62
7
  6
CONTINUOUS
 10
120.6562872646
 20
47.9465658979
 11
119.8237121872
 21
47.9511626325
  0
LINE
  5
454
100
AcDbEntity
  8
RUNDUNGEN
100
AcDbLine
 62
7
  6
CONTINUOUS
 10
119.8237121872
 20
47.9511626325
 11
119.0138061221
 21
47.9616633379
  0
LINE
  5
455
100
AcDbEntity
  8
RUNDUNGEN
100
AcDbLine
 62
7
  6
CONTINUOUS
 10
119.0138061221
 20
47.9616633379
 11
118.2356967211
 21
47.9774969598
  0
LINE
  5
456
100
AcDbEntity
  8
RUNDUNGEN
100
AcDbLine
 62
7
  6
CONTINUOUS
 10
118.2356967211
 20
47.9774969598
 11
117.4965649204
 21
47.9981285036
  0
LINE
  5
457
100
AcDbEntity
  8
RUNDUNGEN
100
AcDbLine
 62
7
  6
CONTINUOUS
 10
117.4965649204
 20
47.9981285036
 11
116.8026822399
 21
48.0229556959
  0
LWPOLYLINE
  5
458
100
AcDbEntity
  8
RUNDUNGEN
100
AcDbPolyline
 62
7
  6
CONTINUOUS
 90
10
 70
0
 10
116.8026822399
 20
48.0229556959
 10
116.1595225766
 20
48.0513069241
 10
115.8583607315
 20
48.0666052652
 10
115.5713574365
 20
48.0825237287
 10
115.2989197842
 20
48.0989655968
 10
115.0413657166
 20
48.1158441541
 10
114.7988932508
 20
48.1330820706
 10
114.5716528632
 20
48.1505840326
 10
114.3598314581
 20
48.1682326301
 10
114.1635085522
 20
48.1859184883
  0
LINE
  5
459
100
AcDbEntity
  8
0
100
AcDbLine
 62
7
  6
CONTINUOUS
 10
106.9790640554
 20
15.6780435081
 11
106.9790640554
 21
15.3021943005
  0
LINE
  5
45A
100
AcDbEntity
  8
0
100
AcDbLine
 62
7
  6
CONTINUOUS
 10
107.0912225254
 20
25.5646590292
 11
107.0912225254
 21
25.2646590292
  0
LINE
  5
45B
100
AcDbEntity
  8
0
100
AcDbLine
 62
7
  6
CONTINUOUS
 10
107.3110619691
 20
25.5646590292
 11
107.3110619691
 21
25.2646590292
  0
LINE
  5
45C
100
AcDbEntity
  8
0
100
AcDbLine
 62
7
  6
CONTINUOUS
 10
107.7790632925
 20
16.3137499598
 11
107.7790632925
 21
15.9257308507
  0
LWPOLYLINE
  5
45D
100
AcDbEntity
  8
RUNDUNGEN
100
AcDbPolyline
 62
7
  6
CONTINUOUS
 90
3
 70
0
 10
69.8057208954
 20
48.2171637397
 10
69.7880679073
 20
48.2152665505
 10
69.626910408
 20
48.1986703525
  0
LINE
  5
45E
100
AcDbEntity
  8
RUNDUNGEN
100
AcDbLine
 62
7
  6
CONTINUOUS
 10
69.626910408
 20
48.1986703525
 11
69.4523219565
 21
48.181989577
  0
LWPOLYLINE
  5
45F
100
AcDbEntity
  8
RUNDUNGEN
100
AcDbPolyline
 62
7
  6
CONTINUOUS
 90
8
 70
0
 10
69.4523219565
 20
48.181989577
 10
69.2639244889
 20
48.1652735383
 10
69.0617137698
 20
48.1486085787
 10
68.8455915633
 20
48.1320744697
 10
68.6157157565
 20
48.1157728203
 10
68.3722273986
 20
48.0997864066
 10
68.1153284134
 20
48.0841840731
 10
67.8452865941
 20
48.0690398068
  0
LINE
  5
460
100
AcDbEntity
  8
RUNDUNGEN
100
AcDbLine
 62
7
  6
CONTINUOUS
 10
114.1635085522
 20
48.1859184883
 11
113.982676336
 21
48.2035384217
  0
LINE
  5
461
100
AcDbEntity
  8
RUNDUNGEN
100
AcDbLine
 62
7
  6
CONTINUOUS
 10
113.982676336
 20
48.2035384217
 11
113.8524189763
 21
48.2171622986
  0
LWPOLYLINE
  5
462
100
AcDbEntity
  8
RUNDUNGEN
100
AcDbPolyline
 62
7
  6
CONTINUOUS
 90
6
 70
0
 10
113.852436323
 20
48.2171570432
 10
113.7223890535
 20
48.2399600979
 10
113.5745876881
 20
48.2885319371
 10
113.4361108804
 20
48.3594395667
 10
113.3103096446
 20
48.4509658335
 10
113.2002280167
 20
48.5608947503
  0
LINE
  5
463
100
AcDbEntity
  8
0
100
AcDbLine
 62
7
  6
CONTINUOUS
 10
110.3790682857
 20
25.5646590292
 11
110.3790682857
 21
25.2646590292
  0
LINE
  5
464
100
AcDbEntity
  8
0
100
AcDbLine
 62
7
  6
CONTINUOUS
 10
110.8987505227
 20
25.5646590292
 11
110.8987505227
 21
25.2646590292
  0
LINE
  5
465
100
AcDbEntity
  8
0
100
AcDbLine
 62
7
  6
CONTINUOUS
 10
111.5790648184
 20
20.2369899394
 11
111.5790648184
 21
19.7524030318
  0
LINE
  5
466
100
AcDbEntity
  8
0
100
AcDbLine
 62
7
  6
CONTINUOUS
 10
111.7217509835
 20
25.5646590292
 11
111.7217509835
 21
25.2646590292
  0
LINE
  5
467
100
AcDbEntity
  8
0
100
AcDbLine
 62
7
  6
CONTINUOUS
 10
111.7616390553
 20
25.5646590292
 11
111.7616390553
 21
25.2646590292
  0
LINE
  5
468
100
AcDbEntity
  8
0
100
AcDbLine
 62
7
  6
CONTINUOUS
 10
111.9081986502
 20
25.5646590292
 11
111.9081986502
 21
25.2646590292
  0
LINE
  5
469
100
AcDbEntity
  8
0
100
AcDbLine
 62
7
  6
CONTINUOUS
 10
112.60110863
 20
25.5646590292
 11
112.60110863
 21
25.2646590292
  0
LINE
  5
46A
100
AcDbEntity
  8
0
100
AcDbLine
 62
7
  6
CONTINUOUS
 10
112.8942279225
 20
25.5646590292
 11
112.8942279225
 21
25.2646590292
  0
LINE
  5
46B
100
AcDbEntity
  8
0
100
AcDbLine
 62
7
  6
CONTINUOUS
 10
113.3272957925
 20
25.5646590292
 11
113.3272957925
 21
25.2646590292
  0
LWPOLYLINE
  5
46C
100
AcDbEntity
  8
RUNDUNGEN
100
AcDbPolyline
 62
7
  6
CONTINUOUS
 90
18
 70
0
 10
46.8897098331
 20
45.578359448
 10
46.8189432643
 20
45.5613017352
 10
46.7475197255
 20
45.541891556
 10
46.6692611143
 20
45.5174595388
 10
46.5829723499
 20
45.4859325465
 10
46.4850305671
 20
45.4433942959
 10
46.380273603
 20
45.3888042544
 10
46.2727339685
 20
45.3214752593
 10
46.1649023075
 20
45.2403594793
 10
46.0604305519
 20
45.1457785341
 10
45.9614846672
 20
45.0374028666
 10
45.8706642153
 20
44.9156693766
 10
45.7905954132
 20
44.7817174626
 10
45.7237564226
 20
44.6375415844
 10
45.6716447525
 20
44.4840906764
 10
45.6358402518
 20
44.3228681708
 10
45.6177906841
 20
44.1559567242
 10
45.6157705689
 20
44.0780564215
  0
LINE
  5
46D
100
AcDbEntity
  8
RUNDUNGEN
100
AcDbLine
 62
7
  6
CONTINUOUS
 10
46.9722513802
 20
45.5961623839
 11
46.8897098331
 21
45.578359448
  0
LWPOLYLINE
  5
46E
100
AcDbEntity
  8
RUNDUNGEN
100
AcDbPolyline
 62
7
  6
CONTINUOUS
 90
3
 70
0
 10
47.0233691441
 20
45.6061602176
 10
46.9909571359
 20
45.5999243576
 10
46.9712758766
 20
45.5959647556
  0
LINE
  5
46F
100
AcDbEntity
  8
RUNDUNGEN
100
AcDbLine
 62
7
  6
CONTINUOUS
 10
47.0233691441
 20
45.6061602176
 11
59.6499822118
 21
47.9217878221
  0
LWPOLYLINE
  5
470
100
AcDbEntity
  8
RUNDUNGEN
100
AcDbPolyline
 62
7
  6
CONTINUOUS
 90
4
 70
0
 10
136.6868557778
 20
45.595963715
 10
136.6668462006
 20
45.5999882651
 10
136.6342180903
 20
45.6062611022
 10
124.0081443732
 20
47.9217878221
  0
LINE
  5
471
100
AcDbEntity
  8
0
100
AcDbLine
 62
7
  6
CONTINUOUS
 10
113.9869275984
 20
25.5646590292
 11
113.9869275984
 21
25.2646590292
  0
LWPOLYLINE
  5
472
100
AcDbEntity
  8
RUNDUNGEN
100
AcDbPolyline
 62
7
  6
CONTINUOUS
 90
3
 70
0
 10
113.1085630233
 20
22.4428073484
 10
113.2002347053
 20
22.56843111
 10
113.3103161358
 20
22.6783577822
  0
LWPOLYLINE
  5
473
100
AcDbEntity
  8
RUNDUNGEN
100
AcDbPolyline
 62
7
  6
CONTINUOUS
 90
5
 70
0
 10
113.3103161358
 20
22.6783577822
 10
113.4361166707
 20
22.7698820812
 10
113.5745923592
 20
22.8407881159
 10
113.7223922888
 20
22.8893588094
 10
113.8524363934
 20
22.9121610917
  0
LINE
  5
474
100
AcDbEntity
  8
RUNDUNGEN
100
AcDbLine
 62
7
  6
CONTINUOUS
 10
113.2002280167
 20
48.5608947503
 11
113.1085629617
 21
48.6865107729
  0
LWPOLYLINE
  5
475
100
AcDbEntity
  8
RUNDUNGEN
100
AcDbPolyline
 62
7
  6
CONTINUOUS
 90
17
 70
0
 10
138.0423590763
 20
44.078034249
 10
138.0311141064
 20
44.2615629245
 10
137.9911255794
 20
44.4671567213
 10
137.9267873235
 20
44.6560944728
 10
137.842972511
 20
44.8262624711
 10
137.7441602826
 20
44.9769048198
 10
137.6342944582
 20
45.1081174942
 10
137.517403746
 20
45.2200031112
 10
137.3961132958
 20
45.3140602118
 10
137.2757099061
 20
45.3900230558
 10
137.159502772
 20
45.4497630744
 10
137.0528033291
 20
45.4946023916
 10
136.9621252341
 20
45.5262199879
 10
136.8819795095
 20
45.549969794
 10
136.8101643201
 20
45.5685278973
 10
136.7416038237
 20
45.5843603319
 10
136.6856196032
 20
45.5962143262
  0
LINE
  5
476
100
AcDbEntity
  8
RUNDUNGEN
100
AcDbLine
 62
7
  6
CONTINUOUS
 10
138.0423591039
 20
27.0507842845
 11
138.0423591039
 21
44.0797372951
  0
ARC
  5
477
100
AcDbEntity
  8
RUNDUNGEN
100
AcDbCircle
 62
7
  6
CONTINUOUS
 10
60.8290632925
 20
117.741836932
 40
6.0
100
AcDbArc
 50
0.0
 51
90.0
  0
ARC
  5
478
100
AcDbEntity
  8
RUNDUNGEN
100
AcDbCircle
 62
7
  6
CONTINUOUS
 10
49.6157674811
 20
156.6526121154
 40
4.0
100
AcDbArc
 50
157.5
 51
202.5
  0
ARC
  5
479
100
AcDbEntity
  8
RUNDUNGEN
100
AcDbCircle
 62
7
  6
CONTINUOUS
 10
59.920556066
 20
125.241836932
 40
1.5
100
AcDbArc
 50
202.5
 51
270.0
  0
ARC
  5
47A
100
AcDbEntity
  8
RUNDUNGEN
100
AcDbCircle
 62
7
  6
CONTINUOUS
 10
61.979755568
 20
186.5019198399
 40
4.0
100
AcDbArc
 50
112.5
 51
157.5
  0
CIRCLE
  5
47B
100
AcDbEntity
  8
RUNDUNGEN
100
AcDbCircle
 62
7
  6
CONTINUOUS
 10
91.8290632925
 20
156.6526121154
 40
25.0
  0
ARC
  5
47C
100
AcDbEntity
  8
RUNDUNGEN
100
AcDbCircle
 62
7
  6
CONTINUOUS
 10
122.8290632925
 20
117.741836932
 40
6.0
100
AcDbArc
 50
90.0
 51
180.0
  0
ARC
  5
47D
100
AcDbEntity
  8
RUNDUNGEN
100
AcDbCircle
 62
7
  6
CONTINUOUS
 10
123.737570519
 20
125.241836932
 40
1.5
100
AcDbArc
 50
270.0
 51
337.5
  0
ARC
  5
47E
100
AcDbEntity
  8
RUNDUNGEN
100
AcDbCircle
 62
7
  6
CONTINUOUS
 10
134.0423591039
 20
156.6526121154
 40
4.0
100
AcDbArc
 50
337.5
 51
22.5
  0
ARC
  5
47F
100
AcDbEntity
  8
RUNDUNGEN
100
AcDbCircle
 62
7
  6
CONTINUOUS
 10
121.678371017
 20
186.5019198399
 40
4.0
100
AcDbArc
 50
22.5
 51
67.5
  0
ARC
  5
480
100
AcDbEntity
  8
RUNDUNGEN
100
AcDbCircle
 62
7
  6
CONTINUOUS
 10
91.8290632925
 20
198.8659079268
 40
4.0
100
AcDbArc
 50
67.5
 51
112.5
  0
ARC
  5
481
100
AcDbEntity
  8
RUNDUNGEN
100
AcDbCircle
 62
7
  6
CONTINUOUS
 10
256.5950186602
 20
157.4111490601
 40
20.0
100
AcDbArc
 50
180.0
 51
184.3440144758
  0
ARC
  5
482
100
AcDbEntity
  8
RUNDUNGEN
100
AcDbCircle
 62
7
  6
CONTINUOUS
 10
196.5950186602
 20
157.4111490601
 40
20.0
100
AcDbArc
 50
355.6559855242
 51
360.0
  0
ARC
  5
483
100
AcDbEntity
  8
RUNDUNGEN
100
AcDbCircle
 62
8
  6
HIDDEN
 10
226.5950186602
 20
191.6526121154
 40
10.0
100
AcDbArc
 50
180.0
 51
360.0
  0
ARC
  5
484
100
AcDbEntity
  8
B-ACHSEN
100
AcDbCircle
 62
7
  6
CONTINUOUS
 10
205.5950186602
 20
124.201858753
 40
4.0
100
AcDbArc
 50
99.0
 51
180.0
  0
ARC
  5
485
100
AcDbEntity
  8
B-ACHSEN
100
AcDbCircle
 62
7
  6
CONTINUOUS
 10
247.5950186602
 20
124.201858753
 40
4.0
100
AcDbArc
 50
0.0
 51
81.0
  0
ARC
  5
486
100
AcDbEntity
  8
RUNDUNGEN
100
AcDbCircle
 62
7
  6
CONTINUOUS
 10
218.0950186602
 20
201.3659079268
 40
1.5
100
AcDbArc
 50
90.0
 51
180.0000007016
  0
ARC
  5
487
100
AcDbEntity
  8
RUNDUNGEN
100
AcDbCircle
 62
7
  6
CONTINUOUS
 10
235.0950186602
 20
201.3659079268
 40
1.5
100
AcDbArc
 50
359.9999992994
 51
90.0
  0
ARC
  5
488
100
AcDbEntity
  8
RUNDUNGEN
100
AcDbCircle
 62
7
  6
CONTINUOUS
 10
237.4767545459
 20
125.2418121319
 40
1.49999504
100
AcDbArc
 50
269.9999280396
 51
4.3440144758
  0
ARC
  5
489
100
AcDbEntity
  8
RUNDUNGEN
100
AcDbCircle
 62
7
  6
CONTINUOUS
 10
215.7132827744
 20
125.2418121319
 40
1.49999504
100
AcDbArc
 50
175.6550355013
 51
270.0000719604
  0
ARC
  5
48A
100
AcDbEntity
  8
RUNDUNGEN
100
AcDbCircle
 62
7
  6
CONTINUOUS
 10
59.9209793235
 20
24.6916492619
 40
1.5086622816
100
AcDbArc
 50
259.6412067717
 51
269.9839405252
  0
ARC
  5
48B
100
AcDbEntity
  8
RUNDUNGEN
100
AcDbCircle
 62
7
  6
CONTINUOUS
 10
59.9214029582
 20
46.4418442581
 40
1.5045490113
100
AcDbArc
 50
90.0322510945
 51
100.5516490601
  0
ARC
  5
48C
100
AcDbEntity
  8
RUNDUNGEN
100
AcDbCircle
 62
7
  6
CONTINUOUS
 10
123.7367236268
 20
24.6874738003
 40
1.5045490113
100
AcDbArc
 50
270.0322510945
 51
280.5516490601
  0
ARC
  5
48D
100
AcDbEntity
  8
0
100
AcDbCircle
 62
7
  6
CONTINUOUS
 10
91.8290632925
 20
35.5646590292
 40
25.3
100
AcDbArc
 50
309.0822072974
 51
321.3185204142
  0
ARC
  5
48E
100
AcDbEntity
  8
0
100
AcDbCircle
 62
7
  6
CONTINUOUS
 10
91.8290632925
 20
35.5646590292
 40
25.3
100
AcDbArc
 50
297.1628903641
 51
306.785022349
  0
ARC
  5
48F
100
AcDbEntity
  8
0
100
AcDbCircle
 62
7
  6
CONTINUOUS
 10
91.8290632925
 20
35.5646590292
 40
25.3
100
AcDbArc
 50
291.6888056181
 51
295.1444070465
  0
ARC
  5
490
100
AcDbEntity
  8
0
100
AcDbCircle
 62
7
  6
CONTINUOUS
 10
91.8290632925
 20
35.5646590292
 40
25.3
100
AcDbArc
 50
281.0519878281
 51
289.7517031095
  0
ARC
  5
491
100
AcDbEntity
  8
0
100
AcDbCircle
 62
7
  6
CONTINUOUS
 10
91.8290632925
 20
35.5646590292
 40
25.3
100
AcDbArc
 50
270.5661713153
 51
279.2114864247
  0
ARC
  5
492
100
AcDbEntity
  8
0
100
AcDbCircle
 62
7
  6
CONTINUOUS
 10
91.8290632925
 20
35.5646590292
 40
25.3
100
AcDbArc
 50
267.3947487349
 51
268.7543414484
  0
ARC
  5
493
100
AcDbEntity
  8
0
100
AcDbCircle
 62
7
  6
CONTINUOUS
 10
91.8290632925
 20
35.5646590292
 40
25.3
100
AcDbArc
 50
244.8555910448
 51
254.5261565278
  0
ARC
  5
494
100
AcDbEntity
  8
0
100
AcDbCircle
 62
7
  6
CONTINUOUS
 10
91.8290632925
 20
35.5646590292
 40
25.3
100
AcDbArc
 50
233.2149795387
 51
242.8371120633
  0
ARC
  5
495
100
AcDbEntity
  8
0
100
AcDbCircle
 62
7
  6
CONTINUOUS
 10
91.8290632925
 20
35.5646590292
 40
25.3
100
AcDbArc
 50
218.6814851149
 51
230.9177929809
  0
ARC
  5
496
100
AcDbEntity
  8
B-ACHSEN
100
AcDbCircle
 62
7
  6
CONTINUOUS
 10
91.8290632925
 20
35.5646590292
 40
25.0
100
AcDbArc
 50
31.1980270084
 51
148.8019729916
  0
ARC
  5
497
100
AcDbEntity
  8
B-ACHSEN
100
AcDbCircle
 62
7
  6
CONTINUOUS
 10
91.8290632925
 20
35.5646590292
 40
25.0
100
AcDbArc
 50
211.1980270084
 51
328.8019729916
  0
ARC
  5
498
100
AcDbEntity
  8
RUNDUNGEN
100
AcDbCircle
 62
7
  6
CONTINUOUS
 10
91.8290632925
 20
35.5646590292
 40
25.0
100
AcDbArc
 50
211.1980270084
 51
328.8019729916
  0
ARC
  5
499
100
AcDbEntity
  8
RUNDUNGEN
100
AcDbCircle
 62
7
  6
CONTINUOUS
 10
91.8290632925
 20
35.5646590292
 40
25.0
100
AcDbArc
 50
31.1980270084
 51
148.8019729916
  0
ARC
  5
49A
100
AcDbEntity
  8
RUNDUNGEN
100
AcDbCircle
 62
7
  6
CONTINUOUS
 10
123.7371472614
 20
46.4376687966
 40
1.5086622816
100
AcDbArc
 50
79.6412067717
 51
89.9839405252
  0
ELLIPSE
  5
49B
100
AcDbEntity
  8
0
100
AcDbEllipse
 62
7
  6
CONTINUOUS
 10
226.5950186602
 20
117.784525315
 30
0.0
 11
25.3
 21
0.0
 31
0.0
 40
0.2553189461
 41
-0.3363454467
 42
-0.3154840467
  0
ELLIPSE
  5
49C
100
AcDbEntity
  8
0
100
AcDbEllipse
 62
7
  6
CONTINUOUS
 10
226.5950186602
 20
120.7909145794
 30
0.0
 11
25.3
 21
0.0
 31
0.0
 40
0.6382984888
 41
-0.3154840467
 42
-0.2988971174
  0
ELLIPSE
  5
49D
100
AcDbEntity
  8
0
100
AcDbEllipse
 62
7
  6
CONTINUOUS
 10
226.5950186602
 20
125.5462379046
 30
0.0
 11
-0.0
 21
32.2979021194
 31
0.0
 40
0.7833326111
 41
-1.8696934442
 42
-1.8531908687
  0
ELLIPSE
  5
49E
100
AcDbEntity
  8
0
100
AcDbEllipse
 62
7
  6
CONTINUOUS
 10
226.5950186602
 20
134.5461967671
 30
0.0
 11
0.0
 21
64.595625084
 31
0.0
 40
0.3916673918
 41
-1.8531908687
 42
-1.8449693991
  0
ELLIPSE
  5
49F
100
AcDbEntity
  8
0
100
AcDbEllipse
 62
7
  6
CONTINUOUS
 10
226.5950186602
 20
160.7804332812
 30
0.0
 11
-0.0
 21
161.4899584864
 31
0.0
 40
0.1566660877
 41
-1.8449693991
 42
-1.8408658433
  0
ELLIPSE
  5
4A0
100
AcDbEntity
  8
0
100
AcDbEllipse
 62
7
  6
CONTINUOUS
 10
226.5950186602
 20
76.5247666308
 30
0.0
 11
-0.0
 21
161.4900489666
 31
0.0
 40
0.1566659999
 41
-1.3007268103
 42
-1.2966232545
  0
ELLIPSE
  5
4A1
100
AcDbEntity
  8
0
100
AcDbEllipse
 62
7
  6
CONTINUOUS
 10
226.5950186602
 20
102.7590307047
 30
0.0
 11
-0.0
 21
64.5956137741
 31
0.0
 40
0.3916674604
 41
-1.2966232545
 42
-1.2884017849
  0
ELLIPSE
  5
4A2
100
AcDbEntity
  8
0
100
AcDbEllipse
 62
7
  6
CONTINUOUS
 10
226.5950186602
 20
111.7589872035
 30
0.0
 11
0.0
 21
32.2978992919
 31
0.0
 40
0.7833326797
 41
-1.2884017849
 42
-1.2718992094
  0
ELLIPSE
  5
4A3
100
AcDbEntity
  8
0
100
AcDbEllipse
 62
7
  6
CONTINUOUS
 10
226.5950186602
 20
116.5143103206
 30
0.0
 11
25.3
 21
0.0
 31
0.0
 40
0.638298405
 41
0.2988971174
 42
0.3154840467
  0
ELLIPSE
  5
4A4
100
AcDbEntity
  8
0
100
AcDbEllipse
 62
7
  6
CONTINUOUS
 10
226.5950186602
 20
119.5206991025
 30
0.0
 11
25.3
 21
0.0
 31
0.0
 40
0.2553189237
 41
0.3154840467
 42
0.3363454467
  0
ELLIPSE
  5
4A5
100
AcDbEntity
  8
0
100
AcDbEllipse
 62
7
  6
CONTINUOUS
 10
226.5950186602
 20
112.0940978057
 30
0.0
 11
25.3
 21
-0.0
 31
0.0
 40
0.3191492025
 41
0.5651862722
 42
0.5840215729
  0
ELLIPSE
  5
4A6
100
AcDbEntity
  8
0
100
AcDbEllipse
 62
7
  6
CONTINUOUS
 10
226.5950186602
 20
104.6738861142
 30
0.0
 11
25.3
 21
-0.0
 31
0.0
 40
0.8510640264
 41
0.5840215729
 42
0.5983030396
  0
ELLIPSE
  5
4A7
100
AcDbEntity
  8
0
100
AcDbEllipse
 62
7
  6
CONTINUOUS
 10
226.5950186602
 20
89.5143699492
 30
0.0
 11
-0.0
 21
48.4467103306
 31
0.0
 40
0.5222232805
 41
-0.9724932872
 42
-0.9628947245
  0
ELLIPSE
  5
4A8
100
AcDbEntity
  8
0
100
AcDbEllipse
 62
7
  6
CONTINUOUS
 10
226.5950186602
 20
43.3970193078
 30
0.0
 11
-0.0
 21
129.1919667891
 31
0.0
 40
0.1958326096
 41
-0.9628947245
 42
-0.9580714057
  0
ELLIPSE
  5
4A9
100
AcDbEntity
  8
0
100
AcDbEllipse
 62
7
  6
CONTINUOUS
 10
226.5950186602
 20
119.0100600984
 30
0.0
 11
25.3
 21
0.0
 31
0.0
 40
0.2553192382
 41
-0.5465733301
 42
-0.5235987843
  0
ELLIPSE
  5
4AA
100
AcDbEntity
  8
0
100
AcDbEllipse
 62
7
  6
CONTINUOUS
 10
226.5950186602
 20
123.8547361402
 30
0.0
 11
25.3
 21
-0.0
 31
0.0
 40
0.6382975757
 41
-0.5235987843
 42
-0.5054368605
  0
ELLIPSE
  5
4AB
100
AcDbEntity
  8
0
100
AcDbEllipse
 62
7
  6
CONTINUOUS
 10
226.5950186602
 20
131.6738807581
 30
0.0
 11
0.0
 21
32.2978559169
 31
0.0
 40
0.7833337317
 41
-2.0762331873
 42
-2.0582520169
  0
ELLIPSE
  5
4AC
100
AcDbEntity
  8
0
100
AcDbEllipse
 62
7
  6
CONTINUOUS
 10
226.5950186602
 20
146.8015783259
 30
0.0
 11
-0.0
 21
64.5958098938
 31
0.0
 40
0.3916662713
 41
-2.0582520169
 42
-2.049325779
  0
ELLIPSE
  5
4AD
100
AcDbEntity
  8
0
100
AcDbEllipse
 62
7
  6
CONTINUOUS
 10
226.5950186602
 20
191.4184188756
 30
0.0
 11
-0.0
 21
161.4890344352
 31
0.0
 40
0.1566669842
 41
-2.049325779
 42
-2.0448781556
  0
ELLIPSE
  5
4AE
100
AcDbEntity
  8
0
100
AcDbEllipse
 62
7
  6
CONTINUOUS
 10
226.5950186602
 20
63.6171512988
 30
0.0
 11
-0.0
 21
82.5390073061
 31
0.0
 40
0.3065217383
 41
-0.8886831354
 42
-0.841952148
  0
ELLIPSE
  5
4AF
100
AcDbEntity
  8
0
100
AcDbEllipse
 62
7
  6
CONTINUOUS
 10
226.5950186602
 20
129.344102706
 30
0.0
 11
25.3
 21
-0.0
 31
0.0
 40
0.6382979484
 41
-0.7288441788
 42
-0.7078445256
  0
ELLIPSE
  5
4B0
100
AcDbEntity
  8
0
100
AcDbEllipse
 62
7
  6
CONTINUOUS
 10
226.5950186602
 20
146.8440981164
 30
0.0
 11
0.0
 21
43.0638246536
 31
0.0
 40
0.58750007
 41
-2.2786408524
 42
-2.2631360246
  0
ELLIPSE
  5
4B1
100
AcDbEntity
  8
0
100
AcDbEllipse
 62
7
  6
CONTINUOUS
 10
226.5950186602
 20
181.2058551337
 30
0.0
 11
-0.0
 21
96.8936978757
 31
0.0
 40
0.2611108932
 41
-2.2631360246
 42
-2.2580120503
  0
ELLIPSE
  5
4B2
100
AcDbEntity
  8
0
100
AcDbEllipse
 62
7
  6
CONTINUOUS
 10
226.5950186602
 20
58.780220199
 30
0.0
 11
-0.0
 21
96.8936978757
 31
0.0
 40
0.2611108932
 41
-0.8835806033
 42
-0.878456629
  0
ELLIPSE
  5
4B3
100
AcDbEntity
  8
0
100
AcDbEllipse
 62
7
  6
CONTINUOUS
 10
226.5950186602
 20
93.1419772163
 30
0.0
 11
-0.0
 21
43.0638246536
 31
0.0
 40
0.58750007
 41
-0.878456629
 42
-0.8629518012
  0
ELLIPSE
  5
4B4
100
AcDbEntity
  8
0
100
AcDbEllipse
 62
7
  6
CONTINUOUS
 10
226.5950186602
 20
105.3919720009
 30
0.0
 11
25.3
 21
0.0
 31
0.0
 40
0.9574469226
 41
0.7078445256
 42
0.7288441788
  0
ELLIPSE
  5
4B5
100
AcDbEntity
  8
0
100
AcDbEllipse
 62
7
  6
CONTINUOUS
 10
226.5950186602
 20
117.2228262544
 30
0.0
 11
25.3
 21
-0.0
 31
0.0
 40
0.2553190698
 41
0.7288441788
 42
0.7556621604
  0
ELLIPSE
  5
4B6
100
AcDbEntity
  8
0
100
AcDbEllipse
 62
7
  6
CONTINUOUS
 10
226.5950186602
 20
20.993232946
 30
0.0
 11
0.0
 21
161.4890344352
 31
0.0
 40
0.1566669842
 41
-0.9337027951
 42
-0.9287766043
  0
ELLIPSE
  5
4B7
100
AcDbEntity
  8
0
100
AcDbEllipse
 62
7
  6
CONTINUOUS
 10
226.5950186602
 20
78.6313519501
 30
0.0
 11
0.0
 21
64.5957174888
 31
0.0
 40
0.3916668315
 41
-0.943501792
 42
-0.9337027951
  0
ELLIPSE
  5
4B8
100
AcDbEntity
  8
0
100
AcDbEllipse
 62
7
  6
CONTINUOUS
 10
226.5950186602
 20
97.5887650756
 30
0.0
 11
0.0
 21
32.2979021194
 31
0.0
 40
0.7833326111
 41
-0.9628947245
 42
-0.943501792
  0
ELLIPSE
  5
4B9
100
AcDbEntity
  8
0
100
AcDbEllipse
 62
7
  6
CONTINUOUS
 10
226.5950186602
 20
106.8121907472
 30
0.0
 11
25.3
 21
0.0
 31
0.0
 40
0.6382975757
 41
0.5887669014
 42
0.6079016023
  0
ELLIPSE
  5
4BA
100
AcDbEntity
  8
0
100
AcDbEllipse
 62
7
  6
CONTINUOUS
 10
226.5950186602
 20
112.1930363885
 30
0.0
 11
25.3
 21
-0.0
 31
0.0
 40
0.2553192382
 41
0.5651862722
 42
0.5887669014
  0
ELLIPSE
  5
4BB
100
AcDbEntity
  8
0
100
AcDbEllipse
 62
7
  6
CONTINUOUS
 10
226.5950186602
 20
118.2217589191
 30
0.0
 11
25.3
 21
0.0
 31
0.0
 40
0.3191492025
 41
0.319644686
 42
0.3363454467
  0
ELLIPSE
  5
4BC
100
AcDbEntity
  8
0
100
AcDbEllipse
 62
7
  6
CONTINUOUS
 10
226.5950186602
 20
113.9930382358
 30
0.0
 11
25.3
 21
0.0
 31
0.0
 40
0.8510637283
 41
0.307179696
 42
0.319644686
  0
ELLIPSE
  5
4BD
100
AcDbEntity
  8
0
100
AcDbEllipse
 62
7
  6
CONTINUOUS
 10
226.5950186602
 20
113.6738896217
 30
0.0
 11
25.3
 21
0.0
 31
0.0
 40
0.4255318642
 41
0.7341555506
 42
0.7502452491
  0
ELLIPSE
  5
4BE
100
AcDbEntity
  8
0
100
AcDbEllipse
 62
7
  6
CONTINUOUS
 10
226.5950186602
 20
99.2483696633
 30
0.0
 11
0.0
 21
32.2978530894
 31
0.0
 40
0.7833338002
 41
-0.8472384355
 42
-0.8366407762
  0
ELLIPSE
  5
4BF
100
AcDbEntity
  8
0
100
AcDbEllipse
 62
7
  6
CONTINUOUS
 10
226.5950186602
 20
56.4823459411
 30
0.0
 11
0.0
 21
96.8936978757
 31
0.0
 40
0.2611108932
 41
-0.8525001512
 42
-0.8472384355
  0
ELLIPSE
  5
4C0
100
AcDbEntity
  8
0
100
AcDbEllipse
 62
7
  6
CONTINUOUS
 10
226.5950186602
 20
183.6313889508
 30
0.0
 11
-0.0
 21
96.8936978757
 31
0.0
 40
0.2611108932
 41
-2.2943542181
 42
-2.2890925024
  0
ELLIPSE
  5
4C1
100
AcDbEntity
  8
0
100
AcDbEllipse
 62
7
  6
CONTINUOUS
 10
226.5950186602
 20
140.8653652287
 30
0.0
 11
-0.0
 21
32.2978530894
 31
0.0
 40
0.7833338002
 41
-2.3049518774
 42
-2.2943542181
  0
ELLIPSE
  5
4C2
100
AcDbEntity
  8
0
100
AcDbEllipse
 62
7
  6
CONTINUOUS
 10
226.5950186602
 20
126.4398452702
 30
0.0
 11
25.3
 21
0.0
 31
0.0
 40
0.4255318642
 41
-0.7502452491
 42
-0.7341555506
  0
ELLIPSE
  5
4C3
100
AcDbEntity
  8
0
100
AcDbEllipse
 62
7
  6
CONTINUOUS
 10
226.5950186602
 20
105.8547551891
 30
0.0
 11
0.0
 21
48.4467555704
 31
0.0
 40
0.5222227929
 41
-1.2718992094
 42
-1.2636166308
  0
ELLIPSE
  5
4C4
100
AcDbEntity
  8
0
100
AcDbEllipse
 62
7
  6
CONTINUOUS
 10
226.5950186602
 20
59.8573949124
 30
0.0
 11
-0.0
 21
84.7819211502
 31
0.0
 40
0.2984126764
 41
-0.8525001512
 42
-0.809689457
  0
ELLIPSE
  5
4C5
100
AcDbEntity
  8
0
100
AcDbEllipse
 62
7
  6
CONTINUOUS
 10
226.5950186602
 20
82.078003269
 30
0.0
 11
0.0
 21
129.1919667891
 31
0.0
 40
0.1958326096
 41
-1.2760325229
 42
-1.2718992094
  0
ELLIPSE
  5
4C6
100
AcDbEntity
  8
0
100
AcDbEllipse
 62
7
  6
CONTINUOUS
 10
226.5950186602
 20
155.227220783
 30
0.0
 11
0.0
 21
129.1919667891
 31
0.0
 40
0.1958326096
 41
-1.8696934442
 42
-1.8655601307
  0
ELLIPSE
  5
4C7
100
AcDbEntity
  8
0
100
AcDbEllipse
 62
7
  6
CONTINUOUS
 10
226.5950186602
 20
131.4504555413
 30
0.0
 11
0.0
 21
48.4467103306
 31
0.0
 40
0.5222232805
 41
-1.8779760228
 42
-1.8696934442
  0
ELLIPSE
  5
4C8
100
AcDbEntity
  8
0
100
AcDbEllipse
 62
7
  6
CONTINUOUS
 10
226.5950186602
 20
123.3121884538
 30
0.0
 11
25.3
 21
-0.0
 31
0.0
 40
0.8510640264
 41
-0.319644686
 42
-0.307179696
  0
ELLIPSE
  5
4C9
100
AcDbEntity
  8
0
100
AcDbEllipse
 62
7
  6
CONTINUOUS
 10
226.5950186602
 20
119.0834654011
 30
0.0
 11
25.3
 21
-0.0
 31
0.0
 40
0.3191492025
 41
-0.3363454467
 42
-0.319644686
  0
ELLIPSE
  5
4CA
100
AcDbEntity
  8
0
100
AcDbEllipse
 62
7
  6
CONTINUOUS
 10
226.5950186602
 20
59.8573949124
 30
0.0
 11
0.0
 21
83.7766019271
 31
0.0
 40
0.2984126764
 41
-0.8419627353
 42
-0.7981955579
  0
ELLIPSE
  5
4CB
100
AcDbEntity
  8
0
100
AcDbEllipse
 62
7
  6
CONTINUOUS
 10
226.5950186602
 20
179.7375917272
 30
0.0
 11
0.0
 21
127.6593157591
 31
0.0
 40
0.1958337302
 41
-2.0828860797
 42
-2.0783033409
  0
ELLIPSE
  5
4CC
100
AcDbEntity
  8
0
100
AcDbEllipse
 62
7
  6
CONTINUOUS
 10
226.5950186602
 20
140.6419933882
 30
0.0
 11
0.0
 21
47.8723803734
 31
0.0
 40
0.5222217864
 41
-2.092087228
 42
-2.0828860797
  0
ELLIPSE
  5
4CD
100
AcDbEntity
  8
0
100
AcDbEllipse
 62
7
  6
CONTINUOUS
 10
226.5950186602
 20
127.3972952933
 30
0.0
 11
25.0
 21
0.0
 31
0.0
 40
0.8510640264
 41
-0.5351847814
 42
-0.5212909012
  0
ELLIPSE
  5
4CE
100
AcDbEntity
  8
0
100
AcDbEllipse
 62
7
  6
CONTINUOUS
 10
226.5950186602
 20
120.6153755695
 30
0.0
 11
25.0
 21
0.0
 31
0.0
 40
0.3191487459
 41
5.7339697531
 42
5.7480005258
  0
ELLIPSE
  5
4CF
100
AcDbEntity
  8
0
100
AcDbEllipse
 62
7
  6
CONTINUOUS
 10
226.5950186602
 20
179.7375917272
 30
0.0
 11
0.0
 21
129.1912275482
 31
0.0
 40
0.1958337302
 41
-2.0762331873
 42
-2.0717213831
  0
ELLIPSE
  5
4D0
100
AcDbEntity
  8
0
100
AcDbEllipse
 62
7
  6
CONTINUOUS
 10
226.5950186602
 20
140.6419933882
 30
0.0
 11
0.0
 21
48.4468489378
 31
0.0
 40
0.5222217864
 41
-2.0852908279
 42
-2.0762331873
  0
ELLIPSE
  5
4D1
100
AcDbEntity
  8
0
100
AcDbEllipse
 62
7
  6
CONTINUOUS
 10
226.5950186602
 20
127.3972952933
 30
0.0
 11
25.3
 21
-0.0
 31
0.0
 40
0.8510640264
 41
-0.5281688457
 42
-0.5144945011
  0
ELLIPSE
  5
4D2
100
AcDbEntity
  8
0
100
AcDbEllipse
 62
7
  6
CONTINUOUS
 10
226.5950186602
 20
120.6153755695
 30
0.0
 11
25.3
 21
-0.0
 31
0.0
 40
0.3191487459
 41
-0.5465733301
 42
-0.5281688457
  0
ELLIPSE
  5
4D3
100
AcDbEntity
  8
0
100
AcDbEllipse
 62
7
  6
CONTINUOUS
 10
226.5950186602
 20
20.993232946
 30
0.0
 11
0.0
 21
159.5741446988
 31
0.0
 40
0.1566669842
 41
-0.924792872
 42
-0.9197739287
  0
ELLIPSE
  5
4D4
100
AcDbEntity
  8
0
100
AcDbEllipse
 62
7
  6
CONTINUOUS
 10
226.5950186602
 20
78.6313519501
 30
0.0
 11
0.0
 21
63.8297603644
 31
0.0
 40
0.3916668315
 41
-0.934774321
 42
-0.924792872
  0
ELLIPSE
  5
4D5
100
AcDbEntity
  8
0
100
AcDbEllipse
 62
7
  6
CONTINUOUS
 10
226.5950186602
 20
97.5887650756
 30
0.0
 11
0.0
 21
31.9149230429
 31
0.0
 40
0.7833326111
 41
-0.9545206302
 42
-0.934774321
  0
ELLIPSE
  5
4D6
100
AcDbEntity
  8
0
100
AcDbEllipse
 62
7
  6
CONTINUOUS
 10
226.5950186602
 20
106.8121907472
 30
0.0
 11
25.0
 21
-0.0
 31
0.0
 40
0.6382975757
 41
0.5968017978
 42
0.6162756966
  0
ELLIPSE
  5
4D7
100
AcDbEntity
  8
0
100
AcDbEllipse
 62
7
  6
CONTINUOUS
 10
226.5950186602
 20
112.1930363885
 30
0.0
 11
25.0
 21
-0.0
 31
0.0
 40
0.2553192382
 41
0.5728151771
 42
0.5968017978
  0
ELLIPSE
  5
4D8
100
AcDbEntity
  8
0
100
AcDbEllipse
 62
7
  6
CONTINUOUS
 10
226.5950186602
 20
118.2217589191
 30
0.0
 11
25.0
 21
0.0
 31
0.0
 40
0.3191492025
 41
0.3236192522
 42
0.3405441047
  0
ELLIPSE
  5
4D9
100
AcDbEntity
  8
0
100
AcDbEllipse
 62
7
  6
CONTINUOUS
 10
226.5950186602
 20
113.9930382358
 30
0.0
 11
25.0
 21
0.0
 31
0.0
 40
0.8510637283
 41
0.3109886536
 42
0.3236192522
  0
ELLIPSE
  5
4DA
100
AcDbEntity
  8
0
100
AcDbEllipse
 62
7
  6
CONTINUOUS
 10
226.5950186602
 20
105.8547551891
 30
0.0
 11
-0.0
 21
47.872288113
 31
0.0
 40
0.5222227929
 41
-1.2681995533
 42
-1.2598076731
  0
ELLIPSE
  5
4DB
100
AcDbEntity
  8
0
100
AcDbEllipse
 62
7
  6
CONTINUOUS
 10
226.5950186602
 20
82.078003269
 30
0.0
 11
0.0
 21
127.6600462343
 31
0.0
 40
0.1958326096
 41
-1.2723871988
 42
-1.2681995533
  0
ELLIPSE
  5
4DC
100
AcDbEntity
  8
0
100
AcDbEllipse
 62
7
  6
CONTINUOUS
 10
226.5950186602
 20
155.227220783
 30
0.0
 11
-0.0
 21
127.6600462343
 31
0.0
 40
0.1958326096
 41
-1.8733931003
 42
-1.8692054548
  0
ELLIPSE
  5
4DD
100
AcDbEntity
  8
0
100
AcDbEllipse
 62
7
  6
CONTINUOUS
 10
226.5950186602
 20
131.4504555413
 30
0.0
 11
0.0
 21
47.8722434096
 31
0.0
 40
0.5222232805
 41
-1.8817849804
 42
-1.8733931003
  0
ELLIPSE
  5
4DE
100
AcDbEntity
  8
0
100
AcDbEllipse
 62
7
  6
CONTINUOUS
 10
226.5950186602
 20
123.3121884538
 30
0.0
 11
25.0
 21
0.0
 31
0.0
 40
0.8510640264
 41
-0.3236192522
 42
-0.3109886536
  0
ELLIPSE
  5
4DF
100
AcDbEntity
  8
0
100
AcDbEllipse
 62
7
  6
CONTINUOUS
 10
226.5950186602
 20
119.0834654011
 30
0.0
 11
25.0
 21
-0.0
 31
0.0
 40
0.3191492025
 41
-0.3405441047
 42
-0.3236192522
  0
ELLIPSE
  5
4E0
100
AcDbEntity
  8
0
100
AcDbEllipse
 62
7
  6
CONTINUOUS
 10
226.5950186602
 20
113.6738896217
 30
0.0
 11
25.0
 21
-0.0
 31
0.0
 40
0.4255318642
 41
0.7450383544
 42
0.761489058
  0
ELLIPSE
  5
4E1
100
AcDbEntity
  8
0
100
AcDbEllipse
 62
7
  6
CONTINUOUS
 10
226.5950186602
 20
99.2483696633
 30
0.0
 11
0.0
 21
31.9148745943
 31
0.0
 40
0.7833338002
 41
-0.8365875393
 42
-0.8257579724
  0
ELLIPSE
  5
4E2
100
AcDbEntity
  8
0
100
AcDbEllipse
 62
7
  6
CONTINUOUS
 10
226.5950186602
 20
56.4823459411
 30
0.0
 11
0.0
 21
95.7447607467
 31
0.0
 40
0.2611108932
 41
-0.8419627353
 42
-0.8365875393
  0
ELLIPSE
  5
4E3
100
AcDbEntity
  8
0
100
AcDbEllipse
 62
7
  6
CONTINUOUS
 10
226.5950186602
 20
183.6313889508
 30
0.0
 11
-0.0
 21
95.7447607467
 31
0.0
 40
0.2611108932
 41
-2.3050051142
 42
-2.2996299183
  0
ELLIPSE
  5
4E4
100
AcDbEntity
  8
0
100
AcDbEllipse
 62
7
  6
CONTINUOUS
 10
226.5950186602
 20
140.8653652287
 30
0.0
 11
-0.0
 21
31.9148745943
 31
0.0
 40
0.7833338002
 41
-2.3158346812
 42
-2.3050051142
  0
ELLIPSE
  5
4E5
100
AcDbEntity
  8
0
100
AcDbEllipse
 62
7
  6
CONTINUOUS
 10
226.5950186602
 20
126.4398452702
 30
0.0
 11
25.0
 21
-0.0
 31
0.0
 40
0.4255318642
 41
5.5216962492
 42
5.5381469528
  0
ENDSEC
  0
SECTION
  2
OBJECTS
  0
DICTIONARY
  5
C
100
AcDbDictionary
280
0
281
1
  3
ACAD_GROUP
350
D
  3
ACAD_MLINESTYLE
350
17
  3
ACAD_LAYOUT
350
1A
  3
ACAD_PLOTSETTINGS
350
19
  3
ACAD_PLOTSTYLENAME
350
E
  0
DICTIONARY
  5
D
102
{ACAD_REACTORS
330
C
102
}
100
AcDbDictionary
280
0
281
1
  0
ACDBDICTIONARYWDFLT
  5
E
102
{ACAD_REACTORS
330
C
102
}
100
AcDbDictionary
281
1
  3
Normal
350
F
100
AcDbDictionaryWithDefault
340
F
  0
DICTIONARY
  5
17
102
{ACAD_REACTORS
330
C
102
}
100
AcDbDictionary
280
0
281
1
  3
Standard
350
18
  0
DICTIONARY
  5
19
102
{ACAD_REACTORS
330
C
102
}
100
AcDbDictionary
281
1
  0
DICTIONARY
  5
1A
102
{ACAD_REACTORS
330
C
102
}
100
AcDbDictionary
281
1
  3
Model
350
4E6
  3
Layout1
350
4E7
  0
ACDBPLACEHOLDER
  5
F
102
{ACAD_REACTORS
330
E
102
}
  0
MLINESTYLE
  5
18
102
{ACAD_REACTORS
330
17
102
}
100
AcDbMlineStyle
  2
STANDARD
 70
0
  3

 62
256
 51
90.0
 52
90.0
 71
2
 49
0.5
 62
256
  6
BYLAYER
 49
-0.5
 62
256
  6
BYLAYER
  0
LAYOUT
  5
4E6
102
{ACAD_REACTORS
330
1A
102
}
100
AcDbPlotSettings
  1

  2
none_device
  4
ISO_A4_(297.00_x_210.00_MM)
  6

 40
0.0
 41
0.0
 42
0.0
 43
0.0
 44
297.0
 45
210.0
 46
0.0
 47
0.0
 48
0.0
 49
0.0
140
0.0
141
0.0
142
1.0
143
1.0
 70
1024
 72
1
 73
0
 74
0
  7

 75
0
147
1.0
148
0.0
149
0.0
100
AcDbLayout
  1
Model
 70
0
 71
0
 10
0.0
 20
0.0
 11
297.0
 21
210.0
 12
0.0
 22
0.0
 32
0.0
 14
0.0
 24
0.0
 34
0.0
 15
0.0
 25
0.0
 35
0.0
146
0.0
 13
0.0
 23
0.0
 33
0.0
 16
1.0
 26
0.0
 36
0.0
 17
0.0
 27
1.0
 37
0.0
 76
0
330
20A
345
0
346
0
  0
LAYOUT
  5
4E7
102
{ACAD_REACTORS
330
1A
102
}
100
AcDbPlotSettings
  1

  2
none_device
  4
ISO_A4_(297.00_x_210.00_MM)
  6

 40
0.0
 41
0.0
 42
0.0
 43
0.0
 44
297.0
 45
210.0
 46
0.0
 47
0.0
 48
0.0
 49
0.0
140
0.0
141
0.0
142
1.0
143
1.0
 70
0
 72
1
 73
0
 74
0
  7

 75
0
147
1.0
148
0.0
149
0.0
100
AcDbLayout
  1
Layout1
 70
0
 71
1
 10
0.0
 20
0.0
 11
297.0
 21
210.0
 12
0.0
 22
0.0
 32
0.0
 14
0.0
 24
0.0
 34
0.0
 15
0.0
 25
0.0
 35
0.0
146
0.0
 13
0.0
 23
0.0
 33
0.0
 16
1.0
 26
0.0
 36
0.0
 17
0.0
 27
1.0
 37
0.0
 76
0
330
20B
345
0
346
0
  0
ENDSEC
  0
EOF
