999
DXF file: IRS-LT-M20-7907796-M35563-P-03.dxf
999
Pro/ENGINEER 2011490 by Parametric Technology Corporation
  0
SECTION
  2
HEADER
  9
$ACADVER
  1
AC1021
  9
$DWGCODEPAGE
  3
ANSI_1252
  9
$EXTMAX
 10
297.0
 20
210.0
 30
0.0
  9
$EXTMIN
 10
0.0
 20
0.0
 30
0.0
  9
$LIMMIN
 10
0.0
 20
0.0
  9
$LIMMAX
 10
297.0
 20
210.0
  9
$VIEWCTR
 10
148.5
 20
105.0
  9
$VIEWSIZE
 40
210.0
  9
$CLAYER
  8
0
  9
$LTSCALE
 40
16.335
  9
$CELTYPE
  6
BYLAYER
  9
$DIMSCALE
 40
1.0
  9
$DIMASZ
 40
3.5
  9
$DIMEXO
 40
1.85625
  9
$DIMDLI
 40
11.286
  9
$DIMEXE
 40
5.346
  9
$DIMCEN
 40
2.673
  9
$DIMLFAC
 40
1.0
  9
$DIMBLK
  1
_FILLED
  9
$DIMTXT
 40
3.5
  9
$DIMTOL
 70
1
  9
$DIMLIM
 70
0
  9
$DIMTFAC
 40
1.0
  9
$DIMTP
 40
0.005
  9
$DIMTM
 40
0.005
  9
$PDMODE
 70
3
  9
$PDSIZE
 40
0.3125
  9
$HANDSEED
  5
55D
  9
$TILEMODE
 70
1
  9
$MEASUREMENT
 70
1
  9
$INSUNITS
 70
4
  0
ENDSEC
  0
SECTION
  2
CLASSES
  0
CLASS
  1
ACDBDICTIONARYWDFLT
  2
AcDbDictionaryWithDefault
  3
AutoCAD 2000
 90
0
 91
1
280
0
281
0
  0
CLASS
  1
ACDBPLACEHOLDER
  2
AcDbPlaceHolder
  3
AutoCAD 2000
 90
0
 91
1
280
0
281
0
  0
CLASS
  1
LAYOUT
  2
AcDbLayout
  3
AutoCAD 2000
 90
0
 91
0
280
0
281
0
  0
ENDSEC
  0
SECTION
  2
TABLES
  0
TABLE
  2
VPORT
  5
8
100
AcDbSymbolTable
 70
2
  0
VPORT
  5
1F4
100
AcDbSymbolTableRecord
100
AcDbViewportTableRecord
  2
*ACTIVE
 70
0
 10
0.0
 20
0.0
 11
1.0
 21
1.0
 12
148.5
 22
105.0
 13
0.0
 23
0.0
 14
1.0
 24
1.0
 15
0.0
 25
0.0
 16
0.0
 26
0.0
 36
1.0
 17
0.0
 27
0.0
 37
0.0
 40
210.0
 41
1.4142857143
 42
50.0
 43
0.0
 44
0.0
 50
0.0
 51
0.0
 71
0
 72
100
 73
1
 74
1
 75
0
 76
0
 77
0
 78
0
  0
ENDTAB
  0
TABLE
  2
LTYPE
  5
5
100
AcDbSymbolTable
 70
6
  0
LTYPE
  5
14
100
AcDbSymbolTableRecord
100
AcDbLinetypeTableRecord
  2
BYBLOCK
 70
0
  3

 72
65
 73
0
 40
0.0
  0
LTYPE
  5
15
100
AcDbSymbolTableRecord
100
AcDbLinetypeTableRecord
  2
BYLAYER
 70
0
  3

 72
65
 73
0
 40
0.0
  0
LTYPE
  5
16
100
AcDbSymbolTableRecord
100
AcDbLinetypeTableRecord
  2
CONTINUOUS
 70
64
  3
Solid line
 72
65
 73
0
 40
0.0
  0
LTYPE
  5
1F5
100
AcDbSymbolTableRecord
100
AcDbLinetypeTableRecord
  2
CENTER
 70
64
  3
____ _ ____ _ ____ _ ____ _ ____ _ ____ _ ____
 72
65
 73
4
 40
0.6
 49
0.375
 74
0
 49
-0.075
 74
0
 49
0.075
 74
0
 49
-0.075
 74
0
  0
LTYPE
  5
1F6
100
AcDbSymbolTableRecord
100
AcDbLinetypeTableRecord
  2
HIDDEN
 70
64
  3
- - - - - - - - - - - - - - - - - - - -
 72
65
 73
2
 40
0.2
 49
0.1
 74
0
 49
-0.1
 74
0
  0
LTYPE
  5
1F7
100
AcDbSymbolTableRecord
100
AcDbLinetypeTableRecord
  2
PHANTOM
 70
64
  3
_____ _ _ _____ _ _ _____ _ _ _____
 72
65
 73
6
 40
0.8
 49
0.45
 74
0
 49
-0.05
 74
0
 49
0.1
 74
0
 49
-0.05
 74
0
 49
0.1
 74
0
 49
-0.05
 74
0
  0
LTYPE
  5
1F8
100
AcDbSymbolTableRecord
100
AcDbLinetypeTableRecord
  2
DOT
 70
64
  3
. . . . . . . . . . . . . . . . . . . .
 72
65
 73
2
 40
0.2
 49
0.1
 74
0
 49
-0.1
 74
0
  0
LTYPE
  5
1F9
100
AcDbSymbolTableRecord
100
AcDbLinetypeTableRecord
  2
DASHED
 70
64
  3
- - - - - - - - - - - - - - - - - - - -
 72
65
 73
2
 40
0.2
 49
0.1
 74
0
 49
-0.1
 74
0
  0
ENDTAB
  0
TABLE
  2
LAYER
  5
2
100
AcDbSymbolTable
 70
36
  0
LAYER
  5
10
100
AcDbSymbolTableRecord
100
AcDbLayerTableRecord
  2
0
 70
0
 62
7
  6
CONTINUOUS
370
-3
390
F
  0
LAYER
  5
1FA
100
AcDbSymbolTableRecord
100
AcDbLayerTableRecord
  2
DEFAULT_1
 70
0
 62
7
  6
CENTER
370
-3
390
F
  0
LAYER
  5
1FB
100
AcDbSymbolTableRecord
100
AcDbLayerTableRecord
  2
DEFAULT_2
 70
0
 62
8
  6
HIDDEN
370
-3
390
F
  0
LAYER
  5
1FC
100
AcDbSymbolTableRecord
100
AcDbLayerTableRecord
  2
DEFAULT_3
 70
0
 62
7
  6
PHANTOM
370
-3
390
F
  0
LAYER
  5
1FD
100
AcDbSymbolTableRecord
100
AcDbLayerTableRecord
  2
B-ACHSEN
 70
0
 62
7
  6
CONTINUOUS
370
-3
390
F
  0
LAYER
  5
1FE
100
AcDbSymbolTableRecord
100
AcDbLayerTableRecord
  2
B-EBENEN
 70
0
 62
7
  6
CONTINUOUS
370
-3
390
F
  0
LAYER
  5
1FF
100
AcDbSymbolTableRecord
100
AcDbLayerTableRecord
  2
B-KOORSYS
 70
0
 62
7
  6
CONTINUOUS
370
-3
390
F
  0
LAYER
  5
200
100
AcDbSymbolTableRecord
100
AcDbLayerTableRecord
  2
B-PUNKTE
 70
0
 62
7
  6
CONTINUOUS
370
-3
390
F
  0
LAYER
  5
201
100
AcDbSymbolTableRecord
100
AcDbLayerTableRecord
  2
BEMASSUNG
 70
0
 62
7
  6
CONTINUOUS
370
-3
390
F
  0
LAYER
  5
202
100
AcDbSymbolTableRecord
100
AcDbLayerTableRecord
  2
BOHRUNGEN
 70
0
 62
7
  6
CONTINUOUS
370
-3
390
F
  0
LAYER
  5
203
100
AcDbSymbolTableRecord
100
AcDbLayerTableRecord
  2
FLAECHEN
 70
0
 62
7
  6
CONTINUOUS
370
-3
390
F
  0
LAYER
  5
204
100
AcDbSymbolTableRecord
100
AcDbLayerTableRecord
  2
NOTIZEN
 70
0
 62
7
  6
CONTINUOUS
370
-3
390
F
  0
LAYER
  5
205
100
AcDbSymbolTableRecord
100
AcDbLayerTableRecord
  2
RUNDUNGEN
 70
0
 62
7
  6
CONTINUOUS
370
-3
390
F
  0
LAYER
  5
206
100
AcDbSymbolTableRecord
100
AcDbLayerTableRecord
  2
VERBUNDFLAECHEN
 70
0
 62
7
  6
CONTINUOUS
370
-3
390
F
  0
ENDTAB
  0
TABLE
  2
STYLE
  5
3
100
AcDbSymbolTable
 70
1
  0
STYLE
  5
11
100
AcDbSymbolTableRecord
100
AcDbTextStyleTableRecord
  2
STANDARD
 70
0
 40
0.0
 41
0.7
 50
0.0
 71
0
 42
0.2
  3
txt
  4

  0
STYLE
  5
207
100
AcDbSymbolTableRecord
100
AcDbTextStyleTableRecord
  2
TEXTSTYLE_1
 70
0
 40
0.0
 41
0.8
 50
0.0
 71
0
 42
0.2
  3
gdt
  4

  0
ENDTAB
  0
TABLE
  2
VIEW
  5
6
100
AcDbSymbolTable
 70
0
  0
ENDTAB
  0
TABLE
  2
UCS
  5
7
100
AcDbSymbolTable
 70
0
  0
ENDTAB
  0
TABLE
  2
APPID
  5
9
100
AcDbSymbolTable
 70
1
  0
APPID
  5
208
100
AcDbSymbolTableRecord
100
AcDbRegAppTableRecord
  2
ACAD
 70
0
  0
ENDTAB
  0
TABLE
  2
BLOCK_RECORD
  5
1
100
AcDbSymbolTable
 70
0
  0
BLOCK_RECORD
  5
209
100
AcDbSymbolTableRecord
100
AcDbBlockTableRecord
  2
*Model_Space
  0
BLOCK_RECORD
  5
20A
100
AcDbSymbolTableRecord
100
AcDbBlockTableRecord
  2
*Paper_Space
  0
ENDTAB
  0
TABLE
  2
DIMSTYLE
  5
A
100
AcDbSymbolTable
 70
1
100
AcDbDimStyleTable
 71
0
  0
DIMSTYLE
105
20B
100
AcDbSymbolTableRecord
100
AcDbDimStyleTableRecord
  2
STANDARD
 70
0
  3

  4

 40
1.0
 41
3.5
 42
0.0625
 43
0.38
 44
0.18
 45
0.0
 46
0.0
 47
0.005
 48
0.005
140
3.5
141
0.09
142
0.0
143
25.4
144
1.0
145
0.0
146
1.0
147
0.09
 71
1.0
 72
0.0
 73
0
 74
0
 75
0
 76
0
 77
1
 78
8
170
0
171
2
172
0
173
0
174
0
175
0
176
0
177
0
178
5
270
2
271
3
272
3
273
2
274
2
275
0
280
0
281
0
282
0
283
1
284
8
285
0
286
0
287
3
288
0
340
11
  0
ENDTAB
  0
ENDSEC
  0
SECTION
  2
BLOCKS
  0
BLOCK
  5
20
100
AcDbEntity
  8
0
100
AcDbBlockBegin
  2
*Model_Space
 70
0
 10
0.0
 20
0.0
 30
0.0
  3
*Model_Space
  1

  0
ENDBLK
  5
21
100
AcDbEntity
  8
0
100
AcDbBlockEnd
  0
BLOCK
  5
1C
100
AcDbEntity
  8
0
100
AcDbBlockBegin
  2
*Paper_Space
 70
0
 10
0.0
 20
0.0
 30
0.0
  3
*Paper_Space
  1

  0
ENDBLK
  5
1D
100
AcDbEntity
  8
0
100
AcDbBlockEnd
  0
ENDSEC
  0
SECTION
  2
ENTITIES
  0
MTEXT
  5
20C
100
AcDbEntity
  8
0
100
AcDbMText
 62
5
  6
CONTINUOUS
  7
STANDARD
 71
1
 72
1
 10
198.1758819299
 20
132.0682917383
 30
0.0
 11
0.0
 21
1.0
 31
0.0
 44
0.9
  1
RUD
 40
3.5
 41
8.6666666667
  0
MTEXT
  5
20D
100
AcDbEntity
  8
0
100
AcDbMText
 62
5
  6
CONTINUOUS
  7
STANDARD
 71
1
 72
1
 10
206.9040221783
 20
131.3792278125
 30
0.0
 11
0.0
 21
1.0
 31
0.0
 44
0.9
  1
IRS-LT M20
 40
3.5
 41
27.4166666667
  0
MTEXT
  5
20E
100
AcDbEntity
  8
0
100
AcDbMText
 62
5
  6
CONTINUOUS
  7
STANDARD
 71
1
 72
1
 10
89.7692020456
 20
51.0522063873
 30
0.0
 11
1.0
 21
0.0
 31
0.0
 44
0.9
  1
RUD
 40
3.5
 41
8.6666666667
  0
MTEXT
  5
20F
100
AcDbEntity
  8
0
100
AcDbMText
 62
5
  6
CONTINUOUS
  7
STANDARD
 71
1
 72
1
 10
89.1326543731
 20
42.9684268011
 30
0.0
 11
1.0
 21
0.0
 31
0.0
 44
0.9
  1
IRS-LT M20
 40
3.5
 41
27.4166666667
  0
LINE
  5
210
100
AcDbEntity
  8
0
100
AcDbLine
 62
7
  6
CONTINUOUS
 10
0.0
 20
0.0
 11
0.0
 21
210.0
  0
LINE
  5
211
100
AcDbEntity
  8
0
100
AcDbLine
 62
7
  6
CONTINUOUS
 10
0.0
 20
0.0
 11
297.0
 21
0.0
  0
LINE
  5
212
100
AcDbEntity
  8
0
100
AcDbLine
 62
7
  6
CONTINUOUS
 10
0.0
 20
210.0
 11
297.0
 21
210.0
  0
LINE
  5
213
100
AcDbEntity
  8
0
100
AcDbLine
 62
7
  6
CONTINUOUS
 10
297.0
 20
0.0
 11
297.0
 21
210.0
  0
LINE
  5
214
100
AcDbEntity
  8
B-ACHSEN
100
AcDbLine
 62
7
  6
CONTINUOUS
 10
95.3478868748
 20
88.8854492951
 11
78.3478868748
 21
88.8854492951
  0
LINE
  5
215
100
AcDbEntity
  8
RUNDUNGEN
100
AcDbLine
 62
7
  6
CONTINUOUS
 10
61.5907803387
 20
181.3073402318
 11
85.3171531454
 21
191.1351256342
  0
LINE
  5
216
100
AcDbEntity
  8
B-ACHSEN
100
AcDbLine
 62
7
  6
CONTINUOUS
 10
96.8478868748
 20
90.3854492951
 11
76.8478868748
 21
90.3854492951
  0
LINE
  5
217
100
AcDbEntity
  8
0
100
AcDbLine
 62
7
  6
CONTINUOUS
 10
73.7009429708
 20
182.7295499116
 11
74.0533238303
 21
182.9676293169
  0
LINE
  5
218
100
AcDbEntity
  8
0
100
AcDbLine
 62
7
  6
CONTINUOUS
 10
77.2424813256
 20
184.1965031299
 11
77.5948617445
 21
184.4345823527
  0
LINE
  5
219
100
AcDbEntity
  8
0
100
AcDbLine
 62
7
  6
CONTINUOUS
 10
77.4320177502
 20
184.8277225324
 11
77.0026467828
 21
184.5577527803
  0
LINE
  5
21A
100
AcDbEntity
  8
0
100
AcDbLine
 62
7
  6
CONTINUOUS
 10
73.9674699438
 20
183.3926598435
 11
73.4611088685
 21
183.0907997445
  0
LINE
  5
21B
100
AcDbEntity
  8
0
100
AcDbLine
 62
7
  6
CONTINUOUS
 10
74.2754294943
 20
183.520220866
 11
73.9674699438
 21
183.3926598435
  0
LINE
  5
21C
100
AcDbEntity
  8
0
100
AcDbLine
 62
7
  6
CONTINUOUS
 10
72.0427207709
 20
182.5954026319
 11
71.3498111215
 21
182.3083900576
  0
LINE
  5
21D
100
AcDbEntity
  8
0
100
AcDbLine
 62
7
  6
CONTINUOUS
 10
69.0401122902
 20
181.3516814767
 11
68.3472026408
 21
181.0646689025
  0
LINE
  5
21E
100
AcDbEntity
  8
0
100
AcDbLine
 62
7
  6
CONTINUOUS
 10
74.0533238303
 20
182.9676293169
 11
74.3612838213
 21
183.0951905219
  0
LINE
  5
21F
100
AcDbEntity
  8
0
100
AcDbLine
 62
7
  6
CONTINUOUS
 10
73.0938872079
 20
182.0175068108
 11
73.4788368662
 21
182.1769581801
  0
LINE
  5
220
100
AcDbEntity
  8
B-ACHSEN
100
AcDbLine
 62
7
  6
CONTINUOUS
 10
76.8478868748
 20
90.3854492951
 11
78.3478868748
 21
88.8854492951
  0
LINE
  5
221
100
AcDbEntity
  8
RUNDUNGEN
100
AcDbLine
 62
7
  6
CONTINUOUS
 10
49.3950698138
 20
154.7801331254
 11
49.5982105357
 21
155.4161830246
  0
LINE
  5
222
100
AcDbEntity
  8
RUNDUNGEN
100
AcDbLine
 62
7
  6
CONTINUOUS
 10
49.5982105357
 20
155.4161830246
 11
59.4259959381
 21
179.1425558312
  0
LINE
  5
223
100
AcDbEntity
  8
0
100
AcDbLine
 62
7
  6
CONTINUOUS
 10
73.4611088685
 20
183.0907997445
 11
73.2182864752
 21
182.8059824677
  0
LINE
  5
224
100
AcDbEntity
  8
0
100
AcDbLine
 62
7
  6
CONTINUOUS
 10
79.1522887625
 20
181.7634242249
 11
78.7999074625
 21
181.5253446371
  0
LINE
  5
225
100
AcDbEntity
  8
0
100
AcDbLine
 62
7
  6
CONTINUOUS
 10
78.9627514796
 20
181.1322044023
 11
79.3921224442
 21
181.4021741614
  0
LINE
  5
226
100
AcDbEntity
  8
0
100
AcDbLine
 62
7
  6
CONTINUOUS
 10
95.4346449546
 20
184.8947961494
 11
94.9964099195
 21
184.7078451479
  0
LINE
  5
227
100
AcDbEntity
  8
0
100
AcDbLine
 62
7
  6
CONTINUOUS
 10
76.7981686222
 20
180.6961972612
 11
74.6424500067
 21
179.803269374
  0
LINE
  5
228
100
AcDbEntity
  8
0
100
AcDbLine
 62
7
  6
CONTINUOUS
 10
69.8779363703
 20
177.3691507724
 11
70.3398761365
 21
177.5604924886
  0
LINE
  5
229
100
AcDbEntity
  8
0
100
AcDbLine
 62
7
  6
CONTINUOUS
 10
71.4177355544
 20
178.0069564778
 11
72.0336552061
 21
178.2620787508
  0
LINE
  5
22A
100
AcDbEntity
  8
0
100
AcDbLine
 62
7
  6
CONTINUOUS
 10
73.1115147341
 20
178.7085427857
 11
73.5734545003
 21
178.8998845019
  0
LINE
  5
22B
100
AcDbEntity
  8
0
100
AcDbLine
 62
7
  6
CONTINUOUS
 10
74.1893740418
 20
179.1550067293
 11
76.9610126394
 21
180.3030570264
  0
LINE
  5
22C
100
AcDbEntity
  8
0
100
AcDbLine
 62
7
  6
CONTINUOUS
 10
73.5351106854
 20
182.4766229816
 11
73.7009429708
 21
182.7295499116
  0
LINE
  5
22D
100
AcDbEntity
  8
0
100
AcDbLine
 62
7
  6
CONTINUOUS
 10
77.0026467828
 20
184.5577527803
 11
76.7154039616
 21
184.1624174856
  0
LINE
  5
22E
100
AcDbEntity
  8
0
100
AcDbLine
 62
7
  6
CONTINUOUS
 10
96.6724607487
 20
183.0924171637
 11
96.4533433757
 21
182.998941603
  0
LINE
  5
22F
100
AcDbEntity
  8
0
100
AcDbLine
 62
7
  6
CONTINUOUS
 10
96.1424959222
 20
181.3774476962
 11
95.9233783062
 21
181.2839721717
  0
LINE
  5
230
100
AcDbEntity
  8
0
100
AcDbLine
 62
7
  6
CONTINUOUS
 10
77.0766490402
 20
183.9435761999
 11
77.2424813256
 21
184.1965031299
  0
LINE
  5
231
100
AcDbEntity
  8
0
100
AcDbLine
 62
7
  6
CONTINUOUS
 10
79.3181210479
 20
182.0163511549
 11
79.1522887625
 21
181.7634242249
  0
LINE
  5
232
100
AcDbEntity
  8
0
100
AcDbLine
 62
7
  6
CONTINUOUS
 10
79.3921224442
 20
181.4021741614
 11
79.6793661379
 21
181.7975098417
  0
LINE
  5
233
100
AcDbEntity
  8
0
100
AcDbLine
 62
7
  6
CONTINUOUS
 10
95.1740945636
 20
184.2657718619
 11
95.4257809007
 21
184.43787539
  0
LINE
  5
234
100
AcDbEntity
  8
0
100
AcDbLine
 62
7
  6
CONTINUOUS
 10
96.8827143431
 20
182.7289718509
 11
97.1344005149
 21
182.9010754475
  0
LINE
  5
235
100
AcDbEntity
  8
0
100
AcDbLine
 62
7
  6
CONTINUOUS
 10
100.2524437014
 20
182.8070800936
 11
99.8911986228
 21
182.5882388079
  0
LINE
  5
236
100
AcDbEntity
  8
0
100
AcDbLine
 62
7
  6
CONTINUOUS
 10
99.580351344
 20
180.9667446997
 11
99.799468717
 21
181.0602202603
  0
LINE
  5
237
100
AcDbEntity
  8
B-ACHSEN
100
AcDbLine
 62
7
  6
CONTINUOUS
 10
96.8478868748
 20
110.8854492951
 11
76.8478868748
 21
110.8854492951
  0
LINE
  5
238
100
AcDbEntity
  8
RUNDUNGEN
100
AcDbLine
 62
7
  6
CONTINUOUS
 10
59.6764952674
 20
128.023583881
 11
49.5982105357
 21
152.3547155656
  0
LINE
  5
239
100
AcDbEntity
  8
0
100
AcDbLine
 62
7
  6
CONTINUOUS
 10
73.2182864752
 20
182.8059824677
 11
73.0406021203
 21
182.3639093014
  0
LINE
  5
23A
100
AcDbEntity
  8
0
100
AcDbLine
 62
7
  6
CONTINUOUS
 10
76.7154039616
 20
184.1624174856
 11
76.5821404751
 21
183.8308625196
  0
LINE
  5
23B
100
AcDbEntity
  8
0
100
AcDbLine
 62
7
  6
CONTINUOUS
 10
75.3680290405
 20
182.4067760976
 11
74.0265300247
 21
179.5481469641
  0
LINE
  5
23C
100
AcDbEntity
  8
0
100
AcDbLine
 62
7
  6
CONTINUOUS
 10
74.6424500067
 20
179.803269374
 11
75.8506850955
 21
182.3303433591
  0
LINE
  5
23D
100
AcDbEntity
  8
0
100
AcDbLine
 62
7
  6
CONTINUOUS
 10
96.9567159396
 20
183.343148705
 11
96.6724607487
 21
183.0924171637
  0
LINE
  5
23E
100
AcDbEntity
  8
0
100
AcDbLine
 62
7
  6
CONTINUOUS
 10
96.2431905871
 20
180.9672646392
 11
96.4948769792
 21
181.1393681446
  0
LINE
  5
23F
100
AcDbEntity
  8
0
100
AcDbLine
 62
7
  6
CONTINUOUS
 10
100.1014522172
 20
182.2247934951
 11
100.353138389
 21
182.3968970917
  0
LINE
  5
240
100
AcDbEntity
  8
0
100
AcDbLine
 62
7
  6
CONTINUOUS
 10
100.9070095472
 20
178.9433290671
 11
101.2682541967
 21
179.1621705628
  0
LINE
  5
241
100
AcDbEntity
  8
B-ACHSEN
100
AcDbLine
 62
7
  6
CONTINUOUS
 10
95.0478868748
 20
112.6854492951
 11
78.6478868748
 21
112.6854492951
  0
LINE
  5
242
100
AcDbEntity
  8
0
100
AcDbLine
 62
7
  6
CONTINUOUS
 10
73.4788368662
 20
182.1769581801
 11
73.5351106854
 21
182.4766229816
  0
LINE
  5
243
100
AcDbEntity
  8
0
100
AcDbLine
 62
7
  6
CONTINUOUS
 10
79.6793661379
 20
181.7975098417
 11
79.812629613
 21
182.1290648351
  0
LINE
  5
244
100
AcDbEntity
  8
0
100
AcDbLine
 62
7
  6
CONTINUOUS
 10
96.2846234076
 20
181.5028135124
 11
96.1424959222
 21
181.3774476962
  0
LINE
  5
245
100
AcDbEntity
  8
0
100
AcDbLine
 62
7
  6
CONTINUOUS
 10
97.5520197779
 20
180.4251298375
 11
96.7318233987
 21
179.7515629569
  0
LINE
  5
246
100
AcDbEntity
  8
0
100
AcDbLine
 62
7
  6
CONTINUOUS
 10
97.1167732774
 20
179.5921114964
 11
97.9369698768
 21
180.2656782857
  0
LINE
  5
247
100
AcDbEntity
  8
0
100
AcDbLine
 62
7
  6
CONTINUOUS
 10
101.0580010657
 20
179.5256157481
 11
100.806314871
 21
179.3535120965
  0
LINE
  5
248
100
AcDbEntity
  8
B-ACHSEN
100
AcDbLine
 62
7
  6
CONTINUOUS
 10
66.8478868748
 20
118.8854492951
 11
106.8478868748
 21
118.8854492951
  0
LINE
  5
249
100
AcDbEntity
  8
0
100
AcDbLine
 62
7
  6
CONTINUOUS
 10
76.3103868748
 20
121.2311939729
 11
76.6853867318
 21
121.1354492951
  0
LINE
  5
24A
100
AcDbEntity
  8
0
100
AcDbLine
 62
7
  6
CONTINUOUS
 10
76.6853867318
 20
121.7099173788
 11
76.3853870179
 21
121.8056620482
  0
LINE
  5
24B
100
AcDbEntity
  8
0
100
AcDbLine
 62
7
  6
CONTINUOUS
 10
76.0103867318
 20
121.4226833369
 11
76.3103868748
 21
121.2311939729
  0
LINE
  5
24C
100
AcDbEntity
  8
0
100
AcDbLine
 62
7
  6
CONTINUOUS
 10
76.3853870179
 20
121.8056620482
 11
76.1603870179
 21
121.9971514541
  0
LINE
  5
24D
100
AcDbEntity
  8
B-ACHSEN
100
AcDbLine
 62
7
  6
CONTINUOUS
 10
66.8478868748
 20
118.8854492951
 11
66.8478868748
 21
122.0976090295
  0
LINE
  5
24E
100
AcDbEntity
  8
0
100
AcDbLine
 62
7
  6
CONTINUOUS
 10
75.8506850955
 20
182.3303433591
 11
75.9069589146
 21
182.6300081607
  0
LINE
  5
24F
100
AcDbEntity
  8
0
100
AcDbLine
 62
7
  6
CONTINUOUS
 10
76.9641014931
 20
183.3442463765
 11
77.0766490402
 21
183.9435761999
  0
LINE
  5
250
100
AcDbEntity
  8
0
100
AcDbLine
 62
7
  6
CONTINUOUS
 10
94.9964099195
 20
184.7078451479
 11
94.7891447607
 21
184.4252232911
  0
LINE
  5
251
100
AcDbEntity
  8
0
100
AcDbLine
 62
7
  6
CONTINUOUS
 10
97.1344005149
 20
182.9010754475
 11
97.3416658183
 21
183.1836972444
  0
LINE
  5
252
100
AcDbEntity
  8
0
100
AcDbLine
 62
7
  6
CONTINUOUS
 10
96.4948769792
 20
181.1393681446
 11
96.6695732862
 21
181.3433620519
  0
LINE
  5
253
100
AcDbEntity
  8
0
100
AcDbLine
 62
7
  6
CONTINUOUS
 10
99.9267556214
 20
182.0207995138
 11
100.1014522172
 21
182.2247934951
  0
LINE
  5
254
100
AcDbEntity
  8
0
100
AcDbLine
 62
7
  6
CONTINUOUS
 10
99.4056547939
 20
180.7627508286
 11
99.580351344
 21
180.9667446997
  0
LINE
  5
255
100
AcDbEntity
  8
0
100
AcDbLine
 62
7
  6
CONTINUOUS
 10
99.8911986228
 20
182.5882388079
 11
99.5743747619
 21
182.2588789191
  0
LINE
  5
256
100
AcDbEntity
  8
0
100
AcDbLine
 62
7
  6
CONTINUOUS
 10
101.2682541967
 20
179.1621705628
 11
101.5850784297
 21
179.4915301039
  0
LINE
  5
257
100
AcDbEntity
  8
0
100
AcDbLine
 62
7
  6
CONTINUOUS
 10
92.135387447
 20
121.1354492951
 11
92.5103868748
 21
121.2311939729
  0
LINE
  5
258
100
AcDbEntity
  8
0
100
AcDbLine
 62
7
  6
CONTINUOUS
 10
80.5853868748
 20
121.1354492951
 11
80.9603871609
 21
121.2311939729
  0
LINE
  5
259
100
AcDbEntity
  8
0
100
AcDbLine
 62
7
  6
CONTINUOUS
 10
72.0353868748
 20
121.1354492951
 11
72.4853868748
 21
121.1354492951
  0
LINE
  5
25A
100
AcDbEntity
  8
0
100
AcDbLine
 62
7
  6
CONTINUOUS
 10
74.3603868033
 20
121.1354492951
 11
74.8853869463
 21
121.1354492951
  0
LINE
  5
25B
100
AcDbEntity
  8
0
100
AcDbLine
 62
7
  6
CONTINUOUS
 10
76.6853867318
 20
121.1354492951
 11
76.9853868748
 21
121.1354492951
  0
LINE
  5
25C
100
AcDbEntity
  8
0
100
AcDbLine
 62
7
  6
CONTINUOUS
 10
78.7853868748
 20
121.1354492951
 11
80.5853868748
 21
121.1354492951
  0
LINE
  5
25D
100
AcDbEntity
  8
0
100
AcDbLine
 62
7
  6
CONTINUOUS
 10
85.9853868748
 20
121.1354492951
 11
86.4353868748
 21
121.1354492951
  0
LINE
  5
25E
100
AcDbEntity
  8
0
100
AcDbLine
 62
7
  6
CONTINUOUS
 10
87.0353863026
 20
121.1354492951
 11
87.4853863026
 21
121.1354492951
  0
LINE
  5
25F
100
AcDbEntity
  8
0
100
AcDbLine
 62
7
  6
CONTINUOUS
 10
89.3603868748
 20
121.1354492951
 11
89.885387447
 21
121.1354492951
  0
LINE
  5
260
100
AcDbEntity
  8
0
100
AcDbLine
 62
7
  6
CONTINUOUS
 10
91.5353863026
 20
121.1354492951
 11
92.135387447
 21
121.1354492951
  0
LINE
  5
261
100
AcDbEntity
  8
0
100
AcDbLine
 62
7
  6
CONTINUOUS
 10
95.510387447
 20
121.1354492951
 11
98.210387447
 21
121.1354492951
  0
LINE
  5
262
100
AcDbEntity
  8
0
100
AcDbLine
 62
7
  6
CONTINUOUS
 10
100.010387447
 20
121.1354492951
 11
100.460387447
 21
121.1354492951
  0
LINE
  5
263
100
AcDbEntity
  8
0
100
AcDbLine
 62
7
  6
CONTINUOUS
 10
98.210387447
 20
121.7099173788
 11
95.960387447
 21
121.7099173788
  0
LINE
  5
264
100
AcDbEntity
  8
0
100
AcDbLine
 62
7
  6
CONTINUOUS
 10
92.135387447
 20
121.7099173788
 11
91.5353863026
 21
121.7099173788
  0
LINE
  5
265
100
AcDbEntity
  8
0
100
AcDbLine
 62
7
  6
CONTINUOUS
 10
80.5853868748
 20
121.7099173788
 11
79.2353868748
 21
121.7099173788
  0
LINE
  5
266
100
AcDbEntity
  8
0
100
AcDbLine
 62
7
  6
CONTINUOUS
 10
76.9853868748
 20
121.7099173788
 11
76.6853867318
 21
121.7099173788
  0
LINE
  5
267
100
AcDbEntity
  8
0
100
AcDbLine
 62
7
  6
CONTINUOUS
 10
90.9353868748
 20
122.3801301319
 11
90.4853868748
 21
122.3801301319
  0
LINE
  5
268
100
AcDbEntity
  8
0
100
AcDbLine
 62
7
  6
CONTINUOUS
 10
93.8603868748
 20
122.7631088096
 11
94.9103863026
 21
122.7631088096
  0
LINE
  5
269
100
AcDbEntity
  8
0
100
AcDbLine
 62
7
  6
CONTINUOUS
 10
72.4853868748
 20
123.1460876215
 11
73.7603868391
 21
123.1460876215
  0
LINE
  5
26A
100
AcDbEntity
  8
0
100
AcDbLine
 62
7
  6
CONTINUOUS
 10
87.4853863026
 20
123.1460876215
 11
88.760387447
 21
123.1460876215
  0
LINE
  5
26B
100
AcDbEntity
  8
0
100
AcDbLine
 62
7
  6
CONTINUOUS
 10
91.685387447
 20
123.1460876215
 11
92.135387447
 21
123.1460876215
  0
LINE
  5
26C
100
AcDbEntity
  8
0
100
AcDbLine
 62
7
  6
CONTINUOUS
 10
94.9103863026
 20
123.2418322909
 11
93.8603868748
 21
123.2418322909
  0
LINE
  5
26D
100
AcDbEntity
  8
0
100
AcDbLine
 62
7
  6
CONTINUOUS
 10
92.135387447
 20
123.7205556381
 11
91.685387447
 21
123.7205556381
  0
LINE
  5
26E
100
AcDbEntity
  8
0
100
AcDbLine
 62
7
  6
CONTINUOUS
 10
88.9103868748
 20
123.7205556381
 11
87.4853863026
 21
123.7205556381
  0
LINE
  5
26F
100
AcDbEntity
  8
0
100
AcDbLine
 62
7
  6
CONTINUOUS
 10
73.9103868033
 20
123.7205556381
 11
72.4853868748
 21
123.7205556381
  0
LINE
  5
270
100
AcDbEntity
  8
0
100
AcDbLine
 62
7
  6
CONTINUOUS
 10
74.2103869463
 20
125.5397046257
 11
73.8353868748
 21
125.6354492951
  0
LINE
  5
271
100
AcDbEntity
  8
0
100
AcDbLine
 62
7
  6
CONTINUOUS
 10
91.1603868748
 20
121.2311939729
 11
91.5353863026
 21
121.1354492951
  0
LINE
  5
272
100
AcDbEntity
  8
0
100
AcDbLine
 62
7
  6
CONTINUOUS
 10
73.9103868033
 20
125.1567259479
 11
74.1353868033
 21
125.0609812785
  0
LINE
  5
273
100
AcDbEntity
  8
0
100
AcDbLine
 62
7
  6
CONTINUOUS
 10
74.5103868748
 20
125.2524706174
 11
74.2103869463
 21
125.5397046257
  0
LINE
  5
274
100
AcDbEntity
  8
0
100
AcDbLine
 62
7
  6
CONTINUOUS
 10
75.7103870179
 20
121.8056620482
 11
76.0103867318
 21
121.4226833369
  0
LINE
  5
275
100
AcDbEntity
  8
0
100
AcDbLine
 62
7
  6
CONTINUOUS
 10
74.1353868033
 20
125.0609812785
 11
74.2853868748
 21
124.8694919396
  0
LINE
  5
276
100
AcDbEntity
  8
0
100
AcDbLine
 62
7
  6
CONTINUOUS
 10
74.7353868748
 20
124.8694919396
 11
74.5103868748
 21
125.2524706174
  0
LINE
  5
277
100
AcDbEntity
  8
0
100
AcDbLine
 62
7
  6
CONTINUOUS
 10
76.1603870179
 20
121.9971514541
 11
76.0103867318
 21
122.2843854625
  0
LINE
  5
278
100
AcDbEntity
  8
0
100
AcDbLine
 62
7
  6
CONTINUOUS
 10
75.5603869463
 20
122.188640793
 11
75.7103870179
 21
121.8056620482
  0
LINE
  5
279
100
AcDbEntity
  8
0
100
AcDbLine
 62
7
  6
CONTINUOUS
 10
74.8853869463
 20
121.1354492951
 11
74.2103869463
 21
123.3375769604
  0
LINE
  5
27A
100
AcDbEntity
  8
0
100
AcDbLine
 62
7
  6
CONTINUOUS
 10
73.7603868391
 20
123.1460876215
 11
74.3603868033
 21
121.1354492951
  0
LINE
  5
27B
100
AcDbEntity
  8
0
100
AcDbLine
 62
7
  6
CONTINUOUS
 10
71.3498111215
 20
182.3083900576
 11
71.5628514181
 21
178.5276578719
  0
LINE
  5
27C
100
AcDbEntity
  8
0
100
AcDbLine
 62
7
  6
CONTINUOUS
 10
72.0336552061
 20
178.2620787508
 11
71.9064689933
 21
181.6177805563
  0
LINE
  5
27D
100
AcDbEntity
  8
0
100
AcDbLine
 62
7
  6
CONTINUOUS
 10
72.0353868748
 20
125.6354492951
 11
72.0353868748
 21
121.1354492951
  0
LINE
  5
27E
100
AcDbEntity
  8
0
100
AcDbLine
 62
7
  6
CONTINUOUS
 10
72.4853868748
 20
121.1354492951
 11
72.4853868748
 21
123.1460876215
  0
LINE
  5
27F
100
AcDbEntity
  8
0
100
AcDbLine
 62
7
  6
CONTINUOUS
 10
72.4853868748
 20
123.7205556381
 11
72.4853868748
 21
125.1567259479
  0
LINE
  5
280
100
AcDbEntity
  8
0
100
AcDbLine
 62
7
  6
CONTINUOUS
 10
74.3603868033
 20
124.5822579313
 11
74.3603868033
 21
124.2950236548
  0
LINE
  5
281
100
AcDbEntity
  8
0
100
AcDbLine
 62
7
  6
CONTINUOUS
 10
75.3917336202
 20
182.7850687527
 11
75.3680290405
 21
182.4067760976
  0
LINE
  5
282
100
AcDbEntity
  8
0
100
AcDbLine
 62
7
  6
CONTINUOUS
 10
76.5821404751
 20
183.8308625196
 11
76.5584354548
 21
183.4525696821
  0
LINE
  5
283
100
AcDbEntity
  8
0
100
AcDbLine
 62
7
  6
CONTINUOUS
 10
79.4306677823
 20
182.6156804481
 11
79.3181210479
 21
182.0163511549
  0
LINE
  5
284
100
AcDbEntity
  8
0
100
AcDbLine
 62
7
  6
CONTINUOUS
 10
101.2326975702
 20
179.7296095091
 11
101.0580010657
 21
179.5256157481
  0
LINE
  5
285
100
AcDbEntity
  8
0
100
AcDbLine
 62
7
  6
CONTINUOUS
 10
76.9853868748
 20
121.1354492951
 11
77.3603867318
 21
121.2311939729
  0
LINE
  5
286
100
AcDbEntity
  8
0
100
AcDbLine
 62
7
  6
CONTINUOUS
 10
92.585387447
 20
124.5822579313
 11
93.035387447
 21
124.5822579313
  0
LINE
  5
287
100
AcDbEntity
  8
0
100
AcDbLine
 62
7
  6
CONTINUOUS
 10
79.2353868748
 20
125.0609812785
 11
80.5853868748
 21
125.0609812785
  0
LINE
  5
288
100
AcDbEntity
  8
0
100
AcDbLine
 62
7
  6
CONTINUOUS
 10
91.685387447
 20
125.0609812785
 11
92.135387447
 21
125.0609812785
  0
LINE
  5
289
100
AcDbEntity
  8
0
100
AcDbLine
 62
7
  6
CONTINUOUS
 10
72.4853868748
 20
125.1567259479
 11
73.9103868033
 21
125.1567259479
  0
LINE
  5
28A
100
AcDbEntity
  8
0
100
AcDbLine
 62
7
  6
CONTINUOUS
 10
87.4853863026
 20
125.1567259479
 11
88.9103868748
 21
125.1567259479
  0
LINE
  5
28B
100
AcDbEntity
  8
0
100
AcDbLine
 62
7
  6
CONTINUOUS
 10
98.8103868748
 20
125.1567259479
 11
100.010387447
 21
125.1567259479
  0
LINE
  5
28C
100
AcDbEntity
  8
0
100
AcDbLine
 62
7
  6
CONTINUOUS
 10
100.460387447
 20
125.1567259479
 11
101.6603880192
 21
125.1567259479
  0
LINE
  5
28D
100
AcDbEntity
  8
0
100
AcDbLine
 62
7
  6
CONTINUOUS
 10
101.6603880192
 20
125.6354492951
 11
98.8103868748
 21
125.6354492951
  0
LINE
  5
28E
100
AcDbEntity
  8
0
100
AcDbLine
 62
7
  6
CONTINUOUS
 10
95.960387447
 20
125.6354492951
 11
95.510387447
 21
125.6354492951
  0
LINE
  5
28F
100
AcDbEntity
  8
0
100
AcDbLine
 62
7
  6
CONTINUOUS
 10
92.0603868748
 20
125.6354492951
 11
91.685387447
 21
125.6354492951
  0
LINE
  5
290
100
AcDbEntity
  8
0
100
AcDbLine
 62
7
  6
CONTINUOUS
 10
88.8353863026
 20
125.6354492951
 11
87.0353863026
 21
125.6354492951
  0
LINE
  5
291
100
AcDbEntity
  8
0
100
AcDbLine
 62
7
  6
CONTINUOUS
 10
86.4353868748
 20
125.6354492951
 11
85.9853868748
 21
125.6354492951
  0
LINE
  5
292
100
AcDbEntity
  8
0
100
AcDbLine
 62
7
  6
CONTINUOUS
 10
80.5853868748
 20
125.6354492951
 11
78.7853868748
 21
125.6354492951
  0
LINE
  5
293
100
AcDbEntity
  8
0
100
AcDbLine
 62
7
  6
CONTINUOUS
 10
78.1853870179
 20
125.6354492951
 11
77.7353870179
 21
125.6354492951
  0
LINE
  5
294
100
AcDbEntity
  8
0
100
AcDbLine
 62
7
  6
CONTINUOUS
 10
75.9353870179
 20
125.6354492951
 11
75.4853868033
 21
125.6354492951
  0
LINE
  5
295
100
AcDbEntity
  8
0
100
AcDbLine
 62
7
  6
CONTINUOUS
 10
73.8353868748
 20
125.6354492951
 11
72.0353868748
 21
125.6354492951
  0
LINE
  5
296
100
AcDbEntity
  8
RUNDUNGEN
100
AcDbLine
 62
7
  6
CONTINUOUS
 10
112.6334591835
 20
127.0976090295
 11
110.400197313
 21
127.0976090295
  0
LINE
  5
297
100
AcDbEntity
  8
RUNDUNGEN
100
AcDbLine
 62
7
  6
CONTINUOUS
 10
63.2955764366
 20
127.0976090295
 11
61.0623145661
 21
127.0976090295
  0
LINE
  5
298
100
AcDbEntity
  8
0
100
AcDbLine
 62
7
  6
CONTINUOUS
 10
80.9603871609
 20
125.5397046257
 11
80.5853868748
 21
125.6354492951
  0
LINE
  5
299
100
AcDbEntity
  8
0
100
AcDbLine
 62
7
  6
CONTINUOUS
 10
92.5103868748
 20
123.6248109687
 11
92.135387447
 21
123.7205556381
  0
LINE
  5
29A
100
AcDbEntity
  8
0
100
AcDbLine
 62
7
  6
CONTINUOUS
 10
89.210387447
 20
125.5397046257
 11
88.8353863026
 21
125.6354492951
  0
LINE
  5
29B
100
AcDbEntity
  8
0
100
AcDbLine
 62
7
  6
CONTINUOUS
 10
92.4353863026
 20
125.5397046257
 11
92.0603868748
 21
125.6354492951
  0
LINE
  5
29C
100
AcDbEntity
  8
0
100
AcDbLine
 62
7
  6
CONTINUOUS
 10
80.5853868748
 20
125.0609812785
 11
80.8853865887
 21
124.965236609
  0
LINE
  5
29D
100
AcDbEntity
  8
0
100
AcDbLine
 62
7
  6
CONTINUOUS
 10
91.5353863026
 20
121.7099173788
 11
91.235387447
 21
121.8056620482
  0
LINE
  5
29E
100
AcDbEntity
  8
0
100
AcDbLine
 62
7
  6
CONTINUOUS
 10
91.3853868748
 20
123.2418322909
 11
91.685387447
 21
123.1460876215
  0
LINE
  5
29F
100
AcDbEntity
  8
0
100
AcDbLine
 62
7
  6
CONTINUOUS
 10
92.135387447
 20
123.1460876215
 11
92.4353863026
 21
123.0503429521
  0
LINE
  5
2A0
100
AcDbEntity
  8
0
100
AcDbLine
 62
7
  6
CONTINUOUS
 10
91.685387447
 20
123.7205556381
 11
91.460387447
 21
123.8163003076
  0
LINE
  5
2A1
100
AcDbEntity
  8
0
100
AcDbLine
 62
7
  6
CONTINUOUS
 10
88.9103868748
 20
125.1567259479
 11
89.1353868748
 21
125.0609812785
  0
LINE
  5
2A2
100
AcDbEntity
  8
0
100
AcDbLine
 62
7
  6
CONTINUOUS
 10
81.2603868748
 20
125.3482152868
 11
80.9603871609
 21
125.5397046257
  0
LINE
  5
2A3
100
AcDbEntity
  8
0
100
AcDbLine
 62
7
  6
CONTINUOUS
 10
90.785387447
 20
121.5184280064
 11
91.1603868748
 21
121.2311939729
  0
LINE
  5
2A4
100
AcDbEntity
  8
0
100
AcDbLine
 62
7
  6
CONTINUOUS
 10
80.8853865887
 20
124.965236609
 11
81.1103865887
 21
124.7737472702
  0
LINE
  5
2A5
100
AcDbEntity
  8
B-ACHSEN
100
AcDbLine
 62
7
  6
CONTINUOUS
 10
95.0478868748
 20
112.6854492951
 11
96.8478868748
 21
110.8854492951
  0
LINE
  5
2A6
100
AcDbEntity
  8
0
100
AcDbLine
 62
7
  6
CONTINUOUS
 10
81.5603865887
 20
124.965236609
 11
81.2603868748
 21
125.3482152868
  0
LINE
  5
2A7
100
AcDbEntity
  8
0
100
AcDbLine
 62
7
  6
CONTINUOUS
 10
81.1103865887
 20
124.7737472702
 11
81.2603868748
 21
124.4865129936
  0
LINE
  5
2A8
100
AcDbEntity
  8
0
100
AcDbLine
 62
7
  6
CONTINUOUS
 10
74.2853868748
 20
124.8694919396
 11
74.3603868033
 21
124.5822579313
  0
LINE
  5
2A9
100
AcDbEntity
  8
0
100
AcDbLine
 62
7
  6
CONTINUOUS
 10
74.8103868033
 20
124.5822579313
 11
74.7353868748
 21
124.8694919396
  0
LINE
  5
2AA
100
AcDbEntity
  8
0
100
AcDbLine
 62
7
  6
CONTINUOUS
 10
76.0103867318
 20
122.2843854625
 11
75.9353870179
 21
122.6673641402
  0
LINE
  5
2AB
100
AcDbEntity
  8
0
100
AcDbLine
 62
7
  6
CONTINUOUS
 10
75.4853868033
 20
122.6673641402
 11
75.5603869463
 21
122.188640793
  0
LINE
  5
2AC
100
AcDbEntity
  8
0
100
AcDbLine
 62
7
  6
CONTINUOUS
 10
74.8103868033
 20
124.1992789853
 11
74.8103868033
 21
124.5822579313
  0
LINE
  5
2AD
100
AcDbEntity
  8
0
100
AcDbLine
 62
7
  6
CONTINUOUS
 10
75.4853868033
 20
125.6354492951
 11
75.4853868033
 21
122.6673641402
  0
LINE
  5
2AE
100
AcDbEntity
  8
0
100
AcDbLine
 62
7
  6
CONTINUOUS
 10
75.9353870179
 20
122.6673641402
 11
75.9353870179
 21
125.6354492951
  0
LINE
  5
2AF
100
AcDbEntity
  8
B-ACHSEN
100
AcDbLine
 62
7
  6
CONTINUOUS
 10
76.8478868748
 20
110.8854492951
 11
76.8478868748
 21
90.3854492951
  0
LINE
  5
2B0
100
AcDbEntity
  8
0
100
AcDbLine
 62
7
  6
CONTINUOUS
 10
77.7353870179
 20
125.6354492951
 11
77.7353870179
 21
122.6673641402
  0
LINE
  5
2B1
100
AcDbEntity
  8
0
100
AcDbLine
 62
7
  6
CONTINUOUS
 10
78.1853870179
 20
122.6673641402
 11
78.1853870179
 21
125.6354492951
  0
LINE
  5
2B2
100
AcDbEntity
  8
B-ACHSEN
100
AcDbLine
 62
7
  6
CONTINUOUS
 10
78.6478868748
 20
118.8854492951
 11
78.6478868748
 21
112.6854492951
  0
LINE
  5
2B3
100
AcDbEntity
  8
0
100
AcDbLine
 62
7
  6
CONTINUOUS
 10
78.7853868748
 20
125.6354492951
 11
78.7853868748
 21
121.1354492951
  0
LINE
  5
2B4
100
AcDbEntity
  8
0
100
AcDbLine
 62
7
  6
CONTINUOUS
 10
79.812629613
 20
182.1290648351
 11
79.8363346105
 21
182.5073577277
  0
LINE
  5
2B5
100
AcDbEntity
  8
0
100
AcDbLine
 62
7
  6
CONTINUOUS
 10
74.3603868033
 20
124.2950236548
 11
74.2853868748
 21
124.0077896464
  0
LINE
  5
2B6
100
AcDbEntity
  8
0
100
AcDbLine
 62
7
  6
CONTINUOUS
 10
95.6183061308
 20
183.1605884066
 11
95.4880309353
 21
182.8460762628
  0
LINE
  5
2B7
100
AcDbEntity
  8
0
100
AcDbLine
 62
7
  6
CONTINUOUS
 10
99.5743747619
 20
182.2588789191
 11
99.269403062
 21
181.7403730143
  0
LINE
  5
2B8
100
AcDbEntity
  8
0
100
AcDbLine
 62
7
  6
CONTINUOUS
 10
99.6543527203
 20
181.580921645
 11
99.9267556214
 21
182.0207995138
  0
LINE
  5
2B9
100
AcDbEntity
  8
0
100
AcDbLine
 62
7
  6
CONTINUOUS
 10
92.135387447
 20
125.0609812785
 11
92.360387447
 21
124.965236609
  0
LINE
  5
2BA
100
AcDbEntity
  8
0
100
AcDbLine
 62
7
  6
CONTINUOUS
 10
91.0853863026
 20
123.4333216298
 11
91.3853868748
 21
123.2418322909
  0
LINE
  5
2BB
100
AcDbEntity
  8
0
100
AcDbLine
 62
7
  6
CONTINUOUS
 10
92.810387447
 20
123.4333216298
 11
92.5103868748
 21
123.6248109687
  0
LINE
  5
2BC
100
AcDbEntity
  8
0
100
AcDbLine
 62
7
  6
CONTINUOUS
 10
91.460387447
 20
123.8163003076
 11
91.235387447
 21
124.0077896464
  0
LINE
  5
2BD
100
AcDbEntity
  8
0
100
AcDbLine
 62
7
  6
CONTINUOUS
 10
92.4353863026
 20
123.0503429521
 11
92.6603863026
 21
122.8588536132
  0
LINE
  5
2BE
100
AcDbEntity
  8
0
100
AcDbLine
 62
7
  6
CONTINUOUS
 10
89.5103863026
 20
125.2524706174
 11
89.210387447
 21
125.5397046257
  0
LINE
  5
2BF
100
AcDbEntity
  8
0
100
AcDbLine
 62
7
  6
CONTINUOUS
 10
81.7103868748
 20
124.5822579313
 11
81.5603865887
 21
124.965236609
  0
LINE
  5
2C0
100
AcDbEntity
  8
0
100
AcDbLine
 62
7
  6
CONTINUOUS
 10
81.2603868748
 20
124.4865129936
 11
81.3353865887
 21
124.1035343159
  0
LINE
  5
2C1
100
AcDbEntity
  8
0
100
AcDbLine
 62
7
  6
CONTINUOUS
 10
76.5584354548
 20
183.4525696821
 11
76.5791522753
 21
183.1847951896
  0
LINE
  5
2C2
100
AcDbEntity
  8
0
100
AcDbLine
 62
7
  6
CONTINUOUS
 10
79.8363346105
 20
182.5073577277
 11
79.8156178812
 21
182.7751319999
  0
LINE
  5
2C3
100
AcDbEntity
  8
0
100
AcDbLine
 62
7
  6
CONTINUOUS
 10
79.2353868748
 20
121.7099173788
 11
79.2353868748
 21
125.0609812785
  0
LINE
  5
2C4
100
AcDbEntity
  8
0
100
AcDbLine
 62
7
  6
CONTINUOUS
 10
81.3353865887
 20
124.1035343159
 11
81.3353865887
 21
122.6673641402
  0
LINE
  5
2C5
100
AcDbEntity
  8
0
100
AcDbLine
 62
7
  6
CONTINUOUS
 10
81.7853865887
 20
122.6673641402
 11
81.7853865887
 21
124.1035343159
  0
LINE
  5
2C6
100
AcDbEntity
  8
0
100
AcDbLine
 62
7
  6
CONTINUOUS
 10
78.1103868748
 20
122.188640793
 11
78.1853870179
 21
122.6673641402
  0
LINE
  5
2C7
100
AcDbEntity
  8
0
100
AcDbLine
 62
7
  6
CONTINUOUS
 10
77.7353870179
 20
122.6673641402
 11
77.6603868748
 21
122.2843854625
  0
LINE
  5
2C8
100
AcDbEntity
  8
0
100
AcDbLine
 62
7
  6
CONTINUOUS
 10
74.7353868748
 20
123.912044977
 11
74.8103868033
 21
124.1992789853
  0
LINE
  5
2C9
100
AcDbEntity
  8
0
100
AcDbLine
 62
7
  6
CONTINUOUS
 10
97.0218536286
 20
183.5004049971
 11
96.9567159396
 21
183.343148705
  0
LINE
  5
2CA
100
AcDbEntity
  8
0
100
AcDbLine
 62
7
  6
CONTINUOUS
 10
96.4148986031
 20
181.8173256562
 11
96.2846234076
 21
181.5028135124
  0
LINE
  5
2CB
100
AcDbEntity
  8
0
100
AcDbLine
 62
7
  6
CONTINUOUS
 10
97.3416658183
 20
183.1836972444
 11
97.4068035073
 21
183.3409535366
  0
LINE
  5
2CC
100
AcDbEntity
  8
0
100
AcDbLine
 62
7
  6
CONTINUOUS
 10
96.6695732862
 20
181.3433620519
 11
96.7998484817
 21
181.6578741957
  0
LINE
  5
2CD
100
AcDbEntity
  8
0
100
AcDbLine
 62
7
  6
CONTINUOUS
 10
99.269403062
 20
181.7403730143
 11
99.0414214698
 21
181.1899767627
  0
LINE
  5
2CE
100
AcDbEntity
  8
0
100
AcDbLine
 62
7
  6
CONTINUOUS
 10
99.5892151226
 20
181.4236655731
 11
99.6543527203
 21
181.580921645
  0
LINE
  5
2CF
100
AcDbEntity
  8
0
100
AcDbLine
 62
7
  6
CONTINUOUS
 10
99.3079483973
 20
180.5268667207
 11
99.4056547939
 21
180.7627508286
  0
LINE
  5
2D0
100
AcDbEntity
  8
0
100
AcDbLine
 62
7
  6
CONTINUOUS
 10
92.7353868748
 20
125.2524706174
 11
92.4353863026
 21
125.5397046257
  0
LINE
  5
2D1
100
AcDbEntity
  8
0
100
AcDbLine
 62
7
  6
CONTINUOUS
 10
91.235387447
 20
121.8056620482
 11
91.010387447
 21
122.0928961236
  0
LINE
  5
2D2
100
AcDbEntity
  8
0
100
AcDbLine
 62
7
  6
CONTINUOUS
 10
89.1353868748
 20
125.0609812785
 11
89.2853863026
 21
124.8694919396
  0
LINE
  5
2D3
100
AcDbEntity
  8
0
100
AcDbLine
 62
7
  6
CONTINUOUS
 10
90.785387447
 20
123.8163003076
 11
91.0853863026
 21
123.4333216298
  0
LINE
  5
2D4
100
AcDbEntity
  8
0
100
AcDbLine
 62
7
  6
CONTINUOUS
 10
93.1103863026
 20
123.0503429521
 11
92.810387447
 21
123.4333216298
  0
LINE
  5
2D5
100
AcDbEntity
  8
0
100
AcDbLine
 62
7
  6
CONTINUOUS
 10
92.360387447
 20
124.965236609
 11
92.5103868748
 21
124.7737472702
  0
LINE
  5
2D6
100
AcDbEntity
  8
0
100
AcDbLine
 62
7
  6
CONTINUOUS
 10
89.7353863026
 20
124.8694919396
 11
89.5103863026
 21
125.2524706174
  0
LINE
  5
2D7
100
AcDbEntity
  8
0
100
AcDbLine
 62
7
  6
CONTINUOUS
 10
90.560387447
 20
121.9971514541
 11
90.785387447
 21
121.5184280064
  0
LINE
  5
2D8
100
AcDbEntity
  8
0
100
AcDbLine
 62
7
  6
CONTINUOUS
 10
81.7853865887
 20
124.1035343159
 11
81.7103868748
 21
124.5822579313
  0
LINE
  5
2D9
100
AcDbEntity
  8
0
100
AcDbLine
 62
7
  6
CONTINUOUS
 10
73.0406021203
 20
182.3639093014
 11
73.0938872079
 21
182.0175068108
  0
LINE
  5
2DA
100
AcDbEntity
  8
0
100
AcDbLine
 62
7
  6
CONTINUOUS
 10
75.9069589146
 20
182.6300081607
 11
75.8536733865
 21
182.9764104688
  0
LINE
  5
2DB
100
AcDbEntity
  8
0
100
AcDbLine
 62
7
  6
CONTINUOUS
 10
85.9853868748
 20
125.6354492951
 11
85.9853868748
 21
121.1354492951
  0
LINE
  5
2DC
100
AcDbEntity
  8
0
100
AcDbLine
 62
7
  6
CONTINUOUS
 10
86.4353868748
 20
121.1354492951
 11
86.4353868748
 21
125.6354492951
  0
LINE
  5
2DD
100
AcDbEntity
  8
B-ACHSEN
100
AcDbLine
 62
2
  6
CENTER
 10
86.8478868748
 20
153.8854492951
 11
86.8478868748
 21
86.7818158632
  0
LINE
  5
2DE
100
AcDbEntity
  8
B-ACHSEN
100
AcDbLine
 62
2
  6
CENTER
 10
86.8478868748
 20
153.8854492951
 11
86.8478868748
 21
194.0160611966
  0
LINE
  5
2DF
100
AcDbEntity
  8
0
100
AcDbLine
 62
7
  6
CONTINUOUS
 10
87.0353863026
 20
125.6354492951
 11
87.0353863026
 21
121.1354492951
  0
LINE
  5
2E0
100
AcDbEntity
  8
0
100
AcDbLine
 62
7
  6
CONTINUOUS
 10
81.7103868748
 20
122.188640793
 11
81.7853865887
 21
122.6673641402
  0
LINE
  5
2E1
100
AcDbEntity
  8
0
100
AcDbLine
 62
7
  6
CONTINUOUS
 10
81.3353865887
 20
122.6673641402
 11
81.2603868748
 21
122.2843854625
  0
LINE
  5
2E2
100
AcDbEntity
  8
0
100
AcDbLine
 62
7
  6
CONTINUOUS
 10
77.9603870179
 20
121.8056620482
 11
78.1103868748
 21
122.188640793
  0
LINE
  5
2E3
100
AcDbEntity
  8
0
100
AcDbLine
 62
7
  6
CONTINUOUS
 10
101.3304039668
 20
179.965493617
 11
101.2326975702
 21
179.7296095091
  0
LINE
  5
2E4
100
AcDbEntity
  8
0
100
AcDbLine
 62
7
  6
CONTINUOUS
 10
101.5850784297
 20
179.4915301039
 11
101.7479224696
 21
179.8846703937
  0
LINE
  5
2E5
100
AcDbEntity
  8
0
100
AcDbLine
 62
7
  6
CONTINUOUS
 10
102.8198056359
 20
180.7303404871
 11
102.6895304404
 21
180.4158283433
  0
LINE
  5
2E6
100
AcDbEntity
  8
0
100
AcDbLine
 62
7
  6
CONTINUOUS
 10
103.696275219
 20
181.10424295
 11
103.4357247368
 21
180.4752184421
  0
LINE
  5
2E7
100
AcDbEntity
  8
0
100
AcDbLine
 62
7
  6
CONTINUOUS
 10
103.3054495413
 20
180.1607062984
 11
102.6540734955
 21
178.5881454142
  0
LINE
  5
2E8
100
AcDbEntity
  8
0
100
AcDbLine
 62
7
  6
CONTINUOUS
 10
103.1041612149
 20
178.5859499894
 11
103.6903996403
 21
180.0012547466
  0
LINE
  5
2E9
100
AcDbEntity
  8
0
100
AcDbLine
 62
7
  6
CONTINUOUS
 10
103.8206748357
 20
180.3157668903
 11
104.081225318
 21
180.9447913982
  0
LINE
  5
2EA
100
AcDbEntity
  8
0
100
AcDbLine
 62
7
  6
CONTINUOUS
 10
77.6603868748
 20
122.2843854625
 11
77.5103870179
 21
121.9971514541
  0
LINE
  5
2EB
100
AcDbEntity
  8
0
100
AcDbLine
 62
7
  6
CONTINUOUS
 10
74.5103868748
 20
123.5290662993
 11
74.7353868748
 21
123.912044977
  0
LINE
  5
2EC
100
AcDbEntity
  8
0
100
AcDbLine
 62
7
  6
CONTINUOUS
 10
74.2853868748
 20
124.0077896464
 11
74.1353868033
 21
123.8163003076
  0
LINE
  5
2ED
100
AcDbEntity
  8
0
100
AcDbLine
 62
7
  6
CONTINUOUS
 10
92.9603868748
 20
124.8694919396
 11
92.7353868748
 21
125.2524706174
  0
LINE
  5
2EE
100
AcDbEntity
  8
0
100
AcDbLine
 62
7
  6
CONTINUOUS
 10
92.6603863026
 20
122.8588536132
 11
92.810387447
 21
122.5716194708
  0
LINE
  5
2EF
100
AcDbEntity
  8
0
100
AcDbLine
 62
7
  6
CONTINUOUS
 10
68.3472026408
 20
181.0646689025
 11
69.8779363703
 21
177.3691507724
  0
LINE
  5
2F0
100
AcDbEntity
  8
0
100
AcDbLine
 62
7
  6
CONTINUOUS
 10
70.3398761365
 20
177.5604924886
 11
69.1348303958
 21
180.4697302592
  0
LINE
  5
2F1
100
AcDbEntity
  8
0
100
AcDbLine
 62
7
  6
CONTINUOUS
 10
93.260387447
 20
122.6673641402
 11
93.1103863026
 21
123.0503429521
  0
LINE
  5
2F2
100
AcDbEntity
  8
0
100
AcDbLine
 62
7
  6
CONTINUOUS
 10
92.5103868748
 20
124.7737472702
 11
92.585387447
 21
124.5822579313
  0
LINE
  5
2F3
100
AcDbEntity
  8
0
100
AcDbLine
 62
7
  6
CONTINUOUS
 10
89.885387447
 20
121.1354492951
 11
89.210387447
 21
123.3375769604
  0
LINE
  5
2F4
100
AcDbEntity
  8
0
100
AcDbLine
 62
7
  6
CONTINUOUS
 10
88.760387447
 20
123.1460876215
 11
89.3603868748
 21
121.1354492951
  0
LINE
  5
2F5
100
AcDbEntity
  8
0
100
AcDbLine
 62
7
  6
CONTINUOUS
 10
89.2853863026
 20
124.8694919396
 11
89.3603868748
 21
124.5822579313
  0
LINE
  5
2F6
100
AcDbEntity
  8
0
100
AcDbLine
 62
7
  6
CONTINUOUS
 10
89.8103868748
 20
124.5822579313
 11
89.7353863026
 21
124.8694919396
  0
LINE
  5
2F7
100
AcDbEntity
  8
0
100
AcDbLine
 62
7
  6
CONTINUOUS
 10
91.010387447
 20
122.0928961236
 11
90.9353868748
 21
122.3801301319
  0
LINE
  5
2F8
100
AcDbEntity
  8
0
100
AcDbLine
 62
7
  6
CONTINUOUS
 10
91.235387447
 20
124.0077896464
 11
91.1603868748
 21
124.2950236548
  0
LINE
  5
2F9
100
AcDbEntity
  8
0
100
AcDbLine
 62
7
  6
CONTINUOUS
 10
77.082524619
 20
182.8405879964
 11
76.9641014931
 21
183.3442463765
  0
LINE
  5
2FA
100
AcDbEntity
  8
0
100
AcDbLine
 62
7
  6
CONTINUOUS
 10
76.5791522753
 20
183.1847951896
 11
76.6650057212
 21
182.7597644806
  0
LINE
  5
2FB
100
AcDbEntity
  8
0
100
AcDbLine
 62
7
  6
CONTINUOUS
 10
90.4853868748
 20
122.3801301319
 11
90.560387447
 21
121.9971514541
  0
LINE
  5
2FC
100
AcDbEntity
  8
0
100
AcDbLine
 62
7
  6
CONTINUOUS
 10
87.4853863026
 20
121.1354492951
 11
87.4853863026
 21
123.1460876215
  0
LINE
  5
2FD
100
AcDbEntity
  8
0
100
AcDbLine
 62
7
  6
CONTINUOUS
 10
87.4853863026
 20
123.7205556381
 11
87.4853863026
 21
125.1567259479
  0
LINE
  5
2FE
100
AcDbEntity
  8
0
100
AcDbLine
 62
7
  6
CONTINUOUS
 10
89.3603868748
 20
124.5822579313
 11
89.3603868748
 21
124.2950236548
  0
LINE
  5
2FF
100
AcDbEntity
  8
0
100
AcDbLine
 62
7
  6
CONTINUOUS
 10
89.8103868748
 20
124.1992789853
 11
89.8103868748
 21
124.5822579313
  0
LINE
  5
300
100
AcDbEntity
  8
0
100
AcDbLine
 62
7
  6
CONTINUOUS
 10
90.7103868748
 20
124.5822579313
 11
90.7103868748
 21
124.1992789853
  0
LINE
  5
301
100
AcDbEntity
  8
0
100
AcDbLine
 62
7
  6
CONTINUOUS
 10
91.1603868748
 20
124.2950236548
 11
91.1603868748
 21
124.4865129936
  0
LINE
  5
302
100
AcDbEntity
  8
0
100
AcDbLine
 62
7
  6
CONTINUOUS
 10
93.8979346887
 20
182.491412349
 11
93.8772182326
 21
182.2236378991
  0
LINE
  5
303
100
AcDbEntity
  8
0
100
AcDbLine
 62
7
  6
CONTINUOUS
 10
96.7998484817
 20
181.6578741957
 11
96.8531338352
 21
182.0042767052
  0
LINE
  5
304
100
AcDbEntity
  8
0
100
AcDbLine
 62
7
  6
CONTINUOUS
 10
97.4068035073
 20
183.3409535366
 11
97.4600885949
 21
183.6873560272
  0
LINE
  5
305
100
AcDbEntity
  8
0
100
AcDbLine
 62
7
  6
CONTINUOUS
 10
99.0414214698
 20
181.1899767627
 11
98.89042994
 21
180.6076900541
  0
LINE
  5
306
100
AcDbEntity
  8
0
100
AcDbLine
 62
7
  6
CONTINUOUS
 10
81.5603865887
 20
121.8056620482
 11
81.7103868748
 21
122.188640793
  0
LINE
  5
307
100
AcDbEntity
  8
0
100
AcDbLine
 62
7
  6
CONTINUOUS
 10
103.47138283
 20
177.5126569455
 11
103.6016580369
 21
177.8271691168
  0
LINE
  5
308
100
AcDbEntity
  8
0
100
AcDbLine
 62
7
  6
CONTINUOUS
 10
104.5372895054
 20
179.6504614786
 11
104.6675647009
 21
179.9649736224
  0
LINE
  5
309
100
AcDbEntity
  8
0
100
AcDbLine
 62
7
  6
CONTINUOUS
 10
81.2603868748
 20
122.2843854625
 11
81.1103865887
 21
121.9971514541
  0
LINE
  5
30A
100
AcDbEntity
  8
0
100
AcDbLine
 62
7
  6
CONTINUOUS
 10
77.6603868748
 20
121.4226833369
 11
77.9603870179
 21
121.8056620482
  0
LINE
  5
30B
100
AcDbEntity
  8
0
100
AcDbLine
 62
7
  6
CONTINUOUS
 10
71.9064689933
 20
181.6177805563
 11
73.1115147341
 21
178.7085427857
  0
LINE
  5
30C
100
AcDbEntity
  8
0
100
AcDbLine
 62
7
  6
CONTINUOUS
 10
73.5734545003
 20
178.8998845019
 11
72.0427207709
 21
182.5954026319
  0
LINE
  5
30D
100
AcDbEntity
  8
0
100
AcDbLine
 62
7
  6
CONTINUOUS
 10
74.0265300247
 20
179.5481469641
 11
74.1893740418
 21
179.1550067293
  0
LINE
  5
30E
100
AcDbEntity
  8
0
100
AcDbLine
 62
7
  6
CONTINUOUS
 10
93.035387447
 20
124.5822579313
 11
92.9603868748
 21
124.8694919396
  0
LINE
  5
30F
100
AcDbEntity
  8
0
100
AcDbLine
 62
7
  6
CONTINUOUS
 10
79.3122454919
 20
183.1193393033
 11
79.4306677823
 21
182.6156804481
  0
LINE
  5
310
100
AcDbEntity
  8
0
100
AcDbLine
 62
7
  6
CONTINUOUS
 10
79.8156178812
 20
182.7751319999
 11
79.7297635086
 21
183.2001624542
  0
LINE
  5
311
100
AcDbEntity
  8
0
100
AcDbLine
 62
7
  6
CONTINUOUS
 10
90.7103868748
 20
124.1992789853
 11
90.785387447
 21
123.8163003076
  0
LINE
  5
312
100
AcDbEntity
  8
0
100
AcDbLine
 62
7
  6
CONTINUOUS
 10
92.810387447
 20
122.5716194708
 11
92.810387447
 21
122.2843854625
  0
LINE
  5
313
100
AcDbEntity
  8
0
100
AcDbLine
 62
7
  6
CONTINUOUS
 10
93.260387447
 20
122.188640793
 11
93.260387447
 21
122.6673641402
  0
LINE
  5
314
100
AcDbEntity
  8
0
100
AcDbLine
 62
7
  6
CONTINUOUS
 10
93.8603868748
 20
123.2418322909
 11
93.8603868748
 21
122.7631088096
  0
LINE
  5
315
100
AcDbEntity
  8
0
100
AcDbLine
 62
7
  6
CONTINUOUS
 10
94.9103863026
 20
122.7631088096
 11
94.9103863026
 21
123.2418322909
  0
LINE
  5
316
100
AcDbEntity
  8
B-ACHSEN
100
AcDbLine
 62
7
  6
CONTINUOUS
 10
95.0478868748
 20
118.8854492951
 11
95.0478868748
 21
112.6854492951
  0
LINE
  5
317
100
AcDbEntity
  8
0
100
AcDbLine
 62
7
  6
CONTINUOUS
 10
95.510387447
 20
125.6354492951
 11
95.510387447
 21
121.1354492951
  0
LINE
  5
318
100
AcDbEntity
  8
0
100
AcDbLine
 62
7
  6
CONTINUOUS
 10
90.785387447
 20
124.965236609
 11
90.7103868748
 21
124.5822579313
  0
LINE
  5
319
100
AcDbEntity
  8
0
100
AcDbLine
 62
7
  6
CONTINUOUS
 10
89.3603868748
 20
124.2950236548
 11
89.2853863026
 21
124.0077896464
  0
LINE
  5
31A
100
AcDbEntity
  8
0
100
AcDbLine
 62
7
  6
CONTINUOUS
 10
89.7353863026
 20
123.912044977
 11
89.8103868748
 21
124.1992789853
  0
LINE
  5
31B
100
AcDbEntity
  8
0
100
AcDbLine
 62
7
  6
CONTINUOUS
 10
91.1603868748
 20
124.4865129936
 11
91.235387447
 21
124.7737472702
  0
LINE
  5
31C
100
AcDbEntity
  8
0
100
AcDbLine
 62
7
  6
CONTINUOUS
 10
81.2603868748
 20
121.4226833369
 11
81.5603865887
 21
121.8056620482
  0
LINE
  5
31D
100
AcDbEntity
  8
0
100
AcDbLine
 62
7
  6
CONTINUOUS
 10
77.5103870179
 20
121.9971514541
 11
77.2853870179
 21
121.8056620482
  0
LINE
  5
31E
100
AcDbEntity
  8
0
100
AcDbLine
 62
7
  6
CONTINUOUS
 10
74.2103869463
 20
123.3375769604
 11
74.5103868748
 21
123.5290662993
  0
LINE
  5
31F
100
AcDbEntity
  8
0
100
AcDbLine
 62
7
  6
CONTINUOUS
 10
75.3265959312
 20
182.9423250448
 11
75.3917336202
 21
182.7850687527
  0
LINE
  5
320
100
AcDbEntity
  8
0
100
AcDbLine
 62
7
  6
CONTINUOUS
 10
76.9610126394
 20
180.3030570264
 11
76.7981686222
 21
180.6961972612
  0
LINE
  5
321
100
AcDbEntity
  8
0
100
AcDbLine
 62
7
  6
CONTINUOUS
 10
75.8536733865
 20
182.9764104688
 11
75.7885356975
 21
183.133666761
  0
LINE
  5
322
100
AcDbEntity
  8
0
100
AcDbLine
 62
7
  6
CONTINUOUS
 10
76.6650057212
 20
182.7597644806
 11
76.9581249111
 21
182.0521121571
  0
LINE
  5
323
100
AcDbEntity
  8
0
100
AcDbLine
 62
7
  6
CONTINUOUS
 10
77.3105062111
 20
182.2901917448
 11
77.082524619
 21
182.8405879964
  0
LINE
  5
324
100
AcDbEntity
  8
0
100
AcDbLine
 62
7
  6
CONTINUOUS
 10
94.2947368572
 20
182.1428145609
 11
94.2828844847
 21
182.3319609226
  0
LINE
  5
325
100
AcDbEntity
  8
0
100
AcDbLine
 62
7
  6
CONTINUOUS
 10
96.391194069
 20
182.1956184214
 11
96.4148986031
 21
181.8173256562
  0
LINE
  5
326
100
AcDbEntity
  8
0
100
AcDbLine
 62
7
  6
CONTINUOUS
 10
95.960387447
 20
121.7099173788
 11
95.960387447
 21
125.6354492951
  0
LINE
  5
327
100
AcDbEntity
  8
B-ACHSEN
100
AcDbLine
 62
7
  6
CONTINUOUS
 10
96.8478868748
 20
110.8854492951
 11
96.8478868748
 21
90.3854492951
  0
LINE
  5
328
100
AcDbEntity
  8
0
100
AcDbLine
 62
7
  6
CONTINUOUS
 10
98.210387447
 20
121.1354492951
 11
98.210387447
 21
121.7099173788
  0
LINE
  5
329
100
AcDbEntity
  8
0
100
AcDbLine
 62
7
  6
CONTINUOUS
 10
98.8103868748
 20
125.6354492951
 11
98.8103868748
 21
125.1567259479
  0
LINE
  5
32A
100
AcDbEntity
  8
0
100
AcDbLine
 62
7
  6
CONTINUOUS
 10
100.010387447
 20
125.1567259479
 11
100.010387447
 21
121.1354492951
  0
LINE
  5
32B
100
AcDbEntity
  8
0
100
AcDbLine
 62
7
  6
CONTINUOUS
 10
98.89042994
 20
180.6076900541
 11
98.8815656981
 21
180.1507693081
  0
LINE
  5
32C
100
AcDbEntity
  8
0
100
AcDbLine
 62
7
  6
CONTINUOUS
 10
99.2872321085
 20
180.259092266
 11
99.3079483973
 21
180.5268667207
  0
LINE
  5
32D
100
AcDbEntity
  8
0
100
AcDbLine
 62
7
  6
CONTINUOUS
 10
101.3511203011
 20
180.2332681818
 11
101.3304039668
 21
179.965493617
  0
LINE
  5
32E
100
AcDbEntity
  8
0
100
AcDbLine
 62
7
  6
CONTINUOUS
 10
102.1801807248
 20
181.3637559547
 11
102.2008974541
 21
181.631530227
  0
LINE
  5
32F
100
AcDbEntity
  8
0
100
AcDbLine
 62
7
  6
CONTINUOUS
 10
103.0834444629
 20
178.3181756621
 11
103.1041612149
 21
178.5859499894
  0
LINE
  5
330
100
AcDbEntity
  8
0
100
AcDbLine
 62
7
  6
CONTINUOUS
 10
93.1103863026
 20
121.8056620482
 11
93.260387447
 21
122.188640793
  0
LINE
  5
331
100
AcDbEntity
  8
0
100
AcDbLine
 62
7
  6
CONTINUOUS
 10
89.5103863026
 20
123.5290662993
 11
89.7353863026
 21
123.912044977
  0
LINE
  5
332
100
AcDbEntity
  8
0
100
AcDbLine
 62
7
  6
CONTINUOUS
 10
89.2853863026
 20
124.0077896464
 11
89.1353868748
 21
123.8163003076
  0
LINE
  5
333
100
AcDbEntity
  8
0
100
AcDbLine
 62
7
  6
CONTINUOUS
 10
91.0853863026
 20
125.3482152868
 11
90.785387447
 21
124.965236609
  0
LINE
  5
334
100
AcDbEntity
  8
0
100
AcDbLine
 62
7
  6
CONTINUOUS
 10
81.1103865887
 20
121.9971514541
 11
80.8853865887
 21
121.8056620482
  0
LINE
  5
335
100
AcDbEntity
  8
0
100
AcDbLine
 62
7
  6
CONTINUOUS
 10
77.3603867318
 20
121.2311939729
 11
77.6603868748
 21
121.4226833369
  0
LINE
  5
336
100
AcDbEntity
  8
0
100
AcDbLine
 62
7
  6
CONTINUOUS
 10
80.9603871609
 20
121.2311939729
 11
81.2603868748
 21
121.4226833369
  0
LINE
  5
337
100
AcDbEntity
  8
0
100
AcDbLine
 62
7
  6
CONTINUOUS
 10
74.1353868033
 20
123.8163003076
 11
73.9103868033
 21
123.7205556381
  0
LINE
  5
338
100
AcDbEntity
  8
0
100
AcDbLine
 62
7
  6
CONTINUOUS
 10
79.0842638998
 20
183.6697355549
 11
79.3122454919
 21
183.1193393033
  0
LINE
  5
339
100
AcDbEntity
  8
0
100
AcDbLine
 62
7
  6
CONTINUOUS
 10
79.7297635086
 20
183.2001624542
 11
79.4366443187
 21
183.9078147777
  0
LINE
  5
33A
100
AcDbEntity
  8
0
100
AcDbLine
 62
7
  6
CONTINUOUS
 10
100.460387447
 20
121.1354492951
 11
100.460387447
 21
125.1567259479
  0
LINE
  5
33B
100
AcDbEntity
  8
0
100
AcDbLine
 62
7
  6
CONTINUOUS
 10
101.6603880192
 20
125.1567259479
 11
101.6603880192
 21
125.6354492951
  0
LINE
  5
33C
100
AcDbEntity
  8
0
100
AcDbLine
 62
7
  6
CONTINUOUS
 10
101.7479224696
 20
179.8846703937
 11
101.7567862482
 21
180.3415912672
  0
LINE
  5
33D
100
AcDbEntity
  8
0
100
AcDbLine
 62
7
  6
CONTINUOUS
 10
92.810387447
 20
122.2843854625
 11
92.6603863026
 21
121.9971514541
  0
LINE
  5
33E
100
AcDbEntity
  8
0
100
AcDbLine
 62
7
  6
CONTINUOUS
 10
92.810387447
 20
121.4226833369
 11
93.1103863026
 21
121.8056620482
  0
LINE
  5
33F
100
AcDbEntity
  8
B-ACHSEN
100
AcDbLine
 62
7
  6
CONTINUOUS
 10
78.6478868748
 20
112.6854492951
 11
76.8478868748
 21
110.8854492951
  0
LINE
  5
340
100
AcDbEntity
  8
0
100
AcDbLine
 62
7
  6
CONTINUOUS
 10
91.235387447
 20
124.7737472702
 11
91.460387447
 21
124.965236609
  0
LINE
  5
341
100
AcDbEntity
  8
0
100
AcDbLine
 62
7
  6
CONTINUOUS
 10
91.3853868748
 20
125.5397046257
 11
91.0853863026
 21
125.3482152868
  0
LINE
  5
342
100
AcDbEntity
  8
0
100
AcDbLine
 62
7
  6
CONTINUOUS
 10
89.210387447
 20
123.3375769604
 11
89.5103863026
 21
123.5290662993
  0
LINE
  5
343
100
AcDbEntity
  8
0
100
AcDbLine
 62
7
  6
CONTINUOUS
 10
91.460387447
 20
124.965236609
 11
91.685387447
 21
125.0609812785
  0
LINE
  5
344
100
AcDbEntity
  8
0
100
AcDbLine
 62
7
  6
CONTINUOUS
 10
89.1353868748
 20
123.8163003076
 11
88.9103868748
 21
123.7205556381
  0
LINE
  5
345
100
AcDbEntity
  8
0
100
AcDbLine
 62
7
  6
CONTINUOUS
 10
77.2853870179
 20
121.8056620482
 11
76.9853868748
 21
121.7099173788
  0
LINE
  5
346
100
AcDbEntity
  8
0
100
AcDbLine
 62
7
  6
CONTINUOUS
 10
91.685387447
 20
125.6354492951
 11
91.3853868748
 21
125.5397046257
  0
LINE
  5
347
100
AcDbEntity
  8
0
100
AcDbLine
 62
7
  6
CONTINUOUS
 10
80.8853865887
 20
121.8056620482
 11
80.5853868748
 21
121.7099173788
  0
LINE
  5
348
100
AcDbEntity
  8
B-ACHSEN
100
AcDbLine
 62
2
  6
CENTER
 10
86.8478868748
 20
153.8854492951
 11
46.2977013816
 21
153.8854492951
  0
LINE
  5
349
100
AcDbEntity
  8
B-ACHSEN
100
AcDbLine
 62
2
  6
CENTER
 10
86.8478868748
 20
153.8854492951
 11
127.4254094108
 21
153.8854492951
  0
LINE
  5
34A
100
AcDbEntity
  8
0
100
AcDbLine
 62
7
  6
CONTINUOUS
 10
69.1348303958
 20
180.4697302592
 11
71.4177355544
 21
178.0069564778
  0
LINE
  5
34B
100
AcDbEntity
  8
0
100
AcDbLine
 62
7
  6
CONTINUOUS
 10
71.5628514181
 20
178.5276578719
 11
69.0401122902
 21
181.3516814767
  0
LINE
  5
34C
100
AcDbEntity
  8
0
100
AcDbLine
 62
7
  6
CONTINUOUS
 10
75.7885356975
 20
183.133666761
 11
75.5812708347
 21
183.4162887404
  0
LINE
  5
34D
100
AcDbEntity
  8
0
100
AcDbLine
 62
7
  6
CONTINUOUS
 10
76.9581249111
 20
182.0521121571
 11
77.1979594995
 21
181.6908623965
  0
LINE
  5
34E
100
AcDbEntity
  8
0
100
AcDbLine
 62
7
  6
CONTINUOUS
 10
77.5829087173
 20
181.8503135834
 11
77.3105062111
 21
182.2901917448
  0
LINE
  5
34F
100
AcDbEntity
  8
0
100
AcDbLine
 62
7
  6
CONTINUOUS
 10
78.8118605581
 20
184.1096132412
 11
79.0842638998
 21
183.6697355549
  0
LINE
  5
350
100
AcDbEntity
  8
0
100
AcDbLine
 62
7
  6
CONTINUOUS
 10
93.8772182326
 20
182.2236378991
 11
93.9334917558
 21
181.9239732201
  0
LINE
  5
351
100
AcDbEntity
  8
0
100
AcDbLine
 62
7
  6
CONTINUOUS
 10
102.6540734955
 20
178.5881454142
 11
102.6777785044
 21
178.2098525492
  0
LINE
  5
352
100
AcDbEntity
  8
B-ACHSEN
100
AcDbLine
 62
7
  6
CONTINUOUS
 10
106.8478868748
 20
118.8854492951
 11
106.8478868748
 21
122.0976090295
  0
LINE
  5
353
100
AcDbEntity
  8
0
100
AcDbLine
 62
7
  6
CONTINUOUS
 10
92.6603863026
 20
121.9971514541
 11
92.4353863026
 21
121.8056620482
  0
LINE
  5
354
100
AcDbEntity
  8
0
100
AcDbLine
 62
7
  6
CONTINUOUS
 10
92.5103868748
 20
121.2311939729
 11
92.810387447
 21
121.4226833369
  0
LINE
  5
355
100
AcDbEntity
  8
0
100
AcDbLine
 62
7
  6
CONTINUOUS
 10
92.4353863026
 20
121.8056620482
 11
92.135387447
 21
121.7099173788
  0
LINE
  5
356
100
AcDbEntity
  8
0
100
AcDbLine
 62
7
  6
CONTINUOUS
 10
77.1979594995
 20
181.6908623965
 11
77.3726555634
 21
181.4868684531
  0
LINE
  5
357
100
AcDbEntity
  8
0
100
AcDbLine
 62
7
  6
CONTINUOUS
 10
79.4366443187
 20
183.9078147777
 11
79.196810657
 21
184.269064793
  0
LINE
  5
358
100
AcDbEntity
  8
0
100
AcDbLine
 62
7
  6
CONTINUOUS
 10
98.8815656981
 20
180.1507693081
 11
98.9822603743
 21
179.7405862786
  0
LINE
  5
359
100
AcDbEntity
  8
0
100
AcDbLine
 62
7
  6
CONTINUOUS
 10
96.8531338352
 20
182.0042767052
 11
96.7968602363
 21
182.3039414155
  0
LINE
  5
35A
100
AcDbEntity
  8
0
100
AcDbLine
 62
7
  6
CONTINUOUS
 10
96.9655800297
 20
183.8000697074
 11
97.0218536286
 21
183.5004049971
  0
LINE
  5
35B
100
AcDbEntity
  8
0
100
AcDbLine
 62
7
  6
CONTINUOUS
 10
99.3435054643
 20
179.9594275919
 11
99.2872321085
 21
180.259092266
  0
LINE
  5
35C
100
AcDbEntity
  8
0
100
AcDbLine
 62
7
  6
CONTINUOUS
 10
77.3726555634
 20
181.4868684531
 11
77.6569109975
 21
181.2361369479
  0
LINE
  5
35D
100
AcDbEntity
  8
0
100
AcDbLine
 62
7
  6
CONTINUOUS
 10
79.196810657
 20
184.269064793
 11
79.0221145018
 21
184.4730589568
  0
LINE
  5
35E
100
AcDbEntity
  8
0
100
AcDbLine
 62
7
  6
CONTINUOUS
 10
94.3835791771
 20
181.9217778543
 11
94.2947368572
 21
182.1428145609
  0
LINE
  5
35F
100
AcDbEntity
  8
0
100
AcDbLine
 62
7
  6
CONTINUOUS
 10
102.2008974541
 20
181.631530227
 11
102.1002027664
 21
182.0417132288
  0
LINE
  5
360
100
AcDbEntity
  8
0
100
AcDbLine
 62
7
  6
CONTINUOUS
 10
101.7389576878
 20
181.8228719431
 11
101.7952310664
 21
181.5232073241
  0
LINE
  5
361
100
AcDbEntity
  8
RUNDUNGEN
100
AcDbLine
 62
7
  6
CONTINUOUS
 10
124.0975632139
 20
152.3547155656
 11
114.0192784823
 21
128.023583881
  0
LINE
  5
362
100
AcDbEntity
  8
0
100
AcDbLine
 62
7
  6
CONTINUOUS
 10
75.0749097594
 20
183.1144286414
 11
75.3265959312
 21
182.9423250448
  0
LINE
  5
363
100
AcDbEntity
  8
0
100
AcDbLine
 62
7
  6
CONTINUOUS
 10
78.0862819649
 20
181.5061067
 11
77.5829087173
 21
181.8503135834
  0
LINE
  5
364
100
AcDbEntity
  8
0
100
AcDbLine
 62
7
  6
CONTINUOUS
 10
79.0221145018
 20
184.4730589568
 11
78.7378590906
 21
184.7237904068
  0
LINE
  5
365
100
AcDbEntity
  8
0
100
AcDbLine
 62
7
  6
CONTINUOUS
 10
93.9334917558
 20
181.9239732201
 11
94.0993240298
 21
181.6710462626
  0
LINE
  5
366
100
AcDbEntity
  8
0
100
AcDbLine
 62
7
  6
CONTINUOUS
 10
97.4600885949
 20
183.6873560272
 11
97.2824040196
 21
184.1294292847
  0
LINE
  5
367
100
AcDbEntity
  8
0
100
AcDbLine
 62
7
  6
CONTINUOUS
 10
101.2622781236
 20
180.4543047649
 11
101.3511203011
 21
180.2332681818
  0
LINE
  5
368
100
AcDbEntity
  8
0
100
AcDbLine
 62
7
  6
CONTINUOUS
 10
101.7567862482
 20
180.3415912672
 11
101.6235232022
 21
180.6731460506
  0
LINE
  5
369
100
AcDbEntity
  8
0
100
AcDbLine
 62
7
  6
CONTINUOUS
 10
77.6569109975
 20
181.2361369479
 11
77.9855872887
 21
181.0959236706
  0
LINE
  5
36A
100
AcDbEntity
  8
0
100
AcDbLine
 62
7
  6
CONTINUOUS
 10
78.3084881232
 20
184.4538206547
 11
78.8118605581
 21
184.1096132412
  0
LINE
  5
36B
100
AcDbEntity
  8
0
100
AcDbLine
 62
7
  6
CONTINUOUS
 10
94.0993240298
 20
181.6710462626
 11
94.3421462493
 21
181.3862290335
  0
LINE
  5
36C
100
AcDbEntity
  8
0
100
AcDbLine
 62
7
  6
CONTINUOUS
 10
94.5049902636
 20
181.7793692615
 11
94.3835791771
 21
181.9217778543
  0
LINE
  5
36D
100
AcDbEntity
  8
0
100
AcDbLine
 62
7
  6
CONTINUOUS
 10
98.9822603743
 20
179.7405862786
 11
99.2695036275
 21
179.3452507808
  0
LINE
  5
36E
100
AcDbEntity
  8
0
100
AcDbLine
 62
7
  6
CONTINUOUS
 10
96.2253617836
 20
182.4485453514
 11
96.391194069
 21
182.1956184214
  0
LINE
  5
36F
100
AcDbEntity
  8
0
100
AcDbLine
 62
7
  6
CONTINUOUS
 10
99.5093377497
 20
179.7065006619
 11
99.3435054643
 21
179.9594275919
  0
LINE
  5
370
100
AcDbEntity
  8
0
100
AcDbLine
 62
7
  6
CONTINUOUS
 10
96.7997477444
 20
184.0529966374
 11
96.9655800297
 21
183.8000697074
  0
LINE
  5
371
100
AcDbEntity
  8
0
100
AcDbLine
 62
7
  6
CONTINUOUS
 10
102.6777785044
 20
178.2098525492
 11
102.843610784
 21
177.9569256054
  0
LINE
  5
372
100
AcDbEntity
  8
0
100
AcDbLine
 62
7
  6
CONTINUOUS
 10
101.0964458382
 20
180.7072316949
 11
101.2622781236
 21
180.4543047649
  0
LINE
  5
373
100
AcDbEntity
  8
0
100
AcDbLine
 62
7
  6
CONTINUOUS
 10
96.4770479554
 20
182.620648948
 11
96.8827143431
 21
182.7289718509
  0
LINE
  5
374
100
AcDbEntity
  8
0
100
AcDbLine
 62
7
  6
CONTINUOUS
 10
100.806314871
 20
179.3535120965
 11
100.5102073901
 21
179.2919268827
  0
LINE
  5
375
100
AcDbEntity
  8
0
100
AcDbLine
 62
7
  6
CONTINUOUS
 10
99.799468717
 20
181.0602202603
 11
100.0955761978
 21
181.1218054741
  0
LINE
  5
376
100
AcDbEntity
  8
0
100
AcDbLine
 62
7
  6
CONTINUOUS
 10
100.1814300843
 20
181.5468360007
 11
99.5892151226
 21
181.4236655731
  0
LINE
  5
377
100
AcDbEntity
  8
0
100
AcDbLine
 62
7
  6
CONTINUOUS
 10
95.9470830948
 20
180.9056793979
 11
96.2431905871
 21
180.9672646392
  0
LINE
  5
378
100
AcDbEntity
  8
0
100
AcDbLine
 62
7
  6
CONTINUOUS
 10
100.353138389
 20
182.3968970917
 11
100.6492458699
 21
182.4584823055
  0
LINE
  5
379
100
AcDbEntity
  8
0
100
AcDbLine
 62
7
  6
CONTINUOUS
 10
100.4243530432
 20
178.8668964904
 11
100.9070095472
 21
178.9433290671
  0
LINE
  5
37A
100
AcDbEntity
  8
0
100
AcDbLine
 62
7
  6
CONTINUOUS
 10
78.3823894458
 20
181.4445214862
 11
78.0862819649
 21
181.5061067
  0
LINE
  5
37B
100
AcDbEntity
  8
0
100
AcDbLine
 62
7
  6
CONTINUOUS
 10
75.5812708347
 20
183.4162887404
 11
75.1430356482
 21
183.6032396793
  0
LINE
  5
37C
100
AcDbEntity
  8
0
100
AcDbLine
 62
7
  6
CONTINUOUS
 10
78.7378590906
 20
184.7237904068
 11
78.4091828108
 21
184.8640036566
  0
LINE
  5
37D
100
AcDbEntity
  8
0
100
AcDbLine
 62
7
  6
CONTINUOUS
 10
94.3421462493
 20
181.3862290335
 11
94.6175372734
 21
181.1800398542
  0
LINE
  5
37E
100
AcDbEntity
  8
0
100
AcDbLine
 62
7
  6
CONTINUOUS
 10
99.707738834
 20
179.5322017678
 11
99.5093377497
 21
179.7065006619
  0
LINE
  5
37F
100
AcDbEntity
  8
0
100
AcDbLine
 62
7
  6
CONTINUOUS
 10
96.7968602363
 20
182.3039414155
 11
96.4770479554
 21
182.620648948
  0
LINE
  5
380
100
AcDbEntity
  8
0
100
AcDbLine
 62
7
  6
CONTINUOUS
 10
97.2824040196
 20
184.1294292847
 11
97.0395818466
 21
184.4142464703
  0
LINE
  5
381
100
AcDbEntity
  8
0
100
AcDbLine
 62
7
  6
CONTINUOUS
 10
101.6235232022
 20
180.6731460506
 11
101.3362795
 21
181.0684817103
  0
LINE
  5
382
100
AcDbEntity
  8
0
100
AcDbLine
 62
7
  6
CONTINUOUS
 10
102.1002027664
 20
182.0417132288
 11
101.8129595047
 21
182.437048706
  0
LINE
  5
383
100
AcDbEntity
  8
0
100
AcDbLine
 62
7
  6
CONTINUOUS
 10
103.2492767482
 20
178.0652487321
 11
103.0834444629
 21
178.3181756621
  0
LINE
  5
384
100
AcDbEntity
  8
0
100
AcDbLine
 62
7
  6
CONTINUOUS
 10
101.5731254024
 20
182.0757988731
 11
101.7389576878
 21
181.8228719431
  0
LINE
  5
385
100
AcDbEntity
  8
B-ACHSEN
100
AcDbLine
 62
7
  6
CONTINUOUS
 10
96.8478868748
 20
90.3854492951
 11
95.3478868748
 21
88.8854492951
  0
LINE
  5
386
100
AcDbEntity
  8
0
100
AcDbLine
 62
7
  6
CONTINUOUS
 10
78.4682429116
 20
181.019490729
 11
78.9627514796
 21
181.1322044023
  0
LINE
  5
387
100
AcDbEntity
  8
0
100
AcDbLine
 62
7
  6
CONTINUOUS
 10
95.4257809007
 20
184.43787539
 11
95.7218883815
 21
184.4994606038
  0
LINE
  5
388
100
AcDbEntity
  8
0
100
AcDbLine
 62
7
  6
CONTINUOUS
 10
78.7999074625
 20
181.5253446371
 11
78.3823894458
 21
181.4445214862
  0
LINE
  5
389
100
AcDbEntity
  8
0
100
AcDbLine
 62
7
  6
CONTINUOUS
 10
100.7350997564
 20
182.8835128321
 11
100.2524437014
 21
182.8070800936
  0
LINE
  5
38A
100
AcDbEntity
  8
0
100
AcDbLine
 62
7
  6
CONTINUOUS
 10
95.5739857177
 20
180.875984419
 11
95.9470830948
 21
180.9056793979
  0
LINE
  5
38B
100
AcDbEntity
  8
0
100
AcDbLine
 62
7
  6
CONTINUOUS
 10
95.9233783062
 20
181.2839721717
 11
95.7368297321
 21
181.269124647
  0
LINE
  5
38C
100
AcDbEntity
  8
0
100
AcDbLine
 62
7
  6
CONTINUOUS
 10
100.5102073901
 20
179.2919268827
 11
100.2466687081
 21
179.3089697048
  0
LINE
  5
38D
100
AcDbEntity
  8
0
100
AcDbLine
 62
7
  6
CONTINUOUS
 10
100.0955761978
 20
181.1218054741
 11
100.3591148798
 21
181.104762652
  0
LINE
  5
38E
100
AcDbEntity
  8
0
100
AcDbLine
 62
7
  6
CONTINUOUS
 10
75.1430356482
 20
183.6032396793
 11
74.7699380594
 21
183.6329345462
  0
LINE
  5
38F
100
AcDbEntity
  8
0
100
AcDbLine
 62
7
  6
CONTINUOUS
 10
95.2334570351
 20
180.9249175355
 11
95.5739857177
 21
180.875984419
  0
LINE
  5
390
100
AcDbEntity
  8
0
100
AcDbLine
 62
7
  6
CONTINUOUS
 10
77.9855872887
 20
181.0959236706
 11
78.4682429116
 21
181.019490729
  0
LINE
  5
391
100
AcDbEntity
  8
0
100
AcDbLine
 62
7
  6
CONTINUOUS
 10
78.4091828108
 20
184.8640036566
 11
77.9265263153
 21
184.9404362126
  0
LINE
  5
392
100
AcDbEntity
  8
0
100
AcDbLine
 62
7
  6
CONTINUOUS
 10
100.0068345831
 20
178.9477198169
 11
100.4243530432
 21
178.8668964904
  0
LINE
  5
393
100
AcDbEntity
  8
0
100
AcDbLine
 62
7
  6
CONTINUOUS
 10
95.7368297321
 20
181.269124647
 11
95.3193110546
 21
181.3499480716
  0
LINE
  5
394
100
AcDbEntity
  8
0
100
AcDbLine
 62
7
  6
CONTINUOUS
 10
74.7788022785
 20
183.1760138552
 11
75.0749097594
 21
183.1144286414
  0
LINE
  5
395
100
AcDbEntity
  8
0
100
AcDbLine
 62
7
  6
CONTINUOUS
 10
78.0123806423
 20
184.5154058685
 11
78.3084881232
 21
184.4538206547
  0
LINE
  5
396
100
AcDbEntity
  8
0
100
AcDbLine
 62
7
  6
CONTINUOUS
 10
96.7318233987
 20
179.7515629569
 11
97.1167732774
 21
179.5921114964
  0
LINE
  5
397
100
AcDbEntity
  8
0
100
AcDbLine
 62
7
  6
CONTINUOUS
 10
94.6175372734
 20
181.1800398542
 11
95.2334570351
 21
180.9249175355
  0
LINE
  5
398
100
AcDbEntity
  8
0
100
AcDbLine
 62
7
  6
CONTINUOUS
 10
99.6218849247
 20
179.1071711862
 11
100.0068345831
 21
178.9477198169
  0
LINE
  5
399
100
AcDbEntity
  8
0
100
AcDbLine
 62
7
  6
CONTINUOUS
 10
100.2466687081
 20
179.3089697048
 11
99.707738834
 21
179.5322017678
  0
LINE
  5
39A
100
AcDbEntity
  8
0
100
AcDbLine
 62
7
  6
CONTINUOUS
 10
97.9369698768
 20
180.2656782857
 11
97.5520197779
 21
180.4251298375
  0
LINE
  5
39B
100
AcDbEntity
  8
0
100
AcDbLine
 62
7
  6
CONTINUOUS
 10
95.3193110546
 20
181.3499480716
 11
94.8573712883
 21
181.5412897878
  0
LINE
  5
39C
100
AcDbEntity
  8
0
100
AcDbLine
 62
7
  6
CONTINUOUS
 10
94.2828844847
 20
182.3319609226
 11
93.8979346887
 21
182.491412349
  0
LINE
  5
39D
100
AcDbEntity
  8
0
100
AcDbLine
 62
7
  6
CONTINUOUS
 10
95.4880309353
 20
182.8460762628
 11
95.795990706
 21
182.7185151491
  0
LINE
  5
39E
100
AcDbEntity
  8
0
100
AcDbLine
 62
7
  6
CONTINUOUS
 10
103.0420118654
 20
177.7826267045
 11
103.47138283
 21
177.5126569455
  0
LINE
  5
39F
100
AcDbEntity
  8
0
100
AcDbLine
 62
7
  6
CONTINUOUS
 10
95.795990706
 20
182.7185151491
 11
96.2253617836
 21
182.4485453514
  0
LINE
  5
3A0
100
AcDbEntity
  8
0
100
AcDbLine
 62
7
  6
CONTINUOUS
 10
94.8573712883
 20
181.5412897878
 11
94.5049902636
 21
181.7793692615
  0
LINE
  5
3A1
100
AcDbEntity
  8
0
100
AcDbLine
 62
7
  6
CONTINUOUS
 10
99.2695036275
 20
179.3452507808
 11
99.6218849247
 21
179.1071711862
  0
LINE
  5
3A2
100
AcDbEntity
  8
0
100
AcDbLine
 62
7
  6
CONTINUOUS
 10
103.6016580369
 20
177.8271691168
 11
103.2492767482
 21
178.0652487321
  0
LINE
  5
3A3
100
AcDbEntity
  8
0
100
AcDbLine
 62
7
  6
CONTINUOUS
 10
96.4473667747
 20
184.2910760883
 11
96.7997477444
 21
184.0529966374
  0
LINE
  5
3A4
100
AcDbEntity
  8
0
100
AcDbLine
 62
7
  6
CONTINUOUS
 10
101.3362795
 20
181.0684817103
 11
100.9838986405
 21
181.3065611155
  0
LINE
  5
3A5
100
AcDbEntity
  8
0
100
AcDbLine
 62
7
  6
CONTINUOUS
 10
102.843610784
 20
177.9569256054
 11
103.0420118654
 21
177.7826267045
  0
LINE
  5
3A6
100
AcDbEntity
  8
0
100
AcDbLine
 62
7
  6
CONTINUOUS
 10
100.898044754
 20
180.8815305889
 11
101.0964458382
 21
180.7072316949
  0
LINE
  5
3A7
100
AcDbEntity
  8
0
100
AcDbLine
 62
7
  6
CONTINUOUS
 10
101.3747243182
 20
182.2500977672
 11
101.5731254024
 21
182.0757988731
  0
LINE
  5
3A8
100
AcDbEntity
  8
RUNDUNGEN
100
AcDbLine
 62
7
  6
CONTINUOUS
 10
114.2697778115
 20
179.1425558312
 11
124.0975632139
 21
155.4161830246
  0
LINE
  5
3A9
100
AcDbEntity
  8
0
100
AcDbLine
 62
7
  6
CONTINUOUS
 10
74.7699380594
 20
183.6329345462
 11
74.2754294943
 21
183.520220866
  0
LINE
  5
3AA
100
AcDbEntity
  8
0
100
AcDbLine
 62
7
  6
CONTINUOUS
 10
77.9265263153
 20
184.9404362126
 11
77.4320177502
 21
184.8277225324
  0
LINE
  5
3AB
100
AcDbEntity
  8
0
100
AcDbLine
 62
7
  6
CONTINUOUS
 10
74.3612838213
 20
183.0951905219
 11
74.7788022785
 21
183.1760138552
  0
LINE
  5
3AC
100
AcDbEntity
  8
0
100
AcDbLine
 62
7
  6
CONTINUOUS
 10
77.5948617445
 20
184.4345823527
 11
78.0123806423
 21
184.5154058685
  0
LINE
  5
3AD
100
AcDbEntity
  8
0
100
AcDbLine
 62
7
  6
CONTINUOUS
 10
95.8077423781
 20
184.9244910848
 11
95.4346449546
 21
184.8947961494
  0
LINE
  5
3AE
100
AcDbEntity
  8
0
100
AcDbLine
 62
7
  6
CONTINUOUS
 10
100.6492458699
 20
182.4584823055
 11
100.9127845519
 21
182.4414394834
  0
LINE
  5
3AF
100
AcDbEntity
  8
0
100
AcDbLine
 62
7
  6
CONTINUOUS
 10
96.4533433757
 20
182.998941603
 11
95.9262659015
 21
183.0330272929
  0
LINE
  5
3B0
100
AcDbEntity
  8
0
100
AcDbLine
 62
7
  6
CONTINUOUS
 10
100.5989489821
 20
181.4660124849
 11
100.1814300843
 21
181.5468360007
  0
LINE
  5
3B1
100
AcDbEntity
  8
0
100
AcDbLine
 62
7
  6
CONTINUOUS
 10
101.1526186542
 20
182.8026893162
 11
100.7350997564
 21
182.8835128321
  0
LINE
  5
3B2
100
AcDbEntity
  8
0
100
AcDbLine
 62
7
  6
CONTINUOUS
 10
95.7218883815
 20
184.4994606038
 11
96.139407004
 21
184.418637202
  0
LINE
  5
3B3
100
AcDbEntity
  8
0
100
AcDbLine
 62
7
  6
CONTINUOUS
 10
96.379240886
 20
184.7798871262
 11
95.8077423781
 21
184.9244910848
  0
LINE
  5
3B4
100
AcDbEntity
  8
0
100
AcDbLine
 62
7
  6
CONTINUOUS
 10
100.3591148798
 20
181.104762652
 11
100.898044754
 21
180.8815305889
  0
LINE
  5
3B5
100
AcDbEntity
  8
0
100
AcDbLine
 62
7
  6
CONTINUOUS
 10
95.9262659015
 20
183.0330272929
 11
95.6183061308
 21
183.1605884066
  0
LINE
  5
3B6
100
AcDbEntity
  8
0
100
AcDbLine
 62
7
  6
CONTINUOUS
 10
102.6895304404
 20
180.4158283433
 11
103.3054495413
 21
180.1607062984
  0
LINE
  5
3B7
100
AcDbEntity
  8
0
100
AcDbLine
 62
7
  6
CONTINUOUS
 10
103.6903996403
 20
180.0012547466
 11
104.5372895054
 21
179.6504614786
  0
LINE
  5
3B8
100
AcDbEntity
  8
0
100
AcDbLine
 62
7
  6
CONTINUOUS
 10
100.9838986405
 20
181.3065611155
 11
100.5989489821
 21
181.4660124849
  0
LINE
  5
3B9
100
AcDbEntity
  8
0
100
AcDbLine
 62
7
  6
CONTINUOUS
 10
104.6675647009
 20
179.9649736224
 11
103.8206748357
 21
180.3157668903
  0
LINE
  5
3BA
100
AcDbEntity
  8
0
100
AcDbLine
 62
7
  6
CONTINUOUS
 10
103.4357247368
 20
180.4752184421
 11
102.8198056359
 21
180.7303404871
  0
LINE
  5
3BB
100
AcDbEntity
  8
0
100
AcDbLine
 62
7
  6
CONTINUOUS
 10
94.7891447607
 20
184.4252232911
 11
95.1740945636
 21
184.2657718619
  0
LINE
  5
3BC
100
AcDbEntity
  8
0
100
AcDbLine
 62
7
  6
CONTINUOUS
 10
101.7952310664
 20
181.5232073241
 11
102.1801807248
 21
181.3637559547
  0
LINE
  5
3BD
100
AcDbEntity
  8
0
100
AcDbLine
 62
7
  6
CONTINUOUS
 10
104.081225318
 20
180.9447913982
 11
103.696275219
 21
181.10424295
  0
LINE
  5
3BE
100
AcDbEntity
  8
0
100
AcDbLine
 62
7
  6
CONTINUOUS
 10
96.139407004
 20
184.418637202
 11
96.4473667747
 21
184.2910760883
  0
LINE
  5
3BF
100
AcDbEntity
  8
0
100
AcDbLine
 62
7
  6
CONTINUOUS
 10
100.9127845519
 20
182.4414394834
 11
101.3747243182
 21
182.2500977672
  0
LINE
  5
3C0
100
AcDbEntity
  8
0
100
AcDbLine
 62
7
  6
CONTINUOUS
 10
101.4605782046
 20
182.6751282938
 11
101.1526186542
 21
182.8026893162
  0
LINE
  5
3C1
100
AcDbEntity
  8
0
100
AcDbLine
 62
7
  6
CONTINUOUS
 10
96.5332208815
 20
184.7161065237
 11
96.379240886
 21
184.7798871262
  0
LINE
  5
3C2
100
AcDbEntity
  8
0
100
AcDbLine
 62
7
  6
CONTINUOUS
 10
97.0395818466
 20
184.4142464703
 11
96.5332208815
 21
184.7161065237
  0
LINE
  5
3C3
100
AcDbEntity
  8
0
100
AcDbLine
 62
7
  6
CONTINUOUS
 10
101.8129595047
 20
182.437048706
 11
101.4605782046
 21
182.6751282938
  0
LINE
  5
3C4
100
AcDbEntity
  8
RUNDUNGEN
100
AcDbLine
 62
7
  6
CONTINUOUS
 10
88.3786206043
 20
191.1351256342
 11
112.1049934109
 21
181.3073402318
  0
LINE
  5
3C5
100
AcDbEntity
  8
B-ACHSEN
100
AcDbLine
 62
7
  6
CONTINUOUS
 10
195.891893299
 20
88.8854492951
 11
212.891893299
 21
88.8854492951
  0
LINE
  5
3C6
100
AcDbEntity
  8
B-ACHSEN
100
AcDbLine
 62
7
  6
CONTINUOUS
 10
194.391893299
 20
90.3854492951
 11
214.391893299
 21
90.3854492951
  0
LINE
  5
3C7
100
AcDbEntity
  8
B-ACHSEN
100
AcDbLine
 62
7
  6
CONTINUOUS
 10
194.391893299
 20
90.3854492951
 11
195.891893299
 21
88.8854492951
  0
LINE
  5
3C8
100
AcDbEntity
  8
B-ACHSEN
100
AcDbLine
 62
7
  6
CONTINUOUS
 10
194.391893299
 20
110.8854492951
 11
214.391893299
 21
110.8854492951
  0
LINE
  5
3C9
100
AcDbEntity
  8
B-ACHSEN
100
AcDbLine
 62
7
  6
CONTINUOUS
 10
196.191893299
 20
112.6854492951
 11
212.591893299
 21
112.6854492951
  0
LINE
  5
3CA
100
AcDbEntity
  8
B-ACHSEN
100
AcDbLine
 62
7
  6
CONTINUOUS
 10
184.391893299
 20
118.8854492951
 11
184.391893299
 21
127.9223842733
  0
LINE
  5
3CB
100
AcDbEntity
  8
B-ACHSEN
100
AcDbLine
 62
7
  6
CONTINUOUS
 10
184.3922428712
 20
118.8854492951
 11
224.3915437268
 21
118.8854492951
  0
LINE
  5
3CC
100
AcDbEntity
  8
0
100
AcDbLine
 62
7
  6
CONTINUOUS
 10
217.8302653637
 20
121.1354492951
 11
218.7379238911
 21
121.1354492951
  0
LINE
  5
3CD
100
AcDbEntity
  8
0
100
AcDbLine
 62
7
  6
CONTINUOUS
 10
220.014388041
 20
121.1354492951
 11
220.7927650887
 21
121.1354492951
  0
LINE
  5
3CE
100
AcDbEntity
  8
0
100
AcDbLine
 62
7
  6
CONTINUOUS
 10
221.6175599288
 20
121.1354492951
 11
222.1350918198
 21
121.1354492951
  0
LINE
  5
3CF
100
AcDbEntity
  8
0
100
AcDbLine
 62
7
  6
CONTINUOUS
 10
222.6947918058
 20
121.1354492951
 11
223.7017636701
 21
121.1354492951
  0
LINE
  5
3D0
100
AcDbEntity
  8
0
100
AcDbLine
 62
7
  6
CONTINUOUS
 10
224.3732869879
 20
121.1354492951
 11
224.6735622084
 21
121.1354492951
  0
LINE
  5
3D1
100
AcDbEntity
  8
0
100
AcDbLine
 62
7
  6
CONTINUOUS
 10
221.390748959
 20
121.2311939729
 11
221.7427173068
 21
121.2311939729
  0
LINE
  5
3D2
100
AcDbEntity
  8
0
100
AcDbLine
 62
7
  6
CONTINUOUS
 10
221.2010750355
 20
121.4226833369
 11
221.556933079
 21
121.4226833369
  0
LINE
  5
3D3
100
AcDbEntity
  8
0
100
AcDbLine
 62
7
  6
CONTINUOUS
 10
223.7017636701
 20
121.7099173788
 11
223.21049696
 21
121.7099173788
  0
LINE
  5
3D4
100
AcDbEntity
  8
0
100
AcDbLine
 62
7
  6
CONTINUOUS
 10
222.1350918198
 20
121.7099173788
 11
221.9649861071
 21
121.7099173788
  0
LINE
  5
3D5
100
AcDbEntity
  8
0
100
AcDbLine
 62
7
  6
CONTINUOUS
 10
221.0038196453
 20
121.8056620482
 11
221.3638141372
 21
121.8056620482
  0
LINE
  5
3D6
100
AcDbEntity
  8
0
100
AcDbLine
 62
7
  6
CONTINUOUS
 10
221.957729359
 20
121.8056620482
 11
222.298556765
 21
121.8056620482
  0
LINE
  5
3D7
100
AcDbEntity
  8
0
100
AcDbLine
 62
7
  6
CONTINUOUS
 10
223.4824299687
 20
121.8056620482
 11
223.7964955969
 21
121.8056620482
  0
LINE
  5
3D8
100
AcDbEntity
  8
0
100
AcDbLine
 62
7
  6
CONTINUOUS
 10
222.0783597754
 20
121.9971514541
 11
222.4169063759
 21
121.9971514541
  0
LINE
  5
3D9
100
AcDbEntity
  8
0
100
AcDbLine
 62
7
  6
CONTINUOUS
 10
223.5512536867
 20
121.9971514541
 11
223.8642093006
 21
121.9971514541
  0
LINE
  5
3DA
100
AcDbEntity
  8
0
100
AcDbLine
 62
7
  6
CONTINUOUS
 10
220.9022641417
 20
122.188640793
 11
221.2644255738
 21
122.188640793
  0
LINE
  5
3DB
100
AcDbEntity
  8
0
100
AcDbLine
 62
7
  6
CONTINUOUS
 10
222.1567418418
 20
122.2843854625
 11
222.4938225815
 21
122.2843854625
  0
LINE
  5
3DC
100
AcDbEntity
  8
0
100
AcDbLine
 62
7
  6
CONTINUOUS
 10
223.595534718
 20
122.2843854625
 11
223.9077802568
 21
122.2843854625
  0
LINE
  5
3DD
100
AcDbEntity
  8
0
100
AcDbLine
 62
7
  6
CONTINUOUS
 10
220.8507387058
 20
122.6673641402
 11
221.2140094597
 21
122.6673641402
  0
LINE
  5
3DE
100
AcDbEntity
  8
0
100
AcDbLine
 62
7
  6
CONTINUOUS
 10
222.1953296627
 20
122.6673641402
 11
222.5316933629
 21
122.6673641402
  0
LINE
  5
3DF
100
AcDbEntity
  8
0
100
AcDbLine
 62
7
  6
CONTINUOUS
 10
223.6171979935
 20
122.6673641402
 11
223.9290973107
 21
122.6673641402
  0
LINE
  5
3E0
100
AcDbEntity
  8
0
100
AcDbLine
 62
7
  6
CONTINUOUS
 10
218.7379238911
 20
123.1460876215
 11
219.9098616845
 21
123.1460876215
  0
LINE
  5
3E1
100
AcDbEntity
  8
0
100
AcDbLine
 62
7
  6
CONTINUOUS
 10
220.0351375884
 20
123.7205556381
 11
218.7379238911
 21
123.7205556381
  0
LINE
  5
3E2
100
AcDbEntity
  8
0
100
AcDbLine
 62
7
  6
CONTINUOUS
 10
219.8318525584
 20
123.8163003076
 11
220.2185272409
 21
123.8163003076
  0
LINE
  5
3E3
100
AcDbEntity
  8
0
100
AcDbLine
 62
7
  6
CONTINUOUS
 10
219.954142293
 20
124.0077896464
 11
220.3378518387
 21
124.0077896464
  0
LINE
  5
3E4
100
AcDbEntity
  8
0
100
AcDbLine
 62
7
  6
CONTINUOUS
 10
223.6171979935
 20
124.1035343159
 11
223.9290973107
 21
124.1035343159
  0
LINE
  5
3E5
100
AcDbEntity
  8
0
100
AcDbLine
 62
7
  6
CONTINUOUS
 10
220.014388041
 20
124.2950236548
 11
220.3966532773
 21
124.2950236548
  0
LINE
  5
3E6
100
AcDbEntity
  8
0
100
AcDbLine
 62
7
  6
CONTINUOUS
 10
223.595534718
 20
124.4865129936
 11
223.9077802568
 21
124.4865129936
  0
LINE
  5
3E7
100
AcDbEntity
  8
0
100
AcDbLine
 62
7
  6
CONTINUOUS
 10
220.014388041
 20
124.5822579313
 11
220.3966532773
 21
124.5822579313
  0
LINE
  5
3E8
100
AcDbEntity
  8
0
100
AcDbLine
 62
7
  6
CONTINUOUS
 10
223.5512536867
 20
124.7737472702
 11
223.8642093006
 21
124.7737472702
  0
LINE
  5
3E9
100
AcDbEntity
  8
0
100
AcDbLine
 62
7
  6
CONTINUOUS
 10
219.954142293
 20
124.8694919396
 11
220.3378518387
 21
124.8694919396
  0
LINE
  5
3EA
100
AcDbEntity
  8
0
100
AcDbLine
 62
7
  6
CONTINUOUS
 10
223.4824299687
 20
124.965236609
 11
223.7964955969
 21
124.965236609
  0
LINE
  5
3EB
100
AcDbEntity
  8
0
100
AcDbLine
 62
7
  6
CONTINUOUS
 10
219.8318525584
 20
125.0609812785
 11
220.2185272409
 21
125.0609812785
  0
LINE
  5
3EC
100
AcDbEntity
  8
0
100
AcDbLine
 62
7
  6
CONTINUOUS
 10
223.21049696
 20
125.0609812785
 11
223.7017636701
 21
125.0609812785
  0
LINE
  5
3ED
100
AcDbEntity
  8
0
100
AcDbLine
 62
7
  6
CONTINUOUS
 10
218.7379238911
 20
125.1567259479
 11
220.0351375884
 21
125.1567259479
  0
LINE
  5
3EE
100
AcDbEntity
  8
0
100
AcDbLine
 62
7
  6
CONTINUOUS
 10
217.8302653637
 20
125.6354492951
 11
219.9728061012
 21
125.6354492951
  0
LINE
  5
3EF
100
AcDbEntity
  8
0
100
AcDbLine
 62
7
  6
CONTINUOUS
 10
220.8507387058
 20
125.6354492951
 11
221.5093506707
 21
125.6354492951
  0
LINE
  5
3F0
100
AcDbEntity
  8
0
100
AcDbLine
 62
7
  6
CONTINUOUS
 10
222.1953296627
 20
125.6354492951
 11
223.7017636701
 21
125.6354492951
  0
LINE
  5
3F1
100
AcDbEntity
  8
0
100
AcDbLine
 62
7
  6
CONTINUOUS
 10
224.3732869879
 20
125.6354492951
 11
224.6735622084
 21
125.6354492951
  0
LINE
  5
3F2
100
AcDbEntity
  8
RUNDUNGEN
100
AcDbLine
 62
7
  6
CONTINUOUS
 10
212.7757273279
 20
127.0976090295
 11
196.0080592701
 21
127.0976090295
  0
LINE
  5
3F3
100
AcDbEntity
  8
B-ACHSEN
100
AcDbLine
 62
7
  6
CONTINUOUS
 10
212.591893299
 20
112.6854492951
 11
214.391893299
 21
110.8854492951
  0
LINE
  5
3F4
100
AcDbEntity
  8
B-ACHSEN
100
AcDbLine
 62
7
  6
CONTINUOUS
 10
194.391893299
 20
110.8854492951
 11
194.391893299
 21
90.3854492951
  0
LINE
  5
3F5
100
AcDbEntity
  8
B-ACHSEN
100
AcDbLine
 62
7
  6
CONTINUOUS
 10
196.191893299
 20
118.8854492951
 11
196.191893299
 21
112.6854492951
  0
LINE
  5
3F6
100
AcDbEntity
  8
RUNDUNGEN
100
AcDbLine
 62
7
  6
CONTINUOUS
 10
196.391893299
 20
189.9396074918
 11
196.391893299
 21
154.4446266891
  0
LINE
  5
3F7
100
AcDbEntity
  8
RUNDUNGEN
100
AcDbLine
 62
7
  6
CONTINUOUS
 10
196.3502605744
 20
153.3278239064
 11
194.3180381537
 21
126.1083991124
  0
LWPOLYLINE
  5
3F8
100
AcDbEntity
  8
RUNDUNGEN
100
AcDbPolyline
 62
7
  6
CONTINUOUS
 90
4
 70
0
 10
194.7920320351
 20
132.6210359738
 10
194.7858719992
 20
132.6037199765
 10
194.782506594
 20
132.595457625
 10
194.7826289517
 20
132.5957127723
  0
LINE
  5
3F9
100
AcDbEntity
  8
B-ACHSEN
100
AcDbLine
 62
7
  6
CONTINUOUS
 10
186.9225899039
 20
130.8854492951
 11
194.0217998236
 21
132.009853685
  0
LINE
  5
3FA
100
AcDbEntity
  8
B-ACHSEN
100
AcDbLine
 62
7
  6
CONTINUOUS
 10
221.8611966941
 20
130.8854492951
 11
214.7604523479
 21
132.0100967143
  0
LINE
  5
3FB
100
AcDbEntity
  8
B-ACHSEN
100
AcDbLine
 62
2
  6
CENTER
 10
204.391893299
 20
85.8854492951
 11
204.391893299
 21
194.5230190414
  0
LINE
  5
3FC
100
AcDbEntity
  8
RUNDUNGEN
100
AcDbLine
 62
7
  6
CONTINUOUS
 10
212.391893299
 20
154.4446266891
 11
212.391893299
 21
189.9396075042
  0
LINE
  5
3FD
100
AcDbEntity
  8
RUNDUNGEN
100
AcDbLine
 62
7
  6
CONTINUOUS
 10
214.4657484192
 20
126.1083994481
 11
212.4335260236
 21
153.3278239064
  0
LINE
  5
3FE
100
AcDbEntity
  8
B-ACHSEN
100
AcDbLine
 62
7
  6
CONTINUOUS
 10
212.591893299
 20
118.8854492951
 11
212.591893299
 21
112.6854492951
  0
LINE
  5
3FF
100
AcDbEntity
  8
0
100
AcDbLine
 62
7
  6
CONTINUOUS
 10
212.691893299
 20
184.9404362126
 11
212.691893299
 21
177.3691507724
  0
LINE
  5
400
100
AcDbEntity
  8
B-ACHSEN
100
AcDbLine
 62
7
  6
CONTINUOUS
 10
214.391893299
 20
110.8854492951
 11
214.391893299
 21
90.3854492951
  0
LINE
  5
401
100
AcDbEntity
  8
0
100
AcDbLine
 62
7
  6
CONTINUOUS
 10
217.8302653637
 20
121.1354492951
 11
217.8302653637
 21
125.6354492951
  0
LINE
  5
402
100
AcDbEntity
  8
0
100
AcDbLine
 62
7
  6
CONTINUOUS
 10
218.2728098303
 20
125.6354492951
 11
218.2728098303
 21
121.1354492951
  0
LINE
  5
403
100
AcDbEntity
  8
0
100
AcDbLine
 62
7
  6
CONTINUOUS
 10
218.7379238911
 20
121.1354492951
 11
218.7379238911
 21
123.1460876215
  0
LINE
  5
404
100
AcDbEntity
  8
0
100
AcDbLine
 62
7
  6
CONTINUOUS
 10
218.7379238911
 20
123.7205556381
 11
218.7379238911
 21
125.1567259479
  0
LINE
  5
405
100
AcDbEntity
  8
B-ACHSEN
100
AcDbLine
 62
7
  6
CONTINUOUS
 10
196.191893299
 20
112.6854492951
 11
194.391893299
 21
110.8854492951
  0
LINE
  5
406
100
AcDbEntity
  8
0
100
AcDbLine
 62
7
  6
CONTINUOUS
 10
220.014388041
 20
124.2950236548
 11
220.014388041
 21
124.5822579313
  0
LINE
  5
407
100
AcDbEntity
  8
0
100
AcDbLine
 62
7
  6
CONTINUOUS
 10
220.3966532773
 20
124.5822579313
 11
220.3966532773
 21
124.2950236548
  0
LINE
  5
408
100
AcDbEntity
  8
0
100
AcDbLine
 62
7
  6
CONTINUOUS
 10
220.737797741
 20
124.1992789853
 11
220.737797741
 21
124.5822579313
  0
LINE
  5
409
100
AcDbEntity
  8
0
100
AcDbLine
 62
7
  6
CONTINUOUS
 10
220.8507387058
 20
122.6673641402
 11
220.8507387058
 21
125.6354492951
  0
LINE
  5
40A
100
AcDbEntity
  8
0
100
AcDbLine
 62
7
  6
CONTINUOUS
 10
221.2140094597
 20
125.6354492951
 11
221.2140094597
 21
122.6673641402
  0
LINE
  5
40B
100
AcDbEntity
  8
0
100
AcDbLine
 62
7
  6
CONTINUOUS
 10
221.5093506707
 20
122.6673641402
 11
221.5093506707
 21
125.6354492951
  0
LINE
  5
40C
100
AcDbEntity
  8
0
100
AcDbLine
 62
7
  6
CONTINUOUS
 10
222.1953296627
 20
122.6673641402
 11
222.1953296627
 21
125.6354492951
  0
LINE
  5
40D
100
AcDbEntity
  8
0
100
AcDbLine
 62
7
  6
CONTINUOUS
 10
222.5316933629
 20
125.6354492951
 11
222.5316933629
 21
122.6673641402
  0
LINE
  5
40E
100
AcDbEntity
  8
0
100
AcDbLine
 62
7
  6
CONTINUOUS
 10
222.6947918058
 20
121.1354492951
 11
222.6947918058
 21
122.0793526156
  0
LINE
  5
40F
100
AcDbEntity
  8
0
100
AcDbLine
 62
7
  6
CONTINUOUS
 10
222.7508446914
 20
122.6673641402
 11
222.7508446914
 21
125.6354492951
  0
LINE
  5
410
100
AcDbEntity
  8
0
100
AcDbLine
 62
7
  6
CONTINUOUS
 10
223.0221400432
 20
125.6354492951
 11
223.0221400432
 21
121.1354492951
  0
LINE
  5
411
100
AcDbEntity
  8
0
100
AcDbLine
 62
7
  6
CONTINUOUS
 10
223.21049696
 20
121.7099173788
 11
223.21049696
 21
125.0609812785
  0
LINE
  5
412
100
AcDbEntity
  8
0
100
AcDbLine
 62
7
  6
CONTINUOUS
 10
223.6171979935
 20
122.6673641402
 11
223.6171979935
 21
124.1035343159
  0
LINE
  5
413
100
AcDbEntity
  8
0
100
AcDbLine
 62
7
  6
CONTINUOUS
 10
223.9290973107
 20
124.1035343159
 11
223.9290973107
 21
122.6673641402
  0
LINE
  5
414
100
AcDbEntity
  8
0
100
AcDbLine
 62
7
  6
CONTINUOUS
 10
224.0505069544
 20
122.6673641402
 11
224.0505069544
 21
124.1035343159
  0
LINE
  5
415
100
AcDbEntity
  8
0
100
AcDbLine
 62
7
  6
CONTINUOUS
 10
224.3732869879
 20
125.6354492951
 11
224.3732869879
 21
121.1354492951
  0
LINE
  5
416
100
AcDbEntity
  8
B-ACHSEN
100
AcDbLine
 62
7
  6
CONTINUOUS
 10
224.391893299
 20
118.8854492951
 11
224.391893299
 21
121.1354492951
  0
LINE
  5
417
100
AcDbEntity
  8
B-ACHSEN
100
AcDbLine
 62
7
  6
CONTINUOUS
 10
224.391893299
 20
125.6354492951
 11
224.391893299
 21
127.9223842733
  0
LINE
  5
418
100
AcDbEntity
  8
0
100
AcDbLine
 62
7
  6
CONTINUOUS
 10
224.6735622084
 20
125.6354492951
 11
224.6735622084
 21
121.1354492951
  0
LINE
  5
419
100
AcDbEntity
  8
0
100
AcDbLine
 62
7
  6
CONTINUOUS
 10
224.6877018256
 20
121.1354492951
 11
224.6877018256
 21
125.6354492951
  0
LINE
  5
41A
100
AcDbEntity
  8
0
100
AcDbLine
 62
7
  6
CONTINUOUS
 10
224.6910273683
 20
125.6354492951
 11
224.6910273683
 21
121.1354492951
  0
LINE
  5
41B
100
AcDbEntity
  8
0
100
AcDbLine
 62
7
  6
CONTINUOUS
 10
212.391893299
 20
177.3691507724
 11
212.691893299
 21
177.3691507724
  0
LINE
  5
41C
100
AcDbEntity
  8
B-ACHSEN
100
AcDbLine
 62
7
  6
CONTINUOUS
 10
214.391893299
 20
90.3854492951
 11
212.891893299
 21
88.8854492951
  0
LINE
  5
41D
100
AcDbEntity
  8
0
100
AcDbLine
 62
7
  6
CONTINUOUS
 10
212.391893299
 20
181.0646689025
 11
212.691893299
 21
181.0646689025
  0
LINE
  5
41E
100
AcDbEntity
  8
0
100
AcDbLine
 62
7
  6
CONTINUOUS
 10
212.391893299
 20
181.3516814767
 11
212.691893299
 21
181.3516814767
  0
LINE
  5
41F
100
AcDbEntity
  8
0
100
AcDbLine
 62
7
  6
CONTINUOUS
 10
212.391893299
 20
182.3083900576
 11
212.691893299
 21
182.3083900576
  0
LINE
  5
420
100
AcDbEntity
  8
0
100
AcDbLine
 62
7
  6
CONTINUOUS
 10
212.391893299
 20
182.5954026319
 11
212.691893299
 21
182.5954026319
  0
LINE
  5
421
100
AcDbEntity
  8
0
100
AcDbLine
 62
7
  6
CONTINUOUS
 10
212.391893299
 20
182.8059824677
 11
212.691893299
 21
182.8059824677
  0
LINE
  5
422
100
AcDbEntity
  8
0
100
AcDbLine
 62
7
  6
CONTINUOUS
 10
212.391893299
 20
183.0907997445
 11
212.691893299
 21
183.0907997445
  0
LINE
  5
423
100
AcDbEntity
  8
0
100
AcDbLine
 62
7
  6
CONTINUOUS
 10
212.391893299
 20
183.3926598435
 11
212.691893299
 21
183.3926598435
  0
LINE
  5
424
100
AcDbEntity
  8
0
100
AcDbLine
 62
7
  6
CONTINUOUS
 10
212.391893299
 20
183.520220866
 11
212.691893299
 21
183.520220866
  0
LINE
  5
425
100
AcDbEntity
  8
0
100
AcDbLine
 62
7
  6
CONTINUOUS
 10
212.391893299
 20
183.6329345462
 11
212.691893299
 21
183.6329345462
  0
LINE
  5
426
100
AcDbEntity
  8
0
100
AcDbLine
 62
7
  6
CONTINUOUS
 10
212.391893299
 20
183.8308625196
 11
212.691893299
 21
183.8308625196
  0
LINE
  5
427
100
AcDbEntity
  8
0
100
AcDbLine
 62
7
  6
CONTINUOUS
 10
212.391893299
 20
184.1624174856
 11
212.691893299
 21
184.1624174856
  0
LINE
  5
428
100
AcDbEntity
  8
0
100
AcDbLine
 62
7
  6
CONTINUOUS
 10
212.391893299
 20
184.5577527803
 11
212.691893299
 21
184.5577527803
  0
LINE
  5
429
100
AcDbEntity
  8
0
100
AcDbLine
 62
7
  6
CONTINUOUS
 10
212.391893299
 20
184.8277225324
 11
212.691893299
 21
184.8277225324
  0
LINE
  5
42A
100
AcDbEntity
  8
0
100
AcDbLine
 62
7
  6
CONTINUOUS
 10
212.391893299
 20
184.9404362126
 11
212.691893299
 21
184.9404362126
  0
LINE
  5
42B
100
AcDbEntity
  8
RUNDUNGEN
100
AcDbLine
 62
7
  6
CONTINUOUS
 10
210.891893299
 20
191.4396075042
 11
197.891893299
 21
191.4396075042
  0
LWPOLYLINE
  5
42C
100
AcDbEntity
  8
RUNDUNGEN
100
AcDbPolyline
 62
7
  6
CONTINUOUS
 90
17
 70
0
 10
49.2937260522
 20
38.6716454654
 10
49.3045650091
 20
38.4914600678
 10
49.3378052365
 20
38.3103011214
 10
49.3900647663
 20
38.1421600398
 10
49.4579308527
 20
37.9884514649
 10
49.5383127019
 20
37.8496532699
 10
49.6285293974
 20
37.7256798613
 10
49.7256849317
 20
37.6167405352
 10
49.8273312322
 20
37.5223510558
 10
49.9309418976
 20
37.442008453
 10
50.0355827876
 20
37.3740502678
 10
50.1362945857
 20
37.3191818232
 10
50.2289196017
 20
37.2765994956
 10
50.3124695894
 20
37.2438281911
 10
50.3837842265
 20
37.2194974746
 10
50.4480140713
 20
37.1999857588
 10
50.4974830242
 20
37.1862385822
  0
LINE
  5
42D
100
AcDbEntity
  8
RUNDUNGEN
100
AcDbLine
 62
7
  6
CONTINUOUS
 10
49.2937286657
 20
38.6704376436
 11
49.2937286657
 21
51.6917903547
  0
LWPOLYLINE
  5
42E
100
AcDbEntity
  8
RUNDUNGEN
100
AcDbPolyline
 62
7
  6
CONTINUOUS
 90
3
 70
0
 10
69.8637918013
 20
55.7423926033
 10
69.7753898406
 20
55.6214732487
 10
69.6698919743
 20
55.5150920147
  0
LINE
  5
42F
100
AcDbEntity
  8
RUNDUNGEN
100
AcDbLine
 62
7
  6
CONTINUOUS
 10
69.7753989898
 20
34.74074409
 11
69.8637919217
 21
34.6198353223
  0
LINE
  5
430
100
AcDbEntity
  8
0
100
AcDbLine
 62
7
  6
CONTINUOUS
 10
68.3472026408
 20
37.1811139994
 11
68.3472026408
 21
36.8811139994
  0
LINE
  5
431
100
AcDbEntity
  8
0
100
AcDbLine
 62
7
  6
CONTINUOUS
 10
69.0401122902
 20
37.1811139994
 11
69.0401122902
 21
36.8811139994
  0
LWPOLYLINE
  5
432
100
AcDbEntity
  8
RUNDUNGEN
100
AcDbPolyline
 62
7
  6
CONTINUOUS
 90
6
 70
0
 10
69.6698919743
 20
55.5150920147
 10
69.5496827017
 20
55.42566508
 10
69.4174597514
 20
55.355200638
 10
69.2761907206
 20
55.3052813821
 10
69.129046647
 20
55.2770289653
 10
69.1104914415
 20
55.2750663319
  0
LWPOLYLINE
  5
433
100
AcDbEntity
  8
RUNDUNGEN
100
AcDbPolyline
 62
7
  6
CONTINUOUS
 90
19
 70
0
 10
123.1989790987
 20
37.1864228114
 10
123.2671623404
 20
37.2056663831
 10
123.3321234899
 20
37.2260598976
 10
123.4011816452
 20
37.2504291963
 10
123.478800574
 20
37.2817033751
 10
123.5633342363
 20
37.3211101982
 10
123.6546369227
 20
37.3707701278
 10
123.7493127251
 20
37.4311521276
 10
123.843791262
 20
37.5019174399
 10
123.9368119613
 20
37.5839026983
 10
124.0263368938
 20
37.6772060144
 10
124.1102093515
 20
37.7814292349
 10
124.1863232618
 20
37.8956714993
 10
124.2530475764
 20
38.0191193458
 10
124.3087485821
 20
38.1503088845
 10
124.3523895392
 20
38.2884751573
 10
124.3829071488
 20
38.432534906
 10
124.3993067676
 20
38.5809091974
 10
124.4020477264
 20
38.6716421363
  0
LWPOLYLINE
  5
434
100
AcDbEntity
  8
RUNDUNGEN
100
AcDbPolyline
 62
7
  6
CONTINUOUS
 90
5
 70
0
 10
50.495697309
 20
37.1867143093
 10
50.5237052086
 20
37.1793811682
 10
50.5910022523
 20
37.1632429302
 10
50.6594769693
 20
37.148731129
 10
50.718229988
 20
37.1375981821
  0
LINE
  5
435
100
AcDbEntity
  8
RUNDUNGEN
100
AcDbLine
 62
7
  6
CONTINUOUS
 10
50.4956979998
 20
37.1867170896
 11
50.4974830242
 21
37.1862385822
  0
LINE
  5
436
100
AcDbEntity
  8
RUNDUNGEN
100
AcDbLine
 62
7
  6
CONTINUOUS
 10
69.669901208
 20
34.8471279996
 11
69.7753989898
 21
34.74074409
  0
LINE
  5
437
100
AcDbEntity
  8
0
100
AcDbLine
 62
7
  6
CONTINUOUS
 10
71.3498111215
 20
37.1811139994
 11
71.3498111215
 21
36.8811139994
  0
LINE
  5
438
100
AcDbEntity
  8
0
100
AcDbLine
 62
7
  6
CONTINUOUS
 10
72.0353868748
 20
31.7427419346
 11
72.0353868748
 21
31.300197468
  0
LINE
  5
439
100
AcDbEntity
  8
0
100
AcDbLine
 62
7
  6
CONTINUOUS
 10
72.0427207709
 20
37.1811139994
 11
72.0427207709
 21
36.8811139994
  0
LWPOLYLINE
  5
43A
100
AcDbEntity
  8
RUNDUNGEN
100
AcDbPolyline
 62
7
  6
CONTINUOUS
 90
5
 70
0
 10
122.9775159666
 20
37.1375931629
 10
123.0440496458
 20
37.15028669
 10
123.1130844628
 20
37.1651299438
 10
123.1810569382
 20
37.1816929624
 10
123.200055537
 20
37.1867086914
  0
LINE
  5
43B
100
AcDbEntity
  8
RUNDUNGEN
100
AcDbLine
 62
7
  6
CONTINUOUS
 10
122.9778265478
 20
37.1376489098
 11
112.8995418161
 21
35.3210685925
  0
LINE
  5
43C
100
AcDbEntity
  8
RUNDUNGEN
100
AcDbLine
 62
7
  6
CONTINUOUS
 10
60.7962319335
 20
35.3210685925
 11
50.7179472022
 21
37.1376489097
  0
LINE
  5
43D
100
AcDbEntity
  8
0
100
AcDbLine
 62
7
  6
CONTINUOUS
 10
73.0406021203
 20
37.1811139994
 11
73.0406021203
 21
36.8811139994
  0
LINE
  5
43E
100
AcDbEntity
  8
0
100
AcDbLine
 62
7
  6
CONTINUOUS
 10
73.2182864752
 20
37.1811139994
 11
73.2182864752
 21
36.8811139994
  0
LINE
  5
43F
100
AcDbEntity
  8
0
100
AcDbLine
 62
7
  6
CONTINUOUS
 10
73.4611088685
 20
37.1811139994
 11
73.4611088685
 21
36.8811139994
  0
LINE
  5
440
100
AcDbEntity
  8
0
100
AcDbLine
 62
7
  6
CONTINUOUS
 10
73.8353868748
 20
29.993130468
 11
73.8353868748
 21
29.6002011972
  0
LINE
  5
441
100
AcDbEntity
  8
0
100
AcDbLine
 62
7
  6
CONTINUOUS
 10
73.9674699438
 20
37.1811139994
 11
73.9674699438
 21
36.8811139994
  0
LINE
  5
442
100
AcDbEntity
  8
0
100
AcDbLine
 62
7
  6
CONTINUOUS
 10
74.2103869463
 20
29.6797077548
 11
74.2103869463
 21
29.2945286029
  0
LINE
  5
443
100
AcDbEntity
  8
0
100
AcDbLine
 62
7
  6
CONTINUOUS
 10
74.2754294943
 20
37.1811139994
 11
74.2754294943
 21
36.8811139994
  0
LINE
  5
444
100
AcDbEntity
  8
0
100
AcDbLine
 62
7
  6
CONTINUOUS
 10
74.5103868748
 20
29.4398912467
 11
74.5103868748
 21
29.0604411303
  0
LINE
  5
445
100
AcDbEntity
  8
0
100
AcDbLine
 62
7
  6
CONTINUOUS
 10
74.7353868748
 20
29.2661102686
 11
74.7353868748
 21
28.8907075051
  0
LINE
  5
446
100
AcDbEntity
  8
0
100
AcDbLine
 62
7
  6
CONTINUOUS
 10
74.7699380594
 20
37.1811139994
 11
74.7699380594
 21
36.8811139994
  0
LINE
  5
447
100
AcDbEntity
  8
0
100
AcDbLine
 62
7
  6
CONTINUOUS
 10
74.8103868033
 20
29.2093078389
 11
74.8103868033
 21
28.8352095573
  0
LINE
  5
448
100
AcDbEntity
  8
0
100
AcDbLine
 62
7
  6
CONTINUOUS
 10
74.8853869463
 20
29.1530574902
 11
74.8853869463
 21
28.7802422097
  0
LINE
  5
449
100
AcDbEntity
  8
0
100
AcDbLine
 62
7
  6
CONTINUOUS
 10
75.1430356482
 20
37.1811139994
 11
75.1430356482
 21
36.8811139994
  0
LINE
  5
44A
100
AcDbEntity
  8
0
100
AcDbLine
 62
7
  6
CONTINUOUS
 10
75.4853868033
 20
28.7222685926
 11
75.4853868033
 21
28.3589978387
  0
LINE
  5
44B
100
AcDbEntity
  8
0
100
AcDbLine
 62
7
  6
CONTINUOUS
 10
75.5812708347
 20
37.1811139994
 11
75.5812708347
 21
36.8811139994
  0
LINE
  5
44C
100
AcDbEntity
  8
0
100
AcDbLine
 62
7
  6
CONTINUOUS
 10
75.7885356975
 20
37.1811139994
 11
75.7885356975
 21
36.8811139994
  0
LINE
  5
44D
100
AcDbEntity
  8
0
100
AcDbLine
 62
7
  6
CONTINUOUS
 10
75.8536733865
 20
37.1811139994
 11
75.8536733865
 21
36.8811139994
  0
LINE
  5
44E
100
AcDbEntity
  8
RUNDUNGEN
100
AcDbLine
 62
7
  6
CONTINUOUS
 10
104.5852600523
 20
35.0871555306
 11
104.7271495841
 21
35.1003552626
  0
LINE
  5
44F
100
AcDbEntity
  8
RUNDUNGEN
100
AcDbLine
 62
7
  6
CONTINUOUS
 10
104.7271495841
 20
35.1003552626
 11
104.8997031256
 21
35.1152597592
  0
LWPOLYLINE
  5
450
100
AcDbEntity
  8
RUNDUNGEN
100
AcDbPolyline
 62
7
  6
CONTINUOUS
 90
8
 70
0
 10
104.8997031256
 20
35.1152597592
 10
105.0860976725
 20
35.1301451111
 10
105.2862468978
 20
35.1449107428
 10
105.500013605
 20
35.1594617007
 10
105.7271034272
 20
35.1737062512
 10
105.9675104123
 20
35.1875686104
 10
106.2210565747
 20
35.200967935
 10
106.4876908739
 20
35.2138361852
  0
LINE
  5
451
100
AcDbEntity
  8
RUNDUNGEN
100
AcDbLine
 62
7
  6
CONTINUOUS
 10
68.7980926749
 20
35.1150917697
 11
68.9701851269
 21
35.1002148988
  0
LINE
  5
452
100
AcDbEntity
  8
RUNDUNGEN
100
AcDbLine
 62
7
  6
CONTINUOUS
 10
68.9701851269
 20
35.1002148988
 11
69.1105140112
 21
35.0871555594
  0
LWPOLYLINE
  5
453
100
AcDbEntity
  8
RUNDUNGEN
100
AcDbPolyline
 62
7
  6
CONTINUOUS
 90
6
 70
0
 10
69.1104907381
 20
35.0871616533
 10
69.1290509523
 20
35.0851984588
 10
69.2761968695
 20
35.056944894
 10
69.4174674071
 20
35.0070239589
 10
69.5496914154
 20
34.9365573943
 10
69.669901208
 20
34.8471279996
  0
LINE
  5
454
100
AcDbEntity
  8
0
100
AcDbLine
 62
7
  6
CONTINUOUS
 10
75.9069589146
 20
37.1811139994
 11
75.9069589146
 21
36.8811139994
  0
LINE
  5
455
100
AcDbEntity
  8
0
100
AcDbLine
 62
7
  6
CONTINUOUS
 10
75.9353870179
 20
28.4205249026
 11
75.9353870179
 21
28.0636566277
  0
LINE
  5
456
100
AcDbEntity
  8
0
100
AcDbLine
 62
7
  6
CONTINUOUS
 10
76.0103867318
 20
28.3719322629
 11
76.0103867318
 21
28.0160742194
  0
LINE
  5
457
100
AcDbEntity
  8
0
100
AcDbLine
 62
7
  6
CONTINUOUS
 10
76.1603870179
 20
28.2761636354
 11
76.1603870179
 21
27.922280122
  0
LINE
  5
458
100
AcDbEntity
  8
0
100
AcDbLine
 62
7
  6
CONTINUOUS
 10
76.3853870179
 20
28.1359945588
 11
76.3853870179
 21
27.7849622196
  0
LINE
  5
459
100
AcDbEntity
  8
0
100
AcDbLine
 62
7
  6
CONTINUOUS
 10
76.5584354548
 20
37.1811139994
 11
76.5584354548
 21
36.8811139994
  0
LINE
  5
45A
100
AcDbEntity
  8
0
100
AcDbLine
 62
7
  6
CONTINUOUS
 10
76.5821404751
 20
37.1811139994
 11
76.5821404751
 21
36.8811139994
  0
LINE
  5
45B
100
AcDbEntity
  8
0
100
AcDbLine
 62
7
  6
CONTINUOUS
 10
76.6853867318
 20
27.9554473695
 11
76.6853867318
 21
27.6080211913
  0
LINE
  5
45C
100
AcDbEntity
  8
0
100
AcDbLine
 62
7
  6
CONTINUOUS
 10
76.7154039616
 20
37.1811139994
 11
76.7154039616
 21
36.8811139994
  0
LINE
  5
45D
100
AcDbEntity
  8
0
100
AcDbLine
 62
7
  6
CONTINUOUS
 10
76.9853868748
 20
27.7819446586
 11
76.9853868748
 21
27.4379154785
  0
LINE
  5
45E
100
AcDbEntity
  8
0
100
AcDbLine
 62
7
  6
CONTINUOUS
 10
77.0026467828
 20
37.1811139994
 11
77.0026467828
 21
36.8811139994
  0
LINE
  5
45F
100
AcDbEntity
  8
0
100
AcDbLine
 62
7
  6
CONTINUOUS
 10
77.2853870179
 20
27.6152779394
 11
77.2853870179
 21
27.2744505333
  0
LINE
  5
460
100
AcDbEntity
  8
0
100
AcDbLine
 62
7
  6
CONTINUOUS
 10
77.4320177502
 20
37.1811139994
 11
77.4320177502
 21
36.8811139994
  0
LINE
  5
461
100
AcDbEntity
  8
0
100
AcDbLine
 62
7
  6
CONTINUOUS
 10
77.5103870179
 20
27.4946475229
 11
77.5103870179
 21
27.1561009225
  0
LINE
  5
462
100
AcDbEntity
  8
0
100
AcDbLine
 62
7
  6
CONTINUOUS
 10
77.6603868748
 20
27.4162654565
 11
77.6603868748
 21
27.0791847168
  0
LINE
  5
463
100
AcDbEntity
  8
0
100
AcDbLine
 62
7
  6
CONTINUOUS
 10
77.7353870179
 20
27.3776776356
 11
77.7353870179
 21
27.0413139355
  0
LINE
  5
464
100
AcDbEntity
  8
0
100
AcDbLine
 62
7
  6
CONTINUOUS
 10
77.9265263153
 20
37.1811139994
 11
77.9265263153
 21
36.8811139994
  0
LINE
  5
465
100
AcDbEntity
  8
0
100
AcDbLine
 62
7
  6
CONTINUOUS
 10
78.1853870179
 20
27.1544366508
 11
78.1853870179
 21
26.822162607
  0
LINE
  5
466
100
AcDbEntity
  8
0
100
AcDbLine
 62
7
  6
CONTINUOUS
 10
78.4091828108
 20
37.1811139994
 11
78.4091828108
 21
36.8811139994
  0
LINE
  5
467
100
AcDbEntity
  8
RUNDUNGEN
100
AcDbLine
 62
7
  6
CONTINUOUS
 10
106.4876908739
 20
35.2138361852
 11
107.0596091484
 21
35.2376632649
  0
LINE
  5
468
100
AcDbEntity
  8
RUNDUNGEN
100
AcDbLine
 62
7
  6
CONTINUOUS
 10
107.0596091484
 20
35.2376632649
 11
107.6816408221
 21
35.2584249961
  0
LINE
  5
469
100
AcDbEntity
  8
RUNDUNGEN
100
AcDbLine
 62
7
  6
CONTINUOUS
 10
107.6816408221
 20
35.2584249961
 11
108.3512024889
 21
35.2754588845
  0
LWPOLYLINE
  5
46A
100
AcDbEntity
  8
RUNDUNGEN
100
AcDbPolyline
 62
7
  6
CONTINUOUS
 90
4
 70
0
 10
108.3512024889
 20
35.2754588845
 10
109.0644418725
 20
35.2880660103
 10
109.4358541917
 20
35.2924833454
 10
109.8160683613
 20
35.2955195832
  0
LINE
  5
46B
100
AcDbEntity
  8
RUNDUNGEN
100
AcDbLine
 62
7
  6
CONTINUOUS
 10
109.8160683613
 20
35.2955195832
 11
110.400197313
 21
35.2972799796
  0
LINE
  5
46C
100
AcDbEntity
  8
RUNDUNGEN
100
AcDbLine
 62
7
  6
CONTINUOUS
 10
112.6334591835
 20
35.2972799705
 11
110.400197313
 21
35.2972799705
  0
LWPOLYLINE
  5
46D
100
AcDbEntity
  8
RUNDUNGEN
100
AcDbPolyline
 62
7
  6
CONTINUOUS
 90
5
 70
0
 10
61.0623145661
 20
35.2972799705
 10
63.5070593233
 20
35.2970488488
 10
63.8941117175
 20
35.2954317452
 10
64.2733492194
 20
35.2923487325
 10
64.6438157642
 20
35.2878923602
  0
LINE
  5
46E
100
AcDbEntity
  8
RUNDUNGEN
100
AcDbLine
 62
7
  6
CONTINUOUS
 10
64.6438157642
 20
35.2878923602
 11
65.3552644047
 21
35.2752274218
  0
LINE
  5
46F
100
AcDbEntity
  8
RUNDUNGEN
100
AcDbLine
 62
7
  6
CONTINUOUS
 10
65.3552644047
 20
35.2752274218
 11
66.0231726349
 21
35.2581585932
  0
LINE
  5
470
100
AcDbEntity
  8
RUNDUNGEN
100
AcDbLine
 62
7
  6
CONTINUOUS
 10
66.0231726349
 20
35.2581585932
 11
66.6436829458
 21
35.2373809931
  0
LWPOLYLINE
  5
471
100
AcDbEntity
  8
RUNDUNGEN
100
AcDbPolyline
 62
7
  6
CONTINUOUS
 90
9
 70
0
 10
66.6436829458
 20
35.2373809931
 10
67.2141997868
 20
35.2135543627
 10
67.4801731162
 20
35.2006919735
 10
67.7330824739
 20
35.1873020503
 10
67.9728727871
 20
35.1734533674
 10
68.1993725098
 20
35.1592254322
 10
68.4125778834
 20
35.1446942166
 10
68.6121961374
 20
35.1299516705
 10
68.7980926749
 20
35.1150917697
  0
LINE
  5
472
100
AcDbEntity
  8
0
100
AcDbLine
 62
7
  6
CONTINUOUS
 10
78.7378590906
 20
37.1811139994
 11
78.7378590906
 21
36.8811139994
  0
LINE
  5
473
100
AcDbEntity
  8
0
100
AcDbLine
 62
7
  6
CONTINUOUS
 10
78.7853868748
 20
26.8782154926
 11
78.7853868748
 21
26.5508672552
  0
LINE
  5
474
100
AcDbEntity
  8
0
100
AcDbLine
 62
7
  6
CONTINUOUS
 10
79.0221145018
 20
37.1811139994
 11
79.0221145018
 21
36.8811139994
  0
LINE
  5
475
100
AcDbEntity
  8
0
100
AcDbLine
 62
7
  6
CONTINUOUS
 10
79.196810657
 20
37.1811139994
 11
79.196810657
 21
36.8811139994
  0
LINE
  5
476
100
AcDbEntity
  8
0
100
AcDbLine
 62
7
  6
CONTINUOUS
 10
79.4366443187
 20
37.1811139994
 11
79.4366443187
 21
36.8811139994
  0
LINE
  5
477
100
AcDbEntity
  8
0
100
AcDbLine
 62
7
  6
CONTINUOUS
 10
79.7297635086
 20
37.1811139994
 11
79.7297635086
 21
36.8811139994
  0
LINE
  5
478
100
AcDbEntity
  8
0
100
AcDbLine
 62
7
  6
CONTINUOUS
 10
79.8156178812
 20
37.1811139994
 11
79.8156178812
 21
36.8811139994
  0
LINE
  5
479
100
AcDbEntity
  8
0
100
AcDbLine
 62
7
  6
CONTINUOUS
 10
79.8363346105
 20
37.1811139994
 11
79.8363346105
 21
36.8811139994
  0
LINE
  5
47A
100
AcDbEntity
  8
0
100
AcDbLine
 62
7
  6
CONTINUOUS
 10
80.5853868748
 20
26.1868755637
 11
80.5853868748
 21
25.8712436282
  0
LINE
  5
47B
100
AcDbEntity
  8
0
100
AcDbLine
 62
7
  6
CONTINUOUS
 10
80.9603871609
 20
26.0673140862
 11
80.9603871609
 21
25.7536245291
  0
LINE
  5
47C
100
AcDbEntity
  8
0
100
AcDbLine
 62
7
  6
CONTINUOUS
 10
81.2603868748
 20
25.9774725804
 11
81.2603868748
 21
25.6652270416
  0
LINE
  5
47D
100
AcDbEntity
  8
0
100
AcDbLine
 62
7
  6
CONTINUOUS
 10
104.6675647009
 20
36.8811139994
 11
102.6540734955
 21
36.8811139994
  0
LINE
  5
47E
100
AcDbEntity
  8
0
100
AcDbLine
 62
7
  6
CONTINUOUS
 10
102.2008974541
 20
36.8811139994
 11
98.8815656981
 21
36.8811139994
  0
LINE
  5
47F
100
AcDbEntity
  8
0
100
AcDbLine
 62
7
  6
CONTINUOUS
 10
97.9369698768
 20
36.8811139994
 11
94.2947368572
 21
36.8811139994
  0
LINE
  5
480
100
AcDbEntity
  8
0
100
AcDbLine
 62
7
  6
CONTINUOUS
 10
94.2828844847
 20
36.8811139994
 11
93.8772182326
 21
36.8811139994
  0
LINE
  5
481
100
AcDbEntity
  8
0
100
AcDbLine
 62
7
  6
CONTINUOUS
 10
79.8363346105
 20
36.8811139994
 11
68.3472026408
 21
36.8811139994
  0
LINE
  5
482
100
AcDbEntity
  8
RUNDUNGEN
100
AcDbLine
 62
7
  6
CONTINUOUS
 10
50.8570668833
 20
37.1811139994
 11
122.8387068663
 21
37.1811139994
  0
LINE
  5
483
100
AcDbEntity
  8
0
100
AcDbLine
 62
7
  6
CONTINUOUS
 10
81.5603865887
 20
25.8927148765
 11
81.5603865887
 21
25.5818196058
  0
LINE
  5
484
100
AcDbEntity
  8
0
100
AcDbLine
 62
7
  6
CONTINUOUS
 10
81.7103868748
 20
25.8522212802
 11
81.7103868748
 21
25.5419670283
  0
LINE
  5
485
100
AcDbEntity
  8
0
100
AcDbLine
 62
7
  6
CONTINUOUS
 10
81.7853865887
 20
25.8324424467
 11
81.7853865887
 21
25.5225003439
  0
LINE
  5
486
100
AcDbEntity
  8
0
100
AcDbLine
 62
7
  6
CONTINUOUS
 10
85.9853868748
 20
25.1997203105
 11
85.9853868748
 21
24.89944509
  0
LINE
  5
487
100
AcDbEntity
  8
0
100
AcDbLine
 62
7
  6
CONTINUOUS
 10
86.4353868748
 20
25.1853683581
 11
86.4353868748
 21
24.8853054727
  0
LINE
  5
488
100
AcDbEntity
  8
B-ACHSEN
100
AcDbLine
 62
2
  6
CENTER
 10
86.8478868748
 20
45.1811139994
 11
86.8478868748
 21
22.1811139994
  0
LINE
  5
489
100
AcDbEntity
  8
B-ACHSEN
100
AcDbLine
 62
2
  6
CENTER
 10
86.8478868748
 20
45.1811139994
 11
86.8478868748
 21
68.1811139994
  0
LINE
  5
48A
100
AcDbEntity
  8
0
100
AcDbLine
 62
7
  6
CONTINUOUS
 10
87.0353863026
 20
25.1819929196
 11
87.0353863026
 21
24.88197993
  0
LINE
  5
48B
100
AcDbEntity
  8
B-ACHSEN
100
AcDbLine
 62
2
  6
CENTER
 10
86.8478868748
 20
45.1811139994
 11
47.3387181219
 21
45.1811139994
  0
LINE
  5
48C
100
AcDbEntity
  8
B-ACHSEN
100
AcDbLine
 62
2
  6
CENTER
 10
86.8478868748
 20
45.1811139994
 11
125.9993310618
 21
45.1811139994
  0
LINE
  5
48D
100
AcDbEntity
  8
0
100
AcDbLine
 62
7
  6
CONTINUOUS
 10
88.8353863026
 20
25.2801128682
 11
88.8353863026
 21
24.9786427143
  0
LINE
  5
48E
100
AcDbEntity
  8
0
100
AcDbLine
 62
7
  6
CONTINUOUS
 10
89.210387447
 20
25.321139401
 11
89.210387447
 21
25.0190557948
  0
LINE
  5
48F
100
AcDbEntity
  8
0
100
AcDbLine
 62
7
  6
CONTINUOUS
 10
89.5103863026
 20
25.3591288113
 11
89.5103863026
 21
25.0564749517
  0
LINE
  5
490
100
AcDbEntity
  8
0
100
AcDbLine
 62
7
  6
CONTINUOUS
 10
89.7353863026
 20
25.3906529877
 11
89.7353863026
 21
25.0875242988
  0
LINE
  5
491
100
AcDbEntity
  8
0
100
AcDbLine
 62
7
  6
CONTINUOUS
 10
89.8103868748
 20
25.4017410631
 11
89.8103868748
 21
25.0984450097
  0
LINE
  5
492
100
AcDbEntity
  8
0
100
AcDbLine
 62
7
  6
CONTINUOUS
 10
89.885387447
 20
25.4131199111
 11
89.885387447
 21
25.1096519133
  0
LINE
  5
493
100
AcDbEntity
  8
0
100
AcDbLine
 62
7
  6
CONTINUOUS
 10
90.4853868748
 20
25.5146808263
 11
90.4853868748
 21
25.2096695411
  0
LINE
  5
494
100
AcDbEntity
  8
0
100
AcDbLine
 62
7
  6
CONTINUOUS
 10
90.7103868748
 20
25.5576307777
 11
90.7103868748
 21
25.2519621421
  0
LINE
  5
495
100
AcDbEntity
  8
0
100
AcDbLine
 62
7
  6
CONTINUOUS
 10
90.785387447
 20
25.5725421686
 11
90.785387447
 21
25.2666446556
  0
LINE
  5
496
100
AcDbEntity
  8
0
100
AcDbLine
 62
7
  6
CONTINUOUS
 10
91.0853863026
 20
25.6351783963
 11
91.0853863026
 21
25.3283157432
  0
LINE
  5
497
100
AcDbEntity
  8
0
100
AcDbLine
 62
7
  6
CONTINUOUS
 10
91.3853868748
 20
25.7026362932
 11
91.3853868748
 21
25.394727423
  0
LINE
  5
498
100
AcDbEntity
  8
0
100
AcDbLine
 62
7
  6
CONTINUOUS
 10
91.685387447
 20
25.7749657928
 11
91.685387447
 21
25.4659272588
  0
LINE
  5
499
100
AcDbEntity
  8
0
100
AcDbLine
 62
7
  6
CONTINUOUS
 10
92.0603868748
 20
25.8723117644
 11
92.0603868748
 21
25.5617398057
  0
LINE
  5
49A
100
AcDbEntity
  8
0
100
AcDbLine
 62
7
  6
CONTINUOUS
 10
92.4353863026
 20
25.9774724139
 11
92.4353863026
 21
25.6652268777
  0
LINE
  5
49B
100
AcDbEntity
  8
0
100
AcDbLine
 62
7
  6
CONTINUOUS
 10
92.7353868748
 20
26.0673141744
 11
92.7353868748
 21
25.7536246158
  0
LINE
  5
49C
100
AcDbEntity
  8
0
100
AcDbLine
 62
7
  6
CONTINUOUS
 10
92.9603868748
 20
26.1380747527
 11
92.9603868748
 21
25.8232385026
  0
LINE
  5
49D
100
AcDbEntity
  8
0
100
AcDbLine
 62
7
  6
CONTINUOUS
 10
93.035387447
 20
26.1623118113
 11
93.035387447
 21
25.8470808798
  0
LINE
  5
49E
100
AcDbEntity
  8
0
100
AcDbLine
 62
7
  6
CONTINUOUS
 10
93.1103863026
 20
26.1868753751
 11
93.1103863026
 21
25.8712434427
  0
LINE
  5
49F
100
AcDbEntity
  8
0
100
AcDbLine
 62
7
  6
CONTINUOUS
 10
93.260387447
 20
26.2369899391
 11
93.260387447
 21
25.9205367388
  0
LINE
  5
4A0
100
AcDbEntity
  8
0
100
AcDbLine
 62
7
  6
CONTINUOUS
 10
93.8603868748
 20
26.450795162
 11
93.8603868748
 21
26.1307900192
  0
LINE
  5
4A1
100
AcDbEntity
  8
0
100
AcDbLine
 62
7
  6
CONTINUOUS
 10
93.8772182326
 20
37.1811139994
 11
93.8772182326
 21
36.8811139994
  0
LINE
  5
4A2
100
AcDbEntity
  8
0
100
AcDbLine
 62
7
  6
CONTINUOUS
 10
93.8979346887
 20
37.1811139994
 11
93.8979346887
 21
36.8811139994
  0
LINE
  5
4A3
100
AcDbEntity
  8
0
100
AcDbLine
 62
7
  6
CONTINUOUS
 10
94.2828844847
 20
37.1811139994
 11
94.2828844847
 21
36.8811139994
  0
LINE
  5
4A4
100
AcDbEntity
  8
0
100
AcDbLine
 62
7
  6
CONTINUOUS
 10
94.2947368572
 20
37.1811139994
 11
94.2947368572
 21
36.8811139994
  0
LINE
  5
4A5
100
AcDbEntity
  8
0
100
AcDbLine
 62
7
  6
CONTINUOUS
 10
94.3835791771
 20
37.1811139994
 11
94.3835791771
 21
36.8811139994
  0
LINE
  5
4A6
100
AcDbEntity
  8
0
100
AcDbLine
 62
7
  6
CONTINUOUS
 10
94.5049902636
 20
37.1811139994
 11
94.5049902636
 21
36.8811139994
  0
LINE
  5
4A7
100
AcDbEntity
  8
0
100
AcDbLine
 62
7
  6
CONTINUOUS
 10
94.7891447607
 20
37.1811139994
 11
94.7891447607
 21
36.8811139994
  0
LINE
  5
4A8
100
AcDbEntity
  8
0
100
AcDbLine
 62
7
  6
CONTINUOUS
 10
94.9103863026
 20
26.8782152405
 11
94.9103863026
 21
26.5508670075
  0
LINE
  5
4A9
100
AcDbEntity
  8
0
100
AcDbLine
 62
7
  6
CONTINUOUS
 10
94.9964099195
 20
37.1811139994
 11
94.9964099195
 21
36.8811139994
  0
LINE
  5
4AA
100
AcDbEntity
  8
0
100
AcDbLine
 62
7
  6
CONTINUOUS
 10
95.4346449546
 20
37.1811139994
 11
95.4346449546
 21
36.8811139994
  0
LINE
  5
4AB
100
AcDbEntity
  8
0
100
AcDbLine
 62
7
  6
CONTINUOUS
 10
95.510387447
 20
27.1544369945
 11
95.510387447
 21
26.8221629445
  0
LINE
  5
4AC
100
AcDbEntity
  8
RUNDUNGEN
100
AcDbLine
 62
7
  6
CONTINUOUS
 10
122.8387068663
 20
53.1811139994
 11
50.8570668833
 21
53.1811139994
  0
LINE
  5
4AD
100
AcDbEntity
  8
0
100
AcDbLine
 62
7
  6
CONTINUOUS
 10
95.8077423781
 20
37.1811139994
 11
95.8077423781
 21
36.8811139994
  0
LINE
  5
4AE
100
AcDbEntity
  8
0
100
AcDbLine
 62
7
  6
CONTINUOUS
 10
95.960387447
 20
27.3776780017
 11
95.960387447
 21
27.0413142948
  0
LINE
  5
4AF
100
AcDbEntity
  8
0
100
AcDbLine
 62
7
  6
CONTINUOUS
 10
96.379240886
 20
37.1811139994
 11
96.379240886
 21
36.8811139994
  0
LINE
  5
4B0
100
AcDbEntity
  8
0
100
AcDbLine
 62
7
  6
CONTINUOUS
 10
96.5332208815
 20
37.1811139994
 11
96.5332208815
 21
36.8811139994
  0
LINE
  5
4B1
100
AcDbEntity
  8
0
100
AcDbLine
 62
7
  6
CONTINUOUS
 10
97.0395818466
 20
37.1811139994
 11
97.0395818466
 21
36.8811139994
  0
LINE
  5
4B2
100
AcDbEntity
  8
0
100
AcDbLine
 62
7
  6
CONTINUOUS
 10
97.2824040196
 20
37.1811139994
 11
97.2824040196
 21
36.8811139994
  0
LINE
  5
4B3
100
AcDbEntity
  8
0
100
AcDbLine
 62
7
  6
CONTINUOUS
 10
97.4600885949
 20
37.1811139994
 11
97.4600885949
 21
36.8811139994
  0
LINE
  5
4B4
100
AcDbEntity
  8
0
100
AcDbLine
 62
7
  6
CONTINUOUS
 10
97.5520197779
 20
37.1811139994
 11
97.5520197779
 21
36.8811139994
  0
LINE
  5
4B5
100
AcDbEntity
  8
0
100
AcDbLine
 62
7
  6
CONTINUOUS
 10
97.9369698768
 20
37.1811139994
 11
97.9369698768
 21
36.8811139994
  0
LINE
  5
4B6
100
AcDbEntity
  8
0
100
AcDbLine
 62
7
  6
CONTINUOUS
 10
98.210387447
 20
28.7222689382
 11
98.210387447
 21
28.3589981768
  0
LWPOLYLINE
  5
4B7
100
AcDbEntity
  8
RUNDUNGEN
100
AcDbPolyline
 62
7
  6
CONTINUOUS
 90
8
 70
0
 10
68.7960706241
 20
55.2469682395
 10
68.6096760771
 20
55.2320828876
 10
68.4095268518
 20
55.217317256
 10
68.1957601446
 20
55.2027662981
 10
67.9686703224
 20
55.1885217475
 10
67.7282633373
 20
55.1746593883
 10
67.4747171749
 20
55.1612600637
 10
67.2080828757
 20
55.1483918136
  0
LINE
  5
4B8
100
AcDbEntity
  8
RUNDUNGEN
100
AcDbLine
 62
7
  6
CONTINUOUS
 10
67.2080828757
 20
55.1483918136
 11
66.6361646013
 21
55.1245647338
  0
LINE
  5
4B9
100
AcDbEntity
  8
RUNDUNGEN
100
AcDbLine
 62
7
  6
CONTINUOUS
 10
66.6361646013
 20
55.1245647338
 11
66.0141329275
 21
55.1038030027
  0
LINE
  5
4BA
100
AcDbEntity
  8
RUNDUNGEN
100
AcDbLine
 62
7
  6
CONTINUOUS
 10
66.0141329275
 20
55.1038030027
 11
65.3445712608
 21
55.0867691142
  0
LWPOLYLINE
  5
4BB
100
AcDbEntity
  8
RUNDUNGEN
100
AcDbPolyline
 62
7
  6
CONTINUOUS
 90
4
 70
0
 10
65.3445712608
 20
55.0867691142
 10
64.6313318771
 20
55.0741619884
 10
64.2599195579
 20
55.0697446533
 10
63.8797053883
 20
55.0667084155
  0
LINE
  5
4BC
100
AcDbEntity
  8
RUNDUNGEN
100
AcDbLine
 62
7
  6
CONTINUOUS
 10
63.8797053883
 20
55.0667084155
 11
63.2955764366
 21
55.0649480191
  0
LINE
  5
4BD
100
AcDbEntity
  8
RUNDUNGEN
100
AcDbLine
 62
7
  6
CONTINUOUS
 10
61.0623145661
 20
55.0649480282
 11
63.2955764366
 21
55.0649480282
  0
LWPOLYLINE
  5
4BE
100
AcDbEntity
  8
RUNDUNGEN
100
AcDbPolyline
 62
7
  6
CONTINUOUS
 90
5
 70
0
 10
112.6334591835
 20
55.0649480282
 10
110.1887144264
 20
55.06517915
 10
109.8016620321
 20
55.0667962535
 10
109.4224245302
 20
55.0698792663
 10
109.0519579854
 20
55.0743356386
  0
LINE
  5
4BF
100
AcDbEntity
  8
RUNDUNGEN
100
AcDbLine
 62
7
  6
CONTINUOUS
 10
109.0519579854
 20
55.0743356386
 11
108.3405093449
 21
55.0870005769
  0
LINE
  5
4C0
100
AcDbEntity
  8
RUNDUNGEN
100
AcDbLine
 62
7
  6
CONTINUOUS
 10
108.3405093449
 20
55.0870005769
 11
107.6726011147
 21
55.1040694055
  0
LINE
  5
4C1
100
AcDbEntity
  8
RUNDUNGEN
100
AcDbLine
 62
7
  6
CONTINUOUS
 10
107.6726011147
 20
55.1040694055
 11
107.0520908039
 21
55.1248470056
  0
LWPOLYLINE
  5
4C2
100
AcDbEntity
  8
RUNDUNGEN
100
AcDbPolyline
 62
7
  6
CONTINUOUS
 90
9
 70
0
 10
107.0520908039
 20
55.1248470056
 10
106.4815739628
 20
55.1486736361
 10
106.2156006335
 20
55.1615360252
 10
105.9626912757
 20
55.1749259484
 10
105.7229009625
 20
55.1887746313
 10
105.4964012398
 20
55.2030025665
 10
105.2831958662
 20
55.2175337821
 10
105.0835776123
 20
55.2322763282
 10
104.8976810748
 20
55.2471362291
  0
LINE
  5
4C3
100
AcDbEntity
  8
0
100
AcDbLine
 62
7
  6
CONTINUOUS
 10
98.8103868748
 20
29.1530575436
 11
98.8103868748
 21
28.7802422619
  0
LINE
  5
4C4
100
AcDbEntity
  8
0
100
AcDbLine
 62
7
  6
CONTINUOUS
 10
98.8815656981
 20
37.1811139994
 11
98.8815656981
 21
36.8811139994
  0
LINE
  5
4C5
100
AcDbEntity
  8
0
100
AcDbLine
 62
7
  6
CONTINUOUS
 10
98.89042994
 20
37.1811139994
 11
98.89042994
 21
36.8811139994
  0
LINE
  5
4C6
100
AcDbEntity
  8
0
100
AcDbLine
 62
7
  6
CONTINUOUS
 10
99.0414214698
 20
37.1811139994
 11
99.0414214698
 21
36.8811139994
  0
LINE
  5
4C7
100
AcDbEntity
  8
0
100
AcDbLine
 62
7
  6
CONTINUOUS
 10
99.269403062
 20
37.1811139994
 11
99.269403062
 21
36.8811139994
  0
LINE
  5
4C8
100
AcDbEntity
  8
0
100
AcDbLine
 62
7
  6
CONTINUOUS
 10
99.5743747619
 20
37.1811139994
 11
99.5743747619
 21
36.8811139994
  0
LINE
  5
4C9
100
AcDbEntity
  8
0
100
AcDbLine
 62
7
  6
CONTINUOUS
 10
99.8911986228
 20
37.1811139994
 11
99.8911986228
 21
36.8811139994
  0
LINE
  5
4CA
100
AcDbEntity
  8
0
100
AcDbLine
 62
7
  6
CONTINUOUS
 10
100.2524437014
 20
37.1811139994
 11
100.2524437014
 21
36.8811139994
  0
LINE
  5
4CB
100
AcDbEntity
  8
0
100
AcDbLine
 62
7
  6
CONTINUOUS
 10
100.7350997564
 20
37.1811139994
 11
100.7350997564
 21
36.8811139994
  0
LINE
  5
4CC
100
AcDbEntity
  8
0
100
AcDbLine
 62
7
  6
CONTINUOUS
 10
101.1526186542
 20
37.1811139994
 11
101.1526186542
 21
36.8811139994
  0
LINE
  5
4CD
100
AcDbEntity
  8
RUNDUNGEN
100
AcDbLine
 62
7
  6
CONTINUOUS
 10
50.7179472019
 20
53.224579089
 11
60.7962319335
 21
55.0411594063
  0
LINE
  5
4CE
100
AcDbEntity
  8
RUNDUNGEN
100
AcDbLine
 62
7
  6
CONTINUOUS
 10
69.1105136973
 20
55.2750724681
 11
68.9686241655
 21
55.2618727361
  0
LINE
  5
4CF
100
AcDbEntity
  8
RUNDUNGEN
100
AcDbLine
 62
7
  6
CONTINUOUS
 10
68.9686241655
 20
55.2618727361
 11
68.7960706241
 21
55.2469682395
  0
LINE
  5
4D0
100
AcDbEntity
  8
RUNDUNGEN
100
AcDbLine
 62
7
  6
CONTINUOUS
 10
104.8976810748
 20
55.2471362291
 11
104.7255886227
 21
55.2620130999
  0
LINE
  5
4D1
100
AcDbEntity
  8
RUNDUNGEN
100
AcDbLine
 62
7
  6
CONTINUOUS
 10
104.7255886227
 20
55.2620130999
 11
104.5852597385
 21
55.2750724393
  0
LWPOLYLINE
  5
4D2
100
AcDbEntity
  8
RUNDUNGEN
100
AcDbPolyline
 62
7
  6
CONTINUOUS
 90
6
 70
0
 10
104.5852830116
 20
55.2750663454
 10
104.5667227973
 20
55.2770295399
 10
104.4195768801
 20
55.3052831048
 10
104.2783063425
 20
55.3552040398
 10
104.1460823342
 20
55.4256706045
 10
104.0258725416
 20
55.5150999991
  0
LINE
  5
4D3
100
AcDbEntity
  8
RUNDUNGEN
100
AcDbLine
 62
7
  6
CONTINUOUS
 10
112.8995418161
 20
55.0411594063
 11
122.9778265474
 21
53.224579089
  0
LINE
  5
4D4
100
AcDbEntity
  8
0
100
AcDbLine
 62
7
  6
CONTINUOUS
 10
101.4605782046
 20
37.1811139994
 11
101.4605782046
 21
36.8811139994
  0
LINE
  5
4D5
100
AcDbEntity
  8
0
100
AcDbLine
 62
7
  6
CONTINUOUS
 10
101.6603880192
 20
31.7427431961
 11
101.6603880192
 21
31.3001986892
  0
LINE
  5
4D6
100
AcDbEntity
  8
0
100
AcDbLine
 62
7
  6
CONTINUOUS
 10
101.8129595047
 20
37.1811139994
 11
101.8129595047
 21
36.8811139994
  0
LINE
  5
4D7
100
AcDbEntity
  8
0
100
AcDbLine
 62
7
  6
CONTINUOUS
 10
102.1002027664
 20
37.1811139994
 11
102.1002027664
 21
36.8811139994
  0
LINE
  5
4D8
100
AcDbEntity
  8
0
100
AcDbLine
 62
7
  6
CONTINUOUS
 10
102.2008974541
 20
37.1811139994
 11
102.2008974541
 21
36.8811139994
  0
LINE
  5
4D9
100
AcDbEntity
  8
0
100
AcDbLine
 62
7
  6
CONTINUOUS
 10
102.6540734955
 20
37.1811139994
 11
102.6540734955
 21
36.8811139994
  0
LINE
  5
4DA
100
AcDbEntity
  8
0
100
AcDbLine
 62
7
  6
CONTINUOUS
 10
102.6895304404
 20
37.1811139994
 11
102.6895304404
 21
36.8811139994
  0
LINE
  5
4DB
100
AcDbEntity
  8
0
100
AcDbLine
 62
7
  6
CONTINUOUS
 10
102.8198056359
 20
37.1811139994
 11
102.8198056359
 21
36.8811139994
  0
LINE
  5
4DC
100
AcDbEntity
  8
0
100
AcDbLine
 62
7
  6
CONTINUOUS
 10
103.4357247368
 20
37.1811139994
 11
103.4357247368
 21
36.8811139994
  0
LINE
  5
4DD
100
AcDbEntity
  8
0
100
AcDbLine
 62
7
  6
CONTINUOUS
 10
103.696275219
 20
37.1811139994
 11
103.696275219
 21
36.8811139994
  0
LINE
  5
4DE
100
AcDbEntity
  8
0
100
AcDbLine
 62
7
  6
CONTINUOUS
 10
104.081225318
 20
37.1811139994
 11
104.081225318
 21
36.8811139994
  0
LWPOLYLINE
  5
4DF
100
AcDbEntity
  8
RUNDUNGEN
100
AcDbPolyline
 62
7
  6
CONTINUOUS
 90
5
 70
0
 10
50.7182570005
 20
53.2246346791
 10
50.6517247772
 20
53.2119414617
 10
50.582689837
 20
53.1970981848
 10
50.5147166854
 20
53.1805350064
 10
50.4957179331
 20
53.1755192317
  0
LWPOLYLINE
  5
4E0
100
AcDbEntity
  8
RUNDUNGEN
100
AcDbPolyline
 62
7
  6
CONTINUOUS
 90
5
 70
0
 10
123.2000761471
 20
53.1755137688
 10
123.1720684519
 20
53.1828468496
 10
123.1047723777
 20
53.1989848659
 10
123.0362979249
 20
53.2134966253
 10
122.9775432862
 20
53.2246299181
  0
LINE
  5
4E1
100
AcDbEntity
  8
RUNDUNGEN
100
AcDbLine
 62
7
  6
CONTINUOUS
 10
123.2000757325
 20
53.1755120538
 11
123.1983377639
 21
53.1759779648
  0
LINE
  5
4E2
100
AcDbEntity
  8
0
100
AcDbLine
 62
7
  6
CONTINUOUS
 10
104.6675647009
 20
37.1811139994
 11
104.6675647009
 21
36.8811139994
  0
LWPOLYLINE
  5
4E3
100
AcDbEntity
  8
RUNDUNGEN
100
AcDbPolyline
 62
7
  6
CONTINUOUS
 90
3
 70
0
 10
103.8319819483
 20
34.6198353954
 10
103.920383909
 20
34.74075475
 10
104.0258817753
 20
34.847135984
  0
LWPOLYLINE
  5
4E4
100
AcDbEntity
  8
RUNDUNGEN
100
AcDbPolyline
 62
7
  6
CONTINUOUS
 90
6
 70
0
 10
104.0258817753
 20
34.847135984
 10
104.1460910479
 20
34.9365629187
 10
104.2783139982
 20
35.0070273607
 10
104.419583029
 20
35.0569466166
 10
104.5667271027
 20
35.0851990334
 10
104.5852823081
 20
35.0871616668
  0
LWPOLYLINE
  5
4E5
100
AcDbEntity
  8
RUNDUNGEN
100
AcDbPolyline
 62
7
  6
CONTINUOUS
 90
19
 70
0
 10
50.4967946515
 20
53.1758051875
 10
50.4286114194
 20
53.1565616187
 10
50.363650272
 20
53.1361681053
 10
50.2945921177
 20
53.1117988074
 10
50.2169731899
 20
53.0805246297
 10
50.132439528
 20
53.0411178076
 10
50.0411368416
 20
52.9914578791
 10
49.9464610387
 20
52.9310758802
 10
49.8519825008
 20
52.8603105686
 10
49.7589618003
 20
52.7783253107
 10
49.6694368665
 20
52.6850219948
 10
49.5855644073
 20
52.5807987742
 10
49.5094504954
 20
52.4665565094
 10
49.4427261793
 20
52.3431086622
 10
49.3870251723
 20
52.2119191225
 10
49.343384214
 20
52.0737528484
 10
49.3128666034
 20
51.9296930982
 10
49.2964669839
 20
51.7813188051
 10
49.293726025
 20
51.690585862
  0
LINE
  5
4E6
100
AcDbEntity
  8
RUNDUNGEN
100
AcDbLine
 62
7
  6
CONTINUOUS
 10
104.0258725416
 20
55.5150999991
 11
103.9203747598
 21
55.6214839088
  0
LINE
  5
4E7
100
AcDbEntity
  8
RUNDUNGEN
100
AcDbLine
 62
7
  6
CONTINUOUS
 10
103.9203747598
 20
55.6214839088
 11
103.831981828
 21
55.7423926764
  0
LWPOLYLINE
  5
4E8
100
AcDbEntity
  8
RUNDUNGEN
100
AcDbPolyline
 62
7
  6
CONTINUOUS
 90
17
 70
0
 10
124.402042676
 20
51.6905921737
 10
124.3911971952
 20
51.8708289047
 10
124.3579492091
 20
52.0519915706
 10
124.305684935
 20
52.220125491
 10
124.2378195814
 20
52.3738191848
 10
124.1574431051
 20
52.51260097
 10
124.0672324263
 20
52.636562599
 10
123.9700836587
 20
52.7454927945
 10
123.8684453457
 20
52.8398744936
 10
123.7648395291
 20
52.9202134315
 10
123.6601841096
 20
52.9881799985
 10
123.5594699577
 20
53.0430474532
 10
123.4669035635
 20
53.0856029541
 10
123.3834070489
 20
53.118358271
 10
123.3121002654
 20
53.1426934395
 10
123.24786653
 20
53.1622119586
 10
123.1983377639
 20
53.1759779648
  0
LINE
  5
4E9
100
AcDbEntity
  8
RUNDUNGEN
100
AcDbLine
 62
7
  6
CONTINUOUS
 10
124.4020450839
 20
38.6704376531
 11
124.4020450839
 21
51.6917891529
  0
ARC
  5
4EA
100
AcDbEntity
  8
RUNDUNGEN
100
AcDbCircle
 62
7
  6
CONTINUOUS
 10
61.8478868748
 20
122.0976090295
 40
5.0
100
AcDbArc
 50
0.0
 51
90.0
  0
ARC
  5
4EB
100
AcDbEntity
  8
RUNDUNGEN
100
AcDbCircle
 62
7
  6
CONTINUOUS
 10
53.2937286657
 20
153.8854492951
 40
4.0
100
AcDbArc
 50
157.5
 51
202.5
  0
ARC
  5
4EC
100
AcDbEntity
  8
RUNDUNGEN
100
AcDbCircle
 62
7
  6
CONTINUOUS
 10
61.0623145661
 20
128.5976090295
 40
1.5
100
AcDbArc
 50
202.5
 51
270.0
  0
ARC
  5
4ED
100
AcDbEntity
  8
RUNDUNGEN
100
AcDbCircle
 62
7
  6
CONTINUOUS
 10
63.1215140682
 20
177.6118221017
 40
4.0
100
AcDbArc
 50
112.5
 51
157.5
  0
CIRCLE
  5
4EE
100
AcDbEntity
  8
RUNDUNGEN
100
AcDbCircle
 62
7
  6
CONTINUOUS
 10
86.8478868748
 20
153.8854492951
 40
20.0
  0
ARC
  5
4EF
100
AcDbEntity
  8
RUNDUNGEN
100
AcDbCircle
 62
7
  6
CONTINUOUS
 10
111.8478868748
 20
122.0976090295
 40
5.0
100
AcDbArc
 50
90.0
 51
180.0
  0
ARC
  5
4F0
100
AcDbEntity
  8
RUNDUNGEN
100
AcDbCircle
 62
7
  6
CONTINUOUS
 10
112.6334591835
 20
128.5976090295
 40
1.5
100
AcDbArc
 50
270.0
 51
337.5
  0
ARC
  5
4F1
100
AcDbEntity
  8
RUNDUNGEN
100
AcDbCircle
 62
7
  6
CONTINUOUS
 10
120.4020450839
 20
153.8854492951
 40
4.0
100
AcDbArc
 50
337.5
 51
22.5
  0
ARC
  5
4F2
100
AcDbEntity
  8
RUNDUNGEN
100
AcDbCircle
 62
7
  6
CONTINUOUS
 10
110.5742596814
 20
177.6118221017
 40
4.0
100
AcDbArc
 50
22.5
 51
67.5
  0
ARC
  5
4F3
100
AcDbEntity
  8
RUNDUNGEN
100
AcDbCircle
 62
7
  6
CONTINUOUS
 10
86.8478868748
 20
187.4396075042
 40
4.0
100
AcDbArc
 50
67.5
 51
112.5
  0
ARC
  5
4F4
100
AcDbEntity
  8
RUNDUNGEN
100
AcDbCircle
 62
7
  6
CONTINUOUS
 10
227.391893299
 20
154.4446266891
 40
15.0
100
AcDbArc
 50
180.0
 51
184.2698234508
  0
ARC
  5
4F5
100
AcDbEntity
  8
RUNDUNGEN
100
AcDbCircle
 62
7
  6
CONTINUOUS
 10
181.391893299
 20
154.4446266891
 40
15.0
100
AcDbArc
 50
355.7301765492
 51
360.0
  0
ARC
  5
4F6
100
AcDbEntity
  8
RUNDUNGEN
100
AcDbCircle
 62
8
  6
HIDDEN
 10
204.391893299
 20
181.8854492951
 40
8.0
100
AcDbArc
 50
180.0
 51
360.0
  0
ARC
  5
4F7
100
AcDbEntity
  8
B-ACHSEN
100
AcDbCircle
 62
7
  6
CONTINUOUS
 10
187.391893299
 20
127.9223842733
 40
3.0
100
AcDbArc
 50
99.0
 51
180.0
  0
ARC
  5
4F8
100
AcDbEntity
  8
B-ACHSEN
100
AcDbCircle
 62
7
  6
CONTINUOUS
 10
221.391893299
 20
127.9223842733
 40
3.0
100
AcDbArc
 50
0.0
 51
81.0
  0
ARC
  5
4F9
100
AcDbEntity
  8
RUNDUNGEN
100
AcDbCircle
 62
7
  6
CONTINUOUS
 10
197.891893299
 20
189.9396075042
 40
1.5
100
AcDbArc
 50
90.0
 51
180.0000004398
  0
ARC
  5
4FA
100
AcDbEntity
  8
RUNDUNGEN
100
AcDbCircle
 62
7
  6
CONTINUOUS
 10
210.891893299
 20
189.9396075042
 40
1.5
100
AcDbArc
 50
359.9999995609
 51
90.0
  0
ARC
  5
4FB
100
AcDbEntity
  8
RUNDUNGEN
100
AcDbCircle
 62
7
  6
CONTINUOUS
 10
212.7757273279
 20
128.5976090295
 40
1.5
100
AcDbArc
 50
270.0
 51
4.2698234508
  0
ARC
  5
4FC
100
AcDbEntity
  8
RUNDUNGEN
100
AcDbCircle
 62
7
  6
CONTINUOUS
 10
196.0080592684
 20
128.5976090061
 40
1.4999999946
100
AcDbArc
 50
175.730175651
 51
270.0000000669
  0
ARC
  5
4FD
100
AcDbEntity
  8
RUNDUNGEN
100
AcDbCircle
 62
7
  6
CONTINUOUS
 10
214.9167855545
 20
132.9977875141
 40
1.0000198756
100
AcDbArc
 50
203.7020218924
 51
260.9998948341
  0
ARC
  5
4FE
100
AcDbEntity
  8
RUNDUNGEN
100
AcDbCircle
 62
7
  6
CONTINUOUS
 10
193.8670047603
 20
132.9977900059
 40
1.0000169379
100
AcDbArc
 50
279.0000866216
 51
336.2923239583
  0
ARC
  5
4FF
100
AcDbEntity
  8
RUNDUNGEN
100
AcDbCircle
 62
7
  6
CONTINUOUS
 10
61.0627631468
 20
36.8062688273
 40
1.5089283457
100
AcDbArc
 50
259.8210081038
 51
269.9829789956
  0
ARC
  5
500
100
AcDbEntity
  8
RUNDUNGEN
100
AcDbCircle
 62
7
  6
CONTINUOUS
 10
61.0631404588
 20
53.5606695818
 40
1.5042786732
100
AcDbArc
 50
90.0314570471
 51
100.3816539912
  0
ARC
  5
501
100
AcDbEntity
  8
RUNDUNGEN
100
AcDbCircle
 62
7
  6
CONTINUOUS
 10
112.6326332908
 20
36.8015584169
 40
1.5042786732
100
AcDbArc
 50
270.0314570471
 51
280.3816539912
  0
ARC
  5
502
100
AcDbEntity
  8
0
100
AcDbCircle
 62
7
  6
CONTINUOUS
 10
86.8478868748
 20
45.1811139994
 40
20.3
100
AcDbArc
 50
306.1063366902
 51
316.8595622447
  0
ARC
  5
503
100
AcDbEntity
  8
0
100
AcDbCircle
 62
7
  6
CONTINUOUS
 10
86.8478868748
 20
45.1811139994
 40
20.3
100
AcDbArc
 50
295.2598464001
 51
304.0370647361
  0
ARC
  5
504
100
AcDbEntity
  8
0
100
AcDbCircle
 62
7
  6
CONTINUOUS
 10
86.8478868748
 20
45.1811139994
 40
20.3
100
AcDbArc
 50
290.2088618265
 51
293.4012216974
  0
ARC
  5
505
100
AcDbEntity
  8
0
100
AcDbCircle
 62
7
  6
CONTINUOUS
 10
86.8478868748
 20
45.1811139994
 40
20.3
100
AcDbArc
 50
280.3224196338
 51
288.4143530283
  0
ARC
  5
506
100
AcDbEntity
  8
0
100
AcDbCircle
 62
7
  6
CONTINUOUS
 10
86.8478868748
 20
45.1811139994
 40
20.3
100
AcDbArc
 50
270.529215696
 51
278.6055181671
  0
ARC
  5
507
100
AcDbEntity
  8
0
100
AcDbCircle
 62
7
  6
CONTINUOUS
 10
86.8478868748
 20
45.1811139994
 40
20.3
100
AcDbArc
 50
267.5649019675
 51
268.835658333
  0
ARC
  5
508
100
AcDbEntity
  8
0
100
AcDbCircle
 62
7
  6
CONTINUOUS
 10
86.8478868748
 20
45.1811139994
 40
20.3
100
AcDbArc
 50
246.5987765429
 51
255.5589216927
  0
ARC
  5
509
100
AcDbEntity
  8
0
100
AcDbCircle
 62
7
  6
CONTINUOUS
 10
86.8478868748
 20
45.1811139994
 40
20.3
100
AcDbArc
 50
235.9629369692
 51
244.7401558321
  0
ARC
  5
50A
100
AcDbEntity
  8
0
100
AcDbCircle
 62
7
  6
CONTINUOUS
 10
86.8478868748
 20
45.1811139994
 40
20.3
100
AcDbArc
 50
223.140442479
 51
233.8936635597
  0
ARC
  5
50B
100
AcDbEntity
  8
B-ACHSEN
100
AcDbCircle
 62
7
  6
CONTINUOUS
 10
86.8478868748
 20
45.1811139994
 40
20.0
100
AcDbArc
 50
31.4000084404
 51
148.5999915596
  0
ARC
  5
50C
100
AcDbEntity
  8
B-ACHSEN
100
AcDbCircle
 62
7
  6
CONTINUOUS
 10
86.8478868748
 20
45.1811139994
 40
20.0
100
AcDbArc
 50
211.4000084404
 51
328.5999915596
  0
ARC
  5
50D
100
AcDbEntity
  8
RUNDUNGEN
100
AcDbCircle
 62
7
  6
CONTINUOUS
 10
86.8478868748
 20
45.1811139994
 40
20.0
100
AcDbArc
 50
211.4000084404
 51
328.5999915596
  0
ARC
  5
50E
100
AcDbEntity
  8
RUNDUNGEN
100
AcDbCircle
 62
7
  6
CONTINUOUS
 10
86.8478868748
 20
45.1811139994
 40
20.0
100
AcDbArc
 50
31.4000084404
 51
148.5999915596
  0
ARC
  5
50F
100
AcDbEntity
  8
RUNDUNGEN
100
AcDbCircle
 62
7
  6
CONTINUOUS
 10
112.6330106029
 20
53.5559591714
 40
1.5089283457
100
AcDbArc
 50
79.8210081038
 51
89.9829789956
  0
ELLIPSE
  5
510
100
AcDbEntity
  8
0
100
AcDbEllipse
 62
7
  6
CONTINUOUS
 10
204.391893299
 20
122.7343841948
 30
0.0
 11
20.3
 21
0.0
 31
0.0
 40
0.2553189461
 41
-0.3136131239
 42
-0.2942525596
  0
ELLIPSE
  5
511
100
AcDbEntity
  8
0
100
AcDbEllipse
 62
7
  6
CONTINUOUS
 10
204.391893299
 20
124.9891761431
 30
0.0
 11
20.3
 21
0.0
 31
0.0
 40
0.6382984888
 41
-0.2942525596
 42
-0.2788458945
  0
ELLIPSE
  5
512
100
AcDbEntity
  8
0
100
AcDbEllipse
 62
7
  6
CONTINUOUS
 10
204.391893299
 20
128.555668637
 30
0.0
 11
0.0
 21
25.9149175108
 31
0.0
 40
0.7833326111
 41
4.4335430859
 42
4.4488820832
  0
ELLIPSE
  5
513
100
AcDbEntity
  8
0
100
AcDbEllipse
 62
7
  6
CONTINUOUS
 10
204.391893299
 20
135.3056377839
 30
0.0
 11
0.0
 21
51.829691273
 31
0.0
 40
0.3916673918
 41
-1.834303224
 42
-1.826657683
  0
ELLIPSE
  5
514
100
AcDbEntity
  8
0
100
AcDbEllipse
 62
7
  6
CONTINUOUS
 10
204.391893299
 20
154.9813151695
 30
0.0
 11
-0.0
 21
129.5749469278
 31
0.0
 40
0.1566660877
 41
-1.826657683
 42
-1.8228406908
  0
ELLIPSE
  5
515
100
AcDbEntity
  8
0
100
AcDbEllipse
 62
7
  6
CONTINUOUS
 10
204.391893299
 20
91.7895651816
 30
0.0
 11
-0.0
 21
129.5750195266
 31
0.0
 40
0.1566659999
 41
-1.3187519628
 42
-1.3149349706
  0
ELLIPSE
  5
516
100
AcDbEntity
  8
0
100
AcDbEllipse
 62
7
  6
CONTINUOUS
 10
204.391893299
 20
111.465263237
 30
0.0
 11
0.0
 21
51.8296821982
 31
0.0
 40
0.3916674604
 41
-1.3149349706
 42
-1.3072894296
  0
ELLIPSE
  5
517
100
AcDbEntity
  8
0
100
AcDbEllipse
 62
7
  6
CONTINUOUS
 10
204.391893299
 20
118.2152306112
 30
0.0
 11
-0.0
 21
25.9149152421
 31
0.0
 40
0.7833326797
 41
4.9758958775
 42
4.9912348749
  0
ELLIPSE
  5
518
100
AcDbEntity
  8
0
100
AcDbEllipse
 62
7
  6
CONTINUOUS
 10
204.391893299
 20
121.781722949
 30
0.0
 11
20.3
 21
0.0
 31
0.0
 40
0.638298405
 41
0.2788458945
 42
0.2942525596
  0
ELLIPSE
  5
519
100
AcDbEntity
  8
0
100
AcDbEllipse
 62
7
  6
CONTINUOUS
 10
204.391893299
 20
124.0365145354
 30
0.0
 11
20.3
 21
0.0
 31
0.0
 40
0.2553189237
 41
0.2942525596
 42
0.3136131239
  0
ELLIPSE
  5
51A
100
AcDbEntity
  8
0
100
AcDbEllipse
 62
7
  6
CONTINUOUS
 10
204.391893299
 20
118.4665635628
 30
0.0
 11
20.3
 21
0.0
 31
0.0
 40
0.3191492025
 41
0.5243099523
 42
0.5414674493
  0
ELLIPSE
  5
51B
100
AcDbEntity
  8
0
100
AcDbEllipse
 62
7
  6
CONTINUOUS
 10
204.391893299
 20
112.9014047942
 30
0.0
 11
20.3
 21
-0.0
 31
0.0
 40
0.8510640264
 41
0.5414674493
 42
0.5544524114
  0
ELLIPSE
  5
51C
100
AcDbEntity
  8
0
100
AcDbEllipse
 62
7
  6
CONTINUOUS
 10
204.391893299
 20
101.5317676705
 30
0.0
 11
0.0
 21
38.8722616486
 31
0.0
 40
0.5222232805
 41
-1.0163439154
 42
-1.0076290718
  0
ELLIPSE
  5
51D
100
AcDbEntity
  8
0
100
AcDbEllipse
 62
7
  6
CONTINUOUS
 10
204.391893299
 20
66.9437546894
 30
0.0
 11
0.0
 21
103.6599575423
 31
0.0
 40
0.1958326096
 41
-1.0076290718
 42
-1.0032536849
  0
ELLIPSE
  5
51E
100
AcDbEntity
  8
0
100
AcDbEllipse
 62
7
  6
CONTINUOUS
 10
204.391893299
 20
123.6535352823
 30
0.0
 11
20.3
 21
-0.0
 31
0.0
 40
0.2553192382
 41
-0.5073210264
 42
-0.4863073484
  0
ELLIPSE
  5
51F
100
AcDbEntity
  8
0
100
AcDbEllipse
 62
7
  6
CONTINUOUS
 10
204.391893299
 20
127.2870423137
 30
0.0
 11
20.3
 21
0.0
 31
0.0
 40
0.6382975757
 41
-0.4863073484
 42
-0.469663455
  0
ELLIPSE
  5
520
100
AcDbEntity
  8
0
100
AcDbEllipse
 62
7
  6
CONTINUOUS
 10
204.391893299
 20
133.1514007771
 30
0.0
 11
0.0
 21
25.9148804392
 31
0.0
 40
0.7833337317
 41
-2.0404597818
 42
-2.0239553304
  0
ELLIPSE
  5
521
100
AcDbEntity
  8
0
100
AcDbEllipse
 62
7
  6
CONTINUOUS
 10
204.391893299
 20
144.497173953
 30
0.0
 11
-0.0
 21
51.829839559
 31
0.0
 40
0.3916662713
 41
-2.0239553304
 42
-2.0157529408
  0
ELLIPSE
  5
522
100
AcDbEntity
  8
0
100
AcDbEllipse
 62
7
  6
CONTINUOUS
 10
204.391893299
 20
177.9598043653
 30
0.0
 11
0.0
 21
129.5742054954
 31
0.0
 40
0.1566669842
 41
-2.0157529408
 42
-2.0116637761
  0
ELLIPSE
  5
523
100
AcDbEntity
  8
0
100
AcDbEllipse
 62
7
  6
CONTINUOUS
 10
204.391893299
 20
82.1088536826
 30
0.0
 11
-0.0
 21
66.2269505262
 31
0.0
 40
0.3065217383
 41
-0.9406218751
 42
-0.8988160628
  0
ELLIPSE
  5
524
100
AcDbEntity
  8
0
100
AcDbEllipse
 62
7
  6
CONTINUOUS
 10
204.391893299
 20
131.404067238
 30
0.0
 11
20.3
 21
-0.0
 31
0.0
 40
0.6382979484
 41
-0.671980264
 42
-0.6532350693
  0
ELLIPSE
  5
525
100
AcDbEntity
  8
0
100
AcDbEllipse
 62
7
  6
CONTINUOUS
 10
204.391893299
 20
144.5290637959
 30
0.0
 11
0.0
 21
34.5531873703
 31
0.0
 40
0.58750007
 41
-2.2240313961
 42
-2.210147478
  0
ELLIPSE
  5
526
100
AcDbEntity
  8
0
100
AcDbEllipse
 62
7
  6
CONTINUOUS
 10
204.391893299
 20
170.3003815588
 30
0.0
 11
-0.0
 21
77.7447457263
 31
0.0
 40
0.2611108932
 41
-2.210147478
 42
-2.2055513828
  0
ELLIPSE
  5
527
100
AcDbEntity
  8
0
100
AcDbEllipse
 62
7
  6
CONTINUOUS
 10
204.391893299
 20
78.4811553578
 30
0.0
 11
-0.0
 21
77.7447457263
 31
0.0
 40
0.2611108932
 41
-0.9360412708
 42
-0.9314451756
  0
ELLIPSE
  5
528
100
AcDbEntity
  8
0
100
AcDbEllipse
 62
7
  6
CONTINUOUS
 10
204.391893299
 20
104.2524731207
 30
0.0
 11
0.0
 21
34.5531873703
 31
0.0
 40
0.58750007
 41
-0.9314451756
 42
-0.9175612575
  0
ELLIPSE
  5
529
100
AcDbEntity
  8
0
100
AcDbEllipse
 62
7
  6
CONTINUOUS
 10
204.391893299
 20
113.4399692092
 30
0.0
 11
20.3
 21
0.0
 31
0.0
 40
0.9574469226
 41
0.6532350693
 42
0.671980264
  0
ELLIPSE
  5
52A
100
AcDbEntity
  8
0
100
AcDbEllipse
 62
7
  6
CONTINUOUS
 10
204.391893299
 20
122.3131098993
 30
0.0
 11
20.3
 21
0.0
 31
0.0
 40
0.2553190698
 41
0.671980264
 42
0.6958132563
  0
ELLIPSE
  5
52B
100
AcDbEntity
  8
0
100
AcDbEllipse
 62
7
  6
CONTINUOUS
 10
204.391893299
 20
169.1991840039
 30
0.0
 11
0.0
 21
103.6593643964
 31
0.0
 40
0.1958337302
 41
-2.0404597818
 42
-2.0363209045
  0
ELLIPSE
  5
52C
100
AcDbEntity
  8
0
100
AcDbEllipse
 62
7
  6
CONTINUOUS
 10
204.391893299
 20
139.8774852497
 30
0.0
 11
0.0
 21
38.8723728632
 31
0.0
 40
0.5222217864
 41
-2.0487637779
 42
-2.0404597818
  0
ELLIPSE
  5
52D
100
AcDbEntity
  8
0
100
AcDbEllipse
 62
7
  6
CONTINUOUS
 10
204.391893299
 20
129.9439616785
 30
0.0
 11
20.3
 21
-0.0
 31
0.0
 40
0.8510640264
 41
-0.490491056
 42
-0.4779674512
  0
ELLIPSE
  5
52E
100
AcDbEntity
  8
0
100
AcDbEllipse
 62
7
  6
CONTINUOUS
 10
204.391893299
 20
124.8575218856
 30
0.0
 11
20.3
 21
0.0
 31
0.0
 40
0.3191487459
 41
-0.5073210264
 42
-0.490491056
  0
ELLIPSE
  5
52F
100
AcDbEntity
  8
0
100
AcDbEllipse
 62
7
  6
CONTINUOUS
 10
204.391893299
 20
123.0623093979
 30
0.0
 11
20.0
 21
-0.0
 31
0.0
 40
0.3191492025
 41
0.3027277408
 42
0.3184817269
  0
ELLIPSE
  5
530
100
AcDbEntity
  8
0
100
AcDbEllipse
 62
7
  6
CONTINUOUS
 10
204.391893299
 20
119.8907688854
 30
0.0
 11
20.0
 21
0.0
 31
0.0
 40
0.8510637283
 41
0.2909631389
 42
0.3027277408
  0
ELLIPSE
  5
531
100
AcDbEntity
  8
0
100
AcDbEllipse
 62
7
  6
CONTINUOUS
 10
204.391893299
 20
113.7870566004
 30
0.0
 11
0.0
 21
38.2978304904
 31
0.0
 40
0.5222227929
 41
-1.2876531975
 42
-1.2798331879
  0
ELLIPSE
  5
532
100
AcDbEntity
  8
0
100
AcDbEllipse
 62
7
  6
CONTINUOUS
 10
204.391893299
 20
95.9544926603
 30
0.0
 11
-0.0
 21
102.1280369874
 31
0.0
 40
0.1958326096
 41
-1.2915564853
 42
-1.2876531975
  0
ELLIPSE
  5
533
100
AcDbEntity
  8
0
100
AcDbEllipse
 62
7
  6
CONTINUOUS
 10
204.391893299
 20
150.8164057958
 30
0.0
 11
-0.0
 21
102.1280369874
 31
0.0
 40
0.1958326096
 41
-1.8539394561
 42
-1.8500361683
  0
ELLIPSE
  5
534
100
AcDbEntity
  8
0
100
AcDbEllipse
 62
7
  6
CONTINUOUS
 10
204.391893299
 20
132.9838318645
 30
0.0
 11
-0.0
 21
38.2977947277
 31
0.0
 40
0.5222232805
 41
-1.8617594657
 42
-1.8539394561
  0
ELLIPSE
  5
535
100
AcDbEntity
  8
0
100
AcDbEllipse
 62
7
  6
CONTINUOUS
 10
204.391893299
 20
126.8801315489
 30
0.0
 11
20.0
 21
-0.0
 31
0.0
 40
0.8510640264
 41
-0.3027277408
 42
-0.2909631389
  0
ELLIPSE
  5
536
100
AcDbEntity
  8
0
100
AcDbEllipse
 62
7
  6
CONTINUOUS
 10
204.391893299
 20
123.7085892594
 30
0.0
 11
20.0
 21
-0.0
 31
0.0
 40
0.3191492025
 41
-0.3184817269
 42
-0.3027277408
  0
ELLIPSE
  5
537
100
AcDbEntity
  8
0
100
AcDbEllipse
 62
7
  6
CONTINUOUS
 10
204.391893299
 20
50.140914918
 30
0.0
 11
0.0
 21
129.5742054954
 31
0.0
 40
0.1566669842
 41
-0.9811892559
 42
-0.9767375092
  0
ELLIPSE
  5
538
100
AcDbEntity
  8
0
100
AcDbEllipse
 62
7
  6
CONTINUOUS
 10
204.391893299
 20
119.6514074248
 30
0.0
 11
20.0
 21
0.0
 31
0.0
 40
0.4255318642
 41
0.6888178427
 42
0.7034794384
  0
ELLIPSE
  5
539
100
AcDbEntity
  8
0
100
AcDbEllipse
 62
7
  6
CONTINUOUS
 10
204.391893299
 20
108.832267456
 30
0.0
 11
0.0
 21
25.5318996754
 31
0.0
 40
0.7833338002
 41
-0.8916551432
 42
-0.8819784841
  0
ELLIPSE
  5
53A
100
AcDbEntity
  8
0
100
AcDbEllipse
 62
7
  6
CONTINUOUS
 10
204.391893299
 20
76.7577496644
 30
0.0
 11
0.0
 21
76.5958085974
 31
0.0
 40
0.2611108932
 41
-0.8964651737
 42
-0.8916551432
  0
ELLIPSE
  5
53B
100
AcDbEntity
  8
0
100
AcDbEllipse
 62
7
  6
CONTINUOUS
 10
204.391893299
 20
172.1195319217
 30
0.0
 11
-0.0
 21
76.5958085974
 31
0.0
 40
0.2611108932
 41
-2.2499375104
 42
-2.2451274799
  0
ELLIPSE
  5
53C
100
AcDbEntity
  8
0
100
AcDbEllipse
 62
7
  6
CONTINUOUS
 10
204.391893299
 20
140.0450141301
 30
0.0
 11
0.0
 21
25.5318996754
 31
0.0
 40
0.7833338002
 41
4.0235711376
 42
4.0332477968
  0
ELLIPSE
  5
53D
100
AcDbEntity
  8
0
100
AcDbEllipse
 62
7
  6
CONTINUOUS
 10
204.391893299
 20
129.2258741612
 30
0.0
 11
20.0
 21
0.0
 31
0.0
 40
0.4255318642
 41
-0.7034794384
 42
-0.6888178427
  0
ELLIPSE
  5
53E
100
AcDbEntity
  8
0
100
AcDbEllipse
 62
7
  6
CONTINUOUS
 10
204.391893299
 20
93.3695041711
 30
0.0
 11
0.0
 21
51.8297654159
 31
0.0
 40
0.3916668315
 41
-0.9900532838
 42
-0.9811892559
  0
ELLIPSE
  5
53F
100
AcDbEntity
  8
0
100
AcDbEllipse
 62
7
  6
CONTINUOUS
 10
204.391893299
 20
107.5875640152
 30
0.0
 11
0.0
 21
25.9149175108
 31
0.0
 40
0.7833326111
 41
-1.0076290718
 42
-0.9900532838
  0
ELLIPSE
  5
540
100
AcDbEntity
  8
0
100
AcDbEllipse
 62
7
  6
CONTINUOUS
 10
204.391893299
 20
114.5051332689
 30
0.0
 11
20.3
 21
-0.0
 31
0.0
 40
0.6382975757
 41
0.5457843733
 42
0.563167255
  0
ELLIPSE
  5
541
100
AcDbEntity
  8
0
100
AcDbEllipse
 62
7
  6
CONTINUOUS
 10
204.391893299
 20
118.5407674999
 30
0.0
 11
20.3
 21
0.0
 31
0.0
 40
0.2553192382
 41
0.5243099523
 42
0.5457843733
  0
ELLIPSE
  5
542
100
AcDbEntity
  8
0
100
AcDbEllipse
 62
7
  6
CONTINUOUS
 10
204.391893299
 20
119.6514074248
 30
0.0
 11
20.3
 21
0.0
 31
0.0
 40
0.4255318642
 41
0.676710153
 42
0.6910092974
  0
ELLIPSE
  5
543
100
AcDbEntity
  8
0
100
AcDbEllipse
 62
7
  6
CONTINUOUS
 10
204.391893299
 20
108.832267456
 30
0.0
 11
0.0
 21
25.9148781705
 31
0.0
 40
0.7833338002
 41
-0.9035282083
 42
-0.8940861738
  0
ELLIPSE
  5
544
100
AcDbEntity
  8
0
100
AcDbEllipse
 62
7
  6
CONTINUOUS
 10
204.391893299
 20
76.7577496644
 30
0.0
 11
0.0
 21
77.7447457263
 31
0.0
 40
0.2611108932
 41
-0.9082229253
 42
-0.9035282083
  0
ELLIPSE
  5
545
100
AcDbEntity
  8
0
100
AcDbEllipse
 62
7
  6
CONTINUOUS
 10
204.391893299
 20
172.1195319217
 30
0.0
 11
0.0
 21
77.7447457263
 31
0.0
 40
0.2611108932
 41
-2.2380644453
 42
-2.2333697283
  0
ELLIPSE
  5
546
100
AcDbEntity
  8
0
100
AcDbEllipse
 62
7
  6
CONTINUOUS
 10
204.391893299
 20
140.0450141301
 30
0.0
 11
0.0
 21
25.9148781705
 31
0.0
 40
0.7833338002
 41
-2.2475064798
 42
-2.2380644453
  0
ELLIPSE
  5
547
100
AcDbEntity
  8
0
100
AcDbEllipse
 62
7
  6
CONTINUOUS
 10
204.391893299
 20
129.2258741612
 30
0.0
 11
20.3
 21
0.0
 31
0.0
 40
0.4255318642
 41
-0.6910092974
 42
-0.676710153
  0
ELLIPSE
  5
548
100
AcDbEntity
  8
0
100
AcDbEllipse
 62
7
  6
CONTINUOUS
 10
204.391893299
 20
79.2890363928
 30
0.0
 11
-0.0
 21
68.0266007648
 31
0.0
 40
0.2984126764
 41
-0.9082229253
 42
-0.8701597529
  0
ELLIPSE
  5
549
100
AcDbEntity
  8
0
100
AcDbEllipse
 62
7
  6
CONTINUOUS
 10
204.391893299
 20
79.2890363928
 30
0.0
 11
0.0
 21
67.0212815417
 31
0.0
 40
0.2984126764
 41
-0.8964651737
 42
-0.8574405334
  0
ELLIPSE
  5
54A
100
AcDbEntity
  8
0
100
AcDbEllipse
 62
7
  6
CONTINUOUS
 10
204.391893299
 20
169.1991840039
 30
0.0
 11
0.0
 21
102.1274526072
 31
0.0
 40
0.1958337302
 41
-2.0480877604
 42
-2.0438705185
  0
ELLIPSE
  5
54B
100
AcDbEntity
  8
0
100
AcDbEllipse
 62
7
  6
CONTINUOUS
 10
204.391893299
 20
139.8774852497
 30
0.0
 11
-0.0
 21
38.2979042987
 31
0.0
 40
0.5222217864
 41
-2.0565500114
 42
-2.0480877604
  0
ELLIPSE
  5
54C
100
AcDbEntity
  8
0
100
AcDbEllipse
 62
7
  6
CONTINUOUS
 10
204.391893299
 20
129.9439616785
 30
0.0
 11
20.0
 21
-0.0
 31
0.0
 40
0.8510640264
 41
5.7846666723
 42
5.7974316226
  0
ELLIPSE
  5
54D
100
AcDbEntity
  8
0
100
AcDbEllipse
 62
7
  6
CONTINUOUS
 10
204.391893299
 20
124.8575218856
 30
0.0
 11
20.0
 21
0.0
 31
0.0
 40
0.3191487459
 41
5.7762144572
 42
5.7846666723
  0
ELLIPSE
  5
54E
100
AcDbEntity
  8
0
100
AcDbEllipse
 62
7
  6
CONTINUOUS
 10
204.391893299
 20
50.140914918
 30
0.0
 11
0.0
 21
127.6593157591
 31
0.0
 40
0.1566669842
 41
-0.9711203736
 42
-0.966570674
  0
ELLIPSE
  5
54F
100
AcDbEntity
  8
0
100
AcDbEllipse
 62
7
  6
CONTINUOUS
 10
204.391893299
 20
93.3695041711
 30
0.0
 11
0.0
 21
51.0638082915
 31
0.0
 40
0.3916668315
 41
-0.9801776588
 42
-0.9711203736
  0
ELLIPSE
  5
550
100
AcDbEntity
  8
0
100
AcDbEllipse
 62
7
  6
CONTINUOUS
 10
204.391893299
 20
107.5875640152
 30
0.0
 11
0.0
 21
25.5319384343
 31
0.0
 40
0.7833326111
 41
-0.9981298856
 42
-0.9801776588
  0
ELLIPSE
  5
551
100
AcDbEntity
  8
0
100
AcDbEllipse
 62
7
  6
CONTINUOUS
 10
204.391893299
 20
114.5051332689
 30
0.0
 11
20.0
 21
0.0
 31
0.0
 40
0.6382975757
 41
0.5549196394
 42
0.5726664412
  0
ELLIPSE
  5
552
100
AcDbEntity
  8
0
100
AcDbEllipse
 62
7
  6
CONTINUOUS
 10
204.391893299
 20
118.5407674999
 30
0.0
 11
20.0
 21
0.0
 31
0.0
 40
0.2553192382
 41
0.5330064131
 42
0.5549196394
  0
ELLIPSE
  5
553
100
AcDbEntity
  8
0
100
AcDbEllipse
 62
7
  6
CONTINUOUS
 10
204.391893299
 20
123.0623093979
 30
0.0
 11
20.3
 21
-0.0
 31
0.0
 40
0.3191492025
 41
0.2981153688
 42
0.3136131239
  0
ELLIPSE
  5
554
100
AcDbEntity
  8
0
100
AcDbEllipse
 62
7
  6
CONTINUOUS
 10
204.391893299
 20
119.8907688854
 30
0.0
 11
20.3
 21
0.0
 31
0.0
 40
0.8510637283
 41
0.2865405065
 42
0.2981153688
  0
ELLIPSE
  5
555
100
AcDbEntity
  8
0
100
AcDbEllipse
 62
7
  6
CONTINUOUS
 10
204.391893299
 20
113.7870566004
 30
0.0
 11
0.0
 21
38.8722979478
 31
0.0
 40
0.5222227929
 41
-1.2919504323
 42
-1.2842558203
  0
ELLIPSE
  5
556
100
AcDbEntity
  8
0
100
AcDbEllipse
 62
7
  6
CONTINUOUS
 10
204.391893299
 20
95.9544926603
 30
0.0
 11
0.0
 21
103.6599575423
 31
0.0
 40
0.1958326096
 41
-1.2957913381
 42
-1.2919504323
  0
ELLIPSE
  5
557
100
AcDbEntity
  8
0
100
AcDbEllipse
 62
7
  6
CONTINUOUS
 10
204.391893299
 20
150.8164057958
 30
0.0
 11
0.0
 21
103.6599575423
 31
0.0
 40
0.1958326096
 41
-1.8496422213
 42
-1.8458013155
  0
ELLIPSE
  5
558
100
AcDbEntity
  8
0
100
AcDbEllipse
 62
7
  6
CONTINUOUS
 10
204.391893299
 20
132.9838318645
 30
0.0
 11
-0.0
 21
38.8722616486
 31
0.0
 40
0.5222232805
 41
-1.8573368333
 42
-1.8496422213
  0
ELLIPSE
  5
559
100
AcDbEntity
  8
0
100
AcDbEllipse
 62
7
  6
CONTINUOUS
 10
204.391893299
 20
126.8801315489
 30
0.0
 11
20.3
 21
0.0
 31
0.0
 40
0.8510640264
 41
-0.2981153688
 42
-0.2865405065
  0
ELLIPSE
  5
55A
100
AcDbEntity
  8
0
100
AcDbEllipse
 62
7
  6
CONTINUOUS
 10
204.391893299
 20
123.7085892594
 30
0.0
 11
20.3
 21
0.0
 31
0.0
 40
0.3191492025
 41
-0.3136131239
 42
-0.2981153688
  0
ENDSEC
  0
SECTION
  2
OBJECTS
  0
DICTIONARY
  5
C
100
AcDbDictionary
280
0
281
1
  3
ACAD_GROUP
350
D
  3
ACAD_MLINESTYLE
350
17
  3
ACAD_LAYOUT
350
1A
  3
ACAD_PLOTSETTINGS
350
19
  3
ACAD_PLOTSTYLENAME
350
E
  0
DICTIONARY
  5
D
102
{ACAD_REACTORS
330
C
102
}
100
AcDbDictionary
280
0
281
1
  0
ACDBDICTIONARYWDFLT
  5
E
102
{ACAD_REACTORS
330
C
102
}
100
AcDbDictionary
281
1
  3
Normal
350
F
100
AcDbDictionaryWithDefault
340
F
  0
DICTIONARY
  5
17
102
{ACAD_REACTORS
330
C
102
}
100
AcDbDictionary
280
0
281
1
  3
Standard
350
18
  0
DICTIONARY
  5
19
102
{ACAD_REACTORS
330
C
102
}
100
AcDbDictionary
281
1
  0
DICTIONARY
  5
1A
102
{ACAD_REACTORS
330
C
102
}
100
AcDbDictionary
281
1
  3
Model
350
55B
  3
Layout1
350
55C
  0
ACDBPLACEHOLDER
  5
F
102
{ACAD_REACTORS
330
E
102
}
  0
MLINESTYLE
  5
18
102
{ACAD_REACTORS
330
17
102
}
100
AcDbMlineStyle
  2
STANDARD
 70
0
  3

 62
256
 51
90.0
 52
90.0
 71
2
 49
0.5
 62
256
  6
BYLAYER
 49
-0.5
 62
256
  6
BYLAYER
  0
LAYOUT
  5
55B
102
{ACAD_REACTORS
330
1A
102
}
100
AcDbPlotSettings
  1

  2
none_device
  4
ISO_A4_(297.00_x_210.00_MM)
  6

 40
0.0
 41
0.0
 42
0.0
 43
0.0
 44
297.0
 45
210.0
 46
0.0
 47
0.0
 48
0.0
 49
0.0
140
0.0
141
0.0
142
1.0
143
1.0
 70
1024
 72
1
 73
0
 74
0
  7

 75
0
147
1.0
148
0.0
149
0.0
100
AcDbLayout
  1
Model
 70
0
 71
0
 10
0.0
 20
0.0
 11
297.0
 21
210.0
 12
0.0
 22
0.0
 32
0.0
 14
0.0
 24
0.0
 34
0.0
 15
0.0
 25
0.0
 35
0.0
146
0.0
 13
0.0
 23
0.0
 33
0.0
 16
1.0
 26
0.0
 36
0.0
 17
0.0
 27
1.0
 37
0.0
 76
0
330
209
345
0
346
0
  0
LAYOUT
  5
55C
102
{ACAD_REACTORS
330
1A
102
}
100
AcDbPlotSettings
  1

  2
none_device
  4
ISO_A4_(297.00_x_210.00_MM)
  6

 40
0.0
 41
0.0
 42
0.0
 43
0.0
 44
297.0
 45
210.0
 46
0.0
 47
0.0
 48
0.0
 49
0.0
140
0.0
141
0.0
142
1.0
143
1.0
 70
0
 72
1
 73
0
 74
0
  7

 75
0
147
1.0
148
0.0
149
0.0
100
AcDbLayout
  1
Layout1
 70
0
 71
1
 10
0.0
 20
0.0
 11
297.0
 21
210.0
 12
0.0
 22
0.0
 32
0.0
 14
0.0
 24
0.0
 34
0.0
 15
0.0
 25
0.0
 35
0.0
146
0.0
 13
0.0
 23
0.0
 33
0.0
 16
1.0
 26
0.0
 36
0.0
 17
0.0
 27
1.0
 37
0.0
 76
0
330
20A
345
0
346
0
  0
ENDSEC
  0
EOF
