999
DXF file: IRS-LT-M16-7907795-M35563-P-02.dxf
999
Pro/ENGINEER 2011490 by Parametric Technology Corporation
  0
SECTION
  2
HEADER
  9
$ACADVER
  1
AC1021
  9
$DWGCODEPAGE
  3
ANSI_1252
  9
$EXTMAX
 10
297.0
 20
210.0
 30
0.0
  9
$EXTMIN
 10
0.0
 20
0.0
 30
0.0
  9
$LIMMIN
 10
0.0
 20
0.0
  9
$LIMMAX
 10
297.0
 20
210.0
  9
$VIEWCTR
 10
148.5
 20
105.0
  9
$VIEWSIZE
 40
210.0
  9
$CLAYER
  8
0
  9
$LTSCALE
 40
16.335
  9
$CELTYPE
  6
BYLAYER
  9
$DIMSCALE
 40
1.0
  9
$DIMASZ
 40
3.5
  9
$DIMEXO
 40
1.85625
  9
$DIMDLI
 40
11.286
  9
$DIMEXE
 40
5.346
  9
$DIMCEN
 40
2.673
  9
$DIMLFAC
 40
1.0
  9
$DIMBLK
  1
_FILLED
  9
$DIMTXT
 40
3.5
  9
$DIMTOL
 70
1
  9
$DIMLIM
 70
0
  9
$DIMTFAC
 40
1.0
  9
$DIMTP
 40
0.005
  9
$DIMTM
 40
0.005
  9
$PDMODE
 70
3
  9
$PDSIZE
 40
0.3125
  9
$HANDSEED
  5
4E2
  9
$TILEMODE
 70
1
  9
$MEASUREMENT
 70
1
  9
$INSUNITS
 70
4
  0
ENDSEC
  0
SECTION
  2
CLASSES
  0
CLASS
  1
ACDBDICTIONARYWDFLT
  2
AcDbDictionaryWithDefault
  3
AutoCAD 2000
 90
0
 91
1
280
0
281
0
  0
CLASS
  1
ACDBPLACEHOLDER
  2
AcDbPlaceHolder
  3
AutoCAD 2000
 90
0
 91
1
280
0
281
0
  0
CLASS
  1
LAYOUT
  2
AcDbLayout
  3
AutoCAD 2000
 90
0
 91
0
280
0
281
0
  0
ENDSEC
  0
SECTION
  2
TABLES
  0
TABLE
  2
VPORT
  5
8
100
AcDbSymbolTable
 70
2
  0
VPORT
  5
1F4
100
AcDbSymbolTableRecord
100
AcDbViewportTableRecord
  2
*ACTIVE
 70
0
 10
0.0
 20
0.0
 11
1.0
 21
1.0
 12
148.5
 22
105.0
 13
0.0
 23
0.0
 14
1.0
 24
1.0
 15
0.0
 25
0.0
 16
0.0
 26
0.0
 36
1.0
 17
0.0
 27
0.0
 37
0.0
 40
210.0
 41
1.4142857143
 42
50.0
 43
0.0
 44
0.0
 50
0.0
 51
0.0
 71
0
 72
100
 73
1
 74
1
 75
0
 76
0
 77
0
 78
0
  0
ENDTAB
  0
TABLE
  2
LTYPE
  5
5
100
AcDbSymbolTable
 70
6
  0
LTYPE
  5
14
100
AcDbSymbolTableRecord
100
AcDbLinetypeTableRecord
  2
BYBLOCK
 70
0
  3

 72
65
 73
0
 40
0.0
  0
LTYPE
  5
15
100
AcDbSymbolTableRecord
100
AcDbLinetypeTableRecord
  2
BYLAYER
 70
0
  3

 72
65
 73
0
 40
0.0
  0
LTYPE
  5
16
100
AcDbSymbolTableRecord
100
AcDbLinetypeTableRecord
  2
CONTINUOUS
 70
64
  3
Solid line
 72
65
 73
0
 40
0.0
  0
LTYPE
  5
1F5
100
AcDbSymbolTableRecord
100
AcDbLinetypeTableRecord
  2
CENTER
 70
64
  3
____ _ ____ _ ____ _ ____ _ ____ _ ____ _ ____
 72
65
 73
4
 40
0.6
 49
0.375
 74
0
 49
-0.075
 74
0
 49
0.075
 74
0
 49
-0.075
 74
0
  0
LTYPE
  5
1F6
100
AcDbSymbolTableRecord
100
AcDbLinetypeTableRecord
  2
HIDDEN
 70
64
  3
- - - - - - - - - - - - - - - - - - - -
 72
65
 73
2
 40
0.2
 49
0.1
 74
0
 49
-0.1
 74
0
  0
LTYPE
  5
1F7
100
AcDbSymbolTableRecord
100
AcDbLinetypeTableRecord
  2
PHANTOM
 70
64
  3
_____ _ _ _____ _ _ _____ _ _ _____
 72
65
 73
6
 40
0.8
 49
0.45
 74
0
 49
-0.05
 74
0
 49
0.1
 74
0
 49
-0.05
 74
0
 49
0.1
 74
0
 49
-0.05
 74
0
  0
LTYPE
  5
1F8
100
AcDbSymbolTableRecord
100
AcDbLinetypeTableRecord
  2
DOT
 70
64
  3
. . . . . . . . . . . . . . . . . . . .
 72
65
 73
2
 40
0.2
 49
0.1
 74
0
 49
-0.1
 74
0
  0
LTYPE
  5
1F9
100
AcDbSymbolTableRecord
100
AcDbLinetypeTableRecord
  2
DASHED
 70
64
  3
- - - - - - - - - - - - - - - - - - - -
 72
65
 73
2
 40
0.2
 49
0.1
 74
0
 49
-0.1
 74
0
  0
ENDTAB
  0
TABLE
  2
LAYER
  5
2
100
AcDbSymbolTable
 70
36
  0
LAYER
  5
10
100
AcDbSymbolTableRecord
100
AcDbLayerTableRecord
  2
0
 70
0
 62
7
  6
CONTINUOUS
370
-3
390
F
  0
LAYER
  5
1FA
100
AcDbSymbolTableRecord
100
AcDbLayerTableRecord
  2
DEFAULT_1
 70
0
 62
7
  6
CENTER
370
-3
390
F
  0
LAYER
  5
1FB
100
AcDbSymbolTableRecord
100
AcDbLayerTableRecord
  2
DEFAULT_2
 70
0
 62
8
  6
HIDDEN
370
-3
390
F
  0
LAYER
  5
1FC
100
AcDbSymbolTableRecord
100
AcDbLayerTableRecord
  2
DEFAULT_3
 70
0
 62
7
  6
PHANTOM
370
-3
390
F
  0
LAYER
  5
1FD
100
AcDbSymbolTableRecord
100
AcDbLayerTableRecord
  2
B-ACHSEN
 70
0
 62
7
  6
CONTINUOUS
370
-3
390
F
  0
LAYER
  5
1FE
100
AcDbSymbolTableRecord
100
AcDbLayerTableRecord
  2
B-EBENEN
 70
0
 62
7
  6
CONTINUOUS
370
-3
390
F
  0
LAYER
  5
1FF
100
AcDbSymbolTableRecord
100
AcDbLayerTableRecord
  2
B-KOORSYS
 70
0
 62
7
  6
CONTINUOUS
370
-3
390
F
  0
LAYER
  5
200
100
AcDbSymbolTableRecord
100
AcDbLayerTableRecord
  2
B-PUNKTE
 70
0
 62
7
  6
CONTINUOUS
370
-3
390
F
  0
LAYER
  5
201
100
AcDbSymbolTableRecord
100
AcDbLayerTableRecord
  2
BEMASSUNG
 70
0
 62
7
  6
CONTINUOUS
370
-3
390
F
  0
LAYER
  5
202
100
AcDbSymbolTableRecord
100
AcDbLayerTableRecord
  2
BOHRUNGEN
 70
0
 62
7
  6
CONTINUOUS
370
-3
390
F
  0
LAYER
  5
203
100
AcDbSymbolTableRecord
100
AcDbLayerTableRecord
  2
FLAECHEN
 70
0
 62
7
  6
CONTINUOUS
370
-3
390
F
  0
LAYER
  5
204
100
AcDbSymbolTableRecord
100
AcDbLayerTableRecord
  2
NOTIZEN
 70
0
 62
7
  6
CONTINUOUS
370
-3
390
F
  0
LAYER
  5
205
100
AcDbSymbolTableRecord
100
AcDbLayerTableRecord
  2
RUNDUNGEN
 70
0
 62
7
  6
CONTINUOUS
370
-3
390
F
  0
LAYER
  5
206
100
AcDbSymbolTableRecord
100
AcDbLayerTableRecord
  2
VERBUNDFLAECHEN
 70
0
 62
7
  6
CONTINUOUS
370
-3
390
F
  0
ENDTAB
  0
TABLE
  2
STYLE
  5
3
100
AcDbSymbolTable
 70
1
  0
STYLE
  5
11
100
AcDbSymbolTableRecord
100
AcDbTextStyleTableRecord
  2
STANDARD
 70
0
 40
0.0
 41
0.7
 50
0.0
 71
0
 42
0.2
  3
txt
  4

  0
STYLE
  5
207
100
AcDbSymbolTableRecord
100
AcDbTextStyleTableRecord
  2
TEXTSTYLE_1
 70
0
 40
0.0
 41
0.8
 50
0.0
 71
0
 42
0.2
  3
gdt
  4

  0
ENDTAB
  0
TABLE
  2
VIEW
  5
6
100
AcDbSymbolTable
 70
0
  0
ENDTAB
  0
TABLE
  2
UCS
  5
7
100
AcDbSymbolTable
 70
0
  0
ENDTAB
  0
TABLE
  2
APPID
  5
9
100
AcDbSymbolTable
 70
1
  0
APPID
  5
208
100
AcDbSymbolTableRecord
100
AcDbRegAppTableRecord
  2
ACAD
 70
0
  0
ENDTAB
  0
TABLE
  2
BLOCK_RECORD
  5
1
100
AcDbSymbolTable
 70
0
  0
BLOCK_RECORD
  5
209
100
AcDbSymbolTableRecord
100
AcDbBlockTableRecord
  2
*Model_Space
  0
BLOCK_RECORD
  5
20A
100
AcDbSymbolTableRecord
100
AcDbBlockTableRecord
  2
*Paper_Space
  0
ENDTAB
  0
TABLE
  2
DIMSTYLE
  5
A
100
AcDbSymbolTable
 70
1
100
AcDbDimStyleTable
 71
0
  0
DIMSTYLE
105
20B
100
AcDbSymbolTableRecord
100
AcDbDimStyleTableRecord
  2
STANDARD
 70
0
  3

  4

 40
1.0
 41
3.5
 42
0.0625
 43
0.38
 44
0.18
 45
0.0
 46
0.0
 47
0.005
 48
0.005
140
3.5
141
0.09
142
0.0
143
25.4
144
1.0
145
0.0
146
1.0
147
0.09
 71
1.0
 72
0.0
 73
0
 74
0
 75
0
 76
0
 77
1
 78
8
170
0
171
2
172
0
173
0
174
0
175
0
176
0
177
0
178
5
270
2
271
3
272
3
273
2
274
2
275
0
280
0
281
0
282
0
283
1
284
8
285
0
286
0
287
3
288
0
340
11
  0
ENDTAB
  0
ENDSEC
  0
SECTION
  2
BLOCKS
  0
BLOCK
  5
20
100
AcDbEntity
  8
0
100
AcDbBlockBegin
  2
*Model_Space
 70
0
 10
0.0
 20
0.0
 30
0.0
  3
*Model_Space
  1

  0
ENDBLK
  5
21
100
AcDbEntity
  8
0
100
AcDbBlockEnd
  0
BLOCK
  5
1C
100
AcDbEntity
  8
0
100
AcDbBlockBegin
  2
*Paper_Space
 70
0
 10
0.0
 20
0.0
 30
0.0
  3
*Paper_Space
  1

  0
ENDBLK
  5
1D
100
AcDbEntity
  8
0
100
AcDbBlockEnd
  0
ENDSEC
  0
SECTION
  2
ENTITIES
  0
MTEXT
  5
20C
100
AcDbEntity
  8
0
100
AcDbMText
 62
5
  6
CONTINUOUS
  7
STANDARD
 71
1
 72
1
 10
193.8327853561
 20
130.4472019404
 30
0.0
 11
0.0
 21
1.0
 31
0.0
 44
0.9
  1
RUD
 40
3.5
 41
8.6666666667
  0
MTEXT
  5
20D
100
AcDbEntity
  8
0
100
AcDbMText
 62
5
  6
CONTINUOUS
  7
STANDARD
 71
1
 72
1
 10
201.1014317183
 20
129.8682935496
 30
0.0
 11
0.0
 21
1.0
 31
0.0
 44
0.9
  1
IRS-LT M16
 40
3.5
 41
26.6666666667
  0
MTEXT
  5
20E
100
AcDbEntity
  8
0
100
AcDbMText
 62
5
  6
CONTINUOUS
  7
STANDARD
 71
1
 72
1
 10
87.6969367112
 20
55.704748556
 30
0.0
 11
1.0
 21
0.0
 31
0.0
 44
0.9
  1
RUD
 40
3.5
 41
8.6666666667
  0
MTEXT
  5
20F
100
AcDbEntity
  8
0
100
AcDbMText
 62
5
  6
CONTINUOUS
  7
STANDARD
 71
1
 72
1
 10
87.1763780755
 20
48.981250671
 30
0.0
 11
1.0
 21
0.0
 31
0.0
 44
0.9
  1
IRS-LT M16
 40
3.5
 41
26.6666666667
  0
LINE
  5
210
100
AcDbEntity
  8
0
100
AcDbLine
 62
7
  6
CONTINUOUS
 10
0.0
 20
0.0
 11
0.0
 21
210.0
  0
LINE
  5
211
100
AcDbEntity
  8
0
100
AcDbLine
 62
7
  6
CONTINUOUS
 10
0.0
 20
0.0
 11
297.0
 21
0.0
  0
LINE
  5
212
100
AcDbEntity
  8
0
100
AcDbLine
 62
7
  6
CONTINUOUS
 10
0.0
 20
210.0
 11
297.0
 21
210.0
  0
LINE
  5
213
100
AcDbEntity
  8
0
100
AcDbLine
 62
7
  6
CONTINUOUS
 10
297.0
 20
0.0
 11
297.0
 21
210.0
  0
LINE
  5
214
100
AcDbEntity
  8
B-ACHSEN
100
AcDbLine
 62
7
  6
CONTINUOUS
 10
91.5880867387
 20
98.0507343135
 11
78.1880867387
 21
98.0507343135
  0
LINE
  5
215
100
AcDbEntity
  8
RUNDUNGEN
100
AcDbLine
 62
7
  6
CONTINUOUS
 10
63.0751310939
 20
175.5284743589
 11
83.3573530093
 21
183.9296457513
  0
LINE
  5
216
100
AcDbEntity
  8
B-ACHSEN
100
AcDbLine
 62
7
  6
CONTINUOUS
 10
92.8880867387
 20
99.3507343135
 11
76.8880867387
 21
99.3507343135
  0
LINE
  5
217
100
AcDbEntity
  8
0
100
AcDbLine
 62
7
  6
CONTINUOUS
 10
76.1435743397
 20
178.672067437
 11
75.8352410877
 21
178.4637479573
  0
LINE
  5
218
100
AcDbEntity
  8
0
100
AcDbLine
 62
7
  6
CONTINUOUS
 10
76.4130393319
 20
178.7836834913
 11
76.1435743397
 21
178.672067437
  0
LINE
  5
219
100
AcDbEntity
  8
0
100
AcDbLine
 62
7
  6
CONTINUOUS
 10
74.5267851578
 20
178.0023714303
 11
74.1225878624
 21
177.8349474287
  0
LINE
  5
21A
100
AcDbEntity
  8
0
100
AcDbLine
 62
7
  6
CONTINUOUS
 10
73.1794609681
 20
177.444291478
 11
72.5731650249
 21
177.1931554755
  0
LINE
  5
21B
100
AcDbEntity
  8
0
100
AcDbLine
 62
7
  6
CONTINUOUS
 10
70.5521785475
 20
176.3560354672
 11
69.9458826043
 21
176.1048994647
  0
LINE
  5
21C
100
AcDbEntity
  8
0
100
AcDbLine
 62
7
  6
CONTINUOUS
 10
76.2186968759
 20
178.3001658859
 11
76.6228937859
 21
178.4675897279
  0
LINE
  5
21D
100
AcDbEntity
  8
0
100
AcDbLine
 62
7
  6
CONTINUOUS
 10
77.3328099642
 20
178.2780246478
 11
77.6696413008
 21
178.4175447556
  0
LINE
  5
21E
100
AcDbEntity
  8
0
100
AcDbLine
 62
7
  6
CONTINUOUS
 10
76.9648662539
 20
177.6419951577
 11
76.6280353028
 21
177.5024752095
  0
LINE
  5
21F
100
AcDbEntity
  8
0
100
AcDbLine
 62
7
  6
CONTINUOUS
 10
76.7031578389
 20
177.1305736584
 11
77.1747214788
 21
177.3259017136
  0
LINE
  5
220
100
AcDbEntity
  8
RUNDUNGEN
100
AcDbLine
 62
7
  6
CONTINUOUS
 10
52.5091753009
 20
153.081468043
 11
60.9103466933
 21
173.3636899583
  0
LINE
  5
221
100
AcDbEntity
  8
0
100
AcDbLine
 62
7
  6
CONTINUOUS
 10
76.0450959271
 20
178.1476543536
 11
76.2186968759
 21
178.3001658859
  0
LINE
  5
222
100
AcDbEntity
  8
0
100
AcDbLine
 62
7
  6
CONTINUOUS
 10
76.5295568902
 20
176.9780621261
 11
76.7031578389
 21
177.1305736584
  0
LINE
  5
223
100
AcDbEntity
  8
0
100
AcDbLine
 62
7
  6
CONTINUOUS
 10
76.6280353028
 20
177.5024752095
 11
76.3197020507
 21
177.2941557299
  0
LINE
  5
224
100
AcDbEntity
  8
0
100
AcDbLine
 62
7
  6
CONTINUOUS
 10
77.8197973041
 20
175.5780090213
 11
78.1281309391
 21
175.7863286666
  0
LINE
  5
225
100
AcDbEntity
  8
0
100
AcDbLine
 62
7
  6
CONTINUOUS
 10
77.7446755189
 20
175.94991094
 11
77.2731118791
 21
175.7545828848
  0
LINE
  5
226
100
AcDbEntity
  8
0
100
AcDbLine
 62
7
  6
CONTINUOUS
 10
71.2852746176
 20
172.8713211009
 11
71.689471913
 21
173.0387451026
  0
LINE
  5
227
100
AcDbEntity
  8
0
100
AcDbLine
 62
7
  6
CONTINUOUS
 10
72.6325989037
 20
173.4294010932
 11
73.1715285989
 21
173.6526330821
  0
LINE
  5
228
100
AcDbEntity
  8
0
100
AcDbLine
 62
7
  6
CONTINUOUS
 10
74.1146556859
 20
174.0432891126
 11
74.5188529814
 21
174.2107131142
  0
LINE
  5
229
100
AcDbEntity
  8
0
100
AcDbLine
 62
7
  6
CONTINUOUS
 10
75.4619798756
 20
174.6013690649
 11
75.8661771711
 21
174.7687930665
  0
LINE
  5
22A
100
AcDbEntity
  8
0
100
AcDbLine
 62
7
  6
CONTINUOUS
 10
77.482966353
 20
175.4384890732
 11
77.8197973041
 21
175.5780090213
  0
LINE
  5
22B
100
AcDbEntity
  8
B-ACHSEN
100
AcDbLine
 62
7
  6
CONTINUOUS
 10
76.8880867387
 20
99.3507343135
 11
78.1880867387
 21
98.0507343135
  0
LINE
  5
22C
100
AcDbEntity
  8
0
100
AcDbLine
 62
7
  6
CONTINUOUS
 10
75.8352410877
 20
178.4637479573
 11
75.5839032336
 21
178.1178294148
  0
LINE
  5
22D
100
AcDbEntity
  8
0
100
AcDbLine
 62
7
  6
CONTINUOUS
 10
77.9182764677
 20
176.1024224722
 11
77.7446755189
 21
175.94991094
  0
LINE
  5
22E
100
AcDbEntity
  8
0
100
AcDbLine
 62
7
  6
CONTINUOUS
 10
92.7723940988
 20
178.7865650359
 11
92.3889384431
 21
178.6229829095
  0
LINE
  5
22F
100
AcDbEntity
  8
0
100
AcDbLine
 62
7
  6
CONTINUOUS
 10
93.8554829186
 20
177.2094834233
 11
91.2567864021
 21
176.2708069735
  0
LINE
  5
230
100
AcDbEntity
  8
0
100
AcDbLine
 62
7
  6
CONTINUOUS
 10
91.7957161455
 20
176.0475749647
 11
94.1068209654
 21
176.8635648009
  0
LINE
  5
231
100
AcDbEntity
  8
0
100
AcDbLine
 62
7
  6
CONTINUOUS
 10
75.8999926774
 20
177.9263432898
 11
76.0450959271
 21
178.1476543536
  0
LINE
  5
232
100
AcDbEntity
  8
0
100
AcDbLine
 62
7
  6
CONTINUOUS
 10
76.3197020507
 20
177.2941557299
 11
76.0294955513
 21
176.8515336024
  0
LINE
  5
233
100
AcDbEntity
  8
0
100
AcDbLine
 62
7
  6
CONTINUOUS
 10
76.3844536405
 20
176.7567510624
 11
76.5295568902
 21
176.9780621261
  0
LINE
  5
234
100
AcDbEntity
  8
0
100
AcDbLine
 62
7
  6
CONTINUOUS
 10
78.0633797174
 20
176.323733536
 11
77.9182764677
 21
176.1024224722
  0
LINE
  5
235
100
AcDbEntity
  8
0
100
AcDbLine
 62
7
  6
CONTINUOUS
 10
78.1281309391
 20
175.7863286666
 11
78.3794691711
 21
176.1322473869
  0
LINE
  5
236
100
AcDbEntity
  8
0
100
AcDbLine
 62
7
  6
CONTINUOUS
 10
92.5444125067
 20
178.2361687842
 11
92.7646380516
 21
178.3867593714
  0
LINE
  5
237
100
AcDbEntity
  8
0
100
AcDbLine
 62
7
  6
CONTINUOUS
 10
97.1019587983
 20
177.2350116128
 11
96.4982776098
 21
176.9208388943
  0
LINE
  5
238
100
AcDbEntity
  8
0
100
AcDbLine
 62
7
  6
CONTINUOUS
 10
96.2702959378
 20
176.3704424499
 11
96.8739772062
 21
176.6846153612
  0
LINE
  5
239
100
AcDbEntity
  8
B-ACHSEN
100
AcDbLine
 62
7
  6
CONTINUOUS
 10
92.8880867387
 20
116.0507343135
 11
76.8880867387
 21
116.0507343135
  0
LINE
  5
23A
100
AcDbEntity
  8
RUNDUNGEN
100
AcDbLine
 62
7
  6
CONTINUOUS
 10
61.1608460226
 20
129.1330197907
 11
52.5091753009
 21
150.0200005841
  0
LINE
  5
23B
100
AcDbEntity
  8
0
100
AcDbLine
 62
7
  6
CONTINUOUS
 10
74.1225878624
 20
177.8349474287
 11
73.91787446
 21
177.1859267068
  0
LINE
  5
23C
100
AcDbEntity
  8
0
100
AcDbLine
 62
7
  6
CONTINUOUS
 10
76.3067163497
 20
176.5633438925
 11
76.3844536405
 21
176.7567510624
  0
LINE
  5
23D
100
AcDbEntity
  8
0
100
AcDbLine
 62
7
  6
CONTINUOUS
 10
94.1068209654
 20
176.8635648009
 11
94.3270465585
 21
177.0141553681
  0
LINE
  5
23E
100
AcDbEntity
  8
B-ACHSEN
100
AcDbLine
 62
7
  6
CONTINUOUS
 10
91.3880867387
 20
117.5507343135
 11
78.3880867387
 21
117.5507343135
  0
LINE
  5
23F
100
AcDbEntity
  8
0
100
AcDbLine
 62
7
  6
CONTINUOUS
 10
75.5839032336
 20
178.1178294148
 11
75.495795382
 21
177.7589192882
  0
LINE
  5
240
100
AcDbEntity
  8
0
100
AcDbLine
 62
7
  6
CONTINUOUS
 10
74.1458561319
 20
176.6355302625
 11
74.3505694545
 21
177.284551177
  0
LINE
  5
241
100
AcDbEntity
  8
0
100
AcDbLine
 62
7
  6
CONTINUOUS
 10
94.1042062107
 20
177.428873522
 11
93.8554829186
 21
177.2094834233
  0
LINE
  5
242
100
AcDbEntity
  8
0
100
AcDbLine
 62
7
  6
CONTINUOUS
 10
94.6250970692
 20
174.8756070129
 11
93.9074252374
 21
174.2862359924
  0
LINE
  5
243
100
AcDbEntity
  8
0
100
AcDbLine
 62
7
  6
CONTINUOUS
 10
94.2442563813
 20
174.1467159644
 11
94.9619284058
 21
174.7360869051
  0
LINE
  5
244
100
AcDbEntity
  8
0
100
AcDbLine
 62
7
  6
CONTINUOUS
 10
89.5880867387
 20
124.0507343135
 11
89.9214195634
 21
124.1358406938
  0
LINE
  5
245
100
AcDbEntity
  8
B-ACHSEN
100
AcDbLine
 62
7
  6
CONTINUOUS
 10
67.3880867387
 20
122.0507343135
 11
102.3880867387
 21
122.0507343135
  0
LINE
  5
246
100
AcDbEntity
  8
0
100
AcDbLine
 62
7
  6
CONTINUOUS
 10
75.5214195634
 20
124.1358406938
 11
75.8547527696
 21
124.0507343135
  0
LINE
  5
247
100
AcDbEntity
  8
0
100
AcDbLine
 62
7
  6
CONTINUOUS
 10
75.8547527696
 20
124.5613726101
 11
75.5880863573
 21
124.646478983
  0
LINE
  5
248
100
AcDbEntity
  8
0
100
AcDbLine
 62
7
  6
CONTINUOUS
 10
75.2547527696
 20
124.3060534618
 11
75.5214195634
 21
124.1358406938
  0
LINE
  5
249
100
AcDbEntity
  8
0
100
AcDbLine
 62
7
  6
CONTINUOUS
 10
75.5880863573
 20
124.646478983
 11
75.3880863573
 21
124.8166917882
  0
LINE
  5
24A
100
AcDbEntity
  8
0
100
AcDbLine
 62
7
  6
CONTINUOUS
 10
74.9880863573
 20
124.646478983
 11
75.2547527696
 21
124.3060534618
  0
LINE
  5
24B
100
AcDbEntity
  8
B-ACHSEN
100
AcDbLine
 62
7
  6
CONTINUOUS
 10
67.3880867387
 20
122.0507343135
 11
67.3880867387
 21
123.2070449393
  0
LINE
  5
24C
100
AcDbEntity
  8
0
100
AcDbLine
 62
7
  6
CONTINUOUS
 10
75.8507530857
 20
177.6641365885
 11
75.8999926774
 21
177.9263432898
  0
LINE
  5
24D
100
AcDbEntity
  8
0
100
AcDbLine
 62
7
  6
CONTINUOUS
 10
78.3794691711
 20
176.1322473869
 11
78.4675770128
 21
176.4911575376
  0
LINE
  5
24E
100
AcDbEntity
  8
0
100
AcDbLine
 62
7
  6
CONTINUOUS
 10
92.3889384431
 20
178.6229829095
 11
92.2075814292
 21
178.3756887848
  0
LINE
  5
24F
100
AcDbEntity
  8
0
100
AcDbLine
 62
7
  6
CONTINUOUS
 10
79.3214195634
 20
124.0507343135
 11
79.6547531511
 21
124.1358406938
  0
LINE
  5
250
100
AcDbEntity
  8
0
100
AcDbLine
 62
7
  6
CONTINUOUS
 10
76.1214195634
 20
124.0507343135
 11
76.4547527696
 21
124.1358406938
  0
LINE
  5
251
100
AcDbEntity
  8
0
100
AcDbLine
 62
7
  6
CONTINUOUS
 10
71.7214195634
 20
124.0507343135
 11
72.1214195634
 21
124.0507343135
  0
LINE
  5
252
100
AcDbEntity
  8
0
100
AcDbLine
 62
7
  6
CONTINUOUS
 10
73.7880861665
 20
124.0507343135
 11
74.2547529604
 21
124.0507343135
  0
LINE
  5
253
100
AcDbEntity
  8
0
100
AcDbLine
 62
7
  6
CONTINUOUS
 10
75.8547527696
 20
124.0507343135
 11
76.1214195634
 21
124.0507343135
  0
LINE
  5
254
100
AcDbEntity
  8
0
100
AcDbLine
 62
7
  6
CONTINUOUS
 10
77.7214195634
 20
124.0507343135
 11
79.3214195634
 21
124.0507343135
  0
LINE
  5
255
100
AcDbEntity
  8
0
100
AcDbLine
 62
7
  6
CONTINUOUS
 10
84.1214195634
 20
124.0507343135
 11
84.5214195634
 21
124.0507343135
  0
LINE
  5
256
100
AcDbEntity
  8
0
100
AcDbLine
 62
7
  6
CONTINUOUS
 10
85.0547523881
 20
124.0507343135
 11
85.4547523881
 21
124.0507343135
  0
LINE
  5
257
100
AcDbEntity
  8
0
100
AcDbLine
 62
7
  6
CONTINUOUS
 10
87.1214195634
 20
124.0507343135
 11
87.5880867387
 21
124.0507343135
  0
LINE
  5
258
100
AcDbEntity
  8
0
100
AcDbLine
 62
7
  6
CONTINUOUS
 10
89.0547523881
 20
124.0507343135
 11
89.5880867387
 21
124.0507343135
  0
LINE
  5
259
100
AcDbEntity
  8
0
100
AcDbLine
 62
7
  6
CONTINUOUS
 10
92.5880867387
 20
124.0507343135
 11
94.9880867387
 21
124.0507343135
  0
LINE
  5
25A
100
AcDbEntity
  8
0
100
AcDbLine
 62
7
  6
CONTINUOUS
 10
96.5880867387
 20
124.0507343135
 11
96.9880867387
 21
124.0507343135
  0
LINE
  5
25B
100
AcDbEntity
  8
0
100
AcDbLine
 62
7
  6
CONTINUOUS
 10
94.9880867387
 20
124.5613726101
 11
92.9880867387
 21
124.5613726101
  0
LINE
  5
25C
100
AcDbEntity
  8
0
100
AcDbLine
 62
7
  6
CONTINUOUS
 10
89.5880867387
 20
124.5613726101
 11
89.0547523881
 21
124.5613726101
  0
LINE
  5
25D
100
AcDbEntity
  8
0
100
AcDbLine
 62
7
  6
CONTINUOUS
 10
79.3214195634
 20
124.5613726101
 11
78.1214195634
 21
124.5613726101
  0
LINE
  5
25E
100
AcDbEntity
  8
0
100
AcDbLine
 62
7
  6
CONTINUOUS
 10
76.1214195634
 20
124.5613726101
 11
75.8547527696
 21
124.5613726101
  0
LINE
  5
25F
100
AcDbEntity
  8
0
100
AcDbLine
 62
7
  6
CONTINUOUS
 10
88.5214195634
 20
125.1571172796
 11
88.1214195634
 21
125.1571172796
  0
LINE
  5
260
100
AcDbEntity
  8
0
100
AcDbLine
 62
7
  6
CONTINUOUS
 10
91.1214195634
 20
125.4975427709
 11
92.0547523881
 21
125.4975427709
  0
LINE
  5
261
100
AcDbEntity
  8
0
100
AcDbLine
 62
7
  6
CONTINUOUS
 10
72.1214195634
 20
125.8379683815
 11
73.254752865
 21
125.8379683815
  0
LINE
  5
262
100
AcDbEntity
  8
0
100
AcDbLine
 62
7
  6
CONTINUOUS
 10
85.4547523881
 20
125.8379683815
 11
86.5880867387
 21
125.8379683815
  0
LINE
  5
263
100
AcDbEntity
  8
0
100
AcDbLine
 62
7
  6
CONTINUOUS
 10
89.1880867387
 20
125.8379683815
 11
89.5880867387
 21
125.8379683815
  0
LINE
  5
264
100
AcDbEntity
  8
0
100
AcDbLine
 62
7
  6
CONTINUOUS
 10
92.0547523881
 20
125.9230747543
 11
91.1214195634
 21
125.9230747543
  0
LINE
  5
265
100
AcDbEntity
  8
0
100
AcDbLine
 62
7
  6
CONTINUOUS
 10
89.5880867387
 20
126.3486066185
 11
89.1880867387
 21
126.3486066185
  0
LINE
  5
266
100
AcDbEntity
  8
0
100
AcDbLine
 62
7
  6
CONTINUOUS
 10
86.7214195634
 20
126.3486066185
 11
85.4547523881
 21
126.3486066185
  0
LINE
  5
267
100
AcDbEntity
  8
0
100
AcDbLine
 62
7
  6
CONTINUOUS
 10
73.3880861665
 20
126.3486066185
 11
72.1214195634
 21
126.3486066185
  0
LINE
  5
268
100
AcDbEntity
  8
0
100
AcDbLine
 62
7
  6
CONTINUOUS
 10
89.9880867387
 20
127.1145642124
 11
90.3880867387
 21
127.1145642124
  0
LINE
  5
269
100
AcDbEntity
  8
0
100
AcDbLine
 62
7
  6
CONTINUOUS
 10
73.6547529604
 20
127.9656279407
 11
73.3214195634
 21
128.0507343135
  0
LINE
  5
26A
100
AcDbEntity
  8
0
100
AcDbLine
 62
7
  6
CONTINUOUS
 10
88.7214195634
 20
124.1358406938
 11
89.0547523881
 21
124.0507343135
  0
LINE
  5
26B
100
AcDbEntity
  8
0
100
AcDbLine
 62
7
  6
CONTINUOUS
 10
79.6547531511
 20
127.9656279407
 11
79.3214195634
 21
128.0507343135
  0
LINE
  5
26C
100
AcDbEntity
  8
0
100
AcDbLine
 62
7
  6
CONTINUOUS
 10
79.3214195634
 20
127.5400960765
 11
79.5880859758
 21
127.4549897037
  0
LINE
  5
26D
100
AcDbEntity
  8
0
100
AcDbLine
 62
7
  6
CONTINUOUS
 10
89.0547523881
 20
124.5613726101
 11
88.7880867387
 21
124.646478983
  0
LINE
  5
26E
100
AcDbEntity
  8
0
100
AcDbLine
 62
7
  6
CONTINUOUS
 10
73.3880861665
 20
127.6252024494
 11
73.5880861665
 21
127.5400960765
  0
LINE
  5
26F
100
AcDbEntity
  8
0
100
AcDbLine
 62
7
  6
CONTINUOUS
 10
73.9214195634
 20
127.7103088222
 11
73.6547529604
 21
127.9656279407
  0
LINE
  5
270
100
AcDbEntity
  8
0
100
AcDbLine
 62
7
  6
CONTINUOUS
 10
73.5880861665
 20
127.5400960765
 11
73.7214195634
 21
127.3698833309
  0
LINE
  5
271
100
AcDbEntity
  8
0
100
AcDbLine
 62
7
  6
CONTINUOUS
 10
74.1214195634
 20
127.3698833309
 11
73.9214195634
 21
127.7103088222
  0
LINE
  5
272
100
AcDbEntity
  8
0
100
AcDbLine
 62
7
  6
CONTINUOUS
 10
75.3880863573
 20
124.8166917882
 11
75.2547527696
 21
125.0720109067
  0
LINE
  5
273
100
AcDbEntity
  8
0
100
AcDbLine
 62
7
  6
CONTINUOUS
 10
74.8547529604
 20
124.9869045339
 11
74.9880863573
 21
124.646478983
  0
LINE
  5
274
100
AcDbEntity
  8
0
100
AcDbLine
 62
7
  6
CONTINUOUS
 10
74.2547529604
 20
124.0507343135
 11
73.6547529604
 21
126.0081811271
  0
LINE
  5
275
100
AcDbEntity
  8
0
100
AcDbLine
 62
7
  6
CONTINUOUS
 10
73.254752865
 20
125.8379683815
 11
73.7880861665
 21
124.0507343135
  0
LINE
  5
276
100
AcDbEntity
  8
0
100
AcDbLine
 62
7
  6
CONTINUOUS
 10
73.7214195634
 20
127.3698833309
 11
73.7880861665
 21
127.1145642124
  0
LINE
  5
277
100
AcDbEntity
  8
0
100
AcDbLine
 62
7
  6
CONTINUOUS
 10
73.1715285989
 20
173.6526330821
 11
73.0602406627
 21
176.5888721618
  0
LINE
  5
278
100
AcDbEntity
  8
0
100
AcDbLine
 62
7
  6
CONTINUOUS
 10
71.7214195634
 20
128.0507343135
 11
71.7214195634
 21
124.0507343135
  0
LINE
  5
279
100
AcDbEntity
  8
0
100
AcDbLine
 62
7
  6
CONTINUOUS
 10
72.1214195634
 20
124.0507343135
 11
72.1214195634
 21
125.8379683815
  0
LINE
  5
27A
100
AcDbEntity
  8
0
100
AcDbLine
 62
7
  6
CONTINUOUS
 10
72.1214195634
 20
126.3486066185
 11
72.1214195634
 21
127.6252024494
  0
LINE
  5
27B
100
AcDbEntity
  8
0
100
AcDbLine
 62
7
  6
CONTINUOUS
 10
73.7880861665
 20
127.1145642124
 11
73.7880861665
 21
126.8592448555
  0
LINE
  5
27C
100
AcDbEntity
  8
0
100
AcDbLine
 62
7
  6
CONTINUOUS
 10
74.1880861665
 20
126.7741384826
 11
74.1880861665
 21
127.1145642124
  0
LINE
  5
27D
100
AcDbEntity
  8
0
100
AcDbLine
 62
7
  6
CONTINUOUS
 10
78.1126185182
 20
176.5859399662
 11
78.0633797174
 21
176.323733536
  0
LINE
  5
27E
100
AcDbEntity
  8
0
100
AcDbLine
 62
7
  6
CONTINUOUS
 10
94.3270465585
 20
177.0141553681
 11
94.5084035062
 21
177.2614495203
  0
LINE
  5
27F
100
AcDbEntity
  8
0
100
AcDbLine
 62
7
  6
CONTINUOUS
 10
78.1214195634
 20
127.5400960765
 11
79.3214195634
 21
127.5400960765
  0
LINE
  5
280
100
AcDbEntity
  8
0
100
AcDbLine
 62
7
  6
CONTINUOUS
 10
89.1880867387
 20
127.5400960765
 11
89.5880867387
 21
127.5400960765
  0
LINE
  5
281
100
AcDbEntity
  8
0
100
AcDbLine
 62
7
  6
CONTINUOUS
 10
72.1214195634
 20
127.6252024494
 11
73.3880861665
 21
127.6252024494
  0
LINE
  5
282
100
AcDbEntity
  8
0
100
AcDbLine
 62
7
  6
CONTINUOUS
 10
85.4547523881
 20
127.6252024494
 11
86.7214195634
 21
127.6252024494
  0
LINE
  5
283
100
AcDbEntity
  8
0
100
AcDbLine
 62
7
  6
CONTINUOUS
 10
95.5214195634
 20
127.6252024494
 11
96.5880867387
 21
127.6252024494
  0
LINE
  5
284
100
AcDbEntity
  8
0
100
AcDbLine
 62
7
  6
CONTINUOUS
 10
96.9880867387
 20
127.6252024494
 11
98.054753914
 21
127.6252024494
  0
LINE
  5
285
100
AcDbEntity
  8
0
100
AcDbLine
 62
7
  6
CONTINUOUS
 10
98.054753914
 20
128.0507343135
 11
95.5214195634
 21
128.0507343135
  0
LINE
  5
286
100
AcDbEntity
  8
0
100
AcDbLine
 62
7
  6
CONTINUOUS
 10
92.9880867387
 20
128.0507343135
 11
92.5880867387
 21
128.0507343135
  0
LINE
  5
287
100
AcDbEntity
  8
0
100
AcDbLine
 62
7
  6
CONTINUOUS
 10
89.5214195634
 20
128.0507343135
 11
89.1880867387
 21
128.0507343135
  0
LINE
  5
288
100
AcDbEntity
  8
0
100
AcDbLine
 62
7
  6
CONTINUOUS
 10
86.6547523881
 20
128.0507343135
 11
85.0547523881
 21
128.0507343135
  0
LINE
  5
289
100
AcDbEntity
  8
0
100
AcDbLine
 62
7
  6
CONTINUOUS
 10
84.5214195634
 20
128.0507343135
 11
84.1214195634
 21
128.0507343135
  0
LINE
  5
28A
100
AcDbEntity
  8
0
100
AcDbLine
 62
7
  6
CONTINUOUS
 10
79.3214195634
 20
128.0507343135
 11
77.7214195634
 21
128.0507343135
  0
LINE
  5
28B
100
AcDbEntity
  8
0
100
AcDbLine
 62
7
  6
CONTINUOUS
 10
77.1880863573
 20
128.0507343135
 11
76.7880863573
 21
128.0507343135
  0
LINE
  5
28C
100
AcDbEntity
  8
0
100
AcDbLine
 62
7
  6
CONTINUOUS
 10
75.1880863573
 20
128.0507343135
 11
74.7880861665
 21
128.0507343135
  0
LINE
  5
28D
100
AcDbEntity
  8
0
100
AcDbLine
 62
7
  6
CONTINUOUS
 10
73.3214195634
 20
128.0507343135
 11
71.7214195634
 21
128.0507343135
  0
LINE
  5
28E
100
AcDbEntity
  8
RUNDUNGEN
100
AcDbLine
 62
7
  6
CONTINUOUS
 10
107.2295081561
 20
128.2070449393
 11
106.148194594
 21
128.2070449393
  0
LINE
  5
28F
100
AcDbEntity
  8
RUNDUNGEN
100
AcDbLine
 62
7
  6
CONTINUOUS
 10
63.6279788834
 20
128.2070449393
 11
62.5466653213
 21
128.2070449393
  0
LINE
  5
290
100
AcDbEntity
  8
0
100
AcDbLine
 62
7
  6
CONTINUOUS
 10
89.9214195634
 20
126.2635002456
 11
89.5880867387
 21
126.3486066185
  0
LINE
  5
291
100
AcDbEntity
  8
0
100
AcDbLine
 62
7
  6
CONTINUOUS
 10
86.9880867387
 20
127.9656279407
 11
86.6547523881
 21
128.0507343135
  0
LINE
  5
292
100
AcDbEntity
  8
0
100
AcDbLine
 62
7
  6
CONTINUOUS
 10
89.8547523881
 20
127.9656279407
 11
89.5214195634
 21
128.0507343135
  0
LINE
  5
293
100
AcDbEntity
  8
0
100
AcDbLine
 62
7
  6
CONTINUOUS
 10
88.9214195634
 20
125.9230747543
 11
89.1880867387
 21
125.8379683815
  0
LINE
  5
294
100
AcDbEntity
  8
0
100
AcDbLine
 62
7
  6
CONTINUOUS
 10
89.5880867387
 20
125.8379683815
 11
89.8547523881
 21
125.7528620086
  0
LINE
  5
295
100
AcDbEntity
  8
0
100
AcDbLine
 62
7
  6
CONTINUOUS
 10
89.1880867387
 20
126.3486066185
 11
88.9880867387
 21
126.4337129913
  0
LINE
  5
296
100
AcDbEntity
  8
0
100
AcDbLine
 62
7
  6
CONTINUOUS
 10
86.7214195634
 20
127.6252024494
 11
86.9214195634
 21
127.5400960765
  0
LINE
  5
297
100
AcDbEntity
  8
0
100
AcDbLine
 62
7
  6
CONTINUOUS
 10
89.5880867387
 20
127.5400960765
 11
89.7880867387
 21
127.4549897037
  0
LINE
  5
298
100
AcDbEntity
  8
0
100
AcDbLine
 62
7
  6
CONTINUOUS
 10
79.9214195634
 20
127.795415195
 11
79.6547531511
 21
127.9656279407
  0
LINE
  5
299
100
AcDbEntity
  8
0
100
AcDbLine
 62
7
  6
CONTINUOUS
 10
88.6547523881
 20
126.0932875
 11
88.9214195634
 21
125.9230747543
  0
LINE
  5
29A
100
AcDbEntity
  8
0
100
AcDbLine
 62
7
  6
CONTINUOUS
 10
88.3880867387
 20
124.3911598347
 11
88.7214195634
 21
124.1358406938
  0
LINE
  5
29B
100
AcDbEntity
  8
0
100
AcDbLine
 62
7
  6
CONTINUOUS
 10
79.5880859758
 20
127.4549897037
 11
79.7880859758
 21
127.284776958
  0
LINE
  5
29C
100
AcDbEntity
  8
B-ACHSEN
100
AcDbLine
 62
7
  6
CONTINUOUS
 10
91.3880867387
 20
117.5507343135
 11
92.8880867387
 21
116.0507343135
  0
LINE
  5
29D
100
AcDbEntity
  8
0
100
AcDbLine
 62
7
  6
CONTINUOUS
 10
80.1880859758
 20
127.4549897037
 11
79.9214195634
 21
127.795415195
  0
LINE
  5
29E
100
AcDbEntity
  8
0
100
AcDbLine
 62
7
  6
CONTINUOUS
 10
79.7880859758
 20
127.284776958
 11
79.9214195634
 21
127.0294576011
  0
LINE
  5
29F
100
AcDbEntity
  8
0
100
AcDbLine
 62
7
  6
CONTINUOUS
 10
74.1880861665
 20
127.1145642124
 11
74.1214195634
 21
127.3698833309
  0
LINE
  5
2A0
100
AcDbEntity
  8
0
100
AcDbLine
 62
7
  6
CONTINUOUS
 10
75.2547527696
 20
125.0720109067
 11
75.1880863573
 21
125.4124363981
  0
LINE
  5
2A1
100
AcDbEntity
  8
0
100
AcDbLine
 62
7
  6
CONTINUOUS
 10
74.7880861665
 20
125.4124363981
 11
74.8547529604
 21
124.9869045339
  0
LINE
  5
2A2
100
AcDbEntity
  8
0
100
AcDbLine
 62
7
  6
CONTINUOUS
 10
72.5731650249
 20
177.1931554755
 11
72.7595752844
 21
173.885014813
  0
LINE
  5
2A3
100
AcDbEntity
  8
0
100
AcDbLine
 62
7
  6
CONTINUOUS
 10
75.495795382
 20
177.7589192882
 11
75.5035512681
 21
177.3591133312
  0
LINE
  5
2A4
100
AcDbEntity
  8
0
100
AcDbLine
 62
7
  6
CONTINUOUS
 10
74.7880861665
 20
128.0507343135
 11
74.7880861665
 21
125.4124363981
  0
LINE
  5
2A5
100
AcDbEntity
  8
0
100
AcDbLine
 62
7
  6
CONTINUOUS
 10
75.1880863573
 20
125.4124363981
 11
75.1880863573
 21
128.0507343135
  0
LINE
  5
2A6
100
AcDbEntity
  8
0
100
AcDbLine
 62
7
  6
CONTINUOUS
 10
76.7880863573
 20
128.0507343135
 11
76.7880863573
 21
125.4124363981
  0
LINE
  5
2A7
100
AcDbEntity
  8
B-ACHSEN
100
AcDbLine
 62
7
  6
CONTINUOUS
 10
76.8880867387
 20
116.0507343135
 11
76.8880867387
 21
99.3507343135
  0
LINE
  5
2A8
100
AcDbEntity
  8
0
100
AcDbLine
 62
7
  6
CONTINUOUS
 10
77.1880863573
 20
125.4124363981
 11
77.1880863573
 21
128.0507343135
  0
LINE
  5
2A9
100
AcDbEntity
  8
0
100
AcDbLine
 62
7
  6
CONTINUOUS
 10
77.7214195634
 20
128.0507343135
 11
77.7214195634
 21
124.0507343135
  0
LINE
  5
2AA
100
AcDbEntity
  8
0
100
AcDbLine
 62
7
  6
CONTINUOUS
 10
78.1214195634
 20
124.5613726101
 11
78.1214195634
 21
127.5400960765
  0
LINE
  5
2AB
100
AcDbEntity
  8
0
100
AcDbLine
 62
7
  6
CONTINUOUS
 10
73.7880861665
 20
126.8592448555
 11
73.7214195634
 21
126.603925737
  0
LINE
  5
2AC
100
AcDbEntity
  8
0
100
AcDbLine
 62
7
  6
CONTINUOUS
 10
91.2567864021
 20
176.2708069735
 11
91.1142978871
 21
175.9268092681
  0
LINE
  5
2AD
100
AcDbEntity
  8
0
100
AcDbLine
 62
7
  6
CONTINUOUS
 10
90.1880867387
 20
126.0932875
 11
89.9214195634
 21
126.2635002456
  0
LINE
  5
2AE
100
AcDbEntity
  8
0
100
AcDbLine
 62
7
  6
CONTINUOUS
 10
88.9880867387
 20
126.4337129913
 11
88.7880867387
 21
126.603925737
  0
LINE
  5
2AF
100
AcDbEntity
  8
0
100
AcDbLine
 62
7
  6
CONTINUOUS
 10
89.8547523881
 20
125.7528620086
 11
90.0547523881
 21
125.582649263
  0
LINE
  5
2B0
100
AcDbEntity
  8
0
100
AcDbLine
 62
7
  6
CONTINUOUS
 10
87.2547523881
 20
127.7103088222
 11
86.9880867387
 21
127.9656279407
  0
LINE
  5
2B1
100
AcDbEntity
  8
0
100
AcDbLine
 62
7
  6
CONTINUOUS
 10
88.7880867387
 20
124.646478983
 11
88.5880867387
 21
124.9017981611
  0
LINE
  5
2B2
100
AcDbEntity
  8
0
100
AcDbLine
 62
7
  6
CONTINUOUS
 10
86.9214195634
 20
127.5400960765
 11
87.0547523881
 21
127.3698833309
  0
LINE
  5
2B3
100
AcDbEntity
  8
0
100
AcDbLine
 62
7
  6
CONTINUOUS
 10
80.3214195634
 20
127.1145642124
 11
80.1880859758
 21
127.4549897037
  0
LINE
  5
2B4
100
AcDbEntity
  8
0
100
AcDbLine
 62
7
  6
CONTINUOUS
 10
79.9214195634
 20
127.0294576011
 11
79.9880859758
 21
126.6890321098
  0
LINE
  5
2B5
100
AcDbEntity
  8
0
100
AcDbLine
 62
7
  6
CONTINUOUS
 10
75.8688803036
 20
177.4298339076
 11
75.8507530857
 21
177.6641365885
  0
LINE
  5
2B6
100
AcDbEntity
  8
0
100
AcDbLine
 62
7
  6
CONTINUOUS
 10
76.3248435277
 20
176.3290413079
 11
76.3067163497
 21
176.5633438925
  0
LINE
  5
2B7
100
AcDbEntity
  8
0
100
AcDbLine
 62
7
  6
CONTINUOUS
 10
78.0944921511
 20
176.8202427737
 11
78.1126185182
 21
176.5859399662
  0
LINE
  5
2B8
100
AcDbEntity
  8
0
100
AcDbLine
 62
7
  6
CONTINUOUS
 10
78.4675770128
 20
176.4911575376
 11
78.4598204157
 21
176.8909630307
  0
LINE
  5
2B9
100
AcDbEntity
  8
B-ACHSEN
100
AcDbLine
 62
7
  6
CONTINUOUS
 10
78.3880867387
 20
122.0507343135
 11
78.3880867387
 21
117.5507343135
  0
LINE
  5
2BA
100
AcDbEntity
  8
0
100
AcDbLine
 62
7
  6
CONTINUOUS
 10
79.9880859758
 20
126.6890321098
 11
79.9880859758
 21
125.4124363981
  0
LINE
  5
2BB
100
AcDbEntity
  8
0
100
AcDbLine
 62
7
  6
CONTINUOUS
 10
80.3880859758
 20
125.4124363981
 11
80.3880859758
 21
126.6890321098
  0
LINE
  5
2BC
100
AcDbEntity
  8
0
100
AcDbLine
 62
7
  6
CONTINUOUS
 10
77.1214195634
 20
124.9869045339
 11
77.1880863573
 21
125.4124363981
  0
LINE
  5
2BD
100
AcDbEntity
  8
0
100
AcDbLine
 62
7
  6
CONTINUOUS
 10
76.7880863573
 20
125.4124363981
 11
76.7214195634
 21
125.0720109067
  0
LINE
  5
2BE
100
AcDbEntity
  8
0
100
AcDbLine
 62
7
  6
CONTINUOUS
 10
74.1214195634
 20
126.5188193641
 11
74.1880861665
 21
126.7741384826
  0
LINE
  5
2BF
100
AcDbEntity
  8
0
100
AcDbLine
 62
7
  6
CONTINUOUS
 10
94.1612016886
 20
177.5664727776
 11
94.1042062107
 21
177.428873522
  0
LINE
  5
2C0
100
AcDbEntity
  8
0
100
AcDbLine
 62
7
  6
CONTINUOUS
 10
93.5394816599
 20
174.9222652581
 11
93.681970175
 21
175.2662629636
  0
LINE
  5
2C1
100
AcDbEntity
  8
0
100
AcDbLine
 62
7
  6
CONTINUOUS
 10
94.5084035062
 20
177.2614495203
 11
94.5653989841
 21
177.3990487759
  0
LINE
  5
2C2
100
AcDbEntity
  8
0
100
AcDbLine
 62
7
  6
CONTINUOUS
 10
90.1214195634
 20
127.7103088222
 11
89.8547523881
 21
127.9656279407
  0
LINE
  5
2C3
100
AcDbEntity
  8
0
100
AcDbLine
 62
7
  6
CONTINUOUS
 10
88.3880867387
 20
126.4337129913
 11
88.6547523881
 21
126.0932875
  0
LINE
  5
2C4
100
AcDbEntity
  8
0
100
AcDbLine
 62
7
  6
CONTINUOUS
 10
90.4547523881
 20
125.7528620086
 11
90.1880867387
 21
126.0932875
  0
LINE
  5
2C5
100
AcDbEntity
  8
0
100
AcDbLine
 62
7
  6
CONTINUOUS
 10
89.7880867387
 20
127.4549897037
 11
89.9214195634
 21
127.284776958
  0
LINE
  5
2C6
100
AcDbEntity
  8
0
100
AcDbLine
 62
7
  6
CONTINUOUS
 10
87.4547523881
 20
127.3698833309
 11
87.2547523881
 21
127.7103088222
  0
LINE
  5
2C7
100
AcDbEntity
  8
0
100
AcDbLine
 62
7
  6
CONTINUOUS
 10
88.1880867387
 20
124.8166917882
 11
88.3880867387
 21
124.3911598347
  0
LINE
  5
2C8
100
AcDbEntity
  8
0
100
AcDbLine
 62
7
  6
CONTINUOUS
 10
80.3880859758
 20
126.6890321098
 11
80.3214195634
 21
127.1145642124
  0
LINE
  5
2C9
100
AcDbEntity
  8
0
100
AcDbLine
 62
7
  6
CONTINUOUS
 10
84.1214195634
 20
128.0507343135
 11
84.1214195634
 21
124.0507343135
  0
LINE
  5
2CA
100
AcDbEntity
  8
0
100
AcDbLine
 62
7
  6
CONTINUOUS
 10
84.5214195634
 20
124.0507343135
 11
84.5214195634
 21
128.0507343135
  0
LINE
  5
2CB
100
AcDbEntity
  8
B-ACHSEN
100
AcDbLine
 62
2
  6
CENTER
 10
84.8880867387
 20
151.5507343135
 11
84.8880867387
 21
95.2394382169
  0
LINE
  5
2CC
100
AcDbEntity
  8
B-ACHSEN
100
AcDbLine
 62
2
  6
CENTER
 10
84.8880867387
 20
151.5507343135
 11
84.8880867387
 21
187.6044408121
  0
LINE
  5
2CD
100
AcDbEntity
  8
0
100
AcDbLine
 62
7
  6
CONTINUOUS
 10
85.0547523881
 20
128.0507343135
 11
85.0547523881
 21
124.0507343135
  0
LINE
  5
2CE
100
AcDbEntity
  8
0
100
AcDbLine
 62
7
  6
CONTINUOUS
 10
80.3214195634
 20
124.9869045339
 11
80.3880859758
 21
125.4124363981
  0
LINE
  5
2CF
100
AcDbEntity
  8
0
100
AcDbLine
 62
7
  6
CONTINUOUS
 10
79.9880859758
 20
125.4124363981
 11
79.9214195634
 21
125.0720109067
  0
LINE
  5
2D0
100
AcDbEntity
  8
0
100
AcDbLine
 62
7
  6
CONTINUOUS
 10
76.9880863573
 20
124.646478983
 11
77.1214195634
 21
124.9869045339
  0
LINE
  5
2D1
100
AcDbEntity
  8
0
100
AcDbLine
 62
7
  6
CONTINUOUS
 10
96.4982776098
 20
176.9208388943
 11
96.2702959378
 21
176.3704424499
  0
LINE
  5
2D2
100
AcDbEntity
  8
0
100
AcDbLine
 62
7
  6
CONTINUOUS
 10
96.8739772062
 20
176.6846153612
 11
95.762566785
 21
174.001433249
  0
LINE
  5
2D3
100
AcDbEntity
  8
0
100
AcDbLine
 62
7
  6
CONTINUOUS
 10
96.1667640805
 20
173.8340092473
 11
97.5061560938
 21
177.0675876111
  0
LINE
  5
2D4
100
AcDbEntity
  8
0
100
AcDbLine
 62
7
  6
CONTINUOUS
 10
97.6176201276
 20
175.8123624976
 11
97.5036293315
 21
175.5371643718
  0
LINE
  5
2D5
100
AcDbEntity
  8
0
100
AcDbLine
 62
7
  6
CONTINUOUS
 10
98.3845317838
 20
176.1395268333
 11
98.1565501119
 21
175.5891303889
  0
LINE
  5
2D6
100
AcDbEntity
  8
0
100
AcDbLine
 62
7
  6
CONTINUOUS
 10
98.0425593158
 20
175.3139322631
 11
97.4726052757
 21
173.9379414895
  0
LINE
  5
2D7
100
AcDbEntity
  8
0
100
AcDbLine
 62
7
  6
CONTINUOUS
 10
97.8664316447
 20
173.9360206524
 11
98.3793902669
 21
175.174412315
  0
LINE
  5
2D8
100
AcDbEntity
  8
0
100
AcDbLine
 62
7
  6
CONTINUOUS
 10
98.4933810629
 20
175.4496104408
 11
98.7213627349
 21
176.0000068852
  0
LINE
  5
2D9
100
AcDbEntity
  8
0
100
AcDbLine
 62
7
  6
CONTINUOUS
 10
98.1877505579
 20
172.996889239
 11
98.3017413639
 21
173.272087389
  0
LINE
  5
2DA
100
AcDbEntity
  8
0
100
AcDbLine
 62
7
  6
CONTINUOUS
 10
99.1204188989
 20
174.8674682055
 11
99.2344096949
 21
175.1426663313
  0
LINE
  5
2DB
100
AcDbEntity
  8
0
100
AcDbLine
 62
7
  6
CONTINUOUS
 10
76.7214195634
 20
125.0720109067
 11
76.5880863573
 21
124.8166917882
  0
LINE
  5
2DC
100
AcDbEntity
  8
0
100
AcDbLine
 62
7
  6
CONTINUOUS
 10
73.9214195634
 20
126.1783938728
 11
74.1214195634
 21
126.5188193641
  0
LINE
  5
2DD
100
AcDbEntity
  8
0
100
AcDbLine
 62
7
  6
CONTINUOUS
 10
73.7214195634
 20
126.603925737
 11
73.5880861665
 21
126.4337129913
  0
LINE
  5
2DE
100
AcDbEntity
  8
0
100
AcDbLine
 62
7
  6
CONTINUOUS
 10
90.3214195634
 20
127.3698833309
 11
90.1214195634
 21
127.7103088222
  0
LINE
  5
2DF
100
AcDbEntity
  8
0
100
AcDbLine
 62
7
  6
CONTINUOUS
 10
90.0547523881
 20
125.582649263
 11
90.1880867387
 21
125.3273300252
  0
LINE
  5
2E0
100
AcDbEntity
  8
0
100
AcDbLine
 62
7
  6
CONTINUOUS
 10
69.9458826043
 20
176.1048994647
 11
71.2852746176
 21
172.8713211009
  0
LINE
  5
2E1
100
AcDbEntity
  8
0
100
AcDbLine
 62
7
  6
CONTINUOUS
 10
71.689471913
 20
173.0387451026
 11
70.6350568899
 21
175.5843281519
  0
LINE
  5
2E2
100
AcDbEntity
  8
0
100
AcDbLine
 62
7
  6
CONTINUOUS
 10
90.5880867387
 20
125.4124363981
 11
90.4547523881
 21
125.7528620086
  0
LINE
  5
2E3
100
AcDbEntity
  8
0
100
AcDbLine
 62
7
  6
CONTINUOUS
 10
89.9214195634
 20
127.284776958
 11
89.9880867387
 21
127.1145642124
  0
LINE
  5
2E4
100
AcDbEntity
  8
0
100
AcDbLine
 62
7
  6
CONTINUOUS
 10
87.5880867387
 20
124.0507343135
 11
86.9880867387
 21
126.0081811271
  0
LINE
  5
2E5
100
AcDbEntity
  8
0
100
AcDbLine
 62
7
  6
CONTINUOUS
 10
86.5880867387
 20
125.8379683815
 11
87.1214195634
 21
124.0507343135
  0
LINE
  5
2E6
100
AcDbEntity
  8
0
100
AcDbLine
 62
7
  6
CONTINUOUS
 10
87.0547523881
 20
127.3698833309
 11
87.1214195634
 21
127.1145642124
  0
LINE
  5
2E7
100
AcDbEntity
  8
0
100
AcDbLine
 62
7
  6
CONTINUOUS
 10
87.5214195634
 20
127.1145642124
 11
87.4547523881
 21
127.3698833309
  0
LINE
  5
2E8
100
AcDbEntity
  8
0
100
AcDbLine
 62
7
  6
CONTINUOUS
 10
88.5880867387
 20
124.9017981611
 11
88.5214195634
 21
125.1571172796
  0
LINE
  5
2E9
100
AcDbEntity
  8
0
100
AcDbLine
 62
7
  6
CONTINUOUS
 10
88.7880867387
 20
126.603925737
 11
88.7214195634
 21
126.8592448555
  0
LINE
  5
2EA
100
AcDbEntity
  8
0
100
AcDbLine
 62
7
  6
CONTINUOUS
 10
75.5035512681
 20
177.3591133312
 11
75.6356692022
 21
176.8496127172
  0
LINE
  5
2EB
100
AcDbEntity
  8
0
100
AcDbLine
 62
7
  6
CONTINUOUS
 10
75.9725001533
 20
176.9891326653
 11
75.8688803036
 21
177.4298339076
  0
LINE
  5
2EC
100
AcDbEntity
  8
0
100
AcDbLine
 62
7
  6
CONTINUOUS
 10
88.1214195634
 20
125.1571172796
 11
88.1880867387
 21
124.8166917882
  0
LINE
  5
2ED
100
AcDbEntity
  8
0
100
AcDbLine
 62
7
  6
CONTINUOUS
 10
85.4547523881
 20
124.0507343135
 11
85.4547523881
 21
125.8379683815
  0
LINE
  5
2EE
100
AcDbEntity
  8
0
100
AcDbLine
 62
7
  6
CONTINUOUS
 10
85.4547523881
 20
126.3486066185
 11
85.4547523881
 21
127.6252024494
  0
LINE
  5
2EF
100
AcDbEntity
  8
0
100
AcDbLine
 62
7
  6
CONTINUOUS
 10
87.1214195634
 20
127.1145642124
 11
87.1214195634
 21
126.8592448555
  0
LINE
  5
2F0
100
AcDbEntity
  8
0
100
AcDbLine
 62
7
  6
CONTINUOUS
 10
87.5214195634
 20
126.7741384826
 11
87.5214195634
 21
127.1145642124
  0
LINE
  5
2F1
100
AcDbEntity
  8
0
100
AcDbLine
 62
7
  6
CONTINUOUS
 10
88.3214195634
 20
127.1145642124
 11
88.3214195634
 21
126.7741384826
  0
LINE
  5
2F2
100
AcDbEntity
  8
0
100
AcDbLine
 62
7
  6
CONTINUOUS
 10
88.7214195634
 20
126.8592448555
 11
88.7214195634
 21
127.0294576011
  0
LINE
  5
2F3
100
AcDbEntity
  8
0
100
AcDbLine
 62
7
  6
CONTINUOUS
 10
94.5653989841
 20
177.3990487759
 11
94.6120236285
 21
177.7021508754
  0
LINE
  5
2F4
100
AcDbEntity
  8
0
100
AcDbLine
 62
7
  6
CONTINUOUS
 10
80.1880859758
 20
124.646478983
 11
80.3214195634
 21
124.9869045339
  0
LINE
  5
2F5
100
AcDbEntity
  8
0
100
AcDbLine
 62
7
  6
CONTINUOUS
 10
79.9214195634
 20
125.0720109067
 11
79.7880859758
 21
124.8166917882
  0
LINE
  5
2F6
100
AcDbEntity
  8
0
100
AcDbLine
 62
7
  6
CONTINUOUS
 10
76.7214195634
 20
124.3060534618
 11
76.9880863573
 21
124.646478983
  0
LINE
  5
2F7
100
AcDbEntity
  8
0
100
AcDbLine
 62
7
  6
CONTINUOUS
 10
73.0602406627
 20
176.5888721618
 11
74.1146556859
 21
174.0432891126
  0
LINE
  5
2F8
100
AcDbEntity
  8
0
100
AcDbLine
 62
7
  6
CONTINUOUS
 10
74.5188529814
 20
174.2107131142
 11
73.1794609681
 21
177.444291478
  0
LINE
  5
2F9
100
AcDbEntity
  8
0
100
AcDbLine
 62
7
  6
CONTINUOUS
 10
73.91787446
 20
177.1859267068
 11
74.1458561319
 21
176.6355302625
  0
LINE
  5
2FA
100
AcDbEntity
  8
0
100
AcDbLine
 62
7
  6
CONTINUOUS
 10
90.3880867387
 20
127.1145642124
 11
90.3214195634
 21
127.3698833309
  0
LINE
  5
2FB
100
AcDbEntity
  8
0
100
AcDbLine
 62
7
  6
CONTINUOUS
 10
88.3214195634
 20
126.7741384826
 11
88.3880867387
 21
126.4337129913
  0
LINE
  5
2FC
100
AcDbEntity
  8
0
100
AcDbLine
 62
7
  6
CONTINUOUS
 10
90.1880867387
 20
125.3273300252
 11
90.1880867387
 21
125.0720109067
  0
LINE
  5
2FD
100
AcDbEntity
  8
0
100
AcDbLine
 62
7
  6
CONTINUOUS
 10
90.5880867387
 20
124.9869045339
 11
90.5880867387
 21
125.4124363981
  0
LINE
  5
2FE
100
AcDbEntity
  8
0
100
AcDbLine
 62
7
  6
CONTINUOUS
 10
91.1214195634
 20
125.9230747543
 11
91.1214195634
 21
125.4975427709
  0
LINE
  5
2FF
100
AcDbEntity
  8
B-ACHSEN
100
AcDbLine
 62
7
  6
CONTINUOUS
 10
91.3880867387
 20
122.0507343135
 11
91.3880867387
 21
117.5507343135
  0
LINE
  5
300
100
AcDbEntity
  8
0
100
AcDbLine
 62
7
  6
CONTINUOUS
 10
92.0547523881
 20
125.4975427709
 11
92.0547523881
 21
125.9230747543
  0
LINE
  5
301
100
AcDbEntity
  8
0
100
AcDbLine
 62
7
  6
CONTINUOUS
 10
88.3880867387
 20
127.4549897037
 11
88.3214195634
 21
127.1145642124
  0
LINE
  5
302
100
AcDbEntity
  8
0
100
AcDbLine
 62
7
  6
CONTINUOUS
 10
87.1214195634
 20
126.8592448555
 11
87.0547523881
 21
126.603925737
  0
LINE
  5
303
100
AcDbEntity
  8
0
100
AcDbLine
 62
7
  6
CONTINUOUS
 10
87.4547523881
 20
126.5188193641
 11
87.5214195634
 21
126.7741384826
  0
LINE
  5
304
100
AcDbEntity
  8
0
100
AcDbLine
 62
7
  6
CONTINUOUS
 10
88.7214195634
 20
127.0294576011
 11
88.7880867387
 21
127.284776958
  0
LINE
  5
305
100
AcDbEntity
  8
0
100
AcDbLine
 62
7
  6
CONTINUOUS
 10
79.9214195634
 20
124.3060534618
 11
80.1880859758
 21
124.646478983
  0
LINE
  5
306
100
AcDbEntity
  8
0
100
AcDbLine
 62
7
  6
CONTINUOUS
 10
76.5880863573
 20
124.8166917882
 11
76.3880863573
 21
124.646478983
  0
LINE
  5
307
100
AcDbEntity
  8
0
100
AcDbLine
 62
7
  6
CONTINUOUS
 10
73.6547529604
 20
126.0081811271
 11
73.9214195634
 21
126.1783938728
  0
LINE
  5
308
100
AcDbEntity
  8
0
100
AcDbLine
 62
7
  6
CONTINUOUS
 10
74.3505694545
 20
177.284551177
 11
75.4619798756
 21
174.6013690649
  0
LINE
  5
309
100
AcDbEntity
  8
0
100
AcDbLine
 62
7
  6
CONTINUOUS
 10
75.8661771711
 20
174.7687930665
 11
74.5267851578
 21
178.0023714303
  0
LINE
  5
30A
100
AcDbEntity
  8
0
100
AcDbLine
 62
7
  6
CONTINUOUS
 10
75.6356692022
 20
176.8496127172
 11
75.8351530953
 21
176.368015997
  0
LINE
  5
30B
100
AcDbEntity
  8
0
100
AcDbLine
 62
7
  6
CONTINUOUS
 10
76.0294955513
 20
176.8515336024
 11
75.9725001533
 21
176.9891326653
  0
LINE
  5
30C
100
AcDbEntity
  8
0
100
AcDbLine
 62
7
  6
CONTINUOUS
 10
76.4103366248
 20
176.1226427136
 11
76.3248435277
 21
176.3290413079
  0
LINE
  5
30D
100
AcDbEntity
  8
0
100
AcDbLine
 62
7
  6
CONTINUOUS
 10
78.008999054
 20
177.0266413681
 11
78.0944921511
 21
176.8202427737
  0
LINE
  5
30E
100
AcDbEntity
  8
0
100
AcDbLine
 62
7
  6
CONTINUOUS
 10
92.5880867387
 20
128.0507343135
 11
92.5880867387
 21
124.0507343135
  0
LINE
  5
30F
100
AcDbEntity
  8
B-ACHSEN
100
AcDbLine
 62
7
  6
CONTINUOUS
 10
92.8880867387
 20
116.0507343135
 11
92.8880867387
 21
99.3507343135
  0
LINE
  5
310
100
AcDbEntity
  8
0
100
AcDbLine
 62
7
  6
CONTINUOUS
 10
92.9880867387
 20
124.5613726101
 11
92.9880867387
 21
128.0507343135
  0
LINE
  5
311
100
AcDbEntity
  8
0
100
AcDbLine
 62
7
  6
CONTINUOUS
 10
94.9880867387
 20
124.0507343135
 11
94.9880867387
 21
124.5613726101
  0
LINE
  5
312
100
AcDbEntity
  8
0
100
AcDbLine
 62
7
  6
CONTINUOUS
 10
95.5214195634
 20
128.0507343135
 11
95.5214195634
 21
127.6252024494
  0
LINE
  5
313
100
AcDbEntity
  8
0
100
AcDbLine
 62
7
  6
CONTINUOUS
 10
97.8483044867
 20
173.7017181161
 11
97.8664316447
 21
173.9360206524
  0
LINE
  5
314
100
AcDbEntity
  8
0
100
AcDbLine
 62
7
  6
CONTINUOUS
 10
90.4547523881
 20
124.646478983
 11
90.5880867387
 21
124.9869045339
  0
LINE
  5
315
100
AcDbEntity
  8
0
100
AcDbLine
 62
7
  6
CONTINUOUS
 10
87.2547523881
 20
126.1783938728
 11
87.4547523881
 21
126.5188193641
  0
LINE
  5
316
100
AcDbEntity
  8
0
100
AcDbLine
 62
7
  6
CONTINUOUS
 10
87.0547523881
 20
126.603925737
 11
86.9214195634
 21
126.4337129913
  0
LINE
  5
317
100
AcDbEntity
  8
0
100
AcDbLine
 62
7
  6
CONTINUOUS
 10
88.6547523881
 20
127.795415195
 11
88.3880867387
 21
127.4549897037
  0
LINE
  5
318
100
AcDbEntity
  8
0
100
AcDbLine
 62
7
  6
CONTINUOUS
 10
79.7880859758
 20
124.8166917882
 11
79.5880859758
 21
124.646478983
  0
LINE
  5
319
100
AcDbEntity
  8
0
100
AcDbLine
 62
7
  6
CONTINUOUS
 10
76.4547527696
 20
124.1358406938
 11
76.7214195634
 21
124.3060534618
  0
LINE
  5
31A
100
AcDbEntity
  8
0
100
AcDbLine
 62
7
  6
CONTINUOUS
 10
73.5880861665
 20
126.4337129913
 11
73.3880861665
 21
126.3486066185
  0
LINE
  5
31B
100
AcDbEntity
  8
B-ACHSEN
100
AcDbLine
 62
2
  6
CENTER
 10
84.8880867387
 20
151.5507343135
 11
48.3908524505
 21
151.5507343135
  0
LINE
  5
31C
100
AcDbEntity
  8
B-ACHSEN
100
AcDbLine
 62
2
  6
CENTER
 10
84.8880867387
 20
151.5507343135
 11
120.2857429614
 21
151.5507343135
  0
LINE
  5
31D
100
AcDbEntity
  8
0
100
AcDbLine
 62
7
  6
CONTINUOUS
 10
75.8351530953
 20
176.368015997
 11
76.1020029872
 21
175.9143230743
  0
LINE
  5
31E
100
AcDbEntity
  8
0
100
AcDbLine
 62
7
  6
CONTINUOUS
 10
78.4598204157
 20
176.8909630307
 11
78.3173318807
 21
177.2349607844
  0
LINE
  5
31F
100
AcDbEntity
  8
0
100
AcDbLine
 62
7
  6
CONTINUOUS
 10
97.4726052757
 20
173.9379414895
 11
97.493346773
 21
173.6069353923
  0
LINE
  5
320
100
AcDbEntity
  8
0
100
AcDbLine
 62
7
  6
CONTINUOUS
 10
96.5880867387
 20
127.6252024494
 11
96.5880867387
 21
124.0507343135
  0
LINE
  5
321
100
AcDbEntity
  8
0
100
AcDbLine
 62
7
  6
CONTINUOUS
 10
96.9880867387
 20
124.0507343135
 11
96.9880867387
 21
127.6252024494
  0
LINE
  5
322
100
AcDbEntity
  8
0
100
AcDbLine
 62
7
  6
CONTINUOUS
 10
98.054753914
 20
127.6252024494
 11
98.054753914
 21
128.0507343135
  0
LINE
  5
323
100
AcDbEntity
  8
0
100
AcDbLine
 62
7
  6
CONTINUOUS
 10
90.1880867387
 20
125.0720109067
 11
90.0547523881
 21
124.8166917882
  0
LINE
  5
324
100
AcDbEntity
  8
0
100
AcDbLine
 62
7
  6
CONTINUOUS
 10
90.1880867387
 20
124.3060534618
 11
90.4547523881
 21
124.646478983
  0
LINE
  5
325
100
AcDbEntity
  8
B-ACHSEN
100
AcDbLine
 62
7
  6
CONTINUOUS
 10
78.3880867387
 20
117.5507343135
 11
76.8880867387
 21
116.0507343135
  0
LINE
  5
326
100
AcDbEntity
  8
0
100
AcDbLine
 62
7
  6
CONTINUOUS
 10
88.7880867387
 20
127.284776958
 11
88.9880867387
 21
127.4549897037
  0
LINE
  5
327
100
AcDbEntity
  8
0
100
AcDbLine
 62
7
  6
CONTINUOUS
 10
79.6547531511
 20
124.1358406938
 11
79.9214195634
 21
124.3060534618
  0
LINE
  5
328
100
AcDbEntity
  8
0
100
AcDbLine
 62
7
  6
CONTINUOUS
 10
88.9214195634
 20
127.9656279407
 11
88.6547523881
 21
127.795415195
  0
LINE
  5
329
100
AcDbEntity
  8
0
100
AcDbLine
 62
7
  6
CONTINUOUS
 10
86.9880867387
 20
126.0081811271
 11
87.2547523881
 21
126.1783938728
  0
LINE
  5
32A
100
AcDbEntity
  8
0
100
AcDbLine
 62
7
  6
CONTINUOUS
 10
88.9880867387
 20
127.4549897037
 11
89.1880867387
 21
127.5400960765
  0
LINE
  5
32B
100
AcDbEntity
  8
0
100
AcDbLine
 62
7
  6
CONTINUOUS
 10
86.9214195634
 20
126.4337129913
 11
86.7214195634
 21
126.3486066185
  0
LINE
  5
32C
100
AcDbEntity
  8
0
100
AcDbLine
 62
7
  6
CONTINUOUS
 10
76.3880863573
 20
124.646478983
 11
76.1214195634
 21
124.5613726101
  0
LINE
  5
32D
100
AcDbEntity
  8
0
100
AcDbLine
 62
7
  6
CONTINUOUS
 10
89.1880867387
 20
128.0507343135
 11
88.9214195634
 21
127.9656279407
  0
LINE
  5
32E
100
AcDbEntity
  8
0
100
AcDbLine
 62
7
  6
CONTINUOUS
 10
79.5880859758
 20
124.646478983
 11
79.3214195634
 21
124.5613726101
  0
LINE
  5
32F
100
AcDbEntity
  8
0
100
AcDbLine
 62
7
  6
CONTINUOUS
 10
70.6350568899
 20
175.5843281519
 11
72.6325989037
 21
173.4294010932
  0
LINE
  5
330
100
AcDbEntity
  8
0
100
AcDbLine
 62
7
  6
CONTINUOUS
 10
72.7595752844
 20
173.885014813
 11
70.5521785475
 21
176.3560354672
  0
LINE
  5
331
100
AcDbEntity
  8
B-ACHSEN
100
AcDbLine
 62
7
  6
CONTINUOUS
 10
102.3880867387
 20
122.0507343135
 11
102.3880867387
 21
123.2070449393
  0
LINE
  5
332
100
AcDbEntity
  8
0
100
AcDbLine
 62
7
  6
CONTINUOUS
 10
90.0547523881
 20
124.8166917882
 11
89.8547523881
 21
124.646478983
  0
LINE
  5
333
100
AcDbEntity
  8
0
100
AcDbLine
 62
7
  6
CONTINUOUS
 10
89.9214195634
 20
124.1358406938
 11
90.1880867387
 21
124.3060534618
  0
LINE
  5
334
100
AcDbEntity
  8
0
100
AcDbLine
 62
7
  6
CONTINUOUS
 10
89.8547523881
 20
124.646478983
 11
89.5880867387
 21
124.5613726101
  0
LINE
  5
335
100
AcDbEntity
  8
0
100
AcDbLine
 62
7
  6
CONTINUOUS
 10
76.1020029872
 20
175.9143230743
 11
76.3792241911
 21
175.6261334758
  0
LINE
  5
336
100
AcDbEntity
  8
0
100
AcDbLine
 62
7
  6
CONTINUOUS
 10
76.5631956807
 20
175.944148013
 11
76.4103366248
 21
176.1226427136
  0
LINE
  5
337
100
AcDbEntity
  8
0
100
AcDbLine
 62
7
  6
CONTINUOUS
 10
77.8561391872
 20
177.2051358456
 11
78.008999054
 21
177.0266413681
  0
LINE
  5
338
100
AcDbEntity
  8
0
100
AcDbLine
 62
7
  6
CONTINUOUS
 10
94.1119622896
 20
177.8286793991
 11
94.1612016886
 21
177.5664727776
  0
LINE
  5
339
100
AcDbEntity
  8
0
100
AcDbLine
 62
7
  6
CONTINUOUS
 10
78.3173318807
 20
177.2349607844
 11
78.0401114678
 21
177.523150654
  0
LINE
  5
33A
100
AcDbEntity
  8
0
100
AcDbLine
 62
7
  6
CONTINUOUS
 10
77.6696413008
 20
178.4175447556
 11
77.5167814739
 21
178.5960391368
  0
LINE
  5
33B
100
AcDbEntity
  8
0
100
AcDbLine
 62
7
  6
CONTINUOUS
 10
76.3792241911
 20
175.6261334758
 11
76.6953136448
 21
175.4346473268
  0
LINE
  5
33C
100
AcDbEntity
  8
0
100
AcDbLine
 62
7
  6
CONTINUOUS
 10
76.7834214865
 20
175.7935574775
 11
76.5631956807
 21
175.944148013
  0
LINE
  5
33D
100
AcDbEntity
  8
0
100
AcDbLine
 62
7
  6
CONTINUOUS
 10
94.6120236285
 20
177.7021508754
 11
94.4565494324
 21
178.0889650556
  0
LINE
  5
33E
100
AcDbEntity
  8
RUNDUNGEN
100
AcDbLine
 62
7
  6
CONTINUOUS
 10
117.2669981765
 20
150.0200005841
 11
108.6153274549
 21
129.1330197907
  0
LINE
  5
33F
100
AcDbEntity
  8
0
100
AcDbLine
 62
7
  6
CONTINUOUS
 10
77.5167814739
 20
178.5960391368
 11
77.2006920301
 21
178.7875252618
  0
LINE
  5
340
100
AcDbEntity
  8
0
100
AcDbLine
 62
7
  6
CONTINUOUS
 10
77.1125841784
 20
178.4286151352
 11
77.3328099642
 21
178.2780246478
  0
LINE
  5
341
100
AcDbEntity
  8
0
100
AcDbLine
 62
7
  6
CONTINUOUS
 10
93.9668590399
 20
178.0499904629
 11
94.1119622896
 21
177.8286793991
  0
LINE
  5
342
100
AcDbEntity
  8
0
100
AcDbLine
 62
7
  6
CONTINUOUS
 10
97.493346773
 20
173.6069353923
 11
97.6384500177
 21
173.3856243165
  0
LINE
  5
343
100
AcDbEntity
  8
0
100
AcDbLine
 62
7
  6
CONTINUOUS
 10
97.9934077364
 20
173.4804070523
 11
97.8483044867
 21
173.7017181161
  0
LINE
  5
344
100
AcDbEntity
  8
0
100
AcDbLine
 62
7
  6
CONTINUOUS
 10
76.6953136448
 20
175.4346473268
 11
77.1176377004
 21
175.3677686625
  0
LINE
  5
345
100
AcDbEntity
  8
0
100
AcDbLine
 62
7
  6
CONTINUOUS
 10
77.0425155323
 20
175.7396704154
 11
76.7834214865
 21
175.7935574775
  0
LINE
  5
346
100
AcDbEntity
  8
0
100
AcDbLine
 62
7
  6
CONTINUOUS
 10
77.6644118713
 20
177.2869271209
 11
77.8561391872
 21
177.2051358456
  0
LINE
  5
347
100
AcDbEntity
  8
0
100
AcDbLine
 62
7
  6
CONTINUOUS
 10
78.0401114678
 20
177.523150654
 11
77.752519723
 21
177.6458372475
  0
LINE
  5
348
100
AcDbEntity
  8
0
100
AcDbLine
 62
7
  6
CONTINUOUS
 10
97.6384500177
 20
173.3856243165
 11
97.8120509639
 21
173.2331127782
  0
LINE
  5
349
100
AcDbEntity
  8
0
100
AcDbLine
 62
7
  6
CONTINUOUS
 10
94.4565494324
 20
178.0889650556
 11
94.244080031
 21
178.338180093
  0
LINE
  5
34A
100
AcDbEntity
  8
B-ACHSEN
100
AcDbLine
 62
7
  6
CONTINUOUS
 10
92.8880867387
 20
99.3507343135
 11
91.5880867387
 21
98.0507343135
  0
LINE
  5
34B
100
AcDbEntity
  8
0
100
AcDbLine
 62
7
  6
CONTINUOUS
 10
92.7646380516
 20
178.3867593714
 11
93.0237320974
 21
178.4406464335
  0
LINE
  5
34C
100
AcDbEntity
  8
0
100
AcDbLine
 62
7
  6
CONTINUOUS
 10
77.1176377004
 20
175.3677686625
 11
77.482966353
 21
175.4384890732
  0
LINE
  5
34D
100
AcDbEntity
  8
0
100
AcDbLine
 62
7
  6
CONTINUOUS
 10
77.2731118791
 20
175.7545828848
 11
77.0425155323
 21
175.7396704154
  0
LINE
  5
34E
100
AcDbEntity
  8
0
100
AcDbLine
 62
7
  6
CONTINUOUS
 10
77.752519723
 20
177.6458372475
 11
77.3301952894
 21
177.712715734
  0
LINE
  5
34F
100
AcDbEntity
  8
0
100
AcDbLine
 62
7
  6
CONTINUOUS
 10
77.2006920301
 20
178.7875252618
 11
76.7783683674
 21
178.8544040677
  0
LINE
  5
350
100
AcDbEntity
  8
0
100
AcDbLine
 62
7
  6
CONTINUOUS
 10
77.4053178256
 20
177.340814183
 11
77.6644118713
 21
177.2869271209
  0
LINE
  5
351
100
AcDbEntity
  8
0
100
AcDbLine
 62
7
  6
CONTINUOUS
 10
76.8534901326
 20
178.4825021972
 11
77.1125841784
 21
178.4286151352
  0
LINE
  5
352
100
AcDbEntity
  8
0
100
AcDbLine
 62
7
  6
CONTINUOUS
 10
93.9074252374
 20
174.2862359924
 11
94.2442563813
 21
174.1467159644
  0
LINE
  5
353
100
AcDbEntity
  8
0
100
AcDbLine
 62
7
  6
CONTINUOUS
 10
91.1142978871
 20
175.9268092681
 11
93.5394816599
 21
174.9222652581
  0
LINE
  5
354
100
AcDbEntity
  8
0
100
AcDbLine
 62
7
  6
CONTINUOUS
 10
95.762566785
 20
174.001433249
 11
96.1667640805
 21
173.8340092473
  0
LINE
  5
355
100
AcDbEntity
  8
0
100
AcDbLine
 62
7
  6
CONTINUOUS
 10
94.9619284058
 20
174.7360869051
 11
94.6250970692
 21
174.8756070129
  0
LINE
  5
356
100
AcDbEntity
  8
0
100
AcDbLine
 62
7
  6
CONTINUOUS
 10
93.681970175
 20
175.2662629636
 11
91.7957161455
 21
176.0475749647
  0
LINE
  5
357
100
AcDbEntity
  8
0
100
AcDbLine
 62
7
  6
CONTINUOUS
 10
97.8120509639
 20
173.2331127782
 11
98.1877505579
 21
172.996889239
  0
LINE
  5
358
100
AcDbEntity
  8
0
100
AcDbLine
 62
7
  6
CONTINUOUS
 10
94.244080031
 20
178.338180093
 11
93.8683804345
 21
178.5744036261
  0
LINE
  5
359
100
AcDbEntity
  8
0
100
AcDbLine
 62
7
  6
CONTINUOUS
 10
98.3017413639
 20
173.272087389
 11
97.9934077364
 21
173.4804070523
  0
LINE
  5
35A
100
AcDbEntity
  8
0
100
AcDbLine
 62
7
  6
CONTINUOUS
 10
93.6585256914
 20
178.2583099824
 11
93.9668590399
 21
178.0499904629
  0
LINE
  5
35B
100
AcDbEntity
  8
RUNDUNGEN
100
AcDbLine
 62
7
  6
CONTINUOUS
 10
108.8658267841
 20
173.3636899583
 11
117.2669981765
 21
153.081468043
  0
LINE
  5
35C
100
AcDbEntity
  8
0
100
AcDbLine
 62
7
  6
CONTINUOUS
 10
77.3301952894
 20
177.712715734
 11
76.9648662539
 21
177.6419951577
  0
LINE
  5
35D
100
AcDbEntity
  8
0
100
AcDbLine
 62
7
  6
CONTINUOUS
 10
76.7783683674
 20
178.8544040677
 11
76.4130393319
 21
178.7836834913
  0
LINE
  5
35E
100
AcDbEntity
  8
0
100
AcDbLine
 62
7
  6
CONTINUOUS
 10
93.0988543444
 20
178.8125481043
 11
92.7723940988
 21
178.7865650359
  0
LINE
  5
35F
100
AcDbEntity
  8
0
100
AcDbLine
 62
7
  6
CONTINUOUS
 10
77.1747214788
 20
177.3259017136
 11
77.4053178256
 21
177.340814183
  0
LINE
  5
360
100
AcDbEntity
  8
0
100
AcDbLine
 62
7
  6
CONTINUOUS
 10
76.6228937859
 20
178.4675897279
 11
76.8534901326
 21
178.4825021972
  0
LINE
  5
361
100
AcDbEntity
  8
0
100
AcDbLine
 62
7
  6
CONTINUOUS
 10
93.0237320974
 20
178.4406464335
 11
93.389060892
 21
178.3699259569
  0
LINE
  5
362
100
AcDbEntity
  8
0
100
AcDbLine
 62
7
  6
CONTINUOUS
 10
93.5989155388
 20
178.6860196405
 11
93.0988543444
 21
178.8125481043
  0
LINE
  5
363
100
AcDbEntity
  8
0
100
AcDbLine
 62
7
  6
CONTINUOUS
 10
97.5036293315
 20
175.5371643718
 11
98.0425593158
 21
175.3139322631
  0
LINE
  5
364
100
AcDbEntity
  8
0
100
AcDbLine
 62
7
  6
CONTINUOUS
 10
98.3793902669
 20
175.174412315
 11
99.1204188989
 21
174.8674682055
  0
LINE
  5
365
100
AcDbEntity
  8
0
100
AcDbLine
 62
7
  6
CONTINUOUS
 10
99.2344096949
 20
175.1426663313
 11
98.4933810629
 21
175.4496104408
  0
LINE
  5
366
100
AcDbEntity
  8
0
100
AcDbLine
 62
7
  6
CONTINUOUS
 10
98.1565501119
 20
175.5891303889
 11
97.6176201276
 21
175.8123624976
  0
LINE
  5
367
100
AcDbEntity
  8
0
100
AcDbLine
 62
7
  6
CONTINUOUS
 10
92.2075814292
 20
178.3756887848
 11
92.5444125067
 21
178.2361687842
  0
LINE
  5
368
100
AcDbEntity
  8
0
100
AcDbLine
 62
7
  6
CONTINUOUS
 10
98.7213627349
 20
176.0000068852
 11
98.3845317838
 21
176.1395268333
  0
LINE
  5
369
100
AcDbEntity
  8
0
100
AcDbLine
 62
7
  6
CONTINUOUS
 10
93.389060892
 20
178.3699259569
 11
93.6585256914
 21
178.2583099824
  0
LINE
  5
36A
100
AcDbEntity
  8
0
100
AcDbLine
 62
7
  6
CONTINUOUS
 10
97.5061560938
 20
177.0675876111
 11
97.1019587983
 21
177.2350116128
  0
LINE
  5
36B
100
AcDbEntity
  8
0
100
AcDbLine
 62
7
  6
CONTINUOUS
 10
93.8683804345
 20
178.5744036261
 11
93.5989155388
 21
178.6860196405
  0
LINE
  5
36C
100
AcDbEntity
  8
RUNDUNGEN
100
AcDbLine
 62
7
  6
CONTINUOUS
 10
86.4188204682
 20
183.9296457513
 11
106.7010423835
 21
175.5284743589
  0
LINE
  5
36D
100
AcDbEntity
  8
B-ACHSEN
100
AcDbLine
 62
7
  6
CONTINUOUS
 10
192.4705795879
 20
98.0507343135
 11
205.8705795879
 21
98.0507343135
  0
LINE
  5
36E
100
AcDbEntity
  8
B-ACHSEN
100
AcDbLine
 62
7
  6
CONTINUOUS
 10
191.1705795879
 20
99.3507343135
 11
207.1705795879
 21
99.3507343135
  0
LINE
  5
36F
100
AcDbEntity
  8
B-ACHSEN
100
AcDbLine
 62
7
  6
CONTINUOUS
 10
191.1705795879
 20
99.3507343135
 11
192.4705795879
 21
98.0507343135
  0
LINE
  5
370
100
AcDbEntity
  8
B-ACHSEN
100
AcDbLine
 62
7
  6
CONTINUOUS
 10
191.1705795879
 20
116.0507343135
 11
207.1705795879
 21
116.0507343135
  0
LINE
  5
371
100
AcDbEntity
  8
B-ACHSEN
100
AcDbLine
 62
7
  6
CONTINUOUS
 10
192.6705795879
 20
117.5507343135
 11
205.6705795879
 21
117.5507343135
  0
LINE
  5
372
100
AcDbEntity
  8
B-ACHSEN
100
AcDbLine
 62
7
  6
CONTINUOUS
 10
181.6708854636
 20
122.0507343135
 11
216.6702737122
 21
122.0507343135
  0
LINE
  5
373
100
AcDbEntity
  8
B-ACHSEN
100
AcDbLine
 62
7
  6
CONTINUOUS
 10
181.6705795879
 20
122.0507343135
 11
181.6705795879
 21
129.0876692918
  0
LINE
  5
374
100
AcDbEntity
  8
0
100
AcDbLine
 62
7
  6
CONTINUOUS
 10
210.6983233175
 20
124.0507343135
 11
211.574297145
 21
124.0507343135
  0
LINE
  5
375
100
AcDbEntity
  8
0
100
AcDbLine
 62
7
  6
CONTINUOUS
 10
212.6998067387
 20
124.0507343135
 11
213.4454600693
 21
124.0507343135
  0
LINE
  5
376
100
AcDbEntity
  8
0
100
AcDbLine
 62
7
  6
CONTINUOUS
 10
214.1588709316
 20
124.0507343135
 11
214.6620464855
 21
124.0507343135
  0
LINE
  5
377
100
AcDbEntity
  8
0
100
AcDbLine
 62
7
  6
CONTINUOUS
 10
215.1358193794
 20
124.0507343135
 11
216.0777442396
 21
124.0507343135
  0
LINE
  5
378
100
AcDbEntity
  8
0
100
AcDbLine
 62
7
  6
CONTINUOUS
 10
216.6537778492
 20
124.0507343135
 11
216.9540612898
 21
124.0507343135
  0
LINE
  5
379
100
AcDbEntity
  8
0
100
AcDbLine
 62
7
  6
CONTINUOUS
 10
213.9528509299
 20
124.1358406938
 11
214.3068124755
 21
124.1358406938
  0
LINE
  5
37A
100
AcDbEntity
  8
0
100
AcDbLine
 62
7
  6
CONTINUOUS
 10
213.780469274
 20
124.3060534618
 11
214.138507856
 21
124.3060534618
  0
LINE
  5
37B
100
AcDbEntity
  8
0
100
AcDbLine
 62
7
  6
CONTINUOUS
 10
216.0777442396
 20
124.5613726101
 11
215.6342430727
 21
124.5613726101
  0
LINE
  5
37C
100
AcDbEntity
  8
0
100
AcDbLine
 62
7
  6
CONTINUOUS
 10
214.6620464855
 20
124.5613726101
 11
214.5080786475
 21
124.5613726101
  0
LINE
  5
37D
100
AcDbEntity
  8
0
100
AcDbLine
 62
7
  6
CONTINUOUS
 10
213.6011025323
 20
124.646478983
 11
213.9634830368
 21
124.646478983
  0
LINE
  5
37E
100
AcDbEntity
  8
0
100
AcDbLine
 62
7
  6
CONTINUOUS
 10
214.4676379167
 20
124.646478983
 11
214.8099527696
 21
124.646478983
  0
LINE
  5
37F
100
AcDbEntity
  8
0
100
AcDbLine
 62
7
  6
CONTINUOUS
 10
215.848708737
 20
124.646478983
 11
216.1632248179
 21
124.646478983
  0
LINE
  5
380
100
AcDbEntity
  8
0
100
AcDbLine
 62
7
  6
CONTINUOUS
 10
214.5770715205
 20
124.8166917882
 11
214.9170075533
 21
124.8166917882
  0
LINE
  5
381
100
AcDbEntity
  8
0
100
AcDbLine
 62
7
  6
CONTINUOUS
 10
215.9109497218
 20
124.8166917882
 11
216.2243179528
 21
124.8166917882
  0
LINE
  5
382
100
AcDbEntity
  8
0
100
AcDbLine
 62
7
  6
CONTINUOUS
 10
213.5087180058
 20
124.9869045339
 11
213.8733756925
 21
124.9869045339
  0
LINE
  5
383
100
AcDbEntity
  8
0
100
AcDbLine
 62
7
  6
CONTINUOUS
 10
214.6481616745
 20
125.0720109067
 11
214.9865698272
 21
125.0720109067
  0
LINE
  5
384
100
AcDbEntity
  8
0
100
AcDbLine
 62
7
  6
CONTINUOUS
 10
215.9509912983
 20
125.0720109067
 11
216.2636254596
 21
125.0720109067
  0
LINE
  5
385
100
AcDbEntity
  8
0
100
AcDbLine
 62
7
  6
CONTINUOUS
 10
213.4618352515
 20
125.4124363981
 11
213.827659394
 21
125.4124363981
  0
LINE
  5
386
100
AcDbEntity
  8
0
100
AcDbLine
 62
7
  6
CONTINUOUS
 10
214.6831549325
 20
125.4124363981
 11
215.0208159843
 21
125.4124363981
  0
LINE
  5
387
100
AcDbEntity
  8
0
100
AcDbLine
 62
7
  6
CONTINUOUS
 10
215.9705793654
 20
125.4124363981
 11
216.2828556646
 21
125.4124363981
  0
LINE
  5
388
100
AcDbEntity
  8
0
100
AcDbLine
 62
7
  6
CONTINUOUS
 10
211.574297145
 20
125.8379683815
 11
212.642978891
 21
125.8379683815
  0
LINE
  5
389
100
AcDbEntity
  8
0
100
AcDbLine
 62
7
  6
CONTINUOUS
 10
212.7569693527
 20
126.3486066185
 11
211.574297145
 21
126.3486066185
  0
LINE
  5
38A
100
AcDbEntity
  8
0
100
AcDbLine
 62
7
  6
CONTINUOUS
 10
212.5332135748
 20
126.4337129913
 11
212.9237605679
 21
126.4337129913
  0
LINE
  5
38B
100
AcDbEntity
  8
0
100
AcDbLine
 62
7
  6
CONTINUOUS
 10
212.644834454
 20
126.603925737
 11
213.0322369274
 21
126.603925737
  0
LINE
  5
38C
100
AcDbEntity
  8
0
100
AcDbLine
 62
7
  6
CONTINUOUS
 10
215.9705793654
 20
126.6890321098
 11
216.2828556646
 21
126.6890321098
  0
LINE
  5
38D
100
AcDbEntity
  8
0
100
AcDbLine
 62
7
  6
CONTINUOUS
 10
212.6998067387
 20
126.8592448555
 11
213.0856788437
 21
126.8592448555
  0
LINE
  5
38E
100
AcDbEntity
  8
0
100
AcDbLine
 62
7
  6
CONTINUOUS
 10
215.9509912983
 20
127.0294576011
 11
216.2636254596
 21
127.0294576011
  0
LINE
  5
38F
100
AcDbEntity
  8
0
100
AcDbLine
 62
7
  6
CONTINUOUS
 10
212.6998067387
 20
127.1145642124
 11
213.0856788437
 21
127.1145642124
  0
LINE
  5
390
100
AcDbEntity
  8
0
100
AcDbLine
 62
7
  6
CONTINUOUS
 10
215.9109497218
 20
127.284776958
 11
216.2243179528
 21
127.284776958
  0
LINE
  5
391
100
AcDbEntity
  8
0
100
AcDbLine
 62
7
  6
CONTINUOUS
 10
212.644834454
 20
127.3698833309
 11
213.0322369274
 21
127.3698833309
  0
LINE
  5
392
100
AcDbEntity
  8
0
100
AcDbLine
 62
7
  6
CONTINUOUS
 10
215.848708737
 20
127.4549897037
 11
216.1632248179
 21
127.4549897037
  0
LINE
  5
393
100
AcDbEntity
  8
0
100
AcDbLine
 62
7
  6
CONTINUOUS
 10
212.5332135748
 20
127.5400960765
 11
212.9237605679
 21
127.5400960765
  0
LINE
  5
394
100
AcDbEntity
  8
0
100
AcDbLine
 62
7
  6
CONTINUOUS
 10
215.6342430727
 20
127.5400960765
 11
216.0777442396
 21
127.5400960765
  0
LINE
  5
395
100
AcDbEntity
  8
0
100
AcDbLine
 62
7
  6
CONTINUOUS
 10
211.574297145
 20
127.6252024494
 11
212.7569693527
 21
127.6252024494
  0
LINE
  5
396
100
AcDbEntity
  8
0
100
AcDbLine
 62
7
  6
CONTINUOUS
 10
210.6983233175
 20
128.0507343135
 11
212.7002584627
 21
128.0507343135
  0
LINE
  5
397
100
AcDbEntity
  8
0
100
AcDbLine
 62
7
  6
CONTINUOUS
 10
213.4618352515
 20
128.0507343135
 11
214.0953908966
 21
128.0507343135
  0
LINE
  5
398
100
AcDbEntity
  8
0
100
AcDbLine
 62
7
  6
CONTINUOUS
 10
214.6831549325
 20
128.0507343135
 11
216.0777442396
 21
128.0507343135
  0
LINE
  5
399
100
AcDbEntity
  8
0
100
AcDbLine
 62
7
  6
CONTINUOUS
 10
216.6537778492
 20
128.0507343135
 11
216.9540612898
 21
128.0507343135
  0
LINE
  5
39A
100
AcDbEntity
  8
RUNDUNGEN
100
AcDbLine
 62
7
  6
CONTINUOUS
 10
206.5365699477
 20
128.2070449393
 11
201.8372046179
 21
128.2070449393
  0
LINE
  5
39B
100
AcDbEntity
  8
RUNDUNGEN
100
AcDbLine
 62
7
  6
CONTINUOUS
 10
196.5039545579
 20
128.2070449393
 11
191.8045892281
 21
128.2070449393
  0
LINE
  5
39C
100
AcDbEntity
  8
B-ACHSEN
100
AcDbLine
 62
7
  6
CONTINUOUS
 10
205.6705795879
 20
117.5507343135
 11
207.1705795879
 21
116.0507343135
  0
LINE
  5
39D
100
AcDbEntity
  8
B-ACHSEN
100
AcDbLine
 62
7
  6
CONTINUOUS
 10
191.1705795879
 20
116.0507343135
 11
191.1705795879
 21
99.3507343135
  0
LINE
  5
39E
100
AcDbEntity
  8
RUNDUNGEN
100
AcDbLine
 62
7
  6
CONTINUOUS
 10
192.1705795879
 20
182.7341276121
 11
192.1705795879
 21
152.1921313843
  0
LINE
  5
39F
100
AcDbEntity
  8
B-ACHSEN
100
AcDbLine
 62
7
  6
CONTINUOUS
 10
192.6705795879
 20
122.0507343135
 11
192.6705795879
 21
117.5507343135
  0
LINE
  5
3A0
100
AcDbEntity
  8
RUNDUNGEN
100
AcDbLine
 62
7
  6
CONTINUOUS
 10
192.1158276694
 20
150.9116784241
 11
190.0837491423
 21
127.1935734641
  0
LINE
  5
3A1
100
AcDbEntity
  8
B-ACHSEN
100
AcDbLine
 62
7
  6
CONTINUOUS
 10
184.2012761928
 20
132.0507343135
 11
189.9576267369
 21
132.9624506728
  0
LINE
  5
3A2
100
AcDbEntity
  8
B-ACHSEN
100
AcDbLine
 62
7
  6
CONTINUOUS
 10
214.139882983
 20
132.0507343135
 11
208.3865320364
 21
132.9619755832
  0
LWPOLYLINE
  5
3A3
100
AcDbEntity
  8
RUNDUNGEN
100
AcDbPolyline
 62
7
  6
CONTINUOUS
 90
5
 70
0
 10
208.3817093118
 20
132.9626914082
 10
208.3386308505
 20
132.9704845119
 10
208.1952442292
 20
133.0110068785
 10
208.0595763723
 20
133.0723263872
 10
207.9346115988
 20
133.1530355926
  0
LINE
  5
3A4
100
AcDbEntity
  8
RUNDUNGEN
100
AcDbLine
 62
7
  6
CONTINUOUS
 10
190.6024798697
 20
133.4074463643
 11
190.5629499697
 21
133.3147934393
  0
LINE
  5
3A5
100
AcDbEntity
  8
RUNDUNGEN
100
AcDbLine
 62
7
  6
CONTINUOUS
 10
190.5631024293
 20
133.3151507848
 11
190.5356005624
 21
133.2722687895
  0
LINE
  5
3A6
100
AcDbEntity
  8
B-ACHSEN
100
AcDbLine
 62
2
  6
CENTER
 10
199.1705795879
 20
95.0507343135
 11
199.1705795879
 21
188.4217638339
  0
LWPOLYLINE
  5
3A7
100
AcDbEntity
  8
RUNDUNGEN
100
AcDbPolyline
 62
7
  6
CONTINUOUS
 90
4
 70
0
 10
190.5369256388
 20
133.2741065072
 10
190.5246554447
 20
133.258554915
 10
190.5178126195
 20
133.2510229831
 10
190.5116726963
 20
133.2448649779
  0
LINE
  5
3A8
100
AcDbEntity
  8
RUNDUNGEN
100
AcDbLine
 62
7
  6
CONTINUOUS
 10
190.5116726963
 20
133.2448649779
 11
190.4154261727
 21
133.1598807311
  0
LINE
  5
3A9
100
AcDbEntity
  8
RUNDUNGEN
100
AcDbLine
 62
7
  6
CONTINUOUS
 10
207.9346115988
 20
133.1530355926
 11
207.8230865203
 21
133.2513036617
  0
LWPOLYLINE
  5
3AA
100
AcDbEntity
  8
RUNDUNGEN
100
AcDbPolyline
 62
7
  6
CONTINUOUS
 90
5
 70
0
 10
190.4154261727
 20
133.1598807311
 10
190.3087718513
 20
133.0877462161
 10
190.1934033364
 20
133.0297738545
 10
190.0711720725
 20
132.9870506212
 10
189.9594612214
 20
132.9627407474
  0
LWPOLYLINE
  5
3AB
100
AcDbEntity
  8
RUNDUNGEN
100
AcDbPolyline
 62
7
  6
CONTINUOUS
 90
3
 70
0
 10
207.8230865203
 20
133.2513036617
 10
207.8253458053
 20
133.2488814774
 10
207.8131767323
 20
133.2625421305
  0
LWPOLYLINE
  5
3AC
100
AcDbEntity
  8
RUNDUNGEN
100
AcDbPolyline
 62
7
  6
CONTINUOUS
 90
5
 70
0
 10
207.8134475013
 20
133.2622381729
 10
207.7915791236
 20
133.292551611
 10
207.7620959905
 20
133.3466630194
 10
207.7312397252
 20
133.4333348923
 10
207.7174683788
 20
133.5130662139
  0
LINE
  5
3AD
100
AcDbEntity
  8
B-ACHSEN
100
AcDbLine
 62
7
  6
CONTINUOUS
 10
205.6705795879
 20
122.0507343135
 11
205.6705795879
 21
117.5507343135
  0
LINE
  5
3AE
100
AcDbEntity
  8
RUNDUNGEN
100
AcDbLine
 62
7
  6
CONTINUOUS
 10
208.2574100335
 20
127.1935734644
 11
206.2253315065
 21
150.9116784241
  0
LINE
  5
3AF
100
AcDbEntity
  8
RUNDUNGEN
100
AcDbLine
 62
7
  6
CONTINUOUS
 10
206.1705795879
 20
152.1921313843
 11
206.1705795879
 21
182.7341276121
  0
LINE
  5
3B0
100
AcDbEntity
  8
0
100
AcDbLine
 62
7
  6
CONTINUOUS
 10
206.4705795879
 20
178.8544040677
 11
206.4705795879
 21
172.8713211009
  0
LINE
  5
3B1
100
AcDbEntity
  8
B-ACHSEN
100
AcDbLine
 62
7
  6
CONTINUOUS
 10
207.1705795879
 20
116.0507343135
 11
207.1705795879
 21
99.3507343135
  0
LINE
  5
3B2
100
AcDbEntity
  8
0
100
AcDbLine
 62
7
  6
CONTINUOUS
 10
210.6983233175
 20
124.0507343135
 11
210.6983233175
 21
128.0507343135
  0
LINE
  5
3B3
100
AcDbEntity
  8
0
100
AcDbLine
 62
7
  6
CONTINUOUS
 10
211.1488463864
 20
128.0507343135
 11
211.1488463864
 21
124.0507343135
  0
LINE
  5
3B4
100
AcDbEntity
  8
0
100
AcDbLine
 62
7
  6
CONTINUOUS
 10
211.574297145
 20
124.0507343135
 11
211.574297145
 21
125.8379683815
  0
LINE
  5
3B5
100
AcDbEntity
  8
0
100
AcDbLine
 62
7
  6
CONTINUOUS
 10
211.574297145
 20
126.3486066185
 11
211.574297145
 21
127.6252024494
  0
LINE
  5
3B6
100
AcDbEntity
  8
B-ACHSEN
100
AcDbLine
 62
7
  6
CONTINUOUS
 10
192.6705795879
 20
117.5507343135
 11
191.1705795879
 21
116.0507343135
  0
LINE
  5
3B7
100
AcDbEntity
  8
0
100
AcDbLine
 62
7
  6
CONTINUOUS
 10
212.6998067387
 20
126.8592448555
 11
212.6998067387
 21
127.1145642124
  0
LINE
  5
3B8
100
AcDbEntity
  8
0
100
AcDbLine
 62
7
  6
CONTINUOUS
 10
213.0856788437
 20
127.1145642124
 11
213.0856788437
 21
126.8592448555
  0
LINE
  5
3B9
100
AcDbEntity
  8
0
100
AcDbLine
 62
7
  6
CONTINUOUS
 10
213.3955571891
 20
126.7741384826
 11
213.3955571891
 21
127.1145642124
  0
LINE
  5
3BA
100
AcDbEntity
  8
0
100
AcDbLine
 62
7
  6
CONTINUOUS
 10
213.4618352515
 20
125.4124363981
 11
213.4618352515
 21
128.0507343135
  0
LINE
  5
3BB
100
AcDbEntity
  8
0
100
AcDbLine
 62
7
  6
CONTINUOUS
 10
213.827659394
 20
128.0507343135
 11
213.827659394
 21
125.4124363981
  0
LINE
  5
3BC
100
AcDbEntity
  8
0
100
AcDbLine
 62
7
  6
CONTINUOUS
 10
214.0953908966
 20
125.4124363981
 11
214.0953908966
 21
128.0507343135
  0
LINE
  5
3BD
100
AcDbEntity
  8
0
100
AcDbLine
 62
7
  6
CONTINUOUS
 10
214.6831549325
 20
125.4124363981
 11
214.6831549325
 21
128.0507343135
  0
LINE
  5
3BE
100
AcDbEntity
  8
0
100
AcDbLine
 62
7
  6
CONTINUOUS
 10
215.0208159843
 20
128.0507343135
 11
215.0208159843
 21
125.4124363981
  0
LINE
  5
3BF
100
AcDbEntity
  8
0
100
AcDbLine
 62
7
  6
CONTINUOUS
 10
215.1358193794
 20
124.0507343135
 11
215.1358193794
 21
124.7207908051
  0
LINE
  5
3C0
100
AcDbEntity
  8
0
100
AcDbLine
 62
7
  6
CONTINUOUS
 10
215.2189438075
 20
125.4124363981
 11
215.2189438075
 21
128.0507343135
  0
LINE
  5
3C1
100
AcDbEntity
  8
0
100
AcDbLine
 62
7
  6
CONTINUOUS
 10
215.4641022764
 20
128.0507343135
 11
215.4641022764
 21
124.0507343135
  0
LINE
  5
3C2
100
AcDbEntity
  8
0
100
AcDbLine
 62
7
  6
CONTINUOUS
 10
215.6342430727
 20
124.5613726101
 11
215.6342430727
 21
127.5400960765
  0
LINE
  5
3C3
100
AcDbEntity
  8
0
100
AcDbLine
 62
7
  6
CONTINUOUS
 10
215.9705793654
 20
125.4124363981
 11
215.9705793654
 21
126.6890321098
  0
LINE
  5
3C4
100
AcDbEntity
  8
0
100
AcDbLine
 62
7
  6
CONTINUOUS
 10
216.2828556646
 20
126.6890321098
 11
216.2828556646
 21
125.4124363981
  0
LINE
  5
3C5
100
AcDbEntity
  8
0
100
AcDbLine
 62
7
  6
CONTINUOUS
 10
216.3923679136
 20
125.4124363981
 11
216.3923679136
 21
126.6890321098
  0
LINE
  5
3C6
100
AcDbEntity
  8
0
100
AcDbLine
 62
7
  6
CONTINUOUS
 10
216.6537778492
 20
128.0507343135
 11
216.6537778492
 21
124.0507343135
  0
LINE
  5
3C7
100
AcDbEntity
  8
B-ACHSEN
100
AcDbLine
 62
7
  6
CONTINUOUS
 10
216.6705795879
 20
122.0507343135
 11
216.6705795879
 21
124.0507343135
  0
LINE
  5
3C8
100
AcDbEntity
  8
B-ACHSEN
100
AcDbLine
 62
7
  6
CONTINUOUS
 10
216.6705795879
 20
128.0507343135
 11
216.6705795879
 21
129.0876692918
  0
LINE
  5
3C9
100
AcDbEntity
  8
0
100
AcDbLine
 62
7
  6
CONTINUOUS
 10
216.9540612898
 20
128.0507343135
 11
216.9540612898
 21
124.0507343135
  0
LINE
  5
3CA
100
AcDbEntity
  8
0
100
AcDbLine
 62
7
  6
CONTINUOUS
 10
216.9668026474
 20
124.0507343135
 11
216.9668026474
 21
128.0507343135
  0
LINE
  5
3CB
100
AcDbEntity
  8
0
100
AcDbLine
 62
7
  6
CONTINUOUS
 10
216.9697993057
 20
128.0507343135
 11
216.9697993057
 21
124.0507343135
  0
LINE
  5
3CC
100
AcDbEntity
  8
0
100
AcDbLine
 62
7
  6
CONTINUOUS
 10
206.1705795879
 20
172.8713211009
 11
206.4705795879
 21
172.8713211009
  0
LINE
  5
3CD
100
AcDbEntity
  8
B-ACHSEN
100
AcDbLine
 62
7
  6
CONTINUOUS
 10
207.1705795879
 20
99.3507343135
 11
205.8705795879
 21
98.0507343135
  0
LINE
  5
3CE
100
AcDbEntity
  8
0
100
AcDbLine
 62
7
  6
CONTINUOUS
 10
206.1705795879
 20
176.1048994647
 11
206.4705795879
 21
176.1048994647
  0
LINE
  5
3CF
100
AcDbEntity
  8
0
100
AcDbLine
 62
7
  6
CONTINUOUS
 10
206.1705795879
 20
176.3560354672
 11
206.4705795879
 21
176.3560354672
  0
LINE
  5
3D0
100
AcDbEntity
  8
0
100
AcDbLine
 62
7
  6
CONTINUOUS
 10
206.1705795879
 20
177.1931554755
 11
206.4705795879
 21
177.1931554755
  0
LINE
  5
3D1
100
AcDbEntity
  8
0
100
AcDbLine
 62
7
  6
CONTINUOUS
 10
206.1705795879
 20
177.444291478
 11
206.4705795879
 21
177.444291478
  0
LINE
  5
3D2
100
AcDbEntity
  8
0
100
AcDbLine
 62
7
  6
CONTINUOUS
 10
206.1705795879
 20
177.8349474287
 11
206.4705795879
 21
177.8349474287
  0
LINE
  5
3D3
100
AcDbEntity
  8
0
100
AcDbLine
 62
7
  6
CONTINUOUS
 10
206.1705795879
 20
178.0023714303
 11
206.4705795879
 21
178.0023714303
  0
LINE
  5
3D4
100
AcDbEntity
  8
0
100
AcDbLine
 62
7
  6
CONTINUOUS
 10
206.1705795879
 20
178.1178294148
 11
206.4705795879
 21
178.1178294148
  0
LINE
  5
3D5
100
AcDbEntity
  8
0
100
AcDbLine
 62
7
  6
CONTINUOUS
 10
206.1705795879
 20
178.4637479573
 11
206.4705795879
 21
178.4637479573
  0
LINE
  5
3D6
100
AcDbEntity
  8
0
100
AcDbLine
 62
7
  6
CONTINUOUS
 10
206.1705795879
 20
178.672067437
 11
206.4705795879
 21
178.672067437
  0
LINE
  5
3D7
100
AcDbEntity
  8
0
100
AcDbLine
 62
7
  6
CONTINUOUS
 10
206.1705795879
 20
178.7836834913
 11
206.4705795879
 21
178.7836834913
  0
LINE
  5
3D8
100
AcDbEntity
  8
0
100
AcDbLine
 62
7
  6
CONTINUOUS
 10
206.1705795879
 20
178.8544040677
 11
206.4705795879
 21
178.8544040677
  0
LINE
  5
3D9
100
AcDbEntity
  8
RUNDUNGEN
100
AcDbLine
 62
7
  6
CONTINUOUS
 10
204.6705795879
 20
184.2341276213
 11
193.6705795879
 21
184.2341276213
  0
LWPOLYLINE
  5
3DA
100
AcDbEntity
  8
RUNDUNGEN
100
AcDbPolyline
 62
7
  6
CONTINUOUS
 90
17
 70
0
 10
52.2047007129
 20
45.2165822073
 10
52.2184696717
 20
45.0135421087
 10
52.2553513656
 20
44.8295488326
 10
52.3115872785
 20
44.659687934
 10
52.3834791837
 20
44.5052820123
 10
52.4677455723
 20
44.3666413814
 10
52.5616920656
 20
44.2433858205
 10
52.6620669068
 20
44.1358860046
 10
52.7662108885
 20
44.0435486002
 10
52.871160782
 20
43.9658776138
 10
52.9755652276
 20
43.9011226363
 10
53.0745553113
 20
43.8494696848
 10
53.1632231836
 20
43.8101448514
 10
53.243062256
 20
43.7795793891
 10
53.3132965884
 20
43.7559146285
 10
53.3782909688
 20
43.7362390829
 10
53.4415266615
 20
43.7187585968
  0
LINE
  5
3DB
100
AcDbEntity
  8
RUNDUNGEN
100
AcDbLine
 62
7
  6
CONTINUOUS
 10
52.204693431
 20
45.2160098581
 11
52.204693431
 21
56.2421139418
  0
LWPOLYLINE
  5
3DC
100
AcDbEntity
  8
RUNDUNGEN
100
AcDbPolyline
 62
7
  6
CONTINUOUS
 90
3
 70
0
 10
70.2311429081
 20
60.290658677
 10
70.1441458427
 20
60.1762132322
 10
70.0411281632
 20
60.0749911185
  0
LINE
  5
3DD
100
AcDbEntity
  8
RUNDUNGEN
100
AcDbLine
 62
7
  6
CONTINUOUS
 10
70.1441437572
 20
41.2819129439
 11
70.2311429612
 21
41.1674650708
  0
LINE
  5
3DE
100
AcDbEntity
  8
0
100
AcDbLine
 62
7
  6
CONTINUOUS
 10
69.9458826043
 20
43.7290618997
 11
69.9458826043
 21
43.4290618997
  0
LWPOLYLINE
  5
3DF
100
AcDbEntity
  8
RUNDUNGEN
100
AcDbPolyline
 62
7
  6
CONTINUOUS
 90
5
 70
0
 10
70.0411281632
 20
60.0749911185
 10
69.9246030343
 20
59.9896635369
 10
69.7970007156
 20
59.9220107286
 10
69.6609826194
 20
59.873444333
 10
69.5064080557
 20
59.8434186026
  0
LWPOLYLINE
  5
3E0
100
AcDbEntity
  8
RUNDUNGEN
100
AcDbPolyline
 62
7
  6
CONTINUOUS
 90
19
 70
0
 10
53.4220257638
 20
57.7341288575
 10
53.3500682223
 20
57.7135758218
 10
53.2817119337
 20
57.6919053998
 10
53.2116868608
 20
57.6670343769
 10
53.1357409043
 20
57.6364348389
 10
53.0538125042
 20
57.5985456869
 10
52.9645887933
 20
57.5507175632
 10
52.8713991039
 20
57.4924073466
 10
52.7772697613
 20
57.4234284901
 10
52.6838450883
 20
57.3429884106
 10
52.5933892823
 20
57.2509896852
 10
52.5081428113
 20
57.1477255952
 10
52.430338968
 20
57.0340406085
 10
52.3617860326
 20
56.9108271003
 10
52.3042766558
 20
56.7797267484
 10
52.2588310837
 20
56.6414147294
 10
52.2265458251
 20
56.4969441949
 10
52.2084684954
 20
56.3479304864
 10
52.2047007044
 20
56.2415463408
  0
LWPOLYLINE
  5
3E1
100
AcDbEntity
  8
RUNDUNGEN
100
AcDbPolyline
 62
7
  6
CONTINUOUS
 90
5
 70
0
 10
53.4400485699
 20
43.7191491923
 10
53.4531454346
 20
43.7157074528
 10
53.5044804738
 20
43.702931491
 10
53.5574128156
 20
43.6908563677
 10
53.5912028987
 20
43.6836752572
  0
LINE
  5
3E2
100
AcDbEntity
  8
RUNDUNGEN
100
AcDbLine
 62
7
  6
CONTINUOUS
 10
70.0411262831
 20
41.3831342713
 11
70.1441437572
 21
41.2819129439
  0
LINE
  5
3E3
100
AcDbEntity
  8
0
100
AcDbLine
 62
7
  6
CONTINUOUS
 10
70.5521785475
 20
43.7290618997
 11
70.5521785475
 21
43.4290618997
  0
LINE
  5
3E4
100
AcDbEntity
  8
0
100
AcDbLine
 62
7
  6
CONTINUOUS
 10
71.7214195634
 20
39.2013181701
 11
71.7214195634
 21
38.7507951012
  0
LINE
  5
3E5
100
AcDbEntity
  8
0
100
AcDbLine
 62
7
  6
CONTINUOUS
 10
72.5731650249
 20
43.7290618997
 11
72.5731650249
 21
43.4290618997
  0
LWPOLYLINE
  5
3E6
100
AcDbEntity
  8
RUNDUNGEN
100
AcDbPolyline
 62
7
  6
CONTINUOUS
 90
5
 70
0
 10
116.1849645179
 20
43.6836739987
 10
116.225595714
 20
43.6923572109
 10
116.2788190377
 20
43.7046395883
 10
116.3304888698
 20
43.7176586427
 10
116.354147711
 20
43.7239949413
  0
LINE
  5
3E7
100
AcDbEntity
  8
RUNDUNGEN
100
AcDbLine
 62
7
  6
CONTINUOUS
 10
116.1850087353
 20
43.6836830583
 11
107.5333380136
 21
41.8941646614
  0
LINE
  5
3E8
100
AcDbEntity
  8
RUNDUNGEN
100
AcDbLine
 62
7
  6
CONTINUOUS
 10
62.2428354639
 20
41.8941646614
 11
53.5911647425
 21
43.6836830583
  0
LINE
  5
3E9
100
AcDbEntity
  8
0
100
AcDbLine
 62
7
  6
CONTINUOUS
 10
73.1794609681
 20
43.7290618997
 11
73.1794609681
 21
43.4290618997
  0
LINE
  5
3EA
100
AcDbEntity
  8
0
100
AcDbLine
 62
7
  6
CONTINUOUS
 10
73.3214195634
 20
37.5965750653
 11
73.3214195634
 21
37.1993830249
  0
LINE
  5
3EB
100
AcDbEntity
  8
0
100
AcDbLine
 62
7
  6
CONTINUOUS
 10
73.6547529604
 20
37.3103357223
 11
73.6547529604
 21
36.9213751918
  0
LINE
  5
3EC
100
AcDbEntity
  8
0
100
AcDbLine
 62
7
  6
CONTINUOUS
 10
73.91787446
 20
43.7290618997
 11
73.91787446
 21
43.4290618997
  0
LINE
  5
3ED
100
AcDbEntity
  8
0
100
AcDbLine
 62
7
  6
CONTINUOUS
 10
73.9214195634
 20
37.0915323923
 11
73.9214195634
 21
36.708640684
  0
LINE
  5
3EE
100
AcDbEntity
  8
0
100
AcDbLine
 62
7
  6
CONTINUOUS
 10
74.1214195634
 20
36.9330886489
 11
74.1214195634
 21
36.5544762643
  0
LINE
  5
3EF
100
AcDbEntity
  8
0
100
AcDbLine
 62
7
  6
CONTINUOUS
 10
74.1225878624
 20
43.7290618997
 11
74.1225878624
 21
43.4290618997
  0
LINE
  5
3F0
100
AcDbEntity
  8
0
100
AcDbLine
 62
7
  6
CONTINUOUS
 10
74.1880861665
 20
36.8813188434
 11
74.1880861665
 21
36.5040842985
  0
LINE
  5
3F1
100
AcDbEntity
  8
0
100
AcDbLine
 62
7
  6
CONTINUOUS
 10
74.2547529604
 20
36.8300614767
 11
74.2547529604
 21
36.4541814183
  0
LINE
  5
3F2
100
AcDbEntity
  8
0
100
AcDbLine
 62
7
  6
CONTINUOUS
 10
74.5267851578
 20
43.7290618997
 11
74.5267851578
 21
43.4290618997
  0
LINE
  5
3F3
100
AcDbEntity
  8
0
100
AcDbLine
 62
7
  6
CONTINUOUS
 10
74.7880861665
 20
36.4378062361
 11
74.7880861665
 21
36.0719820936
  0
LINE
  5
3F4
100
AcDbEntity
  8
0
100
AcDbLine
 62
7
  6
CONTINUOUS
 10
75.1880863573
 20
36.1633489889
 11
75.1880863573
 21
35.804250591
  0
LINE
  5
3F5
100
AcDbEntity
  8
0
100
AcDbLine
 62
7
  6
CONTINUOUS
 10
75.2547527696
 20
36.1191722136
 11
75.2547527696
 21
35.7611336316
  0
LWPOLYLINE
  5
3F6
100
AcDbEntity
  8
RUNDUNGEN
100
AcDbPolyline
 62
7
  6
CONTINUOUS
 90
3
 70
0
 10
100.269792331
 20
41.6147064208
 10
100.3049288633
 20
41.6186585889
 10
100.4688382897
 20
41.6362043275
  0
LWPOLYLINE
  5
3F7
100
AcDbEntity
  8
RUNDUNGEN
100
AcDbPolyline
 62
7
  6
CONTINUOUS
 90
18
 70
0
 10
100.4688382897
 20
41.6362043275
 10
100.6475805759
 20
41.6538663633
 10
100.8416655037
 20
41.6715574675
 10
101.0510232492
 20
41.6891458144
 10
101.2756467022
 20
41.7065199927
 10
101.5155114989
 20
41.7235614464
 10
101.7704776328
 20
41.7401480391
 10
102.0404960711
 20
41.7561829612
 10
102.3253999827
 20
41.7715548082
 10
102.6250053503
 20
41.7861415305
 10
102.9390376161
 20
41.7998325824
 10
103.2671260275
 20
41.8125164185
 10
103.6088270225
 20
41.8240680352
 10
103.9635661495
 20
41.8343582477
 10
104.3306189561
 20
41.8432731491
 10
104.709329276
 20
41.8506999476
 10
105.0988797043
 20
41.8565133291
 10
105.4982482891
 20
41.8605698502
  0
LINE
  5
3F8
100
AcDbEntity
  8
RUNDUNGEN
100
AcDbLine
 62
7
  6
CONTINUOUS
 10
69.2912852082
 20
41.6378494019
 11
69.4552239348
 21
41.6204369648
  0
LINE
  5
3F9
100
AcDbEntity
  8
RUNDUNGEN
100
AcDbLine
 62
7
  6
CONTINUOUS
 10
69.4552239348
 20
41.6204369648
 11
69.506381809
 21
41.6147063456
  0
LWPOLYLINE
  5
3FA
100
AcDbEntity
  8
RUNDUNGEN
100
AcDbPolyline
 62
7
  6
CONTINUOUS
 90
5
 70
0
 10
69.5064080028
 20
41.6147051587
 10
69.6609819703
 20
41.5846796104
 10
69.7969995961
 20
41.5361135363
 10
69.9246014903
 20
41.4684612114
 10
70.0411262831
 20
41.3831342713
  0
LINE
  5
3FB
100
AcDbEntity
  8
0
100
AcDbLine
 62
7
  6
CONTINUOUS
 10
75.3880863573
 20
36.0321236896
 11
75.3880863573
 21
35.6761554444
  0
LINE
  5
3FC
100
AcDbEntity
  8
0
100
AcDbLine
 62
7
  6
CONTINUOUS
 10
75.495795382
 20
43.7290618997
 11
75.495795382
 21
43.4290618997
  0
LINE
  5
3FD
100
AcDbEntity
  8
0
100
AcDbLine
 62
7
  6
CONTINUOUS
 10
75.5839032336
 20
43.7290618997
 11
75.5839032336
 21
43.4290618997
  0
LINE
  5
3FE
100
AcDbEntity
  8
0
100
AcDbLine
 62
7
  6
CONTINUOUS
 10
75.5880863573
 20
35.9047577709
 11
75.5880863573
 21
35.5517764736
  0
LINE
  5
3FF
100
AcDbEntity
  8
0
100
AcDbLine
 62
7
  6
CONTINUOUS
 10
75.8352410877
 20
43.7290618997
 11
75.8352410877
 21
43.4290618997
  0
LINE
  5
400
100
AcDbEntity
  8
0
100
AcDbLine
 62
7
  6
CONTINUOUS
 10
75.8547527696
 20
35.740770556
 11
75.8547527696
 21
35.3915628401
  0
LINE
  5
401
100
AcDbEntity
  8
0
100
AcDbLine
 62
7
  6
CONTINUOUS
 10
76.1214195634
 20
35.5832523592
 11
76.1214195634
 21
35.2375950022
  0
LINE
  5
402
100
AcDbEntity
  8
0
100
AcDbLine
 62
7
  6
CONTINUOUS
 10
76.1435743397
 20
43.7290618997
 11
76.1435743397
 21
43.4290618997
  0
LINE
  5
403
100
AcDbEntity
  8
0
100
AcDbLine
 62
7
  6
CONTINUOUS
 10
76.3880863573
 20
35.4320035709
 11
76.3880863573
 21
35.0896887181
  0
LINE
  5
404
100
AcDbEntity
  8
0
100
AcDbLine
 62
7
  6
CONTINUOUS
 10
76.4130393319
 20
43.7290618997
 11
76.4130393319
 21
43.4290618997
  0
LINE
  5
405
100
AcDbEntity
  8
0
100
AcDbLine
 62
7
  6
CONTINUOUS
 10
76.5880863573
 20
35.3225699672
 11
76.5880863573
 21
34.9826339344
  0
LINE
  5
406
100
AcDbEntity
  8
0
100
AcDbLine
 62
7
  6
CONTINUOUS
 10
76.7214195634
 20
35.2514798131
 11
76.7214195634
 21
34.9130716605
  0
LINE
  5
407
100
AcDbEntity
  8
0
100
AcDbLine
 62
7
  6
CONTINUOUS
 10
76.7783683674
 20
43.7290618997
 11
76.7783683674
 21
43.4290618997
  0
LINE
  5
408
100
AcDbEntity
  8
0
100
AcDbLine
 62
7
  6
CONTINUOUS
 10
76.7880863573
 20
35.2164865552
 11
76.7880863573
 21
34.8788255034
  0
LINE
  5
409
100
AcDbEntity
  8
0
100
AcDbLine
 62
7
  6
CONTINUOUS
 10
77.1880863573
 20
35.0141010622
 11
77.1880863573
 21
34.6806976801
  0
LINE
  5
40A
100
AcDbEntity
  8
0
100
AcDbLine
 62
7
  6
CONTINUOUS
 10
77.2006920301
 20
43.7290618997
 11
77.2006920301
 21
43.4290618997
  0
LINE
  5
40B
100
AcDbEntity
  8
0
100
AcDbLine
 62
7
  6
CONTINUOUS
 10
77.5167814739
 20
43.7290618997
 11
77.5167814739
 21
43.4290618997
  0
LINE
  5
40C
100
AcDbEntity
  8
0
100
AcDbLine
 62
7
  6
CONTINUOUS
 10
77.6696413008
 20
43.7290618997
 11
77.6696413008
 21
43.4290618997
  0
LINE
  5
40D
100
AcDbEntity
  8
0
100
AcDbLine
 62
7
  6
CONTINUOUS
 10
77.7214195634
 20
34.7638221083
 11
77.7214195634
 21
34.4355392113
  0
LINE
  5
40E
100
AcDbEntity
  8
0
100
AcDbLine
 62
7
  6
CONTINUOUS
 10
77.752519723
 20
43.7290618997
 11
77.752519723
 21
43.4290618997
  0
LINE
  5
40F
100
AcDbEntity
  8
RUNDUNGEN
100
AcDbLine
 62
7
  6
CONTINUOUS
 10
105.4982482891
 20
41.8605698502
 11
106.1481945542
 21
41.8630747717
  0
LINE
  5
410
100
AcDbEntity
  8
RUNDUNGEN
100
AcDbLine
 62
7
  6
CONTINUOUS
 10
107.2295081561
 20
41.8630715399
 11
106.148194559
 21
41.8630715399
  0
LINE
  5
411
100
AcDbEntity
  8
0
100
AcDbLine
 62
7
  6
CONTINUOUS
 10
99.2344096949
 20
43.4290618997
 11
95.762566785
 21
43.4290618997
  0
LINE
  5
412
100
AcDbEntity
  8
0
100
AcDbLine
 62
7
  6
CONTINUOUS
 10
94.9619284058
 20
43.4290618997
 11
91.1142978871
 21
43.4290618997
  0
LINE
  5
413
100
AcDbEntity
  8
0
100
AcDbLine
 62
7
  6
CONTINUOUS
 10
78.4598204157
 20
43.4290618997
 11
69.9458826043
 21
43.4290618997
  0
LWPOLYLINE
  5
414
100
AcDbEntity
  8
RUNDUNGEN
100
AcDbPolyline
 62
7
  6
CONTINUOUS
 90
20
 70
0
 10
62.5466653213
 20
41.8630715399
 10
63.8813287022
 20
41.8626994534
 10
64.2861766051
 20
41.8605055647
 10
64.6826639261
 20
41.8564456918
 10
65.0694615173
 20
41.8506546475
 10
65.4455694736
 20
41.8432727898
 10
65.8101885718
 20
41.8344226482
 10
66.1626752354
 20
41.824214596
 10
66.5023186803
 20
41.8127599555
 10
66.8285546003
 20
41.8001849464
 10
67.1409440209
 20
41.7866123209
 10
67.4391186544
 20
41.7721516857
 10
67.7228067973
 20
41.7569106122
 10
67.9918252936
 20
41.7410086951
 10
68.2460035176
 20
41.7245559579
 10
68.4853004358
 20
41.7076463593
 10
68.7095358816
 20
41.690401362
 10
68.9186719056
 20
41.6729392924
 10
69.1126383961
 20
41.6553760486
 10
69.2912852082
 20
41.6378494019
  0
LINE
  5
415
100
AcDbEntity
  8
0
100
AcDbLine
 62
7
  6
CONTINUOUS
 10
78.0401114678
 20
43.7290618997
 11
78.0401114678
 21
43.4290618997
  0
LINE
  5
416
100
AcDbEntity
  8
0
100
AcDbLine
 62
7
  6
CONTINUOUS
 10
78.3173318807
 20
43.7290618997
 11
78.3173318807
 21
43.4290618997
  0
LINE
  5
417
100
AcDbEntity
  8
0
100
AcDbLine
 62
7
  6
CONTINUOUS
 10
78.4598204157
 20
43.7290618997
 11
78.4598204157
 21
43.4290618997
  0
LINE
  5
418
100
AcDbEntity
  8
0
100
AcDbLine
 62
7
  6
CONTINUOUS
 10
78.4675770128
 20
43.7290618997
 11
78.4675770128
 21
43.4290618997
  0
LINE
  5
419
100
AcDbEntity
  8
0
100
AcDbLine
 62
7
  6
CONTINUOUS
 10
79.3214195634
 20
34.1380337049
 11
79.3214195634
 21
33.821897248
  0
LINE
  5
41A
100
AcDbEntity
  8
0
100
AcDbLine
 62
7
  6
CONTINUOUS
 10
79.6547531511
 20
34.0298936701
 11
79.6547531511
 21
33.7157665234
  0
LINE
  5
41B
100
AcDbEntity
  8
0
100
AcDbLine
 62
7
  6
CONTINUOUS
 10
79.9214195634
 20
33.9486501893
 11
79.9214195634
 21
33.6360160281
  0
LINE
  5
41C
100
AcDbEntity
  8
0
100
AcDbLine
 62
7
  6
CONTINUOUS
 10
80.1880859758
 20
33.8720161079
 11
80.1880859758
 21
33.5607773952
  0
LINE
  5
41D
100
AcDbEntity
  8
RUNDUNGEN
100
AcDbLine
 62
7
  6
CONTINUOUS
 10
53.7883718883
 20
43.7290618997
 11
115.9878015892
 21
43.7290618997
  0
LINE
  5
41E
100
AcDbEntity
  8
0
100
AcDbLine
 62
7
  6
CONTINUOUS
 10
80.3214195634
 20
33.8354077387
 11
80.3214195634
 21
33.5248312889
  0
LINE
  5
41F
100
AcDbEntity
  8
0
100
AcDbLine
 62
7
  6
CONTINUOUS
 10
80.3880859758
 20
33.8175275774
 11
80.3880859758
 21
33.5072735741
  0
LINE
  5
420
100
AcDbEntity
  8
0
100
AcDbLine
 62
7
  6
CONTINUOUS
 10
84.1214195634
 20
33.2458636385
 11
84.1214195634
 21
32.9455801978
  0
LINE
  5
421
100
AcDbEntity
  8
0
100
AcDbLine
 62
7
  6
CONTINUOUS
 10
84.5214195634
 20
33.2329036019
 11
84.5214195634
 21
32.9328388402
  0
LINE
  5
422
100
AcDbEntity
  8
B-ACHSEN
100
AcDbLine
 62
2
  6
CENTER
 10
84.8880867387
 20
50.7290618997
 11
84.8880867387
 21
30.2290618997
  0
LINE
  5
423
100
AcDbEntity
  8
B-ACHSEN
100
AcDbLine
 62
2
  6
CENTER
 10
84.8880867387
 20
50.7290618997
 11
84.8880867387
 21
71.2290618997
  0
LINE
  5
424
100
AcDbEntity
  8
0
100
AcDbLine
 62
7
  6
CONTINUOUS
 10
85.0547523881
 20
33.2298555588
 11
85.0547523881
 21
32.9298421819
  0
LINE
  5
425
100
AcDbEntity
  8
B-ACHSEN
100
AcDbLine
 62
2
  6
CENTER
 10
84.8880867387
 20
50.7290618997
 11
49.4290714286
 21
50.7290618997
  0
LINE
  5
426
100
AcDbEntity
  8
B-ACHSEN
100
AcDbLine
 62
2
  6
CENTER
 10
84.8880867387
 20
50.7290618997
 11
119.2049546403
 21
50.7290618997
  0
LINE
  5
427
100
AcDbEntity
  8
0
100
AcDbLine
 62
7
  6
CONTINUOUS
 10
86.6547523881
 20
33.318464768
 11
86.6547523881
 21
33.0169504366
  0
LINE
  5
428
100
AcDbEntity
  8
0
100
AcDbLine
 62
7
  6
CONTINUOUS
 10
86.9880867387
 20
33.3555187953
 11
86.9880867387
 21
33.0533723799
  0
LINE
  5
429
100
AcDbEntity
  8
0
100
AcDbLine
 62
7
  6
CONTINUOUS
 10
87.2547523881
 20
33.3898319946
 11
87.2547523881
 21
33.0870979018
  0
LINE
  5
42A
100
AcDbEntity
  8
0
100
AcDbLine
 62
7
  6
CONTINUOUS
 10
87.4547523881
 20
33.418307224
 11
87.4547523881
 21
33.1150837163
  0
LINE
  5
42B
100
AcDbEntity
  8
0
100
AcDbLine
 62
7
  6
CONTINUOUS
 10
87.5214195634
 20
33.4283232382
 11
87.5214195634
 21
33.1249272083
  0
LINE
  5
42C
100
AcDbEntity
  8
0
100
AcDbLine
 62
7
  6
CONTINUOUS
 10
87.5880867387
 20
33.4386021025
 11
87.5880867387
 21
33.1350288203
  0
LINE
  5
42D
100
AcDbEntity
  8
0
100
AcDbLine
 62
7
  6
CONTINUOUS
 10
88.1214195634
 20
33.5303538423
 11
88.1214195634
 21
33.2251892184
  0
LINE
  5
42E
100
AcDbEntity
  8
0
100
AcDbLine
 62
7
  6
CONTINUOUS
 10
88.3214195634
 20
33.5691602183
 11
88.3214195634
 21
33.2633175493
  0
LINE
  5
42F
100
AcDbEntity
  8
0
100
AcDbLine
 62
7
  6
CONTINUOUS
 10
88.3880867387
 20
33.5826337002
 11
88.3880867387
 21
33.2765549165
  0
LINE
  5
430
100
AcDbEntity
  8
0
100
AcDbLine
 62
7
  6
CONTINUOUS
 10
88.6547523881
 20
33.6392336418
 11
88.6547523881
 21
33.3321590177
  0
LINE
  5
431
100
AcDbEntity
  8
0
100
AcDbLine
 62
7
  6
CONTINUOUS
 10
88.9214195634
 20
33.7001973948
 11
88.9214195634
 21
33.3920429424
  0
LINE
  5
432
100
AcDbEntity
  8
0
100
AcDbLine
 62
7
  6
CONTINUOUS
 10
89.1880867387
 20
33.7655716928
 11
89.1880867387
 21
33.4562508951
  0
LINE
  5
433
100
AcDbEntity
  8
0
100
AcDbLine
 62
7
  6
CONTINUOUS
 10
89.5214195634
 20
33.8535699977
 11
89.5214195634
 21
33.5426653334
  0
LINE
  5
434
100
AcDbEntity
  8
0
100
AcDbLine
 62
7
  6
CONTINUOUS
 10
89.8547523881
 20
33.9486497377
 11
89.8547523881
 21
33.6360155847
  0
LINE
  5
435
100
AcDbEntity
  8
0
100
AcDbLine
 62
7
  6
CONTINUOUS
 10
90.1214195634
 20
34.029893431
 11
90.1214195634
 21
33.7157662888
  0
LINE
  5
436
100
AcDbEntity
  8
0
100
AcDbLine
 62
7
  6
CONTINUOUS
 10
90.3214195634
 20
34.0938914943
 11
90.3214195634
 21
33.7785782955
  0
LINE
  5
437
100
AcDbEntity
  8
0
100
AcDbLine
 62
7
  6
CONTINUOUS
 10
90.3880867387
 20
34.1158141739
 11
90.3880867387
 21
33.8000926458
  0
LINE
  5
438
100
AcDbEntity
  8
0
100
AcDbLine
 62
7
  6
CONTINUOUS
 10
90.4547523881
 20
34.138033193
 11
90.4547523881
 21
33.8218967456
  0
LINE
  5
439
100
AcDbEntity
  8
0
100
AcDbLine
 62
7
  6
CONTINUOUS
 10
90.5880867387
 20
34.1833675958
 11
90.5880867387
 21
33.8663812113
  0
LINE
  5
43A
100
AcDbEntity
  8
0
100
AcDbLine
 62
7
  6
CONTINUOUS
 10
91.1142978871
 20
43.7290618997
 11
91.1142978871
 21
43.4290618997
  0
LINE
  5
43B
100
AcDbEntity
  8
0
100
AcDbLine
 62
7
  6
CONTINUOUS
 10
91.1214195634
 20
34.3768277436
 11
91.1214195634
 21
34.0561628748
  0
LINE
  5
43C
100
AcDbEntity
  8
0
100
AcDbLine
 62
7
  6
CONTINUOUS
 10
91.2567864021
 20
43.7290618997
 11
91.2567864021
 21
43.4290618997
  0
LINE
  5
43D
100
AcDbEntity
  8
0
100
AcDbLine
 62
7
  6
CONTINUOUS
 10
92.0547523881
 20
34.7638214233
 11
92.0547523881
 21
34.4355385401
  0
LINE
  5
43E
100
AcDbEntity
  8
0
100
AcDbLine
 62
7
  6
CONTINUOUS
 10
92.2075814292
 20
43.7290618997
 11
92.2075814292
 21
43.4290618997
  0
LINE
  5
43F
100
AcDbEntity
  8
0
100
AcDbLine
 62
7
  6
CONTINUOUS
 10
92.3889384431
 20
43.7290618997
 11
92.3889384431
 21
43.4290618997
  0
LINE
  5
440
100
AcDbEntity
  8
0
100
AcDbLine
 62
7
  6
CONTINUOUS
 10
92.5880867387
 20
35.0141008753
 11
92.5880867387
 21
34.6806974971
  0
LINE
  5
441
100
AcDbEntity
  8
RUNDUNGEN
100
AcDbLine
 62
7
  6
CONTINUOUS
 10
115.9878015892
 20
57.7290618997
 11
53.7883718883
 21
57.7290618997
  0
LINE
  5
442
100
AcDbEntity
  8
0
100
AcDbLine
 62
7
  6
CONTINUOUS
 10
92.7723940988
 20
43.7290618997
 11
92.7723940988
 21
43.4290618997
  0
LINE
  5
443
100
AcDbEntity
  8
0
100
AcDbLine
 62
7
  6
CONTINUOUS
 10
92.9880867387
 20
35.216486356
 11
92.9880867387
 21
34.8788253084
  0
LINE
  5
444
100
AcDbEntity
  8
0
100
AcDbLine
 62
7
  6
CONTINUOUS
 10
93.0988543444
 20
43.7290618997
 11
93.0988543444
 21
43.4290618997
  0
LINE
  5
445
100
AcDbEntity
  8
0
100
AcDbLine
 62
7
  6
CONTINUOUS
 10
93.5989155388
 20
43.7290618997
 11
93.5989155388
 21
43.4290618997
  0
LINE
  5
446
100
AcDbEntity
  8
0
100
AcDbLine
 62
7
  6
CONTINUOUS
 10
93.8683804345
 20
43.7290618997
 11
93.8683804345
 21
43.4290618997
  0
LINE
  5
447
100
AcDbEntity
  8
0
100
AcDbLine
 62
7
  6
CONTINUOUS
 10
94.244080031
 20
43.7290618997
 11
94.244080031
 21
43.4290618997
  0
LINE
  5
448
100
AcDbEntity
  8
0
100
AcDbLine
 62
7
  6
CONTINUOUS
 10
94.4565494324
 20
43.7290618997
 11
94.4565494324
 21
43.4290618997
  0
LINE
  5
449
100
AcDbEntity
  8
0
100
AcDbLine
 62
7
  6
CONTINUOUS
 10
94.6120236285
 20
43.7290618997
 11
94.6120236285
 21
43.4290618997
  0
LINE
  5
44A
100
AcDbEntity
  8
0
100
AcDbLine
 62
7
  6
CONTINUOUS
 10
94.6250970692
 20
43.7290618997
 11
94.6250970692
 21
43.4290618997
  0
LINE
  5
44B
100
AcDbEntity
  8
0
100
AcDbLine
 62
7
  6
CONTINUOUS
 10
94.9619284058
 20
43.7290618997
 11
94.9619284058
 21
43.4290618997
  0
LINE
  5
44C
100
AcDbEntity
  8
0
100
AcDbLine
 62
7
  6
CONTINUOUS
 10
94.9880867387
 20
36.4378058317
 11
94.9880867387
 21
36.0719816993
  0
LINE
  5
44D
100
AcDbEntity
  8
RUNDUNGEN
100
AcDbLine
 62
7
  6
CONTINUOUS
 10
64.2779251884
 20
59.5975539492
 11
63.6279789232
 21
59.5950490277
  0
LINE
  5
44E
100
AcDbEntity
  8
RUNDUNGEN
100
AcDbLine
 62
7
  6
CONTINUOUS
 10
62.5466653213
 20
59.5950522595
 11
63.6279789184
 21
59.5950522595
  0
LWPOLYLINE
  5
44F
100
AcDbEntity
  8
RUNDUNGEN
100
AcDbPolyline
 62
7
  6
CONTINUOUS
 90
20
 70
0
 10
107.2295081561
 20
59.5950522595
 10
105.8948447753
 20
59.595424346
 10
105.4899968723
 20
59.5976182347
 10
105.0935095514
 20
59.6016781076
 10
104.7067119602
 20
59.6074691519
 10
104.3306040039
 20
59.6148510096
 10
103.9659849057
 20
59.6237011513
 10
103.6134982421
 20
59.6339092034
 10
103.2738547971
 20
59.645363844
 10
102.9476188772
 20
59.6579388531
 10
102.6352294566
 20
59.6715114785
 10
102.3370548231
 20
59.6859721138
 10
102.0533666802
 20
59.7012131872
 10
101.7843481838
 20
59.7171151043
 10
101.5301699599
 20
59.7335678415
 10
101.2908730417
 20
59.7504774401
 10
101.0666375959
 20
59.7677224374
 10
100.8575015719
 20
59.785184507
 10
100.6635350813
 20
59.8027477508
 10
100.4848882692
 20
59.8202743975
  0
LINE
  5
450
100
AcDbEntity
  8
0
100
AcDbLine
 62
7
  6
CONTINUOUS
 10
95.5214195634
 20
36.8300607471
 11
95.5214195634
 21
36.4541807079
  0
LINE
  5
451
100
AcDbEntity
  8
0
100
AcDbLine
 62
7
  6
CONTINUOUS
 10
95.762566785
 20
43.7290618997
 11
95.762566785
 21
43.4290618997
  0
LINE
  5
452
100
AcDbEntity
  8
0
100
AcDbLine
 62
7
  6
CONTINUOUS
 10
96.2702959378
 20
43.7290618997
 11
96.2702959378
 21
43.4290618997
  0
LINE
  5
453
100
AcDbEntity
  8
0
100
AcDbLine
 62
7
  6
CONTINUOUS
 10
96.4982776098
 20
43.7290618997
 11
96.4982776098
 21
43.4290618997
  0
LINE
  5
454
100
AcDbEntity
  8
0
100
AcDbLine
 62
7
  6
CONTINUOUS
 10
97.1019587983
 20
43.7290618997
 11
97.1019587983
 21
43.4290618997
  0
LINE
  5
455
100
AcDbEntity
  8
0
100
AcDbLine
 62
7
  6
CONTINUOUS
 10
97.5061560938
 20
43.7290618997
 11
97.5061560938
 21
43.4290618997
  0
LWPOLYLINE
  5
456
100
AcDbEntity
  8
RUNDUNGEN
100
AcDbPolyline
 62
7
  6
CONTINUOUS
 90
3
 70
0
 10
69.5063811465
 20
59.8434173786
 10
69.4712446142
 20
59.8394652105
 10
69.3073351878
 20
59.8219194719
  0
LWPOLYLINE
  5
457
100
AcDbEntity
  8
RUNDUNGEN
100
AcDbPolyline
 62
7
  6
CONTINUOUS
 90
18
 70
0
 10
69.3073351878
 20
59.8219194719
 10
69.1285929016
 20
59.8042574361
 10
68.9345079738
 20
59.7865663319
 10
68.7251502282
 20
59.768977985
 10
68.5005267752
 20
59.7516038068
 10
68.2606619785
 20
59.734562353
 10
68.0056958447
 20
59.7179757603
 10
67.7356774064
 20
59.7019408382
 10
67.4507734947
 20
59.6865689912
 10
67.1511681272
 20
59.6719822689
 10
66.8371358613
 20
59.658291217
 10
66.50904745
 20
59.6456073809
 10
66.167346455
 20
59.6340557643
 10
65.812607328
 20
59.6237655517
 10
65.4455545213
 20
59.6148506503
 10
65.0668442014
 20
59.6074238518
 10
64.6772937732
 20
59.6016104703
 10
64.2779251884
 20
59.5975539492
  0
LINE
  5
458
100
AcDbEntity
  8
RUNDUNGEN
100
AcDbLine
 62
7
  6
CONTINUOUS
 10
100.4848882692
 20
59.8202743975
 11
100.3209495426
 21
59.8376868346
  0
LINE
  5
459
100
AcDbEntity
  8
RUNDUNGEN
100
AcDbLine
 62
7
  6
CONTINUOUS
 10
100.3209495426
 20
59.8376868346
 11
100.2697916685
 21
59.8434174538
  0
LWPOLYLINE
  5
45A
100
AcDbEntity
  8
RUNDUNGEN
100
AcDbPolyline
 62
7
  6
CONTINUOUS
 90
5
 70
0
 10
100.2697654747
 20
59.8434186407
 10
100.1151915072
 20
59.8734441891
 10
99.9791738814
 20
59.9220102631
 10
99.8515719872
 20
59.989662588
 10
99.7350471944
 20
60.0749895281
  0
LINE
  5
45B
100
AcDbEntity
  8
0
100
AcDbLine
 62
7
  6
CONTINUOUS
 10
97.6176201276
 20
43.7290618997
 11
97.6176201276
 21
43.4290618997
  0
LINE
  5
45C
100
AcDbEntity
  8
0
100
AcDbLine
 62
7
  6
CONTINUOUS
 10
98.054753914
 20
39.2013181701
 11
98.054753914
 21
38.7507951012
  0
LINE
  5
45D
100
AcDbEntity
  8
0
100
AcDbLine
 62
7
  6
CONTINUOUS
 10
98.1565501119
 20
43.7290618997
 11
98.1565501119
 21
43.4290618997
  0
LINE
  5
45E
100
AcDbEntity
  8
0
100
AcDbLine
 62
7
  6
CONTINUOUS
 10
98.3845317838
 20
43.7290618997
 11
98.3845317838
 21
43.4290618997
  0
LINE
  5
45F
100
AcDbEntity
  8
0
100
AcDbLine
 62
7
  6
CONTINUOUS
 10
98.7213627349
 20
43.7290618997
 11
98.7213627349
 21
43.4290618997
  0
LINE
  5
460
100
AcDbEntity
  8
0
100
AcDbLine
 62
7
  6
CONTINUOUS
 10
99.2344096949
 20
43.7290618997
 11
99.2344096949
 21
43.4290618997
  0
LWPOLYLINE
  5
461
100
AcDbEntity
  8
RUNDUNGEN
100
AcDbPolyline
 62
7
  6
CONTINUOUS
 90
5
 70
0
 10
53.591208782
 20
57.7744497589
 10
53.5505783685
 20
57.7657667296
 10
53.4973548989
 20
57.7534843238
 10
53.4456845633
 20
57.7404651467
 10
53.4220257638
 20
57.7341288575
  0
LINE
  5
462
100
AcDbEntity
  8
RUNDUNGEN
100
AcDbLine
 62
7
  6
CONTINUOUS
 10
53.5911647422
 20
57.7744407411
 11
62.2428354639
 21
59.563959138
  0
LINE
  5
463
100
AcDbEntity
  8
RUNDUNGEN
100
AcDbLine
 62
7
  6
CONTINUOUS
 10
107.5333380136
 20
59.563959138
 11
116.185008735
 21
57.7744407411
  0
LWPOLYLINE
  5
464
100
AcDbEntity
  8
RUNDUNGEN
100
AcDbPolyline
 62
7
  6
CONTINUOUS
 90
5
 70
0
 10
116.3361248417
 20
57.7389746231
 10
116.3230280679
 20
57.7424163383
 10
116.271693675
 20
57.7551921461
 10
116.2187615506
 20
57.7672672312
 10
116.1849705992
 20
57.774448543
  0
LWPOLYLINE
  5
465
100
AcDbEntity
  8
RUNDUNGEN
100
AcDbPolyline
 62
7
  6
CONTINUOUS
 90
3
 70
0
 10
99.5450305694
 20
41.1674651224
 10
99.6320276348
 20
41.2819105672
 10
99.7350453143
 20
41.3831326809
  0
LWPOLYLINE
  5
466
100
AcDbEntity
  8
RUNDUNGEN
100
AcDbPolyline
 62
7
  6
CONTINUOUS
 90
5
 70
0
 10
99.7350453143
 20
41.3831326809
 10
99.8515704432
 20
41.4684602625
 10
99.9791727618
 20
41.5361130708
 10
100.1151908581
 20
41.5846794664
 10
100.2697654218
 20
41.6147051969
  0
LWPOLYLINE
  5
467
100
AcDbEntity
  8
RUNDUNGEN
100
AcDbPolyline
 62
7
  6
CONTINUOUS
 90
19
 70
0
 10
116.354147711
 20
43.7239949413
 10
116.4261052516
 20
43.7445479766
 10
116.4944615384
 20
43.7662183978
 10
116.5644866099
 20
43.7910894197
 10
116.6404325689
 20
43.8216889582
 10
116.7223609726
 20
43.8595781117
 10
116.8115846863
 20
43.9074062368
 10
116.9047743777
 20
43.965716455
 10
116.998903721
 20
44.0346953128
 10
117.092328394
 20
44.115135393
 10
117.1827841992
 20
44.2071341187
 10
117.2680306692
 20
44.3103982085
 10
117.3458345114
 20
44.4240831947
 10
117.4143874458
 20
44.5472967023
 10
117.4718968218
 20
44.6783970537
 10
117.5173423934
 20
44.8167090723
 10
117.5496276516
 20
44.9611796061
 10
117.5677049808
 20
45.1101933139
 10
117.5714727717
 20
45.216577457
  0
LINE
  5
468
100
AcDbEntity
  8
RUNDUNGEN
100
AcDbLine
 62
7
  6
CONTINUOUS
 10
99.7350471944
 20
60.0749895281
 11
99.6320297203
 21
60.1762108556
  0
LINE
  5
469
100
AcDbEntity
  8
RUNDUNGEN
100
AcDbLine
 62
7
  6
CONTINUOUS
 10
99.6320297203
 20
60.1762108556
 11
99.5450305163
 21
60.2906587286
  0
LWPOLYLINE
  5
46A
100
AcDbEntity
  8
RUNDUNGEN
100
AcDbPolyline
 62
7
  6
CONTINUOUS
 90
17
 70
0
 10
117.5714791005
 20
56.2415338494
 10
117.557719133
 20
56.4445090504
 10
117.5208465939
 20
56.6284991198
 10
117.4646153869
 20
56.7983698384
 10
117.3927217121
 20
56.9527930882
 10
117.3084498353
 20
57.0914499143
 10
117.2145032333
 20
57.2147101919
 10
117.1141295273
 20
57.3222130072
 10
117.0099838367
 20
57.4145559405
 10
116.9050293431
 20
57.4922337129
 10
116.8006169637
 20
57.5569959884
 10
116.7016160775
 20
57.6086554606
 10
116.6129259655
 20
57.6479890384
 10
116.5330712902
 20
57.6785579018
 10
116.4628563558
 20
57.7022145685
 10
116.3978952622
 20
57.7218806747
 10
116.3346726794
 20
57.7393586103
  0
LINE
  5
46B
100
AcDbEntity
  8
RUNDUNGEN
100
AcDbLine
 62
7
  6
CONTINUOUS
 10
117.5714800465
 20
45.216009834
 11
117.5714800465
 21
56.2421132724
  0
ARC
  5
46C
100
AcDbEntity
  8
RUNDUNGEN
100
AcDbCircle
 62
7
  6
CONTINUOUS
 10
62.3880867387
 20
123.2070449393
 40
5.0
100
AcDbArc
 50
0.0
 51
88.7506915331
  0
ARC
  5
46D
100
AcDbEntity
  8
RUNDUNGEN
100
AcDbCircle
 62
7
  6
CONTINUOUS
 10
56.204693431
 20
151.5507343135
 40
4.0
100
AcDbArc
 50
157.5
 51
202.5
  0
ARC
  5
46E
100
AcDbEntity
  8
RUNDUNGEN
100
AcDbCircle
 62
7
  6
CONTINUOUS
 10
62.5474174044
 20
129.7052292502
 40
1.5
100
AcDbArc
 50
202.5
 51
268.0789960072
  0
ARC
  5
46F
100
AcDbEntity
  8
RUNDUNGEN
100
AcDbCircle
 62
7
  6
CONTINUOUS
 10
62.5466268182
 20
129.7071378941
 40
1.5
100
AcDbArc
 50
202.5038431565
 51
270.0014706212
  0
ARC
  5
470
100
AcDbEntity
  8
RUNDUNGEN
100
AcDbCircle
 62
7
  6
CONTINUOUS
 10
64.6058648234
 20
171.8329562289
 40
4.0
100
AcDbArc
 50
112.5
 51
157.5
  0
CIRCLE
  5
471
100
AcDbEntity
  8
RUNDUNGEN
100
AcDbCircle
 62
7
  6
CONTINUOUS
 10
84.8880867387
 20
151.5507343135
 40
17.5
  0
ARC
  5
472
100
AcDbEntity
  8
RUNDUNGEN
100
AcDbCircle
 62
7
  6
CONTINUOUS
 10
107.3880867387
 20
123.2070449393
 40
5.0
100
AcDbArc
 50
91.2493084669
 51
180.0
  0
ARC
  5
473
100
AcDbEntity
  8
RUNDUNGEN
100
AcDbCircle
 62
7
  6
CONTINUOUS
 10
107.2287560731
 20
129.7052292502
 40
1.5
100
AcDbArc
 50
271.404711051
 51
337.5
  0
ARC
  5
474
100
AcDbEntity
  8
RUNDUNGEN
100
AcDbCircle
 62
7
  6
CONTINUOUS
 10
107.2295081561
 20
129.7070449393
 40
1.5
100
AcDbArc
 50
270.0
 51
337.5
  0
ARC
  5
475
100
AcDbEntity
  8
RUNDUNGEN
100
AcDbCircle
 62
7
  6
CONTINUOUS
 10
113.5714800465
 20
151.5507343135
 40
4.0
100
AcDbArc
 50
337.5
 51
22.5
  0
ARC
  5
476
100
AcDbEntity
  8
RUNDUNGEN
100
AcDbCircle
 62
7
  6
CONTINUOUS
 10
105.1703086541
 20
171.8329562289
 40
4.0
100
AcDbArc
 50
22.5
 51
67.5
  0
ARC
  5
477
100
AcDbEntity
  8
RUNDUNGEN
100
AcDbCircle
 62
7
  6
CONTINUOUS
 10
84.8880867387
 20
180.2341276213
 40
4.0
100
AcDbArc
 50
67.5
 51
112.5
  0
ARC
  5
478
100
AcDbEntity
  8
RUNDUNGEN
100
AcDbCircle
 62
7
  6
CONTINUOUS
 10
199.1705795491
 20
2526.1776417742
 40
2397.9720795083
100
AcDbArc
 50
269.9362854918
 51
270.0637145082
  0
ARC
  5
479
100
AcDbEntity
  8
RUNDUNGEN
100
AcDbCircle
 62
7
  6
CONTINUOUS
 10
221.1705795879
 20
152.1921313843
 40
15.0
100
AcDbArc
 50
180.0
 51
184.8969296235
  0
ARC
  5
47A
100
AcDbEntity
  8
RUNDUNGEN
100
AcDbCircle
 62
7
  6
CONTINUOUS
 10
177.1705795879
 20
152.1921313843
 40
15.0
100
AcDbArc
 50
355.1030703765
 51
360.0
  0
ARC
  5
47B
100
AcDbEntity
  8
RUNDUNGEN
100
AcDbCircle
 62
8
  6
HIDDEN
 10
199.1705795879
 20
176.0507343135
 40
7.0
100
AcDbArc
 50
180.0
 51
360.0
  0
ARC
  5
47C
100
AcDbEntity
  8
B-ACHSEN
100
AcDbCircle
 62
7
  6
CONTINUOUS
 10
184.6705795879
 20
129.0876692918
 40
3.0
100
AcDbArc
 50
99.0
 51
180.0
  0
ARC
  5
47D
100
AcDbEntity
  8
B-ACHSEN
100
AcDbCircle
 62
7
  6
CONTINUOUS
 10
213.6705795879
 20
129.0876692918
 40
3.0
100
AcDbArc
 50
0.0
 51
81.0
  0
ARC
  5
47E
100
AcDbEntity
  8
RUNDUNGEN
100
AcDbCircle
 62
7
  6
CONTINUOUS
 10
193.6705795879
 20
182.7341276213
 40
1.5
100
AcDbArc
 50
90.0
 51
180.0000003246
  0
ARC
  5
47F
100
AcDbEntity
  8
RUNDUNGEN
100
AcDbCircle
 62
7
  6
CONTINUOUS
 10
204.6705795879
 20
182.7341276213
 40
1.5
100
AcDbArc
 50
359.9999996759
 51
90.0
  0
ARC
  5
480
100
AcDbEntity
  8
RUNDUNGEN
100
AcDbCircle
 62
7
  6
CONTINUOUS
 10
206.5365716201
 20
129.7070254199
 40
1.4999954955
100
AcDbArc
 50
269.9999361202
 51
4.8969296235
  0
ARC
  5
481
100
AcDbEntity
  8
RUNDUNGEN
100
AcDbCircle
 62
7
  6
CONTINUOUS
 10
191.8045875558
 20
129.7070254199
 40
1.4999954955
100
AcDbArc
 50
175.1023220591
 51
270.0000638798
  0
ARC
  5
482
100
AcDbEntity
  8
RUNDUNGEN
100
AcDbCircle
 62
7
  6
CONTINUOUS
 10
62.5469699602
 20
43.3704364835
 40
1.507292543
100
AcDbArc
 50
258.3238678017
 51
269.9884589541
  0
ARC
  5
483
100
AcDbEntity
  8
RUNDUNGEN
100
AcDbCircle
 62
7
  6
CONTINUOUS
 10
62.5473672604
 20
58.0890434377
 40
1.5060089854
100
AcDbArc
 50
90.0267051183
 51
101.7041105581
  0
ARC
  5
484
100
AcDbEntity
  8
RUNDUNGEN
100
AcDbCircle
 62
7
  6
CONTINUOUS
 10
107.2288062174
 20
43.3690803589
 40
1.5060089825
100
AcDbArc
 50
270.0267051055
 51
281.7041058885
  0
ARC
  5
485
100
AcDbEntity
  8
0
100
AcDbCircle
 62
7
  6
CONTINUOUS
 10
84.8880867387
 20
50.7290618997
 40
17.8
100
AcDbArc
 50
306.6823583901
 51
317.7059007639
  0
ARC
  5
486
100
AcDbEntity
  8
0
100
AcDbCircle
 62
7
  6
CONTINUOUS
 10
84.8880867387
 20
50.7290618997
 40
17.8
100
AcDbArc
 50
295.6316765313
 51
304.5702126622
  0
ARC
  5
487
100
AcDbEntity
  8
0
100
AcDbCircle
 62
7
  6
CONTINUOUS
 10
84.8880867387
 20
50.7290618997
 40
17.8
100
AcDbArc
 50
290.4987678114
 51
293.7421740941
  0
ARC
  5
488
100
AcDbEntity
  8
0
100
AcDbCircle
 62
7
  6
CONTINUOUS
 10
84.8880867387
 20
50.7290618997
 40
17.8
100
AcDbArc
 50
280.4657607207
 51
288.676515484
  0
ARC
  5
489
100
AcDbEntity
  8
0
100
AcDbCircle
 62
7
  6
CONTINUOUS
 10
84.8880867387
 20
50.7290618997
 40
17.8
100
AcDbArc
 50
270.536481901
 51
278.7246102097
  0
ARC
  5
48A
100
AcDbEntity
  8
0
100
AcDbCircle
 62
7
  6
CONTINUOUS
 10
84.8880867387
 20
50.7290618997
 40
17.8
100
AcDbArc
 50
267.5314389652
 51
268.8196647376
  0
ARC
  5
48B
100
AcDbEntity
  8
0
100
AcDbCircle
 62
7
  6
CONTINUOUS
 10
84.8880867387
 20
50.7290618997
 40
17.8
100
AcDbArc
 50
246.2578205402
 51
255.3562013173
  0
ARC
  5
48C
100
AcDbEntity
  8
0
100
AcDbCircle
 62
7
  6
CONTINUOUS
 10
84.8880867387
 20
50.7290618997
 40
17.8
100
AcDbArc
 50
235.429785101
 51
244.3683221068
  0
ARC
  5
48D
100
AcDbEntity
  8
0
100
AcDbCircle
 62
7
  6
CONTINUOUS
 10
84.8880867387
 20
50.7290618997
 40
17.8
100
AcDbArc
 50
222.2940992361
 51
233.3176377821
  0
ARC
  5
48E
100
AcDbEntity
  8
B-ACHSEN
100
AcDbCircle
 62
7
  6
CONTINUOUS
 10
84.8880867387
 20
50.7290618997
 40
17.5
100
AcDbArc
 50
32.4565766901
 51
147.5434233099
  0
ARC
  5
48F
100
AcDbEntity
  8
B-ACHSEN
100
AcDbCircle
 62
7
  6
CONTINUOUS
 10
84.8880867387
 20
50.7290618997
 40
17.5
100
AcDbArc
 50
212.4565766901
 51
327.5434233099
  0
ARC
  5
490
100
AcDbEntity
  8
RUNDUNGEN
100
AcDbCircle
 62
7
  6
CONTINUOUS
 10
84.8880867387
 20
50.7290618997
 40
17.5
100
AcDbArc
 50
32.4565766901
 51
147.5434233099
  0
ARC
  5
491
100
AcDbEntity
  8
RUNDUNGEN
100
AcDbCircle
 62
7
  6
CONTINUOUS
 10
84.8880867387
 20
50.7290618997
 40
17.5
100
AcDbArc
 50
212.4565766901
 51
327.5434233099
  0
ARC
  5
492
100
AcDbEntity
  8
RUNDUNGEN
100
AcDbCircle
 62
7
  6
CONTINUOUS
 10
107.2292035172
 20
58.0876873159
 40
1.507292543
100
AcDbArc
 50
78.3238678017
 51
89.9884589541
  0
LINE
  5
493
100
AcDbEntity
  8
RUNDUNGEN
100
AcDbLine
 62
7
  6
CONTINUOUS
 10
107.2655102347
 20
128.2055622659
 11
107.2496654599
 21
128.2065960042
  0
LINE
  5
494
100
AcDbEntity
  8
RUNDUNGEN
100
AcDbLine
 62
7
  6
CONTINUOUS
 10
62.5466645326
 20
128.2070449393
 11
62.5106632428
 21
128.2055622659
  0
ELLIPSE
  5
495
100
AcDbEntity
  8
0
100
AcDbEllipse
 62
7
  6
CONTINUOUS
 10
199.1705795879
 20
125.4720099098
 30
0.0
 11
17.8
 21
-0.0
 31
0.0
 40
0.2553189461
 41
-0.3180701679
 42
-0.298416964
  0
ELLIPSE
  5
496
100
AcDbEntity
  8
0
100
AcDbEllipse
 62
7
  6
CONTINUOUS
 10
199.1705795879
 20
127.4762696142
 30
0.0
 11
17.8
 21
-0.0
 31
0.0
 40
0.6382984888
 41
-0.298416964
 42
-0.2827799317
  0
ELLIPSE
  5
497
100
AcDbEntity
  8
0
100
AcDbEllipse
 62
7
  6
CONTINUOUS
 10
199.1705795879
 20
130.646485489
 30
0.0
 11
-0.0
 21
22.7234252065
 31
0.0
 40
0.7833326111
 41
-1.8535762585
 42
-1.8380099612
  0
ELLIPSE
  5
498
100
AcDbEntity
  8
0
100
AcDbEllipse
 62
7
  6
CONTINUOUS
 10
199.1705795879
 20
136.6464587133
 30
0.0
 11
0.0
 21
45.4467243674
 31
0.0
 40
0.3916673918
 41
-1.8380099612
 42
-1.8302518488
  0
ELLIPSE
  5
499
100
AcDbEntity
  8
0
100
AcDbEllipse
 62
7
  6
CONTINUOUS
 10
199.1705795879
 20
154.1359516706
 30
0.0
 11
0.0
 21
113.6174411485
 31
0.0
 40
0.1566660877
 41
-1.8302518488
 42
-1.8263788288
  0
ELLIPSE
  5
49A
100
AcDbEntity
  8
0
100
AcDbEllipse
 62
7
  6
CONTINUOUS
 10
199.1705795879
 20
97.9655007439
 30
0.0
 11
0.0
 21
113.6175048065
 31
0.0
 40
0.1566659999
 41
-1.3152138248
 42
-1.3113408048
  0
ELLIPSE
  5
49B
100
AcDbEntity
  8
0
100
AcDbEllipse
 62
7
  6
CONTINUOUS
 10
199.1705795879
 20
115.4550120744
 30
0.0
 11
0.0
 21
45.4467164102
 31
0.0
 40
0.3916674604
 41
-1.3113408048
 42
-1.3035826924
  0
ELLIPSE
  5
49C
100
AcDbEntity
  8
0
100
AcDbEllipse
 62
7
  6
CONTINUOUS
 10
199.1705795879
 20
121.4549837229
 30
0.0
 11
-0.0
 21
22.7234232172
 31
0.0
 40
0.7833326797
 41
-1.3035826924
 42
-1.2880163951
  0
ELLIPSE
  5
49D
100
AcDbEntity
  8
0
100
AcDbEllipse
 62
7
  6
CONTINUOUS
 10
199.1705795879
 20
124.625199459
 30
0.0
 11
17.8
 21
0.0
 31
0.0
 40
0.638298405
 41
0.2827799317
 42
0.298416964
  0
ELLIPSE
  5
49E
100
AcDbEntity
  8
0
100
AcDbEllipse
 62
7
  6
CONTINUOUS
 10
199.1705795879
 20
126.6294588417
 30
0.0
 11
17.8
 21
-0.0
 31
0.0
 40
0.2553189237
 41
0.298416964
 42
0.3180701679
  0
ELLIPSE
  5
49F
100
AcDbEntity
  8
0
100
AcDbEllipse
 62
7
  6
CONTINUOUS
 10
199.1705795879
 20
121.6783912781
 30
0.0
 11
17.8
 21
-0.0
 31
0.0
 40
0.3191492025
 41
0.5322700735
 42
0.5497474786
  0
ELLIPSE
  5
4A0
100
AcDbEntity
  8
0
100
AcDbEllipse
 62
7
  6
CONTINUOUS
 10
199.1705795879
 20
116.7315832132
 30
0.0
 11
17.8
 21
-0.0
 31
0.0
 40
0.8510640264
 41
0.5497474786
 42
0.5629790904
  0
ELLIPSE
  5
4A1
100
AcDbEntity
  8
0
100
AcDbEllipse
 62
7
  6
CONTINUOUS
 10
199.1705795879
 20
106.6252385621
 30
0.0
 11
-0.0
 21
34.0850373077
 31
0.0
 40
0.5222232805
 41
-1.0078172364
 42
-0.998934558
  0
ELLIPSE
  5
4A2
100
AcDbEntity
  8
0
100
AcDbEllipse
 62
7
  6
CONTINUOUS
 10
199.1705795879
 20
75.8803365112
 30
0.0
 11
-0.0
 21
90.8939529188
 31
0.0
 40
0.1958326096
 41
-0.998934558
 42
-0.9944741905
  0
ELLIPSE
  5
4A3
100
AcDbEntity
  8
0
100
AcDbEllipse
 62
7
  6
CONTINUOUS
 10
199.1705795879
 20
126.2890330987
 30
0.0
 11
17.8
 21
0.0
 31
0.0
 40
0.2553192382
 41
-0.514970749
 42
-0.4935813514
  0
ELLIPSE
  5
4A4
100
AcDbEntity
  8
0
100
AcDbEllipse
 62
7
  6
CONTINUOUS
 10
199.1705795879
 20
129.5188173214
 30
0.0
 11
17.8
 21
-0.0
 31
0.0
 40
0.6382975757
 41
-0.4935813514
 42
-0.4766459144
  0
ELLIPSE
  5
4A5
100
AcDbEntity
  8
0
100
AcDbEllipse
 62
7
  6
CONTINUOUS
 10
199.1705795879
 20
134.7315807246
 30
0.0
 11
0.0
 21
22.7233927004
 31
0.0
 40
0.7833337317
 41
-2.0474422411
 42
-2.0306536384
  0
ELLIPSE
  5
4A6
100
AcDbEntity
  8
0
100
AcDbEllipse
 62
7
  6
CONTINUOUS
 10
199.1705795879
 20
144.8167130858
 30
0.0
 11
-0.0
 21
45.4468543917
 31
0.0
 40
0.3916662713
 41
-2.0306536384
 42
-2.0223117767
  0
ELLIPSE
  5
4A7
100
AcDbEntity
  8
0
100
AcDbEllipse
 62
7
  6
CONTINUOUS
 10
199.1705795879
 20
174.5612754002
 30
0.0
 11
-0.0
 21
113.6167910256
 31
0.0
 40
0.1566669842
 41
-2.0223117767
 42
-2.0181534988
  0
ELLIPSE
  5
4A8
100
AcDbEntity
  8
0
100
AcDbEllipse
 62
7
  6
CONTINUOUS
 10
199.1705795879
 20
89.3604254431
 30
0.0
 11
-0.0
 21
58.0709221363
 31
0.0
 40
0.3065217383
 41
-0.9305683287
 42
-0.8878436929
  0
ELLIPSE
  5
4A9
100
AcDbEntity
  8
0
100
AcDbEllipse
 62
7
  6
CONTINUOUS
 10
199.1705795879
 20
133.1783950319
 30
0.0
 11
17.8
 21
-0.0
 31
0.0
 40
0.6382979484
 41
-0.6829526339
 42
-0.6637879503
  0
ELLIPSE
  5
4AA
100
AcDbEntity
  8
0
100
AcDbEllipse
 62
7
  6
CONTINUOUS
 10
199.1705795879
 20
144.84505918
 30
0.0
 11
-0.0
 21
30.2978687286
 31
0.0
 40
0.58750007
 41
-2.2345842771
 42
-2.2203976059
  0
ELLIPSE
  5
4AB
100
AcDbEntity
  8
0
100
AcDbEllipse
 62
7
  6
CONTINUOUS
 10
199.1705795879
 20
167.7528982736
 30
0.0
 11
-0.0
 21
68.1702696517
 31
0.0
 40
0.2611108932
 41
-2.2203976059
 42
-2.2157027112
  0
ELLIPSE
  5
4AC
100
AcDbEntity
  8
0
100
AcDbEllipse
 62
7
  6
CONTINUOUS
 10
199.1705795879
 20
86.1358044213
 30
0.0
 11
-0.0
 21
68.1702696517
 31
0.0
 40
0.2611108932
 41
-0.9258899424
 42
-0.9211950476
  0
ELLIPSE
  5
4AD
100
AcDbEntity
  8
0
100
AcDbEllipse
 62
7
  6
CONTINUOUS
 10
199.1705795879
 20
109.043643515
 30
0.0
 11
0.0
 21
30.2978687286
 31
0.0
 40
0.58750007
 41
-0.9211950476
 42
-0.9070083765
  0
ELLIPSE
  5
4AE
100
AcDbEntity
  8
0
100
AcDbEllipse
 62
7
  6
CONTINUOUS
 10
199.1705795879
 20
117.2103070835
 30
0.0
 11
17.8
 21
0.0
 31
0.0
 40
0.9574469226
 41
0.6637879503
 42
0.6829526339
  0
ELLIPSE
  5
4AF
100
AcDbEntity
  8
0
100
AcDbEllipse
 62
7
  6
CONTINUOUS
 10
199.1705795879
 20
125.0975436096
 30
0.0
 11
17.8
 21
-0.0
 31
0.0
 40
0.2553190698
 41
0.6829526339
 42
0.7073380764
  0
ELLIPSE
  5
4B0
100
AcDbEntity
  8
0
100
AcDbEllipse
 62
7
  6
CONTINUOUS
 10
199.1705795879
 20
112.008168971
 30
0.0
 11
-0.0
 21
22.34044613
 31
0.0
 40
0.7833326111
 41
-0.9878617627
 42
-0.9694970844
  0
ELLIPSE
  5
4B1
100
AcDbEntity
  8
0
100
AcDbEllipse
 62
7
  6
CONTINUOUS
 10
199.1705795879
 20
118.1571197434
 30
0.0
 11
17.5
 21
0.0
 31
0.0
 40
0.6382975757
 41
0.5647896256
 42
0.5829345641
  0
ELLIPSE
  5
4B2
100
AcDbEntity
  8
0
100
AcDbEllipse
 62
7
  6
CONTINUOUS
 10
199.1705795879
 20
121.7443503657
 30
0.0
 11
17.5
 21
-0.0
 31
0.0
 40
0.2553192382
 41
0.5423970842
 42
0.5647896256
  0
ELLIPSE
  5
4B3
100
AcDbEntity
  8
0
100
AcDbEllipse
 62
7
  6
CONTINUOUS
 10
199.1705795879
 20
125.763498687
 30
0.0
 11
17.8
 21
-0.0
 31
0.0
 40
0.3191492025
 41
0.3023378724
 42
0.3180701679
  0
ELLIPSE
  5
4B4
100
AcDbEntity
  8
0
100
AcDbEllipse
 62
7
  6
CONTINUOUS
 10
199.1705795879
 20
122.9443512942
 30
0.0
 11
17.8
 21
0.0
 31
0.0
 40
0.8510637283
 41
0.2905893295
 42
0.3023378724
  0
ELLIPSE
  5
4B5
100
AcDbEntity
  8
0
100
AcDbEllipse
 62
7
  6
CONTINUOUS
 10
199.1705795879
 20
117.518828722
 30
0.0
 11
-0.0
 21
34.0850691365
 31
0.0
 40
0.5222227929
 41
-1.2880163951
 42
-1.2802069973
  0
ELLIPSE
  5
4B6
100
AcDbEntity
  8
0
100
AcDbEllipse
 62
7
  6
CONTINUOUS
 10
199.1705795879
 20
101.667659152
 30
0.0
 11
0.0
 21
90.8939529188
 31
0.0
 40
0.1958326096
 41
-1.2919144041
 42
-1.2880163951
  0
ELLIPSE
  5
4B7
100
AcDbEntity
  8
0
100
AcDbEllipse
 62
7
  6
CONTINUOUS
 10
199.1705795879
 20
150.4338093559
 30
0.0
 11
0.0
 21
90.8939529188
 31
0.0
 40
0.1958326096
 41
-1.8535762585
 42
-1.8496782494
  0
ELLIPSE
  5
4B8
100
AcDbEntity
  8
0
100
AcDbEllipse
 62
7
  6
CONTINUOUS
 10
199.1705795879
 20
134.5826309048
 30
0.0
 11
0.0
 21
34.0850373077
 31
0.0
 40
0.5222232805
 41
-1.8613856563
 42
-1.8535762585
  0
ELLIPSE
  5
4B9
100
AcDbEntity
  8
0
100
AcDbEllipse
 62
7
  6
CONTINUOUS
 10
199.1705795879
 20
129.157118972
 30
0.0
 11
17.8
 21
-0.0
 31
0.0
 40
0.8510640264
 41
-0.3023378724
 42
-0.2905893295
  0
ELLIPSE
  5
4BA
100
AcDbEntity
  8
0
100
AcDbEllipse
 62
7
  6
CONTINUOUS
 10
199.1705795879
 20
126.3379699997
 30
0.0
 11
17.8
 21
0.0
 31
0.0
 40
0.3191492025
 41
-0.3180701679
 42
-0.3023378724
  0
ELLIPSE
  5
4BB
100
AcDbEntity
  8
0
100
AcDbEllipse
 62
7
  6
CONTINUOUS
 10
199.1705795879
 20
166.7740566519
 30
0.0
 11
-0.0
 21
90.8934328204
 31
0.0
 40
0.1958337302
 41
-2.0474422411
 42
-2.0432316545
  0
ELLIPSE
  5
4BC
100
AcDbEntity
  8
0
100
AcDbEllipse
 62
7
  6
CONTINUOUS
 10
199.1705795879
 20
140.7103228027
 30
0.0
 11
0.0
 21
34.0851348258
 31
0.0
 40
0.5222217864
 41
-2.0558910496
 42
-2.0474422411
  0
ELLIPSE
  5
4BD
100
AcDbEntity
  8
0
100
AcDbEllipse
 62
7
  6
CONTINUOUS
 10
199.1705795879
 20
131.8805235317
 30
0.0
 11
17.8
 21
0.0
 31
0.0
 40
0.8510640264
 41
-0.4978391668
 42
-0.4850947228
  0
ELLIPSE
  5
4BE
100
AcDbEntity
  8
0
100
AcDbEllipse
 62
7
  6
CONTINUOUS
 10
199.1705795879
 20
127.3592434452
 30
0.0
 11
17.8
 21
-0.0
 31
0.0
 40
0.3191487459
 41
-0.514970749
 42
-0.4978391668
  0
ELLIPSE
  5
4BF
100
AcDbEntity
  8
0
100
AcDbEllipse
 62
7
  6
CONTINUOUS
 10
199.1705795879
 20
60.9444782874
 30
0.0
 11
0.0
 21
113.6167910256
 31
0.0
 40
0.1566669842
 41
-0.9719735998
 42
-0.9674322537
  0
ELLIPSE
  5
4C0
100
AcDbEntity
  8
0
100
AcDbEllipse
 62
7
  6
CONTINUOUS
 10
199.1705795879
 20
99.3698929047
 30
0.0
 11
0.0
 21
45.4467893795
 31
0.0
 40
0.3916668315
 41
-0.9810144085
 42
-0.9719735998
  0
ELLIPSE
  5
4C1
100
AcDbEntity
  8
0
100
AcDbEllipse
 62
7
  6
CONTINUOUS
 10
199.1705795879
 20
112.008168971
 30
0.0
 11
0.0
 21
22.7234252065
 31
0.0
 40
0.7833326111
 41
-0.998934558
 42
-0.9810144085
  0
ELLIPSE
  5
4C2
100
AcDbEntity
  8
0
100
AcDbEllipse
 62
7
  6
CONTINUOUS
 10
199.1705795879
 20
118.1571197434
 30
0.0
 11
17.8
 21
0.0
 31
0.0
 40
0.6382975757
 41
0.5541459575
 42
0.5718617688
  0
ELLIPSE
  5
4C3
100
AcDbEntity
  8
0
100
AcDbEllipse
 62
7
  6
CONTINUOUS
 10
199.1705795879
 20
121.7443503657
 30
0.0
 11
17.8
 21
-0.0
 31
0.0
 40
0.2553192382
 41
0.5322700735
 42
0.5541459575
  0
ELLIPSE
  5
4C4
100
AcDbEntity
  8
0
100
AcDbEllipse
 62
7
  6
CONTINUOUS
 10
199.1705795879
 20
86.8539211404
 30
0.0
 11
0.0
 21
58.643621349
 31
0.0
 40
0.2984126764
 41
-0.8837120407
 42
-0.8436212243
  0
ELLIPSE
  5
4C5
100
AcDbEntity
  8
0
100
AcDbEllipse
 62
7
  6
CONTINUOUS
 10
199.1705795879
 20
122.731585768
 30
0.0
 11
17.8
 21
0.0
 31
0.0
 40
0.4255318642
 41
0.6877904107
 42
0.7024209574
  0
ELLIPSE
  5
4C6
100
AcDbEntity
  8
0
100
AcDbEllipse
 62
7
  6
CONTINUOUS
 10
199.1705795879
 20
113.1145720295
 30
0.0
 11
-0.0
 21
22.7233907111
 31
0.0
 40
0.7833338002
 41
-0.8926624898
 42
-0.8830059161
  0
ELLIPSE
  5
4C7
100
AcDbEntity
  8
0
100
AcDbEllipse
 62
7
  6
CONTINUOUS
 10
199.1705795879
 20
84.6038882494
 30
0.0
 11
0.0
 21
68.1702696517
 31
0.0
 40
0.2611108932
 41
-0.8974626524
 42
-0.8926624898
  0
ELLIPSE
  5
4C8
100
AcDbEntity
  8
0
100
AcDbEllipse
 62
7
  6
CONTINUOUS
 10
199.1705795879
 20
169.3699208184
 30
0.0
 11
0.0
 21
68.1702696517
 31
0.0
 40
0.2611108932
 41
-2.2489301638
 42
-2.2441300012
  0
ELLIPSE
  5
4C9
100
AcDbEntity
  8
0
100
AcDbEllipse
 62
7
  6
CONTINUOUS
 10
199.1705795879
 20
140.8592370384
 30
0.0
 11
-0.0
 21
22.7233907111
 31
0.0
 40
0.7833338002
 41
-2.2585867375
 42
-2.2489301638
  0
ELLIPSE
  5
4CA
100
AcDbEntity
  8
0
100
AcDbEllipse
 62
7
  6
CONTINUOUS
 10
199.1705795879
 20
131.2422232999
 30
0.0
 11
17.8
 21
-0.0
 31
0.0
 40
0.4255318642
 41
-0.7024209574
 42
-0.6877904107
  0
ELLIPSE
  5
4CB
100
AcDbEntity
  8
0
100
AcDbEllipse
 62
7
  6
CONTINUOUS
 10
199.1705795879
 20
86.8539211404
 30
0.0
 11
0.0
 21
59.6489405721
 31
0.0
 40
0.2984126764
 41
-0.8974626524
 42
-0.8585203665
  0
ELLIPSE
  5
4CC
100
AcDbEntity
  8
0
100
AcDbEllipse
 62
7
  6
CONTINUOUS
 10
199.1705795879
 20
166.7740566519
 30
0.0
 11
-0.0
 21
89.3615210313
 31
0.0
 40
0.1958337302
 41
-2.056314482
 42
-2.0520120391
  0
ELLIPSE
  5
4CD
100
AcDbEntity
  8
0
100
AcDbEllipse
 62
7
  6
CONTINUOUS
 10
199.1705795879
 20
140.7103228027
 30
0.0
 11
0.0
 21
33.5106662614
 31
0.0
 40
0.5222217864
 41
-2.0649488595
 42
-2.056314482
  0
ELLIPSE
  5
4CE
100
AcDbEntity
  8
0
100
AcDbEllipse
 62
7
  6
CONTINUOUS
 10
199.1705795879
 20
131.8805235317
 30
0.0
 11
17.5
 21
0.0
 31
0.0
 40
0.8510640264
 41
5.7760051493
 42
5.7890327745
  0
ELLIPSE
  5
4CF
100
AcDbEntity
  8
0
100
AcDbEllipse
 62
7
  6
CONTINUOUS
 10
199.1705795879
 20
127.3592434452
 30
0.0
 11
17.5
 21
0.0
 31
0.0
 40
0.3191487459
 41
5.7692904727
 42
5.7760051493
  0
ELLIPSE
  5
4D0
100
AcDbEntity
  8
0
100
AcDbEllipse
 62
7
  6
CONTINUOUS
 10
199.1705795879
 20
60.9444782874
 30
0.0
 11
0.0
 21
111.7019012892
 31
0.0
 40
0.1566669842
 41
-0.9602278007
 42
-0.9555705821
  0
ELLIPSE
  5
4D1
100
AcDbEntity
  8
0
100
AcDbEllipse
 62
7
  6
CONTINUOUS
 10
199.1705795879
 20
99.3698929047
 30
0.0
 11
0.0
 21
44.6808322551
 31
0.0
 40
0.3916668315
 41
-0.9694970844
 42
-0.9602278007
  0
ELLIPSE
  5
4D2
100
AcDbEntity
  8
0
100
AcDbEllipse
 62
7
  6
CONTINUOUS
 10
199.1705795879
 20
125.763498687
 30
0.0
 11
17.5
 21
0.0
 31
0.0
 40
0.3191492025
 41
0.3076892157
 42
0.323719721
  0
ELLIPSE
  5
4D3
100
AcDbEntity
  8
0
100
AcDbEllipse
 62
7
  6
CONTINUOUS
 10
199.1705795879
 20
122.9443512942
 30
0.0
 11
17.5
 21
-0.0
 31
0.0
 40
0.8510637283
 41
0.2957199402
 42
0.3076892157
  0
ELLIPSE
  5
4D4
100
AcDbEntity
  8
0
100
AcDbEllipse
 62
7
  6
CONTINUOUS
 10
199.1705795879
 20
117.518828722
 30
0.0
 11
0.0
 21
33.5106016791
 31
0.0
 40
0.5222227929
 41
-1.2830316238
 42
-1.2750763866
  0
ELLIPSE
  5
4D5
100
AcDbEntity
  8
0
100
AcDbEllipse
 62
7
  6
CONTINUOUS
 10
199.1705795879
 20
101.667659152
 30
0.0
 11
0.0
 21
89.362032364
 31
0.0
 40
0.1958326096
 41
-1.2870021722
 42
-1.2830316238
  0
ELLIPSE
  5
4D6
100
AcDbEntity
  8
0
100
AcDbEllipse
 62
7
  6
CONTINUOUS
 10
199.1705795879
 20
150.4338093559
 30
0.0
 11
0.0
 21
89.362032364
 31
0.0
 40
0.1958326096
 41
-1.8585610298
 42
-1.8545904814
  0
ELLIPSE
  5
4D7
100
AcDbEntity
  8
0
100
AcDbEllipse
 62
7
  6
CONTINUOUS
 10
199.1705795879
 20
134.5826309048
 30
0.0
 11
0.0
 21
33.5105703868
 31
0.0
 40
0.5222232805
 41
-1.866516267
 42
-1.8585610298
  0
ELLIPSE
  5
4D8
100
AcDbEntity
  8
0
100
AcDbEllipse
 62
7
  6
CONTINUOUS
 10
199.1705795879
 20
129.157118972
 30
0.0
 11
17.5
 21
0.0
 31
0.0
 40
0.8510640264
 41
-0.3076892157
 42
-0.2957199402
  0
ELLIPSE
  5
4D9
100
AcDbEntity
  8
0
100
AcDbEllipse
 62
7
  6
CONTINUOUS
 10
199.1705795879
 20
126.3379699997
 30
0.0
 11
17.5
 21
-0.0
 31
0.0
 40
0.3191492025
 41
-0.323719721
 42
-0.3076892157
  0
ELLIPSE
  5
4DA
100
AcDbEntity
  8
0
100
AcDbEllipse
 62
7
  6
CONTINUOUS
 10
199.1705795879
 20
122.731585768
 30
0.0
 11
17.5
 21
-0.0
 31
0.0
 40
0.4255318642
 41
0.7019584008
 42
0.7170220211
  0
ELLIPSE
  5
4DB
100
AcDbEntity
  8
0
100
AcDbEllipse
 62
7
  6
CONTINUOUS
 10
199.1705795879
 20
113.1145720295
 30
0.0
 11
0.0
 21
22.340412216
 31
0.0
 40
0.7833338002
 41
-0.8787744206
 42
-0.868837926
  0
ELLIPSE
  5
4DC
100
AcDbEntity
  8
0
100
AcDbEllipse
 62
7
  6
CONTINUOUS
 10
199.1705795879
 20
84.6038882494
 30
0.0
 11
0.0
 21
67.0213325227
 31
0.0
 40
0.2611108932
 41
-0.8837120407
 42
-0.8787744206
  0
ELLIPSE
  5
4DD
100
AcDbEntity
  8
0
100
AcDbEllipse
 62
7
  6
CONTINUOUS
 10
199.1705795879
 20
169.3699208184
 30
0.0
 11
-0.0
 21
67.0213325227
 31
0.0
 40
0.2611108932
 41
-2.262818233
 42
-2.2578806129
  0
ELLIPSE
  5
4DE
100
AcDbEntity
  8
0
100
AcDbEllipse
 62
7
  6
CONTINUOUS
 10
199.1705795879
 20
140.8592370384
 30
0.0
 11
-0.0
 21
22.340412216
 31
0.0
 40
0.7833338002
 41
-2.2727547276
 42
-2.262818233
  0
ELLIPSE
  5
4DF
100
AcDbEntity
  8
0
100
AcDbEllipse
 62
7
  6
CONTINUOUS
 10
199.1705795879
 20
131.2422232999
 30
0.0
 11
17.5
 21
0.0
 31
0.0
 40
0.4255318642
 41
-0.7170220211
 42
-0.7019584008
  0
ENDSEC
  0
SECTION
  2
OBJECTS
  0
DICTIONARY
  5
C
100
AcDbDictionary
280
0
281
1
  3
ACAD_GROUP
350
D
  3
ACAD_MLINESTYLE
350
17
  3
ACAD_LAYOUT
350
1A
  3
ACAD_PLOTSETTINGS
350
19
  3
ACAD_PLOTSTYLENAME
350
E
  0
DICTIONARY
  5
D
102
{ACAD_REACTORS
330
C
102
}
100
AcDbDictionary
280
0
281
1
  0
ACDBDICTIONARYWDFLT
  5
E
102
{ACAD_REACTORS
330
C
102
}
100
AcDbDictionary
281
1
  3
Normal
350
F
100
AcDbDictionaryWithDefault
340
F
  0
DICTIONARY
  5
17
102
{ACAD_REACTORS
330
C
102
}
100
AcDbDictionary
280
0
281
1
  3
Standard
350
18
  0
DICTIONARY
  5
19
102
{ACAD_REACTORS
330
C
102
}
100
AcDbDictionary
281
1
  0
DICTIONARY
  5
1A
102
{ACAD_REACTORS
330
C
102
}
100
AcDbDictionary
281
1
  3
Model
350
4E0
  3
Layout1
350
4E1
  0
ACDBPLACEHOLDER
  5
F
102
{ACAD_REACTORS
330
E
102
}
  0
MLINESTYLE
  5
18
102
{ACAD_REACTORS
330
17
102
}
100
AcDbMlineStyle
  2
STANDARD
 70
0
  3

 62
256
 51
90.0
 52
90.0
 71
2
 49
0.5
 62
256
  6
BYLAYER
 49
-0.5
 62
256
  6
BYLAYER
  0
LAYOUT
  5
4E0
102
{ACAD_REACTORS
330
1A
102
}
100
AcDbPlotSettings
  1

  2
none_device
  4
ISO_A4_(297.00_x_210.00_MM)
  6

 40
0.0
 41
0.0
 42
0.0
 43
0.0
 44
297.0
 45
210.0
 46
0.0
 47
0.0
 48
0.0
 49
0.0
140
0.0
141
0.0
142
1.0
143
1.0
 70
1024
 72
1
 73
0
 74
0
  7

 75
0
147
1.0
148
0.0
149
0.0
100
AcDbLayout
  1
Model
 70
0
 71
0
 10
0.0
 20
0.0
 11
297.0
 21
210.0
 12
0.0
 22
0.0
 32
0.0
 14
0.0
 24
0.0
 34
0.0
 15
0.0
 25
0.0
 35
0.0
146
0.0
 13
0.0
 23
0.0
 33
0.0
 16
1.0
 26
0.0
 36
0.0
 17
0.0
 27
1.0
 37
0.0
 76
0
330
209
345
0
346
0
  0
LAYOUT
  5
4E1
102
{ACAD_REACTORS
330
1A
102
}
100
AcDbPlotSettings
  1

  2
none_device
  4
ISO_A4_(297.00_x_210.00_MM)
  6

 40
0.0
 41
0.0
 42
0.0
 43
0.0
 44
297.0
 45
210.0
 46
0.0
 47
0.0
 48
0.0
 49
0.0
140
0.0
141
0.0
142
1.0
143
1.0
 70
0
 72
1
 73
0
 74
0
  7

 75
0
147
1.0
148
0.0
149
0.0
100
AcDbLayout
  1
Layout1
 70
0
 71
1
 10
0.0
 20
0.0
 11
297.0
 21
210.0
 12
0.0
 22
0.0
 32
0.0
 14
0.0
 24
0.0
 34
0.0
 15
0.0
 25
0.0
 35
0.0
146
0.0
 13
0.0
 23
0.0
 33
0.0
 16
1.0
 26
0.0
 36
0.0
 17
0.0
 27
1.0
 37
0.0
 76
0
330
20A
345
0
346
0
  0
ENDSEC
  0
EOF
