999
DXF file: IRS-LT-M12-7907794-M35563-P-01.dxf
999
Pro/ENGINEER 2011490 by Parametric Technology Corporation
  0
SECTION
  2
HEADER
  9
$ACADVER
  1
AC1021
  9
$DWGCODEPAGE
  3
ANSI_1252
  9
$EXTMAX
 10
297.0
 20
210.0
 30
0.0
  9
$EXTMIN
 10
0.0
 20
0.0
 30
0.0
  9
$LIMMIN
 10
0.0
 20
0.0
  9
$LIMMAX
 10
297.0
 20
210.0
  9
$VIEWCTR
 10
148.5
 20
105.0
  9
$VIEWSIZE
 40
210.0
  9
$CLAYER
  8
0
  9
$LTSCALE
 40
16.335
  9
$CELTYPE
  6
BYLAYER
  9
$DIMSCALE
 40
1.0
  9
$DIMASZ
 40
3.5
  9
$DIMEXO
 40
1.85625
  9
$DIMDLI
 40
11.286
  9
$DIMEXE
 40
5.346
  9
$DIMCEN
 40
2.673
  9
$DIMLFAC
 40
1.0
  9
$DIMBLK
  1
_FILLED
  9
$DIMTXT
 40
3.5
  9
$DIMTOL
 70
1
  9
$DIMLIM
 70
0
  9
$DIMTFAC
 40
1.0
  9
$DIMTP
 40
0.005
  9
$DIMTM
 40
0.005
  9
$PDMODE
 70
3
  9
$PDSIZE
 40
0.3125
  9
$HANDSEED
  5
495
  9
$TILEMODE
 70
1
  9
$MEASUREMENT
 70
1
  9
$INSUNITS
 70
4
  0
ENDSEC
  0
SECTION
  2
CLASSES
  0
CLASS
  1
ACDBDICTIONARYWDFLT
  2
AcDbDictionaryWithDefault
  3
AutoCAD 2000
 90
0
 91
1
280
0
281
0
  0
CLASS
  1
ACDBPLACEHOLDER
  2
AcDbPlaceHolder
  3
AutoCAD 2000
 90
0
 91
1
280
0
281
0
  0
CLASS
  1
LAYOUT
  2
AcDbLayout
  3
AutoCAD 2000
 90
0
 91
0
280
0
281
0
  0
ENDSEC
  0
SECTION
  2
TABLES
  0
TABLE
  2
VPORT
  5
8
100
AcDbSymbolTable
 70
2
  0
VPORT
  5
1F4
100
AcDbSymbolTableRecord
100
AcDbViewportTableRecord
  2
*ACTIVE
 70
0
 10
0.0
 20
0.0
 11
1.0
 21
1.0
 12
148.5
 22
105.0
 13
0.0
 23
0.0
 14
1.0
 24
1.0
 15
0.0
 25
0.0
 16
0.0
 26
0.0
 36
1.0
 17
0.0
 27
0.0
 37
0.0
 40
210.0
 41
1.4142857143
 42
50.0
 43
0.0
 44
0.0
 50
0.0
 51
0.0
 71
0
 72
100
 73
1
 74
1
 75
0
 76
0
 77
0
 78
0
  0
ENDTAB
  0
TABLE
  2
LTYPE
  5
5
100
AcDbSymbolTable
 70
6
  0
LTYPE
  5
14
100
AcDbSymbolTableRecord
100
AcDbLinetypeTableRecord
  2
BYBLOCK
 70
0
  3

 72
65
 73
0
 40
0.0
  0
LTYPE
  5
15
100
AcDbSymbolTableRecord
100
AcDbLinetypeTableRecord
  2
BYLAYER
 70
0
  3

 72
65
 73
0
 40
0.0
  0
LTYPE
  5
16
100
AcDbSymbolTableRecord
100
AcDbLinetypeTableRecord
  2
CONTINUOUS
 70
64
  3
Solid line
 72
65
 73
0
 40
0.0
  0
LTYPE
  5
1F5
100
AcDbSymbolTableRecord
100
AcDbLinetypeTableRecord
  2
CENTER
 70
64
  3
____ _ ____ _ ____ _ ____ _ ____ _ ____ _ ____
 72
65
 73
4
 40
0.6
 49
0.375
 74
0
 49
-0.075
 74
0
 49
0.075
 74
0
 49
-0.075
 74
0
  0
LTYPE
  5
1F6
100
AcDbSymbolTableRecord
100
AcDbLinetypeTableRecord
  2
HIDDEN
 70
64
  3
- - - - - - - - - - - - - - - - - - - -
 72
65
 73
2
 40
0.2
 49
0.1
 74
0
 49
-0.1
 74
0
  0
LTYPE
  5
1F7
100
AcDbSymbolTableRecord
100
AcDbLinetypeTableRecord
  2
PHANTOM
 70
64
  3
_____ _ _ _____ _ _ _____ _ _ _____
 72
65
 73
6
 40
0.8
 49
0.45
 74
0
 49
-0.05
 74
0
 49
0.1
 74
0
 49
-0.05
 74
0
 49
0.1
 74
0
 49
-0.05
 74
0
  0
LTYPE
  5
1F8
100
AcDbSymbolTableRecord
100
AcDbLinetypeTableRecord
  2
DOT
 70
64
  3
. . . . . . . . . . . . . . . . . . . .
 72
65
 73
2
 40
0.2
 49
0.1
 74
0
 49
-0.1
 74
0
  0
LTYPE
  5
1F9
100
AcDbSymbolTableRecord
100
AcDbLinetypeTableRecord
  2
DASHED
 70
64
  3
- - - - - - - - - - - - - - - - - - - -
 72
65
 73
2
 40
0.2
 49
0.1
 74
0
 49
-0.1
 74
0
  0
ENDTAB
  0
TABLE
  2
LAYER
  5
2
100
AcDbSymbolTable
 70
36
  0
LAYER
  5
10
100
AcDbSymbolTableRecord
100
AcDbLayerTableRecord
  2
0
 70
0
 62
7
  6
CONTINUOUS
370
-3
390
F
  0
LAYER
  5
1FA
100
AcDbSymbolTableRecord
100
AcDbLayerTableRecord
  2
DEFAULT_1
 70
0
 62
7
  6
CENTER
370
-3
390
F
  0
LAYER
  5
1FB
100
AcDbSymbolTableRecord
100
AcDbLayerTableRecord
  2
DEFAULT_2
 70
0
 62
8
  6
HIDDEN
370
-3
390
F
  0
LAYER
  5
1FC
100
AcDbSymbolTableRecord
100
AcDbLayerTableRecord
  2
DEFAULT_3
 70
0
 62
7
  6
PHANTOM
370
-3
390
F
  0
LAYER
  5
1FD
100
AcDbSymbolTableRecord
100
AcDbLayerTableRecord
  2
B-ACHSEN
 70
0
 62
7
  6
CONTINUOUS
370
-3
390
F
  0
LAYER
  5
1FE
100
AcDbSymbolTableRecord
100
AcDbLayerTableRecord
  2
B-EBENEN
 70
0
 62
7
  6
CONTINUOUS
370
-3
390
F
  0
LAYER
  5
1FF
100
AcDbSymbolTableRecord
100
AcDbLayerTableRecord
  2
B-KOORSYS
 70
0
 62
7
  6
CONTINUOUS
370
-3
390
F
  0
LAYER
  5
200
100
AcDbSymbolTableRecord
100
AcDbLayerTableRecord
  2
B-PUNKTE
 70
0
 62
7
  6
CONTINUOUS
370
-3
390
F
  0
LAYER
  5
201
100
AcDbSymbolTableRecord
100
AcDbLayerTableRecord
  2
BEMASSUNG
 70
0
 62
7
  6
CONTINUOUS
370
-3
390
F
  0
LAYER
  5
202
100
AcDbSymbolTableRecord
100
AcDbLayerTableRecord
  2
BOHRUNGEN
 70
0
 62
7
  6
CONTINUOUS
370
-3
390
F
  0
LAYER
  5
203
100
AcDbSymbolTableRecord
100
AcDbLayerTableRecord
  2
FLAECHEN
 70
0
 62
7
  6
CONTINUOUS
370
-3
390
F
  0
LAYER
  5
204
100
AcDbSymbolTableRecord
100
AcDbLayerTableRecord
  2
NOTIZEN
 70
0
 62
7
  6
CONTINUOUS
370
-3
390
F
  0
LAYER
  5
205
100
AcDbSymbolTableRecord
100
AcDbLayerTableRecord
  2
RUNDUNGEN
 70
0
 62
7
  6
CONTINUOUS
370
-3
390
F
  0
LAYER
  5
206
100
AcDbSymbolTableRecord
100
AcDbLayerTableRecord
  2
VERBUNDFLAECHEN
 70
0
 62
7
  6
CONTINUOUS
370
-3
390
F
  0
ENDTAB
  0
TABLE
  2
STYLE
  5
3
100
AcDbSymbolTable
 70
1
  0
STYLE
  5
11
100
AcDbSymbolTableRecord
100
AcDbTextStyleTableRecord
  2
STANDARD
 70
0
 40
0.0
 41
0.7
 50
0.0
 71
0
 42
0.2
  3
txt
  4

  0
STYLE
  5
207
100
AcDbSymbolTableRecord
100
AcDbTextStyleTableRecord
  2
TEXTSTYLE_1
 70
0
 40
0.0
 41
0.8
 50
0.0
 71
0
 42
0.2
  3
gdt
  4

  0
ENDTAB
  0
TABLE
  2
VIEW
  5
6
100
AcDbSymbolTable
 70
0
  0
ENDTAB
  0
TABLE
  2
UCS
  5
7
100
AcDbSymbolTable
 70
0
  0
ENDTAB
  0
TABLE
  2
APPID
  5
9
100
AcDbSymbolTable
 70
1
  0
APPID
  5
208
100
AcDbSymbolTableRecord
100
AcDbRegAppTableRecord
  2
ACAD
 70
0
  0
ENDTAB
  0
TABLE
  2
BLOCK_RECORD
  5
1
100
AcDbSymbolTable
 70
0
  0
BLOCK_RECORD
  5
209
100
AcDbSymbolTableRecord
100
AcDbBlockTableRecord
  2
*Model_Space
  0
BLOCK_RECORD
  5
20A
100
AcDbSymbolTableRecord
100
AcDbBlockTableRecord
  2
*Paper_Space
  0
ENDTAB
  0
TABLE
  2
DIMSTYLE
  5
A
100
AcDbSymbolTable
 70
1
100
AcDbDimStyleTable
 71
0
  0
DIMSTYLE
105
20B
100
AcDbSymbolTableRecord
100
AcDbDimStyleTableRecord
  2
STANDARD
 70
0
  3

  4

 40
1.0
 41
3.5
 42
0.0625
 43
0.38
 44
0.18
 45
0.0
 46
0.0
 47
0.005
 48
0.005
140
3.5
141
0.09
142
0.0
143
25.4
144
1.0
145
0.0
146
1.0
147
0.09
 71
1.0
 72
0.0
 73
0
 74
0
 75
0
 76
0
 77
1
 78
8
170
0
171
2
172
0
173
0
174
0
175
0
176
0
177
0
178
5
270
2
271
3
272
3
273
2
274
2
275
0
280
0
281
0
282
0
283
1
284
8
285
0
286
0
287
3
288
0
340
11
  0
ENDTAB
  0
ENDSEC
  0
SECTION
  2
BLOCKS
  0
BLOCK
  5
20
100
AcDbEntity
  8
0
100
AcDbBlockBegin
  2
*Model_Space
 70
0
 10
0.0
 20
0.0
 30
0.0
  3
*Model_Space
  1

  0
ENDBLK
  5
21
100
AcDbEntity
  8
0
100
AcDbBlockEnd
  0
BLOCK
  5
1C
100
AcDbEntity
  8
0
100
AcDbBlockBegin
  2
*Paper_Space
 70
0
 10
0.0
 20
0.0
 30
0.0
  3
*Paper_Space
  1

  0
ENDBLK
  5
1D
100
AcDbEntity
  8
0
100
AcDbBlockEnd
  0
ENDSEC
  0
SECTION
  2
ENTITIES
  0
MTEXT
  5
20C
100
AcDbEntity
  8
0
100
AcDbMText
 62
5
  6
CONTINUOUS
  7
STANDARD
 71
1
 72
1
 10
197.4629372697
 20
138.8827850882
 30
0.0
 11
0.0
 21
1.0
 31
0.0
 44
0.9
  1
RUD
 40
3.5
 41
8.6666666667
  0
MTEXT
  5
20D
100
AcDbEntity
  8
0
100
AcDbMText
 62
5
  6
CONTINUOUS
  7
STANDARD
 71
1
 72
1
 10
203.9247350432
 20
138.2253171881
 30
0.0
 11
0.0
 21
1.0
 31
0.0
 44
0.9
  1
IRS-LT M12
 40
3.5
 41
26.6666666667
  0
MTEXT
  5
20E
100
AcDbEntity
  8
0
100
AcDbMText
 62
5
  6
CONTINUOUS
  7
STANDARD
 71
1
 72
1
 10
93.7905616337
 20
58.6395507939
 30
0.0
 11
1.0
 21
0.0
 31
0.0
 44
0.9
  1
RUD
 40
3.5
 41
8.6666666667
  0
MTEXT
  5
20F
100
AcDbEntity
  8
0
100
AcDbMText
 62
5
  6
CONTINUOUS
  7
STANDARD
 71
1
 72
1
 10
93.1828031356
 20
52.9195827147
 30
0.0
 11
1.0
 21
0.0
 31
0.0
 44
0.9
  1
IRS-LT M12
 40
3.5
 41
26.6666666667
  0
LINE
  5
210
100
AcDbEntity
  8
0
100
AcDbLine
 62
7
  6
CONTINUOUS
 10
0.0
 20
0.0
 11
0.0
 21
210.0
  0
LINE
  5
211
100
AcDbEntity
  8
0
100
AcDbLine
 62
7
  6
CONTINUOUS
 10
0.0
 20
0.0
 11
297.0
 21
0.0
  0
LINE
  5
212
100
AcDbEntity
  8
0
100
AcDbLine
 62
7
  6
CONTINUOUS
 10
0.0
 20
210.0
 11
297.0
 21
210.0
  0
LINE
  5
213
100
AcDbEntity
  8
0
100
AcDbLine
 62
7
  6
CONTINUOUS
 10
297.0
 20
0.0
 11
297.0
 21
210.0
  0
LINE
  5
214
100
AcDbEntity
  8
RUNDUNGEN
100
AcDbLine
 62
7
  6
CONTINUOUS
 10
73.7844773208
 20
177.3093633086
 11
91.770598642
 21
184.7594586944
  0
LINE
  5
215
100
AcDbEntity
  8
B-ACHSEN
100
AcDbLine
 62
7
  6
CONTINUOUS
 10
97.7273072229
 20
113.0135431562
 11
87.7273072229
 21
113.0135431562
  0
LINE
  5
216
100
AcDbEntity
  8
B-ACHSEN
100
AcDbLine
 62
7
  6
CONTINUOUS
 10
98.7273072229
 20
114.0135431562
 11
86.7273072229
 21
114.0135431562
  0
LINE
  5
217
100
AcDbEntity
  8
0
100
AcDbLine
 62
7
  6
CONTINUOUS
 10
85.2897534933
 20
179.7843178923
 11
84.9099826868
 21
179.5579228181
  0
LINE
  5
218
100
AcDbEntity
  8
0
100
AcDbLine
 62
7
  6
CONTINUOUS
 10
85.5207231561
 20
179.8799886592
 11
85.2897534933
 21
179.7843178923
  0
LINE
  5
219
100
AcDbEntity
  8
0
100
AcDbLine
 62
7
  6
CONTINUOUS
 10
83.8461916136
 20
179.1863749836
 11
83.4997367889
 21
179.0428686965
  0
LINE
  5
21A
100
AcDbEntity
  8
0
100
AcDbLine
 62
7
  6
CONTINUOUS
 10
82.6913423081
 20
178.7080207388
 11
82.171660071
 21
178.4927613081
  0
LINE
  5
21B
100
AcDbEntity
  8
0
100
AcDbLine
 62
7
  6
CONTINUOUS
 10
80.4393859476
 20
177.7752298724
 11
79.9197037105
 21
177.5599704417
  0
LINE
  5
21C
100
AcDbEntity
  8
0
100
AcDbLine
 62
7
  6
CONTINUOUS
 10
85.3541439081
 20
179.4655449974
 11
85.5851139014
 21
179.5612159011
  0
LINE
  5
21D
100
AcDbEntity
  8
0
100
AcDbLine
 62
7
  6
CONTINUOUS
 10
84.6345664413
 20
178.7529531178
 11
84.9232790155
 21
178.8725417816
  0
LINE
  5
21E
100
AcDbEntity
  8
RUNDUNGEN
100
AcDbLine
 62
7
  6
CONTINUOUS
 10
64.9813916847
 20
157.9702517371
 11
72.4314870704
 21
175.9563730583
  0
LINE
  5
21F
100
AcDbEntity
  8
0
100
AcDbLine
 62
7
  6
CONTINUOUS
 10
85.0898582635
 20
179.2869854434
 11
85.3541439081
 21
179.4655449974
  0
LINE
  5
220
100
AcDbEntity
  8
0
100
AcDbLine
 62
7
  6
CONTINUOUS
 10
87.4127775021
 20
177.7619709556
 11
85.7959885404
 21
177.0922750402
  0
LINE
  5
221
100
AcDbEntity
  8
0
100
AcDbLine
 62
7
  6
CONTINUOUS
 10
81.0677540076
 20
174.7883318442
 11
81.4142088323
 21
174.9318381313
  0
LINE
  5
222
100
AcDbEntity
  8
0
100
AcDbLine
 62
7
  6
CONTINUOUS
 10
82.2226033957
 20
175.2666861232
 11
82.6845431345
 21
175.458027828
  0
LINE
  5
223
100
AcDbEntity
  8
0
100
AcDbLine
 62
7
  6
CONTINUOUS
 10
83.4929377805
 20
175.7928758541
 11
83.8393926052
 21
175.9363821413
  0
LINE
  5
224
100
AcDbEntity
  8
0
100
AcDbLine
 62
7
  6
CONTINUOUS
 10
84.647787086
 20
176.271230099
 11
84.9942419107
 21
176.4147363861
  0
LINE
  5
225
100
AcDbEntity
  8
0
100
AcDbLine
 62
7
  6
CONTINUOUS
 10
85.4561818972
 20
176.6060781935
 11
87.5349105149
 21
177.4671157795
  0
LINE
  5
226
100
AcDbEntity
  8
B-ACHSEN
100
AcDbLine
 62
7
  6
CONTINUOUS
 10
86.7273072229
 20
114.0135431562
 11
87.7273072229
 21
113.0135431562
  0
LINE
  5
227
100
AcDbEntity
  8
0
100
AcDbLine
 62
7
  6
CONTINUOUS
 10
84.9099826868
 20
179.5579228181
 11
84.7278662223
 21
179.3443099973
  0
LINE
  5
228
100
AcDbEntity
  8
0
100
AcDbLine
 62
7
  6
CONTINUOUS
 10
84.9654840495
 20
179.0972902459
 11
85.0898582635
 21
179.2869854434
  0
LINE
  5
229
100
AcDbEntity
  8
0
100
AcDbLine
 62
7
  6
CONTINUOUS
 10
101.3774528389
 20
179.2820458873
 11
100.8600118201
 21
179.0127549858
  0
LINE
  5
22A
100
AcDbEntity
  8
0
100
AcDbLine
 62
7
  6
CONTINUOUS
 10
100.6645989585
 20
178.5409866049
 11
101.1820400457
 21
178.8102776717
  0
LINE
  5
22B
100
AcDbEntity
  8
B-ACHSEN
100
AcDbLine
 62
7
  6
CONTINUOUS
 10
98.7273072229
 20
126.0135431562
 11
86.7273072229
 21
126.0135431562
  0
LINE
  5
22C
100
AcDbEntity
  8
B-ACHSEN
100
AcDbLine
 62
7
  6
CONTINUOUS
 10
97.4273072229
 20
127.3135431562
 11
88.0273072229
 21
127.3135431562
  0
LWPOLYLINE
  5
22D
100
AcDbEntity
  8
RUNDUNGEN
100
AcDbPolyline
 62
7
  6
CONTINUOUS
 90
3
 70
0
 10
72.4445739467
 20
138.0391187399
 10
72.4672421198
 20
137.9871889181
 10
72.5093236099
 20
137.9026673711
  0
LINE
  5
22E
100
AcDbEntity
  8
RUNDUNGEN
100
AcDbLine
 62
7
  6
CONTINUOUS
 10
72.444217398
 20
138.0399795247
 11
64.9813916847
 21
156.0568345753
  0
LINE
  5
22F
100
AcDbEntity
  8
0
100
AcDbLine
 62
7
  6
CONTINUOUS
 10
83.4997367889
 20
179.0428686965
 11
83.3242681583
 21
178.4865652206
  0
LINE
  5
230
100
AcDbEntity
  8
0
100
AcDbLine
 62
7
  6
CONTINUOUS
 10
84.7278662223
 20
179.3443099973
 11
84.5946026256
 21
179.0127549858
  0
LINE
  5
231
100
AcDbEntity
  8
0
100
AcDbLine
 62
7
  6
CONTINUOUS
 10
86.3401731462
 20
179.0449052198
 11
85.3340488843
 21
176.9009333696
  0
LINE
  5
232
100
AcDbEntity
  8
0
100
AcDbLine
 62
7
  6
CONTINUOUS
 10
85.7959885404
 20
177.0922750402
 11
86.702164857
 21
178.987580529
  0
LINE
  5
233
100
AcDbEntity
  8
B-ACHSEN
100
AcDbLine
 62
7
  6
CONTINUOUS
 10
77.7273072229
 20
131.0135431562
 11
107.7273072229
 21
131.0135431562
  0
LINE
  5
234
100
AcDbEntity
  8
B-ACHSEN
100
AcDbLine
 62
7
  6
CONTINUOUS
 10
77.7273072229
 20
131.0135431562
 11
77.7273072229
 21
133.1140046732
  0
LINE
  5
235
100
AcDbEntity
  8
0
100
AcDbLine
 62
7
  6
CONTINUOUS
 10
83.5196810199
 20
178.0147968397
 11
83.6951495821
 21
178.5711004808
  0
LINE
  5
236
100
AcDbEntity
  8
0
100
AcDbLine
 62
7
  6
CONTINUOUS
 10
96.8398074136
 20
133.2635431562
 11
97.1314736352
 21
133.338011239
  0
LINE
  5
237
100
AcDbEntity
  8
0
100
AcDbLine
 62
7
  6
CONTINUOUS
 10
81.2064736352
 20
133.2635431562
 11
81.5564736352
 21
133.2635431562
  0
LINE
  5
238
100
AcDbEntity
  8
0
100
AcDbLine
 62
7
  6
CONTINUOUS
 10
83.0148069129
 20
133.2635431562
 11
83.4231403575
 21
133.2635431562
  0
LINE
  5
239
100
AcDbEntity
  8
0
100
AcDbLine
 62
7
  6
CONTINUOUS
 10
84.8231401906
 20
133.2635431562
 11
85.0564736352
 21
133.2635431562
  0
LINE
  5
23A
100
AcDbEntity
  8
0
100
AcDbLine
 62
7
  6
CONTINUOUS
 10
86.4564736352
 20
133.2635431562
 11
87.8564736352
 21
133.2635431562
  0
LINE
  5
23B
100
AcDbEntity
  8
0
100
AcDbLine
 62
7
  6
CONTINUOUS
 10
92.0564736352
 20
133.2635431562
 11
92.4064736352
 21
133.2635431562
  0
LINE
  5
23C
100
AcDbEntity
  8
0
100
AcDbLine
 62
7
  6
CONTINUOUS
 10
92.8731398568
 20
133.2635431562
 11
93.2231398568
 21
133.2635431562
  0
LINE
  5
23D
100
AcDbEntity
  8
0
100
AcDbLine
 62
7
  6
CONTINUOUS
 10
94.6814736352
 20
133.2635431562
 11
95.0898074136
 21
133.2635431562
  0
LINE
  5
23E
100
AcDbEntity
  8
0
100
AcDbLine
 62
7
  6
CONTINUOUS
 10
96.3731398568
 20
133.2635431562
 11
96.8398074136
 21
133.2635431562
  0
LINE
  5
23F
100
AcDbEntity
  8
0
100
AcDbLine
 62
7
  6
CONTINUOUS
 10
99.4648074136
 20
133.2635431562
 11
101.5648074136
 21
133.2635431562
  0
LINE
  5
240
100
AcDbEntity
  8
0
100
AcDbLine
 62
7
  6
CONTINUOUS
 10
102.9648074136
 20
133.2635431562
 11
103.3148074136
 21
133.2635431562
  0
LINE
  5
241
100
AcDbEntity
  8
0
100
AcDbLine
 62
7
  6
CONTINUOUS
 10
101.5648074136
 20
133.7103516657
 11
99.8148074136
 21
133.7103516657
  0
LINE
  5
242
100
AcDbEntity
  8
0
100
AcDbLine
 62
7
  6
CONTINUOUS
 10
96.8398074136
 20
133.7103516657
 11
96.3731398568
 21
133.7103516657
  0
LINE
  5
243
100
AcDbEntity
  8
0
100
AcDbLine
 62
7
  6
CONTINUOUS
 10
87.8564736352
 20
133.7103516657
 11
86.8064736352
 21
133.7103516657
  0
LINE
  5
244
100
AcDbEntity
  8
0
100
AcDbLine
 62
7
  6
CONTINUOUS
 10
85.0564736352
 20
133.7103516657
 11
84.8231401906
 21
133.7103516657
  0
LINE
  5
245
100
AcDbEntity
  8
0
100
AcDbLine
 62
7
  6
CONTINUOUS
 10
84.5314736352
 20
133.338011239
 11
84.8231401906
 21
133.2635431562
  0
LINE
  5
246
100
AcDbEntity
  8
0
100
AcDbLine
 62
7
  6
CONTINUOUS
 10
84.8231401906
 20
133.7103516657
 11
84.5898070798
 21
133.784819742
  0
LINE
  5
247
100
AcDbEntity
  8
0
100
AcDbLine
 62
7
  6
CONTINUOUS
 10
82.6648069129
 20
136.3912027751
 11
82.8398069129
 21
136.3167346988
  0
LINE
  5
248
100
AcDbEntity
  8
0
100
AcDbLine
 62
7
  6
CONTINUOUS
 10
84.2981401906
 20
133.486947411
 11
84.5314736352
 21
133.338011239
  0
LINE
  5
249
100
AcDbEntity
  8
0
100
AcDbLine
 62
7
  6
CONTINUOUS
 10
84.5898070798
 20
133.784819742
 11
84.4148070798
 21
133.9337559466
  0
LINE
  5
24A
100
AcDbEntity
  8
0
100
AcDbLine
 62
7
  6
CONTINUOUS
 10
83.1314736352
 20
136.4656708513
 11
82.8981403575
 21
136.68907508
  0
LINE
  5
24B
100
AcDbEntity
  8
0
100
AcDbLine
 62
7
  6
CONTINUOUS
 10
84.0648070798
 20
133.784819742
 11
84.2981401906
 21
133.486947411
  0
LINE
  5
24C
100
AcDbEntity
  8
0
100
AcDbLine
 62
7
  6
CONTINUOUS
 10
82.8398069129
 20
136.3167346988
 11
82.9564736352
 21
136.1677985464
  0
LINE
  5
24D
100
AcDbEntity
  8
0
100
AcDbLine
 62
7
  6
CONTINUOUS
 10
84.9232790155
 20
178.8725417816
 11
84.9654840495
 21
179.0972902459
  0
LINE
  5
24E
100
AcDbEntity
  8
0
100
AcDbLine
 62
7
  6
CONTINUOUS
 10
87.8564736352
 20
133.2635431562
 11
88.1481405244
 21
133.338011239
  0
LINE
  5
24F
100
AcDbEntity
  8
0
100
AcDbLine
 62
7
  6
CONTINUOUS
 10
85.0564736352
 20
133.2635431562
 11
85.3481401906
 21
133.338011239
  0
LINE
  5
250
100
AcDbEntity
  8
0
100
AcDbLine
 62
7
  6
CONTINUOUS
 10
95.9064736352
 20
134.2316282515
 11
95.5564736352
 21
134.2316282515
  0
LINE
  5
251
100
AcDbEntity
  8
0
100
AcDbLine
 62
7
  6
CONTINUOUS
 10
98.1814736352
 20
134.5295005564
 11
98.9981398568
 21
134.5295005564
  0
LINE
  5
252
100
AcDbEntity
  8
0
100
AcDbLine
 62
7
  6
CONTINUOUS
 10
81.5564736352
 20
134.8273729656
 11
82.5481402741
 21
134.8273729656
  0
LINE
  5
253
100
AcDbEntity
  8
0
100
AcDbLine
 62
7
  6
CONTINUOUS
 10
93.2231398568
 20
134.8273729656
 11
94.2148074136
 21
134.8273729656
  0
LINE
  5
254
100
AcDbEntity
  8
0
100
AcDbLine
 62
7
  6
CONTINUOUS
 10
96.4898074136
 20
134.8273729656
 11
96.8398074136
 21
134.8273729656
  0
LINE
  5
255
100
AcDbEntity
  8
0
100
AcDbLine
 62
7
  6
CONTINUOUS
 10
98.9981398568
 20
134.9018410419
 11
98.1814736352
 21
134.9018410419
  0
LINE
  5
256
100
AcDbEntity
  8
0
100
AcDbLine
 62
7
  6
CONTINUOUS
 10
96.8398074136
 20
135.274181423
 11
96.4898074136
 21
135.274181423
  0
LINE
  5
257
100
AcDbEntity
  8
0
100
AcDbLine
 62
7
  6
CONTINUOUS
 10
94.3314736352
 20
135.274181423
 11
93.2231398568
 21
135.274181423
  0
LINE
  5
258
100
AcDbEntity
  8
0
100
AcDbLine
 62
7
  6
CONTINUOUS
 10
82.6648069129
 20
135.274181423
 11
81.5564736352
 21
135.274181423
  0
LINE
  5
259
100
AcDbEntity
  8
0
100
AcDbLine
 62
7
  6
CONTINUOUS
 10
97.1898074136
 20
135.9443943177
 11
97.5398074136
 21
135.9443943177
  0
LINE
  5
25A
100
AcDbEntity
  8
0
100
AcDbLine
 62
7
  6
CONTINUOUS
 10
86.8064736352
 20
136.3167346988
 11
87.8564736352
 21
136.3167346988
  0
LINE
  5
25B
100
AcDbEntity
  8
0
100
AcDbLine
 62
7
  6
CONTINUOUS
 10
96.4898074136
 20
136.3167346988
 11
96.8398074136
 21
136.3167346988
  0
LINE
  5
25C
100
AcDbEntity
  8
0
100
AcDbLine
 62
7
  6
CONTINUOUS
 10
81.5564736352
 20
136.3912027751
 11
82.6648069129
 21
136.3912027751
  0
LINE
  5
25D
100
AcDbEntity
  8
0
100
AcDbLine
 62
7
  6
CONTINUOUS
 10
93.2231398568
 20
136.3912027751
 11
94.3314736352
 21
136.3912027751
  0
LINE
  5
25E
100
AcDbEntity
  8
0
100
AcDbLine
 62
7
  6
CONTINUOUS
 10
102.0314736352
 20
136.3912027751
 11
102.9648074136
 21
136.3912027751
  0
LINE
  5
25F
100
AcDbEntity
  8
0
100
AcDbLine
 62
7
  6
CONTINUOUS
 10
103.3148074136
 20
136.3912027751
 11
104.248141192
 21
136.3912027751
  0
LINE
  5
260
100
AcDbEntity
  8
0
100
AcDbLine
 62
7
  6
CONTINUOUS
 10
104.248141192
 20
136.7635431562
 11
102.0314736352
 21
136.7635431562
  0
LINE
  5
261
100
AcDbEntity
  8
0
100
AcDbLine
 62
7
  6
CONTINUOUS
 10
99.8148074136
 20
136.7635431562
 11
99.4648074136
 21
136.7635431562
  0
LINE
  5
262
100
AcDbEntity
  8
0
100
AcDbLine
 62
7
  6
CONTINUOUS
 10
96.7814736352
 20
136.7635431562
 11
96.4898074136
 21
136.7635431562
  0
LINE
  5
263
100
AcDbEntity
  8
0
100
AcDbLine
 62
7
  6
CONTINUOUS
 10
94.2731398568
 20
136.7635431562
 11
92.8731398568
 21
136.7635431562
  0
LINE
  5
264
100
AcDbEntity
  8
0
100
AcDbLine
 62
7
  6
CONTINUOUS
 10
92.4064736352
 20
136.7635431562
 11
92.0564736352
 21
136.7635431562
  0
LINE
  5
265
100
AcDbEntity
  8
0
100
AcDbLine
 62
7
  6
CONTINUOUS
 10
87.8564736352
 20
136.7635431562
 11
86.4564736352
 21
136.7635431562
  0
LINE
  5
266
100
AcDbEntity
  8
0
100
AcDbLine
 62
7
  6
CONTINUOUS
 10
85.9898070798
 20
136.7635431562
 11
85.6398070798
 21
136.7635431562
  0
LINE
  5
267
100
AcDbEntity
  8
0
100
AcDbLine
 62
7
  6
CONTINUOUS
 10
84.2398070798
 20
136.7635431562
 11
83.8898069129
 21
136.7635431562
  0
LINE
  5
268
100
AcDbEntity
  8
0
100
AcDbLine
 62
7
  6
CONTINUOUS
 10
82.6064736352
 20
136.7635431562
 11
81.2064736352
 21
136.7635431562
  0
LINE
  5
269
100
AcDbEntity
  8
RUNDUNGEN
100
AcDbLine
 62
7
  6
CONTINUOUS
 10
111.624577749
 20
137.1140046732
 11
110.7937500331
 21
137.1140046732
  0
LINE
  5
26A
100
AcDbEntity
  8
RUNDUNGEN
100
AcDbLine
 62
7
  6
CONTINUOUS
 10
74.6608644127
 20
137.1140046732
 11
73.8300366968
 21
137.1140046732
  0
LINE
  5
26B
100
AcDbEntity
  8
0
100
AcDbLine
 62
7
  6
CONTINUOUS
 10
82.8981403575
 20
136.68907508
 11
82.6064736352
 21
136.7635431562
  0
LINE
  5
26C
100
AcDbEntity
  8
0
100
AcDbLine
 62
7
  6
CONTINUOUS
 10
96.0814736352
 20
133.338011239
 11
96.3731398568
 21
133.2635431562
  0
LINE
  5
26D
100
AcDbEntity
  8
0
100
AcDbLine
 62
7
  6
CONTINUOUS
 10
88.1481405244
 20
136.68907508
 11
87.8564736352
 21
136.7635431562
  0
LINE
  5
26E
100
AcDbEntity
  8
0
100
AcDbLine
 62
7
  6
CONTINUOUS
 10
97.1314736352
 20
135.1997133468
 11
96.8398074136
 21
135.274181423
  0
LINE
  5
26F
100
AcDbEntity
  8
0
100
AcDbLine
 62
7
  6
CONTINUOUS
 10
87.8564736352
 20
136.3167346988
 11
88.089806746
 21
136.2422666226
  0
LINE
  5
270
100
AcDbEntity
  8
0
100
AcDbLine
 62
7
  6
CONTINUOUS
 10
96.3731398568
 20
133.7103516657
 11
96.1398074136
 21
133.784819742
  0
LINE
  5
271
100
AcDbEntity
  8
0
100
AcDbLine
 62
7
  6
CONTINUOUS
 10
96.2564736352
 20
134.9018410419
 11
96.4898074136
 21
134.8273729656
  0
LINE
  5
272
100
AcDbEntity
  8
0
100
AcDbLine
 62
7
  6
CONTINUOUS
 10
96.8398074136
 20
134.8273729656
 11
97.0731398568
 21
134.7529048894
  0
LINE
  5
273
100
AcDbEntity
  8
0
100
AcDbLine
 62
7
  6
CONTINUOUS
 10
88.3814736352
 20
136.5401389275
 11
88.1481405244
 21
136.68907508
  0
LINE
  5
274
100
AcDbEntity
  8
0
100
AcDbLine
 62
7
  6
CONTINUOUS
 10
88.089806746
 20
136.2422666226
 11
88.264806746
 21
136.0933304701
  0
LINE
  5
275
100
AcDbEntity
  8
B-ACHSEN
100
AcDbLine
 62
7
  6
CONTINUOUS
 10
97.4273072229
 20
127.3135431562
 11
98.7273072229
 21
126.0135431562
  0
LINE
  5
276
100
AcDbEntity
  8
0
100
AcDbLine
 62
7
  6
CONTINUOUS
 10
83.3064736352
 20
136.1677985464
 11
83.1314736352
 21
136.4656708513
  0
LINE
  5
277
100
AcDbEntity
  8
0
100
AcDbLine
 62
7
  6
CONTINUOUS
 10
84.4148070798
 20
133.9337559466
 11
84.2981401906
 21
134.1571601753
  0
LINE
  5
278
100
AcDbEntity
  8
0
100
AcDbLine
 62
7
  6
CONTINUOUS
 10
83.9481403575
 20
134.082692099
 11
84.0648070798
 21
133.784819742
  0
LINE
  5
279
100
AcDbEntity
  8
0
100
AcDbLine
 62
7
  6
CONTINUOUS
 10
83.4231403575
 20
133.2635431562
 11
82.8981403575
 21
134.9763091181
  0
LINE
  5
27A
100
AcDbEntity
  8
0
100
AcDbLine
 62
7
  6
CONTINUOUS
 10
82.5481402741
 20
134.8273729656
 11
83.0148069129
 21
133.2635431562
  0
LINE
  5
27B
100
AcDbEntity
  8
0
100
AcDbLine
 62
7
  6
CONTINUOUS
 10
82.9564736352
 20
136.1677985464
 11
83.0148069129
 21
135.9443943177
  0
LINE
  5
27C
100
AcDbEntity
  8
0
100
AcDbLine
 62
7
  6
CONTINUOUS
 10
83.3648069129
 20
135.9443943177
 11
83.3064736352
 21
136.1677985464
  0
LINE
  5
27D
100
AcDbEntity
  8
0
100
AcDbLine
 62
7
  6
CONTINUOUS
 10
82.171660071
 20
178.4927613081
 11
82.3314402935
 21
175.6572121688
  0
LINE
  5
27E
100
AcDbEntity
  8
0
100
AcDbLine
 62
7
  6
CONTINUOUS
 10
82.6845431345
 20
175.458027828
 11
82.5891534749
 21
177.9748041821
  0
LINE
  5
27F
100
AcDbEntity
  8
0
100
AcDbLine
 62
7
  6
CONTINUOUS
 10
81.2064736352
 20
136.7635431562
 11
81.2064736352
 21
133.2635431562
  0
LINE
  5
280
100
AcDbEntity
  8
0
100
AcDbLine
 62
7
  6
CONTINUOUS
 10
81.5564736352
 20
133.2635431562
 11
81.5564736352
 21
134.8273729656
  0
LINE
  5
281
100
AcDbEntity
  8
0
100
AcDbLine
 62
7
  6
CONTINUOUS
 10
81.5564736352
 20
135.274181423
 11
81.5564736352
 21
136.3912027751
  0
LINE
  5
282
100
AcDbEntity
  8
0
100
AcDbLine
 62
7
  6
CONTINUOUS
 10
83.0148069129
 20
135.9443943177
 11
83.0148069129
 21
135.7209898804
  0
LINE
  5
283
100
AcDbEntity
  8
0
100
AcDbLine
 62
7
  6
CONTINUOUS
 10
83.3648069129
 20
135.6465218042
 11
83.3648069129
 21
135.9443943177
  0
LINE
  5
284
100
AcDbEntity
  8
0
100
AcDbLine
 62
7
  6
CONTINUOUS
 10
83.8898069129
 20
136.7635431562
 11
83.8898069129
 21
134.4550324802
  0
LINE
  5
285
100
AcDbEntity
  8
0
100
AcDbLine
 62
7
  6
CONTINUOUS
 10
86.702164857
 20
178.987580529
 11
86.7443702214
 21
179.2123291302
  0
LINE
  5
286
100
AcDbEntity
  8
0
100
AcDbLine
 62
7
  6
CONTINUOUS
 10
94.5648074136
 20
136.68907508
 11
94.2731398568
 21
136.7635431562
  0
LINE
  5
287
100
AcDbEntity
  8
0
100
AcDbLine
 62
7
  6
CONTINUOUS
 10
97.0731398568
 20
136.68907508
 11
96.7814736352
 21
136.7635431562
  0
LINE
  5
288
100
AcDbEntity
  8
0
100
AcDbLine
 62
7
  6
CONTINUOUS
 10
96.4898074136
 20
135.274181423
 11
96.3148074136
 21
135.3486494992
  0
LINE
  5
289
100
AcDbEntity
  8
0
100
AcDbLine
 62
7
  6
CONTINUOUS
 10
94.3314736352
 20
136.3912027751
 11
94.5064736352
 21
136.3167346988
  0
LINE
  5
28A
100
AcDbEntity
  8
0
100
AcDbLine
 62
7
  6
CONTINUOUS
 10
96.8398074136
 20
136.3167346988
 11
97.0148074136
 21
136.2422666226
  0
LINE
  5
28B
100
AcDbEntity
  8
0
100
AcDbLine
 62
7
  6
CONTINUOUS
 10
96.0231398568
 20
135.0507771943
 11
96.2564736352
 21
134.9018410419
  0
LINE
  5
28C
100
AcDbEntity
  8
0
100
AcDbLine
 62
7
  6
CONTINUOUS
 10
97.3648074136
 20
135.0507771943
 11
97.1314736352
 21
135.1997133468
  0
LINE
  5
28D
100
AcDbEntity
  8
0
100
AcDbLine
 62
7
  6
CONTINUOUS
 10
95.7898074136
 20
133.5614154872
 11
96.0814736352
 21
133.338011239
  0
LINE
  5
28E
100
AcDbEntity
  8
0
100
AcDbLine
 62
7
  6
CONTINUOUS
 10
88.614806746
 20
136.2422666226
 11
88.3814736352
 21
136.5401389275
  0
LINE
  5
28F
100
AcDbEntity
  8
0
100
AcDbLine
 62
7
  6
CONTINUOUS
 10
88.264806746
 20
136.0933304701
 11
88.3814736352
 21
135.8699260328
  0
LINE
  5
290
100
AcDbEntity
  8
0
100
AcDbLine
 62
7
  6
CONTINUOUS
 10
84.2981401906
 20
134.1571601753
 11
84.2398070798
 21
134.4550324802
  0
LINE
  5
291
100
AcDbEntity
  8
0
100
AcDbLine
 62
7
  6
CONTINUOUS
 10
83.8898069129
 20
134.4550324802
 11
83.9481403575
 21
134.082692099
  0
LINE
  5
292
100
AcDbEntity
  8
0
100
AcDbLine
 62
7
  6
CONTINUOUS
 10
84.2398070798
 20
134.4550324802
 11
84.2398070798
 21
136.7635431562
  0
LINE
  5
293
100
AcDbEntity
  8
0
100
AcDbLine
 62
7
  6
CONTINUOUS
 10
85.6398070798
 20
136.7635431562
 11
85.6398070798
 21
134.4550324802
  0
LINE
  5
294
100
AcDbEntity
  8
0
100
AcDbLine
 62
7
  6
CONTINUOUS
 10
85.9898070798
 20
134.4550324802
 11
85.9898070798
 21
136.7635431562
  0
LINE
  5
295
100
AcDbEntity
  8
0
100
AcDbLine
 62
7
  6
CONTINUOUS
 10
86.4564736352
 20
136.7635431562
 11
86.4564736352
 21
133.2635431562
  0
LINE
  5
296
100
AcDbEntity
  8
B-ACHSEN
100
AcDbLine
 62
7
  6
CONTINUOUS
 10
86.7273072229
 20
126.0135431562
 11
86.7273072229
 21
114.0135431562
  0
LINE
  5
297
100
AcDbEntity
  8
0
100
AcDbLine
 62
7
  6
CONTINUOUS
 10
86.8064736352
 20
133.7103516657
 11
86.8064736352
 21
136.3167346988
  0
LINE
  5
298
100
AcDbEntity
  8
0
100
AcDbLine
 62
7
  6
CONTINUOUS
 10
86.3579512506
 20
179.3286245742
 11
86.3401731462
 21
179.0449052198
  0
LINE
  5
299
100
AcDbEntity
  8
0
100
AcDbLine
 62
7
  6
CONTINUOUS
 10
83.0148069129
 20
135.7209898804
 11
82.9564736352
 21
135.4975856517
  0
LINE
  5
29A
100
AcDbEntity
  8
0
100
AcDbLine
 62
7
  6
CONTINUOUS
 10
83.3064736352
 20
135.4231175755
 11
83.3648069129
 21
135.6465218042
  0
LINE
  5
29B
100
AcDbEntity
  8
0
100
AcDbLine
 62
7
  6
CONTINUOUS
 10
96.3148074136
 20
135.3486494992
 11
96.1398074136
 21
135.4975856517
  0
LINE
  5
29C
100
AcDbEntity
  8
0
100
AcDbLine
 62
7
  6
CONTINUOUS
 10
97.0731398568
 20
134.7529048894
 11
97.2481398568
 21
134.6039687369
  0
LINE
  5
29D
100
AcDbEntity
  8
0
100
AcDbLine
 62
7
  6
CONTINUOUS
 10
94.7981398568
 20
136.4656708513
 11
94.5648074136
 21
136.68907508
  0
LINE
  5
29E
100
AcDbEntity
  8
0
100
AcDbLine
 62
7
  6
CONTINUOUS
 10
97.3064736352
 20
136.4656708513
 11
97.0731398568
 21
136.68907508
  0
LINE
  5
29F
100
AcDbEntity
  8
0
100
AcDbLine
 62
7
  6
CONTINUOUS
 10
96.1398074136
 20
133.784819742
 11
95.9648074136
 21
134.0082240228
  0
LINE
  5
2A0
100
AcDbEntity
  8
0
100
AcDbLine
 62
7
  6
CONTINUOUS
 10
94.5064736352
 20
136.3167346988
 11
94.6231398568
 21
136.1677985464
  0
LINE
  5
2A1
100
AcDbEntity
  8
0
100
AcDbLine
 62
7
  6
CONTINUOUS
 10
95.7898074136
 20
135.3486494992
 11
96.0231398568
 21
135.0507771943
  0
LINE
  5
2A2
100
AcDbEntity
  8
0
100
AcDbLine
 62
7
  6
CONTINUOUS
 10
88.7314736352
 20
135.9443943177
 11
88.614806746
 21
136.2422666226
  0
LINE
  5
2A3
100
AcDbEntity
  8
0
100
AcDbLine
 62
7
  6
CONTINUOUS
 10
88.3814736352
 20
135.8699260328
 11
88.439806746
 21
135.5720537279
  0
LINE
  5
2A4
100
AcDbEntity
  8
0
100
AcDbLine
 62
7
  6
CONTINUOUS
 10
88.789806746
 20
135.5720537279
 11
88.7314736352
 21
135.9443943177
  0
LINE
  5
2A5
100
AcDbEntity
  8
B-ACHSEN
100
AcDbLine
 62
7
  6
CONTINUOUS
 10
88.0273072229
 20
131.0135431562
 11
88.0273072229
 21
127.3135431562
  0
LINE
  5
2A6
100
AcDbEntity
  8
0
100
AcDbLine
 62
7
  6
CONTINUOUS
 10
88.439806746
 20
135.5720537279
 11
88.439806746
 21
134.4550324802
  0
LINE
  5
2A7
100
AcDbEntity
  8
0
100
AcDbLine
 62
7
  6
CONTINUOUS
 10
88.789806746
 20
134.4550324802
 11
88.789806746
 21
135.5720537279
  0
LINE
  5
2A8
100
AcDbEntity
  8
0
100
AcDbLine
 62
7
  6
CONTINUOUS
 10
85.9314736352
 20
134.082692099
 11
85.9898070798
 21
134.4550324802
  0
LINE
  5
2A9
100
AcDbEntity
  8
0
100
AcDbLine
 62
7
  6
CONTINUOUS
 10
85.6398070798
 20
134.4550324802
 11
85.5814736352
 21
134.1571601753
  0
LINE
  5
2AA
100
AcDbEntity
  8
0
100
AcDbLine
 62
7
  6
CONTINUOUS
 10
100.8600118201
 20
179.0127549858
 11
100.6645989585
 21
178.5409866049
  0
LINE
  5
2AB
100
AcDbEntity
  8
0
100
AcDbLine
 62
7
  6
CONTINUOUS
 10
101.1820400457
 20
178.8102776717
 11
100.2294025418
 21
176.5104072898
  0
LINE
  5
2AC
100
AcDbEntity
  8
0
100
AcDbLine
 62
7
  6
CONTINUOUS
 10
100.5758573665
 20
176.3669010027
 11
101.7239076636
 21
179.1385396002
  0
LINE
  5
2AD
100
AcDbEntity
  8
0
100
AcDbLine
 62
7
  6
CONTINUOUS
 10
101.8194483466
 20
178.0626323258
 11
101.72174195
 21
177.826748218
  0
LINE
  5
2AE
100
AcDbEntity
  8
0
100
AcDbLine
 62
7
  6
CONTINUOUS
 10
97.5981398568
 20
134.7529048894
 11
97.3648074136
 21
135.0507771943
  0
LINE
  5
2AF
100
AcDbEntity
  8
0
100
AcDbLine
 62
7
  6
CONTINUOUS
 10
97.0148074136
 20
136.2422666226
 11
97.1314736352
 21
136.0933304701
  0
LINE
  5
2B0
100
AcDbEntity
  8
0
100
AcDbLine
 62
7
  6
CONTINUOUS
 10
94.9731398568
 20
136.1677985464
 11
94.7981398568
 21
136.4656708513
  0
LINE
  5
2B1
100
AcDbEntity
  8
0
100
AcDbLine
 62
7
  6
CONTINUOUS
 10
97.2481398568
 20
134.6039687369
 11
97.3648074136
 21
134.380564404
  0
LINE
  5
2B2
100
AcDbEntity
  8
0
100
AcDbLine
 62
7
  6
CONTINUOUS
 10
95.6148074136
 20
133.9337559466
 11
95.7898074136
 21
133.5614154872
  0
LINE
  5
2B3
100
AcDbEntity
  8
0
100
AcDbLine
 62
7
  6
CONTINUOUS
 10
84.5946026256
 20
179.0127549858
 11
84.6345664413
 21
178.7529531178
  0
LINE
  5
2B4
100
AcDbEntity
  8
0
100
AcDbLine
 62
7
  6
CONTINUOUS
 10
92.0564736352
 20
136.7635431562
 11
92.0564736352
 21
133.2635431562
  0
LINE
  5
2B5
100
AcDbEntity
  8
0
100
AcDbLine
 62
7
  6
CONTINUOUS
 10
92.4064736352
 20
133.2635431562
 11
92.4064736352
 21
136.7635431562
  0
LINE
  5
2B6
100
AcDbEntity
  8
B-ACHSEN
100
AcDbLine
 62
2
  6
CENTER
 10
92.7273072229
 20
157.0135431562
 11
92.7273072229
 21
109.882199804
  0
LINE
  5
2B7
100
AcDbEntity
  8
B-ACHSEN
100
AcDbLine
 62
2
  6
CENTER
 10
92.7273072229
 20
157.0135431562
 11
92.7273072229
 21
187.480030878
  0
LINE
  5
2B8
100
AcDbEntity
  8
0
100
AcDbLine
 62
7
  6
CONTINUOUS
 10
92.8731398568
 20
136.7635431562
 11
92.8731398568
 21
133.2635431562
  0
LINE
  5
2B9
100
AcDbEntity
  8
0
100
AcDbLine
 62
7
  6
CONTINUOUS
 10
88.7314736352
 20
134.082692099
 11
88.789806746
 21
134.4550324802
  0
LINE
  5
2BA
100
AcDbEntity
  8
0
100
AcDbLine
 62
7
  6
CONTINUOUS
 10
88.439806746
 20
134.4550324802
 11
88.3814736352
 21
134.1571601753
  0
LINE
  5
2BB
100
AcDbEntity
  8
0
100
AcDbLine
 62
7
  6
CONTINUOUS
 10
85.8148070798
 20
133.784819742
 11
85.9314736352
 21
134.082692099
  0
LINE
  5
2BC
100
AcDbEntity
  8
0
100
AcDbLine
 62
7
  6
CONTINUOUS
 10
102.476800947
 20
178.3430590019
 11
102.2813880853
 21
177.871290621
  0
LINE
  5
2BD
100
AcDbEntity
  8
0
100
AcDbLine
 62
7
  6
CONTINUOUS
 10
102.1836816887
 20
177.6354065132
 11
101.6951496543
 21
176.4559858501
  0
LINE
  5
2BE
100
AcDbEntity
  8
0
100
AcDbLine
 62
7
  6
CONTINUOUS
 10
102.0327152787
 20
176.4543393499
 11
102.4723940977
 21
177.5158179178
  0
LINE
  5
2BF
100
AcDbEntity
  8
0
100
AcDbLine
 62
7
  6
CONTINUOUS
 10
102.5701004943
 20
177.7517020256
 11
102.7655133559
 21
178.2234704065
  0
LINE
  5
2C0
100
AcDbEntity
  8
0
100
AcDbLine
 62
7
  6
CONTINUOUS
 10
102.30813149
 20
175.649369567
 11
102.4058378951
 21
175.8852536955
  0
LINE
  5
2C1
100
AcDbEntity
  8
0
100
AcDbLine
 62
7
  6
CONTINUOUS
 10
103.1075613313
 20
177.2527230352
 11
103.205267728
 21
177.4886071431
  0
LINE
  5
2C2
100
AcDbEntity
  8
0
100
AcDbLine
 62
7
  6
CONTINUOUS
 10
83.1314736352
 20
135.1252452706
 11
83.3064736352
 21
135.4231175755
  0
LINE
  5
2C3
100
AcDbEntity
  8
0
100
AcDbLine
 62
7
  6
CONTINUOUS
 10
97.4814736352
 20
136.1677985464
 11
97.3064736352
 21
136.4656708513
  0
LINE
  5
2C4
100
AcDbEntity
  8
0
100
AcDbLine
 62
7
  6
CONTINUOUS
 10
79.9197037105
 20
177.5599704417
 11
81.0677540076
 21
174.7883318442
  0
LINE
  5
2C5
100
AcDbEntity
  8
0
100
AcDbLine
 62
7
  6
CONTINUOUS
 10
81.4142088323
 20
174.9318381313
 11
80.5104245268
 21
177.1137664592
  0
LINE
  5
2C6
100
AcDbEntity
  8
0
100
AcDbLine
 62
7
  6
CONTINUOUS
 10
97.7148074136
 20
134.4550324802
 11
97.5981398568
 21
134.7529048894
  0
LINE
  5
2C7
100
AcDbEntity
  8
0
100
AcDbLine
 62
7
  6
CONTINUOUS
 10
97.1314736352
 20
136.0933304701
 11
97.1898074136
 21
135.9443943177
  0
LINE
  5
2C8
100
AcDbEntity
  8
0
100
AcDbLine
 62
7
  6
CONTINUOUS
 10
95.0898074136
 20
133.2635431562
 11
94.5648074136
 21
134.9763091181
  0
LINE
  5
2C9
100
AcDbEntity
  8
0
100
AcDbLine
 62
7
  6
CONTINUOUS
 10
94.2148074136
 20
134.8273729656
 11
94.6814736352
 21
133.2635431562
  0
LINE
  5
2CA
100
AcDbEntity
  8
0
100
AcDbLine
 62
7
  6
CONTINUOUS
 10
94.6231398568
 20
136.1677985464
 11
94.6814736352
 21
135.9443943177
  0
LINE
  5
2CB
100
AcDbEntity
  8
0
100
AcDbLine
 62
7
  6
CONTINUOUS
 10
95.0314736352
 20
135.9443943177
 11
94.9731398568
 21
136.1677985464
  0
LINE
  5
2CC
100
AcDbEntity
  8
0
100
AcDbLine
 62
7
  6
CONTINUOUS
 10
95.9648074136
 20
134.0082240228
 11
95.9064736352
 21
134.2316282515
  0
LINE
  5
2CD
100
AcDbEntity
  8
0
100
AcDbLine
 62
7
  6
CONTINUOUS
 10
96.1398074136
 20
135.4975856517
 11
96.0814736352
 21
135.7209898804
  0
LINE
  5
2CE
100
AcDbEntity
  8
0
100
AcDbLine
 62
7
  6
CONTINUOUS
 10
95.5564736352
 20
134.2316282515
 11
95.6148074136
 21
133.9337559466
  0
LINE
  5
2CF
100
AcDbEntity
  8
0
100
AcDbLine
 62
7
  6
CONTINUOUS
 10
95.7314736352
 20
135.6465218042
 11
95.7898074136
 21
135.3486494992
  0
LINE
  5
2D0
100
AcDbEntity
  8
0
100
AcDbLine
 62
7
  6
CONTINUOUS
 10
86.7443702214
 20
179.2123291302
 11
86.7044060753
 21
179.4721308613
  0
LINE
  5
2D1
100
AcDbEntity
  8
0
100
AcDbLine
 62
7
  6
CONTINUOUS
 10
93.2231398568
 20
133.2635431562
 11
93.2231398568
 21
134.8273729656
  0
LINE
  5
2D2
100
AcDbEntity
  8
0
100
AcDbLine
 62
7
  6
CONTINUOUS
 10
93.2231398568
 20
135.274181423
 11
93.2231398568
 21
136.3912027751
  0
LINE
  5
2D3
100
AcDbEntity
  8
0
100
AcDbLine
 62
7
  6
CONTINUOUS
 10
94.6814736352
 20
135.9443943177
 11
94.6814736352
 21
135.7209898804
  0
LINE
  5
2D4
100
AcDbEntity
  8
0
100
AcDbLine
 62
7
  6
CONTINUOUS
 10
95.0314736352
 20
135.6465218042
 11
95.0314736352
 21
135.9443943177
  0
LINE
  5
2D5
100
AcDbEntity
  8
0
100
AcDbLine
 62
7
  6
CONTINUOUS
 10
95.7314736352
 20
135.9443943177
 11
95.7314736352
 21
135.6465218042
  0
LINE
  5
2D6
100
AcDbEntity
  8
0
100
AcDbLine
 62
7
  6
CONTINUOUS
 10
96.0814736352
 20
135.7209898804
 11
96.0814736352
 21
135.8699260328
  0
LINE
  5
2D7
100
AcDbEntity
  8
0
100
AcDbLine
 62
7
  6
CONTINUOUS
 10
88.614806746
 20
133.784819742
 11
88.7314736352
 21
134.082692099
  0
LINE
  5
2D8
100
AcDbEntity
  8
0
100
AcDbLine
 62
7
  6
CONTINUOUS
 10
85.5814736352
 20
134.1571601753
 11
85.4648070798
 21
133.9337559466
  0
LINE
  5
2D9
100
AcDbEntity
  8
0
100
AcDbLine
 62
7
  6
CONTINUOUS
 10
88.3814736352
 20
134.1571601753
 11
88.264806746
 21
133.9337559466
  0
LINE
  5
2DA
100
AcDbEntity
  8
0
100
AcDbLine
 62
7
  6
CONTINUOUS
 10
82.9564736352
 20
135.4975856517
 11
82.8398069129
 21
135.3486494992
  0
LINE
  5
2DB
100
AcDbEntity
  8
0
100
AcDbLine
 62
7
  6
CONTINUOUS
 10
82.5891534749
 20
177.9748041821
 11
83.4929377805
 21
175.7928758541
  0
LINE
  5
2DC
100
AcDbEntity
  8
0
100
AcDbLine
 62
7
  6
CONTINUOUS
 10
83.8393926052
 20
175.9363821413
 11
82.6913423081
 21
178.7080207388
  0
LINE
  5
2DD
100
AcDbEntity
  8
0
100
AcDbLine
 62
7
  6
CONTINUOUS
 10
83.3242681583
 20
178.4865652206
 11
83.5196810199
 21
178.0147968397
  0
LINE
  5
2DE
100
AcDbEntity
  8
0
100
AcDbLine
 62
7
  6
CONTINUOUS
 10
83.6951495821
 20
178.5711004808
 11
84.647787086
 21
176.271230099
  0
LINE
  5
2DF
100
AcDbEntity
  8
0
100
AcDbLine
 62
7
  6
CONTINUOUS
 10
84.9942419107
 20
176.4147363861
 11
83.8461916136
 21
179.1863749836
  0
LINE
  5
2E0
100
AcDbEntity
  8
0
100
AcDbLine
 62
7
  6
CONTINUOUS
 10
97.5398074136
 20
135.9443943177
 11
97.4814736352
 21
136.1677985464
  0
LINE
  5
2E1
100
AcDbEntity
  8
0
100
AcDbLine
 62
7
  6
CONTINUOUS
 10
97.3648074136
 20
134.380564404
 11
97.3648074136
 21
134.1571601753
  0
LINE
  5
2E2
100
AcDbEntity
  8
B-ACHSEN
100
AcDbLine
 62
7
  6
CONTINUOUS
 10
97.4273072229
 20
131.0135431562
 11
97.4273072229
 21
127.3135431562
  0
LINE
  5
2E3
100
AcDbEntity
  8
0
100
AcDbLine
 62
7
  6
CONTINUOUS
 10
97.7148074136
 20
134.082692099
 11
97.7148074136
 21
134.4550324802
  0
LINE
  5
2E4
100
AcDbEntity
  8
0
100
AcDbLine
 62
7
  6
CONTINUOUS
 10
98.1814736352
 20
134.9018410419
 11
98.1814736352
 21
134.5295005564
  0
LINE
  5
2E5
100
AcDbEntity
  8
B-ACHSEN
100
AcDbLine
 62
7
  6
CONTINUOUS
 10
98.7273072229
 20
126.0135431562
 11
98.7273072229
 21
114.0135431562
  0
LINE
  5
2E6
100
AcDbEntity
  8
0
100
AcDbLine
 62
7
  6
CONTINUOUS
 10
98.9981398568
 20
134.5295005564
 11
98.9981398568
 21
134.9018410419
  0
LINE
  5
2E7
100
AcDbEntity
  8
0
100
AcDbLine
 62
7
  6
CONTINUOUS
 10
95.7898074136
 20
136.2422666226
 11
95.7314736352
 21
135.9443943177
  0
LINE
  5
2E8
100
AcDbEntity
  8
0
100
AcDbLine
 62
7
  6
CONTINUOUS
 10
94.6814736352
 20
135.7209898804
 11
94.6231398568
 21
135.4975856517
  0
LINE
  5
2E9
100
AcDbEntity
  8
0
100
AcDbLine
 62
7
  6
CONTINUOUS
 10
94.9731398568
 20
135.4231175755
 11
95.0314736352
 21
135.6465218042
  0
LINE
  5
2EA
100
AcDbEntity
  8
0
100
AcDbLine
 62
7
  6
CONTINUOUS
 10
85.5814736352
 20
133.486947411
 11
85.8148070798
 21
133.784819742
  0
LINE
  5
2EB
100
AcDbEntity
  8
0
100
AcDbLine
 62
7
  6
CONTINUOUS
 10
88.3814736352
 20
133.486947411
 11
88.614806746
 21
133.784819742
  0
LINE
  5
2EC
100
AcDbEntity
  8
0
100
AcDbLine
 62
7
  6
CONTINUOUS
 10
85.3340488843
 20
176.9009333696
 11
85.4561818972
 21
176.6060781935
  0
LINE
  5
2ED
100
AcDbEntity
  8
0
100
AcDbLine
 62
7
  6
CONTINUOUS
 10
86.3090979839
 20
179.4465667933
 11
86.3579512506
 21
179.3286245742
  0
LINE
  5
2EE
100
AcDbEntity
  8
0
100
AcDbLine
 62
7
  6
CONTINUOUS
 10
87.5349105149
 20
177.4671157795
 11
87.4127775021
 21
177.7619709556
  0
LINE
  5
2EF
100
AcDbEntity
  8
0
100
AcDbLine
 62
7
  6
CONTINUOUS
 10
86.7044060753
 20
179.4721308613
 11
86.6555528085
 21
179.5900730805
  0
LINE
  5
2F0
100
AcDbEntity
  8
0
100
AcDbLine
 62
7
  6
CONTINUOUS
 10
99.4648074136
 20
136.7635431562
 11
99.4648074136
 21
133.2635431562
  0
LINE
  5
2F1
100
AcDbEntity
  8
0
100
AcDbLine
 62
7
  6
CONTINUOUS
 10
99.8148074136
 20
133.7103516657
 11
99.8148074136
 21
136.7635431562
  0
LINE
  5
2F2
100
AcDbEntity
  8
0
100
AcDbLine
 62
7
  6
CONTINUOUS
 10
101.5648074136
 20
133.2635431562
 11
101.5648074136
 21
133.7103516657
  0
LINE
  5
2F3
100
AcDbEntity
  8
0
100
AcDbLine
 62
7
  6
CONTINUOUS
 10
102.0314736352
 20
136.7635431562
 11
102.0314736352
 21
136.3912027751
  0
LINE
  5
2F4
100
AcDbEntity
  8
0
100
AcDbLine
 62
7
  6
CONTINUOUS
 10
102.0171778798
 20
176.253508536
 11
102.0327152787
 21
176.4543393499
  0
LINE
  5
2F5
100
AcDbEntity
  8
0
100
AcDbLine
 62
7
  6
CONTINUOUS
 10
96.0814736352
 20
135.8699260328
 11
96.1398074136
 21
136.0933304701
  0
LINE
  5
2F6
100
AcDbEntity
  8
0
100
AcDbLine
 62
7
  6
CONTINUOUS
 10
94.7981398568
 20
135.1252452706
 11
94.9731398568
 21
135.4231175755
  0
LINE
  5
2F7
100
AcDbEntity
  8
0
100
AcDbLine
 62
7
  6
CONTINUOUS
 10
85.4648070798
 20
133.9337559466
 11
85.2898070798
 21
133.784819742
  0
LINE
  5
2F8
100
AcDbEntity
  8
0
100
AcDbLine
 62
7
  6
CONTINUOUS
 10
88.264806746
 20
133.9337559466
 11
88.089806746
 21
133.784819742
  0
LINE
  5
2F9
100
AcDbEntity
  8
0
100
AcDbLine
 62
7
  6
CONTINUOUS
 10
82.8981403575
 20
134.9763091181
 11
83.1314736352
 21
135.1252452706
  0
LINE
  5
2FA
100
AcDbEntity
  8
0
100
AcDbLine
 62
7
  6
CONTINUOUS
 10
85.3481401906
 20
133.338011239
 11
85.5814736352
 21
133.486947411
  0
LINE
  5
2FB
100
AcDbEntity
  8
0
100
AcDbLine
 62
7
  6
CONTINUOUS
 10
82.8398069129
 20
135.3486494992
 11
82.6648069129
 21
135.274181423
  0
LINE
  5
2FC
100
AcDbEntity
  8
B-ACHSEN
100
AcDbLine
 62
2
  6
CENTER
 10
92.7273072229
 20
157.0135431562
 11
62.718410557
 21
157.0135431562
  0
LINE
  5
2FD
100
AcDbEntity
  8
B-ACHSEN
100
AcDbLine
 62
2
  6
CENTER
 10
92.7273072229
 20
157.0135431562
 11
123.5925711409
 21
157.0135431562
  0
LINE
  5
2FE
100
AcDbEntity
  8
0
100
AcDbLine
 62
7
  6
CONTINUOUS
 10
101.6951496543
 20
176.4559858501
 11
101.7129282458
 21
176.1722662697
  0
LINE
  5
2FF
100
AcDbEntity
  8
0
100
AcDbLine
 62
7
  6
CONTINUOUS
 10
102.9648074136
 20
136.3912027751
 11
102.9648074136
 21
133.2635431562
  0
LINE
  5
300
100
AcDbEntity
  8
0
100
AcDbLine
 62
7
  6
CONTINUOUS
 10
103.3148074136
 20
133.2635431562
 11
103.3148074136
 21
136.3912027751
  0
LINE
  5
301
100
AcDbEntity
  8
0
100
AcDbLine
 62
7
  6
CONTINUOUS
 10
104.248141192
 20
136.3912027751
 11
104.248141192
 21
136.7635431562
  0
LINE
  5
302
100
AcDbEntity
  8
0
100
AcDbLine
 62
7
  6
CONTINUOUS
 10
97.5981398568
 20
133.784819742
 11
97.7148074136
 21
134.082692099
  0
LINE
  5
303
100
AcDbEntity
  8
0
100
AcDbLine
 62
7
  6
CONTINUOUS
 10
97.3648074136
 20
134.1571601753
 11
97.2481398568
 21
133.9337559466
  0
LINE
  5
304
100
AcDbEntity
  8
0
100
AcDbLine
 62
7
  6
CONTINUOUS
 10
94.6231398568
 20
135.4975856517
 11
94.5064736352
 21
135.3486494992
  0
LINE
  5
305
100
AcDbEntity
  8
0
100
AcDbLine
 62
7
  6
CONTINUOUS
 10
96.0231398568
 20
136.5401389275
 11
95.7898074136
 21
136.2422666226
  0
LINE
  5
306
100
AcDbEntity
  8
B-ACHSEN
100
AcDbLine
 62
7
  6
CONTINUOUS
 10
88.0273072229
 20
127.3135431562
 11
86.7273072229
 21
126.0135431562
  0
LINE
  5
307
100
AcDbEntity
  8
0
100
AcDbLine
 62
7
  6
CONTINUOUS
 10
96.1398074136
 20
136.0933304701
 11
96.3148074136
 21
136.2422666226
  0
LINE
  5
308
100
AcDbEntity
  8
0
100
AcDbLine
 62
7
  6
CONTINUOUS
 10
88.1481405244
 20
133.338011239
 11
88.3814736352
 21
133.486947411
  0
LINE
  5
309
100
AcDbEntity
  8
0
100
AcDbLine
 62
7
  6
CONTINUOUS
 10
96.2564736352
 20
136.68907508
 11
96.0231398568
 21
136.5401389275
  0
LINE
  5
30A
100
AcDbEntity
  8
0
100
AcDbLine
 62
7
  6
CONTINUOUS
 10
85.2898070798
 20
133.784819742
 11
85.0564736352
 21
133.7103516657
  0
LINE
  5
30B
100
AcDbEntity
  8
0
100
AcDbLine
 62
7
  6
CONTINUOUS
 10
80.5104245268
 20
177.1137664592
 11
82.2226033957
 21
175.2666861232
  0
LINE
  5
30C
100
AcDbEntity
  8
0
100
AcDbLine
 62
7
  6
CONTINUOUS
 10
82.3314402935
 20
175.6572121688
 11
80.4393859476
 21
177.7752298724
  0
LINE
  5
30D
100
AcDbEntity
  8
B-ACHSEN
100
AcDbLine
 62
7
  6
CONTINUOUS
 10
107.7273072229
 20
131.0135431562
 11
107.7273072229
 21
133.1140046732
  0
LINE
  5
30E
100
AcDbEntity
  8
0
100
AcDbLine
 62
7
  6
CONTINUOUS
 10
97.3648074136
 20
133.486947411
 11
97.5981398568
 21
133.784819742
  0
LINE
  5
30F
100
AcDbEntity
  8
0
100
AcDbLine
 62
7
  6
CONTINUOUS
 10
97.2481398568
 20
133.9337559466
 11
97.0731398568
 21
133.784819742
  0
LINE
  5
310
100
AcDbEntity
  8
0
100
AcDbLine
 62
7
  6
CONTINUOUS
 10
94.5648074136
 20
134.9763091181
 11
94.7981398568
 21
135.1252452706
  0
LINE
  5
311
100
AcDbEntity
  8
0
100
AcDbLine
 62
7
  6
CONTINUOUS
 10
97.1314736352
 20
133.338011239
 11
97.3648074136
 21
133.486947411
  0
LINE
  5
312
100
AcDbEntity
  8
0
100
AcDbLine
 62
7
  6
CONTINUOUS
 10
96.3148074136
 20
136.2422666226
 11
96.4898074136
 21
136.3167346988
  0
LINE
  5
313
100
AcDbEntity
  8
0
100
AcDbLine
 62
7
  6
CONTINUOUS
 10
94.5064736352
 20
135.3486494992
 11
94.3314736352
 21
135.274181423
  0
LINE
  5
314
100
AcDbEntity
  8
0
100
AcDbLine
 62
7
  6
CONTINUOUS
 10
96.4898074136
 20
136.7635431562
 11
96.2564736352
 21
136.68907508
  0
LINE
  5
315
100
AcDbEntity
  8
0
100
AcDbLine
 62
7
  6
CONTINUOUS
 10
88.089806746
 20
133.784819742
 11
87.8564736352
 21
133.7103516657
  0
LINE
  5
316
100
AcDbEntity
  8
0
100
AcDbLine
 62
7
  6
CONTINUOUS
 10
86.6555528085
 20
179.5900730805
 11
86.5001041614
 21
179.802039565
  0
LINE
  5
317
100
AcDbEntity
  8
0
100
AcDbLine
 62
7
  6
CONTINUOUS
 10
97.0731398568
 20
133.784819742
 11
96.8398074136
 21
133.7103516657
  0
LINE
  5
318
100
AcDbEntity
  8
0
100
AcDbLine
 62
7
  6
CONTINUOUS
 10
86.1203336854
 20
179.5756446276
 11
86.3090979839
 21
179.4465667933
  0
LINE
  5
319
100
AcDbEntity
  8
RUNDUNGEN
100
AcDbLine
 62
7
  6
CONTINUOUS
 10
120.473222761
 20
156.0568345753
 11
113.0103970478
 21
138.0399795247
  0
LINE
  5
31A
100
AcDbEntity
  8
RUNDUNGEN
100
AcDbLine
 62
7
  6
CONTINUOUS
 10
112.9873723289
 20
137.987188924
 11
113.0100404759
 21
138.0391186841
  0
LINE
  5
31B
100
AcDbEntity
  8
RUNDUNGEN
100
AcDbLine
 62
7
  6
CONTINUOUS
 10
112.9452908359
 20
137.9026673711
 11
112.9873723289
 21
137.987188924
  0
LINE
  5
31C
100
AcDbEntity
  8
0
100
AcDbLine
 62
7
  6
CONTINUOUS
 10
101.7129282458
 20
176.1722662697
 11
101.8373024555
 21
175.9825710619
  0
LINE
  5
31D
100
AcDbEntity
  8
0
100
AcDbLine
 62
7
  6
CONTINUOUS
 10
102.1415520939
 20
176.0638133385
 11
102.0171778798
 21
176.253508536
  0
LINE
  5
31E
100
AcDbEntity
  8
0
100
AcDbLine
 62
7
  6
CONTINUOUS
 10
86.5001041614
 20
179.802039565
 11
86.1714281019
 21
179.942252906
  0
LINE
  5
31F
100
AcDbEntity
  8
0
100
AcDbLine
 62
7
  6
CONTINUOUS
 10
101.9861032666
 20
175.8518468862
 11
102.30813149
 21
175.649369567
  0
LINE
  5
320
100
AcDbEntity
  8
0
100
AcDbLine
 62
7
  6
CONTINUOUS
 10
102.4058378951
 20
175.8852536955
 11
102.1415520939
 21
176.0638133385
  0
LINE
  5
321
100
AcDbEntity
  8
0
100
AcDbLine
 62
7
  6
CONTINUOUS
 10
101.8373024555
 20
175.9825710619
 11
101.9861032666
 21
175.8518468862
  0
LINE
  5
322
100
AcDbEntity
  8
B-ACHSEN
100
AcDbLine
 62
7
  6
CONTINUOUS
 10
98.7273072229
 20
114.0135431562
 11
97.7273072229
 21
113.0135431562
  0
LINE
  5
323
100
AcDbEntity
  8
0
100
AcDbLine
 62
7
  6
CONTINUOUS
 10
86.1714281019
 20
179.942252906
 11
85.89160458
 21
179.9645239193
  0
LINE
  5
324
100
AcDbEntity
  8
0
100
AcDbLine
 62
7
  6
CONTINUOUS
 10
85.8982530747
 20
179.621833538
 11
86.1203336854
 21
179.5756446276
  0
LINE
  5
325
100
AcDbEntity
  8
0
100
AcDbLine
 62
7
  6
CONTINUOUS
 10
100.2294025418
 20
176.5104072898
 11
100.5758573665
 21
176.3669010027
  0
LINE
  5
326
100
AcDbEntity
  8
0
100
AcDbLine
 62
7
  6
CONTINUOUS
 10
101.72174195
 20
177.826748218
 11
102.1836816887
 21
177.6354065132
  0
LINE
  5
327
100
AcDbEntity
  8
0
100
AcDbLine
 62
7
  6
CONTINUOUS
 10
102.4723940977
 20
177.5158179178
 11
103.1075613313
 21
177.2527230352
  0
LINE
  5
328
100
AcDbEntity
  8
0
100
AcDbLine
 62
7
  6
CONTINUOUS
 10
103.205267728
 20
177.4886071431
 11
102.5701004943
 21
177.7517020256
  0
LINE
  5
329
100
AcDbEntity
  8
0
100
AcDbLine
 62
7
  6
CONTINUOUS
 10
102.2813880853
 20
177.871290621
 11
101.8194483466
 21
178.0626323258
  0
LINE
  5
32A
100
AcDbEntity
  8
RUNDUNGEN
100
AcDbLine
 62
7
  6
CONTINUOUS
 10
113.0231273753
 20
175.9563730583
 11
120.473222761
 21
157.9702517371
  0
LINE
  5
32B
100
AcDbEntity
  8
0
100
AcDbLine
 62
7
  6
CONTINUOUS
 10
85.89160458
 20
179.9645239193
 11
85.5207231561
 21
179.8799886592
  0
LINE
  5
32C
100
AcDbEntity
  8
0
100
AcDbLine
 62
7
  6
CONTINUOUS
 10
85.5851139014
 20
179.5612159011
 11
85.8982530747
 21
179.621833538
  0
LINE
  5
32D
100
AcDbEntity
  8
0
100
AcDbLine
 62
7
  6
CONTINUOUS
 10
102.7655133559
 20
178.2234704065
 11
102.476800947
 21
178.3430590019
  0
LINE
  5
32E
100
AcDbEntity
  8
0
100
AcDbLine
 62
7
  6
CONTINUOUS
 10
101.7239076636
 20
179.1385396002
 11
101.3774528389
 21
179.2820458873
  0
LINE
  5
32F
100
AcDbEntity
  8
RUNDUNGEN
100
AcDbLine
 62
7
  6
CONTINUOUS
 10
93.6840158038
 20
184.7594586944
 11
111.6701371249
 21
177.3093633086
  0
LINE
  5
330
100
AcDbEntity
  8
B-ACHSEN
100
AcDbLine
 62
7
  6
CONTINUOUS
 10
197.4401428789
 20
113.0135431562
 11
207.4401428789
 21
113.0135431562
  0
LINE
  5
331
100
AcDbEntity
  8
B-ACHSEN
100
AcDbLine
 62
7
  6
CONTINUOUS
 10
196.4401428789
 20
114.0135431562
 11
208.4401428789
 21
114.0135431562
  0
LINE
  5
332
100
AcDbEntity
  8
B-ACHSEN
100
AcDbLine
 62
7
  6
CONTINUOUS
 10
196.4401428789
 20
114.0135431562
 11
197.4401428789
 21
113.0135431562
  0
LINE
  5
333
100
AcDbEntity
  8
B-ACHSEN
100
AcDbLine
 62
7
  6
CONTINUOUS
 10
196.4401428789
 20
126.0135431562
 11
208.4401428789
 21
126.0135431562
  0
LINE
  5
334
100
AcDbEntity
  8
B-ACHSEN
100
AcDbLine
 62
7
  6
CONTINUOUS
 10
197.7401428789
 20
127.3135431562
 11
207.1401428789
 21
127.3135431562
  0
LINE
  5
335
100
AcDbEntity
  8
B-ACHSEN
100
AcDbLine
 62
7
  6
CONTINUOUS
 10
187.4404050581
 20
131.0135431562
 11
217.4398806998
 21
131.0135431562
  0
LINE
  5
336
100
AcDbEntity
  8
0
100
AcDbLine
 62
7
  6
CONTINUOUS
 10
212.0458908168
 20
133.2635431562
 11
212.894925371
 21
133.2635431562
  0
LINE
  5
337
100
AcDbEntity
  8
0
100
AcDbLine
 62
7
  6
CONTINUOUS
 10
213.8711243648
 20
133.2635431562
 11
214.5860260886
 21
133.2635431562
  0
LINE
  5
338
100
AcDbEntity
  8
0
100
AcDbLine
 62
7
  6
CONTINUOUS
 10
215.1886386148
 20
133.2635431562
 11
215.6782814215
 21
133.2635431562
  0
LINE
  5
339
100
AcDbEntity
  8
0
100
AcDbLine
 62
7
  6
CONTINUOUS
 10
216.0664646906
 20
133.2635431562
 11
216.9441071702
 21
133.2635431562
  0
LINE
  5
33A
100
AcDbEntity
  8
0
100
AcDbLine
 62
7
  6
CONTINUOUS
 10
217.4251347808
 20
133.2635431562
 11
217.7254293433
 21
133.2635431562
  0
LINE
  5
33B
100
AcDbEntity
  8
0
100
AcDbLine
 62
7
  6
CONTINUOUS
 10
215.0031167229
 20
133.338011239
 11
215.3598298645
 21
133.338011239
  0
LINE
  5
33C
100
AcDbEntity
  8
0
100
AcDbLine
 62
7
  6
CONTINUOUS
 10
214.8477672746
 20
133.486947411
 11
215.2088210855
 21
133.486947411
  0
LINE
  5
33D
100
AcDbEntity
  8
0
100
AcDbLine
 62
7
  6
CONTINUOUS
 10
216.9441071702
 20
133.7103516657
 11
216.5480743229
 21
133.7103516657
  0
LINE
  5
33E
100
AcDbEntity
  8
0
100
AcDbLine
 62
7
  6
CONTINUOUS
 10
215.6782814215
 20
133.7103516657
 11
215.5403010279
 21
133.7103516657
  0
LINE
  5
33F
100
AcDbEntity
  8
B-ACHSEN
100
AcDbLine
 62
7
  6
CONTINUOUS
 10
187.4401428789
 20
131.0135431562
 11
187.4401428789
 21
138.038166475
  0
LINE
  5
340
100
AcDbEntity
  8
0
100
AcDbLine
 62
7
  6
CONTINUOUS
 10
214.6860030477
 20
133.784819742
 11
215.0516888298
 21
133.784819742
  0
LINE
  5
341
100
AcDbEntity
  8
0
100
AcDbLine
 62
7
  6
CONTINUOUS
 10
215.4664083308
 20
133.784819742
 11
215.8107670836
 21
133.784819742
  0
LINE
  5
342
100
AcDbEntity
  8
0
100
AcDbLine
 62
7
  6
CONTINUOUS
 10
216.7052608009
 20
133.784819742
 11
217.0203894244
 21
133.784819742
  0
LINE
  5
343
100
AcDbEntity
  8
0
100
AcDbLine
 62
7
  6
CONTINUOUS
 10
215.5647796995
 20
133.9337559466
 11
215.906623179
 21
133.9337559466
  0
LINE
  5
344
100
AcDbEntity
  8
0
100
AcDbLine
 62
7
  6
CONTINUOUS
 10
216.7609700022
 20
133.9337559466
 11
217.0748990947
 21
133.9337559466
  0
LINE
  5
345
100
AcDbEntity
  8
0
100
AcDbLine
 62
7
  6
CONTINUOUS
 10
214.6026355984
 20
134.082692099
 11
214.970754562
 21
134.082692099
  0
LINE
  5
346
100
AcDbEntity
  8
0
100
AcDbLine
 62
7
  6
CONTINUOUS
 10
215.6286629755
 20
134.1571601753
 11
215.9688923532
 21
134.1571601753
  0
LINE
  5
347
100
AcDbEntity
  8
0
100
AcDbLine
 62
7
  6
CONTINUOUS
 10
216.7968044139
 20
134.1571601753
 11
217.1099666825
 21
134.1571601753
  0
LINE
  5
348
100
AcDbEntity
  8
0
100
AcDbLine
 62
7
  6
CONTINUOUS
 10
214.5603156612
 20
134.4550324802
 11
214.9296820326
 21
134.4550324802
  0
LINE
  5
349
100
AcDbEntity
  8
0
100
AcDbLine
 62
7
  6
CONTINUOUS
 10
215.6601028533
 20
134.4550324802
 11
215.9995433717
 21
134.4550324802
  0
LINE
  5
34A
100
AcDbEntity
  8
0
100
AcDbLine
 62
7
  6
CONTINUOUS
 10
216.8143329313
 20
134.4550324802
 11
217.1271214539
 21
134.4550324802
  0
LINE
  5
34B
100
AcDbEntity
  8
0
100
AcDbLine
 62
7
  6
CONTINUOUS
 10
212.894925371
 20
134.8273729656
 11
213.8626890149
 21
134.8273729656
  0
LINE
  5
34C
100
AcDbEntity
  8
0
100
AcDbLine
 62
7
  6
CONTINUOUS
 10
213.9655967751
 20
135.274181423
 11
212.894925371
 21
135.274181423
  0
LINE
  5
34D
100
AcDbEntity
  8
0
100
AcDbLine
 62
7
  6
CONTINUOUS
 10
213.7200957876
 20
135.3486494992
 11
214.1160727186
 21
135.3486494992
  0
LINE
  5
34E
100
AcDbEntity
  8
0
100
AcDbLine
 62
7
  6
CONTINUOUS
 10
213.8213032329
 20
135.4975856517
 11
214.2138768237
 21
135.4975856517
  0
LINE
  5
34F
100
AcDbEntity
  8
0
100
AcDbLine
 62
7
  6
CONTINUOUS
 10
216.8143329313
 20
135.5720537279
 11
217.1271214539
 21
135.5720537279
  0
LINE
  5
350
100
AcDbEntity
  8
0
100
AcDbLine
 62
7
  6
CONTINUOUS
 10
213.8711243648
 20
135.7209898804
 11
214.2620436453
 21
135.7209898804
  0
LINE
  5
351
100
AcDbEntity
  8
0
100
AcDbLine
 62
7
  6
CONTINUOUS
 10
216.7968044139
 20
135.8699260328
 11
217.1099666825
 21
135.8699260328
  0
LINE
  5
352
100
AcDbEntity
  8
0
100
AcDbLine
 62
7
  6
CONTINUOUS
 10
213.8711243648
 20
135.9443943177
 11
214.2620436453
 21
135.9443943177
  0
LINE
  5
353
100
AcDbEntity
  8
0
100
AcDbLine
 62
7
  6
CONTINUOUS
 10
216.7609700022
 20
136.0933304701
 11
217.0748990947
 21
136.0933304701
  0
LINE
  5
354
100
AcDbEntity
  8
0
100
AcDbLine
 62
7
  6
CONTINUOUS
 10
213.8213032329
 20
136.1677985464
 11
214.2138768237
 21
136.1677985464
  0
LINE
  5
355
100
AcDbEntity
  8
0
100
AcDbLine
 62
7
  6
CONTINUOUS
 10
216.7052608009
 20
136.2422666226
 11
217.0203894244
 21
136.2422666226
  0
LINE
  5
356
100
AcDbEntity
  8
0
100
AcDbLine
 62
7
  6
CONTINUOUS
 10
213.7200957876
 20
136.3167346988
 11
214.1160727186
 21
136.3167346988
  0
LINE
  5
357
100
AcDbEntity
  8
0
100
AcDbLine
 62
7
  6
CONTINUOUS
 10
216.5480743229
 20
136.3167346988
 11
216.9441071702
 21
136.3167346988
  0
LINE
  5
358
100
AcDbEntity
  8
0
100
AcDbLine
 62
7
  6
CONTINUOUS
 10
212.894925371
 20
136.3912027751
 11
213.9655967751
 21
136.3912027751
  0
LINE
  5
359
100
AcDbEntity
  8
0
100
AcDbLine
 62
7
  6
CONTINUOUS
 10
212.0458908168
 20
136.7635431562
 11
213.9144065804
 21
136.7635431562
  0
LINE
  5
35A
100
AcDbEntity
  8
0
100
AcDbLine
 62
7
  6
CONTINUOUS
 10
214.5603156612
 20
136.7635431562
 11
215.1701209356
 21
136.7635431562
  0
LINE
  5
35B
100
AcDbEntity
  8
0
100
AcDbLine
 62
7
  6
CONTINUOUS
 10
215.6601028533
 20
136.7635431562
 11
216.9441071702
 21
136.7635431562
  0
LINE
  5
35C
100
AcDbEntity
  8
0
100
AcDbLine
 62
7
  6
CONTINUOUS
 10
217.4251347808
 20
136.7635431562
 11
217.7254293433
 21
136.7635431562
  0
LINE
  5
35D
100
AcDbEntity
  8
RUNDUNGEN
100
AcDbLine
 62
7
  6
CONTINUOUS
 10
208.3228195126
 20
137.1140046732
 11
204.413253789
 21
137.1140046732
  0
LINE
  5
35E
100
AcDbEntity
  8
RUNDUNGEN
100
AcDbLine
 62
7
  6
CONTINUOUS
 10
200.4670319689
 20
137.1140046732
 11
196.5574662453
 21
137.1140046732
  0
LINE
  5
35F
100
AcDbEntity
  8
B-ACHSEN
100
AcDbLine
 62
7
  6
CONTINUOUS
 10
207.1401428789
 20
127.3135431562
 11
208.4401428789
 21
126.0135431562
  0
LINE
  5
360
100
AcDbEntity
  8
RUNDUNGEN
100
AcDbLine
 62
7
  6
CONTINUOUS
 10
196.4401428789
 20
183.4497598558
 11
196.4401428789
 21
157.5780821176
  0
LINE
  5
361
100
AcDbEntity
  8
B-ACHSEN
100
AcDbLine
 62
7
  6
CONTINUOUS
 10
196.4401428789
 20
126.0135431562
 11
196.4401428789
 21
114.0135431562
  0
LINE
  5
362
100
AcDbEntity
  8
B-ACHSEN
100
AcDbLine
 62
7
  6
CONTINUOUS
 10
197.7401428789
 20
131.0135431562
 11
197.7401428789
 21
127.3135431562
  0
LINE
  5
363
100
AcDbEntity
  8
RUNDUNGEN
100
AcDbLine
 62
7
  6
CONTINUOUS
 10
196.3977090863
 20
156.4506012301
 11
194.9168724362
 21
136.8052906261
  0
LINE
  5
364
100
AcDbEntity
  8
B-ACHSEN
100
AcDbLine
 62
7
  6
CONTINUOUS
 10
189.1272739489
 20
140.0135431562
 11
194.5610262827
 21
140.8741649785
  0
LINE
  5
365
100
AcDbEntity
  8
B-ACHSEN
100
AcDbLine
 62
7
  6
CONTINUOUS
 10
215.753011809
 20
140.0135431562
 11
210.3189170952
 21
140.8742192061
  0
LWPOLYLINE
  5
366
100
AcDbEntity
  8
RUNDUNGEN
100
AcDbPolyline
 62
7
  6
CONTINUOUS
 90
5
 70
0
 10
210.2964094066
 20
140.8777838639
 10
210.1630821412
 20
140.9083733942
 10
210.0409660139
 20
140.9542331535
 10
209.9259088699
 20
141.0155666481
 10
209.8198544181
 20
141.0913118373
  0
LWPOLYLINE
  5
367
100
AcDbEntity
  8
RUNDUNGEN
100
AcDbPolyline
 62
7
  6
CONTINUOUS
 90
7
 70
0
 10
195.2538594354
 20
141.380885057
 10
195.2254850217
 20
141.2939523993
 10
195.1984731302
 20
141.2392220107
 10
195.1783958662
 20
141.2078109848
 10
195.1682930371
 20
141.194377197
 10
195.1635119593
 20
141.1885870158
 10
195.1576997855
 20
141.1822658946
  0
LINE
  5
368
100
AcDbEntity
  8
B-ACHSEN
100
AcDbLine
 62
2
  6
CENTER
 10
202.4401428789
 20
110.0135431562
 11
202.4401428789
 21
190.4704054885
  0
LINE
  5
369
100
AcDbEntity
  8
RUNDUNGEN
100
AcDbLine
 62
7
  6
CONTINUOUS
 10
195.1577825704
 20
141.1823559287
 11
195.1548464478
 21
141.1792633714
  0
LINE
  5
36A
100
AcDbEntity
  8
RUNDUNGEN
100
AcDbLine
 62
7
  6
CONTINUOUS
 10
209.8198544181
 20
141.0913118373
 11
209.7245913051
 21
141.1801634306
  0
LWPOLYLINE
  5
36B
100
AcDbEntity
  8
RUNDUNGEN
100
AcDbPolyline
 62
7
  6
CONTINUOUS
 90
9
 70
0
 10
209.7245913051
 20
141.1801634306
 10
209.7218387486
 20
141.1830795092
 10
209.7162287539
 20
141.1892152251
 10
209.7117528268
 20
141.194664934
 10
209.701982831
 20
141.2076862356
 10
209.6820638507
 20
141.2387695803
 10
209.655171337
 20
141.2930879602
 10
209.6267678013
 20
141.3794521162
 10
209.6156410228
 20
141.4501861791
  0
LINE
  5
36C
100
AcDbEntity
  8
RUNDUNGEN
100
AcDbLine
 62
7
  6
CONTINUOUS
 10
209.7184317406
 20
141.1868057931
 11
209.713476706
 21
141.1925660079
  0
LWPOLYLINE
  5
36D
100
AcDbEntity
  8
RUNDUNGEN
100
AcDbPolyline
 62
7
  6
CONTINUOUS
 90
6
 70
0
 10
195.1548464478
 20
141.1792633714
 10
195.0595459511
 20
141.090588775
 10
194.9535222588
 20
141.015037468
 10
194.838569186
 20
140.953894414
 10
194.7166329858
 20
140.9082009982
 10
194.5838765493
 20
140.8777841042
  0
LWPOLYLINE
  5
36E
100
AcDbEntity
  8
RUNDUNGEN
100
AcDbPolyline
 62
7
  6
CONTINUOUS
 90
3
 70
0
 10
209.6789048144
 20
141.2451503053
 10
209.6749869094
 20
141.2515071054
 10
209.671265186
 20
141.260581077
  0
LINE
  5
36F
100
AcDbEntity
  8
B-ACHSEN
100
AcDbLine
 62
7
  6
CONTINUOUS
 10
207.1401428789
 20
131.0135431562
 11
207.1401428789
 21
127.3135431562
  0
LINE
  5
370
100
AcDbEntity
  8
RUNDUNGEN
100
AcDbLine
 62
7
  6
CONTINUOUS
 10
209.9634133328
 20
136.8052904791
 11
208.4825766716
 21
156.4506012301
  0
LINE
  5
371
100
AcDbEntity
  8
B-ACHSEN
100
AcDbLine
 62
7
  6
CONTINUOUS
 10
208.4401428789
 20
126.0135431562
 11
208.4401428789
 21
114.0135431562
  0
LINE
  5
372
100
AcDbEntity
  8
RUNDUNGEN
100
AcDbLine
 62
7
  6
CONTINUOUS
 10
208.4401428789
 20
157.5780821176
 11
208.4401428789
 21
183.4497598631
  0
LINE
  5
373
100
AcDbEntity
  8
0
100
AcDbLine
 62
7
  6
CONTINUOUS
 10
208.7401428789
 20
179.9645239193
 11
208.7401428789
 21
174.7883318442
  0
LINE
  5
374
100
AcDbEntity
  8
0
100
AcDbLine
 62
7
  6
CONTINUOUS
 10
212.0458908168
 20
133.2635431562
 11
212.0458908168
 21
136.7635431562
  0
LINE
  5
375
100
AcDbEntity
  8
0
100
AcDbLine
 62
7
  6
CONTINUOUS
 10
212.5079327777
 20
136.7635431562
 11
212.5079327777
 21
133.2635431562
  0
LINE
  5
376
100
AcDbEntity
  8
0
100
AcDbLine
 62
7
  6
CONTINUOUS
 10
212.894925371
 20
133.2635431562
 11
212.894925371
 21
134.8273729656
  0
LINE
  5
377
100
AcDbEntity
  8
0
100
AcDbLine
 62
7
  6
CONTINUOUS
 10
212.894925371
 20
135.274181423
 11
212.894925371
 21
136.3912027751
  0
LINE
  5
378
100
AcDbEntity
  8
0
100
AcDbLine
 62
7
  6
CONTINUOUS
 10
213.8711243648
 20
135.7209898804
 11
213.8711243648
 21
135.9443943177
  0
LINE
  5
379
100
AcDbEntity
  8
0
100
AcDbLine
 62
7
  6
CONTINUOUS
 10
214.2620436453
 20
135.9443943177
 11
214.2620436453
 21
135.7209898804
  0
LINE
  5
37A
100
AcDbEntity
  8
0
100
AcDbLine
 62
7
  6
CONTINUOUS
 10
214.5411175482
 20
135.6465218042
 11
214.5411175482
 21
135.9443943177
  0
LINE
  5
37B
100
AcDbEntity
  8
0
100
AcDbLine
 62
7
  6
CONTINUOUS
 10
214.5603156612
 20
134.4550324802
 11
214.5603156612
 21
136.7635431562
  0
LINE
  5
37C
100
AcDbEntity
  8
0
100
AcDbLine
 62
7
  6
CONTINUOUS
 10
214.9296820326
 20
136.7635431562
 11
214.9296820326
 21
134.4550324802
  0
LINE
  5
37D
100
AcDbEntity
  8
0
100
AcDbLine
 62
7
  6
CONTINUOUS
 10
215.1701209356
 20
134.4550324802
 11
215.1701209356
 21
136.7635431562
  0
LINE
  5
37E
100
AcDbEntity
  8
0
100
AcDbLine
 62
7
  6
CONTINUOUS
 10
215.6601028533
 20
134.4550324802
 11
215.6601028533
 21
136.7635431562
  0
LINE
  5
37F
100
AcDbEntity
  8
B-ACHSEN
100
AcDbLine
 62
7
  6
CONTINUOUS
 10
197.7401428789
 20
127.3135431562
 11
196.4401428789
 21
126.0135431562
  0
LINE
  5
380
100
AcDbEntity
  8
0
100
AcDbLine
 62
7
  6
CONTINUOUS
 10
215.9995433717
 20
136.7635431562
 11
215.9995433717
 21
134.4550324802
  0
LINE
  5
381
100
AcDbEntity
  8
0
100
AcDbLine
 62
7
  6
CONTINUOUS
 10
216.0664646906
 20
133.2635431562
 11
216.0664646906
 21
133.7267968599
  0
LINE
  5
382
100
AcDbEntity
  8
0
100
AcDbLine
 62
7
  6
CONTINUOUS
 10
216.1768124834
 20
134.4550324802
 11
216.1768124834
 21
136.7635431562
  0
LINE
  5
383
100
AcDbEntity
  8
0
100
AcDbLine
 62
7
  6
CONTINUOUS
 10
216.3960250122
 20
136.7635431562
 11
216.3960250122
 21
133.2635431562
  0
LINE
  5
384
100
AcDbEntity
  8
0
100
AcDbLine
 62
7
  6
CONTINUOUS
 10
216.5480743229
 20
133.7103516657
 11
216.5480743229
 21
136.3167346988
  0
LINE
  5
385
100
AcDbEntity
  8
0
100
AcDbLine
 62
7
  6
CONTINUOUS
 10
216.8143329313
 20
134.4550324802
 11
216.8143329313
 21
135.5720537279
  0
LINE
  5
386
100
AcDbEntity
  8
0
100
AcDbLine
 62
7
  6
CONTINUOUS
 10
217.1271214539
 20
135.5720537279
 11
217.1271214539
 21
134.4550324802
  0
LINE
  5
387
100
AcDbEntity
  8
0
100
AcDbLine
 62
7
  6
CONTINUOUS
 10
217.2248001288
 20
134.4550324802
 11
217.2248001288
 21
135.5720537279
  0
LINE
  5
388
100
AcDbEntity
  8
0
100
AcDbLine
 62
7
  6
CONTINUOUS
 10
217.4251347808
 20
136.7635431562
 11
217.4251347808
 21
133.2635431562
  0
LINE
  5
389
100
AcDbEntity
  8
B-ACHSEN
100
AcDbLine
 62
7
  6
CONTINUOUS
 10
217.4401428789
 20
131.0135431562
 11
217.4401428789
 21
133.2635431562
  0
LINE
  5
38A
100
AcDbEntity
  8
B-ACHSEN
100
AcDbLine
 62
7
  6
CONTINUOUS
 10
217.4401428789
 20
136.7635431562
 11
217.4401428789
 21
138.038166475
  0
LINE
  5
38B
100
AcDbEntity
  8
0
100
AcDbLine
 62
7
  6
CONTINUOUS
 10
217.7254293433
 20
136.7635431562
 11
217.7254293433
 21
133.2635431562
  0
LINE
  5
38C
100
AcDbEntity
  8
0
100
AcDbLine
 62
7
  6
CONTINUOUS
 10
217.7367786466
 20
133.2635431562
 11
217.7367786466
 21
136.7635431562
  0
LINE
  5
38D
100
AcDbEntity
  8
0
100
AcDbLine
 62
7
  6
CONTINUOUS
 10
217.739447858
 20
136.7635431562
 11
217.739447858
 21
133.2635431562
  0
LINE
  5
38E
100
AcDbEntity
  8
0
100
AcDbLine
 62
7
  6
CONTINUOUS
 10
208.4401428789
 20
174.7883318442
 11
208.7401428789
 21
174.7883318442
  0
LINE
  5
38F
100
AcDbEntity
  8
B-ACHSEN
100
AcDbLine
 62
7
  6
CONTINUOUS
 10
208.4401428789
 20
114.0135431562
 11
207.4401428789
 21
113.0135431562
  0
LINE
  5
390
100
AcDbEntity
  8
0
100
AcDbLine
 62
7
  6
CONTINUOUS
 10
208.4401428789
 20
177.5599704417
 11
208.7401428789
 21
177.5599704417
  0
LINE
  5
391
100
AcDbEntity
  8
0
100
AcDbLine
 62
7
  6
CONTINUOUS
 10
208.4401428789
 20
177.7752298724
 11
208.7401428789
 21
177.7752298724
  0
LINE
  5
392
100
AcDbEntity
  8
0
100
AcDbLine
 62
7
  6
CONTINUOUS
 10
208.4401428789
 20
178.4927613081
 11
208.7401428789
 21
178.4927613081
  0
LINE
  5
393
100
AcDbEntity
  8
0
100
AcDbLine
 62
7
  6
CONTINUOUS
 10
208.4401428789
 20
178.7080207388
 11
208.7401428789
 21
178.7080207388
  0
LINE
  5
394
100
AcDbEntity
  8
0
100
AcDbLine
 62
7
  6
CONTINUOUS
 10
208.4401428789
 20
179.0428686965
 11
208.7401428789
 21
179.0428686965
  0
LINE
  5
395
100
AcDbEntity
  8
0
100
AcDbLine
 62
7
  6
CONTINUOUS
 10
208.4401428789
 20
179.1863749836
 11
208.7401428789
 21
179.1863749836
  0
LINE
  5
396
100
AcDbEntity
  8
0
100
AcDbLine
 62
7
  6
CONTINUOUS
 10
208.4401428789
 20
179.3443099973
 11
208.7401428789
 21
179.3443099973
  0
LINE
  5
397
100
AcDbEntity
  8
0
100
AcDbLine
 62
7
  6
CONTINUOUS
 10
208.4401428789
 20
179.5579228181
 11
208.7401428789
 21
179.5579228181
  0
LINE
  5
398
100
AcDbEntity
  8
0
100
AcDbLine
 62
7
  6
CONTINUOUS
 10
208.4401428789
 20
179.7843178923
 11
208.7401428789
 21
179.7843178923
  0
LINE
  5
399
100
AcDbEntity
  8
0
100
AcDbLine
 62
7
  6
CONTINUOUS
 10
208.4401428789
 20
179.8799886592
 11
208.7401428789
 21
179.8799886592
  0
LINE
  5
39A
100
AcDbEntity
  8
0
100
AcDbLine
 62
7
  6
CONTINUOUS
 10
208.4401428789
 20
179.9645239193
 11
208.7401428789
 21
179.9645239193
  0
LINE
  5
39B
100
AcDbEntity
  8
RUNDUNGEN
100
AcDbLine
 62
7
  6
CONTINUOUS
 10
206.9401428789
 20
184.9497598631
 11
197.9401428789
 21
184.9497598631
  0
LWPOLYLINE
  5
39C
100
AcDbEntity
  8
RUNDUNGEN
100
AcDbPolyline
 62
7
  6
CONTINUOUS
 90
23
 70
0
 10
64.7910905532
 20
49.8091555833
 10
64.7960117802
 20
49.6877015634
 10
64.8128935042
 20
49.55423348
 10
64.8402039534
 20
49.4283060643
 10
64.8766710236
 20
49.3095284362
 10
64.9213280248
 20
49.1975370352
 10
64.9736821938
 20
49.0915863707
 10
65.0328773544
 20
48.992122949
 10
65.098355017
 20
48.8990844607
 10
65.1692270218
 20
48.8129072021
 10
65.2446861509
 20
48.7337904473
 10
65.3239575847
 20
48.6618275136
 10
65.406300622
 20
48.5970270402
 10
65.4909730644
 20
48.5393494268
 10
65.5776094923
 20
48.4884937634
 10
65.6646523141
 20
48.4447689959
 10
65.7513147303
 20
48.4078570804
 10
65.8352799007
 20
48.377858358
 10
65.915644355
 20
48.3540386981
 10
65.9894365634
 20
48.3360259863
 10
66.0529642245
 20
48.3231656519
 10
66.1101666635
 20
48.3133777262
 10
66.174346956
 20
48.3039285156
  0
LINE
  5
39D
100
AcDbEntity
  8
RUNDUNGEN
100
AcDbLine
 62
7
  6
CONTINUOUS
 10
64.791090516
 20
49.8091555647
 11
64.791090516
 21
58.8284776027
  0
LINE
  5
39E
100
AcDbEntity
  8
RUNDUNGEN
100
AcDbLine
 62
7
  6
CONTINUOUS
 10
80.0393304087
 20
62.3197692991
 11
80.0311181881
 21
62.3067314546
  0
LINE
  5
39F
100
AcDbEntity
  8
RUNDUNGEN
100
AcDbLine
 62
7
  6
CONTINUOUS
 10
80.0402612327
 20
62.3212501217
 11
79.9553591273
 21
62.2060798457
  0
LWPOLYLINE
  5
3A0
100
AcDbEntity
  8
RUNDUNGEN
100
AcDbPolyline
 62
7
  6
CONTINUOUS
 90
7
 70
0
 10
79.9553591273
 20
62.2060798457
 10
79.8548882294
 20
62.1042041351
 10
79.7409050416
 20
62.0177092984
 10
79.6157424826
 20
61.9483666109
 10
79.4819624101
 20
61.8975964266
 10
79.3423037813
 20
61.8664391902
 10
79.2811206905
 20
61.8592425444
  0
LINE
  5
3A1
100
AcDbEntity
  8
RUNDUNGEN
100
AcDbLine
 62
7
  6
CONTINUOUS
 10
79.9554043187
 20
46.431500013
 11
80.0403035046
 21
46.316315736
  0
LINE
  5
3A2
100
AcDbEntity
  8
RUNDUNGEN
100
AcDbLine
 62
7
  6
CONTINUOUS
 10
80.0311182124
 20
46.3309016731
 11
80.0393145046
 21
46.3178890881
  0
LINE
  5
3A3
100
AcDbEntity
  8
0
100
AcDbLine
 62
7
  6
CONTINUOUS
 10
79.9197037105
 20
48.3188165831
 11
79.9197037105
 21
48.0188165831
  0
LINE
  5
3A4
100
AcDbEntity
  8
0
100
AcDbLine
 62
7
  6
CONTINUOUS
 10
80.4393859476
 20
48.3188165831
 11
80.4393859476
 21
48.0188165831
  0
LINE
  5
3A5
100
AcDbEntity
  8
0
100
AcDbLine
 62
7
  6
CONTINUOUS
 10
81.2064736352
 20
44.7130686453
 11
81.2064736352
 21
44.2510266844
  0
LINE
  5
3A6
100
AcDbEntity
  8
0
100
AcDbLine
 62
7
  6
CONTINUOUS
 10
82.171660071
 20
48.3188165831
 11
82.171660071
 21
48.0188165831
  0
LWPOLYLINE
  5
3A7
100
AcDbEntity
  8
RUNDUNGEN
100
AcDbPolyline
 62
7
  6
CONTINUOUS
 90
5
 70
0
 10
111.8931372338
 20
46.9603771626
 10
119.2457389819
 20
48.2983594091
 10
119.2639995122
 20
48.3014131715
 10
119.2824662678
 20
48.3042536132
 10
119.3408081941
 20
48.3128049908
  0
LINE
  5
3A8
100
AcDbEntity
  8
RUNDUNGEN
100
AcDbLine
 62
7
  6
CONTINUOUS
 10
73.561477212
 20
46.9603771626
 11
66.2110971752
 21
48.2979712915
  0
LINE
  5
3A9
100
AcDbEntity
  8
0
100
AcDbLine
 62
7
  6
CONTINUOUS
 10
82.6064736352
 20
43.2477404163
 11
82.6064736352
 21
42.8445528817
  0
LINE
  5
3AA
100
AcDbEntity
  8
0
100
AcDbLine
 62
7
  6
CONTINUOUS
 10
82.6913423081
 20
48.3188165831
 11
82.6913423081
 21
48.0188165831
  0
LINE
  5
3AB
100
AcDbEntity
  8
0
100
AcDbLine
 62
7
  6
CONTINUOUS
 10
82.8981403575
 20
42.9879967217
 11
82.8981403575
 21
42.5937375329
  0
LINE
  5
3AC
100
AcDbEntity
  8
0
100
AcDbLine
 62
7
  6
CONTINUOUS
 10
83.1314736352
 20
42.7897239147
 11
83.1314736352
 21
42.4020226452
  0
LINE
  5
3AD
100
AcDbEntity
  8
0
100
AcDbLine
 62
7
  6
CONTINUOUS
 10
83.3064736352
 20
42.6462892427
 11
83.3064736352
 21
42.2631998625
  0
LINE
  5
3AE
100
AcDbEntity
  8
0
100
AcDbLine
 62
7
  6
CONTINUOUS
 10
83.3242681583
 20
48.3188165831
 11
83.3242681583
 21
48.0188165831
  0
LINE
  5
3AF
100
AcDbEntity
  8
0
100
AcDbLine
 62
7
  6
CONTINUOUS
 10
83.3648069129
 20
42.5994485137
 11
83.3648069129
 21
42.2178419139
  0
LINE
  5
3B0
100
AcDbEntity
  8
0
100
AcDbLine
 62
7
  6
CONTINUOUS
 10
83.4231403575
 20
42.5530833318
 11
83.4231403575
 21
42.1729333735
  0
LINE
  5
3B1
100
AcDbEntity
  8
0
100
AcDbLine
 62
7
  6
CONTINUOUS
 10
83.4997367889
 20
48.3188165831
 11
83.4997367889
 21
48.0188165831
  0
LINE
  5
3B2
100
AcDbEntity
  8
0
100
AcDbLine
 62
7
  6
CONTINUOUS
 10
83.8461916136
 20
48.3188165831
 11
83.8461916136
 21
48.0188165831
  0
LINE
  5
3B3
100
AcDbEntity
  8
0
100
AcDbLine
 62
7
  6
CONTINUOUS
 10
83.8898069129
 20
42.1986438009
 11
83.8898069129
 21
41.8292774294
  0
LINE
  5
3B4
100
AcDbEntity
  8
0
100
AcDbLine
 62
7
  6
CONTINUOUS
 10
84.2398070798
 20
41.9510220618
 11
84.2398070798
 21
41.5888385265
  0
LINE
  5
3B5
100
AcDbEntity
  8
0
100
AcDbLine
 62
7
  6
CONTINUOUS
 10
84.2981401906
 20
41.9111921875
 11
84.2981401906
 21
41.5501383766
  0
LINE
  5
3B6
100
AcDbEntity
  8
0
100
AcDbLine
 62
7
  6
CONTINUOUS
 10
84.4148070798
 20
41.8327306723
 11
84.4148070798
 21
41.4738821196
  0
LWPOLYLINE
  5
3B7
100
AcDbEntity
  8
RUNDUNGEN
100
AcDbPolyline
 62
7
  6
CONTINUOUS
 90
24
 70
0
 10
119.3408081941
 20
48.3128049908
 10
119.3929489138
 20
48.3215752711
 10
119.4506292491
 20
48.3328771818
 10
119.5174935232
 20
48.3484316588
 10
119.5904431699
 20
48.3687648776
 10
119.667400308
 20
48.3943643617
 10
119.747309772
 20
48.4258144709
 10
119.8279540227
 20
48.4629958211
 10
119.9088299015
 20
48.5062807307
 10
119.9886537734
 20
48.5555198593
 10
120.0670413529
 20
48.6109621521
 10
120.1432771509
 20
48.6726108063
 10
120.2168237898
 20
48.7405568345
 10
120.2870571589
 20
48.8147942631
 10
120.3533348704
 20
48.8952597613
 10
120.4149990025
 20
48.9818274302
 10
120.4713684226
 20
49.0742822045
 10
120.5217592308
 20
49.1723250021
 10
120.5655210254
 20
49.2756344316
 10
120.6020031582
 20
49.3838020975
 10
120.6305694463
 20
49.4963371311
 10
120.6506096337
 20
49.6126711655
 10
120.661547601
 20
49.7321521706
 10
120.6635239215
 20
49.8091571534
  0
LINE
  5
3B8
100
AcDbEntity
  8
RUNDUNGEN
100
AcDbLine
 62
7
  6
CONTINUOUS
 10
119.2936603399
 20
48.3058536525
 11
119.2920986697
 21
48.3056378389
  0
LINE
  5
3B9
100
AcDbEntity
  8
RUNDUNGEN
100
AcDbLine
 62
7
  6
CONTINUOUS
 10
106.1735067723
 20
46.7783917567
 11
106.3423783798
 21
46.7923777991
  0
LWPOLYLINE
  5
3BA
100
AcDbEntity
  8
RUNDUNGEN
100
AcDbPolyline
 62
7
  6
CONTINUOUS
 90
17
 70
0
 10
106.3423783798
 20
46.7923777991
 10
106.5088864611
 20
46.8050581775
 10
106.6868285451
 20
46.8175531351
 10
106.8758100328
 20
46.8297686594
 10
107.0758365114
 20
46.8416522119
 10
107.2867065001
 20
46.8531333336
 10
107.5084273976
 20
46.8641525153
 10
107.7409236935
 20
46.874653148
 10
107.9840995263
 20
46.8845706379
 10
108.2378126491
 20
46.8938383381
 10
108.501886555
 20
46.9023910654
 10
108.7760913925
 20
46.9101561677
 10
109.0601272053
 20
46.9170611397
 10
109.3536218535
 20
46.9230296393
 10
109.6561423975
 20
46.9279828155
 10
109.9671586076
 20
46.9318401737
 10
110.2860409285
 20
46.9345179659
  0
LINE
  5
3BB
100
AcDbEntity
  8
RUNDUNGEN
100
AcDbLine
 62
7
  6
CONTINUOUS
 10
79.1158140536
 20
46.7920937593
 11
79.2812297583
 21
46.7783834253
  0
LWPOLYLINE
  5
3BC
100
AcDbEntity
  8
RUNDUNGEN
100
AcDbPolyline
 62
7
  6
CONTINUOUS
 90
7
 70
0
 10
79.2811194447
 20
46.77839048
 10
79.3423238253
 20
46.7711907294
 10
79.4819914998
 20
46.7400277383
 10
79.6157790866
 20
46.6892492651
 10
79.7409471027
 20
46.6198961217
 10
79.8549332657
 20
46.5333891074
 10
79.9554043187
 20
46.431500013
  0
LINE
  5
3BD
100
AcDbEntity
  8
RUNDUNGEN
100
AcDbLine
 62
7
  6
CONTINUOUS
 10
66.1609540216
 20
48.3058543828
 11
66.1629134729
 21
48.3055838948
  0
LWPOLYLINE
  5
3BE
100
AcDbEntity
  8
RUNDUNGEN
100
AcDbPolyline
 62
7
  6
CONTINUOUS
 90
3
 70
0
 10
66.174346956
 20
48.3039285156
 10
66.1928253329
 20
48.301056461
 10
66.2110971752
 20
48.2979712915
  0
LINE
  5
3BF
100
AcDbEntity
  8
0
100
AcDbLine
 62
7
  6
CONTINUOUS
 10
84.5898070798
 20
41.7179796497
 11
84.5898070798
 21
41.362308897
  0
LINE
  5
3C0
100
AcDbEntity
  8
0
100
AcDbLine
 62
7
  6
CONTINUOUS
 10
84.5946026256
 20
48.3188165831
 11
84.5946026256
 21
48.0188165831
  0
LINE
  5
3C1
100
AcDbEntity
  8
0
100
AcDbLine
 62
7
  6
CONTINUOUS
 10
84.7278662223
 20
48.3188165831
 11
84.7278662223
 21
48.0188165831
  0
LINE
  5
3C2
100
AcDbEntity
  8
0
100
AcDbLine
 62
7
  6
CONTINUOUS
 10
84.8231401906
 20
41.5703208473
 11
84.8231401906
 21
41.2186584342
  0
LINE
  5
3C3
100
AcDbEntity
  8
0
100
AcDbLine
 62
7
  6
CONTINUOUS
 10
84.9099826868
 20
48.3188165831
 11
84.9099826868
 21
48.0188165831
  0
LINE
  5
3C4
100
AcDbEntity
  8
0
100
AcDbLine
 62
7
  6
CONTINUOUS
 10
85.0564736352
 20
41.4285756207
 11
85.0564736352
 21
41.0806780406
  0
LINE
  5
3C5
100
AcDbEntity
  8
0
100
AcDbLine
 62
7
  6
CONTINUOUS
 10
85.2897534933
 20
48.3188165831
 11
85.2897534933
 21
48.0188165831
  0
LINE
  5
3C6
100
AcDbEntity
  8
0
100
AcDbLine
 62
7
  6
CONTINUOUS
 10
85.2898070798
 20
41.2925511313
 11
85.2898070798
 21
40.9481923785
  0
LINE
  5
3C7
100
AcDbEntity
  8
0
100
AcDbLine
 62
7
  6
CONTINUOUS
 10
85.4648070798
 20
41.1941797626
 11
85.4648070798
 21
40.8523362831
  0
LINE
  5
3C8
100
AcDbEntity
  8
0
100
AcDbLine
 62
7
  6
CONTINUOUS
 10
85.5207231561
 20
48.3188165831
 11
85.5207231561
 21
48.0188165831
  0
LINE
  5
3C9
100
AcDbEntity
  8
0
100
AcDbLine
 62
7
  6
CONTINUOUS
 10
85.5814736352
 20
41.1302964866
 11
85.5814736352
 21
40.7900671089
  0
LINE
  5
3CA
100
AcDbEntity
  8
0
100
AcDbLine
 62
7
  6
CONTINUOUS
 10
85.6398070798
 20
41.0988566088
 11
85.6398070798
 21
40.7594160904
  0
LINE
  5
3CB
100
AcDbEntity
  8
0
100
AcDbLine
 62
7
  6
CONTINUOUS
 10
85.89160458
 20
48.3188165831
 11
85.89160458
 21
48.0188165831
  0
LINE
  5
3CC
100
AcDbEntity
  8
0
100
AcDbLine
 62
7
  6
CONTINUOUS
 10
85.9898070798
 20
40.9170968494
 11
85.9898070798
 21
40.5821469787
  0
LINE
  5
3CD
100
AcDbEntity
  8
0
100
AcDbLine
 62
7
  6
CONTINUOUS
 10
86.1714281019
 20
48.3188165831
 11
86.1714281019
 21
48.0188165831
  0
LINE
  5
3CE
100
AcDbEntity
  8
0
100
AcDbLine
 62
7
  6
CONTINUOUS
 10
86.4564736352
 20
40.6924947714
 11
86.4564736352
 21
40.3629344499
  0
LINE
  5
3CF
100
AcDbEntity
  8
0
100
AcDbLine
 62
7
  6
CONTINUOUS
 10
86.5001041614
 20
48.3188165831
 11
86.5001041614
 21
48.0188165831
  0
LINE
  5
3D0
100
AcDbEntity
  8
0
100
AcDbLine
 62
7
  6
CONTINUOUS
 10
86.6555528085
 20
48.3188165831
 11
86.6555528085
 21
48.0188165831
  0
LINE
  5
3D1
100
AcDbEntity
  8
RUNDUNGEN
100
AcDbLine
 62
7
  6
CONTINUOUS
 10
110.2860409285
 20
46.9345179659
 11
110.793688034
 21
46.9361400195
  0
LINE
  5
3D2
100
AcDbEntity
  8
RUNDUNGEN
100
AcDbLine
 62
7
  6
CONTINUOUS
 10
111.624577749
 20
46.9361399495
 11
110.793688034
 21
46.9361399495
  0
LINE
  5
3D3
100
AcDbEntity
  8
0
100
AcDbLine
 62
7
  6
CONTINUOUS
 10
103.205267728
 20
48.0188165831
 11
100.2294025418
 21
48.0188165831
  0
LINE
  5
3D4
100
AcDbEntity
  8
0
100
AcDbLine
 62
7
  6
CONTINUOUS
 10
87.5349105149
 20
48.0188165831
 11
79.9197037105
 21
48.0188165831
  0
LWPOLYLINE
  5
3D5
100
AcDbEntity
  8
RUNDUNGEN
100
AcDbPolyline
 62
7
  6
CONTINUOUS
 90
19
 70
0
 10
73.8300366968
 20
46.9361399495
 10
74.8544063838
 20
46.9359040149
 10
75.1798757388
 20
46.9344449704
 10
75.498200684
 20
46.9317275219
 10
75.808673919
 20
46.9278352331
 10
76.1106667084
 20
46.9228513769
 10
76.4036474097
 20
46.9168559857
 10
76.6871819609
 20
46.9099277718
 10
76.9608968364
 20
46.9021425509
 10
77.224490647
 20
46.8935729272
 10
77.4777320567
 20
46.8842912979
 10
77.7204425162
 20
46.8743625234
 10
77.9524777548
 20
46.8638538274
 10
78.1737401021
 20
46.8528293904
 10
78.3841528499
 20
46.8413458752
 10
78.5837196946
 20
46.8294635621
 10
78.7722460504
 20
46.8172522509
 10
78.9497400494
 20
46.8047643295
 10
79.1158140536
 20
46.7920937593
  0
LINE
  5
3D6
100
AcDbEntity
  8
0
100
AcDbLine
 62
7
  6
CONTINUOUS
 10
86.7044060753
 20
48.3188165831
 11
86.7044060753
 21
48.0188165831
  0
LINE
  5
3D7
100
AcDbEntity
  8
0
100
AcDbLine
 62
7
  6
CONTINUOUS
 10
86.7443702214
 20
48.3188165831
 11
86.7443702214
 21
48.0188165831
  0
LINE
  5
3D8
100
AcDbEntity
  8
0
100
AcDbLine
 62
7
  6
CONTINUOUS
 10
87.4127775021
 20
48.3188165831
 11
87.4127775021
 21
48.0188165831
  0
LINE
  5
3D9
100
AcDbEntity
  8
0
100
AcDbLine
 62
7
  6
CONTINUOUS
 10
87.5349105149
 20
48.3188165831
 11
87.5349105149
 21
48.0188165831
  0
LINE
  5
3DA
100
AcDbEntity
  8
0
100
AcDbLine
 62
7
  6
CONTINUOUS
 10
87.8564736352
 20
40.1316752163
 11
87.8564736352
 21
39.8148522919
  0
LINE
  5
3DB
100
AcDbEntity
  8
0
100
AcDbLine
 62
7
  6
CONTINUOUS
 10
88.1481405244
 20
40.034866417
 11
88.1481405244
 21
39.7201443028
  0
LINE
  5
3DC
100
AcDbEntity
  8
0
100
AcDbLine
 62
7
  6
CONTINUOUS
 10
88.3814736352
 20
39.9621550482
 11
88.3814736352
 21
39.6489927795
  0
LINE
  5
3DD
100
AcDbEntity
  8
0
100
AcDbLine
 62
7
  6
CONTINUOUS
 10
88.614806746
 20
39.8935838353
 11
88.614806746
 21
39.5818786438
  0
LINE
  5
3DE
100
AcDbEntity
  8
0
100
AcDbLine
 62
7
  6
CONTINUOUS
 10
88.7314736352
 20
39.8608321475
 11
88.7314736352
 21
39.5498181763
  0
LINE
  5
3DF
100
AcDbEntity
  8
RUNDUNGEN
100
AcDbLine
 62
7
  6
CONTINUOUS
 10
66.44253801
 20
48.3188165831
 11
119.0120764357
 21
48.3188165831
  0
LINE
  5
3E0
100
AcDbEntity
  8
0
100
AcDbLine
 62
7
  6
CONTINUOUS
 10
88.789806746
 20
39.8448368265
 11
88.789806746
 21
39.5341593333
  0
LINE
  5
3E1
100
AcDbEntity
  8
0
100
AcDbLine
 62
7
  6
CONTINUOUS
 10
92.0564736352
 20
39.3338246813
 11
92.0564736352
 21
39.0335301188
  0
LINE
  5
3E2
100
AcDbEntity
  8
0
100
AcDbLine
 62
7
  6
CONTINUOUS
 10
92.4064736352
 20
39.3222481153
 11
92.4064736352
 21
39.0221808155
  0
LINE
  5
3E3
100
AcDbEntity
  8
B-ACHSEN
100
AcDbLine
 62
2
  6
CENTER
 10
92.7273072229
 20
54.3188165831
 11
92.7273072229
 21
36.3188165831
  0
LINE
  5
3E4
100
AcDbEntity
  8
B-ACHSEN
100
AcDbLine
 62
2
  6
CENTER
 10
92.7273072229
 20
54.3188165831
 11
92.7273072229
 21
72.3188165831
  0
LINE
  5
3E5
100
AcDbEntity
  8
0
100
AcDbLine
 62
7
  6
CONTINUOUS
 10
92.8731398568
 20
39.3195255051
 11
92.8731398568
 21
39.0195116041
  0
LINE
  5
3E6
100
AcDbEntity
  8
B-ACHSEN
100
AcDbLine
 62
2
  6
CENTER
 10
92.7273072229
 20
54.3188165831
 11
62.5728310053
 21
54.3188165831
  0
LINE
  5
3E7
100
AcDbEntity
  8
B-ACHSEN
100
AcDbLine
 62
2
  6
CENTER
 10
92.7273072229
 20
54.3188165831
 11
122.5104660418
 21
54.3188165831
  0
LINE
  5
3E8
100
AcDbEntity
  8
0
100
AcDbLine
 62
7
  6
CONTINUOUS
 10
94.2731398568
 20
39.3986824863
 11
94.2731398568
 21
39.0971083522
  0
LINE
  5
3E9
100
AcDbEntity
  8
0
100
AcDbLine
 62
7
  6
CONTINUOUS
 10
94.5648074136
 20
39.4317889064
 11
94.5648074136
 21
39.1295574488
  0
LINE
  5
3EA
100
AcDbEntity
  8
0
100
AcDbLine
 62
7
  6
CONTINUOUS
 10
94.7981398568
 20
39.4624491872
 11
94.7981398568
 21
39.1596064387
  0
LINE
  5
3EB
100
AcDbEntity
  8
0
100
AcDbLine
 62
7
  6
CONTINUOUS
 10
94.9731398568
 20
39.4878949739
 11
94.9731398568
 21
39.1845430366
  0
LINE
  5
3EC
100
AcDbEntity
  8
0
100
AcDbLine
 62
7
  6
CONTINUOUS
 10
95.0314736352
 20
39.4968458254
 11
95.0314736352
 21
39.1933143718
  0
LINE
  5
3ED
100
AcDbEntity
  8
0
100
AcDbLine
 62
7
  6
CONTINUOUS
 10
95.0898074136
 20
39.5060318062
 11
95.0898074136
 21
39.2023159018
  0
LINE
  5
3EE
100
AcDbEntity
  8
0
100
AcDbLine
 62
7
  6
CONTINUOUS
 10
95.5564736352
 20
39.5880386875
 11
95.5564736352
 21
39.282666231
  0
LINE
  5
3EF
100
AcDbEntity
  8
0
100
AcDbLine
 62
7
  6
CONTINUOUS
 10
95.7314736352
 20
39.622729207
 11
95.7314736352
 21
39.3166506006
  0
LINE
  5
3F0
100
AcDbEntity
  8
0
100
AcDbLine
 62
7
  6
CONTINUOUS
 10
95.7898074136
 20
39.6347744768
 11
95.7898074136
 21
39.3284499238
  0
LINE
  5
3F1
100
AcDbEntity
  8
0
100
AcDbLine
 62
7
  6
CONTINUOUS
 10
96.0231398568
 20
39.6853792819
 11
96.0231398568
 21
39.3780171651
  0
LINE
  5
3F2
100
AcDbEntity
  8
0
100
AcDbLine
 62
7
  6
CONTINUOUS
 10
96.2564736352
 20
39.7398939743
 11
96.2564736352
 21
39.4314063169
  0
LINE
  5
3F3
100
AcDbEntity
  8
0
100
AcDbLine
 62
7
  6
CONTINUOUS
 10
96.4898074136
 20
39.7983623094
 11
96.4898074136
 21
39.4886583805
  0
LINE
  5
3F4
100
AcDbEntity
  8
0
100
AcDbLine
 62
7
  6
CONTINUOUS
 10
96.7814736352
 20
39.8770807214
 11
96.7814736352
 21
39.5657242056
  0
LINE
  5
3F5
100
AcDbEntity
  8
0
100
AcDbLine
 62
7
  6
CONTINUOUS
 10
97.0731398568
 20
39.9621547595
 11
97.0731398568
 21
39.648992497
  0
LINE
  5
3F6
100
AcDbEntity
  8
0
100
AcDbLine
 62
7
  6
CONTINUOUS
 10
97.3064736352
 20
40.0348663253
 11
97.3064736352
 21
39.7201442131
  0
LINE
  5
3F7
100
AcDbEntity
  8
0
100
AcDbLine
 62
7
  6
CONTINUOUS
 10
97.4814736352
 20
40.0921549324
 11
97.4814736352
 21
39.7761929641
  0
LINE
  5
3F8
100
AcDbEntity
  8
0
100
AcDbLine
 62
7
  6
CONTINUOUS
 10
97.5398074136
 20
40.1117816386
 11
97.5398074136
 21
39.7953926785
  0
LINE
  5
3F9
100
AcDbEntity
  8
0
100
AcDbLine
 62
7
  6
CONTINUOUS
 10
97.5981398568
 20
40.1316748889
 11
97.5981398568
 21
39.8148519716
  0
LINE
  5
3FA
100
AcDbEntity
  8
0
100
AcDbLine
 62
7
  6
CONTINUOUS
 10
97.7148074136
 20
40.1722678221
 11
97.7148074136
 21
39.8545557362
  0
LINE
  5
3FB
100
AcDbEntity
  8
0
100
AcDbLine
 62
7
  6
CONTINUOUS
 10
98.1814736352
 20
40.3455539453
 11
98.1814736352
 21
40.0239899404
  0
LINE
  5
3FC
100
AcDbEntity
  8
0
100
AcDbLine
 62
7
  6
CONTINUOUS
 10
98.9981398568
 20
40.6924943326
 11
98.9981398568
 21
40.3629340214
  0
LINE
  5
3FD
100
AcDbEntity
  8
RUNDUNGEN
100
AcDbLine
 62
7
  6
CONTINUOUS
 10
119.0120764357
 20
60.3188165831
 11
66.44253801
 21
60.3188165831
  0
LINE
  5
3FE
100
AcDbEntity
  8
0
100
AcDbLine
 62
7
  6
CONTINUOUS
 10
99.4648074136
 20
40.9170968733
 11
99.4648074136
 21
40.5821470021
  0
LINE
  5
3FF
100
AcDbEntity
  8
0
100
AcDbLine
 62
7
  6
CONTINUOUS
 10
99.8148074136
 20
41.0988566344
 11
99.8148074136
 21
40.7594161153
  0
LINE
  5
400
100
AcDbEntity
  8
0
100
AcDbLine
 62
7
  6
CONTINUOUS
 10
100.2294025418
 20
48.3188165831
 11
100.2294025418
 21
48.0188165831
  0
LINE
  5
401
100
AcDbEntity
  8
0
100
AcDbLine
 62
7
  6
CONTINUOUS
 10
100.6645989585
 20
48.3188165831
 11
100.6645989585
 21
48.0188165831
  0
LINE
  5
402
100
AcDbEntity
  8
0
100
AcDbLine
 62
7
  6
CONTINUOUS
 10
100.8600118201
 20
48.3188165831
 11
100.8600118201
 21
48.0188165831
  0
LINE
  5
403
100
AcDbEntity
  8
0
100
AcDbLine
 62
7
  6
CONTINUOUS
 10
101.3774528389
 20
48.3188165831
 11
101.3774528389
 21
48.0188165831
  0
LWPOLYLINE
  5
404
100
AcDbEntity
  8
RUNDUNGEN
100
AcDbPolyline
 62
7
  6
CONTINUOUS
 90
17
 70
0
 10
79.112236066
 20
61.8452553672
 10
78.9457279847
 20
61.8325749888
 10
78.7677859007
 20
61.8200800312
 10
78.5788044129
 20
61.8078645069
 10
78.3787779344
 20
61.7959809544
 10
78.1679079456
 20
61.7844998326
 10
77.9461870481
 20
61.773480651
 10
77.7136907522
 20
61.7629800183
 10
77.4705149195
 20
61.7530625284
 10
77.2168017967
 20
61.7437948282
 10
76.9527278907
 20
61.7352421009
 10
76.6785230532
 20
61.7274769986
 10
76.3944872404
 20
61.7205720266
 10
76.1009925923
 20
61.714603527
 10
75.7984720483
 20
61.7096503507
 10
75.4874558381
 20
61.7057929926
 10
75.1685735173
 20
61.7031152004
  0
LINE
  5
405
100
AcDbEntity
  8
RUNDUNGEN
100
AcDbLine
 62
7
  6
CONTINUOUS
 10
75.1685735173
 20
61.7031152004
 11
74.6609264118
 21
61.7014931468
  0
LINE
  5
406
100
AcDbEntity
  8
RUNDUNGEN
100
AcDbLine
 62
7
  6
CONTINUOUS
 10
73.8300366968
 20
61.7014932168
 11
74.6609264117
 21
61.7014932168
  0
LWPOLYLINE
  5
407
100
AcDbEntity
  8
RUNDUNGEN
100
AcDbPolyline
 62
7
  6
CONTINUOUS
 90
19
 70
0
 10
111.624577749
 20
61.7014932168
 10
110.600208062
 20
61.7017291514
 10
110.274738707
 20
61.7031881959
 10
109.9564137617
 20
61.7059056444
 10
109.6459405267
 20
61.7097979332
 10
109.3439477374
 20
61.7147817894
 10
109.050967036
 20
61.7207771805
 10
108.7674324848
 20
61.7277053945
 10
108.4937176094
 20
61.7354906154
 10
108.2301237987
 20
61.7440602391
 10
107.976882389
 20
61.7533418684
 10
107.7341719295
 20
61.7632706429
 10
107.502136691
 20
61.7737793389
 10
107.2808743437
 20
61.7848037759
 10
107.0704615959
 20
61.796287291
 10
106.8708947511
 20
61.8081696041
 10
106.6823683953
 20
61.8203809154
 10
106.5048743964
 20
61.8328688367
 10
106.3388003922
 20
61.845539407
  0
LINE
  5
408
100
AcDbEntity
  8
0
100
AcDbLine
 62
7
  6
CONTINUOUS
 10
101.5648074136
 20
42.198643714
 11
101.5648074136
 21
41.8292773451
  0
LINE
  5
409
100
AcDbEntity
  8
0
100
AcDbLine
 62
7
  6
CONTINUOUS
 10
101.7239076636
 20
48.3188165831
 11
101.7239076636
 21
48.0188165831
  0
LINE
  5
40A
100
AcDbEntity
  8
0
100
AcDbLine
 62
7
  6
CONTINUOUS
 10
101.8194483466
 20
48.3188165831
 11
101.8194483466
 21
48.0188165831
  0
LINE
  5
40B
100
AcDbEntity
  8
0
100
AcDbLine
 62
7
  6
CONTINUOUS
 10
102.0314736352
 20
42.5530829736
 11
102.0314736352
 21
42.1729330265
  0
LINE
  5
40C
100
AcDbEntity
  8
0
100
AcDbLine
 62
7
  6
CONTINUOUS
 10
102.2813880853
 20
48.3188165831
 11
102.2813880853
 21
48.0188165831
  0
LINE
  5
40D
100
AcDbEntity
  8
0
100
AcDbLine
 62
7
  6
CONTINUOUS
 10
102.476800947
 20
48.3188165831
 11
102.476800947
 21
48.0188165831
  0
LINE
  5
40E
100
AcDbEntity
  8
0
100
AcDbLine
 62
7
  6
CONTINUOUS
 10
102.7655133559
 20
48.3188165831
 11
102.7655133559
 21
48.0188165831
  0
LINE
  5
40F
100
AcDbEntity
  8
0
100
AcDbLine
 62
7
  6
CONTINUOUS
 10
103.205267728
 20
48.3188165831
 11
103.205267728
 21
48.0188165831
  0
LWPOLYLINE
  5
410
100
AcDbEntity
  8
RUNDUNGEN
100
AcDbPolyline
 62
7
  6
CONTINUOUS
 90
5
 70
0
 10
73.561477212
 20
61.6772560036
 10
66.2088759244
 20
60.3392738372
 10
66.1906154525
 20
60.336220078
 10
66.172148641
 20
60.333379621
 10
66.1138152675
 20
60.324829574
  0
LWPOLYLINE
  5
411
100
AcDbEntity
  8
RUNDUNGEN
100
AcDbPolyline
 62
7
  6
CONTINUOUS
 90
24
 70
0
 10
66.1138152675
 20
60.324829574
 10
66.0616666483
 20
60.316058196
 10
66.003979588
 20
60.3047548919
 10
65.9371194028
 20
60.2892011019
 10
65.8641753363
 20
60.2688694575
 10
65.7872198497
 20
60.2432708207
 10
65.7073108371
 20
60.2118213286
 10
65.6266664036
 20
60.1746404006
 10
65.5457899508
 20
60.1313557148
 10
65.4659655902
 20
60.0821168188
 10
65.3875774904
 20
60.0266746957
 10
65.3113411966
 20
59.9650261792
 10
65.2377940625
 20
59.8970802344
 10
65.1675601949
 20
59.8228428208
 10
65.1012819969
 20
59.7423772737
 10
65.0396173999
 20
59.6558094928
 10
64.9832475495
 20
59.5633545516
 10
64.9328563576
 20
59.4653115458
 10
64.8890942272
 20
59.3620018634
 10
64.8526118095
 20
59.2538338955
 10
64.8240452979
 20
59.1412985292
 10
64.8040049527
 20
59.0249641423
 10
64.7930668965
 20
58.9054827911
 10
64.791090553
 20
58.8284779113
  0
LINE
  5
412
100
AcDbEntity
  8
RUNDUNGEN
100
AcDbLine
 62
7
  6
CONTINUOUS
 10
66.1609541069
 20
60.3317795139
 11
66.1625207441
 21
60.3319960108
  0
LINE
  5
413
100
AcDbEntity
  8
RUNDUNGEN
100
AcDbLine
 62
7
  6
CONTINUOUS
 10
79.2811076735
 20
61.8592414096
 11
79.112236066
 21
61.8452553672
  0
LINE
  5
414
100
AcDbEntity
  8
RUNDUNGEN
100
AcDbLine
 62
7
  6
CONTINUOUS
 10
106.3388003922
 20
61.845539407
 11
106.1733846874
 21
61.859249741
  0
LWPOLYLINE
  5
415
100
AcDbEntity
  8
RUNDUNGEN
100
AcDbPolyline
 62
7
  6
CONTINUOUS
 90
7
 70
0
 10
106.1734950011
 20
61.8592426863
 10
106.1122906204
 20
61.8664424368
 10
105.9726229459
 20
61.897605428
 10
105.8388353591
 20
61.9483839011
 10
105.7136673431
 20
62.0177370445
 10
105.59968118
 20
62.1042440589
 10
105.4992101271
 20
62.2061331533
  0
LINE
  5
416
100
AcDbEntity
  8
RUNDUNGEN
100
AcDbLine
 62
7
  6
CONTINUOUS
 10
119.2936604416
 20
60.331778849
 11
119.2917060147
 21
60.3320486457
  0
LWPOLYLINE
  5
417
100
AcDbEntity
  8
RUNDUNGEN
100
AcDbPolyline
 62
7
  6
CONTINUOUS
 90
3
 70
0
 10
119.2802708603
 20
60.3337041493
 10
119.2617929308
 20
60.3365760864
 10
119.2435206683
 20
60.3396612791
  0
LINE
  5
418
100
AcDbEntity
  8
RUNDUNGEN
100
AcDbLine
 62
7
  6
CONTINUOUS
 10
111.8931372338
 20
61.6772560036
 11
119.2435206683
 21
60.3396612791
  0
LINE
  5
419
100
AcDbEntity
  8
0
100
AcDbLine
 62
7
  6
CONTINUOUS
 10
104.248141192
 20
44.7130691028
 11
104.248141192
 21
44.2510271209
  0
LINE
  5
41A
100
AcDbEntity
  8
RUNDUNGEN
100
AcDbLine
 62
7
  6
CONTINUOUS
 10
105.4143532131
 20
46.3163830446
 11
105.4992553184
 21
46.4315533206
  0
LWPOLYLINE
  5
41B
100
AcDbEntity
  8
RUNDUNGEN
100
AcDbPolyline
 62
7
  6
CONTINUOUS
 90
7
 70
0
 10
105.4992553184
 20
46.4315533206
 10
105.5997262164
 20
46.5334290312
 10
105.7137094041
 20
46.6199238679
 10
105.8388719632
 20
46.6892665553
 10
105.9726520356
 20
46.7400367396
 10
106.1123106645
 20
46.7711939761
 10
106.1734937553
 20
46.7783906218
  0
LINE
  5
41C
100
AcDbEntity
  8
RUNDUNGEN
100
AcDbLine
 62
7
  6
CONTINUOUS
 10
105.4992101271
 20
62.2061331533
 11
105.4143109411
 21
62.3213174303
  0
LWPOLYLINE
  5
41D
100
AcDbEntity
  8
RUNDUNGEN
100
AcDbPolyline
 62
7
  6
CONTINUOUS
 90
23
 70
0
 10
120.6635239208
 20
58.828475697
 10
120.6586004992
 20
58.9499573073
 10
120.6417144827
 20
59.0834360687
 10
120.6143984926
 20
59.2093717741
 10
120.5779252895
 20
59.3281550798
 10
120.5332622546
 20
59.4401493433
 10
120.4809029244
 20
59.5460998093
 10
120.4217039396
 20
59.645560526
 10
120.356224336
 20
59.7385940429
 10
120.28535221
 20
59.8247650549
 10
120.2098946237
 20
59.9038750141
 10
120.1306260896
 20
59.9758312181
 10
120.0482868083
 20
60.0406255701
 10
119.9636186008
 20
60.0982979155
 10
119.876986364
 20
60.1491493644
 10
119.7899472911
 20
60.1928709935
 10
119.7032877681
 20
60.2297807748
 10
119.6193241992
 20
60.2597782407
 10
119.5389577452
 20
60.2835978223
 10
119.4651648473
 20
60.3016099915
 10
119.4016459024
 20
60.3144682009
 10
119.3444532212
 20
60.3242545857
 10
119.2802708603
 20
60.3337041493
  0
LINE
  5
41E
100
AcDbEntity
  8
RUNDUNGEN
100
AcDbLine
 62
7
  6
CONTINUOUS
 10
120.6635239297
 20
49.8091560522
 11
120.6635239297
 21
58.8284771129
  0
ARC
  5
41F
100
AcDbEntity
  8
RUNDUNGEN
100
AcDbCircle
 62
7
  6
CONTINUOUS
 10
73.7273072229
 20
133.1140046732
 40
4.0
100
AcDbArc
 50
0.0
 51
88.9260843043
  0
ARC
  5
420
100
AcDbEntity
  8
RUNDUNGEN
100
AcDbCircle
 62
7
  6
CONTINUOUS
 10
67.291090516
 20
157.0135431562
 40
2.5
100
AcDbArc
 50
157.5
 51
202.5
  0
ARC
  5
421
100
AcDbEntity
  8
RUNDUNGEN
100
AcDbCircle
 62
7
  6
CONTINUOUS
 10
73.8303958058
 20
138.6131377072
 40
1.5
100
AcDbArc
 50
208.2712867871
 51
268.9259361837
  0
ARC
  5
422
100
AcDbEntity
  8
RUNDUNGEN
100
AcDbCircle
 62
7
  6
CONTINUOUS
 10
73.8300366968
 20
138.6140046732
 40
1.5
100
AcDbArc
 50
202.5
 51
270.0
  0
ARC
  5
423
100
AcDbEntity
  8
RUNDUNGEN
100
AcDbCircle
 62
7
  6
CONTINUOUS
 10
74.7411859017
 20
174.9996644774
 40
2.5
100
AcDbArc
 50
112.5
 51
157.5
  0
CIRCLE
  5
424
100
AcDbEntity
  8
RUNDUNGEN
100
AcDbCircle
 62
7
  6
CONTINUOUS
 10
92.7273072229
 20
157.0135431562
 40
15.0
  0
ARC
  5
425
100
AcDbEntity
  8
RUNDUNGEN
100
AcDbCircle
 62
7
  6
CONTINUOUS
 10
111.7273072229
 20
133.1140046732
 40
4.0
100
AcDbArc
 50
91.0739156957
 51
180.0
  0
ARC
  5
426
100
AcDbEntity
  8
RUNDUNGEN
100
AcDbCircle
 62
7
  6
CONTINUOUS
 10
111.6242186399
 20
138.6131377072
 40
1.5
100
AcDbArc
 50
271.0740638163
 51
331.7287132129
  0
ARC
  5
427
100
AcDbEntity
  8
RUNDUNGEN
100
AcDbCircle
 62
7
  6
CONTINUOUS
 10
111.624577749
 20
138.6140046732
 40
1.5
100
AcDbArc
 50
270.0
 51
337.5
  0
ARC
  5
428
100
AcDbEntity
  8
RUNDUNGEN
100
AcDbCircle
 62
7
  6
CONTINUOUS
 10
118.1635239297
 20
157.0135431562
 40
2.5
100
AcDbArc
 50
337.5
 51
22.5
  0
ARC
  5
429
100
AcDbEntity
  8
RUNDUNGEN
100
AcDbCircle
 62
7
  6
CONTINUOUS
 10
110.713428544
 20
174.9996644774
 40
2.5
100
AcDbArc
 50
22.5
 51
67.5
  0
ARC
  5
42A
100
AcDbEntity
  8
RUNDUNGEN
100
AcDbCircle
 62
7
  6
CONTINUOUS
 10
92.7273072229
 20
182.4497598631
 40
2.5
100
AcDbArc
 50
67.5
 51
112.5
  0
ARC
  5
42B
100
AcDbEntity
  8
RUNDUNGEN
100
AcDbCircle
 62
7
  6
CONTINUOUS
 10
223.4401428789
 20
157.5780821176
 40
15.0
100
AcDbArc
 50
180.0
 51
184.3107254215
  0
ARC
  5
42C
100
AcDbEntity
  8
RUNDUNGEN
100
AcDbCircle
 62
7
  6
CONTINUOUS
 10
181.4401428789
 20
157.5780821176
 40
15.0
100
AcDbArc
 50
355.6892745785
 51
360.0
  0
ARC
  5
42D
100
AcDbEntity
  8
RUNDUNGEN
100
AcDbCircle
 62
8
  6
HIDDEN
 10
202.4401428789
 20
178.0135431562
 40
6.0
100
AcDbArc
 50
180.0
 51
360.0
  0
ARC
  5
42E
100
AcDbEntity
  8
B-ACHSEN
100
AcDbCircle
 62
7
  6
CONTINUOUS
 10
189.4401428789
 20
138.038166475
 40
2.0
100
AcDbArc
 50
99.0
 51
180.0
  0
ARC
  5
42F
100
AcDbEntity
  8
B-ACHSEN
100
AcDbCircle
 62
7
  6
CONTINUOUS
 10
215.4401428789
 20
138.038166475
 40
2.0
100
AcDbArc
 50
0.0
 51
81.0
  0
ARC
  5
430
100
AcDbEntity
  8
RUNDUNGEN
100
AcDbCircle
 62
7
  6
CONTINUOUS
 10
197.9401428789
 20
183.4497598631
 40
1.5
100
AcDbArc
 50
90.0
 51
180.0000002588
  0
ARC
  5
431
100
AcDbEntity
  8
RUNDUNGEN
100
AcDbCircle
 62
7
  6
CONTINUOUS
 10
206.9401428789
 20
183.4497598631
 40
1.5
100
AcDbArc
 50
359.9999997414
 51
90.0
  0
ARC
  5
432
100
AcDbEntity
  8
RUNDUNGEN
100
AcDbCircle
 62
7
  6
CONTINUOUS
 10
208.3228195276
 20
138.6140044743
 40
1.4999999457
100
AcDbArc
 50
269.9999994273
 51
4.3107254215
  0
ARC
  5
433
100
AcDbEntity
  8
RUNDUNGEN
100
AcDbCircle
 62
7
  6
CONTINUOUS
 10
196.5574662303
 20
138.6140044743
 40
1.4999999457
100
AcDbArc
 50
175.6892669587
 51
270.0000005727
  0
ARC
  5
434
100
AcDbEntity
  8
RUNDUNGEN
100
AcDbCircle
 62
7
  6
CONTINUOUS
 10
73.8304725792
 20
48.444999862
 40
1.5087985107
100
AcDbArc
 50
259.7220147188
 51
269.9834612472
  0
ARC
  5
435
100
AcDbEntity
  8
RUNDUNGEN
100
AcDbCircle
 62
7
  6
CONTINUOUS
 10
73.8306344768
 20
60.1965153523
 40
1.5049779832
100
AcDbArc
 50
90.02275799
 51
100.3595487919
  0
ARC
  5
436
100
AcDbEntity
  8
RUNDUNGEN
100
AcDbCircle
 62
7
  6
CONTINUOUS
 10
111.623979969
 20
48.441117814
 40
1.5049779832
100
AcDbArc
 50
270.02275799
 51
280.3595487919
  0
ARC
  5
437
100
AcDbEntity
  8
0
100
AcDbCircle
 62
7
  6
CONTINUOUS
 10
92.7273072229
 20
54.3188165831
 40
15.3
100
AcDbArc
 50
307.4533622465
 51
318.8505439324
  0
ARC
  5
438
100
AcDbEntity
  8
0
100
AcDbCircle
 62
7
  6
CONTINUOUS
 10
92.7273072229
 20
54.3188165831
 40
15.3
100
AcDbArc
 50
296.1268202336
 51
305.2829259857
  0
ARC
  5
439
100
AcDbEntity
  8
0
100
AcDbCircle
 62
7
  6
CONTINUOUS
 10
92.7273072229
 20
54.3188165831
 40
15.3
100
AcDbArc
 50
290.8842672864
 51
294.1959363847
  0
ARC
  5
43A
100
AcDbEntity
  8
0
100
AcDbCircle
 62
7
  6
CONTINUOUS
 10
92.7273072229
 20
54.3188165831
 40
15.3
100
AcDbArc
 50
280.6560506727
 51
289.0249830826
  0
ARC
  5
43B
100
AcDbEntity
  8
0
100
AcDbCircle
 62
7
  6
CONTINUOUS
 10
92.7273072229
 20
54.3188165831
 40
15.3
100
AcDbArc
 50
270.5461255533
 51
278.8826828612
  0
ARC
  5
43C
100
AcDbEntity
  8
0
100
AcDbCircle
 62
7
  6
CONTINUOUS
 10
92.7273072229
 20
54.3188165831
 40
15.3
100
AcDbArc
 50
267.4870418986
 51
268.7984471927
  0
ARC
  5
43D
100
AcDbEntity
  8
0
100
AcDbCircle
 62
7
  6
CONTINUOUS
 10
92.7273072229
 20
54.3188165831
 40
15.3
100
AcDbArc
 50
245.8040597
 51
255.0869453301
  0
ARC
  5
43E
100
AcDbEntity
  8
0
100
AcDbCircle
 62
7
  6
CONTINUOUS
 10
92.7273072229
 20
54.3188165831
 40
15.3
100
AcDbArc
 50
234.7170734674
 51
243.8731799653
  0
ARC
  5
43F
100
AcDbEntity
  8
0
100
AcDbCircle
 62
7
  6
CONTINUOUS
 10
92.7273072229
 20
54.3188165831
 40
15.3
100
AcDbArc
 50
221.1494582385
 51
232.5466356166
  0
ARC
  5
440
100
AcDbEntity
  8
B-ACHSEN
100
AcDbCircle
 62
7
  6
CONTINUOUS
 10
92.7273072229
 20
54.3188165831
 40
15.0
100
AcDbArc
 50
31.8079307578
 51
148.1920692422
  0
ARC
  5
441
100
AcDbEntity
  8
B-ACHSEN
100
AcDbCircle
 62
7
  6
CONTINUOUS
 10
92.7273072229
 20
54.3188165831
 40
15.0
100
AcDbArc
 50
211.8079307578
 51
328.1920692422
  0
ARC
  5
442
100
AcDbEntity
  8
RUNDUNGEN
100
AcDbCircle
 62
7
  6
CONTINUOUS
 10
92.7273072229
 20
54.3188165831
 40
15.0
100
AcDbArc
 50
211.8079307578
 51
328.1920692422
  0
ARC
  5
443
100
AcDbEntity
  8
RUNDUNGEN
100
AcDbCircle
 62
7
  6
CONTINUOUS
 10
92.7273072229
 20
54.3188165831
 40
15.0
100
AcDbArc
 50
31.8079307578
 51
148.1920692422
  0
ARC
  5
444
100
AcDbEntity
  8
RUNDUNGEN
100
AcDbCircle
 62
7
  6
CONTINUOUS
 10
111.6241418665
 20
60.1926333043
 40
1.5087985107
100
AcDbArc
 50
79.7220147188
 51
89.9834612472
  0
LINE
  5
445
100
AcDbEntity
  8
RUNDUNGEN
100
AcDbLine
 62
7
  6
CONTINUOUS
 10
111.6523377775
 20
137.1133020593
 11
111.6245875313
 21
137.1140046732
  0
LINE
  5
446
100
AcDbEntity
  8
RUNDUNGEN
100
AcDbLine
 62
7
  6
CONTINUOUS
 10
73.8300269091
 20
137.1140046732
 11
73.8022766682
 21
137.1133020593
  0
SPLINE
  5
447
100
AcDbEntity
  8
RUNDUNGEN
100
AcDbSpline
 62
7
  6
CONTINUOUS
 70
0
 71
3
 72
9
 73
5
 74
0
 42
0.0000001
 43
0.0000001
 44
0.0000000001
 40
0.0
 40
0.0
 40
0.0
 40
0.0
 40
0.4999999999
 40
1.0
 40
1.0
 40
1.0
 40
1.0
 10
204.4131059773
 20
137.1140046732
 30
0.0
 10
203.7554515563
 20
137.1139883956
 30
0.0
 10
202.4401428385
 20
137.1126157184
 30
0.0
 10
201.1248341208
 20
137.1139884047
 30
0.0
 10
200.4671796995
 20
137.1140046732
 30
0.0
  0
ELLIPSE
  5
448
100
AcDbEntity
  8
0
100
AcDbEllipse
 62
7
  6
CONTINUOUS
 10
202.4401428789
 20
134.5071592542
 30
0.0
 11
15.3
 21
-0.0
 31
0.0
 40
0.2553189461
 41
-0.3239938403
 42
-0.3039504931
  0
ELLIPSE
  5
449
100
AcDbEntity
  8
0
100
AcDbEllipse
 62
7
  6
CONTINUOUS
 10
202.4401428789
 20
136.2608864225
 30
0.0
 11
15.3
 21
-0.0
 31
0.0
 40
0.6382984888
 41
-0.3039504931
 42
-0.2880065125
  0
ELLIPSE
  5
44A
100
AcDbEntity
  8
0
100
AcDbEllipse
 62
7
  6
CONTINUOUS
 10
202.4401428789
 20
139.0348251912
 30
0.0
 11
-0.0
 21
19.5319329022
 31
0.0
 40
0.7833326111
 41
-1.8588028393
 42
-1.8429338214
  0
ELLIPSE
  5
44B
100
AcDbEntity
  8
0
100
AcDbEllipse
 62
7
  6
CONTINUOUS
 10
202.4401428789
 20
144.284801519
 30
0.0
 11
-0.0
 21
39.0637574619
 31
0.0
 40
0.3916673918
 41
-1.8429338214
 42
-1.8350258343
  0
ELLIPSE
  5
44C
100
AcDbEntity
  8
0
100
AcDbEllipse
 62
7
  6
CONTINUOUS
 10
202.4401428789
 20
159.5881071262
 30
0.0
 11
-0.0
 21
97.6599353692
 31
0.0
 40
0.1566660877
 41
-1.8350258343
 42
-1.8310782323
  0
ELLIPSE
  5
44D
100
AcDbEntity
  8
0
100
AcDbEllipse
 62
7
  6
CONTINUOUS
 10
202.4401428789
 20
110.4389650002
 30
0.0
 11
-0.0
 21
97.6599900865
 31
0.0
 40
0.1566659999
 41
-1.3105144213
 42
-1.3065668193
  0
ELLIPSE
  5
44E
100
AcDbEntity
  8
0
100
AcDbEllipse
 62
7
  6
CONTINUOUS
 10
202.4401428789
 20
125.742286684
 30
0.0
 11
-0.0
 21
39.0637506223
 31
0.0
 40
0.3916674604
 41
-1.3065668193
 42
-1.2986588322
  0
ELLIPSE
  5
44F
100
AcDbEntity
  8
0
100
AcDbEllipse
 62
7
  6
CONTINUOUS
 10
202.4401428789
 20
130.9922616329
 30
0.0
 11
0.0
 21
19.5319311923
 31
0.0
 40
0.7833326797
 41
-1.2986588322
 42
-1.2827898143
  0
ELLIPSE
  5
450
100
AcDbEntity
  8
0
100
AcDbEllipse
 62
7
  6
CONTINUOUS
 10
202.4401428789
 20
133.7662002802
 30
0.0
 11
15.3
 21
-0.0
 31
0.0
 40
0.638298405
 41
0.2880065125
 42
0.3039504931
  0
ELLIPSE
  5
451
100
AcDbEntity
  8
0
100
AcDbEllipse
 62
7
  6
CONTINUOUS
 10
202.4401428789
 20
135.5199271671
 30
0.0
 11
15.3
 21
-0.0
 31
0.0
 40
0.2553189237
 41
0.3039504931
 42
0.3239938403
  0
ELLIPSE
  5
452
100
AcDbEntity
  8
0
100
AcDbEllipse
 62
7
  6
CONTINUOUS
 10
202.4401428789
 20
131.1877430611
 30
0.0
 11
15.3
 21
-0.0
 31
0.0
 40
0.3191492025
 41
0.5428895388
 42
0.5607987276
  0
ELLIPSE
  5
453
100
AcDbEntity
  8
0
100
AcDbEllipse
 62
7
  6
CONTINUOUS
 10
202.4401428789
 20
126.8592861057
 30
0.0
 11
15.3
 21
-0.0
 31
0.0
 40
0.8510640264
 41
0.5607987276
 42
0.5743636528
  0
ELLIPSE
  5
454
100
AcDbEntity
  8
0
100
AcDbEllipse
 62
7
  6
CONTINUOUS
 10
202.4401428789
 20
118.0162347389
 30
0.0
 11
-0.0
 21
29.2978129667
 31
0.0
 40
0.5222232805
 41
-0.996432674
 42
-0.9873229803
  0
ELLIPSE
  5
455
100
AcDbEntity
  8
0
100
AcDbEllipse
 62
7
  6
CONTINUOUS
 10
202.4401428789
 20
91.1144460532
 30
0.0
 11
-0.0
 21
78.1279482954
 31
0.0
 40
0.1958326096
 41
-0.9873229803
 42
-0.9827476013
  0
ELLIPSE
  5
456
100
AcDbEntity
  8
0
100
AcDbEllipse
 62
7
  6
CONTINUOUS
 10
202.4401428789
 20
135.2220545445
 30
0.0
 11
15.3
 21
-0.0
 31
0.0
 40
0.2553192382
 41
-0.5251718144
 42
-0.5032766593
  0
ELLIPSE
  5
457
100
AcDbEntity
  8
0
100
AcDbEllipse
 62
7
  6
CONTINUOUS
 10
202.4401428789
 20
138.0481156664
 30
0.0
 11
15.3
 21
-0.0
 31
0.0
 40
0.6382975757
 41
-0.5032766593
 42
-0.4859492725
  0
ELLIPSE
  5
458
100
AcDbEntity
  8
0
100
AcDbEllipse
 62
7
  6
CONTINUOUS
 10
202.4401428789
 20
142.6092835224
 30
0.0
 11
-0.0
 21
19.5319049616
 31
0.0
 40
0.7833337317
 41
-2.0567455993
 42
-2.0395753848
  0
ELLIPSE
  5
459
100
AcDbEntity
  8
0
100
AcDbEllipse
 62
7
  6
CONTINUOUS
 10
202.4401428789
 20
151.433774095
 30
0.0
 11
-0.0
 21
39.0638692243
 31
0.0
 40
0.3916662713
 41
-2.0395753848
 42
-2.0310463532
  0
ELLIPSE
  5
45A
100
AcDbEntity
  8
0
100
AcDbEllipse
 62
7
  6
CONTINUOUS
 10
202.4401428789
 20
177.4602653896
 30
0.0
 11
0.0
 21
97.6593765557
 31
0.0
 40
0.1566669842
 41
-2.0310463532
 42
-2.0267953595
  0
ELLIPSE
  5
45B
100
AcDbEntity
  8
0
100
AcDbEllipse
 62
7
  6
CONTINUOUS
 10
202.4401428789
 20
102.9095235168
 30
0.0
 11
-0.0
 21
49.9148937464
 31
0.0
 40
0.3065217383
 41
-0.9171118024
 42
-0.8731323958
  0
ELLIPSE
  5
45C
100
AcDbEntity
  8
0
100
AcDbEllipse
 62
7
  6
CONTINUOUS
 10
202.4401428789
 20
141.250246163
 30
0.0
 11
15.3
 21
0.0
 31
0.0
 40
0.6382979484
 41
-0.697663931
 42
-0.6779255877
  0
ELLIPSE
  5
45D
100
AcDbEntity
  8
0
100
AcDbEllipse
 62
7
  6
CONTINUOUS
 10
202.4401428789
 20
151.4585770897
 30
0.0
 11
-0.0
 21
26.042550087
 31
0.0
 40
0.58750007
 41
-2.2487219145
 42
-2.2341220569
  0
ELLIPSE
  5
45E
100
AcDbEntity
  8
0
100
AcDbEllipse
 62
7
  6
CONTINUOUS
 10
202.4401428789
 20
171.5029358908
 30
0.0
 11
0.0
 21
58.595793577
 31
0.0
 40
0.2611108932
 41
-2.2341220569
 42
-2.2292924711
  0
ELLIPSE
  5
45F
100
AcDbEntity
  8
0
100
AcDbEllipse
 62
7
  6
CONTINUOUS
 10
202.4401428789
 20
100.087980231
 30
0.0
 11
-0.0
 21
58.595793577
 31
0.0
 40
0.2611108932
 41
-0.9123001824
 42
-0.9074705967
  0
ELLIPSE
  5
460
100
AcDbEntity
  8
0
100
AcDbEllipse
 62
7
  6
CONTINUOUS
 10
202.4401428789
 20
120.1323390322
 30
0.0
 11
-0.0
 21
26.042550087
 31
0.0
 40
0.58750007
 41
-0.9074705967
 42
-0.8928707391
  0
ELLIPSE
  5
461
100
AcDbEntity
  8
0
100
AcDbEllipse
 62
7
  6
CONTINUOUS
 10
202.4401428789
 20
127.2781695126
 30
0.0
 11
15.3
 21
-0.0
 31
0.0
 40
0.9574469226
 41
0.6779255877
 42
0.697663931
  0
ELLIPSE
  5
462
100
AcDbEntity
  8
0
100
AcDbEllipse
 62
7
  6
CONTINUOUS
 10
202.4401428789
 20
134.179501339
 30
0.0
 11
15.3
 21
0.0
 31
0.0
 40
0.2553190698
 41
0.697663931
 42
0.7228070016
  0
ELLIPSE
  5
463
100
AcDbEntity
  8
0
100
AcDbEllipse
 62
7
  6
CONTINUOUS
 10
202.4401428789
 20
170.6464492283
 30
0.0
 11
-0.0
 21
76.5955894554
 31
0.0
 40
0.1958337302
 41
-2.0673393596
 42
-2.0629215855
  0
ELLIPSE
  5
464
100
AcDbEntity
  8
0
100
AcDbEllipse
 62
7
  6
CONTINUOUS
 10
202.4401428789
 20
147.840682719
 30
0.0
 11
-0.0
 21
28.723428224
 31
0.0
 40
0.5222217864
 41
-2.0762068468
 42
-2.0673393596
  0
ELLIPSE
  5
465
100
AcDbEntity
  8
0
100
AcDbEllipse
 62
7
  6
CONTINUOUS
 10
202.4401428789
 20
140.1146085597
 30
0.0
 11
15.0
 21
-0.0
 31
0.0
 40
0.8510640264
 41
5.7643911275
 42
5.7777747871
  0
ELLIPSE
  5
466
100
AcDbEntity
  8
0
100
AcDbEllipse
 62
7
  6
CONTINUOUS
 10
202.4401428789
 20
136.1584885856
 30
0.0
 11
15.0
 21
-0.0
 31
0.0
 40
0.3191487459
 41
-0.5232971492
 42
-0.5187941797
  0
ELLIPSE
  5
467
100
AcDbEntity
  8
0
100
AcDbEllipse
 62
7
  6
CONTINUOUS
 10
202.4401428789
 20
134.7622120439
 30
0.0
 11
15.3
 21
-0.0
 31
0.0
 40
0.3191492025
 41
0.3079488387
 42
0.3239938403
  0
ELLIPSE
  5
468
100
AcDbEntity
  8
0
100
AcDbEllipse
 62
7
  6
CONTINUOUS
 10
202.4401428789
 20
132.2954581766
 30
0.0
 11
15.3
 21
-0.0
 31
0.0
 40
0.8510637283
 41
0.2959688359
 42
0.3079488387
  0
ELLIPSE
  5
469
100
AcDbEntity
  8
0
100
AcDbEllipse
 62
7
  6
CONTINUOUS
 10
202.4401428789
 20
127.5481261289
 30
0.0
 11
0.0
 21
29.2978403252
 31
0.0
 40
0.5222227929
 41
-1.2827898143
 42
-1.2748274909
  0
ELLIPSE
  5
46A
100
AcDbEntity
  8
0
100
AcDbEllipse
 62
7
  6
CONTINUOUS
 10
202.4401428789
 20
113.6783533638
 30
0.0
 11
0.0
 21
78.1279482954
 31
0.0
 40
0.1958326096
 41
-1.2867638871
 42
-1.2827898143
  0
ELLIPSE
  5
46B
100
AcDbEntity
  8
0
100
AcDbEllipse
 62
7
  6
CONTINUOUS
 10
202.4401428789
 20
156.3487328443
 30
0.0
 11
0.0
 21
78.1279482954
 31
0.0
 40
0.1958326096
 41
-1.8588028393
 42
-1.8548287665
  0
ELLIPSE
  5
46C
100
AcDbEntity
  8
0
100
AcDbEllipse
 62
7
  6
CONTINUOUS
 10
202.4401428789
 20
142.4789523083
 30
0.0
 11
0.0
 21
29.2978129667
 31
0.0
 40
0.5222232805
 41
-1.8667651627
 42
-1.8588028393
  0
ELLIPSE
  5
46D
100
AcDbEntity
  8
0
100
AcDbEllipse
 62
7
  6
CONTINUOUS
 10
202.4401428789
 20
137.73162957
 30
0.0
 11
15.3
 21
0.0
 31
0.0
 40
0.8510640264
 41
-0.3079488387
 42
-0.2959688359
  0
ELLIPSE
  5
46E
100
AcDbEntity
  8
0
100
AcDbEllipse
 62
7
  6
CONTINUOUS
 10
202.4401428789
 20
135.2648743207
 30
0.0
 11
15.3
 21
-0.0
 31
0.0
 40
0.3191492025
 41
-0.3239938403
 42
-0.3079488387
  0
ELLIPSE
  5
46F
100
AcDbEntity
  8
0
100
AcDbEllipse
 62
7
  6
CONTINUOUS
 10
202.4401428789
 20
78.0455703508
 30
0.0
 11
0.0
 21
95.7444868193
 31
0.0
 40
0.1566669842
 41
-0.9455737118
 42
-0.9407691871
  0
ELLIPSE
  5
470
100
AcDbEntity
  8
0
100
AcDbEllipse
 62
7
  6
CONTINUOUS
 10
202.4401428789
 20
111.6678074105
 30
0.0
 11
-0.0
 21
38.2978562186
 31
0.0
 40
0.3916668315
 41
-0.9551332125
 42
-0.9455737118
  0
ELLIPSE
  5
471
100
AcDbEntity
  8
0
100
AcDbEllipse
 62
7
  6
CONTINUOUS
 10
202.4401428789
 20
122.726298725
 30
0.0
 11
-0.0
 21
19.1489538257
 31
0.0
 40
0.7833326111
 41
-0.9740616641
 42
-0.9551332125
  0
ELLIPSE
  5
472
100
AcDbEntity
  8
0
100
AcDbEllipse
 62
7
  6
CONTINUOUS
 10
202.4401428789
 20
128.1066305291
 30
0.0
 11
15.0
 21
0.0
 31
0.0
 40
0.6382975757
 41
0.5780465519
 42
0.5967346627
  0
ELLIPSE
  5
473
100
AcDbEntity
  8
0
100
AcDbEllipse
 62
7
  6
CONTINUOUS
 10
202.4401428789
 20
131.2454572505
 30
0.0
 11
15.0
 21
-0.0
 31
0.0
 40
0.2553192382
 41
0.555001375
 42
0.5780465519
  0
ELLIPSE
  5
474
100
AcDbEntity
  8
0
100
AcDbEllipse
 62
7
  6
CONTINUOUS
 10
202.4401428789
 20
170.6464492283
 30
0.0
 11
0.0
 21
78.1275012445
 31
0.0
 40
0.1958337302
 41
-2.0567455993
 42
-2.0524386714
  0
ELLIPSE
  5
475
100
AcDbEntity
  8
0
100
AcDbEllipse
 62
7
  6
CONTINUOUS
 10
202.4401428789
 20
147.840682719
 30
0.0
 11
0.0
 21
29.2978967885
 31
0.0
 40
0.5222217864
 41
-2.0653890397
 42
-2.0567455993
  0
ELLIPSE
  5
476
100
AcDbEntity
  8
0
100
AcDbEllipse
 62
7
  6
CONTINUOUS
 10
202.4401428789
 20
140.1146085597
 30
0.0
 11
15.3
 21
0.0
 31
0.0
 40
0.8510640264
 41
-0.5076341734
 42
-0.4945927129
  0
ELLIPSE
  5
477
100
AcDbEntity
  8
0
100
AcDbEllipse
 62
7
  6
CONTINUOUS
 10
202.4401428789
 20
136.1584885856
 30
0.0
 11
15.3
 21
0.0
 31
0.0
 40
0.3191487459
 41
-0.5251718144
 42
-0.5076341734
  0
ELLIPSE
  5
478
100
AcDbEntity
  8
0
100
AcDbEllipse
 62
7
  6
CONTINUOUS
 10
202.4401428789
 20
78.0455703508
 30
0.0
 11
0.0
 21
97.6593765557
 31
0.0
 40
0.1566669842
 41
-0.9596559977
 42
-0.9549930891
  0
ELLIPSE
  5
479
100
AcDbEntity
  8
0
100
AcDbEllipse
 62
7
  6
CONTINUOUS
 10
202.4401428789
 20
111.6678074105
 30
0.0
 11
0.0
 21
39.063813343
 31
0.0
 40
0.3916668315
 41
-0.9689364968
 42
-0.9596559977
  0
ELLIPSE
  5
47A
100
AcDbEntity
  8
0
100
AcDbEllipse
 62
7
  6
CONTINUOUS
 10
202.4401428789
 20
122.726298725
 30
0.0
 11
0.0
 21
19.5319329022
 31
0.0
 40
0.7833326111
 41
-0.9873229803
 42
-0.9689364968
  0
ELLIPSE
  5
47B
100
AcDbEntity
  8
0
100
AcDbEllipse
 62
7
  6
CONTINUOUS
 10
202.4401428789
 20
128.1066305291
 30
0.0
 11
15.3
 21
-0.0
 31
0.0
 40
0.6382975757
 41
0.5653073771
 42
0.5834733465
  0
ELLIPSE
  5
47C
100
AcDbEntity
  8
0
100
AcDbEllipse
 62
7
  6
CONTINUOUS
 10
202.4401428789
 20
131.2454572505
 30
0.0
 11
15.3
 21
-0.0
 31
0.0
 40
0.2553192382
 41
0.5428895388
 42
0.5653073771
  0
ELLIPSE
  5
47D
100
AcDbEntity
  8
0
100
AcDbEllipse
 62
7
  6
CONTINUOUS
 10
202.4401428789
 20
134.7622120439
 30
0.0
 11
15.0
 21
0.0
 31
0.0
 40
0.3191492025
 41
0.3143166776
 42
0.330718038
  0
ELLIPSE
  5
47E
100
AcDbEntity
  8
0
100
AcDbEllipse
 62
7
  6
CONTINUOUS
 10
202.4401428789
 20
132.2954581766
 30
0.0
 11
15.0
 21
0.0
 31
0.0
 40
0.8510637283
 41
0.3020730513
 42
0.3143166776
  0
ELLIPSE
  5
47F
100
AcDbEntity
  8
0
100
AcDbEllipse
 62
7
  6
CONTINUOUS
 10
202.4401428789
 20
127.5481261289
 30
0.0
 11
0.0
 21
28.7233728678
 31
0.0
 40
0.5222227929
 41
-1.2768597094
 42
-1.2687232755
  0
ELLIPSE
  5
480
100
AcDbEntity
  8
0
100
AcDbEllipse
 62
7
  6
CONTINUOUS
 10
202.4401428789
 20
113.6783533638
 30
0.0
 11
-0.0
 21
76.5960277406
 31
0.0
 40
0.1958326096
 41
-1.2809203639
 42
-1.2768597094
  0
ELLIPSE
  5
481
100
AcDbEntity
  8
0
100
AcDbEllipse
 62
7
  6
CONTINUOUS
 10
202.4401428789
 20
156.3487328443
 30
0.0
 11
0.0
 21
76.5960277406
 31
0.0
 40
0.1958326096
 41
-1.8647329442
 42
-1.8606722897
  0
ELLIPSE
  5
482
100
AcDbEntity
  8
0
100
AcDbEllipse
 62
7
  6
CONTINUOUS
 10
202.4401428789
 20
142.4789523083
 30
0.0
 11
-0.0
 21
28.7233460458
 31
0.0
 40
0.5222232805
 41
-1.8728693781
 42
-1.8647329442
  0
ELLIPSE
  5
483
100
AcDbEntity
  8
0
100
AcDbEllipse
 62
7
  6
CONTINUOUS
 10
202.4401428789
 20
137.73162957
 30
0.0
 11
15.0
 21
-0.0
 31
0.0
 40
0.8510640264
 41
-0.3143166776
 42
-0.3020730513
  0
ELLIPSE
  5
484
100
AcDbEntity
  8
0
100
AcDbEllipse
 62
7
  6
CONTINUOUS
 10
202.4401428789
 20
135.2648743207
 30
0.0
 11
15.0
 21
0.0
 31
0.0
 40
0.3191492025
 41
5.9524672692
 42
5.9688686296
  0
ELLIPSE
  5
485
100
AcDbEntity
  8
0
100
AcDbEllipse
 62
7
  6
CONTINUOUS
 10
202.4401428789
 20
132.10928826
 30
0.0
 11
15.3
 21
0.0
 31
0.0
 40
0.4255318642
 41
0.7026494702
 42
0.7177344913
  0
ELLIPSE
  5
486
100
AcDbEntity
  8
0
100
AcDbEllipse
 62
7
  6
CONTINUOUS
 10
202.4401428789
 20
123.6944014011
 30
0.0
 11
0.0
 21
19.5319032517
 31
0.0
 40
0.7833338002
 41
-0.8780971707
 42
-0.8681468566
  0
ELLIPSE
  5
487
100
AcDbEntity
  8
0
100
AcDbEllipse
 62
7
  6
CONTINUOUS
 10
202.4401428789
 20
98.7475535806
 30
0.0
 11
0.0
 21
58.595793577
 31
0.0
 40
0.2611108932
 41
-0.8830415733
 42
-0.8780971707
  0
ELLIPSE
  5
488
100
AcDbEntity
  8
0
100
AcDbEllipse
 62
7
  6
CONTINUOUS
 10
202.4401428789
 20
132.10928826
 30
0.0
 11
15.0
 21
0.0
 31
0.0
 40
0.4255318642
 41
0.7197100888
 42
0.7353319292
  0
ELLIPSE
  5
489
100
AcDbEntity
  8
0
100
AcDbEllipse
 62
7
  6
CONTINUOUS
 10
202.4401428789
 20
123.6944014011
 30
0.0
 11
0.0
 21
19.1489247566
 31
0.0
 40
0.7833338002
 41
-0.8613827923
 42
-0.851086238
  0
ELLIPSE
  5
48A
100
AcDbEntity
  8
0
100
AcDbEllipse
 62
7
  6
CONTINUOUS
 10
202.4401428789
 20
98.7475535806
 30
0.0
 11
0.0
 21
57.446856448
 31
0.0
 40
0.2611108932
 41
-0.8664970119
 42
-0.8613827923
  0
ELLIPSE
  5
48B
100
AcDbEntity
  8
0
100
AcDbEllipse
 62
7
  6
CONTINUOUS
 10
202.4401428789
 20
172.9178306175
 30
0.0
 11
0.0
 21
57.446856448
 31
0.0
 40
0.2611108932
 41
-2.2802098613
 42
-2.2750956417
  0
ELLIPSE
  5
48C
100
AcDbEntity
  8
0
100
AcDbEllipse
 62
7
  6
CONTINUOUS
 10
202.4401428789
 20
147.9709827969
 30
0.0
 11
0.0
 21
19.1489247566
 31
0.0
 40
0.7833338002
 41
-2.2905064156
 42
-2.2802098613
  0
ELLIPSE
  5
48D
100
AcDbEntity
  8
0
100
AcDbEllipse
 62
7
  6
CONTINUOUS
 10
202.4401428789
 20
139.5560959381
 30
0.0
 11
15.0
 21
0.0
 31
0.0
 40
0.4255318642
 41
-0.7353319292
 42
-0.7197100888
  0
ELLIPSE
  5
48E
100
AcDbEntity
  8
0
100
AcDbEllipse
 62
7
  6
CONTINUOUS
 10
202.4401428789
 20
172.9178306175
 30
0.0
 11
0.0
 21
58.595793577
 31
0.0
 40
0.2611108932
 41
-2.2634954829
 42
-2.2585510803
  0
ELLIPSE
  5
48F
100
AcDbEntity
  8
0
100
AcDbEllipse
 62
7
  6
CONTINUOUS
 10
202.4401428789
 20
147.9709827969
 30
0.0
 11
0.0
 21
19.5319032517
 31
0.0
 40
0.7833338002
 41
-2.273445797
 42
-2.2634954829
  0
ELLIPSE
  5
490
100
AcDbEntity
  8
0
100
AcDbEllipse
 62
7
  6
CONTINUOUS
 10
202.4401428789
 20
139.5560959381
 30
0.0
 11
15.3
 21
0.0
 31
0.0
 40
0.4255318642
 41
-0.7177344913
 42
-0.7026494702
  0
ELLIPSE
  5
491
100
AcDbEntity
  8
0
100
AcDbEllipse
 62
7
  6
CONTINUOUS
 10
202.4401428789
 20
100.7163322689
 30
0.0
 11
0.0
 21
51.2712803794
 31
0.0
 40
0.2984126764
 41
-0.8830415733
 42
-0.8428940097
  0
ELLIPSE
  5
492
100
AcDbEntity
  8
0
100
AcDbEllipse
 62
7
  6
CONTINUOUS
 10
202.4401428789
 20
100.7163322689
 30
0.0
 11
0.0
 21
50.2659611562
 31
0.0
 40
0.2984126764
 41
-0.8664970119
 42
-0.8249262592
  0
ENDSEC
  0
SECTION
  2
OBJECTS
  0
DICTIONARY
  5
C
100
AcDbDictionary
280
0
281
1
  3
ACAD_GROUP
350
D
  3
ACAD_MLINESTYLE
350
17
  3
ACAD_LAYOUT
350
1A
  3
ACAD_PLOTSETTINGS
350
19
  3
ACAD_PLOTSTYLENAME
350
E
  0
DICTIONARY
  5
D
102
{ACAD_REACTORS
330
C
102
}
100
AcDbDictionary
280
0
281
1
  0
ACDBDICTIONARYWDFLT
  5
E
102
{ACAD_REACTORS
330
C
102
}
100
AcDbDictionary
281
1
  3
Normal
350
F
100
AcDbDictionaryWithDefault
340
F
  0
DICTIONARY
  5
17
102
{ACAD_REACTORS
330
C
102
}
100
AcDbDictionary
280
0
281
1
  3
Standard
350
18
  0
DICTIONARY
  5
19
102
{ACAD_REACTORS
330
C
102
}
100
AcDbDictionary
281
1
  0
DICTIONARY
  5
1A
102
{ACAD_REACTORS
330
C
102
}
100
AcDbDictionary
281
1
  3
Model
350
493
  3
Layout1
350
494
  0
ACDBPLACEHOLDER
  5
F
102
{ACAD_REACTORS
330
E
102
}
  0
MLINESTYLE
  5
18
102
{ACAD_REACTORS
330
17
102
}
100
AcDbMlineStyle
  2
STANDARD
 70
0
  3

 62
256
 51
90.0
 52
90.0
 71
2
 49
0.5
 62
256
  6
BYLAYER
 49
-0.5
 62
256
  6
BYLAYER
  0
LAYOUT
  5
493
102
{ACAD_REACTORS
330
1A
102
}
100
AcDbPlotSettings
  1

  2
none_device
  4
ISO_A4_(297.00_x_210.00_MM)
  6

 40
0.0
 41
0.0
 42
0.0
 43
0.0
 44
297.0
 45
210.0
 46
0.0
 47
0.0
 48
0.0
 49
0.0
140
0.0
141
0.0
142
1.0
143
1.0
 70
1024
 72
1
 73
0
 74
0
  7

 75
0
147
1.0
148
0.0
149
0.0
100
AcDbLayout
  1
Model
 70
0
 71
0
 10
0.0
 20
0.0
 11
297.0
 21
210.0
 12
0.0
 22
0.0
 32
0.0
 14
0.0
 24
0.0
 34
0.0
 15
0.0
 25
0.0
 35
0.0
146
0.0
 13
0.0
 23
0.0
 33
0.0
 16
1.0
 26
0.0
 36
0.0
 17
0.0
 27
1.0
 37
0.0
 76
0
330
209
345
0
346
0
  0
LAYOUT
  5
494
102
{ACAD_REACTORS
330
1A
102
}
100
AcDbPlotSettings
  1

  2
none_device
  4
ISO_A4_(297.00_x_210.00_MM)
  6

 40
0.0
 41
0.0
 42
0.0
 43
0.0
 44
297.0
 45
210.0
 46
0.0
 47
0.0
 48
0.0
 49
0.0
140
0.0
141
0.0
142
1.0
143
1.0
 70
0
 72
1
 73
0
 74
0
  7

 75
0
147
1.0
148
0.0
149
0.0
100
AcDbLayout
  1
Layout1
 70
0
 71
1
 10
0.0
 20
0.0
 11
297.0
 21
210.0
 12
0.0
 22
0.0
 32
0.0
 14
0.0
 24
0.0
 34
0.0
 15
0.0
 25
0.0
 35
0.0
146
0.0
 13
0.0
 23
0.0
 33
0.0
 16
1.0
 26
0.0
 36
0.0
 17
0.0
 27
1.0
 37
0.0
 76
0
330
20A
345
0
346
0
  0
ENDSEC
  0
EOF
