999
DXF file: 001-m35816-p-1.dxf
999
Pro/ENGINEER 2011490 by Parametric Technology Corporation
  0
SECTION
  2
HEADER
  9
$ACADVER
  1
AC1015
  9
$DWGCODEPAGE
  3
ANSI_1252
  9
$EXTMAX
 10
594.0
 20
420.0
 30
0.0
  9
$EXTMIN
 10
0.0
 20
0.0
 30
0.0
  9
$LIMMIN
 10
0.0
 20
0.0
  9
$LIMMAX
 10
594.0
 20
420.0
  9
$VIEWCTR
 10
297.0
 20
210.0
  9
$VIEWSIZE
 40
420.0
  9
$CLAYER
  8
0
  9
$LTSCALE
 40
32.67
  9
$CELTYPE
  6
BYLAYER
  9
$DIMSCALE
 40
1.0
  9
$DIMASZ
 40
3.5
  9
$DIMEXO
 40
3.7125
  9
$DIMDLI
 40
22.572
  9
$DIMEXE
 40
10.692
  9
$DIMCEN
 40
5.346
  9
$DIMLFAC
 40
1.0
  9
$DIMBLK
  1
_FILLED
  9
$DIMTXT
 40
3.5
  9
$DIMTOL
 70
1
  9
$DIMLIM
 70
0
  9
$DIMTFAC
 40
1.0
  9
$DIMTP
 40
0.005
  9
$DIMTM
 40
0.005
  9
$PDMODE
 70
3
  9
$PDSIZE
 40
0.3125
  9
$HANDSEED
  5
55F
  9
$TILEMODE
 70
1
  9
$MEASUREMENT
 70
1
  9
$INSUNITS
 70
4
  0
ENDSEC
  0
SECTION
  2
CLASSES
  0
CLASS
  1
ACDBDICTIONARYWDFLT
  2
AcDbDictionaryWithDefault
  3
AutoCAD 2000
 90
0
280
0
281
0
  0
CLASS
  1
ACDBPLACEHOLDER
  2
AcDbPlaceHolder
  3
AutoCAD 2000
 90
0
280
0
281
0
  0
CLASS
  1
LAYOUT
  2
AcDbLayout
  3
AutoCAD 2000
 90
0
280
0
281
0
  0
ENDSEC
  0
SECTION
  2
TABLES
  0
TABLE
  2
VPORT
  5
8
100
AcDbSymbolTable
 70
2
  0
VPORT
  5
1F4
100
AcDbSymbolTableRecord
100
AcDbViewportTableRecord
  2
*ACTIVE
 70
0
 10
0.0
 20
0.0
 11
1.0
 21
1.0
 12
297.0
 22
210.0
 13
0.0
 23
0.0
 14
1.0
 24
1.0
 15
0.0
 25
0.0
 16
0.0
 26
0.0
 36
1.0
 17
0.0
 27
0.0
 37
0.0
 40
420.0
 41
1.4142857143
 42
50.0
 43
0.0
 44
0.0
 50
0.0
 51
0.0
 71
0
 72
100
 73
1
 74
1
 75
0
 76
0
 77
0
 78
0
  0
ENDTAB
  0
TABLE
  2
LTYPE
  5
5
100
AcDbSymbolTable
 70
6
  0
LTYPE
  5
14
100
AcDbSymbolTableRecord
100
AcDbLinetypeTableRecord
  2
BYBLOCK
 70
0
  3

 72
65
 73
0
 40
0.0
  0
LTYPE
  5
15
100
AcDbSymbolTableRecord
100
AcDbLinetypeTableRecord
  2
BYLAYER
 70
0
  3

 72
65
 73
0
 40
0.0
  0
LTYPE
  5
16
100
AcDbSymbolTableRecord
100
AcDbLinetypeTableRecord
  2
CONTINUOUS
 70
64
  3
Solid line
 72
65
 73
0
 40
0.0
  0
LTYPE
  5
1F5
100
AcDbSymbolTableRecord
100
AcDbLinetypeTableRecord
  2
CENTER
 70
64
  3
____ _ ____ _ ____ _ ____ _ ____ _ ____ _ ____
 72
65
 73
4
 40
0.6
 49
0.375
 74
0
 49
-0.075
 74
0
 49
0.075
 74
0
 49
-0.075
 74
0
  0
LTYPE
  5
1F6
100
AcDbSymbolTableRecord
100
AcDbLinetypeTableRecord
  2
HIDDEN
 70
64
  3
- - - - - - - - - - - - - - - - - - - -
 72
65
 73
2
 40
0.2
 49
0.1
 74
0
 49
-0.1
 74
0
  0
LTYPE
  5
1F7
100
AcDbSymbolTableRecord
100
AcDbLinetypeTableRecord
  2
PHANTOM
 70
64
  3
_____ _ _ _____ _ _ _____ _ _ _____
 72
65
 73
6
 40
0.8
 49
0.45
 74
0
 49
-0.05
 74
0
 49
0.1
 74
0
 49
-0.05
 74
0
 49
0.1
 74
0
 49
-0.05
 74
0
  0
LTYPE
  5
1F8
100
AcDbSymbolTableRecord
100
AcDbLinetypeTableRecord
  2
DOT
 70
64
  3
. . . . . . . . . . . . . . . . . . . .
 72
65
 73
2
 40
0.2
 49
0.1
 74
0
 49
-0.1
 74
0
  0
LTYPE
  5
1F9
100
AcDbSymbolTableRecord
100
AcDbLinetypeTableRecord
  2
DASHED
 70
64
  3
- - - - - - - - - - - - - - - - - - - -
 72
65
 73
2
 40
0.2
 49
0.1
 74
0
 49
-0.1
 74
0
  0
ENDTAB
  0
TABLE
  2
LAYER
  5
2
100
AcDbSymbolTable
 70
36
  0
LAYER
  5
10
100
AcDbSymbolTableRecord
100
AcDbLayerTableRecord
  2
0
 70
0
 62
7
  6
CONTINUOUS
370
-3
390
F
  0
LAYER
  5
1FA
100
AcDbSymbolTableRecord
100
AcDbLayerTableRecord
  2
DEFAULT_1
 70
0
 62
7
  6
CENTER
370
-3
390
F
  0
LAYER
  5
1FB
100
AcDbSymbolTableRecord
100
AcDbLayerTableRecord
  2
DEFAULT_2
 70
0
 62
8
  6
HIDDEN
370
-3
390
F
  0
LAYER
  5
1FC
100
AcDbSymbolTableRecord
100
AcDbLayerTableRecord
  2
DEFAULT_3
 70
0
 62
7
  6
PHANTOM
370
-3
390
F
  0
LAYER
  5
1FD
100
AcDbSymbolTableRecord
100
AcDbLayerTableRecord
  2
AUSFORMSCHRAEGEN
 70
0
 62
7
  6
CONTINUOUS
370
-3
390
F
  0
LAYER
  5
1FE
100
AcDbSymbolTableRecord
100
AcDbLayerTableRecord
  2
BEZUGSACHSEN
 70
0
 62
7
  6
CONTINUOUS
370
-3
390
F
  0
LAYER
  5
1FF
100
AcDbSymbolTableRecord
100
AcDbLayerTableRecord
  2
BEZUGSEBENEN
 70
0
 62
7
  6
CONTINUOUS
370
-3
390
F
  0
LAYER
  5
200
100
AcDbSymbolTableRecord
100
AcDbLayerTableRecord
  2
BG_STARTBEZUEGE
 70
0
 62
7
  6
CONTINUOUS
370
-3
390
F
  0
LAYER
  5
201
100
AcDbSymbolTableRecord
100
AcDbLayerTableRecord
  2
FASEN
 70
0
 62
7
  6
CONTINUOUS
370
-3
390
F
  0
LAYER
  5
202
100
AcDbSymbolTableRecord
100
AcDbLayerTableRecord
  2
GEWINDE
 70
0
 62
7
  6
CONTINUOUS
370
-3
390
F
  0
LAYER
  5
203
100
AcDbSymbolTableRecord
100
AcDbLayerTableRecord
  2
HILFEN
 70
0
 62
7
  6
CONTINUOUS
370
-3
390
F
  0
LAYER
  5
204
100
AcDbSymbolTableRecord
100
AcDbLayerTableRecord
  2
KONSTRUKTIONSELEMENTE
 70
0
 62
7
  6
CONTINUOUS
370
-3
390
F
  0
LAYER
  5
205
100
AcDbSymbolTableRecord
100
AcDbLayerTableRecord
  2
KURVEN
 70
0
 62
7
  6
CONTINUOUS
370
-3
390
F
  0
LAYER
  5
206
100
AcDbSymbolTableRecord
100
AcDbLayerTableRecord
  2
NORM
 70
0
 62
7
  6
CONTINUOUS
370
-3
390
F
  0
LAYER
  5
207
100
AcDbSymbolTableRecord
100
AcDbLayerTableRecord
  2
PLATZIERUNG
 70
0
 62
7
  6
CONTINUOUS
370
-3
390
F
  0
LAYER
  5
208
100
AcDbSymbolTableRecord
100
AcDbLayerTableRecord
  2
PLAZIERUNG
 70
0
 62
7
  6
CONTINUOUS
370
-3
390
F
  0
LAYER
  5
209
100
AcDbSymbolTableRecord
100
AcDbLayerTableRecord
  2
RUNDUNGEN
 70
0
 62
7
  6
CONTINUOUS
370
-3
390
F
  0
LAYER
  5
20A
100
AcDbSymbolTableRecord
100
AcDbLayerTableRecord
  2
TEIL_STARTBEZUEGE
 70
0
 62
7
  6
CONTINUOUS
370
-3
390
F
  0
LAYER
  5
20B
100
AcDbSymbolTableRecord
100
AcDbLayerTableRecord
  2
T_STARTBEZUEGE
 70
0
 62
7
  6
CONTINUOUS
370
-3
390
F
  0
LAYER
  5
20C
100
AcDbSymbolTableRecord
100
AcDbLayerTableRecord
  2
ZEICHNUNGSBEMASSUNGEN
 70
0
 62
7
  6
CONTINUOUS
370
-3
390
F
  0
ENDTAB
  0
TABLE
  2
STYLE
  5
3
100
AcDbSymbolTable
 70
1
  0
STYLE
  5
11
100
AcDbSymbolTableRecord
100
AcDbTextStyleTableRecord
  2
STANDARD
 70
0
 40
0.0
 41
0.7
 50
0.0
 71
0
 42
0.2
  3
txt
  4

  0
STYLE
  5
20D
100
AcDbSymbolTableRecord
100
AcDbTextStyleTableRecord
  2
TEXTSTYLE_1
 70
0
 40
0.0
 41
0.8
 50
0.0
 71
0
 42
0.2
  3
gdt
  4

  0
ENDTAB
  0
TABLE
  2
VIEW
  5
6
100
AcDbSymbolTable
 70
0
  0
ENDTAB
  0
TABLE
  2
UCS
  5
7
100
AcDbSymbolTable
 70
0
  0
ENDTAB
  0
TABLE
  2
APPID
  5
9
100
AcDbSymbolTable
 70
1
  0
APPID
  5
20E
100
AcDbSymbolTableRecord
100
AcDbRegAppTableRecord
  2
ACAD
 70
0
  0
ENDTAB
  0
TABLE
  2
BLOCK_RECORD
  5
1
100
AcDbSymbolTable
 70
0
  0
BLOCK_RECORD
  5
20F
100
AcDbSymbolTableRecord
100
AcDbBlockTableRecord
  2
*Model_Space
  0
BLOCK_RECORD
  5
210
100
AcDbSymbolTableRecord
100
AcDbBlockTableRecord
  2
*Paper_Space
  0
ENDTAB
  0
TABLE
  2
DIMSTYLE
  5
A
100
AcDbSymbolTable
 70
1
100
AcDbDimStyleTable
 71
0
  0
DIMSTYLE
105
211
100
AcDbSymbolTableRecord
100
AcDbDimStyleTableRecord
  2
STANDARD
 70
0
  3

  4

 40
1.0
 41
3.5
 42
0.0625
 43
0.38
 44
0.18
 45
0.0
 46
0.0
 47
0.005
 48
0.005
140
3.5
141
0.09
142
0.0
143
25.4
144
1.0
145
0.0
146
1.0
147
0.09
 71
1.0
 72
0.0
 73
0
 74
0
 75
0
 76
0
 77
1
 78
8
170
0
171
2
172
0
173
0
174
0
175
0
176
0
177
0
178
5
270
2
271
3
272
3
273
2
274
2
275
0
280
0
281
0
282
0
283
1
284
8
285
0
286
0
287
3
288
0
340
11
  0
ENDTAB
  0
ENDSEC
  0
SECTION
  2
BLOCKS
  0
BLOCK
  5
20
100
AcDbEntity
  8
0
100
AcDbBlockBegin
  2
*Model_Space
 70
0
 10
0.0
 20
0.0
 30
0.0
  3
*Model_Space
  1

  0
ENDBLK
  5
21
100
AcDbEntity
  8
0
100
AcDbBlockEnd
  0
BLOCK
  5
1C
100
AcDbEntity
  8
0
100
AcDbBlockBegin
  2
*Paper_Space
 70
0
 10
0.0
 20
0.0
 30
0.0
  3
*Paper_Space
  1

  0
ENDBLK
  5
1D
100
AcDbEntity
  8
0
100
AcDbBlockEnd
  0
ENDSEC
  0
SECTION
  2
ENTITIES
  0
MTEXT
  5
212
100
AcDbEntity
  8
0
100
AcDbMText
 62
5
  6
CONTINUOUS
  7
STANDARD
 71
1
 72
1
 10
380.2302534319
 20
219.1218321014
 30
0.0
 11
0.0
 21
1.0
 31
0.0
 44
0.9
  1
RUD ACP 8t M30
 40
8.0
 41
89.7142857143
  0
MTEXT
  5
213
100
AcDbEntity
  8
0
100
AcDbMText
 62
5
  6
CONTINUOUS
  7
STANDARD
 71
1
 72
1
 10
223.8120380148
 20
233.6985216473
 30
0.0
 11
1.0
 21
0.0
 31
0.0
 44
0.9
  1
RUD
 40
10.0
 41
26.6666666667
  0
MTEXT
  5
214
100
AcDbEntity
  8
0
100
AcDbMText
 62
5
  6
CONTINUOUS
  7
STANDARD
 71
1
 72
1
 10
189.4903907075
 20
70.0906414995
 30
0.0
 11
1.0
 21
0.0
 31
0.0
 44
0.9
  1
RUD ACP 8t M30
 40
8.0
 41
89.7142857143
  0
LINE
  5
215
100
AcDbEntity
  8
0
100
AcDbLine
 62
7
  6
CONTINUOUS
 10
0.0
 20
0.0
 11
0.0
 21
420.0
  0
LINE
  5
216
100
AcDbEntity
  8
0
100
AcDbLine
 62
7
  6
CONTINUOUS
 10
0.0
 20
0.0
 11
594.0
 21
0.0
  0
LINE
  5
217
100
AcDbEntity
  8
0
100
AcDbLine
 62
7
  6
CONTINUOUS
 10
0.0
 20
420.0
 11
594.0
 21
420.0
  0
LINE
  5
218
100
AcDbEntity
  8
0
100
AcDbLine
 62
7
  6
CONTINUOUS
 10
594.0
 20
0.0
 11
594.0
 21
420.0
  0
LINE
  5
219
100
AcDbEntity
  8
BEZUGSACHSEN
100
AcDbLine
 62
7
  6
CONTINUOUS
 10
223.1565720697
 20
138.3129861742
 11
247.1565720697
 21
138.3129861742
  0
LINE
  5
21A
100
AcDbEntity
  8
BEZUGSACHSEN
100
AcDbLine
 62
7
  6
CONTINUOUS
 10
220.1565720697
 20
141.3129861742
 11
250.1565720697
 21
141.3129861742
  0
LINE
  5
21B
100
AcDbEntity
  8
RUNDUNGEN
100
AcDbLine
 62
7
  6
CONTINUOUS
 10
198.5204759429
 20
372.749706487
 11
230.6411359054
 21
385.0796726282
  0
LINE
  5
21C
100
AcDbEntity
  8
BEZUGSACHSEN
100
AcDbLine
 62
7
  6
CONTINUOUS
 10
223.1565720697
 20
138.3129861742
 11
220.1565720697
 21
141.3129861742
  0
LINE
  5
21D
100
AcDbEntity
  8
RUNDUNGEN
100
AcDbLine
 62
7
  6
CONTINUOUS
 10
176.1892853808
 20
336.0510061964
 11
191.8092299024
 21
366.7068734099
  0
LINE
  5
21E
100
AcDbEntity
  8
0
100
AcDbLine
 62
7
  6
CONTINUOUS
 10
272.6565720697
 20
179.8129861742
 11
197.6565720697
 21
179.8129861742
  0
LINE
  5
21F
100
AcDbEntity
  8
RUNDUNGEN
100
AcDbLine
 62
7
  6
CONTINUOUS
 10
174.47554667
 20
192.273233839
 11
163.0861961707
 21
219.104862158
  0
LINE
  5
220
100
AcDbEntity
  8
RUNDUNGEN
100
AcDbLine
 62
7
  6
CONTINUOUS
 10
289.8543159219
 20
188.3129861742
 11
283.1565720697
 21
188.3129861742
  0
LINE
  5
221
100
AcDbEntity
  8
RUNDUNGEN
100
AcDbLine
 62
7
  6
CONTINUOUS
 10
187.1565720697
 20
188.3129861742
 11
180.4588282175
 21
188.3129861742
  0
LINE
  5
222
100
AcDbEntity
  8
0
100
AcDbLine
 62
7
  6
CONTINUOUS
 10
272.6565720697
 20
192.8129861742
 11
197.6565720697
 21
192.8129861742
  0
LINE
  5
223
100
AcDbEntity
  8
RUNDUNGEN
100
AcDbLine
 62
7
  6
CONTINUOUS
 10
195.6565720697
 20
193.0629861742
 11
274.6565720697
 21
193.0629861742
  0
LINE
  5
224
100
AcDbEntity
  8
0
100
AcDbLine
 62
7
  6
CONTINUOUS
 10
275.3018115461
 20
193.5629861742
 11
274.6565720697
 21
193.5629861742
  0
LINE
  5
225
100
AcDbEntity
  8
BEZUGSACHSEN
100
AcDbLine
 62
7
  6
CONTINUOUS
 10
195.6565720697
 20
193.5629861742
 11
195.0110671153
 21
193.5629861742
  0
LWPOLYLINE
  5
226
100
AcDbEntity
  8
RUNDUNGEN
100
AcDbPolyline
 62
7
  6
CONTINUOUS
 90
13
 70
0
 10
275.3024328208
 20
193.5629862017
 10
275.3274763663
 20
193.5628294007
 10
275.5382633208
 20
193.5490335253
 10
275.7464177793
 20
193.5130829543
 10
275.9496178338
 20
193.4553792722
 10
276.1455969392
 20
193.3765667005
 10
276.3321691936
 20
193.2775248968
 10
276.5072537403
 20
193.1593591098
 10
276.6688978449
 20
193.0233879344
 10
276.8152987326
 20
192.8711286205
 10
276.9448240925
 20
192.7042796495
 10
277.056029791
 20
192.5247020968
 10
277.1476758113
 20
192.3343992557
  0
LINE
  5
227
100
AcDbEntity
  8
0
100
AcDbLine
 62
7
  6
CONTINUOUS
 10
177.6726509333
 20
212.7567932763
 11
177.6726509333
 21
214.4187124038
  0
LINE
  5
228
100
AcDbEntity
  8
0
100
AcDbLine
 62
7
  6
CONTINUOUS
 10
177.6726509333
 20
222.0397359571
 11
177.6726509333
 21
223.7016550845
  0
LINE
  5
229
100
AcDbEntity
  8
0
100
AcDbLine
 62
7
  6
CONTINUOUS
 10
184.1895432716
 20
267.7322827904
 11
184.2801551232
 21
266.7070173213
  0
LINE
  5
22A
100
AcDbEntity
  8
0
100
AcDbLine
 62
7
  6
CONTINUOUS
 10
185.9226509333
 20
217.3992241804
 11
185.9226509333
 21
219.0611433078
  0
LINE
  5
22B
100
AcDbEntity
  8
0
100
AcDbLine
 62
7
  6
CONTINUOUS
 10
187.0226509333
 20
212.7567932763
 11
187.0226509333
 21
214.4187124038
  0
LINE
  5
22C
100
AcDbEntity
  8
0
100
AcDbLine
 62
7
  6
CONTINUOUS
 10
187.0226509333
 20
222.0397359571
 11
187.0226509333
 21
223.7016550845
  0
LINE
  5
22D
100
AcDbEntity
  8
0
100
AcDbLine
 62
7
  6
CONTINUOUS
 10
185.577393484
 20
267.4187195903
 11
185.7037825743
 21
268.356312402
  0
LINE
  5
22E
100
AcDbEntity
  8
0
100
AcDbLine
 62
7
  6
CONTINUOUS
 10
184.40177987
 20
268.8823556407
 11
184.1895432716
 21
267.7322827904
  0
LINE
  5
22F
100
AcDbEntity
  8
RUNDUNGEN
100
AcDbLine
 62
7
  6
CONTINUOUS
 10
162.9240300236
 20
237.6872620459
 11
183.1528383878
 21
287.7553196882
  0
LINE
  5
230
100
AcDbEntity
  8
0
100
AcDbLine
 62
7
  6
CONTINUOUS
 10
189.1233839715
 20
280.5687358796
 11
187.0630472165
 21
275.4692234636
  0
LINE
  5
231
100
AcDbEntity
  8
0
100
AcDbLine
 62
7
  6
CONTINUOUS
 10
180.9678859332
 20
260.3831699019
 11
180.2811072196
 21
258.6833329365
  0
LINE
  5
232
100
AcDbEntity
  8
0
100
AcDbLine
 62
7
  6
CONTINUOUS
 10
184.40177987
 20
268.8823556407
 11
185.1744059689
 21
270.7946723407
  0
LINE
  5
233
100
AcDbEntity
  8
0
100
AcDbLine
 62
7
  6
CONTINUOUS
 10
182.7131828859
 20
217.3992241804
 11
185.9226509333
 21
217.3992241804
  0
LINE
  5
234
100
AcDbEntity
  8
0
100
AcDbLine
 62
7
  6
CONTINUOUS
 10
185.7538523525
 20
266.605932944
 11
185.577393484
 21
267.4187195903
  0
LINE
  5
235
100
AcDbEntity
  8
0
100
AcDbLine
 62
7
  6
CONTINUOUS
 10
195.5856644573
 20
267.8240714554
 11
195.4950530398
 21
268.8493381633
  0
LINE
  5
236
100
AcDbEntity
  8
RUNDUNGEN
100
AcDbLine
 62
7
  6
CONTINUOUS
 10
193.6565720697
 20
199.2004865202
 11
193.6565720697
 21
194.8129861742
  0
LINE
  5
237
100
AcDbEntity
  8
RUNDUNGEN
100
AcDbLine
 62
7
  6
CONTINUOUS
 10
193.6565720697
 20
215.4254859002
 11
193.6565720697
 21
235.2601487992
  0
LINE
  5
238
100
AcDbEntity
  8
RUNDUNGEN
100
AcDbLine
 62
7
  6
CONTINUOUS
 10
195.6565720697
 20
233.8129861742
 11
195.6565720697
 21
193.0629861742
  0
LINE
  5
239
100
AcDbEntity
  8
0
100
AcDbLine
 62
7
  6
CONTINUOUS
 10
193.5897821932
 20
279.7528497676
 11
193.5492406109
 21
279.0277369945
  0
LINE
  5
23A
100
AcDbEntity
  8
0
100
AcDbLine
 62
7
  6
CONTINUOUS
 10
194.1978141118
 20
268.1376347092
 11
194.0714255127
 21
267.2000431133
  0
LINE
  5
23B
100
AcDbEntity
  8
0
100
AcDbLine
 62
7
  6
CONTINUOUS
 10
194.7653962985
 20
278.289214933
 11
194.9776319144
 21
279.4392853517
  0
LINE
  5
23C
100
AcDbEntity
  8
0
100
AcDbLine
 62
7
  6
CONTINUOUS
 10
195.3734283691
 20
266.6739998132
 11
195.5856644573
 21
267.8240714554
  0
LINE
  5
23D
100
AcDbEntity
  8
0
100
AcDbLine
 62
7
  6
CONTINUOUS
 10
188.6631340274
 20
276.3057331139
 11
190.294233242
 21
280.3428453368
  0
LINE
  5
23E
100
AcDbEntity
  8
0
100
AcDbLine
 62
7
  6
CONTINUOUS
 10
185.7037825743
 20
268.356312402
 11
186.4764086733
 21
270.2686291021
  0
LINE
  5
23F
100
AcDbEntity
  8
0
100
AcDbLine
 62
7
  6
CONTINUOUS
 10
188.4651905764
 20
271.4424222792
 11
188.9802746424
 21
272.7173000792
  0
LINE
  5
240
100
AcDbEntity
  8
0
100
AcDbLine
 62
7
  6
CONTINUOUS
 10
193.5492406109
 20
279.0277369945
 11
191.9181413963
 21
274.9906247716
  0
LINE
  5
241
100
AcDbEntity
  8
0
100
AcDbLine
 62
7
  6
CONTINUOUS
 10
193.2201441006
 20
274.4645815329
 11
194.7653962985
 21
278.289214933
  0
LINE
  5
242
100
AcDbEntity
  8
0
100
AcDbLine
 62
7
  6
CONTINUOUS
 10
188.1241376213
 20
258.7276778363
 11
186.578885362
 21
254.9030442842
  0
LINE
  5
243
100
AcDbEntity
  8
0
100
AcDbLine
 62
7
  6
CONTINUOUS
 10
187.3610397797
 20
254.3398690571
 11
189.0779866867
 21
258.5894617745
  0
LINE
  5
244
100
AcDbEntity
  8
0
100
AcDbLine
 62
7
  6
CONTINUOUS
 10
193.4562012472
 20
269.4259230748
 11
193.9712853132
 21
270.7008008748
  0
LINE
  5
245
100
AcDbEntity
  8
0
100
AcDbLine
 62
7
  6
CONTINUOUS
 10
194.0714255127
 20
267.2000431133
 11
193.2987994138
 21
265.2877264132
  0
LINE
  5
246
100
AcDbEntity
  8
0
100
AcDbLine
 62
7
  6
CONTINUOUS
 10
189.7696204889
 20
281.5434585521
 11
189.1233839715
 21
280.5687358796
  0
LINE
  5
247
100
AcDbEntity
  8
0
100
AcDbLine
 62
7
  6
CONTINUOUS
 10
185.8206429775
 20
271.7693962291
 11
185.1744059689
 21
270.7946723407
  0
LINE
  5
248
100
AcDbEntity
  8
0
100
AcDbLine
 62
7
  6
CONTINUOUS
 10
186.4764086733
 20
270.2686291021
 11
187.0367981738
 21
271.0308729518
  0
LINE
  5
249
100
AcDbEntity
  8
0
100
AcDbLine
 62
7
  6
CONTINUOUS
 10
190.294233242
 20
280.3428453368
 11
190.7687757258
 21
280.8926103637
  0
LINE
  5
24A
100
AcDbEntity
  8
0
100
AcDbLine
 62
7
  6
CONTINUOUS
 10
185.9226509333
 20
219.0611433078
 11
182.7136070967
 21
219.0611433078
  0
LINE
  5
24B
100
AcDbEntity
  8
0
100
AcDbLine
 62
7
  6
CONTINUOUS
 10
186.578885362
 20
254.9030442842
 11
181.4924983179
 21
259.1825557748
  0
LINE
  5
24C
100
AcDbEntity
  8
0
100
AcDbLine
 62
7
  6
CONTINUOUS
 10
189.6216561356
 20
252.4378639742
 11
187.3610397797
 21
254.3398690571
  0
LINE
  5
24D
100
AcDbEntity
  8
0
100
AcDbLine
 62
7
  6
CONTINUOUS
 10
180.2811072196
 20
258.6833329365
 11
189.1065720697
 21
251.1629861742
  0
LINE
  5
24E
100
AcDbEntity
  8
0
100
AcDbLine
 62
7
  6
CONTINUOUS
 10
186.2331597877
 20
265.9179522177
 11
185.7538523525
 21
266.605932944
  0
LINE
  5
24F
100
AcDbEntity
  8
0
100
AcDbLine
 62
7
  6
CONTINUOUS
 10
184.2801551232
 20
266.7070173213
 11
184.8047673851
 21
265.5064028902
  0
LINE
  5
250
100
AcDbEntity
  8
RUNDUNGEN
100
AcDbLine
 62
7
  6
CONTINUOUS
 10
183.6409872315
 20
295.7364827336
 11
175.2453021743
 21
327.0696059313
  0
LINE
  5
251
100
AcDbEntity
  8
0
100
AcDbLine
 62
7
  6
CONTINUOUS
 10
194.0213550914
 20
268.9504214168
 11
194.1978141118
 21
268.1376347092
  0
LINE
  5
252
100
AcDbEntity
  8
0
100
AcDbLine
 62
7
  6
CONTINUOUS
 10
197.6565720697
 20
192.8129861742
 11
197.6565720697
 21
179.8129861742
  0
LINE
  5
253
100
AcDbEntity
  8
0
100
AcDbLine
 62
7
  6
CONTINUOUS
 10
198.6565720697
 20
248.3129861742
 11
198.6565720697
 21
240.3129861742
  0
LINE
  5
254
100
AcDbEntity
  8
0
100
AcDbLine
 62
7
  6
CONTINUOUS
 10
201.8994943395
 20
236.8129861742
 11
201.8994943395
 21
239.8129861742
  0
LINE
  5
255
100
AcDbEntity
  8
0
100
AcDbLine
 62
7
  6
CONTINUOUS
 10
204.0720099239
 20
239.8129861742
 11
204.0720099239
 21
236.8129861742
  0
LINE
  5
256
100
AcDbEntity
  8
0
100
AcDbLine
 62
7
  6
CONTINUOUS
 10
189.1065720697
 20
251.1629861742
 11
189.6216561356
 21
252.4378639742
  0
LINE
  5
257
100
AcDbEntity
  8
0
100
AcDbLine
 62
7
  6
CONTINUOUS
 10
192.0253816948
 20
258.3872935051
 11
192.5404657608
 21
259.6621713051
  0
LINE
  5
258
100
AcDbEntity
  8
0
100
AcDbLine
 62
7
  6
CONTINUOUS
 10
194.6008022702
 20
264.7616831131
 11
195.3734283691
 21
266.6739998132
  0
LINE
  5
259
100
AcDbEntity
  8
0
100
AcDbLine
 62
7
  6
CONTINUOUS
 10
197.2620696168
 20
271.3485509361
 11
197.7771541739
 21
272.6234299519
  0
LINE
  5
25A
100
AcDbEntity
  8
RUNDUNGEN
100
AcDbLine
 62
7
  6
CONTINUOUS
 10
201.7852139611
 20
263.9320808558
 11
196.8604842487
 21
251.742947088
  0
LINE
  5
25B
100
AcDbEntity
  8
0
100
AcDbLine
 62
7
  6
CONTINUOUS
 10
193.9545647514
 20
263.7869580167
 11
194.6008022702
 21
264.7616831131
  0
LINE
  5
25C
100
AcDbEntity
  8
0
100
AcDbLine
 62
7
  6
CONTINUOUS
 10
193.2987994138
 20
265.2877264132
 11
192.738409422
 21
264.5254813477
  0
LINE
  5
25D
100
AcDbEntity
  8
0
100
AcDbLine
 62
7
  6
CONTINUOUS
 10
186.59803342
 20
272.4439674215
 11
185.8206429775
 21
271.7693962291
  0
LINE
  5
25E
100
AcDbEntity
  8
0
100
AcDbLine
 62
7
  6
CONTINUOUS
 10
187.0367981738
 20
271.0308729518
 11
187.7283411083
 21
271.4929641055
  0
LINE
  5
25F
100
AcDbEntity
  8
0
100
AcDbLine
 62
7
  6
CONTINUOUS
 10
190.7640118734
 20
282.1303570872
 11
189.7696204889
 21
281.5434585521
  0
LINE
  5
260
100
AcDbEntity
  8
0
100
AcDbLine
 62
7
  6
CONTINUOUS
 10
190.7687757258
 20
280.8926103637
 11
191.3744716433
 21
281.1422226947
  0
LINE
  5
261
100
AcDbEntity
  8
RUNDUNGEN
100
AcDbLine
 62
7
  6
CONTINUOUS
 10
188.9409295719
 20
228.5129861742
 11
191.6565720697
 21
228.5129861742
  0
LINE
  5
262
100
AcDbEntity
  8
RUNDUNGEN
100
AcDbLine
 62
7
  6
CONTINUOUS
 10
278.6565720697
 20
228.5129861742
 11
281.3722145675
 21
228.5129861742
  0
LINE
  5
263
100
AcDbEntity
  8
0
100
AcDbLine
 62
7
  6
CONTINUOUS
 10
279.5381749992
 20
236.8129861742
 11
271.6565720697
 21
236.8129861742
  0
LINE
  5
264
100
AcDbEntity
  8
RUNDUNGEN
100
AcDbLine
 62
7
  6
CONTINUOUS
 10
271.6565720697
 20
236.8129861742
 11
257.2064995077
 21
236.8129861742
  0
LINE
  5
265
100
AcDbEntity
  8
RUNDUNGEN
100
AcDbLine
 62
7
  6
CONTINUOUS
 10
213.1065188317
 20
236.8129861742
 11
198.6565720697
 21
236.8129861742
  0
LINE
  5
266
100
AcDbEntity
  8
0
100
AcDbLine
 62
7
  6
CONTINUOUS
 10
198.6565720697
 20
236.8129861742
 11
190.7749691402
 21
236.8129861742
  0
LINE
  5
267
100
AcDbEntity
  8
0
100
AcDbLine
 62
7
  6
CONTINUOUS
 10
184.8047673851
 20
265.5064028902
 11
185.5010746631
 21
264.7307485364
  0
LINE
  5
268
100
AcDbEntity
  8
0
100
AcDbLine
 62
7
  6
CONTINUOUS
 10
195.4950530398
 20
268.8493381633
 11
194.9704402107
 21
270.0499514092
  0
LINE
  5
269
100
AcDbEntity
  8
0
100
AcDbLine
 62
7
  6
CONTINUOUS
 10
193.3274763078
 20
280.3531575911
 11
193.5897821932
 21
279.7528497676
  0
LINE
  5
26A
100
AcDbEntity
  8
0
100
AcDbLine
 62
7
  6
CONTINUOUS
 10
194.9776319144
 20
279.4392853517
 11
194.6700205945
 21
280.5522271255
  0
LINE
  5
26B
100
AcDbEntity
  8
BEZUGSACHSEN
100
AcDbLine
 62
7
  6
CONTINUOUS
 10
208.598459687
 20
248.8129861742
 11
208.598459687
 21
264.9587090322
  0
LINE
  5
26C
100
AcDbEntity
  8
KONSTRUKTIONSELEMENTE
100
AcDbLine
 62
7
  6
CONTINUOUS
 10
213.8065720697
 20
248.3129861742
 11
213.8065720697
 21
248.8129861742
  0
LINE
  5
26D
100
AcDbEntity
  8
BEZUGSACHSEN
100
AcDbLine
 62
7
  6
CONTINUOUS
 10
213.8065720697
 20
248.3129861742
 11
213.8065720697
 21
248.8129861742
  0
LINE
  5
26E
100
AcDbEntity
  8
0
100
AcDbLine
 62
7
  6
CONTINUOUS
 10
214.7815720697
 20
240.3129861742
 11
214.7815720697
 21
240.0629861742
  0
LINE
  5
26F
100
AcDbEntity
  8
0
100
AcDbLine
 62
7
  6
CONTINUOUS
 10
214.7815720697
 20
193.0629861742
 11
214.7815720697
 21
192.8129861742
  0
LINE
  5
270
100
AcDbEntity
  8
KONSTRUKTIONSELEMENTE
100
AcDbLine
 62
7
  6
CONTINUOUS
 10
216.0412830777
 20
267.0129861742
 11
216.0412830777
 21
267.2129861742
  0
LINE
  5
271
100
AcDbEntity
  8
0
100
AcDbLine
 62
7
  6
CONTINUOUS
 10
193.1771747431
 20
263.1123880631
 11
193.9545647514
 21
263.7869580167
  0
LINE
  5
272
100
AcDbEntity
  8
0
100
AcDbLine
 62
7
  6
CONTINUOUS
 10
192.738409422
 20
264.5254813477
 11
192.0468663356
 21
264.0633902553
  0
LINE
  5
273
100
AcDbEntity
  8
0
100
AcDbLine
 62
7
  6
CONTINUOUS
 10
187.8094242727
 20
272.9431896518
 11
186.59803342
 21
272.4439674214
  0
LINE
  5
274
100
AcDbEntity
  8
0
100
AcDbLine
 62
7
  6
CONTINUOUS
 10
190.7749691402
 20
239.8129861742
 11
210.2494549703
 21
239.8129861742
  0
LINE
  5
275
100
AcDbEntity
  8
0
100
AcDbLine
 62
7
  6
CONTINUOUS
 10
260.063689169
 20
239.8129861742
 11
279.5381749992
 21
239.8129861742
  0
LINE
  5
276
100
AcDbEntity
  8
0
100
AcDbLine
 62
7
  6
CONTINUOUS
 10
210.2342315519
 20
240.0629861742
 11
210.4375277112
 21
240.0629861742
  0
LINE
  5
277
100
AcDbEntity
  8
RUNDUNGEN
100
AcDbLine
 62
7
  6
CONTINUOUS
 10
210.4375277112
 20
240.0629861742
 11
259.8756164282
 21
240.0629861742
  0
LINE
  5
278
100
AcDbEntity
  8
0
100
AcDbLine
 62
7
  6
CONTINUOUS
 10
259.8756164282
 20
240.0629861742
 11
260.0789125874
 21
240.0629861742
  0
LINE
  5
279
100
AcDbEntity
  8
0
100
AcDbLine
 62
7
  6
CONTINUOUS
 10
271.6565720697
 20
240.3129861742
 11
198.6565720697
 21
240.3129861742
  0
LINE
  5
27A
100
AcDbEntity
  8
RUNDUNGEN
100
AcDbLine
 62
7
  6
CONTINUOUS
 10
280.8852708727
 20
244.1129861742
 11
277.3580056896
 21
244.1129861742
  0
LINE
  5
27B
100
AcDbEntity
  8
RUNDUNGEN
100
AcDbLine
 62
7
  6
CONTINUOUS
 10
192.9551383899
 20
244.1129861742
 11
189.4278732666
 21
244.1129861742
  0
LINE
  5
27C
100
AcDbEntity
  8
0
100
AcDbLine
 62
7
  6
CONTINUOUS
 10
186.5002300166
 20
264.0798988866
 11
189.7552370816
 21
262.7647906671
  0
LINE
  5
27D
100
AcDbEntity
  8
0
100
AcDbLine
 62
7
  6
CONTINUOUS
 10
185.5010746631
 20
264.7307485364
 11
186.5002300166
 21
264.0798988866
  0
LINE
  5
27E
100
AcDbEntity
  8
0
100
AcDbLine
 62
7
  6
CONTINUOUS
 10
187.0153140826
 20
265.3547766866
 11
186.2331597877
 21
265.9179522177
  0
LINE
  5
27F
100
AcDbEntity
  8
0
100
AcDbLine
 62
7
  6
CONTINUOUS
 10
193.4562012472
 20
269.4259230748
 11
194.0213550914
 21
268.9504214168
  0
LINE
  5
280
100
AcDbEntity
  8
0
100
AcDbLine
 62
7
  6
CONTINUOUS
 10
194.6700205945
 20
280.5522271255
 11
194.0595608245
 21
281.540361518
  0
LINE
  5
281
100
AcDbEntity
  8
BEZUGSACHSEN
100
AcDbLine
 62
7
  6
CONTINUOUS
 10
220.1565720697
 20
179.8129861742
 11
220.1565720697
 21
141.3129861742
  0
LINE
  5
282
100
AcDbEntity
  8
BEZUGSACHSEN
100
AcDbLine
 62
7
  6
CONTINUOUS
 10
221.8775158783
 20
248.8129861742
 11
221.8775158783
 21
264.9587090322
  0
LINE
  5
283
100
AcDbEntity
  8
KONSTRUKTIONSELEMENTE
100
AcDbLine
 62
7
  6
CONTINUOUS
 10
221.9414318225
 20
267.0129861742
 11
221.9414318225
 21
267.2129861742
  0
LINE
  5
284
100
AcDbEntity
  8
KONSTRUKTIONSELEMENTE
100
AcDbLine
 62
7
  6
CONTINUOUS
 10
222.0776901244
 20
267.0129861742
 11
222.0776901244
 21
267.2129861742
  0
LINE
  5
285
100
AcDbEntity
  8
KONSTRUKTIONSELEMENTE
100
AcDbLine
 62
7
  6
CONTINUOUS
 10
222.6454330272
 20
267.0129861742
 11
222.6454330272
 21
267.2129861742
  0
LINE
  5
286
100
AcDbEntity
  8
KONSTRUKTIONSELEMENTE
100
AcDbLine
 62
7
  6
CONTINUOUS
 10
222.8044010893
 20
267.0129861742
 11
222.8044010893
 21
267.2129861742
  0
LINE
  5
287
100
AcDbEntity
  8
KONSTRUKTIONSELEMENTE
100
AcDbLine
 62
7
  6
CONTINUOUS
 10
223.4349309968
 20
267.0129861742
 11
223.4349309968
 21
267.2129861742
  0
LINE
  5
288
100
AcDbEntity
  8
KONSTRUKTIONSELEMENTE
100
AcDbLine
 62
7
  6
CONTINUOUS
 10
223.9320486785
 20
267.0129861742
 11
223.9320486785
 21
267.2129861742
  0
LINE
  5
289
100
AcDbEntity
  8
KONSTRUKTIONSELEMENTE
100
AcDbLine
 62
7
  6
CONTINUOUS
 10
224.3970845435
 20
267.0129861742
 11
224.3970845435
 21
267.2129861742
  0
LINE
  5
28A
100
AcDbEntity
  8
KONSTRUKTIONSELEMENTE
100
AcDbLine
 62
7
  6
CONTINUOUS
 10
224.6857209946
 20
267.0129861742
 11
224.6857209946
 21
267.2129861742
  0
LINE
  5
28B
100
AcDbEntity
  8
KONSTRUKTIONSELEMENTE
100
AcDbLine
 62
7
  6
CONTINUOUS
 10
224.9422756381
 20
267.0129861742
 11
224.9422756381
 21
267.2129861742
  0
LINE
  5
28C
100
AcDbEntity
  8
KONSTRUKTIONSELEMENTE
100
AcDbLine
 62
7
  6
CONTINUOUS
 10
225.0224308586
 20
267.0129861742
 11
225.0224308586
 21
267.2129861742
  0
LINE
  5
28D
100
AcDbEntity
  8
KONSTRUKTIONSELEMENTE
100
AcDbLine
 62
7
  6
CONTINUOUS
 10
226.5970188238
 20
267.0129861742
 11
226.5970188238
 21
267.2129861742
  0
LINE
  5
28E
100
AcDbEntity
  8
BEZUGSACHSEN
100
AcDbLine
 62
7
  6
CONTINUOUS
 10
208.598459687
 20
264.9587090322
 11
212.1565720697
 21
267.0129861742
  0
LINE
  5
28F
100
AcDbEntity
  8
0
100
AcDbLine
 62
7
  6
CONTINUOUS
 10
191.9657833231
 20
262.6131646477
 11
193.1771747431
 21
263.1123880631
  0
LINE
  5
290
100
AcDbEntity
  8
0
100
AcDbLine
 62
7
  6
CONTINUOUS
 10
271.6565720697
 20
248.3129861742
 11
198.6565720697
 21
248.3129861742
  0
LINE
  5
291
100
AcDbEntity
  8
KONSTRUKTIONSELEMENTE
100
AcDbLine
 62
7
  6
CONTINUOUS
 10
208.598459687
 20
248.8129861742
 11
261.7146844524
 21
248.8129861742
  0
LINE
  5
292
100
AcDbEntity
  8
0
100
AcDbLine
 62
7
  6
CONTINUOUS
 10
189.0779866867
 20
258.5894617745
 11
192.0253816948
 21
258.3872935051
  0
LINE
  5
293
100
AcDbEntity
  8
0
100
AcDbLine
 62
7
  6
CONTINUOUS
 10
181.4924983179
 20
259.1825557748
 11
188.1241376213
 21
258.7276778363
  0
LINE
  5
294
100
AcDbEntity
  8
0
100
AcDbLine
 62
7
  6
CONTINUOUS
 10
189.7552370816
 20
262.7647906671
 11
190.9260868433
 21
262.5389013401
  0
LINE
  5
295
100
AcDbEntity
  8
0
100
AcDbLine
 62
7
  6
CONTINUOUS
 10
190.2703211475
 20
264.0396684671
 11
187.0153140826
 21
265.3547766866
  0
LINE
  5
296
100
AcDbEntity
  8
0
100
AcDbLine
 62
7
  6
CONTINUOUS
 10
194.9704402107
 20
270.0499514092
 11
193.9712853132
 21
270.7008008748
  0
LINE
  5
297
100
AcDbEntity
  8
0
100
AcDbLine
 62
7
  6
CONTINUOUS
 10
192.7623219725
 20
280.8286580332
 11
193.3274763078
 21
280.3531575911
  0
LINE
  5
298
100
AcDbEntity
  8
0
100
AcDbLine
 62
7
  6
CONTINUOUS
 10
194.0595608245
 20
281.540361518
 11
193.4944064892
 21
282.0158619601
  0
LINE
  5
299
100
AcDbEntity
  8
KONSTRUKTIONSELEMENTE
100
AcDbLine
 62
7
  6
CONTINUOUS
 10
229.2106937793
 20
267.0129861742
 11
229.2106937793
 21
267.2129861742
  0
LINE
  5
29A
100
AcDbEntity
  8
KONSTRUKTIONSELEMENTE
100
AcDbLine
 62
7
  6
CONTINUOUS
 10
229.6925437798
 20
267.0129861742
 11
229.6925437798
 21
267.2129861742
  0
LINE
  5
29B
100
AcDbEntity
  8
KONSTRUKTIONSELEMENTE
100
AcDbLine
 62
7
  6
CONTINUOUS
 10
230.0028237902
 20
267.0129861742
 11
230.0028237902
 21
267.2129861742
  0
LINE
  5
29C
100
AcDbEntity
  8
KONSTRUKTIONSELEMENTE
100
AcDbLine
 62
7
  6
CONTINUOUS
 10
230.1877717447
 20
267.0129861742
 11
230.1877717447
 21
267.2129861742
  0
LWPOLYLINE
  5
29D
100
AcDbEntity
  8
RUNDUNGEN
100
AcDbPolyline
 62
7
  6
CONTINUOUS
 90
13
 70
0
 10
193.1657027864
 20
192.3349602723
 10
193.2573853221
 20
192.525196348
 10
193.3686157278
 20
192.7047052805
 10
193.4981540154
 20
192.87148563
 10
193.644556153
 20
193.0236779462
 10
193.8061901106
 20
193.1595853762
 10
193.9812538956
 20
193.2776924828
 10
194.1677957712
 20
193.3766823019
 10
194.363736035
 20
193.4554510207
 10
194.5668901626
 20
193.5131202567
 10
194.7749931694
 20
193.5490468617
 10
194.9857248627
 20
193.5628300973
 10
195.0107111716
 20
193.5629861823
  0
LINE
  5
29E
100
AcDbEntity
  8
0
100
AcDbLine
 62
7
  6
CONTINUOUS
 10
190.9260868433
 20
262.5389013401
 11
191.9657833231
 21
262.6131646477
  0
LINE
  5
29F
100
AcDbEntity
  8
0
100
AcDbLine
 62
7
  6
CONTINUOUS
 10
277.3409473423
 20
265.5031790177
 11
278.5970313756
 21
265.5446581783
  0
LINE
  5
2A0
100
AcDbEntity
  8
0
100
AcDbLine
 62
7
  6
CONTINUOUS
 10
192.5404657608
 20
259.6621713051
 11
180.9678859332
 21
260.3831699019
  0
LINE
  5
2A1
100
AcDbEntity
  8
0
100
AcDbLine
 62
7
  6
CONTINUOUS
 10
191.2241704585
 20
263.9014530133
 11
190.2703211475
 21
264.0396684671
  0
LINE
  5
2A2
100
AcDbEntity
  8
0
100
AcDbLine
 62
7
  6
CONTINUOUS
 10
188.9802746424
 20
272.7173000792
 11
187.8094242727
 21
272.9431896518
  0
LINE
  5
2A3
100
AcDbEntity
  8
0
100
AcDbLine
 62
7
  6
CONTINUOUS
 10
187.0630472165
 20
275.4692234636
 11
197.2620696168
 21
271.3485509361
  0
LINE
  5
2A4
100
AcDbEntity
  8
0
100
AcDbLine
 62
7
  6
CONTINUOUS
 10
197.7771541739
 20
272.6234299519
 11
193.2201441006
 21
274.4645815329
  0
LINE
  5
2A5
100
AcDbEntity
  8
0
100
AcDbLine
 62
7
  6
CONTINUOUS
 10
191.9181413963
 20
274.9906247716
 11
188.6631340274
 21
276.3057331139
  0
LINE
  5
2A6
100
AcDbEntity
  8
0
100
AcDbLine
 62
7
  6
CONTINUOUS
 10
192.1113200124
 20
281.0916798981
 11
192.7623219725
 21
280.8286580332
  0
LINE
  5
2A7
100
AcDbEntity
  8
0
100
AcDbLine
 62
7
  6
CONTINUOUS
 10
193.4944064892
 20
282.0158619601
 11
192.6264040783
 21
282.3665576982
  0
LINE
  5
2A8
100
AcDbEntity
  8
KONSTRUKTIONSELEMENTE
100
AcDbLine
 62
7
  6
CONTINUOUS
 10
238.0894100815
 20
267.0129861742
 11
238.0894100815
 21
267.2129861742
  0
LINE
  5
2A9
100
AcDbEntity
  8
KONSTRUKTIONSELEMENTE
100
AcDbLine
 62
7
  6
CONTINUOUS
 10
238.7652553031
 20
267.0129861742
 11
238.7652553031
 21
267.2129861742
  0
LINE
  5
2AA
100
AcDbEntity
  8
KONSTRUKTIONSELEMENTE
100
AcDbLine
 62
7
  6
CONTINUOUS
 10
240.3422266275
 20
267.0129861742
 11
240.3422266275
 21
267.2129861742
  0
LINE
  5
2AB
100
AcDbEntity
  8
KONSTRUKTIONSELEMENTE
100
AcDbLine
 62
7
  6
CONTINUOUS
 10
241.2433553085
 20
267.0129861742
 11
241.2433553085
 21
267.2129861742
  0
LINE
  5
2AC
100
AcDbEntity
  8
KONSTRUKTIONSELEMENTE
100
AcDbLine
 62
7
  6
CONTINUOUS
 10
242.8203266329
 20
267.0129861742
 11
242.8203266329
 21
267.2129861742
  0
LINE
  5
2AD
100
AcDbEntity
  8
KONSTRUKTIONSELEMENTE
100
AcDbLine
 62
7
  6
CONTINUOUS
 10
243.4961718545
 20
267.0129861742
 11
243.4961718545
 21
267.2129861742
  0
LINE
  5
2AE
100
AcDbEntity
  8
KONSTRUKTIONSELEMENTE
100
AcDbLine
 62
7
  6
CONTINUOUS
 10
244.9606713685
 20
267.0129861742
 11
244.9606713685
 21
267.2129861742
  0
LINE
  5
2AF
100
AcDbEntity
  8
KONSTRUKTIONSELEMENTE
100
AcDbLine
 62
7
  6
CONTINUOUS
 10
244.9805511383
 20
267.0129861742
 11
244.9805511383
 21
267.2129861742
  0
LINE
  5
2B0
100
AcDbEntity
  8
KONSTRUKTIONSELEMENTE
100
AcDbLine
 62
7
  6
CONTINUOUS
 10
245.0752405131
 20
267.0129861742
 11
245.0752405131
 21
267.2129861742
  0
LINE
  5
2B1
100
AcDbEntity
  8
KONSTRUKTIONSELEMENTE
100
AcDbLine
 62
7
  6
CONTINUOUS
 10
245.2722035411
 20
267.0129861742
 11
245.2722035411
 21
267.2129861742
  0
LINE
  5
2B2
100
AcDbEntity
  8
KONSTRUKTIONSELEMENTE
100
AcDbLine
 62
7
  6
CONTINUOUS
 10
245.8706751732
 20
267.0129861742
 11
245.8706751732
 21
267.2129861742
  0
LINE
  5
2B3
100
AcDbEntity
  8
0
100
AcDbLine
 62
7
  6
CONTINUOUS
 10
275.9813895497
 20
273.4004777391
 11
275.3364261139
 21
273.122979452
  0
LINE
  5
2B4
100
AcDbEntity
  8
0
100
AcDbLine
 62
7
  6
CONTINUOUS
 10
280.3717184603
 20
275.0399575185
 11
279.7267550246
 21
274.7624592315
  0
LINE
  5
2B5
100
AcDbEntity
  8
0
100
AcDbLine
 62
7
  6
CONTINUOUS
 10
275.789287945
 20
272.0704348558
 11
276.4342513808
 21
272.3479331428
  0
LINE
  5
2B6
100
AcDbEntity
  8
0
100
AcDbLine
 62
7
  6
CONTINUOUS
 10
280.3946046757
 20
273.8024140454
 11
280.8245802995
 21
273.9874129035
  0
LINE
  5
2B7
100
AcDbEntity
  8
0
100
AcDbLine
 62
7
  6
CONTINUOUS
 10
192.0468663356
 20
264.0633902553
 11
191.2241704585
 21
263.9014530133
  0
LINE
  5
2B8
100
AcDbEntity
  8
0
100
AcDbLine
 62
7
  6
CONTINUOUS
 10
277.2374736526
 20
273.4419571527
 11
275.9813895497
 21
273.4004777391
  0
LINE
  5
2B9
100
AcDbEntity
  8
0
100
AcDbLine
 62
7
  6
CONTINUOUS
 10
281.6278028563
 20
275.0814370805
 11
280.3717184603
 21
275.0399575185
  0
LINE
  5
2BA
100
AcDbEntity
  8
BEZUGSACHSEN
100
AcDbLine
 62
7
  6
CONTINUOUS
 10
212.1568590432
 20
267.0129861742
 11
258.1562850962
 21
267.0129861742
  0
LINE
  5
2BB
100
AcDbEntity
  8
KONSTRUKTIONSELEMENTE
100
AcDbLine
 62
7
  6
CONTINUOUS
 10
216.0412830777
 20
267.2129861742
 11
230.1877717447
 21
267.2129861742
  0
LINE
  5
2BC
100
AcDbEntity
  8
KONSTRUKTIONSELEMENTE
100
AcDbLine
 62
7
  6
CONTINUOUS
 10
238.0894100815
 20
267.2129861742
 11
253.7427195613
 21
267.2129861742
  0
LINE
  5
2BD
100
AcDbEntity
  8
0
100
AcDbLine
 62
7
  6
CONTINUOUS
 10
284.8178975723
 20
270.3653251297
 11
283.6468624541
 21
270.3653251297
  0
LINE
  5
2BE
100
AcDbEntity
  8
0
100
AcDbLine
 62
7
  6
CONTINUOUS
 10
280.0899243186
 20
270.3653251297
 11
279.0707799651
 21
270.3653251297
  0
LINE
  5
2BF
100
AcDbEntity
  8
0
100
AcDbLine
 62
7
  6
CONTINUOUS
 10
275.1546842764
 20
270.3653251297
 11
273.9299911942
 21
270.3653251297
  0
LINE
  5
2C0
100
AcDbEntity
  8
0
100
AcDbLine
 62
7
  6
CONTINUOUS
 10
194.486292625
 20
270.3653251297
 11
193.835744314
 21
270.3653251297
  0
LINE
  5
2C1
100
AcDbEntity
  8
0
100
AcDbLine
 62
7
  6
CONTINUOUS
 10
186.547498048
 20
270.3653251297
 11
185.0009384356
 21
270.3653251297
  0
LINE
  5
2C2
100
AcDbEntity
  8
RUNDUNGEN
100
AcDbLine
 62
7
  6
CONTINUOUS
 10
254.6201706549
 20
273.3129861742
 11
215.6929734845
 21
273.3129861742
  0
LINE
  5
2C3
100
AcDbEntity
  8
0
100
AcDbLine
 62
7
  6
CONTINUOUS
 10
281.7651195623
 20
267.656175945
 11
282.8062156332
 21
267.6051556118
  0
LINE
  5
2C4
100
AcDbEntity
  8
0
100
AcDbLine
 62
7
  6
CONTINUOUS
 10
187.7283411083
 20
271.4929641055
 11
188.4651905764
 21
271.4424222792
  0
LINE
  5
2C5
100
AcDbEntity
  8
KONSTRUKTIONSELEMENTE
100
AcDbLine
 62
7
  6
CONTINUOUS
 10
246.2721854896
 20
267.0129861742
 11
246.2721854896
 21
267.2129861742
  0
LINE
  5
2C6
100
AcDbEntity
  8
KONSTRUKTIONSELEMENTE
100
AcDbLine
 62
7
  6
CONTINUOUS
 10
246.7759677469
 20
267.0129861742
 11
246.7759677469
 21
267.2129861742
  0
LINE
  5
2C7
100
AcDbEntity
  8
KONSTRUKTIONSELEMENTE
100
AcDbLine
 62
7
  6
CONTINUOUS
 10
247.2049421293
 20
267.0129861742
 11
247.2049421293
 21
267.2129861742
  0
LINE
  5
2C8
100
AcDbEntity
  8
KONSTRUKTIONSELEMENTE
100
AcDbLine
 62
7
  6
CONTINUOUS
 10
247.6613822273
 20
267.0129861742
 11
247.6613822273
 21
267.2129861742
  0
LINE
  5
2C9
100
AcDbEntity
  8
KONSTRUKTIONSELEMENTE
100
AcDbLine
 62
7
  6
CONTINUOUS
 10
247.8094742436
 20
267.0129861742
 11
247.8094742436
 21
267.2129861742
  0
LINE
  5
2CA
100
AcDbEntity
  8
KONSTRUKTIONSELEMENTE
100
AcDbLine
 62
7
  6
CONTINUOUS
 10
247.8474359919
 20
267.0129861742
 11
247.8474359919
 21
267.2129861742
  0
LINE
  5
2CB
100
AcDbEntity
  8
KONSTRUKTIONSELEMENTE
100
AcDbLine
 62
7
  6
CONTINUOUS
 10
248.1346454688
 20
267.0129861742
 11
248.1346454688
 21
267.2129861742
  0
LINE
  5
2CC
100
AcDbEntity
  8
BEZUGSACHSEN
100
AcDbLine
 62
7
  6
CONTINUOUS
 10
248.435628261
 20
248.8129861742
 11
248.435628261
 21
264.9587090322
  0
LINE
  5
2CD
100
AcDbEntity
  8
KONSTRUKTIONSELEMENTE
100
AcDbLine
 62
7
  6
CONTINUOUS
 10
248.6440048657
 20
267.0129861742
 11
248.6440048657
 21
267.2129861742
  0
LINE
  5
2CE
100
AcDbEntity
  8
KONSTRUKTIONSELEMENTE
100
AcDbLine
 62
7
  6
CONTINUOUS
 10
249.099169276
 20
267.0129861742
 11
249.099169276
 21
267.2129861742
  0
LINE
  5
2CF
100
AcDbEntity
  8
KONSTRUKTIONSELEMENTE
100
AcDbLine
 62
7
  6
CONTINUOUS
 10
249.6518597745
 20
267.0129861742
 11
249.6518597745
 21
267.2129861742
  0
LINE
  5
2D0
100
AcDbEntity
  8
KONSTRUKTIONSELEMENTE
100
AcDbLine
 62
7
  6
CONTINUOUS
 10
250.0528291437
 20
267.0129861742
 11
250.0528291437
 21
267.2129861742
  0
LINE
  5
2D1
100
AcDbEntity
  8
BEZUGSACHSEN
100
AcDbLine
 62
7
  6
CONTINUOUS
 10
250.1565720697
 20
179.8129861742
 11
250.1565720697
 21
141.3129861742
  0
LINE
  5
2D2
100
AcDbEntity
  8
KONSTRUKTIONSELEMENTE
100
AcDbLine
 62
7
  6
CONTINUOUS
 10
250.7030463943
 20
267.0129861742
 11
250.7030463943
 21
267.2129861742
  0
LINE
  5
2D3
100
AcDbEntity
  8
KONSTRUKTIONSELEMENTE
100
AcDbLine
 62
7
  6
CONTINUOUS
 10
251.8246610753
 20
267.0129861742
 11
251.8246610753
 21
267.2129861742
  0
LINE
  5
2D4
100
AcDbEntity
  8
KONSTRUKTIONSELEMENTE
100
AcDbLine
 62
7
  6
CONTINUOUS
 10
252.4206825337
 20
267.0129861742
 11
252.4206825337
 21
267.2129861742
  0
LINE
  5
2D5
100
AcDbEntity
  8
KONSTRUKTIONSELEMENTE
100
AcDbLine
 62
7
  6
CONTINUOUS
 10
252.7674566343
 20
267.0129861742
 11
252.7674566343
 21
267.2129861742
  0
LINE
  5
2D6
100
AcDbEntity
  8
KONSTRUKTIONSELEMENTE
100
AcDbLine
 62
7
  6
CONTINUOUS
 10
253.2117570507
 20
267.0129861742
 11
253.2117570507
 21
267.2129861742
  0
LINE
  5
2D7
100
AcDbEntity
  8
KONSTRUKTIONSELEMENTE
100
AcDbLine
 62
7
  6
CONTINUOUS
 10
253.5043358047
 20
267.0129861742
 11
253.5043358047
 21
267.2129861742
  0
LINE
  5
2D8
100
AcDbEntity
  8
KONSTRUKTIONSELEMENTE
100
AcDbLine
 62
7
  6
CONTINUOUS
 10
253.7427195613
 20
267.0129861742
 11
253.7427195613
 21
267.2129861742
  0
LINE
  5
2D9
100
AcDbEntity
  8
0
100
AcDbLine
 62
7
  6
CONTINUOUS
 10
255.5315720697
 20
240.3129861742
 11
255.5315720697
 21
240.0629861742
  0
LINE
  5
2DA
100
AcDbEntity
  8
0
100
AcDbLine
 62
7
  6
CONTINUOUS
 10
255.5315720697
 20
193.0629861742
 11
255.5315720697
 21
192.8129861742
  0
LINE
  5
2DB
100
AcDbEntity
  8
0
100
AcDbLine
 62
7
  6
CONTINUOUS
 10
282.9983171407
 20
268.935198721
 11
282.5683415168
 21
268.7501998629
  0
LINE
  5
2DC
100
AcDbEntity
  8
0
100
AcDbLine
 62
7
  6
CONTINUOUS
 10
278.7891328831
 20
266.8747012875
 11
278.1441694473
 21
266.5972030004
  0
LINE
  5
2DD
100
AcDbEntity
  8
0
100
AcDbLine
 62
7
  6
CONTINUOUS
 10
282.8062156332
 20
267.6051556118
 11
283.4511790689
 21
267.8826538989
  0
LINE
  5
2DE
100
AcDbEntity
  8
0
100
AcDbLine
 62
7
  6
CONTINUOUS
 10
278.5970313756
 20
265.5446581783
 11
279.2419948114
 21
265.8221564654
  0
LINE
  5
2DF
100
AcDbEntity
  8
0
100
AcDbLine
 62
7
  6
CONTINUOUS
 10
283.6213669486
 20
265.7105752934
 11
282.7614157009
 21
265.3405775773
  0
LINE
  5
2E0
100
AcDbEntity
  8
0
100
AcDbLine
 62
7
  6
CONTINUOUS
 10
286.0658490797
 20
264.7664993898
 11
284.345945982
 21
264.0265036985
  0
LINE
  5
2E1
100
AcDbEntity
  8
0
100
AcDbLine
 62
7
  6
CONTINUOUS
 10
283.4859947343
 20
263.6565059824
 11
279.1862380442
 21
261.8065172076
  0
LINE
  5
2E2
100
AcDbEntity
  8
0
100
AcDbLine
 62
7
  6
CONTINUOUS
 10
191.3744716433
 20
281.1422226947
 11
192.1113200124
 21
281.0916798981
  0
LINE
  5
2E3
100
AcDbEntity
  8
0
100
AcDbLine
 62
7
  6
CONTINUOUS
 10
192.6264040783
 20
282.3665576982
 11
191.8895557093
 21
282.4171004947
  0
LINE
  5
2E4
100
AcDbEntity
  8
0
100
AcDbLine
 62
7
  6
CONTINUOUS
 10
282.5683415168
 20
268.7501998629
 11
281.7422332579
 21
268.8937196252
  0
LINE
  5
2E5
100
AcDbEntity
  8
0
100
AcDbLine
 62
7
  6
CONTINUOUS
 10
280.8245802995
 20
273.9874129035
 11
281.6506890959
 21
273.8438935509
  0
LINE
  5
2E6
100
AcDbEntity
  8
0
100
AcDbLine
 62
7
  6
CONTINUOUS
 10
278.1441694473
 20
266.5972030004
 11
277.0125009439
 21
266.8587319924
  0
LINE
  5
2E7
100
AcDbEntity
  8
0
100
AcDbLine
 62
7
  6
CONTINUOUS
 10
276.4342513808
 20
272.3479331428
 11
277.5659200671
 21
272.0864041404
  0
LINE
  5
2E8
100
AcDbEntity
  8
0
100
AcDbLine
 62
7
  6
CONTINUOUS
 10
276.4242667261
 20
265.8572074711
 11
277.3409473423
 21
265.5031790177
  0
LINE
  5
2E9
100
AcDbEntity
  8
0
100
AcDbLine
 62
7
  6
CONTINUOUS
 10
280.8484390214
 20
268.0102044308
 11
281.7651195623
 21
267.656175945
  0
LINE
  5
2EA
100
AcDbEntity
  8
BEZUGSACHSEN
100
AcDbLine
 62
7
  6
CONTINUOUS
 10
261.7146844524
 20
264.9587090322
 11
258.1565720697
 21
267.0129861742
  0
LINE
  5
2EB
100
AcDbEntity
  8
KONSTRUKTIONSELEMENTE
100
AcDbLine
 62
7
  6
CONTINUOUS
 10
256.5065720697
 20
248.3129861742
 11
256.5065720697
 21
248.8129861742
  0
LINE
  5
2EC
100
AcDbEntity
  8
BEZUGSACHSEN
100
AcDbLine
 62
7
  6
CONTINUOUS
 10
256.5065720697
 20
248.3129861742
 11
256.5065720697
 21
248.8129861742
  0
LINE
  5
2ED
100
AcDbEntity
  8
BEZUGSACHSEN
100
AcDbLine
 62
7
  6
CONTINUOUS
 10
261.7146844524
 20
248.8129861742
 11
261.7146844524
 21
264.9587090322
  0
LINE
  5
2EE
100
AcDbEntity
  8
0
100
AcDbLine
 62
7
  6
CONTINUOUS
 10
279.7267550246
 20
274.7624592315
 11
279.0479485109
 21
273.9714436731
  0
LINE
  5
2EF
100
AcDbEntity
  8
0
100
AcDbLine
 62
7
  6
CONTINUOUS
 10
275.3364261139
 20
273.122979452
 11
274.4426316459
 21
272.2394643811
  0
LINE
  5
2F0
100
AcDbEntity
  8
0
100
AcDbLine
 62
7
  6
CONTINUOUS
 10
279.2419948114
 20
265.8221564654
 11
280.135789349
 21
266.7056717894
  0
LINE
  5
2F1
100
AcDbEntity
  8
0
100
AcDbLine
 62
7
  6
CONTINUOUS
 10
280.0690754877
 20
260.9389719106
 11
283.9388564035
 21
262.6039617626
  0
LINE
  5
2F2
100
AcDbEntity
  8
0
100
AcDbLine
 62
7
  6
CONTINUOUS
 10
284.7988076512
 20
262.9739594786
 11
286.5187107488
 21
263.7139551699
  0
LINE
  5
2F3
100
AcDbEntity
  8
0
100
AcDbLine
 62
7
  6
CONTINUOUS
 10
278.7343483828
 20
258.1193971724
 11
279.5942997057
 21
258.4893949209
  0
LINE
  5
2F4
100
AcDbEntity
  8
0
100
AcDbLine
 62
7
  6
CONTINUOUS
 10
284.9351522829
 20
260.2883639971
 11
285.7951035306
 21
260.6583617132
  0
LINE
  5
2F5
100
AcDbEntity
  8
0
100
AcDbLine
 62
7
  6
CONTINUOUS
 10
191.8895557093
 20
282.4171004947
 11
190.7640118734
 21
282.1303570872
  0
LINE
  5
2F6
100
AcDbEntity
  8
0
100
AcDbLine
 62
7
  6
CONTINUOUS
 10
282.5444833972
 20
274.7274085948
 11
281.6278028563
 21
275.0814370805
  0
LINE
  5
2F7
100
AcDbEntity
  8
0
100
AcDbLine
 62
7
  6
CONTINUOUS
 10
281.7422332579
 20
268.8937196252
 11
280.734980435
 21
269.4582568344
  0
LINE
  5
2F8
100
AcDbEntity
  8
0
100
AcDbLine
 62
7
  6
CONTINUOUS
 10
278.2447265565
 20
272.8774197552
 11
277.2374736526
 21
273.4419571527
  0
LINE
  5
2F9
100
AcDbEntity
  8
0
100
AcDbLine
 62
7
  6
CONTINUOUS
 10
281.6506890959
 20
273.8438935509
 11
282.6579419836
 21
273.2793561911
  0
LINE
  5
2FA
100
AcDbEntity
  8
0
100
AcDbLine
 62
7
  6
CONTINUOUS
 10
275.3264415647
 20
266.6322533796
 11
276.4242667261
 21
265.8572074711
  0
LINE
  5
2FB
100
AcDbEntity
  8
0
100
AcDbLine
 62
7
  6
CONTINUOUS
 10
277.0125009439
 20
266.8587319924
 11
276.2202359329
 21
267.5157686306
  0
LINE
  5
2FC
100
AcDbEntity
  8
RUNDUNGEN
100
AcDbLine
 62
7
  6
CONTINUOUS
 10
273.4526571155
 20
251.7429539568
 11
268.5279301787
 21
263.9320808548
  0
LINE
  5
2FD
100
AcDbEntity
  8
0
100
AcDbLine
 62
7
  6
CONTINUOUS
 10
266.2411342155
 20
239.8129861742
 11
266.2411342155
 21
236.8129861742
  0
LINE
  5
2FE
100
AcDbEntity
  8
0
100
AcDbLine
 62
7
  6
CONTINUOUS
 10
268.4136497998
 20
236.8129861742
 11
268.4136497998
 21
239.8129861742
  0
LINE
  5
2FF
100
AcDbEntity
  8
0
100
AcDbLine
 62
7
  6
CONTINUOUS
 10
271.6565720697
 20
248.3129861742
 11
271.6565720697
 21
240.3129861742
  0
LINE
  5
300
100
AcDbEntity
  8
0
100
AcDbLine
 62
7
  6
CONTINUOUS
 10
272.6565720697
 20
192.8129861742
 11
272.6565720697
 21
179.8129861742
  0
LINE
  5
301
100
AcDbEntity
  8
RUNDUNGEN
100
AcDbLine
 62
7
  6
CONTINUOUS
 10
274.6565720697
 20
233.8129861742
 11
274.6565720697
 21
193.0629861742
  0
LINE
  5
302
100
AcDbEntity
  8
0
100
AcDbLine
 62
7
  6
CONTINUOUS
 10
275.1333675124
 20
270.0418757219
 11
275.2010536843
 21
271.0689102268
  0
LINE
  5
303
100
AcDbEntity
  8
0
100
AcDbLine
 62
7
  6
CONTINUOUS
 10
273.8772835626
 20
270.0003964188
 11
274.0693852238
 21
271.3304393264
  0
LINE
  5
304
100
AcDbEntity
  8
0
100
AcDbLine
 62
7
  6
CONTINUOUS
 10
274.4426316459
 20
272.2394643811
 11
274.0693852238
 21
271.3304393264
  0
LINE
  5
305
100
AcDbEntity
  8
0
100
AcDbLine
 62
7
  6
CONTINUOUS
 10
279.0479485109
 20
273.9714436731
 11
278.6747021803
 21
273.0624186132
  0
LINE
  5
306
100
AcDbEntity
  8
0
100
AcDbLine
 62
7
  6
CONTINUOUS
 10
275.2010536843
 20
271.0689102268
 11
275.789287945
 21
272.0704348558
  0
LINE
  5
307
100
AcDbEntity
  8
0
100
AcDbLine
 62
7
  6
CONTINUOUS
 10
279.3773673268
 20
267.8762259059
 11
278.7891328831
 21
266.8747012875
  0
LINE
  5
308
100
AcDbEntity
  8
0
100
AcDbLine
 62
7
  6
CONTINUOUS
 10
279.9307859983
 20
273.1038978596
 11
280.3946046757
 21
273.8024140454
  0
LINE
  5
309
100
AcDbEntity
  8
0
100
AcDbLine
 62
7
  6
CONTINUOUS
 10
283.4621363556
 20
269.6337153165
 11
282.9983171407
 21
268.935198721
  0
LINE
  5
30A
100
AcDbEntity
  8
0
100
AcDbLine
 62
7
  6
CONTINUOUS
 10
279.1862380442
 20
261.8065172076
 11
278.5074312852
 21
261.0155020121
  0
LINE
  5
30B
100
AcDbEntity
  8
0
100
AcDbLine
 62
7
  6
CONTINUOUS
 10
283.4511790689
 20
267.8826538989
 11
284.3449739077
 21
268.7661693524
  0
LINE
  5
30C
100
AcDbEntity
  8
0
100
AcDbLine
 62
7
  6
CONTINUOUS
 10
279.5146844425
 20
260.450964233
 11
280.0690754877
 21
260.9389719106
  0
LINE
  5
30D
100
AcDbEntity
  8
0
100
AcDbLine
 62
7
  6
CONTINUOUS
 10
283.6423086965
 20
273.9523622103
 11
282.5444833972
 21
274.7274085948
  0
LINE
  5
30E
100
AcDbEntity
  8
0
100
AcDbLine
 62
7
  6
CONTINUOUS
 10
280.4523063864
 20
268.3387230511
 11
280.8484390214
 21
268.0102044308
  0
LINE
  5
30F
100
AcDbEntity
  8
0
100
AcDbLine
 62
7
  6
CONTINUOUS
 10
277.5659200671
 20
272.0864041404
 11
278.3581851429
 21
271.4293673515
  0
LINE
  5
310
100
AcDbEntity
  8
0
100
AcDbLine
 62
7
  6
CONTINUOUS
 10
278.6408591267
 20
272.5489012855
 11
278.2447265565
 21
272.8774197552
  0
LINE
  5
311
100
AcDbEntity
  8
0
100
AcDbLine
 62
7
  6
CONTINUOUS
 10
276.2202359329
 20
267.5157686306
 11
275.6429586043
 21
268.2653049991
  0
LINE
  5
312
100
AcDbEntity
  8
0
100
AcDbLine
 62
7
  6
CONTINUOUS
 10
278.3581851429
 20
271.4293673515
 11
278.9354624715
 21
270.6798309831
  0
LINE
  5
313
100
AcDbEntity
  8
0
100
AcDbLine
 62
7
  6
CONTINUOUS
 10
280.734980435
 20
269.4582568344
 11
280.1577031064
 21
270.2077932029
  0
LINE
  5
314
100
AcDbEntity
  8
0
100
AcDbLine
 62
7
  6
CONTINUOUS
 10
274.6585918057
 20
267.5922987645
 11
275.3264415647
 21
266.6322533796
  0
LINE
  5
315
100
AcDbEntity
  8
0
100
AcDbLine
 62
7
  6
CONTINUOUS
 10
274.1151575954
 20
268.8553523102
 11
274.6585918057
 21
267.5922987645
  0
LINE
  5
316
100
AcDbEntity
  8
0
100
AcDbLine
 62
7
  6
CONTINUOUS
 10
275.6429586043
 20
268.2653049991
 11
275.2806692171
 21
269.1073404954
  0
LINE
  5
317
100
AcDbEntity
  8
0
100
AcDbLine
 62
7
  6
CONTINUOUS
 10
273.8772835626
 20
270.0003964188
 11
274.1151575954
 21
268.8553523102
  0
LINE
  5
318
100
AcDbEntity
  8
0
100
AcDbLine
 62
7
  6
CONTINUOUS
 10
275.2806692171
 20
269.1073404954
 11
275.1333675124
 21
270.0418757219
  0
LINE
  5
319
100
AcDbEntity
  8
0
100
AcDbLine
 62
7
  6
CONTINUOUS
 10
278.3491727288
 20
260.1989763651
 11
278.4059020032
 21
259.4749501552
  0
LINE
  5
31A
100
AcDbEntity
  8
RUNDUNGEN
100
AcDbLine
 62
7
  6
CONTINUOUS
 10
276.6565720697
 20
194.8129861742
 11
276.6565720697
 21
199.2004862897
  0
LINE
  5
31B
100
AcDbEntity
  8
RUNDUNGEN
100
AcDbLine
 62
7
  6
CONTINUOUS
 10
276.6565720697
 20
215.4254856806
 11
276.6565720697
 21
235.2601469109
  0
LINE
  5
31C
100
AcDbEntity
  8
0
100
AcDbLine
 62
7
  6
CONTINUOUS
 10
278.6747021803
 20
273.0624186132
 11
278.6408591267
 21
272.5489012855
  0
LINE
  5
31D
100
AcDbEntity
  8
0
100
AcDbLine
 62
7
  6
CONTINUOUS
 10
279.4450535635
 20
268.9032602603
 11
279.3773673268
 21
267.8762259059
  0
LINE
  5
31E
100
AcDbEntity
  8
0
100
AcDbLine
 62
7
  6
CONTINUOUS
 10
280.4184633976
 20
267.8252055727
 11
280.4523063864
 21
268.3387230511
  0
LINE
  5
31F
100
AcDbEntity
  8
0
100
AcDbLine
 62
7
  6
CONTINUOUS
 10
284.7182202383
 20
269.6751944123
 11
284.9103217458
 21
271.0052375215
  0
LINE
  5
320
100
AcDbEntity
  8
0
100
AcDbLine
 62
7
  6
CONTINUOUS
 10
278.5074312852
 20
261.0155020121
 11
278.3491727288
 21
260.1989763651
  0
LINE
  5
321
100
AcDbEntity
  8
0
100
AcDbLine
 62
7
  6
CONTINUOUS
 10
279.3564259238
 20
259.6344386021
 11
279.5146844425
 21
260.450964233
  0
LINE
  5
322
100
AcDbEntity
  8
0
100
AcDbLine
 62
7
  6
CONTINUOUS
 10
279.6481120144
 20
271.9843639257
 11
279.9307859983
 21
273.1038978596
  0
LINE
  5
323
100
AcDbEntity
  8
0
100
AcDbLine
 62
7
  6
CONTINUOUS
 10
280.135789349
 20
266.7056717894
 11
280.4184633976
 21
267.8252055727
  0
LINE
  5
324
100
AcDbEntity
  8
0
100
AcDbLine
 62
7
  6
CONTINUOUS
 10
283.4621363556
 20
269.6337153165
 11
283.7448104042
 21
270.7532490999
  0
LINE
  5
325
100
AcDbEntity
  8
RUNDUNGEN
100
AcDbLine
 62
7
  6
CONTINUOUS
 10
295.0678419651
 20
327.0696059313
 11
286.6721569079
 21
295.7364827336
  0
LINE
  5
326
100
AcDbEntity
  8
0
100
AcDbLine
 62
7
  6
CONTINUOUS
 10
284.3449739077
 20
268.7661693524
 11
284.7182202383
 21
269.6751944123
  0
LINE
  5
327
100
AcDbEntity
  8
0
100
AcDbLine
 62
7
  6
CONTINUOUS
 10
282.6579419836
 20
273.2793561911
 11
283.2352193123
 21
272.5298198227
  0
LINE
  5
328
100
AcDbEntity
  8
0
100
AcDbLine
 62
7
  6
CONTINUOUS
 10
284.3101583719
 20
272.9923169678
 11
283.6423086965
 21
273.9523622103
  0
LINE
  5
329
100
AcDbEntity
  8
0
100
AcDbLine
 62
7
  6
CONTINUOUS
 10
279.2977518587
 20
269.8377954868
 11
278.9354624715
 21
270.6798309831
  0
LINE
  5
32A
100
AcDbEntity
  8
0
100
AcDbLine
 62
7
  6
CONTINUOUS
 10
280.1577031064
 20
270.2077932029
 11
279.7954137192
 21
271.0498286992
  0
LINE
  5
32B
100
AcDbEntity
  8
0
100
AcDbLine
 62
7
  6
CONTINUOUS
 10
282.7614157009
 20
265.3405775773
 11
283.4859947343
 21
263.6565059824
  0
LINE
  5
32C
100
AcDbEntity
  8
0
100
AcDbLine
 62
7
  6
CONTINUOUS
 10
283.9388564035
 20
262.6039617626
 11
284.9351522829
 21
260.2883639971
  0
LINE
  5
32D
100
AcDbEntity
  8
0
100
AcDbLine
 62
7
  6
CONTINUOUS
 10
285.7951035306
 20
260.6583617132
 11
284.7988076512
 21
262.9739594786
  0
LINE
  5
32E
100
AcDbEntity
  8
0
100
AcDbLine
 62
7
  6
CONTINUOUS
 10
284.345945982
 20
264.0265036985
 11
283.6213669486
 21
265.7105752934
  0
LINE
  5
32F
100
AcDbEntity
  8
0
100
AcDbLine
 62
7
  6
CONTINUOUS
 10
286.5187107488
 20
263.7139551699
 11
286.0658490797
 21
264.7664993898
  0
LINE
  5
330
100
AcDbEntity
  8
0
100
AcDbLine
 62
7
  6
CONTINUOUS
 10
283.2352193123
 20
272.5298198227
 11
283.5975086994
 21
271.6877843263
  0
LINE
  5
331
100
AcDbEntity
  8
0
100
AcDbLine
 62
7
  6
CONTINUOUS
 10
284.672447759
 20
272.1502814714
 11
284.3101583719
 21
272.9923169678
  0
LINE
  5
332
100
AcDbEntity
  8
0
100
AcDbLine
 62
7
  6
CONTINUOUS
 10
278.4059020032
 20
259.4749501552
 11
278.7343483828
 21
258.1193971724
  0
LINE
  5
333
100
AcDbEntity
  8
0
100
AcDbLine
 62
7
  6
CONTINUOUS
 10
279.5942997057
 20
258.4893949209
 11
279.3564259238
 21
259.6344386021
  0
LINE
  5
334
100
AcDbEntity
  8
0
100
AcDbLine
 62
7
  6
CONTINUOUS
 10
284.9103217458
 20
271.0052375215
 11
284.672447759
 21
272.1502814714
  0
LINE
  5
335
100
AcDbEntity
  8
0
100
AcDbLine
 62
7
  6
CONTINUOUS
 10
279.2977518587
 20
269.8377954868
 11
279.4450535635
 21
268.9032602603
  0
LINE
  5
336
100
AcDbEntity
  8
0
100
AcDbLine
 62
7
  6
CONTINUOUS
 10
279.7954137192
 20
271.0498286992
 11
279.6481120144
 21
271.9843639257
  0
LINE
  5
337
100
AcDbEntity
  8
0
100
AcDbLine
 62
7
  6
CONTINUOUS
 10
283.5975086994
 20
271.6877843263
 11
283.7448104042
 21
270.7532490999
  0
LINE
  5
338
100
AcDbEntity
  8
RUNDUNGEN
100
AcDbLine
 62
7
  6
CONTINUOUS
 10
287.1603057516
 20
287.7553196882
 11
307.3891141157
 21
237.6872620459
  0
LINE
  5
339
100
AcDbEntity
  8
RUNDUNGEN
100
AcDbLine
 62
7
  6
CONTINUOUS
 10
307.2269479687
 20
219.104862158
 11
295.8375974693
 21
192.273233839
  0
LINE
  5
33A
100
AcDbEntity
  8
RUNDUNGEN
100
AcDbLine
 62
7
  6
CONTINUOUS
 10
278.503914237
 20
366.7068734099
 11
294.1238587586
 21
336.0510061964
  0
LINE
  5
33B
100
AcDbEntity
  8
BEZUGSACHSEN
100
AcDbLine
 62
7
  6
CONTINUOUS
 10
250.1565720697
 20
141.3129861742
 11
247.1565720697
 21
138.3129861742
  0
LINE
  5
33C
100
AcDbEntity
  8
RUNDUNGEN
100
AcDbLine
 62
7
  6
CONTINUOUS
 10
239.672008234
 20
385.0796726282
 11
271.7926681965
 21
372.749706487
  0
LINE
  5
33D
100
AcDbEntity
  8
BEZUGSACHSEN
100
AcDbLine
 62
7
  6
CONTINUOUS
 10
371.5194924358
 20
138.3129861742
 11
395.5194924358
 21
138.3129861742
  0
LINE
  5
33E
100
AcDbEntity
  8
BEZUGSACHSEN
100
AcDbLine
 62
7
  6
CONTINUOUS
 10
368.5194924358
 20
141.3129861742
 11
398.5194924358
 21
141.3129861742
  0
LINE
  5
33F
100
AcDbEntity
  8
BEZUGSACHSEN
100
AcDbLine
 62
7
  6
CONTINUOUS
 10
371.5194924358
 20
138.3129861742
 11
368.5194924358
 21
141.3129861742
  0
LINE
  5
340
100
AcDbEntity
  8
0
100
AcDbLine
 62
7
  6
CONTINUOUS
 10
346.0194924358
 20
179.8129861742
 11
421.0194924358
 21
179.8129861742
  0
LINE
  5
341
100
AcDbEntity
  8
RUNDUNGEN
100
AcDbLine
 62
7
  6
CONTINUOUS
 10
397.0194924358
 20
188.3129861742
 11
370.0194924358
 21
188.3129861742
  0
LINE
  5
342
100
AcDbEntity
  8
0
100
AcDbLine
 62
7
  6
CONTINUOUS
 10
421.0194924358
 20
192.8129861742
 11
400.5194924358
 21
192.8129861742
  0
LINE
  5
343
100
AcDbEntity
  8
0
100
AcDbLine
 62
7
  6
CONTINUOUS
 10
346.0194924358
 20
192.8129861742
 11
366.5194924358
 21
192.8129861742
  0
LINE
  5
344
100
AcDbEntity
  8
RUNDUNGEN
100
AcDbLine
 62
7
  6
CONTINUOUS
 10
344.0194924358
 20
193.0629861742
 11
366.5194924358
 21
193.0629861742
  0
LINE
  5
345
100
AcDbEntity
  8
RUNDUNGEN
100
AcDbLine
 62
7
  6
CONTINUOUS
 10
400.5194924358
 20
193.0629861742
 11
423.0194924358
 21
193.0629861742
  0
LINE
  5
346
100
AcDbEntity
  8
0
100
AcDbLine
 62
7
  6
CONTINUOUS
 10
344.0194924358
 20
193.0629861742
 11
344.0194924358
 21
237.0629861742
  0
LINE
  5
347
100
AcDbEntity
  8
0
100
AcDbLine
 62
7
  6
CONTINUOUS
 10
400.5194924358
 20
212.7292241804
 11
401.0194924358
 21
212.7292241804
  0
LINE
  5
348
100
AcDbEntity
  8
0
100
AcDbLine
 62
7
  6
CONTINUOUS
 10
346.0194924358
 20
192.8129861742
 11
346.0194924358
 21
179.8129861742
  0
LINE
  5
349
100
AcDbEntity
  8
0
100
AcDbLine
 62
7
  6
CONTINUOUS
 10
347.0194924358
 20
248.3129861742
 11
347.0194924358
 21
240.3129861742
  0
LINE
  5
34A
100
AcDbEntity
  8
0
100
AcDbLine
 62
7
  6
CONTINUOUS
 10
400.5194924358
 20
223.7292241804
 11
401.0194924358
 21
223.7292241804
  0
LINE
  5
34B
100
AcDbEntity
  8
0
100
AcDbLine
 62
7
  6
CONTINUOUS
 10
358.1444924358
 20
236.8129861742
 11
358.1444924358
 21
240.0629861742
  0
LINE
  5
34C
100
AcDbEntity
  8
0
100
AcDbLine
 62
7
  6
CONTINUOUS
 10
358.7894924358
 20
236.8129861742
 11
358.7894924358
 21
239.8129861742
  0
LINE
  5
34D
100
AcDbEntity
  8
BEZUGSACHSEN
100
AcDbLine
 62
7
  6
CONTINUOUS
 10
360.5194924358
 20
248.8129861742
 11
360.5194924358
 21
267.0129861742
  0
LINE
  5
34E
100
AcDbEntity
  8
BEZUGSACHSEN
100
AcDbLine
 62
7
  6
CONTINUOUS
 10
362.1694924358
 20
248.3129861742
 11
362.1694924358
 21
248.8129861742
  0
LINE
  5
34F
100
AcDbEntity
  8
0
100
AcDbLine
 62
7
  6
CONTINUOUS
 10
363.1444924358
 20
240.3129861742
 11
363.1444924358
 21
239.8129861742
  0
LINE
  5
350
100
AcDbEntity
  8
0
100
AcDbLine
 62
7
  6
CONTINUOUS
 10
363.1444924358
 20
193.0629861742
 11
363.1444924358
 21
192.8129861742
  0
LINE
  5
351
100
AcDbEntity
  8
RUNDUNGEN
100
AcDbLine
 62
7
  6
CONTINUOUS
 10
416.7504692182
 20
236.8129861742
 11
400.5194924358
 21
236.8129861742
  0
LINE
  5
352
100
AcDbEntity
  8
RUNDUNGEN
100
AcDbLine
 62
7
  6
CONTINUOUS
 10
366.5194924358
 20
236.8129861742
 11
352.6325887499
 21
236.8129861742
  0
LINE
  5
353
100
AcDbEntity
  8
KONSTRUKTIONSELEMENTE
100
AcDbLine
 62
7
  6
CONTINUOUS
 10
365.097414255
 20
267.0129861742
 11
365.097414255
 21
267.2129861742
  0
LINE
  5
354
100
AcDbEntity
  8
KONSTRUKTIONSELEMENTE
100
AcDbLine
 62
7
  6
CONTINUOUS
 10
366.5021918197
 20
267.0129861742
 11
366.5021918197
 21
267.2129861742
  0
LINE
  5
355
100
AcDbEntity
  8
RUNDUNGEN
100
AcDbLine
 62
7
  6
CONTINUOUS
 10
366.5194924358
 20
191.8129861742
 11
366.5194924358
 21
237.9822091021
  0
LINE
  5
356
100
AcDbEntity
  8
KONSTRUKTIONSELEMENTE
100
AcDbLine
 62
7
  6
CONTINUOUS
 10
366.5251931516
 20
267.0129861742
 11
366.5251931516
 21
267.2129861742
  0
LINE
  5
357
100
AcDbEntity
  8
KONSTRUKTIONSELEMENTE
100
AcDbLine
 62
7
  6
CONTINUOUS
 10
366.7207756396
 20
267.0129861742
 11
366.7207756396
 21
267.2129861742
  0
LINE
  5
358
100
AcDbEntity
  8
KONSTRUKTIONSELEMENTE
100
AcDbLine
 62
7
  6
CONTINUOUS
 10
368.1934274066
 20
267.0129861742
 11
368.1934274066
 21
267.2129861742
  0
LINE
  5
359
100
AcDbEntity
  8
BEZUGSACHSEN
100
AcDbLine
 62
7
  6
CONTINUOUS
 10
368.5194924358
 20
141.3129861742
 11
368.5194924358
 21
179.8129861742
  0
LINE
  5
35A
100
AcDbEntity
  8
0
100
AcDbLine
 62
7
  6
CONTINUOUS
 10
369.0744924358
 20
270.3653251297
 11
369.0744924358
 21
281.2338903462
  0
LINE
  5
35B
100
AcDbEntity
  8
RUNDUNGEN
100
AcDbLine
 62
7
  6
CONTINUOUS
 10
370.0194924358
 20
271.1437663306
 11
370.0194924358
 21
384.9165592544
  0
LINE
  5
35C
100
AcDbEntity
  8
RUNDUNGEN
100
AcDbLine
 62
7
  6
CONTINUOUS
 10
372.5194924358
 20
284.0457727667
 11
372.5194924358
 21
388.3128013779
  0
LINE
  5
35D
100
AcDbEntity
  8
0
100
AcDbLine
 62
7
  6
CONTINUOUS
 10
366.8176720799
 20
250.0539419261
 11
369.0744924358
 21
270.3653251297
  0
LINE
  5
35E
100
AcDbEntity
  8
RUNDUNGEN
100
AcDbLine
 62
7
  6
CONTINUOUS
 10
366.6112364157
 20
239.6386819933
 11
369.9277476157
 21
269.4872827925
  0
LINE
  5
35F
100
AcDbEntity
  8
0
100
AcDbLine
 62
7
  6
CONTINUOUS
 10
400.5539217514
 20
239.8129861742
 11
400.4083813247
 21
239.8129861742
  0
LINE
  5
360
100
AcDbEntity
  8
0
100
AcDbLine
 62
7
  6
CONTINUOUS
 10
366.630603547
 20
239.8129861742
 11
358.7894924358
 21
239.8129861742
  0
LINE
  5
361
100
AcDbEntity
  8
0
100
AcDbLine
 62
7
  6
CONTINUOUS
 10
351.2187316971
 20
240.0629861742
 11
358.1444924358
 21
240.0629861742
  0
LINE
  5
362
100
AcDbEntity
  8
RUNDUNGEN
100
AcDbLine
 62
7
  6
CONTINUOUS
 10
347.0244179182
 20
240.0629861742
 11
358.1444924358
 21
240.0629861742
  0
LINE
  5
363
100
AcDbEntity
  8
RUNDUNGEN
100
AcDbLine
 62
7
  6
CONTINUOUS
 10
363.4615003418
 20
240.0629861742
 11
366.6583813247
 21
240.0629861742
  0
LINE
  5
364
100
AcDbEntity
  8
0
100
AcDbLine
 62
7
  6
CONTINUOUS
 10
363.1444924358
 20
240.0629861742
 11
363.4615003418
 21
240.0629861742
  0
LINE
  5
365
100
AcDbEntity
  8
RUNDUNGEN
100
AcDbLine
 62
7
  6
CONTINUOUS
 10
400.380603547
 20
240.0629861742
 11
420.0171156672
 21
240.0629861742
  0
LINE
  5
366
100
AcDbEntity
  8
0
100
AcDbLine
 62
7
  6
CONTINUOUS
 10
420.0194924358
 20
240.3129861742
 11
400.3528257692
 21
240.3129861742
  0
LINE
  5
367
100
AcDbEntity
  8
0
100
AcDbLine
 62
7
  6
CONTINUOUS
 10
347.0194924358
 20
240.3129861742
 11
366.6861591025
 21
240.3129861742
  0
LINE
  5
368
100
AcDbEntity
  8
0
100
AcDbLine
 62
7
  6
CONTINUOUS
 10
420.0194924358
 20
248.3129861742
 11
399.4639368803
 21
248.3129861742
  0
LINE
  5
369
100
AcDbEntity
  8
0
100
AcDbLine
 62
7
  6
CONTINUOUS
 10
347.0194924358
 20
248.3129861742
 11
367.5750479914
 21
248.3129861742
  0
LINE
  5
36A
100
AcDbEntity
  8
KONSTRUKTIONSELEMENTE
100
AcDbLine
 62
7
  6
CONTINUOUS
 10
360.5194924358
 20
248.8129861742
 11
367.630603547
 21
248.8129861742
  0
LINE
  5
36B
100
AcDbEntity
  8
KONSTRUKTIONSELEMENTE
100
AcDbLine
 62
7
  6
CONTINUOUS
 10
399.4083813247
 20
248.8129861742
 11
406.5194924358
 21
248.8129861742
  0
LINE
  5
36C
100
AcDbEntity
  8
0
100
AcDbLine
 62
7
  6
CONTINUOUS
 10
366.8176665736
 20
250.0538923691
 11
367.7684820131
 21
250.0538923691
  0
LINE
  5
36D
100
AcDbEntity
  8
0
100
AcDbLine
 62
7
  6
CONTINUOUS
 10
400.0980856531
 20
251.1629861742
 11
399.1472702136
 21
251.1629861742
  0
LINE
  5
36E
100
AcDbEntity
  8
0
100
AcDbLine
 62
7
  6
CONTINUOUS
 10
399.2624915684
 20
258.6833329365
 11
398.3116761289
 21
258.6833329365
  0
LINE
  5
36F
100
AcDbEntity
  8
0
100
AcDbLine
 62
7
  6
CONTINUOUS
 10
399.0736207945
 20
260.3831699019
 11
398.122805355
 21
260.3831699019
  0
LINE
  5
370
100
AcDbEntity
  8
0
100
AcDbLine
 62
7
  6
CONTINUOUS
 10
368.9652593768
 20
260.8248886426
 11
368.0144439373
 21
260.8248886426
  0
LINE
  5
371
100
AcDbEntity
  8
0
100
AcDbLine
 62
7
  6
CONTINUOUS
 10
398.8340950791
 20
262.5389013401
 11
397.8832796396
 21
262.5389013401
  0
LINE
  5
372
100
AcDbEntity
  8
0
100
AcDbLine
 62
7
  6
CONTINUOUS
 10
398.808996265
 20
262.7647906671
 11
397.8581808255
 21
262.7647906671
  0
LINE
  5
373
100
AcDbEntity
  8
0
100
AcDbLine
 62
7
  6
CONTINUOUS
 10
369.1952935939
 20
262.8951965964
 11
368.2444781544
 21
262.8951965964
  0
LINE
  5
374
100
AcDbEntity
  8
0
100
AcDbLine
 62
7
  6
CONTINUOUS
 10
398.6628731295
 20
264.0798988866
 11
397.71205769
 21
264.0798988866
  0
LINE
  5
375
100
AcDbEntity
  8
0
100
AcDbLine
 62
7
  6
CONTINUOUS
 10
398.5905565018
 20
264.7307485364
 11
397.6397410623
 21
264.7307485364
  0
LINE
  5
376
100
AcDbEntity
  8
0
100
AcDbLine
 62
7
  6
CONTINUOUS
 10
369.425327811
 20
264.9655045502
 11
368.4745123714
 21
264.9655045502
  0
LINE
  5
377
100
AcDbEntity
  8
0
100
AcDbLine
 62
7
  6
CONTINUOUS
 10
398.5043726847
 20
265.5064028902
 11
397.5535572452
 21
265.5064028902
  0
LINE
  5
378
100
AcDbEntity
  8
RUNDUNGEN
100
AcDbLine
 62
7
  6
CONTINUOUS
 10
394.5194924358
 20
388.3128013779
 11
394.5194924358
 21
284.0457727667
  0
LINE
  5
379
100
AcDbEntity
  8
RUNDUNGEN
100
AcDbLine
 62
7
  6
CONTINUOUS
 10
397.0194924358
 20
271.1437666868
 11
397.0194924358
 21
384.9165592544
  0
LINE
  5
37A
100
AcDbEntity
  8
0
100
AcDbLine
 62
7
  6
CONTINUOUS
 10
397.9644924358
 20
282.4171004947
 11
397.9644924358
 21
270.3653251297
  0
LINE
  5
37B
100
AcDbEntity
  8
BEZUGSACHSEN
100
AcDbLine
 62
7
  6
CONTINUOUS
 10
398.5194924358
 20
141.3129861742
 11
398.5194924358
 21
179.8129861742
  0
LINE
  5
37C
100
AcDbEntity
  8
0
100
AcDbLine
 62
7
  6
CONTINUOUS
 10
398.3709710812
 20
266.7070173213
 11
397.4201556417
 21
266.7070173213
  0
LINE
  5
37D
100
AcDbEntity
  8
BEZUGSACHSEN
100
AcDbLine
 62
7
  6
CONTINUOUS
 10
360.5194924358
 20
267.0129861742
 11
368.7020103297
 21
267.0129861742
  0
LINE
  5
37E
100
AcDbEntity
  8
BEZUGSACHSEN
100
AcDbLine
 62
7
  6
CONTINUOUS
 10
398.336974542
 20
267.0129861742
 11
406.5194924359
 21
267.0129861742
  0
LINE
  5
37F
100
AcDbEntity
  8
KONSTRUKTIONSELEMENTE
100
AcDbLine
 62
7
  6
CONTINUOUS
 10
365.097414255
 20
267.2129861742
 11
368.7242325519
 21
267.2129861742
  0
LINE
  5
380
100
AcDbEntity
  8
0
100
AcDbLine
 62
7
  6
CONTINUOUS
 10
398.2570526958
 20
267.7322827904
 11
397.3062372563
 21
267.7322827904
  0
LINE
  5
381
100
AcDbEntity
  8
0
100
AcDbLine
 62
7
  6
CONTINUOUS
 10
398.1292668235
 20
268.8823556407
 11
397.178451384
 21
268.8823556407
  0
LINE
  5
382
100
AcDbEntity
  8
0
100
AcDbLine
 62
7
  6
CONTINUOUS
 10
369.8684050814
 20
268.9531999839
 11
368.9175896419
 21
268.9531999839
  0
LINE
  5
383
100
AcDbEntity
  8
0
100
AcDbLine
 62
7
  6
CONTINUOUS
 10
397.9644924358
 20
270.7946723407
 11
397.0235551347
 21
270.7946723407
  0
LINE
  5
384
100
AcDbEntity
  8
0
100
AcDbLine
 62
7
  6
CONTINUOUS
 10
370.0190103835
 20
271.0235079377
 11
369.0744924358
 21
271.0235079377
  0
LINE
  5
385
100
AcDbEntity
  8
0
100
AcDbLine
 62
7
  6
CONTINUOUS
 10
370.0194924358
 20
271.7273558864
 11
369.0744924358
 21
271.7273558864
  0
LINE
  5
386
100
AcDbEntity
  8
0
100
AcDbLine
 62
7
  6
CONTINUOUS
 10
397.9644924358
 20
271.7693962291
 11
397.0194924358
 21
271.7693962291
  0
LINE
  5
387
100
AcDbEntity
  8
0
100
AcDbLine
 62
7
  6
CONTINUOUS
 10
397.9644924358
 20
272.4439674215
 11
397.0194924358
 21
272.4439674215
  0
LINE
  5
388
100
AcDbEntity
  8
0
100
AcDbLine
 62
7
  6
CONTINUOUS
 10
397.9644924358
 20
272.9431896518
 11
397.0194924358
 21
272.9431896518
  0
LINE
  5
389
100
AcDbEntity
  8
RUNDUNGEN
100
AcDbLine
 62
7
  6
CONTINUOUS
 10
400.427748456
 20
239.6386819933
 11
397.1112371711
 21
269.4872835568
  0
LINE
  5
38A
100
AcDbEntity
  8
0
100
AcDbLine
 62
7
  6
CONTINUOUS
 10
399.0736207945
 20
260.3831699019
 11
400.0980856531
 21
251.1629861742
  0
LINE
  5
38B
100
AcDbEntity
  8
0
100
AcDbLine
 62
7
  6
CONTINUOUS
 10
398.8340950791
 20
262.5389013401
 11
397.9644924358
 21
270.3653251297
  0
LINE
  5
38C
100
AcDbEntity
  8
RUNDUNGEN
100
AcDbLine
 62
7
  6
CONTINUOUS
 10
400.5194924358
 20
191.8129861742
 11
400.5194924358
 21
237.9822091021
  0
LINE
  5
38D
100
AcDbEntity
  8
0
100
AcDbLine
 62
7
  6
CONTINUOUS
 10
400.5539217514
 20
236.8129861742
 11
400.5539217514
 21
239.8129861742
  0
LINE
  5
38E
100
AcDbEntity
  8
0
100
AcDbLine
 62
7
  6
CONTINUOUS
 10
401.0194924358
 20
223.7290372028
 11
401.0194924358
 21
212.7294111581
  0
LINE
  5
38F
100
AcDbEntity
  8
0
100
AcDbLine
 62
7
  6
CONTINUOUS
 10
403.8944924358
 20
240.3129861742
 11
403.8944924358
 21
240.0629861742
  0
LINE
  5
390
100
AcDbEntity
  8
0
100
AcDbLine
 62
7
  6
CONTINUOUS
 10
403.8944924358
 20
193.0629861742
 11
403.8944924358
 21
192.8129861742
  0
LINE
  5
391
100
AcDbEntity
  8
BEZUGSACHSEN
100
AcDbLine
 62
7
  6
CONTINUOUS
 10
404.8694924358
 20
248.3129861742
 11
404.8694924358
 21
248.8129861742
  0
LINE
  5
392
100
AcDbEntity
  8
BEZUGSACHSEN
100
AcDbLine
 62
7
  6
CONTINUOUS
 10
406.5194924358
 20
248.8129861742
 11
406.5194924358
 21
267.0129861742
  0
LINE
  5
393
100
AcDbEntity
  8
0
100
AcDbLine
 62
7
  6
CONTINUOUS
 10
397.9644924358
 20
275.4692234636
 11
397.0194924358
 21
275.4692234636
  0
LINE
  5
394
100
AcDbEntity
  8
0
100
AcDbLine
 62
7
  6
CONTINUOUS
 10
397.9644924358
 20
280.5687358796
 11
397.0194924358
 21
280.5687358796
  0
LINE
  5
395
100
AcDbEntity
  8
0
100
AcDbLine
 62
7
  6
CONTINUOUS
 10
370.0194924358
 20
281.2338903462
 11
369.0744924358
 21
281.2338903462
  0
LINE
  5
396
100
AcDbEntity
  8
0
100
AcDbLine
 62
7
  6
CONTINUOUS
 10
397.9644924358
 20
281.5434585521
 11
397.0194924358
 21
281.5434585521
  0
LINE
  5
397
100
AcDbEntity
  8
0
100
AcDbLine
 62
7
  6
CONTINUOUS
 10
397.9644924358
 20
282.1303570872
 11
397.0194924358
 21
282.1303570872
  0
LINE
  5
398
100
AcDbEntity
  8
0
100
AcDbLine
 62
7
  6
CONTINUOUS
 10
397.9644924358
 20
282.4171004947
 11
397.0194924358
 21
282.4171004947
  0
LINE
  5
399
100
AcDbEntity
  8
0
100
AcDbLine
 62
7
  6
CONTINUOUS
 10
420.0194924358
 20
248.3129861742
 11
420.0194924358
 21
240.3129861742
  0
LINE
  5
39A
100
AcDbEntity
  8
0
100
AcDbLine
 62
7
  6
CONTINUOUS
 10
421.0194924358
 20
192.8129861742
 11
421.0194924358
 21
179.8129861742
  0
LINE
  5
39B
100
AcDbEntity
  8
0
100
AcDbLine
 62
7
  6
CONTINUOUS
 10
423.0194924358
 20
193.0629861742
 11
423.0194924358
 21
237.0629861742
  0
LINE
  5
39C
100
AcDbEntity
  8
BEZUGSACHSEN
100
AcDbLine
 62
7
  6
CONTINUOUS
 10
395.5194924358
 20
138.3129861742
 11
398.5194924358
 21
141.3129861742
  0
LINE
  5
39D
100
AcDbEntity
  8
RUNDUNGEN
100
AcDbLine
 62
7
  6
CONTINUOUS
 10
371.0194924358
 20
385.9165592544
 11
371.5194924358
 21
385.9165592544
  0
LINE
  5
39E
100
AcDbEntity
  8
RUNDUNGEN
100
AcDbLine
 62
7
  6
CONTINUOUS
 10
395.5194924358
 20
385.9165592544
 11
396.0194924358
 21
385.9165592544
  0
LINE
  5
39F
100
AcDbEntity
  8
0
100
AcDbLine
 62
7
  6
CONTINUOUS
 10
376.0194924358
 20
391.8129861742
 11
391.0194924358
 21
391.8129861742
  0
LINE
  5
3A0
100
AcDbEntity
  8
BEZUGSACHSEN
100
AcDbLine
 62
7
  6
CONTINUOUS
 10
161.1560540125
 20
80.6305965078
 11
161.1560540125
 21
53.6305965078
  0
LINE
  5
3A1
100
AcDbEntity
  8
0
100
AcDbLine
 62
7
  6
CONTINUOUS
 10
168.6565720697
 20
74.6305965078
 11
168.6565720697
 21
59.6305965078
  0
LINE
  5
3A2
100
AcDbEntity
  8
0
100
AcDbLine
 62
7
  6
CONTINUOUS
 10
171.6226509333
 20
50.1305965078
 11
171.6226509333
 21
49.6305965078
  0
LINE
  5
3A3
100
AcDbEntity
  8
RUNDUNGEN
100
AcDbLine
 62
7
  6
CONTINUOUS
 10
174.8159675855
 20
79.6305965078
 11
174.8159675855
 21
79.1305965078
  0
LINE
  5
3A4
100
AcDbEntity
  8
RUNDUNGEN
100
AcDbLine
 62
7
  6
CONTINUOUS
 10
174.8159675855
 20
55.1305965078
 11
174.8159675855
 21
54.6305965078
  0
LINE
  5
3A5
100
AcDbEntity
  8
0
100
AcDbLine
 62
7
  6
CONTINUOUS
 10
177.6726509333
 20
50.1305965078
 11
177.6726509333
 21
49.6305965078
  0
LINE
  5
3A6
100
AcDbEntity
  8
0
100
AcDbLine
 62
7
  6
CONTINUOUS
 10
178.4873257657
 20
83.2781846993
 11
178.4873257657
 21
82.3273692598
  0
LINE
  5
3A7
100
AcDbEntity
  8
0
100
AcDbLine
 62
7
  6
CONTINUOUS
 10
180.2811072196
 20
51.3875973753
 11
180.2811072196
 21
52.3384128148
  0
LINE
  5
3A8
100
AcDbEntity
  8
0
100
AcDbLine
 62
7
  6
CONTINUOUS
 10
180.518036562
 20
81.6848295669
 11
180.518036562
 21
82.6356450064
  0
LINE
  5
3A9
100
AcDbEntity
  8
0
100
AcDbLine
 62
7
  6
CONTINUOUS
 10
180.9678859332
 20
51.5764681492
 11
180.9678859332
 21
52.5272835887
  0
LINE
  5
3AA
100
AcDbEntity
  8
0
100
AcDbLine
 62
7
  6
CONTINUOUS
 10
180.9726509333
 20
50.1305965078
 11
180.9726509333
 21
49.6305965078
  0
LINE
  5
3AB
100
AcDbEntity
  8
0
100
AcDbLine
 62
7
  6
CONTINUOUS
 10
181.3127533269
 20
81.4547953498
 11
181.3127533269
 21
82.4056107893
  0
LINE
  5
3AC
100
AcDbEntity
  8
0
100
AcDbLine
 62
7
  6
CONTINUOUS
 10
182.1074700918
 20
81.2247611327
 11
182.1074700918
 21
82.1755765722
  0
LINE
  5
3AD
100
AcDbEntity
  8
0
100
AcDbLine
 62
7
  6
CONTINUOUS
 10
182.1465211521
 20
82.7385431783
 11
182.1465211521
 21
82.9690325401
  0
LINE
  5
3AE
100
AcDbEntity
  8
0
100
AcDbLine
 62
7
  6
CONTINUOUS
 10
182.2472142279
 20
82.445467004
 11
182.2472142279
 21
82.7093971304
  0
LINE
  5
3AF
100
AcDbEntity
  8
0
100
AcDbLine
 62
7
  6
CONTINUOUS
 10
182.941237917
 20
82.4750681966
 11
182.941237917
 21
82.7389983231
  0
LINE
  5
3B0
100
AcDbEntity
  8
0
100
AcDbLine
 62
7
  6
CONTINUOUS
 10
183.6382029515
 20
80.7816838623
 11
183.6382029515
 21
81.7324993018
  0
LINE
  5
3B1
100
AcDbEntity
  8
0
100
AcDbLine
 62
7
  6
CONTINUOUS
 10
184.1895432716
 20
52.3930362479
 11
184.1895432716
 21
53.3438516874
  0
LINE
  5
3B2
100
AcDbEntity
  8
0
100
AcDbLine
 62
7
  6
CONTINUOUS
 10
184.40177987
 20
52.5208221202
 11
184.40177987
 21
53.4716375597
  0
LINE
  5
3B3
100
AcDbEntity
  8
0
100
AcDbLine
 62
7
  6
CONTINUOUS
 10
184.4329197164
 20
80.6310785602
 11
184.4329197164
 21
81.5755965078
  0
LINE
  5
3B4
100
AcDbEntity
  8
0
100
AcDbLine
 62
7
  6
CONTINUOUS
 10
185.1744059689
 20
52.6855965078
 11
185.1744059689
 21
53.626533809
  0
LINE
  5
3B5
100
AcDbEntity
  8
0
100
AcDbLine
 62
7
  6
CONTINUOUS
 10
185.7538523525
 20
52.267886265
 11
185.7538523525
 21
52.4761425436
  0
LINE
  5
3B6
100
AcDbEntity
  8
0
100
AcDbLine
 62
7
  6
CONTINUOUS
 10
185.8206429775
 20
52.6855965078
 11
185.8206429775
 21
53.6305965078
  0
LINE
  5
3B7
100
AcDbEntity
  8
0
100
AcDbLine
 62
7
  6
CONTINUOUS
 10
186.1793784235
 20
80.6305965078
 11
186.1793784235
 21
81.5755965078
  0
LINE
  5
3B8
100
AcDbEntity
  8
0
100
AcDbLine
 62
7
  6
CONTINUOUS
 10
186.2331597877
 20
52.1914439621
 11
186.2331597877
 21
52.6079567138
  0
LINE
  5
3B9
100
AcDbEntity
  8
0
100
AcDbLine
 62
7
  6
CONTINUOUS
 10
186.578885362
 20
50.9675653028
 11
186.578885362
 21
51.4043014828
  0
LINE
  5
3BA
100
AcDbEntity
  8
0
100
AcDbLine
 62
7
  6
CONTINUOUS
 10
186.59803342
 20
52.6855965078
 11
186.59803342
 21
53.6305965078
  0
LINE
  5
3BB
100
AcDbEntity
  8
0
100
AcDbLine
 62
7
  6
CONTINUOUS
 10
187.0153140826
 20
52.128868903
 11
187.0153140826
 21
52.6855965078
  0
LINE
  5
3BC
100
AcDbEntity
  8
0
100
AcDbLine
 62
7
  6
CONTINUOUS
 10
187.0226509333
 20
50.1305965078
 11
187.0226509333
 21
49.6305965078
  0
LINE
  5
3BD
100
AcDbEntity
  8
0
100
AcDbLine
 62
7
  6
CONTINUOUS
 10
187.0630472165
 20
52.6855965078
 11
187.0630472165
 21
53.6305965078
  0
LINE
  5
3BE
100
AcDbEntity
  8
RUNDUNGEN
100
AcDbLine
 62
7
  6
CONTINUOUS
 10
205.3600589118
 20
100.7959421547
 11
203.4368751
 21
99.9829345775
  0
LINE
  5
3BF
100
AcDbEntity
  8
0
100
AcDbLine
 62
7
  6
CONTINUOUS
 10
188.352318307
 20
80.6305965078
 11
188.352318307
 21
81.5755965078
  0
LINE
  5
3C0
100
AcDbEntity
  8
0
100
AcDbLine
 62
7
  6
CONTINUOUS
 10
189.1233839715
 20
52.6855965078
 11
189.1233839715
 21
53.6305965078
  0
LINE
  5
3C1
100
AcDbEntity
  8
0
100
AcDbLine
 62
7
  6
CONTINUOUS
 10
189.6216561356
 20
50.6936563794
 11
189.6216561356
 21
51.3730237488
  0
LINE
  5
3C2
100
AcDbEntity
  8
0
100
AcDbLine
 62
7
  6
CONTINUOUS
 10
189.7696204889
 20
52.6855965078
 11
189.7696204889
 21
53.6305965078
  0
LINE
  5
3C3
100
AcDbEntity
  8
0
100
AcDbLine
 62
7
  6
CONTINUOUS
 10
190.0814959729
 20
80.6305965078
 11
190.0814959729
 21
81.5755965078
  0
LINE
  5
3C4
100
AcDbEntity
  8
0
100
AcDbLine
 62
7
  6
CONTINUOUS
 10
190.2703211475
 20
51.9827457675
 11
190.2703211475
 21
52.6855965078
  0
LINE
  5
3C5
100
AcDbEntity
  8
0
100
AcDbLine
 62
7
  6
CONTINUOUS
 10
190.6931296303
 20
82.65924756
 11
190.6931296303
 21
83.0696285933
  0
LINE
  5
3C6
100
AcDbEntity
  8
0
100
AcDbLine
 62
7
  6
CONTINUOUS
 10
190.7640118734
 20
52.6855965078
 11
190.7640118734
 21
53.6305965078
  0
LINE
  5
3C7
100
AcDbEntity
  8
0
100
AcDbLine
 62
7
  6
CONTINUOUS
 10
190.775519662
 20
80.6305965078
 11
190.775519662
 21
81.5755965078
  0
LINE
  5
3C8
100
AcDbEntity
  8
0
100
AcDbLine
 62
7
  6
CONTINUOUS
 10
191.2241704585
 20
51.9673884949
 11
191.2241704585
 21
52.6855965078
  0
LINE
  5
3C9
100
AcDbEntity
  8
0
100
AcDbLine
 62
7
  6
CONTINUOUS
 10
191.8895557093
 20
52.6855965078
 11
191.8895557093
 21
53.6305965078
  0
LINE
  5
3CA
100
AcDbEntity
  8
0
100
AcDbLine
 62
7
  6
CONTINUOUS
 10
192.0468663356
 20
51.9853815218
 11
192.0468663356
 21
52.6855965078
  0
LINE
  5
3CB
100
AcDbEntity
  8
0
100
AcDbLine
 62
7
  6
CONTINUOUS
 10
192.5404657608
 20
51.496357194
 11
192.5404657608
 21
51.8505598884
  0
LINE
  5
3CC
100
AcDbEntity
  8
0
100
AcDbLine
 62
7
  6
CONTINUOUS
 10
192.6264040783
 20
52.6855965078
 11
192.6264040783
 21
53.6305965078
  0
LINE
  5
3CD
100
AcDbEntity
  8
0
100
AcDbLine
 62
7
  6
CONTINUOUS
 10
192.738409422
 20
52.0367249765
 11
192.738409422
 21
52.6855965078
  0
LINE
  5
3CE
100
AcDbEntity
  8
0
100
AcDbLine
 62
7
  6
CONTINUOUS
 10
193.2987994138
 20
52.1214188727
 11
193.2987994138
 21
52.6855965078
  0
LINE
  5
3CF
100
AcDbEntity
  8
0
100
AcDbLine
 62
7
  6
CONTINUOUS
 10
193.3370739193
 20
81.5893827796
 11
193.3370739193
 21
82.2146279942
  0
LINE
  5
3D0
100
AcDbEntity
  8
0
100
AcDbLine
 62
7
  6
CONTINUOUS
 10
193.4562012472
 20
52.5812185017
 11
193.4562012472
 21
52.6855965078
  0
LINE
  5
3D1
100
AcDbEntity
  8
0
100
AcDbLine
 62
7
  6
CONTINUOUS
 10
193.4944064892
 20
52.6855965078
 11
193.4944064892
 21
53.6305965078
  0
LINE
  5
3D2
100
AcDbEntity
  8
0
100
AcDbLine
 62
7
  6
CONTINUOUS
 10
194.0595608245
 20
52.6855965078
 11
194.0595608245
 21
53.6305965078
  0
LINE
  5
3D3
100
AcDbEntity
  8
0
100
AcDbLine
 62
7
  6
CONTINUOUS
 10
194.0714255127
 20
52.333898506
 11
194.0714255127
 21
52.5027595363
  0
LINE
  5
3D4
100
AcDbEntity
  8
0
100
AcDbLine
 62
7
  6
CONTINUOUS
 10
184.1895432716
 20
52.3930362479
 11
184.2801551232
 21
52.2791178625
  0
LINE
  5
3D5
100
AcDbEntity
  8
0
100
AcDbLine
 62
7
  6
CONTINUOUS
 10
194.6700205945
 20
52.6855965078
 11
194.6700205945
 21
53.6305965078
  0
LINE
  5
3D6
100
AcDbEntity
  8
0
100
AcDbLine
 62
7
  6
CONTINUOUS
 10
194.9704402107
 20
52.6505549833
 11
194.9704402107
 21
52.6855965078
  0
LINE
  5
3D7
100
AcDbEntity
  8
0
100
AcDbLine
 62
7
  6
CONTINUOUS
 10
194.9776319144
 20
52.6855965078
 11
194.9776319144
 21
53.6305965078
  0
LINE
  5
3D8
100
AcDbEntity
  8
0
100
AcDbLine
 62
7
  6
CONTINUOUS
 10
195.4950530398
 20
52.5171535116
 11
195.4950530398
 21
52.6855965078
  0
LINE
  5
3D9
100
AcDbEntity
  8
0
100
AcDbLine
 62
7
  6
CONTINUOUS
 10
195.5856644573
 20
52.4032349885
 11
195.5856644573
 21
52.6855965078
  0
LINE
  5
3DA
100
AcDbEntity
  8
RUNDUNGEN
100
AcDbLine
 62
7
  6
CONTINUOUS
 10
195.6565720697
 20
46.1843393863
 11
195.6565720697
 21
52.1658952019
  0
LINE
  5
3DB
100
AcDbEntity
  8
RUNDUNGEN
100
AcDbLine
 62
7
  6
CONTINUOUS
 10
195.6565720697
 20
82.0952978138
 11
195.6565720697
 21
88.0768536294
  0
LINE
  5
3DC
100
AcDbEntity
  8
0
100
AcDbLine
 62
7
  6
CONTINUOUS
 10
197.7771541739
 20
52.6855965078
 11
197.7771541739
 21
53.6305965078
  0
LINE
  5
3DD
100
AcDbEntity
  8
0
100
AcDbLine
 62
7
  6
CONTINUOUS
 10
198.5274113754
 20
80.6305965078
 11
198.5274113754
 21
81.5755965078
  0
LINE
  5
3DE
100
AcDbEntity
  8
0
100
AcDbLine
 62
7
  6
CONTINUOUS
 10
200.3910571236
 20
80.8410107002
 11
202.1557223165
 21
82.6940917058
  0
LINE
  5
3DF
100
AcDbEntity
  8
0
100
AcDbLine
 62
7
  6
CONTINUOUS
 10
195.5856644573
 20
52.4032349885
 11
195.4950530398
 21
52.5171535116
  0
LINE
  5
3E0
100
AcDbEntity
  8
0
100
AcDbLine
 62
7
  6
CONTINUOUS
 10
185.7538523525
 20
52.267886265
 11
185.577393484
 21
52.3581958923
  0
LINE
  5
3E1
100
AcDbEntity
  8
0
100
AcDbLine
 62
7
  6
CONTINUOUS
 10
201.8994943395
 20
50.0961671922
 11
199.0419330627
 21
53.096902145
  0
LINE
  5
3E2
100
AcDbEntity
  8
BEZUGSACHSEN
100
AcDbLine
 62
7
  6
CONTINUOUS
 10
221.8775158783
 20
90.1305965078
 11
216.392688321
 21
80.6305965078
  0
LINE
  5
3E3
100
AcDbEntity
  8
0
100
AcDbLine
 62
7
  6
CONTINUOUS
 10
185.577393484
 20
52.3581958923
 11
185.7037825743
 21
52.4623728714
  0
LINE
  5
3E4
100
AcDbEntity
  8
KONSTRUKTIONSELEMENTE
100
AcDbLine
 62
7
  6
CONTINUOUS
 10
226.2653902452
 20
83.9293133041
 11
223.6517152897
 21
82.4566615371
  0
LINE
  5
3E5
100
AcDbEntity
  8
KONSTRUKTIONSELEMENTE
100
AcDbLine
 62
7
  6
CONTINUOUS
 10
224.6811301796
 20
82.1575032931
 11
226.6413863962
 21
83.2619921184
  0
LINE
  5
3E6
100
AcDbEntity
  8
KONSTRUKTIONSELEMENTE
100
AcDbLine
 62
7
  6
CONTINUOUS
 10
226.8725723015
 20
84.1248957921
 11
226.2653902452
 21
83.9293133041
  0
LINE
  5
3E7
100
AcDbEntity
  8
0
100
AcDbLine
 62
7
  6
CONTINUOUS
 10
194.0213550914
 20
52.5283849842
 11
194.1978141118
 21
52.43807535
  0
LINE
  5
3E8
100
AcDbEntity
  8
0
100
AcDbLine
 62
7
  6
CONTINUOUS
 10
194.1978141118
 20
52.43807535
 11
194.0714255127
 21
52.333898506
  0
LINE
  5
3E9
100
AcDbEntity
  8
0
100
AcDbLine
 62
7
  6
CONTINUOUS
 10
184.40177987
 20
53.4716375597
 11
184.1895432716
 21
53.3438516874
  0
LINE
  5
3EA
100
AcDbEntity
  8
0
100
AcDbLine
 62
7
  6
CONTINUOUS
 10
184.40177987
 20
52.5208221202
 11
184.1895432716
 21
52.3930362479
  0
LINE
  5
3EB
100
AcDbEntity
  8
0
100
AcDbLine
 62
7
  6
CONTINUOUS
 10
284.3449739077
 20
52.5079125326
 11
284.7182202383
 21
52.608915317
  0
LINE
  5
3EC
100
AcDbEntity
  8
0
100
AcDbLine
 62
7
  6
CONTINUOUS
 10
184.2801551232
 20
52.2791178625
 11
184.8047673851
 21
52.145716259
  0
LINE
  5
3ED
100
AcDbEntity
  8
0
100
AcDbLine
 62
7
  6
CONTINUOUS
 10
195.4950530398
 20
52.5171535116
 11
194.9704402107
 21
52.6505549833
  0
LINE
  5
3EE
100
AcDbEntity
  8
BEZUGSACHSEN
100
AcDbLine
 62
7
  6
CONTINUOUS
 10
216.392688321
 20
53.6305965078
 11
221.8775158783
 21
44.1305965078
  0
LINE
  5
3EF
100
AcDbEntity
  8
0
100
AcDbLine
 62
7
  6
CONTINUOUS
 10
201.8994943395
 20
50.0961671922
 11
202.5717225406
 21
50.7363214567
  0
LINE
  5
3F0
100
AcDbEntity
  8
0
100
AcDbLine
 62
7
  6
CONTINUOUS
 10
195.3734283691
 20
52.2754492504
 11
195.5856644573
 21
52.4032349885
  0
LINE
  5
3F1
100
AcDbEntity
  8
0
100
AcDbLine
 62
7
  6
CONTINUOUS
 10
279.3773673268
 20
52.4090299274
 11
278.7891328831
 21
52.2977494143
  0
LINE
  5
3F2
100
AcDbEntity
  8
0
100
AcDbLine
 62
7
  6
CONTINUOUS
 10
283.4621363556
 20
52.6043065286
 11
282.9983171407
 21
52.5266935735
  0
LINE
  5
3F3
100
AcDbEntity
  8
0
100
AcDbLine
 62
7
  6
CONTINUOUS
 10
279.1862380442
 20
51.7346178498
 11
278.5074312852
 21
51.6467272725
  0
LINE
  5
3F4
100
AcDbEntity
  8
0
100
AcDbLine
 62
7
  6
CONTINUOUS
 10
283.4511790689
 20
52.4097441489
 11
284.3449739077
 21
52.5079125326
  0
LINE
  5
3F5
100
AcDbEntity
  8
0
100
AcDbLine
 62
7
  6
CONTINUOUS
 10
279.2419948114
 20
52.1807999896
 11
280.135789349
 21
52.2789683589
  0
LINE
  5
3F6
100
AcDbEntity
  8
0
100
AcDbLine
 62
7
  6
CONTINUOUS
 10
279.5146844425
 20
51.5840008526
 11
280.0690754877
 21
51.6382239279
  0
LINE
  5
3F7
100
AcDbEntity
  8
0
100
AcDbLine
 62
7
  6
CONTINUOUS
 10
284.9351522829
 20
51.5659341598
 11
285.7951035306
 21
51.6070450171
  0
LINE
  5
3F8
100
AcDbEntity
  8
0
100
AcDbLine
 62
7
  6
CONTINUOUS
 10
278.7343483828
 20
51.3249378459
 11
279.5942997057
 21
51.3660487069
  0
LINE
  5
3F9
100
AcDbEntity
  8
0
100
AcDbLine
 62
7
  6
CONTINUOUS
 10
280.0690754877
 20
51.6382239279
 11
283.9388564035
 21
51.8232228004
  0
LINE
  5
3FA
100
AcDbEntity
  8
0
100
AcDbLine
 62
7
  6
CONTINUOUS
 10
284.7988076512
 20
51.8643336577
 11
286.5187107488
 21
51.9465554012
  0
LINE
  5
3FB
100
AcDbEntity
  8
BEZUGSACHSEN
100
AcDbLine
 62
7
  6
CONTINUOUS
 10
221.8775158783
 20
44.1305965078
 11
248.435628261
 21
44.1305965078
  0
LINE
  5
3FC
100
AcDbEntity
  8
0
100
AcDbLine
 62
7
  6
CONTINUOUS
 10
185.5010746631
 20
52.0595324419
 11
186.5002300166
 21
51.9872158142
  0
LINE
  5
3FD
100
AcDbEntity
  8
0
100
AcDbLine
 62
7
  6
CONTINUOUS
 10
187.0153140826
 20
52.128868903
 11
186.2331597877
 21
52.1914439621
  0
LINE
  5
3FE
100
AcDbEntity
  8
0
100
AcDbLine
 62
7
  6
CONTINUOUS
 10
186.578885362
 20
50.9675653028
 11
181.4924983179
 21
51.4430665795
  0
LINE
  5
3FF
100
AcDbEntity
  8
0
100
AcDbLine
 62
7
  6
CONTINUOUS
 10
189.6216561356
 20
50.6936563794
 11
187.3610397797
 21
50.9049902775
  0
LINE
  5
400
100
AcDbEntity
  8
0
100
AcDbLine
 62
7
  6
CONTINUOUS
 10
193.4844022289
 20
52.5785821274
 11
194.0213550914
 21
52.5283849842
  0
LINE
  5
401
100
AcDbEntity
  8
0
100
AcDbLine
 62
7
  6
CONTINUOUS
 10
180.2811072196
 20
51.3875973753
 11
189.1065720697
 21
50.5520032906
  0
LINE
  5
402
100
AcDbEntity
  8
0
100
AcDbLine
 62
7
  6
CONTINUOUS
 10
184.8047673851
 20
52.145716259
 11
185.5010746631
 21
52.0595324419
  0
LINE
  5
403
100
AcDbEntity
  8
0
100
AcDbLine
 62
7
  6
CONTINUOUS
 10
186.2331597877
 20
52.1914439621
 11
185.7538523525
 21
52.267886265
  0
LINE
  5
404
100
AcDbEntity
  8
KONSTRUKTIONSELEMENTE
100
AcDbLine
 62
7
  6
CONTINUOUS
 10
240.6907418807
 20
85.5526746887
 11
238.3226037922
 21
80.6305965078
  0
LINE
  5
405
100
AcDbEntity
  8
KONSTRUKTIONSELEMENTE
100
AcDbLine
 62
7
  6
CONTINUOUS
 10
245.0837358213
 20
83.4390926019
 11
242.2783501822
 21
80.6305965078
  0
LINE
  5
406
100
AcDbEntity
  8
KONSTRUKTIONSELEMENTE
100
AcDbLine
 62
7
  6
CONTINUOUS
 10
243.3182730722
 20
80.6305965078
 11
244.8681836472
 21
82.1261346562
  0
LINE
  5
407
100
AcDbEntity
  8
RUNDUNGEN
100
AcDbLine
 62
7
  6
CONTINUOUS
 10
192.9116458355
 20
51.30032774
 11
192.911192769
 21
51.300113105
  0
LWPOLYLINE
  5
408
100
AcDbEntity
  8
RUNDUNGEN
100
AcDbPolyline
 62
7
  6
CONTINUOUS
 90
4
 70
0
 10
192.9112010412
 20
51.3001170201
 10
193.011950754
 20
51.3460219026
 10
193.2062466999
 20
51.4270203677
 10
193.4605008287
 20
51.5228543434
  0
LWPOLYLINE
  5
409
100
AcDbEntity
  8
RUNDUNGEN
100
AcDbPolyline
 62
7
  6
CONTINUOUS
 90
4
 70
0
 10
276.8564723481
 20
82.7397153152
 10
276.5401972964
 20
82.6314471336
 10
276.158631892
 20
82.5126049629
 10
275.769913392
 20
82.4014774411
  0
LWPOLYLINE
  5
40A
100
AcDbEntity
  8
RUNDUNGEN
100
AcDbPolyline
 62
7
  6
CONTINUOUS
 90
28
 70
0
 10
284.9834862993
 20
83.5486614923
 10
284.9976180521
 20
83.5532452075
 10
285.0061651763
 20
83.5557995038
 10
284.9962938132
 20
83.5532846678
 10
284.9701209386
 20
83.547268273
 10
284.9282343306
 20
83.5386065162
 10
284.8720435599
 20
83.5281176129
 10
284.8021613948
 20
83.5162901247
 10
284.7196901975
 20
83.5035838427
 10
284.6250826504
 20
83.490279515
 10
284.5192744892
 20
83.4766795899
 10
284.4021685046
 20
83.4629164938
 10
284.2738352677
 20
83.4491073462
 10
284.134457962
 20
83.4353673428
 10
283.9842018879
 20
83.4218173287
 10
283.8231746424
 20
83.4085836845
 10
283.6514010041
 20
83.3957532895
 10
283.4693636393
 20
83.383418005
 10
283.2775545001
 20
83.3716840769
 10
283.0762717239
 20
83.3606676131
 10
282.8658705475
 20
83.3504602012
 10
282.6468759104
 20
83.3411213128
 10
282.4198503149
 20
83.3327359704
 10
282.1853114742
 20
83.3254179252
 10
281.9438243311
 20
83.3192417568
 10
281.6960166679
 20
83.3142444865
 10
281.4425712212
 20
83.3105037205
 10
281.184152267
 20
83.3081361513
  0
LWPOLYLINE
  5
40B
100
AcDbEntity
  8
RUNDUNGEN
100
AcDbPolyline
 62
7
  6
CONTINUOUS
 90
15
 70
0
 10
185.3296578401
 20
50.7125315234
 10
185.3155260872
 20
50.7079478082
 10
185.306978963
 20
50.7053935118
 10
185.3168503261
 20
50.7079083479
 10
185.3430232008
 20
50.7139247427
 10
185.3849098089
 20
50.7225864995
 10
185.4411005795
 20
50.7330754028
 10
185.5109827445
 20
50.744902891
 10
185.5934539418
 20
50.757609173
 10
185.6880614889
 20
50.7709135006
 10
185.7938696501
 20
50.7845134258
 10
185.9109756347
 20
50.7982765219
 10
186.0393088716
 20
50.8120856695
 10
186.1786861773
 20
50.8258256729
 10
186.1970219872
 20
50.8274791866
  0
LINE
  5
40C
100
AcDbEntity
  8
0
100
AcDbLine
 62
7
  6
CONTINUOUS
 10
192.738409422
 20
52.0367249765
 11
192.0468663356
 21
51.9853815218
  0
LINE
  5
40D
100
AcDbEntity
  8
0
100
AcDbLine
 62
7
  6
CONTINUOUS
 10
286.0658490797
 20
52.063504759
 11
284.345945982
 21
51.9812830155
  0
LINE
  5
40E
100
AcDbEntity
  8
0
100
AcDbLine
 62
7
  6
CONTINUOUS
 10
283.4859947343
 20
51.9401721581
 11
279.1862380442
 21
51.7346178498
  0
LINE
  5
40F
100
AcDbEntity
  8
0
100
AcDbLine
 62
7
  6
CONTINUOUS
 10
283.6213669486
 20
52.1684020816
 11
282.7614157009
 21
52.1272912242
  0
LINE
  5
410
100
AcDbEntity
  8
0
100
AcDbLine
 62
7
  6
CONTINUOUS
 10
278.5970313756
 20
52.1499668466
 11
279.2419948114
 21
52.1807999896
  0
LINE
  5
411
100
AcDbEntity
  8
0
100
AcDbLine
 62
7
  6
CONTINUOUS
 10
282.8062156332
 20
52.3789110058
 11
283.4511790689
 21
52.4097441489
  0
LINE
  5
412
100
AcDbEntity
  8
0
100
AcDbLine
 62
7
  6
CONTINUOUS
 10
278.7891328831
 20
52.2977494143
 11
278.1441694473
 21
52.2669162712
  0
LINE
  5
413
100
AcDbEntity
  8
0
100
AcDbLine
 62
7
  6
CONTINUOUS
 10
282.9983171407
 20
52.5266935735
 11
282.5683415168
 21
52.5061381449
  0
LINE
  5
414
100
AcDbEntity
  8
0
100
AcDbLine
 62
7
  6
CONTINUOUS
 10
286.0658490797
 20
53.0143201985
 11
284.9103217458
 21
52.9590790211
  0
LINE
  5
415
100
AcDbEntity
  8
0
100
AcDbLine
 62
7
  6
CONTINUOUS
 10
191.9657833231
 20
51.8242453432
 11
193.1771747431
 21
51.8797146115
  0
LWPOLYLINE
  5
416
100
AcDbEntity
  8
RUNDUNGEN
100
AcDbPolyline
 62
7
  6
CONTINUOUS
 90
6
 70
0
 10
191.3744353529
 20
50.9540499844
 10
191.5359046081
 20
50.957701428
 10
191.9142041435
 20
50.9949870847
 10
192.2871303595
 20
51.0723350438
 10
192.6502021685
 20
51.1888675364
 10
192.9116672284
 20
51.3003565619
  0
LINE
  5
417
100
AcDbEntity
  8
0
100
AcDbLine
 62
7
  6
CONTINUOUS
 10
192.0468663356
 20
51.9853815218
 11
191.2241704585
 21
51.9673884949
  0
LINE
  5
418
100
AcDbEntity
  8
0
100
AcDbLine
 62
7
  6
CONTINUOUS
 10
190.9260868433
 20
51.8159938645
 11
191.9657833231
 21
51.8242453432
  0
LINE
  5
419
100
AcDbEntity
  8
0
100
AcDbLine
 62
7
  6
CONTINUOUS
 10
277.3409473423
 20
52.1453580509
 11
278.5970313756
 21
52.1499668466
  0
LINE
  5
41A
100
AcDbEntity
  8
0
100
AcDbLine
 62
7
  6
CONTINUOUS
 10
187.0226509333
 20
49.6305965078
 11
180.9728428301
 21
49.6305965078
  0
LINE
  5
41B
100
AcDbEntity
  8
0
100
AcDbLine
 62
7
  6
CONTINUOUS
 10
177.6726509333
 20
49.6305965078
 11
171.6228428301
 21
49.6305965078
  0
LINE
  5
41C
100
AcDbEntity
  8
RUNDUNGEN
100
AcDbLine
 62
7
  6
CONTINUOUS
 10
164.6560628515
 20
50.1305965078
 11
190.1565720697
 21
50.1305965078
  0
LINE
  5
41D
100
AcDbEntity
  8
RUNDUNGEN
100
AcDbLine
 62
7
  6
CONTINUOUS
 10
280.1565720697
 20
50.1305965078
 11
305.6570812879
 21
50.1305965078
  0
LINE
  5
41E
100
AcDbEntity
  8
RUNDUNGEN
100
AcDbLine
 62
7
  6
CONTINUOUS
 10
191.3744353539
 20
50.9540154274
 11
189.6216561356
 21
50.9540154274
  0
LINE
  5
41F
100
AcDbEntity
  8
0
100
AcDbLine
 62
7
  6
CONTINUOUS
 10
284.9103217458
 20
52.6855965078
 11
273.9299911942
 21
52.6855965078
  0
LINE
  5
420
100
AcDbEntity
  8
0
100
AcDbLine
 62
7
  6
CONTINUOUS
 10
197.7771541739
 20
52.6855965078
 11
185.0009384356
 21
52.6855965078
  0
LINE
  5
421
100
AcDbEntity
  8
RUNDUNGEN
100
AcDbLine
 62
7
  6
CONTINUOUS
 10
175.8160253713
 20
53.6305965078
 11
294.4954098176
 21
53.6305965078
  0
LWPOLYLINE
  5
422
100
AcDbEntity
  8
RUNDUNGEN
100
AcDbPolyline
 62
7
  6
CONTINUOUS
 90
29
 70
0
 10
278.9387093652
 20
50.9540154274
 10
281.1516629338
 20
50.9532517545
 10
281.3856726099
 20
50.9513367813
 10
281.6158506883
 20
50.9482817379
 10
281.8416797229
 20
50.944172292
 10
282.0626208778
 20
50.9390784591
 10
282.2781672178
 20
50.9330393238
 10
282.4878989035
 20
50.9260790214
 10
282.6914247506
 20
50.9182733774
 10
282.8882584182
 20
50.9097060824
 10
283.0779391637
 20
50.9004393606
 10
283.2601987253
 20
50.890510104
 10
283.434783126
 20
50.879983084
 10
283.6013084143
 20
50.8689571216
 10
283.7594570707
 20
50.8575132828
 10
283.9089908915
 20
50.8457136583
 10
284.0496067323
 20
50.8336280089
 10
284.1813561252
 20
50.821336178
 10
284.3042132767
 20
50.808924403
 10
284.4181498472
 20
50.7964687964
 10
284.5230738116
 20
50.7840455598
 10
284.6190075058
 20
50.7717283111
 10
284.7060879356
 20
50.7595982093
 10
284.7835409826
 20
50.7478769493
 10
284.8510166984
 20
50.7367562399
 10
284.9074196416
 20
50.7265968072
 10
284.9520569081
 20
50.7177732549
 10
284.9838101647
 20
50.710859321
 10
284.9979548864
 20
50.7075005218
  0
LINE
  5
423
100
AcDbEntity
  8
0
100
AcDbLine
 62
7
  6
CONTINUOUS
 10
281.7651195623
 20
52.3845799318
 11
282.8062156332
 21
52.3789110058
  0
LINE
  5
424
100
AcDbEntity
  8
0
100
AcDbLine
 62
7
  6
CONTINUOUS
 10
192.5404657608
 20
51.496357194
 11
180.9678859332
 21
51.5764681492
  0
LINE
  5
425
100
AcDbEntity
  8
0
100
AcDbLine
 62
7
  6
CONTINUOUS
 10
184.1903181748
 20
52.5049763652
 11
180.9678859332
 21
52.5272835887
  0
LINE
  5
426
100
AcDbEntity
  8
0
100
AcDbLine
 62
7
  6
CONTINUOUS
 10
189.0779866867
 20
51.3771672461
 11
192.0253816948
 21
51.3547041051
  0
LINE
  5
427
100
AcDbEntity
  8
0
100
AcDbLine
 62
7
  6
CONTINUOUS
 10
181.4924983179
 20
51.4430665795
 11
188.1241376213
 21
51.3925245863
  0
LINE
  5
428
100
AcDbEntity
  8
0
100
AcDbLine
 62
7
  6
CONTINUOUS
 10
191.2241704585
 20
51.9673884949
 11
190.2703211475
 21
51.9827457675
  0
LINE
  5
429
100
AcDbEntity
  8
0
100
AcDbLine
 62
7
  6
CONTINUOUS
 10
282.5683415168
 20
52.5061381449
 11
281.7422332579
 21
52.5220847851
  0
LINE
  5
42A
100
AcDbEntity
  8
0
100
AcDbLine
 62
7
  6
CONTINUOUS
 10
189.7552370816
 20
51.8410926787
 11
190.9260868433
 21
51.8159938645
  0
LINE
  5
42B
100
AcDbEntity
  8
0
100
AcDbLine
 62
7
  6
CONTINUOUS
 10
278.1441694473
 20
52.2669162712
 11
277.0125009439
 21
52.2959750481
  0
LINE
  5
42C
100
AcDbEntity
  8
0
100
AcDbLine
 62
7
  6
CONTINUOUS
 10
276.4242667261
 20
52.1846945458
 11
277.3409473423
 21
52.1453580509
  0
LINE
  5
42D
100
AcDbEntity
  8
0
100
AcDbLine
 62
7
  6
CONTINUOUS
 10
280.8484390214
 20
52.4239164302
 11
281.7651195623
 21
52.3845799318
  0
LINE
  5
42E
100
AcDbEntity
  8
0
100
AcDbLine
 62
7
  6
CONTINUOUS
 10
186.5002300166
 20
51.9872158142
 11
189.7552370816
 21
51.8410926787
  0
LINE
  5
42F
100
AcDbEntity
  8
0
100
AcDbLine
 62
7
  6
CONTINUOUS
 10
190.2703211475
 20
51.9827457675
 11
187.0153140826
 21
52.128868903
  0
LINE
  5
430
100
AcDbEntity
  8
0
100
AcDbLine
 62
7
  6
CONTINUOUS
 10
281.7422332579
 20
52.5220847851
 11
280.734980435
 21
52.5848111417
  0
LINE
  5
431
100
AcDbEntity
  8
0
100
AcDbLine
 62
7
  6
CONTINUOUS
 10
194.9704402107
 20
52.6505549833
 11
194.6690631434
 21
52.6723679846
  0
LINE
  5
432
100
AcDbEntity
  8
0
100
AcDbLine
 62
7
  6
CONTINUOUS
 10
275.3264415647
 20
52.2708107578
 11
276.4242667261
 21
52.1846945458
  0
LINE
  5
433
100
AcDbEntity
  8
KONSTRUKTIONSELEMENTE
100
AcDbLine
 62
7
  6
CONTINUOUS
 10
230.1673716114
 20
80.6305965078
 11
230.1549142618
 21
80.8457930771
  0
LINE
  5
434
100
AcDbEntity
  8
KONSTRUKTIONSELEMENTE
100
AcDbLine
 62
7
  6
CONTINUOUS
 10
239.154894947
 20
80.6305965078
 11
240.8131123174
 21
84.0771335056
  0
LINE
  5
435
100
AcDbEntity
  8
KONSTRUKTIONSELEMENTE
100
AcDbLine
 62
7
  6
CONTINUOUS
 10
244.8681836472
 20
82.1261346562
 11
244.1486418761
 21
80.6305965078
  0
LINE
  5
436
100
AcDbEntity
  8
KONSTRUKTIONSELEMENTE
100
AcDbLine
 62
7
  6
CONTINUOUS
 10
244.9809330309
 20
80.6305965078
 11
246.0975036537
 21
82.9513428895
  0
LINE
  5
437
100
AcDbEntity
  8
RUNDUNGEN
100
AcDbLine
 62
7
  6
CONTINUOUS
 10
277.4019306644
 20
82.9610701016
 11
277.4042919518
 21
82.9621874564
  0
LWPOLYLINE
  5
438
100
AcDbEntity
  8
RUNDUNGEN
100
AcDbPolyline
 62
7
  6
CONTINUOUS
 90
4
 70
0
 10
277.4019232829
 20
82.961066608
 10
277.3036508064
 20
82.9162531802
 10
277.1100513829
 20
82.8354254084
 10
276.8564723481
 20
82.7397153152
  0
LWPOLYLINE
  5
439
100
AcDbEntity
  8
RUNDUNGEN
100
AcDbPolyline
 62
7
  6
CONTINUOUS
 90
3
 70
0
 10
193.4605008287
 20
51.5228543434
 10
193.7774353248
 20
51.6312114615
 10
194.1596502094
 20
51.7501164965
  0
LINE
  5
43A
100
AcDbEntity
  8
RUNDUNGEN
100
AcDbLine
 62
7
  6
CONTINUOUS
 10
194.1596502094
 20
51.7501164965
 11
194.5432161029
 21
51.8597115608
  0
LWPOLYLINE
  5
43B
100
AcDbEntity
  8
RUNDUNGEN
100
AcDbPolyline
 62
7
  6
CONTINUOUS
 90
3
 70
0
 10
200.4617482707
 20
53.4339779915
 10
200.8618503702
 20
53.5043716632
 10
201.1990895109
 20
53.5586082479
  0
LINE
  5
43C
100
AcDbEntity
  8
0
100
AcDbLine
 62
7
  6
CONTINUOUS
 10
193.9545647514
 20
51.9546668286
 11
194.6008022702
 21
52.0629696171
  0
LINE
  5
43D
100
AcDbEntity
  8
0
100
AcDbLine
 62
7
  6
CONTINUOUS
 10
193.2987994138
 20
52.1214188727
 11
192.738409422
 21
52.0367249765
  0
LINE
  5
43E
100
AcDbEntity
  8
0
100
AcDbLine
 62
7
  6
CONTINUOUS
 10
193.1771747431
 20
51.8797146115
 11
193.9545647514
 21
51.9546668286
  0
LINE
  5
43F
100
AcDbEntity
  8
RUNDUNGEN
100
AcDbLine
 62
7
  6
CONTINUOUS
 10
298.1564207478
 20
56.1305965078
 11
172.1567234183
 21
56.1305965078
  0
LINE
  5
440
100
AcDbEntity
  8
0
100
AcDbLine
 62
7
  6
CONTINUOUS
 10
277.0125009439
 20
52.2959750481
 11
276.2202359329
 21
52.368979119
  0
LINE
  5
441
100
AcDbEntity
  8
0
100
AcDbLine
 62
7
  6
CONTINUOUS
 10
280.4523063864
 20
52.4604184991
 11
280.8484390214
 21
52.4239164302
  0
LINE
  5
442
100
AcDbEntity
  8
0
100
AcDbLine
 62
7
  6
CONTINUOUS
 10
276.2202359329
 20
52.368979119
 11
275.6429586043
 21
52.4522609378
  0
LINE
  5
443
100
AcDbEntity
  8
0
100
AcDbLine
 62
7
  6
CONTINUOUS
 10
280.734980435
 20
52.5848111417
 11
280.1577031064
 21
52.6680929604
  0
LINE
  5
444
100
AcDbEntity
  8
0
100
AcDbLine
 62
7
  6
CONTINUOUS
 10
274.6585918057
 20
52.3774824673
 11
275.3264415647
 21
52.2708107578
  0
LWPOLYLINE
  5
445
100
AcDbEntity
  8
RUNDUNGEN
100
AcDbPolyline
 62
7
  6
CONTINUOUS
 90
3
 70
0
 10
269.1140416922
 20
53.5586102493
 10
269.4610087435
 20
53.5027453121
 10
269.8602798801
 20
53.4323284902
  0
LWPOLYLINE
  5
446
100
AcDbEntity
  8
RUNDUNGEN
100
AcDbPolyline
 62
7
  6
CONTINUOUS
 90
5
 70
0
 10
269.8602798801
 20
53.4323284902
 10
270.2017986454
 20
53.3655090538
 10
270.4871835195
 20
53.3035030673
 10
270.7181641836
 20
53.2476946387
 10
270.8445190945
 20
53.2142466043
  0
LINE
  5
447
100
AcDbEntity
  8
KONSTRUKTIONSELEMENTE
100
AcDbLine
 62
7
  6
CONTINUOUS
 10
223.6517152897
 20
82.4566615371
 11
224.6805952912
 21
80.6305965078
  0
LINE
  5
448
100
AcDbEntity
  8
KONSTRUKTIONSELEMENTE
100
AcDbLine
 62
7
  6
CONTINUOUS
 10
229.2970681048
 20
81.0950913796
 11
229.4271394226
 21
80.6305965078
  0
LINE
  5
449
100
AcDbEntity
  8
KONSTRUKTIONSELEMENTE
100
AcDbLine
 62
7
  6
CONTINUOUS
 10
240.8131123174
 20
84.0771335056
 11
240.489505166
 21
80.6305965078
  0
LINE
  5
44A
100
AcDbEntity
  8
KONSTRUKTIONSELEMENTE
100
AcDbLine
 62
7
  6
CONTINUOUS
 10
241.205666513
 20
80.6305965078
 11
241.7045097132
 21
85.0649249764
  0
LINE
  5
44B
100
AcDbEntity
  8
RUNDUNGEN
100
AcDbLine
 62
7
  6
CONTINUOUS
 10
199.4685966155
 20
53.2142387768
 11
197.7771541739
 21
52.749075745
  0
LINE
  5
44C
100
AcDbEntity
  8
RUNDUNGEN
100
AcDbLine
 62
7
  6
CONTINUOUS
 10
197.5463286846
 20
52.6855965078
 11
194.5434169458
 21
51.8597668004
  0
LINE
  5
44D
100
AcDbEntity
  8
0
100
AcDbLine
 62
7
  6
CONTINUOUS
 10
189.1065720697
 20
50.5520032906
 11
189.6216561356
 21
50.6936563794
  0
LINE
  5
44E
100
AcDbEntity
  8
0
100
AcDbLine
 62
7
  6
CONTINUOUS
 10
192.0253816948
 20
51.3547041051
 11
192.5404657608
 21
51.496357194
  0
LINE
  5
44F
100
AcDbEntity
  8
0
100
AcDbLine
 62
7
  6
CONTINUOUS
 10
194.6008022702
 20
52.0629696171
 11
195.3734283691
 21
52.2754492504
  0
LINE
  5
450
100
AcDbEntity
  8
0
100
AcDbLine
 62
7
  6
CONTINUOUS
 10
194.0714255127
 20
52.333898506
 11
193.2987994138
 21
52.1214188727
  0
LINE
  5
451
100
AcDbEntity
  8
0
100
AcDbLine
 62
7
  6
CONTINUOUS
 10
187.3610397797
 20
50.9049902775
 11
189.0779866867
 21
51.3771672461
  0
LINE
  5
452
100
AcDbEntity
  8
0
100
AcDbLine
 62
7
  6
CONTINUOUS
 10
193.4562012472
 20
52.5812185017
 11
193.835744314
 21
52.6855965078
  0
LINE
  5
453
100
AcDbEntity
  8
0
100
AcDbLine
 62
7
  6
CONTINUOUS
 10
188.1241376213
 20
51.3925245863
 11
186.578885362
 21
50.9675653028
  0
LINE
  5
454
100
AcDbEntity
  8
0
100
AcDbLine
 62
7
  6
CONTINUOUS
 10
185.7037825743
 20
52.4623728714
 11
186.4764086733
 21
52.6748525048
  0
LINE
  5
455
100
AcDbEntity
  8
0
100
AcDbLine
 62
7
  6
CONTINUOUS
 10
180.9678859332
 20
51.5764681492
 11
180.2811072196
 21
51.3875973753
  0
LINE
  5
456
100
AcDbEntity
  8
0
100
AcDbLine
 62
7
  6
CONTINUOUS
 10
184.40177987
 20
52.5208221202
 11
185.0009384356
 21
52.6855965078
  0
LINE
  5
457
100
AcDbEntity
  8
0
100
AcDbLine
 62
7
  6
CONTINUOUS
 10
184.6461893595
 20
53.5388525279
 11
184.40177987
 21
53.4716375597
  0
LINE
  5
458
100
AcDbEntity
  8
0
100
AcDbLine
 62
7
  6
CONTINUOUS
 10
180.9678859332
 20
52.5272835887
 11
180.2811072196
 21
52.3384128148
  0
LWPOLYLINE
  5
459
100
AcDbEntity
  8
RUNDUNGEN
100
AcDbPolyline
 62
7
  6
CONTINUOUS
 90
5
 70
0
 10
199.4685966144
 20
53.2142387807
 10
199.6005478192
 20
53.2491145338
 10
199.8327444623
 20
53.3050569812
 10
200.1192436667
 20
53.3671368109
 10
200.4617482707
 20
53.4339779915
  0
LINE
  5
45A
100
AcDbEntity
  8
0
100
AcDbLine
 62
7
  6
CONTINUOUS
 10
274.1151575954
 20
52.5178217501
 11
274.6585918057
 21
52.3774824673
  0
LINE
  5
45B
100
AcDbEntity
  8
0
100
AcDbLine
 62
7
  6
CONTINUOUS
 10
275.6429586043
 20
52.4522609378
 11
275.2806692171
 21
52.5458204374
  0
LINE
  5
45C
100
AcDbEntity
  8
0
100
AcDbLine
 62
7
  6
CONTINUOUS
 10
279.2977518587
 20
52.6269821031
 11
279.0707799651
 21
52.6855965078
  0
LINE
  5
45D
100
AcDbEntity
  8
0
100
AcDbLine
 62
7
  6
CONTINUOUS
 10
282.7614157009
 20
52.1272912242
 11
283.4859947343
 21
51.9401721581
  0
LINE
  5
45E
100
AcDbEntity
  8
0
100
AcDbLine
 62
7
  6
CONTINUOUS
 10
283.9388564035
 20
51.8232228004
 11
284.9351522829
 21
51.5659341598
  0
LINE
  5
45F
100
AcDbEntity
  8
0
100
AcDbLine
 62
7
  6
CONTINUOUS
 10
285.7951035306
 20
51.6070450171
 11
284.7988076512
 21
51.8643336577
  0
LINE
  5
460
100
AcDbEntity
  8
0
100
AcDbLine
 62
7
  6
CONTINUOUS
 10
284.345945982
 20
51.9812830155
 11
283.6213669486
 21
52.1684020816
  0
LINE
  5
461
100
AcDbEntity
  8
0
100
AcDbLine
 62
7
  6
CONTINUOUS
 10
286.5187107488
 20
51.9465554012
 11
286.0658490797
 21
52.063504759
  0
LINE
  5
462
100
AcDbEntity
  8
0
100
AcDbLine
 62
7
  6
CONTINUOUS
 10
286.5187107488
 20
52.8973708407
 11
286.0658490797
 21
53.0143201985
  0
LINE
  5
463
100
AcDbEntity
  8
RUNDUNGEN
100
AcDbLine
 62
7
  6
CONTINUOUS
 10
275.7699135893
 20
51.8597155463
 11
270.8449939964
 21
53.2141159552
  0
LWPOLYLINE
  5
464
100
AcDbEntity
  8
RUNDUNGEN
100
AcDbPolyline
 62
7
  6
CONTINUOUS
 90
4
 70
0
 10
275.7699135851
 20
51.8597155312
 10
276.1586317863
 20
51.7485880773
 10
276.5401978333
 20
51.6297457061
 10
276.8564725147
 20
51.5214776351
  0
LINE
  5
465
100
AcDbEntity
  8
0
100
AcDbLine
 62
7
  6
CONTINUOUS
 10
178.6576768623
 20
82.2233187569
 11
180.518036562
 21
81.6848295669
  0
LINE
  5
466
100
AcDbEntity
  8
0
100
AcDbLine
 62
7
  6
CONTINUOUS
 10
181.3127533269
 20
81.4547953498
 11
182.1074700918
 21
81.2247611327
  0
LINE
  5
467
100
AcDbEntity
  8
0
100
AcDbLine
 62
7
  6
CONTINUOUS
 10
183.6382029515
 20
80.7816838623
 11
183.8432210364
 21
80.7223404877
  0
LINE
  5
468
100
AcDbEntity
  8
0
100
AcDbLine
 62
7
  6
CONTINUOUS
 10
178.6576768623
 20
83.1741341964
 11
180.518036562
 21
82.6356450064
  0
LINE
  5
469
100
AcDbEntity
  8
0
100
AcDbLine
 62
7
  6
CONTINUOUS
 10
181.3127533269
 20
82.4056107893
 11
182.1074700918
 21
82.1755765722
  0
LINE
  5
46A
100
AcDbEntity
  8
0
100
AcDbLine
 62
7
  6
CONTINUOUS
 10
183.6382029515
 20
81.7324993018
 11
184.1802670079
 21
81.5755965078
  0
LINE
  5
46B
100
AcDbEntity
  8
0
100
AcDbLine
 62
7
  6
CONTINUOUS
 10
182.2472142279
 20
82.7093971304
 11
180.6532652619
 21
83.1707725772
  0
LINE
  5
46C
100
AcDbEntity
  8
0
100
AcDbLine
 62
7
  6
CONTINUOUS
 10
182.1465211521
 20
82.9690325401
 11
182.941237917
 21
82.7389983231
  0
LWPOLYLINE
  5
46D
100
AcDbEntity
  8
RUNDUNGEN
100
AcDbPolyline
 62
7
  6
CONTINUOUS
 90
4
 70
0
 10
193.4605009981
 20
82.7383386114
 10
193.2062467958
 20
82.8341726043
 10
193.0119506951
 20
82.915171134
 10
192.9111999109
 20
82.9610765384
  0
LWPOLYLINE
  5
46E
100
AcDbEntity
  8
RUNDUNGEN
100
AcDbPolyline
 62
7
  6
CONTINUOUS
 90
4
 70
0
 10
276.8564725147
 20
51.5214776351
 10
277.110051308
 20
51.4257676364
 10
277.3036508095
 20
51.3449398389
 10
277.4019224604
 20
51.3001267915
  0
LWPOLYLINE
  5
46F
100
AcDbEntity
  8
RUNDUNGEN
100
AcDbPolyline
 62
7
  6
CONTINUOUS
 90
6
 70
0
 10
192.9088162346
 20
82.9621863144
 10
192.6295822186
 20
83.08010479
 10
192.2663612851
 20
83.1942631602
 10
191.893547817
 20
83.2692907516
 10
191.5156048366
 20
83.3043496269
 10
191.3744349593
 20
83.3071507475
  0
LINE
  5
470
100
AcDbEntity
  8
RUNDUNGEN
100
AcDbLine
 62
7
  6
CONTINUOUS
 10
192.9088540484
 20
82.9621865861
 11
192.9111925286
 21
82.9610800324
  0
LINE
  5
471
100
AcDbEntity
  8
KONSTRUKTIONSELEMENTE
100
AcDbLine
 62
7
  6
CONTINUOUS
 10
225.5414521453
 20
80.6305965078
 11
224.6811301796
 21
82.1575032931
  0
LINE
  5
472
100
AcDbEntity
  8
KONSTRUKTIONSELEMENTE
100
AcDbLine
 62
7
  6
CONTINUOUS
 10
228.3570776395
 20
82.7633944996
 11
229.2970681048
 21
81.0950913796
  0
LINE
  5
473
100
AcDbEntity
  8
KONSTRUKTIONSELEMENTE
100
AcDbLine
 62
7
  6
CONTINUOUS
 10
229.9504868437
 20
81.4632543214
 11
229.0104963784
 21
83.1315574414
  0
LINE
  5
474
100
AcDbEntity
  8
KONSTRUKTIONSELEMENTE
100
AcDbLine
 62
7
  6
CONTINUOUS
 10
230.1549142618
 20
80.8457930771
 11
229.9504868437
 21
81.4632543214
  0
LINE
  5
475
100
AcDbEntity
  8
RUNDUNGEN
100
AcDbLine
 62
7
  6
CONTINUOUS
 10
275.7697271936
 20
82.4014262152
 11
270.8449939964
 21
81.0470770605
  0
LWPOLYLINE
  5
476
100
AcDbEntity
  8
RUNDUNGEN
100
AcDbPolyline
 62
7
  6
CONTINUOUS
 90
5
 70
0
 10
270.8445191824
 20
81.0469464361
 10
270.7181636051
 20
81.0134982291
 10
270.4871823298
 20
80.9576896758
 10
270.2017972486
 20
80.8956836737
 10
269.8602786154
 20
80.8288642907
  0
LINE
  5
477
100
AcDbEntity
  8
RUNDUNGEN
100
AcDbLine
 62
7
  6
CONTINUOUS
 10
199.4685965379
 20
81.0469542602
 11
198.5274113754
 21
81.3057893001
  0
LINE
  5
478
100
AcDbEntity
  8
RUNDUNGEN
100
AcDbLine
 62
7
  6
CONTINUOUS
 10
197.5463286846
 20
81.5755965078
 11
194.5434169458
 21
82.4014262152
  0
LWPOLYLINE
  5
479
100
AcDbEntity
  8
RUNDUNGEN
100
AcDbPolyline
 62
7
  6
CONTINUOUS
 90
4
 70
0
 10
194.543216149
 20
82.4014814455
 10
194.1596503388
 20
82.511076485
 10
193.7774354979
 20
82.6299815015
 10
193.4605009981
 20
82.7383386114
  0
LINE
  5
47A
100
AcDbEntity
  8
0
100
AcDbLine
 62
7
  6
CONTINUOUS
 10
187.3700029984
 20
83.4572519161
 11
188.1692351995
 21
83.2259106864
  0
LINE
  5
47B
100
AcDbEntity
  8
0
100
AcDbLine
 62
7
  6
CONTINUOUS
 10
190.6931296303
 20
83.0696285933
 11
188.8327699307
 21
83.6081177833
  0
LINE
  5
47C
100
AcDbEntity
  8
0
100
AcDbLine
 62
7
  6
CONTINUOUS
 10
195.0127314863
 20
81.8193010868
 11
195.8546762936
 21
81.5755965078
  0
LWPOLYLINE
  5
47D
100
AcDbEntity
  8
RUNDUNGEN
100
AcDbPolyline
 62
7
  6
CONTINUOUS
 90
6
 70
0
 10
277.4014783739
 20
51.3003558719
 10
277.6820806941
 20
51.1816467569
 10
278.0456442885
 20
51.0672238311
 10
278.4188213523
 20
50.9920109103
 10
278.7971358818
 20
50.9568579692
 10
278.9387094015
 20
50.9540499839
  0
LINE
  5
47E
100
AcDbEntity
  8
0
100
AcDbLine
 62
7
  6
CONTINUOUS
 10
278.4059020032
 20
51.475554844
 11
278.7343483828
 21
51.3249378459
  0
LINE
  5
47F
100
AcDbEntity
  8
RUNDUNGEN
100
AcDbLine
 62
7
  6
CONTINUOUS
 10
277.4019307328
 20
51.3001228763
 11
277.4014997756
 21
51.3003270389
  0
LINE
  5
480
100
AcDbEntity
  8
0
100
AcDbLine
 62
7
  6
CONTINUOUS
 10
273.8772835626
 20
52.6450488733
 11
274.1151575954
 21
52.5178217501
  0
LINE
  5
481
100
AcDbEntity
  8
KONSTRUKTIONSELEMENTE
100
AcDbLine
 62
7
  6
CONTINUOUS
 10
227.9975108311
 20
83.1469150338
 11
228.3570776395
 21
82.7633944996
  0
LINE
  5
482
100
AcDbEntity
  8
KONSTRUKTIONSELEMENTE
100
AcDbLine
 62
7
  6
CONTINUOUS
 10
229.0104963784
 20
83.1315574414
 11
228.5882633692
 21
83.6262984848
  0
LWPOLYLINE
  5
483
100
AcDbEntity
  8
RUNDUNGEN
100
AcDbPolyline
 62
7
  6
CONTINUOUS
 90
3
 70
0
 10
269.8602786154
 20
80.8288642907
 10
269.4610078489
 20
80.7584475539
 10
269.1140416435
 20
80.7025827602
  0
LINE
  5
484
100
AcDbEntity
  8
RUNDUNGEN
100
AcDbLine
 62
7
  6
CONTINUOUS
 10
172.1567234184
 20
78.1305965078
 11
298.1564207478
 21
78.1305965078
  0
LINE
  5
485
100
AcDbEntity
  8
RUNDUNGEN
100
AcDbLine
 62
7
  6
CONTINUOUS
 10
201.1990895734
 20
80.7025847594
 11
201.1991603448
 21
80.7025738097
  0
LWPOLYLINE
  5
486
100
AcDbEntity
  8
RUNDUNGEN
100
AcDbPolyline
 62
7
  6
CONTINUOUS
 90
3
 70
0
 10
201.1990895734
 20
80.7025847594
 10
200.8618514389
 20
80.756821174
 10
200.4617497709
 20
80.8272147463
  0
LWPOLYLINE
  5
487
100
AcDbEntity
  8
RUNDUNGEN
100
AcDbPolyline
 62
7
  6
CONTINUOUS
 90
5
 70
0
 10
200.4617497709
 20
80.8272147463
 10
200.1192452955
 20
80.8940558697
 10
199.8327458329
 20
80.9561357214
 10
199.6005485047
 20
81.0120783073
 10
199.468596537
 20
81.0469542567
  0
LINE
  5
488
100
AcDbEntity
  8
KONSTRUKTIONSELEMENTE
100
AcDbLine
 62
7
  6
CONTINUOUS
 10
227.5917059183
 20
83.3578547236
 11
227.9975108311
 21
83.1469150338
  0
LINE
  5
489
100
AcDbEntity
  8
0
100
AcDbLine
 62
7
  6
CONTINUOUS
 10
279.5942997057
 20
51.3660487069
 11
279.3564259238
 21
51.4932757825
  0
LINE
  5
48A
100
AcDbEntity
  8
KONSTRUKTIONSELEMENTE
100
AcDbLine
 62
7
  6
CONTINUOUS
 10
228.5882633692
 20
83.6262984848
 11
228.1197926068
 21
83.9484580606
  0
LINE
  5
48B
100
AcDbEntity
  8
0
100
AcDbLine
 62
7
  6
CONTINUOUS
 10
275.2806692171
 20
52.5458204374
 11
275.1333675124
 21
52.6496576847
  0
LINE
  5
48C
100
AcDbEntity
  8
0
100
AcDbLine
 62
7
  6
CONTINUOUS
 10
268.4136497998
 20
50.0961671922
 11
267.7414215988
 21
50.7363214567
  0
LINE
  5
48D
100
AcDbEntity
  8
BEZUGSACHSEN
100
AcDbLine
 62
7
  6
CONTINUOUS
 10
248.435628261
 20
44.1305965078
 11
253.9204558183
 21
53.6305965078
  0
LINE
  5
48E
100
AcDbEntity
  8
KONSTRUKTIONSELEMENTE
100
AcDbLine
 62
7
  6
CONTINUOUS
 10
226.6413863962
 20
83.2619921184
 11
227.1396644985
 21
83.3962136479
  0
LINE
  5
48F
100
AcDbEntity
  8
0
100
AcDbLine
 62
7
  6
CONTINUOUS
 10
182.1074700918
 20
81.2247611327
 11
183.6382029515
 21
81.2900492763
  0
LINE
  5
490
100
AcDbEntity
  8
0
100
AcDbLine
 62
7
  6
CONTINUOUS
 10
190.5438571141
 20
81.7631060944
 11
186.3944276111
 21
81.5861264553
  0
LINE
  5
491
100
AcDbEntity
  8
0
100
AcDbLine
 62
7
  6
CONTINUOUS
 10
186.1794597152
 20
81.5769577393
 11
186.147544552
 21
81.5755965078
  0
LINE
  5
492
100
AcDbEntity
  8
0
100
AcDbLine
 62
7
  6
CONTINUOUS
 10
189.7491403492
 20
81.9931403115
 11
183.6382029515
 21
81.7324993018
  0
LINE
  5
493
100
AcDbEntity
  8
0
100
AcDbLine
 62
7
  6
CONTINUOUS
 10
180.518036562
 20
81.6848295669
 11
181.3127533269
 21
81.7187254763
  0
LINE
  5
494
100
AcDbEntity
  8
0
100
AcDbLine
 62
7
  6
CONTINUOUS
 10
182.1074700918
 20
82.1755765722
 11
188.2184074895
 21
82.4362175819
  0
LINE
  5
495
100
AcDbEntity
  8
0
100
AcDbLine
 62
7
  6
CONTINUOUS
 10
187.4236907246
 20
82.666251799
 11
181.3127533269
 21
82.4056107893
  0
LINE
  5
496
100
AcDbEntity
  8
0
100
AcDbLine
 62
7
  6
CONTINUOUS
 10
180.518036562
 20
82.6356450064
 11
182.2472142279
 21
82.7093971304
  0
LINE
  5
497
100
AcDbEntity
  8
0
100
AcDbLine
 62
7
  6
CONTINUOUS
 10
182.941237917
 20
82.7389983231
 11
190.6931296303
 21
83.0696285933
  0
LINE
  5
498
100
AcDbEntity
  8
0
100
AcDbLine
 62
7
  6
CONTINUOUS
 10
188.1692351995
 20
83.2259106864
 11
182.1465211521
 21
82.9690325401
  0
LINE
  5
499
100
AcDbEntity
  8
KONSTRUKTIONSELEMENTE
100
AcDbLine
 62
7
  6
CONTINUOUS
 10
227.433516429
 20
84.1478971239
 11
226.8725723015
 21
84.1248957921
  0
LWPOLYLINE
  5
49A
100
AcDbEntity
  8
RUNDUNGEN
100
AcDbPolyline
 62
7
  6
CONTINUOUS
 90
6
 70
0
 10
278.938708861
 20
83.3071507655
 10
278.7776472789
 20
83.303507238
 10
278.3997157368
 20
83.2663202746
 10
278.0271593748
 20
83.1891604778
 10
277.6644351112
 20
83.072898548
 10
277.4043297611
 20
82.9621871895
  0
LINE
  5
49B
100
AcDbEntity
  8
RUNDUNGEN
100
AcDbLine
 62
7
  6
CONTINUOUS
 10
175.8160253733
 20
80.6305965078
 11
294.4954098176
 21
80.6305965078
  0
LINE
  5
49C
100
AcDbEntity
  8
0
100
AcDbLine
 62
7
  6
CONTINUOUS
 10
184.1802670079
 20
81.5755965078
 11
186.147544552
 21
81.5755965078
  0
LINE
  5
49D
100
AcDbEntity
  8
0
100
AcDbLine
 62
7
  6
CONTINUOUS
 10
186.1795177738
 20
81.5755965078
 11
198.5274113754
 21
81.5755965078
  0
LINE
  5
49E
100
AcDbEntity
  8
RUNDUNGEN
100
AcDbLine
 62
7
  6
CONTINUOUS
 10
189.8724509889
 20
83.3071775883
 11
191.3744349866
 21
83.3071775883
  0
LINE
  5
49F
100
AcDbEntity
  8
RUNDUNGEN
100
AcDbLine
 62
7
  6
CONTINUOUS
 10
278.9387088591
 20
83.3071775883
 11
281.184152267
 21
83.3081361513
  0
LINE
  5
4A0
100
AcDbEntity
  8
RUNDUNGEN
100
AcDbLine
 62
7
  6
CONTINUOUS
 10
164.6560628513
 20
84.1305965078
 11
190.1565720697
 21
84.1305965078
  0
LINE
  5
4A1
100
AcDbEntity
  8
RUNDUNGEN
100
AcDbLine
 62
7
  6
CONTINUOUS
 10
280.1565720697
 20
84.1305965078
 11
305.6570812876
 21
84.1305965078
  0
LINE
  5
4A2
100
AcDbEntity
  8
KONSTRUKTIONSELEMENTE
100
AcDbLine
 62
7
  6
CONTINUOUS
 10
227.1396644985
 20
83.3962136479
 11
227.5917059183
 21
83.3578547236
  0
LINE
  5
4A3
100
AcDbEntity
  8
KONSTRUKTIONSELEMENTE
100
AcDbLine
 62
7
  6
CONTINUOUS
 10
228.1197926068
 20
83.9484580606
 11
227.433516429
 21
84.1478971239
  0
LINE
  5
4A4
100
AcDbEntity
  8
0
100
AcDbLine
 62
7
  6
CONTINUOUS
 10
279.2977518587
 20
52.6269821031
 11
279.4450535635
 21
52.5231448557
  0
LINE
  5
4A5
100
AcDbEntity
  8
0
100
AcDbLine
 62
7
  6
CONTINUOUS
 10
273.8772835626
 20
52.6450488733
 11
273.9299911942
 21
52.6855965078
  0
LINE
  5
4A6
100
AcDbEntity
  8
0
100
AcDbLine
 62
7
  6
CONTINUOUS
 10
278.5074312852
 20
51.6467272725
 11
278.3491727288
 21
51.5560022007
  0
LINE
  5
4A7
100
AcDbEntity
  8
0
100
AcDbLine
 62
7
  6
CONTINUOUS
 10
279.3564259238
 20
51.4932757825
 11
279.5146844425
 21
51.5840008526
  0
LINE
  5
4A8
100
AcDbEntity
  8
0
100
AcDbLine
 62
7
  6
CONTINUOUS
 10
280.135789349
 20
52.2789683589
 11
280.4184633976
 21
52.4033610015
  0
LINE
  5
4A9
100
AcDbEntity
  8
0
100
AcDbLine
 62
7
  6
CONTINUOUS
 10
283.4621363556
 20
52.6043065286
 11
283.6468624541
 21
52.6855965078
  0
LINE
  5
4AA
100
AcDbEntity
  8
0
100
AcDbLine
 62
7
  6
CONTINUOUS
 10
195.0127314863
 20
81.8193010868
 11
193.3783500895
 21
81.5950463157
  0
LINE
  5
4AB
100
AcDbEntity
  8
0
100
AcDbLine
 62
7
  6
CONTINUOUS
 10
181.9288564508
 20
83.4891086571
 11
184.5049782797
 21
83.5989842704
  0
LINE
  5
4AC
100
AcDbEntity
  8
BEZUGSACHSEN
100
AcDbLine
 62
7
  6
CONTINUOUS
 10
248.435628261
 20
90.1305965078
 11
221.8775158783
 21
90.1305965078
  0
LINE
  5
4AD
100
AcDbEntity
  8
KONSTRUKTIONSELEMENTE
100
AcDbLine
 62
7
  6
CONTINUOUS
 10
246.0975036537
 20
82.9513428895
 11
245.0837358213
 21
83.4390926019
  0
LINE
  5
4AE
100
AcDbEntity
  8
KONSTRUKTIONSELEMENTE
100
AcDbLine
 62
7
  6
CONTINUOUS
 10
241.7045097132
 20
85.0649249764
 11
240.6907418807
 21
85.5526746887
  0
LINE
  5
4AF
100
AcDbEntity
  8
0
100
AcDbLine
 62
7
  6
CONTINUOUS
 10
278.3491727288
 20
51.5560022007
 11
278.4059020032
 21
51.475554844
  0
LINE
  5
4B0
100
AcDbEntity
  8
BEZUGSACHSEN
100
AcDbLine
 62
7
  6
CONTINUOUS
 10
253.9204558183
 20
80.6305965078
 11
248.435628261
 21
90.1305965078
  0
LINE
  5
4B1
100
AcDbEntity
  8
0
100
AcDbLine
 62
7
  6
CONTINUOUS
 10
271.2712110766
 20
53.096902145
 11
268.4136497998
 21
50.0961671922
  0
LINE
  5
4B2
100
AcDbEntity
  8
0
100
AcDbLine
 62
7
  6
CONTINUOUS
 10
206.4915720697
 20
92.5055965078
 11
208.9431106342
 21
92.5055965078
  0
LINE
  5
4B3
100
AcDbEntity
  8
0
100
AcDbLine
 62
7
  6
CONTINUOUS
 10
261.3700335052
 20
92.5055965078
 11
263.8215720697
 21
92.5055965078
  0
LINE
  5
4B4
100
AcDbEntity
  8
0
100
AcDbLine
 62
7
  6
CONTINUOUS
 10
273.8772835626
 20
53.5869567702
 11
273.8772835626
 21
52.6450488733
  0
LINE
  5
4B5
100
AcDbEntity
  8
0
100
AcDbLine
 62
7
  6
CONTINUOUS
 10
274.0693852238
 20
53.6305965078
 11
274.0693852238
 21
52.6855965078
  0
LINE
  5
4B6
100
AcDbEntity
  8
0
100
AcDbLine
 62
7
  6
CONTINUOUS
 10
274.4426316459
 20
53.6305965078
 11
274.4426316459
 21
52.6855965078
  0
LINE
  5
4B7
100
AcDbEntity
  8
RUNDUNGEN
100
AcDbLine
 62
7
  6
CONTINUOUS
 10
274.6565720697
 20
88.0768536294
 11
274.6565720697
 21
82.0952978138
  0
LINE
  5
4B8
100
AcDbEntity
  8
RUNDUNGEN
100
AcDbLine
 62
7
  6
CONTINUOUS
 10
274.6565720697
 20
52.1658952019
 11
274.6565720697
 21
46.1843393863
  0
LINE
  5
4B9
100
AcDbEntity
  8
0
100
AcDbLine
 62
7
  6
CONTINUOUS
 10
275.2806692171
 20
52.6855965078
 11
275.2806692171
 21
52.5458204374
  0
LINE
  5
4BA
100
AcDbEntity
  8
0
100
AcDbLine
 62
7
  6
CONTINUOUS
 10
275.3364261139
 20
53.6305965078
 11
275.3364261139
 21
52.6855965078
  0
LINE
  5
4BB
100
AcDbEntity
  8
0
100
AcDbLine
 62
7
  6
CONTINUOUS
 10
275.6429586043
 20
52.6855965078
 11
275.6429586043
 21
52.4522609378
  0
LINE
  5
4BC
100
AcDbEntity
  8
0
100
AcDbLine
 62
7
  6
CONTINUOUS
 10
275.9813895497
 20
53.6305965078
 11
275.9813895497
 21
52.6855965078
  0
LINE
  5
4BD
100
AcDbEntity
  8
0
100
AcDbLine
 62
7
  6
CONTINUOUS
 10
276.2202359329
 20
52.6855965078
 11
276.2202359329
 21
52.368979119
  0
LINE
  5
4BE
100
AcDbEntity
  8
0
100
AcDbLine
 62
7
  6
CONTINUOUS
 10
277.0125009439
 20
52.6855965078
 11
277.0125009439
 21
52.2959750481
  0
LINE
  5
4BF
100
AcDbEntity
  8
0
100
AcDbLine
 62
7
  6
CONTINUOUS
 10
277.2374736526
 20
53.6305965078
 11
277.2374736526
 21
52.6855965078
  0
LINE
  5
4C0
100
AcDbEntity
  8
0
100
AcDbLine
 62
7
  6
CONTINUOUS
 10
275.1333675124
 20
52.6496576847
 11
275.1546842764
 21
52.6855965078
  0
LINE
  5
4C1
100
AcDbEntity
  8
0
100
AcDbLine
 62
7
  6
CONTINUOUS
 10
279.4450535635
 20
52.5231448557
 11
279.3773673268
 21
52.4090299274
  0
LINE
  5
4C2
100
AcDbEntity
  8
0
100
AcDbLine
 62
7
  6
CONTINUOUS
 10
284.7182202383
 20
52.608915317
 11
284.8178975723
 21
52.6855965078
  0
LINE
  5
4C3
100
AcDbEntity
  8
0
100
AcDbLine
 62
7
  6
CONTINUOUS
 10
268.1574218229
 20
82.6940917058
 11
269.9221298552
 21
80.8409657144
  0
LINE
  5
4C4
100
AcDbEntity
  8
0
100
AcDbLine
 62
7
  6
CONTINUOUS
 10
278.1441694473
 20
52.6855965078
 11
278.1441694473
 21
52.2669162712
  0
LINE
  5
4C5
100
AcDbEntity
  8
0
100
AcDbLine
 62
7
  6
CONTINUOUS
 10
278.2447265565
 20
53.6305965078
 11
278.2447265565
 21
52.6855965078
  0
LINE
  5
4C6
100
AcDbEntity
  8
0
100
AcDbLine
 62
7
  6
CONTINUOUS
 10
278.3491727288
 20
52.1490574091
 11
278.3491727288
 21
51.5560022007
  0
LINE
  5
4C7
100
AcDbEntity
  8
0
100
AcDbLine
 62
7
  6
CONTINUOUS
 10
278.5074312852
 20
52.1499668466
 11
278.5074312852
 21
51.6467272725
  0
LINE
  5
4C8
100
AcDbEntity
  8
0
100
AcDbLine
 62
7
  6
CONTINUOUS
 10
278.6408591267
 20
53.6305965078
 11
278.6408591267
 21
52.6855965078
  0
LINE
  5
4C9
100
AcDbEntity
  8
0
100
AcDbLine
 62
7
  6
CONTINUOUS
 10
278.6747021803
 20
53.6305965078
 11
278.6747021803
 21
52.6855965078
  0
LINE
  5
4CA
100
AcDbEntity
  8
0
100
AcDbLine
 62
7
  6
CONTINUOUS
 10
278.7891328831
 20
52.6855965078
 11
278.7891328831
 21
52.2977494143
  0
LINE
  5
4CB
100
AcDbEntity
  8
0
100
AcDbLine
 62
7
  6
CONTINUOUS
 10
279.0479485109
 20
53.6305965078
 11
279.0479485109
 21
52.6855965078
  0
LINE
  5
4CC
100
AcDbEntity
  8
0
100
AcDbLine
 62
7
  6
CONTINUOUS
 10
279.1862380442
 20
52.1807999896
 11
279.1862380442
 21
51.7346178498
  0
LINE
  5
4CD
100
AcDbEntity
  8
0
100
AcDbLine
 62
7
  6
CONTINUOUS
 10
279.3773673268
 20
52.5708588486
 11
279.3773673268
 21
52.4090299274
  0
LINE
  5
4CE
100
AcDbEntity
  8
0
100
AcDbLine
 62
7
  6
CONTINUOUS
 10
279.5942997057
 20
51.5840008526
 11
279.5942997057
 21
51.3660487069
  0
LINE
  5
4CF
100
AcDbEntity
  8
0
100
AcDbLine
 62
7
  6
CONTINUOUS
 10
279.7267550246
 20
53.6305965078
 11
279.7267550246
 21
52.6855965078
  0
LINE
  5
4D0
100
AcDbEntity
  8
0
100
AcDbLine
 62
7
  6
CONTINUOUS
 10
280.3717184603
 20
53.6305965078
 11
280.3717184603
 21
52.6855965078
  0
LINE
  5
4D1
100
AcDbEntity
  8
0
100
AcDbLine
 62
7
  6
CONTINUOUS
 10
280.734980435
 20
52.6855965078
 11
280.734980435
 21
52.5848111417
  0
LINE
  5
4D2
100
AcDbEntity
  8
0
100
AcDbLine
 62
7
  6
CONTINUOUS
 10
281.6278028563
 20
53.6305965078
 11
281.6278028563
 21
52.6855965078
  0
LINE
  5
4D3
100
AcDbEntity
  8
0
100
AcDbLine
 62
7
  6
CONTINUOUS
 10
281.7422332579
 20
52.6855965078
 11
281.7422332579
 21
52.5220847851
  0
LINE
  5
4D4
100
AcDbEntity
  8
0
100
AcDbLine
 62
7
  6
CONTINUOUS
 10
282.5444833972
 20
53.6305965078
 11
282.5444833972
 21
52.6855965078
  0
LINE
  5
4D5
100
AcDbEntity
  8
0
100
AcDbLine
 62
7
  6
CONTINUOUS
 10
282.5683415168
 20
52.6855965078
 11
282.5683415168
 21
52.5061381449
  0
LINE
  5
4D6
100
AcDbEntity
  8
0
100
AcDbLine
 62
7
  6
CONTINUOUS
 10
282.7614157009
 20
52.3789110058
 11
282.7614157009
 21
52.1272912242
  0
LINE
  5
4D7
100
AcDbEntity
  8
0
100
AcDbLine
 62
7
  6
CONTINUOUS
 10
282.9983171407
 20
52.6855965078
 11
282.9983171407
 21
52.5266935735
  0
LINE
  5
4D8
100
AcDbEntity
  8
0
100
AcDbLine
 62
7
  6
CONTINUOUS
 10
283.4621363556
 20
52.6855965078
 11
283.4621363556
 21
52.6043065286
  0
LINE
  5
4D9
100
AcDbEntity
  8
0
100
AcDbLine
 62
7
  6
CONTINUOUS
 10
283.6213669486
 20
52.4284364352
 11
283.6213669486
 21
52.1684020816
  0
LINE
  5
4DA
100
AcDbEntity
  8
0
100
AcDbLine
 62
7
  6
CONTINUOUS
 10
283.6423086965
 20
53.6305965078
 11
283.6423086965
 21
52.6855965078
  0
LINE
  5
4DB
100
AcDbEntity
  8
0
100
AcDbLine
 62
7
  6
CONTINUOUS
 10
280.4184633976
 20
52.4033610015
 11
280.4523063864
 21
52.4604184991
  0
LINE
  5
4DC
100
AcDbEntity
  8
0
100
AcDbLine
 62
7
  6
CONTINUOUS
 10
284.3101583719
 20
53.6305965078
 11
284.3101583719
 21
52.6855965078
  0
LINE
  5
4DD
100
AcDbEntity
  8
0
100
AcDbLine
 62
7
  6
CONTINUOUS
 10
284.345945982
 20
52.5079125326
 11
284.345945982
 21
51.9812830155
  0
LINE
  5
4DE
100
AcDbEntity
  8
0
100
AcDbLine
 62
7
  6
CONTINUOUS
 10
284.672447759
 20
53.6305965078
 11
284.672447759
 21
52.6855965078
  0
LINE
  5
4DF
100
AcDbEntity
  8
0
100
AcDbLine
 62
7
  6
CONTINUOUS
 10
284.9103217458
 20
53.6299568483
 11
284.9103217458
 21
52.6855965078
  0
LINE
  5
4E0
100
AcDbEntity
  8
0
100
AcDbLine
 62
7
  6
CONTINUOUS
 10
285.7951035306
 20
51.911962611
 11
285.7951035306
 21
51.6070450171
  0
LINE
  5
4E1
100
AcDbEntity
  8
0
100
AcDbLine
 62
7
  6
CONTINUOUS
 10
286.0658490797
 20
53.0143201985
 11
286.0658490797
 21
52.063504759
  0
LINE
  5
4E2
100
AcDbEntity
  8
0
100
AcDbLine
 62
7
  6
CONTINUOUS
 10
286.5187107488
 20
52.8973708407
 11
286.5187107488
 21
51.9465554012
  0
LINE
  5
4E3
100
AcDbEntity
  8
RUNDUNGEN
100
AcDbLine
 62
7
  6
CONTINUOUS
 10
266.8762690394
 20
99.9829345775
 11
264.9530852276
 21
100.7959421547
  0
LINE
  5
4E4
100
AcDbEntity
  8
RUNDUNGEN
100
AcDbLine
 62
7
  6
CONTINUOUS
 10
295.4971765538
 20
79.6305965078
 11
295.4971765538
 21
79.1305965078
  0
LINE
  5
4E5
100
AcDbEntity
  8
RUNDUNGEN
100
AcDbLine
 62
7
  6
CONTINUOUS
 10
295.4971765538
 20
55.1305965078
 11
295.4971765538
 21
54.6305965078
  0
LINE
  5
4E6
100
AcDbEntity
  8
0
100
AcDbLine
 62
7
  6
CONTINUOUS
 10
301.6565720697
 20
74.6305965078
 11
301.6565720697
 21
59.6305965078
  0
LINE
  5
4E7
100
AcDbEntity
  8
RUNDUNGEN
100
AcDbLine
 62
7
  6
CONTINUOUS
 10
309.1570901268
 20
53.6305965078
 11
309.1570901268
 21
80.6305965078
  0
ARC
  5
4E8
100
AcDbEntity
  8
RUNDUNGEN
100
AcDbCircle
 62
7
  6
CONTINUOUS
 10
180.4588282175
 20
194.8129861742
 40
6.5
100
AcDbArc
 50
203.0
 51
270.0
  0
ARC
  5
4E9
100
AcDbEntity
  8
0
100
AcDbCircle
 62
7
  6
CONTINUOUS
 10
177.1226509333
 20
218.2292241804
 40
5.5
100
AcDbArc
 50
84.2608295227
 51
275.7391704773
  0
ARC
  5
4EA
100
AcDbEntity
  8
0
100
AcDbCircle
 62
7
  6
CONTINUOUS
 10
177.1226509333
 20
218.2292241804
 40
3.85
100
AcDbArc
 50
81.7867892983
 51
278.2132107017
  0
ARC
  5
4EB
100
AcDbEntity
  8
RUNDUNGEN
100
AcDbCircle
 62
7
  6
CONTINUOUS
 10
129.1111270982
 20
282.1318143419
 40
48.0
100
AcDbArc
 50
338.0
 51
22.1559059897
  0
ARC
  5
4EC
100
AcDbEntity
  8
RUNDUNGEN
100
AcDbCircle
 62
7
  6
CONTINUOUS
 10
187.1565720697
 20
194.8129861742
 40
6.5
100
AcDbArc
 50
270.0
 51
360.0
  0
ARC
  5
4ED
100
AcDbEntity
  8
RUNDUNGEN
100
AcDbCircle
 62
7
  6
CONTINUOUS
 10
185.4360540125
 20
228.5918139577
 40
24.28
100
AcDbArc
 50
158.0
 51
203.0
  0
ARC
  5
4EE
100
AcDbEntity
  8
0
100
AcDbCircle
 62
7
  6
CONTINUOUS
 10
186.4726509333
 20
218.2292241804
 40
5.5
100
AcDbArc
 50
84.2608295227
 51
275.7391704773
  0
ARC
  5
4EF
100
AcDbEntity
  8
0
100
AcDbCircle
 62
7
  6
CONTINUOUS
 10
186.4726509333
 20
218.2292241804
 40
3.85
100
AcDbArc
 50
192.4498159314
 51
278.2132107017
  0
ARC
  5
4F0
100
AcDbEntity
  8
0
100
AcDbCircle
 62
7
  6
CONTINUOUS
 10
186.4726509333
 20
218.2292241804
 40
3.85
100
AcDbArc
 50
81.7867892983
 51
167.520934158
  0
ARC
  5
4F1
100
AcDbEntity
  8
RUNDUNGEN
100
AcDbCircle
 62
7
  6
CONTINUOUS
 10
198.6565720697
 20
233.8129861742
 40
3.0
100
AcDbArc
 50
90.0
 51
180.0
  0
ARC
  5
4F2
100
AcDbEntity
  8
RUNDUNGEN
100
AcDbCircle
 62
7
  6
CONTINUOUS
 10
195.6565720697
 20
223.0629861742
 40
2.0
100
AcDbArc
 50
180.0
 51
270.0
  0
ARC
  5
4F3
100
AcDbEntity
  8
RUNDUNGEN
100
AcDbCircle
 62
7
  6
CONTINUOUS
 10
191.6565720697
 20
226.5129861742
 40
2.0
100
AcDbArc
 50
0.0
 51
90.0
  0
ARC
  5
4F4
100
AcDbEntity
  8
RUNDUNGEN
100
AcDbCircle
 62
7
  6
CONTINUOUS
 10
232.6565720697
 20
235.2602525722
 40
44.0
100
AcDbArc
 50
5.9359879674
 51
22.0000158342
  0
ARC
  5
4F5
100
AcDbEntity
  8
RUNDUNGEN
100
AcDbCircle
 62
7
  6
CONTINUOUS
 10
232.6565720697
 20
235.2602525722
 40
44.0
100
AcDbArc
 50
359.9998624103
 51
2.0180360714
  0
ARC
  5
4F6
100
AcDbEntity
  8
RUNDUNGEN
100
AcDbCircle
 62
7
  6
CONTINUOUS
 10
213.0692315519
 20
238.1729861742
 40
1.89
100
AcDbArc
 50
90.0
 51
171.939906865
  0
ARC
  5
4F7
100
AcDbEntity
  8
0
100
AcDbCircle
 62
7
  6
CONTINUOUS
 10
210.2342315519
 20
238.1729861742
 40
1.89
100
AcDbArc
 50
90.0
 51
119.5727349656
  0
ARC
  5
4F8
100
AcDbEntity
  8
RUNDUNGEN
100
AcDbCircle
 62
7
  6
CONTINUOUS
 10
216.8492315519
 20
238.1729861742
 40
1.89
100
AcDbArc
 50
90.0
 51
171.9401582537
  0
ARC
  5
4F9
100
AcDbEntity
  8
RUNDUNGEN
100
AcDbCircle
 62
7
  6
CONTINUOUS
 10
215.6929734845
 20
258.3129861742
 40
15.0
100
AcDbArc
 50
90.0
 51
158.0000173837
  0
ARC
  5
4FA
100
AcDbEntity
  8
RUNDUNGEN
100
AcDbCircle
 62
7
  6
CONTINUOUS
 10
192.9551383862
 20
246.1129861742
 40
2.0
100
AcDbArc
 50
270.0
 51
346.3536100488
  0
ARC
  5
4FB
100
AcDbEntity
  8
RUNDUNGEN
100
AcDbCircle
 62
7
  6
CONTINUOUS
 10
209.3265720697
 20
238.7029861742
 40
1.89
100
AcDbArc
 50
270.0
 51
351.939906865
  0
ARC
  5
4FC
100
AcDbEntity
  8
RUNDUNGEN
100
AcDbCircle
 62
7
  6
CONTINUOUS
 10
213.1065720697
 20
238.7029861742
 40
1.89
100
AcDbArc
 50
269.9983860797
 51
351.480875991
  0
ARC
  5
4FD
100
AcDbEntity
  8
RUNDUNGEN
100
AcDbCircle
 62
7
  6
CONTINUOUS
 10
171.4703218202
 20
292.4753627653
 40
12.6
100
AcDbArc
 50
338.0
 51
15.0
  0
ARC
  5
4FE
100
AcDbEntity
  8
RUNDUNGEN
100
AcDbCircle
 62
7
  6
CONTINUOUS
 10
187.4159675855
 20
330.3307258996
 40
12.6
100
AcDbArc
 50
153.0
 51
195.0
  0
ARC
  5
4FF
100
AcDbEntity
  8
RUNDUNGEN
100
AcDbCircle
 62
7
  6
CONTINUOUS
 10
203.0359121072
 20
360.9865931132
 40
12.6
100
AcDbArc
 50
111.0
 51
153.0
  0
ARC
  5
500
100
AcDbEntity
  8
RUNDUNGEN
100
AcDbCircle
 62
7
  6
CONTINUOUS
 10
237.6565720697
 20
235.2602525722
 40
44.0
100
AcDbArc
 50
177.981963994
 51
180.0001351307
  0
ARC
  5
501
100
AcDbEntity
  8
RUNDUNGEN
100
AcDbCircle
 62
7
  6
CONTINUOUS
 10
237.6565720697
 20
235.2602525722
 40
44.0
100
AcDbArc
 50
157.9999938126
 51
174.0640120332
  0
ARC
  5
502
100
AcDbEntity
  8
0
100
AcDbCircle
 62
7
  6
CONTINUOUS
 10
260.0789125874
 20
238.1729861742
 40
1.89
100
AcDbArc
 50
60.4272650344
 51
90.0
  0
ARC
  5
503
100
AcDbEntity
  8
RUNDUNGEN
100
AcDbCircle
 62
7
  6
CONTINUOUS
 10
257.2439125874
 20
238.1729861742
 40
1.89
100
AcDbArc
 50
8.060093135
 51
90.0
  0
ARC
  5
504
100
AcDbEntity
  8
RUNDUNGEN
100
AcDbCircle
 62
7
  6
CONTINUOUS
 10
253.4639125874
 20
238.1729861742
 40
1.89
100
AcDbArc
 50
8.0598413951
 51
90.0
  0
ARC
  5
505
100
AcDbEntity
  8
RUNDUNGEN
100
AcDbCircle
 62
7
  6
CONTINUOUS
 10
283.1565720697
 20
194.8129861742
 40
6.5
100
AcDbArc
 50
179.9999829651
 51
270.0
  0
ARC
  5
506
100
AcDbEntity
  8
RUNDUNGEN
100
AcDbCircle
 62
7
  6
CONTINUOUS
 10
284.8770901268
 20
228.5918139577
 40
24.28
100
AcDbArc
 50
337.0
 51
22.0
  0
ARC
  5
507
100
AcDbEntity
  8
RUNDUNGEN
100
AcDbCircle
 62
7
  6
CONTINUOUS
 10
271.6565720697
 20
233.8129861742
 40
3.0
100
AcDbArc
 50
0.0
 51
90.0
  0
ARC
  5
508
100
AcDbEntity
  8
RUNDUNGEN
100
AcDbCircle
 62
7
  6
CONTINUOUS
 10
274.6565720697
 20
223.0629861742
 40
2.0
100
AcDbArc
 50
270.0
 51
360.0
  0
ARC
  5
509
100
AcDbEntity
  8
RUNDUNGEN
100
AcDbCircle
 62
7
  6
CONTINUOUS
 10
278.6565720697
 20
226.5129861742
 40
2.0
100
AcDbArc
 50
90.0
 51
180.0
  0
ARC
  5
50A
100
AcDbEntity
  8
RUNDUNGEN
100
AcDbCircle
 62
7
  6
CONTINUOUS
 10
254.6201706549
 20
258.3129861742
 40
15.0
100
AcDbArc
 50
21.9999826121
 51
90.0
  0
ARC
  5
50B
100
AcDbEntity
  8
RUNDUNGEN
100
AcDbCircle
 62
7
  6
CONTINUOUS
 10
277.3580057532
 20
246.1129861742
 40
2.0
100
AcDbArc
 50
193.6463916704
 51
269.9999981783
  0
ARC
  5
50C
100
AcDbEntity
  8
RUNDUNGEN
100
AcDbCircle
 62
7
  6
CONTINUOUS
 10
257.2065720697
 20
238.7029861742
 40
1.89
100
AcDbArc
 50
188.5186252827
 51
269.9978002647
  0
ARC
  5
50D
100
AcDbEntity
  8
RUNDUNGEN
100
AcDbCircle
 62
7
  6
CONTINUOUS
 10
260.9865720697
 20
238.7029861742
 40
1.89
100
AcDbArc
 50
188.060093135
 51
270.0
  0
ARC
  5
50E
100
AcDbEntity
  8
RUNDUNGEN
100
AcDbCircle
 62
7
  6
CONTINUOUS
 10
289.8543159219
 20
194.8129861742
 40
6.5
100
AcDbArc
 50
270.0
 51
337.0
  0
ARC
  5
50F
100
AcDbEntity
  8
RUNDUNGEN
100
AcDbCircle
 62
7
  6
CONTINUOUS
 10
341.2020170411
 20
282.1318143419
 40
48.0
100
AcDbArc
 50
157.8440940103
 51
202.0
  0
ARC
  5
510
100
AcDbEntity
  8
RUNDUNGEN
100
AcDbCircle
 62
7
  6
CONTINUOUS
 10
235.1565720697
 20
325.3129861742
 40
66.5
100
AcDbArc
 50
337.8440940103
 51
202.1559059897
  0
CIRCLE
  5
511
100
AcDbEntity
  8
RUNDUNGEN
100
AcDbCircle
 62
7
  6
CONTINUOUS
 10
235.1565720697
 20
325.3129861742
 40
37.5
  0
ARC
  5
512
100
AcDbEntity
  8
RUNDUNGEN
100
AcDbCircle
 62
7
  6
CONTINUOUS
 10
298.8428223191
 20
292.4753627653
 40
12.6
100
AcDbArc
 50
165.0
 51
202.0
  0
ARC
  5
513
100
AcDbEntity
  8
RUNDUNGEN
100
AcDbCircle
 62
7
  6
CONTINUOUS
 10
235.1565720697
 20
373.3165592544
 40
12.6
100
AcDbArc
 50
69.0
 51
111.0
  0
ARC
  5
514
100
AcDbEntity
  8
RUNDUNGEN
100
AcDbCircle
 62
7
  6
CONTINUOUS
 10
267.2772320322
 20
360.9865931132
 40
12.6
100
AcDbArc
 50
27.0
 51
69.0
  0
ARC
  5
515
100
AcDbEntity
  8
RUNDUNGEN
100
AcDbCircle
 62
7
  6
CONTINUOUS
 10
282.8971765538
 20
330.3307258996
 40
12.6
100
AcDbArc
 50
345.0
 51
27.0
  0
ARC
  5
516
100
AcDbEntity
  8
RUNDUNGEN
100
AcDbCircle
 62
7
  6
CONTINUOUS
 10
355.0194924358
 20
271.1437632463
 40
15.0
100
AcDbArc
 50
353.659779189
 51
0.0000117812
  0
ARC
  5
517
100
AcDbEntity
  8
RUNDUNGEN
100
AcDbCircle
 62
7
  6
CONTINUOUS
 10
412.0194924358
 20
271.1437632463
 40
15.0
100
AcDbArc
 50
179.9999868583
 51
186.3402178736
  0
ARC
  5
518
100
AcDbEntity
  8
RUNDUNGEN
100
AcDbCircle
 62
7
  6
CONTINUOUS
 10
381.5194924358
 20
237.9822091021
 40
15.0
100
AcDbArc
 50
173.659649524
 51
180.0
  0
ARC
  5
519
100
AcDbEntity
  8
RUNDUNGEN
100
AcDbCircle
 62
7
  6
CONTINUOUS
 10
385.5194924358
 20
237.9822091021
 40
15.0
100
AcDbArc
 50
0.0
 51
6.3401917459
  0
ARC
  5
51A
100
AcDbEntity
  8
RUNDUNGEN
100
AcDbCircle
 62
7
  6
CONTINUOUS
 10
370.0194924358
 20
191.8129861742
 40
3.5
100
AcDbArc
 50
180.0
 51
270.0
  0
ARC
  5
51B
100
AcDbEntity
  8
RUNDUNGEN
100
AcDbCircle
 62
7
  6
CONTINUOUS
 10
391.0194924358
 20
388.3129861742
 40
3.5
100
AcDbArc
 50
0.0
 51
90.0
  0
ARC
  5
51C
100
AcDbEntity
  8
RUNDUNGEN
100
AcDbCircle
 62
7
  6
CONTINUOUS
 10
376.0194924358
 20
388.3129861742
 40
3.5
100
AcDbArc
 50
90.0
 51
180.0
  0
ARC
  5
51D
100
AcDbEntity
  8
RUNDUNGEN
100
AcDbCircle
 62
7
  6
CONTINUOUS
 10
397.0194924358
 20
191.8129861742
 40
3.5
100
AcDbArc
 50
270.0
 51
360.0
  0
ARC
  5
51E
100
AcDbEntity
  8
RUNDUNGEN
100
AcDbCircle
 62
7
  6
CONTINUOUS
 10
420.0194924358
 20
237.0629861742
 40
3.0
100
AcDbArc
 50
0.0
 51
90.0
  0
ARC
  5
51F
100
AcDbEntity
  8
RUNDUNGEN
100
AcDbCircle
 62
7
  6
CONTINUOUS
 10
347.0194924358
 20
237.0629861742
 40
3.0
100
AcDbArc
 50
90.0
 51
180.0
  0
ARC
  5
520
100
AcDbEntity
  8
RUNDUNGEN
100
AcDbCircle
 62
7
  6
CONTINUOUS
 10
371.0194924358
 20
384.9165592544
 40
1.0
100
AcDbArc
 50
90.0
 51
180.0
  0
ARC
  5
521
100
AcDbEntity
  8
RUNDUNGEN
100
AcDbCircle
 62
7
  6
CONTINUOUS
 10
396.0194924358
 20
384.9165592544
 40
1.0
100
AcDbArc
 50
0.0
 51
90.0
  0
ARC
  5
522
100
AcDbEntity
  8
RUNDUNGEN
100
AcDbCircle
 62
7
  6
CONTINUOUS
 10
395.5194924358
 20
386.9165592544
 40
1.0
100
AcDbArc
 50
180.0
 51
270.0
  0
ARC
  5
523
100
AcDbEntity
  8
RUNDUNGEN
100
AcDbCircle
 62
7
  6
CONTINUOUS
 10
371.5194924358
 20
386.9165592544
 40
1.0
100
AcDbArc
 50
270.0
 51
360.0
  0
ARC
  5
524
100
AcDbEntity
  8
RUNDUNGEN
100
AcDbCircle
 62
7
  6
CONTINUOUS
 10
208.6565720697
 20
46.1843393863
 40
13.0
100
AcDbArc
 50
180.0
 51
246.3270678587
  0
ARC
  5
525
100
AcDbEntity
  8
RUNDUNGEN
100
AcDbCircle
 62
7
  6
CONTINUOUS
 10
164.6560540125
 20
53.6305965078
 40
3.5
100
AcDbArc
 50
180.0
 51
270.0
  0
ARC
  5
526
100
AcDbEntity
  8
RUNDUNGEN
100
AcDbCircle
 62
7
  6
CONTINUOUS
 10
172.1565720697
 20
59.6305965078
 40
3.5
100
AcDbArc
 50
180.0
 51
270.0
  0
ARC
  5
527
100
AcDbEntity
  8
RUNDUNGEN
100
AcDbCircle
 62
7
  6
CONTINUOUS
 10
190.1565720697
 20
53.6305965078
 40
3.5
100
AcDbArc
 50
270.0
 51
315.9059172738
  0
ARC
  5
528
100
AcDbEntity
  8
RUNDUNGEN
100
AcDbCircle
 62
7
  6
CONTINUOUS
 10
184.2938881131
 20
52.1305965078
 40
1.9999784375
100
AcDbArc
 50
269.9985647677
 51
317.44477528
  0
ARC
  5
529
100
AcDbEntity
  8
RUNDUNGEN
100
AcDbCircle
 62
7
  6
CONTINUOUS
 10
175.8159675855
 20
54.6305965078
 40
1.0
100
AcDbArc
 50
180.0
 51
270.0
  0
ARC
  5
52A
100
AcDbEntity
  8
RUNDUNGEN
100
AcDbCircle
 62
7
  6
CONTINUOUS
 10
173.8159675855
 20
55.1305965078
 40
1.0
100
AcDbArc
 50
0.0
 51
90.0
  0
ARC
  5
52B
100
AcDbEntity
  8
RUNDUNGEN
100
AcDbCircle
 62
7
  6
CONTINUOUS
 10
208.6565720697
 20
88.0768536294
 40
13.0
100
AcDbArc
 50
113.6729321413
 51
180.0
  0
ARC
  5
52C
100
AcDbEntity
  8
RUNDUNGEN
100
AcDbCircle
 62
7
  6
CONTINUOUS
 10
164.6560540125
 20
80.6305965078
 40
3.5
100
AcDbArc
 50
90.0
 51
180.0
  0
ARC
  5
52D
100
AcDbEntity
  8
RUNDUNGEN
100
AcDbCircle
 62
7
  6
CONTINUOUS
 10
172.1565720697
 20
74.6305965078
 40
3.5
100
AcDbArc
 50
90.0
 51
180.0
  0
ARC
  5
52E
100
AcDbEntity
  8
RUNDUNGEN
100
AcDbCircle
 62
7
  6
CONTINUOUS
 10
190.1565720697
 20
80.6305965078
 40
3.5
100
AcDbArc
 50
44.0635469369
 51
90.0
  0
ARC
  5
52F
100
AcDbEntity
  8
RUNDUNGEN
100
AcDbCircle
 62
7
  6
CONTINUOUS
 10
184.2938380116
 20
82.1305965078
 40
2.0
100
AcDbArc
 50
58.4122797386
 51
90.0
  0
ARC
  5
530
100
AcDbEntity
  8
RUNDUNGEN
100
AcDbCircle
 62
7
  6
CONTINUOUS
 10
175.8159675855
 20
79.6305965078
 40
1.0
100
AcDbArc
 50
90.0
 51
180.0
  0
ARC
  5
531
100
AcDbEntity
  8
RUNDUNGEN
100
AcDbCircle
 62
7
  6
CONTINUOUS
 10
173.8159675855
 20
79.1305965078
 40
1.0
100
AcDbArc
 50
270.0
 51
360.0
  0
ARC
  5
532
100
AcDbEntity
  8
RUNDUNGEN
100
AcDbCircle
 62
7
  6
CONTINUOUS
 10
235.1565720697
 20
27.6305965078
 40
79.0
100
AcDbArc
 50
66.3270678587
 51
113.6729321413
  0
ARC
  5
533
100
AcDbEntity
  8
RUNDUNGEN
100
AcDbCircle
 62
7
  6
CONTINUOUS
 10
261.6565720697
 20
46.1843393863
 40
13.0
100
AcDbArc
 50
293.6729321413
 51
360.0
  0
ARC
  5
534
100
AcDbEntity
  8
RUNDUNGEN
100
AcDbCircle
 62
7
  6
CONTINUOUS
 10
305.6570901268
 20
53.6305965078
 40
3.5
100
AcDbArc
 50
270.0
 51
360.0
  0
ARC
  5
535
100
AcDbEntity
  8
RUNDUNGEN
100
AcDbCircle
 62
7
  6
CONTINUOUS
 10
298.1565720697
 20
59.6305965078
 40
3.5
100
AcDbArc
 50
270.0
 51
360.0
  0
ARC
  5
536
100
AcDbEntity
  8
RUNDUNGEN
100
AcDbCircle
 62
7
  6
CONTINUOUS
 10
280.1565720697
 20
53.6305965078
 40
3.5
100
AcDbArc
 50
224.0648935659
 51
270.0
  0
ARC
  5
537
100
AcDbEntity
  8
RUNDUNGEN
100
AcDbCircle
 62
7
  6
CONTINUOUS
 10
286.0193061278
 20
52.1305965078
 40
2.0
100
AcDbArc
 50
222.5532169351
 51
270.0
  0
ARC
  5
538
100
AcDbEntity
  8
RUNDUNGEN
100
AcDbCircle
 62
7
  6
CONTINUOUS
 10
294.4971765538
 20
54.6305965078
 40
1.0
100
AcDbArc
 50
270.0
 51
360.0
  0
ARC
  5
539
100
AcDbEntity
  8
RUNDUNGEN
100
AcDbCircle
 62
7
  6
CONTINUOUS
 10
296.4971765538
 20
55.1305965078
 40
1.0
100
AcDbArc
 50
90.0
 51
180.0
  0
ARC
  5
53A
100
AcDbEntity
  8
0
100
AcDbCircle
 62
7
  6
CONTINUOUS
 10
235.1565720697
 20
67.1305965078
 40
36.5
100
AcDbArc
 50
201.8223696042
 51
338.1774581924
  0
ARC
  5
53B
100
AcDbEntity
  8
0
100
AcDbCircle
 62
7
  6
CONTINUOUS
 10
235.1565720697
 20
67.1305965078
 40
36.5
100
AcDbArc
 50
21.8225414681
 51
158.1776387349
  0
ARC
  5
53C
100
AcDbEntity
  8
BEZUGSACHSEN
100
AcDbCircle
 62
7
  6
CONTINUOUS
 10
235.1565720697
 20
67.1305965078
 40
23.0
100
AcDbArc
 50
35.9709044432
 51
144.0290955567
  0
ARC
  5
53D
100
AcDbEntity
  8
BEZUGSACHSEN
100
AcDbCircle
 62
7
  6
CONTINUOUS
 10
235.1565720697
 20
67.1305965078
 40
23.0
100
AcDbArc
 50
215.9709044432
 51
324.0290955568
  0
ARC
  5
53E
100
AcDbEntity
  8
RUNDUNGEN
100
AcDbCircle
 62
7
  6
CONTINUOUS
 10
235.1565720697
 20
106.6305965078
 40
79.0
100
AcDbArc
 50
246.3270678587
 51
293.6729321413
  0
ARC
  5
53F
100
AcDbEntity
  8
RUNDUNGEN
100
AcDbCircle
 62
7
  6
CONTINUOUS
 10
261.6565720697
 20
88.0768536294
 40
13.0
100
AcDbArc
 50
0.0
 51
66.3270678587
  0
ARC
  5
540
100
AcDbEntity
  8
RUNDUNGEN
100
AcDbCircle
 62
7
  6
CONTINUOUS
 10
305.6570901268
 20
80.6305965078
 40
3.5
100
AcDbArc
 50
0.0
 51
90.0
  0
ARC
  5
541
100
AcDbEntity
  8
RUNDUNGEN
100
AcDbCircle
 62
7
  6
CONTINUOUS
 10
298.1565720697
 20
74.6305965078
 40
3.5
100
AcDbArc
 50
0.0
 51
90.0
  0
ARC
  5
542
100
AcDbEntity
  8
RUNDUNGEN
100
AcDbCircle
 62
7
  6
CONTINUOUS
 10
280.1565720697
 20
80.6305965078
 40
3.5
100
AcDbArc
 50
90.0
 51
135.9076617807
  0
ARC
  5
543
100
AcDbEntity
  8
RUNDUNGEN
100
AcDbCircle
 62
7
  6
CONTINUOUS
 10
286.0192560263
 20
82.1305965078
 40
1.9999784375
100
AcDbArc
 50
89.9985647679
 51
137.4447752802
  0
ARC
  5
544
100
AcDbEntity
  8
RUNDUNGEN
100
AcDbCircle
 62
7
  6
CONTINUOUS
 10
294.4971765538
 20
79.6305965078
 40
1.0
100
AcDbArc
 50
0.0
 51
90.0
  0
ARC
  5
545
100
AcDbEntity
  8
RUNDUNGEN
100
AcDbCircle
 62
7
  6
CONTINUOUS
 10
296.4971765538
 20
79.1305965078
 40
1.0
100
AcDbArc
 50
180.0
 51
270.0
  0
SPLINE
  5
546
100
AcDbEntity
  8
0
100
AcDbSpline
 62
7
  6
CONTINUOUS
 70
0
 71
3
 72
9
 73
5
 74
0
 42
0.0000001
 43
0.0000001
 44
0.0000000001
 40
0.0
 40
0.0
 40
0.0
 40
0.0
 40
0.4999571724
 40
1.0
 40
1.0
 40
1.0
 40
1.0
 10
260.9497393858
 20
239.8137659061
 30
0.0
 10
260.8038797226
 20
239.8955439011
 30
0.0
 10
260.4893663475
 20
240.0213721337
 30
0.0
 10
260.1534834391
 20
240.0629861742
 30
0.0
 10
259.9862343313
 20
240.0629861742
 30
0.0
  0
SPLINE
  5
547
100
AcDbEntity
  8
0
100
AcDbSpline
 62
7
  6
CONTINUOUS
 70
0
 71
3
 72
9
 73
5
 74
0
 42
0.0000001
 43
0.0000001
 44
0.0000000001
 40
0.0
 40
0.0
 40
0.0
 40
0.0
 40
0.5000424413
 40
1.0
 40
1.0
 40
1.0
 40
1.0
 10
210.3269098081
 20
240.0629861742
 30
0.0
 10
210.1597075904
 20
240.0629861742
 30
0.0
 10
209.8239191889
 20
240.0213960623
 30
0.0
 10
209.509483045
 20
239.8956369823
 30
0.0
 10
209.3636515813
 20
239.8139040314
 30
0.0
  0
SPLINE
  5
548
100
AcDbEntity
  8
BEZUGSACHSEN
100
AcDbSpline
 62
7
  6
CONTINUOUS
 70
0
 71
3
 72
11
 73
7
 74
0
 42
0.0000001
 43
0.0000001
 44
0.0000000001
 40
0.0
 40
0.0
 40
0.0
 40
0.0
 40
0.2616428782
 40
0.5144969794
 40
0.7595947265
 40
1.0
 40
1.0
 40
1.0
 40
1.0
 10
208.598459687
 20
264.9587090322
 30
0.0
 10
209.1292139715
 20
265.2651401613
 30
0.0
 10
210.1969844979
 20
265.8278879643
 30
0.0
 10
211.8526252703
 20
266.490722117
 30
0.0
 10
213.5355384057
 20
266.9148094529
 30
0.0
 10
214.6748716761
 20
267.0129861742
 30
0.0
 10
215.2379877824
 20
267.0129861742
 30
0.0
  0
SPLINE
  5
549
100
AcDbEntity
  8
BEZUGSACHSEN
100
AcDbSpline
 62
7
  6
CONTINUOUS
 70
0
 71
3
 72
11
 73
7
 74
0
 42
0.0000001
 43
0.0000001
 44
0.0000000001
 40
0.0
 40
0.0
 40
0.0
 40
0.0
 40
0.2404052896
 40
0.4855030392
 40
0.7383571262
 40
1.0
 40
1.0
 40
1.0
 40
1.0
 10
215.2379877824
 20
267.0129861742
 30
0.0
 10
215.8011039266
 20
267.0129861742
 30
0.0
 10
216.9404372444
 20
266.914809467
 30
0.0
 10
218.623350381
 20
266.4907220842
 30
0.0
 10
220.2789911169
 20
265.8278879449
 30
0.0
 10
221.3467616026
 20
265.2651401562
 30
0.0
 10
221.8775158783
 20
264.9587090322
 30
0.0
  0
SPLINE
  5
54A
100
AcDbEntity
  8
BEZUGSACHSEN
100
AcDbSpline
 62
7
  6
CONTINUOUS
 70
0
 71
3
 72
10
 73
6
 74
0
 42
0.0000001
 43
0.0000001
 44
0.0000000001
 40
0.0
 40
0.0
 40
0.0
 40
0.0
 40
0.4999007783
 40
0.7499513871
 40
1.0
 40
1.0
 40
1.0
 40
1.0
 10
221.8775158783
 20
264.9587090322
 30
0.0
 10
224.0350652448
 20
265.581539886
 30
0.0
 10
227.3243107786
 20
266.360162867
 30
0.0
 10
231.7855761471
 20
266.9171254425
 30
0.0
 10
234.0333065402
 20
267.0129861741
 30
0.0
 10
235.1565720697
 20
267.0129861742
 30
0.0
  0
SPLINE
  5
54B
100
AcDbEntity
  8
BEZUGSACHSEN
100
AcDbSpline
 62
7
  6
CONTINUOUS
 70
0
 71
3
 72
10
 73
6
 74
0
 42
0.0000001
 43
0.0000001
 44
0.0000000001
 40
0.0
 40
0.0
 40
0.0
 40
0.0
 40
0.250049011
 40
0.5000997341
 40
1.0
 40
1.0
 40
1.0
 40
1.0
 10
235.1565720697
 20
267.0129861742
 30
0.0
 10
236.2798393905
 20
267.0129861741
 30
0.0
 10
238.5275721236
 20
266.9171256811
 30
0.0
 10
242.9888373584
 20
266.3601617723
 30
0.0
 10
246.2780811
 20
265.5815392493
 30
0.0
 10
248.435628261
 20
264.9587090322
 30
0.0
  0
SPLINE
  5
54C
100
AcDbEntity
  8
BEZUGSACHSEN
100
AcDbSpline
 62
7
  6
CONTINUOUS
 70
0
 71
3
 72
11
 73
7
 74
0
 42
0.0000001
 43
0.0000001
 44
0.0000000001
 40
0.0
 40
0.0
 40
0.0
 40
0.0
 40
0.2616428782
 40
0.5144969794
 40
0.7595947265
 40
1.0
 40
1.0
 40
1.0
 40
1.0
 10
248.435628261
 20
264.9587090322
 30
0.0
 10
248.9663825456
 20
265.2651401613
 30
0.0
 10
250.034153072
 20
265.8278879643
 30
0.0
 10
251.6897938444
 20
266.490722117
 30
0.0
 10
253.3727069798
 20
266.9148094529
 30
0.0
 10
254.5120402502
 20
267.0129861742
 30
0.0
 10
255.0751563565
 20
267.0129861742
 30
0.0
  0
SPLINE
  5
54D
100
AcDbEntity
  8
BEZUGSACHSEN
100
AcDbSpline
 62
7
  6
CONTINUOUS
 70
0
 71
3
 72
11
 73
7
 74
0
 42
0.0000001
 43
0.0000001
 44
0.0000000001
 40
0.0
 40
0.0
 40
0.0
 40
0.0
 40
0.2404052896
 40
0.4855030392
 40
0.7383571262
 40
1.0
 40
1.0
 40
1.0
 40
1.0
 10
255.0751563565
 20
267.0129861742
 30
0.0
 10
255.6382725007
 20
267.0129861742
 30
0.0
 10
256.7776058185
 20
266.914809467
 30
0.0
 10
258.4605189551
 20
266.4907220842
 30
0.0
 10
260.116159691
 20
265.8278879449
 30
0.0
 10
261.1839301766
 20
265.2651401562
 30
0.0
 10
261.7146844524
 20
264.9587090322
 30
0.0
  0
LINE
  5
54E
100
AcDbEntity
  8
BEZUGSACHSEN
100
AcDbLine
 62
7
  6
CONTINUOUS
 10
398.357716177
 20
266.8277722148
 11
398.3820026843
 21
266.8250864278
  0
LINE
  5
54F
100
AcDbEntity
  8
BEZUGSACHSEN
100
AcDbLine
 62
7
  6
CONTINUOUS
 10
398.3820026843
 20
266.8250864278
 11
398.4036155912
 21
266.8226804191
  0
SPLINE
  5
550
100
AcDbEntity
  8
BEZUGSACHSEN
100
AcDbSpline
 62
7
  6
CONTINUOUS
 70
0
 71
3
 72
9
 73
5
 74
0
 42
0.0000001
 43
0.0000001
 44
0.0000000001
 40
0.0
 40
0.0
 40
0.0
 40
0.0
 40
0.4985104879
 40
1.0
 40
1.0
 40
1.0
 40
1.0
 10
398.4036155912
 20
266.8226804191
 30
0.0
 10
399.7807115807
 20
266.6689017612
 30
0.0
 10
402.5245164944
 20
266.1774890807
 30
0.0
 10
405.1970886366
 20
265.3995102987
 30
0.0
 10
406.5194924358
 20
264.9587090322
 30
0.0
  0
SPLINE
  5
551
100
AcDbEntity
  8
BEZUGSACHSEN
100
AcDbSpline
 62
7
  6
CONTINUOUS
 70
0
 71
3
 72
9
 73
5
 74
0
 42
0.0000001
 43
0.0000001
 44
0.0000000001
 40
0.0
 40
0.0
 40
0.0
 40
0.0
 40
0.5014885891
 40
1.0
 40
1.0
 40
1.0
 40
1.0
 10
360.5194924358
 20
264.9587090322
 30
0.0
 10
361.8409054247
 20
265.3991800285
 30
0.0
 10
364.5114516621
 20
266.1766506975
 30
0.0
 10
367.2531259829
 20
266.6680531126
 30
0.0
 10
368.6291651009
 20
266.8219869905
 30
0.0
  0
LINE
  5
552
100
AcDbEntity
  8
BEZUGSACHSEN
100
AcDbLine
 62
7
  6
CONTINUOUS
 10
368.6291651009
 20
266.8219869905
 11
368.6812709454
 21
266.8277724614
  0
ELLIPSE
  5
553
100
AcDbEntity
  8
0
100
AcDbEllipse
 62
7
  6
CONTINUOUS
 10
188.9837739193
 20
82.2146789467
 30
0.0
 11
2.1357
 21
-0.0
 31
0.0
 40
0.1111111111
 41
5.0789081233
 42
8.2205007769
  0
ELLIPSE
  5
554
100
AcDbEntity
  8
0
100
AcDbEllipse
 62
7
  6
CONTINUOUS
 10
183.7452233965
 20
82.4403105504
 30
0.0
 11
5.2578895471
 21
0.113689171
 31
0.0
 40
0.0810972458
 41
3.1398392359
 42
3.3950863259
  0
ELLIPSE
  5
555
100
AcDbEntity
  8
0
100
AcDbEllipse
 62
7
  6
CONTINUOUS
 10
184.4790814043
 20
95.6305965078
 30
0.0
 11
0.0
 21
15.0
 31
0.0
 40
0.383864035
 41
-3.2522498748
 42
-3.14960976
  0
ELLIPSE
  5
556
100
AcDbEntity
  8
0
100
AcDbEllipse
 62
7
  6
CONTINUOUS
 10
184.1196439271
 20
95.6305965078
 30
0.0
 11
39.0763359704
 21
-0.0
 31
0.0
 40
0.383864035
 41
4.7248587622
 42
4.7651134879
  0
ELLIPSE
  5
557
100
AcDbEntity
  8
0
100
AcDbEllipse
 62
7
  6
CONTINUOUS
 10
274.0424230973
 20
38.6305965078
 30
0.0
 11
0.0
 21
15.0
 31
0.0
 40
0.1444326796
 41
0.0
 42
0.0762984616
  0
ELLIPSE
  5
558
100
AcDbEntity
  8
0
100
AcDbEllipse
 62
7
  6
CONTINUOUS
 10
185.3154478499
 20
38.6305965078
 30
0.0
 11
0.0
 21
15.0
 31
0.0
 40
0.4040262258
 41
0.0232748284
 42
0.1106572212
  0
ELLIPSE
  5
559
100
AcDbEntity
  8
0
100
AcDbEllipse
 62
7
  6
CONTINUOUS
 10
188.9837739193
 20
82.2146789467
 30
0.0
 11
4.3533
 21
0.0
 31
0.0
 40
0.1111111111
 41
-1.2042771839
 42
1.9373154697
  0
ELLIPSE
  5
55A
100
AcDbEntity
  8
0
100
AcDbEllipse
 62
7
  6
CONTINUOUS
 10
185.2996950446
 20
83.3689500533
 30
0.0
 11
2.2176
 21
-0.0
 31
0.0
 40
0.1111111111
 41
0.3665191429
 42
1.9373154697
  0
ELLIPSE
  5
55B
100
AcDbEntity
  8
0
100
AcDbEllipse
 62
7
  6
CONTINUOUS
 10
182.7235732157
 20
83.25907444
 30
0.0
 11
2.2176
 21
-0.0
 31
0.0
 40
0.1111111111
 41
1.9373154697
 42
3.5081117965
  0
ELLIPSE
  5
55C
100
AcDbEntity
  8
0
100
AcDbEllipse
 62
7
  6
CONTINUOUS
 10
183.7452233965
 20
83.3911259899
 30
0.0
 11
5.2578895471
 21
0.113689171
 31
0.0
 40
0.0810972458
 41
6.5366789795
 42
9.6782716331
  0
ENDSEC
  0
SECTION
  2
OBJECTS
  0
DICTIONARY
  5
C
100
AcDbDictionary
280
0
281
1
  3
ACAD_GROUP
350
D
  3
ACAD_MLINESTYLE
350
17
  3
ACAD_LAYOUT
350
1A
  3
ACAD_PLOTSETTINGS
350
19
  3
ACAD_PLOTSTYLENAME
350
E
  0
DICTIONARY
  5
D
102
{ACAD_REACTORS
330
C
102
}
100
AcDbDictionary
280
0
281
1
  0
ACDBDICTIONARYWDFLT
  5
E
102
{ACAD_REACTORS
330
C
102
}
100
AcDbDictionary
281
1
  3
Normal
350
F
100
AcDbDictionaryWithDefault
340
F
  0
DICTIONARY
  5
17
102
{ACAD_REACTORS
330
C
102
}
100
AcDbDictionary
280
0
281
1
  3
Standard
350
18
  0
DICTIONARY
  5
19
102
{ACAD_REACTORS
330
C
102
}
100
AcDbDictionary
281
1
  0
DICTIONARY
  5
1A
102
{ACAD_REACTORS
330
C
102
}
100
AcDbDictionary
281
1
  3
Model
350
55D
  3
Layout1
350
55E
  0
ACDBPLACEHOLDER
  5
F
102
{ACAD_REACTORS
330
E
102
}
  0
MLINESTYLE
  5
18
102
{ACAD_REACTORS
330
17
102
}
100
AcDbMlineStyle
  2
STANDARD
 70
0
  3

 62
256
 51
90.0
 52
90.0
 71
2
 49
0.5
 62
256
  6
BYLAYER
 49
-0.5
 62
256
  6
BYLAYER
  0
LAYOUT
  5
55D
102
{ACAD_REACTORS
330
1A
102
}
100
AcDbPlotSettings
  1

  2
none_device
  4
ISO_A2_(594.00_x_420.00_MM)
  6

 40
0.0
 41
0.0
 42
0.0
 43
0.0
 44
594.0
 45
420.0
 46
0.0
 47
0.0
 48
0.0
 49
0.0
140
0.0
141
0.0
142
1.0
143
1.0
 70
1024
 72
1
 73
0
 74
0
  7

 75
0
147
1.0
148
0.0
149
0.0
100
AcDbLayout
  1
Model
 70
0
 71
0
 10
0.0
 20
0.0
 11
594.0
 21
420.0
 12
0.0
 22
0.0
 32
0.0
 14
0.0
 24
0.0
 34
0.0
 15
0.0
 25
0.0
 35
0.0
146
0.0
 13
0.0
 23
0.0
 33
0.0
 16
1.0
 26
0.0
 36
0.0
 17
0.0
 27
1.0
 37
0.0
 76
0
330
20F
345
0
346
0
  0
LAYOUT
  5
55E
102
{ACAD_REACTORS
330
1A
102
}
100
AcDbPlotSettings
  1

  2
none_device
  4
ISO_A2_(594.00_x_420.00_MM)
  6

 40
0.0
 41
0.0
 42
0.0
 43
0.0
 44
594.0
 45
420.0
 46
0.0
 47
0.0
 48
0.0
 49
0.0
140
0.0
141
0.0
142
1.0
143
1.0
 70
0
 72
1
 73
0
 74
0
  7

 75
0
147
1.0
148
0.0
149
0.0
100
AcDbLayout
  1
Layout1
 70
0
 71
1
 10
0.0
 20
0.0
 11
594.0
 21
420.0
 12
0.0
 22
0.0
 32
0.0
 14
0.0
 24
0.0
 34
0.0
 15
0.0
 25
0.0
 35
0.0
146
0.0
 13
0.0
 23
0.0
 33
0.0
 16
1.0
 26
0.0
 36
0.0
 17
0.0
 27
1.0
 37
0.0
 76
0
330
210
345
0
346
0
  0
ENDSEC
  0
EOF
