999
DXF file: 001-m35801-p-1.dxf
999
Pro/ENGINEER 2011490 by Parametric Technology Corporation
  0
SECTION
  2
HEADER
  9
$ACADVER
  1
AC1015
  9
$DWGCODEPAGE
  3
ANSI_1252
  9
$EXTMAX
 10
594.0
 20
420.0
 30
0.0
  9
$EXTMIN
 10
0.0
 20
0.0
 30
0.0
  9
$LIMMIN
 10
0.0
 20
0.0
  9
$LIMMAX
 10
594.0
 20
420.0
  9
$VIEWCTR
 10
297.0
 20
210.0
  9
$VIEWSIZE
 40
420.0
  9
$CLAYER
  8
0
  9
$LTSCALE
 40
32.67
  9
$CELTYPE
  6
BYLAYER
  9
$DIMSCALE
 40
1.0
  9
$DIMASZ
 40
3.5
  9
$DIMEXO
 40
3.7125
  9
$DIMDLI
 40
22.572
  9
$DIMEXE
 40
10.692
  9
$DIMCEN
 40
5.346
  9
$DIMLFAC
 40
1.0
  9
$DIMBLK
  1
_FILLED
  9
$DIMTXT
 40
3.5
  9
$DIMTOL
 70
1
  9
$DIMLIM
 70
0
  9
$DIMTFAC
 40
1.0
  9
$DIMTP
 40
0.005
  9
$DIMTM
 40
0.005
  9
$PDMODE
 70
3
  9
$PDSIZE
 40
0.3125
  9
$HANDSEED
  5
5E1
  9
$TILEMODE
 70
1
  9
$MEASUREMENT
 70
1
  9
$INSUNITS
 70
4
  0
ENDSEC
  0
SECTION
  2
CLASSES
  0
CLASS
  1
ACDBDICTIONARYWDFLT
  2
AcDbDictionaryWithDefault
  3
AutoCAD 2000
 90
0
280
0
281
0
  0
CLASS
  1
ACDBPLACEHOLDER
  2
AcDbPlaceHolder
  3
AutoCAD 2000
 90
0
280
0
281
0
  0
CLASS
  1
LAYOUT
  2
AcDbLayout
  3
AutoCAD 2000
 90
0
280
0
281
0
  0
ENDSEC
  0
SECTION
  2
TABLES
  0
TABLE
  2
VPORT
  5
8
100
AcDbSymbolTable
 70
2
  0
VPORT
  5
1F4
100
AcDbSymbolTableRecord
100
AcDbViewportTableRecord
  2
*ACTIVE
 70
0
 10
0.0
 20
0.0
 11
1.0
 21
1.0
 12
297.0
 22
210.0
 13
0.0
 23
0.0
 14
1.0
 24
1.0
 15
0.0
 25
0.0
 16
0.0
 26
0.0
 36
1.0
 17
0.0
 27
0.0
 37
0.0
 40
420.0
 41
1.4142857143
 42
50.0
 43
0.0
 44
0.0
 50
0.0
 51
0.0
 71
0
 72
100
 73
1
 74
1
 75
0
 76
0
 77
0
 78
0
  0
ENDTAB
  0
TABLE
  2
LTYPE
  5
5
100
AcDbSymbolTable
 70
6
  0
LTYPE
  5
14
100
AcDbSymbolTableRecord
100
AcDbLinetypeTableRecord
  2
BYBLOCK
 70
0
  3

 72
65
 73
0
 40
0.0
  0
LTYPE
  5
15
100
AcDbSymbolTableRecord
100
AcDbLinetypeTableRecord
  2
BYLAYER
 70
0
  3

 72
65
 73
0
 40
0.0
  0
LTYPE
  5
16
100
AcDbSymbolTableRecord
100
AcDbLinetypeTableRecord
  2
CONTINUOUS
 70
64
  3
Solid line
 72
65
 73
0
 40
0.0
  0
LTYPE
  5
1F5
100
AcDbSymbolTableRecord
100
AcDbLinetypeTableRecord
  2
CENTER
 70
64
  3
____ _ ____ _ ____ _ ____ _ ____ _ ____ _ ____
 72
65
 73
4
 40
0.6
 49
0.375
 74
0
 49
-0.075
 74
0
 49
0.075
 74
0
 49
-0.075
 74
0
  0
LTYPE
  5
1F6
100
AcDbSymbolTableRecord
100
AcDbLinetypeTableRecord
  2
HIDDEN
 70
64
  3
- - - - - - - - - - - - - - - - - - - -
 72
65
 73
2
 40
0.2
 49
0.1
 74
0
 49
-0.1
 74
0
  0
LTYPE
  5
1F7
100
AcDbSymbolTableRecord
100
AcDbLinetypeTableRecord
  2
PHANTOM
 70
64
  3
_____ _ _ _____ _ _ _____ _ _ _____
 72
65
 73
6
 40
0.8
 49
0.45
 74
0
 49
-0.05
 74
0
 49
0.1
 74
0
 49
-0.05
 74
0
 49
0.1
 74
0
 49
-0.05
 74
0
  0
LTYPE
  5
1F8
100
AcDbSymbolTableRecord
100
AcDbLinetypeTableRecord
  2
DOT
 70
64
  3
. . . . . . . . . . . . . . . . . . . .
 72
65
 73
2
 40
0.2
 49
0.1
 74
0
 49
-0.1
 74
0
  0
LTYPE
  5
1F9
100
AcDbSymbolTableRecord
100
AcDbLinetypeTableRecord
  2
DASHED
 70
64
  3
- - - - - - - - - - - - - - - - - - - -
 72
65
 73
2
 40
0.2
 49
0.1
 74
0
 49
-0.1
 74
0
  0
ENDTAB
  0
TABLE
  2
LAYER
  5
2
100
AcDbSymbolTable
 70
36
  0
LAYER
  5
10
100
AcDbSymbolTableRecord
100
AcDbLayerTableRecord
  2
0
 70
0
 62
7
  6
CONTINUOUS
370
-3
390
F
  0
LAYER
  5
1FA
100
AcDbSymbolTableRecord
100
AcDbLayerTableRecord
  2
DEFAULT_1
 70
0
 62
7
  6
CENTER
370
-3
390
F
  0
LAYER
  5
1FB
100
AcDbSymbolTableRecord
100
AcDbLayerTableRecord
  2
DEFAULT_2
 70
0
 62
8
  6
HIDDEN
370
-3
390
F
  0
LAYER
  5
1FC
100
AcDbSymbolTableRecord
100
AcDbLayerTableRecord
  2
DEFAULT_3
 70
0
 62
7
  6
PHANTOM
370
-3
390
F
  0
LAYER
  5
1FD
100
AcDbSymbolTableRecord
100
AcDbLayerTableRecord
  2
AUSFORMSCHRAEGEN
 70
0
 62
7
  6
CONTINUOUS
370
-3
390
F
  0
LAYER
  5
1FE
100
AcDbSymbolTableRecord
100
AcDbLayerTableRecord
  2
BEZUGSACHSEN
 70
0
 62
7
  6
CONTINUOUS
370
-3
390
F
  0
LAYER
  5
1FF
100
AcDbSymbolTableRecord
100
AcDbLayerTableRecord
  2
BEZUGSEBENEN
 70
0
 62
7
  6
CONTINUOUS
370
-3
390
F
  0
LAYER
  5
200
100
AcDbSymbolTableRecord
100
AcDbLayerTableRecord
  2
BG_STARTBEZUEGE
 70
0
 62
7
  6
CONTINUOUS
370
-3
390
F
  0
LAYER
  5
201
100
AcDbSymbolTableRecord
100
AcDbLayerTableRecord
  2
FASEN
 70
0
 62
7
  6
CONTINUOUS
370
-3
390
F
  0
LAYER
  5
202
100
AcDbSymbolTableRecord
100
AcDbLayerTableRecord
  2
GEWINDE
 70
0
 62
7
  6
CONTINUOUS
370
-3
390
F
  0
LAYER
  5
203
100
AcDbSymbolTableRecord
100
AcDbLayerTableRecord
  2
HILFEN
 70
0
 62
7
  6
CONTINUOUS
370
-3
390
F
  0
LAYER
  5
204
100
AcDbSymbolTableRecord
100
AcDbLayerTableRecord
  2
KONSTRUKTIONSELEMENTE
 70
0
 62
7
  6
CONTINUOUS
370
-3
390
F
  0
LAYER
  5
205
100
AcDbSymbolTableRecord
100
AcDbLayerTableRecord
  2
KURVEN
 70
0
 62
7
  6
CONTINUOUS
370
-3
390
F
  0
LAYER
  5
206
100
AcDbSymbolTableRecord
100
AcDbLayerTableRecord
  2
NORM
 70
0
 62
7
  6
CONTINUOUS
370
-3
390
F
  0
LAYER
  5
207
100
AcDbSymbolTableRecord
100
AcDbLayerTableRecord
  2
PLATZIERUNG
 70
0
 62
7
  6
CONTINUOUS
370
-3
390
F
  0
LAYER
  5
208
100
AcDbSymbolTableRecord
100
AcDbLayerTableRecord
  2
PLAZIERUNG
 70
0
 62
7
  6
CONTINUOUS
370
-3
390
F
  0
LAYER
  5
209
100
AcDbSymbolTableRecord
100
AcDbLayerTableRecord
  2
RUNDUNGEN
 70
0
 62
7
  6
CONTINUOUS
370
-3
390
F
  0
LAYER
  5
20A
100
AcDbSymbolTableRecord
100
AcDbLayerTableRecord
  2
TEIL_STARTBEZUEGE
 70
0
 62
7
  6
CONTINUOUS
370
-3
390
F
  0
LAYER
  5
20B
100
AcDbSymbolTableRecord
100
AcDbLayerTableRecord
  2
T_STARTBEZUEGE
 70
0
 62
7
  6
CONTINUOUS
370
-3
390
F
  0
LAYER
  5
20C
100
AcDbSymbolTableRecord
100
AcDbLayerTableRecord
  2
XSEC_DATUMS
 70
0
 62
7
  6
CONTINUOUS
370
-3
390
F
  0
LAYER
  5
20D
100
AcDbSymbolTableRecord
100
AcDbLayerTableRecord
  2
ZEICHNUNGSBEMASSUNGEN
 70
0
 62
7
  6
CONTINUOUS
370
-3
390
F
  0
ENDTAB
  0
TABLE
  2
STYLE
  5
3
100
AcDbSymbolTable
 70
1
  0
STYLE
  5
11
100
AcDbSymbolTableRecord
100
AcDbTextStyleTableRecord
  2
STANDARD
 70
0
 40
0.0
 41
0.7
 50
0.0
 71
0
 42
0.2
  3
txt
  4

  0
STYLE
  5
20E
100
AcDbSymbolTableRecord
100
AcDbTextStyleTableRecord
  2
TEXTSTYLE_1
 70
0
 40
0.0
 41
0.8
 50
0.0
 71
0
 42
0.2
  3
gdt
  4

  0
ENDTAB
  0
TABLE
  2
VIEW
  5
6
100
AcDbSymbolTable
 70
0
  0
ENDTAB
  0
TABLE
  2
UCS
  5
7
100
AcDbSymbolTable
 70
0
  0
ENDTAB
  0
TABLE
  2
APPID
  5
9
100
AcDbSymbolTable
 70
1
  0
APPID
  5
20F
100
AcDbSymbolTableRecord
100
AcDbRegAppTableRecord
  2
ACAD
 70
0
  0
ENDTAB
  0
TABLE
  2
BLOCK_RECORD
  5
1
100
AcDbSymbolTable
 70
0
  0
BLOCK_RECORD
  5
210
100
AcDbSymbolTableRecord
100
AcDbBlockTableRecord
  2
*Model_Space
  0
BLOCK_RECORD
  5
211
100
AcDbSymbolTableRecord
100
AcDbBlockTableRecord
  2
*Paper_Space
  0
ENDTAB
  0
TABLE
  2
DIMSTYLE
  5
A
100
AcDbSymbolTable
 70
1
100
AcDbDimStyleTable
 71
0
  0
DIMSTYLE
105
212
100
AcDbSymbolTableRecord
100
AcDbDimStyleTableRecord
  2
STANDARD
 70
0
  3

  4

 40
1.0
 41
3.5
 42
0.0625
 43
0.38
 44
0.18
 45
0.0
 46
0.0
 47
0.005
 48
0.005
140
3.5
141
0.09
142
0.0
143
25.4
144
1.0
145
0.0
146
1.0
147
0.09
 71
1.0
 72
0.0
 73
0
 74
0
 75
0
 76
0
 77
1
 78
8
170
0
171
2
172
0
173
0
174
0
175
0
176
0
177
0
178
5
270
2
271
3
272
3
273
2
274
2
275
0
280
0
281
0
282
0
283
1
284
8
285
0
286
0
287
3
288
0
340
11
  0
ENDTAB
  0
ENDSEC
  0
SECTION
  2
BLOCKS
  0
BLOCK
  5
20
100
AcDbEntity
  8
0
100
AcDbBlockBegin
  2
*Model_Space
 70
0
 10
0.0
 20
0.0
 30
0.0
  3
*Model_Space
  1

  0
ENDBLK
  5
21
100
AcDbEntity
  8
0
100
AcDbBlockEnd
  0
BLOCK
  5
1C
100
AcDbEntity
  8
0
100
AcDbBlockBegin
  2
*Paper_Space
 70
0
 10
0.0
 20
0.0
 30
0.0
  3
*Paper_Space
  1

  0
ENDBLK
  5
1D
100
AcDbEntity
  8
0
100
AcDbBlockEnd
  0
ENDSEC
  0
SECTION
  2
ENTITIES
  0
MTEXT
  5
213
100
AcDbEntity
  8
0
100
AcDbMText
 62
5
  6
CONTINUOUS
  7
STANDARD
 71
1
 72
1
 10
359.5414303668
 20
237.5916133847
 30
0.0
 11
0.0
 21
1.0
 31
0.0
 44
0.9
  1
RUD ACP 6,3t M24
 40
7.0
 41
88.0
  0
MTEXT
  5
214
100
AcDbEntity
  8
0
100
AcDbMText
 62
5
  6
CONTINUOUS
  7
STANDARD
 71
1
 72
1
 10
214.4287222809
 20
252.2386483633
 30
0.0
 11
1.0
 21
0.0
 31
0.0
 44
0.9
  1
RUD
 40
7.0
 41
18.6666666667
  0
MTEXT
  5
215
100
AcDbEntity
  8
0
100
AcDbMText
 62
5
  6
CONTINUOUS
  7
STANDARD
 71
1
 72
1
 10
181.1950897571
 20
76.6824181626
 30
0.0
 11
1.0
 21
0.0
 31
0.0
 44
0.9
  1
RUD ACP 6,3t M24
 40
7.0
 41
88.0
  0
LINE
  5
216
100
AcDbEntity
  8
0
100
AcDbLine
 62
7
  6
CONTINUOUS
 10
0.0
 20
0.0
 11
0.0
 21
420.0
  0
LINE
  5
217
100
AcDbEntity
  8
0
100
AcDbLine
 62
7
  6
CONTINUOUS
 10
0.0
 20
0.0
 11
594.0
 21
0.0
  0
LINE
  5
218
100
AcDbEntity
  8
0
100
AcDbLine
 62
7
  6
CONTINUOUS
 10
0.0
 20
420.0
 11
594.0
 21
420.0
  0
LINE
  5
219
100
AcDbEntity
  8
0
100
AcDbLine
 62
7
  6
CONTINUOUS
 10
594.0
 20
0.0
 11
594.0
 21
420.0
  0
LINE
  5
21A
100
AcDbEntity
  8
BEZUGSACHSEN
100
AcDbLine
 62
7
  6
CONTINUOUS
 10
213.5907780397
 20
177.3485559662
 11
234.5907780397
 21
177.3485559662
  0
LINE
  5
21B
100
AcDbEntity
  8
BEZUGSACHSEN
100
AcDbLine
 62
7
  6
CONTINUOUS
 10
212.0907780397
 20
178.8485559662
 11
236.0907780397
 21
178.8485559662
  0
LINE
  5
21C
100
AcDbEntity
  8
RUNDUNGEN
100
AcDbLine
 62
7
  6
CONTINUOUS
 10
193.5487966109
 20
372.124587737
 11
220.5070985443
 21
382.4729102948
  0
LINE
  5
21D
100
AcDbEntity
  8
BEZUGSACHSEN
100
AcDbLine
 62
7
  6
CONTINUOUS
 10
212.0907780397
 20
178.8485559662
 11
213.5907780397
 21
177.3485559662
  0
LINE
  5
21E
100
AcDbEntity
  8
RUNDUNGEN
100
AcDbLine
 62
7
  6
CONTINUOUS
 10
175.1128676269
 20
341.599761189
 11
188.2224108645
 21
367.3286884694
  0
LINE
  5
21F
100
AcDbEntity
  8
0
100
AcDbLine
 62
7
  6
CONTINUOUS
 10
194.0907780397
 20
211.3485559662
 11
254.0907780397
 21
211.3485559662
  0
LINE
  5
220
100
AcDbEntity
  8
RUNDUNGEN
100
AcDbLine
 62
7
  6
CONTINUOUS
 10
270.4912930968
 20
216.8485559662
 11
262.0907780397
 21
216.8485559662
  0
LINE
  5
221
100
AcDbEntity
  8
RUNDUNGEN
100
AcDbLine
 62
7
  6
CONTINUOUS
 10
186.0907780397
 20
216.8485559662
 11
177.6902629827
 21
216.8485559662
  0
LINE
  5
222
100
AcDbEntity
  8
RUNDUNGEN
100
AcDbLine
 62
7
  6
CONTINUOUS
 10
172.9486447067
 20
220.2620326842
 11
165.1358241833
 21
243.6120918989
  0
LINE
  5
223
100
AcDbEntity
  8
0
100
AcDbLine
 62
7
  6
CONTINUOUS
 10
194.0907780397
 20
220.3485559662
 11
254.0907780397
 21
220.3485559662
  0
LINE
  5
224
100
AcDbEntity
  8
RUNDUNGEN
100
AcDbLine
 62
7
  6
CONTINUOUS
 10
192.5907780397
 20
220.5985559662
 11
255.5907780397
 21
220.5985559662
  0
LINE
  5
225
100
AcDbEntity
  8
0
100
AcDbLine
 62
7
  6
CONTINUOUS
 10
255.8923299781
 20
220.8485559662
 11
255.5907780397
 21
220.8485559662
  0
LINE
  5
226
100
AcDbEntity
  8
BEZUGSACHSEN
100
AcDbLine
 62
7
  6
CONTINUOUS
 10
192.5907780397
 20
220.8485559662
 11
192.2883198706
 21
220.8485559662
  0
LWPOLYLINE
  5
227
100
AcDbEntity
  8
RUNDUNGEN
100
AcDbPolyline
 62
7
  6
CONTINUOUS
 90
34
 70
0
 10
255.8940029023
 20
220.8485561967
 10
255.9045800639
 20
220.8485251196
 10
255.9824693721
 20
220.846380904
 10
256.0593357877
 20
220.8409470631
 10
256.1350455209
 20
220.8323438566
 10
256.209474545
 20
220.8206954615
 10
256.2825085177
 20
220.8061293197
 10
256.3540426678
 20
220.7887755129
 10
256.4239816485
 20
220.7687661651
 10
256.4922393628
 20
220.7462348739
 10
256.5587387607
 20
220.7213161719
 10
256.623411614
 20
220.6941450168
 10
256.6861982689
 20
220.6648563138
 10
256.7470473812
 20
220.6335844662
 10
256.8059156347
 20
220.6004629575
 10
256.8627674424
 20
220.565623966
 10
256.9175746442
 20
220.5291980047
 10
256.9703161871
 20
220.4913135945
 10
257.0209778051
 20
220.4520969639
 10
257.069551689
 20
220.4116717775
 10
257.1160377674
 20
220.3701574015
 10
257.1604353121
 20
220.3276761389
 10
257.202763314
 20
220.2843332715
 10
257.2429978224
 20
220.2402824314
 10
257.2811417115
 20
220.1956588754
 10
257.317185991
 20
220.1506217328
 10
257.3511367531
 20
220.1053245759
 10
257.3830107658
 20
220.0599186259
 10
257.4128351814
 20
220.0145514332
 10
257.4406393942
 20
219.969378518
 10
257.466457688
 20
219.9245607736
 10
257.4903547375
 20
219.8802163879
 10
257.5123864586
 20
219.8364853866
 10
257.532646385
 20
219.7934358703
  0
LINE
  5
228
100
AcDbEntity
  8
0
100
AcDbLine
 62
7
  6
CONTINUOUS
 10
182.92400603
 20
280.8859181359
 11
182.9761589682
 21
280.0454113448
  0
LINE
  5
229
100
AcDbEntity
  8
0
100
AcDbLine
 62
7
  6
CONTINUOUS
 10
177.5665090098
 20
236.9715160358
 11
177.5665090098
 21
238.1801844921
  0
LINE
  5
22A
100
AcDbEntity
  8
0
100
AcDbLine
 62
7
  6
CONTINUOUS
 10
177.5665090098
 20
243.7227470763
 11
177.5665090098
 21
244.9314155326
  0
LINE
  5
22B
100
AcDbEntity
  8
0
100
AcDbLine
 62
7
  6
CONTINUOUS
 10
183.5665090098
 20
240.3514657842
 11
183.5665090098
 21
241.5601342405
  0
LINE
  5
22C
100
AcDbEntity
  8
0
100
AcDbLine
 62
7
  6
CONTINUOUS
 10
184.3665090098
 20
236.9715160358
 11
184.3665090098
 21
238.1801844921
  0
LINE
  5
22D
100
AcDbEntity
  8
0
100
AcDbLine
 62
7
  6
CONTINUOUS
 10
184.3665090098
 20
243.7227470763
 11
184.3665090098
 21
244.9314155326
  0
LINE
  5
22E
100
AcDbEntity
  8
0
100
AcDbLine
 62
7
  6
CONTINUOUS
 10
183.12222634
 20
281.8220188071
 11
182.92400603
 21
280.8859181359
  0
LINE
  5
22F
100
AcDbEntity
  8
RUNDUNGEN
100
AcDbLine
 62
7
  6
CONTINUOUS
 10
165.9173281422
 20
261.513238254
 11
181.8461982576
 21
298.1471314748
  0
LINE
  5
230
100
AcDbEntity
  8
0
100
AcDbLine
 62
7
  6
CONTINUOUS
 10
183.9471728912
 20
236.9516896677
 11
184.3665090098
 21
236.9715160358
  0
LINE
  5
231
100
AcDbEntity
  8
0
100
AcDbLine
 62
7
  6
CONTINUOUS
 10
177.1471728912
 20
236.9516896677
 11
177.5665090098
 21
236.9715160358
  0
LINE
  5
232
100
AcDbEntity
  8
0
100
AcDbLine
 62
7
  6
CONTINUOUS
 10
181.2315501435
 20
240.3514657842
 11
183.5665090098
 21
240.3514657842
  0
LINE
  5
233
100
AcDbEntity
  8
0
100
AcDbLine
 62
7
  6
CONTINUOUS
 10
183.5665090098
 20
241.5601342405
 11
181.233466253
 21
241.5601342405
  0
LINE
  5
234
100
AcDbEntity
  8
0
100
AcDbLine
 62
7
  6
CONTINUOUS
 10
184.1793330906
 20
279.9311713713
 11
184.0524149871
 21
280.5997300543
  0
LINE
  5
235
100
AcDbEntity
  8
0
100
AcDbLine
 62
7
  6
CONTINUOUS
 10
192.24687593
 20
280.7169157564
 11
192.1947233735
 21
281.5574235513
  0
LINE
  5
236
100
AcDbEntity
  8
RUNDUNGEN
100
AcDbLine
 62
7
  6
CONTINUOUS
 10
191.0907780397
 20
223.858562224
 11
191.0907780397
 21
221.8485559662
  0
LINE
  5
237
100
AcDbEntity
  8
RUNDUNGEN
100
AcDbLine
 62
7
  6
CONTINUOUS
 10
191.0907780397
 20
239.8385497084
 11
191.0907780397
 21
253.5684272885
  0
LINE
  5
238
100
AcDbEntity
  8
RUNDUNGEN
100
AcDbLine
 62
7
  6
CONTINUOUS
 10
192.5907780397
 20
254.2985559662
 11
192.5907780397
 21
220.5985559662
  0
LINE
  5
239
100
AcDbEntity
  8
0
100
AcDbLine
 62
7
  6
CONTINUOUS
 10
190.869925584
 20
290.516227622
 11
190.8212364601
 21
289.9240251346
  0
LINE
  5
23A
100
AcDbEntity
  8
0
100
AcDbLine
 62
7
  6
CONTINUOUS
 10
184.0524149871
 20
280.5997300543
 11
184.1758697041
 21
281.3638816336
  0
LINE
  5
23B
100
AcDbEntity
  8
0
100
AcDbLine
 62
7
  6
CONTINUOUS
 10
191.1184668653
 20
281.0031038848
 11
190.9950125762
 21
280.2389532893
  0
LINE
  5
23C
100
AcDbEntity
  8
0
100
AcDbLine
 62
7
  6
CONTINUOUS
 10
191.800114659
 20
289.2939398531
 11
191.9983341133
 21
290.2300385565
  0
LINE
  5
23D
100
AcDbEntity
  8
0
100
AcDbLine
 62
7
  6
CONTINUOUS
 10
187.2343262559
 20
291.2792011522
 11
185.4399550179
 21
287.1524298336
  0
LINE
  5
23E
100
AcDbEntity
  8
0
100
AcDbLine
 62
7
  6
CONTINUOUS
 10
183.7951153938
 20
283.3695576826
 11
183.12222634
 21
281.8220188071
  0
LINE
  5
23F
100
AcDbEntity
  8
0
100
AcDbLine
 62
7
  6
CONTINUOUS
 10
180.1316081804
 20
274.9440679213
 11
179.5334846127
 21
273.5684778917
  0
LINE
  5
240
100
AcDbEntity
  8
0
100
AcDbLine
 62
7
  6
CONTINUOUS
 10
186.766584285
 20
287.8023424232
 11
188.1871275579
 21
291.0693682823
  0
LINE
  5
241
100
AcDbEntity
  8
0
100
AcDbLine
 62
7
  6
CONTINUOUS
 10
184.1758697041
 20
281.3638816336
 11
184.8487587579
 21
282.9114205091
  0
LINE
  5
242
100
AcDbEntity
  8
0
100
AcDbLine
 62
7
  6
CONTINUOUS
 10
186.5005260748
 20
283.8288729053
 11
186.9491187773
 21
284.860565489
  0
LINE
  5
243
100
AcDbEntity
  8
0
100
AcDbLine
 62
7
  6
CONTINUOUS
 10
190.8212364601
 20
289.9240251346
 11
189.4006931872
 21
286.6569992755
  0
LINE
  5
244
100
AcDbEntity
  8
0
100
AcDbLine
 62
7
  6
CONTINUOUS
 10
190.4543365514
 20
286.198862102
 11
191.800114659
 21
289.2939398531
  0
LINE
  5
245
100
AcDbEntity
  8
0
100
AcDbLine
 62
7
  6
CONTINUOUS
 10
187.7837601649
 20
292.0625874645
 11
187.2343262559
 21
291.2792011522
  0
LINE
  5
246
100
AcDbEntity
  8
0
100
AcDbLine
 62
7
  6
CONTINUOUS
 10
183.7951153938
 20
283.3695576826
 11
184.3445497307
 21
284.1529449788
  0
LINE
  5
247
100
AcDbEntity
  8
0
100
AcDbLine
 62
7
  6
CONTINUOUS
 10
188.1871275579
 20
291.0693682823
 11
188.5870311365
 21
291.5088583785
  0
LINE
  5
248
100
AcDbEntity
  8
RUNDUNGEN
100
AcDbLine
 62
7
  6
CONTINUOUS
 10
187.7976043916
 20
248.5985559662
 11
189.2907780397
 21
248.5985559662
  0
LINE
  5
249
100
AcDbEntity
  8
RUNDUNGEN
100
AcDbLine
 62
7
  6
CONTINUOUS
 10
258.8907780397
 20
248.5985559662
 11
260.3839516878
 21
248.5985559662
  0
LINE
  5
24A
100
AcDbEntity
  8
0
100
AcDbLine
 62
7
  6
CONTINUOUS
 10
184.6034821286
 20
270.3416916469
 11
180.5349752525
 21
273.9508480011
  0
LINE
  5
24B
100
AcDbEntity
  8
0
100
AcDbLine
 62
7
  6
CONTINUOUS
 10
187.0393707423
 20
268.2602485499
 11
185.2311455519
 21
269.8643180187
  0
LINE
  5
24C
100
AcDbEntity
  8
0
100
AcDbLine
 62
7
  6
CONTINUOUS
 10
179.5334846127
 20
273.5684778917
 11
186.5907780397
 21
267.2285559662
  0
LINE
  5
24D
100
AcDbEntity
  8
0
100
AcDbLine
 62
7
  6
CONTINUOUS
 10
183.3795259333
 20
279.0521911787
 11
183.9324240845
 21
278.4028691965
  0
LINE
  5
24E
100
AcDbEntity
  8
0
100
AcDbLine
 62
7
  6
CONTINUOUS
 10
184.5566245063
 20
279.3582053707
 11
184.1793330906
 21
279.9311713713
  0
LINE
  5
24F
100
AcDbEntity
  8
0
100
AcDbLine
 62
7
  6
CONTINUOUS
 10
182.9761589682
 20
280.0454113448
 11
183.3795259333
 21
279.0521911787
  0
LINE
  5
250
100
AcDbEntity
  8
RUNDUNGEN
100
AcDbLine
 62
7
  6
CONTINUOUS
 10
182.3348557767
 20
304.7228126151
 11
174.3636746059
 21
334.4716657406
  0
LINE
  5
251
100
AcDbEntity
  8
0
100
AcDbLine
 62
7
  6
CONTINUOUS
 10
190.9915486389
 20
281.6716626212
 11
191.1184668653
 21
281.0031038848
  0
LINE
  5
252
100
AcDbEntity
  8
0
100
AcDbLine
 62
7
  6
CONTINUOUS
 10
194.0907780397
 20
220.3485559662
 11
194.0907780397
 21
211.3485559662
  0
LINE
  5
253
100
AcDbEntity
  8
0
100
AcDbLine
 62
7
  6
CONTINUOUS
 10
195.0907780397
 20
266.3485559662
 11
195.0907780397
 21
259.3485559662
  0
LINE
  5
254
100
AcDbEntity
  8
0
100
AcDbLine
 62
7
  6
CONTINUOUS
 10
197.6834123544
 20
258.7985559662
 11
197.6834123544
 21
256.2985559662
  0
LINE
  5
255
100
AcDbEntity
  8
0
100
AcDbLine
 62
7
  6
CONTINUOUS
 10
199.5985234622
 20
256.2985559662
 11
199.5985234622
 21
258.7985559662
  0
LINE
  5
256
100
AcDbEntity
  8
0
100
AcDbLine
 62
7
  6
CONTINUOUS
 10
192.0486560633
 20
279.7808160623
 11
192.24687593
 21
280.7169157564
  0
LINE
  5
257
100
AcDbEntity
  8
0
100
AcDbLine
 62
7
  6
CONTINUOUS
 10
185.9492602897
 20
273.436769521
 11
184.6034821286
 21
270.3416916469
  0
LINE
  5
258
100
AcDbEntity
  8
0
100
AcDbLine
 62
7
  6
CONTINUOUS
 10
190.9880852524
 20
283.1043728836
 11
190.5394925498
 21
282.0726802999
  0
LINE
  5
259
100
AcDbEntity
  8
0
100
AcDbLine
 62
7
  6
CONTINUOUS
 10
185.2311455519
 20
269.8643180187
 11
186.7264545782
 21
273.3032933386
  0
LINE
  5
25A
100
AcDbEntity
  8
0
100
AcDbLine
 62
7
  6
CONTINUOUS
 10
190.9950125762
 20
280.2389532893
 11
190.3221235223
 21
278.6914144138
  0
LINE
  5
25B
100
AcDbEntity
  8
0
100
AcDbLine
 62
7
  6
CONTINUOUS
 10
186.5907780397
 20
267.2285559662
 11
187.0393707423
 21
268.2602485499
  0
LINE
  5
25C
100
AcDbEntity
  8
0
100
AcDbLine
 62
7
  6
CONTINUOUS
 10
189.1328032828
 20
273.0748137764
 11
189.5813959854
 21
274.1065063601
  0
LINE
  5
25D
100
AcDbEntity
  8
0
100
AcDbLine
 62
7
  6
CONTINUOUS
 10
191.3757670094
 20
278.2332771868
 11
192.0486560633
 21
279.7808160623
  0
LINE
  5
25E
100
AcDbEntity
  8
0
100
AcDbLine
 62
7
  6
CONTINUOUS
 10
193.6934956874
 20
283.5636882132
 11
194.1420888177
 21
284.5953817808
  0
LINE
  5
25F
100
AcDbEntity
  8
0
100
AcDbLine
 62
7
  6
CONTINUOUS
 10
190.8263322294
 20
277.4498889134
 11
191.3757670094
 21
278.2332771868
  0
LINE
  5
260
100
AcDbEntity
  8
0
100
AcDbLine
 62
7
  6
CONTINUOUS
 10
184.8487587579
 20
282.9114205091
 11
185.3234275017
 21
283.5228587134
  0
LINE
  5
261
100
AcDbEntity
  8
0
100
AcDbLine
 62
7
  6
CONTINUOUS
 10
190.3221235223
 20
278.6914144138
 11
189.8474543507
 21
278.0799752256
  0
LINE
  5
262
100
AcDbEntity
  8
0
100
AcDbLine
 62
7
  6
CONTINUOUS
 10
184.9948261297
 20
284.6880279714
 11
184.3445497307
 21
284.1529449788
  0
LINE
  5
263
100
AcDbEntity
  8
0
100
AcDbLine
 62
7
  6
CONTINUOUS
 10
188.6096442191
 20
292.5213152454
 11
187.7837601649
 21
292.0625874645
  0
LINE
  5
264
100
AcDbEntity
  8
RUNDUNGEN
100
AcDbLine
 62
7
  6
CONTINUOUS
 10
253.5907780397
 20
256.2985559662
 11
241.5907214459
 21
256.2985559662
  0
LINE
  5
265
100
AcDbEntity
  8
RUNDUNGEN
100
AcDbLine
 62
7
  6
CONTINUOUS
 10
206.5907279283
 20
256.2985559662
 11
194.5907780397
 21
256.2985559662
  0
LINE
  5
266
100
AcDbEntity
  8
0
100
AcDbLine
 62
7
  6
CONTINUOUS
 10
190.4223400954
 20
256.2985559662
 11
194.5907780397
 21
256.2985559662
  0
LINE
  5
267
100
AcDbEntity
  8
0
100
AcDbLine
 62
7
  6
CONTINUOUS
 10
253.5907780397
 20
256.2985559662
 11
257.7592159841
 21
256.2985559662
  0
LINE
  5
268
100
AcDbEntity
  8
0
100
AcDbLine
 62
7
  6
CONTINUOUS
 10
190.4223400954
 20
258.7985559662
 11
203.5238383005
 21
258.7985559662
  0
LINE
  5
269
100
AcDbEntity
  8
0
100
AcDbLine
 62
7
  6
CONTINUOUS
 10
244.657946182
 20
258.7985559662
 11
257.7592159841
 21
258.7985559662
  0
LINE
  5
26A
100
AcDbEntity
  8
0
100
AcDbLine
 62
7
  6
CONTINUOUS
 10
204.3341039492
 20
259.0985559662
 11
204.4936248001
 21
259.0985559662
  0
LINE
  5
26B
100
AcDbEntity
  8
RUNDUNGEN
100
AcDbLine
 62
7
  6
CONTINUOUS
 10
204.4936248001
 20
259.0985559662
 11
243.6879312794
 21
259.0985559662
  0
LINE
  5
26C
100
AcDbEntity
  8
0
100
AcDbLine
 62
7
  6
CONTINUOUS
 10
243.6879312794
 20
259.0985559662
 11
243.8474521303
 21
259.0985559662
  0
LINE
  5
26D
100
AcDbEntity
  8
0
100
AcDbLine
 62
7
  6
CONTINUOUS
 10
195.0907780397
 20
259.3485559662
 11
253.0907780397
 21
259.3485559662
  0
LINE
  5
26E
100
AcDbEntity
  8
0
100
AcDbLine
 62
7
  6
CONTINUOUS
 10
183.9324240845
 20
278.4028691965
 11
184.7356951202
 21
277.8491389127
  0
LINE
  5
26F
100
AcDbEntity
  8
0
100
AcDbLine
 62
7
  6
CONTINUOUS
 10
185.1842878227
 20
278.8808314964
 11
184.5566245063
 21
279.3582053707
  0
LINE
  5
270
100
AcDbEntity
  8
0
100
AcDbLine
 62
7
  6
CONTINUOUS
 10
191.7705748034
 20
291.1469035109
 11
191.2924422452
 21
291.9681745851
  0
LINE
  5
271
100
AcDbEntity
  8
0
100
AcDbLine
 62
7
  6
CONTINUOUS
 10
192.1947233735
 20
281.5574235513
 11
191.7913559191
 21
282.5506427603
  0
LINE
  5
272
100
AcDbEntity
  8
0
100
AcDbLine
 62
7
  6
CONTINUOUS
 10
190.6682423154
 20
291.012838197
 11
190.869925584
 21
290.516227622
  0
LINE
  5
273
100
AcDbEntity
  8
0
100
AcDbLine
 62
7
  6
CONTINUOUS
 10
191.9983341133
 20
290.2300385565
 11
191.7705748034
 21
291.1469035109
  0
LINE
  5
274
100
AcDbEntity
  8
BEZUGSACHSEN
100
AcDbLine
 62
7
  6
CONTINUOUS
 10
203.3061683489
 20
266.8485559662
 11
203.3061683489
 21
279.7408608116
  0
LINE
  5
275
100
AcDbEntity
  8
KONSTRUKTIONSELEMENTE
100
AcDbLine
 62
7
  6
CONTINUOUS
 10
207.4907780397
 20
266.3485559662
 11
207.4907780397
 21
266.8485559662
  0
LINE
  5
276
100
AcDbEntity
  8
BEZUGSACHSEN
100
AcDbLine
 62
7
  6
CONTINUOUS
 10
207.4907780397
 20
266.3485559662
 11
207.4907780397
 21
266.8485559662
  0
LINE
  5
277
100
AcDbEntity
  8
0
100
AcDbLine
 62
7
  6
CONTINUOUS
 10
208.4907780397
 20
259.3485559662
 11
208.4907780397
 21
259.0985559662
  0
LINE
  5
278
100
AcDbEntity
  8
0
100
AcDbLine
 62
7
  6
CONTINUOUS
 10
208.4907780397
 20
220.5985559662
 11
208.4907780397
 21
220.3485559662
  0
LINE
  5
279
100
AcDbEntity
  8
KONSTRUKTIONSELEMENTE
100
AcDbLine
 62
7
  6
CONTINUOUS
 10
208.4951162045
 20
281.3485559662
 11
208.4951162045
 21
281.8485559662
  0
LINE
  5
27A
100
AcDbEntity
  8
RUNDUNGEN
100
AcDbLine
 62
7
  6
CONTINUOUS
 10
198.3890988953
 20
277.6335447933
 11
193.9936754363
 21
267.524762909
  0
LINE
  5
27B
100
AcDbEntity
  8
0
100
AcDbLine
 62
7
  6
CONTINUOUS
 10
190.1760562121
 20
276.9148069248
 11
190.8263322294
 21
277.4498889134
  0
LINE
  5
27C
100
AcDbEntity
  8
0
100
AcDbLine
 62
7
  6
CONTINUOUS
 10
185.3234275017
 20
283.5228587134
 11
185.8989383077
 21
283.8859926141
  0
LINE
  5
27D
100
AcDbEntity
  8
0
100
AcDbLine
 62
7
  6
CONTINUOUS
 10
188.5870311365
 20
291.5088583785
 11
189.0877767772
 21
291.7000441712
  0
LINE
  5
27E
100
AcDbEntity
  8
0
100
AcDbLine
 62
7
  6
CONTINUOUS
 10
185.9963165556
 20
285.0703975889
 11
184.9948261297
 21
284.6880279714
  0
LINE
  5
27F
100
AcDbEntity
  8
0
100
AcDbLine
 62
7
  6
CONTINUOUS
 10
265.7112437581
 20
274.0902126007
 11
266.4884386884
 21
274.2236873073
  0
LINE
  5
280
100
AcDbEntity
  8
RUNDUNGEN
100
AcDbLine
 62
7
  6
CONTINUOUS
 10
260.1456856667
 20
261.0985559662
 11
257.6884030193
 21
261.0985559662
  0
LINE
  5
281
100
AcDbEntity
  8
RUNDUNGEN
100
AcDbLine
 62
7
  6
CONTINUOUS
 10
190.4931530974
 20
261.0985559662
 11
188.0358704128
 21
261.0985559662
  0
LINE
  5
282
100
AcDbEntity
  8
0
100
AcDbLine
 62
7
  6
CONTINUOUS
 10
195.0907780397
 20
266.3485559662
 11
253.0907780397
 21
266.3485559662
  0
LINE
  5
283
100
AcDbEntity
  8
KONSTRUKTIONSELEMENTE
100
AcDbLine
 62
7
  6
CONTINUOUS
 10
203.3061683489
 20
266.8485559662
 11
244.8753877306
 21
266.8485559662
  0
LINE
  5
284
100
AcDbEntity
  8
0
100
AcDbLine
 62
7
  6
CONTINUOUS
 10
262.6620474277
 20
267.0012957442
 11
263.4535238275
 21
267.0012957442
  0
LINE
  5
285
100
AcDbEntity
  8
0
100
AcDbLine
 62
7
  6
CONTINUOUS
 10
184.7356951202
 20
277.8491389127
 11
187.3698037764
 21
276.703795872
  0
LINE
  5
286
100
AcDbEntity
  8
0
100
AcDbLine
 62
7
  6
CONTINUOUS
 10
187.818396479
 20
277.7354884557
 11
185.1842878227
 21
278.8808314964
  0
LINE
  5
287
100
AcDbEntity
  8
0
100
AcDbLine
 62
7
  6
CONTINUOUS
 10
191.7913559191
 20
282.5506427603
 11
190.9880852524
 21
283.1043728836
  0
LINE
  5
288
100
AcDbEntity
  8
0
100
AcDbLine
 62
7
  6
CONTINUOUS
 10
190.5394925498
 20
282.0726802999
 11
190.9915486389
 21
281.6716626212
  0
LINE
  5
289
100
AcDbEntity
  8
0
100
AcDbLine
 62
7
  6
CONTINUOUS
 10
190.2161857985
 20
291.4138548918
 11
190.6682423154
 21
291.012838197
  0
LINE
  5
28A
100
AcDbEntity
  8
KONSTRUKTIONSELEMENTE
100
AcDbLine
 62
7
  6
CONTINUOUS
 10
211.9421700057
 20
281.3485559662
 11
211.9421700057
 21
281.8485559662
  0
LINE
  5
28B
100
AcDbEntity
  8
KONSTRUKTIONSELEMENTE
100
AcDbLine
 62
7
  6
CONTINUOUS
 10
212.0179802222
 20
281.3485559662
 11
212.0179802222
 21
281.8485559662
  0
LINE
  5
28C
100
AcDbEntity
  8
BEZUGSACHSEN
100
AcDbLine
 62
7
  6
CONTINUOUS
 10
212.0907780397
 20
211.3485559662
 11
212.0907780397
 21
178.8485559662
  0
LINE
  5
28D
100
AcDbEntity
  8
KONSTRUKTIONSELEMENTE
100
AcDbLine
 62
7
  6
CONTINUOUS
 10
212.3338561124
 20
281.3485559662
 11
212.3338561124
 21
281.8485559662
  0
LINE
  5
28E
100
AcDbEntity
  8
KONSTRUKTIONSELEMENTE
100
AcDbLine
 62
7
  6
CONTINUOUS
 10
212.4223013891
 20
281.3485559662
 11
212.4223013891
 21
281.8485559662
  0
LINE
  5
28F
100
AcDbEntity
  8
KONSTRUKTIONSELEMENTE
100
AcDbLine
 62
7
  6
CONTINUOUS
 10
212.6324133543
 20
281.3485559662
 11
212.6324133543
 21
281.8485559662
  0
LINE
  5
290
100
AcDbEntity
  8
KONSTRUKTIONSELEMENTE
100
AcDbLine
 62
7
  6
CONTINUOUS
 10
212.8925002999
 20
281.3485559662
 11
212.8925002999
 21
281.8485559662
  0
LINE
  5
291
100
AcDbEntity
  8
KONSTRUKTIONSELEMENTE
100
AcDbLine
 62
7
  6
CONTINUOUS
 10
213.1168107562
 20
281.3485559662
 11
213.1168107562
 21
281.8485559662
  0
LINE
  5
292
100
AcDbEntity
  8
KONSTRUKTIONSELEMENTE
100
AcDbLine
 62
7
  6
CONTINUOUS
 10
213.2425002511
 20
281.3485559662
 11
213.2425002511
 21
281.8485559662
  0
LINE
  5
293
100
AcDbEntity
  8
KONSTRUKTIONSELEMENTE
100
AcDbLine
 62
7
  6
CONTINUOUS
 10
213.3324132625
 20
281.3485559662
 11
213.3324132625
 21
281.8485559662
  0
LINE
  5
294
100
AcDbEntity
  8
BEZUGSACHSEN
100
AcDbLine
 62
7
  6
CONTINUOUS
 10
213.6984731943
 20
266.8485559662
 11
213.6984731943
 21
279.7408608116
  0
LINE
  5
295
100
AcDbEntity
  8
KONSTRUKTIONSELEMENTE
100
AcDbLine
 62
7
  6
CONTINUOUS
 10
214.0589316937
 20
281.3485559662
 11
214.0589316937
 21
281.8485559662
  0
LINE
  5
296
100
AcDbEntity
  8
KONSTRUKTIONSELEMENTE
100
AcDbLine
 62
7
  6
CONTINUOUS
 10
215.216702985
 20
281.3485559662
 11
215.216702985
 21
281.8485559662
  0
LINE
  5
297
100
AcDbEntity
  8
KONSTRUKTIONSELEMENTE
100
AcDbLine
 62
7
  6
CONTINUOUS
 10
215.4020640344
 20
281.3485559662
 11
215.4020640344
 21
281.8485559662
  0
LINE
  5
298
100
AcDbEntity
  8
KONSTRUKTIONSELEMENTE
100
AcDbLine
 62
7
  6
CONTINUOUS
 10
215.4833427534
 20
281.3485559662
 11
215.4833427534
 21
281.8485559662
  0
LINE
  5
299
100
AcDbEntity
  8
0
100
AcDbLine
 62
7
  6
CONTINUOUS
 10
189.8474543507
 20
278.0799752256
 11
189.2719434217
 21
277.7168413784
  0
LINE
  5
29A
100
AcDbEntity
  8
BEZUGSACHSEN
100
AcDbLine
 62
7
  6
CONTINUOUS
 10
203.3061683489
 20
279.7408608116
 11
206.0907780397
 21
281.3485559662
  0
LINE
  5
29B
100
AcDbEntity
  8
0
100
AcDbLine
 62
7
  6
CONTINUOUS
 10
265.0748222527
 20
280.3561348888
 11
264.297628178
 21
280.2226582145
  0
LINE
  5
29C
100
AcDbEntity
  8
0
100
AcDbLine
 62
7
  6
CONTINUOUS
 10
261.9226504083
 20
272.2384260616
 11
262.5242373785
 21
272.2955465938
  0
LINE
  5
29D
100
AcDbEntity
  8
0
100
AcDbLine
 62
7
  6
CONTINUOUS
 10
262.150410269
 20
273.1552900856
 11
261.7244302213
 21
273.1745267863
  0
LINE
  5
29E
100
AcDbEntity
  8
0
100
AcDbLine
 62
7
  6
CONTINUOUS
 10
189.5813959854
 20
274.1065063601
 11
180.1316081804
 21
274.9440679213
  0
LINE
  5
29F
100
AcDbEntity
  8
0
100
AcDbLine
 62
7
  6
CONTINUOUS
 10
186.7264545782
 20
273.3032933386
 11
189.1328032828
 21
273.0748137764
  0
LINE
  5
2A0
100
AcDbEntity
  8
0
100
AcDbLine
 62
7
  6
CONTINUOUS
 10
180.5349752525
 20
273.9508480011
 11
185.9492602897
 21
273.436769521
  0
LINE
  5
2A1
100
AcDbEntity
  8
0
100
AcDbLine
 62
7
  6
CONTINUOUS
 10
188.5955909814
 20
277.6020127653
 11
187.818396479
 21
277.7354884557
  0
LINE
  5
2A2
100
AcDbEntity
  8
0
100
AcDbLine
 62
7
  6
CONTINUOUS
 10
187.3698037764
 20
276.703795872
 11
188.3226055062
 21
276.493963986
  0
LINE
  5
2A3
100
AcDbEntity
  8
0
100
AcDbLine
 62
7
  6
CONTINUOUS
 10
185.4399550179
 20
287.1524298336
 11
193.6934956874
 21
283.5636882132
  0
LINE
  5
2A4
100
AcDbEntity
  8
0
100
AcDbLine
 62
7
  6
CONTINUOUS
 10
194.1420888177
 20
284.5953817808
 11
190.4543365514
 21
286.198862102
  0
LINE
  5
2A5
100
AcDbEntity
  8
0
100
AcDbLine
 62
7
  6
CONTINUOUS
 10
189.4006931872
 20
286.6569992755
 11
186.766584285
 21
287.8023424232
  0
LINE
  5
2A6
100
AcDbEntity
  8
0
100
AcDbLine
 62
7
  6
CONTINUOUS
 10
191.2924422452
 20
291.9681745851
 11
190.8403857284
 21
292.3691912799
  0
LINE
  5
2A7
100
AcDbEntity
  8
KONSTRUKTIONSELEMENTE
100
AcDbLine
 62
7
  6
CONTINUOUS
 10
218.6138076029
 20
281.3485559662
 11
218.6138076029
 21
281.8485559662
  0
LINE
  5
2A8
100
AcDbEntity
  8
KONSTRUKTIONSELEMENTE
100
AcDbLine
 62
7
  6
CONTINUOUS
 10
219.4621597693
 20
281.3485559662
 11
219.4621597693
 21
281.8485559662
  0
LINE
  5
2A9
100
AcDbEntity
  8
KONSTRUKTIONSELEMENTE
100
AcDbLine
 62
7
  6
CONTINUOUS
 10
219.8866134366
 20
281.3485559662
 11
219.8866134366
 21
281.8485559662
  0
LINE
  5
2AA
100
AcDbEntity
  8
KONSTRUKTIONSELEMENTE
100
AcDbLine
 62
7
  6
CONTINUOUS
 10
220.8770047871
 20
281.3485559662
 11
220.8770047871
 21
281.8485559662
  0
LINE
  5
2AB
100
AcDbEntity
  8
KONSTRUKTIONSELEMENTE
100
AcDbLine
 62
7
  6
CONTINUOUS
 10
221.4429440896
 20
281.3485559662
 11
221.4429440896
 21
281.8485559662
  0
LINE
  5
2AC
100
AcDbEntity
  8
KONSTRUKTIONSELEMENTE
100
AcDbLine
 62
7
  6
CONTINUOUS
 10
221.7654837132
 20
281.3485559662
 11
221.7654837132
 21
281.8485559662
  0
LINE
  5
2AD
100
AcDbEntity
  8
KONSTRUKTIONSELEMENTE
100
AcDbLine
 62
7
  6
CONTINUOUS
 10
222.4333354402
 20
281.3485559662
 11
222.4333354402
 21
281.8485559662
  0
LINE
  5
2AE
100
AcDbEntity
  8
KONSTRUKTIONSELEMENTE
100
AcDbLine
 62
7
  6
CONTINUOUS
 10
222.8577891074
 20
281.3485559662
 11
222.8577891074
 21
281.8485559662
  0
LINE
  5
2AF
100
AcDbEntity
  8
KONSTRUKTIONSELEMENTE
100
AcDbLine
 62
7
  6
CONTINUOUS
 10
223.4655645824
 20
281.3485559662
 11
223.4655645824
 21
281.8485559662
  0
LWPOLYLINE
  5
2B0
100
AcDbEntity
  8
RUNDUNGEN
100
AcDbPolyline
 62
7
  6
CONTINUOUS
 90
22
 70
0
 10
190.6498714821
 20
219.7955519741
 10
190.6855907511
 20
219.8693608311
 10
190.7257352293
 20
219.9433905116
 10
190.7705128078
 20
220.0173658567
 10
190.8200254816
 20
220.090845006
 10
190.8743622292
 20
220.163408065
 10
190.9335773605
 20
220.2346222411
 10
190.9976889384
 20
220.3040454383
 10
191.0666744596
 20
220.3712269606
 10
191.1404713579
 20
220.4357136795
 10
191.2189761407
 20
220.4970538585
 10
191.3020427424
 20
220.5548003025
 10
191.3894841404
 20
220.6085157734
 10
191.4810703468
 20
220.6577755915
 10
191.5765327342
 20
220.7021738296
 10
191.6755625732
 20
220.7413256927
 10
191.7778112997
 20
220.7748713459
 10
191.8828947029
 20
220.8024809377
 10
191.9903951498
 20
220.8238582215
 10
192.0998648569
 20
220.8387441632
 10
192.2108294824
 20
220.8469201807
 10
192.2875517469
 20
220.8485560092
  0
LINE
  5
2B1
100
AcDbEntity
  8
0
100
AcDbLine
 62
7
  6
CONTINUOUS
 10
189.1745652969
 20
276.5324363501
 11
190.1760562121
 21
276.9148069248
  0
LINE
  5
2B2
100
AcDbEntity
  8
0
100
AcDbLine
 62
7
  6
CONTINUOUS
 10
259.2361897143
 20
290.9027180609
 11
257.9321736702
 21
290.5401734609
  0
LINE
  5
2B3
100
AcDbEntity
  8
0
100
AcDbLine
 62
7
  6
CONTINUOUS
 10
258.3060009134
 20
289.6804296617
 11
259.4344097369
 21
289.9666180508
  0
LINE
  5
2B4
100
AcDbEntity
  8
0
100
AcDbLine
 62
7
  6
CONTINUOUS
 10
189.2719434217
 20
277.7168413784
 11
188.5955909814
 21
277.6020127653
  0
LINE
  5
2B5
100
AcDbEntity
  8
0
100
AcDbLine
 62
7
  6
CONTINUOUS
 10
257.9670083605
 20
284.217131293
 11
257.3654212993
 21
284.1600113062
  0
LINE
  5
2B6
100
AcDbEntity
  8
0
100
AcDbLine
 62
7
  6
CONTINUOUS
 10
188.3226055062
 20
276.493963986
 11
189.1745652969
 21
276.5324363501
  0
LINE
  5
2B7
100
AcDbEntity
  8
0
100
AcDbLine
 62
7
  6
CONTINUOUS
 10
257.1376612246
 20
283.2431477741
 11
258.1652284565
 21
283.2810311137
  0
LINE
  5
2B8
100
AcDbEntity
  8
BEZUGSACHSEN
100
AcDbLine
 62
7
  6
CONTINUOUS
 10
206.0907780397
 20
281.3485559662
 11
242.0907780397
 21
281.3485559662
  0
LINE
  5
2B9
100
AcDbEntity
  8
KONSTRUKTIONSELEMENTE
100
AcDbLine
 62
7
  6
CONTINUOUS
 10
208.4951162045
 20
281.8485559662
 11
215.4833427534
 21
281.8485559662
  0
LINE
  5
2BA
100
AcDbEntity
  8
KONSTRUKTIONSELEMENTE
100
AcDbLine
 62
7
  6
CONTINUOUS
 10
218.6138076029
 20
281.8485559662
 11
222.8577891074
 21
281.8485559662
  0
LINE
  5
2BB
100
AcDbEntity
  8
KONSTRUKTIONSELEMENTE
100
AcDbLine
 62
7
  6
CONTINUOUS
 10
223.4655645824
 20
281.8485559662
 11
226.2382604832
 21
281.8485559662
  0
LINE
  5
2BC
100
AcDbEntity
  8
KONSTRUKTIONSELEMENTE
100
AcDbLine
 62
7
  6
CONTINUOUS
 10
227.0199283588
 20
281.8485559662
 11
229.9218382413
 21
281.8485559662
  0
LINE
  5
2BD
100
AcDbEntity
  8
0
100
AcDbLine
 62
7
  6
CONTINUOUS
 10
259.2575798964
 20
283.8762957442
 11
255.6072522478
 21
283.8762957442
  0
LINE
  5
2BE
100
AcDbEntity
  8
0
100
AcDbLine
 62
7
  6
CONTINUOUS
 10
193.8294213103
 20
283.8762957442
 11
192.974547587
 21
283.8762957442
  0
LINE
  5
2BF
100
AcDbEntity
  8
0
100
AcDbLine
 62
7
  6
CONTINUOUS
 10
186.521146112
 20
283.8762957442
 11
186.0010662494
 21
283.8762957442
  0
LINE
  5
2C0
100
AcDbEntity
  8
0
100
AcDbLine
 62
7
  6
CONTINUOUS
 10
185.8835702758
 20
283.8762957442
 11
184.1505197923
 21
283.8762957442
  0
LINE
  5
2C1
100
AcDbEntity
  8
0
100
AcDbLine
 62
7
  6
CONTINUOUS
 10
266.1146111511
 20
275.0834317829
 11
265.2626514834
 21
275.1219042005
  0
LINE
  5
2C2
100
AcDbEntity
  8
0
100
AcDbLine
 62
7
  6
CONTINUOUS
 10
255.800641766
 20
279.5949289778
 11
258.1809142154
 21
279.4031546525
  0
LINE
  5
2C3
100
AcDbEntity
  8
0
100
AcDbLine
 62
7
  6
CONTINUOUS
 10
257.8070866781
 20
280.2628991282
 11
255.4268144426
 21
280.4546729616
  0
LINE
  5
2C4
100
AcDbEntity
  8
0
100
AcDbLine
 62
7
  6
CONTINUOUS
 10
185.8989383077
 20
283.8859926141
 11
186.5005260748
 21
283.8288729053
  0
LINE
  5
2C5
100
AcDbEntity
  8
0
100
AcDbLine
 62
7
  6
CONTINUOUS
 10
261.2462975401
 20
272.3532556587
 11
261.9226504083
 21
272.2384260616
  0
LINE
  5
2C6
100
AcDbEntity
  8
0
100
AcDbLine
 62
7
  6
CONTINUOUS
 10
265.0348913178
 20
274.2050412139
 11
265.7112437581
 21
274.0902126007
  0
LINE
  5
2C7
100
AcDbEntity
  8
0
100
AcDbLine
 62
7
  6
CONTINUOUS
 10
186.9491187773
 20
284.860565489
 11
185.9963165556
 21
285.0703975889
  0
LINE
  5
2C8
100
AcDbEntity
  8
0
100
AcDbLine
 62
7
  6
CONTINUOUS
 10
189.6893636245
 20
291.6429236924
 11
190.2161857985
 21
291.4138548918
  0
LINE
  5
2C9
100
AcDbEntity
  8
0
100
AcDbLine
 62
7
  6
CONTINUOUS
 10
190.8403857284
 20
292.3691912799
 11
190.137956327
 21
292.6746162761
  0
LINE
  5
2CA
100
AcDbEntity
  8
KONSTRUKTIONSELEMENTE
100
AcDbLine
 62
7
  6
CONTINUOUS
 10
226.0863466706
 20
281.3485559662
 11
226.0863466706
 21
281.8485559662
  0
LINE
  5
2CB
100
AcDbEntity
  8
KONSTRUKTIONSELEMENTE
100
AcDbLine
 62
7
  6
CONTINUOUS
 10
226.1074458109
 20
281.3485559662
 11
226.1074458109
 21
281.8485559662
  0
LINE
  5
2CC
100
AcDbEntity
  8
KONSTRUKTIONSELEMENTE
100
AcDbLine
 62
7
  6
CONTINUOUS
 10
226.140143115
 20
281.3485559662
 11
226.140143115
 21
281.8485559662
  0
LINE
  5
2CD
100
AcDbEntity
  8
KONSTRUKTIONSELEMENTE
100
AcDbLine
 62
7
  6
CONTINUOUS
 10
226.2298208165
 20
281.3485559662
 11
226.2298208165
 21
281.8485559662
  0
LINE
  5
2CE
100
AcDbEntity
  8
KONSTRUKTIONSELEMENTE
100
AcDbLine
 62
7
  6
CONTINUOUS
 10
226.2382604832
 20
281.3485559662
 11
226.2382604832
 21
281.8485559662
  0
LINE
  5
2CF
100
AcDbEntity
  8
KONSTRUKTIONSELEMENTE
100
AcDbLine
 62
7
  6
CONTINUOUS
 10
227.0199283588
 20
281.3485559662
 11
227.0199283588
 21
281.8485559662
  0
LINE
  5
2D0
100
AcDbEntity
  8
KONSTRUKTIONSELEMENTE
100
AcDbLine
 62
7
  6
CONTINUOUS
 10
228.3312960613
 20
281.3485559662
 11
228.3312960613
 21
281.8485559662
  0
LINE
  5
2D1
100
AcDbEntity
  8
KONSTRUKTIONSELEMENTE
100
AcDbLine
 62
7
  6
CONTINUOUS
 10
228.7446053711
 20
281.3485559662
 11
228.7446053711
 21
281.8485559662
  0
LINE
  5
2D2
100
AcDbEntity
  8
KONSTRUKTIONSELEMENTE
100
AcDbLine
 62
7
  6
CONTINUOUS
 10
229.0864749076
 20
281.3485559662
 11
229.0864749076
 21
281.8485559662
  0
LINE
  5
2D3
100
AcDbEntity
  8
KONSTRUKTIONSELEMENTE
100
AcDbLine
 62
7
  6
CONTINUOUS
 10
229.7753227061
 20
281.3485559662
 11
229.7753227061
 21
281.8485559662
  0
LINE
  5
2D4
100
AcDbEntity
  8
KONSTRUKTIONSELEMENTE
100
AcDbLine
 62
7
  6
CONTINUOUS
 10
229.9218382413
 20
281.3485559662
 11
229.9218382413
 21
281.8485559662
  0
LINE
  5
2D5
100
AcDbEntity
  8
0
100
AcDbLine
 62
7
  6
CONTINUOUS
 10
257.9321736702
 20
290.5401734609
 11
256.7029230787
 21
290.0056800918
  0
LINE
  5
2D6
100
AcDbEntity
  8
0
100
AcDbLine
 62
7
  6
CONTINUOUS
 10
257.9547864587
 20
289.5277172705
 11
258.3060009134
 21
289.6804296617
  0
LINE
  5
2D7
100
AcDbEntity
  8
0
100
AcDbLine
 62
7
  6
CONTINUOUS
 10
256.0978721712
 20
288.5158502277
 11
256.6246938532
 21
288.7449188144
  0
LINE
  5
2D8
100
AcDbEntity
  8
0
100
AcDbLine
 62
7
  6
CONTINUOUS
 10
256.6246938532
 20
288.7449188144
 11
257.2262812139
 21
288.8020387852
  0
LINE
  5
2D9
100
AcDbEntity
  8
0
100
AcDbLine
 62
7
  6
CONTINUOUS
 10
259.4344097369
 20
289.9666180508
 11
260.0359973435
 21
290.0237381285
  0
LINE
  5
2DA
100
AcDbEntity
  8
0
100
AcDbLine
 62
7
  6
CONTINUOUS
 10
260.2637572417
 20
290.94060173
 11
259.2361897143
 21
290.9027180609
  0
LINE
  5
2DB
100
AcDbEntity
  8
RUNDUNGEN
100
AcDbLine
 62
7
  6
CONTINUOUS
 10
238.7877362915
 20
284.8485559662
 11
209.393819788
 21
284.8485559662
  0
LINE
  5
2DC
100
AcDbEntity
  8
0
100
AcDbLine
 62
7
  6
CONTINUOUS
 10
189.0877767772
 20
291.7000441712
 11
189.6893636245
 21
291.6429236924
  0
LINE
  5
2DD
100
AcDbEntity
  8
0
100
AcDbLine
 62
7
  6
CONTINUOUS
 10
190.137956327
 20
292.6746162761
 11
189.5363694798
 21
292.7317367549
  0
LINE
  5
2DE
100
AcDbEntity
  8
0
100
AcDbLine
 62
7
  6
CONTINUOUS
 10
264.6714552875
 20
279.3629147227
 11
265.3478077278
 21
279.2480861096
  0
LINE
  5
2DF
100
AcDbEntity
  8
0
100
AcDbLine
 62
7
  6
CONTINUOUS
 10
257.3654212993
 20
284.1600113062
 11
256.6890685221
 21
284.2748403578
  0
LINE
  5
2E0
100
AcDbEntity
  8
0
100
AcDbLine
 62
7
  6
CONTINUOUS
 10
256.2109359025
 20
283.4535692569
 11
257.1376612246
 21
283.2431477741
  0
LINE
  5
2E1
100
AcDbEntity
  8
0
100
AcDbLine
 62
7
  6
CONTINUOUS
 10
261.7244302213
 20
273.1745267863
 11
261.2236848853
 21
273.3657115416
  0
LINE
  5
2E2
100
AcDbEntity
  8
0
100
AcDbLine
 62
7
  6
CONTINUOUS
 10
265.2626514834
 20
275.1219042005
 11
264.7619058426
 21
275.3130899932
  0
LINE
  5
2E3
100
AcDbEntity
  8
BEZUGSACHSEN
100
AcDbLine
 62
7
  6
CONTINUOUS
 10
244.8753877306
 20
279.7408608116
 11
242.0907780397
 21
281.3485559662
  0
LINE
  5
2E4
100
AcDbEntity
  8
BEZUGSACHSEN
100
AcDbLine
 62
7
  6
CONTINUOUS
 10
234.4830828851
 20
266.8485559662
 11
234.4830828851
 21
279.7408608116
  0
LINE
  5
2E5
100
AcDbEntity
  8
BEZUGSACHSEN
100
AcDbLine
 62
7
  6
CONTINUOUS
 10
236.0907780397
 20
178.8485559662
 11
236.0907780397
 21
211.3485559662
  0
LINE
  5
2E6
100
AcDbEntity
  8
0
100
AcDbLine
 62
7
  6
CONTINUOUS
 10
239.6907780397
 20
259.3485559662
 11
239.6907780397
 21
259.0985559662
  0
LINE
  5
2E7
100
AcDbEntity
  8
0
100
AcDbLine
 62
7
  6
CONTINUOUS
 10
239.6907780397
 20
220.5985559662
 11
239.6907780397
 21
220.3485559662
  0
LINE
  5
2E8
100
AcDbEntity
  8
KONSTRUKTIONSELEMENTE
100
AcDbLine
 62
7
  6
CONTINUOUS
 10
240.6907780397
 20
266.3485559662
 11
240.6907780397
 21
266.8485559662
  0
LINE
  5
2E9
100
AcDbEntity
  8
BEZUGSACHSEN
100
AcDbLine
 62
7
  6
CONTINUOUS
 10
240.6907780397
 20
266.3485559662
 11
240.6907780397
 21
266.8485559662
  0
LINE
  5
2EA
100
AcDbEntity
  8
0
100
AcDbLine
 62
7
  6
CONTINUOUS
 10
255.6458159217
 20
288.114832918
 11
256.0978721712
 21
288.5158502277
  0
LINE
  5
2EB
100
AcDbEntity
  8
0
100
AcDbLine
 62
7
  6
CONTINUOUS
 10
256.7029230787
 20
290.0056800918
 11
255.5484376939
 21
289.2992378467
  0
LINE
  5
2EC
100
AcDbEntity
  8
0
100
AcDbLine
 62
7
  6
CONTINUOUS
 10
258.4938300425
 20
284.4461998797
 11
257.9670083605
 21
284.217131293
  0
LINE
  5
2ED
100
AcDbEntity
  8
0
100
AcDbLine
 62
7
  6
CONTINUOUS
 10
258.1652284565
 20
283.2810311137
 11
259.0432648393
 21
283.6628121986
  0
LINE
  5
2EE
100
AcDbEntity
  8
0
100
AcDbLine
 62
7
  6
CONTINUOUS
 10
189.5363694798
 20
292.7317367549
 11
188.6096442191
 21
292.5213152454
  0
LINE
  5
2EF
100
AcDbEntity
  8
0
100
AcDbLine
 62
7
  6
CONTINUOUS
 10
260.0359973435
 20
290.0237381285
 11
260.7123499442
 21
289.9089091463
  0
LINE
  5
2F0
100
AcDbEntity
  8
0
100
AcDbLine
 62
7
  6
CONTINUOUS
 10
261.1904825023
 20
290.7301802205
 11
260.2637572417
 21
290.94060173
  0
LINE
  5
2F1
100
AcDbEntity
  8
0
100
AcDbLine
 62
7
  6
CONTINUOUS
 10
266.0763131064
 20
279.9737642874
 11
265.0748222527
 21
280.3561348888
  0
LINE
  5
2F2
100
AcDbEntity
  8
0
100
AcDbLine
 62
7
  6
CONTINUOUS
 10
257.2262812139
 20
288.8020387852
 11
257.7270265873
 21
288.6108536075
  0
LINE
  5
2F3
100
AcDbEntity
  8
0
100
AcDbLine
 62
7
  6
CONTINUOUS
 10
264.2090081193
 20
274.663767027
 11
265.0348913178
 21
274.2050412139
  0
LINE
  5
2F4
100
AcDbEntity
  8
0
100
AcDbLine
 62
7
  6
CONTINUOUS
 10
260.6707866727
 20
272.7163895326
 11
261.2462975401
 21
272.3532556587
  0
LINE
  5
2F5
100
AcDbEntity
  8
0
100
AcDbLine
 62
7
  6
CONTINUOUS
 10
260.0205102275
 20
273.2514725051
 11
260.6707866727
 21
272.7163895326
  0
LINE
  5
2F6
100
AcDbEntity
  8
0
100
AcDbLine
 62
7
  6
CONTINUOUS
 10
261.2236848853
 20
273.3657115416
 11
260.8985464719
 21
273.6332535299
  0
LINE
  5
2F7
100
AcDbEntity
  8
BEZUGSACHSEN
100
AcDbLine
 62
7
  6
CONTINUOUS
 10
244.8753877306
 20
266.8485559662
 11
244.8753877306
 21
279.7408608116
  0
LINE
  5
2F8
100
AcDbEntity
  8
0
100
AcDbLine
 62
7
  6
CONTINUOUS
 10
247.2646808636
 20
256.2985559662
 11
247.2646808636
 21
258.7985559662
  0
LINE
  5
2F9
100
AcDbEntity
  8
0
100
AcDbLine
 62
7
  6
CONTINUOUS
 10
249.1797919714
 20
258.7985559662
 11
249.1797919714
 21
256.2985559662
  0
LINE
  5
2FA
100
AcDbEntity
  8
0
100
AcDbLine
 62
7
  6
CONTINUOUS
 10
254.8199323328
 20
288.5735592925
 11
254.3417997132
 21
287.7522881916
  0
LINE
  5
2FB
100
AcDbEntity
  8
0
100
AcDbLine
 62
7
  6
CONTINUOUS
 10
255.2685250354
 20
287.5418667088
 11
255.6458159217
 21
288.114832918
  0
LINE
  5
2FC
100
AcDbEntity
  8
0
100
AcDbLine
 62
7
  6
CONTINUOUS
 10
255.5484376939
 20
289.2992378467
 11
254.8199323328
 21
288.5735592925
  0
LINE
  5
2FD
100
AcDbEntity
  8
0
100
AcDbLine
 62
7
  6
CONTINUOUS
 10
259.0432648393
 20
283.6628121986
 11
259.7717700039
 21
284.3884908684
  0
LINE
  5
2FE
100
AcDbEntity
  8
0
100
AcDbLine
 62
7
  6
CONTINUOUS
 10
258.9458865914
 20
284.8472171734
 11
258.4938300425
 21
284.4461998797
  0
LINE
  5
2FF
100
AcDbEntity
  8
0
100
AcDbLine
 62
7
  6
CONTINUOUS
 10
262.0546644514
 20
285.3811216249
 11
262.5067207544
 21
285.7821388116
  0
LINE
  5
300
100
AcDbEntity
  8
0
100
AcDbLine
 62
7
  6
CONTINUOUS
 10
263.6630371689
 20
276.8798645855
 11
262.9606082595
 21
276.5744398032
  0
LINE
  5
301
100
AcDbEntity
  8
0
100
AcDbLine
 62
7
  6
CONTINUOUS
 10
266.4658260977
 20
275.236144388
 11
266.1146111511
 21
275.0834317829
  0
LINE
  5
302
100
AcDbEntity
  8
0
100
AcDbLine
 62
7
  6
CONTINUOUS
 10
262.8528391784
 20
273.4607148679
 11
262.150410269
 21
273.1552900856
  0
LINE
  5
303
100
AcDbEntity
  8
0
100
AcDbLine
 62
7
  6
CONTINUOUS
 10
266.4884386884
 20
274.2236873073
 11
266.839653635
 21
274.3763999123
  0
LINE
  5
304
100
AcDbEntity
  8
0
100
AcDbLine
 62
7
  6
CONTINUOUS
 10
262.5242373785
 20
272.2955465938
 11
263.2266662879
 21
272.6009713762
  0
LINE
  5
305
100
AcDbEntity
  8
0
100
AcDbLine
 62
7
  6
CONTINUOUS
 10
256.6890685221
 20
284.2748403578
 11
256.1135577161
 21
284.6379742585
  0
LINE
  5
306
100
AcDbEntity
  8
0
100
AcDbLine
 62
7
  6
CONTINUOUS
 10
265.3478077278
 20
279.2480861096
 11
265.9233185338
 21
278.8849522089
  0
LINE
  5
307
100
AcDbEntity
  8
0
100
AcDbLine
 62
7
  6
CONTINUOUS
 10
257.7270265873
 20
288.6108536075
 11
258.3025373932
 21
288.2477197068
  0
LINE
  5
308
100
AcDbEntity
  8
0
100
AcDbLine
 62
7
  6
CONTINUOUS
 10
259.1058080974
 20
288.8014494077
 11
257.9547864587
 21
289.5277172705
  0
LINE
  5
309
100
AcDbEntity
  8
0
100
AcDbLine
 62
7
  6
CONTINUOUS
 10
260.7123499442
 20
289.9089091463
 11
261.2878607502
 21
289.5457752457
  0
LINE
  5
30A
100
AcDbEntity
  8
0
100
AcDbLine
 62
7
  6
CONTINUOUS
 10
255.3102870648
 20
284.0842441419
 11
256.2109359025
 21
283.4535692569
  0
LINE
  5
30B
100
AcDbEntity
  8
0
100
AcDbLine
 62
7
  6
CONTINUOUS
 10
266.7265895054
 20
279.4386812948
 11
266.0763131064
 21
279.9737642874
  0
LINE
  5
30C
100
AcDbEntity
  8
0
100
AcDbLine
 62
7
  6
CONTINUOUS
 10
256.1135577161
 20
284.6379742585
 11
255.7136542445
 21
285.0774641088
  0
LINE
  5
30D
100
AcDbEntity
  8
0
100
AcDbLine
 62
7
  6
CONTINUOUS
 10
264.7619058426
 20
275.3130899932
 11
263.9620986854
 21
276.1920701857
  0
LINE
  5
30E
100
AcDbEntity
  8
0
100
AcDbLine
 62
7
  6
CONTINUOUS
 10
259.5458414683
 20
273.8629107027
 11
260.0205102275
 21
273.2514725051
  0
LINE
  5
30F
100
AcDbEntity
  8
0
100
AcDbLine
 62
7
  6
CONTINUOUS
 10
260.8985464719
 20
273.6332535299
 11
260.3491121351
 21
274.416640826
  0
LINE
  5
310
100
AcDbEntity
  8
RUNDUNGEN
100
AcDbLine
 62
7
  6
CONTINUOUS
 10
254.1878769009
 20
267.5247715157
 11
249.7924592844
 21
277.6335399631
  0
LINE
  5
311
100
AcDbEntity
  8
0
100
AcDbLine
 62
7
  6
CONTINUOUS
 10
255.1902960558
 20
286.2811055384
 11
255.1416069319
 21
286.8733080258
  0
LINE
  5
312
100
AcDbEntity
  8
0
100
AcDbLine
 62
7
  6
CONTINUOUS
 10
253.0907780397
 20
266.3485559662
 11
253.0907780397
 21
259.3485559662
  0
LINE
  5
313
100
AcDbEntity
  8
0
100
AcDbLine
 62
7
  6
CONTINUOUS
 10
254.0907780397
 20
220.3485559662
 11
254.0907780397
 21
211.3485559662
  0
LINE
  5
314
100
AcDbEntity
  8
RUNDUNGEN
100
AcDbLine
 62
7
  6
CONTINUOUS
 10
255.5907780397
 20
254.2985559662
 11
255.5907780397
 21
220.5985559662
  0
LINE
  5
315
100
AcDbEntity
  8
RUNDUNGEN
100
AcDbLine
 62
7
  6
CONTINUOUS
 10
257.0907780397
 20
221.8485559662
 11
257.0907780397
 21
223.858562224
  0
LINE
  5
316
100
AcDbEntity
  8
RUNDUNGEN
100
AcDbLine
 62
7
  6
CONTINUOUS
 10
257.0907780397
 20
239.8385497084
 11
257.0907780397
 21
253.5684245677
  0
LINE
  5
317
100
AcDbEntity
  8
0
100
AcDbLine
 62
7
  6
CONTINUOUS
 10
254.3417997132
 20
287.7522881916
 11
254.1888052549
 21
286.6634757241
  0
LINE
  5
318
100
AcDbEntity
  8
0
100
AcDbLine
 62
7
  6
CONTINUOUS
 10
255.1416069319
 20
286.8733080258
 11
255.2685250354
 21
287.5418667088
  0
LINE
  5
319
100
AcDbEntity
  8
0
100
AcDbLine
 62
7
  6
CONTINUOUS
 10
259.147570074
 20
285.3438272565
 11
258.9458865914
 21
284.8472171734
  0
LINE
  5
31A
100
AcDbEntity
  8
0
100
AcDbLine
 62
7
  6
CONTINUOUS
 10
259.7717700039
 20
284.3884908684
 11
260.0742953347
 21
285.133405747
  0
LINE
  5
31B
100
AcDbEntity
  8
0
100
AcDbLine
 62
7
  6
CONTINUOUS
 10
262.5067207544
 20
285.7821388116
 11
262.9848533125
 21
286.6034098858
  0
LINE
  5
31C
100
AcDbEntity
  8
0
100
AcDbLine
 62
7
  6
CONTINUOUS
 10
262.0581280518
 20
286.8138313953
 11
261.6808373419
 21
286.2408651166
  0
LINE
  5
31D
100
AcDbEntity
  8
0
100
AcDbLine
 62
7
  6
CONTINUOUS
 10
259.3806249512
 20
278.0846843638
 11
259.0033340274
 21
277.5117185771
  0
LINE
  5
31E
100
AcDbEntity
  8
0
100
AcDbLine
 62
7
  6
CONTINUOUS
 10
259.9300594111
 20
277.3012971211
 11
260.2065082728
 21
277.6259586042
  0
LINE
  5
31F
100
AcDbEntity
  8
0
100
AcDbLine
 62
7
  6
CONTINUOUS
 10
259.8326811633
 20
278.4857020959
 11
259.3806249512
 21
278.0846843638
  0
LINE
  5
320
100
AcDbEntity
  8
0
100
AcDbLine
 62
7
  6
CONTINUOUS
 10
263.2266662879
 20
272.6009713762
 11
263.8543302781
 21
273.0783443735
  0
LINE
  5
321
100
AcDbEntity
  8
0
100
AcDbLine
 62
7
  6
CONTINUOUS
 10
266.839653635
 20
274.3763999123
 11
267.4673165236
 21
274.8537747705
  0
LINE
  5
322
100
AcDbEntity
  8
0
100
AcDbLine
 62
7
  6
CONTINUOUS
 10
266.8101132875
 20
272.5234360406
 11
266.1076843781
 21
272.2180112582
  0
LINE
  5
323
100
AcDbEntity
  8
0
100
AcDbLine
 62
7
  6
CONTINUOUS
 10
268.8130946312
 20
271.7586970194
 11
267.4082363205
 21
271.1478472409
  0
LINE
  5
324
100
AcDbEntity
  8
0
100
AcDbLine
 62
7
  6
CONTINUOUS
 10
266.705807411
 20
270.8424224585
 11
263.193662495
 21
269.3152983864
  0
LINE
  5
325
100
AcDbEntity
  8
0
100
AcDbLine
 62
7
  6
CONTINUOUS
 10
263.9187046101
 20
268.6082663554
 11
267.0796349484
 21
269.9826779828
  0
LINE
  5
326
100
AcDbEntity
  8
0
100
AcDbLine
 62
7
  6
CONTINUOUS
 10
267.7820638578
 20
270.2881027652
 11
269.1869221686
 21
270.8989525438
  0
LINE
  5
327
100
AcDbEntity
  8
0
100
AcDbLine
 62
7
  6
CONTINUOUS
 10
262.8355211444
 20
266.297165417
 11
263.5379501153
 21
266.6025902261
  0
LINE
  5
328
100
AcDbEntity
  8
0
100
AcDbLine
 62
7
  6
CONTINUOUS
 10
267.9020551882
 20
268.0912409235
 11
268.6044840976
 21
268.3966657058
  0
LINE
  5
329
100
AcDbEntity
  8
0
100
AcDbLine
 62
7
  6
CONTINUOUS
 10
262.0911314543
 20
290.0995049465
 11
261.1904825023
 21
290.7301802205
  0
LINE
  5
32A
100
AcDbEntity
  8
0
100
AcDbLine
 62
7
  6
CONTINUOUS
 10
258.3025373932
 20
288.2477197068
 11
258.7024409718
 21
287.8082296105
  0
LINE
  5
32B
100
AcDbEntity
  8
0
100
AcDbLine
 62
7
  6
CONTINUOUS
 10
261.2878607502
 20
289.5457752457
 11
261.6877643288
 21
289.1062851494
  0
LINE
  5
32C
100
AcDbEntity
  8
0
100
AcDbLine
 62
7
  6
CONTINUOUS
 10
254.7608524986
 20
284.8676319233
 11
255.3102870648
 21
284.0842441419
  0
LINE
  5
32D
100
AcDbEntity
  8
0
100
AcDbLine
 62
7
  6
CONTINUOUS
 10
265.9233185338
 20
278.8849522089
 11
266.4727532985
 21
278.1015639288
  0
LINE
  5
32E
100
AcDbEntity
  8
0
100
AcDbLine
 62
7
  6
CONTINUOUS
 10
259.6552425947
 20
288.0180617425
 11
259.1058080974
 21
288.8014494077
  0
LINE
  5
32F
100
AcDbEntity
  8
0
100
AcDbLine
 62
7
  6
CONTINUOUS
 10
255.4268144426
 20
280.4546729616
 11
255.800641766
 21
279.5949289778
  0
LINE
  5
330
100
AcDbEntity
  8
0
100
AcDbLine
 62
7
  6
CONTINUOUS
 10
254.3870252822
 20
285.7273756611
 11
254.7608524986
 21
284.8676319233
  0
LINE
  5
331
100
AcDbEntity
  8
0
100
AcDbLine
 62
7
  6
CONTINUOUS
 10
258.9477175797
 20
275.2385014702
 11
259.5458414683
 21
273.8629107027
  0
LINE
  5
332
100
AcDbEntity
  8
0
100
AcDbLine
 62
7
  6
CONTINUOUS
 10
260.3491121351
 20
274.416640826
 11
259.9005194325
 21
275.4483334097
  0
LINE
  5
333
100
AcDbEntity
  8
0
100
AcDbLine
 62
7
  6
CONTINUOUS
 10
258.1809142154
 20
279.4031546525
 11
257.8070866781
 21
280.2628991282
  0
LINE
  5
334
100
AcDbEntity
  8
0
100
AcDbLine
 62
7
  6
CONTINUOUS
 10
255.7136542445
 20
285.0774641088
 11
255.1902960558
 21
286.2811055384
  0
LINE
  5
335
100
AcDbEntity
  8
0
100
AcDbLine
 62
7
  6
CONTINUOUS
 10
260.2065082728
 20
277.6259586042
 11
259.8326811633
 21
278.4857020959
  0
LINE
  5
336
100
AcDbEntity
  8
0
100
AcDbLine
 62
7
  6
CONTINUOUS
 10
262.9606082595
 20
276.5744398032
 11
263.259669776
 21
275.8866454033
  0
LINE
  5
337
100
AcDbEntity
  8
0
100
AcDbLine
 62
7
  6
CONTINUOUS
 10
254.1888052549
 20
286.6634757241
 11
254.3870252822
 21
285.7273756611
  0
LINE
  5
338
100
AcDbEntity
  8
0
100
AcDbLine
 62
7
  6
CONTINUOUS
 10
259.9005194325
 20
275.4483334097
 11
259.7022995504
 21
276.3844330971
  0
LINE
  5
339
100
AcDbEntity
  8
0
100
AcDbLine
 62
7
  6
CONTINUOUS
 10
258.824263306
 20
276.0026520724
 11
258.9477175797
 21
275.2385014702
  0
LINE
  5
33A
100
AcDbEntity
  8
0
100
AcDbLine
 62
7
  6
CONTINUOUS
 10
259.2257991605
 20
286.6045881809
 11
259.2744881774
 21
286.0123859395
  0
LINE
  5
33B
100
AcDbEntity
  8
0
100
AcDbLine
 62
7
  6
CONTINUOUS
 10
262.513846576
 20
267.9974166971
 11
262.5625356846
 21
267.405214203
  0
LINE
  5
33C
100
AcDbEntity
  8
0
100
AcDbLine
 62
7
  6
CONTINUOUS
 10
262.1363570313
 20
288.0745925657
 11
262.1850461553
 21
287.4823900783
  0
LINE
  5
33D
100
AcDbEntity
  8
0
100
AcDbLine
 62
7
  6
CONTINUOUS
 10
264.2316207741
 20
273.6513111441
 11
264.2090081193
 21
274.663767027
  0
LINE
  5
33E
100
AcDbEntity
  8
0
100
AcDbLine
 62
7
  6
CONTINUOUS
 10
258.8764158625
 20
276.8431598673
 11
258.824263306
 21
276.0026520724
  0
LINE
  5
33F
100
AcDbEntity
  8
0
100
AcDbLine
 62
7
  6
CONTINUOUS
 10
259.7022995504
 20
276.3844330971
 11
259.7283755917
 21
276.8046874765
  0
LINE
  5
340
100
AcDbEntity
  8
0
100
AcDbLine
 62
7
  6
CONTINUOUS
 10
260.0742953347
 20
285.133405747
 11
260.2272899072
 21
286.2222178255
  0
LINE
  5
341
100
AcDbEntity
  8
0
100
AcDbLine
 62
7
  6
CONTINUOUS
 10
262.9848533125
 20
286.6034098858
 11
263.1378476711
 21
287.6922224563
  0
LINE
  5
342
100
AcDbEntity
  8
0
100
AcDbLine
 62
7
  6
CONTINUOUS
 10
259.2744881774
 20
286.0123859395
 11
259.147570074
 21
285.3438272565
  0
LINE
  5
343
100
AcDbEntity
  8
0
100
AcDbLine
 62
7
  6
CONTINUOUS
 10
259.0033340274
 20
277.5117185771
 11
258.8764158625
 21
276.8431598673
  0
LINE
  5
344
100
AcDbEntity
  8
0
100
AcDbLine
 62
7
  6
CONTINUOUS
 10
262.1850461553
 20
287.4823900783
 11
262.0581280518
 21
286.8138313953
  0
LINE
  5
345
100
AcDbEntity
  8
0
100
AcDbLine
 62
7
  6
CONTINUOUS
 10
263.5326552512
 20
274.7785966241
 11
263.4057371477
 21
274.1100379411
  0
LINE
  5
346
100
AcDbEntity
  8
0
100
AcDbLine
 62
7
  6
CONTINUOUS
 10
262.6407647102
 20
268.6659753935
 11
262.513846576
 21
267.9974166971
  0
LINE
  5
347
100
AcDbEntity
  8
0
100
AcDbLine
 62
7
  6
CONTINUOUS
 10
263.3397298668
 20
267.5386909241
 11
263.4666479702
 21
268.2072496071
  0
LINE
  5
348
100
AcDbEntity
  8
RUNDUNGEN
100
AcDbLine
 62
7
  6
CONTINUOUS
 10
273.8178814735
 20
334.4716657406
 11
265.8467003028
 21
304.7228126151
  0
LINE
  5
349
100
AcDbEntity
  8
0
100
AcDbLine
 62
7
  6
CONTINUOUS
 10
259.7283755917
 20
276.8046874765
 11
259.9300594111
 21
277.3012971211
  0
LINE
  5
34A
100
AcDbEntity
  8
0
100
AcDbLine
 62
7
  6
CONTINUOUS
 10
263.8543302781
 20
273.0783443735
 11
264.2316207741
 21
273.6513111441
  0
LINE
  5
34B
100
AcDbEntity
  8
0
100
AcDbLine
 62
7
  6
CONTINUOUS
 10
266.8431170215
 20
275.8091101747
 11
266.4658260977
 21
275.236144388
  0
LINE
  5
34C
100
AcDbEntity
  8
0
100
AcDbLine
 62
7
  6
CONTINUOUS
 10
263.4057371477
 20
274.1100379411
 11
262.8528391784
 21
273.4607148679
  0
LINE
  5
34D
100
AcDbEntity
  8
0
100
AcDbLine
 62
7
  6
CONTINUOUS
 10
263.193662495
 20
269.3152983864
 11
262.6407647102
 21
268.6659753935
  0
LINE
  5
34E
100
AcDbEntity
  8
0
100
AcDbLine
 62
7
  6
CONTINUOUS
 10
263.4666479702
 20
268.2072496071
 11
263.9187046101
 21
268.6082663554
  0
LINE
  5
34F
100
AcDbEntity
  8
0
100
AcDbLine
 62
7
  6
CONTINUOUS
 10
262.6405659516
 20
289.3161172814
 11
262.0911314543
 21
290.0995049465
  0
LINE
  5
350
100
AcDbEntity
  8
0
100
AcDbLine
 62
7
  6
CONTINUOUS
 10
267.4255546005
 20
278.3113967987
 11
266.7265895054
 21
279.4386812948
  0
LINE
  5
351
100
AcDbEntity
  8
0
100
AcDbLine
 62
7
  6
CONTINUOUS
 10
258.7024409718
 20
287.8082296105
 11
259.2257991605
 21
286.6045881809
  0
LINE
  5
352
100
AcDbEntity
  8
0
100
AcDbLine
 62
7
  6
CONTINUOUS
 10
263.9620986854
 20
276.1920701857
 11
263.6630371689
 21
276.8798645855
  0
LINE
  5
353
100
AcDbEntity
  8
0
100
AcDbLine
 62
7
  6
CONTINUOUS
 10
266.1076843781
 20
272.2180112582
 11
266.705807411
 21
270.8424224585
  0
LINE
  5
354
100
AcDbEntity
  8
0
100
AcDbLine
 62
7
  6
CONTINUOUS
 10
267.0796349484
 20
269.9826779828
 11
267.9020551882
 21
268.0912409235
  0
LINE
  5
355
100
AcDbEntity
  8
0
100
AcDbLine
 62
7
  6
CONTINUOUS
 10
260.0290698112
 20
287.1583180048
 11
259.6552425947
 21
288.0180617425
  0
LINE
  5
356
100
AcDbEntity
  8
0
100
AcDbLine
 62
7
  6
CONTINUOUS
 10
268.6044840976
 20
268.3966657058
 11
267.7820638578
 21
270.2881027652
  0
LINE
  5
357
100
AcDbEntity
  8
0
100
AcDbLine
 62
7
  6
CONTINUOUS
 10
267.4082363205
 20
271.1478472409
 11
266.8101132875
 21
272.5234360406
  0
LINE
  5
358
100
AcDbEntity
  8
0
100
AcDbLine
 62
7
  6
CONTINUOUS
 10
261.6808373419
 20
286.2408651166
 11
262.0546644514
 21
285.3811216249
  0
LINE
  5
359
100
AcDbEntity
  8
0
100
AcDbLine
 62
7
  6
CONTINUOUS
 10
264.297628178
 20
280.2226582145
 11
264.6714552875
 21
279.3629147227
  0
LINE
  5
35A
100
AcDbEntity
  8
0
100
AcDbLine
 62
7
  6
CONTINUOUS
 10
269.1869221686
 20
270.8989525438
 11
268.8130946312
 21
271.7586970194
  0
LINE
  5
35B
100
AcDbEntity
  8
0
100
AcDbLine
 62
7
  6
CONTINUOUS
 10
261.6877643288
 20
289.1062851494
 11
262.1363570313
 21
288.0745925657
  0
LINE
  5
35C
100
AcDbEntity
  8
0
100
AcDbLine
 62
7
  6
CONTINUOUS
 10
266.4727532985
 20
278.1015639288
 11
266.771814815
 21
277.413769529
  0
LINE
  5
35D
100
AcDbEntity
  8
0
100
AcDbLine
 62
7
  6
CONTINUOUS
 10
267.5750857865
 20
277.9674986149
 11
267.4255546005
 21
278.3113967987
  0
LINE
  5
35E
100
AcDbEntity
  8
0
100
AcDbLine
 62
7
  6
CONTINUOUS
 10
262.939627682
 20
288.6283223896
 11
262.6405659516
 21
289.3161172814
  0
LINE
  5
35F
100
AcDbEntity
  8
0
100
AcDbLine
 62
7
  6
CONTINUOUS
 10
267.9228364269
 20
276.6875017276
 11
267.5750857865
 21
277.9674986149
  0
LINE
  5
360
100
AcDbEntity
  8
0
100
AcDbLine
 62
7
  6
CONTINUOUS
 10
262.5625356846
 20
267.405214203
 11
262.8355211444
 21
266.297165417
  0
LINE
  5
361
100
AcDbEntity
  8
0
100
AcDbLine
 62
7
  6
CONTINUOUS
 10
263.259669776
 20
275.8866454033
 11
263.5326552512
 21
274.7785966241
  0
LINE
  5
362
100
AcDbEntity
  8
0
100
AcDbLine
 62
7
  6
CONTINUOUS
 10
263.5379501153
 20
266.6025902261
 11
263.3397298668
 21
267.5386909241
  0
LINE
  5
363
100
AcDbEntity
  8
0
100
AcDbLine
 62
7
  6
CONTINUOUS
 10
260.2272899072
 20
286.2222178255
 11
260.0290698112
 21
287.1583180048
  0
LINE
  5
364
100
AcDbEntity
  8
0
100
AcDbLine
 62
7
  6
CONTINUOUS
 10
263.1378476711
 20
287.6922224563
 11
262.939627682
 21
288.6283223896
  0
LINE
  5
365
100
AcDbEntity
  8
0
100
AcDbLine
 62
7
  6
CONTINUOUS
 10
266.771814815
 20
277.413769529
 11
266.970035125
 21
276.4776688577
  0
LINE
  5
366
100
AcDbEntity
  8
0
100
AcDbLine
 62
7
  6
CONTINUOUS
 10
267.8706839165
 20
275.8469939527
 11
267.9228364269
 21
276.6875017276
  0
LINE
  5
367
100
AcDbEntity
  8
0
100
AcDbLine
 62
7
  6
CONTINUOUS
 10
266.970035125
 20
276.4776688577
 11
266.8431170215
 21
275.8091101747
  0
LINE
  5
368
100
AcDbEntity
  8
0
100
AcDbLine
 62
7
  6
CONTINUOUS
 10
267.4673165236
 20
274.8537747705
 11
267.8706839165
 21
275.8469939527
  0
LINE
  5
369
100
AcDbEntity
  8
RUNDUNGEN
100
AcDbLine
 62
7
  6
CONTINUOUS
 10
266.3353578218
 20
298.1471314748
 11
282.2641474216
 21
261.5134234272
  0
LINE
  5
36A
100
AcDbEntity
  8
RUNDUNGEN
100
AcDbLine
 62
7
  6
CONTINUOUS
 10
283.0457318962
 20
243.6120918989
 11
275.2329113728
 21
220.2620326842
  0
LINE
  5
36B
100
AcDbEntity
  8
RUNDUNGEN
100
AcDbLine
 62
7
  6
CONTINUOUS
 10
259.959145215
 20
367.3286884694
 11
273.0686884525
 21
341.599761189
  0
LINE
  5
36C
100
AcDbEntity
  8
BEZUGSACHSEN
100
AcDbLine
 62
7
  6
CONTINUOUS
 10
236.0907780397
 20
178.8485559662
 11
234.5907780397
 21
177.3485559662
  0
LINE
  5
36D
100
AcDbEntity
  8
RUNDUNGEN
100
AcDbLine
 62
7
  6
CONTINUOUS
 10
227.6744575352
 20
382.4729102948
 11
254.6327594686
 21
372.124587737
  0
LINE
  5
36E
100
AcDbEntity
  8
BEZUGSACHSEN
100
AcDbLine
 62
7
  6
CONTINUOUS
 10
352.5936705875
 20
177.3485559662
 11
373.5936705875
 21
177.3485559662
  0
LINE
  5
36F
100
AcDbEntity
  8
BEZUGSACHSEN
100
AcDbLine
 62
7
  6
CONTINUOUS
 10
351.0936705875
 20
178.8485559662
 11
375.0936705875
 21
178.8485559662
  0
LINE
  5
370
100
AcDbEntity
  8
BEZUGSACHSEN
100
AcDbLine
 62
7
  6
CONTINUOUS
 10
352.5936705875
 20
177.3485559662
 11
351.0936705875
 21
178.8485559662
  0
LINE
  5
371
100
AcDbEntity
  8
0
100
AcDbLine
 62
7
  6
CONTINUOUS
 10
333.0936705875
 20
211.3485559662
 11
393.0936705875
 21
211.3485559662
  0
LINE
  5
372
100
AcDbEntity
  8
RUNDUNGEN
100
AcDbLine
 62
7
  6
CONTINUOUS
 10
373.0936705875
 20
216.8485559662
 11
353.0936705875
 21
216.8485559662
  0
LINE
  5
373
100
AcDbEntity
  8
0
100
AcDbLine
 62
7
  6
CONTINUOUS
 10
333.0936705875
 20
220.3485559662
 11
349.5936705875
 21
220.3485559662
  0
LINE
  5
374
100
AcDbEntity
  8
0
100
AcDbLine
 62
7
  6
CONTINUOUS
 10
376.5936705875
 20
220.3485559662
 11
393.0936705875
 21
220.3485559662
  0
LINE
  5
375
100
AcDbEntity
  8
RUNDUNGEN
100
AcDbLine
 62
7
  6
CONTINUOUS
 10
331.5936705875
 20
220.5985559662
 11
349.5936705875
 21
220.5985559662
  0
LINE
  5
376
100
AcDbEntity
  8
RUNDUNGEN
100
AcDbLine
 62
7
  6
CONTINUOUS
 10
376.5936705875
 20
220.5985559662
 11
394.5936705875
 21
220.5985559662
  0
LINE
  5
377
100
AcDbEntity
  8
0
100
AcDbLine
 62
7
  6
CONTINUOUS
 10
376.5936705875
 20
236.9514657842
 11
377.0936705875
 21
236.9514657842
  0
LINE
  5
378
100
AcDbEntity
  8
0
100
AcDbLine
 62
7
  6
CONTINUOUS
 10
376.5936705875
 20
244.9514657842
 11
377.0936705875
 21
244.9514657842
  0
LINE
  5
379
100
AcDbEntity
  8
0
100
AcDbLine
 62
7
  6
CONTINUOUS
 10
331.5936705875
 20
220.5985559662
 11
331.5936705875
 21
257.0985559662
  0
LINE
  5
37A
100
AcDbEntity
  8
0
100
AcDbLine
 62
7
  6
CONTINUOUS
 10
333.0936705875
 20
220.3485559662
 11
333.0936705875
 21
211.3485559662
  0
LINE
  5
37B
100
AcDbEntity
  8
0
100
AcDbLine
 62
7
  6
CONTINUOUS
 10
334.0936705875
 20
266.3485559662
 11
334.0936705875
 21
259.3485559662
  0
LINE
  5
37C
100
AcDbEntity
  8
0
100
AcDbLine
 62
7
  6
CONTINUOUS
 10
342.5936705875
 20
256.2985559662
 11
342.5936705875
 21
259.0985559662
  0
LINE
  5
37D
100
AcDbEntity
  8
BEZUGSACHSEN
100
AcDbLine
 62
7
  6
CONTINUOUS
 10
345.0936705875
 20
266.8485559662
 11
345.0936705875
 21
281.3485559662
  0
LINE
  5
37E
100
AcDbEntity
  8
BEZUGSACHSEN
100
AcDbLine
 62
7
  6
CONTINUOUS
 10
346.4936705875
 20
266.3485559662
 11
346.4936705875
 21
266.8485559662
  0
LINE
  5
37F
100
AcDbEntity
  8
RUNDUNGEN
100
AcDbLine
 62
7
  6
CONTINUOUS
 10
390.0295166959
 20
256.2985559662
 11
376.5936705875
 21
256.2985559662
  0
LINE
  5
380
100
AcDbEntity
  8
RUNDUNGEN
100
AcDbLine
 62
7
  6
CONTINUOUS
 10
349.5936705875
 20
256.2985559662
 11
337.9947648363
 21
256.2985559662
  0
LINE
  5
381
100
AcDbEntity
  8
0
100
AcDbLine
 62
7
  6
CONTINUOUS
 10
342.5936705875
 20
258.7985559662
 11
349.7381150319
 21
258.7985559662
  0
LINE
  5
382
100
AcDbEntity
  8
0
100
AcDbLine
 62
7
  6
CONTINUOUS
 10
336.8783268
 20
259.0985559662
 11
342.5936705875
 21
259.0985559662
  0
LINE
  5
383
100
AcDbEntity
  8
RUNDUNGEN
100
AcDbLine
 62
7
  6
CONTINUOUS
 10
333.5972040608
 20
259.0985559662
 11
342.5936705875
 21
259.0985559662
  0
LINE
  5
384
100
AcDbEntity
  8
RUNDUNGEN
100
AcDbLine
 62
7
  6
CONTINUOUS
 10
347.1649897483
 20
259.0985559662
 11
349.7603372542
 21
259.0985559662
  0
LINE
  5
385
100
AcDbEntity
  8
0
100
AcDbLine
 62
7
  6
CONTINUOUS
 10
347.0936705875
 20
259.0985559662
 11
347.1649897483
 21
259.0985559662
  0
LINE
  5
386
100
AcDbEntity
  8
RUNDUNGEN
100
AcDbLine
 62
7
  6
CONTINUOUS
 10
376.4270039208
 20
259.0985559662
 11
392.5919906071
 21
259.0985559662
  0
LINE
  5
387
100
AcDbEntity
  8
0
100
AcDbLine
 62
7
  6
CONTINUOUS
 10
334.0936705875
 20
259.3485559662
 11
349.7788557727
 21
259.3485559662
  0
LINE
  5
388
100
AcDbEntity
  8
0
100
AcDbLine
 62
7
  6
CONTINUOUS
 10
376.4084854023
 20
259.3485559662
 11
392.0936705875
 21
259.3485559662
  0
LINE
  5
389
100
AcDbEntity
  8
0
100
AcDbLine
 62
7
  6
CONTINUOUS
 10
347.0936705875
 20
259.0985559662
 11
347.0936705875
 21
258.7985559662
  0
LINE
  5
38A
100
AcDbEntity
  8
0
100
AcDbLine
 62
7
  6
CONTINUOUS
 10
347.4936705875
 20
259.3485559662
 11
347.4936705875
 21
259.0985559662
  0
LINE
  5
38B
100
AcDbEntity
  8
0
100
AcDbLine
 62
7
  6
CONTINUOUS
 10
347.4936705875
 20
220.5985559662
 11
347.4936705875
 21
220.3485559662
  0
LINE
  5
38C
100
AcDbEntity
  8
KONSTRUKTIONSELEMENTE
100
AcDbLine
 62
7
  6
CONTINUOUS
 10
347.5231357926
 20
281.3485559662
 11
347.5231357926
 21
281.8485559662
  0
LINE
  5
38D
100
AcDbEntity
  8
KONSTRUKTIONSELEMENTE
100
AcDbLine
 62
7
  6
CONTINUOUS
 10
347.5429789998
 20
281.3485559662
 11
347.5429789998
 21
281.8485559662
  0
LINE
  5
38E
100
AcDbEntity
  8
KONSTRUKTIONSELEMENTE
100
AcDbLine
 62
7
  6
CONTINUOUS
 10
347.702045031
 20
281.3485559662
 11
347.702045031
 21
281.8485559662
  0
LINE
  5
38F
100
AcDbEntity
  8
KONSTRUKTIONSELEMENTE
100
AcDbLine
 62
7
  6
CONTINUOUS
 10
348.232265135
 20
281.3485559662
 11
348.232265135
 21
281.8485559662
  0
LINE
  5
390
100
AcDbEntity
  8
KONSTRUKTIONSELEMENTE
100
AcDbLine
 62
7
  6
CONTINUOUS
 10
348.3913311662
 20
281.3485559662
 11
348.3913311662
 21
281.8485559662
  0
LINE
  5
391
100
AcDbEntity
  8
RUNDUNGEN
100
AcDbLine
 62
7
  6
CONTINUOUS
 10
349.5936705875
 20
220.3485559662
 11
349.5936705875
 21
256.404719518
  0
LINE
  5
392
100
AcDbEntity
  8
0
100
AcDbLine
 62
7
  6
CONTINUOUS
 10
350.8436705875
 20
283.8762957442
 11
350.8436705875
 21
295.1810585136
  0
LINE
  5
393
100
AcDbEntity
  8
BEZUGSACHSEN
100
AcDbLine
 62
7
  6
CONTINUOUS
 10
351.0936705875
 20
178.8485559662
 11
351.0936705875
 21
211.3485559662
  0
LINE
  5
394
100
AcDbEntity
  8
RUNDUNGEN
100
AcDbLine
 62
7
  6
CONTINUOUS
 10
351.5936705875
 20
284.2923031684
 11
351.5936705875
 21
382.1371060298
  0
LINE
  5
395
100
AcDbEntity
  8
RUNDUNGEN
100
AcDbLine
 62
7
  6
CONTINUOUS
 10
353.5936705875
 20
298.2964697299
 11
353.5936705875
 21
384.3484230172
  0
LINE
  5
396
100
AcDbEntity
  8
0
100
AcDbLine
 62
7
  6
CONTINUOUS
 10
349.8535335925
 20
270.5094463122
 11
350.8436705875
 21
283.8762957442
  0
LINE
  5
397
100
AcDbEntity
  8
RUNDUNGEN
100
AcDbLine
 62
7
  6
CONTINUOUS
 10
349.626457534
 20
257.2911797442
 11
351.5608814529
 21
283.4059026484
  0
LINE
  5
398
100
AcDbEntity
  8
0
100
AcDbLine
 62
7
  6
CONTINUOUS
 10
334.0936705875
 20
266.3485559662
 11
350.2973742912
 21
266.3485559662
  0
LINE
  5
399
100
AcDbEntity
  8
0
100
AcDbLine
 62
7
  6
CONTINUOUS
 10
375.8899668838
 20
266.3485559662
 11
392.0936705875
 21
266.3485559662
  0
LINE
  5
39A
100
AcDbEntity
  8
KONSTRUKTIONSELEMENTE
100
AcDbLine
 62
7
  6
CONTINUOUS
 10
345.0936705875
 20
266.8485559662
 11
350.3344113282
 21
266.8485559662
  0
LINE
  5
39B
100
AcDbEntity
  8
KONSTRUKTIONSELEMENTE
100
AcDbLine
 62
7
  6
CONTINUOUS
 10
375.8529298468
 20
266.8485559662
 11
381.0936705875
 21
266.8485559662
  0
LINE
  5
39C
100
AcDbEntity
  8
0
100
AcDbLine
 62
7
  6
CONTINUOUS
 10
375.8247816986
 20
267.2285559662
 11
376.576836497
 21
267.2285559662
  0
LINE
  5
39D
100
AcDbEntity
  8
0
100
AcDbLine
 62
7
  6
CONTINUOUS
 10
349.8535384898
 20
270.5095124251
 11
350.6055932882
 21
270.5095124251
  0
LINE
  5
39E
100
AcDbEntity
  8
0
100
AcDbLine
 62
7
  6
CONTINUOUS
 10
375.3551578523
 20
273.5684778917
 11
376.1072126507
 21
273.5684778917
  0
LINE
  5
39F
100
AcDbEntity
  8
0
100
AcDbLine
 62
7
  6
CONTINUOUS
 10
375.2532622945
 20
274.9440679213
 11
376.0053170929
 21
274.9440679213
  0
LINE
  5
3A0
100
AcDbEntity
  8
0
100
AcDbLine
 62
7
  6
CONTINUOUS
 10
375.1384551786
 20
276.493963986
 11
375.890509977
 21
276.493963986
  0
LINE
  5
3A1
100
AcDbEntity
  8
0
100
AcDbLine
 62
7
  6
CONTINUOUS
 10
375.122912076
 20
276.703795872
 11
375.8749668743
 21
276.703795872
  0
LINE
  5
3A2
100
AcDbEntity
  8
0
100
AcDbLine
 62
7
  6
CONTINUOUS
 10
375.0380718507
 20
277.8491389127
 11
375.7901266491
 21
277.8491389127
  0
LINE
  5
3A3
100
AcDbEntity
  8
0
100
AcDbLine
 62
7
  6
CONTINUOUS
 10
374.9970547927
 20
278.4028691965
 11
375.749109591
 21
278.4028691965
  0
LINE
  5
3A4
100
AcDbEntity
  8
0
100
AcDbLine
 62
7
  6
CONTINUOUS
 10
374.9489568681
 20
279.0521911787
 11
375.7010116664
 21
279.0521911787
  0
LINE
  5
3A5
100
AcDbEntity
  8
0
100
AcDbLine
 62
7
  6
CONTINUOUS
 10
351.2457589326
 20
279.1517486245
 11
350.4937041342
 21
279.1517486245
  0
LINE
  5
3A6
100
AcDbEntity
  8
0
100
AcDbLine
 62
7
  6
CONTINUOUS
 10
374.8753850039
 20
280.0454113448
 11
375.6274398023
 21
280.0454113448
  0
LINE
  5
3A7
100
AcDbEntity
  8
0
100
AcDbLine
 62
7
  6
CONTINUOUS
 10
351.3662054494
 20
280.7777766017
 11
350.614150651
 21
280.7777766017
  0
LINE
  5
3A8
100
AcDbEntity
  8
0
100
AcDbLine
 62
7
  6
CONTINUOUS
 10
374.8131252416
 20
280.8859181359
 11
375.56518004
 21
280.8859181359
  0
LINE
  5
3A9
100
AcDbEntity
  8
BEZUGSACHSEN
100
AcDbLine
 62
7
  6
CONTINUOUS
 10
345.0936705875
 20
281.3485559662
 11
350.6564306039
 21
281.3485559662
  0
LINE
  5
3AA
100
AcDbEntity
  8
BEZUGSACHSEN
100
AcDbLine
 62
7
  6
CONTINUOUS
 10
375.5309105711
 20
281.3485559662
 11
381.0936705875
 21
281.3485559662
  0
LINE
  5
3AB
100
AcDbEntity
  8
0
100
AcDbLine
 62
7
  6
CONTINUOUS
 10
374.7437844511
 20
281.8220188071
 11
375.4958392495
 21
281.8220188071
  0
LINE
  5
3AC
100
AcDbEntity
  8
KONSTRUKTIONSELEMENTE
100
AcDbLine
 62
7
  6
CONTINUOUS
 10
347.5231357926
 20
281.8485559662
 11
350.693467641
 21
281.8485559662
  0
LINE
  5
3AD
100
AcDbEntity
  8
0
100
AcDbLine
 62
7
  6
CONTINUOUS
 10
351.4866519662
 20
282.4038045789
 11
350.7345971679
 21
282.4038045789
  0
LINE
  5
3AE
100
AcDbEntity
  8
0
100
AcDbLine
 62
7
  6
CONTINUOUS
 10
374.6291519418
 20
283.3695576826
 11
375.3812067402
 21
283.3695576826
  0
LINE
  5
3AF
100
AcDbEntity
  8
RUNDUNGEN
100
AcDbLine
 62
7
  6
CONTINUOUS
 10
376.560883641
 20
257.2911797442
 11
374.6264578646
 21
283.4059277254
  0
LINE
  5
3B0
100
AcDbEntity
  8
0
100
AcDbLine
 62
7
  6
CONTINUOUS
 10
376.0053170929
 20
274.9440679213
 11
376.576836497
 21
267.2285559662
  0
LINE
  5
3B1
100
AcDbEntity
  8
0
100
AcDbLine
 62
7
  6
CONTINUOUS
 10
375.890509977
 20
276.493963986
 11
375.3436705875
 21
283.8762957442
  0
LINE
  5
3B2
100
AcDbEntity
  8
RUNDUNGEN
100
AcDbLine
 62
7
  6
CONTINUOUS
 10
372.5936705875
 20
384.3484230172
 11
372.5936705875
 21
298.2964697299
  0
LINE
  5
3B3
100
AcDbEntity
  8
RUNDUNGEN
100
AcDbLine
 62
7
  6
CONTINUOUS
 10
374.5936705875
 20
284.2923924144
 11
374.5936705875
 21
382.1371060298
  0
LINE
  5
3B4
100
AcDbEntity
  8
BEZUGSACHSEN
100
AcDbLine
 62
7
  6
CONTINUOUS
 10
375.0936705875
 20
178.8485559662
 11
375.0936705875
 21
211.3485559662
  0
LINE
  5
3B5
100
AcDbEntity
  8
0
100
AcDbLine
 62
7
  6
CONTINUOUS
 10
375.3436705875
 20
292.7317367549
 11
375.3436705875
 21
283.8762957442
  0
LINE
  5
3B6
100
AcDbEntity
  8
RUNDUNGEN
100
AcDbLine
 62
7
  6
CONTINUOUS
 10
376.5936705875
 20
220.3485559662
 11
376.5936705875
 21
256.404719518
  0
LINE
  5
3B7
100
AcDbEntity
  8
0
100
AcDbLine
 62
7
  6
CONTINUOUS
 10
374.5944808477
 20
284.1529449788
 11
375.3436705875
 21
284.1529449788
  0
LINE
  5
3B8
100
AcDbEntity
  8
0
100
AcDbLine
 62
7
  6
CONTINUOUS
 10
374.5936705875
 20
284.6880279714
 11
375.3436705875
 21
284.6880279714
  0
LINE
  5
3B9
100
AcDbEntity
  8
0
100
AcDbLine
 62
7
  6
CONTINUOUS
 10
374.5936705875
 20
285.0703975889
 11
375.3436705875
 21
285.0703975889
  0
LINE
  5
3BA
100
AcDbEntity
  8
0
100
AcDbLine
 62
7
  6
CONTINUOUS
 10
351.5936705875
 20
285.5357561941
 11
350.8436705875
 21
285.5357561941
  0
LINE
  5
3BB
100
AcDbEntity
  8
0
100
AcDbLine
 62
7
  6
CONTINUOUS
 10
374.5936705875
 20
287.1524298336
 11
375.3436705875
 21
287.1524298336
  0
LINE
  5
3BC
100
AcDbEntity
  8
0
100
AcDbLine
 62
7
  6
CONTINUOUS
 10
351.5936705875
 20
287.1617841714
 11
350.8436705875
 21
287.1617841714
  0
LINE
  5
3BD
100
AcDbEntity
  8
0
100
AcDbLine
 62
7
  6
CONTINUOUS
 10
351.5936705875
 20
287.6156309018
 11
350.8436705875
 21
287.6156309018
  0
LINE
  5
3BE
100
AcDbEntity
  8
0
100
AcDbLine
 62
7
  6
CONTINUOUS
 10
374.5936705875
 20
291.2792011522
 11
375.3436705875
 21
291.2792011522
  0
LINE
  5
3BF
100
AcDbEntity
  8
0
100
AcDbLine
 62
7
  6
CONTINUOUS
 10
377.0936705875
 20
244.951278543
 11
377.0936705875
 21
236.9516530254
  0
LINE
  5
3C0
100
AcDbEntity
  8
0
100
AcDbLine
 62
7
  6
CONTINUOUS
 10
378.6936705875
 20
259.3485559662
 11
378.6936705875
 21
259.0985559662
  0
LINE
  5
3C1
100
AcDbEntity
  8
0
100
AcDbLine
 62
7
  6
CONTINUOUS
 10
378.6936705875
 20
220.5985559662
 11
378.6936705875
 21
220.3485559662
  0
LINE
  5
3C2
100
AcDbEntity
  8
BEZUGSACHSEN
100
AcDbLine
 62
7
  6
CONTINUOUS
 10
379.6936705875
 20
266.3485559662
 11
379.6936705875
 21
266.8485559662
  0
LINE
  5
3C3
100
AcDbEntity
  8
BEZUGSACHSEN
100
AcDbLine
 62
7
  6
CONTINUOUS
 10
381.0936705875
 20
266.8485559662
 11
381.0936705875
 21
281.3485559662
  0
LINE
  5
3C4
100
AcDbEntity
  8
0
100
AcDbLine
 62
7
  6
CONTINUOUS
 10
374.5936705875
 20
292.0625874645
 11
375.3436705875
 21
292.0625874645
  0
LINE
  5
3C5
100
AcDbEntity
  8
0
100
AcDbLine
 62
7
  6
CONTINUOUS
 10
374.5936705875
 20
292.5213152454
 11
375.3436705875
 21
292.5213152454
  0
LINE
  5
3C6
100
AcDbEntity
  8
0
100
AcDbLine
 62
7
  6
CONTINUOUS
 10
374.5936705875
 20
292.7317367549
 11
375.3436705875
 21
292.7317367549
  0
LINE
  5
3C7
100
AcDbEntity
  8
0
100
AcDbLine
 62
7
  6
CONTINUOUS
 10
351.5936705875
 20
295.1810585136
 11
350.8436705875
 21
295.1810585136
  0
LINE
  5
3C8
100
AcDbEntity
  8
0
100
AcDbLine
 62
7
  6
CONTINUOUS
 10
392.0936705875
 20
266.3485559662
 11
392.0936705875
 21
259.3485559662
  0
LINE
  5
3C9
100
AcDbEntity
  8
0
100
AcDbLine
 62
7
  6
CONTINUOUS
 10
393.0936705875
 20
220.3485559662
 11
393.0936705875
 21
211.3485559662
  0
LINE
  5
3CA
100
AcDbEntity
  8
0
100
AcDbLine
 62
7
  6
CONTINUOUS
 10
394.5936705875
 20
220.5985559662
 11
394.5936705875
 21
257.0985559662
  0
LINE
  5
3CB
100
AcDbEntity
  8
BEZUGSACHSEN
100
AcDbLine
 62
7
  6
CONTINUOUS
 10
373.5936705875
 20
177.3485559662
 11
375.0936705875
 21
178.8485559662
  0
LINE
  5
3CC
100
AcDbEntity
  8
0
100
AcDbLine
 62
7
  6
CONTINUOUS
 10
358.0936705875
 20
388.8485559662
 11
368.0936705875
 21
388.8485559662
  0
LINE
  5
3CD
100
AcDbEntity
  8
BEZUGSACHSEN
100
AcDbLine
 62
7
  6
CONTINUOUS
 10
163.8439155635
 20
83.4278275531
 11
163.8439155635
 21
63.4278275531
  0
LINE
  5
3CE
100
AcDbEntity
  8
0
100
AcDbLine
 62
7
  6
CONTINUOUS
 10
168.0907780397
 20
78.4278275531
 11
168.0907780397
 21
68.4278275531
  0
LINE
  5
3CF
100
AcDbEntity
  8
0
100
AcDbLine
 62
7
  6
CONTINUOUS
 10
173.1665090098
 20
59.9278275531
 11
173.1665090098
 21
59.4278275531
  0
LINE
  5
3D0
100
AcDbEntity
  8
0
100
AcDbLine
 62
7
  6
CONTINUOUS
 10
177.5665090098
 20
59.9278275531
 11
177.5665090098
 21
59.4278275531
  0
LINE
  5
3D1
100
AcDbEntity
  8
0
100
AcDbLine
 62
7
  6
CONTINUOUS
 10
179.5334846127
 20
61.1663402883
 11
179.5334846127
 21
60.41428549
  0
LINE
  5
3D2
100
AcDbEntity
  8
0
100
AcDbLine
 62
7
  6
CONTINUOUS
 10
179.9665090098
 20
59.9278275531
 11
179.9665090098
 21
59.4278275531
  0
LINE
  5
3D3
100
AcDbEntity
  8
0
100
AcDbLine
 62
7
  6
CONTINUOUS
 10
180.1316081804
 20
61.2682358461
 11
180.1316081804
 21
60.5161810477
  0
LINE
  5
3D4
100
AcDbEntity
  8
0
100
AcDbLine
 62
7
  6
CONTINUOUS
 10
181.0666991733
 20
86.3688686516
 11
181.0666991733
 21
85.6168138532
  0
LINE
  5
3D5
100
AcDbEntity
  8
0
100
AcDbLine
 62
7
  6
CONTINUOUS
 10
182.7987294575
 20
85.2757392081
 11
182.7987294575
 21
86.0277940064
  0
LINE
  5
3D6
100
AcDbEntity
  8
0
100
AcDbLine
 62
7
  6
CONTINUOUS
 10
182.92400603
 20
61.708372899
 11
182.92400603
 21
60.9563181006
  0
LINE
  5
3D7
100
AcDbEntity
  8
0
100
AcDbLine
 62
7
  6
CONTINUOUS
 10
183.12222634
 20
61.7777136895
 11
183.12222634
 21
61.0256588911
  0
LINE
  5
3D8
100
AcDbEntity
  8
0
100
AcDbLine
 62
7
  6
CONTINUOUS
 10
183.4722522985
 20
85.1552926912
 11
183.4722522985
 21
85.9073474896
  0
LINE
  5
3D9
100
AcDbEntity
  8
0
100
AcDbLine
 62
7
  6
CONTINUOUS
 10
183.7951153938
 20
61.8923461988
 11
183.7951153938
 21
61.1402914004
  0
LINE
  5
3DA
100
AcDbEntity
  8
0
100
AcDbLine
 62
7
  6
CONTINUOUS
 10
184.0283984535
 20
86.092431899
 11
184.0283984535
 21
86.2066351803
  0
LINE
  5
3DB
100
AcDbEntity
  8
0
100
AcDbLine
 62
7
  6
CONTINUOUS
 10
184.1457751394
 20
85.0348461744
 11
184.1457751394
 21
85.7869009728
  0
LINE
  5
3DC
100
AcDbEntity
  8
0
100
AcDbLine
 62
7
  6
CONTINUOUS
 10
184.1568323703
 20
85.9283521081
 11
184.1568323703
 21
86.0694639802
  0
LINE
  5
3DD
100
AcDbEntity
  8
0
100
AcDbLine
 62
7
  6
CONTINUOUS
 10
184.1793330906
 20
60.9917228042
 11
184.1793330906
 21
60.8855961181
  0
LINE
  5
3DE
100
AcDbEntity
  8
0
100
AcDbLine
 62
7
  6
CONTINUOUS
 10
184.3445497307
 20
61.927017293
 11
184.3445497307
 21
61.1778275531
  0
LINE
  5
3DF
100
AcDbEntity
  8
0
100
AcDbLine
 62
7
  6
CONTINUOUS
 10
184.3665090098
 20
59.9278275531
 11
184.3665090098
 21
59.4278275531
  0
LINE
  5
3E0
100
AcDbEntity
  8
0
100
AcDbLine
 62
7
  6
CONTINUOUS
 10
184.5566245063
 20
61.0565877
 11
184.5566245063
 21
60.8431541921
  0
LINE
  5
3E1
100
AcDbEntity
  8
0
100
AcDbLine
 62
7
  6
CONTINUOUS
 10
184.6034821286
 20
60.4139944756
 11
184.6034821286
 21
60.1752642866
  0
LINE
  5
3E2
100
AcDbEntity
  8
0
100
AcDbLine
 62
7
  6
CONTINUOUS
 10
184.7019212945
 20
85.9450767915
 11
184.7019212945
 21
86.0861886635
  0
LINE
  5
3E3
100
AcDbEntity
  8
0
100
AcDbLine
 62
7
  6
CONTINUOUS
 10
184.9948261297
 20
61.9278275531
 11
184.9948261297
 21
61.1778275531
  0
LINE
  5
3E4
100
AcDbEntity
  8
0
100
AcDbLine
 62
7
  6
CONTINUOUS
 10
185.1842878227
 20
61.1383706679
 11
185.1842878227
 21
60.8077931644
  0
LINE
  5
3E5
100
AcDbEntity
  8
0
100
AcDbLine
 62
7
  6
CONTINUOUS
 10
185.4399550179
 20
61.9278275531
 11
185.4399550179
 21
61.1778275531
  0
LINE
  5
3E6
100
AcDbEntity
  8
0
100
AcDbLine
 62
7
  6
CONTINUOUS
 10
185.4430719752
 20
84.9278275531
 11
185.4430719752
 21
85.6778275531
  0
LINE
  5
3E7
100
AcDbEntity
  8
0
100
AcDbLine
 62
7
  6
CONTINUOUS
 10
186.1165948161
 20
84.9278275531
 11
186.1165948161
 21
85.6778275531
  0
LINE
  5
3E8
100
AcDbEntity
  8
RUNDUNGEN
100
AcDbLine
 62
7
  6
CONTINUOUS
 10
200.5948764004
 20
100.3824476114
 11
198.5341742662
 21
99.5113321665
  0
LINE
  5
3E9
100
AcDbEntity
  8
0
100
AcDbLine
 62
7
  6
CONTINUOUS
 10
187.0393707423
 20
60.3924413773
 11
187.0393707423
 21
60.0210833165
  0
LINE
  5
3EA
100
AcDbEntity
  8
0
100
AcDbLine
 62
7
  6
CONTINUOUS
 10
187.2343262559
 20
61.9278275531
 11
187.2343262559
 21
61.1778275531
  0
LINE
  5
3EB
100
AcDbEntity
  8
0
100
AcDbLine
 62
7
  6
CONTINUOUS
 10
187.583344126
 20
84.9278275531
 11
187.583344126
 21
85.6778275531
  0
LINE
  5
3EC
100
AcDbEntity
  8
0
100
AcDbLine
 62
7
  6
CONTINUOUS
 10
187.7837601649
 20
61.9278275531
 11
187.7837601649
 21
61.1778275531
  0
LINE
  5
3ED
100
AcDbEntity
  8
0
100
AcDbLine
 62
7
  6
CONTINUOUS
 10
187.818396479
 20
61.1778275531
 11
187.818396479
 21
60.7229529391
  0
LINE
  5
3EE
100
AcDbEntity
  8
0
100
AcDbLine
 62
7
  6
CONTINUOUS
 10
188.5955909814
 20
61.1778275531
 11
188.5955909814
 21
60.713065851
  0
LINE
  5
3EF
100
AcDbEntity
  8
0
100
AcDbLine
 62
7
  6
CONTINUOUS
 10
188.6096442191
 20
61.9278275531
 11
188.6096442191
 21
61.1778275531
  0
LINE
  5
3F0
100
AcDbEntity
  8
0
100
AcDbLine
 62
7
  6
CONTINUOUS
 10
189.2719434217
 20
61.1778275531
 11
189.2719434217
 21
60.7215716742
  0
LINE
  5
3F1
100
AcDbEntity
  8
0
100
AcDbLine
 62
7
  6
CONTINUOUS
 10
189.438287009
 20
84.9278275531
 11
189.438287009
 21
85.6778275531
  0
LINE
  5
3F2
100
AcDbEntity
  8
0
100
AcDbLine
 62
7
  6
CONTINUOUS
 10
189.5363694798
 20
61.9278275531
 11
189.5363694798
 21
61.1778275531
  0
LINE
  5
3F3
100
AcDbEntity
  8
0
100
AcDbLine
 62
7
  6
CONTINUOUS
 10
189.5813959854
 20
60.6453437834
 11
189.5813959854
 21
60.4541394506
  0
LINE
  5
3F4
100
AcDbEntity
  8
0
100
AcDbLine
 62
7
  6
CONTINUOUS
 10
189.8474543507
 20
61.1778275531
 11
189.8474543507
 21
60.7484704777
  0
LINE
  5
3F5
100
AcDbEntity
  8
0
100
AcDbLine
 62
7
  6
CONTINUOUS
 10
190.137956327
 20
61.9278275531
 11
190.137956327
 21
61.1778275531
  0
LINE
  5
3F6
100
AcDbEntity
  8
0
100
AcDbLine
 62
7
  6
CONTINUOUS
 10
190.3221235223
 20
61.1778275531
 11
190.3221235223
 21
60.7937622694
  0
LINE
  5
3F7
100
AcDbEntity
  8
0
100
AcDbLine
 62
7
  6
CONTINUOUS
 10
190.5394925498
 20
61.1778275531
 11
190.5394925498
 21
61.0442264091
  0
LINE
  5
3F8
100
AcDbEntity
  8
0
100
AcDbLine
 62
7
  6
CONTINUOUS
 10
190.7902874137
 20
86.0580599672
 11
190.7902874137
 21
86.2729948723
  0
LINE
  5
3F9
100
AcDbEntity
  8
0
100
AcDbLine
 62
7
  6
CONTINUOUS
 10
190.7963899218
 20
84.9278275531
 11
190.7963899218
 21
85.6778275531
  0
LINE
  5
3FA
100
AcDbEntity
  8
0
100
AcDbLine
 62
7
  6
CONTINUOUS
 10
190.8403857284
 20
61.9278275531
 11
190.8403857284
 21
61.1778275531
  0
LINE
  5
3FB
100
AcDbEntity
  8
0
100
AcDbLine
 62
7
  6
CONTINUOUS
 10
190.9880852524
 20
61.1778275531
 11
190.9880852524
 21
61.120648082
  0
LINE
  5
3FC
100
AcDbEntity
  8
0
100
AcDbLine
 62
7
  6
CONTINUOUS
 10
190.9950125762
 20
61.0145213959
 11
190.9950125762
 21
60.9083947787
  0
LINE
  5
3FD
100
AcDbEntity
  8
0
100
AcDbLine
 62
7
  6
CONTINUOUS
 10
182.92400603
 20
60.9563181006
 11
182.9761589682
 21
60.8940583383
  0
LINE
  5
3FE
100
AcDbEntity
  8
0
100
AcDbLine
 62
7
  6
CONTINUOUS
 10
191.2924422452
 20
61.9278275531
 11
191.2924422452
 21
61.1778275531
  0
LINE
  5
3FF
100
AcDbEntity
  8
0
100
AcDbLine
 62
7
  6
CONTINUOUS
 10
191.341478846
 20
84.9278275531
 11
191.341478846
 21
85.6778275531
  0
LINE
  5
400
100
AcDbEntity
  8
0
100
AcDbLine
 62
7
  6
CONTINUOUS
 10
191.7705748034
 20
61.9278275531
 11
191.7705748034
 21
61.1778275531
  0
LINE
  5
401
100
AcDbEntity
  8
0
100
AcDbLine
 62
7
  6
CONTINUOUS
 10
191.7913559191
 20
61.1778275531
 11
191.7913559191
 21
61.0796310358
  0
LINE
  5
402
100
AcDbEntity
  8
0
100
AcDbLine
 62
7
  6
CONTINUOUS
 10
191.9983341133
 20
61.9278275531
 11
191.9983341133
 21
61.1778275531
  0
LINE
  5
403
100
AcDbEntity
  8
0
100
AcDbLine
 62
7
  6
CONTINUOUS
 10
192.1947233735
 20
61.1778275531
 11
192.1947233735
 21
61.0060592425
  0
LINE
  5
404
100
AcDbEntity
  8
0
100
AcDbLine
 62
7
  6
CONTINUOUS
 10
192.24687593
 20
61.1778275531
 11
192.24687593
 21
60.9437994059
  0
LINE
  5
405
100
AcDbEntity
  8
RUNDUNGEN
100
AcDbLine
 62
7
  6
CONTINUOUS
 10
192.5907780397
 20
56.4845617672
 11
192.5907780397
 21
61.089007038
  0
LINE
  5
406
100
AcDbEntity
  8
RUNDUNGEN
100
AcDbLine
 62
7
  6
CONTINUOUS
 10
192.5907780397
 20
85.945332602
 11
192.5907780397
 21
90.371093339
  0
LINE
  5
407
100
AcDbEntity
  8
0
100
AcDbLine
 62
7
  6
CONTINUOUS
 10
193.0489777287
 20
85.6778275531
 11
193.0489777287
 21
85.8181405155
  0
LINE
  5
408
100
AcDbEntity
  8
0
100
AcDbLine
 62
7
  6
CONTINUOUS
 10
194.1420888177
 20
61.9278275531
 11
194.1420888177
 21
61.1778275531
  0
LINE
  5
409
100
AcDbEntity
  8
0
100
AcDbLine
 62
7
  6
CONTINUOUS
 10
200.6863275581
 20
90.534606437
 11
196.6110061879
 21
85.6778275531
  0
LINE
  5
40A
100
AcDbEntity
  8
0
100
AcDbLine
 62
7
  6
CONTINUOUS
 10
192.24687593
 20
60.9437994059
 11
192.1947233735
 21
61.0060592425
  0
LINE
  5
40B
100
AcDbEntity
  8
0
100
AcDbLine
 62
7
  6
CONTINUOUS
 10
197.4298449653
 20
84.9278275531
 11
197.4298449653
 21
85.6778275531
  0
LINE
  5
40C
100
AcDbEntity
  8
BEZUGSACHSEN
100
AcDbLine
 62
7
  6
CONTINUOUS
 10
213.6984731943
 20
91.4278275531
 11
209.9456964446
 21
84.9278275531
  0
LINE
  5
40D
100
AcDbEntity
  8
KONSTRUKTIONSELEMENTE
100
AcDbLine
 62
7
  6
CONTINUOUS
 10
224.3876722496
 20
88.9529373646
 11
224.0880340295
 21
88.8207682174
  0
LINE
  5
40E
100
AcDbEntity
  8
0
100
AcDbLine
 62
7
  6
CONTINUOUS
 10
184.1793330906
 20
60.8855961181
 11
184.0524149871
 21
60.9351189835
  0
LINE
  5
40F
100
AcDbEntity
  8
0
100
AcDbLine
 62
7
  6
CONTINUOUS
 10
190.9915486389
 20
61.0145213959
 11
191.1184668653
 21
60.9649985265
  0
LINE
  5
410
100
AcDbEntity
  8
KONSTRUKTIONSELEMENTE
100
AcDbLine
 62
7
  6
CONTINUOUS
 10
224.0880340295
 20
88.8207682174
 11
223.7799578206
 21
88.5399021372
  0
LINE
  5
411
100
AcDbEntity
  8
KONSTRUKTIONSELEMENTE
100
AcDbLine
 62
7
  6
CONTINUOUS
 10
225.6305460424
 20
87.6889879816
 11
223.4866637227
 21
85.9459709945
  0
LINE
  5
412
100
AcDbEntity
  8
KONSTRUKTIONSELEMENTE
100
AcDbLine
 62
7
  6
CONTINUOUS
 10
224.2125350078
 20
88.4407622287
 11
224.4393731701
 21
88.5770633224
  0
LINE
  5
413
100
AcDbEntity
  8
KONSTRUKTIONSELEMENTE
100
AcDbLine
 62
7
  6
CONTINUOUS
 10
229.479000956
 20
88.0615425018
 11
227.166443894
 21
86.7359309166
  0
LINE
  5
414
100
AcDbEntity
  8
KONSTRUKTIONSELEMENTE
100
AcDbLine
 62
7
  6
CONTINUOUS
 10
227.6486370376
 20
86.568557651
 11
229.2836469547
 21
87.4987384024
  0
LINE
  5
415
100
AcDbEntity
  8
0
100
AcDbLine
 62
7
  6
CONTINUOUS
 10
267.4673165236
 20
60.5094926662
 11
267.8706839165
 21
60.5830644574
  0
LINE
  5
416
100
AcDbEntity
  8
0
100
AcDbLine
 62
7
  6
CONTINUOUS
 10
259.7283755917
 20
60.6540047185
 11
259.9300594111
 21
60.6907906181
  0
LINE
  5
417
100
AcDbEntity
  8
0
100
AcDbLine
 62
7
  6
CONTINUOUS
 10
182.9761589682
 20
60.8940583383
 11
183.3795259333
 21
60.8204864742
  0
LINE
  5
418
100
AcDbEntity
  8
BEZUGSACHSEN
100
AcDbLine
 62
7
  6
CONTINUOUS
 10
209.9456964446
 20
61.9278275531
 11
213.6984731943
 21
55.4278275531
  0
LINE
  5
419
100
AcDbEntity
  8
KONSTRUKTIONSELEMENTE
100
AcDbLine
 62
7
  6
CONTINUOUS
 10
224.0542754097
 20
88.225980864
 11
224.2125350078
 21
88.4407622287
  0
LINE
  5
41A
100
AcDbEntity
  8
KONSTRUKTIONSELEMENTE
100
AcDbLine
 62
7
  6
CONTINUOUS
 10
225.9818835168
 20
87.4452831811
 11
226.140143115
 21
87.6600645458
  0
LINE
  5
41B
100
AcDbEntity
  8
KONSTRUKTIONSELEMENTE
100
AcDbLine
 62
7
  6
CONTINUOUS
 10
224.0690608531
 20
85.9129156124
 11
225.9818835168
 21
87.4452831811
  0
LINE
  5
41C
100
AcDbEntity
  8
0
100
AcDbLine
 62
7
  6
CONTINUOUS
 10
184.0524149871
 20
60.9351189835
 11
184.1758697041
 21
60.9917228042
  0
LINE
  5
41D
100
AcDbEntity
  8
0
100
AcDbLine
 62
7
  6
CONTINUOUS
 10
266.8431170215
 20
60.5802582517
 11
266.4658260977
 21
60.5378163415
  0
LINE
  5
41E
100
AcDbEntity
  8
0
100
AcDbLine
 62
7
  6
CONTINUOUS
 10
263.8543302781
 20
60.3779793034
 11
264.2316207741
 21
60.4204212864
  0
LINE
  5
41F
100
AcDbEntity
  8
0
100
AcDbLine
 62
7
  6
CONTINUOUS
 10
259.3806249512
 20
60.7488193027
 11
259.0033340274
 21
60.7063773926
  0
LINE
  5
420
100
AcDbEntity
  8
0
100
AcDbLine
 62
7
  6
CONTINUOUS
 10
263.193662495
 20
60.0992351562
 11
262.6407647102
 21
60.0511371568
  0
LINE
  5
421
100
AcDbEntity
  8
0
100
AcDbLine
 62
7
  6
CONTINUOUS
 10
263.4057371477
 20
60.4544010492
 11
262.8528391784
 21
60.4063030438
  0
LINE
  5
422
100
AcDbEntity
  8
0
100
AcDbLine
 62
7
  6
CONTINUOUS
 10
259.9300594111
 20
60.6907906181
 11
260.2065082728
 21
60.7148396168
  0
LINE
  5
423
100
AcDbEntity
  8
0
100
AcDbLine
 62
7
  6
CONTINUOUS
 10
262.9606082595
 20
61.1677329495
 11
262.8528391784
 21
61.1583578421
  0
LINE
  5
424
100
AcDbEntity
  8
0
100
AcDbLine
 62
7
  6
CONTINUOUS
 10
259.0432648393
 20
61.1620139571
 11
259.1066299405
 21
61.1666894574
  0
LINE
  5
425
100
AcDbEntity
  8
0
100
AcDbLine
 62
7
  6
CONTINUOUS
 10
263.4666479702
 20
60.0171574689
 11
263.9187046101
 21
60.0468624132
  0
LINE
  5
426
100
AcDbEntity
  8
0
100
AcDbLine
 62
7
  6
CONTINUOUS
 10
259.8326811633
 20
60.7785243199
 11
259.3806249512
 21
60.7488193027
  0
LINE
  5
427
100
AcDbEntity
  8
0
100
AcDbLine
 62
7
  6
CONTINUOUS
 10
266.839653635
 20
60.4741315656
 11
267.4673165236
 21
60.5094926662
  0
LINE
  5
428
100
AcDbEntity
  8
0
100
AcDbLine
 62
7
  6
CONTINUOUS
 10
263.2266662879
 20
60.3426183407
 11
263.8543302781
 21
60.3779793034
  0
LINE
  5
429
100
AcDbEntity
  8
0
100
AcDbLine
 62
7
  6
CONTINUOUS
 10
267.9020551882
 20
60.0085642331
 11
268.6044840976
 21
60.031188291
  0
LINE
  5
42A
100
AcDbEntity
  8
0
100
AcDbLine
 62
7
  6
CONTINUOUS
 10
263.9187046101
 20
60.0468624132
 11
267.0796349484
 21
60.1486706819
  0
LINE
  5
42B
100
AcDbEntity
  8
0
100
AcDbLine
 62
7
  6
CONTINUOUS
 10
267.7820638578
 20
60.1712947398
 11
269.1869221686
 21
60.2165428716
  0
LINE
  5
42C
100
AcDbEntity
  8
0
100
AcDbLine
 62
7
  6
CONTINUOUS
 10
268.8130946312
 20
60.2802276476
 11
267.4082363205
 21
60.2349795158
  0
LINE
  5
42D
100
AcDbEntity
  8
0
100
AcDbLine
 62
7
  6
CONTINUOUS
 10
266.705807411
 20
60.2123554579
 11
263.193662495
 21
60.0992351562
  0
LINE
  5
42E
100
AcDbEntity
  8
0
100
AcDbLine
 62
7
  6
CONTINUOUS
 10
266.8101132875
 20
60.3368749825
 11
266.1076843781
 21
60.3142509245
  0
LINE
  5
42F
100
AcDbEntity
  8
0
100
AcDbLine
 62
7
  6
CONTINUOUS
 10
262.5242373785
 20
60.3199942827
 11
263.2266662879
 21
60.3426183407
  0
LINE
  5
430
100
AcDbEntity
  8
0
100
AcDbLine
 62
7
  6
CONTINUOUS
 10
266.4884386884
 20
60.4628195207
 11
266.839653635
 21
60.4741315656
  0
LINE
  5
431
100
AcDbEntity
  8
0
100
AcDbLine
 62
7
  6
CONTINUOUS
 10
262.8528391784
 20
60.4063030438
 11
262.150410269
 21
60.3836789858
  0
LINE
  5
432
100
AcDbEntity
  8
0
100
AcDbLine
 62
7
  6
CONTINUOUS
 10
266.4658260977
 20
60.5378163415
 11
266.1146111511
 21
60.5265042967
  0
LINE
  5
433
100
AcDbEntity
  8
BEZUGSACHSEN
100
AcDbLine
 62
7
  6
CONTINUOUS
 10
213.6984731943
 20
55.4278275531
 11
234.4830828851
 21
55.4278275531
  0
LINE
  5
434
100
AcDbEntity
  8
0
100
AcDbLine
 62
7
  6
CONTINUOUS
 10
183.9324240845
 20
60.7723885496
 11
184.7356951202
 21
60.7313714915
  0
LINE
  5
435
100
AcDbEntity
  8
0
100
AcDbLine
 62
7
  6
CONTINUOUS
 10
185.1842878227
 20
60.8077931644
 11
184.5566245063
 21
60.8431541921
  0
LINE
  5
436
100
AcDbEntity
  8
0
100
AcDbLine
 62
7
  6
CONTINUOUS
 10
184.6034821286
 20
60.1752642866
 11
180.5349752525
 21
60.4426092018
  0
LINE
  5
437
100
AcDbEntity
  8
0
100
AcDbLine
 62
7
  6
CONTINUOUS
 10
187.0393707423
 20
60.0210833165
 11
185.2311455519
 21
60.1399032771
  0
LINE
  5
438
100
AcDbEntity
  8
0
100
AcDbLine
 62
7
  6
CONTINUOUS
 10
190.5394925498
 20
61.0442264091
 11
190.9915486389
 21
61.0145213959
  0
LINE
  5
439
100
AcDbEntity
  8
0
100
AcDbLine
 62
7
  6
CONTINUOUS
 10
179.5334846127
 20
60.41428549
 11
186.5907780397
 21
59.9446616436
  0
LINE
  5
43A
100
AcDbEntity
  8
0
100
AcDbLine
 62
7
  6
CONTINUOUS
 10
183.3795259333
 20
60.8204864742
 11
183.9324240845
 21
60.7723885496
  0
LINE
  5
43B
100
AcDbEntity
  8
0
100
AcDbLine
 62
7
  6
CONTINUOUS
 10
184.5566245063
 20
60.8431541921
 11
184.1793330906
 21
60.8855961181
  0
LINE
  5
43C
100
AcDbEntity
  8
0
100
AcDbLine
 62
7
  6
CONTINUOUS
 10
192.1947233735
 20
61.0060592425
 11
191.7913559191
 21
61.0796310358
  0
LINE
  5
43D
100
AcDbEntity
  8
KONSTRUKTIONSELEMENTE
100
AcDbLine
 62
7
  6
CONTINUOUS
 10
221.3727564401
 20
88.8194531097
 11
221.069724206
 21
85.5199508907
  0
LINE
  5
43E
100
AcDbEntity
  8
KONSTRUKTIONSELEMENTE
100
AcDbLine
 62
7
  6
CONTINUOUS
 10
221.4429440896
 20
85.2294098683
 11
221.7654837132
 21
88.1500008789
  0
LINE
  5
43F
100
AcDbEntity
  8
KONSTRUKTIONSELEMENTE
100
AcDbLine
 62
7
  6
CONTINUOUS
 10
223.7799578206
 20
88.5399021372
 11
223.6902784529
 21
88.246640407
  0
LINE
  5
440
100
AcDbEntity
  8
KONSTRUKTIONSELEMENTE
100
AcDbLine
 62
7
  6
CONTINUOUS
 10
225.7930238018
 20
87.97811786
 11
225.6305460424
 21
87.6889879816
  0
LINE
  5
441
100
AcDbEntity
  8
0
100
AcDbLine
 62
7
  6
CONTINUOUS
 10
191.1184668653
 20
60.9649985265
 11
190.9950125762
 21
60.9083947787
  0
LINE
  5
442
100
AcDbEntity
  8
0
100
AcDbLine
 62
7
  6
CONTINUOUS
 10
183.12222634
 20
61.7777136895
 11
182.92400603
 21
61.708372899
  0
LINE
  5
443
100
AcDbEntity
  8
0
100
AcDbLine
 62
7
  6
CONTINUOUS
 10
183.12222634
 20
61.0256588911
 11
182.92400603
 21
60.9563181006
  0
LINE
  5
444
100
AcDbEntity
  8
RUNDUNGEN
100
AcDbLine
 62
7
  6
CONTINUOUS
 10
258.4489064963
 20
86.3258983862
 11
258.4474683494
 21
86.3254719596
  0
LWPOLYLINE
  5
445
100
AcDbEntity
  8
RUNDUNGEN
100
AcDbPolyline
 62
7
  6
CONTINUOUS
 90
5
 70
0
 10
258.4474720305
 20
86.3254730505
 10
258.3368592829
 20
86.2939436792
 10
258.134821143
 20
86.241345308
 10
257.8776542562
 20
86.1808906115
 10
257.5634133064
 20
86.1139737406
  0
LINE
  5
446
100
AcDbEntity
  8
0
100
AcDbLine
 62
7
  6
CONTINUOUS
 10
190.3221235223
 20
60.7937622694
 11
189.8474543507
 21
60.7484704777
  0
LINE
  5
447
100
AcDbEntity
  8
RUNDUNGEN
100
AcDbLine
 62
7
  6
CONTINUOUS
 10
198.1005763276
 20
61.8975582329
 11
198.1004539342
 21
61.8975480428
  0
LINE
  5
448
100
AcDbEntity
  8
0
100
AcDbLine
 62
7
  6
CONTINUOUS
 10
190.1760562121
 20
60.6621617146
 11
190.8263322294
 21
60.7017974175
  0
LINE
  5
449
100
AcDbEntity
  8
0
100
AcDbLine
 62
7
  6
CONTINUOUS
 10
189.8474543507
 20
60.7484704777
 11
189.2719434217
 21
60.7215716742
  0
LINE
  5
44A
100
AcDbEntity
  8
0
100
AcDbLine
 62
7
  6
CONTINUOUS
 10
185.3234275017
 20
61.1516470323
 11
185.8835702758
 21
61.1778275531
  0
LINE
  5
44B
100
AcDbEntity
  8
0
100
AcDbLine
 62
7
  6
CONTINUOUS
 10
263.6630371689
 20
60.6595733932
 11
262.9606082595
 21
60.6369493353
  0
LINE
  5
44C
100
AcDbEntity
  8
0
100
AcDbLine
 62
7
  6
CONTINUOUS
 10
268.8130946312
 20
61.0322824459
 11
267.9228364269
 21
61.0036087212
  0
LINE
  5
44D
100
AcDbEntity
  8
0
100
AcDbLine
 62
7
  6
CONTINUOUS
 10
262.8528391784
 20
61.1583578421
 11
262.150410269
 21
61.1357337842
  0
LINE
  5
44E
100
AcDbEntity
  8
0
100
AcDbLine
 62
7
  6
CONTINUOUS
 10
258.1652284565
 20
61.1337338768
 11
259.0432648393
 21
61.1620139571
  0
LINE
  5
44F
100
AcDbEntity
  8
0
100
AcDbLine
 62
7
  6
CONTINUOUS
 10
263.6630371689
 20
61.4116281916
 11
263.1378476711
 21
61.394712718
  0
LINE
  5
450
100
AcDbEntity
  8
0
100
AcDbLine
 62
7
  6
CONTINUOUS
 10
189.1745652969
 20
60.6338379684
 11
190.1760562121
 21
60.6621617146
  0
LINE
  5
451
100
AcDbEntity
  8
RUNDUNGEN
100
AcDbLine
 62
7
  6
CONTINUOUS
 10
187.0393707423
 20
60.3718056901
 11
187.3412856325
 21
60.376546129
  0
LINE
  5
452
100
AcDbEntity
  8
0
100
AcDbLine
 62
7
  6
CONTINUOUS
 10
265.7112437581
 20
60.4529325054
 11
266.4884386884
 21
60.4628195207
  0
LINE
  5
453
100
AcDbEntity
  8
0
100
AcDbLine
 62
7
  6
CONTINUOUS
 10
265.0748222527
 20
60.9170748972
 11
264.297628178
 21
60.9071877361
  0
LINE
  5
454
100
AcDbEntity
  8
0
100
AcDbLine
 62
7
  6
CONTINUOUS
 10
265.0748222527
 20
61.6691296955
 11
264.297628178
 21
61.6592425345
  0
LINE
  5
455
100
AcDbEntity
  8
0
100
AcDbLine
 62
7
  6
CONTINUOUS
 10
189.2719434217
 20
60.7215716742
 11
188.5955909814
 21
60.713065851
  0
LINE
  5
456
100
AcDbEntity
  8
0
100
AcDbLine
 62
7
  6
CONTINUOUS
 10
261.9226504083
 20
60.3157631322
 11
262.5242373785
 21
60.3199942827
  0
LINE
  5
457
100
AcDbEntity
  8
RUNDUNGEN
100
AcDbLine
 62
7
  6
CONTINUOUS
 10
187.3412856325
 20
60.376546129
 11
187.7782359699
 21
60.380314565
  0
LINE
  5
458
100
AcDbEntity
  8
0
100
AcDbLine
 62
7
  6
CONTINUOUS
 10
188.3226055062
 20
60.6309881636
 11
189.1745652969
 21
60.6338379684
  0
LINE
  5
459
100
AcDbEntity
  8
0
100
AcDbLine
 62
7
  6
CONTINUOUS
 10
257.1376612246
 20
61.1309277035
 11
258.1652284565
 21
61.1337338768
  0
LINE
  5
45A
100
AcDbEntity
  8
0
100
AcDbLine
 62
7
  6
CONTINUOUS
 10
184.3665090098
 20
59.4278275531
 11
179.9665090098
 21
59.4278275531
  0
LINE
  5
45B
100
AcDbEntity
  8
0
100
AcDbLine
 62
7
  6
CONTINUOUS
 10
177.5665090098
 20
59.4278275531
 11
173.1665090098
 21
59.4278275531
  0
LINE
  5
45C
100
AcDbEntity
  8
RUNDUNGEN
100
AcDbLine
 62
7
  6
CONTINUOUS
 10
280.8376398418
 20
59.9278275531
 11
263.5379501153
 21
59.9278275531
  0
LINE
  5
45D
100
AcDbEntity
  8
RUNDUNGEN
100
AcDbLine
 62
7
  6
CONTINUOUS
 10
167.3439158636
 20
59.9278275531
 11
188.3907732895
 21
59.9278275531
  0
LINE
  5
45E
100
AcDbEntity
  8
RUNDUNGEN
100
AcDbLine
 62
7
  6
CONTINUOUS
 10
259.7907782415
 20
59.9278275531
 11
262.6620474277
 21
59.9278275531
  0
LINE
  5
45F
100
AcDbEntity
  8
0
100
AcDbLine
 62
7
  6
CONTINUOUS
 10
262.6620474277
 20
59.9278275531
 11
263.5379501153
 21
59.9278275531
  0
LINE
  5
460
100
AcDbEntity
  8
RUNDUNGEN
100
AcDbLine
 62
7
  6
CONTINUOUS
 10
188.6793220087
 20
60.3809072173
 11
187.7782359699
 21
60.380314565
  0
LINE
  5
461
100
AcDbEntity
  8
0
100
AcDbLine
 62
7
  6
CONTINUOUS
 10
263.1378476711
 20
61.1778275531
 11
254.1888052549
 21
61.1778275531
  0
LINE
  5
462
100
AcDbEntity
  8
0
100
AcDbLine
 62
7
  6
CONTINUOUS
 10
194.1420888177
 20
61.1778275531
 11
184.1505197923
 21
61.1778275531
  0
LINE
  5
463
100
AcDbEntity
  8
RUNDUNGEN
100
AcDbLine
 62
7
  6
CONTINUOUS
 10
175.022977702
 20
61.9278275531
 11
273.1572524671
 21
61.9278275531
  0
LINE
  5
464
100
AcDbEntity
  8
RUNDUNGEN
100
AcDbLine
 62
7
  6
CONTINUOUS
 10
275.5907344155
 20
63.9278275531
 11
172.590821663
 21
63.9278275531
  0
LINE
  5
465
100
AcDbEntity
  8
RUNDUNGEN
100
AcDbLine
 62
7
  6
CONTINUOUS
 10
259.4743104699
 20
60.3809072173
 11
260.1839948885
 21
60.3808388608
  0
LINE
  5
466
100
AcDbEntity
  8
0
100
AcDbLine
 62
7
  6
CONTINUOUS
 10
262.150410269
 20
60.3836789858
 11
261.7244302213
 21
60.3851039266
  0
LINE
  5
467
100
AcDbEntity
  8
0
100
AcDbLine
 62
7
  6
CONTINUOUS
 10
266.1146111511
 20
60.5265042967
 11
265.2626514834
 21
60.5293541054
  0
LINE
  5
468
100
AcDbEntity
  8
0
100
AcDbLine
 62
7
  6
CONTINUOUS
 10
262.150410269
 20
61.1357337842
 11
261.7244302213
 21
61.137158725
  0
LINE
  5
469
100
AcDbEntity
  8
0
100
AcDbLine
 62
7
  6
CONTINUOUS
 10
255.800641766
 20
60.8606892741
 11
258.1809142154
 21
60.8464837685
  0
LINE
  5
46A
100
AcDbEntity
  8
0
100
AcDbLine
 62
7
  6
CONTINUOUS
 10
257.8070866781
 20
60.9101685445
 11
255.4268144426
 21
60.9243740137
  0
LINE
  5
46B
100
AcDbEntity
  8
0
100
AcDbLine
 62
7
  6
CONTINUOUS
 10
189.5813959854
 20
60.4541394506
 11
180.1316081804
 21
60.5161810477
  0
LINE
  5
46C
100
AcDbEntity
  8
0
100
AcDbLine
 62
7
  6
CONTINUOUS
 10
182.92400603
 20
61.249902649
 11
180.1316081804
 21
61.2682358461
  0
LINE
  5
46D
100
AcDbEntity
  8
0
100
AcDbLine
 62
7
  6
CONTINUOUS
 10
186.7264545782
 20
60.3946421897
 11
189.1328032828
 21
60.3777177777
  0
LINE
  5
46E
100
AcDbEntity
  8
0
100
AcDbLine
 62
7
  6
CONTINUOUS
 10
180.5349752525
 20
60.4426092018
 11
185.9492602897
 21
60.4045293144
  0
LINE
  5
46F
100
AcDbEntity
  8
0
100
AcDbLine
 62
7
  6
CONTINUOUS
 10
261.2462975401
 20
60.3242690283
 11
261.9226504083
 21
60.3157631322
  0
LINE
  5
470
100
AcDbEntity
  8
0
100
AcDbLine
 62
7
  6
CONTINUOUS
 10
265.0348913178
 20
60.4614383286
 11
265.7112437581
 21
60.4529325054
  0
LINE
  5
471
100
AcDbEntity
  8
0
100
AcDbLine
 62
7
  6
CONTINUOUS
 10
264.6714552875
 20
60.843503033
 11
265.3478077278
 21
60.8349972098
  0
LINE
  5
472
100
AcDbEntity
  8
0
100
AcDbLine
 62
7
  6
CONTINUOUS
 10
188.5955909814
 20
60.713065851
 11
187.818396479
 21
60.7229529391
  0
LINE
  5
473
100
AcDbEntity
  8
0
100
AcDbLine
 62
7
  6
CONTINUOUS
 10
187.3698037764
 20
60.6465312663
 11
188.3226055062
 21
60.6309881636
  0
LINE
  5
474
100
AcDbEntity
  8
0
100
AcDbLine
 62
7
  6
CONTINUOUS
 10
256.2109359025
 20
61.14651448
 11
257.1376612246
 21
61.1309277035
  0
LINE
  5
475
100
AcDbEntity
  8
0
100
AcDbLine
 62
7
  6
CONTINUOUS
 10
261.7244302213
 20
60.3851039266
 11
261.2236848853
 21
60.3992657603
  0
LINE
  5
476
100
AcDbEntity
  8
0
100
AcDbLine
 62
7
  6
CONTINUOUS
 10
265.2626514834
 20
60.5293541054
 11
264.7619058426
 21
60.543516016
  0
LINE
  5
477
100
AcDbEntity
  8
0
100
AcDbLine
 62
7
  6
CONTINUOUS
 10
266.0763131064
 20
60.8887511489
 11
265.0748222527
 21
60.9170748972
  0
LINE
  5
478
100
AcDbEntity
  8
0
100
AcDbLine
 62
7
  6
CONTINUOUS
 10
261.7244302213
 20
61.137158725
 11
261.2236848853
 21
61.1513205587
  0
LINE
  5
479
100
AcDbEntity
  8
0
100
AcDbLine
 62
7
  6
CONTINUOUS
 10
266.0763131064
 20
61.6408059473
 11
265.0748222527
 21
61.6691296955
  0
LINE
  5
47A
100
AcDbEntity
  8
0
100
AcDbLine
 62
7
  6
CONTINUOUS
 10
184.7356951202
 20
60.7313714915
 11
187.3698037764
 21
60.6465312663
  0
LINE
  5
47B
100
AcDbEntity
  8
0
100
AcDbLine
 62
7
  6
CONTINUOUS
 10
187.818396479
 20
60.7229529391
 11
185.1842878227
 21
60.8077931644
  0
LINE
  5
47C
100
AcDbEntity
  8
0
100
AcDbLine
 62
7
  6
CONTINUOUS
 10
193.6934956874
 20
61.1546714397
 11
192.974547587
 21
61.1778275531
  0
LINE
  5
47D
100
AcDbEntity
  8
0
100
AcDbLine
 62
7
  6
CONTINUOUS
 10
264.2090081193
 20
60.4954180185
 11
265.0348913178
 21
60.4614383286
  0
LINE
  5
47E
100
AcDbEntity
  8
0
100
AcDbLine
 62
7
  6
CONTINUOUS
 10
260.6707866727
 20
60.3511678337
 11
261.2462975401
 21
60.3242690283
  0
LINE
  5
47F
100
AcDbEntity
  8
0
100
AcDbLine
 62
7
  6
CONTINUOUS
 10
265.3478077278
 20
60.8349972098
 11
265.9233185338
 21
60.8080984023
  0
LINE
  5
480
100
AcDbEntity
  8
0
100
AcDbLine
 62
7
  6
CONTINUOUS
 10
191.7913559191
 20
61.0796310358
 11
190.9880852524
 21
61.120648082
  0
LINE
  5
481
100
AcDbEntity
  8
0
100
AcDbLine
 62
7
  6
CONTINUOUS
 10
255.7133687383
 20
61.1723232904
 11
256.2109359025
 21
61.14651448
  0
LINE
  5
482
100
AcDbEntity
  8
0
100
AcDbLine
 62
7
  6
CONTINUOUS
 10
260.0205102275
 20
60.3908036095
 11
260.6707866727
 21
60.3511678337
  0
LINE
  5
483
100
AcDbEntity
  8
0
100
AcDbLine
 62
7
  6
CONTINUOUS
 10
261.2236848853
 20
60.3992657603
 11
260.8985464719
 21
60.4190836854
  0
LINE
  5
484
100
AcDbEntity
  8
0
100
AcDbLine
 62
7
  6
CONTINUOUS
 10
261.2236848853
 20
61.1513205587
 11
260.8985464719
 21
61.1711384838
  0
LINE
  5
485
100
AcDbEntity
  8
0
100
AcDbLine
 62
7
  6
CONTINUOUS
 10
266.7265895054
 20
60.8491153717
 11
266.0763131064
 21
60.8887511489
  0
LINE
  5
486
100
AcDbEntity
  8
0
100
AcDbLine
 62
7
  6
CONTINUOUS
 10
264.7619058426
 20
60.543516016
 11
263.9620986854
 21
60.6086256599
  0
LINE
  5
487
100
AcDbEntity
  8
RUNDUNGEN
100
AcDbLine
 62
7
  6
CONTINUOUS
 10
250.0809811054
 20
61.8975581195
 11
250.0810902266
 21
61.8975490341
  0
LWPOLYLINE
  5
488
100
AcDbEntity
  8
RUNDUNGEN
100
AcDbPolyline
 62
7
  6
CONTINUOUS
 90
3
 70
0
 10
258.9925822454
 20
60.4132606721
 10
259.3255739265
 20
60.3840011729
 10
259.474310481
 20
60.3809247941
  0
LINE
  5
489
100
AcDbEntity
  8
0
100
AcDbLine
 62
7
  6
CONTINUOUS
 10
259.5458414683
 20
60.4360953278
 11
260.0205102275
 21
60.3908036095
  0
LINE
  5
48A
100
AcDbEntity
  8
KONSTRUKTIONSELEMENTE
100
AcDbLine
 62
7
  6
CONTINUOUS
 10
223.4866637227
 20
85.9459709945
 11
223.4655645824
 21
85.5742288466
  0
LINE
  5
48B
100
AcDbEntity
  8
KONSTRUKTIONSELEMENTE
100
AcDbLine
 62
7
  6
CONTINUOUS
 10
225.8014634685
 20
88.1268149066
 11
225.7930238018
 21
87.97811786
  0
LINE
  5
48C
100
AcDbEntity
  8
KONSTRUKTIONSELEMENTE
100
AcDbLine
 62
7
  6
CONTINUOUS
 10
226.140143115
 20
87.6600645458
 11
226.2298208165
 21
87.9533263707
  0
LINE
  5
48D
100
AcDbEntity
  8
KONSTRUKTIONSELEMENTE
100
AcDbLine
 62
7
  6
CONTINUOUS
 10
227.166443894
 20
86.7359309166
 11
227.0199283588
 21
86.3138277435
  0
LINE
  5
48E
100
AcDbEntity
  8
KONSTRUKTIONSELEMENTE
100
AcDbLine
 62
7
  6
CONTINUOUS
 10
229.2836469547
 20
87.4987384024
 11
228.8196811331
 21
86.1620784693
  0
LINE
  5
48F
100
AcDbEntity
  8
KONSTRUKTIONSELEMENTE
100
AcDbLine
 62
7
  6
CONTINUOUS
 10
228.6731655978
 20
85.7399752962
 11
228.3912623362
 21
84.9278275531
  0
LINE
  5
490
100
AcDbEntity
  8
KONSTRUKTIONSELEMENTE
100
AcDbLine
 62
7
  6
CONTINUOUS
 10
228.8543688898
 20
84.9278275531
 11
229.0864749076
 21
85.5965121843
  0
LINE
  5
491
100
AcDbEntity
  8
KONSTRUKTIONSELEMENTE
100
AcDbLine
 62
7
  6
CONTINUOUS
 10
229.2329904428
 20
86.0186153574
 11
229.8923102658
 21
87.91807939
  0
LINE
  5
492
100
AcDbEntity
  8
KONSTRUKTIONSELEMENTE
100
AcDbLine
 62
7
  6
CONTINUOUS
 10
229.7753227061
 20
85.3574073628
 11
229.9218382413
 21
85.7795105359
  0
LINE
  5
493
100
AcDbEntity
  8
0
100
AcDbLine
 62
7
  6
CONTINUOUS
 10
192.0486560633
 20
60.8744586878
 11
192.24687593
 21
60.9437994059
  0
LINE
  5
494
100
AcDbEntity
  8
RUNDUNGEN
100
AcDbLine
 62
7
  6
CONTINUOUS
 10
189.7340641898
 20
60.5301761689
 11
189.7317109102
 21
60.5294787626
  0
LWPOLYLINE
  5
495
100
AcDbEntity
  8
RUNDUNGEN
100
AcDbPolyline
 62
7
  6
CONTINUOUS
 90
3
 70
0
 10
189.7340601384
 20
60.5301749681
 10
189.8471251388
 20
60.5623783796
 10
190.0497475437
 20
60.6150553779
  0
LINE
  5
496
100
AcDbEntity
  8
RUNDUNGEN
100
AcDbLine
 62
7
  6
CONTINUOUS
 10
190.0497475437
 20
60.6150553779
 11
190.2764548851
 21
60.6682812268
  0
LINE
  5
497
100
AcDbEntity
  8
0
100
AcDbLine
 62
7
  6
CONTINUOUS
 10
186.5907780397
 20
59.9446616436
 11
187.0393707423
 21
60.0210833165
  0
LINE
  5
498
100
AcDbEntity
  8
0
100
AcDbLine
 62
7
  6
CONTINUOUS
 10
189.1328032828
 20
60.3777177777
 11
189.5813959854
 21
60.4541394506
  0
LINE
  5
499
100
AcDbEntity
  8
0
100
AcDbLine
 62
7
  6
CONTINUOUS
 10
191.3757670094
 20
60.7598261785
 11
192.0486560633
 21
60.8744586878
  0
LINE
  5
49A
100
AcDbEntity
  8
0
100
AcDbLine
 62
7
  6
CONTINUOUS
 10
193.6934956874
 20
61.1546714397
 11
193.8294213103
 21
61.1778275531
  0
LINE
  5
49B
100
AcDbEntity
  8
RUNDUNGEN
100
AcDbLine
 62
7
  6
CONTINUOUS
 10
195.767175709
 20
61.6301340385
 11
194.1420888177
 21
61.3532863366
  0
LINE
  5
49C
100
AcDbEntity
  8
RUNDUNGEN
100
AcDbLine
 62
7
  6
CONTINUOUS
 10
193.0902723968
 20
61.1741002509
 11
192.24687593
 21
61.0304203192
  0
LINE
  5
49D
100
AcDbEntity
  8
0
100
AcDbLine
 62
7
  6
CONTINUOUS
 10
190.9950125762
 20
60.9083947787
 11
190.3221235223
 21
60.7937622694
  0
LINE
  5
49E
100
AcDbEntity
  8
0
100
AcDbLine
 62
7
  6
CONTINUOUS
 10
190.9880852524
 20
61.120648082
 11
190.5394925498
 21
61.0442264091
  0
LINE
  5
49F
100
AcDbEntity
  8
0
100
AcDbLine
 62
7
  6
CONTINUOUS
 10
185.2311455519
 20
60.1399032771
 11
186.7264545782
 21
60.3946421897
  0
LINE
  5
4A0
100
AcDbEntity
  8
0
100
AcDbLine
 62
7
  6
CONTINUOUS
 10
185.9492602897
 20
60.4045293144
 11
184.6034821286
 21
60.1752642866
  0
LINE
  5
4A1
100
AcDbEntity
  8
0
100
AcDbLine
 62
7
  6
CONTINUOUS
 10
184.1758697041
 20
60.9917228042
 11
184.8487587579
 21
61.1063553135
  0
LINE
  5
4A2
100
AcDbEntity
  8
0
100
AcDbLine
 62
7
  6
CONTINUOUS
 10
183.7951153938
 20
61.1402914004
 11
183.12222634
 21
61.0256588911
  0
LINE
  5
4A3
100
AcDbEntity
  8
0
100
AcDbLine
 62
7
  6
CONTINUOUS
 10
180.1316081804
 20
60.5161810477
 11
179.5334846127
 21
60.41428549
  0
LINE
  5
4A4
100
AcDbEntity
  8
0
100
AcDbLine
 62
7
  6
CONTINUOUS
 10
183.7951153938
 20
61.8923461988
 11
183.12222634
 21
61.7777136895
  0
LINE
  5
4A5
100
AcDbEntity
  8
0
100
AcDbLine
 62
7
  6
CONTINUOUS
 10
180.1316081804
 20
61.2682358461
 11
179.5334846127
 21
61.1663402883
  0
LWPOLYLINE
  5
4A6
100
AcDbEntity
  8
RUNDUNGEN
100
AcDbPolyline
 62
7
  6
CONTINUOUS
 90
6
 70
0
 10
195.7677882171
 20
61.6302384914
 10
195.9702624558
 20
61.6628850976
 10
196.2865034729
 20
61.7081571013
 10
196.6688646917
 20
61.7562837697
 10
197.1180953933
 20
61.8061349281
 10
197.6348010126
 20
61.8567612594
  0
LINE
  5
4A7
100
AcDbEntity
  8
0
100
AcDbLine
 62
7
  6
CONTINUOUS
 10
190.8263322294
 20
60.7017974175
 11
191.3757670094
 21
60.7598261785
  0
LINE
  5
4A8
100
AcDbEntity
  8
0
100
AcDbLine
 62
7
  6
CONTINUOUS
 10
183.7951153938
 20
61.1402914004
 11
184.1505197923
 21
61.1778275531
  0
LINE
  5
4A9
100
AcDbEntity
  8
0
100
AcDbLine
 62
7
  6
CONTINUOUS
 10
183.8206269159
 20
61.8950406066
 11
183.7951153938
 21
61.8923461988
  0
LINE
  5
4AA
100
AcDbEntity
  8
0
100
AcDbLine
 62
7
  6
CONTINUOUS
 10
184.8487587579
 20
61.1063553135
 11
185.3234275017
 21
61.1516470323
  0
LINE
  5
4AB
100
AcDbEntity
  8
RUNDUNGEN
100
AcDbLine
 62
7
  6
CONTINUOUS
 10
197.6348010126
 20
61.8567612594
 11
198.1004539342
 21
61.8975480428
  0
LINE
  5
4AC
100
AcDbEntity
  8
0
100
AcDbLine
 62
7
  6
CONTINUOUS
 10
266.7265895054
 20
61.60117017
 11
266.0763131064
 21
61.6408059473
  0
LINE
  5
4AD
100
AcDbEntity
  8
0
100
AcDbLine
 62
7
  6
CONTINUOUS
 10
264.297628178
 20
61.3333661168
 11
263.9620986854
 21
61.3606804583
  0
LINE
  5
4AE
100
AcDbEntity
  8
RUNDUNGEN
100
AcDbLine
 62
7
  6
CONTINUOUS
 10
250.0810902267
 20
61.897549035
 11
250.5563379358
 21
61.8558773643
  0
LWPOLYLINE
  5
4AF
100
AcDbEntity
  8
RUNDUNGEN
100
AcDbPolyline
 62
7
  6
CONTINUOUS
 90
6
 70
0
 10
250.5563379358
 20
61.8558773643
 10
251.0723087433
 20
61.8052106441
 10
251.5206357817
 20
61.7553431034
 10
251.90194744
 20
61.707229681
 10
252.2170160179
 20
61.6620076006
 10
252.413722229
 20
61.6302462752
  0
LINE
  5
4B0
100
AcDbEntity
  8
0
100
AcDbLine
 62
7
  6
CONTINUOUS
 10
260.8985464719
 20
60.4190836854
 11
260.3491121351
 21
60.477112374
  0
LINE
  5
4B1
100
AcDbEntity
  8
0
100
AcDbLine
 62
7
  6
CONTINUOUS
 10
265.9233185338
 20
60.8080984023
 11
266.4727532985
 21
60.7500696409
  0
LINE
  5
4B2
100
AcDbEntity
  8
0
100
AcDbLine
 62
7
  6
CONTINUOUS
 10
267.4255546005
 20
60.7656128164
 11
266.7265895054
 21
60.8491153717
  0
LINE
  5
4B3
100
AcDbEntity
  8
0
100
AcDbLine
 62
7
  6
CONTINUOUS
 10
267.4255546005
 20
61.5176676148
 11
266.7265895054
 21
61.60117017
  0
LINE
  5
4B4
100
AcDbEntity
  8
0
100
AcDbLine
 62
7
  6
CONTINUOUS
 10
255.4268144426
 20
60.9243740137
 11
255.800641766
 21
60.8606892741
  0
LINE
  5
4B5
100
AcDbEntity
  8
RUNDUNGEN
100
AcDbLine
 62
7
  6
CONTINUOUS
 10
255.4268144426
 20
61.1169396644
 11
255.1395705673
 21
61.1658741597
  0
LINE
  5
4B6
100
AcDbEntity
  8
RUNDUNGEN
100
AcDbLine
 62
7
  6
CONTINUOUS
 10
254.1888052549
 20
61.3278453092
 11
252.4143803705
 21
61.6301340385
  0
LINE
  5
4B7
100
AcDbEntity
  8
0
100
AcDbLine
 62
7
  6
CONTINUOUS
 10
258.9477175797
 20
60.5379909402
 11
259.5458414683
 21
60.4360953278
  0
LINE
  5
4B8
100
AcDbEntity
  8
0
100
AcDbLine
 62
7
  6
CONTINUOUS
 10
260.3491121351
 20
60.477112374
 11
259.9005194325
 21
60.5535340469
  0
LINE
  5
4B9
100
AcDbEntity
  8
0
100
AcDbLine
 62
7
  6
CONTINUOUS
 10
258.1809142154
 20
60.8464837685
 11
257.8070866781
 21
60.9101685445
  0
LINE
  5
4BA
100
AcDbEntity
  8
0
100
AcDbLine
 62
7
  6
CONTINUOUS
 10
260.2065082728
 20
60.7148396168
 11
259.8326811633
 21
60.7785243199
  0
LINE
  5
4BB
100
AcDbEntity
  8
0
100
AcDbLine
 62
7
  6
CONTINUOUS
 10
262.9606082595
 20
60.6369493353
 11
263.259669776
 21
60.5860016019
  0
LINE
  5
4BC
100
AcDbEntity
  8
0
100
AcDbLine
 62
7
  6
CONTINUOUS
 10
263.9620986854
 20
60.6086256599
 11
263.6630371689
 21
60.6595733932
  0
LINE
  5
4BD
100
AcDbEntity
  8
0
100
AcDbLine
 62
7
  6
CONTINUOUS
 10
266.1076843781
 20
60.3142509245
 11
266.705807411
 21
60.2123554579
  0
LINE
  5
4BE
100
AcDbEntity
  8
0
100
AcDbLine
 62
7
  6
CONTINUOUS
 10
267.0796349484
 20
60.1486706819
 11
267.9020551882
 21
60.0085642331
  0
LINE
  5
4BF
100
AcDbEntity
  8
0
100
AcDbLine
 62
7
  6
CONTINUOUS
 10
268.6044840976
 20
60.031188291
 11
267.7820638578
 21
60.1712947398
  0
LINE
  5
4C0
100
AcDbEntity
  8
0
100
AcDbLine
 62
7
  6
CONTINUOUS
 10
267.4082363205
 20
60.2349795158
 11
266.8101132875
 21
60.3368749825
  0
LINE
  5
4C1
100
AcDbEntity
  8
0
100
AcDbLine
 62
7
  6
CONTINUOUS
 10
264.297628178
 20
60.9071877361
 11
264.6714552875
 21
60.843503033
  0
LINE
  5
4C2
100
AcDbEntity
  8
0
100
AcDbLine
 62
7
  6
CONTINUOUS
 10
269.1869221686
 20
60.2165428716
 11
268.8130946312
 21
60.2802276476
  0
LINE
  5
4C3
100
AcDbEntity
  8
0
100
AcDbLine
 62
7
  6
CONTINUOUS
 10
266.4727532985
 20
60.7500696409
 11
266.771814815
 21
60.6991219075
  0
LINE
  5
4C4
100
AcDbEntity
  8
0
100
AcDbLine
 62
7
  6
CONTINUOUS
 10
267.5750857865
 20
60.7401388769
 11
267.4255546005
 21
60.7656128164
  0
LINE
  5
4C5
100
AcDbEntity
  8
0
100
AcDbLine
 62
7
  6
CONTINUOUS
 10
263.9620986854
 20
61.3606804583
 11
263.6630371689
 21
61.4116281916
  0
LINE
  5
4C6
100
AcDbEntity
  8
0
100
AcDbLine
 62
7
  6
CONTINUOUS
 10
269.1869221686
 20
60.96859767
 11
268.8130946312
 21
61.0322824459
  0
LINE
  5
4C7
100
AcDbEntity
  8
0
100
AcDbLine
 62
7
  6
CONTINUOUS
 10
267.5750857865
 20
61.4921936752
 11
267.4255546005
 21
61.5176676148
  0
LINE
  5
4C8
100
AcDbEntity
  8
RUNDUNGEN
100
AcDbLine
 62
7
  6
CONTINUOUS
 10
256.9654764955
 20
60.8537375211
 11
257.1901427981
 21
60.8139068445
  0
LINE
  5
4C9
100
AcDbEntity
  8
RUNDUNGEN
100
AcDbLine
 62
7
  6
CONTINUOUS
 10
258.6636977696
 20
60.4732277415
 11
258.9925822454
 21
60.4132606721
  0
LINE
  5
4CA
100
AcDbEntity
  8
RUNDUNGEN
100
AcDbLine
 62
7
  6
CONTINUOUS
 10
257.1901427981
 20
60.8139068445
 11
257.5634137909
 21
60.7416812679
  0
LWPOLYLINE
  5
4CB
100
AcDbEntity
  8
RUNDUNGEN
100
AcDbPolyline
 62
7
  6
CONTINUOUS
 90
5
 70
0
 10
257.5634137909
 20
60.7416812679
 10
257.8776545464
 20
60.6747644292
 10
258.1348212341
 20
60.6143097748
 10
258.3368592661
 20
60.5617114303
 10
258.4474723653
 20
60.5301819581
  0
LWPOLYLINE
  5
4CC
100
AcDbEntity
  8
RUNDUNGEN
100
AcDbPolyline
 62
7
  6
CONTINUOUS
 90
8
 70
0
 10
190.2926376581
 20
86.3619898938
 10
190.1555986375
 20
86.4503099428
 10
189.8831640769
 20
86.5937042753
 10
189.5991826226
 20
86.7126030062
 10
189.3058515191
 20
86.8060862507
 10
189.0054404581
 20
86.873430739
 10
188.7002739001
 20
86.9141154741
 10
188.3927130037
 20
86.9278257603
  0
LINE
  5
4CD
100
AcDbEntity
  8
KONSTRUKTIONSELEMENTE
100
AcDbLine
 62
7
  6
CONTINUOUS
 10
218.6138076029
 20
88.1301669745
 11
219.413868892
 21
84.9278275531
  0
LINE
  5
4CE
100
AcDbEntity
  8
KONSTRUKTIONSELEMENTE
100
AcDbLine
 62
7
  6
CONTINUOUS
 10
219.8648162268
 20
84.9278275531
 11
219.2187617096
 21
87.5137367541
  0
LINE
  5
4CF
100
AcDbEntity
  8
KONSTRUKTIONSELEMENTE
100
AcDbLine
 62
7
  6
CONTINUOUS
 10
226.0863466706
 20
85.4254799105
 11
226.1074458109
 21
85.7972220585
  0
LINE
  5
4D0
100
AcDbEntity
  8
KONSTRUKTIONSELEMENTE
100
AcDbLine
 62
7
  6
CONTINUOUS
 10
226.2298208165
 20
87.9533263707
 11
226.2382604832
 21
88.1020234173
  0
LINE
  5
4D1
100
AcDbEntity
  8
RUNDUNGEN
100
AcDbLine
 62
7
  6
CONTINUOUS
 10
189.5813959854
 20
60.4895917085
 11
189.7316769865
 21
60.5294679201
  0
LINE
  5
4D2
100
AcDbEntity
  8
RUNDUNGEN
100
AcDbLine
 62
7
  6
CONTINUOUS
 10
258.449880078
 20
60.5294676221
 11
258.6636977696
 21
60.4732277415
  0
LINE
  5
4D3
100
AcDbEntity
  8
0
100
AcDbLine
 62
7
  6
CONTINUOUS
 10
267.9228364269
 20
60.6453242926
 11
267.5750857865
 21
60.7401388769
  0
LINE
  5
4D4
100
AcDbEntity
  8
0
100
AcDbLine
 62
7
  6
CONTINUOUS
 10
267.9228364269
 20
61.397379091
 11
267.5750857865
 21
61.4921936752
  0
LINE
  5
4D5
100
AcDbEntity
  8
RUNDUNGEN
100
AcDbLine
 62
7
  6
CONTINUOUS
 10
258.4498461249
 20
60.5294784739
 11
258.4474683126
 21
60.5301831592
  0
LINE
  5
4D6
100
AcDbEntity
  8
0
100
AcDbLine
 62
7
  6
CONTINUOUS
 10
262.5625356846
 20
59.9577474389
 11
262.6620474277
 21
59.9278275531
  0
LINE
  5
4D7
100
AcDbEntity
  8
0
100
AcDbLine
 62
7
  6
CONTINUOUS
 10
263.259669776
 20
60.5860016019
 11
263.5326552512
 21
60.5039239146
  0
LINE
  5
4D8
100
AcDbEntity
  8
0
100
AcDbLine
 62
7
  6
CONTINUOUS
 10
259.9005194325
 20
60.5535340469
 11
259.7022995504
 21
60.6228747644
  0
LINE
  5
4D9
100
AcDbEntity
  8
0
100
AcDbLine
 62
7
  6
CONTINUOUS
 10
263.4535238275
 20
59.9278275531
 11
263.3397298668
 21
59.9676346035
  0
LINE
  5
4DA
100
AcDbEntity
  8
KONSTRUKTIONSELEMENTE
100
AcDbLine
 62
7
  6
CONTINUOUS
 10
221.7654837132
 20
88.1500008789
 11
222.4333354402
 21
85.476845782
  0
LINE
  5
4DB
100
AcDbEntity
  8
KONSTRUKTIONSELEMENTE
100
AcDbLine
 62
7
  6
CONTINUOUS
 10
222.8577891074
 20
85.5828898028
 11
222.009436941
 21
88.9785191409
  0
LWPOLYLINE
  5
4DC
100
AcDbEntity
  8
RUNDUNGEN
100
AcDbPolyline
 62
7
  6
CONTINUOUS
 90
19
 70
0
 10
263.4747785644
 20
86.6122997686
 10
263.4871542728
 20
86.6152156501
 10
263.4900523355
 20
86.6158511189
 10
263.4778556904
 20
86.6136462807
 10
263.4522463831
 20
86.6095228368
 10
263.4136690692
 20
86.6039711635
 10
263.3633053983
 20
86.597450938
 10
263.3008545252
 20
86.5901552903
 10
263.2260763212
 20
86.5822660901
 10
263.1389233377
 20
86.5739608313
 10
263.0392656214
 20
86.565378942
 10
262.9278494025
 20
86.5566960514
 10
262.8057363548
 20
86.5480804704
 10
262.6730177284
 20
86.5396203884
 10
262.5301838557
 20
86.5314244371
 10
262.3775747869
 20
86.5235455621
 10
262.2156420208
 20
86.5160414093
 10
262.0447832675
 20
86.5089887823
 10
261.8654562228
 20
86.5024692697
  0
LINE
  5
4DD
100
AcDbEntity
  8
0
100
AcDbLine
 62
7
  6
CONTINUOUS
 10
181.2220737162
 20
85.5576935543
 11
182.7987294575
 21
85.2757392081
  0
LINE
  5
4DE
100
AcDbEntity
  8
0
100
AcDbLine
 62
7
  6
CONTINUOUS
 10
183.4722522985
 20
85.1552926912
 11
184.1457751394
 21
85.0348461744
  0
LINE
  5
4DF
100
AcDbEntity
  8
0
100
AcDbLine
 62
7
  6
CONTINUOUS
 10
181.2220737162
 20
86.3097483526
 11
182.7987294575
 21
86.0277940064
  0
LINE
  5
4E0
100
AcDbEntity
  8
0
100
AcDbLine
 62
7
  6
CONTINUOUS
 10
183.4722522985
 20
85.9073474896
 11
184.1457751394
 21
85.7869009728
  0
LINE
  5
4E1
100
AcDbEntity
  8
0
100
AcDbLine
 62
7
  6
CONTINUOUS
 10
266.771814815
 20
60.6991219075
 11
266.970035125
 21
60.6297811171
  0
LINE
  5
4E2
100
AcDbEntity
  8
0
100
AcDbLine
 62
7
  6
CONTINUOUS
 10
258.824263306
 20
60.5945946885
 11
258.9477175797
 21
60.5379909402
  0
LINE
  5
4E3
100
AcDbEntity
  8
KONSTRUKTIONSELEMENTE
100
AcDbLine
 62
7
  6
CONTINUOUS
 10
219.2187617096
 20
87.5137367541
 11
220.8770047871
 21
85.0880175709
  0
LINE
  5
4E4
100
AcDbEntity
  8
KONSTRUKTIONSELEMENTE
100
AcDbLine
 62
7
  6
CONTINUOUS
 10
221.069724206
 20
85.5199508907
 11
219.2504881038
 21
88.2892330057
  0
LINE
  5
4E5
100
AcDbEntity
  8
KONSTRUKTIONSELEMENTE
100
AcDbLine
 62
7
  6
CONTINUOUS
 10
226.2382604832
 20
88.1020234173
 11
226.1823414015
 21
88.4035489458
  0
LWPOLYLINE
  5
4E6
100
AcDbEntity
  8
RUNDUNGEN
100
AcDbPolyline
 62
7
  6
CONTINUOUS
 90
3
 70
0
 10
257.5634133064
 20
86.1139737406
 10
257.1901428641
 20
86.0417482733
 10
256.8099570264
 20
85.974345825
  0
LINE
  5
4E7
100
AcDbEntity
  8
RUNDUNGEN
100
AcDbLine
 62
7
  6
CONTINUOUS
 10
256.8098038295
 20
85.9743197258
 11
252.4143803705
 21
85.2255210677
  0
LWPOLYLINE
  5
4E8
100
AcDbEntity
  8
RUNDUNGEN
100
AcDbPolyline
 62
7
  6
CONTINUOUS
 90
6
 70
0
 10
252.4137224704
 20
85.2254088738
 10
252.2170163751
 20
85.1936475614
 10
251.9019479604
 20
85.1484254931
 10
251.5206366608
 20
85.1003121056
 10
251.0723098602
 20
85.0504445815
 10
250.5563386947
 20
84.9997778066
  0
LINE
  5
4E9
100
AcDbEntity
  8
RUNDUNGEN
100
AcDbLine
 62
7
  6
CONTINUOUS
 10
250.5563386947
 20
84.9997778066
 11
250.0810901252
 21
84.9581060647
  0
LINE
  5
4EA
100
AcDbEntity
  8
RUNDUNGEN
100
AcDbLine
 62
7
  6
CONTINUOUS
 10
250.0810901261
 20
84.9581060549
 11
250.0809811354
 21
84.9580969803
  0
LINE
  5
4EB
100
AcDbEntity
  8
RUNDUNGEN
100
AcDbLine
 62
7
  6
CONTINUOUS
 10
172.590821663
 20
82.9278275531
 11
275.5907344154
 21
82.9278275531
  0
LINE
  5
4EC
100
AcDbEntity
  8
RUNDUNGEN
100
AcDbLine
 62
7
  6
CONTINUOUS
 10
198.1005765686
 20
84.958096855
 11
197.6347999567
 21
84.9988939388
  0
LINE
  5
4ED
100
AcDbEntity
  8
RUNDUNGEN
100
AcDbLine
 62
7
  6
CONTINUOUS
 10
197.6347999567
 20
84.9988939388
 11
197.4386906173
 21
85.0181085566
  0
LINE
  5
4EE
100
AcDbEntity
  8
0
100
AcDbLine
 62
7
  6
CONTINUOUS
 10
184.1568323703
 20
86.0694639802
 11
182.8059598541
 21
86.311041369
  0
LINE
  5
4EF
100
AcDbEntity
  8
0
100
AcDbLine
 62
7
  6
CONTINUOUS
 10
184.0283984535
 20
86.2066351803
 11
184.7019212945
 21
86.0861886635
  0
LINE
  5
4F0
100
AcDbEntity
  8
0
100
AcDbLine
 62
7
  6
CONTINUOUS
 10
188.0813119847
 20
86.4729022875
 11
188.75866166
 21
86.3517714154
  0
LINE
  5
4F1
100
AcDbEntity
  8
0
100
AcDbLine
 62
7
  6
CONTINUOUS
 10
190.7902874137
 20
86.2729948723
 11
189.2136316724
 21
86.5549492186
  0
LINE
  5
4F2
100
AcDbEntity
  8
RUNDUNGEN
100
AcDbLine
 62
7
  6
CONTINUOUS
 10
190.9282715356
 20
86.053992254
 11
190.7965264062
 21
86.079455941
  0
LWPOLYLINE
  5
4F3
100
AcDbEntity
  8
RUNDUNGEN
100
AcDbPolyline
 62
7
  6
CONTINUOUS
 90
9
 70
0
 10
257.5448779093
 20
60.7452678438
 10
257.7598867618
 20
60.577306206
 10
258.0189967625
 20
60.409420275
 10
258.2918938749
 20
60.2650222133
 10
258.5764545401
 20
60.1452356348
 10
258.8704644488
 20
60.0509926383
 10
259.1716357258
 20
59.983026566
 10
259.4776247727
 20
59.9418662757
 10
259.7860505353
 20
59.9278320264
  0
LINE
  5
4F4
100
AcDbEntity
  8
KONSTRUKTIONSELEMENTE
100
AcDbLine
 62
7
  6
CONTINUOUS
 10
226.1823414015
 20
88.4035489458
 11
225.9080221462
 21
88.7174703136
  0
LINE
  5
4F5
100
AcDbEntity
  8
KONSTRUKTIONSELEMENTE
100
AcDbLine
 62
7
  6
CONTINUOUS
 10
225.6685245014
 20
88.3581239624
 11
225.8014634685
 21
88.1268149066
  0
LINE
  5
4F6
100
AcDbEntity
  8
BEZUGSACHSEN
100
AcDbLine
 62
7
  6
CONTINUOUS
 10
234.4830828851
 20
55.4278275531
 11
238.2358596349
 21
61.9278275531
  0
LINE
  5
4F7
100
AcDbEntity
  8
0
100
AcDbLine
 62
7
  6
CONTINUOUS
 10
259.0033340274
 20
60.7063773926
 11
258.8764158625
 21
60.6568545252
  0
LINE
  5
4F8
100
AcDbEntity
  8
KONSTRUKTIONSELEMENTE
100
AcDbLine
 62
7
  6
CONTINUOUS
 10
220.8770047871
 20
85.0880175709
 11
221.4429440896
 21
85.2294098683
  0
LINE
  5
4F9
100
AcDbEntity
  8
KONSTRUKTIONSELEMENTE
100
AcDbLine
 62
7
  6
CONTINUOUS
 10
222.4333354402
 20
85.476845782
 11
222.8577891074
 21
85.5828898028
  0
LWPOLYLINE
  5
4FA
100
AcDbEntity
  8
RUNDUNGEN
100
AcDbPolyline
 62
7
  6
CONTINUOUS
 90
9
 70
0
 10
259.7907780467
 20
86.9278274593
 10
259.4865151593
 20
86.9145772528
 10
259.1808282031
 20
86.8742692807
 10
258.8798719384
 20
86.8072135124
 10
258.5859827813
 20
86.71392977
 10
258.3014423977
 20
86.5951416747
 10
258.0284589925
 20
86.4517705049
 10
257.7691513598
 20
86.2849283498
 10
257.5439642942
 20
86.1102104799
  0
LINE
  5
4FB
100
AcDbEntity
  8
0
100
AcDbLine
 62
7
  6
CONTINUOUS
 10
184.1457751394
 20
85.0348461744
 11
185.4430719752
 21
85.0746504665
  0
LINE
  5
4FC
100
AcDbEntity
  8
0
100
AcDbLine
 62
7
  6
CONTINUOUS
 10
182.7987294575
 20
85.2757392081
 11
183.4722522985
 21
85.2964045633
  0
LINE
  5
4FD
100
AcDbEntity
  8
0
100
AcDbLine
 62
7
  6
CONTINUOUS
 10
190.2426261466
 20
85.702166811
 11
189.4493638996
 21
85.6778275531
  0
LINE
  5
4FE
100
AcDbEntity
  8
0
100
AcDbLine
 62
7
  6
CONTINUOUS
 10
184.1457751394
 20
85.7869009728
 11
188.9453293108
 21
85.9341632269
  0
LINE
  5
4FF
100
AcDbEntity
  8
0
100
AcDbLine
 62
7
  6
CONTINUOUS
 10
188.2718064699
 20
86.0546097438
 11
183.4722522985
 21
85.9073474896
  0
LINE
  5
500
100
AcDbEntity
  8
0
100
AcDbLine
 62
7
  6
CONTINUOUS
 10
182.7987294575
 20
86.0277940064
 11
184.1568323703
 21
86.0694639802
  0
LINE
  5
501
100
AcDbEntity
  8
0
100
AcDbLine
 62
7
  6
CONTINUOUS
 10
184.7019212945
 20
86.0861886635
 11
190.7902874137
 21
86.2729948723
  0
LINE
  5
502
100
AcDbEntity
  8
0
100
AcDbLine
 62
7
  6
CONTINUOUS
 10
188.75866166
 20
86.3517714154
 11
184.0283984535
 21
86.2066351803
  0
LINE
  5
503
100
AcDbEntity
  8
0
100
AcDbLine
 62
7
  6
CONTINUOUS
 10
183.7584649903
 20
86.4813784667
 11
185.7817611665
 21
86.5434582235
  0
LINE
  5
504
100
AcDbEntity
  8
RUNDUNGEN
100
AcDbLine
 62
7
  6
CONTINUOUS
 10
261.8654562228
 20
86.5024692697
 11
261.4836022677
 21
86.4911643656
  0
LWPOLYLINE
  5
505
100
AcDbEntity
  8
RUNDUNGEN
100
AcDbPolyline
 62
7
  6
CONTINUOUS
 90
5
 70
0
 10
259.4743104299
 20
86.4747345906
 10
259.3257449061
 20
86.4716610267
 10
258.9928893463
 20
86.4424340729
 10
258.6641153799
 20
86.3825238346
 10
258.4489240785
 20
86.325904916
  0
LINE
  5
506
100
AcDbEntity
  8
RUNDUNGEN
100
AcDbLine
 62
7
  6
CONTINUOUS
 10
261.4836022677
 20
86.4911643656
 11
261.0748025271
 21
86.4825699613
  0
LINE
  5
507
100
AcDbEntity
  8
RUNDUNGEN
100
AcDbLine
 62
7
  6
CONTINUOUS
 10
261.0748025271
 20
86.4825699613
 11
260.6442972677
 21
86.4769828106
  0
LINE
  5
508
100
AcDbEntity
  8
RUNDUNGEN
100
AcDbLine
 62
7
  6
CONTINUOUS
 10
260.6442972677
 20
86.4769828106
 11
260.1979154356
 21
86.4747780782
  0
LINE
  5
509
100
AcDbEntity
  8
RUNDUNGEN
100
AcDbLine
 62
7
  6
CONTINUOUS
 10
175.0229777043
 20
84.9278275531
 11
273.1572524671
 21
84.9278275531
  0
LINE
  5
50A
100
AcDbEntity
  8
0
100
AcDbLine
 62
7
  6
CONTINUOUS
 10
185.4430719752
 20
85.6778275531
 11
197.4298449653
 21
85.6778275531
  0
LINE
  5
50B
100
AcDbEntity
  8
RUNDUNGEN
100
AcDbLine
 62
7
  6
CONTINUOUS
 10
260.1979154356
 20
86.4747780782
 11
259.4743104192
 21
86.4747478889
  0
LINE
  5
50C
100
AcDbEntity
  8
RUNDUNGEN
100
AcDbLine
 62
7
  6
CONTINUOUS
 10
167.3439159642
 20
86.9278275531
 11
188.3907755515
 21
86.9278275531
  0
LINE
  5
50D
100
AcDbEntity
  8
RUNDUNGEN
100
AcDbLine
 62
7
  6
CONTINUOUS
 10
259.7907786854
 20
86.9278275531
 11
280.8787526968
 21
86.9278275531
  0
LINE
  5
50E
100
AcDbEntity
  8
KONSTRUKTIONSELEMENTE
100
AcDbLine
 62
7
  6
CONTINUOUS
 10
223.4655645824
 20
85.5742288466
 11
226.0863466706
 21
85.4254799105
  0
LINE
  5
50F
100
AcDbEntity
  8
KONSTRUKTIONSELEMENTE
100
AcDbLine
 62
7
  6
CONTINUOUS
 10
226.1074458109
 20
85.7972220585
 11
224.0690608531
 21
85.9129156124
  0
LINE
  5
510
100
AcDbEntity
  8
KONSTRUKTIONSELEMENTE
100
AcDbLine
 62
7
  6
CONTINUOUS
 10
223.6902784529
 20
88.246640407
 11
224.0542754097
 21
88.225980864
  0
LINE
  5
511
100
AcDbEntity
  8
KONSTRUKTIONSELEMENTE
100
AcDbLine
 62
7
  6
CONTINUOUS
 10
225.0987885197
 20
88.6142245075
 11
225.458565649
 21
88.5192165454
  0
LINE
  5
512
100
AcDbEntity
  8
KONSTRUKTIONSELEMENTE
100
AcDbLine
 62
7
  6
CONTINUOUS
 10
227.0199283588
 20
86.3138277435
 11
228.6731655978
 21
85.7399752962
  0
LINE
  5
513
100
AcDbEntity
  8
KONSTRUKTIONSELEMENTE
100
AcDbLine
 62
7
  6
CONTINUOUS
 10
229.0864749076
 20
85.5965121843
 11
229.7753227061
 21
85.3574073628
  0
LINE
  5
514
100
AcDbEntity
  8
KONSTRUKTIONSELEMENTE
100
AcDbLine
 62
7
  6
CONTINUOUS
 10
229.9218382413
 20
85.7795105359
 11
229.2329904428
 21
86.0186153574
  0
LINE
  5
515
100
AcDbEntity
  8
KONSTRUKTIONSELEMENTE
100
AcDbLine
 62
7
  6
CONTINUOUS
 10
228.8196811331
 20
86.1620784693
 11
227.6486370376
 21
86.568557651
  0
LINE
  5
516
100
AcDbEntity
  8
KONSTRUKTIONSELEMENTE
100
AcDbLine
 62
7
  6
CONTINUOUS
 10
225.9080221462
 20
88.7174703136
 11
225.6252632359
 21
88.882694843
  0
LINE
  5
517
100
AcDbEntity
  8
KONSTRUKTIONSELEMENTE
100
AcDbLine
 62
7
  6
CONTINUOUS
 10
225.458565649
 20
88.5192165454
 11
225.6685245014
 21
88.3581239624
  0
LINE
  5
518
100
AcDbEntity
  8
0
100
AcDbLine
 62
7
  6
CONTINUOUS
 10
262.513846576
 20
60.0016142904
 11
262.5625356846
 21
59.9577474389
  0
LINE
  5
519
100
AcDbEntity
  8
0
100
AcDbLine
 62
7
  6
CONTINUOUS
 10
263.5326552512
 20
60.5039239146
 11
263.4057371477
 21
60.4544010492
  0
LINE
  5
51A
100
AcDbEntity
  8
0
100
AcDbLine
 62
7
  6
CONTINUOUS
 10
262.6407647102
 20
60.0511371568
 11
262.513846576
 21
60.0016142904
  0
LINE
  5
51B
100
AcDbEntity
  8
0
100
AcDbLine
 62
7
  6
CONTINUOUS
 10
263.3397298668
 20
59.9676346035
 11
263.4666479702
 21
60.0171574689
  0
LINE
  5
51C
100
AcDbEntity
  8
0
100
AcDbLine
 62
7
  6
CONTINUOUS
 10
266.970035125
 20
60.6297811171
 11
266.8431170215
 21
60.5802582517
  0
LINE
  5
51D
100
AcDbEntity
  8
KONSTRUKTIONSELEMENTE
100
AcDbLine
 62
7
  6
CONTINUOUS
 10
222.009436941
 20
88.9785191409
 11
221.3727564401
 21
88.8194531097
  0
LINE
  5
51E
100
AcDbEntity
  8
KONSTRUKTIONSELEMENTE
100
AcDbLine
 62
7
  6
CONTINUOUS
 10
219.2504881038
 20
88.2892330057
 11
218.6138076029
 21
88.1301669745
  0
LINE
  5
51F
100
AcDbEntity
  8
KONSTRUKTIONSELEMENTE
100
AcDbLine
 62
7
  6
CONTINUOUS
 10
224.4393731701
 20
88.5770633224
 11
224.8075899545
 21
88.6307521986
  0
LINE
  5
520
100
AcDbEntity
  8
KONSTRUKTIONSELEMENTE
100
AcDbLine
 62
7
  6
CONTINUOUS
 10
224.9014891497
 20
88.9983623481
 11
224.3876722496
 21
88.9529373646
  0
LINE
  5
521
100
AcDbEntity
  8
BEZUGSACHSEN
100
AcDbLine
 62
7
  6
CONTINUOUS
 10
234.4830828851
 20
91.4278275531
 11
213.6984731943
 21
91.4278275531
  0
LINE
  5
522
100
AcDbEntity
  8
KONSTRUKTIONSELEMENTE
100
AcDbLine
 62
7
  6
CONTINUOUS
 10
224.8075899545
 20
88.6307521986
 11
225.0987885197
 21
88.6142245075
  0
LINE
  5
523
100
AcDbEntity
  8
KONSTRUKTIONSELEMENTE
100
AcDbLine
 62
7
  6
CONTINUOUS
 10
225.1926860486
 20
88.9818347515
 11
224.9014891497
 21
88.9983623481
  0
LINE
  5
524
100
AcDbEntity
  8
KONSTRUKTIONSELEMENTE
100
AcDbLine
 62
7
  6
CONTINUOUS
 10
225.6252632359
 20
88.882694843
 11
225.1926860486
 21
88.9818347515
  0
LINE
  5
525
100
AcDbEntity
  8
KONSTRUKTIONSELEMENTE
100
AcDbLine
 62
7
  6
CONTINUOUS
 10
229.8923102658
 20
87.91807939
 11
229.479000956
 21
88.0615425018
  0
LINE
  5
526
100
AcDbEntity
  8
BEZUGSACHSEN
100
AcDbLine
 62
7
  6
CONTINUOUS
 10
238.2358596349
 20
84.9278275531
 11
234.4830828851
 21
91.4278275531
  0
LINE
  5
527
100
AcDbEntity
  8
0
100
AcDbLine
 62
7
  6
CONTINUOUS
 10
201.3407780397
 20
93.9278275531
 11
203.57938896
 21
93.9278275531
  0
LINE
  5
528
100
AcDbEntity
  8
0
100
AcDbLine
 62
7
  6
CONTINUOUS
 10
244.6021671195
 20
93.9278275531
 11
246.8407780397
 21
93.9278275531
  0
LINE
  5
529
100
AcDbEntity
  8
0
100
AcDbLine
 62
7
  6
CONTINUOUS
 10
254.1888052549
 20
61.9278275531
 11
254.1888052549
 21
61.1778275531
  0
LINE
  5
52A
100
AcDbEntity
  8
0
100
AcDbLine
 62
7
  6
CONTINUOUS
 10
254.3417997132
 20
61.9278275531
 11
254.3417997132
 21
61.1778275531
  0
LINE
  5
52B
100
AcDbEntity
  8
0
100
AcDbLine
 62
7
  6
CONTINUOUS
 10
254.8199323328
 20
61.9278275531
 11
254.8199323328
 21
61.1778275531
  0
LINE
  5
52C
100
AcDbEntity
  8
0
100
AcDbLine
 62
7
  6
CONTINUOUS
 10
255.4268144426
 20
61.1778275531
 11
255.4268144426
 21
60.9243740137
  0
LINE
  5
52D
100
AcDbEntity
  8
0
100
AcDbLine
 62
7
  6
CONTINUOUS
 10
255.5484376939
 20
61.9278275531
 11
255.5484376939
 21
61.1778275531
  0
LINE
  5
52E
100
AcDbEntity
  8
RUNDUNGEN
100
AcDbLine
 62
7
  6
CONTINUOUS
 10
255.5907780397
 20
90.371093339
 11
255.5907780397
 21
85.7666480682
  0
LINE
  5
52F
100
AcDbEntity
  8
RUNDUNGEN
100
AcDbLine
 62
7
  6
CONTINUOUS
 10
255.5907780397
 20
60.8964413872
 11
255.5907780397
 21
56.4845617672
  0
LINE
  5
530
100
AcDbEntity
  8
0
100
AcDbLine
 62
7
  6
CONTINUOUS
 10
256.7029230787
 20
61.9278275531
 11
256.7029230787
 21
61.1778275531
  0
LINE
  5
531
100
AcDbEntity
  8
0
100
AcDbLine
 62
7
  6
CONTINUOUS
 10
257.8070866781
 20
61.1327558309
 11
257.8070866781
 21
60.9101685445
  0
LINE
  5
532
100
AcDbEntity
  8
0
100
AcDbLine
 62
7
  6
CONTINUOUS
 10
257.9321736702
 20
61.9278275531
 11
257.9321736702
 21
61.1778275531
  0
LINE
  5
533
100
AcDbEntity
  8
0
100
AcDbLine
 62
7
  6
CONTINUOUS
 10
258.1809142154
 20
61.1337338768
 11
258.1809142154
 21
60.8464837685
  0
LINE
  5
534
100
AcDbEntity
  8
0
100
AcDbLine
 62
7
  6
CONTINUOUS
 10
258.8764158625
 20
60.6568545252
 11
258.824263306
 21
60.5945946885
  0
LINE
  5
535
100
AcDbEntity
  8
0
100
AcDbLine
 62
7
  6
CONTINUOUS
 10
259.7022995504
 20
60.6228747644
 11
259.7283755917
 21
60.6540047185
  0
LINE
  5
536
100
AcDbEntity
  8
0
100
AcDbLine
 62
7
  6
CONTINUOUS
 10
252.0026435177
 20
85.1628784219
 11
247.4952285214
 21
90.534606437
  0
LINE
  5
537
100
AcDbEntity
  8
0
100
AcDbLine
 62
7
  6
CONTINUOUS
 10
258.824263306
 20
61.1549602848
 11
258.824263306
 21
60.5945946885
  0
LINE
  5
538
100
AcDbEntity
  8
0
100
AcDbLine
 62
7
  6
CONTINUOUS
 10
258.8764158625
 20
61.1566400312
 11
258.8764158625
 21
60.6568545252
  0
LINE
  5
539
100
AcDbEntity
  8
0
100
AcDbLine
 62
7
  6
CONTINUOUS
 10
259.0033340274
 20
61.1620139571
 11
259.0033340274
 21
60.7063773926
  0
LINE
  5
53A
100
AcDbEntity
  8
0
100
AcDbLine
 62
7
  6
CONTINUOUS
 10
259.2361897143
 20
61.9278275531
 11
259.2361897143
 21
61.1778275531
  0
LINE
  5
53B
100
AcDbEntity
  8
0
100
AcDbLine
 62
7
  6
CONTINUOUS
 10
259.3806249512
 20
61.1778275531
 11
259.3806249512
 21
60.7488193027
  0
LINE
  5
53C
100
AcDbEntity
  8
0
100
AcDbLine
 62
7
  6
CONTINUOUS
 10
259.8326811633
 20
61.1778275531
 11
259.8326811633
 21
60.7785243199
  0
LINE
  5
53D
100
AcDbEntity
  8
0
100
AcDbLine
 62
7
  6
CONTINUOUS
 10
259.9005194325
 20
60.6907906181
 11
259.9005194325
 21
60.5535340469
  0
LINE
  5
53E
100
AcDbEntity
  8
0
100
AcDbLine
 62
7
  6
CONTINUOUS
 10
260.2065082728
 20
61.1778275531
 11
260.2065082728
 21
60.7148396168
  0
LINE
  5
53F
100
AcDbEntity
  8
0
100
AcDbLine
 62
7
  6
CONTINUOUS
 10
260.2637572417
 20
61.9278275531
 11
260.2637572417
 21
61.1778275531
  0
LINE
  5
540
100
AcDbEntity
  8
0
100
AcDbLine
 62
7
  6
CONTINUOUS
 10
260.3491121351
 20
61.1778275531
 11
260.3491121351
 21
60.477112374
  0
LINE
  5
541
100
AcDbEntity
  8
0
100
AcDbLine
 62
7
  6
CONTINUOUS
 10
260.8985464719
 20
61.1711384838
 11
260.8985464719
 21
60.4190836854
  0
LINE
  5
542
100
AcDbEntity
  8
0
100
AcDbLine
 62
7
  6
CONTINUOUS
 10
261.1904825023
 20
61.9278275531
 11
261.1904825023
 21
61.1778275531
  0
LINE
  5
543
100
AcDbEntity
  8
0
100
AcDbLine
 62
7
  6
CONTINUOUS
 10
261.2236848853
 20
61.1513205587
 11
261.2236848853
 21
60.3992657603
  0
LINE
  5
544
100
AcDbEntity
  8
0
100
AcDbLine
 62
7
  6
CONTINUOUS
 10
261.7244302213
 20
61.137158725
 11
261.7244302213
 21
60.3851039266
  0
LINE
  5
545
100
AcDbEntity
  8
0
100
AcDbLine
 62
7
  6
CONTINUOUS
 10
262.0911314543
 20
61.9278275531
 11
262.0911314543
 21
61.1778275531
  0
LINE
  5
546
100
AcDbEntity
  8
0
100
AcDbLine
 62
7
  6
CONTINUOUS
 10
262.150410269
 20
61.1357337842
 11
262.150410269
 21
60.3836789858
  0
LINE
  5
547
100
AcDbEntity
  8
0
100
AcDbLine
 62
7
  6
CONTINUOUS
 10
262.513846576
 20
60.3199942827
 11
262.513846576
 21
60.0016142904
  0
LINE
  5
548
100
AcDbEntity
  8
0
100
AcDbLine
 62
7
  6
CONTINUOUS
 10
262.6405659516
 20
61.9278275531
 11
262.6405659516
 21
61.1778275531
  0
LINE
  5
549
100
AcDbEntity
  8
0
100
AcDbLine
 62
7
  6
CONTINUOUS
 10
262.6407647102
 20
60.3237474328
 11
262.6407647102
 21
60.0511371568
  0
LINE
  5
54A
100
AcDbEntity
  8
0
100
AcDbLine
 62
7
  6
CONTINUOUS
 10
262.8528391784
 20
61.1583578421
 11
262.8528391784
 21
60.4063030438
  0
LINE
  5
54B
100
AcDbEntity
  8
0
100
AcDbLine
 62
7
  6
CONTINUOUS
 10
262.939627682
 20
61.9278275531
 11
262.939627682
 21
61.1778275531
  0
LINE
  5
54C
100
AcDbEntity
  8
0
100
AcDbLine
 62
7
  6
CONTINUOUS
 10
262.9606082595
 20
61.1778275531
 11
262.9606082595
 21
60.6369493353
  0
LINE
  5
54D
100
AcDbEntity
  8
0
100
AcDbLine
 62
7
  6
CONTINUOUS
 10
263.1378476711
 20
61.9278275531
 11
263.1378476711
 21
61.1778275531
  0
LINE
  5
54E
100
AcDbEntity
  8
0
100
AcDbLine
 62
7
  6
CONTINUOUS
 10
263.193662495
 20
60.3426183407
 11
263.193662495
 21
60.0992351562
  0
LINE
  5
54F
100
AcDbEntity
  8
0
100
AcDbLine
 62
7
  6
CONTINUOUS
 10
267.8706839165
 20
60.5830644574
 11
267.9228364269
 21
60.6453242926
  0
LINE
  5
550
100
AcDbEntity
  8
RUNDUNGEN
100
AcDbLine
 62
7
  6
CONTINUOUS
 10
249.6473818133
 20
99.5113321665
 11
247.5866796791
 21
100.3824476114
  0
LINE
  5
551
100
AcDbEntity
  8
0
100
AcDbLine
 62
7
  6
CONTINUOUS
 10
264.2316207741
 20
60.4204212864
 11
264.2090081193
 21
60.4954180185
  0
LINE
  5
552
100
AcDbEntity
  8
0
100
AcDbLine
 62
7
  6
CONTINUOUS
 10
263.4057371477
 20
60.542083983
 11
263.4057371477
 21
60.4544010492
  0
LINE
  5
553
100
AcDbEntity
  8
0
100
AcDbLine
 62
7
  6
CONTINUOUS
 10
263.5379501153
 20
60.0171574689
 11
263.5379501153
 21
59.9278275531
  0
LINE
  5
554
100
AcDbEntity
  8
0
100
AcDbLine
 62
7
  6
CONTINUOUS
 10
263.6630371689
 20
61.4116281916
 11
263.6630371689
 21
60.6595733932
  0
LINE
  5
555
100
AcDbEntity
  8
0
100
AcDbLine
 62
7
  6
CONTINUOUS
 10
263.9620986854
 20
61.3606804583
 11
263.9620986854
 21
60.6086256599
  0
LINE
  5
556
100
AcDbEntity
  8
0
100
AcDbLine
 62
7
  6
CONTINUOUS
 10
264.2316207741
 20
60.4954180185
 11
264.2316207741
 21
60.4204212864
  0
LINE
  5
557
100
AcDbEntity
  8
0
100
AcDbLine
 62
7
  6
CONTINUOUS
 10
264.297628178
 20
61.6592425345
 11
264.297628178
 21
60.9071877361
  0
LINE
  5
558
100
AcDbEntity
  8
0
100
AcDbLine
 62
7
  6
CONTINUOUS
 10
264.7619058426
 20
60.843503033
 11
264.7619058426
 21
60.543516016
  0
LINE
  5
559
100
AcDbEntity
  8
0
100
AcDbLine
 62
7
  6
CONTINUOUS
 10
265.0748222527
 20
61.6691296955
 11
265.0748222527
 21
60.9170748972
  0
LINE
  5
55A
100
AcDbEntity
  8
0
100
AcDbLine
 62
7
  6
CONTINUOUS
 10
265.2626514834
 20
60.8349972098
 11
265.2626514834
 21
60.5293541054
  0
LINE
  5
55B
100
AcDbEntity
  8
0
100
AcDbLine
 62
7
  6
CONTINUOUS
 10
266.0763131064
 20
61.6408059473
 11
266.0763131064
 21
60.8887511489
  0
LINE
  5
55C
100
AcDbEntity
  8
0
100
AcDbLine
 62
7
  6
CONTINUOUS
 10
266.1076843781
 20
60.4579757891
 11
266.1076843781
 21
60.3142509245
  0
LINE
  5
55D
100
AcDbEntity
  8
0
100
AcDbLine
 62
7
  6
CONTINUOUS
 10
266.1146111511
 20
60.7878949599
 11
266.1146111511
 21
60.5265042967
  0
LINE
  5
55E
100
AcDbEntity
  8
0
100
AcDbLine
 62
7
  6
CONTINUOUS
 10
266.4658260977
 20
60.7500696409
 11
266.4658260977
 21
60.5378163415
  0
LINE
  5
55F
100
AcDbEntity
  8
0
100
AcDbLine
 62
7
  6
CONTINUOUS
 10
266.7265895054
 20
61.60117017
 11
266.7265895054
 21
60.8491153717
  0
LINE
  5
560
100
AcDbEntity
  8
0
100
AcDbLine
 62
7
  6
CONTINUOUS
 10
266.8101132875
 20
60.4741315656
 11
266.8101132875
 21
60.3368749825
  0
LINE
  5
561
100
AcDbEntity
  8
0
100
AcDbLine
 62
7
  6
CONTINUOUS
 10
266.8431170215
 20
60.6741791993
 11
266.8431170215
 21
60.5802582517
  0
LINE
  5
562
100
AcDbEntity
  8
0
100
AcDbLine
 62
7
  6
CONTINUOUS
 10
267.4082363205
 20
60.5094926662
 11
267.4082363205
 21
60.2349795158
  0
LINE
  5
563
100
AcDbEntity
  8
0
100
AcDbLine
 62
7
  6
CONTINUOUS
 10
267.4255546005
 20
61.5176676148
 11
267.4255546005
 21
60.7656128164
  0
LINE
  5
564
100
AcDbEntity
  8
0
100
AcDbLine
 62
7
  6
CONTINUOUS
 10
267.5750857865
 20
61.4921936752
 11
267.5750857865
 21
60.7401388769
  0
LINE
  5
565
100
AcDbEntity
  8
0
100
AcDbLine
 62
7
  6
CONTINUOUS
 10
267.9228364269
 20
61.397379091
 11
267.9228364269
 21
60.6453242926
  0
LINE
  5
566
100
AcDbEntity
  8
0
100
AcDbLine
 62
7
  6
CONTINUOUS
 10
268.6044840976
 20
60.1977835175
 11
268.6044840976
 21
60.031188291
  0
LINE
  5
567
100
AcDbEntity
  8
0
100
AcDbLine
 62
7
  6
CONTINUOUS
 10
268.8130946312
 20
61.0322824459
 11
268.8130946312
 21
60.2802276476
  0
LINE
  5
568
100
AcDbEntity
  8
0
100
AcDbLine
 62
7
  6
CONTINUOUS
 10
269.1869221686
 20
60.96859767
 11
269.1869221686
 21
60.2165428716
  0
LINE
  5
569
100
AcDbEntity
  8
0
100
AcDbLine
 62
7
  6
CONTINUOUS
 10
280.0907780397
 20
78.4278275531
 11
280.0907780397
 21
68.4278275531
  0
LWPOLYLINE
  5
56A
100
AcDbEntity
  8
RUNDUNGEN
100
AcDbPolyline
 62
7
  6
CONTINUOUS
 90
17
 70
0
 10
284.3376404968
 20
83.4592432461
 10
284.3343574526
 20
83.610409751
 10
284.3010498939
 20
83.9626176989
 10
284.2321780508
 20
84.3094523356
 10
284.128485804
 20
84.6473167278
 10
283.9910872891
 20
84.9727045236
 10
283.8214329719
 20
85.2822790342
 10
283.6213129792
 20
85.5728506425
 10
283.3928146416
 20
85.841449461
 10
283.1383179456
 20
86.0853230739
 10
282.8604709359
 20
86.3019700046
 10
282.5621636879
 20
86.4891668685
 10
282.2464955258
 20
86.6449942943
 10
281.9167019972
 20
86.7678688662
 10
281.5763575293
 20
86.8564874628
 10
281.2291628066
 20
86.9099610792
 10
280.878726945
 20
86.9278275531
  0
LINE
  5
56B
100
AcDbEntity
  8
RUNDUNGEN
100
AcDbLine
 62
7
  6
CONTINUOUS
 10
284.337640516
 20
63.4278275531
 11
284.337640516
 21
83.4599148976
  0
ARC
  5
56C
100
AcDbEntity
  8
RUNDUNGEN
100
AcDbCircle
 62
7
  6
CONTINUOUS
 10
177.6902629827
 20
221.8485559662
 40
5.0
100
AcDbArc
 50
198.5
 51
270.0
  0
ARC
  5
56D
100
AcDbEntity
  8
0
100
AcDbCircle
 62
7
  6
CONTINUOUS
 10
177.1665090098
 20
240.9514657842
 40
4.0
100
AcDbArc
 50
84.2608295227
 51
269.7230171587
  0
ARC
  5
56E
100
AcDbEntity
  8
0
100
AcDbCircle
 62
7
  6
CONTINUOUS
 10
177.1665090098
 20
240.9514657842
 40
2.8
100
AcDbArc
 50
81.7867892983
 51
278.2132107017
  0
ARC
  5
56F
100
AcDbEntity
  8
RUNDUNGEN
100
AcDbCircle
 62
7
  6
CONTINUOUS
 10
138.55141668
 20
293.8739788913
 40
38.0
100
AcDbArc
 50
336.5
 51
24.4955873412
  0
ARC
  5
570
100
AcDbEntity
  8
RUNDUNGEN
100
AcDbCircle
 62
7
  6
CONTINUOUS
 10
186.0907780397
 20
221.8485559662
 40
5.0
100
AcDbArc
 50
270.0
 51
0.0000698328
  0
ARC
  5
571
100
AcDbEntity
  8
RUNDUNGEN
100
AcDbCircle
 62
7
  6
CONTINUOUS
 10
188.8439155635
 20
251.5447083091
 40
25.0
100
AcDbArc
 50
156.5004917697
 51
198.5000230973
  0
ARC
  5
572
100
AcDbEntity
  8
0
100
AcDbCircle
 62
7
  6
CONTINUOUS
 10
183.9665090098
 20
240.9514657842
 40
4.0
100
AcDbArc
 50
84.2608295227
 51
269.7230171587
  0
ARC
  5
573
100
AcDbEntity
  8
0
100
AcDbCircle
 62
7
  6
CONTINUOUS
 10
183.9665090098
 20
240.9514657842
 40
2.8
100
AcDbArc
 50
192.3736251162
 51
278.2132107017
  0
ARC
  5
574
100
AcDbEntity
  8
0
100
AcDbCircle
 62
7
  6
CONTINUOUS
 10
183.9665090098
 20
240.9514657842
 40
2.8
100
AcDbArc
 50
81.7867892983
 51
167.4447123387
  0
ARC
  5
575
100
AcDbEntity
  8
RUNDUNGEN
100
AcDbCircle
 62
7
  6
CONTINUOUS
 10
194.5907780397
 20
254.2985559662
 40
2.0
100
AcDbArc
 50
90.0
 51
180.0
  0
ARC
  5
576
100
AcDbEntity
  8
RUNDUNGEN
100
AcDbCircle
 62
7
  6
CONTINUOUS
 10
192.8907780397
 20
244.6485559662
 40
1.8
100
AcDbArc
 50
180.0
 51
260.390637986
  0
ARC
  5
577
100
AcDbEntity
  8
RUNDUNGEN
100
AcDbCircle
 62
7
  6
CONTINUOUS
 10
189.2907780397
 20
246.7985559662
 40
1.8
100
AcDbArc
 50
0.0
 51
90.0
  0
ARC
  5
578
100
AcDbEntity
  8
RUNDUNGEN
100
AcDbCircle
 62
7
  6
CONTINUOUS
 10
222.0907780397
 20
253.5685454966
 40
35.0
100
AcDbArc
 50
359.9998020367
 51
4.4684670741
  0
ARC
  5
579
100
AcDbEntity
  8
RUNDUNGEN
100
AcDbCircle
 62
7
  6
CONTINUOUS
 10
222.0907780397
 20
253.5685454966
 40
35.0
100
AcDbArc
 50
8.5872154348
 51
23.5000153637
  0
ARC
  5
57A
100
AcDbEntity
  8
0
100
AcDbCircle
 62
7
  6
CONTINUOUS
 10
204.4647696415
 20
257.4053419951
 40
1.6932139809
100
AcDbArc
 50
89.9938632731
 51
94.9924242618
  0
ARC
  5
57B
100
AcDbEntity
  8
RUNDUNGEN
100
AcDbCircle
 62
7
  6
CONTINUOUS
 10
203.5907780397
 20
257.7985559662
 40
1.5
100
AcDbArc
 50
270.0
 51
356.1774462707
  0
ARC
  5
57C
100
AcDbEntity
  8
RUNDUNGEN
100
AcDbCircle
 62
7
  6
CONTINUOUS
 10
206.5907780397
 20
257.7985559662
 40
1.5
100
AcDbArc
 50
269.9980858869
 51
355.9137272402
  0
ARC
  5
57D
100
AcDbEntity
  8
RUNDUNGEN
100
AcDbCircle
 62
7
  6
CONTINUOUS
 10
209.5841039492
 20
257.5985559662
 40
1.5
100
AcDbArc
 50
90.0
 51
176.1774462707
  0
ARC
  5
57E
100
AcDbEntity
  8
RUNDUNGEN
100
AcDbCircle
 62
7
  6
CONTINUOUS
 10
206.5841039492
 20
257.5985559662
 40
1.5
100
AcDbArc
 50
90.0
 51
176.1774462707
  0
ARC
  5
57F
100
AcDbEntity
  8
0
100
AcDbCircle
 62
7
  6
CONTINUOUS
 10
204.3341039492
 20
257.5985559662
 40
1.5
100
AcDbArc
 50
90.0
 51
126.8044543621
  0
ARC
  5
580
100
AcDbEntity
  8
RUNDUNGEN
100
AcDbCircle
 62
7
  6
CONTINUOUS
 10
209.393819788
 20
272.8485559662
 40
12.0
100
AcDbArc
 50
90.0
 51
156.5000256511
  0
ARC
  5
581
100
AcDbEntity
  8
RUNDUNGEN
100
AcDbCircle
 62
7
  6
CONTINUOUS
 10
190.4931530538
 20
262.8985559662
 40
1.8
100
AcDbArc
 50
270.0
 51
345.3133304365
  0
ARC
  5
582
100
AcDbEntity
  8
RUNDUNGEN
100
AcDbCircle
 62
7
  6
CONTINUOUS
 10
172.6755975138
 20
302.134622164
 40
10.0
100
AcDbArc
 50
336.4999999981
 51
15.000000001
  0
ARC
  5
583
100
AcDbEntity
  8
RUNDUNGEN
100
AcDbCircle
 62
7
  6
CONTINUOUS
 10
184.0229328688
 20
337.0598561916
 40
10.0
100
AcDbArc
 50
153.0
 51
195.0000000001
  0
ARC
  5
584
100
AcDbEntity
  8
RUNDUNGEN
100
AcDbCircle
 62
7
  6
CONTINUOUS
 10
197.1324761063
 20
362.788783472
 40
10.0
100
AcDbArc
 50
111.0
 51
153.0000000001
  0
ARC
  5
585
100
AcDbEntity
  8
RUNDUNGEN
100
AcDbCircle
 62
7
  6
CONTINUOUS
 10
226.0907780397
 20
253.5685454966
 40
35.0
100
AcDbArc
 50
175.5315329177
 51
180.0001935093
  0
ARC
  5
586
100
AcDbEntity
  8
RUNDUNGEN
100
AcDbCircle
 62
7
  6
CONTINUOUS
 10
226.0907780397
 20
253.5685454966
 40
35.0
100
AcDbArc
 50
156.5000036044
 51
171.4127845607
  0
ARC
  5
587
100
AcDbEntity
  8
0
100
AcDbCircle
 62
7
  6
CONTINUOUS
 10
243.7167859519
 20
257.4052926751
 40
1.6932633008
100
AcDbArc
 50
85.0193553355
 51
90.0061201029
  0
ARC
  5
588
100
AcDbEntity
  8
RUNDUNGEN
100
AcDbCircle
 62
7
  6
CONTINUOUS
 10
241.5907780397
 20
257.7985559662
 40
1.5
100
AcDbArc
 50
184.0855899509
 51
269.9978382703
  0
ARC
  5
589
100
AcDbEntity
  8
0
100
AcDbCircle
 62
7
  6
CONTINUOUS
 10
243.8474521303
 20
257.5985559662
 40
1.5
100
AcDbArc
 50
53.1955453335
 51
90.0
  0
ARC
  5
58A
100
AcDbEntity
  8
RUNDUNGEN
100
AcDbCircle
 62
7
  6
CONTINUOUS
 10
241.5974521303
 20
257.5985559662
 40
1.5
100
AcDbArc
 50
3.8225537293
 51
90.0
  0
ARC
  5
58B
100
AcDbEntity
  8
RUNDUNGEN
100
AcDbCircle
 62
7
  6
CONTINUOUS
 10
238.5974521303
 20
257.5985559662
 40
1.5
100
AcDbArc
 50
3.8225537293
 51
90.0
  0
ARC
  5
58C
100
AcDbEntity
  8
RUNDUNGEN
100
AcDbCircle
 62
7
  6
CONTINUOUS
 10
262.0907780397
 20
221.8485559662
 40
5.0
100
AcDbArc
 50
180.0
 51
270.0
  0
ARC
  5
58D
100
AcDbEntity
  8
RUNDUNGEN
100
AcDbCircle
 62
7
  6
CONTINUOUS
 10
259.337640516
 20
251.5447083091
 40
25.0
100
AcDbArc
 50
341.4999790043
 51
23.4999709979
  0
ARC
  5
58E
100
AcDbEntity
  8
RUNDUNGEN
100
AcDbCircle
 62
7
  6
CONTINUOUS
 10
253.5907780397
 20
254.2985559662
 40
2.0
100
AcDbArc
 50
0.0
 51
90.0
  0
ARC
  5
58F
100
AcDbEntity
  8
RUNDUNGEN
100
AcDbCircle
 62
7
  6
CONTINUOUS
 10
255.2907780397
 20
244.6485559662
 40
1.8
100
AcDbArc
 50
279.6093620214
 51
360.0
  0
ARC
  5
590
100
AcDbEntity
  8
RUNDUNGEN
100
AcDbCircle
 62
7
  6
CONTINUOUS
 10
258.8907780397
 20
246.7985559662
 40
1.8
100
AcDbArc
 50
90.0
 51
180.0
  0
ARC
  5
591
100
AcDbEntity
  8
RUNDUNGEN
100
AcDbCircle
 62
7
  6
CONTINUOUS
 10
244.5907780397
 20
257.7985559662
 40
1.5
100
AcDbArc
 50
183.8225537293
 51
270.0
  0
ARC
  5
592
100
AcDbEntity
  8
RUNDUNGEN
100
AcDbCircle
 62
7
  6
CONTINUOUS
 10
238.7877362915
 20
272.8485559662
 40
12.0
100
AcDbArc
 50
23.4999748516
 51
90.0
  0
ARC
  5
593
100
AcDbEntity
  8
RUNDUNGEN
100
AcDbCircle
 62
7
  6
CONTINUOUS
 10
257.6884030256
 20
262.8985559662
 40
1.8
100
AcDbArc
 50
194.686672991
 51
269.9999997983
  0
ARC
  5
594
100
AcDbEntity
  8
RUNDUNGEN
100
AcDbCircle
 62
7
  6
CONTINUOUS
 10
270.4912930968
 20
221.8485559662
 40
5.0
100
AcDbArc
 50
270.0
 51
341.5
  0
ARC
  5
595
100
AcDbEntity
  8
RUNDUNGEN
100
AcDbCircle
 62
7
  6
CONTINUOUS
 10
309.6301393995
 20
293.8739788913
 40
38.0
100
AcDbArc
 50
155.5044126588
 51
203.5
  0
ARC
  5
596
100
AcDbEntity
  8
RUNDUNGEN
100
AcDbCircle
 62
7
  6
CONTINUOUS
 10
224.0907780397
 20
332.8485559662
 40
56.0
100
AcDbArc
 50
335.5044126588
 51
204.4955873412
  0
CIRCLE
  5
597
100
AcDbEntity
  8
RUNDUNGEN
100
AcDbCircle
 62
7
  6
CONTINUOUS
 10
224.0907780397
 20
332.8485559662
 40
33.0
  0
ARC
  5
598
100
AcDbEntity
  8
RUNDUNGEN
100
AcDbCircle
 62
7
  6
CONTINUOUS
 10
224.0907780397
 20
373.1371060298
 40
10.0
100
AcDbArc
 50
69.0
 51
111.0000000001
  0
ARC
  5
599
100
AcDbEntity
  8
RUNDUNGEN
100
AcDbCircle
 62
7
  6
CONTINUOUS
 10
251.0490799731
 20
362.788783472
 40
10.0
100
AcDbArc
 50
27.0
 51
69.0000000001
  0
ARC
  5
59A
100
AcDbEntity
  8
RUNDUNGEN
100
AcDbCircle
 62
7
  6
CONTINUOUS
 10
264.1586232107
 20
337.0598561916
 40
10.0
100
AcDbArc
 50
345.0
 51
27.0000000001
  0
ARC
  5
59B
100
AcDbEntity
  8
RUNDUNGEN
100
AcDbCircle
 62
7
  6
CONTINUOUS
 10
275.5059585657
 20
302.134622164
 40
10.0
100
AcDbArc
 50
164.9999999981
 51
203.500000001
  0
ARC
  5
59C
100
AcDbEntity
  8
RUNDUNGEN
100
AcDbCircle
 62
7
  6
CONTINUOUS
 10
339.5936705875
 20
284.2923924144
 40
12.0
100
AcDbArc
 50
355.7634637725
 51
359.9995738819
  0
ARC
  5
59D
100
AcDbEntity
  8
RUNDUNGEN
100
AcDbCircle
 62
7
  6
CONTINUOUS
 10
386.5936705875
 20
284.2923924144
 40
12.0
100
AcDbArc
 50
180.0000089475
 51
184.2364161656
  0
ARC
  5
59E
100
AcDbEntity
  8
RUNDUNGEN
100
AcDbCircle
 62
7
  6
CONTINUOUS
 10
361.5936705875
 20
256.404719518
 40
12.0
100
AcDbArc
 50
175.7636052009
 51
179.9977601094
  0
ARC
  5
59F
100
AcDbEntity
  8
RUNDUNGEN
100
AcDbCircle
 62
7
  6
CONTINUOUS
 10
364.5936705875
 20
256.404719518
 40
12.0
100
AcDbArc
 50
0.0
 51
4.2363700755
  0
ARC
  5
5A0
100
AcDbEntity
  8
RUNDUNGEN
100
AcDbCircle
 62
7
  6
CONTINUOUS
 10
368.0936705875
 20
384.3485559662
 40
4.5
100
AcDbArc
 50
0.0
 51
90.0
  0
ARC
  5
5A1
100
AcDbEntity
  8
RUNDUNGEN
100
AcDbCircle
 62
7
  6
CONTINUOUS
 10
358.0936705875
 20
384.3485559662
 40
4.5
100
AcDbArc
 50
90.0
 51
180.0
  0
ARC
  5
5A2
100
AcDbEntity
  8
RUNDUNGEN
100
AcDbCircle
 62
7
  6
CONTINUOUS
 10
353.0936705875
 20
220.3485559662
 40
3.5
100
AcDbArc
 50
180.0
 51
270.0
  0
ARC
  5
5A3
100
AcDbEntity
  8
RUNDUNGEN
100
AcDbCircle
 62
7
  6
CONTINUOUS
 10
373.0936705875
 20
220.3485559662
 40
3.5
100
AcDbArc
 50
270.0
 51
360.0
  0
ARC
  5
5A4
100
AcDbEntity
  8
RUNDUNGEN
100
AcDbCircle
 62
7
  6
CONTINUOUS
 10
392.5936705875
 20
257.0985559662
 40
2.0
100
AcDbArc
 50
0.0
 51
90.0
  0
ARC
  5
5A5
100
AcDbEntity
  8
RUNDUNGEN
100
AcDbCircle
 62
7
  6
CONTINUOUS
 10
333.5936705875
 20
257.0985559662
 40
2.0
100
AcDbArc
 50
90.0
 51
180.0
  0
ARC
  5
5A6
100
AcDbEntity
  8
RUNDUNGEN
100
AcDbCircle
 62
7
  6
CONTINUOUS
 10
352.5936705875
 20
382.1371060298
 40
1.0
100
AcDbArc
 50
90.0
 51
180.0
  0
ARC
  5
5A7
100
AcDbEntity
  8
RUNDUNGEN
100
AcDbCircle
 62
7
  6
CONTINUOUS
 10
373.5936705875
 20
382.1371060298
 40
1.0
100
AcDbArc
 50
0.0
 51
90.0
  0
ARC
  5
5A8
100
AcDbEntity
  8
RUNDUNGEN
100
AcDbCircle
 62
7
  6
CONTINUOUS
 10
352.5936705875
 20
384.1371060298
 40
1.0
100
AcDbArc
 50
270.0
 51
360.0
  0
ARC
  5
5A9
100
AcDbEntity
  8
RUNDUNGEN
100
AcDbCircle
 62
7
  6
CONTINUOUS
 10
373.5936705875
 20
384.1371060298
 40
1.0
100
AcDbArc
 50
180.0
 51
270.0
  0
ARC
  5
5AA
100
AcDbEntity
  8
RUNDUNGEN
100
AcDbCircle
 62
7
  6
CONTINUOUS
 10
202.5907780397
 20
56.4845617672
 40
10.0
100
AcDbArc
 50
180.0
 51
246.0674835966
  0
ARC
  5
5AB
100
AcDbEntity
  8
RUNDUNGEN
100
AcDbCircle
 62
7
  6
CONTINUOUS
 10
172.5907780397
 20
68.4278275531
 40
4.5
100
AcDbArc
 50
180.0
 51
270.0
  0
ARC
  5
5AC
100
AcDbEntity
  8
RUNDUNGEN
100
AcDbCircle
 62
7
  6
CONTINUOUS
 10
188.3907754654
 20
63.4278275531
 40
3.5000006117
100
AcDbArc
 50
270.0785714744
 51
308.3486425139
  0
ARC
  5
5AD
100
AcDbEntity
  8
RUNDUNGEN
100
AcDbCircle
 62
7
  6
CONTINUOUS
 10
167.3439155666
 20
63.4278275531
 40
3.5
100
AcDbArc
 50
180.0
 51
270.0
  0
ARC
  5
5AE
100
AcDbEntity
  8
RUNDUNGEN
100
AcDbCircle
 62
7
  6
CONTINUOUS
 10
187.5907780397
 20
63.4278275531
 40
3.5
100
AcDbArc
 50
269.9991761012
 51
300.5973379212
  0
ARC
  5
5AF
100
AcDbEntity
  8
RUNDUNGEN
100
AcDbCircle
 62
7
  6
CONTINUOUS
 10
184.0389060488
 20
61.7278275531
 40
1.7999803945
100
AcDbArc
 50
269.9986992724
 51
292.7207356722
  0
ARC
  5
5B0
100
AcDbEntity
  8
RUNDUNGEN
100
AcDbCircle
 62
7
  6
CONTINUOUS
 10
175.0229328688
 20
62.9278275531
 40
1.0
100
AcDbArc
 50
180.0
 51
270.0
  0
ARC
  5
5B1
100
AcDbEntity
  8
RUNDUNGEN
100
AcDbCircle
 62
7
  6
CONTINUOUS
 10
173.0229328688
 20
62.9278275531
 40
1.0
100
AcDbArc
 50
0.0
 51
90.0
  0
ARC
  5
5B2
100
AcDbEntity
  8
RUNDUNGEN
100
AcDbCircle
 62
7
  6
CONTINUOUS
 10
202.5907780397
 20
90.371093339
 40
10.0
100
AcDbArc
 50
113.9325164034
 51
180.0
  0
ARC
  5
5B3
100
AcDbEntity
  8
RUNDUNGEN
100
AcDbCircle
 62
7
  6
CONTINUOUS
 10
172.5907780397
 20
78.4278275531
 40
4.5
100
AcDbArc
 50
90.0
 51
180.0
  0
ARC
  5
5B4
100
AcDbEntity
  8
RUNDUNGEN
100
AcDbCircle
 62
7
  6
CONTINUOUS
 10
167.3439174213
 20
83.4278273256
 40
3.5000002276
100
AcDbArc
 50
90.0000000019
 51
180.0000000018
  0
ARC
  5
5B5
100
AcDbEntity
  8
RUNDUNGEN
100
AcDbCircle
 62
7
  6
CONTINUOUS
 10
187.5907780397
 20
83.4278275531
 40
3.5
100
AcDbArc
 50
63.876472018
 51
90.0005684664
  0
ARC
  5
5B6
100
AcDbEntity
  8
RUNDUNGEN
100
AcDbCircle
 62
7
  6
CONTINUOUS
 10
184.038871531
 20
85.1278275531
 40
1.7999969547
100
AcDbArc
 50
58.155539927
 51
90.000202053
  0
ARC
  5
5B7
100
AcDbEntity
  8
RUNDUNGEN
100
AcDbCircle
 62
7
  6
CONTINUOUS
 10
175.0229328688
 20
83.9278275531
 40
1.0
100
AcDbArc
 50
90.0
 51
180.0
  0
ARC
  5
5B8
100
AcDbEntity
  8
RUNDUNGEN
100
AcDbCircle
 62
7
  6
CONTINUOUS
 10
173.0229328688
 20
83.9278275531
 40
1.0
100
AcDbArc
 50
270.0
 51
360.0
  0
ARC
  5
5B9
100
AcDbEntity
  8
RUNDUNGEN
100
AcDbCircle
 62
7
  6
CONTINUOUS
 10
224.0907780397
 20
41.9278275531
 40
63.0
100
AcDbArc
 50
66.0674835966
 51
113.9325164034
  0
ARC
  5
5BA
100
AcDbEntity
  8
RUNDUNGEN
100
AcDbCircle
 62
7
  6
CONTINUOUS
 10
245.5907780397
 20
56.4845617672
 40
10.0
100
AcDbArc
 50
293.9325164034
 51
360.0
  0
ARC
  5
5BB
100
AcDbEntity
  8
RUNDUNGEN
100
AcDbCircle
 62
7
  6
CONTINUOUS
 10
260.5907780397
 20
63.4278275531
 40
3.5
100
AcDbArc
 50
238.0769324622
 51
270.0
  0
ARC
  5
5BC
100
AcDbEntity
  8
RUNDUNGEN
100
AcDbCircle
 62
7
  6
CONTINUOUS
 10
264.1426908961
 20
61.7278275531
 40
1.8
100
AcDbArc
 50
251.466982075
 51
270.0
  0
ARC
  5
5BD
100
AcDbEntity
  8
RUNDUNGEN
100
AcDbCircle
 62
7
  6
CONTINUOUS
 10
280.8376404626
 20
63.4278275531
 40
3.5
100
AcDbArc
 50
270.0
 51
360.0
  0
ARC
  5
5BE
100
AcDbEntity
  8
RUNDUNGEN
100
AcDbCircle
 62
7
  6
CONTINUOUS
 10
273.1586232107
 20
62.9278275531
 40
1.0
100
AcDbArc
 50
270.0
 51
360.0
  0
ARC
  5
5BF
100
AcDbEntity
  8
RUNDUNGEN
100
AcDbCircle
 62
7
  6
CONTINUOUS
 10
275.1586232107
 20
62.9278275531
 40
1.0
100
AcDbArc
 50
90.0
 51
180.0
  0
ARC
  5
5C0
100
AcDbEntity
  8
RUNDUNGEN
100
AcDbCircle
 62
7
  6
CONTINUOUS
 10
275.5907780397
 20
68.4278275531
 40
4.5
100
AcDbArc
 50
270.0
 51
360.0
  0
ARC
  5
5C1
100
AcDbEntity
  8
0
100
AcDbCircle
 62
7
  6
CONTINUOUS
 10
224.0907780397
 20
73.4278275531
 40
29.0
100
AcDbArc
 50
23.5538655366
 51
156.4460689717
  0
ARC
  5
5C2
100
AcDbEntity
  8
0
100
AcDbCircle
 62
7
  6
CONTINUOUS
 10
224.0907780397
 20
73.4278275531
 40
29.0
100
AcDbArc
 50
203.5539310411
 51
336.4461344514
  0
ARC
  5
5C3
100
AcDbEntity
  8
BEZUGSACHSEN
100
AcDbCircle
 62
7
  6
CONTINUOUS
 10
224.0907780397
 20
73.4278275531
 40
18.0
100
AcDbArc
 50
219.7186631723
 51
320.2813368277
  0
ARC
  5
5C4
100
AcDbEntity
  8
BEZUGSACHSEN
100
AcDbCircle
 62
7
  6
CONTINUOUS
 10
224.0907780397
 20
73.4278275531
 40
18.0
100
AcDbArc
 50
39.7186631726
 51
140.281336809
  0
ARC
  5
5C5
100
AcDbEntity
  8
RUNDUNGEN
100
AcDbCircle
 62
7
  6
CONTINUOUS
 10
224.0907780397
 20
104.9278275531
 40
63.0
100
AcDbArc
 50
246.0674835966
 51
293.9325164034
  0
ARC
  5
5C6
100
AcDbEntity
  8
RUNDUNGEN
100
AcDbCircle
 62
7
  6
CONTINUOUS
 10
245.5907780397
 20
90.371093339
 40
10.0
100
AcDbArc
 50
0.0
 51
66.0674835966
  0
ARC
  5
5C7
100
AcDbEntity
  8
RUNDUNGEN
100
AcDbCircle
 62
7
  6
CONTINUOUS
 10
275.5907780397
 20
78.4278275531
 40
4.5
100
AcDbArc
 50
0.0
 51
90.0
  0
ARC
  5
5C8
100
AcDbEntity
  8
RUNDUNGEN
100
AcDbCircle
 62
7
  6
CONTINUOUS
 10
260.5907780394
 20
83.4278275531
 40
3.4999999998
100
AcDbArc
 50
89.9999999942
 51
121.9225154597
  0
ARC
  5
5C9
100
AcDbEntity
  8
RUNDUNGEN
100
AcDbCircle
 62
7
  6
CONTINUOUS
 10
264.1426908961
 20
85.1278275531
 40
1.8
100
AcDbArc
 50
90.0
 51
126.7478682971
  0
ARC
  5
5CA
100
AcDbEntity
  8
RUNDUNGEN
100
AcDbCircle
 62
7
  6
CONTINUOUS
 10
273.1586232107
 20
83.9278275531
 40
1.0
100
AcDbArc
 50
0.0
 51
90.0
  0
ARC
  5
5CB
100
AcDbEntity
  8
RUNDUNGEN
100
AcDbCircle
 62
7
  6
CONTINUOUS
 10
275.1586232107
 20
83.9278275531
 40
1.0
100
AcDbArc
 50
180.0
 51
270.0
  0
SPLINE
  5
5CC
100
AcDbEntity
  8
0
100
AcDbSpline
 62
7
  6
CONTINUOUS
 70
0
 71
3
 72
11
 73
7
 74
0
 42
0.0000001
 43
0.0000001
 44
0.0000000001
 40
0.0
 40
0.0
 40
0.0
 40
0.0
 40
0.2499277874
 40
0.4998781123
 40
0.7498810839
 40
1.0
 40
1.0
 40
1.0
 40
1.0
 10
245.270844606
 20
257.6985559662
 30
0.0
 10
245.2586692939
 20
257.8769682432
 30
0.0
 10
245.1674142912
 20
258.2326465956
 30
0.0
 10
244.8499612331
 20
258.67936091
 30
0.0
 10
244.3966139779
 20
258.9866739443
 30
0.0
 10
244.042079664
 20
259.076598446
 30
0.0
 10
243.8637937322
 20
259.0921623554
 30
0.0
  0
SPLINE
  5
5CD
100
AcDbEntity
  8
0
100
AcDbSpline
 62
7
  6
CONTINUOUS
 70
0
 71
3
 72
11
 73
7
 74
0
 42
0.0000001
 43
0.0000001
 44
0.0000000001
 40
0.0
 40
0.0
 40
0.0
 40
0.0
 40
0.2501215201
 40
0.5001259827
 40
0.7500745137
 40
1.0
 40
1.0
 40
1.0
 40
1.0
 10
204.3174193482
 20
259.0921322832
 30
0.0
 10
204.1391629429
 20
259.0765339183
 30
0.0
 10
203.784700667
 20
258.9865555935
 30
0.0
 10
203.3314709752
 20
258.6792258778
 30
0.0
 10
203.0141128956
 20
258.2325572692
 30
0.0
 10
202.9228847497
 20
257.8769384107
 30
0.0
 10
202.9107114735
 20
257.6985559662
 30
0.0
  0
SPLINE
  5
5CE
100
AcDbEntity
  8
BEZUGSACHSEN
100
AcDbSpline
 62
7
  6
CONTINUOUS
 70
0
 71
3
 72
11
 73
7
 74
0
 42
0.0000001
 43
0.0000001
 44
0.0000000001
 40
0.0
 40
0.0
 40
0.0
 40
0.0
 40
0.2616355141
 40
0.5144890283
 40
0.7595899618
 40
1.0
 40
1.0
 40
1.0
 40
1.0
 10
203.3061683489
 20
279.7408608116
 30
0.0
 10
203.7215298136
 20
279.9806698651
 30
0.0
 10
204.5571616706
 20
280.4210783012
 30
0.0
 10
205.8528682535
 20
280.9398268108
 30
0.0
 10
207.1699440539
 20
281.2717317424
 30
0.0
 10
208.061612224
 20
281.3485559663
 30
0.0
 10
208.5023207715
 20
281.3485559663
 30
0.0
  0
SPLINE
  5
5CF
100
AcDbEntity
  8
BEZUGSACHSEN
100
AcDbSpline
 62
7
  6
CONTINUOUS
 70
0
 71
3
 72
11
 73
7
 74
0
 42
0.0000001
 43
0.0000001
 44
0.0000000001
 40
0.0
 40
0.0
 40
0.0
 40
0.0
 40
0.2404100669
 40
0.4855110144
 40
0.7383644905
 40
1.0
 40
1.0
 40
1.0
 40
1.0
 10
208.5023207715
 20
281.3485559663
 30
0.0
 10
208.9430293717
 20
281.3485559662
 30
0.0
 10
209.8346976203
 20
281.2717317255
 30
0.0
 10
211.1517734223
 20
280.9398267639
 30
0.0
 10
212.4474799458
 20
280.4210782532
 30
0.0
 10
213.283111737
 20
279.9806698608
 30
0.0
 10
213.6984731943
 20
279.7408608116
 30
0.0
  0
SPLINE
  5
5D0
100
AcDbEntity
  8
BEZUGSACHSEN
100
AcDbSpline
 62
7
  6
CONTINUOUS
 70
0
 71
3
 72
10
 73
6
 74
0
 42
0.0000001
 43
0.0000001
 44
0.0000000001
 40
0.0
 40
0.0
 40
0.0
 40
0.0
 40
0.4998915798
 40
0.7499458338
 40
1.0
 40
1.0
 40
1.0
 40
1.0
 10
213.6984731943
 20
279.7408608116
 30
0.0
 10
215.386959326
 20
280.228284773
 30
0.0
 10
217.9611290624
 20
280.8376507367
 30
0.0
 10
221.4525545388
 20
281.2735435738
 30
0.0
 10
223.2116809864
 20
281.3485559661
 30
0.0
 10
224.0907780397
 20
281.3485559662
 30
0.0
  0
SPLINE
  5
5D1
100
AcDbEntity
  8
BEZUGSACHSEN
100
AcDbSpline
 62
7
  6
CONTINUOUS
 70
0
 71
3
 72
10
 73
6
 74
0
 42
0.0000001
 43
0.0000001
 44
0.0000000001
 40
0.0
 40
0.0
 40
0.0
 40
0.0
 40
0.2500541894
 40
0.5001084567
 40
1.0
 40
1.0
 40
1.0
 40
1.0
 10
224.0907780397
 20
281.3485559662
 30
0.0
 10
224.9698751747
 20
281.3485559661
 30
0.0
 10
226.7290017508
 20
281.2735435576
 30
0.0
 10
230.2204272229
 20
280.8376506869
 30
0.0
 10
232.7945968768
 20
280.2282847374
 30
0.0
 10
234.4830828851
 20
279.7408608116
 30
0.0
  0
SPLINE
  5
5D2
100
AcDbEntity
  8
BEZUGSACHSEN
100
AcDbSpline
 62
7
  6
CONTINUOUS
 70
0
 71
3
 72
11
 73
7
 74
0
 42
0.0000001
 43
0.0000001
 44
0.0000000001
 40
0.0
 40
0.0
 40
0.0
 40
0.0
 40
0.2616355141
 40
0.5144890283
 40
0.7595899618
 40
1.0
 40
1.0
 40
1.0
 40
1.0
 10
234.4830828851
 20
279.7408608116
 30
0.0
 10
234.8984443499
 20
279.9806698651
 30
0.0
 10
235.7340762069
 20
280.4210783012
 30
0.0
 10
237.0297827897
 20
280.9398268108
 30
0.0
 10
238.3468585902
 20
281.2717317425
 30
0.0
 10
239.2385267603
 20
281.3485559662
 30
0.0
 10
239.6792353078
 20
281.3485559663
 30
0.0
  0
SPLINE
  5
5D3
100
AcDbEntity
  8
BEZUGSACHSEN
100
AcDbSpline
 62
7
  6
CONTINUOUS
 70
0
 71
3
 72
11
 73
7
 74
0
 42
0.0000001
 43
0.0000001
 44
0.0000000001
 40
0.0
 40
0.0
 40
0.0
 40
0.0
 40
0.2404100669
 40
0.4855110144
 40
0.7383644905
 40
1.0
 40
1.0
 40
1.0
 40
1.0
 10
239.6792353078
 20
281.3485559663
 30
0.0
 10
240.119943908
 20
281.3485559662
 30
0.0
 10
241.0116121566
 20
281.2717317255
 30
0.0
 10
242.3286879586
 20
280.9398267639
 30
0.0
 10
243.624394482
 20
280.4210782532
 30
0.0
 10
244.4600262732
 20
279.9806698608
 30
0.0
 10
244.8753877306
 20
279.7408608116
 30
0.0
  0
LINE
  5
5D4
100
AcDbEntity
  8
BEZUGSACHSEN
100
AcDbLine
 62
7
  6
CONTINUOUS
 10
375.5501090038
 20
281.0961265872
 11
375.5707623313
 21
281.0931376173
  0
LINE
  5
5D5
100
AcDbEntity
  8
BEZUGSACHSEN
100
AcDbLine
 62
7
  6
CONTINUOUS
 10
375.5707623313
 20
281.0931376173
 11
375.5975686284
 21
281.0892329525
  0
SPLINE
  5
5D6
100
AcDbEntity
  8
BEZUGSACHSEN
100
AcDbSpline
 62
7
  6
CONTINUOUS
 70
0
 71
3
 72
9
 73
5
 74
0
 42
0.0000001
 43
0.0000001
 44
0.0000000001
 40
0.0
 40
0.0
 40
0.0
 40
0.0
 40
0.2491671814
 40
1.0
 40
1.0
 40
1.0
 40
1.0
 10
375.5975686284
 20
281.0892329525
 30
0.0
 10
376.0630123922
 20
281.0211880911
 30
0.0
 10
377.9236373841
 20
280.6973492708
 30
0.0
 10
379.7489471695
 20
280.1891019509
 30
0.0
 10
381.0936705875
 20
279.7408608116
 30
0.0
  0
SPLINE
  5
5D7
100
AcDbEntity
  8
BEZUGSACHSEN
100
AcDbSpline
 62
7
  6
CONTINUOUS
 70
0
 71
3
 72
9
 73
5
 74
0
 42
0.0000001
 43
0.0000001
 44
0.0000000001
 40
0.0
 40
0.0
 40
0.0
 40
0.0
 40
0.2511167265
 40
1.0
 40
1.0
 40
1.0
 40
1.0
 10
345.0936705875
 20
279.7408608116
 30
0.0
 10
345.5471621342
 20
279.8920246605
 30
0.0
 10
347.3627243626
 20
280.4633286251
 30
0.0
 10
349.2262838034
 20
280.8925110784
 30
0.0
 10
350.6372305887
 20
281.0961263604
 30
0.0
  0
ELLIPSE
  5
5D8
100
AcDbEntity
  8
0
100
AcDbEllipse
 62
7
  6
CONTINUOUS
 10
184.4423521965
 20
49.9278275531
 30
0.0
 11
0.0
 21
12.0
 31
0.0
 40
0.7013572208
 41
0.0116208812
 42
0.0739390377
  0
ELLIPSE
  5
5D9
100
AcDbEntity
  8
0
100
AcDbEllipse
 62
7
  6
CONTINUOUS
 10
189.5939777287
 20
85.8181650189
 30
0.0
 11
3.455
 21
0.0
 31
0.0
 40
0.0740740741
 41
5.7027931822
 42
8.2466807157
  0
ELLIPSE
  5
5DA
100
AcDbEntity
  8
0
100
AcDbEllipse
 62
7
  6
CONTINUOUS
 10
185.2178526943
 20
86.4323487856
 30
0.0
 11
4.1511520629
 21
0.0636702892
 31
0.0
 40
0.0546462332
 41
6.5568106047
 42
9.6984032583
  0
ELLIPSE
  5
5DB
100
AcDbEntity
  8
0
100
AcDbEllipse
 62
7
  6
CONTINUOUS
 10
184.4319878313
 20
86.3609319499
 30
0.0
 11
1.76
 21
-0.0
 31
0.0
 40
0.0740740741
 41
1.9634954085
 42
3.5342917353
  0
ELLIPSE
  5
5DC
100
AcDbEntity
  8
0
100
AcDbEllipse
 62
7
  6
CONTINUOUS
 10
186.4552840075
 20
86.4230117067
 30
0.0
 11
1.76
 21
0.0
 31
0.0
 40
0.0740740741
 41
0.3926990817
 42
1.9634954085
  0
ELLIPSE
  5
5DD
100
AcDbEntity
  8
0
100
AcDbEllipse
 62
7
  6
CONTINUOUS
 10
185.2178526943
 20
85.6802939872
 30
0.0
 11
4.1511520629
 21
0.0636702892
 31
0.0
 40
0.0546462332
 41
3.1407544928
 42
3.4152179512
  0
ELLIPSE
  5
5DE
100
AcDbEntity
  8
0
100
AcDbEllipse
 62
7
  6
CONTINUOUS
 10
189.5939777287
 20
85.8181650189
 30
0.0
 11
1.695
 21
0.0
 31
0.0
 40
0.0740740741
 41
5.1050880621
 42
8.2466807157
  0
ENDSEC
  0
SECTION
  2
OBJECTS
  0
DICTIONARY
  5
C
100
AcDbDictionary
280
0
281
1
  3
ACAD_GROUP
350
D
  3
ACAD_MLINESTYLE
350
17
  3
ACAD_LAYOUT
350
1A
  3
ACAD_PLOTSETTINGS
350
19
  3
ACAD_PLOTSTYLENAME
350
E
  0
DICTIONARY
  5
D
102
{ACAD_REACTORS
330
C
102
}
100
AcDbDictionary
280
0
281
1
  0
ACDBDICTIONARYWDFLT
  5
E
102
{ACAD_REACTORS
330
C
102
}
100
AcDbDictionary
281
1
  3
Normal
350
F
100
AcDbDictionaryWithDefault
340
F
  0
DICTIONARY
  5
17
102
{ACAD_REACTORS
330
C
102
}
100
AcDbDictionary
280
0
281
1
  3
Standard
350
18
  0
DICTIONARY
  5
19
102
{ACAD_REACTORS
330
C
102
}
100
AcDbDictionary
281
1
  0
DICTIONARY
  5
1A
102
{ACAD_REACTORS
330
C
102
}
100
AcDbDictionary
281
1
  3
Model
350
5DF
  3
Layout1
350
5E0
  0
ACDBPLACEHOLDER
  5
F
102
{ACAD_REACTORS
330
E
102
}
  0
MLINESTYLE
  5
18
102
{ACAD_REACTORS
330
17
102
}
100
AcDbMlineStyle
  2
STANDARD
 70
0
  3

 62
256
 51
90.0
 52
90.0
 71
2
 49
0.5
 62
256
  6
BYLAYER
 49
-0.5
 62
256
  6
BYLAYER
  0
LAYOUT
  5
5DF
102
{ACAD_REACTORS
330
1A
102
}
100
AcDbPlotSettings
  1

  2
none_device
  4
ISO_A2_(594.00_x_420.00_MM)
  6

 40
0.0
 41
0.0
 42
0.0
 43
0.0
 44
594.0
 45
420.0
 46
0.0
 47
0.0
 48
0.0
 49
0.0
140
0.0
141
0.0
142
1.0
143
1.0
 70
1024
 72
1
 73
0
 74
0
  7

 75
0
147
1.0
148
0.0
149
0.0
100
AcDbLayout
  1
Model
 70
0
 71
0
 10
0.0
 20
0.0
 11
594.0
 21
420.0
 12
0.0
 22
0.0
 32
0.0
 14
0.0
 24
0.0
 34
0.0
 15
0.0
 25
0.0
 35
0.0
146
0.0
 13
0.0
 23
0.0
 33
0.0
 16
1.0
 26
0.0
 36
0.0
 17
0.0
 27
1.0
 37
0.0
 76
0
330
210
345
0
346
0
  0
LAYOUT
  5
5E0
102
{ACAD_REACTORS
330
1A
102
}
100
AcDbPlotSettings
  1

  2
none_device
  4
ISO_A2_(594.00_x_420.00_MM)
  6

 40
0.0
 41
0.0
 42
0.0
 43
0.0
 44
594.0
 45
420.0
 46
0.0
 47
0.0
 48
0.0
 49
0.0
140
0.0
141
0.0
142
1.0
143
1.0
 70
0
 72
1
 73
0
 74
0
  7

 75
0
147
1.0
148
0.0
149
0.0
100
AcDbLayout
  1
Layout1
 70
0
 71
1
 10
0.0
 20
0.0
 11
594.0
 21
420.0
 12
0.0
 22
0.0
 32
0.0
 14
0.0
 24
0.0
 34
0.0
 15
0.0
 25
0.0
 35
0.0
146
0.0
 13
0.0
 23
0.0
 33
0.0
 16
1.0
 26
0.0
 36
0.0
 17
0.0
 27
1.0
 37
0.0
 76
0
330
211
345
0
346
0
  0
ENDSEC
  0
EOF
