999
DXF file: ACP_4t_M20_7909317_M35814-P-1.dxf
999
Pro/ENGINEER 2011490 by Parametric Technology Corporation
  0
SECTION
  2
HEADER
  9
$ACADVER
  1
AC1015
  9
$DWGCODEPAGE
  3
ANSI_1252
  9
$EXTMAX
 10
420.0
 20
297.0
 30
0.0
  9
$EXTMIN
 10
0.0
 20
0.0
 30
0.0
  9
$LIMMIN
 10
0.0
 20
0.0
  9
$LIMMAX
 10
420.0
 20
297.0
  9
$VIEWCTR
 10
210.0
 20
148.5
  9
$VIEWSIZE
 40
297.0
  9
$CLAYER
  8
0
  9
$LTSCALE
 40
23.1
  9
$CELTYPE
  6
BYLAYER
  9
$DIMSCALE
 40
1.0
  9
$DIMASZ
 40
3.5
  9
$DIMEXO
 40
2.625
  9
$DIMDLI
 40
15.96
  9
$DIMEXE
 40
7.56
  9
$DIMCEN
 40
3.78
  9
$DIMLFAC
 40
1.0
  9
$DIMBLK
  1
_FILLED
  9
$DIMTXT
 40
3.5
  9
$DIMTOL
 70
1
  9
$DIMLIM
 70
0
  9
$DIMTFAC
 40
1.0
  9
$DIMTP
 40
0.005
  9
$DIMTM
 40
0.005
  9
$PDMODE
 70
3
  9
$PDSIZE
 40
0.3125
  9
$HANDSEED
  5
530
  9
$TILEMODE
 70
1
  9
$MEASUREMENT
 70
1
  9
$INSUNITS
 70
4
  0
ENDSEC
  0
SECTION
  2
CLASSES
  0
CLASS
  1
ACDBDICTIONARYWDFLT
  2
AcDbDictionaryWithDefault
  3
AutoCAD 2000
 90
0
280
0
281
0
  0
CLASS
  1
ACDBPLACEHOLDER
  2
AcDbPlaceHolder
  3
AutoCAD 2000
 90
0
280
0
281
0
  0
CLASS
  1
LAYOUT
  2
AcDbLayout
  3
AutoCAD 2000
 90
0
280
0
281
0
  0
ENDSEC
  0
SECTION
  2
TABLES
  0
TABLE
  2
VPORT
  5
8
100
AcDbSymbolTable
 70
2
  0
VPORT
  5
1F4
100
AcDbSymbolTableRecord
100
AcDbViewportTableRecord
  2
*ACTIVE
 70
0
 10
0.0
 20
0.0
 11
1.0
 21
1.0
 12
210.0
 22
148.5
 13
0.0
 23
0.0
 14
1.0
 24
1.0
 15
0.0
 25
0.0
 16
0.0
 26
0.0
 36
1.0
 17
0.0
 27
0.0
 37
0.0
 40
297.0
 41
1.4141414141
 42
50.0
 43
0.0
 44
0.0
 50
0.0
 51
0.0
 71
0
 72
100
 73
1
 74
1
 75
0
 76
0
 77
0
 78
0
  0
ENDTAB
  0
TABLE
  2
LTYPE
  5
5
100
AcDbSymbolTable
 70
6
  0
LTYPE
  5
14
100
AcDbSymbolTableRecord
100
AcDbLinetypeTableRecord
  2
BYBLOCK
 70
0
  3

 72
65
 73
0
 40
0.0
  0
LTYPE
  5
15
100
AcDbSymbolTableRecord
100
AcDbLinetypeTableRecord
  2
BYLAYER
 70
0
  3

 72
65
 73
0
 40
0.0
  0
LTYPE
  5
16
100
AcDbSymbolTableRecord
100
AcDbLinetypeTableRecord
  2
CONTINUOUS
 70
64
  3
Solid line
 72
65
 73
0
 40
0.0
  0
LTYPE
  5
1F5
100
AcDbSymbolTableRecord
100
AcDbLinetypeTableRecord
  2
CENTER
 70
64
  3
____ _ ____ _ ____ _ ____ _ ____ _ ____ _ ____
 72
65
 73
4
 40
0.6
 49
0.375
 74
0
 49
-0.075
 74
0
 49
0.075
 74
0
 49
-0.075
 74
0
  0
LTYPE
  5
1F6
100
AcDbSymbolTableRecord
100
AcDbLinetypeTableRecord
  2
HIDDEN
 70
64
  3
- - - - - - - - - - - - - - - - - - - -
 72
65
 73
2
 40
0.2
 49
0.1
 74
0
 49
-0.1
 74
0
  0
LTYPE
  5
1F7
100
AcDbSymbolTableRecord
100
AcDbLinetypeTableRecord
  2
PHANTOM
 70
64
  3
_____ _ _ _____ _ _ _____ _ _ _____
 72
65
 73
6
 40
0.8
 49
0.45
 74
0
 49
-0.05
 74
0
 49
0.1
 74
0
 49
-0.05
 74
0
 49
0.1
 74
0
 49
-0.05
 74
0
  0
LTYPE
  5
1F8
100
AcDbSymbolTableRecord
100
AcDbLinetypeTableRecord
  2
DOT
 70
64
  3
. . . . . . . . . . . . . . . . . . . .
 72
65
 73
2
 40
0.2
 49
0.1
 74
0
 49
-0.1
 74
0
  0
LTYPE
  5
1F9
100
AcDbSymbolTableRecord
100
AcDbLinetypeTableRecord
  2
DASHED
 70
64
  3
- - - - - - - - - - - - - - - - - - - -
 72
65
 73
2
 40
0.2
 49
0.1
 74
0
 49
-0.1
 74
0
  0
ENDTAB
  0
TABLE
  2
LAYER
  5
2
100
AcDbSymbolTable
 70
36
  0
LAYER
  5
10
100
AcDbSymbolTableRecord
100
AcDbLayerTableRecord
  2
0
 70
0
 62
7
  6
CONTINUOUS
370
-3
390
F
  0
LAYER
  5
1FA
100
AcDbSymbolTableRecord
100
AcDbLayerTableRecord
  2
DEFAULT_1
 70
0
 62
7
  6
CENTER
370
-3
390
F
  0
LAYER
  5
1FB
100
AcDbSymbolTableRecord
100
AcDbLayerTableRecord
  2
DEFAULT_2
 70
0
 62
8
  6
HIDDEN
370
-3
390
F
  0
LAYER
  5
1FC
100
AcDbSymbolTableRecord
100
AcDbLayerTableRecord
  2
DEFAULT_3
 70
0
 62
7
  6
PHANTOM
370
-3
390
F
  0
LAYER
  5
1FD
100
AcDbSymbolTableRecord
100
AcDbLayerTableRecord
  2
AUSFORMSCHRAEGEN
 70
0
 62
7
  6
CONTINUOUS
370
-3
390
F
  0
LAYER
  5
1FE
100
AcDbSymbolTableRecord
100
AcDbLayerTableRecord
  2
BEZUGSACHSEN
 70
0
 62
7
  6
CONTINUOUS
370
-3
390
F
  0
LAYER
  5
1FF
100
AcDbSymbolTableRecord
100
AcDbLayerTableRecord
  2
BEZUGSEBENEN
 70
0
 62
7
  6
CONTINUOUS
370
-3
390
F
  0
LAYER
  5
200
100
AcDbSymbolTableRecord
100
AcDbLayerTableRecord
  2
BG_STARTBEZUEGE
 70
0
 62
7
  6
CONTINUOUS
370
-3
390
F
  0
LAYER
  5
201
100
AcDbSymbolTableRecord
100
AcDbLayerTableRecord
  2
FASEN
 70
0
 62
7
  6
CONTINUOUS
370
-3
390
F
  0
LAYER
  5
202
100
AcDbSymbolTableRecord
100
AcDbLayerTableRecord
  2
GEWINDE
 70
0
 62
7
  6
CONTINUOUS
370
-3
390
F
  0
LAYER
  5
203
100
AcDbSymbolTableRecord
100
AcDbLayerTableRecord
  2
HILFEN
 70
0
 62
7
  6
CONTINUOUS
370
-3
390
F
  0
LAYER
  5
204
100
AcDbSymbolTableRecord
100
AcDbLayerTableRecord
  2
KONSTRUKTIONSELEMENTE
 70
0
 62
7
  6
CONTINUOUS
370
-3
390
F
  0
LAYER
  5
205
100
AcDbSymbolTableRecord
100
AcDbLayerTableRecord
  2
KURVEN
 70
0
 62
7
  6
CONTINUOUS
370
-3
390
F
  0
LAYER
  5
206
100
AcDbSymbolTableRecord
100
AcDbLayerTableRecord
  2
NORM
 70
0
 62
7
  6
CONTINUOUS
370
-3
390
F
  0
LAYER
  5
207
100
AcDbSymbolTableRecord
100
AcDbLayerTableRecord
  2
PLATZIERUNG
 70
0
 62
7
  6
CONTINUOUS
370
-3
390
F
  0
LAYER
  5
208
100
AcDbSymbolTableRecord
100
AcDbLayerTableRecord
  2
PLAZIERUNG
 70
0
 62
7
  6
CONTINUOUS
370
-3
390
F
  0
LAYER
  5
209
100
AcDbSymbolTableRecord
100
AcDbLayerTableRecord
  2
RUNDUNGEN
 70
0
 62
7
  6
CONTINUOUS
370
-3
390
F
  0
LAYER
  5
20A
100
AcDbSymbolTableRecord
100
AcDbLayerTableRecord
  2
TEIL_STARTBEZUEGE
 70
0
 62
7
  6
CONTINUOUS
370
-3
390
F
  0
LAYER
  5
20B
100
AcDbSymbolTableRecord
100
AcDbLayerTableRecord
  2
T_STARTBEZUEGE
 70
0
 62
7
  6
CONTINUOUS
370
-3
390
F
  0
LAYER
  5
20C
100
AcDbSymbolTableRecord
100
AcDbLayerTableRecord
  2
ZEICHNUNGSBEMASSUNGEN
 70
0
 62
7
  6
CONTINUOUS
370
-3
390
F
  0
ENDTAB
  0
TABLE
  2
STYLE
  5
3
100
AcDbSymbolTable
 70
1
  0
STYLE
  5
11
100
AcDbSymbolTableRecord
100
AcDbTextStyleTableRecord
  2
STANDARD
 70
0
 40
0.0
 41
0.7
 50
0.0
 71
0
 42
0.2
  3
txt
  4

  0
STYLE
  5
20D
100
AcDbSymbolTableRecord
100
AcDbTextStyleTableRecord
  2
TEXTSTYLE_1
 70
0
 40
0.0
 41
0.8
 50
0.0
 71
0
 42
0.2
  3
gdt
  4

  0
ENDTAB
  0
TABLE
  2
VIEW
  5
6
100
AcDbSymbolTable
 70
0
  0
ENDTAB
  0
TABLE
  2
UCS
  5
7
100
AcDbSymbolTable
 70
0
  0
ENDTAB
  0
TABLE
  2
APPID
  5
9
100
AcDbSymbolTable
 70
1
  0
APPID
  5
20E
100
AcDbSymbolTableRecord
100
AcDbRegAppTableRecord
  2
ACAD
 70
0
  0
ENDTAB
  0
TABLE
  2
BLOCK_RECORD
  5
1
100
AcDbSymbolTable
 70
0
  0
BLOCK_RECORD
  5
20F
100
AcDbSymbolTableRecord
100
AcDbBlockTableRecord
  2
*Model_Space
  0
BLOCK_RECORD
  5
210
100
AcDbSymbolTableRecord
100
AcDbBlockTableRecord
  2
*Paper_Space
  0
ENDTAB
  0
TABLE
  2
DIMSTYLE
  5
A
100
AcDbSymbolTable
 70
1
100
AcDbDimStyleTable
 71
0
  0
DIMSTYLE
105
211
100
AcDbSymbolTableRecord
100
AcDbDimStyleTableRecord
  2
STANDARD
 70
0
  3

  4

 40
1.0
 41
3.5
 42
0.0625
 43
0.38
 44
0.18
 45
0.0
 46
0.0
 47
0.005
 48
0.005
140
3.5
141
0.09
142
0.0
143
25.4
144
1.0
145
0.0
146
1.0
147
0.09
 71
1.0
 72
0.0
 73
0
 74
0
 75
0
 76
0
 77
1
 78
8
170
0
171
2
172
0
173
0
174
0
175
0
176
0
177
0
178
5
270
2
271
3
272
3
273
2
274
2
275
0
280
0
281
0
282
0
283
1
284
8
285
0
286
0
287
3
288
0
340
11
  0
ENDTAB
  0
ENDSEC
  0
SECTION
  2
BLOCKS
  0
BLOCK
  5
20
100
AcDbEntity
  8
0
100
AcDbBlockBegin
  2
*Model_Space
 70
0
 10
0.0
 20
0.0
 30
0.0
  3
*Model_Space
  1

  0
ENDBLK
  5
21
100
AcDbEntity
  8
0
100
AcDbBlockEnd
  0
BLOCK
  5
1C
100
AcDbEntity
  8
0
100
AcDbBlockBegin
  2
*Paper_Space
 70
0
 10
0.0
 20
0.0
 30
0.0
  3
*Paper_Space
  1

  0
ENDBLK
  5
1D
100
AcDbEntity
  8
0
100
AcDbBlockEnd
  0
ENDSEC
  0
SECTION
  2
ENTITIES
  0
MTEXT
  5
212
100
AcDbEntity
  8
0
100
AcDbMText
 62
5
  6
CONTINUOUS
  7
STANDARD
 71
1
 72
1
 10
260.6267520351
 20
179.650814698
 30
0.0
 11
0.0
 21
1.0
 31
0.0
 44
0.9
  1
RUD ACP 4t M20
 40
5.0
 41
56.4285714286
  0
MTEXT
  5
213
100
AcDbEntity
  8
0
100
AcDbMText
 62
5
  6
CONTINUOUS
  7
STANDARD
 71
1
 72
1
 10
148.320469245
 20
178.7690172914
 30
0.0
 11
1.0
 21
0.0
 31
0.0
 44
0.9
  1
RUD
 40
5.0
 41
13.3333333333
  0
MTEXT
  5
214
100
AcDbEntity
  8
0
100
AcDbMText
 62
5
  6
CONTINUOUS
  7
STANDARD
 71
1
 72
1
 10
124.776810982
 20
66.5680253432
 30
0.0
 11
1.0
 21
0.0
 31
0.0
 44
0.9
  1
RUD ACP 4t M20
 40
5.0
 41
56.4285714286
  0
LINE
  5
215
100
AcDbEntity
  8
0
100
AcDbLine
 62
7
  6
CONTINUOUS
 10
0.0
 20
0.0
 11
0.0
 21
297.0
  0
LINE
  5
216
100
AcDbEntity
  8
0
100
AcDbLine
 62
7
  6
CONTINUOUS
 10
0.0
 20
0.0
 11
420.0
 21
0.0
  0
LINE
  5
217
100
AcDbEntity
  8
0
100
AcDbLine
 62
7
  6
CONTINUOUS
 10
0.0
 20
297.0
 11
420.0
 21
297.0
  0
LINE
  5
218
100
AcDbEntity
  8
0
100
AcDbLine
 62
7
  6
CONTINUOUS
 10
420.0
 20
0.0
 11
420.0
 21
297.0
  0
LINE
  5
219
100
AcDbEntity
  8
BEZUGSACHSEN
100
AcDbLine
 62
7
  6
CONTINUOUS
 10
146.1687092066
 20
120.977375591
 11
163.1687092066
 21
120.977375591
  0
LINE
  5
21A
100
AcDbEntity
  8
BEZUGSACHSEN
100
AcDbLine
 62
7
  6
CONTINUOUS
 10
144.6687092066
 20
122.477375591
 11
164.6687092066
 21
122.477375591
  0
LINE
  5
21B
100
AcDbEntity
  8
RUNDUNGEN
100
AcDbLine
 62
7
  6
CONTINUOUS
 10
151.980949585
 20
277.5706413374
 11
131.762223135
 21
269.809399419
  0
LINE
  5
21C
100
AcDbEntity
  8
BEZUGSACHSEN
100
AcDbLine
 62
7
  6
CONTINUOUS
 10
144.6687092066
 20
122.477375591
 11
146.1687092066
 21
120.977375591
  0
LINE
  5
21D
100
AcDbEntity
  8
RUNDUNGEN
100
AcDbLine
 62
7
  6
CONTINUOUS
 10
127.7674338252
 20
266.2124749684
 11
117.935276397
 21
246.9157795081
  0
LINE
  5
21E
100
AcDbEntity
  8
0
100
AcDbLine
 62
7
  6
CONTINUOUS
 10
177.1687092066
 20
147.477375591
 11
132.1687092066
 21
147.477375591
  0
LINE
  5
21F
100
AcDbEntity
  8
RUNDUNGEN
100
AcDbLine
 62
7
  6
CONTINUOUS
 10
120.9959284866
 20
152.102375591
 11
126.1687092066
 21
152.102375591
  0
LINE
  5
220
100
AcDbEntity
  8
RUNDUNGEN
100
AcDbLine
 62
7
  6
CONTINUOUS
 10
183.1687092066
 20
152.102375591
 11
188.3414899266
 21
152.102375591
  0
LINE
  5
221
100
AcDbEntity
  8
RUNDUNGEN
100
AcDbLine
 62
7
  6
CONTINUOUS
 10
110.1951357328
 20
171.3224569667
 11
113.2009679683
 21
158.3027671562
  0
LINE
  5
222
100
AcDbEntity
  8
0
100
AcDbLine
 62
7
  6
CONTINUOUS
 10
177.1687092066
 20
154.077375591
 11
132.1687092066
 21
154.077375591
  0
LINE
  5
223
100
AcDbEntity
  8
RUNDUNGEN
100
AcDbLine
 62
7
  6
CONTINUOUS
 10
130.9187092066
 20
154.577375591
 11
178.4187092066
 21
154.577375591
  0
LINE
  5
224
100
AcDbEntity
  8
0
100
AcDbLine
 62
7
  6
CONTINUOUS
 10
178.6180662773
 20
155.102375591
 11
178.4187092066
 21
155.102375591
  0
LINE
  5
225
100
AcDbEntity
  8
BEZUGSACHSEN
100
AcDbLine
 62
7
  6
CONTINUOUS
 10
130.9187092066
 20
155.102375591
 11
130.71886498
 21
155.102375591
  0
LWPOLYLINE
  5
226
100
AcDbEntity
  8
RUNDUNGEN
100
AcDbPolyline
 62
7
  6
CONTINUOUS
 90
13
 70
0
 10
178.6189831402
 20
155.1023756963
 10
178.6336663257
 20
155.1022858613
 10
178.7589134028
 20
155.0941892361
 10
178.8826229904
 20
155.0730566954
 10
179.003442315
 20
155.0391215272
 10
179.1200505876
 20
154.9927569659
 10
179.2311734341
 20
154.9344720553
 10
179.3355968987
 20
154.8649059632
 10
179.432180239
 20
154.7848212813
 10
179.5198685898
 20
154.6950957441
 10
179.5977059052
 20
154.5967108784
 10
179.6648436566
 20
154.4907423458
 10
179.7205494962
 20
154.3783495247
  0
LINE
  5
227
100
AcDbEntity
  8
0
100
AcDbLine
 62
7
  6
CONTINUOUS
 10
123.8996908806
 20
201.6664734376
 11
123.957352968
 21
201.0140317755
  0
LINE
  5
228
100
AcDbEntity
  8
0
100
AcDbLine
 62
7
  6
CONTINUOUS
 10
119.6258057937
 20
164.8385212292
 11
119.6258057937
 21
165.7450225715
  0
LINE
  5
229
100
AcDbEntity
  8
0
100
AcDbLine
 62
7
  6
CONTINUOUS
 10
119.6258057937
 20
169.9019445096
 11
119.6258057937
 21
170.8084458519
  0
LINE
  5
22A
100
AcDbEntity
  8
0
100
AcDbLine
 62
7
  6
CONTINUOUS
 10
124.1258057937
 20
167.3734835406
 11
124.1258057937
 21
168.2799848828
  0
LINE
  5
22B
100
AcDbEntity
  8
0
100
AcDbLine
 62
7
  6
CONTINUOUS
 10
123.8996908806
 20
201.6664734376
 11
124.0347505341
 21
202.3983379787
  0
LINE
  5
22C
100
AcDbEntity
  8
RUNDUNGEN
100
AcDbLine
 62
7
  6
CONTINUOUS
 10
123.4882058721
 20
212.9137783354
 11
119.2359526894
 21
202.3890823857
  0
LINE
  5
22D
100
AcDbEntity
  8
RUNDUNGEN
100
AcDbLine
 62
7
  6
CONTINUOUS
 10
117.7534468949
 20
198.7197517834
 11
111.0444875167
 21
182.1144946264
  0
LINE
  5
22E
100
AcDbEntity
  8
0
100
AcDbLine
 62
7
  6
CONTINUOUS
 10
124.4113037048
 20
164.8236514532
 11
124.7258057937
 21
164.8385212292
  0
LINE
  5
22F
100
AcDbEntity
  8
0
100
AcDbLine
 62
7
  6
CONTINUOUS
 10
119.3113037048
 20
164.8236514532
 11
119.6258057937
 21
164.8385212292
  0
LINE
  5
230
100
AcDbEntity
  8
0
100
AcDbLine
 62
7
  6
CONTINUOUS
 10
122.374586644
 20
167.3734835406
 11
124.1258057937
 21
167.3734835406
  0
LINE
  5
231
100
AcDbEntity
  8
0
100
AcDbLine
 62
7
  6
CONTINUOUS
 10
124.1258057937
 20
168.2799848828
 11
122.3760237261
 21
168.2799848828
  0
LINE
  5
232
100
AcDbEntity
  8
0
100
AcDbLine
 62
7
  6
CONTINUOUS
 10
124.7258057937
 20
164.8385212292
 11
124.7258057937
 21
165.7450225715
  0
LINE
  5
233
100
AcDbEntity
  8
0
100
AcDbLine
 62
7
  6
CONTINUOUS
 10
124.7258057937
 20
169.9019445096
 11
124.7258057937
 21
170.8084458519
  0
LINE
  5
234
100
AcDbEntity
  8
RUNDUNGEN
100
AcDbLine
 62
7
  6
CONTINUOUS
 10
129.9187092066
 20
155.852375591
 11
129.9187092066
 21
157.1445190814
  0
LINE
  5
235
100
AcDbEntity
  8
RUNDUNGEN
100
AcDbLine
 62
7
  6
CONTINUOUS
 10
129.9187092066
 20
169.5601911255
 11
129.9187092066
 21
179.9998656416
  0
LINE
  5
236
100
AcDbEntity
  8
0
100
AcDbLine
 62
7
  6
CONTINUOUS
 10
129.8816611034
 20
209.3159251504
 11
129.8558619147
 21
208.8544897493
  0
LINE
  5
237
100
AcDbEntity
  8
0
100
AcDbLine
 62
7
  6
CONTINUOUS
 10
124.7828682885
 20
201.4669332194
 11
124.8632977096
 21
202.0635831905
  0
LINE
  5
238
100
AcDbEntity
  8
0
100
AcDbLine
 62
7
  6
CONTINUOUS
 10
130.2685905062
 20
201.9244246587
 11
130.1881613977
 21
201.3277754613
  0
LINE
  5
239
100
AcDbEntity
  8
0
100
AcDbLine
 62
7
  6
CONTINUOUS
 10
130.6297791704
 20
208.3845211648
 11
130.7648381987
 21
209.1163841585
  0
LINE
  5
23A
100
AcDbEntity
  8
0
100
AcDbLine
 62
7
  6
CONTINUOUS
 10
127.0394076896
 20
209.8351254035
 11
125.7282843001
 21
206.5899811388
  0
LINE
  5
23B
100
AcDbEntity
  8
0
100
AcDbLine
 62
7
  6
CONTINUOUS
 10
124.5264216879
 20
203.6152667879
 11
124.0347505341
 21
202.3983379787
  0
LINE
  5
23C
100
AcDbEntity
  8
0
100
AcDbLine
 62
7
  6
CONTINUOUS
 10
121.8495453016
 20
196.9897652359
 11
121.412504302
 21
195.9080508034
  0
LINE
  5
23D
100
AcDbEntity
  8
0
100
AcDbLine
 62
7
  6
CONTINUOUS
 10
126.7465213615
 20
207.1223054617
 11
127.784493589
 21
209.6913768763
  0
LINE
  5
23E
100
AcDbEntity
  8
0
100
AcDbLine
 62
7
  6
CONTINUOUS
 10
124.8632977096
 20
202.0635831905
 11
125.3549688634
 21
203.2805119996
  0
LINE
  5
23F
100
AcDbEntity
  8
0
100
AcDbLine
 62
7
  6
CONTINUOUS
 10
126.6205573473
 20
204.0274712942
 11
126.9483381165
 21
204.8387571669
  0
LINE
  5
240
100
AcDbEntity
  8
0
100
AcDbLine
 62
7
  6
CONTINUOUS
 10
129.8558619147
 20
208.8544897493
 11
128.8178896872
 21
206.2854183348
  0
LINE
  5
241
100
AcDbEntity
  8
0
100
AcDbLine
 62
7
  6
CONTINUOUS
 10
129.6464368627
 20
205.9506635465
 11
130.6297791704
 21
208.3845211648
  0
LINE
  5
242
100
AcDbEntity
  8
0
100
AcDbLine
 62
7
  6
CONTINUOUS
 10
126.4035236486
 20
195.936270285
 11
125.4201813018
 21
193.5024125701
  0
LINE
  5
243
100
AcDbEntity
  8
0
100
AcDbLine
 62
7
  6
CONTINUOUS
 10
127.4506491098
 20
210.4554034678
 11
127.0394076896
 21
209.8351254035
  0
LINE
  5
244
100
AcDbEntity
  8
0
100
AcDbLine
 62
7
  6
CONTINUOUS
 10
124.9376634207
 20
204.2355456259
 11
124.5264216879
 21
203.6152667879
  0
LINE
  5
245
100
AcDbEntity
  8
0
100
AcDbLine
 62
7
  6
CONTINUOUS
 10
125.3549688634
 20
203.2805119996
 11
125.7115803638
 21
203.7655762676
  0
LINE
  5
246
100
AcDbEntity
  8
0
100
AcDbLine
 62
7
  6
CONTINUOUS
 10
127.784493589
 20
209.6913768763
 11
128.0864751696
 21
210.0412273479
  0
LINE
  5
247
100
AcDbEntity
  8
RUNDUNGEN
100
AcDbLine
 62
7
  6
CONTINUOUS
 10
182.1240307744
 20
176.952375591
 11
180.4187092066
 21
176.952375591
  0
LINE
  5
248
100
AcDbEntity
  8
RUNDUNGEN
100
AcDbLine
 62
7
  6
CONTINUOUS
 10
128.9187092066
 20
176.952375591
 11
127.2133875812
 21
176.952375591
  0
LINE
  5
249
100
AcDbEntity
  8
0
100
AcDbLine
 62
7
  6
CONTINUOUS
 10
125.4201813018
 20
193.5024125701
 11
122.1833895464
 21
196.2257380641
  0
LINE
  5
24A
100
AcDbEntity
  8
0
100
AcDbLine
 62
7
  6
CONTINUOUS
 10
127.3564899759
 20
191.9336614637
 11
125.9179159312
 21
193.1440283346
  0
LINE
  5
24B
100
AcDbEntity
  8
0
100
AcDbLine
 62
7
  6
CONTINUOUS
 10
121.412504302
 20
195.9080508034
 11
127.0287092066
 21
191.122375591
  0
LINE
  5
24C
100
AcDbEntity
  8
0
100
AcDbLine
 62
7
  6
CONTINUOUS
 10
125.2001741181
 20
200.5118994368
 11
124.8951602957
 21
200.9497053536
  0
LINE
  5
24D
100
AcDbEntity
  8
0
100
AcDbLine
 62
7
  6
CONTINUOUS
 10
123.957352968
 20
201.0140317755
 11
124.2911971346
 21
200.2500044103
  0
LINE
  5
24E
100
AcDbEntity
  8
RUNDUNGEN
100
AcDbLine
 62
7
  6
CONTINUOUS
 10
117.3733816313
 20
241.5697079218
 11
123.77877066
 21
217.6644706243
  0
LINE
  5
24F
100
AcDbEntity
  8
0
100
AcDbLine
 62
7
  6
CONTINUOUS
 10
124.8951602957
 20
200.9497053536
 11
124.7828682885
 21
201.4669332194
  0
LINE
  5
250
100
AcDbEntity
  8
0
100
AcDbLine
 62
7
  6
CONTINUOUS
 10
131.1517679987
 20
201.7248844063
 11
131.0941061876
 21
202.3773268567
  0
LINE
  5
251
100
AcDbEntity
  8
RUNDUNGEN
100
AcDbLine
 62
7
  6
CONTINUOUS
 10
130.9187092066
 20
181.377375591
 11
130.9187092066
 21
154.577375591
  0
LINE
  5
252
100
AcDbEntity
  8
0
100
AcDbLine
 62
7
  6
CONTINUOUS
 10
132.1687092066
 20
154.077375591
 11
132.1687092066
 21
147.477375591
  0
LINE
  5
253
100
AcDbEntity
  8
0
100
AcDbLine
 62
7
  6
CONTINUOUS
 10
132.9187092066
 20
190.977375591
 11
132.9187092066
 21
185.977375591
  0
LINE
  5
254
100
AcDbEntity
  8
0
100
AcDbLine
 62
7
  6
CONTINUOUS
 10
135.8186061044
 20
185.377375591
 11
135.8186061044
 21
183.377375591
  0
LINE
  5
255
100
AcDbEntity
  8
0
100
AcDbLine
 62
7
  6
CONTINUOUS
 10
131.0167086699
 20
200.993020634
 11
131.1517679987
 21
201.7248844063
  0
LINE
  5
256
100
AcDbEntity
  8
0
100
AcDbLine
 62
7
  6
CONTINUOUS
 10
130.1244358161
 20
203.5555304004
 11
129.7966550469
 21
202.7442445277
  0
LINE
  5
257
100
AcDbEntity
  8
0
100
AcDbLine
 62
7
  6
CONTINUOUS
 10
125.9179159312
 20
193.1440283346
 11
127.0105185083
 21
195.8483146094
  0
LINE
  5
258
100
AcDbEntity
  8
0
100
AcDbLine
 62
7
  6
CONTINUOUS
 10
130.1881613977
 20
201.3277754613
 11
129.6964902438
 21
200.1108466522
  0
LINE
  5
259
100
AcDbEntity
  8
0
100
AcDbLine
 62
7
  6
CONTINUOUS
 10
127.0287092066
 20
191.122375591
 11
127.3564899759
 21
191.9336614637
  0
LINE
  5
25A
100
AcDbEntity
  8
0
100
AcDbLine
 62
7
  6
CONTINUOUS
 10
128.8861335135
 20
195.7196620743
 11
129.2139142828
 21
196.530947947
  0
LINE
  5
25B
100
AcDbEntity
  8
0
100
AcDbLine
 62
7
  6
CONTINUOUS
 10
130.525037516
 20
199.7760918248
 11
131.0167086699
 21
200.993020634
  0
LINE
  5
25C
100
AcDbEntity
  8
0
100
AcDbLine
 62
7
  6
CONTINUOUS
 10
132.218571282
 20
203.9677349849
 11
132.5463523639
 21
204.7790216313
  0
LINE
  5
25D
100
AcDbEntity
  8
0
100
AcDbLine
 62
7
  6
CONTINUOUS
 10
130.1137954586
 20
199.155812218
 11
130.525037516
 21
199.7760918248
  0
LINE
  5
25E
100
AcDbEntity
  8
0
100
AcDbLine
 62
7
  6
CONTINUOUS
 10
129.6964902438
 20
200.1108466522
 11
129.3398784309
 21
199.6257816105
  0
LINE
  5
25F
100
AcDbEntity
  8
0
100
AcDbLine
 62
7
  6
CONTINUOUS
 10
125.4323664295
 20
204.6648182029
 11
124.9376634207
 21
204.2355456259
  0
LINE
  5
260
100
AcDbEntity
  8
0
100
AcDbLine
 62
7
  6
CONTINUOUS
 10
125.7115803638
 20
203.7655762676
 11
126.1516531403
 21
204.0596342746
  0
LINE
  5
261
100
AcDbEntity
  8
0
100
AcDbLine
 62
7
  6
CONTINUOUS
 10
128.0834436272
 20
210.8288843538
 11
127.4506491098
 21
210.4554034678
  0
LINE
  5
262
100
AcDbEntity
  8
0
100
AcDbLine
 62
7
  6
CONTINUOUS
 10
128.0864751696
 20
210.0412273479
 11
128.4719180262
 21
210.2000715586
  0
LINE
  5
263
100
AcDbEntity
  8
RUNDUNGEN
100
AcDbLine
 62
7
  6
CONTINUOUS
 10
176.4187092066
 20
183.377375591
 11
167.7937298354
 21
183.377375591
  0
LINE
  5
264
100
AcDbEntity
  8
RUNDUNGEN
100
AcDbLine
 62
7
  6
CONTINUOUS
 10
141.5436847308
 20
183.377375591
 11
132.9187092066
 21
183.377375591
  0
LINE
  5
265
100
AcDbEntity
  8
0
100
AcDbLine
 62
7
  6
CONTINUOUS
 10
127.8280637406
 20
183.377375591
 11
132.9187092066
 21
183.377375591
  0
LINE
  5
266
100
AcDbEntity
  8
0
100
AcDbLine
 62
7
  6
CONTINUOUS
 10
176.4187092066
 20
183.377375591
 11
181.5093546727
 21
183.377375591
  0
LINE
  5
267
100
AcDbEntity
  8
0
100
AcDbLine
 62
7
  6
CONTINUOUS
 10
124.7343017661
 20
199.7564061851
 11
125.3701279001
 21
199.3422291352
  0
LINE
  5
268
100
AcDbEntity
  8
0
100
AcDbLine
 62
7
  6
CONTINUOUS
 10
125.6979086694
 20
200.153515008
 11
125.2001741181
 21
200.5118994368
  0
LINE
  5
269
100
AcDbEntity
  8
0
100
AcDbLine
 62
7
  6
CONTINUOUS
 10
124.2911971346
 20
200.2500044103
 11
124.7343017661
 21
199.7564061851
  0
LINE
  5
26A
100
AcDbEntity
  8
0
100
AcDbLine
 62
7
  6
CONTINUOUS
 10
131.0941061876
 20
202.3773268567
 11
130.76026166
 21
203.1413534678
  0
LINE
  5
26B
100
AcDbEntity
  8
0
100
AcDbLine
 62
7
  6
CONTINUOUS
 10
129.7147391764
 20
209.6979392199
 11
129.8816611034
 21
209.3159251504
  0
LINE
  5
26C
100
AcDbEntity
  8
0
100
AcDbLine
 62
7
  6
CONTINUOUS
 10
130.7648381987
 20
209.1163841585
 11
130.5690855406
 21
209.8246198327
  0
LINE
  5
26D
100
AcDbEntity
  8
0
100
AcDbLine
 62
7
  6
CONTINUOUS
 10
130.2685905062
 20
201.9244246587
 11
130.1562984022
 21
202.4416525636
  0
LINE
  5
26E
100
AcDbEntity
  8
BEZUGSACHSEN
100
AcDbLine
 62
7
  6
CONTINUOUS
 10
137.3482011309
 20
191.477375591
 11
137.3482011309
 21
202.1376296288
  0
LINE
  5
26F
100
AcDbEntity
  8
0
100
AcDbLine
 62
7
  6
CONTINUOUS
 10
137.3490646546
 20
183.377375591
 11
137.3490646546
 21
185.377375591
  0
LINE
  5
270
100
AcDbEntity
  8
KONSTRUKTIONSELEMENTE
100
AcDbLine
 62
7
  6
CONTINUOUS
 10
140.6687092066
 20
190.977375591
 11
140.6687092066
 21
191.477375591
  0
LINE
  5
271
100
AcDbEntity
  8
BEZUGSACHSEN
100
AcDbLine
 62
7
  6
CONTINUOUS
 10
140.6687092066
 20
190.977375591
 11
140.6687092066
 21
191.477375591
  0
LINE
  5
272
100
AcDbEntity
  8
KONSTRUKTIONSELEMENTE
100
AcDbLine
 62
7
  6
CONTINUOUS
 10
142.1315889434
 20
203.477375591
 11
142.1315889434
 21
203.677375591
  0
LINE
  5
273
100
AcDbEntity
  8
0
100
AcDbLine
 62
7
  6
CONTINUOUS
 10
142.1687092066
 20
185.977375591
 11
142.1687092066
 21
183.6406464261
  0
LINE
  5
274
100
AcDbEntity
  8
0
100
AcDbLine
 62
7
  6
CONTINUOUS
 10
142.1687092066
 20
154.577375591
 11
142.1687092066
 21
154.077375591
  0
LINE
  5
275
100
AcDbEntity
  8
RUNDUNGEN
100
AcDbLine
 62
7
  6
CONTINUOUS
 10
131.8301353566
 20
189.833321326
 11
135.8261622149
 21
199.7238348689
  0
LINE
  5
276
100
AcDbEntity
  8
0
100
AcDbLine
 62
7
  6
CONTINUOUS
 10
129.6190927261
 20
198.7265404294
 11
130.1137954586
 21
199.155812218
  0
LINE
  5
277
100
AcDbEntity
  8
0
100
AcDbLine
 62
7
  6
CONTINUOUS
 10
129.3398784309
 20
199.6257816105
 11
128.8998055577
 21
199.3317236426
  0
LINE
  5
278
100
AcDbEntity
  8
0
100
AcDbLine
 62
7
  6
CONTINUOUS
 10
126.2032515177
 20
204.9825050767
 11
125.4323664295
 21
204.6648182029
  0
LINE
  5
279
100
AcDbEntity
  8
0
100
AcDbLine
 62
7
  6
CONTINUOUS
 10
127.8280637406
 20
185.377375591
 11
139.6546801413
 21
185.377375591
  0
LINE
  5
27A
100
AcDbEntity
  8
0
100
AcDbLine
 62
7
  6
CONTINUOUS
 10
169.682738272
 20
185.377375591
 11
181.5093546727
 21
185.377375591
  0
LINE
  5
27B
100
AcDbEntity
  8
RUNDUNGEN
100
AcDbLine
 62
7
  6
CONTINUOUS
 10
165.5487147746
 20
185.477375591
 11
143.7887036387
 21
185.477375591
  0
LINE
  5
27C
100
AcDbEntity
  8
0
100
AcDbLine
 62
7
  6
CONTINUOUS
 10
139.7887036387
 20
185.477375591
 11
142.1687092066
 21
185.477375591
  0
LINE
  5
27D
100
AcDbEntity
  8
RUNDUNGEN
100
AcDbLine
 62
7
  6
CONTINUOUS
 10
140.1220201387
 20
185.477375591
 11
141.8881910712
 21
185.477375591
  0
LINE
  5
27E
100
AcDbEntity
  8
RUNDUNGEN
100
AcDbLine
 62
7
  6
CONTINUOUS
 10
167.449227342
 20
185.477375591
 11
169.2153982745
 21
185.477375591
  0
LINE
  5
27F
100
AcDbEntity
  8
0
100
AcDbLine
 62
7
  6
CONTINUOUS
 10
167.1687092066
 20
185.477375591
 11
169.5487147746
 21
185.477375591
  0
LINE
  5
280
100
AcDbEntity
  8
0
100
AcDbLine
 62
7
  6
CONTINUOUS
 10
176.4187092066
 20
185.977375591
 11
132.9187092066
 21
185.977375591
  0
LINE
  5
281
100
AcDbEntity
  8
RUNDUNGEN
100
AcDbLine
 62
7
  6
CONTINUOUS
 10
127.4146706972
 20
186.252375591
 11
129.9015436066
 21
186.252375591
  0
LINE
  5
282
100
AcDbEntity
  8
RUNDUNGEN
100
AcDbLine
 62
7
  6
CONTINUOUS
 10
179.4358748067
 20
186.252375591
 11
181.922747716
 21
186.252375591
  0
LINE
  5
283
100
AcDbEntity
  8
0
100
AcDbLine
 62
7
  6
CONTINUOUS
 10
125.3701279001
 20
199.3422291352
 11
127.4414960324
 21
198.5053420864
  0
LINE
  5
284
100
AcDbEntity
  8
0
100
AcDbLine
 62
7
  6
CONTINUOUS
 10
127.7692768016
 20
199.3166279592
 11
125.6979086694
 21
200.153515008
  0
LINE
  5
285
100
AcDbEntity
  8
0
100
AcDbLine
 62
7
  6
CONTINUOUS
 10
130.76026166
 20
203.1413534678
 11
130.1244358161
 21
203.5555304004
  0
LINE
  5
286
100
AcDbEntity
  8
0
100
AcDbLine
 62
7
  6
CONTINUOUS
 10
129.7966550469
 20
202.7442445277
 11
130.1562984022
 21
202.4416525636
  0
LINE
  5
287
100
AcDbEntity
  8
0
100
AcDbLine
 62
7
  6
CONTINUOUS
 10
130.5690855406
 20
209.8246198327
 11
130.1806111415
 21
210.4534326279
  0
LINE
  5
288
100
AcDbEntity
  8
BEZUGSACHSEN
100
AcDbLine
 62
7
  6
CONTINUOUS
 10
144.6687092066
 20
147.477375591
 11
144.6687092066
 21
122.477375591
  0
LINE
  5
289
100
AcDbEntity
  8
BEZUGSACHSEN
100
AcDbLine
 62
7
  6
CONTINUOUS
 10
146.0084551688
 20
191.477375591
 11
146.0084551688
 21
202.1376296288
  0
LINE
  5
28A
100
AcDbEntity
  8
KONSTRUKTIONSELEMENTE
100
AcDbLine
 62
7
  6
CONTINUOUS
 10
146.0984196864
 20
203.477375591
 11
146.0984196864
 21
203.677375591
  0
LINE
  5
28B
100
AcDbEntity
  8
KONSTRUKTIONSELEMENTE
100
AcDbLine
 62
7
  6
CONTINUOUS
 10
146.1428746931
 20
203.477375591
 11
146.1428746931
 21
203.677375591
  0
LINE
  5
28C
100
AcDbEntity
  8
KONSTRUKTIONSELEMENTE
100
AcDbLine
 62
7
  6
CONTINUOUS
 10
146.3281038806
 20
203.477375591
 11
146.3281038806
 21
203.677375591
  0
LINE
  5
28D
100
AcDbEntity
  8
KONSTRUKTIONSELEMENTE
100
AcDbLine
 62
7
  6
CONTINUOUS
 10
146.3799680692
 20
203.477375591
 11
146.3799680692
 21
203.677375591
  0
LINE
  5
28E
100
AcDbEntity
  8
KONSTRUKTIONSELEMENTE
100
AcDbLine
 62
7
  6
CONTINUOUS
 10
146.458692443
 20
203.477375591
 11
146.458692443
 21
203.677375591
  0
LINE
  5
28F
100
AcDbEntity
  8
KONSTRUKTIONSELEMENTE
100
AcDbLine
 62
7
  6
CONTINUOUS
 10
146.7101097999
 20
203.477375591
 11
146.7101097999
 21
203.677375591
  0
LINE
  5
290
100
AcDbEntity
  8
KONSTRUKTIONSELEMENTE
100
AcDbLine
 62
7
  6
CONTINUOUS
 10
146.9085618373
 20
203.477375591
 11
146.9085618373
 21
203.677375591
  0
LINE
  5
291
100
AcDbEntity
  8
KONSTRUKTIONSELEMENTE
100
AcDbLine
 62
7
  6
CONTINUOUS
 10
147.0055531259
 20
203.477375591
 11
147.0055531259
 21
203.677375591
  0
LINE
  5
292
100
AcDbEntity
  8
KONSTRUKTIONSELEMENTE
100
AcDbLine
 62
7
  6
CONTINUOUS
 10
147.0495791018
 20
203.477375591
 11
147.0495791018
 21
203.677375591
  0
LINE
  5
293
100
AcDbEntity
  8
KONSTRUKTIONSELEMENTE
100
AcDbLine
 62
7
  6
CONTINUOUS
 10
147.6440982065
 20
203.477375591
 11
147.6440982065
 21
203.677375591
  0
LINE
  5
294
100
AcDbEntity
  8
KONSTRUKTIONSELEMENTE
100
AcDbLine
 62
7
  6
CONTINUOUS
 10
148.5832923402
 20
203.477375591
 11
148.5832923402
 21
203.677375591
  0
LINE
  5
295
100
AcDbEntity
  8
KONSTRUKTIONSELEMENTE
100
AcDbLine
 62
7
  6
CONTINUOUS
 10
148.7164603211
 20
203.477375591
 11
148.7164603211
 21
203.677375591
  0
LINE
  5
296
100
AcDbEntity
  8
KONSTRUKTIONSELEMENTE
100
AcDbLine
 62
7
  6
CONTINUOUS
 10
148.7479972959
 20
203.477375591
 11
148.7479972959
 21
203.677375591
  0
LINE
  5
297
100
AcDbEntity
  8
BEZUGSACHSEN
100
AcDbLine
 62
7
  6
CONTINUOUS
 10
137.3482011309
 20
202.1376296288
 11
139.6687092066
 21
203.477375591
  0
LINE
  5
298
100
AcDbEntity
  8
0
100
AcDbLine
 62
7
  6
CONTINUOUS
 10
128.848207277
 20
198.4088528014
 11
129.6190927261
 21
198.7265404294
  0
LINE
  5
299
100
AcDbEntity
  8
0
100
AcDbLine
 62
7
  6
CONTINUOUS
 10
176.4187092066
 20
190.977375591
 11
132.9187092066
 21
190.977375591
  0
LINE
  5
29A
100
AcDbEntity
  8
KONSTRUKTIONSELEMENTE
100
AcDbLine
 62
7
  6
CONTINUOUS
 10
137.3482011309
 20
191.477375591
 11
171.9892172823
 21
191.477375591
  0
LINE
  5
29B
100
AcDbEntity
  8
0
100
AcDbLine
 62
7
  6
CONTINUOUS
 10
129.2139142828
 20
196.530947947
 11
121.8495453016
 21
196.9897652359
  0
LINE
  5
29C
100
AcDbEntity
  8
0
100
AcDbLine
 62
7
  6
CONTINUOUS
 10
127.0105185083
 20
195.8483146094
 11
128.8861335135
 21
195.7196620743
  0
LINE
  5
29D
100
AcDbEntity
  8
0
100
AcDbLine
 62
7
  6
CONTINUOUS
 10
122.1833895464
 20
196.2257380641
 11
126.4035236486
 21
195.936270285
  0
LINE
  5
29E
100
AcDbEntity
  8
0
100
AcDbLine
 62
7
  6
CONTINUOUS
 10
128.3762718177
 20
199.2286726704
 11
127.7692768016
 21
199.3166279592
  0
LINE
  5
29F
100
AcDbEntity
  8
0
100
AcDbLine
 62
7
  6
CONTINUOUS
 10
127.4414960324
 20
198.5053420864
 11
128.1865822444
 21
198.3615943329
  0
LINE
  5
2A0
100
AcDbEntity
  8
0
100
AcDbLine
 62
7
  6
CONTINUOUS
 10
125.7282843001
 20
206.5899811388
 11
132.218571282
 21
203.9677349849
  0
LINE
  5
2A1
100
AcDbEntity
  8
0
100
AcDbLine
 62
7
  6
CONTINUOUS
 10
132.5463523639
 20
204.7790216313
 11
129.6464368627
 21
205.9506635465
  0
LINE
  5
2A2
100
AcDbEntity
  8
0
100
AcDbLine
 62
7
  6
CONTINUOUS
 10
128.8178896872
 20
206.2854183348
 11
126.7465213615
 21
207.1223054617
  0
LINE
  5
2A3
100
AcDbEntity
  8
0
100
AcDbLine
 62
7
  6
CONTINUOUS
 10
129.3550955084
 20
210.0005304103
 11
129.7147391764
 21
209.6979392199
  0
LINE
  5
2A4
100
AcDbEntity
  8
0
100
AcDbLine
 62
7
  6
CONTINUOUS
 10
130.1806111415
 20
210.4534326279
 11
129.8209674736
 21
210.7560238184
  0
LINE
  5
2A5
100
AcDbEntity
  8
KONSTRUKTIONSELEMENTE
100
AcDbLine
 62
7
  6
CONTINUOUS
 10
151.4759111708
 20
203.477375591
 11
151.4759111708
 21
203.677375591
  0
LINE
  5
2A6
100
AcDbEntity
  8
KONSTRUKTIONSELEMENTE
100
AcDbLine
 62
7
  6
CONTINUOUS
 10
152.0595736909
 20
203.477375591
 11
152.0595736909
 21
203.677375591
  0
LINE
  5
2A7
100
AcDbEntity
  8
KONSTRUKTIONSELEMENTE
100
AcDbLine
 62
7
  6
CONTINUOUS
 10
152.401786856
 20
203.477375591
 11
152.401786856
 21
203.677375591
  0
LINE
  5
2A8
100
AcDbEntity
  8
KONSTRUKTIONSELEMENTE
100
AcDbLine
 62
7
  6
CONTINUOUS
 10
153.2002838061
 20
203.477375591
 11
153.2002838061
 21
203.677375591
  0
LINE
  5
2A9
100
AcDbEntity
  8
KONSTRUKTIONSELEMENTE
100
AcDbLine
 62
7
  6
CONTINUOUS
 10
153.6565688965
 20
203.477375591
 11
153.6565688965
 21
203.677375591
  0
LINE
  5
2AA
100
AcDbEntity
  8
KONSTRUKTIONSELEMENTE
100
AcDbLine
 62
7
  6
CONTINUOUS
 10
153.9955868265
 20
203.477375591
 11
153.9955868265
 21
203.677375591
  0
LINE
  5
2AB
100
AcDbEntity
  8
KONSTRUKTIONSELEMENTE
100
AcDbLine
 62
7
  6
CONTINUOUS
 10
154.4550658465
 20
203.477375591
 11
154.4550658465
 21
203.677375591
  0
LINE
  5
2AC
100
AcDbEntity
  8
KONSTRUKTIONSELEMENTE
100
AcDbLine
 62
7
  6
CONTINUOUS
 10
154.7972790116
 20
203.477375591
 11
154.7972790116
 21
203.677375591
  0
LINE
  5
2AD
100
AcDbEntity
  8
KONSTRUKTIONSELEMENTE
100
AcDbLine
 62
7
  6
CONTINUOUS
 10
155.277953982
 20
203.477375591
 11
155.277953982
 21
203.677375591
  0
LWPOLYLINE
  5
2AE
100
AcDbEntity
  8
RUNDUNGEN
100
AcDbPolyline
 62
7
  6
CONTINUOUS
 90
13
 70
0
 10
129.6173410721
 20
154.3794425411
 10
129.6731233061
 20
154.4917177166
 10
129.740315823
 20
154.5975615541
 10
129.8181855487
 20
154.6958184286
 10
129.9058830494
 20
154.7854157333
 10
130.0024516533
 20
154.8653752584
 10
130.1068374617
 20
154.9348236056
 10
130.2179012007
 20
154.9930021543
 10
130.3344307052
 20
155.0392753285
 10
130.4551540333
 20
155.0731374648
 10
130.5787533689
 20
155.094218362
 10
130.7038794048
 20
155.1022873359
 10
130.7184346411
 20
155.1023756121
  0
LINE
  5
2AF
100
AcDbEntity
  8
0
100
AcDbLine
 62
7
  6
CONTINUOUS
 10
128.1865822444
 20
198.3615943329
 11
128.848207277
 21
198.4088528014
  0
LINE
  5
2B0
100
AcDbEntity
  8
0
100
AcDbLine
 62
7
  6
CONTINUOUS
 10
181.6869654196
 20
202.3708687763
 11
180.7231683054
 21
202.3708687763
  0
LINE
  5
2B1
100
AcDbEntity
  8
0
100
AcDbLine
 62
7
  6
CONTINUOUS
 10
131.0969280721
 20
202.3708687763
 11
130.171665826
 21
202.3708687763
  0
LINE
  5
2B2
100
AcDbEntity
  8
0
100
AcDbLine
 62
7
  6
CONTINUOUS
 10
124.9874491451
 20
202.3708687763
 11
124.029681316
 21
202.3708687763
  0
LINE
  5
2B3
100
AcDbEntity
  8
0
100
AcDbLine
 62
7
  6
CONTINUOUS
 10
126.1516531403
 20
204.0596342746
 11
126.6205573473
 21
204.0274712942
  0
LINE
  5
2B4
100
AcDbEntity
  8
0
100
AcDbLine
 62
7
  6
CONTINUOUS
 10
126.9483381165
 20
204.8387571669
 11
126.2032515177
 21
204.9825050767
  0
LINE
  5
2B5
100
AcDbEntity
  8
0
100
AcDbLine
 62
7
  6
CONTINUOUS
 10
128.9408215338
 20
210.1679079608
 11
129.3550955084
 21
210.0005304103
  0
LINE
  5
2B6
100
AcDbEntity
  8
0
100
AcDbLine
 62
7
  6
CONTINUOUS
 10
129.8209674736
 20
210.7560238184
 11
129.268602303
 21
210.9791938335
  0
LINE
  5
2B7
100
AcDbEntity
  8
KONSTRUKTIONSELEMENTE
100
AcDbLine
 62
7
  6
CONTINUOUS
 10
157.3150333043
 20
203.477375591
 11
157.3150333043
 21
203.677375591
  0
LINE
  5
2B8
100
AcDbEntity
  8
KONSTRUKTIONSELEMENTE
100
AcDbLine
 62
7
  6
CONTINUOUS
 10
157.3965243917
 20
203.477375591
 11
157.3965243917
 21
203.677375591
  0
LINE
  5
2B9
100
AcDbEntity
  8
KONSTRUKTIONSELEMENTE
100
AcDbLine
 62
7
  6
CONTINUOUS
 10
157.58532855
 20
203.477375591
 11
157.58532855
 21
203.677375591
  0
LINE
  5
2BA
100
AcDbEntity
  8
KONSTRUKTIONSELEMENTE
100
AcDbLine
 62
7
  6
CONTINUOUS
 10
157.7473951324
 20
203.477375591
 11
157.7473951324
 21
203.677375591
  0
LINE
  5
2BB
100
AcDbEntity
  8
KONSTRUKTIONSELEMENTE
100
AcDbLine
 62
7
  6
CONTINUOUS
 10
157.8691726665
 20
203.477375591
 11
157.8691726665
 21
203.677375591
  0
LINE
  5
2BC
100
AcDbEntity
  8
KONSTRUKTIONSELEMENTE
100
AcDbLine
 62
7
  6
CONTINUOUS
 10
157.9017691426
 20
203.477375591
 11
157.9017691426
 21
203.677375591
  0
LINE
  5
2BD
100
AcDbEntity
  8
KONSTRUKTIONSELEMENTE
100
AcDbLine
 62
7
  6
CONTINUOUS
 10
157.91037733
 20
203.477375591
 11
157.91037733
 21
203.677375591
  0
LINE
  5
2BE
100
AcDbEntity
  8
KONSTRUKTIONSELEMENTE
100
AcDbLine
 62
7
  6
CONTINUOUS
 10
158.2467454878
 20
203.477375591
 11
158.2467454878
 21
203.677375591
  0
LINE
  5
2BF
100
AcDbEntity
  8
KONSTRUKTIONSELEMENTE
100
AcDbLine
 62
7
  6
CONTINUOUS
 10
158.2788450169
 20
203.477375591
 11
158.2788450169
 21
203.677375591
  0
LINE
  5
2C0
100
AcDbEntity
  8
KONSTRUKTIONSELEMENTE
100
AcDbLine
 62
7
  6
CONTINUOUS
 10
158.4126214012
 20
203.477375591
 11
158.4126214012
 21
203.677375591
  0
LINE
  5
2C1
100
AcDbEntity
  8
KONSTRUKTIONSELEMENTE
100
AcDbLine
 62
7
  6
CONTINUOUS
 10
158.6775114353
 20
203.477375591
 11
158.6775114353
 21
203.677375591
  0
LINE
  5
2C2
100
AcDbEntity
  8
KONSTRUKTIONSELEMENTE
100
AcDbLine
 62
7
  6
CONTINUOUS
 10
159.0226778569
 20
203.477375591
 11
159.0226778569
 21
203.677375591
  0
LINE
  5
2C3
100
AcDbEntity
  8
KONSTRUKTIONSELEMENTE
100
AcDbLine
 62
7
  6
CONTINUOUS
 10
159.3972822402
 20
203.477375591
 11
159.3972822402
 21
203.677375591
  0
LINE
  5
2C4
100
AcDbEntity
  8
KONSTRUKTIONSELEMENTE
100
AcDbLine
 62
7
  6
CONTINUOUS
 10
159.6702109389
 20
203.477375591
 11
159.6702109389
 21
203.677375591
  0
LINE
  5
2C5
100
AcDbEntity
  8
KONSTRUKTIONSELEMENTE
100
AcDbLine
 62
7
  6
CONTINUOUS
 10
159.9324394161
 20
203.477375591
 11
159.9324394161
 21
203.677375591
  0
LINE
  5
2C6
100
AcDbEntity
  8
KONSTRUKTIONSELEMENTE
100
AcDbLine
 62
7
  6
CONTINUOUS
 10
160.1036924127
 20
203.477375591
 11
160.1036924127
 21
203.677375591
  0
LINE
  5
2C7
100
AcDbEntity
  8
KONSTRUKTIONSELEMENTE
100
AcDbLine
 62
7
  6
CONTINUOUS
 10
160.355221846
 20
203.477375591
 11
160.355221846
 21
203.677375591
  0
LINE
  5
2C8
100
AcDbEntity
  8
KONSTRUKTIONSELEMENTE
100
AcDbLine
 62
7
  6
CONTINUOUS
 10
160.7164655582
 20
203.477375591
 11
160.7164655582
 21
203.677375591
  0
LINE
  5
2C9
100
AcDbEntity
  8
KONSTRUKTIONSELEMENTE
100
AcDbLine
 62
7
  6
CONTINUOUS
 10
160.8663180836
 20
203.477375591
 11
160.8663180836
 21
203.677375591
  0
LINE
  5
2CA
100
AcDbEntity
  8
KONSTRUKTIONSELEMENTE
100
AcDbLine
 62
7
  6
CONTINUOUS
 10
160.9358943409
 20
203.477375591
 11
160.9358943409
 21
203.677375591
  0
LINE
  5
2CB
100
AcDbEntity
  8
KONSTRUKTIONSELEMENTE
100
AcDbLine
 62
7
  6
CONTINUOUS
 10
160.9947714138
 20
203.477375591
 11
160.9947714138
 21
203.677375591
  0
LINE
  5
2CC
100
AcDbEntity
  8
0
100
AcDbLine
 62
7
  6
CONTINUOUS
 10
179.5305335119
 20
207.7082250415
 11
178.7019861429
 21
207.3734701751
  0
LINE
  5
2CD
100
AcDbEntity
  8
0
100
AcDbLine
 62
7
  6
CONTINUOUS
 10
128.8998055577
 20
199.3317236426
 11
128.3762718177
 21
199.2286726704
  0
LINE
  5
2CE
100
AcDbEntity
  8
BEZUGSACHSEN
100
AcDbLine
 62
7
  6
CONTINUOUS
 10
139.6687092066
 20
203.477375591
 11
169.6687092066
 21
203.477375591
  0
LINE
  5
2CF
100
AcDbEntity
  8
KONSTRUKTIONSELEMENTE
100
AcDbLine
 62
7
  6
CONTINUOUS
 10
142.1315889434
 20
203.677375591
 11
148.7479972959
 21
203.677375591
  0
LINE
  5
2D0
100
AcDbEntity
  8
KONSTRUKTIONSELEMENTE
100
AcDbLine
 62
7
  6
CONTINUOUS
 10
151.4759111708
 20
203.677375591
 11
154.7972790116
 21
203.677375591
  0
LINE
  5
2D1
100
AcDbEntity
  8
KONSTRUKTIONSELEMENTE
100
AcDbLine
 62
7
  6
CONTINUOUS
 10
155.277953982
 20
203.677375591
 11
157.91037733
 21
203.677375591
  0
LINE
  5
2D2
100
AcDbEntity
  8
KONSTRUKTIONSELEMENTE
100
AcDbLine
 62
7
  6
CONTINUOUS
 10
158.2467454878
 20
203.677375591
 11
160.9947714138
 21
203.677375591
  0
LINE
  5
2D3
100
AcDbEntity
  8
RUNDUNGEN
100
AcDbLine
 62
7
  6
CONTINUOUS
 10
144.1708169314
 20
205.352375591
 11
165.1666014819
 21
205.352375591
  0
LINE
  5
2D4
100
AcDbEntity
  8
0
100
AcDbLine
 62
7
  6
CONTINUOUS
 10
128.4719180262
 20
210.2000715586
 11
128.9408215338
 21
210.1679079608
  0
LINE
  5
2D5
100
AcDbEntity
  8
BEZUGSACHSEN
100
AcDbLine
 62
7
  6
CONTINUOUS
 10
163.3289632445
 20
191.477375591
 11
163.3289632445
 21
202.1376296288
  0
LINE
  5
2D6
100
AcDbEntity
  8
BEZUGSACHSEN
100
AcDbLine
 62
7
  6
CONTINUOUS
 10
164.6687092066
 20
122.477375591
 11
164.6687092066
 21
147.477375591
  0
LINE
  5
2D7
100
AcDbEntity
  8
0
100
AcDbLine
 62
7
  6
CONTINUOUS
 10
167.1687092066
 20
185.977375591
 11
167.1687092066
 21
183.6404032958
  0
LINE
  5
2D8
100
AcDbEntity
  8
0
100
AcDbLine
 62
7
  6
CONTINUOUS
 10
167.1687092066
 20
154.577375591
 11
167.1687092066
 21
154.077375591
  0
LINE
  5
2D9
100
AcDbEntity
  8
0
100
AcDbLine
 62
7
  6
CONTINUOUS
 10
183.4653896982
 20
205.5231385362
 11
180.8416565888
 21
204.4630815505
  0
LINE
  5
2DA
100
AcDbEntity
  8
0
100
AcDbLine
 62
7
  6
CONTINUOUS
 10
180.0131092199
 20
204.1283266841
 11
178.0798322836
 21
203.3472321
  0
LINE
  5
2DB
100
AcDbEntity
  8
0
100
AcDbLine
 62
7
  6
CONTINUOUS
 10
178.4076130528
 20
202.5359462272
 11
180.3408899891
 21
203.3170408113
  0
LINE
  5
2DC
100
AcDbEntity
  8
0
100
AcDbLine
 62
7
  6
CONTINUOUS
 10
181.1694373581
 20
203.6517956777
 11
184.8979000348
 21
205.1581923812
  0
LINE
  5
2DD
100
AcDbEntity
  8
0
100
AcDbLine
 62
7
  6
CONTINUOUS
 10
180.8871912191
 20
201.964897819
 11
181.715738588
 21
202.2996526854
  0
LINE
  5
2DE
100
AcDbEntity
  8
0
100
AcDbLine
 62
7
  6
CONTINUOUS
 10
183.8098740168
 20
201.887447636
 11
183.2575092332
 21
201.6642777772
  0
LINE
  5
2DF
100
AcDbEntity
  8
0
100
AcDbLine
 62
7
  6
CONTINUOUS
 10
185.3516448925
 20
201.2520732709
 11
184.2469149383
 21
200.8057333969
  0
LINE
  5
2E0
100
AcDbEntity
  8
0
100
AcDbLine
 62
7
  6
CONTINUOUS
 10
183.6945501546
 20
200.5825635381
 11
180.9327259461
 21
199.4667141267
  0
LINE
  5
2E1
100
AcDbEntity
  8
0
100
AcDbLine
 62
7
  6
CONTINUOUS
 10
181.482059284
 20
198.9022270187
 11
183.967701004
 21
199.9064914616
  0
LINE
  5
2E2
100
AcDbEntity
  8
0
100
AcDbLine
 62
7
  6
CONTINUOUS
 10
184.5200657877
 20
200.1296613205
 11
185.6247957419
 21
200.5760011944
  0
LINE
  5
2E3
100
AcDbEntity
  8
0
100
AcDbLine
 62
7
  6
CONTINUOUS
 10
129.268602303
 20
210.9791938335
 11
128.7996987955
 21
211.0113574313
  0
LINE
  5
2E4
100
AcDbEntity
  8
0
100
AcDbLine
 62
7
  6
CONTINUOUS
 10
179.9129443963
 20
206.7617248888
 11
183.4653896982
 21
205.5231385362
  0
LINE
  5
2E5
100
AcDbEntity
  8
BEZUGSACHSEN
100
AcDbLine
 62
7
  6
CONTINUOUS
 10
171.9892172823
 20
202.1376296288
 11
169.6687092066
 21
203.477375591
  0
LINE
  5
2E6
100
AcDbEntity
  8
KONSTRUKTIONSELEMENTE
100
AcDbLine
 62
7
  6
CONTINUOUS
 10
168.6687092066
 20
190.977375591
 11
168.6687092066
 21
191.477375591
  0
LINE
  5
2E7
100
AcDbEntity
  8
BEZUGSACHSEN
100
AcDbLine
 62
7
  6
CONTINUOUS
 10
168.6687092066
 20
190.977375591
 11
168.6687092066
 21
191.477375591
  0
LINE
  5
2E8
100
AcDbEntity
  8
0
100
AcDbLine
 62
7
  6
CONTINUOUS
 10
171.9883537586
 20
183.377375591
 11
171.9883537586
 21
185.377375591
  0
LINE
  5
2E9
100
AcDbEntity
  8
BEZUGSACHSEN
100
AcDbLine
 62
7
  6
CONTINUOUS
 10
171.9892172823
 20
191.477375591
 11
171.9892172823
 21
202.1376296288
  0
LINE
  5
2EA
100
AcDbEntity
  8
0
100
AcDbLine
 62
7
  6
CONTINUOUS
 10
173.5188123089
 20
185.377375591
 11
173.5188123089
 21
183.377375591
  0
LINE
  5
2EB
100
AcDbEntity
  8
0
100
AcDbLine
 62
7
  6
CONTINUOUS
 10
180.5928182853
 20
197.1273734844
 11
181.1451831173
 21
197.3505433627
  0
LINE
  5
2EC
100
AcDbEntity
  8
0
100
AcDbLine
 62
7
  6
CONTINUOUS
 10
184.5686323101
 20
198.4191342862
 11
185.1209970938
 21
198.642304145
  0
LINE
  5
2ED
100
AcDbEntity
  8
0
100
AcDbLine
 62
7
  6
CONTINUOUS
 10
128.7996987955
 20
211.0113574313
 11
128.0834436272
 21
210.8288843538
  0
LINE
  5
2EE
100
AcDbEntity
  8
0
100
AcDbLine
 62
7
  6
CONTINUOUS
 10
184.5701192655
 20
205.9694782539
 11
179.5305335119
 21
207.7082250415
  0
LINE
  5
2EF
100
AcDbEntity
  8
RUNDUNGEN
100
AcDbLine
 62
7
  6
CONTINUOUS
 10
173.5112561973
 20
199.7238348716
 11
177.5072830614
 21
189.8333213144
  0
LINE
  5
2F0
100
AcDbEntity
  8
0
100
AcDbLine
 62
7
  6
CONTINUOUS
 10
176.4187092066
 20
190.977375591
 11
176.4187092066
 21
185.977375591
  0
LINE
  5
2F1
100
AcDbEntity
  8
0
100
AcDbLine
 62
7
  6
CONTINUOUS
 10
177.1687092066
 20
154.077375591
 11
177.1687092066
 21
147.477375591
  0
LINE
  5
2F2
100
AcDbEntity
  8
RUNDUNGEN
100
AcDbLine
 62
7
  6
CONTINUOUS
 10
178.4187092066
 20
181.377375591
 11
178.4187092066
 21
154.577375591
  0
LINE
  5
2F3
100
AcDbEntity
  8
RUNDUNGEN
100
AcDbLine
 62
7
  6
CONTINUOUS
 10
179.4187092066
 20
157.1445191466
 11
179.4187092066
 21
155.852375591
  0
LINE
  5
2F4
100
AcDbEntity
  8
RUNDUNGEN
100
AcDbLine
 62
7
  6
CONTINUOUS
 10
179.4187092066
 20
169.5602275039
 11
179.4187092066
 21
179.9998654486
  0
LINE
  5
2F5
100
AcDbEntity
  8
0
100
AcDbLine
 62
7
  6
CONTINUOUS
 10
180.9327259461
 20
199.4667141267
 11
180.4896215788
 21
198.9731151082
  0
LINE
  5
2F6
100
AcDbEntity
  8
0
100
AcDbLine
 62
7
  6
CONTINUOUS
 10
181.1224155194
 20
198.5996357892
 11
181.482059284
 21
198.9022270187
  0
LINE
  5
2F7
100
AcDbEntity
  8
0
100
AcDbLine
 62
7
  6
CONTINUOUS
 10
178.0798322836
 20
203.3472321
 11
178.4076130528
 21
202.5359462272
  0
LINE
  5
2F8
100
AcDbEntity
  8
0
100
AcDbLine
 62
7
  6
CONTINUOUS
 10
178.7019861429
 20
207.3734701751
 11
180.0131092199
 21
204.1283266841
  0
LINE
  5
2F9
100
AcDbEntity
  8
0
100
AcDbLine
 62
7
  6
CONTINUOUS
 10
180.8871912191
 20
201.964897819
 11
180.3408899891
 21
203.3170408113
  0
LINE
  5
2FA
100
AcDbEntity
  8
0
100
AcDbLine
 62
7
  6
CONTINUOUS
 10
181.715738588
 20
202.2996526854
 11
181.1694373581
 21
203.6517956777
  0
LINE
  5
2FB
100
AcDbEntity
  8
0
100
AcDbLine
 62
7
  6
CONTINUOUS
 10
180.8416565888
 20
204.4630815505
 11
179.9129443963
 21
206.7617248888
  0
LINE
  5
2FC
100
AcDbEntity
  8
0
100
AcDbLine
 62
7
  6
CONTINUOUS
 10
180.403128724
 20
197.9944518267
 11
180.5928182853
 21
197.1273734844
  0
LINE
  5
2FD
100
AcDbEntity
  8
0
100
AcDbLine
 62
7
  6
CONTINUOUS
 10
181.1451831173
 20
197.3505433627
 11
181.0101235122
 21
198.0824079234
  0
LINE
  5
2FE
100
AcDbEntity
  8
0
100
AcDbLine
 62
7
  6
CONTINUOUS
 10
180.3773295474
 20
198.4558872327
 11
180.403128724
 21
197.9944518267
  0
LINE
  5
2FF
100
AcDbEntity
  8
0
100
AcDbLine
 62
7
  6
CONTINUOUS
 10
180.4896215788
 20
198.9731151082
 11
180.3773295474
 21
198.4558872327
  0
LINE
  5
300
100
AcDbEntity
  8
0
100
AcDbLine
 62
7
  6
CONTINUOUS
 10
181.0101235122
 20
198.0824079234
 11
181.1224155194
 21
198.5996357892
  0
LINE
  5
301
100
AcDbEntity
  8
RUNDUNGEN
100
AcDbLine
 62
7
  6
CONTINUOUS
 10
185.5586477533
 20
217.6644706243
 11
191.964036782
 21
241.5697079218
  0
LINE
  5
302
100
AcDbEntity
  8
0
100
AcDbLine
 62
7
  6
CONTINUOUS
 10
183.2575092332
 20
201.6642777772
 11
183.6945501546
 21
200.5825635381
  0
LINE
  5
303
100
AcDbEntity
  8
0
100
AcDbLine
 62
7
  6
CONTINUOUS
 10
183.967701004
 20
199.9064914616
 11
184.5686323101
 21
198.4191342862
  0
LINE
  5
304
100
AcDbEntity
  8
0
100
AcDbLine
 62
7
  6
CONTINUOUS
 10
185.1209970938
 20
198.642304145
 11
184.5200657877
 21
200.1296613205
  0
LINE
  5
305
100
AcDbEntity
  8
0
100
AcDbLine
 62
7
  6
CONTINUOUS
 10
184.2469149383
 20
200.8057333969
 11
183.8098740168
 21
201.887447636
  0
LINE
  5
306
100
AcDbEntity
  8
0
100
AcDbLine
 62
7
  6
CONTINUOUS
 10
185.6247957419
 20
200.5760011944
 11
185.3516448925
 21
201.2520732709
  0
LINE
  5
307
100
AcDbEntity
  8
0
100
AcDbLine
 62
7
  6
CONTINUOUS
 10
184.8979000348
 20
205.1581923812
 11
184.5701192655
 21
205.9694782539
  0
LINE
  5
308
100
AcDbEntity
  8
RUNDUNGEN
100
AcDbLine
 62
7
  6
CONTINUOUS
 10
198.2929308966
 20
182.1144946264
 11
191.5840368763
 21
198.719590017
  0
LINE
  5
309
100
AcDbEntity
  8
RUNDUNGEN
100
AcDbLine
 62
7
  6
CONTINUOUS
 10
188.8442126322
 20
205.5008929842
 11
185.8492125412
 21
212.9137783354
  0
LINE
  5
30A
100
AcDbEntity
  8
RUNDUNGEN
100
AcDbLine
 62
7
  6
CONTINUOUS
 10
196.1364504449
 20
158.3027671562
 11
199.1422826805
 21
171.3224569667
  0
LINE
  5
30B
100
AcDbEntity
  8
RUNDUNGEN
100
AcDbLine
 62
7
  6
CONTINUOUS
 10
191.4021420162
 20
246.9157795081
 11
181.5699845881
 21
266.2124749684
  0
LINE
  5
30C
100
AcDbEntity
  8
BEZUGSACHSEN
100
AcDbLine
 62
7
  6
CONTINUOUS
 10
164.6687092066
 20
122.477375591
 11
163.1687092066
 21
120.977375591
  0
LINE
  5
30D
100
AcDbEntity
  8
RUNDUNGEN
100
AcDbLine
 62
7
  6
CONTINUOUS
 10
177.5751952783
 20
269.809399419
 11
157.3564688282
 21
277.5706413374
  0
LINE
  5
30E
100
AcDbEntity
  8
BEZUGSACHSEN
100
AcDbLine
 62
7
  6
CONTINUOUS
 10
255.0878232776
 20
120.977375591
 11
272.086470979
 21
120.977375591
  0
LINE
  5
30F
100
AcDbEntity
  8
BEZUGSACHSEN
100
AcDbLine
 62
7
  6
CONTINUOUS
 10
253.5871471283
 20
122.477375591
 11
273.5871471283
 21
122.477375591
  0
LINE
  5
310
100
AcDbEntity
  8
BEZUGSACHSEN
100
AcDbLine
 62
7
  6
CONTINUOUS
 10
255.0871471283
 20
120.977375591
 11
253.5871471283
 21
122.477375591
  0
LINE
  5
311
100
AcDbEntity
  8
0
100
AcDbLine
 62
7
  6
CONTINUOUS
 10
241.0871471283
 20
147.477375591
 11
286.0871471283
 21
147.477375591
  0
LINE
  5
312
100
AcDbEntity
  8
RUNDUNGEN
100
AcDbLine
 62
7
  6
CONTINUOUS
 10
270.7121471283
 20
152.102375591
 11
256.4621471283
 21
152.102375591
  0
LINE
  5
313
100
AcDbEntity
  8
0
100
AcDbLine
 62
7
  6
CONTINUOUS
 10
286.0871471283
 20
154.077375591
 11
273.5278138261
 21
154.077375591
  0
LINE
  5
314
100
AcDbEntity
  8
0
100
AcDbLine
 62
7
  6
CONTINUOUS
 10
241.0871471283
 20
154.077375591
 11
253.6464804304
 21
154.077375591
  0
LINE
  5
315
100
AcDbEntity
  8
RUNDUNGEN
100
AcDbLine
 62
7
  6
CONTINUOUS
 10
239.8371471283
 20
154.577375591
 11
253.5108509338
 21
154.577375591
  0
LINE
  5
316
100
AcDbEntity
  8
RUNDUNGEN
100
AcDbLine
 62
7
  6
CONTINUOUS
 10
273.6634433228
 20
154.577375591
 11
287.3371471283
 21
154.577375591
  0
LINE
  5
317
100
AcDbEntity
  8
0
100
AcDbLine
 62
7
  6
CONTINUOUS
 10
273.7121471283
 20
164.8234835406
 11
274.2121471283
 21
164.8234835406
  0
LINE
  5
318
100
AcDbEntity
  8
0
100
AcDbLine
 62
7
  6
CONTINUOUS
 10
273.7121471283
 20
170.8234835406
 11
274.2121471283
 21
170.8234835406
  0
LINE
  5
319
100
AcDbEntity
  8
0
100
AcDbLine
 62
7
  6
CONTINUOUS
 10
239.8371471283
 20
154.577375591
 11
239.8371471283
 21
183.477375591
  0
LINE
  5
31A
100
AcDbEntity
  8
0
100
AcDbLine
 62
7
  6
CONTINUOUS
 10
241.0871471283
 20
154.077375591
 11
241.0871471283
 21
147.477375591
  0
LINE
  5
31B
100
AcDbEntity
  8
0
100
AcDbLine
 62
7
  6
CONTINUOUS
 10
241.8371471283
 20
190.977375591
 11
241.8371471283
 21
185.977375591
  0
LINE
  5
31C
100
AcDbEntity
  8
0
100
AcDbLine
 62
7
  6
CONTINUOUS
 10
247.1871471283
 20
183.377375591
 11
247.1871471283
 21
185.477375591
  0
LINE
  5
31D
100
AcDbEntity
  8
0
100
AcDbLine
 62
7
  6
CONTINUOUS
 10
247.7139116127
 20
185.377375591
 11
247.7139116127
 21
183.377375591
  0
LINE
  5
31E
100
AcDbEntity
  8
BEZUGSACHSEN
100
AcDbLine
 62
7
  6
CONTINUOUS
 10
248.5871471283
 20
191.477375591
 11
248.5871471283
 21
203.4773755911
  0
LINE
  5
31F
100
AcDbEntity
  8
BEZUGSACHSEN
100
AcDbLine
 62
7
  6
CONTINUOUS
 10
249.5871471283
 20
190.977375591
 11
249.5871471283
 21
191.477375591
  0
LINE
  5
320
100
AcDbEntity
  8
0
100
AcDbLine
 62
7
  6
CONTINUOUS
 10
250.1871471283
 20
185.477375591
 11
250.1871471283
 21
185.377375591
  0
LINE
  5
321
100
AcDbEntity
  8
RUNDUNGEN
100
AcDbLine
 62
7
  6
CONTINUOUS
 10
283.4030016871
 20
183.377375591
 11
273.6177026838
 21
183.377375591
  0
LINE
  5
322
100
AcDbEntity
  8
RUNDUNGEN
100
AcDbLine
 62
7
  6
CONTINUOUS
 10
253.5565915727
 20
183.377375591
 11
245.1828613036
 21
183.377375591
  0
LINE
  5
323
100
AcDbEntity
  8
KONSTRUKTIONSELEMENTE
100
AcDbLine
 62
7
  6
CONTINUOUS
 10
251.0190362523
 20
203.477375591
 11
251.0190362523
 21
203.677375591
  0
LINE
  5
324
100
AcDbEntity
  8
0
100
AcDbLine
 62
7
  6
CONTINUOUS
 10
251.0871471283
 20
185.977375591
 11
251.0871471283
 21
185.477375591
  0
LINE
  5
325
100
AcDbEntity
  8
0
100
AcDbLine
 62
7
  6
CONTINUOUS
 10
251.0871471283
 20
154.577375591
 11
251.0871471283
 21
154.077375591
  0
LINE
  5
326
100
AcDbEntity
  8
KONSTRUKTIONSELEMENTE
100
AcDbLine
 62
7
  6
CONTINUOUS
 10
251.0947479663
 20
203.477375591
 11
251.0947479663
 21
203.677375591
  0
LINE
  5
327
100
AcDbEntity
  8
KONSTRUKTIONSELEMENTE
100
AcDbLine
 62
7
  6
CONTINUOUS
 10
251.3471203464
 20
203.477375591
 11
251.3471203464
 21
203.677375591
  0
LINE
  5
328
100
AcDbEntity
  8
KONSTRUKTIONSELEMENTE
100
AcDbLine
 62
7
  6
CONTINUOUS
 10
251.4228320604
 20
203.477375591
 11
251.4228320604
 21
203.677375591
  0
LINE
  5
329
100
AcDbEntity
  8
RUNDUNGEN
100
AcDbLine
 62
7
  6
CONTINUOUS
 10
253.4621471283
 20
181.362643839
 11
253.4621471283
 21
155.102375591
  0
LINE
  5
32A
100
AcDbEntity
  8
BEZUGSACHSEN
100
AcDbLine
 62
7
  6
CONTINUOUS
 10
253.5871471283
 20
122.477375591
 11
253.5871471283
 21
147.477375591
  0
LINE
  5
32B
100
AcDbEntity
  8
0
100
AcDbLine
 62
7
  6
CONTINUOUS
 10
254.4621471283
 20
202.3708687763
 11
254.4621471283
 21
211.3915267335
  0
LINE
  5
32C
100
AcDbEntity
  8
RUNDUNGEN
100
AcDbLine
 62
7
  6
CONTINUOUS
 10
254.9621471283
 20
277.5687125245
 11
254.9621471283
 21
203.0921038775
  0
LINE
  5
32D
100
AcDbEntity
  8
RUNDUNGEN
100
AcDbLine
 62
7
  6
CONTINUOUS
 10
256.4621471283
 20
214.4965213989
 11
256.4621471283
 21
242.258074673
  0
LINE
  5
32E
100
AcDbEntity
  8
RUNDUNGEN
100
AcDbLine
 62
7
  6
CONTINUOUS
 10
256.4621471283
 20
246.3790234011
 11
256.4621471283
 21
267.1635543236
  0
LINE
  5
32F
100
AcDbEntity
  8
RUNDUNGEN
100
AcDbLine
 62
7
  6
CONTINUOUS
 10
256.4621471283
 20
269.9361960021
 11
256.4621471283
 21
278.2958538906
  0
LINE
  5
330
100
AcDbEntity
  8
0
100
AcDbLine
 62
7
  6
CONTINUOUS
 10
253.7555670832
 20
192.8320381676
 11
254.4621471283
 21
202.3708687763
  0
LINE
  5
331
100
AcDbEntity
  8
RUNDUNGEN
100
AcDbLine
 62
7
  6
CONTINUOUS
 10
254.9075022893
 20
201.6146702647
 11
253.5167920253
 21
182.8400817006
  0
LINE
  5
332
100
AcDbEntity
  8
0
100
AcDbLine
 62
7
  6
CONTINUOUS
 10
247.7139116127
 20
185.377375591
 11
253.7047397209
 21
185.377375591
  0
LINE
  5
333
100
AcDbEntity
  8
RUNDUNGEN
100
AcDbLine
 62
7
  6
CONTINUOUS
 10
241.8409854396
 20
185.477375591
 11
247.1871471283
 21
185.477375591
  0
LINE
  5
334
100
AcDbEntity
  8
0
100
AcDbLine
 62
7
  6
CONTINUOUS
 10
250.1871471283
 20
185.477375591
 11
253.7121471283
 21
185.477375591
  0
LINE
  5
335
100
AcDbEntity
  8
RUNDUNGEN
100
AcDbLine
 62
7
  6
CONTINUOUS
 10
250.1871471283
 20
185.477375591
 11
253.7121471283
 21
185.477375591
  0
LINE
  5
336
100
AcDbEntity
  8
RUNDUNGEN
100
AcDbLine
 62
7
  6
CONTINUOUS
 10
273.4621471283
 20
185.477375591
 11
285.3354288951
 21
185.477375591
  0
LINE
  5
337
100
AcDbEntity
  8
0
100
AcDbLine
 62
7
  6
CONTINUOUS
 10
285.3371471283
 20
185.977375591
 11
273.4251100912
 21
185.977375591
  0
LINE
  5
338
100
AcDbEntity
  8
0
100
AcDbLine
 62
7
  6
CONTINUOUS
 10
241.8371471283
 20
185.977375591
 11
253.7491841653
 21
185.977375591
  0
LINE
  5
339
100
AcDbEntity
  8
0
100
AcDbLine
 62
7
  6
CONTINUOUS
 10
285.3371471283
 20
190.977375591
 11
273.0547397209
 21
190.977375591
  0
LINE
  5
33A
100
AcDbEntity
  8
0
100
AcDbLine
 62
7
  6
CONTINUOUS
 10
241.8371471283
 20
190.977375591
 11
254.1195545357
 21
190.977375591
  0
LINE
  5
33B
100
AcDbEntity
  8
0
100
AcDbLine
 62
7
  6
CONTINUOUS
 10
273.0439989801
 20
191.122375591
 11
273.5453688457
 21
191.122375591
  0
LINE
  5
33C
100
AcDbEntity
  8
KONSTRUKTIONSELEMENTE
100
AcDbLine
 62
7
  6
CONTINUOUS
 10
248.5871471283
 20
191.477375591
 11
254.1565915727
 21
191.477375591
  0
LINE
  5
33D
100
AcDbEntity
  8
KONSTRUKTIONSELEMENTE
100
AcDbLine
 62
7
  6
CONTINUOUS
 10
273.5190725494
 20
191.477375591
 11
278.5871471283
 21
191.477375591
  0
LINE
  5
33E
100
AcDbEntity
  8
0
100
AcDbLine
 62
7
  6
CONTINUOUS
 10
253.7555645617
 20
192.8320041281
 11
254.2569344273
 21
192.8320041281
  0
LINE
  5
33F
100
AcDbEntity
  8
0
100
AcDbLine
 62
7
  6
CONTINUOUS
 10
272.68950452
 20
195.9080508034
 11
273.1908743855
 21
195.9080508034
  0
LINE
  5
340
100
AcDbEntity
  8
0
100
AcDbLine
 62
7
  6
CONTINUOUS
 10
272.609377525
 20
196.9897652359
 11
273.1107473905
 21
196.9897652359
  0
LINE
  5
341
100
AcDbEntity
  8
0
100
AcDbLine
 62
7
  6
CONTINUOUS
 10
272.5077605548
 20
198.3615943329
 11
273.0091304204
 21
198.3615943329
  0
LINE
  5
342
100
AcDbEntity
  8
0
100
AcDbLine
 62
7
  6
CONTINUOUS
 10
272.4971125731
 20
198.5053420864
 11
272.9984824386
 21
198.5053420864
  0
LINE
  5
343
100
AcDbEntity
  8
0
100
AcDbLine
 62
7
  6
CONTINUOUS
 10
254.7318460796
 20
199.2433114338
 11
254.230476214
 21
199.2433114338
  0
LINE
  5
344
100
AcDbEntity
  8
0
100
AcDbLine
 62
7
  6
CONTINUOUS
 10
272.4351209398
 20
199.3422291352
 11
272.9364908054
 21
199.3422291352
  0
LINE
  5
345
100
AcDbEntity
  8
0
100
AcDbLine
 62
7
  6
CONTINUOUS
 10
272.4044411583
 20
199.7564061851
 11
272.9058110239
 21
199.7564061851
  0
LINE
  5
346
100
AcDbEntity
  8
0
100
AcDbLine
 62
7
  6
CONTINUOUS
 10
272.3678783269
 20
200.2500044103
 11
272.8692481924
 21
200.2500044103
  0
LINE
  5
347
100
AcDbEntity
  8
0
100
AcDbLine
 62
7
  6
CONTINUOUS
 10
254.8231294991
 20
200.4756375967
 11
254.3217596335
 21
200.4756375967
  0
LINE
  5
348
100
AcDbEntity
  8
0
100
AcDbLine
 62
7
  6
CONTINUOUS
 10
272.3112837072
 20
201.0140317755
 11
272.8126535728
 21
201.0140317755
  0
LINE
  5
349
100
AcDbEntity
  8
0
100
AcDbLine
 62
7
  6
CONTINUOUS
 10
272.263022327
 20
201.6664734376
 11
272.7643245608
 21
201.6664734376
  0
LINE
  5
34A
100
AcDbEntity
  8
0
100
AcDbLine
 62
7
  6
CONTINUOUS
 10
254.9141936035
 20
201.7079637597
 11
254.413043053
 21
201.7079637597
  0
LINE
  5
34B
100
AcDbEntity
  8
0
100
AcDbLine
 62
7
  6
CONTINUOUS
 10
272.2241834979
 20
202.3983379787
 11
272.7121471283
 21
202.3983379787
  0
LINE
  5
34C
100
AcDbEntity
  8
RUNDUNGEN
100
AcDbLine
 62
7
  6
CONTINUOUS
 10
272.2667960186
 20
201.6146155715
 11
273.6575022174
 21
182.8400818877
  0
LINE
  5
34D
100
AcDbEntity
  8
0
100
AcDbLine
 62
7
  6
CONTINUOUS
 10
273.1107473905
 20
196.9897652359
 11
273.5453688457
 21
191.122375591
  0
LINE
  5
34E
100
AcDbEntity
  8
0
100
AcDbLine
 62
7
  6
CONTINUOUS
 10
273.0091304204
 20
198.3615943329
 11
272.7121471283
 21
202.3708687763
  0
LINE
  5
34F
100
AcDbEntity
  8
RUNDUNGEN
100
AcDbLine
 62
7
  6
CONTINUOUS
 10
270.7121471283
 20
278.2958538906
 11
270.7121471283
 21
269.9361960014
  0
LINE
  5
350
100
AcDbEntity
  8
RUNDUNGEN
100
AcDbLine
 62
7
  6
CONTINUOUS
 10
270.7121471283
 20
267.1635543228
 11
270.7121471283
 21
246.3790234013
  0
LINE
  5
351
100
AcDbEntity
  8
RUNDUNGEN
100
AcDbLine
 62
7
  6
CONTINUOUS
 10
270.7121471283
 20
242.2580747263
 11
270.7121471283
 21
214.4965213875
  0
LINE
  5
352
100
AcDbEntity
  8
RUNDUNGEN
100
AcDbLine
 62
7
  6
CONTINUOUS
 10
272.2121471283
 20
277.5687125245
 11
272.2121471283
 21
203.0921031786
  0
LINE
  5
353
100
AcDbEntity
  8
0
100
AcDbLine
 62
7
  6
CONTINUOUS
 10
272.7121471283
 20
211.0113574313
 11
272.7121471283
 21
202.3708687763
  0
LINE
  5
354
100
AcDbEntity
  8
BEZUGSACHSEN
100
AcDbLine
 62
7
  6
CONTINUOUS
 10
273.5871471283
 20
122.477375591
 11
273.5871471283
 21
147.477375591
  0
LINE
  5
355
100
AcDbEntity
  8
RUNDUNGEN
100
AcDbLine
 62
7
  6
CONTINUOUS
 10
273.7121471283
 20
181.3626436186
 11
273.7121471283
 21
155.102375591
  0
LINE
  5
356
100
AcDbEntity
  8
BEZUGSACHSEN
100
AcDbLine
 62
7
  6
CONTINUOUS
 10
248.5871471283
 20
203.477375591
 11
254.4621471283
 21
203.477375591
  0
LINE
  5
357
100
AcDbEntity
  8
BEZUGSACHSEN
100
AcDbLine
 62
7
  6
CONTINUOUS
 10
272.7121471283
 20
203.477375591
 11
278.5871471283
 21
203.477375591
  0
LINE
  5
358
100
AcDbEntity
  8
0
100
AcDbLine
 62
7
  6
CONTINUOUS
 10
272.2121471283
 20
203.6152667879
 11
272.7121471283
 21
203.6152667879
  0
LINE
  5
359
100
AcDbEntity
  8
KONSTRUKTIONSELEMENTE
100
AcDbLine
 62
7
  6
CONTINUOUS
 10
251.0190362523
 20
203.677375591
 11
254.4621471283
 21
203.677375591
  0
LINE
  5
35A
100
AcDbEntity
  8
0
100
AcDbLine
 62
7
  6
CONTINUOUS
 10
254.9621471283
 20
204.0815919941
 11
254.4621471283
 21
204.0815919941
  0
LINE
  5
35B
100
AcDbEntity
  8
0
100
AcDbLine
 62
7
  6
CONTINUOUS
 10
272.2121471283
 20
204.2355456259
 11
272.7121471283
 21
204.2355456259
  0
LINE
  5
35C
100
AcDbEntity
  8
0
100
AcDbLine
 62
7
  6
CONTINUOUS
 10
272.2121471283
 20
204.6648182029
 11
272.7121471283
 21
204.6648182029
  0
LINE
  5
35D
100
AcDbEntity
  8
0
100
AcDbLine
 62
7
  6
CONTINUOUS
 10
272.2121471283
 20
204.9825050767
 11
272.7121471283
 21
204.9825050767
  0
LINE
  5
35E
100
AcDbEntity
  8
0
100
AcDbLine
 62
7
  6
CONTINUOUS
 10
254.9621471283
 20
205.313918157
 11
254.4621471283
 21
205.313918157
  0
LINE
  5
35F
100
AcDbEntity
  8
0
100
AcDbLine
 62
7
  6
CONTINUOUS
 10
254.9621471283
 20
205.7328752693
 11
254.4621471283
 21
205.7328752693
  0
LINE
  5
360
100
AcDbEntity
  8
0
100
AcDbLine
 62
7
  6
CONTINUOUS
 10
272.2121471283
 20
206.5899811388
 11
272.7121471283
 21
206.5899811388
  0
LINE
  5
361
100
AcDbEntity
  8
0
100
AcDbLine
 62
7
  6
CONTINUOUS
 10
274.2121471283
 20
170.8233431097
 11
274.2121471283
 21
164.8236239714
  0
LINE
  5
362
100
AcDbEntity
  8
0
100
AcDbLine
 62
7
  6
CONTINUOUS
 10
276.0871471283
 20
185.977375591
 11
276.0871471283
 21
185.477375591
  0
LINE
  5
363
100
AcDbEntity
  8
0
100
AcDbLine
 62
7
  6
CONTINUOUS
 10
276.0871471283
 20
154.577375591
 11
276.0871471283
 21
154.077375591
  0
LINE
  5
364
100
AcDbEntity
  8
BEZUGSACHSEN
100
AcDbLine
 62
7
  6
CONTINUOUS
 10
277.5871471283
 20
190.977375591
 11
277.5871471283
 21
191.477375591
  0
LINE
  5
365
100
AcDbEntity
  8
BEZUGSACHSEN
100
AcDbLine
 62
7
  6
CONTINUOUS
 10
278.5871471283
 20
191.477375591
 11
278.5871471283
 21
203.4773755911
  0
LINE
  5
366
100
AcDbEntity
  8
0
100
AcDbLine
 62
7
  6
CONTINUOUS
 10
272.2121471283
 20
209.8351254035
 11
272.7121471283
 21
209.8351254035
  0
LINE
  5
367
100
AcDbEntity
  8
0
100
AcDbLine
 62
7
  6
CONTINUOUS
 10
272.2121471283
 20
210.4554034678
 11
272.7121471283
 21
210.4554034678
  0
LINE
  5
368
100
AcDbEntity
  8
0
100
AcDbLine
 62
7
  6
CONTINUOUS
 10
272.2121471283
 20
210.8288843538
 11
272.7121471283
 21
210.8288843538
  0
LINE
  5
369
100
AcDbEntity
  8
0
100
AcDbLine
 62
7
  6
CONTINUOUS
 10
272.2121471283
 20
211.0113574313
 11
272.7121471283
 21
211.0113574313
  0
LINE
  5
36A
100
AcDbEntity
  8
0
100
AcDbLine
 62
7
  6
CONTINUOUS
 10
254.9621471283
 20
211.3915267335
 11
254.4621471283
 21
211.3915267335
  0
LINE
  5
36B
100
AcDbEntity
  8
0
100
AcDbLine
 62
7
  6
CONTINUOUS
 10
285.3371471283
 20
190.977375591
 11
285.3371471283
 21
185.977375591
  0
LINE
  5
36C
100
AcDbEntity
  8
0
100
AcDbLine
 62
7
  6
CONTINUOUS
 10
286.0871471283
 20
154.077375591
 11
286.0871471283
 21
147.477375591
  0
LINE
  5
36D
100
AcDbEntity
  8
0
100
AcDbLine
 62
7
  6
CONTINUOUS
 10
287.3371471283
 20
154.577375591
 11
287.3371471283
 21
183.477375591
  0
LINE
  5
36E
100
AcDbEntity
  8
BEZUGSACHSEN
100
AcDbLine
 62
7
  6
CONTINUOUS
 10
272.0871471283
 20
120.977375591
 11
273.5871471283
 21
122.477375591
  0
LINE
  5
36F
100
AcDbEntity
  8
RUNDUNGEN
100
AcDbLine
 62
7
  6
CONTINUOUS
 10
255.4621471283
 20
278.0687881387
 11
255.9621471283
 21
278.0687881387
  0
LINE
  5
370
100
AcDbEntity
  8
RUNDUNGEN
100
AcDbLine
 62
7
  6
CONTINUOUS
 10
271.2121471283
 20
278.0687881387
 11
271.7121471283
 21
278.0687881387
  0
LINE
  5
371
100
AcDbEntity
  8
0
100
AcDbLine
 62
7
  6
CONTINUOUS
 10
260.4569421292
 20
282.352375591
 11
266.7173521274
 21
282.352375591
  0
LINE
  5
372
100
AcDbEntity
  8
BEZUGSACHSEN
100
AcDbLine
 62
7
  6
CONTINUOUS
 10
109.7337968989
 20
71.3081330724
 11
109.7337968989
 21
57.0581330724
  0
LINE
  5
373
100
AcDbEntity
  8
0
100
AcDbLine
 62
7
  6
CONTINUOUS
 10
112.6687092066
 20
67.3081330724
 11
112.6687092066
 21
61.0581330724
  0
LINE
  5
374
100
AcDbEntity
  8
0
100
AcDbLine
 62
7
  6
CONTINUOUS
 10
116.3258057937
 20
54.0581330724
 11
116.3258057937
 21
53.5581330724
  0
LINE
  5
375
100
AcDbEntity
  8
RUNDUNGEN
100
AcDbLine
 62
7
  6
CONTINUOUS
 10
117.1178253284
 20
72.3081330724
 11
117.1178253284
 21
71.8081330724
  0
LINE
  5
376
100
AcDbEntity
  8
RUNDUNGEN
100
AcDbLine
 62
7
  6
CONTINUOUS
 10
117.1178253284
 20
56.5581330724
 11
117.1178253284
 21
56.0581330724
  0
LINE
  5
377
100
AcDbEntity
  8
0
100
AcDbLine
 62
7
  6
CONTINUOUS
 10
119.6258057937
 20
54.0581330724
 11
119.6258057937
 21
53.5581330724
  0
LINE
  5
378
100
AcDbEntity
  8
0
100
AcDbLine
 62
7
  6
CONTINUOUS
 10
121.412504302
 20
55.0807756808
 11
121.412504302
 21
54.5794058152
  0
LINE
  5
379
100
AcDbEntity
  8
0
100
AcDbLine
 62
7
  6
CONTINUOUS
 10
121.4258057937
 20
54.0581330724
 11
121.4258057937
 21
53.5581330724
  0
LINE
  5
37A
100
AcDbEntity
  8
0
100
AcDbLine
 62
7
  6
CONTINUOUS
 10
121.8495453016
 20
55.1609026758
 11
121.8495453016
 21
54.6595328102
  0
LINE
  5
37B
100
AcDbEntity
  8
0
100
AcDbLine
 62
7
  6
CONTINUOUS
 10
122.161448441
 20
73.7947800553
 11
122.161448441
 21
73.2934101897
  0
LINE
  5
37C
100
AcDbEntity
  8
0
100
AcDbLine
 62
7
  6
CONTINUOUS
 10
123.3702048674
 20
73.0384341211
 11
123.3702048674
 21
73.5398039867
  0
LINE
  5
37D
100
AcDbEntity
  8
0
100
AcDbLine
 62
7
  6
CONTINUOUS
 10
123.8432505608
 20
72.9471507016
 11
123.8432505608
 21
73.4485205672
  0
LINE
  5
37E
100
AcDbEntity
  8
0
100
AcDbLine
 62
7
  6
CONTINUOUS
 10
123.8996908806
 20
55.5072578737
 11
123.8996908806
 21
55.0059556399
  0
LINE
  5
37F
100
AcDbEntity
  8
0
100
AcDbLine
 62
7
  6
CONTINUOUS
 10
124.0347505341
 20
55.5460967028
 11
124.0347505341
 21
55.0581330724
  0
LINE
  5
380
100
AcDbEntity
  8
0
100
AcDbLine
 62
7
  6
CONTINUOUS
 10
124.3162962542
 20
72.8560865972
 11
124.3162962542
 21
73.3572371477
  0
LINE
  5
381
100
AcDbEntity
  8
0
100
AcDbLine
 62
7
  6
CONTINUOUS
 10
124.3395409329
 20
73.5806365946
 11
124.3395409329
 21
73.6721006271
  0
LINE
  5
382
100
AcDbEntity
  8
0
100
AcDbLine
 62
7
  6
CONTINUOUS
 10
124.3994772876
 20
73.4643365254
 11
124.3994772876
 21
73.5690707026
  0
LINE
  5
383
100
AcDbEntity
  8
0
100
AcDbLine
 62
7
  6
CONTINUOUS
 10
124.5264216879
 20
55.5581330724
 11
124.5264216879
 21
55.0581330724
  0
LINE
  5
384
100
AcDbEntity
  8
0
100
AcDbLine
 62
7
  6
CONTINUOUS
 10
124.7258057937
 20
54.0581330724
 11
124.7258057937
 21
53.5581330724
  0
LINE
  5
385
100
AcDbEntity
  8
0
100
AcDbLine
 62
7
  6
CONTINUOUS
 10
124.8125866263
 20
73.4760830304
 11
124.8125866263
 21
73.5808172076
  0
LINE
  5
386
100
AcDbEntity
  8
0
100
AcDbLine
 62
7
  6
CONTINUOUS
 10
124.8951602957
 20
55.0353711772
 11
124.8951602957
 21
54.9528617078
  0
LINE
  5
387
100
AcDbEntity
  8
0
100
AcDbLine
 62
7
  6
CONTINUOUS
 10
124.9376634207
 20
55.5581330724
 11
124.9376634207
 21
55.0581330724
  0
LINE
  5
388
100
AcDbEntity
  8
0
100
AcDbLine
 62
7
  6
CONTINUOUS
 10
125.2001741181
 20
55.0581330724
 11
125.2001741181
 21
54.9204316399
  0
LINE
  5
389
100
AcDbEntity
  8
0
100
AcDbLine
 62
7
  6
CONTINUOUS
 10
125.2274467659
 20
72.8081330724
 11
125.2274467659
 21
73.3081330724
  0
LINE
  5
38A
100
AcDbEntity
  8
0
100
AcDbLine
 62
7
  6
CONTINUOUS
 10
125.4201813018
 20
54.5864924062
 11
125.4201813018
 21
54.4012103905
  0
LINE
  5
38B
100
AcDbEntity
  8
0
100
AcDbLine
 62
7
  6
CONTINUOUS
 10
125.4323664295
 20
55.5581330724
 11
125.4323664295
 21
55.0581330724
  0
LINE
  5
38C
100
AcDbEntity
  8
0
100
AcDbLine
 62
7
  6
CONTINUOUS
 10
125.6979086694
 20
55.0581330724
 11
125.6979086694
 21
54.8938846452
  0
LINE
  5
38D
100
AcDbEntity
  8
0
100
AcDbLine
 62
7
  6
CONTINUOUS
 10
125.7004924593
 20
72.8081330724
 11
125.7004924593
 21
73.3081330724
  0
LINE
  5
38E
100
AcDbEntity
  8
0
100
AcDbLine
 62
7
  6
CONTINUOUS
 10
125.7282843001
 20
55.5581330724
 11
125.7282843001
 21
55.0581330724
  0
LINE
  5
38F
100
AcDbEntity
  8
RUNDUNGEN
100
AcDbLine
 62
7
  6
CONTINUOUS
 10
136.7909619539
 20
84.4403614919
 11
135.3718342066
 21
83.8368266392
  0
LINE
  5
390
100
AcDbEntity
  8
0
100
AcDbLine
 62
7
  6
CONTINUOUS
 10
126.7400512136
 20
72.8081330724
 11
126.7400512136
 21
73.3081330724
  0
LINE
  5
391
100
AcDbEntity
  8
0
100
AcDbLine
 62
7
  6
CONTINUOUS
 10
127.0394076896
 20
55.5581330724
 11
127.0394076896
 21
55.0581330724
  0
LINE
  5
392
100
AcDbEntity
  8
0
100
AcDbLine
 62
7
  6
CONTINUOUS
 10
127.3564899759
 20
54.5732230645
 11
127.3564899759
 21
54.2850066048
  0
LINE
  5
393
100
AcDbEntity
  8
0
100
AcDbLine
 62
7
  6
CONTINUOUS
 10
127.4506491098
 20
55.5581330724
 11
127.4506491098
 21
55.0581330724
  0
LINE
  5
394
100
AcDbEntity
  8
0
100
AcDbLine
 62
7
  6
CONTINUOUS
 10
127.7692768016
 20
55.0581330724
 11
127.7692768016
 21
54.8318930119
  0
LINE
  5
395
100
AcDbEntity
  8
0
100
AcDbLine
 62
7
  6
CONTINUOUS
 10
128.0334678108
 20
72.8081330724
 11
128.0334678108
 21
73.3081330724
  0
LINE
  5
396
100
AcDbEntity
  8
0
100
AcDbLine
 62
7
  6
CONTINUOUS
 10
128.0834436272
 20
55.5581330724
 11
128.0834436272
 21
55.0581330724
  0
LINE
  5
397
100
AcDbEntity
  8
0
100
AcDbLine
 62
7
  6
CONTINUOUS
 10
128.3762718177
 20
55.0581330724
 11
128.3762718177
 21
54.8253778053
  0
LINE
  5
398
100
AcDbEntity
  8
0
100
AcDbLine
 62
7
  6
CONTINUOUS
 10
128.7996987955
 20
55.5581330724
 11
128.7996987955
 21
55.0581330724
  0
LINE
  5
399
100
AcDbEntity
  8
0
100
AcDbLine
 62
7
  6
CONTINUOUS
 10
128.8998055577
 20
55.0581330724
 11
128.8998055577
 21
54.8330112107
  0
LINE
  5
39A
100
AcDbEntity
  8
0
100
AcDbLine
 62
7
  6
CONTINUOUS
 10
129.0627402311
 20
72.8081330724
 11
129.0627402311
 21
73.3081330724
  0
LINE
  5
39B
100
AcDbEntity
  8
0
100
AcDbLine
 62
7
  6
CONTINUOUS
 10
129.2139142828
 20
54.7758141541
 11
129.2139142828
 21
54.6255463443
  0
LINE
  5
39C
100
AcDbEntity
  8
0
100
AcDbLine
 62
7
  6
CONTINUOUS
 10
129.268602303
 20
55.5581330724
 11
129.268602303
 21
55.0581330724
  0
LINE
  5
39D
100
AcDbEntity
  8
0
100
AcDbLine
 62
7
  6
CONTINUOUS
 10
129.3398784309
 20
55.0581330724
 11
129.3398784309
 21
54.8547932824
  0
LINE
  5
39E
100
AcDbEntity
  8
0
100
AcDbLine
 62
7
  6
CONTINUOUS
 10
129.4268078843
 20
73.5491841809
 11
129.4268078843
 21
73.7120196958
  0
LINE
  5
39F
100
AcDbEntity
  8
0
100
AcDbLine
 62
7
  6
CONTINUOUS
 10
129.4758495698
 20
72.8081330724
 11
129.4758495698
 21
73.3081330724
  0
LINE
  5
3A0
100
AcDbEntity
  8
0
100
AcDbLine
 62
7
  6
CONTINUOUS
 10
129.6964902438
 20
55.0581330724
 11
129.6964902438
 21
54.8907240262
  0
LINE
  5
3A1
100
AcDbEntity
  8
0
100
AcDbLine
 62
7
  6
CONTINUOUS
 10
129.8209674736
 20
55.5581330724
 11
129.8209674736
 21
55.0581330724
  0
LINE
  5
3A2
100
AcDbEntity
  8
0
100
AcDbLine
 62
7
  6
CONTINUOUS
 10
136.0773335559
 20
77.9189156278
 11
132.1984602367
 21
73.3081330724
  0
LINE
  5
3A3
100
AcDbEntity
  8
0
100
AcDbLine
 62
7
  6
CONTINUOUS
 10
130.1806111415
 20
55.5581330724
 11
130.1806111415
 21
55.0581330724
  0
LINE
  5
3A4
100
AcDbEntity
  8
0
100
AcDbLine
 62
7
  6
CONTINUOUS
 10
130.1881613977
 20
55.0581330724
 11
130.1881613977
 21
54.980866901
  0
LINE
  5
3A5
100
AcDbEntity
  8
0
100
AcDbLine
 62
7
  6
CONTINUOUS
 10
130.5690855406
 20
55.5581330724
 11
130.5690855406
 21
55.0581330724
  0
LINE
  5
3A6
100
AcDbEntity
  8
0
100
AcDbLine
 62
7
  6
CONTINUOUS
 10
130.7648381987
 20
55.5581330724
 11
130.7648381987
 21
55.0581330724
  0
LINE
  5
3A7
100
AcDbEntity
  8
RUNDUNGEN
100
AcDbLine
 62
7
  6
CONTINUOUS
 10
130.9187092066
 20
51.3826542794
 11
130.9187092066
 21
54.9381030483
  0
LINE
  5
3A8
100
AcDbEntity
  8
RUNDUNGEN
100
AcDbLine
 62
7
  6
CONTINUOUS
 10
130.9187092066
 20
73.4200091496
 11
130.9187092066
 21
76.9836118655
  0
LINE
  5
3A9
100
AcDbEntity
  8
0
100
AcDbLine
 62
7
  6
CONTINUOUS
 10
131.0005842468
 20
73.3081330724
 11
131.0005842468
 21
73.3727750842
  0
LINE
  5
3AA
100
AcDbEntity
  8
0
100
AcDbLine
 62
7
  6
CONTINUOUS
 10
131.1517679987
 20
55.0581330724
 11
131.1517679987
 21
55.0102823784
  0
LINE
  5
3AB
100
AcDbEntity
  8
0
100
AcDbLine
 62
7
  6
CONTINUOUS
 10
132.5463523639
 20
55.5581330724
 11
132.5463523639
 21
55.0581330724
  0
LINE
  5
3AC
100
AcDbEntity
  8
0
100
AcDbLine
 62
7
  6
CONTINUOUS
 10
135.1013109149
 20
73.6519678291
 11
134.3914253187
 21
72.8081330724
  0
LINE
  5
3AD
100
AcDbEntity
  8
0
100
AcDbLine
 62
7
  6
CONTINUOUS
 10
123.8996908806
 20
55.0059556399
 11
123.957352968
 21
54.9576266279
  0
LINE
  5
3AE
100
AcDbEntity
  8
0
100
AcDbLine
 62
7
  6
CONTINUOUS
 10
134.0900708277
 20
72.8081330724
 11
134.0900708277
 21
73.3081330724
  0
LINE
  5
3AF
100
AcDbEntity
  8
0
100
AcDbLine
 62
7
  6
CONTINUOUS
 10
131.1517679987
 20
55.0102823784
 11
131.0941061876
 21
55.0586114488
  0
LINE
  5
3B0
100
AcDbEntity
  8
BEZUGSACHSEN
100
AcDbLine
 62
7
  6
CONTINUOUS
 10
146.0084551688
 20
79.1831330724
 11
142.3278472027
 21
72.8081330724
  0
LINE
  5
3B1
100
AcDbEntity
  8
KONSTRUKTIONSELEMENTE
100
AcDbLine
 62
7
  6
CONTINUOUS
 10
145.6459044359
 20
72.8371596059
 11
145.6190745246
 21
72.8081330724
  0
LINE
  5
3B2
100
AcDbEntity
  8
KONSTRUKTIONSELEMENTE
100
AcDbLine
 62
7
  6
CONTINUOUS
 10
145.9040676373
 20
72.991076743
 11
145.6459044359
 21
72.8371596059
  0
LINE
  5
3B3
100
AcDbEntity
  8
0
100
AcDbLine
 62
7
  6
CONTINUOUS
 10
124.8951602957
 20
54.9528617078
 11
124.7828682885
 21
54.991174883
  0
LINE
  5
3B4
100
AcDbEntity
  8
KONSTRUKTIONSELEMENTE
100
AcDbLine
 62
7
  6
CONTINUOUS
 10
156.3662696232
 20
75.8939380456
 11
156.5686226637
 21
76.0278783552
  0
LINE
  5
3B5
100
AcDbEntity
  8
KONSTRUKTIONSELEMENTE
100
AcDbLine
 62
7
  6
CONTINUOUS
 10
159.8442346473
 20
75.2045382456
 11
159.5713059627
 21
75.0609688682
  0
LINE
  5
3B6
100
AcDbEntity
  8
KONSTRUKTIONSELEMENTE
100
AcDbLine
 62
7
  6
CONTINUOUS
 10
156.5935277713
 20
76.4565751873
 11
156.3345887622
 21
76.3336756648
  0
LINE
  5
3B7
100
AcDbEntity
  8
KONSTRUKTIONSELEMENTE
100
AcDbLine
 62
7
  6
CONTINUOUS
 10
159.8361960003
 20
74.8227801074
 11
160.0689864947
 21
74.8913026969
  0
LINE
  5
3B8
100
AcDbEntity
  8
BEZUGSACHSEN
100
AcDbLine
 62
7
  6
CONTINUOUS
 10
146.0084551688
 20
49.1831330724
 11
163.3289632445
 21
49.1831330724
  0
LINE
  5
3B9
100
AcDbEntity
  8
0
100
AcDbLine
 62
7
  6
CONTINUOUS
 10
123.957352968
 20
54.9576266279
 11
124.2911971346
 21
54.9010320083
  0
LINE
  5
3BA
100
AcDbEntity
  8
0
100
AcDbLine
 62
7
  6
CONTINUOUS
 10
130.2685905062
 20
55.0250631378
 11
130.1796783833
 21
55.0553992512
  0
LINE
  5
3BB
100
AcDbEntity
  8
BEZUGSACHSEN
100
AcDbLine
 62
7
  6
CONTINUOUS
 10
142.3278472027
 20
55.5581330724
 11
146.0084551688
 21
49.1831330724
  0
LINE
  5
3BC
100
AcDbEntity
  8
KONSTRUKTIONSELEMENTE
100
AcDbLine
 62
7
  6
CONTINUOUS
 10
156.2042030407
 20
75.6654259927
 11
156.3662696232
 21
75.8939380456
  0
LINE
  5
3BD
100
AcDbEntity
  8
KONSTRUKTIONSELEMENTE
100
AcDbLine
 62
7
  6
CONTINUOUS
 10
156.3345887622
 20
76.3336756648
 11
156.043054618
 21
76.0437134715
  0
LINE
  5
3BE
100
AcDbEntity
  8
KONSTRUKTIONSELEMENTE
100
AcDbLine
 62
7
  6
CONTINUOUS
 10
159.5713059627
 20
75.0609688682
 11
159.3090775136
 21
74.8151621666
  0
LINE
  5
3BF
100
AcDbEntity
  8
KONSTRUKTIONSELEMENTE
100
AcDbLine
 62
7
  6
CONTINUOUS
 10
157.3512959436
 20
74.9213429585
 11
155.3594450694
 21
73.1422023208
  0
LINE
  5
3C0
100
AcDbEntity
  8
KONSTRUKTIONSELEMENTE
100
AcDbLine
 62
7
  6
CONTINUOUS
 10
155.8121302267
 20
73.0538765299
 11
157.58532855
 21
74.6155459016
  0
LINE
  5
3C1
100
AcDbEntity
  8
KONSTRUKTIONSELEMENTE
100
AcDbLine
 62
7
  6
CONTINUOUS
 10
159.3920153702
 20
74.4812600698
 11
159.8361960003
 21
74.8227801074
  0
LINE
  5
3C2
100
AcDbEntity
  8
0
100
AcDbLine
 62
7
  6
CONTINUOUS
 10
124.7828682885
 20
54.991174883
 11
124.8632977096
 21
55.0353711772
  0
LINE
  5
3C3
100
AcDbEntity
  8
0
100
AcDbLine
 62
7
  6
CONTINUOUS
 10
130.2685905062
 20
55.0250631378
 11
130.1881613977
 21
54.980866901
  0
LINE
  5
3C4
100
AcDbEntity
  8
0
100
AcDbLine
 62
7
  6
CONTINUOUS
 10
180.9327259461
 20
54.8430105058
 11
180.4896215788
 21
54.8064476155
  0
LINE
  5
3C5
100
AcDbEntity
  8
0
100
AcDbLine
 62
7
  6
CONTINUOUS
 10
181.1224155194
 20
54.7787824808
 11
181.482059284
 21
54.8011966459
  0
LINE
  5
3C6
100
AcDbEntity
  8
0
100
AcDbLine
 62
7
  6
CONTINUOUS
 10
124.7258057937
 20
53.5581330724
 11
121.4258057937
 21
53.5581330724
  0
LINE
  5
3C7
100
AcDbEntity
  8
0
100
AcDbLine
 62
7
  6
CONTINUOUS
 10
119.6258057937
 20
53.5581330724
 11
116.3258057937
 21
53.5581330724
  0
LINE
  5
3C8
100
AcDbEntity
  8
0
100
AcDbLine
 62
7
  6
CONTINUOUS
 10
124.7343017661
 20
54.8644691768
 11
125.3701279001
 21
54.8337893953
  0
LINE
  5
3C9
100
AcDbEntity
  8
0
100
AcDbLine
 62
7
  6
CONTINUOUS
 10
125.6979086694
 20
54.8938846452
 11
125.2001741181
 21
54.9204316399
  0
LINE
  5
3CA
100
AcDbEntity
  8
0
100
AcDbLine
 62
7
  6
CONTINUOUS
 10
125.4201813018
 20
54.4012103905
 11
122.1833895464
 21
54.6029382049
  0
LINE
  5
3CB
100
AcDbEntity
  8
0
100
AcDbLine
 62
7
  6
CONTINUOUS
 10
127.3564899759
 20
54.2850066048
 11
125.9179159312
 21
54.3746634101
  0
LINE
  5
3CC
100
AcDbEntity
  8
0
100
AcDbLine
 62
7
  6
CONTINUOUS
 10
121.412504302
 20
54.5794058152
 11
127.0287092066
 21
54.224911355
  0
LINE
  5
3CD
100
AcDbEntity
  8
0
100
AcDbLine
 62
7
  6
CONTINUOUS
 10
124.2911971346
 20
54.9010320083
 11
124.7343017661
 21
54.8644691768
  0
LINE
  5
3CE
100
AcDbEntity
  8
0
100
AcDbLine
 62
7
  6
CONTINUOUS
 10
125.2001741181
 20
54.9204316399
 11
124.8951602957
 21
54.9528617078
  0
LINE
  5
3CF
100
AcDbEntity
  8
KONSTRUKTIONSELEMENTE
100
AcDbLine
 62
7
  6
CONTINUOUS
 10
156.043054618
 20
76.0437134715
 11
155.9212757888
 21
75.7206294226
  0
LINE
  5
3D0
100
AcDbEntity
  8
KONSTRUKTIONSELEMENTE
100
AcDbLine
 62
7
  6
CONTINUOUS
 10
157.5296594461
 20
75.2333864731
 11
157.3512959436
 21
74.9213429585
  0
LINE
  5
3D1
100
AcDbEntity
  8
KONSTRUKTIONSELEMENTE
100
AcDbLine
 62
7
  6
CONTINUOUS
 10
159.1003478029
 20
74.0581698784
 11
159.3920153702
 21
74.4812600698
  0
LINE
  5
3D2
100
AcDbEntity
  8
KONSTRUKTIONSELEMENTE
100
AcDbLine
 62
7
  6
CONTINUOUS
 10
157.58532855
 20
74.6155459016
 11
157.7473951324
 21
74.8440579545
  0
LINE
  5
3D3
100
AcDbEntity
  8
KONSTRUKTIONSELEMENTE
100
AcDbLine
 62
7
  6
CONTINUOUS
 10
159.1378244046
 20
74.6172121287
 11
158.8862961911
 21
74.2691681029
  0
LINE
  5
3D4
100
AcDbEntity
  8
KONSTRUKTIONSELEMENTE
100
AcDbLine
 62
7
  6
CONTINUOUS
 10
159.3090775136
 20
74.8151621666
 11
159.1378244046
 21
74.6172121287
  0
LINE
  5
3D5
100
AcDbEntity
  8
0
100
AcDbLine
 62
7
  6
CONTINUOUS
 10
123.8996908806
 20
55.0059556399
 11
124.029681316
 21
55.0581330724
  0
LINE
  5
3D6
100
AcDbEntity
  8
0
100
AcDbLine
 62
7
  6
CONTINUOUS
 10
131.0167086699
 20
54.9560702471
 11
131.1517679987
 21
55.0102823784
  0
LINE
  5
3D7
100
AcDbEntity
  8
RUNDUNGEN
100
AcDbLine
 62
7
  6
CONTINUOUS
 10
180.6714656257
 20
73.8002153293
 11
180.6710070719
 21
73.8000826061
  0
LINE
  5
3D8
100
AcDbEntity
  8
0
100
AcDbLine
 62
7
  6
CONTINUOUS
 10
129.6190927261
 20
54.7881828245
 11
130.1137954586
 21
54.8199807348
  0
LINE
  5
3D9
100
AcDbEntity
  8
0
100
AcDbLine
 62
7
  6
CONTINUOUS
 10
129.3398784309
 20
54.8547932824
 11
128.8998055577
 21
54.8330112107
  0
LWPOLYLINE
  5
3DA
100
AcDbEntity
  8
RUNDUNGEN
100
AcDbPolyline
 62
7
  6
CONTINUOUS
 90
4
 70
0
 10
192.6993216125
 20
57.0577219759
 10
192.7255179234
 20
57.0588422565
 10
192.7560289882
 20
57.0602884371
 10
192.7944247534
 20
57.062298881
  0
LINE
  5
3DB
100
AcDbEntity
  8
0
100
AcDbLine
 62
7
  6
CONTINUOUS
 10
128.848207277
 20
54.7646504076
 11
129.6190927261
 21
54.7881828245
  0
LINE
  5
3DC
100
AcDbEntity
  8
0
100
AcDbLine
 62
7
  6
CONTINUOUS
 10
184.5686323101
 20
54.7654119991
 11
185.1209970938
 21
54.7819430997
  0
LINE
  5
3DD
100
AcDbEntity
  8
0
100
AcDbLine
 62
7
  6
CONTINUOUS
 10
180.5928182853
 20
54.6697260138
 11
181.1451831173
 21
54.6862571159
  0
LINE
  5
3DE
100
AcDbEntity
  8
0
100
AcDbLine
 62
7
  6
CONTINUOUS
 10
181.482059284
 20
54.8011966459
 11
183.967701004
 21
54.8755866047
  0
LINE
  5
3DF
100
AcDbEntity
  8
0
100
AcDbLine
 62
7
  6
CONTINUOUS
 10
184.5200657877
 20
54.8921177053
 11
185.6247957419
 21
54.9251799182
  0
LINE
  5
3E0
100
AcDbEntity
  8
0
100
AcDbLine
 62
7
  6
CONTINUOUS
 10
185.3516448925
 20
54.9752593313
 11
184.2469149383
 21
54.9421971184
  0
LINE
  5
3E1
100
AcDbEntity
  8
0
100
AcDbLine
 62
7
  6
CONTINUOUS
 10
183.6945501546
 20
54.9256660178
 11
180.9327259461
 21
54.8430105058
  0
LINE
  5
3E2
100
AcDbEntity
  8
0
100
AcDbLine
 62
7
  6
CONTINUOUS
 10
183.8098740168
 20
55.0223240991
 11
183.2575092332
 21
55.0057929984
  0
LINE
  5
3E3
100
AcDbEntity
  8
0
100
AcDbLine
 62
7
  6
CONTINUOUS
 10
180.8871912191
 20
55.0280611497
 11
181.6871489042
 21
55.0520021781
  0
LINE
  5
3E4
100
AcDbEntity
  8
0
100
AcDbLine
 62
7
  6
CONTINUOUS
 10
185.3516448925
 20
55.4766291969
 11
184.8979000348
 21
55.4630495804
  0
LWPOLYLINE
  5
3E5
100
AcDbEntity
  8
RUNDUNGEN
100
AcDbPolyline
 62
7
  6
CONTINUOUS
 90
5
 70
0
 10
127.7946863483
 20
54.4423648015
 10
127.9491936489
 20
54.4461981495
 10
128.2344891426
 20
54.4734540773
 10
128.5161951563
 20
54.526684519
 10
128.6658537912
 20
54.566020931
  0
LINE
  5
3E6
100
AcDbEntity
  8
0
100
AcDbLine
 62
7
  6
CONTINUOUS
 10
128.8998055577
 20
54.8330112107
 11
128.3762718177
 21
54.8253778053
  0
LINE
  5
3E7
100
AcDbEntity
  8
0
100
AcDbLine
 62
7
  6
CONTINUOUS
 10
128.1865822444
 20
54.7611497803
 11
128.848207277
 21
54.7646504076
  0
LINE
  5
3E8
100
AcDbEntity
  8
RUNDUNGEN
100
AcDbLine
 62
7
  6
CONTINUOUS
 10
196.6036024534
 20
54.0581330724
 11
182.4186766882
 21
54.0581330724
  0
LINE
  5
3E9
100
AcDbEntity
  8
RUNDUNGEN
100
AcDbLine
 62
7
  6
CONTINUOUS
 10
126.9187416399
 20
54.0581330724
 11
112.7338159605
 21
54.0581330724
  0
LINE
  5
3EA
100
AcDbEntity
  8
RUNDUNGEN
100
AcDbLine
 62
7
  6
CONTINUOUS
 10
127.3564899759
 20
54.4422835878
 11
127.794686351
 21
54.4423542851
  0
LINE
  5
3EB
100
AcDbEntity
  8
0
100
AcDbLine
 62
7
  6
CONTINUOUS
 10
184.8979000348
 20
55.0581330724
 11
178.0798322836
 21
55.0581330724
  0
LINE
  5
3EC
100
AcDbEntity
  8
0
100
AcDbLine
 62
7
  6
CONTINUOUS
 10
132.5463523639
 20
55.0581330724
 11
124.029681316
 21
55.0581330724
  0
LINE
  5
3ED
100
AcDbEntity
  8
RUNDUNGEN
100
AcDbLine
 62
7
  6
CONTINUOUS
 10
191.7195582159
 20
55.5581330724
 11
117.6178602021
 21
55.5581330724
  0
LINE
  5
3EE
100
AcDbEntity
  8
RUNDUNGEN
100
AcDbLine
 62
7
  6
CONTINUOUS
 10
192.1877645845
 20
57.0581330724
 11
181.5975171285
 21
57.0581330724
  0
LINE
  5
3EF
100
AcDbEntity
  8
RUNDUNGEN
100
AcDbLine
 62
7
  6
CONTINUOUS
 10
178.5181865123
 20
57.0581330724
 11
156.7405332707
 21
57.0581330724
  0
LINE
  5
3F0
100
AcDbEntity
  8
RUNDUNGEN
100
AcDbLine
 62
7
  6
CONTINUOUS
 10
152.5968851948
 20
57.0581330724
 11
130.8192318503
 21
57.0581330724
  0
LINE
  5
3F1
100
AcDbEntity
  8
RUNDUNGEN
100
AcDbLine
 62
7
  6
CONTINUOUS
 10
127.739901298
 20
57.0581330724
 11
117.1496538291
 21
57.0581330724
  0
LINE
  5
3F2
100
AcDbEntity
  8
RUNDUNGEN
100
AcDbLine
 62
7
  6
CONTINUOUS
 10
181.5427320264
 20
54.4423542851
 11
182.1104539361
 21
54.4418897646
  0
LINE
  5
3F3
100
AcDbEntity
  8
0
100
AcDbLine
 62
7
  6
CONTINUOUS
 10
129.2139142828
 20
54.6255463443
 11
121.8495453016
 21
54.6595328102
  0
LINE
  5
3F4
100
AcDbEntity
  8
0
100
AcDbLine
 62
7
  6
CONTINUOUS
 10
123.8996908806
 20
55.1514412809
 11
121.8495453016
 21
55.1609026758
  0
LINE
  5
3F5
100
AcDbEntity
  8
0
100
AcDbLine
 62
7
  6
CONTINUOUS
 10
127.0105185083
 20
54.5749809119
 11
128.8861335135
 21
54.5654510945
  0
LINE
  5
3F6
100
AcDbEntity
  8
0
100
AcDbLine
 62
7
  6
CONTINUOUS
 10
122.1833895464
 20
54.6029382049
 11
126.4035236486
 21
54.5814961472
  0
LINE
  5
3F7
100
AcDbEntity
  8
RUNDUNGEN
100
AcDbLine
 62
7
  6
CONTINUOUS
 10
182.1104539361
 20
54.4418897646
 11
182.3210002165
 21
54.4402497816
  0
LINE
  5
3F8
100
AcDbEntity
  8
0
100
AcDbLine
 62
7
  6
CONTINUOUS
 10
128.3762718177
 20
54.8253778053
 11
127.7692768016
 21
54.8318930119
  0
LINE
  5
3F9
100
AcDbEntity
  8
0
100
AcDbLine
 62
7
  6
CONTINUOUS
 10
127.4414960324
 20
54.7717977621
 11
128.1865822444
 21
54.7611497803
  0
LINE
  5
3FA
100
AcDbEntity
  8
RUNDUNGEN
100
AcDbLine
 62
7
  6
CONTINUOUS
 10
182.3210002165
 20
54.4402497816
 11
182.5246878167
 21
54.4375226686
  0
LINE
  5
3FB
100
AcDbEntity
  8
RUNDUNGEN
100
AcDbLine
 62
7
  6
CONTINUOUS
 10
182.5246878167
 20
54.4375226686
 11
182.7206795585
 21
54.4338119926
  0
LINE
  5
3FC
100
AcDbEntity
  8
RUNDUNGEN
100
AcDbLine
 62
7
  6
CONTINUOUS
 10
182.7206795585
 20
54.4338119926
 11
182.9082640638
 21
54.429152797
  0
LINE
  5
3FD
100
AcDbEntity
  8
0
100
AcDbLine
 62
7
  6
CONTINUOUS
 10
125.3701279001
 20
54.8337893953
 11
127.4414960324
 21
54.7717977621
  0
LINE
  5
3FE
100
AcDbEntity
  8
0
100
AcDbLine
 62
7
  6
CONTINUOUS
 10
127.7692768016
 20
54.8318930119
 11
125.6979086694
 21
54.8938846452
  0
LINE
  5
3FF
100
AcDbEntity
  8
RUNDUNGEN
100
AcDbLine
 62
7
  6
CONTINUOUS
 10
182.9082640638
 20
54.429152797
 11
183.0867077835
 21
54.4236508451
  0
LINE
  5
400
100
AcDbEntity
  8
RUNDUNGEN
100
AcDbLine
 62
7
  6
CONTINUOUS
 10
183.0867077835
 20
54.4236508451
 11
183.2551983292
 21
54.4173833464
  0
LINE
  5
401
100
AcDbEntity
  8
RUNDUNGEN
100
AcDbLine
 62
7
  6
CONTINUOUS
 10
116.6065514252
 20
57.0590850273
 11
116.6380933607
 21
57.0577221197
  0
LINE
  5
402
100
AcDbEntity
  8
RUNDUNGEN
100
AcDbLine
 62
7
  6
CONTINUOUS
 10
183.2551983292
 20
54.4173833464
 11
183.4132006781
 21
54.4104082754
  0
LWPOLYLINE
  5
403
100
AcDbEntity
  8
RUNDUNGEN
100
AcDbPolyline
 62
7
  6
CONTINUOUS
 90
16
 70
0
 10
183.4132006781
 20
54.4104082754
 10
183.5601766915
 20
54.4028311061
 10
183.6293209772
 20
54.3988385109
 10
183.6954825036
 20
54.3947177922
 10
183.7585593792
 20
54.3904866713
 10
183.8184847619
 20
54.3861611008
 10
183.8750754364
 20
54.381764678
 10
183.9281738824
 20
54.3773195469
 10
183.9776337313
 20
54.3728481234
 10
184.023326509
 20
54.3683778412
 10
184.0649705274
 20
54.3639599603
 10
184.1024467731
 20
54.3596378882
 10
184.1351864826
 20
54.3555204681
 10
184.1628420749
 20
54.3517133019
 10
184.1848330199
 20
54.3483804096
 10
184.1965200395
 20
54.3464476199
  0
LINE
  5
404
100
AcDbEntity
  8
RUNDUNGEN
100
AcDbLine
 62
7
  6
CONTINUOUS
 10
116.5391401663
 20
57.0625081325
 11
116.6065514252
 21
57.0590850273
  0
LINE
  5
405
100
AcDbEntity
  8
RUNDUNGEN
100
AcDbLine
 62
7
  6
CONTINUOUS
 10
116.5391401663
 20
57.0625081325
 11
116.54164055
 21
57.0623723341
  0
LINE
  5
406
100
AcDbEntity
  8
KONSTRUKTIONSELEMENTE
100
AcDbLine
 62
7
  6
CONTINUOUS
 10
153.7002967438
 20
76.6755322344
 11
153.3663345925
 21
73.013135365
  0
LINE
  5
407
100
AcDbEntity
  8
KONSTRUKTIONSELEMENTE
100
AcDbLine
 62
7
  6
CONTINUOUS
 10
153.675687816
 20
72.8081330724
 11
153.9955868265
 21
75.858814647
  0
LINE
  5
408
100
AcDbEntity
  8
KONSTRUKTIONSELEMENTE
100
AcDbLine
 62
7
  6
CONTINUOUS
 10
155.3594450694
 20
73.1422023208
 11
155.2942630546
 21
72.8081330724
  0
LINE
  5
409
100
AcDbEntity
  8
KONSTRUKTIONSELEMENTE
100
AcDbLine
 62
7
  6
CONTINUOUS
 10
157.5622559222
 20
75.4004491251
 11
157.5296594461
 21
75.2333864731
  0
LINE
  5
40A
100
AcDbEntity
  8
KONSTRUKTIONSELEMENTE
100
AcDbLine
 62
7
  6
CONTINUOUS
 10
157.8691726665
 20
75.1671422562
 11
157.9017691426
 21
75.3342049082
  0
LINE
  5
40B
100
AcDbEntity
  8
KONSTRUKTIONSELEMENTE
100
AcDbLine
 62
7
  6
CONTINUOUS
 10
158.3751987337
 20
73.1913230527
 11
158.3056225888
 21
72.9389921526
  0
LINE
  5
40C
100
AcDbEntity
  8
KONSTRUKTIONSELEMENTE
100
AcDbLine
 62
7
  6
CONTINUOUS
 10
158.5250524789
 20
73.5937470114
 11
158.3751987337
 21
73.1913230527
  0
LINE
  5
40D
100
AcDbEntity
  8
KONSTRUKTIONSELEMENTE
100
AcDbLine
 62
7
  6
CONTINUOUS
 10
157.7473951324
 20
74.8440579545
 11
157.8691726665
 21
75.1671422562
  0
LINE
  5
40E
100
AcDbEntity
  8
KONSTRUKTIONSELEMENTE
100
AcDbLine
 62
7
  6
CONTINUOUS
 10
158.6293896993
 20
73.0553709938
 11
158.8193804711
 21
73.5328423628
  0
LINE
  5
40F
100
AcDbEntity
  8
KONSTRUKTIONSELEMENTE
100
AcDbLine
 62
7
  6
CONTINUOUS
 10
158.8862961911
 20
74.2691681029
 11
158.5250524789
 21
73.5937470114
  0
LINE
  5
410
100
AcDbEntity
  8
KONSTRUKTIONSELEMENTE
100
AcDbLine
 62
7
  6
CONTINUOUS
 10
158.8193804711
 20
73.5328423628
 11
159.1003478029
 21
74.0581698784
  0
LINE
  5
411
100
AcDbEntity
  8
KONSTRUKTIONSELEMENTE
100
AcDbLine
 62
7
  6
CONTINUOUS
 10
160.4221364023
 20
73.3512215369
 11
160.1411690706
 21
72.8258940213
  0
LINE
  5
412
100
AcDbEntity
  8
KONSTRUKTIONSELEMENTE
100
AcDbLine
 62
7
  6
CONTINUOUS
 10
160.4585736312
 20
72.8081330724
 11
160.7164655582
 21
73.290316266
  0
LINE
  5
413
100
AcDbEntity
  8
KONSTRUKTIONSELEMENTE
100
AcDbLine
 62
7
  6
CONTINUOUS
 10
160.1411690706
 20
72.8258940213
 11
160.1289251938
 21
72.8081330724
  0
LWPOLYLINE
  5
414
100
AcDbEntity
  8
RUNDUNGEN
100
AcDbPolyline
 62
7
  6
CONTINUOUS
 90
3
 70
0
 10
129.2139142828
 20
54.6977696172
 10
129.3789189983
 20
54.7314946663
 10
129.5894950469
 20
54.7714278843
  0
LINE
  5
415
100
AcDbEntity
  8
0
100
AcDbLine
 62
7
  6
CONTINUOUS
 10
127.0287092066
 20
54.224911355
 11
127.3564899759
 21
54.2850066048
  0
LINE
  5
416
100
AcDbEntity
  8
0
100
AcDbLine
 62
7
  6
CONTINUOUS
 10
128.8861335135
 20
54.5654510945
 11
129.2139142828
 21
54.6255463443
  0
LINE
  5
417
100
AcDbEntity
  8
0
100
AcDbLine
 62
7
  6
CONTINUOUS
 10
130.525037516
 20
54.8659273723
 11
131.0167086699
 21
54.9560702471
  0
LINE
  5
418
100
AcDbEntity
  8
RUNDUNGEN
100
AcDbLine
 62
7
  6
CONTINUOUS
 10
129.5894950465
 20
54.7714278868
 11
129.714239926
 21
54.7942985824
  0
LINE
  5
419
100
AcDbEntity
  8
0
100
AcDbLine
 62
7
  6
CONTINUOUS
 10
130.1881613977
 20
54.980866901
 11
129.6964902438
 21
54.8907240262
  0
LINE
  5
41A
100
AcDbEntity
  8
0
100
AcDbLine
 62
7
  6
CONTINUOUS
 10
125.9179159312
 20
54.3746634101
 11
127.0105185083
 21
54.5749809119
  0
LINE
  5
41B
100
AcDbEntity
  8
0
100
AcDbLine
 62
7
  6
CONTINUOUS
 10
126.4035236486
 20
54.5814961472
 11
125.4201813018
 21
54.4012103905
  0
LINE
  5
41C
100
AcDbEntity
  8
0
100
AcDbLine
 62
7
  6
CONTINUOUS
 10
124.8632977096
 20
55.0353711772
 11
124.9392824698
 21
55.0493022054
  0
LINE
  5
41D
100
AcDbEntity
  8
0
100
AcDbLine
 62
7
  6
CONTINUOUS
 10
121.8495453016
 20
54.6595328102
 11
121.412504302
 21
54.5794058152
  0
LWPOLYLINE
  5
41E
100
AcDbEntity
  8
RUNDUNGEN
100
AcDbPolyline
 62
7
  6
CONTINUOUS
 90
4
 70
0
 10
132.5463523639
 20
55.3135374166
 10
133.6196424862
 20
55.5102159189
 10
133.6592228177
 20
55.5171302947
 10
133.7022298454
 20
55.5243961312
  0
LINE
  5
41F
100
AcDbEntity
  8
RUNDUNGEN
100
AcDbLine
 62
7
  6
CONTINUOUS
 10
133.7022298454
 20
55.5243961312
 11
133.7548955393
 21
55.5329826982
  0
LINE
  5
420
100
AcDbEntity
  8
0
100
AcDbLine
 62
7
  6
CONTINUOUS
 10
130.1137954586
 20
54.8199807348
 11
130.525037516
 21
54.8659273723
  0
LINE
  5
421
100
AcDbEntity
  8
0
100
AcDbLine
 62
7
  6
CONTINUOUS
 10
129.6964902438
 20
54.8907240262
 11
129.3398784309
 21
54.8547932824
  0
LWPOLYLINE
  5
422
100
AcDbEntity
  8
RUNDUNGEN
100
AcDbPolyline
 62
7
  6
CONTINUOUS
 90
4
 70
0
 10
175.5825226702
 20
55.5329827308
 10
175.6315110063
 20
55.5250064069
 10
175.6747242153
 20
55.5177259305
 10
175.7145194892
 20
55.5107936786
  0
LINE
  5
423
100
AcDbEntity
  8
RUNDUNGEN
100
AcDbLine
 62
7
  6
CONTINUOUS
 10
175.7145194892
 20
55.5107936786
 11
178.0798322836
 21
55.0772553156
  0
LINE
  5
424
100
AcDbEntity
  8
RUNDUNGEN
100
AcDbLine
 62
7
  6
CONTINUOUS
 10
178.1841317682
 20
55.0581330724
 11
179.7478349792
 21
54.7714440902
  0
LINE
  5
425
100
AcDbEntity
  8
0
100
AcDbLine
 62
7
  6
CONTINUOUS
 10
180.8871912191
 20
55.0280611497
 11
180.7231683054
 21
55.0581330724
  0
LINE
  5
426
100
AcDbEntity
  8
0
100
AcDbLine
 62
7
  6
CONTINUOUS
 10
183.2575092332
 20
55.0057929984
 11
183.6945501546
 21
54.9256660178
  0
LINE
  5
427
100
AcDbEntity
  8
0
100
AcDbLine
 62
7
  6
CONTINUOUS
 10
183.967701004
 20
54.8755866047
 11
184.5686323101
 21
54.7654119991
  0
LINE
  5
428
100
AcDbEntity
  8
0
100
AcDbLine
 62
7
  6
CONTINUOUS
 10
185.1209970938
 20
54.7819430997
 11
184.5200657877
 21
54.8921177053
  0
LINE
  5
429
100
AcDbEntity
  8
0
100
AcDbLine
 62
7
  6
CONTINUOUS
 10
184.2469149383
 20
54.9421971184
 11
183.8098740168
 21
55.0223240991
  0
LINE
  5
42A
100
AcDbEntity
  8
0
100
AcDbLine
 62
7
  6
CONTINUOUS
 10
185.6247957419
 20
54.9251799182
 11
185.3516448925
 21
54.9752593313
  0
LWPOLYLINE
  5
42B
100
AcDbEntity
  8
RUNDUNGEN
100
AcDbPolyline
 62
7
  6
CONTINUOUS
 90
4
 70
0
 10
179.7479298598
 20
54.771426694
 10
179.9553178819
 20
54.7321191259
 10
180.1693304425
 20
54.6884275753
 10
180.3500833445
 20
54.6483538511
  0
LINE
  5
42C
100
AcDbEntity
  8
RUNDUNGEN
100
AcDbLine
 62
7
  6
CONTINUOUS
 10
180.3500833445
 20
54.6483538511
 11
180.4988505262
 21
54.6124708114
  0
LINE
  5
42D
100
AcDbEntity
  8
KONSTRUKTIONSELEMENTE
100
AcDbLine
 62
7
  6
CONTINUOUS
 10
151.4759111708
 20
76.3474481404
 11
151.9979398117
 21
72.8081330724
  0
LINE
  5
42E
100
AcDbEntity
  8
KONSTRUKTIONSELEMENTE
100
AcDbLine
 62
7
  6
CONTINUOUS
 10
152.347597672
 20
72.8081330724
 11
151.942307836
 21
75.555967791
  0
LINE
  5
42F
100
AcDbEntity
  8
KONSTRUKTIONSELEMENTE
100
AcDbLine
 62
7
  6
CONTINUOUS
 10
157.9017691426
 20
75.3342049082
 11
157.91037733
 21
75.6793702786
  0
LINE
  5
430
100
AcDbEntity
  8
KONSTRUKTIONSELEMENTE
100
AcDbLine
 62
7
  6
CONTINUOUS
 10
158.6128150286
 20
72.8081330724
 11
158.6293896993
 21
73.0553709938
  0
LINE
  5
431
100
AcDbEntity
  8
KONSTRUKTIONSELEMENTE
100
AcDbLine
 62
7
  6
CONTINUOUS
 10
158.3056225888
 20
72.9389921526
 11
158.2838930171
 21
72.8081330724
  0
LINE
  5
432
100
AcDbEntity
  8
KONSTRUKTIONSELEMENTE
100
AcDbLine
 62
7
  6
CONTINUOUS
 10
160.9358943409
 20
73.9450718522
 11
160.9947714138
 21
74.2996394542
  0
LINE
  5
433
100
AcDbEntity
  8
KONSTRUKTIONSELEMENTE
100
AcDbLine
 62
7
  6
CONTINUOUS
 10
160.8663180836
 20
73.6927407419
 11
160.9358943409
 21
73.9450718522
  0
LINE
  5
434
100
AcDbEntity
  8
KONSTRUKTIONSELEMENTE
100
AcDbLine
 62
7
  6
CONTINUOUS
 10
160.7164655582
 20
73.290316266
 11
160.8663180836
 21
73.6927407419
  0
LINE
  5
435
100
AcDbEntity
  8
KONSTRUKTIONSELEMENTE
100
AcDbLine
 62
7
  6
CONTINUOUS
 10
160.6121282816
 20
73.8286921785
 11
160.4221364023
 21
73.3512215369
  0
LWPOLYLINE
  5
436
100
AcDbEntity
  8
RUNDUNGEN
100
AcDbPolyline
 62
7
  6
CONTINUOUS
 90
4
 70
0
 10
125.130253198
 20
54.3447417653
 10
125.1269326168
 20
54.3439260962
 10
125.1254684713
 20
54.3435850484
 10
125.1310944788
 20
54.3446886637
  0
LINE
  5
437
100
AcDbEntity
  8
0
100
AcDbLine
 62
7
  6
CONTINUOUS
 10
121.8495453016
 20
55.1609026758
 11
121.412504302
 21
55.0807756808
  0
LINE
  5
438
100
AcDbEntity
  8
0
100
AcDbLine
 62
7
  6
CONTINUOUS
 10
185.6247957419
 20
55.4265497838
 11
185.3516448925
 21
55.4766291969
  0
LWPOLYLINE
  5
439
100
AcDbEntity
  8
RUNDUNGEN
100
AcDbPolyline
 62
7
  6
CONTINUOUS
 90
3
 70
0
 10
180.4988505262
 20
54.6124708114
 10
180.6168879482
 20
54.5814410471
 10
180.6710100275
 20
54.5661826842
  0
LWPOLYLINE
  5
43A
100
AcDbEntity
  8
RUNDUNGEN
100
AcDbPolyline
 62
7
  6
CONTINUOUS
 90
5
 70
0
 10
180.671561162
 20
54.566021935
 10
180.8101511344
 20
54.5293264179
 10
181.0917907713
 20
54.4750558127
 10
181.3771377986
 20
54.4467670811
 10
181.542732027
 20
54.4423648048
  0
LINE
  5
43B
100
AcDbEntity
  8
RUNDUNGEN
100
AcDbLine
 62
7
  6
CONTINUOUS
 10
180.6710070727
 20
54.5661835387
 11
180.6715566336
 21
54.5660244836
  0
LINE
  5
43C
100
AcDbEntity
  8
0
100
AcDbLine
 62
7
  6
CONTINUOUS
 10
180.403128724
 20
54.7339540391
 11
180.5928182853
 21
54.6697260138
  0
LINE
  5
43D
100
AcDbEntity
  8
KONSTRUKTIONSELEMENTE
100
AcDbLine
 62
7
  6
CONTINUOUS
 10
151.942307836
 20
75.555967791
 11
153.095521054
 21
72.8081330724
  0
LINE
  5
43E
100
AcDbEntity
  8
KONSTRUKTIONSELEMENTE
100
AcDbLine
 62
7
  6
CONTINUOUS
 10
153.3663345925
 20
73.013135365
 11
151.9892309184
 21
76.4231598544
  0
LINE
  5
43F
100
AcDbEntity
  8
KONSTRUKTIONSELEMENTE
100
AcDbLine
 62
7
  6
CONTINUOUS
 10
153.9955868265
 20
75.858814647
 11
154.445544834
 21
72.8081330724
  0
LINE
  5
440
100
AcDbEntity
  8
KONSTRUKTIONSELEMENTE
100
AcDbLine
 62
7
  6
CONTINUOUS
 10
154.7952026944
 20
72.8081330724
 11
154.2136164914
 21
76.7512439484
  0
LINE
  5
441
100
AcDbEntity
  8
KONSTRUKTIONSELEMENTE
100
AcDbLine
 62
7
  6
CONTINUOUS
 10
160.6496049957
 20
74.3877346391
 11
160.6121282816
 21
73.8286921785
  0
LWPOLYLINE
  5
442
100
AcDbEntity
  8
RUNDUNGEN
100
AcDbPolyline
 62
7
  6
CONTINUOUS
 90
4
 70
0
 10
180.671010024
 20
73.8000834598
 10
180.6168879372
 20
73.784825094
 10
180.4988505385
 20
73.7537953362
 10
180.3500834706
 20
73.7179123232
  0
LWPOLYLINE
  5
443
100
AcDbEntity
  8
RUNDUNGEN
100
AcDbPolyline
 62
7
  6
CONTINUOUS
 90
17
 70
0
 10
184.2062824406
 20
74.0213075344
 10
184.2104857965
 20
74.0223400487
 10
184.211949942
 20
74.0226810965
 10
184.2059611684
 20
74.0215063199
 10
184.1935082787
 20
74.0193065551
 10
184.1747804622
 20
74.0163208149
 10
184.1503083466
 20
74.0127832625
 10
184.1205006439
 20
74.0088535592
 10
184.0859503188
 20
74.0046801739
 10
184.0469653291
 20
74.0003512976
 10
184.0040973811
 20
73.9959632293
 10
183.9574486645
 20
73.9915508297
 10
183.907263633
 20
73.987155729
 10
183.8536834221
 20
73.9828011506
 10
183.7968619314
 20
73.9785074999
 10
183.7369390494
 20
73.974293927
 10
183.6740860383
 20
73.9701817277
  0
LWPOLYLINE
  5
444
100
AcDbEntity
  8
RUNDUNGEN
100
AcDbPolyline
 62
7
  6
CONTINUOUS
 90
4
 70
0
 10
180.3500834706
 20
73.7179123232
 10
180.1693307074
 20
73.677838626
 10
179.9553177756
 20
73.6341469987
 10
179.747929821
 20
73.5948394432
  0
LINE
  5
445
100
AcDbEntity
  8
0
100
AcDbLine
 62
7
  6
CONTINUOUS
 10
122.2628479033
 20
73.2521203076
 11
123.3702048674
 21
73.0384341211
  0
LINE
  5
446
100
AcDbEntity
  8
0
100
AcDbLine
 62
7
  6
CONTINUOUS
 10
123.8432505608
 20
72.9471507016
 11
124.2804838642
 21
72.8627779833
  0
LINE
  5
447
100
AcDbEntity
  8
0
100
AcDbLine
 62
7
  6
CONTINUOUS
 10
122.2628479033
 20
73.7534901732
 11
123.3702048674
 21
73.5398039867
  0
LINE
  5
448
100
AcDbEntity
  8
0
100
AcDbLine
 62
7
  6
CONTINUOUS
 10
123.8432505608
 20
73.4485205672
 11
124.3162962542
 21
73.3572371477
  0
LINE
  5
449
100
AcDbEntity
  8
0
100
AcDbLine
 62
7
  6
CONTINUOUS
 10
124.3994772876
 20
73.5690707026
 11
123.4506981412
 21
73.7521561973
  0
LINE
  5
44A
100
AcDbEntity
  8
0
100
AcDbLine
 62
7
  6
CONTINUOUS
 10
124.3395409329
 20
73.6721006271
 11
124.8125866263
 21
73.5808172076
  0
LINE
  5
44B
100
AcDbEntity
  8
0
100
AcDbLine
 62
7
  6
CONTINUOUS
 10
181.1451831173
 20
54.6862571159
 11
181.0101235122
 21
54.7404693056
  0
LINE
  5
44C
100
AcDbEntity
  8
KONSTRUKTIONSELEMENTE
100
AcDbLine
 62
7
  6
CONTINUOUS
 10
146.9612180396
 20
72.8081330724
 11
146.9203744524
 21
72.8367663994
  0
LINE
  5
44D
100
AcDbEntity
  8
KONSTRUKTIONSELEMENTE
100
AcDbLine
 62
7
  6
CONTINUOUS
 10
157.497979926
 20
75.6731240736
 11
157.5622559222
 21
75.4004491251
  0
LINE
  5
44E
100
AcDbEntity
  8
KONSTRUKTIONSELEMENTE
100
AcDbLine
 62
7
  6
CONTINUOUS
 10
160.9947714138
 20
74.2996394542
 11
160.9626718706
 21
74.6063508044
  0
LWPOLYLINE
  5
44F
100
AcDbEntity
  8
RUNDUNGEN
100
AcDbPolyline
 62
7
  6
CONTINUOUS
 90
5
 70
0
 10
179.7478349792
 20
73.5948220547
 10
175.714530079
 20
72.8554743417
 10
175.6747367365
 20
72.8485423604
 10
175.6315228267
 20
72.8412616983
 10
175.5825229649
 20
72.8332834587
  0
LWPOLYLINE
  5
450
100
AcDbEntity
  8
RUNDUNGEN
100
AcDbPolyline
 62
7
  6
CONTINUOUS
 90
7
 70
0
 10
175.5825721011
 20
72.8332913468
 10
175.5657682062
 20
72.8307979506
 10
175.5149964082
 20
72.8247864426
 10
175.4366164982
 20
72.8181665937
 10
175.3299236656
 20
72.8124245495
 10
175.1944618963
 20
72.8088257109
 10
175.0957201935
 20
72.8081330834
  0
LINE
  5
451
100
AcDbEntity
  8
RUNDUNGEN
100
AcDbLine
 62
7
  6
CONTINUOUS
 10
117.1496538291
 20
71.3081330724
 11
127.7399012988
 21
71.3081330724
  0
LINE
  5
452
100
AcDbEntity
  8
RUNDUNGEN
100
AcDbLine
 62
7
  6
CONTINUOUS
 10
130.8192318512
 20
71.3081330724
 11
152.5968851947
 21
71.3081330724
  0
LINE
  5
453
100
AcDbEntity
  8
RUNDUNGEN
100
AcDbLine
 62
7
  6
CONTINUOUS
 10
156.7405332217
 20
71.3081330724
 11
178.5181865805
 21
71.3081330724
  0
LINE
  5
454
100
AcDbEntity
  8
RUNDUNGEN
100
AcDbLine
 62
7
  6
CONTINUOUS
 10
181.5975171293
 20
71.3081330724
 11
192.1877645845
 21
71.3081330724
  0
LINE
  5
455
100
AcDbEntity
  8
KONSTRUKTIONSELEMENTE
100
AcDbLine
 62
7
  6
CONTINUOUS
 10
146.5921176952
 20
72.9831643077
 11
146.1855950587
 21
73.044888542
  0
LINE
  5
456
100
AcDbEntity
  8
RUNDUNGEN
100
AcDbLine
 62
7
  6
CONTINUOUS
 10
129.5895834341
 20
73.5948220547
 11
129.9648759164
 21
73.5260160184
  0
LINE
  5
457
100
AcDbEntity
  8
RUNDUNGEN
100
AcDbLine
 62
7
  6
CONTINUOUS
 10
131.0005842468
 20
73.3361294945
 11
131.153286645
 21
73.3081330724
  0
LINE
  5
458
100
AcDbEntity
  8
RUNDUNGEN
100
AcDbLine
 62
7
  6
CONTINUOUS
 10
129.5894950826
 20
73.5948382535
 11
129.4268078843
 21
73.6256899264
  0
LINE
  5
459
100
AcDbEntity
  8
0
100
AcDbLine
 62
7
  6
CONTINUOUS
 10
127.4487563176
 20
73.8658384747
 11
127.9244897707
 21
73.7740363994
  0
LINE
  5
45A
100
AcDbEntity
  8
0
100
AcDbLine
 62
7
  6
CONTINUOUS
 10
129.4268078843
 20
73.7120196958
 11
128.3194509202
 21
73.9257058823
  0
LINE
  5
45B
100
AcDbEntity
  8
KONSTRUKTIONSELEMENTE
100
AcDbLine
 62
7
  6
CONTINUOUS
 10
146.9203744524
 20
72.8367663994
 11
146.5921176952
 21
72.9831643077
  0
LINE
  5
45C
100
AcDbEntity
  8
KONSTRUKTIONSELEMENTE
100
AcDbLine
 62
7
  6
CONTINUOUS
 10
157.3608197462
 20
75.8733086
 11
157.497979926
 21
75.6731240736
  0
LINE
  5
45D
100
AcDbEntity
  8
KONSTRUKTIONSELEMENTE
100
AcDbLine
 62
7
  6
CONTINUOUS
 10
157.91037733
 20
75.6793702786
 11
157.7492276122
 21
76.0576580102
  0
LINE
  5
45E
100
AcDbEntity
  8
KONSTRUKTIONSELEMENTE
100
AcDbLine
 62
7
  6
CONTINUOUS
 10
160.9626718706
 20
74.6063508044
 11
160.8288966393
 21
74.9674426048
  0
LINE
  5
45F
100
AcDbEntity
  8
KONSTRUKTIONSELEMENTE
100
AcDbLine
 62
7
  6
CONTINUOUS
 10
160.5773672623
 20
74.6193992014
 11
160.6496049957
 21
74.3877346391
  0
LINE
  5
460
100
AcDbEntity
  8
BEZUGSACHSEN
100
AcDbLine
 62
7
  6
CONTINUOUS
 10
163.3289632445
 20
49.1831330724
 11
167.0095712105
 21
55.5581330724
  0
LINE
  5
461
100
AcDbEntity
  8
0
100
AcDbLine
 62
7
  6
CONTINUOUS
 10
180.4896215788
 20
54.8064476155
 11
180.3773295474
 21
54.7681344396
  0
LINE
  5
462
100
AcDbEntity
  8
0
100
AcDbLine
 62
7
  6
CONTINUOUS
 10
181.0101235122
 20
54.7404693056
 11
181.1224155194
 21
54.7787824808
  0
LINE
  5
463
100
AcDbEntity
  8
KONSTRUKTIONSELEMENTE
100
AcDbLine
 62
7
  6
CONTINUOUS
 10
160.2188401837
 20
75.2937265505
 11
159.8442346473
 21
75.2045382456
  0
LINE
  5
464
100
AcDbEntity
  8
KONSTRUKTIONSELEMENTE
100
AcDbLine
 62
7
  6
CONTINUOUS
 10
146.1855950587
 20
73.044888542
 11
145.9040676373
 21
72.991076743
  0
LINE
  5
465
100
AcDbEntity
  8
RUNDUNGEN
100
AcDbLine
 62
7
  6
CONTINUOUS
 10
183.6740860383
 20
73.9701817277
 11
183.5398049585
 21
73.9623146458
  0
LINE
  5
466
100
AcDbEntity
  8
RUNDUNGEN
100
AcDbLine
 62
7
  6
CONTINUOUS
 10
183.5398049585
 20
73.9623146458
 11
183.3945623818
 21
73.9549756239
  0
LWPOLYLINE
  5
467
100
AcDbEntity
  8
RUNDUNGEN
100
AcDbPolyline
 62
7
  6
CONTINUOUS
 90
4
 70
0
 10
116.6380970803
 20
71.3085441752
 10
116.6119038686
 20
71.3074240273
 10
116.5813911772
 20
71.3059777958
 10
116.5429958102
 20
71.3039673767
  0
LINE
  5
468
100
AcDbEntity
  8
RUNDUNGEN
100
AcDbLine
 62
7
  6
CONTINUOUS
 10
183.3945623818
 20
73.9549756239
 11
183.238943372
 21
73.9482275969
  0
LINE
  5
469
100
AcDbEntity
  8
RUNDUNGEN
100
AcDbLine
 62
7
  6
CONTINUOUS
 10
183.238943372
 20
73.9482275969
 11
183.0733667633
 21
73.9421658001
  0
LINE
  5
46A
100
AcDbEntity
  8
RUNDUNGEN
100
AcDbLine
 62
7
  6
CONTINUOUS
 10
183.0733667633
 20
73.9421658001
 11
182.8982945817
 21
73.9368373688
  0
LINE
  5
46B
100
AcDbEntity
  8
0
100
AcDbLine
 62
7
  6
CONTINUOUS
 10
124.5593366458
 20
72.8627779833
 11
125.2253544877
 21
72.881715783
  0
LINE
  5
46C
100
AcDbEntity
  8
0
100
AcDbLine
 62
7
  6
CONTINUOUS
 10
123.3702048674
 20
73.0384341211
 11
123.8432505608
 21
73.0518848788
  0
LINE
  5
46D
100
AcDbEntity
  8
0
100
AcDbLine
 62
7
  6
CONTINUOUS
 10
124.3162962542
 20
73.3572371477
 11
127.9537589909
 21
73.4606661198
  0
LINE
  5
46E
100
AcDbEntity
  8
0
100
AcDbLine
 62
7
  6
CONTINUOUS
 10
127.4807132975
 20
73.5519495393
 11
123.8432505608
 21
73.4485205672
  0
LINE
  5
46F
100
AcDbEntity
  8
0
100
AcDbLine
 62
7
  6
CONTINUOUS
 10
123.3702048674
 20
73.5398039867
 11
124.3994772876
 21
73.5690707026
  0
LINE
  5
470
100
AcDbEntity
  8
0
100
AcDbLine
 62
7
  6
CONTINUOUS
 10
124.8125866263
 20
73.5808172076
 11
129.4268078843
 21
73.7120196958
  0
LINE
  5
471
100
AcDbEntity
  8
0
100
AcDbLine
 62
7
  6
CONTINUOUS
 10
127.9244897707
 20
73.7740363994
 11
124.3395409329
 21
73.6721006271
  0
LINE
  5
472
100
AcDbEntity
  8
0
100
AcDbLine
 62
7
  6
CONTINUOUS
 10
124.2099786107
 20
73.8784800385
 11
125.7433844613
 21
73.9220814724
  0
LWPOLYLINE
  5
473
100
AcDbEntity
  8
RUNDUNGEN
100
AcDbPolyline
 62
7
  6
CONTINUOUS
 90
5
 70
0
 10
181.5427320548
 20
73.9239021836
 10
181.388309312
 20
73.9200721785
 10
181.1030840032
 20
73.8928335477
 10
180.8214346527
 20
73.8396317371
 10
180.6714694776
 20
73.800217708
  0
LINE
  5
474
100
AcDbEntity
  8
RUNDUNGEN
100
AcDbLine
 62
7
  6
CONTINUOUS
 10
182.8982945817
 20
73.9368373688
 11
182.7144387515
 21
73.9323183893
  0
LINE
  5
475
100
AcDbEntity
  8
RUNDUNGEN
100
AcDbLine
 62
7
  6
CONTINUOUS
 10
182.7144387515
 20
73.9323183893
 11
182.5223937433
 21
73.9287065396
  0
LINE
  5
476
100
AcDbEntity
  8
RUNDUNGEN
100
AcDbLine
 62
7
  6
CONTINUOUS
 10
182.5223937433
 20
73.9287065396
 11
182.3227529085
 21
73.9260350732
  0
LINE
  5
477
100
AcDbEntity
  8
RUNDUNGEN
100
AcDbLine
 62
7
  6
CONTINUOUS
 10
182.3227529085
 20
73.9260350732
 11
182.1162279075
 21
73.9244052708
  0
LINE
  5
478
100
AcDbEntity
  8
RUNDUNGEN
100
AcDbLine
 62
7
  6
CONTINUOUS
 10
191.7195582125
 20
72.8081330724
 11
117.6178601988
 21
72.8081330724
  0
LINE
  5
479
100
AcDbEntity
  8
0
100
AcDbLine
 62
7
  6
CONTINUOUS
 10
125.2274467659
 20
73.3081330724
 11
134.0900708277
 21
73.3081330724
  0
LINE
  5
47A
100
AcDbEntity
  8
RUNDUNGEN
100
AcDbLine
 62
7
  6
CONTINUOUS
 10
182.1162279075
 20
73.9244052708
 11
181.5427320525
 21
73.9239118598
  0
LINE
  5
47B
100
AcDbEntity
  8
RUNDUNGEN
100
AcDbLine
 62
7
  6
CONTINUOUS
 10
112.7338159592
 20
74.3081330724
 11
126.918741725
 21
74.3081330724
  0
LINE
  5
47C
100
AcDbEntity
  8
RUNDUNGEN
100
AcDbLine
 62
7
  6
CONTINUOUS
 10
182.4186767733
 20
74.3081330724
 11
196.603602454
 21
74.3081330724
  0
LINE
  5
47D
100
AcDbEntity
  8
RUNDUNGEN
100
AcDbLine
 62
7
  6
CONTINUOUS
 10
192.7308723816
 20
71.3071808824
 11
192.6993252946
 21
71.3085440205
  0
LINE
  5
47E
100
AcDbEntity
  8
RUNDUNGEN
100
AcDbLine
 62
7
  6
CONTINUOUS
 10
192.798282338
 20
71.3037578068
 11
192.7308723816
 21
71.3071808824
  0
LINE
  5
47F
100
AcDbEntity
  8
RUNDUNGEN
100
AcDbLine
 62
7
  6
CONTINUOUS
 10
192.798282338
 20
71.3037578068
 11
192.7957795916
 21
71.3038937243
  0
LINE
  5
480
100
AcDbEntity
  8
KONSTRUKTIONSELEMENTE
100
AcDbLine
 62
7
  6
CONTINUOUS
 10
157.0716085106
 20
72.8081330724
 11
155.8121302267
 21
73.0538765299
  0
LINE
  5
481
100
AcDbEntity
  8
KONSTRUKTIONSELEMENTE
100
AcDbLine
 62
7
  6
CONTINUOUS
 10
160.3633156505
 20
74.8303974259
 11
160.5773672623
 21
74.6193992014
  0
LINE
  5
482
100
AcDbEntity
  8
KONSTRUKTIONSELEMENTE
100
AcDbLine
 62
7
  6
CONTINUOUS
 10
157.7492276122
 20
76.0576580102
 11
157.5554814639
 21
76.2688833237
  0
LINE
  5
483
100
AcDbEntity
  8
KONSTRUKTIONSELEMENTE
100
AcDbLine
 62
7
  6
CONTINUOUS
 10
154.2136164914
 20
76.7512439484
 11
153.7002967438
 21
76.6755322344
  0
LINE
  5
484
100
AcDbEntity
  8
KONSTRUKTIONSELEMENTE
100
AcDbLine
 62
7
  6
CONTINUOUS
 10
151.9892309184
 20
76.4231598544
 11
151.4759111708
 21
76.3474481404
  0
LINE
  5
485
100
AcDbEntity
  8
KONSTRUKTIONSELEMENTE
100
AcDbLine
 62
7
  6
CONTINUOUS
 10
156.5686226637
 20
76.0278783552
 11
156.8678481309
 21
76.0562061344
  0
LINE
  5
486
100
AcDbEntity
  8
KONSTRUKTIONSELEMENTE
100
AcDbLine
 62
7
  6
CONTINUOUS
 10
157.0059251753
 20
76.4628213924
 11
156.5935277713
 21
76.4565751873
  0
LINE
  5
487
100
AcDbEntity
  8
KONSTRUKTIONSELEMENTE
100
AcDbLine
 62
7
  6
CONTINUOUS
 10
155.9212757888
 20
75.7206294226
 11
156.2042030407
 21
75.6654259927
  0
LINE
  5
488
100
AcDbEntity
  8
KONSTRUKTIONSELEMENTE
100
AcDbLine
 62
7
  6
CONTINUOUS
 10
156.8678481309
 20
76.0562061344
 11
157.0941907095
 21
76.0120432389
  0
LINE
  5
489
100
AcDbEntity
  8
KONSTRUKTIONSELEMENTE
100
AcDbLine
 62
7
  6
CONTINUOUS
 10
157.2322664588
 20
76.4186587496
 11
157.0059251753
 21
76.4628213924
  0
LINE
  5
48A
100
AcDbEntity
  8
KONSTRUKTIONSELEMENTE
100
AcDbLine
 62
7
  6
CONTINUOUS
 10
160.0689864947
 20
74.8913026969
 11
160.3633156505
 21
74.8303974259
  0
LINE
  5
48B
100
AcDbEntity
  8
KONSTRUKTIONSELEMENTE
100
AcDbLine
 62
7
  6
CONTINUOUS
 10
160.5640066017
 20
75.2056313656
 11
160.2188401837
 21
75.2937265505
  0
LINE
  5
48C
100
AcDbEntity
  8
KONSTRUKTIONSELEMENTE
100
AcDbLine
 62
7
  6
CONTINUOUS
 10
157.5554814639
 20
76.2688833237
 11
157.2322664588
 21
76.4186587496
  0
LINE
  5
48D
100
AcDbEntity
  8
KONSTRUKTIONSELEMENTE
100
AcDbLine
 62
7
  6
CONTINUOUS
 10
157.0941907095
 20
76.0120432389
 11
157.3608197462
 21
75.8733086
  0
LINE
  5
48E
100
AcDbEntity
  8
KONSTRUKTIONSELEMENTE
100
AcDbLine
 62
7
  6
CONTINUOUS
 10
160.8288966393
 20
74.9674426048
 11
160.5640066017
 21
75.2056313656
  0
LINE
  5
48F
100
AcDbEntity
  8
0
100
AcDbLine
 62
7
  6
CONTINUOUS
 10
180.3773295474
 20
54.7681344396
 11
180.403128724
 21
54.7339540391
  0
LINE
  5
490
100
AcDbEntity
  8
BEZUGSACHSEN
100
AcDbLine
 62
7
  6
CONTINUOUS
 10
167.0095712105
 20
72.8081330724
 11
163.3289632445
 21
79.1831330724
  0
LINE
  5
491
100
AcDbEntity
  8
BEZUGSACHSEN
100
AcDbLine
 62
7
  6
CONTINUOUS
 10
163.3289632445
 20
79.1831330724
 11
146.0084551688
 21
79.1831330724
  0
LINE
  5
492
100
AcDbEntity
  8
0
100
AcDbLine
 62
7
  6
CONTINUOUS
 10
137.5437092066
 20
80.5831330724
 11
140.3851642288
 21
80.5831330724
  0
LINE
  5
493
100
AcDbEntity
  8
0
100
AcDbLine
 62
7
  6
CONTINUOUS
 10
168.9522541844
 20
80.5831330724
 11
171.7937092066
 21
80.5831330724
  0
LINE
  5
494
100
AcDbEntity
  8
0
100
AcDbLine
 62
7
  6
CONTINUOUS
 10
178.0798322836
 20
55.5581330724
 11
178.0798322836
 21
55.0581330724
  0
LINE
  5
495
100
AcDbEntity
  8
RUNDUNGEN
100
AcDbLine
 62
7
  6
CONTINUOUS
 10
178.4187092066
 20
76.9836118655
 11
178.4187092066
 21
73.3511404453
  0
LINE
  5
496
100
AcDbEntity
  8
RUNDUNGEN
100
AcDbLine
 62
7
  6
CONTINUOUS
 10
178.4187092066
 20
55.0151256996
 11
178.4187092066
 21
51.3826542794
  0
LINE
  5
497
100
AcDbEntity
  8
0
100
AcDbLine
 62
7
  6
CONTINUOUS
 10
178.7019861429
 20
55.5581330724
 11
178.7019861429
 21
55.0581330724
  0
LINE
  5
498
100
AcDbEntity
  8
0
100
AcDbLine
 62
7
  6
CONTINUOUS
 10
179.5305335119
 20
55.5581330724
 11
179.5305335119
 21
55.0581330724
  0
LINE
  5
499
100
AcDbEntity
  8
0
100
AcDbLine
 62
7
  6
CONTINUOUS
 10
174.9459930945
 20
72.8081330724
 11
174.2361074983
 21
73.6519678291
  0
LINE
  5
49A
100
AcDbEntity
  8
0
100
AcDbLine
 62
7
  6
CONTINUOUS
 10
177.2786211201
 20
73.1421169613
 11
173.2600848573
 21
77.9189156278
  0
LINE
  5
49B
100
AcDbEntity
  8
0
100
AcDbLine
 62
7
  6
CONTINUOUS
 10
180.3773295474
 20
55.0581330724
 11
180.3773295474
 21
54.7681344396
  0
LINE
  5
49C
100
AcDbEntity
  8
0
100
AcDbLine
 62
7
  6
CONTINUOUS
 10
180.4896215788
 20
55.0581330724
 11
180.4896215788
 21
54.8064476155
  0
LINE
  5
49D
100
AcDbEntity
  8
0
100
AcDbLine
 62
7
  6
CONTINUOUS
 10
180.9327259461
 20
55.0280611497
 11
180.9327259461
 21
54.8430105058
  0
LINE
  5
49E
100
AcDbEntity
  8
0
100
AcDbLine
 62
7
  6
CONTINUOUS
 10
181.1451831173
 20
54.7787824808
 11
181.1451831173
 21
54.6862571159
  0
LINE
  5
49F
100
AcDbEntity
  8
0
100
AcDbLine
 62
7
  6
CONTINUOUS
 10
183.2575092332
 20
55.0581330724
 11
183.2575092332
 21
55.0057929984
  0
LINE
  5
4A0
100
AcDbEntity
  8
0
100
AcDbLine
 62
7
  6
CONTINUOUS
 10
183.8098740168
 20
55.0581330724
 11
183.8098740168
 21
55.0223240991
  0
LINE
  5
4A1
100
AcDbEntity
  8
RUNDUNGEN
100
AcDbLine
 62
7
  6
CONTINUOUS
 10
173.9655842066
 20
83.8368266392
 11
172.5464564594
 21
84.4403614919
  0
LINE
  5
4A2
100
AcDbEntity
  8
0
100
AcDbLine
 62
7
  6
CONTINUOUS
 10
184.2469149383
 20
55.0581330724
 11
184.2469149383
 21
54.9421971184
  0
LINE
  5
4A3
100
AcDbEntity
  8
0
100
AcDbLine
 62
7
  6
CONTINUOUS
 10
184.5701192655
 20
55.5581330724
 11
184.5701192655
 21
55.0581330724
  0
LINE
  5
4A4
100
AcDbEntity
  8
0
100
AcDbLine
 62
7
  6
CONTINUOUS
 10
184.8979000348
 20
55.5581330724
 11
184.8979000348
 21
55.0581330724
  0
LINE
  5
4A5
100
AcDbEntity
  8
0
100
AcDbLine
 62
7
  6
CONTINUOUS
 10
185.1209970938
 20
54.9101022985
 11
185.1209970938
 21
54.7819430997
  0
LINE
  5
4A6
100
AcDbEntity
  8
0
100
AcDbLine
 62
7
  6
CONTINUOUS
 10
185.3516448925
 20
55.4766291969
 11
185.3516448925
 21
54.9752593313
  0
LINE
  5
4A7
100
AcDbEntity
  8
0
100
AcDbLine
 62
7
  6
CONTINUOUS
 10
185.6247957419
 20
55.4265497838
 11
185.6247957419
 21
54.9251799182
  0
LINE
  5
4A8
100
AcDbEntity
  8
RUNDUNGEN
100
AcDbLine
 62
7
  6
CONTINUOUS
 10
192.2195930848
 20
72.3081330724
 11
192.2195930848
 21
71.8081330724
  0
LINE
  5
4A9
100
AcDbEntity
  8
RUNDUNGEN
100
AcDbLine
 62
7
  6
CONTINUOUS
 10
192.2195930848
 20
56.5581330724
 11
192.2195930848
 21
56.0581330724
  0
LINE
  5
4AA
100
AcDbEntity
  8
0
100
AcDbLine
 62
7
  6
CONTINUOUS
 10
196.6687092066
 20
67.3081330724
 11
196.6687092066
 21
61.0581330724
  0
LINE
  5
4AB
100
AcDbEntity
  8
RUNDUNGEN
100
AcDbLine
 62
7
  6
CONTINUOUS
 10
199.6036215143
 20
57.0581330724
 11
199.6036215143
 21
71.3081330724
  0
ARC
  5
4AC
100
AcDbEntity
  8
RUNDUNGEN
100
AcDbCircle
 62
7
  6
CONTINUOUS
 10
120.9959284866
 20
160.102375591
 40
8.0
100
AcDbArc
 50
193.0
 51
270.0
  0
ARC
  5
4AD
100
AcDbEntity
  8
0
100
AcDbCircle
 62
7
  6
CONTINUOUS
 10
119.3258057937
 20
167.8234835406
 40
3.0
100
AcDbArc
 50
84.2608295227
 51
269.7230171587
  0
ARC
  5
4AE
100
AcDbEntity
  8
0
100
AcDbCircle
 62
7
  6
CONTINUOUS
 10
119.3258057937
 20
167.8234835406
 40
2.1
100
AcDbArc
 50
81.7867892983
 51
278.2132107017
  0
ARC
  5
4AF
100
AcDbEntity
  8
RUNDUNGEN
100
AcDbCircle
 62
7
  6
CONTINUOUS
 10
91.3287092066
 20
209.3960450591
 40
28.5
100
AcDbArc
 50
337.999988371
 51
26.0462731654
  0
ARC
  5
4B0
100
AcDbEntity
  8
RUNDUNGEN
100
AcDbCircle
 62
7
  6
CONTINUOUS
 10
126.1687092066
 20
155.852375591
 40
3.75
100
AcDbArc
 50
270.0
 51
360.0
  0
ARC
  5
4B1
100
AcDbEntity
  8
0
100
AcDbCircle
 62
7
  6
CONTINUOUS
 10
124.4258057937
 20
167.8234835406
 40
3.0
100
AcDbArc
 50
84.2608295227
 51
269.7230171587
  0
ARC
  5
4B2
100
AcDbEntity
  8
0
100
AcDbCircle
 62
7
  6
CONTINUOUS
 10
124.4258057937
 20
167.8234835406
 40
2.1
100
AcDbArc
 50
192.3736251162
 51
278.2132107017
  0
ARC
  5
4B3
100
AcDbEntity
  8
0
100
AcDbCircle
 62
7
  6
CONTINUOUS
 10
124.4258057937
 20
167.8234835406
 40
2.1
100
AcDbArc
 50
81.7867892983
 51
167.4447123387
  0
ARC
  5
4B4
100
AcDbEntity
  8
RUNDUNGEN
100
AcDbCircle
 62
7
  6
CONTINUOUS
 10
127.7337968989
 20
175.3715759449
 40
18.0
100
AcDbArc
 50
158.0
 51
193.0
  0
ARC
  5
4B5
100
AcDbEntity
  8
RUNDUNGEN
100
AcDbCircle
 62
7
  6
CONTINUOUS
 10
132.9187092066
 20
181.377375591
 40
2.0
100
AcDbArc
 50
90.0
 51
180.0
  0
ARC
  5
4B6
100
AcDbEntity
  8
RUNDUNGEN
100
AcDbCircle
 62
7
  6
CONTINUOUS
 10
131.1187092066
 20
172.802375591
 40
1.2
100
AcDbArc
 50
180.0
 51
260.3906379947
  0
ARC
  5
4B7
100
AcDbEntity
  8
RUNDUNGEN
100
AcDbCircle
 62
7
  6
CONTINUOUS
 10
128.9187092066
 20
175.952375591
 40
1.0
100
AcDbArc
 50
0.0
 51
90.0
  0
ARC
  5
4B8
100
AcDbEntity
  8
RUNDUNGEN
100
AcDbCircle
 62
7
  6
CONTINUOUS
 10
153.1687092066
 20
179.9998924761
 40
26.25
100
AcDbArc
 50
11.8212191699
 51
22.0000135623
  0
ARC
  5
4B9
100
AcDbEntity
  8
RUNDUNGEN
100
AcDbCircle
 62
7
  6
CONTINUOUS
 10
153.1687092066
 20
179.9998924761
 40
26.25
100
AcDbArc
 50
359.9999410072
 51
7.3912151353
  0
ARC
  5
4BA
100
AcDbEntity
  8
RUNDUNGEN
100
AcDbCircle
 62
7
  6
CONTINUOUS
 10
144.1708169314
 20
196.352375591
 40
9.0
100
AcDbArc
 50
90.0
 51
158.0000004313
  0
ARC
  5
4BB
100
AcDbEntity
  8
RUNDUNGEN
100
AcDbCircle
 62
7
  6
CONTINUOUS
 10
141.5437092066
 20
184.502375591
 40
1.125
100
AcDbArc
 50
269.9987534595
 51
356.1774462707
  0
ARC
  5
4BC
100
AcDbEntity
  8
0
100
AcDbCircle
 62
7
  6
CONTINUOUS
 10
139.7887036387
 20
184.352375591
 40
1.125
100
AcDbArc
 50
90.0
 51
114.1163321166
  0
ARC
  5
4BD
100
AcDbEntity
  8
RUNDUNGEN
100
AcDbCircle
 62
7
  6
CONTINUOUS
 10
143.7887036387
 20
184.352375591
 40
1.125
100
AcDbArc
 50
90.0
 51
176.1774462707
  0
ARC
  5
4BE
100
AcDbEntity
  8
0
100
AcDbCircle
 62
7
  6
CONTINUOUS
 10
143.7887036387
 20
184.352375591
 40
1.125
100
AcDbArc
 50
149.617079661
 51
176.1774462707
  0
ARC
  5
4BF
100
AcDbEntity
  8
0
100
AcDbCircle
 62
7
  6
CONTINUOUS
 10
141.611985726
 20
184.5015655473
 40
1.052455887
100
AcDbArc
 50
348.6617140503
 51
355.9341343536
  0
ARC
  5
4C0
100
AcDbEntity
  8
RUNDUNGEN
100
AcDbCircle
 62
7
  6
CONTINUOUS
 10
129.9015436064
 20
187.252375591
 40
1.0
100
AcDbArc
 50
270.0
 51
344.5649305103
  0
ARC
  5
4C1
100
AcDbEntity
  8
RUNDUNGEN
100
AcDbCircle
 62
7
  6
CONTINUOUS
 10
116.5343269628
 20
215.7233277861
 40
7.5
100
AcDbArc
 50
338.0
 51
15.0
  0
ARC
  5
4C2
100
AcDbEntity
  8
RUNDUNGEN
100
AcDbCircle
 62
7
  6
CONTINUOUS
 10
124.6178253284
 20
243.5108507601
 40
7.5
100
AcDbArc
 50
153.0
 51
195.0
  0
ARC
  5
4C3
100
AcDbEntity
  8
RUNDUNGEN
100
AcDbCircle
 62
7
  6
CONTINUOUS
 10
134.4499827566
 20
262.8075462203
 40
7.5
100
AcDbArc
 50
111.0
 51
153.0
  0
ARC
  5
4C4
100
AcDbEntity
  8
RUNDUNGEN
100
AcDbCircle
 62
7
  6
CONTINUOUS
 10
156.1687092066
 20
179.9998924761
 40
26.25
100
AcDbArc
 50
172.6086989426
 51
180.0000585716
  0
ARC
  5
4C5
100
AcDbEntity
  8
RUNDUNGEN
100
AcDbCircle
 62
7
  6
CONTINUOUS
 10
156.1687092066
 20
179.9998924761
 40
26.25
100
AcDbArc
 50
157.9999864103
 51
168.178812857
  0
ARC
  5
4C6
100
AcDbEntity
  8
RUNDUNGEN
100
AcDbCircle
 62
7
  6
CONTINUOUS
 10
181.6036215143
 20
175.3715759449
 40
18.0
100
AcDbArc
 50
347.0
 51
22.0
  0
ARC
  5
4C7
100
AcDbEntity
  8
RUNDUNGEN
100
AcDbCircle
 62
7
  6
CONTINUOUS
 10
183.1687092066
 20
155.852375591
 40
3.75
100
AcDbArc
 50
180.0
 51
270.0
  0
ARC
  5
4C8
100
AcDbEntity
  8
RUNDUNGEN
100
AcDbCircle
 62
7
  6
CONTINUOUS
 10
176.4187092066
 20
181.377375591
 40
2.0
100
AcDbArc
 50
0.0
 51
90.0
  0
ARC
  5
4C9
100
AcDbEntity
  8
RUNDUNGEN
100
AcDbCircle
 62
7
  6
CONTINUOUS
 10
178.2187092066
 20
172.802375591
 40
1.2
100
AcDbArc
 50
279.6093620053
 51
360.0
  0
ARC
  5
4CA
100
AcDbEntity
  8
RUNDUNGEN
100
AcDbCircle
 62
7
  6
CONTINUOUS
 10
180.4187092066
 20
175.952375591
 40
1.0
100
AcDbArc
 50
90.0
 51
180.0
  0
ARC
  5
4CB
100
AcDbEntity
  8
RUNDUNGEN
100
AcDbCircle
 62
7
  6
CONTINUOUS
 10
165.1666014819
 20
196.352375591
 40
9.0
100
AcDbArc
 50
21.9999995874
 51
90.0
  0
ARC
  5
4CC
100
AcDbEntity
  8
RUNDUNGEN
100
AcDbCircle
 62
7
  6
CONTINUOUS
 10
167.7937092066
 20
184.502375591
 40
1.125
100
AcDbArc
 50
183.8225537293
 51
270.0010506132
  0
ARC
  5
4CD
100
AcDbEntity
  8
0
100
AcDbCircle
 62
7
  6
CONTINUOUS
 10
169.5487147746
 20
184.352375591
 40
1.125
100
AcDbArc
 50
65.8836678834
 51
90.0
  0
ARC
  5
4CE
100
AcDbEntity
  8
0
100
AcDbCircle
 62
7
  6
CONTINUOUS
 10
165.5487147746
 20
184.352375591
 40
1.125
100
AcDbArc
 50
3.8225537293
 51
30.382920339
  0
ARC
  5
4CF
100
AcDbEntity
  8
RUNDUNGEN
100
AcDbCircle
 62
7
  6
CONTINUOUS
 10
165.5487147746
 20
184.352375591
 40
1.125
100
AcDbArc
 50
3.8225537293
 51
90.0
  0
ARC
  5
4D0
100
AcDbEntity
  8
0
100
AcDbCircle
 62
7
  6
CONTINUOUS
 10
165.611147176
 20
184.3516915128
 40
1.0671103836
100
AcDbArc
 50
4.067078811
 51
7.3135124283
  0
ARC
  5
4D1
100
AcDbEntity
  8
0
100
AcDbCircle
 62
7
  6
CONTINUOUS
 10
167.7249224666
 20
184.5021135228
 40
1.0520103719
100
AcDbArc
 50
184.0738936351
 51
188.6440717582
  0
ARC
  5
4D2
100
AcDbEntity
  8
RUNDUNGEN
100
AcDbCircle
 62
7
  6
CONTINUOUS
 10
179.4358821388
 20
187.252375591
 40
1.0
100
AcDbArc
 50
195.4349584459
 51
269.9995799011
  0
ARC
  5
4D3
100
AcDbEntity
  8
RUNDUNGEN
100
AcDbCircle
 62
7
  6
CONTINUOUS
 10
188.3414899266
 20
160.102375591
 40
8.0
100
AcDbArc
 50
270.0
 51
347.0
  0
ARC
  5
4D4
100
AcDbEntity
  8
RUNDUNGEN
100
AcDbCircle
 62
7
  6
CONTINUOUS
 10
218.0087092066
 20
209.3960450591
 40
28.5
100
AcDbArc
 50
153.9537268346
 51
202.000362381
  0
ARC
  5
4D5
100
AcDbEntity
  8
RUNDUNGEN
100
AcDbCircle
 62
7
  6
CONTINUOUS
 10
154.6687092066
 20
240.352375591
 40
42.0
100
AcDbArc
 50
333.9537268346
 51
206.0462731654
  0
CIRCLE
  5
4D6
100
AcDbEntity
  8
RUNDUNGEN
100
AcDbCircle
 62
7
  6
CONTINUOUS
 10
154.6687092066
 20
240.352375591
 40
25.0
  0
ARC
  5
4D7
100
AcDbEntity
  8
RUNDUNGEN
100
AcDbCircle
 62
7
  6
CONTINUOUS
 10
154.6687092066
 20
270.5687881387
 40
7.5
100
AcDbArc
 50
69.0
 51
111.0
  0
ARC
  5
4D8
100
AcDbEntity
  8
RUNDUNGEN
100
AcDbCircle
 62
7
  6
CONTINUOUS
 10
192.8030914504
 20
215.7233277861
 40
7.5
100
AcDbArc
 50
165.0
 51
202.0
  0
ARC
  5
4D9
100
AcDbEntity
  8
RUNDUNGEN
100
AcDbCircle
 62
7
  6
CONTINUOUS
 10
174.8874356567
 20
262.8075462203
 40
7.5
100
AcDbArc
 50
27.0
 51
69.0
  0
ARC
  5
4DA
100
AcDbEntity
  8
RUNDUNGEN
100
AcDbCircle
 62
7
  6
CONTINUOUS
 10
184.7195930848
 20
243.5108507601
 40
7.5
100
AcDbArc
 50
345.0
 51
27.0
  0
ARC
  5
4DB
100
AcDbEntity
  8
RUNDUNGEN
100
AcDbCircle
 62
7
  6
CONTINUOUS
 10
234.9621471283
 20
203.0921030046
 40
20.0
100
AcDbArc
 50
355.7636079884
 51
0.0000025005
  0
ARC
  5
4DC
100
AcDbEntity
  8
RUNDUNGEN
100
AcDbCircle
 62
7
  6
CONTINUOUS
 10
292.2121471283
 20
203.0921030046
 40
20.0
100
AcDbArc
 50
179.9999995014
 51
184.2365491253
  0
ARC
  5
4DD
100
AcDbEntity
  8
RUNDUNGEN
100
AcDbCircle
 62
7
  6
CONTINUOUS
 10
273.4621471283
 20
181.3626481774
 40
20.0
100
AcDbArc
 50
175.7636057382
 51
180.0000124286
  0
ARC
  5
4DE
100
AcDbEntity
  8
RUNDUNGEN
100
AcDbCircle
 62
7
  6
CONTINUOUS
 10
253.7121471283
 20
181.3626481774
 40
20.0
100
AcDbArc
 50
359.99998694
 51
4.2363947991
  0
ARC
  5
4DF
100
AcDbEntity
  8
RUNDUNGEN
100
AcDbCircle
 62
7
  6
CONTINUOUS
 10
260.4569416846
 20
278.352375736
 40
4.0000011353
100
AcDbArc
 50
90.0000001723
 51
177.2434893127
  0
ARC
  5
4E0
100
AcDbEntity
  8
RUNDUNGEN
100
AcDbCircle
 62
7
  6
CONTINUOUS
 10
266.717352572
 20
278.352375736
 40
4.0000011353
100
AcDbArc
 50
2.7565106873
 51
89.9999998277
  0
ARC
  5
4E1
100
AcDbEntity
  8
RUNDUNGEN
100
AcDbCircle
 62
7
  6
CONTINUOUS
 10
270.7121471283
 20
155.102375591
 40
3.0
100
AcDbArc
 50
270.0
 51
360.0
  0
ARC
  5
4E2
100
AcDbEntity
  8
RUNDUNGEN
100
AcDbCircle
 62
7
  6
CONTINUOUS
 10
256.4621471283
 20
155.102375591
 40
3.0
100
AcDbArc
 50
180.0
 51
270.0
  0
ARC
  5
4E3
100
AcDbEntity
  8
RUNDUNGEN
100
AcDbCircle
 62
7
  6
CONTINUOUS
 10
285.3371471283
 20
183.477375591
 40
2.0
100
AcDbArc
 50
0.0
 51
90.0
  0
ARC
  5
4E4
100
AcDbEntity
  8
RUNDUNGEN
100
AcDbCircle
 62
7
  6
CONTINUOUS
 10
241.8371471283
 20
183.477375591
 40
2.0
100
AcDbArc
 50
90.0
 51
180.0
  0
ARC
  5
4E5
100
AcDbEntity
  8
RUNDUNGEN
100
AcDbCircle
 62
7
  6
CONTINUOUS
 10
254.8463683409
 20
187.252375591
 40
1.0
100
AcDbArc
 50
175.7636044148
 51
183.6166461223
  0
ARC
  5
4E6
100
AcDbEntity
  8
RUNDUNGEN
100
AcDbCircle
 62
7
  6
CONTINUOUS
 10
271.7121471283
 20
277.5687881387
 40
0.5
100
AcDbArc
 50
0.0
 51
90.0
  0
ARC
  5
4E7
100
AcDbEntity
  8
RUNDUNGEN
100
AcDbCircle
 62
7
  6
CONTINUOUS
 10
255.4621471283
 20
277.5687881387
 40
0.5
100
AcDbArc
 50
90.0
 51
180.0
  0
ARC
  5
4E8
100
AcDbEntity
  8
RUNDUNGEN
100
AcDbCircle
 62
7
  6
CONTINUOUS
 10
255.9621471283
 20
278.5687881387
 40
0.5
100
AcDbArc
 50
270.0
 51
357.2436141078
  0
ARC
  5
4E9
100
AcDbEntity
  8
RUNDUNGEN
100
AcDbCircle
 62
7
  6
CONTINUOUS
 10
271.2121471283
 20
278.5687881387
 40
0.5
100
AcDbArc
 50
182.7563858922
 51
270.0
  0
ARC
  5
4EA
100
AcDbEntity
  8
RUNDUNGEN
100
AcDbCircle
 62
7
  6
CONTINUOUS
 10
138.4187092066
 20
51.3826542794
 40
7.5
100
AcDbArc
 50
180.0
 51
246.0305176822
  0
ARC
  5
4EB
100
AcDbEntity
  8
RUNDUNGEN
100
AcDbCircle
 62
7
  6
CONTINUOUS
 10
116.6687092066
 20
61.0581330724
 40
4.0
100
AcDbArc
 50
180.0
 51
269.5620458777
  0
ARC
  5
4EC
100
AcDbEntity
  8
RUNDUNGEN
100
AcDbCircle
 62
7
  6
CONTINUOUS
 10
112.7337968989
 20
57.0581330724
 40
3.0
100
AcDbArc
 50
180.0
 51
270.0
  0
ARC
  5
4ED
100
AcDbEntity
  8
RUNDUNGEN
100
AcDbCircle
 62
7
  6
CONTINUOUS
 10
126.9187092066
 20
57.0581330724
 40
3.0
100
AcDbArc
 50
270.0006194308
 51
302.5026689293
  0
ARC
  5
4EE
100
AcDbEntity
  8
RUNDUNGEN
100
AcDbCircle
 62
7
  6
CONTINUOUS
 10
124.6847317815
 20
55.0581330724
 40
1.0
100
AcDbArc
 50
270.0
 51
313.1301118423
  0
ARC
  5
4EF
100
AcDbEntity
  8
RUNDUNGEN
100
AcDbCircle
 62
7
  6
CONTINUOUS
 10
117.6178253284
 20
56.0581330724
 40
0.5
100
AcDbArc
 50
180.0
 51
270.0
  0
ARC
  5
4F0
100
AcDbEntity
  8
RUNDUNGEN
100
AcDbCircle
 62
7
  6
CONTINUOUS
 10
116.6178253284
 20
56.5581330724
 40
0.5
100
AcDbArc
 50
0.0
 51
87.7171700212
  0
ARC
  5
4F1
100
AcDbEntity
  8
RUNDUNGEN
100
AcDbCircle
 62
7
  6
CONTINUOUS
 10
138.4187092066
 20
76.9836118655
 40
7.5
100
AcDbArc
 50
113.9694823178
 51
180.0
  0
ARC
  5
4F2
100
AcDbEntity
  8
0
100
AcDbCircle
 62
7
  6
CONTINUOUS
 10
140.6687092066
 20
74.056368588
 40
6.0
100
AcDbArc
 50
99.0126199215
 51
139.9273936575
  0
ARC
  5
4F3
100
AcDbEntity
  8
RUNDUNGEN
100
AcDbCircle
 62
7
  6
CONTINUOUS
 10
116.6687092066
 20
67.3081330724
 40
4.0
100
AcDbArc
 50
90.4379511629
 51
180.0
  0
ARC
  5
4F4
100
AcDbEntity
  8
RUNDUNGEN
100
AcDbCircle
 62
7
  6
CONTINUOUS
 10
112.7337968989
 20
71.3081330724
 40
3.0
100
AcDbArc
 50
90.0
 51
180.0
  0
ARC
  5
4F5
100
AcDbEntity
  8
RUNDUNGEN
100
AcDbCircle
 62
7
  6
CONTINUOUS
 10
126.9187092066
 20
71.3081330724
 40
3.0
100
AcDbArc
 50
60.1244085192
 51
90.0
  0
ARC
  5
4F6
100
AcDbEntity
  8
RUNDUNGEN
100
AcDbCircle
 62
7
  6
CONTINUOUS
 10
124.684750741
 20
73.3081330724
 40
0.999992466
100
AcDbArc
 50
44.6165632401
 51
90.0010862999
  0
ARC
  5
4F7
100
AcDbEntity
  8
RUNDUNGEN
100
AcDbCircle
 62
7
  6
CONTINUOUS
 10
117.6178253284
 20
72.3081330724
 40
0.5
100
AcDbArc
 50
90.0
 51
180.0
  0
ARC
  5
4F8
100
AcDbEntity
  8
RUNDUNGEN
100
AcDbCircle
 62
7
  6
CONTINUOUS
 10
116.6178253284
 20
71.8081330724
 40
0.5
100
AcDbArc
 50
272.2828302747
 51
360.0
  0
ARC
  5
4F9
100
AcDbEntity
  8
RUNDUNGEN
100
AcDbCircle
 62
7
  6
CONTINUOUS
 10
154.6687092066
 20
40.4331330724
 40
47.5
100
AcDbArc
 50
66.0305176822
 51
113.9694823178
  0
ARC
  5
4FA
100
AcDbEntity
  8
RUNDUNGEN
100
AcDbCircle
 62
7
  6
CONTINUOUS
 10
170.9187092066
 20
51.3826542794
 40
7.5
100
AcDbArc
 50
293.9694823178
 51
360.0
  0
ARC
  5
4FB
100
AcDbEntity
  8
RUNDUNGEN
100
AcDbCircle
 62
7
  6
CONTINUOUS
 10
192.6687092066
 20
61.0581330724
 40
4.0
100
AcDbArc
 50
270.4379551692
 51
360.0
  0
ARC
  5
4FC
100
AcDbEntity
  8
RUNDUNGEN
100
AcDbCircle
 62
7
  6
CONTINUOUS
 10
196.6036215143
 20
57.0581330724
 40
3.0
100
AcDbArc
 50
270.0
 51
360.0
  0
ARC
  5
4FD
100
AcDbEntity
  8
RUNDUNGEN
100
AcDbCircle
 62
7
  6
CONTINUOUS
 10
182.4187092066
 20
57.0581330724
 40
3.0
100
AcDbArc
 50
237.5089151897
 51
269.9993789444
  0
ARC
  5
4FE
100
AcDbEntity
  8
RUNDUNGEN
100
AcDbCircle
 62
7
  6
CONTINUOUS
 10
184.6526676722
 20
55.0581330724
 40
0.999992466
100
AcDbArc
 50
222.9308355141
 51
270.0010862999
  0
ARC
  5
4FF
100
AcDbEntity
  8
RUNDUNGEN
100
AcDbCircle
 62
7
  6
CONTINUOUS
 10
191.7195930848
 20
56.0581330724
 40
0.5
100
AcDbArc
 50
270.0
 51
360.0
  0
ARC
  5
500
100
AcDbEntity
  8
RUNDUNGEN
100
AcDbCircle
 62
7
  6
CONTINUOUS
 10
192.7195930848
 20
56.5581330724
 40
0.5
100
AcDbArc
 50
92.2827935224
 51
180.0
  0
ARC
  5
501
100
AcDbEntity
  8
0
100
AcDbCircle
 62
7
  6
CONTINUOUS
 10
154.6687092066
 20
64.1831330724
 40
21.75
100
AcDbArc
 50
203.3778654261
 51
336.6221345739
  0
ARC
  5
502
100
AcDbEntity
  8
0
100
AcDbCircle
 62
7
  6
CONTINUOUS
 10
154.6687092066
 20
64.1831330724
 40
21.75
100
AcDbArc
 50
23.3778654261
 51
156.6221345739
  0
ARC
  5
503
100
AcDbEntity
  8
BEZUGSACHSEN
100
AcDbCircle
 62
7
  6
CONTINUOUS
 10
154.6687092066
 20
64.1831330724
 40
15.0
100
AcDbArc
 50
215.1033767888
 51
324.8966231974
  0
ARC
  5
504
100
AcDbEntity
  8
BEZUGSACHSEN
100
AcDbCircle
 62
7
  6
CONTINUOUS
 10
154.6687092066
 20
64.1831330724
 40
15.0
100
AcDbArc
 50
35.1033768026
 51
144.8966231574
  0
ARC
  5
505
100
AcDbEntity
  8
0
100
AcDbCircle
 62
7
  6
CONTINUOUS
 10
168.6687092066
 20
74.056368588
 40
6.0
100
AcDbArc
 50
40.0726063425
 51
80.9873800785
  0
ARC
  5
506
100
AcDbEntity
  8
RUNDUNGEN
100
AcDbCircle
 62
7
  6
CONTINUOUS
 10
154.6687092066
 20
87.9331330724
 40
47.5
100
AcDbArc
 50
246.0305176822
 51
293.9694823178
  0
ARC
  5
507
100
AcDbEntity
  8
RUNDUNGEN
100
AcDbCircle
 62
7
  6
CONTINUOUS
 10
170.9187092066
 20
76.9836118655
 40
7.5
100
AcDbArc
 50
0.0
 51
66.0305176822
  0
ARC
  5
508
100
AcDbEntity
  8
RUNDUNGEN
100
AcDbCircle
 62
7
  6
CONTINUOUS
 10
192.6687092066
 20
67.3081330724
 40
4.0
100
AcDbArc
 50
0.0
 51
89.5620472433
  0
ARC
  5
509
100
AcDbEntity
  8
RUNDUNGEN
100
AcDbCircle
 62
7
  6
CONTINUOUS
 10
196.6036215143
 20
71.3081330724
 40
3.0
100
AcDbArc
 50
0.0
 51
90.0
  0
ARC
  5
50A
100
AcDbEntity
  8
RUNDUNGEN
100
AcDbCircle
 62
7
  6
CONTINUOUS
 10
182.4187092066
 20
71.3081330724
 40
3.0
100
AcDbArc
 50
90.0006194308
 51
122.5084864624
  0
ARC
  5
50B
100
AcDbEntity
  8
RUNDUNGEN
100
AcDbCircle
 62
7
  6
CONTINUOUS
 10
184.6526866318
 20
73.3081330724
 40
1.0
100
AcDbArc
 50
90.0
 51
137.0687126493
  0
ARC
  5
50C
100
AcDbEntity
  8
RUNDUNGEN
100
AcDbCircle
 62
7
  6
CONTINUOUS
 10
191.7195930848
 20
72.3081330724
 40
0.5
100
AcDbArc
 50
0.0
 51
90.0
  0
ARC
  5
50D
100
AcDbEntity
  8
RUNDUNGEN
100
AcDbCircle
 62
7
  6
CONTINUOUS
 10
192.7195930848
 20
71.8081330724
 40
0.5
100
AcDbArc
 50
180.0
 51
267.7172068625
  0
SPLINE
  5
50E
100
AcDbEntity
  8
0
100
AcDbSpline
 62
7
  6
CONTINUOUS
 70
0
 71
3
 72
16
 73
12
 74
0
 42
0.0000001
 43
0.0000001
 44
0.0000000001
 40
0.0
 40
0.0
 40
0.0
 40
0.0
 40
0.2149192847
 40
0.3991859187
 40
0.5542845593
 40
0.6810062921
 40
0.7804126125
 40
0.8559282309
 40
0.8881831181
 40
0.9203929741
 40
1.0
 40
1.0
 40
1.0
 40
1.0
 10
141.993712429
 20
183.567535416
 30
0.0
 10
141.9306871445
 20
183.5481626837
 30
0.0
 10
141.8118364084
 20
183.5177881918
 30
0.0
 10
141.6440725755
 20
183.4890931867
 30
0.0
 10
141.5016868221
 20
183.4750055488
 30
0.0
 10
141.384503724
 20
183.4726423606
 30
0.0
 10
141.2923123325
 20
183.4810943982
 30
0.0
 10
141.2302989422
 20
183.5009202508
 30
0.0
 10
141.1966083462
 20
183.5285033507
 30
0.0
 10
141.1723503678
 20
183.5663174608
 30
0.0
 10
141.1687092066
 20
183.6021168476
 30
0.0
 10
141.1687092066
 20
183.6265396374
 30
0.0
  0
SPLINE
  5
50F
100
AcDbEntity
  8
0
100
AcDbSpline
 62
7
  6
CONTINUOUS
 70
0
 71
3
 72
10
 73
6
 74
0
 42
0.0000001
 43
0.0000001
 44
0.0000000001
 40
0.0
 40
0.0
 40
0.0
 40
0.0
 40
0.3589757292
 40
0.6204054489
 40
1.0
 40
1.0
 40
1.0
 40
1.0
 10
142.6439013632
 20
184.2946512857
 30
0.0
 10
142.619889897
 20
184.1750118291
 30
0.0
 10
142.5403882256
 20
183.9730210974
 30
0.0
 10
142.3160041313
 20
183.7125083895
 30
0.0
 10
142.1170513025
 20
183.6054473588
 30
0.0
 10
141.993712429
 20
183.567535416
 30
0.0
  0
SPLINE
  5
510
100
AcDbEntity
  8
0
100
AcDbSpline
 62
7
  6
CONTINUOUS
 70
0
 71
3
 72
16
 73
12
 74
0
 42
0.0000001
 43
0.0000001
 44
0.0000000001
 40
0.0
 40
0.0
 40
0.0
 40
0.0
 40
0.0796070587
 40
0.1118169549
 40
0.1440718247
 40
0.219587474
 40
0.3189938194
 40
0.4457155462
 40
0.6008141605
 40
0.7850807354
 40
1.0
 40
1.0
 40
1.0
 40
1.0
 10
168.1687092066
 20
183.6265396374
 30
0.0
 10
168.1687092066
 20
183.6021168372
 30
0.0
 10
168.16506802
 20
183.5663174429
 30
0.0
 10
168.1408100738
 20
183.5285032824
 30
0.0
 10
168.1071194042
 20
183.5009202394
 30
0.0
 10
168.0451060268
 20
183.4810943647
 30
0.0
 10
167.952914603
 20
183.4726423654
 30
0.0
 10
167.8357315114
 20
183.4750055608
 30
0.0
 10
167.6933457819
 20
183.4890932001
 30
0.0
 10
167.5255819796
 20
183.517788203
 30
0.0
 10
167.4067312639
 20
183.5481626852
 30
0.0
 10
167.3437059843
 20
183.567535416
 30
0.0
  0
SPLINE
  5
511
100
AcDbEntity
  8
0
100
AcDbSpline
 62
7
  6
CONTINUOUS
 70
0
 71
3
 72
11
 73
7
 74
0
 42
0.0000001
 43
0.0000001
 44
0.0000000001
 40
0.0
 40
0.0
 40
0.0
 40
0.0
 40
0.1712251144
 40
0.3754972336
 40
0.6365546201
 40
1.0
 40
1.0
 40
1.0
 40
1.0
 10
167.3437059843
 20
183.567535416
 30
0.0
 10
167.2852584603
 20
183.5855010348
 30
0.0
 10
167.1603482299
 20
183.6366674907
 30
0.0
 10
166.9713365478
 20
183.7668510865
 30
0.0
 10
166.779968949
 20
183.9983273612
 30
0.0
 10
166.7043341549
 20
184.2156794526
 30
0.0
 10
166.6848618107
 20
184.344000732
 30
0.0
  0
SPLINE
  5
512
100
AcDbEntity
  8
0
100
AcDbSpline
 62
7
  6
CONTINUOUS
 70
0
 71
3
 72
9
 73
5
 74
0
 42
0.0000001
 43
0.0000001
 44
0.0000000001
 40
0.0
 40
0.0
 40
0.0
 40
0.0
 40
0.2793886402
 40
1.0
 40
1.0
 40
1.0
 40
1.0
 10
166.6695760282
 20
184.4875330958
 30
0.0
 10
166.6641170773
 20
184.5301249866
 30
0.0
 10
166.6355001031
 20
184.6813847405
 30
0.0
 10
166.5752288398
 20
184.8258311959
 30
0.0
 10
166.519212312
 20
184.9213742992
 30
0.0
  0
SPLINE
  5
513
100
AcDbEntity
  8
0
100
AcDbSpline
 62
7
  6
CONTINUOUS
 70
0
 71
3
 72
9
 73
5
 74
0
 42
0.0000001
 43
0.0000001
 44
0.0000000001
 40
0.0
 40
0.0
 40
0.0
 40
0.0
 40
0.4594448158
 40
1.0
 40
1.0
 40
1.0
 40
1.0
 10
142.8182061013
 20
184.9213742992
 30
0.0
 10
142.7778072267
 20
184.8524690314
 30
0.0
 10
142.7042666035
 20
184.6936033059
 30
0.0
 10
142.6684962435
 20
184.5211161963
 30
0.0
 10
142.6618481583
 20
184.427375591
 30
0.0
  0
SPLINE
  5
514
100
AcDbEntity
  8
0
100
AcDbSpline
 62
7
  6
CONTINUOUS
 70
0
 71
3
 72
11
 73
7
 74
0
 42
0.0000001
 43
0.0000001
 44
0.0000000001
 40
0.0
 40
0.0
 40
0.0
 40
0.0
 40
0.1111999332
 40
0.279207137
 40
0.5435168897
 40
1.0
 40
1.0
 40
1.0
 40
1.0
 10
141.1687092066
 20
183.6265396374
 30
0.0
 10
141.1687092066
 20
183.6564884998
 30
0.0
 10
141.1780490286
 20
183.7314560311
 30
0.0
 10
141.2061395945
 20
183.8749824771
 30
0.0
 10
141.2490901027
 20
184.1105630646
 30
0.0
 10
141.2671123348
 20
184.304476261
 30
0.0
 10
141.2703537795
 20
184.427375591
 30
0.0
  0
SPLINE
  5
515
100
AcDbEntity
  8
0
100
AcDbSpline
 62
7
  6
CONTINUOUS
 70
0
 71
3
 72
14
 73
10
 74
0
 42
0.0000001
 43
0.0000001
 44
0.0000000001
 40
0.0
 40
0.0
 40
0.0
 40
0.0
 40
0.089444835
 40
0.1764397061
 40
0.3612188469
 40
0.470072458
 40
0.5990636896
 40
0.7636925178
 40
1.0
 40
1.0
 40
1.0
 40
1.0
 10
167.449227342
 20
185.477375591
 30
0.0
 10
167.4892481536
 20
185.477375591
 30
0.0
 10
167.5686404263
 20
185.4670874284
 30
0.0
 10
167.7193889677
 20
185.404304131
 30
0.0
 10
167.8450870101
 20
185.2798797525
 30
0.0
 10
167.9380603257
 20
185.1148076842
 30
0.0
 10
168.0004954646
 20
184.9450153861
 30
0.0
 10
168.049889561
 20
184.7124997128
 30
0.0
 10
168.0642769326
 20
184.5330712366
 30
0.0
 10
168.0670646337
 20
184.427375591
 30
0.0
  0
SPLINE
  5
516
100
AcDbEntity
  8
0
100
AcDbSpline
 62
7
  6
CONTINUOUS
 70
0
 71
3
 72
11
 73
7
 74
0
 42
0.0000001
 43
0.0000001
 44
0.0000000001
 40
0.0
 40
0.0
 40
0.0
 40
0.0
 40
0.4564658983
 40
0.720787331
 40
0.8887982489
 40
1.0
 40
1.0
 40
1.0
 40
1.0
 10
168.0670646337
 20
184.427375591
 30
0.0
 10
168.0703059563
 20
184.3044808937
 30
0.0
 10
168.0883277115
 20
184.1105692022
 30
0.0
 10
168.1312774829
 20
183.8749889565
 30
0.0
 10
168.1593690585
 20
183.7314579962
 30
0.0
 10
168.1687092066
 20
183.6564889897
 30
0.0
 10
168.1687092066
 20
183.6265396374
 30
0.0
  0
SPLINE
  5
517
100
AcDbEntity
  8
0
100
AcDbSpline
 62
7
  6
CONTINUOUS
 70
0
 71
3
 72
14
 73
10
 74
0
 42
0.0000001
 43
0.0000001
 44
0.0000000001
 40
0.0
 40
0.0
 40
0.0
 40
0.0
 40
0.2362737232
 40
0.400918658
 40
0.5299167951
 40
0.6387823406
 40
0.8235691954
 40
0.9105585786
 40
1.0
 40
1.0
 40
1.0
 40
1.0
 10
141.2703537795
 20
184.427375591
 30
0.0
 10
141.2731410815
 20
184.5330561056
 30
0.0
 10
141.2875248067
 20
184.7124764284
 30
0.0
 10
141.3369127629
 20
184.9449890418
 30
0.0
 10
141.399355764
 20
185.1147947021
 30
0.0
 10
141.4923270278
 20
185.2798816396
 30
0.0
 10
141.6180350168
 20
185.4043075034
 30
0.0
 10
141.7687836865
 20
185.4670871239
 30
0.0
 10
141.8481717988
 20
185.477375591
 30
0.0
 10
141.8881910712
 20
185.477375591
 30
0.0
  0
SPLINE
  5
518
100
AcDbEntity
  8
BEZUGSACHSEN
100
AcDbSpline
 62
7
  6
CONTINUOUS
 70
0
 71
3
 72
11
 73
7
 74
0
 42
0.0000001
 43
0.0000001
 44
0.0000000001
 40
0.0
 40
0.0
 40
0.0
 40
0.0
 40
0.2616356616
 40
0.5144890271
 40
0.7595900246
 40
1.0
 40
1.0
 40
1.0
 40
1.0
 10
137.3482011309
 20
202.1376296288
 30
0.0
 10
137.6943358806
 20
202.3374706197
 30
0.0
 10
138.3906957336
 20
202.7044777073
 30
0.0
 10
139.4704513494
 20
203.1367680744
 30
0.0
 10
140.5680143139
 20
203.4133553971
 30
0.0
 10
141.3110711216
 20
203.4773755909
 30
0.0
 10
141.6783281491
 20
203.477375591
 30
0.0
  0
SPLINE
  5
519
100
AcDbEntity
  8
BEZUGSACHSEN
100
AcDbSpline
 62
7
  6
CONTINUOUS
 70
0
 71
3
 72
11
 73
7
 74
0
 42
0.0000001
 43
0.0000001
 44
0.0000000001
 40
0.0
 40
0.0
 40
0.0
 40
0.0
 40
0.2404100005
 40
0.4855110066
 40
0.7383643424
 40
1.0
 40
1.0
 40
1.0
 40
1.0
 10
141.6783281491
 20
203.477375591
 30
0.0
 10
142.0455852152
 20
203.477375591
 30
0.0
 10
142.7886420749
 20
203.4133553869
 30
0.0
 10
143.8862050404
 20
203.1367680408
 30
0.0
 10
144.9659606146
 20
202.7044776762
 30
0.0
 10
145.6623204244
 20
202.3374706167
 30
0.0
 10
146.0084551688
 20
202.1376296288
 30
0.0
  0
SPLINE
  5
51A
100
AcDbEntity
  8
BEZUGSACHSEN
100
AcDbSpline
 62
7
  6
CONTINUOUS
 70
0
 71
3
 72
10
 73
6
 74
0
 42
0.0000001
 43
0.0000001
 44
0.0000000001
 40
0.0
 40
0.0
 40
0.0
 40
0.0
 40
0.4998915617
 40
0.7499458185
 40
1.0
 40
1.0
 40
1.0
 40
1.0
 10
146.0084551688
 20
202.1376296288
 30
0.0
 10
147.415526894
 20
202.5438162485
 30
0.0
 10
149.5606682964
 20
203.051621208
 30
0.0
 10
152.4701895243
 20
203.4148652567
 30
0.0
 10
153.9361282841
 20
203.4773755911
 30
0.0
 10
154.6687092066
 20
203.4773755911
 30
0.0
  0
SPLINE
  5
51B
100
AcDbEntity
  8
BEZUGSACHSEN
100
AcDbSpline
 62
7
  6
CONTINUOUS
 70
0
 71
3
 72
10
 73
6
 74
0
 42
0.0000001
 43
0.0000001
 44
0.0000000001
 40
0.0
 40
0.0
 40
0.0
 40
0.0
 40
0.2500542058
 40
0.5001084765
 40
1.0
 40
1.0
 40
1.0
 40
1.0
 10
154.6687092066
 20
203.4773755911
 30
0.0
 10
155.4012902004
 20
203.4773755911
 30
0.0
 10
156.8672290722
 20
203.4148652424
 30
0.0
 10
159.7767502964
 20
203.0516211645
 30
0.0
 10
161.9218916268
 20
202.5438162174
 30
0.0
 10
163.3289632445
 20
202.1376296288
 30
0.0
  0
SPLINE
  5
51C
100
AcDbEntity
  8
BEZUGSACHSEN
100
AcDbSpline
 62
7
  6
CONTINUOUS
 70
0
 71
3
 72
11
 73
7
 74
0
 42
0.0000001
 43
0.0000001
 44
0.0000000001
 40
0.0
 40
0.0
 40
0.0
 40
0.0
 40
0.2616356616
 40
0.5144890271
 40
0.7595900246
 40
1.0
 40
1.0
 40
1.0
 40
1.0
 10
163.3289632445
 20
202.1376296288
 30
0.0
 10
163.6750979941
 20
202.3374706197
 30
0.0
 10
164.3714578471
 20
202.7044777073
 30
0.0
 10
165.4512134629
 20
203.1367680744
 30
0.0
 10
166.5487764274
 20
203.4133553971
 30
0.0
 10
167.2918332351
 20
203.4773755909
 30
0.0
 10
167.6590902627
 20
203.477375591
 30
0.0
  0
SPLINE
  5
51D
100
AcDbEntity
  8
BEZUGSACHSEN
100
AcDbSpline
 62
7
  6
CONTINUOUS
 70
0
 71
3
 72
11
 73
7
 74
0
 42
0.0000001
 43
0.0000001
 44
0.0000000001
 40
0.0
 40
0.0
 40
0.0
 40
0.0
 40
0.2404100005
 40
0.4855110066
 40
0.7383643424
 40
1.0
 40
1.0
 40
1.0
 40
1.0
 10
167.6590902627
 20
203.477375591
 30
0.0
 10
168.0263473287
 20
203.477375591
 30
0.0
 10
168.7694041885
 20
203.4133553869
 30
0.0
 10
169.8669671539
 20
203.1367680408
 30
0.0
 10
170.9467227281
 20
202.7044776762
 30
0.0
 10
171.6430825379
 20
202.3374706167
 30
0.0
 10
171.9892172823
 20
202.1376296288
 30
0.0
  0
SPLINE
  5
51E
100
AcDbEntity
  8
BEZUGSACHSEN
100
AcDbSpline
 62
7
  6
CONTINUOUS
 70
0
 71
3
 72
9
 73
5
 74
0
 42
0.0000001
 43
0.0000001
 44
0.0000000001
 40
0.0
 40
0.0
 40
0.0
 40
0.0
 40
0.4983886298
 40
1.0
 40
1.0
 40
1.0
 40
1.0
 10
272.7123843938
 20
203.4098500815
 30
0.0
 10
273.7093780303
 20
203.3274039563
 30
0.0
 10
275.6989772276
 20
203.0101863116
 30
0.0
 10
277.6319505082
 20
202.4560285022
 30
0.0
 10
278.5871471283
 20
202.1376296288
 30
0.0
  0
SPLINE
  5
51F
100
AcDbEntity
  8
BEZUGSACHSEN
100
AcDbSpline
 62
7
  6
CONTINUOUS
 70
0
 71
3
 72
9
 73
5
 74
0
 42
0.0000001
 43
0.0000001
 44
0.0000000001
 40
0.0
 40
0.0
 40
0.0
 40
0.0
 40
0.5016113863
 40
1.0
 40
1.0
 40
1.0
 40
1.0
 10
248.5871471283
 20
202.1376296288
 30
0.0
 10
249.5423438556
 20
202.4560285379
 30
0.0
 10
251.4753173032
 20
203.0101863761
 30
0.0
 10
253.4649166632
 20
203.3274039513
 30
0.0
 10
254.4619103407
 20
203.4098501614
 30
0.0
  0
ELLIPSE
  5
520
100
AcDbEntity
  8
0
100
AcDbEllipse
 62
7
  6
CONTINUOUS
 10
140.1220201387
 20
184.352375591
 30
0.0
 11
1.1462157754
 21
0.0
 31
0.0
 40
0.981490592
 41
1.5707963268
 42
3.0748765052
  0
ELLIPSE
  5
521
100
AcDbEntity
  8
0
100
AcDbEllipse
 62
7
  6
CONTINUOUS
 10
169.2153982745
 20
184.352375591
 30
0.0
 11
1.1462157754
 21
0.0
 31
0.0
 40
0.981490592
 41
0.0667161484
 42
1.5707963268
  0
ELLIPSE
  5
522
100
AcDbEntity
  8
0
100
AcDbEllipse
 62
7
  6
CONTINUOUS
 10
171.5027298601
 20
184.502375591
 30
0.0
 11
1.1462157754
 21
0.0
 31
0.0
 40
0.981490592
 41
-3.0748765052
 42
-1.5707963268
  0
ELLIPSE
  5
523
100
AcDbEntity
  8
0
100
AcDbEllipse
 62
7
  6
CONTINUOUS
 10
137.8346885532
 20
184.502375591
 30
0.0
 11
1.1462157754
 21
0.0
 31
0.0
 40
0.981490592
 41
-1.5707963268
 42
-0.0667161484
  0
ELLIPSE
  5
524
100
AcDbEntity
  8
0
100
AcDbEllipse
 62
7
  6
CONTINUOUS
 10
124.8476175298
 20
92.8081330724
 30
0.0
 11
-0.0
 21
20.0
 31
0.0
 40
0.383864035
 41
-3.2155316912
 42
-3.2108549809
  0
ELLIPSE
  5
525
100
AcDbEntity
  8
0
100
AcDbEllipse
 62
7
  6
CONTINUOUS
 10
120.7104902433
 20
92.8081330724
 30
0.0
 11
52.1017812939
 21
0.0
 31
0.0
 40
0.383864035
 41
4.7816513077
 42
4.786328018
  0
ELLIPSE
  5
526
100
AcDbEntity
  8
0
100
AcDbEllipse
 62
7
  6
CONTINUOUS
 10
124.3150497991
 20
35.5581330724
 30
0.0
 11
0.0
 21
20.0
 31
0.0
 40
0.4040262258
 41
0.0173489219
 42
0.0346952116
  0
ELLIPSE
  5
527
100
AcDbEntity
  8
0
100
AcDbEllipse
 62
7
  6
CONTINUOUS
 10
124.1627792316
 20
35.5581330724
 30
0.0
 11
0.0
 21
20.0
 31
0.0
 40
0.1845418734
 41
0.0346952116
 42
0.0713419809
  0
ELLIPSE
  5
528
100
AcDbEntity
  8
0
100
AcDbEllipse
 62
7
  6
CONTINUOUS
 10
128.4093342468
 20
73.372753963
 30
0.0
 11
2.59125
 21
-0.0
 31
0.0
 40
0.0740740741
 41
5.9398128887
 42
8.2205007769
  0
ELLIPSE
  5
529
100
AcDbEntity
  8
0
100
AcDbEllipse
 62
7
  6
CONTINUOUS
 10
125.2911494117
 20
73.8395980278
 30
0.0
 11
3.1297000267
 21
0.0449494414
 31
0.0
 40
0.0540788191
 41
6.5376558181
 42
9.6792484717
  0
ELLIPSE
  5
52A
100
AcDbEntity
  8
0
100
AcDbEllipse
 62
7
  6
CONTINUOUS
 10
124.6830243041
 20
73.7871966191
 30
0.0
 11
1.32
 21
0.0
 31
0.0
 40
0.0740740741
 41
1.9373154697
 42
3.5081117965
  0
ELLIPSE
  5
52B
100
AcDbEntity
  8
0
100
AcDbEllipse
 62
7
  6
CONTINUOUS
 10
126.2164301547
 20
73.8307980529
 30
0.0
 11
1.32
 21
0.0
 31
0.0
 40
0.0740740741
 41
0.3665191429
 42
1.9373154697
  0
ELLIPSE
  5
52C
100
AcDbEntity
  8
0
100
AcDbEllipse
 62
7
  6
CONTINUOUS
 10
125.2911494117
 20
73.3382281622
 30
0.0
 11
3.1297000267
 21
0.0449494414
 31
0.0
 40
0.0540788191
 41
3.140816054
 42
3.3960631645
  0
ELLIPSE
  5
52D
100
AcDbEntity
  8
0
100
AcDbEllipse
 62
7
  6
CONTINUOUS
 10
128.4093342468
 20
73.372753963
 30
0.0
 11
1.27125
 21
0.0
 31
0.0
 40
0.0740740741
 41
5.6398634114
 42
8.2205007769
  0
ENDSEC
  0
SECTION
  2
OBJECTS
  0
DICTIONARY
  5
C
100
AcDbDictionary
280
0
281
1
  3
ACAD_GROUP
350
D
  3
ACAD_MLINESTYLE
350
17
  3
ACAD_LAYOUT
350
1A
  3
ACAD_PLOTSETTINGS
350
19
  3
ACAD_PLOTSTYLENAME
350
E
  0
DICTIONARY
  5
D
102
{ACAD_REACTORS
330
C
102
}
100
AcDbDictionary
280
0
281
1
  0
ACDBDICTIONARYWDFLT
  5
E
102
{ACAD_REACTORS
330
C
102
}
100
AcDbDictionary
281
1
  3
Normal
350
F
100
AcDbDictionaryWithDefault
340
F
  0
DICTIONARY
  5
17
102
{ACAD_REACTORS
330
C
102
}
100
AcDbDictionary
280
0
281
1
  3
Standard
350
18
  0
DICTIONARY
  5
19
102
{ACAD_REACTORS
330
C
102
}
100
AcDbDictionary
281
1
  0
DICTIONARY
  5
1A
102
{ACAD_REACTORS
330
C
102
}
100
AcDbDictionary
281
1
  3
Model
350
52E
  3
Layout1
350
52F
  0
ACDBPLACEHOLDER
  5
F
102
{ACAD_REACTORS
330
E
102
}
  0
MLINESTYLE
  5
18
102
{ACAD_REACTORS
330
17
102
}
100
AcDbMlineStyle
  2
STANDARD
 70
0
  3

 62
256
 51
90.0
 52
90.0
 71
2
 49
0.5
 62
256
  6
BYLAYER
 49
-0.5
 62
256
  6
BYLAYER
  0
LAYOUT
  5
52E
102
{ACAD_REACTORS
330
1A
102
}
100
AcDbPlotSettings
  1

  2
none_device
  4
ISO_A3_(420.00_x_297.00_MM)
  6

 40
0.0
 41
0.0
 42
0.0
 43
0.0
 44
420.0
 45
297.0
 46
0.0
 47
0.0
 48
0.0
 49
0.0
140
0.0
141
0.0
142
1.0
143
1.0
 70
1024
 72
1
 73
0
 74
0
  7

 75
0
147
1.0
148
0.0
149
0.0
100
AcDbLayout
  1
Model
 70
0
 71
0
 10
0.0
 20
0.0
 11
420.0
 21
297.0
 12
0.0
 22
0.0
 32
0.0
 14
0.0
 24
0.0
 34
0.0
 15
0.0
 25
0.0
 35
0.0
146
0.0
 13
0.0
 23
0.0
 33
0.0
 16
1.0
 26
0.0
 36
0.0
 17
0.0
 27
1.0
 37
0.0
 76
0
330
20F
345
0
346
0
  0
LAYOUT
  5
52F
102
{ACAD_REACTORS
330
1A
102
}
100
AcDbPlotSettings
  1

  2
none_device
  4
ISO_A3_(420.00_x_297.00_MM)
  6

 40
0.0
 41
0.0
 42
0.0
 43
0.0
 44
420.0
 45
297.0
 46
0.0
 47
0.0
 48
0.0
 49
0.0
140
0.0
141
0.0
142
1.0
143
1.0
 70
0
 72
1
 73
0
 74
0
  7

 75
0
147
1.0
148
0.0
149
0.0
100
AcDbLayout
  1
Layout1
 70
0
 71
1
 10
0.0
 20
0.0
 11
420.0
 21
297.0
 12
0.0
 22
0.0
 32
0.0
 14
0.0
 24
0.0
 34
0.0
 15
0.0
 25
0.0
 35
0.0
146
0.0
 13
0.0
 23
0.0
 33
0.0
 16
1.0
 26
0.0
 36
0.0
 17
0.0
 27
1.0
 37
0.0
 76
0
330
210
345
0
346
0
  0
ENDSEC
  0
EOF
