999
DXF file: 001-m35812-p-1.dxf
999
Pro/ENGINEER 2011490 by Parametric Technology Corporation
  0
SECTION
  2
HEADER
  9
$ACADVER
  1
AC1015
  9
$DWGCODEPAGE
  3
ANSI_1252
  9
$EXTMAX
 10
420.0
 20
297.0
 30
0.0
  9
$EXTMIN
 10
0.0
 20
0.0
 30
0.0
  9
$LIMMIN
 10
0.0
 20
0.0
  9
$LIMMAX
 10
420.0
 20
297.0
  9
$VIEWCTR
 10
210.0
 20
148.5
  9
$VIEWSIZE
 40
297.0
  9
$CLAYER
  8
0
  9
$LTSCALE
 40
23.1
  9
$CELTYPE
  6
BYLAYER
  9
$DIMSCALE
 40
1.0
  9
$DIMASZ
 40
3.5
  9
$DIMEXO
 40
2.625
  9
$DIMDLI
 40
15.96
  9
$DIMEXE
 40
7.56
  9
$DIMCEN
 40
3.78
  9
$DIMLFAC
 40
1.0
  9
$DIMBLK
  1
_FILLED
  9
$DIMTXT
 40
3.5
  9
$DIMTOL
 70
1
  9
$DIMLIM
 70
0
  9
$DIMTFAC
 40
1.0
  9
$DIMTP
 40
0.005
  9
$DIMTM
 40
0.005
  9
$PDMODE
 70
3
  9
$PDSIZE
 40
0.3125
  9
$HANDSEED
  5
5DD
  9
$TILEMODE
 70
1
  9
$MEASUREMENT
 70
1
  9
$INSUNITS
 70
4
  0
ENDSEC
  0
SECTION
  2
CLASSES
  0
CLASS
  1
ACDBDICTIONARYWDFLT
  2
AcDbDictionaryWithDefault
  3
AutoCAD 2000
 90
0
280
0
281
0
  0
CLASS
  1
ACDBPLACEHOLDER
  2
AcDbPlaceHolder
  3
AutoCAD 2000
 90
0
280
0
281
0
  0
CLASS
  1
LAYOUT
  2
AcDbLayout
  3
AutoCAD 2000
 90
0
280
0
281
0
  0
ENDSEC
  0
SECTION
  2
TABLES
  0
TABLE
  2
VPORT
  5
8
100
AcDbSymbolTable
 70
2
  0
VPORT
  5
1F4
100
AcDbSymbolTableRecord
100
AcDbViewportTableRecord
  2
*ACTIVE
 70
0
 10
0.0
 20
0.0
 11
1.0
 21
1.0
 12
210.0
 22
148.5
 13
0.0
 23
0.0
 14
1.0
 24
1.0
 15
0.0
 25
0.0
 16
0.0
 26
0.0
 36
1.0
 17
0.0
 27
0.0
 37
0.0
 40
297.0
 41
1.4141414141
 42
50.0
 43
0.0
 44
0.0
 50
0.0
 51
0.0
 71
0
 72
100
 73
1
 74
1
 75
0
 76
0
 77
0
 78
0
  0
ENDTAB
  0
TABLE
  2
LTYPE
  5
5
100
AcDbSymbolTable
 70
6
  0
LTYPE
  5
14
100
AcDbSymbolTableRecord
100
AcDbLinetypeTableRecord
  2
BYBLOCK
 70
0
  3

 72
65
 73
0
 40
0.0
  0
LTYPE
  5
15
100
AcDbSymbolTableRecord
100
AcDbLinetypeTableRecord
  2
BYLAYER
 70
0
  3

 72
65
 73
0
 40
0.0
  0
LTYPE
  5
16
100
AcDbSymbolTableRecord
100
AcDbLinetypeTableRecord
  2
CONTINUOUS
 70
64
  3
Solid line
 72
65
 73
0
 40
0.0
  0
LTYPE
  5
1F5
100
AcDbSymbolTableRecord
100
AcDbLinetypeTableRecord
  2
CENTER
 70
64
  3
____ _ ____ _ ____ _ ____ _ ____ _ ____ _ ____
 72
65
 73
4
 40
0.6
 49
0.375
 74
0
 49
-0.075
 74
0
 49
0.075
 74
0
 49
-0.075
 74
0
  0
LTYPE
  5
1F6
100
AcDbSymbolTableRecord
100
AcDbLinetypeTableRecord
  2
HIDDEN
 70
64
  3
- - - - - - - - - - - - - - - - - - - -
 72
65
 73
2
 40
0.2
 49
0.1
 74
0
 49
-0.1
 74
0
  0
LTYPE
  5
1F7
100
AcDbSymbolTableRecord
100
AcDbLinetypeTableRecord
  2
PHANTOM
 70
64
  3
_____ _ _ _____ _ _ _____ _ _ _____
 72
65
 73
6
 40
0.8
 49
0.45
 74
0
 49
-0.05
 74
0
 49
0.1
 74
0
 49
-0.05
 74
0
 49
0.1
 74
0
 49
-0.05
 74
0
  0
LTYPE
  5
1F8
100
AcDbSymbolTableRecord
100
AcDbLinetypeTableRecord
  2
DOT
 70
64
  3
. . . . . . . . . . . . . . . . . . . .
 72
65
 73
2
 40
0.2
 49
0.1
 74
0
 49
-0.1
 74
0
  0
LTYPE
  5
1F9
100
AcDbSymbolTableRecord
100
AcDbLinetypeTableRecord
  2
DASHED
 70
64
  3
- - - - - - - - - - - - - - - - - - - -
 72
65
 73
2
 40
0.2
 49
0.1
 74
0
 49
-0.1
 74
0
  0
ENDTAB
  0
TABLE
  2
LAYER
  5
2
100
AcDbSymbolTable
 70
36
  0
LAYER
  5
10
100
AcDbSymbolTableRecord
100
AcDbLayerTableRecord
  2
0
 70
0
 62
7
  6
CONTINUOUS
370
-3
390
F
  0
LAYER
  5
1FA
100
AcDbSymbolTableRecord
100
AcDbLayerTableRecord
  2
DEFAULT_1
 70
0
 62
7
  6
CENTER
370
-3
390
F
  0
LAYER
  5
1FB
100
AcDbSymbolTableRecord
100
AcDbLayerTableRecord
  2
DEFAULT_2
 70
0
 62
8
  6
HIDDEN
370
-3
390
F
  0
LAYER
  5
1FC
100
AcDbSymbolTableRecord
100
AcDbLayerTableRecord
  2
DEFAULT_3
 70
0
 62
7
  6
PHANTOM
370
-3
390
F
  0
LAYER
  5
1FD
100
AcDbSymbolTableRecord
100
AcDbLayerTableRecord
  2
AUSFORMSCHRAEGEN
 70
0
 62
7
  6
CONTINUOUS
370
-3
390
F
  0
LAYER
  5
1FE
100
AcDbSymbolTableRecord
100
AcDbLayerTableRecord
  2
BEZUGSACHSEN
 70
0
 62
7
  6
CONTINUOUS
370
-3
390
F
  0
LAYER
  5
1FF
100
AcDbSymbolTableRecord
100
AcDbLayerTableRecord
  2
BEZUGSEBENEN
 70
0
 62
7
  6
CONTINUOUS
370
-3
390
F
  0
LAYER
  5
200
100
AcDbSymbolTableRecord
100
AcDbLayerTableRecord
  2
BG_STARTBEZUEGE
 70
0
 62
7
  6
CONTINUOUS
370
-3
390
F
  0
LAYER
  5
201
100
AcDbSymbolTableRecord
100
AcDbLayerTableRecord
  2
FASEN
 70
0
 62
7
  6
CONTINUOUS
370
-3
390
F
  0
LAYER
  5
202
100
AcDbSymbolTableRecord
100
AcDbLayerTableRecord
  2
GEWINDE
 70
0
 62
7
  6
CONTINUOUS
370
-3
390
F
  0
LAYER
  5
203
100
AcDbSymbolTableRecord
100
AcDbLayerTableRecord
  2
HILFEN
 70
0
 62
7
  6
CONTINUOUS
370
-3
390
F
  0
LAYER
  5
204
100
AcDbSymbolTableRecord
100
AcDbLayerTableRecord
  2
KONSTRUKTIONSELEMENTE
 70
0
 62
7
  6
CONTINUOUS
370
-3
390
F
  0
LAYER
  5
205
100
AcDbSymbolTableRecord
100
AcDbLayerTableRecord
  2
KURVEN
 70
0
 62
7
  6
CONTINUOUS
370
-3
390
F
  0
LAYER
  5
206
100
AcDbSymbolTableRecord
100
AcDbLayerTableRecord
  2
NORM
 70
0
 62
7
  6
CONTINUOUS
370
-3
390
F
  0
LAYER
  5
207
100
AcDbSymbolTableRecord
100
AcDbLayerTableRecord
  2
PLATZIERUNG
 70
0
 62
7
  6
CONTINUOUS
370
-3
390
F
  0
LAYER
  5
208
100
AcDbSymbolTableRecord
100
AcDbLayerTableRecord
  2
PLAZIERUNG
 70
0
 62
7
  6
CONTINUOUS
370
-3
390
F
  0
LAYER
  5
209
100
AcDbSymbolTableRecord
100
AcDbLayerTableRecord
  2
RUNDUNGEN
 70
0
 62
7
  6
CONTINUOUS
370
-3
390
F
  0
LAYER
  5
20A
100
AcDbSymbolTableRecord
100
AcDbLayerTableRecord
  2
TEIL_STARTBEZUEGE
 70
0
 62
7
  6
CONTINUOUS
370
-3
390
F
  0
LAYER
  5
20B
100
AcDbSymbolTableRecord
100
AcDbLayerTableRecord
  2
T_STARTBEZUEGE
 70
0
 62
7
  6
CONTINUOUS
370
-3
390
F
  0
LAYER
  5
20C
100
AcDbSymbolTableRecord
100
AcDbLayerTableRecord
  2
ZEICHNUNGSBEMASSUNGEN
 70
0
 62
7
  6
CONTINUOUS
370
-3
390
F
  0
ENDTAB
  0
TABLE
  2
STYLE
  5
3
100
AcDbSymbolTable
 70
1
  0
STYLE
  5
11
100
AcDbSymbolTableRecord
100
AcDbTextStyleTableRecord
  2
STANDARD
 70
0
 40
0.0
 41
0.7
 50
0.0
 71
0
 42
0.2
  3
txt
  4

  0
STYLE
  5
20D
100
AcDbSymbolTableRecord
100
AcDbTextStyleTableRecord
  2
TEXTSTYLE_1
 70
0
 40
0.0
 41
0.8
 50
0.0
 71
0
 42
0.2
  3
gdt
  4

  0
ENDTAB
  0
TABLE
  2
VIEW
  5
6
100
AcDbSymbolTable
 70
0
  0
ENDTAB
  0
TABLE
  2
UCS
  5
7
100
AcDbSymbolTable
 70
0
  0
ENDTAB
  0
TABLE
  2
APPID
  5
9
100
AcDbSymbolTable
 70
1
  0
APPID
  5
20E
100
AcDbSymbolTableRecord
100
AcDbRegAppTableRecord
  2
ACAD
 70
0
  0
ENDTAB
  0
TABLE
  2
BLOCK_RECORD
  5
1
100
AcDbSymbolTable
 70
0
  0
BLOCK_RECORD
  5
20F
100
AcDbSymbolTableRecord
100
AcDbBlockTableRecord
  2
*Model_Space
  0
BLOCK_RECORD
  5
210
100
AcDbSymbolTableRecord
100
AcDbBlockTableRecord
  2
*Paper_Space
  0
ENDTAB
  0
TABLE
  2
DIMSTYLE
  5
A
100
AcDbSymbolTable
 70
1
100
AcDbDimStyleTable
 71
0
  0
DIMSTYLE
105
211
100
AcDbSymbolTableRecord
100
AcDbDimStyleTableRecord
  2
STANDARD
 70
0
  3

  4

 40
1.0
 41
3.5
 42
0.0625
 43
0.38
 44
0.18
 45
0.0
 46
0.0
 47
0.005
 48
0.005
140
3.5
141
0.09
142
0.0
143
25.4
144
1.0
145
0.0
146
1.0
147
0.09
 71
1.0
 72
0.0
 73
0
 74
0
 75
0
 76
0
 77
1
 78
8
170
0
171
2
172
0
173
0
174
0
175
0
176
0
177
0
178
5
270
2
271
3
272
3
273
2
274
2
275
0
280
0
281
0
282
0
283
1
284
8
285
0
286
0
287
3
288
0
340
11
  0
ENDTAB
  0
ENDSEC
  0
SECTION
  2
BLOCKS
  0
BLOCK
  5
20
100
AcDbEntity
  8
0
100
AcDbBlockBegin
  2
*Model_Space
 70
0
 10
0.0
 20
0.0
 30
0.0
  3
*Model_Space
  1

  0
ENDBLK
  5
21
100
AcDbEntity
  8
0
100
AcDbBlockEnd
  0
BLOCK
  5
1C
100
AcDbEntity
  8
0
100
AcDbBlockBegin
  2
*Paper_Space
 70
0
 10
0.0
 20
0.0
 30
0.0
  3
*Paper_Space
  1

  0
ENDBLK
  5
1D
100
AcDbEntity
  8
0
100
AcDbBlockEnd
  0
ENDSEC
  0
SECTION
  2
ENTITIES
  0
MTEXT
  5
212
100
AcDbEntity
  8
0
100
AcDbMText
 62
5
  6
CONTINUOUS
  7
STANDARD
 71
1
 72
1
 10
250.2607327603
 20
165.1355827196
 30
0.0
 11
0.0
 21
1.0
 31
0.0
 44
0.9
  1
RUD ACP 2,5t M16
 40
4.0
 41
49.4285714286
  0
MTEXT
  5
213
100
AcDbEntity
  8
0
100
AcDbMText
 62
5
  6
CONTINUOUS
  7
STANDARD
 71
1
 72
1
 10
132.1514255544
 20
172.9109820486
 30
0.0
 11
1.0
 21
0.0
 31
0.0
 44
0.9
  1
RUD
 40
4.0
 41
10.6666666667
  0
MTEXT
  5
214
100
AcDbEntity
  8
0
100
AcDbMText
 62
5
  6
CONTINUOUS
  7
STANDARD
 71
1
 72
1
 10
113.3090813094
 20
46.0089229145
 30
0.0
 11
1.0
 21
0.0
 31
0.0
 44
0.9
  1
RUD ACP 2,5t M16
 40
4.0
 41
49.4285714286
  0
LINE
  5
215
100
AcDbEntity
  8
0
100
AcDbLine
 62
7
  6
CONTINUOUS
 10
0.0
 20
0.0
 11
0.0
 21
297.0
  0
LINE
  5
216
100
AcDbEntity
  8
0
100
AcDbLine
 62
7
  6
CONTINUOUS
 10
0.0
 20
0.0
 11
420.0
 21
0.0
  0
LINE
  5
217
100
AcDbEntity
  8
0
100
AcDbLine
 62
7
  6
CONTINUOUS
 10
0.0
 20
297.0
 11
420.0
 21
297.0
  0
LINE
  5
218
100
AcDbEntity
  8
0
100
AcDbLine
 62
7
  6
CONTINUOUS
 10
420.0
 20
0.0
 11
420.0
 21
297.0
  0
LINE
  5
219
100
AcDbEntity
  8
BEZUGSACHSEN
100
AcDbLine
 62
7
  6
CONTINUOUS
 10
130.3486193242
 20
124.4609274905
 11
143.9486193242
 21
124.4609274905
  0
LINE
  5
21A
100
AcDbEntity
  8
BEZUGSACHSEN
100
AcDbLine
 62
7
  6
CONTINUOUS
 10
129.1486193242
 20
125.6609274905
 11
145.1486193242
 21
125.6609274905
  0
LINE
  5
21B
100
AcDbEntity
  8
RUNDUNGEN
100
AcDbLine
 62
7
  6
CONTINUOUS
 10
116.01364378
 20
256.0292204977
 11
134.8640236458
 21
263.2652033749
  0
LINE
  5
21C
100
AcDbEntity
  8
BEZUGSACHSEN
100
AcDbLine
 62
7
  6
CONTINUOUS
 10
129.1486193242
 20
125.6609274905
 11
130.3486193242
 21
124.4609274905
  0
LINE
  5
21D
100
AcDbEntity
  8
0
100
AcDbLine
 62
7
  6
CONTINUOUS
 10
117.1486193242
 20
146.7109274905
 11
157.1486193242
 21
146.7109274905
  0
LINE
  5
21E
100
AcDbEntity
  8
RUNDUNGEN
100
AcDbLine
 62
7
  6
CONTINUOUS
 10
103.4513282213
 20
234.9810853724
 11
112.6180728666
 21
252.9718347146
  0
LINE
  5
21F
100
AcDbEntity
  8
RUNDUNGEN
100
AcDbLine
 62
7
  6
CONTINUOUS
 10
165.8248482018
 20
149.6421774905
 11
160.1486193242
 21
149.6421774905
  0
LINE
  5
220
100
AcDbEntity
  8
RUNDUNGEN
100
AcDbLine
 62
7
  6
CONTINUOUS
 10
114.1486193242
 20
149.6421774905
 11
108.4723904466
 21
149.6421774905
  0
LINE
  5
221
100
AcDbEntity
  8
0
100
AcDbLine
 62
7
  6
CONTINUOUS
 10
117.1486193242
 20
150.9609274905
 11
157.1486193242
 21
150.9609274905
  0
LINE
  5
222
100
AcDbEntity
  8
RUNDUNGEN
100
AcDbLine
 62
7
  6
CONTINUOUS
 10
116.8986193242
 20
151.7109274905
 11
157.3986193242
 21
151.7109274905
  0
LINE
  5
223
100
AcDbEntity
  8
RUNDUNGEN
100
AcDbLine
 62
7
  6
CONTINUOUS
 10
106.6313807396
 20
150.8607152335
 11
99.4433883855
 21
167.7945640266
  0
LINE
  5
224
100
AcDbEntity
  8
0
100
AcDbLine
 62
7
  6
CONTINUOUS
 10
110.4830540178
 20
163.2833800799
 11
111.941298731
 21
163.2833800799
  0
LINE
  5
225
100
AcDbEntity
  8
0
100
AcDbLine
 62
7
  6
CONTINUOUS
 10
111.941298731
 20
164.0387978651
 11
110.4820411475
 21
164.0387978651
  0
LINE
  5
226
100
AcDbEntity
  8
0
100
AcDbLine
 62
7
  6
CONTINUOUS
 10
109.6691036161
 20
188.4399756447
 11
109.7185282625
 21
187.8807399343
  0
LINE
  5
227
100
AcDbEntity
  8
0
100
AcDbLine
 62
7
  6
CONTINUOUS
 10
108.191298731
 20
161.1759114871
 11
108.191298731
 21
161.9313292723
  0
LINE
  5
228
100
AcDbEntity
  8
0
100
AcDbLine
 62
7
  6
CONTINUOUS
 10
108.191298731
 20
165.3954308874
 11
108.191298731
 21
166.1508486726
  0
LINE
  5
229
100
AcDbEntity
  8
RUNDUNGEN
100
AcDbLine
 62
7
  6
CONTINUOUS
 10
99.3899563765
 20
173.9172658019
 11
109.851236742
 21
199.8098433044
  0
LINE
  5
22A
100
AcDbEntity
  8
0
100
AcDbLine
 62
7
  6
CONTINUOUS
 10
110.97238112
 20
181.4422091868
 11
108.1979881868
 21
183.7764881817
  0
LINE
  5
22B
100
AcDbEntity
  8
0
100
AcDbLine
 62
7
  6
CONTINUOUS
 10
112.6320742692
 20
180.0975653814
 11
111.3990108024
 21
181.1350226993
  0
LINE
  5
22C
100
AcDbEntity
  8
0
100
AcDbLine
 62
7
  6
CONTINUOUS
 10
107.5372294059
 20
183.5041848153
 11
112.3511193242
 21
179.4021774905
  0
LINE
  5
22D
100
AcDbEntity
  8
0
100
AcDbLine
 62
7
  6
CONTINUOUS
 10
110.783803534
 20
187.4503407869
 11
110.5223631148
 21
187.8256030013
  0
LINE
  5
22E
100
AcDbEntity
  8
0
100
AcDbLine
 62
7
  6
CONTINUOUS
 10
109.7185282625
 20
187.8807399343
 11
110.0046804053
 21
187.2258593356
  0
LINE
  5
22F
100
AcDbEntity
  8
0
100
AcDbLine
 62
7
  6
CONTINUOUS
 10
110.5223631148
 20
187.8256030013
 11
110.4261128229
 21
188.2689411719
  0
LINE
  5
230
100
AcDbEntity
  8
0
100
AcDbLine
 62
7
  6
CONTINUOUS
 10
115.8851697174
 20
188.4900421893
 11
115.8357453079
 21
189.0492785754
  0
LINE
  5
231
100
AcDbEntity
  8
0
100
AcDbLine
 62
7
  6
CONTINUOUS
 10
111.941298731
 20
163.2833800799
 11
111.941298731
 21
164.0387978651
  0
LINE
  5
232
100
AcDbEntity
  8
0
100
AcDbLine
 62
7
  6
CONTINUOUS
 10
112.441298731
 20
161.1759114871
 11
112.441298731
 21
161.9313292723
  0
LINE
  5
233
100
AcDbEntity
  8
0
100
AcDbLine
 62
7
  6
CONTINUOUS
 10
112.441298731
 20
165.3954308874
 11
112.441298731
 21
166.1508486726
  0
LINE
  5
234
100
AcDbEntity
  8
0
100
AcDbLine
 62
7
  6
CONTINUOUS
 10
114.7965066643
 20
194.9966485414
 11
114.7743930739
 21
194.6011324833
  0
LINE
  5
235
100
AcDbEntity
  8
0
100
AcDbLine
 62
7
  6
CONTINUOUS
 10
110.4261128229
 20
188.2689411719
 11
110.4950523267
 21
188.7803554329
  0
LINE
  5
236
100
AcDbEntity
  8
0
100
AcDbLine
 62
7
  6
CONTINUOUS
 10
109.7848690334
 20
189.0672881085
 11
109.6691036161
 21
188.4399756447
  0
LINE
  5
237
100
AcDbEntity
  8
0
100
AcDbLine
 62
7
  6
CONTINUOUS
 10
112.3602894525
 20
195.4416773297
 11
111.2364694043
 21
192.6601251029
  0
LINE
  5
238
100
AcDbEntity
  8
0
100
AcDbLine
 62
7
  6
CONTINUOUS
 10
110.206301451
 20
190.1103699449
 11
109.7848690334
 21
189.0672881085
  0
LINE
  5
239
100
AcDbEntity
  8
0
100
AcDbLine
 62
7
  6
CONTINUOUS
 10
107.911835977
 20
184.4313686146
 11
107.5372294059
 21
183.5041848153
  0
LINE
  5
23A
100
AcDbEntity
  8
0
100
AcDbLine
 62
7
  6
CONTINUOUS
 10
112.1092440284
 20
193.1164030939
 11
112.9989345091
 21
195.3184643064
  0
LINE
  5
23B
100
AcDbEntity
  8
0
100
AcDbLine
 62
7
  6
CONTINUOUS
 10
110.4950523267
 20
188.7803554329
 11
110.9164847443
 21
189.8234372693
  0
LINE
  5
23C
100
AcDbEntity
  8
0
100
AcDbLine
 62
7
  6
CONTINUOUS
 10
112.0012748733
 20
190.4636880932
 11
112.2822298184
 21
191.1590759841
  0
LINE
  5
23D
100
AcDbEntity
  8
RUNDUNGEN
100
AcDbLine
 62
7
  6
CONTINUOUS
 10
114.1486193242
 20
170.6421774905
 11
113.9340809311
 21
170.6421774905
  0
LINE
  5
23E
100
AcDbEntity
  8
RUNDUNGEN
100
AcDbLine
 62
7
  6
CONTINUOUS
 10
156.3986193242
 20
175.2109274905
 11
148.2185960043
 21
175.2109274905
  0
LINE
  5
23F
100
AcDbEntity
  8
RUNDUNGEN
100
AcDbLine
 62
7
  6
CONTINUOUS
 10
126.718668977
 20
175.2109274905
 11
117.8986193242
 21
175.2109274905
  0
LINE
  5
240
100
AcDbEntity
  8
0
100
AcDbLine
 62
7
  6
CONTINUOUS
 10
114.5760947203
 20
175.2109274905
 11
117.8986193242
 21
175.2109274905
  0
LINE
  5
241
100
AcDbEntity
  8
0
100
AcDbLine
 62
7
  6
CONTINUOUS
 10
156.3986193242
 20
175.2109274905
 11
159.7211439281
 21
175.2109274905
  0
LINE
  5
242
100
AcDbEntity
  8
0
100
AcDbLine
 62
7
  6
CONTINUOUS
 10
110.3844843751
 20
186.8027751425
 11
110.9294782043
 21
186.4477662427
  0
LINE
  5
243
100
AcDbEntity
  8
0
100
AcDbLine
 62
7
  6
CONTINUOUS
 10
111.2104331494
 20
187.1431541336
 11
110.783803534
 21
187.4503407869
  0
LINE
  5
244
100
AcDbEntity
  8
0
100
AcDbLine
 62
7
  6
CONTINUOUS
 10
110.0046804053
 20
187.2258593356
 11
110.3844843751
 21
186.8027751425
  0
LINE
  5
245
100
AcDbEntity
  8
0
100
AcDbLine
 62
7
  6
CONTINUOUS
 10
115.8357453079
 20
189.0492785754
 11
115.5495928557
 21
189.7041585277
  0
LINE
  5
246
100
AcDbEntity
  8
0
100
AcDbLine
 62
7
  6
CONTINUOUS
 10
115.5535156031
 20
194.8256134055
 11
115.3857276104
 21
195.4326725548
  0
LINE
  5
247
100
AcDbEntity
  8
RUNDUNGEN
100
AcDbLine
 62
7
  6
CONTINUOUS
 10
110.0982168118
 20
203.8479317499
 11
102.9737176704
 21
230.436924524
  0
LINE
  5
248
100
AcDbEntity
  8
0
100
AcDbLine
 62
7
  6
CONTINUOUS
 10
115.0319100633
 20
189.1044148955
 11
115.1281604381
 21
188.6610766913
  0
LINE
  5
249
100
AcDbEntity
  8
RUNDUNGEN
100
AcDbLine
 62
7
  6
CONTINUOUS
 10
116.1486193242
 20
174.6432510619
 11
116.1486193242
 21
164.5171774905
  0
LINE
  5
24A
100
AcDbEntity
  8
RUNDUNGEN
100
AcDbLine
 62
7
  6
CONTINUOUS
 10
116.1486193242
 20
154.7671774227
 11
116.1486193242
 21
151.6421774905
  0
LINE
  5
24B
100
AcDbEntity
  8
RUNDUNGEN
100
AcDbLine
 62
7
  6
CONTINUOUS
 10
116.8986193242
 20
174.2109274905
 11
116.8986193242
 21
151.7109274905
  0
LINE
  5
24C
100
AcDbEntity
  8
0
100
AcDbLine
 62
7
  6
CONTINUOUS
 10
117.1486193242
 20
150.9609274905
 11
117.1486193242
 21
146.7109274905
  0
LINE
  5
24D
100
AcDbEntity
  8
0
100
AcDbLine
 62
7
  6
CONTINUOUS
 10
119.1486193242
 20
182.4609274905
 11
119.1486193242
 21
177.4609274905
  0
LINE
  5
24E
100
AcDbEntity
  8
0
100
AcDbLine
 62
7
  6
CONTINUOUS
 10
120.6259027447
 20
177.0109274905
 11
120.6259027447
 21
175.2109274905
  0
LINE
  5
24F
100
AcDbEntity
  8
0
100
AcDbLine
 62
7
  6
CONTINUOUS
 10
115.1281604381
 20
188.6610766913
 11
115.0592212022
 21
188.1496630936
  0
LINE
  5
250
100
AcDbEntity
  8
0
100
AcDbLine
 62
7
  6
CONTINUOUS
 10
115.4377507217
 20
194.198302268
 11
115.5535156031
 21
194.8256134055
  0
LINE
  5
251
100
AcDbEntity
  8
0
100
AcDbLine
 62
7
  6
CONTINUOUS
 10
115.7694045784
 20
187.8627303844
 11
115.8851697174
 21
188.4900421893
  0
LINE
  5
252
100
AcDbEntity
  8
0
100
AcDbLine
 62
7
  6
CONTINUOUS
 10
113.8847025932
 20
192.3990712708
 11
114.7743930739
 21
194.6011324833
  0
LINE
  5
253
100
AcDbEntity
  8
0
100
AcDbLine
 62
7
  6
CONTINUOUS
 10
114.5948858865
 20
192.1121385952
 11
115.4377507217
 21
194.198302268
  0
LINE
  5
254
100
AcDbEntity
  8
0
100
AcDbLine
 62
7
  6
CONTINUOUS
 10
111.8152459887
 20
183.5283729425
 11
110.97238112
 21
181.4422091868
  0
LINE
  5
255
100
AcDbEntity
  8
0
100
AcDbLine
 62
7
  6
CONTINUOUS
 10
115.0045992752
 20
190.0591673271
 11
114.7236443301
 21
189.3637794362
  0
LINE
  5
256
100
AcDbEntity
  8
0
100
AcDbLine
 62
7
  6
CONTINUOUS
 10
111.3990108024
 20
181.1350226993
 11
112.3355272971
 21
183.4529823634
  0
LINE
  5
257
100
AcDbEntity
  8
0
100
AcDbLine
 62
7
  6
CONTINUOUS
 10
115.0592212022
 20
188.1496630936
 11
114.6377887846
 21
187.1065812572
  0
LINE
  5
258
100
AcDbEntity
  8
0
100
AcDbLine
 62
7
  6
CONTINUOUS
 10
112.3511193242
 20
179.4021774905
 11
112.6320742692
 21
180.0975653814
  0
LINE
  5
259
100
AcDbEntity
  8
0
100
AcDbLine
 62
7
  6
CONTINUOUS
 10
113.9431973015
 20
183.3427087618
 11
114.2241522466
 21
184.0380966528
  0
LINE
  5
25A
100
AcDbEntity
  8
0
100
AcDbLine
 62
7
  6
CONTINUOUS
 10
115.3479721608
 20
186.819648548
 11
115.7694045784
 21
187.8627303844
  0
LINE
  5
25B
100
AcDbEntity
  8
0
100
AcDbLine
 62
7
  6
CONTINUOUS
 10
116.7995725317
 20
190.4124855424
 11
117.0805277447
 21
191.1078740965
  0
LINE
  5
25C
100
AcDbEntity
  8
0
100
AcDbLine
 62
7
  6
CONTINUOUS
 10
112.7127820983
 20
195.973344242
 11
112.3602894525
 21
195.4416773297
  0
LINE
  5
25D
100
AcDbEntity
  8
0
100
AcDbLine
 62
7
  6
CONTINUOUS
 10
110.5587943648
 20
190.6420375204
 11
110.206301451
 21
190.1103699449
  0
LINE
  5
25E
100
AcDbEntity
  8
0
100
AcDbLine
 62
7
  6
CONTINUOUS
 10
110.9164847443
 20
189.8234372693
 11
111.2221517446
 21
190.2392066418
  0
LINE
  5
25F
100
AcDbEntity
  8
0
100
AcDbLine
 62
7
  6
CONTINUOUS
 10
112.9989345091
 20
195.3184643064
 11
113.2577758638
 21
195.6183361393
  0
LINE
  5
260
100
AcDbEntity
  8
RUNDUNGEN
100
AcDbLine
 62
7
  6
CONTINUOUS
 10
150.1486193242
 20
176.9609274905
 11
150.0959364303
 21
176.9609274905
  0
LINE
  5
261
100
AcDbEntity
  8
0
100
AcDbLine
 62
7
  6
CONTINUOUS
 10
150.0959364303
 20
176.9609274905
 11
148.8986193242
 21
176.9609274905
  0
LINE
  5
262
100
AcDbEntity
  8
RUNDUNGEN
100
AcDbLine
 62
7
  6
CONTINUOUS
 10
147.2186193242
 20
176.9609274905
 11
127.7186193242
 21
176.9609274905
  0
LINE
  5
263
100
AcDbEntity
  8
0
100
AcDbLine
 62
7
  6
CONTINUOUS
 10
124.2252323642
 20
176.9609274905
 11
125.3986193242
 21
176.9609274905
  0
LINE
  5
264
100
AcDbEntity
  8
RUNDUNGEN
100
AcDbLine
 62
7
  6
CONTINUOUS
 10
124.1486193242
 20
176.9609274905
 11
125.3986193242
 21
176.9609274905
  0
LINE
  5
265
100
AcDbEntity
  8
0
100
AcDbLine
 62
7
  6
CONTINUOUS
 10
114.5760947203
 20
177.0109274905
 11
125.3986193242
 21
177.0109274905
  0
LINE
  5
266
100
AcDbEntity
  8
0
100
AcDbLine
 62
7
  6
CONTINUOUS
 10
148.8986193242
 20
177.0109274905
 11
159.7211439281
 21
177.0109274905
  0
LINE
  5
267
100
AcDbEntity
  8
0
100
AcDbLine
 62
7
  6
CONTINUOUS
 10
119.1486193242
 20
177.4609274905
 11
155.1486193242
 21
177.4609274905
  0
LINE
  5
268
100
AcDbEntity
  8
RUNDUNGEN
100
AcDbLine
 62
7
  6
CONTINUOUS
 10
158.479236963
 20
178.6421774905
 11
160.1781062281
 21
178.6421774905
  0
LINE
  5
269
100
AcDbEntity
  8
0
100
AcDbLine
 62
7
  6
CONTINUOUS
 10
111.0891122042
 20
180.4775578041
 11
112.1804366297
 21
180.4775578041
  0
LINE
  5
26A
100
AcDbEntity
  8
0
100
AcDbLine
 62
7
  6
CONTINUOUS
 10
162.0043484917
 20
180.4775578041
 11
162.5205053091
 21
180.4775578041
  0
LINE
  5
26B
100
AcDbEntity
  8
0
100
AcDbLine
 62
7
  6
CONTINUOUS
 10
110.9294782043
 20
186.4477662427
 11
112.7049366034
 21
185.7304344866
  0
LINE
  5
26C
100
AcDbEntity
  8
0
100
AcDbLine
 62
7
  6
CONTINUOUS
 10
112.9858915484
 20
186.4258223775
 11
111.2104331494
 21
187.1431541336
  0
LINE
  5
26D
100
AcDbEntity
  8
0
100
AcDbLine
 62
7
  6
CONTINUOUS
 10
115.5495928557
 20
189.7041585277
 11
115.0045992752
 21
190.0591673271
  0
LINE
  5
26E
100
AcDbEntity
  8
0
100
AcDbLine
 62
7
  6
CONTINUOUS
 10
114.7236443301
 20
189.3637794362
 11
115.0319100633
 21
189.1044148955
  0
LINE
  5
26F
100
AcDbEntity
  8
0
100
AcDbLine
 62
7
  6
CONTINUOUS
 10
115.3857276104
 20
195.4326725548
 11
115.0527495541
 21
195.9716549507
  0
LINE
  5
270
100
AcDbEntity
  8
0
100
AcDbLine
 62
7
  6
CONTINUOUS
 10
114.6534307268
 20
195.3240891724
 11
114.7965066643
 21
194.9966485414
  0
LINE
  5
271
100
AcDbEntity
  8
0
100
AcDbLine
 62
7
  6
CONTINUOUS
 10
121.9713359037
 20
175.2109274905
 11
121.9713359037
 21
177.0109274905
  0
LINE
  5
272
100
AcDbEntity
  8
BEZUGSACHSEN
100
AcDbLine
 62
7
  6
CONTINUOUS
 10
123.2922128636
 20
182.9609274905
 11
123.2922128636
 21
191.3891307207
  0
LINE
  5
273
100
AcDbEntity
  8
RUNDUNGEN
100
AcDbLine
 62
7
  6
CONTINUOUS
 10
123.6486193242
 20
175.7109274905
 11
123.6486193242
 21
176.4609274905
  0
LINE
  5
274
100
AcDbEntity
  8
0
100
AcDbLine
 62
7
  6
CONTINUOUS
 10
125.3138395275
 20
175.7109274905
 11
125.3138395275
 21
176.4609274905
  0
LINE
  5
275
100
AcDbEntity
  8
0
100
AcDbLine
 62
7
  6
CONTINUOUS
 10
125.3986193242
 20
177.4609274905
 11
125.3986193242
 21
175.2109274905
  0
LINE
  5
276
100
AcDbEntity
  8
0
100
AcDbLine
 62
7
  6
CONTINUOUS
 10
125.3986193242
 20
151.7109274905
 11
125.3986193242
 21
150.9609274905
  0
LINE
  5
277
100
AcDbEntity
  8
KONSTRUKTIONSELEMENTE
100
AcDbLine
 62
7
  6
CONTINUOUS
 10
126.1486193242
 20
182.4609274905
 11
126.1486193242
 21
182.9609274905
  0
LINE
  5
278
100
AcDbEntity
  8
BEZUGSACHSEN
100
AcDbLine
 62
7
  6
CONTINUOUS
 10
126.1486193242
 20
182.4609274905
 11
126.1486193242
 21
182.9609274905
  0
LINE
  5
279
100
AcDbEntity
  8
RUNDUNGEN
100
AcDbLine
 62
7
  6
CONTINUOUS
 10
120.793648008
 20
189.6390269196
 11
117.4593108736
 21
181.3862529134
  0
LINE
  5
27A
100
AcDbEntity
  8
0
100
AcDbLine
 62
7
  6
CONTINUOUS
 10
114.9954789687
 20
186.2879803136
 11
115.3479721608
 21
186.819648548
  0
LINE
  5
27B
100
AcDbEntity
  8
0
100
AcDbLine
 62
7
  6
CONTINUOUS
 10
114.6377887846
 20
187.1065812572
 11
114.3321215164
 21
186.6908112214
  0
LINE
  5
27C
100
AcDbEntity
  8
0
100
AcDbLine
 62
7
  6
CONTINUOUS
 10
110.9828255152
 20
191.0099854435
 11
110.5587943648
 21
190.6420375204
  0
LINE
  5
27D
100
AcDbEntity
  8
0
100
AcDbLine
 62
7
  6
CONTINUOUS
 10
113.2551773989
 20
196.2934707157
 11
112.7127820983
 21
195.973344242
  0
LINE
  5
27E
100
AcDbEntity
  8
0
100
AcDbLine
 62
7
  6
CONTINUOUS
 10
162.069841403
 20
184.9872766217
 11
161.6679238428
 21
184.9597084868
  0
LINE
  5
27F
100
AcDbEntity
  8
0
100
AcDbLine
 62
7
  6
CONTINUOUS
 10
161.5001352313
 20
184.3526506303
 11
162.1856065523
 21
184.3599648211
  0
LINE
  5
280
100
AcDbEntity
  8
0
100
AcDbLine
 62
7
  6
CONTINUOUS
 10
119.1486193242
 20
182.4609274905
 11
155.1486193242
 21
182.4609274905
  0
LINE
  5
281
100
AcDbEntity
  8
KONSTRUKTIONSELEMENTE
100
AcDbLine
 62
7
  6
CONTINUOUS
 10
123.2922128636
 20
182.9609274905
 11
151.0050257847
 21
182.9609274905
  0
LINE
  5
282
100
AcDbEntity
  8
0
100
AcDbLine
 62
7
  6
CONTINUOUS
 10
114.2241522466
 20
184.0380966528
 11
107.911835977
 21
184.4313686146
  0
LINE
  5
283
100
AcDbEntity
  8
0
100
AcDbLine
 62
7
  6
CONTINUOUS
 10
112.3355272971
 20
183.4529823634
 11
113.9431973015
 21
183.3427087618
  0
LINE
  5
284
100
AcDbEntity
  8
0
100
AcDbLine
 62
7
  6
CONTINUOUS
 10
108.1979881868
 20
183.7764881817
 11
111.8152459887
 21
183.5283729425
  0
LINE
  5
285
100
AcDbEntity
  8
0
100
AcDbLine
 62
7
  6
CONTINUOUS
 10
113.5061729908
 20
186.3504321299
 11
112.9858915484
 21
186.4258223775
  0
LINE
  5
286
100
AcDbEntity
  8
0
100
AcDbLine
 62
7
  6
CONTINUOUS
 10
112.7049366034
 20
185.7304344866
 11
113.343581928
 21
185.6072221264
  0
LINE
  5
287
100
AcDbEntity
  8
0
100
AcDbLine
 62
7
  6
CONTINUOUS
 10
111.2364694043
 20
192.6601251029
 11
116.7995725317
 21
190.4124855424
  0
LINE
  5
288
100
AcDbEntity
  8
0
100
AcDbLine
 62
7
  6
CONTINUOUS
 10
117.0805277447
 20
191.1078740965
 11
114.5948858865
 21
192.1121385952
  0
LINE
  5
289
100
AcDbEntity
  8
0
100
AcDbLine
 62
7
  6
CONTINUOUS
 10
113.8847025932
 20
192.3990712708
 11
112.1092440284
 21
193.1164030939
  0
LINE
  5
28A
100
AcDbEntity
  8
0
100
AcDbLine
 62
7
  6
CONTINUOUS
 10
114.3451647257
 20
195.5834530499
 11
114.6534307268
 21
195.3240891724
  0
LINE
  5
28B
100
AcDbEntity
  8
0
100
AcDbLine
 62
7
  6
CONTINUOUS
 10
115.0527495541
 20
195.9716549507
 11
114.744483553
 21
196.2310188282
  0
LINE
  5
28C
100
AcDbEntity
  8
RUNDUNGEN
100
AcDbLine
 62
7
  6
CONTINUOUS
 10
127.2186193242
 20
175.7109376019
 11
127.2186193242
 21
176.4609274905
  0
LINE
  5
28D
100
AcDbEntity
  8
BEZUGSACHSEN
100
AcDbLine
 62
7
  6
CONTINUOUS
 10
129.1486193242
 20
146.7109274905
 11
129.1486193242
 21
125.6609274905
  0
LINE
  5
28E
100
AcDbEntity
  8
BEZUGSACHSEN
100
AcDbLine
 62
7
  6
CONTINUOUS
 10
130.2204160939
 20
182.9609274905
 11
130.2204160939
 21
191.3891307207
  0
LINE
  5
28F
100
AcDbEntity
  8
0
100
AcDbLine
 62
7
  6
CONTINUOUS
 10
114.5714480551
 20
185.9200330662
 11
114.9954789687
 21
186.2879803136
  0
LINE
  5
290
100
AcDbEntity
  8
0
100
AcDbLine
 62
7
  6
CONTINUOUS
 10
111.2221517446
 20
190.2392066418
 11
111.5993569816
 21
190.4912563621
  0
LINE
  5
291
100
AcDbEntity
  8
0
100
AcDbLine
 62
7
  6
CONTINUOUS
 10
113.2577758638
 20
195.6183361393
 11
113.5881554553
 21
195.7544883198
  0
LINE
  5
292
100
AcDbEntity
  8
0
100
AcDbLine
 62
7
  6
CONTINUOUS
 10
111.6435841622
 20
191.2822884782
 11
110.9828255152
 21
191.0099854435
  0
LINE
  5
293
100
AcDbEntity
  8
0
100
AcDbLine
 62
7
  6
CONTINUOUS
 10
113.9549161965
 20
186.4387615347
 11
113.5061729908
 21
186.3504321299
  0
LINE
  5
294
100
AcDbEntity
  8
0
100
AcDbLine
 62
7
  6
CONTINUOUS
 10
161.2009400131
 20
192.5904115284
 11
161.7212213215
 21
192.6658021075
  0
LINE
  5
295
100
AcDbEntity
  8
0
100
AcDbLine
 62
7
  6
CONTINUOUS
 10
113.343581928
 20
185.6072221264
 11
113.9106890988
 21
185.6477293851
  0
LINE
  5
296
100
AcDbEntity
  8
0
100
AcDbLine
 62
7
  6
CONTINUOUS
 10
111.5993569816
 20
190.4912563621
 11
112.0012748733
 21
190.4636880932
  0
LINE
  5
297
100
AcDbEntity
  8
0
100
AcDbLine
 62
7
  6
CONTINUOUS
 10
157.5954014219
 20
189.246243451
 11
159.1783592372
 21
189.0768988658
  0
LINE
  5
298
100
AcDbEntity
  8
0
100
AcDbLine
 62
7
  6
CONTINUOUS
 10
112.2822298184
 20
191.1590759841
 11
111.6435841622
 21
191.2822884782
  0
LINE
  5
299
100
AcDbEntity
  8
0
100
AcDbLine
 62
7
  6
CONTINUOUS
 10
161.6679238428
 20
184.9597084868
 11
161.2191805542
 21
185.048037858
  0
LINE
  5
29A
100
AcDbEntity
  8
0
100
AcDbLine
 62
7
  6
CONTINUOUS
 10
160.8862024564
 20
184.5090554454
 11
161.5001352313
 21
184.3526506303
  0
LINE
  5
29B
100
AcDbEntity
  8
0
100
AcDbLine
 62
7
  6
CONTINUOUS
 10
113.9900727475
 20
195.7269195217
 11
114.3451647257
 21
195.5834530499
  0
LINE
  5
29C
100
AcDbEntity
  8
0
100
AcDbLine
 62
7
  6
CONTINUOUS
 10
114.744483553
 20
196.2310188282
 11
114.2710276925
 21
196.4223074126
  0
LINE
  5
29D
100
AcDbEntity
  8
0
100
AcDbLine
 62
7
  6
CONTINUOUS
 10
137.1542023832
 20
192.4609274905
 11
137.1542023832
 21
192.6609274905
  0
LINE
  5
29E
100
AcDbEntity
  8
0
100
AcDbLine
 62
7
  6
CONTINUOUS
 10
137.4640570284
 20
192.4609274905
 11
137.4640570284
 21
192.6609274905
  0
LINE
  5
29F
100
AcDbEntity
  8
0
100
AcDbLine
 62
7
  6
CONTINUOUS
 10
137.6090918755
 20
192.4609274905
 11
137.6090918755
 21
192.6609274905
  0
LINE
  5
2A0
100
AcDbEntity
  8
0
100
AcDbLine
 62
7
  6
CONTINUOUS
 10
114.3321215164
 20
186.6908112214
 11
113.9549161965
 21
186.4387615347
  0
LINE
  5
2A1
100
AcDbEntity
  8
BEZUGSACHSEN
100
AcDbLine
 62
7
  6
CONTINUOUS
 10
123.2922128636
 20
191.3891307207
 11
125.1486193242
 21
192.4609274905
  0
LINE
  5
2A2
100
AcDbEntity
  8
0
100
AcDbLine
 62
7
  6
CONTINUOUS
 10
160.8393269272
 20
196.8932662921
 11
160.3190455727
 21
196.817875827
  0
LINE
  5
2A3
100
AcDbEntity
  8
BEZUGSACHSEN
100
AcDbLine
 62
7
  6
CONTINUOUS
 10
125.1491568884
 20
192.4609274905
 11
149.1480817597
 21
192.4609274905
  0
LINE
  5
2A4
100
AcDbEntity
  8
0
100
AcDbLine
 62
7
  6
CONTINUOUS
 10
161.6873300056
 20
192.6608911374
 11
160.8428810349
 21
192.6608911374
  0
LINE
  5
2A5
100
AcDbEntity
  8
0
100
AcDbLine
 62
7
  6
CONTINUOUS
 10
157.7303323662
 20
192.6608911374
 11
157.0419059204
 21
192.6608911374
  0
LINE
  5
2A6
100
AcDbEntity
  8
0
100
AcDbLine
 62
7
  6
CONTINUOUS
 10
114.8165963051
 20
192.6608911374
 11
113.9904846858
 21
192.6608911374
  0
LINE
  5
2A7
100
AcDbEntity
  8
0
100
AcDbLine
 62
7
  6
CONTINUOUS
 10
113.2366756834
 20
192.6608911374
 11
111.2367789023
 21
192.6608911374
  0
LINE
  5
2A8
100
AcDbEntity
  8
0
100
AcDbLine
 62
7
  6
CONTINUOUS
 10
137.1542023832
 20
192.6609274905
 11
139.3136038181
 21
192.6609274905
  0
LINE
  5
2A9
100
AcDbEntity
  8
0
100
AcDbLine
 62
7
  6
CONTINUOUS
 10
139.8269234165
 20
192.6609274905
 11
141.5862903761
 21
192.6609274905
  0
LINE
  5
2AA
100
AcDbEntity
  8
0
100
AcDbLine
 62
7
  6
CONTINUOUS
 10
141.5909312515
 20
192.6609274905
 11
147.3253078815
 21
192.6609274905
  0
LINE
  5
2AB
100
AcDbEntity
  8
RUNDUNGEN
100
AcDbLine
 62
7
  6
CONTINUOUS
 10
146.0861184631
 20
194.6421774905
 11
128.2111201852
 21
194.6421774905
  0
LINE
  5
2AC
100
AcDbEntity
  8
0
100
AcDbLine
 62
7
  6
CONTINUOUS
 10
113.5881554553
 20
195.7544883198
 11
113.9900727475
 21
195.7269195217
  0
LINE
  5
2AD
100
AcDbEntity
  8
0
100
AcDbLine
 62
7
  6
CONTINUOUS
 10
114.2710276925
 20
196.4223074126
 11
113.8691104003
 21
196.4498762107
  0
LINE
  5
2AE
100
AcDbEntity
  8
0
100
AcDbLine
 62
7
  6
CONTINUOUS
 10
161.4402663765
 20
193.3611899985
 11
160.8731591546
 21
193.4016976222
  0
LINE
  5
2AF
100
AcDbEntity
  8
0
100
AcDbLine
 62
7
  6
CONTINUOUS
 10
158.9442299377
 20
189.656389217
 11
157.3612722564
 21
189.8257334707
  0
LINE
  5
2B0
100
AcDbEntity
  8
0
100
AcDbLine
 62
7
  6
CONTINUOUS
 10
138.4870133456
 20
192.4609274905
 11
138.4870133456
 21
192.6609274905
  0
LINE
  5
2B1
100
AcDbEntity
  8
0
100
AcDbLine
 62
7
  6
CONTINUOUS
 10
138.7551180008
 20
192.4609274905
 11
138.7551180008
 21
192.6609274905
  0
LINE
  5
2B2
100
AcDbEntity
  8
0
100
AcDbLine
 62
7
  6
CONTINUOUS
 10
139.1166151854
 20
192.4609274905
 11
139.1166151854
 21
192.6609274905
  0
LINE
  5
2B3
100
AcDbEntity
  8
0
100
AcDbLine
 62
7
  6
CONTINUOUS
 10
139.2136164645
 20
192.4609274905
 11
139.2136164645
 21
192.6609274905
  0
LINE
  5
2B4
100
AcDbEntity
  8
0
100
AcDbLine
 62
7
  6
CONTINUOUS
 10
139.2859781172
 20
192.4609274905
 11
139.2859781172
 21
192.6609274905
  0
LINE
  5
2B5
100
AcDbEntity
  8
0
100
AcDbLine
 62
7
  6
CONTINUOUS
 10
139.3136038181
 20
192.4609274905
 11
139.3136038181
 21
192.6609274905
  0
LINE
  5
2B6
100
AcDbEntity
  8
0
100
AcDbLine
 62
7
  6
CONTINUOUS
 10
139.8229713864
 20
192.4609274905
 11
139.8229713864
 21
192.6609274905
  0
LINE
  5
2B7
100
AcDbEntity
  8
0
100
AcDbLine
 62
7
  6
CONTINUOUS
 10
139.8269234165
 20
192.4609274905
 11
139.8269234165
 21
192.6609274905
  0
LINE
  5
2B8
100
AcDbEntity
  8
0
100
AcDbLine
 62
7
  6
CONTINUOUS
 10
139.9251823734
 20
192.4609274905
 11
139.9251823734
 21
192.6609274905
  0
LINE
  5
2B9
100
AcDbEntity
  8
0
100
AcDbLine
 62
7
  6
CONTINUOUS
 10
140.0686191736
 20
192.4609274905
 11
140.0686191736
 21
192.6609274905
  0
LINE
  5
2BA
100
AcDbEntity
  8
0
100
AcDbLine
 62
7
  6
CONTINUOUS
 10
140.2817981554
 20
192.4609274905
 11
140.2817981554
 21
192.6609274905
  0
LINE
  5
2BB
100
AcDbEntity
  8
0
100
AcDbLine
 62
7
  6
CONTINUOUS
 10
140.4704125329
 20
192.4609274905
 11
140.4704125329
 21
192.6609274905
  0
LINE
  5
2BC
100
AcDbEntity
  8
0
100
AcDbLine
 62
7
  6
CONTINUOUS
 10
140.7287690901
 20
192.4609274905
 11
140.7287690901
 21
192.6609274905
  0
LINE
  5
2BD
100
AcDbEntity
  8
0
100
AcDbLine
 62
7
  6
CONTINUOUS
 10
140.962561045
 20
192.4609274905
 11
140.962561045
 21
192.6609274905
  0
LINE
  5
2BE
100
AcDbEntity
  8
0
100
AcDbLine
 62
7
  6
CONTINUOUS
 10
141.2415305732
 20
192.4609274905
 11
141.2415305732
 21
192.6609274905
  0
LINE
  5
2BF
100
AcDbEntity
  8
0
100
AcDbLine
 62
7
  6
CONTINUOUS
 10
141.4261927857
 20
192.4609274905
 11
141.4261927857
 21
192.6609274905
  0
LINE
  5
2C0
100
AcDbEntity
  8
0
100
AcDbLine
 62
7
  6
CONTINUOUS
 10
141.5909312515
 20
192.4609274905
 11
141.5909312515
 21
192.6609274905
  0
LINE
  5
2C1
100
AcDbEntity
  8
0
100
AcDbLine
 62
7
  6
CONTINUOUS
 10
142.5022656988
 20
192.4609274905
 11
142.5022656988
 21
192.6609274905
  0
LINE
  5
2C2
100
AcDbEntity
  8
0
100
AcDbLine
 62
7
  6
CONTINUOUS
 10
142.7285336612
 20
192.4609274905
 11
142.7285336612
 21
192.6609274905
  0
LINE
  5
2C3
100
AcDbEntity
  8
0
100
AcDbLine
 62
7
  6
CONTINUOUS
 10
142.9532355429
 20
192.4609274905
 11
142.9532355429
 21
192.6609274905
  0
LINE
  5
2C4
100
AcDbEntity
  8
0
100
AcDbLine
 62
7
  6
CONTINUOUS
 10
143.2507503702
 20
192.4609274905
 11
143.2507503702
 21
192.6609274905
  0
LINE
  5
2C5
100
AcDbEntity
  8
0
100
AcDbLine
 62
7
  6
CONTINUOUS
 10
113.9106890988
 20
185.6477293851
 11
114.5714480551
 21
185.9200330662
  0
LINE
  5
2C6
100
AcDbEntity
  8
0
100
AcDbLine
 62
7
  6
CONTINUOUS
 10
113.8691104003
 20
196.4498762107
 11
113.2551773989
 21
196.2934707157
  0
LINE
  5
2C7
100
AcDbEntity
  8
0
100
AcDbLine
 62
7
  6
CONTINUOUS
 10
160.7521966735
 20
192.6787412647
 11
161.2009400131
 21
192.5904115284
  0
LINE
  5
2C8
100
AcDbEntity
  8
0
100
AcDbLine
 62
7
  6
CONTINUOUS
 10
160.5531746922
 20
196.2383859213
 11
161.0019179984
 21
196.1500562679
  0
LINE
  5
2C9
100
AcDbEntity
  8
BEZUGSACHSEN
100
AcDbLine
 62
7
  6
CONTINUOUS
 10
151.0050257847
 20
191.3891307207
 11
149.1486193242
 21
192.4609274905
  0
LINE
  5
2CA
100
AcDbEntity
  8
0
100
AcDbLine
 62
7
  6
CONTINUOUS
 10
161.774568964
 20
188.1035830407
 11
162.3169637288
 21
187.7834578933
  0
LINE
  5
2CB
100
AcDbEntity
  8
0
100
AcDbLine
 62
7
  6
CONTINUOUS
 10
161.2191805542
 20
185.048037858
 11
160.8419753173
 21
185.3000875783
  0
LINE
  5
2CC
100
AcDbEntity
  8
0
100
AcDbLine
 62
7
  6
CONTINUOUS
 10
160.2969814792
 20
184.9450794462
 11
160.8862024564
 21
184.5090554454
  0
LINE
  5
2CD
100
AcDbEntity
  8
0
100
AcDbLine
 62
7
  6
CONTINUOUS
 10
143.4723209627
 20
192.4609274905
 11
143.4723209627
 21
192.6609274905
  0
LINE
  5
2CE
100
AcDbEntity
  8
0
100
AcDbLine
 62
7
  6
CONTINUOUS
 10
143.6923254426
 20
192.4609274905
 11
143.6923254426
 21
192.6609274905
  0
LINE
  5
2CF
100
AcDbEntity
  8
BEZUGSACHSEN
100
AcDbLine
 62
7
  6
CONTINUOUS
 10
144.0768225544
 20
182.9609274905
 11
144.0768225544
 21
191.3891307207
  0
LINE
  5
2D0
100
AcDbEntity
  8
0
100
AcDbLine
 62
7
  6
CONTINUOUS
 10
144.2007716246
 20
192.4609274905
 11
144.2007716246
 21
192.6609274905
  0
LINE
  5
2D1
100
AcDbEntity
  8
0
100
AcDbLine
 62
7
  6
CONTINUOUS
 10
144.2619549595
 20
192.4609274905
 11
144.2619549595
 21
192.6609274905
  0
LINE
  5
2D2
100
AcDbEntity
  8
0
100
AcDbLine
 62
7
  6
CONTINUOUS
 10
144.4086689732
 20
192.4609274905
 11
144.4086689732
 21
192.6609274905
  0
LINE
  5
2D3
100
AcDbEntity
  8
0
100
AcDbLine
 62
7
  6
CONTINUOUS
 10
144.6231490666
 20
192.4609274905
 11
144.6231490666
 21
192.6609274905
  0
LINE
  5
2D4
100
AcDbEntity
  8
0
100
AcDbLine
 62
7
  6
CONTINUOUS
 10
144.8731584194
 20
192.4609274905
 11
144.8731584194
 21
192.6609274905
  0
LINE
  5
2D5
100
AcDbEntity
  8
BEZUGSACHSEN
100
AcDbLine
 62
7
  6
CONTINUOUS
 10
145.1486193242
 20
125.6609274905
 11
145.1486193242
 21
146.7109274905
  0
LINE
  5
2D6
100
AcDbEntity
  8
0
100
AcDbLine
 62
7
  6
CONTINUOUS
 10
145.1586969267
 20
192.4609274905
 11
145.1586969267
 21
192.6609274905
  0
LINE
  5
2D7
100
AcDbEntity
  8
0
100
AcDbLine
 62
7
  6
CONTINUOUS
 10
145.3619959265
 20
192.4609274905
 11
145.3619959265
 21
192.6609274905
  0
LINE
  5
2D8
100
AcDbEntity
  8
0
100
AcDbLine
 62
7
  6
CONTINUOUS
 10
145.6008237441
 20
192.4609274905
 11
145.6008237441
 21
192.6609274905
  0
LINE
  5
2D9
100
AcDbEntity
  8
0
100
AcDbLine
 62
7
  6
CONTINUOUS
 10
145.7396478486
 20
192.4609274905
 11
145.7396478486
 21
192.6609274905
  0
LINE
  5
2DA
100
AcDbEntity
  8
0
100
AcDbLine
 62
7
  6
CONTINUOUS
 10
145.8087212021
 20
192.4609274905
 11
145.8087212021
 21
192.6609274905
  0
LINE
  5
2DB
100
AcDbEntity
  8
0
100
AcDbLine
 62
7
  6
CONTINUOUS
 10
145.9764909774
 20
192.4609274905
 11
145.9764909774
 21
192.6609274905
  0
LINE
  5
2DC
100
AcDbEntity
  8
0
100
AcDbLine
 62
7
  6
CONTINUOUS
 10
146.2297918338
 20
192.4609274905
 11
146.2297918338
 21
192.6609274905
  0
LINE
  5
2DD
100
AcDbEntity
  8
0
100
AcDbLine
 62
7
  6
CONTINUOUS
 10
146.468620058
 20
192.4609274905
 11
146.468620058
 21
192.6609274905
  0
LINE
  5
2DE
100
AcDbEntity
  8
0
100
AcDbLine
 62
7
  6
CONTINUOUS
 10
146.6074441625
 20
192.4609274905
 11
146.6074441625
 21
192.6609274905
  0
LINE
  5
2DF
100
AcDbEntity
  8
0
100
AcDbLine
 62
7
  6
CONTINUOUS
 10
146.6785022048
 20
192.4609274905
 11
146.6785022048
 21
192.6609274905
  0
LINE
  5
2E0
100
AcDbEntity
  8
0
100
AcDbLine
 62
7
  6
CONTINUOUS
 10
146.7173225962
 20
192.4609274905
 11
146.7173225962
 21
192.6609274905
  0
LINE
  5
2E1
100
AcDbEntity
  8
0
100
AcDbLine
 62
7
  6
CONTINUOUS
 10
147.1248758073
 20
192.4609274905
 11
147.1248758073
 21
192.6609274905
  0
LINE
  5
2E2
100
AcDbEntity
  8
0
100
AcDbLine
 62
7
  6
CONTINUOUS
 10
147.1650037727
 20
192.4609274905
 11
147.1650037727
 21
192.6609274905
  0
LINE
  5
2E3
100
AcDbEntity
  8
0
100
AcDbLine
 62
7
  6
CONTINUOUS
 10
147.3253078815
 20
192.4609274905
 11
147.3253078815
 21
192.6609274905
  0
LINE
  5
2E4
100
AcDbEntity
  8
RUNDUNGEN
100
AcDbLine
 62
7
  6
CONTINUOUS
 10
147.7186193242
 20
175.7108464437
 11
147.7186193242
 21
176.4609274905
  0
LINE
  5
2E5
100
AcDbEntity
  8
KONSTRUKTIONSELEMENTE
100
AcDbLine
 62
7
  6
CONTINUOUS
 10
148.1486193242
 20
182.4609274905
 11
148.1486193242
 21
182.9609274905
  0
LINE
  5
2E6
100
AcDbEntity
  8
BEZUGSACHSEN
100
AcDbLine
 62
7
  6
CONTINUOUS
 10
148.1486193242
 20
182.4609274905
 11
148.1486193242
 21
182.9609274905
  0
LINE
  5
2E7
100
AcDbEntity
  8
0
100
AcDbLine
 62
7
  6
CONTINUOUS
 10
156.6029388181
 20
195.451288087
 11
156.0111193242
 21
195.2121774905
  0
LINE
  5
2E8
100
AcDbEntity
  8
0
100
AcDbLine
 62
7
  6
CONTINUOUS
 10
161.50008575
 20
196.6209628222
 11
160.8393269272
 21
196.8932662921
  0
LINE
  5
2E9
100
AcDbEntity
  8
0
100
AcDbLine
 62
7
  6
CONTINUOUS
 10
160.8731591546
 20
193.4016976222
 11
156.6029388181
 21
195.451288087
  0
LINE
  5
2EA
100
AcDbEntity
  8
0
100
AcDbLine
 62
7
  6
CONTINUOUS
 10
156.9775454227
 20
194.5241042048
 11
160.7521966735
 21
192.6787412647
  0
LINE
  5
2EB
100
AcDbEntity
  8
0
100
AcDbLine
 62
7
  6
CONTINUOUS
 10
162.8619574943
 20
188.1384659961
 11
162.2727365481
 21
188.5744900095
  0
LINE
  5
2EC
100
AcDbEntity
  8
0
100
AcDbLine
 62
7
  6
CONTINUOUS
 10
148.8986193242
 20
177.4609274905
 11
148.8986193242
 21
175.2109274905
  0
LINE
  5
2ED
100
AcDbEntity
  8
0
100
AcDbLine
 62
7
  6
CONTINUOUS
 10
148.8986193242
 20
151.7109274905
 11
148.8986193242
 21
150.9609274905
  0
LINE
  5
2EE
100
AcDbEntity
  8
0
100
AcDbLine
 62
7
  6
CONTINUOUS
 10
149.1349352891
 20
175.7109274905
 11
149.1349352891
 21
176.4609274905
  0
LINE
  5
2EF
100
AcDbEntity
  8
RUNDUNGEN
100
AcDbLine
 62
7
  6
CONTINUOUS
 10
150.6486193242
 20
175.7109274905
 11
150.6486193242
 21
176.4609274905
  0
LINE
  5
2F0
100
AcDbEntity
  8
BEZUGSACHSEN
100
AcDbLine
 62
7
  6
CONTINUOUS
 10
151.0050257847
 20
182.9609274905
 11
151.0050257847
 21
191.3891307207
  0
LINE
  5
2F1
100
AcDbEntity
  8
0
100
AcDbLine
 62
7
  6
CONTINUOUS
 10
152.3259027447
 20
175.2109274905
 11
152.3259027447
 21
177.0109274905
  0
LINE
  5
2F2
100
AcDbEntity
  8
0
100
AcDbLine
 62
7
  6
CONTINUOUS
 10
153.6713359037
 20
177.0109274905
 11
153.6713359037
 21
175.2109274905
  0
LINE
  5
2F3
100
AcDbEntity
  8
0
100
AcDbLine
 62
7
  6
CONTINUOUS
 10
161.6769944725
 20
193.4568343576
 11
161.4402663765
 21
193.3611899985
  0
LINE
  5
2F4
100
AcDbEntity
  8
0
100
AcDbLine
 62
7
  6
CONTINUOUS
 10
157.6968489945
 20
191.0398501449
 11
158.2886684885
 21
191.2789607414
  0
LINE
  5
2F5
100
AcDbEntity
  8
0
100
AcDbLine
 62
7
  6
CONTINUOUS
 10
161.7212213215
 20
192.6658021075
 11
161.9579494175
 21
192.7614464667
  0
LINE
  5
2F6
100
AcDbEntity
  8
0
100
AcDbLine
 62
7
  6
CONTINUOUS
 10
164.5242493747
 20
190.1582441962
 11
161.4467881055
 21
188.9148691345
  0
LINE
  5
2F7
100
AcDbEntity
  8
0
100
AcDbLine
 62
7
  6
CONTINUOUS
 10
162.2727365481
 20
188.5744900095
 11
164.1665589952
 21
189.3396439451
  0
LINE
  5
2F8
100
AcDbEntity
  8
0
100
AcDbLine
 62
7
  6
CONTINUOUS
 10
161.0019179984
 20
196.1500562679
 11
161.3791232354
 21
195.8980065476
  0
LINE
  5
2F9
100
AcDbEntity
  8
0
100
AcDbLine
 62
7
  6
CONTINUOUS
 10
161.9241168
 20
196.2530151478
 11
161.50008575
 21
196.6209628222
  0
LINE
  5
2FA
100
AcDbEntity
  8
0
100
AcDbLine
 62
7
  6
CONTINUOUS
 10
160.8419753173
 20
185.3000875783
 11
160.536308049
 21
185.715857614
  0
LINE
  5
2FB
100
AcDbEntity
  8
0
100
AcDbLine
 62
7
  6
CONTINUOUS
 10
162.3169637288
 20
187.7834578933
 11
162.622630997
 21
187.3676878576
  0
LINE
  5
2FC
100
AcDbEntity
  8
0
100
AcDbLine
 62
7
  6
CONTINUOUS
 10
159.944488555
 20
185.4767470175
 11
160.2969814792
 21
184.9450794462
  0
LINE
  5
2FD
100
AcDbEntity
  8
0
100
AcDbLine
 62
7
  6
CONTINUOUS
 10
163.2144504081
 20
187.6067984206
 11
162.8619574943
 21
188.1384659961
  0
LINE
  5
2FE
100
AcDbEntity
  8
RUNDUNGEN
100
AcDbLine
 62
7
  6
CONTINUOUS
 10
156.8379267173
 20
181.3862555306
 11
153.5035905378
 21
189.6390271733
  0
LINE
  5
2FF
100
AcDbEntity
  8
0
100
AcDbLine
 62
7
  6
CONTINUOUS
 10
157.3612722564
 20
189.8257334707
 11
157.5954014219
 21
189.246243451
  0
LINE
  5
300
100
AcDbEntity
  8
0
100
AcDbLine
 62
7
  6
CONTINUOUS
 10
155.1486193242
 20
182.4609274905
 11
155.1486193242
 21
177.4609274905
  0
LINE
  5
301
100
AcDbEntity
  8
0
100
AcDbLine
 62
7
  6
CONTINUOUS
 10
157.1486193242
 20
150.9609274905
 11
157.1486193242
 21
146.7109274905
  0
LINE
  5
302
100
AcDbEntity
  8
RUNDUNGEN
100
AcDbLine
 62
7
  6
CONTINUOUS
 10
157.3986193242
 20
174.2109274905
 11
157.3986193242
 21
151.7109274905
  0
LINE
  5
303
100
AcDbEntity
  8
RUNDUNGEN
100
AcDbLine
 62
7
  6
CONTINUOUS
 10
158.1486193242
 20
151.6421774905
 11
158.1486193242
 21
154.7671775164
  0
LINE
  5
304
100
AcDbEntity
  8
RUNDUNGEN
100
AcDbLine
 62
7
  6
CONTINUOUS
 10
158.1486193242
 20
164.5171774905
 11
158.1486193242
 21
174.643331926
  0
LINE
  5
305
100
AcDbEntity
  8
0
100
AcDbLine
 62
7
  6
CONTINUOUS
 10
161.9384344261
 20
193.8320967696
 11
161.6769944725
 21
193.4568343576
  0
LINE
  5
306
100
AcDbEntity
  8
0
100
AcDbLine
 62
7
  6
CONTINUOUS
 10
160.3815129997
 20
188.484470054
 11
160.001708947
 21
188.0613858275
  0
LINE
  5
307
100
AcDbEntity
  8
0
100
AcDbLine
 62
7
  6
CONTINUOUS
 10
161.9579494175
 20
192.7614464667
 11
162.3845791669
 21
193.0686327884
  0
LINE
  5
308
100
AcDbEntity
  8
0
100
AcDbLine
 62
7
  6
CONTINUOUS
 10
162.3065691674
 20
185.0829208469
 11
162.069841403
 21
184.9872766217
  0
LINE
  5
309
100
AcDbEntity
  8
0
100
AcDbLine
 62
7
  6
CONTINUOUS
 10
165.524507807
 20
185.9786026934
 11
166.1163272181
 21
186.2177132564
  0
LINE
  5
30A
100
AcDbEntity
  8
0
100
AcDbLine
 62
7
  6
CONTINUOUS
 10
162.1856065523
 20
184.3599648211
 11
162.6590620812
 21
184.5512532715
  0
LINE
  5
30B
100
AcDbEntity
  8
0
100
AcDbLine
 62
7
  6
CONTINUOUS
 10
164.8091272523
 20
184.3414007309
 11
164.3356717234
 21
184.1501122805
  0
LINE
  5
30C
100
AcDbEntity
  8
0
100
AcDbLine
 62
7
  6
CONTINUOUS
 10
166.1306448778
 20
183.7967947954
 11
165.1837334884
 21
183.4142177606
  0
LINE
  5
30D
100
AcDbEntity
  8
0
100
AcDbLine
 62
7
  6
CONTINUOUS
 10
164.7102779596
 20
183.2229293102
 11
162.3430000665
 21
182.2664869575
  0
LINE
  5
30E
100
AcDbEntity
  8
0
100
AcDbLine
 62
7
  6
CONTINUOUS
 10
161.3791232354
 20
195.8980065476
 11
161.7316162496
 21
195.3663387235
  0
LINE
  5
30F
100
AcDbEntity
  8
0
100
AcDbLine
 62
7
  6
CONTINUOUS
 10
162.3702614402
 20
195.4895514153
 11
161.9241168
 21
196.2530151478
  0
LINE
  5
310
100
AcDbEntity
  8
0
100
AcDbLine
 62
7
  6
CONTINUOUS
 10
159.66353361
 20
186.1721349084
 11
159.944488555
 21
185.4767470175
  0
LINE
  5
311
100
AcDbEntity
  8
0
100
AcDbLine
 62
7
  6
CONTINUOUS
 10
157.6968489945
 20
191.0398501449
 11
156.0111193242
 21
195.2121774905
  0
LINE
  5
312
100
AcDbEntity
  8
0
100
AcDbLine
 62
7
  6
CONTINUOUS
 10
160.536308049
 20
185.715857614
 11
160.255353104
 21
186.411245505
  0
LINE
  5
313
100
AcDbEntity
  8
0
100
AcDbLine
 62
7
  6
CONTINUOUS
 10
159.1783592372
 20
189.0768988658
 11
158.9442299377
 21
189.656389217
  0
LINE
  5
314
100
AcDbEntity
  8
0
100
AcDbLine
 62
7
  6
CONTINUOUS
 10
158.2886684885
 20
191.2789607414
 11
156.9775454227
 21
194.5241042048
  0
LINE
  5
315
100
AcDbEntity
  8
0
100
AcDbLine
 62
7
  6
CONTINUOUS
 10
160.6624679448
 20
187.7890821631
 11
160.3815129997
 21
188.484470054
  0
LINE
  5
316
100
AcDbEntity
  8
0
100
AcDbLine
 62
7
  6
CONTINUOUS
 10
161.4467881055
 20
188.9148691345
 11
161.774568964
 21
188.1035830407
  0
LINE
  5
317
100
AcDbEntity
  8
0
100
AcDbLine
 62
7
  6
CONTINUOUS
 10
162.622630997
 20
187.3676878576
 11
162.9035859421
 21
186.6722999667
  0
LINE
  5
318
100
AcDbEntity
  8
0
100
AcDbLine
 62
7
  6
CONTINUOUS
 10
164.3356717234
 20
184.1501122805
 11
164.7102779596
 21
183.2229293102
  0
LINE
  5
319
100
AcDbEntity
  8
0
100
AcDbLine
 62
7
  6
CONTINUOUS
 10
164.9444072591
 20
182.6434389589
 11
165.4594915037
 21
181.3685607168
  0
LINE
  5
31A
100
AcDbEntity
  8
0
100
AcDbLine
 62
7
  6
CONTINUOUS
 10
163.4954053531
 20
186.9114105297
 11
163.2144504081
 21
187.6067984206
  0
LINE
  5
31B
100
AcDbEntity
  8
0
100
AcDbLine
 62
7
  6
CONTINUOUS
 10
165.9329470325
 20
181.5598491672
 11
165.417862788
 21
182.8347274094
  0
LINE
  5
31C
100
AcDbEntity
  8
0
100
AcDbLine
 62
7
  6
CONTINUOUS
 10
165.1837334884
 20
183.4142177606
 11
164.8091272523
 21
184.3414007309
  0
LINE
  5
31D
100
AcDbEntity
  8
0
100
AcDbLine
 62
7
  6
CONTINUOUS
 10
160.3190455727
 20
196.817875827
 11
160.5531746922
 21
196.2383859213
  0
LINE
  5
31E
100
AcDbEntity
  8
0
100
AcDbLine
 62
7
  6
CONTINUOUS
 10
166.3647741773
 20
183.2173044442
 11
166.1306448778
 21
183.7967947954
  0
LINE
  5
31F
100
AcDbEntity
  8
0
100
AcDbLine
 62
7
  6
CONTINUOUS
 10
161.7316162496
 20
195.3663387235
 11
161.9189195017
 21
194.9027469068
  0
LINE
  5
320
100
AcDbEntity
  8
0
100
AcDbLine
 62
7
  6
CONTINUOUS
 10
164.1665589952
 20
189.3396439451
 11
165.524507807
 21
185.9786026934
  0
LINE
  5
321
100
AcDbEntity
  8
0
100
AcDbLine
 62
7
  6
CONTINUOUS
 10
161.8890595905
 20
181.0045478433
 11
162.051650643
 21
180.2613378356
  0
LINE
  5
322
100
AcDbEntity
  8
0
100
AcDbLine
 62
7
  6
CONTINUOUS
 10
159.547768471
 20
186.7994467133
 11
159.66353361
 21
186.1721349084
  0
LINE
  5
323
100
AcDbEntity
  8
0
100
AcDbLine
 62
7
  6
CONTINUOUS
 10
162.5251062133
 20
180.4526263027
 11
162.4093408375
 21
181.0799387833
  0
LINE
  5
324
100
AcDbEntity
  8
0
100
AcDbLine
 62
7
  6
CONTINUOUS
 10
160.255353104
 20
186.411245505
 11
160.1864136001
 21
186.9226597659
  0
LINE
  5
325
100
AcDbEntity
  8
0
100
AcDbLine
 62
7
  6
CONTINUOUS
 10
161.8669460106
 20
181.4000639055
 11
161.8890595905
 21
181.0045478433
  0
LINE
  5
326
100
AcDbEntity
  8
0
100
AcDbLine
 62
7
  6
CONTINUOUS
 10
162.6707313097
 20
193.7235133872
 11
162.7201558221
 21
194.2827494292
  0
LINE
  5
327
100
AcDbEntity
  8
0
100
AcDbLine
 62
7
  6
CONTINUOUS
 10
159.6687308492
 20
187.5224034149
 11
159.547768471
 21
186.7994467133
  0
LINE
  5
328
100
AcDbEntity
  8
0
100
AcDbLine
 62
7
  6
CONTINUOUS
 10
163.4902081554
 20
185.56114204
 11
163.6111705025
 21
186.284098729
  0
LINE
  5
329
100
AcDbEntity
  8
0
100
AcDbLine
 62
7
  6
CONTINUOUS
 10
160.1864136001
 20
186.9226597659
 11
160.2826638921
 21
187.3659979366
  0
LINE
  5
32A
100
AcDbEntity
  8
0
100
AcDbLine
 62
7
  6
CONTINUOUS
 10
162.034684718
 20
194.2754349403
 11
161.9384344261
 21
193.8320967696
  0
LINE
  5
32B
100
AcDbEntity
  8
0
100
AcDbLine
 62
7
  6
CONTINUOUS
 10
161.9631963232
 20
181.8434020846
 11
161.8669460106
 21
181.4000639055
  0
LINE
  5
32C
100
AcDbEntity
  8
0
100
AcDbLine
 62
7
  6
CONTINUOUS
 10
162.9725254459
 20
186.1608857057
 11
162.876275154
 21
185.717547535
  0
LINE
  5
32D
100
AcDbEntity
  8
0
100
AcDbLine
 62
7
  6
CONTINUOUS
 10
162.4093408375
 20
181.0799387833
 11
162.5055911294
 21
181.523276954
  0
LINE
  5
32E
100
AcDbEntity
  8
RUNDUNGEN
100
AcDbLine
 62
7
  6
CONTINUOUS
 10
171.3235209779
 20
230.436924524
 11
164.1990218366
 21
203.8479317499
  0
LINE
  5
32F
100
AcDbEntity
  8
0
100
AcDbLine
 62
7
  6
CONTINUOUS
 10
162.3845791669
 20
193.0686327884
 11
162.6707313097
 21
193.7235133872
  0
LINE
  5
330
100
AcDbEntity
  8
0
100
AcDbLine
 62
7
  6
CONTINUOUS
 10
160.001708947
 20
188.0613858275
 11
159.6687308492
 21
187.5224034149
  0
LINE
  5
331
100
AcDbEntity
  8
0
100
AcDbLine
 62
7
  6
CONTINUOUS
 10
162.876275154
 20
185.717547535
 11
162.6148350663
 21
185.3422854546
  0
LINE
  5
332
100
AcDbEntity
  8
0
100
AcDbLine
 62
7
  6
CONTINUOUS
 10
160.2826638921
 20
187.3659979366
 11
160.6624679448
 21
187.7890821631
  0
LINE
  5
333
100
AcDbEntity
  8
0
100
AcDbLine
 62
7
  6
CONTINUOUS
 10
162.6590620812
 20
184.5512532715
 11
163.1572298311
 21
185.0221603073
  0
LINE
  5
334
100
AcDbEntity
  8
0
100
AcDbLine
 62
7
  6
CONTINUOUS
 10
162.6148350663
 20
185.3422854546
 11
162.3065691674
 21
185.0829208469
  0
LINE
  5
335
100
AcDbEntity
  8
0
100
AcDbLine
 62
7
  6
CONTINUOUS
 10
162.5055911294
 20
181.523276954
 11
162.8138572134
 21
181.782640865
  0
LINE
  5
336
100
AcDbEntity
  8
0
100
AcDbLine
 62
7
  6
CONTINUOUS
 10
162.8138572134
 20
181.782640865
 11
164.9444072591
 21
182.6434389589
  0
LINE
  5
337
100
AcDbEntity
  8
0
100
AcDbLine
 62
7
  6
CONTINUOUS
 10
165.417862788
 20
182.8347274094
 11
166.3647741773
 21
183.2173044442
  0
LINE
  5
338
100
AcDbEntity
  8
0
100
AcDbLine
 62
7
  6
CONTINUOUS
 10
162.051650643
 20
180.2613378356
 11
162.5251062133
 21
180.4526263027
  0
LINE
  5
339
100
AcDbEntity
  8
0
100
AcDbLine
 62
7
  6
CONTINUOUS
 10
165.4594915037
 20
181.3685607168
 11
165.9329470325
 21
181.5598491672
  0
LINE
  5
33A
100
AcDbEntity
  8
0
100
AcDbLine
 62
7
  6
CONTINUOUS
 10
166.1163272181
 20
186.2177132564
 11
164.5242493747
 21
190.1582441962
  0
LINE
  5
33B
100
AcDbEntity
  8
0
100
AcDbLine
 62
7
  6
CONTINUOUS
 10
162.5575647593
 20
195.0259594327
 11
162.3702614402
 21
195.4895514153
  0
LINE
  5
33C
100
AcDbEntity
  8
RUNDUNGEN
100
AcDbLine
 62
7
  6
CONTINUOUS
 10
164.4460019063
 20
199.8098433044
 11
167.1557591006
 21
193.1029588969
  0
LINE
  5
33D
100
AcDbEntity
  8
RUNDUNGEN
100
AcDbLine
 62
7
  6
CONTINUOUS
 10
169.1594158404
 20
188.1437344415
 11
174.9072822718
 21
173.9172658019
  0
LINE
  5
33E
100
AcDbEntity
  8
0
100
AcDbLine
 62
7
  6
CONTINUOUS
 10
162.7201558221
 20
194.2827494292
 11
162.5575647593
 21
195.0259594327
  0
LINE
  5
33F
100
AcDbEntity
  8
0
100
AcDbLine
 62
7
  6
CONTINUOUS
 10
161.9189195017
 20
194.9027469068
 11
162.034684718
 21
194.2754349403
  0
LINE
  5
340
100
AcDbEntity
  8
0
100
AcDbLine
 62
7
  6
CONTINUOUS
 10
163.6111705025
 20
186.284098729
 11
163.4954053531
 21
186.9114105297
  0
LINE
  5
341
100
AcDbEntity
  8
0
100
AcDbLine
 62
7
  6
CONTINUOUS
 10
162.9035859421
 20
186.6722999667
 11
162.9725254459
 21
186.1608857057
  0
LINE
  5
342
100
AcDbEntity
  8
0
100
AcDbLine
 62
7
  6
CONTINUOUS
 10
163.1572298311
 20
185.0221603073
 11
163.4902081554
 21
185.56114204
  0
LINE
  5
343
100
AcDbEntity
  8
0
100
AcDbLine
 62
7
  6
CONTINUOUS
 10
162.3430000665
 20
182.2664869575
 11
161.9631963232
 21
181.8434020846
  0
LINE
  5
344
100
AcDbEntity
  8
RUNDUNGEN
100
AcDbLine
 62
7
  6
CONTINUOUS
 10
174.8538502629
 20
167.7945640266
 11
167.6658579087
 21
150.8607152335
  0
LINE
  5
345
100
AcDbEntity
  8
RUNDUNGEN
100
AcDbLine
 62
7
  6
CONTINUOUS
 10
161.6791657817
 20
252.9718347146
 11
170.8459104271
 21
234.9810853724
  0
LINE
  5
346
100
AcDbEntity
  8
BEZUGSACHSEN
100
AcDbLine
 62
7
  6
CONTINUOUS
 10
145.1486193242
 20
125.6609274905
 11
143.9486193242
 21
124.4609274905
  0
LINE
  5
347
100
AcDbEntity
  8
RUNDUNGEN
100
AcDbLine
 62
7
  6
CONTINUOUS
 10
139.4332150025
 20
263.2652033749
 11
158.2835948684
 21
256.0292204977
  0
LINE
  5
348
100
AcDbEntity
  8
BEZUGSACHSEN
100
AcDbLine
 62
7
  6
CONTINUOUS
 10
245.2368405139
 20
124.4609274905
 11
258.8368405139
 21
124.4609274905
  0
LINE
  5
349
100
AcDbEntity
  8
BEZUGSACHSEN
100
AcDbLine
 62
7
  6
CONTINUOUS
 10
244.0368405139
 20
125.6609274905
 11
260.0368405139
 21
125.6609274905
  0
LINE
  5
34A
100
AcDbEntity
  8
BEZUGSACHSEN
100
AcDbLine
 62
7
  6
CONTINUOUS
 10
245.2368405139
 20
124.4609274905
 11
244.0368405139
 21
125.6609274905
  0
LINE
  5
34B
100
AcDbEntity
  8
0
100
AcDbLine
 62
7
  6
CONTINUOUS
 10
272.0368405139
 20
146.7109274905
 11
232.0368405139
 21
146.7109274905
  0
LINE
  5
34C
100
AcDbEntity
  8
RUNDUNGEN
100
AcDbLine
 62
7
  6
CONTINUOUS
 10
245.5368405139
 20
149.6421774905
 11
258.5368405139
 21
149.6421774905
  0
LINE
  5
34D
100
AcDbEntity
  8
0
100
AcDbLine
 62
7
  6
CONTINUOUS
 10
272.0368405139
 20
150.9609274905
 11
260.4146669121
 21
150.9609274905
  0
LINE
  5
34E
100
AcDbEntity
  8
0
100
AcDbLine
 62
7
  6
CONTINUOUS
 10
243.6588394364
 20
150.9609274905
 11
232.0368405139
 21
150.9609274905
  0
LINE
  5
34F
100
AcDbEntity
  8
RUNDUNGEN
100
AcDbLine
 62
7
  6
CONTINUOUS
 10
231.7868405139
 20
151.7109274905
 11
243.5368405139
 21
151.7109274905
  0
LINE
  5
350
100
AcDbEntity
  8
RUNDUNGEN
100
AcDbLine
 62
7
  6
CONTINUOUS
 10
260.5368405139
 20
151.7109274905
 11
272.2868405139
 21
151.7109274905
  0
LINE
  5
351
100
AcDbEntity
  8
RUNDUNGEN
100
AcDbLine
 62
7
  6
CONTINUOUS
 10
268.7226074114
 20
175.2109274905
 11
260.5361280209
 21
175.2109274905
  0
LINE
  5
352
100
AcDbEntity
  8
RUNDUNGEN
100
AcDbLine
 62
7
  6
CONTINUOUS
 10
243.5375530069
 20
175.2109274905
 11
234.3697512312
 21
175.2109274905
  0
LINE
  5
353
100
AcDbEntity
  8
0
100
AcDbLine
 62
7
  6
CONTINUOUS
 10
231.7868405139
 20
151.7109274905
 11
231.7868405139
 21
175.9609274905
  0
LINE
  5
354
100
AcDbEntity
  8
0
100
AcDbLine
 62
7
  6
CONTINUOUS
 10
232.0368405139
 20
150.9609274905
 11
232.0368405139
 21
146.7109274905
  0
LINE
  5
355
100
AcDbEntity
  8
0
100
AcDbLine
 62
7
  6
CONTINUOUS
 10
234.0368405139
 20
182.4609274905
 11
234.0368405139
 21
177.4609274905
  0
LINE
  5
356
100
AcDbEntity
  8
RUNDUNGEN
100
AcDbLine
 62
7
  6
CONTINUOUS
 10
271.2864797356
 20
176.9609274905
 11
266.5368405139
 21
176.9609274905
  0
LINE
  5
357
100
AcDbEntity
  8
RUNDUNGEN
100
AcDbLine
 62
7
  6
CONTINUOUS
 10
243.653200808
 20
176.9609274905
 11
232.7869242161
 21
176.9609274905
  0
LINE
  5
358
100
AcDbEntity
  8
0
100
AcDbLine
 62
7
  6
CONTINUOUS
 10
260.4160684551
 20
177.0109274905
 11
266.1812175261
 21
177.0109274905
  0
LINE
  5
359
100
AcDbEntity
  8
0
100
AcDbLine
 62
7
  6
CONTINUOUS
 10
270.0368405139
 20
177.4609274905
 11
260.3763625727
 21
177.4609274905
  0
LINE
  5
35A
100
AcDbEntity
  8
0
100
AcDbLine
 62
7
  6
CONTINUOUS
 10
243.6973184551
 20
177.4609274905
 11
234.0368405139
 21
177.4609274905
  0
LINE
  5
35B
100
AcDbEntity
  8
0
100
AcDbLine
 62
7
  6
CONTINUOUS
 10
243.9444134855
 20
180.2613378356
 11
243.5368405139
 21
180.2613378356
  0
LINE
  5
35C
100
AcDbEntity
  8
0
100
AcDbLine
 62
7
  6
CONTINUOUS
 10
243.9612918797
 20
180.4526263027
 11
243.5368405139
 21
180.4526263027
  0
LINE
  5
35D
100
AcDbEntity
  8
0
100
AcDbLine
 62
7
  6
CONTINUOUS
 10
244.0166429809
 20
181.0799387833
 11
243.5899917768
 21
181.0799387833
  0
LINE
  5
35E
100
AcDbEntity
  8
0
100
AcDbLine
 62
7
  6
CONTINUOUS
 10
244.0421096221
 20
181.3685607168
 11
243.615458418
 21
181.3685607168
  0
LINE
  5
35F
100
AcDbEntity
  8
0
100
AcDbLine
 62
7
  6
CONTINUOUS
 10
244.0589880148
 20
181.5598491672
 11
243.6323368106
 21
181.5598491672
  0
LINE
  5
360
100
AcDbEntity
  8
0
100
AcDbLine
 62
7
  6
CONTINUOUS
 10
270.0368405139
 20
182.4609274905
 11
259.9351861021
 21
182.4609274905
  0
LINE
  5
361
100
AcDbEntity
  8
0
100
AcDbLine
 62
7
  6
CONTINUOUS
 10
243.7118437215
 20
182.4609274905
 11
234.0368405139
 21
182.4609274905
  0
LINE
  5
362
100
AcDbEntity
  8
0
100
AcDbLine
 62
7
  6
CONTINUOUS
 10
244.1714772714
 20
182.8347274094
 11
243.7448260673
 21
182.8347274094
  0
LINE
  5
363
100
AcDbEntity
  8
KONSTRUKTIONSELEMENTE
100
AcDbLine
 62
7
  6
CONTINUOUS
 10
240.0368405139
 20
182.9609274905
 11
243.7559613686
 21
182.9609274905
  0
LINE
  5
364
100
AcDbEntity
  8
KONSTRUKTIONSELEMENTE
100
AcDbLine
 62
7
  6
CONTINUOUS
 10
259.8910684551
 20
182.9609274905
 11
264.0368405139
 21
182.9609274905
  0
LINE
  5
365
100
AcDbEntity
  8
0
100
AcDbLine
 62
7
  6
CONTINUOUS
 10
244.2052340686
 20
183.2173044442
 11
243.7785828645
 21
183.2173044442
  0
LINE
  5
366
100
AcDbEntity
  8
0
100
AcDbLine
 62
7
  6
CONTINUOUS
 10
244.2563655702
 20
183.7967947954
 11
243.8297143661
 21
183.7967947954
  0
LINE
  5
367
100
AcDbEntity
  8
0
100
AcDbLine
 62
7
  6
CONTINUOUS
 10
244.3044190351
 20
184.3414007309
 11
243.877767831
 21
184.3414007309
  0
LINE
  5
368
100
AcDbEntity
  8
0
100
AcDbLine
 62
7
  6
CONTINUOUS
 10
244.3054116733
 20
184.3526506303
 11
243.8787604691
 21
184.3526506303
  0
LINE
  5
369
100
AcDbEntity
  8
0
100
AcDbLine
 62
7
  6
CONTINUOUS
 10
244.3060570431
 20
184.3599648211
 11
243.8794058389
 21
184.3599648211
  0
LINE
  5
36A
100
AcDbEntity
  8
0
100
AcDbLine
 62
7
  6
CONTINUOUS
 10
244.3229354358
 20
184.5512532715
 11
243.8962842316
 21
184.5512532715
  0
LINE
  5
36B
100
AcDbEntity
  8
0
100
AcDbLine
 62
7
  6
CONTINUOUS
 10
244.3644860566
 20
185.0221603073
 11
243.9378348524
 21
185.0221603073
  0
LINE
  5
36C
100
AcDbEntity
  8
0
100
AcDbLine
 62
7
  6
CONTINUOUS
 10
244.4120432683
 20
185.56114204
 11
243.9853920641
 21
185.56114204
  0
LINE
  5
36D
100
AcDbEntity
  8
0
100
AcDbLine
 62
7
  6
CONTINUOUS
 10
244.4488780318
 20
185.9786026934
 11
244.0222268277
 21
185.9786026934
  0
LINE
  5
36E
100
AcDbEntity
  8
0
100
AcDbLine
 62
7
  6
CONTINUOUS
 10
244.4699760227
 20
186.2177132564
 11
244.0433248185
 21
186.2177132564
  0
LINE
  5
36F
100
AcDbEntity
  8
BEZUGSACHSEN
100
AcDbLine
 62
7
  6
CONTINUOUS
 10
240.0368405139
 20
182.9609274905
 11
240.0368405139
 21
192.4609274905
  0
LINE
  5
370
100
AcDbEntity
  8
0
100
AcDbLine
 62
7
  6
CONTINUOUS
 10
240.2868405139
 20
177.4609274905
 11
240.2868405139
 21
176.9609274905
  0
LINE
  5
371
100
AcDbEntity
  8
0
100
AcDbLine
 62
7
  6
CONTINUOUS
 10
240.2868405139
 20
151.7109274905
 11
240.2868405139
 21
150.9609274905
  0
LINE
  5
372
100
AcDbEntity
  8
BEZUGSACHSEN
100
AcDbLine
 62
7
  6
CONTINUOUS
 10
241.0368405139
 20
182.4609274905
 11
241.0368405139
 21
182.9609274905
  0
LINE
  5
373
100
AcDbEntity
  8
RUNDUNGEN
100
AcDbLine
 62
7
  6
CONTINUOUS
 10
243.5368405139
 20
175.1137921634
 11
243.5368405139
 21
151.6421774905
  0
LINE
  5
374
100
AcDbEntity
  8
0
100
AcDbLine
 62
7
  6
CONTINUOUS
 10
243.5368405139
 20
180.2613378356
 11
243.5368405139
 21
180.4775578041
  0
LINE
  5
375
100
AcDbEntity
  8
BEZUGSACHSEN
100
AcDbLine
 62
7
  6
CONTINUOUS
 10
244.0368405139
 20
125.6609274905
 11
244.0368405139
 21
146.7109274905
  0
LINE
  5
376
100
AcDbEntity
  8
0
100
AcDbLine
 62
7
  6
CONTINUOUS
 10
244.8176699291
 20
190.1582441962
 11
244.391018725
 21
190.1582441962
  0
LINE
  5
377
100
AcDbEntity
  8
0
100
AcDbLine
 62
7
  6
CONTINUOUS
 10
244.8954586893
 20
191.0398501449
 11
244.4688074851
 21
191.0398501449
  0
LINE
  5
378
100
AcDbEntity
  8
0
100
AcDbLine
 62
7
  6
CONTINUOUS
 10
244.9165566831
 20
191.2789607414
 11
244.489905479
 21
191.2789607414
  0
LINE
  5
379
100
AcDbEntity
  8
0
100
AcDbLine
 62
7
  6
CONTINUOUS
 10
244.6118405139
 20
192.6608911374
 11
244.6118405139
 21
196.8932662921
  0
LINE
  5
37A
100
AcDbEntity
  8
RUNDUNGEN
100
AcDbLine
 62
7
  6
CONTINUOUS
 10
245.0368405139
 20
263.1885646929
 11
245.0368405139
 21
193.1705628391
  0
LINE
  5
37B
100
AcDbEntity
  8
RUNDUNGEN
100
AcDbLine
 62
7
  6
CONTINUOUS
 10
246.3118405139
 20
197.5096946514
 11
246.3118405139
 21
266.6421774905
  0
LINE
  5
37C
100
AcDbEntity
  8
0
100
AcDbLine
 62
7
  6
CONTINUOUS
 10
243.5368405139
 20
180.4775578041
 11
243.877767831
 21
184.3414007309
  0
LINE
  5
37D
100
AcDbEntity
  8
0
100
AcDbLine
 62
7
  6
CONTINUOUS
 10
243.8787604691
 20
184.3526506303
 11
244.391018725
 21
190.1582441962
  0
LINE
  5
37E
100
AcDbEntity
  8
0
100
AcDbLine
 62
7
  6
CONTINUOUS
 10
244.4688074851
 20
191.0398501449
 11
244.6118405139
 21
192.6608911374
  0
LINE
  5
37F
100
AcDbEntity
  8
RUNDUNGEN
100
AcDbLine
 62
7
  6
CONTINUOUS
 10
243.5832812621
 20
176.1685059699
 11
244.9903987007
 21
192.1158369407
  0
LINE
  5
380
100
AcDbEntity
  8
BEZUGSACHSEN
100
AcDbLine
 62
7
  6
CONTINUOUS
 10
240.0368405139
 20
192.4609274905
 11
244.5941966627
 21
192.4609274905
  0
LINE
  5
381
100
AcDbEntity
  8
BEZUGSACHSEN
100
AcDbLine
 62
7
  6
CONTINUOUS
 10
259.0579245312
 20
192.4609274905
 11
264.0368405139
 21
192.4609274905
  0
LINE
  5
382
100
AcDbEntity
  8
0
100
AcDbLine
 62
7
  6
CONTINUOUS
 10
245.0228083297
 20
192.5904115284
 11
244.6056217249
 21
192.5904115284
  0
LINE
  5
383
100
AcDbEntity
  8
0
100
AcDbLine
 62
7
  6
CONTINUOUS
 10
259.0408103936
 20
192.6609274905
 11
262.1798308611
 21
192.6609274905
  0
LINE
  5
384
100
AcDbEntity
  8
0
100
AcDbLine
 62
7
  6
CONTINUOUS
 10
245.02621984
 20
192.6658021075
 11
244.6118405139
 21
192.6658021075
  0
LINE
  5
385
100
AcDbEntity
  8
0
100
AcDbLine
 62
7
  6
CONTINUOUS
 10
245.0298644783
 20
192.7614464667
 11
244.6118405139
 21
192.7614464667
  0
LINE
  5
386
100
AcDbEntity
  8
0
100
AcDbLine
 62
7
  6
CONTINUOUS
 10
245.0364076006
 20
193.0686327884
 11
244.6118405139
 21
193.0686327884
  0
LINE
  5
387
100
AcDbEntity
  8
0
100
AcDbLine
 62
7
  6
CONTINUOUS
 10
245.0368405139
 20
193.7235133872
 11
244.6118405139
 21
193.7235133872
  0
LINE
  5
388
100
AcDbEntity
  8
0
100
AcDbLine
 62
7
  6
CONTINUOUS
 10
259.0368405139
 20
193.7262533052
 11
259.4618405139
 21
193.7262533052
  0
LINE
  5
389
100
AcDbEntity
  8
0
100
AcDbLine
 62
7
  6
CONTINUOUS
 10
245.0368405139
 20
194.2827494292
 11
244.6118405139
 21
194.2827494292
  0
LINE
  5
38A
100
AcDbEntity
  8
0
100
AcDbLine
 62
7
  6
CONTINUOUS
 10
245.0368405139
 20
195.0259594327
 11
244.6118405139
 21
195.0259594327
  0
LINE
  5
38B
100
AcDbEntity
  8
0
100
AcDbLine
 62
7
  6
CONTINUOUS
 10
259.0368405139
 20
195.2141471099
 11
259.4618405139
 21
195.2141471099
  0
LINE
  5
38C
100
AcDbEntity
  8
0
100
AcDbLine
 62
7
  6
CONTINUOUS
 10
245.0368405139
 20
195.4895514153
 11
244.6118405139
 21
195.4895514153
  0
LINE
  5
38D
100
AcDbEntity
  8
0
100
AcDbLine
 62
7
  6
CONTINUOUS
 10
245.0368405139
 20
196.2530151478
 11
244.6118405139
 21
196.2530151478
  0
LINE
  5
38E
100
AcDbEntity
  8
0
100
AcDbLine
 62
7
  6
CONTINUOUS
 10
245.0368405139
 20
196.6209628222
 11
244.6118405139
 21
196.6209628222
  0
LINE
  5
38F
100
AcDbEntity
  8
0
100
AcDbLine
 62
7
  6
CONTINUOUS
 10
245.0368405139
 20
196.8932662921
 11
244.6118405139
 21
196.8932662921
  0
LINE
  5
390
100
AcDbEntity
  8
0
100
AcDbLine
 62
7
  6
CONTINUOUS
 10
259.0368405139
 20
197.3113034613
 11
259.4618405139
 21
197.3113034613
  0
LINE
  5
391
100
AcDbEntity
  8
0
100
AcDbLine
 62
7
  6
CONTINUOUS
 10
259.0368405139
 20
198.3587806999
 11
259.4618405139
 21
198.3587806999
  0
LINE
  5
392
100
AcDbEntity
  8
0
100
AcDbLine
 62
7
  6
CONTINUOUS
 10
259.0368405139
 20
199.8643292519
 11
259.4618405139
 21
199.8643292519
  0
LINE
  5
393
100
AcDbEntity
  8
0
100
AcDbLine
 62
7
  6
CONTINUOUS
 10
259.0368405139
 20
199.9991203969
 11
259.4618405139
 21
199.9991203969
  0
LINE
  5
394
100
AcDbEntity
  8
0
100
AcDbLine
 62
7
  6
CONTINUOUS
 10
259.0368405139
 20
200.3349559616
 11
259.4618405139
 21
200.3349559616
  0
LINE
  5
395
100
AcDbEntity
  8
RUNDUNGEN
100
AcDbLine
 62
7
  6
CONTINUOUS
 10
259.0832823271
 20
192.1158369404
 11
260.4903987142
 21
176.168517887
  0
LINE
  5
396
100
AcDbEntity
  8
RUNDUNGEN
100
AcDbLine
 62
7
  6
CONTINUOUS
 10
257.7618405139
 20
266.6420969616
 11
257.7618405139
 21
197.5096946514
  0
LINE
  5
397
100
AcDbEntity
  8
RUNDUNGEN
100
AcDbLine
 62
7
  6
CONTINUOUS
 10
259.0368405139
 20
263.1885646931
 11
259.0368405139
 21
193.1705628249
  0
LINE
  5
398
100
AcDbEntity
  8
0
100
AcDbLine
 62
7
  6
CONTINUOUS
 10
259.2578307508
 20
192.4609274905
 11
259.2578307508
 21
192.6609274905
  0
LINE
  5
399
100
AcDbEntity
  8
0
100
AcDbLine
 62
7
  6
CONTINUOUS
 10
259.4618405139
 20
200.3349559616
 11
259.4618405139
 21
197.3113034613
  0
LINE
  5
39A
100
AcDbEntity
  8
0
100
AcDbLine
 62
7
  6
CONTINUOUS
 10
259.4618405139
 20
192.6608911374
 11
259.4618405139
 21
197.2494587098
  0
LINE
  5
39B
100
AcDbEntity
  8
BEZUGSACHSEN
100
AcDbLine
 62
7
  6
CONTINUOUS
 10
260.0368405139
 20
125.6609274905
 11
260.0368405139
 21
146.7109274905
  0
LINE
  5
39C
100
AcDbEntity
  8
0
100
AcDbLine
 62
7
  6
CONTINUOUS
 10
260.1133829264
 20
192.4609274905
 11
260.1133829264
 21
192.6609274905
  0
LINE
  5
39D
100
AcDbEntity
  8
RUNDUNGEN
100
AcDbLine
 62
7
  6
CONTINUOUS
 10
260.5368405139
 20
175.1137921634
 11
260.5368405139
 21
151.6421774905
  0
LINE
  5
39E
100
AcDbEntity
  8
0
100
AcDbLine
 62
7
  6
CONTINUOUS
 10
260.7827337477
 20
192.4609274905
 11
260.7827337477
 21
192.6609274905
  0
LINE
  5
39F
100
AcDbEntity
  8
0
100
AcDbLine
 62
7
  6
CONTINUOUS
 10
260.9154428796
 20
192.4609274905
 11
260.9154428796
 21
192.6609274905
  0
LINE
  5
3A0
100
AcDbEntity
  8
0
100
AcDbLine
 62
7
  6
CONTINUOUS
 10
261.4462794071
 20
192.4609274905
 11
261.4462794071
 21
192.6609274905
  0
LINE
  5
3A1
100
AcDbEntity
  8
0
100
AcDbLine
 62
7
  6
CONTINUOUS
 10
261.5789886023
 20
192.4609274905
 11
261.5789886023
 21
192.6609274905
  0
LINE
  5
3A2
100
AcDbEntity
  8
0
100
AcDbLine
 62
7
  6
CONTINUOUS
 10
261.7457022866
 20
192.4609274905
 11
261.7457022866
 21
192.6609274905
  0
LINE
  5
3A3
100
AcDbEntity
  8
0
100
AcDbLine
 62
7
  6
CONTINUOUS
 10
261.9309760596
 20
192.4609274905
 11
261.9309760596
 21
192.6609274905
  0
LINE
  5
3A4
100
AcDbEntity
  8
0
100
AcDbLine
 62
7
  6
CONTINUOUS
 10
262.0175299631
 20
192.4609274905
 11
262.0175299631
 21
192.6609274905
  0
LINE
  5
3A5
100
AcDbEntity
  8
0
100
AcDbLine
 62
7
  6
CONTINUOUS
 10
262.1798308611
 20
192.4609274905
 11
262.1798308611
 21
192.6609274905
  0
LINE
  5
3A6
100
AcDbEntity
  8
BEZUGSACHSEN
100
AcDbLine
 62
7
  6
CONTINUOUS
 10
263.0368405139
 20
182.4609274905
 11
263.0368405139
 21
182.9609274905
  0
LINE
  5
3A7
100
AcDbEntity
  8
0
100
AcDbLine
 62
7
  6
CONTINUOUS
 10
263.7868405139
 20
177.4609274905
 11
263.7868405139
 21
177.0109274905
  0
LINE
  5
3A8
100
AcDbEntity
  8
0
100
AcDbLine
 62
7
  6
CONTINUOUS
 10
263.7868405139
 20
151.7109274905
 11
263.7868405139
 21
150.9609274905
  0
LINE
  5
3A9
100
AcDbEntity
  8
BEZUGSACHSEN
100
AcDbLine
 62
7
  6
CONTINUOUS
 10
264.0368405139
 20
182.9609274905
 11
264.0368405139
 21
192.4609274905
  0
LINE
  5
3AA
100
AcDbEntity
  8
0
100
AcDbLine
 62
7
  6
CONTINUOUS
 10
266.1812175261
 20
177.0109274905
 11
266.1812175261
 21
175.2109274905
  0
LINE
  5
3AB
100
AcDbEntity
  8
0
100
AcDbLine
 62
7
  6
CONTINUOUS
 10
266.5368405139
 20
175.2109274905
 11
266.5368405139
 21
176.9609274905
  0
LINE
  5
3AC
100
AcDbEntity
  8
0
100
AcDbLine
 62
7
  6
CONTINUOUS
 10
270.0368405139
 20
182.4609274905
 11
270.0368405139
 21
177.4609274905
  0
LINE
  5
3AD
100
AcDbEntity
  8
0
100
AcDbLine
 62
7
  6
CONTINUOUS
 10
272.0368405139
 20
150.9609274905
 11
272.0368405139
 21
146.7109274905
  0
LINE
  5
3AE
100
AcDbEntity
  8
0
100
AcDbLine
 62
7
  6
CONTINUOUS
 10
272.2868405139
 20
151.7109274905
 11
272.2868405139
 21
175.9609274905
  0
LINE
  5
3AF
100
AcDbEntity
  8
BEZUGSACHSEN
100
AcDbLine
 62
7
  6
CONTINUOUS
 10
258.8368405139
 20
124.4609274905
 11
260.0368405139
 21
125.6609274905
  0
LINE
  5
3B0
100
AcDbEntity
  8
RUNDUNGEN
100
AcDbLine
 62
7
  6
CONTINUOUS
 10
258.5368405139
 20
263.688628156
 11
258.2618405139
 21
263.688628156
  0
LINE
  5
3B1
100
AcDbEntity
  8
RUNDUNGEN
100
AcDbLine
 62
7
  6
CONTINUOUS
 10
245.8118405139
 20
263.688628156
 11
245.5368405139
 21
263.688628156
  0
LINE
  5
3B2
100
AcDbEntity
  8
0
100
AcDbLine
 62
7
  6
CONTINUOUS
 10
256.2618405139
 20
268.1421774905
 11
247.8118405139
 21
268.1421774905
  0
LINE
  5
3B3
100
AcDbEntity
  8
0
100
AcDbLine
 62
7
  6
CONTINUOUS
 10
98.1486193242
 20
48.2679123196
 11
98.1486193242
 21
39.8179123196
  0
LINE
  5
3B4
100
AcDbEntity
  8
BEZUGSACHSEN
100
AcDbLine
 62
7
  6
CONTINUOUS
 10
98.8074272131
 20
50.5429123196
 11
98.8074272131
 21
49.5093045996
  0
LINE
  5
3B5
100
AcDbEntity
  8
BEZUGSACHSEN
100
AcDbLine
 62
7
  6
CONTINUOUS
 10
98.8074272131
 20
38.5765200396
 11
98.8074272131
 21
37.5429123196
  0
LINE
  5
3B6
100
AcDbEntity
  8
RUNDUNGEN
100
AcDbLine
 62
7
  6
CONTINUOUS
 10
102.756494813
 20
50.5429123196
 11
102.756494813
 21
50.2679123196
  0
LINE
  5
3B7
100
AcDbEntity
  8
RUNDUNGEN
100
AcDbLine
 62
7
  6
CONTINUOUS
 10
102.756494813
 20
37.8179123196
 11
102.756494813
 21
37.5429123196
  0
LINE
  5
3B8
100
AcDbEntity
  8
0
100
AcDbLine
 62
7
  6
CONTINUOUS
 10
105.441298731
 20
35.5429123196
 11
105.441298731
 21
35.0429123196
  0
LINE
  5
3B9
100
AcDbEntity
  8
0
100
AcDbLine
 62
7
  6
CONTINUOUS
 10
107.5372294059
 20
36.2366188483
 11
107.5372294059
 21
35.8099676441
  0
LINE
  5
3BA
100
AcDbEntity
  8
0
100
AcDbLine
 62
7
  6
CONTINUOUS
 10
107.911835977
 20
36.3184291835
 11
107.911835977
 21
35.8917779793
  0
LINE
  5
3BB
100
AcDbEntity
  8
0
100
AcDbLine
 62
7
  6
CONTINUOUS
 10
108.191298731
 20
35.5429123196
 11
108.191298731
 21
35.0429123196
  0
LINE
  5
3BC
100
AcDbEntity
  8
0
100
AcDbLine
 62
7
  6
CONTINUOUS
 10
109.6691036161
 20
36.6721298038
 11
109.6691036161
 21
36.2454785996
  0
LINE
  5
3BD
100
AcDbEntity
  8
0
100
AcDbLine
 62
7
  6
CONTINUOUS
 10
109.691298731
 20
35.5429123196
 11
109.691298731
 21
35.0429123196
  0
LINE
  5
3BE
100
AcDbEntity
  8
0
100
AcDbLine
 62
7
  6
CONTINUOUS
 10
109.7848690334
 20
36.7274809035
 11
109.7848690334
 21
36.3008296994
  0
LINE
  5
3BF
100
AcDbEntity
  8
0
100
AcDbLine
 62
7
  6
CONTINUOUS
 10
109.8369264231
 20
51.9600683697
 11
109.8369264231
 21
51.5334171656
  0
LINE
  5
3C0
100
AcDbEntity
  8
0
100
AcDbLine
 62
7
  6
CONTINUOUS
 10
110.206301451
 20
36.8195175362
 11
110.206301451
 21
36.392866332
  0
LINE
  5
3C1
100
AcDbEntity
  8
0
100
AcDbLine
 62
7
  6
CONTINUOUS
 10
110.5223631148
 20
36.2755121104
 11
110.5223631148
 21
36.1912692488
  0
LINE
  5
3C2
100
AcDbEntity
  8
0
100
AcDbLine
 62
7
  6
CONTINUOUS
 10
110.5587943648
 20
36.8664293811
 11
110.5587943648
 21
36.4397781769
  0
LINE
  5
3C3
100
AcDbEntity
  8
0
100
AcDbLine
 62
7
  6
CONTINUOUS
 10
110.783803534
 20
36.3385724913
 11
110.783803534
 21
36.1581578769
  0
LINE
  5
3C4
100
AcDbEntity
  8
0
100
AcDbLine
 62
7
  6
CONTINUOUS
 10
110.8643693855
 20
51.2752538961
 11
110.8643693855
 21
51.7019051002
  0
LINE
  5
3C5
100
AcDbEntity
  8
0
100
AcDbLine
 62
7
  6
CONTINUOUS
 10
110.97238112
 20
35.8172031131
 11
110.97238112
 21
35.6280286181
  0
LINE
  5
3C6
100
AcDbEntity
  8
0
100
AcDbLine
 62
7
  6
CONTINUOUS
 10
110.9828255152
 20
36.8988953743
 11
110.9828255152
 21
36.4722441701
  0
LINE
  5
3C7
100
AcDbEntity
  8
0
100
AcDbLine
 62
7
  6
CONTINUOUS
 10
111.2104331494
 20
36.4042342759
 11
111.2104331494
 21
36.1310531722
  0
LINE
  5
3C8
100
AcDbEntity
  8
0
100
AcDbLine
 62
7
  6
CONTINUOUS
 10
111.2364694043
 20
37.0320512937
 11
111.2364694043
 21
36.6178447283
  0
LINE
  5
3C9
100
AcDbEntity
  8
0
100
AcDbLine
 62
7
  6
CONTINUOUS
 10
111.2664582249
 20
51.1828294339
 11
111.2664582249
 21
51.609480638
  0
LINE
  5
3CA
100
AcDbEntity
  8
0
100
AcDbLine
 62
7
  6
CONTINUOUS
 10
111.6435841622
 20
36.6033313425
 11
111.6435841622
 21
36.4962709085
  0
LINE
  5
3CB
100
AcDbEntity
  8
0
100
AcDbLine
 62
7
  6
CONTINUOUS
 10
111.6685470643
 20
51.0904049716
 11
111.6685470643
 21
51.5170561758
  0
LINE
  5
3CC
100
AcDbEntity
  8
0
100
AcDbLine
 62
7
  6
CONTINUOUS
 10
111.6883050412
 20
51.7432481157
 11
111.6883050412
 21
51.8358554486
  0
LINE
  5
3CD
100
AcDbEntity
  8
0
100
AcDbLine
 62
7
  6
CONTINUOUS
 10
111.7392509427
 20
51.6254942957
 11
111.7392509427
 21
51.7315376501
  0
LINE
  5
3CE
100
AcDbEntity
  8
0
100
AcDbLine
 62
7
  6
CONTINUOUS
 10
112.0903938806
 20
51.637387632
 11
112.0903938806
 21
51.7434309864
  0
LINE
  5
3CF
100
AcDbEntity
  8
0
100
AcDbLine
 62
7
  6
CONTINUOUS
 10
112.2822298184
 20
36.5805640254
 11
112.2822298184
 21
36.4853992178
  0
LINE
  5
3D0
100
AcDbEntity
  8
0
100
AcDbLine
 62
7
  6
CONTINUOUS
 10
112.3602894525
 20
37.0429123196
 11
112.3602894525
 21
36.6179123196
  0
LINE
  5
3D1
100
AcDbEntity
  8
0
100
AcDbLine
 62
7
  6
CONTINUOUS
 10
112.441298731
 20
35.5429123196
 11
112.441298731
 21
35.0429123196
  0
LINE
  5
3D2
100
AcDbEntity
  8
0
100
AcDbLine
 62
7
  6
CONTINUOUS
 10
112.4430249993
 20
51.0429123196
 11
112.4430249993
 21
51.4679123196
  0
LINE
  5
3D3
100
AcDbEntity
  8
0
100
AcDbLine
 62
7
  6
CONTINUOUS
 10
112.6320742692
 20
35.8036550038
 11
112.6320742692
 21
35.5429123196
  0
LINE
  5
3D4
100
AcDbEntity
  8
0
100
AcDbLine
 62
7
  6
CONTINUOUS
 10
112.7127820983
 20
37.0429123196
 11
112.7127820983
 21
36.6179123196
  0
LINE
  5
3D5
100
AcDbEntity
  8
RUNDUNGEN
100
AcDbLine
 62
7
  6
CONTINUOUS
 10
122.7941889444
 20
61.6637497605
 11
120.6815863571
 21
60.7940856154
  0
LINE
  5
3D6
100
AcDbEntity
  8
0
100
AcDbLine
 62
7
  6
CONTINUOUS
 10
112.8451138387
 20
51.0429123196
 11
112.8451138387
 21
51.4679123196
  0
LINE
  5
3D7
100
AcDbEntity
  8
0
100
AcDbLine
 62
7
  6
CONTINUOUS
 10
112.9858915484
 20
36.4944103979
 11
112.9858915484
 21
36.0677591937
  0
LINE
  5
3D8
100
AcDbEntity
  8
0
100
AcDbLine
 62
7
  6
CONTINUOUS
 10
113.2551773989
 20
37.0429123196
 11
113.2551773989
 21
36.6179123196
  0
LINE
  5
3D9
100
AcDbEntity
  8
0
100
AcDbLine
 62
7
  6
CONTINUOUS
 10
113.5061729908
 20
36.4877583172
 11
113.5061729908
 21
36.061107113
  0
LINE
  5
3DA
100
AcDbEntity
  8
0
100
AcDbLine
 62
7
  6
CONTINUOUS
 10
113.7287387798
 20
51.0429123196
 11
113.7287387798
 21
51.4679123196
  0
LINE
  5
3DB
100
AcDbEntity
  8
0
100
AcDbLine
 62
7
  6
CONTINUOUS
 10
113.8691104003
 20
37.0429123196
 11
113.8691104003
 21
36.6179123196
  0
LINE
  5
3DC
100
AcDbEntity
  8
0
100
AcDbLine
 62
7
  6
CONTINUOUS
 10
113.8847025932
 20
36.6179123196
 11
113.8847025932
 21
36.5948105667
  0
LINE
  5
3DD
100
AcDbEntity
  8
0
100
AcDbLine
 62
7
  6
CONTINUOUS
 10
113.9549161965
 20
36.4955520882
 11
113.9549161965
 21
36.0689008841
  0
LINE
  5
3DE
100
AcDbEntity
  8
0
100
AcDbLine
 62
7
  6
CONTINUOUS
 10
114.2241522466
 20
36.0105022087
 11
114.2241522466
 21
35.8570775121
  0
LINE
  5
3DF
100
AcDbEntity
  8
0
100
AcDbLine
 62
7
  6
CONTINUOUS
 10
114.2710276925
 20
37.0429123196
 11
114.2710276925
 21
36.6179123196
  0
LINE
  5
3E0
100
AcDbEntity
  8
0
100
AcDbLine
 62
7
  6
CONTINUOUS
 10
114.3321215164
 20
36.5074866719
 11
114.3321215164
 21
36.0911405623
  0
LINE
  5
3E1
100
AcDbEntity
  8
0
100
AcDbLine
 62
7
  6
CONTINUOUS
 10
114.6377887846
 20
36.4965898255
 11
114.6377887846
 21
36.1278261537
  0
LINE
  5
3E2
100
AcDbEntity
  8
0
100
AcDbLine
 62
7
  6
CONTINUOUS
 10
114.7236443301
 20
36.4935291291
 11
114.7236443301
 21
36.3269906989
  0
LINE
  5
3E3
100
AcDbEntity
  8
0
100
AcDbLine
 62
7
  6
CONTINUOUS
 10
114.744483553
 20
37.0429123196
 11
114.744483553
 21
36.6179123196
  0
LINE
  5
3E4
100
AcDbEntity
  8
0
100
AcDbLine
 62
7
  6
CONTINUOUS
 10
114.8281428875
 20
51.0429123196
 11
114.8281428875
 21
51.4679123196
  0
LINE
  5
3E5
100
AcDbEntity
  8
0
100
AcDbLine
 62
7
  6
CONTINUOUS
 10
115.0045992752
 20
36.4835132615
 11
115.0045992752
 21
36.388348454
  0
LINE
  5
3E6
100
AcDbEntity
  8
0
100
AcDbLine
 62
7
  6
CONTINUOUS
 10
115.0527495541
 20
37.0429123196
 11
115.0527495541
 21
36.6179123196
  0
LINE
  5
3E7
100
AcDbEntity
  8
0
100
AcDbLine
 62
7
  6
CONTINUOUS
 10
115.0592212022
 20
36.2930057994
 11
115.0592212022
 21
36.2198627863
  0
LINE
  5
3E8
100
AcDbEntity
  8
0
100
AcDbLine
 62
7
  6
CONTINUOUS
 10
115.3857276104
 20
37.0429123196
 11
115.3857276104
 21
36.6179123196
  0
LINE
  5
3E9
100
AcDbEntity
  8
0
100
AcDbLine
 62
7
  6
CONTINUOUS
 10
115.5495928557
 20
36.4640845822
 11
115.5495928557
 21
36.3570241482
  0
LINE
  5
3EA
100
AcDbEntity
  8
0
100
AcDbLine
 62
7
  6
CONTINUOUS
 10
115.5535156031
 20
37.0429123196
 11
115.5535156031
 21
36.6179123196
  0
LINE
  5
3EB
100
AcDbEntity
  8
0
100
AcDbLine
 62
7
  6
CONTINUOUS
 10
115.7030244447
 20
51.0429123196
 11
115.7030244447
 21
51.4679123196
  0
LINE
  5
3EC
100
AcDbEntity
  8
0
100
AcDbLine
 62
7
  6
CONTINUOUS
 10
115.8357453079
 20
36.4538834267
 11
115.8357453079
 21
36.2992406229
  0
LINE
  5
3ED
100
AcDbEntity
  8
0
100
AcDbLine
 62
7
  6
CONTINUOUS
 10
109.6691036161
 20
36.2454785996
 11
109.7185282625
 21
36.1961342723
  0
LINE
  5
3EE
100
AcDbEntity
  8
0
100
AcDbLine
 62
7
  6
CONTINUOUS
 10
115.8851697174
 20
36.4521214775
 11
115.8851697174
 21
36.2498962359
  0
LINE
  5
3EF
100
AcDbEntity
  8
0
100
AcDbLine
 62
7
  6
CONTINUOUS
 10
116.0124819499
 20
51.7113911098
 11
116.0124819499
 21
51.8762735057
  0
LINE
  5
3F0
100
AcDbEntity
  8
0
100
AcDbLine
 62
7
  6
CONTINUOUS
 10
116.0541673826
 20
51.0429123196
 11
116.0541673826
 21
51.4679123196
  0
LINE
  5
3F1
100
AcDbEntity
  8
RUNDUNGEN
100
AcDbLine
 62
7
  6
CONTINUOUS
 10
116.8986193242
 20
33.1159977834
 11
116.8986193242
 21
36.3590071948
  0
LINE
  5
3F2
100
AcDbEntity
  8
RUNDUNGEN
100
AcDbLine
 62
7
  6
CONTINUOUS
 10
116.8986193242
 20
51.7268174444
 11
116.8986193242
 21
54.9698268558
  0
LINE
  5
3F3
100
AcDbEntity
  8
0
100
AcDbLine
 62
7
  6
CONTINUOUS
 10
117.0805277447
 20
36.9075326084
 11
117.0805277447
 21
36.4808814042
  0
LINE
  5
3F4
100
AcDbEntity
  8
0
100
AcDbLine
 62
7
  6
CONTINUOUS
 10
117.350191858
 20
51.4679123196
 11
117.350191858
 21
51.5327883848
  0
LINE
  5
3F5
100
AcDbEntity
  8
0
100
AcDbLine
 62
7
  6
CONTINUOUS
 10
123.2310512802
 20
56.5423769379
 11
118.7211482044
 21
51.4679123196
  0
LINE
  5
3F6
100
AcDbEntity
  8
0
100
AcDbLine
 62
7
  6
CONTINUOUS
 10
115.8851697174
 20
36.2498962359
 11
115.8357453079
 21
36.2992406229
  0
LINE
  5
3F7
100
AcDbEntity
  8
0
100
AcDbLine
 62
7
  6
CONTINUOUS
 10
119.9762554518
 20
51.0429123196
 11
119.9762554518
 21
51.4679123196
  0
LINE
  5
3F8
100
AcDbEntity
  8
0
100
AcDbLine
 62
7
  6
CONTINUOUS
 10
119.8751226229
 20
36.9886351168
 11
120.6259027447
 21
36.1438703625
  0
LINE
  5
3F9
100
AcDbEntity
  8
RUNDUNGEN
100
AcDbLine
 62
7
  6
CONTINUOUS
 10
123.6486193242
 20
58.5429123196
 11
123.6486193242
 21
61.26290031
  0
LINE
  5
3FA
100
AcDbEntity
  8
BEZUGSACHSEN
100
AcDbLine
 62
7
  6
CONTINUOUS
 10
130.2204160939
 20
56.0429123196
 11
127.3336647479
 21
51.0429123196
  0
LINE
  5
3FB
100
AcDbEntity
  8
RUNDUNGEN
100
AcDbLine
 62
7
  6
CONTINUOUS
 10
116.0441041383
 20
36.1317580252
 11
116.0903916016
 21
36.1824983291
  0
LINE
  5
3FC
100
AcDbEntity
  8
0
100
AcDbLine
 62
7
  6
CONTINUOUS
 10
110.5223631148
 20
36.1912692488
 11
110.4261128229
 21
36.2303873226
  0
LINE
  5
3FD
100
AcDbEntity
  8
0
100
AcDbLine
 62
7
  6
CONTINUOUS
 10
115.0319100633
 20
36.3041055924
 11
115.1281604381
 21
36.2649875155
  0
LINE
  5
3FE
100
AcDbEntity
  8
RUNDUNGEN
100
AcDbLine
 62
7
  6
CONTINUOUS
 10
127.2186193242
 20
25.8155800316
 11
127.2186193242
 21
29.0381857072
  0
LINE
  5
3FF
100
AcDbEntity
  8
0
100
AcDbLine
 62
7
  6
CONTINUOUS
 10
110.4261128229
 20
36.2303873226
 11
110.4950523267
 21
36.2755121104
  0
LINE
  5
400
100
AcDbEntity
  8
0
100
AcDbLine
 62
7
  6
CONTINUOUS
 10
138.8106809055
 20
52.7239998895
 11
139.0310634604
 21
52.8024321661
  0
LINE
  5
401
100
AcDbEntity
  8
0
100
AcDbLine
 62
7
  6
CONTINUOUS
 10
109.7185282625
 20
36.1961342723
 11
110.0046804053
 21
36.13835069
  0
LINE
  5
402
100
AcDbEntity
  8
BEZUGSACHSEN
100
AcDbLine
 62
7
  6
CONTINUOUS
 10
127.3336647479
 20
37.0429123196
 11
130.2204160939
 21
32.0429123196
  0
LINE
  5
403
100
AcDbEntity
  8
0
100
AcDbLine
 62
7
  6
CONTINUOUS
 10
139.0310634604
 20
52.8024321661
 11
139.2136164645
 21
52.9931093935
  0
LINE
  5
404
100
AcDbEntity
  8
0
100
AcDbLine
 62
7
  6
CONTINUOUS
 10
120.8753352242
 20
36.3655521342
 11
120.6259027447
 21
36.1438703625
  0
LINE
  5
405
100
AcDbEntity
  8
0
100
AcDbLine
 62
7
  6
CONTINUOUS
 10
138.9106682397
 20
53.0864258279
 11
138.793570468
 21
52.9944684894
  0
LINE
  5
406
100
AcDbEntity
  8
0
100
AcDbLine
 62
7
  6
CONTINUOUS
 10
115.1281604381
 20
36.2649875155
 11
115.0592212022
 21
36.2198627863
  0
LINE
  5
407
100
AcDbEntity
  8
0
100
AcDbLine
 62
7
  6
CONTINUOUS
 10
141.1658601401
 20
51.2581435364
 11
141.0037867291
 21
51.1579093706
  0
LINE
  5
408
100
AcDbEntity
  8
0
100
AcDbLine
 62
7
  6
CONTINUOUS
 10
109.7848690334
 20
36.7274809035
 11
109.6691036161
 21
36.6721298038
  0
LINE
  5
409
100
AcDbEntity
  8
0
100
AcDbLine
 62
7
  6
CONTINUOUS
 10
109.7848690334
 20
36.3008296994
 11
109.6691036161
 21
36.2454785996
  0
LINE
  5
40A
100
AcDbEntity
  8
0
100
AcDbLine
 62
7
  6
CONTINUOUS
 10
163.1572298311
 20
35.9439066581
 11
163.4902081554
 21
35.9914638698
  0
LINE
  5
40B
100
AcDbEntity
  8
0
100
AcDbLine
 62
7
  6
CONTINUOUS
 10
160.001708947
 20
36.2120736158
 11
159.6687308492
 21
36.1645163441
  0
LINE
  5
40C
100
AcDbEntity
  8
0
100
AcDbLine
 62
7
  6
CONTINUOUS
 10
159.8559876614
 20
36.6179123196
 11
159.6687308492
 21
36.5911675482
  0
LINE
  5
40D
100
AcDbEntity
  8
0
100
AcDbLine
 62
7
  6
CONTINUOUS
 10
162.876275154
 20
36.0052643547
 11
162.6148350663
 21
35.9721529946
  0
LINE
  5
40E
100
AcDbEntity
  8
0
100
AcDbLine
 62
7
  6
CONTINUOUS
 10
162.3430000665
 20
35.7007590096
 11
161.9631963232
 21
35.6634279914
  0
LINE
  5
40F
100
AcDbEntity
  8
0
100
AcDbLine
 62
7
  6
CONTINUOUS
 10
160.2826638921
 20
36.1507158607
 11
160.6624679448
 21
36.1880468219
  0
LINE
  5
410
100
AcDbEntity
  8
0
100
AcDbLine
 62
7
  6
CONTINUOUS
 10
160.3815129997
 20
36.2494045769
 11
160.001708947
 21
36.2120736158
  0
LINE
  5
411
100
AcDbEntity
  8
0
100
AcDbLine
 62
7
  6
CONTINUOUS
 10
162.6590620812
 20
35.9023560373
 11
163.1572298311
 21
35.9439066581
  0
LINE
  5
412
100
AcDbEntity
  8
0
100
AcDbLine
 62
7
  6
CONTINUOUS
 10
162.5055911294
 20
35.6351816563
 11
162.8138572134
 21
35.6580667073
  0
LINE
  5
413
100
AcDbEntity
  8
0
100
AcDbLine
 62
7
  6
CONTINUOUS
 10
162.6148350663
 20
35.9721529946
 11
162.3065691674
 21
35.9492678822
  0
LINE
  5
414
100
AcDbEntity
  8
0
100
AcDbLine
 62
7
  6
CONTINUOUS
 10
165.4594915037
 20
35.6215302237
 11
165.9329470325
 21
35.6384086163
  0
LINE
  5
415
100
AcDbEntity
  8
0
100
AcDbLine
 62
7
  6
CONTINUOUS
 10
162.8138572134
 20
35.6580667073
 11
164.9444072591
 21
35.7340194803
  0
LINE
  5
416
100
AcDbEntity
  8
0
100
AcDbLine
 62
7
  6
CONTINUOUS
 10
165.417862788
 20
35.750897873
 11
166.3647741773
 21
35.7846546702
  0
LINE
  5
417
100
AcDbEntity
  8
0
100
AcDbLine
 62
7
  6
CONTINUOUS
 10
166.1306448778
 20
35.8357861718
 11
165.1837334884
 21
35.8020293746
  0
LINE
  5
418
100
AcDbEntity
  8
0
100
AcDbLine
 62
7
  6
CONTINUOUS
 10
164.7102779596
 20
35.7851509819
 11
162.3430000665
 21
35.7007590096
  0
LINE
  5
419
100
AcDbEntity
  8
0
100
AcDbLine
 62
7
  6
CONTINUOUS
 10
164.8091272523
 20
35.8838396367
 11
164.3356717234
 21
35.866961244
  0
LINE
  5
41A
100
AcDbEntity
  8
0
100
AcDbLine
 62
7
  6
CONTINUOUS
 10
162.1856065523
 20
35.8854776446
 11
162.6590620812
 21
35.9023560373
  0
LINE
  5
41B
100
AcDbEntity
  8
BEZUGSACHSEN
100
AcDbLine
 62
7
  6
CONTINUOUS
 10
130.2204160939
 20
32.0429123196
 11
144.0768225544
 21
32.0429123196
  0
LINE
  5
41C
100
AcDbEntity
  8
0
100
AcDbLine
 62
7
  6
CONTINUOUS
 10
110.3844843751
 20
36.1010197318
 11
110.9294782043
 21
36.0696954171
  0
LINE
  5
41D
100
AcDbEntity
  8
0
100
AcDbLine
 62
7
  6
CONTINUOUS
 10
111.2104331494
 20
36.1310531722
 11
110.783803534
 21
36.1581578769
  0
LINE
  5
41E
100
AcDbEntity
  8
0
100
AcDbLine
 62
7
  6
CONTINUOUS
 10
110.97238112
 20
35.6280286181
 11
108.1979881868
 21
35.8339944117
  0
LINE
  5
41F
100
AcDbEntity
  8
0
100
AcDbLine
 62
7
  6
CONTINUOUS
 10
112.1804366297
 20
35.5429123196
 11
111.3990108024
 21
35.600923928
  0
LINE
  5
420
100
AcDbEntity
  8
0
100
AcDbLine
 62
7
  6
CONTINUOUS
 10
114.7236443301
 20
36.3269906989
 11
115.0319100633
 21
36.3041055924
  0
LINE
  5
421
100
AcDbEntity
  8
0
100
AcDbLine
 62
7
  6
CONTINUOUS
 10
107.5372294059
 20
35.8099676441
 11
111.0891122042
 21
35.5429123196
  0
LINE
  5
422
100
AcDbEntity
  8
0
100
AcDbLine
 62
7
  6
CONTINUOUS
 10
110.0046804053
 20
36.13835069
 11
110.3844843751
 21
36.1010197318
  0
LINE
  5
423
100
AcDbEntity
  8
0
100
AcDbLine
 62
7
  6
CONTINUOUS
 10
110.783803534
 20
36.1581578769
 11
110.5223631148
 21
36.1912692488
  0
LINE
  5
424
100
AcDbEntity
  8
0
100
AcDbLine
 62
7
  6
CONTINUOUS
 10
115.8357453079
 20
36.2992406229
 11
115.5495928557
 21
36.3570241482
  0
LWPOLYLINE
  5
425
100
AcDbEntity
  8
RUNDUNGEN
100
AcDbPolyline
 62
7
  6
CONTINUOUS
 90
10
 70
0
 10
116.0396062633
 20
51.9585696363
 10
115.9111902531
 20
52.0760264605
 10
115.7730497221
 20
52.181874847
 10
115.6262306734
 20
52.275313398
 10
115.4718448192
 20
52.3556346837
 10
115.3110611286
 20
52.4222306131
 10
115.1450969868
 20
52.4745970202
 10
114.9752090786
 20
52.5123374563
 10
114.8026837874
 20
52.5351662353
 10
114.6288273921
 20
52.5429105954
  0
LINE
  5
426
100
AcDbEntity
  8
RUNDUNGEN
100
AcDbLine
 62
7
  6
CONTINUOUS
 10
116.0903304672
 20
51.9033396612
 11
116.0396062633
 21
51.9585696363
  0
LINE
  5
427
100
AcDbEntity
  8
0
100
AcDbLine
 62
7
  6
CONTINUOUS
 10
138.9830298924
 20
53.2378869267
 11
138.9106682397
 21
53.0864258279
  0
LINE
  5
428
100
AcDbEntity
  8
0
100
AcDbLine
 62
7
  6
CONTINUOUS
 10
139.2136164645
 20
52.9931093935
 11
139.2859781172
 21
53.1445704923
  0
LINE
  5
429
100
AcDbEntity
  8
0
100
AcDbLine
 62
7
  6
CONTINUOUS
 10
141.3033689448
 20
51.4286526402
 11
141.1658601401
 21
51.2581435364
  0
LINE
  5
42A
100
AcDbEntity
  8
0
100
AcDbLine
 62
7
  6
CONTINUOUS
 10
143.3020356027
 20
52.1194547321
 11
142.291387749
 21
51.0429123196
  0
LINE
  5
42B
100
AcDbEntity
  8
0
100
AcDbLine
 62
7
  6
CONTINUOUS
 10
142.7200174373
 20
51.0429123196
 11
143.3114303872
 21
51.6728855804
  0
LINE
  5
42C
100
AcDbEntity
  8
0
100
AcDbLine
 62
7
  6
CONTINUOUS
 10
141.3834276455
 20
51.0429123196
 11
141.4261927857
 21
51.0772775709
  0
LINE
  5
42D
100
AcDbEntity
  8
0
100
AcDbLine
 62
7
  6
CONTINUOUS
 10
115.7694045784
 20
36.1945451943
 11
115.8851697174
 21
36.2498962359
  0
LINE
  5
42E
100
AcDbEntity
  8
RUNDUNGEN
100
AcDbLine
 62
7
  6
CONTINUOUS
 10
158.8691716829
 20
52.0754546847
 11
158.8667562645
 21
52.0746305059
  0
LWPOLYLINE
  5
42F
100
AcDbEntity
  8
RUNDUNGEN
100
AcDbPolyline
 62
7
  6
CONTINUOUS
 90
3
 70
0
 10
158.8667584145
 20
52.0746312406
 10
158.8343471897
 20
52.06381831
 10
158.7580988883
 20
52.0400484378
  0
LINE
  5
430
100
AcDbEntity
  8
RUNDUNGEN
100
AcDbLine
 62
7
  6
CONTINUOUS
 10
158.7580988883
 20
52.0400484378
 11
158.660855509
 21
52.0122132758
  0
LINE
  5
431
100
AcDbEntity
  8
0
100
AcDbLine
 62
7
  6
CONTINUOUS
 10
114.5714480551
 20
36.0231307251
 11
114.9954789687
 21
36.0555966587
  0
LINE
  5
432
100
AcDbEntity
  8
0
100
AcDbLine
 62
7
  6
CONTINUOUS
 10
114.3321215164
 20
36.0911405623
 11
113.9549161965
 21
36.0689008841
  0
LINE
  5
433
100
AcDbEntity
  8
0
100
AcDbLine
 62
7
  6
CONTINUOUS
 10
114.2231979017
 20
36.5113697304
 11
113.9549161965
 21
36.4955520882
  0
LINE
  5
434
100
AcDbEntity
  8
0
100
AcDbLine
 62
7
  6
CONTINUOUS
 10
111.2221517446
 20
36.4042342759
 11
111.5993569816
 21
36.4264739571
  0
LWPOLYLINE
  5
435
100
AcDbEntity
  8
RUNDUNGEN
100
AcDbPolyline
 62
7
  6
CONTINUOUS
 90
10
 70
0
 10
114.6287846222
 20
35.5429140137
 10
114.8033506286
 20
35.5507173871
 10
114.9765694558
 20
35.5737283163
 10
115.1471188281
 20
35.6117712129
 10
115.3136967883
 20
35.6645557245
 10
115.4750316867
 20
35.7316789498
 10
115.6298919596
 20
35.8126285504
 10
115.7770954477
 20
35.9067866411
 10
115.9155184114
 20
36.0134344915
 10
116.0441041383
 20
36.1317580252
  0
LINE
  5
436
100
AcDbEntity
  8
0
100
AcDbLine
 62
7
  6
CONTINUOUS
 10
113.9106890988
 20
35.9991039297
 11
114.5714480551
 21
36.0231307251
  0
LINE
  5
437
100
AcDbEntity
  8
0
100
AcDbLine
 62
7
  6
CONTINUOUS
 10
111.6435841622
 20
36.4962709085
 11
110.9828255152
 21
36.4722441701
  0
LINE
  5
438
100
AcDbEntity
  8
0
100
AcDbLine
 62
7
  6
CONTINUOUS
 10
111.2364694043
 20
36.9081184626
 11
110.9828255152
 21
36.8988953743
  0
LINE
  5
439
100
AcDbEntity
  8
0
100
AcDbLine
 62
7
  6
CONTINUOUS
 10
165.524507807
 20
36.0282986334
 11
166.1163272181
 21
36.0493966242
  0
LINE
  5
43A
100
AcDbEntity
  8
0
100
AcDbLine
 62
7
  6
CONTINUOUS
 10
162.3065691674
 20
35.9492678822
 11
162.069841403
 21
35.9408286859
  0
LINE
  5
43B
100
AcDbEntity
  8
0
100
AcDbLine
 62
7
  6
CONTINUOUS
 10
166.1306448778
 20
36.2624373759
 11
166.1163272181
 21
36.2619269603
  0
LINE
  5
43C
100
AcDbEntity
  8
0
100
AcDbLine
 62
7
  6
CONTINUOUS
 10
164.3356717234
 20
36.1984477086
 11
163.6111705025
 21
36.1726196945
  0
LINE
  5
43D
100
AcDbEntity
  8
0
100
AcDbLine
 62
7
  6
CONTINUOUS
 10
162.2727365481
 20
36.2573475142
 11
164.1665589952
 21
36.3248610967
  0
LINE
  5
43E
100
AcDbEntity
  8
0
100
AcDbLine
 62
7
  6
CONTINUOUS
 10
164.5242493747
 20
36.3970905307
 11
161.4467881055
 21
36.2873809664
  0
LINE
  5
43F
100
AcDbEntity
  8
0
100
AcDbLine
 62
7
  6
CONTINUOUS
 10
157.6968489945
 20
36.4748792908
 11
158.2886684885
 21
36.4959772847
  0
LINE
  5
440
100
AcDbEntity
  8
0
100
AcDbLine
 62
7
  6
CONTINUOUS
 10
164.5242493747
 20
36.8237417348
 11
162.7201558221
 21
36.7594269311
  0
LWPOLYLINE
  5
441
100
AcDbEntity
  8
RUNDUNGEN
100
AcDbPolyline
 62
7
  6
CONTINUOUS
 90
6
 70
0
 10
114.7609285247
 20
35.8997466019
 10
114.8358142867
 20
35.9011113187
 10
115.0278026291
 20
35.9170744504
 10
115.2176137319
 20
35.9508727931
 10
115.4034933049
 20
36.0021723652
 10
115.4280897782
 20
36.010379025
  0
LINE
  5
442
100
AcDbEntity
  8
0
100
AcDbLine
 62
7
  6
CONTINUOUS
 10
113.9549161965
 20
36.0689008841
 11
113.5061729908
 21
36.061107113
  0
LINE
  5
443
100
AcDbEntity
  8
0
100
AcDbLine
 62
7
  6
CONTINUOUS
 10
113.9549161965
 20
36.4955520882
 11
113.5061729908
 21
36.4877583172
  0
LINE
  5
444
100
AcDbEntity
  8
0
100
AcDbLine
 62
7
  6
CONTINUOUS
 10
113.343581928
 20
35.9955297598
 11
113.9106890988
 21
35.9991039297
  0
LINE
  5
445
100
AcDbEntity
  8
0
100
AcDbLine
 62
7
  6
CONTINUOUS
 10
162.069841403
 20
35.9408286859
 11
161.6679238428
 21
35.9383962034
  0
LINE
  5
446
100
AcDbEntity
  8
0
100
AcDbLine
 62
7
  6
CONTINUOUS
 10
161.5001352313
 20
35.8848322748
 11
162.1856065523
 21
35.8854776446
  0
LINE
  5
447
100
AcDbEntity
  8
0
100
AcDbLine
 62
7
  6
CONTINUOUS
 10
112.441298731
 20
35.0429123196
 11
109.6913859568
 21
35.0429123196
  0
LINE
  5
448
100
AcDbEntity
  8
0
100
AcDbLine
 62
7
  6
CONTINUOUS
 10
108.191298731
 20
35.0429123196
 11
105.4413859568
 21
35.0429123196
  0
LINE
  5
449
100
AcDbEntity
  8
RUNDUNGEN
100
AcDbLine
 62
7
  6
CONTINUOUS
 10
162.0043484917
 20
35.5429123196
 11
159.670399484
 21
35.5429123196
  0
LINE
  5
44A
100
AcDbEntity
  8
RUNDUNGEN
100
AcDbLine
 62
7
  6
CONTINUOUS
 10
100.8074297648
 20
35.5429123196
 11
111.0891122042
 21
35.5429123196
  0
LINE
  5
44B
100
AcDbEntity
  8
0
100
AcDbLine
 62
7
  6
CONTINUOUS
 10
111.0891122042
 20
35.5429123196
 11
112.6320742692
 21
35.5429123196
  0
LINE
  5
44C
100
AcDbEntity
  8
RUNDUNGEN
100
AcDbLine
 62
7
  6
CONTINUOUS
 10
112.5713927504
 20
35.5429123196
 11
114.6268391285
 21
35.5429123196
  0
LINE
  5
44D
100
AcDbEntity
  8
0
100
AcDbLine
 62
7
  6
CONTINUOUS
 10
162.0043484917
 20
35.5429123196
 11
162.5251062133
 21
35.5429123196
  0
LINE
  5
44E
100
AcDbEntity
  8
RUNDUNGEN
100
AcDbLine
 62
7
  6
CONTINUOUS
 10
162.5251062133
 20
35.5429123196
 11
173.4898088832
 21
35.5429123196
  0
LINE
  5
44F
100
AcDbEntity
  8
RUNDUNGEN
100
AcDbLine
 62
7
  6
CONTINUOUS
 10
114.2241522466
 20
35.8997386823
 11
114.7609285335
 21
35.8997386823
  0
LINE
  5
450
100
AcDbEntity
  8
0
100
AcDbLine
 62
7
  6
CONTINUOUS
 10
162.7201558221
 20
36.6179123196
 11
156.0111193242
 21
36.6179123196
  0
LINE
  5
451
100
AcDbEntity
  8
0
100
AcDbLine
 62
7
  6
CONTINUOUS
 10
115.5535156031
 20
36.6179123196
 11
111.2364694043
 21
36.6179123196
  0
LINE
  5
452
100
AcDbEntity
  8
RUNDUNGEN
100
AcDbLine
 62
7
  6
CONTINUOUS
 10
103.2565240799
 20
37.0429123196
 11
171.0398490444
 21
37.0429123196
  0
LINE
  5
453
100
AcDbEntity
  8
RUNDUNGEN
100
AcDbLine
 62
7
  6
CONTINUOUS
 10
159.53631004
 20
35.8997386823
 11
160.2773049153
 21
35.8995422781
  0
LINE
  5
454
100
AcDbEntity
  8
0
100
AcDbLine
 62
7
  6
CONTINUOUS
 10
114.2241522466
 20
35.8570775121
 11
107.911835977
 21
35.8917779793
  0
LINE
  5
455
100
AcDbEntity
  8
0
100
AcDbLine
 62
7
  6
CONTINUOUS
 10
109.6694515297
 20
36.3087671073
 11
107.911835977
 21
36.3184291835
  0
LINE
  5
456
100
AcDbEntity
  8
0
100
AcDbLine
 62
7
  6
CONTINUOUS
 10
112.3355272971
 20
35.8054497807
 11
113.9431973015
 21
35.795719757
  0
LINE
  5
457
100
AcDbEntity
  8
0
100
AcDbLine
 62
7
  6
CONTINUOUS
 10
108.1979881868
 20
35.8339944117
 11
111.8152459887
 21
35.8121018906
  0
LINE
  5
458
100
AcDbEntity
  8
0
100
AcDbLine
 62
7
  6
CONTINUOUS
 10
111.5993569816
 20
36.4264739571
 11
112.0012748733
 21
36.4240414627
  0
LINE
  5
459
100
AcDbEntity
  8
RUNDUNGEN
100
AcDbLine
 62
7
  6
CONTINUOUS
 10
160.2773049153
 20
35.8995422781
 11
160.3863704081
 21
35.898867296
  0
LINE
  5
45A
100
AcDbEntity
  8
0
100
AcDbLine
 62
7
  6
CONTINUOUS
 10
157.5954014219
 20
36.3166198767
 11
159.1783592372
 21
36.3016777074
  0
LINE
  5
45B
100
AcDbEntity
  8
0
100
AcDbLine
 62
7
  6
CONTINUOUS
 10
158.9442299377
 20
36.352809209
 11
157.3612722564
 21
36.367751349
  0
LINE
  5
45C
100
AcDbEntity
  8
0
100
AcDbLine
 62
7
  6
CONTINUOUS
 10
113.5061729908
 20
36.061107113
 11
112.9858915484
 21
36.0677591937
  0
LINE
  5
45D
100
AcDbEntity
  8
0
100
AcDbLine
 62
7
  6
CONTINUOUS
 10
113.5061729908
 20
36.4877583172
 11
112.9858915484
 21
36.4944103979
  0
LWPOLYLINE
  5
45E
100
AcDbEntity
  8
RUNDUNGEN
100
AcDbPolyline
 62
7
  6
CONTINUOUS
 90
4
 70
0
 10
160.3863704081
 20
35.898867296
 10
160.5994231432
 20
35.8961439463
 10
160.7027743638
 20
35.8941564995
 10
160.8035865294
 20
35.8917698145
  0
LINE
  5
45F
100
AcDbEntity
  8
0
100
AcDbLine
 62
7
  6
CONTINUOUS
 10
112.7049366034
 20
36.0064014386
 11
113.343581928
 21
35.9955297598
  0
LINE
  5
460
100
AcDbEntity
  8
0
100
AcDbLine
 62
7
  6
CONTINUOUS
 10
112.2822298184
 20
36.4853992178
 11
111.6435841622
 21
36.4962709085
  0
LINE
  5
461
100
AcDbEntity
  8
0
100
AcDbLine
 62
7
  6
CONTINUOUS
 10
161.6679238428
 20
35.9383962034
 11
161.2191805542
 21
35.9461899714
  0
LINE
  5
462
100
AcDbEntity
  8
0
100
AcDbLine
 62
7
  6
CONTINUOUS
 10
161.4467881055
 20
36.3688880903
 11
161.2191805542
 21
36.3728411756
  0
LINE
  5
463
100
AcDbEntity
  8
0
100
AcDbLine
 62
7
  6
CONTINUOUS
 10
160.8862024564
 20
35.8986326997
 11
161.5001352313
 21
35.8848322748
  0
LWPOLYLINE
  5
464
100
AcDbEntity
  8
RUNDUNGEN
100
AcDbPolyline
 62
7
  6
CONTINUOUS
 90
3
 70
0
 10
160.8035865294
 20
35.8917698145
 10
160.9015977928
 20
35.8889922903
 10
160.9965657054
 20
35.8858599489
  0
LINE
  5
465
100
AcDbEntity
  8
0
100
AcDbLine
 62
7
  6
CONTINUOUS
 10
110.9294782043
 20
36.0696954171
 11
112.7049366034
 21
36.0064014386
  0
LINE
  5
466
100
AcDbEntity
  8
0
100
AcDbLine
 62
7
  6
CONTINUOUS
 10
112.9858915484
 20
36.0677591937
 11
111.2104331494
 21
36.1310531722
  0
LINE
  5
467
100
AcDbEntity
  8
0
100
AcDbLine
 62
7
  6
CONTINUOUS
 10
112.9858915484
 20
36.4944103979
 11
112.2834437865
 21
36.51945222
  0
LINE
  5
468
100
AcDbEntity
  8
0
100
AcDbLine
 62
7
  6
CONTINUOUS
 10
111.2364694043
 20
36.6178447283
 11
116.7995725317
 21
36.4195235906
  0
LINE
  5
469
100
AcDbEntity
  8
0
100
AcDbLine
 62
7
  6
CONTINUOUS
 10
117.0805277447
 20
36.4808814042
 11
114.5948858865
 21
36.5694929776
  0
LINE
  5
46A
100
AcDbEntity
  8
0
100
AcDbLine
 62
7
  6
CONTINUOUS
 10
113.8847025932
 20
36.5948105667
 11
113.2551539153
 21
36.6172535822
  0
LINE
  5
46B
100
AcDbEntity
  8
0
100
AcDbLine
 62
7
  6
CONTINUOUS
 10
117.0805277447
 20
36.9075326084
 11
115.5506329121
 21
36.962118933
  0
LWPOLYLINE
  5
46C
100
AcDbEntity
  8
RUNDUNGEN
100
AcDbPolyline
 62
7
  6
CONTINUOUS
 90
6
 70
0
 10
160.9965657054
 20
35.8858599489
 10
161.0881814211
 20
35.8824076614
 10
161.1761459913
 20
35.8786604881
 10
161.2603051709
 20
35.8746332747
 10
161.340511192
 20
35.8703610304
 10
161.4165117117
 20
35.8658880604
  0
LINE
  5
46D
100
AcDbEntity
  8
0
100
AcDbLine
 62
7
  6
CONTINUOUS
 10
161.774568964
 20
36.2157968993
 11
162.3169637288
 21
36.1875505628
  0
LINE
  5
46E
100
AcDbEntity
  8
0
100
AcDbLine
 62
7
  6
CONTINUOUS
 10
115.5495928557
 20
36.3570241482
 11
115.0045992752
 21
36.388348454
  0
LINE
  5
46F
100
AcDbEntity
  8
0
100
AcDbLine
 62
7
  6
CONTINUOUS
 10
161.2191805542
 20
35.9461899714
 11
160.8419753173
 21
35.9684296526
  0
LINE
  5
470
100
AcDbEntity
  8
0
100
AcDbLine
 62
7
  6
CONTINUOUS
 10
161.2191805542
 20
36.3728411756
 11
160.8419753173
 21
36.3950808568
  0
LWPOLYLINE
  5
471
100
AcDbEntity
  8
RUNDUNGEN
100
AcDbPolyline
 62
7
  6
CONTINUOUS
 90
4
 70
0
 10
161.4165117117
 20
35.8658880604
 10
161.4880938552
 20
35.8612509924
 10
161.5551236005
 20
35.8564766569
 10
161.6174792039
 20
35.8516018003
  0
LINE
  5
472
100
AcDbEntity
  8
0
100
AcDbLine
 62
7
  6
CONTINUOUS
 10
160.2969814792
 20
35.9371054057
 11
160.8862024564
 21
35.8986326997
  0
LINE
  5
473
100
AcDbEntity
  8
0
100
AcDbLine
 62
7
  6
CONTINUOUS
 10
162.8619574943
 20
36.2188748071
 11
162.2727365481
 21
36.2573475142
  0
LWPOLYLINE
  5
474
100
AcDbEntity
  8
RUNDUNGEN
100
AcDbPolyline
 62
7
  6
CONTINUOUS
 90
7
 70
0
 10
161.6174792039
 20
35.8516018003
 10
161.6749964322
 20
35.8466810312
 10
161.7275487179
 20
35.8417682658
 10
161.7750610325
 20
35.8369140194
 10
161.8174422695
 20
35.8321739811
 10
161.854608666
 20
35.8276165217
 10
161.8669460106
 20
35.8259548598
  0
LINE
  5
475
100
AcDbEntity
  8
0
100
AcDbLine
 62
7
  6
CONTINUOUS
 10
137.4788041793
 20
54.1859026668
 11
137.1542023832
 21
51.7070655052
  0
LINE
  5
476
100
AcDbEntity
  8
0
100
AcDbLine
 62
7
  6
CONTINUOUS
 10
137.4640570284
 20
51.6664902807
 11
137.6090918755
 21
52.7740558367
  0
LINE
  5
477
100
AcDbEntity
  8
0
100
AcDbLine
 62
7
  6
CONTINUOUS
 10
137.6505303977
 20
53.0905030962
 11
137.7541267226
 21
53.8816213927
  0
LINE
  5
478
100
AcDbEntity
  8
0
100
AcDbLine
 62
7
  6
CONTINUOUS
 10
139.0037491729
 20
53.3961107042
 11
138.9830298924
 21
53.2378869267
  0
LINE
  5
479
100
AcDbEntity
  8
0
100
AcDbLine
 62
7
  6
CONTINUOUS
 10
139.8887616532
 20
52.0921983629
 11
139.8229713864
 21
51.8292959638
  0
LINE
  5
47A
100
AcDbEntity
  8
0
100
AcDbLine
 62
7
  6
CONTINUOUS
 10
140.5890141052
 20
53.585060408
 11
139.8887616532
 21
52.0921983629
  0
LINE
  5
47B
100
AcDbEntity
  8
0
100
AcDbLine
 62
7
  6
CONTINUOUS
 10
140.1716832194
 20
51.9594891677
 11
140.8719356714
 21
53.4523512128
  0
LINE
  5
47C
100
AcDbEntity
  8
0
100
AcDbLine
 62
7
  6
CONTINUOUS
 10
142.0036213968
 20
52.9215146853
 11
141.3033689448
 21
51.4286526402
  0
LINE
  5
47D
100
AcDbEntity
  8
0
100
AcDbLine
 62
7
  6
CONTINUOUS
 10
141.5862903761
 20
51.2959435083
 11
142.2865428282
 21
52.7888055534
  0
LINE
  5
47E
100
AcDbEntity
  8
0
100
AcDbLine
 62
7
  6
CONTINUOUS
 10
141.4261927857
 20
51.0772775709
 11
141.5862903761
 21
51.2959435083
  0
LINE
  5
47F
100
AcDbEntity
  8
RUNDUNGEN
100
AcDbLine
 62
7
  6
CONTINUOUS
 10
115.4281305498
 20
36.0103916082
 11
115.4304761364
 21
36.011191999
  0
LWPOLYLINE
  5
480
100
AcDbEntity
  8
RUNDUNGEN
100
AcDbPolyline
 62
7
  6
CONTINUOUS
 90
3
 70
0
 10
115.4304740199
 20
36.0111912757
 10
115.4642603625
 20
36.0224523341
 10
115.5408405104
 20
36.0462844113
  0
LINE
  5
481
100
AcDbEntity
  8
RUNDUNGEN
100
AcDbLine
 62
7
  6
CONTINUOUS
 10
115.5408405104
 20
36.0462844113
 11
115.6384040492
 21
36.0741661641
  0
LINE
  5
482
100
AcDbEntity
  8
RUNDUNGEN
100
AcDbLine
 62
7
  6
CONTINUOUS
 10
119.3660041045
 20
36.8978593976
 11
116.0316646978
 21
36.1696729596
  0
LINE
  5
483
100
AcDbEntity
  8
0
100
AcDbLine
 62
7
  6
CONTINUOUS
 10
113.9431973015
 20
35.795719757
 11
114.2241522466
 21
35.8570775121
  0
LINE
  5
484
100
AcDbEntity
  8
0
100
AcDbLine
 62
7
  6
CONTINUOUS
 10
115.3479721608
 20
36.1025085617
 11
115.7694045784
 21
36.1945451943
  0
LINE
  5
485
100
AcDbEntity
  8
0
100
AcDbLine
 62
7
  6
CONTINUOUS
 10
116.7995725317
 20
36.4195235906
 11
117.0805277447
 21
36.4808814042
  0
LINE
  5
486
100
AcDbEntity
  8
0
100
AcDbLine
 62
7
  6
CONTINUOUS
 10
115.0592212022
 20
36.2198627863
 11
114.6377887846
 21
36.1278261537
  0
LWPOLYLINE
  5
487
100
AcDbEntity
  8
RUNDUNGEN
100
AcDbPolyline
 62
7
  6
CONTINUOUS
 90
4
 70
0
 10
119.3661260505
 20
36.8978860461
 10
119.4172011195
 20
36.908740502
 10
119.5117555006
 20
36.9274968618
 10
119.6234143743
 20
36.9478865974
  0
LINE
  5
488
100
AcDbEntity
  8
RUNDUNGEN
100
AcDbLine
 62
7
  6
CONTINUOUS
 10
119.6234143743
 20
36.9478865974
 11
119.7526599909
 21
36.9696334881
  0
LWPOLYLINE
  5
489
100
AcDbEntity
  8
RUNDUNGEN
100
AcDbPolyline
 62
7
  6
CONTINUOUS
 90
3
 70
0
 10
119.7526599909
 20
36.9696334881
 10
119.8999614582
 20
36.9924891768
 10
120.0094790509
 20
37.0083798792
  0
LINE
  5
48A
100
AcDbEntity
  8
0
100
AcDbLine
 62
7
  6
CONTINUOUS
 10
114.9954789687
 20
36.0555966587
 11
115.3479721608
 21
36.1025085617
  0
LINE
  5
48B
100
AcDbEntity
  8
0
100
AcDbLine
 62
7
  6
CONTINUOUS
 10
110.5587943648
 20
36.4397781769
 11
110.206301451
 21
36.392866332
  0
LINE
  5
48C
100
AcDbEntity
  8
0
100
AcDbLine
 62
7
  6
CONTINUOUS
 10
110.5587943648
 20
36.8664293811
 11
110.206301451
 21
36.8195175362
  0
LWPOLYLINE
  5
48D
100
AcDbEntity
  8
RUNDUNGEN
100
AcDbPolyline
 62
7
  6
CONTINUOUS
 90
7
 70
0
 10
120.0094751372
 20
37.008379281
 10
120.0523188161
 20
37.0140284958
 10
120.1445888911
 20
37.0238453826
 10
120.2554776055
 20
37.0323029826
 10
120.3855669141
 20
37.0386587587
 10
120.5353216068
 20
37.0422764681
 10
120.6359373609
 20
37.0429123184
  0
LINE
  5
48E
100
AcDbEntity
  8
0
100
AcDbLine
 62
7
  6
CONTINUOUS
 10
114.6377887846
 20
36.1278261537
 11
114.3321215164
 21
36.0911405623
  0
LINE
  5
48F
100
AcDbEntity
  8
0
100
AcDbLine
 62
7
  6
CONTINUOUS
 10
110.9164847443
 20
36.367548743
 11
111.2221517446
 21
36.4042342759
  0
LINE
  5
490
100
AcDbEntity
  8
0
100
AcDbLine
 62
7
  6
CONTINUOUS
 10
110.9828255152
 20
36.4722441701
 11
110.5587943648
 21
36.4397781769
  0
LINE
  5
491
100
AcDbEntity
  8
0
100
AcDbLine
 62
7
  6
CONTINUOUS
 10
110.9828255152
 20
36.8988953743
 11
110.5587943648
 21
36.8664293811
  0
LINE
  5
492
100
AcDbEntity
  8
RUNDUNGEN
100
AcDbLine
 62
7
  6
CONTINUOUS
 10
174.6485400857
 20
38.3179123196
 11
99.6486985432
 21
38.3179123196
  0
LINE
  5
493
100
AcDbEntity
  8
0
100
AcDbLine
 62
7
  6
CONTINUOUS
 10
160.8419753173
 20
35.9684296526
 11
160.536308049
 21
36.005115244
  0
LINE
  5
494
100
AcDbEntity
  8
0
100
AcDbLine
 62
7
  6
CONTINUOUS
 10
162.3169637288
 20
36.1875505628
 11
162.622630997
 21
36.1508649714
  0
LINE
  5
495
100
AcDbEntity
  8
0
100
AcDbLine
 62
7
  6
CONTINUOUS
 10
160.8419753173
 20
36.3950808568
 11
160.6624679448
 21
36.4166249827
  0
LINE
  5
496
100
AcDbEntity
  8
0
100
AcDbLine
 62
7
  6
CONTINUOUS
 10
159.944488555
 20
35.9840172502
 11
160.2969814792
 21
35.9371054057
  0
LINE
  5
497
100
AcDbEntity
  8
0
100
AcDbLine
 62
7
  6
CONTINUOUS
 10
163.2144504081
 20
36.1719629622
 11
162.8619574943
 21
36.2188748071
  0
LWPOLYLINE
  5
498
100
AcDbEntity
  8
RUNDUNGEN
100
AcDbPolyline
 62
7
  6
CONTINUOUS
 90
3
 70
0
 10
154.2877552947
 20
37.0083804897
 10
154.4017439406
 20
36.9918223741
 10
154.5487051632
 20
36.9689655893
  0
LINE
  5
499
100
AcDbEntity
  8
RUNDUNGEN
100
AcDbLine
 62
7
  6
CONTINUOUS
 10
154.5487051632
 20
36.9689655893
 11
154.6775637872
 21
36.9472299017
  0
LWPOLYLINE
  5
49A
100
AcDbEntity
  8
RUNDUNGEN
100
AcDbPolyline
 62
7
  6
CONTINUOUS
 90
4
 70
0
 10
154.6775637872
 20
36.9472299017
 10
154.7887972415
 20
36.92686483
 10
154.8828940739
 20
36.9081482639
 10
154.9311056568
 20
36.8978875619
  0
LINE
  5
49B
100
AcDbEntity
  8
RUNDUNGEN
100
AcDbLine
 62
7
  6
CONTINUOUS
 10
158.2656470197
 20
36.1696570037
 11
157.5952788695
 21
36.3160587134
  0
LINE
  5
49C
100
AcDbEntity
  8
RUNDUNGEN
100
AcDbLine
 62
7
  6
CONTINUOUS
 10
157.361149704
 20
36.3671901857
 11
156.2131021059
 21
36.6179123196
  0
LINE
  5
49D
100
AcDbEntity
  8
RUNDUNGEN
100
AcDbLine
 62
7
  6
CONTINUOUS
 10
156.0111193242
 20
36.6620233426
 11
154.9312345439
 21
36.8978593976
  0
LINE
  5
49E
100
AcDbEntity
  8
0
100
AcDbLine
 62
7
  6
CONTINUOUS
 10
157.3612722564
 20
36.367751349
 11
157.5954014219
 21
36.3166198767
  0
LINE
  5
49F
100
AcDbEntity
  8
0
100
AcDbLine
 62
7
  6
CONTINUOUS
 10
157.6968489945
 20
36.4748792908
 11
157.0419059204
 21
36.6179123196
  0
LINE
  5
4A0
100
AcDbEntity
  8
0
100
AcDbLine
 62
7
  6
CONTINUOUS
 10
159.66353361
 20
36.0453750053
 11
159.944488555
 21
35.9840172502
  0
LINE
  5
4A1
100
AcDbEntity
  8
0
100
AcDbLine
 62
7
  6
CONTINUOUS
 10
160.536308049
 20
36.005115244
 11
160.255353104
 21
36.0664729991
  0
LINE
  5
4A2
100
AcDbEntity
  8
0
100
AcDbLine
 62
7
  6
CONTINUOUS
 10
159.1783592372
 20
36.3016777074
 11
158.9442299377
 21
36.352809209
  0
LINE
  5
4A3
100
AcDbEntity
  8
0
100
AcDbLine
 62
7
  6
CONTINUOUS
 10
158.2886684885
 20
36.4959772847
 11
157.7303323662
 21
36.6179123196
  0
LWPOLYLINE
  5
4A4
100
AcDbEntity
  8
RUNDUNGEN
100
AcDbPolyline
 62
7
  6
CONTINUOUS
 90
4
 70
0
 10
158.2656470188
 20
36.1696569998
 10
158.3997928214
 20
36.1394038405
 10
158.5417198008
 20
36.104976459
 10
158.6608556762
 20
36.073611318
  0
LINE
  5
4A5
100
AcDbEntity
  8
0
100
AcDbLine
 62
7
  6
CONTINUOUS
 10
139.8229713864
 20
51.8292959638
 11
139.8269234165
 21
51.5924321972
  0
LINE
  5
4A6
100
AcDbEntity
  8
0
100
AcDbLine
 62
7
  6
CONTINUOUS
 10
139.2859781172
 20
53.1445704923
 11
139.3136038181
 21
53.3555354797
  0
LINE
  5
4A7
100
AcDbEntity
  8
0
100
AcDbLine
 62
7
  6
CONTINUOUS
 10
140.1284814686
 20
51.7447437289
 11
140.1716832194
 21
51.9594891677
  0
LINE
  5
4A8
100
AcDbEntity
  8
RUNDUNGEN
100
AcDbLine
 62
7
  6
CONTINUOUS
 10
115.6384040492
 20
36.0741661641
 11
115.757852152
 21
36.1055660383
  0
LWPOLYLINE
  5
4A9
100
AcDbEntity
  8
RUNDUNGEN
100
AcDbPolyline
 62
7
  6
CONTINUOUS
 90
3
 70
0
 10
115.757852152
 20
36.1055660383
 10
115.9000851326
 20
36.1400187746
 10
116.0315862187
 20
36.1696558217
  0
LINE
  5
4AA
100
AcDbEntity
  8
0
100
AcDbLine
 62
7
  6
CONTINUOUS
 10
115.0045992752
 20
36.388348454
 11
114.7236443301
 21
36.3269906989
  0
LINE
  5
4AB
100
AcDbEntity
  8
0
100
AcDbLine
 62
7
  6
CONTINUOUS
 10
111.3990108024
 20
35.600923928
 11
112.3355272971
 21
35.8054497807
  0
LINE
  5
4AC
100
AcDbEntity
  8
0
100
AcDbLine
 62
7
  6
CONTINUOUS
 10
111.8152459887
 20
35.8121018906
 11
110.97238112
 21
35.6280286181
  0
LINE
  5
4AD
100
AcDbEntity
  8
0
100
AcDbLine
 62
7
  6
CONTINUOUS
 10
114.5948858865
 20
36.5694929776
 11
114.7974212053
 21
36.6137246692
  0
LINE
  5
4AE
100
AcDbEntity
  8
0
100
AcDbLine
 62
7
  6
CONTINUOUS
 10
113.8847025932
 20
36.5948105667
 11
113.9904846858
 21
36.6179123196
  0
LINE
  5
4AF
100
AcDbEntity
  8
0
100
AcDbLine
 62
7
  6
CONTINUOUS
 10
112.0012748733
 20
36.4240414627
 11
112.2822298184
 21
36.4853992178
  0
LINE
  5
4B0
100
AcDbEntity
  8
0
100
AcDbLine
 62
7
  6
CONTINUOUS
 10
110.4950523267
 20
36.2755121104
 11
110.9164847443
 21
36.367548743
  0
LINE
  5
4B1
100
AcDbEntity
  8
0
100
AcDbLine
 62
7
  6
CONTINUOUS
 10
110.206301451
 20
36.392866332
 11
109.7848690334
 21
36.3008296994
  0
LINE
  5
4B2
100
AcDbEntity
  8
0
100
AcDbLine
 62
7
  6
CONTINUOUS
 10
107.911835977
 20
35.8917779793
 11
107.5372294059
 21
35.8099676441
  0
LINE
  5
4B3
100
AcDbEntity
  8
0
100
AcDbLine
 62
7
  6
CONTINUOUS
 10
110.206301451
 20
36.8195175362
 11
109.7848690334
 21
36.7274809035
  0
LINE
  5
4B4
100
AcDbEntity
  8
0
100
AcDbLine
 62
7
  6
CONTINUOUS
 10
107.911835977
 20
36.3184291835
 11
107.5372294059
 21
36.2366188483
  0
LINE
  5
4B5
100
AcDbEntity
  8
0
100
AcDbLine
 62
7
  6
CONTINUOUS
 10
160.6624679448
 20
36.1880468219
 11
160.3815129997
 21
36.2494045769
  0
LINE
  5
4B6
100
AcDbEntity
  8
0
100
AcDbLine
 62
7
  6
CONTINUOUS
 10
161.4467881055
 20
36.2873809664
 11
161.774568964
 21
36.2157968993
  0
LINE
  5
4B7
100
AcDbEntity
  8
0
100
AcDbLine
 62
7
  6
CONTINUOUS
 10
162.622630997
 20
36.1508649714
 11
162.9035859421
 21
36.0895072163
  0
LINE
  5
4B8
100
AcDbEntity
  8
0
100
AcDbLine
 62
7
  6
CONTINUOUS
 10
164.3356717234
 20
35.866961244
 11
164.7102779596
 21
35.7851509819
  0
LINE
  5
4B9
100
AcDbEntity
  8
0
100
AcDbLine
 62
7
  6
CONTINUOUS
 10
164.9444072591
 20
35.7340194803
 11
165.4594915037
 21
35.6215302237
  0
LINE
  5
4BA
100
AcDbEntity
  8
0
100
AcDbLine
 62
7
  6
CONTINUOUS
 10
163.4954053531
 20
36.1106052071
 11
163.2144504081
 21
36.1719629622
  0
LINE
  5
4BB
100
AcDbEntity
  8
0
100
AcDbLine
 62
7
  6
CONTINUOUS
 10
165.9329470325
 20
35.6384086163
 11
165.417862788
 21
35.750897873
  0
LINE
  5
4BC
100
AcDbEntity
  8
0
100
AcDbLine
 62
7
  6
CONTINUOUS
 10
165.1837334884
 20
35.8020293746
 11
164.8091272523
 21
35.8838396367
  0
LINE
  5
4BD
100
AcDbEntity
  8
0
100
AcDbLine
 62
7
  6
CONTINUOUS
 10
166.3647741773
 20
35.7846546702
 11
166.1306448778
 21
35.8357861718
  0
LINE
  5
4BE
100
AcDbEntity
  8
0
100
AcDbLine
 62
7
  6
CONTINUOUS
 10
164.1665589952
 20
36.3248610967
 11
165.524507807
 21
36.0282986334
  0
LINE
  5
4BF
100
AcDbEntity
  8
0
100
AcDbLine
 62
7
  6
CONTINUOUS
 10
166.1163272181
 20
36.0493966242
 11
164.5242493747
 21
36.3970905307
  0
LINE
  5
4C0
100
AcDbEntity
  8
0
100
AcDbLine
 62
7
  6
CONTINUOUS
 10
166.3647741773
 20
36.2113058743
 11
166.1306448778
 21
36.2624373759
  0
LINE
  5
4C1
100
AcDbEntity
  8
0
100
AcDbLine
 62
7
  6
CONTINUOUS
 10
166.1163272181
 20
36.4760478284
 11
164.5242493747
 21
36.8237417348
  0
LWPOLYLINE
  5
4C2
100
AcDbEntity
  8
RUNDUNGEN
100
AcDbPolyline
 62
7
  6
CONTINUOUS
 90
5
 70
0
 10
158.8691479834
 20
36.010379326
 10
159.0697596178
 20
35.9531329843
 10
159.2595104989
 20
35.9183923737
 10
159.4515443906
 20
35.9014943138
 10
159.5363100404
 20
35.8997466022
  0
LINE
  5
4C3
100
AcDbEntity
  8
RUNDUNGEN
100
AcDbLine
 62
7
  6
CONTINUOUS
 10
158.6608556762
 20
36.073611318
 11
158.7580989913
 21
36.0457761715
  0
LWPOLYLINE
  5
4C4
100
AcDbEntity
  8
RUNDUNGEN
100
AcDbPolyline
 62
7
  6
CONTINUOUS
 90
3
 70
0
 10
158.7580989913
 20
36.0457761715
 10
158.8343472092
 20
36.0220063216
 10
158.866758366
 20
36.0111934168
  0
LINE
  5
4C5
100
AcDbEntity
  8
RUNDUNGEN
100
AcDbLine
 62
7
  6
CONTINUOUS
 10
158.86675625
 20
36.0111941399
 11
158.8691072273
 21
36.0103919047
  0
LWPOLYLINE
  5
4C6
100
AcDbEntity
  8
RUNDUNGEN
100
AcDbPolyline
 62
7
  6
CONTINUOUS
 90
4
 70
0
 10
158.660855509
 20
52.0122132758
 10
158.541719604
 20
51.9808481303
 10
158.3997930209
 20
51.9464208433
 10
158.2656470206
 20
51.9161676416
  0
LWPOLYLINE
  5
4C7
100
AcDbEntity
  8
RUNDUNGEN
100
AcDbPolyline
 62
7
  6
CONTINUOUS
 90
24
 70
0
 10
161.9474772103
 20
52.27196458
 10
161.9531237825
 20
52.2734230304
 10
161.954270339
 20
52.2737054049
 10
161.947695764
 20
52.2723716507
 10
161.9340094108
 20
52.2698773908
 10
161.913681595
 20
52.266538269
 10
161.8874424737
 20
52.2626361622
 10
161.8555335539
 20
52.2583271587
 10
161.8185382474
 20
52.2537792181
 10
161.7763920303
 20
52.2490531372
 10
161.7291707985
 20
52.2442151869
 10
161.6769568147
 20
52.2393192841
 10
161.6198017697
 20
52.2344132254
 10
161.5578361916
 20
52.2295509482
 10
161.4912192178
 20
52.2247864559
 10
161.4200696768
 20
52.220156902
 10
161.3445158909
 20
52.2156886108
 10
161.2647708651
 20
52.2114177971
 10
161.1810858055
 20
52.2073881504
 10
161.0936052698
 20
52.2036353442
 10
161.0024806318
 20
52.2001745313
 10
160.9080078262
 20
52.1970299772
 10
160.8104923762
 20
52.1942355652
 10
160.7101733285
 20
52.1918278187
  0
LINE
  5
4C8
100
AcDbEntity
  8
RUNDUNGEN
100
AcDbLine
 62
7
  6
CONTINUOUS
 10
158.2655739506
 20
51.9161516796
 11
154.9312345439
 21
51.1879652416
  0
LWPOLYLINE
  5
4C9
100
AcDbEntity
  8
RUNDUNGEN
100
AcDbPolyline
 62
7
  6
CONTINUOUS
 90
4
 70
0
 10
154.9311057208
 20
51.1879370922
 10
154.882893308
 20
51.177676216
 10
154.7887957674
 20
51.1589595278
 10
154.6775619798
 20
51.1385944202
  0
LINE
  5
4CA
100
AcDbEntity
  8
RUNDUNGEN
100
AcDbLine
 62
7
  6
CONTINUOUS
 10
118.0841365424
 20
51.4679123196
 11
116.0316646978
 21
51.9161516796
  0
LINE
  5
4CB
100
AcDbEntity
  8
RUNDUNGEN
100
AcDbLine
 62
7
  6
CONTINUOUS
 10
116.0315862543
 20
51.9161688104
 11
115.9000850998
 21
51.9458058714
  0
LINE
  5
4CC
100
AcDbEntity
  8
0
100
AcDbLine
 62
7
  6
CONTINUOUS
 10
109.9231159661
 20
51.4916111599
 11
110.8643693855
 21
51.2752538961
  0
LINE
  5
4CD
100
AcDbEntity
  8
0
100
AcDbLine
 62
7
  6
CONTINUOUS
 10
111.2664582249
 20
51.1828294339
 11
111.6685470643
 21
51.0904049716
  0
LINE
  5
4CE
100
AcDbEntity
  8
0
100
AcDbLine
 62
7
  6
CONTINUOUS
 10
109.9231159661
 20
51.9182623641
 11
110.8643693855
 21
51.7019051002
  0
LINE
  5
4CF
100
AcDbEntity
  8
0
100
AcDbLine
 62
7
  6
CONTINUOUS
 10
111.2664582249
 20
51.609480638
 11
111.6685470643
 21
51.5170561758
  0
LINE
  5
4D0
100
AcDbEntity
  8
0
100
AcDbLine
 62
7
  6
CONTINUOUS
 10
111.7392509427
 20
51.7315376501
 11
110.9327886683
 21
51.9169117135
  0
LINE
  5
4D1
100
AcDbEntity
  8
0
100
AcDbLine
 62
7
  6
CONTINUOUS
 10
111.6883050412
 20
51.8358554486
 11
112.0903938806
 21
51.7434309864
  0
LINE
  5
4D2
100
AcDbEntity
  8
0
100
AcDbLine
 62
7
  6
CONTINUOUS
 10
114.3311381183
 20
52.0320150193
 11
114.7355115533
 21
51.9390654181
  0
LINE
  5
4D3
100
AcDbEntity
  8
0
100
AcDbLine
 62
7
  6
CONTINUOUS
 10
116.0124819499
 20
51.8762735057
 11
115.0712285304
 21
52.0926307695
  0
LWPOLYLINE
  5
4D4
100
AcDbEntity
  8
RUNDUNGEN
100
AcDbPolyline
 62
7
  6
CONTINUOUS
 90
3
 70
0
 10
115.9000850998
 20
51.9458058714
 10
115.7578521099
 20
51.9802586108
 10
115.6384040713
 20
52.0116584697
  0
LINE
  5
4D5
100
AcDbEntity
  8
RUNDUNGEN
100
AcDbLine
 62
7
  6
CONTINUOUS
 10
115.4280257272
 20
52.0754670597
 11
115.22752699
 21
52.1326804693
  0
LINE
  5
4D6
100
AcDbEntity
  8
RUNDUNGEN
100
AcDbLine
 62
7
  6
CONTINUOUS
 10
115.6384040713
 20
52.0116584697
 11
115.5408405731
 21
52.0395402108
  0
LWPOLYLINE
  5
4D7
100
AcDbEntity
  8
RUNDUNGEN
100
AcDbPolyline
 62
7
  6
CONTINUOUS
 90
3
 70
0
 10
115.5408405731
 20
52.0395402108
 10
115.4642603445
 20
52.063372309
 10
115.4304739482
 20
52.0746333902
  0
LINE
  5
4D8
100
AcDbEntity
  8
RUNDUNGEN
100
AcDbLine
 62
7
  6
CONTINUOUS
 10
115.4304760987
 20
52.0746326554
 11
115.4280677578
 21
52.0754544153
  0
LINE
  5
4D9
100
AcDbEntity
  8
0
100
AcDbLine
 62
7
  6
CONTINUOUS
 10
161.8890595905
 20
35.5894114407
 11
162.0043484917
 21
35.5429123196
  0
LINE
  5
4DA
100
AcDbEntity
  8
0
100
AcDbLine
 62
7
  6
CONTINUOUS
 10
159.547768471
 20
36.1007260469
 11
159.66353361
 21
36.0453750053
  0
LINE
  5
4DB
100
AcDbEntity
  8
0
100
AcDbLine
 62
7
  6
CONTINUOUS
 10
162.5205053091
 20
35.5429123196
 11
162.4093408375
 21
35.5960635825
  0
LINE
  5
4DC
100
AcDbEntity
  8
0
100
AcDbLine
 62
7
  6
CONTINUOUS
 10
139.8269234165
 20
51.5924321972
 11
139.9251823734
 21
51.3113321755
  0
LINE
  5
4DD
100
AcDbEntity
  8
0
100
AcDbLine
 62
7
  6
CONTINUOUS
 10
139.1166151854
 20
51.4500890768
 11
138.8106809055
 21
52.7239998895
  0
LINE
  5
4DE
100
AcDbEntity
  8
0
100
AcDbLine
 62
7
  6
CONTINUOUS
 10
138.4870133456
 20
52.6590927038
 11
138.7551180008
 21
51.4974268517
  0
LINE
  5
4DF
100
AcDbEntity
  8
0
100
AcDbLine
 62
7
  6
CONTINUOUS
 10
138.9728260424
 20
53.5610968649
 11
139.0037491729
 21
53.3961107042
  0
LINE
  5
4E0
100
AcDbEntity
  8
0
100
AcDbLine
 62
7
  6
CONTINUOUS
 10
139.3136038181
 20
53.3555354797
 11
139.2826806876
 21
53.5205216404
  0
LINE
  5
4E1
100
AcDbEntity
  8
0
100
AcDbLine
 62
7
  6
CONTINUOUS
 10
140.1550224351
 20
51.5560367663
 11
140.1284814686
 21
51.7447437289
  0
LINE
  5
4E2
100
AcDbEntity
  8
RUNDUNGEN
100
AcDbLine
 62
7
  6
CONTINUOUS
 10
158.2582377094
 20
51.9591745906
 11
158.2069243792
 21
51.9033431987
  0
LINE
  5
4E3
100
AcDbEntity
  8
RUNDUNGEN
100
AcDbLine
 62
7
  6
CONTINUOUS
 10
154.6775619798
 20
51.1385944202
 11
154.5487034297
 21
51.116858769
  0
LINE
  5
4E4
100
AcDbEntity
  8
0
100
AcDbLine
 62
7
  6
CONTINUOUS
 10
141.0037867291
 20
51.1579093706
 11
140.8171484262
 21
51.1279502356
  0
LWPOLYLINE
  5
4E5
100
AcDbEntity
  8
RUNDUNGEN
100
AcDbPolyline
 62
7
  6
CONTINUOUS
 90
3
 70
0
 10
154.5487034297
 20
51.116858769
 10
154.4017427182
 20
51.094002082
 10
154.2877552538
 20
51.0774441448
  0
LINE
  5
4E6
100
AcDbEntity
  8
RUNDUNGEN
100
AcDbLine
 62
7
  6
CONTINUOUS
 10
99.6486985432
 20
49.7679123196
 11
174.6485400856
 21
49.7679123196
  0
LWPOLYLINE
  5
4E7
100
AcDbEntity
  8
RUNDUNGEN
100
AcDbPolyline
 62
7
  6
CONTINUOUS
 90
3
 70
0
 10
115.0377502786
 20
52.1674296511
 10
114.8457010726
 20
52.18433006
 10
114.7609286182
 20
52.1860774016
  0
LINE
  5
4E8
100
AcDbEntity
  8
RUNDUNGEN
100
AcDbLine
 62
7
  6
CONTINUOUS
 10
120.0094790138
 20
51.077444764
 11
119.9818477453
 21
51.0814539876
  0
LINE
  5
4E9
100
AcDbEntity
  8
RUNDUNGEN
100
AcDbLine
 62
7
  6
CONTINUOUS
 10
115.22752699
 20
52.1326804693
 11
115.0377502786
 21
52.1674296511
  0
LINE
  5
4EA
100
AcDbEntity
  8
0
100
AcDbLine
 62
7
  6
CONTINUOUS
 10
163.6111705025
 20
36.0552541659
 11
163.4954053531
 21
36.1106052071
  0
LINE
  5
4EB
100
AcDbEntity
  8
0
100
AcDbLine
 62
7
  6
CONTINUOUS
 10
160.255353104
 20
36.0664729991
 11
160.1864136001
 21
36.1115977868
  0
LINE
  5
4EC
100
AcDbEntity
  8
0
100
AcDbLine
 62
7
  6
CONTINUOUS
 10
153.4219034241
 20
36.3655521342
 11
153.6713359037
 21
36.1438703625
  0
LINE
  5
4ED
100
AcDbEntity
  8
0
100
AcDbLine
 62
7
  6
CONTINUOUS
 10
139.9251823734
 20
51.3113321755
 11
140.0686191736
 21
51.1265456988
  0
LINE
  5
4EE
100
AcDbEntity
  8
0
100
AcDbLine
 62
7
  6
CONTINUOUS
 10
138.8833539521
 20
53.6801043661
 11
138.9728260424
 21
53.5610968649
  0
LINE
  5
4EF
100
AcDbEntity
  8
0
100
AcDbLine
 62
7
  6
CONTINUOUS
 10
140.2513055635
 20
51.3933684993
 11
140.1550224351
 21
51.5560367663
  0
LINE
  5
4F0
100
AcDbEntity
  8
0
100
AcDbLine
 62
7
  6
CONTINUOUS
 10
139.2826806876
 20
53.5205216404
 11
139.1553790464
 21
53.7517740923
  0
LINE
  5
4F1
100
AcDbEntity
  8
RUNDUNGEN
100
AcDbLine
 62
7
  6
CONTINUOUS
 10
147.7186193242
 20
29.4826748575
 11
147.7186193242
 21
25.9697456968
  0
LINE
  5
4F2
100
AcDbEntity
  8
BEZUGSACHSEN
100
AcDbLine
 62
7
  6
CONTINUOUS
 10
144.0768225544
 20
32.0429123196
 11
146.9635739004
 21
37.0429123196
  0
LINE
  5
4F3
100
AcDbEntity
  8
0
100
AcDbLine
 62
7
  6
CONTINUOUS
 10
138.793570468
 20
52.9944684894
 11
138.631736725
 21
52.9620148917
  0
LWPOLYLINE
  5
4F4
100
AcDbEntity
  8
RUNDUNGEN
100
AcDbPolyline
 62
7
  6
CONTINUOUS
 90
10
 70
0
 10
159.6703994691
 20
52.5429122365
 10
159.4976413954
 20
52.5354369299
 10
159.3248078087
 20
52.5128275673
 10
159.1545979008
 20
52.4752550488
 10
158.9883048154
 20
52.4230044897
 10
158.8271919903
 20
52.3564725844
 10
158.6724832038
 20
52.2761644113
 10
158.5253536975
 20
52.1826897015
 10
158.3869212812
 20
52.0767582743
 10
158.2582377094
 20
51.9591745906
  0
LINE
  5
4F5
100
AcDbEntity
  8
0
100
AcDbLine
 62
7
  6
CONTINUOUS
 10
111.6685470643
 20
51.0904049716
 11
112.4405307857
 21
51.1165523351
  0
LINE
  5
4F6
100
AcDbEntity
  8
0
100
AcDbLine
 62
7
  6
CONTINUOUS
 10
110.8643693855
 20
51.2752538961
 11
111.2664582249
 21
51.2888727882
  0
LINE
  5
4F7
100
AcDbEntity
  8
0
100
AcDbLine
 62
7
  6
CONTINUOUS
 10
111.6685470643
 20
51.5170561758
 11
114.7603903905
 21
51.6217780101
  0
LINE
  5
4F8
100
AcDbEntity
  8
0
100
AcDbLine
 62
7
  6
CONTINUOUS
 10
114.3583015512
 20
51.7142024723
 11
111.2664582249
 21
51.609480638
  0
LINE
  5
4F9
100
AcDbEntity
  8
0
100
AcDbLine
 62
7
  6
CONTINUOUS
 10
110.8643693855
 20
51.7019051002
 11
111.7392509427
 21
51.7315376501
  0
LINE
  5
4FA
100
AcDbEntity
  8
0
100
AcDbLine
 62
7
  6
CONTINUOUS
 10
112.0903938806
 20
51.7434309864
 11
116.0124819499
 21
51.8762735057
  0
LINE
  5
4FB
100
AcDbEntity
  8
0
100
AcDbLine
 62
7
  6
CONTINUOUS
 10
114.7355115533
 20
51.9390654181
 11
111.6883050412
 21
51.8358554486
  0
LINE
  5
4FC
100
AcDbEntity
  8
0
100
AcDbLine
 62
7
  6
CONTINUOUS
 10
111.5781770674
 20
52.0448146027
 11
112.8815720403
 21
52.0889610545
  0
LWPOLYLINE
  5
4FD
100
AcDbEntity
  8
RUNDUNGEN
100
AcDbPolyline
 62
7
  6
CONTINUOUS
 90
6
 70
0
 10
159.5363101186
 20
52.186077401
 10
159.4613519266
 20
52.1847106093
 10
159.2693006281
 20
52.1687330026
 10
159.0794373731
 20
52.1349092697
 10
158.8935142516
 20
52.0835764487
 10
158.8692137281
 20
52.0754673332
  0
LWPOLYLINE
  5
4FE
100
AcDbEntity
  8
RUNDUNGEN
100
AcDbPolyline
 62
7
  6
CONTINUOUS
 90
4
 70
0
 10
160.7101733285
 20
52.1918278187
 10
160.5022109863
 20
52.1882108187
 10
160.3952011004
 20
52.1870335777
 10
160.286583444
 20
52.1863208006
  0
LINE
  5
4FF
100
AcDbEntity
  8
RUNDUNGEN
100
AcDbLine
 62
7
  6
CONTINUOUS
 10
103.2565240804
 20
51.0429123196
 11
171.0398490444
 21
51.0429123196
  0
LINE
  5
500
100
AcDbEntity
  8
0
100
AcDbLine
 62
7
  6
CONTINUOUS
 10
112.4430249993
 20
51.4679123196
 11
119.9762554518
 21
51.4679123196
  0
LINE
  5
501
100
AcDbEntity
  8
RUNDUNGEN
100
AcDbLine
 62
7
  6
CONTINUOUS
 10
160.286583444
 20
52.1863208006
 11
159.5363101096
 21
52.1860859569
  0
LINE
  5
502
100
AcDbEntity
  8
RUNDUNGEN
100
AcDbLine
 62
7
  6
CONTINUOUS
 10
100.8074297645
 20
52.5429123196
 11
111.9064479385
 21
52.5429123196
  0
LINE
  5
503
100
AcDbEntity
  8
RUNDUNGEN
100
AcDbLine
 62
7
  6
CONTINUOUS
 10
111.9143955035
 20
52.5428808936
 11
114.6268391431
 21
52.5429123196
  0
LINE
  5
504
100
AcDbEntity
  8
RUNDUNGEN
100
AcDbLine
 62
7
  6
CONTINUOUS
 10
159.6704005961
 20
52.5429123196
 11
162.382855527
 21
52.5429123196
  0
LINE
  5
505
100
AcDbEntity
  8
RUNDUNGEN
100
AcDbLine
 62
7
  6
CONTINUOUS
 10
162.3907907098
 20
52.5429123196
 11
173.4898088836
 21
52.5429123196
  0
LWPOLYLINE
  5
506
100
AcDbEntity
  8
RUNDUNGEN
100
AcDbPolyline
 62
7
  6
CONTINUOUS
 90
3
 70
0
 10
114.7609286186
 20
52.1860859569
 10
114.019933733
 20
52.1862823611
 10
113.9108682402
 20
52.1869573432
  0
LINE
  5
507
100
AcDbEntity
  8
RUNDUNGEN
100
AcDbLine
 62
7
  6
CONTINUOUS
 10
162.3828565439
 20
52.5428810224
 11
162.3814778103
 21
52.5428939872
  0
LWPOLYLINE
  5
508
100
AcDbEntity
  8
RUNDUNGEN
100
AcDbPolyline
 62
7
  6
CONTINUOUS
 90
24
 70
0
 10
113.9108682402
 20
52.1869573432
 10
113.6978155052
 20
52.1896806929
 10
113.5944642845
 20
52.1916681397
 10
113.4936521189
 20
52.1940548247
 10
113.3956408555
 20
52.1968323489
 10
113.3006729429
 20
52.1999646903
 10
113.2090572272
 20
52.2034169778
 10
113.121092657
 20
52.2071641511
 10
113.0369334774
 20
52.2111913645
 10
112.9567274563
 20
52.2154636088
 10
112.8807269366
 20
52.2199365788
 10
112.8091447931
 20
52.2245736468
 10
112.7421150479
 20
52.2293479822
 10
112.6797594444
 20
52.2342228389
 10
112.6222422161
 20
52.239143608
 10
112.5696899304
 20
52.2440563734
 10
112.5221776158
 20
52.2489106198
 10
112.4797963789
 20
52.2536506581
 10
112.4426299823
 20
52.2582081175
 10
112.4106336994
 20
52.2625175542
 10
112.3843108685
 20
52.2664204934
 10
112.363856955
 20
52.2697687358
 10
112.3499725361
 20
52.2722887489
 10
112.3440196543
 20
52.2734806843
  0
LINE
  5
509
100
AcDbEntity
  8
0
100
AcDbLine
 62
7
  6
CONTINUOUS
 10
137.1542023832
 20
51.7070655052
 11
137.4640570284
 21
51.6664902807
  0
LINE
  5
50A
100
AcDbEntity
  8
0
100
AcDbLine
 62
7
  6
CONTINUOUS
 10
138.7551180008
 20
51.4974268517
 11
139.1166151854
 21
51.4500890768
  0
LINE
  5
50B
100
AcDbEntity
  8
0
100
AcDbLine
 62
7
  6
CONTINUOUS
 10
137.6090918755
 20
52.7740558367
 11
138.4870133456
 21
52.6590927038
  0
LINE
  5
50C
100
AcDbEntity
  8
0
100
AcDbLine
 62
7
  6
CONTINUOUS
 10
138.631736725
 20
52.9620148917
 11
137.6505303977
 21
53.0905030962
  0
LINE
  5
50D
100
AcDbEntity
  8
0
100
AcDbLine
 62
7
  6
CONTINUOUS
 10
140.8171484262
 20
51.1279502356
 11
140.605945263
 21
51.1682661987
  0
LINE
  5
50E
100
AcDbEntity
  8
0
100
AcDbLine
 62
7
  6
CONTINUOUS
 10
140.605945263
 20
51.1682661987
 11
140.4173308855
 21
51.2567389955
  0
LINE
  5
50F
100
AcDbEntity
  8
0
100
AcDbLine
 62
7
  6
CONTINUOUS
 10
138.7353330499
 20
53.7531331882
 11
138.8833539521
 21
53.6801043661
  0
LINE
  5
510
100
AcDbEntity
  8
0
100
AcDbLine
 62
7
  6
CONTINUOUS
 10
162.9035859421
 20
36.0895072163
 11
162.9725254459
 21
36.0443824286
  0
LINE
  5
511
100
AcDbEntity
  8
0
100
AcDbLine
 62
7
  6
CONTINUOUS
 10
140.0686191736
 20
51.1265456988
 11
140.1809286701
 21
51.0429123196
  0
LINE
  5
512
100
AcDbEntity
  8
0
100
AcDbLine
 62
7
  6
CONTINUOUS
 10
140.4173308855
 20
51.2567389955
 11
140.2513055635
 21
51.3933684993
  0
LINE
  5
513
100
AcDbEntity
  8
0
100
AcDbLine
 62
7
  6
CONTINUOUS
 10
143.3114303872
 20
51.6728855804
 11
143.9824781034
 21
51.0429123196
  0
LINE
  5
514
100
AcDbEntity
  8
0
100
AcDbLine
 62
7
  6
CONTINUOUS
 10
144.21337005
 20
51.2639025565
 11
143.3020356027
 21
52.1194547321
  0
LINE
  5
515
100
AcDbEntity
  8
0
100
AcDbLine
 62
7
  6
CONTINUOUS
 10
139.1553790464
 20
53.7517740923
 11
138.9695285933
 21
53.9370478653
  0
LINE
  5
516
100
AcDbEntity
  8
0
100
AcDbLine
 62
7
  6
CONTINUOUS
 10
144.3668250668
 20
51.0468821993
 11
144.21337005
 21
51.2639025565
  0
LINE
  5
517
100
AcDbEntity
  8
RUNDUNGEN
100
AcDbLine
 62
7
  6
CONTINUOUS
 10
150.6486193242
 20
61.26290031
 11
150.6486193242
 21
58.5429123196
  0
LINE
  5
518
100
AcDbEntity
  8
0
100
AcDbLine
 62
7
  6
CONTINUOUS
 10
153.6713359037
 20
36.1438703625
 11
154.4221307047
 21
36.9886516337
  0
LINE
  5
519
100
AcDbEntity
  8
0
100
AcDbLine
 62
7
  6
CONTINUOUS
 10
159.6687308492
 20
36.5911675482
 11
159.547768471
 21
36.527377251
  0
LINE
  5
51A
100
AcDbEntity
  8
0
100
AcDbLine
 62
7
  6
CONTINUOUS
 10
159.6687308492
 20
36.1645163441
 11
159.547768471
 21
36.1007260469
  0
LINE
  5
51B
100
AcDbEntity
  8
0
100
AcDbLine
 62
7
  6
CONTINUOUS
 10
160.1864136001
 20
36.1115977868
 11
160.2826638921
 21
36.1507158607
  0
LINE
  5
51C
100
AcDbEntity
  8
0
100
AcDbLine
 62
7
  6
CONTINUOUS
 10
161.9631963232
 20
35.6634279914
 11
161.8669460106
 21
35.6243099168
  0
LINE
  5
51D
100
AcDbEntity
  8
0
100
AcDbLine
 62
7
  6
CONTINUOUS
 10
162.9725254459
 20
36.0443824286
 11
162.876275154
 21
36.0052643547
  0
LINE
  5
51E
100
AcDbEntity
  8
0
100
AcDbLine
 62
7
  6
CONTINUOUS
 10
162.4093408375
 20
35.5960635825
 11
162.5055911294
 21
35.6351816563
  0
LINE
  5
51F
100
AcDbEntity
  8
BEZUGSACHSEN
100
AcDbLine
 62
7
  6
CONTINUOUS
 10
144.0768225544
 20
56.0429123196
 11
130.2204160939
 21
56.0429123196
  0
LINE
  5
520
100
AcDbEntity
  8
0
100
AcDbLine
 62
7
  6
CONTINUOUS
 10
137.7541267226
 20
53.8816213927
 11
138.7353330499
 21
53.7531331882
  0
LINE
  5
521
100
AcDbEntity
  8
0
100
AcDbLine
 62
7
  6
CONTINUOUS
 10
138.7182227601
 20
54.0236017688
 11
137.4788041793
 21
54.1859026668
  0
LINE
  5
522
100
AcDbEntity
  8
0
100
AcDbLine
 62
7
  6
CONTINUOUS
 10
138.9695285933
 20
53.9370478653
 11
138.7182227601
 21
54.0236017688
  0
LINE
  5
523
100
AcDbEntity
  8
0
100
AcDbLine
 62
7
  6
CONTINUOUS
 10
142.2865428282
 20
52.7888055534
 11
142.0036213968
 21
52.9215146853
  0
LINE
  5
524
100
AcDbEntity
  8
0
100
AcDbLine
 62
7
  6
CONTINUOUS
 10
140.8719356714
 20
53.4523512128
 11
140.5890141052
 21
53.585060408
  0
LINE
  5
525
100
AcDbEntity
  8
BEZUGSACHSEN
100
AcDbLine
 62
7
  6
CONTINUOUS
 10
146.9635739004
 20
51.0429123196
 11
144.0768225544
 21
56.0429123196
  0
LINE
  5
526
100
AcDbEntity
  8
0
100
AcDbLine
 62
7
  6
CONTINUOUS
 10
156.0111193242
 20
37.0429123196
 11
156.0111193242
 21
36.6179123196
  0
LINE
  5
527
100
AcDbEntity
  8
0
100
AcDbLine
 62
7
  6
CONTINUOUS
 10
163.4902081554
 20
35.9914638698
 11
163.6111705025
 21
36.0552541659
  0
LINE
  5
528
100
AcDbEntity
  8
0
100
AcDbLine
 62
7
  6
CONTINUOUS
 10
123.1486193242
 20
58.5429123196
 11
126.4918861031
 21
58.5429123196
  0
LINE
  5
529
100
AcDbEntity
  8
0
100
AcDbLine
 62
7
  6
CONTINUOUS
 10
147.8053525452
 20
58.5429123196
 11
151.1486193242
 21
58.5429123196
  0
LINE
  5
52A
100
AcDbEntity
  8
0
100
AcDbLine
 62
7
  6
CONTINUOUS
 10
161.8669460106
 20
35.6243099168
 11
161.8890595905
 21
35.5894114407
  0
LINE
  5
52B
100
AcDbEntity
  8
0
100
AcDbLine
 62
7
  6
CONTINUOUS
 10
156.6029388181
 20
37.0429123196
 11
156.6029388181
 21
36.6179123196
  0
LINE
  5
52C
100
AcDbEntity
  8
0
100
AcDbLine
 62
7
  6
CONTINUOUS
 10
157.3612722564
 20
36.5481659002
 11
157.3612722564
 21
36.367751349
  0
LINE
  5
52D
100
AcDbEntity
  8
RUNDUNGEN
100
AcDbLine
 62
7
  6
CONTINUOUS
 10
157.3986193242
 20
54.9698268558
 11
157.3986193242
 21
51.7268174444
  0
LINE
  5
52E
100
AcDbEntity
  8
RUNDUNGEN
100
AcDbLine
 62
7
  6
CONTINUOUS
 10
157.3986193242
 20
36.3590071948
 11
157.3986193242
 21
33.1159977834
  0
LINE
  5
52F
100
AcDbEntity
  8
0
100
AcDbLine
 62
7
  6
CONTINUOUS
 10
158.2886684885
 20
36.6179123196
 11
158.2886684885
 21
36.4959772847
  0
LINE
  5
530
100
AcDbEntity
  8
0
100
AcDbLine
 62
7
  6
CONTINUOUS
 10
158.9442299377
 20
36.6179123196
 11
158.9442299377
 21
36.352809209
  0
LINE
  5
531
100
AcDbEntity
  8
0
100
AcDbLine
 62
7
  6
CONTINUOUS
 10
159.1783592372
 20
36.6179123196
 11
159.1783592372
 21
36.3016777074
  0
LINE
  5
532
100
AcDbEntity
  8
0
100
AcDbLine
 62
7
  6
CONTINUOUS
 10
155.6796330305
 20
51.3514079994
 11
151.0661873681
 21
56.5423769379
  0
LINE
  5
533
100
AcDbEntity
  8
0
100
AcDbLine
 62
7
  6
CONTINUOUS
 10
159.547768471
 20
36.527377251
 11
159.547768471
 21
36.1007260469
  0
LINE
  5
534
100
AcDbEntity
  8
0
100
AcDbLine
 62
7
  6
CONTINUOUS
 10
159.6687308492
 20
36.5911675482
 11
159.6687308492
 21
36.1645163441
  0
LINE
  5
535
100
AcDbEntity
  8
0
100
AcDbLine
 62
7
  6
CONTINUOUS
 10
160.001708947
 20
36.6179123196
 11
160.001708947
 21
36.2120736158
  0
LINE
  5
536
100
AcDbEntity
  8
0
100
AcDbLine
 62
7
  6
CONTINUOUS
 10
160.255353104
 20
36.1396162016
 11
160.255353104
 21
36.0664729991
  0
LINE
  5
537
100
AcDbEntity
  8
0
100
AcDbLine
 62
7
  6
CONTINUOUS
 10
160.3190455727
 20
37.0429123196
 11
160.3190455727
 21
36.6179123196
  0
LINE
  5
538
100
AcDbEntity
  8
0
100
AcDbLine
 62
7
  6
CONTINUOUS
 10
160.3815129997
 20
36.6179123196
 11
160.3815129997
 21
36.2494045769
  0
LINE
  5
539
100
AcDbEntity
  8
0
100
AcDbLine
 62
7
  6
CONTINUOUS
 10
160.536308049
 20
36.1756465588
 11
160.536308049
 21
36.005115244
  0
LINE
  5
53A
100
AcDbEntity
  8
0
100
AcDbLine
 62
7
  6
CONTINUOUS
 10
160.6624679448
 20
36.614698026
 11
160.6624679448
 21
36.1880468219
  0
LINE
  5
53B
100
AcDbEntity
  8
0
100
AcDbLine
 62
7
  6
CONTINUOUS
 10
160.8393269272
 20
37.0429123196
 11
160.8393269272
 21
36.6179123196
  0
LINE
  5
53C
100
AcDbEntity
  8
0
100
AcDbLine
 62
7
  6
CONTINUOUS
 10
160.8419753173
 20
36.3950808568
 11
160.8419753173
 21
35.9684296526
  0
LINE
  5
53D
100
AcDbEntity
  8
0
100
AcDbLine
 62
7
  6
CONTINUOUS
 10
161.2191805542
 20
36.3728411756
 11
161.2191805542
 21
35.9461899714
  0
LINE
  5
53E
100
AcDbEntity
  8
0
100
AcDbLine
 62
7
  6
CONTINUOUS
 10
161.4467881055
 20
36.6148368465
 11
161.4467881055
 21
36.2873809664
  0
LINE
  5
53F
100
AcDbEntity
  8
0
100
AcDbLine
 62
7
  6
CONTINUOUS
 10
161.50008575
 20
37.0429123196
 11
161.50008575
 21
36.6179123196
  0
LINE
  5
540
100
AcDbEntity
  8
0
100
AcDbLine
 62
7
  6
CONTINUOUS
 10
161.6679238428
 20
36.2390871291
 11
161.6679238428
 21
35.9383962034
  0
LINE
  5
541
100
AcDbEntity
  8
0
100
AcDbLine
 62
7
  6
CONTINUOUS
 10
161.8669460106
 20
35.8851776264
 11
161.8669460106
 21
35.6243099168
  0
LINE
  5
542
100
AcDbEntity
  8
0
100
AcDbLine
 62
7
  6
CONTINUOUS
 10
161.9241168
 20
37.0429123196
 11
161.9241168
 21
36.6179123196
  0
LINE
  5
543
100
AcDbEntity
  8
0
100
AcDbLine
 62
7
  6
CONTINUOUS
 10
161.9631963232
 20
35.8852682459
 11
161.9631963232
 21
35.6634279914
  0
LINE
  5
544
100
AcDbEntity
  8
0
100
AcDbLine
 62
7
  6
CONTINUOUS
 10
162.069841403
 20
36.2004199723
 11
162.069841403
 21
35.9408286859
  0
LINE
  5
545
100
AcDbEntity
  8
0
100
AcDbLine
 62
7
  6
CONTINUOUS
 10
162.3065691674
 20
36.1875505628
 11
162.3065691674
 21
35.9492678822
  0
LINE
  5
546
100
AcDbEntity
  8
0
100
AcDbLine
 62
7
  6
CONTINUOUS
 10
162.3430000665
 20
35.8910886247
 11
162.3430000665
 21
35.7007590096
  0
LINE
  5
547
100
AcDbEntity
  8
0
100
AcDbLine
 62
7
  6
CONTINUOUS
 10
162.3702614402
 20
37.0429123196
 11
162.3702614402
 21
36.6179123196
  0
LINE
  5
548
100
AcDbEntity
  8
RUNDUNGEN
100
AcDbLine
 62
7
  6
CONTINUOUS
 10
153.6156522912
 20
60.7940856154
 11
151.5030497039
 21
61.6637497605
  0
LINE
  5
549
100
AcDbEntity
  8
0
100
AcDbLine
 62
7
  6
CONTINUOUS
 10
162.5251062133
 20
35.6351816563
 11
162.5251062133
 21
35.5429123196
  0
LINE
  5
54A
100
AcDbEntity
  8
0
100
AcDbLine
 62
7
  6
CONTINUOUS
 10
162.5575647593
 20
37.0429123196
 11
162.5575647593
 21
36.6179123196
  0
LINE
  5
54B
100
AcDbEntity
  8
0
100
AcDbLine
 62
7
  6
CONTINUOUS
 10
162.6148350663
 20
36.1508649714
 11
162.6148350663
 21
35.9721529946
  0
LINE
  5
54C
100
AcDbEntity
  8
0
100
AcDbLine
 62
7
  6
CONTINUOUS
 10
162.7201558221
 20
37.0429123196
 11
162.7201558221
 21
36.6179123196
  0
LINE
  5
54D
100
AcDbEntity
  8
0
100
AcDbLine
 62
7
  6
CONTINUOUS
 10
162.8619574943
 20
36.2783528714
 11
162.8619574943
 21
36.2188748071
  0
LINE
  5
54E
100
AcDbEntity
  8
0
100
AcDbLine
 62
7
  6
CONTINUOUS
 10
162.876275154
 20
36.0895072163
 11
162.876275154
 21
36.0052643547
  0
LINE
  5
54F
100
AcDbEntity
  8
0
100
AcDbLine
 62
7
  6
CONTINUOUS
 10
163.2144504081
 20
36.2909190227
 11
163.2144504081
 21
36.1719629622
  0
LINE
  5
550
100
AcDbEntity
  8
0
100
AcDbLine
 62
7
  6
CONTINUOUS
 10
163.4954053531
 20
36.3009348903
 11
163.4954053531
 21
36.1106052071
  0
LINE
  5
551
100
AcDbEntity
  8
0
100
AcDbLine
 62
7
  6
CONTINUOUS
 10
163.6111705025
 20
36.3050618453
 11
163.6111705025
 21
36.0552541659
  0
LINE
  5
552
100
AcDbEntity
  8
0
100
AcDbLine
 62
7
  6
CONTINUOUS
 10
164.3356717234
 20
36.2936124481
 11
164.3356717234
 21
35.866961244
  0
LINE
  5
553
100
AcDbEntity
  8
0
100
AcDbLine
 62
7
  6
CONTINUOUS
 10
164.5242493747
 20
36.8237417348
 11
164.5242493747
 21
36.3970905307
  0
LINE
  5
554
100
AcDbEntity
  8
0
100
AcDbLine
 62
7
  6
CONTINUOUS
 10
164.8091272523
 20
36.1845306045
 11
164.8091272523
 21
35.8838396367
  0
LINE
  5
555
100
AcDbEntity
  8
0
100
AcDbLine
 62
7
  6
CONTINUOUS
 10
165.1837334884
 20
36.1027203424
 11
165.1837334884
 21
35.8020293746
  0
LINE
  5
556
100
AcDbEntity
  8
0
100
AcDbLine
 62
7
  6
CONTINUOUS
 10
165.9329470325
 20
35.7692603033
 11
165.9329470325
 21
35.6384086163
  0
LINE
  5
557
100
AcDbEntity
  8
0
100
AcDbLine
 62
7
  6
CONTINUOUS
 10
166.1163272181
 20
36.4760478284
 11
166.1163272181
 21
36.0493966242
  0
LINE
  5
558
100
AcDbEntity
  8
0
100
AcDbLine
 62
7
  6
CONTINUOUS
 10
166.1306448778
 20
36.2624373759
 11
166.1306448778
 21
35.8357861718
  0
LINE
  5
559
100
AcDbEntity
  8
0
100
AcDbLine
 62
7
  6
CONTINUOUS
 10
166.3647741773
 20
36.2113058743
 11
166.3647741773
 21
35.7846546702
  0
LINE
  5
55A
100
AcDbEntity
  8
RUNDUNGEN
100
AcDbLine
 62
7
  6
CONTINUOUS
 10
171.5407438354
 20
50.5429123196
 11
171.5407438354
 21
50.2679123196
  0
LINE
  5
55B
100
AcDbEntity
  8
RUNDUNGEN
100
AcDbLine
 62
7
  6
CONTINUOUS
 10
171.5407438354
 20
37.8179123196
 11
171.5407438354
 21
37.5429123196
  0
LINE
  5
55C
100
AcDbEntity
  8
RUNDUNGEN
100
AcDbLine
 62
7
  6
CONTINUOUS
 10
175.4898114353
 20
37.5429123196
 11
175.4898114353
 21
38.5765200396
  0
LINE
  5
55D
100
AcDbEntity
  8
RUNDUNGEN
100
AcDbLine
 62
7
  6
CONTINUOUS
 10
175.4898114353
 20
49.5093045996
 11
175.4898114353
 21
50.5429123196
  0
LINE
  5
55E
100
AcDbEntity
  8
0
100
AcDbLine
 62
7
  6
CONTINUOUS
 10
176.1486193242
 20
48.2679123196
 11
176.1486193242
 21
39.8179123196
  0
ARC
  5
55F
100
AcDbEntity
  8
RUNDUNGEN
100
AcDbCircle
 62
7
  6
CONTINUOUS
 10
106.8074272131
 20
170.9204130545
 40
8.0
100
AcDbArc
 50
158.0
 51
203.0
  0
ARC
  5
560
100
AcDbEntity
  8
0
100
AcDbCircle
 62
7
  6
CONTINUOUS
 10
107.941298731
 20
163.6633800799
 40
2.5
100
AcDbArc
 50
84.2608295227
 51
275.7391704773
  0
ARC
  5
561
100
AcDbEntity
  8
RUNDUNGEN
100
AcDbCircle
 62
7
  6
CONTINUOUS
 10
108.4723904466
 20
151.6421774905
 40
2.0
100
AcDbArc
 50
203.0
 51
270.0
  0
ARC
  5
562
100
AcDbEntity
  8
0
100
AcDbCircle
 62
7
  6
CONTINUOUS
 10
107.941298731
 20
163.6633800799
 40
1.75
100
AcDbArc
 50
81.7867892983
 51
278.2132107017
  0
ARC
  5
563
100
AcDbEntity
  8
RUNDUNGEN
100
AcDbCircle
 62
7
  6
CONTINUOUS
 10
82.8854123345
 20
197.1342977231
 40
24.0
100
AcDbArc
 50
338.0
 51
30.5347988457
  0
ARC
  5
564
100
AcDbEntity
  8
RUNDUNGEN
100
AcDbCircle
 62
7
  6
CONTINUOUS
 10
103.9404396692
 20
202.1979603374
 40
6.375
100
AcDbArc
 50
338.0
 51
15.0
  0
ARC
  5
565
100
AcDbEntity
  8
RUNDUNGEN
100
AcDbCircle
 62
7
  6
CONTINUOUS
 10
134.1486193242
 20
174.643331926
 40
18.0
100
AcDbArc
 50
178.1986071605
 51
180.0002573983
  0
ARC
  5
566
100
AcDbEntity
  8
RUNDUNGEN
100
AcDbCircle
 62
7
  6
CONTINUOUS
 10
134.1486193242
 20
174.643331926
 40
18.0
100
AcDbArc
 50
157.9999920835
 51
164.7460853894
  0
ARC
  5
567
100
AcDbEntity
  8
RUNDUNGEN
100
AcDbCircle
 62
7
  6
CONTINUOUS
 10
134.1486193242
 20
174.643331926
 40
18.0
100
AcDbArc
 50
170.046000558
 51
172.4483444733
  0
ARC
  5
568
100
AcDbEntity
  8
0
100
AcDbCircle
 62
7
  6
CONTINUOUS
 10
112.191298731
 20
163.6633800799
 40
2.5
100
AcDbArc
 50
84.2608295227
 51
275.7391704773
  0
ARC
  5
569
100
AcDbEntity
  8
RUNDUNGEN
100
AcDbCircle
 62
7
  6
CONTINUOUS
 10
114.1486193242
 20
151.6421774905
 40
2.0
100
AcDbArc
 50
270.0
 51
360.0
  0
ARC
  5
56A
100
AcDbEntity
  8
0
100
AcDbCircle
 62
7
  6
CONTINUOUS
 10
112.191298731
 20
163.6633800799
 40
1.75
100
AcDbArc
 50
192.5412744583
 51
278.2132107017
  0
ARC
  5
56B
100
AcDbEntity
  8
0
100
AcDbCircle
 62
7
  6
CONTINUOUS
 10
112.191298731
 20
163.6633800799
 40
1.75
100
AcDbArc
 50
81.7867892983
 51
167.6123707416
  0
ARC
  5
56C
100
AcDbEntity
  8
RUNDUNGEN
100
AcDbCircle
 62
7
  6
CONTINUOUS
 10
117.1460192682
 20
151.5171774846
 40
1.0000000007
100
AcDbArc
 50
104.3265316069
 51
177.6119879872
  0
ARC
  5
56D
100
AcDbEntity
  8
RUNDUNGEN
100
AcDbCircle
 62
7
  6
CONTINUOUS
 10
117.8986193242
 20
174.2109274905
 40
1.0
100
AcDbArc
 50
90.0
 51
180.0
  0
ARC
  5
56E
100
AcDbEntity
  8
RUNDUNGEN
100
AcDbCircle
 62
7
  6
CONTINUOUS
 10
117.1486193242
 20
167.7671774905
 40
1.0
100
AcDbArc
 50
180.0
 51
255.503527079
  0
ARC
  5
56F
100
AcDbEntity
  8
RUNDUNGEN
100
AcDbCircle
 62
7
  6
CONTINUOUS
 10
126.7186193242
 20
175.7109274905
 40
0.5
100
AcDbArc
 50
270.0056898136
 51
0.0011586871
  0
ARC
  5
570
100
AcDbEntity
  8
RUNDUNGEN
100
AcDbCircle
 62
7
  6
CONTINUOUS
 10
123.1486193242
 20
175.7109274905
 40
0.5
100
AcDbArc
 50
270.0
 51
360.0
  0
ARC
  5
571
100
AcDbEntity
  8
RUNDUNGEN
100
AcDbCircle
 62
7
  6
CONTINUOUS
 10
127.7186193242
 20
176.4609274905
 40
0.5
100
AcDbArc
 50
89.9999999997
 51
180.0
  0
ARC
  5
572
100
AcDbEntity
  8
RUNDUNGEN
100
AcDbCircle
 62
7
  6
CONTINUOUS
 10
124.1486193242
 20
176.4609274905
 40
0.5
100
AcDbArc
 50
90.0
 51
180.0
  0
ARC
  5
573
100
AcDbEntity
  8
RUNDUNGEN
100
AcDbCircle
 62
7
  6
CONTINUOUS
 10
128.2111201852
 20
186.6421774905
 40
8.0
100
AcDbArc
 50
90.0
 51
158.000025631
  0
ARC
  5
574
100
AcDbEntity
  8
RUNDUNGEN
100
AcDbCircle
 62
7
  6
CONTINUOUS
 10
115.8180016853
 20
179.6421774905
 40
1.0
100
AcDbArc
 50
314.8476499465
 51
344.746085145
  0
ARC
  5
575
100
AcDbEntity
  8
RUNDUNGEN
100
AcDbCircle
 62
7
  6
CONTINUOUS
 10
118.2982394583
 20
250.0776452788
 40
6.375
100
AcDbArc
 50
111.0
 51
153.0
  0
ARC
  5
576
100
AcDbEntity
  8
RUNDUNGEN
100
AcDbCircle
 62
7
  6
CONTINUOUS
 10
109.131494813
 20
232.0868959365
 40
6.375
100
AcDbArc
 50
153.0
 51
195.0
  0
ARC
  5
577
100
AcDbEntity
  8
RUNDUNGEN
100
AcDbCircle
 62
7
  6
CONTINUOUS
 10
140.1486193242
 20
174.643331926
 40
18.0
100
AcDbArc
 50
359.9997462976
 51
1.8013927497
  0
ARC
  5
578
100
AcDbEntity
  8
RUNDUNGEN
100
AcDbCircle
 62
7
  6
CONTINUOUS
 10
140.1486193242
 20
174.643331926
 40
18.0
100
AcDbArc
 50
7.5516555248
 51
22.0000169016
  0
ARC
  5
579
100
AcDbEntity
  8
RUNDUNGEN
100
AcDbCircle
 62
7
  6
CONTINUOUS
 10
160.1486193242
 20
151.6421774905
 40
2.0
100
AcDbArc
 50
180.0
 51
270.0
  0
ARC
  5
57A
100
AcDbEntity
  8
RUNDUNGEN
100
AcDbCircle
 62
7
  6
CONTINUOUS
 10
157.1512193801
 20
151.5171774846
 40
1.0000000007
100
AcDbArc
 50
2.3880120115
 51
75.673468388
  0
ARC
  5
57B
100
AcDbEntity
  8
RUNDUNGEN
100
AcDbCircle
 62
7
  6
CONTINUOUS
 10
156.3986193242
 20
174.2109274905
 40
1.0
100
AcDbArc
 50
0.0
 51
90.0
  0
ARC
  5
57C
100
AcDbEntity
  8
RUNDUNGEN
100
AcDbCircle
 62
7
  6
CONTINUOUS
 10
157.1486193242
 20
167.7671774905
 40
1.0
100
AcDbArc
 50
284.496472921
 51
360.0
  0
ARC
  5
57D
100
AcDbEntity
  8
RUNDUNGEN
100
AcDbCircle
 62
7
  6
CONTINUOUS
 10
148.2186193242
 20
175.7109274905
 40
0.5
100
AcDbArc
 50
180.0092872728
 51
269.9973277371
  0
ARC
  5
57E
100
AcDbEntity
  8
RUNDUNGEN
100
AcDbCircle
 62
7
  6
CONTINUOUS
 10
151.1486193242
 20
175.7109274905
 40
0.5
100
AcDbArc
 50
180.0
 51
270.0
  0
ARC
  5
57F
100
AcDbEntity
  8
RUNDUNGEN
100
AcDbCircle
 62
7
  6
CONTINUOUS
 10
147.2186193242
 20
176.4609274905
 40
0.5
100
AcDbArc
 50
0.0
 51
89.9999999961
  0
ARC
  5
580
100
AcDbEntity
  8
RUNDUNGEN
100
AcDbCircle
 62
7
  6
CONTINUOUS
 10
150.1486193242
 20
176.4609274905
 40
0.5
100
AcDbArc
 50
0.0
 51
90.0
  0
ARC
  5
581
100
AcDbEntity
  8
RUNDUNGEN
100
AcDbCircle
 62
7
  6
CONTINUOUS
 10
146.0861184631
 20
186.6421774905
 40
8.0
100
AcDbArc
 50
21.9999763288
 51
90.0
  0
ARC
  5
582
100
AcDbEntity
  8
RUNDUNGEN
100
AcDbCircle
 62
7
  6
CONTINUOUS
 10
158.479236963
 20
179.6421774905
 40
1.0
100
AcDbArc
 50
195.253914855
 51
270.0
  0
ARC
  5
583
100
AcDbEntity
  8
RUNDUNGEN
100
AcDbCircle
 62
7
  6
CONTINUOUS
 10
167.4898114353
 20
170.9204130545
 40
8.0
100
AcDbArc
 50
337.0
 51
22.0
  0
ARC
  5
584
100
AcDbEntity
  8
RUNDUNGEN
100
AcDbCircle
 62
7
  6
CONTINUOUS
 10
165.8248482018
 20
151.6421774905
 40
2.0
100
AcDbArc
 50
270.0
 51
337.0
  0
ARC
  5
585
100
AcDbEntity
  8
RUNDUNGEN
100
AcDbCircle
 62
7
  6
CONTINUOUS
 10
191.4118263138
 20
197.1342977231
 40
24.0
100
AcDbArc
 50
149.4652011543
 51
202.0000129763
  0
ARC
  5
586
100
AcDbEntity
  8
RUNDUNGEN
100
AcDbCircle
 62
7
  6
CONTINUOUS
 10
170.3567989792
 20
202.1979603374
 40
6.375
100
AcDbArc
 50
165.0
 51
202.0
  0
ARC
  5
587
100
AcDbEntity
  8
RUNDUNGEN
100
AcDbCircle
 62
7
  6
CONTINUOUS
 10
137.1486193242
 20
229.1421774905
 40
39.0
100
AcDbArc
 50
329.4652011543
 51
210.5347988457
  0
CIRCLE
  5
588
100
AcDbEntity
  8
RUNDUNGEN
100
AcDbCircle
 62
7
  6
CONTINUOUS
 10
137.1486193242
 20
229.1421774905
 40
25.0
  0
ARC
  5
589
100
AcDbEntity
  8
RUNDUNGEN
100
AcDbCircle
 62
7
  6
CONTINUOUS
 10
165.1657438354
 20
232.0868959365
 40
6.375
100
AcDbArc
 50
345.0
 51
27.0
  0
ARC
  5
58A
100
AcDbEntity
  8
RUNDUNGEN
100
AcDbCircle
 62
7
  6
CONTINUOUS
 10
155.99899919
 20
250.0776452788
 40
6.375
100
AcDbArc
 50
27.0
 51
69.0
  0
ARC
  5
58B
100
AcDbEntity
  8
RUNDUNGEN
100
AcDbCircle
 62
7
  6
CONTINUOUS
 10
137.1486193242
 20
257.313628156
 40
6.375
100
AcDbArc
 50
69.0
 51
111.0
  0
ARC
  5
58C
100
AcDbEntity
  8
RUNDUNGEN
100
AcDbCircle
 62
7
  6
CONTINUOUS
 10
271.0368405139
 20
193.1705628175
 40
12.0
100
AcDbArc
 50
179.9999999643
 51
185.0424518052
  0
ARC
  5
58D
100
AcDbEntity
  8
RUNDUNGEN
100
AcDbCircle
 62
7
  6
CONTINUOUS
 10
248.5368405139
 20
175.1137921634
 40
12.0
100
AcDbArc
 50
0.0
 51
5.0424510692
  0
ARC
  5
58E
100
AcDbEntity
  8
RUNDUNGEN
100
AcDbCircle
 62
7
  6
CONTINUOUS
 10
233.0368405139
 20
193.1705628175
 40
12.0
100
AcDbArc
 50
354.9575481965
 51
0.0000001035
  0
ARC
  5
58F
100
AcDbEntity
  8
RUNDUNGEN
100
AcDbCircle
 62
7
  6
CONTINUOUS
 10
255.5368405139
 20
175.1137921634
 40
12.0
100
AcDbArc
 50
174.9576060518
 51
180.0
  0
ARC
  5
590
100
AcDbEntity
  8
RUNDUNGEN
100
AcDbCircle
 62
7
  6
CONTINUOUS
 10
245.5368405139
 20
151.6421774905
 40
2.0
100
AcDbArc
 50
180.0
 51
270.0
  0
ARC
  5
591
100
AcDbEntity
  8
RUNDUNGEN
100
AcDbCircle
 62
7
  6
CONTINUOUS
 10
258.5368405139
 20
151.6421774905
 40
2.0
100
AcDbArc
 50
270.0
 51
360.0
  0
ARC
  5
592
100
AcDbEntity
  8
RUNDUNGEN
100
AcDbCircle
 62
7
  6
CONTINUOUS
 10
256.2618405139
 20
266.6421774905
 40
1.5
100
AcDbArc
 50
0.0
 51
90.0
  0
ARC
  5
593
100
AcDbEntity
  8
RUNDUNGEN
100
AcDbCircle
 62
7
  6
CONTINUOUS
 10
247.8118405139
 20
266.6421774905
 40
1.5
100
AcDbArc
 50
90.0
 51
180.0
  0
ARC
  5
594
100
AcDbEntity
  8
RUNDUNGEN
100
AcDbCircle
 62
7
  6
CONTINUOUS
 10
232.7868405139
 20
175.9609274905
 40
1.0
100
AcDbArc
 50
90.0
 51
180.0
  0
ARC
  5
595
100
AcDbEntity
  8
RUNDUNGEN
100
AcDbCircle
 62
7
  6
CONTINUOUS
 10
271.2868405139
 20
175.9609274905
 40
1.0
100
AcDbArc
 50
0.0
 51
90.0
  0
ARC
  5
596
100
AcDbEntity
  8
RUNDUNGEN
100
AcDbCircle
 62
7
  6
CONTINUOUS
 10
244.8936668766
 20
179.6421774905
 40
1.0
100
AcDbArc
 50
174.9575498083
 51
181.7463065923
  0
ARC
  5
597
100
AcDbEntity
  8
RUNDUNGEN
100
AcDbCircle
 62
7
  6
CONTINUOUS
 10
245.5368405139
 20
263.188628156
 40
0.5
100
AcDbArc
 50
90.0
 51
180.0
  0
ARC
  5
598
100
AcDbEntity
  8
RUNDUNGEN
100
AcDbCircle
 62
7
  6
CONTINUOUS
 10
258.5368405139
 20
263.188628156
 40
0.5
100
AcDbArc
 50
0.0
 51
90.0
  0
ARC
  5
599
100
AcDbEntity
  8
RUNDUNGEN
100
AcDbCircle
 62
7
  6
CONTINUOUS
 10
245.8118405139
 20
264.188628156
 40
0.5
100
AcDbArc
 50
270.0
 51
360.0
  0
ARC
  5
59A
100
AcDbEntity
  8
RUNDUNGEN
100
AcDbCircle
 62
7
  6
CONTINUOUS
 10
258.2618405139
 20
264.188628156
 40
0.5
100
AcDbArc
 50
180.0
 51
270.0
  0
ARC
  5
59B
100
AcDbEntity
  8
RUNDUNGEN
100
AcDbCircle
 62
7
  6
CONTINUOUS
 10
123.2736193242
 20
33.1159977834
 40
6.375
100
AcDbArc
 50
180.0
 51
246.0089831978
  0
ARC
  5
59C
100
AcDbEntity
  8
RUNDUNGEN
100
AcDbCircle
 62
7
  6
CONTINUOUS
 10
100.8074272131
 20
37.5429123196
 40
2.0
100
AcDbArc
 50
180.0
 51
270.0
  0
ARC
  5
59D
100
AcDbEntity
  8
RUNDUNGEN
100
AcDbCircle
 62
7
  6
CONTINUOUS
 10
114.1486193242
 20
37.5429123196
 40
2.0
100
AcDbArc
 50
270.0
 51
310.0462117691
  0
ARC
  5
59E
100
AcDbEntity
  8
RUNDUNGEN
100
AcDbCircle
 62
7
  6
CONTINUOUS
 10
99.6486193242
 20
39.8179123196
 40
1.5
100
AcDbArc
 50
180.0
 51
270.0
  0
ARC
  5
59F
100
AcDbEntity
  8
RUNDUNGEN
100
AcDbCircle
 62
7
  6
CONTINUOUS
 10
128.2186193242
 20
25.8155800316
 40
1.0
100
AcDbArc
 50
180.0
 51
256.9338440851
  0
ARC
  5
5A0
100
AcDbEntity
  8
RUNDUNGEN
100
AcDbCircle
 62
7
  6
CONTINUOUS
 10
103.256494813
 20
37.5429123196
 40
0.5
100
AcDbArc
 50
180.0
 51
270.0
  0
ARC
  5
5A1
100
AcDbEntity
  8
RUNDUNGEN
100
AcDbCircle
 62
7
  6
CONTINUOUS
 10
102.256494813
 20
37.8179123196
 40
0.5
100
AcDbArc
 50
0.0
 51
90.0
  0
ARC
  5
5A2
100
AcDbEntity
  8
RUNDUNGEN
100
AcDbCircle
 62
7
  6
CONTINUOUS
 10
123.2736193242
 20
54.9698268558
 40
6.375
100
AcDbArc
 50
113.9910168022
 51
180.0
  0
ARC
  5
5A3
100
AcDbEntity
  8
0
100
AcDbCircle
 62
7
  6
CONTINUOUS
 10
126.8936193242
 20
53.2872893318
 40
4.9
100
AcDbArc
 50
101.6438424963
 51
138.3710788868
  0
ARC
  5
5A4
100
AcDbEntity
  8
RUNDUNGEN
100
AcDbCircle
 62
7
  6
CONTINUOUS
 10
100.8074272131
 20
50.5429123196
 40
2.0
100
AcDbArc
 50
90.0
 51
180.0
  0
ARC
  5
5A5
100
AcDbEntity
  8
RUNDUNGEN
100
AcDbCircle
 62
7
  6
CONTINUOUS
 10
114.1486193242
 20
50.5429123196
 40
2.0
100
AcDbArc
 50
49.9537879932
 51
90.0
  0
ARC
  5
5A6
100
AcDbEntity
  8
RUNDUNGEN
100
AcDbCircle
 62
7
  6
CONTINUOUS
 10
99.6486193242
 20
48.2679123196
 40
1.5
100
AcDbArc
 50
90.0
 51
180.0
  0
ARC
  5
5A7
100
AcDbEntity
  8
RUNDUNGEN
100
AcDbCircle
 62
7
  6
CONTINUOUS
 10
124.6486193242
 20
61.26290031
 40
1.0
100
AcDbArc
 50
108.4487152303
 51
180.0
  0
ARC
  5
5A8
100
AcDbEntity
  8
RUNDUNGEN
100
AcDbCircle
 62
7
  6
CONTINUOUS
 10
111.9064479385
 20
51.5429123196
 40
1.0
100
AcDbArc
 50
44.188532976
 51
90.0
  0
ARC
  5
5A9
100
AcDbEntity
  8
RUNDUNGEN
100
AcDbCircle
 62
7
  6
CONTINUOUS
 10
103.256494813
 20
50.5429123196
 40
0.5
100
AcDbArc
 50
90.0
 51
180.0
  0
ARC
  5
5AA
100
AcDbEntity
  8
RUNDUNGEN
100
AcDbCircle
 62
7
  6
CONTINUOUS
 10
102.256494813
 20
50.2679123196
 40
0.5
100
AcDbArc
 50
270.0
 51
360.0
  0
ARC
  5
5AB
100
AcDbEntity
  8
RUNDUNGEN
100
AcDbCircle
 62
7
  6
CONTINUOUS
 10
137.1486193242
 20
23.7929123196
 40
40.5
100
AcDbArc
 50
66.0089831978
 51
113.9910168022
  0
ARC
  5
5AC
100
AcDbEntity
  8
RUNDUNGEN
100
AcDbCircle
 62
7
  6
CONTINUOUS
 10
146.7186193242
 20
25.9697456968
 40
1.0
100
AcDbArc
 50
284.0210572666
 51
360.0
  0
ARC
  5
5AD
100
AcDbEntity
  8
RUNDUNGEN
100
AcDbCircle
 62
7
  6
CONTINUOUS
 10
151.0236193242
 20
33.1159977834
 40
6.375
100
AcDbArc
 50
293.9910168022
 51
360.0
  0
ARC
  5
5AE
100
AcDbEntity
  8
RUNDUNGEN
100
AcDbCircle
 62
7
  6
CONTINUOUS
 10
159.6703994518
 20
37.5429123196
 40
2.0000000007
100
AcDbArc
 50
222.9087202402
 51
269.9999999384
  0
ARC
  5
5AF
100
AcDbEntity
  8
RUNDUNGEN
100
AcDbCircle
 62
7
  6
CONTINUOUS
 10
173.4898114353
 20
37.5429123196
 40
2.0
100
AcDbArc
 50
270.0
 51
360.0
  0
ARC
  5
5B0
100
AcDbEntity
  8
RUNDUNGEN
100
AcDbCircle
 62
7
  6
CONTINUOUS
 10
160.1486193242
 20
37.5429123196
 40
2.0
100
AcDbArc
 50
229.9536932806
 51
270.0
  0
ARC
  5
5B1
100
AcDbEntity
  8
RUNDUNGEN
100
AcDbCircle
 62
7
  6
CONTINUOUS
 10
174.6486193242
 20
39.8179123196
 40
1.5
100
AcDbArc
 50
270.0
 51
360.0
  0
ARC
  5
5B2
100
AcDbEntity
  8
RUNDUNGEN
100
AcDbCircle
 62
7
  6
CONTINUOUS
 10
162.3907907098
 20
36.5429123196
 40
1.0
100
AcDbArc
 50
224.188532976
 51
238.4437710325
  0
ARC
  5
5B3
100
AcDbEntity
  8
RUNDUNGEN
100
AcDbCircle
 62
7
  6
CONTINUOUS
 10
171.0407438354
 20
37.5429123196
 40
0.5
100
AcDbArc
 50
270.0
 51
360.0
  0
ARC
  5
5B4
100
AcDbEntity
  8
RUNDUNGEN
100
AcDbCircle
 62
7
  6
CONTINUOUS
 10
172.0407438354
 20
37.8179123196
 40
0.5
100
AcDbArc
 50
90.0
 51
180.0
  0
ARC
  5
5B5
100
AcDbEntity
  8
0
100
AcDbCircle
 62
7
  6
CONTINUOUS
 10
137.1486193242
 20
44.0429123196
 40
18.0
100
AcDbArc
 50
22.9028055288
 51
157.0971944712
  0
ARC
  5
5B6
100
AcDbEntity
  8
0
100
AcDbCircle
 62
7
  6
CONTINUOUS
 10
137.1486193242
 20
44.0429123196
 40
18.0
100
AcDbArc
 50
202.9028055288
 51
337.0971944712
  0
ARC
  5
5B7
100
AcDbEntity
  8
BEZUGSACHSEN
100
AcDbCircle
 62
7
  6
CONTINUOUS
 10
137.1486193242
 20
44.0429123196
 40
12.0
100
AcDbArc
 50
35.7006840832
 51
144.299315944
  0
ARC
  5
5B8
100
AcDbEntity
  8
BEZUGSACHSEN
100
AcDbCircle
 62
7
  6
CONTINUOUS
 10
137.1486193242
 20
44.0429123196
 40
12.0
100
AcDbArc
 50
215.7006840832
 51
324.2993159168
  0
ARC
  5
5B9
100
AcDbEntity
  8
0
100
AcDbCircle
 62
7
  6
CONTINUOUS
 10
147.4036193242
 20
53.2872893318
 40
4.9
100
AcDbArc
 50
41.6289211132
 51
78.3561575037
  0
ARC
  5
5BA
100
AcDbEntity
  8
RUNDUNGEN
100
AcDbCircle
 62
7
  6
CONTINUOUS
 10
137.1486193242
 20
64.2929123196
 40
40.5
100
AcDbArc
 50
246.0089831978
 51
293.9910168022
  0
ARC
  5
5BB
100
AcDbEntity
  8
RUNDUNGEN
100
AcDbCircle
 62
7
  6
CONTINUOUS
 10
151.0236193242
 20
54.9698268558
 40
6.375
100
AcDbArc
 50
0.0
 51
66.0089831978
  0
ARC
  5
5BC
100
AcDbEntity
  8
RUNDUNGEN
100
AcDbCircle
 62
7
  6
CONTINUOUS
 10
149.6486389511
 20
61.2628943874
 40
0.9999869154
100
AcDbArc
 50
0.0003393467
 51
71.552458904
  0
ARC
  5
5BD
100
AcDbEntity
  8
RUNDUNGEN
100
AcDbCircle
 62
7
  6
CONTINUOUS
 10
173.4898114353
 20
50.5429123196
 40
2.0
100
AcDbArc
 50
0.0
 51
90.0
  0
ARC
  5
5BE
100
AcDbEntity
  8
RUNDUNGEN
100
AcDbCircle
 62
7
  6
CONTINUOUS
 10
160.1486193242
 20
50.5429123196
 40
2.0
100
AcDbArc
 50
90.0
 51
130.0463066135
  0
ARC
  5
5BF
100
AcDbEntity
  8
RUNDUNGEN
100
AcDbCircle
 62
7
  6
CONTINUOUS
 10
174.6486193242
 20
48.2679123196
 40
1.5
100
AcDbArc
 50
0.0
 51
90.0
  0
ARC
  5
5C0
100
AcDbEntity
  8
RUNDUNGEN
100
AcDbCircle
 62
7
  6
CONTINUOUS
 10
162.3907906671
 20
51.5429122372
 40
1.0
100
AcDbArc
 50
89.9999975519
 51
135.8107890162
  0
ARC
  5
5C1
100
AcDbEntity
  8
RUNDUNGEN
100
AcDbCircle
 62
7
  6
CONTINUOUS
 10
171.0407438354
 20
50.5429123196
 40
0.5
100
AcDbArc
 50
0.0
 51
90.0
  0
ARC
  5
5C2
100
AcDbEntity
  8
RUNDUNGEN
100
AcDbCircle
 62
7
  6
CONTINUOUS
 10
172.0407438354
 20
50.2679123196
 40
0.5
100
AcDbArc
 50
180.0
 51
270.0
  0
SPLINE
  5
5C3
100
AcDbEntity
  8
0
100
AcDbSpline
 62
7
  6
CONTINUOUS
 70
0
 71
3
 72
12
 73
8
 74
0
 42
0.0000001
 43
0.0000001
 44
0.0000000001
 40
0.0
 40
0.0
 40
0.0
 40
0.0
 40
0.5163250648
 40
0.7745068024
 40
0.8563626597
 40
0.9179831184
 40
1.0
 40
1.0
 40
1.0
 40
1.0
 10
149.1349352891
 20
175.7109274905
 30
0.0
 10
149.1349352891
 20
175.6131371867
 30
0.0
 10
149.1551319779
 20
175.4649505895
 30
0.0
 10
149.2200177028
 20
175.3143380486
 30
0.0
 10
149.2662794792
 20
175.2532562643
 30
0.0
 10
149.2971489775
 20
175.2241579598
 30
0.0
 10
149.3235077884
 20
175.2109274905
 30
0.0
 10
149.3390415216
 20
175.2109274905
 30
0.0
  0
SPLINE
  5
5C4
100
AcDbEntity
  8
0
100
AcDbSpline
 62
7
  6
CONTINUOUS
 70
0
 71
3
 72
12
 73
8
 74
0
 42
0.0000001
 43
0.0000001
 44
0.0000000001
 40
0.0
 40
0.0
 40
0.0
 40
0.0
 40
0.1063246132
 40
0.1783847276
 40
0.2697757765
 40
0.5403649561
 40
1.0
 40
1.0
 40
1.0
 40
1.0
 10
125.0863580147
 20
175.2109274905
 30
0.0
 10
125.1070883169
 20
175.2109274905
 30
0.0
 10
125.1415820907
 20
175.2253625835
 30
0.0
 10
125.1806525127
 20
175.2604927152
 30
0.0
 10
125.2326328
 20
175.3279945055
 30
0.0
 10
125.2952384664
 20
175.4778726415
 30
0.0
 10
125.3138395275
 20
175.6213116143
 30
0.0
 10
125.3138395275
 20
175.7109274905
 30
0.0
  0
SPLINE
  5
5C5
100
AcDbEntity
  8
0
100
AcDbSpline
 62
7
  6
CONTINUOUS
 70
0
 71
3
 72
11
 73
7
 74
0
 42
0.0000001
 43
0.0000001
 44
0.0000000001
 40
0.0
 40
0.0
 40
0.0
 40
0.0
 40
0.1473695779
 40
0.3283413617
 40
0.584686101
 40
1.0
 40
1.0
 40
1.0
 40
1.0
 10
148.8987952695
 20
176.9576960047
 30
0.0
 10
148.9270135161
 20
176.9520587683
 30
0.0
 10
148.9868208095
 20
176.9221053844
 30
0.0
 10
149.0597377863
 20
176.8312567603
 30
0.0
 10
149.1204131607
 20
176.674237033
 30
0.0
 10
149.1349352891
 20
176.5420229146
 30
0.0
 10
149.1349352891
 20
176.4609274905
 30
0.0
  0
SPLINE
  5
5C6
100
AcDbEntity
  8
0
100
AcDbSpline
 62
7
  6
CONTINUOUS
 70
0
 71
3
 72
9
 73
5
 74
0
 42
0.0000001
 43
0.0000001
 44
0.0000000001
 40
0.0
 40
0.0
 40
0.0
 40
0.0
 40
0.595062651
 40
1.0
 40
1.0
 40
1.0
 40
1.0
 10
125.3138395275
 20
176.4609274905
 30
0.0
 10
125.3138395275
 20
176.5368605151
 30
0.0
 10
125.327723898
 20
176.6651081793
 30
0.0
 10
125.3724336109
 20
176.786512076
 30
0.0
 10
125.3984520262
 20
176.8311556048
 30
0.0
  0
SPLINE
  5
5C7
100
AcDbEntity
  8
BEZUGSACHSEN
100
AcDbSpline
 62
7
  6
CONTINUOUS
 70
0
 71
3
 72
11
 73
7
 74
0
 42
0.0000001
 43
0.0000001
 44
0.0000000001
 40
0.0
 40
0.0
 40
0.0
 40
0.0
 40
0.261635636
 40
0.5144889974
 40
0.7595899979
 40
1.0
 40
1.0
 40
1.0
 40
1.0
 10
123.2922128636
 20
191.3891307207
 30
0.0
 10
123.5691206361
 20
191.5490034977
 30
0.0
 10
124.1262084915
 20
191.8426091399
 30
0.0
 10
124.9900129433
 20
192.1884414439
 30
0.0
 10
125.8680633408
 20
192.4097113285
 30
0.0
 10
126.4625088234
 20
192.4609274904
 30
0.0
 10
126.756314478
 20
192.4609274905
 30
0.0
  0
SPLINE
  5
5C8
100
AcDbEntity
  8
BEZUGSACHSEN
100
AcDbSpline
 62
7
  6
CONTINUOUS
 70
0
 71
3
 72
11
 73
7
 74
0
 42
0.0000001
 43
0.0000001
 44
0.0000000001
 40
0.0
 40
0.0
 40
0.0
 40
0.0
 40
0.2404100398
 40
0.4855110518
 40
0.7383643655
 40
1.0
 40
1.0
 40
1.0
 40
1.0
 10
126.756314478
 20
192.4609274905
 30
0.0
 10
127.0501201788
 20
192.4609274905
 30
0.0
 10
127.6445657224
 20
192.4097113164
 30
0.0
 10
128.5226161154
 20
192.1884414047
 30
0.0
 10
129.3864205191
 20
191.8426091081
 30
0.0
 10
129.9435083229
 20
191.5490034968
 30
0.0
 10
130.2204160939
 20
191.3891307207
 30
0.0
  0
SPLINE
  5
5C9
100
AcDbEntity
  8
BEZUGSACHSEN
100
AcDbSpline
 62
7
  6
CONTINUOUS
 70
0
 71
3
 72
10
 73
6
 74
0
 42
0.0000001
 43
0.0000001
 44
0.0000000001
 40
0.0
 40
0.0
 40
0.0
 40
0.0
 40
0.4998915143
 40
0.7499457876
 40
1.0
 40
1.0
 40
1.0
 40
1.0
 10
130.2204160939
 20
191.3891307207
 30
0.0
 10
131.3460733674
 20
191.7140799857
 30
0.0
 10
133.0621864166
 20
192.1203239385
 30
0.0
 10
135.3898033949
 20
192.4109192092
 30
0.0
 10
136.5625545138
 20
192.4609274905
 30
0.0
 10
137.1486193242
 20
192.4609274905
 30
0.0
  0
SPLINE
  5
5CA
100
AcDbEntity
  8
BEZUGSACHSEN
100
AcDbSpline
 62
7
  6
CONTINUOUS
 70
0
 71
3
 72
10
 73
6
 74
0
 42
0.0000001
 43
0.0000001
 44
0.0000000001
 40
0.0
 40
0.0
 40
0.0
 40
0.0
 40
0.2500542352
 40
0.5001085202
 40
1.0
 40
1.0
 40
1.0
 40
1.0
 10
137.1486193242
 20
192.4609274905
 30
0.0
 10
137.7346841881
 20
192.4609274905
 30
0.0
 10
138.907435388
 20
192.4109191986
 30
0.0
 10
141.2350523635
 20
192.1203239063
 30
0.0
 10
142.9511653587
 20
191.7140799632
 30
0.0
 10
144.0768225544
 20
191.3891307207
 30
0.0
  0
SPLINE
  5
5CB
100
AcDbEntity
  8
BEZUGSACHSEN
100
AcDbSpline
 62
7
  6
CONTINUOUS
 70
0
 71
3
 72
11
 73
7
 74
0
 42
0.0000001
 43
0.0000001
 44
0.0000000001
 40
0.0
 40
0.0
 40
0.0
 40
0.0
 40
0.261635636
 40
0.5144889974
 40
0.7595899979
 40
1.0
 40
1.0
 40
1.0
 40
1.0
 10
144.0768225544
 20
191.3891307207
 30
0.0
 10
144.353730327
 20
191.5490034977
 30
0.0
 10
144.9108181823
 20
191.8426091399
 30
0.0
 10
145.7746226341
 20
192.1884414439
 30
0.0
 10
146.6526730316
 20
192.4097113285
 30
0.0
 10
147.2471185143
 20
192.4609274904
 30
0.0
 10
147.5409241689
 20
192.4609274905
 30
0.0
  0
SPLINE
  5
5CC
100
AcDbEntity
  8
BEZUGSACHSEN
100
AcDbSpline
 62
7
  6
CONTINUOUS
 70
0
 71
3
 72
9
 73
5
 74
0
 42
0.0000001
 43
0.0000001
 44
0.0000000001
 40
0.0
 40
0.0
 40
0.0
 40
0.0
 40
0.4961584454
 40
1.0
 40
1.0
 40
1.0
 40
1.0
 10
147.5409241689
 20
192.4609274905
 30
0.0
 10
147.7996946786
 20
192.4609274905
 30
0.0
 10
148.3219460578
 20
192.4214474213
 30
0.0
 10
148.8327182597
 20
192.3077740305
 30
0.0
 10
149.0852487103
 20
192.2351073282
 30
0.0
  0
SPLINE
  5
5CD
100
AcDbEntity
  8
BEZUGSACHSEN
100
AcDbSpline
 62
7
  6
CONTINUOUS
 70
0
 71
3
 72
9
 73
5
 74
0
 42
0.0000001
 43
0.0000001
 44
0.0000000001
 40
0.0
 40
0.0
 40
0.0
 40
0.0
 40
0.2431746274
 40
1.0
 40
1.0
 40
1.0
 40
1.0
 10
149.0852487103
 20
192.2351073282
 30
0.0
 10
149.2489166588
 20
192.1880111857
 30
0.0
 10
149.9143001335
 20
191.9674971073
 30
0.0
 10
150.5459902381
 20
191.6541550171
 30
0.0
 10
151.0050257847
 20
191.3891307207
 30
0.0
  0
SPLINE
  5
5CE
100
AcDbEntity
  8
BEZUGSACHSEN
100
AcDbSpline
 62
7
  6
CONTINUOUS
 70
0
 71
3
 72
9
 73
5
 74
0
 42
0.0000001
 43
0.0000001
 44
0.0000000001
 40
0.0
 40
0.0
 40
0.0
 40
0.0
 40
0.5015740893
 40
1.0
 40
1.0
 40
1.0
 40
1.0
 10
240.0368405139
 20
191.3891307207
 30
0.0
 10
240.7773563988
 20
191.635969349
 30
0.0
 10
242.2752602659
 20
192.0674914361
 30
0.0
 10
243.8158038012
 20
192.3228730616
 30
0.0
 10
244.5882142459
 20
192.3939407605
 30
0.0
  0
SPLINE
  5
5CF
100
AcDbEntity
  8
BEZUGSACHSEN
100
AcDbSpline
 62
7
  6
CONTINUOUS
 70
0
 71
3
 72
9
 73
5
 74
0
 42
0.0000001
 43
0.0000001
 44
0.0000000001
 40
0.0
 40
0.0
 40
0.0
 40
0.0
 40
0.4983243309
 40
1.0
 40
1.0
 40
1.0
 40
1.0
 10
259.0604013833
 20
192.427376688
 30
0.0
 10
259.904787937
 20
192.3722495415
 30
0.0
 10
261.5919376601
 20
192.1235472019
 30
0.0
 10
263.2286809831
 20
191.658517231
 30
0.0
 10
264.0368405139
 20
191.3891307207
 30
0.0
  0
SPLINE
  5
5D0
100
AcDbEntity
  8
RUNDUNGEN
100
AcDbSpline
 62
7
  6
CONTINUOUS
 70
0
 71
3
 72
17
 73
13
 74
0
 42
0.0000001
 43
0.0000001
 44
0.0000000001
 40
0.0
 40
0.0
 40
0.0
 40
0.0
 40
0.0302818573
 40
0.0631255007
 40
0.0999589208
 40
0.1416942586
 40
0.2413611463
 40
0.3628284561
 40
0.5037723562
 40
0.6602903127
 40
0.8275111072
 40
1.0
 40
1.0
 40
1.0
 40
1.0
 10
260.5368405139
 20
151.6421774905
 30
0.0
 10
260.5368405139
 20
151.6192962328
 30
0.0
 10
260.5296829309
 20
151.5714054387
 30
0.0
 10
260.4993844084
 20
151.501506493
 30
0.0
 10
260.4502556398
 20
151.4325404181
 30
0.0
 10
260.3549357748
 20
151.3367626757
 30
0.0
 10
260.1885601166
 20
151.22527913
 30
0.0
 10
259.9395089444
 20
151.1105570111
 30
0.0
 10
259.6379536552
 20
151.0122773395
 30
0.0
 10
259.2950539616
 20
150.9348727451
 30
0.0
 10
258.9235040565
 20
150.8818202594
 30
0.0
 10
258.6671123734
 20
150.8647471433
 30
0.0
 10
258.5368405139
 20
150.8607152335
 30
0.0
  0
SPLINE
  5
5D1
100
AcDbEntity
  8
RUNDUNGEN
100
AcDbSpline
 62
7
  6
CONTINUOUS
 70
0
 71
3
 72
16
 73
12
 74
0
 42
0.0000001
 43
0.0000001
 44
0.0000000001
 40
0.0
 40
0.0
 40
0.0
 40
0.0
 40
0.1726700994
 40
0.340082491
 40
0.4967885159
 40
0.6378977177
 40
0.7594819214
 40
0.8591829919
 40
0.9008896874
 40
0.9376556913
 40
1.0
 40
1.0
 40
1.0
 40
1.0
 10
245.5368405139
 20
150.8607152335
 30
0.0
 10
245.4065646043
 20
150.8649418116
 30
0.0
 10
245.1501658127
 20
150.8823710577
 30
0.0
 10
244.7786250779
 20
150.935890937
 30
0.0
 10
244.4357343671
 20
151.0136456139
 30
0.0
 10
244.1341944786
 20
151.1120901318
 30
0.0
 10
243.8851724062
 20
151.2268490193
 30
0.0
 10
243.7187996657
 20
151.3379930702
 30
0.0
 10
243.623446685
 20
151.4337026365
 30
0.0
 10
243.5612570907
 20
151.5200055946
 30
0.0
 10
243.5368405139
 20
151.5951152899
 30
0.0
 10
243.5368405139
 20
151.6421774905
 30
0.0
  0
SPLINE
  5
5D2
100
AcDbEntity
  8
RUNDUNGEN
100
AcDbSpline
 62
7
  6
CONTINUOUS
 70
0
 71
3
 72
16
 73
12
 74
0
 42
0.0000001
 43
0.0000001
 44
0.0000000001
 40
0.0
 40
0.0
 40
0.0
 40
0.0
 40
0.1857616667
 40
0.3625589886
 40
0.525084542
 40
0.668533769
 40
0.7889067505
 40
0.8834950701
 40
0.9210310083
 40
0.9524911753
 40
1.0
 40
1.0
 40
1.0
 40
1.0
 10
258.2154588523
 20
188.737299145
 30
0.0
 10
258.2937421406
 20
188.7403283405
 30
0.0
 10
258.4467857914
 20
188.7338424526
 30
0.0
 10
258.6677146911
 20
188.7189805278
 30
0.0
 10
258.8697279186
 20
188.6923442219
 30
0.0
 10
259.0463250423
 20
188.6576505952
 30
0.0
 10
259.1918089843
 20
188.6160191669
 30
0.0
 10
259.2906381602
 20
188.5750987143
 30
0.0
 10
259.3491571126
 20
188.537827351
 30
0.0
 10
259.3858787061
 20
188.5056078443
 30
0.0
 10
259.4045827586
 20
188.4745986005
 30
0.0
 10
259.4063389583
 20
188.4546396643
 30
0.0
  0
SPLINE
  5
5D3
100
AcDbEntity
  8
RUNDUNGEN
100
AcDbSpline
 62
7
  6
CONTINUOUS
 70
0
 71
3
 72
9
 73
5
 74
0
 42
0.0000001
 43
0.0000001
 44
0.0000000001
 40
0.0
 40
0.0
 40
0.0
 40
0.0
 40
0.5018107267
 40
1.0
 40
1.0
 40
1.0
 40
1.0
 10
168.5299444773
 20
51.0436063328
 30
0.0
 10
168.4159676225
 20
51.1562156451
 30
0.0
 10
168.1445396341
 20
51.3400593836
 30
0.0
 10
167.8236471238
 20
51.4093328741
 30
0.0
 10
167.6646096679
 20
51.412410764
 30
0.0
  0
ELLIPSE
  5
5D4
100
AcDbEntity
  8
0
100
AcDbEllipse
 62
7
  6
CONTINUOUS
 10
111.4426996276
 20
25.0429123196
 30
0.0
 11
0.0
 21
12.0
 31
0.0
 40
0.4040262258
 41
0.0
 42
0.0425493139
  0
ELLIPSE
  5
5D5
100
AcDbEntity
  8
0
100
AcDbEllipse
 62
7
  6
CONTINUOUS
 10
115.147629358
 20
51.5327669513
 30
0.0
 11
2.2025625
 21
0.0
 31
0.0
 40
0.0882352941
 41
5.9429478779
 42
8.2205007769
  0
ELLIPSE
  5
5D6
100
AcDbEntity
  8
0
100
AcDbEllipse
 62
7
  6
CONTINUOUS
 10
112.4971722482
 20
52.0054465668
 30
0.0
 11
2.660244206
 21
0.0455672782
 31
0.0
 40
0.0644118454
 41
6.5373292009
 42
9.6789218545
  0
ELLIPSE
  5
5D7
100
AcDbEntity
  8
0
100
AcDbEllipse
 62
7
  6
CONTINUOUS
 10
111.9802659068
 20
51.9523901405
 30
0.0
 11
1.122
 21
0.0
 31
0.0
 40
0.0882352941
 41
1.9373154697
 42
3.5081117965
  0
ELLIPSE
  5
5D8
100
AcDbEntity
  8
0
100
AcDbEllipse
 62
7
  6
CONTINUOUS
 10
113.2836608797
 20
51.9965365923
 30
0.0
 11
1.122
 21
0.0
 31
0.0
 40
0.0882352941
 41
0.3665191429
 42
1.9373154697
  0
ELLIPSE
  5
5D9
100
AcDbEntity
  8
0
100
AcDbEllipse
 62
7
  6
CONTINUOUS
 10
112.4971722482
 20
51.5787953627
 30
0.0
 11
2.660244206
 21
0.0455672782
 31
0.0
 40
0.0644118454
 41
3.1404894162
 42
3.3957365473
  0
ELLIPSE
  5
5DA
100
AcDbEntity
  8
0
100
AcDbEllipse
 62
7
  6
CONTINUOUS
 10
115.147629358
 20
51.5327669513
 30
0.0
 11
1.0805625
 21
0.0
 31
0.0
 40
0.0882352941
 41
5.6477483499
 42
8.2205007769
  0
ENDSEC
  0
SECTION
  2
OBJECTS
  0
DICTIONARY
  5
C
100
AcDbDictionary
280
0
281
1
  3
ACAD_GROUP
350
D
  3
ACAD_MLINESTYLE
350
17
  3
ACAD_LAYOUT
350
1A
  3
ACAD_PLOTSETTINGS
350
19
  3
ACAD_PLOTSTYLENAME
350
E
  0
DICTIONARY
  5
D
102
{ACAD_REACTORS
330
C
102
}
100
AcDbDictionary
280
0
281
1
  0
ACDBDICTIONARYWDFLT
  5
E
102
{ACAD_REACTORS
330
C
102
}
100
AcDbDictionary
281
1
  3
Normal
350
F
100
AcDbDictionaryWithDefault
340
F
  0
DICTIONARY
  5
17
102
{ACAD_REACTORS
330
C
102
}
100
AcDbDictionary
280
0
281
1
  3
Standard
350
18
  0
DICTIONARY
  5
19
102
{ACAD_REACTORS
330
C
102
}
100
AcDbDictionary
281
1
  0
DICTIONARY
  5
1A
102
{ACAD_REACTORS
330
C
102
}
100
AcDbDictionary
281
1
  3
Model
350
5DB
  3
Layout1
350
5DC
  0
ACDBPLACEHOLDER
  5
F
102
{ACAD_REACTORS
330
E
102
}
  0
MLINESTYLE
  5
18
102
{ACAD_REACTORS
330
17
102
}
100
AcDbMlineStyle
  2
STANDARD
 70
0
  3

 62
256
 51
90.0
 52
90.0
 71
2
 49
0.5
 62
256
  6
BYLAYER
 49
-0.5
 62
256
  6
BYLAYER
  0
LAYOUT
  5
5DB
102
{ACAD_REACTORS
330
1A
102
}
100
AcDbPlotSettings
  1

  2
none_device
  4
ISO_A3_(420.00_x_297.00_MM)
  6

 40
0.0
 41
0.0
 42
0.0
 43
0.0
 44
420.0
 45
297.0
 46
0.0
 47
0.0
 48
0.0
 49
0.0
140
0.0
141
0.0
142
1.0
143
1.0
 70
1024
 72
1
 73
0
 74
0
  7

 75
0
147
1.0
148
0.0
149
0.0
100
AcDbLayout
  1
Model
 70
0
 71
0
 10
0.0
 20
0.0
 11
420.0
 21
297.0
 12
0.0
 22
0.0
 32
0.0
 14
0.0
 24
0.0
 34
0.0
 15
0.0
 25
0.0
 35
0.0
146
0.0
 13
0.0
 23
0.0
 33
0.0
 16
1.0
 26
0.0
 36
0.0
 17
0.0
 27
1.0
 37
0.0
 76
0
330
20F
345
0
346
0
  0
LAYOUT
  5
5DC
102
{ACAD_REACTORS
330
1A
102
}
100
AcDbPlotSettings
  1

  2
none_device
  4
ISO_A3_(420.00_x_297.00_MM)
  6

 40
0.0
 41
0.0
 42
0.0
 43
0.0
 44
420.0
 45
297.0
 46
0.0
 47
0.0
 48
0.0
 49
0.0
140
0.0
141
0.0
142
1.0
143
1.0
 70
0
 72
1
 73
0
 74
0
  7

 75
0
147
1.0
148
0.0
149
0.0
100
AcDbLayout
  1
Layout1
 70
0
 71
1
 10
0.0
 20
0.0
 11
420.0
 21
297.0
 12
0.0
 22
0.0
 32
0.0
 14
0.0
 24
0.0
 34
0.0
 15
0.0
 25
0.0
 35
0.0
146
0.0
 13
0.0
 23
0.0
 33
0.0
 16
1.0
 26
0.0
 36
0.0
 17
0.0
 27
1.0
 37
0.0
 76
0
330
210
345
0
346
0
  0
ENDSEC
  0
EOF
