999
DXF file: 001-m35810-p-1.dxf
999
Pro/ENGINEER 2020454 by Parametric Technology Corporation
  0
SECTION
  2
HEADER
  9
$ACADVER
  1
AC1015
  9
$DWGCODEPAGE
  3
ANSI_1252
  9
$EXTMAX
 10
297.0
 20
210.0
 30
0.0
  9
$EXTMIN
 10
0.0
 20
0.0
 30
0.0
  9
$LIMMIN
 10
0.0
 20
0.0
  9
$LIMMAX
 10
297.0
 20
210.0
  9
$VIEWCTR
 10
148.5
 20
105.0
  9
$VIEWSIZE
 40
210.0
  9
$CLAYER
  8
0
  9
$LTSCALE
 40
16.335
  9
$CELTYPE
  6
BYLAYER
  9
$DIMSCALE
 40
1.0
  9
$DIMASZ
 40
3.5
  9
$DIMEXO
 40
1.5
  9
$DIMDLI
 40
11.286
  9
$DIMEXE
 40
1.5
  9
$DIMCEN
 40
2.673
  9
$DIMLFAC
 40
1.0
  9
$DIMBLK
  1
_FILLED
  9
$DIMALT
 70
0
  9
$DIMALTF
 40
0.0393700787
  9
$DIMTXT
 40
3.5
  9
$DIMTOL
 70
1
  9
$DIMLIM
 70
0
  9
$DIMTFAC
 40
1.0
  9
$DIMTP
 40
0.05
  9
$DIMTM
 40
0.05
  9
$DIMGAP
 40
0.625
  9
$DIMDSEP
 70
46
  9
$AUNITS
 70
0
  9
$PDMODE
 70
3
  9
$PDSIZE
 40
0.3125
  9
$HANDSEED
  5
640
  9
$TILEMODE
 70
1
  9
$MEASUREMENT
 70
1
  9
$INSUNITS
 70
4
  0
ENDSEC
  0
SECTION
  2
CLASSES
  0
CLASS
  1
ACDBDICTIONARYWDFLT
  2
AcDbDictionaryWithDefault
  3
AutoCAD 2000
 90
0
280
0
281
0
  0
CLASS
  1
ACDBPLACEHOLDER
  2
AcDbPlaceHolder
  3
AutoCAD 2000
 90
0
280
0
281
0
  0
CLASS
  1
LAYOUT
  2
AcDbLayout
  3
AutoCAD 2000
 90
0
280
0
281
0
  0
ENDSEC
  0
SECTION
  2
TABLES
  0
TABLE
  2
VPORT
  5
8
100
AcDbSymbolTable
 70
2
  0
VPORT
  5
1F4
100
AcDbSymbolTableRecord
100
AcDbViewportTableRecord
  2
*ACTIVE
 70
0
 10
0.0
 20
0.0
 11
1.0
 21
1.0
 12
148.5
 22
105.0
 13
0.0
 23
0.0
 14
1.0
 24
1.0
 15
0.0
 25
0.0
 16
0.0
 26
0.0
 36
1.0
 17
0.0
 27
0.0
 37
0.0
 40
210.0
 41
1.4142857143
 42
50.0
 43
0.0
 44
0.0
 50
0.0
 51
0.0
 71
0
 72
100
 73
1
 74
1
 75
0
 76
0
 77
0
 78
0
  0
ENDTAB
  0
TABLE
  2
LTYPE
  5
5
100
AcDbSymbolTable
 70
6
  0
LTYPE
  5
14
100
AcDbSymbolTableRecord
100
AcDbLinetypeTableRecord
  2
BYBLOCK
 70
0
  3

 72
65
 73
0
 40
0.0
  0
LTYPE
  5
15
100
AcDbSymbolTableRecord
100
AcDbLinetypeTableRecord
  2
BYLAYER
 70
0
  3

 72
65
 73
0
 40
0.0
  0
LTYPE
  5
16
100
AcDbSymbolTableRecord
100
AcDbLinetypeTableRecord
  2
CONTINUOUS
 70
64
  3
Solid line
 72
65
 73
0
 40
0.0
  0
LTYPE
  5
1F5
100
AcDbSymbolTableRecord
100
AcDbLinetypeTableRecord
  2
CENTER
 70
64
  3
____ _ ____ _ ____ _ ____ _ ____ _ ____ _ ____
 72
65
 73
4
 40
0.6
 49
0.375
 74
0
 49
-0.075
 74
0
 49
0.075
 74
0
 49
-0.075
 74
0
  0
LTYPE
  5
1F6
100
AcDbSymbolTableRecord
100
AcDbLinetypeTableRecord
  2
HIDDEN
 70
64
  3
- - - - - - - - - - - - - - - - - - - -
 72
65
 73
2
 40
0.2
 49
0.1
 74
0
 49
-0.1
 74
0
  0
LTYPE
  5
1F7
100
AcDbSymbolTableRecord
100
AcDbLinetypeTableRecord
  2
PHANTOM
 70
64
  3
_____ _ _ _____ _ _ _____ _ _ _____
 72
65
 73
6
 40
0.8
 49
0.45
 74
0
 49
-0.05
 74
0
 49
0.1
 74
0
 49
-0.05
 74
0
 49
0.1
 74
0
 49
-0.05
 74
0
  0
LTYPE
  5
1F8
100
AcDbSymbolTableRecord
100
AcDbLinetypeTableRecord
  2
DOT
 70
64
  3
. . . . . . . . . . . . . . . . . . . .
 72
65
 73
2
 40
0.2
 49
0.1
 74
0
 49
-0.1
 74
0
  0
LTYPE
  5
1F9
100
AcDbSymbolTableRecord
100
AcDbLinetypeTableRecord
  2
DASHED
 70
64
  3
- - - - - - - - - - - - - - - - - - - -
 72
65
 73
2
 40
0.2
 49
0.1
 74
0
 49
-0.1
 74
0
  0
ENDTAB
  0
TABLE
  2
LAYER
  5
2
100
AcDbSymbolTable
 70
36
  0
LAYER
  5
10
100
AcDbSymbolTableRecord
100
AcDbLayerTableRecord
  2
0
 70
0
 62
7
  6
CONTINUOUS
370
-3
390
F
  0
LAYER
  5
1FA
100
AcDbSymbolTableRecord
100
AcDbLayerTableRecord
  2
DEFAULT_1
 70
0
 62
7
  6
CENTER
370
-3
390
F
  0
LAYER
  5
1FB
100
AcDbSymbolTableRecord
100
AcDbLayerTableRecord
  2
DEFAULT_2
 70
0
 62
8
  6
HIDDEN
370
-3
390
F
  0
LAYER
  5
1FC
100
AcDbSymbolTableRecord
100
AcDbLayerTableRecord
  2
DEFAULT_3
 70
0
 62
7
  6
PHANTOM
370
-3
390
F
  0
LAYER
  5
1FD
100
AcDbSymbolTableRecord
100
AcDbLayerTableRecord
  2
AUSFORMSCHRAEGEN
 70
0
 62
7
  6
CONTINUOUS
370
-3
390
F
  0
LAYER
  5
1FE
100
AcDbSymbolTableRecord
100
AcDbLayerTableRecord
  2
BEZUGSACHSEN
 70
0
 62
7
  6
CONTINUOUS
370
-3
390
F
  0
LAYER
  5
1FF
100
AcDbSymbolTableRecord
100
AcDbLayerTableRecord
  2
BEZUGSEBENEN
 70
0
 62
7
  6
CONTINUOUS
370
-3
390
F
  0
LAYER
  5
200
100
AcDbSymbolTableRecord
100
AcDbLayerTableRecord
  2
BG_STARTBEZUEGE
 70
0
 62
7
  6
CONTINUOUS
370
-3
390
F
  0
LAYER
  5
201
100
AcDbSymbolTableRecord
100
AcDbLayerTableRecord
  2
FASEN
 70
0
 62
7
  6
CONTINUOUS
370
-3
390
F
  0
LAYER
  5
202
100
AcDbSymbolTableRecord
100
AcDbLayerTableRecord
  2
GEWINDE
 70
0
 62
7
  6
CONTINUOUS
370
-3
390
F
  0
LAYER
  5
203
100
AcDbSymbolTableRecord
100
AcDbLayerTableRecord
  2
HILFEN
 70
0
 62
7
  6
CONTINUOUS
370
-3
390
F
  0
LAYER
  5
204
100
AcDbSymbolTableRecord
100
AcDbLayerTableRecord
  2
KONSTRUKTIONSELEMENTE
 70
0
 62
7
  6
CONTINUOUS
370
-3
390
F
  0
LAYER
  5
205
100
AcDbSymbolTableRecord
100
AcDbLayerTableRecord
  2
KURVEN
 70
0
 62
7
  6
CONTINUOUS
370
-3
390
F
  0
LAYER
  5
206
100
AcDbSymbolTableRecord
100
AcDbLayerTableRecord
  2
NORM
 70
0
 62
7
  6
CONTINUOUS
370
-3
390
F
  0
LAYER
  5
207
100
AcDbSymbolTableRecord
100
AcDbLayerTableRecord
  2
PLATZIERUNG
 70
0
 62
7
  6
CONTINUOUS
370
-3
390
F
  0
LAYER
  5
208
100
AcDbSymbolTableRecord
100
AcDbLayerTableRecord
  2
PLAZIERUNG
 70
0
 62
7
  6
CONTINUOUS
370
-3
390
F
  0
LAYER
  5
209
100
AcDbSymbolTableRecord
100
AcDbLayerTableRecord
  2
RUNDUNGEN
 70
0
 62
7
  6
CONTINUOUS
370
-3
390
F
  0
LAYER
  5
20A
100
AcDbSymbolTableRecord
100
AcDbLayerTableRecord
  2
TEIL_STARTBEZUEGE
 70
0
 62
7
  6
CONTINUOUS
370
-3
390
F
  0
LAYER
  5
20B
100
AcDbSymbolTableRecord
100
AcDbLayerTableRecord
  2
T_STARTBEZUEGE
 70
0
 62
7
  6
CONTINUOUS
370
-3
390
F
  0
LAYER
  5
20C
100
AcDbSymbolTableRecord
100
AcDbLayerTableRecord
  2
ZEICHNUNGSBEMASSUNGEN
 70
0
 62
7
  6
CONTINUOUS
370
-3
390
F
  0
LAYER
  5
20D
100
AcDbSymbolTableRecord
100
AcDbLayerTableRecord
  2
_30_VOLUMEN
 70
0
 62
7
  6
CONTINUOUS
370
-3
390
F
  0
ENDTAB
  0
TABLE
  2
STYLE
  5
3
100
AcDbSymbolTable
 70
1
  0
STYLE
  5
11
100
AcDbSymbolTableRecord
100
AcDbTextStyleTableRecord
  2
STANDARD
 70
0
 40
0.0
 41
0.7
 50
0.0
 71
0
 42
0.2
  3
txt
  4

  0
STYLE
  5
20E
100
AcDbSymbolTableRecord
100
AcDbTextStyleTableRecord
  2
TEXTSTYLE_1
 70
0
 40
0.0
 41
0.8
 50
0.0
 71
0
 42
0.2
  3
gdt
  4

  0
ENDTAB
  0
TABLE
  2
VIEW
  5
6
100
AcDbSymbolTable
 70
0
  0
ENDTAB
  0
TABLE
  2
UCS
  5
7
100
AcDbSymbolTable
 70
0
  0
ENDTAB
  0
TABLE
  2
APPID
  5
9
100
AcDbSymbolTable
 70
1
  0
APPID
  5
20F
100
AcDbSymbolTableRecord
100
AcDbRegAppTableRecord
  2
ACAD
 70
0
  0
ENDTAB
  0
TABLE
  2
BLOCK_RECORD
  5
1
100
AcDbSymbolTable
 70
0
  0
BLOCK_RECORD
  5
210
100
AcDbSymbolTableRecord
100
AcDbBlockTableRecord
  2
*Model_Space
  0
BLOCK_RECORD
  5
211
100
AcDbSymbolTableRecord
100
AcDbBlockTableRecord
  2
*Paper_Space
  0
BLOCK_RECORD
  5
212
100
AcDbSymbolTableRecord
100
AcDbBlockTableRecord
  2
_FILLED
  0
ENDTAB
  0
TABLE
  2
DIMSTYLE
  5
A
100
AcDbSymbolTable
 70
1
100
AcDbDimStyleTable
 71
0
  0
DIMSTYLE
105
213
100
AcDbSymbolTableRecord
100
AcDbDimStyleTableRecord
  2
STANDARD
 70
0
  3

  4

 40
1.0
 41
3.5
 42
1.5
 43
0.38
 44
1.5
 45
0.0
 46
0.0
 47
0.05
 48
0.05
140
3.5
141
0.09
142
0.0
143
25.4
144
1.0
145
0.0
146
1.0
147
0.625
 71
1
 72
0
 73
0
 74
0
 75
0
 76
0
 77
1
 78
8
 79
2
170
0
171
1
172
0
173
0
174
0
175
0
176
0
177
0
178
5
270
2
179
2
271
2
272
2
273
2
274
2
275
0
280
0
281
0
282
0
283
1
284
8
285
0
286
0
287
3
288
0
340
11
278
46
341
212
342
212
343
212
344
212
  0
ENDTAB
  0
ENDSEC
  0
SECTION
  2
BLOCKS
  0
BLOCK
  5
20
100
AcDbEntity
  8
0
100
AcDbBlockBegin
  2
*Model_Space
 70
0
 10
0.0
 20
0.0
 30
0.0
  3
*Model_Space
  1

  0
ENDBLK
  5
21
100
AcDbEntity
  8
0
100
AcDbBlockEnd
  0
BLOCK
  5
1C
100
AcDbEntity
  8
0
100
AcDbBlockBegin
  2
*Paper_Space
 70
0
 10
0.0
 20
0.0
 30
0.0
  3
*Paper_Space
  1

  0
ENDBLK
  5
1D
100
AcDbEntity
  8
0
100
AcDbBlockEnd
  0
BLOCK
  5
214
100
AcDbEntity
  8
0
100
AcDbBlockBegin
  2
_FILLED
 70
64
 10
0.0
 20
0.0
  3
_FILLED
  1

  0
SOLID
  5
215
100
AcDbEntity
  8
0
  6
BYBLOCK
 62
0
100
AcDbTrace
 10
0.0
 20
0.0
 11
-1.0
 21
0.125
 12
-1.0
 22
-0.125
 13
-1.0
 23
-0.125
  0
ENDBLK
  5
216
100
AcDbEntity
  8
0
  6
BYBLOCK
 62
0
100
AcDbBlockEnd
  0
ENDSEC
  0
SECTION
  2
ENTITIES
  0
MTEXT
  5
217
100
AcDbEntity
  8
0
100
AcDbMText
 62
5
  6
CONTINUOUS
  7
STANDARD
 71
1
 72
1
 10
94.9647307286
 20
111.6738648363
 30
0.0
 11
1.0
 21
0.0
 31
0.0
 73
2
 44
0.9
  1
RUD
 40
3.5
 41
14.0
  0
MTEXT
  5
218
100
AcDbEntity
  8
0
100
AcDbMText
 62
5
  6
CONTINUOUS
  7
STANDARD
 71
1
 72
1
 10
195.865719113
 20
107.0046821542
 30
0.0
 11
0.0
 21
1.0
 31
0.0
 73
2
 44
0.9
  1
RUD ACP 1,35t M12
 40
3.5
 41
67.5
  0
MTEXT
  5
219
100
AcDbEntity
  8
0
100
AcDbMText
 62
5
  6
CONTINUOUS
  7
STANDARD
 71
1
 72
1
 10
76.9773820486
 20
39.1644667371
 30
0.0
 11
1.0
 21
0.0
 31
0.0
 73
2
 44
0.9
  1
RUD ACP 1,35t M12
 40
3.5
 41
67.5
  0
LINE
  5
21A
100
AcDbEntity
  8
0
100
AcDbLine
 62
7
  6
CONTINUOUS
 10
0.0
 20
0.0
 11
0.0
 21
210.0
  0
LINE
  5
21B
100
AcDbEntity
  8
0
100
AcDbLine
 62
7
  6
CONTINUOUS
 10
0.0
 20
0.0
 11
297.0
 21
0.0
  0
LINE
  5
21C
100
AcDbEntity
  8
0
100
AcDbLine
 62
7
  6
CONTINUOUS
 10
0.0
 20
210.0
 11
297.0
 21
210.0
  0
LINE
  5
21D
100
AcDbEntity
  8
0
100
AcDbLine
 62
7
  6
CONTINUOUS
 10
297.0
 20
0.0
 11
297.0
 21
210.0
  0
LINE
  5
21E
100
AcDbEntity
  8
BEZUGSACHSEN
100
AcDbLine
 62
7
  6
CONTINUOUS
 10
94.3869837816
 20
75.8031477656
 11
103.9869837816
 21
75.8031477656
  0
LINE
  5
21F
100
AcDbEntity
  8
BEZUGSACHSEN
100
AcDbLine
 62
7
  6
CONTINUOUS
 10
93.1869837816
 20
77.0031477656
 11
105.1869837816
 21
77.0031477656
  0
LINE
  5
220
100
AcDbEntity
  8
RUNDUNGEN
100
AcDbLine
 62
7
  6
CONTINUOUS
 10
97.8278018355
 20
184.0791566994
 11
82.7472915987
 21
178.2902911895
  0
LINE
  5
221
100
AcDbEntity
  8
BEZUGSACHSEN
100
AcDbLine
 62
7
  6
CONTINUOUS
 10
93.1869837816
 20
77.0031477656
 11
94.3869837816
 21
75.8031477656
  0
LINE
  5
222
100
AcDbEntity
  8
RUNDUNGEN
100
AcDbLine
 62
7
  6
CONTINUOUS
 10
80.6822845683
 20
176.4952079645
 11
73.6969226357
 21
163.8932814504
  0
LINE
  5
223
100
AcDbEntity
  8
0
100
AcDbLine
 62
7
  6
CONTINUOUS
 10
114.1869837816
 20
94.3031477656
 11
84.1869837816
 21
94.3031477656
  0
LINE
  5
224
100
AcDbEntity
  8
RUNDUNGEN
100
AcDbLine
 62
7
  6
CONTINUOUS
 10
77.0488693428
 20
98.0008977656
 11
81.7432021267
 21
98.0009085912
  0
LINE
  5
225
100
AcDbEntity
  8
RUNDUNGEN
100
AcDbLine
 62
7
  6
CONTINUOUS
 10
116.636477426
 20
98.0008977656
 11
121.3250982205
 21
98.0008977656
  0
LINE
  5
226
100
AcDbEntity
  8
RUNDUNGEN
100
AcDbLine
 62
7
  6
CONTINUOUS
 10
76.1283644894
 20
98.6101666371
 11
70.6580605776
 21
111.4973950495
  0
LWPOLYLINE
  5
227
100
AcDbEntity
  8
RUNDUNGEN
100
AcDbPolyline
 62
7
  6
CONTINUOUS
 90
22
 70
0
 10
81.7432021267
 20
98.0009085912
 10
81.8443478436
 20
98.0047084911
 10
81.9450120886
 20
98.0153216773
 10
82.0447363497
 20
98.032700847
 10
82.1430667653
 20
98.0567680041
 10
82.2395547271
 20
98.0874144631
 10
82.3337590232
 20
98.1245010105
 10
82.4252502713
 20
98.1678593931
 10
82.5136113076
 20
98.2172927238
 10
82.5984378695
 20
98.272575487
 10
82.6793432315
 20
98.3334561265
 10
82.7559585156
 20
98.3996575668
 10
82.8279332621
 20
98.4708773041
 10
82.8949394436
 20
98.5467908682
 10
82.9566716682
 20
98.6270523949
 10
83.0128477386
 20
98.7112948577
 10
83.0632118751
 20
98.7991342589
 10
83.1075347945
 20
98.8901702335
 10
83.1456142092
 20
98.9839863928
 10
83.1772769881
 20
99.0801545748
 10
83.2023796198
 20
99.1782369507
 10
83.2071878058
 20
99.2008977712
  0
LINE
  5
228
100
AcDbEntity
  8
0
100
AcDbLine
 62
7
  6
CONTINUOUS
 10
114.1869837816
 20
99.4031477656
 11
84.1869837816
 21
99.4031477656
  0
LINE
  5
229
100
AcDbEntity
  8
RUNDUNGEN
100
AcDbLine
 62
7
  6
CONTINUOUS
 10
83.9369837816
 20
99.5531477656
 11
114.4369837816
 21
99.5531477656
  0
LINE
  5
22A
100
AcDbEntity
  8
0
100
AcDbLine
 62
7
  6
CONTINUOUS
 10
78.5368582783
 20
128.18137514
 11
78.5687017086
 21
127.8084552103
  0
LINE
  5
22B
100
AcDbEntity
  8
0
100
AcDbLine
 62
7
  6
CONTINUOUS
 10
76.8657006661
 20
107.1435453291
 11
76.8657006661
 21
107.7478795572
  0
LINE
  5
22C
100
AcDbEntity
  8
0
100
AcDbLine
 62
7
  6
CONTINUOUS
 10
76.8657006661
 20
110.5191608493
 11
76.8657006661
 21
111.1234950775
  0
LINE
  5
22D
100
AcDbEntity
  8
0
100
AcDbLine
 62
7
  6
CONTINUOUS
 10
78.698221233
 20
108.8335202033
 11
79.8657006661
 21
108.8335202033
  0
LINE
  5
22E
100
AcDbEntity
  8
0
100
AcDbLine
 62
7
  6
CONTINUOUS
 10
79.8657006661
 20
109.4378544314
 11
78.6991792877
 21
109.4378544314
  0
LINE
  5
22F
100
AcDbEntity
  8
0
100
AcDbLine
 62
7
  6
CONTINUOUS
 10
82.6809831384
 20
128.2024570812
 11
82.6491398673
 21
128.5753774609
  0
LINE
  5
230
100
AcDbEntity
  8
0
100
AcDbLine
 62
7
  6
CONTINUOUS
 10
79.8657006661
 20
108.8335202033
 11
79.8657006661
 21
109.4378544314
  0
LINE
  5
231
100
AcDbEntity
  8
0
100
AcDbLine
 62
7
  6
CONTINUOUS
 10
80.2657006661
 20
107.1435453291
 11
80.2657006661
 21
107.7478795572
  0
LINE
  5
232
100
AcDbEntity
  8
0
100
AcDbLine
 62
7
  6
CONTINUOUS
 10
80.2657006661
 20
110.5191608493
 11
80.2657006661
 21
111.1234950775
  0
LINE
  5
233
100
AcDbEntity
  8
0
100
AcDbLine
 62
7
  6
CONTINUOUS
 10
81.9680812719
 20
132.5423289715
 11
81.9525565979
 21
132.2786965016
  0
LINE
  5
234
100
AcDbEntity
  8
0
100
AcDbLine
 62
7
  6
CONTINUOUS
 10
79.0411905489
 20
128.0658552679
 11
79.0881616121
 21
128.4066602429
  0
LINE
  5
235
100
AcDbEntity
  8
0
100
AcDbLine
 62
7
  6
CONTINUOUS
 10
78.5368582783
 20
128.18137514
 11
78.6152757307
 21
128.5993526201
  0
LINE
  5
236
100
AcDbEntity
  8
0
100
AcDbLine
 62
7
  6
CONTINUOUS
 10
82.39399627
 20
132.0088320609
 11
82.4724133625
 21
132.4268086578
  0
LINE
  5
237
100
AcDbEntity
  8
RUNDUNGEN
100
AcDbLine
 62
7
  6
CONTINUOUS
 10
70.6179865709
 20
116.0894213809
 11
74.7960038221
 21
126.4303769526
  0
LINE
  5
238
100
AcDbEntity
  8
0
100
AcDbLine
 62
7
  6
CONTINUOUS
 10
80.3448238964
 20
132.8438324521
 11
79.5901118158
 21
130.9916954208
  0
LINE
  5
239
100
AcDbEntity
  8
0
100
AcDbLine
 62
7
  6
CONTINUOUS
 10
77.3574225029
 20
125.5124581567
 11
77.1058518843
 21
124.8950793303
  0
LINE
  5
23A
100
AcDbEntity
  8
0
100
AcDbLine
 62
7
  6
CONTINUOUS
 10
78.6152757307
 20
128.5993526201
 11
78.8982926934
 21
129.2939038412
  0
LINE
  5
23B
100
AcDbEntity
  8
0
100
AcDbLine
 62
7
  6
CONTINUOUS
 10
80.1728615387
 20
131.2941530288
 11
80.7703416735
 21
132.7604275346
  0
LINE
  5
23C
100
AcDbEntity
  8
0
100
AcDbLine
 62
7
  6
CONTINUOUS
 10
79.0881616121
 20
128.4066602429
 11
79.3711785749
 21
129.101211464
  0
LINE
  5
23D
100
AcDbEntity
  8
0
100
AcDbLine
 62
7
  6
CONTINUOUS
 10
80.0956352507
 20
129.5258977129
 11
80.2843132258
 21
129.9889318603
  0
LINE
  5
23E
100
AcDbEntity
  8
RUNDUNGEN
100
AcDbLine
 62
7
  6
CONTINUOUS
 10
77.8318806344
 20
134.1445865476
 11
76.4968489024
 21
130.9902690016
  0
LINE
  5
23F
100
AcDbEntity
  8
RUNDUNGEN
100
AcDbLine
 62
7
  6
CONTINUOUS
 10
117.2187574345
 20
113.8658977656
 11
115.6869837816
 21
113.8658977656
  0
LINE
  5
240
100
AcDbEntity
  8
RUNDUNGEN
100
AcDbLine
 62
7
  6
CONTINUOUS
 10
82.6869837816
 20
113.8658977656
 11
81.1552101735
 21
113.8658977656
  0
LINE
  5
241
100
AcDbEntity
  8
0
100
AcDbLine
 62
7
  6
CONTINUOUS
 10
79.3918642828
 20
123.5136401052
 11
77.5468944254
 21
125.0753071035
  0
LINE
  5
242
100
AcDbEntity
  8
0
100
AcDbLine
 62
7
  6
CONTINUOUS
 10
80.4956617568
 20
122.613931913
 11
79.6756751929
 21
123.3080061257
  0
LINE
  5
243
100
AcDbEntity
  8
0
100
AcDbLine
 62
7
  6
CONTINUOUS
 10
77.1058518843
 20
124.8950793303
 11
80.3069837816
 21
122.1508977656
  0
LINE
  5
244
100
AcDbEntity
  8
0
100
AcDbLine
 62
7
  6
CONTINUOUS
 10
78.7581735862
 20
127.3713040467
 11
79.010538242
 21
127.0884978933
  0
LINE
  5
245
100
AcDbEntity
  8
0
100
AcDbLine
 62
7
  6
CONTINUOUS
 10
79.2780307516
 20
127.5194165546
 11
79.1044801885
 21
127.7701074018
  0
LINE
  5
246
100
AcDbEntity
  8
0
100
AcDbLine
 62
7
  6
CONTINUOUS
 10
78.5687017086
 20
127.8084552103
 11
78.7581735862
 21
127.3713040467
  0
LINE
  5
247
100
AcDbEntity
  8
0
100
AcDbLine
 62
7
  6
CONTINUOUS
 10
82.6491398673
 20
128.5753774609
 11
82.4596677823
 21
129.0125281941
  0
LINE
  5
248
100
AcDbEntity
  8
0
100
AcDbLine
 62
7
  6
CONTINUOUS
 10
79.1044801885
 20
127.7701074018
 11
79.0411905489
 21
128.0658552679
  0
LINE
  5
249
100
AcDbEntity
  8
0
100
AcDbLine
 62
7
  6
CONTINUOUS
 10
82.1766508195
 20
128.317976973
 11
82.1133611247
 21
128.6137248616
  0
LINE
  5
24A
100
AcDbEntity
  8
RUNDUNGEN
100
AcDbLine
 62
7
  6
CONTINUOUS
 10
73.2688927305
 20
161.1908069879
 11
78.0747352829
 21
136.4668903851
  0
LINE
  5
24B
100
AcDbEntity
  8
RUNDUNGEN
100
AcDbLine
 62
7
  6
CONTINUOUS
 10
83.1869837816
 20
118.9177120528
 11
83.1869837816
 21
118.7031477656
  0
LINE
  5
24C
100
AcDbEntity
  8
RUNDUNGEN
100
AcDbLine
 62
7
  6
CONTINUOUS
 10
83.1869837816
 20
117.4031477656
 11
83.1869837816
 21
109.6542096971
  0
LINE
  5
24D
100
AcDbEntity
  8
RUNDUNGEN
100
AcDbLine
 62
7
  6
CONTINUOUS
 10
83.1869837816
 20
101.3475827527
 11
83.1869837816
 21
99.5008977656
  0
LINE
  5
24E
100
AcDbEntity
  8
RUNDUNGEN
100
AcDbLine
 62
7
  6
CONTINUOUS
 10
83.9369837816
 20
116.4031477656
 11
83.9369837816
 21
99.5531477656
  0
LINE
  5
24F
100
AcDbEntity
  8
0
100
AcDbLine
 62
7
  6
CONTINUOUS
 10
84.1869837816
 20
99.4031477656
 11
84.1869837816
 21
94.3031477656
  0
LINE
  5
250
100
AcDbEntity
  8
0
100
AcDbLine
 62
7
  6
CONTINUOUS
 10
85.1869837816
 20
122.8031477656
 11
85.1869837816
 21
119.3031477656
  0
LINE
  5
251
100
AcDbEntity
  8
0
100
AcDbLine
 62
7
  6
CONTINUOUS
 10
86.7679015937
 20
118.7031477656
 11
86.7679015937
 21
117.4031477656
  0
LINE
  5
252
100
AcDbEntity
  8
0
100
AcDbLine
 62
7
  6
CONTINUOUS
 10
82.1766508195
 20
128.317976973
 11
82.1296799363
 21
127.9771724396
  0
LINE
  5
253
100
AcDbEntity
  8
0
100
AcDbLine
 62
7
  6
CONTINUOUS
 10
82.6025658729
 20
127.7844800399
 11
82.6809831384
 21
128.2024570812
  0
LINE
  5
254
100
AcDbEntity
  8
0
100
AcDbLine
 62
7
  6
CONTINUOUS
 10
81.9525565979
 20
132.2786965016
 11
81.3550764631
 21
130.8124219958
  0
LINE
  5
255
100
AcDbEntity
  8
0
100
AcDbLine
 62
7
  6
CONTINUOUS
 10
81.8279623445
 20
130.6197296186
 11
82.39399627
 21
132.0088320609
  0
LINE
  5
256
100
AcDbEntity
  8
0
100
AcDbLine
 62
7
  6
CONTINUOUS
 10
79.9578982308
 20
124.9027426027
 11
79.3918642828
 21
123.5136401052
  0
LINE
  5
257
100
AcDbEntity
  8
0
100
AcDbLine
 62
7
  6
CONTINUOUS
 10
82.0970425484
 20
129.2502777027
 11
81.9083645732
 21
128.7872435553
  0
LINE
  5
258
100
AcDbEntity
  8
0
100
AcDbLine
 62
7
  6
CONTINUOUS
 10
79.6756751929
 20
123.3080061257
 11
80.3046017843
 21
124.8514533022
  0
LINE
  5
259
100
AcDbEntity
  8
0
100
AcDbLine
 62
7
  6
CONTINUOUS
 10
82.1296799363
 20
127.9771724396
 11
81.8466629735
 21
127.2826212184
  0
LINE
  5
25A
100
AcDbEntity
  8
0
100
AcDbLine
 62
7
  6
CONTINUOUS
 10
80.3069837816
 20
122.1508977656
 11
80.4956617568
 21
122.613931913
  0
LINE
  5
25B
100
AcDbEntity
  8
0
100
AcDbLine
 62
7
  6
CONTINUOUS
 10
81.3761589443
 20
124.7747578608
 11
81.5648369195
 21
125.2377920082
  0
LINE
  5
25C
100
AcDbEntity
  8
0
100
AcDbLine
 62
7
  6
CONTINUOUS
 10
82.3195489101
 20
127.0899288187
 11
82.6025658729
 21
127.7844800399
  0
LINE
  5
25D
100
AcDbEntity
  8
0
100
AcDbLine
 62
7
  6
CONTINUOUS
 10
83.2943849952
 20
129.4822716194
 11
83.4830631503
 21
129.9453062084
  0
LINE
  5
25E
100
AcDbEntity
  8
0
100
AcDbLine
 62
7
  6
CONTINUOUS
 10
80.580869616
 20
133.1975782566
 11
80.3448238964
 21
132.8438324521
  0
LINE
  5
25F
100
AcDbEntity
  8
0
100
AcDbLine
 62
7
  6
CONTINUOUS
 10
79.134338593
 20
129.6476500874
 11
78.8982926934
 21
129.2939038412
  0
LINE
  5
260
100
AcDbEntity
  8
0
100
AcDbLine
 62
7
  6
CONTINUOUS
 10
79.3711785749
 20
129.101211464
 11
79.5757780853
 21
129.3777852051
  0
LINE
  5
261
100
AcDbEntity
  8
0
100
AcDbLine
 62
7
  6
CONTINUOUS
 10
80.7703416735
 20
132.7604275346
 11
80.9434949747
 21
132.9598292121
  0
LINE
  5
262
100
AcDbEntity
  8
0
100
AcDbLine
 62
7
  6
CONTINUOUS
 10
118.8510741564
 20
122.602546767
 11
119.2768375275
 21
122.6846887825
  0
LINE
  5
263
100
AcDbEntity
  8
RUNDUNGEN
100
AcDbLine
 62
7
  6
CONTINUOUS
 10
113.4369837816
 20
117.4031477656
 11
107.6426325472
 21
117.4031477656
  0
LINE
  5
264
100
AcDbEntity
  8
RUNDUNGEN
100
AcDbLine
 62
7
  6
CONTINUOUS
 10
90.7312915952
 20
117.4031477656
 11
84.9369837816
 21
117.4031477656
  0
LINE
  5
265
100
AcDbEntity
  8
0
100
AcDbLine
 62
7
  6
CONTINUOUS
 10
81.780616752
 20
117.4031477656
 11
84.9369837816
 21
117.4031477656
  0
LINE
  5
266
100
AcDbEntity
  8
0
100
AcDbLine
 62
7
  6
CONTINUOUS
 10
113.4369837816
 20
117.4031477656
 11
116.5933508113
 21
117.4031477656
  0
LINE
  5
267
100
AcDbEntity
  8
0
100
AcDbLine
 62
7
  6
CONTINUOUS
 10
81.780616752
 20
118.7031477656
 11
89.5807510932
 21
118.7031477656
  0
LINE
  5
268
100
AcDbEntity
  8
0
100
AcDbLine
 62
7
  6
CONTINUOUS
 10
108.7932164701
 20
118.7031477656
 11
116.5933508113
 21
118.7031477656
  0
LINE
  5
269
100
AcDbEntity
  8
RUNDUNGEN
100
AcDbLine
 62
7
  6
CONTINUOUS
 10
105.9389837816
 20
118.7531477656
 11
92.4349837816
 21
118.7531477656
  0
LINE
  5
26A
100
AcDbEntity
  8
RUNDUNGEN
100
AcDbLine
 62
7
  6
CONTINUOUS
 10
89.8913587816
 20
118.7531477656
 11
90.1869837816
 21
118.7531477656
  0
LINE
  5
26B
100
AcDbEntity
  8
RUNDUNGEN
100
AcDbLine
 62
7
  6
CONTINUOUS
 10
108.1869837816
 20
118.7531477656
 11
108.4826087816
 21
118.7531477656
  0
LINE
  5
26C
100
AcDbEntity
  8
0
100
AcDbLine
 62
7
  6
CONTINUOUS
 10
113.1869837816
 20
119.3031477656
 11
85.1869837816
 21
119.3031477656
  0
LINE
  5
26D
100
AcDbEntity
  8
0
100
AcDbLine
 62
7
  6
CONTINUOUS
 10
79.3731636415
 20
126.8507483172
 11
80.5553784555
 21
126.3690173292
  0
LINE
  5
26E
100
AcDbEntity
  8
0
100
AcDbLine
 62
7
  6
CONTINUOUS
 10
79.010538242
 20
127.0884978933
 11
79.3731636415
 21
126.8507483172
  0
LINE
  5
26F
100
AcDbEntity
  8
0
100
AcDbLine
 62
7
  6
CONTINUOUS
 10
79.5618416167
 20
127.3137824647
 11
79.2780307516
 21
127.5194165546
  0
LINE
  5
270
100
AcDbEntity
  8
0
100
AcDbLine
 62
7
  6
CONTINUOUS
 10
82.1133611247
 20
128.6137248616
 11
81.9083645732
 21
128.7872435553
  0
LINE
  5
271
100
AcDbEntity
  8
0
100
AcDbLine
 62
7
  6
CONTINUOUS
 10
82.3617559785
 20
132.8318448668
 11
82.1408377118
 21
133.1918235253
  0
LINE
  5
272
100
AcDbEntity
  8
0
100
AcDbLine
 62
7
  6
CONTINUOUS
 10
81.8733454231
 20
132.7609047741
 11
81.9680812719
 21
132.5423289715
  0
LINE
  5
273
100
AcDbEntity
  8
0
100
AcDbLine
 62
7
  6
CONTINUOUS
 10
82.4724133625
 20
132.4268086578
 11
82.3617559785
 21
132.8318448668
  0
LINE
  5
274
100
AcDbEntity
  8
0
100
AcDbLine
 62
7
  6
CONTINUOUS
 10
87.6466125998
 20
117.4031477656
 11
87.6466125998
 21
118.7031477656
  0
LINE
  5
275
100
AcDbEntity
  8
BEZUGSACHSEN
100
AcDbLine
 62
7
  6
CONTINUOUS
 10
88.217328667
 20
123.3031477656
 11
88.217328667
 21
129.4546419896
  0
LINE
  5
276
100
AcDbEntity
  8
0
100
AcDbLine
 62
7
  6
CONTINUOUS
 10
90.1869837816
 20
119.3031477656
 11
90.1869837816
 21
117.5623050569
  0
LINE
  5
277
100
AcDbEntity
  8
0
100
AcDbLine
 62
7
  6
CONTINUOUS
 10
90.1869837816
 20
99.5531477656
 11
90.1869837816
 21
99.4031477656
  0
LINE
  5
278
100
AcDbEntity
  8
KONSTRUKTIONSELEMENTE
100
AcDbLine
 62
7
  6
CONTINUOUS
 10
90.5869837816
 20
122.8031477656
 11
90.5869837816
 21
123.3031477656
  0
LINE
  5
279
100
AcDbEntity
  8
BEZUGSACHSEN
100
AcDbLine
 62
7
  6
CONTINUOUS
 10
90.5869837816
 20
122.8031477656
 11
90.5869837816
 21
123.3031477656
  0
LINE
  5
27A
100
AcDbEntity
  8
KONSTRUKTIONSELEMENTE
100
AcDbLine
 62
7
  6
CONTINUOUS
 10
91.1598625058
 20
130.3031477656
 11
91.1598625058
 21
130.5031477656
  0
LINE
  5
27B
100
AcDbEntity
  8
RUNDUNGEN
100
AcDbLine
 62
7
  6
CONTINUOUS
 10
86.7212588841
 20
128.2485356081
 11
83.4054322179
 21
120.0415766185
  0
LINE
  5
27C
100
AcDbEntity
  8
0
100
AcDbLine
 62
7
  6
CONTINUOUS
 10
82.0835028237
 20
126.7361821338
 11
82.3195489101
 21
127.0899288187
  0
LINE
  5
27D
100
AcDbEntity
  8
0
100
AcDbLine
 62
7
  6
CONTINUOUS
 10
81.8466629735
 20
127.2826212184
 11
81.6420632832
 21
127.0060470358
  0
LINE
  5
27E
100
AcDbEntity
  8
0
100
AcDbLine
 62
7
  6
CONTINUOUS
 10
79.4177525969
 20
129.8921088738
 11
79.134338593
 21
129.6476500874
  0
LINE
  5
27F
100
AcDbEntity
  8
0
100
AcDbLine
 62
7
  6
CONTINUOUS
 10
79.5757780853
 20
129.3777852051
 11
79.8277457
 21
129.5450714864
  0
LINE
  5
280
100
AcDbEntity
  8
0
100
AcDbLine
 62
7
  6
CONTINUOUS
 10
80.9430981134
 20
133.4099220884
 11
80.580869616
 21
133.1975782566
  0
LINE
  5
281
100
AcDbEntity
  8
0
100
AcDbLine
 62
7
  6
CONTINUOUS
 10
117.3526477828
 20
126.3112821852
 11
117.7784113325
 21
126.3934237587
  0
LINE
  5
282
100
AcDbEntity
  8
0
100
AcDbLine
 62
7
  6
CONTINUOUS
 10
119.0895342308
 20
123.1482807098
 11
118.7426801145
 21
123.0980201027
  0
LINE
  5
283
100
AcDbEntity
  8
RUNDUNGEN
100
AcDbLine
 62
7
  6
CONTINUOUS
 10
81.3375656139
 20
119.9358977656
 11
83.0254809315
 21
119.9358977656
  0
LINE
  5
284
100
AcDbEntity
  8
RUNDUNGEN
100
AcDbLine
 62
7
  6
CONTINUOUS
 10
115.3484866318
 20
119.9358977656
 11
117.0363927541
 21
119.9358977656
  0
LINE
  5
285
100
AcDbEntity
  8
0
100
AcDbLine
 62
7
  6
CONTINUOUS
 10
113.1869837816
 20
122.8031477656
 11
85.1869837816
 21
122.8031477656
  0
LINE
  5
286
100
AcDbEntity
  8
KONSTRUKTIONSELEMENTE
100
AcDbLine
 62
7
  6
CONTINUOUS
 10
88.217328667
 20
123.3031477656
 11
110.1566388963
 21
123.3031477656
  0
LINE
  5
287
100
AcDbEntity
  8
0
100
AcDbLine
 62
7
  6
CONTINUOUS
 10
80.3046017843
 20
124.8514533022
 11
81.3761589443
 21
124.7747578608
  0
LINE
  5
288
100
AcDbEntity
  8
0
100
AcDbLine
 62
7
  6
CONTINUOUS
 10
77.5468944254
 20
125.0753071035
 11
79.9578982308
 21
124.9027426027
  0
LINE
  5
289
100
AcDbEntity
  8
0
100
AcDbLine
 62
7
  6
CONTINUOUS
 10
80.5553784555
 20
126.3690173292
 11
80.9808964125
 21
126.2856128533
  0
LINE
  5
28A
100
AcDbEntity
  8
0
100
AcDbLine
 62
7
  6
CONTINUOUS
 10
80.7440564307
 20
126.8320514767
 11
79.5618416167
 21
127.3137824647
  0
LINE
  5
28B
100
AcDbEntity
  8
0
100
AcDbLine
 62
7
  6
CONTINUOUS
 10
79.5901118158
 20
130.9916954208
 11
83.2943849952
 21
129.4822716194
  0
LINE
  5
28C
100
AcDbEntity
  8
0
100
AcDbLine
 62
7
  6
CONTINUOUS
 10
82.4596677823
 20
129.0125281941
 11
82.0970425484
 21
129.2502777027
  0
LINE
  5
28D
100
AcDbEntity
  8
0
100
AcDbLine
 62
7
  6
CONTINUOUS
 10
81.6683486916
 20
132.9344230262
 11
81.8733454231
 21
132.7609047741
  0
LINE
  5
28E
100
AcDbEntity
  8
0
100
AcDbLine
 62
7
  6
CONTINUOUS
 10
82.1408377118
 20
133.1918235253
 11
81.9358409803
 21
133.3653417774
  0
LINE
  5
28F
100
AcDbEntity
  8
BEZUGSACHSEN
100
AcDbLine
 62
7
  6
CONTINUOUS
 10
93.1869837816
 20
94.3031477656
 11
93.1869837816
 21
77.0031477656
  0
LINE
  5
290
100
AcDbEntity
  8
KONSTRUKTIONSELEMENTE
100
AcDbLine
 62
7
  6
CONTINUOUS
 10
93.6371349466
 20
130.3031477656
 11
93.6371349466
 21
130.5031477656
  0
LINE
  5
291
100
AcDbEntity
  8
KONSTRUKTIONSELEMENTE
100
AcDbLine
 62
7
  6
CONTINUOUS
 10
93.6686663559
 20
130.3031477656
 11
93.6686663559
 21
130.5031477656
  0
LINE
  5
292
100
AcDbEntity
  8
BEZUGSACHSEN
100
AcDbLine
 62
7
  6
CONTINUOUS
 10
93.7021562243
 20
123.3031477656
 11
93.7021562243
 21
129.4546419896
  0
LINE
  5
293
100
AcDbEntity
  8
KONSTRUKTIONSELEMENTE
100
AcDbLine
 62
7
  6
CONTINUOUS
 10
93.8000472229
 20
130.3031477656
 11
93.8000472229
 21
130.5031477656
  0
LINE
  5
294
100
AcDbEntity
  8
KONSTRUKTIONSELEMENTE
100
AcDbLine
 62
7
  6
CONTINUOUS
 10
93.8368338771
 20
130.3031477656
 11
93.8368338771
 21
130.5031477656
  0
LINE
  5
295
100
AcDbEntity
  8
KONSTRUKTIONSELEMENTE
100
AcDbLine
 62
7
  6
CONTINUOUS
 10
93.9134225592
 20
130.3031477656
 11
93.9134225592
 21
130.5031477656
  0
LINE
  5
296
100
AcDbEntity
  8
KONSTRUKTIONSELEMENTE
100
AcDbLine
 62
7
  6
CONTINUOUS
 10
94.0776057004
 20
130.3031477656
 11
94.0776057004
 21
130.5031477656
  0
LINE
  5
297
100
AcDbEntity
  8
KONSTRUKTIONSELEMENTE
100
AcDbLine
 62
7
  6
CONTINUOUS
 10
94.2111488571
 20
130.3031477656
 11
94.2111488571
 21
130.5031477656
  0
LINE
  5
298
100
AcDbEntity
  8
KONSTRUKTIONSELEMENTE
100
AcDbLine
 62
7
  6
CONTINUOUS
 10
94.2797510728
 20
130.3031477656
 11
94.2797510728
 21
130.5031477656
  0
LINE
  5
299
100
AcDbEntity
  8
KONSTRUKTIONSELEMENTE
100
AcDbLine
 62
7
  6
CONTINUOUS
 10
94.3177133081
 20
130.3031477656
 11
94.3177133081
 21
130.5031477656
  0
LINE
  5
29A
100
AcDbEntity
  8
KONSTRUKTIONSELEMENTE
100
AcDbLine
 62
7
  6
CONTINUOUS
 10
94.7316665612
 20
130.3031477656
 11
94.7316665612
 21
130.5031477656
  0
LINE
  5
29B
100
AcDbEntity
  8
KONSTRUKTIONSELEMENTE
100
AcDbLine
 62
7
  6
CONTINUOUS
 10
95.3918235942
 20
130.3031477656
 11
95.3918235942
 21
130.5031477656
  0
LINE
  5
29C
100
AcDbEntity
  8
KONSTRUKTIONSELEMENTE
100
AcDbLine
 62
7
  6
CONTINUOUS
 10
95.4915886553
 20
130.3031477656
 11
95.4915886553
 21
130.5031477656
  0
LINE
  5
29D
100
AcDbEntity
  8
0
100
AcDbLine
 62
7
  6
CONTINUOUS
 10
81.8000889791
 20
126.4917237974
 11
82.0835028237
 21
126.7361821338
  0
LINE
  5
29E
100
AcDbEntity
  8
0
100
AcDbLine
 62
7
  6
CONTINUOUS
 10
81.6420632832
 20
127.0060470358
 11
81.3900956132
 21
126.838760777
  0
LINE
  5
29F
100
AcDbEntity
  8
0
100
AcDbLine
 62
7
  6
CONTINUOUS
 10
80.9434949747
 20
132.9598292121
 11
81.1640163801
 21
133.0499434299
  0
LINE
  5
2A0
100
AcDbEntity
  8
0
100
AcDbLine
 62
7
  6
CONTINUOUS
 10
79.858795048
 20
130.0723364262
 11
79.4177525969
 21
129.8921088738
  0
LINE
  5
2A1
100
AcDbEntity
  8
0
100
AcDbLine
 62
7
  6
CONTINUOUS
 10
117.5911080358
 20
126.857015686
 11
117.2442537409
 21
126.8067555209
  0
LINE
  5
2A2
100
AcDbEntity
  8
0
100
AcDbLine
 62
7
  6
CONTINUOUS
 10
80.9808964125
 20
126.2856128533
 11
81.3590463204
 21
126.3114958147
  0
LINE
  5
2A3
100
AcDbEntity
  8
0
100
AcDbLine
 62
7
  6
CONTINUOUS
 10
81.5648369195
 20
125.2377920082
 11
77.3574225029
 21
125.5124581567
  0
LINE
  5
2A4
100
AcDbEntity
  8
0
100
AcDbLine
 62
7
  6
CONTINUOUS
 10
118.4730025306
 20
122.6295520482
 11
118.8510741564
 21
122.602546767
  0
LINE
  5
2A5
100
AcDbEntity
  8
0
100
AcDbLine
 62
7
  6
CONTINUOUS
 10
116.9745763356
 20
126.3382870243
 11
117.3526477828
 21
126.3112821852
  0
LINE
  5
2A6
100
AcDbEntity
  8
0
100
AcDbLine
 62
7
  6
CONTINUOUS
 10
79.8277457
 20
129.5450714864
 11
80.0956352507
 21
129.5258977129
  0
LINE
  5
2A7
100
AcDbEntity
  8
0
100
AcDbLine
 62
7
  6
CONTINUOUS
 10
81.0907600741
 20
126.780762397
 11
80.7440564307
 21
126.8320514767
  0
LINE
  5
2A8
100
AcDbEntity
  8
0
100
AcDbLine
 62
7
  6
CONTINUOUS
 10
80.2843132258
 20
129.9889318603
 11
79.858795048
 21
130.0723364262
  0
LINE
  5
2A9
100
AcDbEntity
  8
0
100
AcDbLine
 62
7
  6
CONTINUOUS
 10
118.7426801145
 20
123.0980201027
 11
118.4435177988
 21
123.1569068146
  0
LINE
  5
2AA
100
AcDbEntity
  8
0
100
AcDbLine
 62
7
  6
CONTINUOUS
 10
83.4830631503
 20
129.9453062084
 11
81.8279623445
 21
130.6197296186
  0
LINE
  5
2AB
100
AcDbEntity
  8
0
100
AcDbLine
 62
7
  6
CONTINUOUS
 10
81.3550764631
 20
130.8124219958
 11
80.1728615387
 21
131.2941530288
  0
LINE
  5
2AC
100
AcDbEntity
  8
0
100
AcDbLine
 62
7
  6
CONTINUOUS
 10
81.4319055301
 20
133.0307693048
 11
81.6683486916
 21
132.9344230262
  0
LINE
  5
2AD
100
AcDbEntity
  8
0
100
AcDbLine
 62
7
  6
CONTINUOUS
 10
81.9358409803
 20
133.3653417774
 11
81.6205835053
 21
133.4938034522
  0
LINE
  5
2AE
100
AcDbEntity
  8
KONSTRUKTIONSELEMENTE
100
AcDbLine
 62
7
  6
CONTINUOUS
 10
95.526079201
 20
130.3031477656
 11
95.526079201
 21
130.5031477656
  0
LINE
  5
2AF
100
AcDbEntity
  8
KONSTRUKTIONSELEMENTE
100
AcDbLine
 62
7
  6
CONTINUOUS
 10
97.6185441228
 20
130.3031477656
 11
97.6185441228
 21
130.5031477656
  0
LINE
  5
2B0
100
AcDbEntity
  8
KONSTRUKTIONSELEMENTE
100
AcDbLine
 62
7
  6
CONTINUOUS
 10
97.8166338913
 20
130.3031477656
 11
97.8166338913
 21
130.5031477656
  0
LINE
  5
2B1
100
AcDbEntity
  8
KONSTRUKTIONSELEMENTE
100
AcDbLine
 62
7
  6
CONTINUOUS
 10
98.0502719912
 20
130.3031477656
 11
98.0502719912
 21
130.5031477656
  0
LINE
  5
2B2
100
AcDbEntity
  8
KONSTRUKTIONSELEMENTE
100
AcDbLine
 62
7
  6
CONTINUOUS
 10
98.5954272605
 20
130.3031477656
 11
98.5954272605
 21
130.5031477656
  0
LINE
  5
2B3
100
AcDbEntity
  8
KONSTRUKTIONSELEMENTE
100
AcDbLine
 62
7
  6
CONTINUOUS
 10
98.9069453211
 20
130.3031477656
 11
98.9069453211
 21
130.5031477656
  0
LINE
  5
2B4
100
AcDbEntity
  8
KONSTRUKTIONSELEMENTE
100
AcDbLine
 62
7
  6
CONTINUOUS
 10
99.2961575761
 20
130.3031477656
 11
99.2961575761
 21
130.5031477656
  0
LINE
  5
2B5
100
AcDbEntity
  8
KONSTRUKTIONSELEMENTE
100
AcDbLine
 62
7
  6
CONTINUOUS
 10
99.4521005904
 20
130.3031477656
 11
99.4521005904
 21
130.5031477656
  0
LINE
  5
2B6
100
AcDbEntity
  8
KONSTRUKTIONSELEMENTE
100
AcDbLine
 62
7
  6
CONTINUOUS
 10
99.6857386903
 20
130.3031477656
 11
99.6857386903
 21
130.5031477656
  0
LINE
  5
2B7
100
AcDbEntity
  8
BEZUGSACHSEN
100
AcDbLine
 62
7
  6
CONTINUOUS
 10
88.217328667
 20
129.4546419896
 11
89.6869837816
 21
130.3031477656
  0
LINE
  5
2B8
100
AcDbEntity
  8
0
100
AcDbLine
 62
7
  6
CONTINUOUS
 10
81.3590463204
 20
126.3114958147
 11
81.8000889791
 21
126.4917237974
  0
LINE
  5
2B9
100
AcDbEntity
  8
0
100
AcDbLine
 62
7
  6
CONTINUOUS
 10
81.3900956132
 20
126.838760777
 11
81.0907600741
 21
126.780762397
  0
LINE
  5
2BA
100
AcDbEntity
  8
0
100
AcDbLine
 62
7
  6
CONTINUOUS
 10
117.3682397546
 20
130.3620870358
 11
117.6361847054
 21
130.3804660135
  0
LINE
  5
2BB
100
AcDbEntity
  8
0
100
AcDbLine
 62
7
  6
CONTINUOUS
 10
117.5277906635
 20
130.8759393492
 11
117.2598457127
 21
130.8575603715
  0
LINE
  5
2BC
100
AcDbEntity
  8
BEZUGSACHSEN
100
AcDbLine
 62
7
  6
CONTINUOUS
 10
89.6874688412
 20
130.3031477656
 11
108.6864987221
 21
130.3031477656
  0
LINE
  5
2BD
100
AcDbEntity
  8
KONSTRUKTIONSELEMENTE
100
AcDbLine
 62
7
  6
CONTINUOUS
 10
91.1598625058
 20
130.5031477656
 11
95.526079201
 21
130.5031477656
  0
LINE
  5
2BE
100
AcDbEntity
  8
KONSTRUKTIONSELEMENTE
100
AcDbLine
 62
7
  6
CONTINUOUS
 10
97.6185441228
 20
130.5031477656
 11
99.6857386903
 21
130.5031477656
  0
LINE
  5
2BF
100
AcDbEntity
  8
KONSTRUKTIONSELEMENTE
100
AcDbLine
 62
7
  6
CONTINUOUS
 10
100.2287712963
 20
130.5031477656
 11
102.8891225879
 21
130.5031477656
  0
LINE
  5
2C0
100
AcDbEntity
  8
RUNDUNGEN
100
AcDbLine
 62
7
  6
CONTINUOUS
 10
106.0896048577
 20
132.0008977656
 11
92.2843627056
 21
132.0008977656
  0
LINE
  5
2C1
100
AcDbEntity
  8
0
100
AcDbLine
 62
7
  6
CONTINUOUS
 10
81.1640163801
 20
133.0499434299
 11
81.4319055301
 21
133.0307693048
  0
LINE
  5
2C2
100
AcDbEntity
  8
0
100
AcDbLine
 62
7
  6
CONTINUOUS
 10
81.6205835053
 20
133.4938034522
 11
81.3526943553
 21
133.5129775773
  0
LINE
  5
2C3
100
AcDbEntity
  8
0
100
AcDbLine
 62
7
  6
CONTINUOUS
 10
117.2442537409
 20
126.8067555209
 11
116.9450916037
 21
126.8656417908
  0
LINE
  5
2C4
100
AcDbEntity
  8
0
100
AcDbLine
 62
7
  6
CONTINUOUS
 10
118.0324967383
 20
122.8110873935
 11
118.4730025306
 21
122.6295520482
  0
LINE
  5
2C5
100
AcDbEntity
  8
KONSTRUKTIONSELEMENTE
100
AcDbLine
 62
7
  6
CONTINUOUS
 10
100.2287712963
 20
130.3031477656
 11
100.2287712963
 21
130.5031477656
  0
LINE
  5
2C6
100
AcDbEntity
  8
KONSTRUKTIONSELEMENTE
100
AcDbLine
 62
7
  6
CONTINUOUS
 10
100.458903393
 20
130.3031477656
 11
100.458903393
 21
130.5031477656
  0
LINE
  5
2C7
100
AcDbEntity
  8
KONSTRUKTIONSELEMENTE
100
AcDbLine
 62
7
  6
CONTINUOUS
 10
100.776180588
 20
130.3031477656
 11
100.776180588
 21
130.5031477656
  0
LINE
  5
2C8
100
AcDbEntity
  8
KONSTRUKTIONSELEMENTE
100
AcDbLine
 62
7
  6
CONTINUOUS
 10
102.0614474343
 20
130.3031477656
 11
102.0614474343
 21
130.5031477656
  0
LINE
  5
2C9
100
AcDbEntity
  8
KONSTRUKTIONSELEMENTE
100
AcDbLine
 62
7
  6
CONTINUOUS
 10
102.1693695947
 20
130.3031477656
 11
102.1693695947
 21
130.5031477656
  0
LINE
  5
2CA
100
AcDbEntity
  8
KONSTRUKTIONSELEMENTE
100
AcDbLine
 62
7
  6
CONTINUOUS
 10
102.5371215085
 20
130.3031477656
 11
102.5371215085
 21
130.5031477656
  0
LINE
  5
2CB
100
AcDbEntity
  8
KONSTRUKTIONSELEMENTE
100
AcDbLine
 62
7
  6
CONTINUOUS
 10
102.673278237
 20
130.3031477656
 11
102.673278237
 21
130.5031477656
  0
LINE
  5
2CC
100
AcDbEntity
  8
KONSTRUKTIONSELEMENTE
100
AcDbLine
 62
7
  6
CONTINUOUS
 10
102.7953180824
 20
130.3031477656
 11
102.7953180824
 21
130.5031477656
  0
LINE
  5
2CD
100
AcDbEntity
  8
KONSTRUKTIONSELEMENTE
100
AcDbLine
 62
7
  6
CONTINUOUS
 10
102.838487001
 20
130.3031477656
 11
102.838487001
 21
130.5031477656
  0
LINE
  5
2CE
100
AcDbEntity
  8
KONSTRUKTIONSELEMENTE
100
AcDbLine
 62
7
  6
CONTINUOUS
 10
102.8891225879
 20
130.3031477656
 11
102.8891225879
 21
130.5031477656
  0
LINE
  5
2CF
100
AcDbEntity
  8
0
100
AcDbLine
 62
7
  6
CONTINUOUS
 10
116.958951087
 20
130.4663573658
 11
117.3682397546
 21
130.3620870358
  0
LINE
  5
2D0
100
AcDbEntity
  8
0
100
AcDbLine
 62
7
  6
CONTINUOUS
 10
116.5340703647
 20
126.5198228118
 11
116.9745763356
 21
126.3382870243
  0
LINE
  5
2D1
100
AcDbEntity
  8
BEZUGSACHSEN
100
AcDbLine
 62
7
  6
CONTINUOUS
 10
110.1566388963
 20
129.4546419896
 11
108.6869837816
 21
130.3031477656
  0
LINE
  5
2D2
100
AcDbEntity
  8
0
100
AcDbLine
 62
7
  6
CONTINUOUS
 10
118.4435177988
 20
123.1569068146
 11
118.1920475855
 21
123.3249399391
  0
LINE
  5
2D3
100
AcDbEntity
  8
BEZUGSACHSEN
100
AcDbLine
 62
7
  6
CONTINUOUS
 10
104.6718113389
 20
123.3031477656
 11
104.6718113389
 21
129.4546419896
  0
LINE
  5
2D4
100
AcDbEntity
  8
BEZUGSACHSEN
100
AcDbLine
 62
7
  6
CONTINUOUS
 10
105.1869837816
 20
77.0031477656
 11
105.1869837816
 21
94.3031477656
  0
LINE
  5
2D5
100
AcDbEntity
  8
KONSTRUKTIONSELEMENTE
100
AcDbLine
 62
7
  6
CONTINUOUS
 10
107.7869837816
 20
122.8031477656
 11
107.7869837816
 21
123.3031477656
  0
LINE
  5
2D6
100
AcDbEntity
  8
BEZUGSACHSEN
100
AcDbLine
 62
7
  6
CONTINUOUS
 10
107.7869837816
 20
122.8031477656
 11
107.7869837816
 21
123.3031477656
  0
LINE
  5
2D7
100
AcDbEntity
  8
0
100
AcDbLine
 62
7
  6
CONTINUOUS
 10
108.1869837816
 20
119.3031477656
 11
108.1869837816
 21
117.5621305021
  0
LINE
  5
2D8
100
AcDbEntity
  8
0
100
AcDbLine
 62
7
  6
CONTINUOUS
 10
108.1869837816
 20
99.5531477656
 11
108.1869837816
 21
99.4031477656
  0
LINE
  5
2D9
100
AcDbEntity
  8
0
100
AcDbLine
 62
7
  6
CONTINUOUS
 10
117.664786782
 20
133.7175040401
 11
113.9560513637
 21
132.2190776664
  0
LINE
  5
2DA
100
AcDbEntity
  8
0
100
AcDbLine
 62
7
  6
CONTINUOUS
 10
114.1433546604
 20
131.7554857392
 11
115.8004492326
 21
132.424995405
  0
LINE
  5
2DB
100
AcDbEntity
  8
0
100
AcDbLine
 62
7
  6
CONTINUOUS
 10
116.2739047614
 20
132.6162838554
 11
117.4575438047
 21
133.0945050708
  0
LINE
  5
2DC
100
AcDbEntity
  8
0
100
AcDbLine
 62
7
  6
CONTINUOUS
 10
117.764518649
 20
130.9715836637
 11
117.5277906635
 21
130.8759393492
  0
LINE
  5
2DD
100
AcDbEntity
  8
0
100
AcDbLine
 62
7
  6
CONTINUOUS
 10
117.6361847054
 20
130.3804660135
 11
117.9518219457
 21
130.5079917364
  0
LINE
  5
2DE
100
AcDbEntity
  8
0
100
AcDbLine
 62
7
  6
CONTINUOUS
 10
81.3526943553
 20
133.5129775773
 11
80.9430981134
 21
133.4099220884
  0
LINE
  5
2DF
100
AcDbEntity
  8
0
100
AcDbLine
 62
7
  6
CONTINUOUS
 10
117.2598457127
 20
130.8575603715
 11
117.0395927411
 21
130.9483282708
  0
LINE
  5
2E0
100
AcDbEntity
  8
0
100
AcDbLine
 62
7
  6
CONTINUOUS
 10
116.9450916037
 20
126.8656417908
 11
116.6936213905
 21
127.0336749153
  0
LINE
  5
2E1
100
AcDbEntity
  8
0
100
AcDbLine
 62
7
  6
CONTINUOUS
 10
117.7498094626
 20
123.0563855584
 11
118.0324967383
 21
122.8110873935
  0
LINE
  5
2E2
100
AcDbEntity
  8
0
100
AcDbLine
 62
7
  6
CONTINUOUS
 10
116.2513829103
 20
126.7651214188
 11
116.5340703647
 21
126.5198228118
  0
LWPOLYLINE
  5
2E3
100
AcDbEntity
  8
RUNDUNGEN
100
AcDbPolyline
 62
7
  6
CONTINUOUS
 90
22
 70
0
 10
115.1667814657
 20
99.2008978475
 10
115.1716802509
 20
99.1778259509
 10
115.1969285336
 20
99.0793469275
 10
115.2287897576
 20
98.9828036784
 10
115.2671177535
 20
98.888639612
 10
115.3117365471
 20
98.7972874755
 10
115.3624410832
 20
98.7091673276
 10
115.4189984866
 20
98.6246840068
 10
115.4811489915
 20
98.5442256501
 10
115.5486068559
 20
98.4681622029
 10
115.6210621713
 20
98.3968430762
 10
115.6981820733
 20
98.3305958843
 10
115.7796119398
 20
98.2697251707
 10
115.8649776388
 20
98.2145104789
 10
115.9538869627
 20
98.1652053667
 10
116.0459310586
 20
98.1220363992
 10
116.1406870212
 20
98.0852017125
 10
116.2377195262
 20
98.054870329
 10
116.3365824301
 20
98.031181472
 10
116.4368214345
 20
98.0142437122
 10
116.5379761981
 20
98.0041345539
 10
116.6364766568
 20
98.0008969515
  0
LINE
  5
2E4
100
AcDbEntity
  8
BEZUGSACHSEN
100
AcDbLine
 62
7
  6
CONTINUOUS
 10
110.1566388963
 20
123.3031477656
 11
110.1566388963
 21
129.4546419896
  0
LINE
  5
2E5
100
AcDbEntity
  8
0
100
AcDbLine
 62
7
  6
CONTINUOUS
 10
110.7273549635
 20
117.4031477656
 11
110.7273549635
 21
118.7031477656
  0
LINE
  5
2E6
100
AcDbEntity
  8
0
100
AcDbLine
 62
7
  6
CONTINUOUS
 10
111.6060659696
 20
118.7031477656
 11
111.6060659696
 21
117.4031477656
  0
LINE
  5
2E7
100
AcDbEntity
  8
0
100
AcDbLine
 62
7
  6
CONTINUOUS
 10
115.142305606
 20
129.2829953866
 11
116.6762637427
 21
130.7116557602
  0
LINE
  5
2E8
100
AcDbEntity
  8
0
100
AcDbLine
 62
7
  6
CONTINUOUS
 10
116.3311418917
 20
131.1114849812
 11
114.9237850336
 21
129.8238527825
  0
LINE
  5
2E9
100
AcDbEntity
  8
0
100
AcDbLine
 62
7
  6
CONTINUOUS
 10
117.9700292271
 20
131.1444931365
 11
117.764518649
 21
130.9715836637
  0
LINE
  5
2EA
100
AcDbEntity
  8
0
100
AcDbLine
 62
7
  6
CONTINUOUS
 10
117.9518219457
 20
130.5079917364
 11
118.1573325238
 21
130.6809012092
  0
LINE
  5
2EB
100
AcDbEntity
  8
0
100
AcDbLine
 62
7
  6
CONTINUOUS
 10
116.5574749267
 20
128.506592735
 11
116.8418948489
 21
128.7113833951
  0
LINE
  5
2EC
100
AcDbEntity
  8
0
100
AcDbLine
 62
7
  6
CONTINUOUS
 10
116.6545914629
 20
129.1749755434
 11
116.2912624645
 21
128.9383030328
  0
LINE
  5
2ED
100
AcDbEntity
  8
0
100
AcDbLine
 62
7
  6
CONTINUOUS
 10
119.1007786937
 20
130.163299338
 11
116.6545914629
 21
129.1749755434
  0
LINE
  5
2EE
100
AcDbEntity
  8
0
100
AcDbLine
 62
7
  6
CONTINUOUS
 10
116.8418948489
 20
128.7113833951
 11
119.2880820797
 21
129.6997071896
  0
LINE
  5
2EF
100
AcDbEntity
  8
0
100
AcDbLine
 62
7
  6
CONTINUOUS
 10
120.0372952665
 20
127.8453394805
 11
117.5911080358
 21
126.857015686
  0
LINE
  5
2F0
100
AcDbEntity
  8
0
100
AcDbLine
 62
7
  6
CONTINUOUS
 10
117.7784113325
 20
126.3934237587
 11
120.2245985632
 21
127.3817475532
  0
LINE
  5
2F1
100
AcDbEntity
  8
0
100
AcDbLine
 62
7
  6
CONTINUOUS
 10
120.4743362326
 20
126.7636251309
 11
116.7656008144
 21
125.2651987572
  0
LINE
  5
2F2
100
AcDbEntity
  8
0
100
AcDbLine
 62
7
  6
CONTINUOUS
 10
117.4263596952
 20
124.9928953027
 11
120.1881840005
 21
126.1087447531
  0
LINE
  5
2F3
100
AcDbEntity
  8
0
100
AcDbLine
 62
7
  6
CONTINUOUS
 10
116.6762637427
 20
130.7116557602
 11
116.958951087
 21
130.4663573658
  0
LINE
  5
2F4
100
AcDbEntity
  8
0
100
AcDbLine
 62
7
  6
CONTINUOUS
 10
117.0395927411
 20
130.9483282708
 11
116.8670318379
 21
131.148242826
  0
LINE
  5
2F5
100
AcDbEntity
  8
0
100
AcDbLine
 62
7
  6
CONTINUOUS
 10
118.1920475855
 20
123.3249399391
 11
117.9882695853
 21
123.6021195208
  0
LINE
  5
2F6
100
AcDbEntity
  8
0
100
AcDbLine
 62
7
  6
CONTINUOUS
 10
116.6936213905
 20
127.0336749153
 11
116.4898432117
 21
127.3108549391
  0
LINE
  5
2F7
100
AcDbEntity
  8
0
100
AcDbLine
 62
7
  6
CONTINUOUS
 10
117.5148140012
 20
123.4108310481
 11
117.7498094626
 21
123.0563855584
  0
LINE
  5
2F8
100
AcDbEntity
  8
0
100
AcDbLine
 62
7
  6
CONTINUOUS
 10
116.0163876275
 20
127.1195664663
 11
116.2513829103
 21
126.7651214188
  0
LINE
  5
2F9
100
AcDbEntity
  8
RUNDUNGEN
100
AcDbLine
 62
7
  6
CONTINUOUS
 10
114.9685353453
 20
120.0415766185
 11
111.6527086796
 21
128.2485356071
  0
LINE
  5
2FA
100
AcDbEntity
  8
0
100
AcDbLine
 62
7
  6
CONTINUOUS
 10
113.1869837816
 20
122.8031477656
 11
113.1869837816
 21
119.3031477656
  0
LINE
  5
2FB
100
AcDbEntity
  8
0
100
AcDbLine
 62
7
  6
CONTINUOUS
 10
114.1869837816
 20
99.4031477656
 11
114.1869837816
 21
94.3031477656
  0
LINE
  5
2FC
100
AcDbEntity
  8
RUNDUNGEN
100
AcDbLine
 62
7
  6
CONTINUOUS
 10
114.4369837816
 20
116.4031477656
 11
114.4369837816
 21
99.5531477656
  0
LINE
  5
2FD
100
AcDbEntity
  8
RUNDUNGEN
100
AcDbLine
 62
7
  6
CONTINUOUS
 10
115.1869837816
 20
99.5008977656
 11
115.1869837816
 21
101.3475825242
  0
LINE
  5
2FE
100
AcDbEntity
  8
RUNDUNGEN
100
AcDbLine
 62
7
  6
CONTINUOUS
 10
115.1869837816
 20
109.65421336
 11
115.1869837816
 21
117.4031477656
  0
LINE
  5
2FF
100
AcDbEntity
  8
RUNDUNGEN
100
AcDbLine
 62
7
  6
CONTINUOUS
 10
115.1869837816
 20
118.7031477656
 11
115.1869837816
 21
118.9177568382
  0
LINE
  5
300
100
AcDbEntity
  8
0
100
AcDbLine
 62
7
  6
CONTINUOUS
 10
115.8472915505
 20
128.2196600259
 11
115.8143419442
 21
127.8468357684
  0
LINE
  5
301
100
AcDbEntity
  8
0
100
AcDbLine
 62
7
  6
CONTINUOUS
 10
115.8472915505
 20
128.2196600259
 11
116.038059852
 21
128.6562466608
  0
LINE
  5
302
100
AcDbEntity
  8
0
100
AcDbLine
 62
7
  6
CONTINUOUS
 10
118.0654132747
 20
131.3627866694
 11
117.9700292271
 21
131.1444931365
  0
LINE
  5
303
100
AcDbEntity
  8
0
100
AcDbLine
 62
7
  6
CONTINUOUS
 10
118.1573325238
 20
130.6809012092
 11
118.3793178947
 21
131.0402228064
  0
LINE
  5
304
100
AcDbEntity
  8
0
100
AcDbLine
 62
7
  6
CONTINUOUS
 10
116.3831817136
 20
128.2564175726
 11
116.5574749267
 21
128.506592735
  0
LINE
  5
305
100
AcDbEntity
  8
0
100
AcDbLine
 62
7
  6
CONTINUOUS
 10
116.038059852
 20
128.6562466608
 11
116.2912624645
 21
128.9383030328
  0
LINE
  5
306
100
AcDbEntity
  8
0
100
AcDbLine
 62
7
  6
CONTINUOUS
 10
120.2731731635
 20
123.6265018805
 11
119.0895342308
 21
123.1482807098
  0
LINE
  5
307
100
AcDbEntity
  8
0
100
AcDbLine
 62
7
  6
CONTINUOUS
 10
119.2768375275
 20
122.6846887825
 11
120.4604764602
 21
123.1629099533
  0
LINE
  5
308
100
AcDbEntity
  8
0
100
AcDbLine
 62
7
  6
CONTINUOUS
 10
113.9560513637
 20
132.2190776664
 11
114.1433546604
 21
131.7554857392
  0
LINE
  5
309
100
AcDbEntity
  8
0
100
AcDbLine
 62
7
  6
CONTINUOUS
 10
114.9237850336
 20
129.8238527825
 11
115.142305606
 21
129.2829953866
  0
LINE
  5
30A
100
AcDbEntity
  8
0
100
AcDbLine
 62
7
  6
CONTINUOUS
 10
115.8915187035
 20
127.4286278986
 11
116.0163876275
 21
127.1195664663
  0
LINE
  5
30B
100
AcDbEntity
  8
0
100
AcDbLine
 62
7
  6
CONTINUOUS
 10
116.7656008144
 20
125.2651987572
 11
117.5148140012
 21
123.4108310481
  0
LINE
  5
30C
100
AcDbEntity
  8
0
100
AcDbLine
 62
7
  6
CONTINUOUS
 10
117.9882695853
 20
123.6021195208
 11
117.4263596952
 21
124.9928953027
  0
LINE
  5
30D
100
AcDbEntity
  8
0
100
AcDbLine
 62
7
  6
CONTINUOUS
 10
116.4898432117
 20
127.3108549391
 11
116.3649742876
 21
127.6199163713
  0
LINE
  5
30E
100
AcDbEntity
  8
0
100
AcDbLine
 62
7
  6
CONTINUOUS
 10
115.8004492326
 20
132.424995405
 11
116.3311418917
 21
131.1114849812
  0
LINE
  5
30F
100
AcDbEntity
  8
0
100
AcDbLine
 62
7
  6
CONTINUOUS
 10
116.8670318379
 20
131.148242826
 11
116.2739047614
 21
132.6162838554
  0
LINE
  5
310
100
AcDbEntity
  8
0
100
AcDbLine
 62
7
  6
CONTINUOUS
 10
120.1881840005
 20
126.1087447531
 11
120.7500938906
 21
124.7179689713
  0
LINE
  5
311
100
AcDbEntity
  8
0
100
AcDbLine
 62
7
  6
CONTINUOUS
 10
117.4575438047
 20
133.0945050708
 11
118.0506708811
 21
131.6264640414
  0
LINE
  5
312
100
AcDbEntity
  8
0
100
AcDbLine
 62
7
  6
CONTINUOUS
 10
115.8143419442
 20
127.8468357684
 11
115.8915187035
 21
127.4286278986
  0
LINE
  5
313
100
AcDbEntity
  8
0
100
AcDbLine
 62
7
  6
CONTINUOUS
 10
116.3649742876
 20
127.6199163713
 11
116.3190147971
 21
127.9608587698
  0
LINE
  5
314
100
AcDbEntity
  8
0
100
AcDbLine
 62
7
  6
CONTINUOUS
 10
118.0506708811
 20
131.6264640414
 11
118.0654132747
 21
131.3627866694
  0
LINE
  5
315
100
AcDbEntity
  8
RUNDUNGEN
100
AcDbLine
 62
7
  6
CONTINUOUS
 10
120.1665027509
 20
136.7729237237
 11
125.0758602054
 21
161.0987106572
  0
LINE
  5
316
100
AcDbEntity
  8
0
100
AcDbLine
 62
7
  6
CONTINUOUS
 10
116.3190147971
 20
127.9608587698
 11
116.3831817136
 21
128.2564175726
  0
LINE
  5
317
100
AcDbEntity
  8
0
100
AcDbLine
 62
7
  6
CONTINUOUS
 10
118.3793178947
 20
131.0402228064
 11
118.4911768244
 21
131.4449282428
  0
LINE
  5
318
100
AcDbEntity
  8
0
100
AcDbLine
 62
7
  6
CONTINUOUS
 10
120.5575930857
 20
123.8312925406
 11
120.2731731635
 21
123.6265018805
  0
LINE
  5
319
100
AcDbEntity
  8
0
100
AcDbLine
 62
7
  6
CONTINUOUS
 10
120.4604764602
 20
123.1629099533
 11
120.8238058583
 21
123.3995821111
  0
LINE
  5
31A
100
AcDbEntity
  8
RUNDUNGEN
100
AcDbLine
 62
7
  6
CONTINUOUS
 10
121.8867827454
 20
130.915234532
 11
120.4032513205
 21
134.4238280927
  0
LINE
  5
31B
100
AcDbEntity
  8
0
100
AcDbLine
 62
7
  6
CONTINUOUS
 10
121.2235494195
 20
124.9092574217
 11
120.4743362326
 21
126.7636251309
  0
LINE
  5
31C
100
AcDbEntity
  8
0
100
AcDbLine
 62
7
  6
CONTINUOUS
 10
120.2245985632
 20
127.3817475532
 11
120.0372952665
 21
127.8453394805
  0
LINE
  5
31D
100
AcDbEntity
  8
0
100
AcDbLine
 62
7
  6
CONTINUOUS
 10
119.2880820797
 20
129.6997071896
 11
119.1007786937
 21
130.163299338
  0
LINE
  5
31E
100
AcDbEntity
  8
0
100
AcDbLine
 62
7
  6
CONTINUOUS
 10
118.4139999688
 20
131.863136331
 11
117.664786782
 21
133.7175040401
  0
LINE
  5
31F
100
AcDbEntity
  8
RUNDUNGEN
100
AcDbLine
 62
7
  6
CONTINUOUS
 10
123.5779637412
 20
126.4303769526
 11
127.7559809924
 21
116.0894213809
  0
LINE
  5
320
100
AcDbEntity
  8
0
100
AcDbLine
 62
7
  6
CONTINUOUS
 10
118.4911768244
 20
131.4449282428
 11
118.4139999688
 21
131.863136331
  0
LINE
  5
321
100
AcDbEntity
  8
0
100
AcDbLine
 62
7
  6
CONTINUOUS
 10
121.3007263643
 20
124.4910491125
 11
121.2235494195
 21
124.9092574217
  0
LINE
  5
322
100
AcDbEntity
  8
0
100
AcDbLine
 62
7
  6
CONTINUOUS
 10
120.7500938906
 20
124.7179689713
 11
120.7960533812
 21
124.3770265728
  0
LINE
  5
323
100
AcDbEntity
  8
0
100
AcDbLine
 62
7
  6
CONTINUOUS
 10
121.2677766001
 20
124.1182253056
 11
121.3007263643
 21
124.4910491125
  0
LINE
  5
324
100
AcDbEntity
  8
0
100
AcDbLine
 62
7
  6
CONTINUOUS
 10
120.7960533812
 20
124.3770265728
 11
120.7318865199
 21
124.0814677923
  0
LINE
  5
325
100
AcDbEntity
  8
0
100
AcDbLine
 62
7
  6
CONTINUOUS
 10
121.0770083262
 20
123.6816386819
 11
121.2677766001
 21
124.1182253056
  0
LINE
  5
326
100
AcDbEntity
  8
0
100
AcDbLine
 62
7
  6
CONTINUOUS
 10
120.7318865199
 20
124.0814677923
 11
120.5575930857
 21
123.8312925406
  0
LINE
  5
327
100
AcDbEntity
  8
0
100
AcDbLine
 62
7
  6
CONTINUOUS
 10
120.8238058583
 20
123.3995821111
 11
121.0770083262
 21
123.6816386819
  0
LINE
  5
328
100
AcDbEntity
  8
RUNDUNGEN
100
AcDbLine
 62
7
  6
CONTINUOUS
 10
127.7159069857
 20
111.4973950495
 11
122.2456030739
 21
98.6101666371
  0
LINE
  5
329
100
AcDbEntity
  8
RUNDUNGEN
100
AcDbLine
 62
7
  6
CONTINUOUS
 10
124.5835827603
 20
163.9501766647
 11
116.3134131404
 21
177.7140502786
  0
LINE
  5
32A
100
AcDbEntity
  8
BEZUGSACHSEN
100
AcDbLine
 62
7
  6
CONTINUOUS
 10
105.1869837816
 20
77.0031477656
 11
103.9869837816
 21
75.8031477656
  0
LINE
  5
32B
100
AcDbEntity
  8
RUNDUNGEN
100
AcDbLine
 62
7
  6
CONTINUOUS
 10
114.1870165555
 20
179.4359722813
 11
100.5635462515
 21
184.1269092958
  0
LINE
  5
32C
100
AcDbEntity
  8
BEZUGSACHSEN
100
AcDbLine
 62
7
  6
CONTINUOUS
 10
192.5558419681
 20
75.8031477656
 11
202.1558419681
 21
75.8031477656
  0
LINE
  5
32D
100
AcDbEntity
  8
BEZUGSACHSEN
100
AcDbLine
 62
7
  6
CONTINUOUS
 10
191.3558419681
 20
77.0031477656
 11
203.3558419681
 21
77.0031477656
  0
LINE
  5
32E
100
AcDbEntity
  8
BEZUGSACHSEN
100
AcDbLine
 62
7
  6
CONTINUOUS
 10
192.5558419681
 20
75.8031477656
 11
191.3558419681
 21
77.0031477656
  0
LINE
  5
32F
100
AcDbEntity
  8
0
100
AcDbLine
 62
7
  6
CONTINUOUS
 10
182.3558419681
 20
94.3031477656
 11
212.3558419681
 21
94.3031477656
  0
LINE
  5
330
100
AcDbEntity
  8
RUNDUNGEN
100
AcDbLine
 62
7
  6
CONTINUOUS
 10
192.8558419681
 20
98.0008977656
 11
201.8558419681
 21
98.0008977656
  0
LINE
  5
331
100
AcDbEntity
  8
0
100
AcDbLine
 62
7
  6
CONTINUOUS
 10
212.3558419681
 20
99.4031477656
 11
203.7638206967
 21
99.4031477656
  0
LINE
  5
332
100
AcDbEntity
  8
0
100
AcDbLine
 62
7
  6
CONTINUOUS
 10
182.3558419681
 20
99.4031477656
 11
190.947734956
 21
99.4031477656
  0
LINE
  5
333
100
AcDbEntity
  8
RUNDUNGEN
100
AcDbLine
 62
7
  6
CONTINUOUS
 10
182.1058419681
 20
99.5531477656
 11
190.9070967626
 21
99.5531477656
  0
LINE
  5
334
100
AcDbEntity
  8
RUNDUNGEN
100
AcDbLine
 62
7
  6
CONTINUOUS
 10
203.804715465
 20
99.5531477656
 11
212.6058419681
 21
99.5531477656
  0
LINE
  5
335
100
AcDbEntity
  8
0
100
AcDbLine
 62
7
  6
CONTINUOUS
 10
203.8558419681
 20
107.1335202033
 11
204.3558419681
 21
107.1335202033
  0
LINE
  5
336
100
AcDbEntity
  8
0
100
AcDbLine
 62
7
  6
CONTINUOUS
 10
203.8558419681
 20
111.1335202033
 11
204.3558419681
 21
111.1335202033
  0
LINE
  5
337
100
AcDbEntity
  8
0
100
AcDbLine
 62
7
  6
CONTINUOUS
 10
182.1058419681
 20
99.5531477656
 11
182.1058419681
 21
117.7531477656
  0
LINE
  5
338
100
AcDbEntity
  8
0
100
AcDbLine
 62
7
  6
CONTINUOUS
 10
182.3558419681
 20
99.4031477656
 11
182.3558419681
 21
94.3031477656
  0
LINE
  5
339
100
AcDbEntity
  8
0
100
AcDbLine
 62
7
  6
CONTINUOUS
 10
183.3558419681
 20
122.8031477656
 11
183.3558419681
 21
119.3031477656
  0
LINE
  5
33A
100
AcDbEntity
  8
0
100
AcDbLine
 62
7
  6
CONTINUOUS
 10
185.1558419681
 20
118.7531477656
 11
185.1558419681
 21
117.9817191942
  0
LINE
  5
33B
100
AcDbEntity
  8
RUNDUNGEN
100
AcDbLine
 62
7
  6
CONTINUOUS
 10
185.1558419681
 20
117.4007763062
 11
185.1558419681
 21
117.9817191942
  0
LINE
  5
33C
100
AcDbEntity
  8
0
100
AcDbLine
 62
7
  6
CONTINUOUS
 10
185.2812293337
 20
118.7031477656
 11
185.2812293337
 21
117.4031477656
  0
LINE
  5
33D
100
AcDbEntity
  8
0
100
AcDbLine
 62
7
  6
CONTINUOUS
 10
187.1558419681
 20
118.7531477656
 11
187.1558419681
 21
118.7031477656
  0
LINE
  5
33E
100
AcDbEntity
  8
BEZUGSACHSEN
100
AcDbLine
 62
7
  6
CONTINUOUS
 10
187.8558419681
 20
123.3031477656
 11
187.8558419681
 21
130.3031477692
  0
LINE
  5
33F
100
AcDbEntity
  8
0
100
AcDbLine
 62
7
  6
CONTINUOUS
 10
188.3558419681
 20
119.3031477656
 11
188.3558419681
 21
118.7531477656
  0
LINE
  5
340
100
AcDbEntity
  8
0
100
AcDbLine
 62
7
  6
CONTINUOUS
 10
188.3558419681
 20
99.5531477656
 11
188.3558419681
 21
99.4031477656
  0
LINE
  5
341
100
AcDbEntity
  8
RUNDUNGEN
100
AcDbLine
 62
7
  6
CONTINUOUS
 10
210.3680294957
 20
117.4031477656
 11
203.8368601725
 21
117.4031477656
  0
LINE
  5
342
100
AcDbEntity
  8
RUNDUNGEN
100
AcDbLine
 62
7
  6
CONTINUOUS
 10
190.0079605965
 20
117.4031477656
 11
185.1558419681
 21
117.4031477656
  0
LINE
  5
343
100
AcDbEntity
  8
0
100
AcDbLine
 62
7
  6
CONTINUOUS
 10
190.0079605965
 20
117.4031477656
 11
190.8748237588
 21
117.4031477656
  0
LINE
  5
344
100
AcDbEntity
  8
0
100
AcDbLine
 62
7
  6
CONTINUOUS
 10
185.2812293337
 20
118.7031477656
 11
190.9928210532
 21
118.7031477656
  0
LINE
  5
345
100
AcDbEntity
  8
RUNDUNGEN
100
AcDbLine
 62
7
  6
CONTINUOUS
 10
183.1058419681
 20
118.7531477656
 11
185.1558419681
 21
118.7531477656
  0
LINE
  5
346
100
AcDbEntity
  8
0
100
AcDbLine
 62
7
  6
CONTINUOUS
 10
187.1558419681
 20
118.7531477656
 11
189.2588377314
 21
118.7531477656
  0
LINE
  5
347
100
AcDbEntity
  8
RUNDUNGEN
100
AcDbLine
 62
7
  6
CONTINUOUS
 10
187.1558419681
 20
118.7531477656
 11
190.9985178336
 21
118.7531477656
  0
LINE
  5
348
100
AcDbEntity
  8
RUNDUNGEN
100
AcDbLine
 62
7
  6
CONTINUOUS
 10
204.0386928568
 20
118.7531477656
 11
211.6058021547
 21
118.7531477656
  0
LINE
  5
349
100
AcDbEntity
  8
0
100
AcDbLine
 62
7
  6
CONTINUOUS
 10
211.3558419681
 20
119.3031477656
 11
203.6505015181
 21
119.3031477656
  0
LINE
  5
34A
100
AcDbEntity
  8
0
100
AcDbLine
 62
7
  6
CONTINUOUS
 10
183.3558419681
 20
119.3031477656
 11
191.0611824182
 21
119.3031477656
  0
LINE
  5
34B
100
AcDbEntity
  8
BEZUGSACHSEN
100
AcDbLine
 62
7
  6
CONTINUOUS
 10
188.7558419681
 20
122.8031477656
 11
188.7558419681
 21
123.3031477656
  0
LINE
  5
34C
100
AcDbEntity
  8
KONSTRUKTIONSELEMENTE
100
AcDbLine
 62
7
  6
CONTINUOUS
 10
189.3067111626
 20
130.3031477656
 11
189.3067111626
 21
130.5031477656
  0
LINE
  5
34D
100
AcDbEntity
  8
KONSTRUKTIONSELEMENTE
100
AcDbLine
 62
7
  6
CONTINUOUS
 10
189.3345675364
 20
130.3031477656
 11
189.3345675364
 21
130.5031477656
  0
LINE
  5
34E
100
AcDbEntity
  8
KONSTRUKTIONSELEMENTE
100
AcDbLine
 62
7
  6
CONTINUOUS
 10
189.4274221154
 20
130.3031477656
 11
189.4274221154
 21
130.5031477656
  0
LINE
  5
34F
100
AcDbEntity
  8
KONSTRUKTIONSELEMENTE
100
AcDbLine
 62
7
  6
CONTINUOUS
 10
189.4552784891
 20
130.3031477656
 11
189.4552784891
 21
130.5031477656
  0
LINE
  5
350
100
AcDbEntity
  8
RUNDUNGEN
100
AcDbLine
 62
7
  6
CONTINUOUS
 10
190.8558419681
 20
116.6491310556
 11
190.8558419681
 21
100.000940753
  0
LINE
  5
351
100
AcDbEntity
  8
BEZUGSACHSEN
100
AcDbLine
 62
7
  6
CONTINUOUS
 10
191.3558419681
 20
77.0031477656
 11
191.3558419681
 21
94.3031477656
  0
LINE
  5
352
100
AcDbEntity
  8
KONSTRUKTIONSELEMENTE
100
AcDbLine
 62
7
  6
CONTINUOUS
 10
191.4743049553
 20
130.3031477656
 11
191.4743049553
 21
130.5031477656
  0
LINE
  5
353
100
AcDbEntity
  8
KONSTRUKTIONSELEMENTE
100
AcDbLine
 62
7
  6
CONTINUOUS
 10
191.5103362179
 20
130.3031477656
 11
191.5103362179
 21
130.5031477656
  0
LINE
  5
354
100
AcDbEntity
  8
KONSTRUKTIONSELEMENTE
100
AcDbLine
 62
7
  6
CONTINUOUS
 10
191.6115591047
 20
130.3031477656
 11
191.6115591047
 21
130.5031477656
  0
LINE
  5
355
100
AcDbEntity
  8
RUNDUNGEN
100
AcDbLine
 62
7
  6
CONTINUOUS
 10
192.1058419681
 20
183.8448172709
 11
192.1058419681
 21
129.3238022172
  0
LINE
  5
356
100
AcDbEntity
  8
0
100
AcDbLine
 62
7
  6
CONTINUOUS
 10
203.3260413895
 20
122.1508977656
 11
203.8292762559
 21
122.1508977656
  0
LINE
  5
357
100
AcDbEntity
  8
0
100
AcDbLine
 62
7
  6
CONTINUOUS
 10
211.3558419681
 20
122.8031477656
 11
203.7549617553
 21
122.8031477656
  0
LINE
  5
358
100
AcDbEntity
  8
0
100
AcDbLine
 62
7
  6
CONTINUOUS
 10
183.3558419681
 20
122.8031477656
 11
191.4599570472
 21
122.8031477656
  0
LINE
  5
359
100
AcDbEntity
  8
KONSTRUKTIONSELEMENTE
100
AcDbLine
 62
7
  6
CONTINUOUS
 10
187.8558419681
 20
123.3031477656
 11
191.5169248514
 21
123.3031477656
  0
LINE
  5
35A
100
AcDbEntity
  8
KONSTRUKTIONSELEMENTE
100
AcDbLine
 62
7
  6
CONTINUOUS
 10
203.6979939512
 20
123.3031477656
 11
206.8558419681
 21
123.3031477656
  0
LINE
  5
35B
100
AcDbEntity
  8
RUNDUNGEN
100
AcDbLine
 62
7
  6
CONTINUOUS
 10
193.1058419681
 20
186.5008353313
 11
193.1058419681
 21
135.2154363825
  0
LINE
  5
35C
100
AcDbEntity
  8
RUNDUNGEN
100
AcDbLine
 62
7
  6
CONTINUOUS
 10
192.0094184049
 20
127.6257082093
 11
190.952264133
 21
118.3471842452
  0
LINE
  5
35D
100
AcDbEntity
  8
0
100
AcDbLine
 62
7
  6
CONTINUOUS
 10
203.0133813937
 20
124.8950793303
 11
203.51661626
 21
124.8950793303
  0
LINE
  5
35E
100
AcDbEntity
  8
0
100
AcDbLine
 62
7
  6
CONTINUOUS
 10
202.9430399615
 20
125.5124581567
 11
203.4462748279
 21
125.5124581567
  0
LINE
  5
35F
100
AcDbEntity
  8
0
100
AcDbLine
 62
7
  6
CONTINUOUS
 10
202.8549501108
 20
126.2856128533
 11
203.3581849772
 21
126.2856128533
  0
LINE
  5
360
100
AcDbEntity
  8
0
100
AcDbLine
 62
7
  6
CONTINUOUS
 10
202.8454473711
 20
126.3690173292
 11
203.3486822375
 21
126.3690173292
  0
LINE
  5
361
100
AcDbEntity
  8
0
100
AcDbLine
 62
7
  6
CONTINUOUS
 10
202.790561058
 20
126.8507483172
 11
203.2937959243
 21
126.8507483172
  0
LINE
  5
362
100
AcDbEntity
  8
0
100
AcDbLine
 62
7
  6
CONTINUOUS
 10
202.7634729154
 20
127.0884978933
 11
203.2667077818
 21
127.0884978933
  0
LINE
  5
363
100
AcDbEntity
  8
0
100
AcDbLine
 62
7
  6
CONTINUOUS
 10
202.7312512243
 20
127.3713040467
 11
203.2344860906
 21
127.3713040467
  0
LINE
  5
364
100
AcDbEntity
  8
0
100
AcDbLine
 62
7
  6
CONTINUOUS
 10
202.6825774103
 20
127.8084552103
 11
203.1846790069
 21
127.8084552103
  0
LINE
  5
365
100
AcDbEntity
  8
0
100
AcDbLine
 62
7
  6
CONTINUOUS
 10
202.6494073335
 20
128.18137514
 11
203.1421901479
 21
128.18137514
  0
LINE
  5
366
100
AcDbEntity
  8
0
100
AcDbLine
 62
7
  6
CONTINUOUS
 10
202.6233448011
 20
128.5993526201
 11
203.1066917186
 21
128.5993526201
  0
LINE
  5
367
100
AcDbEntity
  8
0
100
AcDbLine
 62
7
  6
CONTINUOUS
 10
202.6058716984
 20
129.2939038412
 11
203.1058419681
 21
129.2939038412
  0
LINE
  5
368
100
AcDbEntity
  8
0
100
AcDbLine
 62
7
  6
CONTINUOUS
 10
202.6058419681
 20
129.6476500874
 11
203.1058419681
 21
129.6476500874
  0
LINE
  5
369
100
AcDbEntity
  8
0
100
AcDbLine
 62
7
  6
CONTINUOUS
 10
202.6058419681
 20
129.8921088738
 11
203.1058419681
 21
129.8921088738
  0
LINE
  5
36A
100
AcDbEntity
  8
0
100
AcDbLine
 62
7
  6
CONTINUOUS
 10
202.6058419681
 20
130.0723364262
 11
203.1058419681
 21
130.0723364262
  0
LINE
  5
36B
100
AcDbEntity
  8
BEZUGSACHSEN
100
AcDbLine
 62
7
  6
CONTINUOUS
 10
187.8558419681
 20
130.3031477656
 11
192.1058419681
 21
130.3031477656
  0
LINE
  5
36C
100
AcDbEntity
  8
BEZUGSACHSEN
100
AcDbLine
 62
7
  6
CONTINUOUS
 10
203.1058419681
 20
130.3031477656
 11
206.8558419681
 21
130.3031477656
  0
LINE
  5
36D
100
AcDbEntity
  8
KONSTRUKTIONSELEMENTE
100
AcDbLine
 62
7
  6
CONTINUOUS
 10
189.3067111626
 20
130.5031477656
 11
192.1058419681
 21
130.5031477656
  0
LINE
  5
36E
100
AcDbEntity
  8
0
100
AcDbLine
 62
7
  6
CONTINUOUS
 10
202.6058419681
 20
130.9916954208
 11
203.1058419681
 21
130.9916954208
  0
LINE
  5
36F
100
AcDbEntity
  8
RUNDUNGEN
100
AcDbLine
 62
7
  6
CONTINUOUS
 10
201.6058419681
 20
134.8263806924
 11
201.6058419681
 21
186.5008977656
  0
LINE
  5
370
100
AcDbEntity
  8
RUNDUNGEN
100
AcDbLine
 62
7
  6
CONTINUOUS
 10
202.6058419681
 20
129.3237955599
 11
202.6058419681
 21
183.8448076584
  0
LINE
  5
371
100
AcDbEntity
  8
0
100
AcDbLine
 62
7
  6
CONTINUOUS
 10
203.1058419681
 20
133.7175040401
 11
203.1058419681
 21
128.6707513647
  0
LINE
  5
372
100
AcDbEntity
  8
BEZUGSACHSEN
100
AcDbLine
 62
7
  6
CONTINUOUS
 10
203.3558419681
 20
77.0031477656
 11
203.3558419681
 21
94.3031477656
  0
LINE
  5
373
100
AcDbEntity
  8
RUNDUNGEN
100
AcDbLine
 62
7
  6
CONTINUOUS
 10
203.8558419681
 20
100.0009407861
 11
203.8558419681
 21
116.6491310543
  0
LINE
  5
374
100
AcDbEntity
  8
0
100
AcDbLine
 62
7
  6
CONTINUOUS
 10
202.6058419681
 20
132.8438324521
 11
203.1058419681
 21
132.8438324521
  0
LINE
  5
375
100
AcDbEntity
  8
0
100
AcDbLine
 62
7
  6
CONTINUOUS
 10
202.6058419681
 20
133.1975782566
 11
203.1058419681
 21
133.1975782566
  0
LINE
  5
376
100
AcDbEntity
  8
0
100
AcDbLine
 62
7
  6
CONTINUOUS
 10
202.6058419681
 20
133.4099220884
 11
203.1058419681
 21
133.4099220884
  0
LINE
  5
377
100
AcDbEntity
  8
0
100
AcDbLine
 62
7
  6
CONTINUOUS
 10
202.6058419681
 20
133.5129775773
 11
203.1058419681
 21
133.5129775773
  0
LINE
  5
378
100
AcDbEntity
  8
0
100
AcDbLine
 62
7
  6
CONTINUOUS
 10
202.6058419681
 20
133.7175040401
 11
203.1058419681
 21
133.7175040401
  0
LINE
  5
379
100
AcDbEntity
  8
RUNDUNGEN
100
AcDbLine
 62
7
  6
CONTINUOUS
 10
203.7594191452
 20
118.3471900205
 11
202.7022668301
 21
127.62569681
  0
LINE
  5
37A
100
AcDbEntity
  8
0
100
AcDbLine
 62
7
  6
CONTINUOUS
 10
203.4462748279
 20
125.5124581567
 11
203.8292762559
 21
122.1508977656
  0
LINE
  5
37B
100
AcDbEntity
  8
0
100
AcDbLine
 62
7
  6
CONTINUOUS
 10
203.3581849772
 20
126.2856128533
 11
203.1251264011
 21
128.3311417233
  0
LINE
  5
37C
100
AcDbEntity
  8
0
100
AcDbLine
 62
7
  6
CONTINUOUS
 10
204.3558419681
 20
111.1334522114
 11
204.3558419681
 21
107.1335881951
  0
LINE
  5
37D
100
AcDbEntity
  8
BEZUGSACHSEN
100
AcDbLine
 62
7
  6
CONTINUOUS
 10
205.9558419681
 20
122.8031477656
 11
205.9558419681
 21
123.3031477656
  0
LINE
  5
37E
100
AcDbEntity
  8
0
100
AcDbLine
 62
7
  6
CONTINUOUS
 10
206.3558419681
 20
119.3031477656
 11
206.3558419681
 21
118.7531477656
  0
LINE
  5
37F
100
AcDbEntity
  8
0
100
AcDbLine
 62
7
  6
CONTINUOUS
 10
206.3558419681
 20
99.5531477656
 11
206.3558419681
 21
99.4031477656
  0
LINE
  5
380
100
AcDbEntity
  8
BEZUGSACHSEN
100
AcDbLine
 62
7
  6
CONTINUOUS
 10
206.8558419681
 20
123.3031477656
 11
206.8558419681
 21
130.3031477692
  0
LINE
  5
381
100
AcDbEntity
  8
0
100
AcDbLine
 62
7
  6
CONTINUOUS
 10
211.3558419681
 20
122.8031477656
 11
211.3558419681
 21
119.3031477656
  0
LINE
  5
382
100
AcDbEntity
  8
0
100
AcDbLine
 62
7
  6
CONTINUOUS
 10
212.3558419681
 20
99.4031477656
 11
212.3558419681
 21
94.3031477656
  0
LINE
  5
383
100
AcDbEntity
  8
0
100
AcDbLine
 62
7
  6
CONTINUOUS
 10
212.6058419681
 20
99.5531477656
 11
212.6058419681
 21
117.7531477656
  0
LINE
  5
384
100
AcDbEntity
  8
BEZUGSACHSEN
100
AcDbLine
 62
7
  6
CONTINUOUS
 10
202.1558419681
 20
75.8031477656
 11
203.3558419681
 21
77.0031477656
  0
LINE
  5
385
100
AcDbEntity
  8
0
100
AcDbLine
 62
7
  6
CONTINUOUS
 10
194.6058419681
 20
188.0008977656
 11
200.1058419681
 21
188.0008977656
  0
LINE
  5
386
100
AcDbEntity
  8
0
100
AcDbLine
 62
7
  6
CONTINUOUS
 10
69.1869837816
 20
40.443236383
 11
69.1869837816
 21
34.943236383
  0
LINE
  5
387
100
AcDbEntity
  8
RUNDUNGEN
100
AcDbLine
 62
7
  6
CONTINUOUS
 10
70.1810896983
 20
43.193236383
 11
70.1810896983
 21
41.8546983989
  0
LINE
  5
388
100
AcDbEntity
  8
RUNDUNGEN
100
AcDbLine
 62
7
  6
CONTINUOUS
 10
70.1810896983
 20
33.531774367
 11
70.1810896983
 21
32.193236383
  0
LINE
  5
389
100
AcDbEntity
  8
0
100
AcDbLine
 62
7
  6
CONTINUOUS
 10
74.6657006661
 20
31.193236383
 11
74.6657006661
 21
30.693236383
  0
LINE
  5
38A
100
AcDbEntity
  8
0
100
AcDbLine
 62
7
  6
CONTINUOUS
 10
76.8657006661
 20
31.193236383
 11
76.8657006661
 21
30.693236383
  0
LINE
  5
38B
100
AcDbEntity
  8
0
100
AcDbLine
 62
7
  6
CONTINUOUS
 10
77.1058518843
 20
32.0356969574
 11
77.1058518843
 21
31.5324620911
  0
LINE
  5
38C
100
AcDbEntity
  8
0
100
AcDbLine
 62
7
  6
CONTINUOUS
 10
77.3574225029
 20
32.1060383896
 11
77.3574225029
 21
31.6028035232
  0
LINE
  5
38D
100
AcDbEntity
  8
0
100
AcDbLine
 62
7
  6
CONTINUOUS
 10
78.0657006661
 20
31.193236383
 11
78.0657006661
 21
30.693236383
  0
LINE
  5
38E
100
AcDbEntity
  8
0
100
AcDbLine
 62
7
  6
CONTINUOUS
 10
78.5368582783
 20
32.3996710176
 11
78.5368582783
 21
31.9068882032
  0
LINE
  5
38F
100
AcDbEntity
  8
0
100
AcDbLine
 62
7
  6
CONTINUOUS
 10
78.6152757307
 20
32.42573355
 11
78.6152757307
 21
31.9423866325
  0
LINE
  5
390
100
AcDbEntity
  8
0
100
AcDbLine
 62
7
  6
CONTINUOUS
 10
78.8982926934
 20
32.4432066526
 11
78.8982926934
 21
31.943236383
  0
LINE
  5
391
100
AcDbEntity
  8
0
100
AcDbLine
 62
7
  6
CONTINUOUS
 10
79.1044801885
 20
31.9315897555
 11
79.1044801885
 21
31.8600301633
  0
LINE
  5
392
100
AcDbEntity
  8
0
100
AcDbLine
 62
7
  6
CONTINUOUS
 10
79.134338593
 20
32.443236383
 11
79.134338593
 21
31.943236383
  0
LINE
  5
393
100
AcDbEntity
  8
0
100
AcDbLine
 62
7
  6
CONTINUOUS
 10
79.2780307516
 20
31.943236383
 11
79.2780307516
 21
31.8314675491
  0
LINE
  5
394
100
AcDbEntity
  8
0
100
AcDbLine
 62
7
  6
CONTINUOUS
 10
79.3918642828
 20
31.5379511014
 11
79.3918642828
 21
31.3750669726
  0
LINE
  5
395
100
AcDbEntity
  8
0
100
AcDbLine
 62
7
  6
CONTINUOUS
 10
79.4177525969
 20
32.443236383
 11
79.4177525969
 21
31.943236383
  0
LINE
  5
396
100
AcDbEntity
  8
0
100
AcDbLine
 62
7
  6
CONTINUOUS
 10
79.5618416167
 20
31.943236383
 11
79.5618416167
 21
31.808038504
  0
LINE
  5
397
100
AcDbEntity
  8
0
100
AcDbLine
 62
7
  6
CONTINUOUS
 10
79.5901118158
 20
32.443236383
 11
79.5901118158
 21
31.943236383
  0
LINE
  5
398
100
AcDbEntity
  8
0
100
AcDbLine
 62
7
  6
CONTINUOUS
 10
80.2657006661
 20
31.193236383
 11
80.2657006661
 21
30.693236383
  0
LINE
  5
399
100
AcDbEntity
  8
0
100
AcDbLine
 62
7
  6
CONTINUOUS
 10
80.3448238964
 20
32.443236383
 11
80.3448238964
 21
31.943236383
  0
LINE
  5
39A
100
AcDbEntity
  8
RUNDUNGEN
100
AcDbLine
 62
7
  6
CONTINUOUS
 10
87.8148287354
 20
50.7438386664
 11
86.9271798601
 21
50.3707713226
  0
LINE
  5
39B
100
AcDbEntity
  8
0
100
AcDbLine
 62
7
  6
CONTINUOUS
 10
80.4956617568
 20
31.5259334758
 11
80.4956617568
 21
31.2725581725
  0
LINE
  5
39C
100
AcDbEntity
  8
0
100
AcDbLine
 62
7
  6
CONTINUOUS
 10
80.580869616
 20
32.443236383
 11
80.580869616
 21
31.943236383
  0
LINE
  5
39D
100
AcDbEntity
  8
0
100
AcDbLine
 62
7
  6
CONTINUOUS
 10
80.7440564307
 20
31.943236383
 11
80.7440564307
 21
31.7531521908
  0
LINE
  5
39E
100
AcDbEntity
  8
0
100
AcDbLine
 62
7
  6
CONTINUOUS
 10
80.9430981134
 20
32.443236383
 11
80.9430981134
 21
31.943236383
  0
LINE
  5
39F
100
AcDbEntity
  8
0
100
AcDbLine
 62
7
  6
CONTINUOUS
 10
81.0907600741
 20
31.943236383
 11
81.0907600741
 21
31.7473085383
  0
LINE
  5
3A0
100
AcDbEntity
  8
0
100
AcDbLine
 62
7
  6
CONTINUOUS
 10
81.3526943553
 20
32.443236383
 11
81.3526943553
 21
31.943236383
  0
LINE
  5
3A1
100
AcDbEntity
  8
0
100
AcDbLine
 62
7
  6
CONTINUOUS
 10
81.3900956132
 20
31.943236383
 11
81.3900956132
 21
31.753916619
  0
LINE
  5
3A2
100
AcDbEntity
  8
0
100
AcDbLine
 62
7
  6
CONTINUOUS
 10
81.5648369195
 20
31.7034237132
 11
81.5648369195
 21
31.5715092685
  0
LINE
  5
3A3
100
AcDbEntity
  8
0
100
AcDbLine
 62
7
  6
CONTINUOUS
 10
81.6205835053
 20
32.443236383
 11
81.6205835053
 21
31.943236383
  0
LINE
  5
3A4
100
AcDbEntity
  8
0
100
AcDbLine
 62
7
  6
CONTINUOUS
 10
81.6420632832
 20
31.943236383
 11
81.6420632832
 21
31.7729764807
  0
LINE
  5
3A5
100
AcDbEntity
  8
0
100
AcDbLine
 62
7
  6
CONTINUOUS
 10
81.8466629735
 20
31.943236383
 11
81.8466629735
 21
31.8044881284
  0
LINE
  5
3A6
100
AcDbEntity
  8
0
100
AcDbLine
 62
7
  6
CONTINUOUS
 10
81.9358409803
 20
32.443236383
 11
81.9358409803
 21
31.943236383
  0
LINE
  5
3A7
100
AcDbEntity
  8
0
100
AcDbLine
 62
7
  6
CONTINUOUS
 10
82.1296799363
 20
31.943236383
 11
82.1296799363
 21
31.8836222443
  0
LINE
  5
3A8
100
AcDbEntity
  8
0
100
AcDbLine
 62
7
  6
CONTINUOUS
 10
82.1408377118
 20
32.443236383
 11
82.1408377118
 21
31.943236383
  0
LINE
  5
3A9
100
AcDbEntity
  8
0
100
AcDbLine
 62
7
  6
CONTINUOUS
 10
82.3617559785
 20
32.443236383
 11
82.3617559785
 21
31.943236383
  0
LINE
  5
3AA
100
AcDbEntity
  8
0
100
AcDbLine
 62
7
  6
CONTINUOUS
 10
82.4724133625
 20
32.443236383
 11
82.4724133625
 21
31.943236383
  0
LINE
  5
3AB
100
AcDbEntity
  8
0
100
AcDbLine
 62
7
  6
CONTINUOUS
 10
82.6809831384
 20
31.943236383
 11
82.6809831384
 21
31.909290187
  0
LINE
  5
3AC
100
AcDbEntity
  8
0
100
AcDbLine
 62
7
  6
CONTINUOUS
 10
88.2172680147
 20
48.8334893856
 11
83.5624887015
 21
43.4520493146
  0
LINE
  5
3AD
100
AcDbEntity
  8
0
100
AcDbLine
 62
7
  6
CONTINUOUS
 10
78.5368582783
 20
31.9068882032
 11
78.5687017086
 21
31.8643993442
  0
LINE
  5
3AE
100
AcDbEntity
  8
0
100
AcDbLine
 62
7
  6
CONTINUOUS
 10
83.4830631503
 20
32.443236383
 11
83.4830631503
 21
31.943236383
  0
LINE
  5
3AF
100
AcDbEntity
  8
RUNDUNGEN
100
AcDbLine
 62
7
  6
CONTINUOUS
 10
83.9369837816
 20
29.49296986
 11
83.9369837816
 21
32.040031261
  0
LINE
  5
3B0
100
AcDbEntity
  8
RUNDUNGEN
100
AcDbLine
 62
7
  6
CONTINUOUS
 10
83.9369837816
 20
43.8850070759
 11
83.9369837816
 21
45.7924869063
  0
LINE
  5
3B1
100
AcDbEntity
  8
0
100
AcDbLine
 62
7
  6
CONTINUOUS
 10
89.200489435
 20
47.9830332499
 11
84.9442795619
 21
43.0623835648
  0
LINE
  5
3B2
100
AcDbEntity
  8
0
100
AcDbLine
 62
7
  6
CONTINUOUS
 10
90.0136961821
 20
46.9380845718
 11
88.9023868913
 21
45.693687915
  0
LINE
  5
3B3
100
AcDbEntity
  8
0
100
AcDbLine
 62
7
  6
CONTINUOUS
 10
89.3832062998
 20
45.593244382
 11
90.3310859055
 21
46.6546394609
  0
LINE
  5
3B4
100
AcDbEntity
  8
0
100
AcDbLine
 62
7
  6
CONTINUOUS
 10
92.1279987218
 20
48.6137406816
 11
91.8844186287
 21
48.4483534063
  0
LINE
  5
3B5
100
AcDbEntity
  8
0
100
AcDbLine
 62
7
  6
CONTINUOUS
 10
82.6809831384
 20
31.909290187
 11
82.6699948949
 21
31.92395195
  0
LINE
  5
3B6
100
AcDbEntity
  8
0
100
AcDbLine
 62
7
  6
CONTINUOUS
 10
90.4717951993
 20
45.2789724114
 11
90.3718464512
 21
45.039285162
  0
LINE
  5
3B7
100
AcDbEntity
  8
0
100
AcDbLine
 62
7
  6
CONTINUOUS
 10
90.6679084275
 20
45.4985716243
 11
90.4717951993
 21
45.2789724114
  0
LINE
  5
3B8
100
AcDbEntity
  8
0
100
AcDbLine
 62
7
  6
CONTINUOUS
 10
90.7891849227
 20
44.9955273004
 11
90.9852981509
 21
45.2151265134
  0
LINE
  5
3B9
100
AcDbEntity
  8
0
100
AcDbLine
 62
7
  6
CONTINUOUS
 10
90.5528136308
 20
44.2197731794
 11
90.7816133945
 21
44.4759733781
  0
LINE
  5
3BA
100
AcDbEntity
  8
0
100
AcDbLine
 62
7
  6
CONTINUOUS
 10
91.32022845
 20
43.9291711133
 11
91.1241152218
 21
43.7095719003
  0
LINE
  5
3BB
100
AcDbEntity
  8
0
100
AcDbLine
 62
7
  6
CONTINUOUS
 10
92.0135055143
 20
46.6416012299
 11
91.8237261837
 21
46.4861006167
  0
LINE
  5
3BC
100
AcDbEntity
  8
0
100
AcDbLine
 62
7
  6
CONTINUOUS
 10
92.0934244064
 20
46.1569498365
 11
92.283203737
 21
46.3124504497
  0
LINE
  5
3BD
100
AcDbEntity
  8
0
100
AcDbLine
 62
7
  6
CONTINUOUS
 10
90.8948160574
 20
45.6248841801
 11
90.6679084275
 21
45.4985716243
  0
LINE
  5
3BE
100
AcDbEntity
  8
0
100
AcDbLine
 62
7
  6
CONTINUOUS
 10
90.9852981509
 20
45.2151265134
 11
91.1795192452
 21
45.3048380834
  0
LINE
  5
3BF
100
AcDbEntity
  8
0
100
AcDbLine
 62
7
  6
CONTINUOUS
 10
79.1044801885
 20
31.8600301633
 11
79.0411905489
 21
31.8937263763
  0
LINE
  5
3C0
100
AcDbEntity
  8
0
100
AcDbLine
 62
7
  6
CONTINUOUS
 10
87.8540473312
 20
31.3234496584
 11
87.9515077412
 21
31.1530750967
  0
LINE
  5
3C1
100
AcDbEntity
  8
RUNDUNGEN
100
AcDbLine
 62
7
  6
CONTINUOUS
 10
80.4774975565
 20
43.8958971664
 11
80.458623309
 21
43.9308433078
  0
LINE
  5
3C2
100
AcDbEntity
  8
0
100
AcDbLine
 62
7
  6
CONTINUOUS
 10
87.8060957794
 20
31.5786757903
 11
87.8540473312
 21
31.3234496584
  0
LINE
  5
3C3
100
AcDbEntity
  8
0
100
AcDbLine
 62
7
  6
CONTINUOUS
 10
89.5393647967
 20
29.3447589443
 11
89.551082915
 21
29.0852170997
  0
LINE
  5
3C4
100
AcDbEntity
  8
0
100
AcDbLine
 62
7
  6
CONTINUOUS
 10
87.9058893606
 20
31.9184226564
 11
87.8060957794
 21
31.5786757903
  0
LINE
  5
3C5
100
AcDbEntity
  8
0
100
AcDbLine
 62
7
  6
CONTINUOUS
 10
90.7219227101
 20
44.7924410369
 11
90.7891849227
 21
44.9955273004
  0
LINE
  5
3C6
100
AcDbEntity
  8
BEZUGSACHSEN
100
AcDbLine
 62
7
  6
CONTINUOUS
 10
93.7021562243
 20
47.193236383
 11
91.2484175803
 21
42.943236383
  0
LINE
  5
3C7
100
AcDbEntity
  8
KONSTRUKTIONSELEMENTE
100
AcDbLine
 62
7
  6
CONTINUOUS
 10
93.6167388614
 20
43.4375192463
 11
93.1265398266
 21
42.943236383
  0
LINE
  5
3C8
100
AcDbEntity
  8
KONSTRUKTIONSELEMENTE
100
AcDbLine
 62
7
  6
CONTINUOUS
 10
93.57602386
 20
42.943236383
 11
93.843345396
 21
43.212784964
  0
LINE
  5
3C9
100
AcDbEntity
  8
0
100
AcDbLine
 62
7
  6
CONTINUOUS
 10
79.0411905489
 20
31.8937263763
 11
79.0777533569
 21
31.92395195
  0
LINE
  5
3CA
100
AcDbEntity
  8
KONSTRUKTIONSELEMENTE
100
AcDbLine
 62
7
  6
CONTINUOUS
 10
93.7920394373
 20
43.5387421332
 11
93.6167388614
 21
43.4375192463
  0
LINE
  5
3CB
100
AcDbEntity
  8
KONSTRUKTIONSELEMENTE
100
AcDbLine
 62
7
  6
CONTINUOUS
 10
93.843345396
 20
43.212784964
 11
93.9911392191
 21
43.2862719403
  0
LINE
  5
3CC
100
AcDbEntity
  8
0
100
AcDbLine
 62
7
  6
CONTINUOUS
 10
104.8002461903
 20
48.6701898345
 11
105.0120096719
 21
48.7463453319
  0
LINE
  5
3CD
100
AcDbEntity
  8
0
100
AcDbLine
 62
7
  6
CONTINUOUS
 10
121.0770083262
 20
31.3942079927
 11
121.2677766001
 21
31.4439507552
  0
LINE
  5
3CE
100
AcDbEntity
  8
0
100
AcDbLine
 62
7
  6
CONTINUOUS
 10
93.861812882
 20
26.3908162877
 11
93.6044441987
 21
26.4254889403
  0
LINE
  5
3CF
100
AcDbEntity
  8
0
100
AcDbLine
 62
7
  6
CONTINUOUS
 10
93.3687637957
 20
26.0678020153
 11
93.713727726
 21
25.9888760243
  0
LINE
  5
3D0
100
AcDbEntity
  8
0
100
AcDbLine
 62
7
  6
CONTINUOUS
 10
93.1935692918
 20
26.1563107177
 11
93.3687637957
 21
26.0678020153
  0
LINE
  5
3D1
100
AcDbEntity
  8
0
100
AcDbLine
 62
7
  6
CONTINUOUS
 10
93.6044441987
 20
26.4254889403
 11
93.4292516998
 21
26.5139966298
  0
LINE
  5
3D2
100
AcDbEntity
  8
0
100
AcDbLine
 62
7
  6
CONTINUOUS
 10
94.4916779114
 20
26.5493601517
 11
94.272685784
 21
26.6599955232
  0
LINE
  5
3D3
100
AcDbEntity
  8
0
100
AcDbLine
 62
7
  6
CONTINUOUS
 10
90.366488011
 20
28.844451185
 11
90.1358306511
 21
28.9637743358
  0
LINE
  5
3D4
100
AcDbEntity
  8
0
100
AcDbLine
 62
7
  6
CONTINUOUS
 10
82.1766508195
 20
31.9224520161
 11
82.1738335787
 21
31.92395195
  0
LINE
  5
3D5
100
AcDbEntity
  8
0
100
AcDbLine
 62
7
  6
CONTINUOUS
 10
89.7934568464
 20
28.7063537333
 11
90.0916890003
 21
28.5158622435
  0
LINE
  5
3D6
100
AcDbEntity
  8
0
100
AcDbLine
 62
7
  6
CONTINUOUS
 10
88.4922113575
 20
31.2362490888
 11
88.3208761504
 21
31.364367183
  0
LINE
  5
3D7
100
AcDbEntity
  8
0
100
AcDbLine
 62
7
  6
CONTINUOUS
 10
87.9515077412
 20
31.1530750967
 11
88.147207772
 21
30.9823638495
  0
LINE
  5
3D8
100
AcDbEntity
  8
0
100
AcDbLine
 62
7
  6
CONTINUOUS
 10
92.9691560968
 20
26.3650354772
 11
93.1935692918
 21
26.1563107177
  0
LINE
  5
3D9
100
AcDbEntity
  8
0
100
AcDbLine
 62
7
  6
CONTINUOUS
 10
93.4292516998
 20
26.5139966298
 11
93.2486361283
 21
26.7005947202
  0
LINE
  5
3DA
100
AcDbEntity
  8
0
100
AcDbLine
 62
7
  6
CONTINUOUS
 10
89.7258805058
 20
28.7775237012
 11
89.7934568464
 21
28.7063537333
  0
LINE
  5
3DB
100
AcDbEntity
  8
0
100
AcDbLine
 62
7
  6
CONTINUOUS
 10
90.1358306511
 20
28.9637743358
 11
90.0006795165
 21
29.1061126426
  0
LINE
  5
3DC
100
AcDbEntity
  8
0
100
AcDbLine
 62
7
  6
CONTINUOUS
 10
91.0129530286
 20
28.7816093754
 11
90.8440129503
 21
28.9595334807
  0
LINE
  5
3DD
100
AcDbEntity
  8
0
100
AcDbLine
 62
7
  6
CONTINUOUS
 10
90.988156194
 20
30.0437280771
 11
91.1233073286
 21
29.9013897703
  0
LINE
  5
3DE
100
AcDbEntity
  8
0
100
AcDbLine
 62
7
  6
CONTINUOUS
 10
88.3208761504
 20
31.364367183
 11
88.2234157404
 21
31.5347417447
  0
LINE
  5
3DF
100
AcDbEntity
  8
0
100
AcDbLine
 62
7
  6
CONTINUOUS
 10
89.4053948567
 20
32.2108765392
 11
89.5028552667
 21
32.0405019775
  0
LINE
  5
3E0
100
AcDbEntity
  8
0
100
AcDbLine
 62
7
  6
CONTINUOUS
 10
89.798349994
 20
32.2095356465
 11
89.700889584
 21
32.3799102082
  0
LINE
  5
3E1
100
AcDbEntity
  8
0
100
AcDbLine
 62
7
  6
CONTINUOUS
 10
89.551082915
 20
29.0852170997
 11
89.7258805058
 21
28.7775237012
  0
LINE
  5
3E2
100
AcDbEntity
  8
0
100
AcDbLine
 62
7
  6
CONTINUOUS
 10
91.2350253201
 20
30.2781318947
 11
91.0940151264
 21
30.5502411238
  0
LINE
  5
3E3
100
AcDbEntity
  8
0
100
AcDbLine
 62
7
  6
CONTINUOUS
 10
90.0006795165
 20
29.1061126426
 11
89.8934567197
 21
29.3426377023
  0
LINE
  5
3E4
100
AcDbEntity
  8
0
100
AcDbLine
 62
7
  6
CONTINUOUS
 10
88.2234157404
 20
31.5347417447
 11
88.1998278969
 21
31.7473766734
  0
LINE
  5
3E5
100
AcDbEntity
  8
0
100
AcDbLine
 62
7
  6
CONTINUOUS
 10
89.5028552667
 20
32.0405019775
 11
89.5264431102
 21
31.8278670487
  0
LINE
  5
3E6
100
AcDbEntity
  8
0
100
AcDbLine
 62
7
  6
CONTINUOUS
 10
89.700889584
 20
32.3799102082
 11
89.6938647368
 21
32.443236383
  0
LINE
  5
3E7
100
AcDbEntity
  8
0
100
AcDbLine
 62
7
  6
CONTINUOUS
 10
90.3718464512
 20
45.039285162
 11
90.3988535925
 21
44.6862198683
  0
LINE
  5
3E8
100
AcDbEntity
  8
0
100
AcDbLine
 62
7
  6
CONTINUOUS
 10
89.8934567197
 20
29.3426377023
 11
89.9155275451
 21
29.5665937484
  0
LINE
  5
3E9
100
AcDbEntity
  8
0
100
AcDbLine
 62
7
  6
CONTINUOUS
 10
91.0940151264
 20
30.5502411238
 11
91.1160859518
 21
30.77419717
  0
LINE
  5
3EA
100
AcDbEntity
  8
0
100
AcDbLine
 62
7
  6
CONTINUOUS
 10
89.8203816465
 20
31.6568210658
 11
89.8455245656
 21
31.7842677388
  0
LINE
  5
3EB
100
AcDbEntity
  8
0
100
AcDbLine
 62
7
  6
CONTINUOUS
 10
89.6510827883
 20
29.7215010687
 11
89.5393647967
 21
29.3447589443
  0
LINE
  5
3EC
100
AcDbEntity
  8
0
100
AcDbLine
 62
7
  6
CONTINUOUS
 10
88.1998278969
 20
31.7473766734
 11
88.3239896478
 21
32.0445245371
  0
LINE
  5
3ED
100
AcDbEntity
  8
0
100
AcDbLine
 62
7
  6
CONTINUOUS
 10
89.5264431102
 20
31.8278670487
 11
89.4022824746
 21
31.5307172353
  0
LINE
  5
3EE
100
AcDbEntity
  8
0
100
AcDbLine
 62
7
  6
CONTINUOUS
 10
88.0544148198
 20
32.1729793168
 11
87.9058893606
 21
31.9184226564
  0
LINE
  5
3EF
100
AcDbEntity
  8
0
100
AcDbLine
 62
7
  6
CONTINUOUS
 10
103.4982846331
 20
49.957521318
 11
103.0229532924
 21
49.4931335821
  0
LINE
  5
3F0
100
AcDbEntity
  8
0
100
AcDbLine
 62
7
  6
CONTINUOUS
 10
102.7971567963
 20
48.8508140918
 11
103.2724882161
 21
49.3152020527
  0
LINE
  5
3F1
100
AcDbEntity
  8
0
100
AcDbLine
 62
7
  6
CONTINUOUS
 10
82.1766508195
 20
31.9224520161
 11
82.1296799363
 21
31.8836222443
  0
LINE
  5
3F2
100
AcDbEntity
  8
0
100
AcDbLine
 62
7
  6
CONTINUOUS
 10
78.5368582783
 20
31.9068882032
 11
78.5649562369
 21
31.92395195
  0
LINE
  5
3F3
100
AcDbEntity
  8
0
100
AcDbLine
 62
7
  6
CONTINUOUS
 10
104.9233824671
 20
49.0891723944
 11
104.5853864768
 21
48.8887364218
  0
LINE
  5
3F4
100
AcDbEntity
  8
KONSTRUKTIONSELEMENTE
100
AcDbLine
 62
7
  6
CONTINUOUS
 10
101.940106728
 20
45.0493436024
 11
101.7109613121
 21
44.9182868367
  0
LINE
  5
3F5
100
AcDbEntity
  8
0
100
AcDbLine
 62
7
  6
CONTINUOUS
 10
105.2799557317
 20
47.5213956506
 11
104.6686105085
 21
47.1993118591
  0
LINE
  5
3F6
100
AcDbEntity
  8
0
100
AcDbLine
 62
7
  6
CONTINUOUS
 10
104.8388338972
 20
46.903944826
 11
105.3685826918
 21
47.1785687258
  0
LINE
  5
3F7
100
AcDbEntity
  8
KONSTRUKTIONSELEMENTE
100
AcDbLine
 62
7
  6
CONTINUOUS
 10
101.9035880241
 20
44.7745651463
 11
102.0538624527
 21
44.8242425226
  0
LINE
  5
3F8
100
AcDbEntity
  8
0
100
AcDbLine
 62
7
  6
CONTINUOUS
 10
115.8472915505
 20
31.911250215
 11
115.8960039306
 21
31.92395195
  0
LINE
  5
3F9
100
AcDbEntity
  8
0
100
AcDbLine
 62
7
  6
CONTINUOUS
 10
93.713727726
 20
25.9888760243
 11
93.9656733367
 21
26.0522937725
  0
LINE
  5
3FA
100
AcDbEntity
  8
0
100
AcDbLine
 62
7
  6
CONTINUOUS
 10
120.7318865199
 20
31.4397627656
 11
120.5575930857
 21
31.4112588961
  0
LINE
  5
3FB
100
AcDbEntity
  8
BEZUGSACHSEN
100
AcDbLine
 62
7
  6
CONTINUOUS
 10
93.7021562243
 20
28.193236383
 11
104.6718113389
 21
28.193236383
  0
LINE
  5
3FC
100
AcDbEntity
  8
0
100
AcDbLine
 62
7
  6
CONTINUOUS
 10
98.5591330653
 20
26.8336057613
 11
99.2458828793
 21
26.8156307338
  0
LINE
  5
3FD
100
AcDbEntity
  8
0
100
AcDbLine
 62
7
  6
CONTINUOUS
 10
99.2570169636
 20
27.2410170301
 11
98.5702671497
 21
27.2589920575
  0
LINE
  5
3FE
100
AcDbEntity
  8
0
100
AcDbLine
 62
7
  6
CONTINUOUS
 10
90.0916890003
 20
28.5158622435
 11
90.350274698
 21
28.4907258455
  0
LINE
  5
3FF
100
AcDbEntity
  8
0
100
AcDbLine
 62
7
  6
CONTINUOUS
 10
78.5687017086
 20
31.8643993442
 11
78.7581735862
 21
31.8145922604
  0
LINE
  5
400
100
AcDbEntity
  8
0
100
AcDbLine
 62
7
  6
CONTINUOUS
 10
90.6619941556
 20
30.1400344431
 11
90.988156194
 21
30.0437280771
  0
LINE
  5
401
100
AcDbEntity
  8
0
100
AcDbLine
 62
7
  6
CONTINUOUS
 10
89.2340596495
 20
32.3389946334
 11
89.4053948567
 21
32.2108765392
  0
LINE
  5
402
100
AcDbEntity
  8
0
100
AcDbLine
 62
7
  6
CONTINUOUS
 10
89.9696852012
 20
32.0814175523
 11
89.798349994
 21
32.2095356465
  0
LINE
  5
403
100
AcDbEntity
  8
0
100
AcDbLine
 62
7
  6
CONTINUOUS
 10
91.3701764548
 20
30.1357935879
 11
91.2350253201
 21
30.2781318947
  0
LINE
  5
404
100
AcDbEntity
  8
BEZUGSACHSEN
100
AcDbLine
 62
7
  6
CONTINUOUS
 10
91.2484175803
 20
32.443236383
 11
93.7021562243
 21
28.193236383
  0
LINE
  5
405
100
AcDbEntity
  8
0
100
AcDbLine
 62
7
  6
CONTINUOUS
 10
92.8707167097
 20
26.6054686044
 11
92.9691560968
 21
26.3650354772
  0
LINE
  5
406
100
AcDbEntity
  8
0
100
AcDbLine
 62
7
  6
CONTINUOUS
 10
93.2486361283
 20
26.7005947202
 11
93.1939943647
 21
26.9189011782
  0
LINE
  5
407
100
AcDbEntity
  8
0
100
AcDbLine
 62
7
  6
CONTINUOUS
 10
90.7957814258
 20
30.7407342426
 11
90.8412869411
 21
30.4456082285
  0
LINE
  5
408
100
AcDbEntity
  8
0
100
AcDbLine
 62
7
  6
CONTINUOUS
 10
92.8490304344
 20
26.9978271692
 11
92.8707167097
 21
26.6054686044
  0
LINE
  5
409
100
AcDbEntity
  8
0
100
AcDbLine
 62
7
  6
CONTINUOUS
 10
93.1939943647
 20
26.9189011782
 11
93.2215267805
 21
27.1910436859
  0
LINE
  5
40A
100
AcDbEntity
  8
0
100
AcDbLine
 62
7
  6
CONTINUOUS
 10
89.9155275451
 20
29.5665937484
 11
90.0331030491
 21
29.8135665795
  0
LINE
  5
40B
100
AcDbEntity
  8
0
100
AcDbLine
 62
7
  6
CONTINUOUS
 10
90.9133584765
 20
30.9877054447
 11
90.7957814258
 21
30.7407342426
  0
LINE
  5
40C
100
AcDbEntity
  8
0
100
AcDbLine
 62
7
  6
CONTINUOUS
 10
89.6718561873
 20
31.4022644053
 11
89.8203816465
 21
31.6568210658
  0
LINE
  5
40D
100
AcDbEntity
  8
0
100
AcDbLine
 62
7
  6
CONTINUOUS
 10
91.2475684847
 20
32.2470981035
 11
91.3049138772
 21
32.3453819263
  0
LINE
  5
40E
100
AcDbEntity
  8
0
100
AcDbLine
 62
7
  6
CONTINUOUS
 10
91.1160859518
 20
30.77419717
 11
91.2953788237
 21
31.0797710375
  0
LINE
  5
40F
100
AcDbEntity
  8
0
100
AcDbLine
 62
7
  6
CONTINUOUS
 10
91.0146413085
 20
32.443236383
 11
90.8051044375
 21
32.1635873964
  0
LINE
  5
410
100
AcDbEntity
  8
0
100
AcDbLine
 62
7
  6
CONTINUOUS
 10
88.3239896478
 20
32.0445245371
 11
88.4968790222
 21
32.2564901128
  0
LINE
  5
411
100
AcDbEntity
  8
0
100
AcDbLine
 62
7
  6
CONTINUOUS
 10
89.4022824746
 20
31.5307172353
 11
89.2293921918
 21
31.3187537278
  0
LINE
  5
412
100
AcDbEntity
  8
KONSTRUKTIONSELEMENTE
100
AcDbLine
 62
7
  6
CONTINUOUS
 10
100.7023110756
 20
45.5484119502
 11
100.4016517862
 21
45.2272064214
  0
LINE
  5
413
100
AcDbEntity
  8
KONSTRUKTIONSELEMENTE
100
AcDbLine
 62
7
  6
CONTINUOUS
 10
100.3210492519
 20
44.8093778373
 11
100.6217085696
 21
45.1305835124
  0
LINE
  5
414
100
AcDbEntity
  8
0
100
AcDbLine
 62
7
  6
CONTINUOUS
 10
105.5324202597
 20
47.7699568764
 11
105.2799557317
 21
47.5213956506
  0
LINE
  5
415
100
AcDbEntity
  8
0
100
AcDbLine
 62
7
  6
CONTINUOUS
 10
88.346695521
 20
32.443236383
 11
88.0544148198
 21
32.1729793168
  0
LINE
  5
416
100
AcDbEntity
  8
KONSTRUKTIONSELEMENTE
100
AcDbLine
 62
7
  6
CONTINUOUS
 10
101.7674312956
 20
44.6604212934
 11
101.9035880241
 21
44.7745651463
  0
LINE
  5
417
100
AcDbEntity
  8
0
100
AcDbLine
 62
7
  6
CONTINUOUS
 10
104.5895148675
 20
48.4958002629
 11
104.8002461903
 21
48.6701898345
  0
LINE
  5
418
100
AcDbEntity
  8
0
100
AcDbLine
 62
7
  6
CONTINUOUS
 10
105.3685826918
 20
47.1785687258
 11
105.5793142593
 21
47.3529581597
  0
LINE
  5
419
100
AcDbEntity
  8
0
100
AcDbLine
 62
7
  6
CONTINUOUS
 10
82.6025658729
 20
31.8616677185
 11
82.6809831384
 21
31.909290187
  0
LINE
  5
41A
100
AcDbEntity
  8
KONSTRUKTIONSELEMENTE
100
AcDbLine
 62
7
  6
CONTINUOUS
 10
102.4233649667
 20
44.0200061939
 11
100.8841027483
 21
43.2484535093
  0
LINE
  5
41B
100
AcDbEntity
  8
KONSTRUKTIONSELEMENTE
100
AcDbLine
 62
7
  6
CONTINUOUS
 10
101.1697173307
 20
43.1216450945
 11
102.5371215085
 21
43.7949047513
  0
LINE
  5
41C
100
AcDbEntity
  8
0
100
AcDbLine
 62
7
  6
CONTINUOUS
 10
90.350274698
 20
28.4907258455
 11
90.7322965055
 21
28.5827897273
  0
LINE
  5
41D
100
AcDbEntity
  8
0
100
AcDbLine
 62
7
  6
CONTINUOUS
 10
116.3831817136
 20
31.9154382084
 11
116.4352408877
 21
31.92395195
  0
LINE
  5
41E
100
AcDbEntity
  8
0
100
AcDbLine
 62
7
  6
CONTINUOUS
 10
120.8238058583
 20
31.3620717057
 11
121.0770083262
 21
31.3942079927
  0
LINE
  5
41F
100
AcDbEntity
  8
0
100
AcDbLine
 62
7
  6
CONTINUOUS
 10
120.5575930857
 20
31.4112588961
 11
120.2731731635
 21
31.3879259477
  0
LINE
  5
420
100
AcDbEntity
  8
0
100
AcDbLine
 62
7
  6
CONTINUOUS
 10
120.4604764602
 20
31.3351063194
 11
120.8238058583
 21
31.3620717057
  0
LINE
  5
421
100
AcDbEntity
  8
0
100
AcDbLine
 62
7
  6
CONTINUOUS
 10
90.5912863117
 20
28.8548989564
 11
90.366488011
 21
28.844451185
  0
LINE
  5
422
100
AcDbEntity
  8
0
100
AcDbLine
 62
7
  6
CONTINUOUS
 10
119.2768375275
 20
31.2806198994
 11
120.4604764602
 21
31.3351063194
  0
LINE
  5
423
100
AcDbEntity
  8
0
100
AcDbLine
 62
7
  6
CONTINUOUS
 10
120.2731731635
 20
31.3879259477
 11
119.0895342308
 21
31.3334395277
  0
LINE
  5
424
100
AcDbEntity
  8
0
100
AcDbLine
 62
7
  6
CONTINUOUS
 10
117.4263596952
 20
31.5436068134
 11
120.1881840005
 21
31.6707417993
  0
LINE
  5
425
100
AcDbEntity
  8
0
100
AcDbLine
 62
7
  6
CONTINUOUS
 10
120.4743362326
 20
31.7453559935
 11
116.7656008144
 21
31.5746318731
  0
LINE
  5
426
100
AcDbEntity
  8
0
100
AcDbLine
 62
7
  6
CONTINUOUS
 10
80.2657006661
 20
30.693236383
 11
78.0657704467
 21
30.693236383
  0
LINE
  5
427
100
AcDbEntity
  8
0
100
AcDbLine
 62
7
  6
CONTINUOUS
 10
76.8657006661
 20
30.693236383
 11
74.6657704467
 21
30.693236383
  0
LINE
  5
428
100
AcDbEntity
  8
0
100
AcDbLine
 62
7
  6
CONTINUOUS
 10
79.010538242
 20
31.7823705693
 11
79.3731636415
 21
31.7552824267
  0
LINE
  5
429
100
AcDbEntity
  8
0
100
AcDbLine
 62
7
  6
CONTINUOUS
 10
79.5618416167
 20
31.808038504
 11
79.2780307516
 21
31.8314675491
  0
LINE
  5
42A
100
AcDbEntity
  8
0
100
AcDbLine
 62
7
  6
CONTINUOUS
 10
79.3918642828
 20
31.3750669726
 11
77.5468944254
 21
31.552996452
  0
LINE
  5
42B
100
AcDbEntity
  8
0
100
AcDbLine
 62
7
  6
CONTINUOUS
 10
80.4956617568
 20
31.2725581725
 11
79.6756751929
 21
31.3516379401
  0
LINE
  5
42C
100
AcDbEntity
  8
0
100
AcDbLine
 62
7
  6
CONTINUOUS
 10
77.1058518843
 20
31.5324620911
 11
80.3069837816
 21
31.2198020952
  0
LINE
  5
42D
100
AcDbEntity
  8
0
100
AcDbLine
 62
7
  6
CONTINUOUS
 10
78.7581735862
 20
31.8145922604
 11
79.010538242
 21
31.7823705693
  0
LINE
  5
42E
100
AcDbEntity
  8
0
100
AcDbLine
 62
7
  6
CONTINUOUS
 10
88.811292813
 20
31.1926497788
 11
88.4922113575
 21
31.2362490888
  0
LINE
  5
42F
100
AcDbEntity
  8
0
100
AcDbLine
 62
7
  6
CONTINUOUS
 10
89.9681290101
 20
31.7413379003
 11
90.2872104656
 21
31.6977385904
  0
LINE
  5
430
100
AcDbEntity
  8
0
100
AcDbLine
 62
7
  6
CONTINUOUS
 10
79.2780307516
 20
31.8314675491
 11
79.1044801885
 21
31.8600301633
  0
LINE
  5
431
100
AcDbEntity
  8
0
100
AcDbLine
 62
7
  6
CONTINUOUS
 10
88.147207772
 20
30.9823638495
 11
88.4906551665
 21
30.8961694368
  0
LINE
  5
432
100
AcDbEntity
  8
0
100
AcDbLine
 62
7
  6
CONTINUOUS
 10
89.8455245656
 20
31.7842677388
 11
89.9681290101
 21
31.7413379003
  0
LINE
  5
433
100
AcDbEntity
  8
0
100
AcDbLine
 62
7
  6
CONTINUOUS
 10
90.2148929748
 20
31.9955598251
 11
89.9696852012
 21
32.0814175523
  0
LINE
  5
434
100
AcDbEntity
  8
0
100
AcDbLine
 62
7
  6
CONTINUOUS
 10
90.7816133945
 20
44.4759733781
 11
90.7219227101
 21
44.7924410369
  0
LINE
  5
435
100
AcDbEntity
  8
0
100
AcDbLine
 62
7
  6
CONTINUOUS
 10
91.8844186287
 20
48.4483534063
 11
91.9754895992
 21
47.7900966699
  0
LINE
  5
436
100
AcDbEntity
  8
0
100
AcDbLine
 62
7
  6
CONTINUOUS
 10
92.3579480916
 20
47.2268170885
 11
92.2668769871
 21
47.8850740222
  0
LINE
  5
437
100
AcDbEntity
  8
0
100
AcDbLine
 62
7
  6
CONTINUOUS
 10
92.9587370296
 20
27.3238057266
 11
92.8490304344
 21
26.9978271692
  0
LINE
  5
438
100
AcDbEntity
  8
0
100
AcDbLine
 62
7
  6
CONTINUOUS
 10
101.6129991126
 20
50.4860556947
 11
100.4706277009
 21
47.193236383
  0
LINE
  5
439
100
AcDbEntity
  8
0
100
AcDbLine
 62
7
  6
CONTINUOUS
 10
100.7729014978
 20
47.193236383
 11
101.6479038169
 21
49.6230596435
  0
LINE
  5
43A
100
AcDbEntity
  8
KONSTRUKTIONSELEMENTE
100
AcDbLine
 62
7
  6
CONTINUOUS
 10
101.7109613121
 20
44.9182868367
 11
101.5889214667
 21
44.7396768701
  0
LINE
  5
43B
100
AcDbEntity
  8
0
100
AcDbLine
 62
7
  6
CONTINUOUS
 10
104.5853864768
 20
48.8887364218
 11
104.3756870682
 21
48.6161129137
  0
LINE
  5
43C
100
AcDbEntity
  8
0
100
AcDbLine
 62
7
  6
CONTINUOUS
 10
105.5793142593
 20
47.3529581597
 11
105.7890134232
 21
47.6255818055
  0
LINE
  5
43D
100
AcDbEntity
  8
0
100
AcDbLine
 62
7
  6
CONTINUOUS
 10
89.8641645174
 20
29.9914890558
 11
89.6510827883
 21
29.7215010687
  0
LINE
  5
43E
100
AcDbEntity
  8
0
100
AcDbLine
 62
7
  6
CONTINUOUS
 10
91.1264387454
 20
31.2576951428
 11
90.9133584765
 21
30.9877054447
  0
LINE
  5
43F
100
AcDbEntity
  8
KONSTRUKTIONSELEMENTE
100
AcDbLine
 62
7
  6
CONTINUOUS
 10
102.5811069413
 20
44.1827649726
 11
102.4233649667
 21
44.0200061939
  0
LINE
  5
440
100
AcDbEntity
  8
0
100
AcDbLine
 62
7
  6
CONTINUOUS
 10
89.4250911073
 20
31.1480444304
 11
89.6718561873
 21
31.4022644053
  0
LINE
  5
441
100
AcDbEntity
  8
0
100
AcDbLine
 62
7
  6
CONTINUOUS
 10
91.3733078716
 20
31.4920989604
 11
91.1264387454
 21
31.2576951428
  0
LINE
  5
442
100
AcDbEntity
  8
0
100
AcDbLine
 62
7
  6
CONTINUOUS
 10
89.9875992534
 20
30.1086911287
 11
89.8641645174
 21
29.9914890558
  0
LINE
  5
443
100
AcDbEntity
  8
0
100
AcDbLine
 62
7
  6
CONTINUOUS
 10
91.2953788237
 20
31.0797710375
 11
91.5422479499
 21
31.3141748551
  0
LINE
  5
444
100
AcDbEntity
  8
0
100
AcDbLine
 62
7
  6
CONTINUOUS
 10
90.0331030491
 20
29.8135665795
 11
90.156537785
 21
29.9307686524
  0
LINE
  5
445
100
AcDbEntity
  8
0
100
AcDbLine
 62
7
  6
CONTINUOUS
 10
90.9269307864
 20
31.9506177319
 11
91.2475684847
 21
32.2470981035
  0
LINE
  5
446
100
AcDbEntity
  8
KONSTRUKTIONSELEMENTE
100
AcDbLine
 62
7
  6
CONTINUOUS
 10
102.5371215085
 20
43.7949047513
 11
102.673278237
 21
43.9090486042
  0
LINE
  5
447
100
AcDbEntity
  8
0
100
AcDbLine
 62
7
  6
CONTINUOUS
 10
107.8582071137
 20
44.2610107011
 11
107.5110498307
 21
44.0149227296
  0
LINE
  5
448
100
AcDbEntity
  8
0
100
AcDbLine
 62
7
  6
CONTINUOUS
 10
88.4968790222
 20
32.2564901128
 11
88.6446263859
 21
32.3410069473
  0
LINE
  5
449
100
AcDbEntity
  8
RUNDUNGEN
100
AcDbLine
 62
7
  6
CONTINUOUS
 10
115.9696199573
 20
43.7789192744
 11
115.9686913538
 21
43.7786243587
  0
LWPOLYLINE
  5
44A
100
AcDbEntity
  8
RUNDUNGEN
100
AcDbPolyline
 62
7
  6
CONTINUOUS
 90
25
 70
0
 10
118.0302386543
 20
43.9171470851
 10
118.0322159743
 20
43.9177599593
 10
118.0325365782
 20
43.9178549532
 10
118.0305764538
 20
43.9173443558
 10
118.0266268947
 20
43.9163918886
 10
118.0206117528
 20
43.915047033
 10
118.0124884322
 20
43.9133614026
 10
118.0026542382
 20
43.9114635669
 10
117.9911621786
 20
43.9093955145
 10
117.9779629883
 20
43.907177129
 10
117.9633558396
 20
43.9048808708
 10
117.9474335718
 20
43.9025358069
 10
117.9301679511
 20
43.9001504273
 10
117.9116884005
 20
43.8977520324
 10
117.8920306999
 20
43.8953516118
 10
117.8712176072
 20
43.8929582164
 10
117.8493502088
 20
43.8905891532
 10
117.8264822281
 20
43.888255194
 10
117.8026199218
 20
43.8859621988
 10
117.7777873404
 20
43.8837179712
 10
117.7520078836
 20
43.8815273861
 10
117.7253106709
 20
43.8793940736
 10
117.6977213255
 20
43.8773219509
 10
117.6692711193
 20
43.8753160416
 10
117.6399792485
 20
43.8733812643
  0
LWPOLYLINE
  5
44B
100
AcDbEntity
  8
RUNDUNGEN
100
AcDbPolyline
 62
7
  6
CONTINUOUS
 90
4
 70
0
 10
115.9671852491
 20
43.7781502312
 10
115.9638674709
 20
43.7771317857
 10
115.9594131633
 20
43.7758059116
 10
115.9537714692
 20
43.7741780525
  0
LINE
  5
44C
100
AcDbEntity
  8
RUNDUNGEN
100
AcDbLine
 62
7
  6
CONTINUOUS
 10
116.0151717306
 20
43.7926537199
 11
115.9696327721
 21
43.7789224764
  0
LINE
  5
44D
100
AcDbEntity
  8
0
100
AcDbLine
 62
7
  6
CONTINUOUS
 10
90.4709832519
 20
30.0940025021
 11
90.6619941556
 21
30.1400344431
  0
LINE
  5
44E
100
AcDbEntity
  8
0
100
AcDbLine
 62
7
  6
CONTINUOUS
 10
89.0816448281
 20
31.2342368933
 11
88.811292813
 21
31.1926497788
  0
LINE
  5
44F
100
AcDbEntity
  8
0
100
AcDbLine
 62
7
  6
CONTINUOUS
 10
90.5834833919
 20
32.0368121446
 11
90.2148929748
 21
31.9955598251
  0
LINE
  5
450
100
AcDbEntity
  8
0
100
AcDbLine
 62
7
  6
CONTINUOUS
 10
90.8412869411
 20
30.4456082285
 11
90.5209839618
 21
30.4121436722
  0
LINE
  5
451
100
AcDbEntity
  8
0
100
AcDbLine
 62
7
  6
CONTINUOUS
 10
81.6420632832
 20
31.7729764807
 11
81.3900956132
 21
31.753916619
  0
LINE
  5
452
100
AcDbEntity
  8
RUNDUNGEN
100
AcDbLine
 62
7
  6
CONTINUOUS
 10
80.704696444
 20
31.5111567243
 11
80.7641181971
 21
31.5149502459
  0
LINE
  5
453
100
AcDbEntity
  8
RUNDUNGEN
100
AcDbLine
 62
7
  6
CONTINUOUS
 10
80.7641181971
 20
31.5149502459
 11
80.8268008617
 21
31.5184154099
  0
LINE
  5
454
100
AcDbEntity
  8
RUNDUNGEN
100
AcDbLine
 62
7
  6
CONTINUOUS
 10
81.9335541599
 20
31.5310247584
 11
82.0408233027
 21
31.5360620126
  0
LINE
  5
455
100
AcDbEntity
  8
0
100
AcDbLine
 62
7
  6
CONTINUOUS
 10
81.3590463204
 20
31.6938423648
 11
81.8000889791
 21
31.7143767497
  0
LINE
  5
456
100
AcDbEntity
  8
0
100
AcDbLine
 62
7
  6
CONTINUOUS
 10
117.7784113325
 20
31.703176875
 11
120.2245985632
 21
31.8157821477
  0
LINE
  5
457
100
AcDbEntity
  8
0
100
AcDbLine
 62
7
  6
CONTINUOUS
 10
120.0372952665
 20
31.8686017759
 11
117.5911080358
 21
31.7559965032
  0
LINE
  5
458
100
AcDbEntity
  8
0
100
AcDbLine
 62
7
  6
CONTINUOUS
 10
120.4743362326
 20
32.2485908598
 11
120.2245985632
 21
32.2370946923
  0
LINE
  5
459
100
AcDbEntity
  8
0
100
AcDbLine
 62
7
  6
CONTINUOUS
 10
119.4937191709
 20
32.3468142181
 11
119.2880820797
 21
32.3373481313
  0
LWPOLYLINE
  5
45A
100
AcDbEntity
  8
RUNDUNGEN
100
AcDbPolyline
 62
7
  6
CONTINUOUS
 90
3
 70
0
 10
80.8268008617
 20
31.5184154099
 10
80.8925594225
 20
31.5215256947
 10
80.9160837809
 20
31.5225050154
  0
LINE
  5
45B
100
AcDbEntity
  8
0
100
AcDbLine
 62
7
  6
CONTINUOUS
 10
118.8510741564
 20
31.2712609989
 11
119.2768375275
 21
31.2806198994
  0
LINE
  5
45C
100
AcDbEntity
  8
0
100
AcDbLine
 62
7
  6
CONTINUOUS
 10
117.3526477828
 20
31.6938180248
 11
117.7784113325
 21
31.703176875
  0
LINE
  5
45D
100
AcDbEntity
  8
0
100
AcDbLine
 62
7
  6
CONTINUOUS
 10
81.3900956132
 20
31.753916619
 11
81.0907600741
 21
31.7473085383
  0
LINE
  5
45E
100
AcDbEntity
  8
0
100
AcDbLine
 62
7
  6
CONTINUOUS
 10
119.0895342308
 20
31.3334395277
 11
118.7426801145
 21
31.3277130548
  0
LINE
  5
45F
100
AcDbEntity
  8
0
100
AcDbLine
 62
7
  6
CONTINUOUS
 10
117.5911080358
 20
31.7559965032
 11
117.2442537409
 21
31.7502700807
  0
LINE
  5
460
100
AcDbEntity
  8
0
100
AcDbLine
 62
7
  6
CONTINUOUS
 10
80.9808964125
 20
31.6908933739
 11
81.3590463204
 21
31.6938423648
  0
LINE
  5
461
100
AcDbEntity
  8
RUNDUNGEN
100
AcDbLine
 62
7
  6
CONTINUOUS
 10
81.9119222598
 20
31.5308772841
 11
81.9335541599
 21
31.5310247584
  0
LINE
  5
462
100
AcDbEntity
  8
RUNDUNGEN
100
AcDbLine
 62
7
  6
CONTINUOUS
 10
71.1810917024
 20
31.193236383
 11
82.1869837816
 21
31.193236383
  0
LINE
  5
463
100
AcDbEntity
  8
RUNDUNGEN
100
AcDbLine
 62
7
  6
CONTINUOUS
 10
116.1869837816
 20
31.193236383
 11
127.1928758609
 21
31.193236383
  0
LINE
  5
464
100
AcDbEntity
  8
RUNDUNGEN
100
AcDbLine
 62
7
  6
CONTINUOUS
 10
81.4195018426
 20
31.5308722597
 11
81.9119222781
 21
31.5308722597
  0
LINE
  5
465
100
AcDbEntity
  8
RUNDUNGEN
100
AcDbLine
 62
7
  6
CONTINUOUS
 10
116.4620451981
 20
31.5308722597
 11
116.920776459
 21
31.5308722597
  0
LINE
  5
466
100
AcDbEntity
  8
0
100
AcDbLine
 62
7
  6
CONTINUOUS
 10
119.2880820797
 20
31.943236383
 11
113.9560513637
 21
31.943236383
  0
LINE
  5
467
100
AcDbEntity
  8
0
100
AcDbLine
 62
7
  6
CONTINUOUS
 10
83.4830631503
 20
31.943236383
 11
78.6443694177
 21
31.943236383
  0
LINE
  5
468
100
AcDbEntity
  8
RUNDUNGEN
100
AcDbLine
 62
7
  6
CONTINUOUS
 10
124.65488051
 20
32.443236383
 11
73.6954296832
 21
32.443236383
  0
LINE
  5
469
100
AcDbEntity
  8
0
100
AcDbLine
 62
7
  6
CONTINUOUS
 10
88.4906551665
 20
30.8961694368
 11
88.7853717983
 21
30.8951632799
  0
LINE
  5
46A
100
AcDbEntity
  8
0
100
AcDbLine
 62
7
  6
CONTINUOUS
 10
81.5648369195
 20
31.5715092685
 11
77.3574225029
 21
31.6028035232
  0
LINE
  5
46B
100
AcDbEntity
  8
0
100
AcDbLine
 62
7
  6
CONTINUOUS
 10
78.5368582783
 20
32.0972658847
 11
77.3574225029
 21
32.1060383896
  0
LINE
  5
46C
100
AcDbEntity
  8
0
100
AcDbLine
 62
7
  6
CONTINUOUS
 10
80.3046017843
 20
31.527491533
 11
81.3761589443
 21
31.5187531913
  0
LINE
  5
46D
100
AcDbEntity
  8
0
100
AcDbLine
 62
7
  6
CONTINUOUS
 10
77.5468944254
 20
31.552996452
 11
79.9578982308
 21
31.5333352107
  0
LINE
  5
46E
100
AcDbEntity
  8
0
100
AcDbLine
 62
7
  6
CONTINUOUS
 10
118.4730025306
 20
31.2743378621
 11
118.8510741564
 21
31.2712609989
  0
LINE
  5
46F
100
AcDbEntity
  8
0
100
AcDbLine
 62
7
  6
CONTINUOUS
 10
116.9745763356
 20
31.6968948376
 11
117.3526477828
 21
31.6938180248
  0
LINE
  5
470
100
AcDbEntity
  8
RUNDUNGEN
100
AcDbLine
 62
7
  6
CONTINUOUS
 10
116.4332832943
 20
31.5311374056
 11
116.4620451983
 21
31.5308773489
  0
LINE
  5
471
100
AcDbEntity
  8
0
100
AcDbLine
 62
7
  6
CONTINUOUS
 10
81.0907600741
 20
31.7473085383
 11
80.7440564307
 21
31.7531521908
  0
LINE
  5
472
100
AcDbEntity
  8
0
100
AcDbLine
 62
7
  6
CONTINUOUS
 10
80.5553784555
 20
31.7003961136
 11
80.9808964125
 21
31.6908933739
  0
LINE
  5
473
100
AcDbEntity
  8
0
100
AcDbLine
 62
7
  6
CONTINUOUS
 10
118.7426801145
 20
31.3277130548
 11
118.4435177988
 21
31.3344223482
  0
LINE
  5
474
100
AcDbEntity
  8
0
100
AcDbLine
 62
7
  6
CONTINUOUS
 10
117.2442537409
 20
31.7502700807
 11
116.9450916037
 21
31.7569793237
  0
LINE
  5
475
100
AcDbEntity
  8
0
100
AcDbLine
 62
7
  6
CONTINUOUS
 10
79.3731636415
 20
31.7552824267
 11
80.5553784555
 21
31.7003961136
  0
LINE
  5
476
100
AcDbEntity
  8
0
100
AcDbLine
 62
7
  6
CONTINUOUS
 10
80.7440564307
 20
31.7531521908
 11
79.5618416167
 21
31.808038504
  0
LINE
  5
477
100
AcDbEntity
  8
0
100
AcDbLine
 62
7
  6
CONTINUOUS
 10
118.0324967383
 20
31.2950212021
 11
118.4730025306
 21
31.2743378621
  0
LINE
  5
478
100
AcDbEntity
  8
0
100
AcDbLine
 62
7
  6
CONTINUOUS
 10
116.5340703647
 20
31.717578228
 11
116.9745763356
 21
31.6968948376
  0
LINE
  5
479
100
AcDbEntity
  8
RUNDUNGEN
100
AcDbLine
 62
7
  6
CONTINUOUS
 10
116.3259955447
 20
31.5366526719
 11
116.4332832943
 21
31.5311374056
  0
LINE
  5
47A
100
AcDbEntity
  8
0
100
AcDbLine
 62
7
  6
CONTINUOUS
 10
118.4435177988
 20
31.3344223482
 11
118.1920475855
 21
31.3535673044
  0
LINE
  5
47B
100
AcDbEntity
  8
0
100
AcDbLine
 62
7
  6
CONTINUOUS
 10
116.9450916037
 20
31.7569793237
 11
116.6936213905
 21
31.77612428
  0
LINE
  5
47C
100
AcDbEntity
  8
0
100
AcDbLine
 62
7
  6
CONTINUOUS
 10
88.9149793094
 20
32.3825919935
 11
89.2340596495
 21
32.3389946334
  0
LINE
  5
47D
100
AcDbEntity
  8
KONSTRUKTIONSELEMENTE
100
AcDbLine
 62
7
  6
CONTINUOUS
 10
97.6185441228
 20
45.593799862
 11
97.8166338913
 21
43.10166013
  0
LINE
  5
47E
100
AcDbEntity
  8
KONSTRUKTIONSELEMENTE
100
AcDbLine
 62
7
  6
CONTINUOUS
 10
98.0502719912
 20
43.1202310458
 11
97.8943289769
 21
45.0821283449
  0
LINE
  5
47F
100
AcDbEntity
  8
0
100
AcDbLine
 62
7
  6
CONTINUOUS
 10
98.5702671497
 20
27.2589920575
 11
98.5591330653
 21
26.8336057613
  0
LINE
  5
480
100
AcDbEntity
  8
0
100
AcDbLine
 62
7
  6
CONTINUOUS
 10
99.2458828793
 20
26.8156307338
 11
99.2570169636
 21
27.2410170301
  0
LINE
  5
481
100
AcDbEntity
  8
0
100
AcDbLine
 62
7
  6
CONTINUOUS
 10
99.7156181841
 20
50.735762713
 11
99.2493998966
 21
47.193236383
  0
LINE
  5
482
100
AcDbEntity
  8
0
100
AcDbLine
 62
7
  6
CONTINUOUS
 10
99.5463604982
 20
47.193236383
 11
99.8964752675
 21
49.8535584296
  0
LINE
  5
483
100
AcDbEntity
  8
KONSTRUKTIONSELEMENTE
100
AcDbLine
 62
7
  6
CONTINUOUS
 10
99.1371917719
 20
45.7145108147
 11
98.7301129107
 21
43.4410650469
  0
LINE
  5
484
100
AcDbEntity
  8
KONSTRUKTIONSELEMENTE
100
AcDbLine
 62
7
  6
CONTINUOUS
 10
100.4016517862
 20
45.2272064214
 11
100.3210492519
 21
44.8093778373
  0
LINE
  5
485
100
AcDbEntity
  8
KONSTRUKTIONSELEMENTE
100
AcDbLine
 62
7
  6
CONTINUOUS
 10
100.6217085696
 20
45.1305835124
 11
100.2287712963
 21
43.0936695854
  0
LINE
  5
486
100
AcDbEntity
  8
KONSTRUKTIONSELEMENTE
100
AcDbLine
 62
7
  6
CONTINUOUS
 10
100.458903393
 20
43.0492752311
 11
100.9324431723
 21
45.5040175959
  0
LINE
  5
487
100
AcDbEntity
  8
KONSTRUKTIONSELEMENTE
100
AcDbLine
 62
7
  6
CONTINUOUS
 10
98.9069453211
 20
43.1883244274
 11
99.2961575761
 21
45.1935538397
  0
LINE
  5
488
100
AcDbEntity
  8
0
100
AcDbLine
 62
7
  6
CONTINUOUS
 10
103.0229532924
 20
49.4931335821
 11
102.7971567963
 21
48.8508140918
  0
LINE
  5
489
100
AcDbEntity
  8
0
100
AcDbLine
 62
7
  6
CONTINUOUS
 10
103.2724882161
 20
49.3152020527
 11
102.5265472626
 21
47.193236383
  0
LINE
  5
48A
100
AcDbEntity
  8
0
100
AcDbLine
 62
7
  6
CONTINUOUS
 10
102.8386309902
 20
47.193236383
 11
103.7760441089
 21
49.8598796968
  0
LINE
  5
48B
100
AcDbEntity
  8
KONSTRUKTIONSELEMENTE
100
AcDbLine
 62
7
  6
CONTINUOUS
 10
100.8841027483
 20
43.2484535093
 11
100.776180588
 21
43.0053770321
  0
LINE
  5
48C
100
AcDbEntity
  8
KONSTRUKTIONSELEMENTE
100
AcDbLine
 62
7
  6
CONTINUOUS
 10
102.6242758599
 20
44.2799956861
 11
102.5811069413
 21
44.1827649726
  0
LINE
  5
48D
100
AcDbEntity
  8
KONSTRUKTIONSELEMENTE
100
AcDbLine
 62
7
  6
CONTINUOUS
 10
102.7953180824
 20
44.0876585708
 11
102.838487001
 21
44.1848892843
  0
LINE
  5
48E
100
AcDbEntity
  8
0
100
AcDbLine
 62
7
  6
CONTINUOUS
 10
93.0354902489
 20
27.4757313771
 11
92.9587370296
 21
27.3238057266
  0
LINE
  5
48F
100
AcDbEntity
  8
0
100
AcDbLine
 62
7
  6
CONTINUOUS
 10
93.2215267805
 20
27.1910436859
 11
93.2982799998
 21
27.3429693364
  0
LINE
  5
490
100
AcDbEntity
  8
0
100
AcDbLine
 62
7
  6
CONTINUOUS
 10
105.6158872766
 20
47.9183001171
 11
105.5324202597
 21
47.7699568764
  0
LINE
  5
491
100
AcDbEntity
  8
0
100
AcDbLine
 62
7
  6
CONTINUOUS
 10
105.7890134232
 20
47.6255818055
 11
105.87248044
 21
47.7739250462
  0
LINE
  5
492
100
AcDbEntity
  8
KONSTRUKTIONSELEMENTE
100
AcDbLine
 62
7
  6
CONTINUOUS
 10
102.673278237
 20
43.9090486042
 11
102.7953180824
 21
44.0876585708
  0
LINE
  5
493
100
AcDbEntity
  8
0
100
AcDbLine
 62
7
  6
CONTINUOUS
 10
93.232796101
 20
27.7574545704
 11
93.0354902489
 21
27.4757313771
  0
LINE
  5
494
100
AcDbEntity
  8
0
100
AcDbLine
 62
7
  6
CONTINUOUS
 10
91.1233073286
 20
29.9013897703
 11
91.3701764548
 21
30.1357935879
  0
LINE
  5
495
100
AcDbEntity
  8
0
100
AcDbLine
 62
7
  6
CONTINUOUS
 10
107.9083375006
 20
43.4544674287
 11
108.2554947837
 21
43.7005554002
  0
LINE
  5
496
100
AcDbEntity
  8
0
100
AcDbLine
 62
7
  6
CONTINUOUS
 10
90.2682557765
 20
30.3075107768
 11
89.9875992534
 21
30.1086911287
  0
LINE
  5
497
100
AcDbEntity
  8
0
100
AcDbLine
 62
7
  6
CONTINUOUS
 10
91.5922487031
 20
31.6323160662
 11
91.3733078716
 21
31.4920989604
  0
LINE
  5
498
100
AcDbEntity
  8
0
100
AcDbLine
 62
7
  6
CONTINUOUS
 10
89.2293921918
 20
31.3187537278
 11
89.0816448281
 21
31.2342368933
  0
LINE
  5
499
100
AcDbEntity
  8
0
100
AcDbLine
 62
7
  6
CONTINUOUS
 10
90.8051044375
 20
32.1635873964
 11
90.5834833919
 21
32.0368121446
  0
LINE
  5
49A
100
AcDbEntity
  8
0
100
AcDbLine
 62
7
  6
CONTINUOUS
 10
89.2034700617
 20
31.0212691786
 11
89.4250911073
 21
31.1480444304
  0
LINE
  5
49B
100
AcDbEntity
  8
0
100
AcDbLine
 62
7
  6
CONTINUOUS
 10
90.7053097409
 20
31.8238424801
 11
90.9269307864
 21
31.9506177319
  0
LINE
  5
49C
100
AcDbEntity
  8
0
100
AcDbLine
 62
7
  6
CONTINUOUS
 10
91.5422479499
 20
31.3141748551
 11
91.69946991
 21
31.3957925944
  0
LINE
  5
49D
100
AcDbEntity
  8
RUNDUNGEN
100
AcDbLine
 62
7
  6
CONTINUOUS
 10
82.404347606
 20
31.6075534916
 11
82.4052762095
 21
31.6078484072
  0
LWPOLYLINE
  5
49E
100
AcDbEntity
  8
RUNDUNGEN
100
AcDbPolyline
 62
7
  6
CONTINUOUS
 90
4
 70
0
 10
82.4067823141
 20
31.6083225347
 10
82.4101000924
 20
31.6093409802
 10
82.4145543999
 20
31.6106668543
 10
82.4201960941
 20
31.6122947134
  0
LINE
  5
49F
100
AcDbEntity
  8
RUNDUNGEN
100
AcDbLine
 62
7
  6
CONTINUOUS
 10
82.3587958327
 20
31.593819046
 11
82.4043347912
 21
31.6075502895
  0
LINE
  5
4A0
100
AcDbEntity
  8
0
100
AcDbLine
 62
7
  6
CONTINUOUS
 10
91.69946991
 20
31.3957925944
 11
91.8343875743
 21
31.4283065817
  0
LINE
  5
4A1
100
AcDbEntity
  8
0
100
AcDbLine
 62
7
  6
CONTINUOUS
 10
82.0835028237
 20
31.7422292589
 11
82.3195489101
 21
31.7825336027
  0
LINE
  5
4A2
100
AcDbEntity
  8
0
100
AcDbLine
 62
7
  6
CONTINUOUS
 10
81.8466629735
 20
31.8044881284
 11
81.6420632832
 21
31.7729764807
  0
LINE
  5
4A3
100
AcDbEntity
  8
0
100
AcDbLine
 62
7
  6
CONTINUOUS
 10
88.6446263859
 20
32.3410069473
 11
88.9149793094
 21
32.3825919935
  0
LWPOLYLINE
  5
4A4
100
AcDbEntity
  8
RUNDUNGEN
100
AcDbPolyline
 62
7
  6
CONTINUOUS
 90
10
 70
0
 10
80.4956617568
 20
31.4926994442
 10
80.502749956
 20
31.4935145495
 10
80.5246173545
 20
31.4958836127
 10
80.5474853352
 20
31.4982175719
 10
80.5713476415
 20
31.5005105671
 10
80.5961802229
 20
31.5027547947
 10
80.6219596797
 20
31.5049453798
 10
80.6486568924
 20
31.5070786924
 10
80.6762462378
 20
31.509150815
 10
80.704696444
 20
31.5111567243
  0
LWPOLYLINE
  5
4A5
100
AcDbEntity
  8
RUNDUNGEN
100
AcDbPolyline
 62
7
  6
CONTINUOUS
 90
4
 70
0
 10
82.0408233027
 20
31.5360620126
 10
82.1477533142
 20
31.5482438769
 10
82.2538899387
 20
31.5675237766
 10
82.3587958327
 20
31.593819046
  0
LINE
  5
4A6
100
AcDbEntity
  8
0
100
AcDbLine
 62
7
  6
CONTINUOUS
 10
81.8000889791
 20
31.7143767497
 11
82.0835028237
 21
31.7422292589
  0
LINE
  5
4A7
100
AcDbEntity
  8
RUNDUNGEN
100
AcDbLine
 62
7
  6
CONTINUOUS
 10
85.4255765715
 20
32.4379626444
 11
85.4457220203
 21
32.4396827876
  0
LINE
  5
4A8
100
AcDbEntity
  8
RUNDUNGEN
100
AcDbLine
 62
7
  6
CONTINUOUS
 10
70.6870458314
 20
33.443236383
 11
127.6869217319
 21
33.443236383
  0
LINE
  5
4A9
100
AcDbEntity
  8
RUNDUNGEN
100
AcDbLine
 62
7
  6
CONTINUOUS
 10
112.9282470066
 20
32.4396826748
 11
112.9495408999
 21
32.4378543037
  0
LINE
  5
4AA
100
AcDbEntity
  8
0
100
AcDbLine
 62
7
  6
CONTINUOUS
 10
117.7498094626
 20
31.3229693977
 11
118.0324967383
 21
31.2950212021
  0
LINE
  5
4AB
100
AcDbEntity
  8
0
100
AcDbLine
 62
7
  6
CONTINUOUS
 10
116.2513829103
 20
31.745526474
 11
116.5340703647
 21
31.717578228
  0
LWPOLYLINE
  5
4AC
100
AcDbEntity
  8
RUNDUNGEN
100
AcDbPolyline
 62
7
  6
CONTINUOUS
 90
7
 70
0
 10
112.9495408999
 20
32.4378543037
 10
112.9828532424
 20
32.4342414644
 10
113.0155373102
 20
32.4298103601
 10
113.0475946109
 20
32.4246187744
 10
113.0790381051
 20
32.4187212344
 10
113.1098913134
 20
32.4121674045
 10
113.1401589447
 20
32.4050080026
  0
LINE
  5
4AD
100
AcDbEntity
  8
0
100
AcDbLine
 62
7
  6
CONTINUOUS
 10
118.1920475855
 20
31.3535673044
 11
117.9882695853
 21
31.3851479287
  0
LINE
  5
4AE
100
AcDbEntity
  8
0
100
AcDbLine
 62
7
  6
CONTINUOUS
 10
116.6936213905
 20
31.77612428
 11
116.4898432117
 21
31.8077049546
  0
LINE
  5
4AF
100
AcDbEntity
  8
0
100
AcDbLine
 62
7
  6
CONTINUOUS
 10
117.5148140012
 20
31.3633533602
 11
117.7498094626
 21
31.3229693977
  0
LINE
  5
4B0
100
AcDbEntity
  8
0
100
AcDbLine
 62
7
  6
CONTINUOUS
 10
116.0163876275
 20
31.7859103861
 11
116.2513829103
 21
31.745526474
  0
LINE
  5
4B1
100
AcDbEntity
  8
0
100
AcDbLine
 62
7
  6
CONTINUOUS
 10
92.0104120092
 20
44.9575469951
 11
92.1681593077
 21
44.7508789428
  0
LINE
  5
4B2
100
AcDbEntity
  8
0
100
AcDbLine
 62
7
  6
CONTINUOUS
 10
92.3732461399
 20
44.891496598
 11
92.2373166466
 21
45.0838562001
  0
LINE
  5
4B3
100
AcDbEntity
  8
0
100
AcDbLine
 62
7
  6
CONTINUOUS
 10
92.1681593077
 20
44.7508789428
 11
92.2265200446
 21
44.6373595462
  0
LINE
  5
4B4
100
AcDbEntity
  8
0
100
AcDbLine
 62
7
  6
CONTINUOUS
 10
96.4761919954
 20
48.2278166253
 11
96.56917049
 21
47.8125667386
  0
LINE
  5
4B5
100
AcDbEntity
  8
0
100
AcDbLine
 62
7
  6
CONTINUOUS
 10
99.8964752675
 20
49.8535584296
 11
100.1203197909
 21
47.193236383
  0
LINE
  5
4B6
100
AcDbEntity
  8
KONSTRUKTIONSELEMENTE
100
AcDbLine
 62
7
  6
CONTINUOUS
 10
99.2961575761
 20
45.1935538397
 11
99.4521005904
 21
43.2316565407
  0
LINE
  5
4B7
100
AcDbEntity
  8
KONSTRUKTIONSELEMENTE
100
AcDbLine
 62
7
  6
CONTINUOUS
 10
99.6857386903
 20
43.2502274565
 11
99.4876489217
 21
45.7423671884
  0
LINE
  5
4B8
100
AcDbEntity
  8
0
100
AcDbLine
 62
7
  6
CONTINUOUS
 10
100.4056186721
 20
47.193236383
 11
100.1534753215
 21
50.6781380165
  0
LINE
  5
4B9
100
AcDbEntity
  8
0
100
AcDbLine
 62
7
  6
CONTINUOUS
 10
101.6479038169
 20
49.6230596435
 11
101.3281241078
 21
47.193236383
  0
LINE
  5
4BA
100
AcDbEntity
  8
0
100
AcDbLine
 62
7
  6
CONTINUOUS
 10
101.6250847094
 20
47.193236383
 11
102.05085625
 21
50.4284309982
  0
LINE
  5
4BB
100
AcDbEntity
  8
KONSTRUKTIONSELEMENTE
100
AcDbLine
 62
7
  6
CONTINUOUS
 10
102.838487001
 20
44.1848892843
 11
102.8891225879
 21
44.3952016267
  0
LINE
  5
4BC
100
AcDbEntity
  8
0
100
AcDbLine
 62
7
  6
CONTINUOUS
 10
105.87248044
 20
47.7739250462
 11
105.9966488757
 21
48.094673532
  0
LINE
  5
4BD
100
AcDbEntity
  8
0
100
AcDbLine
 62
7
  6
CONTINUOUS
 10
94.2943740643
 20
26.2676359455
 11
94.4916779114
 21
26.5493601517
  0
LINE
  5
4BE
100
AcDbEntity
  8
0
100
AcDbLine
 62
7
  6
CONTINUOUS
 10
93.2982799998
 20
27.3429693364
 11
93.5393834754
 21
27.6025658605
  0
LINE
  5
4BF
100
AcDbEntity
  8
0
100
AcDbLine
 62
7
  6
CONTINUOUS
 10
93.4355210158
 20
27.9410893886
 11
93.232796101
 21
27.7574545704
  0
LINE
  5
4C0
100
AcDbEntity
  8
0
100
AcDbLine
 62
7
  6
CONTINUOUS
 10
90.7322965055
 20
28.5827897273
 11
91.0129530286
 21
28.7816093754
  0
LINE
  5
4C1
100
AcDbEntity
  8
0
100
AcDbLine
 62
7
  6
CONTINUOUS
 10
90.156537785
 20
29.9307686524
 11
90.4709832519
 21
30.0940025021
  0
LINE
  5
4C2
100
AcDbEntity
  8
0
100
AcDbLine
 62
7
  6
CONTINUOUS
 10
91.6926121615
 20
31.6738687999
 11
91.5922487031
 21
31.6323160662
  0
LINE
  5
4C3
100
AcDbEntity
  8
0
100
AcDbLine
 62
7
  6
CONTINUOUS
 10
90.5209839618
 20
30.4121436722
 11
90.2682557765
 21
30.3075107768
  0
LINE
  5
4C4
100
AcDbEntity
  8
0
100
AcDbLine
 62
7
  6
CONTINUOUS
 10
90.8440129503
 20
28.9595334807
 11
90.5912863117
 21
28.8548989564
  0
LINE
  5
4C5
100
AcDbEntity
  8
0
100
AcDbLine
 62
7
  6
CONTINUOUS
 10
90.2872104656
 20
31.6977385904
 11
90.7053097409
 21
31.8238424801
  0
LINE
  5
4C6
100
AcDbEntity
  8
0
100
AcDbLine
 62
7
  6
CONTINUOUS
 10
88.7853717983
 20
30.8951632799
 11
89.2034700617
 21
31.0212691786
  0
LINE
  5
4C7
100
AcDbEntity
  8
RUNDUNGEN
100
AcDbLine
 62
7
  6
CONTINUOUS
 10
85.1903398955
 20
32.3934783447
 11
82.4201960941
 21
31.6122947134
  0
LINE
  5
4C8
100
AcDbEntity
  8
0
100
AcDbLine
 62
7
  6
CONTINUOUS
 10
80.3069837816
 20
31.2198020952
 11
80.4956617568
 21
31.2725581725
  0
LINE
  5
4C9
100
AcDbEntity
  8
0
100
AcDbLine
 62
7
  6
CONTINUOUS
 10
81.3761589443
 20
31.5187531913
 11
81.5648369195
 21
31.5715092685
  0
LINE
  5
4CA
100
AcDbEntity
  8
0
100
AcDbLine
 62
7
  6
CONTINUOUS
 10
82.3195489101
 20
31.7825336027
 11
82.6025658729
 21
31.8616677185
  0
LINE
  5
4CB
100
AcDbEntity
  8
0
100
AcDbLine
 62
7
  6
CONTINUOUS
 10
82.1296799363
 20
31.8836222443
 11
81.8466629735
 21
31.8044881284
  0
LINE
  5
4CC
100
AcDbEntity
  8
0
100
AcDbLine
 62
7
  6
CONTINUOUS
 10
79.6756751929
 20
31.3516379401
 11
80.3046017843
 21
31.527491533
  0
LINE
  5
4CD
100
AcDbEntity
  8
0
100
AcDbLine
 62
7
  6
CONTINUOUS
 10
79.9578982308
 20
31.5333352107
 11
79.3918642828
 21
31.3750669726
  0
LINE
  5
4CE
100
AcDbEntity
  8
0
100
AcDbLine
 62
7
  6
CONTINUOUS
 10
77.3574225029
 20
31.6028035232
 11
77.1058518843
 21
31.5324620911
  0
LWPOLYLINE
  5
4CF
100
AcDbEntity
  8
RUNDUNGEN
100
AcDbPolyline
 62
7
  6
CONTINUOUS
 90
3
 70
0
 10
85.1903449782
 20
32.3934797509
 10
85.2053888711
 20
32.3976351324
 10
85.2350401946
 20
32.4053133178
  0
LWPOLYLINE
  5
4D0
100
AcDbEntity
  8
RUNDUNGEN
100
AcDbPolyline
 62
7
  6
CONTINUOUS
 90
7
 70
0
 10
85.2350401946
 20
32.4053133178
 10
85.2652914189
 20
32.4124397976
 10
85.2961288516
 20
32.4189607227
 10
85.327557497
 20
32.4248254108
 10
85.3596014819
 20
32.4299842316
 10
85.3922740321
 20
32.4343826045
 10
85.4255765715
 20
32.4379626444
  0
LWPOLYLINE
  5
4D1
100
AcDbEntity
  8
RUNDUNGEN
100
AcDbPolyline
 62
7
  6
CONTINUOUS
 90
4
 70
0
 10
116.0082197721
 20
31.5958228799
 10
116.1130215915
 20
31.5690637076
 10
116.2190925266
 20
31.5493116839
 10
116.3259955447
 20
31.5366526719
  0
LWPOLYLINE
  5
4D2
100
AcDbEntity
  8
RUNDUNGEN
100
AcDbPolyline
 62
7
  6
CONTINUOUS
 90
3
 70
0
 10
113.1401589447
 20
32.4050080026
 10
113.1698273568
 20
32.3972968577
 10
113.1836220655
 20
32.3934798974
  0
LINE
  5
4D3
100
AcDbEntity
  8
RUNDUNGEN
100
AcDbLine
 62
7
  6
CONTINUOUS
 10
113.9560513637
 20
32.175654456
 11
113.1836276678
 21
32.3934783447
  0
LINE
  5
4D4
100
AcDbEntity
  8
0
100
AcDbLine
 62
7
  6
CONTINUOUS
 10
115.8915187035
 20
31.8211234884
 11
116.0163876275
 21
31.7859103861
  0
LINE
  5
4D5
100
AcDbEntity
  8
0
100
AcDbLine
 62
7
  6
CONTINUOUS
 10
116.7656008144
 20
31.5746318731
 11
117.5148140012
 21
31.3633533602
  0
LINE
  5
4D6
100
AcDbEntity
  8
0
100
AcDbLine
 62
7
  6
CONTINUOUS
 10
117.9882695853
 20
31.3851479287
 11
117.4263596952
 21
31.5436068134
  0
LINE
  5
4D7
100
AcDbEntity
  8
0
100
AcDbLine
 62
7
  6
CONTINUOUS
 10
116.4898432117
 20
31.8077049546
 11
116.3649742876
 21
31.8429180569
  0
LINE
  5
4D8
100
AcDbEntity
  8
0
100
AcDbLine
 62
7
  6
CONTINUOUS
 10
120.1881840005
 20
31.6707417993
 11
120.7500938906
 21
31.5122829146
  0
LINE
  5
4D9
100
AcDbEntity
  8
0
100
AcDbLine
 62
7
  6
CONTINUOUS
 10
121.2235494195
 20
31.5340774805
 11
120.4743362326
 21
31.7453559935
  0
LINE
  5
4DA
100
AcDbEntity
  8
0
100
AcDbLine
 62
7
  6
CONTINUOUS
 10
120.2245985632
 20
31.8157821477
 11
120.0372952665
 21
31.8686017759
  0
LWPOLYLINE
  5
4DB
100
AcDbEntity
  8
RUNDUNGEN
100
AcDbPolyline
 62
7
  6
CONTINUOUS
 90
6
 70
0
 10
114.7802273895
 20
31.943236383
 10
115.9545144714
 20
31.612083157
 10
115.9599595476
 20
31.6105063553
 10
115.9642475583
 20
31.6092258224
 10
115.967427847
 20
31.6082467471
 10
115.9686893852
 20
31.607849033
  0
LINE
  5
4DC
100
AcDbEntity
  8
RUNDUNGEN
100
AcDbLine
 62
7
  6
CONTINUOUS
 10
115.9696332431
 20
31.6075500684
 11
116.0082197721
 21
31.5958228799
  0
LINE
  5
4DD
100
AcDbEntity
  8
0
100
AcDbLine
 62
7
  6
CONTINUOUS
 10
108.9844190106
 20
31.8683583565
 11
109.2856318428
 21
31.7097382289
  0
LINE
  5
4DE
100
AcDbEntity
  8
0
100
AcDbLine
 62
7
  6
CONTINUOUS
 10
109.0511963148
 20
32.443236383
 11
109.2359249604
 21
32.3459573888
  0
LINE
  5
4DF
100
AcDbEntity
  8
0
100
AcDbLine
 62
7
  6
CONTINUOUS
 10
109.5371377926
 20
32.1873372613
 11
110.1395636679
 21
31.8700968951
  0
LINE
  5
4E0
100
AcDbEntity
  8
0
100
AcDbLine
 62
7
  6
CONTINUOUS
 10
110.2538842212
 20
32.087186732
 11
109.6514583458
 21
32.4044270982
  0
LINE
  5
4E1
100
AcDbEntity
  8
0
100
AcDbLine
 62
7
  6
CONTINUOUS
 10
88.9023868913
 20
45.693687915
 11
90.5528136308
 21
44.2197731794
  0
LINE
  5
4E2
100
AcDbEntity
  8
0
100
AcDbLine
 62
7
  6
CONTINUOUS
 10
90.3988535925
 20
44.6862198683
 11
89.3832062998
 21
45.593244382
  0
LINE
  5
4E3
100
AcDbEntity
  8
0
100
AcDbLine
 62
7
  6
CONTINUOUS
 10
91.8834561198
 20
45.0709250395
 11
92.0104120092
 21
44.9575469951
  0
LINE
  5
4E4
100
AcDbEntity
  8
0
100
AcDbLine
 62
7
  6
CONTINUOUS
 10
90.3310859055
 20
46.6546394609
 11
90.0136961821
 21
46.9380845718
  0
LINE
  5
4E5
100
AcDbEntity
  8
KONSTRUKTIONSELEMENTE
100
AcDbLine
 62
7
  6
CONTINUOUS
 10
94.496088385
 20
43.1155846056
 11
94.6698724338
 21
42.943236383
  0
LINE
  5
4E6
100
AcDbEntity
  8
KONSTRUKTIONSELEMENTE
100
AcDbLine
 62
7
  6
CONTINUOUS
 10
95.0027122758
 20
42.943236383
 11
94.6611276433
 21
43.2819987993
  0
LINE
  5
4E7
100
AcDbEntity
  8
0
100
AcDbLine
 62
7
  6
CONTINUOUS
 10
91.8237261837
 20
46.4861006167
 11
92.0934244064
 21
46.1569498365
  0
LINE
  5
4E8
100
AcDbEntity
  8
0
100
AcDbLine
 62
7
  6
CONTINUOUS
 10
92.283203737
 20
46.3124504497
 11
92.0135055143
 21
46.6416012299
  0
LINE
  5
4E9
100
AcDbEntity
  8
0
100
AcDbLine
 62
7
  6
CONTINUOUS
 10
104.9014736372
 20
28.591023152
 11
106.191473941
 21
26.7306679634
  0
LINE
  5
4EA
100
AcDbEntity
  8
0
100
AcDbLine
 62
7
  6
CONTINUOUS
 10
106.0454533893
 20
27.4579370138
 11
105.1240332863
 21
28.786749623
  0
LINE
  5
4EB
100
AcDbEntity
  8
0
100
AcDbLine
 62
7
  6
CONTINUOUS
 10
106.0918162874
 20
29.4578259708
 11
105.800841493
 21
29.8774510414
  0
LINE
  5
4EC
100
AcDbEntity
  8
0
100
AcDbLine
 62
7
  6
CONTINUOUS
 10
91.9754895992
 20
47.7900966699
 11
92.3579480916
 21
47.2268170885
  0
LINE
  5
4ED
100
AcDbEntity
  8
0
100
AcDbLine
 62
7
  6
CONTINUOUS
 10
92.2668769871
 20
47.8850740222
 11
93.2584451122
 21
46.4247061928
  0
LINE
  5
4EE
100
AcDbEntity
  8
0
100
AcDbLine
 62
7
  6
CONTINUOUS
 10
93.4219881167
 20
46.7079709859
 11
92.1279987218
 21
48.6137406816
  0
LINE
  5
4EF
100
AcDbEntity
  8
0
100
AcDbLine
 62
7
  6
CONTINUOUS
 10
103.7794496672
 20
27.6502145569
 11
103.96070041
 21
27.2652138612
  0
LINE
  5
4F0
100
AcDbEntity
  8
0
100
AcDbLine
 62
7
  6
CONTINUOUS
 10
104.1826833055
 20
27.3697190352
 11
104.0014325627
 21
27.7547197309
  0
LINE
  5
4F1
100
AcDbEntity
  8
KONSTRUKTIONSELEMENTE
100
AcDbLine
 62
7
  6
CONTINUOUS
 10
97.8943289769
 20
45.0821283449
 11
98.5954272605
 21
43.1635631591
  0
LINE
  5
4F2
100
AcDbEntity
  8
0
100
AcDbLine
 62
7
  6
CONTINUOUS
 10
102.3417296613
 20
28.193236383
 11
103.3685447256
 21
25.3805911641
  0
LINE
  5
4F3
100
AcDbEntity
  8
0
100
AcDbLine
 62
7
  6
CONTINUOUS
 10
103.4116265046
 20
26.1211222125
 11
102.6551578142
 21
28.193236383
  0
LINE
  5
4F4
100
AcDbEntity
  8
0
100
AcDbLine
 62
7
  6
CONTINUOUS
 10
103.7173803369
 20
26.1421436619
 11
103.4838939855
 21
26.7817079738
  0
LINE
  5
4F5
100
AcDbEntity
  8
KONSTRUKTIONSELEMENTE
100
AcDbLine
 62
7
  6
CONTINUOUS
 10
98.7301129107
 20
43.4410650469
 11
97.9690012726
 21
45.6216562357
  0
LINE
  5
4F6
100
AcDbEntity
  8
0
100
AcDbLine
 62
7
  6
CONTINUOUS
 10
97.2395537452
 20
47.9626720797
 11
97.1465752506
 21
48.3779219664
  0
LINE
  5
4F7
100
AcDbEntity
  8
KONSTRUKTIONSELEMENTE
100
AcDbLine
 62
7
  6
CONTINUOUS
 10
102.6176248886
 20
44.4575439278
 11
102.6242758599
 21
44.2799956861
  0
LINE
  5
4F8
100
AcDbEntity
  8
0
100
AcDbLine
 62
7
  6
CONTINUOUS
 10
105.6555568982
 20
48.1889395064
 11
105.6158872766
 21
47.9183001171
  0
LINE
  5
4F9
100
AcDbEntity
  8
0
100
AcDbLine
 62
7
  6
CONTINUOUS
 10
94.272685784
 20
26.6599955232
 11
94.0699608693
 21
26.476360705
  0
LINE
  5
4FA
100
AcDbEntity
  8
0
100
AcDbLine
 62
7
  6
CONTINUOUS
 10
93.9656733367
 20
26.0522937725
 11
94.2943740643
 21
26.2676359455
  0
LINE
  5
4FB
100
AcDbEntity
  8
0
100
AcDbLine
 62
7
  6
CONTINUOUS
 10
93.5393834754
 20
27.6025658605
 11
94.548414229
 21
28.193236383
  0
LINE
  5
4FC
100
AcDbEntity
  8
0
100
AcDbLine
 62
7
  6
CONTINUOUS
 10
93.8728845876
 20
28.193236383
 11
93.4355210158
 21
27.9410893886
  0
LINE
  5
4FD
100
AcDbEntity
  8
RUNDUNGEN
100
AcDbLine
 62
7
  6
CONTINUOUS
 10
113.1836276678
 20
42.9929944212
 11
115.9537714692
 21
43.7741780525
  0
LINE
  5
4FE
100
AcDbEntity
  8
0
100
AcDbLine
 62
7
  6
CONTINUOUS
 10
77.3574225029
 20
32.1060383896
 11
77.1058518843
 21
32.0356969574
  0
LWPOLYLINE
  5
4FF
100
AcDbEntity
  8
RUNDUNGEN
100
AcDbPolyline
 62
7
  6
CONTINUOUS
 90
3
 70
0
 10
113.1836223087
 20
42.9929929254
 10
113.1685785107
 20
42.9888375729
 10
113.1389273423
 20
42.9811594404
  0
LWPOLYLINE
  5
500
100
AcDbEntity
  8
RUNDUNGEN
100
AcDbPolyline
 62
7
  6
CONTINUOUS
 90
7
 70
0
 10
113.1389273423
 20
42.9811594404
 10
113.1086761368
 20
42.9740329739
 10
113.0778386185
 20
42.9675120293
 10
113.0464099082
 20
42.9616473299
 10
113.0143659339
 20
42.9564885103
 10
112.9816934565
 20
42.9520901463
 10
112.9483909664
 20
42.9485101161
  0
LWPOLYLINE
  5
501
100
AcDbEntity
  8
RUNDUNGEN
100
AcDbPolyline
 62
7
  6
CONTINUOUS
 90
4
 70
0
 10
82.3657477912
 20
43.790649886
 10
82.2609459718
 20
43.8174090583
 10
82.1548750367
 20
43.8371610821
 10
82.0479720186
 20
43.8498200941
  0
LWPOLYLINE
  5
502
100
AcDbEntity
  8
RUNDUNGEN
100
AcDbPolyline
 62
7
  6
CONTINUOUS
 90
3
 70
0
 10
85.2338086399
 20
42.9814647563
 10
85.2041404005
 20
42.9891758438
 10
85.1903457815
 20
42.9929927768
  0
LINE
  5
503
100
AcDbEntity
  8
0
100
AcDbLine
 62
7
  6
CONTINUOUS
 10
121.2235494195
 20
32.0373123469
 11
120.4743362326
 21
32.2485908598
  0
LINE
  5
504
100
AcDbEntity
  8
0
100
AcDbLine
 62
7
  6
CONTINUOUS
 10
120.1260271016
 20
32.3468142181
 11
120.2245985632
 21
32.319017014
  0
LWPOLYLINE
  5
505
100
AcDbEntity
  8
RUNDUNGEN
100
AcDbPolyline
 62
7
  6
CONTINUOUS
 90
6
 70
0
 10
85.1903398955
 20
42.9929944212
 10
82.4194530919
 20
43.7743896089
 10
82.4140080157
 20
43.7759664106
 10
82.409720005
 20
43.7772469435
 10
82.4065397163
 20
43.7782260188
 10
82.4052781781
 20
43.7786237329
  0
LINE
  5
506
100
AcDbEntity
  8
RUNDUNGEN
100
AcDbLine
 62
7
  6
CONTINUOUS
 10
82.4043343202
 20
43.7789226976
 11
82.3657477912
 21
43.790649886
  0
LINE
  5
507
100
AcDbEntity
  8
0
100
AcDbLine
 62
7
  6
CONTINUOUS
 10
91.1241152218
 20
43.7095719003
 11
91.443400116
 21
43.5560177434
  0
LINE
  5
508
100
AcDbEntity
  8
0
100
AcDbLine
 62
7
  6
CONTINUOUS
 10
91.6395133443
 20
43.7756169563
 11
91.32022845
 21
43.9291711133
  0
LINE
  5
509
100
AcDbEntity
  8
0
100
AcDbLine
 62
7
  6
CONTINUOUS
 10
91.6603356613
 20
45.2043911997
 11
91.8834561198
 21
45.0709250395
  0
LINE
  5
50A
100
AcDbEntity
  8
KONSTRUKTIONSELEMENTE
100
AcDbLine
 62
7
  6
CONTINUOUS
 10
94.3175109238
 20
43.2376718673
 11
94.496088385
 21
43.1155846056
  0
LINE
  5
50B
100
AcDbEntity
  8
KONSTRUKTIONSELEMENTE
100
AcDbLine
 62
7
  6
CONTINUOUS
 10
94.6611276433
 20
43.2819987993
 11
94.4447823205
 21
43.4415418797
  0
LINE
  5
50C
100
AcDbEntity
  8
0
100
AcDbLine
 62
7
  6
CONTINUOUS
 10
92.2373166466
 20
45.0838562001
 11
91.9834048679
 21
45.3106122888
  0
LINE
  5
50D
100
AcDbEntity
  8
0
100
AcDbLine
 62
7
  6
CONTINUOUS
 10
105.9966488757
 20
48.094673532
 11
105.9925207297
 21
48.4876095532
  0
LINE
  5
50E
100
AcDbEntity
  8
0
100
AcDbLine
 62
7
  6
CONTINUOUS
 10
103.4838939855
 20
26.7817079738
 11
103.4116265046
 21
26.1211222125
  0
LINE
  5
50F
100
AcDbEntity
  8
0
100
AcDbLine
 62
7
  6
CONTINUOUS
 10
103.6451127742
 20
25.4815581246
 11
103.7173803369
 21
26.1421436619
  0
LINE
  5
510
100
AcDbEntity
  8
0
100
AcDbLine
 62
7
  6
CONTINUOUS
 10
94.0699608693
 20
26.476360705
 11
93.861812882
 21
26.3908162877
  0
LWPOLYLINE
  5
511
100
AcDbEntity
  8
RUNDUNGEN
100
AcDbPolyline
 62
7
  6
CONTINUOUS
 90
4
 70
0
 10
116.3331442606
 20
43.8504107533
 10
116.2262142491
 20
43.8382288891
 10
116.1200776246
 20
43.8189489893
 10
116.0151717306
 20
43.7926537199
  0
LINE
  5
512
100
AcDbEntity
  8
RUNDUNGEN
100
AcDbLine
 62
7
  6
CONTINUOUS
 10
112.9483909664
 20
42.9485101161
 11
112.9282455344
 21
42.946789977
  0
LINE
  5
513
100
AcDbEntity
  8
RUNDUNGEN
100
AcDbLine
 62
7
  6
CONTINUOUS
 10
127.6869217318
 20
41.943236383
 11
70.6870458314
 21
41.943236383
  0
LINE
  5
514
100
AcDbEntity
  8
RUNDUNGEN
100
AcDbLine
 62
7
  6
CONTINUOUS
 10
85.4457205601
 20
42.9467900901
 11
85.4244266857
 21
42.9486184569
  0
LWPOLYLINE
  5
515
100
AcDbEntity
  8
RUNDUNGEN
100
AcDbPolyline
 62
7
  6
CONTINUOUS
 90
7
 70
0
 10
85.4244266857
 20
42.9486184569
 10
85.3911143942
 20
42.9522312865
 10
85.3584303988
 20
42.9566623822
 10
85.3263731018
 20
42.9618539678
 10
85.2949295348
 20
42.967751521
 10
85.26407624
 20
42.974305371
 10
85.2338086399
 20
42.9814647563
  0
LINE
  5
516
100
AcDbEntity
  8
0
100
AcDbLine
 62
7
  6
CONTINUOUS
 10
91.443400116
 20
43.5560177434
 11
91.576644275
 21
43.5117416945
  0
LINE
  5
517
100
AcDbEntity
  8
0
100
AcDbLine
 62
7
  6
CONTINUOUS
 10
91.600644977
 20
45.5208588585
 11
91.2486765841
 21
45.6378153407
  0
LINE
  5
518
100
AcDbEntity
  8
KONSTRUKTIONSELEMENTE
100
AcDbLine
 62
7
  6
CONTINUOUS
 10
94.1491943597
 20
43.2945676097
 11
94.3175109238
 21
43.2376718673
  0
LINE
  5
519
100
AcDbEntity
  8
0
100
AcDbLine
 62
7
  6
CONTINUOUS
 10
91.4045317487
 20
45.3012596455
 11
91.6603356613
 21
45.2043911997
  0
LINE
  5
51A
100
AcDbEntity
  8
KONSTRUKTIONSELEMENTE
100
AcDbLine
 62
7
  6
CONTINUOUS
 10
94.4447823205
 20
43.4415418797
 11
94.2386981064
 21
43.5358932309
  0
LINE
  5
51B
100
AcDbEntity
  8
0
100
AcDbLine
 62
7
  6
CONTINUOUS
 10
91.9834048679
 20
45.3106122888
 11
91.600644977
 21
45.5208588585
  0
LINE
  5
51C
100
AcDbEntity
  8
0
100
AcDbLine
 62
7
  6
CONTINUOUS
 10
115.8143419442
 20
31.8687722564
 11
115.8915187035
 21
31.8211234884
  0
LINE
  5
51D
100
AcDbEntity
  8
KONSTRUKTIONSELEMENTE
100
AcDbLine
 62
7
  6
CONTINUOUS
 10
102.5536881762
 20
44.602327706
 11
102.6176248886
 21
44.4575439278
  0
LINE
  5
51E
100
AcDbEntity
  8
KONSTRUKTIONSELEMENTE
100
AcDbLine
 62
7
  6
CONTINUOUS
 10
102.8891225879
 20
44.3952016267
 11
102.8326526044
 21
44.65306717
  0
LINE
  5
51F
100
AcDbEntity
  8
0
100
AcDbLine
 62
7
  6
CONTINUOUS
 10
106.4334196912
 20
26.8984370504
 11
106.0918162874
 21
29.4578259708
  0
LINE
  5
520
100
AcDbEntity
  8
0
100
AcDbLine
 62
7
  6
CONTINUOUS
 10
105.8095450148
 20
29.262094516
 11
106.0454533893
 21
27.4579370138
  0
LINE
  5
521
100
AcDbEntity
  8
BEZUGSACHSEN
100
AcDbLine
 62
7
  6
CONTINUOUS
 10
104.6718113389
 20
28.193236383
 11
107.125549983
 21
32.443236383
  0
LINE
  5
522
100
AcDbEntity
  8
0
100
AcDbLine
 62
7
  6
CONTINUOUS
 10
105.800841493
 20
29.8774510414
 11
105.5396111117
 21
29.6963096801
  0
LINE
  5
523
100
AcDbEntity
  8
0
100
AcDbLine
 62
7
  6
CONTINUOUS
 10
105.1240332863
 20
28.786749623
 11
105.8095450148
 21
29.262094516
  0
LINE
  5
524
100
AcDbEntity
  8
0
100
AcDbLine
 62
7
  6
CONTINUOUS
 10
104.0014325627
 20
27.7547197309
 11
103.7794496672
 21
27.6502145569
  0
LINE
  5
525
100
AcDbEntity
  8
0
100
AcDbLine
 62
7
  6
CONTINUOUS
 10
103.96070041
 20
27.2652138612
 11
104.1826833055
 21
27.3697190352
  0
LINE
  5
526
100
AcDbEntity
  8
KONSTRUKTIONSELEMENTE
100
AcDbLine
 62
7
  6
CONTINUOUS
 10
93.9776010161
 20
43.5747733957
 11
93.7920394373
 21
43.5387421332
  0
LINE
  5
527
100
AcDbEntity
  8
KONSTRUKTIONSELEMENTE
100
AcDbLine
 62
7
  6
CONTINUOUS
 10
102.1260824687
 20
45.0831701537
 11
101.940106728
 21
45.0493436024
  0
LINE
  5
528
100
AcDbEntity
  8
KONSTRUKTIONSELEMENTE
100
AcDbLine
 62
7
  6
CONTINUOUS
 10
97.8166338913
 20
43.10166013
 11
98.0502719912
 21
43.1202310458
  0
LINE
  5
529
100
AcDbEntity
  8
KONSTRUKTIONSELEMENTE
100
AcDbLine
 62
7
  6
CONTINUOUS
 10
98.5954272605
 20
43.1635631591
 11
98.9069453211
 21
43.1883244274
  0
LINE
  5
52A
100
AcDbEntity
  8
KONSTRUKTIONSELEMENTE
100
AcDbLine
 62
7
  6
CONTINUOUS
 10
99.4521005904
 20
43.2316565407
 11
99.6857386903
 21
43.2502274565
  0
LINE
  5
52B
100
AcDbEntity
  8
RUNDUNGEN
100
AcDbLine
 62
7
  6
CONTINUOUS
 10
117.6399792485
 20
43.8733812643
 11
117.5789017831
 21
43.8697465042
  0
LINE
  5
52C
100
AcDbEntity
  8
KONSTRUKTIONSELEMENTE
100
AcDbLine
 62
7
  6
CONTINUOUS
 10
93.9911392191
 20
43.2862719403
 11
94.1491943597
 21
43.2945676097
  0
LINE
  5
52D
100
AcDbEntity
  8
RUNDUNGEN
100
AcDbLine
 62
7
  6
CONTINUOUS
 10
117.5789017831
 20
43.8697465042
 11
117.5146618206
 21
43.866456643
  0
LINE
  5
52E
100
AcDbEntity
  8
RUNDUNGEN
100
AcDbLine
 62
7
  6
CONTINUOUS
 10
116.4404134034
 20
43.8554480075
 11
116.3331442606
 21
43.8504107533
  0
LINE
  5
52F
100
AcDbEntity
  8
RUNDUNGEN
100
AcDbLine
 62
7
  6
CONTINUOUS
 10
117.5146618206
 20
43.866456643
 11
117.4474372276
 21
43.8635328597
  0
LINE
  5
530
100
AcDbEntity
  8
RUNDUNGEN
100
AcDbLine
 62
7
  6
CONTINUOUS
 10
117.4474372276
 20
43.8635328597
 11
117.3774867141
 21
43.8610131565
  0
LINE
  5
531
100
AcDbEntity
  8
RUNDUNGEN
100
AcDbLine
 62
7
  6
CONTINUOUS
 10
117.3774867141
 20
43.8610131565
 11
117.305037922
 21
43.8589437245
  0
LINE
  5
532
100
AcDbEntity
  8
RUNDUNGEN
100
AcDbLine
 62
7
  6
CONTINUOUS
 10
117.305037922
 20
43.8589437245
 11
117.2302794172
 21
43.8573423166
  0
LINE
  5
533
100
AcDbEntity
  8
RUNDUNGEN
100
AcDbLine
 62
7
  6
CONTINUOUS
 10
117.2302794172
 20
43.8573423166
 11
117.153455303
 21
43.8562339063
  0
LINE
  5
534
100
AcDbEntity
  8
RUNDUNGEN
100
AcDbLine
 62
7
  6
CONTINUOUS
 10
116.4620453035
 20
43.8555954819
 11
116.4404134034
 21
43.8554480075
  0
LINE
  5
535
100
AcDbEntity
  8
RUNDUNGEN
100
AcDbLine
 62
7
  6
CONTINUOUS
 10
117.153455303
 20
43.8562339063
 11
117.0748265039
 21
43.8556682276
  0
LINE
  5
536
100
AcDbEntity
  8
RUNDUNGEN
100
AcDbLine
 62
7
  6
CONTINUOUS
 10
124.6548396568
 20
42.943236383
 11
73.6954627884
 21
42.943236383
  0
LINE
  5
537
100
AcDbEntity
  8
RUNDUNGEN
100
AcDbLine
 62
7
  6
CONTINUOUS
 10
117.0748265039
 20
43.8556682276
 11
116.4620452852
 21
43.8556005062
  0
LINE
  5
538
100
AcDbEntity
  8
RUNDUNGEN
100
AcDbLine
 62
7
  6
CONTINUOUS
 10
71.1810917024
 20
44.193236383
 11
82.1869837816
 21
44.193236383
  0
LINE
  5
539
100
AcDbEntity
  8
RUNDUNGEN
100
AcDbLine
 62
7
  6
CONTINUOUS
 10
116.1869837816
 20
44.193236383
 11
127.1928758609
 21
44.193236383
  0
LINE
  5
53A
100
AcDbEntity
  8
RUNDUNGEN
100
AcDbLine
 62
7
  6
CONTINUOUS
 10
81.9119223651
 20
43.8556005062
 11
81.3039006012
 21
43.855652571
  0
LINE
  5
53B
100
AcDbEntity
  8
RUNDUNGEN
100
AcDbLine
 62
7
  6
CONTINUOUS
 10
81.3039006012
 20
43.855652571
 11
81.2234164252
 21
43.8562026951
  0
LINE
  5
53C
100
AcDbEntity
  8
RUNDUNGEN
100
AcDbLine
 62
7
  6
CONTINUOUS
 10
81.940684269
 20
43.8553353603
 11
81.911922365
 21
43.855595417
  0
LINE
  5
53D
100
AcDbEntity
  8
0
100
AcDbLine
 62
7
  6
CONTINUOUS
 10
91.7281786246
 20
43.7742068871
 11
91.6395133443
 21
43.7756169563
  0
LINE
  5
53E
100
AcDbEntity
  8
RUNDUNGEN
100
AcDbLine
 62
7
  6
CONTINUOUS
 10
81.2234164252
 20
43.8562026951
 11
81.1447154388
 21
43.8573239258
  0
LINE
  5
53F
100
AcDbEntity
  8
RUNDUNGEN
100
AcDbLine
 62
7
  6
CONTINUOUS
 10
81.1447154388
 20
43.8573239258
 11
81.0680951258
 21
43.8589645389
  0
LINE
  5
540
100
AcDbEntity
  8
RUNDUNGEN
100
AcDbLine
 62
7
  6
CONTINUOUS
 10
81.0680951258
 20
43.8589645389
 11
80.9938406069
 21
43.8610988095
  0
LINE
  5
541
100
AcDbEntity
  8
RUNDUNGEN
100
AcDbLine
 62
7
  6
CONTINUOUS
 10
80.9938406069
 20
43.8610988095
 11
80.9221787374
 21
43.8637069493
  0
LINE
  5
542
100
AcDbEntity
  8
RUNDUNGEN
100
AcDbLine
 62
7
  6
CONTINUOUS
 10
80.9221787374
 20
43.8637069493
 11
80.8533736184
 21
43.8667393018
  0
LINE
  5
543
100
AcDbEntity
  8
RUNDUNGEN
100
AcDbLine
 62
7
  6
CONTINUOUS
 10
82.0479720186
 20
43.8498200941
 11
81.940684269
 21
43.8553353603
  0
LWPOLYLINE
  5
544
100
AcDbEntity
  8
RUNDUNGEN
100
AcDbPolyline
 62
7
  6
CONTINUOUS
 90
25
 70
0
 10
80.8533736184
 20
43.8667393018
 10
80.7877403448
 20
43.8701550295
 10
80.7561660787
 20
43.8720004999
 10
80.7254546952
 20
43.8739317226
 10
80.6956324706
 20
43.8759412356
 10
80.6667149969
 20
43.8780232151
 10
80.6387258934
 20
43.8801722922
 10
80.6116950924
 20
43.8823834717
 10
80.585650911
 20
43.8846526196
 10
80.560618544
 20
43.8869759962
 10
80.5366294052
 20
43.8893458066
 10
80.5137246565
 20
43.8917516188
 10
80.4919105904
 20
43.8941867918
 10
80.4712404361
 20
43.8966396901
 10
80.4518303795
 20
43.8990898558
 10
80.433701235
 20
43.9015271076
 10
80.4168876901
 20
43.9039384017
 10
80.4015351278
 20
43.9062898169
 10
80.3876078226
 20
43.9085708382
 10
80.3751959769
 20
43.9107487342
 10
80.3646233214
 20
43.9127396812
 10
80.355836874
 20
43.9145185327
 10
80.3488872363
 20
43.9160359956
 10
80.3442159305
 20
43.9171389725
 10
80.3417607444
 20
43.9177657371
  0
LINE
  5
545
100
AcDbEntity
  8
KONSTRUKTIONSELEMENTE
100
AcDbLine
 62
7
  6
CONTINUOUS
 10
94.2386981064
 20
43.5358932309
 11
93.9776010161
 21
43.5747733957
  0
LINE
  5
546
100
AcDbEntity
  8
KONSTRUKTIONSELEMENTE
100
AcDbLine
 62
7
  6
CONTINUOUS
 10
100.2287712963
 20
43.0936695854
 11
100.458903393
 21
43.0492752311
  0
LINE
  5
547
100
AcDbEntity
  8
KONSTRUKTIONSELEMENTE
100
AcDbLine
 62
7
  6
CONTINUOUS
 10
100.776180588
 20
43.0053770321
 11
100.9161419271
 21
42.943236383
  0
LINE
  5
548
100
AcDbEntity
  8
KONSTRUKTIONSELEMENTE
100
AcDbLine
 62
7
  6
CONTINUOUS
 10
101.5715528847
 20
42.943236383
 11
101.1697173307
 21
43.1216450945
  0
LINE
  5
549
100
AcDbEntity
  8
KONSTRUKTIONSELEMENTE
100
AcDbLine
 62
7
  6
CONTINUOUS
 10
101.5889214667
 20
44.7396768701
 11
101.7674312956
 21
44.6604212934
  0
LINE
  5
54A
100
AcDbEntity
  8
0
100
AcDbLine
 62
7
  6
CONTINUOUS
 10
121.3007263643
 20
31.4864286624
 11
121.2235494195
 21
31.5340774805
  0
LINE
  5
54B
100
AcDbEntity
  8
0
100
AcDbLine
 62
7
  6
CONTINUOUS
 10
121.3007263643
 20
31.9896635288
 11
121.2235494195
 21
32.0373123469
  0
LINE
  5
54C
100
AcDbEntity
  8
KONSTRUKTIONSELEMENTE
100
AcDbLine
 62
7
  6
CONTINUOUS
 10
102.7330145798
 20
44.8137017733
 11
102.5403878678
 21
44.9574234638
  0
LINE
  5
54D
100
AcDbEntity
  8
KONSTRUKTIONSELEMENTE
100
AcDbLine
 62
7
  6
CONTINUOUS
 10
102.3967635934
 20
44.7301982085
 11
102.5536881762
 21
44.602327706
  0
LINE
  5
54E
100
AcDbEntity
  8
0
100
AcDbLine
 62
7
  6
CONTINUOUS
 10
116.3649742876
 20
31.8429180569
 11
116.3190147971
 21
31.8817635364
  0
LINE
  5
54F
100
AcDbEntity
  8
KONSTRUKTIONSELEMENTE
100
AcDbLine
 62
7
  6
CONTINUOUS
 10
102.8326526044
 20
44.65306717
 11
102.7330145798
 21
44.8137017733
  0
LINE
  5
550
100
AcDbEntity
  8
0
100
AcDbLine
 62
7
  6
CONTINUOUS
 10
105.6107272164
 20
48.4094700748
 11
105.6555568982
 21
48.1889395064
  0
LINE
  5
551
100
AcDbEntity
  8
0
100
AcDbLine
 62
7
  6
CONTINUOUS
 10
109.2359249604
 20
32.3459573888
 11
108.9844190106
 21
31.8683583565
  0
LINE
  5
552
100
AcDbEntity
  8
0
100
AcDbLine
 62
7
  6
CONTINUOUS
 10
109.2856318428
 20
31.7097382289
 11
109.5371377926
 21
32.1873372613
  0
LINE
  5
553
100
AcDbEntity
  8
0
100
AcDbLine
 62
7
  6
CONTINUOUS
 10
109.6514583458
 20
32.4044270982
 11
109.671895502
 21
32.443236383
  0
LINE
  5
554
100
AcDbEntity
  8
0
100
AcDbLine
 62
7
  6
CONTINUOUS
 10
110.1395636679
 20
31.8700968951
 11
110.2538842212
 21
32.087186732
  0
LINE
  5
555
100
AcDbEntity
  8
0
100
AcDbLine
 62
7
  6
CONTINUOUS
 10
106.191473941
 20
26.7306679634
 11
106.4334196912
 21
26.8984370504
  0
LINE
  5
556
100
AcDbEntity
  8
0
100
AcDbLine
 62
7
  6
CONTINUOUS
 10
116.3190147971
 20
31.8817635364
 11
116.3831817136
 21
31.9154382084
  0
LINE
  5
557
100
AcDbEntity
  8
0
100
AcDbLine
 62
7
  6
CONTINUOUS
 10
103.3685447256
 20
25.3805911641
 11
103.6451127742
 21
25.4815581246
  0
LINE
  5
558
100
AcDbEntity
  8
KONSTRUKTIONSELEMENTE
100
AcDbLine
 62
7
  6
CONTINUOUS
 10
99.4876489217
 20
45.7423671884
 11
99.1371917719
 21
45.7145108147
  0
LINE
  5
559
100
AcDbEntity
  8
KONSTRUKTIONSELEMENTE
100
AcDbLine
 62
7
  6
CONTINUOUS
 10
97.9690012726
 20
45.6216562357
 11
97.6185441228
 21
45.593799862
  0
LINE
  5
55A
100
AcDbEntity
  8
0
100
AcDbLine
 62
7
  6
CONTINUOUS
 10
91.2486765841
 20
45.6378153407
 11
90.8948160574
 21
45.6248841801
  0
LINE
  5
55B
100
AcDbEntity
  8
BEZUGSACHSEN
100
AcDbLine
 62
7
  6
CONTINUOUS
 10
104.6718113389
 20
47.193236383
 11
93.7021562243
 21
47.193236383
  0
LINE
  5
55C
100
AcDbEntity
  8
0
100
AcDbLine
 62
7
  6
CONTINUOUS
 10
91.1795192452
 20
45.3048380834
 11
91.4045317487
 21
45.3012596455
  0
LINE
  5
55D
100
AcDbEntity
  8
KONSTRUKTIONSELEMENTE
100
AcDbLine
 62
7
  6
CONTINUOUS
 10
102.0538624527
 20
44.8242425226
 11
102.2539558936
 21
44.7936025973
  0
LINE
  5
55E
100
AcDbEntity
  8
KONSTRUKTIONSELEMENTE
100
AcDbLine
 62
7
  6
CONTINUOUS
 10
100.9324431723
 20
45.5040175959
 11
100.7023110756
 21
45.5484119502
  0
LINE
  5
55F
100
AcDbEntity
  8
KONSTRUKTIONSELEMENTE
100
AcDbLine
 62
7
  6
CONTINUOUS
 10
102.3975801681
 20
45.0208278526
 11
102.1260824687
 21
45.0831701537
  0
LINE
  5
560
100
AcDbEntity
  8
KONSTRUKTIONSELEMENTE
100
AcDbLine
 62
7
  6
CONTINUOUS
 10
102.2539558936
 20
44.7936025973
 11
102.3967635934
 21
44.7301982085
  0
LINE
  5
561
100
AcDbEntity
  8
KONSTRUKTIONSELEMENTE
100
AcDbLine
 62
7
  6
CONTINUOUS
 10
102.5403878678
 20
44.9574234638
 11
102.3975801681
 21
45.0208278526
  0
LINE
  5
562
100
AcDbEntity
  8
0
100
AcDbLine
 62
7
  6
CONTINUOUS
 10
120.7500938906
 20
31.5122829146
 11
120.7960533812
 21
31.473437435
  0
LINE
  5
563
100
AcDbEntity
  8
0
100
AcDbLine
 62
7
  6
CONTINUOUS
 10
107.5110498307
 20
44.0149227296
 11
107.9083375006
 21
43.4544674287
  0
LINE
  5
564
100
AcDbEntity
  8
BEZUGSACHSEN
100
AcDbLine
 62
7
  6
CONTINUOUS
 10
107.125549983
 20
42.943236383
 11
104.6718113389
 21
47.193236383
  0
LINE
  5
565
100
AcDbEntity
  8
0
100
AcDbLine
 62
7
  6
CONTINUOUS
 10
105.9925207297
 20
48.4876095532
 11
105.9049251943
 21
48.732202817
  0
LINE
  5
566
100
AcDbEntity
  8
RUNDUNGEN
100
AcDbLine
 62
7
  6
CONTINUOUS
 10
117.9153442543
 20
43.9308433078
 11
117.8964680023
 21
43.895893455
  0
LINE
  5
567
100
AcDbEntity
  8
0
100
AcDbLine
 62
7
  6
CONTINUOUS
 10
120.7960533812
 20
31.473437435
 11
120.7318865199
 21
31.4397627656
  0
LINE
  5
568
100
AcDbEntity
  8
0
100
AcDbLine
 62
7
  6
CONTINUOUS
 10
96.56917049
 20
47.8125667386
 11
97.2395537452
 21
47.9626720797
  0
LINE
  5
569
100
AcDbEntity
  8
0
100
AcDbLine
 62
7
  6
CONTINUOUS
 10
97.1465752506
 20
48.3779219664
 11
96.4761919954
 21
48.2278166253
  0
LINE
  5
56A
100
AcDbEntity
  8
0
100
AcDbLine
 62
7
  6
CONTINUOUS
 10
105.1779113128
 20
49.1412654719
 11
104.9233824671
 21
49.0891723944
  0
LINE
  5
56B
100
AcDbEntity
  8
0
100
AcDbLine
 62
7
  6
CONTINUOUS
 10
89.6004966467
 20
47.893236383
 11
89.1228179208
 21
47.893236383
  0
LINE
  5
56C
100
AcDbEntity
  8
0
100
AcDbLine
 62
7
  6
CONTINUOUS
 10
108.7734709166
 20
47.893236383
 11
109.2511496425
 21
47.893236383
  0
LINE
  5
56D
100
AcDbEntity
  8
0
100
AcDbLine
 62
7
  6
CONTINUOUS
 10
108.1131116428
 20
49.7678490174
 11
106.2684348855
 21
49.7678490174
  0
LINE
  5
56E
100
AcDbEntity
  8
0
100
AcDbLine
 62
7
  6
CONTINUOUS
 10
92.1055326778
 20
49.7678490174
 11
90.2608559205
 21
49.7678490174
  0
LINE
  5
56F
100
AcDbEntity
  8
0
100
AcDbLine
 62
7
  6
CONTINUOUS
 10
105.0120096719
 20
48.7463453319
 11
105.2675706765
 21
48.7002043352
  0
LINE
  5
570
100
AcDbEntity
  8
0
100
AcDbLine
 62
7
  6
CONTINUOUS
 10
104.3756870682
 20
48.6161129137
 11
104.5895148675
 21
48.4958002629
  0
LINE
  5
571
100
AcDbEntity
  8
0
100
AcDbLine
 62
7
  6
CONTINUOUS
 10
105.9049251943
 20
48.732202817
 11
105.6900654808
 21
48.9507494043
  0
LINE
  5
572
100
AcDbEntity
  8
0
100
AcDbLine
 62
7
  6
CONTINUOUS
 10
105.438632867
 20
48.6039542421
 11
105.6107272164
 21
48.4094700748
  0
LINE
  5
573
100
AcDbEntity
  8
0
100
AcDbLine
 62
7
  6
CONTINUOUS
 10
108.2554947837
 20
43.7005554002
 11
107.8582071137
 21
44.2610107011
  0
LINE
  5
574
100
AcDbEntity
  8
0
100
AcDbLine
 62
7
  6
CONTINUOUS
 10
113.9560513637
 20
32.443236383
 11
113.9560513637
 21
31.943236383
  0
LINE
  5
575
100
AcDbEntity
  8
RUNDUNGEN
100
AcDbLine
 62
7
  6
CONTINUOUS
 10
114.4369837816
 20
45.7924869063
 11
114.4369837816
 21
43.8850070759
  0
LINE
  5
576
100
AcDbEntity
  8
RUNDUNGEN
100
AcDbLine
 62
7
  6
CONTINUOUS
 10
114.4369837816
 20
31.943236383
 11
114.4369837816
 21
29.49296986
  0
LINE
  5
577
100
AcDbEntity
  8
0
100
AcDbLine
 62
7
  6
CONTINUOUS
 10
115.8143419442
 20
31.943236383
 11
115.8143419442
 21
31.8687722564
  0
LINE
  5
578
100
AcDbEntity
  8
0
100
AcDbLine
 62
7
  6
CONTINUOUS
 10
115.8472915505
 20
31.943236383
 11
115.8472915505
 21
31.911250215
  0
LINE
  5
579
100
AcDbEntity
  8
0
100
AcDbLine
 62
7
  6
CONTINUOUS
 10
115.8472915505
 20
31.911250215
 11
115.8143419442
 21
31.8687722564
  0
LINE
  5
57A
100
AcDbEntity
  8
RUNDUNGEN
100
AcDbLine
 62
7
  6
CONTINUOUS
 10
88.1878055308
 20
49.893236383
 11
88.9178316367
 21
49.893236383
  0
LINE
  5
57B
100
AcDbEntity
  8
0
100
AcDbLine
 62
7
  6
CONTINUOUS
 10
88.9178316367
 20
49.893236383
 11
92.325765573
 21
49.893236383
  0
LINE
  5
57C
100
AcDbEntity
  8
0
100
AcDbLine
 62
7
  6
CONTINUOUS
 10
106.0482019903
 20
49.893236383
 11
109.4561359266
 21
49.893236383
  0
LINE
  5
57D
100
AcDbEntity
  8
RUNDUNGEN
100
AcDbLine
 62
7
  6
CONTINUOUS
 10
109.4561359266
 20
49.893236383
 11
110.186222957
 21
49.893236383
  0
LINE
  5
57E
100
AcDbEntity
  8
0
100
AcDbLine
 62
7
  6
CONTINUOUS
 10
102.05085625
 20
50.4284309982
 11
101.6129991126
 21
50.4860556947
  0
LINE
  5
57F
100
AcDbEntity
  8
0
100
AcDbLine
 62
7
  6
CONTINUOUS
 10
100.1534753215
 20
50.6781380165
 11
99.7156181841
 21
50.735762713
  0
LINE
  5
580
100
AcDbEntity
  8
0
100
AcDbLine
 62
7
  6
CONTINUOUS
 10
105.519003535
 20
49.0469993597
 11
105.1779113128
 21
49.1412654719
  0
LINE
  5
581
100
AcDbEntity
  8
0
100
AcDbLine
 62
7
  6
CONTINUOUS
 10
103.7760441089
 20
49.8598796968
 11
103.4982846331
 21
49.957521318
  0
LINE
  5
582
100
AcDbEntity
  8
0
100
AcDbLine
 62
7
  6
CONTINUOUS
 10
105.2675706765
 20
48.7002043352
 11
105.438632867
 21
48.6039542421
  0
LINE
  5
583
100
AcDbEntity
  8
0
100
AcDbLine
 62
7
  6
CONTINUOUS
 10
105.6900654808
 20
48.9507494043
 11
105.519003535
 21
49.0469993597
  0
LINE
  5
584
100
AcDbEntity
  8
0
100
AcDbLine
 62
7
  6
CONTINUOUS
 10
113.4296880014
 20
43.0623835648
 11
109.1734781283
 21
47.9830332499
  0
LINE
  5
585
100
AcDbEntity
  8
0
100
AcDbLine
 62
7
  6
CONTINUOUS
 10
116.3649742876
 20
31.905882987
 11
116.3649742876
 21
31.8429180569
  0
LINE
  5
586
100
AcDbEntity
  8
0
100
AcDbLine
 62
7
  6
CONTINUOUS
 10
116.4898432117
 20
31.931809787
 11
116.4898432117
 21
31.8077049546
  0
LINE
  5
587
100
AcDbEntity
  8
0
100
AcDbLine
 62
7
  6
CONTINUOUS
 10
116.6936213905
 20
31.943236383
 11
116.6936213905
 21
31.77612428
  0
LINE
  5
588
100
AcDbEntity
  8
0
100
AcDbLine
 62
7
  6
CONTINUOUS
 10
116.7656008144
 20
31.706707014
 11
116.7656008144
 21
31.5746318731
  0
LINE
  5
589
100
AcDbEntity
  8
0
100
AcDbLine
 62
7
  6
CONTINUOUS
 10
116.9450916037
 20
31.943236383
 11
116.9450916037
 21
31.7569793237
  0
LINE
  5
58A
100
AcDbEntity
  8
0
100
AcDbLine
 62
7
  6
CONTINUOUS
 10
117.2442537409
 20
31.943236383
 11
117.2442537409
 21
31.7502700807
  0
LINE
  5
58B
100
AcDbEntity
  8
0
100
AcDbLine
 62
7
  6
CONTINUOUS
 10
117.5911080358
 20
31.943236383
 11
117.5911080358
 21
31.7559965032
  0
LINE
  5
58C
100
AcDbEntity
  8
0
100
AcDbLine
 62
7
  6
CONTINUOUS
 10
117.664786782
 20
32.443236383
 11
117.664786782
 21
31.943236383
  0
LINE
  5
58D
100
AcDbEntity
  8
0
100
AcDbLine
 62
7
  6
CONTINUOUS
 10
117.9882695853
 20
31.5694731966
 11
117.9882695853
 21
31.3851479287
  0
LINE
  5
58E
100
AcDbEntity
  8
0
100
AcDbLine
 62
7
  6
CONTINUOUS
 10
118.1920475855
 20
31.578853704
 11
118.1920475855
 21
31.3535673044
  0
LINE
  5
58F
100
AcDbEntity
  8
0
100
AcDbLine
 62
7
  6
CONTINUOUS
 10
118.4139999688
 20
32.443236383
 11
118.4139999688
 21
31.943236383
  0
LINE
  5
590
100
AcDbEntity
  8
0
100
AcDbLine
 62
7
  6
CONTINUOUS
 10
118.4435177988
 20
31.5904296257
 11
118.4435177988
 21
31.3344223482
  0
LINE
  5
591
100
AcDbEntity
  8
0
100
AcDbLine
 62
7
  6
CONTINUOUS
 10
118.4911768244
 20
32.443236383
 11
118.4911768244
 21
31.943236383
  0
LINE
  5
592
100
AcDbEntity
  8
RUNDUNGEN
100
AcDbLine
 62
7
  6
CONTINUOUS
 10
111.4467877032
 20
50.3707713226
 11
110.5591388279
 21
50.7438386664
  0
LINE
  5
593
100
AcDbEntity
  8
0
100
AcDbLine
 62
7
  6
CONTINUOUS
 10
114.8114788618
 20
43.4520493146
 11
110.1566995486
 21
48.8334893856
  0
LINE
  5
594
100
AcDbEntity
  8
0
100
AcDbLine
 62
7
  6
CONTINUOUS
 10
118.7426801145
 20
31.6042009568
 11
118.7426801145
 21
31.3277130548
  0
LINE
  5
595
100
AcDbEntity
  8
0
100
AcDbLine
 62
7
  6
CONTINUOUS
 10
119.0895342308
 20
31.6201676832
 11
119.0895342308
 21
31.3334395277
  0
LINE
  5
596
100
AcDbEntity
  8
0
100
AcDbLine
 62
7
  6
CONTINUOUS
 10
119.1007786937
 20
32.443236383
 11
119.1007786937
 21
31.943236383
  0
LINE
  5
597
100
AcDbEntity
  8
0
100
AcDbLine
 62
7
  6
CONTINUOUS
 10
119.2880820797
 20
32.443236383
 11
119.2880820797
 21
31.943236383
  0
LINE
  5
598
100
AcDbEntity
  8
0
100
AcDbLine
 62
7
  6
CONTINUOUS
 10
120.0372952665
 20
32.3702001424
 11
120.0372952665
 21
31.8686017759
  0
LINE
  5
599
100
AcDbEntity
  8
0
100
AcDbLine
 62
7
  6
CONTINUOUS
 10
120.2245985632
 20
32.319017014
 11
120.2245985632
 21
31.8157821477
  0
LINE
  5
59A
100
AcDbEntity
  8
0
100
AcDbLine
 62
7
  6
CONTINUOUS
 10
120.2731731635
 20
31.6467748106
 11
120.2731731635
 21
31.3879259477
  0
LINE
  5
59B
100
AcDbEntity
  8
0
100
AcDbLine
 62
7
  6
CONTINUOUS
 10
120.4743362326
 20
32.2485908598
 11
120.4743362326
 21
31.7453559935
  0
LINE
  5
59C
100
AcDbEntity
  8
0
100
AcDbLine
 62
7
  6
CONTINUOUS
 10
120.5575930857
 20
31.5665682429
 11
120.5575930857
 21
31.4112588961
  0
LINE
  5
59D
100
AcDbEntity
  8
0
100
AcDbLine
 62
7
  6
CONTINUOUS
 10
120.7318865199
 20
31.5174174027
 11
120.7318865199
 21
31.4397627656
  0
LINE
  5
59E
100
AcDbEntity
  8
0
100
AcDbLine
 62
7
  6
CONTINUOUS
 10
121.2677766001
 20
31.4439507552
 11
121.3007263643
 21
31.4864286624
  0
LINE
  5
59F
100
AcDbEntity
  8
0
100
AcDbLine
 62
7
  6
CONTINUOUS
 10
121.2235494195
 20
32.0373123469
 11
121.2235494195
 21
31.5340774805
  0
LINE
  5
5A0
100
AcDbEntity
  8
0
100
AcDbLine
 62
7
  6
CONTINUOUS
 10
121.3007263643
 20
31.9896635288
 11
121.3007263643
 21
31.4864286624
  0
LINE
  5
5A1
100
AcDbEntity
  8
RUNDUNGEN
100
AcDbLine
 62
7
  6
CONTINUOUS
 10
128.192877865
 20
32.193236383
 11
128.192877865
 21
33.531774367
  0
LINE
  5
5A2
100
AcDbEntity
  8
RUNDUNGEN
100
AcDbLine
 62
7
  6
CONTINUOUS
 10
128.192877865
 20
41.8546983989
 11
128.192877865
 21
43.193236383
  0
LINE
  5
5A3
100
AcDbEntity
  8
0
100
AcDbLine
 62
7
  6
CONTINUOUS
 10
129.1869837816
 20
40.443236383
 11
129.1869837816
 21
34.943236383
  0
ARC
  5
5A4
100
AcDbEntity
  8
RUNDUNGEN
100
AcDbCircle
 62
7
  6
CONTINUOUS
 10
58.1066944399
 20
133.1732956341
 40
18.0
100
AcDbArc
 50
337.999988081
 51
31.147412132
  0
ARC
  5
5A5
100
AcDbEntity
  8
RUNDUNGEN
100
AcDbCircle
 62
7
  6
CONTINUOUS
 10
74.1482265491
 20
135.7036544036
 40
4.0
100
AcDbArc
 50
337.06
 51
11.0
  0
ARC
  5
5A6
100
AcDbEntity
  8
RUNDUNGEN
100
AcDbCircle
 62
7
  6
CONTINUOUS
 10
76.1810896983
 20
113.8417818204
 40
6.0
100
AcDbArc
 50
158.0
 51
203.0
  0
ARC
  5
5A7
100
AcDbEntity
  8
0
100
AcDbCircle
 62
7
  6
CONTINUOUS
 10
80.0657006661
 20
109.1335202033
 40
2.0
100
AcDbArc
 50
84.2608295227
 51
275.7391704773
  0
ARC
  5
5A8
100
AcDbEntity
  8
0
100
AcDbCircle
 62
7
  6
CONTINUOUS
 10
76.6657006661
 20
109.1335202033
 40
2.0
100
AcDbArc
 50
84.2608295227
 51
275.7391704773
  0
ARC
  5
5A9
100
AcDbEntity
  8
RUNDUNGEN
100
AcDbCircle
 62
7
  6
CONTINUOUS
 10
81.6869837816
 20
99.5008977656
 40
1.5
100
AcDbArc
 50
270.0
 51
360.0
  0
ARC
  5
5AA
100
AcDbEntity
  8
0
100
AcDbCircle
 62
7
  6
CONTINUOUS
 10
80.0657006661
 20
109.1335202033
 40
1.4
100
AcDbArc
 50
192.3736251162
 51
278.2132107017
  0
ARC
  5
5AB
100
AcDbEntity
  8
0
100
AcDbCircle
 62
7
  6
CONTINUOUS
 10
80.0657006661
 20
109.1335202033
 40
1.4
100
AcDbArc
 50
81.7867892983
 51
167.4447123387
  0
ARC
  5
5AC
100
AcDbEntity
  8
0
100
AcDbCircle
 62
7
  6
CONTINUOUS
 10
76.6657006661
 20
109.1335202033
 40
1.4
100
AcDbArc
 50
81.7867892983
 51
278.2132107017
  0
ARC
  5
5AD
100
AcDbEntity
  8
RUNDUNGEN
100
AcDbCircle
 62
7
  6
CONTINUOUS
 10
84.9369837816
 20
116.4031477656
 40
1.0
100
AcDbArc
 50
90.0
 51
180.0
  0
ARC
  5
5AE
100
AcDbEntity
  8
RUNDUNGEN
100
AcDbCircle
 62
7
  6
CONTINUOUS
 10
84.1869837816
 20
99.0008977656
 40
1.0
100
AcDbArc
 50
104.4874974433
 51
168.5562634114
  0
ARC
  5
5AF
100
AcDbEntity
  8
RUNDUNGEN
100
AcDbCircle
 62
7
  6
CONTINUOUS
 10
84.1869837816
 20
112.0008977656
 40
1.0
100
AcDbArc
 50
180.0
 51
255.5125025567
  0
ARC
  5
5B0
100
AcDbEntity
  8
RUNDUNGEN
100
AcDbCircle
 62
7
  6
CONTINUOUS
 10
77.0488669514
 20
99.0009033995
 40
1.0
100
AcDbArc
 50
203.000350676
 51
270.000137013
  0
ARC
  5
5B1
100
AcDbEntity
  8
RUNDUNGEN
100
AcDbCircle
 62
7
  6
CONTINUOUS
 10
82.6869837816
 20
113.3658977656
 40
0.5
100
AcDbArc
 50
0.0
 51
90.0
  0
ARC
  5
5B2
100
AcDbEntity
  8
RUNDUNGEN
100
AcDbCircle
 62
7
  6
CONTINUOUS
 10
92.2843627056
 20
126.0008977656
 40
6.0
100
AcDbArc
 50
89.9999999996
 51
158.0000176946
  0
ARC
  5
5B3
100
AcDbEntity
  8
RUNDUNGEN
100
AcDbCircle
 62
7
  6
CONTINUOUS
 10
86.1869837816
 20
118.9177568382
 40
3.0
100
AcDbArc
 50
158.0
 51
180.0008553389
  0
ARC
  5
5B4
100
AcDbEntity
  8
0
100
AcDbCircle
 62
7
  6
CONTINUOUS
 10
92.4292921594
 20
117.7058263184
 40
1.0169252888
100
AcDbArc
 50
160.1014063464
 51
164.2582997611
  0
ARC
  5
5B5
100
AcDbEntity
  8
RUNDUNGEN
100
AcDbCircle
 62
7
  6
CONTINUOUS
 10
92.4349837816
 20
117.7531477656
 40
1.0
100
AcDbArc
 50
90.0
 51
166.7886700598
  0
ARC
  5
5B6
100
AcDbEntity
  8
0
100
AcDbCircle
 62
7
  6
CONTINUOUS
 10
90.9814837816
 20
117.7531477656
 40
1.0
100
AcDbArc
 50
142.6137009011
 51
166.7870196398
  0
ARC
  5
5B7
100
AcDbEntity
  8
RUNDUNGEN
100
AcDbCircle
 62
7
  6
CONTINUOUS
 10
89.8913587816
 20
117.7531477656
 40
1.0
100
AcDbArc
 50
90.0
 51
166.7870196398
  0
ARC
  5
5B8
100
AcDbEntity
  8
RUNDUNGEN
100
AcDbCircle
 62
7
  6
CONTINUOUS
 10
90.7313112779
 20
118.1531477656
 40
0.75
100
AcDbArc
 50
269.9984963564
 51
346.7848190813
  0
ARC
  5
5B9
100
AcDbEntity
  8
0
100
AcDbCircle
 62
7
  6
CONTINUOUS
 10
89.2778112779
 20
118.1531477656
 40
0.75
100
AcDbArc
 50
270.0
 51
346.7870196398
  0
ARC
  5
5BA
100
AcDbEntity
  8
RUNDUNGEN
100
AcDbCircle
 62
7
  6
CONTINUOUS
 10
88.1876862779
 20
118.1531477656
 40
0.75
100
AcDbArc
 50
270.0
 51
346.7870196398
  0
ARC
  5
5BB
100
AcDbEntity
  8
0
100
AcDbCircle
 62
7
  6
CONTINUOUS
 10
90.8784690787
 20
118.1424084943
 40
0.5941789003
100
AcDbArc
 50
341.7237063166
 51
344.3095931519
  0
ARC
  5
5BC
100
AcDbEntity
  8
RUNDUNGEN
100
AcDbCircle
 62
7
  6
CONTINUOUS
 10
83.0254809062
 20
120.4358977032
 40
0.4999999688
100
AcDbArc
 50
270.0000028917
 51
338.0000077194
  0
ARC
  5
5BD
100
AcDbEntity
  8
RUNDUNGEN
100
AcDbCircle
 62
7
  6
CONTINUOUS
 10
77.1954014643
 20
161.9540429694
 40
4.0
100
AcDbArc
 50
151.0
 51
191.0
  0
ARC
  5
5BE
100
AcDbEntity
  8
RUNDUNGEN
100
AcDbCircle
 62
7
  6
CONTINUOUS
 10
84.1807633968
 20
174.5559694835
 40
4.0
100
AcDbArc
 50
111.0
 51
151.0
  0
ARC
  5
5BF
100
AcDbEntity
  8
RUNDUNGEN
100
AcDbCircle
 62
7
  6
CONTINUOUS
 10
122.192877865
 20
113.8417818204
 40
6.0
100
AcDbArc
 50
337.0
 51
22.0
  0
ARC
  5
5C0
100
AcDbEntity
  8
RUNDUNGEN
100
AcDbCircle
 62
7
  6
CONTINUOUS
 10
116.6869837816
 20
99.5008977656
 40
1.5
100
AcDbArc
 50
180.0
 51
270.0
  0
ARC
  5
5C1
100
AcDbEntity
  8
RUNDUNGEN
100
AcDbCircle
 62
7
  6
CONTINUOUS
 10
113.4369837816
 20
116.4031477656
 40
1.0
100
AcDbArc
 50
0.0
 51
90.0
  0
ARC
  5
5C2
100
AcDbEntity
  8
RUNDUNGEN
100
AcDbCircle
 62
7
  6
CONTINUOUS
 10
114.1869837816
 20
99.0008977656
 40
1.0
100
AcDbArc
 50
11.5210457177
 51
75.5125025585
  0
ARC
  5
5C3
100
AcDbEntity
  8
RUNDUNGEN
100
AcDbCircle
 62
7
  6
CONTINUOUS
 10
114.1869837816
 20
112.0008977656
 40
1.0
100
AcDbArc
 50
284.4874974415
 51
360.0
  0
ARC
  5
5C4
100
AcDbEntity
  8
RUNDUNGEN
100
AcDbCircle
 62
7
  6
CONTINUOUS
 10
121.3250982205
 20
99.0008977656
 40
1.0
100
AcDbArc
 50
270.0
 51
337.0
  0
ARC
  5
5C5
100
AcDbEntity
  8
RUNDUNGEN
100
AcDbCircle
 62
7
  6
CONTINUOUS
 10
115.6869837816
 20
113.3658977656
 40
0.5
100
AcDbArc
 50
90.0
 51
180.0
  0
ARC
  5
5C6
100
AcDbEntity
  8
RUNDUNGEN
100
AcDbCircle
 62
7
  6
CONTINUOUS
 10
106.0896048577
 20
126.0008977656
 40
6.0
100
AcDbArc
 50
21.9999822951
 51
90.0
  0
ARC
  5
5C7
100
AcDbEntity
  8
RUNDUNGEN
100
AcDbCircle
 62
7
  6
CONTINUOUS
 10
112.1869837816
 20
118.9177568382
 40
3.0
100
AcDbArc
 50
359.9991409938
 51
22.0
  0
ARC
  5
5C8
100
AcDbEntity
  8
0
100
AcDbCircle
 62
7
  6
CONTINUOUS
 10
105.9284152267
 20
117.7002587384
 40
1.0341130824
100
AcDbArc
 50
17.4482345913
 51
20.7110184856
  0
ARC
  5
5C9
100
AcDbEntity
  8
RUNDUNGEN
100
AcDbCircle
 62
7
  6
CONTINUOUS
 10
108.4826087816
 20
117.7531477656
 40
1.0
100
AcDbArc
 50
13.2129803602
 51
90.0
  0
ARC
  5
5CA
100
AcDbEntity
  8
0
100
AcDbCircle
 62
7
  6
CONTINUOUS
 10
107.3924837816
 20
117.7531477656
 40
1.0
100
AcDbArc
 50
13.2129803602
 51
37.3862399285
  0
ARC
  5
5CB
100
AcDbEntity
  8
0
100
AcDbCircle
 62
7
  6
CONTINUOUS
 10
105.9389837816
 20
117.7531477656
 40
1.0
100
AcDbArc
 50
18.7784751891
 51
23.2479184215
  0
ARC
  5
5CC
100
AcDbEntity
  8
0
100
AcDbCircle
 62
7
  6
CONTINUOUS
 10
105.9389837816
 20
117.7531477656
 40
1.0
100
AcDbArc
 50
13.2129803602
 51
17.7786658559
  0
ARC
  5
5CD
100
AcDbEntity
  8
RUNDUNGEN
100
AcDbCircle
 62
7
  6
CONTINUOUS
 10
105.9389837816
 20
117.7531477656
 40
1.0
100
AcDbArc
 50
13.2136347531
 51
90.0
  0
ARC
  5
5CE
100
AcDbEntity
  8
0
100
AcDbCircle
 62
7
  6
CONTINUOUS
 10
105.9789832673
 20
117.7162642909
 40
0.9810726029
100
AcDbArc
 50
15.6985573668
 51
17.4420099256
  0
ARC
  5
5CF
100
AcDbEntity
  8
RUNDUNGEN
100
AcDbCircle
 62
7
  6
CONTINUOUS
 10
107.6426562854
 20
118.1531477656
 40
0.75
100
AcDbArc
 50
193.212107836
 51
269.9981865373
  0
ARC
  5
5D0
100
AcDbEntity
  8
0
100
AcDbCircle
 62
7
  6
CONTINUOUS
 10
109.0961562854
 20
118.1531477656
 40
0.75
100
AcDbArc
 50
193.2129803602
 51
270.0
  0
ARC
  5
5D1
100
AcDbEntity
  8
RUNDUNGEN
100
AcDbCircle
 62
7
  6
CONTINUOUS
 10
110.1862812854
 20
118.1531477656
 40
0.75
100
AcDbArc
 50
193.2129803602
 51
270.0
  0
ARC
  5
5D2
100
AcDbEntity
  8
0
100
AcDbCircle
 62
7
  6
CONTINUOUS
 10
107.4815947701
 20
118.1380702468
 40
0.5796201965
100
AcDbArc
 50
195.6492374314
 51
203.3427572437
  0
ARC
  5
5D3
100
AcDbEntity
  8
RUNDUNGEN
100
AcDbCircle
 62
7
  6
CONTINUOUS
 10
115.3484866318
 20
120.4358977656
 40
0.5
100
AcDbArc
 50
202.0
 51
270.0
  0
ARC
  5
5D4
100
AcDbEntity
  8
RUNDUNGEN
100
AcDbCircle
 62
7
  6
CONTINUOUS
 10
140.2672731234
 20
133.1732956341
 40
18.0
100
AcDbArc
 50
148.852578251
 51
202.0000119174
  0
ARC
  5
5D5
100
AcDbEntity
  8
RUNDUNGEN
100
AcDbCircle
 62
7
  6
CONTINUOUS
 10
124.0874493988
 20
135.9816100158
 40
4.0
100
AcDbArc
 50
168.59
 51
202.92
  0
ARC
  5
5D6
100
AcDbEntity
  8
RUNDUNGEN
100
AcDbCircle
 62
7
  6
CONTINUOUS
 10
99.1869837816
 20
158.0008977656
 40
30.0
100
AcDbArc
 50
328.8525936382
 51
211.1474063372
  0
CIRCLE
  5
5D7
100
AcDbEntity
  8
RUNDUNGEN
100
AcDbCircle
 62
7
  6
CONTINUOUS
 10
99.1869837816
 20
158.0008977656
 40
19.0
  0
ARC
  5
5D8
100
AcDbEntity
  8
RUNDUNGEN
100
AcDbCircle
 62
7
  6
CONTINUOUS
 10
99.2612736337
 20
180.3448349934
 40
4.0
100
AcDbArc
 50
71.0
 51
111.0
  0
ARC
  5
5D9
100
AcDbEntity
  8
RUNDUNGEN
100
AcDbCircle
 62
7
  6
CONTINUOUS
 10
112.8847439376
 20
175.653897979
 40
4.0
100
AcDbArc
 50
31.0
 51
71.0
  0
ARC
  5
5DA
100
AcDbEntity
  8
RUNDUNGEN
100
AcDbCircle
 62
7
  6
CONTINUOUS
 10
121.1549135575
 20
161.890024365
 40
4.0
100
AcDbArc
 50
348.59
 51
31.0
  0
ARC
  5
5DB
100
AcDbEntity
  8
RUNDUNGEN
100
AcDbCircle
 62
7
  6
CONTINUOUS
 10
217.6058419681
 20
129.3237686886
 40
15.0
100
AcDbArc
 50
179.9998973594
 51
186.5000910059
  0
ARC
  5
5DC
100
AcDbEntity
  8
RUNDUNGEN
100
AcDbCircle
 62
7
  6
CONTINUOUS
 10
188.8558419681
 20
116.6491360387
 40
15.0
100
AcDbArc
 50
359.9999809609
 51
6.5000222028
  0
ARC
  5
5DD
100
AcDbEntity
  8
RUNDUNGEN
100
AcDbCircle
 62
7
  6
CONTINUOUS
 10
177.1058419681
 20
129.3237686886
 40
15.0
100
AcDbArc
 50
353.4999528179
 51
0.0001280697
  0
ARC
  5
5DE
100
AcDbEntity
  8
RUNDUNGEN
100
AcDbCircle
 62
7
  6
CONTINUOUS
 10
205.8558419681
 20
116.6491360387
 40
15.0
100
AcDbArc
 50
173.4999777928
 51
180.000019034
  0
ARC
  5
5DF
100
AcDbEntity
  8
0
100
AcDbCircle
 62
7
  6
CONTINUOUS
 10
206.1058419681
 20
128.6707513647
 40
3.0
100
AcDbArc
 50
180.0
 51
186.5
  0
ARC
  5
5E0
100
AcDbEntity
  8
RUNDUNGEN
100
AcDbCircle
 62
7
  6
CONTINUOUS
 10
201.8558419681
 20
100.0008977656
 40
2.0
100
AcDbArc
 50
270.0
 51
0.0012324438
  0
ARC
  5
5E1
100
AcDbEntity
  8
RUNDUNGEN
100
AcDbCircle
 62
7
  6
CONTINUOUS
 10
192.8558419681
 20
100.0008977656
 40
2.0
100
AcDbArc
 50
180.0
 51
270.0
  0
ARC
  5
5E2
100
AcDbEntity
  8
RUNDUNGEN
100
AcDbCircle
 62
7
  6
CONTINUOUS
 10
194.6058419681
 20
186.5008977656
 40
1.5
100
AcDbArc
 50
90.0
 51
180.0
  0
ARC
  5
5E3
100
AcDbEntity
  8
RUNDUNGEN
100
AcDbCircle
 62
7
  6
CONTINUOUS
 10
200.1058419681
 20
186.5008977656
 40
1.5
100
AcDbArc
 50
0.0
 51
90.0
  0
ARC
  5
5E4
100
AcDbEntity
  8
RUNDUNGEN
100
AcDbCircle
 62
7
  6
CONTINUOUS
 10
183.1058419681
 20
117.7531477656
 40
1.0
100
AcDbArc
 50
90.0
 51
180.0
  0
ARC
  5
5E5
100
AcDbEntity
  8
RUNDUNGEN
100
AcDbCircle
 62
7
  6
CONTINUOUS
 10
211.6058419681
 20
117.7531477656
 40
1.0
100
AcDbArc
 50
0.0
 51
90.0
  0
ARC
  5
5E6
100
AcDbEntity
  8
RUNDUNGEN
100
AcDbCircle
 62
7
  6
CONTINUOUS
 10
192.6058419681
 20
184.8448349934
 40
0.5
100
AcDbArc
 50
270.0
 51
360.0
  0
ARC
  5
5E7
100
AcDbEntity
  8
RUNDUNGEN
100
AcDbCircle
 62
7
  6
CONTINUOUS
 10
192.6058419681
 20
183.8448349934
 40
0.5
100
AcDbArc
 50
90.0
 51
180.0
  0
ARC
  5
5E8
100
AcDbEntity
  8
RUNDUNGEN
100
AcDbCircle
 62
7
  6
CONTINUOUS
 10
202.1058419681
 20
184.8448349934
 40
0.5
100
AcDbArc
 50
180.0
 51
270.0
  0
ARC
  5
5E9
100
AcDbEntity
  8
RUNDUNGEN
100
AcDbCircle
 62
7
  6
CONTINUOUS
 10
202.1058419681
 20
183.8448349934
 40
0.5
100
AcDbArc
 50
0.0
 51
90.0
  0
ARC
  5
5EA
100
AcDbEntity
  8
RUNDUNGEN
100
AcDbCircle
 62
7
  6
CONTINUOUS
 10
88.7819837816
 20
29.49296986
 40
4.845
100
AcDbArc
 50
180.0
 51
246.072900436
  0
ARC
  5
5EB
100
AcDbEntity
  8
RUNDUNGEN
100
AcDbCircle
 62
7
  6
CONTINUOUS
 10
82.1869822163
 20
32.693236383
 40
1.5000002819
100
AcDbArc
 50
270.000059791
 51
323.1301382287
  0
ARC
  5
5EC
100
AcDbEntity
  8
RUNDUNGEN
100
AcDbCircle
 62
7
  6
CONTINUOUS
 10
70.6869837816
 20
34.943236383
 40
1.5
100
AcDbArc
 50
180.0
 51
270.0
  0
ARC
  5
5ED
100
AcDbEntity
  8
RUNDUNGEN
100
AcDbCircle
 62
7
  6
CONTINUOUS
 10
81.6869837816
 20
32.693236383
 40
1.5
100
AcDbArc
 50
270.0
 51
319.9937286811
  0
ARC
  5
5EE
100
AcDbEntity
  8
RUNDUNGEN
100
AcDbCircle
 62
7
  6
CONTINUOUS
 10
71.1810896983
 20
32.193236383
 40
1.0
100
AcDbArc
 50
180.0
 51
270.0
  0
ARC
  5
5EF
100
AcDbEntity
  8
RUNDUNGEN
100
AcDbCircle
 62
7
  6
CONTINUOUS
 10
84.1869837816
 20
31.193236383
 40
1.0
100
AcDbArc
 50
133.7127699591
 51
143.1301023542
  0
ARC
  5
5F0
100
AcDbEntity
  8
RUNDUNGEN
100
AcDbCircle
 62
7
  6
CONTINUOUS
 10
72.6954014643
 20
32.943236383
 40
0.5
100
AcDbArc
 50
0.0
 51
90.0
  0
ARC
  5
5F1
100
AcDbEntity
  8
RUNDUNGEN
100
AcDbCircle
 62
7
  6
CONTINUOUS
 10
73.6954014643
 20
32.943236383
 40
0.5
100
AcDbArc
 50
180.0
 51
270.0
  0
ARC
  5
5F2
100
AcDbEntity
  8
RUNDUNGEN
100
AcDbCircle
 62
7
  6
CONTINUOUS
 10
80.0186881442
 20
31.693236383
 40
0.5
100
AcDbArc
 50
270.0
 51
291.9193530735
  0
ARC
  5
5F3
100
AcDbEntity
  8
RUNDUNGEN
100
AcDbCircle
 62
7
  6
CONTINUOUS
 10
88.9369837816
 20
45.7924869063
 40
5.0
100
AcDbArc
 50
113.700813931
 51
180.0
  0
ARC
  5
5F4
100
AcDbEntity
  8
0
100
AcDbCircle
 62
7
  6
CONTINUOUS
 10
90.2608559205
 20
47.0658490174
 40
2.702
100
AcDbArc
 50
90.0
 51
139.1412076665
  0
ARC
  5
5F5
100
AcDbEntity
  8
RUNDUNGEN
100
AcDbCircle
 62
7
  6
CONTINUOUS
 10
82.1869822163
 20
42.693236383
 40
1.5000002819
100
AcDbArc
 50
36.8698617713
 51
89.999940209
  0
ARC
  5
5F6
100
AcDbEntity
  8
RUNDUNGEN
100
AcDbCircle
 62
7
  6
CONTINUOUS
 10
70.6869837816
 20
40.443236383
 40
1.5
100
AcDbArc
 50
90.0
 51
180.0
  0
ARC
  5
5F7
100
AcDbEntity
  8
RUNDUNGEN
100
AcDbCircle
 62
7
  6
CONTINUOUS
 10
81.6869837816
 20
42.693236383
 40
1.5
100
AcDbArc
 50
40.0062713189
 51
90.0
  0
ARC
  5
5F8
100
AcDbEntity
  8
0
100
AcDbCircle
 62
7
  6
CONTINUOUS
 10
90.2608559205
 20
47.0658490174
 40
1.402
100
AcDbArc
 50
90.2974726987
 51
139.1412076665
  0
ARC
  5
5F9
100
AcDbEntity
  8
RUNDUNGEN
100
AcDbCircle
 62
7
  6
CONTINUOUS
 10
71.1810896983
 20
43.193236383
 40
1.0
100
AcDbArc
 50
90.0
 51
180.0
  0
ARC
  5
5FA
100
AcDbEntity
  8
RUNDUNGEN
100
AcDbCircle
 62
7
  6
CONTINUOUS
 10
84.1869837816
 20
44.193236383
 40
1.0
100
AcDbArc
 50
216.8698976458
 51
226.2872300409
  0
ARC
  5
5FB
100
AcDbEntity
  8
RUNDUNGEN
100
AcDbCircle
 62
7
  6
CONTINUOUS
 10
72.6954014643
 20
42.443236383
 40
0.5
100
AcDbArc
 50
270.0
 51
360.0
  0
ARC
  5
5FC
100
AcDbEntity
  8
RUNDUNGEN
100
AcDbCircle
 62
7
  6
CONTINUOUS
 10
73.6954014643
 20
42.443236383
 40
0.5
100
AcDbArc
 50
90.0
 51
180.0
  0
ARC
  5
5FD
100
AcDbEntity
  8
RUNDUNGEN
100
AcDbCircle
 62
7
  6
CONTINUOUS
 10
80.0186881442
 20
43.693236383
 40
0.5
100
AcDbArc
 50
28.373274675
 51
90.0
  0
ARC
  5
5FE
100
AcDbEntity
  8
RUNDUNGEN
100
AcDbCircle
 62
7
  6
CONTINUOUS
 10
99.1869837816
 20
22.443236383
 40
30.5
100
AcDbArc
 50
66.299186069
 51
113.700813931
  0
ARC
  5
5FF
100
AcDbEntity
  8
RUNDUNGEN
100
AcDbCircle
 62
7
  6
CONTINUOUS
 10
109.5919837816
 20
29.49296986
 40
4.845
100
AcDbArc
 50
293.927099564
 51
360.0
  0
ARC
  5
600
100
AcDbEntity
  8
RUNDUNGEN
100
AcDbCircle
 62
7
  6
CONTINUOUS
 10
116.1869855123
 20
32.693236383
 40
1.5000003137
100
AcDbArc
 50
216.8698579812
 51
269.9999338922
  0
ARC
  5
601
100
AcDbEntity
  8
RUNDUNGEN
100
AcDbCircle
 62
7
  6
CONTINUOUS
 10
127.6869837816
 20
34.943236383
 40
1.5
100
AcDbArc
 50
270.0
 51
360.0
  0
ARC
  5
602
100
AcDbEntity
  8
RUNDUNGEN
100
AcDbCircle
 62
7
  6
CONTINUOUS
 10
116.6869837816
 20
32.693236383
 40
1.5
100
AcDbArc
 50
220.0062713122
 51
270.0
  0
ARC
  5
603
100
AcDbEntity
  8
RUNDUNGEN
100
AcDbCircle
 62
7
  6
CONTINUOUS
 10
127.192877865
 20
32.193236383
 40
1.0
100
AcDbArc
 50
270.0
 51
360.0
  0
ARC
  5
604
100
AcDbEntity
  8
RUNDUNGEN
100
AcDbCircle
 62
7
  6
CONTINUOUS
 10
114.1869837816
 20
31.193236383
 40
1.0
100
AcDbArc
 50
36.8698976458
 51
46.2872304729
  0
ARC
  5
605
100
AcDbEntity
  8
RUNDUNGEN
100
AcDbCircle
 62
7
  6
CONTINUOUS
 10
125.6549135575
 20
32.943236383
 40
0.5
100
AcDbArc
 50
90.0
 51
180.0
  0
ARC
  5
606
100
AcDbEntity
  8
RUNDUNGEN
100
AcDbCircle
 62
7
  6
CONTINUOUS
 10
124.6549135575
 20
32.943236383
 40
0.5
100
AcDbArc
 50
270.0
 51
360.0
  0
ARC
  5
607
100
AcDbEntity
  8
RUNDUNGEN
100
AcDbCircle
 62
7
  6
CONTINUOUS
 10
118.3552794191
 20
31.693236383
 40
0.5
100
AcDbArc
 50
233.0374675982
 51
270.0
  0
ARC
  5
608
100
AcDbEntity
  8
0
100
AcDbCircle
 62
7
  6
CONTINUOUS
 10
99.1869837816
 20
37.693236383
 40
14.0
100
AcDbArc
 50
22.0267412094
 51
157.9732587906
  0
ARC
  5
609
100
AcDbEntity
  8
0
100
AcDbCircle
 62
7
  6
CONTINUOUS
 10
99.1869837816
 20
37.693236383
 40
14.0
100
AcDbArc
 50
202.0267412094
 51
337.9732587906
  0
ARC
  5
60A
100
AcDbEntity
  8
BEZUGSACHSEN
100
AcDbCircle
 62
7
  6
CONTINUOUS
 10
99.1869837816
 20
37.693236383
 40
9.5
100
AcDbArc
 50
33.5615487816
 51
146.4384512185
  0
ARC
  5
60B
100
AcDbEntity
  8
BEZUGSACHSEN
100
AcDbCircle
 62
7
  6
CONTINUOUS
 10
99.1869837816
 20
37.693236383
 40
9.5
100
AcDbArc
 50
213.5615487816
 51
326.4384512184
  0
ARC
  5
60C
100
AcDbEntity
  8
RUNDUNGEN
100
AcDbCircle
 62
7
  6
CONTINUOUS
 10
99.1869837816
 20
52.943236383
 40
30.5
100
AcDbArc
 50
246.072900436
 51
293.927099564
  0
ARC
  5
60D
100
AcDbEntity
  8
RUNDUNGEN
100
AcDbCircle
 62
7
  6
CONTINUOUS
 10
109.4369837816
 20
45.7924869063
 40
5.0
100
AcDbArc
 50
0.0
 51
66.299186069
  0
ARC
  5
60E
100
AcDbEntity
  8
0
100
AcDbCircle
 62
7
  6
CONTINUOUS
 10
108.1131116428
 20
47.0658490174
 40
2.702
100
AcDbArc
 50
40.8587923335
 51
90.0
  0
ARC
  5
60F
100
AcDbEntity
  8
0
100
AcDbCircle
 62
7
  6
CONTINUOUS
 10
108.1131116428
 20
47.0658490174
 40
1.402
100
AcDbArc
 50
40.8587923335
 51
89.7025273013
  0
ARC
  5
610
100
AcDbEntity
  8
RUNDUNGEN
100
AcDbCircle
 62
7
  6
CONTINUOUS
 10
116.1869855123
 20
42.693236383
 40
1.5000003137
100
AcDbArc
 50
90.0000661078
 51
143.1301420188
  0
ARC
  5
611
100
AcDbEntity
  8
RUNDUNGEN
100
AcDbCircle
 62
7
  6
CONTINUOUS
 10
127.6869837816
 20
40.443236383
 40
1.5
100
AcDbArc
 50
0.0
 51
90.0
  0
ARC
  5
612
100
AcDbEntity
  8
RUNDUNGEN
100
AcDbCircle
 62
7
  6
CONTINUOUS
 10
116.6869837816
 20
42.693236383
 40
1.5
100
AcDbArc
 50
90.0
 51
139.9937286811
  0
ARC
  5
613
100
AcDbEntity
  8
RUNDUNGEN
100
AcDbCircle
 62
7
  6
CONTINUOUS
 10
127.192877865
 20
43.193236383
 40
1.0
100
AcDbArc
 50
0.0
 51
90.0
  0
ARC
  5
614
100
AcDbEntity
  8
RUNDUNGEN
100
AcDbCircle
 62
7
  6
CONTINUOUS
 10
114.1869837816
 20
44.193236383
 40
1.0
100
AcDbArc
 50
313.7127695271
 51
323.1301023542
  0
ARC
  5
615
100
AcDbEntity
  8
RUNDUNGEN
100
AcDbCircle
 62
7
  6
CONTINUOUS
 10
125.6549135575
 20
42.443236383
 40
0.5
100
AcDbArc
 50
180.0
 51
270.0
  0
ARC
  5
616
100
AcDbEntity
  8
RUNDUNGEN
100
AcDbCircle
 62
7
  6
CONTINUOUS
 10
124.6549135575
 20
42.443236383
 40
0.5
100
AcDbArc
 50
0.0
 51
90.0
  0
ARC
  5
617
100
AcDbEntity
  8
RUNDUNGEN
100
AcDbCircle
 62
7
  6
CONTINUOUS
 10
118.3552794191
 20
43.693236383
 40
0.5
100
AcDbArc
 50
90.0
 51
151.626725325
  0
SPLINE
  5
618
100
AcDbEntity
  8
0
100
AcDbSpline
 62
7
  6
CONTINUOUS
 70
0
 71
3
 72
9
 73
5
 74
0
 42
0.0000001
 43
0.0000001
 44
0.0000000001
 40
0.0
 40
0.0
 40
0.0
 40
0.0
 40
0.2406107235
 40
1.0
 40
1.0
 40
1.0
 40
1.0
 10
91.5924159052
 20
118.2917379378
 30
0.0
 10
91.5808333459
 20
118.2736182377
 30
0.0
 10
91.5345711772
 20
118.1971468523
 30
0.0
 10
91.4961630314
 20
118.1157707493
 30
0.0
 10
91.4730808884
 20
118.0519434204
 30
0.0
  0
SPLINE
  5
619
100
AcDbEntity
  8
0
100
AcDbSpline
 62
7
  6
CONTINUOUS
 70
0
 71
3
 72
9
 73
5
 74
0
 42
0.0000001
 43
0.0000001
 44
0.0000000001
 40
0.0
 40
0.0
 40
0.0
 40
0.0
 40
0.2598899986
 40
1.0
 40
1.0
 40
1.0
 40
1.0
 10
106.8956998237
 20
118.0659777228
 30
0.0
 10
106.8879537498
 20
118.0865033778
 30
0.0
 10
106.8557480104
 20
118.1645664112
 30
0.0
 10
106.8152008738
 20
118.2390972665
 30
0.0
 10
106.7815516581
 20
118.2917379378
 30
0.0
  0
SPLINE
  5
61A
100
AcDbEntity
  8
0
100
AcDbSpline
 62
7
  6
CONTINUOUS
 70
0
 71
3
 72
9
 73
5
 74
0
 42
0.0000001
 43
0.0000001
 44
0.0000000001
 40
0.0
 40
0.0
 40
0.0
 40
0.0
 40
0.4421377945
 40
1.0
 40
1.0
 40
1.0
 40
1.0
 10
107.2024389371
 20
117.6586737735
 30
0.0
 10
107.151892173
 20
117.6763315607
 30
0.0
 10
107.0456227371
 20
117.7420920203
 30
0.0
 10
106.9762064388
 20
117.8463897501
 30
0.0
 10
106.9494159372
 20
117.90840688
 30
0.0
  0
SPLINE
  5
61B
100
AcDbEntity
  8
0
100
AcDbSpline
 62
7
  6
CONTINUOUS
 70
0
 71
3
 72
12
 73
8
 74
0
 42
0.0000001
 43
0.0000001
 44
0.0000000001
 40
0.0
 40
0.0
 40
0.0
 40
0.0
 40
0.1866768935
 40
0.2931309019
 40
0.4106149162
 40
0.6804280198
 40
1.0
 40
1.0
 40
1.0
 40
1.0
 10
108.4003199872
 20
117.6418621307
 30
0.0
 10
108.3372926537
 20
117.5989919342
 30
0.0
 10
108.2184779021
 20
117.5625830599
 30
0.0
 10
108.0523983274
 20
117.5437878477
 30
0.0
 10
107.8503940512
 20
117.5389536404
 30
0.0
 10
107.5622240885
 20
117.562881783
 30
0.0
 10
107.3256285444
 20
117.6156392508
 30
0.0
 10
107.2024389371
 20
117.6586737735
 30
0.0
  0
SPLINE
  5
61C
100
AcDbEntity
  8
0
100
AcDbSpline
 62
7
  6
CONTINUOUS
 70
0
 71
3
 72
11
 73
7
 74
0
 42
0.0000001
 43
0.0000001
 44
0.0000000001
 40
0.0
 40
0.0
 40
0.0
 40
0.0
 40
0.2461635705
 40
0.469550331
 40
0.7094012771
 40
1.0
 40
1.0
 40
1.0
 40
1.0
 10
108.5524717293
 20
117.6365172366
 30
0.0
 10
108.5428896606
 20
117.6466010828
 30
0.0
 10
108.5225407513
 20
117.6644101589
 30
0.0
 10
108.4826168964
 20
117.6765329501
 30
0.0
 10
108.4397155236
 20
117.666694023
 30
0.0
 10
108.4138981217
 20
117.6510977633
 30
0.0
 10
108.4003199872
 20
117.6418621307
 30
0.0
  0
SPLINE
  5
61D
100
AcDbEntity
  8
0
100
AcDbSpline
 62
7
  6
CONTINUOUS
 70
0
 71
3
 72
9
 73
5
 74
0
 42
0.0000001
 43
0.0000001
 44
0.0000000001
 40
0.0
 40
0.0
 40
0.0
 40
0.0
 40
0.2570609114
 40
1.0
 40
1.0
 40
1.0
 40
1.0
 10
91.4426748096
 20
117.9560742282
 30
0.0
 10
91.4406296704
 20
117.9498828414
 30
0.0
 10
91.4322754974
 20
117.9259313748
 30
0.0
 10
91.4223455257
 20
117.9025262686
 30
0.0
 10
91.4140860773
 20
117.8855878549
 30
0.0
  0
SPLINE
  5
61E
100
AcDbEntity
  8
0
100
AcDbSpline
 62
7
  6
CONTINUOUS
 70
0
 71
3
 72
9
 73
5
 74
0
 42
0.0000001
 43
0.0000001
 44
0.0000000001
 40
0.0
 40
0.0
 40
0.0
 40
0.0
 40
0.5538390592
 40
1.0
 40
1.0
 40
1.0
 40
1.0
 10
91.4140860773
 20
117.8855878549
 30
0.0
 10
91.3866864366
 20
117.8293968802
 30
0.0
 10
91.3185813573
 20
117.7350721738
 30
0.0
 10
91.21907213
 20
117.6752824148
 30
0.0
 10
91.1715286262
 20
117.6586737735
 30
0.0
  0
SPLINE
  5
61F
100
AcDbEntity
  8
0
100
AcDbSpline
 62
7
  6
CONTINUOUS
 70
0
 71
3
 72
13
 73
9
 74
0
 42
0.0000001
 43
0.0000001
 44
0.0000000001
 40
0.0
 40
0.0
 40
0.0
 40
0.0
 40
0.3192642376
 40
0.5887577142
 40
0.7060952258
 40
0.81245584
 40
0.9091498862
 40
1.0
 40
1.0
 40
1.0
 40
1.0
 10
91.1715286262
 20
117.6586737735
 30
0.0
 10
91.0483293609
 20
117.6156358769
 30
0.0
 10
90.8117750344
 20
117.5628665159
 30
0.0
 10
90.5234880032
 20
117.5390525072
 30
0.0
 10
90.3217316502
 20
117.5436369117
 30
0.0
 10
90.1914206512
 20
117.5587348199
 30
0.0
 10
90.0742065146
 20
117.5870624009
 30
0.0
 10
90.0043530858
 20
117.6209767281
 30
0.0
 10
89.9736475761
 20
117.6418621307
 30
0.0
  0
SPLINE
  5
620
100
AcDbEntity
  8
0
100
AcDbSpline
 62
7
  6
CONTINUOUS
 70
0
 71
3
 72
11
 73
7
 74
0
 42
0.0000001
 43
0.0000001
 44
0.0000000001
 40
0.0
 40
0.0
 40
0.0
 40
0.0
 40
0.2905987295
 40
0.5304497002
 40
0.7538364479
 40
1.0
 40
1.0
 40
1.0
 40
1.0
 10
89.9736475761
 20
117.6418621307
 30
0.0
 10
89.9600694412
 20
117.6510977636
 30
0.0
 10
89.9342520108
 20
117.666693967
 30
0.0
 10
89.8913506596
 20
117.6765329685
 30
0.0
 10
89.8514267895
 20
117.6644101788
 30
0.0
 10
89.831077902
 20
117.6466010821
 30
0.0
 10
89.821495834
 20
117.6365172366
 30
0.0
  0
SPLINE
  5
621
100
AcDbEntity
  8
BEZUGSACHSEN
100
AcDbSpline
 62
7
  6
CONTINUOUS
 70
0
 71
3
 72
11
 73
7
 74
0
 42
0.0000001
 43
0.0000001
 44
0.0000000001
 40
0.0
 40
0.0
 40
0.0
 40
0.0
 40
0.2404128614
 40
0.4855264342
 40
0.7383770716
 40
1.0
 40
1.0
 40
1.0
 40
1.0
 10
90.9597425038
 20
130.3031477718
 30
0.0
 10
91.1923405476
 20
130.3031477718
 30
0.0
 10
91.6629491861
 20
130.2625154648
 30
0.0
 10
92.3580863708
 20
130.0873932688
 30
0.0
 10
93.041952113
 20
129.8136625894
 30
0.0
 10
93.4829490345
 20
129.5812013196
 30
0.0
 10
93.7021562243
 20
129.4546419896
 30
0.0
  0
SPLINE
  5
622
100
AcDbEntity
  8
BEZUGSACHSEN
100
AcDbSpline
 62
7
  6
CONTINUOUS
 70
0
 71
3
 72
11
 73
7
 74
0
 42
0.0000001
 43
0.0000001
 44
0.0000000001
 40
0.0
 40
0.0
 40
0.0
 40
0.0
 40
0.261622934
 40
0.5144736199
 40
0.7595871898
 40
1.0
 40
1.0
 40
1.0
 40
1.0
 10
88.217328667
 20
129.4546419896
 30
0.0
 10
88.4365358713
 20
129.581201328
 30
0.0
 10
88.8775328078
 20
129.813662764
 30
0.0
 10
89.5613987671
 20
130.0873930572
 30
0.0
 10
90.2565358436
 20
130.262515828
 30
0.0
 10
90.7271444992
 20
130.3031477718
 30
0.0
 10
90.9597425038
 20
130.3031477718
 30
0.0
  0
SPLINE
  5
623
100
AcDbEntity
  8
BEZUGSACHSEN
100
AcDbSpline
 62
7
  6
CONTINUOUS
 70
0
 71
3
 72
10
 73
6
 74
0
 42
0.0000001
 43
0.0000001
 44
0.0000000001
 40
0.0
 40
0.0
 40
0.0
 40
0.0
 40
0.4998775273
 40
0.7499452582
 40
1.0
 40
1.0
 40
1.0
 40
1.0
 10
93.7021562243
 20
129.4546419896
 30
0.0
 10
94.5932754765
 20
129.7118859596
 30
0.0
 10
95.9518659331
 20
130.0334995436
 30
0.0
 10
97.7945670545
 20
130.2634678624
 30
0.0
 10
98.7230154931
 20
130.3031477634
 30
0.0
 10
99.1869838488
 20
130.3031477692
 30
0.0
  0
SPLINE
  5
624
100
AcDbEntity
  8
BEZUGSACHSEN
100
AcDbSpline
 62
7
  6
CONTINUOUS
 70
0
 71
3
 72
10
 73
6
 74
0
 42
0.0000001
 43
0.0000001
 44
0.0000000001
 40
0.0
 40
0.0
 40
0.0
 40
0.0
 40
0.2500554377
 40
0.5001240227
 40
1.0
 40
1.0
 40
1.0
 40
1.0
 10
99.1869838488
 20
130.3031477692
 30
0.0
 10
99.6509534788
 20
130.3031477692
 30
0.0
 10
100.5794044282
 20
130.2634625118
 30
0.0
 10
102.4221065587
 20
130.0335038064
 30
0.0
 10
103.7806948827
 20
129.7118851525
 30
0.0
 10
104.6718113389
 20
129.4546419896
 30
0.0
  0
SPLINE
  5
625
100
AcDbEntity
  8
BEZUGSACHSEN
100
AcDbSpline
 62
7
  6
CONTINUOUS
 70
0
 71
3
 72
11
 73
7
 74
0
 42
0.0000001
 43
0.0000001
 44
0.0000000001
 40
0.0
 40
0.0
 40
0.0
 40
0.0
 40
0.2616229339
 40
0.5144736199
 40
0.7595871899
 40
1.0
 40
1.0
 40
1.0
 40
1.0
 10
104.6718113389
 20
129.4546419896
 30
0.0
 10
104.8910185387
 20
129.5812013254
 30
0.0
 10
105.3320154662
 20
129.8136627569
 30
0.0
 10
106.0158814106
 20
130.0873930474
 30
0.0
 10
106.7110184717
 20
130.26251582
 30
0.0
 10
107.1816271179
 20
130.3031477657
 30
0.0
 10
107.4142251176
 20
130.3031477657
 30
0.0
  0
SPLINE
  5
626
100
AcDbEntity
  8
BEZUGSACHSEN
100
AcDbSpline
 62
7
  6
CONTINUOUS
 70
0
 71
3
 72
9
 73
5
 74
0
 42
0.0000001
 43
0.0000001
 44
0.0000000001
 40
0.0
 40
0.0
 40
0.0
 40
0.0
 40
0.4963045658
 40
1.0
 40
1.0
 40
1.0
 40
1.0
 10
107.4142251176
 20
130.3031477657
 30
0.0
 10
107.614119133
 20
130.3031477657
 30
0.0
 10
108.0173830365
 20
130.2732566628
 30
0.0
 10
108.4122544644
 20
130.1876651242
 30
0.0
 10
108.6075374171
 20
130.1327003295
 30
0.0
  0
LINE
  5
627
100
AcDbEntity
  8
BEZUGSACHSEN
100
AcDbLine
 62
7
  6
CONTINUOUS
 10
108.6075374171
 20
130.1327003295
 11
108.6311104126
 21
130.1260039181
  0
SPLINE
  5
628
100
AcDbEntity
  8
BEZUGSACHSEN
100
AcDbSpline
 62
7
  6
CONTINUOUS
 70
0
 71
3
 72
9
 73
5
 74
0
 42
0.0000001
 43
0.0000001
 44
0.0000000001
 40
0.0
 40
0.0
 40
0.0
 40
0.0
 40
0.2431664177
 40
1.0
 40
1.0
 40
1.0
 40
1.0
 10
108.6311104126
 20
130.1260039181
 30
0.0
 10
108.7611740765
 20
130.0887176859
 30
0.0
 10
109.289986938
 20
129.9140550003
 30
0.0
 10
109.7919404759
 20
129.6652007208
 30
0.0
 10
110.1566388963
 20
129.4546419896
 30
0.0
  0
SPLINE
  5
629
100
AcDbEntity
  8
RUNDUNGEN
100
AcDbSpline
 62
7
  6
CONTINUOUS
 70
0
 71
3
 72
9
 73
5
 74
0
 42
0.0000001
 43
0.0000001
 44
0.0000000001
 40
0.0
 40
0.0
 40
0.0
 40
0.0
 40
0.4995507696
 40
1.0
 40
1.0
 40
1.0
 40
1.0
 10
122.4492217043
 20
129.5742051061
 30
0.0
 10
122.3574933399
 20
129.798308579
 30
0.0
 10
122.1701594726
 20
130.2453927715
 30
0.0
 10
121.981256877
 20
130.6918017517
 30
0.0
 10
121.8867827454
 20
130.915234532
 30
0.0
  0
SPLINE
  5
62A
100
AcDbEntity
  8
RUNDUNGEN
100
AcDbSpline
 62
7
  6
CONTINUOUS
 70
0
 71
3
 72
9
 73
5
 74
0
 42
0.0000001
 43
0.0000001
 44
0.0000000001
 40
0.0
 40
0.0
 40
0.0
 40
0.0
 40
0.5073346886
 40
1.0
 40
1.0
 40
1.0
 40
1.0
 10
122.7690010955
 20
128.7491799585
 30
0.0
 10
122.7672877043
 20
128.7534430641
 30
0.0
 10
122.764198706
 20
128.7619633347
 30
0.0
 10
122.7603452551
 20
128.7701689271
 30
0.0
 10
122.7586710992
 20
128.7743046094
 30
0.0
  0
SPLINE
  5
62B
100
AcDbEntity
  8
RUNDUNGEN
100
AcDbSpline
 62
7
  6
CONTINUOUS
 70
0
 71
3
 72
9
 73
5
 74
0
 42
0.0000001
 43
0.0000001
 44
0.0000000001
 40
0.0
 40
0.0
 40
0.0
 40
0.0
 40
0.247325961
 40
1.0
 40
1.0
 40
1.0
 40
1.0
 10
122.7547788119
 20
128.8041827219
 30
0.0
 10
122.7556343084
 20
128.7995792466
 30
0.0
 10
122.7596381881
 20
128.7810681384
 30
0.0
 10
122.7648615974
 20
128.7628515235
 30
0.0
 10
122.7689897995
 20
128.749213248
 30
0.0
  0
SPLINE
  5
62C
100
AcDbEntity
  8
RUNDUNGEN
100
AcDbSpline
 62
7
  6
CONTINUOUS
 70
0
 71
3
 72
18
 73
14
 74
0
 42
0.0000001
 43
0.0000001
 44
0.0000000001
 40
0.0
 40
0.0
 40
0.0
 40
0.0
 40
0.003184889
 40
0.0121571549
 40
0.0271209053
 40
0.0481978937
 40
0.1089200779
 40
0.1953782662
 40
0.3141533839
 40
0.4827460537
 40
0.7025890881
 40
0.8320123662
 40
1.0
 40
1.0
 40
1.0
 40
1.0
 10
122.7799947569
 20
128.9077247489
 30
0.0
 10
122.7800220808
 20
128.9076127304
 30
0.0
 10
122.7796242012
 20
128.9072479902
 30
0.0
 10
122.7792606251
 20
128.9064056897
 30
0.0
 10
122.7783168039
 20
128.9050240937
 30
0.0
 10
122.7765650726
 20
128.9020190014
 30
0.0
 10
122.773468518
 20
128.8967512633
 30
0.0
 10
122.7688457613
 20
128.8883149977
 30
0.0
 10
122.7632075167
 20
128.8759654999
 30
0.0
 10
122.7585365176
 20
128.8581234342
 30
0.0
 10
122.7555276096
 20
128.8396393039
 30
0.0
 10
122.7529543268
 20
128.8210314132
 30
0.0
 10
122.7539757028
 20
128.8102149516
 30
0.0
 10
122.7548046892
 20
128.8041900496
 30
0.0
  0
SPLINE
  5
62D
100
AcDbEntity
  8
0
100
AcDbSpline
 62
7
  6
CONTINUOUS
 70
0
 71
3
 72
9
 73
5
 74
0
 42
0.0000001
 43
0.0000001
 44
0.0000000001
 40
0.0
 40
0.0
 40
0.0
 40
0.0
 40
0.2446997216
 40
1.0
 40
1.0
 40
1.0
 40
1.0
 10
204.0386928568
 20
118.7531477656
 30
0.0
 10
204.0122481701
 20
118.7531477656
 30
0.0
 10
203.9041929965
 20
118.7489535941
 30
0.0
 10
203.7969718703
 20
118.7287481598
 30
0.0
 10
203.7184988467
 20
118.7062833388
 30
0.0
  0
SPLINE
  5
62E
100
AcDbEntity
  8
BEZUGSACHSEN
100
AcDbSpline
 62
7
  6
CONTINUOUS
 70
0
 71
3
 72
9
 73
5
 74
0
 42
0.0000001
 43
0.0000001
 44
0.0000000001
 40
0.0
 40
0.0
 40
0.0
 40
0.0
 40
0.4984059562
 40
1.0
 40
1.0
 40
1.0
 40
1.0
 10
203.105912184
 20
130.2626915619
 30
0.0
 10
203.7423304547
 20
130.2115596075
 30
0.0
 10
205.0125001684
 20
130.0111252862
 30
0.0
 10
206.2462626381
 20
129.6578350996
 30
0.0
 10
206.8558419681
 20
129.4546419896
 30
0.0
  0
SPLINE
  5
62F
100
AcDbEntity
  8
BEZUGSACHSEN
100
AcDbSpline
 62
7
  6
CONTINUOUS
 70
0
 71
3
 72
10
 73
6
 74
0
 42
0.0000001
 43
0.0000001
 44
0.0000000001
 40
0.0
 40
0.0
 40
0.0
 40
0.0
 40
0.5015276526
 40
0.7510521563
 40
1.0
 40
1.0
 40
1.0
 40
1.0
 10
187.8558419681
 20
129.4546419896
 30
0.0
 10
188.5448736542
 20
129.6843192183
 30
0.0
 10
189.5957217376
 20
129.9784943022
 30
0.0
 10
191.025190227
 20
130.2177593556
 30
0.0
 10
191.7455896606
 20
130.2783363763
 30
0.0
 10
192.1058147023
 20
130.2929591004
 30
0.0
  0
LINE
  5
630
100
AcDbEntity
  8
RUNDUNGEN
100
AcDbLine
 62
7
  6
CONTINUOUS
 10
88.1566372514
 20
49.8932363443
 11
88.1878108999
 21
49.893236383
  0
LINE
  5
631
100
AcDbEntity
  8
RUNDUNGEN
100
AcDbLine
 62
7
  6
CONTINUOUS
 10
110.2173386707
 20
49.893236383
 11
110.186217628
 21
49.8932230839
  0
ELLIPSE
  5
632
100
AcDbEntity
  8
0
100
AcDbEllipse
 62
7
  6
CONTINUOUS
 10
116.6718417358
 20
28.943236383
 30
0.0
 11
-0.0
 21
3.0
 31
0.0
 40
0.6966847206
 41
0.0547468872
 42
0.1134464014
  0
ELLIPSE
  5
633
100
AcDbEntity
  8
0
100
AcDbEllipse
 62
7
  6
CONTINUOUS
 10
82.1011575212
 20
28.943236383
 30
0.0
 11
0.0
 21
3.0
 31
0.0
 40
0.213998805
 41
-0.1134464014
 42
-0.0295048393
  0
ELLIPSE
  5
634
100
AcDbEntity
  8
0
100
AcDbEllipse
 62
7
  6
CONTINUOUS
 10
79.1245596746
 20
28.943236383
 30
0.0
 11
0.0
 21
3.0
 31
0.0
 40
0.1378238777
 41
0.0881444686
 42
0.1134464014
  0
ELLIPSE
  5
635
100
AcDbEntity
  8
0
100
AcDbEllipse
 62
7
  6
CONTINUOUS
 10
79.1957739305
 20
28.943236383
 30
0.0
 11
0.0
 21
3.0
 31
0.0
 40
0.4074817726
 41
0.0587728415
 42
0.0881444686
  0
ELLIPSE
  5
636
100
AcDbEntity
  8
0
100
AcDbEllipse
 62
7
  6
CONTINUOUS
 10
119.4399710934
 20
17.443236383
 30
0.0
 11
0.0
 21
15.0
 31
0.0
 40
0.4040262258
 41
-0.1134464014
 42
-0.0987222282
  0
ELLIPSE
  5
637
100
AcDbEntity
  8
0
100
AcDbEllipse
 62
7
  6
CONTINUOUS
 10
123.6965359633
 20
17.443236383
 30
0.0
 11
37.1263028012
 21
0.0
 31
0.0
 40
0.4040262258
 41
1.669518555
 42
1.6842427282
  0
ELLIPSE
  5
638
100
AcDbEntity
  8
0
100
AcDbEllipse
 62
7
  6
CONTINUOUS
 10
116.0443977412
 20
28.943236383
 30
0.0
 11
-0.0
 21
3.0
 31
0.0
 40
0.4369540573
 41
0.0048349201
 42
0.1134464014
  0
ELLIPSE
  5
639
100
AcDbEntity
  8
0
100
AcDbEllipse
 62
7
  6
CONTINUOUS
 10
78.6443694177
 20
28.943236383
 30
0.0
 11
-0.0
 21
3.0
 31
0.0
 40
0.4074817726
 41
-0.0
 42
0.0238018289
  0
ELLIPSE
  5
63A
100
AcDbEntity
  8
0
100
AcDbEllipse
 62
7
  6
CONTINUOUS
 10
78.6286709683
 20
28.943236383
 30
0.0
 11
0.0
 21
3.0
 31
0.0
 40
0.1876116683
 41
0.0238018289
 42
0.1134464014
  0
ELLIPSE
  5
63B
100
AcDbEntity
  8
0
100
AcDbEllipse
 62
7
  6
CONTINUOUS
 10
82.640995992
 20
28.943236383
 30
0.0
 11
0.0
 21
3.0
 31
0.0
 40
0.085388927
 41
-0.1134464014
 42
-0.0317966589
  0
ELLIPSE
  5
63C
100
AcDbEntity
  8
0
100
AcDbEllipse
 62
7
  6
CONTINUOUS
 10
78.9104620744
 20
17.443236383
 30
0.0
 11
0.0
 21
15.0
 31
0.0
 40
0.4074817726
 41
6.2851762983
 42
6.3314985047
  0
ELLIPSE
  5
63D
100
AcDbEntity
  8
0
100
AcDbEllipse
 62
7
  6
CONTINUOUS
 10
78.7511846379
 20
17.443236383
 30
0.0
 11
0.0
 21
15.0
 31
0.0
 40
0.1876116683
 41
6.3314985047
 42
6.3594186944
  0
ENDSEC
  0
SECTION
  2
OBJECTS
  0
DICTIONARY
  5
C
100
AcDbDictionary
280
0
281
1
  3
ACAD_GROUP
350
D
  3
ACAD_MLINESTYLE
350
17
  3
ACAD_LAYOUT
350
1A
  3
ACAD_PLOTSETTINGS
350
19
  3
ACAD_PLOTSTYLENAME
350
E
  0
DICTIONARY
  5
D
102
{ACAD_REACTORS
330
C
102
}
100
AcDbDictionary
280
0
281
1
  0
ACDBDICTIONARYWDFLT
  5
E
102
{ACAD_REACTORS
330
C
102
}
100
AcDbDictionary
281
1
  3
Normal
350
F
100
AcDbDictionaryWithDefault
340
F
  0
DICTIONARY
  5
17
102
{ACAD_REACTORS
330
C
102
}
100
AcDbDictionary
280
0
281
1
  3
Standard
350
18
  0
DICTIONARY
  5
19
102
{ACAD_REACTORS
330
C
102
}
100
AcDbDictionary
281
1
  0
DICTIONARY
  5
1A
102
{ACAD_REACTORS
330
C
102
}
100
AcDbDictionary
281
1
  3
Model
350
63E
  3
Layout1
350
63F
  0
ACDBPLACEHOLDER
  5
F
102
{ACAD_REACTORS
330
E
102
}
  0
MLINESTYLE
  5
18
102
{ACAD_REACTORS
330
17
102
}
100
AcDbMlineStyle
  2
STANDARD
 70
0
  3

 62
256
 51
90.0
 52
90.0
 71
2
 49
0.5
 62
256
  6
BYLAYER
 49
-0.5
 62
256
  6
BYLAYER
  0
LAYOUT
  5
63E
102
{ACAD_REACTORS
330
1A
102
}
100
AcDbPlotSettings
  1

  2
none_device
  4
ISO_A4_(297.00_x_210.00_MM)
  6

 40
0.0
 41
0.0
 42
0.0
 43
0.0
 44
297.0
 45
210.0
 46
0.0
 47
0.0
 48
0.0
 49
0.0
140
0.0
141
0.0
142
1.0
143
1.0
 70
1024
 72
1
 73
0
 74
0
  7

 75
0
147
1.0
148
0.0
149
0.0
100
AcDbLayout
  1
Model
 70
0
 71
0
 10
0.0
 20
0.0
 11
297.0
 21
210.0
 12
0.0
 22
0.0
 32
0.0
 14
0.0
 24
0.0
 34
0.0
 15
0.0
 25
0.0
 35
0.0
146
0.0
 13
0.0
 23
0.0
 33
0.0
 16
1.0
 26
0.0
 36
0.0
 17
0.0
 27
1.0
 37
0.0
 76
0
330
210
345
0
346
0
  0
LAYOUT
  5
63F
102
{ACAD_REACTORS
330
1A
102
}
100
AcDbPlotSettings
  1

  2
none_device
  4
ISO_A4_(297.00_x_210.00_MM)
  6

 40
0.0
 41
0.0
 42
0.0
 43
0.0
 44
297.0
 45
210.0
 46
0.0
 47
0.0
 48
0.0
 49
0.0
140
0.0
141
0.0
142
1.0
143
1.0
 70
0
 72
1
 73
0
 74
0
  7

 75
0
147
1.0
148
0.0
149
0.0
100
AcDbLayout
  1
Layout1
 70
0
 71
1
 10
0.0
 20
0.0
 11
297.0
 21
210.0
 12
0.0
 22
0.0
 32
0.0
 14
0.0
 24
0.0
 34
0.0
 15
0.0
 25
0.0
 35
0.0
146
0.0
 13
0.0
 23
0.0
 33
0.0
 16
1.0
 26
0.0
 36
0.0
 17
0.0
 27
1.0
 37
0.0
 76
0
330
211
345
0
346
0
  0
ENDSEC
  0
EOF
